  0
SECTION
  2
HEADER
  9
$ACADVER
  1
AC1015
  9
$ACADMAINTVER
 70
     6
  9
$DWGCODEPAGE
  3
ANSI_1252
  9
$INSBASE
 10
0.0
 20
0.0
 30
0.0
  9
$EXTMIN
 10
0.0
 20
0.0
 30
0.0
  9
$EXTMAX
 10
25.0
 20
35.0
 30
0.0
  9
$LIMMIN
 10
0.0
 20
0.0
  9
$LIMMAX
 10
420.0
 20
297.0
  9
$ORTHOMODE
 70
     0
  9
$REGENMODE
 70
     1
  9
$FILLMODE
 70
     1
  9
$QTEXTMODE
 70
     0
  9
$MIRRTEXT
 70
     1
  9
$LTSCALE
 40
4.35
  9
$ATTMODE
 70
     1
  9
$TEXTSIZE
 40
2.5
  9
$TRACEWID
 40
1.0
  9
$TEXTSTYLE
  7
Standard
  9
$CLAYER
  8
0
  9
$CELTYPE
  6
ByLayer
  9
$CECOLOR
 62
   256
  9
$CELTSCALE
 40
1.0
  9
$DISPSILH
 70
     0
  9
$DIMSCALE
 40
1.0
  9
$DIMASZ
 40
2.5
  9
$DIMEXO
 40
0.625
  9
$DIMDLI
 40
3.75
  9
$DIMRND
 40
0.0
  9
$DIMDLE
 40
0.0
  9
$DIMEXE
 40
1.25
  9
$DIMTP
 40
0.0
  9
$DIMTM
 40
0.0
  9
$DIMTXT
 40
2.5
  9
$DIMCEN
 40
2.5
  9
$DIMTSZ
 40
0.0
  9
$DIMTOL
 70
     0
  9
$DIMLIM
 70
     0
  9
$DIMTIH
 70
     0
  9
$DIMTOH
 70
     0
  9
$DIMSE1
 70
     0
  9
$DIMSE2
 70
     0
  9
$DIMTAD
 70
     1
  9
$DIMZIN
 70
     8
  9
$DIMBLK
  1

  9
$DIMASO
 70
     1
  9
$DIMSHO
 70
     1
  9
$DIMPOST
  1

  9
$DIMAPOST
  1

  9
$DIMALT
 70
     0
  9
$DIMALTD
 70
     3
  9
$DIMALTF
 40
0.03937007874016
  9
$DIMLFAC
 40
1.0
  9
$DIMTOFL
 70
     1
  9
$DIMTVP
 40
0.0
  9
$DIMTIX
 70
     0
  9
$DIMSOXD
 70
     0
  9
$DIMSAH
 70
     0
  9
$DIMBLK1
  1

  9
$DIMBLK2
  1

  9
$DIMSTYLE
  2
ISO-25
  9
$DIMCLRD
 70
     0
  9
$DIMCLRE
 70
     0
  9
$DIMCLRT
 70
     0
  9
$DIMTFAC
 40
1.0
  9
$DIMGAP
 40
0.625
  9
$DIMJUST
 70
     0
  9
$DIMSD1
 70
     0
  9
$DIMSD2
 70
     0
  9
$DIMTOLJ
 70
     0
  9
$DIMTZIN
 70
     8
  9
$DIMALTZ
 70
     0
  9
$DIMALTTZ
 70
     0
  9
$DIMUPT
 70
     0
  9
$DIMDEC
 70
     2
  9
$DIMTDEC
 70
     2
  9
$DIMALTU
 70
     2
  9
$DIMALTTD
 70
     3
  9
$DIMTXSTY
  7
Standard
  9
$DIMAUNIT
 70
     0
  9
$DIMADEC
 70
     0
  9
$DIMALTRND
 40
0.0
  9
$DIMAZIN
 70
     0
  9
$DIMDSEP
 70
    44
  9
$DIMATFIT
 70
     3
  9
$DIMFRAC
 70
     0
  9
$DIMLDRBLK
  1

  9
$DIMLUNIT
 70
     2
  9
$DIMLWD
 70
    -2
  9
$DIMLWE
 70
    -2
  9
$DIMTMOVE
 70
     0
  9
$LUNITS
 70
     2
  9
$LUPREC
 70
     4
  9
$SKETCHINC
 40
1.0
  9
$FILLETRAD
 40
10.0
  9
$AUNITS
 70
     0
  9
$AUPREC
 70
     0
  9
$MENU
  1
.
  9
$ELEVATION
 40
0.0
  9
$PELEVATION
 40
0.0
  9
$THICKNESS
 40
0.0
  9
$LIMCHECK
 70
     0
  9
$CHAMFERA
 40
10.0
  9
$CHAMFERB
 40
10.0
  9
$CHAMFERC
 40
20.0
  9
$CHAMFERD
 40
0.0
  9
$SKPOLY
 70
     0
  9
$TDCREATE
 40
2458577.200694445
  9
$TDUCREATE
 40
2458577.117361111
  9
$TDUPDATE
 40
2458577.204166667
  9
$TDUUPDATE
 40
2458577.120833333
  9
$TDINDWG
 40
0.0000000116
  9
$TDUSRTIMER
 40
0.0000000116
  9
$USRTIMER
 70
     1
  9
$ANGBASE
 50
0.0
  9
$ANGDIR
 70
     0
  9
$PDMODE
 70
     0
  9
$PDSIZE
 40
0.0
  9
$PLINEWID
 40
0.0
  9
$SPLFRAME
 70
     0
  9
$SPLINETYPE
 70
     6
  9
$SPLINESEGS
 70
     8
  9
$HANDSEED
  5
B71
  9
$SURFTAB1
 70
     6
  9
$SURFTAB2
 70
     6
  9
$SURFTYPE
 70
     6
  9
$SURFU
 70
     6
  9
$SURFV
 70
     6
  9
$UCSBASE
  2

  9
$UCSNAME
  2

  9
$UCSORG
 10
0.0
 20
0.0
 30
0.0
  9
$UCSXDIR
 10
1.0
 20
0.0
 30
0.0
  9
$UCSYDIR
 10
0.0
 20
1.0
 30
0.0
  9
$UCSORTHOREF
  2

  9
$UCSORTHOVIEW
 70
     0
  9
$UCSORGTOP
 10
0.0
 20
0.0
 30
0.0
  9
$UCSORGBOTTOM
 10
0.0
 20
0.0
 30
0.0
  9
$UCSORGLEFT
 10
0.0
 20
0.0
 30
0.0
  9
$UCSORGRIGHT
 10
0.0
 20
0.0
 30
0.0
  9
$UCSORGFRONT
 10
0.0
 20
0.0
 30
0.0
  9
$UCSORGBACK
 10
0.0
 20
0.0
 30
0.0
  9
$PUCSBASE
  2

  9
$PUCSNAME
  2

  9
$PUCSORG
 10
0.0
 20
0.0
 30
0.0
  9
$PUCSXDIR
 10
1.0
 20
0.0
 30
0.0
  9
$PUCSYDIR
 10
0.0
 20
1.0
 30
0.0
  9
$PUCSORTHOREF
  2

  9
$PUCSORTHOVIEW
 70
     0
  9
$PUCSORGTOP
 10
0.0
 20
0.0
 30
0.0
  9
$PUCSORGBOTTOM
 10
0.0
 20
0.0
 30
0.0
  9
$PUCSORGLEFT
 10
0.0
 20
0.0
 30
0.0
  9
$PUCSORGRIGHT
 10
0.0
 20
0.0
 30
0.0
  9
$PUCSORGFRONT
 10
0.0
 20
0.0
 30
0.0
  9
$PUCSORGBACK
 10
0.0
 20
0.0
 30
0.0
  9
$USERI1
 70
     0
  9
$USERI2
 70
     0
  9
$USERI3
 70
     0
  9
$USERI4
 70
     0
  9
$USERI5
 70
     0
  9
$USERR1
 40
0.0
  9
$USERR2
 40
0.0
  9
$USERR3
 40
0.0
  9
$USERR4
 40
0.0
  9
$USERR5
 40
0.0
  9
$WORLDVIEW
 70
     1
  9
$SHADEDGE
 70
     3
  9
$SHADEDIF
 70
    70
  9
$TILEMODE
 70
     1
  9
$MAXACTVP
 70
    64
  9
$PINSBASE
 10
0.0
 20
0.0
 30
0.0
  9
$PLIMCHECK
 70
     0
  9
$PEXTMIN
 10
1.000000000000000E+20
 20
1.000000000000000E+20
 30
1.000000000000000E+20
  9
$PEXTMAX
 10
-1.000000000000000E+20
 20
-1.000000000000000E+20
 30
-1.000000000000000E+20
  9
$PLIMMIN
 10
0.0
 20
0.0
  9
$PLIMMAX
 10
420.0
 20
297.0
  9
$UNITMODE
 70
     0
  9
$VISRETAIN
 70
     1
  9
$PLINEGEN
 70
     0
  9
$PSLTSCALE
 70
     1
  9
$TREEDEPTH
 70
  3020
  9
$CMLSTYLE
  2
Standard
  9
$CMLJUST
 70
     0
  9
$CMLSCALE
 40
20.0
  9
$PROXYGRAPHICS
 70
     1
  9
$MEASUREMENT
 70
     1
  9
$CELWEIGHT
370
    -1
  9
$ENDCAPS
280
     0
  9
$JOINSTYLE
280
     0
  9
$LWDISPLAY
290
     0
  9
$INSUNITS
 70
     4
  9
$HYPERLINKBASE
  1

  9
$STYLESHEET
  1

  9
$XEDIT
290
     1
  9
$CEPSNTYPE
380
     0
  9
$PSTYLEMODE
290
     1
  9
$FINGERPRINTGUID
  2
{91DFB1E7-D63E-48EC-BA58-68C2AE98D0D0}
  9
$VERSIONGUID
  2
{FAEB1C32-E019-11D5-929B-00C0DF256EC4}
  9
$EXTNAMES
290
     1
  9
$PSVPSCALE
 40
0.0
  9
$OLESTARTUP
290
     0
  0
ENDSEC
  0
SECTION
  2
CLASSES
  0
CLASS
  1
ACDBDICTIONARYWDFLT
  2
AcDbDictionaryWithDefault
  3
ObjectDBX Classes
 90
        0
280
     0
281
     0
  0
CLASS
  1
VISUALSTYLE
  2
AcDbVisualStyle
  3
ObjectDBX Classes
 90
     4095
280
     0
281
     0
  0
CLASS
  1
MATERIAL
  2
AcDbMaterial
  3
ObjectDBX Classes
 90
     1153
280
     0
281
     0
  0
CLASS
  1
SCALE
  2
AcDbScale
  3
ObjectDBX Classes
 90
     1153
280
     0
281
     0
  0
CLASS
  1
DICTIONARYVAR
  2
AcDbDictionaryVar
  3
ObjectDBX Classes
 90
        0
280
     0
281
     0
  0
CLASS
  1
ACDBPLACEHOLDER
  2
AcDbPlaceHolder
  3
ObjectDBX Classes
 90
        0
280
     0
281
     0
  0
CLASS
  1
LAYOUT
  2
AcDbLayout
  3
ObjectDBX Classes
 90
        0
280
     0
281
     0
  0
ENDSEC
  0
SECTION
  2
TABLES
  0
TABLE
  2
VPORT
  5
8
330
0
100
AcDbSymbolTable
 70
     1
  0
VPORT
  5
29
330
8
100
AcDbSymbolTableRecord
100
AcDbViewportTableRecord
  2
*Active
 70
     0
 10
0.0
 20
0.0
 11
1.0
 21
1.0
 12
11.26
 22
4.5
 13
0.0
 23
0.0
 14
10.0
 24
10.0
 15
10.0
 25
10.0
 16
0.0
 26
0.0
 36
1.0
 17
0.0
 27
0.0
 37
0.0
 40
9.0
 41
2.503333333333333
 42
50.0
 43
0.0
 44
0.0
 50
0.0
 51
0.0
 71
     0
 72
   100
 73
     1
 74
     3
 75
     0
 76
     0
 77
     0
 78
     0
281
     0
 65
     1
110
0.0
120
0.0
130
0.0
111
1.0
121
0.0
131
0.0
112
0.0
122
1.0
132
0.0
 79
     0
146
0.0
  0
ENDTAB
  0
TABLE
  2
LTYPE
  5
5
330
0
100
AcDbSymbolTable
 70
    10
  0
LTYPE
  5
14
330
5
100
AcDbSymbolTableRecord
100
AcDbLinetypeTableRecord
  2
ByBlock
 70
     0
  3

 72
    65
 73
     0
 40
0.0
  0
LTYPE
  5
15
330
5
100
AcDbSymbolTableRecord
100
AcDbLinetypeTableRecord
  2
ByLayer
 70
     0
  3

 72
    65
 73
     0
 40
0.0
  0
LTYPE
  5
16
330
5
100
AcDbSymbolTableRecord
100
AcDbLinetypeTableRecord
  2
Continuous
 70
     0
  3
Solid line
 72
    65
 73
     0
 40
0.0
  0
LTYPE
  5
45
330
5
100
AcDbSymbolTableRecord
100
AcDbLinetypeTableRecord
  2
phl_thick
 70
     0
  3
THICK
 72
    65
 73
     0
 40
0.0
  0
LTYPE
  5
38A
330
5
100
AcDbSymbolTableRecord
100
AcDbLinetypeTableRecord
  2
ls_CUT
 70
     0
  3
THICK
 72
    65
 73
     0
 40
0.0
  0
LTYPE
  5
390
330
5
100
AcDbSymbolTableRecord
100
AcDbLinetypeTableRecord
  2
ls1
 70
     0
  3
THICK
 72
    65
 73
     0
 40
0.0
  0
LTYPE
  5
396
330
5
100
AcDbSymbolTableRecord
100
AcDbLinetypeTableRecord
  2
NOCUT
 70
     0
  3
THICK
 72
    65
 73
     0
 40
0.0
  0
LTYPE
  5
39A
330
5
100
AcDbSymbolTableRecord
100
AcDbLinetypeTableRecord
  2
SK1
 70
     0
  3
THICK
 72
    65
 73
     0
 40
0.0
  0
LTYPE
  5
3A2
330
5
100
AcDbSymbolTableRecord
100
AcDbLinetypeTableRecord
  2
ls_SK2
 70
     0
  3
THIN
 72
    65
 73
     0
 40
0.0
  0
LTYPE
  5
44E
330
5
100
AcDbSymbolTableRecord
100
AcDbLinetypeTableRecord
  2
ls_2
 70
     0
  3
THIN
 72
    65
 73
     0
 40
0.0
  0
LTYPE
  5
55C
330
5
100
AcDbSymbolTableRecord
100
AcDbLinetypeTableRecord
  2
LONGDASH_DASH
 70
     0
  3
THIN_DASHDOT
 72
    65
 73
     4
 40
0.85
 49
0.4
 74
     0
 49
-0.2
 74
     0
 49
0.05
 74
     0
 49
-0.2
 74
     0
  0
LTYPE
  5
59A
330
5
100
AcDbSymbolTableRecord
100
AcDbLinetypeTableRecord
  2
ls_SK1
 70
     0
  3
THICK
 72
    65
 73
     0
 40
0.0
  0
ENDTAB
  0
TABLE
  2
LAYER
  5
2
330
0
100
AcDbSymbolTable
 70
    10
  0
LAYER
  5
10
330
2
100
AcDbSymbolTableRecord
100
AcDbLayerTableRecord
  2
0
 70
     0
 62
     7
  6
Continuous
370
    -3
390
F
  0
LAYER
  5
44
330
2
100
AcDbSymbolTableRecord
100
AcDbLayerTableRecord
  2
1
 70
     0
 62
4
  6
CONTINUOUS
370
50
370
    -3
390
F
  0
LAYER
  5
389
330
2
100
AcDbSymbolTableRecord
100
AcDbLayerTableRecord
  2
CUT
 70
     0
 62
1
  6
CONTINUOUS
370
25
370
    -3
390
F
  0
LAYER
  5
38F
330
2
100
AcDbSymbolTableRecord
100
AcDbLayerTableRecord
  2
NOCUT
 70
     0
 62
7
  6
CONTINUOUS
370
25
370
    -3
390
F
  0
LAYER
  5
399
330
2
100
AcDbSymbolTableRecord
100
AcDbLayerTableRecord
  2
SK1
 70
     0
 62
4
  6
CONTINUOUS
370
50
370
    -3
390
F
  0
LAYER
  5
3A1
330
2
100
AcDbSymbolTableRecord
100
AcDbLayerTableRecord
  2
SK2
 70
     0
 62
7
  6
CONTINUOUS
370
25
370
    -3
390
F
  0
LAYER
  5
44D
330
2
100
AcDbSymbolTableRecord
100
AcDbLayerTableRecord
  2
2
 70
     0
 62
7
  6
CONTINUOUS
370
25
370
    -3
390
F
  0
LAYER
  5
55B
330
2
100
AcDbSymbolTableRecord
100
AcDbLayerTableRecord
  2
4
 70
     0
 62
2
  6
LONGDASH_DASH
370
25
370
    -3
390
F
  0
LAYER
  5
55E
330
2
100
AcDbSymbolTableRecord
100
AcDbLayerTableRecord
  2
SK4
 70
     0
 62
2
  6
LONGDASH_DASH
370
25
370
    -3
390
F
  0
LAYER
  5
5D3
330
2
100
AcDbSymbolTableRecord
100
AcDbLayerTableRecord
  2
SK6
 70
     0
 62
5
  6
CONTINUOUS
370
25
370
    -3
390
F
  0
ENDTAB
  0
TABLE
  2
STYLE
  5
3
330
0
100
AcDbSymbolTable
 70
     1
  0
STYLE
  5
11
330
3
100
AcDbSymbolTableRecord
100
AcDbTextStyleTableRecord
  2
Standard
 70
     0
 40
0.0
 41
1.0
 50
0.0
 71
     0
 42
2.5
  3
Monospac821 BT
  4

  0
ENDTAB
  0
TABLE
  2
VIEW
  5
6
330
0
100
AcDbSymbolTable
 70
     0
  0
ENDTAB
  0
TABLE
  2
UCS
  5
7
330
0
100
AcDbSymbolTable
 70
     0
  0
ENDTAB
  0
TABLE
  2
APPID
  5
9
330
0
100
AcDbSymbolTable
 70
     2
  0
APPID
  5
12
330
9
100
AcDbSymbolTableRecord
100
AcDbRegAppTableRecord
  2
ACAD
 70
     0
  0
APPID
  5
3F
330
9
100
AcDbSymbolTableRecord
100
AcDbRegAppTableRecord
  2
ccLab
 70
     0
  0
ENDTAB
  0
TABLE
  2
DIMSTYLE
  5
A
330
0
100
AcDbSymbolTable
 70
     1
100
AcDbDimStyleTable
  0
DIMSTYLE
105
27
330
A
100
AcDbSymbolTableRecord
100
AcDbDimStyleTableRecord
  2
ISO-25
 70
     0
 41
2.5
 42
0.625
 43
3.75
 44
1.25
 73
     0
 74
     0
 77
     1
 78
     8
140
2.5
141
2.5
143
0.03937007874016
147
0.625
171
     3
172
     1
271
     2
272
     2
274
     3
278
    44
283
     0
284
     8
340
11
  0
ENDTAB
  0
TABLE
  2
BLOCK_RECORD
  5
1
330
0
100
AcDbSymbolTable
 70
     2
  0
BLOCK_RECORD
  5
1F
330
1
100
AcDbSymbolTableRecord
100
AcDbBlockTableRecord
  2
*Model_Space
340
22
  0
BLOCK_RECORD
  5
1B
330
1
100
AcDbSymbolTableRecord
100
AcDbBlockTableRecord
  2
*Paper_Space
340
1E
  0
BLOCK_RECORD
  5
23
330
1
100
AcDbSymbolTableRecord
100
AcDbBlockTableRecord
  2
*Paper_Space0
340
26
  0
ENDTAB
  0
ENDSEC
  0
SECTION
  2
BLOCKS
  0
BLOCK
  5
20
330
1F
100
AcDbEntity
  8
0
100
AcDbBlockBegin
  2
*Model_Space
 70
     0
 10
0.0
 20
0.0
 30
0.0
  3
*Model_Space
  1

  0
ENDBLK
  5
21
330
1F
100
AcDbEntity
  8
0
100
AcDbBlockEnd
  0
BLOCK
  5
1C
330
1B
100
AcDbEntity
 67
     1
  8
0
100
AcDbBlockBegin
  2
*Paper_Space
 70
     0
 10
0.0
 20
0.0
 30
0.0
  3
*Paper_Space
  1

  0
ENDBLK
  5
1D
330
1B
100
AcDbEntity
 67
     1
  8
0
100
AcDbBlockEnd
  0
BLOCK
  5
24
330
23
100
AcDbEntity
  8
0
100
AcDbBlockBegin
  2
*Paper_Space0
 70
     0
 10
0.0
 20
0.0
 30
0.0
  3
*Paper_Space0
  1

  0
ENDBLK
  5
25
330
23
100
AcDbEntity
  8
0
100
AcDbBlockEnd
  0
ENDSEC
  0
SECTION
  2
ENTITIES
  0
LINE
  5
5DD
330
1F
100
AcDbEntity
  8
1
  6
CONTINUOUS
370
50
 62
4
100
AcDbLine
 10
99.12216199999999
 20
-0.871482
 30
0.0
 11
99.122086
 21
-0.753219
 31
0.0
  0
LINE
  5
5DE
330
1F
100
AcDbEntity
  8
1
  6
CONTINUOUS
370
50
 62
4
100
AcDbLine
 10
99.122467
 20
-0.987263
 30
0.0
 11
99.12216199999999
 21
-0.871482
 31
0.0
  0
LINE
  5
5DF
330
1F
100
AcDbEntity
  8
1
  6
CONTINUOUS
370
50
 62
4
100
AcDbLine
 10
99.122986
 20
-1.099035
 30
0.0
 11
99.122467
 21
-0.987263
 31
0.0
  0
LINE
  5
5E0
330
1F
100
AcDbEntity
  8
1
  6
CONTINUOUS
370
50
 62
4
100
AcDbLine
 10
99.123734
 20
-1.20537
 30
0.0
 11
99.122986
 21
-1.099035
 31
0.0
  0
LINE
  5
5E1
330
1F
100
AcDbEntity
  8
1
  6
CONTINUOUS
370
50
 62
4
100
AcDbLine
 10
99.12471
 20
-1.305076
 30
0.0
 11
99.123734
 21
-1.20537
 31
0.0
  0
LINE
  5
5E2
330
1F
100
AcDbEntity
  8
1
  6
CONTINUOUS
370
50
 62
4
100
AcDbLine
 10
99.1259
 20
-1.397035
 30
0.0
 11
99.12471
 21
-1.305076
 31
0.0
  0
LINE
  5
5E3
330
1F
100
AcDbEntity
  8
1
  6
CONTINUOUS
370
50
 62
4
100
AcDbLine
 10
99.127296
 20
-1.480446
 30
0.0
 11
99.1259
 21
-1.397035
 31
0.0
  0
LINE
  5
5E4
330
1F
100
AcDbEntity
  8
1
  6
CONTINUOUS
370
50
 62
4
100
AcDbLine
 10
99.12887599999999
 20
-1.554589
 30
0.0
 11
99.127296
 21
-1.480446
 31
0.0
  0
LINE
  5
5E5
330
1F
100
AcDbEntity
  8
1
  6
CONTINUOUS
370
50
 62
4
100
AcDbLine
 10
99.130623
 20
-1.618861
 30
0.0
 11
99.12887599999999
 21
-1.554589
 31
0.0
  0
LINE
  5
5E6
330
1F
100
AcDbEntity
  8
1
  6
CONTINUOUS
370
50
 62
4
100
AcDbLine
 10
99.13250699999999
 20
-1.673038
 30
0.0
 11
99.130623
 21
-1.618861
 31
0.0
  0
LINE
  5
5E7
330
1F
100
AcDbEntity
  8
1
  6
CONTINUOUS
370
50
 62
4
100
AcDbLine
 10
99.134506
 20
-1.717228
 30
0.0
 11
99.13250699999999
 21
-1.673038
 31
0.0
  0
LINE
  5
5E8
330
1F
100
AcDbEntity
  8
1
  6
CONTINUOUS
370
50
 62
4
100
AcDbLine
 10
99.160645
 20
1.625677
 30
0.0
 11
99.158997
 21
1.657483
 31
0.0
  0
LINE
  5
5E9
330
1F
100
AcDbEntity
  8
1
  6
CONTINUOUS
370
50
 62
4
100
AcDbLine
 10
99.158997
 20
1.657483
 30
0.0
 11
99.157326
 21
1.686558
 31
0.0
  0
LINE
  5
5EA
330
1F
100
AcDbEntity
  8
1
  6
CONTINUOUS
370
50
 62
4
100
AcDbLine
 10
99.13668799999999
 20
-1.752641
 30
0.0
 11
99.134506
 21
-1.717228
 31
0.0
  0
LINE
  5
5EB
330
1F
100
AcDbEntity
  8
1
  6
CONTINUOUS
370
50
 62
4
100
AcDbLine
 10
99.157326
 20
1.686558
 30
0.0
 11
99.155647
 21
1.712694
 31
0.0
  0
LINE
  5
5EC
330
1F
100
AcDbEntity
  8
1
  6
CONTINUOUS
370
50
 62
4
100
AcDbLine
 10
99.155647
 20
1.712694
 30
0.0
 11
99.153954
 21
1.735683
 31
0.0
  0
LINE
  5
5ED
330
1F
100
AcDbEntity
  8
1
  6
CONTINUOUS
370
50
 62
4
100
AcDbLine
 10
99.153954
 20
1.735683
 30
0.0
 11
99.152267
 21
1.755324
 31
0.0
  0
LINE
  5
5EE
330
1F
100
AcDbEntity
  8
1
  6
CONTINUOUS
370
50
 62
4
100
AcDbLine
 10
99.139046
 20
-1.778704
 30
0.0
 11
99.13668799999999
 21
-1.752641
 31
0.0
  0
LINE
  5
5EF
330
1F
100
AcDbEntity
  8
1
  6
CONTINUOUS
370
50
 62
4
100
AcDbLine
 10
44.998222
 20
-1.679463
 30
0.0
 11
44.99586499999999
 21
-1.656705
 31
0.0
  0
LINE
  5
5F0
330
1F
100
AcDbEntity
  8
1
  6
CONTINUOUS
370
50
 62
4
100
AcDbLine
 10
99.152267
 20
1.755324
 30
0.0
 11
99.150589
 21
1.771494
 31
0.0
  0
LINE
  5
5F1
330
1F
100
AcDbEntity
  8
1
  6
CONTINUOUS
370
50
 62
4
100
AcDbLine
 10
99.150589
 20
1.771494
 30
0.0
 11
99.14892599999999
 21
1.784116
 31
0.0
  0
LINE
  5
5F2
330
1F
100
AcDbEntity
  8
1
  6
CONTINUOUS
370
50
 62
4
100
AcDbLine
 10
99.141548
 20
-1.794608
 30
0.0
 11
99.139046
 21
-1.778704
 31
0.0
  0
LINE
  5
5F3
330
1F
100
AcDbEntity
  8
1
  6
CONTINUOUS
370
50
 62
4
100
AcDbLine
 10
99.88325499999999
 20
-0.029998
 30
0.0
 11
99.881546
 21
-0.01972
 31
0.0
  0
LINE
  5
5F4
330
1F
100
AcDbEntity
  8
1
  6
CONTINUOUS
370
50
 62
4
100
AcDbLine
 10
99.14892599999999
 20
1.784116
 30
0.0
 11
99.147278
 21
1.793113
 31
0.0
  0
LINE
  5
5F5
330
1F
100
AcDbEntity
  8
1
  6
CONTINUOUS
370
50
 62
4
100
AcDbLine
 10
99.881546
 20
-0.01972
 30
0.0
 11
99.87958499999999
 21
-0.00919
 31
0.0
  0
LINE
  5
5F6
330
1F
100
AcDbEntity
  8
1
  6
CONTINUOUS
370
50
 62
4
100
AcDbLine
 10
99.87958499999999
 20
-0.00919
 30
0.0
 11
99.877365
 21
0.001629
 31
0.0
  0
LINE
  5
5F7
330
1F
100
AcDbEntity
  8
1
  6
CONTINUOUS
370
50
 62
4
100
AcDbLine
 10
99.877365
 20
0.001629
 30
0.0
 11
99.87486299999999
 21
0.012779
 31
0.0
  0
LINE
  5
5F8
330
1F
100
AcDbEntity
  8
1
  6
CONTINUOUS
370
50
 62
4
100
AcDbLine
 10
99.87486299999999
 20
0.012779
 30
0.0
 11
99.872063
 21
0.024301
 31
0.0
  0
LINE
  5
5F9
330
1F
100
AcDbEntity
  8
1
  6
CONTINUOUS
370
50
 62
4
100
AcDbLine
 10
99.872063
 20
0.024301
 30
0.0
 11
99.86895799999999
 21
0.036246
 31
0.0
  0
LINE
  5
5FA
330
1F
100
AcDbEntity
  8
1
  6
CONTINUOUS
370
50
 62
4
100
AcDbLine
 10
99.86895799999999
 20
0.036246
 30
0.0
 11
99.86550899999999
 21
0.048665
 31
0.0
  0
LINE
  5
5FB
330
1F
100
AcDbEntity
  8
1
  6
CONTINUOUS
370
50
 62
4
100
AcDbLine
 10
99.147278
 20
1.793113
 30
0.0
 11
99.145653
 21
1.798409
 31
0.0
  0
LINE
  5
5FC
330
1F
100
AcDbEntity
  8
1
  6
CONTINUOUS
370
50
 62
4
100
AcDbLine
 10
99.87005599999999
 20
0.048735
 30
0.0
 11
99.85398099999999
 21
0.099691
 31
0.0
  0
LINE
  5
5FD
330
1F
100
AcDbEntity
  8
1
  6
CONTINUOUS
370
50
 62
4
100
AcDbLine
 10
99.85398099999999
 20
0.099691
 30
0.0
 11
99.831131
 21
0.161985
 31
0.0
  0
LINE
  5
5FE
330
1F
100
AcDbEntity
  8
1
  6
CONTINUOUS
370
50
 62
4
100
AcDbLine
 10
99.831131
 20
0.161985
 30
0.0
 11
99.79834699999999
 21
0.242212
 31
0.0
  0
LINE
  5
5FF
330
1F
100
AcDbEntity
  8
1
  6
CONTINUOUS
370
50
 62
4
100
AcDbLine
 10
45.007584
 20
-1.701517
 30
0.0
 11
44.998222
 21
-1.679463
 31
0.0
  0
LINE
  5
600
330
1F
100
AcDbEntity
  8
1
  6
CONTINUOUS
370
50
 62
4
100
AcDbLine
 10
99.244385
 20
1.387676
 30
0.0
 11
99.23273499999999
 21
1.414697
 31
0.0
  0
LINE
  5
601
330
1F
100
AcDbEntity
  8
1
  6
CONTINUOUS
370
50
 62
4
100
AcDbLine
 10
99.23273499999999
 20
1.414697
 30
0.0
 11
99.220879
 21
1.441615
 31
0.0
  0
LINE
  5
602
330
1F
100
AcDbEntity
  8
1
  6
CONTINUOUS
370
50
 62
4
100
AcDbLine
 10
99.79834699999999
 20
0.242212
 30
0.0
 11
99.74971
 21
0.35235
 31
0.0
  0
LINE
  5
603
330
1F
100
AcDbEntity
  8
1
  6
CONTINUOUS
370
50
 62
4
100
AcDbLine
 10
99.220879
 20
1.441615
 30
0.0
 11
99.20895399999999
 21
1.468504
 31
0.0
  0
LINE
  5
604
330
1F
100
AcDbEntity
  8
1
  6
CONTINUOUS
370
50
 62
4
100
AcDbLine
 10
99.20895399999999
 20
1.468504
 30
0.0
 11
99.19695999999999
 21
1.495355
 31
0.0
  0
LINE
  5
605
330
1F
100
AcDbEntity
  8
1
  6
CONTINUOUS
370
50
 62
4
100
AcDbLine
 10
99.19695999999999
 20
1.495355
 30
0.0
 11
99.18491399999999
 21
1.522156
 31
0.0
  0
LINE
  5
606
330
1F
100
AcDbEntity
  8
1
  6
CONTINUOUS
370
50
 62
4
100
AcDbLine
 10
99.18491399999999
 20
1.522156
 30
0.0
 11
99.172806
 21
1.548896
 31
0.0
  0
LINE
  5
607
330
1F
100
AcDbEntity
  8
1
  6
CONTINUOUS
370
50
 62
4
100
AcDbLine
 10
99.172806
 20
1.548896
 30
0.0
 11
99.160645
 21
1.575557
 31
0.0
  0
LINE
  5
608
330
1F
100
AcDbEntity
  8
1
  6
CONTINUOUS
370
50
 62
4
100
AcDbLine
 10
99.74971
 20
0.35235
 30
0.0
 11
99.672913
 21
0.5169969999999999
 31
0.0
  0
LINE
  5
609
330
1F
100
AcDbEntity
  8
1
  6
CONTINUOUS
370
50
 62
4
100
AcDbLine
 10
100.0
 20
0.0
 30
0.0
 11
99.14563
 21
1.79846
 31
0.0
  0
LINE
  5
60A
330
1F
100
AcDbEntity
  8
1
  6
CONTINUOUS
370
50
 62
4
100
AcDbLine
 10
99.672913
 20
0.5169969999999999
 30
0.0
 11
99.537651
 21
0.7963279999999999
 31
0.0
  0
LINE
  5
60B
330
1F
100
AcDbEntity
  8
1
  6
CONTINUOUS
370
50
 62
4
100
AcDbLine
 10
99.14417999999999
 20
-1.8
 30
0.0
 11
99.141548
 21
-1.794608
 31
0.0
  0
LINE
  5
60C
330
1F
100
AcDbEntity
  8
1
  6
CONTINUOUS
370
50
 62
4
100
AcDbLine
 10
99.537651
 20
0.7963279999999999
 30
0.0
 11
99.244385
 21
1.387676
 31
0.0
  0
LINE
  5
60D
330
1F
100
AcDbEntity
  8
1
  6
CONTINUOUS
370
50
 62
4
100
AcDbLine
 10
99.145653
 20
1.798409
 30
0.0
 11
99.145409
 21
1.798893
 31
0.0
  0
LINE
  5
60E
330
1F
100
AcDbEntity
  8
1
  6
CONTINUOUS
370
50
 62
4
100
AcDbLine
 10
100.0
 20
0.0
 30
0.0
 11
99.160645
 21
1.625678
 31
0.0
  0
LINE
  5
60F
330
1F
100
AcDbEntity
  8
1
  6
CONTINUOUS
370
50
 62
4
100
AcDbLine
 10
99.447701
 20
-0.141915
 30
0.0
 11
99.404091
 21
-0.066654
 31
0.0
  0
LINE
  5
610
330
1F
100
AcDbEntity
  8
1
  6
CONTINUOUS
370
50
 62
4
100
AcDbLine
 10
99.404091
 20
-0.066654
 30
0.0
 11
99.345573
 21
0.030556
 31
0.0
  0
LINE
  5
611
330
1F
100
AcDbEntity
  8
1
  6
CONTINUOUS
370
50
 62
4
100
AcDbLine
 10
99.345573
 20
0.030556
 30
0.0
 11
99.268852
 21
0.154188
 31
0.0
  0
LINE
  5
612
330
1F
100
AcDbEntity
  8
1
  6
CONTINUOUS
370
50
 62
4
100
AcDbLine
 10
99.268852
 20
0.154188
 30
0.0
 11
99.170647
 21
0.308654
 31
0.0
  0
LINE
  5
613
330
1F
100
AcDbEntity
  8
1
  6
CONTINUOUS
370
50
 62
4
100
AcDbLine
 10
99.145409
 20
1.798893
 30
0.0
 11
99.145157
 21
1.799288
 31
0.0
  0
LINE
  5
614
330
1F
100
AcDbEntity
  8
1
  6
CONTINUOUS
370
50
 62
4
100
AcDbLine
 10
99.170647
 20
0.308654
 30
0.0
 11
99.049713
 21
0.495307
 31
0.0
  0
LINE
  5
615
330
1F
100
AcDbEntity
  8
1
  6
CONTINUOUS
370
50
 62
4
100
AcDbLine
 10
99.049713
 20
0.495307
 30
0.0
 11
98.913857
 21
0.7020139999999999
 31
0.0
  0
LINE
  5
616
330
1F
100
AcDbEntity
  8
1
  6
CONTINUOUS
370
50
 62
4
100
AcDbLine
 10
98.913857
 20
0.7020139999999999
 30
0.0
 11
98.768875
 21
0.919743
 31
0.0
  0
LINE
  5
617
330
1F
100
AcDbEntity
  8
1
  6
CONTINUOUS
370
50
 62
4
100
AcDbLine
 10
45.02402499999999
 20
-1.722369
 30
0.0
 11
45.007584
 21
-1.701517
 31
0.0
  0
LINE
  5
618
330
1F
100
AcDbEntity
  8
1
  6
CONTINUOUS
370
50
 62
4
100
AcDbLine
 10
99.145157
 20
1.799288
 30
0.0
 11
99.144913
 21
1.799594
 31
0.0
  0
LINE
  5
619
330
1F
100
AcDbEntity
  8
1
  6
CONTINUOUS
370
50
 62
4
100
AcDbLine
 10
99.144913
 20
1.799594
 30
0.0
 11
99.144669
 21
1.799812
 31
0.0
  0
LINE
  5
61A
330
1F
100
AcDbEntity
  8
1
  6
CONTINUOUS
370
50
 62
4
100
AcDbLine
 10
46.625732
 20
1.123827
 30
0.0
 11
46.563194
 21
1.177354
 31
0.0
  0
LINE
  5
61B
330
1F
100
AcDbEntity
  8
1
  6
CONTINUOUS
370
50
 62
4
100
AcDbLine
 10
99.88325499999999
 20
-0.029998
 30
0.0
 11
98.768875
 21
0.919743
 31
0.0
  0
LINE
  5
61C
330
1F
100
AcDbEntity
  8
1
  6
CONTINUOUS
370
50
 62
4
100
AcDbLine
 10
46.563194
 20
1.177354
 30
0.0
 11
46.500729
 21
1.230586
 31
0.0
  0
LINE
  5
61D
330
1F
100
AcDbEntity
  8
1
  6
CONTINUOUS
370
50
 62
4
100
AcDbLine
 10
46.500729
 20
1.230586
 30
0.0
 11
46.438068
 21
1.283247
 31
0.0
  0
LINE
  5
61E
330
1F
100
AcDbEntity
  8
1
  6
CONTINUOUS
370
50
 62
4
100
AcDbLine
 10
46.438068
 20
1.283247
 30
0.0
 11
46.374931
 21
1.335061
 31
0.0
  0
LINE
  5
61F
330
1F
100
AcDbEntity
  8
1
  6
CONTINUOUS
370
50
 62
4
100
AcDbLine
 10
45.047253
 20
-1.741393
 30
0.0
 11
45.02402499999999
 21
-1.722369
 31
0.0
  0
LINE
  5
620
330
1F
100
AcDbEntity
  8
1
  6
CONTINUOUS
370
50
 62
4
100
AcDbLine
 10
46.374931
 20
1.335061
 30
0.0
 11
46.311043
 21
1.385752
 31
0.0
  0
LINE
  5
621
330
1F
100
AcDbEntity
  8
1
  6
CONTINUOUS
370
50
 62
4
100
AcDbLine
 10
84.474846
 20
-0.106574
 30
0.0
 11
84.254082
 21
0.066488
 31
0.0
  0
LINE
  5
622
330
1F
100
AcDbEntity
  8
1
  6
CONTINUOUS
370
50
 62
4
100
AcDbLine
 10
91.718353
 20
-0.106343
 30
0.0
 11
91.496635
 21
0.067423
 31
0.0
  0
LINE
  5
623
330
1F
100
AcDbEntity
  8
1
  6
CONTINUOUS
370
50
 62
4
100
AcDbLine
 10
87.215965
 20
-0.067047
 30
0.0
 11
86.994614
 21
0.106388
 31
0.0
  0
LINE
  5
624
330
1F
100
AcDbEntity
  8
1
  6
CONTINUOUS
370
50
 62
4
100
AcDbLine
 10
94.460236
 20
-0.067336
 30
0.0
 11
94.238571
 21
0.106267
 31
0.0
  0
LINE
  5
625
330
1F
100
AcDbEntity
  8
1
  6
CONTINUOUS
370
50
 62
4
100
AcDbLine
 10
48.11729
 20
0.0
 30
0.0
 11
47.98171199999999
 21
0.106143
 31
0.0
  0
LINE
  5
626
330
1F
100
AcDbEntity
  8
1
  6
CONTINUOUS
370
50
 62
4
100
AcDbLine
 10
79.972
 20
-0.066901
 30
0.0
 11
79.750435
 21
0.10648
 31
0.0
  0
LINE
  5
627
330
1F
100
AcDbEntity
  8
1
  6
CONTINUOUS
370
50
 62
4
100
AcDbLine
 10
77.231247
 20
-0.106596
 30
0.0
 11
77.009621
 21
0.066751
 31
0.0
  0
LINE
  5
628
330
1F
100
AcDbEntity
  8
1
  6
CONTINUOUS
370
50
 62
4
100
AcDbLine
 10
98.962051
 20
-0.106006
 30
0.0
 11
98.752487
 21
0.05788
 31
0.0
  0
LINE
  5
629
330
1F
100
AcDbEntity
  8
1
  6
CONTINUOUS
370
50
 62
4
100
AcDbLine
 10
48.139488
 20
-0.017355
 30
0.0
 11
48.11729
 21
0.0
 31
0.0
  0
LINE
  5
62A
330
1F
100
AcDbEntity
  8
1
  6
CONTINUOUS
370
50
 62
4
100
AcDbLine
 10
98.752487
 20
0.05788
 30
0.0
 11
98.542839
 21
0.22175
 31
0.0
  0
LINE
  5
62B
330
1F
100
AcDbEntity
  8
1
  6
CONTINUOUS
370
50
 62
4
100
AcDbLine
 10
50.796337
 20
0.086896
 30
0.0
 11
50.774094
 21
0.10428
 31
0.0
  0
LINE
  5
62C
330
1F
100
AcDbEntity
  8
1
  6
CONTINUOUS
370
50
 62
4
100
AcDbLine
 10
48.161705
 20
-0.034712
 30
0.0
 11
48.139488
 21
-0.017355
 31
0.0
  0
LINE
  5
62D
330
1F
100
AcDbEntity
  8
1
  6
CONTINUOUS
370
50
 62
4
100
AcDbLine
 10
50.818588
 20
0.069513
 30
0.0
 11
50.796337
 21
0.086896
 31
0.0
  0
LINE
  5
62E
330
1F
100
AcDbEntity
  8
1
  6
CONTINUOUS
370
50
 62
4
100
AcDbLine
 10
50.840843
 20
0.05213
 30
0.0
 11
50.818588
 21
0.069513
 31
0.0
  0
LINE
  5
62F
330
1F
100
AcDbEntity
  8
1
  6
CONTINUOUS
370
50
 62
4
100
AcDbLine
 10
72.949219
 20
-0.239512
 30
0.0
 11
72.728027
 21
-0.066795
 31
0.0
  0
LINE
  5
630
330
1F
100
AcDbEntity
  8
1
  6
CONTINUOUS
370
50
 62
4
100
AcDbLine
 10
47.98171199999999
 20
0.106143
 30
0.0
 11
47.846107
 21
0.212025
 31
0.0
  0
LINE
  5
631
330
1F
100
AcDbEntity
  8
1
  6
CONTINUOUS
370
50
 62
4
100
AcDbLine
 10
50.86310599999999
 20
0.03475
 30
0.0
 11
50.840843
 21
0.05213
 31
0.0
  0
LINE
  5
632
330
1F
100
AcDbEntity
  8
1
  6
CONTINUOUS
370
50
 62
4
100
AcDbLine
 10
80.193474
 20
-0.239783
 30
0.0
 11
79.972
 21
-0.066901
 31
0.0
  0
LINE
  5
633
330
1F
100
AcDbEntity
  8
1
  6
CONTINUOUS
370
50
 62
4
100
AcDbLine
 10
48.183937
 20
-0.052066
 30
0.0
 11
48.161705
 21
-0.034712
 31
0.0
  0
LINE
  5
634
330
1F
100
AcDbEntity
  8
1
  6
CONTINUOUS
370
50
 62
4
100
AcDbLine
 10
55.291622
 20
0.053964
 30
0.0
 11
55.085442
 21
0.214898
 31
0.0
  0
LINE
  5
635
330
1F
100
AcDbEntity
  8
1
  6
CONTINUOUS
370
50
 62
4
100
AcDbLine
 10
50.88538
 20
0.017372
 30
0.0
 11
50.86310599999999
 21
0.03475
 31
0.0
  0
LINE
  5
636
330
1F
100
AcDbEntity
  8
1
  6
CONTINUOUS
370
50
 62
4
100
AcDbLine
 10
72.728027
 20
-0.066795
 30
0.0
 11
72.505714
 21
0.10664
 31
0.0
  0
LINE
  5
637
330
1F
100
AcDbEntity
  8
1
  6
CONTINUOUS
370
50
 62
4
100
AcDbLine
 10
77.446648
 20
-0.274557
 30
0.0
 11
77.231247
 21
-0.106596
 31
0.0
  0
LINE
  5
638
330
1F
100
AcDbEntity
  8
1
  6
CONTINUOUS
370
50
 62
4
100
AcDbLine
 10
65.705338
 20
-0.239432
 30
0.0
 11
65.483871
 21
-0.066761
 31
0.0
  0
LINE
  5
639
330
1F
100
AcDbEntity
  8
1
  6
CONTINUOUS
370
50
 62
4
100
AcDbLine
 10
48.20619199999999
 20
-0.069416
 30
0.0
 11
48.183937
 21
-0.052066
 31
0.0
  0
LINE
  5
63A
330
1F
100
AcDbEntity
  8
1
  6
CONTINUOUS
370
50
 62
4
100
AcDbLine
 10
70.203659
 20
-0.275157
 30
0.0
 11
69.987549
 21
-0.106685
 31
0.0
  0
LINE
  5
63B
330
1F
100
AcDbEntity
  8
1
  6
CONTINUOUS
370
50
 62
4
100
AcDbLine
 10
50.90766499999999
 20
0.0
 30
0.0
 11
50.88538
 21
0.017372
 31
0.0
  0
LINE
  5
63C
330
1F
100
AcDbEntity
  8
1
  6
CONTINUOUS
370
50
 62
4
100
AcDbLine
 10
91.496635
 20
0.067423
 30
0.0
 11
91.27462
 21
0.240491
 31
0.0
  0
LINE
  5
63D
330
1F
100
AcDbEntity
  8
1
  6
CONTINUOUS
370
50
 62
4
100
AcDbLine
 10
69.987549
 20
-0.106685
 30
0.0
 11
69.768829
 21
0.063654
 31
0.0
  0
LINE
  5
63E
330
1F
100
AcDbEntity
  8
1
  6
CONTINUOUS
370
50
 62
4
100
AcDbLine
 10
87.438225
 20
-0.240114
 30
0.0
 11
87.215965
 21
-0.067047
 31
0.0
  0
LINE
  5
63F
330
1F
100
AcDbEntity
  8
1
  6
CONTINUOUS
370
50
 62
4
100
AcDbLine
 10
50.774094
 20
0.10428
 30
0.0
 11
50.534004
 21
0.291213
 31
0.0
  0
LINE
  5
640
330
1F
100
AcDbEntity
  8
1
  6
CONTINUOUS
370
50
 62
4
100
AcDbLine
 10
48.228466
 20
-0.086754
 30
0.0
 11
48.20619199999999
 21
-0.069416
 31
0.0
  0
LINE
  5
641
330
1F
100
AcDbEntity
  8
1
  6
CONTINUOUS
370
50
 62
4
100
AcDbLine
 10
94.238571
 20
0.106267
 30
0.0
 11
94.022774
 21
0.274217
 31
0.0
  0
LINE
  5
642
330
1F
100
AcDbEntity
  8
1
  6
CONTINUOUS
370
50
 62
4
100
AcDbLine
 10
98.988968
 20
-0.12695
 30
0.0
 11
98.962051
 21
-0.106006
 31
0.0
  0
LINE
  5
643
330
1F
100
AcDbEntity
  8
1
  6
CONTINUOUS
370
50
 62
4
100
AcDbLine
 10
62.959652
 20
-0.27492
 30
0.0
 11
62.743584
 21
-0.106897
 31
0.0
  0
LINE
  5
644
330
1F
100
AcDbEntity
  8
1
  6
CONTINUOUS
370
50
 62
4
100
AcDbLine
 10
62.520184
 20
0.066386
 30
0.0
 11
62.298302
 21
0.238928
 31
0.0
  0
LINE
  5
645
330
1F
100
AcDbEntity
  8
1
  6
CONTINUOUS
370
50
 62
4
100
AcDbLine
 10
65.483871
 20
-0.066761
 30
0.0
 11
65.260704
 21
0.106766
 31
0.0
  0
LINE
  5
646
330
1F
100
AcDbEntity
  8
1
  6
CONTINUOUS
370
50
 62
4
100
AcDbLine
 10
58.015404
 20
0.10718
 30
0.0
 11
57.798664
 21
0.275704
 31
0.0
  0
LINE
  5
647
330
1F
100
AcDbEntity
  8
1
  6
CONTINUOUS
370
50
 62
4
100
AcDbLine
 10
84.693344
 20
-0.276424
 30
0.0
 11
84.474846
 21
-0.106574
 31
0.0
  0
LINE
  5
648
330
1F
100
AcDbEntity
  8
1
  6
CONTINUOUS
370
50
 62
4
100
AcDbLine
 10
58.46122399999999
 20
-0.239245
 30
0.0
 11
58.238964
 21
-0.066502
 31
0.0
  0
LINE
  5
649
330
1F
100
AcDbEntity
  8
1
  6
CONTINUOUS
370
50
 62
4
100
AcDbLine
 10
58.238964
 20
-0.066502
 30
0.0
 11
58.015404
 21
0.10718
 31
0.0
  0
LINE
  5
64A
330
1F
100
AcDbEntity
  8
1
  6
CONTINUOUS
370
50
 62
4
100
AcDbLine
 10
48.250744
 20
-0.104061
 30
0.0
 11
48.228466
 21
-0.086754
 31
0.0
  0
LINE
  5
64B
330
1F
100
AcDbEntity
  8
1
  6
CONTINUOUS
370
50
 62
4
100
AcDbLine
 10
55.499001
 20
-0.10713
 30
0.0
 11
55.291622
 21
0.053964
 31
0.0
  0
LINE
  5
64C
330
1F
100
AcDbEntity
  8
1
  6
CONTINUOUS
370
50
 62
4
100
AcDbLine
 10
99.015907
 20
-0.147868
 30
0.0
 11
98.988968
 21
-0.12695
 31
0.0
  0
LINE
  5
64D
330
1F
100
AcDbEntity
  8
1
  6
CONTINUOUS
370
50
 62
4
100
AcDbLine
 10
84.254082
 20
0.066488
 30
0.0
 11
84.032547
 21
0.238485
 31
0.0
  0
LINE
  5
64E
330
1F
100
AcDbEntity
  8
1
  6
CONTINUOUS
370
50
 62
4
100
AcDbLine
 10
86.994614
 20
0.106388
 30
0.0
 11
86.77816
 21
0.274365
 31
0.0
  0
LINE
  5
64F
330
1F
100
AcDbEntity
  8
1
  6
CONTINUOUS
370
50
 62
4
100
AcDbLine
 10
62.743584
 20
-0.106897
 30
0.0
 11
62.520184
 21
0.066386
 31
0.0
  0
LINE
  5
650
330
1F
100
AcDbEntity
  8
1
  6
CONTINUOUS
370
50
 62
4
100
AcDbLine
 10
91.936584
 20
-0.275533
 30
0.0
 11
91.718353
 21
-0.106343
 31
0.0
  0
LINE
  5
651
330
1F
100
AcDbEntity
  8
1
  6
CONTINUOUS
370
50
 62
4
100
AcDbLine
 10
94.683319
 20
-0.240278
 30
0.0
 11
94.460236
 21
-0.067336
 31
0.0
  0
LINE
  5
652
330
1F
100
AcDbEntity
  8
1
  6
CONTINUOUS
370
50
 62
4
100
AcDbLine
 10
99.04287699999999
 20
-0.168758
 30
0.0
 11
99.015907
 21
-0.147868
 31
0.0
  0
LINE
  5
653
330
1F
100
AcDbEntity
  8
1
  6
CONTINUOUS
370
50
 62
4
100
AcDbLine
 10
65.260704
 20
0.106766
 30
0.0
 11
65.04319
 21
0.275166
 31
0.0
  0
LINE
  5
654
330
1F
100
AcDbEntity
  8
1
  6
CONTINUOUS
370
50
 62
4
100
AcDbLine
 10
55.703442
 20
-0.26538
 30
0.0
 11
55.499001
 21
-0.10713
 31
0.0
  0
LINE
  5
655
330
1F
100
AcDbEntity
  8
1
  6
CONTINUOUS
370
50
 62
4
100
AcDbLine
 10
69.768829
 20
0.063654
 30
0.0
 11
69.547775
 21
0.234715
 31
0.0
  0
LINE
  5
656
330
1F
100
AcDbEntity
  8
1
  6
CONTINUOUS
370
50
 62
4
100
AcDbLine
 10
55.085442
 20
0.214898
 30
0.0
 11
54.87898999999999
 21
0.374639
 31
0.0
  0
LINE
  5
657
330
1F
100
AcDbEntity
  8
1
  6
CONTINUOUS
370
50
 62
4
100
AcDbLine
 10
79.750435
 20
0.10648
 30
0.0
 11
79.533119
 21
0.274536
 31
0.0
  0
LINE
  5
658
330
1F
100
AcDbEntity
  8
1
  6
CONTINUOUS
370
50
 62
4
100
AcDbLine
 10
99.069862
 20
-0.189619
 30
0.0
 11
99.04287699999999
 21
-0.168758
 31
0.0
  0
LINE
  5
659
330
1F
100
AcDbEntity
  8
1
  6
CONTINUOUS
370
50
 62
4
100
AcDbLine
 10
77.009621
 20
0.066751
 30
0.0
 11
76.786407
 21
0.239268
 31
0.0
  0
LINE
  5
65A
330
1F
100
AcDbEntity
  8
1
  6
CONTINUOUS
370
50
 62
4
100
AcDbLine
 10
72.505714
 20
0.10664
 30
0.0
 11
72.28797899999999
 21
0.274811
 31
0.0
  0
LINE
  5
65B
330
1F
100
AcDbEntity
  8
1
  6
CONTINUOUS
370
50
 62
4
100
AcDbLine
 10
47.846107
 20
0.212025
 30
0.0
 11
47.709923
 21
0.317183
 31
0.0
  0
LINE
  5
65C
330
1F
100
AcDbEntity
  8
1
  6
CONTINUOUS
370
50
 62
4
100
AcDbLine
 10
48.470066
 20
-0.273325
 30
0.0
 11
48.250744
 21
-0.104061
 31
0.0
  0
LINE
  5
65D
330
1F
100
AcDbEntity
  8
1
  6
CONTINUOUS
370
50
 62
4
100
AcDbLine
 10
62.298302
 20
0.238928
 30
0.0
 11
62.076729
 21
0.409823
 31
0.0
  0
LINE
  5
65E
330
1F
100
AcDbEntity
  8
1
  6
CONTINUOUS
370
50
 62
4
100
AcDbLine
 10
99.09687799999999
 20
-0.210448
 30
0.0
 11
99.069862
 21
-0.189619
 31
0.0
  0
LINE
  5
65F
330
1F
100
AcDbEntity
  8
1
  6
CONTINUOUS
370
50
 62
4
100
AcDbLine
 10
58.682281
 20
-0.409659
 30
0.0
 11
58.46122399999999
 21
-0.239245
 31
0.0
  0
LINE
  5
660
330
1F
100
AcDbEntity
  8
1
  6
CONTINUOUS
370
50
 62
4
100
AcDbLine
 10
65.926613
 20
-0.409984
 30
0.0
 11
65.705338
 21
-0.239432
 31
0.0
  0
LINE
  5
661
330
1F
100
AcDbEntity
  8
1
  6
CONTINUOUS
370
50
 62
4
100
AcDbLine
 10
69.547775
 20
0.234715
 30
0.0
 11
69.327423
 21
0.404426
 31
0.0
  0
LINE
  5
662
330
1F
100
AcDbEntity
  8
1
  6
CONTINUOUS
370
50
 62
4
100
AcDbLine
 10
55.906406
 20
-0.421522
 30
0.0
 11
55.703442
 21
-0.26538
 31
0.0
  0
LINE
  5
663
330
1F
100
AcDbEntity
  8
1
  6
CONTINUOUS
370
50
 62
4
100
AcDbLine
 10
73.171249
 20
-0.410265
 30
0.0
 11
72.949219
 21
-0.239512
 31
0.0
  0
LINE
  5
664
330
1F
100
AcDbEntity
  8
1
  6
CONTINUOUS
370
50
 62
4
100
AcDbLine
 10
98.542839
 20
0.22175
 30
0.0
 11
98.33264899999999
 21
0.383392
 31
0.0
  0
LINE
  5
665
330
1F
100
AcDbEntity
  8
1
  6
CONTINUOUS
370
50
 62
4
100
AcDbLine
 10
99.123932
 20
-0.231244
 30
0.0
 11
99.09687799999999
 21
-0.210448
 31
0.0
  0
LINE
  5
666
330
1F
100
AcDbEntity
  8
1
  6
CONTINUOUS
370
50
 62
4
100
AcDbLine
 10
63.175163
 20
-0.440579
 30
0.0
 11
62.959652
 21
-0.27492
 31
0.0
  0
LINE
  5
667
330
1F
100
AcDbEntity
  8
1
  6
CONTINUOUS
370
50
 62
4
100
AcDbLine
 10
57.798664
 20
0.275704
 30
0.0
 11
57.582809
 21
0.441497
 31
0.0
  0
LINE
  5
668
330
1F
100
AcDbEntity
  8
1
  6
CONTINUOUS
370
50
 62
4
100
AcDbLine
 10
65.04319
 20
0.275166
 30
0.0
 11
64.826942
 21
0.441231
 31
0.0
  0
LINE
  5
669
330
1F
100
AcDbEntity
  8
1
  6
CONTINUOUS
370
50
 62
4
100
AcDbLine
 10
70.420593
 20
-0.441637
 30
0.0
 11
70.203659
 21
-0.275157
 31
0.0
  0
LINE
  5
66A
330
1F
100
AcDbEntity
  8
1
  6
CONTINUOUS
370
50
 62
4
100
AcDbLine
 10
76.786407
 20
0.239268
 30
0.0
 11
76.564644
 21
0.409407
 31
0.0
  0
LINE
  5
66B
330
1F
100
AcDbEntity
  8
1
  6
CONTINUOUS
370
50
 62
4
100
AcDbLine
 10
48.687363
 20
-0.439733
 30
0.0
 11
48.470066
 21
-0.273325
 31
0.0
  0
LINE
  5
66C
330
1F
100
AcDbEntity
  8
1
  6
CONTINUOUS
370
50
 62
4
100
AcDbLine
 10
72.28797899999999
 20
0.274811
 30
0.0
 11
72.070923
 21
0.441024
 31
0.0
  0
LINE
  5
66D
330
1F
100
AcDbEntity
  8
1
  6
CONTINUOUS
370
50
 62
4
100
AcDbLine
 10
80.416367
 20
-0.410449
 30
0.0
 11
80.193474
 21
-0.239783
 31
0.0
  0
LINE
  5
66E
330
1F
100
AcDbEntity
  8
1
  6
CONTINUOUS
370
50
 62
4
100
AcDbLine
 10
94.90592199999999
 20
-0.410494
 30
0.0
 11
94.683319
 21
-0.240278
 31
0.0
  0
LINE
  5
66F
330
1F
100
AcDbEntity
  8
1
  6
CONTINUOUS
370
50
 62
4
100
AcDbLine
 10
77.663681
 20
-0.440512
 30
0.0
 11
77.446648
 21
-0.274557
 31
0.0
  0
LINE
  5
670
330
1F
100
AcDbEntity
  8
1
  6
CONTINUOUS
370
50
 62
4
100
AcDbLine
 10
84.032547
 20
0.238485
 30
0.0
 11
83.809952
 21
0.408441
 31
0.0
  0
LINE
  5
671
330
1F
100
AcDbEntity
  8
1
  6
CONTINUOUS
370
50
 62
4
100
AcDbLine
 10
50.534004
 20
0.291213
 30
0.0
 11
50.293819
 21
0.474587
 31
0.0
  0
LINE
  5
672
330
1F
100
AcDbEntity
  8
1
  6
CONTINUOUS
370
50
 62
4
100
AcDbLine
 10
87.66139199999999
 20
-0.410492
 30
0.0
 11
87.438225
 21
-0.240114
 31
0.0
  0
LINE
  5
673
330
1F
100
AcDbEntity
  8
1
  6
CONTINUOUS
370
50
 62
4
100
AcDbLine
 10
91.27462
 20
0.240491
 30
0.0
 11
91.051491
 21
0.410761
 31
0.0
  0
LINE
  5
674
330
1F
100
AcDbEntity
  8
1
  6
CONTINUOUS
370
50
 62
4
100
AcDbLine
 10
79.533119
 20
0.274536
 30
0.0
 11
79.31536899999999
 21
0.440578
 31
0.0
  0
LINE
  5
675
330
1F
100
AcDbEntity
  8
1
  6
CONTINUOUS
370
50
 62
4
100
AcDbLine
 10
94.022774
 20
0.274217
 30
0.0
 11
93.805397
 21
0.439952
 31
0.0
  0
LINE
  5
676
330
1F
100
AcDbEntity
  8
1
  6
CONTINUOUS
370
50
 62
4
100
AcDbLine
 10
84.91263599999999
 20
-0.443473
 30
0.0
 11
84.693344
 21
-0.276424
 31
0.0
  0
LINE
  5
677
330
1F
100
AcDbEntity
  8
1
  6
CONTINUOUS
370
50
 62
4
100
AcDbLine
 10
86.77816
 20
0.274365
 30
0.0
 11
86.560272
 21
0.440201
 31
0.0
  0
LINE
  5
678
330
1F
100
AcDbEntity
  8
1
  6
CONTINUOUS
370
50
 62
4
100
AcDbLine
 10
92.15531899999999
 20
-0.441759
 30
0.0
 11
91.936584
 21
-0.275533
 31
0.0
  0
LINE
  5
679
330
1F
100
AcDbEntity
  8
1
  6
CONTINUOUS
370
50
 62
4
100
AcDbLine
 10
46.311043
 20
1.385752
 30
0.0
 11
46.246128
 21
1.435042
 31
0.0
  0
LINE
  5
67A
330
1F
100
AcDbEntity
  8
1
  6
CONTINUOUS
370
50
 62
4
100
AcDbLine
 10
47.709923
 20
0.317183
 30
0.0
 11
47.573116
 21
0.420938
 31
0.0
  0
LINE
  5
67B
330
1F
100
AcDbEntity
  8
1
  6
CONTINUOUS
370
50
 62
4
100
AcDbLine
 10
54.87898999999999
 20
0.374639
 30
0.0
 11
54.671886
 21
0.531061
 31
0.0
  0
LINE
  5
67C
330
1F
100
AcDbEntity
  8
1
  6
CONTINUOUS
370
50
 62
4
100
AcDbLine
 10
76.564644
 20
0.409407
 30
0.0
 11
76.34329199999999
 21
0.5762929999999999
 31
0.0
  0
LINE
  5
67D
330
1F
100
AcDbEntity
  8
1
  6
CONTINUOUS
370
50
 62
4
100
AcDbLine
 10
69.327423
 20
0.404426
 30
0.0
 11
69.10649099999999
 21
0.570937
 31
0.0
  0
LINE
  5
67E
330
1F
100
AcDbEntity
  8
1
  6
CONTINUOUS
370
50
 62
4
100
AcDbLine
 10
56.10952
 20
-0.5745399999999999
 30
0.0
 11
55.906406
 21
-0.421522
 31
0.0
  0
LINE
  5
67F
330
1F
100
AcDbEntity
  8
1
  6
CONTINUOUS
370
50
 62
4
100
AcDbLine
 10
83.809952
 20
0.408441
 30
0.0
 11
83.58856999999999
 21
0.575058
 31
0.0
  0
LINE
  5
680
330
1F
100
AcDbEntity
  8
1
  6
CONTINUOUS
370
50
 62
4
100
AcDbLine
 10
95.126961
 20
-0.5768099999999999
 30
0.0
 11
94.90592199999999
 21
-0.410494
 31
0.0
  0
LINE
  5
681
330
1F
100
AcDbEntity
  8
1
  6
CONTINUOUS
370
50
 62
4
100
AcDbLine
 10
58.904087
 20
-0.5765319999999999
 30
0.0
 11
58.682281
 21
-0.409659
 31
0.0
  0
LINE
  5
682
330
1F
100
AcDbEntity
  8
1
  6
CONTINUOUS
370
50
 62
4
100
AcDbLine
 10
62.076729
 20
0.409823
 30
0.0
 11
61.854538
 21
0.5769529999999999
 31
0.0
  0
LINE
  5
683
330
1F
100
AcDbEntity
  8
1
  6
CONTINUOUS
370
50
 62
4
100
AcDbLine
 10
87.883049
 20
-0.576792
 30
0.0
 11
87.66139199999999
 21
-0.410492
 31
0.0
  0
LINE
  5
684
330
1F
100
AcDbEntity
  8
1
  6
CONTINUOUS
370
50
 62
4
100
AcDbLine
 10
48.903633
 20
-0.601974
 30
0.0
 11
48.687363
 21
-0.439733
 31
0.0
  0
LINE
  5
685
330
1F
100
AcDbEntity
  8
1
  6
CONTINUOUS
370
50
 62
4
100
AcDbLine
 10
72.070923
 20
0.441024
 30
0.0
 11
71.854866
 21
0.60307
 31
0.0
  0
LINE
  5
686
330
1F
100
AcDbEntity
  8
1
  6
CONTINUOUS
370
50
 62
4
100
AcDbLine
 10
79.31536899999999
 20
0.440578
 30
0.0
 11
79.098854
 21
0.602892
 31
0.0
  0
LINE
  5
687
330
1F
100
AcDbEntity
  8
1
  6
CONTINUOUS
370
50
 62
4
100
AcDbLine
 10
98.33264899999999
 20
0.383392
 30
0.0
 11
98.12174999999999
 21
0.5414479999999999
 31
0.0
  0
LINE
  5
688
330
1F
100
AcDbEntity
  8
1
  6
CONTINUOUS
370
50
 62
4
100
AcDbLine
 10
91.051491
 20
0.410761
 30
0.0
 11
90.82940699999999
 21
0.577198
 31
0.0
  0
LINE
  5
689
330
1F
100
AcDbEntity
  8
1
  6
CONTINUOUS
370
50
 62
4
100
AcDbLine
 10
66.149284
 20
-0.576785
 30
0.0
 11
65.926613
 21
-0.409984
 31
0.0
  0
LINE
  5
68A
330
1F
100
AcDbEntity
  8
1
  6
CONTINUOUS
370
50
 62
4
100
AcDbLine
 10
64.826942
 20
0.441231
 30
0.0
 11
64.610809
 21
0.603127
 31
0.0
  0
LINE
  5
68B
330
1F
100
AcDbEntity
  8
1
  6
CONTINUOUS
370
50
 62
4
100
AcDbLine
 10
92.372185
 20
-0.604019
 30
0.0
 11
92.15531899999999
 21
-0.441759
 31
0.0
  0
LINE
  5
68C
330
1F
100
AcDbEntity
  8
1
  6
CONTINUOUS
370
50
 62
4
100
AcDbLine
 10
80.638916
 20
-0.576811
 30
0.0
 11
80.416367
 21
-0.410449
 31
0.0
  0
LINE
  5
68D
330
1F
100
AcDbEntity
  8
1
  6
CONTINUOUS
370
50
 62
4
100
AcDbLine
 10
86.560272
 20
0.440201
 30
0.0
 11
86.342934
 21
0.6026159999999999
 31
0.0
  0
LINE
  5
68E
330
1F
100
AcDbEntity
  8
1
  6
CONTINUOUS
370
50
 62
4
100
AcDbLine
 10
63.39217799999999
 20
-0.602752
 30
0.0
 11
63.175163
 21
-0.440579
 31
0.0
  0
LINE
  5
68F
330
1F
100
AcDbEntity
  8
1
  6
CONTINUOUS
370
50
 62
4
100
AcDbLine
 10
57.582809
 20
0.441497
 30
0.0
 11
57.366089
 21
0.603344
 31
0.0
  0
LINE
  5
690
330
1F
100
AcDbEntity
  8
1
  6
CONTINUOUS
370
50
 62
4
100
AcDbLine
 10
73.394279
 20
-0.576789
 30
0.0
 11
73.171249
 21
-0.410265
 31
0.0
  0
LINE
  5
691
330
1F
100
AcDbEntity
  8
1
  6
CONTINUOUS
370
50
 62
4
100
AcDbLine
 10
47.573116
 20
0.420938
 30
0.0
 11
47.436138
 21
0.5230819999999999
 31
0.0
  0
LINE
  5
692
330
1F
100
AcDbEntity
  8
1
  6
CONTINUOUS
370
50
 62
4
100
AcDbLine
 10
85.131737
 20
-0.6066349999999999
 30
0.0
 11
84.91263599999999
 21
-0.443473
 31
0.0
  0
LINE
  5
693
330
1F
100
AcDbEntity
  8
1
  6
CONTINUOUS
370
50
 62
4
100
AcDbLine
 10
93.805397
 20
0.439952
 30
0.0
 11
93.58740999999999
 21
0.602177
 31
0.0
  0
LINE
  5
694
330
1F
100
AcDbEntity
  8
1
  6
CONTINUOUS
370
50
 62
4
100
AcDbLine
 10
70.639572
 20
-0.604557
 30
0.0
 11
70.420593
 21
-0.441637
 31
0.0
  0
LINE
  5
695
330
1F
100
AcDbEntity
  8
1
  6
CONTINUOUS
370
50
 62
4
100
AcDbLine
 10
77.882065
 20
-0.602648
 30
0.0
 11
77.663681
 21
-0.440512
 31
0.0
  0
LINE
  5
696
330
1F
100
AcDbEntity
  8
1
  6
CONTINUOUS
370
50
 62
4
100
AcDbLine
 10
50.293819
 20
0.474587
 30
0.0
 11
50.05192599999999
 21
0.652984
 31
0.0
  0
LINE
  5
697
330
1F
100
AcDbEntity
  8
1
  6
CONTINUOUS
370
50
 62
4
100
AcDbLine
 10
47.436138
 20
0.5230819999999999
 30
0.0
 11
47.299454
 21
0.623429
 31
0.0
  0
LINE
  5
698
330
1F
100
AcDbEntity
  8
1
  6
CONTINUOUS
370
50
 62
4
100
AcDbLine
 10
98.12174999999999
 20
0.5414479999999999
 30
0.0
 11
97.912399
 21
0.6949839999999999
 31
0.0
  0
LINE
  5
699
330
1F
100
AcDbEntity
  8
1
  6
CONTINUOUS
370
50
 62
4
100
AcDbLine
 10
54.671886
 20
0.531061
 30
0.0
 11
54.46418
 21
0.6827909999999999
 31
0.0
  0
LINE
  5
69A
330
1F
100
AcDbEntity
  8
1
  6
CONTINUOUS
370
50
 62
4
100
AcDbLine
 10
83.58856999999999
 20
0.575058
 30
0.0
 11
83.366844
 21
0.7368439999999999
 31
0.0
  0
LINE
  5
69B
330
1F
100
AcDbEntity
  8
1
  6
CONTINUOUS
370
50
 62
4
100
AcDbLine
 10
90.82940699999999
 20
0.577198
 30
0.0
 11
90.609138
 21
0.737918
 31
0.0
  0
LINE
  5
69C
330
1F
100
AcDbEntity
  8
1
  6
CONTINUOUS
370
50
 62
4
100
AcDbLine
 10
88.103859
 20
-0.7378319999999999
 30
0.0
 11
87.883049
 21
-0.576792
 31
0.0
  0
LINE
  5
69D
330
1F
100
AcDbEntity
  8
1
  6
CONTINUOUS
370
50
 62
4
100
AcDbLine
 10
95.34816699999999
 20
-0.738073
 30
0.0
 11
95.126961
 21
-0.5768099999999999
 31
0.0
  0
LINE
  5
69E
330
1F
100
AcDbEntity
  8
1
  6
CONTINUOUS
370
50
 62
4
100
AcDbLine
 10
80.859856
 20
-0.737729
 30
0.0
 11
80.638916
 21
-0.576811
 31
0.0
  0
LINE
  5
69F
330
1F
100
AcDbEntity
  8
1
  6
CONTINUOUS
370
50
 62
4
100
AcDbLine
 10
76.34329199999999
 20
0.5762929999999999
 30
0.0
 11
76.12133
 21
0.737938
 31
0.0
  0
LINE
  5
6A0
330
1F
100
AcDbEntity
  8
1
  6
CONTINUOUS
370
50
 62
4
100
AcDbLine
 10
56.314358
 20
-0.7234039999999999
 30
0.0
 11
56.10952
 21
-0.5745399999999999
 31
0.0
  0
LINE
  5
6A1
330
1F
100
AcDbEntity
  8
1
  6
CONTINUOUS
370
50
 62
4
100
AcDbLine
 10
73.615875
 20
-0.7376929999999999
 30
0.0
 11
73.394279
 21
-0.576789
 31
0.0
  0
LINE
  5
6A2
330
1F
100
AcDbEntity
  8
1
  6
CONTINUOUS
370
50
 62
4
100
AcDbLine
 10
69.10649099999999
 20
0.570937
 30
0.0
 11
68.88475799999999
 21
0.731858
 31
0.0
  0
LINE
  5
6A3
330
1F
100
AcDbEntity
  8
1
  6
CONTINUOUS
370
50
 62
4
100
AcDbLine
 10
92.58880599999999
 20
-0.7611519999999999
 30
0.0
 11
92.372185
 21
-0.604019
 31
0.0
  0
LINE
  5
6A4
330
1F
100
AcDbEntity
  8
1
  6
CONTINUOUS
370
50
 62
4
100
AcDbLine
 10
86.342934
 20
0.6026159999999999
 30
0.0
 11
86.126671
 21
0.759467
 31
0.0
  0
LINE
  5
6A5
330
1F
100
AcDbEntity
  8
1
  6
CONTINUOUS
370
50
 62
4
100
AcDbLine
 10
93.58740999999999
 20
0.602177
 30
0.0
 11
93.370621
 21
0.7592939999999999
 31
0.0
  0
LINE
  5
6A6
330
1F
100
AcDbEntity
  8
1
  6
CONTINUOUS
370
50
 62
4
100
AcDbLine
 10
79.098854
 20
0.602892
 30
0.0
 11
78.88259099999999
 21
0.7595799999999999
 31
0.0
  0
LINE
  5
6A7
330
1F
100
AcDbEntity
  8
1
  6
CONTINUOUS
370
50
 62
4
100
AcDbLine
 10
85.349747
 20
-0.76455
 30
0.0
 11
85.131737
 21
-0.6066349999999999
 31
0.0
  0
LINE
  5
6A8
330
1F
100
AcDbEntity
  8
1
  6
CONTINUOUS
370
50
 62
4
100
AcDbLine
 10
66.37174999999999
 20
-0.7377509999999999
 30
0.0
 11
66.149284
 21
-0.576785
 31
0.0
  0
LINE
  5
6A9
330
1F
100
AcDbEntity
  8
1
  6
CONTINUOUS
370
50
 62
4
100
AcDbLine
 10
47.299454
 20
0.623429
 30
0.0
 11
47.163532
 21
0.721768
 31
0.0
  0
LINE
  5
6AA
330
1F
100
AcDbEntity
  8
1
  6
CONTINUOUS
370
50
 62
4
100
AcDbLine
 10
78.099541
 20
-0.759977
 30
0.0
 11
77.882065
 21
-0.602648
 31
0.0
  0
LINE
  5
6AB
330
1F
100
AcDbEntity
  8
1
  6
CONTINUOUS
370
50
 62
4
100
AcDbLine
 10
59.126976
 20
-0.737683
 30
0.0
 11
58.904087
 21
-0.5765319999999999
 31
0.0
  0
LINE
  5
6AC
330
1F
100
AcDbEntity
  8
1
  6
CONTINUOUS
370
50
 62
4
100
AcDbLine
 10
49.120861
 20
-0.759011
 30
0.0
 11
48.903633
 21
-0.601974
 31
0.0
  0
LINE
  5
6AD
330
1F
100
AcDbEntity
  8
1
  6
CONTINUOUS
370
50
 62
4
100
AcDbLine
 10
71.854866
 20
0.60307
 30
0.0
 11
71.638077
 21
0.759706
 31
0.0
  0
LINE
  5
6AE
330
1F
100
AcDbEntity
  8
1
  6
CONTINUOUS
370
50
 62
4
100
AcDbLine
 10
61.854538
 20
0.5769529999999999
 30
0.0
 11
61.631378
 21
0.738143
 31
0.0
  0
LINE
  5
6AF
330
1F
100
AcDbEntity
  8
1
  6
CONTINUOUS
370
50
 62
4
100
AcDbLine
 10
64.610809
 20
0.603127
 30
0.0
 11
64.393158
 21
0.7597999999999999
 31
0.0
  0
LINE
  5
6B0
330
1F
100
AcDbEntity
  8
1
  6
CONTINUOUS
370
50
 62
4
100
AcDbLine
 10
70.858841
 20
-0.7622899999999999
 30
0.0
 11
70.639572
 21
-0.604557
 31
0.0
  0
LINE
  5
6B1
330
1F
100
AcDbEntity
  8
1
  6
CONTINUOUS
370
50
 62
4
100
AcDbLine
 10
46.246128
 20
1.435042
 30
0.0
 11
46.179905
 21
1.482657
 31
0.0
  0
LINE
  5
6B2
330
1F
100
AcDbEntity
  8
1
  6
CONTINUOUS
370
50
 62
4
100
AcDbLine
 10
57.366089
 20
0.603344
 30
0.0
 11
57.147923
 21
0.760126
 31
0.0
  0
LINE
  5
6B3
330
1F
100
AcDbEntity
  8
1
  6
CONTINUOUS
370
50
 62
4
100
AcDbLine
 10
63.610706
 20
-0.7596689999999999
 30
0.0
 11
63.39217799999999
 21
-0.602752
 31
0.0
  0
LINE
  5
6B4
330
1F
100
AcDbEntity
  8
1
  6
CONTINUOUS
370
50
 62
4
100
AcDbLine
 10
50.05192599999999
 20
0.652984
 30
0.0
 11
49.81030699999999
 21
0.824865
 31
0.0
  0
LINE
  5
6B5
330
1F
100
AcDbEntity
  8
1
  6
CONTINUOUS
370
50
 62
4
100
AcDbLine
 10
47.163532
 20
0.721768
 30
0.0
 11
47.028606
 21
0.8176979999999999
 31
0.0
  0
LINE
  5
6B6
330
1F
100
AcDbEntity
  8
1
  6
CONTINUOUS
370
50
 62
4
100
AcDbLine
 10
54.46418
 20
0.6827909999999999
 30
0.0
 11
54.258011
 21
0.8289789999999999
 31
0.0
  0
LINE
  5
6B7
330
1F
100
AcDbEntity
  8
1
  6
CONTINUOUS
370
50
 62
4
100
AcDbLine
 10
97.912399
 20
0.6949839999999999
 30
0.0
 11
97.70436099999999
 21
0.842448
 31
0.0
  0
LINE
  5
6B8
330
1F
100
AcDbEntity
  8
1
  6
CONTINUOUS
370
50
 62
4
100
AcDbLine
 10
73.836525
 20
-0.8918389999999999
 30
0.0
 11
73.615875
 21
-0.7376929999999999
 31
0.0
  0
LINE
  5
6B9
330
1F
100
AcDbEntity
  8
1
  6
CONTINUOUS
370
50
 62
4
100
AcDbLine
 10
81.080872
 20
-0.8920859999999999
 30
0.0
 11
80.859856
 21
-0.737729
 31
0.0
  0
LINE
  5
6BA
330
1F
100
AcDbEntity
  8
1
  6
CONTINUOUS
370
50
 62
4
100
AcDbLine
 10
66.592575
 20
-0.891786
 30
0.0
 11
66.37174999999999
 21
-0.7377509999999999
 31
0.0
  0
LINE
  5
6BB
330
1F
100
AcDbEntity
  8
1
  6
CONTINUOUS
370
50
 62
4
100
AcDbLine
 10
90.609138
 20
0.737918
 30
0.0
 11
90.38857999999999
 21
0.891743
 31
0.0
  0
LINE
  5
6BC
330
1F
100
AcDbEntity
  8
1
  6
CONTINUOUS
370
50
 62
4
100
AcDbLine
 10
88.325668
 20
-0.892301
 30
0.0
 11
88.103859
 21
-0.7378319999999999
 31
0.0
  0
LINE
  5
6BD
330
1F
100
AcDbEntity
  8
1
  6
CONTINUOUS
370
50
 62
4
100
AcDbLine
 10
56.520069
 20
-0.866644
 30
0.0
 11
56.314358
 21
-0.7234039999999999
 31
0.0
  0
LINE
  5
6BE
330
1F
100
AcDbEntity
  8
1
  6
CONTINUOUS
370
50
 62
4
100
AcDbLine
 10
61.631378
 20
0.738143
 30
0.0
 11
61.409561
 21
0.8924219999999999
 31
0.0
  0
LINE
  5
6BF
330
1F
100
AcDbEntity
  8
1
  6
CONTINUOUS
370
50
 62
4
100
AcDbLine
 10
59.348518
 20
-0.8917259999999999
 30
0.0
 11
59.126976
 21
-0.737683
 31
0.0
  0
LINE
  5
6C0
330
1F
100
AcDbEntity
  8
1
  6
CONTINUOUS
370
50
 62
4
100
AcDbLine
 10
68.88475799999999
 20
0.731858
 30
0.0
 11
68.662956
 21
0.886042
 31
0.0
  0
LINE
  5
6C1
330
1F
100
AcDbEntity
  8
1
  6
CONTINUOUS
370
50
 62
4
100
AcDbLine
 10
78.316406
 20
-0.910565
 30
0.0
 11
78.099541
 21
-0.759977
 31
0.0
  0
LINE
  5
6C2
330
1F
100
AcDbEntity
  8
1
  6
CONTINUOUS
370
50
 62
4
100
AcDbLine
 10
47.028606
 20
0.8176979999999999
 30
0.0
 11
46.894299
 21
0.9109269999999999
 31
0.0
  0
LINE
  5
6C3
330
1F
100
AcDbEntity
  8
1
  6
CONTINUOUS
370
50
 62
4
100
AcDbLine
 10
83.366844
 20
0.7368439999999999
 30
0.0
 11
83.14396699999999
 21
0.891493
 31
0.0
  0
LINE
  5
6C4
330
1F
100
AcDbEntity
  8
1
  6
CONTINUOUS
370
50
 62
4
100
AcDbLine
 10
93.370621
 20
0.7592939999999999
 30
0.0
 11
93.154213
 21
0.9093819999999999
 31
0.0
  0
LINE
  5
6C5
330
1F
100
AcDbEntity
  8
1
  6
CONTINUOUS
370
50
 62
4
100
AcDbLine
 10
71.07700299999999
 20
-0.9135789999999999
 30
0.0
 11
70.858841
 21
-0.7622899999999999
 31
0.0
  0
LINE
  5
6C6
330
1F
100
AcDbEntity
  8
1
  6
CONTINUOUS
370
50
 62
4
100
AcDbLine
 10
95.57067099999999
 20
-0.892357
 30
0.0
 11
95.34816699999999
 21
-0.738073
 31
0.0
  0
LINE
  5
6C7
330
1F
100
AcDbEntity
  8
1
  6
CONTINUOUS
370
50
 62
4
100
AcDbLine
 10
57.147923
 20
0.760126
 30
0.0
 11
56.930592
 21
0.910581
 31
0.0
  0
LINE
  5
6C8
330
1F
100
AcDbEntity
  8
1
  6
CONTINUOUS
370
50
 62
4
100
AcDbLine
 10
85.567291
 20
-0.915136
 30
0.0
 11
85.349747
 21
-0.76455
 31
0.0
  0
LINE
  5
6C9
330
1F
100
AcDbEntity
  8
1
  6
CONTINUOUS
370
50
 62
4
100
AcDbLine
 10
63.82839999999999
 20
-0.9103279999999999
 30
0.0
 11
63.610706
 21
-0.7596689999999999
 31
0.0
  0
LINE
  5
6CA
330
1F
100
AcDbEntity
  8
1
  6
CONTINUOUS
370
50
 62
4
100
AcDbLine
 10
86.126671
 20
0.759467
 30
0.0
 11
85.909813
 21
0.909488
 31
0.0
  0
LINE
  5
6CB
330
1F
100
AcDbEntity
  8
1
  6
CONTINUOUS
370
50
 62
4
100
AcDbLine
 10
76.12133
 20
0.737938
 30
0.0
 11
75.898369
 21
0.8921669999999999
 31
0.0
  0
LINE
  5
6CC
330
1F
100
AcDbEntity
  8
1
  6
CONTINUOUS
370
50
 62
4
100
AcDbLine
 10
92.807098
 20
-0.9118799999999999
 30
0.0
 11
92.58880599999999
 21
-0.7611519999999999
 31
0.0
  0
LINE
  5
6CD
330
1F
100
AcDbEntity
  8
1
  6
CONTINUOUS
370
50
 62
4
100
AcDbLine
 10
64.393158
 20
0.7597999999999999
 30
0.0
 11
64.174995
 21
0.910171
 31
0.0
  0
LINE
  5
6CE
330
1F
100
AcDbEntity
  8
1
  6
CONTINUOUS
370
50
 62
4
100
AcDbLine
 10
78.88259099999999
 20
0.7595799999999999
 30
0.0
 11
78.664879
 21
0.9096259999999999
 31
0.0
  0
LINE
  5
6CF
330
1F
100
AcDbEntity
  8
1
  6
CONTINUOUS
370
50
 62
4
100
AcDbLine
 10
71.638077
 20
0.759706
 30
0.0
 11
71.419754
 21
0.909851
 31
0.0
  0
LINE
  5
6D0
330
1F
100
AcDbEntity
  8
1
  6
CONTINUOUS
370
50
 62
4
100
AcDbLine
 10
49.33984
 20
-0.909391
 30
0.0
 11
49.120861
 21
-0.759011
 31
0.0
  0
LINE
  5
6D1
330
1F
100
AcDbEntity
  8
1
  6
CONTINUOUS
370
50
 62
4
100
AcDbLine
 10
54.258011
 20
0.8289789999999999
 30
0.0
 11
54.053154
 21
0.9682099999999999
 31
0.0
  0
LINE
  5
6D2
330
1F
100
AcDbEntity
  8
1
  6
CONTINUOUS
370
50
 62
4
100
AcDbLine
 10
49.81030699999999
 20
0.824865
 30
0.0
 11
49.569801
 21
0.9875929999999999
 31
0.0
  0
LINE
  5
6D3
330
1F
100
AcDbEntity
  8
1
  6
CONTINUOUS
370
50
 62
4
100
AcDbLine
 10
46.179905
 20
1.482657
 30
0.0
 11
46.112526
 21
1.528045
 31
0.0
  0
LINE
  5
6D4
330
1F
100
AcDbEntity
  8
1
  6
CONTINUOUS
370
50
 62
4
100
AcDbLine
 10
97.70436099999999
 20
0.842448
 30
0.0
 11
97.495758
 21
0.98296
 31
0.0
  0
LINE
  5
6D5
330
1F
100
AcDbEntity
  8
1
  6
CONTINUOUS
370
50
 62
4
100
AcDbLine
 10
46.894299
 20
0.9109269999999999
 30
0.0
 11
46.76015899999999
 21
1.001207
 31
0.0
  0
LINE
  5
6D6
330
1F
100
AcDbEntity
  8
1
  6
CONTINUOUS
370
50
 62
4
100
AcDbLine
 10
56.724869
 20
-1.003536
 30
0.0
 11
56.520069
 21
-0.866644
 31
0.0
  0
LINE
  5
6D7
330
1F
100
AcDbEntity
  8
1
  6
CONTINUOUS
370
50
 62
4
100
AcDbLine
 10
61.409561
 20
0.8924219999999999
 30
0.0
 11
61.189438
 21
1.038104
 31
0.0
  0
LINE
  5
6D8
330
1F
100
AcDbEntity
  8
1
  6
CONTINUOUS
370
50
 62
4
100
AcDbLine
 10
68.662956
 20
0.886042
 30
0.0
 11
68.44191
 21
1.032333
 31
0.0
  0
LINE
  5
6D9
330
1F
100
AcDbEntity
  8
1
  6
CONTINUOUS
370
50
 62
4
100
AcDbLine
 10
59.569027
 20
-1.03758
 30
0.0
 11
59.348518
 21
-0.8917259999999999
 31
0.0
  0
LINE
  5
6DA
330
1F
100
AcDbEntity
  8
1
  6
CONTINUOUS
370
50
 62
4
100
AcDbLine
 10
66.813377
 20
-1.037818
 30
0.0
 11
66.592575
 21
-0.891786
 31
0.0
  0
LINE
  5
6DB
330
1F
100
AcDbEntity
  8
1
  6
CONTINUOUS
370
50
 62
4
100
AcDbLine
 10
74.058105
 20
-1.038007
 30
0.0
 11
73.836525
 21
-0.8918389999999999
 31
0.0
  0
LINE
  5
6DC
330
1F
100
AcDbEntity
  8
1
  6
CONTINUOUS
370
50
 62
4
100
AcDbLine
 10
75.898369
 20
0.8921669999999999
 30
0.0
 11
75.67662
 21
1.038074
 31
0.0
  0
LINE
  5
6DD
330
1F
100
AcDbEntity
  8
1
  6
CONTINUOUS
370
50
 62
4
100
AcDbLine
 10
64.045456
 20
-1.052968
 30
0.0
 11
63.82839999999999
 21
-0.9103279999999999
 31
0.0
  0
LINE
  5
6DE
330
1F
100
AcDbEntity
  8
1
  6
CONTINUOUS
370
50
 62
4
100
AcDbLine
 10
56.930592
 20
0.910581
 30
0.0
 11
56.71420699999999
 21
1.052731
 31
0.0
  0
LINE
  5
6DF
330
1F
100
AcDbEntity
  8
1
  6
CONTINUOUS
370
50
 62
4
100
AcDbLine
 10
81.303192
 20
-1.038107
 30
0.0
 11
81.080872
 21
-0.8920859999999999
 31
0.0
  0
LINE
  5
6E0
330
1F
100
AcDbEntity
  8
1
  6
CONTINUOUS
370
50
 62
4
100
AcDbLine
 10
64.174995
 20
0.910171
 30
0.0
 11
63.958214
 21
1.05251
 31
0.0
  0
LINE
  5
6E1
330
1F
100
AcDbEntity
  8
1
  6
CONTINUOUS
370
50
 62
4
100
AcDbLine
 10
83.14396699999999
 20
0.891493
 30
0.0
 11
82.921616
 21
1.037405
 31
0.0
  0
LINE
  5
6E2
330
1F
100
AcDbEntity
  8
1
  6
CONTINUOUS
370
50
 62
4
100
AcDbLine
 10
95.792717
 20
-1.038029
 30
0.0
 11
95.57067099999999
 21
-0.892357
 31
0.0
  0
LINE
  5
6E3
330
1F
100
AcDbEntity
  8
1
  6
CONTINUOUS
370
50
 62
4
100
AcDbLine
 10
88.54818
 20
-1.038099
 30
0.0
 11
88.325668
 21
-0.892301
 31
0.0
  0
LINE
  5
6E4
330
1F
100
AcDbEntity
  8
1
  6
CONTINUOUS
370
50
 62
4
100
AcDbLine
 10
90.38857999999999
 20
0.891743
 30
0.0
 11
90.16635099999999
 21
1.037246
 31
0.0
  0
LINE
  5
6E5
330
1F
100
AcDbEntity
  8
1
  6
CONTINUOUS
370
50
 62
4
100
AcDbLine
 10
71.419754
 20
0.909851
 30
0.0
 11
71.202118
 21
1.052332
 31
0.0
  0
LINE
  5
6E6
330
1F
100
AcDbEntity
  8
1
  6
CONTINUOUS
370
50
 62
4
100
AcDbLine
 10
71.295547
 20
-1.056633
 30
0.0
 11
71.07700299999999
 21
-0.9135789999999999
 31
0.0
  0
LINE
  5
6E7
330
1F
100
AcDbEntity
  8
1
  6
CONTINUOUS
370
50
 62
4
100
AcDbLine
 10
49.5569
 20
-1.051442
 30
0.0
 11
49.33984
 21
-0.909391
 31
0.0
  0
LINE
  5
6E8
330
1F
100
AcDbEntity
  8
1
  6
CONTINUOUS
370
50
 62
4
100
AcDbLine
 10
78.53340899999999
 20
-1.052556
 30
0.0
 11
78.316406
 21
-0.910565
 31
0.0
  0
LINE
  5
6E9
330
1F
100
AcDbEntity
  8
1
  6
CONTINUOUS
370
50
 62
4
100
AcDbLine
 10
93.154213
 20
0.9093819999999999
 30
0.0
 11
92.936447
 21
1.051463
 31
0.0
  0
LINE
  5
6EA
330
1F
100
AcDbEntity
  8
1
  6
CONTINUOUS
370
50
 62
4
100
AcDbLine
 10
78.664879
 20
0.9096259999999999
 30
0.0
 11
78.446472
 21
1.051985
 31
0.0
  0
LINE
  5
6EB
330
1F
100
AcDbEntity
  8
1
  6
CONTINUOUS
370
50
 62
4
100
AcDbLine
 10
85.909813
 20
0.909488
 30
0.0
 11
85.69136
 21
1.051651
 31
0.0
  0
LINE
  5
6EC
330
1F
100
AcDbEntity
  8
1
  6
CONTINUOUS
370
50
 62
4
100
AcDbLine
 10
85.78598799999999
 20
-1.057209
 30
0.0
 11
85.567291
 21
-0.915136
 31
0.0
  0
LINE
  5
6ED
330
1F
100
AcDbEntity
  8
1
  6
CONTINUOUS
370
50
 62
4
100
AcDbLine
 10
93.02597
 20
-1.054025
 30
0.0
 11
92.807098
 21
-0.9118799999999999
 31
0.0
  0
LINE
  5
6EE
330
1F
100
AcDbEntity
  8
1
  6
CONTINUOUS
370
50
 62
4
100
AcDbLine
 10
46.76015899999999
 20
1.001207
 30
0.0
 11
46.625732
 21
1.08829
 31
0.0
  0
LINE
  5
6EF
330
1F
100
AcDbEntity
  8
1
  6
CONTINUOUS
370
50
 62
4
100
AcDbLine
 10
52.411736
 20
-1.092359
 30
0.0
 11
52.200001
 21
-0.95594
 31
0.0
  0
LINE
  5
6F0
330
1F
100
AcDbEntity
  8
1
  6
CONTINUOUS
370
50
 62
4
100
AcDbLine
 10
54.053154
 20
0.9682099999999999
 30
0.0
 11
53.847824
 21
1.099682
 31
0.0
  0
LINE
  5
6F1
330
1F
100
AcDbEntity
  8
1
  6
CONTINUOUS
370
50
 62
4
100
AcDbLine
 10
56.929146
 20
-1.132473
 30
0.0
 11
56.724869
 21
-1.003536
 31
0.0
  0
LINE
  5
6F2
330
1F
100
AcDbEntity
  8
1
  6
CONTINUOUS
370
50
 62
4
100
AcDbLine
 10
97.495758
 20
0.98296
 30
0.0
 11
97.28576699999999
 21
1.115214
 31
0.0
  0
LINE
  5
6F3
330
1F
100
AcDbEntity
  8
1
  6
CONTINUOUS
370
50
 62
4
100
AcDbLine
 10
49.569801
 20
0.9875929999999999
 30
0.0
 11
49.328262
 21
1.139365
 31
0.0
  0
LINE
  5
6F4
330
1F
100
AcDbEntity
  8
1
  6
CONTINUOUS
370
50
 62
4
100
AcDbLine
 10
46.112526
 20
1.528045
 30
0.0
 11
46.045082
 21
1.570199
 31
0.0
  0
LINE
  5
6F5
330
1F
100
AcDbEntity
  8
1
  6
CONTINUOUS
370
50
 62
4
100
AcDbLine
 10
68.44191
 20
1.032333
 30
0.0
 11
68.222061
 21
1.168697
 31
0.0
  0
LINE
  5
6F6
330
1F
100
AcDbEntity
  8
1
  6
CONTINUOUS
370
50
 62
4
100
AcDbLine
 10
75.67662
 20
1.038074
 30
0.0
 11
75.45665
 21
1.174081
 31
0.0
  0
LINE
  5
6F7
330
1F
100
AcDbEntity
  8
1
  6
CONTINUOUS
370
50
 62
4
100
AcDbLine
 10
82.921616
 20
1.037405
 30
0.0
 11
82.701225
 21
1.173436
 31
0.0
  0
LINE
  5
6F8
330
1F
100
AcDbEntity
  8
1
  6
CONTINUOUS
370
50
 62
4
100
AcDbLine
 10
96.013092
 20
-1.173982
 30
0.0
 11
95.792717
 21
-1.038029
 31
0.0
  0
LINE
  5
6F9
330
1F
100
AcDbEntity
  8
1
  6
CONTINUOUS
370
50
 62
4
100
AcDbLine
 10
59.790371
 20
-1.174122
 30
0.0
 11
59.569027
 21
-1.03758
 31
0.0
  0
LINE
  5
6FA
330
1F
100
AcDbEntity
  8
1
  6
CONTINUOUS
370
50
 62
4
100
AcDbLine
 10
61.189438
 20
1.038104
 30
0.0
 11
60.968849
 21
1.174178
 31
0.0
  0
LINE
  5
6FB
330
1F
100
AcDbEntity
  8
1
  6
CONTINUOUS
370
50
 62
4
100
AcDbLine
 10
88.769302
 20
-1.174101
 30
0.0
 11
88.54818
 21
-1.038099
 31
0.0
  0
LINE
  5
6FC
330
1F
100
AcDbEntity
  8
1
  6
CONTINUOUS
370
50
 62
4
100
AcDbLine
 10
90.16635099999999
 20
1.037246
 30
0.0
 11
89.945442
 21
1.173074
 31
0.0
  0
LINE
  5
6FD
330
1F
100
AcDbEntity
  8
1
  6
CONTINUOUS
370
50
 62
4
100
AcDbLine
 10
49.773029
 20
-1.184184
 30
0.0
 11
49.5569
 21
-1.051442
 31
0.0
  0
LINE
  5
6FE
330
1F
100
AcDbEntity
  8
1
  6
CONTINUOUS
370
50
 62
4
100
AcDbLine
 10
67.03549199999999
 20
-1.174235
 30
0.0
 11
66.813377
 21
-1.037818
 31
0.0
  0
LINE
  5
6FF
330
1F
100
AcDbEntity
  8
1
  6
CONTINUOUS
370
50
 62
4
100
AcDbLine
 10
71.202118
 20
1.052332
 30
0.0
 11
70.985535
 21
1.185258
 31
0.0
  0
LINE
  5
700
330
1F
100
AcDbEntity
  8
1
  6
CONTINUOUS
370
50
 62
4
100
AcDbLine
 10
78.446472
 20
1.051985
 30
0.0
 11
78.229424
 21
1.185092
 31
0.0
  0
LINE
  5
701
330
1F
100
AcDbEntity
  8
1
  6
CONTINUOUS
370
50
 62
4
100
AcDbLine
 10
63.958214
 20
1.05251
 30
0.0
 11
63.741547
 21
1.185359
 31
0.0
  0
LINE
  5
702
330
1F
100
AcDbEntity
  8
1
  6
CONTINUOUS
370
50
 62
4
100
AcDbLine
 10
81.525177
 20
-1.174188
 30
0.0
 11
81.303192
 21
-1.038107
 31
0.0
  0
LINE
  5
703
330
1F
100
AcDbEntity
  8
1
  6
CONTINUOUS
370
50
 62
4
100
AcDbLine
 10
74.280487
 20
-1.174209
 30
0.0
 11
74.058105
 21
-1.038007
 31
0.0
  0
LINE
  5
704
330
1F
100
AcDbEntity
  8
1
  6
CONTINUOUS
370
50
 62
4
100
AcDbLine
 10
64.262535
 20
-1.185748
 30
0.0
 11
64.045456
 21
-1.052968
 31
0.0
  0
LINE
  5
705
330
1F
100
AcDbEntity
  8
1
  6
CONTINUOUS
370
50
 62
4
100
AcDbLine
 10
56.71420699999999
 20
1.052731
 30
0.0
 11
56.496944
 21
1.18558
 31
0.0
  0
LINE
  5
706
330
1F
100
AcDbEntity
  8
1
  6
CONTINUOUS
370
50
 62
4
100
AcDbLine
 10
93.24370599999999
 20
-1.187129
 30
0.0
 11
93.02597
 21
-1.054025
 31
0.0
  0
LINE
  5
707
330
1F
100
AcDbEntity
  8
1
  6
CONTINUOUS
370
50
 62
4
100
AcDbLine
 10
85.69136
 20
1.051651
 30
0.0
 11
85.473427
 21
1.184865
 31
0.0
  0
LINE
  5
708
330
1F
100
AcDbEntity
  8
1
  6
CONTINUOUS
370
50
 62
4
100
AcDbLine
 10
92.936447
 20
1.051463
 30
0.0
 11
92.717804
 21
1.184536
 31
0.0
  0
LINE
  5
709
330
1F
100
AcDbEntity
  8
1
  6
CONTINUOUS
370
50
 62
4
100
AcDbLine
 10
86.00366199999999
 20
-1.189452
 30
0.0
 11
85.78598799999999
 21
-1.057209
 31
0.0
  0
LINE
  5
70A
330
1F
100
AcDbEntity
  8
1
  6
CONTINUOUS
370
50
 62
4
100
AcDbLine
 10
71.51488499999999
 20
-1.189882
 30
0.0
 11
71.295547
 21
-1.056633
 31
0.0
  0
LINE
  5
70B
330
1F
100
AcDbEntity
  8
1
  6
CONTINUOUS
370
50
 62
4
100
AcDbLine
 10
78.75196799999999
 20
-1.185232
 30
0.0
 11
78.53340899999999
 21
-1.052556
 31
0.0
  0
LINE
  5
70C
330
1F
100
AcDbEntity
  8
1
  6
CONTINUOUS
370
50
 62
4
100
AcDbLine
 10
52.623241
 20
-1.219306
 30
0.0
 11
52.411736
 21
-1.092359
 31
0.0
  0
LINE
  5
70D
330
1F
100
AcDbEntity
  8
1
  6
CONTINUOUS
370
50
 62
4
100
AcDbLine
 10
53.847824
 20
1.099682
 30
0.0
 11
53.641014
 21
1.222285
 31
0.0
  0
LINE
  5
70E
330
1F
100
AcDbEntity
  8
1
  6
CONTINUOUS
370
50
 62
4
100
AcDbLine
 10
97.28576699999999
 20
1.115214
 30
0.0
 11
97.07717099999999
 21
1.238167
 31
0.0
  0
LINE
  5
70F
330
1F
100
AcDbEntity
  8
1
  6
CONTINUOUS
370
50
 62
4
100
AcDbLine
 10
57.133518
 20
-1.252064
 30
0.0
 11
56.929146
 21
-1.132473
 31
0.0
  0
LINE
  5
710
330
1F
100
AcDbEntity
  8
1
  6
CONTINUOUS
370
50
 62
4
100
AcDbLine
 10
49.328262
 20
1.139365
 30
0.0
 11
49.086609
 21
1.27825
 31
0.0
  0
LINE
  5
711
330
1F
100
AcDbEntity
  8
1
  6
CONTINUOUS
370
50
 62
4
100
AcDbLine
 10
46.045082
 20
1.570199
 30
0.0
 11
45.977543
 21
1.609003
 31
0.0
  0
LINE
  5
712
330
1F
100
AcDbEntity
  8
1
  6
CONTINUOUS
370
50
 62
4
100
AcDbLine
 10
82.701225
 20
1.173436
 30
0.0
 11
82.481285
 21
1.298668
 31
0.0
  0
LINE
  5
713
330
1F
100
AcDbEntity
  8
1
  6
CONTINUOUS
370
50
 62
4
100
AcDbLine
 10
89.945442
 20
1.173074
 30
0.0
 11
89.725082
 21
1.298524
 31
0.0
  0
LINE
  5
714
330
1F
100
AcDbEntity
  8
1
  6
CONTINUOUS
370
50
 62
4
100
AcDbLine
 10
88.989334
 20
-1.299258
 30
0.0
 11
88.769302
 21
-1.174101
 31
0.0
  0
LINE
  5
715
330
1F
100
AcDbEntity
  8
1
  6
CONTINUOUS
370
50
 62
4
100
AcDbLine
 10
96.233398
 20
-1.29925
 30
0.0
 11
96.013092
 21
-1.173982
 31
0.0
  0
LINE
  5
716
330
1F
100
AcDbEntity
  8
1
  6
CONTINUOUS
370
50
 62
4
100
AcDbLine
 10
68.222061
 20
1.168697
 30
0.0
 11
68.00147199999999
 21
1.294039
 31
0.0
  0
LINE
  5
717
330
1F
100
AcDbEntity
  8
1
  6
CONTINUOUS
370
50
 62
4
100
AcDbLine
 10
75.45665
 20
1.174081
 30
0.0
 11
75.236336
 21
1.299238
 31
0.0
  0
LINE
  5
718
330
1F
100
AcDbEntity
  8
1
  6
CONTINUOUS
370
50
 62
4
100
AcDbLine
 10
81.745476
 20
-1.299316
 30
0.0
 11
81.525177
 21
-1.174188
 31
0.0
  0
LINE
  5
719
330
1F
100
AcDbEntity
  8
1
  6
CONTINUOUS
370
50
 62
4
100
AcDbLine
 10
45.077057
 20
-1.758284
 30
0.0
 11
45.047253
 21
-1.741393
 31
0.0
  0
LINE
  5
71A
330
1F
100
AcDbEntity
  8
1
  6
CONTINUOUS
370
50
 62
4
100
AcDbLine
 10
99.14484399999999
 20
-0.243092
 30
0.0
 11
99.123932
 21
-0.231244
 31
0.0
  0
LINE
  5
71B
330
1F
100
AcDbEntity
  8
1
  6
CONTINUOUS
370
50
 62
4
100
AcDbLine
 10
74.501549
 20
-1.299386
 30
0.0
 11
74.280487
 21
-1.174209
 31
0.0
  0
LINE
  5
71C
330
1F
100
AcDbEntity
  8
1
  6
CONTINUOUS
370
50
 62
4
100
AcDbLine
 10
85.473427
 20
1.184865
 30
0.0
 11
85.25664499999999
 21
1.30736
 31
0.0
  0
LINE
  5
71D
330
1F
100
AcDbEntity
  8
1
  6
CONTINUOUS
370
50
 62
4
100
AcDbLine
 10
78.229424
 20
1.185092
 30
0.0
 11
78.01263399999999
 21
1.3075
 31
0.0
  0
LINE
  5
71E
330
1F
100
AcDbEntity
  8
1
  6
CONTINUOUS
370
50
 62
4
100
AcDbLine
 10
92.717804
 20
1.184536
 30
0.0
 11
92.500481
 21
1.307211
 31
0.0
  0
LINE
  5
71F
330
1F
100
AcDbEntity
  8
1
  6
CONTINUOUS
370
50
 62
4
100
AcDbLine
 10
67.257393
 20
-1.299482
 30
0.0
 11
67.03549199999999
 21
-1.174235
 31
0.0
  0
LINE
  5
720
330
1F
100
AcDbEntity
  8
1
  6
CONTINUOUS
370
50
 62
4
100
AcDbLine
 10
93.46092999999999
 20
-1.309683
 30
0.0
 11
93.24370599999999
 21
-1.187129
 31
0.0
  0
LINE
  5
721
330
1F
100
AcDbEntity
  8
1
  6
CONTINUOUS
370
50
 62
4
100
AcDbLine
 10
60.012615
 20
-1.299499
 30
0.0
 11
59.790371
 21
-1.174122
 31
0.0
  0
LINE
  5
722
330
1F
100
AcDbEntity
  8
1
  6
CONTINUOUS
370
50
 62
4
100
AcDbLine
 10
49.990364
 20
-1.306718
 30
0.0
 11
49.773029
 21
-1.184184
 31
0.0
  0
LINE
  5
723
330
1F
100
AcDbEntity
  8
1
  6
CONTINUOUS
370
50
 62
4
100
AcDbLine
 10
60.968849
 20
1.174178
 30
0.0
 11
60.746712
 21
1.299321
 31
0.0
  0
LINE
  5
724
330
1F
100
AcDbEntity
  8
1
  6
CONTINUOUS
370
50
 62
4
100
AcDbLine
 10
70.985535
 20
1.185258
 30
0.0
 11
70.768196
 21
1.307667
 31
0.0
  0
LINE
  5
725
330
1F
100
AcDbEntity
  8
1
  6
CONTINUOUS
370
50
 62
4
100
AcDbLine
 10
86.219757
 20
-1.311149
 30
0.0
 11
86.00366199999999
 21
-1.189452
 31
0.0
  0
LINE
  5
726
330
1F
100
AcDbEntity
  8
1
  6
CONTINUOUS
370
50
 62
4
100
AcDbLine
 10
78.969353
 20
-1.307644
 30
0.0
 11
78.75196799999999
 21
-1.185232
 31
0.0
  0
LINE
  5
727
330
1F
100
AcDbEntity
  8
1
  6
CONTINUOUS
370
50
 62
4
100
AcDbLine
 10
63.741547
 20
1.185359
 30
0.0
 11
63.523342
 21
1.307819
 31
0.0
  0
LINE
  5
728
330
1F
100
AcDbEntity
  8
1
  6
CONTINUOUS
370
50
 62
4
100
AcDbLine
 10
56.496944
 20
1.18558
 30
0.0
 11
56.278175
 21
1.308094
 31
0.0
  0
LINE
  5
729
330
1F
100
AcDbEntity
  8
1
  6
CONTINUOUS
370
50
 62
4
100
AcDbLine
 10
71.734123
 20
-1.312479
 30
0.0
 11
71.51488499999999
 21
-1.189882
 31
0.0
  0
LINE
  5
72A
330
1F
100
AcDbEntity
  8
1
  6
CONTINUOUS
370
50
 62
4
100
AcDbLine
 10
64.481178
 20
-1.307965
 30
0.0
 11
64.262535
 21
-1.185748
 31
0.0
  0
LINE
  5
72B
330
1F
100
AcDbEntity
  8
1
  6
CONTINUOUS
370
50
 62
4
100
AcDbLine
 10
53.641014
 20
1.222285
 30
0.0
 11
53.43541
 21
1.335031
 31
0.0
  0
LINE
  5
72C
330
1F
100
AcDbEntity
  8
1
  6
CONTINUOUS
370
50
 62
4
100
AcDbLine
 10
52.836056
 20
-1.335856
 30
0.0
 11
52.623241
 21
-1.219306
 31
0.0
  0
LINE
  5
72D
330
1F
100
AcDbEntity
  8
1
  6
CONTINUOUS
370
50
 62
4
100
AcDbLine
 10
97.07717099999999
 20
1.238167
 30
0.0
 11
96.86908
 21
1.351325
 31
0.0
  0
LINE
  5
72E
330
1F
100
AcDbEntity
  8
1
  6
CONTINUOUS
370
50
 62
4
100
AcDbLine
 10
57.33931399999999
 20
-1.361758
 30
0.0
 11
57.133518
 21
-1.252064
 31
0.0
  0
LINE
  5
72F
330
1F
100
AcDbEntity
  8
1
  6
CONTINUOUS
370
50
 62
4
100
AcDbLine
 10
99.144669
 20
1.799812
 30
0.0
 11
99.144424
 21
1.799941
 31
0.0
  0
LINE
  5
730
330
1F
100
AcDbEntity
  8
1
  6
CONTINUOUS
370
50
 62
4
100
AcDbLine
 10
45.977543
 20
1.609003
 30
0.0
 11
45.909813
 21
1.644399
 31
0.0
  0
LINE
  5
731
330
1F
100
AcDbEntity
  8
1
  6
CONTINUOUS
370
50
 62
4
100
AcDbLine
 10
49.086609
 20
1.27825
 30
0.0
 11
48.846069
 21
1.403583
 31
0.0
  0
LINE
  5
732
330
1F
100
AcDbEntity
  8
1
  6
CONTINUOUS
370
50
 62
4
100
AcDbLine
 10
74.721436
 20
-1.412577
 30
0.0
 11
74.501549
 21
-1.299386
 31
0.0
  0
LINE
  5
733
330
1F
100
AcDbEntity
  8
1
  6
CONTINUOUS
370
50
 62
4
100
AcDbLine
 10
81.965599
 20
-1.412598
 30
0.0
 11
81.745476
 21
-1.299316
 31
0.0
  0
LINE
  5
734
330
1F
100
AcDbEntity
  8
1
  6
CONTINUOUS
370
50
 62
4
100
AcDbLine
 10
89.725082
 20
1.298524
 30
0.0
 11
89.504189
 21
1.412139
 31
0.0
  0
LINE
  5
735
330
1F
100
AcDbEntity
  8
1
  6
CONTINUOUS
370
50
 62
4
100
AcDbLine
 10
67.477592
 20
-1.412652
 30
0.0
 11
67.257393
 21
-1.299482
 31
0.0
  0
LINE
  5
736
330
1F
100
AcDbEntity
  8
1
  6
CONTINUOUS
370
50
 62
4
100
AcDbLine
 10
89.210213
 20
-1.412659
 30
0.0
 11
88.989334
 21
-1.299258
 31
0.0
  0
LINE
  5
737
330
1F
100
AcDbEntity
  8
1
  6
CONTINUOUS
370
50
 62
4
100
AcDbLine
 10
60.746712
 20
1.299321
 30
0.0
 11
60.526028
 21
1.412464
 31
0.0
  0
LINE
  5
738
330
1F
100
AcDbEntity
  8
1
  6
CONTINUOUS
370
50
 62
4
100
AcDbLine
 10
68.00147199999999
 20
1.294039
 30
0.0
 11
67.779274
 21
1.407899
 31
0.0
  0
LINE
  5
739
330
1F
100
AcDbEntity
  8
1
  6
CONTINUOUS
370
50
 62
4
100
AcDbLine
 10
60.233631
 20
-1.412725
 30
0.0
 11
60.012615
 21
-1.299499
 31
0.0
  0
LINE
  5
73A
330
1F
100
AcDbEntity
  8
1
  6
CONTINUOUS
370
50
 62
4
100
AcDbLine
 10
82.481285
 20
1.298668
 30
0.0
 11
82.259811
 21
1.412111
 31
0.0
  0
LINE
  5
73B
330
1F
100
AcDbEntity
  8
1
  6
CONTINUOUS
370
50
 62
4
100
AcDbLine
 10
79.185898
 20
-1.418426
 30
0.0
 11
78.969353
 21
-1.307644
 31
0.0
  0
LINE
  5
73C
330
1F
100
AcDbEntity
  8
1
  6
CONTINUOUS
370
50
 62
4
100
AcDbLine
 10
96.455124
 20
-1.41258
 30
0.0
 11
96.233398
 21
-1.29925
 31
0.0
  0
LINE
  5
73D
330
1F
100
AcDbEntity
  8
1
  6
CONTINUOUS
370
50
 62
4
100
AcDbLine
 10
92.500481
 20
1.307211
 30
0.0
 11
92.283546
 21
1.418072
 31
0.0
  0
LINE
  5
73E
330
1F
100
AcDbEntity
  8
1
  6
CONTINUOUS
370
50
 62
4
100
AcDbLine
 10
85.25664499999999
 20
1.30736
 30
0.0
 11
85.03922999999999
 21
1.418211
 31
0.0
  0
LINE
  5
73F
330
1F
100
AcDbEntity
  8
1
  6
CONTINUOUS
370
50
 62
4
100
AcDbLine
 10
75.236336
 20
1.299238
 30
0.0
 11
75.014389
 21
1.412376
 31
0.0
  0
LINE
  5
740
330
1F
100
AcDbEntity
  8
1
  6
CONTINUOUS
370
50
 62
4
100
AcDbLine
 10
64.69884499999999
 20
-1.418833
 30
0.0
 11
64.481178
 21
-1.307965
 31
0.0
  0
LINE
  5
741
330
1F
100
AcDbEntity
  8
1
  6
CONTINUOUS
370
50
 62
4
100
AcDbLine
 10
86.43633299999999
 20
-1.42145
 30
0.0
 11
86.219757
 21
-1.311149
 31
0.0
  0
LINE
  5
742
330
1F
100
AcDbEntity
  8
1
  6
CONTINUOUS
370
50
 62
4
100
AcDbLine
 10
56.278175
 20
1.308094
 30
0.0
 11
56.059853
 21
1.419271
 31
0.0
  0
LINE
  5
743
330
1F
100
AcDbEntity
  8
1
  6
CONTINUOUS
370
50
 62
4
100
AcDbLine
 10
71.952339
 20
-1.423444
 30
0.0
 11
71.734123
 21
-1.312479
 31
0.0
  0
LINE
  5
744
330
1F
100
AcDbEntity
  8
1
  6
CONTINUOUS
370
50
 62
4
100
AcDbLine
 10
93.67832899999999
 20
-1.420185
 30
0.0
 11
93.46092999999999
 21
-1.309683
 31
0.0
  0
LINE
  5
745
330
1F
100
AcDbEntity
  8
1
  6
CONTINUOUS
370
50
 62
4
100
AcDbLine
 10
78.01263399999999
 20
1.3075
 30
0.0
 11
77.794365
 21
1.418393
 31
0.0
  0
LINE
  5
746
330
1F
100
AcDbEntity
  8
1
  6
CONTINUOUS
370
50
 62
4
100
AcDbLine
 10
63.523342
 20
1.307819
 30
0.0
 11
63.304409
 21
1.418877
 31
0.0
  0
LINE
  5
747
330
1F
100
AcDbEntity
  8
1
  6
CONTINUOUS
370
50
 62
4
100
AcDbLine
 10
70.768196
 20
1.307667
 30
0.0
 11
70.549278
 21
1.418614
 31
0.0
  0
LINE
  5
748
330
1F
100
AcDbEntity
  8
1
  6
CONTINUOUS
370
50
 62
4
100
AcDbLine
 10
50.20906799999999
 20
-1.417411
 30
0.0
 11
49.990364
 21
-1.306718
 31
0.0
  0
LINE
  5
749
330
1F
100
AcDbEntity
  8
1
  6
CONTINUOUS
370
50
 62
4
100
AcDbLine
 10
53.43541
 20
1.335031
 30
0.0
 11
53.230434
 21
1.437451
 31
0.0
  0
LINE
  5
74A
330
1F
100
AcDbEntity
  8
1
  6
CONTINUOUS
370
50
 62
4
100
AcDbLine
 10
53.048843
 20
-1.441137
 30
0.0
 11
52.836056
 21
-1.335856
 31
0.0
  0
LINE
  5
74B
330
1F
100
AcDbEntity
  8
1
  6
CONTINUOUS
370
50
 62
4
100
AcDbLine
 10
96.86908
 20
1.351325
 30
0.0
 11
96.660484
 21
1.45356
 31
0.0
  0
LINE
  5
74C
330
1F
100
AcDbEntity
  8
1
  6
CONTINUOUS
370
50
 62
4
100
AcDbLine
 10
57.544403
 20
-1.461007
 30
0.0
 11
57.33931399999999
 21
-1.361758
 31
0.0
  0
LINE
  5
74D
330
1F
100
AcDbEntity
  8
1
  6
CONTINUOUS
370
50
 62
4
100
AcDbLine
 10
45.909813
 20
1.644399
 30
0.0
 11
45.841949
 21
1.676296
 31
0.0
  0
LINE
  5
74E
330
1F
100
AcDbEntity
  8
1
  6
CONTINUOUS
370
50
 62
4
100
AcDbLine
 10
67.779274
 20
1.407899
 30
0.0
 11
67.557915
 21
1.509238
 31
0.0
  0
LINE
  5
74F
330
1F
100
AcDbEntity
  8
1
  6
CONTINUOUS
370
50
 62
4
100
AcDbLine
 10
48.846069
 20
1.403583
 30
0.0
 11
48.606003
 21
1.513459
 31
0.0
  0
LINE
  5
750
330
1F
100
AcDbEntity
  8
1
  6
CONTINUOUS
370
50
 62
4
100
AcDbLine
 10
60.526028
 20
1.412464
 30
0.0
 11
60.30574
 21
1.512994
 31
0.0
  0
LINE
  5
751
330
1F
100
AcDbEntity
  8
1
  6
CONTINUOUS
370
50
 62
4
100
AcDbLine
 10
60.45339199999999
 20
-1.512942
 30
0.0
 11
60.233631
 21
-1.412725
 31
0.0
  0
LINE
  5
752
330
1F
100
AcDbEntity
  8
1
  6
CONTINUOUS
370
50
 62
4
100
AcDbLine
 10
67.69751699999999
 20
-1.512934
 30
0.0
 11
67.477592
 21
-1.412652
 31
0.0
  0
LINE
  5
753
330
1F
100
AcDbEntity
  8
1
  6
CONTINUOUS
370
50
 62
4
100
AcDbLine
 10
74.942078
 20
-1.512971
 30
0.0
 11
74.721436
 21
-1.412577
 31
0.0
  0
LINE
  5
754
330
1F
100
AcDbEntity
  8
1
  6
CONTINUOUS
370
50
 62
4
100
AcDbLine
 10
99.165962
 20
-0.252689
 30
0.0
 11
99.14484399999999
 21
-0.243092
 31
0.0
  0
LINE
  5
755
330
1F
100
AcDbEntity
  8
1
  6
CONTINUOUS
370
50
 62
4
100
AcDbLine
 10
75.014389
 20
1.412376
 30
0.0
 11
74.793823
 21
1.512483
 31
0.0
  0
LINE
  5
756
330
1F
100
AcDbEntity
  8
1
  6
CONTINUOUS
370
50
 62
4
100
AcDbLine
 10
64.915527
 20
-1.517047
 30
0.0
 11
64.69884499999999
 21
-1.418833
 31
0.0
  0
LINE
  5
757
330
1F
100
AcDbEntity
  8
1
  6
CONTINUOUS
370
50
 62
4
100
AcDbLine
 10
82.187119
 20
-1.512946
 30
0.0
 11
81.965599
 21
-1.412598
 31
0.0
  0
LINE
  5
758
330
1F
100
AcDbEntity
  8
1
  6
CONTINUOUS
370
50
 62
4
100
AcDbLine
 10
56.059853
 20
1.419271
 30
0.0
 11
55.842667
 21
1.517623
 31
0.0
  0
LINE
  5
759
330
1F
100
AcDbEntity
  8
1
  6
CONTINUOUS
370
50
 62
4
100
AcDbLine
 10
63.304409
 20
1.418877
 30
0.0
 11
63.086639
 21
1.517415
 31
0.0
  0
LINE
  5
75A
330
1F
100
AcDbEntity
  8
1
  6
CONTINUOUS
370
50
 62
4
100
AcDbLine
 10
96.676491
 20
-1.512647
 30
0.0
 11
96.455124
 21
-1.41258
 31
0.0
  0
LINE
  5
75B
330
1F
100
AcDbEntity
  8
1
  6
CONTINUOUS
370
50
 62
4
100
AcDbLine
 10
89.504189
 20
1.412139
 30
0.0
 11
89.282265
 21
1.5124
 31
0.0
  0
LINE
  5
75C
330
1F
100
AcDbEntity
  8
1
  6
CONTINUOUS
370
50
 62
4
100
AcDbLine
 10
82.259811
 20
1.412111
 30
0.0
 11
82.037674
 21
1.512461
 31
0.0
  0
LINE
  5
75D
330
1F
100
AcDbEntity
  8
1
  6
CONTINUOUS
370
50
 62
4
100
AcDbLine
 10
79.403725
 20
-1.516805
 30
0.0
 11
79.185898
 21
-1.418426
 31
0.0
  0
LINE
  5
75E
330
1F
100
AcDbEntity
  8
1
  6
CONTINUOUS
370
50
 62
4
100
AcDbLine
 10
89.432076
 20
-1.512827
 30
0.0
 11
89.210213
 21
-1.412659
 31
0.0
  0
LINE
  5
75F
330
1F
100
AcDbEntity
  8
1
  6
CONTINUOUS
370
50
 62
4
100
AcDbLine
 10
50.425613
 20
-1.515145
 30
0.0
 11
50.20906799999999
 21
-1.417411
 31
0.0
  0
LINE
  5
760
330
1F
100
AcDbEntity
  8
1
  6
CONTINUOUS
370
50
 62
4
100
AcDbLine
 10
70.549278
 20
1.418614
 30
0.0
 11
70.330666
 21
1.517181
 31
0.0
  0
LINE
  5
761
330
1F
100
AcDbEntity
  8
1
  6
CONTINUOUS
370
50
 62
4
100
AcDbLine
 10
92.283546
 20
1.418072
 30
0.0
 11
92.065208
 21
1.516387
 31
0.0
  0
LINE
  5
762
330
1F
100
AcDbEntity
  8
1
  6
CONTINUOUS
370
50
 62
4
100
AcDbLine
 10
72.169907
 20
-1.521327
 30
0.0
 11
71.952339
 21
-1.423444
 31
0.0
  0
LINE
  5
763
330
1F
100
AcDbEntity
  8
1
  6
CONTINUOUS
370
50
 62
4
100
AcDbLine
 10
77.794365
 20
1.418393
 30
0.0
 11
77.57521799999999
 21
1.51684
 31
0.0
  0
LINE
  5
764
330
1F
100
AcDbEntity
  8
1
  6
CONTINUOUS
370
50
 62
4
100
AcDbLine
 10
85.03922999999999
 20
1.418211
 30
0.0
 11
84.82019799999999
 21
1.516574
 31
0.0
  0
LINE
  5
765
330
1F
100
AcDbEntity
  8
1
  6
CONTINUOUS
370
50
 62
4
100
AcDbLine
 10
86.654854
 20
-1.519244
 30
0.0
 11
86.43633299999999
 21
-1.42145
 31
0.0
  0
LINE
  5
766
330
1F
100
AcDbEntity
  8
1
  6
CONTINUOUS
370
50
 62
4
100
AcDbLine
 10
93.89707899999999
 20
-1.51797
 30
0.0
 11
93.67832899999999
 21
-1.420185
 31
0.0
  0
LINE
  5
767
330
1F
100
AcDbEntity
  8
1
  6
CONTINUOUS
370
50
 62
4
100
AcDbLine
 10
53.230434
 20
1.437451
 30
0.0
 11
53.025036
 21
1.528603
 31
0.0
  0
LINE
  5
768
330
1F
100
AcDbEntity
  8
1
  6
CONTINUOUS
370
50
 62
4
100
AcDbLine
 10
53.260227
 20
-1.534229
 30
0.0
 11
53.048843
 21
-1.441137
 31
0.0
  0
LINE
  5
769
330
1F
100
AcDbEntity
  8
1
  6
CONTINUOUS
370
50
 62
4
100
AcDbLine
 10
57.748386
 20
-1.548687
 30
0.0
 11
57.544403
 21
-1.461007
 31
0.0
  0
LINE
  5
76A
330
1F
100
AcDbEntity
  8
1
  6
CONTINUOUS
370
50
 62
4
100
AcDbLine
 10
96.660484
 20
1.45356
 30
0.0
 11
96.450958
 21
1.543535
 31
0.0
  0
LINE
  5
76B
330
1F
100
AcDbEntity
  8
1
  6
CONTINUOUS
370
50
 62
4
100
AcDbLine
 10
52.199421
 20
-1.764649
 30
0.0
 11
52.19927999999999
 21
-1.764589
 31
0.0
  0
LINE
  5
76C
330
1F
100
AcDbEntity
  8
1
  6
CONTINUOUS
370
50
 62
4
100
AcDbLine
 10
52.199856
 20
-1.76483
 30
0.0
 11
52.199711
 21
-1.764769
 31
0.0
  0
LINE
  5
76D
330
1F
100
AcDbEntity
  8
1
  6
CONTINUOUS
370
50
 62
4
100
AcDbLine
 10
52.19927999999999
 20
-1.764589
 30
0.0
 11
52.199135
 21
-1.764528
 31
0.0
  0
LINE
  5
76E
330
1F
100
AcDbEntity
  8
1
  6
CONTINUOUS
370
50
 62
4
100
AcDbLine
 10
45.841949
 20
1.676296
 30
0.0
 11
45.774055
 21
1.704638
 31
0.0
  0
LINE
  5
76F
330
1F
100
AcDbEntity
  8
1
  6
CONTINUOUS
370
50
 62
4
100
AcDbLine
 10
52.200001
 20
-1.76489
 30
0.0
 11
52.199856
 21
-1.76483
 31
0.0
  0
LINE
  5
770
330
1F
100
AcDbEntity
  8
1
  6
CONTINUOUS
370
50
 62
4
100
AcDbLine
 10
52.199711
 20
-1.764769
 30
0.0
 11
52.199421
 21
-1.764649
 31
0.0
  0
LINE
  5
771
330
1F
100
AcDbEntity
  8
1
  6
CONTINUOUS
370
50
 62
4
100
AcDbLine
 10
45.113228
 20
-1.772746
 30
0.0
 11
45.077057
 21
-1.758284
 31
0.0
  0
LINE
  5
772
330
1F
100
AcDbEntity
  8
1
  6
CONTINUOUS
370
50
 62
4
100
AcDbLine
 10
67.557915
 20
1.509238
 30
0.0
 11
67.336426
 21
1.596841
 31
0.0
  0
LINE
  5
773
330
1F
100
AcDbEntity
  8
1
  6
CONTINUOUS
370
50
 62
4
100
AcDbLine
 10
74.793823
 20
1.512483
 30
0.0
 11
74.573753
 21
1.599029
 31
0.0
  0
LINE
  5
774
330
1F
100
AcDbEntity
  8
1
  6
CONTINUOUS
370
50
 62
4
100
AcDbLine
 10
82.037674
 20
1.512461
 30
0.0
 11
81.81748999999999
 21
1.598884
 31
0.0
  0
LINE
  5
775
330
1F
100
AcDbEntity
  8
1
  6
CONTINUOUS
370
50
 62
4
100
AcDbLine
 10
60.673798
 20
-1.599439
 30
0.0
 11
60.45339199999999
 21
-1.512942
 31
0.0
  0
LINE
  5
776
330
1F
100
AcDbEntity
  8
1
  6
CONTINUOUS
370
50
 62
4
100
AcDbLine
 10
60.30574
 20
1.512994
 30
0.0
 11
60.08485
 21
1.599662
 31
0.0
  0
LINE
  5
777
330
1F
100
AcDbEntity
  8
1
  6
CONTINUOUS
370
50
 62
4
100
AcDbLine
 10
96.89626299999999
 20
-1.598836
 30
0.0
 11
96.676491
 21
-1.512647
 31
0.0
  0
LINE
  5
778
330
1F
100
AcDbEntity
  8
1
  6
CONTINUOUS
370
50
 62
4
100
AcDbLine
 10
50.640633
 20
-1.599385
 30
0.0
 11
50.425613
 21
-1.515145
 31
0.0
  0
LINE
  5
779
330
1F
100
AcDbEntity
  8
1
  6
CONTINUOUS
370
50
 62
4
100
AcDbLine
 10
89.652512
 20
-1.599006
 30
0.0
 11
89.432076
 21
-1.512827
 31
0.0
  0
LINE
  5
77A
330
1F
100
AcDbEntity
  8
1
  6
CONTINUOUS
370
50
 62
4
100
AcDbLine
 10
67.91879999999999
 20
-1.599399
 30
0.0
 11
67.69751699999999
 21
-1.512934
 31
0.0
  0
LINE
  5
77B
330
1F
100
AcDbEntity
  8
1
  6
CONTINUOUS
370
50
 62
4
100
AcDbLine
 10
89.282265
 20
1.5124
 30
0.0
 11
89.06102
 21
1.598839
 31
0.0
  0
LINE
  5
77C
330
1F
100
AcDbEntity
  8
1
  6
CONTINUOUS
370
50
 62
4
100
AcDbLine
 10
70.330666
 20
1.517181
 30
0.0
 11
70.11325099999999
 21
1.602064
 31
0.0
  0
LINE
  5
77D
330
1F
100
AcDbEntity
  8
1
  6
CONTINUOUS
370
50
 62
4
100
AcDbLine
 10
63.086639
 20
1.517415
 30
0.0
 11
62.869335
 21
1.602191
 31
0.0
  0
LINE
  5
77E
330
1F
100
AcDbEntity
  8
1
  6
CONTINUOUS
370
50
 62
4
100
AcDbLine
 10
77.57521799999999
 20
1.51684
 30
0.0
 11
77.35717
 21
1.601874
 31
0.0
  0
LINE
  5
77F
330
1F
100
AcDbEntity
  8
1
  6
CONTINUOUS
370
50
 62
4
100
AcDbLine
 10
65.13336199999999
 20
-1.601922
 30
0.0
 11
64.915527
 21
-1.517047
 31
0.0
  0
LINE
  5
780
330
1F
100
AcDbEntity
  8
1
  6
CONTINUOUS
370
50
 62
4
100
AcDbLine
 10
82.40843199999999
 20
-1.599159
 30
0.0
 11
82.187119
 21
-1.512946
 31
0.0
  0
LINE
  5
781
330
1F
100
AcDbEntity
  8
1
  6
CONTINUOUS
370
50
 62
4
100
AcDbLine
 10
75.163795
 20
-1.599283
 30
0.0
 11
74.942078
 21
-1.512971
 31
0.0
  0
LINE
  5
782
330
1F
100
AcDbEntity
  8
1
  6
CONTINUOUS
370
50
 62
4
100
AcDbLine
 10
55.842667
 20
1.517623
 30
0.0
 11
55.624958
 21
1.602348
 31
0.0
  0
LINE
  5
783
330
1F
100
AcDbEntity
  8
1
  6
CONTINUOUS
370
50
 62
4
100
AcDbLine
 10
84.82019799999999
 20
1.516574
 30
0.0
 11
84.601311
 21
1.601618
 31
0.0
  0
LINE
  5
784
330
1F
100
AcDbEntity
  8
1
  6
CONTINUOUS
370
50
 62
4
100
AcDbLine
 10
94.11438
 20
-1.602338
 30
0.0
 11
93.89707899999999
 21
-1.51797
 31
0.0
  0
LINE
  5
785
330
1F
100
AcDbEntity
  8
1
  6
CONTINUOUS
370
50
 62
4
100
AcDbLine
 10
92.065208
 20
1.516387
 30
0.0
 11
91.845871
 21
1.601326
 31
0.0
  0
LINE
  5
786
330
1F
100
AcDbEntity
  8
1
  6
CONTINUOUS
370
50
 62
4
100
AcDbLine
 10
48.606003
 20
1.513459
 30
0.0
 11
48.36457799999999
 21
1.606792
 31
0.0
  0
LINE
  5
787
330
1F
100
AcDbEntity
  8
1
  6
CONTINUOUS
370
50
 62
4
100
AcDbLine
 10
79.623306
 20
-1.601685
 30
0.0
 11
79.403725
 21
-1.516805
 31
0.0
  0
LINE
  5
788
330
1F
100
AcDbEntity
  8
1
  6
CONTINUOUS
370
50
 62
4
100
AcDbLine
 10
86.87316899999999
 20
-1.60345
 30
0.0
 11
86.654854
 21
-1.519244
 31
0.0
  0
LINE
  5
789
330
1F
100
AcDbEntity
  8
1
  6
CONTINUOUS
370
50
 62
4
100
AcDbLine
 10
72.388519
 20
-1.605423
 30
0.0
 11
72.169907
 21
-1.521327
 31
0.0
  0
LINE
  5
78A
330
1F
100
AcDbEntity
  8
1
  6
CONTINUOUS
370
50
 62
4
100
AcDbLine
 10
53.025036
 20
1.528603
 30
0.0
 11
52.818806
 21
1.607351
 31
0.0
  0
LINE
  5
78B
330
1F
100
AcDbEntity
  8
1
  6
CONTINUOUS
370
50
 62
4
100
AcDbLine
 10
53.471699
 20
-1.614427
 30
0.0
 11
53.260227
 21
-1.534229
 31
0.0
  0
LINE
  5
78C
330
1F
100
AcDbEntity
  8
1
  6
CONTINUOUS
370
50
 62
4
100
AcDbLine
 10
100.0
 20
0.0
 30
0.0
 11
99.87005599999999
 21
0.048735
 31
0.0
  0
LINE
  5
78D
330
1F
100
AcDbEntity
  8
1
  6
CONTINUOUS
370
50
 62
4
100
AcDbLine
 10
96.450958
 20
1.543535
 30
0.0
 11
96.241852
 21
1.620811
 31
0.0
  0
LINE
  5
78E
330
1F
100
AcDbEntity
  8
1
  6
CONTINUOUS
370
50
 62
4
100
AcDbLine
 10
57.953045
 20
-1.62426
 30
0.0
 11
57.748386
 21
-1.548687
 31
0.0
  0
LINE
  5
78F
330
1F
100
AcDbEntity
  8
1
  6
CONTINUOUS
370
50
 62
4
100
AcDbLine
 10
45.774055
 20
1.704638
 30
0.0
 11
45.706184
 21
1.729395
 31
0.0
  0
LINE
  5
790
330
1F
100
AcDbEntity
  8
1
  6
CONTINUOUS
370
50
 62
4
100
AcDbLine
 10
100.0
 20
0.0
 30
0.0
 11
99.86550899999999
 21
0.048665
 31
0.0
  0
LINE
  5
791
330
1F
100
AcDbEntity
  8
1
  6
CONTINUOUS
370
50
 62
4
100
AcDbLine
 10
99.160645
 20
1.575557
 30
0.0
 11
98.99413299999999
 21
1.634
 31
0.0
  0
LINE
  5
792
330
1F
100
AcDbEntity
  8
1
  6
CONTINUOUS
370
50
 62
4
100
AcDbLine
 10
99.187317
 20
-0.260017
 30
0.0
 11
99.165962
 21
-0.252689
 31
0.0
  0
LINE
  5
793
330
1F
100
AcDbEntity
  8
1
  6
CONTINUOUS
370
50
 62
4
100
AcDbLine
 10
67.336426
 20
1.596841
 30
0.0
 11
67.11464699999999
 21
1.669313
 31
0.0
  0
LINE
  5
794
330
1F
100
AcDbEntity
  8
1
  6
CONTINUOUS
370
50
 62
4
100
AcDbLine
 10
81.81748999999999
 20
1.598884
 30
0.0
 11
81.598221
 21
1.670534
 31
0.0
  0
LINE
  5
795
330
1F
100
AcDbEntity
  8
1
  6
CONTINUOUS
370
50
 62
4
100
AcDbLine
 10
89.06102
 20
1.598839
 30
0.0
 11
88.84165999999999
 21
1.670482
 31
0.0
  0
LINE
  5
796
330
1F
100
AcDbEntity
  8
1
  6
CONTINUOUS
370
50
 62
4
100
AcDbLine
 10
89.87200899999999
 20
-1.670616
 30
0.0
 11
89.652512
 21
-1.599006
 31
0.0
  0
LINE
  5
797
330
1F
100
AcDbEntity
  8
1
  6
CONTINUOUS
370
50
 62
4
100
AcDbLine
 10
97.116089
 20
-1.670538
 30
0.0
 11
96.89626299999999
 21
-1.598836
 31
0.0
  0
LINE
  5
798
330
1F
100
AcDbEntity
  8
1
  6
CONTINUOUS
370
50
 62
4
100
AcDbLine
 10
74.573753
 20
1.599029
 30
0.0
 11
74.353088
 21
1.670974
 31
0.0
  0
LINE
  5
799
330
1F
100
AcDbEntity
  8
1
  6
CONTINUOUS
370
50
 62
4
100
AcDbLine
 10
50.85614
 20
-1.669627
 30
0.0
 11
50.640633
 21
-1.599385
 31
0.0
  0
LINE
  5
79A
330
1F
100
AcDbEntity
  8
1
  6
CONTINUOUS
370
50
 62
4
100
AcDbLine
 10
82.62812
 20
-1.670723
 30
0.0
 11
82.40843199999999
 21
-1.599159
 31
0.0
  0
LINE
  5
79B
330
1F
100
AcDbEntity
  8
1
  6
CONTINUOUS
370
50
 62
4
100
AcDbLine
 10
75.384186
 20
-1.670847
 30
0.0
 11
75.163795
 21
-1.599283
 31
0.0
  0
LINE
  5
79C
330
1F
100
AcDbEntity
  8
1
  6
CONTINUOUS
370
50
 62
4
100
AcDbLine
 10
84.601311
 20
1.601618
 30
0.0
 11
84.383675
 21
1.672236
 31
0.0
  0
LINE
  5
79D
330
1F
100
AcDbEntity
  8
1
  6
CONTINUOUS
370
50
 62
4
100
AcDbLine
 10
77.35717
 20
1.601874
 30
0.0
 11
77.139709
 21
1.67239
 31
0.0
  0
LINE
  5
79E
330
1F
100
AcDbEntity
  8
1
  6
CONTINUOUS
370
50
 62
4
100
AcDbLine
 10
91.845871
 20
1.601326
 30
0.0
 11
91.627541
 21
1.672064
 31
0.0
  0
LINE
  5
79F
330
1F
100
AcDbEntity
  8
1
  6
CONTINUOUS
370
50
 62
4
100
AcDbLine
 10
94.330872
 20
-1.672477
 30
0.0
 11
94.11438
 21
-1.602338
 31
0.0
  0
LINE
  5
7A0
330
1F
100
AcDbEntity
  8
1
  6
CONTINUOUS
370
50
 62
4
100
AcDbLine
 10
68.14003799999999
 20
-1.670995
 30
0.0
 11
67.91879999999999
 21
-1.599399
 31
0.0
  0
LINE
  5
7A1
330
1F
100
AcDbEntity
  8
1
  6
CONTINUOUS
370
50
 62
4
100
AcDbLine
 10
60.895367
 20
-1.671131
 30
0.0
 11
60.673798
 21
-1.599439
 31
0.0
  0
LINE
  5
7A2
330
1F
100
AcDbEntity
  8
1
  6
CONTINUOUS
370
50
 62
4
100
AcDbLine
 10
70.11325099999999
 20
1.602064
 30
0.0
 11
69.895439
 21
1.672535
 31
0.0
  0
LINE
  5
7A3
330
1F
100
AcDbEntity
  8
1
  6
CONTINUOUS
370
50
 62
4
100
AcDbLine
 10
46.434814
 20
-1.65119
 30
0.0
 11
46.36795799999999
 21
-1.62957
 31
0.0
  0
LINE
  5
7A4
330
1F
100
AcDbEntity
  8
1
  6
CONTINUOUS
370
50
 62
4
100
AcDbLine
 10
60.08485
 20
1.599662
 30
0.0
 11
59.862965
 21
1.671359
 31
0.0
  0
LINE
  5
7A5
330
1F
100
AcDbEntity
  8
1
  6
CONTINUOUS
370
50
 62
4
100
AcDbLine
 10
79.842216
 20
-1.672405
 30
0.0
 11
79.623306
 21
-1.601685
 31
0.0
  0
LINE
  5
7A6
330
1F
100
AcDbEntity
  8
1
  6
CONTINUOUS
370
50
 62
4
100
AcDbLine
 10
87.090614
 20
-1.673622
 30
0.0
 11
86.87316899999999
 21
-1.60345
 31
0.0
  0
LINE
  5
7A7
330
1F
100
AcDbEntity
  8
1
  6
CONTINUOUS
370
50
 62
4
100
AcDbLine
 10
62.869335
 20
1.602191
 30
0.0
 11
62.650715
 21
1.672671
 31
0.0
  0
LINE
  5
7A8
330
1F
100
AcDbEntity
  8
1
  6
CONTINUOUS
370
50
 62
4
100
AcDbLine
 10
46.36795799999999
 20
-1.62957
 30
0.0
 11
46.299561
 21
-1.607551
 31
0.0
  0
LINE
  5
7A9
330
1F
100
AcDbEntity
  8
1
  6
CONTINUOUS
370
50
 62
4
100
AcDbLine
 10
55.624958
 20
1.602348
 30
0.0
 11
55.405621
 21
1.67286
 31
0.0
  0
LINE
  5
7AA
330
1F
100
AcDbEntity
  8
1
  6
CONTINUOUS
370
50
 62
4
100
AcDbLine
 10
65.353043
 20
-1.672525
 30
0.0
 11
65.13336199999999
 21
-1.601922
 31
0.0
  0
LINE
  5
7AB
330
1F
100
AcDbEntity
  8
1
  6
CONTINUOUS
370
50
 62
4
100
AcDbLine
 10
46.50029
 20
-1.672163
 30
0.0
 11
46.434814
 21
-1.65119
 31
0.0
  0
LINE
  5
7AC
330
1F
100
AcDbEntity
  8
1
  6
CONTINUOUS
370
50
 62
4
100
AcDbLine
 10
52.818806
 20
1.607351
 30
0.0
 11
52.61171299999999
 21
1.673429
 31
0.0
  0
LINE
  5
7AD
330
1F
100
AcDbEntity
  8
1
  6
CONTINUOUS
370
50
 62
4
100
AcDbLine
 10
72.60598
 20
-1.67477
 30
0.0
 11
72.388519
 21
-1.605423
 31
0.0
  0
LINE
  5
7AE
330
1F
100
AcDbEntity
  8
1
  6
CONTINUOUS
370
50
 62
4
100
AcDbLine
 10
46.299561
 20
-1.607551
 30
0.0
 11
46.229458
 21
-1.585385
 31
0.0
  0
LINE
  5
7AF
330
1F
100
AcDbEntity
  8
1
  6
CONTINUOUS
370
50
 62
4
100
AcDbLine
 10
48.36457799999999
 20
1.606792
 30
0.0
 11
48.123138
 21
1.682667
 31
0.0
  0
LINE
  5
7B0
330
1F
100
AcDbEntity
  8
1
  6
CONTINUOUS
370
50
 62
4
100
AcDbLine
 10
53.684486
 20
-1.680948
 30
0.0
 11
53.471699
 21
-1.614427
 31
0.0
  0
LINE
  5
7B1
330
1F
100
AcDbEntity
  8
1
  6
CONTINUOUS
370
50
 62
4
100
AcDbLine
 10
46.564541
 20
-1.69224
 30
0.0
 11
46.50029
 21
-1.672163
 31
0.0
  0
LINE
  5
7B2
330
1F
100
AcDbEntity
  8
1
  6
CONTINUOUS
370
50
 62
4
100
AcDbLine
 10
45.706184
 20
1.729395
 30
0.0
 11
45.63847699999999
 21
1.750536
 31
0.0
  0
LINE
  5
7B3
330
1F
100
AcDbEntity
  8
1
  6
CONTINUOUS
370
50
 62
4
100
AcDbLine
 10
96.241852
 20
1.620811
 30
0.0
 11
96.03463699999999
 21
1.684752
 31
0.0
  0
LINE
  5
7B4
330
1F
100
AcDbEntity
  8
1
  6
CONTINUOUS
370
50
 62
4
100
AcDbLine
 10
46.229458
 20
-1.585385
 30
0.0
 11
46.157551
 21
-1.563393
 31
0.0
  0
LINE
  5
7B5
330
1F
100
AcDbEntity
  8
1
  6
CONTINUOUS
370
50
 62
4
100
AcDbLine
 10
58.159569
 20
-1.687069
 30
0.0
 11
57.953045
 21
-1.62426
 31
0.0
  0
LINE
  5
7B6
330
1F
100
AcDbEntity
  8
1
  6
CONTINUOUS
370
50
 62
4
100
AcDbLine
 10
98.99413299999999
 20
1.634
 30
0.0
 11
98.828018
 21
1.6842
 31
0.0
  0
LINE
  5
7B7
330
1F
100
AcDbEntity
  8
1
  6
CONTINUOUS
370
50
 62
4
100
AcDbLine
 10
46.627731
 20
-1.711171
 30
0.0
 11
46.564541
 21
-1.69224
 31
0.0
  0
LINE
  5
7B8
330
1F
100
AcDbEntity
  8
1
  6
CONTINUOUS
370
50
 62
4
100
AcDbLine
 10
46.157551
 20
-1.563393
 30
0.0
 11
46.083839
 21
-1.542015
 31
0.0
  0
LINE
  5
7B9
330
1F
100
AcDbEntity
  8
1
  6
CONTINUOUS
370
50
 62
4
100
AcDbLine
 10
45.15551
 20
-1.78447
 30
0.0
 11
45.113228
 21
-1.772746
 31
0.0
  0
LINE
  5
7BA
330
1F
100
AcDbEntity
  8
1
  6
CONTINUOUS
370
50
 62
4
100
AcDbLine
 10
46.083839
 20
-1.542015
 30
0.0
 11
46.008354
 21
-1.521706
 31
0.0
  0
LINE
  5
7BB
330
1F
100
AcDbEntity
  8
1
  6
CONTINUOUS
370
50
 62
4
100
AcDbLine
 10
45.63847699999999
 20
1.750536
 30
0.0
 11
45.571152
 21
1.768009
 31
0.0
  0
LINE
  5
7BC
330
1F
100
AcDbEntity
  8
1
  6
CONTINUOUS
370
50
 62
4
100
AcDbLine
 10
75.60353099999999
 20
-1.727197
 30
0.0
 11
75.384186
 21
-1.670847
 31
0.0
  0
LINE
  5
7BD
330
1F
100
AcDbEntity
  8
1
  6
CONTINUOUS
370
50
 62
4
100
AcDbLine
 10
82.84775499999999
 20
-1.727133
 30
0.0
 11
82.62812
 21
-1.670723
 31
0.0
  0
LINE
  5
7BE
330
1F
100
AcDbEntity
  8
1
  6
CONTINUOUS
370
50
 62
4
100
AcDbLine
 10
88.84165999999999
 20
1.670482
 30
0.0
 11
88.622208
 21
1.726834
 31
0.0
  0
LINE
  5
7BF
330
1F
100
AcDbEntity
  8
1
  6
CONTINUOUS
370
50
 62
4
100
AcDbLine
 10
52.61171299999999
 20
1.673429
 30
0.0
 11
52.40571199999999
 21
1.726276
 31
0.0
  0
LINE
  5
7C0
330
1F
100
AcDbEntity
  8
1
  6
CONTINUOUS
370
50
 62
4
100
AcDbLine
 10
68.359627
 20
-1.727313
 30
0.0
 11
68.14003799999999
 21
-1.670995
 31
0.0
  0
LINE
  5
7C1
330
1F
100
AcDbEntity
  8
1
  6
CONTINUOUS
370
50
 62
4
100
AcDbLine
 10
67.11464699999999
 20
1.669313
 30
0.0
 11
66.892372
 21
1.726266
 31
0.0
  0
LINE
  5
7C2
330
1F
100
AcDbEntity
  8
1
  6
CONTINUOUS
370
50
 62
4
100
AcDbLine
 10
90.092407
 20
-1.727067
 30
0.0
 11
89.87200899999999
 21
-1.670616
 31
0.0
  0
LINE
  5
7C3
330
1F
100
AcDbEntity
  8
1
  6
CONTINUOUS
370
50
 62
4
100
AcDbLine
 10
81.598221
 20
1.670534
 30
0.0
 11
81.377678
 21
1.726965
 31
0.0
  0
LINE
  5
7C4
330
1F
100
AcDbEntity
  8
1
  6
CONTINUOUS
370
50
 62
4
100
AcDbLine
 10
51.073898
 20
-1.725337
 30
0.0
 11
50.85614
 21
-1.669627
 31
0.0
  0
LINE
  5
7C5
330
1F
100
AcDbEntity
  8
1
  6
CONTINUOUS
370
50
 62
4
100
AcDbLine
 10
61.11571499999999
 20
-1.727455
 30
0.0
 11
60.895367
 21
-1.671131
 31
0.0
  0
LINE
  5
7C6
330
1F
100
AcDbEntity
  8
1
  6
CONTINUOUS
370
50
 62
4
100
AcDbLine
 10
59.862965
 20
1.671359
 30
0.0
 11
59.642258
 21
1.72774
 31
0.0
  0
LINE
  5
7C7
330
1F
100
AcDbEntity
  8
1
  6
CONTINUOUS
370
50
 62
4
100
AcDbLine
 10
91.627541
 20
1.672064
 30
0.0
 11
91.409904
 21
1.727656
 31
0.0
  0
LINE
  5
7C8
330
1F
100
AcDbEntity
  8
1
  6
CONTINUOUS
370
50
 62
4
100
AcDbLine
 10
80.060417
 20
-1.72814
 30
0.0
 11
79.842216
 21
-1.672405
 31
0.0
  0
LINE
  5
7C9
330
1F
100
AcDbEntity
  8
1
  6
CONTINUOUS
370
50
 62
4
100
AcDbLine
 10
97.337227
 20
-1.726928
 30
0.0
 11
97.116089
 21
-1.670538
 31
0.0
  0
LINE
  5
7CA
330
1F
100
AcDbEntity
  8
1
  6
CONTINUOUS
370
50
 62
4
100
AcDbLine
 10
84.383675
 20
1.672236
 30
0.0
 11
84.165756
 21
1.727789
 31
0.0
  0
LINE
  5
7CB
330
1F
100
AcDbEntity
  8
1
  6
CONTINUOUS
370
50
 62
4
100
AcDbLine
 10
74.353088
 20
1.670974
 30
0.0
 11
74.131416
 21
1.727366
 31
0.0
  0
LINE
  5
7CC
330
1F
100
AcDbEntity
  8
1
  6
CONTINUOUS
370
50
 62
4
100
AcDbLine
 10
55.405621
 20
1.67286
 30
0.0
 11
55.186707
 21
1.728549
 31
0.0
  0
LINE
  5
7CD
330
1F
100
AcDbEntity
  8
1
  6
CONTINUOUS
370
50
 62
4
100
AcDbLine
 10
65.572182
 20
-1.728255
 30
0.0
 11
65.353043
 21
-1.672525
 31
0.0
  0
LINE
  5
7CE
330
1F
100
AcDbEntity
  8
1
  6
CONTINUOUS
370
50
 62
4
100
AcDbLine
 10
94.54866799999999
 20
-1.727865
 30
0.0
 11
94.330872
 21
-1.672477
 31
0.0
  0
LINE
  5
7CF
330
1F
100
AcDbEntity
  8
1
  6
CONTINUOUS
370
50
 62
4
100
AcDbLine
 10
77.139709
 20
1.67239
 30
0.0
 11
76.92102799999999
 21
1.727943
 31
0.0
  0
LINE
  5
7D0
330
1F
100
AcDbEntity
  8
1
  6
CONTINUOUS
370
50
 62
4
100
AcDbLine
 10
87.307564
 20
-1.728707
 30
0.0
 11
87.090614
 21
-1.673622
 31
0.0
  0
LINE
  5
7D1
330
1F
100
AcDbEntity
  8
1
  6
CONTINUOUS
370
50
 62
4
100
AcDbLine
 10
62.650715
 20
1.672671
 30
0.0
 11
62.431133
 21
1.728311
 31
0.0
  0
LINE
  5
7D2
330
1F
100
AcDbEntity
  8
1
  6
CONTINUOUS
370
50
 62
4
100
AcDbLine
 10
69.895439
 20
1.672535
 30
0.0
 11
69.67598699999999
 21
1.728113
 31
0.0
  0
LINE
  5
7D3
330
1F
100
AcDbEntity
  8
1
  6
CONTINUOUS
370
50
 62
4
100
AcDbLine
 10
72.821617
 20
-1.72935
 30
0.0
 11
72.60598
 21
-1.67477
 31
0.0
  0
LINE
  5
7D4
330
1F
100
AcDbEntity
  8
1
  6
CONTINUOUS
370
50
 62
4
100
AcDbLine
 10
98.828018
 20
1.6842
 30
0.0
 11
98.662193
 21
1.725652
 31
0.0
  0
LINE
  5
7D5
330
1F
100
AcDbEntity
  8
1
  6
CONTINUOUS
370
50
 62
4
100
AcDbLine
 10
53.896961
 20
-1.733108
 30
0.0
 11
53.684486
 21
-1.680948
 31
0.0
  0
LINE
  5
7D6
330
1F
100
AcDbEntity
  8
1
  6
CONTINUOUS
370
50
 62
4
100
AcDbLine
 10
46.008354
 20
-1.521706
 30
0.0
 11
45.931129
 21
-1.502916
 31
0.0
  0
LINE
  5
7D7
330
1F
100
AcDbEntity
  8
1
  6
CONTINUOUS
370
50
 62
4
100
AcDbLine
 10
96.03463699999999
 20
1.684752
 30
0.0
 11
95.827888
 21
1.734935
 31
0.0
  0
LINE
  5
7D8
330
1F
100
AcDbEntity
  8
1
  6
CONTINUOUS
370
50
 62
4
100
AcDbLine
 10
48.123138
 20
1.682667
 30
0.0
 11
47.882484
 21
1.740262
 31
0.0
  0
LINE
  5
7D9
330
1F
100
AcDbEntity
  8
1
  6
CONTINUOUS
370
50
 62
4
100
AcDbLine
 10
58.36622999999999
 20
-1.73652
 30
0.0
 11
58.159569
 21
-1.687069
 31
0.0
  0
LINE
  5
7DA
330
1F
100
AcDbEntity
  8
1
  6
CONTINUOUS
370
50
 62
4
100
AcDbLine
 10
99.20889299999999
 20
-0.264996
 30
0.0
 11
99.187317
 21
-0.260017
 31
0.0
  0
LINE
  5
7DB
330
1F
100
AcDbEntity
  8
1
  6
CONTINUOUS
370
50
 62
4
100
AcDbLine
 10
45.931129
 20
-1.502916
 30
0.0
 11
45.852642
 21
-1.486203
 31
0.0
  0
LINE
  5
7DC
330
1F
100
AcDbEntity
  8
1
  6
CONTINUOUS
370
50
 62
4
100
AcDbLine
 10
46.71601099999999
 20
-1.744535
 30
0.0
 11
46.627731
 21
-1.726052
 31
0.0
  0
LINE
  5
7DD
330
1F
100
AcDbEntity
  8
1
  6
CONTINUOUS
370
50
 62
4
100
AcDbLine
 10
45.571152
 20
1.768009
 30
0.0
 11
45.504272
 21
1.781793
 31
0.0
  0
LINE
  5
7DE
330
1F
100
AcDbEntity
  8
1
  6
CONTINUOUS
370
50
 62
4
100
AcDbLine
 10
98.662193
 20
1.725652
 30
0.0
 11
98.495995
 21
1.758104
 31
0.0
  0
LINE
  5
7DF
330
1F
100
AcDbEntity
  8
1
  6
CONTINUOUS
370
50
 62
4
100
AcDbLine
 10
52.40571199999999
 20
1.726276
 30
0.0
 11
52.200001
 21
1.7653
 31
0.0
  0
LINE
  5
7E0
330
1F
100
AcDbEntity
  8
1
  6
CONTINUOUS
370
50
 62
4
100
AcDbLine
 10
51.290558
 20
-1.76581
 30
0.0
 11
51.073898
 21
-1.725337
 31
0.0
  0
LINE
  5
7E1
330
1F
100
AcDbEntity
  8
1
  6
CONTINUOUS
370
50
 62
4
100
AcDbLine
 10
66.892372
 20
1.726266
 30
0.0
 11
66.67115799999999
 21
1.767479
 31
0.0
  0
LINE
  5
7E2
330
1F
100
AcDbEntity
  8
1
  6
CONTINUOUS
370
50
 62
4
100
AcDbLine
 10
61.334923
 20
-1.768062
 30
0.0
 11
61.11571499999999
 21
-1.727455
 31
0.0
  0
LINE
  5
7E3
330
1F
100
AcDbEntity
  8
1
  6
CONTINUOUS
370
50
 62
4
100
AcDbLine
 10
68.579056
 20
-1.767957
 30
0.0
 11
68.359627
 21
-1.727313
 31
0.0
  0
LINE
  5
7E4
330
1F
100
AcDbEntity
  8
1
  6
CONTINUOUS
370
50
 62
4
100
AcDbLine
 10
59.642258
 20
1.72774
 30
0.0
 11
59.42333199999999
 21
1.76826
 31
0.0
  0
LINE
  5
7E5
330
1F
100
AcDbEntity
  8
1
  6
CONTINUOUS
370
50
 62
4
100
AcDbLine
 10
75.823692
 20
-1.76787
 30
0.0
 11
75.60353099999999
 21
-1.727197
 31
0.0
  0
LINE
  5
7E6
330
1F
100
AcDbEntity
  8
1
  6
CONTINUOUS
370
50
 62
4
100
AcDbLine
 10
65.790573
 20
-1.768475
 30
0.0
 11
65.572182
 21
-1.728255
 31
0.0
  0
LINE
  5
7E7
330
1F
100
AcDbEntity
  8
1
  6
CONTINUOUS
370
50
 62
4
100
AcDbLine
 10
55.186707
 20
1.728549
 30
0.0
 11
54.96899
 21
1.768642
 31
0.0
  0
LINE
  5
7E8
330
1F
100
AcDbEntity
  8
1
  6
CONTINUOUS
370
50
 62
4
100
AcDbLine
 10
62.431133
 20
1.728311
 30
0.0
 11
62.21284499999999
 21
1.768479
 31
0.0
  0
LINE
  5
7E9
330
1F
100
AcDbEntity
  8
1
  6
CONTINUOUS
370
50
 62
4
100
AcDbLine
 10
74.131416
 20
1.727366
 30
0.0
 11
73.91076699999999
 21
1.767957
 31
0.0
  0
LINE
  5
7EA
330
1F
100
AcDbEntity
  8
1
  6
CONTINUOUS
370
50
 62
4
100
AcDbLine
 10
83.068703
 20
-1.767757
 30
0.0
 11
82.84775499999999
 21
-1.727133
 31
0.0
  0
LINE
  5
7EB
330
1F
100
AcDbEntity
  8
1
  6
CONTINUOUS
370
50
 62
4
100
AcDbLine
 10
81.377678
 20
1.726965
 30
0.0
 11
81.15656299999999
 21
1.767564
 31
0.0
  0
LINE
  5
7EC
330
1F
100
AcDbEntity
  8
1
  6
CONTINUOUS
370
50
 62
4
100
AcDbLine
 10
88.622208
 20
1.726834
 30
0.0
 11
88.400955
 21
1.767458
 31
0.0
  0
LINE
  5
7ED
330
1F
100
AcDbEntity
  8
1
  6
CONTINUOUS
370
50
 62
4
100
AcDbLine
 10
80.278503
 20
-1.768152
 30
0.0
 11
80.060417
 21
-1.72814
 31
0.0
  0
LINE
  5
7EE
330
1F
100
AcDbEntity
  8
1
  6
CONTINUOUS
370
50
 62
4
100
AcDbLine
 10
97.55806
 20
-1.767441
 30
0.0
 11
97.337227
 21
-1.726928
 31
0.0
  0
LINE
  5
7EF
330
1F
100
AcDbEntity
  8
1
  6
CONTINUOUS
370
50
 62
4
100
AcDbLine
 10
69.67598699999999
 20
1.728113
 30
0.0
 11
69.45678699999999
 21
1.768305
 31
0.0
  0
LINE
  5
7F0
330
1F
100
AcDbEntity
  8
1
  6
CONTINUOUS
370
50
 62
4
100
AcDbLine
 10
91.409904
 20
1.727656
 30
0.0
 11
91.191154
 21
1.767755
 31
0.0
  0
LINE
  5
7F1
330
1F
100
AcDbEntity
  8
1
  6
CONTINUOUS
370
50
 62
4
100
AcDbLine
 10
90.31362899999999
 20
-1.767613
 30
0.0
 11
90.092407
 21
-1.727067
 31
0.0
  0
LINE
  5
7F2
330
1F
100
AcDbEntity
  8
1
  6
CONTINUOUS
370
50
 62
4
100
AcDbLine
 10
84.165756
 20
1.727789
 30
0.0
 11
83.946198
 21
1.767908
 31
0.0
  0
LINE
  5
7F3
330
1F
100
AcDbEntity
  8
1
  6
CONTINUOUS
370
50
 62
4
100
AcDbLine
 10
76.92102799999999
 20
1.727943
 30
0.0
 11
76.701241
 21
1.768096
 31
0.0
  0
LINE
  5
7F4
330
1F
100
AcDbEntity
  8
1
  6
CONTINUOUS
370
50
 62
4
100
AcDbLine
 10
73.037453
 20
-1.76877
 30
0.0
 11
72.821617
 21
-1.72935
 31
0.0
  0
LINE
  5
7F5
330
1F
100
AcDbEntity
  8
1
  6
CONTINUOUS
370
50
 62
4
100
AcDbLine
 10
94.768036
 20
-1.767799
 30
0.0
 11
94.54866799999999
 21
-1.727865
 31
0.0
  0
LINE
  5
7F6
330
1F
100
AcDbEntity
  8
1
  6
CONTINUOUS
370
50
 62
4
100
AcDbLine
 10
87.525398
 20
-1.768307
 30
0.0
 11
87.307564
 21
-1.728707
 31
0.0
  0
LINE
  5
7F7
330
1F
100
AcDbEntity
  8
1
  6
CONTINUOUS
370
50
 62
4
100
AcDbLine
 10
45.203121
 20
-1.793074
 30
0.0
 11
45.15551
 21
-1.78447
 31
0.0
  0
LINE
  5
7F8
330
1F
100
AcDbEntity
  8
1
  6
CONTINUOUS
370
50
 62
4
100
AcDbLine
 10
46.80397
 20
-1.760375
 30
0.0
 11
46.71601099999999
 21
-1.744535
 31
0.0
  0
LINE
  5
7F9
330
1F
100
AcDbEntity
  8
1
  6
CONTINUOUS
370
50
 62
4
100
AcDbLine
 10
45.852642
 20
-1.486203
 30
0.0
 11
45.775887
 21
-1.472538
 31
0.0
  0
LINE
  5
7FA
330
1F
100
AcDbEntity
  8
1
  6
CONTINUOUS
370
50
 62
4
100
AcDbLine
 10
54.107906
 20
-1.770661
 30
0.0
 11
53.896961
 21
-1.733108
 31
0.0
  0
LINE
  5
7FB
330
1F
100
AcDbEntity
  8
1
  6
CONTINUOUS
370
50
 62
4
100
AcDbLine
 10
95.827888
 20
1.734935
 30
0.0
 11
95.61978099999999
 21
1.771072
 31
0.0
  0
LINE
  5
7FC
330
1F
100
AcDbEntity
  8
1
  6
CONTINUOUS
370
50
 62
4
100
AcDbLine
 10
58.572025
 20
-1.772236
 30
0.0
 11
58.36622999999999
 21
-1.73652
 31
0.0
  0
LINE
  5
7FD
330
1F
100
AcDbEntity
  8
1
  6
CONTINUOUS
370
50
 62
4
100
AcDbLine
 10
99.144424
 20
1.799941
 30
0.0
 11
99.14417999999999
 21
1.799982
 31
0.0
  0
LINE
  5
7FE
330
1F
100
AcDbEntity
  8
1
  6
CONTINUOUS
370
50
 62
4
100
AcDbLine
 10
47.882484
 20
1.740262
 30
0.0
 11
47.641842
 21
1.778677
 31
0.0
  0
LINE
  5
7FF
330
1F
100
AcDbEntity
  8
1
  6
CONTINUOUS
370
50
 62
4
100
AcDbLine
 10
45.504272
 20
1.781793
 30
0.0
 11
45.438271
 21
1.791793
 31
0.0
  0
LINE
  5
800
330
1F
100
AcDbEntity
  8
1
  6
CONTINUOUS
370
50
 62
4
100
AcDbLine
 10
46.891747
 20
-1.773565
 30
0.0
 11
46.80397
 21
-1.760375
 31
0.0
  0
LINE
  5
801
330
1F
100
AcDbEntity
  8
1
  6
CONTINUOUS
370
50
 62
4
100
AcDbLine
 10
52.199135
 20
1.764528
 30
0.0
 11
52.119698
 21
1.775752
 31
0.0
  0
LINE
  5
802
330
1F
100
AcDbEntity
  8
1
  6
CONTINUOUS
370
50
 62
4
100
AcDbLine
 10
45.775887
 20
-1.472538
 30
0.0
 11
45.70155
 21
-1.462063
 31
0.0
  0
LINE
  5
803
330
1F
100
AcDbEntity
  8
1
  6
CONTINUOUS
370
50
 62
4
100
AcDbLine
 10
98.495995
 20
1.758104
 30
0.0
 11
98.329224
 21
1.781356
 31
0.0
  0
LINE
  5
804
330
1F
100
AcDbEntity
  8
1
  6
CONTINUOUS
370
50
 62
4
100
AcDbLine
 10
46.979473
 20
-1.784101
 30
0.0
 11
46.891747
 21
-1.773565
 31
0.0
  0
LINE
  5
805
330
1F
100
AcDbEntity
  8
1
  6
CONTINUOUS
370
50
 62
4
100
AcDbLine
 10
99.230667
 20
-0.267543
 30
0.0
 11
99.20889299999999
 21
-0.264996
 31
0.0
  0
LINE
  5
806
330
1F
100
AcDbEntity
  8
1
  6
CONTINUOUS
370
50
 62
4
100
AcDbLine
 10
51.505798
 20
-1.790747
 30
0.0
 11
51.290558
 21
-1.76581
 31
0.0
  0
LINE
  5
807
330
1F
100
AcDbEntity
  8
1
  6
CONTINUOUS
370
50
 62
4
100
AcDbLine
 10
52.119698
 20
1.775752
 30
0.0
 11
52.04018
 21
1.784842
 31
0.0
  0
LINE
  5
808
330
1F
100
AcDbEntity
  8
1
  6
CONTINUOUS
370
50
 62
4
100
AcDbLine
 10
66.67115799999999
 20
1.767479
 30
0.0
 11
66.44989799999999
 21
1.792411
 31
0.0
  0
LINE
  5
809
330
1F
100
AcDbEntity
  8
1
  6
CONTINUOUS
370
50
 62
4
100
AcDbLine
 10
81.15656299999999
 20
1.767564
 30
0.0
 11
80.936897
 21
1.792137
 31
0.0
  0
LINE
  5
80A
330
1F
100
AcDbEntity
  8
1
  6
CONTINUOUS
370
50
 62
4
100
AcDbLine
 10
73.91076699999999
 20
1.767957
 30
0.0
 11
73.691986
 21
1.792387
 31
0.0
  0
LINE
  5
80B
330
1F
100
AcDbEntity
  8
1
  6
CONTINUOUS
370
50
 62
4
100
AcDbLine
 10
61.554844
 20
-1.792615
 30
0.0
 11
61.334923
 21
-1.768062
 31
0.0
  0
LINE
  5
80C
330
1F
100
AcDbEntity
  8
1
  6
CONTINUOUS
370
50
 62
4
100
AcDbLine
 10
59.42333199999999
 20
1.76826
 30
0.0
 11
59.204109
 21
1.792693
 31
0.0
  0
LINE
  5
80D
330
1F
100
AcDbEntity
  8
1
  6
CONTINUOUS
370
50
 62
4
100
AcDbLine
 10
97.777214
 20
-1.79186
 30
0.0
 11
97.55806
 21
-1.767441
 31
0.0
  0
LINE
  5
80E
330
1F
100
AcDbEntity
  8
1
  6
CONTINUOUS
370
50
 62
4
100
AcDbLine
 10
88.400955
 20
1.767458
 30
0.0
 11
88.18047299999999
 21
1.792004
 31
0.0
  0
LINE
  5
80F
330
1F
100
AcDbEntity
  8
1
  6
CONTINUOUS
370
50
 62
4
100
AcDbLine
 10
69.45678699999999
 20
1.768305
 30
0.0
 11
69.23885299999999
 21
1.79254
 31
0.0
  0
LINE
  5
810
330
1F
100
AcDbEntity
  8
1
  6
CONTINUOUS
370
50
 62
4
100
AcDbLine
 10
62.21284499999999
 20
1.768479
 30
0.0
 11
61.994995
 21
1.79269
 31
0.0
  0
LINE
  5
811
330
1F
100
AcDbEntity
  8
1
  6
CONTINUOUS
370
50
 62
4
100
AcDbLine
 10
76.701241
 20
1.768096
 30
0.0
 11
76.482681
 21
1.792382
 31
0.0
  0
LINE
  5
812
330
1F
100
AcDbEntity
  8
1
  6
CONTINUOUS
370
50
 62
4
100
AcDbLine
 10
68.799774
 20
-1.792479
 30
0.0
 11
68.579056
 21
-1.767957
 31
0.0
  0
LINE
  5
813
330
1F
100
AcDbEntity
  8
1
  6
CONTINUOUS
370
50
 62
4
100
AcDbLine
 10
90.533577
 20
-1.792028
 30
0.0
 11
90.31362899999999
 21
-1.767613
 31
0.0
  0
LINE
  5
814
330
1F
100
AcDbEntity
  8
1
  6
CONTINUOUS
370
50
 62
4
100
AcDbLine
 10
54.96899
 20
1.768642
 30
0.0
 11
54.750702
 21
1.792846
 31
0.0
  0
LINE
  5
815
330
1F
100
AcDbEntity
  8
1
  6
CONTINUOUS
370
50
 62
4
100
AcDbLine
 10
66.008759
 20
-1.79264
 30
0.0
 11
65.790573
 21
-1.768475
 31
0.0
  0
LINE
  5
816
330
1F
100
AcDbEntity
  8
1
  6
CONTINUOUS
370
50
 62
4
100
AcDbLine
 10
83.946198
 20
1.767908
 30
0.0
 11
83.72672299999999
 21
1.792211
 31
0.0
  0
LINE
  5
817
330
1F
100
AcDbEntity
  8
1
  6
CONTINUOUS
370
50
 62
4
100
AcDbLine
 10
94.986542
 20
-1.791982
 30
0.0
 11
94.768036
 21
-1.767799
 31
0.0
  0
LINE
  5
818
330
1F
100
AcDbEntity
  8
1
  6
CONTINUOUS
370
50
 62
4
100
AcDbLine
 10
76.044769
 20
-1.792333
 30
0.0
 11
75.823692
 21
-1.76787
 31
0.0
  0
LINE
  5
819
330
1F
100
AcDbEntity
  8
1
  6
CONTINUOUS
370
50
 62
4
100
AcDbLine
 10
83.289474
 20
-1.792185
 30
0.0
 11
83.068703
 21
-1.767757
 31
0.0
  0
LINE
  5
81A
330
1F
100
AcDbEntity
  8
1
  6
CONTINUOUS
370
50
 62
4
100
AcDbLine
 10
91.191154
 20
1.767755
 30
0.0
 11
90.971176
 21
1.792034
 31
0.0
  0
LINE
  5
81B
330
1F
100
AcDbEntity
  8
1
  6
CONTINUOUS
370
50
 62
4
100
AcDbLine
 10
80.4981
 20
-1.792293
 30
0.0
 11
80.278503
 21
-1.768152
 31
0.0
  0
LINE
  5
81C
330
1F
100
AcDbEntity
  8
1
  6
CONTINUOUS
370
50
 62
4
100
AcDbLine
 10
87.74395799999999
 20
-1.792238
 30
0.0
 11
87.525398
 21
-1.768307
 31
0.0
  0
LINE
  5
81D
330
1F
100
AcDbEntity
  8
1
  6
CONTINUOUS
370
50
 62
4
100
AcDbLine
 10
73.25518799999999
 20
-1.792607
 30
0.0
 11
73.037453
 21
-1.76877
 31
0.0
  0
LINE
  5
81E
330
1F
100
AcDbEntity
  8
1
  6
CONTINUOUS
370
50
 62
4
100
AcDbLine
 10
54.318729
 20
-1.793356
 30
0.0
 11
54.107906
 21
-1.770661
 31
0.0
  0
LINE
  5
81F
330
1F
100
AcDbEntity
  8
1
  6
CONTINUOUS
370
50
 62
4
100
AcDbLine
 10
58.77733199999999
 20
-1.793709
 30
0.0
 11
58.572025
 21
-1.772236
 31
0.0
  0
LINE
  5
820
330
1F
100
AcDbEntity
  8
1
  6
CONTINUOUS
370
50
 62
4
100
AcDbLine
 10
95.61978099999999
 20
1.771072
 30
0.0
 11
95.411446
 21
1.792806
 31
0.0
  0
LINE
  5
821
330
1F
100
AcDbEntity
  8
1
  6
CONTINUOUS
370
50
 62
4
100
AcDbLine
 10
45.70155
 20
-1.462063
 30
0.0
 11
45.629787
 21
-1.454774
 31
0.0
  0
LINE
  5
822
330
1F
100
AcDbEntity
  8
1
  6
CONTINUOUS
370
50
 62
4
100
AcDbLine
 10
45.25553499999999
 20
-1.798319
 30
0.0
 11
45.203121
 21
-1.793074
 31
0.0
  0
LINE
  5
823
330
1F
100
AcDbEntity
  8
1
  6
CONTINUOUS
370
50
 62
4
100
AcDbLine
 10
45.438271
 20
1.791793
 30
0.0
 11
45.373714
 21
1.797892
 31
0.0
  0
LINE
  5
824
330
1F
100
AcDbEntity
  8
1
  6
CONTINUOUS
370
50
 62
4
100
AcDbLine
 10
47.067287
 20
-1.791977
 30
0.0
 11
46.979473
 21
-1.784101
 31
0.0
  0
LINE
  5
825
330
1F
100
AcDbEntity
  8
1
  6
CONTINUOUS
370
50
 62
4
100
AcDbLine
 10
52.04018
 20
1.784842
 30
0.0
 11
51.96049499999999
 21
1.791802
 31
0.0
  0
LINE
  5
826
330
1F
100
AcDbEntity
  8
1
  6
CONTINUOUS
370
50
 62
4
100
AcDbLine
 10
98.329224
 20
1.781356
 30
0.0
 11
98.162407
 21
1.795346
 31
0.0
  0
LINE
  5
827
330
1F
100
AcDbEntity
  8
1
  6
CONTINUOUS
370
50
 62
4
100
AcDbLine
 10
47.641842
 20
1.778677
 30
0.0
 11
47.398857
 21
1.797778
 31
0.0
  0
LINE
  5
828
330
1F
100
AcDbEntity
  8
1
  6
CONTINUOUS
370
50
 62
4
100
AcDbLine
 10
51.96049499999999
 20
1.791802
 30
0.0
 11
51.880745
 21
1.796633
 31
0.0
  0
LINE
  5
829
330
1F
100
AcDbEntity
  8
1
  6
CONTINUOUS
370
50
 62
4
100
AcDbLine
 10
45.629787
 20
-1.454774
 30
0.0
 11
45.560768
 21
-1.45067
 31
0.0
  0
LINE
  5
82A
330
1F
100
AcDbEntity
  8
1
  6
CONTINUOUS
370
50
 62
4
100
AcDbLine
 10
47.155323
 20
-1.797188
 30
0.0
 11
47.067287
 21
-1.791977
 31
0.0
  0
LINE
  5
82B
330
1F
100
AcDbEntity
  8
1
  6
CONTINUOUS
370
50
 62
4
100
AcDbLine
 10
51.721714
 20
-1.79995
 30
0.0
 11
51.505798
 21
-1.790747
 31
0.0
  0
LINE
  5
82C
330
1F
100
AcDbEntity
  8
1
  6
CONTINUOUS
370
50
 62
4
100
AcDbLine
 10
80.936897
 20
1.792137
 30
0.0
 11
80.717049
 21
1.800393
 31
0.0
  0
LINE
  5
82D
330
1F
100
AcDbEntity
  8
1
  6
CONTINUOUS
370
50
 62
4
100
AcDbLine
 10
88.18047299999999
 20
1.792004
 30
0.0
 11
87.960762
 21
1.800238
 31
0.0
  0
LINE
  5
82E
330
1F
100
AcDbEntity
  8
1
  6
CONTINUOUS
370
50
 62
4
100
AcDbLine
 10
66.44989799999999
 20
1.792411
 30
0.0
 11
66.228409
 21
1.800701
 31
0.0
  0
LINE
  5
82F
330
1F
100
AcDbEntity
  8
1
  6
CONTINUOUS
370
50
 62
4
100
AcDbLine
 10
97.996155
 20
-1.800025
 30
0.0
 11
97.777214
 21
-1.79186
 31
0.0
  0
LINE
  5
830
330
1F
100
AcDbEntity
  8
1
  6
CONTINUOUS
370
50
 62
4
100
AcDbLine
 10
73.691986
 20
1.792387
 30
0.0
 11
73.473022
 21
1.800547
 31
0.0
  0
LINE
  5
831
330
1F
100
AcDbEntity
  8
1
  6
CONTINUOUS
370
50
 62
4
100
AcDbLine
 10
90.752335
 20
-1.800179
 30
0.0
 11
90.533577
 21
-1.792028
 31
0.0
  0
LINE
  5
832
330
1F
100
AcDbEntity
  8
1
  6
CONTINUOUS
370
50
 62
4
100
AcDbLine
 10
83.72672299999999
 20
1.792211
 30
0.0
 11
83.508583
 21
1.800333
 31
0.0
  0
LINE
  5
833
330
1F
100
AcDbEntity
  8
1
  6
CONTINUOUS
370
50
 62
4
100
AcDbLine
 10
90.971176
 20
1.792034
 30
0.0
 11
90.752335
 21
1.800179
 31
0.0
  0
LINE
  5
834
330
1F
100
AcDbEntity
  8
1
  6
CONTINUOUS
370
50
 62
4
100
AcDbLine
 10
83.508583
 20
-1.800333
 30
0.0
 11
83.289474
 21
-1.792185
 31
0.0
  0
LINE
  5
835
330
1F
100
AcDbEntity
  8
1
  6
CONTINUOUS
370
50
 62
4
100
AcDbLine
 10
76.482681
 20
1.792382
 30
0.0
 11
76.264687
 21
1.800488
 31
0.0
  0
LINE
  5
836
330
1F
100
AcDbEntity
  8
1
  6
CONTINUOUS
370
50
 62
4
100
AcDbLine
 10
95.20444499999999
 20
-1.800084
 30
0.0
 11
94.986542
 21
-1.791982
 31
0.0
  0
LINE
  5
837
330
1F
100
AcDbEntity
  8
1
  6
CONTINUOUS
370
50
 62
4
100
AcDbLine
 10
69.23885299999999
 20
1.79254
 30
0.0
 11
69.02047
 21
1.800642
 31
0.0
  0
LINE
  5
838
330
1F
100
AcDbEntity
  8
1
  6
CONTINUOUS
370
50
 62
4
100
AcDbLine
 10
76.264687
 20
-1.800488
 30
0.0
 11
76.044769
 21
-1.792333
 31
0.0
  0
LINE
  5
839
330
1F
100
AcDbEntity
  8
1
  6
CONTINUOUS
370
50
 62
4
100
AcDbLine
 10
61.775761
 20
-1.800796
 30
0.0
 11
61.554844
 21
-1.792615
 31
0.0
  0
LINE
  5
83A
330
1F
100
AcDbEntity
  8
1
  6
CONTINUOUS
370
50
 62
4
100
AcDbLine
 10
80.717049
 20
-1.800393
 30
0.0
 11
80.4981
 21
-1.792293
 31
0.0
  0
LINE
  5
83B
330
1F
100
AcDbEntity
  8
1
  6
CONTINUOUS
370
50
 62
4
100
AcDbLine
 10
69.02047
 20
-1.800642
 30
0.0
 11
68.799774
 21
-1.792479
 31
0.0
  0
LINE
  5
83C
330
1F
100
AcDbEntity
  8
1
  6
CONTINUOUS
370
50
 62
4
100
AcDbLine
 10
61.994995
 20
1.79269
 30
0.0
 11
61.775761
 21
1.800796
 31
0.0
  0
LINE
  5
83D
330
1F
100
AcDbEntity
  8
1
  6
CONTINUOUS
370
50
 62
4
100
AcDbLine
 10
59.204109
 20
1.792693
 30
0.0
 11
58.983242
 21
1.800856
 31
0.0
  0
LINE
  5
83E
330
1F
100
AcDbEntity
  8
1
  6
CONTINUOUS
370
50
 62
4
100
AcDbLine
 10
87.960762
 20
-1.800238
 30
0.0
 11
87.74395799999999
 21
-1.792238
 31
0.0
  0
LINE
  5
83F
330
1F
100
AcDbEntity
  8
1
  6
CONTINUOUS
370
50
 62
4
100
AcDbLine
 10
54.750702
 20
1.792846
 30
0.0
 11
54.530674
 21
1.80095
 31
0.0
  0
LINE
  5
840
330
1F
100
AcDbEntity
  8
1
  6
CONTINUOUS
370
50
 62
4
100
AcDbLine
 10
66.228409
 20
-1.800701
 30
0.0
 11
66.008759
 21
-1.79264
 31
0.0
  0
LINE
  5
841
330
1F
100
AcDbEntity
  8
1
  6
CONTINUOUS
370
50
 62
4
100
AcDbLine
 10
73.473022
 20
-1.800547
 30
0.0
 11
73.25518799999999
 21
-1.792607
 31
0.0
  0
LINE
  5
842
330
1F
100
AcDbEntity
  8
1
  6
CONTINUOUS
370
50
 62
4
100
AcDbLine
 10
54.530674
 20
-1.80095
 30
0.0
 11
54.318729
 21
-1.793356
 31
0.0
  0
LINE
  5
843
330
1F
100
AcDbEntity
  8
1
  6
CONTINUOUS
370
50
 62
4
100
AcDbLine
 10
95.411446
 20
1.792806
 30
0.0
 11
95.20444499999999
 21
1.800084
 31
0.0
  0
LINE
  5
844
330
1F
100
AcDbEntity
  8
1
  6
CONTINUOUS
370
50
 62
4
100
AcDbLine
 10
58.983242
 20
-1.800856
 30
0.0
 11
58.77733199999999
 21
-1.793709
 31
0.0
  0
LINE
  5
845
330
1F
100
AcDbEntity
  8
1
  6
CONTINUOUS
370
50
 62
4
100
AcDbLine
 10
45.373714
 20
1.797892
 30
0.0
 11
45.312344
 21
1.800005
 31
0.0
  0
LINE
  5
846
330
1F
100
AcDbEntity
  8
1
  6
CONTINUOUS
370
50
 62
4
100
AcDbLine
 10
51.880745
 20
1.796633
 30
0.0
 11
51.801182
 21
1.799351
 31
0.0
  0
LINE
  5
847
330
1F
100
AcDbEntity
  8
1
  6
CONTINUOUS
370
50
 62
4
100
AcDbLine
 10
45.312344
 20
-1.800005
 30
0.0
 11
45.25553499999999
 21
-1.798319
 31
0.0
  0
LINE
  5
848
330
1F
100
AcDbEntity
  8
1
  6
CONTINUOUS
370
50
 62
4
100
AcDbLine
 10
98.162407
 20
1.795346
 30
0.0
 11
97.996155
 21
1.800025
 31
0.0
  0
LINE
  5
849
330
1F
100
AcDbEntity
  8
1
  6
CONTINUOUS
370
50
 62
4
100
AcDbLine
 10
45.560768
 20
-1.45067
 30
0.0
 11
45.494694
 21
-1.449732
 31
0.0
  0
LINE
  5
84A
330
1F
100
AcDbEntity
  8
1
  6
CONTINUOUS
370
50
 62
4
100
AcDbLine
 10
51.801182
 20
1.799351
 30
0.0
 11
51.72204199999999
 21
1.799952
 31
0.0
  0
LINE
  5
84B
330
1F
100
AcDbEntity
  8
1
  6
CONTINUOUS
370
50
 62
4
100
AcDbLine
 10
99.252602
 20
-0.267573
 30
0.0
 11
99.230667
 21
-0.267543
 31
0.0
  0
LINE
  5
84C
330
1F
100
AcDbEntity
  8
1
  6
CONTINUOUS
370
50
 62
4
100
AcDbLine
 10
95.20444499999999
 20
1.800084
 30
0.0
 11
90.752335
 21
1.800179
 31
0.0
  0
LINE
  5
84D
330
1F
100
AcDbEntity
  8
1
  6
CONTINUOUS
370
50
 62
4
100
AcDbLine
 10
66.228409
 20
1.800701
 30
0.0
 11
61.775761
 21
1.800796
 31
0.0
  0
LINE
  5
84E
330
1F
100
AcDbEntity
  8
1
  6
CONTINUOUS
370
50
 62
4
100
AcDbLine
 10
80.717049
 20
1.800393
 30
0.0
 11
76.264687
 21
1.800488
 31
0.0
  0
LINE
  5
84F
330
1F
100
AcDbEntity
  8
1
  6
CONTINUOUS
370
50
 62
4
100
AcDbLine
 10
58.983242
 20
1.800856
 30
0.0
 11
54.530674
 21
1.80095
 31
0.0
  0
LINE
  5
850
330
1F
100
AcDbEntity
  8
1
  6
CONTINUOUS
370
50
 62
4
100
AcDbLine
 10
73.473022
 20
1.800547
 30
0.0
 11
69.02047
 21
1.800642
 31
0.0
  0
LINE
  5
851
330
1F
100
AcDbEntity
  8
1
  6
CONTINUOUS
370
50
 62
4
100
AcDbLine
 10
87.960762
 20
1.800238
 30
0.0
 11
83.508583
 21
1.800333
 31
0.0
  0
LINE
  5
852
330
1F
100
AcDbEntity
  8
1
  6
CONTINUOUS
370
50
 62
4
100
AcDbLine
 10
99.14417999999999
 20
1.8
 30
0.0
 11
97.996155
 21
1.800025
 31
0.0
  0
LINE
  5
853
330
1F
100
AcDbEntity
  8
1
  6
CONTINUOUS
370
50
 62
4
100
AcDbLine
 10
47.284336
 20
-1.8
 30
0.0
 11
51.739174
 21
-1.8
 31
0.0
  0
LINE
  5
854
330
1F
100
AcDbEntity
  8
1
  6
CONTINUOUS
370
50
 62
4
100
AcDbLine
 10
35.0
 20
-1.8
 30
0.0
 11
45.309925
 21
-1.8
 31
0.0
  0
LINE
  5
855
330
1F
100
AcDbEntity
  8
1
  6
CONTINUOUS
370
50
 62
4
100
AcDbLine
 10
47.284336
 20
1.8
 30
0.0
 11
51.739166
 21
1.8
 31
0.0
  0
LINE
  5
856
330
1F
100
AcDbEntity
  8
1
  6
CONTINUOUS
370
50
 62
4
100
AcDbLine
 10
35.0
 20
1.8
 30
0.0
 11
45.309925
 21
1.8
 31
0.0
  0
LINE
  5
857
330
1F
100
AcDbEntity
  8
1
  6
CONTINUOUS
370
50
 62
4
100
AcDbLine
 10
97.996155
 20
-1.800025
 30
0.0
 11
99.14417999999999
 21
-1.8
 31
0.0
  0
LINE
  5
858
330
1F
100
AcDbEntity
  8
1
  6
CONTINUOUS
370
50
 62
4
100
AcDbLine
 10
54.530674
 20
-1.80095
 30
0.0
 11
58.983242
 21
-1.800856
 31
0.0
  0
LINE
  5
859
330
1F
100
AcDbEntity
  8
1
  6
CONTINUOUS
370
50
 62
4
100
AcDbLine
 10
69.02047
 20
-1.800642
 30
0.0
 11
73.473022
 21
-1.800547
 31
0.0
  0
LINE
  5
85A
330
1F
100
AcDbEntity
  8
1
  6
CONTINUOUS
370
50
 62
4
100
AcDbLine
 10
83.508583
 20
-1.800333
 30
0.0
 11
87.960762
 21
-1.800238
 31
0.0
  0
LINE
  5
85B
330
1F
100
AcDbEntity
  8
1
  6
CONTINUOUS
370
50
 62
4
100
AcDbLine
 10
61.775761
 20
-1.800796
 30
0.0
 11
66.228409
 21
-1.800701
 31
0.0
  0
LINE
  5
85C
330
1F
100
AcDbEntity
  8
1
  6
CONTINUOUS
370
50
 62
4
100
AcDbLine
 10
76.264687
 20
-1.800488
 30
0.0
 11
80.717049
 21
-1.800393
 31
0.0
  0
LINE
  5
85D
330
1F
100
AcDbEntity
  8
1
  6
CONTINUOUS
370
50
 62
4
100
AcDbLine
 10
90.752335
 20
-1.800179
 30
0.0
 11
95.20444499999999
 21
-1.800084
 31
0.0
  0
LINE
  5
85E
330
1F
100
AcDbEntity
  8
1
  6
CONTINUOUS
370
50
 62
4
100
AcDbLine
 10
47.155483
 20
1.797195
 30
0.0
 11
47.398857
 21
1.797778
 31
0.0
  0
LINE
  5
85F
330
1F
100
AcDbEntity
  8
1
  6
CONTINUOUS
370
50
 62
4
100
AcDbLine
 10
51.721714
 20
-1.79995
 30
0.0
 11
51.800911
 21
-1.799356
 31
0.0
  0
LINE
  5
860
330
1F
100
AcDbEntity
  8
1
  6
CONTINUOUS
370
50
 62
4
100
AcDbLine
 10
99.86550899999999
 20
0.048665
 30
0.0
 11
99.87005599999999
 21
0.048735
 31
0.0
  0
LINE
  5
861
330
1F
100
AcDbEntity
  8
1
  6
CONTINUOUS
370
50
 62
4
100
AcDbLine
 10
45.431953
 20
-1.451804
 30
0.0
 11
45.494694
 21
-1.449732
 31
0.0
  0
LINE
  5
862
330
1F
100
AcDbEntity
  8
1
  6
CONTINUOUS
370
50
 62
4
100
AcDbLine
 10
51.800911
 20
-1.799356
 30
0.0
 11
51.880527
 21
-1.796644
 31
0.0
  0
LINE
  5
863
330
1F
100
AcDbEntity
  8
1
  6
CONTINUOUS
370
50
 62
4
100
AcDbLine
 10
45.312344
 20
-1.800005
 30
0.0
 11
45.377151
 21
-1.797664
 31
0.0
  0
LINE
  5
864
330
1F
100
AcDbEntity
  8
1
  6
CONTINUOUS
370
50
 62
4
100
AcDbLine
 10
58.983242
 20
-1.800856
 30
0.0
 11
59.216396
 21
-1.791756
 31
0.0
  0
LINE
  5
865
330
1F
100
AcDbEntity
  8
1
  6
CONTINUOUS
370
50
 62
4
100
AcDbLine
 10
68.78736099999999
 20
1.791536
 30
0.0
 11
69.02047
 21
1.800642
 31
0.0
  0
LINE
  5
866
330
1F
100
AcDbEntity
  8
1
  6
CONTINUOUS
370
50
 62
4
100
AcDbLine
 10
61.542492
 20
1.791672
 30
0.0
 11
61.775761
 21
1.800796
 31
0.0
  0
LINE
  5
867
330
1F
100
AcDbEntity
  8
1
  6
CONTINUOUS
370
50
 62
4
100
AcDbLine
 10
76.032326
 20
1.791389
 30
0.0
 11
76.264687
 21
1.800488
 31
0.0
  0
LINE
  5
868
330
1F
100
AcDbEntity
  8
1
  6
CONTINUOUS
370
50
 62
4
100
AcDbLine
 10
66.228409
 20
-1.800701
 30
0.0
 11
66.460579
 21
-1.791594
 31
0.0
  0
LINE
  5
869
330
1F
100
AcDbEntity
  8
1
  6
CONTINUOUS
370
50
 62
4
100
AcDbLine
 10
83.277023
 20
1.791236
 30
0.0
 11
83.508583
 21
1.800333
 31
0.0
  0
LINE
  5
86A
330
1F
100
AcDbEntity
  8
1
  6
CONTINUOUS
370
50
 62
4
100
AcDbLine
 10
95.20444499999999
 20
-1.800084
 30
0.0
 11
95.436287
 21
-1.790963
 31
0.0
  0
LINE
  5
86B
330
1F
100
AcDbEntity
  8
1
  6
CONTINUOUS
370
50
 62
4
100
AcDbLine
 10
54.29798899999999
 20
1.791792
 30
0.0
 11
54.530674
 21
1.80095
 31
0.0
  0
LINE
  5
86C
330
1F
100
AcDbEntity
  8
1
  6
CONTINUOUS
370
50
 62
4
100
AcDbLine
 10
87.960762
 20
-1.800238
 30
0.0
 11
88.191589
 21
-1.791151
 31
0.0
  0
LINE
  5
86D
330
1F
100
AcDbEntity
  8
1
  6
CONTINUOUS
370
50
 62
4
100
AcDbLine
 10
90.52117199999999
 20
1.791079
 30
0.0
 11
90.752335
 21
1.800179
 31
0.0
  0
LINE
  5
86E
330
1F
100
AcDbEntity
  8
1
  6
CONTINUOUS
370
50
 62
4
100
AcDbLine
 10
80.717049
 20
-1.800393
 30
0.0
 11
80.947769
 21
-1.791304
 31
0.0
  0
LINE
  5
86F
330
1F
100
AcDbEntity
  8
1
  6
CONTINUOUS
370
50
 62
4
100
AcDbLine
 10
97.764839
 20
1.790911
 30
0.0
 11
97.996155
 21
1.800025
 31
0.0
  0
LINE
  5
870
330
1F
100
AcDbEntity
  8
1
  6
CONTINUOUS
370
50
 62
4
100
AcDbLine
 10
73.473022
 20
-1.800547
 30
0.0
 11
73.70562
 21
-1.791332
 31
0.0
  0
LINE
  5
871
330
1F
100
AcDbEntity
  8
1
  6
CONTINUOUS
370
50
 62
4
100
AcDbLine
 10
47.067421
 20
1.791987
 30
0.0
 11
47.155483
 21
1.797195
 31
0.0
  0
LINE
  5
872
330
1F
100
AcDbEntity
  8
1
  6
CONTINUOUS
370
50
 62
4
100
AcDbLine
 10
51.880527
 20
-1.796644
 30
0.0
 11
51.960331
 21
-1.791814
 31
0.0
  0
LINE
  5
873
330
1F
100
AcDbEntity
  8
1
  6
CONTINUOUS
370
50
 62
4
100
AcDbLine
 10
45.37273
 20
-1.456691
 30
0.0
 11
45.431953
 21
-1.451804
 31
0.0
  0
LINE
  5
874
330
1F
100
AcDbEntity
  8
1
  6
CONTINUOUS
370
50
 62
4
100
AcDbLine
 10
51.960331
 20
-1.791814
 30
0.0
 11
52.040073
 21
-1.784853
 31
0.0
  0
LINE
  5
875
330
1F
100
AcDbEntity
  8
1
  6
CONTINUOUS
370
50
 62
4
100
AcDbLine
 10
46.97958
 20
1.784112
 30
0.0
 11
47.067421
 21
1.791987
 31
0.0
  0
LINE
  5
876
330
1F
100
AcDbEntity
  8
1
  6
CONTINUOUS
370
50
 62
4
100
AcDbLine
 10
45.377151
 20
-1.797664
 30
0.0
 11
45.445374
 21
-1.790894
 31
0.0
  0
LINE
  5
877
330
1F
100
AcDbEntity
  8
1
  6
CONTINUOUS
370
50
 62
4
100
AcDbLine
 10
52.040073
 20
-1.784853
 30
0.0
 11
52.119644
 21
-1.775759
 31
0.0
  0
LINE
  5
878
330
1F
100
AcDbEntity
  8
1
  6
CONTINUOUS
370
50
 62
4
100
AcDbLine
 10
99.252602
 20
-0.267573
 30
0.0
 11
99.274658
 21
-0.265002
 31
0.0
  0
LINE
  5
879
330
1F
100
AcDbEntity
  8
1
  6
CONTINUOUS
370
50
 62
4
100
AcDbLine
 10
95.436287
 20
-1.790963
 30
0.0
 11
95.6698
 21
-1.76372
 31
0.0
  0
LINE
  5
87A
330
1F
100
AcDbEntity
  8
1
  6
CONTINUOUS
370
50
 62
4
100
AcDbLine
 10
83.04364799999999
 20
1.763969
 30
0.0
 11
83.277023
 21
1.791236
 31
0.0
  0
LINE
  5
87B
330
1F
100
AcDbEntity
  8
1
  6
CONTINUOUS
370
50
 62
4
100
AcDbLine
 10
75.798805
 20
1.764093
 30
0.0
 11
76.032326
 21
1.791389
 31
0.0
  0
LINE
  5
87C
330
1F
100
AcDbEntity
  8
1
  6
CONTINUOUS
370
50
 62
4
100
AcDbLine
 10
88.191589
 20
-1.791151
 30
0.0
 11
88.424583
 21
-1.763894
 31
0.0
  0
LINE
  5
87D
330
1F
100
AcDbEntity
  8
1
  6
CONTINUOUS
370
50
 62
4
100
AcDbLine
 10
90.288589
 20
1.763826
 30
0.0
 11
90.52117199999999
 21
1.791079
 31
0.0
  0
LINE
  5
87E
330
1F
100
AcDbEntity
  8
1
  6
CONTINUOUS
370
50
 62
4
100
AcDbLine
 10
68.554367
 20
1.764186
 30
0.0
 11
68.78736099999999
 21
1.791536
 31
0.0
  0
LINE
  5
87F
330
1F
100
AcDbEntity
  8
1
  6
CONTINUOUS
370
50
 62
4
100
AcDbLine
 10
80.947769
 20
-1.791304
 30
0.0
 11
81.17971
 21
-1.764045
 31
0.0
  0
LINE
  5
880
330
1F
100
AcDbEntity
  8
1
  6
CONTINUOUS
370
50
 62
4
100
AcDbLine
 10
97.53315699999999
 20
1.763659
 30
0.0
 11
97.764839
 21
1.790911
 31
0.0
  0
LINE
  5
881
330
1F
100
AcDbEntity
  8
1
  6
CONTINUOUS
370
50
 62
4
100
AcDbLine
 10
59.216396
 20
-1.791756
 30
0.0
 11
59.447754
 21
-1.76453
 31
0.0
  0
LINE
  5
882
330
1F
100
AcDbEntity
  8
1
  6
CONTINUOUS
370
50
 62
4
100
AcDbLine
 10
61.31038299999999
 20
1.764308
 30
0.0
 11
61.542492
 21
1.791672
 31
0.0
  0
LINE
  5
883
330
1F
100
AcDbEntity
  8
1
  6
CONTINUOUS
370
50
 62
4
100
AcDbLine
 10
66.460579
 20
-1.791594
 30
0.0
 11
66.691422
 21
-1.764378
 31
0.0
  0
LINE
  5
884
330
1F
100
AcDbEntity
  8
1
  6
CONTINUOUS
370
50
 62
4
100
AcDbLine
 10
54.066547
 20
1.764452
 30
0.0
 11
54.29798899999999
 21
1.791792
 31
0.0
  0
LINE
  5
885
330
1F
100
AcDbEntity
  8
1
  6
CONTINUOUS
370
50
 62
4
100
AcDbLine
 10
73.70562
 20
-1.791332
 30
0.0
 11
73.93763
 21
-1.763857
 31
0.0
  0
LINE
  5
886
330
1F
100
AcDbEntity
  8
1
  6
CONTINUOUS
370
50
 62
4
100
AcDbLine
 10
46.891827
 20
1.773576
 30
0.0
 11
46.97958
 21
1.784112
 31
0.0
  0
LINE
  5
887
330
1F
100
AcDbEntity
  8
1
  6
CONTINUOUS
370
50
 62
4
100
AcDbLine
 10
45.317181
 20
-1.464202
 30
0.0
 11
45.37273
 21
-1.456691
 31
0.0
  0
LINE
  5
888
330
1F
100
AcDbEntity
  8
1
  6
CONTINUOUS
370
50
 62
4
100
AcDbLine
 10
52.119644
 20
-1.775759
 30
0.0
 11
52.199135
 21
-1.764528
 31
0.0
  0
LINE
  5
889
330
1F
100
AcDbEntity
  8
1
  6
CONTINUOUS
370
50
 62
4
100
AcDbLine
 10
46.804024
 20
1.760383
 30
0.0
 11
46.891827
 21
1.773576
 31
0.0
  0
LINE
  5
88A
330
1F
100
AcDbEntity
  8
1
  6
CONTINUOUS
370
50
 62
4
100
AcDbLine
 10
45.445374
 20
-1.790894
 30
0.0
 11
45.51511
 21
-1.779804
 31
0.0
  0
LINE
  5
88B
330
1F
100
AcDbEntity
  8
1
  6
CONTINUOUS
370
50
 62
4
100
AcDbLine
 10
46.716038
 20
1.744541
 30
0.0
 11
46.804024
 21
1.760383
 31
0.0
  0
LINE
  5
88C
330
1F
100
AcDbEntity
  8
1
  6
CONTINUOUS
370
50
 62
4
100
AcDbLine
 10
52.200001
 20
-1.7653
 30
0.0
 11
52.35567899999999
 21
-1.73706
 31
0.0
  0
LINE
  5
88D
330
1F
100
AcDbEntity
  8
1
  6
CONTINUOUS
370
50
 62
4
100
AcDbLine
 10
45.26505299999999
 20
-1.474235
 30
0.0
 11
45.317181
 21
-1.464202
 31
0.0
  0
LINE
  5
88E
330
1F
100
AcDbEntity
  8
1
  6
CONTINUOUS
370
50
 62
4
100
AcDbLine
 10
81.17971
 20
-1.764045
 30
0.0
 11
81.413628
 21
-1.718849
 31
0.0
  0
LINE
  5
88F
330
1F
100
AcDbEntity
  8
1
  6
CONTINUOUS
370
50
 62
4
100
AcDbLine
 10
97.29963699999999
 20
1.718469
 30
0.0
 11
97.53315699999999
 21
1.763659
 31
0.0
  0
LINE
  5
890
330
1F
100
AcDbEntity
  8
1
  6
CONTINUOUS
370
50
 62
4
100
AcDbLine
 10
90.05484
 20
1.718583
 30
0.0
 11
90.288589
 21
1.763826
 31
0.0
  0
LINE
  5
891
330
1F
100
AcDbEntity
  8
1
  6
CONTINUOUS
370
50
 62
4
100
AcDbLine
 10
88.424583
 20
-1.763894
 30
0.0
 11
88.65825699999999
 21
-1.71866
 31
0.0
  0
LINE
  5
892
330
1F
100
AcDbEntity
  8
1
  6
CONTINUOUS
370
50
 62
4
100
AcDbLine
 10
82.810379
 20
1.718642
 30
0.0
 11
83.04364799999999
 21
1.763969
 31
0.0
  0
LINE
  5
893
330
1F
100
AcDbEntity
  8
1
  6
CONTINUOUS
370
50
 62
4
100
AcDbLine
 10
95.6698
 20
-1.76372
 30
0.0
 11
95.902191
 21
-1.718516
 31
0.0
  0
LINE
  5
894
330
1F
100
AcDbEntity
  8
1
  6
CONTINUOUS
370
50
 62
4
100
AcDbLine
 10
73.93763
 20
-1.763857
 30
0.0
 11
74.170616
 21
-1.718535
 31
0.0
  0
LINE
  5
895
330
1F
100
AcDbEntity
  8
1
  6
CONTINUOUS
370
50
 62
4
100
AcDbLine
 10
66.691422
 20
-1.764378
 30
0.0
 11
66.923492
 21
-1.719204
 31
0.0
  0
LINE
  5
896
330
1F
100
AcDbEntity
  8
1
  6
CONTINUOUS
370
50
 62
4
100
AcDbLine
 10
53.834564
 20
1.719251
 30
0.0
 11
54.066547
 21
1.764452
 31
0.0
  0
LINE
  5
897
330
1F
100
AcDbEntity
  8
1
  6
CONTINUOUS
370
50
 62
4
100
AcDbLine
 10
75.56645999999999
 20
1.718761
 30
0.0
 11
75.798805
 21
1.764093
 31
0.0
  0
LINE
  5
898
330
1F
100
AcDbEntity
  8
1
  6
CONTINUOUS
370
50
 62
4
100
AcDbLine
 10
59.447754
 20
-1.76453
 30
0.0
 11
59.67905
 21
-1.719394
 31
0.0
  0
LINE
  5
899
330
1F
100
AcDbEntity
  8
1
  6
CONTINUOUS
370
50
 62
4
100
AcDbLine
 10
61.07884199999999
 20
1.719085
 30
0.0
 11
61.31038299999999
 21
1.764308
 31
0.0
  0
LINE
  5
89A
330
1F
100
AcDbEntity
  8
1
  6
CONTINUOUS
370
50
 62
4
100
AcDbLine
 10
68.32270799999999
 20
1.718915
 30
0.0
 11
68.554367
 21
1.764186
 31
0.0
  0
LINE
  5
89B
330
1F
100
AcDbEntity
  8
1
  6
CONTINUOUS
370
50
 62
4
100
AcDbLine
 10
46.627731
 20
1.726052
 30
0.0
 11
46.716038
 21
1.744541
 31
0.0
  0
LINE
  5
89C
330
1F
100
AcDbEntity
  8
1
  6
CONTINUOUS
370
50
 62
4
100
AcDbLine
 10
45.51511
 20
-1.779804
 30
0.0
 11
45.585728
 21
-1.764529
 31
0.0
  0
LINE
  5
89D
330
1F
100
AcDbEntity
  8
1
  6
CONTINUOUS
370
50
 62
4
100
AcDbLine
 10
52.35567899999999
 20
-1.73706
 30
0.0
 11
52.511276
 21
-1.700863
 31
0.0
  0
LINE
  5
89E
330
1F
100
AcDbEntity
  8
1
  6
CONTINUOUS
370
50
 62
4
100
AcDbLine
 10
99.274658
 20
-0.265002
 30
0.0
 11
99.29680599999999
 21
-0.259745
 31
0.0
  0
LINE
  5
89F
330
1F
100
AcDbEntity
  8
1
  6
CONTINUOUS
370
50
 62
4
100
AcDbLine
 10
45.215256
 20
-1.487009
 30
0.0
 11
45.26505299999999
 21
-1.474235
 31
0.0
  0
LINE
  5
8A0
330
1F
100
AcDbEntity
  8
1
  6
CONTINUOUS
370
50
 62
4
100
AcDbLine
 10
99.447701
 20
-0.141915
 30
0.0
 11
99.88325499999999
 21
-0.029998
 31
0.0
  0
LINE
  5
8A1
330
1F
100
AcDbEntity
  8
1
  6
CONTINUOUS
370
50
 62
4
100
AcDbLine
 10
99.14417999999999
 20
-1.8
 30
0.0
 11
99.144463
 21
-1.799927
 31
0.0
  0
LINE
  5
8A2
330
1F
100
AcDbEntity
  8
1
  6
CONTINUOUS
370
50
 62
4
100
AcDbLine
 10
98.768875
 20
0.919743
 30
0.0
 11
98.79937699999999
 21
0.927878
 31
0.0
  0
LINE
  5
8A3
330
1F
100
AcDbEntity
  8
1
  6
CONTINUOUS
370
50
 62
4
100
AcDbLine
 10
66.923492
 20
-1.719204
 30
0.0
 11
67.157547
 21
-1.656511
 31
0.0
  0
LINE
  5
8A4
330
1F
100
AcDbEntity
  8
1
  6
CONTINUOUS
370
50
 62
4
100
AcDbLine
 10
53.600822
 20
1.656529
 30
0.0
 11
53.834564
 21
1.719251
 31
0.0
  0
LINE
  5
8A5
330
1F
100
AcDbEntity
  8
1
  6
CONTINUOUS
370
50
 62
4
100
AcDbLine
 10
59.67905
 20
-1.719394
 30
0.0
 11
59.912518
 21
-1.656664
 31
0.0
  0
LINE
  5
8A6
330
1F
100
AcDbEntity
  8
1
  6
CONTINUOUS
370
50
 62
4
100
AcDbLine
 10
74.170616
 20
-1.718535
 30
0.0
 11
74.403931
 21
-1.655787
 31
0.0
  0
LINE
  5
8A7
330
1F
100
AcDbEntity
  8
1
  6
CONTINUOUS
370
50
 62
4
100
AcDbLine
 10
60.845776
 20
1.656403
 30
0.0
 11
61.07884199999999
 21
1.719085
 31
0.0
  0
LINE
  5
8A8
330
1F
100
AcDbEntity
  8
1
  6
CONTINUOUS
370
50
 62
4
100
AcDbLine
 10
97.066223
 20
1.655606
 30
0.0
 11
97.29963699999999
 21
1.718469
 31
0.0
  0
LINE
  5
8A9
330
1F
100
AcDbEntity
  8
1
  6
CONTINUOUS
370
50
 62
4
100
AcDbLine
 10
81.413628
 20
-1.718849
 30
0.0
 11
81.646774
 21
-1.655959
 31
0.0
  0
LINE
  5
8AA
330
1F
100
AcDbEntity
  8
1
  6
CONTINUOUS
370
50
 62
4
100
AcDbLine
 10
68.090515
 20
1.656231
 30
0.0
 11
68.32270799999999
 21
1.718915
 31
0.0
  0
LINE
  5
8AB
330
1F
100
AcDbEntity
  8
1
  6
CONTINUOUS
370
50
 62
4
100
AcDbLine
 10
89.82225799999999
 20
1.655695
 30
0.0
 11
90.05484
 21
1.718583
 31
0.0
  0
LINE
  5
8AC
330
1F
100
AcDbEntity
  8
1
  6
CONTINUOUS
370
50
 62
4
100
AcDbLine
 10
88.65825699999999
 20
-1.71866
 30
0.0
 11
88.890411
 21
-1.655832
 31
0.0
  0
LINE
  5
8AD
330
1F
100
AcDbEntity
  8
1
  6
CONTINUOUS
370
50
 62
4
100
AcDbLine
 10
75.334679
 20
1.656034
 30
0.0
 11
75.56645999999999
 21
1.718761
 31
0.0
  0
LINE
  5
8AE
330
1F
100
AcDbEntity
  8
1
  6
CONTINUOUS
370
50
 62
4
100
AcDbLine
 10
95.902191
 20
-1.718516
 30
0.0
 11
96.133675
 21
-1.655838
 31
0.0
  0
LINE
  5
8AF
330
1F
100
AcDbEntity
  8
1
  6
CONTINUOUS
370
50
 62
4
100
AcDbLine
 10
82.578445
 20
1.655828
 30
0.0
 11
82.810379
 21
1.718642
 31
0.0
  0
LINE
  5
8B0
330
1F
100
AcDbEntity
  8
1
  6
CONTINUOUS
370
50
 62
4
100
AcDbLine
 10
45.585728
 20
-1.764529
 30
0.0
 11
45.656811
 21
-1.745163
 31
0.0
  0
LINE
  5
8B1
330
1F
100
AcDbEntity
  8
1
  6
CONTINUOUS
370
50
 62
4
100
AcDbLine
 10
52.511276
 20
-1.700863
 30
0.0
 11
52.667526
 21
-1.656878
 31
0.0
  0
LINE
  5
8B2
330
1F
100
AcDbEntity
  8
1
  6
CONTINUOUS
370
50
 62
4
100
AcDbLine
 10
98.79937699999999
 20
0.927878
 30
0.0
 11
98.829231
 21
0.936572
 31
0.0
  0
LINE
  5
8B3
330
1F
100
AcDbEntity
  8
1
  6
CONTINUOUS
370
50
 62
4
100
AcDbLine
 10
46.088634
 20
1.543363
 30
0.0
 11
46.171932
 21
1.567712
 31
0.0
  0
LINE
  5
8B4
330
1F
100
AcDbEntity
  8
1
  6
CONTINUOUS
370
50
 62
4
100
AcDbLine
 10
46.556019
 20
1.689618
 30
0.0
 11
46.627731
 21
1.711171
 31
0.0
  0
LINE
  5
8B5
330
1F
100
AcDbEntity
  8
1
  6
CONTINUOUS
370
50
 62
4
100
AcDbLine
 10
46.171932
 20
1.567712
 30
0.0
 11
46.252907
 21
1.592738
 31
0.0
  0
LINE
  5
8B6
330
1F
100
AcDbEntity
  8
1
  6
CONTINUOUS
370
50
 62
4
100
AcDbLine
 10
46.48291
 20
1.666634
 30
0.0
 11
46.556019
 21
1.689618
 31
0.0
  0
LINE
  5
8B7
330
1F
100
AcDbEntity
  8
1
  6
CONTINUOUS
370
50
 62
4
100
AcDbLine
 10
98.829231
 20
0.936572
 30
0.0
 11
98.858398
 21
0.945827
 31
0.0
  0
LINE
  5
8B8
330
1F
100
AcDbEntity
  8
1
  6
CONTINUOUS
370
50
 62
4
100
AcDbLine
 10
46.252907
 20
1.592738
 30
0.0
 11
46.331589
 21
1.617831
 31
0.0
  0
LINE
  5
8B9
330
1F
100
AcDbEntity
  8
1
  6
CONTINUOUS
370
50
 62
4
100
AcDbLine
 10
46.40817999999999
 20
1.642584
 30
0.0
 11
46.48291
 21
1.666634
 31
0.0
  0
LINE
  5
8BA
330
1F
100
AcDbEntity
  8
1
  6
CONTINUOUS
370
50
 62
4
100
AcDbLine
 10
46.331589
 20
1.617831
 30
0.0
 11
46.40817999999999
 21
1.642584
 31
0.0
  0
LINE
  5
8BB
330
1F
100
AcDbEntity
  8
1
  6
CONTINUOUS
370
50
 62
4
100
AcDbLine
 10
45.656811
 20
-1.745163
 30
0.0
 11
45.728268
 21
-1.721732
 31
0.0
  0
LINE
  5
8BC
330
1F
100
AcDbEntity
  8
1
  6
CONTINUOUS
370
50
 62
4
100
AcDbLine
 10
52.667526
 20
-1.656878
 30
0.0
 11
52.824257
 21
-1.605439
 31
0.0
  0
LINE
  5
8BD
330
1F
100
AcDbEntity
  8
1
  6
CONTINUOUS
370
50
 62
4
100
AcDbLine
 10
45.168392
 20
-1.502522
 30
0.0
 11
45.215256
 21
-1.487009
 31
0.0
  0
LINE
  5
8BE
330
1F
100
AcDbEntity
  8
1
  6
CONTINUOUS
370
50
 62
4
100
AcDbLine
 10
67.85656
 20
1.576611
 30
0.0
 11
68.090515
 21
1.656231
 31
0.0
  0
LINE
  5
8BF
330
1F
100
AcDbEntity
  8
1
  6
CONTINUOUS
370
50
 62
4
100
AcDbLine
 10
59.912518
 20
-1.656664
 30
0.0
 11
60.14659899999999
 21
-1.576949
 31
0.0
  0
LINE
  5
8C0
330
1F
100
AcDbEntity
  8
1
  6
CONTINUOUS
370
50
 62
4
100
AcDbLine
 10
60.611931
 20
1.576661
 30
0.0
 11
60.845776
 21
1.656403
 31
0.0
  0
LINE
  5
8C1
330
1F
100
AcDbEntity
  8
1
  6
CONTINUOUS
370
50
 62
4
100
AcDbLine
 10
75.101379
 20
1.576446
 30
0.0
 11
75.334679
 21
1.656034
 31
0.0
  0
LINE
  5
8C2
330
1F
100
AcDbEntity
  8
1
  6
CONTINUOUS
370
50
 62
4
100
AcDbLine
 10
96.133675
 20
-1.655838
 30
0.0
 11
96.36679799999999
 21
-1.576105
 31
0.0
  0
LINE
  5
8C3
330
1F
100
AcDbEntity
  8
1
  6
CONTINUOUS
370
50
 62
4
100
AcDbLine
 10
67.157547
 20
-1.656511
 30
0.0
 11
67.39083099999999
 21
-1.576686
 31
0.0
  0
LINE
  5
8C4
330
1F
100
AcDbEntity
  8
1
  6
CONTINUOUS
370
50
 62
4
100
AcDbLine
 10
82.345978
 20
1.576217
 30
0.0
 11
82.578445
 21
1.655828
 31
0.0
  0
LINE
  5
8C5
330
1F
100
AcDbEntity
  8
1
  6
CONTINUOUS
370
50
 62
4
100
AcDbLine
 10
53.367798
 20
1.576716
 30
0.0
 11
53.600822
 21
1.656529
 31
0.0
  0
LINE
  5
8C6
330
1F
100
AcDbEntity
  8
1
  6
CONTINUOUS
370
50
 62
4
100
AcDbLine
 10
88.890411
 20
-1.655832
 30
0.0
 11
89.122841
 21
-1.576047
 31
0.0
  0
LINE
  5
8C7
330
1F
100
AcDbEntity
  8
1
  6
CONTINUOUS
370
50
 62
4
100
AcDbLine
 10
89.590256
 20
1.576052
 30
0.0
 11
89.82225799999999
 21
1.655695
 31
0.0
  0
LINE
  5
8C8
330
1F
100
AcDbEntity
  8
1
  6
CONTINUOUS
370
50
 62
4
100
AcDbLine
 10
96.83415199999999
 20
1.575893
 30
0.0
 11
97.066223
 21
1.655606
 31
0.0
  0
LINE
  5
8C9
330
1F
100
AcDbEntity
  8
1
  6
CONTINUOUS
370
50
 62
4
100
AcDbLine
 10
74.403931
 20
-1.655787
 30
0.0
 11
74.635384
 21
-1.576243
 31
0.0
  0
LINE
  5
8CA
330
1F
100
AcDbEntity
  8
1
  6
CONTINUOUS
370
50
 62
4
100
AcDbLine
 10
81.646774
 20
-1.655959
 30
0.0
 11
81.879166
 21
-1.576071
 31
0.0
  0
LINE
  5
8CB
330
1F
100
AcDbEntity
  8
1
  6
CONTINUOUS
370
50
 62
4
100
AcDbLine
 10
98.858398
 20
0.945827
 30
0.0
 11
98.886833
 21
0.9556629999999999
 31
0.0
  0
LINE
  5
8CC
330
1F
100
AcDbEntity
  8
1
  6
CONTINUOUS
370
50
 62
4
100
AcDbLine
 10
99.29680599999999
 20
-0.259745
 30
0.0
 11
99.319008
 21
-0.251719
 31
0.0
  0
LINE
  5
8CD
330
1F
100
AcDbEntity
  8
1
  6
CONTINUOUS
370
50
 62
4
100
AcDbLine
 10
52.824257
 20
-1.605439
 30
0.0
 11
52.98039199999999
 21
-1.546765
 31
0.0
  0
LINE
  5
8CE
330
1F
100
AcDbEntity
  8
1
  6
CONTINUOUS
370
50
 62
4
100
AcDbLine
 10
98.886833
 20
0.9556629999999999
 30
0.0
 11
98.91450499999999
 21
0.9661019999999999
 31
0.0
  0
LINE
  5
8CF
330
1F
100
AcDbEntity
  8
1
  6
CONTINUOUS
370
50
 62
4
100
AcDbLine
 10
45.728268
 20
-1.721732
 30
0.0
 11
45.79983499999999
 21
-1.694297
 31
0.0
  0
LINE
  5
8D0
330
1F
100
AcDbEntity
  8
1
  6
CONTINUOUS
370
50
 62
4
100
AcDbLine
 10
96.36679799999999
 20
-1.576105
 30
0.0
 11
96.60154
 21
-1.480191
 31
0.0
  0
LINE
  5
8D1
330
1F
100
AcDbEntity
  8
1
  6
CONTINUOUS
370
50
 62
4
100
AcDbLine
 10
82.11174799999999
 20
1.480422
 30
0.0
 11
82.345978
 21
1.576217
 31
0.0
  0
LINE
  5
8D2
330
1F
100
AcDbEntity
  8
1
  6
CONTINUOUS
370
50
 62
4
100
AcDbLine
 10
74.867302
 20
1.480533
 30
0.0
 11
75.101379
 21
1.576446
 31
0.0
  0
LINE
  5
8D3
330
1F
100
AcDbEntity
  8
1
  6
CONTINUOUS
370
50
 62
4
100
AcDbLine
 10
89.35672
 20
1.480325
 30
0.0
 11
89.590256
 21
1.576052
 31
0.0
  0
LINE
  5
8D4
330
1F
100
AcDbEntity
  8
1
  6
CONTINUOUS
370
50
 62
4
100
AcDbLine
 10
89.122841
 20
-1.576047
 30
0.0
 11
89.356529
 21
-1.48024
 31
0.0
  0
LINE
  5
8D5
330
1F
100
AcDbEntity
  8
1
  6
CONTINUOUS
370
50
 62
4
100
AcDbLine
 10
81.879166
 20
-1.576071
 30
0.0
 11
82.11172499999999
 21
-1.480413
 31
0.0
  0
LINE
  5
8D6
330
1F
100
AcDbEntity
  8
1
  6
CONTINUOUS
370
50
 62
4
100
AcDbLine
 10
96.60154
 20
1.480191
 30
0.0
 11
96.83415199999999
 21
1.575893
 31
0.0
  0
LINE
  5
8D7
330
1F
100
AcDbEntity
  8
1
  6
CONTINUOUS
370
50
 62
4
100
AcDbLine
 10
67.623344
 20
1.48064
 30
0.0
 11
67.85656
 21
1.576611
 31
0.0
  0
LINE
  5
8D8
330
1F
100
AcDbEntity
  8
1
  6
CONTINUOUS
370
50
 62
4
100
AcDbLine
 10
98.91450499999999
 20
0.9661019999999999
 30
0.0
 11
98.94135999999999
 21
0.9771639999999999
 31
0.0
  0
LINE
  5
8D9
330
1F
100
AcDbEntity
  8
1
  6
CONTINUOUS
370
50
 62
4
100
AcDbLine
 10
60.37960099999999
 20
1.480775
 30
0.0
 11
60.611931
 21
1.576661
 31
0.0
  0
LINE
  5
8DA
330
1F
100
AcDbEntity
  8
1
  6
CONTINUOUS
370
50
 62
4
100
AcDbLine
 10
74.635384
 20
-1.576243
 30
0.0
 11
74.867294
 21
-1.48053
 31
0.0
  0
LINE
  5
8DB
330
1F
100
AcDbEntity
  8
1
  6
CONTINUOUS
370
50
 62
4
100
AcDbLine
 10
60.14659899999999
 20
-1.576949
 30
0.0
 11
60.379608
 21
-1.480775
 31
0.0
  0
LINE
  5
8DC
330
1F
100
AcDbEntity
  8
1
  6
CONTINUOUS
370
50
 62
4
100
AcDbLine
 10
53.135853
 20
1.480935
 30
0.0
 11
53.367798
 21
1.576716
 31
0.0
  0
LINE
  5
8DD
330
1F
100
AcDbEntity
  8
1
  6
CONTINUOUS
370
50
 62
4
100
AcDbLine
 10
67.39083099999999
 20
-1.576686
 30
0.0
 11
67.62335999999999
 21
-1.480642
 31
0.0
  0
LINE
  5
8DE
330
1F
100
AcDbEntity
  8
1
  6
CONTINUOUS
370
50
 62
4
100
AcDbLine
 10
52.199421
 20
1.764649
 30
0.0
 11
52.199711
 21
1.764769
 31
0.0
  0
LINE
  5
8DF
330
1F
100
AcDbEntity
  8
1
  6
CONTINUOUS
370
50
 62
4
100
AcDbLine
 10
52.199856
 20
1.76483
 30
0.0
 11
52.200001
 21
1.76489
 31
0.0
  0
LINE
  5
8E0
330
1F
100
AcDbEntity
  8
1
  6
CONTINUOUS
370
50
 62
4
100
AcDbLine
 10
52.199135
 20
1.764528
 30
0.0
 11
52.19927999999999
 21
1.764589
 31
0.0
  0
LINE
  5
8E1
330
1F
100
AcDbEntity
  8
1
  6
CONTINUOUS
370
50
 62
4
100
AcDbLine
 10
52.199711
 20
1.764769
 30
0.0
 11
52.199856
 21
1.76483
 31
0.0
  0
LINE
  5
8E2
330
1F
100
AcDbEntity
  8
1
  6
CONTINUOUS
370
50
 62
4
100
AcDbLine
 10
45.125347
 20
-1.520679
 30
0.0
 11
45.168392
 21
-1.502522
 31
0.0
  0
LINE
  5
8E3
330
1F
100
AcDbEntity
  8
1
  6
CONTINUOUS
370
50
 62
4
100
AcDbLine
 10
52.98039199999999
 20
-1.546765
 30
0.0
 11
53.135853
 21
-1.480936
 31
0.0
  0
LINE
  5
8E4
330
1F
100
AcDbEntity
  8
1
  6
CONTINUOUS
370
50
 62
4
100
AcDbLine
 10
52.19927999999999
 20
1.764589
 30
0.0
 11
52.199421
 21
1.764649
 31
0.0
  0
LINE
  5
8E5
330
1F
100
AcDbEntity
  8
1
  6
CONTINUOUS
370
50
 62
4
100
AcDbLine
 10
45.79983499999999
 20
-1.694297
 30
0.0
 11
45.87141
 21
-1.662888
 31
0.0
  0
LINE
  5
8E6
330
1F
100
AcDbEntity
  8
1
  6
CONTINUOUS
370
50
 62
4
100
AcDbLine
 10
98.94135999999999
 20
0.9771639999999999
 30
0.0
 11
98.967354
 21
0.9888699999999999
 31
0.0
  0
LINE
  5
8E7
330
1F
100
AcDbEntity
  8
1
  6
CONTINUOUS
370
50
 62
4
100
AcDbLine
 10
99.319008
 20
-0.251719
 30
0.0
 11
99.341202
 21
-0.24085
 31
0.0
  0
LINE
  5
8E8
330
1F
100
AcDbEntity
  8
1
  6
CONTINUOUS
370
50
 62
4
100
AcDbLine
 10
98.967354
 20
0.9888699999999999
 30
0.0
 11
98.99254599999999
 21
1.00129
 31
0.0
  0
LINE
  5
8E9
330
1F
100
AcDbEntity
  8
1
  6
CONTINUOUS
370
50
 62
4
100
AcDbLine
 10
45.87141
 20
-1.662888
 30
0.0
 11
45.942905
 21
-1.627549
 31
0.0
  0
LINE
  5
8EA
330
1F
100
AcDbEntity
  8
1
  6
CONTINUOUS
370
50
 62
4
100
AcDbLine
 10
45.087456
 20
-1.541002
 30
0.0
 11
45.125347
 21
-1.520679
 31
0.0
  0
LINE
  5
8EB
330
1F
100
AcDbEntity
  8
1
  6
CONTINUOUS
370
50
 62
4
100
AcDbLine
 10
98.99254599999999
 20
1.00129
 30
0.0
 11
99.01711999999999
 21
1.014593
 31
0.0
  0
LINE
  5
8EC
330
1F
100
AcDbEntity
  8
1
  6
CONTINUOUS
370
50
 62
4
100
AcDbLine
 10
45.942905
 20
-1.627549
 30
0.0
 11
46.014202
 21
-1.588372
 31
0.0
  0
LINE
  5
8ED
330
1F
100
AcDbEntity
  8
1
  6
CONTINUOUS
370
50
 62
4
100
AcDbLine
 10
99.01711999999999
 20
1.014593
 30
0.0
 11
99.04098499999999
 21
1.028829
 31
0.0
  0
LINE
  5
8EE
330
1F
100
AcDbEntity
  8
1
  6
CONTINUOUS
370
50
 62
4
100
AcDbLine
 10
46.014202
 20
-1.588372
 30
0.0
 11
46.085331
 21
-1.545445
 31
0.0
  0
LINE
  5
8EF
330
1F
100
AcDbEntity
  8
1
  6
CONTINUOUS
370
50
 62
4
100
AcDbLine
 10
99.144463
 20
-1.799927
 30
0.0
 11
99.144745
 21
-1.799756
 31
0.0
  0
LINE
  5
8F0
330
1F
100
AcDbEntity
  8
1
  6
CONTINUOUS
370
50
 62
4
100
AcDbLine
 10
99.341202
 20
-0.24085
 30
0.0
 11
99.36325099999999
 21
-0.227087
 31
0.0
  0
LINE
  5
8F1
330
1F
100
AcDbEntity
  8
1
  6
CONTINUOUS
370
50
 62
4
100
AcDbLine
 10
99.04098499999999
 20
1.028829
 30
0.0
 11
99.064026
 21
1.044043
 31
0.0
  0
LINE
  5
8F2
330
1F
100
AcDbEntity
  8
1
  6
CONTINUOUS
370
50
 62
4
100
AcDbLine
 10
45.055096
 20
-1.563342
 30
0.0
 11
45.087456
 21
-1.541002
 31
0.0
  0
LINE
  5
8F3
330
1F
100
AcDbEntity
  8
1
  6
CONTINUOUS
370
50
 62
4
100
AcDbLine
 10
99.064026
 20
1.044043
 30
0.0
 11
99.086151
 21
1.060279
 31
0.0
  0
LINE
  5
8F4
330
1F
100
AcDbEntity
  8
1
  6
CONTINUOUS
370
50
 62
4
100
AcDbLine
 10
99.36325099999999
 20
-0.227087
 30
0.0
 11
99.38503999999999
 21
-0.21037
 31
0.0
  0
LINE
  5
8F5
330
1F
100
AcDbEntity
  8
1
  6
CONTINUOUS
370
50
 62
4
100
AcDbLine
 10
99.086151
 20
1.060279
 30
0.0
 11
99.107254
 21
1.077582
 31
0.0
  0
LINE
  5
8F6
330
1F
100
AcDbEntity
  8
1
  6
CONTINUOUS
370
50
 62
4
100
AcDbLine
 10
45.029606
 20
-1.586737
 30
0.0
 11
45.055096
 21
-1.563342
 31
0.0
  0
LINE
  5
8F7
330
1F
100
AcDbEntity
  8
1
  6
CONTINUOUS
370
50
 62
4
100
AcDbLine
 10
99.38503999999999
 20
-0.21037
 30
0.0
 11
99.406464
 21
-0.19064
 31
0.0
  0
LINE
  5
8F8
330
1F
100
AcDbEntity
  8
1
  6
CONTINUOUS
370
50
 62
4
100
AcDbLine
 10
99.107254
 20
1.077582
 30
0.0
 11
99.12722
 21
1.095995
 31
0.0
  0
LINE
  5
8F9
330
1F
100
AcDbEntity
  8
1
  6
CONTINUOUS
370
50
 62
4
100
AcDbLine
 10
99.144745
 20
-1.799756
 30
0.0
 11
99.145027
 21
-1.799467
 31
0.0
  0
LINE
  5
8FA
330
1F
100
AcDbEntity
  8
1
  6
CONTINUOUS
370
50
 62
4
100
AcDbLine
 10
99.12722
 20
1.095995
 30
0.0
 11
99.14604899999999
 21
1.115666
 31
0.0
  0
LINE
  5
8FB
330
1F
100
AcDbEntity
  8
1
  6
CONTINUOUS
370
50
 62
4
100
AcDbLine
 10
99.406464
 20
-0.19064
 30
0.0
 11
99.42738299999999
 21
-0.167837
 31
0.0
  0
LINE
  5
8FC
330
1F
100
AcDbEntity
  8
1
  6
CONTINUOUS
370
50
 62
4
100
AcDbLine
 10
99.14604899999999
 20
1.115666
 30
0.0
 11
99.16480299999999
 21
1.138201
 31
0.0
  0
LINE
  5
8FD
330
1F
100
AcDbEntity
  8
1
  6
CONTINUOUS
370
50
 62
4
100
AcDbLine
 10
99.42738299999999
 20
-0.167837
 30
0.0
 11
99.447701
 21
-0.141915
 31
0.0
  0
LINE
  5
8FE
330
1F
100
AcDbEntity
  8
1
  6
CONTINUOUS
370
50
 62
4
100
AcDbLine
 10
45.01144
 20
-1.610283
 30
0.0
 11
45.029606
 21
-1.586737
 31
0.0
  0
LINE
  5
8FF
330
1F
100
AcDbEntity
  8
1
  6
CONTINUOUS
370
50
 62
4
100
AcDbLine
 10
99.16480299999999
 20
1.138201
 30
0.0
 11
99.183205
 21
1.164342
 31
0.0
  0
LINE
  5
900
330
1F
100
AcDbEntity
  8
1
  6
CONTINUOUS
370
50
 62
4
100
AcDbLine
 10
99.145027
 20
-1.799467
 30
0.0
 11
99.145309
 21
-1.799062
 31
0.0
  0
LINE
  5
901
330
1F
100
AcDbEntity
  8
1
  6
CONTINUOUS
370
50
 62
4
100
AcDbLine
 10
99.183205
 20
1.164342
 30
0.0
 11
99.20049999999999
 21
1.194358
 31
0.0
  0
LINE
  5
902
330
1F
100
AcDbEntity
  8
1
  6
CONTINUOUS
370
50
 62
4
100
AcDbLine
 10
99.145309
 20
-1.799062
 30
0.0
 11
99.145592
 21
-1.798539
 31
0.0
  0
LINE
  5
903
330
1F
100
AcDbEntity
  8
1
  6
CONTINUOUS
370
50
 62
4
100
AcDbLine
 10
45.000298
 20
-1.633597
 30
0.0
 11
45.01144
 21
-1.610283
 31
0.0
  0
LINE
  5
904
330
1F
100
AcDbEntity
  8
1
  6
CONTINUOUS
370
50
 62
4
100
AcDbLine
 10
99.14562199999999
 20
-1.798471
 30
0.0
 11
100.0
 21
0.0
 31
0.0
  0
LINE
  5
905
330
1F
100
AcDbEntity
  8
1
  6
CONTINUOUS
370
50
 62
4
100
AcDbLine
 10
99.20049999999999
 20
1.194358
 30
0.0
 11
99.215935
 21
1.228521
 31
0.0
  0
LINE
  5
906
330
1F
100
AcDbEntity
  8
1
  6
CONTINUOUS
370
50
 62
4
100
AcDbLine
 10
99.145592
 20
-1.798539
 30
0.0
 11
99.14587399999999
 21
-1.797898
 31
0.0
  0
LINE
  5
907
330
1F
100
AcDbEntity
  8
1
  6
CONTINUOUS
370
50
 62
4
100
AcDbLine
 10
99.215935
 20
1.228521
 30
0.0
 11
99.228645
 21
1.266738
 31
0.0
  0
LINE
  5
908
330
1F
100
AcDbEntity
  8
1
  6
CONTINUOUS
370
50
 62
4
100
AcDbLine
 10
99.228645
 20
1.266738
 30
0.0
 11
99.23750299999999
 21
1.306419
 31
0.0
  0
LINE
  5
909
330
1F
100
AcDbEntity
  8
1
  6
CONTINUOUS
370
50
 62
4
100
AcDbLine
 10
44.99586499999999
 20
-1.656705
 30
0.0
 11
45.000298
 21
-1.633597
 31
0.0
  0
LINE
  5
90A
330
1F
100
AcDbEntity
  8
1
  6
CONTINUOUS
370
50
 62
4
100
AcDbLine
 10
99.23750299999999
 20
1.306419
 30
0.0
 11
99.242638
 21
1.34681
 31
0.0
  0
LINE
  5
90B
330
1F
100
AcDbEntity
  8
1
  6
CONTINUOUS
370
50
 62
4
100
AcDbLine
 10
99.242638
 20
1.34681
 30
0.0
 11
99.244385
 21
1.387676
 31
0.0
  0
LINE
  5
90C
330
1F
100
AcDbEntity
  8
1
  6
CONTINUOUS
370
50
 62
4
100
AcDbLine
 10
99.123131
 20
-0.368006
 30
0.0
 11
99.123932
 21
-0.231244
 31
0.0
  0
LINE
  5
90D
330
1F
100
AcDbEntity
  8
1
  6
CONTINUOUS
370
50
 62
4
100
AcDbLine
 10
99.122559
 20
-0.501456
 30
0.0
 11
99.123131
 21
-0.368006
 31
0.0
  0
LINE
  5
90E
330
1F
100
AcDbEntity
  8
1
  6
CONTINUOUS
370
50
 62
4
100
AcDbLine
 10
99.122208
 20
-0.630273
 30
0.0
 11
99.122559
 21
-0.501456
 31
0.0
  0
LINE
  5
90F
330
1F
100
AcDbEntity
  8
1
  6
CONTINUOUS
370
50
 62
4
100
AcDbLine
 10
99.122086
 20
-0.753219
 30
0.0
 11
99.122208
 21
-0.630273
 31
0.0
  0
LINE
  5
910
330
1F
100
AcDbEntity
  8
1
  6
CONTINUOUS
370
50
 62
4
100
AcDbLine
 10
35.0
 20
-1.8
 30
0.0
 11
35.0
 21
1.8
 31
0.0
  0
LINE
  5
911
330
1F
100
AcDbEntity
  8
1
  6
CONTINUOUS
370
50
 62
4
100
AcDbLine
 10
46.625732
 20
1.08829
 30
0.0
 11
46.625732
 21
1.123827
 31
0.0
  0
LINE
  5
912
330
1F
100
AcDbEntity
  8
1
  6
CONTINUOUS
370
50
 62
4
100
AcDbLine
 10
46.627731
 20
-1.726052
 30
0.0
 11
46.627731
 21
-1.711171
 31
0.0
  0
LINE
  5
913
330
1F
100
AcDbEntity
  8
1
  6
CONTINUOUS
370
50
 62
4
100
AcDbLine
 10
46.627731
 20
1.087022
 30
0.0
 11
46.627731
 21
1.138198
 31
0.0
  0
LINE
  5
914
330
1F
100
AcDbEntity
  8
1
  6
CONTINUOUS
370
50
 62
4
100
AcDbLine
 10
46.627731
 20
1.138198
 30
0.0
 11
46.627731
 21
1.192962
 31
0.0
  0
LINE
  5
915
330
1F
100
AcDbEntity
  8
1
  6
CONTINUOUS
370
50
 62
4
100
AcDbLine
 10
46.627731
 20
1.192962
 30
0.0
 11
46.627731
 21
1.250936
 31
0.0
  0
LINE
  5
916
330
1F
100
AcDbEntity
  8
1
  6
CONTINUOUS
370
50
 62
4
100
AcDbLine
 10
46.627731
 20
1.250936
 30
0.0
 11
46.627731
 21
1.311811
 31
0.0
  0
LINE
  5
917
330
1F
100
AcDbEntity
  8
1
  6
CONTINUOUS
370
50
 62
4
100
AcDbLine
 10
46.627731
 20
1.311811
 30
0.0
 11
46.627731
 21
1.375392
 31
0.0
  0
LINE
  5
918
330
1F
100
AcDbEntity
  8
1
  6
CONTINUOUS
370
50
 62
4
100
AcDbLine
 10
46.627731
 20
1.375392
 30
0.0
 11
46.627731
 21
1.441482
 31
0.0
  0
LINE
  5
919
330
1F
100
AcDbEntity
  8
1
  6
CONTINUOUS
370
50
 62
4
100
AcDbLine
 10
46.627731
 20
1.441482
 30
0.0
 11
46.627731
 21
1.509885
 31
0.0
  0
LINE
  5
91A
330
1F
100
AcDbEntity
  8
1
  6
CONTINUOUS
370
50
 62
4
100
AcDbLine
 10
46.627731
 20
1.509885
 30
0.0
 11
46.627731
 21
1.580405
 31
0.0
  0
LINE
  5
91B
330
1F
100
AcDbEntity
  8
1
  6
CONTINUOUS
370
50
 62
4
100
AcDbLine
 10
46.627731
 20
1.580405
 30
0.0
 11
46.627731
 21
1.652604
 31
0.0
  0
LINE
  5
91C
330
1F
100
AcDbEntity
  8
1
  6
CONTINUOUS
370
50
 62
4
100
AcDbLine
 10
46.627731
 20
1.652604
 30
0.0
 11
46.627731
 21
1.726052
 31
0.0
  0
LINE
  5
91D
330
1F
100
AcDbEntity
  8
1
  6
CONTINUOUS
370
50
 62
4
100
AcDbLine
 10
52.199135
 20
-0.9552959999999999
 30
0.0
 11
52.199135
 21
1.764528
 31
0.0
  0
LINE
  5
91E
330
1F
100
AcDbEntity
  8
1
  6
CONTINUOUS
370
50
 62
4
100
AcDbLine
 10
52.200001
 20
-1.7653
 30
0.0
 11
52.200001
 21
1.7653
 31
0.0
  0
LINE
  5
91F
330
1F
100
AcDbEntity
  8
1
  6
CONTINUOUS
370
50
 62
4
100
AcDbLine
 10
99.160645
 20
1.575557
 30
0.0
 11
99.160645
 21
1.625678
 31
0.0
  0
LINE
  5
920
330
1F
100
AcDbEntity
  8
CUT
  6
CONTINUOUS
370
25
 62
1
100
AcDbLine
 10
52.2
 20
0.0
 30
0.0
 11
100.0
 21
0.0
 31
0.0
  0
LINE
  5
921
330
1F
100
AcDbEntity
  8
CUT
  6
CONTINUOUS
370
25
 62
1
100
AcDbLine
 10
100.0
 20
0.0
 30
0.0
 11
99.16064621999999
 21
1.8
 31
0.0
  0
LINE
  5
922
330
1F
100
AcDbEntity
  8
CUT
  6
CONTINUOUS
370
25
 62
1
100
AcDbLine
 10
99.16064621999999
 20
1.8
 30
0.0
 11
52.2
 21
1.8
 31
0.0
  0
LINE
  5
923
330
1F
100
AcDbEntity
  8
CUT
  6
CONTINUOUS
370
25
 62
1
100
AcDbLine
 10
52.2
 20
1.8
 30
0.0
 11
52.2
 21
0.0
 31
0.0
  0
LINE
  5
924
330
1F
100
AcDbEntity
  8
NOCUT
  6
CONTINUOUS
370
25
 62
7
100
AcDbLine
 10
35.0
 20
0.0
 30
0.0
 11
52.2
 21
0.0
 31
0.0
  0
LINE
  5
925
330
1F
100
AcDbEntity
  8
NOCUT
  6
CONTINUOUS
370
25
 62
7
100
AcDbLine
 10
52.2
 20
0.0
 30
0.0
 11
52.2
 21
1.8005
 31
0.0
  0
LINE
  5
926
330
1F
100
AcDbEntity
  8
NOCUT
  6
CONTINUOUS
370
25
 62
7
100
AcDbLine
 10
52.2
 20
1.8005
 30
0.0
 11
52.19913397459622
 21
1.8
 31
0.0
  0
LINE
  5
927
330
1F
100
AcDbEntity
  8
NOCUT
  6
CONTINUOUS
370
25
 62
7
100
AcDbLine
 10
52.19913397459622
 20
1.8
 30
0.0
 11
35.0
 21
1.8
 31
0.0
  0
LINE
  5
928
330
1F
100
AcDbEntity
  8
NOCUT
  6
CONTINUOUS
370
25
 62
7
100
AcDbLine
 10
35.0
 20
1.8
 30
0.0
 11
35.0
 21
0.0
 31
0.0
  0
LINE
  5
929
330
1F
100
AcDbEntity
  8
NOCUT
  6
CONTINUOUS
370
25
 62
7
100
AcDbLine
 10
52.2
 20
1.8
 30
0.0
 11
52.2
 21
0.0
 31
0.0
  0
LINE
  5
92A
330
1F
100
AcDbEntity
  8
NOCUT
  6
CONTINUOUS
370
25
 62
7
100
AcDbLine
 10
52.2
 20
1.8
 30
0.0
 11
52.2
 21
0.0
 31
0.0
  0
LINE
  5
92B
330
1F
100
AcDbEntity
  8
SK1
  6
CONTINUOUS
370
50
 62
4
100
AcDbLine
 10
35.0
 20
1.8
 30
0.0
 11
0.2999999999999972
 21
1.8
 31
0.0
  0
LINE
  5
92C
330
1F
100
AcDbEntity
  8
SK1
  6
CONTINUOUS
370
50
 62
4
100
AcDbLine
 10
0.2999999999999972
 20
1.8
 30
0.0
 11
0.0
 21
1.5
 31
0.0
  0
LINE
  5
92D
330
1F
100
AcDbEntity
  8
SK1
  6
CONTINUOUS
370
50
 62
4
100
AcDbLine
 10
0.0
 20
1.5
 30
0.0
 11
0.0
 21
-1.5
 31
0.0
  0
LINE
  5
92E
330
1F
100
AcDbEntity
  8
SK1
  6
CONTINUOUS
370
50
 62
4
100
AcDbLine
 10
0.0
 20
-1.5
 30
0.0
 11
0.2999999999999972
 21
-1.8
 31
0.0
  0
LINE
  5
92F
330
1F
100
AcDbEntity
  8
SK1
  6
CONTINUOUS
370
50
 62
4
100
AcDbLine
 10
0.2999999999999972
 20
-1.8
 30
0.0
 11
35.0
 21
-1.8
 31
0.0
  0
LINE
  5
930
330
1F
100
AcDbEntity
  8
SK1
  6
CONTINUOUS
370
50
 62
4
100
AcDbLine
 10
0.2999999999999972
 20
1.8
 30
0.0
 11
0.2999999999999972
 21
-1.8
 31
0.0
  0
LINE
  5
931
330
1F
100
AcDbEntity
  8
SK2
  6
CONTINUOUS
370
25
 62
7
100
AcDbLine
 10
0.0
 20
-1.8
 30
0.0
 11
-13.0
 21
-1.8
 31
0.0
  0
LINE
  5
932
330
1F
100
AcDbEntity
  8
SK2
  6
CONTINUOUS
370
25
 62
7
100
AcDbLine
 10
-13.0
 20
1.8
 30
0.0
 11
0.0
 21
1.8
 31
0.0
  0
LINE
  5
933
330
1F
100
AcDbEntity
  8
SK2
  6
CONTINUOUS
370
25
 62
7
100
AcDbLine
 10
-12.0
 20
-8.8
 30
0.0
 11
-12.0
 21
21.225
 31
0.0
  0
LINE
  5
934
330
1F
100
AcDbEntity
  8
SK2
  6
CONTINUOUS
370
25
 62
7
100
AcDbLine
 10
-12.0
 20
-1.8
 30
0.0
 11
-11.0
 21
-6.800000000000001
 31
0.0
  0
LINE
  5
935
330
1F
100
AcDbEntity
  8
SK2
  6
CONTINUOUS
370
25
 62
7
100
AcDbLine
 10
-11.0
 20
-6.800000000000001
 30
0.0
 11
-13.0
 21
-6.800000000000001
 31
0.0
  0
LINE
  5
936
330
1F
100
AcDbEntity
  8
SK2
  6
CONTINUOUS
370
25
 62
7
100
AcDbLine
 10
-13.0
 20
-6.800000000000001
 30
0.0
 11
-12.0
 21
-1.8
 31
0.0
  0
LINE
  5
937
330
1F
100
AcDbEntity
  8
SK2
  6
CONTINUOUS
370
25
 62
7
100
AcDbLine
 10
-11.25655839020933
 20
-6.799999999999997
 30
0.0
 11
-11.04275973170156
 21
-6.586201341492227
 31
0.0
  0
LINE
  5
938
330
1F
100
AcDbEntity
  8
SK2
  6
CONTINUOUS
370
25
 62
7
100
AcDbLine
 10
-11.68082245892126
 20
-6.799999999999997
 30
0.0
 11
-11.11347040982022
 21
-6.232647950898951
 31
0.0
  0
LINE
  5
939
330
1F
100
AcDbEntity
  8
SK2
  6
CONTINUOUS
370
25
 62
7
100
AcDbLine
 10
-12.1050865276332
 20
-6.800000000000004
 30
0.0
 11
-11.18418108793887
 21
-5.879094560305674
 31
0.0
  0
LINE
  5
93A
330
1F
100
AcDbEntity
  8
SK2
  6
CONTINUOUS
370
25
 62
7
100
AcDbLine
 10
-12.52935059634513
 20
-6.799999999999997
 30
0.0
 11
-11.25489176605753
 21
-5.525541169712398
 31
0.0
  0
LINE
  5
93B
330
1F
100
AcDbEntity
  8
SK2
  6
CONTINUOUS
370
25
 62
7
100
AcDbLine
 10
-12.95361466505706
 20
-6.799999999999997
 30
0.0
 11
-11.32560244417618
 21
-5.171987779119114
 31
0.0
  0
LINE
  5
93C
330
1F
100
AcDbEntity
  8
SK2
  6
CONTINUOUS
370
25
 62
7
100
AcDbLine
 10
-12.90553031655775
 20
-6.327651582788754
 30
0.0
 11
-11.39631312229483
 21
-4.81843438852583
 31
0.0
  0
LINE
  5
93D
330
1F
100
AcDbEntity
  8
SK2
  6
CONTINUOUS
370
25
 62
7
100
AcDbLine
 10
-12.79946429937976
 20
-5.797321496898839
 30
0.0
 11
-11.46702380041349
 21
-4.464880997932561
 31
0.0
  0
LINE
  5
93E
330
1F
100
AcDbEntity
  8
SK2
  6
CONTINUOUS
370
25
 62
7
100
AcDbLine
 10
-12.69339828220178
 20
-5.266991411008931
 30
0.0
 11
-11.53773447853214
 21
-4.111327607339291
 31
0.0
  0
LINE
  5
93F
330
1F
100
AcDbEntity
  8
SK2
  6
CONTINUOUS
370
25
 62
7
100
AcDbLine
 10
-12.5873322650238
 20
-4.736661325119009
 30
0.0
 11
-11.6084451566508
 21
-3.757774216746014
 31
0.0
  0
LINE
  5
940
330
1F
100
AcDbEntity
  8
SK2
  6
CONTINUOUS
370
25
 62
7
100
AcDbLine
 10
-12.48126624784582
 20
-4.206331239229094
 30
0.0
 11
-11.67915583476945
 21
-3.404220826152731
 31
0.0
  0
LINE
  5
941
330
1F
100
AcDbEntity
  8
SK2
  6
CONTINUOUS
370
25
 62
7
100
AcDbLine
 10
-12.37520023066784
 20
-3.676001153339186
 30
0.0
 11
-11.7498665128881
 21
-3.050667435559454
 31
0.0
  0
LINE
  5
942
330
1F
100
AcDbEntity
  8
SK2
  6
CONTINUOUS
370
25
 62
7
100
AcDbLine
 10
-12.26913421348985
 20
-3.145671067449271
 30
0.0
 11
-11.82057719100676
 21
-2.697114044966185
 31
0.0
  0
LINE
  5
943
330
1F
100
AcDbEntity
  8
SK2
  6
CONTINUOUS
370
25
 62
7
100
AcDbLine
 10
-12.16306819631186
 20
-2.615340981559349
 30
0.0
 11
-11.89128786912542
 21
-2.343560654372908
 31
0.0
  0
LINE
  5
944
330
1F
100
AcDbEntity
  8
SK2
  6
CONTINUOUS
370
25
 62
7
100
AcDbLine
 10
-12.05700217913388
 20
-2.085010895669434
 30
0.0
 11
-11.96199854724408
 21
-1.990007263779631
 31
0.0
  0
LINE
  5
945
330
1F
100
AcDbEntity
  8
SK2
  6
CONTINUOUS
370
25
 62
7
100
AcDbLine
 10
-12.95837222033369
 20
-6.591861101668442
 30
0.0
 11
-12.75023332200212
 21
-6.800000000000004
 31
0.0
  0
LINE
  5
946
330
1F
100
AcDbEntity
  8
SK2
  6
CONTINUOUS
370
25
 62
7
100
AcDbLine
 10
-12.88766154221504
 20
-6.238307711075166
 30
0.0
 11
-12.3259692532902
 21
-6.799999999999997
 31
0.0
  0
LINE
  5
947
330
1F
100
AcDbEntity
  8
SK2
  6
CONTINUOUS
370
25
 62
7
100
AcDbLine
 10
-12.81695086409637
 20
-5.884754320481896
 30
0.0
 11
-11.90170518457827
 21
-6.799999999999997
 31
0.0
  0
LINE
  5
948
330
1F
100
AcDbEntity
  8
SK2
  6
CONTINUOUS
370
25
 62
7
100
AcDbLine
 10
-12.74624018597772
 20
-5.531200929888612
 30
0.0
 11
-11.47744111586633
 21
-6.799999999999997
 31
0.0
  0
LINE
  5
949
330
1F
100
AcDbEntity
  8
SK2
  6
CONTINUOUS
370
25
 62
7
100
AcDbLine
 10
-12.67552950785907
 20
-5.177647539295343
 30
0.0
 11
-11.05317704715441
 21
-6.800000000000004
 31
0.0
  0
LINE
  5
94A
330
1F
100
AcDbEntity
  8
SK2
  6
CONTINUOUS
370
25
 62
7
100
AcDbLine
 10
-12.60481882974041
 20
-4.824094148702066
 30
0.0
 11
-11.09277175538939
 21
-6.33614122305309
 31
0.0
  0
LINE
  5
94B
330
1F
100
AcDbEntity
  8
SK2
  6
CONTINUOUS
370
25
 62
7
100
AcDbLine
 10
-12.53410815162176
 20
-4.47054075810879
 30
0.0
 11
-11.19883777256737
 21
-5.805811137163182
 31
0.0
  0
LINE
  5
94C
330
1F
100
AcDbEntity
  8
SK2
  6
CONTINUOUS
370
25
 62
7
100
AcDbLine
 10
-12.4633974735031
 20
-4.116987367515513
 30
0.0
 11
-11.30490378974535
 21
-5.27548105127326
 31
0.0
  0
LINE
  5
94D
330
1F
100
AcDbEntity
  8
SK2
  6
CONTINUOUS
370
25
 62
7
100
AcDbLine
 10
-12.39268679538444
 20
-3.763433976922244
 30
0.0
 11
-11.41096980692333
 21
-4.745150965383353
 31
0.0
  0
LINE
  5
94E
330
1F
100
AcDbEntity
  8
SK2
  6
CONTINUOUS
370
25
 62
7
100
AcDbLine
 10
-12.32197611726579
 20
-3.40988058632896
 30
0.0
 11
-11.51703582410132
 21
-4.214820879493431
 31
0.0
  0
LINE
  5
94F
330
1F
100
AcDbEntity
  8
SK2
  6
CONTINUOUS
370
25
 62
7
100
AcDbLine
 10
-12.25126543914713
 20
-3.05632719573569
 30
0.0
 11
-11.6231018412793
 21
-3.684490793603516
 31
0.0
  0
LINE
  5
950
330
1F
100
AcDbEntity
  8
SK2
  6
CONTINUOUS
370
25
 62
7
100
AcDbLine
 10
-12.18055476102847
 20
-2.702773805142407
 30
0.0
 11
-11.72916785845729
 21
-3.154160707713594
 31
0.0
  0
LINE
  5
951
330
1F
100
AcDbEntity
  8
SK2
  6
CONTINUOUS
370
25
 62
7
100
AcDbLine
 10
-12.10984408290982
 20
-2.34922041454913
 30
0.0
 11
-11.83523387563527
 21
-2.623830621823686
 31
0.0
  0
LINE
  5
952
330
1F
100
AcDbEntity
  8
SK2
  6
CONTINUOUS
370
25
 62
7
100
AcDbLine
 10
-12.03913340479117
 20
-1.99566702395586
 30
0.0
 11
-11.94129989281325
 21
-2.093500535933778
 31
0.0
  0
LINE
  5
953
330
1F
100
AcDbEntity
  8
SK2
  6
CONTINUOUS
370
25
 62
7
100
AcDbLine
 10
-12.0
 20
1.8
 30
0.0
 11
-13.0
 21
6.8
 31
0.0
  0
LINE
  5
954
330
1F
100
AcDbEntity
  8
SK2
  6
CONTINUOUS
370
25
 62
7
100
AcDbLine
 10
-13.0
 20
6.8
 30
0.0
 11
-11.0
 21
6.8
 31
0.0
  0
LINE
  5
955
330
1F
100
AcDbEntity
  8
SK2
  6
CONTINUOUS
370
25
 62
7
100
AcDbLine
 10
-11.0
 20
6.8
 30
0.0
 11
-12.0
 21
1.8
 31
0.0
  0
LINE
  5
956
330
1F
100
AcDbEntity
  8
SK2
  6
CONTINUOUS
370
25
 62
7
100
AcDbLine
 10
-12.0691053284306
 20
2.145526642153072
 30
0.0
 11
-11.89634200735409
 21
2.318289963229589
 31
0.0
  0
LINE
  5
957
330
1F
100
AcDbEntity
  8
SK2
  6
CONTINUOUS
370
25
 62
7
100
AcDbLine
 10
-12.13981600654927
 20
2.499080032746342
 30
0.0
 11
-11.7902759901761
 21
2.848620049119511
 31
0.0
  0
LINE
  5
958
330
1F
100
AcDbEntity
  8
SK2
  6
CONTINUOUS
370
25
 62
7
100
AcDbLine
 10
-12.21052668466792
 20
2.852633423339618
 30
0.0
 11
-11.68420997299812
 21
3.378950135009418
 31
0.0
  0
LINE
  5
959
330
1F
100
AcDbEntity
  8
SK2
  6
CONTINUOUS
370
25
 62
7
100
AcDbLine
 10
-12.28123736278658
 20
3.206186813932895
 30
0.0
 11
-11.57814395582014
 21
3.909280220899333
 31
0.0
  0
LINE
  5
95A
330
1F
100
AcDbEntity
  8
SK2
  6
CONTINUOUS
370
25
 62
7
100
AcDbLine
 10
-12.35194804090523
 20
3.559740204526179
 30
0.0
 11
-11.47207793864216
 21
4.439610306789248
 31
0.0
  0
LINE
  5
95B
330
1F
100
AcDbEntity
  8
SK2
  6
CONTINUOUS
370
25
 62
7
100
AcDbLine
 10
-12.42265871902388
 20
3.913293595119463
 30
0.0
 11
-11.36601192146417
 21
4.96994039267917
 31
0.0
  0
LINE
  5
95C
330
1F
100
AcDbEntity
  8
SK2
  6
CONTINUOUS
370
25
 62
7
100
AcDbLine
 10
-12.49336939714254
 20
4.266846985712725
 30
0.0
 11
-11.25994590428619
 21
5.500270478569078
 31
0.0
  0
LINE
  5
95D
330
1F
100
AcDbEntity
  8
SK2
  6
CONTINUOUS
370
25
 62
7
100
AcDbLine
 10
-12.5640800752612
 20
4.620400376306009
 30
0.0
 11
-11.1538798871082
 21
6.030600564459
 31
0.0
  0
LINE
  5
95E
330
1F
100
AcDbEntity
  8
SK2
  6
CONTINUOUS
370
25
 62
7
100
AcDbLine
 10
-12.63479075337985
 20
4.973953766899285
 30
0.0
 11
-11.04781386993022
 21
6.560930650348915
 31
0.0
  0
LINE
  5
95F
330
1F
100
AcDbEntity
  8
SK2
  6
CONTINUOUS
370
25
 62
7
100
AcDbLine
 10
-12.70550143149851
 20
5.327507157492555
 30
0.0
 11
-11.23300858899107
 21
6.799999999999997
 31
0.0
  0
LINE
  5
960
330
1F
100
AcDbEntity
  8
SK2
  6
CONTINUOUS
370
25
 62
7
100
AcDbLine
 10
-12.77621210961716
 20
5.681060548085838
 30
0.0
 11
-11.657272657703
 21
6.799999999999997
 31
0.0
  0
LINE
  5
961
330
1F
100
AcDbEntity
  8
SK2
  6
CONTINUOUS
370
25
 62
7
100
AcDbLine
 10
-12.84692278773582
 20
6.034613938679108
 30
0.0
 11
-12.08153672641493
 21
6.799999999999997
 31
0.0
  0
LINE
  5
962
330
1F
100
AcDbEntity
  8
SK2
  6
CONTINUOUS
370
25
 62
7
100
AcDbLine
 10
-12.91763346585448
 20
6.388167329272385
 30
0.0
 11
-12.50580079512687
 21
6.799999999999997
 31
0.0
  0
LINE
  5
963
330
1F
100
AcDbEntity
  8
SK2
  6
CONTINUOUS
370
25
 62
7
100
AcDbLine
 10
-12.98834414397314
 20
6.741720719865647
 30
0.0
 11
-12.93006486383879
 21
6.799999999999997
 31
0.0
  0
LINE
  5
964
330
1F
100
AcDbEntity
  8
SK2
  6
CONTINUOUS
370
25
 62
7
100
AcDbLine
 10
-12.05325336029579
 20
2.066266801478939
 30
0.0
 11
-11.96449775980281
 21
1.977511200985958
 31
0.0
  0
LINE
  5
965
330
1F
100
AcDbEntity
  8
SK2
  6
CONTINUOUS
370
25
 62
7
100
AcDbLine
 10
-12.15931937747377
 20
2.596596887368861
 30
0.0
 11
-11.89378708168415
 21
2.331064591579242
 31
0.0
  0
LINE
  5
966
330
1F
100
AcDbEntity
  8
SK2
  6
CONTINUOUS
370
25
 62
7
100
AcDbLine
 10
-12.26538539465175
 20
3.126926973258769
 30
0.0
 11
-11.8230764035655
 21
2.684617982172519
 31
0.0
  0
LINE
  5
967
330
1F
100
AcDbEntity
  8
SK2
  6
CONTINUOUS
370
25
 62
7
100
AcDbLine
 10
-12.37145141182974
 20
3.657257059148684
 30
0.0
 11
-11.75236572544684
 21
3.038171372765781
 31
0.0
  0
LINE
  5
968
330
1F
100
AcDbEntity
  8
SK2
  6
CONTINUOUS
370
25
 62
7
100
AcDbLine
 10
-12.47751742900772
 20
4.187587145038592
 30
0.0
 11
-11.68165504732819
 21
3.391724763359058
 31
0.0
  0
LINE
  5
969
330
1F
100
AcDbEntity
  8
SK2
  6
CONTINUOUS
370
25
 62
7
100
AcDbLine
 10
-12.58358344618571
 20
4.717917230928514
 30
0.0
 11
-11.61094436920953
 21
3.745278153952341
 31
0.0
  0
LINE
  5
96A
330
1F
100
AcDbEntity
  8
SK2
  6
CONTINUOUS
370
25
 62
7
100
AcDbLine
 10
-12.68964946336369
 20
5.248247316818421
 30
0.0
 11
-11.54023369109088
 21
4.098831544545611
 31
0.0
  0
LINE
  5
96B
330
1F
100
AcDbEntity
  8
SK2
  6
CONTINUOUS
370
25
 62
7
100
AcDbLine
 10
-12.79571548054167
 20
5.778577402708351
 30
0.0
 11
-11.46952301297222
 21
4.452384935138902
 31
0.0
  0
LINE
  5
96C
330
1F
100
AcDbEntity
  8
SK2
  6
CONTINUOUS
370
25
 62
7
100
AcDbLine
 10
-12.90178149771965
 20
6.308907488598258
 30
0.0
 11
-11.39881233485356
 21
4.805938325732164
 31
0.0
  0
LINE
  5
96D
330
1F
100
AcDbEntity
  8
SK2
  6
CONTINUOUS
370
25
 62
7
100
AcDbLine
 10
-12.96860994040946
 20
6.799999999999997
 30
0.0
 11
-11.32810165673491
 21
5.159491716325448
 31
0.0
  0
LINE
  5
96E
330
1F
100
AcDbEntity
  8
SK2
  6
CONTINUOUS
370
25
 62
7
100
AcDbLine
 10
-12.54434587169754
 20
6.799999999999997
 30
0.0
 11
-11.25739097861626
 21
5.513045106918725
 31
0.0
  0
LINE
  5
96F
330
1F
100
AcDbEntity
  8
SK2
  6
CONTINUOUS
370
25
 62
7
100
AcDbLine
 10
-12.1200818029856
 20
6.799999999999997
 30
0.0
 11
-11.18668030049761
 21
5.866598497512001
 31
0.0
  0
LINE
  5
970
330
1F
100
AcDbEntity
  8
SK2
  6
CONTINUOUS
370
25
 62
7
100
AcDbLine
 10
-11.69581773427367
 20
6.799999999999997
 30
0.0
 11
-11.11596962237896
 21
6.220151888105278
 31
0.0
  0
LINE
  5
971
330
1F
100
AcDbEntity
  8
SK2
  6
CONTINUOUS
370
25
 62
7
100
AcDbLine
 10
-11.27155366556173
 20
6.799999999999997
 30
0.0
 11
-11.04525894426029
 21
6.573705278698554
 31
0.0
  0
TEXT
  5
972
330
1F
100
AcDbEntity
  8
SK2
  6
CONTINUOUS
370
25
 62
7
100
AcDbText
 10
-13.5
 20
12.7875
 30
0.0
 40
3.5
  1
3.6
 50
90.00000000000001
 72
     1
 11
-13.5
 21
16.2875
 31
0.0
100
AcDbText
  0
CIRCLE
  5
973
330
1F
100
AcDbEntity
  8
SK2
  6
CONTINUOUS
370
25
 62
7
100
AcDbCircle
 10
-15.25
 20
9.812499999999996
 30
0.0
 40
1.4
  0
LINE
  5
974
330
1F
100
AcDbEntity
  8
SK2
  6
CONTINUOUS
370
25
 62
7
100
AcDbLine
 10
-13.85
 20
8.412499999999998
 30
0.0
 11
-16.65
 21
11.2125
 31
0.0
  0
LINE
  5
975
330
1F
100
AcDbEntity
  8
SK2
  6
CONTINUOUS
370
25
 62
7
100
AcDbLine
 10
0.0
 20
1.8
 30
0.0
 11
0.0
 21
14.80071638
 31
0.0
  0
LINE
  5
976
330
1F
100
AcDbEntity
  8
SK2
  6
CONTINUOUS
370
25
 62
7
100
AcDbLine
 10
35.0
 20
14.80071638
 30
0.0
 11
35.0
 21
1.800000000000001
 31
0.0
  0
LINE
  5
977
330
1F
100
AcDbEntity
  8
SK2
  6
CONTINUOUS
370
25
 62
7
100
AcDbLine
 10
0.0
 20
13.80071638
 30
0.0
 11
35.0
 21
13.80071638
 31
0.0
  0
LINE
  5
978
330
1F
100
AcDbEntity
  8
SK2
  6
CONTINUOUS
370
25
 62
7
100
AcDbLine
 10
0.0
 20
13.80071638
 30
0.0
 11
5.0
 21
14.80071638
 31
0.0
  0
LINE
  5
979
330
1F
100
AcDbEntity
  8
SK2
  6
CONTINUOUS
370
25
 62
7
100
AcDbLine
 10
5.0
 20
14.80071638
 30
0.0
 11
5.0
 21
12.80071638
 31
0.0
  0
LINE
  5
97A
330
1F
100
AcDbEntity
  8
SK2
  6
CONTINUOUS
370
25
 62
7
100
AcDbLine
 10
5.0
 20
12.80071638
 30
0.0
 11
0.0
 21
13.80071638
 31
0.0
  0
LINE
  5
97B
330
1F
100
AcDbEntity
  8
SK2
  6
CONTINUOUS
370
25
 62
7
100
AcDbLine
 10
4.958371200079366
 20
12.80904213998412
 30
0.0
 11
5.0
 21
12.85067093990476
 31
0.0
  0
LINE
  5
97C
330
1F
100
AcDbEntity
  8
SK2
  6
CONTINUOUS
370
25
 62
7
100
AcDbLine
 10
4.604817809486104
 20
12.87975281810278
 30
0.0
 11
5.0
 21
13.27493500861668
 31
0.0
  0
LINE
  5
97D
330
1F
100
AcDbEntity
  8
SK2
  6
CONTINUOUS
370
25
 62
7
100
AcDbLine
 10
4.251264418892827
 20
12.95046349622144
 30
0.0
 11
5.0
 21
13.69919907732861
 31
0.0
  0
LINE
  5
97E
330
1F
100
AcDbEntity
  8
SK2
  6
CONTINUOUS
370
25
 62
7
100
AcDbLine
 10
3.897711028299547
 20
13.02117417434009
 30
0.0
 11
5.0
 21
14.12346314604054
 31
0.0
  0
LINE
  5
97F
330
1F
100
AcDbEntity
  8
SK2
  6
CONTINUOUS
370
25
 62
7
100
AcDbLine
 10
3.544157637706274
 20
13.09188485245875
 30
0.0
 11
5.0
 21
14.54772721475247
 31
0.0
  0
LINE
  5
980
330
1F
100
AcDbEntity
  8
SK2
  6
CONTINUOUS
370
25
 62
7
100
AcDbLine
 10
3.190604247113004
 20
13.16259553057741
 30
0.0
 11
4.785906370669505
 21
14.7578976541339
 31
0.0
  0
LINE
  5
981
330
1F
100
AcDbEntity
  8
SK2
  6
CONTINUOUS
370
25
 62
7
100
AcDbLine
 10
2.837050856519724
 20
13.23330620869606
 30
0.0
 11
4.255576284779593
 21
14.65183163695592
 31
0.0
  0
LINE
  5
982
330
1F
100
AcDbEntity
  8
SK2
  6
CONTINUOUS
370
25
 62
7
100
AcDbLine
 10
2.483497465926447
 20
13.30401688681471
 30
0.0
 11
3.725246198889682
 21
14.54576561977794
 31
0.0
  0
LINE
  5
983
330
1F
100
AcDbEntity
  8
SK2
  6
CONTINUOUS
370
25
 62
7
100
AcDbLine
 10
2.129944075333171
 20
13.37472756493337
 30
0.0
 11
3.19491611299976
 21
14.43969960259995
 31
0.0
  0
LINE
  5
984
330
1F
100
AcDbEntity
  8
SK2
  6
CONTINUOUS
370
25
 62
7
100
AcDbLine
 10
1.776390684739901
 20
13.44543824305202
 30
0.0
 11
2.664586027109848
 21
14.33363358542197
 31
0.0
  0
LINE
  5
985
330
1F
100
AcDbEntity
  8
SK2
  6
CONTINUOUS
370
25
 62
7
100
AcDbLine
 10
1.422837294146618
 20
13.51614892117068
 30
0.0
 11
2.134255941219934
 21
14.22756756824399
 31
0.0
  0
LINE
  5
986
330
1F
100
AcDbEntity
  8
SK2
  6
CONTINUOUS
370
25
 62
7
100
AcDbLine
 10
1.069283903553348
 20
13.58685959928933
 30
0.0
 11
1.603925855330026
 21
14.121501551066
 31
0.0
  0
LINE
  5
987
330
1F
100
AcDbEntity
  8
SK2
  6
CONTINUOUS
370
25
 62
7
100
AcDbLine
 10
0.7157305129600715
 20
13.65757027740799
 30
0.0
 11
1.073595769440104
 21
14.01543553388802
 31
0.0
  0
LINE
  5
988
330
1F
100
AcDbEntity
  8
SK2
  6
CONTINUOUS
370
25
 62
7
100
AcDbLine
 10
0.3621771223667949
 20
13.72828095552664
 30
0.0
 11
0.5432656835501888
 21
13.90936951671004
 31
0.0
  0
LINE
  5
989
330
1F
100
AcDbEntity
  8
SK2
  6
CONTINUOUS
370
25
 62
7
100
AcDbLine
 10
0.0086237317735112
 20
13.79899163364529
 30
0.0
 11
0.0129355976602739
 21
13.80330349953206
 31
0.0
  0
LINE
  5
98A
330
1F
100
AcDbEntity
  8
SK2
  6
CONTINUOUS
370
25
 62
7
100
AcDbLine
 10
0.0255649205026671
 20
13.80582936410053
 30
0.0
 11
0.0383473807539971
 21
13.7930469038492
 31
0.0
  0
LINE
  5
98B
330
1F
100
AcDbEntity
  8
SK2
  6
CONTINUOUS
370
25
 62
7
100
AcDbLine
 10
0.3791183110959437
 20
13.87654004221918
 30
0.0
 11
0.568677466643912
 21
13.68698088667121
 31
0.0
  0
LINE
  5
98C
330
1F
100
AcDbEntity
  8
SK2
  6
CONTINUOUS
370
25
 62
7
100
AcDbLine
 10
0.7326717016892133
 20
13.94725072033785
 30
0.0
 11
1.099007552533827
 21
13.58091486949323
 31
0.0
  0
LINE
  5
98D
330
1F
100
AcDbEntity
  8
SK2
  6
CONTINUOUS
370
25
 62
7
100
AcDbLine
 10
1.08622509228249
 20
14.0179613984565
 30
0.0
 11
1.629337638423735
 21
13.47484885231525
 31
0.0
  0
LINE
  5
98E
330
1F
100
AcDbEntity
  8
SK2
  6
CONTINUOUS
370
25
 62
7
100
AcDbLine
 10
1.439778482875759
 20
14.08867207657516
 30
0.0
 11
2.159667724313643
 21
13.36878283513727
 31
0.0
  0
LINE
  5
98F
330
1F
100
AcDbEntity
  8
SK2
  6
CONTINUOUS
370
25
 62
7
100
AcDbLine
 10
1.793331873469043
 20
14.1593827546938
 30
0.0
 11
2.689997810203558
 21
13.26271681795929
 31
0.0
  0
LINE
  5
990
330
1F
100
AcDbEntity
  8
SK2
  6
CONTINUOUS
370
25
 62
7
100
AcDbLine
 10
2.146885264062313
 20
14.23009343281246
 30
0.0
 11
3.220327896093469
 21
13.15665080078131
 31
0.0
  0
LINE
  5
991
330
1F
100
AcDbEntity
  8
SK2
  6
CONTINUOUS
370
25
 62
7
100
AcDbLine
 10
2.500438654655589
 20
14.30080411093112
 30
0.0
 11
3.75065798198338
 21
13.05058478360332
 31
0.0
  0
LINE
  5
992
330
1F
100
AcDbEntity
  8
SK2
  6
CONTINUOUS
370
25
 62
7
100
AcDbLine
 10
2.853992045248859
 20
14.37151478904977
 30
0.0
 11
4.280988067873285
 21
12.94451876642534
 31
0.0
  0
LINE
  5
993
330
1F
100
AcDbEntity
  8
SK2
  6
CONTINUOUS
370
25
 62
7
100
AcDbLine
 10
3.207545435842135
 20
14.44222546716843
 30
0.0
 11
4.811318153763192
 21
12.83845274924736
 31
0.0
  0
LINE
  5
994
330
1F
100
AcDbEntity
  8
SK2
  6
CONTINUOUS
370
25
 62
7
100
AcDbLine
 10
3.561098826435408
 20
14.51293614528708
 30
0.0
 11
5.0
 21
13.07403497172248
 31
0.0
  0
LINE
  5
995
330
1F
100
AcDbEntity
  8
SK2
  6
CONTINUOUS
370
25
 62
7
100
AcDbLine
 10
3.914652217028685
 20
14.58364682340574
 30
0.0
 11
5.0
 21
13.49829904043441
 31
0.0
  0
LINE
  5
996
330
1F
100
AcDbEntity
  8
SK2
  6
CONTINUOUS
370
25
 62
7
100
AcDbLine
 10
4.268205607621955
 20
14.65435750152439
 30
0.0
 11
5.0
 21
13.92256310914635
 31
0.0
  0
LINE
  5
997
330
1F
100
AcDbEntity
  8
SK2
  6
CONTINUOUS
370
25
 62
7
100
AcDbLine
 10
4.621758998215228
 20
14.72506817964305
 30
0.0
 11
5.0
 21
14.34682717785828
 31
0.0
  0
LINE
  5
998
330
1F
100
AcDbEntity
  8
SK2
  6
CONTINUOUS
370
25
 62
7
100
AcDbLine
 10
4.975312388808504
 20
14.7957788577617
 30
0.0
 11
5.0
 21
14.7710912465702
 31
0.0
  0
LINE
  5
999
330
1F
100
AcDbEntity
  8
SK2
  6
CONTINUOUS
370
25
 62
7
100
AcDbLine
 10
35.0
 20
13.80071638
 30
0.0
 11
30.0
 21
12.80071638
 31
0.0
  0
LINE
  5
99A
330
1F
100
AcDbEntity
  8
SK2
  6
CONTINUOUS
370
25
 62
7
100
AcDbLine
 10
30.0
 20
12.80071638
 30
0.0
 11
30.0
 21
14.80071638
 31
0.0
  0
LINE
  5
99B
330
1F
100
AcDbEntity
  8
SK2
  6
CONTINUOUS
370
25
 62
7
100
AcDbLine
 10
30.0
 20
14.80071638
 30
0.0
 11
35.0
 21
13.80071638
 31
0.0
  0
LINE
  5
99C
330
1F
100
AcDbEntity
  8
SK2
  6
CONTINUOUS
370
25
 62
7
100
AcDbLine
 10
34.75000264063296
 20
13.75071690812659
 30
0.0
 11
34.8333350937553
 21
13.83404936124894
 31
0.0
  0
LINE
  5
99D
330
1F
100
AcDbEntity
  8
SK2
  6
CONTINUOUS
370
25
 62
7
100
AcDbLine
 10
34.21967255474304
 20
13.64465089094861
 30
0.0
 11
34.47978170316203
 21
13.90476003936759
 31
0.0
  0
LINE
  5
99E
330
1F
100
AcDbEntity
  8
SK2
  6
CONTINUOUS
370
25
 62
7
100
AcDbLine
 10
33.68934246885313
 20
13.53858487377063
 30
0.0
 11
34.12622831256876
 21
13.97547071748625
 31
0.0
  0
LINE
  5
99F
330
1F
100
AcDbEntity
  8
SK2
  6
CONTINUOUS
370
25
 62
7
100
AcDbLine
 10
33.15901238296323
 20
13.43251885659265
 30
0.0
 11
33.77267492197549
 21
14.0461813956049
 31
0.0
  0
LINE
  5
9A0
330
1F
100
AcDbEntity
  8
SK2
  6
CONTINUOUS
370
25
 62
7
100
AcDbLine
 10
32.62868229707332
 20
13.32645283941466
 30
0.0
 11
33.41912153138221
 21
14.11689207372356
 31
0.0
  0
LINE
  5
9A1
330
1F
100
AcDbEntity
  8
SK2
  6
CONTINUOUS
370
25
 62
7
100
AcDbLine
 10
32.0983522111834
 20
13.22038682223668
 30
0.0
 11
33.06556814078894
 21
14.18760275184221
 31
0.0
  0
LINE
  5
9A2
330
1F
100
AcDbEntity
  8
SK2
  6
CONTINUOUS
370
25
 62
7
100
AcDbLine
 10
31.56802212529349
 20
13.1143208050587
 30
0.0
 11
32.71201475019566
 21
14.25831342996087
 31
0.0
  0
LINE
  5
9A3
330
1F
100
AcDbEntity
  8
SK2
  6
CONTINUOUS
370
25
 62
7
100
AcDbLine
 10
31.03769203940358
 20
13.00825478788072
 30
0.0
 11
32.35846135960239
 21
14.32902410807952
 31
0.0
  0
LINE
  5
9A4
330
1F
100
AcDbEntity
  8
SK2
  6
CONTINUOUS
370
25
 62
7
100
AcDbLine
 10
30.50736195351367
 20
12.90218877070274
 30
0.0
 11
32.00490796900912
 21
14.39973478619818
 31
0.0
  0
LINE
  5
9A5
330
1F
100
AcDbEntity
  8
SK2
  6
CONTINUOUS
370
25
 62
7
100
AcDbLine
 10
30.0
 20
12.81909088590099
 30
0.0
 11
31.65135457841584
 21
14.47044546431683
 31
0.0
  0
LINE
  5
9A6
330
1F
100
AcDbEntity
  8
SK2
  6
CONTINUOUS
370
25
 62
7
100
AcDbLine
 10
30.0
 20
13.24335495461292
 30
0.0
 11
31.29780118782257
 21
14.54115614243549
 31
0.0
  0
LINE
  5
9A7
330
1F
100
AcDbEntity
  8
SK2
  6
CONTINUOUS
370
25
 62
7
100
AcDbLine
 10
30.0
 20
13.66761902332484
 30
0.0
 11
30.94424779722929
 21
14.61186682055414
 31
0.0
  0
LINE
  5
9A8
330
1F
100
AcDbEntity
  8
SK2
  6
CONTINUOUS
370
25
 62
7
100
AcDbLine
 10
30.0
 20
14.09188309203677
 30
0.0
 11
30.59069440663603
 21
14.6825774986728
 31
0.0
  0
LINE
  5
9A9
330
1F
100
AcDbEntity
  8
SK2
  6
CONTINUOUS
370
25
 62
7
100
AcDbLine
 10
30.0
 20
14.5161471607487
 30
0.0
 11
30.23714101604275
 21
14.75328817679145
 31
0.0
  0
LINE
  5
9AA
330
1F
100
AcDbEntity
  8
SK2
  6
CONTINUOUS
370
25
 62
7
100
AcDbLine
 10
30.0
 20
13.06101730552664
 30
0.0
 11
30.21691743793887
 21
12.84409986758777
 31
0.0
  0
LINE
  5
9AB
330
1F
100
AcDbEntity
  8
SK2
  6
CONTINUOUS
370
25
 62
7
100
AcDbLine
 10
30.0
 20
13.48528137423857
 30
0.0
 11
30.57047082853214
 21
12.91481054570643
 31
0.0
  0
LINE
  5
9AC
330
1F
100
AcDbEntity
  8
SK2
  6
CONTINUOUS
370
25
 62
7
100
AcDbLine
 10
30.0
 20
13.9095454429505
 30
0.0
 11
30.92402421912541
 21
12.98552122382508
 31
0.0
  0
LINE
  5
9AD
330
1F
100
AcDbEntity
  8
SK2
  6
CONTINUOUS
370
25
 62
7
100
AcDbLine
 10
30.0
 20
14.33380951166242
 30
0.0
 11
31.27757760971869
 21
13.05623190194374
 31
0.0
  0
LINE
  5
9AE
330
1F
100
AcDbEntity
  8
SK2
  6
CONTINUOUS
370
25
 62
7
100
AcDbLine
 10
30.0
 20
14.75807358037435
 30
0.0
 11
31.63113100031196
 21
13.12694258006239
 31
0.0
  0
LINE
  5
9AF
330
1F
100
AcDbEntity
  8
SK2
  6
CONTINUOUS
370
25
 62
7
100
AcDbLine
 10
30.47702658635784
 20
14.70531106272843
 30
0.0
 11
31.98468439090523
 21
13.19765325818105
 31
0.0
  0
LINE
  5
9B0
330
1F
100
AcDbEntity
  8
SK2
  6
CONTINUOUS
370
25
 62
7
100
AcDbLine
 10
31.00735667224776
 20
14.59924504555045
 30
0.0
 11
32.33823778149851
 21
13.2683639362997
 31
0.0
  0
LINE
  5
9B1
330
1F
100
AcDbEntity
  8
SK2
  6
CONTINUOUS
370
25
 62
7
100
AcDbLine
 10
31.53768675813767
 20
14.49317902837247
 30
0.0
 11
32.69179117209178
 21
13.33907461441836
 31
0.0
  0
LINE
  5
9B2
330
1F
100
AcDbEntity
  8
SK2
  6
CONTINUOUS
370
25
 62
7
100
AcDbLine
 10
32.06801684402758
 20
14.38711301119449
 30
0.0
 11
33.04534456268505
 21
13.40978529253701
 31
0.0
  0
LINE
  5
9B3
330
1F
100
AcDbEntity
  8
SK2
  6
CONTINUOUS
370
25
 62
7
100
AcDbLine
 10
32.59834692991749
 20
14.2810469940165
 30
0.0
 11
33.39889795327833
 21
13.48049597065567
 31
0.0
  0
LINE
  5
9B4
330
1F
100
AcDbEntity
  8
SK2
  6
CONTINUOUS
370
25
 62
7
100
AcDbLine
 10
33.1286770158074
 20
14.17498097683852
 30
0.0
 11
33.7524513438716
 21
13.55120664877432
 31
0.0
  0
LINE
  5
9B5
330
1F
100
AcDbEntity
  8
SK2
  6
CONTINUOUS
370
25
 62
7
100
AcDbLine
 10
33.65900710169731
 20
14.06891495966054
 30
0.0
 11
34.10600473446488
 21
13.62191732689297
 31
0.0
  0
LINE
  5
9B6
330
1F
100
AcDbEntity
  8
SK2
  6
CONTINUOUS
370
25
 62
7
100
AcDbLine
 10
34.18933718758722
 20
13.96284894248256
 30
0.0
 11
34.45955812505815
 21
13.69262800501163
 31
0.0
  0
LINE
  5
9B7
330
1F
100
AcDbEntity
  8
SK2
  6
CONTINUOUS
370
25
 62
7
100
AcDbLine
 10
34.71966727347713
 20
13.85678292530458
 30
0.0
 11
34.81311151565142
 21
13.76333868313029
 31
0.0
  0
TEXT
  5
9B8
330
1F
100
AcDbEntity
  8
SK2
  6
CONTINUOUS
370
25
 62
7
100
AcDbText
 10
14.58333333333333
 20
15.30071638
 30
0.0
 40
3.5
  1
35
 72
     1
 11
17.5
 21
15.30071638
 31
0.0
100
AcDbText
  0
LINE
  5
9B9
330
1F
100
AcDbEntity
  8
2
  6
CONTINUOUS
370
25
 62
7
100
AcDbLine
 10
99.16064622
 20
-1.8
 30
0.0
 11
133.0
 21
-1.800000000000004
 31
0.0
  0
LINE
  5
9BA
330
1F
100
AcDbEntity
  8
2
  6
CONTINUOUS
370
25
 62
7
100
AcDbLine
 10
133.0
 20
1.799999999999996
 30
0.0
 11
99.16064621999999
 21
1.8
 31
0.0
  0
LINE
  5
9BB
330
1F
100
AcDbEntity
  8
2
  6
CONTINUOUS
370
25
 62
7
100
AcDbLine
 10
132.0
 20
-8.800000000000004
 30
0.0
 11
132.0
 21
21.22499999999999
 31
0.0
  0
LINE
  5
9BC
330
1F
100
AcDbEntity
  8
2
  6
CONTINUOUS
370
25
 62
7
100
AcDbLine
 10
132.0
 20
-1.800000000000004
 30
0.0
 11
133.0
 21
-6.800000000000004
 31
0.0
  0
LINE
  5
9BD
330
1F
100
AcDbEntity
  8
2
  6
CONTINUOUS
370
25
 62
7
100
AcDbLine
 10
133.0
 20
-6.800000000000004
 30
0.0
 11
131.0
 21
-6.800000000000004
 31
0.0
  0
LINE
  5
9BE
330
1F
100
AcDbEntity
  8
2
  6
CONTINUOUS
370
25
 62
7
100
AcDbLine
 10
131.0
 20
-6.800000000000004
 30
0.0
 11
132.0
 21
-1.800000000000004
 31
0.0
  0
LINE
  5
9BF
330
1F
100
AcDbEntity
  8
2
  6
CONTINUOUS
370
25
 62
7
100
AcDbLine
 10
132.6870732139942
 20
-6.800000000000011
 30
0.0
 11
132.9478455356657
 21
-6.539227678328487
 31
0.0
  0
LINE
  5
9C0
330
1F
100
AcDbEntity
  8
2
  6
CONTINUOUS
370
25
 62
7
100
AcDbLine
 10
132.2628091452822
 20
-6.800000000000011
 30
0.0
 11
132.877134857547
 21
-6.18567428773521
 31
0.0
  0
LINE
  5
9C1
330
1F
100
AcDbEntity
  8
2
  6
CONTINUOUS
370
25
 62
7
100
AcDbLine
 10
131.8385450765703
 20
-6.799999999999997
 30
0.0
 11
132.8064241794284
 21
-5.832120897141934
 31
0.0
  0
LINE
  5
9C2
330
1F
100
AcDbEntity
  8
2
  6
CONTINUOUS
370
25
 62
7
100
AcDbLine
 10
131.4142810078584
 20
-6.800000000000011
 30
0.0
 11
132.7357135013097
 21
-5.478567506548657
 31
0.0
  0
LINE
  5
9C3
330
1F
100
AcDbEntity
  8
2
  6
CONTINUOUS
370
25
 62
7
100
AcDbLine
 10
131.0024957652134
 20
-6.787521173933072
 30
0.0
 11
132.6650028231911
 21
-5.125014115955409
 31
0.0
  0
LINE
  5
9C4
330
1F
100
AcDbEntity
  8
2
  6
CONTINUOUS
370
25
 62
7
100
AcDbLine
 10
131.1085617823914
 20
-6.257191088043172
 30
0.0
 11
132.5942921450724
 21
-4.771460725362132
 31
0.0
  0
LINE
  5
9C5
330
1F
100
AcDbEntity
  8
2
  6
CONTINUOUS
370
25
 62
7
100
AcDbLine
 10
131.2146277995694
 20
-5.726861002153257
 30
0.0
 11
132.5235814669538
 21
-4.417907334768856
 31
0.0
  0
LINE
  5
9C6
330
1F
100
AcDbEntity
  8
2
  6
CONTINUOUS
370
25
 62
7
100
AcDbLine
 10
131.3206938167473
 20
-5.196530916263356
 30
0.0
 11
132.4528707888351
 21
-4.064353944175579
 31
0.0
  0
LINE
  5
9C7
330
1F
100
AcDbEntity
  8
2
  6
CONTINUOUS
370
25
 62
7
100
AcDbLine
 10
131.4267598339253
 20
-4.666200830373455
 30
0.0
 11
132.3821601107165
 21
-3.710800553582317
 31
0.0
  0
LINE
  5
9C8
330
1F
100
AcDbEntity
  8
2
  6
CONTINUOUS
370
25
 62
7
100
AcDbLine
 10
131.5328258511033
 20
-4.13587074448354
 30
0.0
 11
132.3114494325978
 21
-3.357247162989026
 31
0.0
  0
LINE
  5
9C9
330
1F
100
AcDbEntity
  8
2
  6
CONTINUOUS
370
25
 62
7
100
AcDbLine
 10
131.6388918682813
 20
-3.605540658593625
 30
0.0
 11
132.2407387544791
 21
-3.003693772395778
 31
0.0
  0
LINE
  5
9CA
330
1F
100
AcDbEntity
  8
2
  6
CONTINUOUS
370
25
 62
7
100
AcDbLine
 10
131.7449578854593
 20
-3.075210572703753
 30
0.0
 11
132.1700280763605
 21
-2.650140381802515
 31
0.0
  0
LINE
  5
9CB
330
1F
100
AcDbEntity
  8
2
  6
CONTINUOUS
370
25
 62
7
100
AcDbLine
 10
131.8510239026372
 20
-2.544880486813852
 30
0.0
 11
132.0993173982419
 21
-2.296586991209253
 31
0.0
  0
LINE
  5
9CC
330
1F
100
AcDbEntity
  8
2
  6
CONTINUOUS
370
25
 62
7
100
AcDbLine
 10
131.9570899198152
 20
-2.014550400923952
 30
0.0
 11
132.0286067201232
 21
-1.943033600615976
 31
0.0
  0
LINE
  5
9CD
330
1F
100
AcDbEntity
  8
2
  6
CONTINUOUS
370
25
 62
7
100
AcDbLine
 10
131.0532864163695
 20
-6.533567918152215
 30
0.0
 11
131.3197184982173
 21
-6.799999999999997
 31
0.0
  0
LINE
  5
9CE
330
1F
100
AcDbEntity
  8
2
  6
CONTINUOUS
370
25
 62
7
100
AcDbLine
 10
131.1239970944882
 20
-6.180014527558953
 30
0.0
 11
131.7439825669293
 21
-6.800000000000011
 31
0.0
  0
LINE
  5
9CF
330
1F
100
AcDbEntity
  8
2
  6
CONTINUOUS
370
25
 62
7
100
AcDbLine
 10
131.1947077726069
 20
-5.826461136965662
 30
0.0
 11
132.1682466356412
 21
-6.799999999999997
 31
0.0
  0
LINE
  5
9D0
330
1F
100
AcDbEntity
  8
2
  6
CONTINUOUS
370
25
 62
7
100
AcDbLine
 10
131.2654184507255
 20
-5.4729077463724
 30
0.0
 11
132.5925107043531
 21
-6.799999999999997
 31
0.0
  0
LINE
  5
9D1
330
1F
100
AcDbEntity
  8
2
  6
CONTINUOUS
370
25
 62
7
100
AcDbLine
 10
131.3361291288442
 20
-5.119354355779137
 30
0.0
 11
132.9958063067338
 21
-6.779031533668714
 31
0.0
  0
LINE
  5
9D2
330
1F
100
AcDbEntity
  8
2
  6
CONTINUOUS
370
25
 62
7
100
AcDbLine
 10
131.4068398069628
 20
-4.765800965185875
 30
0.0
 11
132.8897402895558
 21
-6.248701447778814
 31
0.0
  0
LINE
  5
9D3
330
1F
100
AcDbEntity
  8
2
  6
CONTINUOUS
370
25
 62
7
100
AcDbLine
 10
131.4775504850815
 20
-4.412247574592612
 30
0.0
 11
132.7836742723778
 21
-5.718371361888899
 31
0.0
  0
LINE
  5
9D4
330
1F
100
AcDbEntity
  8
2
  6
CONTINUOUS
370
25
 62
7
100
AcDbLine
 10
131.5482611632002
 20
-4.05869418399935
 30
0.0
 11
132.6776082551998
 21
-5.188041275999012
 31
0.0
  0
LINE
  5
9D5
330
1F
100
AcDbEntity
  8
2
  6
CONTINUOUS
370
25
 62
7
100
AcDbLine
 10
131.6189718413188
 20
-3.705140793406088
 30
0.0
 11
132.5715422380218
 21
-4.657711190109097
 31
0.0
  0
LINE
  5
9D6
330
1F
100
AcDbEntity
  8
2
  6
CONTINUOUS
370
25
 62
7
100
AcDbLine
 10
131.6896825194374
 20
-3.351587402812797
 30
0.0
 11
132.4654762208438
 21
-4.127381104219182
 31
0.0
  0
LINE
  5
9D7
330
1F
100
AcDbEntity
  8
2
  6
CONTINUOUS
370
25
 62
7
100
AcDbLine
 10
131.7603931975561
 20
-2.99803401221952
 30
0.0
 11
132.3594102036658
 21
-3.597051018329282
 31
0.0
  0
LINE
  5
9D8
330
1F
100
AcDbEntity
  8
2
  6
CONTINUOUS
370
25
 62
7
100
AcDbLine
 10
131.8311038756748
 20
-2.644480621626272
 30
0.0
 11
132.2533441864879
 21
-3.066720932439381
 31
0.0
  0
LINE
  5
9D9
330
1F
100
AcDbEntity
  8
2
  6
CONTINUOUS
370
25
 62
7
100
AcDbLine
 10
131.9018145537934
 20
-2.290927231032981
 30
0.0
 11
132.1472781693099
 21
-2.536390846549466
 31
0.0
  0
LINE
  5
9DA
330
1F
100
AcDbEntity
  8
2
  6
CONTINUOUS
370
25
 62
7
100
AcDbLine
 10
131.9725252319121
 20
-1.937373840439733
 30
0.0
 11
132.0412121521319
 21
-2.006060760659565
 31
0.0
  0
LINE
  5
9DB
330
1F
100
AcDbEntity
  8
2
  6
CONTINUOUS
370
25
 62
7
100
AcDbLine
 10
132.0
 20
1.799999999999996
 30
0.0
 11
131.0
 21
6.799999999999996
 31
0.0
  0
LINE
  5
9DC
330
1F
100
AcDbEntity
  8
2
  6
CONTINUOUS
370
25
 62
7
100
AcDbLine
 10
131.0
 20
6.799999999999996
 30
0.0
 11
133.0
 21
6.799999999999996
 31
0.0
  0
LINE
  5
9DD
330
1F
100
AcDbEntity
  8
2
  6
CONTINUOUS
370
25
 62
7
100
AcDbLine
 10
133.0
 20
6.799999999999996
 30
0.0
 11
132.0
 21
1.799999999999996
 31
0.0
  0
LINE
  5
9DE
330
1F
100
AcDbEntity
  8
2
  6
CONTINUOUS
370
25
 62
7
100
AcDbLine
 10
131.9539710751348
 20
2.030144624325928
 30
0.0
 11
132.0690433872978
 21
2.145216936488893
 31
0.0
  0
LINE
  5
9DF
330
1F
100
AcDbEntity
  8
2
  6
CONTINUOUS
370
25
 62
7
100
AcDbLine
 10
131.8832603970162
 20
2.383698014919204
 30
0.0
 11
132.1751094044758
 21
2.675547022378808
 31
0.0
  0
LINE
  5
9E0
330
1F
100
AcDbEntity
  8
2
  6
CONTINUOUS
370
25
 62
7
100
AcDbLine
 10
131.8125497188975
 20
2.737251405512467
 30
0.0
 11
132.2811754216538
 21
3.205877108268709
 31
0.0
  0
LINE
  5
9E1
330
1F
100
AcDbEntity
  8
2
  6
CONTINUOUS
370
25
 62
7
100
AcDbLine
 10
131.7418390407789
 20
3.090804796105743
 30
0.0
 11
132.3872414388317
 21
3.736207194158609
 31
0.0
  0
LINE
  5
9E2
330
1F
100
AcDbEntity
  8
2
  6
CONTINUOUS
370
25
 62
7
100
AcDbLine
 10
131.6711283626602
 20
3.444358186699006
 30
0.0
 11
132.4933074560097
 21
4.266537280048539
 31
0.0
  0
LINE
  5
9E3
330
1F
100
AcDbEntity
  8
2
  6
CONTINUOUS
370
25
 62
7
100
AcDbLine
 10
131.6004176845415
 20
3.797911577292282
 30
0.0
 11
132.5993734731877
 21
4.796867365938425
 31
0.0
  0
LINE
  5
9E4
330
1F
100
AcDbEntity
  8
2
  6
CONTINUOUS
370
25
 62
7
100
AcDbLine
 10
131.5297070064229
 20
4.151464967885559
 30
0.0
 11
132.7054394903656
 21
5.327197451828312
 31
0.0
  0
LINE
  5
9E5
330
1F
100
AcDbEntity
  8
2
  6
CONTINUOUS
370
25
 62
7
100
AcDbLine
 10
131.4589963283042
 20
4.505018358478836
 30
0.0
 11
132.8115055075436
 21
5.857527537718212
 31
0.0
  0
LINE
  5
9E6
330
1F
100
AcDbEntity
  8
2
  6
CONTINUOUS
370
25
 62
7
100
AcDbLine
 10
131.3882856501856
 20
4.858571749072112
 30
0.0
 11
132.9175715247216
 21
6.387857623608127
 31
0.0
  0
LINE
  5
9E7
330
1F
100
AcDbEntity
  8
2
  6
CONTINUOUS
370
25
 62
7
100
AcDbLine
 10
131.3175749720669
 20
5.212125139665361
 30
0.0
 11
132.9054498324016
 21
6.799999999999997
 31
0.0
  0
LINE
  5
9E8
330
1F
100
AcDbEntity
  8
2
  6
CONTINUOUS
370
25
 62
7
100
AcDbLine
 10
131.2468642939483
 20
5.565678530258637
 30
0.0
 11
132.4811857636896
 21
6.799999999999997
 31
0.0
  0
LINE
  5
9E9
330
1F
100
AcDbEntity
  8
2
  6
CONTINUOUS
370
25
 62
7
100
AcDbLine
 10
131.1761536158296
 20
5.919231920851914
 30
0.0
 11
132.0569216949777
 21
6.799999999999997
 31
0.0
  0
LINE
  5
9EA
330
1F
100
AcDbEntity
  8
2
  6
CONTINUOUS
370
25
 62
7
100
AcDbLine
 10
131.105442937711
 20
6.27278531144519
 30
0.0
 11
131.6326576262658
 21
6.799999999999997
 31
0.0
  0
LINE
  5
9EB
330
1F
100
AcDbEntity
  8
2
  6
CONTINUOUS
370
25
 62
7
100
AcDbLine
 10
131.0347322595923
 20
6.626338702038453
 30
0.0
 11
131.2083935575538
 21
6.799999999999997
 31
0.0
  0
LINE
  5
9EC
330
1F
100
AcDbEntity
  8
2
  6
CONTINUOUS
370
25
 62
7
100
AcDbLine
 10
131.9866179975301
 20
1.866910012349678
 30
0.0
 11
132.00892133498
 21
1.844606674899794
 31
0.0
  0
LINE
  5
9ED
330
1F
100
AcDbEntity
  8
2
  6
CONTINUOUS
370
25
 62
7
100
AcDbLine
 10
131.8805519803521
 20
2.397240098239564
 30
0.0
 11
132.0796320130986
 21
2.198160065493056
 31
0.0
  0
LINE
  5
9EE
330
1F
100
AcDbEntity
  8
2
  6
CONTINUOUS
370
25
 62
7
100
AcDbLine
 10
131.7744859631741
 20
2.927570184129479
 30
0.0
 11
132.1503426912172
 21
2.551713456086318
 31
0.0
  0
LINE
  5
9EF
330
1F
100
AcDbEntity
  8
2
  6
CONTINUOUS
370
25
 62
7
100
AcDbLine
 10
131.6684199459961
 20
3.457900270019394
 30
0.0
 11
132.2210533693359
 21
2.905266846679623
 31
0.0
  0
LINE
  5
9F0
330
1F
100
AcDbEntity
  8
2
  6
CONTINUOUS
370
25
 62
7
100
AcDbLine
 10
131.5623539288181
 20
3.988230355909309
 30
0.0
 11
132.2917640474546
 21
3.258820237272872
 31
0.0
  0
LINE
  5
9F1
330
1F
100
AcDbEntity
  8
2
  6
CONTINUOUS
370
25
 62
7
100
AcDbLine
 10
131.4562879116402
 20
4.518560441799195
 30
0.0
 11
132.3624747255732
 21
3.612373627866148
 31
0.0
  0
LINE
  5
9F2
330
1F
100
AcDbEntity
  8
2
  6
CONTINUOUS
370
25
 62
7
100
AcDbLine
 10
131.3502218944622
 20
5.048890527689082
 30
0.0
 11
132.4331854036919
 21
3.965927018459396
 31
0.0
  0
LINE
  5
9F3
330
1F
100
AcDbEntity
  8
2
  6
CONTINUOUS
370
25
 62
7
100
AcDbLine
 10
131.2441558772842
 20
5.579220613578997
 30
0.0
 11
132.5038960818105
 21
4.319480409052687
 31
0.0
  0
LINE
  5
9F4
330
1F
100
AcDbEntity
  8
2
  6
CONTINUOUS
370
25
 62
7
100
AcDbLine
 10
131.1380898601062
 20
6.109550699468912
 30
0.0
 11
132.5746067599292
 21
4.67303379964595
 31
0.0
  0
LINE
  5
9F5
330
1F
100
AcDbEntity
  8
2
  6
CONTINUOUS
370
25
 62
7
100
AcDbLine
 10
131.0320238429283
 20
6.639880785358798
 30
0.0
 11
132.6453174380478
 21
5.026587190239226
 31
0.0
  0
LINE
  5
9F6
330
1F
100
AcDbEntity
  8
2
  6
CONTINUOUS
370
25
 62
7
100
AcDbLine
 10
131.296168696999
 20
6.799999999999997
 30
0.0
 11
132.7160281161665
 21
5.380140580832489
 31
0.0
  0
LINE
  5
9F7
330
1F
100
AcDbEntity
  8
2
  6
CONTINUOUS
370
25
 62
7
100
AcDbLine
 10
131.7204327657109
 20
6.799999999999997
 30
0.0
 11
132.7867387942852
 21
5.733693971425751
 31
0.0
  0
LINE
  5
9F8
330
1F
100
AcDbEntity
  8
2
  6
CONTINUOUS
370
25
 62
7
100
AcDbLine
 10
132.1446968344228
 20
6.799999999999997
 30
0.0
 11
132.8574494724038
 21
6.087247362019014
 31
0.0
  0
LINE
  5
9F9
330
1F
100
AcDbEntity
  8
2
  6
CONTINUOUS
370
25
 62
7
100
AcDbLine
 10
132.5689609031348
 20
6.799999999999997
 30
0.0
 11
132.9281601505224
 21
6.44080075261229
 31
0.0
  0
LINE
  5
9FA
330
1F
100
AcDbEntity
  8
2
  6
CONTINUOUS
370
25
 62
7
100
AcDbLine
 10
132.9932249718467
 20
6.799999999999997
 30
0.0
 11
132.9988708286411
 21
6.794354143205567
 31
0.0
  0
TEXT
  5
9FB
330
1F
100
AcDbEntity
  8
2
  6
CONTINUOUS
370
25
 62
7
100
AcDbText
 10
130.5
 20
12.78749999999999
 30
0.0
 40
3.5
  1
3.6
 50
90.00000000000001
 72
     1
 11
130.5
 21
16.28749999999999
 31
0.0
100
AcDbText
  0
CIRCLE
  5
9FC
330
1F
100
AcDbEntity
  8
2
  6
CONTINUOUS
370
25
 62
7
100
AcDbCircle
 10
128.75
 20
9.812499999999993
 30
0.0
 40
1.4
  0
LINE
  5
9FD
330
1F
100
AcDbEntity
  8
2
  6
CONTINUOUS
370
25
 62
7
100
AcDbLine
 10
130.15
 20
8.412499999999994
 30
0.0
 11
127.35
 21
11.21249999999999
 31
0.0
  0
LINE
  5
9FE
330
1F
100
AcDbEntity
  8
2
  6
CONTINUOUS
370
25
 62
7
100
AcDbLine
 10
35.0
 20
1.8
 30
0.0
 11
35.0
 21
24.8
 31
0.0
  0
LINE
  5
9FF
330
1F
100
AcDbEntity
  8
2
  6
CONTINUOUS
370
25
 62
7
100
AcDbLine
 10
100.0
 20
24.8
 30
0.0
 11
100.0
 21
0.0
 31
0.0
  0
LINE
  5
A00
330
1F
100
AcDbEntity
  8
2
  6
CONTINUOUS
370
25
 62
7
100
AcDbLine
 10
35.0
 20
23.8
 30
0.0
 11
100.0
 21
23.8
 31
0.0
  0
LINE
  5
A01
330
1F
100
AcDbEntity
  8
2
  6
CONTINUOUS
370
25
 62
7
100
AcDbLine
 10
35.0
 20
23.8
 30
0.0
 11
40.0
 21
24.8
 31
0.0
  0
LINE
  5
A02
330
1F
100
AcDbEntity
  8
2
  6
CONTINUOUS
370
25
 62
7
100
AcDbLine
 10
40.0
 20
24.8
 30
0.0
 11
40.0
 21
22.8
 31
0.0
  0
LINE
  5
A03
330
1F
100
AcDbEntity
  8
2
  6
CONTINUOUS
370
25
 62
7
100
AcDbLine
 10
40.0
 20
22.8
 30
0.0
 11
35.0
 21
23.8
 31
0.0
  0
LINE
  5
A04
330
1F
100
AcDbEntity
  8
2
  6
CONTINUOUS
370
25
 62
7
100
AcDbLine
 10
39.98409092841587
 20
22.80318181431683
 30
0.0
 11
40.0
 21
22.81909088590096
 31
0.0
  0
LINE
  5
A05
330
1F
100
AcDbEntity
  8
2
  6
CONTINUOUS
370
25
 62
7
100
AcDbLine
 10
39.63053753782259
 20
22.87389249243548
 30
0.0
 11
40.0
 21
23.24335495461289
 31
0.0
  0
LINE
  5
A06
330
1F
100
AcDbEntity
  8
2
  6
CONTINUOUS
370
25
 62
7
100
AcDbLine
 10
39.27698414722932
 20
22.94460317055414
 30
0.0
 11
40.0
 21
23.66761902332482
 31
0.0
  0
LINE
  5
A07
330
1F
100
AcDbEntity
  8
2
  6
CONTINUOUS
370
25
 62
7
100
AcDbLine
 10
38.92343075663604
 20
23.01531384867279
 30
0.0
 11
40.0
 21
24.09188309203675
 31
0.0
  0
LINE
  5
A08
330
1F
100
AcDbEntity
  8
2
  6
CONTINUOUS
370
25
 62
7
100
AcDbLine
 10
38.56987736604277
 20
23.08602452679144
 30
0.0
 11
40.0
 21
24.51614716074867
 31
0.0
  0
LINE
  5
A09
330
1F
100
AcDbEntity
  8
2
  6
CONTINUOUS
370
25
 62
7
100
AcDbLine
 10
38.2163239754495
 20
23.1567352049101
 30
0.0
 11
39.82448596317425
 21
24.76489719263485
 31
0.0
  0
LINE
  5
A0A
330
1F
100
AcDbEntity
  8
2
  6
CONTINUOUS
370
25
 62
7
100
AcDbLine
 10
37.86277058485622
 20
23.22744588302876
 30
0.0
 11
39.29415587728434
 21
24.65883117545687
 31
0.0
  0
LINE
  5
A0B
330
1F
100
AcDbEntity
  8
2
  6
CONTINUOUS
370
25
 62
7
100
AcDbLine
 10
37.50921719426295
 20
23.29815656114741
 30
0.0
 11
38.76382579139443
 21
24.55276515827889
 31
0.0
  0
LINE
  5
A0C
330
1F
100
AcDbEntity
  8
2
  6
CONTINUOUS
370
25
 62
7
100
AcDbLine
 10
37.15566380366968
 20
23.36886723926607
 30
0.0
 11
38.23349570550452
 21
24.4466991411009
 31
0.0
  0
LINE
  5
A0D
330
1F
100
AcDbEntity
  8
2
  6
CONTINUOUS
370
25
 62
7
100
AcDbLine
 10
36.80211041307641
 20
23.43957791738472
 30
0.0
 11
37.70316561961461
 21
24.34063312392292
 31
0.0
  0
LINE
  5
A0E
330
1F
100
AcDbEntity
  8
2
  6
CONTINUOUS
370
25
 62
7
100
AcDbLine
 10
36.44855702248313
 20
23.51028859550338
 30
0.0
 11
37.1728355337247
 21
24.23456710674494
 31
0.0
  0
LINE
  5
A0F
330
1F
100
AcDbEntity
  8
2
  6
CONTINUOUS
370
25
 62
7
100
AcDbLine
 10
36.09500363188986
 20
23.58099927362203
 30
0.0
 11
36.64250544783479
 21
24.12850108956696
 31
0.0
  0
LINE
  5
A10
330
1F
100
AcDbEntity
  8
2
  6
CONTINUOUS
370
25
 62
7
100
AcDbLine
 10
35.74145024129658
 20
23.65170995174068
 30
0.0
 11
36.11217536194488
 21
24.02243507238898
 31
0.0
  0
LINE
  5
A11
330
1F
100
AcDbEntity
  8
2
  6
CONTINUOUS
370
25
 62
7
100
AcDbLine
 10
35.38789685070331
 20
23.72242062985934
 30
0.0
 11
35.58184527605497
 21
23.916369055211
 31
0.0
  0
LINE
  5
A12
330
1F
100
AcDbEntity
  8
2
  6
CONTINUOUS
370
25
 62
7
100
AcDbLine
 10
35.03434346011004
 20
23.79313130797799
 30
0.0
 11
35.05151519016506
 21
23.81030303803301
 31
0.0
  0
LINE
  5
A13
330
1F
100
AcDbEntity
  8
2
  6
CONTINUOUS
370
25
 62
7
100
AcDbLine
 10
35.31920993048324
 20
23.86384198609665
 30
0.0
 11
35.47881489572487
 21
23.70423702085503
 31
0.0
  0
LINE
  5
A14
330
1F
100
AcDbEntity
  8
2
  6
CONTINUOUS
370
25
 62
7
100
AcDbLine
 10
35.67276332107652
 20
23.9345526642153
 30
0.0
 11
36.00914498161477
 21
23.59817100367705
 31
0.0
  0
LINE
  5
A15
330
1F
100
AcDbEntity
  8
2
  6
CONTINUOUS
370
25
 62
7
100
AcDbLine
 10
36.02631671166979
 20
24.00526334233396
 30
0.0
 11
36.53947506750468
 21
23.49210498649906
 31
0.0
  0
LINE
  5
A16
330
1F
100
AcDbEntity
  8
2
  6
CONTINUOUS
370
25
 62
7
100
AcDbLine
 10
36.37987010226306
 20
24.07597402045261
 30
0.0
 11
37.0698051533946
 21
23.38603896932108
 31
0.0
  0
LINE
  5
A17
330
1F
100
AcDbEntity
  8
2
  6
CONTINUOUS
370
25
 62
7
100
AcDbLine
 10
36.73342349285634
 20
24.14668469857127
 30
0.0
 11
37.6001352392845
 21
23.2799729521431
 31
0.0
  0
LINE
  5
A18
330
1F
100
AcDbEntity
  8
2
  6
CONTINUOUS
370
25
 62
7
100
AcDbLine
 10
37.08697688344961
 20
24.21739537668992
 30
0.0
 11
38.13046532517441
 21
23.17390693496512
 31
0.0
  0
LINE
  5
A19
330
1F
100
AcDbEntity
  8
2
  6
CONTINUOUS
370
25
 62
7
100
AcDbLine
 10
37.44053027404289
 20
24.28810605480858
 30
0.0
 11
38.66079541106433
 21
23.06784091778713
 31
0.0
  0
LINE
  5
A1A
330
1F
100
AcDbEntity
  8
2
  6
CONTINUOUS
370
25
 62
7
100
AcDbLine
 10
37.79408366463615
 20
24.35881673292723
 30
0.0
 11
39.19112549695424
 21
22.96177490060915
 31
0.0
  0
LINE
  5
A1B
330
1F
100
AcDbEntity
  8
2
  6
CONTINUOUS
370
25
 62
7
100
AcDbLine
 10
38.14763705522943
 20
24.42952741104589
 30
0.0
 11
39.72145558284414
 21
22.85570888343117
 31
0.0
  0
LINE
  5
A1C
330
1F
100
AcDbEntity
  8
2
  6
CONTINUOUS
370
25
 62
7
100
AcDbLine
 10
38.5011904458227
 20
24.50023808916454
 30
0.0
 11
40.0
 21
23.00142853498725
 31
0.0
  0
LINE
  5
A1D
330
1F
100
AcDbEntity
  8
2
  6
CONTINUOUS
370
25
 62
7
100
AcDbLine
 10
38.85474383641598
 20
24.5709487672832
 30
0.0
 11
40.0
 21
23.42569260369918
 31
0.0
  0
LINE
  5
A1E
330
1F
100
AcDbEntity
  8
2
  6
CONTINUOUS
370
25
 62
7
100
AcDbLine
 10
39.20829722700925
 20
24.64165944540185
 30
0.0
 11
40.0
 21
23.8499566724111
 31
0.0
  0
LINE
  5
A1F
330
1F
100
AcDbEntity
  8
2
  6
CONTINUOUS
370
25
 62
7
100
AcDbLine
 10
39.56185061760252
 20
24.71237012352051
 30
0.0
 11
40.0
 21
24.27422074112303
 31
0.0
  0
LINE
  5
A20
330
1F
100
AcDbEntity
  8
2
  6
CONTINUOUS
370
25
 62
7
100
AcDbLine
 10
39.91540400819579
 20
24.78308080163916
 30
0.0
 11
40.0
 21
24.69848480983496
 31
0.0
  0
LINE
  5
A21
330
1F
100
AcDbEntity
  8
2
  6
CONTINUOUS
370
25
 62
7
100
AcDbLine
 10
100.0
 20
23.8
 30
0.0
 11
95.0
 21
22.8
 31
0.0
  0
LINE
  5
A22
330
1F
100
AcDbEntity
  8
2
  6
CONTINUOUS
370
25
 62
7
100
AcDbLine
 10
95.0
 20
22.8
 30
0.0
 11
95.0
 21
24.8
 31
0.0
  0
LINE
  5
A23
330
1F
100
AcDbEntity
  8
2
  6
CONTINUOUS
370
25
 62
7
100
AcDbLine
 10
95.0
 20
24.8
 30
0.0
 11
100.0
 21
23.8
 31
0.0
  0
LINE
  5
A24
330
1F
100
AcDbEntity
  8
2
  6
CONTINUOUS
370
25
 62
7
100
AcDbLine
 10
99.50670397152969
 20
23.70134079430593
 30
0.0
 11
99.67113598101979
 21
23.86577280379603
 31
0.0
  0
LINE
  5
A25
330
1F
100
AcDbEntity
  8
2
  6
CONTINUOUS
370
25
 62
7
100
AcDbLine
 10
98.97637388563976
 20
23.59527477712795
 30
0.0
 11
99.31758259042651
 21
23.93648348191469
 31
0.0
  0
LINE
  5
A26
330
1F
100
AcDbEntity
  8
2
  6
CONTINUOUS
370
25
 62
7
100
AcDbLine
 10
98.44604379974986
 20
23.48920875994997
 30
0.0
 11
98.96402919983323
 21
24.00719416003334
 31
0.0
  0
LINE
  5
A27
330
1F
100
AcDbEntity
  8
2
  6
CONTINUOUS
370
25
 62
7
100
AcDbLine
 10
97.91571371385993
 20
23.38314274277198
 30
0.0
 11
98.61047580923997
 21
24.077904838152
 31
0.0
  0
LINE
  5
A28
330
1F
100
AcDbEntity
  8
2
  6
CONTINUOUS
370
25
 62
7
100
AcDbLine
 10
97.38538362797004
 20
23.27707672559402
 30
0.0
 11
98.2569224186467
 21
24.14861551627066
 31
0.0
  0
LINE
  5
A29
330
1F
100
AcDbEntity
  8
2
  6
CONTINUOUS
370
25
 62
7
100
AcDbLine
 10
96.85505354208013
 20
23.17101070841602
 30
0.0
 11
97.90336902805342
 21
24.21932619438931
 31
0.0
  0
LINE
  5
A2A
330
1F
100
AcDbEntity
  8
2
  6
CONTINUOUS
370
25
 62
7
100
AcDbLine
 10
96.32472345619021
 20
23.06494469123805
 30
0.0
 11
97.54981563746014
 21
24.29003687250796
 31
0.0
  0
LINE
  5
A2B
330
1F
100
AcDbEntity
  8
2
  6
CONTINUOUS
370
25
 62
7
100
AcDbLine
 10
95.79439337030028
 20
22.95887867406005
 30
0.0
 11
97.19626224686687
 21
24.36074755062663
 31
0.0
  0
LINE
  5
A2C
330
1F
100
AcDbEntity
  8
2
  6
CONTINUOUS
370
25
 62
7
100
AcDbLine
 10
95.26406328441038
 20
22.85281265688209
 30
0.0
 11
96.84270885627359
 21
24.43145822874526
 31
0.0
  0
LINE
  5
A2D
330
1F
100
AcDbEntity
  8
2
  6
CONTINUOUS
370
25
 62
7
100
AcDbLine
 10
95.0
 20
23.01301344118362
 30
0.0
 11
96.48915546568033
 21
24.50216890686393
 31
0.0
  0
LINE
  5
A2E
330
1F
100
AcDbEntity
  8
2
  6
CONTINUOUS
370
25
 62
7
100
AcDbLine
 10
95.0
 20
23.43727750989555
 30
0.0
 11
96.13560207508706
 21
24.57287958498259
 31
0.0
  0
LINE
  5
A2F
330
1F
100
AcDbEntity
  8
2
  6
CONTINUOUS
370
25
 62
7
100
AcDbLine
 10
95.0
 20
23.86154157860748
 30
0.0
 11
95.78204868449377
 21
24.64359026310124
 31
0.0
  0
LINE
  5
A30
330
1F
100
AcDbEntity
  8
2
  6
CONTINUOUS
370
25
 62
7
100
AcDbLine
 10
95.0
 20
24.28580564731941
 30
0.0
 11
95.4284952939005
 21
24.7143009412199
 31
0.0
  0
LINE
  5
A31
330
1F
100
AcDbEntity
  8
2
  6
CONTINUOUS
370
25
 62
7
100
AcDbLine
 10
95.0
 20
24.71006971603133
 30
0.0
 11
95.0749419033072
 21
24.78501161933855
 31
0.0
  0
LINE
  5
A32
330
1F
100
AcDbEntity
  8
2
  6
CONTINUOUS
370
25
 62
7
100
AcDbLine
 10
95.0
 20
23.15575746753799
 30
0.0
 11
95.29646455628166
 21
22.85929291125633
 31
0.0
  0
LINE
  5
A33
330
1F
100
AcDbEntity
  8
2
  6
CONTINUOUS
370
25
 62
7
100
AcDbLine
 10
95.0
 20
23.58002153624992
 30
0.0
 11
95.65001794687493
 21
22.93000358937498
 31
0.0
  0
LINE
  5
A34
330
1F
100
AcDbEntity
  8
2
  6
CONTINUOUS
370
25
 62
7
100
AcDbLine
 10
95.0
 20
24.00428560496184
 30
0.0
 11
96.0035713374682
 21
23.00071426749363
 31
0.0
  0
LINE
  5
A35
330
1F
100
AcDbEntity
  8
2
  6
CONTINUOUS
370
25
 62
7
100
AcDbLine
 10
95.0
 20
24.42854967367378
 30
0.0
 11
96.35712472806148
 21
23.07142494561229
 31
0.0
  0
LINE
  5
A36
330
1F
100
AcDbEntity
  8
2
  6
CONTINUOUS
370
25
 62
7
100
AcDbLine
 10
95.06601717798213
 20
24.78679656440357
 30
0.0
 11
96.71067811865476
 21
23.14213562373094
 31
0.0
  0
LINE
  5
A37
330
1F
100
AcDbEntity
  8
2
  6
CONTINUOUS
370
25
 62
7
100
AcDbLine
 10
95.59634726387205
 20
24.68073054722559
 30
0.0
 11
97.06423150924803
 21
23.2128463018496
 31
0.0
  0
LINE
  5
A38
330
1F
100
AcDbEntity
  8
2
  6
CONTINUOUS
370
25
 62
7
100
AcDbLine
 10
96.12667734976193
 20
24.57466453004761
 30
0.0
 11
97.4177848998413
 21
23.28355697996825
 31
0.0
  0
LINE
  5
A39
330
1F
100
AcDbEntity
  8
2
  6
CONTINUOUS
370
25
 62
7
100
AcDbLine
 10
96.65700743565185
 20
24.46859851286963
 30
0.0
 11
97.77133829043457
 21
23.3542676580869
 31
0.0
  0
LINE
  5
A3A
330
1F
100
AcDbEntity
  8
2
  6
CONTINUOUS
370
25
 62
7
100
AcDbLine
 10
97.18733752154176
 20
24.36253249569165
 30
0.0
 11
98.12489168102783
 21
23.42497833620556
 31
0.0
  0
LINE
  5
A3B
330
1F
100
AcDbEntity
  8
2
  6
CONTINUOUS
370
25
 62
7
100
AcDbLine
 10
97.71766760743168
 20
24.25646647851367
 30
0.0
 11
98.47844507162111
 21
23.49568901432422
 31
0.0
  0
LINE
  5
A3C
330
1F
100
AcDbEntity
  8
2
  6
CONTINUOUS
370
25
 62
7
100
AcDbLine
 10
98.24799769332157
 20
24.15040046133569
 30
0.0
 11
98.83199846221439
 21
23.56639969244286
 31
0.0
  0
LINE
  5
A3D
330
1F
100
AcDbEntity
  8
2
  6
CONTINUOUS
370
25
 62
7
100
AcDbLine
 10
98.77832777921148
 20
24.04433444415771
 30
0.0
 11
99.18555185280765
 21
23.63711037056153
 31
0.0
  0
LINE
  5
A3E
330
1F
100
AcDbEntity
  8
2
  6
CONTINUOUS
370
25
 62
7
100
AcDbLine
 10
99.30865786510138
 20
23.93826842697973
 30
0.0
 11
99.53910524340093
 21
23.70782104868019
 31
0.0
  0
LINE
  5
A3F
330
1F
100
AcDbEntity
  8
2
  6
CONTINUOUS
370
25
 62
7
100
AcDbLine
 10
99.8389879509913
 20
23.83220240980174
 30
0.0
 11
99.8926586339942
 21
23.77853172679883
 31
0.0
  0
TEXT
  5
A40
330
1F
100
AcDbEntity
  8
2
  6
CONTINUOUS
370
25
 62
7
100
AcDbText
 10
64.58333333333333
 20
25.3
 30
0.0
 40
3.5
  1
65
 72
     1
 11
67.5
 21
25.3
 31
0.0
100
AcDbText
  0
LINE
  5
A41
330
1F
100
AcDbEntity
  8
2
  6
CONTINUOUS
370
25
 62
7
100
AcDbLine
 10
52.2
 20
-1.8
 30
0.0
 11
52.2
 21
-34.8
 31
0.0
  0
LINE
  5
A42
330
1F
100
AcDbEntity
  8
2
  6
CONTINUOUS
370
25
 62
7
100
AcDbLine
 10
100.0
 20
-34.8
 30
0.0
 11
100.0
 21
0.0
 31
0.0
  0
LINE
  5
A43
330
1F
100
AcDbEntity
  8
2
  6
CONTINUOUS
370
25
 62
7
100
AcDbLine
 10
52.2
 20
-33.8
 30
0.0
 11
100.0
 21
-33.8
 31
0.0
  0
LINE
  5
A44
330
1F
100
AcDbEntity
  8
2
  6
CONTINUOUS
370
25
 62
7
100
AcDbLine
 10
52.2
 20
-33.8
 30
0.0
 11
57.2
 21
-32.8
 31
0.0
  0
LINE
  5
A45
330
1F
100
AcDbEntity
  8
2
  6
CONTINUOUS
370
25
 62
7
100
AcDbLine
 10
57.2
 20
-32.8
 30
0.0
 11
57.2
 21
-34.8
 31
0.0
  0
LINE
  5
A46
330
1F
100
AcDbEntity
  8
2
  6
CONTINUOUS
370
25
 62
7
100
AcDbLine
 10
57.2
 20
-34.8
 30
0.0
 11
52.2
 21
-33.8
 31
0.0
  0
LINE
  5
A47
330
1F
100
AcDbEntity
  8
2
  6
CONTINUOUS
370
25
 62
7
100
AcDbLine
 10
57.05742748203538
 20
-34.77148549640708
 30
0.0
 11
57.2
 21
-34.62891297844246
 31
0.0
  0
LINE
  5
A48
330
1F
100
AcDbEntity
  8
2
  6
CONTINUOUS
370
25
 62
7
100
AcDbLine
 10
56.70387409144211
 20
-34.70077481828842
 30
0.0
 11
57.2
 21
-34.20464890973054
 31
0.0
  0
LINE
  5
A49
330
1F
100
AcDbEntity
  8
2
  6
CONTINUOUS
370
25
 62
7
100
AcDbLine
 10
56.35032070084884
 20
-34.63006414016976
 30
0.0
 11
57.2
 21
-33.78038484101862
 31
0.0
  0
LINE
  5
A4A
330
1F
100
AcDbEntity
  8
2
  6
CONTINUOUS
370
25
 62
7
100
AcDbLine
 10
55.99676731025556
 20
-34.55935346205111
 30
0.0
 11
57.2
 21
-33.35612077230668
 31
0.0
  0
LINE
  5
A4B
330
1F
100
AcDbEntity
  8
2
  6
CONTINUOUS
370
25
 62
7
100
AcDbLine
 10
55.64321391966229
 20
-34.48864278393246
 30
0.0
 11
57.2
 21
-32.93185670359475
 31
0.0
  0
LINE
  5
A4C
330
1F
100
AcDbEntity
  8
2
  6
CONTINUOUS
370
25
 62
7
100
AcDbLine
 10
55.28966052906901
 20
-34.4179321058138
 30
0.0
 11
56.83449079360352
 21
-32.87310184127929
 31
0.0
  0
LINE
  5
A4D
330
1F
100
AcDbEntity
  8
2
  6
CONTINUOUS
370
25
 62
7
100
AcDbLine
 10
54.93610713847573
 20
-34.34722142769515
 30
0.0
 11
56.30416070771361
 21
-32.97916785845727
 31
0.0
  0
LINE
  5
A4E
330
1F
100
AcDbEntity
  8
2
  6
CONTINUOUS
370
25
 62
7
100
AcDbLine
 10
54.58255374788246
 20
-34.27651074957649
 30
0.0
 11
55.77383062182371
 21
-33.08523387563525
 31
0.0
  0
LINE
  5
A4F
330
1F
100
AcDbEntity
  8
2
  6
CONTINUOUS
370
25
 62
7
100
AcDbLine
 10
54.22900035728918
 20
-34.20580007145784
 30
0.0
 11
55.24350053593379
 21
-33.19129989281323
 31
0.0
  0
LINE
  5
A50
330
1F
100
AcDbEntity
  8
2
  6
CONTINUOUS
370
25
 62
7
100
AcDbLine
 10
53.87544696669591
 20
-34.13508939333919
 30
0.0
 11
54.71317045004388
 21
-33.29736590999121
 31
0.0
  0
LINE
  5
A51
330
1F
100
AcDbEntity
  8
2
  6
CONTINUOUS
370
25
 62
7
100
AcDbLine
 10
53.52189357610264
 20
-34.06437871522053
 30
0.0
 11
54.18284036415396
 21
-33.4034319271692
 31
0.0
  0
LINE
  5
A52
330
1F
100
AcDbEntity
  8
2
  6
CONTINUOUS
370
25
 62
7
100
AcDbLine
 10
53.16834018550936
 20
-33.99366803710187
 30
0.0
 11
53.65251027826405
 21
-33.50949794434718
 31
0.0
  0
LINE
  5
A53
330
1F
100
AcDbEntity
  8
2
  6
CONTINUOUS
370
25
 62
7
100
AcDbLine
 10
52.81478679491609
 20
-33.92295735898322
 30
0.0
 11
53.12218019237414
 21
-33.61556396152517
 31
0.0
  0
LINE
  5
A54
330
1F
100
AcDbEntity
  8
2
  6
CONTINUOUS
370
25
 62
7
100
AcDbLine
 10
52.46123340432281
 20
-33.85224668086456
 30
0.0
 11
52.59185010648422
 21
-33.72162997870315
 31
0.0
  0
LINE
  5
A55
330
1F
100
AcDbEntity
  8
2
  6
CONTINUOUS
370
25
 62
7
100
AcDbLine
 10
52.52276736456986
 20
-33.73544652708603
 30
0.0
 11
52.68415104685479
 21
-33.89683020937096
 31
0.0
  0
LINE
  5
A56
330
1F
100
AcDbEntity
  8
2
  6
CONTINUOUS
370
25
 62
7
100
AcDbLine
 10
52.87632075516314
 20
-33.66473584896737
 30
0.0
 11
53.2144811327447
 21
-34.00289622654894
 31
0.0
  0
LINE
  5
A57
330
1F
100
AcDbEntity
  8
2
  6
CONTINUOUS
370
25
 62
7
100
AcDbLine
 10
53.2298741457564
 20
-33.59402517084871
 30
0.0
 11
53.74481121863462
 21
-34.10896224372692
 31
0.0
  0
LINE
  5
A58
330
1F
100
AcDbEntity
  8
2
  6
CONTINUOUS
370
25
 62
7
100
AcDbLine
 10
53.58342753634968
 20
-33.52331449273006
 30
0.0
 11
54.27514130452454
 21
-34.21502826090491
 31
0.0
  0
LINE
  5
A59
330
1F
100
AcDbEntity
  8
2
  6
CONTINUOUS
370
25
 62
7
100
AcDbLine
 10
53.93698092694295
 20
-33.4526038146114
 30
0.0
 11
54.80547139041445
 21
-34.32109427808289
 31
0.0
  0
LINE
  5
A5A
330
1F
100
AcDbEntity
  8
2
  6
CONTINUOUS
370
25
 62
7
100
AcDbLine
 10
54.29053431753623
 20
-33.38189313649275
 30
0.0
 11
55.33580147630435
 21
-34.42716029526087
 31
0.0
  0
LINE
  5
A5B
330
1F
100
AcDbEntity
  8
2
  6
CONTINUOUS
370
25
 62
7
100
AcDbLine
 10
54.6440877081295
 20
-33.31118245837409
 30
0.0
 11
55.86613156219427
 21
-34.53322631243885
 31
0.0
  0
LINE
  5
A5C
330
1F
100
AcDbEntity
  8
2
  6
CONTINUOUS
370
25
 62
7
100
AcDbLine
 10
54.99764109872278
 20
-33.24047178025543
 30
0.0
 11
56.39646164808419
 21
-34.63929232961684
 31
0.0
  0
LINE
  5
A5D
330
1F
100
AcDbEntity
  8
2
  6
CONTINUOUS
370
25
 62
7
100
AcDbLine
 10
55.35119448931606
 20
-33.16976110213678
 30
0.0
 11
56.9267917339741
 21
-34.74535834679482
 31
0.0
  0
LINE
  5
A5E
330
1F
100
AcDbEntity
  8
2
  6
CONTINUOUS
370
25
 62
7
100
AcDbLine
 10
55.70474787990933
 20
-33.09905042401813
 30
0.0
 11
57.2
 21
-34.59430254410879
 31
0.0
  0
LINE
  5
A5F
330
1F
100
AcDbEntity
  8
2
  6
CONTINUOUS
370
25
 62
7
100
AcDbLine
 10
56.05830127050261
 20
-33.02833974589947
 30
0.0
 11
57.2
 21
-34.17003847539685
 31
0.0
  0
LINE
  5
A60
330
1F
100
AcDbEntity
  8
2
  6
CONTINUOUS
370
25
 62
7
100
AcDbLine
 10
56.41185466109589
 20
-32.95762906778081
 30
0.0
 11
57.2
 21
-33.74577440668492
 31
0.0
  0
LINE
  5
A61
330
1F
100
AcDbEntity
  8
2
  6
CONTINUOUS
370
25
 62
7
100
AcDbLine
 10
56.76540805168916
 20
-32.88691838966216
 30
0.0
 11
57.2
 21
-33.321510337973
 31
0.0
  0
LINE
  5
A62
330
1F
100
AcDbEntity
  8
2
  6
CONTINUOUS
370
25
 62
7
100
AcDbLine
 10
57.11896144228244
 20
-32.81620771154351
 30
0.0
 11
57.2
 21
-32.89724626926107
 31
0.0
  0
LINE
  5
A63
330
1F
100
AcDbEntity
  8
2
  6
CONTINUOUS
370
25
 62
7
100
AcDbLine
 10
100.0
 20
-33.8
 30
0.0
 11
95.0
 21
-34.8
 31
0.0
  0
LINE
  5
A64
330
1F
100
AcDbEntity
  8
2
  6
CONTINUOUS
370
25
 62
7
100
AcDbLine
 10
95.0
 20
-34.8
 30
0.0
 11
95.0
 21
-32.8
 31
0.0
  0
LINE
  5
A65
330
1F
100
AcDbEntity
  8
2
  6
CONTINUOUS
370
25
 62
7
100
AcDbLine
 10
95.0
 20
-32.8
 30
0.0
 11
100.0
 21
-33.8
 31
0.0
  0
LINE
  5
A66
330
1F
100
AcDbEntity
  8
2
  6
CONTINUOUS
370
25
 62
7
100
AcDbLine
 10
99.9121423763921
 20
-33.81757152472157
 30
0.0
 11
99.94142825092807
 21
-33.7882856501856
 31
0.0
  0
LINE
  5
A67
330
1F
100
AcDbEntity
  8
2
  6
CONTINUOUS
370
25
 62
7
100
AcDbLine
 10
99.38181229050217
 20
-33.92363754189957
 30
0.0
 11
99.5878748603348
 21
-33.71757497206694
 31
0.0
  0
LINE
  5
A68
330
1F
100
AcDbEntity
  8
2
  6
CONTINUOUS
370
25
 62
7
100
AcDbLine
 10
98.85148220461227
 20
-34.02970355907754
 30
0.0
 11
99.2343214697415
 21
-33.64686429394831
 31
0.0
  0
LINE
  5
A69
330
1F
100
AcDbEntity
  8
2
  6
CONTINUOUS
370
25
 62
7
100
AcDbLine
 10
98.32115211872234
 20
-34.13576957625553
 30
0.0
 11
98.88076807914823
 21
-33.57615361582965
 31
0.0
  0
LINE
  5
A6A
330
1F
100
AcDbEntity
  8
2
  6
CONTINUOUS
370
25
 62
7
100
AcDbLine
 10
97.79082203283244
 20
-34.24183559343351
 30
0.0
 11
98.52721468855496
 21
-33.50544293771099
 31
0.0
  0
LINE
  5
A6B
330
1F
100
AcDbEntity
  8
2
  6
CONTINUOUS
370
25
 62
7
100
AcDbLine
 10
97.26049194694252
 20
-34.34790161061149
 30
0.0
 11
98.1736612979617
 21
-33.43473225959233
 31
0.0
  0
LINE
  5
A6C
330
1F
100
AcDbEntity
  8
2
  6
CONTINUOUS
370
25
 62
7
100
AcDbLine
 10
96.73016186105258
 20
-34.45396762778948
 30
0.0
 11
97.82010790736841
 21
-33.36402158147368
 31
0.0
  0
LINE
  5
A6D
330
1F
100
AcDbEntity
  8
2
  6
CONTINUOUS
370
25
 62
7
100
AcDbLine
 10
96.19983177516266
 20
-34.56003364496746
 30
0.0
 11
97.46655451677512
 21
-33.29331090335503
 31
0.0
  0
LINE
  5
A6E
330
1F
100
AcDbEntity
  8
2
  6
CONTINUOUS
370
25
 62
7
100
AcDbLine
 10
95.66950168927275
 20
-34.66609966214544
 30
0.0
 11
97.11300112618184
 21
-33.22260022523638
 31
0.0
  0
LINE
  5
A6F
330
1F
100
AcDbEntity
  8
2
  6
CONTINUOUS
370
25
 62
7
100
AcDbLine
 10
95.13917160338283
 20
-34.77216567932343
 30
0.0
 11
96.7594477355886
 21
-33.15188954711771
 31
0.0
  0
LINE
  5
A70
330
1F
100
AcDbEntity
  8
2
  6
CONTINUOUS
370
25
 62
7
100
AcDbLine
 10
95.0
 20
-34.48707321399433
 30
0.0
 11
96.4058943449953
 21
-33.08117886899905
 31
0.0
  0
LINE
  5
A71
330
1F
100
AcDbEntity
  8
2
  6
CONTINUOUS
370
25
 62
7
100
AcDbLine
 10
95.0
 20
-34.06280914528241
 30
0.0
 11
96.05234095440203
 21
-33.0104681908804
 31
0.0
  0
LINE
  5
A72
330
1F
100
AcDbEntity
  8
2
  6
CONTINUOUS
370
25
 62
7
100
AcDbLine
 10
95.0
 20
-33.63854507657049
 30
0.0
 11
95.69878756380875
 21
-32.93975751276175
 31
0.0
  0
LINE
  5
A73
330
1F
100
AcDbEntity
  8
2
  6
CONTINUOUS
370
25
 62
7
100
AcDbLine
 10
95.0
 20
-33.21428100785855
 30
0.0
 11
95.34523417321546
 21
-32.8690468346431
 31
0.0
  0
LINE
  5
A74
330
1F
100
AcDbEntity
  8
2
  6
CONTINUOUS
370
25
 62
7
100
AcDbLine
 10
95.0
 20
-34.54415587728429
 30
0.0
 11
95.21320343559643
 21
-34.75735931288071
 31
0.0
  0
LINE
  5
A75
330
1F
100
AcDbEntity
  8
2
  6
CONTINUOUS
370
25
 62
7
100
AcDbLine
 10
95.0
 20
-34.11989180857236
 30
0.0
 11
95.5667568261897
 21
-34.68664863476205
 31
0.0
  0
LINE
  5
A76
330
1F
100
AcDbEntity
  8
2
  6
CONTINUOUS
370
25
 62
7
100
AcDbLine
 10
95.0
 20
-33.69562773986043
 30
0.0
 11
95.92031021678297
 21
-34.6159379566434
 31
0.0
  0
LINE
  5
A77
330
1F
100
AcDbEntity
  8
2
  6
CONTINUOUS
370
25
 62
7
100
AcDbLine
 10
95.0
 20
-33.27136367114849
 30
0.0
 11
96.27386360737626
 21
-34.54522727852475
 31
0.0
  0
LINE
  5
A78
330
1F
100
AcDbEntity
  8
2
  6
CONTINUOUS
370
25
 62
7
100
AcDbLine
 10
95.0
 20
-32.84709960243657
 30
0.0
 11
96.62741699796953
 21
-34.4745166004061
 31
0.0
  0
LINE
  5
A79
330
1F
100
AcDbEntity
  8
2
  6
CONTINUOUS
370
25
 62
7
100
AcDbLine
 10
95.47145558284419
 20
-32.89429111656882
 30
0.0
 11
96.9809703885628
 21
-34.40380592228743
 31
0.0
  0
LINE
  5
A7A
330
1F
100
AcDbEntity
  8
2
  6
CONTINUOUS
370
25
 62
7
100
AcDbLine
 10
96.0017856687341
 20
-33.00035713374682
 30
0.0
 11
97.33452377915607
 21
-34.33309524416878
 31
0.0
  0
LINE
  5
A7B
330
1F
100
AcDbEntity
  8
2
  6
CONTINUOUS
370
25
 62
7
100
AcDbLine
 10
96.53211575462402
 20
-33.1064231509248
 30
0.0
 11
97.68807716974935
 21
-34.26238456605013
 31
0.0
  0
LINE
  5
A7C
330
1F
100
AcDbEntity
  8
2
  6
CONTINUOUS
370
25
 62
7
100
AcDbLine
 10
97.06244584051393
 20
-33.21248916810278
 30
0.0
 11
98.04163056034261
 21
-34.19167388793148
 31
0.0
  0
LINE
  5
A7D
330
1F
100
AcDbEntity
  8
2
  6
CONTINUOUS
370
25
 62
7
100
AcDbLine
 10
97.59277592640385
 20
-33.31855518528076
 30
0.0
 11
98.39518395093589
 21
-34.12096320981283
 31
0.0
  0
LINE
  5
A7E
330
1F
100
AcDbEntity
  8
2
  6
CONTINUOUS
370
25
 62
7
100
AcDbLine
 10
98.12310601229375
 20
-33.42462120245875
 30
0.0
 11
98.74873734152916
 21
-34.05025253169417
 31
0.0
  0
LINE
  5
A7F
330
1F
100
AcDbEntity
  8
2
  6
CONTINUOUS
370
25
 62
7
100
AcDbLine
 10
98.65343609818365
 20
-33.53068721963672
 30
0.0
 11
99.10229073212244
 21
-33.97954185357551
 31
0.0
  0
LINE
  5
A80
330
1F
100
AcDbEntity
  8
2
  6
CONTINUOUS
370
25
 62
7
100
AcDbLine
 10
99.18376618407358
 20
-33.63675323681471
 30
0.0
 11
99.45584412271572
 21
-33.90883117545685
 31
0.0
  0
LINE
  5
A81
330
1F
100
AcDbEntity
  8
2
  6
CONTINUOUS
370
25
 62
7
100
AcDbLine
 10
99.71409626996346
 20
-33.74281925399268
 30
0.0
 11
99.80939751330898
 21
-33.8381204973382
 31
0.0
  0
TEXT
  5
A82
330
1F
100
AcDbEntity
  8
2
  6
CONTINUOUS
370
25
 62
7
100
AcDbText
 10
70.85
 20
-32.3
 30
0.0
 40
3.5
  1
47.8
 72
     1
 11
76.1
 21
-32.3
 31
0.0
100
AcDbText
  0
LINE
  5
A83
330
1F
100
AcDbEntity
  8
SK2
  6
CONTINUOUS
370
25
 62
7
100
AcDbLine
 10
0.0
 20
3.6
 30
0.0
 11
0.0
 21
34.8
 31
0.0
  0
LINE
  5
A84
330
1F
100
AcDbEntity
  8
SK2
  6
CONTINUOUS
370
25
 62
7
100
AcDbLine
 10
100.0
 20
34.8
 30
0.0
 11
100.0
 21
0.0
 31
0.0
  0
LINE
  5
A85
330
1F
100
AcDbEntity
  8
SK2
  6
CONTINUOUS
370
25
 62
7
100
AcDbLine
 10
0.0
 20
33.8
 30
0.0
 11
100.0
 21
33.8
 31
0.0
  0
LINE
  5
A86
330
1F
100
AcDbEntity
  8
SK2
  6
CONTINUOUS
370
25
 62
7
100
AcDbLine
 10
0.0
 20
33.8
 30
0.0
 11
5.0
 21
34.8
 31
0.0
  0
LINE
  5
A87
330
1F
100
AcDbEntity
  8
SK2
  6
CONTINUOUS
370
25
 62
7
100
AcDbLine
 10
5.0
 20
34.8
 30
0.0
 11
5.0
 21
32.8
 31
0.0
  0
LINE
  5
A88
330
1F
100
AcDbEntity
  8
SK2
  6
CONTINUOUS
370
25
 62
7
100
AcDbLine
 10
5.0
 20
32.8
 30
0.0
 11
0.0
 21
33.8
 31
0.0
  0
LINE
  5
A89
330
1F
100
AcDbEntity
  8
SK2
  6
CONTINUOUS
370
25
 62
7
100
AcDbLine
 10
4.653878134935532
 20
32.86922437301289
 30
0.0
 11
5.0
 21
33.21534623807736
 31
0.0
  0
LINE
  5
A8A
330
1F
100
AcDbEntity
  8
SK2
  6
CONTINUOUS
370
25
 62
7
100
AcDbLine
 10
4.300324744342252
 20
32.93993505113154
 30
0.0
 11
5.0
 21
33.63961030678929
 31
0.0
  0
LINE
  5
A8B
330
1F
100
AcDbEntity
  8
SK2
  6
CONTINUOUS
370
25
 62
7
100
AcDbLine
 10
3.946771353748971
 20
33.0106457292502
 30
0.0
 11
5.0
 21
34.06387437550123
 31
0.0
  0
LINE
  5
A8C
330
1F
100
AcDbEntity
  8
SK2
  6
CONTINUOUS
370
25
 62
7
100
AcDbLine
 10
3.593217963155706
 20
33.08135640736886
 30
0.0
 11
5.0
 21
34.48813844421315
 31
0.0
  0
LINE
  5
A8D
330
1F
100
AcDbEntity
  8
SK2
  6
CONTINUOUS
370
25
 62
7
100
AcDbLine
 10
3.239664572562425
 20
33.15206708548751
 30
0.0
 11
4.859496858843642
 21
34.77189937176873
 31
0.0
  0
LINE
  5
A8E
330
1F
100
AcDbEntity
  8
SK2
  6
CONTINUOUS
370
25
 62
7
100
AcDbLine
 10
2.886111181969149
 20
33.22277776360617
 30
0.0
 11
4.329166772953723
 21
34.66583335459075
 31
0.0
  0
LINE
  5
A8F
330
1F
100
AcDbEntity
  8
SK2
  6
CONTINUOUS
370
25
 62
7
100
AcDbLine
 10
2.532557791375879
 20
33.29348844172482
 30
0.0
 11
3.798836687063822
 21
34.55976733741277
 31
0.0
  0
LINE
  5
A90
330
1F
100
AcDbEntity
  8
SK2
  6
CONTINUOUS
370
25
 62
7
100
AcDbLine
 10
2.179004400782603
 20
33.36419911984348
 30
0.0
 11
3.268506601173904
 21
34.45370132023478
 31
0.0
  0
LINE
  5
A91
330
1F
100
AcDbEntity
  8
SK2
  6
CONTINUOUS
370
25
 62
7
100
AcDbLine
 10
1.825451010189319
 20
33.43490979796213
 30
0.0
 11
2.738176515283989
 21
34.3476353030568
 31
0.0
  0
LINE
  5
A92
330
1F
100
AcDbEntity
  8
SK2
  6
CONTINUOUS
370
25
 62
7
100
AcDbLine
 10
1.471897619596042
 20
33.50562047608079
 30
0.0
 11
2.207846429394067
 21
34.24156928587881
 31
0.0
  0
LINE
  5
A93
330
1F
100
AcDbEntity
  8
SK2
  6
CONTINUOUS
370
25
 62
7
100
AcDbLine
 10
1.118344229002766
 20
33.57633115419944
 30
0.0
 11
1.677516343504152
 21
34.13550326870083
 31
0.0
  0
LINE
  5
A94
330
1F
100
AcDbEntity
  8
SK2
  6
CONTINUOUS
370
25
 62
7
100
AcDbLine
 10
0.7647908384094961
 20
33.6470418323181
 30
0.0
 11
1.147186257614251
 21
34.02943725152285
 31
0.0
  0
LINE
  5
A95
330
1F
100
AcDbEntity
  8
SK2
  6
CONTINUOUS
370
25
 62
7
100
AcDbLine
 10
0.4112374478162195
 20
33.71775251043675
 30
0.0
 11
0.6168561717243293
 21
33.92337123434486
 31
0.0
  0
LINE
  5
A96
330
1F
100
AcDbEntity
  8
SK2
  6
CONTINUOUS
370
25
 62
7
100
AcDbLine
 10
0.0576840572229358
 20
33.7884631885554
 30
0.0
 11
0.0865260858344143
 21
33.81730521716688
 31
0.0
  0
LINE
  5
A97
330
1F
100
AcDbEntity
  8
SK2
  6
CONTINUOUS
370
25
 62
7
100
AcDbLine
 10
0.0746252459521912
 20
33.81492504919044
 30
0.0
 11
0.1119378689282939
 21
33.77761242621434
 31
0.0
  0
LINE
  5
A98
330
1F
100
AcDbEntity
  8
SK2
  6
CONTINUOUS
370
25
 62
7
100
AcDbLine
 10
0.4281786365454678
 20
33.88563572730909
 30
0.0
 11
0.6422679548182018
 21
33.67154640903636
 31
0.0
  0
LINE
  5
A99
330
1F
100
AcDbEntity
  8
SK2
  6
CONTINUOUS
370
25
 62
7
100
AcDbLine
 10
0.7817320271387445
 20
33.95634640542775
 30
0.0
 11
1.172598040708117
 21
33.56548039185837
 31
0.0
  0
LINE
  5
A9A
330
1F
100
AcDbEntity
  8
SK2
  6
CONTINUOUS
370
25
 62
7
100
AcDbLine
 10
1.135285417732021
 20
34.0270570835464
 30
0.0
 11
1.702928126598025
 21
33.45941437468039
 31
0.0
  0
LINE
  5
A9B
330
1F
100
AcDbEntity
  8
SK2
  6
CONTINUOUS
370
25
 62
7
100
AcDbLine
 10
1.488838808325298
 20
34.09776776166505
 30
0.0
 11
2.233258212487939
 21
33.35334835750241
 31
0.0
  0
LINE
  5
A9C
330
1F
100
AcDbEntity
  8
SK2
  6
CONTINUOUS
370
25
 62
7
100
AcDbLine
 10
1.842392198918567
 20
34.16847843978371
 30
0.0
 11
2.763588298377847
 21
33.24728234032442
 31
0.0
  0
LINE
  5
A9D
330
1F
100
AcDbEntity
  8
SK2
  6
CONTINUOUS
370
25
 62
7
100
AcDbLine
 10
2.195945589511844
 20
34.23918911790237
 30
0.0
 11
3.293918384267762
 21
33.14121632314644
 31
0.0
  0
LINE
  5
A9E
330
1F
100
AcDbEntity
  8
SK2
  6
CONTINUOUS
370
25
 62
7
100
AcDbLine
 10
2.54949898010512
 20
34.30989979602103
 30
0.0
 11
3.824248470157674
 21
33.03515030596846
 31
0.0
  0
LINE
  5
A9F
330
1F
100
AcDbEntity
  8
SK2
  6
CONTINUOUS
370
25
 62
7
100
AcDbLine
 10
2.903052370698397
 20
34.38061047413968
 30
0.0
 11
4.354578556047585
 21
32.92908428879048
 31
0.0
  0
LINE
  5
AA0
330
1F
100
AcDbEntity
  8
SK2
  6
CONTINUOUS
370
25
 62
7
100
AcDbLine
 10
3.25660576129167
 20
34.45132115225833
 30
0.0
 11
4.884908641937486
 21
32.8230182716125
 31
0.0
  0
LINE
  5
AA1
330
1F
100
AcDbEntity
  8
SK2
  6
CONTINUOUS
370
25
 62
7
100
AcDbLine
 10
3.610159151884943
 20
34.52203183037699
 30
0.0
 11
5.0
 21
33.13219098226192
 31
0.0
  0
LINE
  5
AA2
330
1F
100
AcDbEntity
  8
SK2
  6
CONTINUOUS
370
25
 62
7
100
AcDbLine
 10
3.96371254247822
 20
34.59274250849565
 30
0.0
 11
5.0
 21
33.55645505097385
 31
0.0
  0
LINE
  5
AA3
330
1F
100
AcDbEntity
  8
SK2
  6
CONTINUOUS
370
25
 62
7
100
AcDbLine
 10
4.317265933071493
 20
34.6634531866143
 30
0.0
 11
5.0
 21
33.98071911968579
 31
0.0
  0
LINE
  5
AA4
330
1F
100
AcDbEntity
  8
SK2
  6
CONTINUOUS
370
25
 62
7
100
AcDbLine
 10
4.670819323664769
 20
34.73416386473295
 30
0.0
 11
5.0
 21
34.40498318839771
 31
0.0
  0
LINE
  5
AA5
330
1F
100
AcDbEntity
  8
SK2
  6
CONTINUOUS
370
25
 62
7
100
AcDbLine
 10
100.0
 20
33.8
 30
0.0
 11
95.0
 21
32.8
 31
0.0
  0
LINE
  5
AA6
330
1F
100
AcDbEntity
  8
SK2
  6
CONTINUOUS
370
25
 62
7
100
AcDbLine
 10
95.0
 20
32.8
 30
0.0
 11
95.0
 21
34.8
 31
0.0
  0
LINE
  5
AA7
330
1F
100
AcDbEntity
  8
SK2
  6
CONTINUOUS
370
25
 62
7
100
AcDbLine
 10
95.0
 20
34.8
 30
0.0
 11
100.0
 21
33.8
 31
0.0
  0
LINE
  5
AA8
330
1F
100
AcDbEntity
  8
SK2
  6
CONTINUOUS
370
25
 62
7
100
AcDbLine
 10
99.73462603288746
 20
33.74692520657749
 30
0.0
 11
99.82308402192497
 21
33.835383195615
 31
0.0
  0
LINE
  5
AA9
330
1F
100
AcDbEntity
  8
SK2
  6
CONTINUOUS
370
25
 62
7
100
AcDbLine
 10
99.20429594699756
 20
33.64085918939951
 30
0.0
 11
99.46953063133171
 21
33.90609387373365
 31
0.0
  0
LINE
  5
AAA
330
1F
100
AcDbEntity
  8
SK2
  6
CONTINUOUS
370
25
 62
7
100
AcDbLine
 10
98.67396586110763
 20
33.53479317222153
 30
0.0
 11
99.11597724073842
 21
33.9768045518523
 31
0.0
  0
LINE
  5
AAB
330
1F
100
AcDbEntity
  8
SK2
  6
CONTINUOUS
370
25
 62
7
100
AcDbLine
 10
98.14363577521772
 20
33.42872715504355
 30
0.0
 11
98.76242385014515
 21
34.04751522997097
 31
0.0
  0
LINE
  5
AAC
330
1F
100
AcDbEntity
  8
SK2
  6
CONTINUOUS
370
25
 62
7
100
AcDbLine
 10
97.6133056893278
 20
33.32266113786556
 30
0.0
 11
98.40887045955188
 21
34.11822590808963
 31
0.0
  0
LINE
  5
AAD
330
1F
100
AcDbEntity
  8
SK2
  6
CONTINUOUS
370
25
 62
7
100
AcDbLine
 10
97.08297560343789
 20
33.21659512068757
 30
0.0
 11
98.0553170689586
 21
34.18893658620827
 31
0.0
  0
LINE
  5
AAE
330
1F
100
AcDbEntity
  8
SK2
  6
CONTINUOUS
370
25
 62
7
100
AcDbLine
 10
96.55264551754799
 20
33.1105291035096
 30
0.0
 11
97.70176367836532
 21
34.25964726432693
 31
0.0
  0
LINE
  5
AAF
330
1F
100
AcDbEntity
  8
SK2
  6
CONTINUOUS
370
25
 62
7
100
AcDbLine
 10
96.02231543165806
 20
33.00446308633161
 30
0.0
 11
97.34821028777205
 21
34.33035794244559
 31
0.0
  0
LINE
  5
AB0
330
1F
100
AcDbEntity
  8
SK2
  6
CONTINUOUS
370
25
 62
7
100
AcDbLine
 10
95.49198534576816
 20
32.89839706915363
 30
0.0
 11
96.99465689717877
 21
34.40106862056424
 31
0.0
  0
LINE
  5
AB1
330
1F
100
AcDbEntity
  8
SK2
  6
CONTINUOUS
370
25
 62
7
100
AcDbLine
 10
95.0
 20
32.83067579209741
 30
0.0
 11
96.6411035065855
 21
34.47177929868289
 31
0.0
  0
LINE
  5
AB2
330
1F
100
AcDbEntity
  8
SK2
  6
CONTINUOUS
370
25
 62
7
100
AcDbLine
 10
95.0
 20
33.25493986080934
 30
0.0
 11
96.28755011599222
 21
34.54248997680155
 31
0.0
  0
LINE
  5
AB3
330
1F
100
AcDbEntity
  8
SK2
  6
CONTINUOUS
370
25
 62
7
100
AcDbLine
 10
95.0
 20
33.67920392952126
 30
0.0
 11
95.93399672539894
 21
34.61320065492021
 31
0.0
  0
LINE
  5
AB4
330
1F
100
AcDbEntity
  8
SK2
  6
CONTINUOUS
370
25
 62
7
100
AcDbLine
 10
95.0
 20
34.10346799823319
 30
0.0
 11
95.58044333480566
 21
34.68391133303886
 31
0.0
  0
LINE
  5
AB5
330
1F
100
AcDbEntity
  8
SK2
  6
CONTINUOUS
370
25
 62
7
100
AcDbLine
 10
95.0
 20
34.52773206694512
 30
0.0
 11
95.22688994421239
 21
34.75462201115751
 31
0.0
  0
LINE
  5
AB6
330
1F
100
AcDbEntity
  8
SK2
  6
CONTINUOUS
370
25
 62
7
100
AcDbLine
 10
95.0
 20
32.91383104791236
 30
0.0
 11
95.09485920659364
 21
32.81897184131872
 31
0.0
  0
LINE
  5
AB7
330
1F
100
AcDbEntity
  8
SK2
  6
CONTINUOUS
370
25
 62
7
100
AcDbLine
 10
95.0
 20
33.33809511662429
 30
0.0
 11
95.44841259718692
 21
32.88968251943738
 31
0.0
  0
LINE
  5
AB8
330
1F
100
AcDbEntity
  8
SK2
  6
CONTINUOUS
370
25
 62
7
100
AcDbLine
 10
95.0
 20
33.76235918533621
 30
0.0
 11
95.80196598778018
 21
32.96039319755603
 31
0.0
  0
LINE
  5
AB9
330
1F
100
AcDbEntity
  8
SK2
  6
CONTINUOUS
370
25
 62
7
100
AcDbLine
 10
95.0
 20
34.18662325404815
 30
0.0
 11
96.15551937837346
 21
33.03110387567469
 31
0.0
  0
LINE
  5
ABA
330
1F
100
AcDbEntity
  8
SK2
  6
CONTINUOUS
370
25
 62
7
100
AcDbLine
 10
95.0
 20
34.61088732276009
 30
0.0
 11
96.50907276896675
 21
33.10181455379334
 31
0.0
  0
LINE
  5
ABB
330
1F
100
AcDbEntity
  8
SK2
  6
CONTINUOUS
370
25
 62
7
100
AcDbLine
 10
95.29393923934002
 20
34.74121215213199
 30
0.0
 11
96.86262615956001
 21
33.17252523191199
 31
0.0
  0
LINE
  5
ABC
330
1F
100
AcDbEntity
  8
SK2
  6
CONTINUOUS
370
25
 62
7
100
AcDbLine
 10
95.82426932522993
 20
34.63514613495401
 30
0.0
 11
97.21617955015329
 21
33.24323591003065
 31
0.0
  0
LINE
  5
ABD
330
1F
100
AcDbEntity
  8
SK2
  6
CONTINUOUS
370
25
 62
7
100
AcDbLine
 10
96.35459941111984
 20
34.52908011777603
 30
0.0
 11
97.56973294074655
 21
33.31394658814931
 31
0.0
  0
LINE
  5
ABE
330
1F
100
AcDbEntity
  8
SK2
  6
CONTINUOUS
370
25
 62
7
100
AcDbLine
 10
96.88492949700972
 20
34.42301410059805
 30
0.0
 11
97.92328633133982
 21
33.38465726626796
 31
0.0
  0
LINE
  5
ABF
330
1F
100
AcDbEntity
  8
SK2
  6
CONTINUOUS
370
25
 62
7
100
AcDbLine
 10
97.41525958289964
 20
34.31694808342007
 30
0.0
 11
98.2768397219331
 21
33.45536794438661
 31
0.0
  0
LINE
  5
AC0
330
1F
100
AcDbEntity
  8
SK2
  6
CONTINUOUS
370
25
 62
7
100
AcDbLine
 10
97.94558966878955
 20
34.21088206624209
 30
0.0
 11
98.63039311252638
 21
33.52607862250527
 31
0.0
  0
LINE
  5
AC1
330
1F
100
AcDbEntity
  8
SK2
  6
CONTINUOUS
370
25
 62
7
100
AcDbLine
 10
98.47591975467947
 20
34.10481604906411
 30
0.0
 11
98.98394650311964
 21
33.59678930062393
 31
0.0
  0
LINE
  5
AC2
330
1F
100
AcDbEntity
  8
SK2
  6
CONTINUOUS
370
25
 62
7
100
AcDbLine
 10
99.00624984056935
 20
33.99875003188613
 30
0.0
 11
99.3374998937129
 21
33.66749997874258
 31
0.0
  0
LINE
  5
AC3
330
1F
100
AcDbEntity
  8
SK2
  6
CONTINUOUS
370
25
 62
7
100
AcDbLine
 10
99.53657992645927
 20
33.89268401470814
 30
0.0
 11
99.69105328430618
 21
33.73821065686123
 31
0.0
  0
TEXT
  5
AC4
330
1F
100
AcDbEntity
  8
SK2
  6
CONTINUOUS
370
25
 62
7
100
AcDbText
 10
46.5
 20
35.3
 30
0.0
 40
3.5
  1
100
 72
     1
 11
50.0
 21
35.3
 31
0.0
100
AcDbText
  0
LINE
  5
AC5
330
1F
100
AcDbEntity
  8
4
  6
LONGDASH_DASH
370
25
 62
2
100
AcDbLine
 10
35.0
 20
0.0
 30
0.0
 11
100.0
 21
0.0
 31
0.0
  0
LINE
  5
AC6
330
1F
100
AcDbEntity
  8
SK4
  6
LONGDASH_DASH
370
25
 62
2
100
AcDbLine
 10
-6.0
 20
0.0
 30
0.0
 11
106.0
 21
0.0
 31
0.0
  0
LINE
  5
AC7
330
1F
100
AcDbEntity
  8
2
  6
CONTINUOUS
370
25
 62
7
100
AcDbLine
 10
100.0
 20
0.0
 30
0.0
 11
108.8749834965547
 21
19.03246352776965
 31
0.0
  0
LINE
  5
AC8
330
1F
100
AcDbEntity
  8
2
  6
CONTINUOUS
370
25
 62
7
100
AcDbLine
 10
100.0
 20
0.0
 30
0.0
 11
108.8749834965547
 21
-19.03246352776965
 31
0.0
  0
ARC
  5
AC9
330
1F
100
AcDbEntity
  8
2
  6
CONTINUOUS
370
25
 62
7
100
AcDbCircle
 10
100.0000000000001
 20
-0.0000000000000017
 30
0.0
 40
19.99999999999996
100
AcDbArc
 50
294.9999999999998
 51
65.00000000000021
  0
LINE
  5
ACA
330
1F
100
AcDbEntity
  8
2
  6
CONTINUOUS
370
25
 62
7
100
AcDbLine
 10
108.452365234814
 20
18.12615574073299
 30
0.0
 11
113.2168177567238
 21
16.30956768438455
 31
0.0
  0
LINE
  5
ACB
330
1F
100
AcDbEntity
  8
2
  6
CONTINUOUS
370
25
 62
7
100
AcDbLine
 10
113.2168177567238
 20
16.30956768438455
 30
0.0
 11
112.1516336949044
 21
14.61682348798453
 31
0.0
  0
LINE
  5
ACC
330
1F
100
AcDbEntity
  8
2
  6
CONTINUOUS
370
25
 62
7
100
AcDbLine
 10
112.1516336949044
 20
14.61682348798453
 30
0.0
 11
108.452365234814
 21
18.12615574073299
 31
0.0
  0
LINE
  5
ACD
330
1F
100
AcDbEntity
  8
2
  6
CONTINUOUS
370
25
 62
7
100
AcDbLine
 10
112.067347263803
 20
14.69678229452268
 30
0.0
 11
112.4304140057032
 21
15.05984903642284
 31
0.0
  0
LINE
  5
ACE
330
1F
100
AcDbEntity
  8
2
  6
CONTINUOUS
370
25
 62
7
100
AcDbLine
 10
111.8496258570201
 20
14.90332495645168
 30
0.0
 11
113.150535152813
 21
16.20423425224459
 31
0.0
  0
LINE
  5
ACF
330
1F
100
AcDbEntity
  8
2
  6
CONTINUOUS
370
25
 62
7
100
AcDbLine
 10
111.6319044502372
 20
15.10986761838069
 30
0.0
 11
112.9379362981966
 21
16.41589946634012
 31
0.0
  0
LINE
  5
AD0
330
1F
100
AcDbEntity
  8
2
  6
CONTINUOUS
370
25
 62
7
100
AcDbLine
 10
111.4141830434543
 20
15.31641028030969
 30
0.0
 11
112.6307833505597
 21
16.53301058741513
 31
0.0
  0
LINE
  5
AD1
330
1F
100
AcDbEntity
  8
2
  6
CONTINUOUS
370
25
 62
7
100
AcDbLine
 10
111.1964616366713
 20
15.52295294223868
 30
0.0
 11
112.3236304029228
 21
16.65012170849013
 31
0.0
  0
LINE
  5
AD2
330
1F
100
AcDbEntity
  8
2
  6
CONTINUOUS
370
25
 62
7
100
AcDbLine
 10
110.9787402298884
 20
15.7294956041677
 30
0.0
 11
112.0164774552859
 21
16.76723282956513
 31
0.0
  0
LINE
  5
AD3
330
1F
100
AcDbEntity
  8
2
  6
CONTINUOUS
370
25
 62
7
100
AcDbLine
 10
110.7610188231055
 20
15.9360382660967
 30
0.0
 11
111.7093245076489
 21
16.88434395064013
 31
0.0
  0
LINE
  5
AD4
330
1F
100
AcDbEntity
  8
2
  6
CONTINUOUS
370
25
 62
7
100
AcDbLine
 10
110.5432974163226
 20
16.1425809280257
 30
0.0
 11
111.402171560012
 21
17.00145507171514
 31
0.0
  0
LINE
  5
AD5
330
1F
100
AcDbEntity
  8
2
  6
CONTINUOUS
370
25
 62
7
100
AcDbLine
 10
110.3255760095397
 20
16.34912358995471
 30
0.0
 11
111.0950186123751
 21
17.11856619279012
 31
0.0
  0
LINE
  5
AD6
330
1F
100
AcDbEntity
  8
2
  6
CONTINUOUS
370
25
 62
7
100
AcDbLine
 10
110.1078546027567
 20
16.55566625188371
 30
0.0
 11
110.7878656647381
 21
17.23567731386512
 31
0.0
  0
LINE
  5
AD7
330
1F
100
AcDbEntity
  8
2
  6
CONTINUOUS
370
25
 62
7
100
AcDbLine
 10
109.8901331959738
 20
16.7622089138127
 30
0.0
 11
110.4807127171012
 21
17.35278843494012
 31
0.0
  0
LINE
  5
AD8
330
1F
100
AcDbEntity
  8
2
  6
CONTINUOUS
370
25
 62
7
100
AcDbLine
 10
109.6724117891909
 20
16.96875157574171
 30
0.0
 11
110.1735597694643
 21
17.46989955601513
 31
0.0
  0
LINE
  5
AD9
330
1F
100
AcDbEntity
  8
2
  6
CONTINUOUS
370
25
 62
7
100
AcDbLine
 10
109.454690382408
 20
17.17529423767072
 30
0.0
 11
109.8664068218274
 21
17.58701067709013
 31
0.0
  0
LINE
  5
ADA
330
1F
100
AcDbEntity
  8
2
  6
CONTINUOUS
370
25
 62
7
100
AcDbLine
 10
109.2369689756251
 20
17.38183689959973
 30
0.0
 11
109.5592538741905
 21
17.70412179816513
 31
0.0
  0
LINE
  5
ADB
330
1F
100
AcDbEntity
  8
2
  6
CONTINUOUS
370
25
 62
7
100
AcDbLine
 10
109.0192475688421
 20
17.58837956152873
 30
0.0
 11
109.2521009265535
 21
17.82123291924012
 31
0.0
  0
LINE
  5
ADC
330
1F
100
AcDbEntity
  8
2
  6
CONTINUOUS
370
25
 62
7
100
AcDbLine
 10
108.8015261620592
 20
17.79492222345774
 30
0.0
 11
108.9449479789166
 21
17.93834404031512
 31
0.0
  0
LINE
  5
ADD
330
1F
100
AcDbEntity
  8
2
  6
CONTINUOUS
370
25
 62
7
100
AcDbLine
 10
108.5838047552763
 20
18.00146488538675
 30
0.0
 11
108.6377950312797
 21
18.05545516139012
 31
0.0
  0
LINE
  5
ADE
330
1F
100
AcDbEntity
  8
2
  6
CONTINUOUS
370
25
 62
7
100
AcDbLine
 10
108.5534090273297
 20
18.087629814447
 30
0.0
 11
109.6699865297337
 21
16.97105231204304
 31
0.0
  0
LINE
  5
ADF
330
1F
100
AcDbEntity
  8
2
  6
CONTINUOUS
370
25
 62
7
100
AcDbLine
 10
109.2391210184152
 20
17.82618189207344
 30
0.0
 11
112.2662832826578
 21
14.79901962783084
 31
0.0
  0
LINE
  5
AE0
330
1F
100
AcDbEntity
  8
2
  6
CONTINUOUS
370
25
 62
7
100
AcDbLine
 10
109.9248330095007
 20
17.56473396969986
 30
0.0
 11
112.430145167987
 21
15.05942181121354
 31
0.0
  0
LINE
  5
AE1
330
1F
100
AcDbEntity
  8
2
  6
CONTINUOUS
370
25
 62
7
100
AcDbLine
 10
110.6105450005862
 20
17.30328604732628
 30
0.0
 11
112.5940070533163
 21
15.31982399459623
 31
0.0
  0
LINE
  5
AE2
330
1F
100
AcDbEntity
  8
2
  6
CONTINUOUS
370
25
 62
7
100
AcDbLine
 10
111.2962569916717
 20
17.04183812495272
 30
0.0
 11
112.7578689386455
 21
15.58022617797893
 31
0.0
  0
LINE
  5
AE3
330
1F
100
AcDbEntity
  8
2
  6
CONTINUOUS
370
25
 62
7
100
AcDbLine
 10
111.9819689827572
 20
16.78039020257916
 30
0.0
 11
112.9217308239747
 21
15.84062836136161
 31
0.0
  0
LINE
  5
AE4
330
1F
100
AcDbEntity
  8
2
  6
CONTINUOUS
370
25
 62
7
100
AcDbLine
 10
112.6676809738427
 20
16.51894228020558
 30
0.0
 11
113.085592709304
 21
16.1010305447443
 31
0.0
  0
LINE
  5
AE5
330
1F
100
AcDbEntity
  8
2
  6
CONTINUOUS
370
25
 62
7
100
AcDbLine
 10
108.452365234814
 20
-18.126155740733
 30
0.0
 11
112.1516336949043
 21
-14.61682348798453
 31
0.0
  0
LINE
  5
AE6
330
1F
100
AcDbEntity
  8
2
  6
CONTINUOUS
370
25
 62
7
100
AcDbLine
 10
112.1516336949043
 20
-14.61682348798453
 30
0.0
 11
113.2168177567237
 21
-16.30956768438455
 31
0.0
  0
LINE
  5
AE7
330
1F
100
AcDbEntity
  8
2
  6
CONTINUOUS
370
25
 62
7
100
AcDbLine
 10
113.2168177567237
 20
-16.30956768438455
 30
0.0
 11
108.452365234814
 21
-18.126155740733
 31
0.0
  0
LINE
  5
AE8
330
1F
100
AcDbEntity
  8
2
  6
CONTINUOUS
370
25
 62
7
100
AcDbLine
 10
112.9150281094872
 20
-16.42463388898591
 30
0.0
 11
113.1447002770648
 21
-16.19496172140836
 31
0.0
  0
LINE
  5
AE9
330
1F
100
AcDbEntity
  8
2
  6
CONTINUOUS
370
25
 62
7
100
AcDbLine
 10
112.2293161184017
 20
-16.68608181135949
 30
0.0
 11
112.9808383917355
 21
-15.93455953802567
 31
0.0
  0
LINE
  5
AEA
330
1F
100
AcDbEntity
  8
2
  6
CONTINUOUS
370
25
 62
7
100
AcDbLine
 10
111.5436041273162
 20
-16.94752973373305
 30
0.0
 11
112.8169765064063
 21
-15.67415735464297
 31
0.0
  0
LINE
  5
AEB
330
1F
100
AcDbEntity
  8
2
  6
CONTINUOUS
370
25
 62
7
100
AcDbLine
 10
110.8578921362307
 20
-17.20897765610661
 30
0.0
 11
112.6531146210771
 21
-15.41375517126028
 31
0.0
  0
LINE
  5
AEC
330
1F
100
AcDbEntity
  8
2
  6
CONTINUOUS
370
25
 62
7
100
AcDbLine
 10
110.1721801451452
 20
-17.47042557848019
 30
0.0
 11
112.4892527357478
 21
-15.15335298787758
 31
0.0
  0
LINE
  5
AED
330
1F
100
AcDbEntity
  8
2
  6
CONTINUOUS
370
25
 62
7
100
AcDbLine
 10
109.4864681540597
 20
-17.73187350085377
 30
0.0
 11
112.3253908504186
 21
-14.89295080449489
 31
0.0
  0
LINE
  5
AEE
330
1F
100
AcDbEntity
  8
2
  6
CONTINUOUS
370
25
 62
7
100
AcDbLine
 10
108.8007561629743
 20
-17.99332142322733
 30
0.0
 11
112.1615289650894
 21
-14.63254862111219
 31
0.0
  0
LINE
  5
AEF
330
1F
100
AcDbEntity
  8
2
  6
CONTINUOUS
370
25
 62
7
100
AcDbLine
 10
108.5818819586773
 20
-18.00328895741423
 30
0.0
 11
108.6350824241373
 21
-18.05648942287424
 31
0.0
  0
LINE
  5
AF0
330
1F
100
AcDbEntity
  8
2
  6
CONTINUOUS
370
25
 62
7
100
AcDbLine
 10
108.7996033654602
 20
-17.79674629548522
 30
0.0
 11
108.9422353717742
 21
-17.93937830179924
 31
0.0
  0
LINE
  5
AF1
330
1F
100
AcDbEntity
  8
2
  6
CONTINUOUS
370
25
 62
7
100
AcDbLine
 10
109.0173247722432
 20
-17.59020363355622
 30
0.0
 11
109.2493883194112
 21
-17.82226718072425
 31
0.0
  0
LINE
  5
AF2
330
1F
100
AcDbEntity
  8
2
  6
CONTINUOUS
370
25
 62
7
100
AcDbLine
 10
109.2350461790261
 20
-17.38366097162721
 30
0.0
 11
109.5565412670481
 21
-17.70515605964924
 31
0.0
  0
LINE
  5
AF3
330
1F
100
AcDbEntity
  8
2
  6
CONTINUOUS
370
25
 62
7
100
AcDbLine
 10
109.452767585809
 20
-17.1771183096982
 30
0.0
 11
109.863694214685
 21
-17.58804493857424
 31
0.0
  0
LINE
  5
AF4
330
1F
100
AcDbEntity
  8
2
  6
CONTINUOUS
370
25
 62
7
100
AcDbLine
 10
109.6704889925919
 20
-16.97057564776919
 30
0.0
 11
110.1708471623219
 21
-17.47093381749924
 31
0.0
  0
LINE
  5
AF5
330
1F
100
AcDbEntity
  8
2
  6
CONTINUOUS
370
25
 62
7
100
AcDbLine
 10
109.8882103993748
 20
-16.76403298584021
 30
0.0
 11
110.4780001099589
 21
-17.35382269642424
 31
0.0
  0
LINE
  5
AF6
330
1F
100
AcDbEntity
  8
2
  6
CONTINUOUS
370
25
 62
7
100
AcDbLine
 10
110.1059318061578
 20
-16.5574903239112
 30
0.0
 11
110.7851530575958
 21
-17.23671157534925
 31
0.0
  0
LINE
  5
AF7
330
1F
100
AcDbEntity
  8
2
  6
CONTINUOUS
370
25
 62
7
100
AcDbLine
 10
110.3236532129407
 20
-16.35094766198219
 30
0.0
 11
111.0923060052327
 21
-17.11960045427425
 31
0.0
  0
LINE
  5
AF8
330
1F
100
AcDbEntity
  8
2
  6
CONTINUOUS
370
25
 62
7
100
AcDbLine
 10
110.5413746197236
 20
-16.1444050000532
 30
0.0
 11
111.3994589528697
 21
-17.00248933319925
 31
0.0
  0
LINE
  5
AF9
330
1F
100
AcDbEntity
  8
2
  6
CONTINUOUS
370
25
 62
7
100
AcDbLine
 10
110.7590960265065
 20
-15.93786233812418
 30
0.0
 11
111.7066119005066
 21
-16.88537821212426
 31
0.0
  0
LINE
  5
AFA
330
1F
100
AcDbEntity
  8
2
  6
CONTINUOUS
370
25
 62
7
100
AcDbLine
 10
110.9768174332894
 20
-15.73131967619518
 30
0.0
 11
112.0137648481435
 21
-16.76826709104925
 31
0.0
  0
LINE
  5
AFB
330
1F
100
AcDbEntity
  8
2
  6
CONTINUOUS
370
25
 62
7
100
AcDbLine
 10
111.1945388400724
 20
-15.52477701426619
 30
0.0
 11
112.3209177957804
 21
-16.65115596997425
 31
0.0
  0
LINE
  5
AFC
330
1F
100
AcDbEntity
  8
2
  6
CONTINUOUS
370
25
 62
7
100
AcDbLine
 10
111.4122602468553
 20
-15.31823435233719
 30
0.0
 11
112.6280707434174
 21
-16.53404484889926
 31
0.0
  0
LINE
  5
AFD
330
1F
100
AcDbEntity
  8
2
  6
CONTINUOUS
370
25
 62
7
100
AcDbLine
 10
111.6299816536382
 20
-15.11169169040817
 30
0.0
 11
112.9352236910543
 21
-16.41693372782425
 31
0.0
  0
LINE
  5
AFE
330
1F
100
AcDbEntity
  8
2
  6
CONTINUOUS
370
25
 62
7
100
AcDbLine
 10
111.8477030604211
 20
-14.90514902847917
 30
0.0
 11
113.1568948696316
 21
-16.21434083768969
 31
0.0
  0
LINE
  5
AFF
330
1F
100
AcDbEntity
  8
2
  6
CONTINUOUS
370
25
 62
7
100
AcDbLine
 10
112.065424467204
 20
-14.69860636655017
 30
0.0
 11
112.4367737225218
 21
-15.06995562186796
 31
0.0
  0
TEXT
  5
B00
330
1F
100
AcDbEntity
  8
2
  6
CONTINUOUS
370
25
 62
7
100
AcDbText
 10
117.5
 20
-4.958333333333333
 30
0.0
 40
3.5
  1
130°
 50
90.0
 72
     1
 11
117.5
 21
0.0
 31
0.0
100
AcDbText
  0
LINE
  5
B01
330
1F
100
AcDbEntity
  8
SK1
  6
CONTINUOUS
370
50
 62
4
100
AcDbLine
 10
35.0
 20
0.0
 30
0.0
 11
37.625
 21
0.0
 31
0.0
  0
LINE
  5
B02
330
1F
100
AcDbEntity
  8
SK1
  6
CONTINUOUS
370
50
 62
4
100
AcDbLine
 10
35.0
 20
0.0
 30
0.0
 11
35.0
 21
2.625
 31
0.0
  0
ARC
  5
B03
330
1F
100
AcDbEntity
  8
SK1
  6
CONTINUOUS
370
50
 62
4
100
AcDbCircle
 10
35.0
 20
0.0
 30
0.0
 40
2.625
100
AcDbArc
 50
0.0
 51
90.0
  0
LINE
  5
B04
330
1F
100
AcDbEntity
  8
SK1
  6
CONTINUOUS
370
50
 62
4
100
AcDbLine
 10
35.0
 20
0.0
 30
0.0
 11
32.375
 21
0.0
 31
0.0
  0
ARC
  5
B05
330
1F
100
AcDbEntity
  8
SK1
  6
CONTINUOUS
370
50
 62
4
100
AcDbCircle
 10
35.0
 20
0.0
 30
0.0
 40
2.625
100
AcDbArc
 50
180.0
 51
270.0
  0
LINE
  5
B06
330
1F
100
AcDbEntity
  8
SK1
  6
CONTINUOUS
370
50
 62
4
100
AcDbLine
 10
35.0
 20
-2.625
 30
0.0
 11
35.0
 21
0.0
 31
0.0
  0
ARC
  5
B07
330
1F
100
AcDbEntity
  8
SK1
  6
CONTINUOUS
370
50
 62
4
100
AcDbCircle
 10
35.0
 20
0.0
 30
0.0
 40
2.625
100
AcDbArc
 50
270.0
 51
0.0
  0
ARC
  5
B08
330
1F
100
AcDbEntity
  8
SK1
  6
CONTINUOUS
370
50
 62
4
100
AcDbCircle
 10
35.0
 20
0.0
 30
0.0
 40
2.625
100
AcDbArc
 50
90.0
 51
180.0
  0
LINE
  5
B09
330
1F
100
AcDbEntity
  8
SK1
  6
CONTINUOUS
370
50
 62
4
100
AcDbLine
 10
34.66575722192682
 20
-2.60347067499975
 30
0.0
 11
35.0
 21
-2.269227896926564
 31
0.0
  0
LINE
  5
B0A
330
1F
100
AcDbEntity
  8
SK1
  6
CONTINUOUS
370
50
 62
4
100
AcDbLine
 10
37.26922789692657
 20
0.0
 30
0.0
 11
37.60347067499975
 21
0.3342427780731851
 31
0.0
  0
LINE
  5
B0B
330
1F
100
AcDbEntity
  8
SK1
  6
CONTINUOUS
370
50
 62
4
100
AcDbLine
 10
34.35395391214686
 20
-2.544042924656761
 30
0.0
 11
35.0
 21
-1.897996836803626
 31
0.0
  0
LINE
  5
B0C
330
1F
100
AcDbEntity
  8
SK1
  6
CONTINUOUS
370
50
 62
4
100
AcDbLine
 10
36.89799683680363
 20
0.0
 30
0.0
 11
37.54404292465676
 21
0.6460460878531347
 31
0.0
  0
LINE
  5
B0D
330
1F
100
AcDbEntity
  8
SK1
  6
CONTINUOUS
370
50
 62
4
100
AcDbLine
 10
34.07222348891575
 20
-2.454542287764935
 30
0.0
 11
35.0
 21
-1.526765776680689
 31
0.0
  0
LINE
  5
B0E
330
1F
100
AcDbEntity
  8
SK1
  6
CONTINUOUS
370
50
 62
4
100
AcDbLine
 10
36.52676577668069
 20
0.0
 30
0.0
 11
37.45454228776494
 21
0.9277765110842457
 31
0.0
  0
LINE
  5
B0F
330
1F
100
AcDbEntity
  8
SK1
  6
CONTINUOUS
370
50
 62
4
100
AcDbLine
 10
33.81478120678253
 20
-2.340753509775221
 30
0.0
 11
35.0
 21
-1.155534716557751
 31
0.0
  0
LINE
  5
B10
330
1F
100
AcDbEntity
  8
SK1
  6
CONTINUOUS
370
50
 62
4
100
AcDbLine
 10
36.15553471655775
 20
0.0
 30
0.0
 11
37.34075350977522
 21
1.185218793217471
 31
0.0
  0
LINE
  5
B11
330
1F
100
AcDbEntity
  8
SK1
  6
CONTINUOUS
370
50
 62
4
100
AcDbLine
 10
33.57826543845547
 20
-2.206038217979337
 30
0.0
 11
35.0
 21
-0.7843036564348136
 31
0.0
  0
LINE
  5
B12
330
1F
100
AcDbEntity
  8
SK1
  6
CONTINUOUS
370
50
 62
4
100
AcDbLine
 10
35.78430365643482
 20
0.0
 30
0.0
 11
37.20603821797934
 21
1.421734561544524
 31
0.0
  0
LINE
  5
B13
330
1F
100
AcDbEntity
  8
SK1
  6
CONTINUOUS
370
50
 62
4
100
AcDbLine
 10
33.3626431117109
 20
-2.050429484600978
 30
0.0
 11
35.0
 21
-0.413072596311876
 31
0.0
  0
LINE
  5
B14
330
1F
100
AcDbEntity
  8
SK1
  6
CONTINUOUS
370
50
 62
4
100
AcDbLine
 10
35.41307259631188
 20
0.0
 30
0.0
 11
37.05042948460098
 21
1.637356888289101
 31
0.0
  0
LINE
  5
B15
330
1F
100
AcDbEntity
  8
SK1
  6
CONTINUOUS
370
50
 62
4
100
AcDbLine
 10
33.16568136807246
 20
-1.876160168116476
 30
0.0
 11
35.0
 21
-0.0418415361889384
 31
0.0
  0
LINE
  5
B16
330
1F
100
AcDbEntity
  8
SK1
  6
CONTINUOUS
370
50
 62
4
100
AcDbLine
 10
35.04184153618894
 20
0.0
 30
0.0
 11
36.87616016811648
 21
1.834318631927537
 31
0.0
  0
LINE
  5
B17
330
1F
100
AcDbEntity
  8
SK1
  6
CONTINUOUS
370
50
 62
4
100
AcDbLine
 10
32.98675942477632
 20
-1.683851051289679
 30
0.0
 11
34.670610476066
 21
0.0
 31
0.0
  0
LINE
  5
B18
330
1F
100
AcDbEntity
  8
SK1
  6
CONTINUOUS
370
50
 62
4
100
AcDbLine
 10
35.0
 20
0.3293895239339992
 30
0.0
 11
36.68385105128968
 21
2.013240575223679
 31
0.0
  0
LINE
  5
B19
330
1F
100
AcDbEntity
  8
SK1
  6
CONTINUOUS
370
50
 62
4
100
AcDbLine
 10
32.82782161830507
 20
-1.471557797638
 30
0.0
 11
34.29937941594306
 21
0.0
 31
0.0
  0
LINE
  5
B1A
330
1F
100
AcDbEntity
  8
SK1
  6
CONTINUOUS
370
50
 62
4
100
AcDbLine
 10
35.0
 20
0.7006205840569368
 30
0.0
 11
36.471557797638
 21
2.172178381694937
 31
0.0
  0
LINE
  5
B1B
330
1F
100
AcDbEntity
  8
SK1
  6
CONTINUOUS
370
50
 62
4
100
AcDbLine
 10
32.68749288718529
 20
-1.240655468634837
 30
0.0
 11
33.92814835582013
 21
0.0
 31
0.0
  0
LINE
  5
B1C
330
1F
100
AcDbEntity
  8
SK1
  6
CONTINUOUS
370
50
 62
4
100
AcDbLine
 10
35.0
 20
1.071851644179874
 30
0.0
 11
36.24065546863483
 21
2.312507112814711
 31
0.0
  0
LINE
  5
B1D
330
1F
100
AcDbEntity
  8
SK1
  6
CONTINUOUS
370
50
 62
4
100
AcDbLine
 10
32.56877644288387
 20
-0.9881408528133115
 30
0.0
 11
33.55691729569719
 21
0.0
 31
0.0
  0
LINE
  5
B1E
330
1F
100
AcDbEntity
  8
SK1
  6
CONTINUOUS
370
50
 62
4
100
AcDbLine
 10
35.0
 20
1.443082704302812
 30
0.0
 11
35.98814085281331
 21
2.431223557116124
 31
0.0
  0
LINE
  5
B1F
330
1F
100
AcDbEntity
  8
SK1
  6
CONTINUOUS
370
50
 62
4
100
AcDbLine
 10
32.47444482033456
 20
-0.7112414152396886
 30
0.0
 11
33.18568623557425
 21
0.0
 31
0.0
  0
LINE
  5
B20
330
1F
100
AcDbEntity
  8
SK1
  6
CONTINUOUS
370
50
 62
4
100
AcDbLine
 10
35.0
 20
1.81431376442575
 30
0.0
 11
35.71124141523969
 21
2.525555179665439
 31
0.0
  0
LINE
  5
B21
330
1F
100
AcDbEntity
  8
SK1
  6
CONTINUOUS
370
50
 62
4
100
AcDbLine
 10
32.40797120571085
 20
-0.4064839697404632
 30
0.0
 11
32.81445517545131
 21
0.0
 31
0.0
  0
LINE
  5
B22
330
1F
100
AcDbEntity
  8
SK1
  6
CONTINUOUS
370
50
 62
4
100
AcDbLine
 10
35.0
 20
2.185544824548687
 30
0.0
 11
35.40648396974046
 21
2.59202879428915
 31
0.0
  0
LINE
  5
B23
330
1F
100
AcDbEntity
  8
SK1
  6
CONTINUOUS
370
50
 62
4
100
AcDbLine
 10
32.37707870331546
 20
-0.0661454120129097
 30
0.0
 11
32.44322411532838
 21
0.0
 31
0.0
  0
LINE
  5
B24
330
1F
100
AcDbEntity
  8
SK1
  6
CONTINUOUS
370
50
 62
4
100
AcDbLine
 10
35.0
 20
2.556775884671625
 30
0.0
 11
35.06614541201291
 21
2.622921296684535
 31
0.0
  0
LINE
  5
B25
330
1F
100
AcDbEntity
  8
SK1
  6
CONTINUOUS
370
50
 62
4
100
AcDbLine
 10
32.54579652643623
 20
-0.9287176037316112
 30
0.0
 11
34.07128239626839
 21
-2.454203473563768
 31
0.0
  0
LINE
  5
B26
330
1F
100
AcDbEntity
  8
SK1
  6
CONTINUOUS
370
50
 62
4
100
AcDbLine
 10
32.41045104563307
 20
-0.4221410628055069
 30
0.0
 11
34.5778589371945
 21
-2.589548954366935
 31
0.0
  0
LINE
  5
B27
330
1F
100
AcDbEntity
  8
SK1
  6
CONTINUOUS
370
50
 62
4
100
AcDbLine
 10
32.37550158008622
 20
-0.0159605371357268
 30
0.0
 11
34.98403946286427
 21
-2.624498419913778
 31
0.0
  0
LINE
  5
B28
330
1F
100
AcDbEntity
  8
SK1
  6
CONTINUOUS
370
50
 62
4
100
AcDbLine
 10
32.73077210307343
 20
0.0
 30
0.0
 11
35.0
 21
-2.269227896926564
 31
0.0
  0
LINE
  5
B29
330
1F
100
AcDbEntity
  8
SK1
  6
CONTINUOUS
370
50
 62
4
100
AcDbLine
 10
33.10200316319637
 20
0.0
 30
0.0
 11
35.0
 21
-1.897996836803626
 31
0.0
  0
LINE
  5
B2A
330
1F
100
AcDbEntity
  8
SK1
  6
CONTINUOUS
370
50
 62
4
100
AcDbLine
 10
33.47323422331931
 20
0.0
 30
0.0
 11
35.0
 21
-1.526765776680689
 31
0.0
  0
LINE
  5
B2B
330
1F
100
AcDbEntity
  8
SK1
  6
CONTINUOUS
370
50
 62
4
100
AcDbLine
 10
33.84446528344225
 20
0.0
 30
0.0
 11
35.0
 21
-1.155534716557752
 31
0.0
  0
LINE
  5
B2C
330
1F
100
AcDbEntity
  8
SK1
  6
CONTINUOUS
370
50
 62
4
100
AcDbLine
 10
34.21569634356518
 20
0.0
 30
0.0
 11
35.0
 21
-0.7843036564348145
 31
0.0
  0
LINE
  5
B2D
330
1F
100
AcDbEntity
  8
SK1
  6
CONTINUOUS
370
50
 62
4
100
AcDbLine
 10
34.58692740368812
 20
0.0
 30
0.0
 11
35.0
 21
-0.4130725963118769
 31
0.0
  0
LINE
  5
B2E
330
1F
100
AcDbEntity
  8
SK1
  6
CONTINUOUS
370
50
 62
4
100
AcDbLine
 10
34.95815846381106
 20
0.0
 30
0.0
 11
35.0
 21
-0.0418415361889393
 31
0.0
  0
LINE
  5
B2F
330
1F
100
AcDbEntity
  8
SK1
  6
CONTINUOUS
370
50
 62
4
100
AcDbLine
 10
35.0
 20
0.3293895239339975
 30
0.0
 11
35.329389523934
 21
0.0
 31
0.0
  0
LINE
  5
B30
330
1F
100
AcDbEntity
  8
SK1
  6
CONTINUOUS
370
50
 62
4
100
AcDbLine
 10
35.0
 20
0.7006205840569351
 30
0.0
 11
35.70062058405694
 21
0.0
 31
0.0
  0
LINE
  5
B31
330
1F
100
AcDbEntity
  8
SK1
  6
CONTINUOUS
370
50
 62
4
100
AcDbLine
 10
35.0
 20
1.071851644179873
 30
0.0
 11
36.07185164417987
 21
0.0
 31
0.0
  0
LINE
  5
B32
330
1F
100
AcDbEntity
  8
SK1
  6
CONTINUOUS
370
50
 62
4
100
AcDbLine
 10
35.0
 20
1.44308270430281
 30
0.0
 11
36.44308270430281
 21
0.0
 31
0.0
  0
LINE
  5
B33
330
1F
100
AcDbEntity
  8
SK1
  6
CONTINUOUS
370
50
 62
4
100
AcDbLine
 10
35.0
 20
1.814313764425748
 30
0.0
 11
36.81431376442575
 21
0.0
 31
0.0
  0
LINE
  5
B34
330
1F
100
AcDbEntity
  8
SK1
  6
CONTINUOUS
370
50
 62
4
100
AcDbLine
 10
35.0
 20
2.185544824548685
 30
0.0
 11
37.18554482454869
 21
0.0
 31
0.0
  0
LINE
  5
B35
330
1F
100
AcDbEntity
  8
SK1
  6
CONTINUOUS
370
50
 62
4
100
AcDbLine
 10
35.0
 20
2.556775884671622
 30
0.0
 11
37.55677588467162
 21
0.0
 31
0.0
  0
LINE
  5
B36
330
1F
100
AcDbEntity
  8
SK1
  6
CONTINUOUS
370
50
 62
4
100
AcDbLine
 10
35.3231531925751
 20
2.604853752219459
 30
0.0
 11
37.60485375221946
 21
0.3231531925751043
 31
0.0
  0
LINE
  5
B37
330
1F
100
AcDbEntity
  8
SK1
  6
CONTINUOUS
370
50
 62
4
100
AcDbLine
 10
35.79925237182748
 20
2.499985633090018
 30
0.0
 11
37.49998563309002
 21
0.7992523718274818
 31
0.0
  0
LINE
  5
B38
330
1F
100
AcDbEntity
  8
SK1
  6
CONTINUOUS
370
50
 62
4
100
AcDbLine
 10
36.56015793098176
 20
2.11031113405868
 30
0.0
 11
37.11031113405868
 21
1.560157930981759
 31
0.0
  0
ARC
  5
B39
330
1F
100
AcDbEntity
  8
SK6
  6
CONTINUOUS
370
25
 62
5
100
AcDbCircle
 10
129.4613820083765
 20
-26.52598903338786
 30
0.0
 40
2.76048912849221
100
AcDbArc
 50
338.9379403434233
 51
90.44457437511392
  0
LINE
  5
B3A
330
1F
100
AcDbEntity
  8
SK6
  6
CONTINUOUS
370
25
 62
5
100
AcDbLine
 10
129.4399627969598
 20
-23.76558300421281
 30
0.0
 11
129.4399627969598
 21
-24.86864163613463
 31
0.0
  0
ARC
  5
B3B
330
1F
100
AcDbEntity
  8
SK6
  6
CONTINUOUS
370
25
 62
5
100
AcDbCircle
 10
129.4505090293692
 20
-26.5459825256682
 30
0.0
 40
1.677374043771792
100
AcDbArc
 50
243.421470601786
 51
90.3602408122618
  0
ARC
  5
B3C
330
1F
100
AcDbEntity
  8
SK6
  6
CONTINUOUS
370
25
 62
5
100
AcDbCircle
 10
131.9727598968496
 20
-26.11457527215561
 30
0.0
 40
3.80021703002276
100
AcDbArc
 50
210.5483731288539
 51
236.9780169366803
  0
LINE
  5
B3D
330
1F
100
AcDbEntity
  8
SK6
  6
CONTINUOUS
370
25
 62
5
100
AcDbLine
 10
129.9017906851249
 20
-29.30091109867535
 30
0.0
 11
134.0437309674267
 21
-29.30091109867535
 31
0.0
  0
ARC
  5
B3E
330
1F
100
AcDbEntity
  8
SK6
  6
CONTINUOUS
370
25
 62
5
100
AcDbCircle
 10
131.9727618387726
 20
-26.1145753737346
 30
0.0
 40
3.80021689958248
100
AcDbArc
 50
303.021982847796
 51
326.3732153033476
  0
LINE
  5
B3F
330
1F
100
AcDbEntity
  8
SK6
  6
CONTINUOUS
370
25
 62
5
100
AcDbLine
 10
135.1370597513572
 20
-28.2190627707709
 30
0.0
 11
131.7797617057546
 21
-28.2190627707709
 31
0.0
  0
LINE
  5
B40
330
1F
100
AcDbEntity
  8
SK6
  6
CONTINUOUS
370
25
 62
5
100
AcDbLine
 10
131.7797617057546
 20
-28.2190627707709
 30
0.0
 11
135.6996210977199
 21
-26.85766157641694
 31
0.0
  0
ARC
  5
B41
330
1F
100
AcDbEntity
  8
SK6
  6
CONTINUOUS
370
25
 62
5
100
AcDbCircle
 10
131.9727625615721
 20
-26.1145758848594
 30
0.0
 40
3.800217216614737
100
AcDbArc
 50
348.7238644184696
 51
53.4691051260886
  0
LINE
  5
B42
330
1F
100
AcDbEntity
  8
SK6
  6
CONTINUOUS
370
25
 62
5
100
AcDbLine
 10
134.2348652453854
 20
-23.06096452429967
 30
0.0
 11
132.0374504788273
 21
-27.51805301507057
 31
0.0
  0
ENDSEC
  0
SECTION
  2
OBJECTS
  0
DICTIONARY
  5
C
330
0
100
AcDbDictionary
281
     1
  3
ACAD_GROUP
350
D
  3
ACAD_LAYOUT
350
1A
  3
ACAD_MATERIAL
350
3B
  3
ACAD_MLEADERSTYLE
350
B45
  3
ACAD_MLINESTYLE
350
17
  3
ACAD_PLOTSETTINGS
350
19
  3
ACAD_PLOTSTYLENAME
350
E
  3
ACAD_SCALELIST
350
3E4
  3
ACAD_VISUALSTYLE
350
2A
  3
AcDbVariableDictionary
350
B43
  0
DICTIONARY
  5
D
102
{ACAD_REACTORS
330
C
102
}
330
C
100
AcDbDictionary
281
     1
  0
DICTIONARY
  5
1A
102
{ACAD_REACTORS
330
C
102
}
330
C
100
AcDbDictionary
281
     1
  3
Layout1
350
1E
  3
Layout2
350
26
  3
Model
350
22
  0
DICTIONARY
  5
3B
102
{ACAD_REACTORS
330
C
102
}
330
C
100
AcDbDictionary
281
     1
  3
ByBlock
350
3D
  3
ByLayer
350
3C
  3
Global
350
3E
  0
DICTIONARY
  5
B45
102
{ACAD_REACTORS
330
C
102
}
330
C
100
AcDbDictionary
281
     1
  0
DICTIONARY
  5
17
102
{ACAD_REACTORS
330
C
102
}
330
C
100
AcDbDictionary
281
     1
  3
Standard
350
18
  0
DICTIONARY
  5
19
102
{ACAD_REACTORS
330
C
102
}
330
C
100
AcDbDictionary
281
     1
  0
ACDBDICTIONARYWDFLT
  5
E
102
{ACAD_REACTORS
330
C
102
}
330
C
100
AcDbDictionary
281
     1
  3
Normal
350
F
100
AcDbDictionaryWithDefault
340
F
  0
DICTIONARY
  5
3E4
102
{ACAD_REACTORS
330
C
102
}
330
C
100
AcDbDictionary
281
     1
  3
A0
350
3E5
  3
A1
350
3E6
  3
A2
350
3E7
  3
A3
350
3E8
  3
A4
350
3E9
  3
A5
350
3EA
  3
A6
350
3EB
  3
A7
350
3EC
  3
A8
350
3ED
  3
A9
350
3EE
  3
B0
350
3EF
  3
B1
350
3F0
  3
B2
350
3F1
  3
B3
350
3F2
  3
B4
350
3F3
  3
B5
350
3F4
  3
B6
350
3F5
  3
B7
350
3F6
  3
B8
350
3F7
  3
B9
350
3F8
  3
C0
350
3F9
  3
C1
350
3FA
  3
C2
350
3FB
  3
C3
350
3FC
  3
C4
350
3FD
  3
C5
350
3FE
  3
C6
350
3FF
  3
C7
350
400
  3
C8
350
401
  3
C9
350
402
  3
D0
350
403
  3
D1
350
404
  3
D2
350
405
  0
DICTIONARY
  5
2A
102
{ACAD_REACTORS
330
C
102
}
330
C
100
AcDbDictionary
281
     1
  3
2dWireframe
350
2F
  3
3D Hidden
350
31
  3
3dWireframe
350
30
  3
Basic
350
32
  3
Brighten
350
36
  3
ColorChange
350
3A
  3
Conceptual
350
34
  3
Dim
350
35
  3
Facepattern
350
39
  3
Flat
350
2B
  3
FlatWithEdges
350
2C
  3
Gouraud
350
2D
  3
GouraudWithEdges
350
2E
  3
Linepattern
350
38
  3
Realistic
350
33
  3
Thicken
350
37
  0
DICTIONARY
  5
B43
102
{ACAD_REACTORS
330
C
102
}
330
C
100
AcDbDictionary
281
     1
  3
CANNOSCALE
350
B48
  3
DIMASSOC
350
B49
  3
HIDETEXT
350
B4A
  3
PSOLHEIGHT
350
B47
  3
PSOLWIDTH
350
B46
  0
LAYOUT
  5
1E
102
{ACAD_REACTORS
330
1A
102
}
330
1A
100
AcDbPlotSettings
  1

  2
none_device
  4

  6

 40
0.0
 41
0.0
 42
0.0
 43
0.0
 44
0.0
 45
0.0
 46
0.0
 47
0.0
 48
0.0
 49
0.0
140
0.0
141
0.0
142
1.0
143
1.0
 70
   688
 72
     0
 73
     0
 74
     5
  7

 75
    16
147
1.0
148
0.0
149
0.0
100
AcDbLayout
  1
Layout1
 70
     1
 71
     1
 10
0.0
 20
0.0
 11
420.0
 21
297.0
 12
0.0
 22
0.0
 32
0.0
 14
1.000000000000000E+20
 24
1.000000000000000E+20
 34
1.000000000000000E+20
 15
-1.000000000000000E+20
 25
-1.000000000000000E+20
 35
-1.000000000000000E+20
146
0.0
 13
0.0
 23
0.0
 33
0.0
 16
1.0
 26
0.0
 36
0.0
 17
0.0
 27
1.0
 37
0.0
 76
     0
330
1B
  0
LAYOUT
  5
26
102
{ACAD_REACTORS
330
1A
102
}
330
1A
100
AcDbPlotSettings
  1

  2
none_device
  4

  6

 40
0.0
 41
0.0
 42
0.0
 43
0.0
 44
0.0
 45
0.0
 46
0.0
 47
0.0
 48
0.0
 49
0.0
140
0.0
141
0.0
142
1.0
143
1.0
 70
   688
 72
     0
 73
     0
 74
     5
  7

 75
    16
147
1.0
148
0.0
149
0.0
100
AcDbLayout
  1
Layout2
 70
     1
 71
     2
 10
0.0
 20
0.0
 11
0.0
 21
0.0
 12
0.0
 22
0.0
 32
0.0
 14
0.0
 24
0.0
 34
0.0
 15
0.0
 25
0.0
 35
0.0
146
0.0
 13
0.0
 23
0.0
 33
0.0
 16
1.0
 26
0.0
 36
0.0
 17
0.0
 27
1.0
 37
0.0
 76
     0
330
23
  0
LAYOUT
  5
22
102
{ACAD_REACTORS
330
1A
102
}
330
1A
100
AcDbPlotSettings
  1

  2
none_device
  4

  6

 40
0.0
 41
0.0
 42
0.0
 43
0.0
 44
0.0
 45
0.0
 46
0.0
 47
0.0
 48
0.0
 49
0.0
140
0.0
141
0.0
142
1.0
143
1.0
 70
  1712
 72
     0
 73
     0
 74
     0
  7

 75
     0
147
1.0
148
0.0
149
0.0
100
AcDbLayout
  1
Model
 70
     1
 71
     0
 10
0.0
 20
0.0
 11
420.0
 21
297.0
 12
0.0
 22
0.0
 32
0.0
 14
0.0
 24
0.0
 34
0.0
 15
25.0
 25
35.0
 35
0.0
146
0.0
 13
0.0
 23
0.0
 33
0.0
 16
1.0
 26
0.0
 36
0.0
 17
0.0
 27
1.0
 37
0.0
 76
     0
330
1F
331
29
  0
MATERIAL
  5
3D
102
{ACAD_REACTORS
330
3B
102
}
102
{ACAD_XDICTIONARY
360
B6D
102
}
330
3B
100
AcDbMaterial
  1
ByBlock
  0
MATERIAL
  5
3C
102
{ACAD_REACTORS
330
3B
102
}
102
{ACAD_XDICTIONARY
360
B6B
102
}
330
3B
100
AcDbMaterial
  1
ByLayer
  0
MATERIAL
  5
3E
102
{ACAD_REACTORS
330
3B
102
}
102
{ACAD_XDICTIONARY
360
B6F
102
}
330
3B
100
AcDbMaterial
  1
Global
  0
MLINESTYLE
  5
18
102
{ACAD_REACTORS
330
17
102
}
330
17
100
AcDbMlineStyle
  2
Standard
 70
     0
  3

 62
   256
 51
90.0
 52
90.0
 71
     2
 49
0.5
 62
   256
  6
BYLAYER
 49
-0.5
 62
   256
  6
BYLAYER
  0
ACDBPLACEHOLDER
  5
F
102
{ACAD_REACTORS
330
E
102
}
330
E
  0
SCALE
  5
3E5
102
{ACAD_REACTORS
330
3E4
102
}
330
3E4
100
AcDbScale
 70
     0
300
1:1
140
1.0
141
1.0
290
     1
  0
SCALE
  5
3E6
102
{ACAD_REACTORS
330
3E4
102
}
330
3E4
100
AcDbScale
 70
     0
300
1:2
140
1.0
141
2.0
290
     0
  0
SCALE
  5
3E7
102
{ACAD_REACTORS
330
3E4
102
}
330
3E4
100
AcDbScale
 70
     0
300
1:4
140
1.0
141
4.0
290
     0
  0
SCALE
  5
3E8
102
{ACAD_REACTORS
330
3E4
102
}
330
3E4
100
AcDbScale
 70
     0
300
1:5
140
1.0
141
5.0
290
     0
  0
SCALE
  5
3E9
102
{ACAD_REACTORS
330
3E4
102
}
330
3E4
100
AcDbScale
 70
     0
300
1:8
140
1.0
141
8.0
290
     0
  0
SCALE
  5
3EA
102
{ACAD_REACTORS
330
3E4
102
}
330
3E4
100
AcDbScale
 70
     0
300
1:10
140
1.0
141
10.0
290
     0
  0
SCALE
  5
3EB
102
{ACAD_REACTORS
330
3E4
102
}
330
3E4
100
AcDbScale
 70
     0
300
1:16
140
1.0
141
16.0
290
     0
  0
SCALE
  5
3EC
102
{ACAD_REACTORS
330
3E4
102
}
330
3E4
100
AcDbScale
 70
     0
300
1:20
140
1.0
141
20.0
290
     0
  0
SCALE
  5
3ED
102
{ACAD_REACTORS
330
3E4
102
}
330
3E4
100
AcDbScale
 70
     0
300
1:30
140
1.0
141
30.0
290
     0
  0
SCALE
  5
3EE
102
{ACAD_REACTORS
330
3E4
102
}
330
3E4
100
AcDbScale
 70
     0
300
1:40
140
1.0
141
40.0
290
     0
  0
SCALE
  5
3EF
102
{ACAD_REACTORS
330
3E4
102
}
330
3E4
100
AcDbScale
 70
     0
300
1:50
140
1.0
141
50.0
290
     0
  0
SCALE
  5
3F0
102
{ACAD_REACTORS
330
3E4
102
}
330
3E4
100
AcDbScale
 70
     0
300
1:100
140
1.0
141
100.0
290
     0
  0
SCALE
  5
3F1
102
{ACAD_REACTORS
330
3E4
102
}
330
3E4
100
AcDbScale
 70
     0
300
2:1
140
2.0
141
1.0
290
     0
  0
SCALE
  5
3F2
102
{ACAD_REACTORS
330
3E4
102
}
330
3E4
100
AcDbScale
 70
     0
300
4:1
140
4.0
141
1.0
290
     0
  0
SCALE
  5
3F3
102
{ACAD_REACTORS
330
3E4
102
}
330
3E4
100
AcDbScale
 70
     0
300
8:1
140
8.0
141
1.0
290
     0
  0
SCALE
  5
3F4
102
{ACAD_REACTORS
330
3E4
102
}
330
3E4
100
AcDbScale
 70
     0
300
10:1
140
10.0
141
1.0
290
     0
  0
SCALE
  5
3F5
102
{ACAD_REACTORS
330
3E4
102
}
330
3E4
100
AcDbScale
 70
     0
300
100:1
140
100.0
141
1.0
290
     0
  0
SCALE
  5
3F6
102
{ACAD_REACTORS
330
3E4
102
}
330
3E4
100
AcDbScale
 70
     0
300
1/128" = 1'-0"
140
0.0078125
141
12.0
290
     0
  0
SCALE
  5
3F7
102
{ACAD_REACTORS
330
3E4
102
}
330
3E4
100
AcDbScale
 70
     0
300
1/64" = 1'-0"
140
0.015625
141
12.0
290
     0
  0
SCALE
  5
3F8
102
{ACAD_REACTORS
330
3E4
102
}
330
3E4
100
AcDbScale
 70
     0
300
1/32" = 1'-0"
140
0.03125
141
12.0
290
     0
  0
SCALE
  5
3F9
102
{ACAD_REACTORS
330
3E4
102
}
330
3E4
100
AcDbScale
 70
     0
300
1/16" = 1'-0"
140
0.0625
141
12.0
290
     0
  0
SCALE
  5
3FA
102
{ACAD_REACTORS
330
3E4
102
}
330
3E4
100
AcDbScale
 70
     0
300
3/32" = 1'-0"
140
0.09375
141
12.0
290
     0
  0
SCALE
  5
3FB
102
{ACAD_REACTORS
330
3E4
102
}
330
3E4
100
AcDbScale
 70
     0
300
1/8" = 1'-0"
140
0.125
141
12.0
290
     0
  0
SCALE
  5
3FC
102
{ACAD_REACTORS
330
3E4
102
}
330
3E4
100
AcDbScale
 70
     0
300
3/16" = 1'-0"
140
0.1875
141
12.0
290
     0
  0
SCALE
  5
3FD
102
{ACAD_REACTORS
330
3E4
102
}
330
3E4
100
AcDbScale
 70
     0
300
1/4" = 1'-0"
140
0.25
141
12.0
290
     0
  0
SCALE
  5
3FE
102
{ACAD_REACTORS
330
3E4
102
}
330
3E4
100
AcDbScale
 70
     0
300
3/8" = 1'-0"
140
0.375
141
12.0
290
     0
  0
SCALE
  5
3FF
102
{ACAD_REACTORS
330
3E4
102
}
330
3E4
100
AcDbScale
 70
     0
300
1/2" = 1'-0"
140
0.5
141
12.0
290
     0
  0
SCALE
  5
400
102
{ACAD_REACTORS
330
3E4
102
}
330
3E4
100
AcDbScale
 70
     0
300
3/4" = 1'-0"
140
0.75
141
12.0
290
     0
  0
SCALE
  5
401
102
{ACAD_REACTORS
330
3E4
102
}
330
3E4
100
AcDbScale
 70
     0
300
1" = 1'-0"
140
1.0
141
12.0
290
     0
  0
SCALE
  5
402
102
{ACAD_REACTORS
330
3E4
102
}
330
3E4
100
AcDbScale
 70
     0
300
1-1/2" = 1'-0"
140
1.5
141
12.0
290
     0
  0
SCALE
  5
403
102
{ACAD_REACTORS
330
3E4
102
}
330
3E4
100
AcDbScale
 70
     0
300
3" = 1'-0"
140
3.0
141
12.0
290
     0
  0
SCALE
  5
404
102
{ACAD_REACTORS
330
3E4
102
}
330
3E4
100
AcDbScale
 70
     0
300
6" = 1'-0"
140
6.0
141
12.0
290
     0
  0
SCALE
  5
405
102
{ACAD_REACTORS
330
3E4
102
}
330
3E4
100
AcDbScale
 70
     0
300
1'-0" = 1'-0"
140
12.0
141
12.0
290
     0
  0
VISUALSTYLE
  5
2F
102
{ACAD_REACTORS
330
2A
102
}
102
{ACAD_XDICTIONARY
360
B53
102
}
330
2A
100
AcDbVisualStyle
  2
2dWireframe
 70
     4
 71
     0
 72
     2
 73
     0
 90
        0
 40
-0.6
 41
-30.0
 62
     5
 63
     7
 74
     1
 91
        4
 64
     7
 65
   257
 75
     1
175
     1
 42
1.0
 92
        0
 66
   257
 43
1.0
 76
     1
 77
     6
 78
     2
 67
     7
 79
     5
170
     0
171
     0
290
     0
174
     0
 93
        1
 44
0.0
173
     0
291
     0
 45
0.0
1001
ACAD
1000
AcDbSavedByObjectVersion
1070
     0
  0
VISUALSTYLE
  5
31
102
{ACAD_REACTORS
330
2A
102
}
102
{ACAD_XDICTIONARY
360
B57
102
}
330
2A
100
AcDbVisualStyle
  2
3D Hidden
 70
     6
 71
     1
 72
     2
 73
     2
 90
        0
 40
-0.6
 41
-30.0
 62
     5
 63
     7
 74
     2
 91
        2
 64
     7
 65
   257
 75
     2
175
     1
 42
40.0
 92
        0
 66
   257
 43
1.0
 76
     1
 77
     6
 78
     2
 67
     7
 79
     3
170
     0
171
     0
290
     0
174
     0
 93
        1
 44
0.0
173
     0
291
     0
 45
0.0
1001
ACAD
1000
AcDbSavedByObjectVersion
1070
     0
  0
VISUALSTYLE
  5
30
102
{ACAD_REACTORS
330
2A
102
}
102
{ACAD_XDICTIONARY
360
B55
102
}
330
2A
100
AcDbVisualStyle
  2
3dWireframe
 70
     5
 71
     0
 72
     2
 73
     0
 90
        0
 40
-0.6
 41
-30.0
 62
     5
 63
     7
 74
     1
 91
        4
 64
     7
 65
   257
 75
     1
175
     1
 42
1.0
 92
        0
 66
   257
 43
1.0
 76
     1
 77
     6
 78
     2
 67
     7
 79
     5
170
     0
171
     0
290
     0
174
     0
 93
        1
 44
0.0
173
     0
291
     0
 45
0.0
1001
ACAD
1000
AcDbSavedByObjectVersion
1070
     0
  0
VISUALSTYLE
  5
32
102
{ACAD_REACTORS
330
2A
102
}
102
{ACAD_XDICTIONARY
360
B59
102
}
330
2A
100
AcDbVisualStyle
  2
Basic
 70
     7
 71
     1
 72
     0
 73
     1
 90
        0
 40
-0.6
 41
-30.0
 62
     5
 63
     7
 74
     0
 91
        4
 64
     7
 65
   257
 75
     1
175
     1
 42
1.0
 92
        8
 66
     7
 43
1.0
 76
     1
 77
     6
 78
     2
 67
     7
 79
     5
170
     0
171
     0
290
     0
174
     0
 93
        1
 44
0.0
173
     0
291
     1
 45
0.0
1001
ACAD
1000
AcDbSavedByObjectVersion
1070
     0
  0
VISUALSTYLE
  5
36
102
{ACAD_REACTORS
330
2A
102
}
102
{ACAD_XDICTIONARY
360
B61
102
}
330
2A
100
AcDbVisualStyle
  2
Brighten
 70
    12
 71
     2
 72
     2
 73
     0
 90
        0
 40
-0.6
 41
-30.0
 62
     5
 63
     7
 74
     1
 91
        4
 64
     7
 65
   257
 75
     1
175
     1
 42
1.0
 92
        8
 66
     7
 43
1.0
 76
     1
 77
     6
 78
     2
 67
     7
 79
     5
170
     0
171
     0
290
     0
174
     0
 93
        1
 44
50.0
173
     0
291
     1
 45
0.0
1001
ACAD
1000
AcDbSavedByObjectVersion
1070
     0
  0
VISUALSTYLE
  5
3A
102
{ACAD_REACTORS
330
2A
102
}
102
{ACAD_XDICTIONARY
360
B69
102
}
330
2A
100
AcDbVisualStyle
  2
ColorChange
 70
    16
 71
     2
 72
     2
 73
     3
 90
        0
 40
-0.6
 41
-30.0
 62
     5
 63
     8
 74
     1
 91
        4
 64
     7
 65
   257
 75
     1
175
     1
 42
1.0
 92
        8
 66
     8
 43
1.0
 76
     1
 77
     6
 78
     2
 67
     7
 79
     5
170
     0
171
     0
290
     0
174
     0
 93
        1
 44
0.0
173
     0
291
     1
 45
0.0
1001
ACAD
1000
AcDbSavedByObjectVersion
1070
     0
  0
VISUALSTYLE
  5
34
102
{ACAD_REACTORS
330
2A
102
}
102
{ACAD_XDICTIONARY
360
B5D
102
}
330
2A
100
AcDbVisualStyle
  2
Conceptual
 70
     9
 71
     3
 72
     2
 73
     0
 90
        0
 40
-0.6
 41
-30.0
 62
     5
 63
     7
 74
     2
 91
        2
 64
     7
 65
   257
 75
     1
175
     1
 42
40.0
 92
        8
 66
     7
 43
1.0
 76
     1
 77
     6
 78
     2
 67
     7
 79
     3
170
     0
171
     0
290
     0
174
     0
 93
        1
 44
0.0
173
     0
291
     0
 45
0.0
1001
ACAD
1000
AcDbSavedByObjectVersion
1070
     0
  0
VISUALSTYLE
  5
35
102
{ACAD_REACTORS
330
2A
102
}
102
{ACAD_XDICTIONARY
360
B5F
102
}
330
2A
100
AcDbVisualStyle
  2
Dim
 70
    11
 71
     2
 72
     2
 73
     0
 90
        0
 40
-0.6
 41
-30.0
 62
     5
 63
     7
 74
     1
 91
        4
 64
     7
 65
   257
 75
     1
175
     1
 42
1.0
 92
        8
 66
     7
 43
1.0
 76
     1
 77
     6
 78
     2
 67
     7
 79
     5
170
     0
171
     0
290
     0
174
     0
 93
        1
 44
-50.0
173
     0
291
     1
 45
0.0
1001
ACAD
1000
AcDbSavedByObjectVersion
1070
     0
  0
VISUALSTYLE
  5
39
102
{ACAD_REACTORS
330
2A
102
}
102
{ACAD_XDICTIONARY
360
B67
102
}
330
2A
100
AcDbVisualStyle
  2
Facepattern
 70
    15
 71
     2
 72
     2
 73
     0
 90
        0
 40
-0.6
 41
-30.0
 62
     5
 63
     7
 74
     1
 91
        4
 64
     7
 65
   257
 75
     1
175
     1
 42
1.0
 92
        8
 66
     7
 43
1.0
 76
     1
 77
     6
 78
     2
 67
     7
 79
     5
170
     0
171
     0
290
     0
174
     0
 93
        1
 44
0.0
173
     0
291
     1
 45
0.0
1001
ACAD
1000
AcDbSavedByObjectVersion
1070
     0
  0
VISUALSTYLE
  5
2B
102
{ACAD_REACTORS
330
2A
102
}
102
{ACAD_XDICTIONARY
360
B4B
102
}
330
2A
100
AcDbVisualStyle
  2
Flat
 70
     0
 71
     2
 72
     1
 73
     1
 90
        2
 40
-0.6
 41
30.0
 62
     5
 63
     7
 74
     0
 91
        4
 64
     7
 65
   257
 75
     1
175
     1
 42
1.0
 92
        8
 66
     7
 43
1.0
 76
     1
 77
     6
 78
     2
 67
     7
 79
     5
170
     0
171
     0
290
     0
174
     0
 93
       13
 44
0.0
173
     0
291
     1
 45
0.0
1001
ACAD
1000
AcDbSavedByObjectVersion
1070
     0
  0
VISUALSTYLE
  5
2C
102
{ACAD_REACTORS
330
2A
102
}
102
{ACAD_XDICTIONARY
360
B4D
102
}
330
2A
100
AcDbVisualStyle
  2
FlatWithEdges
 70
     1
 71
     2
 72
     1
 73
     1
 90
        2
 40
-0.6
 41
30.0
 62
     5
 63
     7
 74
     1
 91
        4
 64
     7
 65
   257
 75
     1
175
     1
 42
1.0
 92
        0
 66
   257
 43
1.0
 76
     1
 77
     6
 78
     2
 67
     7
 79
     5
170
     0
171
     0
290
     0
174
     0
 93
       13
 44
0.0
173
     0
291
     1
 45
0.0
1001
ACAD
1000
AcDbSavedByObjectVersion
1070
     0
  0
VISUALSTYLE
  5
2D
102
{ACAD_REACTORS
330
2A
102
}
102
{ACAD_XDICTIONARY
360
B4F
102
}
330
2A
100
AcDbVisualStyle
  2
Gouraud
 70
     2
 71
     2
 72
     2
 73
     1
 90
        2
 40
-0.6
 41
30.0
 62
     5
 63
     7
 74
     0
 91
        4
 64
     7
 65
   257
 75
     1
175
     1
 42
1.0
 92
        0
 66
     7
 43
1.0
 76
     1
 77
     6
 78
     2
 67
     7
 79
     5
170
     0
171
     0
290
     0
174
     0
 93
       13
 44
0.0
173
     0
291
     1
 45
0.0
1001
ACAD
1000
AcDbSavedByObjectVersion
1070
     0
  0
VISUALSTYLE
  5
2E
102
{ACAD_REACTORS
330
2A
102
}
102
{ACAD_XDICTIONARY
360
B51
102
}
330
2A
100
AcDbVisualStyle
  2
GouraudWithEdges
 70
     3
 71
     2
 72
     2
 73
     1
 90
        2
 40
-0.6
 41
30.0
 62
     5
 63
     7
 74
     1
 91
        4
 64
     7
 65
   257
 75
     1
175
     1
 42
1.0
 92
        0
 66
   257
 43
1.0
 76
     1
 77
     6
 78
     2
 67
     7
 79
     5
170
     0
171
     0
290
     0
174
     0
 93
       13
 44
0.0
173
     0
291
     1
 45
0.0
1001
ACAD
1000
AcDbSavedByObjectVersion
1070
     0
  0
VISUALSTYLE
  5
38
102
{ACAD_REACTORS
330
2A
102
}
102
{ACAD_XDICTIONARY
360
B65
102
}
330
2A
100
AcDbVisualStyle
  2
Linepattern
 70
    14
 71
     2
 72
     2
 73
     0
 90
        0
 40
-0.6
 41
-30.0
 62
     5
 63
     7
 74
     1
 91
        4
 64
     7
 65
   257
 75
     7
175
     7
 42
1.0
 92
        8
 66
     7
 43
1.0
 76
     1
 77
     6
 78
     2
 67
     7
 79
     5
170
     0
171
     0
290
     0
174
     0
 93
        1
 44
0.0
173
     0
291
     1
 45
0.0
1001
ACAD
1000
AcDbSavedByObjectVersion
1070
     0
  0
VISUALSTYLE
  5
33
102
{ACAD_REACTORS
330
2A
102
}
102
{ACAD_XDICTIONARY
360
B5B
102
}
330
2A
100
AcDbVisualStyle
  2
Realistic
 70
     8
 71
     2
 72
     2
 73
     0
 90
        0
 40
-0.6
 41
-30.0
 62
     5
 63
     7
 74
     1
 91
        0
 64
     7
 65
   257
 75
     1
175
     1
 42
1.0
 92
        8
 66
     8
 43
1.0
 76
     1
 77
     6
 78
     2
 67
     7
 79
     5
170
     0
171
     0
290
     0
174
     0
 93
       13
 44
0.0
173
     0
291
     0
 45
0.0
1001
ACAD
1000
AcDbSavedByObjectVersion
1070
     0
  0
VISUALSTYLE
  5
37
102
{ACAD_REACTORS
330
2A
102
}
102
{ACAD_XDICTIONARY
360
B63
102
}
330
2A
100
AcDbVisualStyle
  2
Thicken
 70
    13
 71
     2
 72
     2
 73
     0
 90
        0
 40
-0.6
 41
-30.0
 62
     5
 63
     7
 74
     1
 91
        4
 64
     7
 65
   257
 75
     1
175
     1
 42
1.0
 92
       12
 66
     7
 43
1.0
 76
     1
 77
     6
 78
     2
 67
     7
 79
     5
170
     0
171
     0
290
     0
174
     0
 93
        1
 44
0.0
173
     0
291
     1
 45
0.0
1001
ACAD
1000
AcDbSavedByObjectVersion
1070
     0
  0
DICTIONARYVAR
  5
B48
102
{ACAD_REACTORS
330
B43
102
}
330
B43
100
DictionaryVariables
280
     0
  1
1:1
  0
DICTIONARYVAR
  5
B49
102
{ACAD_REACTORS
330
B43
102
}
330
B43
100
DictionaryVariables
280
     0
  1
2
  0
DICTIONARYVAR
  5
B4A
102
{ACAD_REACTORS
330
B43
102
}
330
B43
100
DictionaryVariables
280
     0
  1
1
  0
DICTIONARYVAR
  5
B47
102
{ACAD_REACTORS
330
B43
102
}
330
B43
100
DictionaryVariables
280
     0
  1
80.000000
  0
DICTIONARYVAR
  5
B46
102
{ACAD_REACTORS
330
B43
102
}
330
B43
100
DictionaryVariables
280
     0
  1
5.000000
  0
DICTIONARY
  5
B6D
330
3D
100
AcDbDictionary
280
     1
281
     1
  3
ACAD_XREC_ROUNDTRIP
360
B6E
  0
DICTIONARY
  5
B6B
330
3C
100
AcDbDictionary
280
     1
281
     1
  3
ACAD_XREC_ROUNDTRIP
360
B6C
  0
DICTIONARY
  5
B6F
330
3E
100
AcDbDictionary
280
     1
281
     1
  3
ACAD_XREC_ROUNDTRIP
360
B70
  0
DICTIONARY
  5
B53
330
2F
100
AcDbDictionary
280
     1
281
     1
  3
ACAD_XREC_ROUNDTRIP
360
B54
  0
DICTIONARY
  5
B57
330
31
100
AcDbDictionary
280
     1
281
     1
  3
ACAD_XREC_ROUNDTRIP
360
B58
  0
DICTIONARY
  5
B55
330
30
100
AcDbDictionary
280
     1
281
     1
  3
ACAD_XREC_ROUNDTRIP
360
B56
  0
DICTIONARY
  5
B59
330
32
100
AcDbDictionary
280
     1
281
     1
  3
ACAD_XREC_ROUNDTRIP
360
B5A
  0
DICTIONARY
  5
B61
330
36
100
AcDbDictionary
280
     1
281
     1
  3
ACAD_XREC_ROUNDTRIP
360
B62
  0
DICTIONARY
  5
B69
330
3A
100
AcDbDictionary
280
     1
281
     1
  3
ACAD_XREC_ROUNDTRIP
360
B6A
  0
DICTIONARY
  5
B5D
330
34
100
AcDbDictionary
280
     1
281
     1
  3
ACAD_XREC_ROUNDTRIP
360
B5E
  0
DICTIONARY
  5
B5F
330
35
100
AcDbDictionary
280
     1
281
     1
  3
ACAD_XREC_ROUNDTRIP
360
B60
  0
DICTIONARY
  5
B67
330
39
100
AcDbDictionary
280
     1
281
     1
  3
ACAD_XREC_ROUNDTRIP
360
B68
  0
DICTIONARY
  5
B4B
330
2B
100
AcDbDictionary
280
     1
281
     1
  3
ACAD_XREC_ROUNDTRIP
360
B4C
  0
DICTIONARY
  5
B4D
330
2C
100
AcDbDictionary
280
     1
281
     1
  3
ACAD_XREC_ROUNDTRIP
360
B4E
  0
DICTIONARY
  5
B4F
330
2D
100
AcDbDictionary
280
     1
281
     1
  3
ACAD_XREC_ROUNDTRIP
360
B50
  0
DICTIONARY
  5
B51
330
2E
100
AcDbDictionary
280
     1
281
     1
  3
ACAD_XREC_ROUNDTRIP
360
B52
  0
DICTIONARY
  5
B65
330
38
100
AcDbDictionary
280
     1
281
     1
  3
ACAD_XREC_ROUNDTRIP
360
B66
  0
DICTIONARY
  5
B5B
330
33
100
AcDbDictionary
280
     1
281
     1
  3
ACAD_XREC_ROUNDTRIP
360
B5C
  0
DICTIONARY
  5
B63
330
37
100
AcDbDictionary
280
     1
281
     1
  3
ACAD_XREC_ROUNDTRIP
360
B64
  0
XRECORD
  5
B6E
102
{ACAD_REACTORS
330
B6D
102
}
330
B6D
100
AcDbXrecord
280
     1
102
MATERIAL
148
0.0
149
0.0
149
0.0
 93
        0
 94
      127
282
     0
 72
     1
 77
     1
171
     1
175
     1
179
     1
273
     0
  0
XRECORD
  5
B6C
102
{ACAD_REACTORS
330
B6B
102
}
330
B6B
100
AcDbXrecord
280
     1
102
MATERIAL
148
0.0
149
0.0
149
0.0
 93
        0
 94
      127
282
     0
 72
     1
 77
     1
171
     1
175
     1
179
     1
273
     0
  0
XRECORD
  5
B70
102
{ACAD_REACTORS
330
B6F
102
}
330
B6F
100
AcDbXrecord
280
     1
102
MATERIAL
148
0.0
149
0.0
149
0.0
 93
        0
 94
      127
282
     0
 72
     1
 77
     1
171
     1
175
     1
179
     1
273
     0
  0
XRECORD
  5
B54
102
{ACAD_REACTORS
330
B53
102
}
330
B53
100
AcDbXrecord
280
     1
102
RTVSPropertyOp0
 70
     1
102
RTVSPropertyOp1
 70
     1
102
RTVSPropertyOp2
 70
     1
102
RTVSPropertyOp3
 70
     1
102
RTVSPropertyOp4
 70
     1
102
RTVSPropertyOp5
 70
     1
102
RTVSPropertyOp6
 70
     1
102
RTVSPropertyOp7
 70
     1
102
RTVSPropertyOp8
 70
     1
102
RTVSPropertyOp9
 70
     1
102
RTVSPropertyOp10
 70
     1
102
RTVSPropertyOp11
 70
     1
102
RTVSPropertyOp12
 70
     1
102
RTVSPropertyOp13
 70
     1
102
RTVSPropertyOp14
 70
     1
102
RTVSPropertyOp15
 70
     1
102
RTVSPropertyOp16
 70
     1
102
RTVSPropertyOp17
 70
     1
102
RTVSPropertyOp18
 70
     1
102
RTVSPropertyOp19
 70
     1
102
RTVSPropertyOp20
 70
     1
102
RTVSPropertyOp21
 70
     1
102
RTVSPropertyOp22
 70
     1
102
RTVSPropertyOp23
 70
     1
102
RTVSPropertyOp24
 70
     1
102
RTVSPropertyOp25
 70
     1
102
RTVSPropertyOp26
 70
     1
102
RTVSPropertyOp27
 70
     1
  0
XRECORD
  5
B58
102
{ACAD_REACTORS
330
B57
102
}
330
B57
100
AcDbXrecord
280
     1
102
RTVSPropertyOp0
 70
     1
102
RTVSPropertyOp1
 70
     1
102
RTVSPropertyOp2
 70
     1
102
RTVSPropertyOp3
 70
     1
102
RTVSPropertyOp4
 70
     1
102
RTVSPropertyOp5
 70
     1
102
RTVSPropertyOp6
 70
     1
102
RTVSPropertyOp7
 70
     1
102
RTVSPropertyOp8
 70
     1
102
RTVSPropertyOp9
 70
     1
102
RTVSPropertyOp10
 70
     1
102
RTVSPropertyOp11
 70
     1
102
RTVSPropertyOp12
 70
     1
102
RTVSPropertyOp13
 70
     1
102
RTVSPropertyOp14
 70
     1
102
RTVSPropertyOp15
 70
     1
102
RTVSPropertyOp16
 70
     1
102
RTVSPropertyOp17
 70
     1
102
RTVSPropertyOp18
 70
     1
102
RTVSPropertyOp19
 70
     1
102
RTVSPropertyOp20
 70
     1
102
RTVSPropertyOp21
 70
     1
102
RTVSPropertyOp22
 70
     1
102
RTVSPropertyOp23
 70
     1
102
RTVSPropertyOp24
 70
     1
102
RTVSPropertyOp25
 70
     1
102
RTVSPropertyOp26
 70
     1
102
RTVSPropertyOp27
 70
     1
  0
XRECORD
  5
B56
102
{ACAD_REACTORS
330
B55
102
}
330
B55
100
AcDbXrecord
280
     1
102
RTVSPropertyOp0
 70
     1
102
RTVSPropertyOp1
 70
     1
102
RTVSPropertyOp2
 70
     1
102
RTVSPropertyOp3
 70
     1
102
RTVSPropertyOp4
 70
     1
102
RTVSPropertyOp5
 70
     1
102
RTVSPropertyOp6
 70
     1
102
RTVSPropertyOp7
 70
     1
102
RTVSPropertyOp8
 70
     1
102
RTVSPropertyOp9
 70
     1
102
RTVSPropertyOp10
 70
     1
102
RTVSPropertyOp11
 70
     1
102
RTVSPropertyOp12
 70
     1
102
RTVSPropertyOp13
 70
     1
102
RTVSPropertyOp14
 70
     1
102
RTVSPropertyOp15
 70
     1
102
RTVSPropertyOp16
 70
     1
102
RTVSPropertyOp17
 70
     1
102
RTVSPropertyOp18
 70
     1
102
RTVSPropertyOp19
 70
     1
102
RTVSPropertyOp20
 70
     1
102
RTVSPropertyOp21
 70
     1
102
RTVSPropertyOp22
 70
     1
102
RTVSPropertyOp23
 70
     1
102
RTVSPropertyOp24
 70
     1
102
RTVSPropertyOp25
 70
     1
102
RTVSPropertyOp26
 70
     1
102
RTVSPropertyOp27
 70
     1
  0
XRECORD
  5
B5A
102
{ACAD_REACTORS
330
B59
102
}
330
B59
100
AcDbXrecord
280
     1
102
RTVSPropertyOp0
 70
     1
102
RTVSPropertyOp1
 70
     1
102
RTVSPropertyOp2
 70
     1
102
RTVSPropertyOp3
 70
     1
102
RTVSPropertyOp4
 70
     1
102
RTVSPropertyOp5
 70
     1
102
RTVSPropertyOp6
 70
     1
102
RTVSPropertyOp7
 70
     1
102
RTVSPropertyOp8
 70
     1
102
RTVSPropertyOp9
 70
     1
102
RTVSPropertyOp10
 70
     1
102
RTVSPropertyOp11
 70
     1
102
RTVSPropertyOp12
 70
     1
102
RTVSPropertyOp13
 70
     1
102
RTVSPropertyOp14
 70
     1
102
RTVSPropertyOp15
 70
     1
102
RTVSPropertyOp16
 70
     1
102
RTVSPropertyOp17
 70
     1
102
RTVSPropertyOp18
 70
     1
102
RTVSPropertyOp19
 70
     1
102
RTVSPropertyOp20
 70
     1
102
RTVSPropertyOp21
 70
     1
102
RTVSPropertyOp22
 70
     1
102
RTVSPropertyOp23
 70
     1
102
RTVSPropertyOp24
 70
     1
102
RTVSPropertyOp25
 70
     1
102
RTVSPropertyOp26
 70
     1
102
RTVSPropertyOp27
 70
     1
  0
XRECORD
  5
B62
102
{ACAD_REACTORS
330
B61
102
}
330
B61
100
AcDbXrecord
280
     1
102
RTVSPropertyOp0
 70
     1
102
RTVSPropertyOp1
 70
     1
102
RTVSPropertyOp2
 70
     1
102
RTVSPropertyOp3
 70
     1
102
RTVSPropertyOp4
 70
     1
102
RTVSPropertyOp5
 70
     1
102
RTVSPropertyOp6
 70
     1
102
RTVSPropertyOp7
 70
     1
102
RTVSPropertyOp8
 70
     1
102
RTVSPropertyOp9
 70
     1
102
RTVSPropertyOp10
 70
     1
102
RTVSPropertyOp11
 70
     1
102
RTVSPropertyOp12
 70
     1
102
RTVSPropertyOp13
 70
     1
102
RTVSPropertyOp14
 70
     1
102
RTVSPropertyOp15
 70
     1
102
RTVSPropertyOp16
 70
     1
102
RTVSPropertyOp17
 70
     1
102
RTVSPropertyOp18
 70
     1
102
RTVSPropertyOp19
 70
     1
102
RTVSPropertyOp20
 70
     1
102
RTVSPropertyOp21
 70
     1
102
RTVSPropertyOp22
 70
     1
102
RTVSPropertyOp23
 70
     1
102
RTVSPropertyOp24
 70
     1
102
RTVSPropertyOp25
 70
     1
102
RTVSPropertyOp26
 70
     1
102
RTVSPropertyOp27
 70
     1
  0
XRECORD
  5
B6A
102
{ACAD_REACTORS
330
B69
102
}
330
B69
100
AcDbXrecord
280
     1
102
RTVSPropertyOp0
 70
     1
102
RTVSPropertyOp1
 70
     1
102
RTVSPropertyOp2
 70
     1
102
RTVSPropertyOp3
 70
     1
102
RTVSPropertyOp4
 70
     1
102
RTVSPropertyOp5
 70
     1
102
RTVSPropertyOp6
 70
     1
102
RTVSPropertyOp7
 70
     1
102
RTVSPropertyOp8
 70
     1
102
RTVSPropertyOp9
 70
     1
102
RTVSPropertyOp10
 70
     1
102
RTVSPropertyOp11
 70
     1
102
RTVSPropertyOp12
 70
     1
102
RTVSPropertyOp13
 70
     1
102
RTVSPropertyOp14
 70
     1
102
RTVSPropertyOp15
 70
     1
102
RTVSPropertyOp16
 70
     1
102
RTVSPropertyOp17
 70
     1
102
RTVSPropertyOp18
 70
     1
102
RTVSPropertyOp19
 70
     1
102
RTVSPropertyOp20
 70
     1
102
RTVSPropertyOp21
 70
     1
102
RTVSPropertyOp22
 70
     1
102
RTVSPropertyOp23
 70
     1
102
RTVSPropertyOp24
 70
     1
102
RTVSPropertyOp25
 70
     1
102
RTVSPropertyOp26
 70
     1
102
RTVSPropertyOp27
 70
     1
  0
XRECORD
  5
B5E
102
{ACAD_REACTORS
330
B5D
102
}
330
B5D
100
AcDbXrecord
280
     1
102
RTVSPropertyOp0
 70
     1
102
RTVSPropertyOp1
 70
     1
102
RTVSPropertyOp2
 70
     1
102
RTVSPropertyOp3
 70
     1
102
RTVSPropertyOp4
 70
     1
102
RTVSPropertyOp5
 70
     1
102
RTVSPropertyOp6
 70
     1
102
RTVSPropertyOp7
 70
     1
102
RTVSPropertyOp8
 70
     1
102
RTVSPropertyOp9
 70
     1
102
RTVSPropertyOp10
 70
     1
102
RTVSPropertyOp11
 70
     1
102
RTVSPropertyOp12
 70
     1
102
RTVSPropertyOp13
 70
     1
102
RTVSPropertyOp14
 70
     1
102
RTVSPropertyOp15
 70
     1
102
RTVSPropertyOp16
 70
     1
102
RTVSPropertyOp17
 70
     1
102
RTVSPropertyOp18
 70
     1
102
RTVSPropertyOp19
 70
     1
102
RTVSPropertyOp20
 70
     1
102
RTVSPropertyOp21
 70
     1
102
RTVSPropertyOp22
 70
     1
102
RTVSPropertyOp23
 70
     1
102
RTVSPropertyOp24
 70
     1
102
RTVSPropertyOp25
 70
     1
102
RTVSPropertyOp26
 70
     1
102
RTVSPropertyOp27
 70
     1
  0
XRECORD
  5
B60
102
{ACAD_REACTORS
330
B5F
102
}
330
B5F
100
AcDbXrecord
280
     1
102
RTVSPropertyOp0
 70
     1
102
RTVSPropertyOp1
 70
     1
102
RTVSPropertyOp2
 70
     1
102
RTVSPropertyOp3
 70
     1
102
RTVSPropertyOp4
 70
     1
102
RTVSPropertyOp5
 70
     1
102
RTVSPropertyOp6
 70
     1
102
RTVSPropertyOp7
 70
     1
102
RTVSPropertyOp8
 70
     1
102
RTVSPropertyOp9
 70
     1
102
RTVSPropertyOp10
 70
     1
102
RTVSPropertyOp11
 70
     1
102
RTVSPropertyOp12
 70
     1
102
RTVSPropertyOp13
 70
     1
102
RTVSPropertyOp14
 70
     1
102
RTVSPropertyOp15
 70
     1
102
RTVSPropertyOp16
 70
     1
102
RTVSPropertyOp17
 70
     1
102
RTVSPropertyOp18
 70
     1
102
RTVSPropertyOp19
 70
     1
102
RTVSPropertyOp20
 70
     1
102
RTVSPropertyOp21
 70
     1
102
RTVSPropertyOp22
 70
     1
102
RTVSPropertyOp23
 70
     1
102
RTVSPropertyOp24
 70
     1
102
RTVSPropertyOp25
 70
     1
102
RTVSPropertyOp26
 70
     1
102
RTVSPropertyOp27
 70
     1
  0
XRECORD
  5
B68
102
{ACAD_REACTORS
330
B67
102
}
330
B67
100
AcDbXrecord
280
     1
102
RTVSPropertyOp0
 70
     1
102
RTVSPropertyOp1
 70
     1
102
RTVSPropertyOp2
 70
     1
102
RTVSPropertyOp3
 70
     1
102
RTVSPropertyOp4
 70
     1
102
RTVSPropertyOp5
 70
     1
102
RTVSPropertyOp6
 70
     1
102
RTVSPropertyOp7
 70
     1
102
RTVSPropertyOp8
 70
     1
102
RTVSPropertyOp9
 70
     1
102
RTVSPropertyOp10
 70
     1
102
RTVSPropertyOp11
 70
     1
102
RTVSPropertyOp12
 70
     1
102
RTVSPropertyOp13
 70
     1
102
RTVSPropertyOp14
 70
     1
102
RTVSPropertyOp15
 70
     1
102
RTVSPropertyOp16
 70
     1
102
RTVSPropertyOp17
 70
     1
102
RTVSPropertyOp18
 70
     1
102
RTVSPropertyOp19
 70
     1
102
RTVSPropertyOp20
 70
     1
102
RTVSPropertyOp21
 70
     1
102
RTVSPropertyOp22
 70
     1
102
RTVSPropertyOp23
 70
     1
102
RTVSPropertyOp24
 70
     1
102
RTVSPropertyOp25
 70
     1
102
RTVSPropertyOp26
 70
     1
102
RTVSPropertyOp27
 70
     1
  0
XRECORD
  5
B4C
102
{ACAD_REACTORS
330
B4B
102
}
330
B4B
100
AcDbXrecord
280
     1
102
RTVSPropertyOp0
 70
     1
102
RTVSPropertyOp1
 70
     1
102
RTVSPropertyOp2
 70
     1
102
RTVSPropertyOp3
 70
     1
102
RTVSPropertyOp4
 70
     1
102
RTVSPropertyOp5
 70
     1
102
RTVSPropertyOp6
 70
     1
102
RTVSPropertyOp7
 70
     1
102
RTVSPropertyOp8
 70
     1
102
RTVSPropertyOp9
 70
     1
102
RTVSPropertyOp10
 70
     1
102
RTVSPropertyOp11
 70
     1
102
RTVSPropertyOp12
 70
     1
102
RTVSPropertyOp13
 70
     1
102
RTVSPropertyOp14
 70
     1
102
RTVSPropertyOp15
 70
     1
102
RTVSPropertyOp16
 70
     1
102
RTVSPropertyOp17
 70
     1
102
RTVSPropertyOp18
 70
     1
102
RTVSPropertyOp19
 70
     1
102
RTVSPropertyOp20
 70
     1
102
RTVSPropertyOp21
 70
     1
102
RTVSPropertyOp22
 70
     1
102
RTVSPropertyOp23
 70
     1
102
RTVSPropertyOp24
 70
     1
102
RTVSPropertyOp25
 70
     1
102
RTVSPropertyOp26
 70
     1
102
RTVSPropertyOp27
 70
     1
  0
XRECORD
  5
B4E
102
{ACAD_REACTORS
330
B4D
102
}
330
B4D
100
AcDbXrecord
280
     1
102
RTVSPropertyOp0
 70
     1
102
RTVSPropertyOp1
 70
     1
102
RTVSPropertyOp2
 70
     1
102
RTVSPropertyOp3
 70
     1
102
RTVSPropertyOp4
 70
     1
102
RTVSPropertyOp5
 70
     1
102
RTVSPropertyOp6
 70
     1
102
RTVSPropertyOp7
 70
     1
102
RTVSPropertyOp8
 70
     1
102
RTVSPropertyOp9
 70
     1
102
RTVSPropertyOp10
 70
     1
102
RTVSPropertyOp11
 70
     1
102
RTVSPropertyOp12
 70
     1
102
RTVSPropertyOp13
 70
     1
102
RTVSPropertyOp14
 70
     1
102
RTVSPropertyOp15
 70
     1
102
RTVSPropertyOp16
 70
     1
102
RTVSPropertyOp17
 70
     1
102
RTVSPropertyOp18
 70
     1
102
RTVSPropertyOp19
 70
     1
102
RTVSPropertyOp20
 70
     1
102
RTVSPropertyOp21
 70
     1
102
RTVSPropertyOp22
 70
     1
102
RTVSPropertyOp23
 70
     1
102
RTVSPropertyOp24
 70
     1
102
RTVSPropertyOp25
 70
     1
102
RTVSPropertyOp26
 70
     1
102
RTVSPropertyOp27
 70
     1
  0
XRECORD
  5
B50
102
{ACAD_REACTORS
330
B4F
102
}
330
B4F
100
AcDbXrecord
280
     1
102
RTVSPropertyOp0
 70
     1
102
RTVSPropertyOp1
 70
     1
102
RTVSPropertyOp2
 70
     1
102
RTVSPropertyOp3
 70
     1
102
RTVSPropertyOp4
 70
     1
102
RTVSPropertyOp5
 70
     1
102
RTVSPropertyOp6
 70
     1
102
RTVSPropertyOp7
 70
     1
102
RTVSPropertyOp8
 70
     1
102
RTVSPropertyOp9
 70
     1
102
RTVSPropertyOp10
 70
     1
102
RTVSPropertyOp11
 70
     1
102
RTVSPropertyOp12
 70
     1
102
RTVSPropertyOp13
 70
     1
102
RTVSPropertyOp14
 70
     1
102
RTVSPropertyOp15
 70
     1
102
RTVSPropertyOp16
 70
     1
102
RTVSPropertyOp17
 70
     1
102
RTVSPropertyOp18
 70
     1
102
RTVSPropertyOp19
 70
     1
102
RTVSPropertyOp20
 70
     1
102
RTVSPropertyOp21
 70
     1
102
RTVSPropertyOp22
 70
     1
102
RTVSPropertyOp23
 70
     1
102
RTVSPropertyOp24
 70
     1
102
RTVSPropertyOp25
 70
     1
102
RTVSPropertyOp26
 70
     1
102
RTVSPropertyOp27
 70
     1
  0
XRECORD
  5
B52
102
{ACAD_REACTORS
330
B51
102
}
330
B51
100
AcDbXrecord
280
     1
102
RTVSPropertyOp0
 70
     1
102
RTVSPropertyOp1
 70
     1
102
RTVSPropertyOp2
 70
     1
102
RTVSPropertyOp3
 70
     1
102
RTVSPropertyOp4
 70
     1
102
RTVSPropertyOp5
 70
     1
102
RTVSPropertyOp6
 70
     1
102
RTVSPropertyOp7
 70
     1
102
RTVSPropertyOp8
 70
     1
102
RTVSPropertyOp9
 70
     1
102
RTVSPropertyOp10
 70
     1
102
RTVSPropertyOp11
 70
     1
102
RTVSPropertyOp12
 70
     1
102
RTVSPropertyOp13
 70
     1
102
RTVSPropertyOp14
 70
     1
102
RTVSPropertyOp15
 70
     1
102
RTVSPropertyOp16
 70
     1
102
RTVSPropertyOp17
 70
     1
102
RTVSPropertyOp18
 70
     1
102
RTVSPropertyOp19
 70
     1
102
RTVSPropertyOp20
 70
     1
102
RTVSPropertyOp21
 70
     1
102
RTVSPropertyOp22
 70
     1
102
RTVSPropertyOp23
 70
     1
102
RTVSPropertyOp24
 70
     1
102
RTVSPropertyOp25
 70
     1
102
RTVSPropertyOp26
 70
     1
102
RTVSPropertyOp27
 70
     1
  0
XRECORD
  5
B66
102
{ACAD_REACTORS
330
B65
102
}
330
B65
100
AcDbXrecord
280
     1
102
RTVSPropertyOp0
 70
     1
102
RTVSPropertyOp1
 70
     1
102
RTVSPropertyOp2
 70
     1
102
RTVSPropertyOp3
 70
     1
102
RTVSPropertyOp4
 70
     1
102
RTVSPropertyOp5
 70
     1
102
RTVSPropertyOp6
 70
     1
102
RTVSPropertyOp7
 70
     1
102
RTVSPropertyOp8
 70
     1
102
RTVSPropertyOp9
 70
     1
102
RTVSPropertyOp10
 70
     1
102
RTVSPropertyOp11
 70
     1
102
RTVSPropertyOp12
 70
     1
102
RTVSPropertyOp13
 70
     1
102
RTVSPropertyOp14
 70
     1
102
RTVSPropertyOp15
 70
     1
102
RTVSPropertyOp16
 70
     1
102
RTVSPropertyOp17
 70
     1
102
RTVSPropertyOp18
 70
     1
102
RTVSPropertyOp19
 70
     1
102
RTVSPropertyOp20
 70
     1
102
RTVSPropertyOp21
 70
     1
102
RTVSPropertyOp22
 70
     1
102
RTVSPropertyOp23
 70
     1
102
RTVSPropertyOp24
 70
     1
102
RTVSPropertyOp25
 70
     1
102
RTVSPropertyOp26
 70
     1
102
RTVSPropertyOp27
 70
     1
  0
XRECORD
  5
B5C
102
{ACAD_REACTORS
330
B5B
102
}
330
B5B
100
AcDbXrecord
280
     1
102
RTVSPropertyOp0
 70
     1
102
RTVSPropertyOp1
 70
     1
102
RTVSPropertyOp2
 70
     1
102
RTVSPropertyOp3
 70
     1
102
RTVSPropertyOp4
 70
     1
102
RTVSPropertyOp5
 70
     1
102
RTVSPropertyOp6
 70
     1
102
RTVSPropertyOp7
 70
     1
102
RTVSPropertyOp8
 70
     1
102
RTVSPropertyOp9
 70
     1
102
RTVSPropertyOp10
 70
     1
102
RTVSPropertyOp11
 70
     1
102
RTVSPropertyOp12
 70
     1
102
RTVSPropertyOp13
 70
     1
102
RTVSPropertyOp14
 70
     1
102
RTVSPropertyOp15
 70
     1
102
RTVSPropertyOp16
 70
     1
102
RTVSPropertyOp17
 70
     1
102
RTVSPropertyOp18
 70
     1
102
RTVSPropertyOp19
 70
     1
102
RTVSPropertyOp20
 70
     1
102
RTVSPropertyOp21
 70
     1
102
RTVSPropertyOp22
 70
     1
102
RTVSPropertyOp23
 70
     1
102
RTVSPropertyOp24
 70
     1
102
RTVSPropertyOp25
 70
     1
102
RTVSPropertyOp26
 70
     1
102
RTVSPropertyOp27
 70
     1
  0
XRECORD
  5
B64
102
{ACAD_REACTORS
330
B63
102
}
330
B63
100
AcDbXrecord
280
     1
102
RTVSPropertyOp0
 70
     1
102
RTVSPropertyOp1
 70
     1
102
RTVSPropertyOp2
 70
     1
102
RTVSPropertyOp3
 70
     1
102
RTVSPropertyOp4
 70
     1
102
RTVSPropertyOp5
 70
     1
102
RTVSPropertyOp6
 70
     1
102
RTVSPropertyOp7
 70
     1
102
RTVSPropertyOp8
 70
     1
102
RTVSPropertyOp9
 70
     1
102
RTVSPropertyOp10
 70
     1
102
RTVSPropertyOp11
 70
     1
102
RTVSPropertyOp12
 70
     1
102
RTVSPropertyOp13
 70
     1
102
RTVSPropertyOp14
 70
     1
102
RTVSPropertyOp15
 70
     1
102
RTVSPropertyOp16
 70
     1
102
RTVSPropertyOp17
 70
     1
102
RTVSPropertyOp18
 70
     1
102
RTVSPropertyOp19
 70
     1
102
RTVSPropertyOp20
 70
     1
102
RTVSPropertyOp21
 70
     1
102
RTVSPropertyOp22
 70
     1
102
RTVSPropertyOp23
 70
     1
102
RTVSPropertyOp24
 70
     1
102
RTVSPropertyOp25
 70
     1
102
RTVSPropertyOp26
 70
     1
102
RTVSPropertyOp27
 70
     1
  0
ENDSEC
  0
EOF
