  0
SECTION
  2
HEADER
  9
$ACADVER
  1
AC1015
  9
$ACADMAINTVER
 70
     6
  9
$DWGCODEPAGE
  3
ANSI_1252
  9
$INSBASE
 10
0.0
 20
0.0
 30
0.0
  9
$EXTMIN
 10
0.0
 20
0.0
 30
0.0
  9
$EXTMAX
 10
25.0
 20
35.0
 30
0.0
  9
$LIMMIN
 10
0.0
 20
0.0
  9
$LIMMAX
 10
420.0
 20
297.0
  9
$ORTHOMODE
 70
     0
  9
$REGENMODE
 70
     1
  9
$FILLMODE
 70
     1
  9
$QTEXTMODE
 70
     0
  9
$MIRRTEXT
 70
     1
  9
$LTSCALE
 40
4.3
  9
$ATTMODE
 70
     1
  9
$TEXTSIZE
 40
2.5
  9
$TRACEWID
 40
1.0
  9
$TEXTSTYLE
  7
Standard
  9
$CLAYER
  8
0
  9
$CELTYPE
  6
ByLayer
  9
$CECOLOR
 62
   256
  9
$CELTSCALE
 40
1.0
  9
$DISPSILH
 70
     0
  9
$DIMSCALE
 40
1.0
  9
$DIMASZ
 40
2.5
  9
$DIMEXO
 40
0.625
  9
$DIMDLI
 40
3.75
  9
$DIMRND
 40
0.0
  9
$DIMDLE
 40
0.0
  9
$DIMEXE
 40
1.25
  9
$DIMTP
 40
0.0
  9
$DIMTM
 40
0.0
  9
$DIMTXT
 40
2.5
  9
$DIMCEN
 40
2.5
  9
$DIMTSZ
 40
0.0
  9
$DIMTOL
 70
     0
  9
$DIMLIM
 70
     0
  9
$DIMTIH
 70
     0
  9
$DIMTOH
 70
     0
  9
$DIMSE1
 70
     0
  9
$DIMSE2
 70
     0
  9
$DIMTAD
 70
     1
  9
$DIMZIN
 70
     8
  9
$DIMBLK
  1

  9
$DIMASO
 70
     1
  9
$DIMSHO
 70
     1
  9
$DIMPOST
  1

  9
$DIMAPOST
  1

  9
$DIMALT
 70
     0
  9
$DIMALTD
 70
     3
  9
$DIMALTF
 40
0.03937007874016
  9
$DIMLFAC
 40
1.0
  9
$DIMTOFL
 70
     1
  9
$DIMTVP
 40
0.0
  9
$DIMTIX
 70
     0
  9
$DIMSOXD
 70
     0
  9
$DIMSAH
 70
     0
  9
$DIMBLK1
  1

  9
$DIMBLK2
  1

  9
$DIMSTYLE
  2
ISO-25
  9
$DIMCLRD
 70
     0
  9
$DIMCLRE
 70
     0
  9
$DIMCLRT
 70
     0
  9
$DIMTFAC
 40
1.0
  9
$DIMGAP
 40
0.625
  9
$DIMJUST
 70
     0
  9
$DIMSD1
 70
     0
  9
$DIMSD2
 70
     0
  9
$DIMTOLJ
 70
     0
  9
$DIMTZIN
 70
     8
  9
$DIMALTZ
 70
     0
  9
$DIMALTTZ
 70
     0
  9
$DIMUPT
 70
     0
  9
$DIMDEC
 70
     2
  9
$DIMTDEC
 70
     2
  9
$DIMALTU
 70
     2
  9
$DIMALTTD
 70
     3
  9
$DIMTXSTY
  7
Standard
  9
$DIMAUNIT
 70
     0
  9
$DIMADEC
 70
     0
  9
$DIMALTRND
 40
0.0
  9
$DIMAZIN
 70
     0
  9
$DIMDSEP
 70
    44
  9
$DIMATFIT
 70
     3
  9
$DIMFRAC
 70
     0
  9
$DIMLDRBLK
  1

  9
$DIMLUNIT
 70
     2
  9
$DIMLWD
 70
    -2
  9
$DIMLWE
 70
    -2
  9
$DIMTMOVE
 70
     0
  9
$LUNITS
 70
     2
  9
$LUPREC
 70
     4
  9
$SKETCHINC
 40
1.0
  9
$FILLETRAD
 40
10.0
  9
$AUNITS
 70
     0
  9
$AUPREC
 70
     0
  9
$MENU
  1
.
  9
$ELEVATION
 40
0.0
  9
$PELEVATION
 40
0.0
  9
$THICKNESS
 40
0.0
  9
$LIMCHECK
 70
     0
  9
$CHAMFERA
 40
10.0
  9
$CHAMFERB
 40
10.0
  9
$CHAMFERC
 40
20.0
  9
$CHAMFERD
 40
0.0
  9
$SKPOLY
 70
     0
  9
$TDCREATE
 40
2458578.813194444
  9
$TDUCREATE
 40
2458578.729861111
  9
$TDUPDATE
 40
2458578.816666667
  9
$TDUUPDATE
 40
2458578.733333333
  9
$TDINDWG
 40
0.0000000116
  9
$TDUSRTIMER
 40
0.0000000116
  9
$USRTIMER
 70
     1
  9
$ANGBASE
 50
0.0
  9
$ANGDIR
 70
     0
  9
$PDMODE
 70
     0
  9
$PDSIZE
 40
0.0
  9
$PLINEWID
 40
0.0
  9
$SPLFRAME
 70
     0
  9
$SPLINETYPE
 70
     6
  9
$SPLINESEGS
 70
     8
  9
$HANDSEED
  5
A9D
  9
$SURFTAB1
 70
     6
  9
$SURFTAB2
 70
     6
  9
$SURFTYPE
 70
     6
  9
$SURFU
 70
     6
  9
$SURFV
 70
     6
  9
$UCSBASE
  2

  9
$UCSNAME
  2

  9
$UCSORG
 10
0.0
 20
0.0
 30
0.0
  9
$UCSXDIR
 10
1.0
 20
0.0
 30
0.0
  9
$UCSYDIR
 10
0.0
 20
1.0
 30
0.0
  9
$UCSORTHOREF
  2

  9
$UCSORTHOVIEW
 70
     0
  9
$UCSORGTOP
 10
0.0
 20
0.0
 30
0.0
  9
$UCSORGBOTTOM
 10
0.0
 20
0.0
 30
0.0
  9
$UCSORGLEFT
 10
0.0
 20
0.0
 30
0.0
  9
$UCSORGRIGHT
 10
0.0
 20
0.0
 30
0.0
  9
$UCSORGFRONT
 10
0.0
 20
0.0
 30
0.0
  9
$UCSORGBACK
 10
0.0
 20
0.0
 30
0.0
  9
$PUCSBASE
  2

  9
$PUCSNAME
  2

  9
$PUCSORG
 10
0.0
 20
0.0
 30
0.0
  9
$PUCSXDIR
 10
1.0
 20
0.0
 30
0.0
  9
$PUCSYDIR
 10
0.0
 20
1.0
 30
0.0
  9
$PUCSORTHOREF
  2

  9
$PUCSORTHOVIEW
 70
     0
  9
$PUCSORGTOP
 10
0.0
 20
0.0
 30
0.0
  9
$PUCSORGBOTTOM
 10
0.0
 20
0.0
 30
0.0
  9
$PUCSORGLEFT
 10
0.0
 20
0.0
 30
0.0
  9
$PUCSORGRIGHT
 10
0.0
 20
0.0
 30
0.0
  9
$PUCSORGFRONT
 10
0.0
 20
0.0
 30
0.0
  9
$PUCSORGBACK
 10
0.0
 20
0.0
 30
0.0
  9
$USERI1
 70
     0
  9
$USERI2
 70
     0
  9
$USERI3
 70
     0
  9
$USERI4
 70
     0
  9
$USERI5
 70
     0
  9
$USERR1
 40
0.0
  9
$USERR2
 40
0.0
  9
$USERR3
 40
0.0
  9
$USERR4
 40
0.0
  9
$USERR5
 40
0.0
  9
$WORLDVIEW
 70
     1
  9
$SHADEDGE
 70
     3
  9
$SHADEDIF
 70
    70
  9
$TILEMODE
 70
     1
  9
$MAXACTVP
 70
    64
  9
$PINSBASE
 10
0.0
 20
0.0
 30
0.0
  9
$PLIMCHECK
 70
     0
  9
$PEXTMIN
 10
1.000000000000000E+20
 20
1.000000000000000E+20
 30
1.000000000000000E+20
  9
$PEXTMAX
 10
-1.000000000000000E+20
 20
-1.000000000000000E+20
 30
-1.000000000000000E+20
  9
$PLIMMIN
 10
0.0
 20
0.0
  9
$PLIMMAX
 10
420.0
 20
297.0
  9
$UNITMODE
 70
     0
  9
$VISRETAIN
 70
     1
  9
$PLINEGEN
 70
     0
  9
$PSLTSCALE
 70
     1
  9
$TREEDEPTH
 70
  3020
  9
$CMLSTYLE
  2
Standard
  9
$CMLJUST
 70
     0
  9
$CMLSCALE
 40
20.0
  9
$PROXYGRAPHICS
 70
     1
  9
$MEASUREMENT
 70
     1
  9
$CELWEIGHT
370
    -1
  9
$ENDCAPS
280
     0
  9
$JOINSTYLE
280
     0
  9
$LWDISPLAY
290
     0
  9
$INSUNITS
 70
     4
  9
$HYPERLINKBASE
  1

  9
$STYLESHEET
  1

  9
$XEDIT
290
     1
  9
$CEPSNTYPE
380
     0
  9
$PSTYLEMODE
290
     1
  9
$FINGERPRINTGUID
  2
{D6840FDF-82E1-4AAF-A436-324DF3EBF194}
  9
$VERSIONGUID
  2
{FAEB1C32-E019-11D5-929B-00C0DF256EC4}
  9
$EXTNAMES
290
     1
  9
$PSVPSCALE
 40
0.0
  9
$OLESTARTUP
290
     0
  0
ENDSEC
  0
SECTION
  2
CLASSES
  0
CLASS
  1
ACDBDICTIONARYWDFLT
  2
AcDbDictionaryWithDefault
  3
ObjectDBX Classes
 90
        0
280
     0
281
     0
  0
CLASS
  1
VISUALSTYLE
  2
AcDbVisualStyle
  3
ObjectDBX Classes
 90
     4095
280
     0
281
     0
  0
CLASS
  1
MATERIAL
  2
AcDbMaterial
  3
ObjectDBX Classes
 90
     1153
280
     0
281
     0
  0
CLASS
  1
SCALE
  2
AcDbScale
  3
ObjectDBX Classes
 90
     1153
280
     0
281
     0
  0
CLASS
  1
DICTIONARYVAR
  2
AcDbDictionaryVar
  3
ObjectDBX Classes
 90
        0
280
     0
281
     0
  0
CLASS
  1
ACDBPLACEHOLDER
  2
AcDbPlaceHolder
  3
ObjectDBX Classes
 90
        0
280
     0
281
     0
  0
CLASS
  1
LAYOUT
  2
AcDbLayout
  3
ObjectDBX Classes
 90
        0
280
     0
281
     0
  0
ENDSEC
  0
SECTION
  2
TABLES
  0
TABLE
  2
VPORT
  5
8
330
0
100
AcDbSymbolTable
 70
     1
  0
VPORT
  5
29
330
8
100
AcDbSymbolTableRecord
100
AcDbViewportTableRecord
  2
*Active
 70
     0
 10
0.0
 20
0.0
 11
1.0
 21
1.0
 12
11.26
 22
4.5
 13
0.0
 23
0.0
 14
10.0
 24
10.0
 15
10.0
 25
10.0
 16
0.0
 26
0.0
 36
1.0
 17
0.0
 27
0.0
 37
0.0
 40
9.0
 41
2.503333333333333
 42
50.0
 43
0.0
 44
0.0
 50
0.0
 51
0.0
 71
     0
 72
   100
 73
     1
 74
     3
 75
     0
 76
     0
 77
     0
 78
     0
281
     0
 65
     1
110
0.0
120
0.0
130
0.0
111
1.0
121
0.0
131
0.0
112
0.0
122
1.0
132
0.0
 79
     0
146
0.0
  0
ENDTAB
  0
TABLE
  2
LTYPE
  5
5
330
0
100
AcDbSymbolTable
 70
    10
  0
LTYPE
  5
14
330
5
100
AcDbSymbolTableRecord
100
AcDbLinetypeTableRecord
  2
ByBlock
 70
     0
  3

 72
    65
 73
     0
 40
0.0
  0
LTYPE
  5
15
330
5
100
AcDbSymbolTableRecord
100
AcDbLinetypeTableRecord
  2
ByLayer
 70
     0
  3

 72
    65
 73
     0
 40
0.0
  0
LTYPE
  5
16
330
5
100
AcDbSymbolTableRecord
100
AcDbLinetypeTableRecord
  2
Continuous
 70
     0
  3
Solid line
 72
    65
 73
     0
 40
0.0
  0
LTYPE
  5
45
330
5
100
AcDbSymbolTableRecord
100
AcDbLinetypeTableRecord
  2
phl_thick
 70
     0
  3
THICK
 72
    65
 73
     0
 40
0.0
  0
LTYPE
  5
320
330
5
100
AcDbSymbolTableRecord
100
AcDbLinetypeTableRecord
  2
ls_CUT
 70
     0
  3
THICK
 72
    65
 73
     0
 40
0.0
  0
LTYPE
  5
326
330
5
100
AcDbSymbolTableRecord
100
AcDbLinetypeTableRecord
  2
ls1
 70
     0
  3
THICK
 72
    65
 73
     0
 40
0.0
  0
LTYPE
  5
32C
330
5
100
AcDbSymbolTableRecord
100
AcDbLinetypeTableRecord
  2
NOCUT
 70
     0
  3
THICK
 72
    65
 73
     0
 40
0.0
  0
LTYPE
  5
330
330
5
100
AcDbSymbolTableRecord
100
AcDbLinetypeTableRecord
  2
SK1
 70
     0
  3
THICK
 72
    65
 73
     0
 40
0.0
  0
LTYPE
  5
338
330
5
100
AcDbSymbolTableRecord
100
AcDbLinetypeTableRecord
  2
ls_SK2
 70
     0
  3
THIN
 72
    65
 73
     0
 40
0.0
  0
LTYPE
  5
3E4
330
5
100
AcDbSymbolTableRecord
100
AcDbLinetypeTableRecord
  2
ls_2
 70
     0
  3
THIN
 72
    65
 73
     0
 40
0.0
  0
LTYPE
  5
4F2
330
5
100
AcDbSymbolTableRecord
100
AcDbLinetypeTableRecord
  2
LONGDASH_DASH
 70
     0
  3
THIN_DASHDOT
 72
    65
 73
     4
 40
0.85
 49
0.4
 74
     0
 49
-0.2
 74
     0
 49
0.05
 74
     0
 49
-0.2
 74
     0
  0
LTYPE
  5
530
330
5
100
AcDbSymbolTableRecord
100
AcDbLinetypeTableRecord
  2
ls_SK1
 70
     0
  3
THICK
 72
    65
 73
     0
 40
0.0
  0
ENDTAB
  0
TABLE
  2
LAYER
  5
2
330
0
100
AcDbSymbolTable
 70
    10
  0
LAYER
  5
10
330
2
100
AcDbSymbolTableRecord
100
AcDbLayerTableRecord
  2
0
 70
     0
 62
     7
  6
Continuous
370
    -3
390
F
  0
LAYER
  5
44
330
2
100
AcDbSymbolTableRecord
100
AcDbLayerTableRecord
  2
1
 70
     0
 62
4
  6
CONTINUOUS
370
50
370
    -3
390
F
  0
LAYER
  5
31F
330
2
100
AcDbSymbolTableRecord
100
AcDbLayerTableRecord
  2
CUT
 70
     0
 62
1
  6
CONTINUOUS
370
25
370
    -3
390
F
  0
LAYER
  5
325
330
2
100
AcDbSymbolTableRecord
100
AcDbLayerTableRecord
  2
NOCUT
 70
     0
 62
7
  6
CONTINUOUS
370
25
370
    -3
390
F
  0
LAYER
  5
32F
330
2
100
AcDbSymbolTableRecord
100
AcDbLayerTableRecord
  2
SK1
 70
     0
 62
4
  6
CONTINUOUS
370
50
370
    -3
390
F
  0
LAYER
  5
337
330
2
100
AcDbSymbolTableRecord
100
AcDbLayerTableRecord
  2
SK2
 70
     0
 62
7
  6
CONTINUOUS
370
25
370
    -3
390
F
  0
LAYER
  5
3E3
330
2
100
AcDbSymbolTableRecord
100
AcDbLayerTableRecord
  2
2
 70
     0
 62
7
  6
CONTINUOUS
370
25
370
    -3
390
F
  0
LAYER
  5
4F1
330
2
100
AcDbSymbolTableRecord
100
AcDbLayerTableRecord
  2
4
 70
     0
 62
2
  6
LONGDASH_DASH
370
25
370
    -3
390
F
  0
LAYER
  5
4F4
330
2
100
AcDbSymbolTableRecord
100
AcDbLayerTableRecord
  2
SK4
 70
     0
 62
2
  6
LONGDASH_DASH
370
25
370
    -3
390
F
  0
LAYER
  5
569
330
2
100
AcDbSymbolTableRecord
100
AcDbLayerTableRecord
  2
SK6
 70
     0
 62
5
  6
CONTINUOUS
370
25
370
    -3
390
F
  0
ENDTAB
  0
TABLE
  2
STYLE
  5
3
330
0
100
AcDbSymbolTable
 70
     1
  0
STYLE
  5
11
330
3
100
AcDbSymbolTableRecord
100
AcDbTextStyleTableRecord
  2
Standard
 70
     0
 40
0.0
 41
1.0
 50
0.0
 71
     0
 42
2.5
  3
Monospac821 BT
  4

  0
ENDTAB
  0
TABLE
  2
VIEW
  5
6
330
0
100
AcDbSymbolTable
 70
     0
  0
ENDTAB
  0
TABLE
  2
UCS
  5
7
330
0
100
AcDbSymbolTable
 70
     0
  0
ENDTAB
  0
TABLE
  2
APPID
  5
9
330
0
100
AcDbSymbolTable
 70
     2
  0
APPID
  5
12
330
9
100
AcDbSymbolTableRecord
100
AcDbRegAppTableRecord
  2
ACAD
 70
     0
  0
APPID
  5
3F
330
9
100
AcDbSymbolTableRecord
100
AcDbRegAppTableRecord
  2
ccLab
 70
     0
  0
ENDTAB
  0
TABLE
  2
DIMSTYLE
  5
A
330
0
100
AcDbSymbolTable
 70
     1
100
AcDbDimStyleTable
  0
DIMSTYLE
105
27
330
A
100
AcDbSymbolTableRecord
100
AcDbDimStyleTableRecord
  2
ISO-25
 70
     0
 41
2.5
 42
0.625
 43
3.75
 44
1.25
 73
     0
 74
     0
 77
     1
 78
     8
140
2.5
141
2.5
143
0.03937007874016
147
0.625
171
     3
172
     1
271
     2
272
     2
274
     3
278
    44
283
     0
284
     8
340
11
  0
ENDTAB
  0
TABLE
  2
BLOCK_RECORD
  5
1
330
0
100
AcDbSymbolTable
 70
     2
  0
BLOCK_RECORD
  5
1F
330
1
100
AcDbSymbolTableRecord
100
AcDbBlockTableRecord
  2
*Model_Space
340
22
  0
BLOCK_RECORD
  5
1B
330
1
100
AcDbSymbolTableRecord
100
AcDbBlockTableRecord
  2
*Paper_Space
340
1E
  0
BLOCK_RECORD
  5
23
330
1
100
AcDbSymbolTableRecord
100
AcDbBlockTableRecord
  2
*Paper_Space0
340
26
  0
ENDTAB
  0
ENDSEC
  0
SECTION
  2
BLOCKS
  0
BLOCK
  5
20
330
1F
100
AcDbEntity
  8
0
100
AcDbBlockBegin
  2
*Model_Space
 70
     0
 10
0.0
 20
0.0
 30
0.0
  3
*Model_Space
  1

  0
ENDBLK
  5
21
330
1F
100
AcDbEntity
  8
0
100
AcDbBlockEnd
  0
BLOCK
  5
1C
330
1B
100
AcDbEntity
 67
     1
  8
0
100
AcDbBlockBegin
  2
*Paper_Space
 70
     0
 10
0.0
 20
0.0
 30
0.0
  3
*Paper_Space
  1

  0
ENDBLK
  5
1D
330
1B
100
AcDbEntity
 67
     1
  8
0
100
AcDbBlockEnd
  0
BLOCK
  5
24
330
23
100
AcDbEntity
  8
0
100
AcDbBlockBegin
  2
*Paper_Space0
 70
     0
 10
0.0
 20
0.0
 30
0.0
  3
*Paper_Space0
  1

  0
ENDBLK
  5
25
330
23
100
AcDbEntity
  8
0
100
AcDbBlockEnd
  0
ENDSEC
  0
SECTION
  2
ENTITIES
  0
LINE
  5
573
330
1F
100
AcDbEntity
  8
1
  6
CONTINUOUS
370
50
 62
4
100
AcDbLine
 10
104.268471
 20
-0.727467
 30
0.0
 11
104.268402
 21
-0.635649
 31
0.0
  0
LINE
  5
574
330
1F
100
AcDbEntity
  8
1
  6
CONTINUOUS
370
50
 62
4
100
AcDbLine
 10
104.2687
 20
-0.8174969999999999
 30
0.0
 11
104.268471
 21
-0.727467
 31
0.0
  0
LINE
  5
575
330
1F
100
AcDbEntity
  8
1
  6
CONTINUOUS
370
50
 62
4
100
AcDbLine
 10
104.269089
 20
-0.9046829999999999
 30
0.0
 11
104.2687
 21
-0.8174969999999999
 31
0.0
  0
LINE
  5
576
330
1F
100
AcDbEntity
  8
1
  6
CONTINUOUS
370
50
 62
4
100
AcDbLine
 10
104.269646
 20
-0.9880399999999999
 30
0.0
 11
104.269089
 21
-0.9046829999999999
 31
0.0
  0
LINE
  5
577
330
1F
100
AcDbEntity
  8
1
  6
CONTINUOUS
370
50
 62
4
100
AcDbLine
 10
104.270363
 20
-1.066755
 30
0.0
 11
104.269646
 21
-0.9880399999999999
 31
0.0
  0
LINE
  5
578
330
1F
100
AcDbEntity
  8
1
  6
CONTINUOUS
370
50
 62
4
100
AcDbLine
 10
104.27124
 20
-1.140046
 30
0.0
 11
104.270363
 21
-1.066755
 31
0.0
  0
LINE
  5
579
330
1F
100
AcDbEntity
  8
1
  6
CONTINUOUS
370
50
 62
4
100
AcDbLine
 10
104.27227
 20
-1.207312
 30
0.0
 11
104.27124
 21
-1.140046
 31
0.0
  0
LINE
  5
57A
330
1F
100
AcDbEntity
  8
1
  6
CONTINUOUS
370
50
 62
4
100
AcDbLine
 10
104.273438
 20
-1.268068
 30
0.0
 11
104.27227
 21
-1.207312
 31
0.0
  0
LINE
  5
57B
330
1F
100
AcDbEntity
  8
1
  6
CONTINUOUS
370
50
 62
4
100
AcDbLine
 10
104.274734
 20
-1.321839
 30
0.0
 11
104.273438
 21
-1.268068
 31
0.0
  0
LINE
  5
57C
330
1F
100
AcDbEntity
  8
1
  6
CONTINUOUS
370
50
 62
4
100
AcDbLine
 10
104.276138
 20
-1.368355
 30
0.0
 11
104.274734
 21
-1.321839
 31
0.0
  0
LINE
  5
57D
330
1F
100
AcDbEntity
  8
1
  6
CONTINUOUS
370
50
 62
4
100
AcDbLine
 10
104.277641
 20
-1.407515
 30
0.0
 11
104.276138
 21
-1.368355
 31
0.0
  0
LINE
  5
57E
330
1F
100
AcDbEntity
  8
1
  6
CONTINUOUS
370
50
 62
4
100
AcDbLine
 10
104.279236
 20
-1.439633
 30
0.0
 11
104.277641
 21
-1.407515
 31
0.0
  0
LINE
  5
57F
330
1F
100
AcDbEntity
  8
1
  6
CONTINUOUS
370
50
 62
4
100
AcDbLine
 10
104.300537
 20
1.354731
 30
0.0
 11
104.299164
 21
1.381175
 31
0.0
  0
LINE
  5
580
330
1F
100
AcDbEntity
  8
1
  6
CONTINUOUS
370
50
 62
4
100
AcDbLine
 10
104.299164
 20
1.381175
 30
0.0
 11
104.297775
 21
1.405283
 31
0.0
  0
LINE
  5
581
330
1F
100
AcDbEntity
  8
1
  6
CONTINUOUS
370
50
 62
4
100
AcDbLine
 10
104.297775
 20
1.405283
 30
0.0
 11
104.296371
 21
1.426936
 31
0.0
  0
LINE
  5
582
330
1F
100
AcDbEntity
  8
1
  6
CONTINUOUS
370
50
 62
4
100
AcDbLine
 10
104.280968
 20
-1.465294
 30
0.0
 11
104.279236
 21
-1.439633
 31
0.0
  0
LINE
  5
583
330
1F
100
AcDbEntity
  8
1
  6
CONTINUOUS
370
50
 62
4
100
AcDbLine
 10
104.296371
 20
1.426936
 30
0.0
 11
104.294968
 21
1.446015
 31
0.0
  0
LINE
  5
584
330
1F
100
AcDbEntity
  8
1
  6
CONTINUOUS
370
50
 62
4
100
AcDbLine
 10
104.294968
 20
1.446015
 30
0.0
 11
104.293556
 21
1.462403
 31
0.0
  0
LINE
  5
585
330
1F
100
AcDbEntity
  8
1
  6
CONTINUOUS
370
50
 62
4
100
AcDbLine
 10
104.282814
 20
-1.484145
 30
0.0
 11
104.280968
 21
-1.465294
 31
0.0
  0
LINE
  5
586
330
1F
100
AcDbEntity
  8
1
  6
CONTINUOUS
370
50
 62
4
100
AcDbLine
 10
104.293556
 20
1.462403
 30
0.0
 11
104.29216
 21
1.47598
 31
0.0
  0
LINE
  5
587
330
1F
100
AcDbEntity
  8
1
  6
CONTINUOUS
370
50
 62
4
100
AcDbLine
 10
104.29216
 20
1.47598
 30
0.0
 11
104.290771
 21
1.48663
 31
0.0
  0
LINE
  5
588
330
1F
100
AcDbEntity
  8
1
  6
CONTINUOUS
370
50
 62
4
100
AcDbLine
 10
104.284775
 20
-1.49581
 30
0.0
 11
104.282814
 21
-1.484145
 31
0.0
  0
LINE
  5
589
330
1F
100
AcDbEntity
  8
1
  6
CONTINUOUS
370
50
 62
4
100
AcDbLine
 10
104.900391
 20
-0.040504
 30
0.0
 11
104.898552
 21
-0.029851
 31
0.0
  0
LINE
  5
58A
330
1F
100
AcDbEntity
  8
1
  6
CONTINUOUS
370
50
 62
4
100
AcDbLine
 10
104.290771
 20
1.48663
 30
0.0
 11
104.289398
 21
1.494232
 31
0.0
  0
LINE
  5
58B
330
1F
100
AcDbEntity
  8
1
  6
CONTINUOUS
370
50
 62
4
100
AcDbLine
 10
104.898552
 20
-0.029851
 30
0.0
 11
104.896362
 21
-0.018862
 31
0.0
  0
LINE
  5
58C
330
1F
100
AcDbEntity
  8
1
  6
CONTINUOUS
370
50
 62
4
100
AcDbLine
 10
104.896362
 20
-0.018862
 30
0.0
 11
104.893799
 21
-0.007471
 31
0.0
  0
LINE
  5
58D
330
1F
100
AcDbEntity
  8
1
  6
CONTINUOUS
370
50
 62
4
100
AcDbLine
 10
104.893799
 20
-0.007471
 30
0.0
 11
104.890831
 21
0.004396
 31
0.0
  0
LINE
  5
58E
330
1F
100
AcDbEntity
  8
1
  6
CONTINUOUS
370
50
 62
4
100
AcDbLine
 10
104.890831
 20
0.004396
 30
0.0
 11
104.887428
 21
0.016821
 31
0.0
  0
LINE
  5
58F
330
1F
100
AcDbEntity
  8
1
  6
CONTINUOUS
370
50
 62
4
100
AcDbLine
 10
104.887428
 20
0.016821
 30
0.0
 11
104.883553
 21
0.029897
 31
0.0
  0
LINE
  5
590
330
1F
100
AcDbEntity
  8
1
  6
CONTINUOUS
370
50
 62
4
100
AcDbLine
 10
104.289398
 20
1.494232
 30
0.0
 11
104.288048
 21
1.498671
 31
0.0
  0
LINE
  5
591
330
1F
100
AcDbEntity
  8
1
  6
CONTINUOUS
370
50
 62
4
100
AcDbLine
 10
104.883553
 20
0.029897
 30
0.0
 11
104.879143
 21
0.043731
 31
0.0
  0
LINE
  5
592
330
1F
100
AcDbEntity
  8
1
  6
CONTINUOUS
370
50
 62
4
100
AcDbLine
 10
104.883392
 20
0.043734
 30
0.0
 11
104.868896
 21
0.084717
 31
0.0
  0
LINE
  5
593
330
1F
100
AcDbEntity
  8
1
  6
CONTINUOUS
370
50
 62
4
100
AcDbLine
 10
104.868896
 20
0.084717
 30
0.0
 11
104.848808
 21
0.134994
 31
0.0
  0
LINE
  5
594
330
1F
100
AcDbEntity
  8
1
  6
CONTINUOUS
370
50
 62
4
100
AcDbLine
 10
104.848808
 20
0.134994
 30
0.0
 11
104.820534
 21
0.199706
 31
0.0
  0
LINE
  5
595
330
1F
100
AcDbEntity
  8
1
  6
CONTINUOUS
370
50
 62
4
100
AcDbLine
 10
104.378357
 20
1.075181
 30
0.0
 11
104.367638
 21
1.098662
 31
0.0
  0
LINE
  5
596
330
1F
100
AcDbEntity
  8
1
  6
CONTINUOUS
370
50
 62
4
100
AcDbLine
 10
104.820534
 20
0.199706
 30
0.0
 11
104.779282
 21
0.288089
 31
0.0
  0
LINE
  5
597
330
1F
100
AcDbEntity
  8
1
  6
CONTINUOUS
370
50
 62
4
100
AcDbLine
 10
104.367638
 20
1.098662
 30
0.0
 11
104.356689
 21
1.122071
 31
0.0
  0
LINE
  5
598
330
1F
100
AcDbEntity
  8
1
  6
CONTINUOUS
370
50
 62
4
100
AcDbLine
 10
104.356689
 20
1.122071
 30
0.0
 11
104.345642
 21
1.145451
 31
0.0
  0
LINE
  5
599
330
1F
100
AcDbEntity
  8
1
  6
CONTINUOUS
370
50
 62
4
100
AcDbLine
 10
105.0
 20
0.0
 30
0.0
 11
104.288025
 21
1.498716
 31
0.0
  0
LINE
  5
59A
330
1F
100
AcDbEntity
  8
1
  6
CONTINUOUS
370
50
 62
4
100
AcDbLine
 10
104.345642
 20
1.145451
 30
0.0
 11
104.334503
 21
1.168786
 31
0.0
  0
LINE
  5
59B
330
1F
100
AcDbEntity
  8
1
  6
CONTINUOUS
370
50
 62
4
100
AcDbLine
 10
104.334503
 20
1.168786
 30
0.0
 11
104.323273
 21
1.192062
 31
0.0
  0
LINE
  5
59C
330
1F
100
AcDbEntity
  8
1
  6
CONTINUOUS
370
50
 62
4
100
AcDbLine
 10
104.323273
 20
1.192062
 30
0.0
 11
104.311958
 21
1.215267
 31
0.0
  0
LINE
  5
59D
330
1F
100
AcDbEntity
  8
1
  6
CONTINUOUS
370
50
 62
4
100
AcDbLine
 10
104.286819
 20
-1.5
 30
0.0
 11
104.284775
 21
-1.49581
 31
0.0
  0
LINE
  5
59E
330
1F
100
AcDbEntity
  8
1
  6
CONTINUOUS
370
50
 62
4
100
AcDbLine
 10
104.779282
 20
0.288089
 30
0.0
 11
104.715332
 21
0.418735
 31
0.0
  0
LINE
  5
59F
330
1F
100
AcDbEntity
  8
1
  6
CONTINUOUS
370
50
 62
4
100
AcDbLine
 10
104.311958
 20
1.215267
 30
0.0
 11
104.300537
 21
1.238364
 31
0.0
  0
LINE
  5
5A0
330
1F
100
AcDbEntity
  8
1
  6
CONTINUOUS
370
50
 62
4
100
AcDbLine
 10
104.715332
 20
0.418735
 30
0.0
 11
104.605568
 21
0.635702
 31
0.0
  0
LINE
  5
5A1
330
1F
100
AcDbEntity
  8
1
  6
CONTINUOUS
370
50
 62
4
100
AcDbLine
 10
105.0
 20
0.0
 30
0.0
 11
104.300537
 21
1.354732
 31
0.0
  0
LINE
  5
5A2
330
1F
100
AcDbEntity
  8
1
  6
CONTINUOUS
370
50
 62
4
100
AcDbLine
 10
104.605568
 20
0.635702
 30
0.0
 11
104.378357
 21
1.075181
 31
0.0
  0
LINE
  5
5A3
330
1F
100
AcDbEntity
  8
1
  6
CONTINUOUS
370
50
 62
4
100
AcDbLine
 10
104.288048
 20
1.498671
 30
0.0
 11
104.287842
 21
1.499068
 31
0.0
  0
LINE
  5
5A4
330
1F
100
AcDbEntity
  8
1
  6
CONTINUOUS
370
50
 62
4
100
AcDbLine
 10
104.287842
 20
1.499068
 30
0.0
 11
104.287636
 21
1.499388
 31
0.0
  0
LINE
  5
5A5
330
1F
100
AcDbEntity
  8
1
  6
CONTINUOUS
370
50
 62
4
100
AcDbLine
 10
50.036949
 20
-1.141337
 30
0.0
 11
50.0
 21
-1.085433
 31
0.0
  0
LINE
  5
5A6
330
1F
100
AcDbEntity
  8
1
  6
CONTINUOUS
370
50
 62
4
100
AcDbLine
 10
104.529816
 20
-0.191188
 30
0.0
 11
104.462906
 21
-0.10762
 31
0.0
  0
LINE
  5
5A7
330
1F
100
AcDbEntity
  8
1
  6
CONTINUOUS
370
50
 62
4
100
AcDbLine
 10
104.462906
 20
-0.10762
 30
0.0
 11
104.386108
 21
-0.014697
 31
0.0
  0
LINE
  5
5A8
330
1F
100
AcDbEntity
  8
1
  6
CONTINUOUS
370
50
 62
4
100
AcDbLine
 10
104.287636
 20
1.499388
 30
0.0
 11
104.28743
 21
1.499633
 31
0.0
  0
LINE
  5
5A9
330
1F
100
AcDbEntity
  8
1
  6
CONTINUOUS
370
50
 62
4
100
AcDbLine
 10
104.386108
 20
-0.014697
 30
0.0
 11
104.299683
 21
0.087585
 31
0.0
  0
LINE
  5
5AA
330
1F
100
AcDbEntity
  8
1
  6
CONTINUOUS
370
50
 62
4
100
AcDbLine
 10
104.299683
 20
0.087585
 30
0.0
 11
104.203537
 21
0.19958
 31
0.0
  0
LINE
  5
5AB
330
1F
100
AcDbEntity
  8
1
  6
CONTINUOUS
370
50
 62
4
100
AcDbLine
 10
104.203537
 20
0.19958
 30
0.0
 11
104.087799
 21
0.332858
 31
0.0
  0
LINE
  5
5AC
330
1F
100
AcDbEntity
  8
1
  6
CONTINUOUS
370
50
 62
4
100
AcDbLine
 10
104.087799
 20
0.332858
 30
0.0
 11
103.950897
 21
0.489053
 31
0.0
  0
LINE
  5
5AD
330
1F
100
AcDbEntity
  8
1
  6
CONTINUOUS
370
50
 62
4
100
AcDbLine
 10
103.950897
 20
0.489053
 30
0.0
 11
103.797089
 21
0.6626679999999999
 31
0.0
  0
LINE
  5
5AE
330
1F
100
AcDbEntity
  8
1
  6
CONTINUOUS
370
50
 62
4
100
AcDbLine
 10
50.083008
 20
-1.191128
 30
0.0
 11
50.036949
 21
-1.141337
 31
0.0
  0
LINE
  5
5AF
330
1F
100
AcDbEntity
  8
1
  6
CONTINUOUS
370
50
 62
4
100
AcDbLine
 10
50.138245
 20
-1.237729
 30
0.0
 11
50.083008
 21
-1.191128
 31
0.0
  0
LINE
  5
5B0
330
1F
100
AcDbEntity
  8
1
  6
CONTINUOUS
370
50
 62
4
100
AcDbLine
 10
104.28743
 20
1.499633
 30
0.0
 11
104.287224
 21
1.499802
 31
0.0
  0
LINE
  5
5B1
330
1F
100
AcDbEntity
  8
1
  6
CONTINUOUS
370
50
 62
4
100
AcDbLine
 10
55.999565
 20
-0.737776
 30
0.0
 11
55.999424
 21
-0.737667
 31
0.0
  0
LINE
  5
5B2
330
1F
100
AcDbEntity
  8
1
  6
CONTINUOUS
370
50
 62
4
100
AcDbLine
 10
55.999855
 20
-0.7379939999999999
 30
0.0
 11
55.999565
 21
-0.737776
 31
0.0
  0
LINE
  5
5B3
330
1F
100
AcDbEntity
  8
1
  6
CONTINUOUS
370
50
 62
4
100
AcDbLine
 10
55.999424
 20
-0.737667
 30
0.0
 11
55.99927899999999
 21
-0.7375579999999999
 31
0.0
  0
LINE
  5
5B4
330
1F
100
AcDbEntity
  8
1
  6
CONTINUOUS
370
50
 62
4
100
AcDbLine
 10
56.0
 20
-0.7381019999999999
 30
0.0
 11
55.999855
 21
-0.7379939999999999
 31
0.0
  0
LINE
  5
5B5
330
1F
100
AcDbEntity
  8
1
  6
CONTINUOUS
370
50
 62
4
100
AcDbLine
 10
55.99927899999999
 20
-0.7375579999999999
 30
0.0
 11
55.999134
 21
-0.7374499999999999
 31
0.0
  0
LINE
  5
5B6
330
1F
100
AcDbEntity
  8
1
  6
CONTINUOUS
370
50
 62
4
100
AcDbLine
 10
50.202278
 20
-1.281632
 30
0.0
 11
50.138245
 21
-1.237729
 31
0.0
  0
LINE
  5
5B7
330
1F
100
AcDbEntity
  8
1
  6
CONTINUOUS
370
50
 62
4
100
AcDbLine
 10
104.900391
 20
-0.040504
 30
0.0
 11
103.797089
 21
0.6626679999999999
 31
0.0
  0
LINE
  5
5B8
330
1F
100
AcDbEntity
  8
1
  6
CONTINUOUS
370
50
 62
4
100
AcDbLine
 10
54.71255499999999
 20
-0.028842
 30
0.0
 11
54.662743
 21
0.0
 31
0.0
  0
LINE
  5
5B9
330
1F
100
AcDbEntity
  8
1
  6
CONTINUOUS
370
50
 62
4
100
AcDbLine
 10
54.737465
 20
-0.043259
 30
0.0
 11
54.71255499999999
 21
-0.028842
 31
0.0
  0
LINE
  5
5BA
330
1F
100
AcDbEntity
  8
1
  6
CONTINUOUS
370
50
 62
4
100
AcDbLine
 10
74.242691
 20
-0.054152
 30
0.0
 11
73.99505599999999
 21
0.089144
 31
0.0
  0
LINE
  5
5BB
330
1F
100
AcDbEntity
  8
1
  6
CONTINUOUS
370
50
 62
4
100
AcDbLine
 10
54.762375
 20
-0.057673
 30
0.0
 11
54.737465
 21
-0.043259
 31
0.0
  0
LINE
  5
5BC
330
1F
100
AcDbEntity
  8
1
  6
CONTINUOUS
370
50
 62
4
100
AcDbLine
 10
87.492538
 20
-0.088698
 30
0.0
 11
87.243927
 21
0.05513
 31
0.0
  0
LINE
  5
5BD
330
1F
100
AcDbEntity
  8
1
  6
CONTINUOUS
370
50
 62
4
100
AcDbLine
 10
54.787292
 20
-0.072081
 30
0.0
 11
54.762375
 21
-0.057673
 31
0.0
  0
LINE
  5
5BE
330
1F
100
AcDbEntity
  8
1
  6
CONTINUOUS
370
50
 62
4
100
AcDbLine
 10
79.32431799999999
 20
-0.088934
 30
0.0
 11
79.074799
 21
0.055299
 31
0.0
  0
LINE
  5
5BF
330
1F
100
AcDbEntity
  8
1
  6
CONTINUOUS
370
50
 62
4
100
AcDbLine
 10
98.754494
 20
-0.055995
 30
0.0
 11
98.50469199999999
 21
0.08832
 31
0.0
  0
LINE
  5
5C0
330
1F
100
AcDbEntity
  8
1
  6
CONTINUOUS
370
50
 62
4
100
AcDbLine
 10
54.812222
 20
-0.086483
 30
0.0
 11
54.787292
 21
-0.072081
 31
0.0
  0
LINE
  5
5C1
330
1F
100
AcDbEntity
  8
1
  6
CONTINUOUS
370
50
 62
4
100
AcDbLine
 10
56.0
 20
-1.5005
 30
0.0
 11
55.999134
 21
-1.5
 31
0.0
  0
LINE
  5
5C2
330
1F
100
AcDbEntity
  8
1
  6
CONTINUOUS
370
50
 62
4
100
AcDbLine
 10
62.736584
 20
0.054446
 30
0.0
 11
62.488605
 21
0.197508
 31
0.0
  0
LINE
  5
5C3
330
1F
100
AcDbEntity
  8
1
  6
CONTINUOUS
370
50
 62
4
100
AcDbLine
 10
62.985909
 20
-0.08937
 30
0.0
 11
62.736584
 21
0.054446
 31
0.0
  0
LINE
  5
5C4
330
1F
100
AcDbEntity
  8
1
  6
CONTINUOUS
370
50
 62
4
100
AcDbLine
 10
54.662743
 20
0.0
 30
0.0
 11
54.38739
 21
0.158808
 31
0.0
  0
LINE
  5
5C5
330
1F
100
AcDbEntity
  8
1
  6
CONTINUOUS
370
50
 62
4
100
AcDbLine
 10
103.904396
 20
-0.130233
 30
0.0
 11
103.831329
 21
-0.088094
 31
0.0
  0
LINE
  5
5C6
330
1F
100
AcDbEntity
  8
1
  6
CONTINUOUS
370
50
 62
4
100
AcDbLine
 10
66.075417
 20
-0.054932
 30
0.0
 11
65.824753
 21
0.08961
 31
0.0
  0
LINE
  5
5C7
330
1F
100
AcDbEntity
  8
1
  6
CONTINUOUS
370
50
 62
4
100
AcDbLine
 10
66.32506599999999
 20
-0.198885
 30
0.0
 11
66.075417
 21
-0.054932
 31
0.0
  0
LINE
  5
5C8
330
1F
100
AcDbEntity
  8
1
  6
CONTINUOUS
370
50
 62
4
100
AcDbLine
 10
95.411812
 20
0.055512
 30
0.0
 11
95.16268199999999
 21
0.199107
 31
0.0
  0
LINE
  5
5C9
330
1F
100
AcDbEntity
  8
1
  6
CONTINUOUS
370
50
 62
4
100
AcDbLine
 10
82.414322
 20
-0.05533
 30
0.0
 11
82.164009
 21
0.088906
 31
0.0
  0
LINE
  5
5CA
330
1F
100
AcDbEntity
  8
1
  6
CONTINUOUS
370
50
 62
4
100
AcDbLine
 10
99.003654
 20
-0.199502
 30
0.0
 11
98.754494
 21
-0.055995
 31
0.0
  0
LINE
  5
5CB
330
1F
100
AcDbEntity
  8
1
  6
CONTINUOUS
370
50
 62
4
100
AcDbLine
 10
90.83367899999999
 20
-0.198866
 30
0.0
 11
90.58474
 21
-0.055489
 31
0.0
  0
LINE
  5
5CC
330
1F
100
AcDbEntity
  8
1
  6
CONTINUOUS
370
50
 62
4
100
AcDbLine
 10
103.977341
 20
-0.172238
 30
0.0
 11
103.904396
 21
-0.130233
 31
0.0
  0
LINE
  5
5CD
330
1F
100
AcDbEntity
  8
1
  6
CONTINUOUS
370
50
 62
4
100
AcDbLine
 10
87.243927
 20
0.05513
 30
0.0
 11
86.99513999999999
 21
0.198375
 31
0.0
  0
LINE
  5
5CE
330
1F
100
AcDbEntity
  8
1
  6
CONTINUOUS
370
50
 62
4
100
AcDbLine
 10
103.831329
 20
-0.088094
 30
0.0
 11
103.580902
 21
0.056084
 31
0.0
  0
LINE
  5
5CF
330
1F
100
AcDbEntity
  8
1
  6
CONTINUOUS
370
50
 62
4
100
AcDbLine
 10
82.164009
 20
0.088906
 30
0.0
 11
81.919403
 21
0.229628
 31
0.0
  0
LINE
  5
5D0
330
1F
100
AcDbEntity
  8
1
  6
CONTINUOUS
370
50
 62
4
100
AcDbLine
 10
57.982754
 20
-0.099005
 30
0.0
 11
57.65471299999999
 21
0.089618
 31
0.0
  0
LINE
  5
5D1
330
1F
100
AcDbEntity
  8
1
  6
CONTINUOUS
370
50
 62
4
100
AcDbLine
 10
79.569656
 20
-0.23
 30
0.0
 11
79.32431799999999
 21
-0.088934
 31
0.0
  0
LINE
  5
5D2
330
1F
100
AcDbEntity
  8
1
  6
CONTINUOUS
370
50
 62
4
100
AcDbLine
 10
70.90830199999999
 20
0.053064
 30
0.0
 11
70.661163
 21
0.195158
 31
0.0
  0
LINE
  5
5D3
330
1F
100
AcDbEntity
  8
1
  6
CONTINUOUS
370
50
 62
4
100
AcDbLine
 10
71.399582
 20
-0.229244
 30
0.0
 11
71.155701
 21
-0.089032
 31
0.0
  0
LINE
  5
5D4
330
1F
100
AcDbEntity
  8
1
  6
CONTINUOUS
370
50
 62
4
100
AcDbLine
 10
95.662132
 20
-0.088402
 30
0.0
 11
95.411812
 21
0.055512
 31
0.0
  0
LINE
  5
5D5
330
1F
100
AcDbEntity
  8
1
  6
CONTINUOUS
370
50
 62
4
100
AcDbLine
 10
90.58474
 20
-0.055489
 30
0.0
 11
90.33418999999999
 21
0.088532
 31
0.0
  0
LINE
  5
5D6
330
1F
100
AcDbEntity
  8
1
  6
CONTINUOUS
370
50
 62
4
100
AcDbLine
 10
71.155701
 20
-0.089032
 30
0.0
 11
70.90830199999999
 21
0.053064
 31
0.0
  0
LINE
  5
5D7
330
1F
100
AcDbEntity
  8
1
  6
CONTINUOUS
370
50
 62
4
100
AcDbLine
 10
74.491081
 20
-0.196794
 30
0.0
 11
74.242691
 21
-0.054152
 31
0.0
  0
LINE
  5
5D8
330
1F
100
AcDbEntity
  8
1
  6
CONTINUOUS
370
50
 62
4
100
AcDbLine
 10
104.050224
 20
-0.214085
 30
0.0
 11
103.977341
 21
-0.172238
 31
0.0
  0
LINE
  5
5D9
330
1F
100
AcDbEntity
  8
1
  6
CONTINUOUS
370
50
 62
4
100
AcDbLine
 10
57.65471299999999
 20
0.089618
 30
0.0
 11
57.379524
 21
0.247615
 31
0.0
  0
LINE
  5
5DA
330
1F
100
AcDbEntity
  8
1
  6
CONTINUOUS
370
50
 62
4
100
AcDbLine
 10
55.010036
 20
-0.200053
 30
0.0
 11
54.812222
 21
-0.086483
 31
0.0
  0
LINE
  5
5DB
330
1F
100
AcDbEntity
  8
1
  6
CONTINUOUS
370
50
 62
4
100
AcDbLine
 10
73.99505599999999
 20
0.089144
 30
0.0
 11
73.749535
 21
0.229964
 31
0.0
  0
LINE
  5
5DC
330
1F
100
AcDbEntity
  8
1
  6
CONTINUOUS
370
50
 62
4
100
AcDbLine
 10
58.309494
 20
-0.286354
 30
0.0
 11
57.982754
 21
-0.099005
 31
0.0
  0
LINE
  5
5DD
330
1F
100
AcDbEntity
  8
1
  6
CONTINUOUS
370
50
 62
4
100
AcDbLine
 10
90.33418999999999
 20
0.088532
 30
0.0
 11
90.088387
 21
0.229421
 31
0.0
  0
LINE
  5
5DE
330
1F
100
AcDbEntity
  8
1
  6
CONTINUOUS
370
50
 62
4
100
AcDbLine
 10
103.580902
 20
0.056084
 30
0.0
 11
103.330238
 21
0.199723
 31
0.0
  0
LINE
  5
5DF
330
1F
100
AcDbEntity
  8
1
  6
CONTINUOUS
370
50
 62
4
100
AcDbLine
 10
82.664459
 20
-0.198637
 30
0.0
 11
82.414322
 21
-0.05533
 31
0.0
  0
LINE
  5
5E0
330
1F
100
AcDbEntity
  8
1
  6
CONTINUOUS
370
50
 62
4
100
AcDbLine
 10
95.90876
 20
-0.229576
 30
0.0
 11
95.662132
 21
-0.088402
 31
0.0
  0
LINE
  5
5E1
330
1F
100
AcDbEntity
  8
1
  6
CONTINUOUS
370
50
 62
4
100
AcDbLine
 10
79.074799
 20
0.055299
 30
0.0
 11
78.823906
 21
0.198855
 31
0.0
  0
LINE
  5
5E2
330
1F
100
AcDbEntity
  8
1
  6
CONTINUOUS
370
50
 62
4
100
AcDbLine
 10
65.824753
 20
0.08961
 30
0.0
 11
65.57815599999999
 21
0.230677
 31
0.0
  0
LINE
  5
5E3
330
1F
100
AcDbEntity
  8
1
  6
CONTINUOUS
370
50
 62
4
100
AcDbLine
 10
87.73842599999999
 20
-0.229333
 30
0.0
 11
87.492538
 21
-0.088698
 31
0.0
  0
LINE
  5
5E4
330
1F
100
AcDbEntity
  8
1
  6
CONTINUOUS
370
50
 62
4
100
AcDbLine
 10
104.123108
 20
-0.255749
 30
0.0
 11
104.050224
 21
-0.214085
 31
0.0
  0
LINE
  5
5E5
330
1F
100
AcDbEntity
  8
1
  6
CONTINUOUS
370
50
 62
4
100
AcDbLine
 10
98.50469199999999
 20
0.08832
 30
0.0
 11
98.25767499999999
 21
0.229474
 31
0.0
  0
LINE
  5
5E6
330
1F
100
AcDbEntity
  8
1
  6
CONTINUOUS
370
50
 62
4
100
AcDbLine
 10
63.231613
 20
-0.229727
 30
0.0
 11
62.985909
 21
-0.08937
 31
0.0
  0
LINE
  5
5E7
330
1F
100
AcDbEntity
  8
1
  6
CONTINUOUS
370
50
 62
4
100
AcDbLine
 10
70.661163
 20
0.195158
 30
0.0
 11
70.41432999999999
 21
0.335779
 31
0.0
  0
LINE
  5
5E8
330
1F
100
AcDbEntity
  8
1
  6
CONTINUOUS
370
50
 62
4
100
AcDbLine
 10
50.274071
 20
-1.32251
 30
0.0
 11
50.202278
 21
-1.281632
 31
0.0
  0
LINE
  5
5E9
330
1F
100
AcDbEntity
  8
1
  6
CONTINUOUS
370
50
 62
4
100
AcDbLine
 10
82.91304799999999
 20
-0.340014
 30
0.0
 11
82.664459
 21
-0.198637
 31
0.0
  0
LINE
  5
5EA
330
1F
100
AcDbEntity
  8
1
  6
CONTINUOUS
370
50
 62
4
100
AcDbLine
 10
103.330238
 20
0.199723
 30
0.0
 11
103.08062
 21
0.341683
 31
0.0
  0
LINE
  5
5EB
330
1F
100
AcDbEntity
  8
1
  6
CONTINUOUS
370
50
 62
4
100
AcDbLine
 10
91.08309899999999
 20
-0.34068
 30
0.0
 11
90.83367899999999
 21
-0.198866
 31
0.0
  0
LINE
  5
5EC
330
1F
100
AcDbEntity
  8
1
  6
CONTINUOUS
370
50
 62
4
100
AcDbLine
 10
104.196053
 20
-0.297208
 30
0.0
 11
104.123108
 21
-0.255749
 31
0.0
  0
LINE
  5
5ED
330
1F
100
AcDbEntity
  8
1
  6
CONTINUOUS
370
50
 62
4
100
AcDbLine
 10
95.16268199999999
 20
0.199107
 30
0.0
 11
94.913231
 21
0.340843
 31
0.0
  0
LINE
  5
5EE
330
1F
100
AcDbEntity
  8
1
  6
CONTINUOUS
370
50
 62
4
100
AcDbLine
 10
78.823906
 20
0.198855
 30
0.0
 11
78.573082
 21
0.341211
 31
0.0
  0
LINE
  5
5EF
330
1F
100
AcDbEntity
  8
1
  6
CONTINUOUS
370
50
 62
4
100
AcDbLine
 10
62.488605
 20
0.197508
 30
0.0
 11
62.239532
 21
0.33886
 31
0.0
  0
LINE
  5
5F0
330
1F
100
AcDbEntity
  8
1
  6
CONTINUOUS
370
50
 62
4
100
AcDbLine
 10
54.38739
 20
0.158808
 30
0.0
 11
54.111797
 21
0.315093
 31
0.0
  0
LINE
  5
5F1
330
1F
100
AcDbEntity
  8
1
  6
CONTINUOUS
370
50
 62
4
100
AcDbLine
 10
71.64359999999999
 20
-0.367609
 30
0.0
 11
71.399582
 21
-0.229244
 31
0.0
  0
LINE
  5
5F2
330
1F
100
AcDbEntity
  8
1
  6
CONTINUOUS
370
50
 62
4
100
AcDbLine
 10
90.088387
 20
0.229421
 30
0.0
 11
89.843025
 21
0.368527
 31
0.0
  0
LINE
  5
5F3
330
1F
100
AcDbEntity
  8
1
  6
CONTINUOUS
370
50
 62
4
100
AcDbLine
 10
96.153679
 20
-0.368419
 30
0.0
 11
95.90876
 21
-0.229576
 31
0.0
  0
LINE
  5
5F4
330
1F
100
AcDbEntity
  8
1
  6
CONTINUOUS
370
50
 62
4
100
AcDbLine
 10
63.47636799999999
 20
-0.368437
 30
0.0
 11
63.231613
 21
-0.229727
 31
0.0
  0
LINE
  5
5F5
330
1F
100
AcDbEntity
  8
1
  6
CONTINUOUS
370
50
 62
4
100
AcDbLine
 10
66.575226
 20
-0.340648
 30
0.0
 11
66.32506599999999
 21
-0.198885
 31
0.0
  0
LINE
  5
5F6
330
1F
100
AcDbEntity
  8
1
  6
CONTINUOUS
370
50
 62
4
100
AcDbLine
 10
65.57815599999999
 20
0.230677
 30
0.0
 11
65.332207
 21
0.36988
 31
0.0
  0
LINE
  5
5F7
330
1F
100
AcDbEntity
  8
1
  6
CONTINUOUS
370
50
 62
4
100
AcDbLine
 10
74.73940999999999
 20
-0.337332
 30
0.0
 11
74.491081
 21
-0.196794
 31
0.0
  0
LINE
  5
5F8
330
1F
100
AcDbEntity
  8
1
  6
CONTINUOUS
370
50
 62
4
100
AcDbLine
 10
55.208485
 20
-0.312327
 30
0.0
 11
55.010036
 21
-0.200053
 31
0.0
  0
LINE
  5
5F9
330
1F
100
AcDbEntity
  8
1
  6
CONTINUOUS
370
50
 62
4
100
AcDbLine
 10
81.919403
 20
0.229628
 30
0.0
 11
81.673935
 21
0.368443
 31
0.0
  0
LINE
  5
5FA
330
1F
100
AcDbEntity
  8
1
  6
CONTINUOUS
370
50
 62
4
100
AcDbLine
 10
99.253937
 20
-0.340979
 30
0.0
 11
99.003654
 21
-0.199502
 31
0.0
  0
LINE
  5
5FB
330
1F
100
AcDbEntity
  8
1
  6
CONTINUOUS
370
50
 62
4
100
AcDbLine
 10
98.25767499999999
 20
0.229474
 30
0.0
 11
98.011353
 21
0.368617
 31
0.0
  0
LINE
  5
5FC
330
1F
100
AcDbEntity
  8
1
  6
CONTINUOUS
370
50
 62
4
100
AcDbLine
 10
86.99513999999999
 20
0.198375
 30
0.0
 11
86.744728
 21
0.339816
 31
0.0
  0
LINE
  5
5FD
330
1F
100
AcDbEntity
  8
1
  6
CONTINUOUS
370
50
 62
4
100
AcDbLine
 10
57.379524
 20
0.247615
 30
0.0
 11
57.105148
 21
0.402512
 31
0.0
  0
LINE
  5
5FE
330
1F
100
AcDbEntity
  8
1
  6
CONTINUOUS
370
50
 62
4
100
AcDbLine
 10
104.269119
 20
-0.338437
 30
0.0
 11
104.196053
 21
-0.297208
 31
0.0
  0
LINE
  5
5FF
330
1F
100
AcDbEntity
  8
1
  6
CONTINUOUS
370
50
 62
4
100
AcDbLine
 10
87.98465
 20
-0.368212
 30
0.0
 11
87.73842599999999
 21
-0.229333
 31
0.0
  0
LINE
  5
600
330
1F
100
AcDbEntity
  8
1
  6
CONTINUOUS
370
50
 62
4
100
AcDbLine
 10
79.81605499999999
 20
-0.368815
 30
0.0
 11
79.569656
 21
-0.23
 31
0.0
  0
LINE
  5
601
330
1F
100
AcDbEntity
  8
1
  6
CONTINUOUS
370
50
 62
4
100
AcDbLine
 10
73.749535
 20
0.229964
 30
0.0
 11
73.50348699999999
 21
0.368562
 31
0.0
  0
LINE
  5
602
330
1F
100
AcDbEntity
  8
1
  6
CONTINUOUS
370
50
 62
4
100
AcDbLine
 10
55.40649
 20
-0.422959
 30
0.0
 11
55.208485
 21
-0.312327
 31
0.0
  0
LINE
  5
603
330
1F
100
AcDbEntity
  8
1
  6
CONTINUOUS
370
50
 62
4
100
AcDbLine
 10
58.63694
 20
-0.469117
 30
0.0
 11
58.309494
 21
-0.286354
 31
0.0
  0
LINE
  5
604
330
1F
100
AcDbEntity
  8
1
  6
CONTINUOUS
370
50
 62
4
100
AcDbLine
 10
54.111797
 20
0.315093
 30
0.0
 11
53.838634
 21
0.46734
 31
0.0
  0
LINE
  5
605
330
1F
100
AcDbEntity
  8
1
  6
CONTINUOUS
370
50
 62
4
100
AcDbLine
 10
74.986198
 20
-0.474708
 30
0.0
 11
74.73940999999999
 21
-0.337332
 31
0.0
  0
LINE
  5
606
330
1F
100
AcDbEntity
  8
1
  6
CONTINUOUS
370
50
 62
4
100
AcDbLine
 10
78.573082
 20
0.341211
 30
0.0
 11
78.32238
 21
0.480758
 31
0.0
  0
LINE
  5
607
330
1F
100
AcDbEntity
  8
1
  6
CONTINUOUS
370
50
 62
4
100
AcDbLine
 10
83.16214
 20
-0.478517
 30
0.0
 11
82.91304799999999
 21
-0.340014
 31
0.0
  0
LINE
  5
608
330
1F
100
AcDbEntity
  8
1
  6
CONTINUOUS
370
50
 62
4
100
AcDbLine
 10
70.41432999999999
 20
0.335779
 30
0.0
 11
70.1661
 21
0.47366
 31
0.0
  0
LINE
  5
609
330
1F
100
AcDbEntity
  8
1
  6
CONTINUOUS
370
50
 62
4
100
AcDbLine
 10
103.08062
 20
0.341683
 30
0.0
 11
102.831612
 21
0.479978
 31
0.0
  0
LINE
  5
60A
330
1F
100
AcDbEntity
  8
1
  6
CONTINUOUS
370
50
 62
4
100
AcDbLine
 10
86.744728
 20
0.339816
 30
0.0
 11
86.495819
 21
0.478036
 31
0.0
  0
LINE
  5
60B
330
1F
100
AcDbEntity
  8
1
  6
CONTINUOUS
370
50
 62
4
100
AcDbLine
 10
99.503242
 20
-0.479181
 30
0.0
 11
99.253937
 21
-0.340979
 31
0.0
  0
LINE
  5
60C
330
1F
100
AcDbEntity
  8
1
  6
CONTINUOUS
370
50
 62
4
100
AcDbLine
 10
88.229843
 20
-0.503965
 30
0.0
 11
87.98465
 21
-0.368212
 31
0.0
  0
LINE
  5
60D
330
1F
100
AcDbEntity
  8
1
  6
CONTINUOUS
370
50
 62
4
100
AcDbLine
 10
66.82515
 20
-0.478965
 30
0.0
 11
66.575226
 21
-0.340648
 31
0.0
  0
LINE
  5
60E
330
1F
100
AcDbEntity
  8
1
  6
CONTINUOUS
370
50
 62
4
100
AcDbLine
 10
98.011353
 20
0.368617
 30
0.0
 11
97.76632699999999
 21
0.504201
 31
0.0
  0
LINE
  5
60F
330
1F
100
AcDbEntity
  8
1
  6
CONTINUOUS
370
50
 62
4
100
AcDbLine
 10
65.332207
 20
0.36988
 30
0.0
 11
65.086662
 21
0.505751
 31
0.0
  0
LINE
  5
610
330
1F
100
AcDbEntity
  8
1
  6
CONTINUOUS
370
50
 62
4
100
AcDbLine
 10
63.721684
 20
-0.504141
 30
0.0
 11
63.47636799999999
 21
-0.368437
 31
0.0
  0
LINE
  5
611
330
1F
100
AcDbEntity
  8
1
  6
CONTINUOUS
370
50
 62
4
100
AcDbLine
 10
91.333878
 20
-0.479341
 30
0.0
 11
91.08309899999999
 21
-0.34068
 31
0.0
  0
LINE
  5
612
330
1F
100
AcDbEntity
  8
1
  6
CONTINUOUS
370
50
 62
4
100
AcDbLine
 10
94.913231
 20
0.340843
 30
0.0
 11
94.662781
 21
0.479316
 31
0.0
  0
LINE
  5
613
330
1F
100
AcDbEntity
  8
1
  6
CONTINUOUS
370
50
 62
4
100
AcDbLine
 10
62.239532
 20
0.33886
 30
0.0
 11
61.988708
 21
0.477535
 31
0.0
  0
LINE
  5
614
330
1F
100
AcDbEntity
  8
1
  6
CONTINUOUS
370
50
 62
4
100
AcDbLine
 10
73.50348699999999
 20
0.368562
 30
0.0
 11
73.258759
 21
0.5038389999999999
 31
0.0
  0
LINE
  5
615
330
1F
100
AcDbEntity
  8
1
  6
CONTINUOUS
370
50
 62
4
100
AcDbLine
 10
96.39870499999999
 20
-0.503819
 30
0.0
 11
96.153679
 21
-0.368419
 31
0.0
  0
LINE
  5
616
330
1F
100
AcDbEntity
  8
1
  6
CONTINUOUS
370
50
 62
4
100
AcDbLine
 10
89.843025
 20
0.368527
 30
0.0
 11
89.596634
 21
0.504375
 31
0.0
  0
LINE
  5
617
330
1F
100
AcDbEntity
  8
1
  6
CONTINUOUS
370
50
 62
4
100
AcDbLine
 10
80.061874
 20
-0.5043
 30
0.0
 11
79.81605499999999
 21
-0.368815
 31
0.0
  0
LINE
  5
618
330
1F
100
AcDbEntity
  8
1
  6
CONTINUOUS
370
50
 62
4
100
AcDbLine
 10
71.889633
 20
-0.502999
 30
0.0
 11
71.64359999999999
 21
-0.367609
 31
0.0
  0
LINE
  5
619
330
1F
100
AcDbEntity
  8
1
  6
CONTINUOUS
370
50
 62
4
100
AcDbLine
 10
81.673935
 20
0.368443
 30
0.0
 11
81.42772699999999
 21
0.503761
 31
0.0
  0
LINE
  5
61A
330
1F
100
AcDbEntity
  8
1
  6
CONTINUOUS
370
50
 62
4
100
AcDbLine
 10
55.604073
 20
-0.531349
 30
0.0
 11
55.40649
 21
-0.422959
 31
0.0
  0
LINE
  5
61B
330
1F
100
AcDbEntity
  8
1
  6
CONTINUOUS
370
50
 62
4
100
AcDbLine
 10
57.105148
 20
0.402512
 30
0.0
 11
56.828911
 21
0.553057
 31
0.0
  0
LINE
  5
61C
330
1F
100
AcDbEntity
  8
1
  6
CONTINUOUS
370
50
 62
4
100
AcDbLine
 10
53.838634
 20
0.46734
 30
0.0
 11
53.565708
 21
0.614503
 31
0.0
  0
LINE
  5
61D
330
1F
100
AcDbEntity
  8
1
  6
CONTINUOUS
370
50
 62
4
100
AcDbLine
 10
86.495819
 20
0.478036
 30
0.0
 11
86.24719999999999
 21
0.612054
 31
0.0
  0
LINE
  5
61E
330
1F
100
AcDbEntity
  8
1
  6
CONTINUOUS
370
50
 62
4
100
AcDbLine
 10
75.233414
 20
-0.607964
 30
0.0
 11
74.986198
 21
-0.474708
 31
0.0
  0
LINE
  5
61F
330
1F
100
AcDbEntity
  8
1
  6
CONTINUOUS
370
50
 62
4
100
AcDbLine
 10
61.988708
 20
0.477535
 30
0.0
 11
61.738464
 21
0.6123529999999999
 31
0.0
  0
LINE
  5
620
330
1F
100
AcDbEntity
  8
1
  6
CONTINUOUS
370
50
 62
4
100
AcDbLine
 10
67.073593
 20
-0.6128
 30
0.0
 11
66.82515
 21
-0.478965
 31
0.0
  0
LINE
  5
621
330
1F
100
AcDbEntity
  8
1
  6
CONTINUOUS
370
50
 62
4
100
AcDbLine
 10
99.751556
 20
-0.6129319999999999
 30
0.0
 11
99.503242
 21
-0.479181
 31
0.0
  0
LINE
  5
622
330
1F
100
AcDbEntity
  8
1
  6
CONTINUOUS
370
50
 62
4
100
AcDbLine
 10
51.659084
 20
-1.021325
 30
0.0
 11
51.596581
 21
-0.987682
 31
0.0
  0
LINE
  5
623
330
1F
100
AcDbEntity
  8
1
  6
CONTINUOUS
370
50
 62
4
100
AcDbLine
 10
94.662781
 20
0.479316
 30
0.0
 11
94.412674
 21
0.613557
 31
0.0
  0
LINE
  5
624
330
1F
100
AcDbEntity
  8
1
  6
CONTINUOUS
370
50
 62
4
100
AcDbLine
 10
91.58412899999999
 20
-0.613629
 30
0.0
 11
91.333878
 21
-0.479341
 31
0.0
  0
LINE
  5
625
330
1F
100
AcDbEntity
  8
1
  6
CONTINUOUS
370
50
 62
4
100
AcDbLine
 10
70.1661
 20
0.47366
 30
0.0
 11
69.91732
 21
0.60712
 31
0.0
  0
LINE
  5
626
330
1F
100
AcDbEntity
  8
1
  6
CONTINUOUS
370
50
 62
4
100
AcDbLine
 10
78.32238
 20
0.480758
 30
0.0
 11
78.07119
 21
0.6154609999999999
 31
0.0
  0
LINE
  5
627
330
1F
100
AcDbEntity
  8
1
  6
CONTINUOUS
370
50
 62
4
100
AcDbLine
 10
83.412643
 20
-0.612673
 30
0.0
 11
83.16214
 21
-0.478517
 31
0.0
  0
LINE
  5
628
330
1F
100
AcDbEntity
  8
1
  6
CONTINUOUS
370
50
 62
4
100
AcDbLine
 10
80.30607599999999
 20
-0.635018
 30
0.0
 11
80.061874
 21
-0.5043
 31
0.0
  0
LINE
  5
629
330
1F
100
AcDbEntity
  8
1
  6
CONTINUOUS
370
50
 62
4
100
AcDbLine
 10
73.258759
 20
0.5038389999999999
 30
0.0
 11
73.014771
 21
0.634409
 31
0.0
  0
LINE
  5
62A
330
1F
100
AcDbEntity
  8
1
  6
CONTINUOUS
370
50
 62
4
100
AcDbLine
 10
81.42772699999999
 20
0.503761
 30
0.0
 11
81.182976
 21
0.6345919999999999
 31
0.0
  0
LINE
  5
62B
330
1F
100
AcDbEntity
  8
1
  6
CONTINUOUS
370
50
 62
4
100
AcDbLine
 10
102.831612
 20
0.479978
 30
0.0
 11
102.581924
 21
0.613421
 31
0.0
  0
LINE
  5
62C
330
1F
100
AcDbEntity
  8
1
  6
CONTINUOUS
370
50
 62
4
100
AcDbLine
 10
58.964821
 20
-0.644349
 30
0.0
 11
58.63694
 21
-0.469117
 31
0.0
  0
LINE
  5
62D
330
1F
100
AcDbEntity
  8
1
  6
CONTINUOUS
370
50
 62
4
100
AcDbLine
 10
88.476074
 20
-0.635423
 30
0.0
 11
88.229843
 21
-0.503965
 31
0.0
  0
LINE
  5
62E
330
1F
100
AcDbEntity
  8
1
  6
CONTINUOUS
370
50
 62
4
100
AcDbLine
 10
97.76632699999999
 20
0.504201
 30
0.0
 11
97.52076
 21
0.635211
 31
0.0
  0
LINE
  5
62F
330
1F
100
AcDbEntity
  8
1
  6
CONTINUOUS
370
50
 62
4
100
AcDbLine
 10
72.135201
 20
-0.633865
 30
0.0
 11
71.889633
 21
-0.502999
 31
0.0
  0
LINE
  5
630
330
1F
100
AcDbEntity
  8
1
  6
CONTINUOUS
370
50
 62
4
100
AcDbLine
 10
55.80141099999999
 20
-0.636397
 30
0.0
 11
55.604073
 21
-0.531349
 31
0.0
  0
LINE
  5
631
330
1F
100
AcDbEntity
  8
1
  6
CONTINUOUS
370
50
 62
4
100
AcDbLine
 10
65.086662
 20
0.505751
 30
0.0
 11
64.84013399999999
 21
0.636931
 31
0.0
  0
LINE
  5
632
330
1F
100
AcDbEntity
  8
1
  6
CONTINUOUS
370
50
 62
4
100
AcDbLine
 10
63.96792199999999
 20
-0.635126
 30
0.0
 11
63.721684
 21
-0.504141
 31
0.0
  0
LINE
  5
633
330
1F
100
AcDbEntity
  8
1
  6
CONTINUOUS
370
50
 62
4
100
AcDbLine
 10
89.596634
 20
0.504375
 30
0.0
 11
89.34994499999999
 21
0.635587
 31
0.0
  0
LINE
  5
634
330
1F
100
AcDbEntity
  8
1
  6
CONTINUOUS
370
50
 62
4
100
AcDbLine
 10
96.644913
 20
-0.63456
 30
0.0
 11
96.39870499999999
 21
-0.503819
 31
0.0
  0
LINE
  5
635
330
1F
100
AcDbEntity
  8
1
  6
CONTINUOUS
370
50
 62
4
100
AcDbLine
 10
51.596581
 20
-0.987682
 30
0.0
 11
51.534
 21
-0.95473
 31
0.0
  0
LINE
  5
636
330
1F
100
AcDbEntity
  8
1
  6
CONTINUOUS
370
50
 62
4
100
AcDbLine
 10
56.828911
 20
0.553057
 30
0.0
 11
56.55221599999999
 21
0.69819
 31
0.0
  0
LINE
  5
637
330
1F
100
AcDbEntity
  8
1
  6
CONTINUOUS
370
50
 62
4
100
AcDbLine
 10
69.91732
 20
0.60712
 30
0.0
 11
69.66918199999999
 21
0.735265
 31
0.0
  0
LINE
  5
638
330
1F
100
AcDbEntity
  8
1
  6
CONTINUOUS
370
50
 62
4
100
AcDbLine
 10
61.738464
 20
0.6123529999999999
 30
0.0
 11
61.487919
 21
0.7416889999999999
 31
0.0
  0
LINE
  5
639
330
1F
100
AcDbEntity
  8
1
  6
CONTINUOUS
370
50
 62
4
100
AcDbLine
 10
94.412674
 20
0.613557
 30
0.0
 11
94.163857
 21
0.7419779999999999
 31
0.0
  0
LINE
  5
63A
330
1F
100
AcDbEntity
  8
1
  6
CONTINUOUS
370
50
 62
4
100
AcDbLine
 10
91.83311499999999
 20
-0.742092
 30
0.0
 11
91.58412899999999
 21
-0.613629
 31
0.0
  0
LINE
  5
63B
330
1F
100
AcDbEntity
  8
1
  6
CONTINUOUS
370
50
 62
4
100
AcDbLine
 10
67.32260099999999
 20
-0.741203
 30
0.0
 11
67.073593
 21
-0.6128
 31
0.0
  0
LINE
  5
63C
330
1F
100
AcDbEntity
  8
1
  6
CONTINUOUS
370
50
 62
4
100
AcDbLine
 10
102.581924
 20
0.613421
 30
0.0
 11
102.333755
 21
0.7412249999999999
 31
0.0
  0
LINE
  5
63D
330
1F
100
AcDbEntity
  8
1
  6
CONTINUOUS
370
50
 62
4
100
AcDbLine
 10
100.001022
 20
-0.741289
 30
0.0
 11
99.751556
 21
-0.6129319999999999
 31
0.0
  0
LINE
  5
63E
330
1F
100
AcDbEntity
  8
1
  6
CONTINUOUS
370
50
 62
4
100
AcDbLine
 10
86.24719999999999
 20
0.612054
 30
0.0
 11
85.996994
 21
0.740732
 31
0.0
  0
LINE
  5
63F
330
1F
100
AcDbEntity
  8
1
  6
CONTINUOUS
370
50
 62
4
100
AcDbLine
 10
83.662804
 20
-0.7413029999999999
 30
0.0
 11
83.412643
 21
-0.612673
 31
0.0
  0
LINE
  5
640
330
1F
100
AcDbEntity
  8
1
  6
CONTINUOUS
370
50
 62
4
100
AcDbLine
 10
75.48217799999999
 20
-0.73583
 30
0.0
 11
75.233414
 21
-0.607964
 31
0.0
  0
LINE
  5
641
330
1F
100
AcDbEntity
  8
1
  6
CONTINUOUS
370
50
 62
4
100
AcDbLine
 10
72.379272
 20
-0.7589589999999999
 30
0.0
 11
72.135201
 21
-0.633865
 31
0.0
  0
LINE
  5
642
330
1F
100
AcDbEntity
  8
1
  6
CONTINUOUS
370
50
 62
4
100
AcDbLine
 10
78.07119
 20
0.6154609999999999
 30
0.0
 11
77.82086199999999
 21
0.7437499999999999
 31
0.0
  0
LINE
  5
643
330
1F
100
AcDbEntity
  8
1
  6
CONTINUOUS
370
50
 62
4
100
AcDbLine
 10
81.182976
 20
0.6345919999999999
 30
0.0
 11
80.93800399999999
 21
0.7600239999999999
 31
0.0
  0
LINE
  5
644
330
1F
100
AcDbEntity
  8
1
  6
CONTINUOUS
370
50
 62
4
100
AcDbLine
 10
51.534
 20
-0.95473
 30
0.0
 11
51.471264
 21
-0.9226289999999999
 31
0.0
  0
LINE
  5
645
330
1F
100
AcDbEntity
  8
1
  6
CONTINUOUS
370
50
 62
4
100
AcDbLine
 10
53.565708
 20
0.614503
 30
0.0
 11
53.291351
 21
0.754757
 31
0.0
  0
LINE
  5
646
330
1F
100
AcDbEntity
  8
1
  6
CONTINUOUS
370
50
 62
4
100
AcDbLine
 10
80.550415
 20
-0.759926
 30
0.0
 11
80.30607599999999
 21
-0.635018
 31
0.0
  0
LINE
  5
647
330
1F
100
AcDbEntity
  8
1
  6
CONTINUOUS
370
50
 62
4
100
AcDbLine
 10
89.34994499999999
 20
0.635587
 30
0.0
 11
89.104141
 21
0.761223
 31
0.0
  0
LINE
  5
648
330
1F
100
AcDbEntity
  8
1
  6
CONTINUOUS
370
50
 62
4
100
AcDbLine
 10
55.999134
 20
-0.7374499999999999
 30
0.0
 11
55.80141099999999
 21
-0.636397
 31
0.0
  0
LINE
  5
649
330
1F
100
AcDbEntity
  8
1
  6
CONTINUOUS
370
50
 62
4
100
AcDbLine
 10
96.88922099999999
 20
-0.759388
 30
0.0
 11
96.644913
 21
-0.63456
 31
0.0
  0
LINE
  5
64A
330
1F
100
AcDbEntity
  8
1
  6
CONTINUOUS
370
50
 62
4
100
AcDbLine
 10
64.213585
 20
-0.760462
 30
0.0
 11
63.96792199999999
 21
-0.635126
 31
0.0
  0
LINE
  5
64B
330
1F
100
AcDbEntity
  8
1
  6
CONTINUOUS
370
50
 62
4
100
AcDbLine
 10
73.014771
 20
0.634409
 30
0.0
 11
72.769508
 21
0.759421
 31
0.0
  0
LINE
  5
64C
330
1F
100
AcDbEntity
  8
1
  6
CONTINUOUS
370
50
 62
4
100
AcDbLine
 10
64.84013399999999
 20
0.636931
 30
0.0
 11
64.593811
 21
0.76239
 31
0.0
  0
LINE
  5
64D
330
1F
100
AcDbEntity
  8
1
  6
CONTINUOUS
370
50
 62
4
100
AcDbLine
 10
97.52076
 20
0.635211
 30
0.0
 11
97.273476
 21
0.7609079999999999
 31
0.0
  0
LINE
  5
64E
330
1F
100
AcDbEntity
  8
1
  6
CONTINUOUS
370
50
 62
4
100
AcDbLine
 10
88.723175
 20
-0.7610009999999999
 30
0.0
 11
88.476074
 21
-0.635423
 31
0.0
  0
LINE
  5
64F
330
1F
100
AcDbEntity
  8
1
  6
CONTINUOUS
370
50
 62
4
100
AcDbLine
 10
59.291199
 20
-0.8094319999999999
 30
0.0
 11
58.964821
 21
-0.644349
 31
0.0
  0
LINE
  5
650
330
1F
100
AcDbEntity
  8
1
  6
CONTINUOUS
370
50
 62
4
100
AcDbLine
 10
56.55221599999999
 20
0.69819
 30
0.0
 11
56.276421
 21
0.835293
 31
0.0
  0
LINE
  5
651
330
1F
100
AcDbEntity
  8
1
  6
CONTINUOUS
370
50
 62
4
100
AcDbLine
 10
51.471264
 20
-0.9226289999999999
 30
0.0
 11
51.40829799999999
 21
-0.891542
 31
0.0
  0
LINE
  5
652
330
1F
100
AcDbEntity
  8
1
  6
CONTINUOUS
370
50
 62
4
100
AcDbLine
 10
69.66918199999999
 20
0.735265
 30
0.0
 11
69.42215
 21
0.856378
 31
0.0
  0
LINE
  5
653
330
1F
100
AcDbEntity
  8
1
  6
CONTINUOUS
370
50
 62
4
100
AcDbLine
 10
83.91167399999999
 20
-0.862941
 30
0.0
 11
83.662804
 21
-0.7413029999999999
 31
0.0
  0
LINE
  5
654
330
1F
100
AcDbEntity
  8
1
  6
CONTINUOUS
370
50
 62
4
100
AcDbLine
 10
102.333755
 20
0.7412249999999999
 30
0.0
 11
102.085373
 21
0.86261
 31
0.0
  0
LINE
  5
655
330
1F
100
AcDbEntity
  8
1
  6
CONTINUOUS
370
50
 62
4
100
AcDbLine
 10
75.730637
 20
-0.8571449999999999
 30
0.0
 11
75.48217799999999
 21
-0.73583
 31
0.0
  0
LINE
  5
656
330
1F
100
AcDbEntity
  8
1
  6
CONTINUOUS
370
50
 62
4
100
AcDbLine
 10
77.82086199999999
 20
0.7437499999999999
 30
0.0
 11
77.572639
 21
0.8649209999999999
 31
0.0
  0
LINE
  5
657
330
1F
100
AcDbEntity
  8
1
  6
CONTINUOUS
370
50
 62
4
100
AcDbLine
 10
92.082764
 20
-0.8636389999999999
 30
0.0
 11
91.83311499999999
 21
-0.742092
 31
0.0
  0
LINE
  5
658
330
1F
100
AcDbEntity
  8
1
  6
CONTINUOUS
370
50
 62
4
100
AcDbLine
 10
56.250042
 20
-0.860437
 30
0.0
 11
56.0
 21
-0.738702
 31
0.0
  0
LINE
  5
659
330
1F
100
AcDbEntity
  8
1
  6
CONTINUOUS
370
50
 62
4
100
AcDbLine
 10
94.163857
 20
0.7419779999999999
 30
0.0
 11
93.914574
 21
0.8631939999999999
 31
0.0
  0
LINE
  5
65A
330
1F
100
AcDbEntity
  8
1
  6
CONTINUOUS
370
50
 62
4
100
AcDbLine
 10
67.573128
 20
-0.862891
 30
0.0
 11
67.32260099999999
 21
-0.741203
 31
0.0
  0
LINE
  5
65B
330
1F
100
AcDbEntity
  8
1
  6
CONTINUOUS
370
50
 62
4
100
AcDbLine
 10
85.996994
 20
0.740732
 30
0.0
 11
85.746132
 21
0.8625769999999999
 31
0.0
  0
LINE
  5
65C
330
1F
100
AcDbEntity
  8
1
  6
CONTINUOUS
370
50
 62
4
100
AcDbLine
 10
61.487919
 20
0.7416889999999999
 30
0.0
 11
61.236897
 21
0.863549
 31
0.0
  0
LINE
  5
65D
330
1F
100
AcDbEntity
  8
1
  6
CONTINUOUS
370
50
 62
4
100
AcDbLine
 10
100.25164
 20
-0.862912
 30
0.0
 11
100.001022
 21
-0.741289
 31
0.0
  0
LINE
  5
65E
330
1F
100
AcDbEntity
  8
1
  6
CONTINUOUS
370
50
 62
4
100
AcDbLine
 10
97.132965
 20
-0.8775419999999999
 30
0.0
 11
96.88922099999999
 21
-0.759388
 31
0.0
  0
LINE
  5
65F
330
1F
100
AcDbEntity
  8
1
  6
CONTINUOUS
370
50
 62
4
100
AcDbLine
 10
64.457703
 20
-0.878782
 30
0.0
 11
64.213585
 21
-0.760462
 31
0.0
  0
LINE
  5
660
330
1F
100
AcDbEntity
  8
1
  6
CONTINUOUS
370
50
 62
4
100
AcDbLine
 10
72.624054
 20
-0.877421
 30
0.0
 11
72.379272
 21
-0.7589589999999999
 31
0.0
  0
LINE
  5
661
330
1F
100
AcDbEntity
  8
1
  6
CONTINUOUS
370
50
 62
4
100
AcDbLine
 10
64.593811
 20
0.76239
 30
0.0
 11
64.348946
 21
0.8808889999999999
 31
0.0
  0
LINE
  5
662
330
1F
100
AcDbEntity
  8
1
  6
CONTINUOUS
370
50
 62
4
100
AcDbLine
 10
89.104141
 20
0.761223
 30
0.0
 11
88.85921499999999
 21
0.879737
 31
0.0
  0
LINE
  5
663
330
1F
100
AcDbEntity
  8
1
  6
CONTINUOUS
370
50
 62
4
100
AcDbLine
 10
97.273476
 20
0.7609079999999999
 30
0.0
 11
97.02654299999999
 21
0.880304
 31
0.0
  0
LINE
  5
664
330
1F
100
AcDbEntity
  8
1
  6
CONTINUOUS
370
50
 62
4
100
AcDbLine
 10
88.969009
 20
-0.879771
 30
0.0
 11
88.723175
 21
-0.7610009999999999
 31
0.0
  0
LINE
  5
665
330
1F
100
AcDbEntity
  8
1
  6
CONTINUOUS
370
50
 62
4
100
AcDbLine
 10
53.291351
 20
0.754757
 30
0.0
 11
53.01869199999999
 21
0.886365
 31
0.0
  0
LINE
  5
666
330
1F
100
AcDbEntity
  8
1
  6
CONTINUOUS
370
50
 62
4
100
AcDbLine
 10
72.769508
 20
0.759421
 30
0.0
 11
72.523529
 21
0.8780169999999999
 31
0.0
  0
LINE
  5
667
330
1F
100
AcDbEntity
  8
1
  6
CONTINUOUS
370
50
 62
4
100
AcDbLine
 10
80.93800399999999
 20
0.7600239999999999
 30
0.0
 11
80.691589
 21
0.878747
 31
0.0
  0
LINE
  5
668
330
1F
100
AcDbEntity
  8
1
  6
CONTINUOUS
370
50
 62
4
100
AcDbLine
 10
80.796204
 20
-0.878112
 30
0.0
 11
80.550415
 21
-0.759926
 31
0.0
  0
LINE
  5
669
330
1F
100
AcDbEntity
  8
1
  6
CONTINUOUS
370
50
 62
4
100
AcDbLine
 10
50.35233299999999
 20
-1.359929
 30
0.0
 11
50.274071
 21
-1.32251
 31
0.0
  0
LINE
  5
66A
330
1F
100
AcDbEntity
  8
1
  6
CONTINUOUS
370
50
 62
4
100
AcDbLine
 10
51.40829799999999
 20
-0.891542
 30
0.0
 11
51.345024
 21
-0.86163
 31
0.0
  0
LINE
  5
66B
330
1F
100
AcDbEntity
  8
1
  6
CONTINUOUS
370
50
 62
4
100
AcDbLine
 10
59.61825899999999
 20
-0.96121
 30
0.0
 11
59.291199
 21
-0.8094319999999999
 31
0.0
  0
LINE
  5
66C
330
1F
100
AcDbEntity
  8
1
  6
CONTINUOUS
370
50
 62
4
100
AcDbLine
 10
56.276421
 20
0.835293
 30
0.0
 11
56.0
 21
0.9626079999999999
 31
0.0
  0
LINE
  5
66D
330
1F
100
AcDbEntity
  8
1
  6
CONTINUOUS
370
50
 62
4
100
AcDbLine
 10
75.977554
 20
-0.9704069999999999
 30
0.0
 11
75.730637
 21
-0.8571449999999999
 31
0.0
  0
LINE
  5
66E
330
1F
100
AcDbEntity
  8
1
  6
CONTINUOUS
370
50
 62
4
100
AcDbLine
 10
56.499847
 20
-0.974792
 30
0.0
 11
56.250042
 21
-0.860437
 31
0.0
  0
LINE
  5
66F
330
1F
100
AcDbEntity
  8
1
  6
CONTINUOUS
370
50
 62
4
100
AcDbLine
 10
85.746132
 20
0.8625769999999999
 30
0.0
 11
85.496262
 21
0.976636
 31
0.0
  0
LINE
  5
670
330
1F
100
AcDbEntity
  8
1
  6
CONTINUOUS
370
50
 62
4
100
AcDbLine
 10
100.501244
 20
-0.976721
 30
0.0
 11
100.25164
 21
-0.862912
 31
0.0
  0
LINE
  5
671
330
1F
100
AcDbEntity
  8
1
  6
CONTINUOUS
370
50
 62
4
100
AcDbLine
 10
77.572639
 20
0.8649209999999999
 30
0.0
 11
77.32421099999999
 21
0.978192
 31
0.0
  0
LINE
  5
672
330
1F
100
AcDbEntity
  8
1
  6
CONTINUOUS
370
50
 62
4
100
AcDbLine
 10
69.42215
 20
0.856378
 30
0.0
 11
69.17369099999999
 21
0.969629
 31
0.0
  0
LINE
  5
673
330
1F
100
AcDbEntity
  8
1
  6
CONTINUOUS
370
50
 62
4
100
AcDbLine
 10
67.823196
 20
-0.976779
 30
0.0
 11
67.573128
 21
-0.862891
 31
0.0
  0
LINE
  5
674
330
1F
100
AcDbEntity
  8
1
  6
CONTINUOUS
370
50
 62
4
100
AcDbLine
 10
61.236897
 20
0.863549
 30
0.0
 11
60.987854
 21
0.9769359999999999
 31
0.0
  0
LINE
  5
675
330
1F
100
AcDbEntity
  8
1
  6
CONTINUOUS
370
50
 62
4
100
AcDbLine
 10
84.161087
 20
-0.9764889999999999
 30
0.0
 11
83.91167399999999
 21
-0.862941
 31
0.0
  0
LINE
  5
676
330
1F
100
AcDbEntity
  8
1
  6
CONTINUOUS
370
50
 62
4
100
AcDbLine
 10
102.085373
 20
0.86261
 30
0.0
 11
101.835678
 21
0.976182
 31
0.0
  0
LINE
  5
677
330
1F
100
AcDbEntity
  8
1
  6
CONTINUOUS
370
50
 62
4
100
AcDbLine
 10
93.914574
 20
0.8631939999999999
 30
0.0
 11
93.664993
 21
0.97649
 31
0.0
  0
LINE
  5
678
330
1F
100
AcDbEntity
  8
1
  6
CONTINUOUS
370
50
 62
4
100
AcDbLine
 10
92.33236699999999
 20
-0.976834
 30
0.0
 11
92.082764
 21
-0.8636389999999999
 31
0.0
  0
LINE
  5
679
330
1F
100
AcDbEntity
  8
1
  6
CONTINUOUS
370
50
 62
4
100
AcDbLine
 10
72.523529
 20
0.8780169999999999
 30
0.0
 11
72.278252
 21
0.9890509999999999
 31
0.0
  0
LINE
  5
67A
330
1F
100
AcDbEntity
  8
1
  6
CONTINUOUS
370
50
 62
4
100
AcDbLine
 10
89.21369899999999
 20
-0.990412
 30
0.0
 11
88.969009
 21
-0.879771
 31
0.0
  0
LINE
  5
67B
330
1F
100
AcDbEntity
  8
1
  6
CONTINUOUS
370
50
 62
4
100
AcDbLine
 10
81.040436
 20
-0.988471
 30
0.0
 11
80.796204
 21
-0.878112
 31
0.0
  0
LINE
  5
67C
330
1F
100
AcDbEntity
  8
1
  6
CONTINUOUS
370
50
 62
4
100
AcDbLine
 10
64.701988
 20
-0.989138
 30
0.0
 11
64.457703
 21
-0.878782
 31
0.0
  0
LINE
  5
67D
330
1F
100
AcDbEntity
  8
1
  6
CONTINUOUS
370
50
 62
4
100
AcDbLine
 10
97.02654299999999
 20
0.880304
 30
0.0
 11
96.780312
 21
0.9914759999999999
 31
0.0
  0
LINE
  5
67E
330
1F
100
AcDbEntity
  8
1
  6
CONTINUOUS
370
50
 62
4
100
AcDbLine
 10
104.287224
 20
1.499802
 30
0.0
 11
104.287018
 21
1.499895
 31
0.0
  0
LINE
  5
67F
330
1F
100
AcDbEntity
  8
1
  6
CONTINUOUS
370
50
 62
4
100
AcDbLine
 10
64.348946
 20
0.8808889999999999
 30
0.0
 11
64.10408
 21
0.9914069999999999
 31
0.0
  0
LINE
  5
680
330
1F
100
AcDbEntity
  8
1
  6
CONTINUOUS
370
50
 62
4
100
AcDbLine
 10
97.37842599999999
 20
-0.988196
 30
0.0
 11
97.132965
 21
-0.8775419999999999
 31
0.0
  0
LINE
  5
681
330
1F
100
AcDbEntity
  8
1
  6
CONTINUOUS
370
50
 62
4
100
AcDbLine
 10
80.691589
 20
0.878747
 30
0.0
 11
80.44532799999999
 21
0.9896349999999999
 31
0.0
  0
LINE
  5
682
330
1F
100
AcDbEntity
  8
1
  6
CONTINUOUS
370
50
 62
4
100
AcDbLine
 10
88.85921499999999
 20
0.879737
 30
0.0
 11
88.61337999999999
 21
0.990266
 31
0.0
  0
LINE
  5
683
330
1F
100
AcDbEntity
  8
1
  6
CONTINUOUS
370
50
 62
4
100
AcDbLine
 10
72.871078
 20
-0.988433
 30
0.0
 11
72.624054
 21
-0.877421
 31
0.0
  0
LINE
  5
684
330
1F
100
AcDbEntity
  8
1
  6
CONTINUOUS
370
50
 62
4
100
AcDbLine
 10
51.345024
 20
-0.86163
 30
0.0
 11
51.281372
 21
-0.833054
 31
0.0
  0
LINE
  5
685
330
1F
100
AcDbEntity
  8
1
  6
CONTINUOUS
370
50
 62
4
100
AcDbLine
 10
53.01869199999999
 20
0.886365
 30
0.0
 11
52.745552
 21
1.008489
 31
0.0
  0
LINE
  5
686
330
1F
100
AcDbEntity
  8
1
  6
CONTINUOUS
370
50
 62
4
100
AcDbLine
 10
55.999134
 20
0.961931
 30
0.0
 11
55.749161
 21
1.067831
 31
0.0
  0
LINE
  5
687
330
1F
100
AcDbEntity
  8
1
  6
CONTINUOUS
370
50
 62
4
100
AcDbLine
 10
51.281372
 20
-0.833054
 30
0.0
 11
51.217258
 21
-0.8059769999999999
 31
0.0
  0
LINE
  5
688
330
1F
100
AcDbEntity
  8
1
  6
CONTINUOUS
370
50
 62
4
100
AcDbLine
 10
76.224739
 20
-1.07464
 30
0.0
 11
75.977554
 21
-0.9704069999999999
 31
0.0
  0
LINE
  5
689
330
1F
100
AcDbEntity
  8
1
  6
CONTINUOUS
370
50
 62
4
100
AcDbLine
 10
69.17369099999999
 20
0.969629
 30
0.0
 11
68.922791
 21
1.0754
 31
0.0
  0
LINE
  5
68A
330
1F
100
AcDbEntity
  8
1
  6
CONTINUOUS
370
50
 62
4
100
AcDbLine
 10
60.987854
 20
0.9769359999999999
 30
0.0
 11
60.740135
 21
1.081236
 31
0.0
  0
LINE
  5
68B
330
1F
100
AcDbEntity
  8
1
  6
CONTINUOUS
370
50
 62
4
100
AcDbLine
 10
56.749477
 20
-1.079844
 30
0.0
 11
56.499847
 21
-0.974792
 31
0.0
  0
LINE
  5
68C
330
1F
100
AcDbEntity
  8
1
  6
CONTINUOUS
370
50
 62
4
100
AcDbLine
 10
68.07209
 20
-1.081508
 30
0.0
 11
67.823196
 21
-0.976779
 31
0.0
  0
LINE
  5
68D
330
1F
100
AcDbEntity
  8
1
  6
CONTINUOUS
370
50
 62
4
100
AcDbLine
 10
93.664993
 20
0.97649
 30
0.0
 11
93.41677899999999
 21
1.080893
 31
0.0
  0
LINE
  5
68E
330
1F
100
AcDbEntity
  8
1
  6
CONTINUOUS
370
50
 62
4
100
AcDbLine
 10
85.496262
 20
0.976636
 30
0.0
 11
85.246864
 21
1.081448
 31
0.0
  0
LINE
  5
68F
330
1F
100
AcDbEntity
  8
1
  6
CONTINUOUS
370
50
 62
4
100
AcDbLine
 10
100.750168
 20
-1.081333
 30
0.0
 11
100.501244
 21
-0.976721
 31
0.0
  0
LINE
  5
690
330
1F
100
AcDbEntity
  8
1
  6
CONTINUOUS
370
50
 62
4
100
AcDbLine
 10
92.580292
 20
-1.080993
 30
0.0
 11
92.33236699999999
 21
-0.976834
 31
0.0
  0
LINE
  5
691
330
1F
100
AcDbEntity
  8
1
  6
CONTINUOUS
370
50
 62
4
100
AcDbLine
 10
59.943199
 20
-1.097455
 30
0.0
 11
59.61825899999999
 21
-0.96121
 31
0.0
  0
LINE
  5
692
330
1F
100
AcDbEntity
  8
1
  6
CONTINUOUS
370
50
 62
4
100
AcDbLine
 10
101.835678
 20
0.976182
 30
0.0
 11
101.585747
 21
1.080715
 31
0.0
  0
LINE
  5
693
330
1F
100
AcDbEntity
  8
1
  6
CONTINUOUS
370
50
 62
4
100
AcDbLine
 10
84.410896
 20
-1.080905
 30
0.0
 11
84.161087
 21
-0.9764889999999999
 31
0.0
  0
LINE
  5
694
330
1F
100
AcDbEntity
  8
1
  6
CONTINUOUS
370
50
 62
4
100
AcDbLine
 10
77.32421099999999
 20
0.978192
 30
0.0
 11
77.07399
 21
1.082572
 31
0.0
  0
LINE
  5
695
330
1F
100
AcDbEntity
  8
1
  6
CONTINUOUS
370
50
 62
4
100
AcDbLine
 10
81.284187
 20
-1.090119
 30
0.0
 11
81.040436
 21
-0.988471
 31
0.0
  0
LINE
  5
696
330
1F
100
AcDbEntity
  8
1
  6
CONTINUOUS
370
50
 62
4
100
AcDbLine
 10
80.44532799999999
 20
0.9896349999999999
 30
0.0
 11
80.200127
 21
1.091725
 31
0.0
  0
LINE
  5
697
330
1F
100
AcDbEntity
  8
1
  6
CONTINUOUS
370
50
 62
4
100
AcDbLine
 10
73.11792799999999
 20
-1.091146
 30
0.0
 11
72.871078
 21
-0.988433
 31
0.0
  0
LINE
  5
698
330
1F
100
AcDbEntity
  8
1
  6
CONTINUOUS
370
50
 62
4
100
AcDbLine
 10
72.278252
 20
0.9890509999999999
 30
0.0
 11
72.032059
 21
1.091365
 31
0.0
  0
LINE
  5
699
330
1F
100
AcDbEntity
  8
1
  6
CONTINUOUS
370
50
 62
4
100
AcDbLine
 10
89.459457
 20
-1.092205
 30
0.0
 11
89.21369899999999
 21
-0.990412
 31
0.0
  0
LINE
  5
69A
330
1F
100
AcDbEntity
  8
1
  6
CONTINUOUS
370
50
 62
4
100
AcDbLine
 10
88.61337999999999
 20
0.990266
 30
0.0
 11
88.368141
 21
1.091835
 31
0.0
  0
LINE
  5
69B
330
1F
100
AcDbEntity
  8
1
  6
CONTINUOUS
370
50
 62
4
100
AcDbLine
 10
97.62477899999999
 20
-1.090187
 30
0.0
 11
97.37842599999999
 21
-0.988196
 31
0.0
  0
LINE
  5
69C
330
1F
100
AcDbEntity
  8
1
  6
CONTINUOUS
370
50
 62
4
100
AcDbLine
 10
64.947929
 20
-1.090862
 30
0.0
 11
64.701988
 21
-0.989138
 31
0.0
  0
LINE
  5
69D
330
1F
100
AcDbEntity
  8
1
  6
CONTINUOUS
370
50
 62
4
100
AcDbLine
 10
96.780312
 20
0.9914759999999999
 30
0.0
 11
96.53343199999999
 21
1.093475
 31
0.0
  0
LINE
  5
69E
330
1F
100
AcDbEntity
  8
1
  6
CONTINUOUS
370
50
 62
4
100
AcDbLine
 10
64.10408
 20
0.9914069999999999
 30
0.0
 11
63.85746
 21
1.093268
 31
0.0
  0
LINE
  5
69F
330
1F
100
AcDbEntity
  8
1
  6
CONTINUOUS
370
50
 62
4
100
AcDbLine
 10
52.745552
 20
1.008489
 30
0.0
 11
52.470997
 21
1.119206
 31
0.0
  0
LINE
  5
6A0
330
1F
100
AcDbEntity
  8
1
  6
CONTINUOUS
370
50
 62
4
100
AcDbLine
 10
50.433941
 20
-1.392834
 30
0.0
 11
50.35233299999999
 21
-1.359929
 31
0.0
  0
LINE
  5
6A1
330
1F
100
AcDbEntity
  8
1
  6
CONTINUOUS
370
50
 62
4
100
AcDbLine
 10
51.919247
 20
-1.152311
 30
0.0
 11
51.659084
 21
-1.049404
 31
0.0
  0
LINE
  5
6A2
330
1F
100
AcDbEntity
  8
1
  6
CONTINUOUS
370
50
 62
4
100
AcDbLine
 10
51.217258
 20
-0.8059769999999999
 30
0.0
 11
51.15258799999999
 21
-0.7805519999999999
 31
0.0
  0
LINE
  5
6A3
330
1F
100
AcDbEntity
  8
1
  6
CONTINUOUS
370
50
 62
4
100
AcDbLine
 10
55.749161
 20
1.067831
 30
0.0
 11
55.499634
 21
1.164133
 31
0.0
  0
LINE
  5
6A4
330
1F
100
AcDbEntity
  8
1
  6
CONTINUOUS
370
50
 62
4
100
AcDbLine
 10
68.922791
 20
1.0754
 30
0.0
 11
68.672569
 21
1.171299
 31
0.0
  0
LINE
  5
6A5
330
1F
100
AcDbEntity
  8
1
  6
CONTINUOUS
370
50
 62
4
100
AcDbLine
 10
76.47533399999999
 20
-1.170095
 30
0.0
 11
76.224739
 21
-1.07464
 31
0.0
  0
LINE
  5
6A6
330
1F
100
AcDbEntity
  8
1
  6
CONTINUOUS
370
50
 62
4
100
AcDbLine
 10
84.659088
 20
-1.17535
 30
0.0
 11
84.410896
 21
-1.080905
 31
0.0
  0
LINE
  5
6A7
330
1F
100
AcDbEntity
  8
1
  6
CONTINUOUS
370
50
 62
4
100
AcDbLine
 10
92.828537
 20
-1.175442
 30
0.0
 11
92.580292
 21
-1.080993
 31
0.0
  0
LINE
  5
6A8
330
1F
100
AcDbEntity
  8
1
  6
CONTINUOUS
370
50
 62
4
100
AcDbLine
 10
93.41677899999999
 20
1.080893
 30
0.0
 11
93.16774
 21
1.175603
 31
0.0
  0
LINE
  5
6A9
330
1F
100
AcDbEntity
  8
1
  6
CONTINUOUS
370
50
 62
4
100
AcDbLine
 10
101.585747
 20
1.080715
 30
0.0
 11
101.336563
 21
1.175472
 31
0.0
  0
LINE
  5
6AA
330
1F
100
AcDbEntity
  8
1
  6
CONTINUOUS
370
50
 62
4
100
AcDbLine
 10
60.740135
 20
1.081236
 30
0.0
 11
60.491329
 21
1.175759
 31
0.0
  0
LINE
  5
6AB
330
1F
100
AcDbEntity
  8
1
  6
CONTINUOUS
370
50
 62
4
100
AcDbLine
 10
68.321739
 20
-1.176178
 30
0.0
 11
68.07209
 21
-1.081508
 31
0.0
  0
LINE
  5
6AC
330
1F
100
AcDbEntity
  8
1
  6
CONTINUOUS
370
50
 62
4
100
AcDbLine
 10
77.07399
 20
1.082572
 30
0.0
 11
76.825012
 21
1.176974
 31
0.0
  0
LINE
  5
6AD
330
1F
100
AcDbEntity
  8
1
  6
CONTINUOUS
370
50
 62
4
100
AcDbLine
 10
57.000538
 20
-1.174905
 30
0.0
 11
56.749477
 21
-1.079844
 31
0.0
  0
LINE
  5
6AE
330
1F
100
AcDbEntity
  8
1
  6
CONTINUOUS
370
50
 62
4
100
AcDbLine
 10
101.000168
 20
-1.175857
 30
0.0
 11
100.750168
 21
-1.081333
 31
0.0
  0
LINE
  5
6AF
330
1F
100
AcDbEntity
  8
1
  6
CONTINUOUS
370
50
 62
4
100
AcDbLine
 10
85.246864
 20
1.081448
 30
0.0
 11
84.99658199999999
 21
1.176
 31
0.0
  0
LINE
  5
6B0
330
1F
100
AcDbEntity
  8
1
  6
CONTINUOUS
370
50
 62
4
100
AcDbLine
 10
97.870178
 20
-1.182688
 30
0.0
 11
97.62477899999999
 21
-1.090187
 31
0.0
  0
LINE
  5
6B1
330
1F
100
AcDbEntity
  8
1
  6
CONTINUOUS
370
50
 62
4
100
AcDbLine
 10
73.364334
 20
-1.184003
 30
0.0
 11
73.11792799999999
 21
-1.091146
 31
0.0
  0
LINE
  5
6B2
330
1F
100
AcDbEntity
  8
1
  6
CONTINUOUS
370
50
 62
4
100
AcDbLine
 10
65.192505
 20
-1.182967
 30
0.0
 11
64.947929
 21
-1.090862
 31
0.0
  0
LINE
  5
6B3
330
1F
100
AcDbEntity
  8
1
  6
CONTINUOUS
370
50
 62
4
100
AcDbLine
 10
88.368141
 20
1.091835
 30
0.0
 11
88.123367
 21
1.18399
 31
0.0
  0
LINE
  5
6B4
330
1F
100
AcDbEntity
  8
1
  6
CONTINUOUS
370
50
 62
4
100
AcDbLine
 10
80.200127
 20
1.091725
 30
0.0
 11
79.954308
 21
1.184098
 31
0.0
  0
LINE
  5
6B5
330
1F
100
AcDbEntity
  8
1
  6
CONTINUOUS
370
50
 62
4
100
AcDbLine
 10
81.52969399999999
 20
-1.182334
 30
0.0
 11
81.284187
 21
-1.090119
 31
0.0
  0
LINE
  5
6B6
330
1F
100
AcDbEntity
  8
1
  6
CONTINUOUS
370
50
 62
4
100
AcDbLine
 10
63.85746
 20
1.093268
 30
0.0
 11
63.610729
 21
1.185832
 31
0.0
  0
LINE
  5
6B7
330
1F
100
AcDbEntity
  8
1
  6
CONTINUOUS
370
50
 62
4
100
AcDbLine
 10
105.0
 20
0.0
 30
0.0
 11
104.883392
 21
0.043734
 31
0.0
  0
LINE
  5
6B8
330
1F
100
AcDbEntity
  8
1
  6
CONTINUOUS
370
50
 62
4
100
AcDbLine
 10
72.032059
 20
1.091365
 30
0.0
 11
71.78537
 21
1.183777
 31
0.0
  0
LINE
  5
6B9
330
1F
100
AcDbEntity
  8
1
  6
CONTINUOUS
370
50
 62
4
100
AcDbLine
 10
96.53343199999999
 20
1.093475
 30
0.0
 11
96.288467
 21
1.18511
 31
0.0
  0
LINE
  5
6BA
330
1F
100
AcDbEntity
  8
1
  6
CONTINUOUS
370
50
 62
4
100
AcDbLine
 10
89.705231
 20
-1.184103
 30
0.0
 11
89.459457
 21
-1.092205
 31
0.0
  0
LINE
  5
6BB
330
1F
100
AcDbEntity
  8
1
  6
CONTINUOUS
370
50
 62
4
100
AcDbLine
 10
60.268105
 20
-1.216729
 30
0.0
 11
59.943199
 21
-1.097455
 31
0.0
  0
LINE
  5
6BC
330
1F
100
AcDbEntity
  8
1
  6
CONTINUOUS
370
50
 62
4
100
AcDbLine
 10
105.0
 20
0.0
 30
0.0
 11
104.879143
 21
0.043731
 31
0.0
  0
LINE
  5
6BD
330
1F
100
AcDbEntity
  8
1
  6
CONTINUOUS
370
50
 62
4
100
AcDbLine
 10
51.15258799999999
 20
-0.7805519999999999
 30
0.0
 11
51.087032
 21
-0.756849
 31
0.0
  0
LINE
  5
6BE
330
1F
100
AcDbEntity
  8
1
  6
CONTINUOUS
370
50
 62
4
100
AcDbLine
 10
52.470997
 20
1.119206
 30
0.0
 11
52.197826
 21
1.21749
 31
0.0
  0
LINE
  5
6BF
330
1F
100
AcDbEntity
  8
1
  6
CONTINUOUS
370
50
 62
4
100
AcDbLine
 10
52.179707
 20
-1.243384
 30
0.0
 11
51.919247
 21
-1.152311
 31
0.0
  0
LINE
  5
6C0
330
1F
100
AcDbEntity
  8
1
  6
CONTINUOUS
370
50
 62
4
100
AcDbLine
 10
55.499634
 20
1.164133
 30
0.0
 11
55.24877499999999
 21
1.249822
 31
0.0
  0
LINE
  5
6C1
330
1F
100
AcDbEntity
  8
1
  6
CONTINUOUS
370
50
 62
4
100
AcDbLine
 10
76.725876
 20
-1.255199
 30
0.0
 11
76.47533399999999
 21
-1.170095
 31
0.0
  0
LINE
  5
6C2
330
1F
100
AcDbEntity
  8
1
  6
CONTINUOUS
370
50
 62
4
100
AcDbLine
 10
50.517208
 20
-1.421083
 30
0.0
 11
50.433941
 21
-1.392834
 31
0.0
  0
LINE
  5
6C3
330
1F
100
AcDbEntity
  8
1
  6
CONTINUOUS
370
50
 62
4
100
AcDbLine
 10
68.672569
 20
1.171299
 30
0.0
 11
68.421097
 21
1.256444
 31
0.0
  0
LINE
  5
6C4
330
1F
100
AcDbEntity
  8
1
  6
CONTINUOUS
370
50
 62
4
100
AcDbLine
 10
84.907478
 20
-1.259117
 30
0.0
 11
84.659088
 21
-1.17535
 31
0.0
  0
LINE
  5
6C5
330
1F
100
AcDbEntity
  8
1
  6
CONTINUOUS
370
50
 62
4
100
AcDbLine
 10
57.250938
 20
-1.259342
 30
0.0
 11
57.000538
 21
-1.174905
 31
0.0
  0
LINE
  5
6C6
330
1F
100
AcDbEntity
  8
1
  6
CONTINUOUS
370
50
 62
4
100
AcDbLine
 10
76.825012
 20
1.176974
 30
0.0
 11
76.577499
 21
1.260392
 31
0.0
  0
LINE
  5
6C7
330
1F
100
AcDbEntity
  8
1
  6
CONTINUOUS
370
50
 62
4
100
AcDbLine
 10
101.336563
 20
1.175472
 30
0.0
 11
101.08812
 21
1.259165
 31
0.0
  0
LINE
  5
6C8
330
1F
100
AcDbEntity
  8
1
  6
CONTINUOUS
370
50
 62
4
100
AcDbLine
 10
84.99658199999999
 20
1.176
 30
0.0
 11
84.74825299999999
 21
1.259521
 31
0.0
  0
LINE
  5
6C9
330
1F
100
AcDbEntity
  8
1
  6
CONTINUOUS
370
50
 62
4
100
AcDbLine
 10
101.248993
 20
-1.259392
 30
0.0
 11
101.000168
 21
-1.175857
 31
0.0
  0
LINE
  5
6CA
330
1F
100
AcDbEntity
  8
1
  6
CONTINUOUS
370
50
 62
4
100
AcDbLine
 10
93.07822399999999
 20
-1.259193
 30
0.0
 11
92.828537
 21
-1.175442
 31
0.0
  0
LINE
  5
6CB
330
1F
100
AcDbEntity
  8
1
  6
CONTINUOUS
370
50
 62
4
100
AcDbLine
 10
68.57122799999999
 20
-1.259822
 30
0.0
 11
68.321739
 21
-1.176178
 31
0.0
  0
LINE
  5
6CC
330
1F
100
AcDbEntity
  8
1
  6
CONTINUOUS
370
50
 62
4
100
AcDbLine
 10
60.491329
 20
1.175759
 30
0.0
 11
60.241398
 21
1.259526
 31
0.0
  0
LINE
  5
6CD
330
1F
100
AcDbEntity
  8
1
  6
CONTINUOUS
370
50
 62
4
100
AcDbLine
 10
93.16774
 20
1.175603
 30
0.0
 11
92.917175
 21
1.25952
 31
0.0
  0
LINE
  5
6CE
330
1F
100
AcDbEntity
  8
1
  6
CONTINUOUS
370
50
 62
4
100
AcDbLine
 10
65.436684
 20
-1.264601
 30
0.0
 11
65.192505
 21
-1.182967
 31
0.0
  0
LINE
  5
6CF
330
1F
100
AcDbEntity
  8
1
  6
CONTINUOUS
370
50
 62
4
100
AcDbLine
 10
89.94929499999999
 20
-1.265454
 30
0.0
 11
89.705231
 21
-1.184103
 31
0.0
  0
LINE
  5
6D0
330
1F
100
AcDbEntity
  8
1
  6
CONTINUOUS
370
50
 62
4
100
AcDbLine
 10
98.11643199999999
 20
-1.264747
 30
0.0
 11
97.870178
 21
-1.182688
 31
0.0
  0
LINE
  5
6D1
330
1F
100
AcDbEntity
  8
1
  6
CONTINUOUS
370
50
 62
4
100
AcDbLine
 10
71.78537
 20
1.183777
 30
0.0
 11
71.539215
 21
1.265699
 31
0.0
  0
LINE
  5
6D2
330
1F
100
AcDbEntity
  8
1
  6
CONTINUOUS
370
50
 62
4
100
AcDbLine
 10
96.288467
 20
1.18511
 30
0.0
 11
96.04418899999999
 21
1.266404
 31
0.0
  0
LINE
  5
6D3
330
1F
100
AcDbEntity
  8
1
  6
CONTINUOUS
370
50
 62
4
100
AcDbLine
 10
63.610729
 20
1.185832
 30
0.0
 11
63.36478
 21
1.267641
 31
0.0
  0
LINE
  5
6D4
330
1F
100
AcDbEntity
  8
1
  6
CONTINUOUS
370
50
 62
4
100
AcDbLine
 10
88.123367
 20
1.18399
 30
0.0
 11
87.877495
 21
1.265715
 31
0.0
  0
LINE
  5
6D5
330
1F
100
AcDbEntity
  8
1
  6
CONTINUOUS
370
50
 62
4
100
AcDbLine
 10
81.775978
 20
-1.264148
 30
0.0
 11
81.52969399999999
 21
-1.182334
 31
0.0
  0
LINE
  5
6D6
330
1F
100
AcDbEntity
  8
1
  6
CONTINUOUS
370
50
 62
4
100
AcDbLine
 10
73.611237
 20
-1.265923
 30
0.0
 11
73.364334
 21
-1.184003
 31
0.0
  0
LINE
  5
6D7
330
1F
100
AcDbEntity
  8
1
  6
CONTINUOUS
370
50
 62
4
100
AcDbLine
 10
79.954308
 20
1.184098
 30
0.0
 11
79.707741
 21
1.265757
 31
0.0
  0
LINE
  5
6D8
330
1F
100
AcDbEntity
  8
1
  6
CONTINUOUS
370
50
 62
4
100
AcDbLine
 10
51.087032
 20
-0.756849
 30
0.0
 11
51.020542
 21
-0.7350669999999999
 31
0.0
  0
LINE
  5
6D9
330
1F
100
AcDbEntity
  8
1
  6
CONTINUOUS
370
50
 62
4
100
AcDbLine
 10
51.657085
 20
1.387313
 30
0.0
 11
51.570541
 21
1.414551
 31
0.0
  0
LINE
  5
6DA
330
1F
100
AcDbEntity
  8
1
  6
CONTINUOUS
370
50
 62
4
100
AcDbLine
 10
52.197826
 20
1.21749
 30
0.0
 11
51.927322
 21
1.302582
 31
0.0
  0
LINE
  5
6DB
330
1F
100
AcDbEntity
  8
1
  6
CONTINUOUS
370
50
 62
4
100
AcDbLine
 10
60.594994
 20
-1.317015
 30
0.0
 11
60.268105
 21
-1.216729
 31
0.0
  0
LINE
  5
6DC
330
1F
100
AcDbEntity
  8
1
  6
CONTINUOUS
370
50
 62
4
100
AcDbLine
 10
104.300537
 20
1.238364
 30
0.0
 11
104.077507
 21
1.30646
 31
0.0
  0
LINE
  5
6DD
330
1F
100
AcDbEntity
  8
1
  6
CONTINUOUS
370
50
 62
4
100
AcDbLine
 10
52.441078
 20
-1.321291
 30
0.0
 11
52.179707
 21
-1.243384
 31
0.0
  0
LINE
  5
6DE
330
1F
100
AcDbEntity
  8
1
  6
CONTINUOUS
370
50
 62
4
100
AcDbLine
 10
55.24877499999999
 20
1.249822
 30
0.0
 11
54.997456
 21
1.32382
 31
0.0
  0
LINE
  5
6DF
330
1F
100
AcDbEntity
  8
1
  6
CONTINUOUS
370
50
 62
4
100
AcDbLine
 10
76.97711199999999
 20
-1.328814
 30
0.0
 11
76.725876
 21
-1.255199
 31
0.0
  0
LINE
  5
6E0
330
1F
100
AcDbEntity
  8
1
  6
CONTINUOUS
370
50
 62
4
100
AcDbLine
 10
57.500259
 20
-1.331954
 30
0.0
 11
57.250938
 21
-1.259342
 31
0.0
  0
LINE
  5
6E1
330
1F
100
AcDbEntity
  8
1
  6
CONTINUOUS
370
50
 62
4
100
AcDbLine
 10
51.020542
 20
-0.7350669999999999
 30
0.0
 11
50.95317499999999
 21
-0.715452
 31
0.0
  0
LINE
  5
6E2
330
1F
100
AcDbEntity
  8
1
  6
CONTINUOUS
370
50
 62
4
100
AcDbLine
 10
84.74825299999999
 20
1.259521
 30
0.0
 11
84.50106799999999
 21
1.331458
 31
0.0
  0
LINE
  5
6E3
330
1F
100
AcDbEntity
  8
1
  6
CONTINUOUS
370
50
 62
4
100
AcDbLine
 10
60.241398
 20
1.259526
 30
0.0
 11
59.993511
 21
1.331658
 31
0.0
  0
LINE
  5
6E4
330
1F
100
AcDbEntity
  8
1
  6
CONTINUOUS
370
50
 62
4
100
AcDbLine
 10
68.81916
 20
-1.331897
 30
0.0
 11
68.57122799999999
 21
-1.259822
 31
0.0
  0
LINE
  5
6E5
330
1F
100
AcDbEntity
  8
1
  6
CONTINUOUS
370
50
 62
4
100
AcDbLine
 10
68.421097
 20
1.256444
 30
0.0
 11
68.169487
 21
1.329575
 31
0.0
  0
LINE
  5
6E6
330
1F
100
AcDbEntity
  8
1
  6
CONTINUOUS
370
50
 62
4
100
AcDbLine
 10
101.496819
 20
-1.331416
 30
0.0
 11
101.248993
 21
-1.259392
 31
0.0
  0
LINE
  5
6E7
330
1F
100
AcDbEntity
  8
1
  6
CONTINUOUS
370
50
 62
4
100
AcDbLine
 10
92.917175
 20
1.25952
 30
0.0
 11
92.667244
 21
1.331924
 31
0.0
  0
LINE
  5
6E8
330
1F
100
AcDbEntity
  8
1
  6
CONTINUOUS
370
50
 62
4
100
AcDbLine
 10
93.327782
 20
-1.331446
 30
0.0
 11
93.07822399999999
 21
-1.259193
 31
0.0
  0
LINE
  5
6E9
330
1F
100
AcDbEntity
  8
1
  6
CONTINUOUS
370
50
 62
4
100
AcDbLine
 10
76.577499
 20
1.260392
 30
0.0
 11
76.32899499999999
 21
1.33231
 31
0.0
  0
LINE
  5
6EA
330
1F
100
AcDbEntity
  8
1
  6
CONTINUOUS
370
50
 62
4
100
AcDbLine
 10
85.157524
 20
-1.33145
 30
0.0
 11
84.907478
 21
-1.259117
 31
0.0
  0
LINE
  5
6EB
330
1F
100
AcDbEntity
  8
1
  6
CONTINUOUS
370
50
 62
4
100
AcDbLine
 10
101.08812
 20
1.259165
 30
0.0
 11
100.838669
 21
1.331168
 31
0.0
  0
LINE
  5
6EC
330
1F
100
AcDbEntity
  8
1
  6
CONTINUOUS
370
50
 62
4
100
AcDbLine
 10
82.020561
 20
-1.334655
 30
0.0
 11
81.775978
 21
-1.264148
 31
0.0
  0
LINE
  5
6ED
330
1F
100
AcDbEntity
  8
1
  6
CONTINUOUS
370
50
 62
4
100
AcDbLine
 10
71.539215
 20
1.265699
 30
0.0
 11
71.293663
 21
1.336282
 31
0.0
  0
LINE
  5
6EE
330
1F
100
AcDbEntity
  8
1
  6
CONTINUOUS
370
50
 62
4
100
AcDbLine
 10
90.19382499999999
 20
-1.335683
 30
0.0
 11
89.94929499999999
 21
-1.265454
 31
0.0
  0
LINE
  5
6EF
330
1F
100
AcDbEntity
  8
1
  6
CONTINUOUS
370
50
 62
4
100
AcDbLine
 10
65.682686
 20
-1.335166
 30
0.0
 11
65.436684
 21
-1.264601
 31
0.0
  0
LINE
  5
6F0
330
1F
100
AcDbEntity
  8
1
  6
CONTINUOUS
370
50
 62
4
100
AcDbLine
 10
79.707741
 20
1.265757
 30
0.0
 11
79.462418
 21
1.336097
 31
0.0
  0
LINE
  5
6F1
330
1F
100
AcDbEntity
  8
1
  6
CONTINUOUS
370
50
 62
4
100
AcDbLine
 10
96.04418899999999
 20
1.266404
 30
0.0
 11
95.798592
 21
1.336638
 31
0.0
  0
LINE
  5
6F2
330
1F
100
AcDbEntity
  8
1
  6
CONTINUOUS
370
50
 62
4
100
AcDbLine
 10
98.36340299999999
 20
-1.335328
 30
0.0
 11
98.11643199999999
 21
-1.264747
 31
0.0
  0
LINE
  5
6F3
330
1F
100
AcDbEntity
  8
1
  6
CONTINUOUS
370
50
 62
4
100
AcDbLine
 10
73.857033
 20
-1.336139
 30
0.0
 11
73.611237
 21
-1.265923
 31
0.0
  0
LINE
  5
6F4
330
1F
100
AcDbEntity
  8
1
  6
CONTINUOUS
370
50
 62
4
100
AcDbLine
 10
87.877495
 20
1.265715
 30
0.0
 11
87.63121799999999
 21
1.33605
 31
0.0
  0
LINE
  5
6F5
330
1F
100
AcDbEntity
  8
1
  6
CONTINUOUS
370
50
 62
4
100
AcDbLine
 10
63.36478
 20
1.267641
 30
0.0
 11
63.1185
 21
1.337895
 31
0.0
  0
LINE
  5
6F6
330
1F
100
AcDbEntity
  8
1
  6
CONTINUOUS
370
50
 62
4
100
AcDbLine
 10
50.601063
 20
-1.444788
 30
0.0
 11
50.517208
 21
-1.421083
 31
0.0
  0
LINE
  5
6F7
330
1F
100
AcDbEntity
  8
1
  6
CONTINUOUS
370
50
 62
4
100
AcDbLine
 10
51.570541
 20
1.414551
 30
0.0
 11
51.48358899999999
 21
1.439006
 31
0.0
  0
LINE
  5
6F8
330
1F
100
AcDbEntity
  8
1
  6
CONTINUOUS
370
50
 62
4
100
AcDbLine
 10
51.927322
 20
1.302582
 30
0.0
 11
51.657085
 21
1.373685
 31
0.0
  0
LINE
  5
6F9
330
1F
100
AcDbEntity
  8
1
  6
CONTINUOUS
370
50
 62
4
100
AcDbLine
 10
104.077507
 20
1.30646
 30
0.0
 11
103.855103
 21
1.364798
 31
0.0
  0
LINE
  5
6FA
330
1F
100
AcDbEntity
  8
1
  6
CONTINUOUS
370
50
 62
4
100
AcDbLine
 10
50.95317499999999
 20
-0.715452
 30
0.0
 11
50.884995
 21
-0.698247
 31
0.0
  0
LINE
  5
6FB
330
1F
100
AcDbEntity
  8
1
  6
CONTINUOUS
370
50
 62
4
100
AcDbLine
 10
54.997456
 20
1.32382
 30
0.0
 11
54.746975
 21
1.385609
 31
0.0
  0
LINE
  5
6FC
330
1F
100
AcDbEntity
  8
1
  6
CONTINUOUS
370
50
 62
4
100
AcDbLine
 10
52.703228
 20
-1.385628
 30
0.0
 11
52.441078
 21
-1.321291
 31
0.0
  0
LINE
  5
6FD
330
1F
100
AcDbEntity
  8
1
  6
CONTINUOUS
370
50
 62
4
100
AcDbLine
 10
60.92042499999999
 20
-1.396692
 30
0.0
 11
60.594994
 21
-1.317015
 31
0.0
  0
LINE
  5
6FE
330
1F
100
AcDbEntity
  8
1
  6
CONTINUOUS
370
50
 62
4
100
AcDbLine
 10
68.169487
 20
1.329575
 30
0.0
 11
67.92009
 21
1.39025
 31
0.0
  0
LINE
  5
6FF
330
1F
100
AcDbEntity
  8
1
  6
CONTINUOUS
370
50
 62
4
100
AcDbLine
 10
77.229126
 20
-1.389926
 30
0.0
 11
76.97711199999999
 21
-1.328814
 31
0.0
  0
LINE
  5
700
330
1F
100
AcDbEntity
  8
1
  6
CONTINUOUS
370
50
 62
4
100
AcDbLine
 10
59.993511
 20
1.331658
 30
0.0
 11
59.746193
 21
1.391554
 31
0.0
  0
LINE
  5
701
330
1F
100
AcDbEntity
  8
1
  6
CONTINUOUS
370
50
 62
4
100
AcDbLine
 10
93.57620999999999
 20
-1.391482
 30
0.0
 11
93.327782
 21
-1.331446
 31
0.0
  0
LINE
  5
702
330
1F
100
AcDbEntity
  8
1
  6
CONTINUOUS
370
50
 62
4
100
AcDbLine
 10
69.067574
 20
-1.391892
 30
0.0
 11
68.81916
 21
-1.331897
 31
0.0
  0
LINE
  5
703
330
1F
100
AcDbEntity
  8
1
  6
CONTINUOUS
370
50
 62
4
100
AcDbLine
 10
92.667244
 20
1.331924
 30
0.0
 11
92.418549
 21
1.391961
 31
0.0
  0
LINE
  5
704
330
1F
100
AcDbEntity
  8
1
  6
CONTINUOUS
370
50
 62
4
100
AcDbLine
 10
100.838669
 20
1.331168
 30
0.0
 11
100.590401
 21
1.391079
 31
0.0
  0
LINE
  5
705
330
1F
100
AcDbEntity
  8
1
  6
CONTINUOUS
370
50
 62
4
100
AcDbLine
 10
84.50106799999999
 20
1.331458
 30
0.0
 11
84.252617
 21
1.39134
 31
0.0
  0
LINE
  5
706
330
1F
100
AcDbEntity
  8
1
  6
CONTINUOUS
370
50
 62
4
100
AcDbLine
 10
101.745728
 20
-1.391391
 30
0.0
 11
101.496819
 21
-1.331416
 31
0.0
  0
LINE
  5
707
330
1F
100
AcDbEntity
  8
1
  6
CONTINUOUS
370
50
 62
4
100
AcDbLine
 10
85.40750899999999
 20
-1.391621
 30
0.0
 11
85.157524
 21
-1.33145
 31
0.0
  0
LINE
  5
708
330
1F
100
AcDbEntity
  8
1
  6
CONTINUOUS
370
50
 62
4
100
AcDbLine
 10
57.750797
 20
-1.392247
 30
0.0
 11
57.500259
 21
-1.331954
 31
0.0
  0
LINE
  5
709
330
1F
100
AcDbEntity
  8
1
  6
CONTINUOUS
370
50
 62
4
100
AcDbLine
 10
76.32899499999999
 20
1.33231
 30
0.0
 11
76.07996399999999
 21
1.39202
 31
0.0
  0
LINE
  5
70A
330
1F
100
AcDbEntity
  8
1
  6
CONTINUOUS
370
50
 62
4
100
AcDbLine
 10
51.48358899999999
 20
1.439006
 30
0.0
 11
51.395519
 21
1.460119
 31
0.0
  0
LINE
  5
70B
330
1F
100
AcDbEntity
  8
1
  6
CONTINUOUS
370
50
 62
4
100
AcDbLine
 10
82.265305
 20
-1.393292
 30
0.0
 11
82.020561
 21
-1.334655
 31
0.0
  0
LINE
  5
70C
330
1F
100
AcDbEntity
  8
1
  6
CONTINUOUS
370
50
 62
4
100
AcDbLine
 10
74.101089
 20
-1.394433
 30
0.0
 11
73.857033
 21
-1.336139
 31
0.0
  0
LINE
  5
70D
330
1F
100
AcDbEntity
  8
1
  6
CONTINUOUS
370
50
 62
4
100
AcDbLine
 10
79.462418
 20
1.336097
 30
0.0
 11
79.21805599999999
 21
1.394442
 31
0.0
  0
LINE
  5
70E
330
1F
100
AcDbEntity
  8
1
  6
CONTINUOUS
370
50
 62
4
100
AcDbLine
 10
65.92946599999999
 20
-1.393946
 30
0.0
 11
65.682686
 21
-1.335166
 31
0.0
  0
LINE
  5
70F
330
1F
100
AcDbEntity
  8
1
  6
CONTINUOUS
370
50
 62
4
100
AcDbLine
 10
98.60973399999999
 20
-1.393986
 30
0.0
 11
98.36340299999999
 21
-1.335328
 31
0.0
  0
LINE
  5
710
330
1F
100
AcDbEntity
  8
1
  6
CONTINUOUS
370
50
 62
4
100
AcDbLine
 10
87.63121799999999
 20
1.33605
 30
0.0
 11
87.385498
 21
1.394545
 31
0.0
  0
LINE
  5
711
330
1F
100
AcDbEntity
  8
1
  6
CONTINUOUS
370
50
 62
4
100
AcDbLine
 10
71.293663
 20
1.336282
 30
0.0
 11
71.047203
 21
1.394842
 31
0.0
  0
LINE
  5
712
330
1F
100
AcDbEntity
  8
1
  6
CONTINUOUS
370
50
 62
4
100
AcDbLine
 10
90.44045299999999
 20
-1.394161
 30
0.0
 11
90.19382499999999
 21
-1.335683
 31
0.0
  0
LINE
  5
713
330
1F
100
AcDbEntity
  8
1
  6
CONTINUOUS
370
50
 62
4
100
AcDbLine
 10
95.798592
 20
1.336638
 30
0.0
 11
95.552292
 21
1.394875
 31
0.0
  0
LINE
  5
714
330
1F
100
AcDbEntity
  8
1
  6
CONTINUOUS
370
50
 62
4
100
AcDbLine
 10
63.1185
 20
1.337895
 30
0.0
 11
62.87339799999999
 21
1.395795
 31
0.0
  0
LINE
  5
715
330
1F
100
AcDbEntity
  8
1
  6
CONTINUOUS
370
50
 62
4
100
AcDbLine
 10
50.68553199999999
 20
-1.46424
 30
0.0
 11
50.601063
 21
-1.444788
 31
0.0
  0
LINE
  5
716
330
1F
100
AcDbEntity
  8
1
  6
CONTINUOUS
370
50
 62
4
100
AcDbLine
 10
103.855103
 20
1.364798
 30
0.0
 11
103.631744
 21
1.413101
 31
0.0
  0
LINE
  5
717
330
1F
100
AcDbEntity
  8
1
  6
CONTINUOUS
370
50
 62
4
100
AcDbLine
 10
50.884995
 20
-0.698247
 30
0.0
 11
50.816059
 21
-0.683699
 31
0.0
  0
LINE
  5
718
330
1F
100
AcDbEntity
  8
1
  6
CONTINUOUS
370
50
 62
4
100
AcDbLine
 10
54.746975
 20
1.385609
 30
0.0
 11
54.496761
 21
1.43451
 31
0.0
  0
LINE
  5
719
330
1F
100
AcDbEntity
  8
1
  6
CONTINUOUS
370
50
 62
4
100
AcDbLine
 10
52.96395099999999
 20
-1.436195
 30
0.0
 11
52.703228
 21
-1.385628
 31
0.0
  0
LINE
  5
71A
330
1F
100
AcDbEntity
  8
1
  6
CONTINUOUS
370
50
 62
4
100
AcDbLine
 10
67.92009
 20
1.39025
 30
0.0
 11
67.671089
 21
1.438043
 31
0.0
  0
LINE
  5
71B
330
1F
100
AcDbEntity
  8
1
  6
CONTINUOUS
370
50
 62
4
100
AcDbLine
 10
51.395519
 20
1.460119
 30
0.0
 11
51.305614
 21
1.477333
 31
0.0
  0
LINE
  5
71C
330
1F
100
AcDbEntity
  8
1
  6
CONTINUOUS
370
50
 62
4
100
AcDbLine
 10
77.481087
 20
-1.438045
 30
0.0
 11
77.229126
 21
-1.389926
 31
0.0
  0
LINE
  5
71D
330
1F
100
AcDbEntity
  8
1
  6
CONTINUOUS
370
50
 62
4
100
AcDbLine
 10
100.590401
 20
1.391079
 30
0.0
 11
100.342484
 21
1.43834
 31
0.0
  0
LINE
  5
71E
330
1F
100
AcDbEntity
  8
1
  6
CONTINUOUS
370
50
 62
4
100
AcDbLine
 10
85.655937
 20
-1.438898
 30
0.0
 11
85.40750899999999
 21
-1.391621
 31
0.0
  0
LINE
  5
71F
330
1F
100
AcDbEntity
  8
1
  6
CONTINUOUS
370
50
 62
4
100
AcDbLine
 10
76.07996399999999
 20
1.39202
 30
0.0
 11
75.83228299999999
 21
1.439107
 31
0.0
  0
LINE
  5
720
330
1F
100
AcDbEntity
  8
1
  6
CONTINUOUS
370
50
 62
4
100
AcDbLine
 10
59.746193
 20
1.391554
 30
0.0
 11
59.49703599999999
 21
1.43884
 31
0.0
  0
LINE
  5
721
330
1F
100
AcDbEntity
  8
1
  6
CONTINUOUS
370
50
 62
4
100
AcDbLine
 10
93.825226
 20
-1.438737
 30
0.0
 11
93.57620999999999
 21
-1.391482
 31
0.0
  0
LINE
  5
722
330
1F
100
AcDbEntity
  8
1
  6
CONTINUOUS
370
50
 62
4
100
AcDbLine
 10
84.252617
 20
1.39134
 30
0.0
 11
84.002792
 21
1.438647
 31
0.0
  0
LINE
  5
723
330
1F
100
AcDbEntity
  8
1
  6
CONTINUOUS
370
50
 62
4
100
AcDbLine
 10
69.317482
 20
-1.439176
 30
0.0
 11
69.067574
 21
-1.391892
 31
0.0
  0
LINE
  5
724
330
1F
100
AcDbEntity
  8
1
  6
CONTINUOUS
370
50
 62
4
100
AcDbLine
 10
58.000298
 20
-1.439447
 30
0.0
 11
57.750797
 21
-1.392247
 31
0.0
  0
LINE
  5
725
330
1F
100
AcDbEntity
  8
1
  6
CONTINUOUS
370
50
 62
4
100
AcDbLine
 10
92.418549
 20
1.391961
 30
0.0
 11
92.168976
 21
1.439142
 31
0.0
  0
LINE
  5
726
330
1F
100
AcDbEntity
  8
1
  6
CONTINUOUS
370
50
 62
4
100
AcDbLine
 10
101.99572
 20
-1.438614
 30
0.0
 11
101.745728
 21
-1.391391
 31
0.0
  0
LINE
  5
727
330
1F
100
AcDbEntity
  8
1
  6
CONTINUOUS
370
50
 62
4
100
AcDbLine
 10
66.175377
 20
-1.440353
 30
0.0
 11
65.92946599999999
 21
-1.393946
 31
0.0
  0
LINE
  5
728
330
1F
100
AcDbEntity
  8
1
  6
CONTINUOUS
370
50
 62
4
100
AcDbLine
 10
98.855209
 20
-1.440153
 30
0.0
 11
98.60973399999999
 21
-1.393986
 31
0.0
  0
LINE
  5
729
330
1F
100
AcDbEntity
  8
1
  6
CONTINUOUS
370
50
 62
4
100
AcDbLine
 10
74.345619
 20
-1.440413
 30
0.0
 11
74.101089
 21
-1.394433
 31
0.0
  0
LINE
  5
72A
330
1F
100
AcDbEntity
  8
1
  6
CONTINUOUS
370
50
 62
4
100
AcDbLine
 10
87.385498
 20
1.394545
 30
0.0
 11
87.14032
 21
1.440579
 31
0.0
  0
LINE
  5
72B
330
1F
100
AcDbEntity
  8
1
  6
CONTINUOUS
370
50
 62
4
100
AcDbLine
 10
82.512276
 20
-1.439655
 30
0.0
 11
82.265305
 21
-1.393292
 31
0.0
  0
LINE
  5
72C
330
1F
100
AcDbEntity
  8
1
  6
CONTINUOUS
370
50
 62
4
100
AcDbLine
 10
90.686295
 20
-1.440247
 30
0.0
 11
90.44045299999999
 21
-1.394161
 31
0.0
  0
LINE
  5
72D
330
1F
100
AcDbEntity
  8
1
  6
CONTINUOUS
370
50
 62
4
100
AcDbLine
 10
79.21805599999999
 20
1.394442
 30
0.0
 11
78.972633
 21
1.440424
 31
0.0
  0
LINE
  5
72E
330
1F
100
AcDbEntity
  8
1
  6
CONTINUOUS
370
50
 62
4
100
AcDbLine
 10
62.87339799999999
 20
1.395795
 30
0.0
 11
62.62978
 21
1.441384
 31
0.0
  0
LINE
  5
72F
330
1F
100
AcDbEntity
  8
1
  6
CONTINUOUS
370
50
 62
4
100
AcDbLine
 10
95.552292
 20
1.394875
 30
0.0
 11
95.307358
 21
1.440673
 31
0.0
  0
LINE
  5
730
330
1F
100
AcDbEntity
  8
1
  6
CONTINUOUS
370
50
 62
4
100
AcDbLine
 10
71.047203
 20
1.394842
 30
0.0
 11
70.80064399999999
 21
1.440888
 31
0.0
  0
LINE
  5
731
330
1F
100
AcDbEntity
  8
1
  6
CONTINUOUS
370
50
 62
4
100
AcDbLine
 10
50.770222
 20
-1.479481
 30
0.0
 11
50.68553199999999
 21
-1.46424
 31
0.0
  0
LINE
  5
732
330
1F
100
AcDbEntity
  8
1
  6
CONTINUOUS
370
50
 62
4
100
AcDbLine
 10
61.24559
 20
-1.454345
 30
0.0
 11
60.92042499999999
 21
-1.396692
 31
0.0
  0
LINE
  5
733
330
1F
100
AcDbEntity
  8
1
  6
CONTINUOUS
370
50
 62
4
100
AcDbLine
 10
103.631744
 20
1.413101
 30
0.0
 11
103.408913
 21
1.450875
 31
0.0
  0
LINE
  5
734
330
1F
100
AcDbEntity
  8
1
  6
CONTINUOUS
370
50
 62
4
100
AcDbLine
 10
50.816059
 20
-0.683699
 30
0.0
 11
50.746742
 21
-0.672098
 31
0.0
  0
LINE
  5
735
330
1F
100
AcDbEntity
  8
1
  6
CONTINUOUS
370
50
 62
4
100
AcDbLine
 10
104.286224
 20
-0.34129
 30
0.0
 11
104.269119
 21
-0.338437
 31
0.0
  0
LINE
  5
736
330
1F
100
AcDbEntity
  8
1
  6
CONTINUOUS
370
50
 62
4
100
AcDbLine
 10
54.496761
 20
1.43451
 30
0.0
 11
54.245506
 21
1.470027
 31
0.0
  0
LINE
  5
737
330
1F
100
AcDbEntity
  8
1
  6
CONTINUOUS
370
50
 62
4
100
AcDbLine
 10
53.22487599999999
 20
-1.472383
 30
0.0
 11
52.96395099999999
 21
-1.436195
 31
0.0
  0
LINE
  5
738
330
1F
100
AcDbEntity
  8
1
  6
CONTINUOUS
370
50
 62
4
100
AcDbLine
 10
77.732201
 20
-1.472742
 30
0.0
 11
77.481087
 21
-1.438045
 31
0.0
  0
LINE
  5
739
330
1F
100
AcDbEntity
  8
1
  6
CONTINUOUS
370
50
 62
4
100
AcDbLine
 10
51.305614
 20
1.477333
 30
0.0
 11
51.213165
 21
1.49009
 31
0.0
  0
LINE
  5
73A
330
1F
100
AcDbEntity
  8
1
  6
CONTINUOUS
370
50
 62
4
100
AcDbLine
 10
67.671089
 20
1.438043
 30
0.0
 11
67.420166
 21
1.472627
 31
0.0
  0
LINE
  5
73B
330
1F
100
AcDbEntity
  8
1
  6
CONTINUOUS
370
50
 62
4
100
AcDbLine
 10
84.002792
 20
1.438647
 30
0.0
 11
83.753647
 21
1.472886
 31
0.0
  0
LINE
  5
73C
330
1F
100
AcDbEntity
  8
1
  6
CONTINUOUS
370
50
 62
4
100
AcDbLine
 10
59.49703599999999
 20
1.43884
 30
0.0
 11
59.246712
 21
1.473215
 31
0.0
  0
LINE
  5
73D
330
1F
100
AcDbEntity
  8
1
  6
CONTINUOUS
370
50
 62
4
100
AcDbLine
 10
58.248112
 20
-1.473465
 30
0.0
 11
58.000298
 21
-1.439447
 31
0.0
  0
LINE
  5
73E
330
1F
100
AcDbEntity
  8
1
  6
CONTINUOUS
370
50
 62
4
100
AcDbLine
 10
75.83228299999999
 20
1.439107
 30
0.0
 11
75.58382399999999
 21
1.473176
 31
0.0
  0
LINE
  5
73F
330
1F
100
AcDbEntity
  8
1
  6
CONTINUOUS
370
50
 62
4
100
AcDbLine
 10
100.342484
 20
1.43834
 30
0.0
 11
100.092949
 21
1.472517
 31
0.0
  0
LINE
  5
740
330
1F
100
AcDbEntity
  8
1
  6
CONTINUOUS
370
50
 62
4
100
AcDbLine
 10
85.904556
 20
-1.472911
 30
0.0
 11
85.655937
 21
-1.438898
 31
0.0
  0
LINE
  5
741
330
1F
100
AcDbEntity
  8
1
  6
CONTINUOUS
370
50
 62
4
100
AcDbLine
 10
102.244766
 20
-1.472679
 30
0.0
 11
101.99572
 21
-1.438614
 31
0.0
  0
LINE
  5
742
330
1F
100
AcDbEntity
  8
1
  6
CONTINUOUS
370
50
 62
4
100
AcDbLine
 10
69.567055
 20
-1.473289
 30
0.0
 11
69.317482
 21
-1.439176
 31
0.0
  0
LINE
  5
743
330
1F
100
AcDbEntity
  8
1
  6
CONTINUOUS
370
50
 62
4
100
AcDbLine
 10
94.07511099999999
 20
-1.47278
 30
0.0
 11
93.825226
 21
-1.438737
 31
0.0
  0
LINE
  5
744
330
1F
100
AcDbEntity
  8
1
  6
CONTINUOUS
370
50
 62
4
100
AcDbLine
 10
82.75958299999999
 20
-1.473287
 30
0.0
 11
82.512276
 21
-1.439655
 31
0.0
  0
LINE
  5
745
330
1F
100
AcDbEntity
  8
1
  6
CONTINUOUS
370
50
 62
4
100
AcDbLine
 10
92.168976
 20
1.439142
 30
0.0
 11
91.919449
 21
1.47304
 31
0.0
  0
LINE
  5
746
330
1F
100
AcDbEntity
  8
1
  6
CONTINUOUS
370
50
 62
4
100
AcDbLine
 10
66.422241
 20
-1.47385
 30
0.0
 11
66.175377
 21
-1.440353
 31
0.0
  0
LINE
  5
747
330
1F
100
AcDbEntity
  8
1
  6
CONTINUOUS
370
50
 62
4
100
AcDbLine
 10
90.930939
 20
-1.473437
 30
0.0
 11
90.686295
 21
-1.440247
 31
0.0
  0
LINE
  5
748
330
1F
100
AcDbEntity
  8
1
  6
CONTINUOUS
370
50
 62
4
100
AcDbLine
 10
70.80064399999999
 20
1.440888
 30
0.0
 11
70.555511
 21
1.474042
 31
0.0
  0
LINE
  5
749
330
1F
100
AcDbEntity
  8
1
  6
CONTINUOUS
370
50
 62
4
100
AcDbLine
 10
95.307358
 20
1.440673
 30
0.0
 11
95.06326299999999
 21
1.473625
 31
0.0
  0
LINE
  5
74A
330
1F
100
AcDbEntity
  8
1
  6
CONTINUOUS
370
50
 62
4
100
AcDbLine
 10
99.10166199999999
 20
-1.473401
 30
0.0
 11
98.855209
 21
-1.440153
 31
0.0
  0
LINE
  5
74B
330
1F
100
AcDbEntity
  8
1
  6
CONTINUOUS
370
50
 62
4
100
AcDbLine
 10
78.972633
 20
1.440424
 30
0.0
 11
78.726288
 21
1.473653
 31
0.0
  0
LINE
  5
74C
330
1F
100
AcDbEntity
  8
1
  6
CONTINUOUS
370
50
 62
4
100
AcDbLine
 10
62.62978
 20
1.441384
 30
0.0
 11
62.385303
 21
1.474351
 31
0.0
  0
LINE
  5
74D
330
1F
100
AcDbEntity
  8
1
  6
CONTINUOUS
370
50
 62
4
100
AcDbLine
 10
74.592316
 20
-1.473677
 30
0.0
 11
74.345619
 21
-1.440413
 31
0.0
  0
LINE
  5
74E
330
1F
100
AcDbEntity
  8
1
  6
CONTINUOUS
370
50
 62
4
100
AcDbLine
 10
87.14032
 20
1.440579
 30
0.0
 11
86.89420299999999
 21
1.473714
 31
0.0
  0
LINE
  5
74F
330
1F
100
AcDbEntity
  8
1
  6
CONTINUOUS
370
50
 62
4
100
AcDbLine
 10
50.85490799999999
 20
-1.490533
 30
0.0
 11
50.770222
 21
-1.479481
 31
0.0
  0
LINE
  5
750
330
1F
100
AcDbEntity
  8
1
  6
CONTINUOUS
370
50
 62
4
100
AcDbLine
 10
103.408913
 20
1.450875
 30
0.0
 11
103.187378
 21
1.47807
 31
0.0
  0
LINE
  5
751
330
1F
100
AcDbEntity
  8
1
  6
CONTINUOUS
370
50
 62
4
100
AcDbLine
 10
50.746742
 20
-0.672098
 30
0.0
 11
50.679325
 21
-0.6638879999999999
 31
0.0
  0
LINE
  5
752
330
1F
100
AcDbEntity
  8
1
  6
CONTINUOUS
370
50
 62
4
100
AcDbLine
 10
61.571171
 20
-1.48921
 30
0.0
 11
61.24559
 21
-1.454345
 31
0.0
  0
LINE
  5
753
330
1F
100
AcDbEntity
  8
1
  6
CONTINUOUS
370
50
 62
4
100
AcDbLine
 10
55.999565
 20
0.9618899999999999
 30
0.0
 11
55.999424
 21
0.961904
 31
0.0
  0
LINE
  5
754
330
1F
100
AcDbEntity
  8
1
  6
CONTINUOUS
370
50
 62
4
100
AcDbLine
 10
55.999855
 20
0.961862
 30
0.0
 11
55.999565
 21
0.9618899999999999
 31
0.0
  0
LINE
  5
755
330
1F
100
AcDbEntity
  8
1
  6
CONTINUOUS
370
50
 62
4
100
AcDbLine
 10
55.999424
 20
0.961904
 30
0.0
 11
55.99927899999999
 21
0.9619179999999999
 31
0.0
  0
LINE
  5
756
330
1F
100
AcDbEntity
  8
1
  6
CONTINUOUS
370
50
 62
4
100
AcDbLine
 10
104.287018
 20
1.499895
 30
0.0
 11
104.286819
 21
1.499914
 31
0.0
  0
LINE
  5
757
330
1F
100
AcDbEntity
  8
1
  6
CONTINUOUS
370
50
 62
4
100
AcDbLine
 10
56.0
 20
0.961849
 30
0.0
 11
55.999855
 21
0.961862
 31
0.0
  0
LINE
  5
758
330
1F
100
AcDbEntity
  8
1
  6
CONTINUOUS
370
50
 62
4
100
AcDbLine
 10
55.99927899999999
 20
0.9619179999999999
 30
0.0
 11
55.999134
 21
0.961931
 31
0.0
  0
LINE
  5
759
330
1F
100
AcDbEntity
  8
1
  6
CONTINUOUS
370
50
 62
4
100
AcDbLine
 10
54.245506
 20
1.470027
 30
0.0
 11
53.994808
 21
1.4919
 31
0.0
  0
LINE
  5
75A
330
1F
100
AcDbEntity
  8
1
  6
CONTINUOUS
370
50
 62
4
100
AcDbLine
 10
67.420166
 20
1.472627
 30
0.0
 11
67.168076
 21
1.493697
 31
0.0
  0
LINE
  5
75B
330
1F
100
AcDbEntity
  8
1
  6
CONTINUOUS
370
50
 62
4
100
AcDbLine
 10
59.246712
 20
1.473215
 30
0.0
 11
58.997536
 21
1.493979
 31
0.0
  0
LINE
  5
75C
330
1F
100
AcDbEntity
  8
1
  6
CONTINUOUS
370
50
 62
4
100
AcDbLine
 10
77.983139
 20
-1.493591
 30
0.0
 11
77.732201
 21
-1.472742
 31
0.0
  0
LINE
  5
75D
330
1F
100
AcDbEntity
  8
1
  6
CONTINUOUS
370
50
 62
4
100
AcDbLine
 10
83.753647
 20
1.472886
 30
0.0
 11
83.504173
 21
1.493565
 31
0.0
  0
LINE
  5
75E
330
1F
100
AcDbEntity
  8
1
  6
CONTINUOUS
370
50
 62
4
100
AcDbLine
 10
58.496647
 20
-1.494049
 30
0.0
 11
58.248112
 21
-1.473465
 31
0.0
  0
LINE
  5
75F
330
1F
100
AcDbEntity
  8
1
  6
CONTINUOUS
370
50
 62
4
100
AcDbLine
 10
69.81536899999999
 20
-1.493847
 30
0.0
 11
69.567055
 21
-1.473289
 31
0.0
  0
LINE
  5
760
330
1F
100
AcDbEntity
  8
1
  6
CONTINUOUS
370
50
 62
4
100
AcDbLine
 10
102.492935
 20
-1.493189
 30
0.0
 11
102.244766
 21
-1.472679
 31
0.0
  0
LINE
  5
761
330
1F
100
AcDbEntity
  8
1
  6
CONTINUOUS
370
50
 62
4
100
AcDbLine
 10
94.323982
 20
-1.493344
 30
0.0
 11
94.07511099999999
 21
-1.47278
 31
0.0
  0
LINE
  5
762
330
1F
100
AcDbEntity
  8
1
  6
CONTINUOUS
370
50
 62
4
100
AcDbLine
 10
100.092949
 20
1.472517
 30
0.0
 11
99.84266699999999
 21
1.493173
 31
0.0
  0
LINE
  5
763
330
1F
100
AcDbEntity
  8
1
  6
CONTINUOUS
370
50
 62
4
100
AcDbLine
 10
91.919449
 20
1.47304
 30
0.0
 11
91.672028
 21
1.493448
 31
0.0
  0
LINE
  5
764
330
1F
100
AcDbEntity
  8
1
  6
CONTINUOUS
370
50
 62
4
100
AcDbLine
 10
83.00638599999999
 20
-1.493631
 30
0.0
 11
82.75958299999999
 21
-1.473287
 31
0.0
  0
LINE
  5
765
330
1F
100
AcDbEntity
  8
1
  6
CONTINUOUS
370
50
 62
4
100
AcDbLine
 10
75.58382399999999
 20
1.473176
 30
0.0
 11
75.334335
 21
1.493735
 31
0.0
  0
LINE
  5
766
330
1F
100
AcDbEntity
  8
1
  6
CONTINUOUS
370
50
 62
4
100
AcDbLine
 10
86.154411
 20
-1.493478
 30
0.0
 11
85.904556
 21
-1.472911
 31
0.0
  0
LINE
  5
767
330
1F
100
AcDbEntity
  8
1
  6
CONTINUOUS
370
50
 62
4
100
AcDbLine
 10
78.726288
 20
1.473653
 30
0.0
 11
78.480766
 21
1.493784
 31
0.0
  0
LINE
  5
768
330
1F
100
AcDbEntity
  8
1
  6
CONTINUOUS
370
50
 62
4
100
AcDbLine
 10
74.83869899999999
 20
-1.493845
 30
0.0
 11
74.592316
 21
-1.473677
 31
0.0
  0
LINE
  5
769
330
1F
100
AcDbEntity
  8
1
  6
CONTINUOUS
370
50
 62
4
100
AcDbLine
 10
91.17669699999999
 20
-1.493516
 30
0.0
 11
90.930939
 21
-1.473437
 31
0.0
  0
LINE
  5
76A
330
1F
100
AcDbEntity
  8
1
  6
CONTINUOUS
370
50
 62
4
100
AcDbLine
 10
70.555511
 20
1.474042
 30
0.0
 11
70.310715
 21
1.494019
 31
0.0
  0
LINE
  5
76B
330
1F
100
AcDbEntity
  8
1
  6
CONTINUOUS
370
50
 62
4
100
AcDbLine
 10
66.669724
 20
-1.494027
 30
0.0
 11
66.422241
 21
-1.47385
 31
0.0
  0
LINE
  5
76C
330
1F
100
AcDbEntity
  8
1
  6
CONTINUOUS
370
50
 62
4
100
AcDbLine
 10
53.48612199999999
 20
-1.493651
 30
0.0
 11
53.22487599999999
 21
-1.472383
 31
0.0
  0
LINE
  5
76D
330
1F
100
AcDbEntity
  8
1
  6
CONTINUOUS
370
50
 62
4
100
AcDbLine
 10
86.89420299999999
 20
1.473714
 30
0.0
 11
86.64808699999999
 21
1.493694
 31
0.0
  0
LINE
  5
76E
330
1F
100
AcDbEntity
  8
1
  6
CONTINUOUS
370
50
 62
4
100
AcDbLine
 10
95.06326299999999
 20
1.473625
 30
0.0
 11
94.81797
 21
1.493534
 31
0.0
  0
LINE
  5
76F
330
1F
100
AcDbEntity
  8
1
  6
CONTINUOUS
370
50
 62
4
100
AcDbLine
 10
51.213165
 20
1.49009
 30
0.0
 11
51.118561
 21
1.497768
 31
0.0
  0
LINE
  5
770
330
1F
100
AcDbEntity
  8
1
  6
CONTINUOUS
370
50
 62
4
100
AcDbLine
 10
99.348373
 20
-1.493417
 30
0.0
 11
99.10166199999999
 21
-1.473401
 31
0.0
  0
LINE
  5
771
330
1F
100
AcDbEntity
  8
1
  6
CONTINUOUS
370
50
 62
4
100
AcDbLine
 10
50.939499
 20
-1.497379
 30
0.0
 11
50.85490799999999
 21
-1.490533
 31
0.0
  0
LINE
  5
772
330
1F
100
AcDbEntity
  8
1
  6
CONTINUOUS
370
50
 62
4
100
AcDbLine
 10
62.385303
 20
1.474351
 30
0.0
 11
62.139606
 21
1.494234
 31
0.0
  0
LINE
  5
773
330
1F
100
AcDbEntity
  8
1
  6
CONTINUOUS
370
50
 62
4
100
AcDbLine
 10
50.679325
 20
-0.6638879999999999
 30
0.0
 11
50.614342
 21
-0.658998
 31
0.0
  0
LINE
  5
774
330
1F
100
AcDbEntity
  8
1
  6
CONTINUOUS
370
50
 62
4
100
AcDbLine
 10
103.187378
 20
1.47807
 30
0.0
 11
102.96553
 21
1.494517
 31
0.0
  0
LINE
  5
775
330
1F
100
AcDbEntity
  8
1
  6
CONTINUOUS
370
50
 62
4
100
AcDbLine
 10
104.30349
 20
-0.342461
 30
0.0
 11
104.286224
 21
-0.34129
 31
0.0
  0
LINE
  5
776
330
1F
100
AcDbEntity
  8
1
  6
CONTINUOUS
370
50
 62
4
100
AcDbLine
 10
61.894825
 20
-1.500878
 30
0.0
 11
61.571171
 21
-1.48921
 31
0.0
  0
LINE
  5
777
330
1F
100
AcDbEntity
  8
1
  6
CONTINUOUS
370
50
 62
4
100
AcDbLine
 10
53.994808
 20
1.4919
 30
0.0
 11
53.745602
 21
1.499955
 31
0.0
  0
LINE
  5
778
330
1F
100
AcDbEntity
  8
1
  6
CONTINUOUS
370
50
 62
4
100
AcDbLine
 10
51.023788
 20
-1.499976
 30
0.0
 11
50.939499
 21
-1.497379
 31
0.0
  0
LINE
  5
779
330
1F
100
AcDbEntity
  8
1
  6
CONTINUOUS
370
50
 62
4
100
AcDbLine
 10
67.168076
 20
1.493697
 30
0.0
 11
66.916382
 21
1.500774
 31
0.0
  0
LINE
  5
77A
330
1F
100
AcDbEntity
  8
1
  6
CONTINUOUS
370
50
 62
4
100
AcDbLine
 10
58.997536
 20
1.493979
 30
0.0
 11
58.7472
 21
1.500943
 31
0.0
  0
LINE
  5
77B
330
1F
100
AcDbEntity
  8
1
  6
CONTINUOUS
370
50
 62
4
100
AcDbLine
 10
99.84266699999999
 20
1.493173
 30
0.0
 11
99.593391
 21
1.500098
 31
0.0
  0
LINE
  5
77C
330
1F
100
AcDbEntity
  8
1
  6
CONTINUOUS
370
50
 62
4
100
AcDbLine
 10
50.614342
 20
-0.658998
 30
0.0
 11
50.55188
 21
-0.657266
 31
0.0
  0
LINE
  5
77D
330
1F
100
AcDbEntity
  8
1
  6
CONTINUOUS
370
50
 62
4
100
AcDbLine
 10
86.403442
 20
-1.500371
 30
0.0
 11
86.154411
 21
-1.493478
 31
0.0
  0
LINE
  5
77E
330
1F
100
AcDbEntity
  8
1
  6
CONTINUOUS
370
50
 62
4
100
AcDbLine
 10
78.234512
 20
-1.50054
 30
0.0
 11
77.983139
 21
-1.493591
 31
0.0
  0
LINE
  5
77F
330
1F
100
AcDbEntity
  8
1
  6
CONTINUOUS
370
50
 62
4
100
AcDbLine
 10
94.572105
 20
-1.500201
 30
0.0
 11
94.323982
 21
-1.493344
 31
0.0
  0
LINE
  5
780
330
1F
100
AcDbEntity
  8
1
  6
CONTINUOUS
370
50
 62
4
100
AcDbLine
 10
70.064285
 20
-1.500709
 30
0.0
 11
69.81536899999999
 21
-1.493847
 31
0.0
  0
LINE
  5
781
330
1F
100
AcDbEntity
  8
1
  6
CONTINUOUS
370
50
 62
4
100
AcDbLine
 10
91.672028
 20
1.493448
 30
0.0
 11
91.424622
 21
1.500267
 31
0.0
  0
LINE
  5
782
330
1F
100
AcDbEntity
  8
1
  6
CONTINUOUS
370
50
 62
4
100
AcDbLine
 10
75.334335
 20
1.493735
 30
0.0
 11
75.084839
 21
1.500605
 31
0.0
  0
LINE
  5
783
330
1F
100
AcDbEntity
  8
1
  6
CONTINUOUS
370
50
 62
4
100
AcDbLine
 10
58.7472
 20
-1.500943
 30
0.0
 11
58.496647
 21
-1.494049
 31
0.0
  0
LINE
  5
784
330
1F
100
AcDbEntity
  8
1
  6
CONTINUOUS
370
50
 62
4
100
AcDbLine
 10
83.504173
 20
1.493565
 30
0.0
 11
83.254303
 21
1.500436
 31
0.0
  0
LINE
  5
785
330
1F
100
AcDbEntity
  8
1
  6
CONTINUOUS
370
50
 62
4
100
AcDbLine
 10
75.084839
 20
-1.500605
 30
0.0
 11
74.83869899999999
 21
-1.493845
 31
0.0
  0
LINE
  5
786
330
1F
100
AcDbEntity
  8
1
  6
CONTINUOUS
370
50
 62
4
100
AcDbLine
 10
102.742149
 20
-1.500032
 30
0.0
 11
102.492935
 21
-1.493189
 31
0.0
  0
LINE
  5
787
330
1F
100
AcDbEntity
  8
1
  6
CONTINUOUS
370
50
 62
4
100
AcDbLine
 10
83.254303
 20
-1.500436
 30
0.0
 11
83.00638599999999
 21
-1.493631
 31
0.0
  0
LINE
  5
788
330
1F
100
AcDbEntity
  8
1
  6
CONTINUOUS
370
50
 62
4
100
AcDbLine
 10
78.480766
 20
1.493784
 30
0.0
 11
78.234512
 21
1.50054
 31
0.0
  0
LINE
  5
789
330
1F
100
AcDbEntity
  8
1
  6
CONTINUOUS
370
50
 62
4
100
AcDbLine
 10
66.916382
 20
-1.500774
 30
0.0
 11
66.669724
 21
-1.494027
 31
0.0
  0
LINE
  5
78A
330
1F
100
AcDbEntity
  8
1
  6
CONTINUOUS
370
50
 62
4
100
AcDbLine
 10
86.64808699999999
 20
1.493694
 30
0.0
 11
86.403442
 21
1.500371
 31
0.0
  0
LINE
  5
78B
330
1F
100
AcDbEntity
  8
1
  6
CONTINUOUS
370
50
 62
4
100
AcDbLine
 10
99.593391
 20
-1.500098
 30
0.0
 11
99.348373
 21
-1.493417
 31
0.0
  0
LINE
  5
78C
330
1F
100
AcDbEntity
  8
1
  6
CONTINUOUS
370
50
 62
4
100
AcDbLine
 10
91.424622
 20
-1.500267
 30
0.0
 11
91.17669699999999
 21
-1.493516
 31
0.0
  0
LINE
  5
78D
330
1F
100
AcDbEntity
  8
1
  6
CONTINUOUS
370
50
 62
4
100
AcDbLine
 10
70.310715
 20
1.494019
 30
0.0
 11
70.064285
 21
1.500709
 31
0.0
  0
LINE
  5
78E
330
1F
100
AcDbEntity
  8
1
  6
CONTINUOUS
370
50
 62
4
100
AcDbLine
 10
62.139606
 20
1.494234
 30
0.0
 11
61.894825
 21
1.500878
 31
0.0
  0
LINE
  5
78F
330
1F
100
AcDbEntity
  8
1
  6
CONTINUOUS
370
50
 62
4
100
AcDbLine
 10
94.81797
 20
1.493534
 30
0.0
 11
94.572105
 21
1.500201
 31
0.0
  0
LINE
  5
790
330
1F
100
AcDbEntity
  8
1
  6
CONTINUOUS
370
50
 62
4
100
AcDbLine
 10
102.96553
 20
1.494517
 30
0.0
 11
102.742149
 21
1.500032
 31
0.0
  0
LINE
  5
791
330
1F
100
AcDbEntity
  8
1
  6
CONTINUOUS
370
50
 62
4
100
AcDbLine
 10
53.745602
 20
-1.499955
 30
0.0
 11
53.48612199999999
 21
-1.493651
 31
0.0
  0
LINE
  5
792
330
1F
100
AcDbEntity
  8
1
  6
CONTINUOUS
370
50
 62
4
100
AcDbLine
 10
51.118561
 20
1.497768
 30
0.0
 11
51.023785
 21
1.499976
 31
0.0
  0
LINE
  5
793
330
1F
100
AcDbEntity
  8
1
  6
CONTINUOUS
370
50
 62
4
100
AcDbLine
 10
99.593391
 20
1.500098
 30
0.0
 11
94.572105
 21
1.500201
 31
0.0
  0
LINE
  5
794
330
1F
100
AcDbEntity
  8
1
  6
CONTINUOUS
370
50
 62
4
100
AcDbLine
 10
66.916382
 20
1.500774
 30
0.0
 11
61.894825
 21
1.500878
 31
0.0
  0
LINE
  5
795
330
1F
100
AcDbEntity
  8
1
  6
CONTINUOUS
370
50
 62
4
100
AcDbLine
 10
83.254303
 20
1.500436
 30
0.0
 11
78.234512
 21
1.50054
 31
0.0
  0
LINE
  5
796
330
1F
100
AcDbEntity
  8
1
  6
CONTINUOUS
370
50
 62
4
100
AcDbLine
 10
58.7472
 20
1.500943
 30
0.0
 11
56.0
 21
1.501
 31
0.0
  0
LINE
  5
797
330
1F
100
AcDbEntity
  8
1
  6
CONTINUOUS
370
50
 62
4
100
AcDbLine
 10
75.084839
 20
1.500605
 30
0.0
 11
70.064285
 21
1.500709
 31
0.0
  0
LINE
  5
798
330
1F
100
AcDbEntity
  8
1
  6
CONTINUOUS
370
50
 62
4
100
AcDbLine
 10
91.424622
 20
1.500267
 30
0.0
 11
86.403442
 21
1.500371
 31
0.0
  0
LINE
  5
799
330
1F
100
AcDbEntity
  8
1
  6
CONTINUOUS
370
50
 62
4
100
AcDbLine
 10
104.286819
 20
1.5
 30
0.0
 11
102.742149
 21
1.500032
 31
0.0
  0
LINE
  5
79A
330
1F
100
AcDbEntity
  8
1
  6
CONTINUOUS
370
50
 62
4
100
AcDbLine
 10
53.725143
 20
-1.5
 30
0.0
 11
55.999134
 21
-1.5
 31
0.0
  0
LINE
  5
79B
330
1F
100
AcDbEntity
  8
1
  6
CONTINUOUS
370
50
 62
4
100
AcDbLine
 10
50.0
 20
-1.5
 30
0.0
 11
51.032875
 21
-1.5
 31
0.0
  0
LINE
  5
79C
330
1F
100
AcDbEntity
  8
1
  6
CONTINUOUS
370
50
 62
4
100
AcDbLine
 10
53.725143
 20
1.5
 30
0.0
 11
55.999134
 21
1.5
 31
0.0
  0
LINE
  5
79D
330
1F
100
AcDbEntity
  8
1
  6
CONTINUOUS
370
50
 62
4
100
AcDbLine
 10
50.0
 20
1.5
 30
0.0
 11
51.032875
 21
1.5
 31
0.0
  0
LINE
  5
79E
330
1F
100
AcDbEntity
  8
1
  6
CONTINUOUS
370
50
 62
4
100
AcDbLine
 10
102.742149
 20
-1.500032
 30
0.0
 11
104.286819
 21
-1.5
 31
0.0
  0
LINE
  5
79F
330
1F
100
AcDbEntity
  8
1
  6
CONTINUOUS
370
50
 62
4
100
AcDbLine
 10
56.0
 20
-1.501
 30
0.0
 11
58.7472
 21
-1.500943
 31
0.0
  0
LINE
  5
7A0
330
1F
100
AcDbEntity
  8
1
  6
CONTINUOUS
370
50
 62
4
100
AcDbLine
 10
70.064285
 20
-1.500709
 30
0.0
 11
75.084839
 21
-1.500605
 31
0.0
  0
LINE
  5
7A1
330
1F
100
AcDbEntity
  8
1
  6
CONTINUOUS
370
50
 62
4
100
AcDbLine
 10
86.403442
 20
-1.500371
 30
0.0
 11
91.424622
 21
-1.500267
 31
0.0
  0
LINE
  5
7A2
330
1F
100
AcDbEntity
  8
1
  6
CONTINUOUS
370
50
 62
4
100
AcDbLine
 10
61.894825
 20
-1.500878
 30
0.0
 11
66.916382
 21
-1.500774
 31
0.0
  0
LINE
  5
7A3
330
1F
100
AcDbEntity
  8
1
  6
CONTINUOUS
370
50
 62
4
100
AcDbLine
 10
78.234512
 20
-1.50054
 30
0.0
 11
83.254303
 21
-1.500436
 31
0.0
  0
LINE
  5
7A4
330
1F
100
AcDbEntity
  8
1
  6
CONTINUOUS
370
50
 62
4
100
AcDbLine
 10
94.572105
 20
-1.500201
 30
0.0
 11
99.593391
 21
-1.500098
 31
0.0
  0
LINE
  5
7A5
330
1F
100
AcDbEntity
  8
1
  6
CONTINUOUS
370
50
 62
4
100
AcDbLine
 10
104.879143
 20
0.043731
 30
0.0
 11
104.883392
 21
0.043734
 31
0.0
  0
LINE
  5
7A6
330
1F
100
AcDbEntity
  8
1
  6
CONTINUOUS
370
50
 62
4
100
AcDbLine
 10
50.492043
 20
-0.658536
 30
0.0
 11
50.55188
 21
-0.657266
 31
0.0
  0
LINE
  5
7A7
330
1F
100
AcDbEntity
  8
1
  6
CONTINUOUS
370
50
 62
4
100
AcDbLine
 10
51.023788
 20
-1.499976
 30
0.0
 11
51.118561
 21
-1.497768
 31
0.0
  0
LINE
  5
7A8
330
1F
100
AcDbEntity
  8
1
  6
CONTINUOUS
370
50
 62
4
100
AcDbLine
 10
53.481133
 20
1.493384
 30
0.0
 11
53.745602
 21
1.499955
 31
0.0
  0
LINE
  5
7A9
330
1F
100
AcDbEntity
  8
1
  6
CONTINUOUS
370
50
 62
4
100
AcDbLine
 10
77.971367
 20
1.492925
 30
0.0
 11
78.234512
 21
1.50054
 31
0.0
  0
LINE
  5
7AA
330
1F
100
AcDbEntity
  8
1
  6
CONTINUOUS
370
50
 62
4
100
AcDbLine
 10
58.7472
 20
-1.500943
 30
0.0
 11
59.008354
 21
-1.493365
 31
0.0
  0
LINE
  5
7AB
330
1F
100
AcDbEntity
  8
1
  6
CONTINUOUS
370
50
 62
4
100
AcDbLine
 10
86.14222699999999
 20
1.492788
 30
0.0
 11
86.403442
 21
1.500371
 31
0.0
  0
LINE
  5
7AC
330
1F
100
AcDbEntity
  8
1
  6
CONTINUOUS
370
50
 62
4
100
AcDbLine
 10
69.802071
 20
1.493093
 30
0.0
 11
70.064285
 21
1.500709
 31
0.0
  0
LINE
  5
7AD
330
1F
100
AcDbEntity
  8
1
  6
CONTINUOUS
370
50
 62
4
100
AcDbLine
 10
61.63380799999999
 20
1.493285
 30
0.0
 11
61.894825
 21
1.500878
 31
0.0
  0
LINE
  5
7AE
330
1F
100
AcDbEntity
  8
1
  6
CONTINUOUS
370
50
 62
4
100
AcDbLine
 10
75.084839
 20
-1.500605
 30
0.0
 11
75.348213
 21
-1.492943
 31
0.0
  0
LINE
  5
7AF
330
1F
100
AcDbEntity
  8
1
  6
CONTINUOUS
370
50
 62
4
100
AcDbLine
 10
94.310486
 20
1.492583
 30
0.0
 11
94.572105
 21
1.500201
 31
0.0
  0
LINE
  5
7B0
330
1F
100
AcDbEntity
  8
1
  6
CONTINUOUS
370
50
 62
4
100
AcDbLine
 10
83.254303
 20
-1.500436
 30
0.0
 11
83.51883699999999
 21
-1.492732
 31
0.0
  0
LINE
  5
7B1
330
1F
100
AcDbEntity
  8
1
  6
CONTINUOUS
370
50
 62
4
100
AcDbLine
 10
99.593391
 20
-1.500098
 30
0.0
 11
99.85508
 21
-1.492464
 31
0.0
  0
LINE
  5
7B2
330
1F
100
AcDbEntity
  8
1
  6
CONTINUOUS
370
50
 62
4
100
AcDbLine
 10
91.424622
 20
-1.500267
 30
0.0
 11
91.68680599999999
 21
-1.492604
 31
0.0
  0
LINE
  5
7B3
330
1F
100
AcDbEntity
  8
1
  6
CONTINUOUS
370
50
 62
4
100
AcDbLine
 10
102.477028
 20
1.492283
 30
0.0
 11
102.742149
 21
1.500032
 31
0.0
  0
LINE
  5
7B4
330
1F
100
AcDbEntity
  8
1
  6
CONTINUOUS
370
50
 62
4
100
AcDbLine
 10
66.916382
 20
-1.500774
 30
0.0
 11
67.17823
 21
-1.493115
 31
0.0
  0
LINE
  5
7B5
330
1F
100
AcDbEntity
  8
1
  6
CONTINUOUS
370
50
 62
4
100
AcDbLine
 10
104.30349
 20
-0.342461
 30
0.0
 11
104.320908
 21
-0.341921
 31
0.0
  0
LINE
  5
7B6
330
1F
100
AcDbEntity
  8
1
  6
CONTINUOUS
370
50
 62
4
100
AcDbLine
 10
50.434914
 20
-0.662648
 30
0.0
 11
50.492043
 21
-0.658536
 31
0.0
  0
LINE
  5
7B7
330
1F
100
AcDbEntity
  8
1
  6
CONTINUOUS
370
50
 62
4
100
AcDbLine
 10
51.118561
 20
-1.497768
 30
0.0
 11
51.213165
 21
-1.49009
 31
0.0
  0
LINE
  5
7B8
330
1F
100
AcDbEntity
  8
1
  6
CONTINUOUS
370
50
 62
4
100
AcDbLine
 10
53.21487
 20
1.471269
 30
0.0
 11
53.481133
 21
1.493384
 31
0.0
  0
LINE
  5
7B9
330
1F
100
AcDbEntity
  8
1
  6
CONTINUOUS
370
50
 62
4
100
AcDbLine
 10
85.879128
 20
1.470055
 30
0.0
 11
86.14222699999999
 21
1.492788
 31
0.0
  0
LINE
  5
7BA
330
1F
100
AcDbEntity
  8
1
  6
CONTINUOUS
370
50
 62
4
100
AcDbLine
 10
99.85508
 20
-1.492464
 30
0.0
 11
100.118179
 21
-1.469673
 31
0.0
  0
LINE
  5
7BB
330
1F
100
AcDbEntity
  8
1
  6
CONTINUOUS
370
50
 62
4
100
AcDbLine
 10
61.371899
 20
1.470559
 30
0.0
 11
61.63380799999999
 21
1.493285
 31
0.0
  0
LINE
  5
7BC
330
1F
100
AcDbEntity
  8
1
  6
CONTINUOUS
370
50
 62
4
100
AcDbLine
 10
67.17823
 20
-1.493115
 30
0.0
 11
67.441315
 21
-1.470254
 31
0.0
  0
LINE
  5
7BD
330
1F
100
AcDbEntity
  8
1
  6
CONTINUOUS
370
50
 62
4
100
AcDbLine
 10
59.008354
 20
-1.493365
 30
0.0
 11
59.26862
 21
-1.470738
 31
0.0
  0
LINE
  5
7BE
330
1F
100
AcDbEntity
  8
1
  6
CONTINUOUS
370
50
 62
4
100
AcDbLine
 10
75.348213
 20
-1.492943
 30
0.0
 11
75.61147299999999
 21
-1.470055
 31
0.0
  0
LINE
  5
7BF
330
1F
100
AcDbEntity
  8
1
  6
CONTINUOUS
370
50
 62
4
100
AcDbLine
 10
77.70876299999999
 20
1.470082
 30
0.0
 11
77.971367
 21
1.492925
 31
0.0
  0
LINE
  5
7C0
330
1F
100
AcDbEntity
  8
1
  6
CONTINUOUS
370
50
 62
4
100
AcDbLine
 10
94.04832499999999
 20
1.469757
 30
0.0
 11
94.310486
 21
1.492583
 31
0.0
  0
LINE
  5
7C1
330
1F
100
AcDbEntity
  8
1
  6
CONTINUOUS
370
50
 62
4
100
AcDbLine
 10
69.54053499999999
 20
1.470294
 30
0.0
 11
69.802071
 21
1.493093
 31
0.0
  0
LINE
  5
7C2
330
1F
100
AcDbEntity
  8
1
  6
CONTINUOUS
370
50
 62
4
100
AcDbLine
 10
91.68680599999999
 20
-1.492604
 30
0.0
 11
91.949547
 21
-1.469663
 31
0.0
  0
LINE
  5
7C3
330
1F
100
AcDbEntity
  8
1
  6
CONTINUOUS
370
50
 62
4
100
AcDbLine
 10
83.51883699999999
 20
-1.492732
 30
0.0
 11
83.781296
 21
-1.469755
 31
0.0
  0
LINE
  5
7C4
330
1F
100
AcDbEntity
  8
1
  6
CONTINUOUS
370
50
 62
4
100
AcDbLine
 10
102.213089
 20
1.469088
 30
0.0
 11
102.477028
 21
1.492283
 31
0.0
  0
LINE
  5
7C5
330
1F
100
AcDbEntity
  8
1
  6
CONTINUOUS
370
50
 62
4
100
AcDbLine
 10
50.375736
 20
-0.670196
 30
0.0
 11
50.434914
 21
-0.662648
 31
0.0
  0
LINE
  5
7C6
330
1F
100
AcDbEntity
  8
1
  6
CONTINUOUS
370
50
 62
4
100
AcDbLine
 10
104.320908
 20
-0.341921
 30
0.0
 11
104.338463
 21
-0.339633
 31
0.0
  0
LINE
  5
7C7
330
1F
100
AcDbEntity
  8
1
  6
CONTINUOUS
370
50
 62
4
100
AcDbLine
 10
51.213165
 20
-1.49009
 30
0.0
 11
51.305614
 21
-1.477333
 31
0.0
  0
LINE
  5
7C8
330
1F
100
AcDbEntity
  8
1
  6
CONTINUOUS
370
50
 62
4
100
AcDbLine
 10
52.948975
 20
1.433672
 30
0.0
 11
53.21487
 21
1.471269
 31
0.0
  0
LINE
  5
7C9
330
1F
100
AcDbEntity
  8
1
  6
CONTINUOUS
370
50
 62
4
100
AcDbLine
 10
59.26862
 20
-1.470738
 30
0.0
 11
59.530762
 21
-1.43321
 31
0.0
  0
LINE
  5
7CA
330
1F
100
AcDbEntity
  8
1
  6
CONTINUOUS
370
50
 62
4
100
AcDbLine
 10
61.108841
 20
1.432879
 30
0.0
 11
61.371899
 21
1.470559
 31
0.0
  0
LINE
  5
7CB
330
1F
100
AcDbEntity
  8
1
  6
CONTINUOUS
370
50
 62
4
100
AcDbLine
 10
93.785202
 20
1.432044
 30
0.0
 11
94.04832499999999
 21
1.469757
 31
0.0
  0
LINE
  5
7CC
330
1F
100
AcDbEntity
  8
1
  6
CONTINUOUS
370
50
 62
4
100
AcDbLine
 10
91.949547
 20
-1.469663
 30
0.0
 11
92.213173
 21
-1.431774
 31
0.0
  0
LINE
  5
7CD
330
1F
100
AcDbEntity
  8
1
  6
CONTINUOUS
370
50
 62
4
100
AcDbLine
 10
69.277573
 20
1.432496
 30
0.0
 11
69.54053499999999
 21
1.470294
 31
0.0
  0
LINE
  5
7CE
330
1F
100
AcDbEntity
  8
1
  6
CONTINUOUS
370
50
 62
4
100
AcDbLine
 10
100.118179
 20
-1.469673
 30
0.0
 11
100.38002
 21
-1.432022
 31
0.0
  0
LINE
  5
7CF
330
1F
100
AcDbEntity
  8
1
  6
CONTINUOUS
370
50
 62
4
100
AcDbLine
 10
67.441315
 20
-1.470254
 30
0.0
 11
67.704124
 21
-1.432461
 31
0.0
  0
LINE
  5
7D0
330
1F
100
AcDbEntity
  8
1
  6
CONTINUOUS
370
50
 62
4
100
AcDbLine
 10
85.61593599999999
 20
1.432166
 30
0.0
 11
85.879128
 21
1.470055
 31
0.0
  0
LINE
  5
7D1
330
1F
100
AcDbEntity
  8
1
  6
CONTINUOUS
370
50
 62
4
100
AcDbLine
 10
77.446823
 20
1.432248
 30
0.0
 11
77.70876299999999
 21
1.470082
 31
0.0
  0
LINE
  5
7D2
330
1F
100
AcDbEntity
  8
1
  6
CONTINUOUS
370
50
 62
4
100
AcDbLine
 10
75.61147299999999
 20
-1.470055
 30
0.0
 11
75.873001
 21
-1.43225
 31
0.0
  0
LINE
  5
7D3
330
1F
100
AcDbEntity
  8
1
  6
CONTINUOUS
370
50
 62
4
100
AcDbLine
 10
83.781296
 20
-1.469755
 30
0.0
 11
84.043556
 21
-1.431795
 31
0.0
  0
LINE
  5
7D4
330
1F
100
AcDbEntity
  8
1
  6
CONTINUOUS
370
50
 62
4
100
AcDbLine
 10
101.949409
 20
1.430822
 30
0.0
 11
102.213089
 21
1.469088
 31
0.0
  0
LINE
  5
7D5
330
1F
100
AcDbEntity
  8
1
  6
CONTINUOUS
370
50
 62
4
100
AcDbLine
 10
103.797089
 20
0.662673
 30
0.0
 11
103.836555
 21
0.669453
 31
0.0
  0
LINE
  5
7D6
330
1F
100
AcDbEntity
  8
1
  6
CONTINUOUS
370
50
 62
4
100
AcDbLine
 10
50.319817
 20
-0.680774
 30
0.0
 11
50.375736
 21
-0.670196
 31
0.0
  0
LINE
  5
7D7
330
1F
100
AcDbEntity
  8
1
  6
CONTINUOUS
370
50
 62
4
100
AcDbLine
 10
103.836555
 20
0.669453
 30
0.0
 11
103.875114
 21
0.676782
 31
0.0
  0
LINE
  5
7D8
330
1F
100
AcDbEntity
  8
1
  6
CONTINUOUS
370
50
 62
4
100
AcDbLine
 10
51.305614
 20
-1.477333
 30
0.0
 11
51.395519
 21
-1.460119
 31
0.0
  0
LINE
  5
7D9
330
1F
100
AcDbEntity
  8
1
  6
CONTINUOUS
370
50
 62
4
100
AcDbLine
 10
52.683189
 20
1.381173
 30
0.0
 11
52.948975
 21
1.433672
 31
0.0
  0
LINE
  5
7DA
330
1F
100
AcDbEntity
  8
1
  6
CONTINUOUS
370
50
 62
4
100
AcDbLine
 10
59.530762
 20
-1.43321
 30
0.0
 11
59.794365
 21
-1.38087
 31
0.0
  0
LINE
  5
7DB
330
1F
100
AcDbEntity
  8
1
  6
CONTINUOUS
370
50
 62
4
100
AcDbLine
 10
69.014282
 20
1.380096
 30
0.0
 11
69.277573
 21
1.432496
 31
0.0
  0
LINE
  5
7DC
330
1F
100
AcDbEntity
  8
1
  6
CONTINUOUS
370
50
 62
4
100
AcDbLine
 10
84.043556
 20
-1.431795
 30
0.0
 11
84.30693099999999
 21
-1.379357
 31
0.0
  0
LINE
  5
7DD
330
1F
100
AcDbEntity
  8
1
  6
CONTINUOUS
370
50
 62
4
100
AcDbLine
 10
77.18386799999999
 20
1.379875
 30
0.0
 11
77.446823
 21
1.432248
 31
0.0
  0
LINE
  5
7DE
330
1F
100
AcDbEntity
  8
1
  6
CONTINUOUS
370
50
 62
4
100
AcDbLine
 10
93.52359799999999
 20
1.379814
 30
0.0
 11
93.785202
 21
1.432044
 31
0.0
  0
LINE
  5
7DF
330
1F
100
AcDbEntity
  8
1
  6
CONTINUOUS
370
50
 62
4
100
AcDbLine
 10
101.687332
 20
1.378483
 30
0.0
 11
101.949409
 21
1.430822
 31
0.0
  0
LINE
  5
7E0
330
1F
100
AcDbEntity
  8
1
  6
CONTINUOUS
370
50
 62
4
100
AcDbLine
 10
60.84697
 20
1.38056
 30
0.0
 11
61.108841
 21
1.432879
 31
0.0
  0
LINE
  5
7E1
330
1F
100
AcDbEntity
  8
1
  6
CONTINUOUS
370
50
 62
4
100
AcDbLine
 10
92.213173
 20
-1.431774
 30
0.0
 11
92.47533399999999
 21
-1.379374
 31
0.0
  0
LINE
  5
7E2
330
1F
100
AcDbEntity
  8
1
  6
CONTINUOUS
370
50
 62
4
100
AcDbLine
 10
75.873001
 20
-1.43225
 30
0.0
 11
76.134315
 21
-1.380011
 31
0.0
  0
LINE
  5
7E3
330
1F
100
AcDbEntity
  8
1
  6
CONTINUOUS
370
50
 62
4
100
AcDbLine
 10
100.38002
 20
-1.432022
 30
0.0
 11
100.641899
 21
-1.379649
 31
0.0
  0
LINE
  5
7E4
330
1F
100
AcDbEntity
  8
1
  6
CONTINUOUS
370
50
 62
4
100
AcDbLine
 10
85.353546
 20
1.379672
 30
0.0
 11
85.61593599999999
 21
1.432166
 31
0.0
  0
LINE
  5
7E5
330
1F
100
AcDbEntity
  8
1
  6
CONTINUOUS
370
50
 62
4
100
AcDbLine
 10
67.704124
 20
-1.432461
 30
0.0
 11
67.965385
 21
-1.380146
 31
0.0
  0
LINE
  5
7E6
330
1F
100
AcDbEntity
  8
1
  6
CONTINUOUS
370
50
 62
4
100
AcDbLine
 10
103.875114
 20
0.676782
 30
0.0
 11
103.912697
 21
0.6846829999999999
 31
0.0
  0
LINE
  5
7E7
330
1F
100
AcDbEntity
  8
1
  6
CONTINUOUS
370
50
 62
4
100
AcDbLine
 10
104.338463
 20
-0.339633
 30
0.0
 11
104.356148
 21
-0.335562
 31
0.0
  0
LINE
  5
7E8
330
1F
100
AcDbEntity
  8
1
  6
CONTINUOUS
370
50
 62
4
100
AcDbLine
 10
103.912697
 20
0.6846829999999999
 30
0.0
 11
103.949242
 21
0.693178
 31
0.0
  0
LINE
  5
7E9
330
1F
100
AcDbEntity
  8
1
  6
CONTINUOUS
370
50
 62
4
100
AcDbLine
 10
51.395519
 20
-1.460119
 30
0.0
 11
51.48358899999999
 21
-1.439006
 31
0.0
  0
LINE
  5
7EA
330
1F
100
AcDbEntity
  8
1
  6
CONTINUOUS
370
50
 62
4
100
AcDbLine
 10
51.657085
 20
-1.373685
 30
0.0
 11
51.73931899999999
 21
-1.353614
 31
0.0
  0
LINE
  5
7EB
330
1F
100
AcDbEntity
  8
1
  6
CONTINUOUS
370
50
 62
4
100
AcDbLine
 10
52.415955
 20
1.314416
 30
0.0
 11
52.683189
 21
1.381173
 31
0.0
  0
LINE
  5
7EC
330
1F
100
AcDbEntity
  8
1
  6
CONTINUOUS
370
50
 62
4
100
AcDbLine
 10
76.134315
 20
-1.380011
 30
0.0
 11
76.397453
 21
-1.313738
 31
0.0
  0
LINE
  5
7ED
330
1F
100
AcDbEntity
  8
1
  6
CONTINUOUS
370
50
 62
4
100
AcDbLine
 10
100.641899
 20
-1.379649
 30
0.0
 11
100.905113
 21
-1.313229
 31
0.0
  0
LINE
  5
7EE
330
1F
100
AcDbEntity
  8
1
  6
CONTINUOUS
370
50
 62
4
100
AcDbLine
 10
85.090553
 20
1.313252
 30
0.0
 11
85.353546
 21
1.379672
 31
0.0
  0
LINE
  5
7EF
330
1F
100
AcDbEntity
  8
1
  6
CONTINUOUS
370
50
 62
4
100
AcDbLine
 10
76.921082
 20
1.313485
 30
0.0
 11
77.18386799999999
 21
1.379875
 31
0.0
  0
LINE
  5
7F0
330
1F
100
AcDbEntity
  8
1
  6
CONTINUOUS
370
50
 62
4
100
AcDbLine
 10
60.584244
 20
1.314034
 30
0.0
 11
60.84697
 21
1.38056
 31
0.0
  0
LINE
  5
7F1
330
1F
100
AcDbEntity
  8
1
  6
CONTINUOUS
370
50
 62
4
100
AcDbLine
 10
67.965385
 20
-1.380146
 30
0.0
 11
68.227379
 21
-1.313777
 31
0.0
  0
LINE
  5
7F2
330
1F
100
AcDbEntity
  8
1
  6
CONTINUOUS
370
50
 62
4
100
AcDbLine
 10
93.261421
 20
1.313373
 30
0.0
 11
93.52359799999999
 21
1.379814
 31
0.0
  0
LINE
  5
7F3
330
1F
100
AcDbEntity
  8
1
  6
CONTINUOUS
370
50
 62
4
100
AcDbLine
 10
84.30693099999999
 20
-1.379357
 30
0.0
 11
84.567909
 21
-1.313184
 31
0.0
  0
LINE
  5
7F4
330
1F
100
AcDbEntity
  8
1
  6
CONTINUOUS
370
50
 62
4
100
AcDbLine
 10
59.794365
 20
-1.38087
 30
0.0
 11
60.057396
 21
-1.314167
 31
0.0
  0
LINE
  5
7F5
330
1F
100
AcDbEntity
  8
1
  6
CONTINUOUS
370
50
 62
4
100
AcDbLine
 10
68.75254799999999
 20
1.313686
 30
0.0
 11
69.014282
 21
1.380096
 31
0.0
  0
LINE
  5
7F6
330
1F
100
AcDbEntity
  8
1
  6
CONTINUOUS
370
50
 62
4
100
AcDbLine
 10
92.47533399999999
 20
-1.379374
 30
0.0
 11
92.736145
 21
-1.313124
 31
0.0
  0
LINE
  5
7F7
330
1F
100
AcDbEntity
  8
1
  6
CONTINUOUS
370
50
 62
4
100
AcDbLine
 10
101.428154
 20
1.312643
 30
0.0
 11
101.687332
 21
1.378483
 31
0.0
  0
LINE
  5
7F8
330
1F
100
AcDbEntity
  8
1
  6
CONTINUOUS
370
50
 62
4
100
AcDbLine
 10
50.267334
 20
-0.694206
 30
0.0
 11
50.319817
 21
-0.680774
 31
0.0
  0
LINE
  5
7F9
330
1F
100
AcDbEntity
  8
1
  6
CONTINUOUS
370
50
 62
4
100
AcDbLine
 10
103.949242
 20
0.693178
 30
0.0
 11
103.984688
 21
0.702288
 31
0.0
  0
LINE
  5
7FA
330
1F
100
AcDbEntity
  8
1
  6
CONTINUOUS
370
50
 62
4
100
AcDbLine
 10
51.73931899999999
 20
-1.353614
 30
0.0
 11
51.821396
 21
-1.332199
 31
0.0
  0
LINE
  5
7FB
330
1F
100
AcDbEntity
  8
1
  6
CONTINUOUS
370
50
 62
4
100
AcDbLine
 10
51.821396
 20
-1.332199
 30
0.0
 11
51.903397
 21
-1.309462
 31
0.0
  0
LINE
  5
7FC
330
1F
100
AcDbEntity
  8
1
  6
CONTINUOUS
370
50
 62
4
100
AcDbLine
 10
51.48358899999999
 20
-1.439006
 30
0.0
 11
51.570541
 21
-1.414551
 31
0.0
  0
LINE
  5
7FD
330
1F
100
AcDbEntity
  8
1
  6
CONTINUOUS
370
50
 62
4
100
AcDbLine
 10
103.984688
 20
0.702288
 30
0.0
 11
104.018974
 21
0.712034
 31
0.0
  0
LINE
  5
7FE
330
1F
100
AcDbEntity
  8
1
  6
CONTINUOUS
370
50
 62
4
100
AcDbLine
 10
51.903397
 20
-1.309462
 30
0.0
 11
51.985397
 21
-1.285429
 31
0.0
  0
LINE
  5
7FF
330
1F
100
AcDbEntity
  8
1
  6
CONTINUOUS
370
50
 62
4
100
AcDbLine
 10
68.227379
 20
-1.313777
 30
0.0
 11
68.490799
 21
-1.234017
 31
0.0
  0
LINE
  5
800
330
1F
100
AcDbEntity
  8
1
  6
CONTINUOUS
370
50
 62
4
100
AcDbLine
 10
60.320507
 20
1.234162
 30
0.0
 11
60.584244
 21
1.314034
 31
0.0
  0
LINE
  5
801
330
1F
100
AcDbEntity
  8
1
  6
CONTINUOUS
370
50
 62
4
100
AcDbLine
 10
92.998245
 20
1.233622
 30
0.0
 11
93.261421
 21
1.313373
 31
0.0
  0
LINE
  5
802
330
1F
100
AcDbEntity
  8
1
  6
CONTINUOUS
370
50
 62
4
100
AcDbLine
 10
100.905113
 20
-1.313229
 30
0.0
 11
101.168236
 21
-1.233449
 31
0.0
  0
LINE
  5
803
330
1F
100
AcDbEntity
  8
1
  6
CONTINUOUS
370
50
 62
4
100
AcDbLine
 10
84.828453
 20
1.233715
 30
0.0
 11
85.090553
 21
1.313252
 31
0.0
  0
LINE
  5
804
330
1F
100
AcDbEntity
  8
1
  6
CONTINUOUS
370
50
 62
4
100
AcDbLine
 10
92.736145
 20
-1.313124
 30
0.0
 11
92.998184
 21
-1.233603
 31
0.0
  0
LINE
  5
805
330
1F
100
AcDbEntity
  8
1
  6
CONTINUOUS
370
50
 62
4
100
AcDbLine
 10
52.149727
 20
1.233561
 30
0.0
 11
52.415955
 21
1.314416
 31
0.0
  0
LINE
  5
806
330
1F
100
AcDbEntity
  8
1
  6
CONTINUOUS
370
50
 62
4
100
AcDbLine
 10
60.057396
 20
-1.314167
 30
0.0
 11
60.320511
 21
-1.234162
 31
0.0
  0
LINE
  5
807
330
1F
100
AcDbEntity
  8
1
  6
CONTINUOUS
370
50
 62
4
100
AcDbLine
 10
68.49086
 20
1.234034
 30
0.0
 11
68.75254799999999
 21
1.313686
 31
0.0
  0
LINE
  5
808
330
1F
100
AcDbEntity
  8
1
  6
CONTINUOUS
370
50
 62
4
100
AcDbLine
 10
76.397453
 20
-1.313738
 30
0.0
 11
76.659866
 21
-1.233859
 31
0.0
  0
LINE
  5
809
330
1F
100
AcDbEntity
  8
1
  6
CONTINUOUS
370
50
 62
4
100
AcDbLine
 10
101.168243
 20
1.233448
 30
0.0
 11
101.428154
 21
1.312643
 31
0.0
  0
LINE
  5
80A
330
1F
100
AcDbEntity
  8
1
  6
CONTINUOUS
370
50
 62
4
100
AcDbLine
 10
76.659897
 20
1.233872
 30
0.0
 11
76.921082
 21
1.313485
 31
0.0
  0
LINE
  5
80B
330
1F
100
AcDbEntity
  8
1
  6
CONTINUOUS
370
50
 62
4
100
AcDbLine
 10
84.567909
 20
-1.313184
 30
0.0
 11
84.828445
 21
-1.233713
 31
0.0
  0
LINE
  5
80C
330
1F
100
AcDbEntity
  8
1
  6
CONTINUOUS
370
50
 62
4
100
AcDbLine
 10
51.985397
 20
-1.285429
 30
0.0
 11
52.06747799999999
 21
-1.26012
 31
0.0
  0
LINE
  5
80D
330
1F
100
AcDbEntity
  8
1
  6
CONTINUOUS
370
50
 62
4
100
AcDbLine
 10
51.570541
 20
-1.414551
 30
0.0
 11
51.657085
 21
-1.387313
 31
0.0
  0
LINE
  5
80E
330
1F
100
AcDbEntity
  8
1
  6
CONTINUOUS
370
50
 62
4
100
AcDbLine
 10
104.018974
 20
0.712034
 30
0.0
 11
104.052063
 21
0.722449
 31
0.0
  0
LINE
  5
80F
330
1F
100
AcDbEntity
  8
1
  6
CONTINUOUS
370
50
 62
4
100
AcDbLine
 10
52.06747799999999
 20
-1.26012
 30
0.0
 11
52.149719
 21
-1.233561
 31
0.0
  0
LINE
  5
810
330
1F
100
AcDbEntity
  8
1
  6
CONTINUOUS
370
50
 62
4
100
AcDbLine
 10
50.218472
 20
-0.710313
 30
0.0
 11
50.267334
 21
-0.694206
 31
0.0
  0
LINE
  5
811
330
1F
100
AcDbEntity
  8
1
  6
CONTINUOUS
370
50
 62
4
100
AcDbLine
 10
104.356148
 20
-0.335562
 30
0.0
 11
104.373901
 21
-0.329681
 31
0.0
  0
LINE
  5
812
330
1F
100
AcDbEntity
  8
1
  6
CONTINUOUS
370
50
 62
4
100
AcDbLine
 10
104.052063
 20
0.722449
 30
0.0
 11
104.084732
 21
0.733862
 31
0.0
  0
LINE
  5
813
330
1F
100
AcDbEntity
  8
1
  6
CONTINUOUS
370
50
 62
4
100
AcDbLine
 10
104.084732
 20
0.733862
 30
0.0
 11
104.117104
 21
0.746479
 31
0.0
  0
LINE
  5
814
330
1F
100
AcDbEntity
  8
1
  6
CONTINUOUS
370
50
 62
4
100
AcDbLine
 10
104.529816
 20
-0.191188
 30
0.0
 11
104.900391
 21
-0.040504
 31
0.0
  0
LINE
  5
815
330
1F
100
AcDbEntity
  8
1
  6
CONTINUOUS
370
50
 62
4
100
AcDbLine
 10
50.17326
 20
-0.728996
 30
0.0
 11
50.218472
 21
-0.710313
 31
0.0
  0
LINE
  5
816
330
1F
100
AcDbEntity
  8
1
  6
CONTINUOUS
370
50
 62
4
100
AcDbLine
 10
104.373901
 20
-0.329681
 30
0.0
 11
104.391693
 21
-0.321961
 31
0.0
  0
LINE
  5
817
330
1F
100
AcDbEntity
  8
1
  6
CONTINUOUS
370
50
 62
4
100
AcDbLine
 10
104.117104
 20
0.746479
 30
0.0
 11
104.148872
 21
0.760378
 31
0.0
  0
LINE
  5
818
330
1F
100
AcDbEntity
  8
1
  6
CONTINUOUS
370
50
 62
4
100
AcDbLine
 10
104.286819
 20
-1.5
 30
0.0
 11
104.287056
 21
-1.499885
 31
0.0
  0
LINE
  5
819
330
1F
100
AcDbEntity
  8
1
  6
CONTINUOUS
370
50
 62
4
100
AcDbLine
 10
104.148872
 20
0.760378
 30
0.0
 11
104.179741
 21
0.7756379999999999
 31
0.0
  0
LINE
  5
81A
330
1F
100
AcDbEntity
  8
1
  6
CONTINUOUS
370
50
 62
4
100
AcDbLine
 10
50.13053499999999
 20
-0.750902
 30
0.0
 11
50.17326
 21
-0.728996
 31
0.0
  0
LINE
  5
81B
330
1F
100
AcDbEntity
  8
1
  6
CONTINUOUS
370
50
 62
4
100
AcDbLine
 10
104.391693
 20
-0.321961
 30
0.0
 11
104.409477
 21
-0.312375
 31
0.0
  0
LINE
  5
81C
330
1F
100
AcDbEntity
  8
1
  6
CONTINUOUS
370
50
 62
4
100
AcDbLine
 10
104.179741
 20
0.7756379999999999
 30
0.0
 11
104.209404
 21
0.7923359999999999
 31
0.0
  0
LINE
  5
81D
330
1F
100
AcDbEntity
  8
1
  6
CONTINUOUS
370
50
 62
4
100
AcDbLine
 10
104.287056
 20
-1.499885
 30
0.0
 11
104.287292
 21
-1.499752
 31
0.0
  0
LINE
  5
81E
330
1F
100
AcDbEntity
  8
1
  6
CONTINUOUS
370
50
 62
4
100
AcDbLine
 10
55.999134
 20
1.5
 30
0.0
 11
56.0
 21
1.5005
 31
0.0
  0
LINE
  5
81F
330
1F
100
AcDbEntity
  8
1
  6
CONTINUOUS
370
50
 62
4
100
AcDbLine
 10
50.09078599999999
 20
-0.776268
 30
0.0
 11
50.13053499999999
 21
-0.750902
 31
0.0
  0
LINE
  5
820
330
1F
100
AcDbEntity
  8
1
  6
CONTINUOUS
370
50
 62
4
100
AcDbLine
 10
104.409477
 20
-0.312375
 30
0.0
 11
104.427216
 21
-0.300896
 31
0.0
  0
LINE
  5
821
330
1F
100
AcDbEntity
  8
1
  6
CONTINUOUS
370
50
 62
4
100
AcDbLine
 10
104.209404
 20
0.7923359999999999
 30
0.0
 11
104.237549
 21
0.8105519999999999
 31
0.0
  0
LINE
  5
822
330
1F
100
AcDbEntity
  8
1
  6
CONTINUOUS
370
50
 62
4
100
AcDbLine
 10
104.237549
 20
0.8105519999999999
 30
0.0
 11
104.263885
 21
0.830355
 31
0.0
  0
LINE
  5
823
330
1F
100
AcDbEntity
  8
1
  6
CONTINUOUS
370
50
 62
4
100
AcDbLine
 10
104.427216
 20
-0.300896
 30
0.0
 11
104.44487
 21
-0.287497
 31
0.0
  0
LINE
  5
824
330
1F
100
AcDbEntity
  8
1
  6
CONTINUOUS
370
50
 62
4
100
AcDbLine
 10
50.054993
 20
-0.805134
 30
0.0
 11
50.09078599999999
 21
-0.776268
 31
0.0
  0
LINE
  5
825
330
1F
100
AcDbEntity
  8
1
  6
CONTINUOUS
370
50
 62
4
100
AcDbLine
 10
104.44487
 20
-0.287497
 30
0.0
 11
104.46241
 21
-0.27215
 31
0.0
  0
LINE
  5
826
330
1F
100
AcDbEntity
  8
1
  6
CONTINUOUS
370
50
 62
4
100
AcDbLine
 10
104.263885
 20
0.830355
 30
0.0
 11
104.288124
 21
0.851815
 31
0.0
  0
LINE
  5
827
330
1F
100
AcDbEntity
  8
1
  6
CONTINUOUS
370
50
 62
4
100
AcDbLine
 10
104.287292
 20
-1.499752
 30
0.0
 11
104.287537
 21
-1.499517
 31
0.0
  0
LINE
  5
828
330
1F
100
AcDbEntity
  8
1
  6
CONTINUOUS
370
50
 62
4
100
AcDbLine
 10
104.46241
 20
-0.27215
 30
0.0
 11
104.479774
 21
-0.254831
 31
0.0
  0
LINE
  5
829
330
1F
100
AcDbEntity
  8
1
  6
CONTINUOUS
370
50
 62
4
100
AcDbLine
 10
50.024422
 20
-0.8371609999999999
 30
0.0
 11
50.054993
 21
-0.805134
 31
0.0
  0
LINE
  5
82A
330
1F
100
AcDbEntity
  8
1
  6
CONTINUOUS
370
50
 62
4
100
AcDbLine
 10
104.288124
 20
0.851815
 30
0.0
 11
104.31002
 21
0.875023
 31
0.0
  0
LINE
  5
82B
330
1F
100
AcDbEntity
  8
1
  6
CONTINUOUS
370
50
 62
4
100
AcDbLine
 10
104.479774
 20
-0.254831
 30
0.0
 11
104.496887
 21
-0.235556
 31
0.0
  0
LINE
  5
82C
330
1F
100
AcDbEntity
  8
1
  6
CONTINUOUS
370
50
 62
4
100
AcDbLine
 10
104.496887
 20
-0.235556
 30
0.0
 11
104.513618
 21
-0.214338
 31
0.0
  0
LINE
  5
82D
330
1F
100
AcDbEntity
  8
1
  6
CONTINUOUS
370
50
 62
4
100
AcDbLine
 10
104.31002
 20
0.875023
 30
0.0
 11
104.329323
 21
0.900071
 31
0.0
  0
LINE
  5
82E
330
1F
100
AcDbEntity
  8
1
  6
CONTINUOUS
370
50
 62
4
100
AcDbLine
 10
104.513618
 20
-0.214338
 30
0.0
 11
104.529816
 21
-0.191188
 31
0.0
  0
LINE
  5
82F
330
1F
100
AcDbEntity
  8
1
  6
CONTINUOUS
370
50
 62
4
100
AcDbLine
 10
50.0
 20
-0.8721019999999999
 30
0.0
 11
50.024422
 21
-0.8371609999999999
 31
0.0
  0
LINE
  5
830
330
1F
100
AcDbEntity
  8
1
  6
CONTINUOUS
370
50
 62
4
100
AcDbLine
 10
104.287537
 20
-1.499517
 30
0.0
 11
104.287773
 21
-1.499176
 31
0.0
  0
LINE
  5
831
330
1F
100
AcDbEntity
  8
1
  6
CONTINUOUS
370
50
 62
4
100
AcDbLine
 10
104.329323
 20
0.900071
 30
0.0
 11
104.345711
 21
0.926904
 31
0.0
  0
LINE
  5
832
330
1F
100
AcDbEntity
  8
1
  6
CONTINUOUS
370
50
 62
4
100
AcDbLine
 10
104.287773
 20
-1.499176
 30
0.0
 11
104.288017
 21
-1.498731
 31
0.0
  0
LINE
  5
833
330
1F
100
AcDbEntity
  8
1
  6
CONTINUOUS
370
50
 62
4
100
AcDbLine
 10
104.288025
 20
-1.498725
 30
0.0
 11
105.0
 21
0.0
 31
0.0
  0
LINE
  5
834
330
1F
100
AcDbEntity
  8
1
  6
CONTINUOUS
370
50
 62
4
100
AcDbLine
 10
104.345711
 20
0.926904
 30
0.0
 11
104.358696
 21
0.954842
 31
0.0
  0
LINE
  5
835
330
1F
100
AcDbEntity
  8
1
  6
CONTINUOUS
370
50
 62
4
100
AcDbLine
 10
104.288017
 20
-1.498731
 30
0.0
 11
104.288261
 21
-1.498181
 31
0.0
  0
LINE
  5
836
330
1F
100
AcDbEntity
  8
1
  6
CONTINUOUS
370
50
 62
4
100
AcDbLine
 10
104.358696
 20
0.954842
 30
0.0
 11
104.368332
 21
0.9837579999999999
 31
0.0
  0
LINE
  5
837
330
1F
100
AcDbEntity
  8
1
  6
CONTINUOUS
370
50
 62
4
100
AcDbLine
 10
104.368332
 20
0.9837579999999999
 30
0.0
 11
104.374748
 21
1.013609
 31
0.0
  0
LINE
  5
838
330
1F
100
AcDbEntity
  8
1
  6
CONTINUOUS
370
50
 62
4
100
AcDbLine
 10
104.374748
 20
1.013609
 30
0.0
 11
104.378029
 21
1.044262
 31
0.0
  0
LINE
  5
839
330
1F
100
AcDbEntity
  8
1
  6
CONTINUOUS
370
50
 62
4
100
AcDbLine
 10
104.378029
 20
1.044262
 30
0.0
 11
104.378357
 21
1.075181
 31
0.0
  0
LINE
  5
83A
330
1F
100
AcDbEntity
  8
1
  6
CONTINUOUS
370
50
 62
4
100
AcDbLine
 10
104.268723
 20
-0.441337
 30
0.0
 11
104.269119
 21
-0.338437
 31
0.0
  0
LINE
  5
83B
330
1F
100
AcDbEntity
  8
1
  6
CONTINUOUS
370
50
 62
4
100
AcDbLine
 10
104.268478
 20
-0.540686
 30
0.0
 11
104.268723
 21
-0.441337
 31
0.0
  0
LINE
  5
83C
330
1F
100
AcDbEntity
  8
1
  6
CONTINUOUS
370
50
 62
4
100
AcDbLine
 10
104.268402
 20
-0.635649
 30
0.0
 11
104.268478
 21
-0.540686
 31
0.0
  0
LINE
  5
83D
330
1F
100
AcDbEntity
  8
1
  6
CONTINUOUS
370
50
 62
4
100
AcDbLine
 10
50.0
 20
-1.5
 30
0.0
 11
50.0
 21
1.5
 31
0.0
  0
LINE
  5
83E
330
1F
100
AcDbEntity
  8
1
  6
CONTINUOUS
370
50
 62
4
100
AcDbLine
 10
51.657085
 20
1.373685
 30
0.0
 11
51.657085
 21
1.387313
 31
0.0
  0
LINE
  5
83F
330
1F
100
AcDbEntity
  8
1
  6
CONTINUOUS
370
50
 62
4
100
AcDbLine
 10
51.657085
 20
-1.387313
 30
0.0
 11
51.657085
 21
-1.336695
 31
0.0
  0
LINE
  5
840
330
1F
100
AcDbEntity
  8
1
  6
CONTINUOUS
370
50
 62
4
100
AcDbLine
 10
51.657085
 20
-1.336695
 30
0.0
 11
51.657085
 21
-1.287156
 31
0.0
  0
LINE
  5
841
330
1F
100
AcDbEntity
  8
1
  6
CONTINUOUS
370
50
 62
4
100
AcDbLine
 10
51.657085
 20
-1.287156
 30
0.0
 11
51.657085
 21
-1.238807
 31
0.0
  0
LINE
  5
842
330
1F
100
AcDbEntity
  8
1
  6
CONTINUOUS
370
50
 62
4
100
AcDbLine
 10
51.657085
 20
-1.238807
 30
0.0
 11
51.657085
 21
-1.19176
 31
0.0
  0
LINE
  5
843
330
1F
100
AcDbEntity
  8
1
  6
CONTINUOUS
370
50
 62
4
100
AcDbLine
 10
51.657085
 20
-1.19176
 30
0.0
 11
51.657085
 21
-1.146177
 31
0.0
  0
LINE
  5
844
330
1F
100
AcDbEntity
  8
1
  6
CONTINUOUS
370
50
 62
4
100
AcDbLine
 10
51.657085
 20
-1.146177
 30
0.0
 11
51.657085
 21
-1.102331
 31
0.0
  0
LINE
  5
845
330
1F
100
AcDbEntity
  8
1
  6
CONTINUOUS
370
50
 62
4
100
AcDbLine
 10
51.657085
 20
-1.102331
 30
0.0
 11
51.657085
 21
-1.060322
 31
0.0
  0
LINE
  5
846
330
1F
100
AcDbEntity
  8
1
  6
CONTINUOUS
370
50
 62
4
100
AcDbLine
 10
51.657085
 20
-1.060322
 30
0.0
 11
51.657085
 21
-1.020239
 31
0.0
  0
LINE
  5
847
330
1F
100
AcDbEntity
  8
1
  6
CONTINUOUS
370
50
 62
4
100
AcDbLine
 10
51.659084
 20
-1.049404
 30
0.0
 11
51.659084
 21
-1.021325
 31
0.0
  0
LINE
  5
848
330
1F
100
AcDbEntity
  8
1
  6
CONTINUOUS
370
50
 62
4
100
AcDbLine
 10
55.999134
 20
0.961931
 30
0.0
 11
55.999134
 21
1.5
 31
0.0
  0
LINE
  5
849
330
1F
100
AcDbEntity
  8
1
  6
CONTINUOUS
370
50
 62
4
100
AcDbLine
 10
55.999134
 20
-1.5
 30
0.0
 11
55.999134
 21
-0.7374499999999999
 31
0.0
  0
LINE
  5
84A
330
1F
100
AcDbEntity
  8
1
  6
CONTINUOUS
370
50
 62
4
100
AcDbLine
 10
56.0
 20
-1.501
 30
0.0
 11
56.0
 21
1.501
 31
0.0
  0
LINE
  5
84B
330
1F
100
AcDbEntity
  8
1
  6
CONTINUOUS
370
50
 62
4
100
AcDbLine
 10
104.300537
 20
1.238364
 30
0.0
 11
104.300537
 21
1.354732
 31
0.0
  0
LINE
  5
84C
330
1F
100
AcDbEntity
  8
CUT
  6
CONTINUOUS
370
25
 62
1
100
AcDbLine
 10
56.0
 20
0.0
 30
0.0
 11
105.0
 21
0.0
 31
0.0
  0
LINE
  5
84D
330
1F
100
AcDbEntity
  8
CUT
  6
CONTINUOUS
370
25
 62
1
100
AcDbLine
 10
105.0
 20
0.0
 30
0.0
 11
104.30053851
 21
1.5
 31
0.0
  0
LINE
  5
84E
330
1F
100
AcDbEntity
  8
CUT
  6
CONTINUOUS
370
25
 62
1
100
AcDbLine
 10
104.30053851
 20
1.5
 30
0.0
 11
56.0
 21
1.5
 31
0.0
  0
LINE
  5
84F
330
1F
100
AcDbEntity
  8
CUT
  6
CONTINUOUS
370
25
 62
1
100
AcDbLine
 10
56.0
 20
1.5
 30
0.0
 11
56.0
 21
0.0
 31
0.0
  0
LINE
  5
850
330
1F
100
AcDbEntity
  8
NOCUT
  6
CONTINUOUS
370
25
 62
7
100
AcDbLine
 10
50.0
 20
0.0
 30
0.0
 11
56.0
 21
0.0
 31
0.0
  0
LINE
  5
851
330
1F
100
AcDbEntity
  8
NOCUT
  6
CONTINUOUS
370
25
 62
7
100
AcDbLine
 10
56.0
 20
0.0
 30
0.0
 11
56.0
 21
1.5005
 31
0.0
  0
LINE
  5
852
330
1F
100
AcDbEntity
  8
NOCUT
  6
CONTINUOUS
370
25
 62
7
100
AcDbLine
 10
56.0
 20
1.5005
 30
0.0
 11
55.99913397459622
 21
1.5
 31
0.0
  0
LINE
  5
853
330
1F
100
AcDbEntity
  8
NOCUT
  6
CONTINUOUS
370
25
 62
7
100
AcDbLine
 10
55.99913397459622
 20
1.5
 30
0.0
 11
50.0
 21
1.5
 31
0.0
  0
LINE
  5
854
330
1F
100
AcDbEntity
  8
NOCUT
  6
CONTINUOUS
370
25
 62
7
100
AcDbLine
 10
50.0
 20
1.5
 30
0.0
 11
50.0
 21
0.0
 31
0.0
  0
LINE
  5
855
330
1F
100
AcDbEntity
  8
NOCUT
  6
CONTINUOUS
370
25
 62
7
100
AcDbLine
 10
56.0
 20
1.5
 30
0.0
 11
56.0
 21
0.0
 31
0.0
  0
LINE
  5
856
330
1F
100
AcDbEntity
  8
NOCUT
  6
CONTINUOUS
370
25
 62
7
100
AcDbLine
 10
56.0
 20
1.5
 30
0.0
 11
56.0
 21
0.0
 31
0.0
  0
LINE
  5
857
330
1F
100
AcDbEntity
  8
SK1
  6
CONTINUOUS
370
50
 62
4
100
AcDbLine
 10
50.0
 20
1.5
 30
0.0
 11
0.2999999999999972
 21
1.5
 31
0.0
  0
LINE
  5
858
330
1F
100
AcDbEntity
  8
SK1
  6
CONTINUOUS
370
50
 62
4
100
AcDbLine
 10
0.2999999999999972
 20
1.5
 30
0.0
 11
0.0
 21
1.2
 31
0.0
  0
LINE
  5
859
330
1F
100
AcDbEntity
  8
SK1
  6
CONTINUOUS
370
50
 62
4
100
AcDbLine
 10
0.0
 20
1.2
 30
0.0
 11
0.0
 21
-1.2
 31
0.0
  0
LINE
  5
85A
330
1F
100
AcDbEntity
  8
SK1
  6
CONTINUOUS
370
50
 62
4
100
AcDbLine
 10
0.0
 20
-1.2
 30
0.0
 11
0.2999999999999972
 21
-1.5
 31
0.0
  0
LINE
  5
85B
330
1F
100
AcDbEntity
  8
SK1
  6
CONTINUOUS
370
50
 62
4
100
AcDbLine
 10
0.2999999999999972
 20
-1.5
 30
0.0
 11
50.0
 21
-1.5
 31
0.0
  0
LINE
  5
85C
330
1F
100
AcDbEntity
  8
SK1
  6
CONTINUOUS
370
50
 62
4
100
AcDbLine
 10
0.2999999999999972
 20
1.5
 30
0.0
 11
0.2999999999999972
 21
-1.5
 31
0.0
  0
LINE
  5
85D
330
1F
100
AcDbEntity
  8
SK2
  6
CONTINUOUS
370
25
 62
7
100
AcDbLine
 10
-12.0000002
 20
-1.500001
 30
0.0
 11
-13.00000000000008
 21
-1.500001
 31
0.0
  0
LINE
  5
85E
330
1F
100
AcDbEntity
  8
SK2
  6
CONTINUOUS
370
25
 62
7
100
AcDbLine
 10
0.0
 20
-1.500001
 30
0.0
 11
-11.9999998
 21
-1.500001
 31
0.0
  0
LINE
  5
85F
330
1F
100
AcDbEntity
  8
SK2
  6
CONTINUOUS
370
25
 62
7
100
AcDbLine
 10
-13.0
 20
1.5
 30
0.0
 11
0.0
 21
1.5
 31
0.0
  0
LINE
  5
860
330
1F
100
AcDbEntity
  8
SK2
  6
CONTINUOUS
370
25
 62
7
100
AcDbLine
 10
-12.0
 20
-8.5
 30
0.0
 11
-12.0
 21
14.975
 31
0.0
  0
LINE
  5
861
330
1F
100
AcDbEntity
  8
SK2
  6
CONTINUOUS
370
25
 62
7
100
AcDbLine
 10
-12.0
 20
-1.5
 30
0.0
 11
-11.0
 21
-6.5
 31
0.0
  0
LINE
  5
862
330
1F
100
AcDbEntity
  8
SK2
  6
CONTINUOUS
370
25
 62
7
100
AcDbLine
 10
-11.0
 20
-6.5
 30
0.0
 11
-13.0
 21
-6.5
 31
0.0
  0
LINE
  5
863
330
1F
100
AcDbEntity
  8
SK2
  6
CONTINUOUS
370
25
 62
7
100
AcDbLine
 10
-13.0
 20
-6.5
 30
0.0
 11
-12.0
 21
-1.5
 31
0.0
  0
LINE
  5
864
330
1F
100
AcDbEntity
  8
SK2
  6
CONTINUOUS
370
25
 62
7
100
AcDbLine
 10
-11.23006486383871
 20
-6.5
 30
0.0
 11
-11.03834414397312
 21
-6.308279280134407
 31
0.0
  0
LINE
  5
865
330
1F
100
AcDbEntity
  8
SK2
  6
CONTINUOUS
370
25
 62
7
100
AcDbLine
 10
-11.65432893255063
 20
-6.5
 30
0.0
 11
-11.10905482209178
 21
-5.954725889541137
 31
0.0
  0
LINE
  5
866
330
1F
100
AcDbEntity
  8
SK2
  6
CONTINUOUS
370
25
 62
7
100
AcDbLine
 10
-12.07859300126258
 20
-6.5
 30
0.0
 11
-11.17976550021043
 21
-5.601172498947847
 31
0.0
  0
LINE
  5
867
330
1F
100
AcDbEntity
  8
SK2
  6
CONTINUOUS
370
25
 62
7
100
AcDbLine
 10
-12.5028570699745
 20
-6.5
 30
0.0
 11
-11.25047617832908
 21
-5.24761910835457
 31
0.0
  0
LINE
  5
868
330
1F
100
AcDbEntity
  8
SK2
  6
CONTINUOUS
370
25
 62
7
100
AcDbLine
 10
-12.92712113868642
 20
-6.5
 30
0.0
 11
-11.32118685644774
 21
-4.894065717761301
 31
0.0
  0
LINE
  5
869
330
1F
100
AcDbEntity
  8
SK2
  6
CONTINUOUS
370
25
 62
7
100
AcDbLine
 10
-12.91215369815041
 20
-6.060768490752068
 30
0.0
 11
-11.3918975345664
 21
-4.540512327168038
 31
0.0
  0
LINE
  5
86A
330
1F
100
AcDbEntity
  8
SK2
  6
CONTINUOUS
370
25
 62
7
100
AcDbLine
 10
-12.80608768097243
 20
-5.53043840486216
 30
0.0
 11
-11.46260821268505
 21
-4.186958936574769
 31
0.0
  0
LINE
  5
86B
330
1F
100
AcDbEntity
  8
SK2
  6
CONTINUOUS
370
25
 62
7
100
AcDbLine
 10
-12.70002166379445
 20
-5.000108318972231
 30
0.0
 11
-11.53331889080371
 21
-3.833405545981478
 31
0.0
  0
LINE
  5
86C
330
1F
100
AcDbEntity
  8
SK2
  6
CONTINUOUS
370
25
 62
7
100
AcDbLine
 10
-12.59395564661646
 20
-4.469778233082323
 30
0.0
 11
-11.60402956892236
 21
-3.479852155388215
 31
0.0
  0
LINE
  5
86D
330
1F
100
AcDbEntity
  8
SK2
  6
CONTINUOUS
370
25
 62
7
100
AcDbLine
 10
-12.48788962943848
 20
-3.939448147192415
 30
0.0
 11
-11.67474024704102
 21
-3.126298764794939
 31
0.0
  0
LINE
  5
86E
330
1F
100
AcDbEntity
  8
SK2
  6
CONTINUOUS
370
25
 62
7
100
AcDbLine
 10
-12.3818236122605
 20
-3.409118061302486
 30
0.0
 11
-11.74545092515967
 21
-2.772745374201648
 31
0.0
  0
LINE
  5
86F
330
1F
100
AcDbEntity
  8
SK2
  6
CONTINUOUS
370
25
 62
7
100
AcDbLine
 10
-12.27575759508252
 20
-2.878787975412578
 30
0.0
 11
-11.81616160327832
 21
-2.419191983608378
 31
0.0
  0
LINE
  5
870
330
1F
100
AcDbEntity
  8
SK2
  6
CONTINUOUS
370
25
 62
7
100
AcDbLine
 10
-12.16969157790454
 20
-2.348457889522678
 30
0.0
 11
-11.88687228139698
 21
-2.065638593015109
 31
0.0
  0
LINE
  5
871
330
1F
100
AcDbEntity
  8
SK2
  6
CONTINUOUS
370
25
 62
7
100
AcDbLine
 10
-12.06362556072656
 20
-1.818127803632756
 30
0.0
 11
-11.95758295951563
 21
-1.712085202421825
 31
0.0
  0
LINE
  5
872
330
1F
100
AcDbEntity
  8
SK2
  6
CONTINUOUS
370
25
 62
7
100
AcDbLine
 10
-12.93349848618077
 20
-6.167492430903877
 30
0.0
 11
-12.60099091708465
 21
-6.5
 31
0.0
  0
LINE
  5
873
330
1F
100
AcDbEntity
  8
SK2
  6
CONTINUOUS
370
25
 62
7
100
AcDbLine
 10
-12.86278780806212
 20
-5.813939040310608
 30
0.0
 11
-12.17672684837272
 21
-6.5
 31
0.0
  0
LINE
  5
874
330
1F
100
AcDbEntity
  8
SK2
  6
CONTINUOUS
370
25
 62
7
100
AcDbLine
 10
-12.79207712994346
 20
-5.460385649717338
 30
0.0
 11
-11.7524627796608
 21
-6.5
 31
0.0
  0
LINE
  5
875
330
1F
100
AcDbEntity
  8
SK2
  6
CONTINUOUS
370
25
 62
7
100
AcDbLine
 10
-12.72136645182481
 20
-5.106832259124062
 30
0.0
 11
-11.32819871094886
 21
-6.5
 31
0.0
  0
LINE
  5
876
330
1F
100
AcDbEntity
  8
SK2
  6
CONTINUOUS
370
25
 62
7
100
AcDbLine
 10
-12.65065577370616
 20
-4.753278868530785
 30
0.0
 11
-11.02401633944077
 21
-6.379918302796156
 31
0.0
  0
LINE
  5
877
330
1F
100
AcDbEntity
  8
SK2
  6
CONTINUOUS
370
25
 62
7
100
AcDbLine
 10
-12.5799450955875
 20
-4.399725477937508
 30
0.0
 11
-11.13008235661876
 21
-5.849588216906248
 31
0.0
  0
LINE
  5
878
330
1F
100
AcDbEntity
  8
SK2
  6
CONTINUOUS
370
25
 62
7
100
AcDbLine
 10
-12.50923441746885
 20
-4.046172087344239
 30
0.0
 11
-11.23614837379674
 21
-5.31925813101634
 31
0.0
  0
LINE
  5
879
330
1F
100
AcDbEntity
  8
SK2
  6
CONTINUOUS
370
25
 62
7
100
AcDbLine
 10
-12.4385237393502
 20
-3.692618696750962
 30
0.0
 11
-11.34221439097472
 21
-4.788928045126433
 31
0.0
  0
LINE
  5
87A
330
1F
100
AcDbEntity
  8
SK2
  6
CONTINUOUS
370
25
 62
7
100
AcDbLine
 10
-12.36781306123154
 20
-3.3390653061577
 30
0.0
 11
-11.44828040815269
 21
-4.258597959236546
 31
0.0
  0
LINE
  5
87B
330
1F
100
AcDbEntity
  8
SK2
  6
CONTINUOUS
370
25
 62
7
100
AcDbLine
 10
-12.29710238311289
 20
-2.985511915564423
 30
0.0
 11
-11.55434642533067
 21
-3.728267873346631
 31
0.0
  0
LINE
  5
87C
330
1F
100
AcDbEntity
  8
SK2
  6
CONTINUOUS
370
25
 62
7
100
AcDbLine
 10
-12.22639170499423
 20
-2.631958524971147
 30
0.0
 11
-11.66041244250865
 21
-3.197937787456723
 31
0.0
  0
LINE
  5
87D
330
1F
100
AcDbEntity
  8
SK2
  6
CONTINUOUS
370
25
 62
7
100
AcDbLine
 10
-12.15568102687558
 20
-2.278405134377877
 30
0.0
 11
-11.76647845968663
 21
-2.667607701566816
 31
0.0
  0
LINE
  5
87E
330
1F
100
AcDbEntity
  8
SK2
  6
CONTINUOUS
370
25
 62
7
100
AcDbLine
 10
-12.08497034875692
 20
-1.924851743784629
 30
0.0
 11
-11.87254447686462
 21
-2.137277615676922
 31
0.0
  0
LINE
  5
87F
330
1F
100
AcDbEntity
  8
SK2
  6
CONTINUOUS
370
25
 62
7
100
AcDbLine
 10
-12.01425967063826
 20
-1.571298353191345
 30
0.0
 11
-11.97861049404261
 21
-1.606947529787
 31
0.0
  0
LINE
  5
880
330
1F
100
AcDbEntity
  8
SK2
  6
CONTINUOUS
370
25
 62
7
100
AcDbLine
 10
-12.0
 20
1.5
 30
0.0
 11
-13.0
 21
6.5
 31
0.0
  0
LINE
  5
881
330
1F
100
AcDbEntity
  8
SK2
  6
CONTINUOUS
370
25
 62
7
100
AcDbLine
 10
-13.0
 20
6.5
 30
0.0
 11
-11.0
 21
6.5
 31
0.0
  0
LINE
  5
882
330
1F
100
AcDbEntity
  8
SK2
  6
CONTINUOUS
370
25
 62
7
100
AcDbLine
 10
-11.0
 20
6.5
 30
0.0
 11
-12.0
 21
1.5
 31
0.0
  0
LINE
  5
883
330
1F
100
AcDbEntity
  8
SK2
  6
CONTINUOUS
370
25
 62
7
100
AcDbLine
 10
-12.02326838446487
 20
1.616341922324345
 30
0.0
 11
-11.96509742330269
 21
1.674512883486521
 31
0.0
  0
LINE
  5
884
330
1F
100
AcDbEntity
  8
SK2
  6
CONTINUOUS
370
25
 62
7
100
AcDbLine
 10
-12.09397906258353
 20
1.969895312917622
 30
0.0
 11
-11.85903140612471
 21
2.204842969376436
 31
0.0
  0
LINE
  5
885
330
1F
100
AcDbEntity
  8
SK2
  6
CONTINUOUS
370
25
 62
7
100
AcDbLine
 10
-12.16468974070218
 20
2.323448703510891
 30
0.0
 11
-11.75296538894673
 21
2.735173055266344
 31
0.0
  0
LINE
  5
886
330
1F
100
AcDbEntity
  8
SK2
  6
CONTINUOUS
370
25
 62
7
100
AcDbLine
 10
-12.23540041882084
 20
2.677002094104161
 30
0.0
 11
-11.64689937176875
 21
3.265503141156266
 31
0.0
  0
LINE
  5
887
330
1F
100
AcDbEntity
  8
SK2
  6
CONTINUOUS
370
25
 62
7
100
AcDbLine
 10
-12.3061110969395
 20
3.030555484697437
 30
0.0
 11
-11.54083335459076
 21
3.795833227046174
 31
0.0
  0
LINE
  5
888
330
1F
100
AcDbEntity
  8
SK2
  6
CONTINUOUS
370
25
 62
7
100
AcDbLine
 10
-12.37682177505815
 20
3.384108875290707
 30
0.0
 11
-11.43476733741278
 21
4.326163312936082
 31
0.0
  0
LINE
  5
889
330
1F
100
AcDbEntity
  8
SK2
  6
CONTINUOUS
370
25
 62
7
100
AcDbLine
 10
-12.44753245317681
 20
3.737662265883998
 30
0.0
 11
-11.32870132023479
 21
4.856493398826018
 31
0.0
  0
LINE
  5
88A
330
1F
100
AcDbEntity
  8
SK2
  6
CONTINUOUS
370
25
 62
7
100
AcDbLine
 10
-12.51824313129546
 20
4.091215656477267
 30
0.0
 11
-11.22263530305682
 21
5.386823484715912
 31
0.0
  0
LINE
  5
88B
330
1F
100
AcDbEntity
  8
SK2
  6
CONTINUOUS
370
25
 62
7
100
AcDbLine
 10
-12.58895380941411
 20
4.444769047070537
 30
0.0
 11
-11.11656928587884
 21
5.917153570605819
 31
0.0
  0
LINE
  5
88C
330
1F
100
AcDbEntity
  8
SK2
  6
CONTINUOUS
370
25
 62
7
100
AcDbLine
 10
-12.65966448753275
 20
4.798322437663813
 30
0.0
 11
-11.01050326870086
 21
6.44748365649572
 31
0.0
  0
LINE
  5
88D
330
1F
100
AcDbEntity
  8
SK2
  6
CONTINUOUS
370
25
 62
7
100
AcDbLine
 10
-12.73037516565142
 20
5.15187582825709
 30
0.0
 11
-11.38225099390853
 21
6.5
 31
0.0
  0
LINE
  5
88E
330
1F
100
AcDbEntity
  8
SK2
  6
CONTINUOUS
370
25
 62
7
100
AcDbLine
 10
-12.80108584377007
 20
5.505429218850367
 30
0.0
 11
-11.80651506262045
 21
6.5
 31
0.0
  0
LINE
  5
88F
330
1F
100
AcDbEntity
  8
SK2
  6
CONTINUOUS
370
25
 62
7
100
AcDbLine
 10
-12.87179652188873
 20
5.858982609443629
 30
0.0
 11
-12.23077913133236
 21
6.5
 31
0.0
  0
LINE
  5
890
330
1F
100
AcDbEntity
  8
SK2
  6
CONTINUOUS
370
25
 62
7
100
AcDbLine
 10
-12.94250720000738
 20
6.21253600003692
 30
0.0
 11
-12.6550432000443
 21
6.5
 31
0.0
  0
LINE
  5
891
330
1F
100
AcDbEntity
  8
SK2
  6
CONTINUOUS
370
25
 62
7
100
AcDbLine
 10
-12.04662997870314
 20
1.733149893515701
 30
0.0
 11
-11.96891334753124
 21
1.655433262343813
 31
0.0
  0
LINE
  5
892
330
1F
100
AcDbEntity
  8
SK2
  6
CONTINUOUS
370
25
 62
7
100
AcDbLine
 10
-12.15269599588112
 20
2.263479979405616
 30
0.0
 11
-11.89820266941258
 21
2.008986652937082
 31
0.0
  0
LINE
  5
893
330
1F
100
AcDbEntity
  8
SK2
  6
CONTINUOUS
370
25
 62
7
100
AcDbLine
 10
-12.2587620130591
 20
2.793810065295531
 30
0.0
 11
-11.82749199129393
 21
2.362540043530366
 31
0.0
  0
LINE
  5
894
330
1F
100
AcDbEntity
  8
SK2
  6
CONTINUOUS
370
25
 62
7
100
AcDbLine
 10
-12.36482803023708
 20
3.324140151185425
 30
0.0
 11
-11.75678131317528
 21
2.716093434123628
 31
0.0
  0
LINE
  5
895
330
1F
100
AcDbEntity
  8
SK2
  6
CONTINUOUS
370
25
 62
7
100
AcDbLine
 10
-12.47089404741506
 20
3.854470237075333
 30
0.0
 11
-11.68607063505662
 21
3.069646824716905
 31
0.0
  0
LINE
  5
896
330
1F
100
AcDbEntity
  8
SK2
  6
CONTINUOUS
370
25
 62
7
100
AcDbLine
 10
-12.57696006459304
 20
4.384800322965233
 30
0.0
 11
-11.61535995693797
 21
3.423200215310175
 31
0.0
  0
LINE
  5
897
330
1F
100
AcDbEntity
  8
SK2
  6
CONTINUOUS
370
25
 62
7
100
AcDbLine
 10
-12.68302608177102
 20
4.915130408855148
 30
0.0
 11
-11.54464927881931
 21
3.776753605903458
 31
0.0
  0
LINE
  5
898
330
1F
100
AcDbEntity
  8
SK2
  6
CONTINUOUS
370
25
 62
7
100
AcDbLine
 10
-12.789092098949
 20
5.445460494745042
 30
0.0
 11
-11.47393860070066
 21
4.130306996496721
 31
0.0
  0
LINE
  5
899
330
1F
100
AcDbEntity
  8
SK2
  6
CONTINUOUS
370
25
 62
7
100
AcDbLine
 10
-12.89515811612698
 20
5.97579058063495
 30
0.0
 11
-11.40322792258201
 21
4.483860387089997
 31
0.0
  0
LINE
  5
89A
330
1F
100
AcDbEntity
  8
SK2
  6
CONTINUOUS
370
25
 62
7
100
AcDbLine
 10
-12.9951034667801
 20
6.5
 30
0.0
 11
-11.33251724446335
 21
4.837413777683267
 31
0.0
  0
LINE
  5
89B
330
1F
100
AcDbEntity
  8
SK2
  6
CONTINUOUS
370
25
 62
7
100
AcDbLine
 10
-12.57083939806817
 20
6.5
 30
0.0
 11
-11.26180656634469
 21
5.190967168276529
 31
0.0
  0
LINE
  5
89C
330
1F
100
AcDbEntity
  8
SK2
  6
CONTINUOUS
370
25
 62
7
100
AcDbLine
 10
-12.14657532935625
 20
6.5
 30
0.0
 11
-11.19109588822604
 21
5.544520558869799
 31
0.0
  0
LINE
  5
89D
330
1F
100
AcDbEntity
  8
SK2
  6
CONTINUOUS
370
25
 62
7
100
AcDbLine
 10
-11.72231126064432
 20
6.5
 30
0.0
 11
-11.12038521010739
 21
5.898073949463075
 31
0.0
  0
LINE
  5
89E
330
1F
100
AcDbEntity
  8
SK2
  6
CONTINUOUS
370
25
 62
7
100
AcDbLine
 10
-11.29804719193239
 20
6.5
 30
0.0
 11
-11.04967453198873
 21
6.251627340056345
 31
0.0
  0
TEXT
  5
89F
330
1F
100
AcDbEntity
  8
SK2
  6
CONTINUOUS
370
25
 62
7
100
AcDbText
 10
-13.5
 20
11.84583333333333
 30
0.0
 40
3.5
  1
3
 50
90.00000000000001
 72
     1
 11
-13.5
 21
13.0125
 31
0.0
100
AcDbText
  0
CIRCLE
  5
8A0
330
1F
100
AcDbEntity
  8
SK2
  6
CONTINUOUS
370
25
 62
7
100
AcDbCircle
 10
-15.25
 20
9.6875
 30
0.0
 40
1.4
  0
LINE
  5
8A1
330
1F
100
AcDbEntity
  8
SK2
  6
CONTINUOUS
370
25
 62
7
100
AcDbLine
 10
-13.85
 20
8.287500000000001
 30
0.0
 11
-16.65000000000001
 21
11.0875
 31
0.0
  0
LINE
  5
8A2
330
1F
100
AcDbEntity
  8
SK2
  6
CONTINUOUS
370
25
 62
7
100
AcDbLine
 10
0.0
 20
1.5
 30
0.0
 11
0.0
 21
14.50055793
 31
0.0
  0
LINE
  5
8A3
330
1F
100
AcDbEntity
  8
SK2
  6
CONTINUOUS
370
25
 62
7
100
AcDbLine
 10
50.0
 20
14.50055793
 30
0.0
 11
50.0
 21
1.5
 31
0.0
  0
LINE
  5
8A4
330
1F
100
AcDbEntity
  8
SK2
  6
CONTINUOUS
370
25
 62
7
100
AcDbLine
 10
0.0
 20
13.50055793
 30
0.0
 11
50.0
 21
13.50055793
 31
0.0
  0
LINE
  5
8A5
330
1F
100
AcDbEntity
  8
SK2
  6
CONTINUOUS
370
25
 62
7
100
AcDbLine
 10
0.0
 20
13.50055793
 30
0.0
 11
5.0
 21
14.50055793
 31
0.0
  0
LINE
  5
8A6
330
1F
100
AcDbEntity
  8
SK2
  6
CONTINUOUS
370
25
 62
7
100
AcDbLine
 10
5.0
 20
14.50055793
 30
0.0
 11
5.0
 21
12.50055793
 31
0.0
  0
LINE
  5
8A7
330
1F
100
AcDbEntity
  8
SK2
  6
CONTINUOUS
370
25
 62
7
100
AcDbLine
 10
5.0
 20
12.50055793
 30
0.0
 11
0.0
 21
13.50055793
 31
0.0
  0
LINE
  5
8A8
330
1F
100
AcDbEntity
  8
SK2
  6
CONTINUOUS
370
25
 62
7
100
AcDbLine
 10
4.833870487648142
 20
12.53378383247038
 30
0.0
 11
5.0
 21
12.69991334482224
 31
0.0
  0
LINE
  5
8A9
330
1F
100
AcDbEntity
  8
SK2
  6
CONTINUOUS
370
25
 62
7
100
AcDbLine
 10
4.480317097054858
 20
12.60449451058903
 30
0.0
 11
5.0
 21
13.12417741353417
 31
0.0
  0
LINE
  5
8AA
330
1F
100
AcDbEntity
  8
SK2
  6
CONTINUOUS
370
25
 62
7
100
AcDbLine
 10
4.126763706461581
 20
12.67520518870769
 30
0.0
 11
5.0
 21
13.5484414822461
 31
0.0
  0
LINE
  5
8AB
330
1F
100
AcDbEntity
  8
SK2
  6
CONTINUOUS
370
25
 62
7
100
AcDbLine
 10
3.773210315868305
 20
12.74591586682634
 30
0.0
 11
5.0
 21
13.97270555095803
 31
0.0
  0
LINE
  5
8AC
330
1F
100
AcDbEntity
  8
SK2
  6
CONTINUOUS
370
25
 62
7
100
AcDbLine
 10
3.419656925275035
 20
12.816626544945
 30
0.0
 11
5.0
 21
14.39696961966996
 31
0.0
  0
LINE
  5
8AD
330
1F
100
AcDbEntity
  8
SK2
  6
CONTINUOUS
370
25
 62
7
100
AcDbLine
 10
3.066103534681758
 20
12.88733722306365
 30
0.0
 11
4.599155302022623
 21
14.42038899040452
 31
0.0
  0
LINE
  5
8AE
330
1F
100
AcDbEntity
  8
SK2
  6
CONTINUOUS
370
25
 62
7
100
AcDbLine
 10
2.712550144088475
 20
12.9580479011823
 30
0.0
 11
4.068825216132709
 21
14.31432297322654
 31
0.0
  0
LINE
  5
8AF
330
1F
100
AcDbEntity
  8
SK2
  6
CONTINUOUS
370
25
 62
7
100
AcDbLine
 10
2.358996753495205
 20
13.02875857930096
 30
0.0
 11
3.538495130242794
 21
14.20825695604855
 31
0.0
  0
LINE
  5
8B0
330
1F
100
AcDbEntity
  8
SK2
  6
CONTINUOUS
370
25
 62
7
100
AcDbLine
 10
2.005443362901929
 20
13.09946925741961
 30
0.0
 11
3.008165044352886
 21
14.10219093887057
 31
0.0
  0
LINE
  5
8B1
330
1F
100
AcDbEntity
  8
SK2
  6
CONTINUOUS
370
25
 62
7
100
AcDbLine
 10
1.651889972308652
 20
13.17017993553827
 30
0.0
 11
2.477834958462971
 21
13.99612492169259
 31
0.0
  0
LINE
  5
8B2
330
1F
100
AcDbEntity
  8
SK2
  6
CONTINUOUS
370
25
 62
7
100
AcDbLine
 10
1.298336581715368
 20
13.24089061365692
 30
0.0
 11
1.947504872573049
 21
13.8900589045146
 31
0.0
  0
LINE
  5
8B3
330
1F
100
AcDbEntity
  8
SK2
  6
CONTINUOUS
370
25
 62
7
100
AcDbLine
 10
0.9447831911220987
 20
13.31160129177558
 30
0.0
 11
1.417174786683141
 21
13.78399288733662
 31
0.0
  0
LINE
  5
8B4
330
1F
100
AcDbEntity
  8
SK2
  6
CONTINUOUS
370
25
 62
7
100
AcDbLine
 10
0.5912298005288221
 20
13.38231196989423
 30
0.0
 11
0.8868447007932332
 21
13.67792687015864
 31
0.0
  0
LINE
  5
8B5
330
1F
100
AcDbEntity
  8
SK2
  6
CONTINUOUS
370
25
 62
7
100
AcDbLine
 10
0.2376764099355455
 20
13.45302264801289
 30
0.0
 11
0.3565146149033112
 21
13.57186085298066
 31
0.0
  0
LINE
  5
8B6
330
1F
100
AcDbEntity
  8
SK2
  6
CONTINUOUS
370
25
 62
7
100
AcDbLine
 10
0.0033549401939013
 20
13.50122891803878
 30
0.0
 11
0.005032410290859
 21
13.49955144794183
 31
0.0
  0
LINE
  5
8B7
330
1F
100
AcDbEntity
  8
SK2
  6
CONTINUOUS
370
25
 62
7
100
AcDbLine
 10
0.356908330787185
 20
13.57193959615743
 30
0.0
 11
0.535362496180781
 21
13.39348543076384
 31
0.0
  0
LINE
  5
8B8
330
1F
100
AcDbEntity
  8
SK2
  6
CONTINUOUS
370
25
 62
7
100
AcDbLine
 10
0.7104617213804545
 20
13.64265027427609
 30
0.0
 11
1.065692582070689
 21
13.28741941358586
 31
0.0
  0
LINE
  5
8B9
330
1F
100
AcDbEntity
  8
SK2
  6
CONTINUOUS
370
25
 62
7
100
AcDbLine
 10
1.064015111973731
 20
13.71336095239475
 30
0.0
 11
1.596022667960604
 21
13.18135339640788
 31
0.0
  0
LINE
  5
8BA
330
1F
100
AcDbEntity
  8
SK2
  6
CONTINUOUS
370
25
 62
7
100
AcDbLine
 10
1.417568502567015
 20
13.7840716305134
 30
0.0
 11
2.126352753850526
 21
13.07528737922989
 31
0.0
  0
LINE
  5
8BB
330
1F
100
AcDbEntity
  8
SK2
  6
CONTINUOUS
370
25
 62
7
100
AcDbLine
 10
1.771121893160284
 20
13.85478230863206
 30
0.0
 11
2.656682839740434
 21
12.96922136205191
 31
0.0
  0
LINE
  5
8BC
330
1F
100
AcDbEntity
  8
SK2
  6
CONTINUOUS
370
25
 62
7
100
AcDbLine
 10
2.124675283753561
 20
13.92549298675071
 30
0.0
 11
3.187012925630349
 21
12.86315534487392
 31
0.0
  0
LINE
  5
8BD
330
1F
100
AcDbEntity
  8
SK2
  6
CONTINUOUS
370
25
 62
7
100
AcDbLine
 10
2.478228674346838
 20
13.99620366486937
 30
0.0
 11
3.717343011520263
 21
12.75708932769594
 31
0.0
  0
LINE
  5
8BE
330
1F
100
AcDbEntity
  8
SK2
  6
CONTINUOUS
370
25
 62
7
100
AcDbLine
 10
2.831782064940121
 20
14.06691434298802
 30
0.0
 11
4.247673097410186
 21
12.65102331051796
 31
0.0
  0
LINE
  5
8BF
330
1F
100
AcDbEntity
  8
SK2
  6
CONTINUOUS
370
25
 62
7
100
AcDbLine
 10
3.185335455533391
 20
14.13762502110668
 30
0.0
 11
4.778003183300093
 21
12.54495729333998
 31
0.0
  0
LINE
  5
8C0
330
1F
100
AcDbEntity
  8
SK2
  6
CONTINUOUS
370
25
 62
7
100
AcDbLine
 10
3.538888846126667
 20
14.20833569922533
 30
0.0
 11
5.0
 21
12.747224545352
 31
0.0
  0
LINE
  5
8C1
330
1F
100
AcDbEntity
  8
SK2
  6
CONTINUOUS
370
25
 62
7
100
AcDbLine
 10
3.892442236719944
 20
14.27904637734399
 30
0.0
 11
5.0
 21
13.17148861406394
 31
0.0
  0
LINE
  5
8C2
330
1F
100
AcDbEntity
  8
SK2
  6
CONTINUOUS
370
25
 62
7
100
AcDbLine
 10
4.245995627313228
 20
14.34975705546264
 30
0.0
 11
5.0
 21
13.59575268277587
 31
0.0
  0
LINE
  5
8C3
330
1F
100
AcDbEntity
  8
SK2
  6
CONTINUOUS
370
25
 62
7
100
AcDbLine
 10
4.599549017906497
 20
14.4204677335813
 30
0.0
 11
5.0
 21
14.0200167514878
 31
0.0
  0
LINE
  5
8C4
330
1F
100
AcDbEntity
  8
SK2
  6
CONTINUOUS
370
25
 62
7
100
AcDbLine
 10
4.953102408499774
 20
14.49117841169996
 30
0.0
 11
5.0
 21
14.44428082019973
 31
0.0
  0
LINE
  5
8C5
330
1F
100
AcDbEntity
  8
SK2
  6
CONTINUOUS
370
25
 62
7
100
AcDbLine
 10
50.0
 20
13.50055793
 30
0.0
 11
45.0
 21
12.50055793
 31
0.0
  0
LINE
  5
8C6
330
1F
100
AcDbEntity
  8
SK2
  6
CONTINUOUS
370
25
 62
7
100
AcDbLine
 10
45.0
 20
12.50055793
 30
0.0
 11
45.0
 21
14.50055793
 31
0.0
  0
LINE
  5
8C7
330
1F
100
AcDbEntity
  8
SK2
  6
CONTINUOUS
370
25
 62
7
100
AcDbLine
 10
45.0
 20
14.50055793
 30
0.0
 11
50.0
 21
13.50055793
 31
0.0
  0
LINE
  5
8C8
330
1F
100
AcDbEntity
  8
SK2
  6
CONTINUOUS
370
25
 62
7
100
AcDbLine
 10
49.90513466402286
 20
13.48158486280457
 30
0.0
 11
49.9367564426819
 21
13.51320664146362
 31
0.0
  0
LINE
  5
8C9
330
1F
100
AcDbEntity
  8
SK2
  6
CONTINUOUS
370
25
 62
7
100
AcDbLine
 10
49.37480457813295
 20
13.37551884562659
 30
0.0
 11
49.58320305208863
 21
13.58391731958227
 31
0.0
  0
LINE
  5
8CA
330
1F
100
AcDbEntity
  8
SK2
  6
CONTINUOUS
370
25
 62
7
100
AcDbLine
 10
48.84447449224304
 20
13.26945282844861
 30
0.0
 11
49.22964966149536
 21
13.65462799770093
 31
0.0
  0
LINE
  5
8CB
330
1F
100
AcDbEntity
  8
SK2
  6
CONTINUOUS
370
25
 62
7
100
AcDbLine
 10
48.31414440635313
 20
13.16338681127062
 30
0.0
 11
48.87609627090209
 21
13.72533867581958
 31
0.0
  0
LINE
  5
8CC
330
1F
100
AcDbEntity
  8
SK2
  6
CONTINUOUS
370
25
 62
7
100
AcDbLine
 10
47.78381432046322
 20
13.05732079409264
 30
0.0
 11
48.52254288030881
 21
13.79604935393824
 31
0.0
  0
LINE
  5
8CD
330
1F
100
AcDbEntity
  8
SK2
  6
CONTINUOUS
370
25
 62
7
100
AcDbLine
 10
47.25348423457331
 20
12.95125477691466
 30
0.0
 11
48.16898948971554
 21
13.86676003205689
 31
0.0
  0
LINE
  5
8CE
330
1F
100
AcDbEntity
  8
SK2
  6
CONTINUOUS
370
25
 62
7
100
AcDbLine
 10
46.7231541486834
 20
12.84518875973668
 30
0.0
 11
47.81543609912227
 21
13.93747071017555
 31
0.0
  0
LINE
  5
8CF
330
1F
100
AcDbEntity
  8
SK2
  6
CONTINUOUS
370
25
 62
7
100
AcDbLine
 10
46.19282406279349
 20
12.7391227425587
 30
0.0
 11
47.461882708529
 21
14.0081813882942
 31
0.0
  0
LINE
  5
8D0
330
1F
100
AcDbEntity
  8
SK2
  6
CONTINUOUS
370
25
 62
7
100
AcDbLine
 10
45.66249397690358
 20
12.63305672538072
 30
0.0
 11
47.10832931793572
 21
14.07889206641286
 31
0.0
  0
LINE
  5
8D1
330
1F
100
AcDbEntity
  8
SK2
  6
CONTINUOUS
370
25
 62
7
100
AcDbLine
 10
45.13216389101368
 20
12.52699070820274
 30
0.0
 11
46.75477592734245
 21
14.14960274453151
 31
0.0
  0
LINE
  5
8D2
330
1F
100
AcDbEntity
  8
SK2
  6
CONTINUOUS
370
25
 62
7
100
AcDbLine
 10
45.0
 20
12.81909088590099
 30
0.0
 11
46.40122253674917
 21
14.22031342265016
 31
0.0
  0
LINE
  5
8D3
330
1F
100
AcDbEntity
  8
SK2
  6
CONTINUOUS
370
25
 62
7
100
AcDbLine
 10
45.0
 20
13.24335495461292
 30
0.0
 11
46.0476691461559
 21
14.29102410076882
 31
0.0
  0
LINE
  5
8D4
330
1F
100
AcDbEntity
  8
SK2
  6
CONTINUOUS
370
25
 62
7
100
AcDbLine
 10
45.0
 20
13.66761902332485
 30
0.0
 11
45.69411575556263
 21
14.36173477888747
 31
0.0
  0
LINE
  5
8D5
330
1F
100
AcDbEntity
  8
SK2
  6
CONTINUOUS
370
25
 62
7
100
AcDbLine
 10
45.0
 20
14.09188309203677
 30
0.0
 11
45.34056236496935
 21
14.43244545700613
 31
0.0
  0
LINE
  5
8D6
330
1F
100
AcDbEntity
  8
SK2
  6
CONTINUOUS
370
25
 62
7
100
AcDbLine
 10
45.0
 20
12.63675323681471
 30
0.0
 11
45.11349608901226
 21
12.52325714780245
 31
0.0
  0
LINE
  5
8D7
330
1F
100
AcDbEntity
  8
SK2
  6
CONTINUOUS
370
25
 62
7
100
AcDbLine
 10
45.0
 20
13.06101730552664
 30
0.0
 11
45.46704947960554
 21
12.59396782592111
 31
0.0
  0
LINE
  5
8D8
330
1F
100
AcDbEntity
  8
SK2
  6
CONTINUOUS
370
25
 62
7
100
AcDbLine
 10
45.0
 20
13.48528137423857
 30
0.0
 11
45.82060287019881
 21
12.66467850403976
 31
0.0
  0
LINE
  5
8D9
330
1F
100
AcDbEntity
  8
SK2
  6
CONTINUOUS
370
25
 62
7
100
AcDbLine
 10
45.0
 20
13.9095454429505
 30
0.0
 11
46.17415626079208
 21
12.73538918215842
 31
0.0
  0
LINE
  5
8DA
330
1F
100
AcDbEntity
  8
SK2
  6
CONTINUOUS
370
25
 62
7
100
AcDbLine
 10
45.0
 20
14.33380951166242
 30
0.0
 11
46.52770965138536
 21
12.80609986027707
 31
0.0
  0
LINE
  5
8DB
330
1F
100
AcDbEntity
  8
SK2
  6
CONTINUOUS
370
25
 62
7
100
AcDbLine
 10
45.32189456296794
 20
14.43617901740641
 30
0.0
 11
46.88126304197863
 21
12.87681053839573
 31
0.0
  0
LINE
  5
8DC
330
1F
100
AcDbEntity
  8
SK2
  6
CONTINUOUS
370
25
 62
7
100
AcDbLine
 10
45.85222464885786
 20
14.33011300022843
 30
0.0
 11
47.2348164325719
 21
12.94752121651438
 31
0.0
  0
LINE
  5
8DD
330
1F
100
AcDbEntity
  8
SK2
  6
CONTINUOUS
370
25
 62
7
100
AcDbLine
 10
46.38255473474776
 20
14.22404698305045
 30
0.0
 11
47.58836982316518
 21
13.01823189463303
 31
0.0
  0
LINE
  5
8DE
330
1F
100
AcDbEntity
  8
SK2
  6
CONTINUOUS
370
25
 62
7
100
AcDbLine
 10
46.91288482063767
 20
14.11798096587247
 30
0.0
 11
47.94192321375845
 21
13.08894257275169
 31
0.0
  0
LINE
  5
8DF
330
1F
100
AcDbEntity
  8
SK2
  6
CONTINUOUS
370
25
 62
7
100
AcDbLine
 10
47.44321490652759
 20
14.01191494869448
 30
0.0
 11
48.29547660435173
 21
13.15965325087034
 31
0.0
  0
LINE
  5
8E0
330
1F
100
AcDbEntity
  8
SK2
  6
CONTINUOUS
370
25
 62
7
100
AcDbLine
 10
47.97354499241749
 20
13.9058489315165
 30
0.0
 11
48.649029994945
 21
13.230363928989
 31
0.0
  0
LINE
  5
8E1
330
1F
100
AcDbEntity
  8
SK2
  6
CONTINUOUS
370
25
 62
7
100
AcDbLine
 10
48.5038750783074
 20
13.79978291433852
 30
0.0
 11
49.00258338553827
 21
13.30107460710765
 31
0.0
  0
LINE
  5
8E2
330
1F
100
AcDbEntity
  8
SK2
  6
CONTINUOUS
370
25
 62
7
100
AcDbLine
 10
49.03420516419732
 20
13.69371689716054
 30
0.0
 11
49.35613677613154
 21
13.37178528522631
 31
0.0
  0
LINE
  5
8E3
330
1F
100
AcDbEntity
  8
SK2
  6
CONTINUOUS
370
25
 62
7
100
AcDbLine
 10
49.56453525008722
 20
13.58765087998255
 30
0.0
 11
49.70969016672482
 21
13.44249596334496
 31
0.0
  0
TEXT
  5
8E4
330
1F
100
AcDbEntity
  8
SK2
  6
CONTINUOUS
370
25
 62
7
100
AcDbText
 10
22.375
 20
15.00055793
 30
0.0
 40
3.5
  1
50
 72
     1
 11
25.0
 21
15.00055793
 31
0.0
100
AcDbText
  0
LINE
  5
8E5
330
1F
100
AcDbEntity
  8
2
  6
CONTINUOUS
370
25
 62
7
100
AcDbLine
 10
104.30053851
 20
-1.5
 30
0.0
 11
138.0
 21
-1.500000000000004
 31
0.0
  0
LINE
  5
8E6
330
1F
100
AcDbEntity
  8
2
  6
CONTINUOUS
370
25
 62
7
100
AcDbLine
 10
138.0
 20
1.499999999999996
 30
0.0
 11
104.30053851
 21
1.5
 31
0.0
  0
LINE
  5
8E7
330
1F
100
AcDbEntity
  8
2
  6
CONTINUOUS
370
25
 62
7
100
AcDbLine
 10
137.0
 20
-8.500000000000004
 30
0.0
 11
137.0
 21
14.975
 31
0.0
  0
LINE
  5
8E8
330
1F
100
AcDbEntity
  8
2
  6
CONTINUOUS
370
25
 62
7
100
AcDbLine
 10
137.0
 20
-1.500000000000004
 30
0.0
 11
138.0
 21
-6.500000000000004
 31
0.0
  0
LINE
  5
8E9
330
1F
100
AcDbEntity
  8
2
  6
CONTINUOUS
370
25
 62
7
100
AcDbLine
 10
138.0
 20
-6.500000000000004
 30
0.0
 11
136.0
 21
-6.500000000000004
 31
0.0
  0
LINE
  5
8EA
330
1F
100
AcDbEntity
  8
2
  6
CONTINUOUS
370
25
 62
7
100
AcDbLine
 10
136.0
 20
-6.500000000000004
 30
0.0
 11
137.0
 21
-1.500000000000004
 31
0.0
  0
LINE
  5
8EB
330
1F
100
AcDbEntity
  8
2
  6
CONTINUOUS
370
25
 62
7
100
AcDbLine
 10
137.9936749317924
 20
-6.5
 30
0.0
 11
137.9989458219654
 21
-6.49472910982702
 31
0.0
  0
LINE
  5
8EC
330
1F
100
AcDbEntity
  8
2
  6
CONTINUOUS
370
25
 62
7
100
AcDbLine
 10
137.5694108630805
 20
-6.5
 30
0.0
 11
137.9282351438467
 21
-6.141175719233729
 31
0.0
  0
LINE
  5
8ED
330
1F
100
AcDbEntity
  8
2
  6
CONTINUOUS
370
25
 62
7
100
AcDbLine
 10
137.1451467943685
 20
-6.5
 30
0.0
 11
137.8575244657281
 21
-5.787622328640452
 31
0.0
  0
LINE
  5
8EE
330
1F
100
AcDbEntity
  8
2
  6
CONTINUOUS
370
25
 62
7
100
AcDbLine
 10
136.7208827256566
 20
-6.5
 30
0.0
 11
137.7868137876094
 21
-5.43406893804719
 31
0.0
  0
LINE
  5
8EF
330
1F
100
AcDbEntity
  8
2
  6
CONTINUOUS
370
25
 62
7
100
AcDbLine
 10
136.2966186569447
 20
-6.5
 30
0.0
 11
137.7161031094908
 21
-5.080515547453928
 31
0.0
  0
LINE
  5
8F0
330
1F
100
AcDbEntity
  8
2
  6
CONTINUOUS
370
25
 62
7
100
AcDbLine
 10
136.0319113529418
 20
-6.340443235290991
 30
0.0
 11
137.6453924313722
 21
-4.726962156860651
 31
0.0
  0
LINE
  5
8F1
330
1F
100
AcDbEntity
  8
2
  6
CONTINUOUS
370
25
 62
7
100
AcDbLine
 10
136.1379773701198
 20
-5.810113149401076
 30
0.0
 11
137.5746817532535
 21
-4.373408766267374
 31
0.0
  0
LINE
  5
8F2
330
1F
100
AcDbEntity
  8
2
  6
CONTINUOUS
370
25
 62
7
100
AcDbLine
 10
136.2440433872978
 20
-5.279783063511175
 30
0.0
 11
137.5039710751348
 21
-4.019855375674126
 31
0.0
  0
LINE
  5
8F3
330
1F
100
AcDbEntity
  8
2
  6
CONTINUOUS
370
25
 62
7
100
AcDbLine
 10
136.3501094044757
 20
-4.749452977621274
 30
0.0
 11
137.4332603970162
 21
-3.666301985080864
 31
0.0
  0
LINE
  5
8F4
330
1F
100
AcDbEntity
  8
2
  6
CONTINUOUS
370
25
 62
7
100
AcDbLine
 10
136.4561754216537
 20
-4.219122891731374
 30
0.0
 11
137.3625497188975
 21
-3.312748594487587
 31
0.0
  0
LINE
  5
8F5
330
1F
100
AcDbEntity
  8
2
  6
CONTINUOUS
370
25
 62
7
100
AcDbLine
 10
136.5622414388317
 20
-3.688792805841459
 30
0.0
 11
137.2918390407789
 21
-2.959195203894311
 31
0.0
  0
LINE
  5
8F6
330
1F
100
AcDbEntity
  8
2
  6
CONTINUOUS
370
25
 62
7
100
AcDbLine
 10
136.6683074560097
 20
-3.158462719951558
 30
0.0
 11
137.2211283626602
 21
-2.605641813301034
 31
0.0
  0
LINE
  5
8F7
330
1F
100
AcDbEntity
  8
2
  6
CONTINUOUS
370
25
 62
7
100
AcDbLine
 10
136.7743734731877
 20
-2.628132634061657
 30
0.0
 11
137.1504176845415
 21
-2.252088422707786
 31
0.0
  0
LINE
  5
8F8
330
1F
100
AcDbEntity
  8
2
  6
CONTINUOUS
370
25
 62
7
100
AcDbLine
 10
136.8804394903656
 20
-2.097802548171742
 30
0.0
 11
137.0797070064229
 21
-1.898535032114495
 31
0.0
  0
LINE
  5
8F9
330
1F
100
AcDbEntity
  8
2
  6
CONTINUOUS
370
25
 62
7
100
AcDbLine
 10
136.9865055075436
 20
-1.567472462281842
 30
0.0
 11
137.0089963283042
 21
-1.544981641521233
 31
0.0
  0
LINE
  5
8FA
330
1F
100
AcDbEntity
  8
2
  6
CONTINUOUS
370
25
 62
7
100
AcDbLine
 10
136.0436074863072
 20
-6.281962568464209
 30
0.0
 11
136.2616449178429
 21
-6.5
 31
0.0
  0
LINE
  5
8FB
330
1F
100
AcDbEntity
  8
2
  6
CONTINUOUS
370
25
 62
7
100
AcDbLine
 10
136.1143181644258
 20
-5.928409177870947
 30
0.0
 11
136.6859089865549
 21
-6.5
 31
0.0
  0
LINE
  5
8FC
330
1F
100
AcDbEntity
  8
2
  6
CONTINUOUS
370
25
 62
7
100
AcDbLine
 10
136.1850288425445
 20
-5.57485578727767
 30
0.0
 11
137.1101730552668
 21
-6.5
 31
0.0
  0
LINE
  5
8FD
330
1F
100
AcDbEntity
  8
2
  6
CONTINUOUS
370
25
 62
7
100
AcDbLine
 10
136.2557395206631
 20
-5.221302396684393
 30
0.0
 11
137.5344371239787
 21
-6.5
 31
0.0
  0
LINE
  5
8FE
330
1F
100
AcDbEntity
  8
2
  6
CONTINUOUS
370
25
 62
7
100
AcDbLine
 10
136.3264501987818
 20
-4.867749006091145
 30
0.0
 11
137.9587011926906
 21
-6.5
 31
0.0
  0
LINE
  5
8FF
330
1F
100
AcDbEntity
  8
2
  6
CONTINUOUS
370
25
 62
7
100
AcDbLine
 10
136.3971608769004
 20
-4.514195615497854
 30
0.0
 11
137.9042586846494
 21
-6.021293423246789
 31
0.0
  0
LINE
  5
900
330
1F
100
AcDbEntity
  8
2
  6
CONTINUOUS
370
25
 62
7
100
AcDbLine
 10
136.4678715550191
 20
-4.160642224904592
 30
0.0
 11
137.7981926674714
 21
-5.490963337356874
 31
0.0
  0
LINE
  5
901
330
1F
100
AcDbEntity
  8
2
  6
CONTINUOUS
370
25
 62
7
100
AcDbLine
 10
136.5385822331377
 20
-3.807088834311315
 30
0.0
 11
137.6921266502934
 21
-4.960633251466973
 31
0.0
  0
LINE
  5
902
330
1F
100
AcDbEntity
  8
2
  6
CONTINUOUS
370
25
 62
7
100
AcDbLine
 10
136.6092929112564
 20
-3.453535443718053
 30
0.0
 11
137.5860606331154
 21
-4.430303165577072
 31
0.0
  0
LINE
  5
903
330
1F
100
AcDbEntity
  8
2
  6
CONTINUOUS
370
25
 62
7
100
AcDbLine
 10
136.6800035893751
 20
-3.099982053124791
 30
0.0
 11
137.4799946159374
 21
-3.899973079687157
 31
0.0
  0
LINE
  5
904
330
1F
100
AcDbEntity
  8
2
  6
CONTINUOUS
370
25
 62
7
100
AcDbLine
 10
136.7507142674937
 20
-2.746428662531514
 30
0.0
 11
137.3739285987594
 21
-3.369642993797271
 31
0.0
  0
LINE
  5
905
330
1F
100
AcDbEntity
  8
2
  6
CONTINUOUS
370
25
 62
7
100
AcDbLine
 10
136.8214249456124
 20
-2.392875271938237
 30
0.0
 11
137.2678625815815
 21
-2.839312907907356
 31
0.0
  0
LINE
  5
906
330
1F
100
AcDbEntity
  8
2
  6
CONTINUOUS
370
25
 62
7
100
AcDbLine
 10
136.892135623731
 20
-2.039321881344975
 30
0.0
 11
137.1617965644035
 21
-2.308982822017455
 31
0.0
  0
LINE
  5
907
330
1F
100
AcDbEntity
  8
2
  6
CONTINUOUS
370
25
 62
7
100
AcDbLine
 10
136.9628463018497
 20
-1.685768490751698
 30
0.0
 11
137.0557305472255
 21
-1.77865273612754
 31
0.0
  0
LINE
  5
908
330
1F
100
AcDbEntity
  8
2
  6
CONTINUOUS
370
25
 62
7
100
AcDbLine
 10
137.0
 20
1.499999999999996
 30
0.0
 11
136.0
 21
6.499999999999996
 31
0.0
  0
LINE
  5
909
330
1F
100
AcDbEntity
  8
2
  6
CONTINUOUS
370
25
 62
7
100
AcDbLine
 10
136.0
 20
6.499999999999996
 30
0.0
 11
138.0
 21
6.499999999999996
 31
0.0
  0
LINE
  5
90A
330
1F
100
AcDbEntity
  8
2
  6
CONTINUOUS
370
25
 62
7
100
AcDbLine
 10
138.0
 20
6.499999999999996
 30
0.0
 11
137.0
 21
1.499999999999996
 31
0.0
  0
LINE
  5
90B
330
1F
100
AcDbEntity
  8
2
  6
CONTINUOUS
370
25
 62
7
100
AcDbLine
 10
136.9636500051972
 20
1.68174997401394
 30
0.0
 11
137.0545249922042
 21
1.772624961020924
 31
0.0
  0
LINE
  5
90C
330
1F
100
AcDbEntity
  8
2
  6
CONTINUOUS
370
25
 62
7
100
AcDbLine
 10
136.8929393270786
 20
2.035303364607216
 30
0.0
 11
137.1605910093822
 21
2.30295504691081
 31
0.0
  0
LINE
  5
90D
330
1F
100
AcDbEntity
  8
2
  6
CONTINUOUS
370
25
 62
7
100
AcDbLine
 10
136.8222286489599
 20
2.388856755200479
 30
0.0
 11
137.2666570265602
 21
2.833285132800739
 31
0.0
  0
LINE
  5
90E
330
1F
100
AcDbEntity
  8
2
  6
CONTINUOUS
370
25
 62
7
100
AcDbLine
 10
136.7515179708412
 20
2.742410145793755
 30
0.0
 11
137.3727230437381
 21
3.36361521869064
 31
0.0
  0
LINE
  5
90F
330
1F
100
AcDbEntity
  8
2
  6
CONTINUOUS
370
25
 62
7
100
AcDbLine
 10
136.6808072927226
 20
3.095963536387018
 30
0.0
 11
137.4787890609161
 21
3.893945304580541
 31
0.0
  0
LINE
  5
910
330
1F
100
AcDbEntity
  8
2
  6
CONTINUOUS
370
25
 62
7
100
AcDbLine
 10
136.6100966146039
 20
3.449516926980294
 30
0.0
 11
137.5848550780941
 21
4.424275390470456
 31
0.0
  0
LINE
  5
911
330
1F
100
AcDbEntity
  8
2
  6
CONTINUOUS
370
25
 62
7
100
AcDbLine
 10
136.5393859364853
 20
3.803070317573571
 30
0.0
 11
137.6909210952721
 21
4.954605476360356
 31
0.0
  0
LINE
  5
912
330
1F
100
AcDbEntity
  8
2
  6
CONTINUOUS
370
25
 62
7
100
AcDbLine
 10
136.4686752583666
 20
4.156623708166833
 30
0.0
 11
137.79698711245
 21
5.484935562250257
 31
0.0
  0
LINE
  5
913
330
1F
100
AcDbEntity
  8
2
  6
CONTINUOUS
370
25
 62
7
100
AcDbLine
 10
136.397964580248
 20
4.51017709876011
 30
0.0
 11
137.903053129628
 21
6.015265648140144
 31
0.0
  0
LINE
  5
914
330
1F
100
AcDbEntity
  8
2
  6
CONTINUOUS
370
25
 62
7
100
AcDbLine
 10
136.3272539021293
 20
4.863730489353387
 30
0.0
 11
137.9635234127759
 21
6.5
 31
0.0
  0
LINE
  5
915
330
1F
100
AcDbEntity
  8
2
  6
CONTINUOUS
370
25
 62
7
100
AcDbLine
 10
136.2565432240107
 20
5.217283879946663
 30
0.0
 11
137.539259344064
 21
6.5
 31
0.0
  0
LINE
  5
916
330
1F
100
AcDbEntity
  8
2
  6
CONTINUOUS
370
25
 62
7
100
AcDbLine
 10
136.185832545892
 20
5.570837270539911
 30
0.0
 11
137.1149952753521
 21
6.5
 31
0.0
  0
LINE
  5
917
330
1F
100
AcDbEntity
  8
2
  6
CONTINUOUS
370
25
 62
7
100
AcDbLine
 10
136.1151218677734
 20
5.92439066113316
 30
0.0
 11
136.6907312066402
 21
6.5
 31
0.0
  0
LINE
  5
918
330
1F
100
AcDbEntity
  8
2
  6
CONTINUOUS
370
25
 62
7
100
AcDbLine
 10
136.0444111896547
 20
6.27794405172645
 30
0.0
 11
136.2664671379283
 21
6.5
 31
0.0
  0
LINE
  5
919
330
1F
100
AcDbEntity
  8
2
  6
CONTINUOUS
370
25
 62
7
100
AcDbLine
 10
136.9572024098017
 20
1.713987950991751
 30
0.0
 11
137.0285317267989
 21
1.6426586339945
 31
0.0
  0
LINE
  5
91A
330
1F
100
AcDbEntity
  8
2
  6
CONTINUOUS
370
25
 62
7
100
AcDbLine
 10
136.8511363926237
 20
2.244318036881651
 30
0.0
 11
137.0992424049176
 21
1.996212024587763
 31
0.0
  0
LINE
  5
91B
330
1F
100
AcDbEntity
  8
2
  6
CONTINUOUS
370
25
 62
7
100
AcDbLine
 10
136.7450703754457
 20
2.774648122771566
 30
0.0
 11
137.1699530830362
 21
2.349765415181054
 31
0.0
  0
LINE
  5
91C
330
1F
100
AcDbEntity
  8
2
  6
CONTINUOUS
370
25
 62
7
100
AcDbLine
 10
136.6390043582677
 20
3.304978208661481
 30
0.0
 11
137.2406637611548
 21
2.703318805774316
 31
0.0
  0
LINE
  5
91D
330
1F
100
AcDbEntity
  8
2
  6
CONTINUOUS
370
25
 62
7
100
AcDbLine
 10
136.5329383410897
 20
3.835308294551368
 30
0.0
 11
137.3113744392735
 21
3.056872196367593
 31
0.0
  0
LINE
  5
91E
330
1F
100
AcDbEntity
  8
2
  6
CONTINUOUS
370
25
 62
7
100
AcDbLine
 10
136.4268723239118
 20
4.365638380441268
 30
0.0
 11
137.3820851173922
 21
3.410425586960841
 31
0.0
  0
LINE
  5
91F
330
1F
100
AcDbEntity
  8
2
  6
CONTINUOUS
370
25
 62
7
100
AcDbLine
 10
136.3208063067338
 20
4.895968466331183
 30
0.0
 11
137.4527957955108
 21
3.763978977554132
 31
0.0
  0
LINE
  5
920
330
1F
100
AcDbEntity
  8
2
  6
CONTINUOUS
370
25
 62
7
100
AcDbLine
 10
136.2147402895558
 20
5.426298552221084
 30
0.0
 11
137.5235064736295
 21
4.117532368147394
 31
0.0
  0
LINE
  5
921
330
1F
100
AcDbEntity
  8
2
  6
CONTINUOUS
370
25
 62
7
100
AcDbLine
 10
136.1086742723778
 20
5.956628638110985
 30
0.0
 11
137.5942171517481
 21
4.471085758740671
 31
0.0
  0
LINE
  5
922
330
1F
100
AcDbEntity
  8
2
  6
CONTINUOUS
370
25
 62
7
100
AcDbLine
 10
136.0026082551998
 20
6.486958724000885
 30
0.0
 11
137.6649278298668
 21
4.824639149333933
 31
0.0
  0
LINE
  5
923
330
1F
100
AcDbEntity
  8
2
  6
CONTINUOUS
370
25
 62
7
100
AcDbLine
 10
136.4138310479127
 20
6.5
 30
0.0
 11
137.7356385079854
 21
5.178192539927196
 31
0.0
  0
LINE
  5
924
330
1F
100
AcDbEntity
  8
2
  6
CONTINUOUS
370
25
 62
7
100
AcDbLine
 10
136.8380951166246
 20
6.5
 30
0.0
 11
137.8063491861041
 21
5.531745930520458
 31
0.0
  0
LINE
  5
925
330
1F
100
AcDbEntity
  8
2
  6
CONTINUOUS
370
25
 62
7
100
AcDbLine
 10
137.2623591853365
 20
6.5
 30
0.0
 11
137.8770598642228
 21
5.885299321113735
 31
0.0
  0
LINE
  5
926
330
1F
100
AcDbEntity
  8
2
  6
CONTINUOUS
370
25
 62
7
100
AcDbLine
 10
137.6866232540484
 20
6.5
 30
0.0
 11
137.9477705423414
 21
6.238852711707011
 31
0.0
  0
TEXT
  5
927
330
1F
100
AcDbEntity
  8
2
  6
CONTINUOUS
370
25
 62
7
100
AcDbText
 10
135.5
 20
11.84583333333333
 30
0.0
 40
3.5
  1
3
 50
90.00000000000001
 72
     1
 11
135.5
 21
13.0125
 31
0.0
100
AcDbText
  0
CIRCLE
  5
928
330
1F
100
AcDbEntity
  8
2
  6
CONTINUOUS
370
25
 62
7
100
AcDbCircle
 10
133.75
 20
9.687499999999996
 30
0.0
 40
1.4
  0
LINE
  5
929
330
1F
100
AcDbEntity
  8
2
  6
CONTINUOUS
370
25
 62
7
100
AcDbLine
 10
135.15
 20
8.287499999999998
 30
0.0
 11
132.35
 21
11.0875
 31
0.0
  0
LINE
  5
92A
330
1F
100
AcDbEntity
  8
2
  6
CONTINUOUS
370
25
 62
7
100
AcDbLine
 10
50.0
 20
1.5
 30
0.0
 11
50.0
 21
24.5
 31
0.0
  0
LINE
  5
92B
330
1F
100
AcDbEntity
  8
2
  6
CONTINUOUS
370
25
 62
7
100
AcDbLine
 10
105.0
 20
24.5
 30
0.0
 11
105.0
 21
0.0
 31
0.0
  0
LINE
  5
92C
330
1F
100
AcDbEntity
  8
2
  6
CONTINUOUS
370
25
 62
7
100
AcDbLine
 10
50.0
 20
23.5
 30
0.0
 11
105.0
 21
23.5
 31
0.0
  0
LINE
  5
92D
330
1F
100
AcDbEntity
  8
2
  6
CONTINUOUS
370
25
 62
7
100
AcDbLine
 10
50.0
 20
23.5
 30
0.0
 11
55.0
 21
24.5
 31
0.0
  0
LINE
  5
92E
330
1F
100
AcDbEntity
  8
2
  6
CONTINUOUS
370
25
 62
7
100
AcDbLine
 10
55.0
 20
24.5
 30
0.0
 11
55.0
 21
22.5
 31
0.0
  0
LINE
  5
92F
330
1F
100
AcDbEntity
  8
2
  6
CONTINUOUS
370
25
 62
7
100
AcDbLine
 10
55.0
 20
22.5
 30
0.0
 11
50.0
 21
23.5
 31
0.0
  0
LINE
  5
930
330
1F
100
AcDbEntity
  8
2
  6
CONTINUOUS
370
25
 62
7
100
AcDbLine
 10
54.73409092841587
 20
22.55318181431683
 30
0.0
 11
55.0
 21
22.81909088590096
 31
0.0
  0
LINE
  5
931
330
1F
100
AcDbEntity
  8
2
  6
CONTINUOUS
370
25
 62
7
100
AcDbLine
 10
54.38053753782259
 20
22.62389249243548
 30
0.0
 11
55.0
 21
23.24335495461289
 31
0.0
  0
LINE
  5
932
330
1F
100
AcDbEntity
  8
2
  6
CONTINUOUS
370
25
 62
7
100
AcDbLine
 10
54.02698414722932
 20
22.69460317055414
 30
0.0
 11
55.0
 21
23.66761902332482
 31
0.0
  0
LINE
  5
933
330
1F
100
AcDbEntity
  8
2
  6
CONTINUOUS
370
25
 62
7
100
AcDbLine
 10
53.67343075663604
 20
22.76531384867279
 30
0.0
 11
55.0
 21
24.09188309203675
 31
0.0
  0
LINE
  5
934
330
1F
100
AcDbEntity
  8
2
  6
CONTINUOUS
370
25
 62
7
100
AcDbLine
 10
53.31987736604277
 20
22.83602452679144
 30
0.0
 11
54.97981604906416
 21
24.49596320981283
 31
0.0
  0
LINE
  5
935
330
1F
100
AcDbEntity
  8
2
  6
CONTINUOUS
370
25
 62
7
100
AcDbLine
 10
52.9663239754495
 20
22.9067352049101
 30
0.0
 11
54.44948596317425
 21
24.38989719263485
 31
0.0
  0
LINE
  5
936
330
1F
100
AcDbEntity
  8
2
  6
CONTINUOUS
370
25
 62
7
100
AcDbLine
 10
52.61277058485623
 20
22.97744588302875
 30
0.0
 11
53.91915587728434
 21
24.28383117545687
 31
0.0
  0
LINE
  5
937
330
1F
100
AcDbEntity
  8
2
  6
CONTINUOUS
370
25
 62
7
100
AcDbLine
 10
52.25921719426295
 20
23.04815656114741
 30
0.0
 11
53.38882579139443
 21
24.17776515827889
 31
0.0
  0
LINE
  5
938
330
1F
100
AcDbEntity
  8
2
  6
CONTINUOUS
370
25
 62
7
100
AcDbLine
 10
51.90566380366968
 20
23.11886723926606
 30
0.0
 11
52.85849570550452
 21
24.0716991411009
 31
0.0
  0
LINE
  5
939
330
1F
100
AcDbEntity
  8
2
  6
CONTINUOUS
370
25
 62
7
100
AcDbLine
 10
51.55211041307641
 20
23.18957791738472
 30
0.0
 11
52.32816561961461
 21
23.96563312392292
 31
0.0
  0
LINE
  5
93A
330
1F
100
AcDbEntity
  8
2
  6
CONTINUOUS
370
25
 62
7
100
AcDbLine
 10
51.19855702248314
 20
23.26028859550337
 30
0.0
 11
51.7978355337247
 21
23.85956710674494
 31
0.0
  0
LINE
  5
93B
330
1F
100
AcDbEntity
  8
2
  6
CONTINUOUS
370
25
 62
7
100
AcDbLine
 10
50.84500363188986
 20
23.33099927362203
 30
0.0
 11
51.26750544783479
 21
23.75350108956696
 31
0.0
  0
LINE
  5
93C
330
1F
100
AcDbEntity
  8
2
  6
CONTINUOUS
370
25
 62
7
100
AcDbLine
 10
50.49145024129659
 20
23.40170995174068
 30
0.0
 11
50.73717536194489
 21
23.64743507238898
 31
0.0
  0
LINE
  5
93D
330
1F
100
AcDbEntity
  8
2
  6
CONTINUOUS
370
25
 62
7
100
AcDbLine
 10
50.13789685070331
 20
23.47242062985934
 30
0.0
 11
50.20684527605497
 21
23.541369055211
 31
0.0
  0
LINE
  5
93E
330
1F
100
AcDbEntity
  8
2
  6
CONTINUOUS
370
25
 62
7
100
AcDbLine
 10
50.21565653988997
 20
23.54313130797799
 30
0.0
 11
50.32348480983495
 21
23.43530303803301
 31
0.0
  0
LINE
  5
93F
330
1F
100
AcDbEntity
  8
2
  6
CONTINUOUS
370
25
 62
7
100
AcDbLine
 10
50.56920993048324
 20
23.61384198609665
 30
0.0
 11
50.85381489572486
 21
23.32923702085503
 31
0.0
  0
LINE
  5
940
330
1F
100
AcDbEntity
  8
2
  6
CONTINUOUS
370
25
 62
7
100
AcDbLine
 10
50.92276332107652
 20
23.6845526642153
 30
0.0
 11
51.38414498161477
 21
23.22317100367705
 31
0.0
  0
LINE
  5
941
330
1F
100
AcDbEntity
  8
2
  6
CONTINUOUS
370
25
 62
7
100
AcDbLine
 10
51.27631671166979
 20
23.75526334233396
 30
0.0
 11
51.91447506750468
 21
23.11710498649906
 31
0.0
  0
LINE
  5
942
330
1F
100
AcDbEntity
  8
2
  6
CONTINUOUS
370
25
 62
7
100
AcDbLine
 10
51.62987010226306
 20
23.82597402045261
 30
0.0
 11
52.44480515339459
 21
23.01103896932108
 31
0.0
  0
LINE
  5
943
330
1F
100
AcDbEntity
  8
2
  6
CONTINUOUS
370
25
 62
7
100
AcDbLine
 10
51.98342349285633
 20
23.89668469857127
 30
0.0
 11
52.9751352392845
 21
22.9049729521431
 31
0.0
  0
LINE
  5
944
330
1F
100
AcDbEntity
  8
2
  6
CONTINUOUS
370
25
 62
7
100
AcDbLine
 10
52.33697688344961
 20
23.96739537668992
 30
0.0
 11
53.50546532517441
 21
22.79890693496512
 31
0.0
  0
LINE
  5
945
330
1F
100
AcDbEntity
  8
2
  6
CONTINUOUS
370
25
 62
7
100
AcDbLine
 10
52.69053027404288
 20
24.03810605480858
 30
0.0
 11
54.03579541106432
 21
22.69284091778714
 31
0.0
  0
LINE
  5
946
330
1F
100
AcDbEntity
  8
2
  6
CONTINUOUS
370
25
 62
7
100
AcDbLine
 10
53.04408366463615
 20
24.10881673292723
 30
0.0
 11
54.56612549695424
 21
22.58677490060915
 31
0.0
  0
LINE
  5
947
330
1F
100
AcDbEntity
  8
2
  6
CONTINUOUS
370
25
 62
7
100
AcDbLine
 10
53.39763705522942
 20
24.17952741104589
 30
0.0
 11
55.0
 21
22.57716446627531
 31
0.0
  0
LINE
  5
948
330
1F
100
AcDbEntity
  8
2
  6
CONTINUOUS
370
25
 62
7
100
AcDbLine
 10
53.7511904458227
 20
24.25023808916454
 30
0.0
 11
55.0
 21
23.00142853498724
 31
0.0
  0
LINE
  5
949
330
1F
100
AcDbEntity
  8
2
  6
CONTINUOUS
370
25
 62
7
100
AcDbLine
 10
54.10474383641598
 20
24.32094876728319
 30
0.0
 11
55.0
 21
23.42569260369917
 31
0.0
  0
LINE
  5
94A
330
1F
100
AcDbEntity
  8
2
  6
CONTINUOUS
370
25
 62
7
100
AcDbLine
 10
54.45829722700925
 20
24.39165944540185
 30
0.0
 11
55.0
 21
23.8499566724111
 31
0.0
  0
LINE
  5
94B
330
1F
100
AcDbEntity
  8
2
  6
CONTINUOUS
370
25
 62
7
100
AcDbLine
 10
54.81185061760252
 20
24.4623701235205
 30
0.0
 11
55.0
 21
24.27422074112302
 31
0.0
  0
LINE
  5
94C
330
1F
100
AcDbEntity
  8
2
  6
CONTINUOUS
370
25
 62
7
100
AcDbLine
 10
105.0
 20
23.5
 30
0.0
 11
100.0
 21
22.5
 31
0.0
  0
LINE
  5
94D
330
1F
100
AcDbEntity
  8
2
  6
CONTINUOUS
370
25
 62
7
100
AcDbLine
 10
100.0
 20
22.5
 30
0.0
 11
100.0
 21
24.5
 31
0.0
  0
LINE
  5
94E
330
1F
100
AcDbEntity
  8
2
  6
CONTINUOUS
370
25
 62
7
100
AcDbLine
 10
100.0
 20
24.5
 30
0.0
 11
105.0
 21
23.5
 31
0.0
  0
LINE
  5
94F
330
1F
100
AcDbEntity
  8
2
  6
CONTINUOUS
370
25
 62
7
100
AcDbLine
 10
104.5792959469981
 20
23.41585918939963
 30
0.0
 11
104.7195306313321
 21
23.55609387373359
 31
0.0
  0
LINE
  5
950
330
1F
100
AcDbEntity
  8
2
  6
CONTINUOUS
370
25
 62
7
100
AcDbLine
 10
104.0489658611082
 20
23.30979317222165
 30
0.0
 11
104.3659772407388
 21
23.62680455185224
 31
0.0
  0
LINE
  5
951
330
1F
100
AcDbEntity
  8
2
  6
CONTINUOUS
370
25
 62
7
100
AcDbLine
 10
103.5186357752183
 20
23.20372715504367
 30
0.0
 11
104.0124238501456
 21
23.69751522997089
 31
0.0
  0
LINE
  5
952
330
1F
100
AcDbEntity
  8
2
  6
CONTINUOUS
370
25
 62
7
100
AcDbLine
 10
102.9883056893284
 20
23.09766113786567
 30
0.0
 11
103.6588704595523
 21
23.76822590808954
 31
0.0
  0
LINE
  5
953
330
1F
100
AcDbEntity
  8
2
  6
CONTINUOUS
370
25
 62
7
100
AcDbLine
 10
102.4579756034385
 20
22.9915951206877
 30
0.0
 11
103.305317068959
 21
23.8389365862082
 31
0.0
  0
LINE
  5
954
330
1F
100
AcDbEntity
  8
2
  6
CONTINUOUS
370
25
 62
7
100
AcDbLine
 10
101.9276455175486
 20
22.88552910350972
 30
0.0
 11
102.9517636783657
 21
23.90964726432686
 31
0.0
  0
LINE
  5
955
330
1F
100
AcDbEntity
  8
2
  6
CONTINUOUS
370
25
 62
7
100
AcDbLine
 10
101.3973154316587
 20
22.77946308633173
 30
0.0
 11
102.5982102877724
 21
23.98035794244552
 31
0.0
  0
LINE
  5
956
330
1F
100
AcDbEntity
  8
2
  6
CONTINUOUS
370
25
 62
7
100
AcDbLine
 10
100.8669853457688
 20
22.67339706915375
 30
0.0
 11
102.2446568971792
 21
24.05106862056416
 31
0.0
  0
LINE
  5
957
330
1F
100
AcDbEntity
  8
2
  6
CONTINUOUS
370
25
 62
7
100
AcDbLine
 10
100.3366552598788
 20
22.56733105197576
 30
0.0
 11
101.8911035065859
 21
24.12177929868282
 31
0.0
  0
LINE
  5
958
330
1F
100
AcDbEntity
  8
2
  6
CONTINUOUS
370
25
 62
7
100
AcDbLine
 10
100.0
 20
22.65493986080886
 30
0.0
 11
101.5375501159926
 21
24.19248997680148
 31
0.0
  0
LINE
  5
959
330
1F
100
AcDbEntity
  8
2
  6
CONTINUOUS
370
25
 62
7
100
AcDbLine
 10
100.0
 20
23.07920392952079
 30
0.0
 11
101.1839967253993
 21
24.26320065492013
 31
0.0
  0
LINE
  5
95A
330
1F
100
AcDbEntity
  8
2
  6
CONTINUOUS
370
25
 62
7
100
AcDbLine
 10
100.0
 20
23.50346799823272
 30
0.0
 11
100.8304433348061
 21
24.33391133303879
 31
0.0
  0
LINE
  5
95B
330
1F
100
AcDbEntity
  8
2
  6
CONTINUOUS
370
25
 62
7
100
AcDbLine
 10
100.0
 20
23.92773206694465
 30
0.0
 11
100.4768899442128
 21
24.40462201115744
 31
0.0
  0
LINE
  5
95C
330
1F
100
AcDbEntity
  8
2
  6
CONTINUOUS
370
25
 62
7
100
AcDbLine
 10
100.0
 20
24.35199613565658
 30
0.0
 11
100.1233365536195
 21
24.4753326892761
 31
0.0
  0
LINE
  5
95D
330
1F
100
AcDbEntity
  8
2
  6
CONTINUOUS
370
25
 62
7
100
AcDbLine
 10
100.0
 20
22.54915574973977
 30
0.0
 11
100.0409631247831
 21
22.50819262495663
 31
0.0
  0
LINE
  5
95E
330
1F
100
AcDbEntity
  8
2
  6
CONTINUOUS
370
25
 62
7
100
AcDbLine
 10
100.0
 20
22.97341981845171
 30
0.0
 11
100.3945165153764
 21
22.57890330307529
 31
0.0
  0
LINE
  5
95F
330
1F
100
AcDbEntity
  8
2
  6
CONTINUOUS
370
25
 62
7
100
AcDbLine
 10
100.0
 20
23.39768388716363
 30
0.0
 11
100.7480699059697
 21
22.64961398119394
 31
0.0
  0
LINE
  5
960
330
1F
100
AcDbEntity
  8
2
  6
CONTINUOUS
370
25
 62
7
100
AcDbLine
 10
100.0
 20
23.82194795587557
 30
0.0
 11
101.101623296563
 21
22.7203246593126
 31
0.0
  0
LINE
  5
961
330
1F
100
AcDbEntity
  8
2
  6
CONTINUOUS
370
25
 62
7
100
AcDbLine
 10
100.0
 20
24.2462120245875
 30
0.0
 11
101.4551766871563
 21
22.79103533743125
 31
0.0
  0
LINE
  5
962
330
1F
100
AcDbEntity
  8
2
  6
CONTINUOUS
370
25
 62
7
100
AcDbLine
 10
100.2130951166243
 20
24.45738097667514
 30
0.0
 11
101.8087300777495
 21
22.86174601554991
 31
0.0
  0
LINE
  5
963
330
1F
100
AcDbEntity
  8
2
  6
CONTINUOUS
370
25
 62
7
100
AcDbLine
 10
100.7434252025142
 20
24.35131495949716
 30
0.0
 11
102.1622834683428
 21
22.93245669366856
 31
0.0
  0
LINE
  5
964
330
1F
100
AcDbEntity
  8
2
  6
CONTINUOUS
370
25
 62
7
100
AcDbLine
 10
101.2737552884041
 20
24.24524894231917
 30
0.0
 11
102.5158368589361
 21
23.00316737178722
 31
0.0
  0
LINE
  5
965
330
1F
100
AcDbEntity
  8
2
  6
CONTINUOUS
370
25
 62
7
100
AcDbLine
 10
101.804085374294
 20
24.13918292514119
 30
0.0
 11
102.8693902495293
 21
23.07387804990588
 31
0.0
  0
LINE
  5
966
330
1F
100
AcDbEntity
  8
2
  6
CONTINUOUS
370
25
 62
7
100
AcDbLine
 10
102.334415460184
 20
24.0331169079632
 30
0.0
 11
103.2229436401226
 21
23.14458872802453
 31
0.0
  0
LINE
  5
967
330
1F
100
AcDbEntity
  8
2
  6
CONTINUOUS
370
25
 62
7
100
AcDbLine
 10
102.8647455460739
 20
23.92705089078522
 30
0.0
 11
103.5764970307159
 21
23.21529940614319
 31
0.0
  0
LINE
  5
968
330
1F
100
AcDbEntity
  8
2
  6
CONTINUOUS
370
25
 62
7
100
AcDbLine
 10
103.3950756319638
 20
23.82098487360724
 30
0.0
 11
103.9300504213092
 21
23.28601008426184
 31
0.0
  0
LINE
  5
969
330
1F
100
AcDbEntity
  8
2
  6
CONTINUOUS
370
25
 62
7
100
AcDbLine
 10
103.9254057178537
 20
23.71491885642926
 30
0.0
 11
104.2836038119025
 21
23.3567207623805
 31
0.0
  0
LINE
  5
96A
330
1F
100
AcDbEntity
  8
2
  6
CONTINUOUS
370
25
 62
7
100
AcDbLine
 10
104.4557358037436
 20
23.60885283925128
 30
0.0
 11
104.6371572024957
 21
23.42743144049915
 31
0.0
  0
LINE
  5
96B
330
1F
100
AcDbEntity
  8
2
  6
CONTINUOUS
370
25
 62
7
100
AcDbLine
 10
104.9860658896335
 20
23.50278682207329
 30
0.0
 11
104.990710593089
 21
23.49814211861781
 31
0.0
  0
TEXT
  5
96C
330
1F
100
AcDbEntity
  8
2
  6
CONTINUOUS
370
25
 62
7
100
AcDbText
 10
74.58333333333333
 20
25.0
 30
0.0
 40
3.5
  1
55
 72
     1
 11
77.5
 21
25.0
 31
0.0
100
AcDbText
  0
LINE
  5
96D
330
1F
100
AcDbEntity
  8
2
  6
CONTINUOUS
370
25
 62
7
100
AcDbLine
 10
56.0
 20
-1.5
 30
0.0
 11
56.0
 21
-34.5
 31
0.0
  0
LINE
  5
96E
330
1F
100
AcDbEntity
  8
2
  6
CONTINUOUS
370
25
 62
7
100
AcDbLine
 10
105.0
 20
-34.5
 30
0.0
 11
105.0
 21
0.0
 31
0.0
  0
LINE
  5
96F
330
1F
100
AcDbEntity
  8
2
  6
CONTINUOUS
370
25
 62
7
100
AcDbLine
 10
56.0
 20
-33.5
 30
0.0
 11
105.0
 21
-33.5
 31
0.0
  0
LINE
  5
970
330
1F
100
AcDbEntity
  8
2
  6
CONTINUOUS
370
25
 62
7
100
AcDbLine
 10
56.0
 20
-33.5
 30
0.0
 11
61.0
 21
-32.5
 31
0.0
  0
LINE
  5
971
330
1F
100
AcDbEntity
  8
2
  6
CONTINUOUS
370
25
 62
7
100
AcDbLine
 10
61.0
 20
-32.5
 30
0.0
 11
61.0
 21
-34.5
 31
0.0
  0
LINE
  5
972
330
1F
100
AcDbEntity
  8
2
  6
CONTINUOUS
370
25
 62
7
100
AcDbLine
 10
61.0
 20
-34.5
 30
0.0
 11
56.0
 21
-33.5
 31
0.0
  0
LINE
  5
973
330
1F
100
AcDbEntity
  8
2
  6
CONTINUOUS
370
25
 62
7
100
AcDbLine
 10
60.82003569472048
 20
-34.4640071389441
 30
0.0
 11
61.0
 21
-34.28404283366458
 31
0.0
  0
LINE
  5
974
330
1F
100
AcDbEntity
  8
2
  6
CONTINUOUS
370
25
 62
7
100
AcDbLine
 10
60.46648230412721
 20
-34.39329646082544
 30
0.0
 11
61.0
 21
-33.85977876495265
 31
0.0
  0
LINE
  5
975
330
1F
100
AcDbEntity
  8
2
  6
CONTINUOUS
370
25
 62
7
100
AcDbLine
 10
60.11292891353393
 20
-34.32258578270678
 30
0.0
 11
61.0
 21
-33.43551469624072
 31
0.0
  0
LINE
  5
976
330
1F
100
AcDbEntity
  8
2
  6
CONTINUOUS
370
25
 62
7
100
AcDbLine
 10
59.75937552294066
 20
-34.25187510458813
 30
0.0
 11
61.0
 21
-33.01125062752879
 31
0.0
  0
LINE
  5
977
330
1F
100
AcDbEntity
  8
2
  6
CONTINUOUS
370
25
 62
7
100
AcDbLine
 10
59.40582213234738
 20
-34.18116442646947
 30
0.0
 11
61.0
 21
-32.58698655881686
 31
0.0
  0
LINE
  5
978
330
1F
100
AcDbEntity
  8
2
  6
CONTINUOUS
370
25
 62
7
100
AcDbLine
 10
59.05226874175411
 20
-34.11045374835082
 30
0.0
 11
60.57840311263116
 21
-32.58431937747377
 31
0.0
  0
LINE
  5
979
330
1F
100
AcDbEntity
  8
2
  6
CONTINUOUS
370
25
 62
7
100
AcDbLine
 10
58.69871535116084
 20
-34.03974307023216
 30
0.0
 11
60.04807302674125
 21
-32.69038539465176
 31
0.0
  0
LINE
  5
97A
330
1F
100
AcDbEntity
  8
2
  6
CONTINUOUS
370
25
 62
7
100
AcDbLine
 10
58.34516196056756
 20
-33.9690323921135
 30
0.0
 11
59.51774294085133
 21
-32.79645141182974
 31
0.0
  0
LINE
  5
97B
330
1F
100
AcDbEntity
  8
2
  6
CONTINUOUS
370
25
 62
7
100
AcDbLine
 10
57.99160856997428
 20
-33.89832171399485
 30
0.0
 11
58.98741285496142
 21
-32.90251742900772
 31
0.0
  0
LINE
  5
97C
330
1F
100
AcDbEntity
  8
2
  6
CONTINUOUS
370
25
 62
7
100
AcDbLine
 10
57.63805517938101
 20
-33.8276110358762
 30
0.0
 11
58.45708276907151
 21
-33.0085834461857
 31
0.0
  0
LINE
  5
97D
330
1F
100
AcDbEntity
  8
2
  6
CONTINUOUS
370
25
 62
7
100
AcDbLine
 10
57.28450178878773
 20
-33.75690035775754
 30
0.0
 11
57.92675268318159
 21
-33.11464946336368
 31
0.0
  0
LINE
  5
97E
330
1F
100
AcDbEntity
  8
2
  6
CONTINUOUS
370
25
 62
7
100
AcDbLine
 10
56.93094839819446
 20
-33.68618967963889
 30
0.0
 11
57.39642259729168
 21
-33.22071548054166
 31
0.0
  0
LINE
  5
97F
330
1F
100
AcDbEntity
  8
2
  6
CONTINUOUS
370
25
 62
7
100
AcDbLine
 10
56.57739500760118
 20
-33.61547900152024
 30
0.0
 11
56.86609251140177
 21
-33.32678149771965
 31
0.0
  0
LINE
  5
980
330
1F
100
AcDbEntity
  8
2
  6
CONTINUOUS
370
25
 62
7
100
AcDbLine
 10
56.2238416170079
 20
-33.54476832340158
 30
0.0
 11
56.33576242551185
 21
-33.43284751489763
 31
0.0
  0
LINE
  5
981
330
1F
100
AcDbEntity
  8
2
  6
CONTINUOUS
370
25
 62
7
100
AcDbLine
 10
56.07826879606843
 20
-33.48434624078632
 30
0.0
 11
56.11740319410264
 21
-33.52348063882052
 31
0.0
  0
LINE
  5
982
330
1F
100
AcDbEntity
  8
2
  6
CONTINUOUS
370
25
 62
7
100
AcDbLine
 10
56.43182218666171
 20
-33.41363556266766
 30
0.0
 11
56.64773327999256
 21
-33.62954665599851
 31
0.0
  0
LINE
  5
983
330
1F
100
AcDbEntity
  8
2
  6
CONTINUOUS
370
25
 62
7
100
AcDbLine
 10
56.78537557725498
 20
-33.34292488454901
 30
0.0
 11
57.17806336588247
 21
-33.73561267317649
 31
0.0
  0
LINE
  5
984
330
1F
100
AcDbEntity
  8
2
  6
CONTINUOUS
370
25
 62
7
100
AcDbLine
 10
57.13892896784826
 20
-33.27221420643035
 30
0.0
 11
57.70839345177238
 21
-33.84167869035447
 31
0.0
  0
LINE
  5
985
330
1F
100
AcDbEntity
  8
2
  6
CONTINUOUS
370
25
 62
7
100
AcDbLine
 10
57.49248235844153
 20
-33.2015035283117
 30
0.0
 11
58.2387235376623
 21
-33.94774470753245
 31
0.0
  0
LINE
  5
986
330
1F
100
AcDbEntity
  8
2
  6
CONTINUOUS
370
25
 62
7
100
AcDbLine
 10
57.8460357490348
 20
-33.13079285019304
 30
0.0
 11
58.76905362355221
 21
-34.05381072471044
 31
0.0
  0
LINE
  5
987
330
1F
100
AcDbEntity
  8
2
  6
CONTINUOUS
370
25
 62
7
100
AcDbLine
 10
58.19958913962808
 20
-33.06008217207439
 30
0.0
 11
59.29938370944213
 21
-34.15987674188843
 31
0.0
  0
LINE
  5
988
330
1F
100
AcDbEntity
  8
2
  6
CONTINUOUS
370
25
 62
7
100
AcDbLine
 10
58.55314253022136
 20
-32.98937149395573
 30
0.0
 11
59.82971379533204
 21
-34.26594275906641
 31
0.0
  0
LINE
  5
989
330
1F
100
AcDbEntity
  8
2
  6
CONTINUOUS
370
25
 62
7
100
AcDbLine
 10
58.90669592081463
 20
-32.91866081583708
 30
0.0
 11
60.36004388122195
 21
-34.37200877624439
 31
0.0
  0
LINE
  5
98A
330
1F
100
AcDbEntity
  8
2
  6
CONTINUOUS
370
25
 62
7
100
AcDbLine
 10
59.26024931140791
 20
-32.84795013771842
 30
0.0
 11
60.89037396711187
 21
-34.47807479342237
 31
0.0
  0
LINE
  5
98B
330
1F
100
AcDbEntity
  8
2
  6
CONTINUOUS
370
25
 62
7
100
AcDbLine
 10
59.61380270200118
 20
-32.77723945959977
 30
0.0
 11
61.0
 21
-34.16343675759857
 31
0.0
  0
LINE
  5
98C
330
1F
100
AcDbEntity
  8
2
  6
CONTINUOUS
370
25
 62
7
100
AcDbLine
 10
59.96735609259446
 20
-32.70652878148111
 30
0.0
 11
61.0
 21
-33.73917268888664
 31
0.0
  0
LINE
  5
98D
330
1F
100
AcDbEntity
  8
2
  6
CONTINUOUS
370
25
 62
7
100
AcDbLine
 10
60.32090948318773
 20
-32.63581810336245
 30
0.0
 11
61.0
 21
-33.31490862017472
 31
0.0
  0
LINE
  5
98E
330
1F
100
AcDbEntity
  8
2
  6
CONTINUOUS
370
25
 62
7
100
AcDbLine
 10
60.67446287378101
 20
-32.5651074252438
 30
0.0
 11
61.0
 21
-32.89064455146278
 31
0.0
  0
LINE
  5
98F
330
1F
100
AcDbEntity
  8
2
  6
CONTINUOUS
370
25
 62
7
100
AcDbLine
 10
105.0
 20
-33.5
 30
0.0
 11
100.0
 21
-34.5
 31
0.0
  0
LINE
  5
990
330
1F
100
AcDbEntity
  8
2
  6
CONTINUOUS
370
25
 62
7
100
AcDbLine
 10
100.0
 20
-34.5
 30
0.0
 11
100.0
 21
-32.5
 31
0.0
  0
LINE
  5
991
330
1F
100
AcDbEntity
  8
2
  6
CONTINUOUS
370
25
 62
7
100
AcDbLine
 10
100.0
 20
-32.5
 30
0.0
 11
105.0
 21
-33.5
 31
0.0
  0
LINE
  5
992
330
1F
100
AcDbEntity
  8
2
  6
CONTINUOUS
370
25
 62
7
100
AcDbLine
 10
104.7650644377501
 20
-33.54698711244998
 30
0.0
 11
104.8433762918334
 21
-33.46867525836669
 31
0.0
  0
LINE
  5
993
330
1F
100
AcDbEntity
  8
2
  6
CONTINUOUS
370
25
 62
7
100
AcDbLine
 10
104.2347343518602
 20
-33.65305312962796
 30
0.0
 11
104.4898229012401
 21
-33.39796458024803
 31
0.0
  0
LINE
  5
994
330
1F
100
AcDbEntity
  8
2
  6
CONTINUOUS
370
25
 62
7
100
AcDbLine
 10
103.7044042659703
 20
-33.75911914680594
 30
0.0
 11
104.1362695106469
 21
-33.32725390212938
 31
0.0
  0
LINE
  5
995
330
1F
100
AcDbEntity
  8
2
  6
CONTINUOUS
370
25
 62
7
100
AcDbLine
 10
103.1740741800804
 20
-33.86518516398392
 30
0.0
 11
103.7827161200536
 21
-33.25654322401072
 31
0.0
  0
LINE
  5
996
330
1F
100
AcDbEntity
  8
2
  6
CONTINUOUS
370
25
 62
7
100
AcDbLine
 10
102.6437440941905
 20
-33.9712511811619
 30
0.0
 11
103.4291627294603
 21
-33.18583254589206
 31
0.0
  0
LINE
  5
997
330
1F
100
AcDbEntity
  8
2
  6
CONTINUOUS
370
25
 62
7
100
AcDbLine
 10
102.1134140083006
 20
-34.07731719833989
 30
0.0
 11
103.0756093388671
 21
-33.11512186777341
 31
0.0
  0
LINE
  5
998
330
1F
100
AcDbEntity
  8
2
  6
CONTINUOUS
370
25
 62
7
100
AcDbLine
 10
101.5830839224106
 20
-34.18338321551787
 30
0.0
 11
102.7220559482737
 21
-33.04441118965475
 31
0.0
  0
LINE
  5
999
330
1F
100
AcDbEntity
  8
2
  6
CONTINUOUS
370
25
 62
7
100
AcDbLine
 10
101.0527538365207
 20
-34.28944923269585
 30
0.0
 11
102.3685025576805
 21
-32.9737005115361
 31
0.0
  0
LINE
  5
99A
330
1F
100
AcDbEntity
  8
2
  6
CONTINUOUS
370
25
 62
7
100
AcDbLine
 10
100.5224237506308
 20
-34.39551524987385
 30
0.0
 11
102.0149491670872
 21
-32.90298983341744
 31
0.0
  0
LINE
  5
99B
330
1F
100
AcDbEntity
  8
2
  6
CONTINUOUS
370
25
 62
7
100
AcDbLine
 10
100.0
 20
-34.49367493179269
 30
0.0
 11
101.6613957764939
 21
-32.83227915529879
 31
0.0
  0
LINE
  5
99C
330
1F
100
AcDbEntity
  8
2
  6
CONTINUOUS
370
25
 62
7
100
AcDbLine
 10
100.0
 20
-34.06941086308076
 30
0.0
 11
101.3078423859006
 21
-32.76156847718013
 31
0.0
  0
LINE
  5
99D
330
1F
100
AcDbEntity
  8
2
  6
CONTINUOUS
370
25
 62
7
100
AcDbLine
 10
100.0
 20
-33.64514679436883
 30
0.0
 11
100.9542889953074
 21
-32.69085779906147
 31
0.0
  0
LINE
  5
99E
330
1F
100
AcDbEntity
  8
2
  6
CONTINUOUS
370
25
 62
7
100
AcDbLine
 10
100.0
 20
-33.22088272565691
 30
0.0
 11
100.6007356047141
 21
-32.62014712094282
 31
0.0
  0
LINE
  5
99F
330
1F
100
AcDbEntity
  8
2
  6
CONTINUOUS
370
25
 62
7
100
AcDbLine
 10
100.0
 20
-32.79661865694497
 30
0.0
 11
100.2471822141208
 21
-32.54943644282417
 31
0.0
  0
LINE
  5
9A0
330
1F
100
AcDbEntity
  8
2
  6
CONTINUOUS
370
25
 62
7
100
AcDbLine
 10
100.0
 20
-34.30222945765863
 30
0.0
 11
100.1648087852845
 21
-34.4670382429431
 31
0.0
  0
LINE
  5
9A1
330
1F
100
AcDbEntity
  8
2
  6
CONTINUOUS
370
25
 62
7
100
AcDbLine
 10
100.0
 20
-33.87796538894669
 30
0.0
 11
100.5183621758778
 21
-34.39632756482445
 31
0.0
  0
LINE
  5
9A2
330
1F
100
AcDbEntity
  8
2
  6
CONTINUOUS
370
25
 62
7
100
AcDbLine
 10
100.0
 20
-33.45370132023477
 30
0.0
 11
100.871915566471
 21
-34.32561688670579
 31
0.0
  0
LINE
  5
9A3
330
1F
100
AcDbEntity
  8
2
  6
CONTINUOUS
370
25
 62
7
100
AcDbLine
 10
100.0
 20
-33.02943725152284
 30
0.0
 11
101.2254689570643
 21
-34.25490620858714
 31
0.0
  0
LINE
  5
9A4
330
1F
100
AcDbEntity
  8
2
  6
CONTINUOUS
370
25
 62
7
100
AcDbLine
 10
100.0
 20
-32.6051731828109
 30
0.0
 11
101.5790223476576
 21
-34.18419553046849
 31
0.0
  0
LINE
  5
9A5
330
1F
100
AcDbEntity
  8
2
  6
CONTINUOUS
370
25
 62
7
100
AcDbLine
 10
100.3988636073763
 20
-32.57977272147527
 30
0.0
 11
101.9325757382509
 21
-34.11348485234981
 31
0.0
  0
LINE
  5
9A6
330
1F
100
AcDbEntity
  8
2
  6
CONTINUOUS
370
25
 62
7
100
AcDbLine
 10
100.9291936932662
 20
-32.68583873865325
 30
0.0
 11
102.2861291288442
 21
-34.04277417423117
 31
0.0
  0
LINE
  5
9A7
330
1F
100
AcDbEntity
  8
2
  6
CONTINUOUS
370
25
 62
7
100
AcDbLine
 10
101.4595237791561
 20
-32.79190475583123
 30
0.0
 11
102.6396825194374
 21
-33.97206349611253
 31
0.0
  0
LINE
  5
9A8
330
1F
100
AcDbEntity
  8
2
  6
CONTINUOUS
370
25
 62
7
100
AcDbLine
 10
101.9898538650461
 20
-32.89797077300921
 30
0.0
 11
102.9932359100307
 21
-33.90135281799385
 31
0.0
  0
LINE
  5
9A9
330
1F
100
AcDbEntity
  8
2
  6
CONTINUOUS
370
25
 62
7
100
AcDbLine
 10
102.520183950936
 20
-33.0040367901872
 30
0.0
 11
103.346789300624
 21
-33.83064213987521
 31
0.0
  0
LINE
  5
9AA
330
1F
100
AcDbEntity
  8
2
  6
CONTINUOUS
370
25
 62
7
100
AcDbLine
 10
103.0505140368259
 20
-33.11010280736517
 30
0.0
 11
103.7003426912173
 21
-33.75993146175655
 31
0.0
  0
LINE
  5
9AB
330
1F
100
AcDbEntity
  8
2
  6
CONTINUOUS
370
25
 62
7
100
AcDbLine
 10
103.5808441227158
 20
-33.21616882454316
 30
0.0
 11
104.0538960818105
 21
-33.68922078363789
 31
0.0
  0
LINE
  5
9AC
330
1F
100
AcDbEntity
  8
2
  6
CONTINUOUS
370
25
 62
7
100
AcDbLine
 10
104.1111742086057
 20
-33.32223484172115
 30
0.0
 11
104.4074494724038
 21
-33.61851010551923
 31
0.0
  0
LINE
  5
9AD
330
1F
100
AcDbEntity
  8
2
  6
CONTINUOUS
370
25
 62
7
100
AcDbLine
 10
104.6415042944956
 20
-33.42830085889914
 30
0.0
 11
104.7610028629971
 21
-33.54779942740059
 31
0.0
  0
TEXT
  5
9AE
330
1F
100
AcDbEntity
  8
2
  6
CONTINUOUS
370
25
 62
7
100
AcDbText
 10
77.58333333333333
 20
-32.0
 30
0.0
 40
3.5
  1
49
 72
     1
 11
80.5
 21
-32.0
 31
0.0
100
AcDbText
  0
LINE
  5
9AF
330
1F
100
AcDbEntity
  8
SK2
  6
CONTINUOUS
370
25
 62
7
100
AcDbLine
 10
0.0
 20
3.0
 30
0.0
 11
0.0
 21
34.5
 31
0.0
  0
LINE
  5
9B0
330
1F
100
AcDbEntity
  8
SK2
  6
CONTINUOUS
370
25
 62
7
100
AcDbLine
 10
105.0
 20
34.5
 30
0.0
 11
105.0
 21
0.0
 31
0.0
  0
LINE
  5
9B1
330
1F
100
AcDbEntity
  8
SK2
  6
CONTINUOUS
370
25
 62
7
100
AcDbLine
 10
0.0
 20
33.5
 30
0.0
 11
105.0
 21
33.5
 31
0.0
  0
LINE
  5
9B2
330
1F
100
AcDbEntity
  8
SK2
  6
CONTINUOUS
370
25
 62
7
100
AcDbLine
 10
0.0
 20
33.5
 30
0.0
 11
5.0
 21
34.5
 31
0.0
  0
LINE
  5
9B3
330
1F
100
AcDbEntity
  8
SK2
  6
CONTINUOUS
370
25
 62
7
100
AcDbLine
 10
5.0
 20
34.5
 30
0.0
 11
5.0
 21
32.5
 31
0.0
  0
LINE
  5
9B4
330
1F
100
AcDbEntity
  8
SK2
  6
CONTINUOUS
370
25
 62
7
100
AcDbLine
 10
5.0
 20
32.5
 30
0.0
 11
0.0
 21
33.5
 31
0.0
  0
LINE
  5
9B5
330
1F
100
AcDbEntity
  8
SK2
  6
CONTINUOUS
370
25
 62
7
100
AcDbLine
 10
4.883062854764226
 20
32.52338742904715
 30
0.0
 11
5.0
 21
32.64032457428293
 31
0.0
  0
LINE
  5
9B6
330
1F
100
AcDbEntity
  8
SK2
  6
CONTINUOUS
370
25
 62
7
100
AcDbLine
 10
4.52950946417095
 20
32.59409810716581
 30
0.0
 11
5.0
 21
33.06458864299486
 31
0.0
  0
LINE
  5
9B7
330
1F
100
AcDbEntity
  8
SK2
  6
CONTINUOUS
370
25
 62
7
100
AcDbLine
 10
4.175956073577666
 20
32.66480878528446
 30
0.0
 11
5.0
 21
33.4888527117068
 31
0.0
  0
LINE
  5
9B8
330
1F
100
AcDbEntity
  8
SK2
  6
CONTINUOUS
370
25
 62
7
100
AcDbLine
 10
3.822402682984396
 20
32.73551946340312
 30
0.0
 11
5.0
 21
33.91311678041873
 31
0.0
  0
LINE
  5
9B9
330
1F
100
AcDbEntity
  8
SK2
  6
CONTINUOUS
370
25
 62
7
100
AcDbLine
 10
3.468849292391113
 20
32.80623014152177
 30
0.0
 11
5.0
 21
34.33738084913067
 31
0.0
  0
LINE
  5
9BA
330
1F
100
AcDbEntity
  8
SK2
  6
CONTINUOUS
370
25
 62
7
100
AcDbLine
 10
3.115295901797836
 20
32.87694081964042
 30
0.0
 11
4.672943852696761
 21
34.43458877053936
 31
0.0
  0
LINE
  5
9BB
330
1F
100
AcDbEntity
  8
SK2
  6
CONTINUOUS
370
25
 62
7
100
AcDbLine
 10
2.761742511204567
 20
32.94765149775908
 30
0.0
 11
4.142613766806846
 21
34.32852275336137
 31
0.0
  0
LINE
  5
9BC
330
1F
100
AcDbEntity
  8
SK2
  6
CONTINUOUS
370
25
 62
7
100
AcDbLine
 10
2.408189120611283
 20
33.01836217587774
 30
0.0
 11
3.612283680916924
 21
34.22245673618339
 31
0.0
  0
LINE
  5
9BD
330
1F
100
AcDbEntity
  8
SK2
  6
CONTINUOUS
370
25
 62
7
100
AcDbLine
 10
2.054635730018013
 20
33.0890728539964
 30
0.0
 11
3.081953595027024
 21
34.11639071900541
 31
0.0
  0
LINE
  5
9BE
330
1F
100
AcDbEntity
  8
SK2
  6
CONTINUOUS
370
25
 62
7
100
AcDbLine
 10
1.70108233942473
 20
33.15978353211505
 30
0.0
 11
2.551623509137094
 21
34.01032470182742
 31
0.0
  0
LINE
  5
9BF
330
1F
100
AcDbEntity
  8
SK2
  6
CONTINUOUS
370
25
 62
7
100
AcDbLine
 10
1.34752894883146
 20
33.23049421023371
 30
0.0
 11
2.021293423247187
 21
33.90425868464944
 31
0.0
  0
LINE
  5
9C0
330
1F
100
AcDbEntity
  8
SK2
  6
CONTINUOUS
370
25
 62
7
100
AcDbLine
 10
0.9939755582381764
 20
33.30120488835237
 30
0.0
 11
1.490963337357265
 21
33.79819266747145
 31
0.0
  0
LINE
  5
9C1
330
1F
100
AcDbEntity
  8
SK2
  6
CONTINUOUS
370
25
 62
7
100
AcDbLine
 10
0.6404221676448927
 20
33.37191556647102
 30
0.0
 11
0.9606332514673426
 21
33.69212665029347
 31
0.0
  0
LINE
  5
9C2
330
1F
100
AcDbEntity
  8
SK2
  6
CONTINUOUS
370
25
 62
7
100
AcDbLine
 10
0.2868687770516232
 20
33.44262624458968
 30
0.0
 11
0.4303031655774419
 21
33.58606063311549
 31
0.0
  0
LINE
  5
9C3
330
1F
100
AcDbEntity
  8
SK2
  6
CONTINUOUS
370
25
 62
7
100
AcDbLine
 10
0.05254730731005
 20
33.51050946146201
 30
0.0
 11
0.0788209609650821
 21
33.48423580780698
 31
0.0
  0
LINE
  5
9C4
330
1F
100
AcDbEntity
  8
SK2
  6
CONTINUOUS
370
25
 62
7
100
AcDbLine
 10
0.4061006979033266
 20
33.58122013958067
 30
0.0
 11
0.609151046854997
 21
33.378169790629
 31
0.0
  0
LINE
  5
9C5
330
1F
100
AcDbEntity
  8
SK2
  6
CONTINUOUS
370
25
 62
7
100
AcDbLine
 10
0.7596540884966032
 20
33.65193081769932
 30
0.0
 11
1.139481132744905
 21
33.27210377345102
 31
0.0
  0
LINE
  5
9C6
330
1F
100
AcDbEntity
  8
SK2
  6
CONTINUOUS
370
25
 62
7
100
AcDbLine
 10
1.11320747908988
 20
33.72264149581798
 30
0.0
 11
1.669811218634827
 21
33.16603775627303
 31
0.0
  0
LINE
  5
9C7
330
1F
100
AcDbEntity
  8
SK2
  6
CONTINUOUS
370
25
 62
7
100
AcDbLine
 10
1.466760869683164
 20
33.79335217393663
 30
0.0
 11
2.200141304524749
 21
33.05997173909505
 31
0.0
  0
LINE
  5
9C8
330
1F
100
AcDbEntity
  8
SK2
  6
CONTINUOUS
370
25
 62
7
100
AcDbLine
 10
1.820314260276433
 20
33.86406285205529
 30
0.0
 11
2.730471390414657
 21
32.95390572191707
 31
0.0
  0
LINE
  5
9C9
330
1F
100
AcDbEntity
  8
SK2
  6
CONTINUOUS
370
25
 62
7
100
AcDbLine
 10
2.173867650869717
 20
33.93477353017394
 30
0.0
 11
3.260801476304572
 21
32.84783970473908
 31
0.0
  0
LINE
  5
9CA
330
1F
100
AcDbEntity
  8
SK2
  6
CONTINUOUS
370
25
 62
7
100
AcDbLine
 10
2.527421041462993
 20
34.0054842082926
 30
0.0
 11
3.791131562194487
 21
32.7417736875611
 31
0.0
  0
LINE
  5
9CB
330
1F
100
AcDbEntity
  8
SK2
  6
CONTINUOUS
370
25
 62
7
100
AcDbLine
 10
2.88097443205627
 20
34.07619488641126
 30
0.0
 11
4.321461648084409
 21
32.63570767038311
 31
0.0
  0
LINE
  5
9CC
330
1F
100
AcDbEntity
  8
SK2
  6
CONTINUOUS
370
25
 62
7
100
AcDbLine
 10
3.234527822649547
 20
34.14690556452991
 30
0.0
 11
4.851791733974309
 21
32.52964165320514
 31
0.0
  0
LINE
  5
9CD
330
1F
100
AcDbEntity
  8
SK2
  6
CONTINUOUS
370
25
 62
7
100
AcDbLine
 10
3.588081213242823
 20
34.21761624264856
 30
0.0
 11
5.0
 21
32.80569745589138
 31
0.0
  0
LINE
  5
9CE
330
1F
100
AcDbEntity
  8
SK2
  6
CONTINUOUS
370
25
 62
7
100
AcDbLine
 10
3.9416346038361
 20
34.28832692076722
 30
0.0
 11
5.0
 21
33.22996152460331
 31
0.0
  0
LINE
  5
9CF
330
1F
100
AcDbEntity
  8
SK2
  6
CONTINUOUS
370
25
 62
7
100
AcDbLine
 10
4.295187994429376
 20
34.35903759888588
 30
0.0
 11
5.0
 21
33.65422559331525
 31
0.0
  0
LINE
  5
9D0
330
1F
100
AcDbEntity
  8
SK2
  6
CONTINUOUS
370
25
 62
7
100
AcDbLine
 10
4.648741385022653
 20
34.42974827700453
 30
0.0
 11
5.0
 21
34.07848966202719
 31
0.0
  0
LINE
  5
9D1
330
1F
100
AcDbEntity
  8
SK2
  6
CONTINUOUS
370
25
 62
7
100
AcDbLine
 10
105.0
 20
33.5
 30
0.0
 11
100.0
 21
32.5
 31
0.0
  0
LINE
  5
9D2
330
1F
100
AcDbEntity
  8
SK2
  6
CONTINUOUS
370
25
 62
7
100
AcDbLine
 10
100.0
 20
32.5
 30
0.0
 11
100.0
 21
34.5
 31
0.0
  0
LINE
  5
9D3
330
1F
100
AcDbEntity
  8
SK2
  6
CONTINUOUS
370
25
 62
7
100
AcDbLine
 10
100.0
 20
34.5
 30
0.0
 11
105.0
 21
33.5
 31
0.0
  0
LINE
  5
9D4
330
1F
100
AcDbEntity
  8
SK2
  6
CONTINUOUS
370
25
 62
7
100
AcDbLine
 10
104.807218008356
 20
33.4614436016712
 30
0.0
 11
104.8714786722373
 21
33.52570426555253
 31
0.0
  0
LINE
  5
9D5
330
1F
100
AcDbEntity
  8
SK2
  6
CONTINUOUS
370
25
 62
7
100
AcDbLine
 10
104.2768879224661
 20
33.35537758449321
 30
0.0
 11
104.5179252816441
 21
33.59641494367119
 31
0.0
  0
LINE
  5
9D6
330
1F
100
AcDbEntity
  8
SK2
  6
CONTINUOUS
370
25
 62
7
100
AcDbLine
 10
103.7465578365762
 20
33.24931156731523
 30
0.0
 11
104.1643718910508
 21
33.66712562178984
 31
0.0
  0
LINE
  5
9D7
330
1F
100
AcDbEntity
  8
SK2
  6
CONTINUOUS
370
25
 62
7
100
AcDbLine
 10
103.2162277506862
 20
33.14324555013724
 30
0.0
 11
103.8108185004575
 21
33.73783629990849
 31
0.0
  0
LINE
  5
9D8
330
1F
100
AcDbEntity
  8
SK2
  6
CONTINUOUS
370
25
 62
7
100
AcDbLine
 10
102.6858976647963
 20
33.03717953295926
 30
0.0
 11
103.4572651098642
 21
33.80854697802715
 31
0.0
  0
LINE
  5
9D9
330
1F
100
AcDbEntity
  8
SK2
  6
CONTINUOUS
370
25
 62
7
100
AcDbLine
 10
102.1555675789064
 20
32.93111351578128
 30
0.0
 11
103.1037117192709
 21
33.87925765614582
 31
0.0
  0
LINE
  5
9DA
330
1F
100
AcDbEntity
  8
SK2
  6
CONTINUOUS
370
25
 62
7
100
AcDbLine
 10
101.6252374930165
 20
32.8250474986033
 30
0.0
 11
102.7501583286777
 21
33.94996833426447
 31
0.0
  0
LINE
  5
9DB
330
1F
100
AcDbEntity
  8
SK2
  6
CONTINUOUS
370
25
 62
7
100
AcDbLine
 10
101.0949074071266
 20
32.7189814814253
 30
0.0
 11
102.3966049380844
 21
34.02067901238313
 31
0.0
  0
LINE
  5
9DC
330
1F
100
AcDbEntity
  8
SK2
  6
CONTINUOUS
370
25
 62
7
100
AcDbLine
 10
100.5645773212367
 20
32.61291546424733
 30
0.0
 11
102.0430515474911
 21
34.09138969050178
 31
0.0
  0
LINE
  5
9DD
330
1F
100
AcDbEntity
  8
SK2
  6
CONTINUOUS
370
25
 62
7
100
AcDbLine
 10
100.0342472353468
 20
32.50684944706936
 30
0.0
 11
101.6894981568978
 21
34.16210036862044
 31
0.0
  0
LINE
  5
9DE
330
1F
100
AcDbEntity
  8
SK2
  6
CONTINUOUS
370
25
 62
7
100
AcDbLine
 10
100.0
 20
32.89686628043453
 30
0.0
 11
101.3359447663046
 21
34.23281104673909
 31
0.0
  0
LINE
  5
9DF
330
1F
100
AcDbEntity
  8
SK2
  6
CONTINUOUS
370
25
 62
7
100
AcDbLine
 10
100.0
 20
33.32113034914646
 30
0.0
 11
100.9823913757113
 21
34.30352172485775
 31
0.0
  0
LINE
  5
9E0
330
1F
100
AcDbEntity
  8
SK2
  6
CONTINUOUS
370
25
 62
7
100
AcDbLine
 10
100.0
 20
33.74539441785839
 30
0.0
 11
100.628837985118
 21
34.3742324029764
 31
0.0
  0
LINE
  5
9E1
330
1F
100
AcDbEntity
  8
SK2
  6
CONTINUOUS
370
25
 62
7
100
AcDbLine
 10
100.0
 20
34.16965848657033
 30
0.0
 11
100.2752845945247
 21
34.44494308109506
 31
0.0
  0
LINE
  5
9E2
330
1F
100
AcDbEntity
  8
SK2
  6
CONTINUOUS
370
25
 62
7
100
AcDbLine
 10
100.0
 20
32.73149339882607
 30
0.0
 11
100.1929111656884
 21
32.53858223313767
 31
0.0
  0
LINE
  5
9E3
330
1F
100
AcDbEntity
  8
SK2
  6
CONTINUOUS
370
25
 62
7
100
AcDbLine
 10
100.0
 20
33.15575746753802
 30
0.0
 11
100.5464645562817
 21
32.60929291125633
 31
0.0
  0
LINE
  5
9E4
330
1F
100
AcDbEntity
  8
SK2
  6
CONTINUOUS
370
25
 62
7
100
AcDbLine
 10
100.0
 20
33.58002153624994
 30
0.0
 11
100.900017946875
 21
32.68000358937498
 31
0.0
  0
LINE
  5
9E5
330
1F
100
AcDbEntity
  8
SK2
  6
CONTINUOUS
370
25
 62
7
100
AcDbLine
 10
100.0
 20
34.00428560496188
 30
0.0
 11
101.2535713374682
 21
32.75071426749364
 31
0.0
  0
LINE
  5
9E6
330
1F
100
AcDbEntity
  8
SK2
  6
CONTINUOUS
370
25
 62
7
100
AcDbLine
 10
100.0
 20
34.42854967367382
 30
0.0
 11
101.6071247280615
 21
32.8214249456123
 31
0.0
  0
LINE
  5
9E7
330
1F
100
AcDbEntity
  8
SK2
  6
CONTINUOUS
370
25
 62
7
100
AcDbLine
 10
100.4410171779822
 20
34.41179656440357
 30
0.0
 11
101.9606781186548
 21
32.89213562373095
 31
0.0
  0
LINE
  5
9E8
330
1F
100
AcDbEntity
  8
SK2
  6
CONTINUOUS
370
25
 62
7
100
AcDbLine
 10
100.9713472638721
 20
34.30573054722558
 30
0.0
 11
102.3142315092481
 21
32.96284630184962
 31
0.0
  0
LINE
  5
9E9
330
1F
100
AcDbEntity
  8
SK2
  6
CONTINUOUS
370
25
 62
7
100
AcDbLine
 10
101.501677349762
 20
34.19966453004761
 30
0.0
 11
102.6677848998413
 21
33.03355697996827
 31
0.0
  0
LINE
  5
9EA
330
1F
100
AcDbEntity
  8
SK2
  6
CONTINUOUS
370
25
 62
7
100
AcDbLine
 10
102.0320074356519
 20
34.09359851286961
 30
0.0
 11
103.0213382904346
 21
33.10426765808693
 31
0.0
  0
LINE
  5
9EB
330
1F
100
AcDbEntity
  8
SK2
  6
CONTINUOUS
370
25
 62
7
100
AcDbLine
 10
102.5623375215418
 20
33.98753249569163
 30
0.0
 11
103.3748916810279
 21
33.17497833620558
 31
0.0
  0
LINE
  5
9EC
330
1F
100
AcDbEntity
  8
SK2
  6
CONTINUOUS
370
25
 62
7
100
AcDbLine
 10
103.0926676074318
 20
33.88146647851365
 30
0.0
 11
103.7284450716212
 21
33.24568901432423
 31
0.0
  0
LINE
  5
9ED
330
1F
100
AcDbEntity
  8
SK2
  6
CONTINUOUS
370
25
 62
7
100
AcDbLine
 10
103.6229976933217
 20
33.77540046133566
 30
0.0
 11
104.0819984622145
 21
33.31639969244289
 31
0.0
  0
LINE
  5
9EE
330
1F
100
AcDbEntity
  8
SK2
  6
CONTINUOUS
370
25
 62
7
100
AcDbLine
 10
104.1533277792116
 20
33.66933444415768
 30
0.0
 11
104.4355518528077
 21
33.38711037056154
 31
0.0
  0
LINE
  5
9EF
330
1F
100
AcDbEntity
  8
SK2
  6
CONTINUOUS
370
25
 62
7
100
AcDbLine
 10
104.6836578651015
 20
33.5632684269797
 30
0.0
 11
104.789105243401
 21
33.4578210486802
 31
0.0
  0
TEXT
  5
9F0
330
1F
100
AcDbEntity
  8
SK2
  6
CONTINUOUS
370
25
 62
7
100
AcDbText
 10
48.70833333333334
 20
35.0
 30
0.0
 40
3.5
  1
105
 72
     1
 11
52.5
 21
35.0
 31
0.0
100
AcDbText
  0
LINE
  5
9F1
330
1F
100
AcDbEntity
  8
4
  6
LONGDASH_DASH
370
25
 62
2
100
AcDbLine
 10
50.0
 20
0.0
 30
0.0
 11
105.0
 21
0.0
 31
0.0
  0
LINE
  5
9F2
330
1F
100
AcDbEntity
  8
SK4
  6
LONGDASH_DASH
370
25
 62
2
100
AcDbLine
 10
-6.0
 20
0.0
 30
0.0
 11
111.0
 21
0.0
 31
0.0
  0
LINE
  5
9F3
330
1F
100
AcDbEntity
  8
2
  6
CONTINUOUS
370
25
 62
7
100
AcDbLine
 10
105.0
 20
0.0
 30
0.0
 11
113.8749834965547
 21
19.03246352776965
 31
0.0
  0
LINE
  5
9F4
330
1F
100
AcDbEntity
  8
2
  6
CONTINUOUS
370
25
 62
7
100
AcDbLine
 10
105.0
 20
0.0
 30
0.0
 11
113.8749834965547
 21
-19.03246352776965
 31
0.0
  0
ARC
  5
9F5
330
1F
100
AcDbEntity
  8
2
  6
CONTINUOUS
370
25
 62
7
100
AcDbCircle
 10
104.9999999999999
 20
-0.0000000000000017
 30
0.0
 40
20.00000000000002
100
AcDbArc
 50
295.0000000000001
 51
64.99999999999983
  0
LINE
  5
9F6
330
1F
100
AcDbEntity
  8
2
  6
CONTINUOUS
370
25
 62
7
100
AcDbLine
 10
113.452365234814
 20
18.12615574073299
 30
0.0
 11
118.2168177567238
 21
16.30956768438455
 31
0.0
  0
LINE
  5
9F7
330
1F
100
AcDbEntity
  8
2
  6
CONTINUOUS
370
25
 62
7
100
AcDbLine
 10
118.2168177567238
 20
16.30956768438455
 30
0.0
 11
117.1516336949044
 21
14.61682348798453
 31
0.0
  0
LINE
  5
9F8
330
1F
100
AcDbEntity
  8
2
  6
CONTINUOUS
370
25
 62
7
100
AcDbLine
 10
117.1516336949044
 20
14.61682348798453
 30
0.0
 11
113.452365234814
 21
18.12615574073299
 31
0.0
  0
LINE
  5
9F9
330
1F
100
AcDbEntity
  8
2
  6
CONTINUOUS
370
25
 62
7
100
AcDbLine
 10
116.9431968482876
 20
14.81455829863286
 30
0.0
 11
117.8410458354169
 21
15.71240728576213
 31
0.0
  0
LINE
  5
9FA
330
1F
100
AcDbEntity
  8
2
  6
CONTINUOUS
370
25
 62
7
100
AcDbLine
 10
116.7254754415047
 20
15.02110096056188
 30
0.0
 11
118.069942636966
 21
16.36556815602316
 31
0.0
  0
LINE
  5
9FB
330
1F
100
AcDbEntity
  8
2
  6
CONTINUOUS
370
25
 62
7
100
AcDbLine
 10
116.5077540347218
 20
15.22764362249087
 30
0.0
 11
117.7627896893291
 21
16.48267927709816
 31
0.0
  0
LINE
  5
9FC
330
1F
100
AcDbEntity
  8
2
  6
CONTINUOUS
370
25
 62
7
100
AcDbLine
 10
116.2900326279388
 20
15.43418628441989
 30
0.0
 11
117.4556367416921
 21
16.59979039817315
 31
0.0
  0
LINE
  5
9FD
330
1F
100
AcDbEntity
  8
2
  6
CONTINUOUS
370
25
 62
7
100
AcDbLine
 10
116.0723112211559
 20
15.64072894634888
 30
0.0
 11
117.1484837940552
 21
16.71690151924815
 31
0.0
  0
LINE
  5
9FE
330
1F
100
AcDbEntity
  8
2
  6
CONTINUOUS
370
25
 62
7
100
AcDbLine
 10
115.854589814373
 20
15.84727160827789
 30
0.0
 11
116.8413308464183
 21
16.83401264032315
 31
0.0
  0
LINE
  5
9FF
330
1F
100
AcDbEntity
  8
2
  6
CONTINUOUS
370
25
 62
7
100
AcDbLine
 10
115.6368684075901
 20
16.05381427020691
 30
0.0
 11
116.5341778987813
 21
16.95112376139815
 31
0.0
  0
LINE
  5
A00
330
1F
100
AcDbEntity
  8
2
  6
CONTINUOUS
370
25
 62
7
100
AcDbLine
 10
115.4191470008071
 20
16.26035693213591
 30
0.0
 11
116.2270249511444
 21
17.06823488247316
 31
0.0
  0
LINE
  5
A01
330
1F
100
AcDbEntity
  8
2
  6
CONTINUOUS
370
25
 62
7
100
AcDbLine
 10
115.2014255940242
 20
16.46689959406491
 30
0.0
 11
115.9198720035075
 21
17.18534600354815
 31
0.0
  0
LINE
  5
A02
330
1F
100
AcDbEntity
  8
2
  6
CONTINUOUS
370
25
 62
7
100
AcDbLine
 10
114.9837041872413
 20
16.6734422559939
 30
0.0
 11
115.6127190558706
 21
17.30245712462316
 31
0.0
  0
LINE
  5
A03
330
1F
100
AcDbEntity
  8
2
  6
CONTINUOUS
370
25
 62
7
100
AcDbLine
 10
114.7659827804584
 20
16.87998491792292
 30
0.0
 11
115.3055661082336
 21
17.41956824569815
 31
0.0
  0
LINE
  5
A04
330
1F
100
AcDbEntity
  8
2
  6
CONTINUOUS
370
25
 62
7
100
AcDbLine
 10
114.5482613736755
 20
17.08652757985192
 30
0.0
 11
114.9984131605967
 21
17.53667936677316
 31
0.0
  0
LINE
  5
A05
330
1F
100
AcDbEntity
  8
2
  6
CONTINUOUS
370
25
 62
7
100
AcDbLine
 10
114.3305399668925
 20
17.29307024178093
 30
0.0
 11
114.6912602129598
 21
17.65379048784816
 31
0.0
  0
LINE
  5
A06
330
1F
100
AcDbEntity
  8
2
  6
CONTINUOUS
370
25
 62
7
100
AcDbLine
 10
114.1128185601096
 20
17.49961290370993
 30
0.0
 11
114.3841072653228
 21
17.77090160892315
 31
0.0
  0
LINE
  5
A07
330
1F
100
AcDbEntity
  8
2
  6
CONTINUOUS
370
25
 62
7
100
AcDbLine
 10
113.8950971533267
 20
17.70615556563894
 30
0.0
 11
114.0769543176859
 21
17.88801272999816
 31
0.0
  0
LINE
  5
A08
330
1F
100
AcDbEntity
  8
2
  6
CONTINUOUS
370
25
 62
7
100
AcDbLine
 10
113.6773757465438
 20
17.91269822756795
 30
0.0
 11
113.769801370049
 21
18.00512385107314
 31
0.0
  0
LINE
  5
A09
330
1F
100
AcDbEntity
  8
2
  6
CONTINUOUS
370
25
 62
7
100
AcDbLine
 10
113.4596543397608
 20
18.11924088949696
 30
0.0
 11
113.4626484224121
 21
18.12223497214817
 31
0.0
  0
LINE
  5
A0A
330
1F
100
AcDbEntity
  8
2
  6
CONTINUOUS
370
25
 62
7
100
AcDbLine
 10
113.9444198602791
 20
17.93854540112307
 30
0.0
 11
117.1958597112332
 21
14.68710555016889
 31
0.0
  0
LINE
  5
A0B
330
1F
100
AcDbEntity
  8
2
  6
CONTINUOUS
370
25
 62
7
100
AcDbLine
 10
114.6301318513646
 20
17.6770974787495
 30
0.0
 11
117.3597215965625
 21
14.94750773355157
 31
0.0
  0
LINE
  5
A0C
330
1F
100
AcDbEntity
  8
2
  6
CONTINUOUS
370
25
 62
7
100
AcDbLine
 10
115.3158438424501
 20
17.41564955637593
 30
0.0
 11
117.5235834818917
 21
15.20790991693427
 31
0.0
  0
LINE
  5
A0D
330
1F
100
AcDbEntity
  8
2
  6
CONTINUOUS
370
25
 62
7
100
AcDbLine
 10
116.0015558335355
 20
17.15420163400236
 30
0.0
 11
117.6874453672209
 21
15.46831210031696
 31
0.0
  0
LINE
  5
A0E
330
1F
100
AcDbEntity
  8
2
  6
CONTINUOUS
370
25
 62
7
100
AcDbLine
 10
116.687267824621
 20
16.8927537116288
 30
0.0
 11
117.8513072525501
 21
15.72871428369966
 31
0.0
  0
LINE
  5
A0F
330
1F
100
AcDbEntity
  8
2
  6
CONTINUOUS
370
25
 62
7
100
AcDbLine
 10
117.3729798157065
 20
16.63130578925524
 30
0.0
 11
118.0151691378794
 21
15.98911646708237
 31
0.0
  0
LINE
  5
A10
330
1F
100
AcDbEntity
  8
2
  6
CONTINUOUS
370
25
 62
7
100
AcDbLine
 10
118.058691806792
 20
16.36985786688166
 30
0.0
 11
118.1790310232086
 21
16.24951865046506
 31
0.0
  0
LINE
  5
A11
330
1F
100
AcDbEntity
  8
2
  6
CONTINUOUS
370
25
 62
7
100
AcDbLine
 10
113.452365234814
 20
-18.126155740733
 30
0.0
 11
117.1516336949043
 21
-14.61682348798453
 31
0.0
  0
LINE
  5
A12
330
1F
100
AcDbEntity
  8
2
  6
CONTINUOUS
370
25
 62
7
100
AcDbLine
 10
117.1516336949043
 20
-14.61682348798453
 30
0.0
 11
118.2168177567237
 21
-16.30956768438455
 31
0.0
  0
LINE
  5
A13
330
1F
100
AcDbEntity
  8
2
  6
CONTINUOUS
370
25
 62
7
100
AcDbLine
 10
118.2168177567237
 20
-16.30956768438455
 30
0.0
 11
113.452365234814
 21
-18.126155740733
 31
0.0
  0
LINE
  5
A14
330
1F
100
AcDbEntity
  8
2
  6
CONTINUOUS
370
25
 62
7
100
AcDbLine
 10
118.209729267623
 20
-16.31227037993641
 30
0.0
 11
118.2151238484893
 21
-16.30687579907014
 31
0.0
  0
LINE
  5
A15
330
1F
100
AcDbEntity
  8
2
  6
CONTINUOUS
370
25
 62
7
100
AcDbLine
 10
117.5240172765375
 20
-16.57371830230997
 30
0.0
 11
118.05126196316
 21
-16.04647361568746
 31
0.0
  0
LINE
  5
A16
330
1F
100
AcDbEntity
  8
2
  6
CONTINUOUS
370
25
 62
7
100
AcDbLine
 10
116.838305285452
 20
-16.83516622468355
 30
0.0
 11
117.8874000778308
 21
-15.78607143230477
 31
0.0
  0
LINE
  5
A17
330
1F
100
AcDbEntity
  8
2
  6
CONTINUOUS
370
25
 62
7
100
AcDbLine
 10
116.1525932943665
 20
-17.09661414705712
 30
0.0
 11
117.7235381925016
 21
-15.52566924892206
 31
0.0
  0
LINE
  5
A18
330
1F
100
AcDbEntity
  8
2
  6
CONTINUOUS
370
25
 62
7
100
AcDbLine
 10
115.466881303281
 20
-17.35806206943069
 30
0.0
 11
117.5596763071723
 21
-15.26526706553936
 31
0.0
  0
LINE
  5
A19
330
1F
100
AcDbEntity
  8
2
  6
CONTINUOUS
370
25
 62
7
100
AcDbLine
 10
114.7811693121955
 20
-17.61950999180428
 30
0.0
 11
117.3958144218431
 21
-15.00486488215667
 31
0.0
  0
LINE
  5
A1A
330
1F
100
AcDbEntity
  8
2
  6
CONTINUOUS
370
25
 62
7
100
AcDbLine
 10
114.09545732111
 20
-17.88095791417784
 30
0.0
 11
117.2319525365139
 21
-14.74446269877397
 31
0.0
  0
LINE
  5
A1B
330
1F
100
AcDbEntity
  8
2
  6
CONTINUOUS
370
25
 62
7
100
AcDbLine
 10
113.4883109674096
 20
-18.09205561523324
 30
0.0
 11
113.5030760853677
 21
-18.10682073319133
 31
0.0
  0
LINE
  5
A1C
330
1F
100
AcDbEntity
  8
2
  6
CONTINUOUS
370
25
 62
7
100
AcDbLine
 10
113.7060323741925
 20
-17.88551295330424
 30
0.0
 11
113.8102290330046
 21
-17.98970961211633
 31
0.0
  0
LINE
  5
A1D
330
1F
100
AcDbEntity
  8
2
  6
CONTINUOUS
370
25
 62
7
100
AcDbLine
 10
113.9237537809754
 20
-17.67897029137523
 30
0.0
 11
114.1173819806415
 21
-17.87259849104133
 31
0.0
  0
LINE
  5
A1E
330
1F
100
AcDbEntity
  8
2
  6
CONTINUOUS
370
25
 62
7
100
AcDbLine
 10
114.1414751877584
 20
-17.47242762944623
 30
0.0
 11
114.4245349282784
 21
-17.75548736996632
 31
0.0
  0
LINE
  5
A1F
330
1F
100
AcDbEntity
  8
2
  6
CONTINUOUS
370
25
 62
7
100
AcDbLine
 10
114.3591965945413
 20
-17.26588496751721
 30
0.0
 11
114.7316878759154
 21
-17.63837624889132
 31
0.0
  0
LINE
  5
A20
330
1F
100
AcDbEntity
  8
2
  6
CONTINUOUS
370
25
 62
7
100
AcDbLine
 10
114.5769180013242
 20
-17.05934230558822
 30
0.0
 11
115.0388408235523
 21
-17.52126512781632
 31
0.0
  0
LINE
  5
A21
330
1F
100
AcDbEntity
  8
2
  6
CONTINUOUS
370
25
 62
7
100
AcDbLine
 10
114.7946394081071
 20
-16.85279964365919
 30
0.0
 11
115.3459937711892
 21
-17.40415400674134
 31
0.0
  0
LINE
  5
A22
330
1F
100
AcDbEntity
  8
2
  6
CONTINUOUS
370
25
 62
7
100
AcDbLine
 10
115.01236081489
 20
-16.64625698173019
 30
0.0
 11
115.6531467188262
 21
-17.28704288566632
 31
0.0
  0
LINE
  5
A23
330
1F
100
AcDbEntity
  8
2
  6
CONTINUOUS
370
25
 62
7
100
AcDbLine
 10
115.230082221673
 20
-16.4397143198012
 30
0.0
 11
115.9602996664631
 21
-17.16993176459133
 31
0.0
  0
LINE
  5
A24
330
1F
100
AcDbEntity
  8
2
  6
CONTINUOUS
370
25
 62
7
100
AcDbLine
 10
115.4478036284559
 20
-16.23317165787219
 30
0.0
 11
116.2674526141
 21
-17.05282064351633
 31
0.0
  0
LINE
  5
A25
330
1F
100
AcDbEntity
  8
2
  6
CONTINUOUS
370
25
 62
7
100
AcDbLine
 10
115.6655250352388
 20
-16.02662899594318
 30
0.0
 11
116.5746055617369
 21
-16.93570952244133
 31
0.0
  0
LINE
  5
A26
330
1F
100
AcDbEntity
  8
2
  6
CONTINUOUS
370
25
 62
7
100
AcDbLine
 10
115.8832464420217
 20
-15.82008633401416
 30
0.0
 11
116.8817585093739
 21
-16.81859840136633
 31
0.0
  0
LINE
  5
A27
330
1F
100
AcDbEntity
  8
2
  6
CONTINUOUS
370
25
 62
7
100
AcDbLine
 10
116.1009678488046
 20
-15.61354367208516
 30
0.0
 11
117.1889114570108
 21
-16.70148728029132
 31
0.0
  0
LINE
  5
A28
330
1F
100
AcDbEntity
  8
2
  6
CONTINUOUS
370
25
 62
7
100
AcDbLine
 10
116.3186892555876
 20
-15.40700101015618
 30
0.0
 11
117.4960644046477
 21
-16.58437615921633
 31
0.0
  0
LINE
  5
A29
330
1F
100
AcDbEntity
  8
2
  6
CONTINUOUS
370
25
 62
7
100
AcDbLine
 10
116.5364106623705
 20
-15.20045834822716
 30
0.0
 11
117.8032173522846
 21
-16.46726503814133
 31
0.0
  0
LINE
  5
A2A
330
1F
100
AcDbEntity
  8
2
  6
CONTINUOUS
370
25
 62
7
100
AcDbLine
 10
116.7541320691534
 20
-14.99391568629815
 30
0.0
 11
118.1103702999216
 21
-16.35015391706632
 31
0.0
  0
LINE
  5
A2B
330
1F
100
AcDbEntity
  8
2
  6
CONTINUOUS
370
25
 62
7
100
AcDbLine
 10
116.9718534759363
 20
-14.78737302436915
 30
0.0
 11
117.7462630399186
 21
-15.56178258835139
 31
0.0
  0
TEXT
  5
A2C
330
1F
100
AcDbEntity
  8
2
  6
CONTINUOUS
370
25
 62
7
100
AcDbText
 10
122.5
 20
-4.958333333333333
 30
0.0
 40
3.5
  1
130°
 50
90.0
 72
     1
 11
122.5
 21
0.0
 31
0.0
100
AcDbText
  0
LINE
  5
A2D
330
1F
100
AcDbEntity
  8
SK1
  6
CONTINUOUS
370
50
 62
4
100
AcDbLine
 10
50.0
 20
0.0
 30
0.0
 11
52.625
 21
0.0
 31
0.0
  0
LINE
  5
A2E
330
1F
100
AcDbEntity
  8
SK1
  6
CONTINUOUS
370
50
 62
4
100
AcDbLine
 10
50.0
 20
0.0
 30
0.0
 11
50.0
 21
2.625
 31
0.0
  0
ARC
  5
A2F
330
1F
100
AcDbEntity
  8
SK1
  6
CONTINUOUS
370
50
 62
4
100
AcDbCircle
 10
50.0
 20
0.0
 30
0.0
 40
2.625
100
AcDbArc
 50
0.0
 51
90.0
  0
LINE
  5
A30
330
1F
100
AcDbEntity
  8
SK1
  6
CONTINUOUS
370
50
 62
4
100
AcDbLine
 10
50.0
 20
0.0
 30
0.0
 11
47.375
 21
0.0
 31
0.0
  0
ARC
  5
A31
330
1F
100
AcDbEntity
  8
SK1
  6
CONTINUOUS
370
50
 62
4
100
AcDbCircle
 10
50.0
 20
0.0
 30
0.0
 40
2.625
100
AcDbArc
 50
180.0
 51
270.0
  0
LINE
  5
A32
330
1F
100
AcDbEntity
  8
SK1
  6
CONTINUOUS
370
50
 62
4
100
AcDbLine
 10
50.0
 20
-2.625
 30
0.0
 11
50.0
 21
0.0
 31
0.0
  0
ARC
  5
A33
330
1F
100
AcDbEntity
  8
SK1
  6
CONTINUOUS
370
50
 62
4
100
AcDbCircle
 10
50.0
 20
0.0
 30
0.0
 40
2.625
100
AcDbArc
 50
270.0
 51
0.0
  0
ARC
  5
A34
330
1F
100
AcDbEntity
  8
SK1
  6
CONTINUOUS
370
50
 62
4
100
AcDbCircle
 10
50.0
 20
0.0
 30
0.0
 40
2.625
100
AcDbArc
 50
90.0
 51
180.0
  0
LINE
  5
A35
330
1F
100
AcDbEntity
  8
SK1
  6
CONTINUOUS
370
50
 62
4
100
AcDbLine
 10
49.66575722192682
 20
-2.60347067499975
 30
0.0
 11
50.0
 21
-2.269227896926564
 31
0.0
  0
LINE
  5
A36
330
1F
100
AcDbEntity
  8
SK1
  6
CONTINUOUS
370
50
 62
4
100
AcDbLine
 10
52.26922789692657
 20
0.0
 30
0.0
 11
52.60347067499975
 21
0.3342427780731851
 31
0.0
  0
LINE
  5
A37
330
1F
100
AcDbEntity
  8
SK1
  6
CONTINUOUS
370
50
 62
4
100
AcDbLine
 10
49.35395391214686
 20
-2.544042924656761
 30
0.0
 11
50.0
 21
-1.897996836803626
 31
0.0
  0
LINE
  5
A38
330
1F
100
AcDbEntity
  8
SK1
  6
CONTINUOUS
370
50
 62
4
100
AcDbLine
 10
51.89799683680363
 20
0.0
 30
0.0
 11
52.54404292465676
 21
0.6460460878531347
 31
0.0
  0
LINE
  5
A39
330
1F
100
AcDbEntity
  8
SK1
  6
CONTINUOUS
370
50
 62
4
100
AcDbLine
 10
49.07222348891575
 20
-2.454542287764935
 30
0.0
 11
50.0
 21
-1.526765776680689
 31
0.0
  0
LINE
  5
A3A
330
1F
100
AcDbEntity
  8
SK1
  6
CONTINUOUS
370
50
 62
4
100
AcDbLine
 10
51.52676577668069
 20
0.0
 30
0.0
 11
52.45454228776494
 21
0.9277765110842457
 31
0.0
  0
LINE
  5
A3B
330
1F
100
AcDbEntity
  8
SK1
  6
CONTINUOUS
370
50
 62
4
100
AcDbLine
 10
48.81478120678253
 20
-2.340753509775221
 30
0.0
 11
50.0
 21
-1.155534716557751
 31
0.0
  0
LINE
  5
A3C
330
1F
100
AcDbEntity
  8
SK1
  6
CONTINUOUS
370
50
 62
4
100
AcDbLine
 10
51.15553471655775
 20
0.0
 30
0.0
 11
52.34075350977522
 21
1.185218793217471
 31
0.0
  0
LINE
  5
A3D
330
1F
100
AcDbEntity
  8
SK1
  6
CONTINUOUS
370
50
 62
4
100
AcDbLine
 10
48.57826543845547
 20
-2.206038217979337
 30
0.0
 11
50.0
 21
-0.7843036564348136
 31
0.0
  0
LINE
  5
A3E
330
1F
100
AcDbEntity
  8
SK1
  6
CONTINUOUS
370
50
 62
4
100
AcDbLine
 10
50.78430365643482
 20
0.0
 30
0.0
 11
52.20603821797934
 21
1.421734561544524
 31
0.0
  0
LINE
  5
A3F
330
1F
100
AcDbEntity
  8
SK1
  6
CONTINUOUS
370
50
 62
4
100
AcDbLine
 10
48.3626431117109
 20
-2.050429484600978
 30
0.0
 11
50.0
 21
-0.413072596311876
 31
0.0
  0
LINE
  5
A40
330
1F
100
AcDbEntity
  8
SK1
  6
CONTINUOUS
370
50
 62
4
100
AcDbLine
 10
50.41307259631188
 20
0.0
 30
0.0
 11
52.05042948460098
 21
1.637356888289101
 31
0.0
  0
LINE
  5
A41
330
1F
100
AcDbEntity
  8
SK1
  6
CONTINUOUS
370
50
 62
4
100
AcDbLine
 10
48.16568136807246
 20
-1.876160168116476
 30
0.0
 11
50.0
 21
-0.0418415361889384
 31
0.0
  0
LINE
  5
A42
330
1F
100
AcDbEntity
  8
SK1
  6
CONTINUOUS
370
50
 62
4
100
AcDbLine
 10
50.04184153618894
 20
0.0
 30
0.0
 11
51.87616016811648
 21
1.834318631927537
 31
0.0
  0
LINE
  5
A43
330
1F
100
AcDbEntity
  8
SK1
  6
CONTINUOUS
370
50
 62
4
100
AcDbLine
 10
47.98675942477632
 20
-1.683851051289679
 30
0.0
 11
49.670610476066
 21
0.0
 31
0.0
  0
LINE
  5
A44
330
1F
100
AcDbEntity
  8
SK1
  6
CONTINUOUS
370
50
 62
4
100
AcDbLine
 10
50.0
 20
0.3293895239339992
 30
0.0
 11
51.68385105128968
 21
2.013240575223679
 31
0.0
  0
LINE
  5
A45
330
1F
100
AcDbEntity
  8
SK1
  6
CONTINUOUS
370
50
 62
4
100
AcDbLine
 10
47.82782161830507
 20
-1.471557797638
 30
0.0
 11
49.29937941594306
 21
0.0
 31
0.0
  0
LINE
  5
A46
330
1F
100
AcDbEntity
  8
SK1
  6
CONTINUOUS
370
50
 62
4
100
AcDbLine
 10
50.0
 20
0.7006205840569368
 30
0.0
 11
51.471557797638
 21
2.172178381694937
 31
0.0
  0
LINE
  5
A47
330
1F
100
AcDbEntity
  8
SK1
  6
CONTINUOUS
370
50
 62
4
100
AcDbLine
 10
47.68749288718529
 20
-1.240655468634837
 30
0.0
 11
48.92814835582013
 21
0.0
 31
0.0
  0
LINE
  5
A48
330
1F
100
AcDbEntity
  8
SK1
  6
CONTINUOUS
370
50
 62
4
100
AcDbLine
 10
50.0
 20
1.071851644179874
 30
0.0
 11
51.24065546863483
 21
2.312507112814711
 31
0.0
  0
LINE
  5
A49
330
1F
100
AcDbEntity
  8
SK1
  6
CONTINUOUS
370
50
 62
4
100
AcDbLine
 10
47.56877644288387
 20
-0.9881408528133115
 30
0.0
 11
48.55691729569719
 21
0.0
 31
0.0
  0
LINE
  5
A4A
330
1F
100
AcDbEntity
  8
SK1
  6
CONTINUOUS
370
50
 62
4
100
AcDbLine
 10
50.0
 20
1.443082704302812
 30
0.0
 11
50.98814085281331
 21
2.431223557116124
 31
0.0
  0
LINE
  5
A4B
330
1F
100
AcDbEntity
  8
SK1
  6
CONTINUOUS
370
50
 62
4
100
AcDbLine
 10
47.47444482033456
 20
-0.7112414152396886
 30
0.0
 11
48.18568623557425
 21
0.0
 31
0.0
  0
LINE
  5
A4C
330
1F
100
AcDbEntity
  8
SK1
  6
CONTINUOUS
370
50
 62
4
100
AcDbLine
 10
50.0
 20
1.81431376442575
 30
0.0
 11
50.71124141523969
 21
2.525555179665439
 31
0.0
  0
LINE
  5
A4D
330
1F
100
AcDbEntity
  8
SK1
  6
CONTINUOUS
370
50
 62
4
100
AcDbLine
 10
47.40797120571085
 20
-0.4064839697404632
 30
0.0
 11
47.81445517545131
 21
0.0
 31
0.0
  0
LINE
  5
A4E
330
1F
100
AcDbEntity
  8
SK1
  6
CONTINUOUS
370
50
 62
4
100
AcDbLine
 10
50.0
 20
2.185544824548687
 30
0.0
 11
50.40648396974046
 21
2.59202879428915
 31
0.0
  0
LINE
  5
A4F
330
1F
100
AcDbEntity
  8
SK1
  6
CONTINUOUS
370
50
 62
4
100
AcDbLine
 10
47.37707870331546
 20
-0.0661454120129097
 30
0.0
 11
47.44322411532838
 21
0.0
 31
0.0
  0
LINE
  5
A50
330
1F
100
AcDbEntity
  8
SK1
  6
CONTINUOUS
370
50
 62
4
100
AcDbLine
 10
50.0
 20
2.556775884671625
 30
0.0
 11
50.06614541201291
 21
2.622921296684535
 31
0.0
  0
LINE
  5
A51
330
1F
100
AcDbEntity
  8
SK1
  6
CONTINUOUS
370
50
 62
4
100
AcDbLine
 10
47.54579652643623
 20
-0.9287176037316112
 30
0.0
 11
49.07128239626839
 21
-2.454203473563768
 31
0.0
  0
LINE
  5
A52
330
1F
100
AcDbEntity
  8
SK1
  6
CONTINUOUS
370
50
 62
4
100
AcDbLine
 10
47.41045104563307
 20
-0.4221410628055069
 30
0.0
 11
49.5778589371945
 21
-2.589548954366935
 31
0.0
  0
LINE
  5
A53
330
1F
100
AcDbEntity
  8
SK1
  6
CONTINUOUS
370
50
 62
4
100
AcDbLine
 10
47.37550158008622
 20
-0.0159605371357268
 30
0.0
 11
49.98403946286427
 21
-2.624498419913778
 31
0.0
  0
LINE
  5
A54
330
1F
100
AcDbEntity
  8
SK1
  6
CONTINUOUS
370
50
 62
4
100
AcDbLine
 10
47.73077210307343
 20
0.0
 30
0.0
 11
50.0
 21
-2.269227896926564
 31
0.0
  0
LINE
  5
A55
330
1F
100
AcDbEntity
  8
SK1
  6
CONTINUOUS
370
50
 62
4
100
AcDbLine
 10
48.10200316319637
 20
0.0
 30
0.0
 11
50.0
 21
-1.897996836803626
 31
0.0
  0
LINE
  5
A56
330
1F
100
AcDbEntity
  8
SK1
  6
CONTINUOUS
370
50
 62
4
100
AcDbLine
 10
48.47323422331931
 20
0.0
 30
0.0
 11
50.0
 21
-1.526765776680689
 31
0.0
  0
LINE
  5
A57
330
1F
100
AcDbEntity
  8
SK1
  6
CONTINUOUS
370
50
 62
4
100
AcDbLine
 10
48.84446528344225
 20
0.0
 30
0.0
 11
50.0
 21
-1.155534716557752
 31
0.0
  0
LINE
  5
A58
330
1F
100
AcDbEntity
  8
SK1
  6
CONTINUOUS
370
50
 62
4
100
AcDbLine
 10
49.21569634356518
 20
0.0
 30
0.0
 11
50.0
 21
-0.7843036564348145
 31
0.0
  0
LINE
  5
A59
330
1F
100
AcDbEntity
  8
SK1
  6
CONTINUOUS
370
50
 62
4
100
AcDbLine
 10
49.58692740368812
 20
0.0
 30
0.0
 11
50.0
 21
-0.4130725963118769
 31
0.0
  0
LINE
  5
A5A
330
1F
100
AcDbEntity
  8
SK1
  6
CONTINUOUS
370
50
 62
4
100
AcDbLine
 10
49.95815846381106
 20
0.0
 30
0.0
 11
50.0
 21
-0.0418415361889393
 31
0.0
  0
LINE
  5
A5B
330
1F
100
AcDbEntity
  8
SK1
  6
CONTINUOUS
370
50
 62
4
100
AcDbLine
 10
50.0
 20
0.3293895239339975
 30
0.0
 11
50.329389523934
 21
0.0
 31
0.0
  0
LINE
  5
A5C
330
1F
100
AcDbEntity
  8
SK1
  6
CONTINUOUS
370
50
 62
4
100
AcDbLine
 10
50.0
 20
0.7006205840569351
 30
0.0
 11
50.70062058405694
 21
0.0
 31
0.0
  0
LINE
  5
A5D
330
1F
100
AcDbEntity
  8
SK1
  6
CONTINUOUS
370
50
 62
4
100
AcDbLine
 10
50.0
 20
1.071851644179873
 30
0.0
 11
51.07185164417987
 21
0.0
 31
0.0
  0
LINE
  5
A5E
330
1F
100
AcDbEntity
  8
SK1
  6
CONTINUOUS
370
50
 62
4
100
AcDbLine
 10
50.0
 20
1.44308270430281
 30
0.0
 11
51.44308270430281
 21
0.0
 31
0.0
  0
LINE
  5
A5F
330
1F
100
AcDbEntity
  8
SK1
  6
CONTINUOUS
370
50
 62
4
100
AcDbLine
 10
50.0
 20
1.814313764425748
 30
0.0
 11
51.81431376442575
 21
0.0
 31
0.0
  0
LINE
  5
A60
330
1F
100
AcDbEntity
  8
SK1
  6
CONTINUOUS
370
50
 62
4
100
AcDbLine
 10
50.0
 20
2.185544824548685
 30
0.0
 11
52.18554482454869
 21
0.0
 31
0.0
  0
LINE
  5
A61
330
1F
100
AcDbEntity
  8
SK1
  6
CONTINUOUS
370
50
 62
4
100
AcDbLine
 10
50.0
 20
2.556775884671622
 30
0.0
 11
52.55677588467162
 21
0.0
 31
0.0
  0
LINE
  5
A62
330
1F
100
AcDbEntity
  8
SK1
  6
CONTINUOUS
370
50
 62
4
100
AcDbLine
 10
50.3231531925751
 20
2.604853752219459
 30
0.0
 11
52.60485375221946
 21
0.3231531925751043
 31
0.0
  0
LINE
  5
A63
330
1F
100
AcDbEntity
  8
SK1
  6
CONTINUOUS
370
50
 62
4
100
AcDbLine
 10
50.79925237182748
 20
2.499985633090018
 30
0.0
 11
52.49998563309002
 21
0.7992523718274818
 31
0.0
  0
LINE
  5
A64
330
1F
100
AcDbEntity
  8
SK1
  6
CONTINUOUS
370
50
 62
4
100
AcDbLine
 10
51.56015793098176
 20
2.11031113405868
 30
0.0
 11
52.11031113405868
 21
1.560157930981759
 31
0.0
  0
ARC
  5
A65
330
1F
100
AcDbEntity
  8
SK6
  6
CONTINUOUS
370
25
 62
5
100
AcDbCircle
 10
134.9613820083765
 20
-26.19545714338786
 30
0.0
 40
2.76048912849221
100
AcDbArc
 50
338.9379403434233
 51
90.44457437511392
  0
LINE
  5
A66
330
1F
100
AcDbEntity
  8
SK6
  6
CONTINUOUS
370
25
 62
5
100
AcDbLine
 10
134.9399627969598
 20
-23.43505111421281
 30
0.0
 11
134.9399627969598
 21
-24.53810974613463
 31
0.0
  0
ARC
  5
A67
330
1F
100
AcDbEntity
  8
SK6
  6
CONTINUOUS
370
25
 62
5
100
AcDbCircle
 10
134.9505090293692
 20
-26.2154506356682
 30
0.0
 40
1.677374043771792
100
AcDbArc
 50
243.421470601786
 51
90.3602408122618
  0
ARC
  5
A68
330
1F
100
AcDbEntity
  8
SK6
  6
CONTINUOUS
370
25
 62
5
100
AcDbCircle
 10
137.4727598968496
 20
-25.78404338215561
 30
0.0
 40
3.80021703002276
100
AcDbArc
 50
210.5483731288539
 51
236.9780169366802
  0
LINE
  5
A69
330
1F
100
AcDbEntity
  8
SK6
  6
CONTINUOUS
370
25
 62
5
100
AcDbLine
 10
135.4017906851249
 20
-28.97037920867535
 30
0.0
 11
139.5437309674267
 21
-28.97037920867535
 31
0.0
  0
ARC
  5
A6A
330
1F
100
AcDbEntity
  8
SK6
  6
CONTINUOUS
370
25
 62
5
100
AcDbCircle
 10
137.4727618387726
 20
-25.7840434837346
 30
0.0
 40
3.80021689958248
100
AcDbArc
 50
303.021982847796
 51
326.3732153033476
  0
LINE
  5
A6B
330
1F
100
AcDbEntity
  8
SK6
  6
CONTINUOUS
370
25
 62
5
100
AcDbLine
 10
140.6370597513572
 20
-27.8885308807709
 30
0.0
 11
137.2797617057546
 21
-27.8885308807709
 31
0.0
  0
LINE
  5
A6C
330
1F
100
AcDbEntity
  8
SK6
  6
CONTINUOUS
370
25
 62
5
100
AcDbLine
 10
137.2797617057546
 20
-27.8885308807709
 30
0.0
 11
141.1996210977199
 21
-26.52712968641694
 31
0.0
  0
ARC
  5
A6D
330
1F
100
AcDbEntity
  8
SK6
  6
CONTINUOUS
370
25
 62
5
100
AcDbCircle
 10
137.4727625615721
 20
-25.7840439948594
 30
0.0
 40
3.800217216614737
100
AcDbArc
 50
348.7238644184696
 51
53.4691051260886
  0
LINE
  5
A6E
330
1F
100
AcDbEntity
  8
SK6
  6
CONTINUOUS
370
25
 62
5
100
AcDbLine
 10
139.7348652453854
 20
-22.73043263429967
 30
0.0
 11
137.5374504788273
 21
-27.18752112507057
 31
0.0
  0
ENDSEC
  0
SECTION
  2
OBJECTS
  0
DICTIONARY
  5
C
330
0
100
AcDbDictionary
281
     1
  3
ACAD_GROUP
350
D
  3
ACAD_LAYOUT
350
1A
  3
ACAD_MATERIAL
350
3B
  3
ACAD_MLEADERSTYLE
350
A71
  3
ACAD_MLINESTYLE
350
17
  3
ACAD_PLOTSETTINGS
350
19
  3
ACAD_PLOTSTYLENAME
350
E
  3
ACAD_SCALELIST
350
37B
  3
ACAD_VISUALSTYLE
350
2A
  3
AcDbVariableDictionary
350
A6F
  0
DICTIONARY
  5
D
102
{ACAD_REACTORS
330
C
102
}
330
C
100
AcDbDictionary
281
     1
  0
DICTIONARY
  5
1A
102
{ACAD_REACTORS
330
C
102
}
330
C
100
AcDbDictionary
281
     1
  3
Layout1
350
1E
  3
Layout2
350
26
  3
Model
350
22
  0
DICTIONARY
  5
3B
102
{ACAD_REACTORS
330
C
102
}
330
C
100
AcDbDictionary
281
     1
  3
ByBlock
350
3D
  3
ByLayer
350
3C
  3
Global
350
3E
  0
DICTIONARY
  5
A71
102
{ACAD_REACTORS
330
C
102
}
330
C
100
AcDbDictionary
281
     1
  0
DICTIONARY
  5
17
102
{ACAD_REACTORS
330
C
102
}
330
C
100
AcDbDictionary
281
     1
  3
Standard
350
18
  0
DICTIONARY
  5
19
102
{ACAD_REACTORS
330
C
102
}
330
C
100
AcDbDictionary
281
     1
  0
ACDBDICTIONARYWDFLT
  5
E
102
{ACAD_REACTORS
330
C
102
}
330
C
100
AcDbDictionary
281
     1
  3
Normal
350
F
100
AcDbDictionaryWithDefault
340
F
  0
DICTIONARY
  5
37B
102
{ACAD_REACTORS
330
C
102
}
330
C
100
AcDbDictionary
281
     1
  3
A0
350
37C
  3
A1
350
37D
  3
A2
350
37E
  3
A3
350
37F
  3
A4
350
380
  3
A5
350
381
  3
A6
350
382
  3
A7
350
383
  3
A8
350
384
  3
A9
350
385
  3
B0
350
386
  3
B1
350
387
  3
B2
350
388
  3
B3
350
389
  3
B4
350
38A
  3
B5
350
38B
  3
B6
350
38C
  3
B7
350
38D
  3
B8
350
38E
  3
B9
350
38F
  3
C0
350
390
  3
C1
350
391
  3
C2
350
392
  3
C3
350
393
  3
C4
350
394
  3
C5
350
395
  3
C6
350
396
  3
C7
350
397
  3
C8
350
398
  3
C9
350
399
  3
D0
350
39A
  3
D1
350
39B
  3
D2
350
39C
  0
DICTIONARY
  5
2A
102
{ACAD_REACTORS
330
C
102
}
330
C
100
AcDbDictionary
281
     1
  3
2dWireframe
350
2F
  3
3D Hidden
350
31
  3
3dWireframe
350
30
  3
Basic
350
32
  3
Brighten
350
36
  3
ColorChange
350
3A
  3
Conceptual
350
34
  3
Dim
350
35
  3
Facepattern
350
39
  3
Flat
350
2B
  3
FlatWithEdges
350
2C
  3
Gouraud
350
2D
  3
GouraudWithEdges
350
2E
  3
Linepattern
350
38
  3
Realistic
350
33
  3
Thicken
350
37
  0
DICTIONARY
  5
A6F
102
{ACAD_REACTORS
330
C
102
}
330
C
100
AcDbDictionary
281
     1
  3
CANNOSCALE
350
A74
  3
DIMASSOC
350
A75
  3
HIDETEXT
350
A76
  3
PSOLHEIGHT
350
A73
  3
PSOLWIDTH
350
A72
  0
LAYOUT
  5
1E
102
{ACAD_REACTORS
330
1A
102
}
330
1A
100
AcDbPlotSettings
  1

  2
none_device
  4

  6

 40
0.0
 41
0.0
 42
0.0
 43
0.0
 44
0.0
 45
0.0
 46
0.0
 47
0.0
 48
0.0
 49
0.0
140
0.0
141
0.0
142
1.0
143
1.0
 70
   688
 72
     0
 73
     0
 74
     5
  7

 75
    16
147
1.0
148
0.0
149
0.0
100
AcDbLayout
  1
Layout1
 70
     1
 71
     1
 10
0.0
 20
0.0
 11
420.0
 21
297.0
 12
0.0
 22
0.0
 32
0.0
 14
1.000000000000000E+20
 24
1.000000000000000E+20
 34
1.000000000000000E+20
 15
-1.000000000000000E+20
 25
-1.000000000000000E+20
 35
-1.000000000000000E+20
146
0.0
 13
0.0
 23
0.0
 33
0.0
 16
1.0
 26
0.0
 36
0.0
 17
0.0
 27
1.0
 37
0.0
 76
     0
330
1B
  0
LAYOUT
  5
26
102
{ACAD_REACTORS
330
1A
102
}
330
1A
100
AcDbPlotSettings
  1

  2
none_device
  4

  6

 40
0.0
 41
0.0
 42
0.0
 43
0.0
 44
0.0
 45
0.0
 46
0.0
 47
0.0
 48
0.0
 49
0.0
140
0.0
141
0.0
142
1.0
143
1.0
 70
   688
 72
     0
 73
     0
 74
     5
  7

 75
    16
147
1.0
148
0.0
149
0.0
100
AcDbLayout
  1
Layout2
 70
     1
 71
     2
 10
0.0
 20
0.0
 11
0.0
 21
0.0
 12
0.0
 22
0.0
 32
0.0
 14
0.0
 24
0.0
 34
0.0
 15
0.0
 25
0.0
 35
0.0
146
0.0
 13
0.0
 23
0.0
 33
0.0
 16
1.0
 26
0.0
 36
0.0
 17
0.0
 27
1.0
 37
0.0
 76
     0
330
23
  0
LAYOUT
  5
22
102
{ACAD_REACTORS
330
1A
102
}
330
1A
100
AcDbPlotSettings
  1

  2
none_device
  4

  6

 40
0.0
 41
0.0
 42
0.0
 43
0.0
 44
0.0
 45
0.0
 46
0.0
 47
0.0
 48
0.0
 49
0.0
140
0.0
141
0.0
142
1.0
143
1.0
 70
  1712
 72
     0
 73
     0
 74
     0
  7

 75
     0
147
1.0
148
0.0
149
0.0
100
AcDbLayout
  1
Model
 70
     1
 71
     0
 10
0.0
 20
0.0
 11
420.0
 21
297.0
 12
0.0
 22
0.0
 32
0.0
 14
0.0
 24
0.0
 34
0.0
 15
25.0
 25
35.0
 35
0.0
146
0.0
 13
0.0
 23
0.0
 33
0.0
 16
1.0
 26
0.0
 36
0.0
 17
0.0
 27
1.0
 37
0.0
 76
     0
330
1F
331
29
  0
MATERIAL
  5
3D
102
{ACAD_REACTORS
330
3B
102
}
102
{ACAD_XDICTIONARY
360
A99
102
}
330
3B
100
AcDbMaterial
  1
ByBlock
  0
MATERIAL
  5
3C
102
{ACAD_REACTORS
330
3B
102
}
102
{ACAD_XDICTIONARY
360
A97
102
}
330
3B
100
AcDbMaterial
  1
ByLayer
  0
MATERIAL
  5
3E
102
{ACAD_REACTORS
330
3B
102
}
102
{ACAD_XDICTIONARY
360
A9B
102
}
330
3B
100
AcDbMaterial
  1
Global
  0
MLINESTYLE
  5
18
102
{ACAD_REACTORS
330
17
102
}
330
17
100
AcDbMlineStyle
  2
Standard
 70
     0
  3

 62
   256
 51
90.0
 52
90.0
 71
     2
 49
0.5
 62
   256
  6
BYLAYER
 49
-0.5
 62
   256
  6
BYLAYER
  0
ACDBPLACEHOLDER
  5
F
102
{ACAD_REACTORS
330
E
102
}
330
E
  0
SCALE
  5
37C
102
{ACAD_REACTORS
330
37B
102
}
330
37B
100
AcDbScale
 70
     0
300
1:1
140
1.0
141
1.0
290
     1
  0
SCALE
  5
37D
102
{ACAD_REACTORS
330
37B
102
}
330
37B
100
AcDbScale
 70
     0
300
1:2
140
1.0
141
2.0
290
     0
  0
SCALE
  5
37E
102
{ACAD_REACTORS
330
37B
102
}
330
37B
100
AcDbScale
 70
     0
300
1:4
140
1.0
141
4.0
290
     0
  0
SCALE
  5
37F
102
{ACAD_REACTORS
330
37B
102
}
330
37B
100
AcDbScale
 70
     0
300
1:5
140
1.0
141
5.0
290
     0
  0
SCALE
  5
380
102
{ACAD_REACTORS
330
37B
102
}
330
37B
100
AcDbScale
 70
     0
300
1:8
140
1.0
141
8.0
290
     0
  0
SCALE
  5
381
102
{ACAD_REACTORS
330
37B
102
}
330
37B
100
AcDbScale
 70
     0
300
1:10
140
1.0
141
10.0
290
     0
  0
SCALE
  5
382
102
{ACAD_REACTORS
330
37B
102
}
330
37B
100
AcDbScale
 70
     0
300
1:16
140
1.0
141
16.0
290
     0
  0
SCALE
  5
383
102
{ACAD_REACTORS
330
37B
102
}
330
37B
100
AcDbScale
 70
     0
300
1:20
140
1.0
141
20.0
290
     0
  0
SCALE
  5
384
102
{ACAD_REACTORS
330
37B
102
}
330
37B
100
AcDbScale
 70
     0
300
1:30
140
1.0
141
30.0
290
     0
  0
SCALE
  5
385
102
{ACAD_REACTORS
330
37B
102
}
330
37B
100
AcDbScale
 70
     0
300
1:40
140
1.0
141
40.0
290
     0
  0
SCALE
  5
386
102
{ACAD_REACTORS
330
37B
102
}
330
37B
100
AcDbScale
 70
     0
300
1:50
140
1.0
141
50.0
290
     0
  0
SCALE
  5
387
102
{ACAD_REACTORS
330
37B
102
}
330
37B
100
AcDbScale
 70
     0
300
1:100
140
1.0
141
100.0
290
     0
  0
SCALE
  5
388
102
{ACAD_REACTORS
330
37B
102
}
330
37B
100
AcDbScale
 70
     0
300
2:1
140
2.0
141
1.0
290
     0
  0
SCALE
  5
389
102
{ACAD_REACTORS
330
37B
102
}
330
37B
100
AcDbScale
 70
     0
300
4:1
140
4.0
141
1.0
290
     0
  0
SCALE
  5
38A
102
{ACAD_REACTORS
330
37B
102
}
330
37B
100
AcDbScale
 70
     0
300
8:1
140
8.0
141
1.0
290
     0
  0
SCALE
  5
38B
102
{ACAD_REACTORS
330
37B
102
}
330
37B
100
AcDbScale
 70
     0
300
10:1
140
10.0
141
1.0
290
     0
  0
SCALE
  5
38C
102
{ACAD_REACTORS
330
37B
102
}
330
37B
100
AcDbScale
 70
     0
300
100:1
140
100.0
141
1.0
290
     0
  0
SCALE
  5
38D
102
{ACAD_REACTORS
330
37B
102
}
330
37B
100
AcDbScale
 70
     0
300
1/128" = 1'-0"
140
0.0078125
141
12.0
290
     0
  0
SCALE
  5
38E
102
{ACAD_REACTORS
330
37B
102
}
330
37B
100
AcDbScale
 70
     0
300
1/64" = 1'-0"
140
0.015625
141
12.0
290
     0
  0
SCALE
  5
38F
102
{ACAD_REACTORS
330
37B
102
}
330
37B
100
AcDbScale
 70
     0
300
1/32" = 1'-0"
140
0.03125
141
12.0
290
     0
  0
SCALE
  5
390
102
{ACAD_REACTORS
330
37B
102
}
330
37B
100
AcDbScale
 70
     0
300
1/16" = 1'-0"
140
0.0625
141
12.0
290
     0
  0
SCALE
  5
391
102
{ACAD_REACTORS
330
37B
102
}
330
37B
100
AcDbScale
 70
     0
300
3/32" = 1'-0"
140
0.09375
141
12.0
290
     0
  0
SCALE
  5
392
102
{ACAD_REACTORS
330
37B
102
}
330
37B
100
AcDbScale
 70
     0
300
1/8" = 1'-0"
140
0.125
141
12.0
290
     0
  0
SCALE
  5
393
102
{ACAD_REACTORS
330
37B
102
}
330
37B
100
AcDbScale
 70
     0
300
3/16" = 1'-0"
140
0.1875
141
12.0
290
     0
  0
SCALE
  5
394
102
{ACAD_REACTORS
330
37B
102
}
330
37B
100
AcDbScale
 70
     0
300
1/4" = 1'-0"
140
0.25
141
12.0
290
     0
  0
SCALE
  5
395
102
{ACAD_REACTORS
330
37B
102
}
330
37B
100
AcDbScale
 70
     0
300
3/8" = 1'-0"
140
0.375
141
12.0
290
     0
  0
SCALE
  5
396
102
{ACAD_REACTORS
330
37B
102
}
330
37B
100
AcDbScale
 70
     0
300
1/2" = 1'-0"
140
0.5
141
12.0
290
     0
  0
SCALE
  5
397
102
{ACAD_REACTORS
330
37B
102
}
330
37B
100
AcDbScale
 70
     0
300
3/4" = 1'-0"
140
0.75
141
12.0
290
     0
  0
SCALE
  5
398
102
{ACAD_REACTORS
330
37B
102
}
330
37B
100
AcDbScale
 70
     0
300
1" = 1'-0"
140
1.0
141
12.0
290
     0
  0
SCALE
  5
399
102
{ACAD_REACTORS
330
37B
102
}
330
37B
100
AcDbScale
 70
     0
300
1-1/2" = 1'-0"
140
1.5
141
12.0
290
     0
  0
SCALE
  5
39A
102
{ACAD_REACTORS
330
37B
102
}
330
37B
100
AcDbScale
 70
     0
300
3" = 1'-0"
140
3.0
141
12.0
290
     0
  0
SCALE
  5
39B
102
{ACAD_REACTORS
330
37B
102
}
330
37B
100
AcDbScale
 70
     0
300
6" = 1'-0"
140
6.0
141
12.0
290
     0
  0
SCALE
  5
39C
102
{ACAD_REACTORS
330
37B
102
}
330
37B
100
AcDbScale
 70
     0
300
1'-0" = 1'-0"
140
12.0
141
12.0
290
     0
  0
VISUALSTYLE
  5
2F
102
{ACAD_REACTORS
330
2A
102
}
102
{ACAD_XDICTIONARY
360
A7F
102
}
330
2A
100
AcDbVisualStyle
  2
2dWireframe
 70
     4
 71
     0
 72
     2
 73
     0
 90
        0
 40
-0.6
 41
-30.0
 62
     5
 63
     7
 74
     1
 91
        4
 64
     7
 65
   257
 75
     1
175
     1
 42
1.0
 92
        0
 66
   257
 43
1.0
 76
     1
 77
     6
 78
     2
 67
     7
 79
     5
170
     0
171
     0
290
     0
174
     0
 93
        1
 44
0.0
173
     0
291
     0
 45
0.0
1001
ACAD
1000
AcDbSavedByObjectVersion
1070
     0
  0
VISUALSTYLE
  5
31
102
{ACAD_REACTORS
330
2A
102
}
102
{ACAD_XDICTIONARY
360
A83
102
}
330
2A
100
AcDbVisualStyle
  2
3D Hidden
 70
     6
 71
     1
 72
     2
 73
     2
 90
        0
 40
-0.6
 41
-30.0
 62
     5
 63
     7
 74
     2
 91
        2
 64
     7
 65
   257
 75
     2
175
     1
 42
40.0
 92
        0
 66
   257
 43
1.0
 76
     1
 77
     6
 78
     2
 67
     7
 79
     3
170
     0
171
     0
290
     0
174
     0
 93
        1
 44
0.0
173
     0
291
     0
 45
0.0
1001
ACAD
1000
AcDbSavedByObjectVersion
1070
     0
  0
VISUALSTYLE
  5
30
102
{ACAD_REACTORS
330
2A
102
}
102
{ACAD_XDICTIONARY
360
A81
102
}
330
2A
100
AcDbVisualStyle
  2
3dWireframe
 70
     5
 71
     0
 72
     2
 73
     0
 90
        0
 40
-0.6
 41
-30.0
 62
     5
 63
     7
 74
     1
 91
        4
 64
     7
 65
   257
 75
     1
175
     1
 42
1.0
 92
        0
 66
   257
 43
1.0
 76
     1
 77
     6
 78
     2
 67
     7
 79
     5
170
     0
171
     0
290
     0
174
     0
 93
        1
 44
0.0
173
     0
291
     0
 45
0.0
1001
ACAD
1000
AcDbSavedByObjectVersion
1070
     0
  0
VISUALSTYLE
  5
32
102
{ACAD_REACTORS
330
2A
102
}
102
{ACAD_XDICTIONARY
360
A85
102
}
330
2A
100
AcDbVisualStyle
  2
Basic
 70
     7
 71
     1
 72
     0
 73
     1
 90
        0
 40
-0.6
 41
-30.0
 62
     5
 63
     7
 74
     0
 91
        4
 64
     7
 65
   257
 75
     1
175
     1
 42
1.0
 92
        8
 66
     7
 43
1.0
 76
     1
 77
     6
 78
     2
 67
     7
 79
     5
170
     0
171
     0
290
     0
174
     0
 93
        1
 44
0.0
173
     0
291
     1
 45
0.0
1001
ACAD
1000
AcDbSavedByObjectVersion
1070
     0
  0
VISUALSTYLE
  5
36
102
{ACAD_REACTORS
330
2A
102
}
102
{ACAD_XDICTIONARY
360
A8D
102
}
330
2A
100
AcDbVisualStyle
  2
Brighten
 70
    12
 71
     2
 72
     2
 73
     0
 90
        0
 40
-0.6
 41
-30.0
 62
     5
 63
     7
 74
     1
 91
        4
 64
     7
 65
   257
 75
     1
175
     1
 42
1.0
 92
        8
 66
     7
 43
1.0
 76
     1
 77
     6
 78
     2
 67
     7
 79
     5
170
     0
171
     0
290
     0
174
     0
 93
        1
 44
50.0
173
     0
291
     1
 45
0.0
1001
ACAD
1000
AcDbSavedByObjectVersion
1070
     0
  0
VISUALSTYLE
  5
3A
102
{ACAD_REACTORS
330
2A
102
}
102
{ACAD_XDICTIONARY
360
A95
102
}
330
2A
100
AcDbVisualStyle
  2
ColorChange
 70
    16
 71
     2
 72
     2
 73
     3
 90
        0
 40
-0.6
 41
-30.0
 62
     5
 63
     8
 74
     1
 91
        4
 64
     7
 65
   257
 75
     1
175
     1
 42
1.0
 92
        8
 66
     8
 43
1.0
 76
     1
 77
     6
 78
     2
 67
     7
 79
     5
170
     0
171
     0
290
     0
174
     0
 93
        1
 44
0.0
173
     0
291
     1
 45
0.0
1001
ACAD
1000
AcDbSavedByObjectVersion
1070
     0
  0
VISUALSTYLE
  5
34
102
{ACAD_REACTORS
330
2A
102
}
102
{ACAD_XDICTIONARY
360
A89
102
}
330
2A
100
AcDbVisualStyle
  2
Conceptual
 70
     9
 71
     3
 72
     2
 73
     0
 90
        0
 40
-0.6
 41
-30.0
 62
     5
 63
     7
 74
     2
 91
        2
 64
     7
 65
   257
 75
     1
175
     1
 42
40.0
 92
        8
 66
     7
 43
1.0
 76
     1
 77
     6
 78
     2
 67
     7
 79
     3
170
     0
171
     0
290
     0
174
     0
 93
        1
 44
0.0
173
     0
291
     0
 45
0.0
1001
ACAD
1000
AcDbSavedByObjectVersion
1070
     0
  0
VISUALSTYLE
  5
35
102
{ACAD_REACTORS
330
2A
102
}
102
{ACAD_XDICTIONARY
360
A8B
102
}
330
2A
100
AcDbVisualStyle
  2
Dim
 70
    11
 71
     2
 72
     2
 73
     0
 90
        0
 40
-0.6
 41
-30.0
 62
     5
 63
     7
 74
     1
 91
        4
 64
     7
 65
   257
 75
     1
175
     1
 42
1.0
 92
        8
 66
     7
 43
1.0
 76
     1
 77
     6
 78
     2
 67
     7
 79
     5
170
     0
171
     0
290
     0
174
     0
 93
        1
 44
-50.0
173
     0
291
     1
 45
0.0
1001
ACAD
1000
AcDbSavedByObjectVersion
1070
     0
  0
VISUALSTYLE
  5
39
102
{ACAD_REACTORS
330
2A
102
}
102
{ACAD_XDICTIONARY
360
A93
102
}
330
2A
100
AcDbVisualStyle
  2
Facepattern
 70
    15
 71
     2
 72
     2
 73
     0
 90
        0
 40
-0.6
 41
-30.0
 62
     5
 63
     7
 74
     1
 91
        4
 64
     7
 65
   257
 75
     1
175
     1
 42
1.0
 92
        8
 66
     7
 43
1.0
 76
     1
 77
     6
 78
     2
 67
     7
 79
     5
170
     0
171
     0
290
     0
174
     0
 93
        1
 44
0.0
173
     0
291
     1
 45
0.0
1001
ACAD
1000
AcDbSavedByObjectVersion
1070
     0
  0
VISUALSTYLE
  5
2B
102
{ACAD_REACTORS
330
2A
102
}
102
{ACAD_XDICTIONARY
360
A77
102
}
330
2A
100
AcDbVisualStyle
  2
Flat
 70
     0
 71
     2
 72
     1
 73
     1
 90
        2
 40
-0.6
 41
30.0
 62
     5
 63
     7
 74
     0
 91
        4
 64
     7
 65
   257
 75
     1
175
     1
 42
1.0
 92
        8
 66
     7
 43
1.0
 76
     1
 77
     6
 78
     2
 67
     7
 79
     5
170
     0
171
     0
290
     0
174
     0
 93
       13
 44
0.0
173
     0
291
     1
 45
0.0
1001
ACAD
1000
AcDbSavedByObjectVersion
1070
     0
  0
VISUALSTYLE
  5
2C
102
{ACAD_REACTORS
330
2A
102
}
102
{ACAD_XDICTIONARY
360
A79
102
}
330
2A
100
AcDbVisualStyle
  2
FlatWithEdges
 70
     1
 71
     2
 72
     1
 73
     1
 90
        2
 40
-0.6
 41
30.0
 62
     5
 63
     7
 74
     1
 91
        4
 64
     7
 65
   257
 75
     1
175
     1
 42
1.0
 92
        0
 66
   257
 43
1.0
 76
     1
 77
     6
 78
     2
 67
     7
 79
     5
170
     0
171
     0
290
     0
174
     0
 93
       13
 44
0.0
173
     0
291
     1
 45
0.0
1001
ACAD
1000
AcDbSavedByObjectVersion
1070
     0
  0
VISUALSTYLE
  5
2D
102
{ACAD_REACTORS
330
2A
102
}
102
{ACAD_XDICTIONARY
360
A7B
102
}
330
2A
100
AcDbVisualStyle
  2
Gouraud
 70
     2
 71
     2
 72
     2
 73
     1
 90
        2
 40
-0.6
 41
30.0
 62
     5
 63
     7
 74
     0
 91
        4
 64
     7
 65
   257
 75
     1
175
     1
 42
1.0
 92
        0
 66
     7
 43
1.0
 76
     1
 77
     6
 78
     2
 67
     7
 79
     5
170
     0
171
     0
290
     0
174
     0
 93
       13
 44
0.0
173
     0
291
     1
 45
0.0
1001
ACAD
1000
AcDbSavedByObjectVersion
1070
     0
  0
VISUALSTYLE
  5
2E
102
{ACAD_REACTORS
330
2A
102
}
102
{ACAD_XDICTIONARY
360
A7D
102
}
330
2A
100
AcDbVisualStyle
  2
GouraudWithEdges
 70
     3
 71
     2
 72
     2
 73
     1
 90
        2
 40
-0.6
 41
30.0
 62
     5
 63
     7
 74
     1
 91
        4
 64
     7
 65
   257
 75
     1
175
     1
 42
1.0
 92
        0
 66
   257
 43
1.0
 76
     1
 77
     6
 78
     2
 67
     7
 79
     5
170
     0
171
     0
290
     0
174
     0
 93
       13
 44
0.0
173
     0
291
     1
 45
0.0
1001
ACAD
1000
AcDbSavedByObjectVersion
1070
     0
  0
VISUALSTYLE
  5
38
102
{ACAD_REACTORS
330
2A
102
}
102
{ACAD_XDICTIONARY
360
A91
102
}
330
2A
100
AcDbVisualStyle
  2
Linepattern
 70
    14
 71
     2
 72
     2
 73
     0
 90
        0
 40
-0.6
 41
-30.0
 62
     5
 63
     7
 74
     1
 91
        4
 64
     7
 65
   257
 75
     7
175
     7
 42
1.0
 92
        8
 66
     7
 43
1.0
 76
     1
 77
     6
 78
     2
 67
     7
 79
     5
170
     0
171
     0
290
     0
174
     0
 93
        1
 44
0.0
173
     0
291
     1
 45
0.0
1001
ACAD
1000
AcDbSavedByObjectVersion
1070
     0
  0
VISUALSTYLE
  5
33
102
{ACAD_REACTORS
330
2A
102
}
102
{ACAD_XDICTIONARY
360
A87
102
}
330
2A
100
AcDbVisualStyle
  2
Realistic
 70
     8
 71
     2
 72
     2
 73
     0
 90
        0
 40
-0.6
 41
-30.0
 62
     5
 63
     7
 74
     1
 91
        0
 64
     7
 65
   257
 75
     1
175
     1
 42
1.0
 92
        8
 66
     8
 43
1.0
 76
     1
 77
     6
 78
     2
 67
     7
 79
     5
170
     0
171
     0
290
     0
174
     0
 93
       13
 44
0.0
173
     0
291
     0
 45
0.0
1001
ACAD
1000
AcDbSavedByObjectVersion
1070
     0
  0
VISUALSTYLE
  5
37
102
{ACAD_REACTORS
330
2A
102
}
102
{ACAD_XDICTIONARY
360
A8F
102
}
330
2A
100
AcDbVisualStyle
  2
Thicken
 70
    13
 71
     2
 72
     2
 73
     0
 90
        0
 40
-0.6
 41
-30.0
 62
     5
 63
     7
 74
     1
 91
        4
 64
     7
 65
   257
 75
     1
175
     1
 42
1.0
 92
       12
 66
     7
 43
1.0
 76
     1
 77
     6
 78
     2
 67
     7
 79
     5
170
     0
171
     0
290
     0
174
     0
 93
        1
 44
0.0
173
     0
291
     1
 45
0.0
1001
ACAD
1000
AcDbSavedByObjectVersion
1070
     0
  0
DICTIONARYVAR
  5
A74
102
{ACAD_REACTORS
330
A6F
102
}
330
A6F
100
DictionaryVariables
280
     0
  1
1:1
  0
DICTIONARYVAR
  5
A75
102
{ACAD_REACTORS
330
A6F
102
}
330
A6F
100
DictionaryVariables
280
     0
  1
2
  0
DICTIONARYVAR
  5
A76
102
{ACAD_REACTORS
330
A6F
102
}
330
A6F
100
DictionaryVariables
280
     0
  1
1
  0
DICTIONARYVAR
  5
A73
102
{ACAD_REACTORS
330
A6F
102
}
330
A6F
100
DictionaryVariables
280
     0
  1
80.000000
  0
DICTIONARYVAR
  5
A72
102
{ACAD_REACTORS
330
A6F
102
}
330
A6F
100
DictionaryVariables
280
     0
  1
5.000000
  0
DICTIONARY
  5
A99
330
3D
100
AcDbDictionary
280
     1
281
     1
  3
ACAD_XREC_ROUNDTRIP
360
A9A
  0
DICTIONARY
  5
A97
330
3C
100
AcDbDictionary
280
     1
281
     1
  3
ACAD_XREC_ROUNDTRIP
360
A98
  0
DICTIONARY
  5
A9B
330
3E
100
AcDbDictionary
280
     1
281
     1
  3
ACAD_XREC_ROUNDTRIP
360
A9C
  0
DICTIONARY
  5
A7F
330
2F
100
AcDbDictionary
280
     1
281
     1
  3
ACAD_XREC_ROUNDTRIP
360
A80
  0
DICTIONARY
  5
A83
330
31
100
AcDbDictionary
280
     1
281
     1
  3
ACAD_XREC_ROUNDTRIP
360
A84
  0
DICTIONARY
  5
A81
330
30
100
AcDbDictionary
280
     1
281
     1
  3
ACAD_XREC_ROUNDTRIP
360
A82
  0
DICTIONARY
  5
A85
330
32
100
AcDbDictionary
280
     1
281
     1
  3
ACAD_XREC_ROUNDTRIP
360
A86
  0
DICTIONARY
  5
A8D
330
36
100
AcDbDictionary
280
     1
281
     1
  3
ACAD_XREC_ROUNDTRIP
360
A8E
  0
DICTIONARY
  5
A95
330
3A
100
AcDbDictionary
280
     1
281
     1
  3
ACAD_XREC_ROUNDTRIP
360
A96
  0
DICTIONARY
  5
A89
330
34
100
AcDbDictionary
280
     1
281
     1
  3
ACAD_XREC_ROUNDTRIP
360
A8A
  0
DICTIONARY
  5
A8B
330
35
100
AcDbDictionary
280
     1
281
     1
  3
ACAD_XREC_ROUNDTRIP
360
A8C
  0
DICTIONARY
  5
A93
330
39
100
AcDbDictionary
280
     1
281
     1
  3
ACAD_XREC_ROUNDTRIP
360
A94
  0
DICTIONARY
  5
A77
330
2B
100
AcDbDictionary
280
     1
281
     1
  3
ACAD_XREC_ROUNDTRIP
360
A78
  0
DICTIONARY
  5
A79
330
2C
100
AcDbDictionary
280
     1
281
     1
  3
ACAD_XREC_ROUNDTRIP
360
A7A
  0
DICTIONARY
  5
A7B
330
2D
100
AcDbDictionary
280
     1
281
     1
  3
ACAD_XREC_ROUNDTRIP
360
A7C
  0
DICTIONARY
  5
A7D
330
2E
100
AcDbDictionary
280
     1
281
     1
  3
ACAD_XREC_ROUNDTRIP
360
A7E
  0
DICTIONARY
  5
A91
330
38
100
AcDbDictionary
280
     1
281
     1
  3
ACAD_XREC_ROUNDTRIP
360
A92
  0
DICTIONARY
  5
A87
330
33
100
AcDbDictionary
280
     1
281
     1
  3
ACAD_XREC_ROUNDTRIP
360
A88
  0
DICTIONARY
  5
A8F
330
37
100
AcDbDictionary
280
     1
281
     1
  3
ACAD_XREC_ROUNDTRIP
360
A90
  0
XRECORD
  5
A9A
102
{ACAD_REACTORS
330
A99
102
}
330
A99
100
AcDbXrecord
280
     1
102
MATERIAL
148
0.0
149
0.0
149
0.0
 93
        0
 94
      127
282
     0
 72
     1
 77
     1
171
     1
175
     1
179
     1
273
     0
  0
XRECORD
  5
A98
102
{ACAD_REACTORS
330
A97
102
}
330
A97
100
AcDbXrecord
280
     1
102
MATERIAL
148
0.0
149
0.0
149
0.0
 93
        0
 94
      127
282
     0
 72
     1
 77
     1
171
     1
175
     1
179
     1
273
     0
  0
XRECORD
  5
A9C
102
{ACAD_REACTORS
330
A9B
102
}
330
A9B
100
AcDbXrecord
280
     1
102
MATERIAL
148
0.0
149
0.0
149
0.0
 93
        0
 94
      127
282
     0
 72
     1
 77
     1
171
     1
175
     1
179
     1
273
     0
  0
XRECORD
  5
A80
102
{ACAD_REACTORS
330
A7F
102
}
330
A7F
100
AcDbXrecord
280
     1
102
RTVSPropertyOp0
 70
     1
102
RTVSPropertyOp1
 70
     1
102
RTVSPropertyOp2
 70
     1
102
RTVSPropertyOp3
 70
     1
102
RTVSPropertyOp4
 70
     1
102
RTVSPropertyOp5
 70
     1
102
RTVSPropertyOp6
 70
     1
102
RTVSPropertyOp7
 70
     1
102
RTVSPropertyOp8
 70
     1
102
RTVSPropertyOp9
 70
     1
102
RTVSPropertyOp10
 70
     1
102
RTVSPropertyOp11
 70
     1
102
RTVSPropertyOp12
 70
     1
102
RTVSPropertyOp13
 70
     1
102
RTVSPropertyOp14
 70
     1
102
RTVSPropertyOp15
 70
     1
102
RTVSPropertyOp16
 70
     1
102
RTVSPropertyOp17
 70
     1
102
RTVSPropertyOp18
 70
     1
102
RTVSPropertyOp19
 70
     1
102
RTVSPropertyOp20
 70
     1
102
RTVSPropertyOp21
 70
     1
102
RTVSPropertyOp22
 70
     1
102
RTVSPropertyOp23
 70
     1
102
RTVSPropertyOp24
 70
     1
102
RTVSPropertyOp25
 70
     1
102
RTVSPropertyOp26
 70
     1
102
RTVSPropertyOp27
 70
     1
  0
XRECORD
  5
A84
102
{ACAD_REACTORS
330
A83
102
}
330
A83
100
AcDbXrecord
280
     1
102
RTVSPropertyOp0
 70
     1
102
RTVSPropertyOp1
 70
     1
102
RTVSPropertyOp2
 70
     1
102
RTVSPropertyOp3
 70
     1
102
RTVSPropertyOp4
 70
     1
102
RTVSPropertyOp5
 70
     1
102
RTVSPropertyOp6
 70
     1
102
RTVSPropertyOp7
 70
     1
102
RTVSPropertyOp8
 70
     1
102
RTVSPropertyOp9
 70
     1
102
RTVSPropertyOp10
 70
     1
102
RTVSPropertyOp11
 70
     1
102
RTVSPropertyOp12
 70
     1
102
RTVSPropertyOp13
 70
     1
102
RTVSPropertyOp14
 70
     1
102
RTVSPropertyOp15
 70
     1
102
RTVSPropertyOp16
 70
     1
102
RTVSPropertyOp17
 70
     1
102
RTVSPropertyOp18
 70
     1
102
RTVSPropertyOp19
 70
     1
102
RTVSPropertyOp20
 70
     1
102
RTVSPropertyOp21
 70
     1
102
RTVSPropertyOp22
 70
     1
102
RTVSPropertyOp23
 70
     1
102
RTVSPropertyOp24
 70
     1
102
RTVSPropertyOp25
 70
     1
102
RTVSPropertyOp26
 70
     1
102
RTVSPropertyOp27
 70
     1
  0
XRECORD
  5
A82
102
{ACAD_REACTORS
330
A81
102
}
330
A81
100
AcDbXrecord
280
     1
102
RTVSPropertyOp0
 70
     1
102
RTVSPropertyOp1
 70
     1
102
RTVSPropertyOp2
 70
     1
102
RTVSPropertyOp3
 70
     1
102
RTVSPropertyOp4
 70
     1
102
RTVSPropertyOp5
 70
     1
102
RTVSPropertyOp6
 70
     1
102
RTVSPropertyOp7
 70
     1
102
RTVSPropertyOp8
 70
     1
102
RTVSPropertyOp9
 70
     1
102
RTVSPropertyOp10
 70
     1
102
RTVSPropertyOp11
 70
     1
102
RTVSPropertyOp12
 70
     1
102
RTVSPropertyOp13
 70
     1
102
RTVSPropertyOp14
 70
     1
102
RTVSPropertyOp15
 70
     1
102
RTVSPropertyOp16
 70
     1
102
RTVSPropertyOp17
 70
     1
102
RTVSPropertyOp18
 70
     1
102
RTVSPropertyOp19
 70
     1
102
RTVSPropertyOp20
 70
     1
102
RTVSPropertyOp21
 70
     1
102
RTVSPropertyOp22
 70
     1
102
RTVSPropertyOp23
 70
     1
102
RTVSPropertyOp24
 70
     1
102
RTVSPropertyOp25
 70
     1
102
RTVSPropertyOp26
 70
     1
102
RTVSPropertyOp27
 70
     1
  0
XRECORD
  5
A86
102
{ACAD_REACTORS
330
A85
102
}
330
A85
100
AcDbXrecord
280
     1
102
RTVSPropertyOp0
 70
     1
102
RTVSPropertyOp1
 70
     1
102
RTVSPropertyOp2
 70
     1
102
RTVSPropertyOp3
 70
     1
102
RTVSPropertyOp4
 70
     1
102
RTVSPropertyOp5
 70
     1
102
RTVSPropertyOp6
 70
     1
102
RTVSPropertyOp7
 70
     1
102
RTVSPropertyOp8
 70
     1
102
RTVSPropertyOp9
 70
     1
102
RTVSPropertyOp10
 70
     1
102
RTVSPropertyOp11
 70
     1
102
RTVSPropertyOp12
 70
     1
102
RTVSPropertyOp13
 70
     1
102
RTVSPropertyOp14
 70
     1
102
RTVSPropertyOp15
 70
     1
102
RTVSPropertyOp16
 70
     1
102
RTVSPropertyOp17
 70
     1
102
RTVSPropertyOp18
 70
     1
102
RTVSPropertyOp19
 70
     1
102
RTVSPropertyOp20
 70
     1
102
RTVSPropertyOp21
 70
     1
102
RTVSPropertyOp22
 70
     1
102
RTVSPropertyOp23
 70
     1
102
RTVSPropertyOp24
 70
     1
102
RTVSPropertyOp25
 70
     1
102
RTVSPropertyOp26
 70
     1
102
RTVSPropertyOp27
 70
     1
  0
XRECORD
  5
A8E
102
{ACAD_REACTORS
330
A8D
102
}
330
A8D
100
AcDbXrecord
280
     1
102
RTVSPropertyOp0
 70
     1
102
RTVSPropertyOp1
 70
     1
102
RTVSPropertyOp2
 70
     1
102
RTVSPropertyOp3
 70
     1
102
RTVSPropertyOp4
 70
     1
102
RTVSPropertyOp5
 70
     1
102
RTVSPropertyOp6
 70
     1
102
RTVSPropertyOp7
 70
     1
102
RTVSPropertyOp8
 70
     1
102
RTVSPropertyOp9
 70
     1
102
RTVSPropertyOp10
 70
     1
102
RTVSPropertyOp11
 70
     1
102
RTVSPropertyOp12
 70
     1
102
RTVSPropertyOp13
 70
     1
102
RTVSPropertyOp14
 70
     1
102
RTVSPropertyOp15
 70
     1
102
RTVSPropertyOp16
 70
     1
102
RTVSPropertyOp17
 70
     1
102
RTVSPropertyOp18
 70
     1
102
RTVSPropertyOp19
 70
     1
102
RTVSPropertyOp20
 70
     1
102
RTVSPropertyOp21
 70
     1
102
RTVSPropertyOp22
 70
     1
102
RTVSPropertyOp23
 70
     1
102
RTVSPropertyOp24
 70
     1
102
RTVSPropertyOp25
 70
     1
102
RTVSPropertyOp26
 70
     1
102
RTVSPropertyOp27
 70
     1
  0
XRECORD
  5
A96
102
{ACAD_REACTORS
330
A95
102
}
330
A95
100
AcDbXrecord
280
     1
102
RTVSPropertyOp0
 70
     1
102
RTVSPropertyOp1
 70
     1
102
RTVSPropertyOp2
 70
     1
102
RTVSPropertyOp3
 70
     1
102
RTVSPropertyOp4
 70
     1
102
RTVSPropertyOp5
 70
     1
102
RTVSPropertyOp6
 70
     1
102
RTVSPropertyOp7
 70
     1
102
RTVSPropertyOp8
 70
     1
102
RTVSPropertyOp9
 70
     1
102
RTVSPropertyOp10
 70
     1
102
RTVSPropertyOp11
 70
     1
102
RTVSPropertyOp12
 70
     1
102
RTVSPropertyOp13
 70
     1
102
RTVSPropertyOp14
 70
     1
102
RTVSPropertyOp15
 70
     1
102
RTVSPropertyOp16
 70
     1
102
RTVSPropertyOp17
 70
     1
102
RTVSPropertyOp18
 70
     1
102
RTVSPropertyOp19
 70
     1
102
RTVSPropertyOp20
 70
     1
102
RTVSPropertyOp21
 70
     1
102
RTVSPropertyOp22
 70
     1
102
RTVSPropertyOp23
 70
     1
102
RTVSPropertyOp24
 70
     1
102
RTVSPropertyOp25
 70
     1
102
RTVSPropertyOp26
 70
     1
102
RTVSPropertyOp27
 70
     1
  0
XRECORD
  5
A8A
102
{ACAD_REACTORS
330
A89
102
}
330
A89
100
AcDbXrecord
280
     1
102
RTVSPropertyOp0
 70
     1
102
RTVSPropertyOp1
 70
     1
102
RTVSPropertyOp2
 70
     1
102
RTVSPropertyOp3
 70
     1
102
RTVSPropertyOp4
 70
     1
102
RTVSPropertyOp5
 70
     1
102
RTVSPropertyOp6
 70
     1
102
RTVSPropertyOp7
 70
     1
102
RTVSPropertyOp8
 70
     1
102
RTVSPropertyOp9
 70
     1
102
RTVSPropertyOp10
 70
     1
102
RTVSPropertyOp11
 70
     1
102
RTVSPropertyOp12
 70
     1
102
RTVSPropertyOp13
 70
     1
102
RTVSPropertyOp14
 70
     1
102
RTVSPropertyOp15
 70
     1
102
RTVSPropertyOp16
 70
     1
102
RTVSPropertyOp17
 70
     1
102
RTVSPropertyOp18
 70
     1
102
RTVSPropertyOp19
 70
     1
102
RTVSPropertyOp20
 70
     1
102
RTVSPropertyOp21
 70
     1
102
RTVSPropertyOp22
 70
     1
102
RTVSPropertyOp23
 70
     1
102
RTVSPropertyOp24
 70
     1
102
RTVSPropertyOp25
 70
     1
102
RTVSPropertyOp26
 70
     1
102
RTVSPropertyOp27
 70
     1
  0
XRECORD
  5
A8C
102
{ACAD_REACTORS
330
A8B
102
}
330
A8B
100
AcDbXrecord
280
     1
102
RTVSPropertyOp0
 70
     1
102
RTVSPropertyOp1
 70
     1
102
RTVSPropertyOp2
 70
     1
102
RTVSPropertyOp3
 70
     1
102
RTVSPropertyOp4
 70
     1
102
RTVSPropertyOp5
 70
     1
102
RTVSPropertyOp6
 70
     1
102
RTVSPropertyOp7
 70
     1
102
RTVSPropertyOp8
 70
     1
102
RTVSPropertyOp9
 70
     1
102
RTVSPropertyOp10
 70
     1
102
RTVSPropertyOp11
 70
     1
102
RTVSPropertyOp12
 70
     1
102
RTVSPropertyOp13
 70
     1
102
RTVSPropertyOp14
 70
     1
102
RTVSPropertyOp15
 70
     1
102
RTVSPropertyOp16
 70
     1
102
RTVSPropertyOp17
 70
     1
102
RTVSPropertyOp18
 70
     1
102
RTVSPropertyOp19
 70
     1
102
RTVSPropertyOp20
 70
     1
102
RTVSPropertyOp21
 70
     1
102
RTVSPropertyOp22
 70
     1
102
RTVSPropertyOp23
 70
     1
102
RTVSPropertyOp24
 70
     1
102
RTVSPropertyOp25
 70
     1
102
RTVSPropertyOp26
 70
     1
102
RTVSPropertyOp27
 70
     1
  0
XRECORD
  5
A94
102
{ACAD_REACTORS
330
A93
102
}
330
A93
100
AcDbXrecord
280
     1
102
RTVSPropertyOp0
 70
     1
102
RTVSPropertyOp1
 70
     1
102
RTVSPropertyOp2
 70
     1
102
RTVSPropertyOp3
 70
     1
102
RTVSPropertyOp4
 70
     1
102
RTVSPropertyOp5
 70
     1
102
RTVSPropertyOp6
 70
     1
102
RTVSPropertyOp7
 70
     1
102
RTVSPropertyOp8
 70
     1
102
RTVSPropertyOp9
 70
     1
102
RTVSPropertyOp10
 70
     1
102
RTVSPropertyOp11
 70
     1
102
RTVSPropertyOp12
 70
     1
102
RTVSPropertyOp13
 70
     1
102
RTVSPropertyOp14
 70
     1
102
RTVSPropertyOp15
 70
     1
102
RTVSPropertyOp16
 70
     1
102
RTVSPropertyOp17
 70
     1
102
RTVSPropertyOp18
 70
     1
102
RTVSPropertyOp19
 70
     1
102
RTVSPropertyOp20
 70
     1
102
RTVSPropertyOp21
 70
     1
102
RTVSPropertyOp22
 70
     1
102
RTVSPropertyOp23
 70
     1
102
RTVSPropertyOp24
 70
     1
102
RTVSPropertyOp25
 70
     1
102
RTVSPropertyOp26
 70
     1
102
RTVSPropertyOp27
 70
     1
  0
XRECORD
  5
A78
102
{ACAD_REACTORS
330
A77
102
}
330
A77
100
AcDbXrecord
280
     1
102
RTVSPropertyOp0
 70
     1
102
RTVSPropertyOp1
 70
     1
102
RTVSPropertyOp2
 70
     1
102
RTVSPropertyOp3
 70
     1
102
RTVSPropertyOp4
 70
     1
102
RTVSPropertyOp5
 70
     1
102
RTVSPropertyOp6
 70
     1
102
RTVSPropertyOp7
 70
     1
102
RTVSPropertyOp8
 70
     1
102
RTVSPropertyOp9
 70
     1
102
RTVSPropertyOp10
 70
     1
102
RTVSPropertyOp11
 70
     1
102
RTVSPropertyOp12
 70
     1
102
RTVSPropertyOp13
 70
     1
102
RTVSPropertyOp14
 70
     1
102
RTVSPropertyOp15
 70
     1
102
RTVSPropertyOp16
 70
     1
102
RTVSPropertyOp17
 70
     1
102
RTVSPropertyOp18
 70
     1
102
RTVSPropertyOp19
 70
     1
102
RTVSPropertyOp20
 70
     1
102
RTVSPropertyOp21
 70
     1
102
RTVSPropertyOp22
 70
     1
102
RTVSPropertyOp23
 70
     1
102
RTVSPropertyOp24
 70
     1
102
RTVSPropertyOp25
 70
     1
102
RTVSPropertyOp26
 70
     1
102
RTVSPropertyOp27
 70
     1
  0
XRECORD
  5
A7A
102
{ACAD_REACTORS
330
A79
102
}
330
A79
100
AcDbXrecord
280
     1
102
RTVSPropertyOp0
 70
     1
102
RTVSPropertyOp1
 70
     1
102
RTVSPropertyOp2
 70
     1
102
RTVSPropertyOp3
 70
     1
102
RTVSPropertyOp4
 70
     1
102
RTVSPropertyOp5
 70
     1
102
RTVSPropertyOp6
 70
     1
102
RTVSPropertyOp7
 70
     1
102
RTVSPropertyOp8
 70
     1
102
RTVSPropertyOp9
 70
     1
102
RTVSPropertyOp10
 70
     1
102
RTVSPropertyOp11
 70
     1
102
RTVSPropertyOp12
 70
     1
102
RTVSPropertyOp13
 70
     1
102
RTVSPropertyOp14
 70
     1
102
RTVSPropertyOp15
 70
     1
102
RTVSPropertyOp16
 70
     1
102
RTVSPropertyOp17
 70
     1
102
RTVSPropertyOp18
 70
     1
102
RTVSPropertyOp19
 70
     1
102
RTVSPropertyOp20
 70
     1
102
RTVSPropertyOp21
 70
     1
102
RTVSPropertyOp22
 70
     1
102
RTVSPropertyOp23
 70
     1
102
RTVSPropertyOp24
 70
     1
102
RTVSPropertyOp25
 70
     1
102
RTVSPropertyOp26
 70
     1
102
RTVSPropertyOp27
 70
     1
  0
XRECORD
  5
A7C
102
{ACAD_REACTORS
330
A7B
102
}
330
A7B
100
AcDbXrecord
280
     1
102
RTVSPropertyOp0
 70
     1
102
RTVSPropertyOp1
 70
     1
102
RTVSPropertyOp2
 70
     1
102
RTVSPropertyOp3
 70
     1
102
RTVSPropertyOp4
 70
     1
102
RTVSPropertyOp5
 70
     1
102
RTVSPropertyOp6
 70
     1
102
RTVSPropertyOp7
 70
     1
102
RTVSPropertyOp8
 70
     1
102
RTVSPropertyOp9
 70
     1
102
RTVSPropertyOp10
 70
     1
102
RTVSPropertyOp11
 70
     1
102
RTVSPropertyOp12
 70
     1
102
RTVSPropertyOp13
 70
     1
102
RTVSPropertyOp14
 70
     1
102
RTVSPropertyOp15
 70
     1
102
RTVSPropertyOp16
 70
     1
102
RTVSPropertyOp17
 70
     1
102
RTVSPropertyOp18
 70
     1
102
RTVSPropertyOp19
 70
     1
102
RTVSPropertyOp20
 70
     1
102
RTVSPropertyOp21
 70
     1
102
RTVSPropertyOp22
 70
     1
102
RTVSPropertyOp23
 70
     1
102
RTVSPropertyOp24
 70
     1
102
RTVSPropertyOp25
 70
     1
102
RTVSPropertyOp26
 70
     1
102
RTVSPropertyOp27
 70
     1
  0
XRECORD
  5
A7E
102
{ACAD_REACTORS
330
A7D
102
}
330
A7D
100
AcDbXrecord
280
     1
102
RTVSPropertyOp0
 70
     1
102
RTVSPropertyOp1
 70
     1
102
RTVSPropertyOp2
 70
     1
102
RTVSPropertyOp3
 70
     1
102
RTVSPropertyOp4
 70
     1
102
RTVSPropertyOp5
 70
     1
102
RTVSPropertyOp6
 70
     1
102
RTVSPropertyOp7
 70
     1
102
RTVSPropertyOp8
 70
     1
102
RTVSPropertyOp9
 70
     1
102
RTVSPropertyOp10
 70
     1
102
RTVSPropertyOp11
 70
     1
102
RTVSPropertyOp12
 70
     1
102
RTVSPropertyOp13
 70
     1
102
RTVSPropertyOp14
 70
     1
102
RTVSPropertyOp15
 70
     1
102
RTVSPropertyOp16
 70
     1
102
RTVSPropertyOp17
 70
     1
102
RTVSPropertyOp18
 70
     1
102
RTVSPropertyOp19
 70
     1
102
RTVSPropertyOp20
 70
     1
102
RTVSPropertyOp21
 70
     1
102
RTVSPropertyOp22
 70
     1
102
RTVSPropertyOp23
 70
     1
102
RTVSPropertyOp24
 70
     1
102
RTVSPropertyOp25
 70
     1
102
RTVSPropertyOp26
 70
     1
102
RTVSPropertyOp27
 70
     1
  0
XRECORD
  5
A92
102
{ACAD_REACTORS
330
A91
102
}
330
A91
100
AcDbXrecord
280
     1
102
RTVSPropertyOp0
 70
     1
102
RTVSPropertyOp1
 70
     1
102
RTVSPropertyOp2
 70
     1
102
RTVSPropertyOp3
 70
     1
102
RTVSPropertyOp4
 70
     1
102
RTVSPropertyOp5
 70
     1
102
RTVSPropertyOp6
 70
     1
102
RTVSPropertyOp7
 70
     1
102
RTVSPropertyOp8
 70
     1
102
RTVSPropertyOp9
 70
     1
102
RTVSPropertyOp10
 70
     1
102
RTVSPropertyOp11
 70
     1
102
RTVSPropertyOp12
 70
     1
102
RTVSPropertyOp13
 70
     1
102
RTVSPropertyOp14
 70
     1
102
RTVSPropertyOp15
 70
     1
102
RTVSPropertyOp16
 70
     1
102
RTVSPropertyOp17
 70
     1
102
RTVSPropertyOp18
 70
     1
102
RTVSPropertyOp19
 70
     1
102
RTVSPropertyOp20
 70
     1
102
RTVSPropertyOp21
 70
     1
102
RTVSPropertyOp22
 70
     1
102
RTVSPropertyOp23
 70
     1
102
RTVSPropertyOp24
 70
     1
102
RTVSPropertyOp25
 70
     1
102
RTVSPropertyOp26
 70
     1
102
RTVSPropertyOp27
 70
     1
  0
XRECORD
  5
A88
102
{ACAD_REACTORS
330
A87
102
}
330
A87
100
AcDbXrecord
280
     1
102
RTVSPropertyOp0
 70
     1
102
RTVSPropertyOp1
 70
     1
102
RTVSPropertyOp2
 70
     1
102
RTVSPropertyOp3
 70
     1
102
RTVSPropertyOp4
 70
     1
102
RTVSPropertyOp5
 70
     1
102
RTVSPropertyOp6
 70
     1
102
RTVSPropertyOp7
 70
     1
102
RTVSPropertyOp8
 70
     1
102
RTVSPropertyOp9
 70
     1
102
RTVSPropertyOp10
 70
     1
102
RTVSPropertyOp11
 70
     1
102
RTVSPropertyOp12
 70
     1
102
RTVSPropertyOp13
 70
     1
102
RTVSPropertyOp14
 70
     1
102
RTVSPropertyOp15
 70
     1
102
RTVSPropertyOp16
 70
     1
102
RTVSPropertyOp17
 70
     1
102
RTVSPropertyOp18
 70
     1
102
RTVSPropertyOp19
 70
     1
102
RTVSPropertyOp20
 70
     1
102
RTVSPropertyOp21
 70
     1
102
RTVSPropertyOp22
 70
     1
102
RTVSPropertyOp23
 70
     1
102
RTVSPropertyOp24
 70
     1
102
RTVSPropertyOp25
 70
     1
102
RTVSPropertyOp26
 70
     1
102
RTVSPropertyOp27
 70
     1
  0
XRECORD
  5
A90
102
{ACAD_REACTORS
330
A8F
102
}
330
A8F
100
AcDbXrecord
280
     1
102
RTVSPropertyOp0
 70
     1
102
RTVSPropertyOp1
 70
     1
102
RTVSPropertyOp2
 70
     1
102
RTVSPropertyOp3
 70
     1
102
RTVSPropertyOp4
 70
     1
102
RTVSPropertyOp5
 70
     1
102
RTVSPropertyOp6
 70
     1
102
RTVSPropertyOp7
 70
     1
102
RTVSPropertyOp8
 70
     1
102
RTVSPropertyOp9
 70
     1
102
RTVSPropertyOp10
 70
     1
102
RTVSPropertyOp11
 70
     1
102
RTVSPropertyOp12
 70
     1
102
RTVSPropertyOp13
 70
     1
102
RTVSPropertyOp14
 70
     1
102
RTVSPropertyOp15
 70
     1
102
RTVSPropertyOp16
 70
     1
102
RTVSPropertyOp17
 70
     1
102
RTVSPropertyOp18
 70
     1
102
RTVSPropertyOp19
 70
     1
102
RTVSPropertyOp20
 70
     1
102
RTVSPropertyOp21
 70
     1
102
RTVSPropertyOp22
 70
     1
102
RTVSPropertyOp23
 70
     1
102
RTVSPropertyOp24
 70
     1
102
RTVSPropertyOp25
 70
     1
102
RTVSPropertyOp26
 70
     1
102
RTVSPropertyOp27
 70
     1
  0
ENDSEC
  0
EOF
