  0
SECTION
  2
HEADER
  9
$ACADVER
  1
AC1015
  9
$ACADMAINTVER
 70
     6
  9
$DWGCODEPAGE
  3
ANSI_1252
  9
$INSBASE
 10
0.0
 20
0.0
 30
0.0
  9
$EXTMIN
 10
0.0
 20
0.0
 30
0.0
  9
$EXTMAX
 10
25.0
 20
35.0
 30
0.0
  9
$LIMMIN
 10
0.0
 20
0.0
  9
$LIMMAX
 10
420.0
 20
297.0
  9
$ORTHOMODE
 70
     0
  9
$REGENMODE
 70
     1
  9
$FILLMODE
 70
     1
  9
$QTEXTMODE
 70
     0
  9
$MIRRTEXT
 70
     1
  9
$LTSCALE
 40
4.7
  9
$ATTMODE
 70
     1
  9
$TEXTSIZE
 40
2.5
  9
$TRACEWID
 40
1.0
  9
$TEXTSTYLE
  7
Standard
  9
$CLAYER
  8
0
  9
$CELTYPE
  6
ByLayer
  9
$CECOLOR
 62
   256
  9
$CELTSCALE
 40
1.0
  9
$DISPSILH
 70
     0
  9
$DIMSCALE
 40
1.0
  9
$DIMASZ
 40
2.5
  9
$DIMEXO
 40
0.625
  9
$DIMDLI
 40
3.75
  9
$DIMRND
 40
0.0
  9
$DIMDLE
 40
0.0
  9
$DIMEXE
 40
1.25
  9
$DIMTP
 40
0.0
  9
$DIMTM
 40
0.0
  9
$DIMTXT
 40
2.5
  9
$DIMCEN
 40
2.5
  9
$DIMTSZ
 40
0.0
  9
$DIMTOL
 70
     0
  9
$DIMLIM
 70
     0
  9
$DIMTIH
 70
     0
  9
$DIMTOH
 70
     0
  9
$DIMSE1
 70
     0
  9
$DIMSE2
 70
     0
  9
$DIMTAD
 70
     1
  9
$DIMZIN
 70
     8
  9
$DIMBLK
  1

  9
$DIMASO
 70
     1
  9
$DIMSHO
 70
     1
  9
$DIMPOST
  1

  9
$DIMAPOST
  1

  9
$DIMALT
 70
     0
  9
$DIMALTD
 70
     3
  9
$DIMALTF
 40
0.03937007874016
  9
$DIMLFAC
 40
1.0
  9
$DIMTOFL
 70
     1
  9
$DIMTVP
 40
0.0
  9
$DIMTIX
 70
     0
  9
$DIMSOXD
 70
     0
  9
$DIMSAH
 70
     0
  9
$DIMBLK1
  1

  9
$DIMBLK2
  1

  9
$DIMSTYLE
  2
ISO-25
  9
$DIMCLRD
 70
     0
  9
$DIMCLRE
 70
     0
  9
$DIMCLRT
 70
     0
  9
$DIMTFAC
 40
1.0
  9
$DIMGAP
 40
0.625
  9
$DIMJUST
 70
     0
  9
$DIMSD1
 70
     0
  9
$DIMSD2
 70
     0
  9
$DIMTOLJ
 70
     0
  9
$DIMTZIN
 70
     8
  9
$DIMALTZ
 70
     0
  9
$DIMALTTZ
 70
     0
  9
$DIMUPT
 70
     0
  9
$DIMDEC
 70
     2
  9
$DIMTDEC
 70
     2
  9
$DIMALTU
 70
     2
  9
$DIMALTTD
 70
     3
  9
$DIMTXSTY
  7
Standard
  9
$DIMAUNIT
 70
     0
  9
$DIMADEC
 70
     0
  9
$DIMALTRND
 40
0.0
  9
$DIMAZIN
 70
     0
  9
$DIMDSEP
 70
    44
  9
$DIMATFIT
 70
     3
  9
$DIMFRAC
 70
     0
  9
$DIMLDRBLK
  1

  9
$DIMLUNIT
 70
     2
  9
$DIMLWD
 70
    -2
  9
$DIMLWE
 70
    -2
  9
$DIMTMOVE
 70
     0
  9
$LUNITS
 70
     2
  9
$LUPREC
 70
     4
  9
$SKETCHINC
 40
1.0
  9
$FILLETRAD
 40
10.0
  9
$AUNITS
 70
     0
  9
$AUPREC
 70
     0
  9
$MENU
  1
.
  9
$ELEVATION
 40
0.0
  9
$PELEVATION
 40
0.0
  9
$THICKNESS
 40
0.0
  9
$LIMCHECK
 70
     0
  9
$CHAMFERA
 40
10.0
  9
$CHAMFERB
 40
10.0
  9
$CHAMFERC
 40
20.0
  9
$CHAMFERD
 40
0.0
  9
$SKPOLY
 70
     0
  9
$TDCREATE
 40
2459320.668055556
  9
$TDUCREATE
 40
2459320.584722222
  9
$TDUPDATE
 40
2459320.671527778
  9
$TDUUPDATE
 40
2459320.588194444
  9
$TDINDWG
 40
0.0000000116
  9
$TDUSRTIMER
 40
0.0000000116
  9
$USRTIMER
 70
     1
  9
$ANGBASE
 50
0.0
  9
$ANGDIR
 70
     0
  9
$PDMODE
 70
     0
  9
$PDSIZE
 40
0.0
  9
$PLINEWID
 40
0.0
  9
$SPLFRAME
 70
     0
  9
$SPLINETYPE
 70
     6
  9
$SPLINESEGS
 70
     8
  9
$HANDSEED
  5
B7F
  9
$SURFTAB1
 70
     6
  9
$SURFTAB2
 70
     6
  9
$SURFTYPE
 70
     6
  9
$SURFU
 70
     6
  9
$SURFV
 70
     6
  9
$UCSBASE
  2

  9
$UCSNAME
  2

  9
$UCSORG
 10
0.0
 20
0.0
 30
0.0
  9
$UCSXDIR
 10
1.0
 20
0.0
 30
0.0
  9
$UCSYDIR
 10
0.0
 20
1.0
 30
0.0
  9
$UCSORTHOREF
  2

  9
$UCSORTHOVIEW
 70
     0
  9
$UCSORGTOP
 10
0.0
 20
0.0
 30
0.0
  9
$UCSORGBOTTOM
 10
0.0
 20
0.0
 30
0.0
  9
$UCSORGLEFT
 10
0.0
 20
0.0
 30
0.0
  9
$UCSORGRIGHT
 10
0.0
 20
0.0
 30
0.0
  9
$UCSORGFRONT
 10
0.0
 20
0.0
 30
0.0
  9
$UCSORGBACK
 10
0.0
 20
0.0
 30
0.0
  9
$PUCSBASE
  2

  9
$PUCSNAME
  2

  9
$PUCSORG
 10
0.0
 20
0.0
 30
0.0
  9
$PUCSXDIR
 10
1.0
 20
0.0
 30
0.0
  9
$PUCSYDIR
 10
0.0
 20
1.0
 30
0.0
  9
$PUCSORTHOREF
  2

  9
$PUCSORTHOVIEW
 70
     0
  9
$PUCSORGTOP
 10
0.0
 20
0.0
 30
0.0
  9
$PUCSORGBOTTOM
 10
0.0
 20
0.0
 30
0.0
  9
$PUCSORGLEFT
 10
0.0
 20
0.0
 30
0.0
  9
$PUCSORGRIGHT
 10
0.0
 20
0.0
 30
0.0
  9
$PUCSORGFRONT
 10
0.0
 20
0.0
 30
0.0
  9
$PUCSORGBACK
 10
0.0
 20
0.0
 30
0.0
  9
$USERI1
 70
     0
  9
$USERI2
 70
     0
  9
$USERI3
 70
     0
  9
$USERI4
 70
     0
  9
$USERI5
 70
     0
  9
$USERR1
 40
0.0
  9
$USERR2
 40
0.0
  9
$USERR3
 40
0.0
  9
$USERR4
 40
0.0
  9
$USERR5
 40
0.0
  9
$WORLDVIEW
 70
     1
  9
$SHADEDGE
 70
     3
  9
$SHADEDIF
 70
    70
  9
$TILEMODE
 70
     1
  9
$MAXACTVP
 70
    64
  9
$PINSBASE
 10
0.0
 20
0.0
 30
0.0
  9
$PLIMCHECK
 70
     0
  9
$PEXTMIN
 10
1.000000000000000E+20
 20
1.000000000000000E+20
 30
1.000000000000000E+20
  9
$PEXTMAX
 10
-1.000000000000000E+20
 20
-1.000000000000000E+20
 30
-1.000000000000000E+20
  9
$PLIMMIN
 10
0.0
 20
0.0
  9
$PLIMMAX
 10
420.0
 20
297.0
  9
$UNITMODE
 70
     0
  9
$VISRETAIN
 70
     1
  9
$PLINEGEN
 70
     0
  9
$PSLTSCALE
 70
     1
  9
$TREEDEPTH
 70
  3020
  9
$CMLSTYLE
  2
Standard
  9
$CMLJUST
 70
     0
  9
$CMLSCALE
 40
20.0
  9
$PROXYGRAPHICS
 70
     1
  9
$MEASUREMENT
 70
     1
  9
$CELWEIGHT
370
    -1
  9
$ENDCAPS
280
     0
  9
$JOINSTYLE
280
     0
  9
$LWDISPLAY
290
     0
  9
$INSUNITS
 70
     4
  9
$HYPERLINKBASE
  1

  9
$STYLESHEET
  1

  9
$XEDIT
290
     1
  9
$CEPSNTYPE
380
     0
  9
$PSTYLEMODE
290
     1
  9
$FINGERPRINTGUID
  2
{F6483BEC-F538-4E2B-89F2-5557F717B06D}
  9
$VERSIONGUID
  2
{FAEB1C32-E019-11D5-929B-00C0DF256EC4}
  9
$EXTNAMES
290
     1
  9
$PSVPSCALE
 40
0.0
  9
$OLESTARTUP
290
     0
  0
ENDSEC
  0
SECTION
  2
CLASSES
  0
CLASS
  1
ACDBDICTIONARYWDFLT
  2
AcDbDictionaryWithDefault
  3
ObjectDBX Classes
 90
        0
280
     0
281
     0
  0
CLASS
  1
VISUALSTYLE
  2
AcDbVisualStyle
  3
ObjectDBX Classes
 90
     4095
280
     0
281
     0
  0
CLASS
  1
MATERIAL
  2
AcDbMaterial
  3
ObjectDBX Classes
 90
     1153
280
     0
281
     0
  0
CLASS
  1
SCALE
  2
AcDbScale
  3
ObjectDBX Classes
 90
     1153
280
     0
281
     0
  0
CLASS
  1
DICTIONARYVAR
  2
AcDbDictionaryVar
  3
ObjectDBX Classes
 90
        0
280
     0
281
     0
  0
CLASS
  1
ACDBPLACEHOLDER
  2
AcDbPlaceHolder
  3
ObjectDBX Classes
 90
        0
280
     0
281
     0
  0
CLASS
  1
LAYOUT
  2
AcDbLayout
  3
ObjectDBX Classes
 90
        0
280
     0
281
     0
  0
ENDSEC
  0
SECTION
  2
TABLES
  0
TABLE
  2
VPORT
  5
8
330
0
100
AcDbSymbolTable
 70
     1
  0
VPORT
  5
29
330
8
100
AcDbSymbolTableRecord
100
AcDbViewportTableRecord
  2
*Active
 70
     0
 10
0.0
 20
0.0
 11
1.0
 21
1.0
 12
11.26
 22
4.5
 13
0.0
 23
0.0
 14
10.0
 24
10.0
 15
10.0
 25
10.0
 16
0.0
 26
0.0
 36
1.0
 17
0.0
 27
0.0
 37
0.0
 40
9.0
 41
2.503333333333333
 42
50.0
 43
0.0
 44
0.0
 50
0.0
 51
0.0
 71
     0
 72
   100
 73
     1
 74
     3
 75
     0
 76
     0
 77
     0
 78
     0
281
     0
 65
     1
110
0.0
120
0.0
130
0.0
111
1.0
121
0.0
131
0.0
112
0.0
122
1.0
132
0.0
 79
     0
146
0.0
  0
ENDTAB
  0
TABLE
  2
LTYPE
  5
5
330
0
100
AcDbSymbolTable
 70
    10
  0
LTYPE
  5
14
330
5
100
AcDbSymbolTableRecord
100
AcDbLinetypeTableRecord
  2
ByBlock
 70
     0
  3

 72
    65
 73
     0
 40
0.0
  0
LTYPE
  5
15
330
5
100
AcDbSymbolTableRecord
100
AcDbLinetypeTableRecord
  2
ByLayer
 70
     0
  3

 72
    65
 73
     0
 40
0.0
  0
LTYPE
  5
16
330
5
100
AcDbSymbolTableRecord
100
AcDbLinetypeTableRecord
  2
Continuous
 70
     0
  3
Solid line
 72
    65
 73
     0
 40
0.0
  0
LTYPE
  5
45
330
5
100
AcDbSymbolTableRecord
100
AcDbLinetypeTableRecord
  2
phl_thick
 70
     0
  3
THICK
 72
    65
 73
     0
 40
0.0
  0
LTYPE
  5
390
330
5
100
AcDbSymbolTableRecord
100
AcDbLinetypeTableRecord
  2
CUT
 70
     0
  3
THICK
 72
    65
 73
     0
 40
0.0
  0
LTYPE
  5
398
330
5
100
AcDbSymbolTableRecord
100
AcDbLinetypeTableRecord
  2
NOCUT
 70
     0
  3
THICK
 72
    65
 73
     0
 40
0.0
  0
LTYPE
  5
3A0
330
5
100
AcDbSymbolTableRecord
100
AcDbLinetypeTableRecord
  2
SK1
 70
     0
  3
THICK
 72
    65
 73
     0
 40
0.0
  0
LTYPE
  5
3A8
330
5
100
AcDbSymbolTableRecord
100
AcDbLinetypeTableRecord
  2
ls_SK2
 70
     0
  3
THIN
 72
    65
 73
     0
 40
0.0
  0
LTYPE
  5
453
330
5
100
AcDbSymbolTableRecord
100
AcDbLinetypeTableRecord
  2
ls_2
 70
     0
  3
THIN
 72
    65
 73
     0
 40
0.0
  0
LTYPE
  5
5A1
330
5
100
AcDbSymbolTableRecord
100
AcDbLinetypeTableRecord
  2
ls_SK1
 70
     0
  3
THICK
 72
    65
 73
     0
 40
0.0
  0
LTYPE
  5
5DB
330
5
100
AcDbSymbolTableRecord
100
AcDbLinetypeTableRecord
  2
LONGDASH_DASH
 70
     0
  3
THIN_DASHDOT
 72
    65
 73
     4
 40
0.85
 49
0.4
 74
     0
 49
-0.2
 74
     0
 49
0.05
 74
     0
 49
-0.2
 74
     0
  0
LTYPE
  5
5E0
330
5
100
AcDbSymbolTableRecord
100
AcDbLinetypeTableRecord
  2
INFTOTAL
 70
     0
  3
THIN
 72
    65
 73
     0
 40
0.0
  0
ENDTAB
  0
TABLE
  2
LAYER
  5
2
330
0
100
AcDbSymbolTable
 70
    10
  0
LAYER
  5
10
330
2
100
AcDbSymbolTableRecord
100
AcDbLayerTableRecord
  2
0
 70
     0
 62
     7
  6
Continuous
370
    -3
390
F
  0
LAYER
  5
44
330
2
100
AcDbSymbolTableRecord
100
AcDbLayerTableRecord
  2
1
 70
     0
 62
4
  6
CONTINUOUS
370
50
370
    -3
390
F
  0
LAYER
  5
38F
330
2
100
AcDbSymbolTableRecord
100
AcDbLayerTableRecord
  2
CUT
 70
     0
 62
1
  6
CONTINUOUS
370
25
370
    -3
390
F
  0
LAYER
  5
397
330
2
100
AcDbSymbolTableRecord
100
AcDbLayerTableRecord
  2
NOCUT
 70
     0
 62
7
  6
CONTINUOUS
370
25
370
    -3
390
F
  0
LAYER
  5
39F
330
2
100
AcDbSymbolTableRecord
100
AcDbLayerTableRecord
  2
SK1
 70
     0
 62
4
  6
CONTINUOUS
370
50
370
    -3
390
F
  0
LAYER
  5
3A7
330
2
100
AcDbSymbolTableRecord
100
AcDbLayerTableRecord
  2
SK2
 70
     0
 62
7
  6
CONTINUOUS
370
25
370
    -3
390
F
  0
LAYER
  5
452
330
2
100
AcDbSymbolTableRecord
100
AcDbLayerTableRecord
  2
2
 70
     0
 62
7
  6
CONTINUOUS
370
25
370
    -3
390
F
  0
LAYER
  5
5DA
330
2
100
AcDbSymbolTableRecord
100
AcDbLayerTableRecord
  2
4
 70
     0
 62
2
  6
LONGDASH_DASH
370
25
370
    -3
390
F
  0
LAYER
  5
5DD
330
2
100
AcDbSymbolTableRecord
100
AcDbLayerTableRecord
  2
SK4
 70
     0
 62
2
  6
LONGDASH_DASH
370
25
370
    -3
390
F
  0
LAYER
  5
5DF
330
2
100
AcDbSymbolTableRecord
100
AcDbLayerTableRecord
  2
INFTOTAL
 70
     0
 62
9
  6
CONTINUOUS
370
18
370
    -3
390
F
  0
ENDTAB
  0
TABLE
  2
STYLE
  5
3
330
0
100
AcDbSymbolTable
 70
     1
  0
STYLE
  5
11
330
3
100
AcDbSymbolTableRecord
100
AcDbTextStyleTableRecord
  2
Standard
 70
     0
 40
0.0
 41
1.0
 50
0.0
 71
     0
 42
2.5
  3
Monospac821 BT
  4

  0
ENDTAB
  0
TABLE
  2
VIEW
  5
6
330
0
100
AcDbSymbolTable
 70
     0
  0
ENDTAB
  0
TABLE
  2
UCS
  5
7
330
0
100
AcDbSymbolTable
 70
     0
  0
ENDTAB
  0
TABLE
  2
APPID
  5
9
330
0
100
AcDbSymbolTable
 70
     2
  0
APPID
  5
12
330
9
100
AcDbSymbolTableRecord
100
AcDbRegAppTableRecord
  2
ACAD
 70
     0
  0
APPID
  5
3F
330
9
100
AcDbSymbolTableRecord
100
AcDbRegAppTableRecord
  2
ccLab
 70
     0
  0
ENDTAB
  0
TABLE
  2
DIMSTYLE
  5
A
330
0
100
AcDbSymbolTable
 70
     1
100
AcDbDimStyleTable
  0
DIMSTYLE
105
27
330
A
100
AcDbSymbolTableRecord
100
AcDbDimStyleTableRecord
  2
ISO-25
 70
     0
 41
2.5
 42
0.625
 43
3.75
 44
1.25
 73
     0
 74
     0
 77
     1
 78
     8
140
2.5
141
2.5
143
0.03937007874016
147
0.625
171
     3
172
     1
271
     2
272
     2
274
     3
278
    44
283
     0
284
     8
340
11
  0
ENDTAB
  0
TABLE
  2
BLOCK_RECORD
  5
1
330
0
100
AcDbSymbolTable
 70
     2
  0
BLOCK_RECORD
  5
1F
330
1
100
AcDbSymbolTableRecord
100
AcDbBlockTableRecord
  2
*Model_Space
340
22
  0
BLOCK_RECORD
  5
1B
330
1
100
AcDbSymbolTableRecord
100
AcDbBlockTableRecord
  2
*Paper_Space
340
1E
  0
BLOCK_RECORD
  5
23
330
1
100
AcDbSymbolTableRecord
100
AcDbBlockTableRecord
  2
*Paper_Space0
340
26
  0
ENDTAB
  0
ENDSEC
  0
SECTION
  2
BLOCKS
  0
BLOCK
  5
20
330
1F
100
AcDbEntity
  8
0
100
AcDbBlockBegin
  2
*Model_Space
 70
     0
 10
0.0
 20
0.0
 30
0.0
  3
*Model_Space
  1

  0
ENDBLK
  5
21
330
1F
100
AcDbEntity
  8
0
100
AcDbBlockEnd
  0
BLOCK
  5
1C
330
1B
100
AcDbEntity
 67
     1
  8
0
100
AcDbBlockBegin
  2
*Paper_Space
 70
     0
 10
0.0
 20
0.0
 30
0.0
  3
*Paper_Space
  1

  0
ENDBLK
  5
1D
330
1B
100
AcDbEntity
 67
     1
  8
0
100
AcDbBlockEnd
  0
BLOCK
  5
24
330
23
100
AcDbEntity
  8
0
100
AcDbBlockBegin
  2
*Paper_Space0
 70
     0
 10
0.0
 20
0.0
 30
0.0
  3
*Paper_Space0
  1

  0
ENDBLK
  5
25
330
23
100
AcDbEntity
  8
0
100
AcDbBlockEnd
  0
ENDSEC
  0
SECTION
  2
ENTITIES
  0
LINE
  5
5E4
330
1F
100
AcDbEntity
  8
1
  6
CONTINUOUS
370
50
 62
4
100
AcDbLine
 10
15.727941
 20
-0.346023
 30
0.0
 11
15.727912
 21
-0.323215
 31
0.0
  0
LINE
  5
5E5
330
1F
100
AcDbEntity
  8
1
  6
CONTINUOUS
370
50
 62
4
100
AcDbLine
 10
15.721605
 20
-0.644218
 30
0.0
 11
15.720932
 21
-0.5751959999999999
 31
0.0
  0
LINE
  5
5E6
330
1F
100
AcDbEntity
  8
1
  6
CONTINUOUS
370
50
 62
4
100
AcDbLine
 10
15.727912
 20
-0.323215
 30
0.0
 11
15.727475
 21
-0.30044
 31
0.0
  0
LINE
  5
5E7
330
1F
100
AcDbEntity
  8
1
  6
CONTINUOUS
370
50
 62
4
100
AcDbLine
 10
15.723756
 20
-0.71307
 30
0.0
 11
15.721605
 21
-0.644218
 31
0.0
  0
LINE
  5
5E8
330
1F
100
AcDbEntity
  8
1
  6
CONTINUOUS
370
50
 62
4
100
AcDbLine
 10
15.400879
 20
0.203877
 30
0.0
 11
15.400341
 21
0.219965
 31
0.0
  0
LINE
  5
5E9
330
1F
100
AcDbEntity
  8
1
  6
CONTINUOUS
370
50
 62
4
100
AcDbLine
 10
15.727475
 20
-0.30044
 30
0.0
 11
15.726644
 21
-0.277754
 31
0.0
  0
LINE
  5
5EA
330
1F
100
AcDbEntity
  8
1
  6
CONTINUOUS
370
50
 62
4
100
AcDbLine
 10
15.400867
 20
0.908362
 30
0.0
 11
15.400134
 21
0.9275979999999999
 31
0.0
  0
LINE
  5
5EB
330
1F
100
AcDbEntity
  8
1
  6
CONTINUOUS
370
50
 62
4
100
AcDbLine
 10
15.727405
 20
-0.781558
 30
0.0
 11
15.723756
 21
-0.71307
 31
0.0
  0
LINE
  5
5EC
330
1F
100
AcDbEntity
  8
1
  6
CONTINUOUS
370
50
 62
4
100
AcDbLine
 10
15.726644
 20
-0.277754
 30
0.0
 11
15.725436
 21
-0.255243
 31
0.0
  0
LINE
  5
5ED
330
1F
100
AcDbEntity
  8
1
  6
CONTINUOUS
370
50
 62
4
100
AcDbLine
 10
15.725436
 20
-0.255243
 30
0.0
 11
15.72387
 21
-0.232963
 31
0.0
  0
LINE
  5
5EE
330
1F
100
AcDbEntity
  8
1
  6
CONTINUOUS
370
50
 62
4
100
AcDbLine
 10
6.911098
 20
-0.713479
 30
0.0
 11
6.909447
 21
-0.691491
 31
0.0
  0
LINE
  5
5EF
330
1F
100
AcDbEntity
  8
1
  6
CONTINUOUS
370
50
 62
4
100
AcDbLine
 10
15.732522
 20
-0.848904
 30
0.0
 11
15.727405
 21
-0.781558
 31
0.0
  0
LINE
  5
5F0
330
1F
100
AcDbEntity
  8
1
  6
CONTINUOUS
370
50
 62
4
100
AcDbLine
 10
15.72387
 20
-0.232963
 30
0.0
 11
15.721962
 21
-0.210956
 31
0.0
  0
LINE
  5
5F1
330
1F
100
AcDbEntity
  8
1
  6
CONTINUOUS
370
50
 62
4
100
AcDbLine
 10
15.400341
 20
0.219965
 30
0.0
 11
15.398956
 21
0.235749
 31
0.0
  0
LINE
  5
5F2
330
1F
100
AcDbEntity
  8
1
  6
CONTINUOUS
370
50
 62
4
100
AcDbLine
 10
15.400134
 20
0.9275979999999999
 30
0.0
 11
15.398355
 21
0.9478719999999999
 31
0.0
  0
LINE
  5
5F3
330
1F
100
AcDbEntity
  8
1
  6
CONTINUOUS
370
50
 62
4
100
AcDbLine
 10
15.739064
 20
-0.91469
 30
0.0
 11
15.732522
 21
-0.848904
 31
0.0
  0
LINE
  5
5F4
330
1F
100
AcDbEntity
  8
1
  6
CONTINUOUS
370
50
 62
4
100
AcDbLine
 10
15.746998
 20
-0.9787629999999999
 30
0.0
 11
15.739064
 21
-0.91469
 31
0.0
  0
LINE
  5
5F5
330
1F
100
AcDbEntity
  8
1
  6
CONTINUOUS
370
50
 62
4
100
AcDbLine
 10
15.398355
 20
0.9478719999999999
 30
0.0
 11
15.395581
 21
0.9688199999999999
 31
0.0
  0
LINE
  5
5F6
330
1F
100
AcDbEntity
  8
1
  6
CONTINUOUS
370
50
 62
4
100
AcDbLine
 10
15.398956
 20
0.235749
 30
0.0
 11
15.396758
 21
0.251009
 31
0.0
  0
LINE
  5
5F7
330
1F
100
AcDbEntity
  8
1
  6
CONTINUOUS
370
50
 62
4
100
AcDbLine
 10
15.756291
 20
-1.040971
 30
0.0
 11
15.746998
 21
-0.9787629999999999
 31
0.0
  0
LINE
  5
5F8
330
1F
100
AcDbEntity
  8
1
  6
CONTINUOUS
370
50
 62
4
100
AcDbLine
 10
6.911213
 20
1.318917
 30
0.0
 11
6.909473999999999
 21
1.330428
 31
0.0
  0
LINE
  5
5F9
330
1F
100
AcDbEntity
  8
1
  6
CONTINUOUS
370
50
 62
4
100
AcDbLine
 10
15.395581
 20
0.9688199999999999
 30
0.0
 11
15.391872
 21
0.990309
 31
0.0
  0
LINE
  5
5FA
330
1F
100
AcDbEntity
  8
1
  6
CONTINUOUS
370
50
 62
4
100
AcDbLine
 10
15.766911
 20
-1.101162
 30
0.0
 11
15.756291
 21
-1.040971
 31
0.0
  0
LINE
  5
5FB
330
1F
100
AcDbEntity
  8
1
  6
CONTINUOUS
370
50
 62
4
100
AcDbLine
 10
6.91505
 20
-0.7349829999999999
 30
0.0
 11
6.911098
 21
-0.713479
 31
0.0
  0
LINE
  5
5FC
330
1F
100
AcDbEntity
  8
1
  6
CONTINUOUS
370
50
 62
4
100
AcDbLine
 10
15.396758
 20
0.251009
 30
0.0
 11
15.393789
 21
0.265664
 31
0.0
  0
LINE
  5
5FD
330
1F
100
AcDbEntity
  8
1
  6
CONTINUOUS
370
50
 62
4
100
AcDbLine
 10
15.778809
 20
-1.159116
 30
0.0
 11
15.766911
 21
-1.101162
 31
0.0
  0
LINE
  5
5FE
330
1F
100
AcDbEntity
  8
1
  6
CONTINUOUS
370
50
 62
4
100
AcDbLine
 10
15.391872
 20
0.990309
 30
0.0
 11
15.38728
 21
1.012248
 31
0.0
  0
LINE
  5
5FF
330
1F
100
AcDbEntity
  8
1
  6
CONTINUOUS
370
50
 62
4
100
AcDbLine
 10
15.791854
 20
-1.214322
 30
0.0
 11
15.778809
 21
-1.159116
 31
0.0
  0
LINE
  5
600
330
1F
100
AcDbEntity
  8
1
  6
CONTINUOUS
370
50
 62
4
100
AcDbLine
 10
15.38728
 20
1.012248
 30
0.0
 11
15.381856
 21
1.034548
 31
0.0
  0
LINE
  5
601
330
1F
100
AcDbEntity
  8
1
  6
CONTINUOUS
370
50
 62
4
100
AcDbLine
 10
15.393789
 20
0.265664
 30
0.0
 11
15.390088
 21
0.279702
 31
0.0
  0
LINE
  5
602
330
1F
100
AcDbEntity
  8
1
  6
CONTINUOUS
370
50
 62
4
100
AcDbLine
 10
15.805973
 20
-1.266641
 30
0.0
 11
15.791854
 21
-1.214322
 31
0.0
  0
LINE
  5
603
330
1F
100
AcDbEntity
  8
1
  6
CONTINUOUS
370
50
 62
4
100
AcDbLine
 10
15.381856
 20
1.034548
 30
0.0
 11
15.375655
 21
1.057118
 31
0.0
  0
LINE
  5
604
330
1F
100
AcDbEntity
  8
1
  6
CONTINUOUS
370
50
 62
4
100
AcDbLine
 10
6.921145
 20
-0.75596
 30
0.0
 11
6.91505
 21
-0.7349829999999999
 31
0.0
  0
LINE
  5
605
330
1F
100
AcDbEntity
  8
1
  6
CONTINUOUS
370
50
 62
4
100
AcDbLine
 10
15.328003
 20
1.21313
 30
0.0
 11
15.321571
 21
1.235229
 31
0.0
  0
LINE
  5
606
330
1F
100
AcDbEntity
  8
1
  6
CONTINUOUS
370
50
 62
4
100
AcDbLine
 10
15.334534
 20
1.190993
 30
0.0
 11
15.328003
 21
1.21313
 31
0.0
  0
LINE
  5
607
330
1F
100
AcDbEntity
  8
1
  6
CONTINUOUS
370
50
 62
4
100
AcDbLine
 10
15.341166
 20
1.168821
 30
0.0
 11
15.334534
 21
1.190993
 31
0.0
  0
LINE
  5
608
330
1F
100
AcDbEntity
  8
1
  6
CONTINUOUS
370
50
 62
4
100
AcDbLine
 10
15.3479
 20
1.14662
 30
0.0
 11
15.341166
 21
1.168821
 31
0.0
  0
LINE
  5
609
330
1F
100
AcDbEntity
  8
1
  6
CONTINUOUS
370
50
 62
4
100
AcDbLine
 10
15.375655
 20
1.057118
 30
0.0
 11
15.36873
 21
1.079867
 31
0.0
  0
LINE
  5
60A
330
1F
100
AcDbEntity
  8
1
  6
CONTINUOUS
370
50
 62
4
100
AcDbLine
 10
15.821101
 20
-1.315994
 30
0.0
 11
15.805973
 21
-1.266641
 31
0.0
  0
LINE
  5
60B
330
1F
100
AcDbEntity
  8
1
  6
CONTINUOUS
370
50
 62
4
100
AcDbLine
 10
15.354739
 20
1.124391
 30
0.0
 11
15.3479
 21
1.14662
 31
0.0
  0
LINE
  5
60C
330
1F
100
AcDbEntity
  8
1
  6
CONTINUOUS
370
50
 62
4
100
AcDbLine
 10
15.361681
 20
1.102139
 30
0.0
 11
15.354739
 21
1.124391
 31
0.0
  0
LINE
  5
60D
330
1F
100
AcDbEntity
  8
1
  6
CONTINUOUS
370
50
 62
4
100
AcDbLine
 10
15.36873
 20
1.079867
 30
0.0
 11
15.361681
 21
1.102139
 31
0.0
  0
LINE
  5
60E
330
1F
100
AcDbEntity
  8
1
  6
CONTINUOUS
370
50
 62
4
100
AcDbLine
 10
15.724263
 20
0.7450669999999999
 30
0.0
 11
15.72176
 21
0.752771
 31
0.0
  0
LINE
  5
60F
330
1F
100
AcDbEntity
  8
1
  6
CONTINUOUS
370
50
 62
4
100
AcDbLine
 10
15.728462
 20
0.732143
 30
0.0
 11
15.724263
 21
0.7450669999999999
 31
0.0
  0
LINE
  5
610
330
1F
100
AcDbEntity
  8
1
  6
CONTINUOUS
370
50
 62
4
100
AcDbLine
 10
15.74176
 20
0.691215
 30
0.0
 11
15.73431
 21
0.7141449999999999
 31
0.0
  0
LINE
  5
611
330
1F
100
AcDbEntity
  8
1
  6
CONTINUOUS
370
50
 62
4
100
AcDbLine
 10
15.786713
 20
0.5528649999999999
 30
0.0
 11
15.773328
 21
0.594061
 31
0.0
  0
LINE
  5
612
330
1F
100
AcDbEntity
  8
1
  6
CONTINUOUS
370
50
 62
4
100
AcDbLine
 10
15.834019
 20
0.407272
 30
0.0
 11
15.817135
 21
0.459237
 31
0.0
  0
LINE
  5
613
330
1F
100
AcDbEntity
  8
1
  6
CONTINUOUS
370
50
 62
4
100
AcDbLine
 10
15.851871
 20
0.352328
 30
0.0
 11
15.834019
 21
0.407272
 31
0.0
  0
LINE
  5
614
330
1F
100
AcDbEntity
  8
1
  6
CONTINUOUS
370
50
 62
4
100
AcDbLine
 10
15.890064
 20
0.234783
 30
0.0
 11
15.870579
 21
0.294752
 31
0.0
  0
LINE
  5
615
330
1F
100
AcDbEntity
  8
1
  6
CONTINUOUS
370
50
 62
4
100
AcDbLine
 10
15.817135
 20
0.459237
 30
0.0
 11
15.801341
 21
0.507846
 31
0.0
  0
LINE
  5
616
330
1F
100
AcDbEntity
  8
1
  6
CONTINUOUS
370
50
 62
4
100
AcDbLine
 10
15.761309
 20
0.6310509999999999
 30
0.0
 11
15.750773
 21
0.663477
 31
0.0
  0
LINE
  5
617
330
1F
100
AcDbEntity
  8
1
  6
CONTINUOUS
370
50
 62
4
100
AcDbLine
 10
15.73431
 20
0.7141449999999999
 30
0.0
 11
15.728462
 21
0.732143
 31
0.0
  0
LINE
  5
618
330
1F
100
AcDbEntity
  8
1
  6
CONTINUOUS
370
50
 62
4
100
AcDbLine
 10
15.773328
 20
0.594061
 30
0.0
 11
15.761309
 21
0.6310509999999999
 31
0.0
  0
LINE
  5
619
330
1F
100
AcDbEntity
  8
1
  6
CONTINUOUS
370
50
 62
4
100
AcDbLine
 10
15.870579
 20
0.294752
 30
0.0
 11
15.851871
 21
0.352328
 31
0.0
  0
LINE
  5
61A
330
1F
100
AcDbEntity
  8
1
  6
CONTINUOUS
370
50
 62
4
100
AcDbLine
 10
15.9
 20
0.204204
 30
0.0
 11
15.890064
 21
0.234783
 31
0.0
  0
LINE
  5
61B
330
1F
100
AcDbEntity
  8
1
  6
CONTINUOUS
370
50
 62
4
100
AcDbLine
 10
15.801341
 20
0.507846
 30
0.0
 11
15.786713
 21
0.5528649999999999
 31
0.0
  0
LINE
  5
61C
330
1F
100
AcDbEntity
  8
1
  6
CONTINUOUS
370
50
 62
4
100
AcDbLine
 10
15.750773
 20
0.663477
 30
0.0
 11
15.74176
 21
0.691215
 31
0.0
  0
LINE
  5
61D
330
1F
100
AcDbEntity
  8
1
  6
CONTINUOUS
370
50
 62
4
100
AcDbLine
 10
15.72176
 20
0.752771
 30
0.0
 11
15.720931
 21
0.755321
 31
0.0
  0
LINE
  5
61E
330
1F
100
AcDbEntity
  8
1
  6
CONTINUOUS
370
50
 62
4
100
AcDbLine
 10
15.390088
 20
0.279702
 30
0.0
 11
15.385694
 21
0.293113
 31
0.0
  0
LINE
  5
61F
330
1F
100
AcDbEntity
  8
1
  6
CONTINUOUS
370
50
 62
4
100
AcDbLine
 10
6.915184999999999
 20
1.307212
 30
0.0
 11
6.911213
 21
1.318917
 31
0.0
  0
LINE
  5
620
330
1F
100
AcDbEntity
  8
1
  6
CONTINUOUS
370
50
 62
4
100
AcDbLine
 10
15.837174
 20
-1.362298
 30
0.0
 11
15.821101
 21
-1.315994
 31
0.0
  0
LINE
  5
621
330
1F
100
AcDbEntity
  8
1
  6
CONTINUOUS
370
50
 62
4
100
AcDbLine
 10
15.854078
 20
-1.405358
 30
0.0
 11
15.837174
 21
-1.362298
 31
0.0
  0
LINE
  5
622
330
1F
100
AcDbEntity
  8
1
  6
CONTINUOUS
370
50
 62
4
100
AcDbLine
 10
15.385694
 20
0.293113
 30
0.0
 11
15.380643
 21
0.305884
 31
0.0
  0
LINE
  5
623
330
1F
100
AcDbEntity
  8
1
  6
CONTINUOUS
370
50
 62
4
100
AcDbLine
 10
6.929227999999999
 20
-0.776369
 30
0.0
 11
6.921145
 21
-0.75596
 31
0.0
  0
LINE
  5
624
330
1F
100
AcDbEntity
  8
1
  6
CONTINUOUS
370
50
 62
4
100
AcDbLine
 10
15.87173
 20
-1.445102
 30
0.0
 11
15.854078
 21
-1.405358
 31
0.0
  0
LINE
  5
625
330
1F
100
AcDbEntity
  8
1
  6
CONTINUOUS
370
50
 62
4
100
AcDbLine
 10
15.380643
 20
0.305884
 30
0.0
 11
15.374975
 21
0.318005
 31
0.0
  0
LINE
  5
626
330
1F
100
AcDbEntity
  8
1
  6
CONTINUOUS
370
50
 62
4
100
AcDbLine
 10
15.511632
 20
0.829357
 30
0.0
 11
15.321571
 21
1.235229
 31
0.0
  0
LINE
  5
627
330
1F
100
AcDbEntity
  8
1
  6
CONTINUOUS
370
50
 62
4
100
AcDbLine
 10
15.328003
 20
0.404306
 30
0.0
 11
15.321571
 21
0.417162
 31
0.0
  0
LINE
  5
628
330
1F
100
AcDbEntity
  8
1
  6
CONTINUOUS
370
50
 62
4
100
AcDbLine
 10
15.890064
 20
-1.481512
 30
0.0
 11
15.87173
 21
-1.445102
 31
0.0
  0
LINE
  5
629
330
1F
100
AcDbEntity
  8
1
  6
CONTINUOUS
370
50
 62
4
100
AcDbLine
 10
6.92124
 20
1.295357
 30
0.0
 11
6.915184999999999
 21
1.307212
 31
0.0
  0
LINE
  5
62A
330
1F
100
AcDbEntity
  8
1
  6
CONTINUOUS
370
50
 62
4
100
AcDbLine
 10
15.334534
 20
0.391551
 30
0.0
 11
15.328003
 21
0.404306
 31
0.0
  0
LINE
  5
62B
330
1F
100
AcDbEntity
  8
1
  6
CONTINUOUS
370
50
 62
4
100
AcDbLine
 10
15.341166
 20
0.378902
 30
0.0
 11
15.334534
 21
0.391551
 31
0.0
  0
LINE
  5
62C
330
1F
100
AcDbEntity
  8
1
  6
CONTINUOUS
370
50
 62
4
100
AcDbLine
 10
15.3479
 20
0.366363
 30
0.0
 11
15.341166
 21
0.378902
 31
0.0
  0
LINE
  5
62D
330
1F
100
AcDbEntity
  8
1
  6
CONTINUOUS
370
50
 62
4
100
AcDbLine
 10
15.374975
 20
0.318005
 30
0.0
 11
15.36873
 21
0.329463
 31
0.0
  0
LINE
  5
62E
330
1F
100
AcDbEntity
  8
1
  6
CONTINUOUS
370
50
 62
4
100
AcDbLine
 10
15.354739
 20
0.353941
 30
0.0
 11
15.3479
 21
0.366363
 31
0.0
  0
LINE
  5
62F
330
1F
100
AcDbEntity
  8
1
  6
CONTINUOUS
370
50
 62
4
100
AcDbLine
 10
7.283068999999999
 20
0.7422799999999999
 30
0.0
 11
7.243177999999999
 21
0.8144119999999999
 31
0.0
  0
LINE
  5
630
330
1F
100
AcDbEntity
  8
1
  6
CONTINUOUS
370
50
 62
4
100
AcDbLine
 10
7.324205
 20
0.66801
 30
0.0
 11
7.283068999999999
 21
0.7422799999999999
 31
0.0
  0
LINE
  5
631
330
1F
100
AcDbEntity
  8
1
  6
CONTINUOUS
370
50
 62
4
100
AcDbLine
 10
7.243177999999999
 20
0.8144119999999999
 30
0.0
 11
7.204171
 21
0.884168
 31
0.0
  0
LINE
  5
632
330
1F
100
AcDbEntity
  8
1
  6
CONTINUOUS
370
50
 62
4
100
AcDbLine
 10
7.366581999999999
 20
0.592587
 30
0.0
 11
7.324205
 21
0.66801
 31
0.0
  0
LINE
  5
633
330
1F
100
AcDbEntity
  8
1
  6
CONTINUOUS
370
50
 62
4
100
AcDbLine
 10
15.361681
 20
0.341639
 30
0.0
 11
15.354739
 21
0.353941
 31
0.0
  0
LINE
  5
634
330
1F
100
AcDbEntity
  8
1
  6
CONTINUOUS
370
50
 62
4
100
AcDbLine
 10
7.204171
 20
0.884168
 30
0.0
 11
7.165661999999999
 21
0.951349
 31
0.0
  0
LINE
  5
635
330
1F
100
AcDbEntity
  8
1
  6
CONTINUOUS
370
50
 62
4
100
AcDbLine
 10
7.410481
 20
0.516569
 30
0.0
 11
7.366581999999999
 21
0.592587
 31
0.0
  0
LINE
  5
636
330
1F
100
AcDbEntity
  8
1
  6
CONTINUOUS
370
50
 62
4
100
AcDbLine
 10
15.36873
 20
0.329463
 30
0.0
 11
15.361681
 21
0.341639
 31
0.0
  0
LINE
  5
637
330
1F
100
AcDbEntity
  8
1
  6
CONTINUOUS
370
50
 62
4
100
AcDbLine
 10
6.975321999999999
 20
-0.855228
 30
0.0
 11
6.929227999999999
 21
-0.776369
 31
0.0
  0
LINE
  5
638
330
1F
100
AcDbEntity
  8
1
  6
CONTINUOUS
370
50
 62
4
100
AcDbLine
 10
7.019944
 20
-0.931033
 30
0.0
 11
6.975321999999999
 21
-0.855228
 31
0.0
  0
LINE
  5
639
330
1F
100
AcDbEntity
  8
1
  6
CONTINUOUS
370
50
 62
4
100
AcDbLine
 10
7.165661999999999
 20
0.951349
 30
0.0
 11
7.127266
 21
1.015759
 31
0.0
  0
LINE
  5
63A
330
1F
100
AcDbEntity
  8
1
  6
CONTINUOUS
370
50
 62
4
100
AcDbLine
 10
7.456341999999999
 20
0.440226
 30
0.0
 11
7.410481
 21
0.516569
 31
0.0
  0
LINE
  5
63B
330
1F
100
AcDbEntity
  8
1
  6
CONTINUOUS
370
50
 62
4
100
AcDbLine
 10
7.063599
 20
-1.003501
 30
0.0
 11
7.019944
 21
-0.931033
 31
0.0
  0
LINE
  5
63C
330
1F
100
AcDbEntity
  8
1
  6
CONTINUOUS
370
50
 62
4
100
AcDbLine
 10
7.106789999999999
 20
-1.072346
 30
0.0
 11
7.063599
 21
-1.003501
 31
0.0
  0
LINE
  5
63D
330
1F
100
AcDbEntity
  8
1
  6
CONTINUOUS
370
50
 62
4
100
AcDbLine
 10
7.127266
 20
1.015759
 30
0.0
 11
7.08869
 21
1.077075
 31
0.0
  0
LINE
  5
63E
330
1F
100
AcDbEntity
  8
1
  6
CONTINUOUS
370
50
 62
4
100
AcDbLine
 10
7.504602999999999
 20
0.363829
 30
0.0
 11
7.456341999999999
 21
0.440226
 31
0.0
  0
LINE
  5
63F
330
1F
100
AcDbEntity
  8
1
  6
CONTINUOUS
370
50
 62
4
100
AcDbLine
 10
7.149775
 20
-1.136952
 30
0.0
 11
7.106789999999999
 21
-1.072346
 31
0.0
  0
LINE
  5
640
330
1F
100
AcDbEntity
  8
1
  6
CONTINUOUS
370
50
 62
4
100
AcDbLine
 10
6.929227999999999
 20
1.283395
 30
0.0
 11
6.92124
 21
1.295357
 31
0.0
  0
LINE
  5
641
330
1F
100
AcDbEntity
  8
1
  6
CONTINUOUS
370
50
 62
4
100
AcDbLine
 10
7.555705
 20
0.287651
 30
0.0
 11
7.504602999999999
 21
0.363829
 31
0.0
  0
LINE
  5
642
330
1F
100
AcDbEntity
  8
1
  6
CONTINUOUS
370
50
 62
4
100
AcDbLine
 10
7.08869
 20
1.077075
 30
0.0
 11
7.049932999999999
 21
1.134614
 31
0.0
  0
LINE
  5
643
330
1F
100
AcDbEntity
  8
1
  6
CONTINUOUS
370
50
 62
4
100
AcDbLine
 10
7.609777999999999
 20
0.212406
 30
0.0
 11
7.555705
 21
0.287651
 31
0.0
  0
LINE
  5
644
330
1F
100
AcDbEntity
  8
1
  6
CONTINUOUS
370
50
 62
4
100
AcDbLine
 10
7.192708
 20
-1.196637
 30
0.0
 11
7.149775
 21
-1.136952
 31
0.0
  0
LINE
  5
645
330
1F
100
AcDbEntity
  8
1
  6
CONTINUOUS
370
50
 62
4
100
AcDbLine
 10
7.049932999999999
 20
1.134614
 30
0.0
 11
7.010679
 21
1.188233
 31
0.0
  0
LINE
  5
646
330
1F
100
AcDbEntity
  8
1
  6
CONTINUOUS
370
50
 62
4
100
AcDbLine
 10
7.863697999999999
 20
-0.077382
 30
0.0
 11
7.858301
 21
-0.070311
 31
0.0
  0
LINE
  5
647
330
1F
100
AcDbEntity
  8
1
  6
CONTINUOUS
370
50
 62
4
100
AcDbLine
 10
7.666373999999999
 20
0.139401
 30
0.0
 11
7.609777999999999
 21
0.212406
 31
0.0
  0
LINE
  5
648
330
1F
100
AcDbEntity
  8
1
  6
CONTINUOUS
370
50
 62
4
100
AcDbLine
 10
7.23612
 20
-1.251288
 30
0.0
 11
7.192708
 21
-1.196637
 31
0.0
  0
LINE
  5
649
330
1F
100
AcDbEntity
  8
1
  6
CONTINUOUS
370
50
 62
4
100
AcDbLine
 10
7.869388
 20
-0.084438
 30
0.0
 11
7.863697999999999
 21
-0.077382
 31
0.0
  0
LINE
  5
64A
330
1F
100
AcDbEntity
  8
1
  6
CONTINUOUS
370
50
 62
4
100
AcDbLine
 10
7.010679
 20
1.188233
 30
0.0
 11
6.970564
 21
1.237853
 31
0.0
  0
LINE
  5
64B
330
1F
100
AcDbEntity
  8
1
  6
CONTINUOUS
370
50
 62
4
100
AcDbLine
 10
7.725779999999999
 20
0.068631
 30
0.0
 11
7.666373999999999
 21
0.139401
 31
0.0
  0
LINE
  5
64C
330
1F
100
AcDbEntity
  8
1
  6
CONTINUOUS
370
50
 62
4
100
AcDbLine
 10
7.875306999999999
 20
-0.09144
 30
0.0
 11
7.869388
 21
-0.084438
 31
0.0
  0
LINE
  5
64D
330
1F
100
AcDbEntity
  8
1
  6
CONTINUOUS
370
50
 62
4
100
AcDbLine
 10
7.881392
 20
-0.098351
 30
0.0
 11
7.875306999999999
 21
-0.09144
 31
0.0
  0
LINE
  5
64E
330
1F
100
AcDbEntity
  8
1
  6
CONTINUOUS
370
50
 62
4
100
AcDbLine
 10
7.280548
 20
-1.300797
 30
0.0
 11
7.23612
 21
-1.251288
 31
0.0
  0
LINE
  5
64F
330
1F
100
AcDbEntity
  8
1
  6
CONTINUOUS
370
50
 62
4
100
AcDbLine
 10
6.970564
 20
1.237853
 30
0.0
 11
6.929227999999999
 21
1.283395
 31
0.0
  0
LINE
  5
650
330
1F
100
AcDbEntity
  8
1
  6
CONTINUOUS
370
50
 62
4
100
AcDbLine
 10
7.788334
 20
0.000015
 30
0.0
 11
7.725779999999999
 21
0.068631
 31
0.0
  0
LINE
  5
651
330
1F
100
AcDbEntity
  8
1
  6
CONTINUOUS
370
50
 62
4
100
AcDbLine
 10
7.887578
 20
-0.105133
 30
0.0
 11
7.881392
 21
-0.098351
 31
0.0
  0
LINE
  5
652
330
1F
100
AcDbEntity
  8
1
  6
CONTINUOUS
370
50
 62
4
100
AcDbLine
 10
7.893802
 20
-0.111747
 30
0.0
 11
7.887578
 21
-0.105133
 31
0.0
  0
LINE
  5
653
330
1F
100
AcDbEntity
  8
1
  6
CONTINUOUS
370
50
 62
4
100
AcDbLine
 10
7.798081
 20
-0.010171
 30
0.0
 11
7.788334
 21
0.000015
 31
0.0
  0
LINE
  5
654
330
1F
100
AcDbEntity
  8
1
  6
CONTINUOUS
370
50
 62
4
100
AcDbLine
 10
7.899999999999999
 20
-0.118155
 30
0.0
 11
7.893802
 21
-0.111747
 31
0.0
  0
LINE
  5
655
330
1F
100
AcDbEntity
  8
1
  6
CONTINUOUS
370
50
 62
4
100
AcDbLine
 10
7.807909
 20
-0.02031
 30
0.0
 11
7.798081
 21
-0.010171
 31
0.0
  0
LINE
  5
656
330
1F
100
AcDbEntity
  8
1
  6
CONTINUOUS
370
50
 62
4
100
AcDbLine
 10
7.817819999999999
 20
-0.030403
 30
0.0
 11
7.807909
 21
-0.02031
 31
0.0
  0
LINE
  5
657
330
1F
100
AcDbEntity
  8
1
  6
CONTINUOUS
370
50
 62
4
100
AcDbLine
 10
7.827812
 20
-0.040449
 30
0.0
 11
7.817819999999999
 21
-0.030403
 31
0.0
  0
LINE
  5
658
330
1F
100
AcDbEntity
  8
1
  6
CONTINUOUS
370
50
 62
4
100
AcDbLine
 10
7.837889
 20
-0.050449
 30
0.0
 11
7.827812
 21
-0.040449
 31
0.0
  0
LINE
  5
659
330
1F
100
AcDbEntity
  8
1
  6
CONTINUOUS
370
50
 62
4
100
AcDbLine
 10
7.848052
 20
-0.060403
 30
0.0
 11
7.837889
 21
-0.050449
 31
0.0
  0
LINE
  5
65A
330
1F
100
AcDbEntity
  8
1
  6
CONTINUOUS
370
50
 62
4
100
AcDbLine
 10
7.858301
 20
-0.070311
 30
0.0
 11
7.848052
 21
-0.060403
 31
0.0
  0
LINE
  5
65B
330
1F
100
AcDbEntity
  8
1
  6
CONTINUOUS
370
50
 62
4
100
AcDbLine
 10
7.326497
 20
-1.345025
 30
0.0
 11
7.280548
 21
-1.300797
 31
0.0
  0
LINE
  5
65C
330
1F
100
AcDbEntity
  8
1
  6
CONTINUOUS
370
50
 62
4
100
AcDbLine
 10
10.271426
 20
0.0
 30
0.0
 11
10.159526
 21
0.101553
 31
0.0
  0
LINE
  5
65D
330
1F
100
AcDbEntity
  8
1
  6
CONTINUOUS
370
50
 62
4
100
AcDbLine
 10
13.698215
 20
-0.270615
 30
0.0
 11
13.561497
 21
-0.147518
 31
0.0
  0
LINE
  5
65E
330
1F
100
AcDbEntity
  8
1
  6
CONTINUOUS
370
50
 62
4
100
AcDbLine
 10
10.159526
 20
0.101553
 30
0.0
 11
10.047423
 21
0.202232
 31
0.0
  0
LINE
  5
65F
330
1F
100
AcDbEntity
  8
1
  6
CONTINUOUS
370
50
 62
4
100
AcDbLine
 10
10.275126
 20
-0.002667
 30
0.0
 11
10.273437
 21
-0.001154
 31
0.0
  0
LINE
  5
660
330
1F
100
AcDbEntity
  8
1
  6
CONTINUOUS
370
50
 62
4
100
AcDbLine
 10
10.276817
 20
-0.004181
 30
0.0
 11
10.275126
 21
-0.002667
 31
0.0
  0
LINE
  5
661
330
1F
100
AcDbEntity
  8
1
  6
CONTINUOUS
370
50
 62
4
100
AcDbLine
 10
10.280202
 20
-0.007208
 30
0.0
 11
10.278509
 21
-0.005694
 31
0.0
  0
LINE
  5
662
330
1F
100
AcDbEntity
  8
1
  6
CONTINUOUS
370
50
 62
4
100
AcDbLine
 10
10.278509
 20
-0.005694
 30
0.0
 11
10.276817
 21
-0.004181
 31
0.0
  0
LINE
  5
663
330
1F
100
AcDbEntity
  8
1
  6
CONTINUOUS
370
50
 62
4
100
AcDbLine
 10
10.281896
 20
-0.008722
 30
0.0
 11
10.280202
 21
-0.007208
 31
0.0
  0
LINE
  5
664
330
1F
100
AcDbEntity
  8
1
  6
CONTINUOUS
370
50
 62
4
100
AcDbLine
 10
13.561497
 20
-0.147518
 30
0.0
 11
13.395179
 21
0.0
 31
0.0
  0
LINE
  5
665
330
1F
100
AcDbEntity
  8
1
  6
CONTINUOUS
370
50
 62
4
100
AcDbLine
 10
10.281482
 20
0.233922
 30
0.0
 11
10.192267
 21
0.312838
 31
0.0
  0
LINE
  5
666
330
1F
100
AcDbEntity
  8
1
  6
CONTINUOUS
370
50
 62
4
100
AcDbLine
 10
10.192267
 20
0.312838
 30
0.0
 11
10.086285
 21
0.406539
 31
0.0
  0
LINE
  5
667
330
1F
100
AcDbEntity
  8
1
  6
CONTINUOUS
370
50
 62
4
100
AcDbLine
 10
15.563589
 20
0.268813
 30
0.0
 11
15.463001
 21
0.35732
 31
0.0
  0
LINE
  5
668
330
1F
100
AcDbEntity
  8
1
  6
CONTINUOUS
370
50
 62
4
100
AcDbLine
 10
15.463001
 20
0.35732
 30
0.0
 11
15.364796
 21
0.443638
 31
0.0
  0
LINE
  5
669
330
1F
100
AcDbEntity
  8
1
  6
CONTINUOUS
370
50
 62
4
100
AcDbLine
 10
13.814966
 20
-0.372795
 30
0.0
 11
13.698215
 21
-0.270615
 31
0.0
  0
LINE
  5
66A
330
1F
100
AcDbEntity
  8
1
  6
CONTINUOUS
370
50
 62
4
100
AcDbLine
 10
10.047423
 20
0.202232
 30
0.0
 11
9.931842
 21
0.30298
 31
0.0
  0
LINE
  5
66B
330
1F
100
AcDbEntity
  8
1
  6
CONTINUOUS
370
50
 62
4
100
AcDbLine
 10
10.371635
 20
0.155413
 30
0.0
 11
10.281482
 21
0.233922
 31
0.0
  0
LINE
  5
66C
330
1F
100
AcDbEntity
  8
1
  6
CONTINUOUS
370
50
 62
4
100
AcDbLine
 10
13.627797
 20
-0.444732
 30
0.0
 11
13.411404
 21
-0.257223
 31
0.0
  0
LINE
  5
66D
330
1F
100
AcDbEntity
  8
1
  6
CONTINUOUS
370
50
 62
4
100
AcDbLine
 10
15.667847
 20
0.178709
 30
0.0
 11
15.563589
 21
0.268813
 31
0.0
  0
LINE
  5
66E
330
1F
100
AcDbEntity
  8
1
  6
CONTINUOUS
370
50
 62
4
100
AcDbLine
 10
13.395179
 20
0.0
 30
0.0
 11
13.314548
 21
0.069043
 31
0.0
  0
LINE
  5
66F
330
1F
100
AcDbEntity
  8
1
  6
CONTINUOUS
370
50
 62
4
100
AcDbLine
 10
10.462751
 20
0.077433
 30
0.0
 11
10.371635
 21
0.155413
 31
0.0
  0
LINE
  5
670
330
1F
100
AcDbEntity
  8
1
  6
CONTINUOUS
370
50
 62
4
100
AcDbLine
 10
10.575628
 20
-0.259775
 30
0.0
 11
10.281896
 21
-0.008722
 31
0.0
  0
LINE
  5
671
330
1F
100
AcDbEntity
  8
1
  6
CONTINUOUS
370
50
 62
4
100
AcDbLine
 10
13.769917
 20
-0.56611
 30
0.0
 11
13.627797
 21
-0.444732
 31
0.0
  0
LINE
  5
672
330
1F
100
AcDbEntity
  8
1
  6
CONTINUOUS
370
50
 62
4
100
AcDbLine
 10
15.364796
 20
0.443638
 30
0.0
 11
15.264879
 21
0.528856
 31
0.0
  0
LINE
  5
673
330
1F
100
AcDbEntity
  8
1
  6
CONTINUOUS
370
50
 62
4
100
AcDbLine
 10
15.773185
 20
0.089187
 30
0.0
 11
15.667847
 21
0.178709
 31
0.0
  0
LINE
  5
674
330
1F
100
AcDbEntity
  8
1
  6
CONTINUOUS
370
50
 62
4
100
AcDbLine
 10
8.439924
 20
-0.55565
 30
0.0
 11
7.899999999999999
 21
-0.099173
 31
0.0
  0
LINE
  5
675
330
1F
100
AcDbEntity
  8
1
  6
CONTINUOUS
370
50
 62
4
100
AcDbLine
 10
10.086285
 20
0.406539
 30
0.0
 11
9.933701
 21
0.534816
 31
0.0
  0
LINE
  5
676
330
1F
100
AcDbEntity
  8
1
  6
CONTINUOUS
370
50
 62
4
100
AcDbLine
 10
10.554862
 20
0.0
 30
0.0
 11
10.462751
 21
0.077433
 31
0.0
  0
LINE
  5
677
330
1F
100
AcDbEntity
  8
1
  6
CONTINUOUS
370
50
 62
4
100
AcDbLine
 10
13.314548
 20
0.069043
 30
0.0
 11
13.227881
 21
0.141885
 31
0.0
  0
LINE
  5
678
330
1F
100
AcDbEntity
  8
1
  6
CONTINUOUS
370
50
 62
4
100
AcDbLine
 10
13.411404
 20
-0.257223
 30
0.0
 11
13.112714
 21
-0.007286
 31
0.0
  0
LINE
  5
679
330
1F
100
AcDbEntity
  8
1
  6
CONTINUOUS
370
50
 62
4
100
AcDbLine
 10
15.680491
 20
0.407318
 30
0.0
 11
15.50611
 21
0.552902
 31
0.0
  0
LINE
  5
67A
330
1F
100
AcDbEntity
  8
1
  6
CONTINUOUS
370
50
 62
4
100
AcDbLine
 10
13.93197
 20
-0.470268
 30
0.0
 11
13.814966
 21
-0.372795
 31
0.0
  0
LINE
  5
67B
330
1F
100
AcDbEntity
  8
1
  6
CONTINUOUS
370
50
 62
4
100
AcDbLine
 10
9.931842
 20
0.30298
 30
0.0
 11
9.812332
 21
0.402537
 31
0.0
  0
LINE
  5
67C
330
1F
100
AcDbEntity
  8
1
  6
CONTINUOUS
370
50
 62
4
100
AcDbLine
 10
15.50611
 20
0.552902
 30
0.0
 11
15.363849
 21
0.670697
 31
0.0
  0
LINE
  5
67D
330
1F
100
AcDbEntity
  8
1
  6
CONTINUOUS
370
50
 62
4
100
AcDbLine
 10
15.890065
 20
0.234783
 30
0.0
 11
15.680491
 21
0.407318
 31
0.0
  0
LINE
  5
67E
330
1F
100
AcDbEntity
  8
1
  6
CONTINUOUS
370
50
 62
4
100
AcDbLine
 10
13.227881
 20
0.141885
 30
0.0
 11
13.138353
 21
0.215412
 31
0.0
  0
LINE
  5
67F
330
1F
100
AcDbEntity
  8
1
  6
CONTINUOUS
370
50
 62
4
100
AcDbLine
 10
13.105286
 20
-0.001217
 30
0.0
 11
13.103801
 21
0.0
 31
0.0
  0
LINE
  5
680
330
1F
100
AcDbEntity
  8
1
  6
CONTINUOUS
370
50
 62
4
100
AcDbLine
 10
13.112714
 20
-0.007286
 30
0.0
 11
13.111229
 21
-0.006072
 31
0.0
  0
LINE
  5
681
330
1F
100
AcDbEntity
  8
1
  6
CONTINUOUS
370
50
 62
4
100
AcDbLine
 10
13.109744
 20
-0.004859
 30
0.0
 11
13.105286
 21
-0.001217
 31
0.0
  0
LINE
  5
682
330
1F
100
AcDbEntity
  8
1
  6
CONTINUOUS
370
50
 62
4
100
AcDbLine
 10
13.111229
 20
-0.006072
 30
0.0
 11
13.109744
 21
-0.004859
 31
0.0
  0
LINE
  5
683
330
1F
100
AcDbEntity
  8
1
  6
CONTINUOUS
370
50
 62
4
100
AcDbLine
 10
15.264879
 20
0.528856
 30
0.0
 11
15.161306
 21
0.612722
 31
0.0
  0
LINE
  5
684
330
1F
100
AcDbEntity
  8
1
  6
CONTINUOUS
370
50
 62
4
100
AcDbLine
 10
7.374014
 20
-1.383459
 30
0.0
 11
7.326497
 21
-1.345025
 31
0.0
  0
LINE
  5
685
330
1F
100
AcDbEntity
  8
1
  6
CONTINUOUS
370
50
 62
4
100
AcDbLine
 10
13.103799
 20
-0.000003
 30
0.0
 11
12.960852
 21
0.115568
 31
0.0
  0
LINE
  5
686
330
1F
100
AcDbEntity
  8
1
  6
CONTINUOUS
370
50
 62
4
100
AcDbLine
 10
8.252267999999999
 20
-0.623989
 30
0.0
 11
8.078154999999999
 21
-0.483624
 31
0.0
  0
LINE
  5
687
330
1F
100
AcDbEntity
  8
1
  6
CONTINUOUS
370
50
 62
4
100
AcDbLine
 10
13.138353
 20
0.215412
 30
0.0
 11
13.047726
 21
0.288246
 31
0.0
  0
LINE
  5
688
330
1F
100
AcDbEntity
  8
1
  6
CONTINUOUS
370
50
 62
4
100
AcDbLine
 10
10.984179
 20
-0.343934
 30
0.0
 11
10.554862
 21
0.0
 31
0.0
  0
LINE
  5
689
330
1F
100
AcDbEntity
  8
1
  6
CONTINUOUS
370
50
 62
4
100
AcDbLine
 10
8.078154999999999
 20
-0.483624
 30
0.0
 11
7.899999999999999
 21
-0.340915
 31
0.0
  0
LINE
  5
68A
330
1F
100
AcDbEntity
  8
1
  6
CONTINUOUS
370
50
 62
4
100
AcDbLine
 10
8.417837
 20
-0.7565419999999999
 30
0.0
 11
8.252267999999999
 21
-0.623989
 31
0.0
  0
LINE
  5
68B
330
1F
100
AcDbEntity
  8
1
  6
CONTINUOUS
370
50
 62
4
100
AcDbLine
 10
13.901165
 20
-0.67091
 30
0.0
 11
13.769917
 21
-0.56611
 31
0.0
  0
LINE
  5
68C
330
1F
100
AcDbEntity
  8
1
  6
CONTINUOUS
370
50
 62
4
100
AcDbLine
 10
9.812332
 20
0.402537
 30
0.0
 11
9.691545999999999
 21
0.498795
 31
0.0
  0
LINE
  5
68D
330
1F
100
AcDbEntity
  8
1
  6
CONTINUOUS
370
50
 62
4
100
AcDbLine
 10
12.960852
 20
0.115568
 30
0.0
 11
12.8147
 21
0.231694
 31
0.0
  0
LINE
  5
68E
330
1F
100
AcDbEntity
  8
1
  6
CONTINUOUS
370
50
 62
4
100
AcDbLine
 10
14.05059
 20
-0.564163
 30
0.0
 11
13.93197
 21
-0.470268
 31
0.0
  0
LINE
  5
68F
330
1F
100
AcDbEntity
  8
1
  6
CONTINUOUS
370
50
 62
4
100
AcDbLine
 10
15.363849
 20
0.670697
 30
0.0
 11
15.244273
 21
0.765057
 31
0.0
  0
LINE
  5
690
330
1F
100
AcDbEntity
  8
1
  6
CONTINUOUS
370
50
 62
4
100
AcDbLine
 10
13.047726
 20
0.288246
 30
0.0
 11
12.956249
 21
0.360268
 31
0.0
  0
LINE
  5
691
330
1F
100
AcDbEntity
  8
1
  6
CONTINUOUS
370
50
 62
4
100
AcDbLine
 10
10.876919
 20
-0.49619
 30
0.0
 11
10.575628
 21
-0.259775
 31
0.0
  0
LINE
  5
692
330
1F
100
AcDbEntity
  8
1
  6
CONTINUOUS
370
50
 62
4
100
AcDbLine
 10
12.8147
 20
0.231694
 30
0.0
 11
12.666391
 21
0.347769
 31
0.0
  0
LINE
  5
693
330
1F
100
AcDbEntity
  8
1
  6
CONTINUOUS
370
50
 62
4
100
AcDbLine
 10
9.933701
 20
0.534816
 30
0.0
 11
9.736199
 21
0.6882079999999999
 31
0.0
  0
LINE
  5
694
330
1F
100
AcDbEntity
  8
1
  6
CONTINUOUS
370
50
 62
4
100
AcDbLine
 10
12.666391
 20
0.347769
 30
0.0
 11
12.516974
 21
0.463193
 31
0.0
  0
LINE
  5
695
330
1F
100
AcDbEntity
  8
1
  6
CONTINUOUS
370
50
 62
4
100
AcDbLine
 10
12.956249
 20
0.360268
 30
0.0
 11
12.864176
 21
0.431356
 31
0.0
  0
LINE
  5
696
330
1F
100
AcDbEntity
  8
1
  6
CONTINUOUS
370
50
 62
4
100
AcDbLine
 10
15.161306
 20
0.612722
 30
0.0
 11
15.056287
 21
0.693302
 31
0.0
  0
LINE
  5
697
330
1F
100
AcDbEntity
  8
1
  6
CONTINUOUS
370
50
 62
4
100
AcDbLine
 10
12.516974
 20
0.463193
 30
0.0
 11
12.367498
 21
0.577361
 31
0.0
  0
LINE
  5
698
330
1F
100
AcDbEntity
  8
1
  6
CONTINUOUS
370
50
 62
4
100
AcDbLine
 10
9.691545999999999
 20
0.498795
 30
0.0
 11
9.569078
 21
0.592117
 31
0.0
  0
LINE
  5
699
330
1F
100
AcDbEntity
  8
1
  6
CONTINUOUS
370
50
 62
4
100
AcDbLine
 10
12.864176
 20
0.431356
 30
0.0
 11
12.771757
 21
0.50139
 31
0.0
  0
LINE
  5
69A
330
1F
100
AcDbEntity
  8
1
  6
CONTINUOUS
370
50
 62
4
100
AcDbLine
 10
12.367498
 20
0.577361
 30
0.0
 11
12.21901
 21
0.6896709999999999
 31
0.0
  0
LINE
  5
69B
330
1F
100
AcDbEntity
  8
1
  6
CONTINUOUS
370
50
 62
4
100
AcDbLine
 10
11.41363
 20
-0.667696
 30
0.0
 11
10.984179
 21
-0.343934
 31
0.0
  0
LINE
  5
69C
330
1F
100
AcDbEntity
  8
1
  6
CONTINUOUS
370
50
 62
4
100
AcDbLine
 10
8.58427
 20
-0.881679
 30
0.0
 11
8.417837
 21
-0.7565419999999999
 31
0.0
  0
LINE
  5
69D
330
1F
100
AcDbEntity
  8
1
  6
CONTINUOUS
370
50
 62
4
100
AcDbLine
 10
12.21901
 20
0.6896709999999999
 30
0.0
 11
12.074424
 21
0.7983629999999999
 31
0.0
  0
LINE
  5
69E
330
1F
100
AcDbEntity
  8
1
  6
CONTINUOUS
370
50
 62
4
100
AcDbLine
 10
14.171275
 20
-0.654805
 30
0.0
 11
14.05059
 21
-0.564163
 31
0.0
  0
LINE
  5
69F
330
1F
100
AcDbEntity
  8
1
  6
CONTINUOUS
370
50
 62
4
100
AcDbLine
 10
14.034171
 20
-0.769967
 30
0.0
 11
13.901165
 21
-0.67091
 31
0.0
  0
LINE
  5
6A0
330
1F
100
AcDbEntity
  8
1
  6
CONTINUOUS
370
50
 62
4
100
AcDbLine
 10
12.771757
 20
0.50139
 30
0.0
 11
12.679243
 21
0.570251
 31
0.0
  0
LINE
  5
6A1
330
1F
100
AcDbEntity
  8
1
  6
CONTINUOUS
370
50
 62
4
100
AcDbLine
 10
12.074424
 20
0.7983629999999999
 30
0.0
 11
11.937128
 21
0.899909
 31
0.0
  0
LINE
  5
6A2
330
1F
100
AcDbEntity
  8
1
  6
CONTINUOUS
370
50
 62
4
100
AcDbLine
 10
15.244273
 20
0.765057
 30
0.0
 11
15.124808
 21
0.852657
 31
0.0
  0
LINE
  5
6A3
330
1F
100
AcDbEntity
  8
1
  6
CONTINUOUS
370
50
 62
4
100
AcDbLine
 10
12.679243
 20
0.570251
 30
0.0
 11
12.586885
 21
0.6378159999999999
 31
0.0
  0
LINE
  5
6A4
330
1F
100
AcDbEntity
  8
1
  6
CONTINUOUS
370
50
 62
4
100
AcDbLine
 10
8.99602
 20
-0.9617169999999999
 30
0.0
 11
8.439924
 21
-0.55565
 31
0.0
  0
LINE
  5
6A5
330
1F
100
AcDbEntity
  8
1
  6
CONTINUOUS
370
50
 62
4
100
AcDbLine
 10
9.569078
 20
0.592117
 30
0.0
 11
9.443297
 21
0.683833
 31
0.0
  0
LINE
  5
6A6
330
1F
100
AcDbEntity
  8
1
  6
CONTINUOUS
370
50
 62
4
100
AcDbLine
 10
11.173852
 20
-0.7125619999999999
 30
0.0
 11
10.876919
 21
-0.49619
 31
0.0
  0
LINE
  5
6A7
330
1F
100
AcDbEntity
  8
1
  6
CONTINUOUS
370
50
 62
4
100
AcDbLine
 10
15.773179
 20
0.089173
 30
0.0
 11
15.759693
 21
0.098993
 31
0.0
  0
LINE
  5
6A8
330
1F
100
AcDbEntity
  8
1
  6
CONTINUOUS
370
50
 62
4
100
AcDbLine
 10
15.759693
 20
0.098993
 30
0.0
 11
15.744767
 21
0.109855
 31
0.0
  0
LINE
  5
6A9
330
1F
100
AcDbEntity
  8
1
  6
CONTINUOUS
370
50
 62
4
100
AcDbLine
 10
15.056287
 20
0.693302
 30
0.0
 11
14.950205
 21
0.770466
 31
0.0
  0
LINE
  5
6AA
330
1F
100
AcDbEntity
  8
1
  6
CONTINUOUS
370
50
 62
4
100
AcDbLine
 10
15.744767
 20
0.109855
 30
0.0
 11
15.728263
 21
0.121859
 31
0.0
  0
LINE
  5
6AB
330
1F
100
AcDbEntity
  8
1
  6
CONTINUOUS
370
50
 62
4
100
AcDbLine
 10
15.728263
 20
0.121859
 30
0.0
 11
15.71004
 21
0.135106
 31
0.0
  0
LINE
  5
6AC
330
1F
100
AcDbEntity
  8
1
  6
CONTINUOUS
370
50
 62
4
100
AcDbLine
 10
15.71004
 20
0.135106
 30
0.0
 11
15.689975
 21
0.149688
 31
0.0
  0
LINE
  5
6AD
330
1F
100
AcDbEntity
  8
1
  6
CONTINUOUS
370
50
 62
4
100
AcDbLine
 10
15.689975
 20
0.149688
 30
0.0
 11
15.66794
 21
0.165696
 31
0.0
  0
LINE
  5
6AE
330
1F
100
AcDbEntity
  8
1
  6
CONTINUOUS
370
50
 62
4
100
AcDbLine
 10
15.66794
 20
0.165696
 30
0.0
 11
15.643811
 21
0.183223
 31
0.0
  0
LINE
  5
6AF
330
1F
100
AcDbEntity
  8
1
  6
CONTINUOUS
370
50
 62
4
100
AcDbLine
 10
15.643811
 20
0.183223
 30
0.0
 11
15.617486
 21
0.202341
 31
0.0
  0
LINE
  5
6B0
330
1F
100
AcDbEntity
  8
1
  6
CONTINUOUS
370
50
 62
4
100
AcDbLine
 10
15.617486
 20
0.202341
 30
0.0
 11
15.58896
 21
0.223055
 31
0.0
  0
LINE
  5
6B1
330
1F
100
AcDbEntity
  8
1
  6
CONTINUOUS
370
50
 62
4
100
AcDbLine
 10
15.58896
 20
0.223055
 30
0.0
 11
15.558167
 21
0.245413
 31
0.0
  0
LINE
  5
6B2
330
1F
100
AcDbEntity
  8
1
  6
CONTINUOUS
370
50
 62
4
100
AcDbLine
 10
15.525034
 20
0.269467
 30
0.0
 11
15.489491
 21
0.295271
 31
0.0
  0
LINE
  5
6B3
330
1F
100
AcDbEntity
  8
1
  6
CONTINUOUS
370
50
 62
4
100
AcDbLine
 10
15.558167
 20
0.245413
 30
0.0
 11
15.525034
 21
0.269467
 31
0.0
  0
LINE
  5
6B4
330
1F
100
AcDbEntity
  8
1
  6
CONTINUOUS
370
50
 62
4
100
AcDbLine
 10
15.489491
 20
0.295271
 30
0.0
 11
15.451567
 21
0.322802
 31
0.0
  0
LINE
  5
6B5
330
1F
100
AcDbEntity
  8
1
  6
CONTINUOUS
370
50
 62
4
100
AcDbLine
 10
15.417706
 20
0.347382
 30
0.0
 11
15.390698
 21
0.366988
 31
0.0
  0
LINE
  5
6B6
330
1F
100
AcDbEntity
  8
1
  6
CONTINUOUS
370
50
 62
4
100
AcDbLine
 10
15.451567
 20
0.322802
 30
0.0
 11
15.417706
 21
0.347382
 31
0.0
  0
LINE
  5
6B7
330
1F
100
AcDbEntity
  8
1
  6
CONTINUOUS
370
50
 62
4
100
AcDbLine
 10
15.369066
 20
0.38269
 30
0.0
 11
15.351333
 21
0.395562
 31
0.0
  0
LINE
  5
6B8
330
1F
100
AcDbEntity
  8
1
  6
CONTINUOUS
370
50
 62
4
100
AcDbLine
 10
15.390698
 20
0.366988
 30
0.0
 11
15.369066
 21
0.38269
 31
0.0
  0
LINE
  5
6B9
330
1F
100
AcDbEntity
  8
1
  6
CONTINUOUS
370
50
 62
4
100
AcDbLine
 10
15.351333
 20
0.395562
 30
0.0
 11
15.336021
 21
0.406675
 31
0.0
  0
LINE
  5
6BA
330
1F
100
AcDbEntity
  8
1
  6
CONTINUOUS
370
50
 62
4
100
AcDbLine
 10
15.336021
 20
0.406675
 30
0.0
 11
15.321571
 21
0.417162
 31
0.0
  0
LINE
  5
6BB
330
1F
100
AcDbEntity
  8
1
  6
CONTINUOUS
370
50
 62
4
100
AcDbLine
 10
11.776631
 20
-0.9300269999999999
 30
0.0
 11
11.41363
 21
-0.667696
 31
0.0
  0
LINE
  5
6BC
330
1F
100
AcDbEntity
  8
1
  6
CONTINUOUS
370
50
 62
4
100
AcDbLine
 10
12.586885
 20
0.6378159999999999
 30
0.0
 11
12.494936
 21
0.703967
 31
0.0
  0
LINE
  5
6BD
330
1F
100
AcDbEntity
  8
1
  6
CONTINUOUS
370
50
 62
4
100
AcDbLine
 10
14.293512
 20
-0.742065
 30
0.0
 11
14.171275
 21
-0.654805
 31
0.0
  0
LINE
  5
6BE
330
1F
100
AcDbEntity
  8
1
  6
CONTINUOUS
370
50
 62
4
100
AcDbLine
 10
12.494936
 20
0.703967
 30
0.0
 11
12.403645
 21
0.768582
 31
0.0
  0
LINE
  5
6BF
330
1F
100
AcDbEntity
  8
1
  6
CONTINUOUS
370
50
 62
4
100
AcDbLine
 10
13.112694
 20
-0.007265
 30
0.0
 11
13.112657
 21
-0.007239
 31
0.0
  0
LINE
  5
6C0
330
1F
100
AcDbEntity
  8
1
  6
CONTINUOUS
370
50
 62
4
100
AcDbLine
 10
9.736199
 20
0.6882079999999999
 30
0.0
 11
9.496058999999999
 21
0.8567359999999999
 31
0.0
  0
LINE
  5
6C1
330
1F
100
AcDbEntity
  8
1
  6
CONTINUOUS
370
50
 62
4
100
AcDbLine
 10
11.937128
 20
0.899909
 30
0.0
 11
11.801226
 21
0.994923
 31
0.0
  0
LINE
  5
6C2
330
1F
100
AcDbEntity
  8
1
  6
CONTINUOUS
370
50
 62
4
100
AcDbLine
 10
9.443297
 20
0.683833
 30
0.0
 11
9.314777
 21
0.77357
 31
0.0
  0
LINE
  5
6C3
330
1F
100
AcDbEntity
  8
1
  6
CONTINUOUS
370
50
 62
4
100
AcDbLine
 10
12.403645
 20
0.768582
 30
0.0
 11
12.313264
 21
0.831541
 31
0.0
  0
LINE
  5
6C4
330
1F
100
AcDbEntity
  8
1
  6
CONTINUOUS
370
50
 62
4
100
AcDbLine
 10
14.168705
 20
-0.863185
 30
0.0
 11
14.034171
 21
-0.769967
 31
0.0
  0
LINE
  5
6C5
330
1F
100
AcDbEntity
  8
1
  6
CONTINUOUS
370
50
 62
4
100
AcDbLine
 10
14.950205
 20
0.770466
 30
0.0
 11
14.843388
 21
0.844127
 31
0.0
  0
LINE
  5
6C6
330
1F
100
AcDbEntity
  8
1
  6
CONTINUOUS
370
50
 62
4
100
AcDbLine
 10
12.313264
 20
0.831541
 30
0.0
 11
12.224043
 21
0.892724
 31
0.0
  0
LINE
  5
6C7
330
1F
100
AcDbEntity
  8
1
  6
CONTINUOUS
370
50
 62
4
100
AcDbLine
 10
11.458049
 20
-0.90633
 30
0.0
 11
11.173852
 21
-0.7125619999999999
 31
0.0
  0
LINE
  5
6C8
330
1F
100
AcDbEntity
  8
1
  6
CONTINUOUS
370
50
 62
4
100
AcDbLine
 10
15.124808
 20
0.852657
 30
0.0
 11
15.003918
 21
0.93482
 31
0.0
  0
LINE
  5
6C9
330
1F
100
AcDbEntity
  8
1
  6
CONTINUOUS
370
50
 62
4
100
AcDbLine
 10
14.416631
 20
-0.825727
 30
0.0
 11
14.293512
 21
-0.742065
 31
0.0
  0
LINE
  5
6CA
330
1F
100
AcDbEntity
  8
1
  6
CONTINUOUS
370
50
 62
4
100
AcDbLine
 10
10.281621
 20
-0.009078
 30
0.0
 11
10.016994
 21
0.170696
 31
0.0
  0
LINE
  5
6CB
330
1F
100
AcDbEntity
  8
1
  6
CONTINUOUS
370
50
 62
4
100
AcDbLine
 10
12.224043
 20
0.892724
 30
0.0
 11
12.136043
 21
0.9520949999999999
 31
0.0
  0
LINE
  5
6CC
330
1F
100
AcDbEntity
  8
1
  6
CONTINUOUS
370
50
 62
4
100
AcDbLine
 10
8.76053
 20
-0.9996879999999999
 30
0.0
 11
8.58427
 21
-0.881679
 31
0.0
  0
LINE
  5
6CD
330
1F
100
AcDbEntity
  8
1
  6
CONTINUOUS
370
50
 62
4
100
AcDbLine
 10
9.314777
 20
0.77357
 30
0.0
 11
9.184249
 21
0.860831
 31
0.0
  0
LINE
  5
6CE
330
1F
100
AcDbEntity
  8
1
  6
CONTINUOUS
370
50
 62
4
100
AcDbLine
 10
12.029403
 20
-1.097483
 30
0.0
 11
11.776631
 21
-0.9300269999999999
 31
0.0
  0
LINE
  5
6CF
330
1F
100
AcDbEntity
  8
1
  6
CONTINUOUS
370
50
 62
4
100
AcDbLine
 10
12.136043
 20
0.9520949999999999
 30
0.0
 11
12.048898
 21
1.009727
 31
0.0
  0
LINE
  5
6D0
330
1F
100
AcDbEntity
  8
1
  6
CONTINUOUS
370
50
 62
4
100
AcDbLine
 10
7.423525
 20
-1.416075
 30
0.0
 11
7.374014
 21
-1.383459
 31
0.0
  0
LINE
  5
6D1
330
1F
100
AcDbEntity
  8
1
  6
CONTINUOUS
370
50
 62
4
100
AcDbLine
 10
14.843388
 20
0.844127
 30
0.0
 11
14.736165
 21
0.914194
 31
0.0
  0
LINE
  5
6D2
330
1F
100
AcDbEntity
  8
1
  6
CONTINUOUS
370
50
 62
4
100
AcDbLine
 10
13.112657
 20
-0.007239
 30
0.0
 11
13.112617
 21
-0.007213
 31
0.0
  0
LINE
  5
6D3
330
1F
100
AcDbEntity
  8
1
  6
CONTINUOUS
370
50
 62
4
100
AcDbLine
 10
14.539959
 20
-0.9055719999999999
 30
0.0
 11
14.416631
 21
-0.825727
 31
0.0
  0
LINE
  5
6D4
330
1F
100
AcDbEntity
  8
1
  6
CONTINUOUS
370
50
 62
4
100
AcDbLine
 10
12.048898
 20
1.009727
 30
0.0
 11
11.962222
 21
1.065707
 31
0.0
  0
LINE
  5
6D5
330
1F
100
AcDbEntity
  8
1
  6
CONTINUOUS
370
50
 62
4
100
AcDbLine
 10
14.304749
 20
-0.9507289999999999
 30
0.0
 11
14.168705
 21
-0.863185
 31
0.0
  0
LINE
  5
6D6
330
1F
100
AcDbEntity
  8
1
  6
CONTINUOUS
370
50
 62
4
100
AcDbLine
 10
9.184249
 20
0.860831
 30
0.0
 11
9.052443
 21
0.9451189999999999
 31
0.0
  0
LINE
  5
6D7
330
1F
100
AcDbEntity
  8
1
  6
CONTINUOUS
370
50
 62
4
100
AcDbLine
 10
11.731656
 20
-1.080562
 30
0.0
 11
11.458049
 21
-0.90633
 31
0.0
  0
LINE
  5
6D8
330
1F
100
AcDbEntity
  8
1
  6
CONTINUOUS
370
50
 62
4
100
AcDbLine
 10
11.801226
 20
0.994923
 30
0.0
 11
11.660374
 21
1.084253
 31
0.0
  0
LINE
  5
6D9
330
1F
100
AcDbEntity
  8
1
  6
CONTINUOUS
370
50
 62
4
100
AcDbLine
 10
10.016994
 20
0.170696
 30
0.0
 11
9.752385
 21
0.33768
 31
0.0
  0
LINE
  5
6DA
330
1F
100
AcDbEntity
  8
1
  6
CONTINUOUS
370
50
 62
4
100
AcDbLine
 10
15.003918
 20
0.93482
 30
0.0
 11
14.881783
 21
1.011534
 31
0.0
  0
LINE
  5
6DB
330
1F
100
AcDbEntity
  8
1
  6
CONTINUOUS
370
50
 62
4
100
AcDbLine
 10
13.112617
 20
-0.007213
 30
0.0
 11
13.112585
 21
-0.007193
 31
0.0
  0
LINE
  5
6DC
330
1F
100
AcDbEntity
  8
1
  6
CONTINUOUS
370
50
 62
4
100
AcDbLine
 10
15.36873
 20
0.329463
 30
0.0
 11
15.126811
 21
0.479903
 31
0.0
  0
LINE
  5
6DD
330
1F
100
AcDbEntity
  8
1
  6
CONTINUOUS
370
50
 62
4
100
AcDbLine
 10
11.962222
 20
1.065707
 30
0.0
 11
11.865355
 21
1.12575
 31
0.0
  0
LINE
  5
6DE
330
1F
100
AcDbEntity
  8
1
  6
CONTINUOUS
370
50
 62
4
100
AcDbLine
 10
9.496058999999999
 20
0.8567359999999999
 30
0.0
 11
9.216489
 21
1.029958
 31
0.0
  0
LINE
  5
6DF
330
1F
100
AcDbEntity
  8
1
  6
CONTINUOUS
370
50
 62
4
100
AcDbLine
 10
14.736165
 20
0.914194
 30
0.0
 11
14.628867
 21
0.98058
 31
0.0
  0
LINE
  5
6E0
330
1F
100
AcDbEntity
  8
1
  6
CONTINUOUS
370
50
 62
4
100
AcDbLine
 10
14.662828
 20
-0.981385
 30
0.0
 11
14.539959
 21
-0.9055719999999999
 31
0.0
  0
LINE
  5
6E1
330
1F
100
AcDbEntity
  8
1
  6
CONTINUOUS
370
50
 62
4
100
AcDbLine
 10
9.052443
 20
0.9451189999999999
 30
0.0
 11
8.92009
 21
1.025938
 31
0.0
  0
LINE
  5
6E2
330
1F
100
AcDbEntity
  8
1
  6
CONTINUOUS
370
50
 62
4
100
AcDbLine
 10
13.112622
 20
-0.007431
 30
0.0
 11
12.867826
 21
0.141023
 31
0.0
  0
LINE
  5
6E3
330
1F
100
AcDbEntity
  8
1
  6
CONTINUOUS
370
50
 62
4
100
AcDbLine
 10
14.441756
 20
-1.032637
 30
0.0
 11
14.304749
 21
-0.9507289999999999
 31
0.0
  0
LINE
  5
6E4
330
1F
100
AcDbEntity
  8
1
  6
CONTINUOUS
370
50
 62
4
100
AcDbLine
 10
8.940012
 20
-1.105356
 30
0.0
 11
8.76053
 21
-0.9996879999999999
 31
0.0
  0
LINE
  5
6E5
330
1F
100
AcDbEntity
  8
1
  6
CONTINUOUS
370
50
 62
4
100
AcDbLine
 10
12.867826
 20
0.141023
 30
0.0
 11
12.623017
 21
0.285105
 31
0.0
  0
LINE
  5
6E6
330
1F
100
AcDbEntity
  8
1
  6
CONTINUOUS
370
50
 62
4
100
AcDbLine
 10
14.784569
 20
-1.052948
 30
0.0
 11
14.662828
 21
-0.981385
 31
0.0
  0
LINE
  5
6E7
330
1F
100
AcDbEntity
  8
1
  6
CONTINUOUS
370
50
 62
4
100
AcDbLine
 10
14.628867
 20
0.98058
 30
0.0
 11
14.521564
 21
1.043393
 31
0.0
  0
LINE
  5
6E8
330
1F
100
AcDbEntity
  8
1
  6
CONTINUOUS
370
50
 62
4
100
AcDbLine
 10
8.92009
 20
1.025938
 30
0.0
 11
8.787922
 21
1.10279
 31
0.0
  0
LINE
  5
6E9
330
1F
100
AcDbEntity
  8
1
  6
CONTINUOUS
370
50
 62
4
100
AcDbLine
 10
14.881783
 20
1.011534
 30
0.0
 11
14.758128
 21
1.083114
 31
0.0
  0
LINE
  5
6EA
330
1F
100
AcDbEntity
  8
1
  6
CONTINUOUS
370
50
 62
4
100
AcDbLine
 10
12.623017
 20
0.285105
 30
0.0
 11
12.378198
 21
0.426276
 31
0.0
  0
LINE
  5
6EB
330
1F
100
AcDbEntity
  8
1
  6
CONTINUOUS
370
50
 62
4
100
AcDbLine
 10
10.273437
 20
-0.001154
 30
0.0
 11
10.271426
 21
0.0
 31
0.0
  0
LINE
  5
6EC
330
1F
100
AcDbEntity
  8
1
  6
CONTINUOUS
370
50
 62
4
100
AcDbLine
 10
9.752385
 20
0.33768
 30
0.0
 11
9.487775
 21
0.489118
 31
0.0
  0
LINE
  5
6ED
330
1F
100
AcDbEntity
  8
1
  6
CONTINUOUS
370
50
 62
4
100
AcDbLine
 10
11.989874
 20
-1.228225
 30
0.0
 11
11.731656
 21
-1.080562
 31
0.0
  0
LINE
  5
6EE
330
1F
100
AcDbEntity
  8
1
  6
CONTINUOUS
370
50
 62
4
100
AcDbLine
 10
11.865355
 20
1.12575
 30
0.0
 11
11.752514
 21
1.190141
 31
0.0
  0
LINE
  5
6EF
330
1F
100
AcDbEntity
  8
1
  6
CONTINUOUS
370
50
 62
4
100
AcDbLine
 10
12.378198
 20
0.426276
 30
0.0
 11
12.133371
 21
0.565639
 31
0.0
  0
LINE
  5
6F0
330
1F
100
AcDbEntity
  8
1
  6
CONTINUOUS
370
50
 62
4
100
AcDbLine
 10
11.660374
 20
1.084253
 30
0.0
 11
11.515139
 21
1.165832
 31
0.0
  0
LINE
  5
6F1
330
1F
100
AcDbEntity
  8
1
  6
CONTINUOUS
370
50
 62
4
100
AcDbLine
 10
14.904575
 20
-1.120085
 30
0.0
 11
14.784569
 21
-1.052948
 31
0.0
  0
LINE
  5
6F2
330
1F
100
AcDbEntity
  8
1
  6
CONTINUOUS
370
50
 62
4
100
AcDbLine
 10
12.133371
 20
0.565639
 30
0.0
 11
11.888554
 21
0.701704
 31
0.0
  0
LINE
  5
6F3
330
1F
100
AcDbEntity
  8
1
  6
CONTINUOUS
370
50
 62
4
100
AcDbLine
 10
14.578753
 20
-1.108675
 30
0.0
 11
14.441756
 21
-1.032637
 31
0.0
  0
LINE
  5
6F4
330
1F
100
AcDbEntity
  8
1
  6
CONTINUOUS
370
50
 62
4
100
AcDbLine
 10
14.521564
 20
1.043393
 30
0.0
 11
14.413949
 21
1.10303
 31
0.0
  0
LINE
  5
6F5
330
1F
100
AcDbEntity
  8
1
  6
CONTINUOUS
370
50
 62
4
100
AcDbLine
 10
8.787922
 20
1.10279
 30
0.0
 11
8.656675
 21
1.175177
 31
0.0
  0
LINE
  5
6F6
330
1F
100
AcDbEntity
  8
1
  6
CONTINUOUS
370
50
 62
4
100
AcDbLine
 10
15.126811
 20
0.479903
 30
0.0
 11
14.884897
 21
0.61305
 31
0.0
  0
LINE
  5
6F7
330
1F
100
AcDbEntity
  8
1
  6
CONTINUOUS
370
50
 62
4
100
AcDbLine
 10
12.254954
 20
-1.220709
 30
0.0
 11
12.029403
 21
-1.097483
 31
0.0
  0
LINE
  5
6F8
330
1F
100
AcDbEntity
  8
1
  6
CONTINUOUS
370
50
 62
4
100
AcDbLine
 10
9.216489
 20
1.029958
 30
0.0
 11
8.924097999999999
 21
1.187637
 31
0.0
  0
LINE
  5
6F9
330
1F
100
AcDbEntity
  8
1
  6
CONTINUOUS
370
50
 62
4
100
AcDbLine
 10
14.758128
 20
1.083114
 30
0.0
 11
14.632738
 21
1.149917
 31
0.0
  0
LINE
  5
6FA
330
1F
100
AcDbEntity
  8
1
  6
CONTINUOUS
370
50
 62
4
100
AcDbLine
 10
15.02327
 20
-1.183113
 30
0.0
 11
14.904575
 21
-1.120085
 31
0.0
  0
LINE
  5
6FB
330
1F
100
AcDbEntity
  8
1
  6
CONTINUOUS
370
50
 62
4
100
AcDbLine
 10
9.550118999999999
 20
-1.255694
 30
0.0
 11
8.99602
 21
-0.9617169999999999
 31
0.0
  0
LINE
  5
6FC
330
1F
100
AcDbEntity
  8
1
  6
CONTINUOUS
370
50
 62
4
100
AcDbLine
 10
14.413949
 20
1.10303
 30
0.0
 11
14.306449
 21
1.159332
 31
0.0
  0
LINE
  5
6FD
330
1F
100
AcDbEntity
  8
1
  6
CONTINUOUS
370
50
 62
4
100
AcDbLine
 10
8.656675
 20
1.175177
 30
0.0
 11
8.530339
 21
1.241137
 31
0.0
  0
LINE
  5
6FE
330
1F
100
AcDbEntity
  8
1
  6
CONTINUOUS
370
50
 62
4
100
AcDbLine
 10
9.487775
 20
0.489118
 30
0.0
 11
9.223151999999999
 21
0.626908
 31
0.0
  0
LINE
  5
6FF
330
1F
100
AcDbEntity
  8
1
  6
CONTINUOUS
370
50
 62
4
100
AcDbLine
 10
7.475643
 20
-1.44305
 30
0.0
 11
7.423525
 21
-1.416075
 31
0.0
  0
LINE
  5
700
330
1F
100
AcDbEntity
  8
1
  6
CONTINUOUS
370
50
 62
4
100
AcDbLine
 10
9.119632
 20
-1.198073
 30
0.0
 11
8.940012
 21
-1.105356
 31
0.0
  0
LINE
  5
701
330
1F
100
AcDbEntity
  8
1
  6
CONTINUOUS
370
50
 62
4
100
AcDbLine
 10
14.715416
 20
-1.179003
 30
0.0
 11
14.578753
 21
-1.108675
 31
0.0
  0
LINE
  5
702
330
1F
100
AcDbEntity
  8
1
  6
CONTINUOUS
370
50
 62
4
100
AcDbLine
 10
11.752514
 20
1.190141
 30
0.0
 11
11.622419
 21
1.255949
 31
0.0
  0
LINE
  5
703
330
1F
100
AcDbEntity
  8
1
  6
CONTINUOUS
370
50
 62
4
100
AcDbLine
 10
15.140758
 20
-1.241844
 30
0.0
 11
15.02327
 21
-1.183113
 31
0.0
  0
LINE
  5
704
330
1F
100
AcDbEntity
  8
1
  6
CONTINUOUS
370
50
 62
4
100
AcDbLine
 10
12.202084
 20
-0.050551
 30
0.0
 11
12.145547
 21
-0.022624
 31
0.0
  0
LINE
  5
705
330
1F
100
AcDbEntity
  8
1
  6
CONTINUOUS
370
50
 62
4
100
AcDbLine
 10
14.306449
 20
1.159332
 30
0.0
 11
14.199534
 21
1.212105
 31
0.0
  0
LINE
  5
706
330
1F
100
AcDbEntity
  8
1
  6
CONTINUOUS
370
50
 62
4
100
AcDbLine
 10
11.515139
 20
1.165832
 30
0.0
 11
11.368017
 21
1.238404
 31
0.0
  0
LINE
  5
707
330
1F
100
AcDbEntity
  8
1
  6
CONTINUOUS
370
50
 62
4
100
AcDbLine
 10
11.888554
 20
0.701704
 30
0.0
 11
11.643758
 21
0.822315
 31
0.0
  0
LINE
  5
708
330
1F
100
AcDbEntity
  8
1
  6
CONTINUOUS
370
50
 62
4
100
AcDbLine
 10
14.632738
 20
1.149917
 30
0.0
 11
14.50633
 21
1.211701
 31
0.0
  0
LINE
  5
709
330
1F
100
AcDbEntity
  8
1
  6
CONTINUOUS
370
50
 62
4
100
AcDbLine
 10
12.145549
 20
-0.022566
 30
0.0
 11
11.924414
 21
0.084904
 31
0.0
  0
LINE
  5
70A
330
1F
100
AcDbEntity
  8
1
  6
CONTINUOUS
370
50
 62
4
100
AcDbLine
 10
14.884897
 20
0.61305
 30
0.0
 11
14.642975
 21
0.7306039999999999
 31
0.0
  0
LINE
  5
70B
330
1F
100
AcDbEntity
  8
1
  6
CONTINUOUS
370
50
 62
4
100
AcDbLine
 10
11.924414
 20
0.084904
 30
0.0
 11
11.703114
 21
0.192297
 31
0.0
  0
LINE
  5
70C
330
1F
100
AcDbEntity
  8
1
  6
CONTINUOUS
370
50
 62
4
100
AcDbLine
 10
8.530339
 20
1.241137
 30
0.0
 11
8.408750999999999
 21
1.299528
 31
0.0
  0
LINE
  5
70D
330
1F
100
AcDbEntity
  8
1
  6
CONTINUOUS
370
50
 62
4
100
AcDbLine
 10
12.258732
 20
-0.077744
 30
0.0
 11
12.202084
 21
-0.050551
 31
0.0
  0
LINE
  5
70E
330
1F
100
AcDbEntity
  8
1
  6
CONTINUOUS
370
50
 62
4
100
AcDbLine
 10
15.423008
 20
-0.228787
 30
0.0
 11
15.207513
 21
-0.12543
 31
0.0
  0
LINE
  5
70F
330
1F
100
AcDbEntity
  8
1
  6
CONTINUOUS
370
50
 62
4
100
AcDbLine
 10
15.420788
 20
-0.226989
 30
0.0
 11
15.210564
 21
-0.126355
 31
0.0
  0
LINE
  5
710
330
1F
100
AcDbEntity
  8
1
  6
CONTINUOUS
370
50
 62
4
100
AcDbLine
 10
9.223151999999999
 20
0.626908
 30
0.0
 11
8.958513
 21
0.753292
 31
0.0
  0
LINE
  5
711
330
1F
100
AcDbEntity
  8
1
  6
CONTINUOUS
370
50
 62
4
100
AcDbLine
 10
15.653169
 20
-0.334586
 30
0.0
 11
15.638321
 21
-0.327534
 31
0.0
  0
LINE
  5
712
330
1F
100
AcDbEntity
  8
1
  6
CONTINUOUS
370
50
 62
4
100
AcDbLine
 10
14.85204
 20
-1.243885
 30
0.0
 11
14.715416
 21
-1.179003
 31
0.0
  0
LINE
  5
713
330
1F
100
AcDbEntity
  8
1
  6
CONTINUOUS
370
50
 62
4
100
AcDbLine
 10
15.668021
 20
-0.341568
 30
0.0
 11
15.653169
 21
-0.334586
 31
0.0
  0
LINE
  5
714
330
1F
100
AcDbEntity
  8
1
  6
CONTINUOUS
370
50
 62
4
100
AcDbLine
 10
15.256872
 20
-1.295883
 30
0.0
 11
15.140758
 21
-1.241844
 31
0.0
  0
LINE
  5
715
330
1F
100
AcDbEntity
  8
1
  6
CONTINUOUS
370
50
 62
4
100
AcDbLine
 10
15.682882
 20
-0.348481
 30
0.0
 11
15.668021
 21
-0.341568
 31
0.0
  0
LINE
  5
716
330
1F
100
AcDbEntity
  8
1
  6
CONTINUOUS
370
50
 62
4
100
AcDbLine
 10
12.315842
 20
-0.104308
 30
0.0
 11
12.258732
 21
-0.077744
 31
0.0
  0
LINE
  5
717
330
1F
100
AcDbEntity
  8
1
  6
CONTINUOUS
370
50
 62
4
100
AcDbLine
 10
15.207513
 20
-0.12543
 30
0.0
 11
14.991939
 21
-0.025364
 31
0.0
  0
LINE
  5
718
330
1F
100
AcDbEntity
  8
1
  6
CONTINUOUS
370
50
 62
4
100
AcDbLine
 10
14.199534
 20
1.212105
 30
0.0
 11
14.093566
 21
1.261211
 31
0.0
  0
LINE
  5
719
330
1F
100
AcDbEntity
  8
1
  6
CONTINUOUS
370
50
 62
4
100
AcDbLine
 10
15.210564
 20
-0.126355
 30
0.0
 11
14.997088
 21
-0.027603
 31
0.0
  0
LINE
  5
71A
330
1F
100
AcDbEntity
  8
1
  6
CONTINUOUS
370
50
 62
4
100
AcDbLine
 10
15.638321
 20
-0.327534
 30
0.0
 11
15.420788
 21
-0.226989
 31
0.0
  0
LINE
  5
71B
330
1F
100
AcDbEntity
  8
1
  6
CONTINUOUS
370
50
 62
4
100
AcDbLine
 10
8.704263
 20
0.261558
 30
0.0
 11
8.645514
 21
0.288662
 31
0.0
  0
LINE
  5
71C
330
1F
100
AcDbEntity
  8
1
  6
CONTINUOUS
370
50
 62
4
100
AcDbLine
 10
15.697755
 20
-0.355324
 30
0.0
 11
15.682882
 21
-0.348481
 31
0.0
  0
LINE
  5
71D
330
1F
100
AcDbEntity
  8
1
  6
CONTINUOUS
370
50
 62
4
100
AcDbLine
 10
15.638321
 20
-0.327534
 30
0.0
 11
15.423008
 21
-0.228787
 31
0.0
  0
LINE
  5
71E
330
1F
100
AcDbEntity
  8
1
  6
CONTINUOUS
370
50
 62
4
100
AcDbLine
 10
8.924097999999999
 20
1.187637
 30
0.0
 11
8.635907
 21
1.319199
 31
0.0
  0
LINE
  5
71F
330
1F
100
AcDbEntity
  8
1
  6
CONTINUOUS
370
50
 62
4
100
AcDbLine
 10
8.763309999999999
 20
0.23464
 30
0.0
 11
8.704263
 21
0.261558
 31
0.0
  0
LINE
  5
720
330
1F
100
AcDbEntity
  8
1
  6
CONTINUOUS
370
50
 62
4
100
AcDbLine
 10
15.712642
 20
-0.362098
 30
0.0
 11
15.697755
 21
-0.355324
 31
0.0
  0
LINE
  5
721
330
1F
100
AcDbEntity
  8
1
  6
CONTINUOUS
370
50
 62
4
100
AcDbLine
 10
15.727547
 20
-0.368803
 30
0.0
 11
15.712642
 21
-0.362098
 31
0.0
  0
LINE
  5
722
330
1F
100
AcDbEntity
  8
1
  6
CONTINUOUS
370
50
 62
4
100
AcDbLine
 10
12.373597
 20
-0.130278
 30
0.0
 11
12.315842
 21
-0.104308
 31
0.0
  0
LINE
  5
723
330
1F
100
AcDbEntity
  8
1
  6
CONTINUOUS
370
50
 62
4
100
AcDbLine
 10
9.297557
 20
-1.278005
 30
0.0
 11
9.119632
 21
-1.198073
 31
0.0
  0
LINE
  5
724
330
1F
100
AcDbEntity
  8
1
  6
CONTINUOUS
370
50
 62
4
100
AcDbLine
 10
8.822844
 20
0.207913
 30
0.0
 11
8.763309999999999
 21
0.23464
 31
0.0
  0
LINE
  5
725
330
1F
100
AcDbEntity
  8
1
  6
CONTINUOUS
370
50
 62
4
100
AcDbLine
 10
10.170433
 20
-0.383158
 30
0.0
 11
9.957623
 21
-0.287739
 31
0.0
  0
LINE
  5
726
330
1F
100
AcDbEntity
  8
1
  6
CONTINUOUS
370
50
 62
4
100
AcDbLine
 10
10.161122
 20
-0.379712
 30
0.0
 11
9.941637
 21
-0.28165
 31
0.0
  0
LINE
  5
727
330
1F
100
AcDbEntity
  8
1
  6
CONTINUOUS
370
50
 62
4
100
AcDbLine
 10
14.991939
 20
-0.025364
 30
0.0
 11
14.776394
 21
0.070881
 31
0.0
  0
LINE
  5
728
330
1F
100
AcDbEntity
  8
1
  6
CONTINUOUS
370
50
 62
4
100
AcDbLine
 10
14.50633
 20
1.211701
 30
0.0
 11
14.379629
 21
1.268219
 31
0.0
  0
LINE
  5
729
330
1F
100
AcDbEntity
  8
1
  6
CONTINUOUS
370
50
 62
4
100
AcDbLine
 10
11.703114
 20
0.192297
 30
0.0
 11
11.481718
 21
0.291001
 31
0.0
  0
LINE
  5
72A
330
1F
100
AcDbEntity
  8
1
  6
CONTINUOUS
370
50
 62
4
100
AcDbLine
 10
9.941637
 20
-0.28165
 30
0.0
 11
9.722066
 21
-0.183789
 31
0.0
  0
LINE
  5
72B
330
1F
100
AcDbEntity
  8
1
  6
CONTINUOUS
370
50
 62
4
100
AcDbLine
 10
8.521367
 20
0.344002
 30
0.0
 11
8.397174999999999
 21
0.399342
 31
0.0
  0
LINE
  5
72C
330
1F
100
AcDbEntity
  8
1
  6
CONTINUOUS
370
50
 62
4
100
AcDbLine
 10
14.997088
 20
-0.027603
 30
0.0
 11
14.780849
 21
0.068695
 31
0.0
  0
LINE
  5
72D
330
1F
100
AcDbEntity
  8
1
  6
CONTINUOUS
370
50
 62
4
100
AcDbLine
 10
8.645514
 20
0.288728
 30
0.0
 11
8.521367
 21
0.344002
 31
0.0
  0
LINE
  5
72E
330
1F
100
AcDbEntity
  8
1
  6
CONTINUOUS
370
50
 62
4
100
AcDbLine
 10
9.957623
 20
-0.287739
 30
0.0
 11
9.736905
 21
-0.189672
 31
0.0
  0
LINE
  5
72F
330
1F
100
AcDbEntity
  8
1
  6
CONTINUOUS
370
50
 62
4
100
AcDbLine
 10
12.259953
 20
-1.347551
 30
0.0
 11
11.989874
 21
-1.228225
 31
0.0
  0
LINE
  5
730
330
1F
100
AcDbEntity
  8
1
  6
CONTINUOUS
370
50
 62
4
100
AcDbLine
 10
8.882576
 20
0.181566
 30
0.0
 11
8.822844
 21
0.207913
 31
0.0
  0
LINE
  5
731
330
1F
100
AcDbEntity
  8
1
  6
CONTINUOUS
370
50
 62
4
100
AcDbLine
 10
11.959387
 20
1.115163
 30
0.0
 11
11.894991
 21
1.143565
 31
0.0
  0
LINE
  5
732
330
1F
100
AcDbEntity
  8
1
  6
CONTINUOUS
370
50
 62
4
100
AcDbLine
 10
11.894991
 20
1.143565
 30
0.0
 11
11.830588
 21
1.171948
 31
0.0
  0
LINE
  5
733
330
1F
100
AcDbEntity
  8
1
  6
CONTINUOUS
370
50
 62
4
100
AcDbLine
 10
9.722066
 20
-0.183789
 30
0.0
 11
9.502519999999999
 21
-0.087038
 31
0.0
  0
LINE
  5
734
330
1F
100
AcDbEntity
  8
1
  6
CONTINUOUS
370
50
 62
4
100
AcDbLine
 10
15.373021
 20
-0.06375
 30
0.0
 11
15.315792
 21
-0.038587
 31
0.0
  0
LINE
  5
735
330
1F
100
AcDbEntity
  8
1
  6
CONTINUOUS
370
50
 62
4
100
AcDbLine
 10
9.736905
 20
-0.189672
 30
0.0
 11
9.513508999999999
 21
-0.091618
 31
0.0
  0
LINE
  5
736
330
1F
100
AcDbEntity
  8
1
  6
CONTINUOUS
370
50
 62
4
100
AcDbLine
 10
9.502519999999999
 20
-0.087038
 30
0.0
 11
9.283055
 21
0.008856
 31
0.0
  0
LINE
  5
737
330
1F
100
AcDbEntity
  8
1
  6
CONTINUOUS
370
50
 62
4
100
AcDbLine
 10
9.287905
 20
0.006727
 30
0.0
 11
9.063698
 21
0.104491
 31
0.0
  0
LINE
  5
738
330
1F
100
AcDbEntity
  8
1
  6
CONTINUOUS
370
50
 62
4
100
AcDbLine
 10
9.283055
 20
0.008856
 30
0.0
 11
9.063699999999999
 21
0.104499
 31
0.0
  0
LINE
  5
739
330
1F
100
AcDbEntity
  8
1
  6
CONTINUOUS
370
50
 62
4
100
AcDbLine
 10
9.513508999999999
 20
-0.091618
 30
0.0
 11
9.287905
 21
0.006727
 31
0.0
  0
LINE
  5
73A
330
1F
100
AcDbEntity
  8
1
  6
CONTINUOUS
370
50
 62
4
100
AcDbLine
 10
8.958513
 20
0.753292
 30
0.0
 11
8.693864999999999
 21
0.868458
 31
0.0
  0
LINE
  5
73B
330
1F
100
AcDbEntity
  8
1
  6
CONTINUOUS
370
50
 62
4
100
AcDbLine
 10
15.43045
 20
-0.08871
 30
0.0
 11
15.373021
 21
-0.06375
 31
0.0
  0
LINE
  5
73C
330
1F
100
AcDbEntity
  8
1
  6
CONTINUOUS
370
50
 62
4
100
AcDbLine
 10
12.431487
 20
-0.155429
 30
0.0
 11
12.373597
 21
-0.130278
 31
0.0
  0
LINE
  5
73D
330
1F
100
AcDbEntity
  8
1
  6
CONTINUOUS
370
50
 62
4
100
AcDbLine
 10
12.487722
 20
-1.32183
 30
0.0
 11
12.254954
 21
-1.220709
 31
0.0
  0
LINE
  5
73E
330
1F
100
AcDbEntity
  8
1
  6
CONTINUOUS
370
50
 62
4
100
AcDbLine
 10
14.987965
 20
-1.302796
 30
0.0
 11
14.85204
 21
-1.243885
 31
0.0
  0
LINE
  5
73F
330
1F
100
AcDbEntity
  8
1
  6
CONTINUOUS
370
50
 62
4
100
AcDbLine
 10
11.830588
 20
1.171948
 30
0.0
 11
11.765893
 21
1.19997
 31
0.0
  0
LINE
  5
740
330
1F
100
AcDbEntity
  8
1
  6
CONTINUOUS
370
50
 62
4
100
AcDbLine
 10
8.942729
 20
0.15552
 30
0.0
 11
8.882576
 21
0.181566
 31
0.0
  0
LINE
  5
741
330
1F
100
AcDbEntity
  8
1
  6
CONTINUOUS
370
50
 62
4
100
AcDbLine
 10
11.622419
 20
1.255949
 30
0.0
 11
11.473791
 21
1.320241
 31
0.0
  0
LINE
  5
742
330
1F
100
AcDbEntity
  8
1
  6
CONTINUOUS
370
50
 62
4
100
AcDbLine
 10
14.093566
 20
1.261211
 30
0.0
 11
13.988494
 21
1.306596
 31
0.0
  0
LINE
  5
743
330
1F
100
AcDbEntity
  8
1
  6
CONTINUOUS
370
50
 62
4
100
AcDbLine
 10
12.02405
 20
1.087255
 30
0.0
 11
11.959387
 21
1.115163
 31
0.0
  0
LINE
  5
744
330
1F
100
AcDbEntity
  8
1
  6
CONTINUOUS
370
50
 62
4
100
AcDbLine
 10
14.780849
 20
0.068695
 30
0.0
 11
14.562532
 21
0.162869
 31
0.0
  0
LINE
  5
745
330
1F
100
AcDbEntity
  8
1
  6
CONTINUOUS
370
50
 62
4
100
AcDbLine
 10
14.776394
 20
0.070881
 30
0.0
 11
14.560938
 21
0.163789
 31
0.0
  0
LINE
  5
746
330
1F
100
AcDbEntity
  8
1
  6
CONTINUOUS
370
50
 62
4
100
AcDbLine
 10
15.488239
 20
-0.11353
 30
0.0
 11
15.43045
 21
-0.08871
 31
0.0
  0
LINE
  5
747
330
1F
100
AcDbEntity
  8
1
  6
CONTINUOUS
370
50
 62
4
100
AcDbLine
 10
14.642975
 20
0.7306039999999999
 30
0.0
 11
14.401038
 21
0.834355
 31
0.0
  0
LINE
  5
748
330
1F
100
AcDbEntity
  8
1
  6
CONTINUOUS
370
50
 62
4
100
AcDbLine
 10
11.368017
 20
1.238404
 30
0.0
 11
11.216753
 21
1.30324
 31
0.0
  0
LINE
  5
749
330
1F
100
AcDbEntity
  8
1
  6
CONTINUOUS
370
50
 62
4
100
AcDbLine
 10
8.397174999999999
 20
0.399342
 30
0.0
 11
8.272923
 21
0.452381
 31
0.0
  0
LINE
  5
74A
330
1F
100
AcDbEntity
  8
1
  6
CONTINUOUS
370
50
 62
4
100
AcDbLine
 10
15.374078
 20
-1.345854
 30
0.0
 11
15.256872
 21
-1.295883
 31
0.0
  0
LINE
  5
74B
330
1F
100
AcDbEntity
  8
1
  6
CONTINUOUS
370
50
 62
4
100
AcDbLine
 10
11.765893
 20
1.19997
 30
0.0
 11
11.701851
 21
1.227213
 31
0.0
  0
LINE
  5
74C
330
1F
100
AcDbEntity
  8
1
  6
CONTINUOUS
370
50
 62
4
100
AcDbLine
 10
9.003141
 20
0.129831
 30
0.0
 11
8.942729
 21
0.15552
 31
0.0
  0
LINE
  5
74D
330
1F
100
AcDbEntity
  8
1
  6
CONTINUOUS
370
50
 62
4
100
AcDbLine
 10
12.045852
 20
1.077989
 30
0.0
 11
12.02405
 21
1.087255
 31
0.0
  0
LINE
  5
74E
330
1F
100
AcDbEntity
  8
1
  6
CONTINUOUS
370
50
 62
4
100
AcDbLine
 10
15.546494
 20
-0.138254
 30
0.0
 11
15.488239
 21
-0.11353
 31
0.0
  0
LINE
  5
74F
330
1F
100
AcDbEntity
  8
1
  6
CONTINUOUS
370
50
 62
4
100
AcDbLine
 10
8.408750999999999
 20
1.299528
 30
0.0
 11
8.287283
 21
1.350756
 31
0.0
  0
LINE
  5
750
330
1F
100
AcDbEntity
  8
1
  6
CONTINUOUS
370
50
 62
4
100
AcDbLine
 10
14.562532
 20
0.162869
 30
0.0
 11
14.345599
 21
0.254157
 31
0.0
  0
LINE
  5
751
330
1F
100
AcDbEntity
  8
1
  6
CONTINUOUS
370
50
 62
4
100
AcDbLine
 10
12.489498
 20
-0.179822
 30
0.0
 11
12.431487
 21
-0.155429
 31
0.0
  0
LINE
  5
752
330
1F
100
AcDbEntity
  8
1
  6
CONTINUOUS
370
50
 62
4
100
AcDbLine
 10
14.560938
 20
0.163789
 30
0.0
 11
14.345599
 21
0.254157
 31
0.0
  0
LINE
  5
753
330
1F
100
AcDbEntity
  8
1
  6
CONTINUOUS
370
50
 62
4
100
AcDbLine
 10
15.604918
 20
-0.162755
 30
0.0
 11
15.546494
 21
-0.138254
 31
0.0
  0
LINE
  5
754
330
1F
100
AcDbEntity
  8
1
  6
CONTINUOUS
370
50
 62
4
100
AcDbLine
 10
12.104551
 20
1.053399
 30
0.0
 11
12.045852
 21
1.077989
 31
0.0
  0
LINE
  5
755
330
1F
100
AcDbEntity
  8
1
  6
CONTINUOUS
370
50
 62
4
100
AcDbLine
 10
9.063698
 20
0.104491
 30
0.0
 11
9.003141
 21
0.129831
 31
0.0
  0
LINE
  5
756
330
1F
100
AcDbEntity
  8
1
  6
CONTINUOUS
370
50
 62
4
100
AcDbLine
 10
12.763781
 20
-0.293908
 30
0.0
 11
12.547702
 21
-0.203572
 31
0.0
  0
LINE
  5
757
330
1F
100
AcDbEntity
  8
1
  6
CONTINUOUS
370
50
 62
4
100
AcDbLine
 10
11.701851
 20
1.227213
 30
0.0
 11
11.637577
 21
1.254058
 31
0.0
  0
LINE
  5
758
330
1F
100
AcDbEntity
  8
1
  6
CONTINUOUS
370
50
 62
4
100
AcDbLine
 10
10.380442
 20
-0.470818
 30
0.0
 11
10.170433
 21
-0.383158
 31
0.0
  0
LINE
  5
759
330
1F
100
AcDbEntity
  8
1
  6
CONTINUOUS
370
50
 62
4
100
AcDbLine
 10
12.764492
 20
-0.293847
 30
0.0
 11
12.547701
 21
-0.203557
 31
0.0
  0
LINE
  5
75A
330
1F
100
AcDbEntity
  8
1
  6
CONTINUOUS
370
50
 62
4
100
AcDbLine
 10
13.98476
 20
0.400056
 30
0.0
 11
13.914561
 21
0.429233
 31
0.0
  0
LINE
  5
75B
330
1F
100
AcDbEntity
  8
1
  6
CONTINUOUS
370
50
 62
4
100
AcDbLine
 10
10.380444
 20
-0.470787
 30
0.0
 11
10.161122
 21
-0.379712
 31
0.0
  0
LINE
  5
75C
330
1F
100
AcDbEntity
  8
1
  6
CONTINUOUS
370
50
 62
4
100
AcDbLine
 10
13.914561
 20
0.429233
 30
0.0
 11
13.844792
 21
0.458203
 31
0.0
  0
LINE
  5
75D
330
1F
100
AcDbEntity
  8
1
  6
CONTINUOUS
370
50
 62
4
100
AcDbLine
 10
15.663417
 20
-0.186992
 30
0.0
 11
15.604918
 21
-0.162755
 31
0.0
  0
LINE
  5
75E
330
1F
100
AcDbEntity
  8
1
  6
CONTINUOUS
370
50
 62
4
100
AcDbLine
 10
14.055824
 20
0.370668
 30
0.0
 11
13.98476
 21
0.400056
 31
0.0
  0
LINE
  5
75F
330
1F
100
AcDbEntity
  8
1
  6
CONTINUOUS
370
50
 62
4
100
AcDbLine
 10
10.441842
 20
-0.496154
 30
0.0
 11
10.380442
 21
-0.470818
 31
0.0
  0
LINE
  5
760
330
1F
100
AcDbEntity
  8
1
  6
CONTINUOUS
370
50
 62
4
100
AcDbLine
 10
8.673202999999999
 20
1.303849
 30
0.0
 11
8.635907
 21
1.319187
 31
0.0
  0
LINE
  5
761
330
1F
100
AcDbEntity
  8
1
  6
CONTINUOUS
370
50
 62
4
100
AcDbLine
 10
11.637577
 20
1.254058
 30
0.0
 11
11.573092
 21
1.280493
 31
0.0
  0
LINE
  5
762
330
1F
100
AcDbEntity
  8
1
  6
CONTINUOUS
370
50
 62
4
100
AcDbLine
 10
12.163437
 20
1.029264
 30
0.0
 11
12.104551
 21
1.053399
 31
0.0
  0
LINE
  5
763
330
1F
100
AcDbEntity
  8
1
  6
CONTINUOUS
370
50
 62
4
100
AcDbLine
 10
15.721962
 20
-0.210956
 30
0.0
 11
15.663417
 21
-0.186992
 31
0.0
  0
LINE
  5
764
330
1F
100
AcDbEntity
  8
1
  6
CONTINUOUS
370
50
 62
4
100
AcDbLine
 10
14.12762
 20
0.341281
 30
0.0
 11
14.055824
 21
0.370668
 31
0.0
  0
LINE
  5
765
330
1F
100
AcDbEntity
  8
1
  6
CONTINUOUS
370
50
 62
4
100
AcDbLine
 10
8.73737
 20
1.277654
 30
0.0
 11
8.673202999999999
 21
1.303849
 31
0.0
  0
LINE
  5
766
330
1F
100
AcDbEntity
  8
1
  6
CONTINUOUS
370
50
 62
4
100
AcDbLine
 10
12.547701
 20
-0.203557
 30
0.0
 11
12.489498
 21
-0.179822
 31
0.0
  0
LINE
  5
767
330
1F
100
AcDbEntity
  8
1
  6
CONTINUOUS
370
50
 62
4
100
AcDbLine
 10
11.481718
 20
0.291001
 30
0.0
 11
11.260344
 21
0.381184
 31
0.0
  0
LINE
  5
768
330
1F
100
AcDbEntity
  8
1
  6
CONTINUOUS
370
50
 62
4
100
AcDbLine
 10
8.801725
 20
1.251637
 30
0.0
 11
8.73737
 21
1.277654
 31
0.0
  0
LINE
  5
769
330
1F
100
AcDbEntity
  8
1
  6
CONTINUOUS
370
50
 62
4
100
AcDbLine
 10
14.199894
 20
0.312064
 30
0.0
 11
14.12762
 21
0.341281
 31
0.0
  0
LINE
  5
76A
330
1F
100
AcDbEntity
  8
1
  6
CONTINUOUS
370
50
 62
4
100
AcDbLine
 10
14.379629
 20
1.268219
 30
0.0
 11
14.253364
 21
1.319226
 31
0.0
  0
LINE
  5
76B
330
1F
100
AcDbEntity
  8
1
  6
CONTINUOUS
370
50
 62
4
100
AcDbLine
 10
15.375005
 20
0.883049
 30
0.0
 11
15.325719
 21
0.902891
 31
0.0
  0
LINE
  5
76C
330
1F
100
AcDbEntity
  8
1
  6
CONTINUOUS
370
50
 62
4
100
AcDbLine
 10
11.573092
 20
1.280493
 30
0.0
 11
11.508372
 21
1.306534
 31
0.0
  0
LINE
  5
76D
330
1F
100
AcDbEntity
  8
1
  6
CONTINUOUS
370
50
 62
4
100
AcDbLine
 10
15.325719
 20
0.902891
 30
0.0
 11
15.276265
 21
0.922747
 31
0.0
  0
LINE
  5
76E
330
1F
100
AcDbEntity
  8
1
  6
CONTINUOUS
370
50
 62
4
100
AcDbLine
 10
11.643758
 20
0.822315
 30
0.0
 11
11.398971
 21
0.920457
 31
0.0
  0
LINE
  5
76F
330
1F
100
AcDbEntity
  8
1
  6
CONTINUOUS
370
50
 62
4
100
AcDbLine
 10
12.222496
 20
1.00559
 30
0.0
 11
12.163437
 21
1.029264
 31
0.0
  0
LINE
  5
770
330
1F
100
AcDbEntity
  8
1
  6
CONTINUOUS
370
50
 62
4
100
AcDbLine
 10
8.866247
 20
1.225813
 30
0.0
 11
8.801725
 21
1.251637
 31
0.0
  0
LINE
  5
771
330
1F
100
AcDbEntity
  8
1
  6
CONTINUOUS
370
50
 62
4
100
AcDbLine
 10
15.276265
 20
0.922747
 30
0.0
 11
15.22665
 21
0.942599
 31
0.0
  0
LINE
  5
772
330
1F
100
AcDbEntity
  8
1
  6
CONTINUOUS
370
50
 62
4
100
AcDbLine
 10
12.979964
 20
-0.380403
 30
0.0
 11
12.763781
 21
-0.293908
 31
0.0
  0
LINE
  5
773
330
1F
100
AcDbEntity
  8
1
  6
CONTINUOUS
370
50
 62
4
100
AcDbLine
 10
14.272696
 20
0.282993
 30
0.0
 11
14.199894
 21
0.312064
 31
0.0
  0
LINE
  5
774
330
1F
100
AcDbEntity
  8
1
  6
CONTINUOUS
370
50
 62
4
100
AcDbLine
 10
15.458176
 20
0.8498829999999999
 30
0.0
 11
15.375005
 21
0.883049
 31
0.0
  0
LINE
  5
775
330
1F
100
AcDbEntity
  8
1
  6
CONTINUOUS
370
50
 62
4
100
AcDbLine
 10
15.22665
 20
0.942599
 30
0.0
 11
15.176883
 21
0.962437
 31
0.0
  0
LINE
  5
776
330
1F
100
AcDbEntity
  8
1
  6
CONTINUOUS
370
50
 62
4
100
AcDbLine
 10
13.988494
 20
1.306596
 30
0.0
 11
13.884411
 21
1.348
 31
0.0
  0
LINE
  5
777
330
1F
100
AcDbEntity
  8
1
  6
CONTINUOUS
370
50
 62
4
100
AcDbLine
 10
13.844792
 20
0.458203
 30
0.0
 11
13.748576
 21
0.49645
 31
0.0
  0
LINE
  5
778
330
1F
100
AcDbEntity
  8
1
  6
CONTINUOUS
370
50
 62
4
100
AcDbLine
 10
12.982631
 20
-0.380444
 30
0.0
 11
12.764492
 21
-0.293847
 31
0.0
  0
LINE
  5
779
330
1F
100
AcDbEntity
  8
1
  6
CONTINUOUS
370
50
 62
4
100
AcDbLine
 10
15.176883
 20
0.962437
 30
0.0
 11
15.117033
 21
0.986182
 31
0.0
  0
LINE
  5
77A
330
1F
100
AcDbEntity
  8
1
  6
CONTINUOUS
370
50
 62
4
100
AcDbLine
 10
11.508372
 20
1.306534
 30
0.0
 11
11.473791
 21
1.320251
 31
0.0
  0
LINE
  5
77B
330
1F
100
AcDbEntity
  8
1
  6
CONTINUOUS
370
50
 62
4
100
AcDbLine
 10
8.930919
 20
1.200186
 30
0.0
 11
8.866247
 21
1.225813
 31
0.0
  0
LINE
  5
77C
330
1F
100
AcDbEntity
  8
1
  6
CONTINUOUS
370
50
 62
4
100
AcDbLine
 10
14.345599
 20
0.254157
 30
0.0
 11
14.272696
 21
0.282993
 31
0.0
  0
LINE
  5
77D
330
1F
100
AcDbEntity
  8
1
  6
CONTINUOUS
370
50
 62
4
100
AcDbLine
 10
15.117033
 20
0.986182
 30
0.0
 11
15.057382
 21
1.009723
 31
0.0
  0
LINE
  5
77E
330
1F
100
AcDbEntity
  8
1
  6
CONTINUOUS
370
50
 62
4
100
AcDbLine
 10
8.272923
 20
0.452381
 30
0.0
 11
8.148627
 21
0.501186
 31
0.0
  0
LINE
  5
77F
330
1F
100
AcDbEntity
  8
1
  6
CONTINUOUS
370
50
 62
4
100
AcDbLine
 10
15.057382
 20
1.009723
 30
0.0
 11
14.997565
 21
1.033203
 31
0.0
  0
LINE
  5
780
330
1F
100
AcDbEntity
  8
1
  6
CONTINUOUS
370
50
 62
4
100
AcDbLine
 10
8.995206999999999
 20
1.174958
 30
0.0
 11
8.930919
 21
1.200186
 31
0.0
  0
LINE
  5
781
330
1F
100
AcDbEntity
  8
1
  6
CONTINUOUS
370
50
 62
4
100
AcDbLine
 10
12.281714
 20
0.982383
 30
0.0
 11
12.222496
 21
1.00559
 31
0.0
  0
LINE
  5
782
330
1F
100
AcDbEntity
  8
1
  6
CONTINUOUS
370
50
 62
4
100
AcDbLine
 10
8.635907
 20
1.319199
 30
0.0
 11
8.511882
 21
1.367785
 31
0.0
  0
LINE
  5
783
330
1F
100
AcDbEntity
  8
1
  6
CONTINUOUS
370
50
 62
4
100
AcDbLine
 10
13.748576
 20
0.49645
 30
0.0
 11
13.65233
 21
0.534118
 31
0.0
  0
LINE
  5
784
330
1F
100
AcDbEntity
  8
1
  6
CONTINUOUS
370
50
 62
4
100
AcDbLine
 10
14.997565
 20
1.033203
 30
0.0
 11
14.937602
 21
1.056619
 31
0.0
  0
LINE
  5
785
330
1F
100
AcDbEntity
  8
1
  6
CONTINUOUS
370
50
 62
4
100
AcDbLine
 10
15.122506
 20
-1.355196
 30
0.0
 11
14.987965
 21
-1.302796
 31
0.0
  0
LINE
  5
786
330
1F
100
AcDbEntity
  8
1
  6
CONTINUOUS
370
50
 62
4
100
AcDbLine
 10
9.059600999999999
 20
1.149926
 30
0.0
 11
8.995206999999999
 21
1.174958
 31
0.0
  0
LINE
  5
787
330
1F
100
AcDbEntity
  8
1
  6
CONTINUOUS
370
50
 62
4
100
AcDbLine
 10
7.530981
 20
-1.464558
 30
0.0
 11
7.475643
 21
-1.44305
 31
0.0
  0
LINE
  5
788
330
1F
100
AcDbEntity
  8
1
  6
CONTINUOUS
370
50
 62
4
100
AcDbLine
 10
14.937602
 20
1.056619
 30
0.0
 11
14.877467
 21
1.079985
 31
0.0
  0
LINE
  5
789
330
1F
100
AcDbEntity
  8
1
  6
CONTINUOUS
370
50
 62
4
100
AcDbLine
 10
10.503581
 20
-0.520083
 30
0.0
 11
10.441842
 21
-0.496154
 31
0.0
  0
LINE
  5
78A
330
1F
100
AcDbEntity
  8
1
  6
CONTINUOUS
370
50
 62
4
100
AcDbLine
 10
14.877467
 20
1.079985
 30
0.0
 11
14.859077
 21
1.087109
 31
0.0
  0
LINE
  5
78B
330
1F
100
AcDbEntity
  8
1
  6
CONTINUOUS
370
50
 62
4
100
AcDbLine
 10
14.859077
 20
1.087109
 30
0.0
 11
14.794682
 21
1.111984
 31
0.0
  0
LINE
  5
78C
330
1F
100
AcDbEntity
  8
1
  6
CONTINUOUS
370
50
 62
4
100
AcDbLine
 10
9.471954
 20
-1.345319
 30
0.0
 11
9.297557
 21
-1.278005
 31
0.0
  0
LINE
  5
78D
330
1F
100
AcDbEntity
  8
1
  6
CONTINUOUS
370
50
 62
4
100
AcDbLine
 10
9.124103
 20
1.125074
 30
0.0
 11
9.059600999999999
 21
1.149926
 31
0.0
  0
LINE
  5
78E
330
1F
100
AcDbEntity
  8
1
  6
CONTINUOUS
370
50
 62
4
100
AcDbLine
 10
15.501666
 20
0.833133
 30
0.0
 11
15.458176
 21
0.8498829999999999
 31
0.0
  0
LINE
  5
78F
330
1F
100
AcDbEntity
  8
1
  6
CONTINUOUS
370
50
 62
4
100
AcDbLine
 10
14.794682
 20
1.111984
 30
0.0
 11
14.730294
 21
1.136755
 31
0.0
  0
LINE
  5
790
330
1F
100
AcDbEntity
  8
1
  6
CONTINUOUS
370
50
 62
4
100
AcDbLine
 10
14.730294
 20
1.136755
 30
0.0
 11
14.665765
 21
1.161502
 31
0.0
  0
LINE
  5
791
330
1F
100
AcDbEntity
  8
1
  6
CONTINUOUS
370
50
 62
4
100
AcDbLine
 10
13.196227
 20
-0.46329
 30
0.0
 11
12.979964
 21
-0.380403
 31
0.0
  0
LINE
  5
792
330
1F
100
AcDbEntity
  8
1
  6
CONTINUOUS
370
50
 62
4
100
AcDbLine
 10
12.339968
 20
0.9600639999999999
 30
0.0
 11
12.281714
 21
0.982383
 31
0.0
  0
LINE
  5
793
330
1F
100
AcDbEntity
  8
1
  6
CONTINUOUS
370
50
 62
4
100
AcDbLine
 10
14.298433
 20
1.301845
 30
0.0
 11
14.253358
 21
1.31911
 31
0.0
  0
LINE
  5
794
330
1F
100
AcDbEntity
  8
1
  6
CONTINUOUS
370
50
 62
4
100
AcDbLine
 10
14.665765
 20
1.161502
 30
0.0
 11
14.601242
 21
1.186185
 31
0.0
  0
LINE
  5
795
330
1F
100
AcDbEntity
  8
1
  6
CONTINUOUS
370
50
 62
4
100
AcDbLine
 10
8.693864999999999
 20
0.868458
 30
0.0
 11
8.429223
 21
0.969695
 31
0.0
  0
LINE
  5
796
330
1F
100
AcDbEntity
  8
1
  6
CONTINUOUS
370
50
 62
4
100
AcDbLine
 10
14.343507
 20
1.284604
 30
0.0
 11
14.298433
 21
1.301845
 31
0.0
  0
LINE
  5
797
330
1F
100
AcDbEntity
  8
1
  6
CONTINUOUS
370
50
 62
4
100
AcDbLine
 10
9.188607
 20
1.100425
 30
0.0
 11
9.124103
 21
1.125074
 31
0.0
  0
LINE
  5
798
330
1F
100
AcDbEntity
  8
1
  6
CONTINUOUS
370
50
 62
4
100
AcDbLine
 10
14.399076
 20
1.263372
 30
0.0
 11
14.343507
 21
1.284604
 31
0.0
  0
LINE
  5
799
330
1F
100
AcDbEntity
  8
1
  6
CONTINUOUS
370
50
 62
4
100
AcDbLine
 10
14.601242
 20
1.186185
 30
0.0
 11
14.565799
 21
1.199727
 31
0.0
  0
LINE
  5
79A
330
1F
100
AcDbEntity
  8
1
  6
CONTINUOUS
370
50
 62
4
100
AcDbLine
 10
14.565799
 20
1.199727
 30
0.0
 11
14.510221
 21
1.220946
 31
0.0
  0
LINE
  5
79B
330
1F
100
AcDbEntity
  8
1
  6
CONTINUOUS
370
50
 62
4
100
AcDbLine
 10
14.454648
 20
1.242156
 30
0.0
 11
14.399076
 21
1.263372
 31
0.0
  0
LINE
  5
79C
330
1F
100
AcDbEntity
  8
1
  6
CONTINUOUS
370
50
 62
4
100
AcDbLine
 10
14.510221
 20
1.220946
 30
0.0
 11
14.454648
 21
1.242156
 31
0.0
  0
LINE
  5
79D
330
1F
100
AcDbEntity
  8
1
  6
CONTINUOUS
370
50
 62
4
100
AcDbLine
 10
13.198869
 20
-0.462617
 30
0.0
 11
12.982631
 21
-0.380444
 31
0.0
  0
LINE
  5
79E
330
1F
100
AcDbEntity
  8
1
  6
CONTINUOUS
370
50
 62
4
100
AcDbLine
 10
9.245885
 20
1.078695
 30
0.0
 11
9.188607
 21
1.100425
 31
0.0
  0
LINE
  5
79F
330
1F
100
AcDbEntity
  8
1
  6
CONTINUOUS
370
50
 62
4
100
AcDbLine
 10
14.401038
 20
0.834355
 30
0.0
 11
14.159086
 21
0.925932
 31
0.0
  0
LINE
  5
7A0
330
1F
100
AcDbEntity
  8
1
  6
CONTINUOUS
370
50
 62
4
100
AcDbLine
 10
9.296
 20
1.059792
 30
0.0
 11
9.245885
 21
1.078695
 31
0.0
  0
LINE
  5
7A1
330
1F
100
AcDbEntity
  8
1
  6
CONTINUOUS
370
50
 62
4
100
AcDbLine
 10
9.346117
 20
1.04098
 30
0.0
 11
9.296
 21
1.059792
 31
0.0
  0
LINE
  5
7A2
330
1F
100
AcDbEntity
  8
1
  6
CONTINUOUS
370
50
 62
4
100
AcDbLine
 10
12.389735
 20
0.941387
 30
0.0
 11
12.339968
 21
0.9600639999999999
 31
0.0
  0
LINE
  5
7A3
330
1F
100
AcDbEntity
  8
1
  6
CONTINUOUS
370
50
 62
4
100
AcDbLine
 10
15.545264
 20
0.816782
 30
0.0
 11
15.501666
 21
0.833133
 31
0.0
  0
LINE
  5
7A4
330
1F
100
AcDbEntity
  8
1
  6
CONTINUOUS
370
50
 62
4
100
AcDbLine
 10
9.963766
 20
-1.410541
 30
0.0
 11
9.550118999999999
 21
-1.255694
 31
0.0
  0
LINE
  5
7A5
330
1F
100
AcDbEntity
  8
1
  6
CONTINUOUS
370
50
 62
4
100
AcDbLine
 10
9.396239999999999
 20
1.02225
 30
0.0
 11
9.346117
 21
1.04098
 31
0.0
  0
LINE
  5
7A6
330
1F
100
AcDbEntity
  8
1
  6
CONTINUOUS
370
50
 62
4
100
AcDbLine
 10
13.65233
 20
0.534118
 30
0.0
 11
13.556048
 21
0.570075
 31
0.0
  0
LINE
  5
7A7
330
1F
100
AcDbEntity
  8
1
  6
CONTINUOUS
370
50
 62
4
100
AcDbLine
 10
11.260344
 20
0.381184
 30
0.0
 11
11.039047
 21
0.463755
 31
0.0
  0
LINE
  5
7A8
330
1F
100
AcDbEntity
  8
1
  6
CONTINUOUS
370
50
 62
4
100
AcDbLine
 10
9.446367
 20
1.003591
 30
0.0
 11
9.396239999999999
 21
1.02225
 31
0.0
  0
LINE
  5
7A9
330
1F
100
AcDbEntity
  8
1
  6
CONTINUOUS
370
50
 62
4
100
AcDbLine
 10
9.502193
 20
0.9828889999999999
 30
0.0
 11
9.446367
 21
1.003591
 31
0.0
  0
LINE
  5
7AA
330
1F
100
AcDbEntity
  8
1
  6
CONTINUOUS
370
50
 62
4
100
AcDbLine
 10
9.558024999999999
 20
0.962255
 30
0.0
 11
9.502193
 21
0.9828889999999999
 31
0.0
  0
LINE
  5
7AB
330
1F
100
AcDbEntity
  8
1
  6
CONTINUOUS
370
50
 62
4
100
AcDbLine
 10
9.631212999999999
 20
0.9353009999999999
 30
0.0
 11
9.558024999999999
 21
0.962255
 31
0.0
  0
LINE
  5
7AC
330
1F
100
AcDbEntity
  8
1
  6
CONTINUOUS
370
50
 62
4
100
AcDbLine
 10
12.439504
 20
0.9230619999999999
 30
0.0
 11
12.389735
 21
0.941387
 31
0.0
  0
LINE
  5
7AD
330
1F
100
AcDbEntity
  8
1
  6
CONTINUOUS
370
50
 62
4
100
AcDbLine
 10
9.704243
 20
0.9084979999999999
 30
0.0
 11
9.631212999999999
 21
0.9353009999999999
 31
0.0
  0
LINE
  5
7AE
330
1F
100
AcDbEntity
  8
1
  6
CONTINUOUS
370
50
 62
4
100
AcDbLine
 10
11.216753
 20
1.30324
 30
0.0
 11
11.061502
 21
1.360164
 31
0.0
  0
LINE
  5
7AF
330
1F
100
AcDbEntity
  8
1
  6
CONTINUOUS
370
50
 62
4
100
AcDbLine
 10
15.514538
 20
-1.397242
 30
0.0
 11
15.374078
 21
-1.345854
 31
0.0
  0
LINE
  5
7B0
330
1F
100
AcDbEntity
  8
1
  6
CONTINUOUS
370
50
 62
4
100
AcDbLine
 10
9.782387
 20
0.8799089999999999
 30
0.0
 11
9.704243
 21
0.9084979999999999
 31
0.0
  0
LINE
  5
7B1
330
1F
100
AcDbEntity
  8
1
  6
CONTINUOUS
370
50
 62
4
100
AcDbLine
 10
13.412519
 20
-0.542412
 30
0.0
 11
13.196227
 21
-0.46329
 31
0.0
  0
LINE
  5
7B2
330
1F
100
AcDbEntity
  8
1
  6
CONTINUOUS
370
50
 62
4
100
AcDbLine
 10
15.588965
 20
0.800832
 30
0.0
 11
15.545264
 21
0.816782
 31
0.0
  0
LINE
  5
7B3
330
1F
100
AcDbEntity
  8
1
  6
CONTINUOUS
370
50
 62
4
100
AcDbLine
 10
9.860267
 20
0.8515149999999999
 30
0.0
 11
9.782387
 21
0.8799089999999999
 31
0.0
  0
LINE
  5
7B4
330
1F
100
AcDbEntity
  8
1
  6
CONTINUOUS
370
50
 62
4
100
AcDbLine
 10
13.412582
 20
-0.540435
 30
0.0
 11
13.198869
 21
-0.462617
 31
0.0
  0
LINE
  5
7B5
330
1F
100
AcDbEntity
  8
1
  6
CONTINUOUS
370
50
 62
4
100
AcDbLine
 10
9.911292999999999
 20
0.832971
 30
0.0
 11
9.860267
 21
0.8515149999999999
 31
0.0
  0
LINE
  5
7B6
330
1F
100
AcDbEntity
  8
1
  6
CONTINUOUS
370
50
 62
4
100
AcDbLine
 10
9.962176999999999
 20
0.814534
 30
0.0
 11
9.911292999999999
 21
0.832971
 31
0.0
  0
LINE
  5
7B7
330
1F
100
AcDbEntity
  8
1
  6
CONTINUOUS
370
50
 62
4
100
AcDbLine
 10
10.565842
 20
-0.5426139999999999
 30
0.0
 11
10.503581
 21
-0.520083
 31
0.0
  0
LINE
  5
7B8
330
1F
100
AcDbEntity
  8
1
  6
CONTINUOUS
370
50
 62
4
100
AcDbLine
 10
12.489416
 20
0.9050269999999999
 30
0.0
 11
12.439504
 21
0.9230619999999999
 31
0.0
  0
LINE
  5
7B9
330
1F
100
AcDbEntity
  8
1
  6
CONTINUOUS
370
50
 62
4
100
AcDbLine
 10
10.008156
 20
0.7979299999999999
 30
0.0
 11
9.962176999999999
 21
0.814534
 31
0.0
  0
LINE
  5
7BA
330
1F
100
AcDbEntity
  8
1
  6
CONTINUOUS
370
50
 62
4
100
AcDbLine
 10
13.884411
 20
1.348
 30
0.0
 11
13.78143
 21
1.385146
 31
0.0
  0
LINE
  5
7BB
330
1F
100
AcDbEntity
  8
1
  6
CONTINUOUS
370
50
 62
4
100
AcDbLine
 10
14.253364
 20
1.319226
 30
0.0
 11
14.119831
 21
1.367328
 31
0.0
  0
LINE
  5
7BC
330
1F
100
AcDbEntity
  8
1
  6
CONTINUOUS
370
50
 62
4
100
AcDbLine
 10
8.148627
 20
0.501186
 30
0.0
 11
8.024313
 21
0.5459419999999999
 31
0.0
  0
LINE
  5
7BD
330
1F
100
AcDbEntity
  8
1
  6
CONTINUOUS
370
50
 62
4
100
AcDbLine
 10
10.054004
 20
0.781438
 30
0.0
 11
10.008156
 21
0.7979299999999999
 31
0.0
  0
LINE
  5
7BE
330
1F
100
AcDbEntity
  8
1
  6
CONTINUOUS
370
50
 62
4
100
AcDbLine
 10
11.473791
 20
1.320241
 30
0.0
 11
11.323851
 21
1.374158
 31
0.0
  0
LINE
  5
7BF
330
1F
100
AcDbEntity
  8
1
  6
CONTINUOUS
370
50
 62
4
100
AcDbLine
 10
10.099714
 20
0.765071
 30
0.0
 11
10.054004
 21
0.781438
 31
0.0
  0
LINE
  5
7C0
330
1F
100
AcDbEntity
  8
1
  6
CONTINUOUS
370
50
 62
4
100
AcDbLine
 10
10.145281
 20
0.748846
 30
0.0
 11
10.099714
 21
0.765071
 31
0.0
  0
LINE
  5
7C1
330
1F
100
AcDbEntity
  8
1
  6
CONTINUOUS
370
50
 62
4
100
AcDbLine
 10
15.632769
 20
0.785285
 30
0.0
 11
15.588965
 21
0.800832
 31
0.0
  0
LINE
  5
7C2
330
1F
100
AcDbEntity
  8
1
  6
CONTINUOUS
370
50
 62
4
100
AcDbLine
 10
12.539331
 20
0.887326
 30
0.0
 11
12.489416
 21
0.9050269999999999
 31
0.0
  0
LINE
  5
7C3
330
1F
100
AcDbEntity
  8
1
  6
CONTINUOUS
370
50
 62
4
100
AcDbLine
 10
8.287283
 20
1.350756
 30
0.0
 11
8.161337
 21
1.395213
 31
0.0
  0
LINE
  5
7C4
330
1F
100
AcDbEntity
  8
1
  6
CONTINUOUS
370
50
 62
4
100
AcDbLine
 10
12.593778
 20
0.868385
 30
0.0
 11
12.539331
 21
0.887326
 31
0.0
  0
LINE
  5
7C5
330
1F
100
AcDbEntity
  8
1
  6
CONTINUOUS
370
50
 62
4
100
AcDbLine
 10
10.219995
 20
0.723003
 30
0.0
 11
10.145281
 21
0.748846
 31
0.0
  0
LINE
  5
7C6
330
1F
100
AcDbEntity
  8
1
  6
CONTINUOUS
370
50
 62
4
100
AcDbLine
 10
13.624204
 20
-0.61356
 30
0.0
 11
13.412582
 21
-0.540435
 31
0.0
  0
LINE
  5
7C7
330
1F
100
AcDbEntity
  8
1
  6
CONTINUOUS
370
50
 62
4
100
AcDbLine
 10
15.676803
 20
0.770098
 30
0.0
 11
15.632769
 21
0.785285
 31
0.0
  0
LINE
  5
7C8
330
1F
100
AcDbEntity
  8
1
  6
CONTINUOUS
370
50
 62
4
100
AcDbLine
 10
8.511882
 20
1.367785
 30
0.0
 11
8.393735999999999
 21
1.408382
 31
0.0
  0
LINE
  5
7C9
330
1F
100
AcDbEntity
  8
1
  6
CONTINUOUS
370
50
 62
4
100
AcDbLine
 10
13.556048
 20
0.570075
 30
0.0
 11
13.459735
 21
0.603167
 31
0.0
  0
LINE
  5
7CA
330
1F
100
AcDbEntity
  8
1
  6
CONTINUOUS
370
50
 62
4
100
AcDbLine
 10
11.039047
 20
0.463755
 30
0.0
 11
10.817862
 21
0.5397259999999999
 31
0.0
  0
LINE
  5
7CB
330
1F
100
AcDbEntity
  8
1
  6
CONTINUOUS
370
50
 62
4
100
AcDbLine
 10
15.254977
 20
-1.400545
 30
0.0
 11
15.122506
 21
-1.355196
 31
0.0
  0
LINE
  5
7CC
330
1F
100
AcDbEntity
  8
1
  6
CONTINUOUS
370
50
 62
4
100
AcDbLine
 10
13.628737
 20
-0.616387
 30
0.0
 11
13.412519
 21
-0.542412
 31
0.0
  0
LINE
  5
7CD
330
1F
100
AcDbEntity
  8
1
  6
CONTINUOUS
370
50
 62
4
100
AcDbLine
 10
12.648229
 20
0.849814
 30
0.0
 11
12.593778
 21
0.868385
 31
0.0
  0
LINE
  5
7CE
330
1F
100
AcDbEntity
  8
1
  6
CONTINUOUS
370
50
 62
4
100
AcDbLine
 10
10.628334
 20
-0.563643
 30
0.0
 11
10.565842
 21
-0.5426139999999999
 31
0.0
  0
LINE
  5
7CF
330
1F
100
AcDbEntity
  8
1
  6
CONTINUOUS
370
50
 62
4
100
AcDbLine
 10
15.720931
 20
0.7553179999999999
 30
0.0
 11
15.676803
 21
0.770098
 31
0.0
  0
LINE
  5
7D0
330
1F
100
AcDbEntity
  8
1
  6
CONTINUOUS
370
50
 62
4
100
AcDbLine
 10
12.72262
 20
0.8250149999999999
 30
0.0
 11
12.648229
 21
0.849814
 31
0.0
  0
LINE
  5
7D1
330
1F
100
AcDbEntity
  8
1
  6
CONTINUOUS
370
50
 62
4
100
AcDbLine
 10
12.724983
 20
-1.400891
 30
0.0
 11
12.487722
 21
-1.32183
 31
0.0
  0
LINE
  5
7D2
330
1F
100
AcDbEntity
  8
1
  6
CONTINUOUS
370
50
 62
4
100
AcDbLine
 10
8.024313
 20
0.5459419999999999
 30
0.0
 11
7.900001
 21
0.586832
 31
0.0
  0
LINE
  5
7D3
330
1F
100
AcDbEntity
  8
1
  6
CONTINUOUS
370
50
 62
4
100
AcDbLine
 10
10.271543
 20
0.706052
 30
0.0
 11
10.219995
 21
0.723003
 31
0.0
  0
LINE
  5
7D4
330
1F
100
AcDbEntity
  8
1
  6
CONTINUOUS
370
50
 62
4
100
AcDbLine
 10
12.797023
 20
0.8008449999999999
 30
0.0
 11
12.72262
 21
0.8250149999999999
 31
0.0
  0
LINE
  5
7D5
330
1F
100
AcDbEntity
  8
1
  6
CONTINUOUS
370
50
 62
4
100
AcDbLine
 10
14.159086
 20
0.925932
 30
0.0
 11
13.917127
 21
1.004522
 31
0.0
  0
LINE
  5
7D6
330
1F
100
AcDbEntity
  8
1
  6
CONTINUOUS
370
50
 62
4
100
AcDbLine
 10
9.640991
 20
-1.400182
 30
0.0
 11
9.471954
 21
-1.345319
 31
0.0
  0
LINE
  5
7D7
330
1F
100
AcDbEntity
  8
1
  6
CONTINUOUS
370
50
 62
4
100
AcDbLine
 10
10.817861
 20
0.53969
 30
0.0
 11
10.751975
 21
0.5608179999999999
 31
0.0
  0
LINE
  5
7D8
330
1F
100
AcDbEntity
  8
1
  6
CONTINUOUS
370
50
 62
4
100
AcDbLine
 10
13.78143
 20
1.385146
 30
0.0
 11
13.677073
 21
1.418548
 31
0.0
  0
LINE
  5
7D9
330
1F
100
AcDbEntity
  8
1
  6
CONTINUOUS
370
50
 62
4
100
AcDbLine
 10
11.398971
 20
0.920457
 30
0.0
 11
11.154177
 21
0.9985229999999999
 31
0.0
  0
LINE
  5
7DA
330
1F
100
AcDbEntity
  8
1
  6
CONTINUOUS
370
50
 62
4
100
AcDbLine
 10
12.879066
 20
0.7748879999999999
 30
0.0
 11
12.797023
 21
0.8008449999999999
 31
0.0
  0
LINE
  5
7DB
330
1F
100
AcDbEntity
  8
1
  6
CONTINUOUS
370
50
 62
4
100
AcDbLine
 10
7.976141999999999
 20
-0.600897
 30
0.0
 11
7.899999999999999
 21
-0.5768409999999999
 31
0.0
  0
LINE
  5
7DC
330
1F
100
AcDbEntity
  8
1
  6
CONTINUOUS
370
50
 62
4
100
AcDbLine
 10
10.751975
 20
0.5608179999999999
 30
0.0
 11
10.686266
 21
0.581561
 31
0.0
  0
LINE
  5
7DD
330
1F
100
AcDbEntity
  8
1
  6
CONTINUOUS
370
50
 62
4
100
AcDbLine
 10
10.323247
 20
0.689759
 30
0.0
 11
10.271543
 21
0.706052
 31
0.0
  0
LINE
  5
7DE
330
1F
100
AcDbEntity
  8
1
  6
CONTINUOUS
370
50
 62
4
100
AcDbLine
 10
13.459735
 20
0.603167
 30
0.0
 11
13.363402
 21
0.6335069999999999
 31
0.0
  0
LINE
  5
7DF
330
1F
100
AcDbEntity
  8
1
  6
CONTINUOUS
370
50
 62
4
100
AcDbLine
 10
14.119831
 20
1.367328
 30
0.0
 11
13.988507
 21
1.408562
 31
0.0
  0
LINE
  5
7E0
330
1F
100
AcDbEntity
  8
1
  6
CONTINUOUS
370
50
 62
4
100
AcDbLine
 10
7.977042999999999
 20
-0.598908
 30
0.0
 11
7.899999999999999
 21
-0.57482
 31
0.0
  0
LINE
  5
7E1
330
1F
100
AcDbEntity
  8
1
  6
CONTINUOUS
370
50
 62
4
100
AcDbLine
 10
10.691309
 20
-0.58331
 30
0.0
 11
10.628334
 21
-0.563643
 31
0.0
  0
LINE
  5
7E2
330
1F
100
AcDbEntity
  8
1
  6
CONTINUOUS
370
50
 62
4
100
AcDbLine
 10
10.686266
 20
0.581561
 30
0.0
 11
10.62068
 21
0.601899
 31
0.0
  0
LINE
  5
7E3
330
1F
100
AcDbEntity
  8
1
  6
CONTINUOUS
370
50
 62
4
100
AcDbLine
 10
12.961122
 20
0.749622
 30
0.0
 11
12.879066
 21
0.7748879999999999
 31
0.0
  0
LINE
  5
7E4
330
1F
100
AcDbEntity
  8
1
  6
CONTINUOUS
370
50
 62
4
100
AcDbLine
 10
8.052289
 20
-0.624189
 30
0.0
 11
7.976141999999999
 21
-0.600897
 31
0.0
  0
LINE
  5
7E5
330
1F
100
AcDbEntity
  8
1
  6
CONTINUOUS
370
50
 62
4
100
AcDbLine
 10
11.061502
 20
1.360164
 30
0.0
 11
10.903538
 21
1.408433
 31
0.0
  0
LINE
  5
7E6
330
1F
100
AcDbEntity
  8
1
  6
CONTINUOUS
370
50
 62
4
100
AcDbLine
 10
13.844792
 20
-0.680732
 30
0.0
 11
13.624204
 21
-0.61356
 31
0.0
  0
LINE
  5
7E7
330
1F
100
AcDbEntity
  8
1
  6
CONTINUOUS
370
50
 62
4
100
AcDbLine
 10
10.62068
 20
0.601899
 30
0.0
 11
10.555362
 21
0.621746
 31
0.0
  0
LINE
  5
7E8
330
1F
100
AcDbEntity
  8
1
  6
CONTINUOUS
370
50
 62
4
100
AcDbLine
 10
13.863493
 20
-0.686408
 30
0.0
 11
13.844792
 21
-0.680732
 31
0.0
  0
LINE
  5
7E9
330
1F
100
AcDbEntity
  8
1
  6
CONTINUOUS
370
50
 62
4
100
AcDbLine
 10
8.053993
 20
-0.62225
 30
0.0
 11
7.977042999999999
 21
-0.598908
 31
0.0
  0
LINE
  5
7EA
330
1F
100
AcDbEntity
  8
1
  6
CONTINUOUS
370
50
 62
4
100
AcDbLine
 10
12.541757
 20
-1.432809
 30
0.0
 11
12.259953
 21
-1.347551
 31
0.0
  0
LINE
  5
7EB
330
1F
100
AcDbEntity
  8
1
  6
CONTINUOUS
370
50
 62
4
100
AcDbLine
 10
10.3751
 20
0.6741229999999999
 30
0.0
 11
10.323247
 21
0.689759
 31
0.0
  0
LINE
  5
7EC
330
1F
100
AcDbEntity
  8
1
  6
CONTINUOUS
370
50
 62
4
100
AcDbLine
 10
13.007984
 20
0.735493
 30
0.0
 11
12.961122
 21
0.749622
 31
0.0
  0
LINE
  5
7ED
330
1F
100
AcDbEntity
  8
1
  6
CONTINUOUS
370
50
 62
4
100
AcDbLine
 10
8.429223
 20
0.969695
 30
0.0
 11
8.164605
 21
1.048852
 31
0.0
  0
LINE
  5
7EE
330
1F
100
AcDbEntity
  8
1
  6
CONTINUOUS
370
50
 62
4
100
AcDbLine
 10
13.844794
 20
-0.680725
 30
0.0
 11
13.628737
 21
-0.616387
 31
0.0
  0
LINE
  5
7EF
330
1F
100
AcDbEntity
  8
1
  6
CONTINUOUS
370
50
 62
4
100
AcDbLine
 10
13.05485
 20
0.7215779999999999
 30
0.0
 11
13.007984
 21
0.735493
 31
0.0
  0
LINE
  5
7F0
330
1F
100
AcDbEntity
  8
1
  6
CONTINUOUS
370
50
 62
4
100
AcDbLine
 10
10.555362
 20
0.621746
 30
0.0
 11
10.490967
 21
0.640821
 31
0.0
  0
LINE
  5
7F1
330
1F
100
AcDbEntity
  8
1
  6
CONTINUOUS
370
50
 62
4
100
AcDbLine
 10
13.882202
 20
-0.691932
 30
0.0
 11
13.863493
 21
-0.686408
 31
0.0
  0
LINE
  5
7F2
330
1F
100
AcDbEntity
  8
1
  6
CONTINUOUS
370
50
 62
4
100
AcDbLine
 10
8.128434
 20
-0.646652
 30
0.0
 11
8.052289
 21
-0.624189
 31
0.0
  0
LINE
  5
7F3
330
1F
100
AcDbEntity
  8
1
  6
CONTINUOUS
370
50
 62
4
100
AcDbLine
 10
8.130764
 20
-0.6447849999999999
 30
0.0
 11
8.053993
 21
-0.62225
 31
0.0
  0
LINE
  5
7F4
330
1F
100
AcDbEntity
  8
1
  6
CONTINUOUS
370
50
 62
4
100
AcDbLine
 10
13.107998
 20
0.706054
 30
0.0
 11
13.05485
 21
0.7215779999999999
 31
0.0
  0
LINE
  5
7F5
330
1F
100
AcDbEntity
  8
1
  6
CONTINUOUS
370
50
 62
4
100
AcDbLine
 10
11.323851
 20
1.374158
 30
0.0
 11
11.171339
 21
1.418687
 31
0.0
  0
LINE
  5
7F6
330
1F
100
AcDbEntity
  8
1
  6
CONTINUOUS
370
50
 62
4
100
AcDbLine
 10
15.382235
 20
-1.437602
 30
0.0
 11
15.254977
 21
-1.400545
 31
0.0
  0
LINE
  5
7F7
330
1F
100
AcDbEntity
  8
1
  6
CONTINUOUS
370
50
 62
4
100
AcDbLine
 10
10.754518
 20
-0.6016509999999999
 30
0.0
 11
10.691309
 21
-0.58331
 31
0.0
  0
LINE
  5
7F8
330
1F
100
AcDbEntity
  8
1
  6
CONTINUOUS
370
50
 62
4
100
AcDbLine
 10
10.427105
 20
0.659134
 30
0.0
 11
10.3751
 21
0.6741229999999999
 31
0.0
  0
LINE
  5
7F9
330
1F
100
AcDbEntity
  8
1
  6
CONTINUOUS
370
50
 62
4
100
AcDbLine
 10
13.363402
 20
0.6335069999999999
 30
0.0
 11
13.26706
 21
0.661211
 31
0.0
  0
LINE
  5
7FA
330
1F
100
AcDbEntity
  8
1
  6
CONTINUOUS
370
50
 62
4
100
AcDbLine
 10
13.16115
 20
0.6908
 30
0.0
 11
13.107998
 21
0.706054
 31
0.0
  0
LINE
  5
7FB
330
1F
100
AcDbEntity
  8
1
  6
CONTINUOUS
370
50
 62
4
100
AcDbLine
 10
13.900928
 20
-0.697303
 30
0.0
 11
13.882202
 21
-0.691932
 31
0.0
  0
LINE
  5
7FC
330
1F
100
AcDbEntity
  8
1
  6
CONTINUOUS
370
50
 62
4
100
AcDbLine
 10
10.490967
 20
0.640821
 30
0.0
 11
10.427105
 21
0.659137
 31
0.0
  0
LINE
  5
7FD
330
1F
100
AcDbEntity
  8
1
  6
CONTINUOUS
370
50
 62
4
100
AcDbLine
 10
10.876451
 20
-0.635566
 30
0.0
 11
10.817862
 21
-0.618827
 31
0.0
  0
LINE
  5
7FE
330
1F
100
AcDbEntity
  8
1
  6
CONTINUOUS
370
50
 62
4
100
AcDbLine
 10
8.161337
 20
1.395213
 30
0.0
 11
8.031397
 21
1.432034
 31
0.0
  0
LINE
  5
7FF
330
1F
100
AcDbEntity
  8
1
  6
CONTINUOUS
370
50
 62
4
100
AcDbLine
 10
8.207271
 20
-0.666453
 30
0.0
 11
8.130764
 21
-0.6447849999999999
 31
0.0
  0
LINE
  5
800
330
1F
100
AcDbEntity
  8
1
  6
CONTINUOUS
370
50
 62
4
100
AcDbLine
 10
8.204574
 20
-0.668199
 30
0.0
 11
8.128434
 21
-0.646652
 31
0.0
  0
LINE
  5
801
330
1F
100
AcDbEntity
  8
1
  6
CONTINUOUS
370
50
 62
4
100
AcDbLine
 10
10.875465
 20
-0.635075
 30
0.0
 11
10.817861
 21
-0.618787
 31
0.0
  0
LINE
  5
802
330
1F
100
AcDbEntity
  8
1
  6
CONTINUOUS
370
50
 62
4
100
AcDbLine
 10
13.214166
 20
0.675858
 30
0.0
 11
13.16115
 21
0.6908
 31
0.0
  0
LINE
  5
803
330
1F
100
AcDbEntity
  8
1
  6
CONTINUOUS
370
50
 62
4
100
AcDbLine
 10
8.393735999999999
 20
1.408382
 30
0.0
 11
8.275091999999999
 21
1.441639
 31
0.0
  0
LINE
  5
804
330
1F
100
AcDbEntity
  8
1
  6
CONTINUOUS
370
50
 62
4
100
AcDbLine
 10
15.685589
 20
-1.444903
 30
0.0
 11
15.514538
 21
-1.397242
 31
0.0
  0
LINE
  5
805
330
1F
100
AcDbEntity
  8
1
  6
CONTINUOUS
370
50
 62
4
100
AcDbLine
 10
13.919679
 20
-0.702522
 30
0.0
 11
13.900928
 21
-0.697303
 31
0.0
  0
LINE
  5
806
330
1F
100
AcDbEntity
  8
1
  6
CONTINUOUS
370
50
 62
4
100
AcDbLine
 10
13.267074
 20
0.661221
 30
0.0
 11
13.214166
 21
0.675858
 31
0.0
  0
LINE
  5
807
330
1F
100
AcDbEntity
  8
1
  6
CONTINUOUS
370
50
 62
4
100
AcDbLine
 10
7.590074
 20
-1.480763
 30
0.0
 11
7.530981
 21
-1.464558
 31
0.0
  0
LINE
  5
808
330
1F
100
AcDbEntity
  8
1
  6
CONTINUOUS
370
50
 62
4
100
AcDbLine
 10
10.935048
 20
-0.651629
 30
0.0
 11
10.876451
 21
-0.635566
 31
0.0
  0
LINE
  5
809
330
1F
100
AcDbEntity
  8
1
  6
CONTINUOUS
370
50
 62
4
100
AcDbLine
 10
5.5
 20
1.49995
 30
0.0
 11
0.0
 21
2.99995
 31
0.0
  0
LINE
  5
80A
330
1F
100
AcDbEntity
  8
1
  6
CONTINUOUS
370
50
 62
4
100
AcDbLine
 10
8.283358999999999
 20
-0.687178
 30
0.0
 11
8.207271
 21
-0.666453
 31
0.0
  0
LINE
  5
80B
330
1F
100
AcDbEntity
  8
1
  6
CONTINUOUS
370
50
 62
4
100
AcDbLine
 10
10.933345
 20
-0.6507499999999999
 30
0.0
 11
10.875465
 21
-0.635075
 31
0.0
  0
LINE
  5
80C
330
1F
100
AcDbEntity
  8
1
  6
CONTINUOUS
370
50
 62
4
100
AcDbLine
 10
10.817861
 20
-0.618787
 30
0.0
 11
10.754518
 21
-0.6016509999999999
 31
0.0
  0
LINE
  5
80D
330
1F
100
AcDbEntity
  8
1
  6
CONTINUOUS
370
50
 62
4
100
AcDbLine
 10
8.280702999999999
 20
-0.688742
 30
0.0
 11
8.204574
 21
-0.668199
 31
0.0
  0
LINE
  5
80E
330
1F
100
AcDbEntity
  8
1
  6
CONTINUOUS
370
50
 62
4
100
AcDbLine
 10
13.938463
 20
-0.7075899999999999
 30
0.0
 11
13.919679
 21
-0.702522
 31
0.0
  0
LINE
  5
80F
330
1F
100
AcDbEntity
  8
1
  6
CONTINUOUS
370
50
 62
4
100
AcDbLine
 10
13.988507
 20
1.408562
 30
0.0
 11
13.859442
 21
1.442735
 31
0.0
  0
LINE
  5
810
330
1F
100
AcDbEntity
  8
1
  6
CONTINUOUS
370
50
 62
4
100
AcDbLine
 10
10.993652
 20
-0.667033
 30
0.0
 11
10.935048
 21
-0.651629
 31
0.0
  0
LINE
  5
811
330
1F
100
AcDbEntity
  8
1
  6
CONTINUOUS
370
50
 62
4
100
AcDbLine
 10
9.805424
 20
-1.443324
 30
0.0
 11
9.640991
 21
-1.400182
 31
0.0
  0
LINE
  5
812
330
1F
100
AcDbEntity
  8
1
  6
CONTINUOUS
370
50
 62
4
100
AcDbLine
 10
8.355596
 20
-0.706109
 30
0.0
 11
8.283358999999999
 21
-0.687178
 31
0.0
  0
LINE
  5
813
330
1F
100
AcDbEntity
  8
1
  6
CONTINUOUS
370
50
 62
4
100
AcDbLine
 10
13.957289
 20
-0.7125079999999999
 30
0.0
 11
13.938463
 21
-0.7075899999999999
 31
0.0
  0
LINE
  5
814
330
1F
100
AcDbEntity
  8
1
  6
CONTINUOUS
370
50
 62
4
100
AcDbLine
 10
13.917127
 20
1.004522
 30
0.0
 11
13.675175
 21
1.06747
 31
0.0
  0
LINE
  5
815
330
1F
100
AcDbEntity
  8
1
  6
CONTINUOUS
370
50
 62
4
100
AcDbLine
 10
10.991437
 20
-0.6658029999999999
 30
0.0
 11
10.933345
 21
-0.6507499999999999
 31
0.0
  0
LINE
  5
816
330
1F
100
AcDbEntity
  8
1
  6
CONTINUOUS
370
50
 62
4
100
AcDbLine
 10
13.677073
 20
1.418548
 30
0.0
 11
13.533998
 21
1.455461
 31
0.0
  0
LINE
  5
817
330
1F
100
AcDbEntity
  8
1
  6
CONTINUOUS
370
50
 62
4
100
AcDbLine
 10
8.356812999999999
 20
-0.708194
 30
0.0
 11
8.280702999999999
 21
-0.688742
 31
0.0
  0
LINE
  5
818
330
1F
100
AcDbEntity
  8
1
  6
CONTINUOUS
370
50
 62
4
100
AcDbLine
 10
11.052265
 20
-0.681794
 30
0.0
 11
10.993652
 21
-0.667033
 31
0.0
  0
LINE
  5
819
330
1F
100
AcDbEntity
  8
1
  6
CONTINUOUS
370
50
 62
4
100
AcDbLine
 10
11.04968
 20
-0.680225
 30
0.0
 11
10.991437
 21
-0.6658029999999999
 31
0.0
  0
LINE
  5
81A
330
1F
100
AcDbEntity
  8
1
  6
CONTINUOUS
370
50
 62
4
100
AcDbLine
 10
11.154177
 20
0.9985229999999999
 30
0.0
 11
10.90937
 21
1.05849
 31
0.0
  0
LINE
  5
81B
330
1F
100
AcDbEntity
  8
1
  6
CONTINUOUS
370
50
 62
4
100
AcDbLine
 10
10.903538
 20
1.408433
 30
0.0
 11
10.744139
 21
1.447299
 31
0.0
  0
LINE
  5
81C
330
1F
100
AcDbEntity
  8
1
  6
CONTINUOUS
370
50
 62
4
100
AcDbLine
 10
10.204688
 20
-1.469257
 30
0.0
 11
9.963766
 21
-1.410541
 31
0.0
  0
LINE
  5
81D
330
1F
100
AcDbEntity
  8
1
  6
CONTINUOUS
370
50
 62
4
100
AcDbLine
 10
11.110886
 20
-0.695915
 30
0.0
 11
11.052265
 21
-0.681794
 31
0.0
  0
LINE
  5
81E
330
1F
100
AcDbEntity
  8
1
  6
CONTINUOUS
370
50
 62
4
100
AcDbLine
 10
12.962457
 20
-1.457306
 30
0.0
 11
12.724983
 21
-1.400891
 31
0.0
  0
LINE
  5
81F
330
1F
100
AcDbEntity
  8
1
  6
CONTINUOUS
370
50
 62
4
100
AcDbLine
 10
11.108009
 20
-0.694005
 30
0.0
 11
11.04968
 21
-0.680225
 31
0.0
  0
LINE
  5
820
330
1F
100
AcDbEntity
  8
1
  6
CONTINUOUS
370
50
 62
4
100
AcDbLine
 10
11.169514
 20
-0.7093849999999999
 30
0.0
 11
11.110886
 21
-0.695915
 31
0.0
  0
LINE
  5
821
330
1F
100
AcDbEntity
  8
1
  6
CONTINUOUS
370
50
 62
4
100
AcDbLine
 10
11.171339
 20
1.418687
 30
0.0
 11
11.018433
 21
1.453494
 31
0.0
  0
LINE
  5
822
330
1F
100
AcDbEntity
  8
1
  6
CONTINUOUS
370
50
 62
4
100
AcDbLine
 10
15.507893
 20
-1.466009
 30
0.0
 11
15.382235
 21
-1.437602
 31
0.0
  0
LINE
  5
823
330
1F
100
AcDbEntity
  8
1
  6
CONTINUOUS
370
50
 62
4
100
AcDbLine
 10
11.166364
 20
-0.707136
 30
0.0
 11
11.108009
 21
-0.694005
 31
0.0
  0
LINE
  5
824
330
1F
100
AcDbEntity
  8
1
  6
CONTINUOUS
370
50
 62
4
100
AcDbLine
 10
8.031397
 20
1.432034
 30
0.0
 11
7.899999999999999
 21
1.460643
 31
0.0
  0
LINE
  5
825
330
1F
100
AcDbEntity
  8
1
  6
CONTINUOUS
370
50
 62
4
100
AcDbLine
 10
8.275091999999999
 20
1.441639
 30
0.0
 11
8.151698
 21
1.467776
 31
0.0
  0
LINE
  5
826
330
1F
100
AcDbEntity
  8
1
  6
CONTINUOUS
370
50
 62
4
100
AcDbLine
 10
13.859442
 20
1.442735
 30
0.0
 11
13.732219
 21
1.469486
 31
0.0
  0
LINE
  5
827
330
1F
100
AcDbEntity
  8
1
  6
CONTINUOUS
370
50
 62
4
100
AcDbLine
 10
9.967207
 20
-1.474964
 30
0.0
 11
9.805424
 21
-1.443324
 31
0.0
  0
LINE
  5
828
330
1F
100
AcDbEntity
  8
1
  6
CONTINUOUS
370
50
 62
4
100
AcDbLine
 10
8.164605
 20
1.048852
 30
0.0
 11
7.899999999999999
 21
1.099345
 31
0.0
  0
LINE
  5
829
330
1F
100
AcDbEntity
  8
1
  6
CONTINUOUS
370
50
 62
4
100
AcDbLine
 10
10.744139
 20
1.447299
 30
0.0
 11
10.584581
 21
1.476019
 31
0.0
  0
LINE
  5
82A
330
1F
100
AcDbEntity
  8
1
  6
CONTINUOUS
370
50
 62
4
100
AcDbLine
 10
15.890064
 20
-1.481512
 30
0.0
 11
15.685589
 21
-1.444903
 31
0.0
  0
LINE
  5
82B
330
1F
100
AcDbEntity
  8
1
  6
CONTINUOUS
370
50
 62
4
100
AcDbLine
 10
12.822727
 20
-1.483009
 30
0.0
 11
12.541757
 21
-1.432809
 31
0.0
  0
LINE
  5
82C
330
1F
100
AcDbEntity
  8
1
  6
CONTINUOUS
370
50
 62
4
100
AcDbLine
 10
7.652436
 20
-1.491781
 30
0.0
 11
7.590074
 21
-1.480763
 31
0.0
  0
LINE
  5
82D
330
1F
100
AcDbEntity
  8
1
  6
CONTINUOUS
370
50
 62
4
100
AcDbLine
 10
13.675175
 20
1.06747
 30
0.0
 11
13.433242
 21
1.109561
 31
0.0
  0
LINE
  5
82E
330
1F
100
AcDbEntity
  8
1
  6
CONTINUOUS
370
50
 62
4
100
AcDbLine
 10
10.90937
 20
1.05849
 30
0.0
 11
10.664551
 21
1.10094
 31
0.0
  0
LINE
  5
82F
330
1F
100
AcDbEntity
  8
1
  6
CONTINUOUS
370
50
 62
4
100
AcDbLine
 10
11.018433
 20
1.453494
 30
0.0
 11
10.865752
 21
1.478705
 31
0.0
  0
LINE
  5
830
330
1F
100
AcDbEntity
  8
1
  6
CONTINUOUS
370
50
 62
4
100
AcDbLine
 10
13.533998
 20
1.455461
 30
0.0
 11
13.339803
 21
1.487108
 31
0.0
  0
LINE
  5
831
330
1F
100
AcDbEntity
  8
1
  6
CONTINUOUS
370
50
 62
4
100
AcDbLine
 10
15.639146
 20
-1.486149
 30
0.0
 11
15.507893
 21
-1.466009
 31
0.0
  0
LINE
  5
832
330
1F
100
AcDbEntity
  8
1
  6
CONTINUOUS
370
50
 62
4
100
AcDbLine
 10
8.151698
 20
1.467776
 30
0.0
 11
8.026537
 21
1.486012
 31
0.0
  0
LINE
  5
833
330
1F
100
AcDbEntity
  8
1
  6
CONTINUOUS
370
50
 62
4
100
AcDbLine
 10
13.732219
 20
1.469486
 30
0.0
 11
13.589315
 21
1.490077
 31
0.0
  0
LINE
  5
834
330
1F
100
AcDbEntity
  8
1
  6
CONTINUOUS
370
50
 62
4
100
AcDbLine
 10
13.195865
 20
-1.49049
 30
0.0
 11
12.962457
 21
-1.457306
 31
0.0
  0
LINE
  5
835
330
1F
100
AcDbEntity
  8
1
  6
CONTINUOUS
370
50
 62
4
100
AcDbLine
 10
10.3811
 20
-1.492687
 30
0.0
 11
10.204688
 21
-1.469257
 31
0.0
  0
LINE
  5
836
330
1F
100
AcDbEntity
  8
1
  6
CONTINUOUS
370
50
 62
4
100
AcDbLine
 10
10.121508
 20
-1.493967
 30
0.0
 11
9.967207
 21
-1.474964
 31
0.0
  0
LINE
  5
837
330
1F
100
AcDbEntity
  8
1
  6
CONTINUOUS
370
50
 62
4
100
AcDbLine
 10
10.584581
 20
1.476019
 30
0.0
 11
10.426143
 21
1.493846
 31
0.0
  0
LINE
  5
838
330
1F
100
AcDbEntity
  8
1
  6
CONTINUOUS
370
50
 62
4
100
AcDbLine
 10
10.865752
 20
1.478705
 30
0.0
 11
10.713011
 21
1.494329
 31
0.0
  0
LINE
  5
839
330
1F
100
AcDbEntity
  8
1
  6
CONTINUOUS
370
50
 62
4
100
AcDbLine
 10
10.664551
 20
1.10094
 30
0.0
 11
10.419724
 21
1.124838
 31
0.0
  0
LINE
  5
83A
330
1F
100
AcDbEntity
  8
1
  6
CONTINUOUS
370
50
 62
4
100
AcDbLine
 10
7.718204999999999
 20
-1.498026
 30
0.0
 11
7.652436
 21
-1.491781
 31
0.0
  0
LINE
  5
83B
330
1F
100
AcDbEntity
  8
1
  6
CONTINUOUS
370
50
 62
4
100
AcDbLine
 10
8.026537
 20
1.486012
 30
0.0
 11
7.899999999999999
 21
1.496618
 31
0.0
  0
LINE
  5
83C
330
1F
100
AcDbEntity
  8
1
  6
CONTINUOUS
370
50
 62
4
100
AcDbLine
 10
15.773176
 20
-1.497345
 30
0.0
 11
15.639146
 21
-1.486149
 31
0.0
  0
LINE
  5
83D
330
1F
100
AcDbEntity
  8
1
  6
CONTINUOUS
370
50
 62
4
100
AcDbLine
 10
7.899999999999999
 20
1.495289
 30
0.0
 11
7.893802
 21
1.495781
 31
0.0
  0
LINE
  5
83E
330
1F
100
AcDbEntity
  8
1
  6
CONTINUOUS
370
50
 62
4
100
AcDbLine
 10
7.893802
 20
1.495781
 30
0.0
 11
7.887578
 21
1.496258
 31
0.0
  0
LINE
  5
83F
330
1F
100
AcDbEntity
  8
1
  6
CONTINUOUS
370
50
 62
4
100
AcDbLine
 10
13.433242
 20
1.109561
 30
0.0
 11
13.191321
 21
1.127923
 31
0.0
  0
LINE
  5
840
330
1F
100
AcDbEntity
  8
1
  6
CONTINUOUS
370
50
 62
4
100
AcDbLine
 10
7.887578
 20
1.496258
 30
0.0
 11
7.881392
 21
1.496718
 31
0.0
  0
LINE
  5
841
330
1F
100
AcDbEntity
  8
1
  6
CONTINUOUS
370
50
 62
4
100
AcDbLine
 10
7.881392
 20
1.496718
 30
0.0
 11
7.875306999999999
 21
1.497156
 31
0.0
  0
LINE
  5
842
330
1F
100
AcDbEntity
  8
1
  6
CONTINUOUS
370
50
 62
4
100
AcDbLine
 10
7.875306999999999
 20
1.497156
 30
0.0
 11
7.869388
 21
1.497569
 31
0.0
  0
LINE
  5
843
330
1F
100
AcDbEntity
  8
1
  6
CONTINUOUS
370
50
 62
4
100
AcDbLine
 10
7.869388
 20
1.497569
 30
0.0
 11
7.863697999999999
 21
1.497952
 31
0.0
  0
LINE
  5
844
330
1F
100
AcDbEntity
  8
1
  6
CONTINUOUS
370
50
 62
4
100
AcDbLine
 10
7.863697999999999
 20
1.497952
 30
0.0
 11
7.858301
 21
1.498301
 31
0.0
  0
LINE
  5
845
330
1F
100
AcDbEntity
  8
1
  6
CONTINUOUS
370
50
 62
4
100
AcDbLine
 10
13.0958
 20
-1.499955
 30
0.0
 11
12.822727
 21
-1.483009
 31
0.0
  0
LINE
  5
846
330
1F
100
AcDbEntity
  8
1
  6
CONTINUOUS
370
50
 62
4
100
AcDbLine
 10
13.589315
 20
1.490077
 30
0.0
 11
13.411463
 21
1.49995
 31
0.0
  0
LINE
  5
847
330
1F
100
AcDbEntity
  8
1
  6
CONTINUOUS
370
50
 62
4
100
AcDbLine
 10
13.339803
 20
1.487108
 30
0.0
 11
13.0958
 21
1.499955
 31
0.0
  0
LINE
  5
848
330
1F
100
AcDbEntity
  8
1
  6
CONTINUOUS
370
50
 62
4
100
AcDbLine
 10
13.411463
 20
-1.49995
 30
0.0
 11
13.195865
 21
-1.49049
 31
0.0
  0
LINE
  5
849
330
1F
100
AcDbEntity
  8
1
  6
CONTINUOUS
370
50
 62
4
100
AcDbLine
 10
7.858301
 20
1.498301
 30
0.0
 11
7.846266999999999
 21
1.498804
 31
0.0
  0
LINE
  5
84A
330
1F
100
AcDbEntity
  8
1
  6
CONTINUOUS
370
50
 62
4
100
AcDbLine
 10
10.426143
 20
1.493846
 30
0.0
 11
10.273766
 21
1.500077
 31
0.0
  0
LINE
  5
84B
330
1F
100
AcDbEntity
  8
1
  6
CONTINUOUS
370
50
 62
4
100
AcDbLine
 10
10.561277
 20
-1.499928
 30
0.0
 11
10.3811
 21
-1.492687
 31
0.0
  0
LINE
  5
84C
330
1F
100
AcDbEntity
  8
1
  6
CONTINUOUS
370
50
 62
4
100
AcDbLine
 10
10.273766
 20
-1.500077
 30
0.0
 11
10.121508
 21
-1.493967
 31
0.0
  0
LINE
  5
84D
330
1F
100
AcDbEntity
  8
1
  6
CONTINUOUS
370
50
 62
4
100
AcDbLine
 10
10.713011
 20
1.494329
 30
0.0
 11
10.561277
 21
1.499928
 31
0.0
  0
LINE
  5
84E
330
1F
100
AcDbEntity
  8
1
  6
CONTINUOUS
370
50
 62
4
100
AcDbLine
 10
7.846266999999999
 20
1.498804
 30
0.0
 11
7.834352999999999
 21
1.49922
 31
0.0
  0
LINE
  5
84F
330
1F
100
AcDbEntity
  8
1
  6
CONTINUOUS
370
50
 62
4
100
AcDbLine
 10
7.78785
 20
-1.499983
 30
0.0
 11
7.718204999999999
 21
-1.498026
 31
0.0
  0
LINE
  5
850
330
1F
100
AcDbEntity
  8
1
  6
CONTINUOUS
370
50
 62
4
100
AcDbLine
 10
7.834352999999999
 20
1.49922
 30
0.0
 11
7.822556
 21
1.499548
 31
0.0
  0
LINE
  5
851
330
1F
100
AcDbEntity
  8
1
  6
CONTINUOUS
370
50
 62
4
100
AcDbLine
 10
7.822556
 20
1.499548
 30
0.0
 11
7.810874999999999
 21
1.499786
 31
0.0
  0
LINE
  5
852
330
1F
100
AcDbEntity
  8
1
  6
CONTINUOUS
370
50
 62
4
100
AcDbLine
 10
7.810874999999999
 20
1.499786
 30
0.0
 11
7.799307
 21
1.499932
 31
0.0
  0
LINE
  5
853
330
1F
100
AcDbEntity
  8
1
  6
CONTINUOUS
370
50
 62
4
100
AcDbLine
 10
10.419724
 20
1.124838
 30
0.0
 11
10.174905
 21
1.127259
 31
0.0
  0
LINE
  5
854
330
1F
100
AcDbEntity
  8
1
  6
CONTINUOUS
370
50
 62
4
100
AcDbLine
 10
7.799307
 20
1.499932
 30
0.0
 11
7.78785
 21
1.499983
 31
0.0
  0
LINE
  5
855
330
1F
100
AcDbEntity
  8
1
  6
CONTINUOUS
370
50
 62
4
100
AcDbLine
 10
13.395122
 20
-1.499969
 30
0.0
 11
13.103747
 21
-1.499965
 31
0.0
  0
LINE
  5
856
330
1F
100
AcDbEntity
  8
1
  6
CONTINUOUS
370
50
 62
4
100
AcDbLine
 10
10.55503
 20
-1.499933
 30
0.0
 11
10.271394
 21
-1.49993
 31
0.0
  0
LINE
  5
857
330
1F
100
AcDbEntity
  8
1
  6
CONTINUOUS
370
50
 62
4
100
AcDbLine
 10
15.896138
 20
-1.5
 30
0.0
 11
15.9
 21
-1.5
 31
0.0
  0
LINE
  5
858
330
1F
100
AcDbEntity
  8
1
  6
CONTINUOUS
370
50
 62
4
100
AcDbLine
 10
5.5
 20
-1.49995
 30
0.0
 11
7.788357
 21
-1.49995
 31
0.0
  0
LINE
  5
859
330
1F
100
AcDbEntity
  8
1
  6
CONTINUOUS
370
50
 62
4
100
AcDbLine
 10
5.5
 20
1.49995
 30
0.0
 11
7.788357
 21
1.49995
 31
0.0
  0
LINE
  5
85A
330
1F
100
AcDbEntity
  8
1
  6
CONTINUOUS
370
50
 62
4
100
AcDbLine
 10
10.271394
 20
1.49993
 30
0.0
 11
10.55503
 21
1.499933
 31
0.0
  0
LINE
  5
85B
330
1F
100
AcDbEntity
  8
1
  6
CONTINUOUS
370
50
 62
4
100
AcDbLine
 10
13.103747
 20
1.499965
 30
0.0
 11
13.395122
 21
1.499969
 31
0.0
  0
LINE
  5
85C
330
1F
100
AcDbEntity
  8
1
  6
CONTINUOUS
370
50
 62
4
100
AcDbLine
 10
7.78785
 20
-1.499983
 30
0.0
 11
7.799307
 21
-1.499932
 31
0.0
  0
LINE
  5
85D
330
1F
100
AcDbEntity
  8
1
  6
CONTINUOUS
370
50
 62
4
100
AcDbLine
 10
7.829479
 20
1.457574
 30
0.0
 11
7.899999999999999
 21
1.457898
 31
0.0
  0
LINE
  5
85E
330
1F
100
AcDbEntity
  8
1
  6
CONTINUOUS
370
50
 62
4
100
AcDbLine
 10
7.758957
 20
1.45724
 30
0.0
 11
7.829479
 21
1.457574
 31
0.0
  0
LINE
  5
85F
330
1F
100
AcDbEntity
  8
1
  6
CONTINUOUS
370
50
 62
4
100
AcDbLine
 10
7.688435999999999
 20
1.456895
 30
0.0
 11
7.758957
 21
1.45724
 31
0.0
  0
LINE
  5
860
330
1F
100
AcDbEntity
  8
1
  6
CONTINUOUS
370
50
 62
4
100
AcDbLine
 10
7.617914
 20
1.456539
 30
0.0
 11
7.688435999999999
 21
1.456895
 31
0.0
  0
LINE
  5
861
330
1F
100
AcDbEntity
  8
1
  6
CONTINUOUS
370
50
 62
4
100
AcDbLine
 10
7.547393
 20
1.456172
 30
0.0
 11
7.617914
 21
1.456539
 31
0.0
  0
LINE
  5
862
330
1F
100
AcDbEntity
  8
1
  6
CONTINUOUS
370
50
 62
4
100
AcDbLine
 10
7.476875
 20
1.455794
 30
0.0
 11
7.547393
 21
1.456172
 31
0.0
  0
LINE
  5
863
330
1F
100
AcDbEntity
  8
1
  6
CONTINUOUS
370
50
 62
4
100
AcDbLine
 10
7.406359999999999
 20
1.455406
 30
0.0
 11
7.476875
 21
1.455794
 31
0.0
  0
LINE
  5
864
330
1F
100
AcDbEntity
  8
1
  6
CONTINUOUS
370
50
 62
4
100
AcDbLine
 10
12.949398
 20
1.125731
 30
0.0
 11
13.191321
 21
1.127923
 31
0.0
  0
LINE
  5
865
330
1F
100
AcDbEntity
  8
1
  6
CONTINUOUS
370
50
 62
4
100
AcDbLine
 10
7.381328
 20
1.455166
 30
0.0
 11
7.406359999999999
 21
1.455406
 31
0.0
  0
LINE
  5
866
330
1F
100
AcDbEntity
  8
1
  6
CONTINUOUS
370
50
 62
4
100
AcDbLine
 10
7.799307
 20
-1.499932
 30
0.0
 11
7.810874999999999
 21
-1.499786
 31
0.0
  0
LINE
  5
867
330
1F
100
AcDbEntity
  8
1
  6
CONTINUOUS
370
50
 62
4
100
AcDbLine
 10
7.356318
 20
1.454722
 30
0.0
 11
7.381328
 21
1.455166
 31
0.0
  0
LINE
  5
868
330
1F
100
AcDbEntity
  8
1
  6
CONTINUOUS
370
50
 62
4
100
AcDbLine
 10
7.829479
 20
-0.354015
 30
0.0
 11
7.899999999999999
 21
-0.352679
 31
0.0
  0
LINE
  5
869
330
1F
100
AcDbEntity
  8
1
  6
CONTINUOUS
370
50
 62
4
100
AcDbLine
 10
7.758957
 20
-0.355389
 30
0.0
 11
7.829479
 21
-0.354015
 31
0.0
  0
LINE
  5
86A
330
1F
100
AcDbEntity
  8
1
  6
CONTINUOUS
370
50
 62
4
100
AcDbLine
 10
7.688435999999999
 20
-0.356802
 30
0.0
 11
7.758957
 21
-0.355389
 31
0.0
  0
LINE
  5
86B
330
1F
100
AcDbEntity
  8
1
  6
CONTINUOUS
370
50
 62
4
100
AcDbLine
 10
7.810874999999999
 20
-1.499786
 30
0.0
 11
7.822556
 21
-1.499548
 31
0.0
  0
LINE
  5
86C
330
1F
100
AcDbEntity
  8
1
  6
CONTINUOUS
370
50
 62
4
100
AcDbLine
 10
7.617914
 20
-0.358252
 30
0.0
 11
7.688435999999999
 21
-0.356802
 31
0.0
  0
LINE
  5
86D
330
1F
100
AcDbEntity
  8
1
  6
CONTINUOUS
370
50
 62
4
100
AcDbLine
 10
7.547393
 20
-0.35974
 30
0.0
 11
7.617914
 21
-0.358252
 31
0.0
  0
LINE
  5
86E
330
1F
100
AcDbEntity
  8
1
  6
CONTINUOUS
370
50
 62
4
100
AcDbLine
 10
7.476875
 20
-0.361265
 30
0.0
 11
7.547393
 21
-0.35974
 31
0.0
  0
LINE
  5
86F
330
1F
100
AcDbEntity
  8
1
  6
CONTINUOUS
370
50
 62
4
100
AcDbLine
 10
7.406359999999999
 20
-0.362827
 30
0.0
 11
7.476875
 21
-0.361265
 31
0.0
  0
LINE
  5
870
330
1F
100
AcDbEntity
  8
1
  6
CONTINUOUS
370
50
 62
4
100
AcDbLine
 10
7.331373999999999
 20
1.454068
 30
0.0
 11
7.356318
 21
1.454722
 31
0.0
  0
LINE
  5
871
330
1F
100
AcDbEntity
  8
1
  6
CONTINUOUS
370
50
 62
4
100
AcDbLine
 10
7.822556
 20
-1.499548
 30
0.0
 11
7.834352999999999
 21
-1.49922
 31
0.0
  0
LINE
  5
872
330
1F
100
AcDbEntity
  8
1
  6
CONTINUOUS
370
50
 62
4
100
AcDbLine
 10
7.834352999999999
 20
-1.49922
 30
0.0
 11
7.846266999999999
 21
-1.498804
 31
0.0
  0
LINE
  5
873
330
1F
100
AcDbEntity
  8
1
  6
CONTINUOUS
370
50
 62
4
100
AcDbLine
 10
7.30654
 20
1.453198
 30
0.0
 11
7.331373999999999
 21
1.454068
 31
0.0
  0
LINE
  5
874
330
1F
100
AcDbEntity
  8
1
  6
CONTINUOUS
370
50
 62
4
100
AcDbLine
 10
10.561277
 20
-1.499928
 30
0.0
 11
10.713011
 21
-1.494329
 31
0.0
  0
LINE
  5
875
330
1F
100
AcDbEntity
  8
1
  6
CONTINUOUS
370
50
 62
4
100
AcDbLine
 10
7.382746
 20
-0.363719
 30
0.0
 11
7.406359999999999
 21
-0.362827
 31
0.0
  0
LINE
  5
876
330
1F
100
AcDbEntity
  8
1
  6
CONTINUOUS
370
50
 62
4
100
AcDbLine
 10
7.846266999999999
 20
-1.498804
 30
0.0
 11
7.858301
 21
-1.498301
 31
0.0
  0
LINE
  5
877
330
1F
100
AcDbEntity
  8
1
  6
CONTINUOUS
370
50
 62
4
100
AcDbLine
 10
10.111748
 20
1.493133
 30
0.0
 11
10.273766
 21
1.500077
 31
0.0
  0
LINE
  5
878
330
1F
100
AcDbEntity
  8
1
  6
CONTINUOUS
370
50
 62
4
100
AcDbLine
 10
7.281863
 20
1.452105
 30
0.0
 11
7.30654
 21
1.453198
 31
0.0
  0
LINE
  5
879
330
1F
100
AcDbEntity
  8
1
  6
CONTINUOUS
370
50
 62
4
100
AcDbLine
 10
12.892043
 20
1.490296
 30
0.0
 11
13.0958
 21
1.499955
 31
0.0
  0
LINE
  5
87A
330
1F
100
AcDbEntity
  8
1
  6
CONTINUOUS
370
50
 62
4
100
AcDbLine
 10
7.257384999999999
 20
1.450784
 30
0.0
 11
7.281863
 21
1.452105
 31
0.0
  0
LINE
  5
87B
330
1F
100
AcDbEntity
  8
1
  6
CONTINUOUS
370
50
 62
4
100
AcDbLine
 10
13.411463
 20
-1.49995
 30
0.0
 11
13.589315
 21
-1.490077
 31
0.0
  0
LINE
  5
87C
330
1F
100
AcDbEntity
  8
1
  6
CONTINUOUS
370
50
 62
4
100
AcDbLine
 10
7.23313
 20
1.449226
 30
0.0
 11
7.257384999999999
 21
1.450784
 31
0.0
  0
LINE
  5
87D
330
1F
100
AcDbEntity
  8
1
  6
CONTINUOUS
370
50
 62
4
100
AcDbLine
 10
7.858301
 20
-1.498301
 30
0.0
 11
7.863697999999999
 21
-1.497952
 31
0.0
  0
LINE
  5
87E
330
1F
100
AcDbEntity
  8
1
  6
CONTINUOUS
370
50
 62
4
100
AcDbLine
 10
15.315792
 20
-0.038587
 30
0.0
 11
15.896462
 21
-0.000234
 31
0.0
  0
LINE
  5
87F
330
1F
100
AcDbEntity
  8
1
  6
CONTINUOUS
370
50
 62
4
100
AcDbLine
 10
7.863697999999999
 20
-1.497952
 30
0.0
 11
7.869388
 21
-1.497569
 31
0.0
  0
LINE
  5
880
330
1F
100
AcDbEntity
  8
1
  6
CONTINUOUS
370
50
 62
4
100
AcDbLine
 10
7.359148999999999
 20
-0.365335
 30
0.0
 11
7.382746
 21
-0.363719
 31
0.0
  0
LINE
  5
881
330
1F
100
AcDbEntity
  8
1
  6
CONTINUOUS
370
50
 62
4
100
AcDbLine
 10
7.869388
 20
-1.497569
 30
0.0
 11
7.875306999999999
 21
-1.497156
 31
0.0
  0
LINE
  5
882
330
1F
100
AcDbEntity
  8
1
  6
CONTINUOUS
370
50
 62
4
100
AcDbLine
 10
7.875306999999999
 20
-1.497156
 30
0.0
 11
7.881392
 21
-1.496718
 31
0.0
  0
LINE
  5
883
330
1F
100
AcDbEntity
  8
1
  6
CONTINUOUS
370
50
 62
4
100
AcDbLine
 10
7.881392
 20
-1.496718
 30
0.0
 11
7.887578
 21
-1.496258
 31
0.0
  0
LINE
  5
884
330
1F
100
AcDbEntity
  8
1
  6
CONTINUOUS
370
50
 62
4
100
AcDbLine
 10
7.209059
 20
1.447413
 30
0.0
 11
7.23313
 21
1.449226
 31
0.0
  0
LINE
  5
885
330
1F
100
AcDbEntity
  8
1
  6
CONTINUOUS
370
50
 62
4
100
AcDbLine
 10
7.887578
 20
-1.496258
 30
0.0
 11
7.893802
 21
-1.495781
 31
0.0
  0
LINE
  5
886
330
1F
100
AcDbEntity
  8
1
  6
CONTINUOUS
370
50
 62
4
100
AcDbLine
 10
7.893802
 20
-1.495781
 30
0.0
 11
7.899999999999999
 21
-1.495289
 31
0.0
  0
LINE
  5
887
330
1F
100
AcDbEntity
  8
1
  6
CONTINUOUS
370
50
 62
4
100
AcDbLine
 10
7.899999999999999
 20
-1.496618
 30
0.0
 11
8.026537
 21
-1.486012
 31
0.0
  0
LINE
  5
888
330
1F
100
AcDbEntity
  8
1
  6
CONTINUOUS
370
50
 62
4
100
AcDbLine
 10
15.634117
 20
1.485549
 30
0.0
 11
15.773176
 21
1.497345
 31
0.0
  0
LINE
  5
889
330
1F
100
AcDbEntity
  8
1
  6
CONTINUOUS
370
50
 62
4
100
AcDbLine
 10
12.70746
 20
1.105049
 30
0.0
 11
12.949398
 21
1.125731
 31
0.0
  0
LINE
  5
88A
330
1F
100
AcDbEntity
  8
1
  6
CONTINUOUS
370
50
 62
4
100
AcDbLine
 10
9.930107
 20
1.105917
 30
0.0
 11
10.174905
 21
1.127259
 31
0.0
  0
LINE
  5
88B
330
1F
100
AcDbEntity
  8
1
  6
CONTINUOUS
370
50
 62
4
100
AcDbLine
 10
7.185238
 20
1.445324
 30
0.0
 11
7.209059
 21
1.447413
 31
0.0
  0
LINE
  5
88C
330
1F
100
AcDbEntity
  8
1
  6
CONTINUOUS
370
50
 62
4
100
AcDbLine
 10
7.335605999999999
 20
-0.367678
 30
0.0
 11
7.359148999999999
 21
-0.365335
 31
0.0
  0
LINE
  5
88D
330
1F
100
AcDbEntity
  8
1
  6
CONTINUOUS
370
50
 62
4
100
AcDbLine
 10
7.161747
 20
1.442942
 30
0.0
 11
7.185238
 21
1.445324
 31
0.0
  0
LINE
  5
88E
330
1F
100
AcDbEntity
  8
1
  6
CONTINUOUS
370
50
 62
4
100
AcDbLine
 10
10.713011
 20
-1.494329
 30
0.0
 11
10.865752
 21
-1.478705
 31
0.0
  0
LINE
  5
88F
330
1F
100
AcDbEntity
  8
1
  6
CONTINUOUS
370
50
 62
4
100
AcDbLine
 10
7.138663999999999
 20
1.440246
 30
0.0
 11
7.161747
 21
1.442942
 31
0.0
  0
LINE
  5
890
330
1F
100
AcDbEntity
  8
1
  6
CONTINUOUS
370
50
 62
4
100
AcDbLine
 10
9.946759
 20
1.471584
 30
0.0
 11
10.111748
 21
1.493133
 31
0.0
  0
LINE
  5
891
330
1F
100
AcDbEntity
  8
1
  6
CONTINUOUS
370
50
 62
4
100
AcDbLine
 10
7.312155
 20
-0.370749
 30
0.0
 11
7.335605999999999
 21
-0.367678
 31
0.0
  0
LINE
  5
892
330
1F
100
AcDbEntity
  8
1
  6
CONTINUOUS
370
50
 62
4
100
AcDbLine
 10
7.116069
 20
1.437217
 30
0.0
 11
7.138663999999999
 21
1.440246
 31
0.0
  0
LINE
  5
893
330
1F
100
AcDbEntity
  8
1
  6
CONTINUOUS
370
50
 62
4
100
AcDbLine
 10
12.68285
 20
1.46219
 30
0.0
 11
12.892043
 21
1.490296
 31
0.0
  0
LINE
  5
894
330
1F
100
AcDbEntity
  8
1
  6
CONTINUOUS
370
50
 62
4
100
AcDbLine
 10
13.589315
 20
-1.490077
 30
0.0
 11
13.732219
 21
-1.469486
 31
0.0
  0
LINE
  5
895
330
1F
100
AcDbEntity
  8
1
  6
CONTINUOUS
370
50
 62
4
100
AcDbLine
 10
8.026537
 20
-1.486012
 30
0.0
 11
8.151698
 21
-1.467776
 31
0.0
  0
LINE
  5
896
330
1F
100
AcDbEntity
  8
1
  6
CONTINUOUS
370
50
 62
4
100
AcDbLine
 10
7.094027
 20
1.433836
 30
0.0
 11
7.116069
 21
1.437217
 31
0.0
  0
LINE
  5
897
330
1F
100
AcDbEntity
  8
1
  6
CONTINUOUS
370
50
 62
4
100
AcDbLine
 10
15.498268
 20
1.464153
 30
0.0
 11
15.634117
 21
1.485549
 31
0.0
  0
LINE
  5
898
330
1F
100
AcDbEntity
  8
1
  6
CONTINUOUS
370
50
 62
4
100
AcDbLine
 10
7.288834
 20
-0.374549
 30
0.0
 11
7.312155
 21
-0.370749
 31
0.0
  0
LINE
  5
899
330
1F
100
AcDbEntity
  8
1
  6
CONTINUOUS
370
50
 62
4
100
AcDbLine
 10
12.465512
 20
1.065237
 30
0.0
 11
12.70746
 21
1.105049
 31
0.0
  0
LINE
  5
89A
330
1F
100
AcDbEntity
  8
1
  6
CONTINUOUS
370
50
 62
4
100
AcDbLine
 10
10.865752
 20
-1.478705
 30
0.0
 11
11.018433
 21
-1.453494
 31
0.0
  0
LINE
  5
89B
330
1F
100
AcDbEntity
  8
1
  6
CONTINUOUS
370
50
 62
4
100
AcDbLine
 10
9.685319999999999
 20
1.06435
 30
0.0
 11
9.930107
 21
1.105917
 31
0.0
  0
LINE
  5
89C
330
1F
100
AcDbEntity
  8
1
  6
CONTINUOUS
370
50
 62
4
100
AcDbLine
 10
7.072512
 20
1.430053
 30
0.0
 11
7.094027
 21
1.433836
 31
0.0
  0
LINE
  5
89D
330
1F
100
AcDbEntity
  8
1
  6
CONTINUOUS
370
50
 62
4
100
AcDbLine
 10
7.265679
 20
-0.379079
 30
0.0
 11
7.288834
 21
-0.374549
 31
0.0
  0
LINE
  5
89E
330
1F
100
AcDbEntity
  8
1
  6
CONTINUOUS
370
50
 62
4
100
AcDbLine
 10
7.051641
 20
1.425832
 30
0.0
 11
7.072512
 21
1.430053
 31
0.0
  0
LINE
  5
89F
330
1F
100
AcDbEntity
  8
1
  6
CONTINUOUS
370
50
 62
4
100
AcDbLine
 10
9.773878
 20
1.435871
 30
0.0
 11
9.946759
 21
1.471584
 31
0.0
  0
LINE
  5
8A0
330
1F
100
AcDbEntity
  8
1
  6
CONTINUOUS
370
50
 62
4
100
AcDbLine
 10
15.31863
 20
1.069358
 30
0.0
 11
15.36873
 21
1.079869
 31
0.0
  0
LINE
  5
8A1
330
1F
100
AcDbEntity
  8
1
  6
CONTINUOUS
370
50
 62
4
100
AcDbLine
 10
13.732219
 20
-1.469486
 30
0.0
 11
13.859442
 21
-1.442735
 31
0.0
  0
LINE
  5
8A2
330
1F
100
AcDbEntity
  8
1
  6
CONTINUOUS
370
50
 62
4
100
AcDbLine
 10
8.151698
 20
-1.467776
 30
0.0
 11
8.275091999999999
 21
-1.441639
 31
0.0
  0
LINE
  5
8A3
330
1F
100
AcDbEntity
  8
1
  6
CONTINUOUS
370
50
 62
4
100
AcDbLine
 10
12.471201
 20
1.414877
 30
0.0
 11
12.68285
 21
1.46219
 31
0.0
  0
LINE
  5
8A4
330
1F
100
AcDbEntity
  8
1
  6
CONTINUOUS
370
50
 62
4
100
AcDbLine
 10
15.268531
 20
1.058044
 30
0.0
 11
15.31863
 21
1.069358
 31
0.0
  0
LINE
  5
8A5
330
1F
100
AcDbEntity
  8
1
  6
CONTINUOUS
370
50
 62
4
100
AcDbLine
 10
11.018433
 20
-1.453494
 30
0.0
 11
11.171339
 21
-1.418687
 31
0.0
  0
LINE
  5
8A6
330
1F
100
AcDbEntity
  8
1
  6
CONTINUOUS
370
50
 62
4
100
AcDbLine
 10
7.241023999999999
 20
-0.384762
 30
0.0
 11
7.265679
 21
-0.379079
 31
0.0
  0
LINE
  5
8A7
330
1F
100
AcDbEntity
  8
1
  6
CONTINUOUS
370
50
 62
4
100
AcDbLine
 10
15.368056
 20
1.433849
 30
0.0
 11
15.498268
 21
1.464153
 31
0.0
  0
LINE
  5
8A8
330
1F
100
AcDbEntity
  8
1
  6
CONTINUOUS
370
50
 62
4
100
AcDbLine
 10
7.031561
 20
1.421136
 30
0.0
 11
7.051641
 21
1.425832
 31
0.0
  0
LINE
  5
8A9
330
1F
100
AcDbEntity
  8
1
  6
CONTINUOUS
370
50
 62
4
100
AcDbLine
 10
9.440527
 20
1.005838
 30
0.0
 11
9.685319999999999
 21
1.06435
 31
0.0
  0
LINE
  5
8AA
330
1F
100
AcDbEntity
  8
1
  6
CONTINUOUS
370
50
 62
4
100
AcDbLine
 10
15.218433
 20
1.045964
 30
0.0
 11
15.268531
 21
1.058044
 31
0.0
  0
LINE
  5
8AB
330
1F
100
AcDbEntity
  8
1
  6
CONTINUOUS
370
50
 62
4
100
AcDbLine
 10
12.223555
 20
1.005226
 30
0.0
 11
12.465512
 21
1.065237
 31
0.0
  0
LINE
  5
8AC
330
1F
100
AcDbEntity
  8
1
  6
CONTINUOUS
370
50
 62
4
100
AcDbLine
 10
15.168335
 20
1.033153
 30
0.0
 11
15.218433
 21
1.045964
 31
0.0
  0
LINE
  5
8AD
330
1F
100
AcDbEntity
  8
1
  6
CONTINUOUS
370
50
 62
4
100
AcDbLine
 10
13.859442
 20
-1.442735
 30
0.0
 11
13.988507
 21
-1.408562
 31
0.0
  0
LINE
  5
8AE
330
1F
100
AcDbEntity
  8
1
  6
CONTINUOUS
370
50
 62
4
100
AcDbLine
 10
7.216563
 20
-0.391318
 30
0.0
 11
7.241023999999999
 21
-0.384762
 31
0.0
  0
LINE
  5
8AF
330
1F
100
AcDbEntity
  8
1
  6
CONTINUOUS
370
50
 62
4
100
AcDbLine
 10
15.118238
 20
1.019648
 30
0.0
 11
15.168335
 21
1.033153
 31
0.0
  0
LINE
  5
8B0
330
1F
100
AcDbEntity
  8
1
  6
CONTINUOUS
370
50
 62
4
100
AcDbLine
 10
7.012422
 20
1.415933
 30
0.0
 11
7.031561
 21
1.421136
 31
0.0
  0
LINE
  5
8B1
330
1F
100
AcDbEntity
  8
1
  6
CONTINUOUS
370
50
 62
4
100
AcDbLine
 10
0.0
 20
-2.99995
 30
0.0
 11
5.5
 21
-1.49995
 31
0.0
  0
LINE
  5
8B2
330
1F
100
AcDbEntity
  8
1
  6
CONTINUOUS
370
50
 62
4
100
AcDbLine
 10
9.598144999999999
 20
1.387257
 30
0.0
 11
9.773878
 21
1.435871
 31
0.0
  0
LINE
  5
8B3
330
1F
100
AcDbEntity
  8
1
  6
CONTINUOUS
370
50
 62
4
100
AcDbLine
 10
8.275091999999999
 20
-1.441639
 30
0.0
 11
8.393735999999999
 21
-1.408382
 31
0.0
  0
LINE
  5
8B4
330
1F
100
AcDbEntity
  8
1
  6
CONTINUOUS
370
50
 62
4
100
AcDbLine
 10
15.068141
 20
1.005483
 30
0.0
 11
15.118238
 21
1.019648
 31
0.0
  0
LINE
  5
8B5
330
1F
100
AcDbEntity
  8
1
  6
CONTINUOUS
370
50
 62
4
100
AcDbLine
 10
11.171339
 20
-1.418687
 30
0.0
 11
11.323851
 21
-1.374158
 31
0.0
  0
LINE
  5
8B6
330
1F
100
AcDbEntity
  8
1
  6
CONTINUOUS
370
50
 62
4
100
AcDbLine
 10
15.235133
 20
1.39417
 30
0.0
 11
15.368056
 21
1.433849
 31
0.0
  0
LINE
  5
8B7
330
1F
100
AcDbEntity
  8
1
  6
CONTINUOUS
370
50
 62
4
100
AcDbLine
 10
7.192332
 20
-0.398765
 30
0.0
 11
7.216563
 21
-0.391318
 31
0.0
  0
LINE
  5
8B8
330
1F
100
AcDbEntity
  8
1
  6
CONTINUOUS
370
50
 62
4
100
AcDbLine
 10
15.321571
 20
1.235229
 30
0.0
 11
15.336021
 21
1.239725
 31
0.0
  0
LINE
  5
8B9
330
1F
100
AcDbEntity
  8
1
  6
CONTINUOUS
370
50
 62
4
100
AcDbLine
 10
13.988507
 20
-1.408562
 30
0.0
 11
14.119831
 21
-1.367328
 31
0.0
  0
LINE
  5
8BA
330
1F
100
AcDbEntity
  8
1
  6
CONTINUOUS
370
50
 62
4
100
AcDbLine
 10
6.99437
 20
1.410186
 30
0.0
 11
7.012422
 21
1.415933
 31
0.0
  0
LINE
  5
8BB
330
1F
100
AcDbEntity
  8
1
  6
CONTINUOUS
370
50
 62
4
100
AcDbLine
 10
12.260077
 20
1.347597
 30
0.0
 11
12.471201
 21
1.414877
 31
0.0
  0
LINE
  5
8BC
330
1F
100
AcDbEntity
  8
1
  6
CONTINUOUS
370
50
 62
4
100
AcDbLine
 10
15.336021
 20
1.239725
 30
0.0
 11
15.351333
 21
1.244773
 31
0.0
  0
LINE
  5
8BD
330
1F
100
AcDbEntity
  8
1
  6
CONTINUOUS
370
50
 62
4
100
AcDbLine
 10
9.416402999999999
 20
1.325051
 30
0.0
 11
9.598144999999999
 21
1.387257
 31
0.0
  0
LINE
  5
8BE
330
1F
100
AcDbEntity
  8
1
  6
CONTINUOUS
370
50
 62
4
100
AcDbLine
 10
8.393735999999999
 20
-1.408382
 30
0.0
 11
8.511882
 21
-1.367785
 31
0.0
  0
LINE
  5
8BF
330
1F
100
AcDbEntity
  8
1
  6
CONTINUOUS
370
50
 62
4
100
AcDbLine
 10
7.168415
 20
-0.40711
 30
0.0
 11
7.192332
 21
-0.398765
 31
0.0
  0
LINE
  5
8C0
330
1F
100
AcDbEntity
  8
1
  6
CONTINUOUS
370
50
 62
4
100
AcDbLine
 10
15.09724
 20
1.345826
 30
0.0
 11
15.235133
 21
1.39417
 31
0.0
  0
LINE
  5
8C1
330
1F
100
AcDbEntity
  8
1
  6
CONTINUOUS
370
50
 62
4
100
AcDbLine
 10
15.351333
 20
1.244773
 30
0.0
 11
15.369066
 21
1.251021
 31
0.0
  0
LINE
  5
8C2
330
1F
100
AcDbEntity
  8
1
  6
CONTINUOUS
370
50
 62
4
100
AcDbLine
 10
11.323851
 20
-1.374158
 30
0.0
 11
11.473791
 21
-1.320241
 31
0.0
  0
LINE
  5
8C3
330
1F
100
AcDbEntity
  8
1
  6
CONTINUOUS
370
50
 62
4
100
AcDbLine
 10
14.119831
 20
-1.367328
 30
0.0
 11
14.253364
 21
-1.319226
 31
0.0
  0
LINE
  5
8C4
330
1F
100
AcDbEntity
  8
1
  6
CONTINUOUS
370
50
 62
4
100
AcDbLine
 10
15.369066
 20
1.251021
 30
0.0
 11
15.390698
 21
1.25909
 31
0.0
  0
LINE
  5
8C5
330
1F
100
AcDbEntity
  8
1
  6
CONTINUOUS
370
50
 62
4
100
AcDbLine
 10
6.977561
 20
1.403861
 30
0.0
 11
6.99437
 21
1.410186
 31
0.0
  0
LINE
  5
8C6
330
1F
100
AcDbEntity
  8
1
  6
CONTINUOUS
370
50
 62
4
100
AcDbLine
 10
14.458241
 20
-1.240785
 30
0.0
 11
14.514833
 21
-1.219185
 31
0.0
  0
LINE
  5
8C7
330
1F
100
AcDbEntity
  8
1
  6
CONTINUOUS
370
50
 62
4
100
AcDbLine
 10
14.401771
 20
-1.262343
 30
0.0
 11
14.458241
 21
-1.240785
 31
0.0
  0
LINE
  5
8C8
330
1F
100
AcDbEntity
  8
1
  6
CONTINUOUS
370
50
 62
4
100
AcDbLine
 10
14.514833
 20
-1.219185
 30
0.0
 11
14.569236
 21
-1.198414
 31
0.0
  0
LINE
  5
8C9
330
1F
100
AcDbEntity
  8
1
  6
CONTINUOUS
370
50
 62
4
100
AcDbLine
 10
14.344986
 20
-1.284038
 30
0.0
 11
14.401771
 21
-1.262343
 31
0.0
  0
LINE
  5
8CA
330
1F
100
AcDbEntity
  8
1
  6
CONTINUOUS
370
50
 62
4
100
AcDbLine
 10
14.569236
 20
-1.198414
 30
0.0
 11
14.605954
 21
-1.184384
 31
0.0
  0
LINE
  5
8CB
330
1F
100
AcDbEntity
  8
1
  6
CONTINUOUS
370
50
 62
4
100
AcDbLine
 10
14.299161
 20
-1.301566
 30
0.0
 11
14.344986
 21
-1.284038
 31
0.0
  0
LINE
  5
8CC
330
1F
100
AcDbEntity
  8
1
  6
CONTINUOUS
370
50
 62
4
100
AcDbLine
 10
14.605954
 20
-1.184384
 30
0.0
 11
14.674107
 21
-1.158306
 31
0.0
  0
LINE
  5
8CD
330
1F
100
AcDbEntity
  8
1
  6
CONTINUOUS
370
50
 62
4
100
AcDbLine
 10
14.253358
 20
-1.31911
 30
0.0
 11
14.299161
 21
-1.301566
 31
0.0
  0
LINE
  5
8CE
330
1F
100
AcDbEntity
  8
1
  6
CONTINUOUS
370
50
 62
4
100
AcDbLine
 10
15.390698
 20
1.25909
 30
0.0
 11
15.417706
 21
1.269596
 31
0.0
  0
LINE
  5
8CF
330
1F
100
AcDbEntity
  8
1
  6
CONTINUOUS
370
50
 62
4
100
AcDbLine
 10
8.967283
 20
-1.185886
 30
0.0
 11
9.038917999999999
 21
-1.157941
 31
0.0
  0
LINE
  5
8D0
330
1F
100
AcDbEntity
  8
1
  6
CONTINUOUS
370
50
 62
4
100
AcDbLine
 10
8.511882
 20
-1.367785
 30
0.0
 11
8.635907
 21
-1.319199
 31
0.0
  0
LINE
  5
8D1
330
1F
100
AcDbEntity
  8
1
  6
CONTINUOUS
370
50
 62
4
100
AcDbLine
 10
7.144895
 20
-0.416358
 30
0.0
 11
7.168415
 21
-0.40711
 31
0.0
  0
LINE
  5
8D2
330
1F
100
AcDbEntity
  8
1
  6
CONTINUOUS
370
50
 62
4
100
AcDbLine
 10
8.895555
 20
-1.214168
 30
0.0
 11
8.967283
 21
-1.185886
 31
0.0
  0
LINE
  5
8D3
330
1F
100
AcDbEntity
  8
1
  6
CONTINUOUS
370
50
 62
4
100
AcDbLine
 10
11.473791
 20
-1.320251
 30
0.0
 11
11.511554
 21
-1.305264
 31
0.0
  0
LINE
  5
8D4
330
1F
100
AcDbEntity
  8
1
  6
CONTINUOUS
370
50
 62
4
100
AcDbLine
 10
8.823609
 20
-1.242849
 30
0.0
 11
8.895555
 21
-1.214168
 31
0.0
  0
LINE
  5
8D5
330
1F
100
AcDbEntity
  8
1
  6
CONTINUOUS
370
50
 62
4
100
AcDbLine
 10
14.957264
 20
1.29
 30
0.0
 11
15.09724
 21
1.345826
 31
0.0
  0
LINE
  5
8D6
330
1F
100
AcDbEntity
  8
1
  6
CONTINUOUS
370
50
 62
4
100
AcDbLine
 10
15.417706
 20
1.269596
 30
0.0
 11
15.451567
 21
1.28316
 31
0.0
  0
LINE
  5
8D7
330
1F
100
AcDbEntity
  8
1
  6
CONTINUOUS
370
50
 62
4
100
AcDbLine
 10
11.511554
 20
-1.305264
 30
0.0
 11
11.583545
 21
-1.276242
 31
0.0
  0
LINE
  5
8D8
330
1F
100
AcDbEntity
  8
1
  6
CONTINUOUS
370
50
 62
4
100
AcDbLine
 10
8.751916
 20
-1.271751
 30
0.0
 11
8.823609
 21
-1.242849
 31
0.0
  0
LINE
  5
8D9
330
1F
100
AcDbEntity
  8
1
  6
CONTINUOUS
370
50
 62
4
100
AcDbLine
 10
8.678071
 20
-1.301854
 30
0.0
 11
8.751916
 21
-1.271751
 31
0.0
  0
LINE
  5
8DA
330
1F
100
AcDbEntity
  8
1
  6
CONTINUOUS
370
50
 62
4
100
AcDbLine
 10
9.229256999999999
 20
1.248682
 30
0.0
 11
9.416402999999999
 21
1.325051
 31
0.0
  0
LINE
  5
8DB
330
1F
100
AcDbEntity
  8
1
  6
CONTINUOUS
370
50
 62
4
100
AcDbLine
 10
15.451567
 20
1.28316
 30
0.0
 11
15.48949
 21
1.29869
 31
0.0
  0
LINE
  5
8DC
330
1F
100
AcDbEntity
  8
1
  6
CONTINUOUS
370
50
 62
4
100
AcDbLine
 10
8.635907
 20
-1.319187
 30
0.0
 11
8.678071
 21
-1.301854
 31
0.0
  0
LINE
  5
8DD
330
1F
100
AcDbEntity
  8
1
  6
CONTINUOUS
370
50
 62
4
100
AcDbLine
 10
11.583545
 20
-1.276242
 30
0.0
 11
11.65321
 21
-1.247574
 31
0.0
  0
LINE
  5
8DE
330
1F
100
AcDbEntity
  8
1
  6
CONTINUOUS
370
50
 62
4
100
AcDbLine
 10
11.65321
 20
-1.247574
 30
0.0
 11
11.722611
 21
-1.218436
 31
0.0
  0
LINE
  5
8DF
330
1F
100
AcDbEntity
  8
1
  6
CONTINUOUS
370
50
 62
4
100
AcDbLine
 10
15.48949
 20
1.29869
 30
0.0
 11
15.525034
 21
1.31371
 31
0.0
  0
LINE
  5
8E0
330
1F
100
AcDbEntity
  8
1
  6
CONTINUOUS
370
50
 62
4
100
AcDbLine
 10
12.055047
 20
1.260725
 30
0.0
 11
12.260077
 21
1.347597
 31
0.0
  0
LINE
  5
8E1
330
1F
100
AcDbEntity
  8
1
  6
CONTINUOUS
370
50
 62
4
100
AcDbLine
 10
11.722611
 20
-1.218436
 30
0.0
 11
11.792024
 21
-1.188712
 31
0.0
  0
LINE
  5
8E2
330
1F
100
AcDbEntity
  8
1
  6
CONTINUOUS
370
50
 62
4
100
AcDbLine
 10
11.792024
 20
-1.188712
 30
0.0
 11
11.861907
 21
-1.158206
 31
0.0
  0
LINE
  5
8E3
330
1F
100
AcDbEntity
  8
1
  6
CONTINUOUS
370
50
 62
4
100
AcDbLine
 10
7.121854
 20
-0.426518
 30
0.0
 11
7.144895
 21
-0.416358
 31
0.0
  0
LINE
  5
8E4
330
1F
100
AcDbEntity
  8
1
  6
CONTINUOUS
370
50
 62
4
100
AcDbLine
 10
15.525034
 20
1.31371
 30
0.0
 11
15.558167
 21
1.328373
 31
0.0
  0
LINE
  5
8E5
330
1F
100
AcDbEntity
  8
1
  6
CONTINUOUS
370
50
 62
4
100
AcDbLine
 10
14.815966
 20
1.227293
 30
0.0
 11
14.957264
 21
1.29
 31
0.0
  0
LINE
  5
8E6
330
1F
100
AcDbEntity
  8
1
  6
CONTINUOUS
370
50
 62
4
100
AcDbLine
 10
6.962177
 20
1.396923
 30
0.0
 11
6.977561
 21
1.403861
 31
0.0
  0
LINE
  5
8E7
330
1F
100
AcDbEntity
  8
1
  6
CONTINUOUS
370
50
 62
4
100
AcDbLine
 10
15.558167
 20
1.328373
 30
0.0
 11
15.58896
 21
1.342873
 31
0.0
  0
LINE
  5
8E8
330
1F
100
AcDbEntity
  8
1
  6
CONTINUOUS
370
50
 62
4
100
AcDbLine
 10
9.038915
 20
1.157948
 30
0.0
 11
9.229256999999999
 21
1.248682
 31
0.0
  0
LINE
  5
8E9
330
1F
100
AcDbEntity
  8
1
  6
CONTINUOUS
370
50
 62
4
100
AcDbLine
 10
14.674106
 20
1.158308
 30
0.0
 11
14.815966
 21
1.227293
 31
0.0
  0
LINE
  5
8EA
330
1F
100
AcDbEntity
  8
1
  6
CONTINUOUS
370
50
 62
4
100
AcDbLine
 10
7.099372
 20
-0.437598
 30
0.0
 11
7.121854
 21
-0.426518
 31
0.0
  0
LINE
  5
8EB
330
1F
100
AcDbEntity
  8
1
  6
CONTINUOUS
370
50
 62
4
100
AcDbLine
 10
15.58896
 20
1.342873
 30
0.0
 11
15.617486
 21
1.357405
 31
0.0
  0
LINE
  5
8EC
330
1F
100
AcDbEntity
  8
1
  6
CONTINUOUS
370
50
 62
4
100
AcDbLine
 10
11.861916
 20
1.158206
 30
0.0
 11
12.055047
 21
1.260725
 31
0.0
  0
LINE
  5
8ED
330
1F
100
AcDbEntity
  8
1
  6
CONTINUOUS
370
50
 62
4
100
AcDbLine
 10
7.077433
 20
-0.449666
 30
0.0
 11
7.099372
 21
-0.437598
 31
0.0
  0
LINE
  5
8EE
330
1F
100
AcDbEntity
  8
1
  6
CONTINUOUS
370
50
 62
4
100
AcDbLine
 10
6.948398
 20
1.389336
 30
0.0
 11
6.962177
 21
1.396923
 31
0.0
  0
LINE
  5
8EF
330
1F
100
AcDbEntity
  8
1
  6
CONTINUOUS
370
50
 62
4
100
AcDbLine
 10
15.617486
 20
1.357405
 30
0.0
 11
15.64381
 21
1.372161
 31
0.0
  0
LINE
  5
8F0
330
1F
100
AcDbEntity
  8
1
  6
CONTINUOUS
370
50
 62
4
100
AcDbLine
 10
7.056118
 20
-0.462759
 30
0.0
 11
7.077433
 21
-0.449666
 31
0.0
  0
LINE
  5
8F1
330
1F
100
AcDbEntity
  8
1
  6
CONTINUOUS
370
50
 62
4
100
AcDbLine
 10
15.64381
 20
1.372161
 30
0.0
 11
15.66794
 21
1.387293
 31
0.0
  0
LINE
  5
8F2
330
1F
100
AcDbEntity
  8
1
  6
CONTINUOUS
370
50
 62
4
100
AcDbLine
 10
7.035584
 20
-0.476876
 30
0.0
 11
7.056118
 21
-0.462759
 31
0.0
  0
LINE
  5
8F3
330
1F
100
AcDbEntity
  8
1
  6
CONTINUOUS
370
50
 62
4
100
AcDbLine
 10
6.936401999999999
 20
1.381063
 30
0.0
 11
6.948398
 21
1.389336
 31
0.0
  0
LINE
  5
8F4
330
1F
100
AcDbEntity
  8
1
  6
CONTINUOUS
370
50
 62
4
100
AcDbLine
 10
15.66794
 20
1.387293
 30
0.0
 11
15.689975
 21
1.402992
 31
0.0
  0
LINE
  5
8F5
330
1F
100
AcDbEntity
  8
1
  6
CONTINUOUS
370
50
 62
4
100
AcDbLine
 10
15.721962
 20
-0.210956
 30
0.0
 11
15.9
 21
-0.079039
 31
0.0
  0
LINE
  5
8F6
330
1F
100
AcDbEntity
  8
1
  6
CONTINUOUS
370
50
 62
4
100
AcDbLine
 10
7.015985
 20
-0.492017
 30
0.0
 11
7.035584
 21
-0.476876
 31
0.0
  0
LINE
  5
8F7
330
1F
100
AcDbEntity
  8
1
  6
CONTINUOUS
370
50
 62
4
100
AcDbLine
 10
15.689975
 20
1.402992
 30
0.0
 11
15.71004
 21
1.419467
 31
0.0
  0
LINE
  5
8F8
330
1F
100
AcDbEntity
  8
1
  6
CONTINUOUS
370
50
 62
4
100
AcDbLine
 10
6.997475
 20
-0.508182
 30
0.0
 11
7.015985
 21
-0.492017
 31
0.0
  0
LINE
  5
8F9
330
1F
100
AcDbEntity
  8
1
  6
CONTINUOUS
370
50
 62
4
100
AcDbLine
 10
6.926379
 20
1.372079
 30
0.0
 11
6.936401999999999
 21
1.381063
 31
0.0
  0
LINE
  5
8FA
330
1F
100
AcDbEntity
  8
1
  6
CONTINUOUS
370
50
 62
4
100
AcDbLine
 10
15.71004
 20
1.419467
 30
0.0
 11
15.728263
 21
1.436924
 31
0.0
  0
LINE
  5
8FB
330
1F
100
AcDbEntity
  8
1
  6
CONTINUOUS
370
50
 62
4
100
AcDbLine
 10
6.980211
 20
-0.525369
 30
0.0
 11
6.997475
 21
-0.508182
 31
0.0
  0
LINE
  5
8FC
330
1F
100
AcDbEntity
  8
1
  6
CONTINUOUS
370
50
 62
4
100
AcDbLine
 10
15.728263
 20
1.436924
 30
0.0
 11
15.744767
 21
1.455569
 31
0.0
  0
LINE
  5
8FD
330
1F
100
AcDbEntity
  8
1
  6
CONTINUOUS
370
50
 62
4
100
AcDbLine
 10
6.964379999999999
 20
-0.543551
 30
0.0
 11
6.980211
 21
-0.525369
 31
0.0
  0
LINE
  5
8FE
330
1F
100
AcDbEntity
  8
1
  6
CONTINUOUS
370
50
 62
4
100
AcDbLine
 10
6.918603
 20
1.362498
 30
0.0
 11
6.926379
 21
1.372079
 31
0.0
  0
LINE
  5
8FF
330
1F
100
AcDbEntity
  8
1
  6
CONTINUOUS
370
50
 62
4
100
AcDbLine
 10
15.744767
 20
1.455569
 30
0.0
 11
15.759693
 21
1.475626
 31
0.0
  0
LINE
  5
900
330
1F
100
AcDbEntity
  8
1
  6
CONTINUOUS
370
50
 62
4
100
AcDbLine
 10
6.950171
 20
-0.562693
 30
0.0
 11
6.964379999999999
 21
-0.543551
 31
0.0
  0
LINE
  5
901
330
1F
100
AcDbEntity
  8
1
  6
CONTINUOUS
370
50
 62
4
100
AcDbLine
 10
15.315792
 20
-0.038587
 30
0.0
 11
15.327644
 21
-0.021545
 31
0.0
  0
LINE
  5
902
330
1F
100
AcDbEntity
  8
1
  6
CONTINUOUS
370
50
 62
4
100
AcDbLine
 10
15.327644
 20
-0.021545
 30
0.0
 11
15.338724
 21
-0.004105
 31
0.0
  0
LINE
  5
903
330
1F
100
AcDbEntity
  8
1
  6
CONTINUOUS
370
50
 62
4
100
AcDbLine
 10
15.759693
 20
1.475626
 30
0.0
 11
15.773179
 21
1.497343
 31
0.0
  0
LINE
  5
904
330
1F
100
AcDbEntity
  8
1
  6
CONTINUOUS
370
50
 62
4
100
AcDbLine
 10
6.937767999999999
 20
-0.582765
 30
0.0
 11
6.950171
 21
-0.562693
 31
0.0
  0
LINE
  5
905
330
1F
100
AcDbEntity
  8
1
  6
CONTINUOUS
370
50
 62
4
100
AcDbLine
 10
15.338724
 20
-0.004105
 30
0.0
 11
15.349
 21
0.01369
 31
0.0
  0
LINE
  5
906
330
1F
100
AcDbEntity
  8
1
  6
CONTINUOUS
370
50
 62
4
100
AcDbLine
 10
6.913167
 20
1.352358
 30
0.0
 11
6.918603
 21
1.362498
 31
0.0
  0
LINE
  5
907
330
1F
100
AcDbEntity
  8
1
  6
CONTINUOUS
370
50
 62
4
100
AcDbLine
 10
15.349
 20
0.01369
 30
0.0
 11
15.358402
 21
0.031721
 31
0.0
  0
LINE
  5
908
330
1F
100
AcDbEntity
  8
1
  6
CONTINUOUS
370
50
 62
4
100
AcDbLine
 10
6.927364
 20
-0.603722
 30
0.0
 11
6.937767999999999
 21
-0.582765
 31
0.0
  0
LINE
  5
909
330
1F
100
AcDbEntity
  8
1
  6
CONTINUOUS
370
50
 62
4
100
AcDbLine
 10
15.358402
 20
0.031721
 30
0.0
 11
15.366805
 21
0.049697
 31
0.0
  0
LINE
  5
90A
330
1F
100
AcDbEntity
  8
1
  6
CONTINUOUS
370
50
 62
4
100
AcDbLine
 10
15.366805
 20
0.049697
 30
0.0
 11
15.374221
 21
0.067559
 31
0.0
  0
LINE
  5
90B
330
1F
100
AcDbEntity
  8
1
  6
CONTINUOUS
370
50
 62
4
100
AcDbLine
 10
6.919243
 20
-0.625216
 30
0.0
 11
6.927364
 21
-0.603722
 31
0.0
  0
LINE
  5
90C
330
1F
100
AcDbEntity
  8
1
  6
CONTINUOUS
370
50
 62
4
100
AcDbLine
 10
15.374221
 20
0.067559
 30
0.0
 11
15.380674
 21
0.085264
 31
0.0
  0
LINE
  5
90D
330
1F
100
AcDbEntity
  8
1
  6
CONTINUOUS
370
50
 62
4
100
AcDbLine
 10
15.380674
 20
0.085264
 30
0.0
 11
15.386187
 21
0.10277
 31
0.0
  0
LINE
  5
90E
330
1F
100
AcDbEntity
  8
1
  6
CONTINUOUS
370
50
 62
4
100
AcDbLine
 10
6.910112
 20
1.341658
 30
0.0
 11
6.913167
 21
1.352358
 31
0.0
  0
LINE
  5
90F
330
1F
100
AcDbEntity
  8
1
  6
CONTINUOUS
370
50
 62
4
100
AcDbLine
 10
15.386187
 20
0.10277
 30
0.0
 11
15.390784
 21
0.120045
 31
0.0
  0
LINE
  5
910
330
1F
100
AcDbEntity
  8
1
  6
CONTINUOUS
370
50
 62
4
100
AcDbLine
 10
6.913522
 20
-0.6470549999999999
 30
0.0
 11
6.919243
 21
-0.625216
 31
0.0
  0
LINE
  5
911
330
1F
100
AcDbEntity
  8
1
  6
CONTINUOUS
370
50
 62
4
100
AcDbLine
 10
15.390784
 20
0.120045
 30
0.0
 11
15.394513
 21
0.137168
 31
0.0
  0
LINE
  5
912
330
1F
100
AcDbEntity
  8
1
  6
CONTINUOUS
370
50
 62
4
100
AcDbLine
 10
15.394513
 20
0.137168
 30
0.0
 11
15.397385
 21
0.154141
 31
0.0
  0
LINE
  5
913
330
1F
100
AcDbEntity
  8
1
  6
CONTINUOUS
370
50
 62
4
100
AcDbLine
 10
6.910244
 20
-0.6691809999999999
 30
0.0
 11
6.913522
 21
-0.6470549999999999
 31
0.0
  0
LINE
  5
914
330
1F
100
AcDbEntity
  8
1
  6
CONTINUOUS
370
50
 62
4
100
AcDbLine
 10
15.397385
 20
0.154141
 30
0.0
 11
15.399403
 21
0.170936
 31
0.0
  0
LINE
  5
915
330
1F
100
AcDbEntity
  8
1
  6
CONTINUOUS
370
50
 62
4
100
AcDbLine
 10
15.399162
 20
0.8733599999999999
 30
0.0
 11
15.400543
 21
0.890268
 31
0.0
  0
LINE
  5
916
330
1F
100
AcDbEntity
  8
1
  6
CONTINUOUS
370
50
 62
4
100
AcDbLine
 10
15.399403
 20
0.170936
 30
0.0
 11
15.400566
 21
0.187525
 31
0.0
  0
LINE
  5
917
330
1F
100
AcDbEntity
  8
1
  6
CONTINUOUS
370
50
 62
4
100
AcDbLine
 10
6.909473999999999
 20
1.330428
 30
0.0
 11
6.910112
 21
1.341658
 31
0.0
  0
LINE
  5
918
330
1F
100
AcDbEntity
  8
1
  6
CONTINUOUS
370
50
 62
4
100
AcDbLine
 10
15.723925
 20
-0.43732
 30
0.0
 11
15.727546
 21
-0.368806
 31
0.0
  0
LINE
  5
919
330
1F
100
AcDbEntity
  8
1
  6
CONTINUOUS
370
50
 62
4
100
AcDbLine
 10
6.909447
 20
-0.691491
 30
0.0
 11
6.910244
 21
-0.6691809999999999
 31
0.0
  0
LINE
  5
91A
330
1F
100
AcDbEntity
  8
1
  6
CONTINUOUS
370
50
 62
4
100
AcDbLine
 10
15.721713
 20
-0.506173
 30
0.0
 11
15.723925
 21
-0.43732
 31
0.0
  0
LINE
  5
91B
330
1F
100
AcDbEntity
  8
1
  6
CONTINUOUS
370
50
 62
4
100
AcDbLine
 10
15.400566
 20
0.187525
 30
0.0
 11
15.400879
 21
0.203877
 31
0.0
  0
LINE
  5
91C
330
1F
100
AcDbEntity
  8
1
  6
CONTINUOUS
370
50
 62
4
100
AcDbLine
 10
15.400543
 20
0.890268
 30
0.0
 11
15.400867
 21
0.908362
 31
0.0
  0
LINE
  5
91D
330
1F
100
AcDbEntity
  8
1
  6
CONTINUOUS
370
50
 62
4
100
AcDbLine
 10
15.727546
 20
-0.368806
 30
0.0
 11
15.727941
 21
-0.346023
 31
0.0
  0
LINE
  5
91E
330
1F
100
AcDbEntity
  8
1
  6
CONTINUOUS
370
50
 62
4
100
AcDbLine
 10
15.720932
 20
-0.5751959999999999
 30
0.0
 11
15.721713
 21
-0.506173
 31
0.0
  0
LINE
  5
91F
330
1F
100
AcDbEntity
  8
1
  6
CONTINUOUS
370
50
 62
4
100
AcDbLine
 10
0.0
 20
-2.99995
 30
0.0
 11
0.0
 21
2.99995
 31
0.0
  0
LINE
  5
920
330
1F
100
AcDbEntity
  8
1
  6
CONTINUOUS
370
50
 62
4
100
AcDbLine
 10
5.5
 20
-1.49995
 30
0.0
 11
5.5
 21
1.49995
 31
0.0
  0
LINE
  5
921
330
1F
100
AcDbEntity
  8
1
  6
CONTINUOUS
370
50
 62
4
100
AcDbLine
 10
7.899999999999999
 20
-1.496618
 30
0.0
 11
7.899999999999999
 21
1.496618
 31
0.0
  0
LINE
  5
922
330
1F
100
AcDbEntity
  8
1
  6
CONTINUOUS
370
50
 62
4
100
AcDbLine
 10
15.9
 20
-1.5
 30
0.0
 11
15.9
 21
0.204204
 31
0.0
  0
LINE
  5
923
330
1F
100
AcDbEntity
  8
1
  6
CONTINUOUS
370
50
 62
4
100
AcDbLine
 10
15.9
 20
0.204208
 30
0.0
 11
15.9
 21
1.499997
 31
0.0
  0
ELLIPSE
  5
924
330
1F
100
AcDbEntity
  8
1
  6
CONTINUOUS
370
50
 62
4
100
AcDbEllipse
 10
15.900036
 20
-0.000026
 30
0.0
 11
-2.068437982015939
 21
1.499999024799293
 31
0.0
210
0.0
220
0.0
230
0.9999999999999998
 40
0.0008872087133933
 41
1.510079662396849
 42
1.57142248240646
  0
ELLIPSE
  5
925
330
1F
100
AcDbEntity
  8
1
  6
CONTINUOUS
370
50
 62
4
100
AcDbEllipse
 10
15.900036
 20
0.0
 30
0.0
 11
2.068433999481542
 21
0.005907181543736024
 31
0.0
210
0.0
220
0.0
230
0.9999999999999999
 40
0.7251804993655444
 41
4.648948204786193
 42
4.708432548027339
  0
ELLIPSE
  5
926
330
1F
100
AcDbEntity
  8
1
  6
CONTINUOUS
370
50
 62
4
100
AcDbEllipse
 10
15.900036
 20
0.0
 30
0.0
 11
-2.068433999481543
 21
0.005907181543574702
 31
0.0
210
0.0
220
0.0
230
0.9999999999999998
 40
0.7251804993655441
 41
4.714477236665244
 42
4.775829755983136
  0
ELLIPSE
  5
927
330
1F
100
AcDbEntity
  8
1
  6
CONTINUOUS
370
50
 62
4
100
AcDbEllipse
 10
15.966352
 20
0.0
 30
0.0
 11
9.184553776699598E-17
 21
1.500001
 31
0.0
210
0.0
220
0.0
230
1.0
 40
0.324919783386811
 41
2.984420636748352
 42
3.005028941332455
  0
ELLIPSE
  5
928
330
1F
100
AcDbEntity
  8
1
  6
CONTINUOUS
370
50
 62
4
100
AcDbEllipse
 10
20.973301
 20
-16.796894
 30
0.0
 11
-23.99618701374187
 21
7.858994958041396
 31
0.0
210
0.0
220
0.0
230
0.9999999999999999
 40
0.5663698209228998
 41
5.461097175987315
 42
5.463121863930686
  0
ELLIPSE
  5
929
330
1F
100
AcDbEntity
  8
1
  6
CONTINUOUS
370
50
 62
4
100
AcDbEllipse
 10
20.973301
 20
15.14582
 30
0.0
 11
-23.0012850633054
 21
10.41737486022336
 31
0.0
210
0.0
220
0.0
230
1.0
 40
0.7832159356074748
 41
1.34434575968957
 42
1.346370447584712
  0
ELLIPSE
  5
92A
330
1F
100
AcDbEntity
  8
1
  6
CONTINUOUS
370
50
 62
4
100
AcDbEllipse
 10
21.253876
 20
-15.940205
 30
0.0
 11
-24.13284805353601
 21
7.903752836536336
 31
0.0
210
0.0
220
0.0
230
0.9999999999999999
 40
0.5663698263043998
 41
5.471073922779818
 42
5.518974946430773
  0
ELLIPSE
  5
92B
330
1F
100
AcDbEntity
  8
1
  6
CONTINUOUS
370
50
 62
4
100
AcDbEllipse
 10
21.253876
 20
15.765321
 30
0.0
 11
-23.13227917175972
 21
10.47670262075914
 31
0.0
210
0.0
220
0.0
230
1.0
 40
0.7832159563063985
 41
1.288492676181029
 42
1.336393699803252
  0
ELLIPSE
  5
92C
330
1F
100
AcDbEntity
  8
1
  6
CONTINUOUS
370
50
 62
4
100
AcDbEllipse
 10
21.393342
 20
16.073258
 30
0.0
 11
-23.0248240978332
 21
10.42803578398692
 31
0.0
210
0.0
220
0.0
230
1.0
 40
0.7832159334881384
 41
1.302093371296742
 42
1.32653195614147
  0
LINE
  5
92D
330
1F
100
AcDbEntity
  8
CUT
  6
CONTINUOUS
370
25
 62
1
100
AcDbLine
 10
7.9
 20
0.0
 30
0.0
 11
15.9
 21
0.0
 31
0.0
  0
LINE
  5
92E
330
1F
100
AcDbEntity
  8
CUT
  6
CONTINUOUS
370
25
 62
1
100
AcDbLine
 10
15.9
 20
0.0
 30
0.0
 11
15.9
 21
1.495
 31
0.0
  0
LINE
  5
92F
330
1F
100
AcDbEntity
  8
CUT
  6
CONTINUOUS
370
25
 62
1
100
AcDbLine
 10
15.9
 20
1.495
 30
0.0
 11
15.9
 21
1.5
 31
0.0
  0
LINE
  5
930
330
1F
100
AcDbEntity
  8
CUT
  6
CONTINUOUS
370
25
 62
1
100
AcDbLine
 10
15.9
 20
1.5
 30
0.0
 11
7.9
 21
1.4999
 31
0.0
  0
LINE
  5
931
330
1F
100
AcDbEntity
  8
CUT
  6
CONTINUOUS
370
25
 62
1
100
AcDbLine
 10
7.9
 20
1.4999
 30
0.0
 11
7.9
 21
1.4949
 31
0.0
  0
LINE
  5
932
330
1F
100
AcDbEntity
  8
CUT
  6
CONTINUOUS
370
25
 62
1
100
AcDbLine
 10
7.9
 20
1.4949
 30
0.0
 11
7.9
 21
0.0
 31
0.0
  0
LINE
  5
933
330
1F
100
AcDbEntity
  8
NOCUT
  6
CONTINUOUS
370
25
 62
7
100
AcDbLine
 10
0.0
 20
0.0
 30
0.0
 11
7.9
 21
0.0
 31
0.0
  0
LINE
  5
934
330
1F
100
AcDbEntity
  8
NOCUT
  6
CONTINUOUS
370
25
 62
7
100
AcDbLine
 10
7.9
 20
0.0
 30
0.0
 11
7.9
 21
1.49495
 31
0.0
  0
LINE
  5
935
330
1F
100
AcDbEntity
  8
NOCUT
  6
CONTINUOUS
370
25
 62
7
100
AcDbLine
 10
7.9
 20
1.49495
 30
0.0
 11
7.9
 21
1.49995
 31
0.0
  0
LINE
  5
936
330
1F
100
AcDbEntity
  8
NOCUT
  6
CONTINUOUS
370
25
 62
7
100
AcDbLine
 10
7.9
 20
1.49995
 30
0.0
 11
5.5
 21
1.49995
 31
0.0
  0
LINE
  5
937
330
1F
100
AcDbEntity
  8
NOCUT
  6
CONTINUOUS
370
25
 62
7
100
AcDbLine
 10
5.5
 20
1.49995
 30
0.0
 11
0.0
 21
2.99995
 31
0.0
  0
LINE
  5
938
330
1F
100
AcDbEntity
  8
NOCUT
  6
CONTINUOUS
370
25
 62
7
100
AcDbLine
 10
0.0
 20
2.99995
 30
0.0
 11
0.0
 21
0.0
 31
0.0
  0
LINE
  5
939
330
1F
100
AcDbEntity
  8
SK1
  6
CONTINUOUS
370
50
 62
4
100
AcDbLine
 10
0.0
 20
3.0
 30
0.0
 11
-43.7
 21
3.0
 31
0.0
  0
LINE
  5
93A
330
1F
100
AcDbEntity
  8
SK1
  6
CONTINUOUS
370
50
 62
4
100
AcDbLine
 10
-43.7
 20
3.0
 30
0.0
 11
-44.1
 21
2.6
 31
0.0
  0
LINE
  5
93B
330
1F
100
AcDbEntity
  8
SK1
  6
CONTINUOUS
370
50
 62
4
100
AcDbLine
 10
-44.1
 20
2.6
 30
0.0
 11
-44.1
 21
-2.6
 31
0.0
  0
LINE
  5
93C
330
1F
100
AcDbEntity
  8
SK1
  6
CONTINUOUS
370
50
 62
4
100
AcDbLine
 10
-44.1
 20
-2.6
 30
0.0
 11
-43.7
 21
-3.0
 31
0.0
  0
LINE
  5
93D
330
1F
100
AcDbEntity
  8
SK1
  6
CONTINUOUS
370
50
 62
4
100
AcDbLine
 10
-43.7
 20
-3.0
 30
0.0
 11
0.0
 21
-3.0
 31
0.0
  0
LINE
  5
93E
330
1F
100
AcDbEntity
  8
SK1
  6
CONTINUOUS
370
50
 62
4
100
AcDbLine
 10
-43.7
 20
3.0
 30
0.0
 11
-43.7
 21
-3.0
 31
0.0
  0
LINE
  5
93F
330
1F
100
AcDbEntity
  8
SK2
  6
CONTINUOUS
370
25
 62
7
100
AcDbLine
 10
-56.1000002
 20
-3.000001
 30
0.0
 11
-57.10000000000008
 21
-3.000001
 31
0.0
  0
LINE
  5
940
330
1F
100
AcDbEntity
  8
SK2
  6
CONTINUOUS
370
25
 62
7
100
AcDbLine
 10
-44.1
 20
-3.000001
 30
0.0
 11
-56.0999998
 21
-3.000001
 31
0.0
  0
LINE
  5
941
330
1F
100
AcDbEntity
  8
SK2
  6
CONTINUOUS
370
25
 62
7
100
AcDbLine
 10
-57.1
 20
3.0
 30
0.0
 11
-44.1
 21
3.0
 31
0.0
  0
LINE
  5
942
330
1F
100
AcDbEntity
  8
SK2
  6
CONTINUOUS
370
25
 62
7
100
AcDbLine
 10
-56.1
 20
-10.0
 30
0.0
 11
-56.1
 21
16.475
 31
0.0
  0
LINE
  5
943
330
1F
100
AcDbEntity
  8
SK2
  6
CONTINUOUS
370
25
 62
7
100
AcDbLine
 10
-56.1
 20
-3.0
 30
0.0
 11
-55.1
 21
-8.0
 31
0.0
  0
LINE
  5
944
330
1F
100
AcDbEntity
  8
SK2
  6
CONTINUOUS
370
25
 62
7
100
AcDbLine
 10
-55.1
 20
-8.0
 30
0.0
 11
-57.1
 21
-8.0
 31
0.0
  0
LINE
  5
945
330
1F
100
AcDbEntity
  8
SK2
  6
CONTINUOUS
370
25
 62
7
100
AcDbLine
 10
-57.1
 20
-8.0
 30
0.0
 11
-56.1
 21
-3.0
 31
0.0
  0
LINE
  5
946
330
1F
100
AcDbEntity
  8
SK2
  6
CONTINUOUS
370
25
 62
7
100
AcDbLine
 10
-55.51757569573596
 20
-8.0
 30
0.0
 11
-55.16959594928934
 21
-7.652020253553374
 31
0.0
  0
LINE
  5
947
330
1F
100
AcDbEntity
  8
SK2
  6
CONTINUOUS
370
25
 62
7
100
AcDbLine
 10
-55.9418397644479
 20
-8.0
 30
0.0
 11
-55.24030662740799
 21
-7.29846686296009
 31
0.0
  0
LINE
  5
948
330
1F
100
AcDbEntity
  8
SK2
  6
CONTINUOUS
370
25
 62
7
100
AcDbLine
 10
-56.36610383315983
 20
-8.0
 30
0.0
 11
-55.31101730552664
 21
-6.944913472366807
 31
0.0
  0
LINE
  5
949
330
1F
100
AcDbEntity
  8
SK2
  6
CONTINUOUS
370
25
 62
7
100
AcDbLine
 10
-56.79036790187175
 20
-8.0
 30
0.0
 11
-55.3817279836453
 21
-6.591360081773537
 31
0.0
  0
LINE
  5
94A
330
1F
100
AcDbEntity
  8
SK2
  6
CONTINUOUS
370
25
 62
7
100
AcDbLine
 10
-57.07134200735408
 20
-7.856710036770401
 30
0.0
 11
-55.45243866176395
 21
-6.237806691180261
 31
0.0
  0
LINE
  5
94B
330
1F
100
AcDbEntity
  8
SK2
  6
CONTINUOUS
370
25
 62
7
100
AcDbLine
 10
-56.9652759901761
 20
-7.326379950880472
 30
0.0
 11
-55.52314933988261
 21
-5.884253300586984
 31
0.0
  0
LINE
  5
94C
330
1F
100
AcDbEntity
  8
SK2
  6
CONTINUOUS
370
25
 62
7
100
AcDbLine
 10
-56.85920997299812
 20
-6.796049864990557
 30
0.0
 11
-55.59386001800126
 21
-5.5306999099937
 31
0.0
  0
LINE
  5
94D
330
1F
100
AcDbEntity
  8
SK2
  6
CONTINUOUS
370
25
 62
7
100
AcDbLine
 10
-56.75314395582014
 20
-6.26571977910065
 30
0.0
 11
-55.66457069611991
 21
-5.177146519400424
 31
0.0
  0
LINE
  5
94E
330
1F
100
AcDbEntity
  8
SK2
  6
CONTINUOUS
370
25
 62
7
100
AcDbLine
 10
-56.64707793864216
 20
-5.735389693210742
 30
0.0
 11
-55.73528137423857
 21
-4.823593128807154
 31
0.0
  0
LINE
  5
94F
330
1F
100
AcDbEntity
  8
SK2
  6
CONTINUOUS
370
25
 62
7
100
AcDbLine
 10
-56.54101192146417
 20
-5.20505960732082
 30
0.0
 11
-55.80599205235722
 21
-4.47003973821387
 31
0.0
  0
LINE
  5
950
330
1F
100
AcDbEntity
  8
SK2
  6
CONTINUOUS
370
25
 62
7
100
AcDbLine
 10
-56.43494590428618
 20
-4.674729521430898
 30
0.0
 11
-55.87670273047588
 21
-4.116486347620601
 31
0.0
  0
LINE
  5
951
330
1F
100
AcDbEntity
  8
SK2
  6
CONTINUOUS
370
25
 62
7
100
AcDbLine
 10
-56.3288798871082
 20
-4.14439943554099
 30
0.0
 11
-55.94741340859454
 21
-3.762932957027324
 31
0.0
  0
LINE
  5
952
330
1F
100
AcDbEntity
  8
SK2
  6
CONTINUOUS
370
25
 62
7
100
AcDbLine
 10
-56.22281386993022
 20
-3.614069349651082
 30
0.0
 11
-56.01812408671319
 21
-3.409379566434048
 31
0.0
  0
LINE
  5
953
330
1F
100
AcDbEntity
  8
SK2
  6
CONTINUOUS
370
25
 62
7
100
AcDbLine
 10
-56.11674785275223
 20
-3.08373926376116
 30
0.0
 11
-56.08883476483185
 21
-3.055826175840778
 31
0.0
  0
LINE
  5
954
330
1F
100
AcDbEntity
  8
SK2
  6
CONTINUOUS
370
25
 62
7
100
AcDbLine
 10
-57.07798261215265
 20
-7.889913060763256
 30
0.0
 11
-56.96789567291591
 21
-8.0
 31
0.0
  0
LINE
  5
955
330
1F
100
AcDbEntity
  8
SK2
  6
CONTINUOUS
370
25
 62
7
100
AcDbLine
 10
-57.00727193403399
 20
-7.536359670169986
 30
0.0
 11
-56.54363160420397
 21
-8.0
 31
0.0
  0
LINE
  5
956
330
1F
100
AcDbEntity
  8
SK2
  6
CONTINUOUS
370
25
 62
7
100
AcDbLine
 10
-56.93656125591534
 20
-7.182806279576702
 30
0.0
 11
-56.11936753549204
 21
-8.0
 31
0.0
  0
LINE
  5
957
330
1F
100
AcDbEntity
  8
SK2
  6
CONTINUOUS
370
25
 62
7
100
AcDbLine
 10
-56.86585057779669
 20
-6.829252888983426
 30
0.0
 11
-55.69510346678011
 21
-8.0
 31
0.0
  0
LINE
  5
958
330
1F
100
AcDbEntity
  8
SK2
  6
CONTINUOUS
370
25
 62
7
100
AcDbLine
 10
-56.79513989967803
 20
-6.475699498390149
 30
0.0
 11
-55.27083939806818
 21
-8.0
 31
0.0
  0
LINE
  5
959
330
1F
100
AcDbEntity
  8
SK2
  6
CONTINUOUS
370
25
 62
7
100
AcDbLine
 10
-56.72442922155938
 20
-6.122146107796873
 30
0.0
 11
-55.16335616766094
 21
-7.683219161695305
 31
0.0
  0
LINE
  5
95A
330
1F
100
AcDbEntity
  8
SK2
  6
CONTINUOUS
370
25
 62
7
100
AcDbLine
 10
-56.65371854344071
 20
-5.768592717203603
 30
0.0
 11
-55.26942218483892
 21
-7.15288907580539
 31
0.0
  0
LINE
  5
95B
330
1F
100
AcDbEntity
  8
SK2
  6
CONTINUOUS
370
25
 62
7
100
AcDbLine
 10
-56.58300786532207
 20
-5.415039326610319
 30
0.0
 11
-55.3754882020169
 21
-6.622558989915483
 31
0.0
  0
LINE
  5
95C
330
1F
100
AcDbEntity
  8
SK2
  6
CONTINUOUS
370
25
 62
7
100
AcDbLine
 10
-56.51229718720341
 20
-5.061485936017043
 30
0.0
 11
-55.48155421919489
 21
-6.092228904025561
 31
0.0
  0
LINE
  5
95D
330
1F
100
AcDbEntity
  8
SK2
  6
CONTINUOUS
370
25
 62
7
100
AcDbLine
 10
-56.44158650908475
 20
-4.707932545423766
 30
0.0
 11
-55.58762023637287
 21
-5.561898818135646
 31
0.0
  0
LINE
  5
95E
330
1F
100
AcDbEntity
  8
SK2
  6
CONTINUOUS
370
25
 62
7
100
AcDbLine
 10
-56.3708758309661
 20
-4.35437915483049
 30
0.0
 11
-55.69368625355085
 21
-5.031568732245738
 31
0.0
  0
LINE
  5
95F
330
1F
100
AcDbEntity
  8
SK2
  6
CONTINUOUS
370
25
 62
7
100
AcDbLine
 10
-56.30016515284745
 20
-4.000825764237206
 30
0.0
 11
-55.79975227072883
 21
-4.501238646355823
 31
0.0
  0
LINE
  5
960
330
1F
100
AcDbEntity
  8
SK2
  6
CONTINUOUS
370
25
 62
7
100
AcDbLine
 10
-56.22945447472879
 20
-3.647272373643936
 30
0.0
 11
-55.90581828790681
 21
-3.970908560465915
 31
0.0
  0
LINE
  5
961
330
1F
100
AcDbEntity
  8
SK2
  6
CONTINUOUS
370
25
 62
7
100
AcDbLine
 10
-56.15874379661013
 20
-3.29371898305066
 30
0.0
 11
-56.0118843050848
 21
-3.440578474575993
 31
0.0
  0
LINE
  5
962
330
1F
100
AcDbEntity
  8
SK2
  6
CONTINUOUS
370
25
 62
7
100
AcDbLine
 10
-56.1
 20
3.0
 30
0.0
 11
-57.1
 21
8.0
 31
0.0
  0
LINE
  5
963
330
1F
100
AcDbEntity
  8
SK2
  6
CONTINUOUS
370
25
 62
7
100
AcDbLine
 10
-57.1
 20
8.0
 30
0.0
 11
-55.1
 21
8.0
 31
0.0
  0
LINE
  5
964
330
1F
100
AcDbEntity
  8
SK2
  6
CONTINUOUS
370
25
 62
7
100
AcDbLine
 10
-55.1
 20
8.0
 30
0.0
 11
-56.1
 21
3.0
 31
0.0
  0
LINE
  5
965
330
1F
100
AcDbEntity
  8
SK2
  6
CONTINUOUS
370
25
 62
7
100
AcDbLine
 10
-56.14949493661166
 20
3.247474683058307
 30
0.0
 11
-56.02575759508251
 21
3.371212024587457
 31
0.0
  0
LINE
  5
966
330
1F
100
AcDbEntity
  8
SK2
  6
CONTINUOUS
370
25
 62
7
100
AcDbLine
 10
-56.22020561473031
 20
3.601028073651584
 30
0.0
 11
-55.91969157790453
 21
3.901542110477365
 31
0.0
  0
LINE
  5
967
330
1F
100
AcDbEntity
  8
SK2
  6
CONTINUOUS
370
25
 62
7
100
AcDbLine
 10
-56.29091629284897
 20
3.95458146424486
 30
0.0
 11
-55.81362556072655
 21
4.43187219636728
 31
0.0
  0
LINE
  5
968
330
1F
100
AcDbEntity
  8
SK2
  6
CONTINUOUS
370
25
 62
7
100
AcDbLine
 10
-56.36162697096762
 20
4.308134854838137
 30
0.0
 11
-55.70755954354857
 21
4.962202282257188
 31
0.0
  0
LINE
  5
969
330
1F
100
AcDbEntity
  8
SK2
  6
CONTINUOUS
370
25
 62
7
100
AcDbLine
 10
-56.43233764908629
 20
4.661688245431407
 30
0.0
 11
-55.60149352637058
 21
5.49253236814711
 31
0.0
  0
LINE
  5
96A
330
1F
100
AcDbEntity
  8
SK2
  6
CONTINUOUS
370
25
 62
7
100
AcDbLine
 10
-56.50304832720494
 20
5.015241636024676
 30
0.0
 11
-55.49542750919259
 21
6.022862454037025
 31
0.0
  0
LINE
  5
96B
330
1F
100
AcDbEntity
  8
SK2
  6
CONTINUOUS
370
25
 62
7
100
AcDbLine
 10
-56.5737590053236
 20
5.368795026617946
 30
0.0
 11
-55.38936149201461
 21
6.55319253992694
 31
0.0
  0
LINE
  5
96C
330
1F
100
AcDbEntity
  8
SK2
  6
CONTINUOUS
370
25
 62
7
100
AcDbLine
 10
-56.64446968344225
 20
5.722348417211229
 30
0.0
 11
-55.28329547483662
 21
7.083522625816862
 31
0.0
  0
LINE
  5
96D
330
1F
100
AcDbEntity
  8
SK2
  6
CONTINUOUS
370
25
 62
7
100
AcDbLine
 10
-56.7151803615609
 20
6.075901807804506
 30
0.0
 11
-55.17722945765864
 21
7.61385271170677
 31
0.0
  0
LINE
  5
96E
330
1F
100
AcDbEntity
  8
SK2
  6
CONTINUOUS
370
25
 62
7
100
AcDbLine
 10
-56.78589103967956
 20
6.429455198397783
 30
0.0
 11
-55.21534623807734
 21
8.0
 31
0.0
  0
LINE
  5
96F
330
1F
100
AcDbEntity
  8
SK2
  6
CONTINUOUS
370
25
 62
7
100
AcDbLine
 10
-56.85660171779821
 20
6.783008588991059
 30
0.0
 11
-55.63961030678927
 21
8.0
 31
0.0
  0
LINE
  5
970
330
1F
100
AcDbEntity
  8
SK2
  6
CONTINUOUS
370
25
 62
7
100
AcDbLine
 10
-56.92731239591686
 20
7.136561979584336
 30
0.0
 11
-56.0638743755012
 21
8.0
 31
0.0
  0
LINE
  5
971
330
1F
100
AcDbEntity
  8
SK2
  6
CONTINUOUS
370
25
 62
7
100
AcDbLine
 10
-56.99802307403552
 20
7.490115370177612
 30
0.0
 11
-56.48813844421313
 21
8.0
 31
0.0
  0
LINE
  5
972
330
1F
100
AcDbEntity
  8
SK2
  6
CONTINUOUS
370
25
 62
7
100
AcDbLine
 10
-57.06873375215418
 20
7.843668760770889
 30
0.0
 11
-56.91240251292507
 21
8.0
 31
0.0
  0
LINE
  5
973
330
1F
100
AcDbEntity
  8
SK2
  6
CONTINUOUS
370
25
 62
7
100
AcDbLine
 10
-56.19350768667744
 20
3.467538433387219
 30
0.0
 11
-56.03766154221504
 21
3.311692288924824
 31
0.0
  0
LINE
  5
974
330
1F
100
AcDbEntity
  8
SK2
  6
CONTINUOUS
370
25
 62
7
100
AcDbLine
 10
-56.29957370385543
 20
3.997868519277148
 30
0.0
 11
-55.96695086409638
 21
3.665245679518094
 31
0.0
  0
LINE
  5
975
330
1F
100
AcDbEntity
  8
SK2
  6
CONTINUOUS
370
25
 62
7
100
AcDbLine
 10
-56.40563972103341
 20
4.528198605167063
 30
0.0
 11
-55.89624018597772
 21
4.018799070111378
 31
0.0
  0
LINE
  5
976
330
1F
100
AcDbEntity
  8
SK2
  6
CONTINUOUS
370
25
 62
7
100
AcDbLine
 10
-56.51170573821139
 20
5.058528691056971
 30
0.0
 11
-55.82552950785907
 21
4.372352460704654
 31
0.0
  0
LINE
  5
977
330
1F
100
AcDbEntity
  8
SK2
  6
CONTINUOUS
370
25
 62
7
100
AcDbLine
 10
-56.61777175538938
 20
5.588858776946886
 30
0.0
 11
-55.75481882974042
 21
4.725905851297924
 31
0.0
  0
LINE
  5
978
330
1F
100
AcDbEntity
  8
SK2
  6
CONTINUOUS
370
25
 62
7
100
AcDbLine
 10
-56.72383777256736
 20
6.119188862836808
 30
0.0
 11
-55.68410815162176
 21
5.0794592418912
 31
0.0
  0
LINE
  5
979
330
1F
100
AcDbEntity
  8
SK2
  6
CONTINUOUS
370
25
 62
7
100
AcDbLine
 10
-56.82990378974534
 20
6.649518948726723
 30
0.0
 11
-55.6133974735031
 21
5.433012632484477
 31
0.0
  0
LINE
  5
97A
330
1F
100
AcDbEntity
  8
SK2
  6
CONTINUOUS
370
25
 62
7
100
AcDbLine
 10
-56.93596980692332
 20
7.179849034616623
 30
0.0
 11
-55.54268679538445
 21
5.786566023077746
 31
0.0
  0
LINE
  5
97B
330
1F
100
AcDbEntity
  8
SK2
  6
CONTINUOUS
370
25
 62
7
100
AcDbLine
 10
-57.0420358241013
 20
7.710179120506531
 30
0.0
 11
-55.4719761172658
 21
6.140119413671023
 31
0.0
  0
LINE
  5
97C
330
1F
100
AcDbEntity
  8
SK2
  6
CONTINUOUS
370
25
 62
7
100
AcDbLine
 10
-56.90759263488284
 20
8.0
 30
0.0
 11
-55.40126543914714
 21
6.4936728042643
 31
0.0
  0
LINE
  5
97D
330
1F
100
AcDbEntity
  8
SK2
  6
CONTINUOUS
370
25
 62
7
100
AcDbLine
 10
-56.4833285661709
 20
8.0
 30
0.0
 11
-55.33055476102848
 21
6.847226194857576
 31
0.0
  0
LINE
  5
97E
330
1F
100
AcDbEntity
  8
SK2
  6
CONTINUOUS
370
25
 62
7
100
AcDbLine
 10
-56.05906449745898
 20
8.0
 30
0.0
 11
-55.25984408290982
 21
7.200779585450846
 31
0.0
  0
LINE
  5
97F
330
1F
100
AcDbEntity
  8
SK2
  6
CONTINUOUS
370
25
 62
7
100
AcDbLine
 10
-55.63480042874704
 20
8.0
 30
0.0
 11
-55.18913340479118
 21
7.554332976044137
 31
0.0
  0
LINE
  5
980
330
1F
100
AcDbEntity
  8
SK2
  6
CONTINUOUS
370
25
 62
7
100
AcDbLine
 10
-55.21053636003511
 20
8.0
 30
0.0
 11
-55.11842272667252
 21
7.907886366637413
 31
0.0
  0
TEXT
  5
981
330
1F
100
AcDbEntity
  8
SK2
  6
CONTINUOUS
370
25
 62
7
100
AcDbText
 10
-57.6
 20
13.34583333333333
 30
0.0
 40
3.5
  1
6
 50
90.00000000000001
 72
     1
 11
-57.6
 21
14.5125
 31
0.0
100
AcDbText
  0
CIRCLE
  5
982
330
1F
100
AcDbEntity
  8
SK2
  6
CONTINUOUS
370
25
 62
7
100
AcDbCircle
 10
-59.35
 20
11.1875
 30
0.0
 40
1.4
  0
LINE
  5
983
330
1F
100
AcDbEntity
  8
SK2
  6
CONTINUOUS
370
25
 62
7
100
AcDbLine
 10
-57.95
 20
9.787500000000001
 30
0.0
 11
-60.75
 21
12.5875
 31
0.0
  0
LINE
  5
984
330
1F
100
AcDbEntity
  8
SK2
  6
CONTINUOUS
370
25
 62
7
100
AcDbLine
 10
-44.1
 20
3.0
 30
0.0
 11
-44.1
 21
16.0
 31
0.0
  0
LINE
  5
985
330
1F
100
AcDbEntity
  8
SK2
  6
CONTINUOUS
370
25
 62
7
100
AcDbLine
 10
0.0000000000000001
 20
16.0
 30
0.0
 11
-0.0000000000000007
 21
3.0
 31
0.0
  0
LINE
  5
986
330
1F
100
AcDbEntity
  8
SK2
  6
CONTINUOUS
370
25
 62
7
100
AcDbLine
 10
-44.1
 20
15.0
 30
0.0
 11
0.0
 21
15.0
 31
0.0
  0
LINE
  5
987
330
1F
100
AcDbEntity
  8
SK2
  6
CONTINUOUS
370
25
 62
7
100
AcDbLine
 10
-44.1
 20
15.0
 30
0.0
 11
-39.1
 21
16.0
 31
0.0
  0
LINE
  5
988
330
1F
100
AcDbEntity
  8
SK2
  6
CONTINUOUS
370
25
 62
7
100
AcDbLine
 10
-39.1
 20
16.0
 30
0.0
 11
-39.1
 21
14.0
 31
0.0
  0
LINE
  5
989
330
1F
100
AcDbEntity
  8
SK2
  6
CONTINUOUS
370
25
 62
7
100
AcDbLine
 10
-39.1
 20
14.0
 30
0.0
 11
-44.1
 21
15.0
 31
0.0
  0
LINE
  5
98A
330
1F
100
AcDbEntity
  8
SK2
  6
CONTINUOUS
370
25
 62
7
100
AcDbLine
 10
-39.39772721475247
 20
14.05954544295049
 30
0.0
 11
-39.1
 21
14.35727265770296
 31
0.0
  0
LINE
  5
98B
330
1F
100
AcDbEntity
  8
SK2
  6
CONTINUOUS
370
25
 62
7
100
AcDbLine
 10
-39.75128060534574
 20
14.13025612106915
 30
0.0
 11
-39.1
 21
14.78153672641489
 31
0.0
  0
LINE
  5
98C
330
1F
100
AcDbEntity
  8
SK2
  6
CONTINUOUS
370
25
 62
7
100
AcDbLine
 10
-40.10483399593902
 20
14.20096679918781
 30
0.0
 11
-39.1
 21
15.20580079512683
 31
0.0
  0
LINE
  5
98D
330
1F
100
AcDbEntity
  8
SK2
  6
CONTINUOUS
370
25
 62
7
100
AcDbLine
 10
-40.4583873865323
 20
14.27167747730646
 30
0.0
 11
-39.1
 21
15.63006486383876
 31
0.0
  0
LINE
  5
98E
330
1F
100
AcDbEntity
  8
SK2
  6
CONTINUOUS
370
25
 62
7
100
AcDbLine
 10
-40.81194077712557
 20
14.34238815542512
 30
0.0
 11
-39.16791116568837
 21
15.98641776686232
 31
0.0
  0
LINE
  5
98F
330
1F
100
AcDbEntity
  8
SK2
  6
CONTINUOUS
370
25
 62
7
100
AcDbLine
 10
-41.16549416771885
 20
14.41309883354377
 30
0.0
 11
-39.69824125157827
 21
15.88035174968434
 31
0.0
  0
LINE
  5
990
330
1F
100
AcDbEntity
  8
SK2
  6
CONTINUOUS
370
25
 62
7
100
AcDbLine
 10
-41.51904755831212
 20
14.48380951166243
 30
0.0
 11
-40.2285713374682
 21
15.77428573250636
 31
0.0
  0
LINE
  5
991
330
1F
100
AcDbEntity
  8
SK2
  6
CONTINUOUS
370
25
 62
7
100
AcDbLine
 10
-41.8726009489054
 20
14.55452018978109
 30
0.0
 11
-40.75890142335811
 21
15.66821971532838
 31
0.0
  0
LINE
  5
992
330
1F
100
AcDbEntity
  8
SK2
  6
CONTINUOUS
370
25
 62
7
100
AcDbLine
 10
-42.22615433949868
 20
14.62523086789974
 30
0.0
 11
-41.28923150924802
 21
15.5621536981504
 31
0.0
  0
LINE
  5
993
330
1F
100
AcDbEntity
  8
SK2
  6
CONTINUOUS
370
25
 62
7
100
AcDbLine
 10
-42.57970773009195
 20
14.6959415460184
 30
0.0
 11
-41.81956159513793
 21
15.45608768097241
 31
0.0
  0
LINE
  5
994
330
1F
100
AcDbEntity
  8
SK2
  6
CONTINUOUS
370
25
 62
7
100
AcDbLine
 10
-42.93326112068523
 20
14.76665222413705
 30
0.0
 11
-42.34989168102785
 21
15.35002166379443
 31
0.0
  0
LINE
  5
995
330
1F
100
AcDbEntity
  8
SK2
  6
CONTINUOUS
370
25
 62
7
100
AcDbLine
 10
-43.28681451127851
 20
14.83736290225571
 30
0.0
 11
-42.88022176691777
 21
15.24395564661644
 31
0.0
  0
LINE
  5
996
330
1F
100
AcDbEntity
  8
SK2
  6
CONTINUOUS
370
25
 62
7
100
AcDbLine
 10
-43.64036790187178
 20
14.90807358037436
 30
0.0
 11
-43.41055185280768
 21
15.13788962943846
 31
0.0
  0
LINE
  5
997
330
1F
100
AcDbEntity
  8
SK2
  6
CONTINUOUS
370
25
 62
7
100
AcDbLine
 10
-43.99392129246505
 20
14.97878425849301
 30
0.0
 11
-43.94088193869759
 21
15.03182361226048
 31
0.0
  0
LINE
  5
998
330
1F
100
AcDbEntity
  8
SK2
  6
CONTINUOUS
370
25
 62
7
100
AcDbLine
 10
-43.94085097489175
 20
15.03182980502165
 30
0.0
 11
-43.86127646233762
 21
14.95225529246752
 31
0.0
  0
LINE
  5
999
330
1F
100
AcDbEntity
  8
SK2
  6
CONTINUOUS
370
25
 62
7
100
AcDbLine
 10
-43.58729758429847
 20
15.1025404831403
 30
0.0
 11
-43.33094637644771
 21
14.84618927528955
 31
0.0
  0
LINE
  5
99A
330
1F
100
AcDbEntity
  8
SK2
  6
CONTINUOUS
370
25
 62
7
100
AcDbLine
 10
-43.2337441937052
 20
15.17325116125896
 30
0.0
 11
-42.80061629055781
 21
14.74012325811157
 31
0.0
  0
LINE
  5
99B
330
1F
100
AcDbEntity
  8
SK2
  6
CONTINUOUS
370
25
 62
7
100
AcDbLine
 10
-42.88019080311192
 20
15.24396183937761
 30
0.0
 11
-42.27028620466788
 21
14.63405724093358
 31
0.0
  0
LINE
  5
99C
330
1F
100
AcDbEntity
  8
SK2
  6
CONTINUOUS
370
25
 62
7
100
AcDbLine
 10
-42.52663741251864
 20
15.31467251749627
 30
0.0
 11
-41.73995611877796
 21
14.52799122375559
 31
0.0
  0
LINE
  5
99D
330
1F
100
AcDbEntity
  8
SK2
  6
CONTINUOUS
370
25
 62
7
100
AcDbLine
 10
-42.17308402192536
 20
15.38538319561492
 30
0.0
 11
-41.20962603288805
 21
14.42192520657761
 31
0.0
  0
LINE
  5
99E
330
1F
100
AcDbEntity
  8
SK2
  6
CONTINUOUS
370
25
 62
7
100
AcDbLine
 10
-41.81953063133209
 20
15.45609387373358
 30
0.0
 11
-40.67929594699815
 21
14.31585918939963
 31
0.0
  0
LINE
  5
99F
330
1F
100
AcDbEntity
  8
SK2
  6
CONTINUOUS
370
25
 62
7
100
AcDbLine
 10
-41.46597724073882
 20
15.52680455185223
 30
0.0
 11
-40.14896586110823
 21
14.20979317222164
 31
0.0
  0
LINE
  5
9A0
330
1F
100
AcDbEntity
  8
SK2
  6
CONTINUOUS
370
25
 62
7
100
AcDbLine
 10
-41.11242385014555
 20
15.59751522997089
 30
0.0
 11
-39.61863577521832
 21
14.10372715504366
 31
0.0
  0
LINE
  5
9A1
330
1F
100
AcDbEntity
  8
SK2
  6
CONTINUOUS
370
25
 62
7
100
AcDbLine
 10
-40.75887045955226
 20
15.66822590808954
 30
0.0
 11
-39.1
 21
14.00935544853728
 31
0.0
  0
LINE
  5
9A2
330
1F
100
AcDbEntity
  8
SK2
  6
CONTINUOUS
370
25
 62
7
100
AcDbLine
 10
-40.40531706895899
 20
15.73893658620819
 30
0.0
 11
-39.1
 21
14.43361951724922
 31
0.0
  0
LINE
  5
9A3
330
1F
100
AcDbEntity
  8
SK2
  6
CONTINUOUS
370
25
 62
7
100
AcDbLine
 10
-40.05176367836572
 20
15.80964726432686
 30
0.0
 11
-39.1
 21
14.85788358596115
 31
0.0
  0
LINE
  5
9A4
330
1F
100
AcDbEntity
  8
SK2
  6
CONTINUOUS
370
25
 62
7
100
AcDbLine
 10
-39.69821028777244
 20
15.88035794244551
 30
0.0
 11
-39.1
 21
15.28214765467308
 31
0.0
  0
LINE
  5
9A5
330
1F
100
AcDbEntity
  8
SK2
  6
CONTINUOUS
370
25
 62
7
100
AcDbLine
 10
-39.34465689717916
 20
15.95106862056416
 30
0.0
 11
-39.1
 21
15.70641172338501
 31
0.0
  0
LINE
  5
9A6
330
1F
100
AcDbEntity
  8
SK2
  6
CONTINUOUS
370
25
 62
7
100
AcDbLine
 10
0.0
 20
15.0
 30
0.0
 11
-5.0
 21
14.0
 31
0.0
  0
LINE
  5
9A7
330
1F
100
AcDbEntity
  8
SK2
  6
CONTINUOUS
370
25
 62
7
100
AcDbLine
 10
-5.0
 20
14.0
 30
0.0
 11
-5.0
 21
16.0
 31
0.0
  0
LINE
  5
9A8
330
1F
100
AcDbEntity
  8
SK2
  6
CONTINUOUS
370
25
 62
7
100
AcDbLine
 10
-5.0
 20
16.0
 30
0.0
 11
0.0
 21
15.0
 31
0.0
  0
LINE
  5
9A9
330
1F
100
AcDbEntity
  8
SK2
  6
CONTINUOUS
370
25
 62
7
100
AcDbLine
 10
-0.341883092036781
 20
14.93162338159264
 30
0.0
 11
-0.227922061357854
 21
15.04558441227157
 31
0.0
  0
LINE
  5
9AA
330
1F
100
AcDbEntity
  8
SK2
  6
CONTINUOUS
370
25
 62
7
100
AcDbLine
 10
-0.8722131779266906
 20
14.82555736441466
 30
0.0
 11
-0.5814754519511272
 21
15.11629509039023
 31
0.0
  0
LINE
  5
9AB
330
1F
100
AcDbEntity
  8
SK2
  6
CONTINUOUS
370
25
 62
7
100
AcDbLine
 10
-1.4025432638166
 20
14.71949134723668
 30
0.0
 11
-0.9350288425444002
 21
15.18700576850888
 31
0.0
  0
LINE
  5
9AC
330
1F
100
AcDbEntity
  8
SK2
  6
CONTINUOUS
370
25
 62
7
100
AcDbLine
 10
-1.93287334970651
 20
14.6134253300587
 30
0.0
 11
-1.288582233137673
 21
15.25771644662754
 31
0.0
  0
LINE
  5
9AD
330
1F
100
AcDbEntity
  8
SK2
  6
CONTINUOUS
370
25
 62
7
100
AcDbLine
 10
-2.463203435596419
 20
14.50735931288072
 30
0.0
 11
-1.642135623730946
 21
15.32842712474619
 31
0.0
  0
LINE
  5
9AE
330
1F
100
AcDbEntity
  8
SK2
  6
CONTINUOUS
370
25
 62
7
100
AcDbLine
 10
-2.993533521486328
 20
14.40129329570273
 30
0.0
 11
-1.995689014324219
 21
15.39913780286484
 31
0.0
  0
LINE
  5
9AF
330
1F
100
AcDbEntity
  8
SK2
  6
CONTINUOUS
370
25
 62
7
100
AcDbLine
 10
-3.523863607376237
 20
14.29522727852475
 30
0.0
 11
-2.349242404917492
 21
15.4698484809835
 31
0.0
  0
LINE
  5
9B0
330
1F
100
AcDbEntity
  8
SK2
  6
CONTINUOUS
370
25
 62
7
100
AcDbLine
 10
-4.054193693266146
 20
14.18916126134677
 30
0.0
 11
-2.702795795510765
 21
15.54055915910215
 31
0.0
  0
LINE
  5
9B1
330
1F
100
AcDbEntity
  8
SK2
  6
CONTINUOUS
370
25
 62
7
100
AcDbLine
 10
-4.58452377915606
 20
14.08309524416879
 30
0.0
 11
-3.056349186104041
 21
15.61126983722081
 31
0.0
  0
LINE
  5
9B2
330
1F
100
AcDbEntity
  8
SK2
  6
CONTINUOUS
370
25
 62
7
100
AcDbLine
 10
-5.0
 20
14.09188309203678
 30
0.0
 11
-3.409902576697313
 21
15.68198051533946
 31
0.0
  0
LINE
  5
9B3
330
1F
100
AcDbEntity
  8
SK2
  6
CONTINUOUS
370
25
 62
7
100
AcDbLine
 10
-5.0
 20
14.5161471607487
 30
0.0
 11
-3.763455967290586
 21
15.75269119345812
 31
0.0
  0
LINE
  5
9B4
330
1F
100
AcDbEntity
  8
SK2
  6
CONTINUOUS
370
25
 62
7
100
AcDbLine
 10
-5.0
 20
14.94041122946063
 30
0.0
 11
-4.117009357883859
 21
15.82340187157677
 31
0.0
  0
LINE
  5
9B5
330
1F
100
AcDbEntity
  8
SK2
  6
CONTINUOUS
370
25
 62
7
100
AcDbLine
 10
-5.0
 20
15.36467529817256
 30
0.0
 11
-4.470562748477132
 21
15.89411254969543
 31
0.0
  0
LINE
  5
9B6
330
1F
100
AcDbEntity
  8
SK2
  6
CONTINUOUS
370
25
 62
7
100
AcDbLine
 10
-5.0
 20
15.78893936688449
 30
0.0
 11
-4.824116139070405
 21
15.96482322781408
 31
0.0
  0
LINE
  5
9B7
330
1F
100
AcDbEntity
  8
SK2
  6
CONTINUOUS
370
25
 62
7
100
AcDbLine
 10
-5.0
 20
14.3338095116624
 30
0.0
 11
-4.721825406947999
 21
14.0556349186104
 31
0.0
  0
LINE
  5
9B8
330
1F
100
AcDbEntity
  8
SK2
  6
CONTINUOUS
370
25
 62
7
100
AcDbLine
 10
-5.0
 20
14.75807358037433
 30
0.0
 11
-4.368272016354727
 21
14.12634559672905
 31
0.0
  0
LINE
  5
9B9
330
1F
100
AcDbEntity
  8
SK2
  6
CONTINUOUS
370
25
 62
7
100
AcDbLine
 10
-5.0
 20
15.18233764908625
 30
0.0
 11
-4.014718625761454
 21
14.19705627484771
 31
0.0
  0
LINE
  5
9BA
330
1F
100
AcDbEntity
  8
SK2
  6
CONTINUOUS
370
25
 62
7
100
AcDbLine
 10
-5.0
 20
15.60660171779818
 30
0.0
 11
-3.661165235168179
 21
14.26776695296637
 31
0.0
  0
LINE
  5
9BB
330
1F
100
AcDbEntity
  8
SK2
  6
CONTINUOUS
370
25
 62
7
100
AcDbLine
 10
-4.961417766862361
 20
15.99228355337247
 30
0.0
 11
-3.307611844574905
 21
14.33847763108502
 31
0.0
  0
LINE
  5
9BC
330
1F
100
AcDbEntity
  8
SK2
  6
CONTINUOUS
370
25
 62
7
100
AcDbLine
 10
-4.431087680972451
 20
15.88621753619449
 30
0.0
 11
-2.954058453981632
 21
14.40918830920367
 31
0.0
  0
LINE
  5
9BD
330
1F
100
AcDbEntity
  8
SK2
  6
CONTINUOUS
370
25
 62
7
100
AcDbLine
 10
-3.90075759508254
 20
15.78015151901651
 30
0.0
 11
-2.600505063388358
 21
14.47989898732233
 31
0.0
  0
LINE
  5
9BE
330
1F
100
AcDbEntity
  8
SK2
  6
CONTINUOUS
370
25
 62
7
100
AcDbLine
 10
-3.370427509192631
 20
15.67408550183853
 30
0.0
 11
-2.246951672795086
 21
14.55060966544098
 31
0.0
  0
LINE
  5
9BF
330
1F
100
AcDbEntity
  8
SK2
  6
CONTINUOUS
370
25
 62
7
100
AcDbLine
 10
-2.840097423302721
 20
15.56801948466054
 30
0.0
 11
-1.893398282201812
 21
14.62132034355964
 31
0.0
  0
LINE
  5
9C0
330
1F
100
AcDbEntity
  8
SK2
  6
CONTINUOUS
370
25
 62
7
100
AcDbLine
 10
-2.30976733741281
 20
15.46195346748256
 30
0.0
 11
-1.539844891608539
 21
14.69203102167829
 31
0.0
  0
LINE
  5
9C1
330
1F
100
AcDbEntity
  8
SK2
  6
CONTINUOUS
370
25
 62
7
100
AcDbLine
 10
-1.7794372515229
 20
15.35588745030458
 30
0.0
 11
-1.186291501015265
 21
14.76274169979695
 31
0.0
  0
LINE
  5
9C2
330
1F
100
AcDbEntity
  8
SK2
  6
CONTINUOUS
370
25
 62
7
100
AcDbLine
 10
-1.249107165632989
 20
15.2498214331266
 30
0.0
 11
-0.8327381104219916
 21
14.8334523779156
 31
0.0
  0
LINE
  5
9C3
330
1F
100
AcDbEntity
  8
SK2
  6
CONTINUOUS
370
25
 62
7
100
AcDbLine
 10
-0.7187770797430799
 20
15.14375541594862
 30
0.0
 11
-0.4791847198287195
 21
14.90416305603426
 31
0.0
  0
LINE
  5
9C4
330
1F
100
AcDbEntity
  8
SK2
  6
CONTINUOUS
370
25
 62
7
100
AcDbLine
 10
-0.1884469938531668
 20
15.03768939877063
 30
0.0
 11
-0.1256313292354444
 21
14.97487373415291
 31
0.0
  0
TEXT
  5
9C5
330
1F
100
AcDbEntity
  8
SK2
  6
CONTINUOUS
370
25
 62
7
100
AcDbText
 10
-26.71666666666667
 20
16.5
 30
0.0
 40
3.5
  1
44.1
 72
     1
 11
-22.05
 21
16.5
 31
0.0
100
AcDbText
  0
LINE
  5
9C6
330
1F
100
AcDbEntity
  8
2
  6
CONTINUOUS
370
25
 62
7
100
AcDbLine
 10
15.9
 20
-1.5
 30
0.0
 11
35.9
 21
-1.500000000000002
 31
0.0
  0
LINE
  5
9C7
330
1F
100
AcDbEntity
  8
2
  6
CONTINUOUS
370
25
 62
7
100
AcDbLine
 10
35.9
 20
1.499999999999998
 30
0.0
 11
15.9
 21
1.5
 31
0.0
  0
LINE
  5
9C8
330
1F
100
AcDbEntity
  8
2
  6
CONTINUOUS
370
25
 62
7
100
AcDbLine
 10
34.9
 20
-8.500000000000002
 30
0.0
 11
34.9
 21
14.975
 31
0.0
  0
LINE
  5
9C9
330
1F
100
AcDbEntity
  8
2
  6
CONTINUOUS
370
25
 62
7
100
AcDbLine
 10
34.9
 20
-1.500000000000002
 30
0.0
 11
35.9
 21
-6.500000000000002
 31
0.0
  0
LINE
  5
9CA
330
1F
100
AcDbEntity
  8
2
  6
CONTINUOUS
370
25
 62
7
100
AcDbLine
 10
35.9
 20
-6.500000000000002
 30
0.0
 11
33.9
 21
-6.500000000000002
 31
0.0
  0
LINE
  5
9CB
330
1F
100
AcDbEntity
  8
2
  6
CONTINUOUS
370
25
 62
7
100
AcDbLine
 10
33.9
 20
-6.500000000000002
 30
0.0
 11
34.9
 21
-1.500000000000002
 31
0.0
  0
LINE
  5
9CC
330
1F
100
AcDbEntity
  8
2
  6
CONTINUOUS
370
25
 62
7
100
AcDbLine
 10
35.55389131464806
 20
-6.5
 30
0.0
 11
35.84231521910801
 21
-6.211576095540046
 31
0.0
  0
LINE
  5
9CD
330
1F
100
AcDbEntity
  8
2
  6
CONTINUOUS
370
25
 62
7
100
AcDbLine
 10
35.12962724593613
 20
-6.5
 30
0.0
 11
35.77160454098935
 21
-5.858022704946777
 31
0.0
  0
LINE
  5
9CE
330
1F
100
AcDbEntity
  8
2
  6
CONTINUOUS
370
25
 62
7
100
AcDbLine
 10
34.70536317722419
 20
-6.5
 30
0.0
 11
35.7008938628707
 21
-5.504469314353493
 31
0.0
  0
LINE
  5
9CF
330
1F
100
AcDbEntity
  8
2
  6
CONTINUOUS
370
25
 62
7
100
AcDbLine
 10
34.28109910851227
 20
-6.5
 30
0.0
 11
35.63018318475205
 21
-5.150915923760216
 31
0.0
  0
LINE
  5
9D0
330
1F
100
AcDbEntity
  8
2
  6
CONTINUOUS
370
25
 62
7
100
AcDbLine
 10
33.91079124004992
 20
-6.44604379975042
 30
0.0
 11
35.55947250663339
 21
-4.797362533166947
 31
0.0
  0
LINE
  5
9D1
330
1F
100
AcDbEntity
  8
2
  6
CONTINUOUS
370
25
 62
7
100
AcDbLine
 10
34.0168572572279
 20
-5.915713713860505
 30
0.0
 11
35.48876182851473
 21
-4.44380914257367
 31
0.0
  0
LINE
  5
9D2
330
1F
100
AcDbEntity
  8
2
  6
CONTINUOUS
370
25
 62
7
100
AcDbLine
 10
34.12292327440588
 20
-5.385383627970604
 30
0.0
 11
35.41805115039608
 21
-4.090255751980401
 31
0.0
  0
LINE
  5
9D3
330
1F
100
AcDbEntity
  8
2
  6
CONTINUOUS
370
25
 62
7
100
AcDbLine
 10
34.22898929158386
 20
-4.85505354208069
 30
0.0
 11
35.34734047227742
 21
-3.736702361387117
 31
0.0
  0
LINE
  5
9D4
330
1F
100
AcDbEntity
  8
2
  6
CONTINUOUS
370
25
 62
7
100
AcDbLine
 10
34.33505530876185
 20
-4.324723456190775
 30
0.0
 11
35.27662979415877
 21
-3.38314897079384
 31
0.0
  0
LINE
  5
9D5
330
1F
100
AcDbEntity
  8
2
  6
CONTINUOUS
370
25
 62
7
100
AcDbLine
 10
34.44112132593983
 20
-3.79439337030086
 30
0.0
 11
35.20591911604011
 21
-3.029595580200571
 31
0.0
  0
LINE
  5
9D6
330
1F
100
AcDbEntity
  8
2
  6
CONTINUOUS
370
25
 62
7
100
AcDbLine
 10
34.54718734311781
 20
-3.264063284410938
 30
0.0
 11
35.13520843792146
 21
-2.676042189607294
 31
0.0
  0
LINE
  5
9D7
330
1F
100
AcDbEntity
  8
2
  6
CONTINUOUS
370
25
 62
7
100
AcDbLine
 10
34.65325336029579
 20
-2.73373319852103
 30
0.0
 11
35.0644977598028
 21
-2.322488799014018
 31
0.0
  0
LINE
  5
9D8
330
1F
100
AcDbEntity
  8
2
  6
CONTINUOUS
370
25
 62
7
100
AcDbLine
 10
34.75931937747378
 20
-2.203403112631115
 30
0.0
 11
34.99378708168415
 21
-1.968935408420748
 31
0.0
  0
LINE
  5
9D9
330
1F
100
AcDbEntity
  8
2
  6
CONTINUOUS
370
25
 62
7
100
AcDbLine
 10
34.86538539465177
 20
-1.673073026741186
 30
0.0
 11
34.92307640356549
 21
-1.615382017827464
 31
0.0
  0
LINE
  5
9DA
330
1F
100
AcDbEntity
  8
2
  6
CONTINUOUS
370
25
 62
7
100
AcDbLine
 10
33.92952741104589
 20
-6.352362944770558
 30
0.0
 11
34.07716446627533
 21
-6.500000000000004
 31
0.0
  0
LINE
  5
9DB
330
1F
100
AcDbEntity
  8
2
  6
CONTINUOUS
370
25
 62
7
100
AcDbLine
 10
34.00023808916455
 20
-5.998809554177289
 30
0.0
 11
34.50142853498726
 21
-6.500000000000004
 31
0.0
  0
LINE
  5
9DC
330
1F
100
AcDbEntity
  8
2
  6
CONTINUOUS
370
25
 62
7
100
AcDbLine
 10
34.0709487672832
 20
-5.645256163584005
 30
0.0
 11
34.9256926036992
 21
-6.500000000000004
 31
0.0
  0
LINE
  5
9DD
330
1F
100
AcDbEntity
  8
2
  6
CONTINUOUS
370
25
 62
7
100
AcDbLine
 10
34.14165944540186
 20
-5.291702772990739
 30
0.0
 11
35.34995667241112
 21
-6.5
 31
0.0
  0
LINE
  5
9DE
330
1F
100
AcDbEntity
  8
2
  6
CONTINUOUS
370
25
 62
7
100
AcDbLine
 10
34.21237012352051
 20
-4.938149382397455
 30
0.0
 11
35.77422074112305
 21
-6.5
 31
0.0
  0
LINE
  5
9DF
330
1F
100
AcDbEntity
  8
2
  6
CONTINUOUS
370
25
 62
7
100
AcDbLine
 10
34.28308080163916
 20
-4.584595991804175
 30
0.0
 11
35.82537879754126
 21
-6.126893987706271
 31
0.0
  0
LINE
  5
9E0
330
1F
100
AcDbEntity
  8
2
  6
CONTINUOUS
370
25
 62
7
100
AcDbLine
 10
34.35379147975782
 20
-4.231042601210913
 30
0.0
 11
35.71931278036327
 21
-5.596563901816356
 31
0.0
  0
LINE
  5
9E1
330
1F
100
AcDbEntity
  8
2
  6
CONTINUOUS
370
25
 62
7
100
AcDbLine
 10
34.42450215787647
 20
-3.877489210617636
 30
0.0
 11
35.61324676318529
 21
-5.066233815926449
 31
0.0
  0
LINE
  5
9E2
330
1F
100
AcDbEntity
  8
2
  6
CONTINUOUS
370
25
 62
7
100
AcDbLine
 10
34.49521283599513
 20
-3.523935820024363
 30
0.0
 11
35.50718074600731
 21
-4.535903730036537
 31
0.0
  0
LINE
  5
9E3
330
1F
100
AcDbEntity
  8
2
  6
CONTINUOUS
370
25
 62
7
100
AcDbLine
 10
34.56592351411378
 20
-3.17038242943109
 30
0.0
 11
35.40111472882932
 21
-4.005573644146619
 31
0.0
  0
LINE
  5
9E4
330
1F
100
AcDbEntity
  8
2
  6
CONTINUOUS
370
25
 62
7
100
AcDbLine
 10
34.63663419223244
 20
-2.816829038837806
 30
0.0
 11
35.29504871165134
 21
-3.475243558256711
 31
0.0
  0
LINE
  5
9E5
330
1F
100
AcDbEntity
  8
2
  6
CONTINUOUS
370
25
 62
7
100
AcDbLine
 10
34.70734487035109
 20
-2.46327564824454
 30
0.0
 11
35.18898269447335
 21
-2.944913472366792
 31
0.0
  0
LINE
  5
9E6
330
1F
100
AcDbEntity
  8
2
  6
CONTINUOUS
370
25
 62
7
100
AcDbLine
 10
34.77805554846974
 20
-2.109722257651264
 30
0.0
 11
35.08291667729538
 21
-2.414583386476899
 31
0.0
  0
LINE
  5
9E7
330
1F
100
AcDbEntity
  8
2
  6
CONTINUOUS
370
25
 62
7
100
AcDbLine
 10
34.8487662265884
 20
-1.756168867057994
 30
0.0
 11
34.97685066011739
 21
-1.884253300586984
 31
0.0
  0
LINE
  5
9E8
330
1F
100
AcDbEntity
  8
2
  6
CONTINUOUS
370
25
 62
7
100
AcDbLine
 10
34.9
 20
1.499999999999998
 30
0.0
 11
33.9
 21
6.499999999999998
 31
0.0
  0
LINE
  5
9E9
330
1F
100
AcDbEntity
  8
2
  6
CONTINUOUS
370
25
 62
7
100
AcDbLine
 10
33.9
 20
6.499999999999998
 30
0.0
 11
35.9
 21
6.499999999999998
 31
0.0
  0
LINE
  5
9EA
330
1F
100
AcDbEntity
  8
2
  6
CONTINUOUS
370
25
 62
7
100
AcDbLine
 10
35.9
 20
6.499999999999998
 30
0.0
 11
34.9
 21
1.499999999999998
 31
0.0
  0
LINE
  5
9EB
330
1F
100
AcDbEntity
  8
2
  6
CONTINUOUS
370
25
 62
7
100
AcDbLine
 10
34.87773008045848
 20
1.61134959770763
 30
0.0
 11
34.93340487931228
 21
1.667024396561438
 31
0.0
  0
LINE
  5
9EC
330
1F
100
AcDbEntity
  8
2
  6
CONTINUOUS
370
25
 62
7
100
AcDbLine
 10
34.80701940233982
 20
1.964902988300906
 30
0.0
 11
35.03947089649027
 21
2.19735448245136
 31
0.0
  0
LINE
  5
9ED
330
1F
100
AcDbEntity
  8
2
  6
CONTINUOUS
370
25
 62
7
100
AcDbLine
 10
34.73630872422117
 20
2.318456378894183
 30
0.0
 11
35.14553691366825
 21
2.727684568341267
 31
0.0
  0
LINE
  5
9EE
330
1F
100
AcDbEntity
  8
2
  6
CONTINUOUS
370
25
 62
7
100
AcDbLine
 10
34.66559804610251
 20
2.672009769487456
 30
0.0
 11
35.25160293084623
 21
3.258014654231179
 31
0.0
  0
LINE
  5
9EF
330
1F
100
AcDbEntity
  8
2
  6
CONTINUOUS
370
25
 62
7
100
AcDbLine
 10
34.59488736798386
 20
3.025563160080736
 30
0.0
 11
35.35766894802422
 21
3.788344740121097
 31
0.0
  0
LINE
  5
9F0
330
1F
100
AcDbEntity
  8
2
  6
CONTINUOUS
370
25
 62
7
100
AcDbLine
 10
34.5241766898652
 20
3.379116550674006
 30
0.0
 11
35.4637349652022
 21
4.318674826011005
 31
0.0
  0
LINE
  5
9F1
330
1F
100
AcDbEntity
  8
2
  6
CONTINUOUS
370
25
 62
7
100
AcDbLine
 10
34.45346601174654
 20
3.732669941267279
 30
0.0
 11
35.56980098238019
 21
4.849004911900931
 31
0.0
  0
LINE
  5
9F2
330
1F
100
AcDbEntity
  8
2
  6
CONTINUOUS
370
25
 62
7
100
AcDbLine
 10
34.38275533362788
 20
4.086223331860548
 30
0.0
 11
35.67586699955817
 21
5.379334997790838
 31
0.0
  0
LINE
  5
9F3
330
1F
100
AcDbEntity
  8
2
  6
CONTINUOUS
370
25
 62
7
100
AcDbLine
 10
34.31204465550923
 20
4.439776722453825
 30
0.0
 11
35.78193301673615
 21
5.909665083680746
 31
0.0
  0
LINE
  5
9F4
330
1F
100
AcDbEntity
  8
2
  6
CONTINUOUS
370
25
 62
7
100
AcDbLine
 10
34.24133397739058
 20
4.793330113047105
 30
0.0
 11
35.88799903391413
 21
6.439995169570665
 31
0.0
  0
LINE
  5
9F5
330
1F
100
AcDbEntity
  8
2
  6
CONTINUOUS
370
25
 62
7
100
AcDbLine
 10
34.17062329927192
 20
5.146883503640375
 30
0.0
 11
35.52373979563154
 21
6.5
 31
0.0
  0
LINE
  5
9F6
330
1F
100
AcDbEntity
  8
2
  6
CONTINUOUS
370
25
 62
7
100
AcDbLine
 10
34.09991262115327
 20
5.500436894233648
 30
0.0
 11
35.09947572691961
 21
6.499999999999996
 31
0.0
  0
LINE
  5
9F7
330
1F
100
AcDbEntity
  8
2
  6
CONTINUOUS
370
25
 62
7
100
AcDbLine
 10
34.02920194303461
 20
5.853990284826924
 30
0.0
 11
34.67521165820768
 21
6.499999999999996
 31
0.0
  0
LINE
  5
9F8
330
1F
100
AcDbEntity
  8
2
  6
CONTINUOUS
370
25
 62
7
100
AcDbLine
 10
33.95849126491596
 20
6.207543675420201
 30
0.0
 11
34.25094758949574
 21
6.499999999999996
 31
0.0
  0
LINE
  5
9F9
330
1F
100
AcDbEntity
  8
2
  6
CONTINUOUS
370
25
 62
7
100
AcDbLine
 10
34.87832252269354
 20
1.6083873865323
 30
0.0
 11
34.91445165153764
 21
1.572258257688205
 31
0.0
  0
LINE
  5
9FA
330
1F
100
AcDbEntity
  8
2
  6
CONTINUOUS
370
25
 62
7
100
AcDbLine
 10
34.77225650551556
 20
2.138717472422208
 30
0.0
 11
34.98516232965629
 21
1.925811648281481
 31
0.0
  0
LINE
  5
9FB
330
1F
100
AcDbEntity
  8
2
  6
CONTINUOUS
370
25
 62
7
100
AcDbLine
 10
34.66619048833758
 20
2.66904755831213
 30
0.0
 11
35.05587300777495
 21
2.279365038874758
 31
0.0
  0
LINE
  5
9FC
330
1F
100
AcDbEntity
  8
2
  6
CONTINUOUS
370
25
 62
7
100
AcDbLine
 10
34.5601244711596
 20
3.199377644202038
 30
0.0
 11
35.12658368589361
 21
2.632918429468027
 31
0.0
  0
LINE
  5
9FD
330
1F
100
AcDbEntity
  8
2
  6
CONTINUOUS
370
25
 62
7
100
AcDbLine
 10
34.45405845398162
 20
3.729707730091938
 30
0.0
 11
35.19729436401226
 21
2.986471820061304
 31
0.0
  0
LINE
  5
9FE
330
1F
100
AcDbEntity
  8
2
  6
CONTINUOUS
370
25
 62
7
100
AcDbLine
 10
34.34799243680364
 20
4.260037815981853
 30
0.0
 11
35.26800504213091
 21
3.340025210654588
 31
0.0
  0
LINE
  5
9FF
330
1F
100
AcDbEntity
  8
2
  6
CONTINUOUS
370
25
 62
7
100
AcDbLine
 10
34.24192641962565
 20
4.790367901871768
 30
0.0
 11
35.33871572024957
 21
3.693578601247857
 31
0.0
  0
LINE
  5
A00
330
1F
100
AcDbEntity
  8
2
  6
CONTINUOUS
370
25
 62
7
100
AcDbLine
 10
34.13586040244767
 20
5.320697987761676
 30
0.0
 11
35.40942639836823
 21
4.047131991841134
 31
0.0
  0
LINE
  5
A01
330
1F
100
AcDbEntity
  8
2
  6
CONTINUOUS
370
25
 62
7
100
AcDbLine
 10
34.02979438526967
 20
5.851028073651591
 30
0.0
 11
35.48013707648688
 21
4.400685382434389
 31
0.0
  0
LINE
  5
A02
330
1F
100
AcDbEntity
  8
2
  6
CONTINUOUS
370
25
 62
7
100
AcDbLine
 10
33.9237283680917
 20
6.381358159541499
 30
0.0
 11
35.55084775460553
 21
4.75423877302768
 31
0.0
  0
LINE
  5
A03
330
1F
100
AcDbEntity
  8
2
  6
CONTINUOUS
370
25
 62
7
100
AcDbLine
 10
34.22935059634513
 20
6.5
 30
0.0
 11
35.62155843272419
 21
5.10779216362095
 31
0.0
  0
LINE
  5
A04
330
1F
100
AcDbEntity
  8
2
  6
CONTINUOUS
370
25
 62
7
100
AcDbLine
 10
34.65361466505706
 20
6.5
 30
0.0
 11
35.69226911084284
 21
5.461345554214226
 31
0.0
  0
LINE
  5
A05
330
1F
100
AcDbEntity
  8
2
  6
CONTINUOUS
370
25
 62
7
100
AcDbLine
 10
35.07787873376899
 20
6.5
 30
0.0
 11
35.76297978896149
 21
5.814898944807503
 31
0.0
  0
LINE
  5
A06
330
1F
100
AcDbEntity
  8
2
  6
CONTINUOUS
370
25
 62
7
100
AcDbLine
 10
35.50214280248092
 20
6.5
 30
0.0
 11
35.83369046708015
 21
6.168452335400765
 31
0.0
  0
TEXT
  5
A07
330
1F
100
AcDbEntity
  8
2
  6
CONTINUOUS
370
25
 62
7
100
AcDbText
 10
33.4
 20
11.84583333333333
 30
0.0
 40
3.5
  1
3
 50
90.00000000000001
 72
     1
 11
33.4
 21
13.0125
 31
0.0
100
AcDbText
  0
CIRCLE
  5
A08
330
1F
100
AcDbEntity
  8
2
  6
CONTINUOUS
370
25
 62
7
100
AcDbCircle
 10
31.65
 20
9.687499999999998
 30
0.0
 40
1.4
  0
LINE
  5
A09
330
1F
100
AcDbEntity
  8
2
  6
CONTINUOUS
370
25
 62
7
100
AcDbLine
 10
33.05
 20
8.2875
 30
0.0
 11
30.25
 21
11.0875
 31
0.0
  0
LINE
  5
A0A
330
1F
100
AcDbEntity
  8
2
  6
CONTINUOUS
370
25
 62
7
100
AcDbLine
 10
7.9
 20
-1.5
 30
0.0
 11
7.899999999999999
 21
-14.5
 31
0.0
  0
LINE
  5
A0B
330
1F
100
AcDbEntity
  8
2
  6
CONTINUOUS
370
25
 62
7
100
AcDbLine
 10
15.9
 20
-14.5
 30
0.0
 11
15.9
 21
-1.5
 31
0.0
  0
LINE
  5
A0C
330
1F
100
AcDbEntity
  8
2
  6
CONTINUOUS
370
25
 62
7
100
AcDbLine
 10
0.8999999999999995
 20
-13.5
 30
0.0
 11
22.9
 21
-13.5
 31
0.0
  0
LINE
  5
A0D
330
1F
100
AcDbEntity
  8
2
  6
CONTINUOUS
370
25
 62
7
100
AcDbLine
 10
7.899999999999999
 20
-13.5
 30
0.0
 11
2.899999999999999
 21
-14.5
 31
0.0
  0
LINE
  5
A0E
330
1F
100
AcDbEntity
  8
2
  6
CONTINUOUS
370
25
 62
7
100
AcDbLine
 10
2.899999999999999
 20
-14.5
 30
0.0
 11
2.899999999999999
 21
-12.5
 31
0.0
  0
LINE
  5
A0F
330
1F
100
AcDbEntity
  8
2
  6
CONTINUOUS
370
25
 62
7
100
AcDbLine
 10
2.899999999999999
 20
-12.5
 30
0.0
 11
7.899999999999999
 21
-13.5
 31
0.0
  0
LINE
  5
A10
330
1F
100
AcDbEntity
  8
2
  6
CONTINUOUS
370
25
 62
7
100
AcDbLine
 10
7.582218008356045
 20
-13.56355639832879
 30
0.0
 11
7.688145338904029
 21
-13.45762906778081
 31
0.0
  0
LINE
  5
A11
330
1F
100
AcDbEntity
  8
2
  6
CONTINUOUS
370
25
 62
7
100
AcDbLine
 10
7.051887922466134
 20
-13.66962241550677
 30
0.0
 11
7.334591948310756
 21
-13.38691838966215
 31
0.0
  0
LINE
  5
A12
330
1F
100
AcDbEntity
  8
2
  6
CONTINUOUS
370
25
 62
7
100
AcDbLine
 10
6.521557836576227
 20
-13.77568843268475
 30
0.0
 11
6.981038557717484
 21
-13.3162077115435
 31
0.0
  0
LINE
  5
A13
330
1F
100
AcDbEntity
  8
2
  6
CONTINUOUS
370
25
 62
7
100
AcDbLine
 10
5.991227750686317
 20
-13.88175444986274
 30
0.0
 11
6.627485167124211
 21
-13.24549703342484
 31
0.0
  0
LINE
  5
A14
330
1F
100
AcDbEntity
  8
2
  6
CONTINUOUS
370
25
 62
7
100
AcDbLine
 10
5.460897664796406
 20
-13.98782046704072
 30
0.0
 11
6.273931776530937
 21
-13.17478635530619
 31
0.0
  0
LINE
  5
A15
330
1F
100
AcDbEntity
  8
2
  6
CONTINUOUS
370
25
 62
7
100
AcDbLine
 10
4.930567578906497
 20
-14.0938864842187
 30
0.0
 11
5.920378385937664
 21
-13.10407567718753
 31
0.0
  0
LINE
  5
A16
330
1F
100
AcDbEntity
  8
2
  6
CONTINUOUS
370
25
 62
7
100
AcDbLine
 10
4.400237493016586
 20
-14.19995250139668
 30
0.0
 11
5.566824995344391
 21
-13.03336499906888
 31
0.0
  0
LINE
  5
A17
330
1F
100
AcDbEntity
  8
2
  6
CONTINUOUS
370
25
 62
7
100
AcDbLine
 10
3.869907407126678
 20
-14.30601851857466
 30
0.0
 11
5.213271604751119
 21
-12.96265432095023
 31
0.0
  0
LINE
  5
A18
330
1F
100
AcDbEntity
  8
2
  6
CONTINUOUS
370
25
 62
7
100
AcDbLine
 10
3.339577321236763
 20
-14.41208453575265
 30
0.0
 11
4.859718214157843
 21
-12.89194364283157
 31
0.0
  0
LINE
  5
A19
330
1F
100
AcDbEntity
  8
2
  6
CONTINUOUS
370
25
 62
7
100
AcDbLine
 10
2.899999999999999
 20
-14.42739778827748
 30
0.0
 11
4.506164823564569
 21
-12.82123296471291
 31
0.0
  0
LINE
  5
A1A
330
1F
100
AcDbEntity
  8
2
  6
CONTINUOUS
370
25
 62
7
100
AcDbLine
 10
2.899999999999999
 20
-14.00313371956556
 30
0.0
 11
4.152611432971296
 21
-12.75052228659426
 31
0.0
  0
LINE
  5
A1B
330
1F
100
AcDbEntity
  8
2
  6
CONTINUOUS
370
25
 62
7
100
AcDbLine
 10
2.899999999999999
 20
-13.57886965085363
 30
0.0
 11
3.799058042378024
 21
-12.6798116084756
 31
0.0
  0
LINE
  5
A1C
330
1F
100
AcDbEntity
  8
2
  6
CONTINUOUS
370
25
 62
7
100
AcDbLine
 10
2.899999999999999
 20
-13.1546055821417
 30
0.0
 11
3.44550465178475
 21
-12.60910093035695
 31
0.0
  0
LINE
  5
A1D
330
1F
100
AcDbEntity
  8
2
  6
CONTINUOUS
370
25
 62
7
100
AcDbLine
 10
2.899999999999999
 20
-12.73034151342977
 30
0.0
 11
3.091951261191477
 21
-12.5383902522383
 31
0.0
  0
LINE
  5
A1E
330
1F
100
AcDbEntity
  8
2
  6
CONTINUOUS
370
25
 62
7
100
AcDbLine
 10
2.899999999999999
 20
-14.32516833061883
 30
0.0
 11
3.045693057817642
 21
-14.47086138843647
 31
0.0
  0
LINE
  5
A1F
330
1F
100
AcDbEntity
  8
2
  6
CONTINUOUS
370
25
 62
7
100
AcDbLine
 10
2.899999999999999
 20
-13.9009042619069
 30
0.0
 11
3.399246448410915
 21
-14.40015071031782
 31
0.0
  0
LINE
  5
A20
330
1F
100
AcDbEntity
  8
2
  6
CONTINUOUS
370
25
 62
7
100
AcDbLine
 10
2.899999999999999
 20
-13.47664019319497
 30
0.0
 11
3.752799839004188
 21
-14.32944003219916
 31
0.0
  0
LINE
  5
A21
330
1F
100
AcDbEntity
  8
2
  6
CONTINUOUS
370
25
 62
7
100
AcDbLine
 10
2.899999999999999
 20
-13.05237612448305
 30
0.0
 11
4.106353229597461
 21
-14.25872935408051
 31
0.0
  0
LINE
  5
A22
330
1F
100
AcDbEntity
  8
2
  6
CONTINUOUS
370
25
 62
7
100
AcDbLine
 10
2.899999999999999
 20
-12.62811205577112
 30
0.0
 11
4.459906620190735
 21
-14.18801867596185
 31
0.0
  0
LINE
  5
A23
330
1F
100
AcDbEntity
  8
2
  6
CONTINUOUS
370
25
 62
7
100
AcDbLine
 10
3.27019001617601
 20
-12.5740380032352
 30
0.0
 11
4.813460010784008
 21
-14.1173079978432
 31
0.0
  0
LINE
  5
A24
330
1F
100
AcDbEntity
  8
2
  6
CONTINUOUS
370
25
 62
7
100
AcDbLine
 10
3.80052010206592
 20
-12.68010402041318
 30
0.0
 11
5.167013401377281
 21
-14.04659731972454
 31
0.0
  0
LINE
  5
A25
330
1F
100
AcDbEntity
  8
2
  6
CONTINUOUS
370
25
 62
7
100
AcDbLine
 10
4.330850187955833
 20
-12.78617003759117
 30
0.0
 11
5.520566791970555
 21
-13.97588664160589
 31
0.0
  0
LINE
  5
A26
330
1F
100
AcDbEntity
  8
2
  6
CONTINUOUS
370
25
 62
7
100
AcDbLine
 10
4.861180273845743
 20
-12.89223605476915
 30
0.0
 11
5.874120182563829
 21
-13.90517596348723
 31
0.0
  0
LINE
  5
A27
330
1F
100
AcDbEntity
  8
2
  6
CONTINUOUS
370
25
 62
7
100
AcDbLine
 10
5.391510359735652
 20
-12.99830207194713
 30
0.0
 11
6.227673573157102
 21
-13.83446528536858
 31
0.0
  0
LINE
  5
A28
330
1F
100
AcDbEntity
  8
2
  6
CONTINUOUS
370
25
 62
7
100
AcDbLine
 10
5.921840445625564
 20
-13.10436808912511
 30
0.0
 11
6.581226963750376
 21
-13.76375460724993
 31
0.0
  0
LINE
  5
A29
330
1F
100
AcDbEntity
  8
2
  6
CONTINUOUS
370
25
 62
7
100
AcDbLine
 10
6.452170531515473
 20
-13.21043410630309
 30
0.0
 11
6.934780354343649
 21
-13.69304392913127
 31
0.0
  0
LINE
  5
A2A
330
1F
100
AcDbEntity
  8
2
  6
CONTINUOUS
370
25
 62
7
100
AcDbLine
 10
6.982500617405384
 20
-13.31650012348108
 30
0.0
 11
7.288333744936922
 21
-13.62233325101262
 31
0.0
  0
LINE
  5
A2B
330
1F
100
AcDbEntity
  8
2
  6
CONTINUOUS
370
25
 62
7
100
AcDbLine
 10
7.512830703295292
 20
-13.42256614065906
 30
0.0
 11
7.641887135530196
 21
-13.55162257289396
 31
0.0
  0
LINE
  5
A2C
330
1F
100
AcDbEntity
  8
2
  6
CONTINUOUS
370
25
 62
7
100
AcDbLine
 10
15.9
 20
-13.5
 30
0.0
 11
20.9
 21
-12.5
 31
0.0
  0
LINE
  5
A2D
330
1F
100
AcDbEntity
  8
2
  6
CONTINUOUS
370
25
 62
7
100
AcDbLine
 10
20.9
 20
-12.5
 30
0.0
 11
20.9
 21
-14.5
 31
0.0
  0
LINE
  5
A2E
330
1F
100
AcDbEntity
  8
2
  6
CONTINUOUS
370
25
 62
7
100
AcDbLine
 10
20.9
 20
-14.5
 30
0.0
 11
15.9
 21
-13.5
 31
0.0
  0
LINE
  5
A2F
330
1F
100
AcDbEntity
  8
2
  6
CONTINUOUS
370
25
 62
7
100
AcDbLine
 10
20.78865040229235
 20
-14.47773008045847
 30
0.0
 11
20.9
 21
-14.36638048275083
 31
0.0
  0
LINE
  5
A30
330
1F
100
AcDbEntity
  8
2
  6
CONTINUOUS
370
25
 62
7
100
AcDbLine
 10
20.43509701169908
 20
-14.40701940233982
 30
0.0
 11
20.9
 21
-13.9421164140389
 31
0.0
  0
LINE
  5
A31
330
1F
100
AcDbEntity
  8
2
  6
CONTINUOUS
370
25
 62
7
100
AcDbLine
 10
20.08154362110581
 20
-14.33630872422116
 30
0.0
 11
20.9
 21
-13.51785234532697
 31
0.0
  0
LINE
  5
A32
330
1F
100
AcDbEntity
  8
2
  6
CONTINUOUS
370
25
 62
7
100
AcDbLine
 10
19.72799023051254
 20
-14.26559804610251
 30
0.0
 11
20.9
 21
-13.09358827661504
 31
0.0
  0
LINE
  5
A33
330
1F
100
AcDbEntity
  8
2
  6
CONTINUOUS
370
25
 62
7
100
AcDbLine
 10
19.37443683991926
 20
-14.19488736798385
 30
0.0
 11
20.9
 21
-12.66932420790312
 31
0.0
  0
LINE
  5
A34
330
1F
100
AcDbEntity
  8
2
  6
CONTINUOUS
370
25
 62
7
100
AcDbLine
 10
19.02088344932599
 20
-14.1241766898652
 30
0.0
 11
20.58132517398899
 21
-12.5637349652022
 31
0.0
  0
LINE
  5
A35
330
1F
100
AcDbEntity
  8
2
  6
CONTINUOUS
370
25
 62
7
100
AcDbLine
 10
18.66733005873272
 20
-14.05346601174654
 30
0.0
 11
20.05099508809908
 21
-12.66980098238018
 31
0.0
  0
LINE
  5
A36
330
1F
100
AcDbEntity
  8
2
  6
CONTINUOUS
370
25
 62
7
100
AcDbLine
 10
18.31377666813944
 20
-13.98275533362789
 30
0.0
 11
19.52066500220917
 21
-12.77586699955816
 31
0.0
  0
LINE
  5
A37
330
1F
100
AcDbEntity
  8
2
  6
CONTINUOUS
370
25
 62
7
100
AcDbLine
 10
17.96022327754617
 20
-13.91204465550924
 30
0.0
 11
18.99033491631926
 21
-12.88193301673615
 31
0.0
  0
LINE
  5
A38
330
1F
100
AcDbEntity
  8
2
  6
CONTINUOUS
370
25
 62
7
100
AcDbLine
 10
17.60666988695289
 20
-13.84133397739058
 30
0.0
 11
18.46000483042935
 21
-12.98799903391413
 31
0.0
  0
LINE
  5
A39
330
1F
100
AcDbEntity
  8
2
  6
CONTINUOUS
370
25
 62
7
100
AcDbLine
 10
17.25311649635962
 20
-13.77062329927193
 30
0.0
 11
17.92967474453944
 21
-13.09406505109211
 31
0.0
  0
LINE
  5
A3A
330
1F
100
AcDbEntity
  8
2
  6
CONTINUOUS
370
25
 62
7
100
AcDbLine
 10
16.89956310576635
 20
-13.69991262115327
 30
0.0
 11
17.39934465864953
 21
-13.20013106827009
 31
0.0
  0
LINE
  5
A3B
330
1F
100
AcDbEntity
  8
2
  6
CONTINUOUS
370
25
 62
7
100
AcDbLine
 10
16.54600971517308
 20
-13.62920194303462
 30
0.0
 11
16.86901457275962
 21
-13.30619708544808
 31
0.0
  0
LINE
  5
A3C
330
1F
100
AcDbEntity
  8
2
  6
CONTINUOUS
370
25
 62
7
100
AcDbLine
 10
16.1924563245798
 20
-13.55849126491596
 30
0.0
 11
16.33868448686971
 21
-13.41226310262606
 31
0.0
  0
LINE
  5
A3D
330
1F
100
AcDbEntity
  8
2
  6
CONTINUOUS
370
25
 62
7
100
AcDbLine
 10
16.02132034355967
 20
-13.47573593128806
 30
0.0
 11
16.08198051533951
 21
-13.5363961030679
 31
0.0
  0
LINE
  5
A3E
330
1F
100
AcDbEntity
  8
2
  6
CONTINUOUS
370
25
 62
7
100
AcDbLine
 10
16.37487373415295
 20
-13.40502525316941
 30
0.0
 11
16.61231060122942
 21
-13.64246212024588
 31
0.0
  0
LINE
  5
A3F
330
1F
100
AcDbEntity
  8
2
  6
CONTINUOUS
370
25
 62
7
100
AcDbLine
 10
16.72842712474622
 20
-13.33431457505075
 30
0.0
 11
17.14264068711933
 21
-13.74852813742387
 31
0.0
  0
LINE
  5
A40
330
1F
100
AcDbEntity
  8
2
  6
CONTINUOUS
370
25
 62
7
100
AcDbLine
 10
17.08198051533949
 20
-13.2636038969321
 30
0.0
 11
17.67297077300924
 21
-13.85459415460185
 31
0.0
  0
LINE
  5
A41
330
1F
100
AcDbEntity
  8
2
  6
CONTINUOUS
370
25
 62
7
100
AcDbLine
 10
17.43553390593276
 20
-13.19289321881344
 30
0.0
 11
18.20330085889915
 21
-13.96066017177983
 31
0.0
  0
LINE
  5
A42
330
1F
100
AcDbEntity
  8
2
  6
CONTINUOUS
370
25
 62
7
100
AcDbLine
 10
17.78908729652603
 20
-13.12218254069479
 30
0.0
 11
18.73363094478906
 21
-14.06672618895781
 31
0.0
  0
LINE
  5
A43
330
1F
100
AcDbEntity
  8
2
  6
CONTINUOUS
370
25
 62
7
100
AcDbLine
 10
18.14264068711931
 20
-13.05147186257613
 30
0.0
 11
19.26396103067897
 21
-14.1727922061358
 31
0.0
  0
LINE
  5
A44
330
1F
100
AcDbEntity
  8
2
  6
CONTINUOUS
370
25
 62
7
100
AcDbLine
 10
18.49619407771258
 20
-12.98076118445748
 30
0.0
 11
19.79429111656888
 21
-14.27885822331378
 31
0.0
  0
LINE
  5
A45
330
1F
100
AcDbEntity
  8
2
  6
CONTINUOUS
370
25
 62
7
100
AcDbLine
 10
18.84974746830585
 20
-12.91005050633883
 30
0.0
 11
20.32462120245879
 21
-14.38492424049176
 31
0.0
  0
LINE
  5
A46
330
1F
100
AcDbEntity
  8
2
  6
CONTINUOUS
370
25
 62
7
100
AcDbLine
 10
19.20330085889913
 20
-12.83933982822017
 30
0.0
 11
20.8549512883487
 21
-14.49099025766974
 31
0.0
  0
LINE
  5
A47
330
1F
100
AcDbEntity
  8
2
  6
CONTINUOUS
370
25
 62
7
100
AcDbLine
 10
19.5568542494924
 20
-12.76862915010152
 30
0.0
 11
20.9
 21
-14.11177490060911
 31
0.0
  0
LINE
  5
A48
330
1F
100
AcDbEntity
  8
2
  6
CONTINUOUS
370
25
 62
7
100
AcDbLine
 10
19.91040764008568
 20
-12.69791847198286
 30
0.0
 11
20.9
 21
-13.68751083189718
 31
0.0
  0
LINE
  5
A49
330
1F
100
AcDbEntity
  8
2
  6
CONTINUOUS
370
25
 62
7
100
AcDbLine
 10
20.26396103067895
 20
-12.62720779386421
 30
0.0
 11
20.9
 21
-13.26324676318525
 31
0.0
  0
LINE
  5
A4A
330
1F
100
AcDbEntity
  8
2
  6
CONTINUOUS
370
25
 62
7
100
AcDbLine
 10
20.61751442127222
 20
-12.55649711574555
 30
0.0
 11
20.9
 21
-12.83898269447333
 31
0.0
  0
TEXT
  5
A4B
330
1F
100
AcDbEntity
  8
2
  6
CONTINUOUS
370
25
 62
7
100
AcDbText
 10
10.73333333333333
 20
-12.0
 30
0.0
 40
3.5
  1
8
 72
     1
 11
11.9
 21
-12.0
 31
0.0
100
AcDbText
  0
LINE
  5
A4C
330
1F
100
AcDbEntity
  8
2
  6
CONTINUOUS
370
25
 62
7
100
AcDbLine
 10
0.0
 20
2.99995
 30
0.0
 11
0.0000000000000012
 21
22.99995
 31
0.0
  0
LINE
  5
A4D
330
1F
100
AcDbEntity
  8
2
  6
CONTINUOUS
370
25
 62
7
100
AcDbLine
 10
15.9
 20
22.99995
 30
0.0
 11
15.9
 21
1.5
 31
0.0
  0
LINE
  5
A4E
330
1F
100
AcDbEntity
  8
2
  6
CONTINUOUS
370
25
 62
7
100
AcDbLine
 10
-7.0
 20
21.99995
 30
0.0
 11
22.9
 21
21.99995
 31
0.0
  0
LINE
  5
A4F
330
1F
100
AcDbEntity
  8
2
  6
CONTINUOUS
370
25
 62
7
100
AcDbLine
 10
0.0
 20
21.99995
 30
0.0
 11
-5.0
 21
20.99995
 31
0.0
  0
LINE
  5
A50
330
1F
100
AcDbEntity
  8
2
  6
CONTINUOUS
370
25
 62
7
100
AcDbLine
 10
-5.0
 20
20.99995
 30
0.0
 11
-5.0
 21
22.99995
 31
0.0
  0
LINE
  5
A51
330
1F
100
AcDbEntity
  8
2
  6
CONTINUOUS
370
25
 62
7
100
AcDbLine
 10
-5.0
 20
22.99995
 30
0.0
 11
0.0
 21
21.99995
 31
0.0
  0
LINE
  5
A52
330
1F
100
AcDbEntity
  8
2
  6
CONTINUOUS
370
25
 62
7
100
AcDbLine
 10
-0.0772269662753233
 20
21.98450460674493
 30
0.0
 11
-0.0514846441835489
 21
22.01024692883671
 31
0.0
  0
LINE
  5
A53
330
1F
100
AcDbEntity
  8
2
  6
CONTINUOUS
370
25
 62
7
100
AcDbLine
 10
-0.6075570521652371
 20
21.87843858956695
 30
0.0
 11
-0.4050380347768249
 21
22.08095760695536
 31
0.0
  0
LINE
  5
A54
330
1F
100
AcDbEntity
  8
2
  6
CONTINUOUS
370
25
 62
7
100
AcDbLine
 10
-1.137887138055147
 20
21.77237257238897
 30
0.0
 11
-0.7585914253700978
 21
22.15166828507402
 31
0.0
  0
LINE
  5
A55
330
1F
100
AcDbEntity
  8
2
  6
CONTINUOUS
370
25
 62
7
100
AcDbLine
 10
-1.668217223945056
 20
21.66630655521099
 30
0.0
 11
-1.112144815963371
 21
22.22237896319267
 31
0.0
  0
LINE
  5
A56
330
1F
100
AcDbEntity
  8
2
  6
CONTINUOUS
370
25
 62
7
100
AcDbLine
 10
-2.198547309834965
 20
21.56024053803301
 30
0.0
 11
-1.465698206556644
 21
22.29308964131133
 31
0.0
  0
LINE
  5
A57
330
1F
100
AcDbEntity
  8
2
  6
CONTINUOUS
370
25
 62
7
100
AcDbLine
 10
-2.728877395724874
 20
21.45417452085502
 30
0.0
 11
-1.819251597149917
 21
22.36380031942998
 31
0.0
  0
LINE
  5
A58
330
1F
100
AcDbEntity
  8
2
  6
CONTINUOUS
370
25
 62
7
100
AcDbLine
 10
-3.259207481614784
 20
21.34810850367704
 30
0.0
 11
-2.17280498774319
 21
22.43451099754864
 31
0.0
  0
LINE
  5
A59
330
1F
100
AcDbEntity
  8
2
  6
CONTINUOUS
370
25
 62
7
100
AcDbLine
 10
-3.789537567504693
 20
21.24204248649906
 30
0.0
 11
-2.526358378336462
 21
22.50522167566729
 31
0.0
  0
LINE
  5
A5A
330
1F
100
AcDbEntity
  8
2
  6
CONTINUOUS
370
25
 62
7
100
AcDbLine
 10
-4.319867653394602
 20
21.13597646932108
 30
0.0
 11
-2.879911768929735
 21
22.57593235378594
 31
0.0
  0
LINE
  5
A5B
330
1F
100
AcDbEntity
  8
2
  6
CONTINUOUS
370
25
 62
7
100
AcDbLine
 10
-4.85019773928451
 20
21.0299104521431
 30
0.0
 11
-3.233465159523008
 21
22.6466430319046
 31
0.0
  0
LINE
  5
A5C
330
1F
100
AcDbEntity
  8
2
  6
CONTINUOUS
370
25
 62
7
100
AcDbLine
 10
-5.0
 20
21.30437226013953
 30
0.0
 11
-3.587018550116281
 21
22.71735371002325
 31
0.0
  0
LINE
  5
A5D
330
1F
100
AcDbEntity
  8
2
  6
CONTINUOUS
370
25
 62
7
100
AcDbLine
 10
-5.0
 20
21.72863632885146
 30
0.0
 11
-3.940571940709554
 21
22.78806438814191
 31
0.0
  0
LINE
  5
A5E
330
1F
100
AcDbEntity
  8
2
  6
CONTINUOUS
370
25
 62
7
100
AcDbLine
 10
-5.0
 20
22.15290039756339
 30
0.0
 11
-4.294125331302826
 21
22.85877506626056
 31
0.0
  0
LINE
  5
A5F
330
1F
100
AcDbEntity
  8
2
  6
CONTINUOUS
370
25
 62
7
100
AcDbLine
 10
-5.0
 20
22.57716446627532
 30
0.0
 11
-4.647678721896099
 21
22.92948574437922
 31
0.0
  0
LINE
  5
A60
330
1F
100
AcDbEntity
  8
2
  6
CONTINUOUS
370
25
 62
7
100
AcDbLine
 10
-5.0
 20
21.12203461105325
 30
0.0
 11
-4.898262824122292
 21
21.02029743517554
 31
0.0
  0
LINE
  5
A61
330
1F
100
AcDbEntity
  8
2
  6
CONTINUOUS
370
25
 62
7
100
AcDbLine
 10
-5.0
 20
21.54629867976518
 30
0.0
 11
-4.544709433529016
 21
21.09100811329419
 31
0.0
  0
LINE
  5
A62
330
1F
100
AcDbEntity
  8
2
  6
CONTINUOUS
370
25
 62
7
100
AcDbLine
 10
-5.0
 20
21.9705627484771
 30
0.0
 11
-4.191156042935746
 21
21.16171879141285
 31
0.0
  0
LINE
  5
A63
330
1F
100
AcDbEntity
  8
2
  6
CONTINUOUS
370
25
 62
7
100
AcDbLine
 10
-5.0
 20
22.39482681718903
 30
0.0
 11
-3.837602652342472
 21
21.2324294695315
 31
0.0
  0
LINE
  5
A64
330
1F
100
AcDbEntity
  8
2
  6
CONTINUOUS
370
25
 62
7
100
AcDbLine
 10
-5.0
 20
22.81909088590096
 30
0.0
 11
-3.484049261749199
 21
21.30314014765016
 31
0.0
  0
LINE
  5
A65
330
1F
100
AcDbEntity
  8
2
  6
CONTINUOUS
370
25
 62
7
100
AcDbLine
 10
-4.695743806733891
 20
22.93909876134678
 30
0.0
 11
-3.130495871155925
 21
21.37385082576881
 31
0.0
  0
LINE
  5
A66
330
1F
100
AcDbEntity
  8
2
  6
CONTINUOUS
370
25
 62
7
100
AcDbLine
 10
-4.16541372084398
 20
22.83303274416879
 30
0.0
 11
-2.776942480562651
 21
21.44456150388747
 31
0.0
  0
LINE
  5
A67
330
1F
100
AcDbEntity
  8
2
  6
CONTINUOUS
370
25
 62
7
100
AcDbLine
 10
-3.63508363495407
 20
22.72696672699081
 30
0.0
 11
-2.423389089969378
 21
21.51527218200612
 31
0.0
  0
LINE
  5
A68
330
1F
100
AcDbEntity
  8
2
  6
CONTINUOUS
370
25
 62
7
100
AcDbLine
 10
-3.10475354906416
 20
22.62090070981283
 30
0.0
 11
-2.069835699376104
 21
21.58598286012478
 31
0.0
  0
LINE
  5
A69
330
1F
100
AcDbEntity
  8
2
  6
CONTINUOUS
370
25
 62
7
100
AcDbLine
 10
-2.574423463174249
 20
22.51483469263485
 30
0.0
 11
-1.716282308782831
 21
21.65669353824343
 31
0.0
  0
LINE
  5
A6A
330
1F
100
AcDbEntity
  8
2
  6
CONTINUOUS
370
25
 62
7
100
AcDbLine
 10
-2.044093377284342
 20
22.40876867545687
 30
0.0
 11
-1.36272891818956
 21
21.72740421636209
 31
0.0
  0
LINE
  5
A6B
330
1F
100
AcDbEntity
  8
2
  6
CONTINUOUS
370
25
 62
7
100
AcDbLine
 10
-1.513763291394431
 20
22.30270265827889
 30
0.0
 11
-1.009175527596287
 21
21.79811489448074
 31
0.0
  0
LINE
  5
A6C
330
1F
100
AcDbEntity
  8
2
  6
CONTINUOUS
370
25
 62
7
100
AcDbLine
 10
-0.9834332055045205
 20
22.1966366411009
 30
0.0
 11
-0.6556221370030131
 21
21.86882557259939
 31
0.0
  0
LINE
  5
A6D
330
1F
100
AcDbEntity
  8
2
  6
CONTINUOUS
370
25
 62
7
100
AcDbLine
 10
-0.4531031196146097
 20
22.09057062392292
 30
0.0
 11
-0.3020687464097395
 21
21.93953625071805
 31
0.0
  0
LINE
  5
A6E
330
1F
100
AcDbEntity
  8
2
  6
CONTINUOUS
370
25
 62
7
100
AcDbLine
 10
15.9
 20
21.99995
 30
0.0
 11
20.9
 21
22.99995
 31
0.0
  0
LINE
  5
A6F
330
1F
100
AcDbEntity
  8
2
  6
CONTINUOUS
370
25
 62
7
100
AcDbLine
 10
20.9
 20
22.99995
 30
0.0
 11
20.9
 21
20.99995
 31
0.0
  0
LINE
  5
A70
330
1F
100
AcDbEntity
  8
2
  6
CONTINUOUS
370
25
 62
7
100
AcDbLine
 10
20.9
 20
20.99995
 30
0.0
 11
15.9
 21
21.99995
 31
0.0
  0
LINE
  5
A71
330
1F
100
AcDbEntity
  8
2
  6
CONTINUOUS
370
25
 62
7
100
AcDbLine
 10
20.55029015486743
 20
21.06989196902651
 30
0.0
 11
20.9
 21
21.41960181415909
 31
0.0
  0
LINE
  5
A72
330
1F
100
AcDbEntity
  8
2
  6
CONTINUOUS
370
25
 62
7
100
AcDbLine
 10
20.19673676427415
 20
21.14060264714517
 30
0.0
 11
20.9
 21
21.84386588287102
 31
0.0
  0
LINE
  5
A73
330
1F
100
AcDbEntity
  8
2
  6
CONTINUOUS
370
25
 62
7
100
AcDbLine
 10
19.84318337368088
 20
21.21131332526382
 30
0.0
 11
20.9
 21
22.26812995158295
 31
0.0
  0
LINE
  5
A74
330
1F
100
AcDbEntity
  8
2
  6
CONTINUOUS
370
25
 62
7
100
AcDbLine
 10
19.48962998308761
 20
21.28202400338248
 30
0.0
 11
20.9
 21
22.69239402029487
 31
0.0
  0
LINE
  5
A75
330
1F
100
AcDbEntity
  8
2
  6
CONTINUOUS
370
25
 62
7
100
AcDbLine
 10
19.13607659249433
 20
21.35273468150113
 30
0.0
 11
20.7541148887415
 21
22.9707729777483
 31
0.0
  0
LINE
  5
A76
330
1F
100
AcDbEntity
  8
2
  6
CONTINUOUS
370
25
 62
7
100
AcDbLine
 10
18.78252320190106
 20
21.42344535961979
 30
0.0
 11
20.22378480285159
 21
22.86470696057032
 31
0.0
  0
LINE
  5
A77
330
1F
100
AcDbEntity
  8
2
  6
CONTINUOUS
370
25
 62
7
100
AcDbLine
 10
18.42896981130779
 20
21.49415603773844
 30
0.0
 11
19.69345471696168
 21
22.75864094339233
 31
0.0
  0
LINE
  5
A78
330
1F
100
AcDbEntity
  8
2
  6
CONTINUOUS
370
25
 62
7
100
AcDbLine
 10
18.07541642071451
 20
21.5648667158571
 30
0.0
 11
19.16312463107177
 21
22.65257492621435
 31
0.0
  0
LINE
  5
A79
330
1F
100
AcDbEntity
  8
2
  6
CONTINUOUS
370
25
 62
7
100
AcDbLine
 10
17.72186303012124
 20
21.63557739397575
 30
0.0
 11
18.63279454518186
 21
22.54650890903637
 31
0.0
  0
LINE
  5
A7A
330
1F
100
AcDbEntity
  8
2
  6
CONTINUOUS
370
25
 62
7
100
AcDbLine
 10
17.36830963952797
 20
21.70628807209441
 30
0.0
 11
18.10246445929195
 21
22.44044289185839
 31
0.0
  0
LINE
  5
A7B
330
1F
100
AcDbEntity
  8
2
  6
CONTINUOUS
370
25
 62
7
100
AcDbLine
 10
17.0147562489347
 20
21.77699875021306
 30
0.0
 11
17.57213437340204
 21
22.33437687468041
 31
0.0
  0
LINE
  5
A7C
330
1F
100
AcDbEntity
  8
2
  6
CONTINUOUS
370
25
 62
7
100
AcDbLine
 10
16.66120285834142
 20
21.84770942833172
 30
0.0
 11
17.04180428751213
 21
22.22831085750243
 31
0.0
  0
LINE
  5
A7D
330
1F
100
AcDbEntity
  8
2
  6
CONTINUOUS
370
25
 62
7
100
AcDbLine
 10
16.30764946774815
 20
21.91842010645037
 30
0.0
 11
16.51147420162222
 21
22.12224484032444
 31
0.0
  0
LINE
  5
A7E
330
1F
100
AcDbEntity
  8
2
  6
CONTINUOUS
370
25
 62
7
100
AcDbLine
 10
15.95409607715488
 20
21.98913078456902
 30
0.0
 11
15.98114411573231
 21
22.01617882314646
 31
0.0
  0
LINE
  5
A7F
330
1F
100
AcDbEntity
  8
2
  6
CONTINUOUS
370
25
 62
7
100
AcDbLine
 10
16.13651348672796
 20
22.04725269734559
 30
0.0
 11
16.25477023009193
 21
21.92899595398161
 31
0.0
  0
LINE
  5
A80
330
1F
100
AcDbEntity
  8
2
  6
CONTINUOUS
370
25
 62
7
100
AcDbLine
 10
16.49006687732123
 20
22.11796337546424
 30
0.0
 11
16.78510031598184
 21
21.82292993680363
 31
0.0
  0
LINE
  5
A81
330
1F
100
AcDbEntity
  8
2
  6
CONTINUOUS
370
25
 62
7
100
AcDbLine
 10
16.8436202679145
 20
22.1886740535829
 30
0.0
 11
17.31543040187175
 21
21.71686391962565
 31
0.0
  0
LINE
  5
A82
330
1F
100
AcDbEntity
  8
2
  6
CONTINUOUS
370
25
 62
7
100
AcDbLine
 10
17.19717365850778
 20
22.25938473170156
 30
0.0
 11
17.84576048776166
 21
21.61079790244767
 31
0.0
  0
LINE
  5
A83
330
1F
100
AcDbEntity
  8
2
  6
CONTINUOUS
370
25
 62
7
100
AcDbLine
 10
17.55072704910105
 20
22.33009540982021
 30
0.0
 11
18.37609057365157
 21
21.50473188526968
 31
0.0
  0
LINE
  5
A84
330
1F
100
AcDbEntity
  8
2
  6
CONTINUOUS
370
25
 62
7
100
AcDbLine
 10
17.90428043969432
 20
22.40080608793886
 30
0.0
 11
18.90642065954149
 21
21.3986658680917
 31
0.0
  0
LINE
  5
A85
330
1F
100
AcDbEntity
  8
2
  6
CONTINUOUS
370
25
 62
7
100
AcDbLine
 10
18.2578338302876
 20
22.47151676605752
 30
0.0
 11
19.4367507454314
 21
21.29259985091372
 31
0.0
  0
LINE
  5
A86
330
1F
100
AcDbEntity
  8
2
  6
CONTINUOUS
370
25
 62
7
100
AcDbLine
 10
18.61138722088087
 20
22.54222744417617
 30
0.0
 11
19.96708083132131
 21
21.18653383373574
 31
0.0
  0
LINE
  5
A87
330
1F
100
AcDbEntity
  8
2
  6
CONTINUOUS
370
25
 62
7
100
AcDbLine
 10
18.96494061147414
 20
22.61293812229482
 30
0.0
 11
20.49741091721122
 21
21.08046781655776
 31
0.0
  0
LINE
  5
A88
330
1F
100
AcDbEntity
  8
2
  6
CONTINUOUS
370
25
 62
7
100
AcDbLine
 10
19.31849400206742
 20
22.68364880041348
 30
0.0
 11
20.9
 21
21.1021428024809
 31
0.0
  0
LINE
  5
A89
330
1F
100
AcDbEntity
  8
2
  6
CONTINUOUS
370
25
 62
7
100
AcDbLine
 10
19.67204739266069
 20
22.75435947853214
 30
0.0
 11
20.9
 21
21.52640687119283
 31
0.0
  0
LINE
  5
A8A
330
1F
100
AcDbEntity
  8
2
  6
CONTINUOUS
370
25
 62
7
100
AcDbLine
 10
20.02560078325396
 20
22.82507015665079
 30
0.0
 11
20.9
 21
21.95067093990475
 31
0.0
  0
LINE
  5
A8B
330
1F
100
AcDbEntity
  8
2
  6
CONTINUOUS
370
25
 62
7
100
AcDbLine
 10
20.37915417384724
 20
22.89578083476945
 30
0.0
 11
20.9
 21
22.37493500861668
 31
0.0
  0
LINE
  5
A8C
330
1F
100
AcDbEntity
  8
2
  6
CONTINUOUS
370
25
 62
7
100
AcDbLine
 10
20.73270756444051
 20
22.9664915128881
 30
0.0
 11
20.9
 21
22.7991990773286
 31
0.0
  0
TEXT
  5
A8D
330
1F
100
AcDbEntity
  8
2
  6
CONTINUOUS
370
25
 62
7
100
AcDbText
 10
3.283333333333334
 20
23.49995
 30
0.0
 40
3.5
  1
15.9
 72
     1
 11
7.950000000000001
 21
23.49995
 31
0.0
100
AcDbText
  0
LINE
  5
A8E
330
1F
100
AcDbEntity
  8
SK2
  6
CONTINUOUS
370
25
 62
7
100
AcDbLine
 10
-44.1
 20
0.9999500000000001
 30
0.0
 11
-44.1
 21
29.99995
 31
0.0
  0
LINE
  5
A8F
330
1F
100
AcDbEntity
  8
SK2
  6
CONTINUOUS
370
25
 62
7
100
AcDbLine
 10
15.9
 20
29.99995
 30
0.0
 11
15.9
 21
1.5
 31
0.0
  0
LINE
  5
A90
330
1F
100
AcDbEntity
  8
SK2
  6
CONTINUOUS
370
25
 62
7
100
AcDbLine
 10
-44.1
 20
28.99995
 30
0.0
 11
15.9
 21
28.99995
 31
0.0
  0
LINE
  5
A91
330
1F
100
AcDbEntity
  8
SK2
  6
CONTINUOUS
370
25
 62
7
100
AcDbLine
 10
-44.1
 20
28.99995
 30
0.0
 11
-39.1
 21
29.99995
 31
0.0
  0
LINE
  5
A92
330
1F
100
AcDbEntity
  8
SK2
  6
CONTINUOUS
370
25
 62
7
100
AcDbLine
 10
-39.1
 20
29.99995
 30
0.0
 11
-39.1
 21
27.99995
 31
0.0
  0
LINE
  5
A93
330
1F
100
AcDbEntity
  8
SK2
  6
CONTINUOUS
370
25
 62
7
100
AcDbLine
 10
-39.1
 20
27.99995
 30
0.0
 11
-44.1
 21
28.99995
 31
0.0
  0
LINE
  5
A94
330
1F
100
AcDbEntity
  8
SK2
  6
CONTINUOUS
370
25
 62
7
100
AcDbLine
 10
-39.39836410433055
 20
28.0596228208661
 30
0.0
 11
-39.1
 21
28.35798692519665
 31
0.0
  0
LINE
  5
A95
330
1F
100
AcDbEntity
  8
SK2
  6
CONTINUOUS
370
25
 62
7
100
AcDbLine
 10
-39.75191749492382
 20
28.13033349898476
 30
0.0
 11
-39.1
 21
28.78225099390858
 31
0.0
  0
LINE
  5
A96
330
1F
100
AcDbEntity
  8
SK2
  6
CONTINUOUS
370
25
 62
7
100
AcDbLine
 10
-40.10547088551709
 20
28.20104417710341
 30
0.0
 11
-39.1
 21
29.2065150626205
 31
0.0
  0
LINE
  5
A97
330
1F
100
AcDbEntity
  8
SK2
  6
CONTINUOUS
370
25
 62
7
100
AcDbLine
 10
-40.45902427611037
 20
28.27175485522207
 30
0.0
 11
-39.1
 21
29.63077913133244
 31
0.0
  0
LINE
  5
A98
330
1F
100
AcDbEntity
  8
SK2
  6
CONTINUOUS
370
25
 62
7
100
AcDbLine
 10
-40.81257766670365
 20
28.34246553334073
 30
0.0
 11
-39.16886650005548
 21
29.9861766999889
 31
0.0
  0
LINE
  5
A99
330
1F
100
AcDbEntity
  8
SK2
  6
CONTINUOUS
370
25
 62
7
100
AcDbLine
 10
-41.16613105729693
 20
28.41317621145938
 30
0.0
 11
-39.69919658594539
 21
29.88011068281092
 31
0.0
  0
LINE
  5
A9A
330
1F
100
AcDbEntity
  8
SK2
  6
CONTINUOUS
370
25
 62
7
100
AcDbLine
 10
-41.5196844478902
 20
28.48388688957804
 30
0.0
 11
-40.2295266718353
 21
29.77404466563294
 31
0.0
  0
LINE
  5
A9B
330
1F
100
AcDbEntity
  8
SK2
  6
CONTINUOUS
370
25
 62
7
100
AcDbLine
 10
-41.87323783848348
 20
28.55459756769669
 30
0.0
 11
-40.75985675772521
 21
29.66797864845496
 31
0.0
  0
LINE
  5
A9C
330
1F
100
AcDbEntity
  8
SK2
  6
CONTINUOUS
370
25
 62
7
100
AcDbLine
 10
-42.22679122907676
 20
28.62530824581535
 30
0.0
 11
-41.29018684361514
 21
29.56191263127698
 31
0.0
  0
LINE
  5
A9D
330
1F
100
AcDbEntity
  8
SK2
  6
CONTINUOUS
370
25
 62
7
100
AcDbLine
 10
-42.58034461967004
 20
28.69601892393401
 30
0.0
 11
-41.82051692950505
 21
29.45584661409899
 31
0.0
  0
LINE
  5
A9E
330
1F
100
AcDbEntity
  8
SK2
  6
CONTINUOUS
370
25
 62
7
100
AcDbLine
 10
-42.93389801026332
 20
28.76672960205266
 30
0.0
 11
-42.35084701539498
 21
29.34978059692101
 31
0.0
  0
LINE
  5
A9F
330
1F
100
AcDbEntity
  8
SK2
  6
CONTINUOUS
370
25
 62
7
100
AcDbLine
 10
-43.28745140085659
 20
28.83744028017131
 30
0.0
 11
-42.88117710128488
 21
29.24371457974303
 31
0.0
  0
LINE
  5
AA0
330
1F
100
AcDbEntity
  8
SK2
  6
CONTINUOUS
370
25
 62
7
100
AcDbLine
 10
-43.64100479144987
 20
28.90815095828997
 30
0.0
 11
-43.41150718717479
 21
29.13764856256505
 31
0.0
  0
LINE
  5
AA1
330
1F
100
AcDbEntity
  8
SK2
  6
CONTINUOUS
370
25
 62
7
100
AcDbLine
 10
-43.99455818204314
 20
28.97886163640862
 30
0.0
 11
-43.9418372730647
 21
29.03158254538706
 31
0.0
  0
LINE
  5
AA2
330
1F
100
AcDbEntity
  8
SK2
  6
CONTINUOUS
370
25
 62
7
100
AcDbLine
 10
-43.94148786446978
 20
29.03165242710605
 30
0.0
 11
-43.86223179670466
 21
28.95239635934093
 31
0.0
  0
LINE
  5
AA3
330
1F
100
AcDbEntity
  8
SK2
  6
CONTINUOUS
370
25
 62
7
100
AcDbLine
 10
-43.58793447387649
 20
29.1023631052247
 30
0.0
 11
-43.33190171081474
 21
28.84633034216294
 31
0.0
  0
LINE
  5
AA4
330
1F
100
AcDbEntity
  8
SK2
  6
CONTINUOUS
370
25
 62
7
100
AcDbLine
 10
-43.23438108328322
 20
29.17307378334336
 30
0.0
 11
-42.80157162492483
 21
28.74026432498496
 31
0.0
  0
LINE
  5
AA5
330
1F
100
AcDbEntity
  8
SK2
  6
CONTINUOUS
370
25
 62
7
100
AcDbLine
 10
-42.88082769268994
 20
29.24378446146201
 30
0.0
 11
-42.27124153903491
 21
28.63419830780698
 31
0.0
  0
LINE
  5
AA6
330
1F
100
AcDbEntity
  8
SK2
  6
CONTINUOUS
370
25
 62
7
100
AcDbLine
 10
-42.52727430209666
 20
29.31449513958066
 30
0.0
 11
-41.740911453145
 21
28.528132290629
 31
0.0
  0
LINE
  5
AA7
330
1F
100
AcDbEntity
  8
SK2
  6
CONTINUOUS
370
25
 62
7
100
AcDbLine
 10
-42.17372091150339
 20
29.38520581769932
 30
0.0
 11
-41.21058136725508
 21
28.42206627345102
 31
0.0
  0
LINE
  5
AA8
330
1F
100
AcDbEntity
  8
SK2
  6
CONTINUOUS
370
25
 62
7
100
AcDbLine
 10
-41.82016752091011
 20
29.45591649581798
 30
0.0
 11
-40.68025128136517
 21
28.31600025627303
 31
0.0
  0
LINE
  5
AA9
330
1F
100
AcDbEntity
  8
SK2
  6
CONTINUOUS
370
25
 62
7
100
AcDbLine
 10
-41.46661413031683
 20
29.52662717393663
 30
0.0
 11
-40.14992119547525
 21
28.20993423909505
 31
0.0
  0
LINE
  5
AAA
330
1F
100
AcDbEntity
  8
SK2
  6
CONTINUOUS
370
25
 62
7
100
AcDbLine
 10
-41.11306073972356
 20
29.59733785205529
 30
0.0
 11
-39.61959110958534
 21
28.10386822191707
 31
0.0
  0
LINE
  5
AAB
330
1F
100
AcDbEntity
  8
SK2
  6
CONTINUOUS
370
25
 62
7
100
AcDbLine
 10
-40.75950734913028
 20
29.66804853017395
 30
0.0
 11
-39.1
 21
28.00854118104366
 31
0.0
  0
LINE
  5
AAC
330
1F
100
AcDbEntity
  8
SK2
  6
CONTINUOUS
370
25
 62
7
100
AcDbLine
 10
-40.405953958537
 20
29.7387592082926
 30
0.0
 11
-39.1
 21
28.43280524975559
 31
0.0
  0
LINE
  5
AAD
330
1F
100
AcDbEntity
  8
SK2
  6
CONTINUOUS
370
25
 62
7
100
AcDbLine
 10
-40.05240056794373
 20
29.80946988641125
 30
0.0
 11
-39.1
 21
28.85706931846752
 31
0.0
  0
LINE
  5
AAE
330
1F
100
AcDbEntity
  8
SK2
  6
CONTINUOUS
370
25
 62
7
100
AcDbLine
 10
-39.69884717735045
 20
29.88018056452992
 30
0.0
 11
-39.1
 21
29.28133338717946
 31
0.0
  0
LINE
  5
AAF
330
1F
100
AcDbEntity
  8
SK2
  6
CONTINUOUS
370
25
 62
7
100
AcDbLine
 10
-39.34529378675717
 20
29.95089124264857
 30
0.0
 11
-39.1
 21
29.70559745589139
 31
0.0
  0
LINE
  5
AB0
330
1F
100
AcDbEntity
  8
SK2
  6
CONTINUOUS
370
25
 62
7
100
AcDbLine
 10
15.9
 20
28.99995
 30
0.0
 11
10.9
 21
27.99995
 31
0.0
  0
LINE
  5
AB1
330
1F
100
AcDbEntity
  8
SK2
  6
CONTINUOUS
370
25
 62
7
100
AcDbLine
 10
10.9
 20
27.99995
 30
0.0
 11
10.9
 21
29.99995
 31
0.0
  0
LINE
  5
AB2
330
1F
100
AcDbEntity
  8
SK2
  6
CONTINUOUS
370
25
 62
7
100
AcDbLine
 10
10.9
 20
29.99995
 30
0.0
 11
15.9
 21
28.99995
 31
0.0
  0
LINE
  5
AB3
330
1F
100
AcDbEntity
  8
SK2
  6
CONTINUOUS
370
25
 62
7
100
AcDbLine
 10
15.83470483741277
 20
28.98689096748255
 30
0.0
 11
15.85646989160851
 21
29.0086560216783
 31
0.0
  0
LINE
  5
AB4
330
1F
100
AcDbEntity
  8
SK2
  6
CONTINUOUS
370
25
 62
7
100
AcDbLine
 10
15.30437475152286
 20
28.88082495030457
 30
0.0
 11
15.50291650101524
 21
29.07936669979695
 31
0.0
  0
LINE
  5
AB5
330
1F
100
AcDbEntity
  8
SK2
  6
CONTINUOUS
370
25
 62
7
100
AcDbLine
 10
14.77404466563294
 20
28.77475893312658
 30
0.0
 11
15.14936311042196
 21
29.15007737791561
 31
0.0
  0
LINE
  5
AB6
330
1F
100
AcDbEntity
  8
SK2
  6
CONTINUOUS
370
25
 62
7
100
AcDbLine
 10
14.24371457974303
 20
28.6686929159486
 30
0.0
 11
14.79580971982869
 21
29.22078805603426
 31
0.0
  0
LINE
  5
AB7
330
1F
100
AcDbEntity
  8
SK2
  6
CONTINUOUS
370
25
 62
7
100
AcDbLine
 10
13.71338449385312
 20
28.56262689877062
 30
0.0
 11
14.44225632923541
 21
29.29149873415292
 31
0.0
  0
LINE
  5
AB8
330
1F
100
AcDbEntity
  8
SK2
  6
CONTINUOUS
370
25
 62
7
100
AcDbLine
 10
13.18305440796321
 20
28.45656088159264
 30
0.0
 11
14.08870293864214
 21
29.36220941227157
 31
0.0
  0
LINE
  5
AB9
330
1F
100
AcDbEntity
  8
SK2
  6
CONTINUOUS
370
25
 62
7
100
AcDbLine
 10
12.6527243220733
 20
28.35049486441466
 30
0.0
 11
13.73514954804887
 21
29.43292009039023
 31
0.0
  0
LINE
  5
ABA
330
1F
100
AcDbEntity
  8
SK2
  6
CONTINUOUS
370
25
 62
7
100
AcDbLine
 10
12.12239423618339
 20
28.24442884723668
 30
0.0
 11
13.38159615745559
 21
29.50363076850888
 31
0.0
  0
LINE
  5
ABB
330
1F
100
AcDbEntity
  8
SK2
  6
CONTINUOUS
370
25
 62
7
100
AcDbLine
 10
11.59206415029348
 20
28.1383628300587
 30
0.0
 11
13.02804276686232
 21
29.57434144662754
 31
0.0
  0
LINE
  5
ABC
330
1F
100
AcDbEntity
  8
SK2
  6
CONTINUOUS
370
25
 62
7
100
AcDbLine
 10
11.06173406440357
 20
28.03229681288071
 30
0.0
 11
12.67448937626904
 21
29.64505212474619
 31
0.0
  0
LINE
  5
ABD
330
1F
100
AcDbEntity
  8
SK2
  6
CONTINUOUS
370
25
 62
7
100
AcDbLine
 10
10.9
 20
28.29482681718907
 30
0.0
 11
12.32093598567577
 21
29.71576280286484
 31
0.0
  0
LINE
  5
ABE
330
1F
100
AcDbEntity
  8
SK2
  6
CONTINUOUS
370
25
 62
7
100
AcDbLine
 10
10.9
 20
28.719090885901
 30
0.0
 11
11.96738259508249
 21
29.7864734809835
 31
0.0
  0
LINE
  5
ABF
330
1F
100
AcDbEntity
  8
SK2
  6
CONTINUOUS
370
25
 62
7
100
AcDbLine
 10
10.9
 20
29.14335495461293
 30
0.0
 11
11.61382920448922
 21
29.85718415910215
 31
0.0
  0
LINE
  5
AC0
330
1F
100
AcDbEntity
  8
SK2
  6
CONTINUOUS
370
25
 62
7
100
AcDbLine
 10
10.9
 20
29.56761902332486
 30
0.0
 11
11.26027581389595
 21
29.92789483722081
 31
0.0
  0
LINE
  5
AC1
330
1F
100
AcDbEntity
  8
SK2
  6
CONTINUOUS
370
25
 62
7
100
AcDbLine
 10
10.9
 20
29.99188309203679
 30
0.0
 11
10.90672242330267
 21
29.99860551533946
 31
0.0
  0
LINE
  5
AC2
330
1F
100
AcDbEntity
  8
SK2
  6
CONTINUOUS
370
25
 62
7
100
AcDbLine
 10
10.9
 20
28.1322943214974
 30
0.0
 11
11.01028693458117
 21
28.02200738691623
 31
0.0
  0
LINE
  5
AC3
330
1F
100
AcDbEntity
  8
SK2
  6
CONTINUOUS
370
25
 62
7
100
AcDbLine
 10
10.9
 20
28.55655839020933
 30
0.0
 11
11.36384032517444
 21
28.09271806503489
 31
0.0
  0
LINE
  5
AC4
330
1F
100
AcDbEntity
  8
SK2
  6
CONTINUOUS
370
25
 62
7
100
AcDbLine
 10
10.9
 20
28.98082245892126
 30
0.0
 11
11.71739371576772
 21
28.16342874315355
 31
0.0
  0
LINE
  5
AC5
330
1F
100
AcDbEntity
  8
SK2
  6
CONTINUOUS
370
25
 62
7
100
AcDbLine
 10
10.9
 20
29.40508652763319
 30
0.0
 11
12.07094710636099
 21
28.2341394212722
 31
0.0
  0
LINE
  5
AC6
330
1F
100
AcDbEntity
  8
SK2
  6
CONTINUOUS
370
25
 62
7
100
AcDbLine
 10
10.9
 20
29.82935059634512
 30
0.0
 11
12.42450049695426
 21
28.30485009939085
 31
0.0
  0
LINE
  5
AC7
330
1F
100
AcDbEntity
  8
SK2
  6
CONTINUOUS
370
25
 62
7
100
AcDbLine
 10
11.21708083132131
 20
29.93653383373574
 30
0.0
 11
12.77805388754754
 21
28.37556077750951
 31
0.0
  0
LINE
  5
AC8
330
1F
100
AcDbEntity
  8
SK2
  6
CONTINUOUS
370
25
 62
7
100
AcDbLine
 10
11.74741091721122
 20
29.83046781655776
 30
0.0
 11
13.13160727814081
 21
28.44627145562816
 31
0.0
  0
LINE
  5
AC9
330
1F
100
AcDbEntity
  8
SK2
  6
CONTINUOUS
370
25
 62
7
100
AcDbLine
 10
12.27774100310114
 20
29.72440179937977
 30
0.0
 11
13.48516066873409
 21
28.51698213374682
 31
0.0
  0
LINE
  5
ACA
330
1F
100
AcDbEntity
  8
SK2
  6
CONTINUOUS
370
25
 62
7
100
AcDbLine
 10
12.80807108899105
 20
29.61833578220179
 30
0.0
 11
13.83871405932737
 21
28.58769281186547
 31
0.0
  0
LINE
  5
ACB
330
1F
100
AcDbEntity
  8
SK2
  6
CONTINUOUS
370
25
 62
7
100
AcDbLine
 10
13.33840117488096
 20
29.51226976502381
 30
0.0
 11
14.19226744992064
 21
28.65840348998412
 31
0.0
  0
LINE
  5
ACC
330
1F
100
AcDbEntity
  8
SK2
  6
CONTINUOUS
370
25
 62
7
100
AcDbLine
 10
13.86873126077088
 20
29.40620374784582
 30
0.0
 11
14.54582084051392
 21
28.72911416810278
 31
0.0
  0
LINE
  5
ACD
330
1F
100
AcDbEntity
  8
SK2
  6
CONTINUOUS
370
25
 62
7
100
AcDbLine
 10
14.39906134666079
 20
29.30013773066784
 30
0.0
 11
14.89937423110719
 21
28.79982484622143
 31
0.0
  0
LINE
  5
ACE
330
1F
100
AcDbEntity
  8
SK2
  6
CONTINUOUS
370
25
 62
7
100
AcDbLine
 10
14.92939143255069
 20
29.19407171348986
 30
0.0
 11
15.25292762170046
 21
28.87053552434009
 31
0.0
  0
LINE
  5
ACF
330
1F
100
AcDbEntity
  8
SK2
  6
CONTINUOUS
370
25
 62
7
100
AcDbLine
 10
15.4597215184406
 20
29.08800569631188
 30
0.0
 11
15.60648101229374
 21
28.94124620245875
 31
0.0
  0
TEXT
  5
AD0
330
1F
100
AcDbEntity
  8
SK2
  6
CONTINUOUS
370
25
 62
7
100
AcDbText
 10
-16.725
 20
30.49995
 30
0.0
 40
3.5
  1
60
 72
     1
 11
-14.1
 21
30.49995
 31
0.0
100
AcDbText
  0
LINE
  5
AD1
330
1F
100
AcDbEntity
  8
2
  6
CONTINUOUS
370
25
 62
7
100
AcDbLine
 10
5.5
 20
0.0
 30
0.0
 11
5.499999999999999
 21
-21.5
 31
0.0
  0
LINE
  5
AD2
330
1F
100
AcDbEntity
  8
2
  6
CONTINUOUS
370
25
 62
7
100
AcDbLine
 10
15.9
 20
-21.5
 30
0.0
 11
15.9
 21
-1.5
 31
0.0
  0
LINE
  5
AD3
330
1F
100
AcDbEntity
  8
2
  6
CONTINUOUS
370
25
 62
7
100
AcDbLine
 10
-1.500000000000001
 20
-20.5
 30
0.0
 11
34.8
 21
-20.5
 31
0.0
  0
LINE
  5
AD4
330
1F
100
AcDbEntity
  8
2
  6
CONTINUOUS
370
25
 62
7
100
AcDbLine
 10
5.499999999999999
 20
-20.5
 30
0.0
 11
0.4999999999999991
 21
-21.5
 31
0.0
  0
LINE
  5
AD5
330
1F
100
AcDbEntity
  8
2
  6
CONTINUOUS
370
25
 62
7
100
AcDbLine
 10
0.4999999999999991
 20
-21.5
 30
0.0
 11
0.4999999999999991
 21
-19.5
 31
0.0
  0
LINE
  5
AD6
330
1F
100
AcDbEntity
  8
2
  6
CONTINUOUS
370
25
 62
7
100
AcDbLine
 10
0.4999999999999991
 20
-19.5
 30
0.0
 11
5.499999999999999
 21
-20.5
 31
0.0
  0
LINE
  5
AD7
330
1F
100
AcDbEntity
  8
2
  6
CONTINUOUS
370
25
 62
7
100
AcDbLine
 10
5.098587063567053
 20
-20.58028258728659
 30
0.0
 11
5.23239137571137
 21
-20.44647827514227
 31
0.0
  0
LINE
  5
AD8
330
1F
100
AcDbEntity
  8
2
  6
CONTINUOUS
370
25
 62
7
100
AcDbLine
 10
4.568256977677144
 20
-20.68634860446457
 30
0.0
 11
4.878837985118097
 21
-20.37576759702362
 31
0.0
  0
LINE
  5
AD9
330
1F
100
AcDbEntity
  8
2
  6
CONTINUOUS
370
25
 62
7
100
AcDbLine
 10
4.037926891787233
 20
-20.79241462164256
 30
0.0
 11
4.525284594524824
 21
-20.30505691890496
 31
0.0
  0
LINE
  5
ADA
330
1F
100
AcDbEntity
  8
2
  6
CONTINUOUS
370
25
 62
7
100
AcDbLine
 10
3.507596805897324
 20
-20.89848063882054
 30
0.0
 11
4.171731203931552
 21
-20.23434624078631
 31
0.0
  0
LINE
  5
ADB
330
1F
100
AcDbEntity
  8
2
  6
CONTINUOUS
370
25
 62
7
100
AcDbLine
 10
2.977266720007414
 20
-21.00454665599852
 30
0.0
 11
3.818177813338278
 21
-20.16363556266765
 31
0.0
  0
LINE
  5
ADC
330
1F
100
AcDbEntity
  8
2
  6
CONTINUOUS
370
25
 62
7
100
AcDbLine
 10
2.446936634117504
 20
-21.1106126731765
 30
0.0
 11
3.464624422745005
 21
-20.092924884549
 31
0.0
  0
LINE
  5
ADD
330
1F
100
AcDbEntity
  8
2
  6
CONTINUOUS
370
25
 62
7
100
AcDbLine
 10
1.916606548227594
 20
-21.21667869035448
 30
0.0
 11
3.111071032151732
 21
-20.02221420643034
 31
0.0
  0
LINE
  5
ADE
330
1F
100
AcDbEntity
  8
2
  6
CONTINUOUS
370
25
 62
7
100
AcDbLine
 10
1.386276462337685
 20
-21.32274470753246
 30
0.0
 11
2.75751764155846
 21
-19.95150352831169
 31
0.0
  0
LINE
  5
ADF
330
1F
100
AcDbEntity
  8
2
  6
CONTINUOUS
370
25
 62
7
100
AcDbLine
 10
0.8559463764477746
 20
-21.42881072471044
 30
0.0
 11
2.403964250965186
 21
-19.88079285019304
 31
0.0
  0
LINE
  5
AE0
330
1F
100
AcDbEntity
  8
2
  6
CONTINUOUS
370
25
 62
7
100
AcDbLine
 10
0.4999999999999991
 20
-21.36049303244629
 30
0.0
 11
2.050410860371913
 21
-19.81008217207438
 31
0.0
  0
LINE
  5
AE1
330
1F
100
AcDbEntity
  8
2
  6
CONTINUOUS
370
25
 62
7
100
AcDbLine
 10
0.4999999999999991
 20
-20.93622896373437
 30
0.0
 11
1.69685746977864
 21
-19.73937149395573
 31
0.0
  0
LINE
  5
AE2
330
1F
100
AcDbEntity
  8
2
  6
CONTINUOUS
370
25
 62
7
100
AcDbLine
 10
0.4999999999999991
 20
-20.51196489502243
 30
0.0
 11
1.343304079185363
 21
-19.66866081583707
 31
0.0
  0
LINE
  5
AE3
330
1F
100
AcDbEntity
  8
2
  6
CONTINUOUS
370
25
 62
7
100
AcDbLine
 10
0.4999999999999991
 20
-20.08770082631051
 30
0.0
 11
0.9897506885920934
 21
-19.59795013771842
 31
0.0
  0
LINE
  5
AE4
330
1F
100
AcDbEntity
  8
2
  6
CONTINUOUS
370
25
 62
7
100
AcDbLine
 10
0.4999999999999991
 20
-19.66343675759858
 30
0.0
 11
0.6361972979988171
 21
-19.52723945959976
 31
0.0
  0
LINE
  5
AE5
330
1F
100
AcDbEntity
  8
2
  6
CONTINUOUS
370
25
 62
7
100
AcDbLine
 10
0.4999999999999991
 20
-21.39135881895644
 30
0.0
 11
0.5905343175363041
 21
-21.48189313649274
 31
0.0
  0
LINE
  5
AE6
330
1F
100
AcDbEntity
  8
2
  6
CONTINUOUS
370
25
 62
7
100
AcDbLine
 10
0.4999999999999991
 20
-20.96709475024451
 30
0.0
 11
0.9440877081295745
 21
-21.41118245837409
 31
0.0
  0
LINE
  5
AE7
330
1F
100
AcDbEntity
  8
2
  6
CONTINUOUS
370
25
 62
7
100
AcDbLine
 10
0.4999999999999991
 20
-20.54283068153259
 30
0.0
 11
1.297641098722848
 21
-21.34047178025543
 31
0.0
  0
LINE
  5
AE8
330
1F
100
AcDbEntity
  8
2
  6
CONTINUOUS
370
25
 62
7
100
AcDbLine
 10
0.4999999999999991
 20
-20.11856661282065
 30
0.0
 11
1.651194489316124
 21
-21.26976110213678
 31
0.0
  0
LINE
  5
AE9
330
1F
100
AcDbEntity
  8
2
  6
CONTINUOUS
370
25
 62
7
100
AcDbLine
 10
0.4999999999999991
 20
-19.69430254410873
 30
0.0
 11
2.004747879909398
 21
-21.19905042401812
 31
0.0
  0
LINE
  5
AEA
330
1F
100
AcDbEntity
  8
2
  6
CONTINUOUS
370
25
 62
7
100
AcDbLine
 10
0.7874519057540007
 20
-19.5574903811508
 30
0.0
 11
2.358301270502671
 21
-21.12833974589947
 31
0.0
  0
LINE
  5
AEB
330
1F
100
AcDbEntity
  8
2
  6
CONTINUOUS
370
25
 62
7
100
AcDbLine
 10
1.317781991643911
 20
-19.66355639832878
 30
0.0
 11
2.711854661095944
 21
-21.05762906778081
 31
0.0
  0
LINE
  5
AEC
330
1F
100
AcDbEntity
  8
2
  6
CONTINUOUS
370
25
 62
7
100
AcDbLine
 10
1.848112077533821
 20
-19.76962241550676
 30
0.0
 11
3.065408051689217
 21
-20.98691838966216
 31
0.0
  0
LINE
  5
AED
330
1F
100
AcDbEntity
  8
2
  6
CONTINUOUS
370
25
 62
7
100
AcDbLine
 10
2.378442163423732
 20
-19.87568843268475
 30
0.0
 11
3.418961442282491
 21
-20.9162077115435
 31
0.0
  0
LINE
  5
AEE
330
1F
100
AcDbEntity
  8
2
  6
CONTINUOUS
370
25
 62
7
100
AcDbLine
 10
2.908772249313642
 20
-19.98175444986273
 30
0.0
 11
3.772514832875764
 21
-20.84549703342485
 31
0.0
  0
LINE
  5
AEF
330
1F
100
AcDbEntity
  8
2
  6
CONTINUOUS
370
25
 62
7
100
AcDbLine
 10
3.439102335203552
 20
-20.08782046704071
 30
0.0
 11
4.126068223469037
 21
-20.77478635530619
 31
0.0
  0
LINE
  5
AF0
330
1F
100
AcDbEntity
  8
2
  6
CONTINUOUS
370
25
 62
7
100
AcDbLine
 10
3.969432421093463
 20
-20.19388648421869
 30
0.0
 11
4.479621614062311
 21
-20.70407567718754
 31
0.0
  0
LINE
  5
AF1
330
1F
100
AcDbEntity
  8
2
  6
CONTINUOUS
370
25
 62
7
100
AcDbLine
 10
4.49976250698337
 20
-20.29995250139667
 30
0.0
 11
4.833175004655582
 21
-20.63336499906888
 31
0.0
  0
LINE
  5
AF2
330
1F
100
AcDbEntity
  8
2
  6
CONTINUOUS
370
25
 62
7
100
AcDbLine
 10
5.030092592873281
 20
-20.40601851857465
 30
0.0
 11
5.186728395248856
 21
-20.56265432095023
 31
0.0
  0
LINE
  5
AF3
330
1F
100
AcDbEntity
  8
2
  6
CONTINUOUS
370
25
 62
7
100
AcDbLine
 10
15.9
 20
-20.5
 30
0.0
 11
20.9
 21
-19.5
 31
0.0
  0
LINE
  5
AF4
330
1F
100
AcDbEntity
  8
2
  6
CONTINUOUS
370
25
 62
7
100
AcDbLine
 10
20.9
 20
-19.5
 30
0.0
 11
20.9
 21
-21.5
 31
0.0
  0
LINE
  5
AF5
330
1F
100
AcDbEntity
  8
2
  6
CONTINUOUS
370
25
 62
7
100
AcDbLine
 10
20.9
 20
-21.5
 30
0.0
 11
15.9
 21
-20.5
 31
0.0
  0
LINE
  5
AF6
330
1F
100
AcDbEntity
  8
2
  6
CONTINUOUS
370
25
 62
7
100
AcDbLine
 10
20.61157609554005
 20
-21.44231521910801
 30
0.0
 11
20.9
 21
-21.15389131464806
 31
0.0
  0
LINE
  5
AF7
330
1F
100
AcDbEntity
  8
2
  6
CONTINUOUS
370
25
 62
7
100
AcDbLine
 10
20.25802270494677
 20
-21.37160454098935
 30
0.0
 11
20.9
 21
-20.72962724593612
 31
0.0
  0
LINE
  5
AF8
330
1F
100
AcDbEntity
  8
2
  6
CONTINUOUS
370
25
 62
7
100
AcDbLine
 10
19.9044693143535
 20
-21.3008938628707
 30
0.0
 11
20.9
 21
-20.3053631772242
 31
0.0
  0
LINE
  5
AF9
330
1F
100
AcDbEntity
  8
2
  6
CONTINUOUS
370
25
 62
7
100
AcDbLine
 10
19.55091592376022
 20
-21.23018318475204
 30
0.0
 11
20.9
 21
-19.88109910851227
 31
0.0
  0
LINE
  5
AFA
330
1F
100
AcDbEntity
  8
2
  6
CONTINUOUS
370
25
 62
7
100
AcDbLine
 10
19.19736253316696
 20
-21.15947250663339
 30
0.0
 11
20.84604379975043
 21
-19.51079124004992
 31
0.0
  0
LINE
  5
AFB
330
1F
100
AcDbEntity
  8
2
  6
CONTINUOUS
370
25
 62
7
100
AcDbLine
 10
18.84380914257368
 20
-21.08876182851473
 30
0.0
 11
20.31571371386051
 21
-19.6168572572279
 31
0.0
  0
LINE
  5
AFC
330
1F
100
AcDbEntity
  8
2
  6
CONTINUOUS
370
25
 62
7
100
AcDbLine
 10
18.49025575198041
 20
-21.01805115039608
 30
0.0
 11
19.78538362797061
 21
-19.72292327440588
 31
0.0
  0
LINE
  5
AFD
330
1F
100
AcDbEntity
  8
2
  6
CONTINUOUS
370
25
 62
7
100
AcDbLine
 10
18.13670236138713
 20
-20.94734047227742
 30
0.0
 11
19.25505354208069
 21
-19.82898929158386
 31
0.0
  0
LINE
  5
AFE
330
1F
100
AcDbEntity
  8
2
  6
CONTINUOUS
370
25
 62
7
100
AcDbLine
 10
17.78314897079386
 20
-20.87662979415877
 30
0.0
 11
18.72472345619079
 21
-19.93505530876184
 31
0.0
  0
LINE
  5
AFF
330
1F
100
AcDbEntity
  8
2
  6
CONTINUOUS
370
25
 62
7
100
AcDbLine
 10
17.42959558020058
 20
-20.80591911604012
 30
0.0
 11
18.19439337030087
 21
-20.04112132593983
 31
0.0
  0
LINE
  5
B00
330
1F
100
AcDbEntity
  8
2
  6
CONTINUOUS
370
25
 62
7
100
AcDbLine
 10
17.07604218960732
 20
-20.73520843792146
 30
0.0
 11
17.66406328441097
 21
-20.14718734311781
 31
0.0
  0
LINE
  5
B01
330
1F
100
AcDbEntity
  8
2
  6
CONTINUOUS
370
25
 62
7
100
AcDbLine
 10
16.72248879901404
 20
-20.66449775980281
 30
0.0
 11
17.13373319852105
 21
-20.25325336029579
 31
0.0
  0
LINE
  5
B02
330
1F
100
AcDbEntity
  8
2
  6
CONTINUOUS
370
25
 62
7
100
AcDbLine
 10
16.36893540842077
 20
-20.59378708168415
 30
0.0
 11
16.60340311263115
 21
-20.35931937747377
 31
0.0
  0
LINE
  5
B03
330
1F
100
AcDbEntity
  8
2
  6
CONTINUOUS
370
25
 62
7
100
AcDbLine
 10
16.01538201782749
 20
-20.5230764035655
 30
0.0
 11
16.07307302674123
 21
-20.46538539465175
 31
0.0
  0
LINE
  5
B04
330
1F
100
AcDbEntity
  8
2
  6
CONTINUOUS
370
25
 62
7
100
AcDbLine
 10
15.96971903736493
 20
-20.48605619252701
 30
0.0
 11
16.0045785560474
 21
-20.52091571120948
 31
0.0
  0
LINE
  5
B05
330
1F
100
AcDbEntity
  8
2
  6
CONTINUOUS
370
25
 62
7
100
AcDbLine
 10
16.32327242795821
 20
-20.41534551440836
 30
0.0
 11
16.53490864193731
 21
-20.62698172838746
 31
0.0
  0
LINE
  5
B06
330
1F
100
AcDbEntity
  8
2
  6
CONTINUOUS
370
25
 62
7
100
AcDbLine
 10
16.67682581855148
 20
-20.34463483628971
 30
0.0
 11
17.06523872782722
 21
-20.73304774556544
 31
0.0
  0
LINE
  5
B07
330
1F
100
AcDbEntity
  8
2
  6
CONTINUOUS
370
25
 62
7
100
AcDbLine
 10
17.03037920914475
 20
-20.27392415817105
 30
0.0
 11
17.59556881371713
 21
-20.83911376274342
 31
0.0
  0
LINE
  5
B08
330
1F
100
AcDbEntity
  8
2
  6
CONTINUOUS
370
25
 62
7
100
AcDbLine
 10
17.38393259973803
 20
-20.20321348005239
 30
0.0
 11
18.12589889960704
 21
-20.94517977992141
 31
0.0
  0
LINE
  5
B09
330
1F
100
AcDbEntity
  8
2
  6
CONTINUOUS
370
25
 62
7
100
AcDbLine
 10
17.7374859903313
 20
-20.13250280193374
 30
0.0
 11
18.65622898549695
 21
-21.05124579709939
 31
0.0
  0
LINE
  5
B0A
330
1F
100
AcDbEntity
  8
2
  6
CONTINUOUS
370
25
 62
7
100
AcDbLine
 10
18.09103938092457
 20
-20.06179212381508
 30
0.0
 11
19.18655907138686
 21
-21.15731181427737
 31
0.0
  0
LINE
  5
B0B
330
1F
100
AcDbEntity
  8
2
  6
CONTINUOUS
370
25
 62
7
100
AcDbLine
 10
18.44459277151785
 20
-19.99108144569643
 30
0.0
 11
19.71688915727677
 21
-21.26337783145535
 31
0.0
  0
LINE
  5
B0C
330
1F
100
AcDbEntity
  8
2
  6
CONTINUOUS
370
25
 62
7
100
AcDbLine
 10
18.79814616211112
 20
-19.92037076757778
 30
0.0
 11
20.24721924316668
 21
-21.36944384863333
 31
0.0
  0
LINE
  5
B0D
330
1F
100
AcDbEntity
  8
2
  6
CONTINUOUS
370
25
 62
7
100
AcDbLine
 10
19.1516995527044
 20
-19.84966008945913
 30
0.0
 11
20.77754932905659
 21
-21.47550986581132
 31
0.0
  0
LINE
  5
B0E
330
1F
100
AcDbEntity
  8
2
  6
CONTINUOUS
370
25
 62
7
100
AcDbLine
 10
19.50525294329767
 20
-19.77894941134047
 30
0.0
 11
20.9
 21
-21.1736964680428
 31
0.0
  0
LINE
  5
B0F
330
1F
100
AcDbEntity
  8
2
  6
CONTINUOUS
370
25
 62
7
100
AcDbLine
 10
19.85880633389094
 20
-19.70823873322181
 30
0.0
 11
20.9
 21
-20.74943239933087
 31
0.0
  0
LINE
  5
B10
330
1F
100
AcDbEntity
  8
2
  6
CONTINUOUS
370
25
 62
7
100
AcDbLine
 10
20.21235972448422
 20
-19.63752805510316
 30
0.0
 11
20.9
 21
-20.32516833061894
 31
0.0
  0
LINE
  5
B11
330
1F
100
AcDbEntity
  8
2
  6
CONTINUOUS
370
25
 62
7
100
AcDbLine
 10
20.56591311507749
 20
-19.5668173769845
 30
0.0
 11
20.9
 21
-19.90090426190702
 31
0.0
  0
TEXT
  5
B12
330
1F
100
AcDbEntity
  8
2
  6
CONTINUOUS
370
25
 62
7
100
AcDbText
 10
23.475
 20
-19.0
 30
0.0
 40
3.5
  1
10.4
 72
     1
 11
27.85
 21
-19.0
 31
0.0
100
AcDbText
  0
LINE
  5
B13
330
1F
100
AcDbEntity
  8
SK1
  6
CONTINUOUS
370
50
 62
4
100
AcDbLine
 10
0.0
 20
0.0
 30
0.0
 11
2.5
 21
0.0
 31
0.0
  0
LINE
  5
B14
330
1F
100
AcDbEntity
  8
SK1
  6
CONTINUOUS
370
50
 62
4
100
AcDbLine
 10
0.0
 20
0.0
 30
0.0
 11
0.0
 21
2.5
 31
0.0
  0
ARC
  5
B15
330
1F
100
AcDbEntity
  8
SK1
  6
CONTINUOUS
370
50
 62
4
100
AcDbCircle
 10
0.0
 20
0.0
 30
0.0
 40
2.5
100
AcDbArc
 50
0.0
 51
90.0
  0
LINE
  5
B16
330
1F
100
AcDbEntity
  8
SK1
  6
CONTINUOUS
370
50
 62
4
100
AcDbLine
 10
0.0
 20
0.0
 30
0.0
 11
-2.5
 21
0.0
 31
0.0
  0
ARC
  5
B17
330
1F
100
AcDbEntity
  8
SK1
  6
CONTINUOUS
370
50
 62
4
100
AcDbCircle
 10
0.0
 20
0.0
 30
0.0
 40
2.5
100
AcDbArc
 50
180.0
 51
270.0
  0
LINE
  5
B18
330
1F
100
AcDbEntity
  8
SK1
  6
CONTINUOUS
370
50
 62
4
100
AcDbLine
 10
0.0
 20
-2.5
 30
0.0
 11
0.0
 21
0.0
 31
0.0
  0
ARC
  5
B19
330
1F
100
AcDbEntity
  8
SK1
  6
CONTINUOUS
370
50
 62
4
100
AcDbCircle
 10
0.0
 20
0.0
 30
0.0
 40
2.5
100
AcDbArc
 50
270.0
 51
0.0
  0
ARC
  5
B1A
330
1F
100
AcDbEntity
  8
SK1
  6
CONTINUOUS
370
50
 62
4
100
AcDbCircle
 10
0.0
 20
0.0
 30
0.0
 40
2.5
100
AcDbArc
 50
90.0
 51
180.0
  0
LINE
  5
B1B
330
1F
100
AcDbEntity
  8
SK1
  6
CONTINUOUS
370
50
 62
4
100
AcDbLine
 10
-0.31832627443191
 20
-2.479495909600069
 30
0.0
 11
0.0
 21
-2.161169635168159
 31
0.0
  0
LINE
  5
B1C
330
1F
100
AcDbEntity
  8
SK1
  6
CONTINUOUS
370
50
 62
4
100
AcDbLine
 10
2.16116963516816
 20
0.0
 30
0.0
 11
2.479495909600069
 21
0.3183262744319091
 31
0.0
  0
LINE
  5
B1D
330
1F
100
AcDbEntity
  8
SK1
  6
CONTINUOUS
370
50
 62
4
100
AcDbLine
 10
-0.615281817185723
 20
-2.422898061760609
 30
0.0
 11
0.0
 21
-1.807616244574886
 31
0.0
  0
LINE
  5
B1E
330
1F
100
AcDbEntity
  8
SK1
  6
CONTINUOUS
370
50
 62
4
100
AcDbLine
 10
1.807616244574887
 20
0.0
 30
0.0
 11
2.422898061760609
 21
0.6152818171857222
 31
0.0
  0
LINE
  5
B1F
330
1F
100
AcDbEntity
  8
SK1
  6
CONTINUOUS
370
50
 62
4
100
AcDbLine
 10
-0.8835965231639721
 20
-2.337659377145585
 30
0.0
 11
0.0
 21
-1.454062853981614
 31
0.0
  0
LINE
  5
B20
330
1F
100
AcDbEntity
  8
SK1
  6
CONTINUOUS
370
50
 62
4
100
AcDbLine
 10
1.454062853981615
 20
0.0
 30
0.0
 11
2.337659377145586
 21
0.8835965231639715
 31
0.0
  0
LINE
  5
B21
330
1F
100
AcDbEntity
  8
SK1
  6
CONTINUOUS
370
50
 62
4
100
AcDbLine
 10
-1.128779664263143
 20
-2.229289127651483
 30
0.0
 11
0.0
 21
-1.100509463388341
 31
0.0
  0
LINE
  5
B22
330
1F
100
AcDbEntity
  8
SK1
  6
CONTINUOUS
370
50
 62
4
100
AcDbLine
 10
1.100509463388341
 20
0.0
 30
0.0
 11
2.229289127651484
 21
1.128779664263142
 31
0.0
  0
LINE
  5
B23
330
1F
100
AcDbEntity
  8
SK1
  6
CONTINUOUS
370
50
 62
4
100
AcDbLine
 10
-1.354032791010379
 20
-2.100988863805446
 30
0.0
 11
0.0
 21
-0.7469560727950677
 31
0.0
  0
LINE
  5
B24
330
1F
100
AcDbEntity
  8
SK1
  6
CONTINUOUS
370
50
 62
4
100
AcDbLine
 10
0.746956072795068
 20
0.0
 30
0.0
 11
2.100988863805446
 21
1.354032791010378
 31
0.0
  0
LINE
  5
B25
330
1F
100
AcDbEntity
  8
SK1
  6
CONTINUOUS
370
50
 62
4
100
AcDbLine
 10
-1.559387394659872
 20
-1.952790076861666
 30
0.0
 11
0.0
 21
-0.3934026822017946
 31
0.0
  0
LINE
  5
B26
330
1F
100
AcDbEntity
  8
SK1
  6
CONTINUOUS
370
50
 62
4
100
AcDbLine
 10
0.3934026822017948
 20
0.0
 30
0.0
 11
1.952790076861667
 21
1.559387394659871
 31
0.0
  0
LINE
  5
B27
330
1F
100
AcDbEntity
  8
SK1
  6
CONTINUOUS
370
50
 62
4
100
AcDbLine
 10
-1.746970020883365
 20
-1.786819312491886
 30
0.0
 11
0.0
 21
-0.0398492916085216
 31
0.0
  0
LINE
  5
B28
330
1F
100
AcDbEntity
  8
SK1
  6
CONTINUOUS
370
50
 62
4
100
AcDbLine
 10
0.0398492916085216
 20
0.0
 30
0.0
 11
1.786819312491887
 21
1.746970020883364
 31
0.0
  0
LINE
  5
B29
330
1F
100
AcDbEntity
  8
SK1
  6
CONTINUOUS
370
50
 62
4
100
AcDbLine
 10
-1.917371878232655
 20
-1.603667779247902
 30
0.0
 11
-0.3137040989847517
 21
0.0
 31
0.0
  0
LINE
  5
B2A
330
1F
100
AcDbEntity
  8
SK1
  6
CONTINUOUS
370
50
 62
4
100
AcDbLine
 10
0.0
 20
0.3137040989847515
 30
0.0
 11
1.603667779247903
 21
1.917371878232654
 31
0.0
  0
LINE
  5
B2B
330
1F
100
AcDbEntity
  8
SK1
  6
CONTINUOUS
370
50
 62
4
100
AcDbLine
 10
-2.068741231122433
 20
-1.401483741544407
 30
0.0
 11
-0.6672574895780249
 21
0.0
 31
0.0
  0
LINE
  5
B2C
330
1F
100
AcDbEntity
  8
SK1
  6
CONTINUOUS
370
50
 62
4
100
AcDbLine
 10
0.0
 20
0.6672574895780246
 30
0.0
 11
1.401483741544409
 21
2.068741231122432
 31
0.0
  0
LINE
  5
B2D
330
1F
100
AcDbEntity
  8
SK1
  6
CONTINUOUS
370
50
 62
4
100
AcDbLine
 10
-2.2023876557675
 20
-1.181576775596201
 30
0.0
 11
-1.020810880171298
 21
0.0
 31
0.0
  0
LINE
  5
B2E
330
1F
100
AcDbEntity
  8
SK1
  6
CONTINUOUS
370
50
 62
4
100
AcDbLine
 10
0.0
 20
1.020810880171298
 30
0.0
 11
1.181576775596202
 21
2.202387655767499
 31
0.0
  0
LINE
  5
B2F
330
1F
100
AcDbEntity
  8
SK1
  6
CONTINUOUS
370
50
 62
4
100
AcDbLine
 10
-2.315450943493525
 20
-0.9410866727289533
 30
0.0
 11
-1.374364270764571
 21
0.0
 31
0.0
  0
LINE
  5
B30
330
1F
100
AcDbEntity
  8
SK1
  6
CONTINUOUS
370
50
 62
4
100
AcDbLine
 10
0.0
 20
1.374364270764571
 30
0.0
 11
0.9410866727289543
 21
2.315450943493524
 31
0.0
  0
LINE
  5
B31
330
1F
100
AcDbEntity
  8
SK1
  6
CONTINUOUS
370
50
 62
4
100
AcDbLine
 10
-2.405290600131854
 20
-0.6773729387740097
 30
0.0
 11
-1.727917661357844
 21
0.0
 31
0.0
  0
LINE
  5
B32
330
1F
100
AcDbEntity
  8
SK1
  6
CONTINUOUS
370
50
 62
4
100
AcDbLine
 10
0.0
 20
1.727917661357844
 30
0.0
 11
0.6773729387740106
 21
2.405290600131854
 31
0.0
  0
LINE
  5
B33
330
1F
100
AcDbEntity
  8
SK1
  6
CONTINUOUS
370
50
 62
4
100
AcDbLine
 10
-2.468598823056026
 20
-0.3871277711049084
 30
0.0
 11
-2.081471051951118
 21
0.0
 31
0.0
  0
LINE
  5
B34
330
1F
100
AcDbEntity
  8
SK1
  6
CONTINUOUS
370
50
 62
4
100
AcDbLine
 10
0.0
 20
2.081471051951117
 30
0.0
 11
0.3871277711049085
 21
2.468598823056025
 31
0.0
  0
LINE
  5
B35
330
1F
100
AcDbEntity
  8
SK1
  6
CONTINUOUS
370
50
 62
4
100
AcDbLine
 10
-2.498020276172772
 20
-0.0629958336283822
 30
0.0
 11
-2.43502444254439
 21
0.0
 31
0.0
  0
LINE
  5
B36
330
1F
100
AcDbEntity
  8
SK1
  6
CONTINUOUS
370
50
 62
4
100
AcDbLine
 10
0.0
 20
2.435024442544389
 30
0.0
 11
0.0629958336283828
 21
2.498020276172772
 31
0.0
  0
LINE
  5
B37
330
1F
100
AcDbEntity
  8
SK1
  6
CONTINUOUS
370
50
 62
4
100
AcDbLine
 10
-2.337336523620827
 20
-0.8844932833271533
 30
0.0
 11
-0.8844932833271509
 21
-2.337336523620827
 31
0.0
  0
LINE
  5
B38
330
1F
100
AcDbEntity
  8
SK1
  6
CONTINUOUS
370
50
 62
4
100
AcDbLine
 10
-2.466237059966593
 20
-0.4020393563881135
 30
0.0
 11
-0.4020393563881111
 21
-2.466237059966594
 31
0.0
  0
LINE
  5
B39
330
1F
100
AcDbEntity
  8
SK1
  6
CONTINUOUS
370
50
 62
4
100
AcDbLine
 10
-2.499522297881596
 20
-0.0152007278798383
 30
0.0
 11
-0.0152007278798351
 21
-2.499522297881596
 31
0.0
  0
LINE
  5
B3A
330
1F
100
AcDbEntity
  8
SK1
  6
CONTINUOUS
370
50
 62
4
100
AcDbLine
 10
-2.16116963516816
 20
0.0
 30
0.0
 11
0.0
 21
-2.161169635168158
 31
0.0
  0
LINE
  5
B3B
330
1F
100
AcDbEntity
  8
SK1
  6
CONTINUOUS
370
50
 62
4
100
AcDbLine
 10
-1.807616244574888
 20
0.0
 30
0.0
 11
0.0
 21
-1.807616244574886
 31
0.0
  0
LINE
  5
B3C
330
1F
100
AcDbEntity
  8
SK1
  6
CONTINUOUS
370
50
 62
4
100
AcDbLine
 10
-1.454062853981615
 20
0.0
 30
0.0
 11
0.0
 21
-1.454062853981613
 31
0.0
  0
LINE
  5
B3D
330
1F
100
AcDbEntity
  8
SK1
  6
CONTINUOUS
370
50
 62
4
100
AcDbLine
 10
-1.100509463388341
 20
0.0
 30
0.0
 11
0.0
 21
-1.10050946338834
 31
0.0
  0
LINE
  5
B3E
330
1F
100
AcDbEntity
  8
SK1
  6
CONTINUOUS
370
50
 62
4
100
AcDbLine
 10
-0.7469560727950676
 20
0.0
 30
0.0
 11
0.0
 21
-0.7469560727950668
 31
0.0
  0
LINE
  5
B3F
330
1F
100
AcDbEntity
  8
SK1
  6
CONTINUOUS
370
50
 62
4
100
AcDbLine
 10
-0.3934026822017942
 20
0.0
 30
0.0
 11
0.0
 21
-0.3934026822017938
 31
0.0
  0
LINE
  5
B40
330
1F
100
AcDbEntity
  8
SK1
  6
CONTINUOUS
370
50
 62
4
100
AcDbLine
 10
-0.0398492916085216
 20
0.0
 30
0.0
 11
0.0
 21
-0.0398492916085216
 31
0.0
  0
LINE
  5
B41
330
1F
100
AcDbEntity
  8
SK1
  6
CONTINUOUS
370
50
 62
4
100
AcDbLine
 10
0.0
 20
0.3137040989847515
 30
0.0
 11
0.3137040989847518
 21
0.0
 31
0.0
  0
LINE
  5
B42
330
1F
100
AcDbEntity
  8
SK1
  6
CONTINUOUS
370
50
 62
4
100
AcDbLine
 10
0.0
 20
0.6672574895780246
 30
0.0
 11
0.6672574895780253
 21
0.0
 31
0.0
  0
LINE
  5
B43
330
1F
100
AcDbEntity
  8
SK1
  6
CONTINUOUS
370
50
 62
4
100
AcDbLine
 10
0.0
 20
1.020810880171298
 30
0.0
 11
1.020810880171299
 21
0.0
 31
0.0
  0
LINE
  5
B44
330
1F
100
AcDbEntity
  8
SK1
  6
CONTINUOUS
370
50
 62
4
100
AcDbLine
 10
0.0
 20
1.37436427076457
 30
0.0
 11
1.374364270764571
 21
0.0
 31
0.0
  0
LINE
  5
B45
330
1F
100
AcDbEntity
  8
SK1
  6
CONTINUOUS
370
50
 62
4
100
AcDbLine
 10
0.0
 20
1.727917661357843
 30
0.0
 11
1.727917661357845
 21
0.0
 31
0.0
  0
LINE
  5
B46
330
1F
100
AcDbEntity
  8
SK1
  6
CONTINUOUS
370
50
 62
4
100
AcDbLine
 10
0.0
 20
2.081471051951116
 30
0.0
 11
2.081471051951118
 21
0.0
 31
0.0
  0
LINE
  5
B47
330
1F
100
AcDbEntity
  8
SK1
  6
CONTINUOUS
370
50
 62
4
100
AcDbLine
 10
0.0
 20
2.435024442544389
 30
0.0
 11
2.435024442544392
 21
0.0
 31
0.0
  0
LINE
  5
B48
330
1F
100
AcDbEntity
  8
SK1
  6
CONTINUOUS
370
50
 62
4
100
AcDbLine
 10
0.3077647139123103
 20
2.480813119225352
 30
0.0
 11
2.480813119225352
 21
0.307764713912313
 31
0.0
  0
LINE
  5
B49
330
1F
100
AcDbEntity
  8
SK1
  6
CONTINUOUS
370
50
 62
4
100
AcDbLine
 10
0.7611924397506667
 20
2.380938783980268
 30
0.0
 11
2.380938783980268
 21
0.7611924397506691
 31
0.0
  0
LINE
  5
B4A
330
1F
100
AcDbEntity
  8
SK1
  6
CONTINUOUS
370
50
 62
4
100
AcDbLine
 10
1.48586376213526
 20
2.009820852188948
 30
0.0
 11
2.009820852188946
 21
1.485863762135263
 31
0.0
  0
LINE
  5
B4B
330
1F
100
AcDbEntity
  8
4
  6
LONGDASH_DASH
370
25
 62
2
100
AcDbLine
 10
0.0
 20
0.0
 30
0.0
 11
15.9
 21
0.0
 31
0.0
  0
LINE
  5
B4C
330
1F
100
AcDbEntity
  8
SK4
  6
LONGDASH_DASH
370
25
 62
2
100
AcDbLine
 10
-50.1
 20
0.0
 30
0.0
 11
21.9
 21
0.0
 31
0.0
  0
LINE
  5
B4D
330
1F
100
AcDbEntity
  8
INFTOTAL
  6
CONTINUOUS
370
18
 62
9
100
AcDbLine
 10
-77.110011
 20
-31.900011
 30
0.0
 11
53.79001100000001
 21
-31.900011
 31
0.0
  0
LINE
  5
B4E
330
1F
100
AcDbEntity
  8
INFTOTAL
  6
CONTINUOUS
370
18
 62
9
100
AcDbLine
 10
53.79001100000001
 20
-31.900011
 30
0.0
 11
53.79001100000001
 21
47.300011
 31
0.0
  0
LINE
  5
B4F
330
1F
100
AcDbEntity
  8
INFTOTAL
  6
CONTINUOUS
370
18
 62
9
100
AcDbLine
 10
53.79001100000001
 20
47.300011
 30
0.0
 11
-77.110011
 21
47.300011
 31
0.0
  0
LINE
  5
B50
330
1F
100
AcDbEntity
  8
INFTOTAL
  6
CONTINUOUS
370
18
 62
9
100
AcDbLine
 10
-77.110011
 20
47.300011
 30
0.0
 11
-77.110011
 21
-31.90001100000001
 31
0.0
  0
ENDSEC
  0
SECTION
  2
OBJECTS
  0
DICTIONARY
  5
C
330
0
100
AcDbDictionary
281
     1
  3
ACAD_GROUP
350
D
  3
ACAD_LAYOUT
350
1A
  3
ACAD_MATERIAL
350
3B
  3
ACAD_MLEADERSTYLE
350
B53
  3
ACAD_MLINESTYLE
350
17
  3
ACAD_PLOTSETTINGS
350
19
  3
ACAD_PLOTSTYLENAME
350
E
  3
ACAD_SCALELIST
350
3EB
  3
ACAD_VISUALSTYLE
350
2A
  3
AcDbVariableDictionary
350
B51
  0
DICTIONARY
  5
D
102
{ACAD_REACTORS
330
C
102
}
330
C
100
AcDbDictionary
281
     1
  0
DICTIONARY
  5
1A
102
{ACAD_REACTORS
330
C
102
}
330
C
100
AcDbDictionary
281
     1
  3
Layout1
350
1E
  3
Layout2
350
26
  3
Model
350
22
  0
DICTIONARY
  5
3B
102
{ACAD_REACTORS
330
C
102
}
330
C
100
AcDbDictionary
281
     1
  3
ByBlock
350
3D
  3
ByLayer
350
3C
  3
Global
350
3E
  0
DICTIONARY
  5
B53
102
{ACAD_REACTORS
330
C
102
}
330
C
100
AcDbDictionary
281
     1
  0
DICTIONARY
  5
17
102
{ACAD_REACTORS
330
C
102
}
330
C
100
AcDbDictionary
281
     1
  3
Standard
350
18
  0
DICTIONARY
  5
19
102
{ACAD_REACTORS
330
C
102
}
330
C
100
AcDbDictionary
281
     1
  0
ACDBDICTIONARYWDFLT
  5
E
102
{ACAD_REACTORS
330
C
102
}
330
C
100
AcDbDictionary
281
     1
  3
Normal
350
F
100
AcDbDictionaryWithDefault
340
F
  0
DICTIONARY
  5
3EB
102
{ACAD_REACTORS
330
C
102
}
330
C
100
AcDbDictionary
281
     1
  3
A0
350
3EC
  3
A1
350
3ED
  3
A2
350
3EE
  3
A3
350
3EF
  3
A4
350
3F0
  3
A5
350
3F1
  3
A6
350
3F2
  3
A7
350
3F3
  3
A8
350
3F4
  3
A9
350
3F5
  3
B0
350
3F6
  3
B1
350
3F7
  3
B2
350
3F8
  3
B3
350
3F9
  3
B4
350
3FA
  3
B5
350
3FB
  3
B6
350
3FC
  3
B7
350
3FD
  3
B8
350
3FE
  3
B9
350
3FF
  3
C0
350
400
  3
C1
350
401
  3
C2
350
402
  3
C3
350
403
  3
C4
350
404
  3
C5
350
405
  3
C6
350
406
  3
C7
350
407
  3
C8
350
408
  3
C9
350
409
  3
D0
350
40A
  3
D1
350
40B
  3
D2
350
40C
  0
DICTIONARY
  5
2A
102
{ACAD_REACTORS
330
C
102
}
330
C
100
AcDbDictionary
281
     1
  3
2dWireframe
350
2F
  3
3D Hidden
350
31
  3
3dWireframe
350
30
  3
Basic
350
32
  3
Brighten
350
36
  3
ColorChange
350
3A
  3
Conceptual
350
34
  3
Dim
350
35
  3
Facepattern
350
39
  3
Flat
350
2B
  3
FlatWithEdges
350
2C
  3
Gouraud
350
2D
  3
GouraudWithEdges
350
2E
  3
Linepattern
350
38
  3
Realistic
350
33
  3
Thicken
350
37
  0
DICTIONARY
  5
B51
102
{ACAD_REACTORS
330
C
102
}
330
C
100
AcDbDictionary
281
     1
  3
CANNOSCALE
350
B56
  3
DIMASSOC
350
B57
  3
HIDETEXT
350
B58
  3
PSOLHEIGHT
350
B55
  3
PSOLWIDTH
350
B54
  0
LAYOUT
  5
1E
102
{ACAD_REACTORS
330
1A
102
}
330
1A
100
AcDbPlotSettings
  1

  2
none_device
  4

  6

 40
0.0
 41
0.0
 42
0.0
 43
0.0
 44
0.0
 45
0.0
 46
0.0
 47
0.0
 48
0.0
 49
0.0
140
0.0
141
0.0
142
1.0
143
1.0
 70
   688
 72
     0
 73
     0
 74
     5
  7

 75
    16
147
1.0
148
0.0
149
0.0
100
AcDbLayout
  1
Layout1
 70
     1
 71
     1
 10
0.0
 20
0.0
 11
420.0
 21
297.0
 12
0.0
 22
0.0
 32
0.0
 14
1.000000000000000E+20
 24
1.000000000000000E+20
 34
1.000000000000000E+20
 15
-1.000000000000000E+20
 25
-1.000000000000000E+20
 35
-1.000000000000000E+20
146
0.0
 13
0.0
 23
0.0
 33
0.0
 16
1.0
 26
0.0
 36
0.0
 17
0.0
 27
1.0
 37
0.0
 76
     0
330
1B
  0
LAYOUT
  5
26
102
{ACAD_REACTORS
330
1A
102
}
330
1A
100
AcDbPlotSettings
  1

  2
none_device
  4

  6

 40
0.0
 41
0.0
 42
0.0
 43
0.0
 44
0.0
 45
0.0
 46
0.0
 47
0.0
 48
0.0
 49
0.0
140
0.0
141
0.0
142
1.0
143
1.0
 70
   688
 72
     0
 73
     0
 74
     5
  7

 75
    16
147
1.0
148
0.0
149
0.0
100
AcDbLayout
  1
Layout2
 70
     1
 71
     2
 10
0.0
 20
0.0
 11
0.0
 21
0.0
 12
0.0
 22
0.0
 32
0.0
 14
0.0
 24
0.0
 34
0.0
 15
0.0
 25
0.0
 35
0.0
146
0.0
 13
0.0
 23
0.0
 33
0.0
 16
1.0
 26
0.0
 36
0.0
 17
0.0
 27
1.0
 37
0.0
 76
     0
330
23
  0
LAYOUT
  5
22
102
{ACAD_REACTORS
330
1A
102
}
330
1A
100
AcDbPlotSettings
  1

  2
none_device
  4

  6

 40
0.0
 41
0.0
 42
0.0
 43
0.0
 44
0.0
 45
0.0
 46
0.0
 47
0.0
 48
0.0
 49
0.0
140
0.0
141
0.0
142
1.0
143
1.0
 70
  1712
 72
     0
 73
     0
 74
     0
  7

 75
     0
147
1.0
148
0.0
149
0.0
100
AcDbLayout
  1
Model
 70
     1
 71
     0
 10
0.0
 20
0.0
 11
420.0
 21
297.0
 12
0.0
 22
0.0
 32
0.0
 14
0.0
 24
0.0
 34
0.0
 15
25.0
 25
35.0
 35
0.0
146
0.0
 13
0.0
 23
0.0
 33
0.0
 16
1.0
 26
0.0
 36
0.0
 17
0.0
 27
1.0
 37
0.0
 76
     0
330
1F
331
29
  0
MATERIAL
  5
3D
102
{ACAD_REACTORS
330
3B
102
}
102
{ACAD_XDICTIONARY
360
B7B
102
}
330
3B
100
AcDbMaterial
  1
ByBlock
  0
MATERIAL
  5
3C
102
{ACAD_REACTORS
330
3B
102
}
102
{ACAD_XDICTIONARY
360
B79
102
}
330
3B
100
AcDbMaterial
  1
ByLayer
  0
MATERIAL
  5
3E
102
{ACAD_REACTORS
330
3B
102
}
102
{ACAD_XDICTIONARY
360
B7D
102
}
330
3B
100
AcDbMaterial
  1
Global
  0
MLINESTYLE
  5
18
102
{ACAD_REACTORS
330
17
102
}
330
17
100
AcDbMlineStyle
  2
Standard
 70
     0
  3

 62
   256
 51
90.0
 52
90.0
 71
     2
 49
0.5
 62
   256
  6
BYLAYER
 49
-0.5
 62
   256
  6
BYLAYER
  0
ACDBPLACEHOLDER
  5
F
102
{ACAD_REACTORS
330
E
102
}
330
E
  0
SCALE
  5
3EC
102
{ACAD_REACTORS
330
3EB
102
}
330
3EB
100
AcDbScale
 70
     0
300
1:1
140
1.0
141
1.0
290
     1
  0
SCALE
  5
3ED
102
{ACAD_REACTORS
330
3EB
102
}
330
3EB
100
AcDbScale
 70
     0
300
1:2
140
1.0
141
2.0
290
     0
  0
SCALE
  5
3EE
102
{ACAD_REACTORS
330
3EB
102
}
330
3EB
100
AcDbScale
 70
     0
300
1:4
140
1.0
141
4.0
290
     0
  0
SCALE
  5
3EF
102
{ACAD_REACTORS
330
3EB
102
}
330
3EB
100
AcDbScale
 70
     0
300
1:5
140
1.0
141
5.0
290
     0
  0
SCALE
  5
3F0
102
{ACAD_REACTORS
330
3EB
102
}
330
3EB
100
AcDbScale
 70
     0
300
1:8
140
1.0
141
8.0
290
     0
  0
SCALE
  5
3F1
102
{ACAD_REACTORS
330
3EB
102
}
330
3EB
100
AcDbScale
 70
     0
300
1:10
140
1.0
141
10.0
290
     0
  0
SCALE
  5
3F2
102
{ACAD_REACTORS
330
3EB
102
}
330
3EB
100
AcDbScale
 70
     0
300
1:16
140
1.0
141
16.0
290
     0
  0
SCALE
  5
3F3
102
{ACAD_REACTORS
330
3EB
102
}
330
3EB
100
AcDbScale
 70
     0
300
1:20
140
1.0
141
20.0
290
     0
  0
SCALE
  5
3F4
102
{ACAD_REACTORS
330
3EB
102
}
330
3EB
100
AcDbScale
 70
     0
300
1:30
140
1.0
141
30.0
290
     0
  0
SCALE
  5
3F5
102
{ACAD_REACTORS
330
3EB
102
}
330
3EB
100
AcDbScale
 70
     0
300
1:40
140
1.0
141
40.0
290
     0
  0
SCALE
  5
3F6
102
{ACAD_REACTORS
330
3EB
102
}
330
3EB
100
AcDbScale
 70
     0
300
1:50
140
1.0
141
50.0
290
     0
  0
SCALE
  5
3F7
102
{ACAD_REACTORS
330
3EB
102
}
330
3EB
100
AcDbScale
 70
     0
300
1:100
140
1.0
141
100.0
290
     0
  0
SCALE
  5
3F8
102
{ACAD_REACTORS
330
3EB
102
}
330
3EB
100
AcDbScale
 70
     0
300
2:1
140
2.0
141
1.0
290
     0
  0
SCALE
  5
3F9
102
{ACAD_REACTORS
330
3EB
102
}
330
3EB
100
AcDbScale
 70
     0
300
4:1
140
4.0
141
1.0
290
     0
  0
SCALE
  5
3FA
102
{ACAD_REACTORS
330
3EB
102
}
330
3EB
100
AcDbScale
 70
     0
300
8:1
140
8.0
141
1.0
290
     0
  0
SCALE
  5
3FB
102
{ACAD_REACTORS
330
3EB
102
}
330
3EB
100
AcDbScale
 70
     0
300
10:1
140
10.0
141
1.0
290
     0
  0
SCALE
  5
3FC
102
{ACAD_REACTORS
330
3EB
102
}
330
3EB
100
AcDbScale
 70
     0
300
100:1
140
100.0
141
1.0
290
     0
  0
SCALE
  5
3FD
102
{ACAD_REACTORS
330
3EB
102
}
330
3EB
100
AcDbScale
 70
     0
300
1/128" = 1'-0"
140
0.0078125
141
12.0
290
     0
  0
SCALE
  5
3FE
102
{ACAD_REACTORS
330
3EB
102
}
330
3EB
100
AcDbScale
 70
     0
300
1/64" = 1'-0"
140
0.015625
141
12.0
290
     0
  0
SCALE
  5
3FF
102
{ACAD_REACTORS
330
3EB
102
}
330
3EB
100
AcDbScale
 70
     0
300
1/32" = 1'-0"
140
0.03125
141
12.0
290
     0
  0
SCALE
  5
400
102
{ACAD_REACTORS
330
3EB
102
}
330
3EB
100
AcDbScale
 70
     0
300
1/16" = 1'-0"
140
0.0625
141
12.0
290
     0
  0
SCALE
  5
401
102
{ACAD_REACTORS
330
3EB
102
}
330
3EB
100
AcDbScale
 70
     0
300
3/32" = 1'-0"
140
0.09375
141
12.0
290
     0
  0
SCALE
  5
402
102
{ACAD_REACTORS
330
3EB
102
}
330
3EB
100
AcDbScale
 70
     0
300
1/8" = 1'-0"
140
0.125
141
12.0
290
     0
  0
SCALE
  5
403
102
{ACAD_REACTORS
330
3EB
102
}
330
3EB
100
AcDbScale
 70
     0
300
3/16" = 1'-0"
140
0.1875
141
12.0
290
     0
  0
SCALE
  5
404
102
{ACAD_REACTORS
330
3EB
102
}
330
3EB
100
AcDbScale
 70
     0
300
1/4" = 1'-0"
140
0.25
141
12.0
290
     0
  0
SCALE
  5
405
102
{ACAD_REACTORS
330
3EB
102
}
330
3EB
100
AcDbScale
 70
     0
300
3/8" = 1'-0"
140
0.375
141
12.0
290
     0
  0
SCALE
  5
406
102
{ACAD_REACTORS
330
3EB
102
}
330
3EB
100
AcDbScale
 70
     0
300
1/2" = 1'-0"
140
0.5
141
12.0
290
     0
  0
SCALE
  5
407
102
{ACAD_REACTORS
330
3EB
102
}
330
3EB
100
AcDbScale
 70
     0
300
3/4" = 1'-0"
140
0.75
141
12.0
290
     0
  0
SCALE
  5
408
102
{ACAD_REACTORS
330
3EB
102
}
330
3EB
100
AcDbScale
 70
     0
300
1" = 1'-0"
140
1.0
141
12.0
290
     0
  0
SCALE
  5
409
102
{ACAD_REACTORS
330
3EB
102
}
330
3EB
100
AcDbScale
 70
     0
300
1-1/2" = 1'-0"
140
1.5
141
12.0
290
     0
  0
SCALE
  5
40A
102
{ACAD_REACTORS
330
3EB
102
}
330
3EB
100
AcDbScale
 70
     0
300
3" = 1'-0"
140
3.0
141
12.0
290
     0
  0
SCALE
  5
40B
102
{ACAD_REACTORS
330
3EB
102
}
330
3EB
100
AcDbScale
 70
     0
300
6" = 1'-0"
140
6.0
141
12.0
290
     0
  0
SCALE
  5
40C
102
{ACAD_REACTORS
330
3EB
102
}
330
3EB
100
AcDbScale
 70
     0
300
1'-0" = 1'-0"
140
12.0
141
12.0
290
     0
  0
VISUALSTYLE
  5
2F
102
{ACAD_REACTORS
330
2A
102
}
102
{ACAD_XDICTIONARY
360
B61
102
}
330
2A
100
AcDbVisualStyle
  2
2dWireframe
 70
     4
 71
     0
 72
     2
 73
     0
 90
        0
 40
-0.6
 41
-30.0
 62
     5
 63
     7
 74
     1
 91
        4
 64
     7
 65
   257
 75
     1
175
     1
 42
1.0
 92
        0
 66
   257
 43
1.0
 76
     1
 77
     6
 78
     2
 67
     7
 79
     5
170
     0
171
     0
290
     0
174
     0
 93
        1
 44
0.0
173
     0
291
     0
 45
0.0
1001
ACAD
1000
AcDbSavedByObjectVersion
1070
     0
  0
VISUALSTYLE
  5
31
102
{ACAD_REACTORS
330
2A
102
}
102
{ACAD_XDICTIONARY
360
B65
102
}
330
2A
100
AcDbVisualStyle
  2
3D Hidden
 70
     6
 71
     1
 72
     2
 73
     2
 90
        0
 40
-0.6
 41
-30.0
 62
     5
 63
     7
 74
     2
 91
        2
 64
     7
 65
   257
 75
     2
175
     1
 42
40.0
 92
        0
 66
   257
 43
1.0
 76
     1
 77
     6
 78
     2
 67
     7
 79
     3
170
     0
171
     0
290
     0
174
     0
 93
        1
 44
0.0
173
     0
291
     0
 45
0.0
1001
ACAD
1000
AcDbSavedByObjectVersion
1070
     0
  0
VISUALSTYLE
  5
30
102
{ACAD_REACTORS
330
2A
102
}
102
{ACAD_XDICTIONARY
360
B63
102
}
330
2A
100
AcDbVisualStyle
  2
3dWireframe
 70
     5
 71
     0
 72
     2
 73
     0
 90
        0
 40
-0.6
 41
-30.0
 62
     5
 63
     7
 74
     1
 91
        4
 64
     7
 65
   257
 75
     1
175
     1
 42
1.0
 92
        0
 66
   257
 43
1.0
 76
     1
 77
     6
 78
     2
 67
     7
 79
     5
170
     0
171
     0
290
     0
174
     0
 93
        1
 44
0.0
173
     0
291
     0
 45
0.0
1001
ACAD
1000
AcDbSavedByObjectVersion
1070
     0
  0
VISUALSTYLE
  5
32
102
{ACAD_REACTORS
330
2A
102
}
102
{ACAD_XDICTIONARY
360
B67
102
}
330
2A
100
AcDbVisualStyle
  2
Basic
 70
     7
 71
     1
 72
     0
 73
     1
 90
        0
 40
-0.6
 41
-30.0
 62
     5
 63
     7
 74
     0
 91
        4
 64
     7
 65
   257
 75
     1
175
     1
 42
1.0
 92
        8
 66
     7
 43
1.0
 76
     1
 77
     6
 78
     2
 67
     7
 79
     5
170
     0
171
     0
290
     0
174
     0
 93
        1
 44
0.0
173
     0
291
     1
 45
0.0
1001
ACAD
1000
AcDbSavedByObjectVersion
1070
     0
  0
VISUALSTYLE
  5
36
102
{ACAD_REACTORS
330
2A
102
}
102
{ACAD_XDICTIONARY
360
B6F
102
}
330
2A
100
AcDbVisualStyle
  2
Brighten
 70
    12
 71
     2
 72
     2
 73
     0
 90
        0
 40
-0.6
 41
-30.0
 62
     5
 63
     7
 74
     1
 91
        4
 64
     7
 65
   257
 75
     1
175
     1
 42
1.0
 92
        8
 66
     7
 43
1.0
 76
     1
 77
     6
 78
     2
 67
     7
 79
     5
170
     0
171
     0
290
     0
174
     0
 93
        1
 44
50.0
173
     0
291
     1
 45
0.0
1001
ACAD
1000
AcDbSavedByObjectVersion
1070
     0
  0
VISUALSTYLE
  5
3A
102
{ACAD_REACTORS
330
2A
102
}
102
{ACAD_XDICTIONARY
360
B77
102
}
330
2A
100
AcDbVisualStyle
  2
ColorChange
 70
    16
 71
     2
 72
     2
 73
     3
 90
        0
 40
-0.6
 41
-30.0
 62
     5
 63
     8
 74
     1
 91
        4
 64
     7
 65
   257
 75
     1
175
     1
 42
1.0
 92
        8
 66
     8
 43
1.0
 76
     1
 77
     6
 78
     2
 67
     7
 79
     5
170
     0
171
     0
290
     0
174
     0
 93
        1
 44
0.0
173
     0
291
     1
 45
0.0
1001
ACAD
1000
AcDbSavedByObjectVersion
1070
     0
  0
VISUALSTYLE
  5
34
102
{ACAD_REACTORS
330
2A
102
}
102
{ACAD_XDICTIONARY
360
B6B
102
}
330
2A
100
AcDbVisualStyle
  2
Conceptual
 70
     9
 71
     3
 72
     2
 73
     0
 90
        0
 40
-0.6
 41
-30.0
 62
     5
 63
     7
 74
     2
 91
        2
 64
     7
 65
   257
 75
     1
175
     1
 42
40.0
 92
        8
 66
     7
 43
1.0
 76
     1
 77
     6
 78
     2
 67
     7
 79
     3
170
     0
171
     0
290
     0
174
     0
 93
        1
 44
0.0
173
     0
291
     0
 45
0.0
1001
ACAD
1000
AcDbSavedByObjectVersion
1070
     0
  0
VISUALSTYLE
  5
35
102
{ACAD_REACTORS
330
2A
102
}
102
{ACAD_XDICTIONARY
360
B6D
102
}
330
2A
100
AcDbVisualStyle
  2
Dim
 70
    11
 71
     2
 72
     2
 73
     0
 90
        0
 40
-0.6
 41
-30.0
 62
     5
 63
     7
 74
     1
 91
        4
 64
     7
 65
   257
 75
     1
175
     1
 42
1.0
 92
        8
 66
     7
 43
1.0
 76
     1
 77
     6
 78
     2
 67
     7
 79
     5
170
     0
171
     0
290
     0
174
     0
 93
        1
 44
-50.0
173
     0
291
     1
 45
0.0
1001
ACAD
1000
AcDbSavedByObjectVersion
1070
     0
  0
VISUALSTYLE
  5
39
102
{ACAD_REACTORS
330
2A
102
}
102
{ACAD_XDICTIONARY
360
B75
102
}
330
2A
100
AcDbVisualStyle
  2
Facepattern
 70
    15
 71
     2
 72
     2
 73
     0
 90
        0
 40
-0.6
 41
-30.0
 62
     5
 63
     7
 74
     1
 91
        4
 64
     7
 65
   257
 75
     1
175
     1
 42
1.0
 92
        8
 66
     7
 43
1.0
 76
     1
 77
     6
 78
     2
 67
     7
 79
     5
170
     0
171
     0
290
     0
174
     0
 93
        1
 44
0.0
173
     0
291
     1
 45
0.0
1001
ACAD
1000
AcDbSavedByObjectVersion
1070
     0
  0
VISUALSTYLE
  5
2B
102
{ACAD_REACTORS
330
2A
102
}
102
{ACAD_XDICTIONARY
360
B59
102
}
330
2A
100
AcDbVisualStyle
  2
Flat
 70
     0
 71
     2
 72
     1
 73
     1
 90
        2
 40
-0.6
 41
30.0
 62
     5
 63
     7
 74
     0
 91
        4
 64
     7
 65
   257
 75
     1
175
     1
 42
1.0
 92
        8
 66
     7
 43
1.0
 76
     1
 77
     6
 78
     2
 67
     7
 79
     5
170
     0
171
     0
290
     0
174
     0
 93
       13
 44
0.0
173
     0
291
     1
 45
0.0
1001
ACAD
1000
AcDbSavedByObjectVersion
1070
     0
  0
VISUALSTYLE
  5
2C
102
{ACAD_REACTORS
330
2A
102
}
102
{ACAD_XDICTIONARY
360
B5B
102
}
330
2A
100
AcDbVisualStyle
  2
FlatWithEdges
 70
     1
 71
     2
 72
     1
 73
     1
 90
        2
 40
-0.6
 41
30.0
 62
     5
 63
     7
 74
     1
 91
        4
 64
     7
 65
   257
 75
     1
175
     1
 42
1.0
 92
        0
 66
   257
 43
1.0
 76
     1
 77
     6
 78
     2
 67
     7
 79
     5
170
     0
171
     0
290
     0
174
     0
 93
       13
 44
0.0
173
     0
291
     1
 45
0.0
1001
ACAD
1000
AcDbSavedByObjectVersion
1070
     0
  0
VISUALSTYLE
  5
2D
102
{ACAD_REACTORS
330
2A
102
}
102
{ACAD_XDICTIONARY
360
B5D
102
}
330
2A
100
AcDbVisualStyle
  2
Gouraud
 70
     2
 71
     2
 72
     2
 73
     1
 90
        2
 40
-0.6
 41
30.0
 62
     5
 63
     7
 74
     0
 91
        4
 64
     7
 65
   257
 75
     1
175
     1
 42
1.0
 92
        0
 66
     7
 43
1.0
 76
     1
 77
     6
 78
     2
 67
     7
 79
     5
170
     0
171
     0
290
     0
174
     0
 93
       13
 44
0.0
173
     0
291
     1
 45
0.0
1001
ACAD
1000
AcDbSavedByObjectVersion
1070
     0
  0
VISUALSTYLE
  5
2E
102
{ACAD_REACTORS
330
2A
102
}
102
{ACAD_XDICTIONARY
360
B5F
102
}
330
2A
100
AcDbVisualStyle
  2
GouraudWithEdges
 70
     3
 71
     2
 72
     2
 73
     1
 90
        2
 40
-0.6
 41
30.0
 62
     5
 63
     7
 74
     1
 91
        4
 64
     7
 65
   257
 75
     1
175
     1
 42
1.0
 92
        0
 66
   257
 43
1.0
 76
     1
 77
     6
 78
     2
 67
     7
 79
     5
170
     0
171
     0
290
     0
174
     0
 93
       13
 44
0.0
173
     0
291
     1
 45
0.0
1001
ACAD
1000
AcDbSavedByObjectVersion
1070
     0
  0
VISUALSTYLE
  5
38
102
{ACAD_REACTORS
330
2A
102
}
102
{ACAD_XDICTIONARY
360
B73
102
}
330
2A
100
AcDbVisualStyle
  2
Linepattern
 70
    14
 71
     2
 72
     2
 73
     0
 90
        0
 40
-0.6
 41
-30.0
 62
     5
 63
     7
 74
     1
 91
        4
 64
     7
 65
   257
 75
     7
175
     7
 42
1.0
 92
        8
 66
     7
 43
1.0
 76
     1
 77
     6
 78
     2
 67
     7
 79
     5
170
     0
171
     0
290
     0
174
     0
 93
        1
 44
0.0
173
     0
291
     1
 45
0.0
1001
ACAD
1000
AcDbSavedByObjectVersion
1070
     0
  0
VISUALSTYLE
  5
33
102
{ACAD_REACTORS
330
2A
102
}
102
{ACAD_XDICTIONARY
360
B69
102
}
330
2A
100
AcDbVisualStyle
  2
Realistic
 70
     8
 71
     2
 72
     2
 73
     0
 90
        0
 40
-0.6
 41
-30.0
 62
     5
 63
     7
 74
     1
 91
        0
 64
     7
 65
   257
 75
     1
175
     1
 42
1.0
 92
        8
 66
     8
 43
1.0
 76
     1
 77
     6
 78
     2
 67
     7
 79
     5
170
     0
171
     0
290
     0
174
     0
 93
       13
 44
0.0
173
     0
291
     0
 45
0.0
1001
ACAD
1000
AcDbSavedByObjectVersion
1070
     0
  0
VISUALSTYLE
  5
37
102
{ACAD_REACTORS
330
2A
102
}
102
{ACAD_XDICTIONARY
360
B71
102
}
330
2A
100
AcDbVisualStyle
  2
Thicken
 70
    13
 71
     2
 72
     2
 73
     0
 90
        0
 40
-0.6
 41
-30.0
 62
     5
 63
     7
 74
     1
 91
        4
 64
     7
 65
   257
 75
     1
175
     1
 42
1.0
 92
       12
 66
     7
 43
1.0
 76
     1
 77
     6
 78
     2
 67
     7
 79
     5
170
     0
171
     0
290
     0
174
     0
 93
        1
 44
0.0
173
     0
291
     1
 45
0.0
1001
ACAD
1000
AcDbSavedByObjectVersion
1070
     0
  0
DICTIONARYVAR
  5
B56
102
{ACAD_REACTORS
330
B51
102
}
330
B51
100
DictionaryVariables
280
     0
  1
1:1
  0
DICTIONARYVAR
  5
B57
102
{ACAD_REACTORS
330
B51
102
}
330
B51
100
DictionaryVariables
280
     0
  1
2
  0
DICTIONARYVAR
  5
B58
102
{ACAD_REACTORS
330
B51
102
}
330
B51
100
DictionaryVariables
280
     0
  1
1
  0
DICTIONARYVAR
  5
B55
102
{ACAD_REACTORS
330
B51
102
}
330
B51
100
DictionaryVariables
280
     0
  1
80.000000
  0
DICTIONARYVAR
  5
B54
102
{ACAD_REACTORS
330
B51
102
}
330
B51
100
DictionaryVariables
280
     0
  1
5.000000
  0
DICTIONARY
  5
B7B
330
3D
100
AcDbDictionary
280
     1
281
     1
  3
ACAD_XREC_ROUNDTRIP
360
B7C
  0
DICTIONARY
  5
B79
330
3C
100
AcDbDictionary
280
     1
281
     1
  3
ACAD_XREC_ROUNDTRIP
360
B7A
  0
DICTIONARY
  5
B7D
330
3E
100
AcDbDictionary
280
     1
281
     1
  3
ACAD_XREC_ROUNDTRIP
360
B7E
  0
DICTIONARY
  5
B61
330
2F
100
AcDbDictionary
280
     1
281
     1
  3
ACAD_XREC_ROUNDTRIP
360
B62
  0
DICTIONARY
  5
B65
330
31
100
AcDbDictionary
280
     1
281
     1
  3
ACAD_XREC_ROUNDTRIP
360
B66
  0
DICTIONARY
  5
B63
330
30
100
AcDbDictionary
280
     1
281
     1
  3
ACAD_XREC_ROUNDTRIP
360
B64
  0
DICTIONARY
  5
B67
330
32
100
AcDbDictionary
280
     1
281
     1
  3
ACAD_XREC_ROUNDTRIP
360
B68
  0
DICTIONARY
  5
B6F
330
36
100
AcDbDictionary
280
     1
281
     1
  3
ACAD_XREC_ROUNDTRIP
360
B70
  0
DICTIONARY
  5
B77
330
3A
100
AcDbDictionary
280
     1
281
     1
  3
ACAD_XREC_ROUNDTRIP
360
B78
  0
DICTIONARY
  5
B6B
330
34
100
AcDbDictionary
280
     1
281
     1
  3
ACAD_XREC_ROUNDTRIP
360
B6C
  0
DICTIONARY
  5
B6D
330
35
100
AcDbDictionary
280
     1
281
     1
  3
ACAD_XREC_ROUNDTRIP
360
B6E
  0
DICTIONARY
  5
B75
330
39
100
AcDbDictionary
280
     1
281
     1
  3
ACAD_XREC_ROUNDTRIP
360
B76
  0
DICTIONARY
  5
B59
330
2B
100
AcDbDictionary
280
     1
281
     1
  3
ACAD_XREC_ROUNDTRIP
360
B5A
  0
DICTIONARY
  5
B5B
330
2C
100
AcDbDictionary
280
     1
281
     1
  3
ACAD_XREC_ROUNDTRIP
360
B5C
  0
DICTIONARY
  5
B5D
330
2D
100
AcDbDictionary
280
     1
281
     1
  3
ACAD_XREC_ROUNDTRIP
360
B5E
  0
DICTIONARY
  5
B5F
330
2E
100
AcDbDictionary
280
     1
281
     1
  3
ACAD_XREC_ROUNDTRIP
360
B60
  0
DICTIONARY
  5
B73
330
38
100
AcDbDictionary
280
     1
281
     1
  3
ACAD_XREC_ROUNDTRIP
360
B74
  0
DICTIONARY
  5
B69
330
33
100
AcDbDictionary
280
     1
281
     1
  3
ACAD_XREC_ROUNDTRIP
360
B6A
  0
DICTIONARY
  5
B71
330
37
100
AcDbDictionary
280
     1
281
     1
  3
ACAD_XREC_ROUNDTRIP
360
B72
  0
XRECORD
  5
B7C
102
{ACAD_REACTORS
330
B7B
102
}
330
B7B
100
AcDbXrecord
280
     1
102
MATERIAL
148
0.0
149
0.0
149
0.0
 93
        0
 94
      127
282
     0
 72
     1
 77
     1
171
     1
175
     1
179
     1
273
     0
  0
XRECORD
  5
B7A
102
{ACAD_REACTORS
330
B79
102
}
330
B79
100
AcDbXrecord
280
     1
102
MATERIAL
148
0.0
149
0.0
149
0.0
 93
        0
 94
      127
282
     0
 72
     1
 77
     1
171
     1
175
     1
179
     1
273
     0
  0
XRECORD
  5
B7E
102
{ACAD_REACTORS
330
B7D
102
}
330
B7D
100
AcDbXrecord
280
     1
102
MATERIAL
148
0.0
149
0.0
149
0.0
 93
        0
 94
      127
282
     0
 72
     1
 77
     1
171
     1
175
     1
179
     1
273
     0
  0
XRECORD
  5
B62
102
{ACAD_REACTORS
330
B61
102
}
330
B61
100
AcDbXrecord
280
     1
102
RTVSPropertyOp0
 70
     1
102
RTVSPropertyOp1
 70
     1
102
RTVSPropertyOp2
 70
     1
102
RTVSPropertyOp3
 70
     1
102
RTVSPropertyOp4
 70
     1
102
RTVSPropertyOp5
 70
     1
102
RTVSPropertyOp6
 70
     1
102
RTVSPropertyOp7
 70
     1
102
RTVSPropertyOp8
 70
     1
102
RTVSPropertyOp9
 70
     1
102
RTVSPropertyOp10
 70
     1
102
RTVSPropertyOp11
 70
     1
102
RTVSPropertyOp12
 70
     1
102
RTVSPropertyOp13
 70
     1
102
RTVSPropertyOp14
 70
     1
102
RTVSPropertyOp15
 70
     1
102
RTVSPropertyOp16
 70
     1
102
RTVSPropertyOp17
 70
     1
102
RTVSPropertyOp18
 70
     1
102
RTVSPropertyOp19
 70
     1
102
RTVSPropertyOp20
 70
     1
102
RTVSPropertyOp21
 70
     1
102
RTVSPropertyOp22
 70
     1
102
RTVSPropertyOp23
 70
     1
102
RTVSPropertyOp24
 70
     1
102
RTVSPropertyOp25
 70
     1
102
RTVSPropertyOp26
 70
     1
102
RTVSPropertyOp27
 70
     1
  0
XRECORD
  5
B66
102
{ACAD_REACTORS
330
B65
102
}
330
B65
100
AcDbXrecord
280
     1
102
RTVSPropertyOp0
 70
     1
102
RTVSPropertyOp1
 70
     1
102
RTVSPropertyOp2
 70
     1
102
RTVSPropertyOp3
 70
     1
102
RTVSPropertyOp4
 70
     1
102
RTVSPropertyOp5
 70
     1
102
RTVSPropertyOp6
 70
     1
102
RTVSPropertyOp7
 70
     1
102
RTVSPropertyOp8
 70
     1
102
RTVSPropertyOp9
 70
     1
102
RTVSPropertyOp10
 70
     1
102
RTVSPropertyOp11
 70
     1
102
RTVSPropertyOp12
 70
     1
102
RTVSPropertyOp13
 70
     1
102
RTVSPropertyOp14
 70
     1
102
RTVSPropertyOp15
 70
     1
102
RTVSPropertyOp16
 70
     1
102
RTVSPropertyOp17
 70
     1
102
RTVSPropertyOp18
 70
     1
102
RTVSPropertyOp19
 70
     1
102
RTVSPropertyOp20
 70
     1
102
RTVSPropertyOp21
 70
     1
102
RTVSPropertyOp22
 70
     1
102
RTVSPropertyOp23
 70
     1
102
RTVSPropertyOp24
 70
     1
102
RTVSPropertyOp25
 70
     1
102
RTVSPropertyOp26
 70
     1
102
RTVSPropertyOp27
 70
     1
  0
XRECORD
  5
B64
102
{ACAD_REACTORS
330
B63
102
}
330
B63
100
AcDbXrecord
280
     1
102
RTVSPropertyOp0
 70
     1
102
RTVSPropertyOp1
 70
     1
102
RTVSPropertyOp2
 70
     1
102
RTVSPropertyOp3
 70
     1
102
RTVSPropertyOp4
 70
     1
102
RTVSPropertyOp5
 70
     1
102
RTVSPropertyOp6
 70
     1
102
RTVSPropertyOp7
 70
     1
102
RTVSPropertyOp8
 70
     1
102
RTVSPropertyOp9
 70
     1
102
RTVSPropertyOp10
 70
     1
102
RTVSPropertyOp11
 70
     1
102
RTVSPropertyOp12
 70
     1
102
RTVSPropertyOp13
 70
     1
102
RTVSPropertyOp14
 70
     1
102
RTVSPropertyOp15
 70
     1
102
RTVSPropertyOp16
 70
     1
102
RTVSPropertyOp17
 70
     1
102
RTVSPropertyOp18
 70
     1
102
RTVSPropertyOp19
 70
     1
102
RTVSPropertyOp20
 70
     1
102
RTVSPropertyOp21
 70
     1
102
RTVSPropertyOp22
 70
     1
102
RTVSPropertyOp23
 70
     1
102
RTVSPropertyOp24
 70
     1
102
RTVSPropertyOp25
 70
     1
102
RTVSPropertyOp26
 70
     1
102
RTVSPropertyOp27
 70
     1
  0
XRECORD
  5
B68
102
{ACAD_REACTORS
330
B67
102
}
330
B67
100
AcDbXrecord
280
     1
102
RTVSPropertyOp0
 70
     1
102
RTVSPropertyOp1
 70
     1
102
RTVSPropertyOp2
 70
     1
102
RTVSPropertyOp3
 70
     1
102
RTVSPropertyOp4
 70
     1
102
RTVSPropertyOp5
 70
     1
102
RTVSPropertyOp6
 70
     1
102
RTVSPropertyOp7
 70
     1
102
RTVSPropertyOp8
 70
     1
102
RTVSPropertyOp9
 70
     1
102
RTVSPropertyOp10
 70
     1
102
RTVSPropertyOp11
 70
     1
102
RTVSPropertyOp12
 70
     1
102
RTVSPropertyOp13
 70
     1
102
RTVSPropertyOp14
 70
     1
102
RTVSPropertyOp15
 70
     1
102
RTVSPropertyOp16
 70
     1
102
RTVSPropertyOp17
 70
     1
102
RTVSPropertyOp18
 70
     1
102
RTVSPropertyOp19
 70
     1
102
RTVSPropertyOp20
 70
     1
102
RTVSPropertyOp21
 70
     1
102
RTVSPropertyOp22
 70
     1
102
RTVSPropertyOp23
 70
     1
102
RTVSPropertyOp24
 70
     1
102
RTVSPropertyOp25
 70
     1
102
RTVSPropertyOp26
 70
     1
102
RTVSPropertyOp27
 70
     1
  0
XRECORD
  5
B70
102
{ACAD_REACTORS
330
B6F
102
}
330
B6F
100
AcDbXrecord
280
     1
102
RTVSPropertyOp0
 70
     1
102
RTVSPropertyOp1
 70
     1
102
RTVSPropertyOp2
 70
     1
102
RTVSPropertyOp3
 70
     1
102
RTVSPropertyOp4
 70
     1
102
RTVSPropertyOp5
 70
     1
102
RTVSPropertyOp6
 70
     1
102
RTVSPropertyOp7
 70
     1
102
RTVSPropertyOp8
 70
     1
102
RTVSPropertyOp9
 70
     1
102
RTVSPropertyOp10
 70
     1
102
RTVSPropertyOp11
 70
     1
102
RTVSPropertyOp12
 70
     1
102
RTVSPropertyOp13
 70
     1
102
RTVSPropertyOp14
 70
     1
102
RTVSPropertyOp15
 70
     1
102
RTVSPropertyOp16
 70
     1
102
RTVSPropertyOp17
 70
     1
102
RTVSPropertyOp18
 70
     1
102
RTVSPropertyOp19
 70
     1
102
RTVSPropertyOp20
 70
     1
102
RTVSPropertyOp21
 70
     1
102
RTVSPropertyOp22
 70
     1
102
RTVSPropertyOp23
 70
     1
102
RTVSPropertyOp24
 70
     1
102
RTVSPropertyOp25
 70
     1
102
RTVSPropertyOp26
 70
     1
102
RTVSPropertyOp27
 70
     1
  0
XRECORD
  5
B78
102
{ACAD_REACTORS
330
B77
102
}
330
B77
100
AcDbXrecord
280
     1
102
RTVSPropertyOp0
 70
     1
102
RTVSPropertyOp1
 70
     1
102
RTVSPropertyOp2
 70
     1
102
RTVSPropertyOp3
 70
     1
102
RTVSPropertyOp4
 70
     1
102
RTVSPropertyOp5
 70
     1
102
RTVSPropertyOp6
 70
     1
102
RTVSPropertyOp7
 70
     1
102
RTVSPropertyOp8
 70
     1
102
RTVSPropertyOp9
 70
     1
102
RTVSPropertyOp10
 70
     1
102
RTVSPropertyOp11
 70
     1
102
RTVSPropertyOp12
 70
     1
102
RTVSPropertyOp13
 70
     1
102
RTVSPropertyOp14
 70
     1
102
RTVSPropertyOp15
 70
     1
102
RTVSPropertyOp16
 70
     1
102
RTVSPropertyOp17
 70
     1
102
RTVSPropertyOp18
 70
     1
102
RTVSPropertyOp19
 70
     1
102
RTVSPropertyOp20
 70
     1
102
RTVSPropertyOp21
 70
     1
102
RTVSPropertyOp22
 70
     1
102
RTVSPropertyOp23
 70
     1
102
RTVSPropertyOp24
 70
     1
102
RTVSPropertyOp25
 70
     1
102
RTVSPropertyOp26
 70
     1
102
RTVSPropertyOp27
 70
     1
  0
XRECORD
  5
B6C
102
{ACAD_REACTORS
330
B6B
102
}
330
B6B
100
AcDbXrecord
280
     1
102
RTVSPropertyOp0
 70
     1
102
RTVSPropertyOp1
 70
     1
102
RTVSPropertyOp2
 70
     1
102
RTVSPropertyOp3
 70
     1
102
RTVSPropertyOp4
 70
     1
102
RTVSPropertyOp5
 70
     1
102
RTVSPropertyOp6
 70
     1
102
RTVSPropertyOp7
 70
     1
102
RTVSPropertyOp8
 70
     1
102
RTVSPropertyOp9
 70
     1
102
RTVSPropertyOp10
 70
     1
102
RTVSPropertyOp11
 70
     1
102
RTVSPropertyOp12
 70
     1
102
RTVSPropertyOp13
 70
     1
102
RTVSPropertyOp14
 70
     1
102
RTVSPropertyOp15
 70
     1
102
RTVSPropertyOp16
 70
     1
102
RTVSPropertyOp17
 70
     1
102
RTVSPropertyOp18
 70
     1
102
RTVSPropertyOp19
 70
     1
102
RTVSPropertyOp20
 70
     1
102
RTVSPropertyOp21
 70
     1
102
RTVSPropertyOp22
 70
     1
102
RTVSPropertyOp23
 70
     1
102
RTVSPropertyOp24
 70
     1
102
RTVSPropertyOp25
 70
     1
102
RTVSPropertyOp26
 70
     1
102
RTVSPropertyOp27
 70
     1
  0
XRECORD
  5
B6E
102
{ACAD_REACTORS
330
B6D
102
}
330
B6D
100
AcDbXrecord
280
     1
102
RTVSPropertyOp0
 70
     1
102
RTVSPropertyOp1
 70
     1
102
RTVSPropertyOp2
 70
     1
102
RTVSPropertyOp3
 70
     1
102
RTVSPropertyOp4
 70
     1
102
RTVSPropertyOp5
 70
     1
102
RTVSPropertyOp6
 70
     1
102
RTVSPropertyOp7
 70
     1
102
RTVSPropertyOp8
 70
     1
102
RTVSPropertyOp9
 70
     1
102
RTVSPropertyOp10
 70
     1
102
RTVSPropertyOp11
 70
     1
102
RTVSPropertyOp12
 70
     1
102
RTVSPropertyOp13
 70
     1
102
RTVSPropertyOp14
 70
     1
102
RTVSPropertyOp15
 70
     1
102
RTVSPropertyOp16
 70
     1
102
RTVSPropertyOp17
 70
     1
102
RTVSPropertyOp18
 70
     1
102
RTVSPropertyOp19
 70
     1
102
RTVSPropertyOp20
 70
     1
102
RTVSPropertyOp21
 70
     1
102
RTVSPropertyOp22
 70
     1
102
RTVSPropertyOp23
 70
     1
102
RTVSPropertyOp24
 70
     1
102
RTVSPropertyOp25
 70
     1
102
RTVSPropertyOp26
 70
     1
102
RTVSPropertyOp27
 70
     1
  0
XRECORD
  5
B76
102
{ACAD_REACTORS
330
B75
102
}
330
B75
100
AcDbXrecord
280
     1
102
RTVSPropertyOp0
 70
     1
102
RTVSPropertyOp1
 70
     1
102
RTVSPropertyOp2
 70
     1
102
RTVSPropertyOp3
 70
     1
102
RTVSPropertyOp4
 70
     1
102
RTVSPropertyOp5
 70
     1
102
RTVSPropertyOp6
 70
     1
102
RTVSPropertyOp7
 70
     1
102
RTVSPropertyOp8
 70
     1
102
RTVSPropertyOp9
 70
     1
102
RTVSPropertyOp10
 70
     1
102
RTVSPropertyOp11
 70
     1
102
RTVSPropertyOp12
 70
     1
102
RTVSPropertyOp13
 70
     1
102
RTVSPropertyOp14
 70
     1
102
RTVSPropertyOp15
 70
     1
102
RTVSPropertyOp16
 70
     1
102
RTVSPropertyOp17
 70
     1
102
RTVSPropertyOp18
 70
     1
102
RTVSPropertyOp19
 70
     1
102
RTVSPropertyOp20
 70
     1
102
RTVSPropertyOp21
 70
     1
102
RTVSPropertyOp22
 70
     1
102
RTVSPropertyOp23
 70
     1
102
RTVSPropertyOp24
 70
     1
102
RTVSPropertyOp25
 70
     1
102
RTVSPropertyOp26
 70
     1
102
RTVSPropertyOp27
 70
     1
  0
XRECORD
  5
B5A
102
{ACAD_REACTORS
330
B59
102
}
330
B59
100
AcDbXrecord
280
     1
102
RTVSPropertyOp0
 70
     1
102
RTVSPropertyOp1
 70
     1
102
RTVSPropertyOp2
 70
     1
102
RTVSPropertyOp3
 70
     1
102
RTVSPropertyOp4
 70
     1
102
RTVSPropertyOp5
 70
     1
102
RTVSPropertyOp6
 70
     1
102
RTVSPropertyOp7
 70
     1
102
RTVSPropertyOp8
 70
     1
102
RTVSPropertyOp9
 70
     1
102
RTVSPropertyOp10
 70
     1
102
RTVSPropertyOp11
 70
     1
102
RTVSPropertyOp12
 70
     1
102
RTVSPropertyOp13
 70
     1
102
RTVSPropertyOp14
 70
     1
102
RTVSPropertyOp15
 70
     1
102
RTVSPropertyOp16
 70
     1
102
RTVSPropertyOp17
 70
     1
102
RTVSPropertyOp18
 70
     1
102
RTVSPropertyOp19
 70
     1
102
RTVSPropertyOp20
 70
     1
102
RTVSPropertyOp21
 70
     1
102
RTVSPropertyOp22
 70
     1
102
RTVSPropertyOp23
 70
     1
102
RTVSPropertyOp24
 70
     1
102
RTVSPropertyOp25
 70
     1
102
RTVSPropertyOp26
 70
     1
102
RTVSPropertyOp27
 70
     1
  0
XRECORD
  5
B5C
102
{ACAD_REACTORS
330
B5B
102
}
330
B5B
100
AcDbXrecord
280
     1
102
RTVSPropertyOp0
 70
     1
102
RTVSPropertyOp1
 70
     1
102
RTVSPropertyOp2
 70
     1
102
RTVSPropertyOp3
 70
     1
102
RTVSPropertyOp4
 70
     1
102
RTVSPropertyOp5
 70
     1
102
RTVSPropertyOp6
 70
     1
102
RTVSPropertyOp7
 70
     1
102
RTVSPropertyOp8
 70
     1
102
RTVSPropertyOp9
 70
     1
102
RTVSPropertyOp10
 70
     1
102
RTVSPropertyOp11
 70
     1
102
RTVSPropertyOp12
 70
     1
102
RTVSPropertyOp13
 70
     1
102
RTVSPropertyOp14
 70
     1
102
RTVSPropertyOp15
 70
     1
102
RTVSPropertyOp16
 70
     1
102
RTVSPropertyOp17
 70
     1
102
RTVSPropertyOp18
 70
     1
102
RTVSPropertyOp19
 70
     1
102
RTVSPropertyOp20
 70
     1
102
RTVSPropertyOp21
 70
     1
102
RTVSPropertyOp22
 70
     1
102
RTVSPropertyOp23
 70
     1
102
RTVSPropertyOp24
 70
     1
102
RTVSPropertyOp25
 70
     1
102
RTVSPropertyOp26
 70
     1
102
RTVSPropertyOp27
 70
     1
  0
XRECORD
  5
B5E
102
{ACAD_REACTORS
330
B5D
102
}
330
B5D
100
AcDbXrecord
280
     1
102
RTVSPropertyOp0
 70
     1
102
RTVSPropertyOp1
 70
     1
102
RTVSPropertyOp2
 70
     1
102
RTVSPropertyOp3
 70
     1
102
RTVSPropertyOp4
 70
     1
102
RTVSPropertyOp5
 70
     1
102
RTVSPropertyOp6
 70
     1
102
RTVSPropertyOp7
 70
     1
102
RTVSPropertyOp8
 70
     1
102
RTVSPropertyOp9
 70
     1
102
RTVSPropertyOp10
 70
     1
102
RTVSPropertyOp11
 70
     1
102
RTVSPropertyOp12
 70
     1
102
RTVSPropertyOp13
 70
     1
102
RTVSPropertyOp14
 70
     1
102
RTVSPropertyOp15
 70
     1
102
RTVSPropertyOp16
 70
     1
102
RTVSPropertyOp17
 70
     1
102
RTVSPropertyOp18
 70
     1
102
RTVSPropertyOp19
 70
     1
102
RTVSPropertyOp20
 70
     1
102
RTVSPropertyOp21
 70
     1
102
RTVSPropertyOp22
 70
     1
102
RTVSPropertyOp23
 70
     1
102
RTVSPropertyOp24
 70
     1
102
RTVSPropertyOp25
 70
     1
102
RTVSPropertyOp26
 70
     1
102
RTVSPropertyOp27
 70
     1
  0
XRECORD
  5
B60
102
{ACAD_REACTORS
330
B5F
102
}
330
B5F
100
AcDbXrecord
280
     1
102
RTVSPropertyOp0
 70
     1
102
RTVSPropertyOp1
 70
     1
102
RTVSPropertyOp2
 70
     1
102
RTVSPropertyOp3
 70
     1
102
RTVSPropertyOp4
 70
     1
102
RTVSPropertyOp5
 70
     1
102
RTVSPropertyOp6
 70
     1
102
RTVSPropertyOp7
 70
     1
102
RTVSPropertyOp8
 70
     1
102
RTVSPropertyOp9
 70
     1
102
RTVSPropertyOp10
 70
     1
102
RTVSPropertyOp11
 70
     1
102
RTVSPropertyOp12
 70
     1
102
RTVSPropertyOp13
 70
     1
102
RTVSPropertyOp14
 70
     1
102
RTVSPropertyOp15
 70
     1
102
RTVSPropertyOp16
 70
     1
102
RTVSPropertyOp17
 70
     1
102
RTVSPropertyOp18
 70
     1
102
RTVSPropertyOp19
 70
     1
102
RTVSPropertyOp20
 70
     1
102
RTVSPropertyOp21
 70
     1
102
RTVSPropertyOp22
 70
     1
102
RTVSPropertyOp23
 70
     1
102
RTVSPropertyOp24
 70
     1
102
RTVSPropertyOp25
 70
     1
102
RTVSPropertyOp26
 70
     1
102
RTVSPropertyOp27
 70
     1
  0
XRECORD
  5
B74
102
{ACAD_REACTORS
330
B73
102
}
330
B73
100
AcDbXrecord
280
     1
102
RTVSPropertyOp0
 70
     1
102
RTVSPropertyOp1
 70
     1
102
RTVSPropertyOp2
 70
     1
102
RTVSPropertyOp3
 70
     1
102
RTVSPropertyOp4
 70
     1
102
RTVSPropertyOp5
 70
     1
102
RTVSPropertyOp6
 70
     1
102
RTVSPropertyOp7
 70
     1
102
RTVSPropertyOp8
 70
     1
102
RTVSPropertyOp9
 70
     1
102
RTVSPropertyOp10
 70
     1
102
RTVSPropertyOp11
 70
     1
102
RTVSPropertyOp12
 70
     1
102
RTVSPropertyOp13
 70
     1
102
RTVSPropertyOp14
 70
     1
102
RTVSPropertyOp15
 70
     1
102
RTVSPropertyOp16
 70
     1
102
RTVSPropertyOp17
 70
     1
102
RTVSPropertyOp18
 70
     1
102
RTVSPropertyOp19
 70
     1
102
RTVSPropertyOp20
 70
     1
102
RTVSPropertyOp21
 70
     1
102
RTVSPropertyOp22
 70
     1
102
RTVSPropertyOp23
 70
     1
102
RTVSPropertyOp24
 70
     1
102
RTVSPropertyOp25
 70
     1
102
RTVSPropertyOp26
 70
     1
102
RTVSPropertyOp27
 70
     1
  0
XRECORD
  5
B6A
102
{ACAD_REACTORS
330
B69
102
}
330
B69
100
AcDbXrecord
280
     1
102
RTVSPropertyOp0
 70
     1
102
RTVSPropertyOp1
 70
     1
102
RTVSPropertyOp2
 70
     1
102
RTVSPropertyOp3
 70
     1
102
RTVSPropertyOp4
 70
     1
102
RTVSPropertyOp5
 70
     1
102
RTVSPropertyOp6
 70
     1
102
RTVSPropertyOp7
 70
     1
102
RTVSPropertyOp8
 70
     1
102
RTVSPropertyOp9
 70
     1
102
RTVSPropertyOp10
 70
     1
102
RTVSPropertyOp11
 70
     1
102
RTVSPropertyOp12
 70
     1
102
RTVSPropertyOp13
 70
     1
102
RTVSPropertyOp14
 70
     1
102
RTVSPropertyOp15
 70
     1
102
RTVSPropertyOp16
 70
     1
102
RTVSPropertyOp17
 70
     1
102
RTVSPropertyOp18
 70
     1
102
RTVSPropertyOp19
 70
     1
102
RTVSPropertyOp20
 70
     1
102
RTVSPropertyOp21
 70
     1
102
RTVSPropertyOp22
 70
     1
102
RTVSPropertyOp23
 70
     1
102
RTVSPropertyOp24
 70
     1
102
RTVSPropertyOp25
 70
     1
102
RTVSPropertyOp26
 70
     1
102
RTVSPropertyOp27
 70
     1
  0
XRECORD
  5
B72
102
{ACAD_REACTORS
330
B71
102
}
330
B71
100
AcDbXrecord
280
     1
102
RTVSPropertyOp0
 70
     1
102
RTVSPropertyOp1
 70
     1
102
RTVSPropertyOp2
 70
     1
102
RTVSPropertyOp3
 70
     1
102
RTVSPropertyOp4
 70
     1
102
RTVSPropertyOp5
 70
     1
102
RTVSPropertyOp6
 70
     1
102
RTVSPropertyOp7
 70
     1
102
RTVSPropertyOp8
 70
     1
102
RTVSPropertyOp9
 70
     1
102
RTVSPropertyOp10
 70
     1
102
RTVSPropertyOp11
 70
     1
102
RTVSPropertyOp12
 70
     1
102
RTVSPropertyOp13
 70
     1
102
RTVSPropertyOp14
 70
     1
102
RTVSPropertyOp15
 70
     1
102
RTVSPropertyOp16
 70
     1
102
RTVSPropertyOp17
 70
     1
102
RTVSPropertyOp18
 70
     1
102
RTVSPropertyOp19
 70
     1
102
RTVSPropertyOp20
 70
     1
102
RTVSPropertyOp21
 70
     1
102
RTVSPropertyOp22
 70
     1
102
RTVSPropertyOp23
 70
     1
102
RTVSPropertyOp24
 70
     1
102
RTVSPropertyOp25
 70
     1
102
RTVSPropertyOp26
 70
     1
102
RTVSPropertyOp27
 70
     1
  0
ENDSEC
  0
EOF
