  0
SECTION
  2
HEADER
  9
$ACADVER
  1
AC1015
  9
$ACADMAINTVER
 70
     6
  9
$DWGCODEPAGE
  3
ANSI_1252
  9
$INSBASE
 10
0.0
 20
0.0
 30
0.0
  9
$EXTMIN
 10
0.0
 20
0.0
 30
0.0
  9
$EXTMAX
 10
25.0
 20
35.0
 30
0.0
  9
$LIMMIN
 10
0.0
 20
0.0
  9
$LIMMAX
 10
420.0
 20
297.0
  9
$ORTHOMODE
 70
     0
  9
$REGENMODE
 70
     1
  9
$FILLMODE
 70
     1
  9
$QTEXTMODE
 70
     0
  9
$MIRRTEXT
 70
     1
  9
$LTSCALE
 40
4.75
  9
$ATTMODE
 70
     1
  9
$TEXTSIZE
 40
2.5
  9
$TRACEWID
 40
1.0
  9
$TEXTSTYLE
  7
Standard
  9
$CLAYER
  8
0
  9
$CELTYPE
  6
ByLayer
  9
$CECOLOR
 62
   256
  9
$CELTSCALE
 40
1.0
  9
$DISPSILH
 70
     0
  9
$DIMSCALE
 40
1.0
  9
$DIMASZ
 40
2.5
  9
$DIMEXO
 40
0.625
  9
$DIMDLI
 40
3.75
  9
$DIMRND
 40
0.0
  9
$DIMDLE
 40
0.0
  9
$DIMEXE
 40
1.25
  9
$DIMTP
 40
0.0
  9
$DIMTM
 40
0.0
  9
$DIMTXT
 40
2.5
  9
$DIMCEN
 40
2.5
  9
$DIMTSZ
 40
0.0
  9
$DIMTOL
 70
     0
  9
$DIMLIM
 70
     0
  9
$DIMTIH
 70
     0
  9
$DIMTOH
 70
     0
  9
$DIMSE1
 70
     0
  9
$DIMSE2
 70
     0
  9
$DIMTAD
 70
     1
  9
$DIMZIN
 70
     8
  9
$DIMBLK
  1

  9
$DIMASO
 70
     1
  9
$DIMSHO
 70
     1
  9
$DIMPOST
  1

  9
$DIMAPOST
  1

  9
$DIMALT
 70
     0
  9
$DIMALTD
 70
     3
  9
$DIMALTF
 40
0.03937007874016
  9
$DIMLFAC
 40
1.0
  9
$DIMTOFL
 70
     1
  9
$DIMTVP
 40
0.0
  9
$DIMTIX
 70
     0
  9
$DIMSOXD
 70
     0
  9
$DIMSAH
 70
     0
  9
$DIMBLK1
  1

  9
$DIMBLK2
  1

  9
$DIMSTYLE
  2
ISO-25
  9
$DIMCLRD
 70
     0
  9
$DIMCLRE
 70
     0
  9
$DIMCLRT
 70
     0
  9
$DIMTFAC
 40
1.0
  9
$DIMGAP
 40
0.625
  9
$DIMJUST
 70
     0
  9
$DIMSD1
 70
     0
  9
$DIMSD2
 70
     0
  9
$DIMTOLJ
 70
     0
  9
$DIMTZIN
 70
     8
  9
$DIMALTZ
 70
     0
  9
$DIMALTTZ
 70
     0
  9
$DIMUPT
 70
     0
  9
$DIMDEC
 70
     2
  9
$DIMTDEC
 70
     2
  9
$DIMALTU
 70
     2
  9
$DIMALTTD
 70
     3
  9
$DIMTXSTY
  7
Standard
  9
$DIMAUNIT
 70
     0
  9
$DIMADEC
 70
     0
  9
$DIMALTRND
 40
0.0
  9
$DIMAZIN
 70
     0
  9
$DIMDSEP
 70
    44
  9
$DIMATFIT
 70
     3
  9
$DIMFRAC
 70
     0
  9
$DIMLDRBLK
  1

  9
$DIMLUNIT
 70
     2
  9
$DIMLWD
 70
    -2
  9
$DIMLWE
 70
    -2
  9
$DIMTMOVE
 70
     0
  9
$LUNITS
 70
     2
  9
$LUPREC
 70
     4
  9
$SKETCHINC
 40
1.0
  9
$FILLETRAD
 40
10.0
  9
$AUNITS
 70
     0
  9
$AUPREC
 70
     0
  9
$MENU
  1
.
  9
$ELEVATION
 40
0.0
  9
$PELEVATION
 40
0.0
  9
$THICKNESS
 40
0.0
  9
$LIMCHECK
 70
     0
  9
$CHAMFERA
 40
10.0
  9
$CHAMFERB
 40
10.0
  9
$CHAMFERC
 40
20.0
  9
$CHAMFERD
 40
0.0
  9
$SKPOLY
 70
     0
  9
$TDCREATE
 40
2458578.513888889
  9
$TDUCREATE
 40
2458578.430555556
  9
$TDUPDATE
 40
2458578.517361111
  9
$TDUUPDATE
 40
2458578.434027778
  9
$TDINDWG
 40
0.0000000116
  9
$TDUSRTIMER
 40
0.0000000116
  9
$USRTIMER
 70
     1
  9
$ANGBASE
 50
0.0
  9
$ANGDIR
 70
     0
  9
$PDMODE
 70
     0
  9
$PDSIZE
 40
0.0
  9
$PLINEWID
 40
0.0
  9
$SPLFRAME
 70
     0
  9
$SPLINETYPE
 70
     6
  9
$SPLINESEGS
 70
     8
  9
$HANDSEED
  5
D6B
  9
$SURFTAB1
 70
     6
  9
$SURFTAB2
 70
     6
  9
$SURFTYPE
 70
     6
  9
$SURFU
 70
     6
  9
$SURFV
 70
     6
  9
$UCSBASE
  2

  9
$UCSNAME
  2

  9
$UCSORG
 10
0.0
 20
0.0
 30
0.0
  9
$UCSXDIR
 10
1.0
 20
0.0
 30
0.0
  9
$UCSYDIR
 10
0.0
 20
1.0
 30
0.0
  9
$UCSORTHOREF
  2

  9
$UCSORTHOVIEW
 70
     0
  9
$UCSORGTOP
 10
0.0
 20
0.0
 30
0.0
  9
$UCSORGBOTTOM
 10
0.0
 20
0.0
 30
0.0
  9
$UCSORGLEFT
 10
0.0
 20
0.0
 30
0.0
  9
$UCSORGRIGHT
 10
0.0
 20
0.0
 30
0.0
  9
$UCSORGFRONT
 10
0.0
 20
0.0
 30
0.0
  9
$UCSORGBACK
 10
0.0
 20
0.0
 30
0.0
  9
$PUCSBASE
  2

  9
$PUCSNAME
  2

  9
$PUCSORG
 10
0.0
 20
0.0
 30
0.0
  9
$PUCSXDIR
 10
1.0
 20
0.0
 30
0.0
  9
$PUCSYDIR
 10
0.0
 20
1.0
 30
0.0
  9
$PUCSORTHOREF
  2

  9
$PUCSORTHOVIEW
 70
     0
  9
$PUCSORGTOP
 10
0.0
 20
0.0
 30
0.0
  9
$PUCSORGBOTTOM
 10
0.0
 20
0.0
 30
0.0
  9
$PUCSORGLEFT
 10
0.0
 20
0.0
 30
0.0
  9
$PUCSORGRIGHT
 10
0.0
 20
0.0
 30
0.0
  9
$PUCSORGFRONT
 10
0.0
 20
0.0
 30
0.0
  9
$PUCSORGBACK
 10
0.0
 20
0.0
 30
0.0
  9
$USERI1
 70
     0
  9
$USERI2
 70
     0
  9
$USERI3
 70
     0
  9
$USERI4
 70
     0
  9
$USERI5
 70
     0
  9
$USERR1
 40
0.0
  9
$USERR2
 40
0.0
  9
$USERR3
 40
0.0
  9
$USERR4
 40
0.0
  9
$USERR5
 40
0.0
  9
$WORLDVIEW
 70
     1
  9
$SHADEDGE
 70
     3
  9
$SHADEDIF
 70
    70
  9
$TILEMODE
 70
     1
  9
$MAXACTVP
 70
    64
  9
$PINSBASE
 10
0.0
 20
0.0
 30
0.0
  9
$PLIMCHECK
 70
     0
  9
$PEXTMIN
 10
1.000000000000000E+20
 20
1.000000000000000E+20
 30
1.000000000000000E+20
  9
$PEXTMAX
 10
-1.000000000000000E+20
 20
-1.000000000000000E+20
 30
-1.000000000000000E+20
  9
$PLIMMIN
 10
0.0
 20
0.0
  9
$PLIMMAX
 10
420.0
 20
297.0
  9
$UNITMODE
 70
     0
  9
$VISRETAIN
 70
     1
  9
$PLINEGEN
 70
     0
  9
$PSLTSCALE
 70
     1
  9
$TREEDEPTH
 70
  3020
  9
$CMLSTYLE
  2
Standard
  9
$CMLJUST
 70
     0
  9
$CMLSCALE
 40
20.0
  9
$PROXYGRAPHICS
 70
     1
  9
$MEASUREMENT
 70
     1
  9
$CELWEIGHT
370
    -1
  9
$ENDCAPS
280
     0
  9
$JOINSTYLE
280
     0
  9
$LWDISPLAY
290
     0
  9
$INSUNITS
 70
     4
  9
$HYPERLINKBASE
  1

  9
$STYLESHEET
  1

  9
$XEDIT
290
     1
  9
$CEPSNTYPE
380
     0
  9
$PSTYLEMODE
290
     1
  9
$FINGERPRINTGUID
  2
{B2BC0F05-705D-4544-8AE3-D7D42C610DAF}
  9
$VERSIONGUID
  2
{FAEB1C32-E019-11D5-929B-00C0DF256EC4}
  9
$EXTNAMES
290
     1
  9
$PSVPSCALE
 40
0.0
  9
$OLESTARTUP
290
     0
  0
ENDSEC
  0
SECTION
  2
CLASSES
  0
CLASS
  1
ACDBDICTIONARYWDFLT
  2
AcDbDictionaryWithDefault
  3
ObjectDBX Classes
 90
        0
280
     0
281
     0
  0
CLASS
  1
VISUALSTYLE
  2
AcDbVisualStyle
  3
ObjectDBX Classes
 90
     4095
280
     0
281
     0
  0
CLASS
  1
MATERIAL
  2
AcDbMaterial
  3
ObjectDBX Classes
 90
     1153
280
     0
281
     0
  0
CLASS
  1
SCALE
  2
AcDbScale
  3
ObjectDBX Classes
 90
     1153
280
     0
281
     0
  0
CLASS
  1
DICTIONARYVAR
  2
AcDbDictionaryVar
  3
ObjectDBX Classes
 90
        0
280
     0
281
     0
  0
CLASS
  1
ACDBPLACEHOLDER
  2
AcDbPlaceHolder
  3
ObjectDBX Classes
 90
        0
280
     0
281
     0
  0
CLASS
  1
LAYOUT
  2
AcDbLayout
  3
ObjectDBX Classes
 90
        0
280
     0
281
     0
  0
ENDSEC
  0
SECTION
  2
TABLES
  0
TABLE
  2
VPORT
  5
8
330
0
100
AcDbSymbolTable
 70
     1
  0
VPORT
  5
29
330
8
100
AcDbSymbolTableRecord
100
AcDbViewportTableRecord
  2
*Active
 70
     0
 10
0.0
 20
0.0
 11
1.0
 21
1.0
 12
11.26
 22
4.5
 13
0.0
 23
0.0
 14
10.0
 24
10.0
 15
10.0
 25
10.0
 16
0.0
 26
0.0
 36
1.0
 17
0.0
 27
0.0
 37
0.0
 40
9.0
 41
2.503333333333333
 42
50.0
 43
0.0
 44
0.0
 50
0.0
 51
0.0
 71
     0
 72
   100
 73
     1
 74
     3
 75
     0
 76
     0
 77
     0
 78
     0
281
     0
 65
     1
110
0.0
120
0.0
130
0.0
111
1.0
121
0.0
131
0.0
112
0.0
122
1.0
132
0.0
 79
     0
146
0.0
  0
ENDTAB
  0
TABLE
  2
LTYPE
  5
5
330
0
100
AcDbSymbolTable
 70
    10
  0
LTYPE
  5
14
330
5
100
AcDbSymbolTableRecord
100
AcDbLinetypeTableRecord
  2
ByBlock
 70
     0
  3

 72
    65
 73
     0
 40
0.0
  0
LTYPE
  5
15
330
5
100
AcDbSymbolTableRecord
100
AcDbLinetypeTableRecord
  2
ByLayer
 70
     0
  3

 72
    65
 73
     0
 40
0.0
  0
LTYPE
  5
16
330
5
100
AcDbSymbolTableRecord
100
AcDbLinetypeTableRecord
  2
Continuous
 70
     0
  3
Solid line
 72
    65
 73
     0
 40
0.0
  0
LTYPE
  5
45
330
5
100
AcDbSymbolTableRecord
100
AcDbLinetypeTableRecord
  2
phl_thick
 70
     0
  3
THICK
 72
    65
 73
     0
 40
0.0
  0
LTYPE
  5
43C
330
5
100
AcDbSymbolTableRecord
100
AcDbLinetypeTableRecord
  2
CUT
 70
     0
  3
THICK
 72
    65
 73
     0
 40
0.0
  0
LTYPE
  5
443
330
5
100
AcDbSymbolTableRecord
100
AcDbLinetypeTableRecord
  2
NOCUT
 70
     0
  3
THICK
 72
    65
 73
     0
 40
0.0
  0
LTYPE
  5
44A
330
5
100
AcDbSymbolTableRecord
100
AcDbLinetypeTableRecord
  2
SK1
 70
     0
  3
THICK
 72
    65
 73
     0
 40
0.0
  0
LTYPE
  5
452
330
5
100
AcDbSymbolTableRecord
100
AcDbLinetypeTableRecord
  2
ls_SK2
 70
     0
  3
THIN
 72
    65
 73
     0
 40
0.0
  0
LTYPE
  5
4FD
330
5
100
AcDbSymbolTableRecord
100
AcDbLinetypeTableRecord
  2
ls_2
 70
     0
  3
THIN
 72
    65
 73
     0
 40
0.0
  0
LTYPE
  5
691
330
5
100
AcDbSymbolTableRecord
100
AcDbLinetypeTableRecord
  2
ls_SK1
 70
     0
  3
THICK
 72
    65
 73
     0
 40
0.0
  0
LTYPE
  5
6CB
330
5
100
AcDbSymbolTableRecord
100
AcDbLinetypeTableRecord
  2
LONGDASH_DASH
 70
     0
  3
THIN_DASHDOT
 72
    65
 73
     4
 40
0.85
 49
0.4
 74
     0
 49
-0.2
 74
     0
 49
0.05
 74
     0
 49
-0.2
 74
     0
  0
LTYPE
  5
6D0
330
5
100
AcDbSymbolTableRecord
100
AcDbLinetypeTableRecord
  2
ls1
 70
     0
  3
THICK
 72
    65
 73
     0
 40
0.0
  0
ENDTAB
  0
TABLE
  2
LAYER
  5
2
330
0
100
AcDbSymbolTable
 70
    10
  0
LAYER
  5
10
330
2
100
AcDbSymbolTableRecord
100
AcDbLayerTableRecord
  2
0
 70
     0
 62
     7
  6
Continuous
370
    -3
390
F
  0
LAYER
  5
44
330
2
100
AcDbSymbolTableRecord
100
AcDbLayerTableRecord
  2
1
 70
     0
 62
4
  6
CONTINUOUS
370
50
370
    -3
390
F
  0
LAYER
  5
43B
330
2
100
AcDbSymbolTableRecord
100
AcDbLayerTableRecord
  2
CUT
 70
     0
 62
1
  6
CONTINUOUS
370
25
370
    -3
390
F
  0
LAYER
  5
442
330
2
100
AcDbSymbolTableRecord
100
AcDbLayerTableRecord
  2
NOCUT
 70
     0
 62
7
  6
CONTINUOUS
370
25
370
    -3
390
F
  0
LAYER
  5
449
330
2
100
AcDbSymbolTableRecord
100
AcDbLayerTableRecord
  2
SK1
 70
     0
 62
4
  6
CONTINUOUS
370
50
370
    -3
390
F
  0
LAYER
  5
451
330
2
100
AcDbSymbolTableRecord
100
AcDbLayerTableRecord
  2
SK2
 70
     0
 62
7
  6
CONTINUOUS
370
25
370
    -3
390
F
  0
LAYER
  5
4FC
330
2
100
AcDbSymbolTableRecord
100
AcDbLayerTableRecord
  2
2
 70
     0
 62
7
  6
CONTINUOUS
370
25
370
    -3
390
F
  0
LAYER
  5
6CA
330
2
100
AcDbSymbolTableRecord
100
AcDbLayerTableRecord
  2
4
 70
     0
 62
2
  6
LONGDASH_DASH
370
25
370
    -3
390
F
  0
LAYER
  5
6CD
330
2
100
AcDbSymbolTableRecord
100
AcDbLayerTableRecord
  2
SK4
 70
     0
 62
2
  6
LONGDASH_DASH
370
25
370
    -3
390
F
  0
LAYER
  5
6CF
330
2
100
AcDbSymbolTableRecord
100
AcDbLayerTableRecord
  2
SK6
 70
     0
 62
5
  6
CONTINUOUS
370
25
370
    -3
390
F
  0
ENDTAB
  0
TABLE
  2
STYLE
  5
3
330
0
100
AcDbSymbolTable
 70
     1
  0
STYLE
  5
11
330
3
100
AcDbSymbolTableRecord
100
AcDbTextStyleTableRecord
  2
Standard
 70
     0
 40
0.0
 41
1.0
 50
0.0
 71
     0
 42
2.5
  3
Monospac821 BT
  4

  0
ENDTAB
  0
TABLE
  2
VIEW
  5
6
330
0
100
AcDbSymbolTable
 70
     0
  0
ENDTAB
  0
TABLE
  2
UCS
  5
7
330
0
100
AcDbSymbolTable
 70
     0
  0
ENDTAB
  0
TABLE
  2
APPID
  5
9
330
0
100
AcDbSymbolTable
 70
     2
  0
APPID
  5
12
330
9
100
AcDbSymbolTableRecord
100
AcDbRegAppTableRecord
  2
ACAD
 70
     0
  0
APPID
  5
3F
330
9
100
AcDbSymbolTableRecord
100
AcDbRegAppTableRecord
  2
ccLab
 70
     0
  0
ENDTAB
  0
TABLE
  2
DIMSTYLE
  5
A
330
0
100
AcDbSymbolTable
 70
     1
100
AcDbDimStyleTable
  0
DIMSTYLE
105
27
330
A
100
AcDbSymbolTableRecord
100
AcDbDimStyleTableRecord
  2
ISO-25
 70
     0
 41
2.5
 42
0.625
 43
3.75
 44
1.25
 73
     0
 74
     0
 77
     1
 78
     8
140
2.5
141
2.5
143
0.03937007874016
147
0.625
171
     3
172
     1
271
     2
272
     2
274
     3
278
    44
283
     0
284
     8
340
11
  0
ENDTAB
  0
TABLE
  2
BLOCK_RECORD
  5
1
330
0
100
AcDbSymbolTable
 70
     2
  0
BLOCK_RECORD
  5
1F
330
1
100
AcDbSymbolTableRecord
100
AcDbBlockTableRecord
  2
*Model_Space
340
22
  0
BLOCK_RECORD
  5
1B
330
1
100
AcDbSymbolTableRecord
100
AcDbBlockTableRecord
  2
*Paper_Space
340
1E
  0
BLOCK_RECORD
  5
23
330
1
100
AcDbSymbolTableRecord
100
AcDbBlockTableRecord
  2
*Paper_Space0
340
26
  0
ENDTAB
  0
ENDSEC
  0
SECTION
  2
BLOCKS
  0
BLOCK
  5
20
330
1F
100
AcDbEntity
  8
0
100
AcDbBlockBegin
  2
*Model_Space
 70
     0
 10
0.0
 20
0.0
 30
0.0
  3
*Model_Space
  1

  0
ENDBLK
  5
21
330
1F
100
AcDbEntity
  8
0
100
AcDbBlockEnd
  0
BLOCK
  5
1C
330
1B
100
AcDbEntity
 67
     1
  8
0
100
AcDbBlockBegin
  2
*Paper_Space
 70
     0
 10
0.0
 20
0.0
 30
0.0
  3
*Paper_Space
  1

  0
ENDBLK
  5
1D
330
1B
100
AcDbEntity
 67
     1
  8
0
100
AcDbBlockEnd
  0
BLOCK
  5
24
330
23
100
AcDbEntity
  8
0
100
AcDbBlockBegin
  2
*Paper_Space0
 70
     0
 10
0.0
 20
0.0
 30
0.0
  3
*Paper_Space0
  1

  0
ENDBLK
  5
25
330
23
100
AcDbEntity
  8
0
100
AcDbBlockEnd
  0
ENDSEC
  0
SECTION
  2
ENTITIES
  0
LINE
  5
6DA
330
1F
100
AcDbEntity
  8
1
  6
CONTINUOUS
370
50
 62
4
100
AcDbLine
 10
89.262833
 20
-2.50317
 30
0.0
 11
89.262642
 21
-2.223244
 31
0.0
  0
LINE
  5
6DB
330
1F
100
AcDbEntity
  8
1
  6
CONTINUOUS
370
50
 62
4
100
AcDbLine
 10
88.060287
 20
0.960448
 30
0.0
 11
88.05989799999999
 21
1.010786
 31
0.0
  0
LINE
  5
6DC
330
1F
100
AcDbEntity
  8
1
  6
CONTINUOUS
370
50
 62
4
100
AcDbLine
 10
89.302505
 20
-1.226919
 30
0.0
 11
89.30186499999999
 21
-1.146386
 31
0.0
  0
LINE
  5
6DD
330
1F
100
AcDbEntity
  8
1
  6
CONTINUOUS
370
50
 62
4
100
AcDbLine
 10
88.06040999999999
 20
3.674682
 30
0.0
 11
88.059074
 21
3.735109
 31
0.0
  0
LINE
  5
6DE
330
1F
100
AcDbEntity
  8
1
  6
CONTINUOUS
370
50
 62
4
100
AcDbLine
 10
89.26915699999999
 20
-2.782956
 30
0.0
 11
89.262833
 21
-2.50317
 31
0.0
  0
LINE
  5
6DF
330
1F
100
AcDbEntity
  8
1
  6
CONTINUOUS
370
50
 62
4
100
AcDbLine
 10
89.30186499999999
 20
-1.146386
 30
0.0
 11
89.299965
 21
-1.066012
 31
0.0
  0
LINE
  5
6E0
330
1F
100
AcDbEntity
  8
1
  6
CONTINUOUS
370
50
 62
4
100
AcDbLine
 10
89.299965
 20
-1.066012
 30
0.0
 11
89.29686
 21
-0.9859479999999999
 31
0.0
  0
LINE
  5
6E1
330
1F
100
AcDbEntity
  8
1
  6
CONTINUOUS
370
50
 62
4
100
AcDbLine
 10
89.281731
 20
-3.061716
 30
0.0
 11
89.26915699999999
 21
-2.782956
 31
0.0
  0
LINE
  5
6E2
330
1F
100
AcDbEntity
  8
1
  6
CONTINUOUS
370
50
 62
4
100
AcDbLine
 10
88.05989799999999
 20
1.010786
 30
0.0
 11
88.05727399999999
 21
1.060178
 31
0.0
  0
LINE
  5
6E3
330
1F
100
AcDbEntity
  8
1
  6
CONTINUOUS
370
50
 62
4
100
AcDbLine
 10
89.29686
 20
-0.9859479999999999
 30
0.0
 11
89.29258
 21
-0.906343
 31
0.0
  0
LINE
  5
6E4
330
1F
100
AcDbEntity
  8
1
  6
CONTINUOUS
370
50
 62
4
100
AcDbLine
 10
88.059074
 20
3.735109
 30
0.0
 11
88.055168
 21
3.797762
 31
0.0
  0
LINE
  5
6E5
330
1F
100
AcDbEntity
  8
1
  6
CONTINUOUS
370
50
 62
4
100
AcDbLine
 10
89.30045299999999
 20
-3.336026
 30
0.0
 11
89.281731
 21
-3.061716
 31
0.0
  0
LINE
  5
6E6
330
1F
100
AcDbEntity
  8
1
  6
CONTINUOUS
370
50
 62
4
100
AcDbLine
 10
89.29258
 20
-0.906343
 30
0.0
 11
89.28718599999999
 21
-0.8273459999999999
 31
0.0
  0
LINE
  5
6E7
330
1F
100
AcDbEntity
  8
1
  6
CONTINUOUS
370
50
 62
4
100
AcDbLine
 10
62.369831
 20
2.162427
 30
0.0
 11
62.361477
 21
2.253201
 31
0.0
  0
LINE
  5
6E8
330
1F
100
AcDbEntity
  8
1
  6
CONTINUOUS
370
50
 62
4
100
AcDbLine
 10
89.32517999999999
 20
-3.604301
 30
0.0
 11
89.30045299999999
 21
-3.336026
 31
0.0
  0
LINE
  5
6E9
330
1F
100
AcDbEntity
  8
1
  6
CONTINUOUS
370
50
 62
4
100
AcDbLine
 10
88.055168
 20
3.797762
 30
0.0
 11
88.048737
 21
3.862524
 31
0.0
  0
LINE
  5
6EA
330
1F
100
AcDbEntity
  8
1
  6
CONTINUOUS
370
50
 62
4
100
AcDbLine
 10
88.05727399999999
 20
1.060178
 30
0.0
 11
88.05242899999999
 21
1.108572
 31
0.0
  0
LINE
  5
6EB
330
1F
100
AcDbEntity
  8
1
  6
CONTINUOUS
370
50
 62
4
100
AcDbLine
 10
62.365379
 20
-5.313019
 30
0.0
 11
62.36093099999999
 21
-5.269183
 31
0.0
  0
LINE
  5
6EC
330
1F
100
AcDbEntity
  8
1
  6
CONTINUOUS
370
50
 62
4
100
AcDbLine
 10
89.355797
 20
-3.865859
 30
0.0
 11
89.32517999999999
 21
-3.604301
 31
0.0
  0
LINE
  5
6ED
330
1F
100
AcDbEntity
  8
1
  6
CONTINUOUS
370
50
 62
4
100
AcDbLine
 10
88.048737
 20
3.862524
 30
0.0
 11
88.039818
 21
3.929278
 31
0.0
  0
LINE
  5
6EE
330
1F
100
AcDbEntity
  8
1
  6
CONTINUOUS
370
50
 62
4
100
AcDbLine
 10
89.392174
 20
-4.120019
 30
0.0
 11
89.355797
 21
-3.865859
 31
0.0
  0
LINE
  5
6EF
330
1F
100
AcDbEntity
  8
1
  6
CONTINUOUS
370
50
 62
4
100
AcDbLine
 10
88.05242899999999
 20
1.108572
 30
0.0
 11
88.04540999999999
 21
1.155915
 31
0.0
  0
LINE
  5
6F0
330
1F
100
AcDbEntity
  8
1
  6
CONTINUOUS
370
50
 62
4
100
AcDbLine
 10
88.039818
 20
3.929278
 30
0.0
 11
88.028427
 21
3.997906
 31
0.0
  0
LINE
  5
6F1
330
1F
100
AcDbEntity
  8
1
  6
CONTINUOUS
370
50
 62
4
100
AcDbLine
 10
89.43418899999999
 20
-4.366104
 30
0.0
 11
89.392174
 21
-4.120019
 31
0.0
  0
LINE
  5
6F2
330
1F
100
AcDbEntity
  8
1
  6
CONTINUOUS
370
50
 62
4
100
AcDbLine
 10
62.387192
 20
2.072352
 30
0.0
 11
62.369831
 21
2.162427
 31
0.0
  0
LINE
  5
6F3
330
1F
100
AcDbEntity
  8
1
  6
CONTINUOUS
370
50
 62
4
100
AcDbLine
 10
88.028427
 20
3.997906
 30
0.0
 11
88.014618
 21
4.06829
 31
0.0
  0
LINE
  5
6F4
330
1F
100
AcDbEntity
  8
1
  6
CONTINUOUS
370
50
 62
4
100
AcDbLine
 10
88.04540999999999
 20
1.155915
 30
0.0
 11
88.036232
 21
1.202155
 31
0.0
  0
LINE
  5
6F5
330
1F
100
AcDbEntity
  8
1
  6
CONTINUOUS
370
50
 62
4
100
AcDbLine
 10
89.481567
 20
-4.602704999999999
 30
0.0
 11
89.43418899999999
 21
-4.366104
 31
0.0
  0
LINE
  5
6F6
330
1F
100
AcDbEntity
  8
1
  6
CONTINUOUS
370
50
 62
4
100
AcDbLine
 10
88.014618
 20
4.06829
 30
0.0
 11
87.998421
 21
4.140314
 31
0.0
  0
LINE
  5
6F7
330
1F
100
AcDbEntity
  8
1
  6
CONTINUOUS
370
50
 62
4
100
AcDbLine
 10
89.53379799999999
 20
-4.827806
 30
0.0
 11
89.481567
 21
-4.602704999999999
 31
0.0
  0
LINE
  5
6F8
330
1F
100
AcDbEntity
  8
1
  6
CONTINUOUS
370
50
 62
4
100
AcDbLine
 10
88.036232
 20
1.202155
 30
0.0
 11
88.024925
 21
1.247239
 31
0.0
  0
LINE
  5
6F9
330
1F
100
AcDbEntity
  8
1
  6
CONTINUOUS
370
50
 62
4
100
AcDbLine
 10
87.998421
 20
4.140314
 30
0.0
 11
87.979858
 21
4.213859
 31
0.0
  0
LINE
  5
6FA
330
1F
100
AcDbEntity
  8
1
  6
CONTINUOUS
370
50
 62
4
100
AcDbLine
 10
87.80279499999999
 20
4.853997
 30
0.0
 11
87.778465
 21
4.94768
 31
0.0
  0
LINE
  5
6FB
330
1F
100
AcDbEntity
  8
1
  6
CONTINUOUS
370
50
 62
4
100
AcDbLine
 10
87.827606
 20
4.760136
 30
0.0
 11
87.80279499999999
 21
4.853997
 31
0.0
  0
LINE
  5
6FC
330
1F
100
AcDbEntity
  8
1
  6
CONTINUOUS
370
50
 62
4
100
AcDbLine
 10
89.59058399999999
 20
-5.040997
 30
0.0
 11
89.53379799999999
 21
-4.827806
 31
0.0
  0
LINE
  5
6FD
330
1F
100
AcDbEntity
  8
1
  6
CONTINUOUS
370
50
 62
4
100
AcDbLine
 10
87.85289
 20
4.666115
 30
0.0
 11
87.827606
 21
4.760136
 31
0.0
  0
LINE
  5
6FE
330
1F
100
AcDbEntity
  8
1
  6
CONTINUOUS
370
50
 62
4
100
AcDbLine
 10
87.87866199999999
 20
4.571953
 30
0.0
 11
87.85289
 21
4.666115
 31
0.0
  0
LINE
  5
6FF
330
1F
100
AcDbEntity
  8
1
  6
CONTINUOUS
370
50
 62
4
100
AcDbLine
 10
87.979858
 20
4.213859
 30
0.0
 11
87.95897699999999
 21
4.288808
 31
0.0
  0
LINE
  5
700
330
1F
100
AcDbEntity
  8
1
  6
CONTINUOUS
370
50
 62
4
100
AcDbLine
 10
87.90493
 20
4.477669
 30
0.0
 11
87.87866199999999
 21
4.571953
 31
0.0
  0
LINE
  5
701
330
1F
100
AcDbEntity
  8
1
  6
CONTINUOUS
370
50
 62
4
100
AcDbLine
 10
87.931702
 20
4.383281
 30
0.0
 11
87.90493
 21
4.477669
 31
0.0
  0
LINE
  5
702
330
1F
100
AcDbEntity
  8
1
  6
CONTINUOUS
370
50
 62
4
100
AcDbLine
 10
62.412914
 20
1.983222
 30
0.0
 11
62.387192
 21
2.072352
 31
0.0
  0
LINE
  5
703
330
1F
100
AcDbEntity
  8
1
  6
CONTINUOUS
370
50
 62
4
100
AcDbLine
 10
87.95897699999999
 20
4.288808
 30
0.0
 11
87.931702
 21
4.383281
 31
0.0
  0
LINE
  5
704
330
1F
100
AcDbEntity
  8
1
  6
CONTINUOUS
370
50
 62
4
100
AcDbLine
 10
89.651688
 20
-5.241917
 30
0.0
 11
89.59058399999999
 21
-5.040997
 31
0.0
  0
LINE
  5
705
330
1F
100
AcDbEntity
  8
1
  6
CONTINUOUS
370
50
 62
4
100
AcDbLine
 10
88.024925
 20
1.247239
 30
0.0
 11
88.01151999999999
 21
1.291115
 31
0.0
  0
LINE
  5
706
330
1F
100
AcDbEntity
  8
1
  6
CONTINUOUS
370
50
 62
4
100
AcDbLine
 10
89.26525099999999
 20
3.07813
 30
0.0
 11
89.261978
 21
3.088219
 31
0.0
  0
LINE
  5
707
330
1F
100
AcDbEntity
  8
1
  6
CONTINUOUS
370
50
 62
4
100
AcDbLine
 10
89.291771
 20
2.996514
 30
0.0
 11
89.275177
 21
3.047599
 31
0.0
  0
LINE
  5
708
330
1F
100
AcDbEntity
  8
1
  6
CONTINUOUS
370
50
 62
4
100
AcDbLine
 10
89.469383
 20
2.449876
 30
0.0
 11
89.421745
 21
2.596508
 31
0.0
  0
LINE
  5
709
330
1F
100
AcDbEntity
  8
1
  6
CONTINUOUS
370
50
 62
4
100
AcDbLine
 10
89.379982
 20
2.725034
 30
0.0
 11
89.344315
 21
2.834818
 31
0.0
  0
LINE
  5
70A
330
1F
100
AcDbEntity
  8
1
  6
CONTINUOUS
370
50
 62
4
100
AcDbLine
 10
89.709656
 20
1.710398
 30
0.0
 11
89.642799
 21
1.916172
 31
0.0
  0
LINE
  5
70B
330
1F
100
AcDbEntity
  8
1
  6
CONTINUOUS
370
50
 62
4
100
AcDbLine
 10
90.0
 20
0.8168139999999999
 30
0.0
 11
89.931343
 21
1.028125
 31
0.0
  0
LINE
  5
70C
330
1F
100
AcDbEntity
  8
1
  6
CONTINUOUS
370
50
 62
4
100
AcDbLine
 10
89.854248
 20
1.265386
 30
0.0
 11
89.78025099999999
 21
1.49313
 31
0.0
  0
LINE
  5
70D
330
1F
100
AcDbEntity
  8
1
  6
CONTINUOUS
370
50
 62
4
100
AcDbLine
 10
89.580231
 20
2.108732
 30
0.0
 11
89.522331
 21
2.286932
 31
0.0
  0
LINE
  5
70E
330
1F
100
AcDbEntity
  8
1
  6
CONTINUOUS
370
50
 62
4
100
AcDbLine
 10
89.78025099999999
 20
1.49313
 30
0.0
 11
89.709656
 21
1.710398
 31
0.0
  0
LINE
  5
70F
330
1F
100
AcDbEntity
  8
1
  6
CONTINUOUS
370
50
 62
4
100
AcDbLine
 10
89.642799
 20
1.916172
 30
0.0
 11
89.580231
 21
2.108732
 31
0.0
  0
LINE
  5
710
330
1F
100
AcDbEntity
  8
1
  6
CONTINUOUS
370
50
 62
4
100
AcDbLine
 10
89.931343
 20
1.028125
 30
0.0
 11
89.854248
 21
1.265386
 31
0.0
  0
LINE
  5
711
330
1F
100
AcDbEntity
  8
1
  6
CONTINUOUS
370
50
 62
4
100
AcDbLine
 10
89.421745
 20
2.596508
 30
0.0
 11
89.379982
 21
2.725034
 31
0.0
  0
LINE
  5
712
330
1F
100
AcDbEntity
  8
1
  6
CONTINUOUS
370
50
 62
4
100
AcDbLine
 10
89.522331
 20
2.286932
 30
0.0
 11
89.469383
 21
2.449876
 31
0.0
  0
LINE
  5
713
330
1F
100
AcDbEntity
  8
1
  6
CONTINUOUS
370
50
 62
4
100
AcDbLine
 10
89.344315
 20
2.834818
 30
0.0
 11
89.314865
 21
2.925448
 31
0.0
  0
LINE
  5
714
330
1F
100
AcDbEntity
  8
1
  6
CONTINUOUS
370
50
 62
4
100
AcDbLine
 10
89.314865
 20
2.925448
 30
0.0
 11
89.291771
 21
2.996514
 31
0.0
  0
LINE
  5
715
330
1F
100
AcDbEntity
  8
1
  6
CONTINUOUS
370
50
 62
4
100
AcDbLine
 10
89.275177
 20
3.047599
 30
0.0
 11
89.26525099999999
 21
3.07813
 31
0.0
  0
LINE
  5
716
330
1F
100
AcDbEntity
  8
1
  6
CONTINUOUS
370
50
 62
4
100
AcDbLine
 10
89.71672099999999
 20
-5.429918
 30
0.0
 11
89.651688
 21
-5.241917
 31
0.0
  0
LINE
  5
717
330
1F
100
AcDbEntity
  8
1
  6
CONTINUOUS
370
50
 62
4
100
AcDbLine
 10
88.01151999999999
 20
1.291115
 30
0.0
 11
87.99604
 21
1.333729
 31
0.0
  0
LINE
  5
718
330
1F
100
AcDbEntity
  8
1
  6
CONTINUOUS
370
50
 62
4
100
AcDbLine
 10
62.44633899999999
 20
1.895282
 30
0.0
 11
62.412914
 21
1.983222
 31
0.0
  0
LINE
  5
719
330
1F
100
AcDbEntity
  8
1
  6
CONTINUOUS
370
50
 62
4
100
AcDbLine
 10
89.785202
 20
-5.604204999999999
 30
0.0
 11
89.71672099999999
 21
-5.429918
 31
0.0
  0
LINE
  5
71A
330
1F
100
AcDbEntity
  8
1
  6
CONTINUOUS
370
50
 62
4
100
AcDbLine
 10
62.381733
 20
-5.354216999999999
 30
0.0
 11
62.365379
 21
-5.313019
 31
0.0
  0
LINE
  5
71B
330
1F
100
AcDbEntity
  8
1
  6
CONTINUOUS
370
50
 62
4
100
AcDbLine
 10
87.99604
 20
1.333729
 30
0.0
 11
87.978516
 21
1.37503
 31
0.0
  0
LINE
  5
71C
330
1F
100
AcDbEntity
  8
1
  6
CONTINUOUS
370
50
 62
4
100
AcDbLine
 10
87.80279499999999
 20
1.739971
 30
0.0
 11
87.778465
 21
1.795755
 31
0.0
  0
LINE
  5
71D
330
1F
100
AcDbEntity
  8
1
  6
CONTINUOUS
370
50
 62
4
100
AcDbLine
 10
89.85683399999999
 20
-5.764677
 30
0.0
 11
89.785202
 21
-5.604204999999999
 31
0.0
  0
LINE
  5
71E
330
1F
100
AcDbEntity
  8
1
  6
CONTINUOUS
370
50
 62
4
100
AcDbLine
 10
87.827606
 20
1.684606
 30
0.0
 11
87.80279499999999
 21
1.739971
 31
0.0
  0
LINE
  5
71F
330
1F
100
AcDbEntity
  8
1
  6
CONTINUOUS
370
50
 62
4
100
AcDbLine
 10
88.478172
 20
3.389327
 30
0.0
 11
87.778465
 21
4.94768
 31
0.0
  0
LINE
  5
720
330
1F
100
AcDbEntity
  8
1
  6
CONTINUOUS
370
50
 62
4
100
AcDbLine
 10
87.85289
 20
1.629686
 30
0.0
 11
87.827606
 21
1.684606
 31
0.0
  0
LINE
  5
721
330
1F
100
AcDbEntity
  8
1
  6
CONTINUOUS
370
50
 62
4
100
AcDbLine
 10
87.87866199999999
 20
1.575237
 30
0.0
 11
87.85289
 21
1.629686
 31
0.0
  0
LINE
  5
722
330
1F
100
AcDbEntity
  8
1
  6
CONTINUOUS
370
50
 62
4
100
AcDbLine
 10
87.90493
 20
1.521283
 30
0.0
 11
87.87866199999999
 21
1.575237
 31
0.0
  0
LINE
  5
723
330
1F
100
AcDbEntity
  8
1
  6
CONTINUOUS
370
50
 62
4
100
AcDbLine
 10
63.264019
 20
0.275937
 30
0.0
 11
63.129932
 21
0.5509959999999999
 31
0.0
  0
LINE
  5
724
330
1F
100
AcDbEntity
  8
1
  6
CONTINUOUS
370
50
 62
4
100
AcDbLine
 10
63.129932
 20
0.5509959999999999
 30
0.0
 11
62.996132
 21
0.8246479999999999
 31
0.0
  0
LINE
  5
725
330
1F
100
AcDbEntity
  8
1
  6
CONTINUOUS
370
50
 62
4
100
AcDbLine
 10
87.978516
 20
1.37503
 30
0.0
 11
87.95897699999999
 21
1.414964
 31
0.0
  0
LINE
  5
726
330
1F
100
AcDbEntity
  8
1
  6
CONTINUOUS
370
50
 62
4
100
AcDbLine
 10
63.399334
 20
0.0
 30
0.0
 11
63.264019
 21
0.275937
 31
0.0
  0
LINE
  5
727
330
1F
100
AcDbEntity
  8
1
  6
CONTINUOUS
370
50
 62
4
100
AcDbLine
 10
62.996132
 20
0.8246479999999999
 30
0.0
 11
62.86174399999999
 21
1.096397
 31
0.0
  0
LINE
  5
728
330
1F
100
AcDbEntity
  8
1
  6
CONTINUOUS
370
50
 62
4
100
AcDbLine
 10
63.589943
 20
-0.382478
 30
0.0
 11
63.399334
 21
0.0
 31
0.0
  0
LINE
  5
729
330
1F
100
AcDbEntity
  8
1
  6
CONTINUOUS
370
50
 62
4
100
AcDbLine
 10
87.931702
 20
1.46785
 30
0.0
 11
87.90493
 21
1.521283
 31
0.0
  0
LINE
  5
72A
330
1F
100
AcDbEntity
  8
1
  6
CONTINUOUS
370
50
 62
4
100
AcDbLine
 10
62.86174399999999
 20
1.096397
 30
0.0
 11
62.725899
 21
1.36575
 31
0.0
  0
LINE
  5
72B
330
1F
100
AcDbEntity
  8
1
  6
CONTINUOUS
370
50
 62
4
100
AcDbLine
 10
89.931343
 20
-5.911257
 30
0.0
 11
89.85683399999999
 21
-5.764677
 31
0.0
  0
LINE
  5
72C
330
1F
100
AcDbEntity
  8
1
  6
CONTINUOUS
370
50
 62
4
100
AcDbLine
 10
63.786263
 20
-0.76327
 30
0.0
 11
63.589943
 21
-0.382478
 31
0.0
  0
LINE
  5
72D
330
1F
100
AcDbEntity
  8
1
  6
CONTINUOUS
370
50
 62
4
100
AcDbLine
 10
87.95897699999999
 20
1.414964
 30
0.0
 11
87.931702
 21
1.46785
 31
0.0
  0
LINE
  5
72E
330
1F
100
AcDbEntity
  8
1
  6
CONTINUOUS
370
50
 62
4
100
AcDbLine
 10
62.725899
 20
1.36575
 30
0.0
 11
62.587723
 21
1.63221
 31
0.0
  0
LINE
  5
72F
330
1F
100
AcDbEntity
  8
1
  6
CONTINUOUS
370
50
 62
4
100
AcDbLine
 10
62.587723
 20
1.63221
 30
0.0
 11
62.44633899999999
 21
1.895282
 31
0.0
  0
LINE
  5
730
330
1F
100
AcDbEntity
  8
1
  6
CONTINUOUS
370
50
 62
4
100
AcDbLine
 10
63.98769799999999
 20
-1.135351
 30
0.0
 11
63.786263
 21
-0.76327
 31
0.0
  0
LINE
  5
731
330
1F
100
AcDbEntity
  8
1
  6
CONTINUOUS
370
50
 62
4
100
AcDbLine
 10
64.19631199999999
 20
-1.496894
 30
0.0
 11
63.98769799999999
 21
-1.135351
 31
0.0
  0
LINE
  5
732
330
1F
100
AcDbEntity
  8
1
  6
CONTINUOUS
370
50
 62
4
100
AcDbLine
 10
64.414597
 20
-1.846922
 30
0.0
 11
64.19631199999999
 21
-1.496894
 31
0.0
  0
LINE
  5
733
330
1F
100
AcDbEntity
  8
1
  6
CONTINUOUS
370
50
 62
4
100
AcDbLine
 10
64.64502
 20
-2.18446
 30
0.0
 11
64.414597
 21
-1.846922
 31
0.0
  0
LINE
  5
734
330
1F
100
AcDbEntity
  8
1
  6
CONTINUOUS
370
50
 62
4
100
AcDbLine
 10
62.409039
 20
-5.392753
 30
0.0
 11
62.381733
 21
-5.354216999999999
 31
0.0
  0
LINE
  5
735
330
1F
100
AcDbEntity
  8
1
  6
CONTINUOUS
370
50
 62
4
100
AcDbLine
 10
64.889412
 20
-2.507668
 30
0.0
 11
64.64502
 21
-2.18446
 31
0.0
  0
LINE
  5
736
330
1F
100
AcDbEntity
  8
1
  6
CONTINUOUS
370
50
 62
4
100
AcDbLine
 10
65.14565999999999
 20
-2.810646
 30
0.0
 11
64.889412
 21
-2.507668
 31
0.0
  0
LINE
  5
737
330
1F
100
AcDbEntity
  8
1
  6
CONTINUOUS
370
50
 62
4
100
AcDbLine
 10
65.414909
 20
-3.093429
 30
0.0
 11
65.14565999999999
 21
-2.810646
 31
0.0
  0
LINE
  5
738
330
1F
100
AcDbEntity
  8
1
  6
CONTINUOUS
370
50
 62
4
100
AcDbLine
 10
89.994041
 20
-0.002328
 30
0.0
 11
89.99284399999999
 21
-0.001165
 31
0.0
  0
LINE
  5
739
330
1F
100
AcDbEntity
  8
1
  6
CONTINUOUS
370
50
 62
4
100
AcDbLine
 10
90.0
 20
-0.008097
 30
0.0
 11
89.998817
 21
-0.006949
 31
0.0
  0
LINE
  5
73A
330
1F
100
AcDbEntity
  8
1
  6
CONTINUOUS
370
50
 62
4
100
AcDbLine
 10
89.997627
 20
-0.005798
 30
0.0
 11
89.996437
 21
-0.004644
 31
0.0
  0
LINE
  5
73B
330
1F
100
AcDbEntity
  8
1
  6
CONTINUOUS
370
50
 62
4
100
AcDbLine
 10
89.995239
 20
-0.003488
 30
0.0
 11
89.994041
 21
-0.002328
 31
0.0
  0
LINE
  5
73C
330
1F
100
AcDbEntity
  8
1
  6
CONTINUOUS
370
50
 62
4
100
AcDbLine
 10
89.998817
 20
-0.006949
 30
0.0
 11
89.997627
 21
-0.005798
 31
0.0
  0
LINE
  5
73D
330
1F
100
AcDbEntity
  8
1
  6
CONTINUOUS
370
50
 62
4
100
AcDbLine
 10
89.99284399999999
 20
-0.001165
 30
0.0
 11
89.991638
 21
0.0
 31
0.0
  0
LINE
  5
73E
330
1F
100
AcDbEntity
  8
1
  6
CONTINUOUS
370
50
 62
4
100
AcDbLine
 10
89.996437
 20
-0.004644
 30
0.0
 11
89.995239
 21
-0.003488
 31
0.0
  0
LINE
  5
73F
330
1F
100
AcDbEntity
  8
1
  6
CONTINUOUS
370
50
 62
4
100
AcDbLine
 10
89.991638
 20
0.0
 30
0.0
 11
89.723671
 21
0.258137
 31
0.0
  0
LINE
  5
740
330
1F
100
AcDbEntity
  8
1
  6
CONTINUOUS
370
50
 62
4
100
AcDbLine
 10
81.085106
 20
0.0
 30
0.0
 11
80.640549
 21
0.428095
 31
0.0
  0
LINE
  5
741
330
1F
100
AcDbEntity
  8
1
  6
CONTINUOUS
370
50
 62
4
100
AcDbLine
 10
62.44633899999999
 20
-5.428611999999999
 30
0.0
 11
62.409039
 21
-5.392753
 31
0.0
  0
LINE
  5
742
330
1F
100
AcDbEntity
  8
1
  6
CONTINUOUS
370
50
 62
4
100
AcDbLine
 10
81.552757
 20
-0.447633
 30
0.0
 11
81.085106
 21
0.0
 31
0.0
  0
LINE
  5
743
330
1F
100
AcDbEntity
  8
1
  6
CONTINUOUS
370
50
 62
4
100
AcDbLine
 10
72.158638
 20
-0.950473
 30
0.0
 11
71.829353
 21
-0.635613
 31
0.0
  0
LINE
  5
744
330
1F
100
AcDbEntity
  8
1
  6
CONTINUOUS
370
50
 62
4
100
AcDbLine
 10
71.829353
 20
-0.635613
 30
0.0
 11
71.496635
 21
-0.317984
 31
0.0
  0
LINE
  5
745
330
1F
100
AcDbEntity
  8
1
  6
CONTINUOUS
370
50
 62
4
100
AcDbLine
 10
80.070679
 20
-0.005675
 30
0.0
 11
80.064728
 21
0.0
 31
0.0
  0
LINE
  5
746
330
1F
100
AcDbEntity
  8
1
  6
CONTINUOUS
370
50
 62
4
100
AcDbLine
 10
81.10247
 20
-0.985996
 30
0.0
 11
80.77044699999999
 21
-0.669671
 31
0.0
  0
LINE
  5
747
330
1F
100
AcDbEntity
  8
1
  6
CONTINUOUS
370
50
 62
4
100
AcDbLine
 10
80.77044699999999
 20
-0.669671
 30
0.0
 11
80.436386
 21
-0.351691
 31
0.0
  0
LINE
  5
748
330
1F
100
AcDbEntity
  8
1
  6
CONTINUOUS
370
50
 62
4
100
AcDbLine
 10
89.723671
 20
0.258137
 30
0.0
 11
89.363297
 21
0.600785
 31
0.0
  0
LINE
  5
749
330
1F
100
AcDbEntity
  8
1
  6
CONTINUOUS
370
50
 62
4
100
AcDbLine
 10
69.29628
 20
0.782584
 30
0.0
 11
68.889
 21
1.169558
 31
0.0
  0
LINE
  5
74A
330
1F
100
AcDbEntity
  8
1
  6
CONTINUOUS
370
50
 62
4
100
AcDbLine
 10
71.496635
 20
-0.317984
 30
0.0
 11
71.161217
 21
0.0
 31
0.0
  0
LINE
  5
74B
330
1F
100
AcDbEntity
  8
1
  6
CONTINUOUS
370
50
 62
4
100
AcDbLine
 10
69.70910599999999
 20
0.391316
 30
0.0
 11
69.29628
 21
0.782584
 31
0.0
  0
LINE
  5
74C
330
1F
100
AcDbEntity
  8
1
  6
CONTINUOUS
370
50
 62
4
100
AcDbLine
 10
80.436386
 20
-0.351691
 30
0.0
 11
80.100578
 21
-0.033887
 31
0.0
  0
LINE
  5
74D
330
1F
100
AcDbEntity
  8
1
  6
CONTINUOUS
370
50
 62
4
100
AcDbLine
 10
80.640549
 20
0.428095
 30
0.0
 11
80.189377
 21
0.8544529999999999
 31
0.0
  0
LINE
  5
74E
330
1F
100
AcDbEntity
  8
1
  6
CONTINUOUS
370
50
 62
4
100
AcDbLine
 10
80.08861499999999
 20
-0.022601
 30
0.0
 11
80.08264199999999
 21
-0.016959
 31
0.0
  0
LINE
  5
74F
330
1F
100
AcDbEntity
  8
1
  6
CONTINUOUS
370
50
 62
4
100
AcDbLine
 10
80.100578
 20
-0.033887
 30
0.0
 11
80.094597
 21
-0.028244
 31
0.0
  0
LINE
  5
750
330
1F
100
AcDbEntity
  8
1
  6
CONTINUOUS
370
50
 62
4
100
AcDbLine
 10
80.094597
 20
-0.028244
 30
0.0
 11
80.08861499999999
 21
-0.022601
 31
0.0
  0
LINE
  5
751
330
1F
100
AcDbEntity
  8
1
  6
CONTINUOUS
370
50
 62
4
100
AcDbLine
 10
80.07665999999999
 20
-0.011317
 30
0.0
 11
80.070679
 21
-0.005675
 31
0.0
  0
LINE
  5
752
330
1F
100
AcDbEntity
  8
1
  6
CONTINUOUS
370
50
 62
4
100
AcDbLine
 10
80.08264199999999
 20
-0.016959
 30
0.0
 11
80.07665999999999
 21
-0.011317
 31
0.0
  0
LINE
  5
753
330
1F
100
AcDbEntity
  8
1
  6
CONTINUOUS
370
50
 62
4
100
AcDbLine
 10
70.124107
 20
0.0
 30
0.0
 11
69.70910599999999
 21
0.391316
 31
0.0
  0
LINE
  5
754
330
1F
100
AcDbEntity
  8
1
  6
CONTINUOUS
370
50
 62
4
100
AcDbLine
 10
81.435318
 20
-1.299828
 30
0.0
 11
81.10247
 21
-0.985996
 31
0.0
  0
LINE
  5
755
330
1F
100
AcDbEntity
  8
1
  6
CONTINUOUS
370
50
 62
4
100
AcDbLine
 10
72.49114999999999
 20
-1.263808
 30
0.0
 11
72.158638
 21
-0.950473
 31
0.0
  0
LINE
  5
756
330
1F
100
AcDbEntity
  8
1
  6
CONTINUOUS
370
50
 62
4
100
AcDbLine
 10
71.161217
 20
0.0
 30
0.0
 11
70.81796299999999
 21
0.323202
 31
0.0
  0
LINE
  5
757
330
1F
100
AcDbEntity
  8
1
  6
CONTINUOUS
370
50
 62
4
100
AcDbLine
 10
70.142349
 20
-0.017156
 30
0.0
 11
70.136269
 21
-0.011437
 31
0.0
  0
LINE
  5
758
330
1F
100
AcDbEntity
  8
1
  6
CONTINUOUS
370
50
 62
4
100
AcDbLine
 10
89.931343
 20
1.028125
 30
0.0
 11
89.575897
 21
1.362414
 31
0.0
  0
LINE
  5
759
330
1F
100
AcDbEntity
  8
1
  6
CONTINUOUS
370
50
 62
4
100
AcDbLine
 10
70.14842999999999
 20
-0.022875
 30
0.0
 11
70.142349
 21
-0.017156
 31
0.0
  0
LINE
  5
75A
330
1F
100
AcDbEntity
  8
1
  6
CONTINUOUS
370
50
 62
4
100
AcDbLine
 10
70.136269
 20
-0.011437
 30
0.0
 11
70.13018799999999
 21
-0.005718
 31
0.0
  0
LINE
  5
75B
330
1F
100
AcDbEntity
  8
1
  6
CONTINUOUS
370
50
 62
4
100
AcDbLine
 10
70.15451
 20
-0.028593
 30
0.0
 11
70.14842999999999
 21
-0.022875
 31
0.0
  0
LINE
  5
75C
330
1F
100
AcDbEntity
  8
1
  6
CONTINUOUS
370
50
 62
4
100
AcDbLine
 10
70.13018799999999
 20
-0.005718
 30
0.0
 11
70.124107
 21
0.0
 31
0.0
  0
LINE
  5
75D
330
1F
100
AcDbEntity
  8
1
  6
CONTINUOUS
370
50
 62
4
100
AcDbLine
 10
80.064697
 20
-0.000033
 30
0.0
 11
79.570717
 21
0.464124
 31
0.0
  0
LINE
  5
75E
330
1F
100
AcDbEntity
  8
1
  6
CONTINUOUS
370
50
 62
4
100
AcDbLine
 10
82.027504
 20
-0.8937039999999999
 30
0.0
 11
81.552757
 21
-0.447633
 31
0.0
  0
LINE
  5
75F
330
1F
100
AcDbEntity
  8
1
  6
CONTINUOUS
370
50
 62
4
100
AcDbLine
 10
70.16059899999999
 20
-0.034312
 30
0.0
 11
70.15451
 21
-0.028593
 31
0.0
  0
LINE
  5
760
330
1F
100
AcDbEntity
  8
1
  6
CONTINUOUS
370
50
 62
4
100
AcDbLine
 10
70.62921899999999
 20
-0.474177
 30
0.0
 11
70.16059899999999
 21
-0.034312
 31
0.0
  0
LINE
  5
761
330
1F
100
AcDbEntity
  8
1
  6
CONTINUOUS
370
50
 62
4
100
AcDbLine
 10
70.81796299999999
 20
0.323202
 30
0.0
 11
70.47438
 21
0.644783
 31
0.0
  0
LINE
  5
762
330
1F
100
AcDbEntity
  8
1
  6
CONTINUOUS
370
50
 62
4
100
AcDbLine
 10
71.059715
 20
-0.8771019999999999
 30
0.0
 11
70.62921899999999
 21
-0.474177
 31
0.0
  0
LINE
  5
763
330
1F
100
AcDbEntity
  8
1
  6
CONTINUOUS
370
50
 62
4
100
AcDbLine
 10
89.363297
 20
0.600785
 30
0.0
 11
88.919525
 21
1.015922
 31
0.0
  0
LINE
  5
764
330
1F
100
AcDbEntity
  8
1
  6
CONTINUOUS
370
50
 62
4
100
AcDbLine
 10
68.889
 20
1.169558
 30
0.0
 11
68.479027
 21
1.5524
 31
0.0
  0
LINE
  5
765
330
1F
100
AcDbEntity
  8
1
  6
CONTINUOUS
370
50
 62
4
100
AcDbLine
 10
79.570717
 20
0.464124
 30
0.0
 11
79.083801
 21
0.9186099999999999
 31
0.0
  0
LINE
  5
766
330
1F
100
AcDbEntity
  8
1
  6
CONTINUOUS
370
50
 62
4
100
AcDbLine
 10
71.448891
 20
-1.240096
 30
0.0
 11
71.059715
 21
-0.8771019999999999
 31
0.0
  0
LINE
  5
767
330
1F
100
AcDbEntity
  8
1
  6
CONTINUOUS
370
50
 62
4
100
AcDbLine
 10
70.47438
 20
0.644783
 30
0.0
 11
70.131294
 21
0.964073
 31
0.0
  0
LINE
  5
768
330
1F
100
AcDbEntity
  8
1
  6
CONTINUOUS
370
50
 62
4
100
AcDbLine
 10
79.083801
 20
0.9186099999999999
 30
0.0
 11
78.640671
 21
1.330492
 31
0.0
  0
LINE
  5
769
330
1F
100
AcDbEntity
  8
1
  6
CONTINUOUS
370
50
 62
4
100
AcDbLine
 10
71.794525
 20
-1.56105
 30
0.0
 11
71.448891
 21
-1.240096
 31
0.0
  0
LINE
  5
76A
330
1F
100
AcDbEntity
  8
1
  6
CONTINUOUS
370
50
 62
4
100
AcDbLine
 10
65.699051
 20
-3.357194
 30
0.0
 11
65.414909
 21
-3.093429
 31
0.0
  0
LINE
  5
76B
330
1F
100
AcDbEntity
  8
1
  6
CONTINUOUS
370
50
 62
4
100
AcDbLine
 10
80.189377
 20
0.8544529999999999
 30
0.0
 11
79.73621399999999
 21
1.274456
 31
0.0
  0
LINE
  5
76C
330
1F
100
AcDbEntity
  8
1
  6
CONTINUOUS
370
50
 62
4
100
AcDbLine
 10
70.131294
 20
0.964073
 30
0.0
 11
69.788696
 21
1.281302
 31
0.0
  0
LINE
  5
76D
330
1F
100
AcDbEntity
  8
1
  6
CONTINUOUS
370
50
 62
4
100
AcDbLine
 10
78.640671
 20
1.330492
 30
0.0
 11
78.248711
 21
1.692567
 31
0.0
  0
LINE
  5
76E
330
1F
100
AcDbEntity
  8
1
  6
CONTINUOUS
370
50
 62
4
100
AcDbLine
 10
81.772781
 20
-1.611549
 30
0.0
 11
81.435318
 21
-1.299828
 31
0.0
  0
LINE
  5
76F
330
1F
100
AcDbEntity
  8
1
  6
CONTINUOUS
370
50
 62
4
100
AcDbLine
 10
72.09442899999999
 20
-1.83788
 30
0.0
 11
71.794525
 21
-1.56105
 31
0.0
  0
LINE
  5
770
330
1F
100
AcDbEntity
  8
1
  6
CONTINUOUS
370
50
 62
4
100
AcDbLine
 10
82.504425
 20
-1.333911
 30
0.0
 11
82.027504
 21
-0.8937039999999999
 31
0.0
  0
LINE
  5
771
330
1F
100
AcDbEntity
  8
1
  6
CONTINUOUS
370
50
 62
4
100
AcDbLine
 10
69.788696
 20
1.281302
 30
0.0
 11
69.447113
 21
1.596071
 31
0.0
  0
LINE
  5
772
330
1F
100
AcDbEntity
  8
1
  6
CONTINUOUS
370
50
 62
4
100
AcDbLine
 10
72.82796499999999
 20
-1.574135
 30
0.0
 11
72.49114999999999
 21
-1.263808
 31
0.0
  0
LINE
  5
773
330
1F
100
AcDbEntity
  8
1
  6
CONTINUOUS
370
50
 62
4
100
AcDbLine
 10
88.919525
 20
1.015922
 30
0.0
 11
88.44107799999999
 21
1.455518
 31
0.0
  0
LINE
  5
774
330
1F
100
AcDbEntity
  8
1
  6
CONTINUOUS
370
50
 62
4
100
AcDbLine
 10
89.575897
 20
1.362414
 30
0.0
 11
89.218254
 21
1.690782
 31
0.0
  0
LINE
  5
775
330
1F
100
AcDbEntity
  8
1
  6
CONTINUOUS
370
50
 62
4
100
AcDbLine
 10
69.447113
 20
1.596071
 30
0.0
 11
69.107361
 21
1.907621
 31
0.0
  0
LINE
  5
776
330
1F
100
AcDbEntity
  8
1
  6
CONTINUOUS
370
50
 62
4
100
AcDbLine
 10
78.248711
 20
1.692567
 30
0.0
 11
77.910072
 21
2.002272
 31
0.0
  0
LINE
  5
777
330
1F
100
AcDbEntity
  8
1
  6
CONTINUOUS
370
50
 62
4
100
AcDbLine
 10
79.73621399999999
 20
1.274456
 30
0.0
 11
79.28231799999999
 21
1.687317
 31
0.0
  0
LINE
  5
778
330
1F
100
AcDbEntity
  8
1
  6
CONTINUOUS
370
50
 62
4
100
AcDbLine
 10
82.981026
 20
-1.766451
 30
0.0
 11
82.504425
 21
-1.333911
 31
0.0
  0
LINE
  5
779
330
1F
100
AcDbEntity
  8
1
  6
CONTINUOUS
370
50
 62
4
100
AcDbLine
 10
72.373001
 20
-2.09069
 30
0.0
 11
72.09442899999999
 21
-1.83788
 31
0.0
  0
LINE
  5
77A
330
1F
100
AcDbEntity
  8
1
  6
CONTINUOUS
370
50
 62
4
100
AcDbLine
 10
68.479027
 20
1.5524
 30
0.0
 11
68.06343799999999
 21
1.928972
 31
0.0
  0
LINE
  5
77B
330
1F
100
AcDbEntity
  8
1
  6
CONTINUOUS
370
50
 62
4
100
AcDbLine
 10
69.107361
 20
1.907621
 30
0.0
 11
68.767845
 21
2.214339
 31
0.0
  0
LINE
  5
77C
330
1F
100
AcDbEntity
  8
1
  6
CONTINUOUS
370
50
 62
4
100
AcDbLine
 10
88.44107799999999
 20
1.455518
 30
0.0
 11
87.962807
 21
1.887188
 31
0.0
  0
LINE
  5
77D
330
1F
100
AcDbEntity
  8
1
  6
CONTINUOUS
370
50
 62
4
100
AcDbLine
 10
73.16635099999999
 20
-1.879418
 30
0.0
 11
72.82796499999999
 21
-1.574135
 31
0.0
  0
LINE
  5
77E
330
1F
100
AcDbEntity
  8
1
  6
CONTINUOUS
370
50
 62
4
100
AcDbLine
 10
82.114784
 20
-1.919783
 30
0.0
 11
81.772781
 21
-1.611549
 31
0.0
  0
LINE
  5
77F
330
1F
100
AcDbEntity
  8
1
  6
CONTINUOUS
370
50
 62
4
100
AcDbLine
 10
77.910072
 20
2.002272
 30
0.0
 11
77.60775799999999
 21
2.273433
 31
0.0
  0
LINE
  5
780
330
1F
100
AcDbEntity
  8
1
  6
CONTINUOUS
370
50
 62
4
100
AcDbLine
 10
89.218254
 20
1.690782
 30
0.0
 11
88.85938999999999
 21
2.012512
 31
0.0
  0
LINE
  5
781
330
1F
100
AcDbEntity
  8
1
  6
CONTINUOUS
370
50
 62
4
100
AcDbLine
 10
83.453949
 20
-2.188999
 30
0.0
 11
82.981026
 21
-1.766451
 31
0.0
  0
LINE
  5
782
330
1F
100
AcDbEntity
  8
1
  6
CONTINUOUS
370
50
 62
4
100
AcDbLine
 10
79.28231799999999
 20
1.687317
 30
0.0
 11
78.828987
 21
2.092292
 31
0.0
  0
LINE
  5
783
330
1F
100
AcDbEntity
  8
1
  6
CONTINUOUS
370
50
 62
4
100
AcDbLine
 10
87.962807
 20
1.887188
 30
0.0
 11
87.490662
 21
2.306899
 31
0.0
  0
LINE
  5
784
330
1F
100
AcDbEntity
  8
1
  6
CONTINUOUS
370
50
 62
4
100
AcDbLine
 10
72.652794
 20
-2.338263
 30
0.0
 11
72.373001
 21
-2.09069
 31
0.0
  0
LINE
  5
785
330
1F
100
AcDbEntity
  8
1
  6
CONTINUOUS
370
50
 62
4
100
AcDbLine
 10
73.50542399999999
 20
-2.179042
 30
0.0
 11
73.16635099999999
 21
-1.879418
 31
0.0
  0
LINE
  5
786
330
1F
100
AcDbEntity
  8
1
  6
CONTINUOUS
370
50
 62
4
100
AcDbLine
 10
82.45800799999999
 20
-2.222397
 30
0.0
 11
82.114784
 21
-1.919783
 31
0.0
  0
LINE
  5
787
330
1F
100
AcDbEntity
  8
1
  6
CONTINUOUS
370
50
 62
4
100
AcDbLine
 10
68.06343799999999
 20
1.928972
 30
0.0
 11
67.64656099999999
 21
2.295937
 31
0.0
  0
LINE
  5
788
330
1F
100
AcDbEntity
  8
1
  6
CONTINUOUS
370
50
 62
4
100
AcDbLine
 10
68.767845
 20
2.214339
 30
0.0
 11
68.425392
 21
2.515615
 31
0.0
  0
LINE
  5
789
330
1F
100
AcDbEntity
  8
1
  6
CONTINUOUS
370
50
 62
4
100
AcDbLine
 10
83.916573
 20
-2.595949
 30
0.0
 11
83.453949
 21
-2.188999
 31
0.0
  0
LINE
  5
78A
330
1F
100
AcDbEntity
  8
1
  6
CONTINUOUS
370
50
 62
4
100
AcDbLine
 10
78.828987
 20
2.092292
 30
0.0
 11
78.377769
 21
2.488307
 31
0.0
  0
LINE
  5
78B
330
1F
100
AcDbEntity
  8
1
  6
CONTINUOUS
370
50
 62
4
100
AcDbLine
 10
88.85938999999999
 20
2.012512
 30
0.0
 11
88.50028999999999
 21
2.326889
 31
0.0
  0
LINE
  5
78C
330
1F
100
AcDbEntity
  8
1
  6
CONTINUOUS
370
50
 62
4
100
AcDbLine
 10
77.60775799999999
 20
2.273433
 30
0.0
 11
77.30510699999999
 21
2.537171
 31
0.0
  0
LINE
  5
78D
330
1F
100
AcDbEntity
  8
1
  6
CONTINUOUS
370
50
 62
4
100
AcDbLine
 10
87.490662
 20
2.306899
 30
0.0
 11
87.02733599999999
 21
2.710615
 31
0.0
  0
LINE
  5
78E
330
1F
100
AcDbEntity
  8
1
  6
CONTINUOUS
370
50
 62
4
100
AcDbLine
 10
73.844292
 20
-2.472392
 30
0.0
 11
73.50542399999999
 21
-2.179042
 31
0.0
  0
LINE
  5
78F
330
1F
100
AcDbEntity
  8
1
  6
CONTINUOUS
370
50
 62
4
100
AcDbLine
 10
82.801559
 20
-2.518732
 30
0.0
 11
82.45800799999999
 21
-2.222397
 31
0.0
  0
LINE
  5
790
330
1F
100
AcDbEntity
  8
1
  6
CONTINUOUS
370
50
 62
4
100
AcDbLine
 10
72.933403
 20
-2.580301
 30
0.0
 11
72.652794
 21
-2.338263
 31
0.0
  0
LINE
  5
791
330
1F
100
AcDbEntity
  8
1
  6
CONTINUOUS
370
50
 62
4
100
AcDbLine
 10
78.377769
 20
2.488307
 30
0.0
 11
77.931389
 21
2.872269
 31
0.0
  0
LINE
  5
792
330
1F
100
AcDbEntity
  8
1
  6
CONTINUOUS
370
50
 62
4
100
AcDbLine
 10
67.64656099999999
 20
2.295937
 30
0.0
 11
67.243134
 21
2.64122
 31
0.0
  0
LINE
  5
793
330
1F
100
AcDbEntity
  8
1
  6
CONTINUOUS
370
50
 62
4
100
AcDbLine
 10
88.50028999999999
 20
2.326889
 30
0.0
 11
88.141808
 21
2.633328
 31
0.0
  0
LINE
  5
794
330
1F
100
AcDbEntity
  8
1
  6
CONTINUOUS
370
50
 62
4
100
AcDbLine
 10
84.37681599999999
 20
-2.987356
 30
0.0
 11
83.916573
 21
-2.595949
 31
0.0
  0
LINE
  5
795
330
1F
100
AcDbEntity
  8
1
  6
CONTINUOUS
370
50
 62
4
100
AcDbLine
 10
68.425392
 20
2.515615
 30
0.0
 11
68.077248
 21
2.811394
 31
0.0
  0
LINE
  5
796
330
1F
100
AcDbEntity
  8
1
  6
CONTINUOUS
370
50
 62
4
100
AcDbLine
 10
74.182076
 20
-2.758853
 30
0.0
 11
73.844292
 21
-2.472392
 31
0.0
  0
LINE
  5
797
330
1F
100
AcDbEntity
  8
1
  6
CONTINUOUS
370
50
 62
4
100
AcDbLine
 10
77.30510699999999
 20
2.537171
 30
0.0
 11
77.001282
 21
2.794267
 31
0.0
  0
LINE
  5
798
330
1F
100
AcDbEntity
  8
1
  6
CONTINUOUS
370
50
 62
4
100
AcDbLine
 10
83.14452399999999
 20
-2.808127
 30
0.0
 11
82.801559
 21
-2.518732
 31
0.0
  0
LINE
  5
799
330
1F
100
AcDbEntity
  8
1
  6
CONTINUOUS
370
50
 62
4
100
AcDbLine
 10
73.214806
 20
-2.816876
 30
0.0
 11
72.933403
 21
-2.580301
 31
0.0
  0
LINE
  5
79A
330
1F
100
AcDbEntity
  8
1
  6
CONTINUOUS
370
50
 62
4
100
AcDbLine
 10
87.02733599999999
 20
2.710615
 30
0.0
 11
86.566193
 21
3.097984
 31
0.0
  0
LINE
  5
79B
330
1F
100
AcDbEntity
  8
1
  6
CONTINUOUS
370
50
 62
4
100
AcDbLine
 10
88.141808
 20
2.633328
 30
0.0
 11
87.783867
 21
2.932163
 31
0.0
  0
LINE
  5
79C
330
1F
100
AcDbEntity
  8
1
  6
CONTINUOUS
370
50
 62
4
100
AcDbLine
 10
67.243134
 20
2.64122
 30
0.0
 11
66.87447399999999
 21
2.948461
 31
0.0
  0
LINE
  5
79D
330
1F
100
AcDbEntity
  8
1
  6
CONTINUOUS
370
50
 62
4
100
AcDbLine
 10
74.51608999999999
 20
-3.036865
 30
0.0
 11
74.182076
 21
-2.758853
 31
0.0
  0
LINE
  5
79E
330
1F
100
AcDbEntity
  8
1
  6
CONTINUOUS
370
50
 62
4
100
AcDbLine
 10
90.0
 20
-0.01057
 30
0.0
 11
89.987534
 21
-0.000253
 31
0.0
  0
LINE
  5
79F
330
1F
100
AcDbEntity
  8
1
  6
CONTINUOUS
370
50
 62
4
100
AcDbLine
 10
77.931389
 20
2.872269
 30
0.0
 11
77.48380999999999
 21
3.241955
 31
0.0
  0
LINE
  5
7A0
330
1F
100
AcDbEntity
  8
1
  6
CONTINUOUS
370
50
 62
4
100
AcDbLine
 10
83.48599999999999
 20
-3.089922
 30
0.0
 11
83.14452399999999
 21
-2.808127
 31
0.0
  0
LINE
  5
7A1
330
1F
100
AcDbEntity
  8
1
  6
CONTINUOUS
370
50
 62
4
100
AcDbLine
 10
77.001282
 20
2.794267
 30
0.0
 11
76.6968
 21
3.044413
 31
0.0
  0
LINE
  5
7A2
330
1F
100
AcDbEntity
  8
1
  6
CONTINUOUS
370
50
 62
4
100
AcDbLine
 10
89.987534
 20
-0.000253
 30
0.0
 11
89.970764
 21
0.013517
 31
0.0
  0
LINE
  5
7A3
330
1F
100
AcDbEntity
  8
1
  6
CONTINUOUS
370
50
 62
4
100
AcDbLine
 10
73.49698599999999
 20
-3.048075
 30
0.0
 11
73.214806
 21
-2.816876
 31
0.0
  0
LINE
  5
7A4
330
1F
100
AcDbEntity
  8
1
  6
CONTINUOUS
370
50
 62
4
100
AcDbLine
 10
68.077248
 20
2.811394
 30
0.0
 11
67.725548
 21
3.099351
 31
0.0
  0
LINE
  5
7A5
330
1F
100
AcDbEntity
  8
1
  6
CONTINUOUS
370
50
 62
4
100
AcDbLine
 10
89.970764
 20
0.013517
 30
0.0
 11
89.94858599999999
 21
0.031648
 31
0.0
  0
LINE
  5
7A6
330
1F
100
AcDbEntity
  8
1
  6
CONTINUOUS
370
50
 62
4
100
AcDbLine
 10
66.0
 20
-3.60312
 30
0.0
 11
65.699051
 21
-3.357194
 31
0.0
  0
LINE
  5
7A7
330
1F
100
AcDbEntity
  8
1
  6
CONTINUOUS
370
50
 62
4
100
AcDbLine
 10
89.94858599999999
 20
0.031648
 30
0.0
 11
89.918404
 21
0.056251
 31
0.0
  0
LINE
  5
7A8
330
1F
100
AcDbEntity
  8
1
  6
CONTINUOUS
370
50
 62
4
100
AcDbLine
 10
87.783867
 20
2.932163
 30
0.0
 11
87.42723099999999
 21
3.222834
 31
0.0
  0
LINE
  5
7A9
330
1F
100
AcDbEntity
  8
1
  6
CONTINUOUS
370
50
 62
4
100
AcDbLine
 10
74.844833
 20
-3.304723
 30
0.0
 11
74.51608999999999
 21
-3.036865
 31
0.0
  0
LINE
  5
7AA
330
1F
100
AcDbEntity
  8
1
  6
CONTINUOUS
370
50
 62
4
100
AcDbLine
 10
89.918404
 20
0.056251
 30
0.0
 11
89.877251
 21
0.089753
 31
0.0
  0
LINE
  5
7AB
330
1F
100
AcDbEntity
  8
1
  6
CONTINUOUS
370
50
 62
4
100
AcDbLine
 10
89.877251
 20
0.089753
 30
0.0
 11
89.8228
 21
0.134044
 31
0.0
  0
LINE
  5
7AC
330
1F
100
AcDbEntity
  8
1
  6
CONTINUOUS
370
50
 62
4
100
AcDbLine
 10
87.925636
 20
1.676098
 30
0.0
 11
87.85199
 21
1.735976
 31
0.0
  0
LINE
  5
7AD
330
1F
100
AcDbEntity
  8
1
  6
CONTINUOUS
370
50
 62
4
100
AcDbLine
 10
87.85199
 20
1.735976
 30
0.0
 11
87.778465
 21
1.795755
 31
0.0
  0
LINE
  5
7AE
330
1F
100
AcDbEntity
  8
1
  6
CONTINUOUS
370
50
 62
4
100
AcDbLine
 10
88.07331099999999
 20
1.556042
 30
0.0
 11
87.99942
 21
1.616117
 31
0.0
  0
LINE
  5
7AF
330
1F
100
AcDbEntity
  8
1
  6
CONTINUOUS
370
50
 62
4
100
AcDbLine
 10
89.8228
 20
0.134044
 30
0.0
 11
89.762428
 21
0.183126
 31
0.0
  0
LINE
  5
7B0
330
1F
100
AcDbEntity
  8
1
  6
CONTINUOUS
370
50
 62
4
100
AcDbLine
 10
88.219887
 20
1.436879
 30
0.0
 11
88.14684299999999
 21
1.496263
 31
0.0
  0
LINE
  5
7B1
330
1F
100
AcDbEntity
  8
1
  6
CONTINUOUS
370
50
 62
4
100
AcDbLine
 10
88.14684299999999
 20
1.496263
 30
0.0
 11
88.07331099999999
 21
1.556042
 31
0.0
  0
LINE
  5
7B2
330
1F
100
AcDbEntity
  8
1
  6
CONTINUOUS
370
50
 62
4
100
AcDbLine
 10
87.99942
 20
1.616117
 30
0.0
 11
87.925636
 21
1.676098
 31
0.0
  0
LINE
  5
7B3
330
1F
100
AcDbEntity
  8
1
  6
CONTINUOUS
370
50
 62
4
100
AcDbLine
 10
88.437424
 20
1.260043
 30
0.0
 11
88.365051
 21
1.318876
 31
0.0
  0
LINE
  5
7B4
330
1F
100
AcDbEntity
  8
1
  6
CONTINUOUS
370
50
 62
4
100
AcDbLine
 10
88.29258
 20
1.377786
 30
0.0
 11
88.219887
 21
1.436879
 31
0.0
  0
LINE
  5
7B5
330
1F
100
AcDbEntity
  8
1
  6
CONTINUOUS
370
50
 62
4
100
AcDbLine
 10
88.509834
 20
1.201181
 30
0.0
 11
88.437424
 21
1.260043
 31
0.0
  0
LINE
  5
7B6
330
1F
100
AcDbEntity
  8
1
  6
CONTINUOUS
370
50
 62
4
100
AcDbLine
 10
88.65529599999999
 20
1.082943
 30
0.0
 11
88.58242
 21
1.142183
 31
0.0
  0
LINE
  5
7B7
330
1F
100
AcDbEntity
  8
1
  6
CONTINUOUS
370
50
 62
4
100
AcDbLine
 10
88.365051
 20
1.318876
 30
0.0
 11
88.29258
 21
1.377786
 31
0.0
  0
LINE
  5
7B8
330
1F
100
AcDbEntity
  8
1
  6
CONTINUOUS
370
50
 62
4
100
AcDbLine
 10
89.762428
 20
0.183126
 30
0.0
 11
89.703445
 21
0.231069
 31
0.0
  0
LINE
  5
7B9
330
1F
100
AcDbEntity
  8
1
  6
CONTINUOUS
370
50
 62
4
100
AcDbLine
 10
88.728607
 20
1.023354
 30
0.0
 11
88.65529599999999
 21
1.082943
 31
0.0
  0
LINE
  5
7BA
330
1F
100
AcDbEntity
  8
1
  6
CONTINUOUS
370
50
 62
4
100
AcDbLine
 10
89.703445
 20
0.231069
 30
0.0
 11
89.64447
 21
0.279005
 31
0.0
  0
LINE
  5
7BB
330
1F
100
AcDbEntity
  8
1
  6
CONTINUOUS
370
50
 62
4
100
AcDbLine
 10
88.952438
 20
0.841429
 30
0.0
 11
88.87705199999999
 21
0.9027029999999999
 31
0.0
  0
LINE
  5
7BC
330
1F
100
AcDbEntity
  8
1
  6
CONTINUOUS
370
50
 62
4
100
AcDbLine
 10
88.58242
 20
1.142183
 30
0.0
 11
88.509834
 21
1.201181
 31
0.0
  0
LINE
  5
7BD
330
1F
100
AcDbEntity
  8
1
  6
CONTINUOUS
370
50
 62
4
100
AcDbLine
 10
88.802483
 20
0.963309
 30
0.0
 11
88.728607
 21
1.023354
 31
0.0
  0
LINE
  5
7BE
330
1F
100
AcDbEntity
  8
1
  6
CONTINUOUS
370
50
 62
4
100
AcDbLine
 10
88.87705199999999
 20
0.9027029999999999
 30
0.0
 11
88.802483
 21
0.963309
 31
0.0
  0
LINE
  5
7BF
330
1F
100
AcDbEntity
  8
1
  6
CONTINUOUS
370
50
 62
4
100
AcDbLine
 10
89.10621599999999
 20
0.7164499999999999
 30
0.0
 11
89.028786
 21
0.77938
 31
0.0
  0
LINE
  5
7C0
330
1F
100
AcDbEntity
  8
1
  6
CONTINUOUS
370
50
 62
4
100
AcDbLine
 10
89.260323
 20
0.5912029999999999
 30
0.0
 11
89.10621599999999
 21
0.7164499999999999
 31
0.0
  0
LINE
  5
7C1
330
1F
100
AcDbEntity
  8
1
  6
CONTINUOUS
370
50
 62
4
100
AcDbLine
 10
89.46631599999999
 20
0.423792
 30
0.0
 11
89.40265699999999
 21
0.475529
 31
0.0
  0
LINE
  5
7C2
330
1F
100
AcDbEntity
  8
1
  6
CONTINUOUS
370
50
 62
4
100
AcDbLine
 10
89.584946
 20
0.327381
 30
0.0
 11
89.524406
 21
0.376583
 31
0.0
  0
LINE
  5
7C3
330
1F
100
AcDbEntity
  8
1
  6
CONTINUOUS
370
50
 62
4
100
AcDbLine
 10
89.64447
 20
0.279005
 30
0.0
 11
89.584946
 21
0.327381
 31
0.0
  0
LINE
  5
7C4
330
1F
100
AcDbEntity
  8
1
  6
CONTINUOUS
370
50
 62
4
100
AcDbLine
 10
89.33358
 20
0.531666
 30
0.0
 11
89.260323
 21
0.5912029999999999
 31
0.0
  0
LINE
  5
7C5
330
1F
100
AcDbEntity
  8
1
  6
CONTINUOUS
370
50
 62
4
100
AcDbLine
 10
89.028786
 20
0.77938
 30
0.0
 11
88.952438
 21
0.841429
 31
0.0
  0
LINE
  5
7C6
330
1F
100
AcDbEntity
  8
1
  6
CONTINUOUS
370
50
 62
4
100
AcDbLine
 10
89.524406
 20
0.376583
 30
0.0
 11
89.46631599999999
 21
0.423792
 31
0.0
  0
LINE
  5
7C7
330
1F
100
AcDbEntity
  8
1
  6
CONTINUOUS
370
50
 62
4
100
AcDbLine
 10
89.40265699999999
 20
0.475529
 30
0.0
 11
89.33358
 21
0.531666
 31
0.0
  0
LINE
  5
7C8
330
1F
100
AcDbEntity
  8
1
  6
CONTINUOUS
370
50
 62
4
100
AcDbLine
 10
66.87447399999999
 20
2.948461
 30
0.0
 11
66.54293799999999
 21
3.217882
 31
0.0
  0
LINE
  5
7C9
330
1F
100
AcDbEntity
  8
1
  6
CONTINUOUS
370
50
 62
4
100
AcDbLine
 10
83.823692
 20
-3.362583
 30
0.0
 11
83.48599999999999
 21
-3.089922
 31
0.0
  0
LINE
  5
7CA
330
1F
100
AcDbEntity
  8
1
  6
CONTINUOUS
370
50
 62
4
100
AcDbLine
 10
84.840164
 20
-3.360616
 30
0.0
 11
84.37681599999999
 21
-2.987356
 31
0.0
  0
LINE
  5
7CB
330
1F
100
AcDbEntity
  8
1
  6
CONTINUOUS
370
50
 62
4
100
AcDbLine
 10
73.779442
 20
-3.27354
 30
0.0
 11
73.49698599999999
 21
-3.048075
 31
0.0
  0
LINE
  5
7CC
330
1F
100
AcDbEntity
  8
1
  6
CONTINUOUS
370
50
 62
4
100
AcDbLine
 10
76.6968
 20
3.044413
 30
0.0
 11
76.392242
 21
3.287262
 31
0.0
  0
LINE
  5
7CD
330
1F
100
AcDbEntity
  8
1
  6
CONTINUOUS
370
50
 62
4
100
AcDbLine
 10
87.42723099999999
 20
3.222834
 30
0.0
 11
87.07453199999999
 21
3.503301
 31
0.0
  0
LINE
  5
7CE
330
1F
100
AcDbEntity
  8
1
  6
CONTINUOUS
370
50
 62
4
100
AcDbLine
 10
86.566193
 20
3.097984
 30
0.0
 11
86.102165
 21
3.466344
 31
0.0
  0
LINE
  5
7CF
330
1F
100
AcDbEntity
  8
1
  6
CONTINUOUS
370
50
 62
4
100
AcDbLine
 10
66.54293799999999
 20
3.217882
 30
0.0
 11
66.250717
 21
3.449853
 31
0.0
  0
LINE
  5
7D0
330
1F
100
AcDbEntity
  8
1
  6
CONTINUOUS
370
50
 62
4
100
AcDbLine
 10
67.725548
 20
3.099351
 30
0.0
 11
67.373314
 21
3.377646
 31
0.0
  0
LINE
  5
7D1
330
1F
100
AcDbEntity
  8
1
  6
CONTINUOUS
370
50
 62
4
100
AcDbLine
 10
75.172028
 20
-3.56289
 30
0.0
 11
74.844833
 21
-3.304723
 31
0.0
  0
LINE
  5
7D2
330
1F
100
AcDbEntity
  8
1
  6
CONTINUOUS
370
50
 62
4
100
AcDbLine
 10
84.157867
 20
-3.624501
 30
0.0
 11
83.823692
 21
-3.362583
 31
0.0
  0
LINE
  5
7D3
330
1F
100
AcDbEntity
  8
1
  6
CONTINUOUS
370
50
 62
4
100
AcDbLine
 10
77.48380999999999
 20
3.241955
 30
0.0
 11
77.02761799999999
 21
3.596701
 31
0.0
  0
LINE
  5
7D4
330
1F
100
AcDbEntity
  8
1
  6
CONTINUOUS
370
50
 62
4
100
AcDbLine
 10
66.250717
 20
3.449853
 30
0.0
 11
66.0
 21
3.644742
 31
0.0
  0
LINE
  5
7D5
330
1F
100
AcDbEntity
  8
1
  6
CONTINUOUS
370
50
 62
4
100
AcDbLine
 10
74.061684
 20
-3.492914
 30
0.0
 11
73.779442
 21
-3.27354
 31
0.0
  0
LINE
  5
7D6
330
1F
100
AcDbEntity
  8
1
  6
CONTINUOUS
370
50
 62
4
100
AcDbLine
 10
76.392242
 20
3.287262
 30
0.0
 11
76.08769199999999
 21
3.522863
 31
0.0
  0
LINE
  5
7D7
330
1F
100
AcDbEntity
  8
1
  6
CONTINUOUS
370
50
 62
4
100
AcDbLine
 10
87.07453199999999
 20
3.503301
 30
0.0
 11
86.72391499999999
 21
3.772068
 31
0.0
  0
LINE
  5
7D8
330
1F
100
AcDbEntity
  8
1
  6
CONTINUOUS
370
50
 62
4
100
AcDbLine
 10
67.373314
 20
3.377646
 30
0.0
 11
67.021599
 21
3.645636
 31
0.0
  0
LINE
  5
7D9
330
1F
100
AcDbEntity
  8
1
  6
CONTINUOUS
370
50
 62
4
100
AcDbLine
 10
85.30547299999999
 20
-3.714228
 30
0.0
 11
84.840164
 21
-3.360616
 31
0.0
  0
LINE
  5
7DA
330
1F
100
AcDbEntity
  8
1
  6
CONTINUOUS
370
50
 62
4
100
AcDbLine
 10
74.343216
 20
-3.70584
 30
0.0
 11
74.061684
 21
-3.492914
 31
0.0
  0
LINE
  5
7DB
330
1F
100
AcDbEntity
  8
1
  6
CONTINUOUS
370
50
 62
4
100
AcDbLine
 10
75.500755
 20
-3.81105
 30
0.0
 11
75.172028
 21
-3.56289
 31
0.0
  0
LINE
  5
7DC
330
1F
100
AcDbEntity
  8
1
  6
CONTINUOUS
370
50
 62
4
100
AcDbLine
 10
76.08769199999999
 20
3.522863
 30
0.0
 11
75.78362299999999
 21
3.750907
 31
0.0
  0
LINE
  5
7DD
330
1F
100
AcDbEntity
  8
1
  6
CONTINUOUS
370
50
 62
4
100
AcDbLine
 10
86.102165
 20
3.466344
 30
0.0
 11
85.63662699999999
 21
3.814397
 31
0.0
  0
LINE
  5
7DE
330
1F
100
AcDbEntity
  8
1
  6
CONTINUOUS
370
50
 62
4
100
AcDbLine
 10
84.495316
 20
-3.876686
 30
0.0
 11
84.157867
 21
-3.624501
 31
0.0
  0
LINE
  5
7DF
330
1F
100
AcDbEntity
  8
1
  6
CONTINUOUS
370
50
 62
4
100
AcDbLine
 10
74.623543
 20
-3.911961
 30
0.0
 11
74.343216
 21
-3.70584
 31
0.0
  0
LINE
  5
7E0
330
1F
100
AcDbEntity
  8
1
  6
CONTINUOUS
370
50
 62
4
100
AcDbLine
 10
67.021599
 20
3.645636
 30
0.0
 11
66.67411
 21
3.900776
 31
0.0
  0
LINE
  5
7E1
330
1F
100
AcDbEntity
  8
1
  6
CONTINUOUS
370
50
 62
4
100
AcDbLine
 10
77.02761799999999
 20
3.596701
 30
0.0
 11
76.569
 21
3.93222
 31
0.0
  0
LINE
  5
7E2
330
1F
100
AcDbEntity
  8
1
  6
CONTINUOUS
370
50
 62
4
100
AcDbLine
 10
75.78362299999999
 20
3.750907
 30
0.0
 11
75.481216
 21
3.970692
 31
0.0
  0
LINE
  5
7E3
330
1F
100
AcDbEntity
  8
1
  6
CONTINUOUS
370
50
 62
4
100
AcDbLine
 10
86.72391499999999
 20
3.772068
 30
0.0
 11
86.368301
 21
4.030012
 31
0.0
  0
LINE
  5
7E4
330
1F
100
AcDbEntity
  8
1
  6
CONTINUOUS
370
50
 62
4
100
AcDbLine
 10
75.83105499999999
 20
-4.047669
 30
0.0
 11
75.500755
 21
-3.81105
 31
0.0
  0
LINE
  5
7E5
330
1F
100
AcDbEntity
  8
1
  6
CONTINUOUS
370
50
 62
4
100
AcDbLine
 10
69.404152
 20
0.503514
 30
0.0
 11
69.025909
 21
0.7743909999999999
 31
0.0
  0
LINE
  5
7E6
330
1F
100
AcDbEntity
  8
1
  6
CONTINUOUS
370
50
 62
4
100
AcDbLine
 10
85.772148
 20
-4.048202
 30
0.0
 11
85.30547299999999
 21
-3.714228
 31
0.0
  0
LINE
  5
7E7
330
1F
100
AcDbEntity
  8
1
  6
CONTINUOUS
370
50
 62
4
100
AcDbLine
 10
74.902023
 20
-4.110707
 30
0.0
 11
74.623543
 21
-3.911961
 31
0.0
  0
LINE
  5
7E8
330
1F
100
AcDbEntity
  8
1
  6
CONTINUOUS
370
50
 62
4
100
AcDbLine
 10
69.782394
 20
0.234017
 30
0.0
 11
69.404152
 21
0.503514
 31
0.0
  0
LINE
  5
7E9
330
1F
100
AcDbEntity
  8
1
  6
CONTINUOUS
370
50
 62
4
100
AcDbLine
 10
69.025909
 20
0.7743909999999999
 30
0.0
 11
68.64767499999999
 21
1.042961
 31
0.0
  0
LINE
  5
7EA
330
1F
100
AcDbEntity
  8
1
  6
CONTINUOUS
370
50
 62
4
100
AcDbLine
 10
70.160637
 20
-0.034251
 30
0.0
 11
69.782394
 21
0.234017
 31
0.0
  0
LINE
  5
7EB
330
1F
100
AcDbEntity
  8
1
  6
CONTINUOUS
370
50
 62
4
100
AcDbLine
 10
80.10005199999999
 20
-0.03351
 30
0.0
 11
79.767303
 21
0.20223
 31
0.0
  0
LINE
  5
7EC
330
1F
100
AcDbEntity
  8
1
  6
CONTINUOUS
370
50
 62
4
100
AcDbLine
 10
84.835724
 20
-4.117334
 30
0.0
 11
84.495316
 21
-3.876686
 31
0.0
  0
LINE
  5
7ED
330
1F
100
AcDbEntity
  8
1
  6
CONTINUOUS
370
50
 62
4
100
AcDbLine
 10
66.67411
 20
3.900776
 30
0.0
 11
66.333351
 21
4.141556
 31
0.0
  0
LINE
  5
7EE
330
1F
100
AcDbEntity
  8
1
  6
CONTINUOUS
370
50
 62
4
100
AcDbLine
 10
79.767303
 20
0.20223
 30
0.0
 11
79.434555
 21
0.436834
 31
0.0
  0
LINE
  5
7EF
330
1F
100
AcDbEntity
  8
1
  6
CONTINUOUS
370
50
 62
4
100
AcDbLine
 10
75.481216
 20
3.970692
 30
0.0
 11
75.183739
 21
4.180172
 31
0.0
  0
LINE
  5
7F0
330
1F
100
AcDbEntity
  8
1
  6
CONTINUOUS
370
50
 62
4
100
AcDbLine
 10
85.63662699999999
 20
3.814397
 30
0.0
 11
85.170097
 21
4.142189999999999
 31
0.0
  0
LINE
  5
7F1
330
1F
100
AcDbEntity
  8
1
  6
CONTINUOUS
370
50
 62
4
100
AcDbLine
 10
79.434555
 20
0.436834
 30
0.0
 11
79.101807
 21
0.670401
 31
0.0
  0
LINE
  5
7F2
330
1F
100
AcDbEntity
  8
1
  6
CONTINUOUS
370
50
 62
4
100
AcDbLine
 10
79.101807
 20
0.670401
 30
0.0
 11
78.76905099999999
 21
0.9029969999999999
 31
0.0
  0
LINE
  5
7F3
330
1F
100
AcDbEntity
  8
1
  6
CONTINUOUS
370
50
 62
4
100
AcDbLine
 10
78.76905099999999
 20
0.9029969999999999
 30
0.0
 11
78.436295
 21
1.134685
 31
0.0
  0
LINE
  5
7F4
330
1F
100
AcDbEntity
  8
1
  6
CONTINUOUS
370
50
 62
4
100
AcDbLine
 10
78.436295
 20
1.134685
 30
0.0
 11
78.103546
 21
1.365526
 31
0.0
  0
LINE
  5
7F5
330
1F
100
AcDbEntity
  8
1
  6
CONTINUOUS
370
50
 62
4
100
AcDbLine
 10
68.64767499999999
 20
1.042961
 30
0.0
 11
68.26944
 21
1.304462
 31
0.0
  0
LINE
  5
7F6
330
1F
100
AcDbEntity
  8
1
  6
CONTINUOUS
370
50
 62
4
100
AcDbLine
 10
75.179092
 20
-4.301069
 30
0.0
 11
74.902023
 21
-4.110707
 31
0.0
  0
LINE
  5
7F7
330
1F
100
AcDbEntity
  8
1
  6
CONTINUOUS
370
50
 62
4
100
AcDbLine
 10
76.569
 20
3.93222
 30
0.0
 11
76.110199
 21
4.247269
 31
0.0
  0
LINE
  5
7F8
330
1F
100
AcDbEntity
  8
1
  6
CONTINUOUS
370
50
 62
4
100
AcDbLine
 10
78.103546
 20
1.365526
 30
0.0
 11
77.77078999999999
 21
1.594022
 31
0.0
  0
LINE
  5
7F9
330
1F
100
AcDbEntity
  8
1
  6
CONTINUOUS
370
50
 62
4
100
AcDbLine
 10
86.368301
 20
4.030012
 30
0.0
 11
86.00936899999999
 21
4.274883
 31
0.0
  0
LINE
  5
7FA
330
1F
100
AcDbEntity
  8
1
  6
CONTINUOUS
370
50
 62
4
100
AcDbLine
 10
66.333351
 20
4.141556
 30
0.0
 11
66.0
 21
4.367821
 31
0.0
  0
LINE
  5
7FB
330
1F
100
AcDbEntity
  8
1
  6
CONTINUOUS
370
50
 62
4
100
AcDbLine
 10
76.162964
 20
-4.272908
 30
0.0
 11
75.83105499999999
 21
-4.047669
 31
0.0
  0
LINE
  5
7FC
330
1F
100
AcDbEntity
  8
1
  6
CONTINUOUS
370
50
 62
4
100
AcDbLine
 10
66.455933
 20
-4.421251
 30
0.0
 11
66.0
 21
-4.113507
 31
0.0
  0
LINE
  5
7FD
330
1F
100
AcDbEntity
  8
1
  6
CONTINUOUS
370
50
 62
4
100
AcDbLine
 10
75.183739
 20
4.180172
 30
0.0
 11
74.88829799999999
 21
4.379572
 31
0.0
  0
LINE
  5
7FE
330
1F
100
AcDbEntity
  8
1
  6
CONTINUOUS
370
50
 62
4
100
AcDbLine
 10
68.26944
 20
1.304462
 30
0.0
 11
67.891205
 21
1.55915
 31
0.0
  0
LINE
  5
7FF
330
1F
100
AcDbEntity
  8
1
  6
CONTINUOUS
370
50
 62
4
100
AcDbLine
 10
86.23803699999999
 20
-4.361222
 30
0.0
 11
85.772148
 21
-4.048202
 31
0.0
  0
LINE
  5
800
330
1F
100
AcDbEntity
  8
1
  6
CONTINUOUS
370
50
 62
4
100
AcDbLine
 10
87.95897699999999
 20
1.414964
 30
0.0
 11
87.618507
 21
1.643103
 31
0.0
  0
LINE
  5
801
330
1F
100
AcDbEntity
  8
1
  6
CONTINUOUS
370
50
 62
4
100
AcDbLine
 10
85.177368
 20
-4.345457
 30
0.0
 11
84.835724
 21
-4.117334
 31
0.0
  0
LINE
  5
802
330
1F
100
AcDbEntity
  8
1
  6
CONTINUOUS
370
50
 62
4
100
AcDbLine
 10
77.77078999999999
 20
1.594022
 30
0.0
 11
77.43804899999999
 21
1.815601
 31
0.0
  0
LINE
  5
803
330
1F
100
AcDbEntity
  8
1
  6
CONTINUOUS
370
50
 62
4
100
AcDbLine
 10
87.618507
 20
1.643103
 30
0.0
 11
87.27803
 21
1.868252
 31
0.0
  0
LINE
  5
804
330
1F
100
AcDbEntity
  8
1
  6
CONTINUOUS
370
50
 62
4
100
AcDbLine
 10
85.170097
 20
4.142189999999999
 30
0.0
 11
84.70425399999999
 21
4.448723
 31
0.0
  0
LINE
  5
805
330
1F
100
AcDbEntity
  8
1
  6
CONTINUOUS
370
50
 62
4
100
AcDbLine
 10
67.891205
 20
1.55915
 30
0.0
 11
67.51297
 21
1.807303
 31
0.0
  0
LINE
  5
806
330
1F
100
AcDbEntity
  8
1
  6
CONTINUOUS
370
50
 62
4
100
AcDbLine
 10
75.45790099999999
 20
-4.483340999999999
 30
0.0
 11
75.179092
 21
-4.301069
 31
0.0
  0
LINE
  5
807
330
1F
100
AcDbEntity
  8
1
  6
CONTINUOUS
370
50
 62
4
100
AcDbLine
 10
87.27803
 20
1.868252
 30
0.0
 11
86.937561
 21
2.090482
 31
0.0
  0
LINE
  5
808
330
1F
100
AcDbEntity
  8
1
  6
CONTINUOUS
370
50
 62
4
100
AcDbLine
 10
77.43804899999999
 20
1.815601
 30
0.0
 11
77.105301
 21
2.03016
 31
0.0
  0
LINE
  5
809
330
1F
100
AcDbEntity
  8
1
  6
CONTINUOUS
370
50
 62
4
100
AcDbLine
 10
76.110199
 20
4.247269
 30
0.0
 11
75.653419
 21
4.54063
 31
0.0
  0
LINE
  5
80A
330
1F
100
AcDbEntity
  8
1
  6
CONTINUOUS
370
50
 62
4
100
AcDbLine
 10
76.495811
 20
-4.486453
 30
0.0
 11
76.162964
 21
-4.272908
 31
0.0
  0
LINE
  5
80B
330
1F
100
AcDbEntity
  8
1
  6
CONTINUOUS
370
50
 62
4
100
AcDbLine
 10
86.00936899999999
 20
4.274883
 30
0.0
 11
85.649254
 21
4.505599
 31
0.0
  0
LINE
  5
80C
330
1F
100
AcDbEntity
  8
1
  6
CONTINUOUS
370
50
 62
4
100
AcDbLine
 10
67.51297
 20
1.807303
 30
0.0
 11
67.134727
 21
2.049147
 31
0.0
  0
LINE
  5
80D
330
1F
100
AcDbEntity
  8
1
  6
CONTINUOUS
370
50
 62
4
100
AcDbLine
 10
74.88829799999999
 20
4.379572
 30
0.0
 11
74.59118699999999
 21
4.569357
 31
0.0
  0
LINE
  5
80E
330
1F
100
AcDbEntity
  8
1
  6
CONTINUOUS
370
50
 62
4
100
AcDbLine
 10
86.937561
 20
2.090482
 30
0.0
 11
86.59709199999999
 21
2.305617
 31
0.0
  0
LINE
  5
80F
330
1F
100
AcDbEntity
  8
1
  6
CONTINUOUS
370
50
 62
4
100
AcDbLine
 10
65.55454999999999
 20
4.759187
 30
0.0
 11
65.345627
 21
4.890963
 31
0.0
  0
LINE
  5
810
330
1F
100
AcDbEntity
  8
1
  6
CONTINUOUS
370
50
 62
4
100
AcDbLine
 10
85.519363
 20
-4.560649
 30
0.0
 11
85.177368
 21
-4.345457
 31
0.0
  0
LINE
  5
811
330
1F
100
AcDbEntity
  8
1
  6
CONTINUOUS
370
50
 62
4
100
AcDbLine
 10
86.699944
 20
-4.651486
 30
0.0
 11
86.23803699999999
 21
-4.361222
 31
0.0
  0
LINE
  5
812
330
1F
100
AcDbEntity
  8
1
  6
CONTINUOUS
370
50
 62
4
100
AcDbLine
 10
65.77239999999999
 20
4.622320999999999
 30
0.0
 11
65.55454999999999
 21
4.759187
 31
0.0
  0
LINE
  5
813
330
1F
100
AcDbEntity
  8
1
  6
CONTINUOUS
370
50
 62
4
100
AcDbLine
 10
65.345627
 20
4.890963
 30
0.0
 11
65.144829
 21
5.017001
 31
0.0
  0
LINE
  5
814
330
1F
100
AcDbEntity
  8
1
  6
CONTINUOUS
370
50
 62
4
100
AcDbLine
 10
54.0
 20
5.74995
 30
0.0
 11
53.599998
 21
5.99995
 31
0.0
  0
LINE
  5
815
330
1F
100
AcDbEntity
  8
1
  6
CONTINUOUS
370
50
 62
4
100
AcDbLine
 10
77.105301
 20
2.03016
 30
0.0
 11
76.77255199999999
 21
2.237915
 31
0.0
  0
LINE
  5
816
330
1F
100
AcDbEntity
  8
1
  6
CONTINUOUS
370
50
 62
4
100
AcDbLine
 10
67.134727
 20
2.049147
 30
0.0
 11
66.756485
 21
2.284693
 31
0.0
  0
LINE
  5
817
330
1F
100
AcDbEntity
  8
1
  6
CONTINUOUS
370
50
 62
4
100
AcDbLine
 10
66.0
 20
4.481009999999999
 30
0.0
 11
65.77239999999999
 21
4.622320999999999
 31
0.0
  0
LINE
  5
818
330
1F
100
AcDbEntity
  8
1
  6
CONTINUOUS
370
50
 62
4
100
AcDbLine
 10
65.144829
 20
5.017001
 30
0.0
 11
64.95135499999999
 21
5.136655999999999
 31
0.0
  0
LINE
  5
819
330
1F
100
AcDbEntity
  8
1
  6
CONTINUOUS
370
50
 62
4
100
AcDbLine
 10
75.741158
 20
-4.657719
 30
0.0
 11
75.45790099999999
 21
-4.483340999999999
 31
0.0
  0
LINE
  5
81A
330
1F
100
AcDbEntity
  8
1
  6
CONTINUOUS
370
50
 62
4
100
AcDbLine
 10
66.925156
 20
-4.709536
 30
0.0
 11
66.455933
 21
-4.421251
 31
0.0
  0
LINE
  5
81B
330
1F
100
AcDbEntity
  8
1
  6
CONTINUOUS
370
50
 62
4
100
AcDbLine
 10
84.70425399999999
 20
4.448723
 30
0.0
 11
84.241699
 21
4.732365
 31
0.0
  0
LINE
  5
81C
330
1F
100
AcDbEntity
  8
1
  6
CONTINUOUS
370
50
 62
4
100
AcDbLine
 10
66.756485
 20
2.284693
 30
0.0
 11
66.378242
 21
2.513891
 31
0.0
  0
LINE
  5
81D
330
1F
100
AcDbEntity
  8
1
  6
CONTINUOUS
370
50
 62
4
100
AcDbLine
 10
86.59709199999999
 20
2.305617
 30
0.0
 11
86.256622
 21
2.511703
 31
0.0
  0
LINE
  5
81E
330
1F
100
AcDbEntity
  8
1
  6
CONTINUOUS
370
50
 62
4
100
AcDbLine
 10
76.828735
 20
-4.687874
 30
0.0
 11
76.495811
 21
-4.486453
 31
0.0
  0
LINE
  5
81F
330
1F
100
AcDbEntity
  8
1
  6
CONTINUOUS
370
50
 62
4
100
AcDbLine
 10
76.77255199999999
 20
2.237915
 30
0.0
 11
76.439804
 21
2.439082
 31
0.0
  0
LINE
  5
820
330
1F
100
AcDbEntity
  8
1
  6
CONTINUOUS
370
50
 62
4
100
AcDbLine
 10
64.95135499999999
 20
5.136655999999999
 30
0.0
 11
64.764389
 21
5.249282
 31
0.0
  0
LINE
  5
821
330
1F
100
AcDbEntity
  8
1
  6
CONTINUOUS
370
50
 62
4
100
AcDbLine
 10
85.649254
 20
4.505599
 30
0.0
 11
85.28904
 21
4.721679
 31
0.0
  0
LINE
  5
822
330
1F
100
AcDbEntity
  8
1
  6
CONTINUOUS
370
50
 62
4
100
AcDbLine
 10
74.59118699999999
 20
4.569357
 30
0.0
 11
74.292076
 21
4.748466
 31
0.0
  0
LINE
  5
823
330
1F
100
AcDbEntity
  8
1
  6
CONTINUOUS
370
50
 62
4
100
AcDbLine
 10
75.653419
 20
4.54063
 30
0.0
 11
75.199654
 21
4.811719
 31
0.0
  0
LINE
  5
824
330
1F
100
AcDbEntity
  8
1
  6
CONTINUOUS
370
50
 62
4
100
AcDbLine
 10
62.598568
 20
-5.519464999999999
 30
0.0
 11
62.44633899999999
 21
-5.428611999999999
 31
0.0
  0
LINE
  5
825
330
1F
100
AcDbEntity
  8
1
  6
CONTINUOUS
370
50
 62
4
100
AcDbLine
 10
64.794136
 20
5.231687
 30
0.0
 11
64.77926599999999
 21
5.240482999999999
 31
0.0
  0
LINE
  5
826
330
1F
100
AcDbEntity
  8
1
  6
CONTINUOUS
370
50
 62
4
100
AcDbLine
 10
64.77926599999999
 20
5.240482999999999
 30
0.0
 11
64.764389
 21
5.249282
 31
0.0
  0
LINE
  5
827
330
1F
100
AcDbEntity
  8
1
  6
CONTINUOUS
370
50
 62
4
100
AcDbLine
 10
85.860863
 20
-4.762528
 30
0.0
 11
85.519363
 21
-4.560649
 31
0.0
  0
LINE
  5
828
330
1F
100
AcDbEntity
  8
1
  6
CONTINUOUS
370
50
 62
4
100
AcDbLine
 10
64.809013
 20
5.222894
 30
0.0
 11
64.794136
 21
5.231687
 31
0.0
  0
LINE
  5
829
330
1F
100
AcDbEntity
  8
1
  6
CONTINUOUS
370
50
 62
4
100
AcDbLine
 10
66.378242
 20
2.513891
 30
0.0
 11
66.0
 21
2.736693
 31
0.0
  0
LINE
  5
82A
330
1F
100
AcDbEntity
  8
1
  6
CONTINUOUS
370
50
 62
4
100
AcDbLine
 10
76.439804
 20
2.439082
 30
0.0
 11
76.10704799999999
 21
2.6338
 31
0.0
  0
LINE
  5
82B
330
1F
100
AcDbEntity
  8
1
  6
CONTINUOUS
370
50
 62
4
100
AcDbLine
 10
65.03575099999999
 20
5.090271
 30
0.0
 11
64.809013
 21
5.222894
 31
0.0
  0
LINE
  5
82C
330
1F
100
AcDbEntity
  8
1
  6
CONTINUOUS
370
50
 62
4
100
AcDbLine
 10
65.517242
 20
4.809864999999999
 30
0.0
 11
65.03575099999999
 21
5.090271
 31
0.0
  0
LINE
  5
82D
330
1F
100
AcDbEntity
  8
1
  6
CONTINUOUS
370
50
 62
4
100
AcDbLine
 10
87.15426599999999
 20
-4.915543
 30
0.0
 11
86.699944
 21
-4.651486
 31
0.0
  0
LINE
  5
82E
330
1F
100
AcDbEntity
  8
1
  6
CONTINUOUS
370
50
 62
4
100
AcDbLine
 10
86.256622
 20
2.511703
 30
0.0
 11
85.916153
 21
2.708998
 31
0.0
  0
LINE
  5
82F
330
1F
100
AcDbEntity
  8
1
  6
CONTINUOUS
370
50
 62
4
100
AcDbLine
 10
76.026207
 20
-4.822608
 30
0.0
 11
75.741158
 21
-4.657719
 31
0.0
  0
LINE
  5
830
330
1F
100
AcDbEntity
  8
1
  6
CONTINUOUS
370
50
 62
4
100
AcDbLine
 10
66.0
 20
4.531488
 30
0.0
 11
65.517242
 21
4.809864999999999
 31
0.0
  0
LINE
  5
831
330
1F
100
AcDbEntity
  8
1
  6
CONTINUOUS
370
50
 62
4
100
AcDbLine
 10
64.764389
 20
5.249282
 30
0.0
 11
64.49337799999999
 21
5.403372999999999
 31
0.0
  0
LINE
  5
832
330
1F
100
AcDbEntity
  8
1
  6
CONTINUOUS
370
50
 62
4
100
AcDbLine
 10
77.160912
 20
-4.87674
 30
0.0
 11
76.828735
 21
-4.687874
 31
0.0
  0
LINE
  5
833
330
1F
100
AcDbEntity
  8
1
  6
CONTINUOUS
370
50
 62
4
100
AcDbLine
 10
76.10704799999999
 20
2.6338
 30
0.0
 11
75.774292
 21
2.82202
 31
0.0
  0
LINE
  5
834
330
1F
100
AcDbEntity
  8
1
  6
CONTINUOUS
370
50
 62
4
100
AcDbLine
 10
84.241699
 20
4.732365
 30
0.0
 11
83.78536199999999
 21
4.9898
 31
0.0
  0
LINE
  5
835
330
1F
100
AcDbEntity
  8
1
  6
CONTINUOUS
370
50
 62
4
100
AcDbLine
 10
66.35968
 20
-4.968351999999999
 30
0.0
 11
66.0
 21
-4.76599
 31
0.0
  0
LINE
  5
836
330
1F
100
AcDbEntity
  8
1
  6
CONTINUOUS
370
50
 62
4
100
AcDbLine
 10
74.292076
 20
4.748466
 30
0.0
 11
73.991699
 21
4.916506
 31
0.0
  0
LINE
  5
837
330
1F
100
AcDbEntity
  8
1
  6
CONTINUOUS
370
50
 62
4
100
AcDbLine
 10
85.28904
 20
4.721679
 30
0.0
 11
84.92974099999999
 21
4.922664
 31
0.0
  0
LINE
  5
838
330
1F
100
AcDbEntity
  8
1
  6
CONTINUOUS
370
50
 62
4
100
AcDbLine
 10
67.403748
 20
-4.974896
 30
0.0
 11
66.925156
 21
-4.709536
 31
0.0
  0
LINE
  5
839
330
1F
100
AcDbEntity
  8
1
  6
CONTINUOUS
370
50
 62
4
100
AcDbLine
 10
85.916153
 20
2.708998
 30
0.0
 11
85.575684
 21
2.897758
 31
0.0
  0
LINE
  5
83A
330
1F
100
AcDbEntity
  8
1
  6
CONTINUOUS
370
50
 62
4
100
AcDbLine
 10
86.20182799999999
 20
-4.951178
 30
0.0
 11
85.860863
 21
-4.762528
 31
0.0
  0
LINE
  5
83B
330
1F
100
AcDbEntity
  8
1
  6
CONTINUOUS
370
50
 62
4
100
AcDbLine
 10
75.199654
 20
4.811719
 30
0.0
 11
74.74844399999999
 21
5.058333
 31
0.0
  0
LINE
  5
83C
330
1F
100
AcDbEntity
  8
1
  6
CONTINUOUS
370
50
 62
4
100
AcDbLine
 10
75.774292
 20
2.82202
 30
0.0
 11
75.441544
 21
3.003669
 31
0.0
  0
LINE
  5
83D
330
1F
100
AcDbEntity
  8
1
  6
CONTINUOUS
370
50
 62
4
100
AcDbLine
 10
76.31179
 20
-4.977494
 30
0.0
 11
76.026207
 21
-4.822608
 31
0.0
  0
LINE
  5
83E
330
1F
100
AcDbEntity
  8
1
  6
CONTINUOUS
370
50
 62
4
100
AcDbLine
 10
77.49144
 20
-5.052601999999999
 30
0.0
 11
77.160912
 21
-4.87674
 31
0.0
  0
LINE
  5
83F
330
1F
100
AcDbEntity
  8
1
  6
CONTINUOUS
370
50
 62
4
100
AcDbLine
 10
85.575684
 20
2.897758
 30
0.0
 11
85.235214
 21
3.078209
 31
0.0
  0
LINE
  5
840
330
1F
100
AcDbEntity
  8
1
  6
CONTINUOUS
370
50
 62
4
100
AcDbLine
 10
66.11642499999999
 20
0.285169
 30
0.0
 11
66.0
 21
0.346553
 31
0.0
  0
LINE
  5
841
330
1F
100
AcDbEntity
  8
1
  6
CONTINUOUS
370
50
 62
4
100
AcDbLine
 10
87.02660399999999
 20
-0.257587
 30
0.0
 11
86.57236499999999
 21
-0.018587
 31
0.0
  0
LINE
  5
842
330
1F
100
AcDbEntity
  8
1
  6
CONTINUOUS
370
50
 62
4
100
AcDbLine
 10
75.441544
 20
3.003669
 30
0.0
 11
75.10878799999999
 21
3.17867
 31
0.0
  0
LINE
  5
843
330
1F
100
AcDbEntity
  8
1
  6
CONTINUOUS
370
50
 62
4
100
AcDbLine
 10
66.232841
 20
0.223969
 30
0.0
 11
66.11642499999999
 21
0.285169
 31
0.0
  0
LINE
  5
844
330
1F
100
AcDbEntity
  8
1
  6
CONTINUOUS
370
50
 62
4
100
AcDbLine
 10
87.023895
 20
-0.255725
 30
0.0
 11
86.572357
 21
-0.018532
 31
0.0
  0
LINE
  5
845
330
1F
100
AcDbEntity
  8
1
  6
CONTINUOUS
370
50
 62
4
100
AcDbLine
 10
66.34925799999999
 20
0.162949
 30
0.0
 11
66.232841
 21
0.223969
 31
0.0
  0
LINE
  5
846
330
1F
100
AcDbEntity
  8
1
  6
CONTINUOUS
370
50
 62
4
100
AcDbLine
 10
66.46567499999999
 20
0.102105
 30
0.0
 11
66.34925799999999
 21
0.162949
 31
0.0
  0
LINE
  5
847
330
1F
100
AcDbEntity
  8
1
  6
CONTINUOUS
370
50
 62
4
100
AcDbLine
 10
87.480789
 20
-0.494778
 30
0.0
 11
87.02660399999999
 21
-0.257587
 31
0.0
  0
LINE
  5
848
330
1F
100
AcDbEntity
  8
1
  6
CONTINUOUS
370
50
 62
4
100
AcDbLine
 10
87.476715
 20
-0.49188
 30
0.0
 11
87.023895
 21
-0.255725
 31
0.0
  0
LINE
  5
849
330
1F
100
AcDbEntity
  8
1
  6
CONTINUOUS
370
50
 62
4
100
AcDbLine
 10
66.58208499999999
 20
0.041433
 30
0.0
 11
66.46567499999999
 21
0.102105
 31
0.0
  0
LINE
  5
84A
330
1F
100
AcDbEntity
  8
1
  6
CONTINUOUS
370
50
 62
4
100
AcDbLine
 10
73.991699
 20
4.916506
 30
0.0
 11
73.690643
 21
5.073267
 31
0.0
  0
LINE
  5
84B
330
1F
100
AcDbEntity
  8
1
  6
CONTINUOUS
370
50
 62
4
100
AcDbLine
 10
66.698494
 20
-0.01907
 30
0.0
 11
66.58208499999999
 21
0.041433
 31
0.0
  0
LINE
  5
84C
330
1F
100
AcDbEntity
  8
1
  6
CONTINUOUS
370
50
 62
4
100
AcDbLine
 10
87.613464
 20
-5.153942
 30
0.0
 11
87.15426599999999
 21
-4.915543
 31
0.0
  0
LINE
  5
84D
330
1F
100
AcDbEntity
  8
1
  6
CONTINUOUS
370
50
 62
4
100
AcDbLine
 10
84.92974099999999
 20
4.922664
 30
0.0
 11
84.57150999999999
 21
5.108549
 31
0.0
  0
LINE
  5
84E
330
1F
100
AcDbEntity
  8
1
  6
CONTINUOUS
370
50
 62
4
100
AcDbLine
 10
86.57236499999999
 20
-0.018587
 30
0.0
 11
85.724701
 21
0.419198
 31
0.0
  0
LINE
  5
84F
330
1F
100
AcDbEntity
  8
1
  6
CONTINUOUS
370
50
 62
4
100
AcDbLine
 10
77.454208
 20
-0.439861
 30
0.0
 11
76.63690199999999
 21
-0.018784
 31
0.0
  0
LINE
  5
850
330
1F
100
AcDbEntity
  8
1
  6
CONTINUOUS
370
50
 62
4
100
AcDbLine
 10
78.27145399999999
 20
-0.860902
 30
0.0
 11
77.454208
 21
-0.439861
 31
0.0
  0
LINE
  5
851
330
1F
100
AcDbEntity
  8
1
  6
CONTINUOUS
370
50
 62
4
100
AcDbLine
 10
86.541817
 20
-5.126272999999999
 30
0.0
 11
86.20182799999999
 21
-4.951178
 31
0.0
  0
LINE
  5
852
330
1F
100
AcDbEntity
  8
1
  6
CONTINUOUS
370
50
 62
4
100
AcDbLine
 10
78.24909199999999
 20
-0.848116
 30
0.0
 11
77.449646
 21
-0.436555
 31
0.0
  0
LINE
  5
853
330
1F
100
AcDbEntity
  8
1
  6
CONTINUOUS
370
50
 62
4
100
AcDbLine
 10
67.515564
 20
-0.4393
 30
0.0
 11
66.698494
 21
-0.01907
 31
0.0
  0
LINE
  5
854
330
1F
100
AcDbEntity
  8
1
  6
CONTINUOUS
370
50
 62
4
100
AcDbLine
 10
77.449646
 20
-0.436555
 30
0.0
 11
76.637001
 21
-0.018649
 31
0.0
  0
LINE
  5
855
330
1F
100
AcDbEntity
  8
1
  6
CONTINUOUS
370
50
 62
4
100
AcDbLine
 10
76.63690199999999
 20
-0.018784
 30
0.0
 11
75.789513
 21
0.416789
 31
0.0
  0
LINE
  5
856
330
1F
100
AcDbEntity
  8
1
  6
CONTINUOUS
370
50
 62
4
100
AcDbLine
 10
75.789513
 20
0.416789
 30
0.0
 11
74.942123
 21
0.8522219999999999
 31
0.0
  0
LINE
  5
857
330
1F
100
AcDbEntity
  8
1
  6
CONTINUOUS
370
50
 62
4
100
AcDbLine
 10
67.508881
 20
-0.434928
 30
0.0
 11
66.698448
 21
-0.018929
 31
0.0
  0
LINE
  5
858
330
1F
100
AcDbEntity
  8
1
  6
CONTINUOUS
370
50
 62
4
100
AcDbLine
 10
87.886292
 20
-0.144521
 30
0.0
 11
87.65464
 21
-0.02571
 31
0.0
  0
LINE
  5
859
330
1F
100
AcDbEntity
  8
1
  6
CONTINUOUS
370
50
 62
4
100
AcDbLine
 10
62.74715399999999
 20
-5.595389
 30
0.0
 11
62.598568
 21
-5.519464999999999
 31
0.0
  0
LINE
  5
85A
330
1F
100
AcDbEntity
  8
1
  6
CONTINUOUS
370
50
 62
4
100
AcDbLine
 10
87.934967
 20
-0.7263419999999999
 30
0.0
 11
87.480789
 21
-0.494778
 31
0.0
  0
LINE
  5
85B
330
1F
100
AcDbEntity
  8
1
  6
CONTINUOUS
370
50
 62
4
100
AcDbLine
 10
87.932777
 20
-0.724012
 30
0.0
 11
87.476715
 21
-0.49188
 31
0.0
  0
LINE
  5
85C
330
1F
100
AcDbEntity
  8
1
  6
CONTINUOUS
370
50
 62
4
100
AcDbLine
 10
76.597427
 20
-5.122217
 30
0.0
 11
76.31179
 21
-4.977494
 31
0.0
  0
LINE
  5
85D
330
1F
100
AcDbEntity
  8
1
  6
CONTINUOUS
370
50
 62
4
100
AcDbLine
 10
64.49337799999999
 20
5.403372999999999
 30
0.0
 11
64.239471
 21
5.531855999999999
 31
0.0
  0
LINE
  5
85E
330
1F
100
AcDbEntity
  8
1
  6
CONTINUOUS
370
50
 62
4
100
AcDbLine
 10
68.332741
 20
-0.8525079999999999
 30
0.0
 11
67.515564
 21
-0.4393
 31
0.0
  0
LINE
  5
85F
330
1F
100
AcDbEntity
  8
1
  6
CONTINUOUS
370
50
 62
4
100
AcDbLine
 10
85.235214
 20
3.078209
 30
0.0
 11
84.89473699999999
 21
3.250343
 31
0.0
  0
LINE
  5
860
330
1F
100
AcDbEntity
  8
1
  6
CONTINUOUS
370
50
 62
4
100
AcDbLine
 10
66.797829
 20
-5.18975
 30
0.0
 11
66.35968
 21
-4.968351999999999
 31
0.0
  0
LINE
  5
861
330
1F
100
AcDbEntity
  8
1
  6
CONTINUOUS
370
50
 62
4
100
AcDbLine
 10
88.11775999999999
 20
-0.261474
 30
0.0
 11
87.886292
 21
-0.144521
 31
0.0
  0
LINE
  5
862
330
1F
100
AcDbEntity
  8
1
  6
CONTINUOUS
370
50
 62
4
100
AcDbLine
 10
85.724701
 20
0.419198
 30
0.0
 11
84.877136
 21
0.847166
 31
0.0
  0
LINE
  5
863
330
1F
100
AcDbEntity
  8
1
  6
CONTINUOUS
370
50
 62
4
100
AcDbLine
 10
68.31635299999999
 20
-0.8424699999999999
 30
0.0
 11
67.508881
 21
-0.434928
 31
0.0
  0
LINE
  5
864
330
1F
100
AcDbEntity
  8
1
  6
CONTINUOUS
370
50
 62
4
100
AcDbLine
 10
75.10878799999999
 20
3.17867
 30
0.0
 11
74.776039
 21
3.34587
 31
0.0
  0
LINE
  5
865
330
1F
100
AcDbEntity
  8
1
  6
CONTINUOUS
370
50
 62
4
100
AcDbLine
 10
83.78536199999999
 20
4.9898
 30
0.0
 11
83.322746
 21
5.221280999999999
 31
0.0
  0
LINE
  5
866
330
1F
100
AcDbEntity
  8
1
  6
CONTINUOUS
370
50
 62
4
100
AcDbLine
 10
88.38915999999999
 20
-0.952571
 30
0.0
 11
87.934967
 21
-0.7263419999999999
 31
0.0
  0
LINE
  5
867
330
1F
100
AcDbEntity
  8
1
  6
CONTINUOUS
370
50
 62
4
100
AcDbLine
 10
88.34919699999999
 20
-0.376708
 30
0.0
 11
88.11775999999999
 21
-0.261474
 31
0.0
  0
LINE
  5
868
330
1F
100
AcDbEntity
  8
1
  6
CONTINUOUS
370
50
 62
4
100
AcDbLine
 10
88.389763
 20
-0.951135
 30
0.0
 11
87.932777
 21
-0.724012
 31
0.0
  0
LINE
  5
869
330
1F
100
AcDbEntity
  8
1
  6
CONTINUOUS
370
50
 62
4
100
AcDbLine
 10
69.149902
 20
-1.258336
 30
0.0
 11
68.332741
 21
-0.8525079999999999
 31
0.0
  0
LINE
  5
86A
330
1F
100
AcDbEntity
  8
1
  6
CONTINUOUS
370
50
 62
4
100
AcDbLine
 10
69.11554
 20
-1.239327
 30
0.0
 11
68.31635299999999
 21
-0.8424699999999999
 31
0.0
  0
LINE
  5
86B
330
1F
100
AcDbEntity
  8
1
  6
CONTINUOUS
370
50
 62
4
100
AcDbLine
 10
77.81676499999999
 20
-5.214039
 30
0.0
 11
77.49144
 21
-5.052601999999999
 31
0.0
  0
LINE
  5
86C
330
1F
100
AcDbEntity
  8
1
  6
CONTINUOUS
370
50
 62
4
100
AcDbLine
 10
67.883438
 20
-5.212486
 30
0.0
 11
67.403748
 21
-4.974896
 31
0.0
  0
LINE
  5
86D
330
1F
100
AcDbEntity
  8
1
  6
CONTINUOUS
370
50
 62
4
100
AcDbLine
 10
84.877136
 20
0.847166
 30
0.0
 11
84.029602
 21
1.266293
 31
0.0
  0
LINE
  5
86E
330
1F
100
AcDbEntity
  8
1
  6
CONTINUOUS
370
50
 62
4
100
AcDbLine
 10
74.942123
 20
0.8522219999999999
 30
0.0
 11
74.094612
 21
1.270749
 31
0.0
  0
LINE
  5
86F
330
1F
100
AcDbEntity
  8
1
  6
CONTINUOUS
370
50
 62
4
100
AcDbLine
 10
79.06114199999999
 20
-1.247136
 30
0.0
 11
78.24909199999999
 21
-0.848116
 31
0.0
  0
LINE
  5
870
330
1F
100
AcDbEntity
  8
1
  6
CONTINUOUS
370
50
 62
4
100
AcDbLine
 10
79.08861499999999
 20
-1.262385
 30
0.0
 11
78.27145399999999
 21
-0.860902
 31
0.0
  0
LINE
  5
871
330
1F
100
AcDbEntity
  8
1
  6
CONTINUOUS
370
50
 62
4
100
AcDbLine
 10
88.58202399999999
 20
-0.490978
 30
0.0
 11
88.34919699999999
 21
-0.376708
 31
0.0
  0
LINE
  5
872
330
1F
100
AcDbEntity
  8
1
  6
CONTINUOUS
370
50
 62
4
100
AcDbLine
 10
88.84339899999999
 20
-1.173725
 30
0.0
 11
88.38915999999999
 21
-0.952571
 31
0.0
  0
LINE
  5
873
330
1F
100
AcDbEntity
  8
1
  6
CONTINUOUS
370
50
 62
4
100
AcDbLine
 10
88.845863
 20
-1.172558
 30
0.0
 11
88.389763
 21
-0.951135
 31
0.0
  0
LINE
  5
874
330
1F
100
AcDbEntity
  8
1
  6
CONTINUOUS
370
50
 62
4
100
AcDbLine
 10
74.74844399999999
 20
5.058333
 30
0.0
 11
74.29214499999999
 21
5.279323
 31
0.0
  0
LINE
  5
875
330
1F
100
AcDbEntity
  8
1
  6
CONTINUOUS
370
50
 62
4
100
AcDbLine
 10
88.81613899999999
 20
-0.604259
 30
0.0
 11
88.58202399999999
 21
-0.490978
 31
0.0
  0
LINE
  5
876
330
1F
100
AcDbEntity
  8
1
  6
CONTINUOUS
370
50
 62
4
100
AcDbLine
 10
73.690643
 20
5.073267
 30
0.0
 11
73.389526
 21
5.218542999999999
 31
0.0
  0
LINE
  5
877
330
1F
100
AcDbEntity
  8
1
  6
CONTINUOUS
370
50
 62
4
100
AcDbLine
 10
84.89473699999999
 20
3.250343
 30
0.0
 11
84.554268
 21
3.414039
 31
0.0
  0
LINE
  5
878
330
1F
100
AcDbEntity
  8
1
  6
CONTINUOUS
370
50
 62
4
100
AcDbLine
 10
84.57150999999999
 20
5.108549
 30
0.0
 11
84.214897
 21
5.278923
 31
0.0
  0
LINE
  5
879
330
1F
100
AcDbEntity
  8
1
  6
CONTINUOUS
370
50
 62
4
100
AcDbLine
 10
89.051285
 20
-0.716434
 30
0.0
 11
88.81613899999999
 21
-0.604259
 31
0.0
  0
LINE
  5
87A
330
1F
100
AcDbEntity
  8
1
  6
CONTINUOUS
370
50
 62
4
100
AcDbLine
 10
86.880051
 20
-5.287247
 30
0.0
 11
86.541817
 21
-5.126272999999999
 31
0.0
  0
LINE
  5
87B
330
1F
100
AcDbEntity
  8
1
  6
CONTINUOUS
370
50
 62
4
100
AcDbLine
 10
89.29766099999999
 20
-1.389684
 30
0.0
 11
88.84339899999999
 21
-1.173725
 31
0.0
  0
LINE
  5
87C
330
1F
100
AcDbEntity
  8
1
  6
CONTINUOUS
370
50
 62
4
100
AcDbLine
 10
89.29982
 20
-1.387862
 30
0.0
 11
88.845863
 21
-1.172558
 31
0.0
  0
LINE
  5
87D
330
1F
100
AcDbEntity
  8
1
  6
CONTINUOUS
370
50
 62
4
100
AcDbLine
 10
76.883072
 20
-5.256822
 30
0.0
 11
76.597427
 21
-5.122217
 31
0.0
  0
LINE
  5
87E
330
1F
100
AcDbEntity
  8
1
  6
CONTINUOUS
370
50
 62
4
100
AcDbLine
 10
89.28718599999999
 20
-0.8273459999999999
 30
0.0
 11
89.051285
 21
-0.716434
 31
0.0
  0
LINE
  5
87F
330
1F
100
AcDbEntity
  8
1
  6
CONTINUOUS
370
50
 62
4
100
AcDbLine
 10
74.776039
 20
3.34587
 30
0.0
 11
74.443291
 21
3.501919
 31
0.0
  0
LINE
  5
880
330
1F
100
AcDbEntity
  8
1
  6
CONTINUOUS
370
50
 62
4
100
AcDbLine
 10
84.029602
 20
1.266293
 30
0.0
 11
83.181946
 21
1.663204
 31
0.0
  0
LINE
  5
881
330
1F
100
AcDbEntity
  8
1
  6
CONTINUOUS
370
50
 62
4
100
AcDbLine
 10
69.934799
 20
-1.622818
 30
0.0
 11
69.11554
 21
-1.239327
 31
0.0
  0
LINE
  5
882
330
1F
100
AcDbEntity
  8
1
  6
CONTINUOUS
370
50
 62
4
100
AcDbLine
 10
69.966949
 20
-1.640015
 30
0.0
 11
69.149902
 21
-1.258336
 31
0.0
  0
LINE
  5
883
330
1F
100
AcDbEntity
  8
1
  6
CONTINUOUS
370
50
 62
4
100
AcDbLine
 10
76.63694
 20
-0.01877
 30
0.0
 11
76.63692499999999
 21
-0.018763
 31
0.0
  0
LINE
  5
884
330
1F
100
AcDbEntity
  8
1
  6
CONTINUOUS
370
50
 62
4
100
AcDbLine
 10
75.090233
 20
4.912668
 30
0.0
 11
74.976242
 21
4.965845
 31
0.0
  0
LINE
  5
885
330
1F
100
AcDbEntity
  8
1
  6
CONTINUOUS
370
50
 62
4
100
AcDbLine
 10
74.976242
 20
4.965845
 30
0.0
 11
74.86224399999999
 21
5.018864
 31
0.0
  0
LINE
  5
886
330
1F
100
AcDbEntity
  8
1
  6
CONTINUOUS
370
50
 62
4
100
AcDbLine
 10
66.11634099999999
 20
4.474402
 30
0.0
 11
66.0
 21
4.52851
 31
0.0
  0
LINE
  5
887
330
1F
100
AcDbEntity
  8
1
  6
CONTINUOUS
370
50
 62
4
100
AcDbLine
 10
75.204224
 20
4.859671
 30
0.0
 11
75.090233
 21
4.912668
 31
0.0
  0
LINE
  5
888
330
1F
100
AcDbEntity
  8
1
  6
CONTINUOUS
370
50
 62
4
100
AcDbLine
 10
75.339699
 20
4.796937
 30
0.0
 11
75.204224
 21
4.859671
 31
0.0
  0
LINE
  5
889
330
1F
100
AcDbEntity
  8
1
  6
CONTINUOUS
370
50
 62
4
100
AcDbLine
 10
74.86224399999999
 20
5.018864
 30
0.0
 11
74.74825299999999
 21
5.071568
 31
0.0
  0
LINE
  5
88A
330
1F
100
AcDbEntity
  8
1
  6
CONTINUOUS
370
50
 62
4
100
AcDbLine
 10
66.232689
 20
4.420646
 30
0.0
 11
66.11634099999999
 21
4.474402
 31
0.0
  0
LINE
  5
88B
330
1F
100
AcDbEntity
  8
1
  6
CONTINUOUS
370
50
 62
4
100
AcDbLine
 10
79.905846
 20
-1.639642
 30
0.0
 11
79.08861499999999
 21
-1.262385
 31
0.0
  0
LINE
  5
88C
330
1F
100
AcDbEntity
  8
1
  6
CONTINUOUS
370
50
 62
4
100
AcDbLine
 10
75.43781299999999
 20
4.751669
 30
0.0
 11
75.339699
 21
4.796937
 31
0.0
  0
LINE
  5
88D
330
1F
100
AcDbEntity
  8
1
  6
CONTINUOUS
370
50
 62
4
100
AcDbLine
 10
79.87900499999999
 20
-1.624325
 30
0.0
 11
79.06114199999999
 21
-1.247136
 31
0.0
  0
LINE
  5
88E
330
1F
100
AcDbEntity
  8
1
  6
CONTINUOUS
370
50
 62
4
100
AcDbLine
 10
74.094612
 20
1.270749
 30
0.0
 11
73.247147
 21
1.660601
 31
0.0
  0
LINE
  5
88F
330
1F
100
AcDbEntity
  8
1
  6
CONTINUOUS
370
50
 62
4
100
AcDbLine
 10
75.535934
 20
4.706545
 30
0.0
 11
75.43781299999999
 21
4.751669
 31
0.0
  0
LINE
  5
890
330
1F
100
AcDbEntity
  8
1
  6
CONTINUOUS
370
50
 62
4
100
AcDbLine
 10
74.74825299999999
 20
5.071568
 30
0.0
 11
74.634224
 21
5.123971
 31
0.0
  0
LINE
  5
891
330
1F
100
AcDbEntity
  8
1
  6
CONTINUOUS
370
50
 62
4
100
AcDbLine
 10
66.349045
 20
4.367232
 30
0.0
 11
66.232689
 21
4.420646
 31
0.0
  0
LINE
  5
892
330
1F
100
AcDbEntity
  8
1
  6
CONTINUOUS
370
50
 62
4
100
AcDbLine
 10
75.63404799999999
 20
4.661562
 30
0.0
 11
75.535934
 21
4.706545
 31
0.0
  0
LINE
  5
893
330
1F
100
AcDbEntity
  8
1
  6
CONTINUOUS
370
50
 62
4
100
AcDbLine
 10
75.73217
 20
4.616722
 30
0.0
 11
75.63404799999999
 21
4.661562
 31
0.0
  0
LINE
  5
894
330
1F
100
AcDbEntity
  8
1
  6
CONTINUOUS
370
50
 62
4
100
AcDbLine
 10
74.634224
 20
5.123971
 30
0.0
 11
74.520203
 21
5.176064999999999
 31
0.0
  0
LINE
  5
895
330
1F
100
AcDbEntity
  8
1
  6
CONTINUOUS
370
50
 62
4
100
AcDbLine
 10
84.311745
 20
5.234699
 30
0.0
 11
84.21483599999999
 21
5.278949
 31
0.0
  0
LINE
  5
896
330
1F
100
AcDbEntity
  8
1
  6
CONTINUOUS
370
50
 62
4
100
AcDbLine
 10
84.40864599999999
 20
5.190481999999999
 30
0.0
 11
84.311745
 21
5.234699
 31
0.0
  0
LINE
  5
897
330
1F
100
AcDbEntity
  8
1
  6
CONTINUOUS
370
50
 62
4
100
AcDbLine
 10
66.465408
 20
4.314168
 30
0.0
 11
66.349045
 21
4.367232
 31
0.0
  0
LINE
  5
898
330
1F
100
AcDbEntity
  8
1
  6
CONTINUOUS
370
50
 62
4
100
AcDbLine
 10
84.516792
 20
5.141176
 30
0.0
 11
84.40864599999999
 21
5.190481999999999
 31
0.0
  0
LINE
  5
899
330
1F
100
AcDbEntity
  8
1
  6
CONTINUOUS
370
50
 62
4
100
AcDbLine
 10
84.554268
 20
3.414039
 30
0.0
 11
84.213791
 21
3.569177
 31
0.0
  0
LINE
  5
89A
330
1F
100
AcDbEntity
  8
1
  6
CONTINUOUS
370
50
 62
4
100
AcDbLine
 10
75.830299
 20
4.572012
 30
0.0
 11
75.73217
 21
4.616722
 31
0.0
  0
LINE
  5
89B
330
1F
100
AcDbEntity
  8
1
  6
CONTINUOUS
370
50
 62
4
100
AcDbLine
 10
84.62493099999999
 20
5.091912
 30
0.0
 11
84.516792
 21
5.141176
 31
0.0
  0
LINE
  5
89C
330
1F
100
AcDbEntity
  8
1
  6
CONTINUOUS
370
50
 62
4
100
AcDbLine
 10
84.73307
 20
5.042689999999999
 30
0.0
 11
84.62493099999999
 21
5.091912
 31
0.0
  0
LINE
  5
89D
330
1F
100
AcDbEntity
  8
1
  6
CONTINUOUS
370
50
 62
4
100
AcDbLine
 10
78.139381
 20
-5.360847
 30
0.0
 11
77.81676499999999
 21
-5.214039
 31
0.0
  0
LINE
  5
89E
330
1F
100
AcDbEntity
  8
1
  6
CONTINUOUS
370
50
 62
4
100
AcDbLine
 10
84.84120899999999
 20
4.993509
 30
0.0
 11
84.73307
 21
5.042689999999999
 31
0.0
  0
LINE
  5
89F
330
1F
100
AcDbEntity
  8
1
  6
CONTINUOUS
370
50
 62
4
100
AcDbLine
 10
84.949364
 20
4.94436
 30
0.0
 11
84.84120899999999
 21
4.993509
 31
0.0
  0
LINE
  5
8A0
330
1F
100
AcDbEntity
  8
1
  6
CONTINUOUS
370
50
 62
4
100
AcDbLine
 10
75.92843599999999
 20
4.527439999999999
 30
0.0
 11
75.830299
 21
4.572012
 31
0.0
  0
LINE
  5
8A1
330
1F
100
AcDbEntity
  8
1
  6
CONTINUOUS
370
50
 62
4
100
AcDbLine
 10
74.520203
 20
5.176064999999999
 30
0.0
 11
74.406174
 21
5.227851999999999
 31
0.0
  0
LINE
  5
8A2
330
1F
100
AcDbEntity
  8
1
  6
CONTINUOUS
370
50
 62
4
100
AcDbLine
 10
85.057526
 20
4.89525
 30
0.0
 11
84.949364
 21
4.94436
 31
0.0
  0
LINE
  5
8A3
330
1F
100
AcDbEntity
  8
1
  6
CONTINUOUS
370
50
 62
4
100
AcDbLine
 10
85.16568
 20
4.846175
 30
0.0
 11
85.057526
 21
4.89525
 31
0.0
  0
LINE
  5
8A4
330
1F
100
AcDbEntity
  8
1
  6
CONTINUOUS
370
50
 62
4
100
AcDbLine
 10
88.076706
 20
-5.364088
 30
0.0
 11
87.613464
 21
-5.153942
 31
0.0
  0
LINE
  5
8A5
330
1F
100
AcDbEntity
  8
1
  6
CONTINUOUS
370
50
 62
4
100
AcDbLine
 10
85.273842
 20
4.797133
 30
0.0
 11
85.16568
 21
4.846175
 31
0.0
  0
LINE
  5
8A6
330
1F
100
AcDbEntity
  8
1
  6
CONTINUOUS
370
50
 62
4
100
AcDbLine
 10
85.329155
 20
4.772066
 30
0.0
 11
85.273842
 21
4.797133
 31
0.0
  0
LINE
  5
8A7
330
1F
100
AcDbEntity
  8
1
  6
CONTINUOUS
370
50
 62
4
100
AcDbLine
 10
66.579124
 20
4.262646
 30
0.0
 11
66.465408
 21
4.314168
 31
0.0
  0
LINE
  5
8A8
330
1F
100
AcDbEntity
  8
1
  6
CONTINUOUS
370
50
 62
4
100
AcDbLine
 10
85.444214
 20
4.719940999999999
 30
0.0
 11
85.329155
 21
4.772066
 31
0.0
  0
LINE
  5
8A9
330
1F
100
AcDbEntity
  8
1
  6
CONTINUOUS
370
50
 62
4
100
AcDbLine
 10
76.026573
 20
4.483004
 30
0.0
 11
75.92843599999999
 21
4.527439999999999
 31
0.0
  0
LINE
  5
8AA
330
1F
100
AcDbEntity
  8
1
  6
CONTINUOUS
370
50
 62
4
100
AcDbLine
 10
85.55928
 20
4.667844
 30
0.0
 11
85.444214
 21
4.719940999999999
 31
0.0
  0
LINE
  5
8AB
330
1F
100
AcDbEntity
  8
1
  6
CONTINUOUS
370
50
 62
4
100
AcDbLine
 10
85.674347
 20
4.615771
 30
0.0
 11
85.55928
 21
4.667844
 31
0.0
  0
LINE
  5
8AC
330
1F
100
AcDbEntity
  8
1
  6
CONTINUOUS
370
50
 62
4
100
AcDbLine
 10
85.789413
 20
4.563718
 30
0.0
 11
85.674347
 21
4.615771
 31
0.0
  0
LINE
  5
8AD
330
1F
100
AcDbEntity
  8
1
  6
CONTINUOUS
370
50
 62
4
100
AcDbLine
 10
86.962486
 20
4.033334
 30
0.0
 11
86.858604
 21
4.080315
 31
0.0
  0
LINE
  5
8AE
330
1F
100
AcDbEntity
  8
1
  6
CONTINUOUS
370
50
 62
4
100
AcDbLine
 10
85.90447999999999
 20
4.511679
 30
0.0
 11
85.789413
 21
4.563718
 31
0.0
  0
LINE
  5
8AF
330
1F
100
AcDbEntity
  8
1
  6
CONTINUOUS
370
50
 62
4
100
AcDbLine
 10
86.858604
 20
4.080315
 30
0.0
 11
86.754723
 21
4.127293
 31
0.0
  0
LINE
  5
8B0
330
1F
100
AcDbEntity
  8
1
  6
CONTINUOUS
370
50
 62
4
100
AcDbLine
 10
86.754723
 20
4.127293
 30
0.0
 11
86.650826
 21
4.174274
 31
0.0
  0
LINE
  5
8B1
330
1F
100
AcDbEntity
  8
1
  6
CONTINUOUS
370
50
 62
4
100
AcDbLine
 10
86.019554
 20
4.459651
 30
0.0
 11
85.90447999999999
 21
4.511679
 31
0.0
  0
LINE
  5
8B2
330
1F
100
AcDbEntity
  8
1
  6
CONTINUOUS
370
50
 62
4
100
AcDbLine
 10
86.650826
 20
4.174274
 30
0.0
 11
86.546921
 21
4.221251
 31
0.0
  0
LINE
  5
8B3
330
1F
100
AcDbEntity
  8
1
  6
CONTINUOUS
370
50
 62
4
100
AcDbLine
 10
86.134621
 20
4.407630999999999
 30
0.0
 11
86.019554
 21
4.459651
 31
0.0
  0
LINE
  5
8B4
330
1F
100
AcDbEntity
  8
1
  6
CONTINUOUS
370
50
 62
4
100
AcDbLine
 10
86.442993
 20
4.268232999999999
 30
0.0
 11
86.339073
 21
4.315212
 31
0.0
  0
LINE
  5
8B5
330
1F
100
AcDbEntity
  8
1
  6
CONTINUOUS
370
50
 62
4
100
AcDbLine
 10
86.546921
 20
4.221251
 30
0.0
 11
86.442993
 21
4.268232999999999
 31
0.0
  0
LINE
  5
8B6
330
1F
100
AcDbEntity
  8
1
  6
CONTINUOUS
370
50
 62
4
100
AcDbLine
 10
86.339073
 20
4.315212
 30
0.0
 11
86.249695
 21
4.355614
 31
0.0
  0
LINE
  5
8B7
330
1F
100
AcDbEntity
  8
1
  6
CONTINUOUS
370
50
 62
4
100
AcDbLine
 10
86.249695
 20
4.355614
 30
0.0
 11
86.134621
 21
4.407630999999999
 31
0.0
  0
LINE
  5
8B8
330
1F
100
AcDbEntity
  8
1
  6
CONTINUOUS
370
50
 62
4
100
AcDbLine
 10
74.406174
 20
5.227851999999999
 30
0.0
 11
74.29214499999999
 21
5.279336
 31
0.0
  0
LINE
  5
8B9
330
1F
100
AcDbEntity
  8
1
  6
CONTINUOUS
370
50
 62
4
100
AcDbLine
 10
87.06636
 20
3.986437
 30
0.0
 11
86.962486
 21
4.033334
 31
0.0
  0
LINE
  5
8BA
330
1F
100
AcDbEntity
  8
1
  6
CONTINUOUS
370
50
 62
4
100
AcDbLine
 10
76.12471
 20
4.4387
 30
0.0
 11
76.026573
 21
4.483004
 31
0.0
  0
LINE
  5
8BB
330
1F
100
AcDbEntity
  8
1
  6
CONTINUOUS
370
50
 62
4
100
AcDbLine
 10
66.692833
 20
4.211452
 30
0.0
 11
66.579124
 21
4.262646
 31
0.0
  0
LINE
  5
8BC
330
1F
100
AcDbEntity
  8
1
  6
CONTINUOUS
370
50
 62
4
100
AcDbLine
 10
76.263168
 20
4.376416
 30
0.0
 11
76.12471
 21
4.4387
 31
0.0
  0
LINE
  5
8BD
330
1F
100
AcDbEntity
  8
1
  6
CONTINUOUS
370
50
 62
4
100
AcDbLine
 10
76.40162699999999
 20
4.314384
 30
0.0
 11
76.263168
 21
4.376416
 31
0.0
  0
LINE
  5
8BE
330
1F
100
AcDbEntity
  8
1
  6
CONTINUOUS
370
50
 62
4
100
AcDbLine
 10
87.17023499999999
 20
3.939936
 30
0.0
 11
87.06636
 21
3.986437
 31
0.0
  0
LINE
  5
8BF
330
1F
100
AcDbEntity
  8
1
  6
CONTINUOUS
370
50
 62
4
100
AcDbLine
 10
66.806549
 20
4.160583
 30
0.0
 11
66.692833
 21
4.211452
 31
0.0
  0
LINE
  5
8C0
330
1F
100
AcDbEntity
  8
1
  6
CONTINUOUS
370
50
 62
4
100
AcDbLine
 10
76.48207099999999
 20
4.278455999999999
 30
0.0
 11
76.40162699999999
 21
4.314384
 31
0.0
  0
LINE
  5
8C1
330
1F
100
AcDbEntity
  8
1
  6
CONTINUOUS
370
50
 62
4
100
AcDbLine
 10
76.562523
 20
4.242607
 30
0.0
 11
76.48207099999999
 21
4.278455999999999
 31
0.0
  0
LINE
  5
8C2
330
1F
100
AcDbEntity
  8
1
  6
CONTINUOUS
370
50
 62
4
100
AcDbLine
 10
76.642967
 20
4.206839
 30
0.0
 11
76.562523
 21
4.242607
 31
0.0
  0
LINE
  5
8C3
330
1F
100
AcDbEntity
  8
1
  6
CONTINUOUS
370
50
 62
4
100
AcDbLine
 10
66.920265
 20
4.110036
 30
0.0
 11
66.806549
 21
4.160583
 31
0.0
  0
LINE
  5
8C4
330
1F
100
AcDbEntity
  8
1
  6
CONTINUOUS
370
50
 62
4
100
AcDbLine
 10
73.389526
 20
5.218542999999999
 30
0.0
 11
73.088943
 21
5.352123
 31
0.0
  0
LINE
  5
8C5
330
1F
100
AcDbEntity
  8
1
  6
CONTINUOUS
370
50
 62
4
100
AcDbLine
 10
76.72341899999999
 20
4.171146999999999
 30
0.0
 11
76.642967
 21
4.206839
 31
0.0
  0
LINE
  5
8C6
330
1F
100
AcDbEntity
  8
1
  6
CONTINUOUS
370
50
 62
4
100
AcDbLine
 10
87.278587
 20
3.891882
 30
0.0
 11
87.17023499999999
 21
3.939936
 31
0.0
  0
LINE
  5
8C7
330
1F
100
AcDbEntity
  8
1
  6
CONTINUOUS
370
50
 62
4
100
AcDbLine
 10
76.803871
 20
4.135532
 30
0.0
 11
76.72341899999999
 21
4.171146999999999
 31
0.0
  0
LINE
  5
8C8
330
1F
100
AcDbEntity
  8
1
  6
CONTINUOUS
370
50
 62
4
100
AcDbLine
 10
66.996323
 20
4.076404
 30
0.0
 11
66.920265
 21
4.110036
 31
0.0
  0
LINE
  5
8C9
330
1F
100
AcDbEntity
  8
1
  6
CONTINUOUS
370
50
 62
4
100
AcDbLine
 10
76.884323
 20
4.099991999999999
 30
0.0
 11
76.803871
 21
4.135532
 31
0.0
  0
LINE
  5
8CA
330
1F
100
AcDbEntity
  8
1
  6
CONTINUOUS
370
50
 62
4
100
AcDbLine
 10
76.964775
 20
4.064525
 30
0.0
 11
76.884323
 21
4.099991999999999
 31
0.0
  0
LINE
  5
8CB
330
1F
100
AcDbEntity
  8
1
  6
CONTINUOUS
370
50
 62
4
100
AcDbLine
 10
67.072388
 20
4.042911999999999
 30
0.0
 11
66.996323
 21
4.076404
 31
0.0
  0
LINE
  5
8CC
330
1F
100
AcDbEntity
  8
1
  6
CONTINUOUS
370
50
 62
4
100
AcDbLine
 10
77.045227
 20
4.029129999999999
 30
0.0
 11
76.964775
 21
4.064525
 31
0.0
  0
LINE
  5
8CD
330
1F
100
AcDbEntity
  8
1
  6
CONTINUOUS
370
50
 62
4
100
AcDbLine
 10
67.308578
 20
-5.414149
 30
0.0
 11
66.797829
 21
-5.18975
 31
0.0
  0
LINE
  5
8CE
330
1F
100
AcDbEntity
  8
1
  6
CONTINUOUS
370
50
 62
4
100
AcDbLine
 10
87.386932
 20
3.844284
 30
0.0
 11
87.278587
 21
3.891882
 31
0.0
  0
LINE
  5
8CF
330
1F
100
AcDbEntity
  8
1
  6
CONTINUOUS
370
50
 62
4
100
AcDbLine
 10
77.150391
 20
3.98297
 30
0.0
 11
77.045227
 21
4.029129999999999
 31
0.0
  0
LINE
  5
8D0
330
1F
100
AcDbEntity
  8
1
  6
CONTINUOUS
370
50
 62
4
100
AcDbLine
 10
67.148445
 20
4.00956
 30
0.0
 11
67.072388
 21
4.042911999999999
 31
0.0
  0
LINE
  5
8D1
330
1F
100
AcDbEntity
  8
1
  6
CONTINUOUS
370
50
 62
4
100
AcDbLine
 10
77.25555399999999
 20
3.936929
 30
0.0
 11
77.150391
 21
3.98297
 31
0.0
  0
LINE
  5
8D2
330
1F
100
AcDbEntity
  8
1
  6
CONTINUOUS
370
50
 62
4
100
AcDbLine
 10
68.360008
 20
-5.420682999999999
 30
0.0
 11
67.883438
 21
-5.212486
 31
0.0
  0
LINE
  5
8D3
330
1F
100
AcDbEntity
  8
1
  6
CONTINUOUS
370
50
 62
4
100
AcDbLine
 10
67.224503
 20
3.976345
 30
0.0
 11
67.148445
 21
4.00956
 31
0.0
  0
LINE
  5
8D4
330
1F
100
AcDbEntity
  8
1
  6
CONTINUOUS
370
50
 62
4
100
AcDbLine
 10
77.36071799999999
 20
3.891006
 30
0.0
 11
77.25555399999999
 21
3.936929
 31
0.0
  0
LINE
  5
8D5
330
1F
100
AcDbEntity
  8
1
  6
CONTINUOUS
370
50
 62
4
100
AcDbLine
 10
77.168365
 20
-5.381133
 30
0.0
 11
76.883072
 21
-5.256822
 31
0.0
  0
LINE
  5
8D6
330
1F
100
AcDbEntity
  8
1
  6
CONTINUOUS
370
50
 62
4
100
AcDbLine
 10
77.46588899999999
 20
3.845197
 30
0.0
 11
77.36071799999999
 21
3.891006
 31
0.0
  0
LINE
  5
8D7
330
1F
100
AcDbEntity
  8
1
  6
CONTINUOUS
370
50
 62
4
100
AcDbLine
 10
87.474892
 20
3.805974
 30
0.0
 11
87.386932
 21
3.844284
 31
0.0
  0
LINE
  5
8D8
330
1F
100
AcDbEntity
  8
1
  6
CONTINUOUS
370
50
 62
4
100
AcDbLine
 10
74.443291
 20
3.501919
 30
0.0
 11
74.110542
 21
3.646827
 31
0.0
  0
LINE
  5
8D9
330
1F
100
AcDbEntity
  8
1
  6
CONTINUOUS
370
50
 62
4
100
AcDbLine
 10
67.300568
 20
3.943266
 30
0.0
 11
67.224503
 21
3.976345
 31
0.0
  0
LINE
  5
8DA
330
1F
100
AcDbEntity
  8
1
  6
CONTINUOUS
370
50
 62
4
100
AcDbLine
 10
77.590874
 20
3.790902
 30
0.0
 11
77.46588899999999
 21
3.845197
 31
0.0
  0
LINE
  5
8DB
330
1F
100
AcDbEntity
  8
1
  6
CONTINUOUS
370
50
 62
4
100
AcDbLine
 10
83.322746
 20
5.221280999999999
 30
0.0
 11
82.855408
 21
5.424252
 31
0.0
  0
LINE
  5
8DC
330
1F
100
AcDbEntity
  8
1
  6
CONTINUOUS
370
50
 62
4
100
AcDbLine
 10
67.37662499999999
 20
3.910321
 30
0.0
 11
67.300568
 21
3.943266
 31
0.0
  0
LINE
  5
8DD
330
1F
100
AcDbEntity
  8
1
  6
CONTINUOUS
370
50
 62
4
100
AcDbLine
 10
77.71586599999999
 20
3.736769
 30
0.0
 11
77.590874
 21
3.790902
 31
0.0
  0
LINE
  5
8DE
330
1F
100
AcDbEntity
  8
1
  6
CONTINUOUS
370
50
 62
4
100
AcDbLine
 10
80.692139
 20
-1.975902
 30
0.0
 11
79.87900499999999
 21
-1.624325
 31
0.0
  0
LINE
  5
8DF
330
1F
100
AcDbEntity
  8
1
  6
CONTINUOUS
370
50
 62
4
100
AcDbLine
 10
80.723152
 20
-1.992879
 30
0.0
 11
79.905846
 21
-1.639642
 31
0.0
  0
LINE
  5
8E0
330
1F
100
AcDbEntity
  8
1
  6
CONTINUOUS
370
50
 62
4
100
AcDbLine
 10
87.562851
 20
3.76796
 30
0.0
 11
87.474892
 21
3.805974
 31
0.0
  0
LINE
  5
8E1
330
1F
100
AcDbEntity
  8
1
  6
CONTINUOUS
370
50
 62
4
100
AcDbLine
 10
77.840828
 20
3.682809
 30
0.0
 11
77.71586599999999
 21
3.736769
 31
0.0
  0
LINE
  5
8E2
330
1F
100
AcDbEntity
  8
1
  6
CONTINUOUS
370
50
 62
4
100
AcDbLine
 10
87.218094
 20
-5.433186
 30
0.0
 11
86.880051
 21
-5.287247
 31
0.0
  0
LINE
  5
8E3
330
1F
100
AcDbEntity
  8
1
  6
CONTINUOUS
370
50
 62
4
100
AcDbLine
 10
84.214897
 20
5.278923
 30
0.0
 11
83.832588
 21
5.443852
 31
0.0
  0
LINE
  5
8E4
330
1F
100
AcDbEntity
  8
1
  6
CONTINUOUS
370
50
 62
4
100
AcDbLine
 10
67.45269
 20
3.87751
 30
0.0
 11
67.37662499999999
 21
3.910321
 31
0.0
  0
LINE
  5
8E5
330
1F
100
AcDbEntity
  8
1
  6
CONTINUOUS
370
50
 62
4
100
AcDbLine
 10
77.96579
 20
3.629015
 30
0.0
 11
77.840828
 21
3.682809
 31
0.0
  0
LINE
  5
8E6
330
1F
100
AcDbEntity
  8
1
  6
CONTINUOUS
370
50
 62
4
100
AcDbLine
 10
67.528755
 20
3.84483
 30
0.0
 11
67.45269
 21
3.87751
 31
0.0
  0
LINE
  5
8E7
330
1F
100
AcDbEntity
  8
1
  6
CONTINUOUS
370
50
 62
4
100
AcDbLine
 10
84.213791
 20
3.569177
 30
0.0
 11
83.873322
 21
3.715346
 31
0.0
  0
LINE
  5
8E8
330
1F
100
AcDbEntity
  8
1
  6
CONTINUOUS
370
50
 62
4
100
AcDbLine
 10
70.78405
 20
-1.990429
 30
0.0
 11
69.966949
 21
-1.640015
 31
0.0
  0
LINE
  5
8E9
330
1F
100
AcDbEntity
  8
1
  6
CONTINUOUS
370
50
 62
4
100
AcDbLine
 10
87.65080999999999
 20
3.73024
 30
0.0
 11
87.562851
 21
3.76796
 31
0.0
  0
LINE
  5
8EA
330
1F
100
AcDbEntity
  8
1
  6
CONTINUOUS
370
50
 62
4
100
AcDbLine
 10
70.76136799999999
 20
-1.977182
 30
0.0
 11
69.934799
 21
-1.622818
 31
0.0
  0
LINE
  5
8EB
330
1F
100
AcDbEntity
  8
1
  6
CONTINUOUS
370
50
 62
4
100
AcDbLine
 10
73.247147
 20
1.660601
 30
0.0
 11
72.39977999999999
 21
2.023405
 31
0.0
  0
LINE
  5
8EC
330
1F
100
AcDbEntity
  8
1
  6
CONTINUOUS
370
50
 62
4
100
AcDbLine
 10
67.60674999999999
 20
3.811454
 30
0.0
 11
67.528755
 21
3.84483
 31
0.0
  0
LINE
  5
8ED
330
1F
100
AcDbEntity
  8
1
  6
CONTINUOUS
370
50
 62
4
100
AcDbLine
 10
78.10260799999999
 20
3.570504
 30
0.0
 11
77.96579
 21
3.629015
 31
0.0
  0
LINE
  5
8EE
330
1F
100
AcDbEntity
  8
1
  6
CONTINUOUS
370
50
 62
4
100
AcDbLine
 10
67.684753
 20
3.778214
 30
0.0
 11
67.60674999999999
 21
3.811454
 31
0.0
  0
LINE
  5
8EF
330
1F
100
AcDbEntity
  8
1
  6
CONTINUOUS
370
50
 62
4
100
AcDbLine
 10
87.73877
 20
3.692811
 30
0.0
 11
87.65080999999999
 21
3.73024
 31
0.0
  0
LINE
  5
8F0
330
1F
100
AcDbEntity
  8
1
  6
CONTINUOUS
370
50
 62
4
100
AcDbLine
 10
83.181946
 20
1.663204
 30
0.0
 11
82.334305
 21
2.023758
 31
0.0
  0
LINE
  5
8F1
330
1F
100
AcDbEntity
  8
1
  6
CONTINUOUS
370
50
 62
4
100
AcDbLine
 10
67.762749
 20
3.745108
 30
0.0
 11
67.684753
 21
3.778214
 31
0.0
  0
LINE
  5
8F2
330
1F
100
AcDbEntity
  8
1
  6
CONTINUOUS
370
50
 62
4
100
AcDbLine
 10
67.840752
 20
3.712134
 30
0.0
 11
67.762749
 21
3.745108
 31
0.0
  0
LINE
  5
8F3
330
1F
100
AcDbEntity
  8
1
  6
CONTINUOUS
370
50
 62
4
100
AcDbLine
 10
87.826736
 20
3.655664
 30
0.0
 11
87.73877
 21
3.692811
 31
0.0
  0
LINE
  5
8F4
330
1F
100
AcDbEntity
  8
1
  6
CONTINUOUS
370
50
 62
4
100
AcDbLine
 10
78.239426
 20
3.512884
 30
0.0
 11
78.10260799999999
 21
3.570504
 31
0.0
  0
LINE
  5
8F5
330
1F
100
AcDbEntity
  8
1
  6
CONTINUOUS
370
50
 62
4
100
AcDbLine
 10
67.934631
 20
3.672623
 30
0.0
 11
67.840752
 21
3.712134
 31
0.0
  0
LINE
  5
8F6
330
1F
100
AcDbEntity
  8
1
  6
CONTINUOUS
370
50
 62
4
100
AcDbLine
 10
87.914711
 20
3.618804
 30
0.0
 11
87.826736
 21
3.655664
 31
0.0
  0
LINE
  5
8F7
330
1F
100
AcDbEntity
  8
1
  6
CONTINUOUS
370
50
 62
4
100
AcDbLine
 10
64.239471
 20
5.531855999999999
 30
0.0
 11
63.998932
 21
5.632632999999999
 31
0.0
  0
LINE
  5
8F8
330
1F
100
AcDbEntity
  8
1
  6
CONTINUOUS
370
50
 62
4
100
AcDbLine
 10
68.028503
 20
3.6333
 30
0.0
 11
67.934631
 21
3.672623
 31
0.0
  0
LINE
  5
8F9
330
1F
100
AcDbEntity
  8
1
  6
CONTINUOUS
370
50
 62
4
100
AcDbLine
 10
62.893192
 20
-5.656295
 30
0.0
 11
62.74715399999999
 21
-5.595389
 31
0.0
  0
LINE
  5
8FA
330
1F
100
AcDbEntity
  8
1
  6
CONTINUOUS
370
50
 62
4
100
AcDbLine
 10
68.122383
 20
3.594164
 30
0.0
 11
68.028503
 21
3.6333
 31
0.0
  0
LINE
  5
8FB
330
1F
100
AcDbEntity
  8
1
  6
CONTINUOUS
370
50
 62
4
100
AcDbLine
 10
88.002686
 20
3.582227
 30
0.0
 11
87.914711
 21
3.618804
 31
0.0
  0
LINE
  5
8FC
330
1F
100
AcDbEntity
  8
1
  6
CONTINUOUS
370
50
 62
4
100
AcDbLine
 10
68.21627
 20
3.555213
 30
0.0
 11
68.122383
 21
3.594164
 31
0.0
  0
LINE
  5
8FD
330
1F
100
AcDbEntity
  8
1
  6
CONTINUOUS
370
50
 62
4
100
AcDbLine
 10
78.376266
 20
3.456154
 30
0.0
 11
78.239426
 21
3.512884
 31
0.0
  0
LINE
  5
8FE
330
1F
100
AcDbEntity
  8
1
  6
CONTINUOUS
370
50
 62
4
100
AcDbLine
 10
74.29214499999999
 20
5.279323
 30
0.0
 11
73.766396
 21
5.49662
 31
0.0
  0
LINE
  5
8FF
330
1F
100
AcDbEntity
  8
1
  6
CONTINUOUS
370
50
 62
4
100
AcDbLine
 10
68.310135
 20
3.516453
 30
0.0
 11
68.21627
 21
3.555213
 31
0.0
  0
LINE
  5
900
330
1F
100
AcDbEntity
  8
1
  6
CONTINUOUS
370
50
 62
4
100
AcDbLine
 10
88.09066
 20
3.54593
 30
0.0
 11
88.002686
 21
3.582227
 31
0.0
  0
LINE
  5
901
330
1F
100
AcDbEntity
  8
1
  6
CONTINUOUS
370
50
 62
4
100
AcDbLine
 10
68.403999
 20
3.477877
 30
0.0
 11
68.310135
 21
3.516453
 31
0.0
  0
LINE
  5
902
330
1F
100
AcDbEntity
  8
1
  6
CONTINUOUS
370
50
 62
4
100
AcDbLine
 10
88.18038899999999
 20
3.509198
 30
0.0
 11
88.09066
 21
3.54593
 31
0.0
  0
LINE
  5
903
330
1F
100
AcDbEntity
  8
1
  6
CONTINUOUS
370
50
 62
4
100
AcDbLine
 10
68.49786399999999
 20
3.439483
 30
0.0
 11
68.403999
 21
3.477877
 31
0.0
  0
LINE
  5
904
330
1F
100
AcDbEntity
  8
1
  6
CONTINUOUS
370
50
 62
4
100
AcDbLine
 10
78.51310699999999
 20
3.400318
 30
0.0
 11
78.376266
 21
3.456154
 31
0.0
  0
LINE
  5
905
330
1F
100
AcDbEntity
  8
1
  6
CONTINUOUS
370
50
 62
4
100
AcDbLine
 10
78.464699
 20
-5.493539
 30
0.0
 11
78.139381
 21
-5.360847
 31
0.0
  0
LINE
  5
906
330
1F
100
AcDbEntity
  8
1
  6
CONTINUOUS
370
50
 62
4
100
AcDbLine
 10
68.591728
 20
3.401273
 30
0.0
 11
68.49786399999999
 21
3.439483
 31
0.0
  0
LINE
  5
907
330
1F
100
AcDbEntity
  8
1
  6
CONTINUOUS
370
50
 62
4
100
AcDbLine
 10
73.088943
 20
5.352123
 30
0.0
 11
72.78936
 21
5.473857
 31
0.0
  0
LINE
  5
908
330
1F
100
AcDbEntity
  8
1
  6
CONTINUOUS
370
50
 62
4
100
AcDbLine
 10
88.270111
 20
3.472751
 30
0.0
 11
88.18038899999999
 21
3.509198
 31
0.0
  0
LINE
  5
909
330
1F
100
AcDbEntity
  8
1
  6
CONTINUOUS
370
50
 62
4
100
AcDbLine
 10
68.676521
 20
3.366913
 30
0.0
 11
68.591728
 21
3.401273
 31
0.0
  0
LINE
  5
90A
330
1F
100
AcDbEntity
  8
1
  6
CONTINUOUS
370
50
 62
4
100
AcDbLine
 10
68.761314
 20
3.332704
 30
0.0
 11
68.676521
 21
3.366913
 31
0.0
  0
LINE
  5
90B
330
1F
100
AcDbEntity
  8
1
  6
CONTINUOUS
370
50
 62
4
100
AcDbLine
 10
88.35983999999999
 20
3.436588
 30
0.0
 11
88.270111
 21
3.472751
 31
0.0
  0
LINE
  5
90C
330
1F
100
AcDbEntity
  8
1
  6
CONTINUOUS
370
50
 62
4
100
AcDbLine
 10
74.110542
 20
3.646827
 30
0.0
 11
73.777794
 21
3.780869
 31
0.0
  0
LINE
  5
90D
330
1F
100
AcDbEntity
  8
1
  6
CONTINUOUS
370
50
 62
4
100
AcDbLine
 10
78.60638399999999
 20
3.362763
 30
0.0
 11
78.51310699999999
 21
3.400318
 31
0.0
  0
LINE
  5
90E
330
1F
100
AcDbEntity
  8
1
  6
CONTINUOUS
370
50
 62
4
100
AcDbLine
 10
68.87108599999999
 20
3.288643
 30
0.0
 11
68.761314
 21
3.332704
 31
0.0
  0
LINE
  5
90F
330
1F
100
AcDbEntity
  8
1
  6
CONTINUOUS
370
50
 62
4
100
AcDbLine
 10
77.45277399999999
 20
-5.494898
 30
0.0
 11
77.168365
 21
-5.381133
 31
0.0
  0
LINE
  5
910
330
1F
100
AcDbEntity
  8
1
  6
CONTINUOUS
370
50
 62
4
100
AcDbLine
 10
76.636955
 20
-0.018776
 30
0.0
 11
76.63694
 21
-0.01877
 31
0.0
  0
LINE
  5
911
330
1F
100
AcDbEntity
  8
1
  6
CONTINUOUS
370
50
 62
4
100
AcDbLine
 10
76.636917
 20
-0.018757
 30
0.0
 11
76.63690199999999
 21
-0.018751
 31
0.0
  0
LINE
  5
912
330
1F
100
AcDbEntity
  8
1
  6
CONTINUOUS
370
50
 62
4
100
AcDbLine
 10
76.636894
 20
-0.018745
 30
0.0
 11
76.636879
 21
-0.018739
 31
0.0
  0
LINE
  5
913
330
1F
100
AcDbEntity
  8
1
  6
CONTINUOUS
370
50
 62
4
100
AcDbLine
 10
88.44957
 20
3.400705
 30
0.0
 11
88.35983999999999
 21
3.436588
 31
0.0
  0
LINE
  5
914
330
1F
100
AcDbEntity
  8
1
  6
CONTINUOUS
370
50
 62
4
100
AcDbLine
 10
68.98085
 20
3.244839
 30
0.0
 11
68.87108599999999
 21
3.288643
 31
0.0
  0
LINE
  5
915
330
1F
100
AcDbEntity
  8
1
  6
CONTINUOUS
370
50
 62
4
100
AcDbLine
 10
78.69966099999999
 20
3.325614
 30
0.0
 11
78.60638399999999
 21
3.362763
 31
0.0
  0
LINE
  5
916
330
1F
100
AcDbEntity
  8
1
  6
CONTINUOUS
370
50
 62
4
100
AcDbLine
 10
81.504555
 20
-2.29932
 30
0.0
 11
80.692139
 21
-1.975902
 31
0.0
  0
LINE
  5
917
330
1F
100
AcDbEntity
  8
1
  6
CONTINUOUS
370
50
 62
4
100
AcDbLine
 10
88.51975999999999
 20
3.372827
 30
0.0
 11
88.44957
 21
3.400705
 31
0.0
  0
LINE
  5
918
330
1F
100
AcDbEntity
  8
1
  6
CONTINUOUS
370
50
 62
4
100
AcDbLine
 10
81.540359
 20
-2.316455
 30
0.0
 11
80.723152
 21
-1.992879
 31
0.0
  0
LINE
  5
919
330
1F
100
AcDbEntity
  8
1
  6
CONTINUOUS
370
50
 62
4
100
AcDbLine
 10
69.090614
 20
3.201443
 30
0.0
 11
68.98085
 21
3.244839
 31
0.0
  0
LINE
  5
91A
330
1F
100
AcDbEntity
  8
1
  6
CONTINUOUS
370
50
 62
4
100
AcDbLine
 10
88.589958
 20
3.345117
 30
0.0
 11
88.51975999999999
 21
3.372827
 31
0.0
  0
LINE
  5
91B
330
1F
100
AcDbEntity
  8
1
  6
CONTINUOUS
370
50
 62
4
100
AcDbLine
 10
83.873322
 20
3.715346
 30
0.0
 11
83.53285199999999
 21
3.849489
 31
0.0
  0
LINE
  5
91C
330
1F
100
AcDbEntity
  8
1
  6
CONTINUOUS
370
50
 62
4
100
AcDbLine
 10
78.79293799999999
 20
3.288869
 30
0.0
 11
78.69966099999999
 21
3.325614
 31
0.0
  0
LINE
  5
91D
330
1F
100
AcDbEntity
  8
1
  6
CONTINUOUS
370
50
 62
4
100
AcDbLine
 10
88.660156
 20
3.317575
 30
0.0
 11
88.589958
 21
3.345117
 31
0.0
  0
LINE
  5
91E
330
1F
100
AcDbEntity
  8
1
  6
CONTINUOUS
370
50
 62
4
100
AcDbLine
 10
72.39977999999999
 20
2.023405
 30
0.0
 11
71.55233799999999
 21
2.355785
 31
0.0
  0
LINE
  5
91F
330
1F
100
AcDbEntity
  8
1
  6
CONTINUOUS
370
50
 62
4
100
AcDbLine
 10
71.60125
 20
-2.31002
 30
0.0
 11
70.78405
 21
-1.990429
 31
0.0
  0
LINE
  5
920
330
1F
100
AcDbEntity
  8
1
  6
CONTINUOUS
370
50
 62
4
100
AcDbLine
 10
71.583832
 20
-2.298767
 30
0.0
 11
70.76136799999999
 21
-1.977182
 31
0.0
  0
LINE
  5
921
330
1F
100
AcDbEntity
  8
1
  6
CONTINUOUS
370
50
 62
4
100
AcDbLine
 10
88.730362
 20
3.2902
 30
0.0
 11
88.660156
 21
3.317575
 31
0.0
  0
LINE
  5
922
330
1F
100
AcDbEntity
  8
1
  6
CONTINUOUS
370
50
 62
4
100
AcDbLine
 10
88.5411
 20
-5.545157
 30
0.0
 11
88.076706
 21
-5.364088
 31
0.0
  0
LINE
  5
923
330
1F
100
AcDbEntity
  8
1
  6
CONTINUOUS
370
50
 62
4
100
AcDbLine
 10
78.88621499999999
 20
3.252523
 30
0.0
 11
78.79293799999999
 21
3.288869
 31
0.0
  0
LINE
  5
924
330
1F
100
AcDbEntity
  8
1
  6
CONTINUOUS
370
50
 62
4
100
AcDbLine
 10
69.200378
 20
3.158733
 30
0.0
 11
69.090614
 21
3.201443
 31
0.0
  0
LINE
  5
925
330
1F
100
AcDbEntity
  8
1
  6
CONTINUOUS
370
50
 62
4
100
AcDbLine
 10
88.80055999999999
 20
3.262989
 30
0.0
 11
88.730362
 21
3.2902
 31
0.0
  0
LINE
  5
926
330
1F
100
AcDbEntity
  8
1
  6
CONTINUOUS
370
50
 62
4
100
AcDbLine
 10
78.972557
 20
3.21923
 30
0.0
 11
78.88621499999999
 21
3.252523
 31
0.0
  0
LINE
  5
927
330
1F
100
AcDbEntity
  8
1
  6
CONTINUOUS
370
50
 62
4
100
AcDbLine
 10
88.870758
 20
3.235943
 30
0.0
 11
88.80055999999999
 21
3.262989
 31
0.0
  0
LINE
  5
928
330
1F
100
AcDbEntity
  8
1
  6
CONTINUOUS
370
50
 62
4
100
AcDbLine
 10
82.334305
 20
2.023758
 30
0.0
 11
81.486786
 21
2.349989
 31
0.0
  0
LINE
  5
929
330
1F
100
AcDbEntity
  8
1
  6
CONTINUOUS
370
50
 62
4
100
AcDbLine
 10
69.31015
 20
3.116701
 30
0.0
 11
69.200378
 21
3.158733
 31
0.0
  0
LINE
  5
92A
330
1F
100
AcDbEntity
  8
1
  6
CONTINUOUS
370
50
 62
4
100
AcDbLine
 10
88.940964
 20
3.209061
 30
0.0
 11
88.870758
 21
3.235943
 31
0.0
  0
LINE
  5
92B
330
1F
100
AcDbEntity
  8
1
  6
CONTINUOUS
370
50
 62
4
100
AcDbLine
 10
87.558968
 20
-5.563558
 30
0.0
 11
87.218094
 21
-5.433186
 31
0.0
  0
LINE
  5
92C
330
1F
100
AcDbEntity
  8
1
  6
CONTINUOUS
370
50
 62
4
100
AcDbLine
 10
79.05890699999999
 20
3.186272
 30
0.0
 11
78.972557
 21
3.21923
 31
0.0
  0
LINE
  5
92D
330
1F
100
AcDbEntity
  8
1
  6
CONTINUOUS
370
50
 62
4
100
AcDbLine
 10
89.011162
 20
3.182341
 30
0.0
 11
88.940964
 21
3.209061
 31
0.0
  0
LINE
  5
92E
330
1F
100
AcDbEntity
  8
1
  6
CONTINUOUS
370
50
 62
4
100
AcDbLine
 10
68.82666
 20
-5.596992
 30
0.0
 11
68.360008
 21
-5.420682999999999
 31
0.0
  0
LINE
  5
92F
330
1F
100
AcDbEntity
  8
1
  6
CONTINUOUS
370
50
 62
4
100
AcDbLine
 10
79.145256
 20
3.153648
 30
0.0
 11
79.05890699999999
 21
3.186272
 31
0.0
  0
LINE
  5
930
330
1F
100
AcDbEntity
  8
1
  6
CONTINUOUS
370
50
 62
4
100
AcDbLine
 10
89.136566
 20
3.135015
 30
0.0
 11
89.011162
 21
3.182341
 31
0.0
  0
LINE
  5
931
330
1F
100
AcDbEntity
  8
1
  6
CONTINUOUS
370
50
 62
4
100
AcDbLine
 10
69.419922
 20
3.07535
 30
0.0
 11
69.31015
 21
3.116701
 31
0.0
  0
LINE
  5
932
330
1F
100
AcDbEntity
  8
1
  6
CONTINUOUS
370
50
 62
4
100
AcDbLine
 10
83.832588
 20
5.443852
 30
0.0
 11
83.44735
 21
5.588723
 31
0.0
  0
LINE
  5
933
330
1F
100
AcDbEntity
  8
1
  6
CONTINUOUS
370
50
 62
4
100
AcDbLine
 10
79.231606
 20
3.121355
 30
0.0
 11
79.145256
 21
3.153648
 31
0.0
  0
LINE
  5
934
330
1F
100
AcDbEntity
  8
1
  6
CONTINUOUS
370
50
 62
4
100
AcDbLine
 10
89.261978
 20
3.088204
 30
0.0
 11
89.136566
 21
3.135015
 31
0.0
  0
LINE
  5
935
330
1F
100
AcDbEntity
  8
1
  6
CONTINUOUS
370
50
 62
4
100
AcDbLine
 10
73.777794
 20
3.780869
 30
0.0
 11
73.445045
 21
3.904319
 31
0.0
  0
LINE
  5
936
330
1F
100
AcDbEntity
  8
1
  6
CONTINUOUS
370
50
 62
4
100
AcDbLine
 10
69.529716
 20
3.034664
 30
0.0
 11
69.419922
 21
3.07535
 31
0.0
  0
LINE
  5
937
330
1F
100
AcDbEntity
  8
1
  6
CONTINUOUS
370
50
 62
4
100
AcDbLine
 10
79.317955
 20
3.089389
 30
0.0
 11
79.231606
 21
3.121355
 31
0.0
  0
LINE
  5
938
330
1F
100
AcDbEntity
  8
1
  6
CONTINUOUS
370
50
 62
4
100
AcDbLine
 10
82.855408
 20
5.424252
 30
0.0
 11
82.386719
 21
5.597646999999999
 31
0.0
  0
LINE
  5
939
330
1F
100
AcDbEntity
  8
1
  6
CONTINUOUS
370
50
 62
4
100
AcDbLine
 10
72.78936
 20
5.473857
 30
0.0
 11
72.49059299999999
 21
5.583806
 31
0.0
  0
LINE
  5
93A
330
1F
100
AcDbEntity
  8
1
  6
CONTINUOUS
370
50
 62
4
100
AcDbLine
 10
79.404305
 20
3.057748
 30
0.0
 11
79.317955
 21
3.089389
 31
0.0
  0
LINE
  5
93B
330
1F
100
AcDbEntity
  8
1
  6
CONTINUOUS
370
50
 62
4
100
AcDbLine
 10
67.87900499999999
 20
-5.623145999999999
 30
0.0
 11
67.308578
 21
-5.414149
 31
0.0
  0
LINE
  5
93C
330
1F
100
AcDbEntity
  8
1
  6
CONTINUOUS
370
50
 62
4
100
AcDbLine
 10
69.63950299999999
 20
2.994645
 30
0.0
 11
69.529716
 21
3.034664
 31
0.0
  0
LINE
  5
93D
330
1F
100
AcDbEntity
  8
1
  6
CONTINUOUS
370
50
 62
4
100
AcDbLine
 10
77.736092
 20
-5.597945
 30
0.0
 11
77.45277399999999
 21
-5.494898
 31
0.0
  0
LINE
  5
93E
330
1F
100
AcDbEntity
  8
1
  6
CONTINUOUS
370
50
 62
4
100
AcDbLine
 10
79.490662
 20
3.02643
 30
0.0
 11
79.404305
 21
3.057748
 31
0.0
  0
LINE
  5
93F
330
1F
100
AcDbEntity
  8
1
  6
CONTINUOUS
370
50
 62
4
100
AcDbLine
 10
79.577011
 20
2.995432
 30
0.0
 11
79.490662
 21
3.02643
 31
0.0
  0
LINE
  5
940
330
1F
100
AcDbEntity
  8
1
  6
CONTINUOUS
370
50
 62
4
100
AcDbLine
 10
78.79214499999999
 20
-5.611085999999999
 30
0.0
 11
78.464699
 21
-5.493539
 31
0.0
  0
LINE
  5
941
330
1F
100
AcDbEntity
  8
1
  6
CONTINUOUS
370
50
 62
4
100
AcDbLine
 10
69.759827
 20
2.951544
 30
0.0
 11
69.63950299999999
 21
2.994645
 31
0.0
  0
LINE
  5
942
330
1F
100
AcDbEntity
  8
1
  6
CONTINUOUS
370
50
 62
4
100
AcDbLine
 10
83.53285199999999
 20
3.849489
 30
0.0
 11
83.19238299999999
 21
3.971055
 31
0.0
  0
LINE
  5
943
330
1F
100
AcDbEntity
  8
1
  6
CONTINUOUS
370
50
 62
4
100
AcDbLine
 10
79.691833
 20
2.95471
 30
0.0
 11
79.577011
 21
2.995432
 31
0.0
  0
LINE
  5
944
330
1F
100
AcDbEntity
  8
1
  6
CONTINUOUS
370
50
 62
4
100
AcDbLine
 10
69.88014199999999
 20
2.909226
 30
0.0
 11
69.759827
 21
2.951544
 31
0.0
  0
LINE
  5
945
330
1F
100
AcDbEntity
  8
1
  6
CONTINUOUS
370
50
 62
4
100
AcDbLine
 10
72.399666
 20
-2.584478
 30
0.0
 11
71.583832
 21
-2.298767
 31
0.0
  0
LINE
  5
946
330
1F
100
AcDbEntity
  8
1
  6
CONTINUOUS
370
50
 62
4
100
AcDbLine
 10
79.80665599999999
 20
2.914546
 30
0.0
 11
79.691833
 21
2.95471
 31
0.0
  0
LINE
  5
947
330
1F
100
AcDbEntity
  8
1
  6
CONTINUOUS
370
50
 62
4
100
AcDbLine
 10
72.418365
 20
-2.594908
 30
0.0
 11
71.60125
 21
-2.31002
 31
0.0
  0
LINE
  5
948
330
1F
100
AcDbEntity
  8
1
  6
CONTINUOUS
370
50
 62
4
100
AcDbLine
 10
70.00046499999999
 20
2.867681
 30
0.0
 11
69.88014199999999
 21
2.909226
 31
0.0
  0
LINE
  5
949
330
1F
100
AcDbEntity
  8
1
  6
CONTINUOUS
370
50
 62
4
100
AcDbLine
 10
79.910736
 20
2.878622
 30
0.0
 11
79.80665599999999
 21
2.914546
 31
0.0
  0
LINE
  5
94A
330
1F
100
AcDbEntity
  8
1
  6
CONTINUOUS
370
50
 62
4
100
AcDbLine
 10
82.33358799999999
 20
-2.584083
 30
0.0
 11
81.504555
 21
-2.29932
 31
0.0
  0
LINE
  5
94B
330
1F
100
AcDbEntity
  8
1
  6
CONTINUOUS
370
50
 62
4
100
AcDbLine
 10
82.35752099999999
 20
-2.596321
 30
0.0
 11
81.540359
 21
-2.316455
 31
0.0
  0
LINE
  5
94C
330
1F
100
AcDbEntity
  8
1
  6
CONTINUOUS
370
50
 62
4
100
AcDbLine
 10
81.486786
 20
2.349989
 30
0.0
 11
80.639198
 21
2.639859
 31
0.0
  0
LINE
  5
94D
330
1F
100
AcDbEntity
  8
1
  6
CONTINUOUS
370
50
 62
4
100
AcDbLine
 10
80.014809
 20
2.843152
 30
0.0
 11
79.910736
 21
2.878622
 31
0.0
  0
LINE
  5
94E
330
1F
100
AcDbEntity
  8
1
  6
CONTINUOUS
370
50
 62
4
100
AcDbLine
 10
73.766396
 20
5.49662
 30
0.0
 11
73.23840299999999
 21
5.676406
 31
0.0
  0
LINE
  5
94F
330
1F
100
AcDbEntity
  8
1
  6
CONTINUOUS
370
50
 62
4
100
AcDbLine
 10
73.445045
 20
3.904319
 30
0.0
 11
73.112297
 21
4.017325
 31
0.0
  0
LINE
  5
950
330
1F
100
AcDbEntity
  8
1
  6
CONTINUOUS
370
50
 62
4
100
AcDbLine
 10
70.120789
 20
2.826902
 30
0.0
 11
70.00046499999999
 21
2.867681
 31
0.0
  0
LINE
  5
951
330
1F
100
AcDbEntity
  8
1
  6
CONTINUOUS
370
50
 62
4
100
AcDbLine
 10
80.118889
 20
2.808134
 30
0.0
 11
80.014809
 21
2.843152
 31
0.0
  0
LINE
  5
952
330
1F
100
AcDbEntity
  8
1
  6
CONTINUOUS
370
50
 62
4
100
AcDbLine
 10
71.55233799999999
 20
2.355785
 30
0.0
 11
70.704819
 21
2.639576
 31
0.0
  0
LINE
  5
953
330
1F
100
AcDbEntity
  8
1
  6
CONTINUOUS
370
50
 62
4
100
AcDbLine
 10
70.24112699999999
 20
2.786874
 30
0.0
 11
70.120789
 21
2.826902
 31
0.0
  0
LINE
  5
954
330
1F
100
AcDbEntity
  8
1
  6
CONTINUOUS
370
50
 62
4
100
AcDbLine
 10
80.222961
 20
2.773567
 30
0.0
 11
80.118889
 21
2.808134
 31
0.0
  0
LINE
  5
955
330
1F
100
AcDbEntity
  8
1
  6
CONTINUOUS
370
50
 62
4
100
AcDbLine
 10
87.905098
 20
-5.678122999999999
 30
0.0
 11
87.558968
 21
-5.563558
 31
0.0
  0
LINE
  5
956
330
1F
100
AcDbEntity
  8
1
  6
CONTINUOUS
370
50
 62
4
100
AcDbLine
 10
72.49059299999999
 20
5.583806
 30
0.0
 11
72.193024
 21
5.68169
 31
0.0
  0
LINE
  5
957
330
1F
100
AcDbEntity
  8
1
  6
CONTINUOUS
370
50
 62
4
100
AcDbLine
 10
80.32701899999999
 20
2.739459
 30
0.0
 11
80.222961
 21
2.773567
 31
0.0
  0
LINE
  5
958
330
1F
100
AcDbEntity
  8
1
  6
CONTINUOUS
370
50
 62
4
100
AcDbLine
 10
89.006294
 20
-5.697283
 30
0.0
 11
88.5411
 21
-5.545157
 31
0.0
  0
LINE
  5
959
330
1F
100
AcDbEntity
  8
1
  6
CONTINUOUS
370
50
 62
4
100
AcDbLine
 10
70.361465
 20
2.747596
 30
0.0
 11
70.24112699999999
 21
2.786874
 31
0.0
  0
LINE
  5
95A
330
1F
100
AcDbEntity
  8
1
  6
CONTINUOUS
370
50
 62
4
100
AcDbLine
 10
78.026764
 20
-5.692524
 30
0.0
 11
77.736092
 21
-5.597945
 31
0.0
  0
LINE
  5
95B
330
1F
100
AcDbEntity
  8
1
  6
CONTINUOUS
370
50
 62
4
100
AcDbLine
 10
80.431084
 20
2.705801
 30
0.0
 11
80.32701899999999
 21
2.739459
 31
0.0
  0
LINE
  5
95C
330
1F
100
AcDbEntity
  8
1
  6
CONTINUOUS
370
50
 62
4
100
AcDbLine
 10
83.19238299999999
 20
3.971055
 30
0.0
 11
82.851913
 21
4.080338999999999
 31
0.0
  0
LINE
  5
95D
330
1F
100
AcDbEntity
  8
1
  6
CONTINUOUS
370
50
 62
4
100
AcDbLine
 10
70.481804
 20
2.70906
 30
0.0
 11
70.361465
 21
2.747596
 31
0.0
  0
LINE
  5
95E
330
1F
100
AcDbEntity
  8
1
  6
CONTINUOUS
370
50
 62
4
100
AcDbLine
 10
80.535141
 20
2.672597
 30
0.0
 11
80.431084
 21
2.705801
 31
0.0
  0
LINE
  5
95F
330
1F
100
AcDbEntity
  8
1
  6
CONTINUOUS
370
50
 62
4
100
AcDbLine
 10
83.44735
 20
5.588723
 30
0.0
 11
83.05439799999999
 21
5.713312
 31
0.0
  0
LINE
  5
960
330
1F
100
AcDbEntity
  8
1
  6
CONTINUOUS
370
50
 62
4
100
AcDbLine
 10
63.037769
 20
-5.702094
 30
0.0
 11
62.893192
 21
-5.656295
 31
0.0
  0
LINE
  5
961
330
1F
100
AcDbEntity
  8
1
  6
CONTINUOUS
370
50
 62
4
100
AcDbLine
 10
80.639198
 20
2.639848
 30
0.0
 11
80.535141
 21
2.672597
 31
0.0
  0
LINE
  5
962
330
1F
100
AcDbEntity
  8
1
  6
CONTINUOUS
370
50
 62
4
100
AcDbLine
 10
70.60215
 20
2.671261
 30
0.0
 11
70.481804
 21
2.70906
 31
0.0
  0
LINE
  5
963
330
1F
100
AcDbEntity
  8
1
  6
CONTINUOUS
370
50
 62
4
100
AcDbLine
 10
69.288857
 20
-5.741644
 30
0.0
 11
68.82666
 21
-5.596992
 31
0.0
  0
LINE
  5
964
330
1F
100
AcDbEntity
  8
1
  6
CONTINUOUS
370
50
 62
4
100
AcDbLine
 10
79.120735
 20
-5.713268999999999
 30
0.0
 11
78.79214499999999
 21
-5.611085999999999
 31
0.0
  0
LINE
  5
965
330
1F
100
AcDbEntity
  8
1
  6
CONTINUOUS
370
50
 62
4
100
AcDbLine
 10
70.704819
 20
2.639593
 30
0.0
 11
70.60215
 21
2.671261
 31
0.0
  0
LINE
  5
966
330
1F
100
AcDbEntity
  8
1
  6
CONTINUOUS
370
50
 62
4
100
AcDbLine
 10
73.112297
 20
4.017325
 30
0.0
 11
72.779541
 21
4.119742
 31
0.0
  0
LINE
  5
967
330
1F
100
AcDbEntity
  8
1
  6
CONTINUOUS
370
50
 62
4
100
AcDbLine
 10
63.998932
 20
5.632632999999999
 30
0.0
 11
63.768013
 21
5.703603999999999
 31
0.0
  0
LINE
  5
968
330
1F
100
AcDbEntity
  8
1
  6
CONTINUOUS
370
50
 62
4
100
AcDbLine
 10
82.386719
 20
5.597646999999999
 30
0.0
 11
81.918976
 21
5.740868
 31
0.0
  0
LINE
  5
969
330
1F
100
AcDbEntity
  8
1
  6
CONTINUOUS
370
50
 62
4
100
AcDbLine
 10
73.226692
 20
-2.825191
 30
0.0
 11
72.399666
 21
-2.584478
 31
0.0
  0
LINE
  5
96A
330
1F
100
AcDbEntity
  8
1
  6
CONTINUOUS
370
50
 62
4
100
AcDbLine
 10
73.235413
 20
-2.832514
 30
0.0
 11
72.418365
 21
-2.594908
 31
0.0
  0
LINE
  5
96B
330
1F
100
AcDbEntity
  8
1
  6
CONTINUOUS
370
50
 62
4
100
AcDbLine
 10
83.17478899999999
 20
-2.832914
 30
0.0
 11
82.35752099999999
 21
-2.596321
 31
0.0
  0
LINE
  5
96C
330
1F
100
AcDbEntity
  8
1
  6
CONTINUOUS
370
50
 62
4
100
AcDbLine
 10
83.163956
 20
-2.824183
 30
0.0
 11
82.33358799999999
 21
-2.584083
 31
0.0
  0
LINE
  5
96D
330
1F
100
AcDbEntity
  8
1
  6
CONTINUOUS
370
50
 62
4
100
AcDbLine
 10
68.456955
 20
-5.790132
 30
0.0
 11
67.87900499999999
 21
-5.623145999999999
 31
0.0
  0
LINE
  5
96E
330
1F
100
AcDbEntity
  8
1
  6
CONTINUOUS
370
50
 62
4
100
AcDbLine
 10
72.193024
 20
5.68169
 30
0.0
 11
71.885773
 21
5.769933
 31
0.0
  0
LINE
  5
96F
330
1F
100
AcDbEntity
  8
1
  6
CONTINUOUS
370
50
 62
4
100
AcDbLine
 10
82.851913
 20
4.080338999999999
 30
0.0
 11
82.511444
 21
4.177640999999999
 31
0.0
  0
LINE
  5
970
330
1F
100
AcDbEntity
  8
1
  6
CONTINUOUS
370
50
 62
4
100
AcDbLine
 10
88.255348
 20
-5.776017
 30
0.0
 11
87.905098
 21
-5.678122999999999
 31
0.0
  0
LINE
  5
971
330
1F
100
AcDbEntity
  8
1
  6
CONTINUOUS
370
50
 62
4
100
AcDbLine
 10
78.36121399999999
 20
-5.78581
 30
0.0
 11
78.026764
 21
-5.692524
 31
0.0
  0
LINE
  5
972
330
1F
100
AcDbEntity
  8
1
  6
CONTINUOUS
370
50
 62
4
100
AcDbLine
 10
72.779541
 20
4.119742
 30
0.0
 11
72.44678499999999
 21
4.211373
 31
0.0
  0
LINE
  5
973
330
1F
100
AcDbEntity
  8
1
  6
CONTINUOUS
370
50
 62
4
100
AcDbLine
 10
73.23840299999999
 20
5.676406
 30
0.0
 11
72.71161699999999
 21
5.817648999999999
 31
0.0
  0
LINE
  5
974
330
1F
100
AcDbEntity
  8
1
  6
CONTINUOUS
370
50
 62
4
100
AcDbLine
 10
79.450035
 20
-5.800109
 30
0.0
 11
79.120735
 21
-5.713268999999999
 31
0.0
  0
LINE
  5
975
330
1F
100
AcDbEntity
  8
1
  6
CONTINUOUS
370
50
 62
4
100
AcDbLine
 10
89.470421
 20
-5.819637
 30
0.0
 11
89.006294
 21
-5.697283
 31
0.0
  0
LINE
  5
976
330
1F
100
AcDbEntity
  8
1
  6
CONTINUOUS
370
50
 62
4
100
AcDbLine
 10
83.05439799999999
 20
5.713312
 30
0.0
 11
82.658424
 21
5.81598
 31
0.0
  0
LINE
  5
977
330
1F
100
AcDbEntity
  8
1
  6
CONTINUOUS
370
50
 62
4
100
AcDbLine
 10
82.511444
 20
4.177640999999999
 30
0.0
 11
82.170975
 21
4.263176
 31
0.0
  0
LINE
  5
978
330
1F
100
AcDbEntity
  8
1
  6
CONTINUOUS
370
50
 62
4
100
AcDbLine
 10
81.918976
 20
5.740868
 30
0.0
 11
81.456642
 21
5.853060999999999
 31
0.0
  0
LINE
  5
979
330
1F
100
AcDbEntity
  8
1
  6
CONTINUOUS
370
50
 62
4
100
AcDbLine
 10
69.75348699999999
 20
-5.854305999999999
 30
0.0
 11
69.288857
 21
-5.741644
 31
0.0
  0
LINE
  5
97A
330
1F
100
AcDbEntity
  8
1
  6
CONTINUOUS
370
50
 62
4
100
AcDbLine
 10
72.44678499999999
 20
4.211373
 30
0.0
 11
72.114037
 21
4.292026
 31
0.0
  0
LINE
  5
97B
330
1F
100
AcDbEntity
  8
1
  6
CONTINUOUS
370
50
 62
4
100
AcDbLine
 10
71.885773
 20
5.769933
 30
0.0
 11
71.52947999999999
 21
5.854216
 31
0.0
  0
LINE
  5
97C
330
1F
100
AcDbEntity
  8
1
  6
CONTINUOUS
370
50
 62
4
100
AcDbLine
 10
88.60621599999999
 20
-5.856425
 30
0.0
 11
88.255348
 21
-5.776017
 31
0.0
  0
LINE
  5
97D
330
1F
100
AcDbEntity
  8
1
  6
CONTINUOUS
370
50
 62
4
100
AcDbLine
 10
78.741997
 20
-5.871227999999999
 30
0.0
 11
78.36121399999999
 21
-5.78581
 31
0.0
  0
LINE
  5
97E
330
1F
100
AcDbEntity
  8
1
  6
CONTINUOUS
370
50
 62
4
100
AcDbLine
 10
79.779213
 20
-5.87149
 30
0.0
 11
79.450035
 21
-5.800109
 31
0.0
  0
LINE
  5
97F
330
1F
100
AcDbEntity
  8
1
  6
CONTINUOUS
370
50
 62
4
100
AcDbLine
 10
82.170975
 20
4.263176
 30
0.0
 11
81.83049799999999
 21
4.336805
 31
0.0
  0
LINE
  5
980
330
1F
100
AcDbEntity
  8
1
  6
CONTINUOUS
370
50
 62
4
100
AcDbLine
 10
63.18198
 20
-5.732697
 30
0.0
 11
63.037769
 21
-5.702094
 31
0.0
  0
LINE
  5
981
330
1F
100
AcDbEntity
  8
1
  6
CONTINUOUS
370
50
 62
4
100
AcDbLine
 10
69.025612
 20
-5.909129999999999
 30
0.0
 11
68.456955
 21
-5.790132
 31
0.0
  0
LINE
  5
982
330
1F
100
AcDbEntity
  8
1
  6
CONTINUOUS
370
50
 62
4
100
AcDbLine
 10
72.114037
 20
4.292026
 30
0.0
 11
71.78128099999999
 21
4.361092999999999
 31
0.0
  0
LINE
  5
983
330
1F
100
AcDbEntity
  8
1
  6
CONTINUOUS
370
50
 62
4
100
AcDbLine
 10
82.658424
 20
5.81598
 30
0.0
 11
82.261681
 21
5.896249
 31
0.0
  0
LINE
  5
984
330
1F
100
AcDbEntity
  8
1
  6
CONTINUOUS
370
50
 62
4
100
AcDbLine
 10
89.931343
 20
-5.911257
 30
0.0
 11
89.470421
 21
-5.819637
 31
0.0
  0
LINE
  5
985
330
1F
100
AcDbEntity
  8
1
  6
CONTINUOUS
370
50
 62
4
100
AcDbLine
 10
72.71161699999999
 20
5.817648999999999
 30
0.0
 11
72.190933
 21
5.919188999999999
 31
0.0
  0
LINE
  5
986
330
1F
100
AcDbEntity
  8
1
  6
CONTINUOUS
370
50
 62
4
100
AcDbLine
 10
81.83049799999999
 20
4.336805
 30
0.0
 11
81.490028
 21
4.398286
 31
0.0
  0
LINE
  5
987
330
1F
100
AcDbEntity
  8
1
  6
CONTINUOUS
370
50
 62
4
100
AcDbLine
 10
88.956711
 20
-5.919187
 30
0.0
 11
88.60621599999999
 21
-5.856425
 31
0.0
  0
LINE
  5
988
330
1F
100
AcDbEntity
  8
1
  6
CONTINUOUS
370
50
 62
4
100
AcDbLine
 10
71.52947999999999
 20
5.854216
 30
0.0
 11
71.123138
 21
5.926616
 31
0.0
  0
LINE
  5
989
330
1F
100
AcDbEntity
  8
1
  6
CONTINUOUS
370
50
 62
4
100
AcDbLine
 10
81.456642
 20
5.853060999999999
 30
0.0
 11
81.002724
 21
5.933443
 31
0.0
  0
LINE
  5
98A
330
1F
100
AcDbEntity
  8
1
  6
CONTINUOUS
370
50
 62
4
100
AcDbLine
 10
63.768013
 20
5.703603999999999
 30
0.0
 11
63.543941
 21
5.742563
 31
0.0
  0
LINE
  5
98B
330
1F
100
AcDbEntity
  8
1
  6
CONTINUOUS
370
50
 62
4
100
AcDbLine
 10
70.22017699999999
 20
-5.934807
 30
0.0
 11
69.75348699999999
 21
-5.854305999999999
 31
0.0
  0
LINE
  5
98C
330
1F
100
AcDbEntity
  8
1
  6
CONTINUOUS
370
50
 62
4
100
AcDbLine
 10
80.108002
 20
-5.927372
 30
0.0
 11
79.779213
 21
-5.87149
 31
0.0
  0
LINE
  5
98D
330
1F
100
AcDbEntity
  8
1
  6
CONTINUOUS
370
50
 62
4
100
AcDbLine
 10
71.78128099999999
 20
4.361092999999999
 30
0.0
 11
71.448532
 21
4.417212999999999
 31
0.0
  0
LINE
  5
98E
330
1F
100
AcDbEntity
  8
1
  6
CONTINUOUS
370
50
 62
4
100
AcDbLine
 10
79.16733599999999
 20
-5.940764
 30
0.0
 11
78.741997
 21
-5.871227999999999
 31
0.0
  0
LINE
  5
98F
330
1F
100
AcDbEntity
  8
1
  6
CONTINUOUS
370
50
 62
4
100
AcDbLine
 10
82.261681
 20
5.896249
 30
0.0
 11
81.86559299999999
 21
5.95385
 31
0.0
  0
LINE
  5
990
330
1F
100
AcDbEntity
  8
1
  6
CONTINUOUS
370
50
 62
4
100
AcDbLine
 10
81.490028
 20
4.398286
 30
0.0
 11
81.149551
 21
4.447378
 31
0.0
  0
LINE
  5
991
330
1F
100
AcDbEntity
  8
1
  6
CONTINUOUS
370
50
 62
4
100
AcDbLine
 10
89.285439
 20
-5.962105999999999
 30
0.0
 11
88.956711
 21
-5.919187
 31
0.0
  0
LINE
  5
992
330
1F
100
AcDbEntity
  8
1
  6
CONTINUOUS
370
50
 62
4
100
AcDbLine
 10
71.448532
 20
4.417212999999999
 30
0.0
 11
71.115791
 21
4.460535
 31
0.0
  0
LINE
  5
993
330
1F
100
AcDbEntity
  8
1
  6
CONTINUOUS
370
50
 62
4
100
AcDbLine
 10
69.595451
 20
-5.979144
 30
0.0
 11
69.025612
 21
-5.909129999999999
 31
0.0
  0
LINE
  5
994
330
1F
100
AcDbEntity
  8
1
  6
CONTINUOUS
370
50
 62
4
100
AcDbLine
 10
80.43594399999999
 20
-5.967582
 30
0.0
 11
80.108002
 21
-5.927372
 31
0.0
  0
LINE
  5
995
330
1F
100
AcDbEntity
  8
1
  6
CONTINUOUS
370
50
 62
4
100
AcDbLine
 10
72.190933
 20
5.919188999999999
 30
0.0
 11
71.677132
 21
5.979883999999999
 31
0.0
  0
LINE
  5
996
330
1F
100
AcDbEntity
  8
1
  6
CONTINUOUS
370
50
 62
4
100
AcDbLine
 10
71.123138
 20
5.926616
 30
0.0
 11
70.669426
 21
5.978132
 31
0.0
  0
LINE
  5
997
330
1F
100
AcDbEntity
  8
1
  6
CONTINUOUS
370
50
 62
4
100
AcDbLine
 10
81.002724
 20
5.933443
 30
0.0
 11
80.548515
 21
5.982438999999999
 31
0.0
  0
LINE
  5
998
330
1F
100
AcDbEntity
  8
1
  6
CONTINUOUS
370
50
 62
4
100
AcDbLine
 10
81.149551
 20
4.447378
 30
0.0
 11
80.80908199999999
 21
4.483692
 31
0.0
  0
LINE
  5
999
330
1F
100
AcDbEntity
  8
1
  6
CONTINUOUS
370
50
 62
4
100
AcDbLine
 10
63.32691999999999
 20
-5.748015
 30
0.0
 11
63.18198
 21
-5.732697
 31
0.0
  0
LINE
  5
99A
330
1F
100
AcDbEntity
  8
1
  6
CONTINUOUS
370
50
 62
4
100
AcDbLine
 10
70.687874
 20
-5.983379999999999
 30
0.0
 11
70.22017699999999
 21
-5.934807
 31
0.0
  0
LINE
  5
99B
330
1F
100
AcDbEntity
  8
1
  6
CONTINUOUS
370
50
 62
4
100
AcDbLine
 10
79.627411
 20
-5.985861
 30
0.0
 11
79.16733599999999
 21
-5.940764
 31
0.0
  0
LINE
  5
99C
330
1F
100
AcDbEntity
  8
1
  6
CONTINUOUS
370
50
 62
4
100
AcDbLine
 10
71.115791
 20
4.460535
 30
0.0
 11
70.78304299999999
 21
4.491327
 31
0.0
  0
LINE
  5
99D
330
1F
100
AcDbEntity
  8
1
  6
CONTINUOUS
370
50
 62
4
100
AcDbLine
 10
81.86559299999999
 20
5.95385
 30
0.0
 11
81.47159599999999
 21
5.988512
 31
0.0
  0
LINE
  5
99E
330
1F
100
AcDbEntity
  8
1
  6
CONTINUOUS
370
50
 62
4
100
AcDbLine
 10
89.57017499999999
 20
-5.986543999999999
 30
0.0
 11
89.285439
 21
-5.962105999999999
 31
0.0
  0
LINE
  5
99F
330
1F
100
AcDbEntity
  8
1
  6
CONTINUOUS
370
50
 62
4
100
AcDbLine
 10
80.761757
 20
-5.991861999999999
 30
0.0
 11
80.43594399999999
 21
-5.967582
 31
0.0
  0
LINE
  5
9A0
330
1F
100
AcDbEntity
  8
1
  6
CONTINUOUS
370
50
 62
4
100
AcDbLine
 10
80.80908199999999
 20
4.483692
 30
0.0
 11
80.46861299999999
 21
4.506488
 31
0.0
  0
LINE
  5
9A1
330
1F
100
AcDbEntity
  8
1
  6
CONTINUOUS
370
50
 62
4
100
AcDbLine
 10
70.78304299999999
 20
4.491327
 30
0.0
 11
70.450294
 21
4.509861
 31
0.0
  0
LINE
  5
9A2
330
1F
100
AcDbEntity
  8
1
  6
CONTINUOUS
370
50
 62
4
100
AcDbLine
 10
89.80742599999999
 20
-5.997507
 30
0.0
 11
89.57017499999999
 21
-5.986543999999999
 31
0.0
  0
LINE
  5
9A3
330
1F
100
AcDbEntity
  8
1
  6
CONTINUOUS
370
50
 62
4
100
AcDbLine
 10
70.669426
 20
5.978132
 30
0.0
 11
70.17182199999999
 21
5.99975
 31
0.0
  0
LINE
  5
9A4
330
1F
100
AcDbEntity
  8
1
  6
CONTINUOUS
370
50
 62
4
100
AcDbLine
 10
71.677132
 20
5.979883999999999
 30
0.0
 11
71.155548
 21
5.999918999999999
 31
0.0
  0
LINE
  5
9A5
330
1F
100
AcDbEntity
  8
1
  6
CONTINUOUS
370
50
 62
4
100
AcDbLine
 10
80.548515
 20
5.982438999999999
 30
0.0
 11
80.09067499999999
 21
5.999909
 31
0.0
  0
LINE
  5
9A6
330
1F
100
AcDbEntity
  8
1
  6
CONTINUOUS
370
50
 62
4
100
AcDbLine
 10
70.17182199999999
 20
-5.99975
 30
0.0
 11
69.595451
 21
-5.979144
 31
0.0
  0
LINE
  5
9A7
330
1F
100
AcDbEntity
  8
1
  6
CONTINUOUS
370
50
 62
4
100
AcDbLine
 10
71.155548
 20
-5.999918999999999
 30
0.0
 11
70.687874
 21
-5.983379999999999
 31
0.0
  0
LINE
  5
9A8
330
1F
100
AcDbEntity
  8
1
  6
CONTINUOUS
370
50
 62
4
100
AcDbLine
 10
80.09067499999999
 20
-5.999909
 30
0.0
 11
79.627411
 21
-5.985861
 31
0.0
  0
LINE
  5
9A9
330
1F
100
AcDbEntity
  8
1
  6
CONTINUOUS
370
50
 62
4
100
AcDbLine
 10
81.47159599999999
 20
5.988512
 30
0.0
 11
81.083771
 21
6.000014999999999
 31
0.0
  0
LINE
  5
9AA
330
1F
100
AcDbEntity
  8
1
  6
CONTINUOUS
370
50
 62
4
100
AcDbLine
 10
80.46861299999999
 20
4.506488
 30
0.0
 11
80.128151
 21
4.515933
 31
0.0
  0
LINE
  5
9AB
330
1F
100
AcDbEntity
  8
1
  6
CONTINUOUS
370
50
 62
4
100
AcDbLine
 10
81.083771
 20
-6.000014999999999
 30
0.0
 11
80.761757
 21
-5.991861999999999
 31
0.0
  0
LINE
  5
9AC
330
1F
100
AcDbEntity
  8
1
  6
CONTINUOUS
370
50
 62
4
100
AcDbLine
 10
63.543941
 20
5.742563
 30
0.0
 11
63.32691999999999
 21
5.748015
 31
0.0
  0
LINE
  5
9AD
330
1F
100
AcDbEntity
  8
1
  6
CONTINUOUS
370
50
 62
4
100
AcDbLine
 10
70.450294
 20
4.509861
 30
0.0
 11
70.117538
 21
4.516268999999999
 31
0.0
  0
LINE
  5
9AE
330
1F
100
AcDbEntity
  8
1
  6
CONTINUOUS
370
50
 62
4
100
AcDbLine
 10
89.993736
 20
-6.0
 30
0.0
 11
89.80742599999999
 21
-5.997507
 31
0.0
  0
LINE
  5
9AF
330
1F
100
AcDbEntity
  8
1
  6
CONTINUOUS
370
50
 62
4
100
AcDbLine
 10
65.99076099999999
 20
4.56266
 30
0.0
 11
65.981529
 21
4.562764
 31
0.0
  0
LINE
  5
9B0
330
1F
100
AcDbEntity
  8
1
  6
CONTINUOUS
370
50
 62
4
100
AcDbLine
 10
65.97229
 20
4.562867
 30
0.0
 11
65.963051
 21
4.562971
 31
0.0
  0
LINE
  5
9B1
330
1F
100
AcDbEntity
  8
1
  6
CONTINUOUS
370
50
 62
4
100
AcDbLine
 10
65.953819
 20
4.563073999999999
 30
0.0
 11
65.94458
 21
4.563178
 31
0.0
  0
LINE
  5
9B2
330
1F
100
AcDbEntity
  8
1
  6
CONTINUOUS
370
50
 62
4
100
AcDbLine
 10
65.963051
 20
4.562971
 30
0.0
 11
65.953819
 21
4.563073999999999
 31
0.0
  0
LINE
  5
9B3
330
1F
100
AcDbEntity
  8
1
  6
CONTINUOUS
370
50
 62
4
100
AcDbLine
 10
66.0
 20
4.562557
 30
0.0
 11
65.99076099999999
 21
4.56266
 31
0.0
  0
LINE
  5
9B4
330
1F
100
AcDbEntity
  8
1
  6
CONTINUOUS
370
50
 62
4
100
AcDbLine
 10
65.981529
 20
4.562764
 30
0.0
 11
65.97229
 21
4.562867
 31
0.0
  0
LINE
  5
9B5
330
1F
100
AcDbEntity
  8
1
  6
CONTINUOUS
370
50
 62
4
100
AcDbLine
 10
81.085976
 20
-5.999963
 30
0.0
 11
80.064056
 21
-5.999959
 31
0.0
  0
LINE
  5
9B6
330
1F
100
AcDbEntity
  8
1
  6
CONTINUOUS
370
50
 62
4
100
AcDbLine
 10
71.161125
 20
-5.999921
 30
0.0
 11
70.123955
 21
-5.999917
 31
0.0
  0
LINE
  5
9B7
330
1F
100
AcDbEntity
  8
1
  6
CONTINUOUS
370
50
 62
4
100
AcDbLine
 10
89.991829
 20
-6.0
 30
0.0
 11
90.0
 21
-6.0
 31
0.0
  0
LINE
  5
9B8
330
1F
100
AcDbEntity
  8
1
  6
CONTINUOUS
370
50
 62
4
100
AcDbLine
 10
54.0
 20
-5.74995
 30
0.0
 11
63.399555
 21
-5.74995
 31
0.0
  0
LINE
  5
9B9
330
1F
100
AcDbEntity
  8
1
  6
CONTINUOUS
370
50
 62
4
100
AcDbLine
 10
54.0
 20
5.74995
 30
0.0
 11
63.399555
 21
5.74995
 31
0.0
  0
LINE
  5
9BA
330
1F
100
AcDbEntity
  8
1
  6
CONTINUOUS
370
50
 62
4
100
AcDbLine
 10
80.064056
 20
5.999959
 30
0.0
 11
81.085976
 21
5.999963
 31
0.0
  0
LINE
  5
9BB
330
1F
100
AcDbEntity
  8
1
  6
CONTINUOUS
370
50
 62
4
100
AcDbLine
 10
70.123955
 20
5.999917
 30
0.0
 11
71.161125
 21
5.999921
 31
0.0
  0
LINE
  5
9BC
330
1F
100
AcDbEntity
  8
1
  6
CONTINUOUS
370
50
 62
4
100
AcDbLine
 10
89.402641
 20
5.09263
 30
0.0
 11
89.466309
 21
5.093183
 31
0.0
  0
LINE
  5
9BD
330
1F
100
AcDbEntity
  8
1
  6
CONTINUOUS
370
50
 62
4
100
AcDbLine
 10
89.33357199999999
 20
5.091989
 30
0.0
 11
89.402641
 21
5.09263
 31
0.0
  0
LINE
  5
9BE
330
1F
100
AcDbEntity
  8
1
  6
CONTINUOUS
370
50
 62
4
100
AcDbLine
 10
79.78768199999999
 20
4.5123
 30
0.0
 11
80.128151
 21
4.515933
 31
0.0
  0
LINE
  5
9BF
330
1F
100
AcDbEntity
  8
1
  6
CONTINUOUS
370
50
 62
4
100
AcDbLine
 10
89.466309
 20
5.093183
 30
0.0
 11
89.524399
 21
5.093807
 31
0.0
  0
LINE
  5
9C0
330
1F
100
AcDbEntity
  8
1
  6
CONTINUOUS
370
50
 62
4
100
AcDbLine
 10
87.65464
 20
-0.02571
 30
0.0
 11
89.987389
 21
-0.000138
 31
0.0
  0
LINE
  5
9C1
330
1F
100
AcDbEntity
  8
1
  6
CONTINUOUS
370
50
 62
4
100
AcDbLine
 10
65.764488
 20
-4.56522
 30
0.0
 11
66.0
 21
-4.562557
 31
0.0
  0
LINE
  5
9C2
330
1F
100
AcDbEntity
  8
1
  6
CONTINUOUS
370
50
 62
4
100
AcDbLine
 10
65.528976
 20
-4.567949
 30
0.0
 11
65.764488
 21
-4.56522
 31
0.0
  0
LINE
  5
9C3
330
1F
100
AcDbEntity
  8
1
  6
CONTINUOUS
370
50
 62
4
100
AcDbLine
 10
65.293465
 20
-4.570743
 30
0.0
 11
65.528976
 21
-4.567949
 31
0.0
  0
LINE
  5
9C4
330
1F
100
AcDbEntity
  8
1
  6
CONTINUOUS
370
50
 62
4
100
AcDbLine
 10
89.260307
 20
5.091114999999999
 30
0.0
 11
89.33357199999999
 21
5.091989
 31
0.0
  0
LINE
  5
9C5
330
1F
100
AcDbEntity
  8
1
  6
CONTINUOUS
370
50
 62
4
100
AcDbLine
 10
65.057945
 20
-4.573601
 30
0.0
 11
65.293465
 21
-4.570743
 31
0.0
  0
LINE
  5
9C6
330
1F
100
AcDbEntity
  8
1
  6
CONTINUOUS
370
50
 62
4
100
AcDbLine
 10
64.822441
 20
-4.576522
 30
0.0
 11
65.057945
 21
-4.573601
 31
0.0
  0
LINE
  5
9C7
330
1F
100
AcDbEntity
  8
1
  6
CONTINUOUS
370
50
 62
4
100
AcDbLine
 10
64.58693699999999
 20
-4.579505999999999
 30
0.0
 11
64.822441
 21
-4.576522
 31
0.0
  0
LINE
  5
9C8
330
1F
100
AcDbEntity
  8
1
  6
CONTINUOUS
370
50
 62
4
100
AcDbLine
 10
64.35144
 20
-4.582552
 30
0.0
 11
64.58693699999999
 21
-4.579505999999999
 31
0.0
  0
LINE
  5
9C9
330
1F
100
AcDbEntity
  8
1
  6
CONTINUOUS
370
50
 62
4
100
AcDbLine
 10
89.804497
 20
5.997425
 30
0.0
 11
90.0
 21
5.999994999999999
 31
0.0
  0
LINE
  5
9CA
330
1F
100
AcDbEntity
  8
1
  6
CONTINUOUS
370
50
 62
4
100
AcDbLine
 10
63.32691999999999
 20
-5.748015
 30
0.0
 11
63.512566
 21
-5.745393
 31
0.0
  0
LINE
  5
9CB
330
1F
100
AcDbEntity
  8
1
  6
CONTINUOUS
370
50
 62
4
100
AcDbLine
 10
65.764488
 20
3.49581
 30
0.0
 11
66.0
 21
3.499285
 31
0.0
  0
LINE
  5
9CC
330
1F
100
AcDbEntity
  8
1
  6
CONTINUOUS
370
50
 62
4
100
AcDbLine
 10
65.528976
 20
3.492243
 30
0.0
 11
65.764488
 21
3.49581
 31
0.0
  0
LINE
  5
9CD
330
1F
100
AcDbEntity
  8
1
  6
CONTINUOUS
370
50
 62
4
100
AcDbLine
 10
65.293465
 20
3.488586
 30
0.0
 11
65.528976
 21
3.492243
 31
0.0
  0
LINE
  5
9CE
330
1F
100
AcDbEntity
  8
1
  6
CONTINUOUS
370
50
 62
4
100
AcDbLine
 10
65.057945
 20
3.484839
 30
0.0
 11
65.293465
 21
3.488586
 31
0.0
  0
LINE
  5
9CF
330
1F
100
AcDbEntity
  8
1
  6
CONTINUOUS
370
50
 62
4
100
AcDbLine
 10
64.822441
 20
3.481002
 30
0.0
 11
65.057945
 21
3.484839
 31
0.0
  0
LINE
  5
9D0
330
1F
100
AcDbEntity
  8
1
  6
CONTINUOUS
370
50
 62
4
100
AcDbLine
 10
89.184097
 20
5.08986
 30
0.0
 11
89.260307
 21
5.091114999999999
 31
0.0
  0
LINE
  5
9D1
330
1F
100
AcDbEntity
  8
1
  6
CONTINUOUS
370
50
 62
4
100
AcDbLine
 10
64.58693699999999
 20
3.477075
 30
0.0
 11
64.822441
 21
3.481002
 31
0.0
  0
LINE
  5
9D2
330
1F
100
AcDbEntity
  8
1
  6
CONTINUOUS
370
50
 62
4
100
AcDbLine
 10
89.524399
 20
5.093807
 30
0.0
 11
89.584938
 21
5.094829
 31
0.0
  0
LINE
  5
9D3
330
1F
100
AcDbEntity
  8
1
  6
CONTINUOUS
370
50
 62
4
100
AcDbLine
 10
64.35144
 20
3.473059
 30
0.0
 11
64.58693699999999
 21
3.477075
 31
0.0
  0
LINE
  5
9D4
330
1F
100
AcDbEntity
  8
1
  6
CONTINUOUS
370
50
 62
4
100
AcDbLine
 10
69.78478199999999
 20
4.510339
 30
0.0
 11
70.117538
 21
4.516268999999999
 31
0.0
  0
LINE
  5
9D5
330
1F
100
AcDbEntity
  8
1
  6
CONTINUOUS
370
50
 62
4
100
AcDbLine
 10
89.106201
 20
5.088083999999999
 30
0.0
 11
89.184097
 21
5.08986
 31
0.0
  0
LINE
  5
9D6
330
1F
100
AcDbEntity
  8
1
  6
CONTINUOUS
370
50
 62
4
100
AcDbLine
 10
64.24748199999999
 20
-4.584997
 30
0.0
 11
64.35144
 21
-4.582552
 31
0.0
  0
LINE
  5
9D7
330
1F
100
AcDbEntity
  8
1
  6
CONTINUOUS
370
50
 62
4
100
AcDbLine
 10
81.083771
 20
-6.000014999999999
 30
0.0
 11
81.428085
 21
-5.990936
 31
0.0
  0
LINE
  5
9D8
330
1F
100
AcDbEntity
  8
1
  6
CONTINUOUS
370
50
 62
4
100
AcDbLine
 10
89.584938
 20
5.094829
 30
0.0
 11
89.644463
 21
5.096577
 31
0.0
  0
LINE
  5
9D9
330
1F
100
AcDbEntity
  8
1
  6
CONTINUOUS
370
50
 62
4
100
AcDbLine
 10
89.02877
 20
5.085751999999999
 30
0.0
 11
89.106201
 21
5.088083999999999
 31
0.0
  0
LINE
  5
9DA
330
1F
100
AcDbEntity
  8
1
  6
CONTINUOUS
370
50
 62
4
100
AcDbLine
 10
64.25103
 20
3.470002
 30
0.0
 11
64.35144
 21
3.473059
 31
0.0
  0
LINE
  5
9DB
330
1F
100
AcDbEntity
  8
1
  6
CONTINUOUS
370
50
 62
4
100
AcDbLine
 10
79.58300799999999
 20
5.98286
 30
0.0
 11
80.09067499999999
 21
5.999909
 31
0.0
  0
LINE
  5
9DC
330
1F
100
AcDbEntity
  8
1
  6
CONTINUOUS
370
50
 62
4
100
AcDbLine
 10
69.595451
 20
5.979144
 30
0.0
 11
70.17182199999999
 21
5.99975
 31
0.0
  0
LINE
  5
9DD
330
1F
100
AcDbEntity
  8
1
  6
CONTINUOUS
370
50
 62
4
100
AcDbLine
 10
88.95243099999999
 20
5.082869
 30
0.0
 11
89.02877
 21
5.085751999999999
 31
0.0
  0
LINE
  5
9DE
330
1F
100
AcDbEntity
  8
1
  6
CONTINUOUS
370
50
 62
4
100
AcDbLine
 10
71.155548
 20
-5.999918999999999
 30
0.0
 11
71.677132
 21
-5.979883999999999
 31
0.0
  0
LINE
  5
9DF
330
1F
100
AcDbEntity
  8
1
  6
CONTINUOUS
370
50
 62
4
100
AcDbLine
 10
64.143616
 20
-4.589607
 30
0.0
 11
64.24748199999999
 21
-4.584997
 31
0.0
  0
LINE
  5
9E0
330
1F
100
AcDbEntity
  8
1
  6
CONTINUOUS
370
50
 62
4
100
AcDbLine
 10
88.877037
 20
5.079419
 30
0.0
 11
88.95243099999999
 21
5.082869
 31
0.0
  0
LINE
  5
9E1
330
1F
100
AcDbEntity
  8
1
  6
CONTINUOUS
370
50
 62
4
100
AcDbLine
 10
89.552528
 20
5.985383
 30
0.0
 11
89.804497
 21
5.997425
 31
0.0
  0
LINE
  5
9E2
330
1F
100
AcDbEntity
  8
1
  6
CONTINUOUS
370
50
 62
4
100
AcDbLine
 10
79.447212
 20
4.495865
 30
0.0
 11
79.78768199999999
 21
4.5123
 31
0.0
  0
LINE
  5
9E3
330
1F
100
AcDbEntity
  8
1
  6
CONTINUOUS
370
50
 62
4
100
AcDbLine
 10
89.644463
 20
5.096577
 30
0.0
 11
89.70343799999999
 21
5.099671
 31
0.0
  0
LINE
  5
9E4
330
1F
100
AcDbEntity
  8
1
  6
CONTINUOUS
370
50
 62
4
100
AcDbLine
 10
88.802475
 20
5.075381999999999
 30
0.0
 11
88.877037
 21
5.079419
 31
0.0
  0
LINE
  5
9E5
330
1F
100
AcDbEntity
  8
1
  6
CONTINUOUS
370
50
 62
4
100
AcDbLine
 10
69.452034
 20
4.491798999999999
 30
0.0
 11
69.78478199999999
 21
4.510339
 31
0.0
  0
LINE
  5
9E6
330
1F
100
AcDbEntity
  8
1
  6
CONTINUOUS
370
50
 62
4
100
AcDbLine
 10
64.150688
 20
3.464274
 30
0.0
 11
64.25103
 21
3.470002
 31
0.0
  0
LINE
  5
9E7
330
1F
100
AcDbEntity
  8
1
  6
CONTINUOUS
370
50
 62
4
100
AcDbLine
 10
88.7286
 20
5.070741
 30
0.0
 11
88.802475
 21
5.075381999999999
 31
0.0
  0
LINE
  5
9E8
330
1F
100
AcDbEntity
  8
1
  6
CONTINUOUS
370
50
 62
4
100
AcDbLine
 10
64.040024
 20
-4.596371
 30
0.0
 11
64.143616
 21
-4.589607
 31
0.0
  0
LINE
  5
9E9
330
1F
100
AcDbEntity
  8
1
  6
CONTINUOUS
370
50
 62
4
100
AcDbLine
 10
88.655289
 20
5.065477
 30
0.0
 11
88.7286
 21
5.070741
 31
0.0
  0
LINE
  5
9EA
330
1F
100
AcDbEntity
  8
1
  6
CONTINUOUS
370
50
 62
4
100
AcDbLine
 10
81.428085
 20
-5.990936
 30
0.0
 11
81.77780899999999
 21
-5.963544
 31
0.0
  0
LINE
  5
9EB
330
1F
100
AcDbEntity
  8
1
  6
CONTINUOUS
370
50
 62
4
100
AcDbLine
 10
88.582413
 20
5.059571
 30
0.0
 11
88.655289
 21
5.065477
 31
0.0
  0
LINE
  5
9EC
330
1F
100
AcDbEntity
  8
1
  6
CONTINUOUS
370
50
 62
4
100
AcDbLine
 10
64.050598
 20
3.455851
 30
0.0
 11
64.150688
 21
3.464274
 31
0.0
  0
LINE
  5
9ED
330
1F
100
AcDbEntity
  8
1
  6
CONTINUOUS
370
50
 62
4
100
AcDbLine
 10
79.106735
 20
4.466755
 30
0.0
 11
79.447212
 21
4.495865
 31
0.0
  0
LINE
  5
9EE
330
1F
100
AcDbEntity
  8
1
  6
CONTINUOUS
370
50
 62
4
100
AcDbLine
 10
63.93692
 20
-4.605275
 30
0.0
 11
64.040024
 21
-4.596371
 31
0.0
  0
LINE
  5
9EF
330
1F
100
AcDbEntity
  8
1
  6
CONTINUOUS
370
50
 62
4
100
AcDbLine
 10
89.248154
 20
5.958018999999999
 30
0.0
 11
89.552528
 21
5.985383
 31
0.0
  0
LINE
  5
9F0
330
1F
100
AcDbEntity
  8
1
  6
CONTINUOUS
370
50
 62
4
100
AcDbLine
 10
88.509834
 20
5.053007
 30
0.0
 11
88.582413
 21
5.059571
 31
0.0
  0
LINE
  5
9F1
330
1F
100
AcDbEntity
  8
1
  6
CONTINUOUS
370
50
 62
4
100
AcDbLine
 10
69.119278
 20
4.46038
 30
0.0
 11
69.452034
 21
4.491798999999999
 31
0.0
  0
LINE
  5
9F2
330
1F
100
AcDbEntity
  8
1
  6
CONTINUOUS
370
50
 62
4
100
AcDbLine
 10
89.70343799999999
 20
5.099671
 30
0.0
 11
89.76242099999999
 21
5.105273
 31
0.0
  0
LINE
  5
9F3
330
1F
100
AcDbEntity
  8
1
  6
CONTINUOUS
370
50
 62
4
100
AcDbLine
 10
88.437416
 20
5.045763
 30
0.0
 11
88.509834
 21
5.053007
 31
0.0
  0
LINE
  5
9F4
330
1F
100
AcDbEntity
  8
1
  6
CONTINUOUS
370
50
 62
4
100
AcDbLine
 10
79.082436
 20
5.92904
 30
0.0
 11
79.58300799999999
 21
5.98286
 31
0.0
  0
LINE
  5
9F5
330
1F
100
AcDbEntity
  8
1
  6
CONTINUOUS
370
50
 62
4
100
AcDbLine
 10
63.83449599999999
 20
-4.616308
 30
0.0
 11
63.93692
 21
-4.605275
 31
0.0
  0
LINE
  5
9F6
330
1F
100
AcDbEntity
  8
1
  6
CONTINUOUS
370
50
 62
4
100
AcDbLine
 10
88.365044
 20
5.037824
 30
0.0
 11
88.437416
 21
5.045763
 31
0.0
  0
LINE
  5
9F7
330
1F
100
AcDbEntity
  8
1
  6
CONTINUOUS
370
50
 62
4
100
AcDbLine
 10
63.950939
 20
3.44471
 30
0.0
 11
64.050598
 21
3.455851
 31
0.0
  0
LINE
  5
9F8
330
1F
100
AcDbEntity
  8
1
  6
CONTINUOUS
370
50
 62
4
100
AcDbLine
 10
71.677132
 20
-5.979883999999999
 30
0.0
 11
72.190933
 21
-5.919188999999999
 31
0.0
  0
LINE
  5
9F9
330
1F
100
AcDbEntity
  8
1
  6
CONTINUOUS
370
50
 62
4
100
AcDbLine
 10
88.29258
 20
5.02917
 30
0.0
 11
88.365044
 21
5.037824
 31
0.0
  0
LINE
  5
9FA
330
1F
100
AcDbEntity
  8
1
  6
CONTINUOUS
370
50
 62
4
100
AcDbLine
 10
69.025612
 20
5.909129999999999
 30
0.0
 11
69.595451
 21
5.979144
 31
0.0
  0
LINE
  5
9FB
330
1F
100
AcDbEntity
  8
1
  6
CONTINUOUS
370
50
 62
4
100
AcDbLine
 10
78.766266
 20
4.424725
 30
0.0
 11
79.106735
 21
4.466755
 31
0.0
  0
LINE
  5
9FC
330
1F
100
AcDbEntity
  8
1
  6
CONTINUOUS
370
50
 62
4
100
AcDbLine
 10
88.219887
 20
5.019782999999999
 30
0.0
 11
88.29258
 21
5.02917
 31
0.0
  0
LINE
  5
9FD
330
1F
100
AcDbEntity
  8
1
  6
CONTINUOUS
370
50
 62
4
100
AcDbLine
 10
63.73296
 20
-4.629455999999999
 30
0.0
 11
63.83449599999999
 21
-4.616308
 31
0.0
  0
LINE
  5
9FE
330
1F
100
AcDbEntity
  8
1
  6
CONTINUOUS
370
50
 62
4
100
AcDbLine
 10
81.77780899999999
 20
-5.963544
 30
0.0
 11
82.129509
 21
-5.917981999999999
 31
0.0
  0
LINE
  5
9FF
330
1F
100
AcDbEntity
  8
1
  6
CONTINUOUS
370
50
 62
4
100
AcDbLine
 10
68.78653
 20
4.416097
 30
0.0
 11
69.119278
 21
4.46038
 31
0.0
  0
LINE
  5
A00
330
1F
100
AcDbEntity
  8
1
  6
CONTINUOUS
370
50
 62
4
100
AcDbLine
 10
88.895943
 20
5.909565
 30
0.0
 11
89.248154
 21
5.958018999999999
 31
0.0
  0
LINE
  5
A01
330
1F
100
AcDbEntity
  8
1
  6
CONTINUOUS
370
50
 62
4
100
AcDbLine
 10
88.14684299999999
 20
5.009645
 30
0.0
 11
88.219887
 21
5.019782999999999
 31
0.0
  0
LINE
  5
A02
330
1F
100
AcDbEntity
  8
1
  6
CONTINUOUS
370
50
 62
4
100
AcDbLine
 10
63.85189399999999
 20
3.430825
 30
0.0
 11
63.950939
 21
3.44471
 31
0.0
  0
LINE
  5
A03
330
1F
100
AcDbEntity
  8
1
  6
CONTINUOUS
370
50
 62
4
100
AcDbLine
 10
63.512566
 20
-5.745393
 30
0.0
 11
63.703281
 21
-5.718113
 31
0.0
  0
LINE
  5
A04
330
1F
100
AcDbEntity
  8
1
  6
CONTINUOUS
370
50
 62
4
100
AcDbLine
 10
88.07331099999999
 20
4.998736
 30
0.0
 11
88.14684299999999
 21
5.009645
 31
0.0
  0
LINE
  5
A05
330
1F
100
AcDbEntity
  8
1
  6
CONTINUOUS
370
50
 62
4
100
AcDbLine
 10
63.63240099999999
 20
-4.644725
 30
0.0
 11
63.73296
 21
-4.629455999999999
 31
0.0
  0
LINE
  5
A06
330
1F
100
AcDbEntity
  8
1
  6
CONTINUOUS
370
50
 62
4
100
AcDbLine
 10
87.99941299999999
 20
4.987063
 30
0.0
 11
88.07331099999999
 21
4.998736
 31
0.0
  0
LINE
  5
A07
330
1F
100
AcDbEntity
  8
1
  6
CONTINUOUS
370
50
 62
4
100
AcDbLine
 10
78.425789
 20
4.369473
 30
0.0
 11
78.766266
 21
4.424725
 31
0.0
  0
LINE
  5
A08
330
1F
100
AcDbEntity
  8
1
  6
CONTINUOUS
370
50
 62
4
100
AcDbLine
 10
87.925636
 20
4.974664
 30
0.0
 11
87.99941299999999
 21
4.987063
 31
0.0
  0
LINE
  5
A09
330
1F
100
AcDbEntity
  8
1
  6
CONTINUOUS
370
50
 62
4
100
AcDbLine
 10
68.45378099999999
 20
4.359903
 30
0.0
 11
68.78653
 21
4.416097
 31
0.0
  0
LINE
  5
A0A
330
1F
100
AcDbEntity
  8
1
  6
CONTINUOUS
370
50
 62
4
100
AcDbLine
 10
63.753643
 20
3.414174
 30
0.0
 11
63.85189399999999
 21
3.430825
 31
0.0
  0
LINE
  5
A0B
330
1F
100
AcDbEntity
  8
1
  6
CONTINUOUS
370
50
 62
4
100
AcDbLine
 10
63.532627
 20
-4.662173
 30
0.0
 11
63.63240099999999
 21
-4.644725
 31
0.0
  0
LINE
  5
A0C
330
1F
100
AcDbEntity
  8
1
  6
CONTINUOUS
370
50
 62
4
100
AcDbLine
 10
87.85199
 20
4.961537
 30
0.0
 11
87.925636
 21
4.974664
 31
0.0
  0
LINE
  5
A0D
330
1F
100
AcDbEntity
  8
1
  6
CONTINUOUS
370
50
 62
4
100
AcDbLine
 10
78.62786899999999
 20
5.847943
 30
0.0
 11
79.082436
 21
5.92904
 31
0.0
  0
LINE
  5
A0E
330
1F
100
AcDbEntity
  8
1
  6
CONTINUOUS
370
50
 62
4
100
AcDbLine
 10
89.76242099999999
 20
5.105273
 30
0.0
 11
89.82279199999999
 21
5.116131
 31
0.0
  0
LINE
  5
A0F
330
1F
100
AcDbEntity
  8
1
  6
CONTINUOUS
370
50
 62
4
100
AcDbLine
 10
82.129509
 20
-5.917981999999999
 30
0.0
 11
82.482101
 21
-5.854437
 31
0.0
  0
LINE
  5
A10
330
1F
100
AcDbEntity
  8
1
  6
CONTINUOUS
370
50
 62
4
100
AcDbLine
 10
87.778465
 20
4.94768
 30
0.0
 11
87.85199
 21
4.961537
 31
0.0
  0
LINE
  5
A11
330
1F
100
AcDbEntity
  8
1
  6
CONTINUOUS
370
50
 62
4
100
AcDbLine
 10
88.526619
 20
5.839726
 30
0.0
 11
88.895943
 21
5.909565
 31
0.0
  0
LINE
  5
A12
330
1F
100
AcDbEntity
  8
1
  6
CONTINUOUS
370
50
 62
4
100
AcDbLine
 10
72.190933
 20
-5.919188999999999
 30
0.0
 11
72.71161699999999
 21
-5.817648999999999
 31
0.0
  0
LINE
  5
A13
330
1F
100
AcDbEntity
  8
1
  6
CONTINUOUS
370
50
 62
4
100
AcDbLine
 10
63.43396
 20
-4.681776999999999
 30
0.0
 11
63.532627
 21
-4.662173
 31
0.0
  0
LINE
  5
A14
330
1F
100
AcDbEntity
  8
1
  6
CONTINUOUS
370
50
 62
4
100
AcDbLine
 10
63.656326
 20
3.394722
 30
0.0
 11
63.753643
 21
3.414174
 31
0.0
  0
LINE
  5
A15
330
1F
100
AcDbEntity
  8
1
  6
CONTINUOUS
370
50
 62
4
100
AcDbLine
 10
78.08532
 20
4.300698
 30
0.0
 11
78.425789
 21
4.369473
 31
0.0
  0
LINE
  5
A16
330
1F
100
AcDbEntity
  8
1
  6
CONTINUOUS
370
50
 62
4
100
AcDbLine
 10
68.121033
 20
4.292082
 30
0.0
 11
68.45378099999999
 21
4.359903
 31
0.0
  0
LINE
  5
A17
330
1F
100
AcDbEntity
  8
1
  6
CONTINUOUS
370
50
 62
4
100
AcDbLine
 10
68.456955
 20
5.790132
 30
0.0
 11
69.025612
 21
5.909129999999999
 31
0.0
  0
LINE
  5
A18
330
1F
100
AcDbEntity
  8
1
  6
CONTINUOUS
370
50
 62
4
100
AcDbLine
 10
63.336765
 20
-4.703503
 30
0.0
 11
63.43396
 21
-4.681776999999999
 31
0.0
  0
LINE
  5
A19
330
1F
100
AcDbEntity
  8
1
  6
CONTINUOUS
370
50
 62
4
100
AcDbLine
 10
87.79753099999999
 20
4.251571999999999
 30
0.0
 11
87.95897699999999
 21
4.288808
 31
0.0
  0
LINE
  5
A1A
330
1F
100
AcDbEntity
  8
1
  6
CONTINUOUS
370
50
 62
4
100
AcDbLine
 10
82.482101
 20
-5.854437
 30
0.0
 11
82.834595
 21
-5.773098999999999
 31
0.0
  0
LINE
  5
A1B
330
1F
100
AcDbEntity
  8
1
  6
CONTINUOUS
370
50
 62
4
100
AcDbLine
 10
63.559742
 20
3.372328
 30
0.0
 11
63.656326
 21
3.394722
 31
0.0
  0
LINE
  5
A1C
330
1F
100
AcDbEntity
  8
1
  6
CONTINUOUS
370
50
 62
4
100
AcDbLine
 10
67.78828399999999
 20
4.21284
 30
0.0
 11
68.121033
 21
4.292082
 31
0.0
  0
LINE
  5
A1D
330
1F
100
AcDbEntity
  8
1
  6
CONTINUOUS
370
50
 62
4
100
AcDbLine
 10
77.744843
 20
4.218801
 30
0.0
 11
78.08532
 21
4.300698
 31
0.0
  0
LINE
  5
A1E
330
1F
100
AcDbEntity
  8
1
  6
CONTINUOUS
370
50
 62
4
100
AcDbLine
 10
88.157127
 20
5.750351999999999
 30
0.0
 11
88.526619
 21
5.839726
 31
0.0
  0
LINE
  5
A1F
330
1F
100
AcDbEntity
  8
1
  6
CONTINUOUS
370
50
 62
4
100
AcDbLine
 10
78.227425
 20
5.750541
 30
0.0
 11
78.62786899999999
 21
5.847943
 31
0.0
  0
LINE
  5
A20
330
1F
100
AcDbEntity
  8
1
  6
CONTINUOUS
370
50
 62
4
100
AcDbLine
 10
87.636078
 20
4.211358
 30
0.0
 11
87.79753099999999
 21
4.251571999999999
 31
0.0
  0
LINE
  5
A21
330
1F
100
AcDbEntity
  8
1
  6
CONTINUOUS
370
50
 62
4
100
AcDbLine
 10
63.241417
 20
-4.727319
 30
0.0
 11
63.336765
 21
-4.703503
 31
0.0
  0
LINE
  5
A22
330
1F
100
AcDbEntity
  8
1
  6
CONTINUOUS
370
50
 62
4
100
AcDbLine
 10
63.703281
 20
-5.718113
 30
0.0
 11
63.899006
 21
-5.666821
 31
0.0
  0
LINE
  5
A23
330
1F
100
AcDbEntity
  8
1
  6
CONTINUOUS
370
50
 62
4
100
AcDbLine
 10
63.464088
 20
3.346887
 30
0.0
 11
63.559742
 21
3.372328
 31
0.0
  0
LINE
  5
A24
330
1F
100
AcDbEntity
  8
1
  6
CONTINUOUS
370
50
 62
4
100
AcDbLine
 10
87.474632
 20
4.168204999999999
 30
0.0
 11
87.636078
 21
4.211358
 31
0.0
  0
LINE
  5
A25
330
1F
100
AcDbEntity
  8
1
  6
CONTINUOUS
370
50
 62
4
100
AcDbLine
 10
72.71161699999999
 20
-5.817648999999999
 30
0.0
 11
73.23840299999999
 21
-5.676406
 31
0.0
  0
LINE
  5
A26
330
1F
100
AcDbEntity
  8
1
  6
CONTINUOUS
370
50
 62
4
100
AcDbLine
 10
67.455536
 20
4.12238
 30
0.0
 11
67.78828399999999
 21
4.21284
 31
0.0
  0
LINE
  5
A27
330
1F
100
AcDbEntity
  8
1
  6
CONTINUOUS
370
50
 62
4
100
AcDbLine
 10
77.404381
 20
4.125456
 30
0.0
 11
77.744843
 21
4.218801
 31
0.0
  0
LINE
  5
A28
330
1F
100
AcDbEntity
  8
1
  6
CONTINUOUS
370
50
 62
4
100
AcDbLine
 10
63.14828499999999
 20
-4.753193
 30
0.0
 11
63.241417
 21
-4.727319
 31
0.0
  0
LINE
  5
A29
330
1F
100
AcDbEntity
  8
1
  6
CONTINUOUS
370
50
 62
4
100
AcDbLine
 10
82.834595
 20
-5.773098999999999
 30
0.0
 11
83.185974
 21
-5.674157999999999
 31
0.0
  0
LINE
  5
A2A
330
1F
100
AcDbEntity
  8
1
  6
CONTINUOUS
370
50
 62
4
100
AcDbLine
 10
87.313187
 20
4.122078
 30
0.0
 11
87.474632
 21
4.168204999999999
 31
0.0
  0
LINE
  5
A2B
330
1F
100
AcDbEntity
  8
1
  6
CONTINUOUS
370
50
 62
4
100
AcDbLine
 10
67.87900499999999
 20
5.623145999999999
 30
0.0
 11
68.456955
 21
5.790132
 31
0.0
  0
LINE
  5
A2C
330
1F
100
AcDbEntity
  8
1
  6
CONTINUOUS
370
50
 62
4
100
AcDbLine
 10
87.788963
 20
5.6417
 30
0.0
 11
88.157127
 21
5.750351999999999
 31
0.0
  0
LINE
  5
A2D
330
1F
100
AcDbEntity
  8
1
  6
CONTINUOUS
370
50
 62
4
100
AcDbLine
 10
77.88342999999999
 20
5.647383
 30
0.0
 11
78.227425
 21
5.750541
 31
0.0
  0
LINE
  5
A2E
330
1F
100
AcDbEntity
  8
1
  6
CONTINUOUS
370
50
 62
4
100
AcDbLine
 10
63.369705
 20
3.318317
 30
0.0
 11
63.464088
 21
3.346887
 31
0.0
  0
LINE
  5
A2F
330
1F
100
AcDbEntity
  8
1
  6
CONTINUOUS
370
50
 62
4
100
AcDbLine
 10
87.151733
 20
4.072945
 30
0.0
 11
87.313187
 21
4.122078
 31
0.0
  0
LINE
  5
A30
330
1F
100
AcDbEntity
  8
1
  6
CONTINUOUS
370
50
 62
4
100
AcDbLine
 10
67.12277999999999
 20
4.020789
 30
0.0
 11
67.455536
 21
4.12238
 31
0.0
  0
LINE
  5
A31
330
1F
100
AcDbEntity
  8
1
  6
CONTINUOUS
370
50
 62
4
100
AcDbLine
 10
77.06391099999999
 20
4.020928
 30
0.0
 11
77.404381
 21
4.125456
 31
0.0
  0
LINE
  5
A32
330
1F
100
AcDbEntity
  8
1
  6
CONTINUOUS
370
50
 62
4
100
AcDbLine
 10
63.057652
 20
-4.781122
 30
0.0
 11
63.14828499999999
 21
-4.753193
 31
0.0
  0
LINE
  5
A33
330
1F
100
AcDbEntity
  8
1
  6
CONTINUOUS
370
50
 62
4
100
AcDbLine
 10
86.99028799999999
 20
4.020772
 30
0.0
 11
87.151733
 21
4.072945
 31
0.0
  0
LINE
  5
A34
330
1F
100
AcDbEntity
  8
1
  6
CONTINUOUS
370
50
 62
4
100
AcDbLine
 10
83.185974
 20
-5.674157999999999
 30
0.0
 11
83.533531
 21
-5.558257999999999
 31
0.0
  0
LINE
  5
A35
330
1F
100
AcDbEntity
  8
1
  6
CONTINUOUS
370
50
 62
4
100
AcDbLine
 10
73.23840299999999
 20
-5.676406
 30
0.0
 11
73.766396
 21
-5.49662
 31
0.0
  0
LINE
  5
A36
330
1F
100
AcDbEntity
  8
1
  6
CONTINUOUS
370
50
 62
4
100
AcDbLine
 10
62.969444
 20
-4.811237999999999
 30
0.0
 11
63.057652
 21
-4.781122
 31
0.0
  0
LINE
  5
A37
330
1F
100
AcDbEntity
  8
1
  6
CONTINUOUS
370
50
 62
4
100
AcDbLine
 10
63.276928
 20
3.286537
 30
0.0
 11
63.369705
 21
3.318317
 31
0.0
  0
LINE
  5
A38
330
1F
100
AcDbEntity
  8
1
  6
CONTINUOUS
370
50
 62
4
100
AcDbLine
 10
77.573318
 20
5.540009
 30
0.0
 11
77.88342999999999
 21
5.647383
 31
0.0
  0
LINE
  5
A39
330
1F
100
AcDbEntity
  8
1
  6
CONTINUOUS
370
50
 62
4
100
AcDbLine
 10
87.426682
 20
5.515010999999999
 30
0.0
 11
87.788963
 21
5.6417
 31
0.0
  0
LINE
  5
A3A
330
1F
100
AcDbEntity
  8
1
  6
CONTINUOUS
370
50
 62
4
100
AcDbLine
 10
89.82279199999999
 20
5.116131
 30
0.0
 11
89.877251
 21
5.135565
 31
0.0
  0
LINE
  5
A3B
330
1F
100
AcDbEntity
  8
1
  6
CONTINUOUS
370
50
 62
4
100
AcDbLine
 10
63.899006
 20
-5.666821
 30
0.0
 11
64.100624
 21
-5.592969999999999
 31
0.0
  0
LINE
  5
A3C
330
1F
100
AcDbEntity
  8
1
  6
CONTINUOUS
370
50
 62
4
100
AcDbLine
 10
67.308578
 20
5.414149
 30
0.0
 11
67.87900499999999
 21
5.623145999999999
 31
0.0
  0
LINE
  5
A3D
330
1F
100
AcDbEntity
  8
1
  6
CONTINUOUS
370
50
 62
4
100
AcDbLine
 10
62.884243
 20
-4.843472999999999
 30
0.0
 11
62.969444
 21
-4.811237999999999
 31
0.0
  0
LINE
  5
A3E
330
1F
100
AcDbEntity
  8
1
  6
CONTINUOUS
370
50
 62
4
100
AcDbLine
 10
83.533531
 20
-5.558257999999999
 30
0.0
 11
83.87509899999999
 21
-5.426518
 31
0.0
  0
LINE
  5
A3F
330
1F
100
AcDbEntity
  8
1
  6
CONTINUOUS
370
50
 62
4
100
AcDbLine
 10
63.186085
 20
3.251465
 30
0.0
 11
63.276928
 21
3.286537
 31
0.0
  0
LINE
  5
A40
330
1F
100
AcDbEntity
  8
1
  6
CONTINUOUS
370
50
 62
4
100
AcDbLine
 10
77.262093
 20
5.419752
 30
0.0
 11
77.573318
 21
5.540009
 31
0.0
  0
LINE
  5
A41
330
1F
100
AcDbEntity
  8
1
  6
CONTINUOUS
370
50
 62
4
100
AcDbLine
 10
87.069183
 20
5.370888
 30
0.0
 11
87.426682
 21
5.515010999999999
 31
0.0
  0
LINE
  5
A42
330
1F
100
AcDbEntity
  8
1
  6
CONTINUOUS
370
50
 62
4
100
AcDbLine
 10
73.766396
 20
-5.49662
 30
0.0
 11
74.29214499999999
 21
-5.279323
 31
0.0
  0
LINE
  5
A43
330
1F
100
AcDbEntity
  8
1
  6
CONTINUOUS
370
50
 62
4
100
AcDbLine
 10
62.802746
 20
-4.877721999999999
 30
0.0
 11
62.884243
 21
-4.843472999999999
 31
0.0
  0
LINE
  5
A44
330
1F
100
AcDbEntity
  8
1
  6
CONTINUOUS
370
50
 62
4
100
AcDbLine
 10
76.949677
 20
5.286751
 30
0.0
 11
77.262093
 21
5.419752
 31
0.0
  0
LINE
  5
A45
330
1F
100
AcDbEntity
  8
1
  6
CONTINUOUS
370
50
 62
4
100
AcDbLine
 10
63.09751499999999
 20
3.213019
 30
0.0
 11
63.186085
 21
3.251465
 31
0.0
  0
LINE
  5
A46
330
1F
100
AcDbEntity
  8
1
  6
CONTINUOUS
370
50
 62
4
100
AcDbLine
 10
83.87509899999999
 20
-5.426518
 30
0.0
 11
84.214897
 21
-5.278923
 31
0.0
  0
LINE
  5
A47
330
1F
100
AcDbEntity
  8
1
  6
CONTINUOUS
370
50
 62
4
100
AcDbLine
 10
66.797829
 20
5.18975
 30
0.0
 11
67.308578
 21
5.414149
 31
0.0
  0
LINE
  5
A48
330
1F
100
AcDbEntity
  8
1
  6
CONTINUOUS
370
50
 62
4
100
AcDbLine
 10
74.29214499999999
 20
-5.279336
 30
0.0
 11
74.412407
 21
-5.225029
 31
0.0
  0
LINE
  5
A49
330
1F
100
AcDbEntity
  8
1
  6
CONTINUOUS
370
50
 62
4
100
AcDbLine
 10
85.516853
 20
-4.687050999999999
 30
0.0
 11
85.63797
 21
-4.63223
 31
0.0
  0
LINE
  5
A4A
330
1F
100
AcDbEntity
  8
1
  6
CONTINUOUS
370
50
 62
4
100
AcDbLine
 10
85.389595
 20
-4.74468
 30
0.0
 11
85.516853
 21
-4.687050999999999
 31
0.0
  0
LINE
  5
A4B
330
1F
100
AcDbEntity
  8
1
  6
CONTINUOUS
370
50
 62
4
100
AcDbLine
 10
64.100624
 20
-5.592969999999999
 30
0.0
 11
64.310486
 21
-5.497882
 31
0.0
  0
LINE
  5
A4C
330
1F
100
AcDbEntity
  8
1
  6
CONTINUOUS
370
50
 62
4
100
AcDbLine
 10
85.30293999999999
 20
-4.783945
 30
0.0
 11
85.389595
 21
-4.74468
 31
0.0
  0
LINE
  5
A4D
330
1F
100
AcDbEntity
  8
1
  6
CONTINUOUS
370
50
 62
4
100
AcDbLine
 10
86.713501
 20
5.20966
 30
0.0
 11
87.069183
 21
5.370888
 31
0.0
  0
LINE
  5
A4E
330
1F
100
AcDbEntity
  8
1
  6
CONTINUOUS
370
50
 62
4
100
AcDbLine
 10
85.223129
 20
-4.820125
 30
0.0
 11
85.30293999999999
 21
-4.783945
 31
0.0
  0
LINE
  5
A4F
330
1F
100
AcDbEntity
  8
1
  6
CONTINUOUS
370
50
 62
4
100
AcDbLine
 10
85.103043
 20
-4.874593
 30
0.0
 11
85.223129
 21
-4.820125
 31
0.0
  0
LINE
  5
A50
330
1F
100
AcDbEntity
  8
1
  6
CONTINUOUS
370
50
 62
4
100
AcDbLine
 10
84.98919699999999
 20
-4.926272
 30
0.0
 11
85.103043
 21
-4.874593
 31
0.0
  0
LINE
  5
A51
330
1F
100
AcDbEntity
  8
1
  6
CONTINUOUS
370
50
 62
4
100
AcDbLine
 10
84.875343
 20
-4.977993
 30
0.0
 11
84.98919699999999
 21
-4.926272
 31
0.0
  0
LINE
  5
A52
330
1F
100
AcDbEntity
  8
1
  6
CONTINUOUS
370
50
 62
4
100
AcDbLine
 10
74.412407
 20
-5.225029
 30
0.0
 11
74.532669
 21
-5.170383
 31
0.0
  0
LINE
  5
A53
330
1F
100
AcDbEntity
  8
1
  6
CONTINUOUS
370
50
 62
4
100
AcDbLine
 10
84.761513
 20
-5.029751
 30
0.0
 11
84.875343
 21
-4.977993
 31
0.0
  0
LINE
  5
A54
330
1F
100
AcDbEntity
  8
1
  6
CONTINUOUS
370
50
 62
4
100
AcDbLine
 10
84.647682
 20
-5.081551999999999
 30
0.0
 11
84.761513
 21
-5.029751
 31
0.0
  0
LINE
  5
A55
330
1F
100
AcDbEntity
  8
1
  6
CONTINUOUS
370
50
 62
4
100
AcDbLine
 10
84.533852
 20
-5.133399
 30
0.0
 11
84.647682
 21
-5.081551999999999
 31
0.0
  0
LINE
  5
A56
330
1F
100
AcDbEntity
  8
1
  6
CONTINUOUS
370
50
 62
4
100
AcDbLine
 10
84.41907499999999
 20
-5.185724
 30
0.0
 11
84.533852
 21
-5.133399
 31
0.0
  0
LINE
  5
A57
330
1F
100
AcDbEntity
  8
1
  6
CONTINUOUS
370
50
 62
4
100
AcDbLine
 10
84.316841
 20
-5.232373
 30
0.0
 11
84.41907499999999
 21
-5.185724
 31
0.0
  0
LINE
  5
A58
330
1F
100
AcDbEntity
  8
1
  6
CONTINUOUS
370
50
 62
4
100
AcDbLine
 10
84.21483599999999
 20
-5.278949
 30
0.0
 11
84.316841
 21
-5.232373
 31
0.0
  0
LINE
  5
A59
330
1F
100
AcDbEntity
  8
1
  6
CONTINUOUS
370
50
 62
4
100
AcDbLine
 10
74.532669
 20
-5.170383
 30
0.0
 11
74.652931
 21
-5.115396
 31
0.0
  0
LINE
  5
A5A
330
1F
100
AcDbEntity
  8
1
  6
CONTINUOUS
370
50
 62
4
100
AcDbLine
 10
75.59496299999999
 20
-4.679463999999999
 30
0.0
 11
75.698448
 21
-4.632116
 31
0.0
  0
LINE
  5
A5B
330
1F
100
AcDbEntity
  8
1
  6
CONTINUOUS
370
50
 62
4
100
AcDbLine
 10
75.491478
 20
-4.72697
 30
0.0
 11
75.59496299999999
 21
-4.679463999999999
 31
0.0
  0
LINE
  5
A5C
330
1F
100
AcDbEntity
  8
1
  6
CONTINUOUS
370
50
 62
4
100
AcDbLine
 10
74.652931
 20
-5.115396
 30
0.0
 11
74.77319299999999
 21
-5.060063
 31
0.0
  0
LINE
  5
A5D
330
1F
100
AcDbEntity
  8
1
  6
CONTINUOUS
370
50
 62
4
100
AcDbLine
 10
75.387993
 20
-4.774636
 30
0.0
 11
75.491478
 21
-4.72697
 31
0.0
  0
LINE
  5
A5E
330
1F
100
AcDbEntity
  8
1
  6
CONTINUOUS
370
50
 62
4
100
AcDbLine
 10
75.264557
 20
-4.831704
 30
0.0
 11
75.387993
 21
-4.774636
 31
0.0
  0
LINE
  5
A5F
330
1F
100
AcDbEntity
  8
1
  6
CONTINUOUS
370
50
 62
4
100
AcDbLine
 10
74.77319299999999
 20
-5.060063
 30
0.0
 11
74.893417
 21
-5.004398
 31
0.0
  0
LINE
  5
A60
330
1F
100
AcDbEntity
  8
1
  6
CONTINUOUS
370
50
 62
4
100
AcDbLine
 10
75.133865
 20
-4.89236
 30
0.0
 11
75.264557
 21
-4.831704
 31
0.0
  0
LINE
  5
A61
330
1F
100
AcDbEntity
  8
1
  6
CONTINUOUS
370
50
 62
4
100
AcDbLine
 10
76.63668799999999
 20
5.141318
 30
0.0
 11
76.949677
 21
5.286751
 31
0.0
  0
LINE
  5
A62
330
1F
100
AcDbEntity
  8
1
  6
CONTINUOUS
370
50
 62
4
100
AcDbLine
 10
74.893417
 20
-5.004398
 30
0.0
 11
75.013649
 21
-4.94839
 31
0.0
  0
LINE
  5
A63
330
1F
100
AcDbEntity
  8
1
  6
CONTINUOUS
370
50
 62
4
100
AcDbLine
 10
75.013649
 20
-4.94839
 30
0.0
 11
75.133865
 21
-4.89236
 31
0.0
  0
LINE
  5
A64
330
1F
100
AcDbEntity
  8
1
  6
CONTINUOUS
370
50
 62
4
100
AcDbLine
 10
62.725666
 20
-4.913876
 30
0.0
 11
62.802746
 21
-4.877721999999999
 31
0.0
  0
LINE
  5
A65
330
1F
100
AcDbEntity
  8
1
  6
CONTINUOUS
370
50
 62
4
100
AcDbLine
 10
76.600403
 20
0.000006
 30
0.0
 11
76.600449
 21
0.000028
 31
0.0
  0
LINE
  5
A66
330
1F
100
AcDbEntity
  8
1
  6
CONTINUOUS
370
50
 62
4
100
AcDbLine
 10
76.600471
 20
0.00004
 30
0.0
 11
76.600494
 21
0.000051
 31
0.0
  0
LINE
  5
A67
330
1F
100
AcDbEntity
  8
1
  6
CONTINUOUS
370
50
 62
4
100
AcDbLine
 10
76.600517
 20
0.000063
 30
0.0
 11
76.60054
 21
0.000074
 31
0.0
  0
LINE
  5
A68
330
1F
100
AcDbEntity
  8
1
  6
CONTINUOUS
370
50
 62
4
100
AcDbLine
 10
63.011204
 20
3.170919
 30
0.0
 11
63.09751499999999
 21
3.213019
 31
0.0
  0
LINE
  5
A69
330
1F
100
AcDbEntity
  8
1
  6
CONTINUOUS
370
50
 62
4
100
AcDbLine
 10
86.356201
 20
5.032306
 30
0.0
 11
86.713501
 21
5.20966
 31
0.0
  0
LINE
  5
A6A
330
1F
100
AcDbEntity
  8
1
  6
CONTINUOUS
370
50
 62
4
100
AcDbLine
 10
76.323669
 20
4.983719
 30
0.0
 11
76.63668799999999
 21
5.141318
 31
0.0
  0
LINE
  5
A6B
330
1F
100
AcDbEntity
  8
1
  6
CONTINUOUS
370
50
 62
4
100
AcDbLine
 10
66.35968
 20
4.968351999999999
 30
0.0
 11
66.797829
 21
5.18975
 31
0.0
  0
LINE
  5
A6C
330
1F
100
AcDbEntity
  8
1
  6
CONTINUOUS
370
50
 62
4
100
AcDbLine
 10
64.310486
 20
-5.497882
 30
0.0
 11
64.53096
 21
-5.382878
 31
0.0
  0
LINE
  5
A6D
330
1F
100
AcDbEntity
  8
1
  6
CONTINUOUS
370
50
 62
4
100
AcDbLine
 10
76.600494
 20
0.000051
 30
0.0
 11
76.600517
 21
0.000063
 31
0.0
  0
LINE
  5
A6E
330
1F
100
AcDbEntity
  8
1
  6
CONTINUOUS
370
50
 62
4
100
AcDbLine
 10
62.653702
 20
-4.951828
 30
0.0
 11
62.725666
 21
-4.913876
 31
0.0
  0
LINE
  5
A6F
330
1F
100
AcDbEntity
  8
1
  6
CONTINUOUS
370
50
 62
4
100
AcDbLine
 10
85.99741399999999
 20
4.839633
 30
0.0
 11
86.356201
 21
5.032306
 31
0.0
  0
LINE
  5
A70
330
1F
100
AcDbEntity
  8
1
  6
CONTINUOUS
370
50
 62
4
100
AcDbLine
 10
76.010727
 20
4.81392
 30
0.0
 11
76.323669
 21
4.983719
 31
0.0
  0
LINE
  5
A71
330
1F
100
AcDbEntity
  8
1
  6
CONTINUOUS
370
50
 62
4
100
AcDbLine
 10
76.600449
 20
0.000028
 30
0.0
 11
76.600471
 21
0.00004
 31
0.0
  0
LINE
  5
A72
330
1F
100
AcDbEntity
  8
1
  6
CONTINUOUS
370
50
 62
4
100
AcDbLine
 10
62.927383
 20
3.124882
 30
0.0
 11
63.011204
 21
3.170919
 31
0.0
  0
LINE
  5
A73
330
1F
100
AcDbEntity
  8
1
  6
CONTINUOUS
370
50
 62
4
100
AcDbLine
 10
66.0
 20
4.76599
 30
0.0
 11
66.35968
 21
4.968351999999999
 31
0.0
  0
LINE
  5
A74
330
1F
100
AcDbEntity
  8
1
  6
CONTINUOUS
370
50
 62
4
100
AcDbLine
 10
64.53096
 20
-5.382878
 30
0.0
 11
64.764389
 21
-5.249282
 31
0.0
  0
LINE
  5
A75
330
1F
100
AcDbEntity
  8
1
  6
CONTINUOUS
370
50
 62
4
100
AcDbLine
 10
85.637962
 20
4.632228
 30
0.0
 11
85.99741399999999
 21
4.839633
 31
0.0
  0
LINE
  5
A76
330
1F
100
AcDbEntity
  8
1
  6
CONTINUOUS
370
50
 62
4
100
AcDbLine
 10
65.458939
 20
-4.843726999999999
 30
0.0
 11
65.944565
 21
-4.563166
 31
0.0
  0
LINE
  5
A77
330
1F
100
AcDbEntity
  8
1
  6
CONTINUOUS
370
50
 62
4
100
AcDbLine
 10
75.698456
 20
4.632121
 30
0.0
 11
76.010727
 21
4.81392
 31
0.0
  0
LINE
  5
A78
330
1F
100
AcDbEntity
  8
1
  6
CONTINUOUS
370
50
 62
4
100
AcDbLine
 10
65.00149499999999
 20
-5.110284
 30
0.0
 11
65.458939
 21
-4.843726999999999
 31
0.0
  0
LINE
  5
A79
330
1F
100
AcDbEntity
  8
1
  6
CONTINUOUS
370
50
 62
4
100
AcDbLine
 10
64.808014
 20
-5.223481
 30
0.0
 11
65.00149499999999
 21
-5.110284
 31
0.0
  0
LINE
  5
A7A
330
1F
100
AcDbEntity
  8
1
  6
CONTINUOUS
370
50
 62
4
100
AcDbLine
 10
64.793472
 20
-5.232079
 30
0.0
 11
64.808014
 21
-5.223481
 31
0.0
  0
LINE
  5
A7B
330
1F
100
AcDbEntity
  8
1
  6
CONTINUOUS
370
50
 62
4
100
AcDbLine
 10
64.778931
 20
-5.240679
 30
0.0
 11
64.793472
 21
-5.232079
 31
0.0
  0
LINE
  5
A7C
330
1F
100
AcDbEntity
  8
1
  6
CONTINUOUS
370
50
 62
4
100
AcDbLine
 10
64.764389
 20
-5.249282
 30
0.0
 11
64.778931
 21
-5.240679
 31
0.0
  0
LINE
  5
A7D
330
1F
100
AcDbEntity
  8
1
  6
CONTINUOUS
370
50
 62
4
100
AcDbLine
 10
62.58765
 20
-4.991410999999999
 30
0.0
 11
62.653702
 21
-4.951828
 31
0.0
  0
LINE
  5
A7E
330
1F
100
AcDbEntity
  8
1
  6
CONTINUOUS
370
50
 62
4
100
AcDbLine
 10
62.846687
 20
3.074795
 30
0.0
 11
62.927383
 21
3.124882
 31
0.0
  0
LINE
  5
A7F
330
1F
100
AcDbEntity
  8
1
  6
CONTINUOUS
370
50
 62
4
100
AcDbLine
 10
53.599998
 20
-5.99995
 30
0.0
 11
54.0
 21
-5.74995
 31
0.0
  0
LINE
  5
A80
330
1F
100
AcDbEntity
  8
1
  6
CONTINUOUS
370
50
 62
4
100
AcDbLine
 10
62.52317
 20
-5.036309999999999
 30
0.0
 11
62.58765
 21
-4.991410999999999
 31
0.0
  0
LINE
  5
A81
330
1F
100
AcDbEntity
  8
1
  6
CONTINUOUS
370
50
 62
4
100
AcDbLine
 10
89.877251
 20
5.135565
 30
0.0
 11
89.918404
 21
5.164516
 31
0.0
  0
LINE
  5
A82
330
1F
100
AcDbEntity
  8
1
  6
CONTINUOUS
370
50
 62
4
100
AcDbLine
 10
89.28718599999999
 20
-0.8273459999999999
 30
0.0
 11
90.0
 21
-0.324683
 31
0.0
  0
LINE
  5
A83
330
1F
100
AcDbEntity
  8
1
  6
CONTINUOUS
370
50
 62
4
100
AcDbLine
 10
62.76975299999999
 20
3.020542
 30
0.0
 11
62.846687
 21
3.074795
 31
0.0
  0
LINE
  5
A84
330
1F
100
AcDbEntity
  8
1
  6
CONTINUOUS
370
50
 62
4
100
AcDbLine
 10
62.697208
 20
2.962009
 30
0.0
 11
62.76975299999999
 21
3.020542
 31
0.0
  0
LINE
  5
A85
330
1F
100
AcDbEntity
  8
1
  6
CONTINUOUS
370
50
 62
4
100
AcDbLine
 10
89.29766099999999
 20
-1.389684
 30
0.0
 11
89.29802699999999
 21
-1.389381
 31
0.0
  0
LINE
  5
A86
330
1F
100
AcDbEntity
  8
1
  6
CONTINUOUS
370
50
 62
4
100
AcDbLine
 10
62.467896
 20
-5.082583
 30
0.0
 11
62.52317
 21
-5.036309999999999
 31
0.0
  0
LINE
  5
A87
330
1F
100
AcDbEntity
  8
1
  6
CONTINUOUS
370
50
 62
4
100
AcDbLine
 10
89.298386
 20
-1.389077
 30
0.0
 11
89.298744
 21
-1.388774
 31
0.0
  0
LINE
  5
A88
330
1F
100
AcDbEntity
  8
1
  6
CONTINUOUS
370
50
 62
4
100
AcDbLine
 10
89.29802699999999
 20
-1.389381
 30
0.0
 11
89.298386
 21
-1.389077
 31
0.0
  0
LINE
  5
A89
330
1F
100
AcDbEntity
  8
1
  6
CONTINUOUS
370
50
 62
4
100
AcDbLine
 10
89.298744
 20
-1.388774
 30
0.0
 11
89.299103
 21
-1.38847
 31
0.0
  0
LINE
  5
A8A
330
1F
100
AcDbEntity
  8
1
  6
CONTINUOUS
370
50
 62
4
100
AcDbLine
 10
89.299461
 20
-1.388166
 30
0.0
 11
89.29982
 21
-1.387862
 31
0.0
  0
LINE
  5
A8B
330
1F
100
AcDbEntity
  8
1
  6
CONTINUOUS
370
50
 62
4
100
AcDbLine
 10
89.299103
 20
-1.38847
 30
0.0
 11
89.299461
 21
-1.388166
 31
0.0
  0
LINE
  5
A8C
330
1F
100
AcDbEntity
  8
1
  6
CONTINUOUS
370
50
 62
4
100
AcDbLine
 10
62.6297
 20
2.899087
 30
0.0
 11
62.697208
 21
2.962009
 31
0.0
  0
LINE
  5
A8D
330
1F
100
AcDbEntity
  8
1
  6
CONTINUOUS
370
50
 62
4
100
AcDbLine
 10
62.422928
 20
-5.129893
 30
0.0
 11
62.467896
 21
-5.082583
 31
0.0
  0
LINE
  5
A8E
330
1F
100
AcDbEntity
  8
1
  6
CONTINUOUS
370
50
 62
4
100
AcDbLine
 10
62.568008
 20
2.831755
 30
0.0
 11
62.6297
 21
2.899087
 31
0.0
  0
LINE
  5
A8F
330
1F
100
AcDbEntity
  8
1
  6
CONTINUOUS
370
50
 62
4
100
AcDbLine
 10
87.65464
 20
-0.02571
 30
0.0
 11
87.70047799999999
 21
0.030901
 31
0.0
  0
LINE
  5
A90
330
1F
100
AcDbEntity
  8
1
  6
CONTINUOUS
370
50
 62
4
100
AcDbLine
 10
62.51289
 20
2.759989
 30
0.0
 11
62.568008
 21
2.831755
 31
0.0
  0
LINE
  5
A91
330
1F
100
AcDbEntity
  8
1
  6
CONTINUOUS
370
50
 62
4
100
AcDbLine
 10
89.918404
 20
5.164516
 30
0.0
 11
89.94858599999999
 21
5.204603
 31
0.0
  0
LINE
  5
A92
330
1F
100
AcDbEntity
  8
1
  6
CONTINUOUS
370
50
 62
4
100
AcDbLine
 10
87.70047799999999
 20
0.030901
 30
0.0
 11
87.74415599999999
 21
0.089105
 31
0.0
  0
LINE
  5
A93
330
1F
100
AcDbEntity
  8
1
  6
CONTINUOUS
370
50
 62
4
100
AcDbLine
 10
62.389816
 20
-5.177096
 30
0.0
 11
62.422928
 21
-5.129893
 31
0.0
  0
LINE
  5
A94
330
1F
100
AcDbEntity
  8
1
  6
CONTINUOUS
370
50
 62
4
100
AcDbLine
 10
87.74415599999999
 20
0.089105
 30
0.0
 11
87.785553
 21
0.14879
 31
0.0
  0
LINE
  5
A95
330
1F
100
AcDbEntity
  8
1
  6
CONTINUOUS
370
50
 62
4
100
AcDbLine
 10
87.785553
 20
0.14879
 30
0.0
 11
87.824364
 21
0.209528
 31
0.0
  0
LINE
  5
A96
330
1F
100
AcDbEntity
  8
1
  6
CONTINUOUS
370
50
 62
4
100
AcDbLine
 10
62.465084
 20
2.683752
 30
0.0
 11
62.51289
 21
2.759989
 31
0.0
  0
LINE
  5
A97
330
1F
100
AcDbEntity
  8
1
  6
CONTINUOUS
370
50
 62
4
100
AcDbLine
 10
87.824364
 20
0.209528
 30
0.0
 11
87.860123
 21
0.270507
 31
0.0
  0
LINE
  5
A98
330
1F
100
AcDbEntity
  8
1
  6
CONTINUOUS
370
50
 62
4
100
AcDbLine
 10
87.860123
 20
0.270507
 30
0.0
 11
87.89282999999999
 21
0.331576
 31
0.0
  0
LINE
  5
A99
330
1F
100
AcDbEntity
  8
1
  6
CONTINUOUS
370
50
 62
4
100
AcDbLine
 10
62.425354
 20
2.603059
 30
0.0
 11
62.465084
 21
2.683752
 31
0.0
  0
LINE
  5
A9A
330
1F
100
AcDbEntity
  8
1
  6
CONTINUOUS
370
50
 62
4
100
AcDbLine
 10
87.89282999999999
 20
0.331576
 30
0.0
 11
87.922523
 21
0.392608
 31
0.0
  0
LINE
  5
A9B
330
1F
100
AcDbEntity
  8
1
  6
CONTINUOUS
370
50
 62
4
100
AcDbLine
 10
62.369091
 20
-5.22361
 30
0.0
 11
62.389816
 21
-5.177096
 31
0.0
  0
LINE
  5
A9C
330
1F
100
AcDbEntity
  8
1
  6
CONTINUOUS
370
50
 62
4
100
AcDbLine
 10
87.922523
 20
0.392608
 30
0.0
 11
87.949226
 21
0.453475
 31
0.0
  0
LINE
  5
A9D
330
1F
100
AcDbEntity
  8
1
  6
CONTINUOUS
370
50
 62
4
100
AcDbLine
 10
89.94858599999999
 20
5.204603
 30
0.0
 11
89.970764
 21
5.258316
 31
0.0
  0
LINE
  5
A9E
330
1F
100
AcDbEntity
  8
1
  6
CONTINUOUS
370
50
 62
4
100
AcDbLine
 10
87.949226
 20
0.453475
 30
0.0
 11
87.972961
 21
0.514049
 31
0.0
  0
LINE
  5
A9F
330
1F
100
AcDbEntity
  8
1
  6
CONTINUOUS
370
50
 62
4
100
AcDbLine
 10
62.394825
 20
2.519186
 30
0.0
 11
62.425354
 21
2.603059
 31
0.0
  0
LINE
  5
AA0
330
1F
100
AcDbEntity
  8
1
  6
CONTINUOUS
370
50
 62
4
100
AcDbLine
 10
87.972961
 20
0.514049
 30
0.0
 11
87.993675
 21
0.5739339999999999
 31
0.0
  0
LINE
  5
AA1
330
1F
100
AcDbEntity
  8
1
  6
CONTINUOUS
370
50
 62
4
100
AcDbLine
 10
87.993675
 20
0.5739339999999999
 30
0.0
 11
88.01136799999999
 21
0.63279
 31
0.0
  0
LINE
  5
AA2
330
1F
100
AcDbEntity
  8
1
  6
CONTINUOUS
370
50
 62
4
100
AcDbLine
 10
88.01136799999999
 20
0.63279
 30
0.0
 11
88.02615399999999
 21
0.690547
 31
0.0
  0
LINE
  5
AA3
330
1F
100
AcDbEntity
  8
1
  6
CONTINUOUS
370
50
 62
4
100
AcDbLine
 10
62.373924
 20
2.432788
 30
0.0
 11
62.394825
 21
2.519186
 31
0.0
  0
LINE
  5
AA4
330
1F
100
AcDbEntity
  8
1
  6
CONTINUOUS
370
50
 62
4
100
AcDbLine
 10
89.970764
 20
5.258316
 30
0.0
 11
89.987534
 21
5.331004
 31
0.0
  0
LINE
  5
AA5
330
1F
100
AcDbEntity
  8
1
  6
CONTINUOUS
370
50
 62
4
100
AcDbLine
 10
88.02615399999999
 20
0.690547
 30
0.0
 11
88.038147
 21
0.7471329999999999
 31
0.0
  0
LINE
  5
AA6
330
1F
100
AcDbEntity
  8
1
  6
CONTINUOUS
370
50
 62
4
100
AcDbLine
 10
62.36093099999999
 20
-5.269183
 30
0.0
 11
62.369091
 21
-5.22361
 31
0.0
  0
LINE
  5
AA7
330
1F
100
AcDbEntity
  8
1
  6
CONTINUOUS
370
50
 62
4
100
AcDbLine
 10
88.038147
 20
0.7471329999999999
 30
0.0
 11
88.04744
 21
0.802477
 31
0.0
  0
LINE
  5
AA8
330
1F
100
AcDbEntity
  8
1
  6
CONTINUOUS
370
50
 62
4
100
AcDbLine
 10
89.987534
 20
5.331004
 30
0.0
 11
90.0
 21
5.426684
 31
0.0
  0
LINE
  5
AA9
330
1F
100
AcDbEntity
  8
1
  6
CONTINUOUS
370
50
 62
4
100
AcDbLine
 10
62.362766
 20
2.344006
 30
0.0
 11
62.373924
 21
2.432788
 31
0.0
  0
LINE
  5
AAA
330
1F
100
AcDbEntity
  8
1
  6
CONTINUOUS
370
50
 62
4
100
AcDbLine
 10
88.04744
 20
0.802477
 30
0.0
 11
88.054161
 21
0.856509
 31
0.0
  0
LINE
  5
AAB
330
1F
100
AcDbEntity
  8
1
  6
CONTINUOUS
370
50
 62
4
100
AcDbLine
 10
88.054161
 20
0.856509
 30
0.0
 11
88.058403
 21
0.9091579999999999
 31
0.0
  0
LINE
  5
AAC
330
1F
100
AcDbEntity
  8
1
  6
CONTINUOUS
370
50
 62
4
100
AcDbLine
 10
88.055199
 20
3.560526
 30
0.0
 11
88.05914299999999
 21
3.616591
 31
0.0
  0
LINE
  5
AAD
330
1F
100
AcDbEntity
  8
1
  6
CONTINUOUS
370
50
 62
4
100
AcDbLine
 10
89.280182
 20
-1.665797
 30
0.0
 11
89.29766099999999
 21
-1.389684
 31
0.0
  0
LINE
  5
AAE
330
1F
100
AcDbEntity
  8
1
  6
CONTINUOUS
370
50
 62
4
100
AcDbLine
 10
89.268463
 20
-1.943885
 30
0.0
 11
89.280182
 21
-1.665797
 31
0.0
  0
LINE
  5
AAF
330
1F
100
AcDbEntity
  8
1
  6
CONTINUOUS
370
50
 62
4
100
AcDbLine
 10
88.058403
 20
0.9091579999999999
 30
0.0
 11
88.060287
 21
0.960448
 31
0.0
  0
LINE
  5
AB0
330
1F
100
AcDbEntity
  8
1
  6
CONTINUOUS
370
50
 62
4
100
AcDbLine
 10
89.29982
 20
-1.387862
 30
0.0
 11
89.301842
 21
-1.307461
 31
0.0
  0
LINE
  5
AB1
330
1F
100
AcDbEntity
  8
1
  6
CONTINUOUS
370
50
 62
4
100
AcDbLine
 10
88.05914299999999
 20
3.616591
 30
0.0
 11
88.06040999999999
 21
3.674682
 31
0.0
  0
LINE
  5
AB2
330
1F
100
AcDbEntity
  8
1
  6
CONTINUOUS
370
50
 62
4
100
AcDbLine
 10
89.262642
 20
-2.223244
 30
0.0
 11
89.268463
 21
-1.943885
 31
0.0
  0
LINE
  5
AB3
330
1F
100
AcDbEntity
  8
1
  6
CONTINUOUS
370
50
 62
4
100
AcDbLine
 10
62.361477
 20
2.253201
 30
0.0
 11
62.362766
 21
2.344006
 31
0.0
  0
LINE
  5
AB4
330
1F
100
AcDbEntity
  8
1
  6
CONTINUOUS
370
50
 62
4
100
AcDbLine
 10
89.301842
 20
-1.307461
 30
0.0
 11
89.302505
 21
-1.226919
 31
0.0
  0
LINE
  5
AB5
330
1F
100
AcDbEntity
  8
1
  6
CONTINUOUS
370
50
 62
4
100
AcDbLine
 10
53.599998
 20
-5.99995
 30
0.0
 11
53.599998
 21
5.99995
 31
0.0
  0
LINE
  5
AB6
330
1F
100
AcDbEntity
  8
1
  6
CONTINUOUS
370
50
 62
4
100
AcDbLine
 10
54.0
 20
-5.74995
 30
0.0
 11
54.0
 21
5.74995
 31
0.0
  0
LINE
  5
AB7
330
1F
100
AcDbEntity
  8
1
  6
CONTINUOUS
370
50
 62
4
100
AcDbLine
 10
66.0
 20
-4.76599
 30
0.0
 11
66.0
 21
4.531488
 31
0.0
  0
LINE
  5
AB8
330
1F
100
AcDbEntity
  8
1
  6
CONTINUOUS
370
50
 62
4
100
AcDbLine
 10
66.0
 20
4.531493
 30
0.0
 11
66.0
 21
4.562557
 31
0.0
  0
LINE
  5
AB9
330
1F
100
AcDbEntity
  8
1
  6
CONTINUOUS
370
50
 62
4
100
AcDbLine
 10
66.0
 20
4.531496
 30
0.0
 11
66.0
 21
4.570577999999999
 31
0.0
  0
LINE
  5
ABA
330
1F
100
AcDbEntity
  8
1
  6
CONTINUOUS
370
50
 62
4
100
AcDbLine
 10
66.0
 20
4.570577999999999
 30
0.0
 11
66.0
 21
4.60966
 31
0.0
  0
LINE
  5
ABB
330
1F
100
AcDbEntity
  8
1
  6
CONTINUOUS
370
50
 62
4
100
AcDbLine
 10
66.0
 20
4.60966
 30
0.0
 11
66.0
 21
4.648743
 31
0.0
  0
LINE
  5
ABC
330
1F
100
AcDbEntity
  8
1
  6
CONTINUOUS
370
50
 62
4
100
AcDbLine
 10
66.0
 20
4.648743
 30
0.0
 11
66.0
 21
4.687825
 31
0.0
  0
LINE
  5
ABD
330
1F
100
AcDbEntity
  8
1
  6
CONTINUOUS
370
50
 62
4
100
AcDbLine
 10
66.0
 20
4.687825
 30
0.0
 11
66.0
 21
4.726907
 31
0.0
  0
LINE
  5
ABE
330
1F
100
AcDbEntity
  8
1
  6
CONTINUOUS
370
50
 62
4
100
AcDbLine
 10
66.0
 20
4.726907
 30
0.0
 11
66.0
 21
4.76599
 31
0.0
  0
LINE
  5
ABF
330
1F
100
AcDbEntity
  8
1
  6
CONTINUOUS
370
50
 62
4
100
AcDbLine
 10
90.0
 20
-0.01057
 30
0.0
 11
90.0
 21
0.8168139999999999
 31
0.0
  0
LINE
  5
AC0
330
1F
100
AcDbEntity
  8
1
  6
CONTINUOUS
370
50
 62
4
100
AcDbLine
 10
90.0
 20
5.918093
 30
0.0
 11
90.0
 21
5.999994999999999
 31
0.0
  0
LINE
  5
AC1
330
1F
100
AcDbEntity
  8
1
  6
CONTINUOUS
370
50
 62
4
100
AcDbLine
 10
90.0
 20
5.836192
 30
0.0
 11
90.0
 21
5.918093
 31
0.0
  0
LINE
  5
AC2
330
1F
100
AcDbEntity
  8
1
  6
CONTINUOUS
370
50
 62
4
100
AcDbLine
 10
90.0
 20
5.75429
 30
0.0
 11
90.0
 21
5.836192
 31
0.0
  0
LINE
  5
AC3
330
1F
100
AcDbEntity
  8
1
  6
CONTINUOUS
370
50
 62
4
100
AcDbLine
 10
90.0
 20
5.672389
 30
0.0
 11
90.0
 21
5.75429
 31
0.0
  0
LINE
  5
AC4
330
1F
100
AcDbEntity
  8
1
  6
CONTINUOUS
370
50
 62
4
100
AcDbLine
 10
90.0
 20
5.590487
 30
0.0
 11
90.0
 21
5.672389
 31
0.0
  0
LINE
  5
AC5
330
1F
100
AcDbEntity
  8
1
  6
CONTINUOUS
370
50
 62
4
100
AcDbLine
 10
90.0
 20
5.508585999999999
 30
0.0
 11
90.0
 21
5.590487
 31
0.0
  0
LINE
  5
AC6
330
1F
100
AcDbEntity
  8
1
  6
CONTINUOUS
370
50
 62
4
100
AcDbLine
 10
90.0
 20
5.426684
 30
0.0
 11
90.0
 21
5.508585999999999
 31
0.0
  0
LINE
  5
AC7
330
1F
100
AcDbEntity
  8
1
  6
CONTINUOUS
370
50
 62
4
100
AcDbLine
 10
90.0
 20
-6.0
 30
0.0
 11
90.0
 21
-5.944141
 31
0.0
  0
LINE
  5
AC8
330
1F
100
AcDbEntity
  8
1
  6
CONTINUOUS
370
50
 62
4
100
AcDbLine
 10
90.0
 20
-0.324683
 30
0.0
 11
90.0
 21
-0.010573
 31
0.0
  0
LINE
  5
AC9
330
1F
100
AcDbEntity
  8
1
  6
CONTINUOUS
370
50
 62
4
100
AcDbLine
 10
90.0
 20
-5.944141
 30
0.0
 11
90.0
 21
-0.324683
 31
0.0
  0
LINE
  5
ACA
330
1F
100
AcDbEntity
  8
1
  6
CONTINUOUS
370
50
 62
4
100
AcDbLine
 10
90.0
 20
0.816831
 30
0.0
 11
90.0
 21
5.426684
 31
0.0
  0
ELLIPSE
  5
ACB
330
1F
100
AcDbEntity
  8
1
  6
CONTINUOUS
370
50
 62
4
100
AcDbEllipse
 10
90.265402
 20
0.0
 30
0.0
 11
3.673819673770309E-16
 21
6.000001
 31
0.0
210
0.0
220
0.0
230
1.0
 40
0.3249197791800372
 41
2.96938741542799
 42
3.005031620359595
  0
ELLIPSE
  5
ACC
330
1F
100
AcDbEntity
  8
1
  6
CONTINUOUS
370
50
 62
4
100
AcDbEllipse
 10
119.415503
 20
-89.223815
 30
0.0
 11
-71.42042583856239
 21
72.2283941596317
 31
0.0
210
0.0
220
0.0
230
1.0
 40
0.9326670765492
 41
6.071915812595075
 42
6.087627562644407
  0
ELLIPSE
  5
ACD
330
1F
100
AcDbEntity
  8
1
  6
CONTINUOUS
370
50
 62
4
100
AcDbEllipse
 10
119.415503
 20
9.015438999999999
 30
0.0
 11
-97.94001998996494
 21
26.9364180364871
 31
0.0
210
0.0
220
0.0
230
1.0
 40
0.2536417704286058
 41
1.021389921711445
 42
1.065164903682217
  0
ELLIPSE
  5
ACE
330
1F
100
AcDbEntity
  8
1
  6
CONTINUOUS
370
50
 62
4
100
AcDbEllipse
 10
119.973367
 20
11.043819
 30
0.0
 11
-97.48506291441046
 21
26.81129131120106
 31
0.0
210
0.0
220
0.0
230
1.0
 40
0.2536417698872058
 41
1.034927627993992
 42
1.055303154085499
  0
LINE
  5
ACF
330
1F
100
AcDbEntity
  8
CUT
  6
CONTINUOUS
370
25
 62
1
100
AcDbLine
 10
66.0
 20
0.0
 30
0.0
 11
90.0
 21
0.0
 31
0.0
  0
LINE
  5
AD0
330
1F
100
AcDbEntity
  8
CUT
  6
CONTINUOUS
370
25
 62
1
100
AcDbLine
 10
90.0
 20
0.0
 30
0.0
 11
90.0
 21
5.995
 31
0.0
  0
LINE
  5
AD1
330
1F
100
AcDbEntity
  8
CUT
  6
CONTINUOUS
370
25
 62
1
100
AcDbLine
 10
90.0
 20
5.995
 30
0.0
 11
90.0
 21
6.0
 31
0.0
  0
LINE
  5
AD2
330
1F
100
AcDbEntity
  8
CUT
  6
CONTINUOUS
370
25
 62
1
100
AcDbLine
 10
90.0
 20
6.0
 30
0.0
 11
66.0
 21
5.9999
 31
0.0
  0
LINE
  5
AD3
330
1F
100
AcDbEntity
  8
CUT
  6
CONTINUOUS
370
25
 62
1
100
AcDbLine
 10
66.0
 20
5.9999
 30
0.0
 11
66.0
 21
0.0
 31
0.0
  0
LINE
  5
AD4
330
1F
100
AcDbEntity
  8
NOCUT
  6
CONTINUOUS
370
25
 62
7
100
AcDbLine
 10
53.6
 20
0.0
 30
0.0
 11
66.0
 21
0.0
 31
0.0
  0
LINE
  5
AD5
330
1F
100
AcDbEntity
  8
NOCUT
  6
CONTINUOUS
370
25
 62
7
100
AcDbLine
 10
66.0
 20
0.0
 30
0.0
 11
66.0
 21
5.74995
 31
0.0
  0
LINE
  5
AD6
330
1F
100
AcDbEntity
  8
NOCUT
  6
CONTINUOUS
370
25
 62
7
100
AcDbLine
 10
66.0
 20
5.74995
 30
0.0
 11
54.0
 21
5.74995
 31
0.0
  0
LINE
  5
AD7
330
1F
100
AcDbEntity
  8
NOCUT
  6
CONTINUOUS
370
25
 62
7
100
AcDbLine
 10
54.0
 20
5.74995
 30
0.0
 11
53.6
 21
5.99995
 31
0.0
  0
LINE
  5
AD8
330
1F
100
AcDbEntity
  8
NOCUT
  6
CONTINUOUS
370
25
 62
7
100
AcDbLine
 10
53.6
 20
5.99995
 30
0.0
 11
53.6
 21
0.0
 31
0.0
  0
LINE
  5
AD9
330
1F
100
AcDbEntity
  8
SK1
  6
CONTINUOUS
370
50
 62
4
100
AcDbLine
 10
53.6
 20
6.0
 30
0.0
 11
0.6000000000000014
 21
6.0
 31
0.0
  0
LINE
  5
ADA
330
1F
100
AcDbEntity
  8
SK1
  6
CONTINUOUS
370
50
 62
4
100
AcDbLine
 10
0.6000000000000014
 20
6.0
 30
0.0
 11
0.0
 21
5.4
 31
0.0
  0
LINE
  5
ADB
330
1F
100
AcDbEntity
  8
SK1
  6
CONTINUOUS
370
50
 62
4
100
AcDbLine
 10
0.0
 20
5.4
 30
0.0
 11
0.0
 21
-5.4
 31
0.0
  0
LINE
  5
ADC
330
1F
100
AcDbEntity
  8
SK1
  6
CONTINUOUS
370
50
 62
4
100
AcDbLine
 10
0.0
 20
-5.4
 30
0.0
 11
0.6000000000000014
 21
-6.0
 31
0.0
  0
LINE
  5
ADD
330
1F
100
AcDbEntity
  8
SK1
  6
CONTINUOUS
370
50
 62
4
100
AcDbLine
 10
0.6000000000000014
 20
-6.0
 30
0.0
 11
53.6
 21
-6.0
 31
0.0
  0
LINE
  5
ADE
330
1F
100
AcDbEntity
  8
SK1
  6
CONTINUOUS
370
50
 62
4
100
AcDbLine
 10
0.6000000000000014
 20
6.0
 30
0.0
 11
0.6000000000000014
 21
-6.0
 31
0.0
  0
LINE
  5
ADF
330
1F
100
AcDbEntity
  8
SK2
  6
CONTINUOUS
370
25
 62
7
100
AcDbLine
 10
0.0
 20
-6.0
 30
0.0
 11
-11.99999999999999
 21
-6.0
 31
0.0
  0
LINE
  5
AE0
330
1F
100
AcDbEntity
  8
SK2
  6
CONTINUOUS
370
25
 62
7
100
AcDbLine
 10
-12.99999999999999
 20
6.0
 30
0.0
 11
0.0000000000000071
 21
6.0
 31
0.0
  0
LINE
  5
AE1
330
1F
100
AcDbEntity
  8
SK2
  6
CONTINUOUS
370
25
 62
7
100
AcDbLine
 10
-11.99999999999999
 20
-13.0
 30
0.0
 11
-11.99999999999999
 21
13.0
 31
0.0
  0
LINE
  5
AE2
330
1F
100
AcDbEntity
  8
SK2
  6
CONTINUOUS
370
25
 62
7
100
AcDbLine
 10
-11.99999999999999
 20
-6.0
 30
0.0
 11
-10.99999999999999
 21
-11.0
 31
0.0
  0
LINE
  5
AE3
330
1F
100
AcDbEntity
  8
SK2
  6
CONTINUOUS
370
25
 62
7
100
AcDbLine
 10
-10.99999999999999
 20
-11.0
 30
0.0
 11
-12.99999999999999
 21
-11.0
 31
0.0
  0
LINE
  5
AE4
330
1F
100
AcDbEntity
  8
SK2
  6
CONTINUOUS
370
25
 62
7
100
AcDbLine
 10
-12.99999999999999
 20
-11.0
 30
0.0
 11
-11.99999999999999
 21
-6.0
 31
0.0
  0
LINE
  5
AE5
330
1F
100
AcDbEntity
  8
SK2
  6
CONTINUOUS
370
25
 62
7
100
AcDbLine
 10
-11.28153672641482
 20
-11.0
 30
0.0
 11
-11.04692278773579
 21
-10.76538606132097
 31
0.0
  0
LINE
  5
AE6
330
1F
100
AcDbEntity
  8
SK2
  6
CONTINUOUS
370
25
 62
7
100
AcDbLine
 10
-11.70580079512674
 20
-11.0
 30
0.0
 11
-11.11763346585446
 21
-10.41183267072772
 31
0.0
  0
LINE
  5
AE7
330
1F
100
AcDbEntity
  8
SK2
  6
CONTINUOUS
370
25
 62
7
100
AcDbLine
 10
-12.13006486383866
 20
-10.99999999999999
 30
0.0
 11
-11.18834414397312
 21
-10.05827928013444
 31
0.0
  0
LINE
  5
AE8
330
1F
100
AcDbEntity
  8
SK2
  6
CONTINUOUS
370
25
 62
7
100
AcDbLine
 10
-12.5543289325506
 20
-11.0
 30
0.0
 11
-11.25905482209176
 21
-9.704725889541152
 31
0.0
  0
LINE
  5
AE9
330
1F
100
AcDbEntity
  8
SK2
  6
CONTINUOUS
370
25
 62
7
100
AcDbLine
 10
-12.97859300126252
 20
-11.0
 30
0.0
 11
-11.32976550021042
 21
-9.35117249894789
 31
0.0
  0
LINE
  5
AEA
330
1F
100
AcDbEntity
  8
SK2
  6
CONTINUOUS
370
25
 62
7
100
AcDbLine
 10
-12.89928573250639
 20
-10.49642866253194
 30
0.0
 11
-11.40047617832906
 21
-8.997619108354598
 31
0.0
  0
LINE
  5
AEB
330
1F
100
AcDbEntity
  8
SK2
  6
CONTINUOUS
370
25
 62
7
100
AcDbLine
 10
-12.7932197153284
 20
-9.966098576642018
 30
0.0
 11
-11.47118685644774
 21
-8.644065717761357
 31
0.0
  0
LINE
  5
AEC
330
1F
100
AcDbEntity
  8
SK2
  6
CONTINUOUS
370
25
 62
7
100
AcDbLine
 10
-12.68715369815042
 20
-9.435768490752096
 30
0.0
 11
-11.54189753456638
 21
-8.29051232716806
 31
0.0
  0
LINE
  5
AED
330
1F
100
AcDbEntity
  8
SK2
  6
CONTINUOUS
370
25
 62
7
100
AcDbLine
 10
-12.58108768097244
 20
-8.905438404862196
 30
0.0
 11
-11.61260821268505
 21
-7.936958936574811
 31
0.0
  0
LINE
  5
AEE
330
1F
100
AcDbEntity
  8
SK2
  6
CONTINUOUS
370
25
 62
7
100
AcDbLine
 10
-12.47502166379444
 20
-8.375108318972266
 30
0.0
 11
-11.6833188908037
 21
-7.58340554598152
 31
0.0
  0
LINE
  5
AEF
330
1F
100
AcDbEntity
  8
SK2
  6
CONTINUOUS
370
25
 62
7
100
AcDbLine
 10
-12.36895564661646
 20
-7.844778233082373
 30
0.0
 11
-11.75402956892236
 21
-7.229852155388251
 31
0.0
  0
LINE
  5
AF0
330
1F
100
AcDbEntity
  8
SK2
  6
CONTINUOUS
370
25
 62
7
100
AcDbLine
 10
-12.26288962943848
 20
-7.314448147192451
 30
0.0
 11
-11.824740247041
 21
-6.876298764794953
 31
0.0
  0
LINE
  5
AF1
330
1F
100
AcDbEntity
  8
SK2
  6
CONTINUOUS
370
25
 62
7
100
AcDbLine
 10
-12.1568236122605
 20
-6.78411806130255
 30
0.0
 11
-11.89545092515966
 21
-6.522745374201691
 31
0.0
  0
LINE
  5
AF2
330
1F
100
AcDbEntity
  8
SK2
  6
CONTINUOUS
370
25
 62
7
100
AcDbLine
 10
-12.05075759508251
 20
-6.253787975412621
 30
0.0
 11
-11.96616160327832
 21
-6.169191983608414
 31
0.0
  0
LINE
  5
AF3
330
1F
100
AcDbEntity
  8
SK2
  6
CONTINUOUS
370
25
 62
7
100
AcDbLine
 10
-12.93999560192629
 20
-10.69997800963147
 30
0.0
 11
-12.63997361155774
 21
-11.0
 31
0.0
  0
LINE
  5
AF4
330
1F
100
AcDbEntity
  8
SK2
  6
CONTINUOUS
370
25
 62
7
100
AcDbLine
 10
-12.86928492380763
 20
-10.34642461903819
 30
0.0
 11
-12.21570954284582
 21
-11.0
 31
0.0
  0
LINE
  5
AF5
330
1F
100
AcDbEntity
  8
SK2
  6
CONTINUOUS
370
25
 62
7
100
AcDbLine
 10
-12.79857424568898
 20
-9.992871228444926
 30
0.0
 11
-11.79144547413389
 21
-11.0
 31
0.0
  0
LINE
  5
AF6
330
1F
100
AcDbEntity
  8
SK2
  6
CONTINUOUS
370
25
 62
7
100
AcDbLine
 10
-12.72786356757033
 20
-9.639317837851635
 30
0.0
 11
-11.36718140542197
 21
-11.0
 31
0.0
  0
LINE
  5
AF7
330
1F
100
AcDbEntity
  8
SK2
  6
CONTINUOUS
370
25
 62
7
100
AcDbLine
 10
-12.65715288945166
 20
-9.285764447258387
 30
0.0
 11
-11.0142706658225
 21
-10.92864667088753
 31
0.0
  0
LINE
  5
AF8
330
1F
100
AcDbEntity
  8
SK2
  6
CONTINUOUS
370
25
 62
7
100
AcDbLine
 10
-12.58644221133301
 20
-8.932211056665096
 30
0.0
 11
-11.12033668300048
 21
-10.39831658499762
 31
0.0
  0
LINE
  5
AF9
330
1F
100
AcDbEntity
  8
SK2
  6
CONTINUOUS
370
25
 62
7
100
AcDbLine
 10
-12.51573153321437
 20
-8.57865766607182
 30
0.0
 11
-11.22640270017845
 21
-9.86798649910773
 31
0.0
  0
LINE
  5
AFA
330
1F
100
AcDbEntity
  8
SK2
  6
CONTINUOUS
370
25
 62
7
100
AcDbLine
 10
-12.44502085509571
 20
-8.225104275478557
 30
0.0
 11
-11.33246871735643
 21
-9.337656413217829
 31
0.0
  0
LINE
  5
AFB
330
1F
100
AcDbEntity
  8
SK2
  6
CONTINUOUS
370
25
 62
7
100
AcDbLine
 10
-12.37431017697707
 20
-7.871550884885266
 30
0.0
 11
-11.43853473453441
 21
-8.807326327327928
 31
0.0
  0
LINE
  5
AFC
330
1F
100
AcDbEntity
  8
SK2
  6
CONTINUOUS
370
25
 62
7
100
AcDbLine
 10
-12.3035994988584
 20
-7.517997494292018
 30
0.0
 11
-11.5446007517124
 21
-8.276996241437999
 31
0.0
  0
LINE
  5
AFD
330
1F
100
AcDbEntity
  8
SK2
  6
CONTINUOUS
370
25
 62
7
100
AcDbLine
 10
-12.23288882073975
 20
-7.164444103698727
 30
0.0
 11
-11.65066676889038
 21
-7.746666155548098
 31
0.0
  0
LINE
  5
AFE
330
1F
100
AcDbEntity
  8
SK2
  6
CONTINUOUS
370
25
 62
7
100
AcDbLine
 10
-12.16217814262109
 20
-6.810890713105465
 30
0.0
 11
-11.75673278606836
 21
-7.216336069658198
 31
0.0
  0
LINE
  5
AFF
330
1F
100
AcDbEntity
  8
SK2
  6
CONTINUOUS
370
25
 62
7
100
AcDbLine
 10
-12.09146746450244
 20
-6.457337322512188
 30
0.0
 11
-11.86279880324634
 21
-6.686005983768283
 31
0.0
  0
LINE
  5
B00
330
1F
100
AcDbEntity
  8
SK2
  6
CONTINUOUS
370
25
 62
7
100
AcDbLine
 10
-12.02075678638379
 20
-6.103783931918912
 30
0.0
 11
-11.96886482042432
 21
-6.155675897878382
 31
0.0
  0
LINE
  5
B01
330
1F
100
AcDbEntity
  8
SK2
  6
CONTINUOUS
370
25
 62
7
100
AcDbLine
 10
-11.99999999999999
 20
6.0
 30
0.0
 11
-12.99999999999999
 21
11.0
 31
0.0
  0
LINE
  5
B02
330
1F
100
AcDbEntity
  8
SK2
  6
CONTINUOUS
370
25
 62
7
100
AcDbLine
 10
-12.99999999999999
 20
11.0
 30
0.0
 11
-10.99999999999999
 21
11.0
 31
0.0
  0
LINE
  5
B03
330
1F
100
AcDbEntity
  8
SK2
  6
CONTINUOUS
370
25
 62
7
100
AcDbLine
 10
-10.99999999999999
 20
11.0
 30
0.0
 11
-11.99999999999999
 21
6.0
 31
0.0
  0
LINE
  5
B04
330
1F
100
AcDbEntity
  8
SK2
  6
CONTINUOUS
370
25
 62
7
100
AcDbLine
 10
-12.0167712687193
 20
6.083856343596565
 30
0.0
 11
-11.97484309692104
 21
6.125784515394827
 31
0.0
  0
LINE
  5
B05
330
1F
100
AcDbEntity
  8
SK2
  6
CONTINUOUS
370
25
 62
7
100
AcDbLine
 10
-12.08748194683796
 20
6.437409734189828
 30
0.0
 11
-11.86877707974305
 21
6.656114601284742
 31
0.0
  0
LINE
  5
B06
330
1F
100
AcDbEntity
  8
SK2
  6
CONTINUOUS
370
25
 62
7
100
AcDbLine
 10
-12.15819262495662
 20
6.79096312478309
 30
0.0
 11
-11.76271106256508
 21
7.186444687174628
 31
0.0
  0
LINE
  5
B07
330
1F
100
AcDbEntity
  8
SK2
  6
CONTINUOUS
370
25
 62
7
100
AcDbLine
 10
-12.22890330307528
 20
7.144516515376381
 30
0.0
 11
-11.65664504538707
 21
7.716774773064586
 31
0.0
  0
LINE
  5
B08
330
1F
100
AcDbEntity
  8
SK2
  6
CONTINUOUS
370
25
 62
7
100
AcDbLine
 10
-12.29961398119392
 20
7.498069905969658
 30
0.0
 11
-11.55057902820911
 21
8.247104858954472
 31
0.0
  0
LINE
  5
B09
330
1F
100
AcDbEntity
  8
SK2
  6
CONTINUOUS
370
25
 62
7
100
AcDbLine
 10
-12.37032465931258
 20
7.85162329656292
 30
0.0
 11
-11.44451301103113
 21
8.777434944844373
 31
0.0
  0
LINE
  5
B0A
330
1F
100
AcDbEntity
  8
SK2
  6
CONTINUOUS
370
25
 62
7
100
AcDbLine
 10
-12.44103533743122
 20
8.20517668715621
 30
0.0
 11
-11.33844699385315
 21
9.307765030734288
 31
0.0
  0
LINE
  5
B0B
330
1F
100
AcDbEntity
  8
SK2
  6
CONTINUOUS
370
25
 62
7
100
AcDbLine
 10
-12.5117460155499
 20
8.558730077749473
 30
0.0
 11
-11.23238097667517
 21
9.838095116624203
 31
0.0
  0
LINE
  5
B0C
330
1F
100
AcDbEntity
  8
SK2
  6
CONTINUOUS
370
25
 62
7
100
AcDbLine
 10
-12.58245669366854
 20
8.91228346834275
 30
0.0
 11
-11.12631495949717
 21
10.36842520251413
 31
0.0
  0
LINE
  5
B0D
330
1F
100
AcDbEntity
  8
SK2
  6
CONTINUOUS
370
25
 62
7
100
AcDbLine
 10
-12.6531673717872
 20
9.265836858936012
 30
0.0
 11
-11.02024894231919
 21
10.89875528840405
 31
0.0
  0
LINE
  5
B0E
330
1F
100
AcDbEntity
  8
SK2
  6
CONTINUOUS
370
25
 62
7
100
AcDbLine
 10
-12.72387804990586
 20
9.619390249529289
 30
0.0
 11
-11.34326829943516
 21
11.0
 31
0.0
  0
LINE
  5
B0F
330
1F
100
AcDbEntity
  8
SK2
  6
CONTINUOUS
370
25
 62
7
100
AcDbLine
 10
-12.7945887280245
 20
9.97294364012258
 30
0.0
 11
-11.76753236814709
 21
11.0
 31
0.0
  0
LINE
  5
B10
330
1F
100
AcDbEntity
  8
SK2
  6
CONTINUOUS
370
25
 62
7
100
AcDbLine
 10
-12.86529940614317
 20
10.32649703071584
 30
0.0
 11
-12.19179643685901
 21
11.0
 31
0.0
  0
LINE
  5
B11
330
1F
100
AcDbEntity
  8
SK2
  6
CONTINUOUS
370
25
 62
7
100
AcDbLine
 10
-12.93601008426182
 20
10.68005042130913
 30
0.0
 11
-12.61606050557095
 21
11.0
 31
0.0
  0
LINE
  5
B12
330
1F
100
AcDbEntity
  8
SK2
  6
CONTINUOUS
370
25
 62
7
100
AcDbLine
 10
-12.05949794434728
 20
6.297489721736376
 30
0.0
 11
-11.96033470376847
 21
6.198326481157572
 31
0.0
  0
LINE
  5
B13
330
1F
100
AcDbEntity
  8
SK2
  6
CONTINUOUS
370
25
 62
7
100
AcDbLine
 10
-12.16556396152526
 20
6.827819807626298
 30
0.0
 11
-11.88962402564983
 21
6.55187987175087
 31
0.0
  0
LINE
  5
B14
330
1F
100
AcDbEntity
  8
SK2
  6
CONTINUOUS
370
25
 62
7
100
AcDbLine
 10
-12.27162997870324
 20
7.358149893516185
 30
0.0
 11
-11.81891334753117
 21
6.905433262344118
 31
0.0
  0
LINE
  5
B15
330
1F
100
AcDbEntity
  8
SK2
  6
CONTINUOUS
370
25
 62
7
100
AcDbLine
 10
-12.37769599588122
 20
7.888479979406085
 30
0.0
 11
-11.74820266941251
 21
7.258986652937395
 31
0.0
  0
LINE
  5
B16
330
1F
100
AcDbEntity
  8
SK2
  6
CONTINUOUS
370
25
 62
7
100
AcDbLine
 10
-12.4837620130592
 20
8.418810065296007
 30
0.0
 11
-11.67749199129387
 21
7.612540043530679
 31
0.0
  0
LINE
  5
B17
330
1F
100
AcDbEntity
  8
SK2
  6
CONTINUOUS
370
25
 62
7
100
AcDbLine
 10
-12.58982803023718
 20
8.949140151185915
 30
0.0
 11
-11.60678131317521
 21
7.966093434123962
 31
0.0
  0
LINE
  5
B18
330
1F
100
AcDbEntity
  8
SK2
  6
CONTINUOUS
370
25
 62
7
100
AcDbLine
 10
-12.69589404741516
 20
9.479470237075802
 30
0.0
 11
-11.53607063505655
 21
8.31964682471721
 31
0.0
  0
LINE
  5
B19
330
1F
100
AcDbEntity
  8
SK2
  6
CONTINUOUS
370
25
 62
7
100
AcDbLine
 10
-12.80196006459314
 20
10.00980032296572
 30
0.0
 11
-11.46535995693791
 21
8.673200215310501
 31
0.0
  0
LINE
  5
B1A
330
1F
100
AcDbEntity
  8
SK2
  6
CONTINUOUS
370
25
 62
7
100
AcDbLine
 10
-12.9080260817711
 20
10.54013040885561
 30
0.0
 11
-11.39464927881925
 21
9.026753605903771
 31
0.0
  0
LINE
  5
B1B
330
1F
100
AcDbEntity
  8
SK2
  6
CONTINUOUS
370
25
 62
7
100
AcDbLine
 10
-12.94363160420357
 20
11.0
 30
0.0
 11
-11.32393860070058
 21
9.380306996497026
 31
0.0
  0
LINE
  5
B1C
330
1F
100
AcDbEntity
  8
SK2
  6
CONTINUOUS
370
25
 62
7
100
AcDbLine
 10
-12.51936753549165
 20
11.0
 30
0.0
 11
-11.25322792258194
 21
9.733860387090317
 31
0.0
  0
LINE
  5
B1D
330
1F
100
AcDbEntity
  8
SK2
  6
CONTINUOUS
370
25
 62
7
100
AcDbLine
 10
-12.09510346677973
 20
11.0
 30
0.0
 11
-11.18251724446328
 21
10.08741377768357
 31
0.0
  0
LINE
  5
B1E
330
1F
100
AcDbEntity
  8
SK2
  6
CONTINUOUS
370
25
 62
7
100
AcDbLine
 10
-11.67083939806779
 20
11.00000000000001
 30
0.0
 11
-11.11180656634462
 21
10.44096716827685
 31
0.0
  0
LINE
  5
B1F
330
1F
100
AcDbEntity
  8
SK2
  6
CONTINUOUS
370
25
 62
7
100
AcDbLine
 10
-11.24657532935584
 20
11.0
 30
0.0
 11
-11.04109588822596
 21
10.79452055887012
 31
0.0
  0
TEXT
  5
B20
330
1F
100
AcDbEntity
  8
SK2
  6
CONTINUOUS
370
25
 62
7
100
AcDbText
 10
-13.49999999999999
 20
-0.0583333333333336
 30
0.0
 40
3.5
  1
12
 50
90.0
 72
     1
 11
-13.49999999999999
 21
2.275
 31
0.0
100
AcDbText
  0
CIRCLE
  5
B21
330
1F
100
AcDbEntity
  8
SK2
  6
CONTINUOUS
370
25
 62
7
100
AcDbCircle
 10
-15.24999999999999
 20
-2.625
 30
0.0
 40
1.4
  0
LINE
  5
B22
330
1F
100
AcDbEntity
  8
SK2
  6
CONTINUOUS
370
25
 62
7
100
AcDbLine
 10
-13.84999999999999
 20
-4.024999999999999
 30
0.0
 11
-16.65
 21
-1.224999999999999
 31
0.0
  0
LINE
  5
B23
330
1F
100
AcDbEntity
  8
SK2
  6
CONTINUOUS
370
25
 62
7
100
AcDbLine
 10
0.0
 20
6.0
 30
0.0
 11
0.0
 21
19.00001
 31
0.0
  0
LINE
  5
B24
330
1F
100
AcDbEntity
  8
SK2
  6
CONTINUOUS
370
25
 62
7
100
AcDbLine
 10
53.6
 20
19.00001
 30
0.0
 11
53.6
 21
6.0
 31
0.0
  0
LINE
  5
B25
330
1F
100
AcDbEntity
  8
SK2
  6
CONTINUOUS
370
25
 62
7
100
AcDbLine
 10
0.0
 20
18.00001
 30
0.0
 11
53.6
 21
18.00001
 31
0.0
  0
LINE
  5
B26
330
1F
100
AcDbEntity
  8
SK2
  6
CONTINUOUS
370
25
 62
7
100
AcDbLine
 10
0.0
 20
18.00001
 30
0.0
 11
5.0
 21
19.00001
 31
0.0
  0
LINE
  5
B27
330
1F
100
AcDbEntity
  8
SK2
  6
CONTINUOUS
370
25
 62
7
100
AcDbLine
 10
5.0
 20
19.00001
 30
0.0
 11
5.0
 21
17.00001
 31
0.0
  0
LINE
  5
B28
330
1F
100
AcDbEntity
  8
SK2
  6
CONTINUOUS
370
25
 62
7
100
AcDbLine
 10
5.0
 20
17.00001
 30
0.0
 11
0.0
 21
18.00001
 31
0.0
  0
LINE
  5
B29
330
1F
100
AcDbEntity
  8
SK2
  6
CONTINUOUS
370
25
 62
7
100
AcDbLine
 10
4.865899458042549
 20
17.02683010839149
 30
0.0
 11
5.0
 21
17.16093065034894
 31
0.0
  0
LINE
  5
B2A
330
1F
100
AcDbEntity
  8
SK2
  6
CONTINUOUS
370
25
 62
7
100
AcDbLine
 10
4.512346067449286
 20
17.09754078651014
 30
0.0
 11
5.0
 21
17.58519471906086
 31
0.0
  0
LINE
  5
B2B
330
1F
100
AcDbEntity
  8
SK2
  6
CONTINUOUS
370
25
 62
7
100
AcDbLine
 10
4.158792676856002
 20
17.1682514646288
 30
0.0
 11
5.0
 21
18.00945878777279
 31
0.0
  0
LINE
  5
B2C
330
1F
100
AcDbEntity
  8
SK2
  6
CONTINUOUS
370
25
 62
7
100
AcDbLine
 10
3.805239286262726
 20
17.23896214274745
 30
0.0
 11
5.0
 21
18.43372285648473
 31
0.0
  0
LINE
  5
B2D
330
1F
100
AcDbEntity
  8
SK2
  6
CONTINUOUS
370
25
 62
7
100
AcDbLine
 10
3.451685895669449
 20
17.30967282086611
 30
0.0
 11
5.0
 21
18.85798692519666
 31
0.0
  0
LINE
  5
B2E
330
1F
100
AcDbEntity
  8
SK2
  6
CONTINUOUS
370
25
 62
7
100
AcDbLine
 10
3.09813250507618
 20
17.38038349898476
 30
0.0
 11
4.647198757614277
 21
18.92944975152286
 31
0.0
  0
LINE
  5
B2F
330
1F
100
AcDbEntity
  8
SK2
  6
CONTINUOUS
370
25
 62
7
100
AcDbLine
 10
2.744579114482903
 20
17.45109417710342
 30
0.0
 11
4.116868671724362
 21
18.82338373434488
 31
0.0
  0
LINE
  5
B30
330
1F
100
AcDbEntity
  8
SK2
  6
CONTINUOUS
370
25
 62
7
100
AcDbLine
 10
2.391025723889619
 20
17.52180485522207
 30
0.0
 11
3.58653858583444
 21
18.71731771716689
 31
0.0
  0
LINE
  5
B31
330
1F
100
AcDbEntity
  8
SK2
  6
CONTINUOUS
370
25
 62
7
100
AcDbLine
 10
2.037472333296343
 20
17.59251553334073
 30
0.0
 11
3.056208499944525
 21
18.61125169998891
 31
0.0
  0
LINE
  5
B32
330
1F
100
AcDbEntity
  8
SK2
  6
CONTINUOUS
370
25
 62
7
100
AcDbLine
 10
1.683918942703073
 20
17.66322621145938
 30
0.0
 11
2.525878414054624
 21
18.50518568281093
 31
0.0
  0
LINE
  5
B33
330
1F
100
AcDbEntity
  8
SK2
  6
CONTINUOUS
370
25
 62
7
100
AcDbLine
 10
1.330365552109797
 20
17.73393688957804
 30
0.0
 11
1.995548328164702
 21
18.39911966563294
 31
0.0
  0
LINE
  5
B34
330
1F
100
AcDbEntity
  8
SK2
  6
CONTINUOUS
370
25
 62
7
100
AcDbLine
 10
0.97681216151652
 20
17.8046475676967
 30
0.0
 11
1.465218242274787
 21
18.29305364845496
 31
0.0
  0
LINE
  5
B35
330
1F
100
AcDbEntity
  8
SK2
  6
CONTINUOUS
370
25
 62
7
100
AcDbLine
 10
0.6232587709232362
 20
17.87535824581535
 30
0.0
 11
0.934888156384865
 21
18.18698763127698
 31
0.0
  0
LINE
  5
B36
330
1F
100
AcDbEntity
  8
SK2
  6
CONTINUOUS
370
25
 62
7
100
AcDbLine
 10
0.2697053803299738
 20
17.94606892393401
 30
0.0
 11
0.4045580704949643
 21
18.080921614099
 31
0.0
  0
LINE
  5
B37
330
1F
100
AcDbEntity
  8
SK2
  6
CONTINUOUS
370
25
 62
7
100
AcDbLine
 10
0.0457915506740179
 20
18.0091683101348
 30
0.0
 11
0.0686873260110303
 21
17.98627253479779
 31
0.0
  0
LINE
  5
B38
330
1F
100
AcDbEntity
  8
SK2
  6
CONTINUOUS
370
25
 62
7
100
AcDbLine
 10
0.3993449412672945
 20
18.07987898825345
 30
0.0
 11
0.5990174119009382
 21
17.88020651761981
 31
0.0
  0
LINE
  5
B39
330
1F
100
AcDbEntity
  8
SK2
  6
CONTINUOUS
370
25
 62
7
100
AcDbLine
 10
0.7528983318605711
 20
18.15058966637211
 30
0.0
 11
1.129347497790853
 21
17.77414050044183
 31
0.0
  0
LINE
  5
B3A
330
1F
100
AcDbEntity
  8
SK2
  6
CONTINUOUS
370
25
 62
7
100
AcDbLine
 10
1.106451722453855
 20
18.22130034449076
 30
0.0
 11
1.659677583680775
 21
17.66807448326384
 31
0.0
  0
LINE
  5
B3B
330
1F
100
AcDbEntity
  8
SK2
  6
CONTINUOUS
370
25
 62
7
100
AcDbLine
 10
1.460005113047124
 20
18.29201102260942
 30
0.0
 11
2.190007669570683
 21
17.56200846608586
 31
0.0
  0
LINE
  5
B3C
330
1F
100
AcDbEntity
  8
SK2
  6
CONTINUOUS
370
25
 62
7
100
AcDbLine
 10
1.813558503640401
 20
18.36272170072807
 30
0.0
 11
2.720337755460598
 21
17.45594244890788
 31
0.0
  0
LINE
  5
B3D
330
1F
100
AcDbEntity
  8
SK2
  6
CONTINUOUS
370
25
 62
7
100
AcDbLine
 10
2.167111894233678
 20
18.43343237884673
 30
0.0
 11
3.250667841350513
 21
17.3498764317299
 31
0.0
  0
LINE
  5
B3E
330
1F
100
AcDbEntity
  8
SK2
  6
CONTINUOUS
370
25
 62
7
100
AcDbLine
 10
2.520665284826954
 20
18.50414305696539
 30
0.0
 11
3.780997927240435
 21
17.24381041455192
 31
0.0
  0
LINE
  5
B3F
330
1F
100
AcDbEntity
  8
SK2
  6
CONTINUOUS
370
25
 62
7
100
AcDbLine
 10
2.874218675420231
 20
18.57485373508404
 30
0.0
 11
4.311328013130343
 21
17.13774439737394
 31
0.0
  0
LINE
  5
B40
330
1F
100
AcDbEntity
  8
SK2
  6
CONTINUOUS
370
25
 62
7
100
AcDbLine
 10
3.2277720660135
 20
18.6455644132027
 30
0.0
 11
4.841658099020258
 21
17.03167838019595
 31
0.0
  0
LINE
  5
B41
330
1F
100
AcDbEntity
  8
SK2
  6
CONTINUOUS
370
25
 62
7
100
AcDbLine
 10
3.581325456606784
 20
18.71627509132136
 30
0.0
 11
5.0
 21
17.29760054792814
 31
0.0
  0
LINE
  5
B42
330
1F
100
AcDbEntity
  8
SK2
  6
CONTINUOUS
370
25
 62
7
100
AcDbLine
 10
3.934878847200061
 20
18.78698576944001
 30
0.0
 11
5.0
 21
17.72186461664007
 31
0.0
  0
LINE
  5
B43
330
1F
100
AcDbEntity
  8
SK2
  6
CONTINUOUS
370
25
 62
7
100
AcDbLine
 10
4.288432237793337
 20
18.85769644755867
 30
0.0
 11
5.0
 21
18.146128685352
 31
0.0
  0
LINE
  5
B44
330
1F
100
AcDbEntity
  8
SK2
  6
CONTINUOUS
370
25
 62
7
100
AcDbLine
 10
4.641985628386607
 20
18.92840712567733
 30
0.0
 11
5.0
 21
18.57039275406393
 31
0.0
  0
LINE
  5
B45
330
1F
100
AcDbEntity
  8
SK2
  6
CONTINUOUS
370
25
 62
7
100
AcDbLine
 10
4.99553901897989
 20
18.99911780379598
 30
0.0
 11
5.0
 21
18.99465682277587
 31
0.0
  0
LINE
  5
B46
330
1F
100
AcDbEntity
  8
SK2
  6
CONTINUOUS
370
25
 62
7
100
AcDbLine
 10
53.6
 20
18.00001
 30
0.0
 11
48.6
 21
17.00001
 31
0.0
  0
LINE
  5
B47
330
1F
100
AcDbEntity
  8
SK2
  6
CONTINUOUS
370
25
 62
7
100
AcDbLine
 10
48.6
 20
17.00001
 30
0.0
 11
48.6
 21
19.00001
 31
0.0
  0
LINE
  5
B48
330
1F
100
AcDbEntity
  8
SK2
  6
CONTINUOUS
370
25
 62
7
100
AcDbLine
 10
48.6
 20
19.00001
 30
0.0
 11
53.6
 21
18.00001
 31
0.0
  0
LINE
  5
B49
330
1F
100
AcDbEntity
  8
SK2
  6
CONTINUOUS
370
25
 62
7
100
AcDbLine
 10
53.29581880673384
 20
17.93917376134677
 30
0.0
 11
53.39721253782256
 21
18.04056749243549
 31
0.0
  0
LINE
  5
B4A
330
1F
100
AcDbEntity
  8
SK2
  6
CONTINUOUS
370
25
 62
7
100
AcDbLine
 10
52.76548872084393
 20
17.83310774416879
 30
0.0
 11
53.04365914722929
 21
18.11127817055414
 31
0.0
  0
LINE
  5
B4B
330
1F
100
AcDbEntity
  8
SK2
  6
CONTINUOUS
370
25
 62
7
100
AcDbLine
 10
52.23515863495403
 20
17.72704172699081
 30
0.0
 11
52.69010575663602
 21
18.18198884867279
 31
0.0
  0
LINE
  5
B4C
330
1F
100
AcDbEntity
  8
SK2
  6
CONTINUOUS
370
25
 62
7
100
AcDbLine
 10
51.70482854906412
 20
17.62097570981282
 30
0.0
 11
52.33655236604275
 21
18.25269952679145
 31
0.0
  0
LINE
  5
B4D
330
1F
100
AcDbEntity
  8
SK2
  6
CONTINUOUS
370
25
 62
7
100
AcDbLine
 10
51.1744984631742
 20
17.51490969263484
 30
0.0
 11
51.98299897544947
 21
18.32341020491011
 31
0.0
  0
LINE
  5
B4E
330
1F
100
AcDbEntity
  8
SK2
  6
CONTINUOUS
370
25
 62
7
100
AcDbLine
 10
50.64416837728429
 20
17.40884367545686
 30
0.0
 11
51.62944558485619
 21
18.39412088302876
 31
0.0
  0
LINE
  5
B4F
330
1F
100
AcDbEntity
  8
SK2
  6
CONTINUOUS
370
25
 62
7
100
AcDbLine
 10
50.11383829139438
 20
17.30277765827888
 30
0.0
 11
51.27589219426292
 21
18.46483156114742
 31
0.0
  0
LINE
  5
B50
330
1F
100
AcDbEntity
  8
SK2
  6
CONTINUOUS
370
25
 62
7
100
AcDbLine
 10
49.58350820550447
 20
17.19671164110089
 30
0.0
 11
50.92233880366965
 21
18.53554223926607
 31
0.0
  0
LINE
  5
B51
330
1F
100
AcDbEntity
  8
SK2
  6
CONTINUOUS
370
25
 62
7
100
AcDbLine
 10
49.05317811961456
 20
17.09064562392291
 30
0.0
 11
50.56878541307638
 21
18.60625291738473
 31
0.0
  0
LINE
  5
B52
330
1F
100
AcDbEntity
  8
SK2
  6
CONTINUOUS
370
25
 62
7
100
AcDbLine
 10
48.6
 20
17.06173157302028
 30
0.0
 11
50.2152320224831
 21
18.67696359550338
 31
0.0
  0
LINE
  5
B53
330
1F
100
AcDbEntity
  8
SK2
  6
CONTINUOUS
370
25
 62
7
100
AcDbLine
 10
48.6
 20
17.48599564173221
 30
0.0
 11
49.86167863188983
 21
18.74767427362204
 31
0.0
  0
LINE
  5
B54
330
1F
100
AcDbEntity
  8
SK2
  6
CONTINUOUS
370
25
 62
7
100
AcDbLine
 10
48.6
 20
17.91025971044414
 30
0.0
 11
49.50812524129655
 21
18.81838495174069
 31
0.0
  0
LINE
  5
B55
330
1F
100
AcDbEntity
  8
SK2
  6
CONTINUOUS
370
25
 62
7
100
AcDbLine
 10
48.6
 20
18.33452377915606
 30
0.0
 11
49.15457185070328
 21
18.88909562985934
 31
0.0
  0
LINE
  5
B56
330
1F
100
AcDbEntity
  8
SK2
  6
CONTINUOUS
370
25
 62
7
100
AcDbLine
 10
48.6
 20
18.75878784786799
 30
0.0
 11
48.80101846011001
 21
18.959806307978
 31
0.0
  0
LINE
  5
B57
330
1F
100
AcDbEntity
  8
SK2
  6
CONTINUOUS
370
25
 62
7
100
AcDbLine
 10
48.6
 20
17.3036579926459
 30
0.0
 11
48.85303999387158
 21
17.05061799877432
 31
0.0
  0
LINE
  5
B58
330
1F
100
AcDbEntity
  8
SK2
  6
CONTINUOUS
370
25
 62
7
100
AcDbLine
 10
48.6
 20
17.72792206135782
 30
0.0
 11
49.20659338446485
 21
17.12132867689297
 31
0.0
  0
LINE
  5
B59
330
1F
100
AcDbEntity
  8
SK2
  6
CONTINUOUS
370
25
 62
7
100
AcDbLine
 10
48.6
 20
18.15218613006975
 30
0.0
 11
49.56014677505813
 21
17.19203935501162
 31
0.0
  0
LINE
  5
B5A
330
1F
100
AcDbEntity
  8
SK2
  6
CONTINUOUS
370
25
 62
7
100
AcDbLine
 10
48.6
 20
18.57645019878168
 30
0.0
 11
49.9137001656514
 21
17.26275003313028
 31
0.0
  0
LINE
  5
B5B
330
1F
100
AcDbEntity
  8
SK2
  6
CONTINUOUS
370
25
 62
7
100
AcDbLine
 10
48.60088033436701
 20
18.9998339331266
 30
0.0
 11
50.26725355624468
 21
17.33346071124894
 31
0.0
  0
LINE
  5
B5C
330
1F
100
AcDbEntity
  8
SK2
  6
CONTINUOUS
370
25
 62
7
100
AcDbLine
 10
49.13121042025692
 20
18.89376791594862
 30
0.0
 11
50.62080694683794
 21
17.40417138936759
 31
0.0
  0
LINE
  5
B5D
330
1F
100
AcDbEntity
  8
SK2
  6
CONTINUOUS
370
25
 62
7
100
AcDbLine
 10
49.66154050614683
 20
18.78770189877064
 30
0.0
 11
50.97436033743122
 21
17.47488206748625
 31
0.0
  0
LINE
  5
B5E
330
1F
100
AcDbEntity
  8
SK2
  6
CONTINUOUS
370
25
 62
7
100
AcDbLine
 10
50.19187059203674
 20
18.68163588159265
 30
0.0
 11
51.3279137280245
 21
17.5455927456049
 31
0.0
  0
LINE
  5
B5F
330
1F
100
AcDbEntity
  8
SK2
  6
CONTINUOUS
370
25
 62
7
100
AcDbLine
 10
50.72220067792665
 20
18.57556986441467
 30
0.0
 11
51.68146711861777
 21
17.61630342372355
 31
0.0
  0
LINE
  5
B60
330
1F
100
AcDbEntity
  8
SK2
  6
CONTINUOUS
370
25
 62
7
100
AcDbLine
 10
51.25253076381656
 20
18.46950384723669
 30
0.0
 11
52.03502050921104
 21
17.68701410184221
 31
0.0
  0
LINE
  5
B61
330
1F
100
AcDbEntity
  8
SK2
  6
CONTINUOUS
370
25
 62
7
100
AcDbLine
 10
51.78286084970647
 20
18.36343783005871
 30
0.0
 11
52.38857389980431
 21
17.75772477996086
 31
0.0
  0
LINE
  5
B62
330
1F
100
AcDbEntity
  8
SK2
  6
CONTINUOUS
370
25
 62
7
100
AcDbLine
 10
52.31319093559638
 20
18.25737181288072
 30
0.0
 11
52.74212729039759
 21
17.82843545807952
 31
0.0
  0
LINE
  5
B63
330
1F
100
AcDbEntity
  8
SK2
  6
CONTINUOUS
370
25
 62
7
100
AcDbLine
 10
52.8435210214863
 20
18.15130579570274
 30
0.0
 11
53.09568068099086
 21
17.89914613619817
 31
0.0
  0
LINE
  5
B64
330
1F
100
AcDbEntity
  8
SK2
  6
CONTINUOUS
370
25
 62
7
100
AcDbLine
 10
53.3738511073762
 20
18.04523977852476
 30
0.0
 11
53.44923407158414
 21
17.96985681431683
 31
0.0
  0
TEXT
  5
B65
330
1F
100
AcDbEntity
  8
SK2
  6
CONTINUOUS
370
25
 62
7
100
AcDbText
 10
21.55
 20
19.50001
 30
0.0
 40
3.5
  1
53.6
 72
     1
 11
26.8
 21
19.50001
 31
0.0
100
AcDbText
  0
LINE
  5
B66
330
1F
100
AcDbEntity
  8
2
  6
CONTINUOUS
370
25
 62
7
100
AcDbLine
 10
90.0
 20
-6.0
 30
0.0
 11
103.0
 21
-6.000000000000002
 31
0.0
  0
LINE
  5
B67
330
1F
100
AcDbEntity
  8
2
  6
CONTINUOUS
370
25
 62
7
100
AcDbLine
 10
103.0
 20
5.999999999999998
 30
0.0
 11
90.0
 21
6.0
 31
0.0
  0
LINE
  5
B68
330
1F
100
AcDbEntity
  8
2
  6
CONTINUOUS
370
25
 62
7
100
AcDbLine
 10
102.0
 20
-13.0
 30
0.0
 11
102.0
 21
13.0
 31
0.0
  0
LINE
  5
B69
330
1F
100
AcDbEntity
  8
2
  6
CONTINUOUS
370
25
 62
7
100
AcDbLine
 10
102.0
 20
-6.000000000000002
 30
0.0
 11
103.0
 21
-11.0
 31
0.0
  0
LINE
  5
B6A
330
1F
100
AcDbEntity
  8
2
  6
CONTINUOUS
370
25
 62
7
100
AcDbLine
 10
103.0
 20
-11.0
 30
0.0
 11
101.0
 21
-11.0
 31
0.0
  0
LINE
  5
B6B
330
1F
100
AcDbEntity
  8
2
  6
CONTINUOUS
370
25
 62
7
100
AcDbLine
 10
101.0
 20
-11.0
 30
0.0
 11
102.0
 21
-6.000000000000002
 31
0.0
  0
LINE
  5
B6C
330
1F
100
AcDbEntity
  8
2
  6
CONTINUOUS
370
25
 62
7
100
AcDbLine
 10
102.8348004287471
 20
-11.0
 30
0.0
 11
102.9724667381245
 21
-10.86233369062257
 31
0.0
  0
LINE
  5
B6D
330
1F
100
AcDbEntity
  8
2
  6
CONTINUOUS
370
25
 62
7
100
AcDbLine
 10
102.4105363600351
 20
-11.0
 30
0.0
 11
102.9017560600059
 21
-10.50878030002929
 31
0.0
  0
LINE
  5
B6E
330
1F
100
AcDbEntity
  8
2
  6
CONTINUOUS
370
25
 62
7
100
AcDbLine
 10
101.9862722913232
 20
-11.0
 30
0.0
 11
102.8310453818872
 21
-10.155226909436
 31
0.0
  0
LINE
  5
B6F
330
1F
100
AcDbEntity
  8
2
  6
CONTINUOUS
370
25
 62
7
100
AcDbLine
 10
101.5620082226113
 20
-11.0
 30
0.0
 11
102.7603347037685
 21
-9.801673518842733
 31
0.0
  0
LINE
  5
B70
330
1F
100
AcDbEntity
  8
2
  6
CONTINUOUS
370
25
 62
7
100
AcDbLine
 10
101.1377441538993
 20
-11.0
 30
0.0
 11
102.6896240256499
 21
-9.448120128249464
 31
0.0
  0
LINE
  5
B71
330
1F
100
AcDbEntity
  8
2
  6
CONTINUOUS
370
25
 62
7
100
AcDbLine
 10
101.0716299787032
 20
-10.64185010648427
 30
0.0
 11
102.6189133475312
 21
-9.094566737656187
 31
0.0
  0
LINE
  5
B72
330
1F
100
AcDbEntity
  8
2
  6
CONTINUOUS
370
25
 62
7
100
AcDbLine
 10
101.1776959958811
 20
-10.11152002059436
 30
0.0
 11
102.5482026694126
 21
-8.741013347062903
 31
0.0
  0
LINE
  5
B73
330
1F
100
AcDbEntity
  8
2
  6
CONTINUOUS
370
25
 62
7
100
AcDbLine
 10
101.2837620130591
 20
-9.581189934704447
 30
0.0
 11
102.4774919912939
 21
-8.387459956469627
 31
0.0
  0
LINE
  5
B74
330
1F
100
AcDbEntity
  8
2
  6
CONTINUOUS
370
25
 62
7
100
AcDbLine
 10
101.3898280302371
 20
-9.05085984881454
 30
0.0
 11
102.4067813131753
 21
-8.033906565876357
 31
0.0
  0
LINE
  5
B75
330
1F
100
AcDbEntity
  8
2
  6
CONTINUOUS
370
25
 62
7
100
AcDbLine
 10
101.4958940474151
 20
-8.520529762924618
 30
0.0
 11
102.3360706350566
 21
-7.680353175283081
 31
0.0
  0
LINE
  5
B76
330
1F
100
AcDbEntity
  8
2
  6
CONTINUOUS
370
25
 62
7
100
AcDbLine
 10
101.6019600645931
 20
-7.990199677034703
 30
0.0
 11
102.265359956938
 21
-7.32679978468979
 31
0.0
  0
LINE
  5
B77
330
1F
100
AcDbEntity
  8
2
  6
CONTINUOUS
370
25
 62
7
100
AcDbLine
 10
101.708026081771
 20
-7.459869591144781
 30
0.0
 11
102.1946492788193
 21
-6.97324639409652
 31
0.0
  0
LINE
  5
B78
330
1F
100
AcDbEntity
  8
2
  6
CONTINUOUS
370
25
 62
7
100
AcDbLine
 10
101.814092098949
 20
-6.929539505254866
 30
0.0
 11
102.1239386007007
 21
-6.619693003503237
 31
0.0
  0
LINE
  5
B79
330
1F
100
AcDbEntity
  8
2
  6
CONTINUOUS
370
25
 62
7
100
AcDbLine
 10
101.920158116127
 20
-6.399209419364958
 30
0.0
 11
102.053227922582
 21
-6.266139612909974
 31
0.0
  0
LINE
  5
B7A
330
1F
100
AcDbEntity
  8
2
  6
CONTINUOUS
370
25
 62
7
100
AcDbLine
 10
101.0144516515376
 20
-10.92774174231177
 30
0.0
 11
101.0867099092259
 21
-11.0
 31
0.0
  0
LINE
  5
B7B
330
1F
100
AcDbEntity
  8
2
  6
CONTINUOUS
370
25
 62
7
100
AcDbLine
 10
101.0851623296563
 20
-10.5741883517185
 30
0.0
 11
101.5109739779378
 21
-11.0
 31
0.0
  0
LINE
  5
B7C
330
1F
100
AcDbEntity
  8
2
  6
CONTINUOUS
370
25
 62
7
100
AcDbLine
 10
101.155873007775
 20
-10.22063496112523
 30
0.0
 11
101.9352380466497
 21
-11.0
 31
0.0
  0
LINE
  5
B7D
330
1F
100
AcDbEntity
  8
2
  6
CONTINUOUS
370
25
 62
7
100
AcDbLine
 10
101.2265836858936
 20
-9.867081570531958
 30
0.0
 11
102.3595021153617
 21
-11.0
 31
0.0
  0
LINE
  5
B7E
330
1F
100
AcDbEntity
  8
2
  6
CONTINUOUS
370
25
 62
7
100
AcDbLine
 10
101.2972943640123
 20
-9.513528179938675
 30
0.0
 11
102.7837661840736
 21
-11.0
 31
0.0
  0
LINE
  5
B7F
330
1F
100
AcDbEntity
  8
2
  6
CONTINUOUS
370
25
 62
7
100
AcDbLine
 10
101.3680050421309
 20
-9.159974789345391
 30
0.0
 11
102.9479924368036
 21
-10.7399621840181
 31
0.0
  0
LINE
  5
B80
330
1F
100
AcDbEntity
  8
2
  6
CONTINUOUS
370
25
 62
7
100
AcDbLine
 10
101.4387157202496
 20
-8.806421398752128
 30
0.0
 11
102.8419264196256
 21
-10.20963209812818
 31
0.0
  0
LINE
  5
B81
330
1F
100
AcDbEntity
  8
2
  6
CONTINUOUS
370
25
 62
7
100
AcDbLine
 10
101.5094263983682
 20
-8.452868008158845
 30
0.0
 11
102.7358604024477
 21
-9.679302012238267
 31
0.0
  0
LINE
  5
B82
330
1F
100
AcDbEntity
  8
2
  6
CONTINUOUS
370
25
 62
7
100
AcDbLine
 10
101.5801370764869
 20
-8.099314617565568
 30
0.0
 11
102.6297943852697
 21
-9.148971926348352
 31
0.0
  0
LINE
  5
B83
330
1F
100
AcDbEntity
  8
2
  6
CONTINUOUS
370
25
 62
7
100
AcDbLine
 10
101.6508477546055
 20
-7.745761226972292
 30
0.0
 11
102.5237283680917
 21
-8.618641840458437
 31
0.0
  0
LINE
  5
B84
330
1F
100
AcDbEntity
  8
2
  6
CONTINUOUS
370
25
 62
7
100
AcDbLine
 10
101.7215584327242
 20
-7.392207836379022
 30
0.0
 11
102.4176623509137
 21
-8.08831175456853
 31
0.0
  0
LINE
  5
B85
330
1F
100
AcDbEntity
  8
2
  6
CONTINUOUS
370
25
 62
7
100
AcDbLine
 10
101.7922691108429
 20
-7.038654445785745
 30
0.0
 11
102.3115963337357
 21
-7.557981668678622
 31
0.0
  0
LINE
  5
B86
330
1F
100
AcDbEntity
  8
2
  6
CONTINUOUS
370
25
 62
7
100
AcDbLine
 10
101.8629797889615
 20
-6.685101055192462
 30
0.0
 11
102.2055303165577
 21
-7.027651582788707
 31
0.0
  0
LINE
  5
B87
330
1F
100
AcDbEntity
  8
2
  6
CONTINUOUS
370
25
 62
7
100
AcDbLine
 10
101.9336904670802
 20
-6.331547664599192
 30
0.0
 11
102.0994642993798
 21
-6.497321496898799
 31
0.0
  0
LINE
  5
B88
330
1F
100
AcDbEntity
  8
2
  6
CONTINUOUS
370
25
 62
7
100
AcDbLine
 10
102.0
 20
5.999999999999998
 30
0.0
 11
101.0
 21
11.0
 31
0.0
  0
LINE
  5
B89
330
1F
100
AcDbEntity
  8
2
  6
CONTINUOUS
370
25
 62
7
100
AcDbLine
 10
101.0
 20
11.0
 30
0.0
 11
103.0
 21
11.0
 31
0.0
  0
LINE
  5
B8A
330
1F
100
AcDbEntity
  8
2
  6
CONTINUOUS
370
25
 62
7
100
AcDbLine
 10
103.0
 20
11.0
 30
0.0
 11
102.0
 21
5.999999999999998
 31
0.0
  0
LINE
  5
B8B
330
1F
100
AcDbEntity
  8
2
  6
CONTINUOUS
370
25
 62
7
100
AcDbLine
 10
101.9928058399667
 20
6.035970800166368
 30
0.0
 11
102.0107912400499
 21
6.053956200249566
 31
0.0
  0
LINE
  5
B8C
330
1F
100
AcDbEntity
  8
2
  6
CONTINUOUS
370
25
 62
7
100
AcDbLine
 10
101.9220951618481
 20
6.389524190759644
 30
0.0
 11
102.1168572572279
 21
6.584286286139474
 31
0.0
  0
LINE
  5
B8D
330
1F
100
AcDbEntity
  8
2
  6
CONTINUOUS
370
25
 62
7
100
AcDbLine
 10
101.8513844837294
 20
6.743077581352935
 30
0.0
 11
102.2229232744059
 21
7.114616372029403
 31
0.0
  0
LINE
  5
B8E
330
1F
100
AcDbEntity
  8
2
  6
CONTINUOUS
370
25
 62
7
100
AcDbLine
 10
101.7806738056107
 20
7.096630971946198
 30
0.0
 11
102.3289892915839
 21
7.64494645791931
 31
0.0
  0
LINE
  5
B8F
330
1F
100
AcDbEntity
  8
2
  6
CONTINUOUS
370
25
 62
7
100
AcDbLine
 10
101.7099631274921
 20
7.450184362539481
 30
0.0
 11
102.4350553087619
 21
8.175276543809233
 31
0.0
  0
LINE
  5
B90
330
1F
100
AcDbEntity
  8
2
  6
CONTINUOUS
370
25
 62
7
100
AcDbLine
 10
101.6392524493734
 20
7.803737753132758
 30
0.0
 11
102.5411213259398
 21
8.705606629699147
 31
0.0
  0
LINE
  5
B91
330
1F
100
AcDbEntity
  8
2
  6
CONTINUOUS
370
25
 62
7
100
AcDbLine
 10
101.5685417712548
 20
8.157291143726034
 30
0.0
 11
102.6471873431178
 21
9.235936715589055
 31
0.0
  0
LINE
  5
B92
330
1F
100
AcDbEntity
  8
2
  6
CONTINUOUS
370
25
 62
7
100
AcDbLine
 10
101.4978310931361
 20
8.510844534319318
 30
0.0
 11
102.7532533602958
 21
9.766266801478977
 31
0.0
  0
LINE
  5
B93
330
1F
100
AcDbEntity
  8
2
  6
CONTINUOUS
370
25
 62
7
100
AcDbLine
 10
101.4271204150175
 20
8.86439792491258
 30
0.0
 11
102.8593193774738
 21
10.29659688736889
 31
0.0
  0
LINE
  5
B94
330
1F
100
AcDbEntity
  8
2
  6
CONTINUOUS
370
25
 62
7
100
AcDbLine
 10
101.3564097368988
 20
9.217951315505864
 30
0.0
 11
102.9653853946518
 21
10.82692697325881
 31
0.0
  0
LINE
  5
B95
330
1F
100
AcDbEntity
  8
2
  6
CONTINUOUS
370
25
 62
7
100
AcDbLine
 10
101.2856990587802
 20
9.571504706099134
 30
0.0
 11
102.714194352681
 21
11.0
 31
0.0
  0
LINE
  5
B96
330
1F
100
AcDbEntity
  8
2
  6
CONTINUOUS
370
25
 62
7
100
AcDbLine
 10
101.2149883806615
 20
9.925058096692418
 30
0.0
 11
102.2899302839691
 21
11.0
 31
0.0
  0
LINE
  5
B97
330
1F
100
AcDbEntity
  8
2
  6
CONTINUOUS
370
25
 62
7
100
AcDbLine
 10
101.1442777025429
 20
10.27861148728569
 30
0.0
 11
101.8656662152572
 21
11.0
 31
0.0
  0
LINE
  5
B98
330
1F
100
AcDbEntity
  8
2
  6
CONTINUOUS
370
25
 62
7
100
AcDbLine
 10
101.0735670244242
 20
10.63216487787896
 30
0.0
 11
101.4414021465452
 21
11.0
 31
0.0
  0
LINE
  5
B99
330
1F
100
AcDbEntity
  8
2
  6
CONTINUOUS
370
25
 62
7
100
AcDbLine
 10
101.0028563463055
 20
10.98571826847224
 30
0.0
 11
101.0171380778333
 21
11.0
 31
0.0
  0
LINE
  5
B9A
330
1F
100
AcDbEntity
  8
2
  6
CONTINUOUS
370
25
 62
7
100
AcDbLine
 10
101.9174837840403
 20
6.41258107979845
 30
0.0
 11
102.0550108106398
 21
6.275054053198964
 31
0.0
  0
LINE
  5
B9B
330
1F
100
AcDbEntity
  8
2
  6
CONTINUOUS
370
25
 62
7
100
AcDbLine
 10
101.8114177668623
 20
6.942911165688365
 30
0.0
 11
102.1257214887584
 21
6.628607443792241
 31
0.0
  0
LINE
  5
B9C
330
1F
100
AcDbEntity
  8
2
  6
CONTINUOUS
370
25
 62
7
100
AcDbLine
 10
101.7053517496843
 20
7.473241251578287
 30
0.0
 11
102.1964321668771
 21
6.982160834385525
 31
0.0
  0
LINE
  5
B9D
330
1F
100
AcDbEntity
  8
2
  6
CONTINUOUS
370
25
 62
7
100
AcDbLine
 10
101.5992857325064
 20
8.003571337468188
 30
0.0
 11
102.2671428449958
 21
7.335714224978787
 31
0.0
  0
LINE
  5
B9E
330
1F
100
AcDbEntity
  8
2
  6
CONTINUOUS
370
25
 62
7
100
AcDbLine
 10
101.4932197153284
 20
8.533901423358103
 30
0.0
 11
102.3378535231144
 21
7.689267615572064
 31
0.0
  0
LINE
  5
B9F
330
1F
100
AcDbEntity
  8
2
  6
CONTINUOUS
370
25
 62
7
100
AcDbLine
 10
101.3871536981504
 20
9.064231509248025
 30
0.0
 11
102.4085642012331
 21
8.042821006165354
 31
0.0
  0
LINE
  5
BA0
330
1F
100
AcDbEntity
  8
2
  6
CONTINUOUS
370
25
 62
7
100
AcDbLine
 10
101.2810876809724
 20
9.594561595137932
 30
0.0
 11
102.4792748793517
 21
8.396374396758624
 31
0.0
  0
LINE
  5
BA1
330
1F
100
AcDbEntity
  8
2
  6
CONTINUOUS
370
25
 62
7
100
AcDbLine
 10
101.1750216637944
 20
10.12489168102784
 30
0.0
 11
102.5499855574704
 21
8.749927787351908
 31
0.0
  0
LINE
  5
BA2
330
1F
100
AcDbEntity
  8
2
  6
CONTINUOUS
370
25
 62
7
100
AcDbLine
 10
101.0689556466165
 20
10.65522176691775
 30
0.0
 11
102.620696235589
 21
9.103481177945184
 31
0.0
  0
LINE
  5
BA3
330
1F
100
AcDbEntity
  8
2
  6
CONTINUOUS
370
25
 62
7
100
AcDbLine
 10
101.1484414822461
 20
11.0
 30
0.0
 11
102.6914069137077
 21
9.457034568538461
 31
0.0
  0
LINE
  5
BA4
330
1F
100
AcDbEntity
  8
2
  6
CONTINUOUS
370
25
 62
7
100
AcDbLine
 10
101.5727055509581
 20
11.0
 30
0.0
 11
102.7621175918264
 21
9.810587959131723
 31
0.0
  0
LINE
  5
BA5
330
1F
100
AcDbEntity
  8
2
  6
CONTINUOUS
370
25
 62
7
100
AcDbLine
 10
101.99696961967
 20
11.0
 30
0.0
 11
102.832828269945
 21
10.16414134972501
 31
0.0
  0
LINE
  5
BA6
330
1F
100
AcDbEntity
  8
2
  6
CONTINUOUS
370
25
 62
7
100
AcDbLine
 10
102.4212336883819
 20
11.0
 30
0.0
 11
102.9035389480637
 21
10.51769474031828
 31
0.0
  0
LINE
  5
BA7
330
1F
100
AcDbEntity
  8
2
  6
CONTINUOUS
370
25
 62
7
100
AcDbLine
 10
102.8454977570939
 20
11.0
 30
0.0
 11
102.9742496261823
 21
10.87124813091156
 31
0.0
  0
TEXT
  5
BA8
330
1F
100
AcDbEntity
  8
2
  6
CONTINUOUS
370
25
 62
7
100
AcDbText
 10
100.5
 20
-0.0583333333333336
 30
0.0
 40
3.5
  1
12
 50
90.0
 72
     1
 11
100.5
 21
2.275
 31
0.0
100
AcDbText
  0
CIRCLE
  5
BA9
330
1F
100
AcDbEntity
  8
2
  6
CONTINUOUS
370
25
 62
7
100
AcDbCircle
 10
98.75
 20
-2.625
 30
0.0
 40
1.4
  0
LINE
  5
BAA
330
1F
100
AcDbEntity
  8
2
  6
CONTINUOUS
370
25
 62
7
100
AcDbLine
 10
100.15
 20
-4.024999999999999
 30
0.0
 11
97.35
 21
-1.224999999999999
 31
0.0
  0
LINE
  5
BAB
330
1F
100
AcDbEntity
  8
2
  6
CONTINUOUS
370
25
 62
7
100
AcDbLine
 10
66.0
 20
-5.74995
 30
0.0
 11
63.0
 21
-5.74995
 31
0.0
  0
LINE
  5
BAC
330
1F
100
AcDbEntity
  8
2
  6
CONTINUOUS
370
25
 62
7
100
AcDbLine
 10
63.0
 20
5.74995
 30
0.0
 11
66.0
 21
5.74995
 31
0.0
  0
LINE
  5
BAD
330
1F
100
AcDbEntity
  8
2
  6
CONTINUOUS
370
25
 62
7
100
AcDbLine
 10
64.0
 20
-12.74995
 30
0.0
 11
64.0
 21
28.14995
 31
0.0
  0
LINE
  5
BAE
330
1F
100
AcDbEntity
  8
2
  6
CONTINUOUS
370
25
 62
7
100
AcDbLine
 10
64.0
 20
-5.74995
 30
0.0
 11
65.0
 21
-10.74995
 31
0.0
  0
LINE
  5
BAF
330
1F
100
AcDbEntity
  8
2
  6
CONTINUOUS
370
25
 62
7
100
AcDbLine
 10
65.0
 20
-10.74995
 30
0.0
 11
63.0
 21
-10.74995
 31
0.0
  0
LINE
  5
BB0
330
1F
100
AcDbEntity
  8
2
  6
CONTINUOUS
370
25
 62
7
100
AcDbLine
 10
63.0
 20
-10.74995
 30
0.0
 11
64.0
 21
-5.74995
 31
0.0
  0
LINE
  5
BB1
330
1F
100
AcDbEntity
  8
2
  6
CONTINUOUS
370
25
 62
7
100
AcDbLine
 10
64.76851661282062
 20
-10.74995
 30
0.0
 11
64.9614194354701
 21
-10.55704717735052
 31
0.0
  0
LINE
  5
BB2
330
1F
100
AcDbEntity
  8
2
  6
CONTINUOUS
370
25
 62
7
100
AcDbLine
 10
64.3442525441087
 20
-10.74995
 30
0.0
 11
64.89070875735145
 21
-10.20349378675724
 31
0.0
  0
LINE
  5
BB3
330
1F
100
AcDbEntity
  8
2
  6
CONTINUOUS
370
25
 62
7
100
AcDbLine
 10
63.91998847539676
 20
-10.74995
 30
0.0
 11
64.81999807923279
 21
-9.84994039616397
 31
0.0
  0
LINE
  5
BB4
330
1F
100
AcDbEntity
  8
2
  6
CONTINUOUS
370
25
 62
7
100
AcDbLine
 10
63.49572440668484
 20
-10.74995
 30
0.0
 11
64.74928740111415
 21
-9.496387005570698
 31
0.0
  0
LINE
  5
BB5
330
1F
100
AcDbEntity
  8
2
  6
CONTINUOUS
370
25
 62
7
100
AcDbLine
 10
63.07146033797291
 20
-10.74995
 30
0.0
 11
64.67857672299549
 21
-9.142833614977425
 31
0.0
  0
LINE
  5
BB6
330
1F
100
AcDbEntity
  8
2
  6
CONTINUOUS
370
25
 62
7
100
AcDbLine
 10
63.08820093268476
 20
-10.30894533657623
 30
0.0
 11
64.60786604487683
 21
-8.789280224384152
 31
0.0
  0
LINE
  5
BB7
330
1F
100
AcDbEntity
  8
2
  6
CONTINUOUS
370
25
 62
7
100
AcDbLine
 10
63.19426694986274
 20
-9.778615250686315
 30
0.0
 11
64.53715536675818
 21
-8.435726833790875
 31
0.0
  0
LINE
  5
BB8
330
1F
100
AcDbEntity
  8
2
  6
CONTINUOUS
370
25
 62
7
100
AcDbLine
 10
63.30033296704072
 20
-9.248285164796409
 30
0.0
 11
64.46644468863953
 21
-8.082173443197608
 31
0.0
  0
LINE
  5
BB9
330
1F
100
AcDbEntity
  8
2
  6
CONTINUOUS
370
25
 62
7
100
AcDbLine
 10
63.4063989842187
 20
-8.7179550789065
 30
0.0
 11
64.39573401052087
 21
-7.728620052604333
 31
0.0
  0
LINE
  5
BBA
330
1F
100
AcDbEntity
  8
2
  6
CONTINUOUS
370
25
 62
7
100
AcDbLine
 10
63.51246500139668
 20
-8.187624993016588
 30
0.0
 11
64.32502333240221
 21
-7.37506666201106
 31
0.0
  0
LINE
  5
BBB
330
1F
100
AcDbEntity
  8
2
  6
CONTINUOUS
370
25
 62
7
100
AcDbLine
 10
63.61853101857466
 20
-7.65729490712668
 30
0.0
 11
64.25431265428355
 21
-7.021513271417785
 31
0.0
  0
LINE
  5
BBC
330
1F
100
AcDbEntity
  8
2
  6
CONTINUOUS
370
25
 62
7
100
AcDbLine
 10
63.72459703575265
 20
-7.126964821236768
 30
0.0
 11
64.18360197616491
 21
-6.667959880824514
 31
0.0
  0
LINE
  5
BBD
330
1F
100
AcDbEntity
  8
2
  6
CONTINUOUS
370
25
 62
7
100
AcDbLine
 10
63.83066305293063
 20
-6.596634735346861
 30
0.0
 11
64.11289129804625
 21
-6.314406490231239
 31
0.0
  0
LINE
  5
BBE
330
1F
100
AcDbEntity
  8
2
  6
CONTINUOUS
370
25
 62
7
100
AcDbLine
 10
63.93672907010861
 20
-6.066304649456949
 30
0.0
 11
64.04218061992759
 21
-5.960853099637967
 31
0.0
  0
LINE
  5
BBF
330
1F
100
AcDbEntity
  8
2
  6
CONTINUOUS
370
25
 62
7
100
AcDbLine
 10
63.04042400338248
 20
-10.54782998308761
 30
0.0
 11
63.24254402029487
 21
-10.74995
 31
0.0
  0
LINE
  5
BC0
330
1F
100
AcDbEntity
  8
2
  6
CONTINUOUS
370
25
 62
7
100
AcDbLine
 10
63.11113468150113
 20
-10.19427659249434
 30
0.0
 11
63.66680808900679
 21
-10.74995
 31
0.0
  0
LINE
  5
BC1
330
1F
100
AcDbEntity
  8
2
  6
CONTINUOUS
370
25
 62
7
100
AcDbLine
 10
63.18184535961979
 20
-9.840723201901064
 30
0.0
 11
64.09107215771873
 21
-10.74995
 31
0.0
  0
LINE
  5
BC2
330
1F
100
AcDbEntity
  8
2
  6
CONTINUOUS
370
25
 62
7
100
AcDbLine
 10
63.25255603773844
 20
-9.48716981130779
 30
0.0
 11
64.51533622643065
 21
-10.74995
 31
0.0
  0
LINE
  5
BC3
330
1F
100
AcDbEntity
  8
2
  6
CONTINUOUS
370
25
 62
7
100
AcDbLine
 10
63.32326671585709
 20
-9.133616420714516
 30
0.0
 11
64.93960029514258
 21
-10.74995
 31
0.0
  0
LINE
  5
BC4
330
1F
100
AcDbEntity
  8
2
  6
CONTINUOUS
370
25
 62
7
100
AcDbLine
 10
63.39397739397575
 20
-8.78006303012124
 30
0.0
 11
64.90903390903638
 21
-10.29511954518187
 31
0.0
  0
LINE
  5
BC5
330
1F
100
AcDbEntity
  8
2
  6
CONTINUOUS
370
25
 62
7
100
AcDbLine
 10
63.4646880720944
 20
-8.42650963952797
 30
0.0
 11
64.8029678918584
 21
-9.764789459291958
 31
0.0
  0
LINE
  5
BC6
330
1F
100
AcDbEntity
  8
2
  6
CONTINUOUS
370
25
 62
7
100
AcDbLine
 10
63.53539875021306
 20
-8.072956248934695
 30
0.0
 11
64.6969018746804
 21
-9.234459373402046
 31
0.0
  0
LINE
  5
BC7
330
1F
100
AcDbEntity
  8
2
  6
CONTINUOUS
370
25
 62
7
100
AcDbLine
 10
63.60610942833171
 20
-7.719402858341422
 30
0.0
 11
64.59083585750243
 21
-8.704129287512137
 31
0.0
  0
LINE
  5
BC8
330
1F
100
AcDbEntity
  8
2
  6
CONTINUOUS
370
25
 62
7
100
AcDbLine
 10
63.67682010645037
 20
-7.365849467748151
 30
0.0
 11
64.48476984032445
 21
-8.173799201622227
 31
0.0
  0
LINE
  5
BC9
330
1F
100
AcDbEntity
  8
2
  6
CONTINUOUS
370
25
 62
7
100
AcDbLine
 10
63.74753078456902
 20
-7.012296077154877
 30
0.0
 11
64.37870382314647
 21
-7.643469115732316
 31
0.0
  0
LINE
  5
BCA
330
1F
100
AcDbEntity
  8
2
  6
CONTINUOUS
370
25
 62
7
100
AcDbLine
 10
63.81824146268768
 20
-6.658742686561604
 30
0.0
 11
64.27263780596849
 21
-7.113139029842406
 31
0.0
  0
LINE
  5
BCB
330
1F
100
AcDbEntity
  8
2
  6
CONTINUOUS
370
25
 62
7
100
AcDbLine
 10
63.88895214080634
 20
-6.305189295968331
 30
0.0
 11
64.1665717887905
 21
-6.582808943952497
 31
0.0
  0
LINE
  5
BCC
330
1F
100
AcDbEntity
  8
2
  6
CONTINUOUS
370
25
 62
7
100
AcDbLine
 10
63.95966281892499
 20
-5.951635905375057
 30
0.0
 11
64.06050577161253
 21
-6.052478858062586
 31
0.0
  0
LINE
  5
BCD
330
1F
100
AcDbEntity
  8
2
  6
CONTINUOUS
370
25
 62
7
100
AcDbLine
 10
64.0
 20
5.74995
 30
0.0
 11
63.0
 21
10.74995
 31
0.0
  0
LINE
  5
BCE
330
1F
100
AcDbEntity
  8
2
  6
CONTINUOUS
370
25
 62
7
100
AcDbLine
 10
63.0
 20
10.74995
 30
0.0
 11
65.0
 21
10.74995
 31
0.0
  0
LINE
  5
BCF
330
1F
100
AcDbEntity
  8
2
  6
CONTINUOUS
370
25
 62
7
100
AcDbLine
 10
65.0
 20
10.74995
 30
0.0
 11
64.0
 21
5.74995
 31
0.0
  0
LINE
  5
BD0
330
1F
100
AcDbEntity
  8
2
  6
CONTINUOUS
370
25
 62
7
100
AcDbLine
 10
63.99439785919366
 20
5.777960704031703
 30
0.0
 11
64.00840321120951
 21
5.791966056047557
 31
0.0
  0
LINE
  5
BD1
330
1F
100
AcDbEntity
  8
2
  6
CONTINUOUS
370
25
 62
7
100
AcDbLine
 10
63.923687181075
 20
6.131514094624977
 30
0.0
 11
64.11446922838749
 21
6.322296141937468
 31
0.0
  0
LINE
  5
BD2
330
1F
100
AcDbEntity
  8
2
  6
CONTINUOUS
370
25
 62
7
100
AcDbLine
 10
63.85297650295635
 20
6.485067485218251
 30
0.0
 11
64.22053524556547
 21
6.852626227827376
 31
0.0
  0
LINE
  5
BD3
330
1F
100
AcDbEntity
  8
2
  6
CONTINUOUS
370
25
 62
7
100
AcDbLine
 10
63.78226582483769
 20
6.838620875811525
 30
0.0
 11
64.32660126274345
 21
7.382956313717287
 31
0.0
  0
LINE
  5
BD4
330
1F
100
AcDbEntity
  8
2
  6
CONTINUOUS
370
25
 62
7
100
AcDbLine
 10
63.71155514671904
 20
7.192174266404798
 30
0.0
 11
64.43266727992145
 21
7.913286399607196
 31
0.0
  0
LINE
  5
BD5
330
1F
100
AcDbEntity
  8
2
  6
CONTINUOUS
370
25
 62
7
100
AcDbLine
 10
63.64084446860039
 20
7.545727656998071
 30
0.0
 11
64.53873329709943
 21
8.443616485497106
 31
0.0
  0
LINE
  5
BD6
330
1F
100
AcDbEntity
  8
2
  6
CONTINUOUS
370
25
 62
7
100
AcDbLine
 10
63.57013379048173
 20
7.899281047591344
 30
0.0
 11
64.6447993142774
 21
8.973946571387017
 31
0.0
  0
LINE
  5
BD7
330
1F
100
AcDbEntity
  8
2
  6
CONTINUOUS
370
25
 62
7
100
AcDbLine
 10
63.49942311236308
 20
8.252834438184616
 30
0.0
 11
64.75086533145539
 21
9.504276657276924
 31
0.0
  0
LINE
  5
BD8
330
1F
100
AcDbEntity
  8
2
  6
CONTINUOUS
370
25
 62
7
100
AcDbLine
 10
63.42871243424442
 20
8.60638782877789
 30
0.0
 11
64.85693134863337
 21
10.03460674316683
 31
0.0
  0
LINE
  5
BD9
330
1F
100
AcDbEntity
  8
2
  6
CONTINUOUS
370
25
 62
7
100
AcDbLine
 10
63.35800175612577
 20
8.959941219371162
 30
0.0
 11
64.96299736581135
 21
10.56493682905674
 31
0.0
  0
LINE
  5
BDA
330
1F
100
AcDbEntity
  8
2
  6
CONTINUOUS
370
25
 62
7
100
AcDbLine
 10
63.28729107800712
 20
9.313494609964435
 30
0.0
 11
64.72374646804268
 21
10.74995
 31
0.0
  0
LINE
  5
BDB
330
1F
100
AcDbEntity
  8
2
  6
CONTINUOUS
370
25
 62
7
100
AcDbLine
 10
63.21658039988846
 20
9.667048000557708
 30
0.0
 11
64.29948239933076
 21
10.74995
 31
0.0
  0
LINE
  5
BDC
330
1F
100
AcDbEntity
  8
2
  6
CONTINUOUS
370
25
 62
7
100
AcDbLine
 10
63.14586972176981
 20
10.02060139115098
 30
0.0
 11
63.87521833061882
 21
10.74995
 31
0.0
  0
LINE
  5
BDD
330
1F
100
AcDbEntity
  8
2
  6
CONTINUOUS
370
25
 62
7
100
AcDbLine
 10
63.07515904365115
 20
10.37415478174425
 30
0.0
 11
63.45095426190689
 21
10.74995
 31
0.0
  0
LINE
  5
BDE
330
1F
100
AcDbEntity
  8
2
  6
CONTINUOUS
370
25
 62
7
100
AcDbLine
 10
63.0044483655325
 20
10.72770817233753
 30
0.0
 11
63.02669019319497
 21
10.74995
 31
0.0
  0
LINE
  5
BDF
330
1F
100
AcDbEntity
  8
2
  6
CONTINUOUS
370
25
 62
7
100
AcDbLine
 10
63.90091283005869
 20
6.245385849706519
 30
0.0
 11
64.0660581132942
 21
6.08024056647101
 31
0.0
  0
LINE
  5
BE0
330
1F
100
AcDbEntity
  8
2
  6
CONTINUOUS
370
25
 62
7
100
AcDbLine
 10
63.79484681288071
 20
6.775715935596427
 30
0.0
 11
64.13676879141286
 21
6.433793957064283
 31
0.0
  0
LINE
  5
BE1
330
1F
100
AcDbEntity
  8
2
  6
CONTINUOUS
370
25
 62
7
100
AcDbLine
 10
63.68878079570273
 20
7.306046021486338
 30
0.0
 11
64.2074794695315
 21
6.787347347657557
 31
0.0
  0
LINE
  5
BE2
330
1F
100
AcDbEntity
  8
2
  6
CONTINUOUS
370
25
 62
7
100
AcDbLine
 10
63.58271477852475
 20
7.836376107376244
 30
0.0
 11
64.27819014765016
 21
7.14090073825083
 31
0.0
  0
LINE
  5
BE3
330
1F
100
AcDbEntity
  8
2
  6
CONTINUOUS
370
25
 62
7
100
AcDbLine
 10
63.47664876134677
 20
8.366706193266156
 30
0.0
 11
64.34890082576882
 21
7.494454128844103
 31
0.0
  0
LINE
  5
BE4
330
1F
100
AcDbEntity
  8
2
  6
CONTINUOUS
370
25
 62
7
100
AcDbLine
 10
63.37058274416879
 20
8.897036279156062
 30
0.0
 11
64.41961150388748
 21
7.848007519437376
 31
0.0
  0
LINE
  5
BE5
330
1F
100
AcDbEntity
  8
2
  6
CONTINUOUS
370
25
 62
7
100
AcDbLine
 10
63.26451672699081
 20
9.427366365045971
 30
0.0
 11
64.49032218200612
 21
8.20156091003065
 31
0.0
  0
LINE
  5
BE6
330
1F
100
AcDbEntity
  8
2
  6
CONTINUOUS
370
25
 62
7
100
AcDbLine
 10
63.15845070981283
 20
9.957696450935881
 30
0.0
 11
64.56103286012478
 21
8.555114300623924
 31
0.0
  0
LINE
  5
BE7
330
1F
100
AcDbEntity
  8
2
  6
CONTINUOUS
370
25
 62
7
100
AcDbLine
 10
63.05238469263485
 20
10.48802653682579
 30
0.0
 11
64.63174353824344
 21
8.908667691217195
 31
0.0
  0
LINE
  5
BE8
330
1F
100
AcDbEntity
  8
2
  6
CONTINUOUS
370
25
 62
7
100
AcDbLine
 10
63.21472529817256
 20
10.74995
 30
0.0
 11
64.7024542163621
 21
9.26222108181047
 31
0.0
  0
LINE
  5
BE9
330
1F
100
AcDbEntity
  8
2
  6
CONTINUOUS
370
25
 62
7
100
AcDbLine
 10
63.63898936688449
 20
10.74995
 30
0.0
 11
64.77316489448074
 21
9.615774472403743
 31
0.0
  0
LINE
  5
BEA
330
1F
100
AcDbEntity
  8
2
  6
CONTINUOUS
370
25
 62
7
100
AcDbLine
 10
64.06325343559642
 20
10.74995
 30
0.0
 11
64.8438755725994
 21
9.969327862997016
 31
0.0
  0
LINE
  5
BEB
330
1F
100
AcDbEntity
  8
2
  6
CONTINUOUS
370
25
 62
7
100
AcDbLine
 10
64.48751750430834
 20
10.74995
 30
0.0
 11
64.91458625071806
 21
10.32288125359029
 31
0.0
  0
LINE
  5
BEC
330
1F
100
AcDbEntity
  8
2
  6
CONTINUOUS
370
25
 62
7
100
AcDbLine
 10
64.91178157302028
 20
10.74995
 30
0.0
 11
64.98529692883672
 21
10.67643464418356
 31
0.0
  0
TEXT
  5
BED
330
1F
100
AcDbEntity
  8
2
  6
CONTINUOUS
370
25
 62
7
100
AcDbText
 10
62.5
 20
17.64161666666666
 30
0.0
 40
3.5
  1
11.5
 50
90.00000000000001
 72
     1
 11
62.5
 21
21.72495
 31
0.0
100
AcDbText
  0
CIRCLE
  5
BEE
330
1F
100
AcDbEntity
  8
2
  6
CONTINUOUS
370
25
 62
7
100
AcDbCircle
 10
60.75
 20
13.67495
 30
0.0
 40
1.4
  0
LINE
  5
BEF
330
1F
100
AcDbEntity
  8
2
  6
CONTINUOUS
370
25
 62
7
100
AcDbLine
 10
62.15000000000001
 20
12.27495
 30
0.0
 11
59.35
 21
15.07495
 31
0.0
  0
LINE
  5
BF0
330
1F
100
AcDbEntity
  8
2
  6
CONTINUOUS
370
25
 62
7
100
AcDbLine
 10
66.0
 20
-6.0
 30
0.0
 11
66.0
 21
-19.0
 31
0.0
  0
LINE
  5
BF1
330
1F
100
AcDbEntity
  8
2
  6
CONTINUOUS
370
25
 62
7
100
AcDbLine
 10
90.0
 20
-19.0
 30
0.0
 11
90.0
 21
-6.0
 31
0.0
  0
LINE
  5
BF2
330
1F
100
AcDbEntity
  8
2
  6
CONTINUOUS
370
25
 62
7
100
AcDbLine
 10
66.0
 20
-18.0
 30
0.0
 11
90.0
 21
-18.0
 31
0.0
  0
LINE
  5
BF3
330
1F
100
AcDbEntity
  8
2
  6
CONTINUOUS
370
25
 62
7
100
AcDbLine
 10
66.0
 20
-18.0
 30
0.0
 11
71.0
 21
-17.0
 31
0.0
  0
LINE
  5
BF4
330
1F
100
AcDbEntity
  8
2
  6
CONTINUOUS
370
25
 62
7
100
AcDbLine
 10
71.0
 20
-17.0
 30
0.0
 11
71.0
 21
-19.0
 31
0.0
  0
LINE
  5
BF5
330
1F
100
AcDbEntity
  8
2
  6
CONTINUOUS
370
25
 62
7
100
AcDbLine
 10
71.0
 20
-19.0
 30
0.0
 11
66.0
 21
-18.0
 31
0.0
  0
LINE
  5
BF6
330
1F
100
AcDbEntity
  8
2
  6
CONTINUOUS
370
25
 62
7
100
AcDbLine
 10
70.66132356384588
 20
-18.93226471276917
 30
0.0
 11
71.0
 21
-18.59358827661505
 31
0.0
  0
LINE
  5
BF7
330
1F
100
AcDbEntity
  8
2
  6
CONTINUOUS
370
25
 62
7
100
AcDbLine
 10
70.3077701732526
 20
-18.86155403465052
 30
0.0
 11
71.0
 21
-18.16932420790312
 31
0.0
  0
LINE
  5
BF8
330
1F
100
AcDbEntity
  8
2
  6
CONTINUOUS
370
25
 62
7
100
AcDbLine
 10
69.95421678265933
 20
-18.79084335653186
 30
0.0
 11
71.0
 21
-17.74506013919119
 31
0.0
  0
LINE
  5
BF9
330
1F
100
AcDbEntity
  8
2
  6
CONTINUOUS
370
25
 62
7
100
AcDbLine
 10
69.60066339206605
 20
-18.72013267841321
 30
0.0
 11
71.0
 21
-17.32079607047926
 31
0.0
  0
LINE
  5
BFA
330
1F
100
AcDbEntity
  8
2
  6
CONTINUOUS
370
25
 62
7
100
AcDbLine
 10
69.24711000147278
 20
-18.64942200029456
 30
0.0
 11
70.87066500220917
 21
-17.02586699955816
 31
0.0
  0
LINE
  5
BFB
330
1F
100
AcDbEntity
  8
2
  6
CONTINUOUS
370
25
 62
7
100
AcDbLine
 10
68.89355661087951
 20
-18.5787113221759
 30
0.0
 11
70.34033491631926
 21
-17.13193301673615
 31
0.0
  0
LINE
  5
BFC
330
1F
100
AcDbEntity
  8
2
  6
CONTINUOUS
370
25
 62
7
100
AcDbLine
 10
68.54000322028624
 20
-18.50800064405725
 30
0.0
 11
69.81000483042935
 21
-17.23799903391413
 31
0.0
  0
LINE
  5
BFD
330
1F
100
AcDbEntity
  8
2
  6
CONTINUOUS
370
25
 62
7
100
AcDbLine
 10
68.18644982969296
 20
-18.43728996593859
 30
0.0
 11
69.27967474453945
 21
-17.34406505109211
 31
0.0
  0
LINE
  5
BFE
330
1F
100
AcDbEntity
  8
2
  6
CONTINUOUS
370
25
 62
7
100
AcDbLine
 10
67.83289643909968
 20
-18.36657928781994
 30
0.0
 11
68.74934465864953
 21
-17.45013106827009
 31
0.0
  0
LINE
  5
BFF
330
1F
100
AcDbEntity
  8
2
  6
CONTINUOUS
370
25
 62
7
100
AcDbLine
 10
67.47934304850642
 20
-18.29586860970128
 30
0.0
 11
68.21901457275962
 21
-17.55619708544808
 31
0.0
  0
LINE
  5
C00
330
1F
100
AcDbEntity
  8
2
  6
CONTINUOUS
370
25
 62
7
100
AcDbLine
 10
67.12578965791315
 20
-18.22515793158263
 30
0.0
 11
67.68868448686972
 21
-17.66226310262606
 31
0.0
  0
LINE
  5
C01
330
1F
100
AcDbEntity
  8
2
  6
CONTINUOUS
370
25
 62
7
100
AcDbLine
 10
66.77223626731987
 20
-18.15444725346397
 30
0.0
 11
67.1583544009798
 21
-17.76832911980404
 31
0.0
  0
LINE
  5
C02
330
1F
100
AcDbEntity
  8
2
  6
CONTINUOUS
370
25
 62
7
100
AcDbLine
 10
66.41868287672659
 20
-18.08373657534532
 30
0.0
 11
66.62802431508989
 21
-17.87439513698202
 31
0.0
  0
LINE
  5
C03
330
1F
100
AcDbEntity
  8
2
  6
CONTINUOUS
370
25
 62
7
100
AcDbLine
 10
66.06512948613333
 20
-18.01302589722666
 30
0.0
 11
66.09769422919999
 21
-17.98046115416
 31
0.0
  0
LINE
  5
C04
330
1F
100
AcDbEntity
  8
2
  6
CONTINUOUS
370
25
 62
7
100
AcDbLine
 10
66.29704587581148
 20
-17.94059082483771
 30
0.0
 11
66.44556881371722
 21
-18.08911376274344
 31
0.0
  0
LINE
  5
C05
330
1F
100
AcDbEntity
  8
2
  6
CONTINUOUS
370
25
 62
7
100
AcDbLine
 10
66.65059926640475
 20
-17.86988014671905
 30
0.0
 11
66.97589889960713
 21
-18.19517977992142
 31
0.0
  0
LINE
  5
C06
330
1F
100
AcDbEntity
  8
2
  6
CONTINUOUS
370
25
 62
7
100
AcDbLine
 10
67.00415265699802
 20
-17.7991694686004
 30
0.0
 11
67.50622898549703
 21
-18.3012457970994
 31
0.0
  0
LINE
  5
C07
330
1F
100
AcDbEntity
  8
2
  6
CONTINUOUS
370
25
 62
7
100
AcDbLine
 10
67.3577060475913
 20
-17.72845879048174
 30
0.0
 11
68.03655907138695
 21
-18.40731181427739
 31
0.0
  0
LINE
  5
C08
330
1F
100
AcDbEntity
  8
2
  6
CONTINUOUS
370
25
 62
7
100
AcDbLine
 10
67.71125943818457
 20
-17.65774811236309
 30
0.0
 11
68.56688915727685
 21
-18.51337783145537
 31
0.0
  0
LINE
  5
C09
330
1F
100
AcDbEntity
  8
2
  6
CONTINUOUS
370
25
 62
7
100
AcDbLine
 10
68.06481282877783
 20
-17.58703743424443
 30
0.0
 11
69.09721924316676
 21
-18.61944384863335
 31
0.0
  0
LINE
  5
C0A
330
1F
100
AcDbEntity
  8
2
  6
CONTINUOUS
370
25
 62
7
100
AcDbLine
 10
68.41836621937111
 20
-17.51632675612578
 30
0.0
 11
69.62754932905668
 21
-18.72550986581133
 31
0.0
  0
LINE
  5
C0B
330
1F
100
AcDbEntity
  8
2
  6
CONTINUOUS
370
25
 62
7
100
AcDbLine
 10
68.77191960996439
 20
-17.44561607800712
 30
0.0
 11
70.15787941494658
 21
-18.83157588298931
 31
0.0
  0
LINE
  5
C0C
330
1F
100
AcDbEntity
  8
2
  6
CONTINUOUS
370
25
 62
7
100
AcDbLine
 10
69.12547300055766
 20
-17.37490539988847
 30
0.0
 11
70.68820950083649
 21
-18.9376419001673
 31
0.0
  0
LINE
  5
C0D
330
1F
100
AcDbEntity
  8
2
  6
CONTINUOUS
370
25
 62
7
100
AcDbLine
 10
69.47902639115094
 20
-17.30419472176981
 30
0.0
 11
71.0
 21
-18.82516833061888
 31
0.0
  0
LINE
  5
C0E
330
1F
100
AcDbEntity
  8
2
  6
CONTINUOUS
370
25
 62
7
100
AcDbLine
 10
69.8325797817442
 20
-17.23348404365115
 30
0.0
 11
71.0
 21
-18.40090426190695
 31
0.0
  0
LINE
  5
C0F
330
1F
100
AcDbEntity
  8
2
  6
CONTINUOUS
370
25
 62
7
100
AcDbLine
 10
70.18613317233748
 20
-17.1627733655325
 30
0.0
 11
71.0
 21
-17.97664019319502
 31
0.0
  0
LINE
  5
C10
330
1F
100
AcDbEntity
  8
2
  6
CONTINUOUS
370
25
 62
7
100
AcDbLine
 10
70.53968656293075
 20
-17.09206268741385
 30
0.0
 11
71.0
 21
-17.5523761244831
 31
0.0
  0
LINE
  5
C11
330
1F
100
AcDbEntity
  8
2
  6
CONTINUOUS
370
25
 62
7
100
AcDbLine
 10
70.89323995352402
 20
-17.02135200929519
 30
0.0
 11
71.0
 21
-17.12811205577117
 31
0.0
  0
LINE
  5
C12
330
1F
100
AcDbEntity
  8
2
  6
CONTINUOUS
370
25
 62
7
100
AcDbLine
 10
90.0
 20
-18.0
 30
0.0
 11
85.0
 21
-19.0
 31
0.0
  0
LINE
  5
C13
330
1F
100
AcDbEntity
  8
2
  6
CONTINUOUS
370
25
 62
7
100
AcDbLine
 10
85.0
 20
-19.0
 30
0.0
 11
85.0
 21
-17.0
 31
0.0
  0
LINE
  5
C14
330
1F
100
AcDbEntity
  8
2
  6
CONTINUOUS
370
25
 62
7
100
AcDbLine
 10
85.0
 20
-17.0
 30
0.0
 11
90.0
 21
-18.0
 31
0.0
  0
LINE
  5
C15
330
1F
100
AcDbEntity
  8
2
  6
CONTINUOUS
370
25
 62
7
100
AcDbLine
 10
89.566471308943
 20
-18.08670573821141
 30
0.0
 11
89.71098087262865
 21
-17.94219617452573
 31
0.0
  0
LINE
  5
C16
330
1F
100
AcDbEntity
  8
2
  6
CONTINUOUS
370
25
 62
7
100
AcDbLine
 10
89.03614122305306
 20
-18.19277175538939
 30
0.0
 11
89.35742748203538
 21
-17.87148549640707
 31
0.0
  0
LINE
  5
C17
330
1F
100
AcDbEntity
  8
2
  6
CONTINUOUS
370
25
 62
7
100
AcDbLine
 10
88.50581113716316
 20
-18.29883777256737
 30
0.0
 11
89.00387409144211
 21
-17.80077481828842
 31
0.0
  0
LINE
  5
C18
330
1F
100
AcDbEntity
  8
2
  6
CONTINUOUS
370
25
 62
7
100
AcDbLine
 10
87.97548105127325
 20
-18.40490378974535
 30
0.0
 11
88.65032070084885
 21
-17.73006414016976
 31
0.0
  0
LINE
  5
C19
330
1F
100
AcDbEntity
  8
2
  6
CONTINUOUS
370
25
 62
7
100
AcDbLine
 10
87.44515096538333
 20
-18.51096980692333
 30
0.0
 11
88.29676731025556
 21
-17.65935346205111
 31
0.0
  0
LINE
  5
C1A
330
1F
100
AcDbEntity
  8
2
  6
CONTINUOUS
370
25
 62
7
100
AcDbLine
 10
86.91482087949343
 20
-18.61703582410131
 30
0.0
 11
87.9432139196623
 21
-17.58864278393246
 31
0.0
  0
LINE
  5
C1B
330
1F
100
AcDbEntity
  8
2
  6
CONTINUOUS
370
25
 62
7
100
AcDbLine
 10
86.38449079360353
 20
-18.72310184127929
 30
0.0
 11
87.58966052906902
 21
-17.51793210581381
 31
0.0
  0
LINE
  5
C1C
330
1F
100
AcDbEntity
  8
2
  6
CONTINUOUS
370
25
 62
7
100
AcDbLine
 10
85.85416070771362
 20
-18.82916785845728
 30
0.0
 11
87.23610713847575
 21
-17.44722142769515
 31
0.0
  0
LINE
  5
C1D
330
1F
100
AcDbEntity
  8
2
  6
CONTINUOUS
370
25
 62
7
100
AcDbLine
 10
85.3238306218237
 20
-18.93523387563526
 30
0.0
 11
86.88255374788247
 21
-17.37651074957649
 31
0.0
  0
LINE
  5
C1E
330
1F
100
AcDbEntity
  8
2
  6
CONTINUOUS
370
25
 62
7
100
AcDbLine
 10
85.0
 20
-18.83480042874703
 30
0.0
 11
86.52900035728919
 21
-17.30580007145783
 31
0.0
  0
LINE
  5
C1F
330
1F
100
AcDbEntity
  8
2
  6
CONTINUOUS
370
25
 62
7
100
AcDbLine
 10
85.0
 20
-18.41053636003511
 30
0.0
 11
86.17544696669592
 21
-17.23508939333918
 31
0.0
  0
LINE
  5
C20
330
1F
100
AcDbEntity
  8
2
  6
CONTINUOUS
370
25
 62
7
100
AcDbLine
 10
85.0
 20
-17.98627229132318
 30
0.0
 11
85.82189357610264
 21
-17.16437871522053
 31
0.0
  0
LINE
  5
C21
330
1F
100
AcDbEntity
  8
2
  6
CONTINUOUS
370
25
 62
7
100
AcDbLine
 10
85.0
 20
-17.56200822261125
 30
0.0
 11
85.46834018550938
 21
-17.09366803710187
 31
0.0
  0
LINE
  5
C22
330
1F
100
AcDbEntity
  8
2
  6
CONTINUOUS
370
25
 62
7
100
AcDbLine
 10
85.0
 20
-17.13774415389932
 30
0.0
 11
85.1147867949161
 21
-17.02295735898322
 31
0.0
  0
LINE
  5
C23
330
1F
100
AcDbEntity
  8
2
  6
CONTINUOUS
370
25
 62
7
100
AcDbLine
 10
85.0
 20
-18.67207793864214
 30
0.0
 11
85.27326838446488
 21
-18.94534632310702
 31
0.0
  0
LINE
  5
C24
330
1F
100
AcDbEntity
  8
2
  6
CONTINUOUS
370
25
 62
7
100
AcDbLine
 10
85.0
 20
-18.24781386993021
 30
0.0
 11
85.62682177505818
 21
-18.87463564498838
 31
0.0
  0
LINE
  5
C25
330
1F
100
AcDbEntity
  8
2
  6
CONTINUOUS
370
25
 62
7
100
AcDbLine
 10
85.0
 20
-17.82354980121828
 30
0.0
 11
85.98037516565142
 21
-18.80392496686971
 31
0.0
  0
LINE
  5
C26
330
1F
100
AcDbEntity
  8
2
  6
CONTINUOUS
370
25
 62
7
100
AcDbLine
 10
85.0
 20
-17.39928573250635
 30
0.0
 11
86.3339285562447
 21
-18.73321428875105
 31
0.0
  0
LINE
  5
C27
330
1F
100
AcDbEntity
  8
2
  6
CONTINUOUS
370
25
 62
7
100
AcDbLine
 10
85.03122292025697
 20
-17.00624458405139
 30
0.0
 11
86.68748194683798
 21
-18.6625036106324
 31
0.0
  0
LINE
  5
C28
330
1F
100
AcDbEntity
  8
2
  6
CONTINUOUS
370
25
 62
7
100
AcDbLine
 10
85.56155300614688
 20
-17.11231060122937
 30
0.0
 11
87.04103533743125
 21
-18.59179293251375
 31
0.0
  0
LINE
  5
C29
330
1F
100
AcDbEntity
  8
2
  6
CONTINUOUS
370
25
 62
7
100
AcDbLine
 10
86.0918830920368
 20
-17.21837661840735
 30
0.0
 11
87.39458872802453
 21
-18.5210822543951
 31
0.0
  0
LINE
  5
C2A
330
1F
100
AcDbEntity
  8
2
  6
CONTINUOUS
370
25
 62
7
100
AcDbLine
 10
86.62221317792671
 20
-17.32444263558535
 30
0.0
 11
87.7481421186178
 21
-18.45037157627644
 31
0.0
  0
LINE
  5
C2B
330
1F
100
AcDbEntity
  8
2
  6
CONTINUOUS
370
25
 62
7
100
AcDbLine
 10
87.15254326381663
 20
-17.43050865276333
 30
0.0
 11
88.10169550921108
 21
-18.37966089815778
 31
0.0
  0
LINE
  5
C2C
330
1F
100
AcDbEntity
  8
2
  6
CONTINUOUS
370
25
 62
7
100
AcDbLine
 10
87.68287334970654
 20
-17.5365746699413
 30
0.0
 11
88.45524889980436
 21
-18.30895022003913
 31
0.0
  0
LINE
  5
C2D
330
1F
100
AcDbEntity
  8
2
  6
CONTINUOUS
370
25
 62
7
100
AcDbLine
 10
88.21320343559645
 20
-17.64264068711929
 30
0.0
 11
88.80880229039764
 21
-18.23823954192047
 31
0.0
  0
LINE
  5
C2E
330
1F
100
AcDbEntity
  8
2
  6
CONTINUOUS
370
25
 62
7
100
AcDbLine
 10
88.74353352148637
 20
-17.74870670429728
 30
0.0
 11
89.16235568099091
 21
-18.16752886380181
 31
0.0
  0
LINE
  5
C2F
330
1F
100
AcDbEntity
  8
2
  6
CONTINUOUS
370
25
 62
7
100
AcDbLine
 10
89.27386360737627
 20
-17.85477272147525
 30
0.0
 11
89.51590907158419
 21
-18.09681818568317
 31
0.0
  0
LINE
  5
C30
330
1F
100
AcDbEntity
  8
2
  6
CONTINUOUS
370
25
 62
7
100
AcDbLine
 10
89.8041936932662
 20
-17.96083873865324
 30
0.0
 11
89.86946246217747
 21
-18.02610750756451
 31
0.0
  0
TEXT
  5
C31
330
1F
100
AcDbEntity
  8
2
  6
CONTINUOUS
370
25
 62
7
100
AcDbText
 10
75.08333333333333
 20
-16.5
 30
0.0
 40
3.5
  1
24
 72
     1
 11
78.0
 21
-16.5
 31
0.0
100
AcDbText
  0
LINE
  5
C32
330
1F
100
AcDbEntity
  8
2
  6
CONTINUOUS
370
25
 62
7
100
AcDbLine
 10
53.6
 20
0.0
 30
0.0
 11
53.6
 21
32.4
 31
0.0
  0
LINE
  5
C33
330
1F
100
AcDbEntity
  8
2
  6
CONTINUOUS
370
25
 62
7
100
AcDbLine
 10
90.0
 20
32.4
 30
0.0
 11
90.0
 21
6.0
 31
0.0
  0
LINE
  5
C34
330
1F
100
AcDbEntity
  8
2
  6
CONTINUOUS
370
25
 62
7
100
AcDbLine
 10
53.6
 20
31.4
 30
0.0
 11
90.0
 21
31.4
 31
0.0
  0
LINE
  5
C35
330
1F
100
AcDbEntity
  8
2
  6
CONTINUOUS
370
25
 62
7
100
AcDbLine
 10
53.6
 20
31.4
 30
0.0
 11
58.6
 21
32.4
 31
0.0
  0
LINE
  5
C36
330
1F
100
AcDbEntity
  8
2
  6
CONTINUOUS
370
25
 62
7
100
AcDbLine
 10
58.6
 20
32.4
 30
0.0
 11
58.6
 21
30.4
 31
0.0
  0
LINE
  5
C37
330
1F
100
AcDbEntity
  8
2
  6
CONTINUOUS
370
25
 62
7
100
AcDbLine
 10
58.6
 20
30.4
 30
0.0
 11
53.6
 21
31.4
 31
0.0
  0
LINE
  5
C38
330
1F
100
AcDbEntity
  8
2
  6
CONTINUOUS
370
25
 62
7
100
AcDbLine
 10
58.55346323107027
 20
30.40930735378594
 30
0.0
 11
58.6
 21
30.45584412271567
 31
0.0
  0
LINE
  5
C39
330
1F
100
AcDbEntity
  8
2
  6
CONTINUOUS
370
25
 62
7
100
AcDbLine
 10
58.199909840477
 20
30.4800180319046
 30
0.0
 11
58.6
 21
30.8801081914276
 31
0.0
  0
LINE
  5
C3A
330
1F
100
AcDbEntity
  8
2
  6
CONTINUOUS
370
25
 62
7
100
AcDbLine
 10
57.84635644988372
 20
30.55072871002325
 30
0.0
 11
58.6
 21
31.30437226013953
 31
0.0
  0
LINE
  5
C3B
330
1F
100
AcDbEntity
  8
2
  6
CONTINUOUS
370
25
 62
7
100
AcDbLine
 10
57.49280305929044
 20
30.62143938814191
 30
0.0
 11
58.6
 21
31.72863632885147
 31
0.0
  0
LINE
  5
C3C
330
1F
100
AcDbEntity
  8
2
  6
CONTINUOUS
370
25
 62
7
100
AcDbLine
 10
57.13924966869718
 20
30.69215006626056
 30
0.0
 11
58.6
 21
32.15290039756339
 31
0.0
  0
LINE
  5
C3D
330
1F
100
AcDbEntity
  8
2
  6
CONTINUOUS
370
25
 62
7
100
AcDbLine
 10
56.7856962781039
 20
30.76286074437922
 30
0.0
 11
58.37854441715584
 21
32.35570888343117
 31
0.0
  0
LINE
  5
C3E
330
1F
100
AcDbEntity
  8
2
  6
CONTINUOUS
370
25
 62
7
100
AcDbLine
 10
56.43214288751062
 20
30.83357142249788
 30
0.0
 11
57.84821433126593
 21
32.24964286625318
 31
0.0
  0
LINE
  5
C3F
330
1F
100
AcDbEntity
  8
2
  6
CONTINUOUS
370
25
 62
7
100
AcDbLine
 10
56.07858949691735
 20
30.90428210061653
 30
0.0
 11
57.31788424537602
 21
32.1435768490752
 31
0.0
  0
LINE
  5
C40
330
1F
100
AcDbEntity
  8
2
  6
CONTINUOUS
370
25
 62
7
100
AcDbLine
 10
55.72503610632408
 20
30.97499277873519
 30
0.0
 11
56.78755415948611
 21
32.03751083189722
 31
0.0
  0
LINE
  5
C41
330
1F
100
AcDbEntity
  8
2
  6
CONTINUOUS
370
25
 62
7
100
AcDbLine
 10
55.3714827157308
 20
31.04570345685384
 30
0.0
 11
56.2572240735962
 21
31.93144481471924
 31
0.0
  0
LINE
  5
C42
330
1F
100
AcDbEntity
  8
2
  6
CONTINUOUS
370
25
 62
7
100
AcDbLine
 10
55.01792932513753
 20
31.11641413497249
 30
0.0
 11
55.72689398770629
 21
31.82537879754125
 31
0.0
  0
LINE
  5
C43
330
1F
100
AcDbEntity
  8
2
  6
CONTINUOUS
370
25
 62
7
100
AcDbLine
 10
54.66437593454425
 20
31.18712481309115
 30
0.0
 11
55.19656390181638
 21
31.71931278036327
 31
0.0
  0
LINE
  5
C44
330
1F
100
AcDbEntity
  8
2
  6
CONTINUOUS
370
25
 62
7
100
AcDbLine
 10
54.31082254395098
 20
31.2578354912098
 30
0.0
 11
54.66623381592647
 21
31.61324676318529
 31
0.0
  0
LINE
  5
C45
330
1F
100
AcDbEntity
  8
2
  6
CONTINUOUS
370
25
 62
7
100
AcDbLine
 10
53.95726915335771
 20
31.32854616932846
 30
0.0
 11
54.13590373003656
 21
31.50718074600731
 31
0.0
  0
LINE
  5
C46
330
1F
100
AcDbEntity
  8
2
  6
CONTINUOUS
370
25
 62
7
100
AcDbLine
 10
53.60371576276443
 20
31.39925684744711
 30
0.0
 11
53.60557364414665
 21
31.40111472882933
 31
0.0
  0
LINE
  5
C47
330
1F
100
AcDbEntity
  8
2
  6
CONTINUOUS
370
25
 62
7
100
AcDbLine
 10
53.94983762782884
 20
31.46996752556577
 30
0.0
 11
54.12475644174326
 21
31.29504871165135
 31
0.0
  0
LINE
  5
C48
330
1F
100
AcDbEntity
  8
2
  6
CONTINUOUS
370
25
 62
7
100
AcDbLine
 10
54.30339101842212
 20
31.54067820368442
 30
0.0
 11
54.65508652763317
 21
31.18898269447336
 31
0.0
  0
LINE
  5
C49
330
1F
100
AcDbEntity
  8
2
  6
CONTINUOUS
370
25
 62
7
100
AcDbLine
 10
54.65694440901539
 20
31.61138888180308
 30
0.0
 11
55.18541661352308
 21
31.08291667729538
 31
0.0
  0
LINE
  5
C4A
330
1F
100
AcDbEntity
  8
2
  6
CONTINUOUS
370
25
 62
7
100
AcDbLine
 10
55.01049779960866
 20
31.68209955992173
 30
0.0
 11
55.715746699413
 21
30.9768506601174
 31
0.0
  0
LINE
  5
C4B
330
1F
100
AcDbEntity
  8
2
  6
CONTINUOUS
370
25
 62
7
100
AcDbLine
 10
55.36405119020195
 20
31.75281023804039
 30
0.0
 11
56.24607678530291
 21
30.87078464293942
 31
0.0
  0
LINE
  5
C4C
330
1F
100
AcDbEntity
  8
2
  6
CONTINUOUS
370
25
 62
7
100
AcDbLine
 10
55.71760458079522
 20
31.82352091615904
 30
0.0
 11
56.77640687119282
 21
30.76471862576144
 31
0.0
  0
LINE
  5
C4D
330
1F
100
AcDbEntity
  8
2
  6
CONTINUOUS
370
25
 62
7
100
AcDbLine
 10
56.07115797138849
 20
31.8942315942777
 30
0.0
 11
57.30673695708273
 21
30.65865260858345
 31
0.0
  0
LINE
  5
C4E
330
1F
100
AcDbEntity
  8
2
  6
CONTINUOUS
370
25
 62
7
100
AcDbLine
 10
56.42471136198176
 20
31.96494227239635
 30
0.0
 11
57.83706704297263
 21
30.55258659140547
 31
0.0
  0
LINE
  5
C4F
330
1F
100
AcDbEntity
  8
2
  6
CONTINUOUS
370
25
 62
7
100
AcDbLine
 10
56.77826475257504
 20
32.03565295051501
 30
0.0
 11
58.36739712886255
 21
30.44652057422749
 31
0.0
  0
LINE
  5
C50
330
1F
100
AcDbEntity
  8
2
  6
CONTINUOUS
370
25
 62
7
100
AcDbLine
 10
57.13181814316831
 20
32.10636362863366
 30
0.0
 11
58.6
 21
30.63818177180196
 31
0.0
  0
LINE
  5
C51
330
1F
100
AcDbEntity
  8
2
  6
CONTINUOUS
370
25
 62
7
100
AcDbLine
 10
57.48537153376159
 20
32.17707430675232
 30
0.0
 11
58.6
 21
31.0624458405139
 31
0.0
  0
LINE
  5
C52
330
1F
100
AcDbEntity
  8
2
  6
CONTINUOUS
370
25
 62
7
100
AcDbLine
 10
57.83892492435486
 20
32.24778498487097
 30
0.0
 11
58.6
 21
31.48670990922583
 31
0.0
  0
LINE
  5
C53
330
1F
100
AcDbEntity
  8
2
  6
CONTINUOUS
370
25
 62
7
100
AcDbLine
 10
58.19247831494813
 20
32.31849566298963
 30
0.0
 11
58.6
 21
31.91097397793775
 31
0.0
  0
LINE
  5
C54
330
1F
100
AcDbEntity
  8
2
  6
CONTINUOUS
370
25
 62
7
100
AcDbLine
 10
58.54603170554141
 20
32.38920634110828
 30
0.0
 11
58.6
 21
32.33523804664969
 31
0.0
  0
LINE
  5
C55
330
1F
100
AcDbEntity
  8
2
  6
CONTINUOUS
370
25
 62
7
100
AcDbLine
 10
90.0
 20
31.4
 30
0.0
 11
85.0
 21
30.4
 31
0.0
  0
LINE
  5
C56
330
1F
100
AcDbEntity
  8
2
  6
CONTINUOUS
370
25
 62
7
100
AcDbLine
 10
85.0
 20
30.4
 30
0.0
 11
85.0
 21
32.4
 31
0.0
  0
LINE
  5
C57
330
1F
100
AcDbEntity
  8
2
  6
CONTINUOUS
370
25
 62
7
100
AcDbLine
 10
85.0
 20
32.4
 30
0.0
 11
90.0
 21
31.4
 31
0.0
  0
LINE
  5
C58
330
1F
100
AcDbEntity
  8
2
  6
CONTINUOUS
370
25
 62
7
100
AcDbLine
 10
89.86509135806251
 20
31.3730182716125
 30
0.0
 11
89.91006090537502
 21
31.417987818925
 31
0.0
  0
LINE
  5
C59
330
1F
100
AcDbEntity
  8
2
  6
CONTINUOUS
370
25
 62
7
100
AcDbLine
 10
89.3347612721726
 20
31.26695225443452
 30
0.0
 11
89.55650751478174
 21
31.48869849704365
 31
0.0
  0
LINE
  5
C5A
330
1F
100
AcDbEntity
  8
2
  6
CONTINUOUS
370
25
 62
7
100
AcDbLine
 10
88.8044311862827
 20
31.16088623725654
 30
0.0
 11
89.20295412418847
 21
31.55940917516231
 31
0.0
  0
LINE
  5
C5B
330
1F
100
AcDbEntity
  8
2
  6
CONTINUOUS
370
25
 62
7
100
AcDbLine
 10
88.27410110039278
 20
31.05482022007855
 30
0.0
 11
88.84940073359519
 21
31.63011985328097
 31
0.0
  0
LINE
  5
C5C
330
1F
100
AcDbEntity
  8
2
  6
CONTINUOUS
370
25
 62
7
100
AcDbLine
 10
87.74377101450287
 20
30.94875420290056
 30
0.0
 11
88.49584734300191
 21
31.70083053139962
 31
0.0
  0
LINE
  5
C5D
330
1F
100
AcDbEntity
  8
2
  6
CONTINUOUS
370
25
 62
7
100
AcDbLine
 10
87.21344092861295
 20
30.84268818572259
 30
0.0
 11
88.14229395240864
 21
31.77154120951828
 31
0.0
  0
LINE
  5
C5E
330
1F
100
AcDbEntity
  8
2
  6
CONTINUOUS
370
25
 62
7
100
AcDbLine
 10
86.68311084272304
 20
30.7366221685446
 30
0.0
 11
87.78874056181536
 21
31.84225188763693
 31
0.0
  0
LINE
  5
C5F
330
1F
100
AcDbEntity
  8
2
  6
CONTINUOUS
370
25
 62
7
100
AcDbLine
 10
86.15278075683314
 20
30.63055615136663
 30
0.0
 11
87.43518717122208
 21
31.91296256575558
 31
0.0
  0
LINE
  5
C60
330
1F
100
AcDbEntity
  8
2
  6
CONTINUOUS
370
25
 62
7
100
AcDbLine
 10
85.62245067094322
 20
30.52449013418864
 30
0.0
 11
87.0816337806288
 21
31.98367324387424
 31
0.0
  0
LINE
  5
C61
330
1F
100
AcDbEntity
  8
2
  6
CONTINUOUS
370
25
 62
7
100
AcDbLine
 10
85.09212058505332
 20
30.41842411701066
 30
0.0
 11
86.72808039003553
 21
32.05438392199289
 31
0.0
  0
LINE
  5
C62
330
1F
100
AcDbEntity
  8
2
  6
CONTINUOUS
370
25
 62
7
100
AcDbLine
 10
85.0
 20
30.75056760066927
 30
0.0
 11
86.37452699944225
 21
32.12509460011155
 31
0.0
  0
LINE
  5
C63
330
1F
100
AcDbEntity
  8
2
  6
CONTINUOUS
370
25
 62
7
100
AcDbLine
 10
85.0
 20
31.17483166938121
 30
0.0
 11
86.02097360884898
 21
32.1958052782302
 31
0.0
  0
LINE
  5
C64
330
1F
100
AcDbEntity
  8
2
  6
CONTINUOUS
370
25
 62
7
100
AcDbLine
 10
85.0
 20
31.59909573809314
 30
0.0
 11
85.66742021825571
 21
32.26651595634886
 31
0.0
  0
LINE
  5
C65
330
1F
100
AcDbEntity
  8
2
  6
CONTINUOUS
370
25
 62
7
100
AcDbLine
 10
85.0
 20
32.02335980680508
 30
0.0
 11
85.31386682766244
 21
32.33722663446751
 31
0.0
  0
LINE
  5
C66
330
1F
100
AcDbEntity
  8
2
  6
CONTINUOUS
370
25
 62
7
100
AcDbLine
 10
85.0
 20
30.54255403194156
 30
0.0
 11
85.11879502661797
 21
30.42375900532359
 31
0.0
  0
LINE
  5
C67
330
1F
100
AcDbEntity
  8
2
  6
CONTINUOUS
370
25
 62
7
100
AcDbLine
 10
85.0
 20
30.9668181006535
 30
0.0
 11
85.47234841721125
 21
30.49446968344225
 31
0.0
  0
LINE
  5
C68
330
1F
100
AcDbEntity
  8
2
  6
CONTINUOUS
370
25
 62
7
100
AcDbLine
 10
85.0
 20
31.39108216936543
 30
0.0
 11
85.82590180780454
 21
30.5651803615609
 31
0.0
  0
LINE
  5
C69
330
1F
100
AcDbEntity
  8
2
  6
CONTINUOUS
370
25
 62
7
100
AcDbLine
 10
85.0
 20
31.81534623807736
 30
0.0
 11
86.1794551983978
 21
30.63589103967956
 31
0.0
  0
LINE
  5
C6A
330
1F
100
AcDbEntity
  8
2
  6
CONTINUOUS
370
25
 62
7
100
AcDbLine
 10
85.0
 20
32.23961030678929
 30
0.0
 11
86.53300858899108
 21
30.70660171779821
 31
0.0
  0
LINE
  5
C6B
330
1F
100
AcDbEntity
  8
2
  6
CONTINUOUS
370
25
 62
7
100
AcDbLine
 10
85.32984296937653
 20
32.33403140612469
 30
0.0
 11
86.88656197958436
 21
30.77731239591687
 31
0.0
  0
LINE
  5
C6C
330
1F
100
AcDbEntity
  8
2
  6
CONTINUOUS
370
25
 62
7
100
AcDbLine
 10
85.86017305526643
 20
32.22796538894671
 30
0.0
 11
87.24011537017762
 21
30.84802307403552
 31
0.0
  0
LINE
  5
C6D
330
1F
100
AcDbEntity
  8
2
  6
CONTINUOUS
370
25
 62
7
100
AcDbLine
 10
86.39050314115634
 20
32.12189937176873
 30
0.0
 11
87.5936687607709
 21
30.91873375215417
 31
0.0
  0
LINE
  5
C6E
330
1F
100
AcDbEntity
  8
2
  6
CONTINUOUS
370
25
 62
7
100
AcDbLine
 10
86.92083322704627
 20
32.01583335459075
 30
0.0
 11
87.94722215136419
 21
30.98944443027283
 31
0.0
  0
LINE
  5
C6F
330
1F
100
AcDbEntity
  8
2
  6
CONTINUOUS
370
25
 62
7
100
AcDbLine
 10
87.45116331293619
 20
31.90976733741276
 30
0.0
 11
88.30077554195746
 21
31.06015510839149
 31
0.0
  0
LINE
  5
C70
330
1F
100
AcDbEntity
  8
2
  6
CONTINUOUS
370
25
 62
7
100
AcDbLine
 10
87.9814933988261
 20
31.80370132023479
 30
0.0
 11
88.65432893255074
 21
31.13086578651015
 31
0.0
  0
LINE
  5
C71
330
1F
100
AcDbEntity
  8
2
  6
CONTINUOUS
370
25
 62
7
100
AcDbLine
 10
88.51182348471602
 20
31.6976353030568
 30
0.0
 11
89.007882323144
 21
31.2015764646288
 31
0.0
  0
LINE
  5
C72
330
1F
100
AcDbEntity
  8
2
  6
CONTINUOUS
370
25
 62
7
100
AcDbLine
 10
89.04215357060593
 20
31.59156928587882
 30
0.0
 11
89.3614357137373
 21
31.27228714274745
 31
0.0
  0
LINE
  5
C73
330
1F
100
AcDbEntity
  8
2
  6
CONTINUOUS
370
25
 62
7
100
AcDbLine
 10
89.57248365649585
 20
31.48550326870083
 30
0.0
 11
89.71498910433057
 21
31.34299782086611
 31
0.0
  0
TEXT
  5
C74
330
1F
100
AcDbEntity
  8
2
  6
CONTINUOUS
370
25
 62
7
100
AcDbText
 10
66.55
 20
32.9
 30
0.0
 40
3.5
  1
36.4
 72
     1
 11
71.8
 21
32.9
 31
0.0
100
AcDbText
  0
LINE
  5
C75
330
1F
100
AcDbEntity
  8
SK2
  6
CONTINUOUS
370
25
 62
7
100
AcDbLine
 10
0.0
 20
4.0
 30
0.0
 11
0.0
 21
42.4
 31
0.0
  0
LINE
  5
C76
330
1F
100
AcDbEntity
  8
SK2
  6
CONTINUOUS
370
25
 62
7
100
AcDbLine
 10
90.0
 20
42.4
 30
0.0
 11
90.0
 21
6.0
 31
0.0
  0
LINE
  5
C77
330
1F
100
AcDbEntity
  8
SK2
  6
CONTINUOUS
370
25
 62
7
100
AcDbLine
 10
0.0
 20
41.4
 30
0.0
 11
90.0
 21
41.4
 31
0.0
  0
LINE
  5
C78
330
1F
100
AcDbEntity
  8
SK2
  6
CONTINUOUS
370
25
 62
7
100
AcDbLine
 10
0.0
 20
41.4
 30
0.0
 11
5.0
 21
42.4
 31
0.0
  0
LINE
  5
C79
330
1F
100
AcDbEntity
  8
SK2
  6
CONTINUOUS
370
25
 62
7
100
AcDbLine
 10
5.0
 20
42.4
 30
0.0
 11
5.0
 21
40.4
 31
0.0
  0
LINE
  5
C7A
330
1F
100
AcDbEntity
  8
SK2
  6
CONTINUOUS
370
25
 62
7
100
AcDbLine
 10
5.0
 20
40.4
 30
0.0
 11
0.0
 21
41.4
 31
0.0
  0
LINE
  5
C7B
330
1F
100
AcDbEntity
  8
SK2
  6
CONTINUOUS
370
25
 62
7
100
AcDbLine
 10
4.920454642079164
 20
40.41590907158417
 30
0.0
 11
5.0
 21
40.495454429505
 31
0.0
  0
LINE
  5
C7C
330
1F
100
AcDbEntity
  8
SK2
  6
CONTINUOUS
370
25
 62
7
100
AcDbLine
 10
4.566901251485874
 20
40.48661974970283
 30
0.0
 11
5.0
 21
40.91971849821695
 31
0.0
  0
LINE
  5
C7D
330
1F
100
AcDbEntity
  8
SK2
  6
CONTINUOUS
370
25
 62
7
100
AcDbLine
 10
4.213347860892604
 20
40.55733042782148
 30
0.0
 11
5.0
 21
41.34398256692887
 31
0.0
  0
LINE
  5
C7E
330
1F
100
AcDbEntity
  8
SK2
  6
CONTINUOUS
370
25
 62
7
100
AcDbLine
 10
3.859794470299313
 20
40.62804110594013
 30
0.0
 11
5.0
 21
41.76824663564082
 31
0.0
  0
LINE
  5
C7F
330
1F
100
AcDbEntity
  8
SK2
  6
CONTINUOUS
370
25
 62
7
100
AcDbLine
 10
3.506241079706051
 20
40.69875178405879
 30
0.0
 11
5.0
 21
42.19251070435274
 31
0.0
  0
LINE
  5
C80
330
1F
100
AcDbEntity
  8
SK2
  6
CONTINUOUS
370
25
 62
7
100
AcDbLine
 10
3.15268768911276
 20
40.76946246217746
 30
0.0
 11
4.729031533669122
 21
42.34580630673381
 31
0.0
  0
LINE
  5
C81
330
1F
100
AcDbEntity
  8
SK2
  6
CONTINUOUS
370
25
 62
7
100
AcDbLine
 10
2.79913429851949
 20
40.84017314029611
 30
0.0
 11
4.198701447779221
 21
42.23974028955583
 31
0.0
  0
LINE
  5
C82
330
1F
100
AcDbEntity
  8
SK2
  6
CONTINUOUS
370
25
 62
7
100
AcDbLine
 10
2.4455809079262
 20
40.91088381841477
 30
0.0
 11
3.668371361889285
 21
42.13367427237785
 31
0.0
  0
LINE
  5
C83
330
1F
100
AcDbEntity
  8
SK2
  6
CONTINUOUS
370
25
 62
7
100
AcDbLine
 10
2.09202751733293
 20
40.98159449653342
 30
0.0
 11
3.138041275999385
 21
42.02760825519987
 31
0.0
  0
LINE
  5
C84
330
1F
100
AcDbEntity
  8
SK2
  6
CONTINUOUS
370
25
 62
7
100
AcDbLine
 10
1.738474126739639
 20
41.05230517465208
 30
0.0
 11
2.607711190109448
 21
41.92154223802189
 31
0.0
  0
LINE
  5
C85
330
1F
100
AcDbEntity
  8
SK2
  6
CONTINUOUS
370
25
 62
7
100
AcDbLine
 10
1.38492073614637
 20
41.12301585277073
 30
0.0
 11
2.077381104219548
 21
41.81547622084391
 31
0.0
  0
LINE
  5
C86
330
1F
100
AcDbEntity
  8
SK2
  6
CONTINUOUS
370
25
 62
7
100
AcDbLine
 10
1.031367345553079
 20
41.19372653088939
 30
0.0
 11
1.547051018329611
 21
41.70941020366592
 31
0.0
  0
LINE
  5
C87
330
1F
100
AcDbEntity
  8
SK2
  6
CONTINUOUS
370
25
 62
7
100
AcDbLine
 10
0.6778139549598166
 20
41.26443720900804
 30
0.0
 11
1.016720932439711
 21
41.60334418648794
 31
0.0
  0
LINE
  5
C88
330
1F
100
AcDbEntity
  8
SK2
  6
CONTINUOUS
370
25
 62
7
100
AcDbLine
 10
0.3242605643665257
 20
41.3351478871267
 30
0.0
 11
0.4863908465497744
 21
41.49727816930995
 31
0.0
  0
LINE
  5
C89
330
1F
100
AcDbEntity
  8
SK2
  6
CONTINUOUS
370
25
 62
7
100
AcDbLine
 10
0.1003467347106408
 20
41.42006934694213
 30
0.0
 11
0.1505201020659683
 21
41.3698959795868
 31
0.0
  0
LINE
  5
C8A
330
1F
100
AcDbEntity
  8
SK2
  6
CONTINUOUS
370
25
 62
7
100
AcDbLine
 10
0.4539001253039245
 20
41.49078002506078
 30
0.0
 11
0.6808501879558833
 21
41.26382996240882
 31
0.0
  0
LINE
  5
C8B
330
1F
100
AcDbEntity
  8
SK2
  6
CONTINUOUS
370
25
 62
7
100
AcDbLine
 10
0.8074535158972012
 20
41.56149070317944
 30
0.0
 11
1.211180273845805
 21
41.15776394523084
 31
0.0
  0
LINE
  5
C8C
330
1F
100
AcDbEntity
  8
SK2
  6
CONTINUOUS
370
25
 62
7
100
AcDbLine
 10
1.161006906490485
 20
41.6322013812981
 30
0.0
 11
1.741510359735727
 21
41.05169792805285
 31
0.0
  0
LINE
  5
C8D
330
1F
100
AcDbEntity
  8
SK2
  6
CONTINUOUS
370
25
 62
7
100
AcDbLine
 10
1.514560297083761
 20
41.70291205941675
 30
0.0
 11
2.271840445625642
 21
40.94563191087487
 31
0.0
  0
LINE
  5
C8E
330
1F
100
AcDbEntity
  8
SK2
  6
CONTINUOUS
370
25
 62
7
100
AcDbLine
 10
1.868113687677038
 20
41.77362273753541
 30
0.0
 11
2.802170531515564
 21
40.83956589369689
 31
0.0
  0
LINE
  5
C8F
330
1F
100
AcDbEntity
  8
SK2
  6
CONTINUOUS
370
25
 62
7
100
AcDbLine
 10
2.221667078270322
 20
41.84433341565406
 30
0.0
 11
3.332500617405486
 21
40.7334998765189
 31
0.0
  0
LINE
  5
C90
330
1F
100
AcDbEntity
  8
SK2
  6
CONTINUOUS
370
25
 62
7
100
AcDbLine
 10
2.575220468863598
 20
41.91504409377272
 30
0.0
 11
3.862830703295401
 21
40.62743385934092
 31
0.0
  0
LINE
  5
C91
330
1F
100
AcDbEntity
  8
SK2
  6
CONTINUOUS
370
25
 62
7
100
AcDbLine
 10
2.928773859456875
 20
41.98575477189138
 30
0.0
 11
4.393160789185323
 21
40.52136784216293
 31
0.0
  0
LINE
  5
C92
330
1F
100
AcDbEntity
  8
SK2
  6
CONTINUOUS
370
25
 62
7
100
AcDbLine
 10
3.282327250050159
 20
42.05646545001003
 30
0.0
 11
4.923490875075245
 21
40.41530182498494
 31
0.0
  0
LINE
  5
C93
330
1F
100
AcDbEntity
  8
SK2
  6
CONTINUOUS
370
25
 62
7
100
AcDbLine
 10
3.635880640643435
 20
42.12717612812869
 30
0.0
 11
5.0
 21
40.76305676877212
 31
0.0
  0
LINE
  5
C94
330
1F
100
AcDbEntity
  8
SK2
  6
CONTINUOUS
370
25
 62
7
100
AcDbLine
 10
3.989434031236719
 20
42.19788680624734
 30
0.0
 11
5.0
 21
41.18732083748406
 31
0.0
  0
LINE
  5
C95
330
1F
100
AcDbEntity
  8
SK2
  6
CONTINUOUS
370
25
 62
7
100
AcDbLine
 10
4.342987421829996
 20
42.268597484366
 30
0.0
 11
5.0
 21
41.61158490619599
 31
0.0
  0
LINE
  5
C96
330
1F
100
AcDbEntity
  8
SK2
  6
CONTINUOUS
370
25
 62
7
100
AcDbLine
 10
4.696540812423272
 20
42.33930816248466
 30
0.0
 11
5.0
 21
42.03584897490793
 31
0.0
  0
LINE
  5
C97
330
1F
100
AcDbEntity
  8
SK2
  6
CONTINUOUS
370
25
 62
7
100
AcDbLine
 10
90.0
 20
41.4
 30
0.0
 11
85.0
 21
40.4
 31
0.0
  0
LINE
  5
C98
330
1F
100
AcDbEntity
  8
SK2
  6
CONTINUOUS
370
25
 62
7
100
AcDbLine
 10
85.0
 20
40.4
 30
0.0
 11
85.0
 21
42.4
 31
0.0
  0
LINE
  5
C99
330
1F
100
AcDbEntity
  8
SK2
  6
CONTINUOUS
370
25
 62
7
100
AcDbLine
 10
85.0
 20
42.4
 30
0.0
 11
90.0
 21
41.4
 31
0.0
  0
LINE
  5
C9A
330
1F
100
AcDbEntity
  8
SK2
  6
CONTINUOUS
370
25
 62
7
100
AcDbLine
 10
89.88603896932104
 20
41.3772077938642
 30
0.0
 11
89.92402597954737
 21
41.41519480409053
 31
0.0
  0
LINE
  5
C9B
330
1F
100
AcDbEntity
  8
SK2
  6
CONTINUOUS
370
25
 62
7
100
AcDbLine
 10
89.35570888343112
 20
41.27114177668621
 30
0.0
 11
89.57047258895409
 21
41.48590548220918
 31
0.0
  0
LINE
  5
C9C
330
1F
100
AcDbEntity
  8
SK2
  6
CONTINUOUS
370
25
 62
7
100
AcDbLine
 10
88.8253787975412
 20
41.16507575950823
 30
0.0
 11
89.21691919836081
 21
41.55661616032784
 31
0.0
  0
LINE
  5
C9D
330
1F
100
AcDbEntity
  8
SK2
  6
CONTINUOUS
370
25
 62
7
100
AcDbLine
 10
88.29504871165129
 20
41.05900974233025
 30
0.0
 11
88.86336580776754
 21
41.62732683844649
 31
0.0
  0
LINE
  5
C9E
330
1F
100
AcDbEntity
  8
SK2
  6
CONTINUOUS
370
25
 62
7
100
AcDbLine
 10
87.76471862576138
 20
40.95294372515227
 30
0.0
 11
88.50981241717426
 21
41.69803751656515
 31
0.0
  0
LINE
  5
C9F
330
1F
100
AcDbEntity
  8
SK2
  6
CONTINUOUS
370
25
 62
7
100
AcDbLine
 10
87.23438853987146
 20
40.84687770797429
 30
0.0
 11
88.15625902658098
 21
41.76874819468381
 31
0.0
  0
LINE
  5
CA0
330
1F
100
AcDbEntity
  8
SK2
  6
CONTINUOUS
370
25
 62
7
100
AcDbLine
 10
86.70405845398155
 20
40.74081169079631
 30
0.0
 11
87.8027056359877
 21
41.83945887280246
 31
0.0
  0
LINE
  5
CA1
330
1F
100
AcDbEntity
  8
SK2
  6
CONTINUOUS
370
25
 62
7
100
AcDbLine
 10
86.17372836809164
 20
40.63474567361833
 30
0.0
 11
87.44915224539443
 21
41.91016955092111
 31
0.0
  0
LINE
  5
CA2
330
1F
100
AcDbEntity
  8
SK2
  6
CONTINUOUS
370
25
 62
7
100
AcDbLine
 10
85.64339828220173
 20
40.52867965644035
 30
0.0
 11
87.09559885480115
 21
41.98088022903977
 31
0.0
  0
LINE
  5
CA3
330
1F
100
AcDbEntity
  8
SK2
  6
CONTINUOUS
370
25
 62
7
100
AcDbLine
 10
85.1130681963118
 20
40.42261363926235
 30
0.0
 11
86.74204546420788
 21
42.05159090715843
 31
0.0
  0
LINE
  5
CA4
330
1F
100
AcDbEntity
  8
SK2
  6
CONTINUOUS
370
25
 62
7
100
AcDbLine
 10
85.0
 20
40.73380951166249
 30
0.0
 11
86.3884920736146
 21
42.12230158527709
 31
0.0
  0
LINE
  5
CA5
330
1F
100
AcDbEntity
  8
SK2
  6
CONTINUOUS
370
25
 62
7
100
AcDbLine
 10
85.0
 20
41.15807358037442
 30
0.0
 11
86.03493868302132
 21
42.19301226339574
 31
0.0
  0
LINE
  5
CA6
330
1F
100
AcDbEntity
  8
SK2
  6
CONTINUOUS
370
25
 62
7
100
AcDbLine
 10
85.0
 20
41.58233764908636
 30
0.0
 11
85.68138529242805
 21
42.26372294151439
 31
0.0
  0
LINE
  5
CA7
330
1F
100
AcDbEntity
  8
SK2
  6
CONTINUOUS
370
25
 62
7
100
AcDbLine
 10
85.0
 20
42.00660171779829
 30
0.0
 11
85.32783190183476
 21
42.33443361963305
 31
0.0
  0
LINE
  5
CA8
330
1F
100
AcDbEntity
  8
SK2
  6
CONTINUOUS
370
25
 62
7
100
AcDbLine
 10
85.0
 20
40.72489168102786
 30
0.0
 11
85.27074306752321
 21
40.45414861350464
 31
0.0
  0
LINE
  5
CA9
330
1F
100
AcDbEntity
  8
SK2
  6
CONTINUOUS
370
25
 62
7
100
AcDbLine
 10
85.0
 20
41.14915574973978
 30
0.0
 11
85.62429645811649
 21
40.52485929162329
 31
0.0
  0
LINE
  5
CAA
330
1F
100
AcDbEntity
  8
SK2
  6
CONTINUOUS
370
25
 62
7
100
AcDbLine
 10
85.0
 20
41.57341981845171
 30
0.0
 11
85.97784984870977
 21
40.59556996974195
 31
0.0
  0
LINE
  5
CAB
330
1F
100
AcDbEntity
  8
SK2
  6
CONTINUOUS
370
25
 62
7
100
AcDbLine
 10
85.0
 20
41.99768388716365
 30
0.0
 11
86.33140323930304
 21
40.66628064786061
 31
0.0
  0
LINE
  5
CAC
330
1F
100
AcDbEntity
  8
SK2
  6
CONTINUOUS
370
25
 62
7
100
AcDbLine
 10
85.02743494484449
 20
42.3945130110311
 30
0.0
 11
86.68495662989633
 21
40.73699132597926
 31
0.0
  0
LINE
  5
CAD
330
1F
100
AcDbEntity
  8
SK2
  6
CONTINUOUS
370
25
 62
7
100
AcDbLine
 10
85.55776503073439
 20
42.28844699385313
 30
0.0
 11
87.03851002048961
 21
40.80770200409792
 31
0.0
  0
LINE
  5
CAE
330
1F
100
AcDbEntity
  8
SK2
  6
CONTINUOUS
370
25
 62
7
100
AcDbLine
 10
86.08809511662432
 20
42.18238097667513
 30
0.0
 11
87.39206341108289
 21
40.87841268221657
 31
0.0
  0
LINE
  5
CAF
330
1F
100
AcDbEntity
  8
SK2
  6
CONTINUOUS
370
25
 62
7
100
AcDbLine
 10
86.61842520251423
 20
42.07631495949715
 30
0.0
 11
87.74561680167616
 21
40.94912336033523
 31
0.0
  0
LINE
  5
CB0
330
1F
100
AcDbEntity
  8
SK2
  6
CONTINUOUS
370
25
 62
7
100
AcDbLine
 10
87.14875528840416
 20
41.97024894231917
 30
0.0
 11
88.09917019226944
 21
41.01983403845389
 31
0.0
  0
LINE
  5
CB1
330
1F
100
AcDbEntity
  8
SK2
  6
CONTINUOUS
370
25
 62
7
100
AcDbLine
 10
87.67908537429408
 20
41.86418292514119
 30
0.0
 11
88.45272358286272
 21
41.09054471657254
 31
0.0
  0
LINE
  5
CB2
330
1F
100
AcDbEntity
  8
SK2
  6
CONTINUOUS
370
25
 62
7
100
AcDbLine
 10
88.209415460184
 20
41.7581169079632
 30
0.0
 11
88.806276973456
 21
41.1612553946912
 31
0.0
  0
LINE
  5
CB3
330
1F
100
AcDbEntity
  8
SK2
  6
CONTINUOUS
370
25
 62
7
100
AcDbLine
 10
88.73974554607392
 20
41.65205089078521
 30
0.0
 11
89.15983036404928
 21
41.23196607280985
 31
0.0
  0
LINE
  5
CB4
330
1F
100
AcDbEntity
  8
SK2
  6
CONTINUOUS
370
25
 62
7
100
AcDbLine
 10
89.27007563196382
 20
41.54598487360724
 30
0.0
 11
89.51338375464255
 21
41.30267675092851
 31
0.0
  0
LINE
  5
CB5
330
1F
100
AcDbEntity
  8
SK2
  6
CONTINUOUS
370
25
 62
7
100
AcDbLine
 10
89.80040571785375
 20
41.43991885642925
 30
0.0
 11
89.86693714523584
 21
41.37338742904716
 31
0.0
  0
TEXT
  5
CB6
330
1F
100
AcDbEntity
  8
SK2
  6
CONTINUOUS
370
25
 62
7
100
AcDbText
 10
42.375
 20
42.9
 30
0.0
 40
3.5
  1
90
 72
     1
 11
45.0
 21
42.9
 31
0.0
100
AcDbText
  0
LINE
  5
CB7
330
1F
100
AcDbEntity
  8
2
  6
CONTINUOUS
370
25
 62
7
100
AcDbLine
 10
54.0
 20
-5.74995
 30
0.0
 11
54.0
 21
-29.0
 31
0.0
  0
LINE
  5
CB8
330
1F
100
AcDbEntity
  8
2
  6
CONTINUOUS
370
25
 62
7
100
AcDbLine
 10
90.0
 20
-29.0
 30
0.0
 11
90.0
 21
-6.0
 31
0.0
  0
LINE
  5
CB9
330
1F
100
AcDbEntity
  8
2
  6
CONTINUOUS
370
25
 62
7
100
AcDbLine
 10
54.0
 20
-28.0
 30
0.0
 11
90.0
 21
-28.0
 31
0.0
  0
LINE
  5
CBA
330
1F
100
AcDbEntity
  8
2
  6
CONTINUOUS
370
25
 62
7
100
AcDbLine
 10
54.0
 20
-28.0
 30
0.0
 11
59.0
 21
-27.0
 31
0.0
  0
LINE
  5
CBB
330
1F
100
AcDbEntity
  8
2
  6
CONTINUOUS
370
25
 62
7
100
AcDbLine
 10
59.0
 20
-27.0
 30
0.0
 11
59.0
 21
-29.0
 31
0.0
  0
LINE
  5
CBC
330
1F
100
AcDbEntity
  8
2
  6
CONTINUOUS
370
25
 62
7
100
AcDbLine
 10
59.0
 20
-29.0
 30
0.0
 11
54.0
 21
-28.0
 31
0.0
  0
LINE
  5
CBD
330
1F
100
AcDbEntity
  8
2
  6
CONTINUOUS
370
25
 62
7
100
AcDbLine
 10
58.7624238501456
 20
-28.95248477002912
 30
0.0
 11
59.0
 21
-28.71490862017472
 31
0.0
  0
LINE
  5
CBE
330
1F
100
AcDbEntity
  8
2
  6
CONTINUOUS
370
25
 62
7
100
AcDbLine
 10
58.40887045955233
 20
-28.88177409191047
 30
0.0
 11
59.0
 21
-28.29064455146279
 31
0.0
  0
LINE
  5
CBF
330
1F
100
AcDbEntity
  8
2
  6
CONTINUOUS
370
25
 62
7
100
AcDbLine
 10
58.05531706895905
 20
-28.81106341379181
 30
0.0
 11
59.0
 21
-27.86638048275086
 31
0.0
  0
LINE
  5
CC0
330
1F
100
AcDbEntity
  8
2
  6
CONTINUOUS
370
25
 62
7
100
AcDbLine
 10
57.70176367836578
 20
-28.74035273567316
 30
0.0
 11
59.0
 21
-27.44211641403894
 31
0.0
  0
LINE
  5
CC1
330
1F
100
AcDbEntity
  8
2
  6
CONTINUOUS
370
25
 62
7
100
AcDbLine
 10
57.3482102877725
 20
-28.6696420575545
 30
0.0
 11
59.0
 21
-27.01785234532701
 31
0.0
  0
LINE
  5
CC2
330
1F
100
AcDbEntity
  8
2
  6
CONTINUOUS
370
25
 62
7
100
AcDbLine
 10
56.99465689717923
 20
-28.59893137943585
 30
0.0
 11
58.49198534576885
 21
-27.10160293084623
 31
0.0
  0
LINE
  5
CC3
330
1F
100
AcDbEntity
  8
2
  6
CONTINUOUS
370
25
 62
7
100
AcDbLine
 10
56.64110350658595
 20
-28.52822070131719
 30
0.0
 11
57.96165525987893
 21
-27.20766894802421
 31
0.0
  0
LINE
  5
CC4
330
1F
100
AcDbEntity
  8
2
  6
CONTINUOUS
370
25
 62
7
100
AcDbLine
 10
56.28755011599267
 20
-28.45751002319854
 30
0.0
 11
57.43132517398902
 21
-27.31373496520219
 31
0.0
  0
LINE
  5
CC5
330
1F
100
AcDbEntity
  8
2
  6
CONTINUOUS
370
25
 62
7
100
AcDbLine
 10
55.9339967253994
 20
-28.38679934507988
 30
0.0
 11
56.90099508809911
 21
-27.41980098238018
 31
0.0
  0
LINE
  5
CC6
330
1F
100
AcDbEntity
  8
2
  6
CONTINUOUS
370
25
 62
7
100
AcDbLine
 10
55.58044333480613
 20
-28.31608866696123
 30
0.0
 11
56.37066500220919
 21
-27.52586699955816
 31
0.0
  0
LINE
  5
CC7
330
1F
100
AcDbEntity
  8
2
  6
CONTINUOUS
370
25
 62
7
100
AcDbLine
 10
55.22688994421285
 20
-28.24537798884257
 30
0.0
 11
55.84033491631928
 21
-27.63193301673614
 31
0.0
  0
LINE
  5
CC8
330
1F
100
AcDbEntity
  8
2
  6
CONTINUOUS
370
25
 62
7
100
AcDbLine
 10
54.87333655361957
 20
-28.17466731072392
 30
0.0
 11
55.31000483042937
 21
-27.73799903391413
 31
0.0
  0
LINE
  5
CC9
330
1F
100
AcDbEntity
  8
2
  6
CONTINUOUS
370
25
 62
7
100
AcDbLine
 10
54.5197831630263
 20
-28.10395663260526
 30
0.0
 11
54.77967474453946
 21
-27.84406505109211
 31
0.0
  0
LINE
  5
CCA
330
1F
100
AcDbEntity
  8
2
  6
CONTINUOUS
370
25
 62
7
100
AcDbLine
 10
54.16622977243303
 20
-28.03324595448661
 30
0.0
 11
54.24934465864954
 21
-27.95013106827009
 31
0.0
  0
LINE
  5
CCB
330
1F
100
AcDbEntity
  8
2
  6
CONTINUOUS
370
25
 62
7
100
AcDbLine
 10
54.34848885332838
 20
-27.93030222933432
 30
0.0
 11
54.52273327999257
 21
-28.10454665599852
 31
0.0
  0
LINE
  5
CCC
330
1F
100
AcDbEntity
  8
2
  6
CONTINUOUS
370
25
 62
7
100
AcDbLine
 10
54.70204224392165
 20
-27.85959155121567
 30
0.0
 11
55.05306336588249
 21
-28.2106126731765
 31
0.0
  0
LINE
  5
CCD
330
1F
100
AcDbEntity
  8
2
  6
CONTINUOUS
370
25
 62
7
100
AcDbLine
 10
55.05559563451493
 20
-27.78888087309701
 30
0.0
 11
55.58339345177239
 21
-28.31667869035448
 31
0.0
  0
LINE
  5
CCE
330
1F
100
AcDbEntity
  8
2
  6
CONTINUOUS
370
25
 62
7
100
AcDbLine
 10
55.4091490251082
 20
-27.71817019497836
 30
0.0
 11
56.11372353766231
 21
-28.42274470753246
 31
0.0
  0
LINE
  5
CCF
330
1F
100
AcDbEntity
  8
2
  6
CONTINUOUS
370
25
 62
7
100
AcDbLine
 10
55.76270241570148
 20
-27.6474595168597
 30
0.0
 11
56.64405362355222
 21
-28.52881072471045
 31
0.0
  0
LINE
  5
CD0
330
1F
100
AcDbEntity
  8
2
  6
CONTINUOUS
370
25
 62
7
100
AcDbLine
 10
56.11625580629475
 20
-27.57674883874105
 30
0.0
 11
57.17438370944214
 21
-28.63487674188843
 31
0.0
  0
LINE
  5
CD1
330
1F
100
AcDbEntity
  8
2
  6
CONTINUOUS
370
25
 62
7
100
AcDbLine
 10
56.46980919688803
 20
-27.50603816062239
 30
0.0
 11
57.70471379533205
 21
-28.74094275906641
 31
0.0
  0
LINE
  5
CD2
330
1F
100
AcDbEntity
  8
2
  6
CONTINUOUS
370
25
 62
7
100
AcDbLine
 10
56.82336258748131
 20
-27.43532748250374
 30
0.0
 11
58.23504388122197
 21
-28.84700877624439
 31
0.0
  0
LINE
  5
CD3
330
1F
100
AcDbEntity
  8
2
  6
CONTINUOUS
370
25
 62
7
100
AcDbLine
 10
57.17691597807458
 20
-27.36461680438508
 30
0.0
 11
58.76537396711188
 21
-28.95307479342238
 31
0.0
  0
LINE
  5
CD4
330
1F
100
AcDbEntity
  8
2
  6
CONTINUOUS
370
25
 62
7
100
AcDbLine
 10
57.53046936866785
 20
-27.29390612626643
 30
0.0
 11
59.0
 21
-28.76343675759857
 31
0.0
  0
LINE
  5
CD5
330
1F
100
AcDbEntity
  8
2
  6
CONTINUOUS
370
25
 62
7
100
AcDbLine
 10
57.88402275926113
 20
-27.22319544814777
 30
0.0
 11
59.0
 21
-28.33917268888664
 31
0.0
  0
LINE
  5
CD6
330
1F
100
AcDbEntity
  8
2
  6
CONTINUOUS
370
25
 62
7
100
AcDbLine
 10
58.2375761498544
 20
-27.15248477002912
 30
0.0
 11
59.0
 21
-27.91490862017471
 31
0.0
  0
LINE
  5
CD7
330
1F
100
AcDbEntity
  8
2
  6
CONTINUOUS
370
25
 62
7
100
AcDbLine
 10
58.59112954044767
 20
-27.08177409191046
 30
0.0
 11
59.0
 21
-27.49064455146279
 31
0.0
  0
LINE
  5
CD8
330
1F
100
AcDbEntity
  8
2
  6
CONTINUOUS
370
25
 62
7
100
AcDbLine
 10
58.94468293104095
 20
-27.01106341379181
 30
0.0
 11
59.0
 21
-27.06638048275086
 31
0.0
  0
LINE
  5
CD9
330
1F
100
AcDbEntity
  8
2
  6
CONTINUOUS
370
25
 62
7
100
AcDbLine
 10
90.0
 20
-28.0
 30
0.0
 11
85.0
 21
-29.0
 31
0.0
  0
LINE
  5
CDA
330
1F
100
AcDbEntity
  8
2
  6
CONTINUOUS
370
25
 62
7
100
AcDbLine
 10
85.0
 20
-29.0
 30
0.0
 11
85.0
 21
-27.0
 31
0.0
  0
LINE
  5
CDB
330
1F
100
AcDbEntity
  8
2
  6
CONTINUOUS
370
25
 62
7
100
AcDbLine
 10
85.0
 20
-27.0
 30
0.0
 11
90.0
 21
-28.0
 31
0.0
  0
LINE
  5
CDC
330
1F
100
AcDbEntity
  8
2
  6
CONTINUOUS
370
25
 62
7
100
AcDbLine
 10
89.86887933347504
 20
-28.02622413330499
 30
0.0
 11
89.91258622231669
 21
-27.98251724446334
 31
0.0
  0
LINE
  5
CDD
330
1F
100
AcDbEntity
  8
2
  6
CONTINUOUS
370
25
 62
7
100
AcDbLine
 10
89.3385492475851
 20
-28.13229015048298
 30
0.0
 11
89.5590328317234
 21
-27.91180656634469
 31
0.0
  0
LINE
  5
CDE
330
1F
100
AcDbEntity
  8
2
  6
CONTINUOUS
370
25
 62
7
100
AcDbLine
 10
88.8082191616952
 20
-28.23835616766096
 30
0.0
 11
89.20547944113014
 21
-27.84109588822603
 31
0.0
  0
LINE
  5
CDF
330
1F
100
AcDbEntity
  8
2
  6
CONTINUOUS
370
25
 62
7
100
AcDbLine
 10
88.27788907580529
 20
-28.34442218483895
 30
0.0
 11
88.85192605053686
 21
-27.77038521010738
 31
0.0
  0
LINE
  5
CE0
330
1F
100
AcDbEntity
  8
2
  6
CONTINUOUS
370
25
 62
7
100
AcDbLine
 10
87.74755898991538
 20
-28.45048820201693
 30
0.0
 11
88.49837265994358
 21
-27.69967453198872
 31
0.0
  0
LINE
  5
CE1
330
1F
100
AcDbEntity
  8
2
  6
CONTINUOUS
370
25
 62
7
100
AcDbLine
 10
87.21722890402545
 20
-28.55655421919491
 30
0.0
 11
88.14481926935031
 21
-27.62896385387006
 31
0.0
  0
LINE
  5
CE2
330
1F
100
AcDbEntity
  8
2
  6
CONTINUOUS
370
25
 62
7
100
AcDbLine
 10
86.68689881813555
 20
-28.6626202363729
 30
0.0
 11
87.79126587875703
 21
-27.55825317575141
 31
0.0
  0
LINE
  5
CE3
330
1F
100
AcDbEntity
  8
2
  6
CONTINUOUS
370
25
 62
7
100
AcDbLine
 10
86.15656873224563
 20
-28.76868625355088
 30
0.0
 11
87.43771248816375
 21
-27.48754249763275
 31
0.0
  0
LINE
  5
CE4
330
1F
100
AcDbEntity
  8
2
  6
CONTINUOUS
370
25
 62
7
100
AcDbLine
 10
85.62623864635572
 20
-28.87475227072886
 30
0.0
 11
87.08415909757048
 21
-27.4168318195141
 31
0.0
  0
LINE
  5
CE5
330
1F
100
AcDbEntity
  8
2
  6
CONTINUOUS
370
25
 62
7
100
AcDbLine
 10
85.0959085604658
 20
-28.98081828790684
 30
0.0
 11
86.7306057069772
 21
-27.34612114139544
 31
0.0
  0
LINE
  5
CE6
330
1F
100
AcDbEntity
  8
2
  6
CONTINUOUS
370
25
 62
7
100
AcDbLine
 10
85.0
 20
-28.65246277966072
 30
0.0
 11
86.37705231638392
 21
-27.27541046327678
 31
0.0
  0
LINE
  5
CE7
330
1F
100
AcDbEntity
  8
2
  6
CONTINUOUS
370
25
 62
7
100
AcDbLine
 10
85.0
 20
-28.22819871094878
 30
0.0
 11
86.02349892579065
 21
-27.20469978515813
 31
0.0
  0
LINE
  5
CE8
330
1F
100
AcDbEntity
  8
2
  6
CONTINUOUS
370
25
 62
7
100
AcDbLine
 10
85.0
 20
-27.80393464223685
 30
0.0
 11
85.66994553519737
 21
-27.13398910703948
 31
0.0
  0
LINE
  5
CE9
330
1F
100
AcDbEntity
  8
2
  6
CONTINUOUS
370
25
 62
7
100
AcDbLine
 10
85.0
 20
-27.37967057352492
 30
0.0
 11
85.3163921446041
 21
-27.06327842892082
 31
0.0
  0
LINE
  5
CEA
330
1F
100
AcDbEntity
  8
2
  6
CONTINUOUS
370
25
 62
7
100
AcDbLine
 10
85.0
 20
-28.85441558772842
 30
0.0
 11
85.12132034355966
 21
-28.97573593128807
 31
0.0
  0
LINE
  5
CEB
330
1F
100
AcDbEntity
  8
2
  6
CONTINUOUS
370
25
 62
7
100
AcDbLine
 10
85.0
 20
-28.43015151901649
 30
0.0
 11
85.47487373415292
 21
-28.90502525316941
 31
0.0
  0
LINE
  5
CEC
330
1F
100
AcDbEntity
  8
2
  6
CONTINUOUS
370
25
 62
7
100
AcDbLine
 10
85.0
 20
-28.00588745030456
 30
0.0
 11
85.82842712474621
 21
-28.83431457505077
 31
0.0
  0
LINE
  5
CED
330
1F
100
AcDbEntity
  8
2
  6
CONTINUOUS
370
25
 62
7
100
AcDbLine
 10
85.0
 20
-27.58162338159263
 30
0.0
 11
86.18198051533949
 21
-28.76360389693211
 31
0.0
  0
LINE
  5
CEE
330
1F
100
AcDbEntity
  8
2
  6
CONTINUOUS
370
25
 62
7
100
AcDbLine
 10
85.0
 20
-27.1573593128807
 30
0.0
 11
86.53553390593277
 21
-28.69289321881346
 31
0.0
  0
LINE
  5
CEF
330
1F
100
AcDbEntity
  8
2
  6
CONTINUOUS
370
25
 62
7
100
AcDbLine
 10
85.33363094478904
 20
-27.06672618895781
 30
0.0
 11
86.88908729652604
 21
-28.6221825406948
 31
0.0
  0
LINE
  5
CF0
330
1F
100
AcDbEntity
  8
2
  6
CONTINUOUS
370
25
 62
7
100
AcDbLine
 10
85.86396103067895
 20
-27.17279220613579
 30
0.0
 11
87.2426406871193
 21
-28.55147186257614
 31
0.0
  0
LINE
  5
CF1
330
1F
100
AcDbEntity
  8
2
  6
CONTINUOUS
370
25
 62
7
100
AcDbLine
 10
86.39429111656887
 20
-27.27885822331377
 30
0.0
 11
87.59619407771258
 21
-28.48076118445748
 31
0.0
  0
LINE
  5
CF2
330
1F
100
AcDbEntity
  8
2
  6
CONTINUOUS
370
25
 62
7
100
AcDbLine
 10
86.92462120245878
 20
-27.38492424049176
 30
0.0
 11
87.94974746830587
 21
-28.41005050633883
 31
0.0
  0
LINE
  5
CF3
330
1F
100
AcDbEntity
  8
2
  6
CONTINUOUS
370
25
 62
7
100
AcDbLine
 10
87.4549512883487
 20
-27.49099025766973
 30
0.0
 11
88.30330085889915
 21
-28.33933982822018
 31
0.0
  0
LINE
  5
CF4
330
1F
100
AcDbEntity
  8
2
  6
CONTINUOUS
370
25
 62
7
100
AcDbLine
 10
87.98528137423861
 20
-27.59705627484772
 30
0.0
 11
88.65685424949243
 21
-28.26862915010152
 31
0.0
  0
LINE
  5
CF5
330
1F
100
AcDbEntity
  8
2
  6
CONTINUOUS
370
25
 62
7
100
AcDbLine
 10
88.51561146012853
 20
-27.70312229202571
 30
0.0
 11
89.0104076400857
 21
-28.19791847198286
 31
0.0
  0
LINE
  5
CF6
330
1F
100
AcDbEntity
  8
2
  6
CONTINUOUS
370
25
 62
7
100
AcDbLine
 10
89.04594154601844
 20
-27.80918830920368
 30
0.0
 11
89.36396103067898
 21
-28.12720779386421
 31
0.0
  0
LINE
  5
CF7
330
1F
100
AcDbEntity
  8
2
  6
CONTINUOUS
370
25
 62
7
100
AcDbLine
 10
89.57627163190837
 20
-27.91525432638167
 30
0.0
 11
89.71751442127226
 21
-28.05649711574555
 31
0.0
  0
TEXT
  5
CF8
330
1F
100
AcDbEntity
  8
2
  6
CONTINUOUS
370
25
 62
7
100
AcDbText
 10
69.08333333333333
 20
-26.5
 30
0.0
 40
3.5
  1
36
 72
     1
 11
72.0
 21
-26.5
 31
0.0
100
AcDbText
  0
LINE
  5
CF9
330
1F
100
AcDbEntity
  8
SK1
  6
CONTINUOUS
370
50
 62
4
100
AcDbLine
 10
53.6
 20
0.0
 30
0.0
 11
55.35
 21
0.0
 31
0.0
  0
LINE
  5
CFA
330
1F
100
AcDbEntity
  8
SK1
  6
CONTINUOUS
370
50
 62
4
100
AcDbLine
 10
53.6
 20
0.0
 30
0.0
 11
53.6
 21
1.75
 31
0.0
  0
ARC
  5
CFB
330
1F
100
AcDbEntity
  8
SK1
  6
CONTINUOUS
370
50
 62
4
100
AcDbCircle
 10
53.6
 20
0.0
 30
0.0
 40
1.75
100
AcDbArc
 50
0.0
 51
90.0
  0
LINE
  5
CFC
330
1F
100
AcDbEntity
  8
SK1
  6
CONTINUOUS
370
50
 62
4
100
AcDbLine
 10
53.6
 20
0.0
 30
0.0
 11
51.85
 21
0.0
 31
0.0
  0
ARC
  5
CFD
330
1F
100
AcDbEntity
  8
SK1
  6
CONTINUOUS
370
50
 62
4
100
AcDbCircle
 10
53.6
 20
0.0
 30
0.0
 40
1.75
100
AcDbArc
 50
180.0
 51
270.0
  0
LINE
  5
CFE
330
1F
100
AcDbEntity
  8
SK1
  6
CONTINUOUS
370
50
 62
4
100
AcDbLine
 10
53.6
 20
-1.75
 30
0.0
 11
53.6
 21
0.0
 31
0.0
  0
ARC
  5
CFF
330
1F
100
AcDbEntity
  8
SK1
  6
CONTINUOUS
370
50
 62
4
100
AcDbCircle
 10
53.6
 20
0.0
 30
0.0
 40
1.75
100
AcDbArc
 50
270.0
 51
0.0
  0
ARC
  5
D00
330
1F
100
AcDbEntity
  8
SK1
  6
CONTINUOUS
370
50
 62
4
100
AcDbCircle
 10
53.6
 20
0.0
 30
0.0
 40
1.75
100
AcDbArc
 50
90.0
 51
180.0
  0
LINE
  5
D01
330
1F
100
AcDbEntity
  8
SK1
  6
CONTINUOUS
370
50
 62
4
100
AcDbLine
 10
53.37717274741573
 20
-1.73564731720198
 30
0.0
 11
53.6
 21
-1.512820064617713
 31
0.0
  0
LINE
  5
D02
330
1F
100
AcDbEntity
  8
SK1
  6
CONTINUOUS
370
50
 62
4
100
AcDbLine
 10
55.11282006461771
 20
0.0
 30
0.0
 11
55.33564731720198
 21
0.2228272525842674
 31
0.0
  0
LINE
  5
D03
330
1F
100
AcDbEntity
  8
SK1
  6
CONTINUOUS
370
50
 62
4
100
AcDbLine
 10
53.16930380681873
 20
-1.69602888438369
 30
0.0
 11
53.6
 21
-1.265332691202421
 31
0.0
  0
LINE
  5
D04
330
1F
100
AcDbEntity
  8
SK1
  6
CONTINUOUS
370
50
 62
4
100
AcDbLine
 10
54.86533269120242
 20
0.0
 30
0.0
 11
55.29602888438369
 21
0.4306961931812696
 31
0.0
  0
LINE
  5
D05
330
1F
100
AcDbEntity
  8
SK1
  6
CONTINUOUS
370
50
 62
4
100
AcDbLine
 10
52.98148340435765
 20
-1.636361913429485
 30
0.0
 11
53.6
 21
-1.01784531778713
 31
0.0
  0
LINE
  5
D06
330
1F
100
AcDbEntity
  8
SK1
  6
CONTINUOUS
370
50
 62
4
100
AcDbLine
 10
54.61784531778713
 20
0.0
 30
0.0
 11
55.23636191342948
 21
0.6185165956423557
 31
0.0
  0
LINE
  5
D07
330
1F
100
AcDbEntity
  8
SK1
  6
CONTINUOUS
370
50
 62
4
100
AcDbLine
 10
52.8098551094628
 20
-1.560502834909039
 30
0.0
 11
53.6
 21
-0.7703579443718382
 31
0.0
  0
LINE
  5
D08
330
1F
100
AcDbEntity
  8
SK1
  6
CONTINUOUS
370
50
 62
4
100
AcDbLine
 10
54.37035794437184
 20
0.0
 30
0.0
 11
55.16050283490904
 21
0.7901448905372013
 31
0.0
  0
LINE
  5
D09
330
1F
100
AcDbEntity
  8
SK1
  6
CONTINUOUS
370
50
 62
4
100
AcDbLine
 10
52.65217783219447
 20
-1.470692738762079
 30
0.0
 11
53.6
 21
-0.5228705709565462
 31
0.0
  0
LINE
  5
D0A
330
1F
100
AcDbEntity
  8
SK1
  6
CONTINUOUS
370
50
 62
4
100
AcDbLine
 10
54.12287057095655
 20
0.0
 30
0.0
 11
55.07069273876208
 21
0.947822167805533
 31
0.0
  0
LINE
  5
D0B
330
1F
100
AcDbEntity
  8
SK1
  6
CONTINUOUS
370
50
 62
4
100
AcDbLine
 10
52.50842956711548
 20
-1.366953630425777
 30
0.0
 11
53.6
 21
-0.2753831975412551
 31
0.0
  0
LINE
  5
D0C
330
1F
100
AcDbEntity
  8
SK1
  6
CONTINUOUS
370
50
 62
4
100
AcDbLine
 10
53.87538319754125
 20
0.0
 30
0.0
 11
54.96695363042578
 21
1.091570432884522
 31
0.0
  0
LINE
  5
D0D
330
1F
100
AcDbEntity
  8
SK1
  6
CONTINUOUS
370
50
 62
4
100
AcDbLine
 10
52.37712164538165
 20
-1.25077417874432
 30
0.0
 11
53.6
 21
-0.0278958241259639
 31
0.0
  0
LINE
  5
D0E
330
1F
100
AcDbEntity
  8
SK1
  6
CONTINUOUS
370
50
 62
4
100
AcDbLine
 10
53.62789582412596
 20
0.0
 30
0.0
 11
54.85077417874432
 21
1.222878354618356
 31
0.0
  0
LINE
  5
D0F
330
1F
100
AcDbEntity
  8
SK1
  6
CONTINUOUS
370
50
 62
4
100
AcDbLine
 10
52.25784030371346
 20
-1.122568146997212
 30
0.0
 11
53.38040845071068
 21
0.0
 31
0.0
  0
LINE
  5
D10
330
1F
100
AcDbEntity
  8
SK1
  6
CONTINUOUS
370
50
 62
4
100
AcDbLine
 10
53.6
 20
0.2195915492893277
 30
0.0
 11
54.72256814699721
 21
1.34215969628654
 31
0.0
  0
LINE
  5
D11
330
1F
100
AcDbEntity
  8
SK1
  6
CONTINUOUS
370
50
 62
4
100
AcDbLine
 10
52.15188167231256
 20
-0.9810394049828186
 30
0.0
 11
53.13292107729539
 21
0.0
 31
0.0
  0
LINE
  5
D12
330
1F
100
AcDbEntity
  8
SK1
  6
CONTINUOUS
370
50
 62
4
100
AcDbLine
 10
53.6
 20
0.4670789227046193
 30
0.0
 11
54.58103940498282
 21
1.448118327687438
 31
0.0
  0
LINE
  5
D13
330
1F
100
AcDbEntity
  8
SK1
  6
CONTINUOUS
370
50
 62
4
100
AcDbLine
 10
52.05832908651576
 20
-0.8271046173643402
 30
0.0
 11
52.88543370388009
 21
0.0
 31
0.0
  0
LINE
  5
D14
330
1F
100
AcDbEntity
  8
SK1
  6
CONTINUOUS
370
50
 62
4
100
AcDbLine
 10
53.6
 20
0.71456629611991
 30
0.0
 11
54.42710461736434
 21
1.54167091348425
 31
0.0
  0
LINE
  5
D15
330
1F
100
AcDbEntity
  8
SK1
  6
CONTINUOUS
370
50
 62
4
100
AcDbLine
 10
51.97918473824205
 20
-0.6587615922227528
 30
0.0
 11
52.6379463304648
 21
0.0
 31
0.0
  0
LINE
  5
D16
330
1F
100
AcDbEntity
  8
SK1
  6
CONTINUOUS
370
50
 62
4
100
AcDbLine
 10
53.6
 20
0.9620536695352015
 30
0.0
 11
54.25876159222275
 21
1.620815261757954
 31
0.0
  0
LINE
  5
D17
330
1F
100
AcDbEntity
  8
SK1
  6
CONTINUOUS
370
50
 62
4
100
AcDbLine
 10
51.91629687706963
 20
-0.474162079979876
 30
0.0
 11
52.39045895704951
 21
0.0
 31
0.0
  0
LINE
  5
D18
330
1F
100
AcDbEntity
  8
SK1
  6
CONTINUOUS
370
50
 62
4
100
AcDbLine
 10
53.6
 20
1.209541042950494
 30
0.0
 11
54.07416207997988
 21
1.683703122930369
 31
0.0
  0
LINE
  5
D19
330
1F
100
AcDbEntity
  8
SK1
  6
CONTINUOUS
370
50
 62
4
100
AcDbLine
 10
51.87198100434271
 20
-0.2709905792915031
 30
0.0
 11
52.14297158363422
 21
0.0
 31
0.0
  0
LINE
  5
D1A
330
1F
100
AcDbEntity
  8
SK1
  6
CONTINUOUS
370
50
 62
4
100
AcDbLine
 10
53.6
 20
1.457028416365784
 30
0.0
 11
53.8709905792915
 21
1.728018995657286
 31
0.0
  0
LINE
  5
D1B
330
1F
100
AcDbEntity
  8
SK1
  6
CONTINUOUS
370
50
 62
4
100
AcDbLine
 10
51.85138584689781
 20
-0.0440983633211194
 30
0.0
 11
51.89548421021892
 21
0.0
 31
0.0
  0
LINE
  5
D1C
330
1F
100
AcDbEntity
  8
SK1
  6
CONTINUOUS
370
50
 62
4
100
AcDbLine
 10
53.6
 20
1.704515789781075
 30
0.0
 11
53.64409836332112
 21
1.748614153102194
 31
0.0
  0
LINE
  5
D1D
330
1F
100
AcDbEntity
  8
SK1
  6
CONTINUOUS
370
50
 62
4
100
AcDbLine
 10
51.96386517603682
 20
-0.6191473609004006
 30
0.0
 11
52.9808526390996
 21
-1.636134823963186
 31
0.0
  0
LINE
  5
D1E
330
1F
100
AcDbEntity
  8
SK1
  6
CONTINUOUS
370
50
 62
4
100
AcDbLine
 10
51.87363430643546
 20
-0.2814291178837463
 30
0.0
 11
53.31857088211625
 21
-1.726365693564548
 31
0.0
  0
LINE
  5
D1F
330
1F
100
AcDbEntity
  8
SK1
  6
CONTINUOUS
370
50
 62
4
100
AcDbLine
 10
51.8503344343115
 20
-0.0106418723445003
 30
0.0
 11
53.5893581276555
 21
-1.749665565688503
 31
0.0
  0
LINE
  5
D20
330
1F
100
AcDbEntity
  8
SK1
  6
CONTINUOUS
370
50
 62
4
100
AcDbLine
 10
52.08717993538229
 20
0.0
 30
0.0
 11
53.6
 21
-1.51282006461771
 31
0.0
  0
LINE
  5
D21
330
1F
100
AcDbEntity
  8
SK1
  6
CONTINUOUS
370
50
 62
4
100
AcDbLine
 10
52.33466730879758
 20
0.0
 30
0.0
 11
53.6
 21
-1.265332691202418
 31
0.0
  0
LINE
  5
D22
330
1F
100
AcDbEntity
  8
SK1
  6
CONTINUOUS
370
50
 62
4
100
AcDbLine
 10
52.58215468221287
 20
0.0
 30
0.0
 11
53.6
 21
-1.017845317787128
 31
0.0
  0
LINE
  5
D23
330
1F
100
AcDbEntity
  8
SK1
  6
CONTINUOUS
370
50
 62
4
100
AcDbLine
 10
52.82964205562816
 20
0.0
 30
0.0
 11
53.6
 21
-0.7703579443718369
 31
0.0
  0
LINE
  5
D24
330
1F
100
AcDbEntity
  8
SK1
  6
CONTINUOUS
370
50
 62
4
100
AcDbLine
 10
53.07712942904345
 20
0.0
 30
0.0
 11
53.6
 21
-0.5228705709565453
 31
0.0
  0
LINE
  5
D25
330
1F
100
AcDbEntity
  8
SK1
  6
CONTINUOUS
370
50
 62
4
100
AcDbLine
 10
53.32461680245875
 20
0.0
 30
0.0
 11
53.6
 21
-0.2753831975412537
 31
0.0
  0
LINE
  5
D26
330
1F
100
AcDbEntity
  8
SK1
  6
CONTINUOUS
370
50
 62
4
100
AcDbLine
 10
53.57210417587404
 20
0.0
 30
0.0
 11
53.6
 21
-0.027895824125963
 31
0.0
  0
LINE
  5
D27
330
1F
100
AcDbEntity
  8
SK1
  6
CONTINUOUS
370
50
 62
4
100
AcDbLine
 10
53.6
 20
0.219591549289329
 30
0.0
 11
53.81959154928933
 21
0.0
 31
0.0
  0
LINE
  5
D28
330
1F
100
AcDbEntity
  8
SK1
  6
CONTINUOUS
370
50
 62
4
100
AcDbLine
 10
53.6
 20
0.4670789227046202
 30
0.0
 11
54.06707892270462
 21
0.0
 31
0.0
  0
LINE
  5
D29
330
1F
100
AcDbEntity
  8
SK1
  6
CONTINUOUS
370
50
 62
4
100
AcDbLine
 10
53.6
 20
0.7145662961199113
 30
0.0
 11
54.31456629611991
 21
0.0
 31
0.0
  0
LINE
  5
D2A
330
1F
100
AcDbEntity
  8
SK1
  6
CONTINUOUS
370
50
 62
4
100
AcDbLine
 10
53.6
 20
0.9620536695352029
 30
0.0
 11
54.5620536695352
 21
0.0
 31
0.0
  0
LINE
  5
D2B
330
1F
100
AcDbEntity
  8
SK1
  6
CONTINUOUS
370
50
 62
4
100
AcDbLine
 10
53.6
 20
1.209541042950494
 30
0.0
 11
54.8095410429505
 21
0.0
 31
0.0
  0
LINE
  5
D2C
330
1F
100
AcDbEntity
  8
SK1
  6
CONTINUOUS
370
50
 62
4
100
AcDbLine
 10
53.6
 20
1.457028416365785
 30
0.0
 11
55.05702841636579
 21
0.0
 31
0.0
  0
LINE
  5
D2D
330
1F
100
AcDbEntity
  8
SK1
  6
CONTINUOUS
370
50
 62
4
100
AcDbLine
 10
53.6
 20
1.704515789781076
 30
0.0
 11
55.30451578978108
 21
0.0
 31
0.0
  0
LINE
  5
D2E
330
1F
100
AcDbEntity
  8
SK1
  6
CONTINUOUS
370
50
 62
4
100
AcDbLine
 10
53.81543384193567
 20
1.736569321260697
 30
0.0
 11
55.3365693212607
 21
0.2154338419356714
 31
0.0
  0
LINE
  5
D2F
330
1F
100
AcDbEntity
  8
SK1
  6
CONTINUOUS
370
50
 62
4
100
AcDbLine
 10
54.13283284728993
 20
1.666657689321729
 30
0.0
 11
55.26665768932173
 21
0.5328328472899322
 31
0.0
  0
LINE
  5
D30
330
1F
100
AcDbEntity
  8
SK1
  6
CONTINUOUS
370
50
 62
4
100
AcDbLine
 10
54.64009874905675
 20
1.406879160970207
 30
0.0
 11
55.00687916097021
 21
1.040098749056747
 31
0.0
  0
LINE
  5
D31
330
1F
100
AcDbEntity
  8
4
  6
LONGDASH_DASH
370
25
 62
2
100
AcDbLine
 10
53.6
 20
0.0
 30
0.0
 11
90.0
 21
0.0
 31
0.0
  0
LINE
  5
D32
330
1F
100
AcDbEntity
  8
SK4
  6
LONGDASH_DASH
370
25
 62
2
100
AcDbLine
 10
-6.0
 20
0.0
 30
0.0
 11
96.0
 21
0.0
 31
0.0
  0
ARC
  5
D33
330
1F
100
AcDbEntity
  8
SK6
  6
CONTINUOUS
370
25
 62
5
100
AcDbCircle
 10
118.4613820083765
 20
-31.14524575338786
 30
0.0
 40
2.760489128492211
100
AcDbArc
 50
338.9379403434233
 51
90.44457437511365
  0
LINE
  5
D34
330
1F
100
AcDbEntity
  8
SK6
  6
CONTINUOUS
370
25
 62
5
100
AcDbLine
 10
118.4399627969598
 20
-28.38483972421281
 30
0.0
 11
118.4399627969598
 21
-29.48789835613464
 31
0.0
  0
ARC
  5
D35
330
1F
100
AcDbEntity
  8
SK6
  6
CONTINUOUS
370
25
 62
5
100
AcDbCircle
 10
118.4505090293692
 20
-31.16523924566821
 30
0.0
 40
1.677374043771776
100
AcDbArc
 50
243.4214706017868
 51
90.36024081226083
  0
ARC
  5
D36
330
1F
100
AcDbEntity
  8
SK6
  6
CONTINUOUS
370
25
 62
5
100
AcDbCircle
 10
120.9727598968496
 20
-30.73383199215561
 30
0.0
 40
3.800217030022758
100
AcDbArc
 50
210.5483731288539
 51
236.97801693668
  0
LINE
  5
D37
330
1F
100
AcDbEntity
  8
SK6
  6
CONTINUOUS
370
25
 62
5
100
AcDbLine
 10
118.9017906851249
 20
-33.92016781867535
 30
0.0
 11
123.0437309674267
 21
-33.92016781867535
 31
0.0
  0
ARC
  5
D38
330
1F
100
AcDbEntity
  8
SK6
  6
CONTINUOUS
370
25
 62
5
100
AcDbCircle
 10
120.9727618387726
 20
-30.7338320937346
 30
0.0
 40
3.800216899582472
100
AcDbArc
 50
303.0219828477959
 51
326.3732153033476
  0
LINE
  5
D39
330
1F
100
AcDbEntity
  8
SK6
  6
CONTINUOUS
370
25
 62
5
100
AcDbLine
 10
124.1370597513572
 20
-32.8383194907709
 30
0.0
 11
120.7797617057546
 21
-32.8383194907709
 31
0.0
  0
LINE
  5
D3A
330
1F
100
AcDbEntity
  8
SK6
  6
CONTINUOUS
370
25
 62
5
100
AcDbLine
 10
120.7797617057546
 20
-32.8383194907709
 30
0.0
 11
124.6996210977199
 21
-31.47691829641694
 31
0.0
  0
ARC
  5
D3B
330
1F
100
AcDbEntity
  8
SK6
  6
CONTINUOUS
370
25
 62
5
100
AcDbCircle
 10
120.9727625615721
 20
-30.7338326048594
 30
0.0
 40
3.800217216614723
100
AcDbArc
 50
348.7238644184696
 51
53.4691051260885
  0
LINE
  5
D3C
330
1F
100
AcDbEntity
  8
SK6
  6
CONTINUOUS
370
25
 62
5
100
AcDbLine
 10
123.2348652453854
 20
-27.68022124429967
 30
0.0
 11
121.0374504788274
 21
-32.13730973507057
 31
0.0
  0
ENDSEC
  0
SECTION
  2
OBJECTS
  0
DICTIONARY
  5
C
330
0
100
AcDbDictionary
281
     1
  3
ACAD_GROUP
350
D
  3
ACAD_LAYOUT
350
1A
  3
ACAD_MATERIAL
350
3B
  3
ACAD_MLEADERSTYLE
350
D3F
  3
ACAD_MLINESTYLE
350
17
  3
ACAD_PLOTSETTINGS
350
19
  3
ACAD_PLOTSTYLENAME
350
E
  3
ACAD_SCALELIST
350
494
  3
ACAD_VISUALSTYLE
350
2A
  3
AcDbVariableDictionary
350
D3D
  0
DICTIONARY
  5
D
102
{ACAD_REACTORS
330
C
102
}
330
C
100
AcDbDictionary
281
     1
  0
DICTIONARY
  5
1A
102
{ACAD_REACTORS
330
C
102
}
330
C
100
AcDbDictionary
281
     1
  3
Layout1
350
1E
  3
Layout2
350
26
  3
Model
350
22
  0
DICTIONARY
  5
3B
102
{ACAD_REACTORS
330
C
102
}
330
C
100
AcDbDictionary
281
     1
  3
ByBlock
350
3D
  3
ByLayer
350
3C
  3
Global
350
3E
  0
DICTIONARY
  5
D3F
102
{ACAD_REACTORS
330
C
102
}
330
C
100
AcDbDictionary
281
     1
  0
DICTIONARY
  5
17
102
{ACAD_REACTORS
330
C
102
}
330
C
100
AcDbDictionary
281
     1
  3
Standard
350
18
  0
DICTIONARY
  5
19
102
{ACAD_REACTORS
330
C
102
}
330
C
100
AcDbDictionary
281
     1
  0
ACDBDICTIONARYWDFLT
  5
E
102
{ACAD_REACTORS
330
C
102
}
330
C
100
AcDbDictionary
281
     1
  3
Normal
350
F
100
AcDbDictionaryWithDefault
340
F
  0
DICTIONARY
  5
494
102
{ACAD_REACTORS
330
C
102
}
330
C
100
AcDbDictionary
281
     1
  3
A0
350
495
  3
A1
350
496
  3
A2
350
497
  3
A3
350
498
  3
A4
350
499
  3
A5
350
49A
  3
A6
350
49B
  3
A7
350
49C
  3
A8
350
49D
  3
A9
350
49E
  3
B0
350
49F
  3
B1
350
4A0
  3
B2
350
4A1
  3
B3
350
4A2
  3
B4
350
4A3
  3
B5
350
4A4
  3
B6
350
4A5
  3
B7
350
4A6
  3
B8
350
4A7
  3
B9
350
4A8
  3
C0
350
4A9
  3
C1
350
4AA
  3
C2
350
4AB
  3
C3
350
4AC
  3
C4
350
4AD
  3
C5
350
4AE
  3
C6
350
4AF
  3
C7
350
4B0
  3
C8
350
4B1
  3
C9
350
4B2
  3
D0
350
4B3
  3
D1
350
4B4
  3
D2
350
4B5
  0
DICTIONARY
  5
2A
102
{ACAD_REACTORS
330
C
102
}
330
C
100
AcDbDictionary
281
     1
  3
2dWireframe
350
2F
  3
3D Hidden
350
31
  3
3dWireframe
350
30
  3
Basic
350
32
  3
Brighten
350
36
  3
ColorChange
350
3A
  3
Conceptual
350
34
  3
Dim
350
35
  3
Facepattern
350
39
  3
Flat
350
2B
  3
FlatWithEdges
350
2C
  3
Gouraud
350
2D
  3
GouraudWithEdges
350
2E
  3
Linepattern
350
38
  3
Realistic
350
33
  3
Thicken
350
37
  0
DICTIONARY
  5
D3D
102
{ACAD_REACTORS
330
C
102
}
330
C
100
AcDbDictionary
281
     1
  3
CANNOSCALE
350
D42
  3
DIMASSOC
350
D43
  3
HIDETEXT
350
D44
  3
PSOLHEIGHT
350
D41
  3
PSOLWIDTH
350
D40
  0
LAYOUT
  5
1E
102
{ACAD_REACTORS
330
1A
102
}
330
1A
100
AcDbPlotSettings
  1

  2
none_device
  4

  6

 40
0.0
 41
0.0
 42
0.0
 43
0.0
 44
0.0
 45
0.0
 46
0.0
 47
0.0
 48
0.0
 49
0.0
140
0.0
141
0.0
142
1.0
143
1.0
 70
   688
 72
     0
 73
     0
 74
     5
  7

 75
    16
147
1.0
148
0.0
149
0.0
100
AcDbLayout
  1
Layout1
 70
     1
 71
     1
 10
0.0
 20
0.0
 11
420.0
 21
297.0
 12
0.0
 22
0.0
 32
0.0
 14
1.000000000000000E+20
 24
1.000000000000000E+20
 34
1.000000000000000E+20
 15
-1.000000000000000E+20
 25
-1.000000000000000E+20
 35
-1.000000000000000E+20
146
0.0
 13
0.0
 23
0.0
 33
0.0
 16
1.0
 26
0.0
 36
0.0
 17
0.0
 27
1.0
 37
0.0
 76
     0
330
1B
  0
LAYOUT
  5
26
102
{ACAD_REACTORS
330
1A
102
}
330
1A
100
AcDbPlotSettings
  1

  2
none_device
  4

  6

 40
0.0
 41
0.0
 42
0.0
 43
0.0
 44
0.0
 45
0.0
 46
0.0
 47
0.0
 48
0.0
 49
0.0
140
0.0
141
0.0
142
1.0
143
1.0
 70
   688
 72
     0
 73
     0
 74
     5
  7

 75
    16
147
1.0
148
0.0
149
0.0
100
AcDbLayout
  1
Layout2
 70
     1
 71
     2
 10
0.0
 20
0.0
 11
0.0
 21
0.0
 12
0.0
 22
0.0
 32
0.0
 14
0.0
 24
0.0
 34
0.0
 15
0.0
 25
0.0
 35
0.0
146
0.0
 13
0.0
 23
0.0
 33
0.0
 16
1.0
 26
0.0
 36
0.0
 17
0.0
 27
1.0
 37
0.0
 76
     0
330
23
  0
LAYOUT
  5
22
102
{ACAD_REACTORS
330
1A
102
}
330
1A
100
AcDbPlotSettings
  1

  2
none_device
  4

  6

 40
0.0
 41
0.0
 42
0.0
 43
0.0
 44
0.0
 45
0.0
 46
0.0
 47
0.0
 48
0.0
 49
0.0
140
0.0
141
0.0
142
1.0
143
1.0
 70
  1712
 72
     0
 73
     0
 74
     0
  7

 75
     0
147
1.0
148
0.0
149
0.0
100
AcDbLayout
  1
Model
 70
     1
 71
     0
 10
0.0
 20
0.0
 11
420.0
 21
297.0
 12
0.0
 22
0.0
 32
0.0
 14
0.0
 24
0.0
 34
0.0
 15
25.0
 25
35.0
 35
0.0
146
0.0
 13
0.0
 23
0.0
 33
0.0
 16
1.0
 26
0.0
 36
0.0
 17
0.0
 27
1.0
 37
0.0
 76
     0
330
1F
331
29
  0
MATERIAL
  5
3D
102
{ACAD_REACTORS
330
3B
102
}
102
{ACAD_XDICTIONARY
360
D67
102
}
330
3B
100
AcDbMaterial
  1
ByBlock
  0
MATERIAL
  5
3C
102
{ACAD_REACTORS
330
3B
102
}
102
{ACAD_XDICTIONARY
360
D65
102
}
330
3B
100
AcDbMaterial
  1
ByLayer
  0
MATERIAL
  5
3E
102
{ACAD_REACTORS
330
3B
102
}
102
{ACAD_XDICTIONARY
360
D69
102
}
330
3B
100
AcDbMaterial
  1
Global
  0
MLINESTYLE
  5
18
102
{ACAD_REACTORS
330
17
102
}
330
17
100
AcDbMlineStyle
  2
Standard
 70
     0
  3

 62
   256
 51
90.0
 52
90.0
 71
     2
 49
0.5
 62
   256
  6
BYLAYER
 49
-0.5
 62
   256
  6
BYLAYER
  0
ACDBPLACEHOLDER
  5
F
102
{ACAD_REACTORS
330
E
102
}
330
E
  0
SCALE
  5
495
102
{ACAD_REACTORS
330
494
102
}
330
494
100
AcDbScale
 70
     0
300
1:1
140
1.0
141
1.0
290
     1
  0
SCALE
  5
496
102
{ACAD_REACTORS
330
494
102
}
330
494
100
AcDbScale
 70
     0
300
1:2
140
1.0
141
2.0
290
     0
  0
SCALE
  5
497
102
{ACAD_REACTORS
330
494
102
}
330
494
100
AcDbScale
 70
     0
300
1:4
140
1.0
141
4.0
290
     0
  0
SCALE
  5
498
102
{ACAD_REACTORS
330
494
102
}
330
494
100
AcDbScale
 70
     0
300
1:5
140
1.0
141
5.0
290
     0
  0
SCALE
  5
499
102
{ACAD_REACTORS
330
494
102
}
330
494
100
AcDbScale
 70
     0
300
1:8
140
1.0
141
8.0
290
     0
  0
SCALE
  5
49A
102
{ACAD_REACTORS
330
494
102
}
330
494
100
AcDbScale
 70
     0
300
1:10
140
1.0
141
10.0
290
     0
  0
SCALE
  5
49B
102
{ACAD_REACTORS
330
494
102
}
330
494
100
AcDbScale
 70
     0
300
1:16
140
1.0
141
16.0
290
     0
  0
SCALE
  5
49C
102
{ACAD_REACTORS
330
494
102
}
330
494
100
AcDbScale
 70
     0
300
1:20
140
1.0
141
20.0
290
     0
  0
SCALE
  5
49D
102
{ACAD_REACTORS
330
494
102
}
330
494
100
AcDbScale
 70
     0
300
1:30
140
1.0
141
30.0
290
     0
  0
SCALE
  5
49E
102
{ACAD_REACTORS
330
494
102
}
330
494
100
AcDbScale
 70
     0
300
1:40
140
1.0
141
40.0
290
     0
  0
SCALE
  5
49F
102
{ACAD_REACTORS
330
494
102
}
330
494
100
AcDbScale
 70
     0
300
1:50
140
1.0
141
50.0
290
     0
  0
SCALE
  5
4A0
102
{ACAD_REACTORS
330
494
102
}
330
494
100
AcDbScale
 70
     0
300
1:100
140
1.0
141
100.0
290
     0
  0
SCALE
  5
4A1
102
{ACAD_REACTORS
330
494
102
}
330
494
100
AcDbScale
 70
     0
300
2:1
140
2.0
141
1.0
290
     0
  0
SCALE
  5
4A2
102
{ACAD_REACTORS
330
494
102
}
330
494
100
AcDbScale
 70
     0
300
4:1
140
4.0
141
1.0
290
     0
  0
SCALE
  5
4A3
102
{ACAD_REACTORS
330
494
102
}
330
494
100
AcDbScale
 70
     0
300
8:1
140
8.0
141
1.0
290
     0
  0
SCALE
  5
4A4
102
{ACAD_REACTORS
330
494
102
}
330
494
100
AcDbScale
 70
     0
300
10:1
140
10.0
141
1.0
290
     0
  0
SCALE
  5
4A5
102
{ACAD_REACTORS
330
494
102
}
330
494
100
AcDbScale
 70
     0
300
100:1
140
100.0
141
1.0
290
     0
  0
SCALE
  5
4A6
102
{ACAD_REACTORS
330
494
102
}
330
494
100
AcDbScale
 70
     0
300
1/128" = 1'-0"
140
0.0078125
141
12.0
290
     0
  0
SCALE
  5
4A7
102
{ACAD_REACTORS
330
494
102
}
330
494
100
AcDbScale
 70
     0
300
1/64" = 1'-0"
140
0.015625
141
12.0
290
     0
  0
SCALE
  5
4A8
102
{ACAD_REACTORS
330
494
102
}
330
494
100
AcDbScale
 70
     0
300
1/32" = 1'-0"
140
0.03125
141
12.0
290
     0
  0
SCALE
  5
4A9
102
{ACAD_REACTORS
330
494
102
}
330
494
100
AcDbScale
 70
     0
300
1/16" = 1'-0"
140
0.0625
141
12.0
290
     0
  0
SCALE
  5
4AA
102
{ACAD_REACTORS
330
494
102
}
330
494
100
AcDbScale
 70
     0
300
3/32" = 1'-0"
140
0.09375
141
12.0
290
     0
  0
SCALE
  5
4AB
102
{ACAD_REACTORS
330
494
102
}
330
494
100
AcDbScale
 70
     0
300
1/8" = 1'-0"
140
0.125
141
12.0
290
     0
  0
SCALE
  5
4AC
102
{ACAD_REACTORS
330
494
102
}
330
494
100
AcDbScale
 70
     0
300
3/16" = 1'-0"
140
0.1875
141
12.0
290
     0
  0
SCALE
  5
4AD
102
{ACAD_REACTORS
330
494
102
}
330
494
100
AcDbScale
 70
     0
300
1/4" = 1'-0"
140
0.25
141
12.0
290
     0
  0
SCALE
  5
4AE
102
{ACAD_REACTORS
330
494
102
}
330
494
100
AcDbScale
 70
     0
300
3/8" = 1'-0"
140
0.375
141
12.0
290
     0
  0
SCALE
  5
4AF
102
{ACAD_REACTORS
330
494
102
}
330
494
100
AcDbScale
 70
     0
300
1/2" = 1'-0"
140
0.5
141
12.0
290
     0
  0
SCALE
  5
4B0
102
{ACAD_REACTORS
330
494
102
}
330
494
100
AcDbScale
 70
     0
300
3/4" = 1'-0"
140
0.75
141
12.0
290
     0
  0
SCALE
  5
4B1
102
{ACAD_REACTORS
330
494
102
}
330
494
100
AcDbScale
 70
     0
300
1" = 1'-0"
140
1.0
141
12.0
290
     0
  0
SCALE
  5
4B2
102
{ACAD_REACTORS
330
494
102
}
330
494
100
AcDbScale
 70
     0
300
1-1/2" = 1'-0"
140
1.5
141
12.0
290
     0
  0
SCALE
  5
4B3
102
{ACAD_REACTORS
330
494
102
}
330
494
100
AcDbScale
 70
     0
300
3" = 1'-0"
140
3.0
141
12.0
290
     0
  0
SCALE
  5
4B4
102
{ACAD_REACTORS
330
494
102
}
330
494
100
AcDbScale
 70
     0
300
6" = 1'-0"
140
6.0
141
12.0
290
     0
  0
SCALE
  5
4B5
102
{ACAD_REACTORS
330
494
102
}
330
494
100
AcDbScale
 70
     0
300
1'-0" = 1'-0"
140
12.0
141
12.0
290
     0
  0
VISUALSTYLE
  5
2F
102
{ACAD_REACTORS
330
2A
102
}
102
{ACAD_XDICTIONARY
360
D4D
102
}
330
2A
100
AcDbVisualStyle
  2
2dWireframe
 70
     4
 71
     0
 72
     2
 73
     0
 90
        0
 40
-0.6
 41
-30.0
 62
     5
 63
     7
 74
     1
 91
        4
 64
     7
 65
   257
 75
     1
175
     1
 42
1.0
 92
        0
 66
   257
 43
1.0
 76
     1
 77
     6
 78
     2
 67
     7
 79
     5
170
     0
171
     0
290
     0
174
     0
 93
        1
 44
0.0
173
     0
291
     0
 45
0.0
1001
ACAD
1000
AcDbSavedByObjectVersion
1070
     0
  0
VISUALSTYLE
  5
31
102
{ACAD_REACTORS
330
2A
102
}
102
{ACAD_XDICTIONARY
360
D51
102
}
330
2A
100
AcDbVisualStyle
  2
3D Hidden
 70
     6
 71
     1
 72
     2
 73
     2
 90
        0
 40
-0.6
 41
-30.0
 62
     5
 63
     7
 74
     2
 91
        2
 64
     7
 65
   257
 75
     2
175
     1
 42
40.0
 92
        0
 66
   257
 43
1.0
 76
     1
 77
     6
 78
     2
 67
     7
 79
     3
170
     0
171
     0
290
     0
174
     0
 93
        1
 44
0.0
173
     0
291
     0
 45
0.0
1001
ACAD
1000
AcDbSavedByObjectVersion
1070
     0
  0
VISUALSTYLE
  5
30
102
{ACAD_REACTORS
330
2A
102
}
102
{ACAD_XDICTIONARY
360
D4F
102
}
330
2A
100
AcDbVisualStyle
  2
3dWireframe
 70
     5
 71
     0
 72
     2
 73
     0
 90
        0
 40
-0.6
 41
-30.0
 62
     5
 63
     7
 74
     1
 91
        4
 64
     7
 65
   257
 75
     1
175
     1
 42
1.0
 92
        0
 66
   257
 43
1.0
 76
     1
 77
     6
 78
     2
 67
     7
 79
     5
170
     0
171
     0
290
     0
174
     0
 93
        1
 44
0.0
173
     0
291
     0
 45
0.0
1001
ACAD
1000
AcDbSavedByObjectVersion
1070
     0
  0
VISUALSTYLE
  5
32
102
{ACAD_REACTORS
330
2A
102
}
102
{ACAD_XDICTIONARY
360
D53
102
}
330
2A
100
AcDbVisualStyle
  2
Basic
 70
     7
 71
     1
 72
     0
 73
     1
 90
        0
 40
-0.6
 41
-30.0
 62
     5
 63
     7
 74
     0
 91
        4
 64
     7
 65
   257
 75
     1
175
     1
 42
1.0
 92
        8
 66
     7
 43
1.0
 76
     1
 77
     6
 78
     2
 67
     7
 79
     5
170
     0
171
     0
290
     0
174
     0
 93
        1
 44
0.0
173
     0
291
     1
 45
0.0
1001
ACAD
1000
AcDbSavedByObjectVersion
1070
     0
  0
VISUALSTYLE
  5
36
102
{ACAD_REACTORS
330
2A
102
}
102
{ACAD_XDICTIONARY
360
D5B
102
}
330
2A
100
AcDbVisualStyle
  2
Brighten
 70
    12
 71
     2
 72
     2
 73
     0
 90
        0
 40
-0.6
 41
-30.0
 62
     5
 63
     7
 74
     1
 91
        4
 64
     7
 65
   257
 75
     1
175
     1
 42
1.0
 92
        8
 66
     7
 43
1.0
 76
     1
 77
     6
 78
     2
 67
     7
 79
     5
170
     0
171
     0
290
     0
174
     0
 93
        1
 44
50.0
173
     0
291
     1
 45
0.0
1001
ACAD
1000
AcDbSavedByObjectVersion
1070
     0
  0
VISUALSTYLE
  5
3A
102
{ACAD_REACTORS
330
2A
102
}
102
{ACAD_XDICTIONARY
360
D63
102
}
330
2A
100
AcDbVisualStyle
  2
ColorChange
 70
    16
 71
     2
 72
     2
 73
     3
 90
        0
 40
-0.6
 41
-30.0
 62
     5
 63
     8
 74
     1
 91
        4
 64
     7
 65
   257
 75
     1
175
     1
 42
1.0
 92
        8
 66
     8
 43
1.0
 76
     1
 77
     6
 78
     2
 67
     7
 79
     5
170
     0
171
     0
290
     0
174
     0
 93
        1
 44
0.0
173
     0
291
     1
 45
0.0
1001
ACAD
1000
AcDbSavedByObjectVersion
1070
     0
  0
VISUALSTYLE
  5
34
102
{ACAD_REACTORS
330
2A
102
}
102
{ACAD_XDICTIONARY
360
D57
102
}
330
2A
100
AcDbVisualStyle
  2
Conceptual
 70
     9
 71
     3
 72
     2
 73
     0
 90
        0
 40
-0.6
 41
-30.0
 62
     5
 63
     7
 74
     2
 91
        2
 64
     7
 65
   257
 75
     1
175
     1
 42
40.0
 92
        8
 66
     7
 43
1.0
 76
     1
 77
     6
 78
     2
 67
     7
 79
     3
170
     0
171
     0
290
     0
174
     0
 93
        1
 44
0.0
173
     0
291
     0
 45
0.0
1001
ACAD
1000
AcDbSavedByObjectVersion
1070
     0
  0
VISUALSTYLE
  5
35
102
{ACAD_REACTORS
330
2A
102
}
102
{ACAD_XDICTIONARY
360
D59
102
}
330
2A
100
AcDbVisualStyle
  2
Dim
 70
    11
 71
     2
 72
     2
 73
     0
 90
        0
 40
-0.6
 41
-30.0
 62
     5
 63
     7
 74
     1
 91
        4
 64
     7
 65
   257
 75
     1
175
     1
 42
1.0
 92
        8
 66
     7
 43
1.0
 76
     1
 77
     6
 78
     2
 67
     7
 79
     5
170
     0
171
     0
290
     0
174
     0
 93
        1
 44
-50.0
173
     0
291
     1
 45
0.0
1001
ACAD
1000
AcDbSavedByObjectVersion
1070
     0
  0
VISUALSTYLE
  5
39
102
{ACAD_REACTORS
330
2A
102
}
102
{ACAD_XDICTIONARY
360
D61
102
}
330
2A
100
AcDbVisualStyle
  2
Facepattern
 70
    15
 71
     2
 72
     2
 73
     0
 90
        0
 40
-0.6
 41
-30.0
 62
     5
 63
     7
 74
     1
 91
        4
 64
     7
 65
   257
 75
     1
175
     1
 42
1.0
 92
        8
 66
     7
 43
1.0
 76
     1
 77
     6
 78
     2
 67
     7
 79
     5
170
     0
171
     0
290
     0
174
     0
 93
        1
 44
0.0
173
     0
291
     1
 45
0.0
1001
ACAD
1000
AcDbSavedByObjectVersion
1070
     0
  0
VISUALSTYLE
  5
2B
102
{ACAD_REACTORS
330
2A
102
}
102
{ACAD_XDICTIONARY
360
D45
102
}
330
2A
100
AcDbVisualStyle
  2
Flat
 70
     0
 71
     2
 72
     1
 73
     1
 90
        2
 40
-0.6
 41
30.0
 62
     5
 63
     7
 74
     0
 91
        4
 64
     7
 65
   257
 75
     1
175
     1
 42
1.0
 92
        8
 66
     7
 43
1.0
 76
     1
 77
     6
 78
     2
 67
     7
 79
     5
170
     0
171
     0
290
     0
174
     0
 93
       13
 44
0.0
173
     0
291
     1
 45
0.0
1001
ACAD
1000
AcDbSavedByObjectVersion
1070
     0
  0
VISUALSTYLE
  5
2C
102
{ACAD_REACTORS
330
2A
102
}
102
{ACAD_XDICTIONARY
360
D47
102
}
330
2A
100
AcDbVisualStyle
  2
FlatWithEdges
 70
     1
 71
     2
 72
     1
 73
     1
 90
        2
 40
-0.6
 41
30.0
 62
     5
 63
     7
 74
     1
 91
        4
 64
     7
 65
   257
 75
     1
175
     1
 42
1.0
 92
        0
 66
   257
 43
1.0
 76
     1
 77
     6
 78
     2
 67
     7
 79
     5
170
     0
171
     0
290
     0
174
     0
 93
       13
 44
0.0
173
     0
291
     1
 45
0.0
1001
ACAD
1000
AcDbSavedByObjectVersion
1070
     0
  0
VISUALSTYLE
  5
2D
102
{ACAD_REACTORS
330
2A
102
}
102
{ACAD_XDICTIONARY
360
D49
102
}
330
2A
100
AcDbVisualStyle
  2
Gouraud
 70
     2
 71
     2
 72
     2
 73
     1
 90
        2
 40
-0.6
 41
30.0
 62
     5
 63
     7
 74
     0
 91
        4
 64
     7
 65
   257
 75
     1
175
     1
 42
1.0
 92
        0
 66
     7
 43
1.0
 76
     1
 77
     6
 78
     2
 67
     7
 79
     5
170
     0
171
     0
290
     0
174
     0
 93
       13
 44
0.0
173
     0
291
     1
 45
0.0
1001
ACAD
1000
AcDbSavedByObjectVersion
1070
     0
  0
VISUALSTYLE
  5
2E
102
{ACAD_REACTORS
330
2A
102
}
102
{ACAD_XDICTIONARY
360
D4B
102
}
330
2A
100
AcDbVisualStyle
  2
GouraudWithEdges
 70
     3
 71
     2
 72
     2
 73
     1
 90
        2
 40
-0.6
 41
30.0
 62
     5
 63
     7
 74
     1
 91
        4
 64
     7
 65
   257
 75
     1
175
     1
 42
1.0
 92
        0
 66
   257
 43
1.0
 76
     1
 77
     6
 78
     2
 67
     7
 79
     5
170
     0
171
     0
290
     0
174
     0
 93
       13
 44
0.0
173
     0
291
     1
 45
0.0
1001
ACAD
1000
AcDbSavedByObjectVersion
1070
     0
  0
VISUALSTYLE
  5
38
102
{ACAD_REACTORS
330
2A
102
}
102
{ACAD_XDICTIONARY
360
D5F
102
}
330
2A
100
AcDbVisualStyle
  2
Linepattern
 70
    14
 71
     2
 72
     2
 73
     0
 90
        0
 40
-0.6
 41
-30.0
 62
     5
 63
     7
 74
     1
 91
        4
 64
     7
 65
   257
 75
     7
175
     7
 42
1.0
 92
        8
 66
     7
 43
1.0
 76
     1
 77
     6
 78
     2
 67
     7
 79
     5
170
     0
171
     0
290
     0
174
     0
 93
        1
 44
0.0
173
     0
291
     1
 45
0.0
1001
ACAD
1000
AcDbSavedByObjectVersion
1070
     0
  0
VISUALSTYLE
  5
33
102
{ACAD_REACTORS
330
2A
102
}
102
{ACAD_XDICTIONARY
360
D55
102
}
330
2A
100
AcDbVisualStyle
  2
Realistic
 70
     8
 71
     2
 72
     2
 73
     0
 90
        0
 40
-0.6
 41
-30.0
 62
     5
 63
     7
 74
     1
 91
        0
 64
     7
 65
   257
 75
     1
175
     1
 42
1.0
 92
        8
 66
     8
 43
1.0
 76
     1
 77
     6
 78
     2
 67
     7
 79
     5
170
     0
171
     0
290
     0
174
     0
 93
       13
 44
0.0
173
     0
291
     0
 45
0.0
1001
ACAD
1000
AcDbSavedByObjectVersion
1070
     0
  0
VISUALSTYLE
  5
37
102
{ACAD_REACTORS
330
2A
102
}
102
{ACAD_XDICTIONARY
360
D5D
102
}
330
2A
100
AcDbVisualStyle
  2
Thicken
 70
    13
 71
     2
 72
     2
 73
     0
 90
        0
 40
-0.6
 41
-30.0
 62
     5
 63
     7
 74
     1
 91
        4
 64
     7
 65
   257
 75
     1
175
     1
 42
1.0
 92
       12
 66
     7
 43
1.0
 76
     1
 77
     6
 78
     2
 67
     7
 79
     5
170
     0
171
     0
290
     0
174
     0
 93
        1
 44
0.0
173
     0
291
     1
 45
0.0
1001
ACAD
1000
AcDbSavedByObjectVersion
1070
     0
  0
DICTIONARYVAR
  5
D42
102
{ACAD_REACTORS
330
D3D
102
}
330
D3D
100
DictionaryVariables
280
     0
  1
1:1
  0
DICTIONARYVAR
  5
D43
102
{ACAD_REACTORS
330
D3D
102
}
330
D3D
100
DictionaryVariables
280
     0
  1
2
  0
DICTIONARYVAR
  5
D44
102
{ACAD_REACTORS
330
D3D
102
}
330
D3D
100
DictionaryVariables
280
     0
  1
1
  0
DICTIONARYVAR
  5
D41
102
{ACAD_REACTORS
330
D3D
102
}
330
D3D
100
DictionaryVariables
280
     0
  1
80.000000
  0
DICTIONARYVAR
  5
D40
102
{ACAD_REACTORS
330
D3D
102
}
330
D3D
100
DictionaryVariables
280
     0
  1
5.000000
  0
DICTIONARY
  5
D67
330
3D
100
AcDbDictionary
280
     1
281
     1
  3
ACAD_XREC_ROUNDTRIP
360
D68
  0
DICTIONARY
  5
D65
330
3C
100
AcDbDictionary
280
     1
281
     1
  3
ACAD_XREC_ROUNDTRIP
360
D66
  0
DICTIONARY
  5
D69
330
3E
100
AcDbDictionary
280
     1
281
     1
  3
ACAD_XREC_ROUNDTRIP
360
D6A
  0
DICTIONARY
  5
D4D
330
2F
100
AcDbDictionary
280
     1
281
     1
  3
ACAD_XREC_ROUNDTRIP
360
D4E
  0
DICTIONARY
  5
D51
330
31
100
AcDbDictionary
280
     1
281
     1
  3
ACAD_XREC_ROUNDTRIP
360
D52
  0
DICTIONARY
  5
D4F
330
30
100
AcDbDictionary
280
     1
281
     1
  3
ACAD_XREC_ROUNDTRIP
360
D50
  0
DICTIONARY
  5
D53
330
32
100
AcDbDictionary
280
     1
281
     1
  3
ACAD_XREC_ROUNDTRIP
360
D54
  0
DICTIONARY
  5
D5B
330
36
100
AcDbDictionary
280
     1
281
     1
  3
ACAD_XREC_ROUNDTRIP
360
D5C
  0
DICTIONARY
  5
D63
330
3A
100
AcDbDictionary
280
     1
281
     1
  3
ACAD_XREC_ROUNDTRIP
360
D64
  0
DICTIONARY
  5
D57
330
34
100
AcDbDictionary
280
     1
281
     1
  3
ACAD_XREC_ROUNDTRIP
360
D58
  0
DICTIONARY
  5
D59
330
35
100
AcDbDictionary
280
     1
281
     1
  3
ACAD_XREC_ROUNDTRIP
360
D5A
  0
DICTIONARY
  5
D61
330
39
100
AcDbDictionary
280
     1
281
     1
  3
ACAD_XREC_ROUNDTRIP
360
D62
  0
DICTIONARY
  5
D45
330
2B
100
AcDbDictionary
280
     1
281
     1
  3
ACAD_XREC_ROUNDTRIP
360
D46
  0
DICTIONARY
  5
D47
330
2C
100
AcDbDictionary
280
     1
281
     1
  3
ACAD_XREC_ROUNDTRIP
360
D48
  0
DICTIONARY
  5
D49
330
2D
100
AcDbDictionary
280
     1
281
     1
  3
ACAD_XREC_ROUNDTRIP
360
D4A
  0
DICTIONARY
  5
D4B
330
2E
100
AcDbDictionary
280
     1
281
     1
  3
ACAD_XREC_ROUNDTRIP
360
D4C
  0
DICTIONARY
  5
D5F
330
38
100
AcDbDictionary
280
     1
281
     1
  3
ACAD_XREC_ROUNDTRIP
360
D60
  0
DICTIONARY
  5
D55
330
33
100
AcDbDictionary
280
     1
281
     1
  3
ACAD_XREC_ROUNDTRIP
360
D56
  0
DICTIONARY
  5
D5D
330
37
100
AcDbDictionary
280
     1
281
     1
  3
ACAD_XREC_ROUNDTRIP
360
D5E
  0
XRECORD
  5
D68
102
{ACAD_REACTORS
330
D67
102
}
330
D67
100
AcDbXrecord
280
     1
102
MATERIAL
148
0.0
149
0.0
149
0.0
 93
        0
 94
      127
282
     0
 72
     1
 77
     1
171
     1
175
     1
179
     1
273
     0
  0
XRECORD
  5
D66
102
{ACAD_REACTORS
330
D65
102
}
330
D65
100
AcDbXrecord
280
     1
102
MATERIAL
148
0.0
149
0.0
149
0.0
 93
        0
 94
      127
282
     0
 72
     1
 77
     1
171
     1
175
     1
179
     1
273
     0
  0
XRECORD
  5
D6A
102
{ACAD_REACTORS
330
D69
102
}
330
D69
100
AcDbXrecord
280
     1
102
MATERIAL
148
0.0
149
0.0
149
0.0
 93
        0
 94
      127
282
     0
 72
     1
 77
     1
171
     1
175
     1
179
     1
273
     0
  0
XRECORD
  5
D4E
102
{ACAD_REACTORS
330
D4D
102
}
330
D4D
100
AcDbXrecord
280
     1
102
RTVSPropertyOp0
 70
     1
102
RTVSPropertyOp1
 70
     1
102
RTVSPropertyOp2
 70
     1
102
RTVSPropertyOp3
 70
     1
102
RTVSPropertyOp4
 70
     1
102
RTVSPropertyOp5
 70
     1
102
RTVSPropertyOp6
 70
     1
102
RTVSPropertyOp7
 70
     1
102
RTVSPropertyOp8
 70
     1
102
RTVSPropertyOp9
 70
     1
102
RTVSPropertyOp10
 70
     1
102
RTVSPropertyOp11
 70
     1
102
RTVSPropertyOp12
 70
     1
102
RTVSPropertyOp13
 70
     1
102
RTVSPropertyOp14
 70
     1
102
RTVSPropertyOp15
 70
     1
102
RTVSPropertyOp16
 70
     1
102
RTVSPropertyOp17
 70
     1
102
RTVSPropertyOp18
 70
     1
102
RTVSPropertyOp19
 70
     1
102
RTVSPropertyOp20
 70
     1
102
RTVSPropertyOp21
 70
     1
102
RTVSPropertyOp22
 70
     1
102
RTVSPropertyOp23
 70
     1
102
RTVSPropertyOp24
 70
     1
102
RTVSPropertyOp25
 70
     1
102
RTVSPropertyOp26
 70
     1
102
RTVSPropertyOp27
 70
     1
  0
XRECORD
  5
D52
102
{ACAD_REACTORS
330
D51
102
}
330
D51
100
AcDbXrecord
280
     1
102
RTVSPropertyOp0
 70
     1
102
RTVSPropertyOp1
 70
     1
102
RTVSPropertyOp2
 70
     1
102
RTVSPropertyOp3
 70
     1
102
RTVSPropertyOp4
 70
     1
102
RTVSPropertyOp5
 70
     1
102
RTVSPropertyOp6
 70
     1
102
RTVSPropertyOp7
 70
     1
102
RTVSPropertyOp8
 70
     1
102
RTVSPropertyOp9
 70
     1
102
RTVSPropertyOp10
 70
     1
102
RTVSPropertyOp11
 70
     1
102
RTVSPropertyOp12
 70
     1
102
RTVSPropertyOp13
 70
     1
102
RTVSPropertyOp14
 70
     1
102
RTVSPropertyOp15
 70
     1
102
RTVSPropertyOp16
 70
     1
102
RTVSPropertyOp17
 70
     1
102
RTVSPropertyOp18
 70
     1
102
RTVSPropertyOp19
 70
     1
102
RTVSPropertyOp20
 70
     1
102
RTVSPropertyOp21
 70
     1
102
RTVSPropertyOp22
 70
     1
102
RTVSPropertyOp23
 70
     1
102
RTVSPropertyOp24
 70
     1
102
RTVSPropertyOp25
 70
     1
102
RTVSPropertyOp26
 70
     1
102
RTVSPropertyOp27
 70
     1
  0
XRECORD
  5
D50
102
{ACAD_REACTORS
330
D4F
102
}
330
D4F
100
AcDbXrecord
280
     1
102
RTVSPropertyOp0
 70
     1
102
RTVSPropertyOp1
 70
     1
102
RTVSPropertyOp2
 70
     1
102
RTVSPropertyOp3
 70
     1
102
RTVSPropertyOp4
 70
     1
102
RTVSPropertyOp5
 70
     1
102
RTVSPropertyOp6
 70
     1
102
RTVSPropertyOp7
 70
     1
102
RTVSPropertyOp8
 70
     1
102
RTVSPropertyOp9
 70
     1
102
RTVSPropertyOp10
 70
     1
102
RTVSPropertyOp11
 70
     1
102
RTVSPropertyOp12
 70
     1
102
RTVSPropertyOp13
 70
     1
102
RTVSPropertyOp14
 70
     1
102
RTVSPropertyOp15
 70
     1
102
RTVSPropertyOp16
 70
     1
102
RTVSPropertyOp17
 70
     1
102
RTVSPropertyOp18
 70
     1
102
RTVSPropertyOp19
 70
     1
102
RTVSPropertyOp20
 70
     1
102
RTVSPropertyOp21
 70
     1
102
RTVSPropertyOp22
 70
     1
102
RTVSPropertyOp23
 70
     1
102
RTVSPropertyOp24
 70
     1
102
RTVSPropertyOp25
 70
     1
102
RTVSPropertyOp26
 70
     1
102
RTVSPropertyOp27
 70
     1
  0
XRECORD
  5
D54
102
{ACAD_REACTORS
330
D53
102
}
330
D53
100
AcDbXrecord
280
     1
102
RTVSPropertyOp0
 70
     1
102
RTVSPropertyOp1
 70
     1
102
RTVSPropertyOp2
 70
     1
102
RTVSPropertyOp3
 70
     1
102
RTVSPropertyOp4
 70
     1
102
RTVSPropertyOp5
 70
     1
102
RTVSPropertyOp6
 70
     1
102
RTVSPropertyOp7
 70
     1
102
RTVSPropertyOp8
 70
     1
102
RTVSPropertyOp9
 70
     1
102
RTVSPropertyOp10
 70
     1
102
RTVSPropertyOp11
 70
     1
102
RTVSPropertyOp12
 70
     1
102
RTVSPropertyOp13
 70
     1
102
RTVSPropertyOp14
 70
     1
102
RTVSPropertyOp15
 70
     1
102
RTVSPropertyOp16
 70
     1
102
RTVSPropertyOp17
 70
     1
102
RTVSPropertyOp18
 70
     1
102
RTVSPropertyOp19
 70
     1
102
RTVSPropertyOp20
 70
     1
102
RTVSPropertyOp21
 70
     1
102
RTVSPropertyOp22
 70
     1
102
RTVSPropertyOp23
 70
     1
102
RTVSPropertyOp24
 70
     1
102
RTVSPropertyOp25
 70
     1
102
RTVSPropertyOp26
 70
     1
102
RTVSPropertyOp27
 70
     1
  0
XRECORD
  5
D5C
102
{ACAD_REACTORS
330
D5B
102
}
330
D5B
100
AcDbXrecord
280
     1
102
RTVSPropertyOp0
 70
     1
102
RTVSPropertyOp1
 70
     1
102
RTVSPropertyOp2
 70
     1
102
RTVSPropertyOp3
 70
     1
102
RTVSPropertyOp4
 70
     1
102
RTVSPropertyOp5
 70
     1
102
RTVSPropertyOp6
 70
     1
102
RTVSPropertyOp7
 70
     1
102
RTVSPropertyOp8
 70
     1
102
RTVSPropertyOp9
 70
     1
102
RTVSPropertyOp10
 70
     1
102
RTVSPropertyOp11
 70
     1
102
RTVSPropertyOp12
 70
     1
102
RTVSPropertyOp13
 70
     1
102
RTVSPropertyOp14
 70
     1
102
RTVSPropertyOp15
 70
     1
102
RTVSPropertyOp16
 70
     1
102
RTVSPropertyOp17
 70
     1
102
RTVSPropertyOp18
 70
     1
102
RTVSPropertyOp19
 70
     1
102
RTVSPropertyOp20
 70
     1
102
RTVSPropertyOp21
 70
     1
102
RTVSPropertyOp22
 70
     1
102
RTVSPropertyOp23
 70
     1
102
RTVSPropertyOp24
 70
     1
102
RTVSPropertyOp25
 70
     1
102
RTVSPropertyOp26
 70
     1
102
RTVSPropertyOp27
 70
     1
  0
XRECORD
  5
D64
102
{ACAD_REACTORS
330
D63
102
}
330
D63
100
AcDbXrecord
280
     1
102
RTVSPropertyOp0
 70
     1
102
RTVSPropertyOp1
 70
     1
102
RTVSPropertyOp2
 70
     1
102
RTVSPropertyOp3
 70
     1
102
RTVSPropertyOp4
 70
     1
102
RTVSPropertyOp5
 70
     1
102
RTVSPropertyOp6
 70
     1
102
RTVSPropertyOp7
 70
     1
102
RTVSPropertyOp8
 70
     1
102
RTVSPropertyOp9
 70
     1
102
RTVSPropertyOp10
 70
     1
102
RTVSPropertyOp11
 70
     1
102
RTVSPropertyOp12
 70
     1
102
RTVSPropertyOp13
 70
     1
102
RTVSPropertyOp14
 70
     1
102
RTVSPropertyOp15
 70
     1
102
RTVSPropertyOp16
 70
     1
102
RTVSPropertyOp17
 70
     1
102
RTVSPropertyOp18
 70
     1
102
RTVSPropertyOp19
 70
     1
102
RTVSPropertyOp20
 70
     1
102
RTVSPropertyOp21
 70
     1
102
RTVSPropertyOp22
 70
     1
102
RTVSPropertyOp23
 70
     1
102
RTVSPropertyOp24
 70
     1
102
RTVSPropertyOp25
 70
     1
102
RTVSPropertyOp26
 70
     1
102
RTVSPropertyOp27
 70
     1
  0
XRECORD
  5
D58
102
{ACAD_REACTORS
330
D57
102
}
330
D57
100
AcDbXrecord
280
     1
102
RTVSPropertyOp0
 70
     1
102
RTVSPropertyOp1
 70
     1
102
RTVSPropertyOp2
 70
     1
102
RTVSPropertyOp3
 70
     1
102
RTVSPropertyOp4
 70
     1
102
RTVSPropertyOp5
 70
     1
102
RTVSPropertyOp6
 70
     1
102
RTVSPropertyOp7
 70
     1
102
RTVSPropertyOp8
 70
     1
102
RTVSPropertyOp9
 70
     1
102
RTVSPropertyOp10
 70
     1
102
RTVSPropertyOp11
 70
     1
102
RTVSPropertyOp12
 70
     1
102
RTVSPropertyOp13
 70
     1
102
RTVSPropertyOp14
 70
     1
102
RTVSPropertyOp15
 70
     1
102
RTVSPropertyOp16
 70
     1
102
RTVSPropertyOp17
 70
     1
102
RTVSPropertyOp18
 70
     1
102
RTVSPropertyOp19
 70
     1
102
RTVSPropertyOp20
 70
     1
102
RTVSPropertyOp21
 70
     1
102
RTVSPropertyOp22
 70
     1
102
RTVSPropertyOp23
 70
     1
102
RTVSPropertyOp24
 70
     1
102
RTVSPropertyOp25
 70
     1
102
RTVSPropertyOp26
 70
     1
102
RTVSPropertyOp27
 70
     1
  0
XRECORD
  5
D5A
102
{ACAD_REACTORS
330
D59
102
}
330
D59
100
AcDbXrecord
280
     1
102
RTVSPropertyOp0
 70
     1
102
RTVSPropertyOp1
 70
     1
102
RTVSPropertyOp2
 70
     1
102
RTVSPropertyOp3
 70
     1
102
RTVSPropertyOp4
 70
     1
102
RTVSPropertyOp5
 70
     1
102
RTVSPropertyOp6
 70
     1
102
RTVSPropertyOp7
 70
     1
102
RTVSPropertyOp8
 70
     1
102
RTVSPropertyOp9
 70
     1
102
RTVSPropertyOp10
 70
     1
102
RTVSPropertyOp11
 70
     1
102
RTVSPropertyOp12
 70
     1
102
RTVSPropertyOp13
 70
     1
102
RTVSPropertyOp14
 70
     1
102
RTVSPropertyOp15
 70
     1
102
RTVSPropertyOp16
 70
     1
102
RTVSPropertyOp17
 70
     1
102
RTVSPropertyOp18
 70
     1
102
RTVSPropertyOp19
 70
     1
102
RTVSPropertyOp20
 70
     1
102
RTVSPropertyOp21
 70
     1
102
RTVSPropertyOp22
 70
     1
102
RTVSPropertyOp23
 70
     1
102
RTVSPropertyOp24
 70
     1
102
RTVSPropertyOp25
 70
     1
102
RTVSPropertyOp26
 70
     1
102
RTVSPropertyOp27
 70
     1
  0
XRECORD
  5
D62
102
{ACAD_REACTORS
330
D61
102
}
330
D61
100
AcDbXrecord
280
     1
102
RTVSPropertyOp0
 70
     1
102
RTVSPropertyOp1
 70
     1
102
RTVSPropertyOp2
 70
     1
102
RTVSPropertyOp3
 70
     1
102
RTVSPropertyOp4
 70
     1
102
RTVSPropertyOp5
 70
     1
102
RTVSPropertyOp6
 70
     1
102
RTVSPropertyOp7
 70
     1
102
RTVSPropertyOp8
 70
     1
102
RTVSPropertyOp9
 70
     1
102
RTVSPropertyOp10
 70
     1
102
RTVSPropertyOp11
 70
     1
102
RTVSPropertyOp12
 70
     1
102
RTVSPropertyOp13
 70
     1
102
RTVSPropertyOp14
 70
     1
102
RTVSPropertyOp15
 70
     1
102
RTVSPropertyOp16
 70
     1
102
RTVSPropertyOp17
 70
     1
102
RTVSPropertyOp18
 70
     1
102
RTVSPropertyOp19
 70
     1
102
RTVSPropertyOp20
 70
     1
102
RTVSPropertyOp21
 70
     1
102
RTVSPropertyOp22
 70
     1
102
RTVSPropertyOp23
 70
     1
102
RTVSPropertyOp24
 70
     1
102
RTVSPropertyOp25
 70
     1
102
RTVSPropertyOp26
 70
     1
102
RTVSPropertyOp27
 70
     1
  0
XRECORD
  5
D46
102
{ACAD_REACTORS
330
D45
102
}
330
D45
100
AcDbXrecord
280
     1
102
RTVSPropertyOp0
 70
     1
102
RTVSPropertyOp1
 70
     1
102
RTVSPropertyOp2
 70
     1
102
RTVSPropertyOp3
 70
     1
102
RTVSPropertyOp4
 70
     1
102
RTVSPropertyOp5
 70
     1
102
RTVSPropertyOp6
 70
     1
102
RTVSPropertyOp7
 70
     1
102
RTVSPropertyOp8
 70
     1
102
RTVSPropertyOp9
 70
     1
102
RTVSPropertyOp10
 70
     1
102
RTVSPropertyOp11
 70
     1
102
RTVSPropertyOp12
 70
     1
102
RTVSPropertyOp13
 70
     1
102
RTVSPropertyOp14
 70
     1
102
RTVSPropertyOp15
 70
     1
102
RTVSPropertyOp16
 70
     1
102
RTVSPropertyOp17
 70
     1
102
RTVSPropertyOp18
 70
     1
102
RTVSPropertyOp19
 70
     1
102
RTVSPropertyOp20
 70
     1
102
RTVSPropertyOp21
 70
     1
102
RTVSPropertyOp22
 70
     1
102
RTVSPropertyOp23
 70
     1
102
RTVSPropertyOp24
 70
     1
102
RTVSPropertyOp25
 70
     1
102
RTVSPropertyOp26
 70
     1
102
RTVSPropertyOp27
 70
     1
  0
XRECORD
  5
D48
102
{ACAD_REACTORS
330
D47
102
}
330
D47
100
AcDbXrecord
280
     1
102
RTVSPropertyOp0
 70
     1
102
RTVSPropertyOp1
 70
     1
102
RTVSPropertyOp2
 70
     1
102
RTVSPropertyOp3
 70
     1
102
RTVSPropertyOp4
 70
     1
102
RTVSPropertyOp5
 70
     1
102
RTVSPropertyOp6
 70
     1
102
RTVSPropertyOp7
 70
     1
102
RTVSPropertyOp8
 70
     1
102
RTVSPropertyOp9
 70
     1
102
RTVSPropertyOp10
 70
     1
102
RTVSPropertyOp11
 70
     1
102
RTVSPropertyOp12
 70
     1
102
RTVSPropertyOp13
 70
     1
102
RTVSPropertyOp14
 70
     1
102
RTVSPropertyOp15
 70
     1
102
RTVSPropertyOp16
 70
     1
102
RTVSPropertyOp17
 70
     1
102
RTVSPropertyOp18
 70
     1
102
RTVSPropertyOp19
 70
     1
102
RTVSPropertyOp20
 70
     1
102
RTVSPropertyOp21
 70
     1
102
RTVSPropertyOp22
 70
     1
102
RTVSPropertyOp23
 70
     1
102
RTVSPropertyOp24
 70
     1
102
RTVSPropertyOp25
 70
     1
102
RTVSPropertyOp26
 70
     1
102
RTVSPropertyOp27
 70
     1
  0
XRECORD
  5
D4A
102
{ACAD_REACTORS
330
D49
102
}
330
D49
100
AcDbXrecord
280
     1
102
RTVSPropertyOp0
 70
     1
102
RTVSPropertyOp1
 70
     1
102
RTVSPropertyOp2
 70
     1
102
RTVSPropertyOp3
 70
     1
102
RTVSPropertyOp4
 70
     1
102
RTVSPropertyOp5
 70
     1
102
RTVSPropertyOp6
 70
     1
102
RTVSPropertyOp7
 70
     1
102
RTVSPropertyOp8
 70
     1
102
RTVSPropertyOp9
 70
     1
102
RTVSPropertyOp10
 70
     1
102
RTVSPropertyOp11
 70
     1
102
RTVSPropertyOp12
 70
     1
102
RTVSPropertyOp13
 70
     1
102
RTVSPropertyOp14
 70
     1
102
RTVSPropertyOp15
 70
     1
102
RTVSPropertyOp16
 70
     1
102
RTVSPropertyOp17
 70
     1
102
RTVSPropertyOp18
 70
     1
102
RTVSPropertyOp19
 70
     1
102
RTVSPropertyOp20
 70
     1
102
RTVSPropertyOp21
 70
     1
102
RTVSPropertyOp22
 70
     1
102
RTVSPropertyOp23
 70
     1
102
RTVSPropertyOp24
 70
     1
102
RTVSPropertyOp25
 70
     1
102
RTVSPropertyOp26
 70
     1
102
RTVSPropertyOp27
 70
     1
  0
XRECORD
  5
D4C
102
{ACAD_REACTORS
330
D4B
102
}
330
D4B
100
AcDbXrecord
280
     1
102
RTVSPropertyOp0
 70
     1
102
RTVSPropertyOp1
 70
     1
102
RTVSPropertyOp2
 70
     1
102
RTVSPropertyOp3
 70
     1
102
RTVSPropertyOp4
 70
     1
102
RTVSPropertyOp5
 70
     1
102
RTVSPropertyOp6
 70
     1
102
RTVSPropertyOp7
 70
     1
102
RTVSPropertyOp8
 70
     1
102
RTVSPropertyOp9
 70
     1
102
RTVSPropertyOp10
 70
     1
102
RTVSPropertyOp11
 70
     1
102
RTVSPropertyOp12
 70
     1
102
RTVSPropertyOp13
 70
     1
102
RTVSPropertyOp14
 70
     1
102
RTVSPropertyOp15
 70
     1
102
RTVSPropertyOp16
 70
     1
102
RTVSPropertyOp17
 70
     1
102
RTVSPropertyOp18
 70
     1
102
RTVSPropertyOp19
 70
     1
102
RTVSPropertyOp20
 70
     1
102
RTVSPropertyOp21
 70
     1
102
RTVSPropertyOp22
 70
     1
102
RTVSPropertyOp23
 70
     1
102
RTVSPropertyOp24
 70
     1
102
RTVSPropertyOp25
 70
     1
102
RTVSPropertyOp26
 70
     1
102
RTVSPropertyOp27
 70
     1
  0
XRECORD
  5
D60
102
{ACAD_REACTORS
330
D5F
102
}
330
D5F
100
AcDbXrecord
280
     1
102
RTVSPropertyOp0
 70
     1
102
RTVSPropertyOp1
 70
     1
102
RTVSPropertyOp2
 70
     1
102
RTVSPropertyOp3
 70
     1
102
RTVSPropertyOp4
 70
     1
102
RTVSPropertyOp5
 70
     1
102
RTVSPropertyOp6
 70
     1
102
RTVSPropertyOp7
 70
     1
102
RTVSPropertyOp8
 70
     1
102
RTVSPropertyOp9
 70
     1
102
RTVSPropertyOp10
 70
     1
102
RTVSPropertyOp11
 70
     1
102
RTVSPropertyOp12
 70
     1
102
RTVSPropertyOp13
 70
     1
102
RTVSPropertyOp14
 70
     1
102
RTVSPropertyOp15
 70
     1
102
RTVSPropertyOp16
 70
     1
102
RTVSPropertyOp17
 70
     1
102
RTVSPropertyOp18
 70
     1
102
RTVSPropertyOp19
 70
     1
102
RTVSPropertyOp20
 70
     1
102
RTVSPropertyOp21
 70
     1
102
RTVSPropertyOp22
 70
     1
102
RTVSPropertyOp23
 70
     1
102
RTVSPropertyOp24
 70
     1
102
RTVSPropertyOp25
 70
     1
102
RTVSPropertyOp26
 70
     1
102
RTVSPropertyOp27
 70
     1
  0
XRECORD
  5
D56
102
{ACAD_REACTORS
330
D55
102
}
330
D55
100
AcDbXrecord
280
     1
102
RTVSPropertyOp0
 70
     1
102
RTVSPropertyOp1
 70
     1
102
RTVSPropertyOp2
 70
     1
102
RTVSPropertyOp3
 70
     1
102
RTVSPropertyOp4
 70
     1
102
RTVSPropertyOp5
 70
     1
102
RTVSPropertyOp6
 70
     1
102
RTVSPropertyOp7
 70
     1
102
RTVSPropertyOp8
 70
     1
102
RTVSPropertyOp9
 70
     1
102
RTVSPropertyOp10
 70
     1
102
RTVSPropertyOp11
 70
     1
102
RTVSPropertyOp12
 70
     1
102
RTVSPropertyOp13
 70
     1
102
RTVSPropertyOp14
 70
     1
102
RTVSPropertyOp15
 70
     1
102
RTVSPropertyOp16
 70
     1
102
RTVSPropertyOp17
 70
     1
102
RTVSPropertyOp18
 70
     1
102
RTVSPropertyOp19
 70
     1
102
RTVSPropertyOp20
 70
     1
102
RTVSPropertyOp21
 70
     1
102
RTVSPropertyOp22
 70
     1
102
RTVSPropertyOp23
 70
     1
102
RTVSPropertyOp24
 70
     1
102
RTVSPropertyOp25
 70
     1
102
RTVSPropertyOp26
 70
     1
102
RTVSPropertyOp27
 70
     1
  0
XRECORD
  5
D5E
102
{ACAD_REACTORS
330
D5D
102
}
330
D5D
100
AcDbXrecord
280
     1
102
RTVSPropertyOp0
 70
     1
102
RTVSPropertyOp1
 70
     1
102
RTVSPropertyOp2
 70
     1
102
RTVSPropertyOp3
 70
     1
102
RTVSPropertyOp4
 70
     1
102
RTVSPropertyOp5
 70
     1
102
RTVSPropertyOp6
 70
     1
102
RTVSPropertyOp7
 70
     1
102
RTVSPropertyOp8
 70
     1
102
RTVSPropertyOp9
 70
     1
102
RTVSPropertyOp10
 70
     1
102
RTVSPropertyOp11
 70
     1
102
RTVSPropertyOp12
 70
     1
102
RTVSPropertyOp13
 70
     1
102
RTVSPropertyOp14
 70
     1
102
RTVSPropertyOp15
 70
     1
102
RTVSPropertyOp16
 70
     1
102
RTVSPropertyOp17
 70
     1
102
RTVSPropertyOp18
 70
     1
102
RTVSPropertyOp19
 70
     1
102
RTVSPropertyOp20
 70
     1
102
RTVSPropertyOp21
 70
     1
102
RTVSPropertyOp22
 70
     1
102
RTVSPropertyOp23
 70
     1
102
RTVSPropertyOp24
 70
     1
102
RTVSPropertyOp25
 70
     1
102
RTVSPropertyOp26
 70
     1
102
RTVSPropertyOp27
 70
     1
  0
ENDSEC
  0
EOF
