  0
SECTION
  2
HEADER
  9
$ACADVER
  1
AC1015
  9
$ACADMAINTVER
 70
     6
  9
$DWGCODEPAGE
  3
ANSI_1252
  9
$INSBASE
 10
0.0
 20
0.0
 30
0.0
  9
$EXTMIN
 10
0.0
 20
0.0
 30
0.0
  9
$EXTMAX
 10
25.0
 20
35.0
 30
0.0
  9
$LIMMIN
 10
0.0
 20
0.0
  9
$LIMMAX
 10
420.0
 20
297.0
  9
$ORTHOMODE
 70
     0
  9
$REGENMODE
 70
     1
  9
$FILLMODE
 70
     1
  9
$QTEXTMODE
 70
     0
  9
$MIRRTEXT
 70
     1
  9
$LTSCALE
 40
4.2
  9
$ATTMODE
 70
     1
  9
$TEXTSIZE
 40
2.5
  9
$TRACEWID
 40
1.0
  9
$TEXTSTYLE
  7
Standard
  9
$CLAYER
  8
0
  9
$CELTYPE
  6
ByLayer
  9
$CECOLOR
 62
   256
  9
$CELTSCALE
 40
1.0
  9
$DISPSILH
 70
     0
  9
$DIMSCALE
 40
1.0
  9
$DIMASZ
 40
2.5
  9
$DIMEXO
 40
0.625
  9
$DIMDLI
 40
3.75
  9
$DIMRND
 40
0.0
  9
$DIMDLE
 40
0.0
  9
$DIMEXE
 40
1.25
  9
$DIMTP
 40
0.0
  9
$DIMTM
 40
0.0
  9
$DIMTXT
 40
2.5
  9
$DIMCEN
 40
2.5
  9
$DIMTSZ
 40
0.0
  9
$DIMTOL
 70
     0
  9
$DIMLIM
 70
     0
  9
$DIMTIH
 70
     0
  9
$DIMTOH
 70
     0
  9
$DIMSE1
 70
     0
  9
$DIMSE2
 70
     0
  9
$DIMTAD
 70
     1
  9
$DIMZIN
 70
     8
  9
$DIMBLK
  1

  9
$DIMASO
 70
     1
  9
$DIMSHO
 70
     1
  9
$DIMPOST
  1

  9
$DIMAPOST
  1

  9
$DIMALT
 70
     0
  9
$DIMALTD
 70
     3
  9
$DIMALTF
 40
0.03937007874016
  9
$DIMLFAC
 40
1.0
  9
$DIMTOFL
 70
     1
  9
$DIMTVP
 40
0.0
  9
$DIMTIX
 70
     0
  9
$DIMSOXD
 70
     0
  9
$DIMSAH
 70
     0
  9
$DIMBLK1
  1

  9
$DIMBLK2
  1

  9
$DIMSTYLE
  2
ISO-25
  9
$DIMCLRD
 70
     0
  9
$DIMCLRE
 70
     0
  9
$DIMCLRT
 70
     0
  9
$DIMTFAC
 40
1.0
  9
$DIMGAP
 40
0.625
  9
$DIMJUST
 70
     0
  9
$DIMSD1
 70
     0
  9
$DIMSD2
 70
     0
  9
$DIMTOLJ
 70
     0
  9
$DIMTZIN
 70
     8
  9
$DIMALTZ
 70
     0
  9
$DIMALTTZ
 70
     0
  9
$DIMUPT
 70
     0
  9
$DIMDEC
 70
     2
  9
$DIMTDEC
 70
     2
  9
$DIMALTU
 70
     2
  9
$DIMALTTD
 70
     3
  9
$DIMTXSTY
  7
Standard
  9
$DIMAUNIT
 70
     0
  9
$DIMADEC
 70
     0
  9
$DIMALTRND
 40
0.0
  9
$DIMAZIN
 70
     0
  9
$DIMDSEP
 70
    44
  9
$DIMATFIT
 70
     3
  9
$DIMFRAC
 70
     0
  9
$DIMLDRBLK
  1

  9
$DIMLUNIT
 70
     2
  9
$DIMLWD
 70
    -2
  9
$DIMLWE
 70
    -2
  9
$DIMTMOVE
 70
     0
  9
$LUNITS
 70
     2
  9
$LUPREC
 70
     4
  9
$SKETCHINC
 40
1.0
  9
$FILLETRAD
 40
10.0
  9
$AUNITS
 70
     0
  9
$AUPREC
 70
     0
  9
$MENU
  1
.
  9
$ELEVATION
 40
0.0
  9
$PELEVATION
 40
0.0
  9
$THICKNESS
 40
0.0
  9
$LIMCHECK
 70
     0
  9
$CHAMFERA
 40
10.0
  9
$CHAMFERB
 40
10.0
  9
$CHAMFERC
 40
20.0
  9
$CHAMFERD
 40
0.0
  9
$SKPOLY
 70
     0
  9
$TDCREATE
 40
2458577.652777778
  9
$TDUCREATE
 40
2458577.569444444
  9
$TDUPDATE
 40
2458577.65625
  9
$TDUUPDATE
 40
2458577.572916667
  9
$TDINDWG
 40
0.0000000116
  9
$TDUSRTIMER
 40
0.0000000116
  9
$USRTIMER
 70
     1
  9
$ANGBASE
 50
0.0
  9
$ANGDIR
 70
     0
  9
$PDMODE
 70
     0
  9
$PDSIZE
 40
0.0
  9
$PLINEWID
 40
0.0
  9
$SPLFRAME
 70
     0
  9
$SPLINETYPE
 70
     6
  9
$SPLINESEGS
 70
     8
  9
$HANDSEED
  5
B1B
  9
$SURFTAB1
 70
     6
  9
$SURFTAB2
 70
     6
  9
$SURFTYPE
 70
     6
  9
$SURFU
 70
     6
  9
$SURFV
 70
     6
  9
$UCSBASE
  2

  9
$UCSNAME
  2

  9
$UCSORG
 10
0.0
 20
0.0
 30
0.0
  9
$UCSXDIR
 10
1.0
 20
0.0
 30
0.0
  9
$UCSYDIR
 10
0.0
 20
1.0
 30
0.0
  9
$UCSORTHOREF
  2

  9
$UCSORTHOVIEW
 70
     0
  9
$UCSORGTOP
 10
0.0
 20
0.0
 30
0.0
  9
$UCSORGBOTTOM
 10
0.0
 20
0.0
 30
0.0
  9
$UCSORGLEFT
 10
0.0
 20
0.0
 30
0.0
  9
$UCSORGRIGHT
 10
0.0
 20
0.0
 30
0.0
  9
$UCSORGFRONT
 10
0.0
 20
0.0
 30
0.0
  9
$UCSORGBACK
 10
0.0
 20
0.0
 30
0.0
  9
$PUCSBASE
  2

  9
$PUCSNAME
  2

  9
$PUCSORG
 10
0.0
 20
0.0
 30
0.0
  9
$PUCSXDIR
 10
1.0
 20
0.0
 30
0.0
  9
$PUCSYDIR
 10
0.0
 20
1.0
 30
0.0
  9
$PUCSORTHOREF
  2

  9
$PUCSORTHOVIEW
 70
     0
  9
$PUCSORGTOP
 10
0.0
 20
0.0
 30
0.0
  9
$PUCSORGBOTTOM
 10
0.0
 20
0.0
 30
0.0
  9
$PUCSORGLEFT
 10
0.0
 20
0.0
 30
0.0
  9
$PUCSORGRIGHT
 10
0.0
 20
0.0
 30
0.0
  9
$PUCSORGFRONT
 10
0.0
 20
0.0
 30
0.0
  9
$PUCSORGBACK
 10
0.0
 20
0.0
 30
0.0
  9
$USERI1
 70
     0
  9
$USERI2
 70
     0
  9
$USERI3
 70
     0
  9
$USERI4
 70
     0
  9
$USERI5
 70
     0
  9
$USERR1
 40
0.0
  9
$USERR2
 40
0.0
  9
$USERR3
 40
0.0
  9
$USERR4
 40
0.0
  9
$USERR5
 40
0.0
  9
$WORLDVIEW
 70
     1
  9
$SHADEDGE
 70
     3
  9
$SHADEDIF
 70
    70
  9
$TILEMODE
 70
     1
  9
$MAXACTVP
 70
    64
  9
$PINSBASE
 10
0.0
 20
0.0
 30
0.0
  9
$PLIMCHECK
 70
     0
  9
$PEXTMIN
 10
1.000000000000000E+20
 20
1.000000000000000E+20
 30
1.000000000000000E+20
  9
$PEXTMAX
 10
-1.000000000000000E+20
 20
-1.000000000000000E+20
 30
-1.000000000000000E+20
  9
$PLIMMIN
 10
0.0
 20
0.0
  9
$PLIMMAX
 10
420.0
 20
297.0
  9
$UNITMODE
 70
     0
  9
$VISRETAIN
 70
     1
  9
$PLINEGEN
 70
     0
  9
$PSLTSCALE
 70
     1
  9
$TREEDEPTH
 70
  3020
  9
$CMLSTYLE
  2
Standard
  9
$CMLJUST
 70
     0
  9
$CMLSCALE
 40
20.0
  9
$PROXYGRAPHICS
 70
     1
  9
$MEASUREMENT
 70
     1
  9
$CELWEIGHT
370
    -1
  9
$ENDCAPS
280
     0
  9
$JOINSTYLE
280
     0
  9
$LWDISPLAY
290
     0
  9
$INSUNITS
 70
     4
  9
$HYPERLINKBASE
  1

  9
$STYLESHEET
  1

  9
$XEDIT
290
     1
  9
$CEPSNTYPE
380
     0
  9
$PSTYLEMODE
290
     1
  9
$FINGERPRINTGUID
  2
{550476B6-90EA-4D6A-807E-8C9202487075}
  9
$VERSIONGUID
  2
{FAEB1C32-E019-11D5-929B-00C0DF256EC4}
  9
$EXTNAMES
290
     1
  9
$PSVPSCALE
 40
0.0
  9
$OLESTARTUP
290
     0
  0
ENDSEC
  0
SECTION
  2
CLASSES
  0
CLASS
  1
ACDBDICTIONARYWDFLT
  2
AcDbDictionaryWithDefault
  3
ObjectDBX Classes
 90
        0
280
     0
281
     0
  0
CLASS
  1
VISUALSTYLE
  2
AcDbVisualStyle
  3
ObjectDBX Classes
 90
     4095
280
     0
281
     0
  0
CLASS
  1
MATERIAL
  2
AcDbMaterial
  3
ObjectDBX Classes
 90
     1153
280
     0
281
     0
  0
CLASS
  1
SCALE
  2
AcDbScale
  3
ObjectDBX Classes
 90
     1153
280
     0
281
     0
  0
CLASS
  1
DICTIONARYVAR
  2
AcDbDictionaryVar
  3
ObjectDBX Classes
 90
        0
280
     0
281
     0
  0
CLASS
  1
ACDBPLACEHOLDER
  2
AcDbPlaceHolder
  3
ObjectDBX Classes
 90
        0
280
     0
281
     0
  0
CLASS
  1
LAYOUT
  2
AcDbLayout
  3
ObjectDBX Classes
 90
        0
280
     0
281
     0
  0
ENDSEC
  0
SECTION
  2
TABLES
  0
TABLE
  2
VPORT
  5
8
330
0
100
AcDbSymbolTable
 70
     1
  0
VPORT
  5
29
330
8
100
AcDbSymbolTableRecord
100
AcDbViewportTableRecord
  2
*Active
 70
     0
 10
0.0
 20
0.0
 11
1.0
 21
1.0
 12
11.26
 22
4.5
 13
0.0
 23
0.0
 14
10.0
 24
10.0
 15
10.0
 25
10.0
 16
0.0
 26
0.0
 36
1.0
 17
0.0
 27
0.0
 37
0.0
 40
9.0
 41
2.503333333333333
 42
50.0
 43
0.0
 44
0.0
 50
0.0
 51
0.0
 71
     0
 72
   100
 73
     1
 74
     3
 75
     0
 76
     0
 77
     0
 78
     0
281
     0
 65
     1
110
0.0
120
0.0
130
0.0
111
1.0
121
0.0
131
0.0
112
0.0
122
1.0
132
0.0
 79
     0
146
0.0
  0
ENDTAB
  0
TABLE
  2
LTYPE
  5
5
330
0
100
AcDbSymbolTable
 70
    10
  0
LTYPE
  5
14
330
5
100
AcDbSymbolTableRecord
100
AcDbLinetypeTableRecord
  2
ByBlock
 70
     0
  3

 72
    65
 73
     0
 40
0.0
  0
LTYPE
  5
15
330
5
100
AcDbSymbolTableRecord
100
AcDbLinetypeTableRecord
  2
ByLayer
 70
     0
  3

 72
    65
 73
     0
 40
0.0
  0
LTYPE
  5
16
330
5
100
AcDbSymbolTableRecord
100
AcDbLinetypeTableRecord
  2
Continuous
 70
     0
  3
Solid line
 72
    65
 73
     0
 40
0.0
  0
LTYPE
  5
45
330
5
100
AcDbSymbolTableRecord
100
AcDbLinetypeTableRecord
  2
phl_thick
 70
     0
  3
THICK
 72
    65
 73
     0
 40
0.0
  0
LTYPE
  5
339
330
5
100
AcDbSymbolTableRecord
100
AcDbLinetypeTableRecord
  2
CUT
 70
     0
  3
THICK
 72
    65
 73
     0
 40
0.0
  0
LTYPE
  5
340
330
5
100
AcDbSymbolTableRecord
100
AcDbLinetypeTableRecord
  2
NOCUT
 70
     0
  3
THICK
 72
    65
 73
     0
 40
0.0
  0
LTYPE
  5
347
330
5
100
AcDbSymbolTableRecord
100
AcDbLinetypeTableRecord
  2
SK1
 70
     0
  3
THICK
 72
    65
 73
     0
 40
0.0
  0
LTYPE
  5
34F
330
5
100
AcDbSymbolTableRecord
100
AcDbLinetypeTableRecord
  2
ls_SK2
 70
     0
  3
THIN
 72
    65
 73
     0
 40
0.0
  0
LTYPE
  5
3FB
330
5
100
AcDbSymbolTableRecord
100
AcDbLinetypeTableRecord
  2
ls_2
 70
     0
  3
THIN
 72
    65
 73
     0
 40
0.0
  0
LTYPE
  5
569
330
5
100
AcDbSymbolTableRecord
100
AcDbLinetypeTableRecord
  2
ls_SK1
 70
     0
  3
THICK
 72
    65
 73
     0
 40
0.0
  0
LTYPE
  5
5A3
330
5
100
AcDbSymbolTableRecord
100
AcDbLinetypeTableRecord
  2
LONGDASH_DASH
 70
     0
  3
THIN_DASHDOT
 72
    65
 73
     4
 40
0.85
 49
0.4
 74
     0
 49
-0.2
 74
     0
 49
0.05
 74
     0
 49
-0.2
 74
     0
  0
LTYPE
  5
5A8
330
5
100
AcDbSymbolTableRecord
100
AcDbLinetypeTableRecord
  2
ls1
 70
     0
  3
THICK
 72
    65
 73
     0
 40
0.0
  0
ENDTAB
  0
TABLE
  2
LAYER
  5
2
330
0
100
AcDbSymbolTable
 70
    10
  0
LAYER
  5
10
330
2
100
AcDbSymbolTableRecord
100
AcDbLayerTableRecord
  2
0
 70
     0
 62
     7
  6
Continuous
370
    -3
390
F
  0
LAYER
  5
44
330
2
100
AcDbSymbolTableRecord
100
AcDbLayerTableRecord
  2
1
 70
     0
 62
4
  6
CONTINUOUS
370
50
370
    -3
390
F
  0
LAYER
  5
338
330
2
100
AcDbSymbolTableRecord
100
AcDbLayerTableRecord
  2
CUT
 70
     0
 62
1
  6
CONTINUOUS
370
25
370
    -3
390
F
  0
LAYER
  5
33F
330
2
100
AcDbSymbolTableRecord
100
AcDbLayerTableRecord
  2
NOCUT
 70
     0
 62
7
  6
CONTINUOUS
370
25
370
    -3
390
F
  0
LAYER
  5
346
330
2
100
AcDbSymbolTableRecord
100
AcDbLayerTableRecord
  2
SK1
 70
     0
 62
4
  6
CONTINUOUS
370
50
370
    -3
390
F
  0
LAYER
  5
34E
330
2
100
AcDbSymbolTableRecord
100
AcDbLayerTableRecord
  2
SK2
 70
     0
 62
7
  6
CONTINUOUS
370
25
370
    -3
390
F
  0
LAYER
  5
3FA
330
2
100
AcDbSymbolTableRecord
100
AcDbLayerTableRecord
  2
2
 70
     0
 62
7
  6
CONTINUOUS
370
25
370
    -3
390
F
  0
LAYER
  5
5A2
330
2
100
AcDbSymbolTableRecord
100
AcDbLayerTableRecord
  2
4
 70
     0
 62
2
  6
LONGDASH_DASH
370
25
370
    -3
390
F
  0
LAYER
  5
5A5
330
2
100
AcDbSymbolTableRecord
100
AcDbLayerTableRecord
  2
SK4
 70
     0
 62
2
  6
LONGDASH_DASH
370
25
370
    -3
390
F
  0
LAYER
  5
5A7
330
2
100
AcDbSymbolTableRecord
100
AcDbLayerTableRecord
  2
SK6
 70
     0
 62
5
  6
CONTINUOUS
370
25
370
    -3
390
F
  0
ENDTAB
  0
TABLE
  2
STYLE
  5
3
330
0
100
AcDbSymbolTable
 70
     1
  0
STYLE
  5
11
330
3
100
AcDbSymbolTableRecord
100
AcDbTextStyleTableRecord
  2
Standard
 70
     0
 40
0.0
 41
1.0
 50
0.0
 71
     0
 42
2.5
  3
Monospac821 BT
  4

  0
ENDTAB
  0
TABLE
  2
VIEW
  5
6
330
0
100
AcDbSymbolTable
 70
     0
  0
ENDTAB
  0
TABLE
  2
UCS
  5
7
330
0
100
AcDbSymbolTable
 70
     0
  0
ENDTAB
  0
TABLE
  2
APPID
  5
9
330
0
100
AcDbSymbolTable
 70
     2
  0
APPID
  5
12
330
9
100
AcDbSymbolTableRecord
100
AcDbRegAppTableRecord
  2
ACAD
 70
     0
  0
APPID
  5
3F
330
9
100
AcDbSymbolTableRecord
100
AcDbRegAppTableRecord
  2
ccLab
 70
     0
  0
ENDTAB
  0
TABLE
  2
DIMSTYLE
  5
A
330
0
100
AcDbSymbolTable
 70
     1
100
AcDbDimStyleTable
  0
DIMSTYLE
105
27
330
A
100
AcDbSymbolTableRecord
100
AcDbDimStyleTableRecord
  2
ISO-25
 70
     0
 41
2.5
 42
0.625
 43
3.75
 44
1.25
 73
     0
 74
     0
 77
     1
 78
     8
140
2.5
141
2.5
143
0.03937007874016
147
0.625
171
     3
172
     1
271
     2
272
     2
274
     3
278
    44
283
     0
284
     8
340
11
  0
ENDTAB
  0
TABLE
  2
BLOCK_RECORD
  5
1
330
0
100
AcDbSymbolTable
 70
     2
  0
BLOCK_RECORD
  5
1F
330
1
100
AcDbSymbolTableRecord
100
AcDbBlockTableRecord
  2
*Model_Space
340
22
  0
BLOCK_RECORD
  5
1B
330
1
100
AcDbSymbolTableRecord
100
AcDbBlockTableRecord
  2
*Paper_Space
340
1E
  0
BLOCK_RECORD
  5
23
330
1
100
AcDbSymbolTableRecord
100
AcDbBlockTableRecord
  2
*Paper_Space0
340
26
  0
ENDTAB
  0
ENDSEC
  0
SECTION
  2
BLOCKS
  0
BLOCK
  5
20
330
1F
100
AcDbEntity
  8
0
100
AcDbBlockBegin
  2
*Model_Space
 70
     0
 10
0.0
 20
0.0
 30
0.0
  3
*Model_Space
  1

  0
ENDBLK
  5
21
330
1F
100
AcDbEntity
  8
0
100
AcDbBlockEnd
  0
BLOCK
  5
1C
330
1B
100
AcDbEntity
 67
     1
  8
0
100
AcDbBlockBegin
  2
*Paper_Space
 70
     0
 10
0.0
 20
0.0
 30
0.0
  3
*Paper_Space
  1

  0
ENDBLK
  5
1D
330
1B
100
AcDbEntity
 67
     1
  8
0
100
AcDbBlockEnd
  0
BLOCK
  5
24
330
23
100
AcDbEntity
  8
0
100
AcDbBlockBegin
  2
*Paper_Space0
 70
     0
 10
0.0
 20
0.0
 30
0.0
  3
*Paper_Space0
  1

  0
ENDBLK
  5
25
330
23
100
AcDbEntity
  8
0
100
AcDbBlockEnd
  0
ENDSEC
  0
SECTION
  2
ENTITIES
  0
LINE
  5
5B2
330
1F
100
AcDbEntity
  8
1
  6
CONTINUOUS
370
50
 62
4
100
AcDbLine
 10
69.285789
 20
1.110245
 30
0.0
 11
69.285355
 21
1.142281
 31
0.0
  0
LINE
  5
5B3
330
1F
100
AcDbEntity
  8
1
  6
CONTINUOUS
370
50
 62
4
100
AcDbLine
 10
69.681961
 20
-0.673045
 30
0.0
 11
69.680374
 21
-0.581893
 31
0.0
  0
LINE
  5
5B4
330
1F
100
AcDbEntity
  8
1
  6
CONTINUOUS
370
50
 62
4
100
AcDbLine
 10
57.6759
 20
0.347376
 30
0.0
 11
57.674595
 21
0.416401
 31
0.0
  0
LINE
  5
5B5
330
1F
100
AcDbEntity
  8
1
  6
CONTINUOUS
370
50
 62
4
100
AcDbLine
 10
70.0
 20
0.999999
 30
0.0
 11
69.99859599999999
 21
1.052653
 31
0.0
  0
LINE
  5
5B6
330
1F
100
AcDbEntity
  8
1
  6
CONTINUOUS
370
50
 62
4
100
AcDbLine
 10
57.208115
 20
1.52082
 30
0.0
 11
57.207249
 21
1.54819
 31
0.0
  0
LINE
  5
5B7
330
1F
100
AcDbEntity
  8
1
  6
CONTINUOUS
370
50
 62
4
100
AcDbLine
 10
69.685234
 20
-0.763936
 30
0.0
 11
69.681961
 21
-0.673045
 31
0.0
  0
LINE
  5
5B8
330
1F
100
AcDbEntity
  8
1
  6
CONTINUOUS
370
50
 62
4
100
AcDbLine
 10
69.690201
 20
-0.8542959999999999
 30
0.0
 11
69.685234
 21
-0.763936
 31
0.0
  0
LINE
  5
5B9
330
1F
100
AcDbEntity
  8
1
  6
CONTINUOUS
370
50
 62
4
100
AcDbLine
 10
57.674595
 20
0.416401
 30
0.0
 11
57.670784
 21
0.485072
 31
0.0
  0
LINE
  5
5BA
330
1F
100
AcDbEntity
  8
1
  6
CONTINUOUS
370
50
 62
4
100
AcDbLine
 10
69.285355
 20
1.142281
 30
0.0
 11
69.282883
 21
1.176229
 31
0.0
  0
LINE
  5
5BB
330
1F
100
AcDbEntity
  8
1
  6
CONTINUOUS
370
50
 62
4
100
AcDbLine
 10
69.696815
 20
-0.9434579999999999
 30
0.0
 11
69.690201
 21
-0.8542959999999999
 31
0.0
  0
LINE
  5
5BC
330
1F
100
AcDbEntity
  8
1
  6
CONTINUOUS
370
50
 62
4
100
AcDbLine
 10
69.99859599999999
 20
1.052653
 30
0.0
 11
69.994705
 21
1.102719
 31
0.0
  0
LINE
  5
5BD
330
1F
100
AcDbEntity
  8
1
  6
CONTINUOUS
370
50
 62
4
100
AcDbLine
 10
57.670784
 20
0.485072
 30
0.0
 11
57.664581
 21
0.55316
 31
0.0
  0
LINE
  5
5BE
330
1F
100
AcDbEntity
  8
1
  6
CONTINUOUS
370
50
 62
4
100
AcDbLine
 10
69.705078
 20
-1.031154
 30
0.0
 11
69.696815
 21
-0.9434579999999999
 31
0.0
  0
LINE
  5
5BF
330
1F
100
AcDbEntity
  8
1
  6
CONTINUOUS
370
50
 62
4
100
AcDbLine
 10
69.714951
 20
-1.117195
 30
0.0
 11
69.705078
 21
-1.031154
 31
0.0
  0
LINE
  5
5C0
330
1F
100
AcDbEntity
  8
1
  6
CONTINUOUS
370
50
 62
4
100
AcDbLine
 10
69.282883
 20
1.176229
 30
0.0
 11
69.27849599999999
 21
1.211845
 31
0.0
  0
LINE
  5
5C1
330
1F
100
AcDbEntity
  8
1
  6
CONTINUOUS
370
50
 62
4
100
AcDbLine
 10
57.664581
 20
0.55316
 30
0.0
 11
57.656113
 21
0.620309
 31
0.0
  0
LINE
  5
5C2
330
1F
100
AcDbEntity
  8
1
  6
CONTINUOUS
370
50
 62
4
100
AcDbLine
 10
69.994705
 20
1.102719
 30
0.0
 11
69.988052
 21
1.153929
 31
0.0
  0
LINE
  5
5C3
330
1F
100
AcDbEntity
  8
1
  6
CONTINUOUS
370
50
 62
4
100
AcDbLine
 10
69.726379
 20
-1.201159
 30
0.0
 11
69.714951
 21
-1.117195
 31
0.0
  0
LINE
  5
5C4
330
1F
100
AcDbEntity
  8
1
  6
CONTINUOUS
370
50
 62
4
100
AcDbLine
 10
57.212204
 20
1.492939
 30
0.0
 11
57.208115
 21
1.52082
 31
0.0
  0
LINE
  5
5C5
330
1F
100
AcDbEntity
  8
1
  6
CONTINUOUS
370
50
 62
4
100
AcDbLine
 10
69.739311
 20
-1.282735
 30
0.0
 11
69.726379
 21
-1.201159
 31
0.0
  0
LINE
  5
5C6
330
1F
100
AcDbEntity
  8
1
  6
CONTINUOUS
370
50
 62
4
100
AcDbLine
 10
57.656113
 20
0.620309
 30
0.0
 11
57.64549599999999
 21
0.686419
 31
0.0
  0
LINE
  5
5C7
330
1F
100
AcDbEntity
  8
1
  6
CONTINUOUS
370
50
 62
4
100
AcDbLine
 10
69.27849599999999
 20
1.211845
 30
0.0
 11
69.272331
 21
1.248917
 31
0.0
  0
LINE
  5
5C8
330
1F
100
AcDbEntity
  8
1
  6
CONTINUOUS
370
50
 62
4
100
AcDbLine
 10
69.988052
 20
1.153929
 30
0.0
 11
69.978462
 21
1.206379
 31
0.0
  0
LINE
  5
5C9
330
1F
100
AcDbEntity
  8
1
  6
CONTINUOUS
370
50
 62
4
100
AcDbLine
 10
57.64549599999999
 20
0.686419
 30
0.0
 11
57.632832
 21
0.751397
 31
0.0
  0
LINE
  5
5CA
330
1F
100
AcDbEntity
  8
1
  6
CONTINUOUS
370
50
 62
4
100
AcDbLine
 10
69.272331
 20
1.248917
 30
0.0
 11
69.264389
 21
1.287714
 31
0.0
  0
LINE
  5
5CB
330
1F
100
AcDbEntity
  8
1
  6
CONTINUOUS
370
50
 62
4
100
AcDbLine
 10
57.632832
 20
0.751397
 30
0.0
 11
57.618225
 21
0.815152
 31
0.0
  0
LINE
  5
5CC
330
1F
100
AcDbEntity
  8
1
  6
CONTINUOUS
370
50
 62
4
100
AcDbLine
 10
69.264389
 20
1.287714
 30
0.0
 11
69.25469199999999
 21
1.32828
 31
0.0
  0
LINE
  5
5CD
330
1F
100
AcDbEntity
  8
1
  6
CONTINUOUS
370
50
 62
4
100
AcDbLine
 10
69.978462
 20
1.206379
 30
0.0
 11
69.966026
 21
1.258239
 31
0.0
  0
LINE
  5
5CE
330
1F
100
AcDbEntity
  8
1
  6
CONTINUOUS
370
50
 62
4
100
AcDbLine
 10
70.0
 20
0.350515
 30
0.0
 11
69.87887599999999
 21
0.831395
 31
0.0
  0
LINE
  5
5CF
330
1F
100
AcDbEntity
  8
1
  6
CONTINUOUS
370
50
 62
4
100
AcDbLine
 10
57.618225
 20
0.815152
 30
0.0
 11
57.601791
 21
0.87759
 31
0.0
  0
LINE
  5
5D0
330
1F
100
AcDbEntity
  8
1
  6
CONTINUOUS
370
50
 62
4
100
AcDbLine
 10
57.21968099999999
 20
1.464657
 30
0.0
 11
57.212204
 21
1.492939
 31
0.0
  0
LINE
  5
5D1
330
1F
100
AcDbEntity
  8
1
  6
CONTINUOUS
370
50
 62
4
100
AcDbLine
 10
69.25469199999999
 20
1.32828
 30
0.0
 11
69.243271
 21
1.370511
 31
0.0
  0
LINE
  5
5D2
330
1F
100
AcDbEntity
  8
1
  6
CONTINUOUS
370
50
 62
4
100
AcDbLine
 10
69.966026
 20
1.258239
 30
0.0
 11
69.95137
 21
1.307824
 31
0.0
  0
LINE
  5
5D3
330
1F
100
AcDbEntity
  8
1
  6
CONTINUOUS
370
50
 62
4
100
AcDbLine
 10
57.601791
 20
0.87759
 30
0.0
 11
57.583622
 21
0.938618
 31
0.0
  0
LINE
  5
5D4
330
1F
100
AcDbEntity
  8
1
  6
CONTINUOUS
370
50
 62
4
100
AcDbLine
 10
69.243271
 20
1.370511
 30
0.0
 11
69.230141
 21
1.414304
 31
0.0
  0
LINE
  5
5D5
330
1F
100
AcDbEntity
  8
1
  6
CONTINUOUS
370
50
 62
4
100
AcDbLine
 10
69.230141
 20
1.414304
 30
0.0
 11
69.215347
 21
1.459555
 31
0.0
  0
LINE
  5
5D6
330
1F
100
AcDbEntity
  8
1
  6
CONTINUOUS
370
50
 62
4
100
AcDbLine
 10
57.583622
 20
0.938618
 30
0.0
 11
57.563778
 21
0.9981599999999999
 31
0.0
  0
LINE
  5
5D7
330
1F
100
AcDbEntity
  8
1
  6
CONTINUOUS
370
50
 62
4
100
AcDbLine
 10
69.95137
 20
1.307824
 30
0.0
 11
69.93493699999999
 21
1.354437
 31
0.0
  0
LINE
  5
5D8
330
1F
100
AcDbEntity
  8
1
  6
CONTINUOUS
370
50
 62
4
100
AcDbLine
 10
69.215347
 20
1.459555
 30
0.0
 11
69.198906
 21
1.506161
 31
0.0
  0
LINE
  5
5D9
330
1F
100
AcDbEntity
  8
1
  6
CONTINUOUS
370
50
 62
4
100
AcDbLine
 10
57.563778
 20
0.9981599999999999
 30
0.0
 11
57.542309
 21
1.056148
 31
0.0
  0
LINE
  5
5DA
330
1F
100
AcDbEntity
  8
1
  6
CONTINUOUS
370
50
 62
4
100
AcDbLine
 10
69.198906
 20
1.506161
 30
0.0
 11
69.180855
 21
1.554019
 31
0.0
  0
LINE
  5
5DB
330
1F
100
AcDbEntity
  8
1
  6
CONTINUOUS
370
50
 62
4
100
AcDbLine
 10
57.23067899999999
 20
1.436145
 30
0.0
 11
57.21968099999999
 21
1.464657
 31
0.0
  0
LINE
  5
5DC
330
1F
100
AcDbEntity
  8
1
  6
CONTINUOUS
370
50
 62
4
100
AcDbLine
 10
69.180855
 20
1.554019
 30
0.0
 11
69.16122399999999
 21
1.603024
 31
0.0
  0
LINE
  5
5DD
330
1F
100
AcDbEntity
  8
1
  6
CONTINUOUS
370
50
 62
4
100
AcDbLine
 10
69.12080399999999
 20
1.702384
 30
0.0
 11
69.114182
 21
1.718906
 31
0.0
  0
LINE
  5
5DE
330
1F
100
AcDbEntity
  8
1
  6
CONTINUOUS
370
50
 62
4
100
AcDbLine
 10
69.12745699999999
 20
1.68585
 30
0.0
 11
69.12080399999999
 21
1.702384
 31
0.0
  0
LINE
  5
5DF
330
1F
100
AcDbEntity
  8
1
  6
CONTINUOUS
370
50
 62
4
100
AcDbLine
 10
69.134148
 20
1.669305
 30
0.0
 11
69.12745699999999
 21
1.68585
 31
0.0
  0
LINE
  5
5E0
330
1F
100
AcDbEntity
  8
1
  6
CONTINUOUS
370
50
 62
4
100
AcDbLine
 10
69.140862
 20
1.65275
 30
0.0
 11
69.134148
 21
1.669305
 31
0.0
  0
LINE
  5
5E1
330
1F
100
AcDbEntity
  8
1
  6
CONTINUOUS
370
50
 62
4
100
AcDbLine
 10
69.14761399999999
 20
1.636185
 30
0.0
 11
69.140862
 21
1.65275
 31
0.0
  0
LINE
  5
5E2
330
1F
100
AcDbEntity
  8
1
  6
CONTINUOUS
370
50
 62
4
100
AcDbLine
 10
57.542309
 20
1.056148
 30
0.0
 11
57.519268
 21
1.112514
 31
0.0
  0
LINE
  5
5E3
330
1F
100
AcDbEntity
  8
1
  6
CONTINUOUS
370
50
 62
4
100
AcDbLine
 10
69.154404
 20
1.619609
 30
0.0
 11
69.14761399999999
 21
1.636185
 31
0.0
  0
LINE
  5
5E4
330
1F
100
AcDbEntity
  8
1
  6
CONTINUOUS
370
50
 62
4
100
AcDbLine
 10
69.16122399999999
 20
1.603024
 30
0.0
 11
69.154404
 21
1.619609
 31
0.0
  0
LINE
  5
5E5
330
1F
100
AcDbEntity
  8
1
  6
CONTINUOUS
370
50
 62
4
100
AcDbLine
 10
69.93493699999999
 20
1.354437
 30
0.0
 11
69.915413
 21
1.40186
 31
0.0
  0
LINE
  5
5E6
330
1F
100
AcDbEntity
  8
1
  6
CONTINUOUS
370
50
 62
4
100
AcDbLine
 10
57.519268
 20
1.112514
 30
0.0
 11
57.494705
 21
1.167188
 31
0.0
  0
LINE
  5
5E7
330
1F
100
AcDbEntity
  8
1
  6
CONTINUOUS
370
50
 62
4
100
AcDbLine
 10
69.915413
 20
1.40186
 30
0.0
 11
69.892929
 21
1.449264
 31
0.0
  0
LINE
  5
5E8
330
1F
100
AcDbEntity
  8
1
  6
CONTINUOUS
370
50
 62
4
100
AcDbLine
 10
57.494705
 20
1.167188
 30
0.0
 11
57.468666
 21
1.220102
 31
0.0
  0
LINE
  5
5E9
330
1F
100
AcDbEntity
  8
1
  6
CONTINUOUS
370
50
 62
4
100
AcDbLine
 10
57.24511
 20
1.407982
 30
0.0
 11
57.23067899999999
 21
1.436145
 31
0.0
  0
LINE
  5
5EA
330
1F
100
AcDbEntity
  8
1
  6
CONTINUOUS
370
50
 62
4
100
AcDbLine
 10
69.570824
 20
0.832803
 30
0.0
 11
69.114182
 21
1.718906
 31
0.0
  0
LINE
  5
5EB
330
1F
100
AcDbEntity
  8
1
  6
CONTINUOUS
370
50
 62
4
100
AcDbLine
 10
69.892929
 20
1.449264
 30
0.0
 11
69.86805
 21
1.495031
 31
0.0
  0
LINE
  5
5EC
330
1F
100
AcDbEntity
  8
1
  6
CONTINUOUS
370
50
 62
4
100
AcDbLine
 10
69.86805
 20
1.495031
 30
0.0
 11
69.841782
 21
1.537831
 31
0.0
  0
LINE
  5
5ED
330
1F
100
AcDbEntity
  8
1
  6
CONTINUOUS
370
50
 62
4
100
AcDbLine
 10
57.262909
 20
1.380397
 30
0.0
 11
57.24511
 21
1.407982
 31
0.0
  0
LINE
  5
5EE
330
1F
100
AcDbEntity
  8
1
  6
CONTINUOUS
370
50
 62
4
100
AcDbLine
 10
69.841782
 20
1.537831
 30
0.0
 11
69.81446799999999
 21
1.577522
 31
0.0
  0
LINE
  5
5EF
330
1F
100
AcDbEntity
  8
1
  6
CONTINUOUS
370
50
 62
4
100
AcDbLine
 10
69.81446799999999
 20
1.577522
 30
0.0
 11
69.783974
 21
1.617213
 31
0.0
  0
LINE
  5
5F0
330
1F
100
AcDbEntity
  8
1
  6
CONTINUOUS
370
50
 62
4
100
AcDbLine
 10
57.28405
 20
1.35353
 30
0.0
 11
57.262909
 21
1.380397
 31
0.0
  0
LINE
  5
5F1
330
1F
100
AcDbEntity
  8
1
  6
CONTINUOUS
370
50
 62
4
100
AcDbLine
 10
69.783974
 20
1.617213
 30
0.0
 11
69.75076299999999
 21
1.655939
 31
0.0
  0
LINE
  5
5F2
330
1F
100
AcDbEntity
  8
1
  6
CONTINUOUS
370
50
 62
4
100
AcDbLine
 10
69.749275
 20
-1.293468
 30
0.0
 11
69.739311
 21
-1.282735
 31
0.0
  0
LINE
  5
5F3
330
1F
100
AcDbEntity
  8
1
  6
CONTINUOUS
370
50
 62
4
100
AcDbLine
 10
57.308495
 20
1.327521
 30
0.0
 11
57.28405
 21
1.35353
 31
0.0
  0
LINE
  5
5F4
330
1F
100
AcDbEntity
  8
1
  6
CONTINUOUS
370
50
 62
4
100
AcDbLine
 10
69.75076299999999
 20
1.655939
 30
0.0
 11
69.715744
 21
1.692405
 31
0.0
  0
LINE
  5
5F5
330
1F
100
AcDbEntity
  8
1
  6
CONTINUOUS
370
50
 62
4
100
AcDbLine
 10
69.75920099999999
 20
-1.303147
 30
0.0
 11
69.749275
 21
-1.293468
 31
0.0
  0
LINE
  5
5F6
330
1F
100
AcDbEntity
  8
1
  6
CONTINUOUS
370
50
 62
4
100
AcDbLine
 10
69.715744
 20
1.692405
 30
0.0
 11
69.680138
 21
1.725699
 31
0.0
  0
LINE
  5
5F7
330
1F
100
AcDbEntity
  8
1
  6
CONTINUOUS
370
50
 62
4
100
AcDbLine
 10
57.335899
 20
1.302771
 30
0.0
 11
57.308495
 21
1.327521
 31
0.0
  0
LINE
  5
5F8
330
1F
100
AcDbEntity
  8
1
  6
CONTINUOUS
370
50
 62
4
100
AcDbLine
 10
69.769058
 20
-1.31166
 30
0.0
 11
69.75920099999999
 21
-1.303147
 31
0.0
  0
LINE
  5
5F9
330
1F
100
AcDbEntity
  8
1
  6
CONTINUOUS
370
50
 62
4
100
AcDbLine
 10
69.680138
 20
1.725699
 30
0.0
 11
69.64437099999999
 21
1.755707
 31
0.0
  0
LINE
  5
5FA
330
1F
100
AcDbEntity
  8
1
  6
CONTINUOUS
370
50
 62
4
100
AcDbLine
 10
56.390232
 20
-1.714165
 30
0.0
 11
56.341755
 21
-1.674936
 31
0.0
  0
LINE
  5
5FB
330
1F
100
AcDbEntity
  8
1
  6
CONTINUOUS
370
50
 62
4
100
AcDbLine
 10
57.365818
 20
1.279614
 30
0.0
 11
57.335899
 21
1.302771
 31
0.0
  0
LINE
  5
5FC
330
1F
100
AcDbEntity
  8
1
  6
CONTINUOUS
370
50
 62
4
100
AcDbLine
 10
69.64437099999999
 20
1.755707
 30
0.0
 11
69.605682
 21
1.78478
 31
0.0
  0
LINE
  5
5FD
330
1F
100
AcDbEntity
  8
1
  6
CONTINUOUS
370
50
 62
4
100
AcDbLine
 10
69.778809
 20
-1.31898
 30
0.0
 11
69.769058
 21
-1.31166
 31
0.0
  0
LINE
  5
5FE
330
1F
100
AcDbEntity
  8
1
  6
CONTINUOUS
370
50
 62
4
100
AcDbLine
 10
56.440834
 20
-1.749525
 30
0.0
 11
56.390232
 21
-1.714165
 31
0.0
  0
LINE
  5
5FF
330
1F
100
AcDbEntity
  8
1
  6
CONTINUOUS
370
50
 62
4
100
AcDbLine
 10
69.605682
 20
1.78478
 30
0.0
 11
69.564598
 21
1.812267
 31
0.0
  0
LINE
  5
600
330
1F
100
AcDbEntity
  8
1
  6
CONTINUOUS
370
50
 62
4
100
AcDbLine
 10
57.398048
 20
1.258091
 30
0.0
 11
57.365818
 21
1.279614
 31
0.0
  0
LINE
  5
601
330
1F
100
AcDbEntity
  8
1
  6
CONTINUOUS
370
50
 62
4
100
AcDbLine
 10
69.788544
 20
-1.325171
 30
0.0
 11
69.778809
 21
-1.31898
 31
0.0
  0
LINE
  5
602
330
1F
100
AcDbEntity
  8
1
  6
CONTINUOUS
370
50
 62
4
100
AcDbLine
 10
64.55864
 20
-0.003144
 30
0.0
 11
64.555557
 21
-0.001307
 31
0.0
  0
LINE
  5
603
330
1F
100
AcDbEntity
  8
1
  6
CONTINUOUS
370
50
 62
4
100
AcDbLine
 10
64.567955
 20
-0.008685
 30
0.0
 11
64.564842
 21
-0.006833
 31
0.0
  0
LINE
  5
604
330
1F
100
AcDbEntity
  8
1
  6
CONTINUOUS
370
50
 62
4
100
AcDbLine
 10
64.564842
 20
-0.006833
 30
0.0
 11
64.561737
 21
-0.004986
 31
0.0
  0
LINE
  5
605
330
1F
100
AcDbEntity
  8
1
  6
CONTINUOUS
370
50
 62
4
100
AcDbLine
 10
64.561737
 20
-0.004986
 30
0.0
 11
64.55864
 21
-0.003144
 31
0.0
  0
LINE
  5
606
330
1F
100
AcDbEntity
  8
1
  6
CONTINUOUS
370
50
 62
4
100
AcDbLine
 10
64.571075
 20
-0.01054
 30
0.0
 11
64.567955
 21
-0.008685
 31
0.0
  0
LINE
  5
607
330
1F
100
AcDbEntity
  8
1
  6
CONTINUOUS
370
50
 62
4
100
AcDbLine
 10
56.49368699999999
 20
-1.780903
 30
0.0
 11
56.440834
 21
-1.749525
 31
0.0
  0
LINE
  5
608
330
1F
100
AcDbEntity
  8
1
  6
CONTINUOUS
370
50
 62
4
100
AcDbLine
 10
64.807907
 20
-0.150422
 30
0.0
 11
64.571075
 21
-0.01054
 31
0.0
  0
LINE
  5
609
330
1F
100
AcDbEntity
  8
1
  6
CONTINUOUS
370
50
 62
4
100
AcDbLine
 10
64.552162
 20
0.0
 30
0.0
 11
63.960697
 21
0.346726
 31
0.0
  0
LINE
  5
60A
330
1F
100
AcDbEntity
  8
1
  6
CONTINUOUS
370
50
 62
4
100
AcDbLine
 10
64.884964
 20
0.199292
 30
0.0
 11
64.545784
 21
0.397388
 31
0.0
  0
LINE
  5
60B
330
1F
100
AcDbEntity
  8
1
  6
CONTINUOUS
370
50
 62
4
100
AcDbLine
 10
65.083244
 20
-0.30954
 30
0.0
 11
64.807907
 21
-0.150422
 31
0.0
  0
LINE
  5
60C
330
1F
100
AcDbEntity
  8
1
  6
CONTINUOUS
370
50
 62
4
100
AcDbLine
 10
57.43239999999999
 20
1.23824
 30
0.0
 11
57.398048
 21
1.258091
 31
0.0
  0
LINE
  5
60D
330
1F
100
AcDbEntity
  8
1
  6
CONTINUOUS
370
50
 62
4
100
AcDbLine
 10
64.545784
 20
0.397388
 30
0.0
 11
64.21106
 21
0.5906629999999999
 31
0.0
  0
LINE
  5
60E
330
1F
100
AcDbEntity
  8
1
  6
CONTINUOUS
370
50
 62
4
100
AcDbLine
 10
65.231819
 20
0.0
 30
0.0
 11
64.884964
 21
0.199292
 31
0.0
  0
LINE
  5
60F
330
1F
100
AcDbEntity
  8
1
  6
CONTINUOUS
370
50
 62
4
100
AcDbLine
 10
69.564598
 20
1.812267
 30
0.0
 11
69.516975
 21
1.839357
 31
0.0
  0
LINE
  5
610
330
1F
100
AcDbEntity
  8
1
  6
CONTINUOUS
370
50
 62
4
100
AcDbLine
 10
65.765839
 20
-0.300828
 30
0.0
 11
65.23185699999999
 21
0.000078
 31
0.0
  0
LINE
  5
611
330
1F
100
AcDbEntity
  8
1
  6
CONTINUOUS
370
50
 62
4
100
AcDbLine
 10
65.396667
 20
-0.485145
 30
0.0
 11
65.083244
 21
-0.30954
 31
0.0
  0
LINE
  5
612
330
1F
100
AcDbEntity
  8
1
  6
CONTINUOUS
370
50
 62
4
100
AcDbLine
 10
66.276001
 20
-0.583734
 30
0.0
 11
65.765839
 21
-0.300828
 31
0.0
  0
LINE
  5
613
330
1F
100
AcDbEntity
  8
1
  6
CONTINUOUS
370
50
 62
4
100
AcDbLine
 10
63.960697
 20
0.346726
 30
0.0
 11
63.381287
 21
0.664809
 31
0.0
  0
LINE
  5
614
330
1F
100
AcDbEntity
  8
1
  6
CONTINUOUS
370
50
 62
4
100
AcDbLine
 10
66.697121
 20
-0.8144979999999999
 30
0.0
 11
66.276001
 21
-0.583734
 31
0.0
  0
LINE
  5
615
330
1F
100
AcDbEntity
  8
1
  6
CONTINUOUS
370
50
 62
4
100
AcDbLine
 10
64.21106
 20
0.5906629999999999
 30
0.0
 11
63.862015
 21
0.780759
 31
0.0
  0
LINE
  5
616
330
1F
100
AcDbEntity
  8
1
  6
CONTINUOUS
370
50
 62
4
100
AcDbLine
 10
65.737312
 20
-0.669374
 30
0.0
 11
65.396667
 21
-0.485145
 31
0.0
  0
LINE
  5
617
330
1F
100
AcDbEntity
  8
1
  6
CONTINUOUS
370
50
 62
4
100
AcDbLine
 10
67.024254
 20
-0.988475
 30
0.0
 11
66.697121
 21
-0.8144979999999999
 31
0.0
  0
LINE
  5
618
330
1F
100
AcDbEntity
  8
1
  6
CONTINUOUS
370
50
 62
4
100
AcDbLine
 10
66.07994099999999
 20
-0.848738
 30
0.0
 11
65.737312
 21
-0.669374
 31
0.0
  0
LINE
  5
619
330
1F
100
AcDbEntity
  8
1
  6
CONTINUOUS
370
50
 62
4
100
AcDbLine
 10
69.79863
 20
-1.330421
 30
0.0
 11
69.788544
 21
-1.325171
 31
0.0
  0
LINE
  5
61A
330
1F
100
AcDbEntity
  8
1
  6
CONTINUOUS
370
50
 62
4
100
AcDbLine
 10
63.381287
 20
0.664809
 30
0.0
 11
62.811584
 21
0.959093
 31
0.0
  0
LINE
  5
61B
330
1F
100
AcDbEntity
  8
1
  6
CONTINUOUS
370
50
 62
4
100
AcDbLine
 10
63.862015
 20
0.780759
 30
0.0
 11
63.509243
 21
0.960988
 31
0.0
  0
LINE
  5
61C
330
1F
100
AcDbEntity
  8
1
  6
CONTINUOUS
370
50
 62
4
100
AcDbLine
 10
66.42004399999999
 20
-1.02122
 30
0.0
 11
66.07994099999999
 21
-0.848738
 31
0.0
  0
LINE
  5
61D
330
1F
100
AcDbEntity
  8
1
  6
CONTINUOUS
370
50
 62
4
100
AcDbLine
 10
57.468666
 20
1.220102
 30
0.0
 11
57.43239999999999
 21
1.23824
 31
0.0
  0
LINE
  5
61E
330
1F
100
AcDbEntity
  8
1
  6
CONTINUOUS
370
50
 62
4
100
AcDbLine
 10
67.304153
 20
-1.127766
 30
0.0
 11
67.024254
 21
-0.988475
 31
0.0
  0
LINE
  5
61F
330
1F
100
AcDbEntity
  8
1
  6
CONTINUOUS
370
50
 62
4
100
AcDbLine
 10
56.54892299999999
 20
-1.80826
 30
0.0
 11
56.49368699999999
 21
-1.780903
 31
0.0
  0
LINE
  5
620
330
1F
100
AcDbEntity
  8
1
  6
CONTINUOUS
370
50
 62
4
100
AcDbLine
 10
66.74443099999999
 20
-1.180897
 30
0.0
 11
66.42004399999999
 21
-1.02122
 31
0.0
  0
LINE
  5
621
330
1F
100
AcDbEntity
  8
1
  6
CONTINUOUS
370
50
 62
4
100
AcDbLine
 10
64.571266
 20
-0.011443
 30
0.0
 11
64.243546
 21
0.149737
 31
0.0
  0
LINE
  5
622
330
1F
100
AcDbEntity
  8
1
  6
CONTINUOUS
370
50
 62
4
100
AcDbLine
 10
62.811584
 20
0.959093
 30
0.0
 11
62.331757
 21
1.194004
 31
0.0
  0
LINE
  5
623
330
1F
100
AcDbEntity
  8
1
  6
CONTINUOUS
370
50
 62
4
100
AcDbLine
 10
69.516975
 20
1.839357
 30
0.0
 11
69.46816299999999
 21
1.862888
 31
0.0
  0
LINE
  5
624
330
1F
100
AcDbEntity
  8
1
  6
CONTINUOUS
370
50
 62
4
100
AcDbLine
 10
63.509243
 20
0.960988
 30
0.0
 11
63.154877
 21
1.131061
 31
0.0
  0
LINE
  5
625
330
1F
100
AcDbEntity
  8
1
  6
CONTINUOUS
370
50
 62
4
100
AcDbLine
 10
64.243546
 20
0.149737
 30
0.0
 11
63.915825
 21
0.30515
 31
0.0
  0
LINE
  5
626
330
1F
100
AcDbEntity
  8
1
  6
CONTINUOUS
370
50
 62
4
100
AcDbLine
 10
67.06077599999999
 20
-1.327596
 30
0.0
 11
66.74443099999999
 21
-1.180897
 31
0.0
  0
LINE
  5
627
330
1F
100
AcDbEntity
  8
1
  6
CONTINUOUS
370
50
 62
4
100
AcDbLine
 10
67.58599099999999
 20
-1.257556
 30
0.0
 11
67.304153
 21
-1.127766
 31
0.0
  0
LINE
  5
628
330
1F
100
AcDbEntity
  8
1
  6
CONTINUOUS
370
50
 62
4
100
AcDbLine
 10
63.915825
 20
0.30515
 30
0.0
 11
63.588108
 21
0.454967
 31
0.0
  0
LINE
  5
629
330
1F
100
AcDbEntity
  8
1
  6
CONTINUOUS
370
50
 62
4
100
AcDbLine
 10
62.331757
 20
1.194004
 30
0.0
 11
61.966381
 21
1.361034
 31
0.0
  0
LINE
  5
62A
330
1F
100
AcDbEntity
  8
1
  6
CONTINUOUS
370
50
 62
4
100
AcDbLine
 10
63.154877
 20
1.131061
 30
0.0
 11
62.79897699999999
 21
1.29138
 31
0.0
  0
LINE
  5
62B
330
1F
100
AcDbEntity
  8
1
  6
CONTINUOUS
370
50
 62
4
100
AcDbLine
 10
63.588108
 20
0.454967
 30
0.0
 11
63.26038699999999
 21
0.599652
 31
0.0
  0
LINE
  5
62C
330
1F
100
AcDbEntity
  8
1
  6
CONTINUOUS
370
50
 62
4
100
AcDbLine
 10
63.26038699999999
 20
0.599652
 30
0.0
 11
62.932663
 21
0.739512
 31
0.0
  0
LINE
  5
62D
330
1F
100
AcDbEntity
  8
1
  6
CONTINUOUS
370
50
 62
4
100
AcDbLine
 10
67.868011
 20
-1.37758
 30
0.0
 11
67.58599099999999
 21
-1.257556
 31
0.0
  0
LINE
  5
62E
330
1F
100
AcDbEntity
  8
1
  6
CONTINUOUS
370
50
 62
4
100
AcDbLine
 10
62.79897699999999
 20
1.29138
 30
0.0
 11
62.445263
 21
1.440287
 31
0.0
  0
LINE
  5
62F
330
1F
100
AcDbEntity
  8
1
  6
CONTINUOUS
370
50
 62
4
100
AcDbLine
 10
67.379494
 20
-1.460899
 30
0.0
 11
67.06077599999999
 21
-1.327596
 31
0.0
  0
LINE
  5
630
330
1F
100
AcDbEntity
  8
1
  6
CONTINUOUS
370
50
 62
4
100
AcDbLine
 10
62.932663
 20
0.739512
 30
0.0
 11
62.604935
 21
0.874467
 31
0.0
  0
LINE
  5
631
330
1F
100
AcDbEntity
  8
1
  6
CONTINUOUS
370
50
 62
4
100
AcDbLine
 10
61.966381
 20
1.361034
 30
0.0
 11
61.655945
 21
1.488484
 31
0.0
  0
LINE
  5
632
330
1F
100
AcDbEntity
  8
1
  6
CONTINUOUS
370
50
 62
4
100
AcDbLine
 10
69.808998
 20
-1.334622
 30
0.0
 11
69.79863
 21
-1.330421
 31
0.0
  0
LINE
  5
633
330
1F
100
AcDbEntity
  8
1
  6
CONTINUOUS
370
50
 62
4
100
AcDbLine
 10
56.606495
 20
-1.831553
 30
0.0
 11
56.54892299999999
 21
-1.80826
 31
0.0
  0
LINE
  5
634
330
1F
100
AcDbEntity
  8
1
  6
CONTINUOUS
370
50
 62
4
100
AcDbLine
 10
69.46816299999999
 20
1.862888
 30
0.0
 11
69.418289
 21
1.882857
 31
0.0
  0
LINE
  5
635
330
1F
100
AcDbEntity
  8
1
  6
CONTINUOUS
370
50
 62
4
100
AcDbLine
 10
62.604935
 20
0.874467
 30
0.0
 11
62.27721
 21
1.004377
 31
0.0
  0
LINE
  5
636
330
1F
100
AcDbEntity
  8
1
  6
CONTINUOUS
370
50
 62
4
100
AcDbLine
 10
68.150879
 20
-1.488615
 30
0.0
 11
67.868011
 21
-1.37758
 31
0.0
  0
LINE
  5
637
330
1F
100
AcDbEntity
  8
1
  6
CONTINUOUS
370
50
 62
4
100
AcDbLine
 10
62.445263
 20
1.440287
 30
0.0
 11
62.099159
 21
1.574959
 31
0.0
  0
LINE
  5
638
330
1F
100
AcDbEntity
  8
1
  6
CONTINUOUS
370
50
 62
4
100
AcDbLine
 10
64.555557
 20
-0.001307
 30
0.0
 11
64.552162
 21
0.0
 31
0.0
  0
LINE
  5
639
330
1F
100
AcDbEntity
  8
1
  6
CONTINUOUS
370
50
 62
4
100
AcDbLine
 10
62.27721
 20
1.004377
 30
0.0
 11
61.94949
 21
1.127775
 31
0.0
  0
LINE
  5
63A
330
1F
100
AcDbEntity
  8
1
  6
CONTINUOUS
370
50
 62
4
100
AcDbLine
 10
67.70047
 20
-1.579862
 30
0.0
 11
67.379494
 21
-1.460899
 31
0.0
  0
LINE
  5
63B
330
1F
100
AcDbEntity
  8
1
  6
CONTINUOUS
370
50
 62
4
100
AcDbLine
 10
61.655945
 20
1.488484
 30
0.0
 11
61.342968
 21
1.602187
 31
0.0
  0
LINE
  5
63C
330
1F
100
AcDbEntity
  8
1
  6
CONTINUOUS
370
50
 62
4
100
AcDbLine
 10
68.435112
 20
-1.591066
 30
0.0
 11
68.150879
 21
-1.488615
 31
0.0
  0
LINE
  5
63D
330
1F
100
AcDbEntity
  8
1
  6
CONTINUOUS
370
50
 62
4
100
AcDbLine
 10
62.099159
 20
1.574959
 30
0.0
 11
61.753403
 21
1.693014
 31
0.0
  0
LINE
  5
63E
330
1F
100
AcDbEntity
  8
1
  6
CONTINUOUS
370
50
 62
4
100
AcDbLine
 10
61.94949
 20
1.127775
 30
0.0
 11
61.621769
 21
1.237968
 31
0.0
  0
LINE
  5
63F
330
1F
100
AcDbEntity
  8
1
  6
CONTINUOUS
370
50
 62
4
100
AcDbLine
 10
68.718796
 20
-1.684124
 30
0.0
 11
68.435112
 21
-1.591066
 31
0.0
  0
LINE
  5
640
330
1F
100
AcDbEntity
  8
1
  6
CONTINUOUS
370
50
 62
4
100
AcDbLine
 10
68.025589
 20
-1.685678
 30
0.0
 11
67.70047
 21
-1.579862
 31
0.0
  0
LINE
  5
641
330
1F
100
AcDbEntity
  8
1
  6
CONTINUOUS
370
50
 62
4
100
AcDbLine
 10
69.418289
 20
1.882857
 30
0.0
 11
69.367538
 21
1.899244
 31
0.0
  0
LINE
  5
642
330
1F
100
AcDbEntity
  8
1
  6
CONTINUOUS
370
50
 62
4
100
AcDbLine
 10
56.66656099999999
 20
-1.850892
 30
0.0
 11
56.606495
 21
-1.831553
 31
0.0
  0
LINE
  5
643
330
1F
100
AcDbEntity
  8
1
  6
CONTINUOUS
370
50
 62
4
100
AcDbLine
 10
61.342968
 20
1.602187
 30
0.0
 11
61.029697
 21
1.701934
 31
0.0
  0
LINE
  5
644
330
1F
100
AcDbEntity
  8
1
  6
CONTINUOUS
370
50
 62
4
100
AcDbLine
 10
62.665157
 20
-0.141387
 30
0.0
 11
62.05426
 21
0.047653
 31
0.0
  0
LINE
  5
645
330
1F
100
AcDbEntity
  8
1
  6
CONTINUOUS
370
50
 62
4
100
AcDbLine
 10
60.701958
 20
-0.167446
 30
0.0
 11
59.0
 21
0.354436
 31
0.0
  0
LINE
  5
646
330
1F
100
AcDbEntity
  8
1
  6
CONTINUOUS
370
50
 62
4
100
AcDbLine
 10
62.05426
 20
0.047653
 30
0.0
 11
61.443436
 21
0.233154
 31
0.0
  0
LINE
  5
647
330
1F
100
AcDbEntity
  8
1
  6
CONTINUOUS
370
50
 62
4
100
AcDbLine
 10
69.766998
 20
0.369073
 30
0.0
 11
69.20237
 21
0.536028
 31
0.0
  0
LINE
  5
648
330
1F
100
AcDbEntity
  8
1
  6
CONTINUOUS
370
50
 62
4
100
AcDbLine
 10
61.621769
 20
1.237968
 30
0.0
 11
61.294052
 21
1.334719
 31
0.0
  0
LINE
  5
649
330
1F
100
AcDbEntity
  8
1
  6
CONTINUOUS
370
50
 62
4
100
AcDbLine
 10
69.0
 20
-1.766978
 30
0.0
 11
68.718796
 21
-1.684124
 31
0.0
  0
LINE
  5
64A
330
1F
100
AcDbEntity
  8
1
  6
CONTINUOUS
370
50
 62
4
100
AcDbLine
 10
63.276066
 20
-0.319076
 30
0.0
 11
62.665157
 21
-0.141387
 31
0.0
  0
LINE
  5
64B
330
1F
100
AcDbEntity
  8
1
  6
CONTINUOUS
370
50
 62
4
100
AcDbLine
 10
69.819565
 20
-1.337645
 30
0.0
 11
69.808998
 21
-1.334622
 31
0.0
  0
LINE
  5
64C
330
1F
100
AcDbEntity
  8
1
  6
CONTINUOUS
370
50
 62
4
100
AcDbLine
 10
61.443436
 20
0.233154
 30
0.0
 11
60.8326
 21
0.406294
 31
0.0
  0
LINE
  5
64D
330
1F
100
AcDbEntity
  8
1
  6
CONTINUOUS
370
50
 62
4
100
AcDbLine
 10
68.35247
 20
-1.777691
 30
0.0
 11
68.025589
 21
-1.685678
 31
0.0
  0
LINE
  5
64E
330
1F
100
AcDbEntity
  8
1
  6
CONTINUOUS
370
50
 62
4
100
AcDbLine
 10
61.753403
 20
1.693014
 30
0.0
 11
61.390606
 21
1.794934
 31
0.0
  0
LINE
  5
64F
330
1F
100
AcDbEntity
  8
1
  6
CONTINUOUS
370
50
 62
4
100
AcDbLine
 10
61.029697
 20
1.701934
 30
0.0
 11
60.72163399999999
 21
1.786755
 31
0.0
  0
LINE
  5
650
330
1F
100
AcDbEntity
  8
1
  6
CONTINUOUS
370
50
 62
4
100
AcDbLine
 10
63.886898
 20
-0.486793
 30
0.0
 11
63.276066
 21
-0.319076
 31
0.0
  0
LINE
  5
651
330
1F
100
AcDbEntity
  8
1
  6
CONTINUOUS
370
50
 62
4
100
AcDbLine
 10
62.71199799999999
 20
-0.7147169999999999
 30
0.0
 11
60.701958
 21
-0.167446
 31
0.0
  0
LINE
  5
652
330
1F
100
AcDbEntity
  8
1
  6
CONTINUOUS
370
50
 62
4
100
AcDbLine
 10
57.0
 20
1.99995
 30
0.0
 11
53.299999
 21
2.99995
 31
0.0
  0
LINE
  5
653
330
1F
100
AcDbEntity
  8
1
  6
CONTINUOUS
370
50
 62
4
100
AcDbLine
 10
60.8326
 20
0.406294
 30
0.0
 11
60.221695
 21
0.568296
 31
0.0
  0
LINE
  5
654
330
1F
100
AcDbEntity
  8
1
  6
CONTINUOUS
370
50
 62
4
100
AcDbLine
 10
64.497719
 20
-0.6451509999999999
 30
0.0
 11
63.886898
 21
-0.486793
 31
0.0
  0
LINE
  5
655
330
1F
100
AcDbEntity
  8
1
  6
CONTINUOUS
370
50
 62
4
100
AcDbLine
 10
69.20237
 20
0.536028
 30
0.0
 11
68.62668599999999
 21
0.684912
 31
0.0
  0
LINE
  5
656
330
1F
100
AcDbEntity
  8
1
  6
CONTINUOUS
370
50
 62
4
100
AcDbLine
 10
61.294052
 20
1.334719
 30
0.0
 11
60.966331
 21
1.418822
 31
0.0
  0
LINE
  5
657
330
1F
100
AcDbEntity
  8
1
  6
CONTINUOUS
370
50
 62
4
100
AcDbLine
 10
69.367538
 20
1.899244
 30
0.0
 11
69.316216
 21
1.912017
 31
0.0
  0
LINE
  5
658
330
1F
100
AcDbEntity
  8
1
  6
CONTINUOUS
370
50
 62
4
100
AcDbLine
 10
56.728947
 20
-1.866335
 30
0.0
 11
56.66656099999999
 21
-1.850892
 31
0.0
  0
LINE
  5
659
330
1F
100
AcDbEntity
  8
1
  6
CONTINUOUS
370
50
 62
4
100
AcDbLine
 10
60.221695
 20
0.568296
 30
0.0
 11
59.610813
 21
0.717815
 31
0.0
  0
LINE
  5
65A
330
1F
100
AcDbEntity
  8
1
  6
CONTINUOUS
370
50
 62
4
100
AcDbLine
 10
68.678238
 20
-1.855043
 30
0.0
 11
68.35247
 21
-1.777691
 31
0.0
  0
LINE
  5
65B
330
1F
100
AcDbEntity
  8
1
  6
CONTINUOUS
370
50
 62
4
100
AcDbLine
 10
60.72163399999999
 20
1.786755
 30
0.0
 11
60.44022
 21
1.852996
 31
0.0
  0
LINE
  5
65C
330
1F
100
AcDbEntity
  8
1
  6
CONTINUOUS
370
50
 62
4
100
AcDbLine
 10
57.093262
 20
-1.91413
 30
0.0
 11
57.0
 21
-1.892693
 31
0.0
  0
LINE
  5
65D
330
1F
100
AcDbEntity
  8
1
  6
CONTINUOUS
370
50
 62
4
100
AcDbLine
 10
65.10862
 20
-0.783237
 30
0.0
 11
64.497719
 21
-0.6451509999999999
 31
0.0
  0
LINE
  5
65E
330
1F
100
AcDbEntity
  8
1
  6
CONTINUOUS
370
50
 62
4
100
AcDbLine
 10
61.390606
 20
1.794934
 30
0.0
 11
61.021946
 21
1.877064
 31
0.0
  0
LINE
  5
65F
330
1F
100
AcDbEntity
  8
1
  6
CONTINUOUS
370
50
 62
4
100
AcDbLine
 10
60.966331
 20
1.418822
 30
0.0
 11
60.638611
 21
1.490887
 31
0.0
  0
LINE
  5
660
330
1F
100
AcDbEntity
  8
1
  6
CONTINUOUS
370
50
 62
4
100
AcDbLine
 10
69.051949
 20
-1.778338
 30
0.0
 11
69.0
 21
-1.766978
 31
0.0
  0
LINE
  5
661
330
1F
100
AcDbEntity
  8
1
  6
CONTINUOUS
370
50
 62
4
100
AcDbLine
 10
62.146759
 20
1.647702
 30
0.0
 11
62.090981
 21
1.659614
 31
0.0
  0
LINE
  5
662
330
1F
100
AcDbEntity
  8
1
  6
CONTINUOUS
370
50
 62
4
100
AcDbLine
 10
62.090981
 20
1.659614
 30
0.0
 11
62.035202
 21
1.671478
 31
0.0
  0
LINE
  5
663
330
1F
100
AcDbEntity
  8
1
  6
CONTINUOUS
370
50
 62
4
100
AcDbLine
 10
62.202538
 20
1.635854
 30
0.0
 11
62.146759
 21
1.647702
 31
0.0
  0
LINE
  5
664
330
1F
100
AcDbEntity
  8
1
  6
CONTINUOUS
370
50
 62
4
100
AcDbLine
 10
62.035202
 20
1.671478
 30
0.0
 11
61.97942399999999
 21
1.683282
 31
0.0
  0
LINE
  5
665
330
1F
100
AcDbEntity
  8
1
  6
CONTINUOUS
370
50
 62
4
100
AcDbLine
 10
62.258339
 20
1.624093
 30
0.0
 11
62.202538
 21
1.635854
 31
0.0
  0
LINE
  5
666
330
1F
100
AcDbEntity
  8
1
  6
CONTINUOUS
370
50
 62
4
100
AcDbLine
 10
61.97942399999999
 20
1.683282
 30
0.0
 11
61.93642
 21
1.692342
 31
0.0
  0
LINE
  5
667
330
1F
100
AcDbEntity
  8
1
  6
CONTINUOUS
370
50
 62
4
100
AcDbLine
 10
61.93642
 20
1.692342
 30
0.0
 11
61.882656
 21
1.703619
 31
0.0
  0
LINE
  5
668
330
1F
100
AcDbEntity
  8
1
  6
CONTINUOUS
370
50
 62
4
100
AcDbLine
 10
62.314144
 20
1.612426
 30
0.0
 11
62.258339
 21
1.624093
 31
0.0
  0
LINE
  5
669
330
1F
100
AcDbEntity
  8
1
  6
CONTINUOUS
370
50
 62
4
100
AcDbLine
 10
61.882656
 20
1.703619
 30
0.0
 11
61.828892
 21
1.71484
 31
0.0
  0
LINE
  5
66A
330
1F
100
AcDbEntity
  8
1
  6
CONTINUOUS
370
50
 62
4
100
AcDbLine
 10
61.828892
 20
1.71484
 30
0.0
 11
61.775097
 21
1.726013
 31
0.0
  0
LINE
  5
66B
330
1F
100
AcDbEntity
  8
1
  6
CONTINUOUS
370
50
 62
4
100
AcDbLine
 10
62.369991
 20
1.600844
 30
0.0
 11
62.314144
 21
1.612426
 31
0.0
  0
LINE
  5
66C
330
1F
100
AcDbEntity
  8
1
  6
CONTINUOUS
370
50
 62
4
100
AcDbLine
 10
61.775097
 20
1.726013
 30
0.0
 11
61.72130199999999
 21
1.737131
 31
0.0
  0
LINE
  5
66D
330
1F
100
AcDbEntity
  8
1
  6
CONTINUOUS
370
50
 62
4
100
AcDbLine
 10
62.425835
 20
1.589356
 30
0.0
 11
62.369991
 21
1.600844
 31
0.0
  0
LINE
  5
66E
330
1F
100
AcDbEntity
  8
1
  6
CONTINUOUS
370
50
 62
4
100
AcDbLine
 10
61.72130199999999
 20
1.737131
 30
0.0
 11
61.667461
 21
1.748204
 31
0.0
  0
LINE
  5
66F
330
1F
100
AcDbEntity
  8
1
  6
CONTINUOUS
370
50
 62
4
100
AcDbLine
 10
61.667461
 20
1.748204
 30
0.0
 11
61.61362099999999
 21
1.759224
 31
0.0
  0
LINE
  5
670
330
1F
100
AcDbEntity
  8
1
  6
CONTINUOUS
370
50
 62
4
100
AcDbLine
 10
68.62668599999999
 20
0.684912
 30
0.0
 11
68.024399
 21
0.8078179999999999
 31
0.0
  0
LINE
  5
671
330
1F
100
AcDbEntity
  8
1
  6
CONTINUOUS
370
50
 62
4
100
AcDbLine
 10
62.486954
 20
1.576891
 30
0.0
 11
62.425835
 21
1.589356
 31
0.0
  0
LINE
  5
672
330
1F
100
AcDbEntity
  8
1
  6
CONTINUOUS
370
50
 62
4
100
AcDbLine
 10
61.61362099999999
 20
1.759224
 30
0.0
 11
61.559784
 21
1.770192
 31
0.0
  0
LINE
  5
673
330
1F
100
AcDbEntity
  8
1
  6
CONTINUOUS
370
50
 62
4
100
AcDbLine
 10
59.610813
 20
0.717815
 30
0.0
 11
59.0
 21
0.842042
 31
0.0
  0
LINE
  5
674
330
1F
100
AcDbEntity
  8
1
  6
CONTINUOUS
370
50
 62
4
100
AcDbLine
 10
61.559784
 20
1.770192
 30
0.0
 11
61.50594299999999
 21
1.781107
 31
0.0
  0
LINE
  5
675
330
1F
100
AcDbEntity
  8
1
  6
CONTINUOUS
370
50
 62
4
100
AcDbLine
 10
62.548069
 20
1.564538
 30
0.0
 11
62.486954
 21
1.576891
 31
0.0
  0
LINE
  5
676
330
1F
100
AcDbEntity
  8
1
  6
CONTINUOUS
370
50
 62
4
100
AcDbLine
 10
61.50594299999999
 20
1.781107
 30
0.0
 11
61.44696399999999
 21
1.793007
 31
0.0
  0
LINE
  5
677
330
1F
100
AcDbEntity
  8
1
  6
CONTINUOUS
370
50
 62
4
100
AcDbLine
 10
61.44696399999999
 20
1.793007
 30
0.0
 11
61.393845
 21
1.803673
 31
0.0
  0
LINE
  5
678
330
1F
100
AcDbEntity
  8
1
  6
CONTINUOUS
370
50
 62
4
100
AcDbLine
 10
62.609226
 20
1.552287
 30
0.0
 11
62.548069
 21
1.564538
 31
0.0
  0
LINE
  5
679
330
1F
100
AcDbEntity
  8
1
  6
CONTINUOUS
370
50
 62
4
100
AcDbLine
 10
61.393845
 20
1.803673
 30
0.0
 11
61.340729
 21
1.814291
 31
0.0
  0
LINE
  5
67A
330
1F
100
AcDbEntity
  8
1
  6
CONTINUOUS
370
50
 62
4
100
AcDbLine
 10
61.340729
 20
1.814291
 30
0.0
 11
61.287609
 21
1.824863
 31
0.0
  0
LINE
  5
67B
330
1F
100
AcDbEntity
  8
1
  6
CONTINUOUS
370
50
 62
4
100
AcDbLine
 10
62.67038299999999
 20
1.540145
 30
0.0
 11
62.609226
 21
1.552287
 31
0.0
  0
LINE
  5
67C
330
1F
100
AcDbEntity
  8
1
  6
CONTINUOUS
370
50
 62
4
100
AcDbLine
 10
61.287609
 20
1.824863
 30
0.0
 11
61.234493
 21
1.83539
 31
0.0
  0
LINE
  5
67D
330
1F
100
AcDbEntity
  8
1
  6
CONTINUOUS
370
50
 62
4
100
AcDbLine
 10
60.44022
 20
1.852996
 30
0.0
 11
60.190193
 21
1.902456
 31
0.0
  0
LINE
  5
67E
330
1F
100
AcDbEntity
  8
1
  6
CONTINUOUS
370
50
 62
4
100
AcDbLine
 10
61.234493
 20
1.83539
 30
0.0
 11
61.181355
 21
1.845876
 31
0.0
  0
LINE
  5
67F
330
1F
100
AcDbEntity
  8
1
  6
CONTINUOUS
370
50
 62
4
100
AcDbLine
 10
62.731571
 20
1.528106
 30
0.0
 11
62.67038299999999
 21
1.540145
 31
0.0
  0
LINE
  5
680
330
1F
100
AcDbEntity
  8
1
  6
CONTINUOUS
370
50
 62
4
100
AcDbLine
 10
61.181355
 20
1.845876
 30
0.0
 11
61.12821599999999
 21
1.856319
 31
0.0
  0
LINE
  5
681
330
1F
100
AcDbEntity
  8
1
  6
CONTINUOUS
370
50
 62
4
100
AcDbLine
 10
61.12821599999999
 20
1.856319
 30
0.0
 11
61.075081
 21
1.86672
 31
0.0
  0
LINE
  5
682
330
1F
100
AcDbEntity
  8
1
  6
CONTINUOUS
370
50
 62
4
100
AcDbLine
 10
62.79276299999999
 20
1.516174
 30
0.0
 11
62.731571
 21
1.528106
 31
0.0
  0
LINE
  5
683
330
1F
100
AcDbEntity
  8
1
  6
CONTINUOUS
370
50
 62
4
100
AcDbLine
 10
61.075081
 20
1.86672
 30
0.0
 11
61.021942
 21
1.877079
 31
0.0
  0
LINE
  5
684
330
1F
100
AcDbEntity
  8
1
  6
CONTINUOUS
370
50
 62
4
100
AcDbLine
 10
62.853981
 20
1.504343
 30
0.0
 11
62.79276299999999
 21
1.516174
 31
0.0
  0
LINE
  5
685
330
1F
100
AcDbEntity
  8
1
  6
CONTINUOUS
370
50
 62
4
100
AcDbLine
 10
69.0
 20
-1.916878
 30
0.0
 11
68.678238
 21
-1.855043
 31
0.0
  0
LINE
  5
686
330
1F
100
AcDbEntity
  8
1
  6
CONTINUOUS
370
50
 62
4
100
AcDbLine
 10
62.91519899999999
 20
1.492615
 30
0.0
 11
62.853981
 21
1.504343
 31
0.0
  0
LINE
  5
687
330
1F
100
AcDbEntity
  8
1
  6
CONTINUOUS
370
50
 62
4
100
AcDbLine
 10
62.97636
 20
1.481001
 30
0.0
 11
62.91519899999999
 21
1.492615
 31
0.0
  0
LINE
  5
688
330
1F
100
AcDbEntity
  8
1
  6
CONTINUOUS
370
50
 62
4
100
AcDbLine
 10
63.037521
 20
1.469486
 30
0.0
 11
62.97636
 21
1.481001
 31
0.0
  0
LINE
  5
689
330
1F
100
AcDbEntity
  8
1
  6
CONTINUOUS
370
50
 62
4
100
AcDbLine
 10
57.18960999999999
 20
-1.932129
 30
0.0
 11
57.093262
 21
-1.91413
 31
0.0
  0
LINE
  5
68A
330
1F
100
AcDbEntity
  8
1
  6
CONTINUOUS
370
50
 62
4
100
AcDbLine
 10
63.09868599999999
 20
1.45807
 30
0.0
 11
63.037521
 21
1.469486
 31
0.0
  0
LINE
  5
68B
330
1F
100
AcDbEntity
  8
1
  6
CONTINUOUS
370
50
 62
4
100
AcDbLine
 10
63.159847
 20
1.44675
 30
0.0
 11
63.09868599999999
 21
1.45807
 31
0.0
  0
LINE
  5
68C
330
1F
100
AcDbEntity
  8
1
  6
CONTINUOUS
370
50
 62
4
100
AcDbLine
 10
63.221031
 20
1.435521
 30
0.0
 11
63.159847
 21
1.44675
 31
0.0
  0
LINE
  5
68D
330
1F
100
AcDbEntity
  8
1
  6
CONTINUOUS
370
50
 62
4
100
AcDbLine
 10
60.638611
 20
1.490887
 30
0.0
 11
60.310883
 21
1.550573
 31
0.0
  0
LINE
  5
68E
330
1F
100
AcDbEntity
  8
1
  6
CONTINUOUS
370
50
 62
4
100
AcDbLine
 10
63.28221499999999
 20
1.424384
 30
0.0
 11
63.221031
 21
1.435521
 31
0.0
  0
LINE
  5
68F
330
1F
100
AcDbEntity
  8
1
  6
CONTINUOUS
370
50
 62
4
100
AcDbLine
 10
56.793663
 20
-1.878048
 30
0.0
 11
56.728947
 21
-1.866335
 31
0.0
  0
LINE
  5
690
330
1F
100
AcDbEntity
  8
1
  6
CONTINUOUS
370
50
 62
4
100
AcDbLine
 10
63.343399
 20
1.413337
 30
0.0
 11
63.28221499999999
 21
1.424384
 31
0.0
  0
LINE
  5
691
330
1F
100
AcDbEntity
  8
1
  6
CONTINUOUS
370
50
 62
4
100
AcDbLine
 10
63.404583
 20
1.40238
 30
0.0
 11
63.343399
 21
1.413337
 31
0.0
  0
LINE
  5
692
330
1F
100
AcDbEntity
  8
1
  6
CONTINUOUS
370
50
 62
4
100
AcDbLine
 10
61.021946
 20
1.877064
 30
0.0
 11
60.814758
 21
1.91415
 31
0.0
  0
LINE
  5
693
330
1F
100
AcDbEntity
  8
1
  6
CONTINUOUS
370
50
 62
4
100
AcDbLine
 10
65.719528
 20
-0.8922319999999999
 30
0.0
 11
65.10862
 21
-0.783237
 31
0.0
  0
LINE
  5
694
330
1F
100
AcDbEntity
  8
1
  6
CONTINUOUS
370
50
 62
4
100
AcDbLine
 10
69.316216
 20
1.912017
 30
0.0
 11
69.264404
 21
1.92125
 31
0.0
  0
LINE
  5
695
330
1F
100
AcDbEntity
  8
1
  6
CONTINUOUS
370
50
 62
4
100
AcDbLine
 10
63.465778
 20
1.391507
 30
0.0
 11
63.404583
 21
1.40238
 31
0.0
  0
LINE
  5
696
330
1F
100
AcDbEntity
  8
1
  6
CONTINUOUS
370
50
 62
4
100
AcDbLine
 10
63.526978
 20
1.38072
 30
0.0
 11
63.465778
 21
1.391507
 31
0.0
  0
LINE
  5
697
330
1F
100
AcDbEntity
  8
1
  6
CONTINUOUS
370
50
 62
4
100
AcDbLine
 10
63.588173
 20
1.370016
 30
0.0
 11
63.526978
 21
1.38072
 31
0.0
  0
LINE
  5
698
330
1F
100
AcDbEntity
  8
1
  6
CONTINUOUS
370
50
 62
4
100
AcDbLine
 10
63.649372
 20
1.359395
 30
0.0
 11
63.588173
 21
1.370016
 31
0.0
  0
LINE
  5
699
330
1F
100
AcDbEntity
  8
1
  6
CONTINUOUS
370
50
 62
4
100
AcDbLine
 10
63.710537
 20
1.34886
 30
0.0
 11
63.649372
 21
1.359395
 31
0.0
  0
LINE
  5
69A
330
1F
100
AcDbEntity
  8
1
  6
CONTINUOUS
370
50
 62
4
100
AcDbLine
 10
64.106476
 20
-0.953857
 30
0.0
 11
62.71199799999999
 21
-0.7147169999999999
 31
0.0
  0
LINE
  5
69B
330
1F
100
AcDbEntity
  8
1
  6
CONTINUOUS
370
50
 62
4
100
AcDbLine
 10
63.77170599999999
 20
1.338405
 30
0.0
 11
63.710537
 21
1.34886
 31
0.0
  0
LINE
  5
69C
330
1F
100
AcDbEntity
  8
1
  6
CONTINUOUS
370
50
 62
4
100
AcDbLine
 10
63.83287
 20
1.328029
 30
0.0
 11
63.77170599999999
 21
1.338405
 31
0.0
  0
LINE
  5
69D
330
1F
100
AcDbEntity
  8
1
  6
CONTINUOUS
370
50
 62
4
100
AcDbLine
 10
68.024399
 20
0.8078179999999999
 30
0.0
 11
67.44045299999999
 21
0.906492
 31
0.0
  0
LINE
  5
69E
330
1F
100
AcDbEntity
  8
1
  6
CONTINUOUS
370
50
 62
4
100
AcDbLine
 10
63.894039
 20
1.317731
 30
0.0
 11
63.83287
 21
1.328029
 31
0.0
  0
LINE
  5
69F
330
1F
100
AcDbEntity
  8
1
  6
CONTINUOUS
370
50
 62
4
100
AcDbLine
 10
63.953453
 20
1.307804
 30
0.0
 11
63.894039
 21
1.317731
 31
0.0
  0
LINE
  5
6A0
330
1F
100
AcDbEntity
  8
1
  6
CONTINUOUS
370
50
 62
4
100
AcDbLine
 10
64.012871
 20
1.297949
 30
0.0
 11
63.953453
 21
1.307804
 31
0.0
  0
LINE
  5
6A1
330
1F
100
AcDbEntity
  8
1
  6
CONTINUOUS
370
50
 62
4
100
AcDbLine
 10
64.07225
 20
1.288174
 30
0.0
 11
64.012871
 21
1.297949
 31
0.0
  0
LINE
  5
6A2
330
1F
100
AcDbEntity
  8
1
  6
CONTINUOUS
370
50
 62
4
100
AcDbLine
 10
64.131638
 20
1.278473
 30
0.0
 11
64.07225
 21
1.288174
 31
0.0
  0
LINE
  5
6A3
330
1F
100
AcDbEntity
  8
1
  6
CONTINUOUS
370
50
 62
4
100
AcDbLine
 10
60.190193
 20
1.902456
 30
0.0
 11
59.973042
 21
1.937806
 31
0.0
  0
LINE
  5
6A4
330
1F
100
AcDbEntity
  8
1
  6
CONTINUOUS
370
50
 62
4
100
AcDbLine
 10
64.190979
 20
1.268852
 30
0.0
 11
64.131638
 21
1.278473
 31
0.0
  0
LINE
  5
6A5
330
1F
100
AcDbEntity
  8
1
  6
CONTINUOUS
370
50
 62
4
100
AcDbLine
 10
69.830238
 20
-1.339364
 30
0.0
 11
69.819565
 21
-1.337645
 31
0.0
  0
LINE
  5
6A6
330
1F
100
AcDbEntity
  8
1
  6
CONTINUOUS
370
50
 62
4
100
AcDbLine
 10
64.25032
 20
1.259308
 30
0.0
 11
64.190979
 21
1.268852
 31
0.0
  0
LINE
  5
6A7
330
1F
100
AcDbEntity
  8
1
  6
CONTINUOUS
370
50
 62
4
100
AcDbLine
 10
64.309601
 20
1.249849
 30
0.0
 11
64.25032
 21
1.259308
 31
0.0
  0
LINE
  5
6A8
330
1F
100
AcDbEntity
  8
1
  6
CONTINUOUS
370
50
 62
4
100
AcDbLine
 10
64.368881
 20
1.240469
 30
0.0
 11
64.309601
 21
1.249849
 31
0.0
  0
LINE
  5
6A9
330
1F
100
AcDbEntity
  8
1
  6
CONTINUOUS
370
50
 62
4
100
AcDbLine
 10
64.42703999999999
 20
1.231345
 30
0.0
 11
64.368881
 21
1.240469
 31
0.0
  0
LINE
  5
6AA
330
1F
100
AcDbEntity
  8
1
  6
CONTINUOUS
370
50
 62
4
100
AcDbLine
 10
64.485115
 20
1.222313
 30
0.0
 11
64.42703999999999
 21
1.231345
 31
0.0
  0
LINE
  5
6AB
330
1F
100
AcDbEntity
  8
1
  6
CONTINUOUS
370
50
 62
4
100
AcDbLine
 10
64.543221
 20
1.213393
 30
0.0
 11
64.485115
 21
1.222313
 31
0.0
  0
LINE
  5
6AC
330
1F
100
AcDbEntity
  8
1
  6
CONTINUOUS
370
50
 62
4
100
AcDbLine
 10
57.288746
 20
-1.947055
 30
0.0
 11
57.18960999999999
 21
-1.932129
 31
0.0
  0
LINE
  5
6AD
330
1F
100
AcDbEntity
  8
1
  6
CONTINUOUS
370
50
 62
4
100
AcDbLine
 10
64.601334
 20
1.204686
 30
0.0
 11
64.543221
 21
1.213393
 31
0.0
  0
LINE
  5
6AE
330
1F
100
AcDbEntity
  8
1
  6
CONTINUOUS
370
50
 62
4
100
AcDbLine
 10
60.814758
 20
1.91415
 30
0.0
 11
60.608128
 21
1.944698
 31
0.0
  0
LINE
  5
6AF
330
1F
100
AcDbEntity
  8
1
  6
CONTINUOUS
370
50
 62
4
100
AcDbLine
 10
64.659477
 20
1.196187
 30
0.0
 11
64.601334
 21
1.204686
 31
0.0
  0
LINE
  5
6B0
330
1F
100
AcDbEntity
  8
1
  6
CONTINUOUS
370
50
 62
4
100
AcDbLine
 10
64.717613
 20
1.187901
 30
0.0
 11
64.659477
 21
1.196187
 31
0.0
  0
LINE
  5
6B1
330
1F
100
AcDbEntity
  8
1
  6
CONTINUOUS
370
50
 62
4
100
AcDbLine
 10
60.310883
 20
1.550573
 30
0.0
 11
59.983158
 21
1.59723
 31
0.0
  0
LINE
  5
6B2
330
1F
100
AcDbEntity
  8
1
  6
CONTINUOUS
370
50
 62
4
100
AcDbLine
 10
69.157028
 20
0.953726
 30
0.0
 11
69.156792
 21
0.9537589999999999
 31
0.0
  0
LINE
  5
6B3
330
1F
100
AcDbEntity
  8
1
  6
CONTINUOUS
370
50
 62
4
100
AcDbLine
 10
69.156792
 20
0.9537589999999999
 30
0.0
 11
69.156555
 21
0.953792
 31
0.0
  0
LINE
  5
6B4
330
1F
100
AcDbEntity
  8
1
  6
CONTINUOUS
370
50
 62
4
100
AcDbLine
 10
69.053398
 20
-1.924298
 30
0.0
 11
69.0
 21
-1.916878
 31
0.0
  0
LINE
  5
6B5
330
1F
100
AcDbEntity
  8
1
  6
CONTINUOUS
370
50
 62
4
100
AcDbLine
 10
64.775803
 20
1.179818
 30
0.0
 11
64.717613
 21
1.187901
 31
0.0
  0
LINE
  5
6B6
330
1F
100
AcDbEntity
  8
1
  6
CONTINUOUS
370
50
 62
4
100
AcDbLine
 10
67.44045299999999
 20
0.906492
 30
0.0
 11
66.87538099999999
 21
0.984945
 31
0.0
  0
LINE
  5
6B7
330
1F
100
AcDbEntity
  8
1
  6
CONTINUOUS
370
50
 62
4
100
AcDbLine
 10
69.157501
 20
0.953662
 30
0.0
 11
69.157265
 21
0.9536939999999999
 31
0.0
  0
LINE
  5
6B8
330
1F
100
AcDbEntity
  8
1
  6
CONTINUOUS
370
50
 62
4
100
AcDbLine
 10
64.833984
 20
1.171943
 30
0.0
 11
64.775803
 21
1.179818
 31
0.0
  0
LINE
  5
6B9
330
1F
100
AcDbEntity
  8
1
  6
CONTINUOUS
370
50
 62
4
100
AcDbLine
 10
66.33036
 20
-0.9747969999999999
 30
0.0
 11
65.719528
 21
-0.8922319999999999
 31
0.0
  0
LINE
  5
6BA
330
1F
100
AcDbEntity
  8
1
  6
CONTINUOUS
370
50
 62
4
100
AcDbLine
 10
69.157738
 20
0.95363
 30
0.0
 11
69.157501
 21
0.953662
 31
0.0
  0
LINE
  5
6BB
330
1F
100
AcDbEntity
  8
1
  6
CONTINUOUS
370
50
 62
4
100
AcDbLine
 10
69.157265
 20
0.9536939999999999
 30
0.0
 11
69.157028
 21
0.953726
 31
0.0
  0
LINE
  5
6BC
330
1F
100
AcDbEntity
  8
1
  6
CONTINUOUS
370
50
 62
4
100
AcDbLine
 10
64.87288699999999
 20
1.166791
 30
0.0
 11
64.833984
 21
1.171943
 31
0.0
  0
LINE
  5
6BD
330
1F
100
AcDbEntity
  8
1
  6
CONTINUOUS
370
50
 62
4
100
AcDbLine
 10
69.157974
 20
0.953599
 30
0.0
 11
69.157738
 21
0.95363
 31
0.0
  0
LINE
  5
6BE
330
1F
100
AcDbEntity
  8
1
  6
CONTINUOUS
370
50
 62
4
100
AcDbLine
 10
59.973042
 20
1.937806
 30
0.0
 11
59.790237
 21
1.961715
 31
0.0
  0
LINE
  5
6BF
330
1F
100
AcDbEntity
  8
1
  6
CONTINUOUS
370
50
 62
4
100
AcDbLine
 10
64.927872
 20
1.159664
 30
0.0
 11
64.87288699999999
 21
1.166791
 31
0.0
  0
LINE
  5
6C0
330
1F
100
AcDbEntity
  8
1
  6
CONTINUOUS
370
50
 62
4
100
AcDbLine
 10
64.982857
 20
1.152717
 30
0.0
 11
64.927872
 21
1.159664
 31
0.0
  0
LINE
  5
6C1
330
1F
100
AcDbEntity
  8
1
  6
CONTINUOUS
370
50
 62
4
100
AcDbLine
 10
65.037872
 20
1.145943
 30
0.0
 11
64.982857
 21
1.152717
 31
0.0
  0
LINE
  5
6C2
330
1F
100
AcDbEntity
  8
1
  6
CONTINUOUS
370
50
 62
4
100
AcDbLine
 10
56.86049999999999
 20
-1.886204
 30
0.0
 11
56.793663
 21
-1.878048
 31
0.0
  0
LINE
  5
6C3
330
1F
100
AcDbEntity
  8
1
  6
CONTINUOUS
370
50
 62
4
100
AcDbLine
 10
69.156555
 20
0.953792
 30
0.0
 11
68.909004
 21
0.9835729999999999
 31
0.0
  0
LINE
  5
6C4
330
1F
100
AcDbEntity
  8
1
  6
CONTINUOUS
370
50
 62
4
100
AcDbLine
 10
57.390499
 20
-1.959286
 30
0.0
 11
57.288746
 21
-1.947055
 31
0.0
  0
LINE
  5
6C5
330
1F
100
AcDbEntity
  8
1
  6
CONTINUOUS
370
50
 62
4
100
AcDbLine
 10
65.09288
 20
1.139344
 30
0.0
 11
65.037872
 21
1.145943
 31
0.0
  0
LINE
  5
6C6
330
1F
100
AcDbEntity
  8
1
  6
CONTINUOUS
370
50
 62
4
100
AcDbLine
 10
59.165493
 20
-1.965414
 30
0.0
 11
59.0
 21
-1.945664
 31
0.0
  0
LINE
  5
6C7
330
1F
100
AcDbEntity
  8
1
  6
CONTINUOUS
370
50
 62
4
100
AcDbLine
 10
64.562073
 20
-1.008028
 30
0.0
 11
64.106476
 21
-0.953857
 31
0.0
  0
LINE
  5
6C8
330
1F
100
AcDbEntity
  8
1
  6
CONTINUOUS
370
50
 62
4
100
AcDbLine
 10
65.147926
 20
1.132914
 30
0.0
 11
65.09288
 21
1.139344
 31
0.0
  0
LINE
  5
6C9
330
1F
100
AcDbEntity
  8
1
  6
CONTINUOUS
370
50
 62
4
100
AcDbLine
 10
60.608128
 20
1.944698
 30
0.0
 11
60.40277099999999
 21
1.96863
 31
0.0
  0
LINE
  5
6CA
330
1F
100
AcDbEntity
  8
1
  6
CONTINUOUS
370
50
 62
4
100
AcDbLine
 10
65.20298
 20
1.126655
 30
0.0
 11
65.147926
 21
1.132914
 31
0.0
  0
LINE
  5
6CB
330
1F
100
AcDbEntity
  8
1
  6
CONTINUOUS
370
50
 62
4
100
AcDbLine
 10
65.258026
 20
1.120564
 30
0.0
 11
65.20298
 21
1.126655
 31
0.0
  0
LINE
  5
6CC
330
1F
100
AcDbEntity
  8
1
  6
CONTINUOUS
370
50
 62
4
100
AcDbLine
 10
69.264404
 20
1.92125
 30
0.0
 11
69.212166
 21
1.927022
 31
0.0
  0
LINE
  5
6CD
330
1F
100
AcDbEntity
  8
1
  6
CONTINUOUS
370
50
 62
4
100
AcDbLine
 10
65.31307199999999
 20
1.114639
 30
0.0
 11
65.258026
 21
1.120564
 31
0.0
  0
LINE
  5
6CE
330
1F
100
AcDbEntity
  8
1
  6
CONTINUOUS
370
50
 62
4
100
AcDbLine
 10
65.362213
 20
1.109489
 30
0.0
 11
65.31307199999999
 21
1.114639
 31
0.0
  0
LINE
  5
6CF
330
1F
100
AcDbEntity
  8
1
  6
CONTINUOUS
370
50
 62
4
100
AcDbLine
 10
59.790237
 20
1.961715
 30
0.0
 11
59.643158
 21
1.976861
 31
0.0
  0
LINE
  5
6D0
330
1F
100
AcDbEntity
  8
1
  6
CONTINUOUS
370
50
 62
4
100
AcDbLine
 10
65.416924
 20
1.103909
 30
0.0
 11
65.362213
 21
1.109489
 31
0.0
  0
LINE
  5
6D1
330
1F
100
AcDbEntity
  8
1
  6
CONTINUOUS
370
50
 62
4
100
AcDbLine
 10
69.10649099999999
 20
-1.783839
 30
0.0
 11
69.051949
 21
-1.778338
 31
0.0
  0
LINE
  5
6D2
330
1F
100
AcDbEntity
  8
1
  6
CONTINUOUS
370
50
 62
4
100
AcDbLine
 10
59.983158
 20
1.59723
 30
0.0
 11
59.655437
 21
1.630122
 31
0.0
  0
LINE
  5
6D3
330
1F
100
AcDbEntity
  8
1
  6
CONTINUOUS
370
50
 62
4
100
AcDbLine
 10
65.471634
 20
1.098488
 30
0.0
 11
65.416924
 21
1.103909
 31
0.0
  0
LINE
  5
6D4
330
1F
100
AcDbEntity
  8
1
  6
CONTINUOUS
370
50
 62
4
100
AcDbLine
 10
68.909004
 20
0.9835729999999999
 30
0.0
 11
68.661461
 21
1.007709
 31
0.0
  0
LINE
  5
6D5
330
1F
100
AcDbEntity
  8
1
  6
CONTINUOUS
370
50
 62
4
100
AcDbLine
 10
65.526344
 20
1.093225
 30
0.0
 11
65.471634
 21
1.098488
 31
0.0
  0
LINE
  5
6D6
330
1F
100
AcDbEntity
  8
1
  6
CONTINUOUS
370
50
 62
4
100
AcDbLine
 10
57.494572
 20
-1.969229
 30
0.0
 11
57.390499
 21
-1.959286
 31
0.0
  0
LINE
  5
6D7
330
1F
100
AcDbEntity
  8
1
  6
CONTINUOUS
370
50
 62
4
100
AcDbLine
 10
59.319969
 20
-1.980031
 30
0.0
 11
59.165493
 21
-1.965414
 31
0.0
  0
LINE
  5
6D8
330
1F
100
AcDbEntity
  8
1
  6
CONTINUOUS
370
50
 62
4
100
AcDbLine
 10
65.58105499999999
 20
1.088117
 30
0.0
 11
65.526344
 21
1.093225
 31
0.0
  0
LINE
  5
6D9
330
1F
100
AcDbEntity
  8
1
  6
CONTINUOUS
370
50
 62
4
100
AcDbLine
 10
64.689583
 20
-1.019913
 30
0.0
 11
64.562073
 21
-1.008028
 31
0.0
  0
LINE
  5
6DA
330
1F
100
AcDbEntity
  8
1
  6
CONTINUOUS
370
50
 62
4
100
AcDbLine
 10
65.63576499999999
 20
1.083164
 30
0.0
 11
65.58105499999999
 21
1.088117
 31
0.0
  0
LINE
  5
6DB
330
1F
100
AcDbEntity
  8
1
  6
CONTINUOUS
370
50
 62
4
100
AcDbLine
 10
65.69047499999999
 20
1.078364
 30
0.0
 11
65.63576499999999
 21
1.083164
 31
0.0
  0
LINE
  5
6DC
330
1F
100
AcDbEntity
  8
1
  6
CONTINUOUS
370
50
 62
4
100
AcDbLine
 10
66.87538099999999
 20
0.984945
 30
0.0
 11
66.28456899999999
 21
1.035898
 31
0.0
  0
LINE
  5
6DD
330
1F
100
AcDbEntity
  8
1
  6
CONTINUOUS
370
50
 62
4
100
AcDbLine
 10
65.745186
 20
1.073716
 30
0.0
 11
65.69047499999999
 21
1.078364
 31
0.0
  0
LINE
  5
6DE
330
1F
100
AcDbEntity
  8
1
  6
CONTINUOUS
370
50
 62
4
100
AcDbLine
 10
60.40277099999999
 20
1.96863
 30
0.0
 11
60.199093
 21
1.985887
 31
0.0
  0
LINE
  5
6DF
330
1F
100
AcDbEntity
  8
1
  6
CONTINUOUS
370
50
 62
4
100
AcDbLine
 10
65.799904
 20
1.069219
 30
0.0
 11
65.745186
 21
1.073716
 31
0.0
  0
LINE
  5
6E0
330
1F
100
AcDbEntity
  8
1
  6
CONTINUOUS
370
50
 62
4
100
AcDbLine
 10
65.851593
 20
1.065108
 30
0.0
 11
65.799904
 21
1.069219
 31
0.0
  0
LINE
  5
6E1
330
1F
100
AcDbEntity
  8
1
  6
CONTINUOUS
370
50
 62
4
100
AcDbLine
 10
69.106613
 20
-1.928491
 30
0.0
 11
69.053398
 21
-1.924298
 31
0.0
  0
LINE
  5
6E2
330
1F
100
AcDbEntity
  8
1
  6
CONTINUOUS
370
50
 62
4
100
AcDbLine
 10
59.643158
 20
1.976861
 30
0.0
 11
59.511463
 21
1.987173
 31
0.0
  0
LINE
  5
6E3
330
1F
100
AcDbEntity
  8
1
  6
CONTINUOUS
370
50
 62
4
100
AcDbLine
 10
64.817467
 20
-1.029857
 30
0.0
 11
64.689583
 21
-1.019913
 31
0.0
  0
LINE
  5
6E4
330
1F
100
AcDbEntity
  8
1
  6
CONTINUOUS
370
50
 62
4
100
AcDbLine
 10
65.905731
 20
1.060947
 30
0.0
 11
65.851593
 21
1.065108
 31
0.0
  0
LINE
  5
6E5
330
1F
100
AcDbEntity
  8
1
  6
CONTINUOUS
370
50
 62
4
100
AcDbLine
 10
68.661461
 20
1.007709
 30
0.0
 11
68.41391
 21
1.026426
 31
0.0
  0
LINE
  5
6E6
330
1F
100
AcDbEntity
  8
1
  6
CONTINUOUS
370
50
 62
4
100
AcDbLine
 10
57.600719
 20
-1.97718
 30
0.0
 11
57.494572
 21
-1.969229
 31
0.0
  0
LINE
  5
6E7
330
1F
100
AcDbEntity
  8
1
  6
CONTINUOUS
370
50
 62
4
100
AcDbLine
 10
65.959862
 20
1.056931
 30
0.0
 11
65.905731
 21
1.060947
 31
0.0
  0
LINE
  5
6E8
330
1F
100
AcDbEntity
  8
1
  6
CONTINUOUS
370
50
 62
4
100
AcDbLine
 10
66.014
 20
1.053061
 30
0.0
 11
65.959862
 21
1.056931
 31
0.0
  0
LINE
  5
6E9
330
1F
100
AcDbEntity
  8
1
  6
CONTINUOUS
370
50
 62
4
100
AcDbLine
 10
59.463604
 20
-1.990147
 30
0.0
 11
59.319969
 21
-1.980031
 31
0.0
  0
LINE
  5
6EA
330
1F
100
AcDbEntity
  8
1
  6
CONTINUOUS
370
50
 62
4
100
AcDbLine
 10
56.929287
 20
-1.891007
 30
0.0
 11
56.86049999999999
 21
-1.886204
 31
0.0
  0
LINE
  5
6EB
330
1F
100
AcDbEntity
  8
1
  6
CONTINUOUS
370
50
 62
4
100
AcDbLine
 10
66.06813799999999
 20
1.049336
 30
0.0
 11
66.014
 21
1.053061
 31
0.0
  0
LINE
  5
6EC
330
1F
100
AcDbEntity
  8
1
  6
CONTINUOUS
370
50
 62
4
100
AcDbLine
 10
66.122246
 20
1.045759
 30
0.0
 11
66.06813799999999
 21
1.049336
 31
0.0
  0
LINE
  5
6ED
330
1F
100
AcDbEntity
  8
1
  6
CONTINUOUS
370
50
 62
4
100
AcDbLine
 10
66.17635299999999
 20
1.042327
 30
0.0
 11
66.122246
 21
1.045759
 31
0.0
  0
LINE
  5
6EE
330
1F
100
AcDbEntity
  8
1
  6
CONTINUOUS
370
50
 62
4
100
AcDbLine
 10
64.94562499999999
 20
-1.037978
 30
0.0
 11
64.817467
 21
-1.029857
 31
0.0
  0
LINE
  5
6EF
330
1F
100
AcDbEntity
  8
1
  6
CONTINUOUS
370
50
 62
4
100
AcDbLine
 10
66.23046099999999
 20
1.039041
 30
0.0
 11
66.17635299999999
 21
1.042327
 31
0.0
  0
LINE
  5
6F0
330
1F
100
AcDbEntity
  8
1
  6
CONTINUOUS
370
50
 62
4
100
AcDbLine
 10
66.28456899999999
 20
1.035901
 30
0.0
 11
66.23046099999999
 21
1.039041
 31
0.0
  0
LINE
  5
6F1
330
1F
100
AcDbEntity
  8
1
  6
CONTINUOUS
370
50
 62
4
100
AcDbLine
 10
57.708778
 20
-1.983395
 30
0.0
 11
57.600719
 21
-1.97718
 31
0.0
  0
LINE
  5
6F2
330
1F
100
AcDbEntity
  8
1
  6
CONTINUOUS
370
50
 62
4
100
AcDbLine
 10
59.511463
 20
1.987173
 30
0.0
 11
59.37927999999999
 21
1.994409
 31
0.0
  0
LINE
  5
6F3
330
1F
100
AcDbEntity
  8
1
  6
CONTINUOUS
370
50
 62
4
100
AcDbLine
 10
68.41391
 20
1.026426
 30
0.0
 11
68.16635099999999
 21
1.039945
 31
0.0
  0
LINE
  5
6F4
330
1F
100
AcDbEntity
  8
1
  6
CONTINUOUS
370
50
 62
4
100
AcDbLine
 10
59.655437
 20
1.630122
 30
0.0
 11
59.327717
 21
1.647563
 31
0.0
  0
LINE
  5
6F5
330
1F
100
AcDbEntity
  8
1
  6
CONTINUOUS
370
50
 62
4
100
AcDbLine
 10
60.199093
 20
1.985887
 30
0.0
 11
59.996281
 21
1.996401
 31
0.0
  0
LINE
  5
6F6
330
1F
100
AcDbEntity
  8
1
  6
CONTINUOUS
370
50
 62
4
100
AcDbLine
 10
69.181671
 20
0.9523969999999999
 30
0.0
 11
69.157974
 21
0.953599
 31
0.0
  0
LINE
  5
6F7
330
1F
100
AcDbEntity
  8
1
  6
CONTINUOUS
370
50
 62
4
100
AcDbLine
 10
65.073921
 20
-1.044398
 30
0.0
 11
64.94562499999999
 21
-1.037978
 31
0.0
  0
LINE
  5
6F8
330
1F
100
AcDbEntity
  8
1
  6
CONTINUOUS
370
50
 62
4
100
AcDbLine
 10
59.596569
 20
-1.996395
 30
0.0
 11
59.463604
 21
-1.990147
 31
0.0
  0
LINE
  5
6F9
330
1F
100
AcDbEntity
  8
1
  6
CONTINUOUS
370
50
 62
4
100
AcDbLine
 10
69.212166
 20
1.927022
 30
0.0
 11
69.159561
 21
1.929413
 31
0.0
  0
LINE
  5
6FA
330
1F
100
AcDbEntity
  8
1
  6
CONTINUOUS
370
50
 62
4
100
AcDbLine
 10
57.81858099999999
 20
-1.988132
 30
0.0
 11
57.708778
 21
-1.983395
 31
0.0
  0
LINE
  5
6FB
330
1F
100
AcDbEntity
  8
1
  6
CONTINUOUS
370
50
 62
4
100
AcDbLine
 10
65.202255
 20
-1.049236
 30
0.0
 11
65.073921
 21
-1.044398
 31
0.0
  0
LINE
  5
6FC
330
1F
100
AcDbEntity
  8
1
  6
CONTINUOUS
370
50
 62
4
100
AcDbLine
 10
68.16635099999999
 20
1.039945
 30
0.0
 11
67.91877
 21
1.048465
 31
0.0
  0
LINE
  5
6FD
330
1F
100
AcDbEntity
  8
1
  6
CONTINUOUS
370
50
 62
4
100
AcDbLine
 10
59.37927999999999
 20
1.994409
 30
0.0
 11
59.24673499999999
 21
1.998629
 31
0.0
  0
LINE
  5
6FE
330
1F
100
AcDbEntity
  8
1
  6
CONTINUOUS
370
50
 62
4
100
AcDbLine
 10
57.92997
 20
-1.991646
 30
0.0
 11
57.81858099999999
 21
-1.988132
 31
0.0
  0
LINE
  5
6FF
330
1F
100
AcDbEntity
  8
1
  6
CONTINUOUS
370
50
 62
4
100
AcDbLine
 10
69.84094999999999
 20
-1.339659
 30
0.0
 11
69.830238
 21
-1.339364
 31
0.0
  0
LINE
  5
700
330
1F
100
AcDbEntity
  8
1
  6
CONTINUOUS
370
50
 62
4
100
AcDbLine
 10
65.333626
 20
-1.052691
 30
0.0
 11
65.202255
 21
-1.049236
 31
0.0
  0
LINE
  5
701
330
1F
100
AcDbEntity
  8
1
  6
CONTINUOUS
370
50
 62
4
100
AcDbLine
 10
59.719044
 20
-1.999409
 30
0.0
 11
59.596569
 21
-1.996395
 31
0.0
  0
LINE
  5
702
330
1F
100
AcDbEntity
  8
1
  6
CONTINUOUS
370
50
 62
4
100
AcDbLine
 10
57.0
 20
-1.892693
 30
0.0
 11
56.929287
 21
-1.891007
 31
0.0
  0
LINE
  5
703
330
1F
100
AcDbEntity
  8
1
  6
CONTINUOUS
370
50
 62
4
100
AcDbLine
 10
58.04277399999999
 20
-1.994196
 30
0.0
 11
57.92997
 21
-1.991646
 31
0.0
  0
LINE
  5
704
330
1F
100
AcDbEntity
  8
1
  6
CONTINUOUS
370
50
 62
4
100
AcDbLine
 10
59.01899299999999
 20
-1.999027
 30
0.0
 11
59.0
 21
-1.998677
 31
0.0
  0
LINE
  5
705
330
1F
100
AcDbEntity
  8
1
  6
CONTINUOUS
370
50
 62
4
100
AcDbLine
 10
59.996281
 20
1.996401
 30
0.0
 11
59.797634
 21
1.999958
 31
0.0
  0
LINE
  5
706
330
1F
100
AcDbEntity
  8
1
  6
CONTINUOUS
370
50
 62
4
100
AcDbLine
 10
69.159561
 20
-1.929413
 30
0.0
 11
69.106613
 21
-1.928491
 31
0.0
  0
LINE
  5
707
330
1F
100
AcDbEntity
  8
1
  6
CONTINUOUS
370
50
 62
4
100
AcDbLine
 10
58.156834
 20
-1.996038
 30
0.0
 11
58.04277399999999
 21
-1.994196
 31
0.0
  0
LINE
  5
708
330
1F
100
AcDbEntity
  8
1
  6
CONTINUOUS
370
50
 62
4
100
AcDbLine
 10
59.037991
 20
-1.999318
 30
0.0
 11
59.01899299999999
 21
-1.999027
 31
0.0
  0
LINE
  5
709
330
1F
100
AcDbEntity
  8
1
  6
CONTINUOUS
370
50
 62
4
100
AcDbLine
 10
65.47023
 20
-1.05478
 30
0.0
 11
65.333626
 21
-1.052691
 31
0.0
  0
LINE
  5
70A
330
1F
100
AcDbEntity
  8
1
  6
CONTINUOUS
370
50
 62
4
100
AcDbLine
 10
67.91877
 20
1.048465
 30
0.0
 11
67.671173
 21
1.051923
 31
0.0
  0
LINE
  5
70B
330
1F
100
AcDbEntity
  8
1
  6
CONTINUOUS
370
50
 62
4
100
AcDbLine
 10
59.056984
 20
-1.99955
 30
0.0
 11
59.037991
 21
-1.999318
 31
0.0
  0
LINE
  5
70C
330
1F
100
AcDbEntity
  8
1
  6
CONTINUOUS
370
50
 62
4
100
AcDbLine
 10
59.24673499999999
 20
1.998629
 30
0.0
 11
59.113964
 21
1.999896
 31
0.0
  0
LINE
  5
70D
330
1F
100
AcDbEntity
  8
1
  6
CONTINUOUS
370
50
 62
4
100
AcDbLine
 10
58.20335799999999
 20
-1.99647
 30
0.0
 11
58.156834
 21
-1.996038
 31
0.0
  0
LINE
  5
70E
330
1F
100
AcDbEntity
  8
1
  6
CONTINUOUS
370
50
 62
4
100
AcDbLine
 10
59.075981
 20
-1.999724
 30
0.0
 11
59.056984
 21
-1.99955
 31
0.0
  0
LINE
  5
70F
330
1F
100
AcDbEntity
  8
1
  6
CONTINUOUS
370
50
 62
4
100
AcDbLine
 10
59.0
 20
1.998805
 30
0.0
 11
58.957657
 21
1.999125
 31
0.0
  0
LINE
  5
710
330
1F
100
AcDbEntity
  8
1
  6
CONTINUOUS
370
50
 62
4
100
AcDbLine
 10
58.957657
 20
1.999125
 30
0.0
 11
58.915657
 21
1.999409
 31
0.0
  0
LINE
  5
711
330
1F
100
AcDbEntity
  8
1
  6
CONTINUOUS
370
50
 62
4
100
AcDbLine
 10
58.250206
 20
-1.996766
 30
0.0
 11
58.20335799999999
 21
-1.99647
 31
0.0
  0
LINE
  5
712
330
1F
100
AcDbEntity
  8
1
  6
CONTINUOUS
370
50
 62
4
100
AcDbLine
 10
59.09497099999999
 20
-1.99984
 30
0.0
 11
59.075981
 21
-1.999724
 31
0.0
  0
LINE
  5
713
330
1F
100
AcDbEntity
  8
1
  6
CONTINUOUS
370
50
 62
4
100
AcDbLine
 10
59.327717
 20
1.647563
 30
0.0
 11
59.0
 21
1.649484
 31
0.0
  0
LINE
  5
714
330
1F
100
AcDbEntity
  8
1
  6
CONTINUOUS
370
50
 62
4
100
AcDbLine
 10
58.915657
 20
1.999409
 30
0.0
 11
58.874001
 21
1.999648
 31
0.0
  0
LINE
  5
715
330
1F
100
AcDbEntity
  8
1
  6
CONTINUOUS
370
50
 62
4
100
AcDbLine
 10
69.87887599999999
 20
0.831395
 30
0.0
 11
69.740639
 21
0.8320599999999999
 31
0.0
  0
LINE
  5
716
330
1F
100
AcDbEntity
  8
1
  6
CONTINUOUS
370
50
 62
4
100
AcDbLine
 10
58.874001
 20
1.999648
 30
0.0
 11
58.832691
 21
1.999833
 31
0.0
  0
LINE
  5
717
330
1F
100
AcDbEntity
  8
1
  6
CONTINUOUS
370
50
 62
4
100
AcDbLine
 10
69.740639
 20
0.8320599999999999
 30
0.0
 11
69.619644
 21
0.832594
 31
0.0
  0
LINE
  5
718
330
1F
100
AcDbEntity
  8
1
  6
CONTINUOUS
370
50
 62
4
100
AcDbLine
 10
65.611397
 20
-1.055376
 30
0.0
 11
65.47023
 21
-1.05478
 31
0.0
  0
LINE
  5
719
330
1F
100
AcDbEntity
  8
1
  6
CONTINUOUS
370
50
 62
4
100
AcDbLine
 10
69.619644
 20
0.832594
 30
0.0
 11
69.511848
 21
0.833024
 31
0.0
  0
LINE
  5
71A
330
1F
100
AcDbEntity
  8
1
  6
CONTINUOUS
370
50
 62
4
100
AcDbLine
 10
59.831207
 20
-1.99982
 30
0.0
 11
59.719044
 21
-1.999409
 31
0.0
  0
LINE
  5
71B
330
1F
100
AcDbEntity
  8
1
  6
CONTINUOUS
370
50
 62
4
100
AcDbLine
 10
69.511848
 20
0.833024
 30
0.0
 11
69.41321599999999
 21
0.83338
 31
0.0
  0
LINE
  5
71C
330
1F
100
AcDbEntity
  8
1
  6
CONTINUOUS
370
50
 62
4
100
AcDbLine
 10
58.297256
 20
-1.996933
 30
0.0
 11
58.250206
 21
-1.996766
 31
0.0
  0
LINE
  5
71D
330
1F
100
AcDbEntity
  8
1
  6
CONTINUOUS
370
50
 62
4
100
AcDbLine
 10
69.41321599999999
 20
0.83338
 30
0.0
 11
69.319717
 21
0.833689
 31
0.0
  0
LINE
  5
71E
330
1F
100
AcDbEntity
  8
1
  6
CONTINUOUS
370
50
 62
4
100
AcDbLine
 10
69.319717
 20
0.833689
 30
0.0
 11
69.22730299999999
 21
0.8339799999999999
 31
0.0
  0
LINE
  5
71F
330
1F
100
AcDbEntity
  8
1
  6
CONTINUOUS
370
50
 62
4
100
AcDbLine
 10
69.22730299999999
 20
0.8339799999999999
 30
0.0
 11
69.13195
 21
0.834278
 31
0.0
  0
LINE
  5
720
330
1F
100
AcDbEntity
  8
1
  6
CONTINUOUS
370
50
 62
4
100
AcDbLine
 10
67.67118099999999
 20
1.051818
 30
0.0
 11
67.59105699999999
 21
1.052059
 31
0.0
  0
LINE
  5
721
330
1F
100
AcDbEntity
  8
1
  6
CONTINUOUS
370
50
 62
4
100
AcDbLine
 10
58.832691
 20
1.999833
 30
0.0
 11
58.791725
 21
1.999956
 31
0.0
  0
LINE
  5
722
330
1F
100
AcDbEntity
  8
1
  6
CONTINUOUS
370
50
 62
4
100
AcDbLine
 10
59.113964
 20
-1.999896
 30
0.0
 11
59.09497099999999
 21
-1.99984
 31
0.0
  0
LINE
  5
723
330
1F
100
AcDbEntity
  8
1
  6
CONTINUOUS
370
50
 62
4
100
AcDbLine
 10
67.59105699999999
 20
1.052059
 30
0.0
 11
67.51089499999999
 21
1.052286
 31
0.0
  0
LINE
  5
724
330
1F
100
AcDbEntity
  8
1
  6
CONTINUOUS
370
50
 62
4
100
AcDbLine
 10
67.51089499999999
 20
1.052286
 30
0.0
 11
67.416855
 21
1.052531
 31
0.0
  0
LINE
  5
725
330
1F
100
AcDbEntity
  8
1
  6
CONTINUOUS
370
50
 62
4
100
AcDbLine
 10
67.416855
 20
1.052531
 30
0.0
 11
67.323296
 21
1.052748
 31
0.0
  0
LINE
  5
726
330
1F
100
AcDbEntity
  8
1
  6
CONTINUOUS
370
50
 62
4
100
AcDbLine
 10
66.068794
 20
1.054203
 30
0.0
 11
66.002411
 21
1.054338
 31
0.0
  0
LINE
  5
727
330
1F
100
AcDbEntity
  8
1
  6
CONTINUOUS
370
50
 62
4
100
AcDbLine
 10
67.323296
 20
1.052748
 30
0.0
 11
67.229485
 21
1.052935
 31
0.0
  0
LINE
  5
728
330
1F
100
AcDbEntity
  8
1
  6
CONTINUOUS
370
50
 62
4
100
AcDbLine
 10
66.106567
 20
1.054128
 30
0.0
 11
66.068794
 21
1.054203
 31
0.0
  0
LINE
  5
729
330
1F
100
AcDbEntity
  8
1
  6
CONTINUOUS
370
50
 62
4
100
AcDbLine
 10
66.143593
 20
1.054057
 30
0.0
 11
66.106567
 21
1.054128
 31
0.0
  0
LINE
  5
72A
330
1F
100
AcDbEntity
  8
1
  6
CONTINUOUS
370
50
 62
4
100
AcDbLine
 10
66.204933
 20
1.053943
 30
0.0
 11
66.143593
 21
1.054057
 31
0.0
  0
LINE
  5
72B
330
1F
100
AcDbEntity
  8
1
  6
CONTINUOUS
370
50
 62
4
100
AcDbLine
 10
66.262344
 20
1.053843
 30
0.0
 11
66.204933
 21
1.053943
 31
0.0
  0
LINE
  5
72C
330
1F
100
AcDbEntity
  8
1
  6
CONTINUOUS
370
50
 62
4
100
AcDbLine
 10
66.319763
 20
1.053748
 30
0.0
 11
66.262344
 21
1.053843
 31
0.0
  0
LINE
  5
72D
330
1F
100
AcDbEntity
  8
1
  6
CONTINUOUS
370
50
 62
4
100
AcDbLine
 10
67.229485
 20
1.052935
 30
0.0
 11
67.140877
 21
1.053078
 31
0.0
  0
LINE
  5
72E
330
1F
100
AcDbEntity
  8
1
  6
CONTINUOUS
370
50
 62
4
100
AcDbLine
 10
66.377144
 20
1.053661
 30
0.0
 11
66.319763
 21
1.053748
 31
0.0
  0
LINE
  5
72F
330
1F
100
AcDbEntity
  8
1
  6
CONTINUOUS
370
50
 62
4
100
AcDbLine
 10
66.434525
 20
1.053582
 30
0.0
 11
66.377144
 21
1.053661
 31
0.0
  0
LINE
  5
730
330
1F
100
AcDbEntity
  8
1
  6
CONTINUOUS
370
50
 62
4
100
AcDbLine
 10
67.140877
 20
1.053078
 30
0.0
 11
67.086716
 21
1.053149
 31
0.0
  0
LINE
  5
731
330
1F
100
AcDbEntity
  8
1
  6
CONTINUOUS
370
50
 62
4
100
AcDbLine
 10
58.791725
 20
1.999956
 30
0.0
 11
58.751099
 21
2.000007
 31
0.0
  0
LINE
  5
732
330
1F
100
AcDbEntity
  8
1
  6
CONTINUOUS
370
50
 62
4
100
AcDbLine
 10
66.491875
 20
1.053511
 30
0.0
 11
66.434525
 21
1.053582
 31
0.0
  0
LINE
  5
733
330
1F
100
AcDbEntity
  8
1
  6
CONTINUOUS
370
50
 62
4
100
AcDbLine
 10
66.549217
 20
1.053449
 30
0.0
 11
66.491875
 21
1.053511
 31
0.0
  0
LINE
  5
734
330
1F
100
AcDbEntity
  8
1
  6
CONTINUOUS
370
50
 62
4
100
AcDbLine
 10
67.086716
 20
1.053149
 30
0.0
 11
67.033081
 21
1.053204
 31
0.0
  0
LINE
  5
735
330
1F
100
AcDbEntity
  8
1
  6
CONTINUOUS
370
50
 62
4
100
AcDbLine
 10
58.344395
 20
-1.996976
 30
0.0
 11
58.297256
 21
-1.996933
 31
0.0
  0
LINE
  5
736
330
1F
100
AcDbEntity
  8
1
  6
CONTINUOUS
370
50
 62
4
100
AcDbLine
 10
66.618881
 20
1.053386
 30
0.0
 11
66.549217
 21
1.053449
 31
0.0
  0
LINE
  5
737
330
1F
100
AcDbEntity
  8
1
  6
CONTINUOUS
370
50
 62
4
100
AcDbLine
 10
67.033081
 20
1.053204
 30
0.0
 11
66.98185699999999
 21
1.053243
 31
0.0
  0
LINE
  5
738
330
1F
100
AcDbEntity
  8
1
  6
CONTINUOUS
370
50
 62
4
100
AcDbLine
 10
66.674583
 20
1.053345
 30
0.0
 11
66.618881
 21
1.053386
 31
0.0
  0
LINE
  5
739
330
1F
100
AcDbEntity
  8
1
  6
CONTINUOUS
370
50
 62
4
100
AcDbLine
 10
66.72583
 20
1.053316
 30
0.0
 11
66.674583
 21
1.053345
 31
0.0
  0
LINE
  5
73A
330
1F
100
AcDbEntity
  8
1
  6
CONTINUOUS
370
50
 62
4
100
AcDbLine
 10
66.98185699999999
 20
1.053243
 30
0.0
 11
66.930634
 21
1.053268
 31
0.0
  0
LINE
  5
73B
330
1F
100
AcDbEntity
  8
1
  6
CONTINUOUS
370
50
 62
4
100
AcDbLine
 10
66.777046
 20
1.053295
 30
0.0
 11
66.72583
 21
1.053316
 31
0.0
  0
LINE
  5
73C
330
1F
100
AcDbEntity
  8
1
  6
CONTINUOUS
370
50
 62
4
100
AcDbLine
 10
66.828255
 20
1.053283
 30
0.0
 11
66.777046
 21
1.053295
 31
0.0
  0
LINE
  5
73D
330
1F
100
AcDbEntity
  8
1
  6
CONTINUOUS
370
50
 62
4
100
AcDbLine
 10
66.930634
 20
1.053268
 30
0.0
 11
66.879448
 21
1.053278
 31
0.0
  0
LINE
  5
73E
330
1F
100
AcDbEntity
  8
1
  6
CONTINUOUS
370
50
 62
4
100
AcDbLine
 10
66.879448
 20
1.053278
 30
0.0
 11
66.828255
 21
1.053283
 31
0.0
  0
LINE
  5
73F
330
1F
100
AcDbEntity
  8
1
  6
CONTINUOUS
370
50
 62
4
100
AcDbLine
 10
59.79681
 20
-1.999908
 30
0.0
 11
59.122372
 21
-1.999901
 31
0.0
  0
LINE
  5
740
330
1F
100
AcDbEntity
  8
1
  6
CONTINUOUS
370
50
 62
4
100
AcDbLine
 10
57.0
 20
-1.99995
 30
0.0
 11
58.751427
 21
-1.99995
 31
0.0
  0
LINE
  5
741
330
1F
100
AcDbEntity
  8
1
  6
CONTINUOUS
370
50
 62
4
100
AcDbLine
 10
57.0
 20
1.99995
 30
0.0
 11
58.751427
 21
1.99995
 31
0.0
  0
LINE
  5
742
330
1F
100
AcDbEntity
  8
1
  6
CONTINUOUS
370
50
 62
4
100
AcDbLine
 10
59.122372
 20
1.999901
 30
0.0
 11
59.797462
 21
1.999908
 31
0.0
  0
LINE
  5
743
330
1F
100
AcDbEntity
  8
1
  6
CONTINUOUS
370
50
 62
4
100
AcDbLine
 10
58.751099
 20
-2.000007
 30
0.0
 11
58.791725
 21
-1.999956
 31
0.0
  0
LINE
  5
744
330
1F
100
AcDbEntity
  8
1
  6
CONTINUOUS
370
50
 62
4
100
AcDbLine
 10
66.426384
 20
-1.053593
 30
0.0
 11
66.484657
 21
-1.053519
 31
0.0
  0
LINE
  5
745
330
1F
100
AcDbEntity
  8
1
  6
CONTINUOUS
370
50
 62
4
100
AcDbLine
 10
66.368111
 20
-1.053675
 30
0.0
 11
66.426384
 21
-1.053593
 31
0.0
  0
LINE
  5
746
330
1F
100
AcDbEntity
  8
1
  6
CONTINUOUS
370
50
 62
4
100
AcDbLine
 10
66.309814
 20
-1.053764
 30
0.0
 11
66.368111
 21
-1.053675
 31
0.0
  0
LINE
  5
747
330
1F
100
AcDbEntity
  8
1
  6
CONTINUOUS
370
50
 62
4
100
AcDbLine
 10
58.344395
 20
-1.996976
 30
0.0
 11
58.391499
 21
-1.996899
 31
0.0
  0
LINE
  5
748
330
1F
100
AcDbEntity
  8
1
  6
CONTINUOUS
370
50
 62
4
100
AcDbLine
 10
66.25149499999999
 20
-1.053861
 30
0.0
 11
66.309814
 21
-1.053764
 31
0.0
  0
LINE
  5
749
330
1F
100
AcDbEntity
  8
1
  6
CONTINUOUS
370
50
 62
4
100
AcDbLine
 10
66.193161
 20
-1.053964
 30
0.0
 11
66.25149499999999
 21
-1.053861
 31
0.0
  0
LINE
  5
74A
330
1F
100
AcDbEntity
  8
1
  6
CONTINUOUS
370
50
 62
4
100
AcDbLine
 10
66.129753
 20
-1.054083
 30
0.0
 11
66.193161
 21
-1.053964
 31
0.0
  0
LINE
  5
74B
330
1F
100
AcDbEntity
  8
1
  6
CONTINUOUS
370
50
 62
4
100
AcDbLine
 10
66.101143
 20
-1.054139
 30
0.0
 11
66.129753
 21
-1.054083
 31
0.0
  0
LINE
  5
74C
330
1F
100
AcDbEntity
  8
1
  6
CONTINUOUS
370
50
 62
4
100
AcDbLine
 10
66.050957
 20
-1.054239
 30
0.0
 11
66.101143
 21
-1.054139
 31
0.0
  0
LINE
  5
74D
330
1F
100
AcDbEntity
  8
1
  6
CONTINUOUS
370
50
 62
4
100
AcDbLine
 10
65.611412
 20
-1.055162
 30
0.0
 11
65.673965
 21
-1.055034
 31
0.0
  0
LINE
  5
74E
330
1F
100
AcDbEntity
  8
1
  6
CONTINUOUS
370
50
 62
4
100
AcDbLine
 10
65.98671
 20
-1.054371
 30
0.0
 11
66.050957
 21
-1.054239
 31
0.0
  0
LINE
  5
74F
330
1F
100
AcDbEntity
  8
1
  6
CONTINUOUS
370
50
 62
4
100
AcDbLine
 10
65.924171
 20
-1.054502
 30
0.0
 11
65.98671
 21
-1.054371
 31
0.0
  0
LINE
  5
750
330
1F
100
AcDbEntity
  8
1
  6
CONTINUOUS
370
50
 62
4
100
AcDbLine
 10
65.673965
 20
-1.055034
 30
0.0
 11
65.736526
 21
-1.054902
 31
0.0
  0
LINE
  5
751
330
1F
100
AcDbEntity
  8
1
  6
CONTINUOUS
370
50
 62
4
100
AcDbLine
 10
65.736526
 20
-1.054902
 30
0.0
 11
65.79908
 21
-1.054769
 31
0.0
  0
LINE
  5
752
330
1F
100
AcDbEntity
  8
1
  6
CONTINUOUS
370
50
 62
4
100
AcDbLine
 10
65.861633
 20
-1.054635
 30
0.0
 11
65.924171
 21
-1.054502
 31
0.0
  0
LINE
  5
753
330
1F
100
AcDbEntity
  8
1
  6
CONTINUOUS
370
50
 62
4
100
AcDbLine
 10
65.79908
 20
-1.054769
 30
0.0
 11
65.861633
 21
-1.054635
 31
0.0
  0
LINE
  5
754
330
1F
100
AcDbEntity
  8
1
  6
CONTINUOUS
370
50
 62
4
100
AcDbLine
 10
59.09497099999999
 20
1.99984
 30
0.0
 11
59.113964
 21
1.999896
 31
0.0
  0
LINE
  5
755
330
1F
100
AcDbEntity
  8
1
  6
CONTINUOUS
370
50
 62
4
100
AcDbLine
 10
58.791725
 20
-1.999956
 30
0.0
 11
58.832691
 21
-1.999833
 31
0.0
  0
LINE
  5
756
330
1F
100
AcDbEntity
  8
1
  6
CONTINUOUS
370
50
 62
4
100
AcDbLine
 10
58.599613
 20
1.999396
 30
0.0
 11
58.751099
 21
2.000007
 31
0.0
  0
LINE
  5
757
330
1F
100
AcDbEntity
  8
1
  6
CONTINUOUS
370
50
 62
4
100
AcDbLine
 10
58.391499
 20
-1.996899
 30
0.0
 11
58.438446
 21
-1.996707
 31
0.0
  0
LINE
  5
758
330
1F
100
AcDbEntity
  8
1
  6
CONTINUOUS
370
50
 62
4
100
AcDbLine
 10
58.832691
 20
-1.999833
 30
0.0
 11
58.874001
 21
-1.999648
 31
0.0
  0
LINE
  5
759
330
1F
100
AcDbEntity
  8
1
  6
CONTINUOUS
370
50
 62
4
100
AcDbLine
 10
58.874001
 20
-1.999648
 30
0.0
 11
58.915657
 21
-1.999409
 31
0.0
  0
LINE
  5
75A
330
1F
100
AcDbEntity
  8
1
  6
CONTINUOUS
370
50
 62
4
100
AcDbLine
 10
59.075981
 20
1.999724
 30
0.0
 11
59.09497099999999
 21
1.99984
 31
0.0
  0
LINE
  5
75B
330
1F
100
AcDbEntity
  8
1
  6
CONTINUOUS
370
50
 62
4
100
AcDbLine
 10
58.438446
 20
-1.996707
 30
0.0
 11
58.48502
 21
-1.996403
 31
0.0
  0
LINE
  5
75C
330
1F
100
AcDbEntity
  8
1
  6
CONTINUOUS
370
50
 62
4
100
AcDbLine
 10
58.915657
 20
-1.999409
 30
0.0
 11
58.957657
 21
-1.999125
 31
0.0
  0
LINE
  5
75D
330
1F
100
AcDbEntity
  8
1
  6
CONTINUOUS
370
50
 62
4
100
AcDbLine
 10
58.957657
 20
-1.999125
 30
0.0
 11
59.0
 21
-1.998805
 31
0.0
  0
LINE
  5
75E
330
1F
100
AcDbEntity
  8
1
  6
CONTINUOUS
370
50
 62
4
100
AcDbLine
 10
59.056984
 20
1.99955
 30
0.0
 11
59.075981
 21
1.999724
 31
0.0
  0
LINE
  5
75F
330
1F
100
AcDbEntity
  8
1
  6
CONTINUOUS
370
50
 62
4
100
AcDbLine
 10
58.48502
 20
-1.996403
 30
0.0
 11
58.530594
 21
-1.995975
 31
0.0
  0
LINE
  5
760
330
1F
100
AcDbEntity
  8
1
  6
CONTINUOUS
370
50
 62
4
100
AcDbLine
 10
59.037991
 20
1.999318
 30
0.0
 11
59.056984
 21
1.99955
 31
0.0
  0
LINE
  5
761
330
1F
100
AcDbEntity
  8
1
  6
CONTINUOUS
370
50
 62
4
100
AcDbLine
 10
58.530594
 20
-1.995975
 30
0.0
 11
58.574989
 21
-1.995401
 31
0.0
  0
LINE
  5
762
330
1F
100
AcDbEntity
  8
1
  6
CONTINUOUS
370
50
 62
4
100
AcDbLine
 10
59.01899299999999
 20
1.999027
 30
0.0
 11
59.037991
 21
1.999318
 31
0.0
  0
LINE
  5
763
330
1F
100
AcDbEntity
  8
1
  6
CONTINUOUS
370
50
 62
4
100
AcDbLine
 10
58.453094
 20
1.997141
 30
0.0
 11
58.599613
 21
1.999396
 31
0.0
  0
LINE
  5
764
330
1F
100
AcDbEntity
  8
1
  6
CONTINUOUS
370
50
 62
4
100
AcDbLine
 10
58.574989
 20
-1.995401
 30
0.0
 11
58.618103
 21
-1.994663
 31
0.0
  0
LINE
  5
765
330
1F
100
AcDbEntity
  8
1
  6
CONTINUOUS
370
50
 62
4
100
AcDbLine
 10
69.10649099999999
 20
-1.783839
 30
0.0
 11
69.16133099999999
 21
-1.782891
 31
0.0
  0
LINE
  5
766
330
1F
100
AcDbEntity
  8
1
  6
CONTINUOUS
370
50
 62
4
100
AcDbLine
 10
69.106613
 20
1.928491
 30
0.0
 11
69.159561
 21
1.929413
 31
0.0
  0
LINE
  5
767
330
1F
100
AcDbEntity
  8
1
  6
CONTINUOUS
370
50
 62
4
100
AcDbLine
 10
59.0
 20
1.998677
 30
0.0
 11
59.01899299999999
 21
1.999027
 31
0.0
  0
LINE
  5
768
330
1F
100
AcDbEntity
  8
1
  6
CONTINUOUS
370
50
 62
4
100
AcDbLine
 10
58.618103
 20
-1.994663
 30
0.0
 11
58.659828
 21
-1.99374
 31
0.0
  0
LINE
  5
769
330
1F
100
AcDbEntity
  8
1
  6
CONTINUOUS
370
50
 62
4
100
AcDbLine
 10
59.831207
 20
-1.99982
 30
0.0
 11
60.031109
 21
-1.995083
 31
0.0
  0
LINE
  5
76A
330
1F
100
AcDbEntity
  8
1
  6
CONTINUOUS
370
50
 62
4
100
AcDbLine
 10
58.659828
 20
-1.99374
 30
0.0
 11
58.70005399999999
 21
-1.992614
 31
0.0
  0
LINE
  5
76B
330
1F
100
AcDbEntity
  8
1
  6
CONTINUOUS
370
50
 62
4
100
AcDbLine
 10
58.311531
 20
1.992757
 30
0.0
 11
58.453094
 21
1.997141
 31
0.0
  0
LINE
  5
76C
330
1F
100
AcDbEntity
  8
1
  6
CONTINUOUS
370
50
 62
4
100
AcDbLine
 10
58.70005399999999
 20
-1.992614
 30
0.0
 11
58.738678
 21
-1.991265
 31
0.0
  0
LINE
  5
76D
330
1F
100
AcDbEntity
  8
1
  6
CONTINUOUS
370
50
 62
4
100
AcDbLine
 10
58.738678
 20
-1.991265
 30
0.0
 11
58.775486
 21
-1.989673
 31
0.0
  0
LINE
  5
76E
330
1F
100
AcDbEntity
  8
1
  6
CONTINUOUS
370
50
 62
4
100
AcDbLine
 10
69.159561
 20
-1.929413
 30
0.0
 11
69.212166
 21
-1.927022
 31
0.0
  0
LINE
  5
76F
330
1F
100
AcDbEntity
  8
1
  6
CONTINUOUS
370
50
 62
4
100
AcDbLine
 10
58.174915
 20
1.985761
 30
0.0
 11
58.311531
 21
1.992757
 31
0.0
  0
LINE
  5
770
330
1F
100
AcDbEntity
  8
1
  6
CONTINUOUS
370
50
 62
4
100
AcDbLine
 10
58.775486
 20
-1.989673
 30
0.0
 11
58.810196
 21
-1.987823
 31
0.0
  0
LINE
  5
771
330
1F
100
AcDbEntity
  8
1
  6
CONTINUOUS
370
50
 62
4
100
AcDbLine
 10
60.031109
 20
-1.995083
 30
0.0
 11
60.227097
 21
-1.983905
 31
0.0
  0
LINE
  5
772
330
1F
100
AcDbEntity
  8
1
  6
CONTINUOUS
370
50
 62
4
100
AcDbLine
 10
58.810196
 20
-1.987823
 30
0.0
 11
58.842709
 21
-1.985707
 31
0.0
  0
LINE
  5
773
330
1F
100
AcDbEntity
  8
1
  6
CONTINUOUS
370
50
 62
4
100
AcDbLine
 10
65.947426
 20
-1.057841
 30
0.0
 11
66.002022
 21
-1.053905
 31
0.0
  0
LINE
  5
774
330
1F
100
AcDbEntity
  8
1
  6
CONTINUOUS
370
50
 62
4
100
AcDbLine
 10
65.892723
 20
-1.061934
 30
0.0
 11
65.947426
 21
-1.057841
 31
0.0
  0
LINE
  5
775
330
1F
100
AcDbEntity
  8
1
  6
CONTINUOUS
370
50
 62
4
100
AcDbLine
 10
58.043236
 20
1.975667
 30
0.0
 11
58.174915
 21
1.985761
 31
0.0
  0
LINE
  5
776
330
1F
100
AcDbEntity
  8
1
  6
CONTINUOUS
370
50
 62
4
100
AcDbLine
 10
65.838821
 20
-1.066112
 30
0.0
 11
65.892723
 21
-1.061934
 31
0.0
  0
LINE
  5
777
330
1F
100
AcDbEntity
  8
1
  6
CONTINUOUS
370
50
 62
4
100
AcDbLine
 10
69.053398
 20
1.924298
 30
0.0
 11
69.106613
 21
1.928491
 31
0.0
  0
LINE
  5
778
330
1F
100
AcDbEntity
  8
1
  6
CONTINUOUS
370
50
 62
4
100
AcDbLine
 10
58.842709
 20
-1.985707
 30
0.0
 11
58.872932
 21
-1.983315
 31
0.0
  0
LINE
  5
779
330
1F
100
AcDbEntity
  8
1
  6
CONTINUOUS
370
50
 62
4
100
AcDbLine
 10
65.786278
 20
-1.070325
 30
0.0
 11
65.838821
 21
-1.066112
 31
0.0
  0
LINE
  5
77A
330
1F
100
AcDbEntity
  8
1
  6
CONTINUOUS
370
50
 62
4
100
AcDbLine
 10
65.730659
 20
-1.074935
 30
0.0
 11
65.786278
 21
-1.070325
 31
0.0
  0
LINE
  5
77B
330
1F
100
AcDbEntity
  8
1
  6
CONTINUOUS
370
50
 62
4
100
AcDbLine
 10
65.675461
 20
-1.079666
 30
0.0
 11
65.730659
 21
-1.074935
 31
0.0
  0
LINE
  5
77C
330
1F
100
AcDbEntity
  8
1
  6
CONTINUOUS
370
50
 62
4
100
AcDbLine
 10
65.620262
 20
-1.084551
 30
0.0
 11
65.675461
 21
-1.079666
 31
0.0
  0
LINE
  5
77D
330
1F
100
AcDbEntity
  8
1
  6
CONTINUOUS
370
50
 62
4
100
AcDbLine
 10
60.227097
 20
-1.983905
 30
0.0
 11
60.424271
 21
-1.966433
 31
0.0
  0
LINE
  5
77E
330
1F
100
AcDbEntity
  8
1
  6
CONTINUOUS
370
50
 62
4
100
AcDbLine
 10
65.565063
 20
-1.089593
 30
0.0
 11
65.620262
 21
-1.084551
 31
0.0
  0
LINE
  5
77F
330
1F
100
AcDbEntity
  8
1
  6
CONTINUOUS
370
50
 62
4
100
AcDbLine
 10
65.509872
 20
-1.094793
 30
0.0
 11
65.565063
 21
-1.089593
 31
0.0
  0
LINE
  5
780
330
1F
100
AcDbEntity
  8
1
  6
CONTINUOUS
370
50
 62
4
100
AcDbLine
 10
58.872932
 20
-1.983315
 30
0.0
 11
58.900761
 21
-1.980638
 31
0.0
  0
LINE
  5
781
330
1F
100
AcDbEntity
  8
1
  6
CONTINUOUS
370
50
 62
4
100
AcDbLine
 10
65.454681
 20
-1.100151
 30
0.0
 11
65.509872
 21
-1.094793
 31
0.0
  0
LINE
  5
782
330
1F
100
AcDbEntity
  8
1
  6
CONTINUOUS
370
50
 62
4
100
AcDbLine
 10
65.399101
 20
-1.10571
 30
0.0
 11
65.454681
 21
-1.100151
 31
0.0
  0
LINE
  5
783
330
1F
100
AcDbEntity
  8
1
  6
CONTINUOUS
370
50
 62
4
100
AcDbLine
 10
65.34609999999999
 20
-1.111164
 30
0.0
 11
65.399101
 21
-1.10571
 31
0.0
  0
LINE
  5
784
330
1F
100
AcDbEntity
  8
1
  6
CONTINUOUS
370
50
 62
4
100
AcDbLine
 10
65.29538
 20
-1.116527
 30
0.0
 11
65.34609999999999
 21
-1.111164
 31
0.0
  0
LINE
  5
785
330
1F
100
AcDbEntity
  8
1
  6
CONTINUOUS
370
50
 62
4
100
AcDbLine
 10
57.91648499999999
 20
1.961992
 30
0.0
 11
58.043236
 21
1.975667
 31
0.0
  0
LINE
  5
786
330
1F
100
AcDbEntity
  8
1
  6
CONTINUOUS
370
50
 62
4
100
AcDbLine
 10
65.238968
 20
-1.122653
 30
0.0
 11
65.29538
 21
-1.116527
 31
0.0
  0
LINE
  5
787
330
1F
100
AcDbEntity
  8
1
  6
CONTINUOUS
370
50
 62
4
100
AcDbLine
 10
69.84094999999999
 20
-1.339659
 30
0.0
 11
69.851593
 21
-1.338502
 31
0.0
  0
LINE
  5
788
330
1F
100
AcDbEntity
  8
1
  6
CONTINUOUS
370
50
 62
4
100
AcDbLine
 10
69.212166
 20
-1.927022
 30
0.0
 11
69.264404
 21
-1.92125
 31
0.0
  0
LINE
  5
789
330
1F
100
AcDbEntity
  8
1
  6
CONTINUOUS
370
50
 62
4
100
AcDbLine
 10
65.18343399999999
 20
-1.128857
 30
0.0
 11
65.238968
 21
-1.122653
 31
0.0
  0
LINE
  5
78A
330
1F
100
AcDbEntity
  8
1
  6
CONTINUOUS
370
50
 62
4
100
AcDbLine
 10
65.127899
 20
-1.135234
 30
0.0
 11
65.18343399999999
 21
-1.128857
 31
0.0
  0
LINE
  5
78B
330
1F
100
AcDbEntity
  8
1
  6
CONTINUOUS
370
50
 62
4
100
AcDbLine
 10
58.900761
 20
-1.980638
 30
0.0
 11
58.926105
 21
-1.977666
 31
0.0
  0
LINE
  5
78C
330
1F
100
AcDbEntity
  8
1
  6
CONTINUOUS
370
50
 62
4
100
AcDbLine
 10
65.072372
 20
-1.141785
 30
0.0
 11
65.127899
 21
-1.135234
 31
0.0
  0
LINE
  5
78D
330
1F
100
AcDbEntity
  8
1
  6
CONTINUOUS
370
50
 62
4
100
AcDbLine
 10
60.424271
 20
-1.966433
 30
0.0
 11
60.62291699999999
 21
-1.942737
 31
0.0
  0
LINE
  5
78E
330
1F
100
AcDbEntity
  8
1
  6
CONTINUOUS
370
50
 62
4
100
AcDbLine
 10
65.016876
 20
-1.148508
 30
0.0
 11
65.072372
 21
-1.141785
 31
0.0
  0
LINE
  5
78F
330
1F
100
AcDbEntity
  8
1
  6
CONTINUOUS
370
50
 62
4
100
AcDbLine
 10
64.96137999999999
 20
-1.15541
 30
0.0
 11
65.016876
 21
-1.148508
 31
0.0
  0
LINE
  5
790
330
1F
100
AcDbEntity
  8
1
  6
CONTINUOUS
370
50
 62
4
100
AcDbLine
 10
69.16133099999999
 20
-1.782891
 30
0.0
 11
69.20893099999999
 21
-1.776845
 31
0.0
  0
LINE
  5
791
330
1F
100
AcDbEntity
  8
1
  6
CONTINUOUS
370
50
 62
4
100
AcDbLine
 10
64.90437299999999
 20
-1.162691
 30
0.0
 11
64.96137999999999
 21
-1.15541
 31
0.0
  0
LINE
  5
792
330
1F
100
AcDbEntity
  8
1
  6
CONTINUOUS
370
50
 62
4
100
AcDbLine
 10
64.856995
 20
-1.168884
 30
0.0
 11
64.90437299999999
 21
-1.162691
 31
0.0
  0
LINE
  5
793
330
1F
100
AcDbEntity
  8
1
  6
CONTINUOUS
370
50
 62
4
100
AcDbLine
 10
57.872589
 20
1.956131
 30
0.0
 11
57.91648499999999
 21
1.961992
 31
0.0
  0
LINE
  5
794
330
1F
100
AcDbEntity
  8
1
  6
CONTINUOUS
370
50
 62
4
100
AcDbLine
 10
64.812393
 20
-1.174845
 30
0.0
 11
64.856995
 21
-1.168884
 31
0.0
  0
LINE
  5
795
330
1F
100
AcDbEntity
  8
1
  6
CONTINUOUS
370
50
 62
4
100
AcDbLine
 10
69.181671
 20
0.9523969999999999
 30
0.0
 11
69.20311
 21
0.9552759999999999
 31
0.0
  0
LINE
  5
796
330
1F
100
AcDbEntity
  8
1
  6
CONTINUOUS
370
50
 62
4
100
AcDbLine
 10
64.750961
 20
-1.183243
 30
0.0
 11
64.812393
 21
-1.174845
 31
0.0
  0
LINE
  5
797
330
1F
100
AcDbEntity
  8
1
  6
CONTINUOUS
370
50
 62
4
100
AcDbLine
 10
69.0
 20
1.916878
 30
0.0
 11
69.053398
 21
1.924298
 31
0.0
  0
LINE
  5
798
330
1F
100
AcDbEntity
  8
1
  6
CONTINUOUS
370
50
 62
4
100
AcDbLine
 10
64.69227599999999
 20
-1.191487
 30
0.0
 11
64.750961
 21
-1.183243
 31
0.0
  0
LINE
  5
799
330
1F
100
AcDbEntity
  8
1
  6
CONTINUOUS
370
50
 62
4
100
AcDbLine
 10
68.791466
 20
1.551024
 30
0.0
 11
69.16122399999999
 21
1.603024
 31
0.0
  0
LINE
  5
79A
330
1F
100
AcDbEntity
  8
1
  6
CONTINUOUS
370
50
 62
4
100
AcDbLine
 10
58.926105
 20
-1.977666
 30
0.0
 11
58.948811
 21
-1.974404
 31
0.0
  0
LINE
  5
79B
330
1F
100
AcDbEntity
  8
1
  6
CONTINUOUS
370
50
 62
4
100
AcDbLine
 10
64.633614
 20
-1.199941
 30
0.0
 11
64.69227599999999
 21
-1.191487
 31
0.0
  0
LINE
  5
79C
330
1F
100
AcDbEntity
  8
1
  6
CONTINUOUS
370
50
 62
4
100
AcDbLine
 10
64.574966
 20
-1.20861
 30
0.0
 11
64.633614
 21
-1.199941
 31
0.0
  0
LINE
  5
79D
330
1F
100
AcDbEntity
  8
1
  6
CONTINUOUS
370
50
 62
4
100
AcDbLine
 10
60.62291699999999
 20
-1.942737
 30
0.0
 11
60.822395
 21
-1.912914
 31
0.0
  0
LINE
  5
79E
330
1F
100
AcDbEntity
  8
1
  6
CONTINUOUS
370
50
 62
4
100
AcDbLine
 10
57.829269
 20
1.949622
 30
0.0
 11
57.872589
 21
1.956131
 31
0.0
  0
LINE
  5
79F
330
1F
100
AcDbEntity
  8
1
  6
CONTINUOUS
370
50
 62
4
100
AcDbLine
 10
64.516342
 20
-1.217497
 30
0.0
 11
64.574966
 21
-1.20861
 31
0.0
  0
LINE
  5
7A0
330
1F
100
AcDbEntity
  8
1
  6
CONTINUOUS
370
50
 62
4
100
AcDbLine
 10
64.457718
 20
-1.226563
 30
0.0
 11
64.516342
 21
-1.217497
 31
0.0
  0
LINE
  5
7A1
330
1F
100
AcDbEntity
  8
1
  6
CONTINUOUS
370
50
 62
4
100
AcDbLine
 10
64.399101
 20
-1.235718
 30
0.0
 11
64.457718
 21
-1.226563
 31
0.0
  0
LINE
  5
7A2
330
1F
100
AcDbEntity
  8
1
  6
CONTINUOUS
370
50
 62
4
100
AcDbLine
 10
64.340012
 20
-1.245028
 30
0.0
 11
64.399101
 21
-1.235718
 31
0.0
  0
LINE
  5
7A3
330
1F
100
AcDbEntity
  8
1
  6
CONTINUOUS
370
50
 62
4
100
AcDbLine
 10
64.28005999999999
 20
-1.254553
 30
0.0
 11
64.340012
 21
-1.245028
 31
0.0
  0
LINE
  5
7A4
330
1F
100
AcDbEntity
  8
1
  6
CONTINUOUS
370
50
 62
4
100
AcDbLine
 10
64.22022199999999
 20
-1.264139
 30
0.0
 11
64.28005999999999
 21
-1.254553
 31
0.0
  0
LINE
  5
7A5
330
1F
100
AcDbEntity
  8
1
  6
CONTINUOUS
370
50
 62
4
100
AcDbLine
 10
64.160347
 20
-1.273809
 30
0.0
 11
64.22022199999999
 21
-1.264139
 31
0.0
  0
LINE
  5
7A6
330
1F
100
AcDbEntity
  8
1
  6
CONTINUOUS
370
50
 62
4
100
AcDbLine
 10
69.114182
 20
1.718906
 30
0.0
 11
69.166466
 21
1.727395
 31
0.0
  0
LINE
  5
7A7
330
1F
100
AcDbEntity
  8
1
  6
CONTINUOUS
370
50
 62
4
100
AcDbLine
 10
64.100456
 20
-1.283556
 30
0.0
 11
64.160347
 21
-1.273809
 31
0.0
  0
LINE
  5
7A8
330
1F
100
AcDbEntity
  8
1
  6
CONTINUOUS
370
50
 62
4
100
AcDbLine
 10
64.040543
 20
-1.293384
 30
0.0
 11
64.100456
 21
-1.283556
 31
0.0
  0
LINE
  5
7A9
330
1F
100
AcDbEntity
  8
1
  6
CONTINUOUS
370
50
 62
4
100
AcDbLine
 10
63.980618
 20
-1.303289
 30
0.0
 11
64.040543
 21
-1.293384
 31
0.0
  0
LINE
  5
7AA
330
1F
100
AcDbEntity
  8
1
  6
CONTINUOUS
370
50
 62
4
100
AcDbLine
 10
63.92066999999999
 20
-1.313272
 30
0.0
 11
63.980618
 21
-1.303289
 31
0.0
  0
LINE
  5
7AB
330
1F
100
AcDbEntity
  8
1
  6
CONTINUOUS
370
50
 62
4
100
AcDbLine
 10
63.859928
 20
-1.323464
 30
0.0
 11
63.92066999999999
 21
-1.313272
 31
0.0
  0
LINE
  5
7AC
330
1F
100
AcDbEntity
  8
1
  6
CONTINUOUS
370
50
 62
4
100
AcDbLine
 10
57.78660199999999
 20
1.942424
 30
0.0
 11
57.829269
 21
1.949622
 31
0.0
  0
LINE
  5
7AD
330
1F
100
AcDbEntity
  8
1
  6
CONTINUOUS
370
50
 62
4
100
AcDbLine
 10
63.798023
 20
-1.33393
 30
0.0
 11
63.859928
 21
-1.323464
 31
0.0
  0
LINE
  5
7AE
330
1F
100
AcDbEntity
  8
1
  6
CONTINUOUS
370
50
 62
4
100
AcDbLine
 10
63.736309
 20
-1.344445
 30
0.0
 11
63.798023
 21
-1.33393
 31
0.0
  0
LINE
  5
7AF
330
1F
100
AcDbEntity
  8
1
  6
CONTINUOUS
370
50
 62
4
100
AcDbLine
 10
63.674595
 20
-1.35504
 30
0.0
 11
63.736309
 21
-1.344445
 31
0.0
  0
LINE
  5
7B0
330
1F
100
AcDbEntity
  8
1
  6
CONTINUOUS
370
50
 62
4
100
AcDbLine
 10
63.612865
 20
-1.365721
 30
0.0
 11
63.674595
 21
-1.35504
 31
0.0
  0
LINE
  5
7B1
330
1F
100
AcDbEntity
  8
1
  6
CONTINUOUS
370
50
 62
4
100
AcDbLine
 10
69.166466
 20
1.727395
 30
0.0
 11
69.209435
 21
1.734868
 31
0.0
  0
LINE
  5
7B2
330
1F
100
AcDbEntity
  8
1
  6
CONTINUOUS
370
50
 62
4
100
AcDbLine
 10
63.551117
 20
-1.376488
 30
0.0
 11
63.612865
 21
-1.365721
 31
0.0
  0
LINE
  5
7B3
330
1F
100
AcDbEntity
  8
1
  6
CONTINUOUS
370
50
 62
4
100
AcDbLine
 10
63.489372
 20
-1.387339
 30
0.0
 11
63.551117
 21
-1.376488
 31
0.0
  0
LINE
  5
7B4
330
1F
100
AcDbEntity
  8
1
  6
CONTINUOUS
370
50
 62
4
100
AcDbLine
 10
58.948811
 20
-1.974404
 30
0.0
 11
58.968731
 21
-1.970876
 31
0.0
  0
LINE
  5
7B5
330
1F
100
AcDbEntity
  8
1
  6
CONTINUOUS
370
50
 62
4
100
AcDbLine
 10
63.42762399999999
 20
-1.398276
 30
0.0
 11
63.489372
 21
-1.387339
 31
0.0
  0
LINE
  5
7B6
330
1F
100
AcDbEntity
  8
1
  6
CONTINUOUS
370
50
 62
4
100
AcDbLine
 10
69.264404
 20
-1.92125
 30
0.0
 11
69.316216
 21
-1.912017
 31
0.0
  0
LINE
  5
7B7
330
1F
100
AcDbEntity
  8
1
  6
CONTINUOUS
370
50
 62
4
100
AcDbLine
 10
63.365891
 20
-1.409299
 30
0.0
 11
63.42762399999999
 21
-1.398276
 31
0.0
  0
LINE
  5
7B8
330
1F
100
AcDbEntity
  8
1
  6
CONTINUOUS
370
50
 62
4
100
AcDbLine
 10
60.822395
 20
-1.912914
 30
0.0
 11
61.022049
 21
-1.877064
 31
0.0
  0
LINE
  5
7B9
330
1F
100
AcDbEntity
  8
1
  6
CONTINUOUS
370
50
 62
4
100
AcDbLine
 10
63.304157
 20
-1.420412
 30
0.0
 11
63.365891
 21
-1.409299
 31
0.0
  0
LINE
  5
7BA
330
1F
100
AcDbEntity
  8
1
  6
CONTINUOUS
370
50
 62
4
100
AcDbLine
 10
63.242424
 20
-1.431616
 30
0.0
 11
63.304157
 21
-1.420412
 31
0.0
  0
LINE
  5
7BB
330
1F
100
AcDbEntity
  8
1
  6
CONTINUOUS
370
50
 62
4
100
AcDbLine
 10
63.180691
 20
-1.442914
 30
0.0
 11
63.242424
 21
-1.431616
 31
0.0
  0
LINE
  5
7BC
330
1F
100
AcDbEntity
  8
1
  6
CONTINUOUS
370
50
 62
4
100
AcDbLine
 10
63.11897699999999
 20
-1.454304
 30
0.0
 11
63.180691
 21
-1.442914
 31
0.0
  0
LINE
  5
7BD
330
1F
100
AcDbEntity
  8
1
  6
CONTINUOUS
370
50
 62
4
100
AcDbLine
 10
68.42171499999999
 20
1.482584
 30
0.0
 11
68.791466
 21
1.551024
 31
0.0
  0
LINE
  5
7BE
330
1F
100
AcDbEntity
  8
1
  6
CONTINUOUS
370
50
 62
4
100
AcDbLine
 10
63.05726199999999
 20
-1.46579
 30
0.0
 11
63.11897699999999
 21
-1.454304
 31
0.0
  0
LINE
  5
7BF
330
1F
100
AcDbEntity
  8
1
  6
CONTINUOUS
370
50
 62
4
100
AcDbLine
 10
62.995552
 20
-1.477376
 30
0.0
 11
63.05726199999999
 21
-1.46579
 31
0.0
  0
LINE
  5
7C0
330
1F
100
AcDbEntity
  8
1
  6
CONTINUOUS
370
50
 62
4
100
AcDbLine
 10
57.744667
 20
1.934492
 30
0.0
 11
57.78660199999999
 21
1.942424
 31
0.0
  0
LINE
  5
7C1
330
1F
100
AcDbEntity
  8
1
  6
CONTINUOUS
370
50
 62
4
100
AcDbLine
 10
62.933842
 20
-1.489064
 30
0.0
 11
62.995552
 21
-1.477376
 31
0.0
  0
LINE
  5
7C2
330
1F
100
AcDbEntity
  8
1
  6
CONTINUOUS
370
50
 62
4
100
AcDbLine
 10
69.209435
 20
1.734868
 30
0.0
 11
69.245239
 21
1.741673
 31
0.0
  0
LINE
  5
7C3
330
1F
100
AcDbEntity
  8
1
  6
CONTINUOUS
370
50
 62
4
100
AcDbLine
 10
62.872097
 20
-1.500861
 30
0.0
 11
62.933842
 21
-1.489064
 31
0.0
  0
LINE
  5
7C4
330
1F
100
AcDbEntity
  8
1
  6
CONTINUOUS
370
50
 62
4
100
AcDbLine
 10
62.810326
 20
-1.512769
 30
0.0
 11
62.872097
 21
-1.500861
 31
0.0
  0
LINE
  5
7C5
330
1F
100
AcDbEntity
  8
1
  6
CONTINUOUS
370
50
 62
4
100
AcDbLine
 10
62.74858099999999
 20
-1.524779
 30
0.0
 11
62.810326
 21
-1.512769
 31
0.0
  0
LINE
  5
7C6
330
1F
100
AcDbEntity
  8
1
  6
CONTINUOUS
370
50
 62
4
100
AcDbLine
 10
68.6408
 20
1.846894
 30
0.0
 11
69.0
 21
1.916878
 31
0.0
  0
LINE
  5
7C7
330
1F
100
AcDbEntity
  8
1
  6
CONTINUOUS
370
50
 62
4
100
AcDbLine
 10
61.022049
 20
-1.877059
 30
0.0
 11
61.075649
 21
-1.866609
 31
0.0
  0
LINE
  5
7C8
330
1F
100
AcDbEntity
  8
1
  6
CONTINUOUS
370
50
 62
4
100
AcDbLine
 10
61.075649
 20
-1.866609
 30
0.0
 11
61.12925
 21
-1.856117
 31
0.0
  0
LINE
  5
7C9
330
1F
100
AcDbEntity
  8
1
  6
CONTINUOUS
370
50
 62
4
100
AcDbLine
 10
62.68684
 20
-1.536897
 30
0.0
 11
62.74858099999999
 21
-1.524779
 31
0.0
  0
LINE
  5
7CA
330
1F
100
AcDbEntity
  8
1
  6
CONTINUOUS
370
50
 62
4
100
AcDbLine
 10
61.12925
 20
-1.856117
 30
0.0
 11
61.18284999999999
 21
-1.845582
 31
0.0
  0
LINE
  5
7CB
330
1F
100
AcDbEntity
  8
1
  6
CONTINUOUS
370
50
 62
4
100
AcDbLine
 10
61.18284999999999
 20
-1.845582
 30
0.0
 11
61.23645399999999
 21
-1.835002
 31
0.0
  0
LINE
  5
7CC
330
1F
100
AcDbEntity
  8
1
  6
CONTINUOUS
370
50
 62
4
100
AcDbLine
 10
62.62513
 20
-1.549119
 30
0.0
 11
62.68684
 21
-1.536897
 31
0.0
  0
LINE
  5
7CD
330
1F
100
AcDbEntity
  8
1
  6
CONTINUOUS
370
50
 62
4
100
AcDbLine
 10
61.23645399999999
 20
-1.835002
 30
0.0
 11
61.290035
 21
-1.824382
 31
0.0
  0
LINE
  5
7CE
330
1F
100
AcDbEntity
  8
1
  6
CONTINUOUS
370
50
 62
4
100
AcDbLine
 10
61.290035
 20
-1.824382
 30
0.0
 11
61.343616
 21
-1.813715
 31
0.0
  0
LINE
  5
7CF
330
1F
100
AcDbEntity
  8
1
  6
CONTINUOUS
370
50
 62
4
100
AcDbLine
 10
62.563419
 20
-1.561452
 30
0.0
 11
62.62513
 21
-1.549119
 31
0.0
  0
LINE
  5
7D0
330
1F
100
AcDbEntity
  8
1
  6
CONTINUOUS
370
50
 62
4
100
AcDbLine
 10
61.343616
 20
-1.813715
 30
0.0
 11
61.397198
 21
-1.803001
 31
0.0
  0
LINE
  5
7D1
330
1F
100
AcDbEntity
  8
1
  6
CONTINUOUS
370
50
 62
4
100
AcDbLine
 10
61.397198
 20
-1.803001
 30
0.0
 11
61.450863
 21
-1.792222
 31
0.0
  0
LINE
  5
7D2
330
1F
100
AcDbEntity
  8
1
  6
CONTINUOUS
370
50
 62
4
100
AcDbLine
 10
62.501751
 20
-1.57389
 30
0.0
 11
62.563419
 21
-1.561452
 31
0.0
  0
LINE
  5
7D3
330
1F
100
AcDbEntity
  8
1
  6
CONTINUOUS
370
50
 62
4
100
AcDbLine
 10
61.450863
 20
-1.792222
 30
0.0
 11
61.510296
 21
-1.780227
 31
0.0
  0
LINE
  5
7D4
330
1F
100
AcDbEntity
  8
1
  6
CONTINUOUS
370
50
 62
4
100
AcDbLine
 10
61.510296
 20
-1.780227
 30
0.0
 11
61.564629
 21
-1.769207
 31
0.0
  0
LINE
  5
7D5
330
1F
100
AcDbEntity
  8
1
  6
CONTINUOUS
370
50
 62
4
100
AcDbLine
 10
62.439365
 20
-1.586587
 30
0.0
 11
62.501751
 21
-1.57389
 31
0.0
  0
LINE
  5
7D6
330
1F
100
AcDbEntity
  8
1
  6
CONTINUOUS
370
50
 62
4
100
AcDbLine
 10
61.564629
 20
-1.769207
 30
0.0
 11
61.618961
 21
-1.758134
 31
0.0
  0
LINE
  5
7D7
330
1F
100
AcDbEntity
  8
1
  6
CONTINUOUS
370
50
 62
4
100
AcDbLine
 10
61.618961
 20
-1.758134
 30
0.0
 11
61.673271
 21
-1.747012
 31
0.0
  0
LINE
  5
7D8
330
1F
100
AcDbEntity
  8
1
  6
CONTINUOUS
370
50
 62
4
100
AcDbLine
 10
62.38251099999999
 20
-1.59826
 30
0.0
 11
62.439365
 21
-1.586587
 31
0.0
  0
LINE
  5
7D9
330
1F
100
AcDbEntity
  8
1
  6
CONTINUOUS
370
50
 62
4
100
AcDbLine
 10
61.673271
 20
-1.747012
 30
0.0
 11
61.727577
 21
-1.735837
 31
0.0
  0
LINE
  5
7DA
330
1F
100
AcDbEntity
  8
1
  6
CONTINUOUS
370
50
 62
4
100
AcDbLine
 10
61.727577
 20
-1.735837
 30
0.0
 11
61.781857
 21
-1.724612
 31
0.0
  0
LINE
  5
7DB
330
1F
100
AcDbEntity
  8
1
  6
CONTINUOUS
370
50
 62
4
100
AcDbLine
 10
69.245239
 20
1.741673
 30
0.0
 11
69.290115
 21
1.75096
 31
0.0
  0
LINE
  5
7DC
330
1F
100
AcDbEntity
  8
1
  6
CONTINUOUS
370
50
 62
4
100
AcDbLine
 10
62.32615999999999
 20
-1.609926
 30
0.0
 11
62.38251099999999
 21
-1.59826
 31
0.0
  0
LINE
  5
7DD
330
1F
100
AcDbEntity
  8
1
  6
CONTINUOUS
370
50
 62
4
100
AcDbLine
 10
61.781857
 20
-1.724612
 30
0.0
 11
61.836128
 21
-1.713333
 31
0.0
  0
LINE
  5
7DE
330
1F
100
AcDbEntity
  8
1
  6
CONTINUOUS
370
50
 62
4
100
AcDbLine
 10
62.269848
 20
-1.621679
 30
0.0
 11
62.32615999999999
 21
-1.609926
 31
0.0
  0
LINE
  5
7DF
330
1F
100
AcDbEntity
  8
1
  6
CONTINUOUS
370
50
 62
4
100
AcDbLine
 10
61.836128
 20
-1.713333
 30
0.0
 11
61.890564
 21
-1.701963
 31
0.0
  0
LINE
  5
7E0
330
1F
100
AcDbEntity
  8
1
  6
CONTINUOUS
370
50
 62
4
100
AcDbLine
 10
61.890564
 20
-1.701963
 30
0.0
 11
61.942982
 21
-1.690962
 31
0.0
  0
LINE
  5
7E1
330
1F
100
AcDbEntity
  8
1
  6
CONTINUOUS
370
50
 62
4
100
AcDbLine
 10
62.21354299999999
 20
-1.633527
 30
0.0
 11
62.269848
 21
-1.621679
 31
0.0
  0
LINE
  5
7E2
330
1F
100
AcDbEntity
  8
1
  6
CONTINUOUS
370
50
 62
4
100
AcDbLine
 10
61.942982
 20
-1.690962
 30
0.0
 11
61.986973
 21
-1.681688
 31
0.0
  0
LINE
  5
7E3
330
1F
100
AcDbEntity
  8
1
  6
CONTINUOUS
370
50
 62
4
100
AcDbLine
 10
57.703537
 20
1.925784
 30
0.0
 11
57.744667
 21
1.934492
 31
0.0
  0
LINE
  5
7E4
330
1F
100
AcDbEntity
  8
1
  6
CONTINUOUS
370
50
 62
4
100
AcDbLine
 10
61.986973
 20
-1.681688
 30
0.0
 11
62.044701
 21
-1.669461
 31
0.0
  0
LINE
  5
7E5
330
1F
100
AcDbEntity
  8
1
  6
CONTINUOUS
370
50
 62
4
100
AcDbLine
 10
62.157261
 20
-1.645464
 30
0.0
 11
62.21354299999999
 21
-1.633527
 31
0.0
  0
LINE
  5
7E6
330
1F
100
AcDbEntity
  8
1
  6
CONTINUOUS
370
50
 62
4
100
AcDbLine
 10
69.290115
 20
1.75096
 30
0.0
 11
69.360291
 21
1.765878
 31
0.0
  0
LINE
  5
7E7
330
1F
100
AcDbEntity
  8
1
  6
CONTINUOUS
370
50
 62
4
100
AcDbLine
 10
62.044701
 20
-1.669461
 30
0.0
 11
62.100983
 21
-1.65748
 31
0.0
  0
LINE
  5
7E8
330
1F
100
AcDbEntity
  8
1
  6
CONTINUOUS
370
50
 62
4
100
AcDbLine
 10
62.100983
 20
-1.65748
 30
0.0
 11
62.157261
 21
-1.645464
 31
0.0
  0
LINE
  5
7E9
330
1F
100
AcDbEntity
  8
1
  6
CONTINUOUS
370
50
 62
4
100
AcDbLine
 10
69.360291
 20
1.765878
 30
0.0
 11
69.46262399999999
 21
1.787978
 31
0.0
  0
LINE
  5
7EA
330
1F
100
AcDbEntity
  8
1
  6
CONTINUOUS
370
50
 62
4
100
AcDbLine
 10
58.968731
 20
-1.970876
 30
0.0
 11
58.985813
 21
-1.967097
 31
0.0
  0
LINE
  5
7EB
330
1F
100
AcDbEntity
  8
1
  6
CONTINUOUS
370
50
 62
4
100
AcDbLine
 10
69.20893099999999
 20
-1.776845
 30
0.0
 11
69.247749
 21
-1.768241
 31
0.0
  0
LINE
  5
7EC
330
1F
100
AcDbEntity
  8
1
  6
CONTINUOUS
370
50
 62
4
100
AcDbLine
 10
68.05195599999999
 20
1.398653
 30
0.0
 11
68.42171499999999
 21
1.482584
 31
0.0
  0
LINE
  5
7ED
330
1F
100
AcDbEntity
  8
1
  6
CONTINUOUS
370
50
 62
4
100
AcDbLine
 10
57.6633
 20
1.916256
 30
0.0
 11
57.703537
 21
1.925784
 31
0.0
  0
LINE
  5
7EE
330
1F
100
AcDbEntity
  8
1
  6
CONTINUOUS
370
50
 62
4
100
AcDbLine
 10
69.46262399999999
 20
1.787978
 30
0.0
 11
69.564598
 21
1.812267
 31
0.0
  0
LINE
  5
7EF
330
1F
100
AcDbEntity
  8
1
  6
CONTINUOUS
370
50
 62
4
100
AcDbLine
 10
69.851593
 20
-1.338502
 30
0.0
 11
69.862099
 21
-1.335935
 31
0.0
  0
LINE
  5
7F0
330
1F
100
AcDbEntity
  8
1
  6
CONTINUOUS
370
50
 62
4
100
AcDbLine
 10
68.277031
 20
1.757727
 30
0.0
 11
68.6408
 21
1.846894
 31
0.0
  0
LINE
  5
7F1
330
1F
100
AcDbEntity
  8
1
  6
CONTINUOUS
370
50
 62
4
100
AcDbLine
 10
69.316216
 20
-1.912017
 30
0.0
 11
69.367538
 21
-1.899244
 31
0.0
  0
LINE
  5
7F2
330
1F
100
AcDbEntity
  8
1
  6
CONTINUOUS
370
50
 62
4
100
AcDbLine
 10
57.62402299999999
 20
1.905866
 30
0.0
 11
57.6633
 21
1.916256
 31
0.0
  0
LINE
  5
7F3
330
1F
100
AcDbEntity
  8
1
  6
CONTINUOUS
370
50
 62
4
100
AcDbLine
 10
67.68218999999999
 20
1.299757
 30
0.0
 11
68.05195599999999
 21
1.398653
 31
0.0
  0
LINE
  5
7F4
330
1F
100
AcDbEntity
  8
1
  6
CONTINUOUS
370
50
 62
4
100
AcDbLine
 10
53.299999
 20
-2.99995
 30
0.0
 11
57.0
 21
-1.99995
 31
0.0
  0
LINE
  5
7F5
330
1F
100
AcDbEntity
  8
1
  6
CONTINUOUS
370
50
 62
4
100
AcDbLine
 10
58.985813
 20
-1.967097
 30
0.0
 11
59.0
 21
-1.963083
 31
0.0
  0
LINE
  5
7F6
330
1F
100
AcDbEntity
  8
1
  6
CONTINUOUS
370
50
 62
4
100
AcDbLine
 10
67.91270399999999
 20
1.650568
 30
0.0
 11
68.277031
 21
1.757727
 31
0.0
  0
LINE
  5
7F7
330
1F
100
AcDbEntity
  8
1
  6
CONTINUOUS
370
50
 62
4
100
AcDbLine
 10
57.585793
 20
1.894569
 30
0.0
 11
57.62402299999999
 21
1.905866
 31
0.0
  0
LINE
  5
7F8
330
1F
100
AcDbEntity
  8
1
  6
CONTINUOUS
370
50
 62
4
100
AcDbLine
 10
69.247749
 20
-1.768241
 30
0.0
 11
69.278549
 21
-1.75905
 31
0.0
  0
LINE
  5
7F9
330
1F
100
AcDbEntity
  8
1
  6
CONTINUOUS
370
50
 62
4
100
AcDbLine
 10
67.312416
 20
1.184955
 30
0.0
 11
67.68218999999999
 21
1.299757
 31
0.0
  0
LINE
  5
7FA
330
1F
100
AcDbEntity
  8
1
  6
CONTINUOUS
370
50
 62
4
100
AcDbLine
 10
69.367538
 20
-1.899244
 30
0.0
 11
69.418289
 21
-1.882857
 31
0.0
  0
LINE
  5
7FB
330
1F
100
AcDbEntity
  8
1
  6
CONTINUOUS
370
50
 62
4
100
AcDbLine
 10
57.548679
 20
1.882323
 30
0.0
 11
57.585793
 21
1.894569
 31
0.0
  0
LINE
  5
7FC
330
1F
100
AcDbEntity
  8
1
  6
CONTINUOUS
370
50
 62
4
100
AcDbLine
 10
67.551811
 20
1.526607
 30
0.0
 11
67.91270399999999
 21
1.650568
 31
0.0
  0
LINE
  5
7FD
330
1F
100
AcDbEntity
  8
1
  6
CONTINUOUS
370
50
 62
4
100
AcDbLine
 10
66.94265
 20
1.05297
 30
0.0
 11
67.312416
 21
1.184955
 31
0.0
  0
LINE
  5
7FE
330
1F
100
AcDbEntity
  8
1
  6
CONTINUOUS
370
50
 62
4
100
AcDbLine
 10
69.20311
 20
0.9552759999999999
 30
0.0
 11
69.222229
 21
0.962221
 31
0.0
  0
LINE
  5
7FF
330
1F
100
AcDbEntity
  8
1
  6
CONTINUOUS
370
50
 62
4
100
AcDbLine
 10
69.278549
 20
-1.75905
 30
0.0
 11
69.307808
 21
-1.748314
 31
0.0
  0
LINE
  5
800
330
1F
100
AcDbEntity
  8
1
  6
CONTINUOUS
370
50
 62
4
100
AcDbLine
 10
57.512772
 20
1.869086
 30
0.0
 11
57.548679
 21
1.882323
 31
0.0
  0
LINE
  5
801
330
1F
100
AcDbEntity
  8
1
  6
CONTINUOUS
370
50
 62
4
100
AcDbLine
 10
69.862099
 20
-1.335935
 30
0.0
 11
69.872368
 21
-1.332002
 31
0.0
  0
LINE
  5
802
330
1F
100
AcDbEntity
  8
1
  6
CONTINUOUS
370
50
 62
4
100
AcDbLine
 10
67.195343
 20
1.385788
 30
0.0
 11
67.551811
 21
1.526607
 31
0.0
  0
LINE
  5
803
330
1F
100
AcDbEntity
  8
1
  6
CONTINUOUS
370
50
 62
4
100
AcDbLine
 10
69.418289
 20
-1.882857
 30
0.0
 11
69.46816299999999
 21
-1.862888
 31
0.0
  0
LINE
  5
804
330
1F
100
AcDbEntity
  8
1
  6
CONTINUOUS
370
50
 62
4
100
AcDbLine
 10
57.47855
 20
1.854978
 30
0.0
 11
57.512772
 21
1.869086
 31
0.0
  0
LINE
  5
805
330
1F
100
AcDbEntity
  8
1
  6
CONTINUOUS
370
50
 62
4
100
AcDbLine
 10
69.307808
 20
-1.748314
 30
0.0
 11
69.336243
 21
-1.735945
 31
0.0
  0
LINE
  5
806
330
1F
100
AcDbEntity
  8
1
  6
CONTINUOUS
370
50
 62
4
100
AcDbLine
 10
66.841835
 20
1.227283
 30
0.0
 11
67.195343
 21
1.385788
 31
0.0
  0
LINE
  5
807
330
1F
100
AcDbEntity
  8
1
  6
CONTINUOUS
370
50
 62
4
100
AcDbLine
 10
57.446281
 20
1.840099
 30
0.0
 11
57.47855
 21
1.854978
 31
0.0
  0
LINE
  5
808
330
1F
100
AcDbEntity
  8
1
  6
CONTINUOUS
370
50
 62
4
100
AcDbLine
 10
56.725933
 20
-1.132928
 30
0.0
 11
56.772961
 21
-1.111026
 31
0.0
  0
LINE
  5
809
330
1F
100
AcDbEntity
  8
1
  6
CONTINUOUS
370
50
 62
4
100
AcDbLine
 10
69.46816299999999
 20
-1.862888
 30
0.0
 11
69.516975
 21
-1.839357
 31
0.0
  0
LINE
  5
80A
330
1F
100
AcDbEntity
  8
1
  6
CONTINUOUS
370
50
 62
4
100
AcDbLine
 10
66.483856
 20
1.053077
 30
0.0
 11
66.841835
 21
1.227283
 31
0.0
  0
LINE
  5
80B
330
1F
100
AcDbEntity
  8
1
  6
CONTINUOUS
370
50
 62
4
100
AcDbLine
 10
56.772961
 20
-1.111026
 30
0.0
 11
56.819485
 21
-1.088124
 31
0.0
  0
LINE
  5
80C
330
1F
100
AcDbEntity
  8
1
  6
CONTINUOUS
370
50
 62
4
100
AcDbLine
 10
69.336243
 20
-1.735945
 30
0.0
 11
69.363838
 21
-1.722063
 31
0.0
  0
LINE
  5
80D
330
1F
100
AcDbEntity
  8
1
  6
CONTINUOUS
370
50
 62
4
100
AcDbLine
 10
57.415981
 20
1.824467
 30
0.0
 11
57.446281
 21
1.840099
 31
0.0
  0
LINE
  5
80E
330
1F
100
AcDbEntity
  8
1
  6
CONTINUOUS
370
50
 62
4
100
AcDbLine
 10
56.819485
 20
-1.088124
 30
0.0
 11
56.865471
 21
-1.064216
 31
0.0
  0
LINE
  5
80F
330
1F
100
AcDbEntity
  8
1
  6
CONTINUOUS
370
50
 62
4
100
AcDbLine
 10
69.872368
 20
-1.332002
 30
0.0
 11
69.882324
 21
-1.326747
 31
0.0
  0
LINE
  5
810
330
1F
100
AcDbEntity
  8
1
  6
CONTINUOUS
370
50
 62
4
100
AcDbLine
 10
56.865471
 20
-1.064216
 30
0.0
 11
56.910904
 21
-1.039295
 31
0.0
  0
LINE
  5
811
330
1F
100
AcDbEntity
  8
1
  6
CONTINUOUS
370
50
 62
4
100
AcDbLine
 10
69.516975
 20
-1.839357
 30
0.0
 11
69.564598
 21
-1.812267
 31
0.0
  0
LINE
  5
812
330
1F
100
AcDbEntity
  8
1
  6
CONTINUOUS
370
50
 62
4
100
AcDbLine
 10
69.363838
 20
-1.722063
 30
0.0
 11
69.39057199999999
 21
-1.706791
 31
0.0
  0
LINE
  5
813
330
1F
100
AcDbEntity
  8
1
  6
CONTINUOUS
370
50
 62
4
100
AcDbLine
 10
57.38766099999999
 20
1.808097
 30
0.0
 11
57.415981
 21
1.824467
 31
0.0
  0
LINE
  5
814
330
1F
100
AcDbEntity
  8
1
  6
CONTINUOUS
370
50
 62
4
100
AcDbLine
 10
56.910904
 20
-1.039295
 30
0.0
 11
56.95575299999999
 21
-1.013353
 31
0.0
  0
LINE
  5
815
330
1F
100
AcDbEntity
  8
1
  6
CONTINUOUS
370
50
 62
4
100
AcDbLine
 10
56.95575299999999
 20
-1.013353
 30
0.0
 11
57.0
 21
-0.986383
 31
0.0
  0
LINE
  5
816
330
1F
100
AcDbEntity
  8
1
  6
CONTINUOUS
370
50
 62
4
100
AcDbLine
 10
69.39057199999999
 20
-1.706791
 30
0.0
 11
69.416389
 21
-1.690269
 31
0.0
  0
LINE
  5
817
330
1F
100
AcDbEntity
  8
1
  6
CONTINUOUS
370
50
 62
4
100
AcDbLine
 10
57.361332
 20
1.791008
 30
0.0
 11
57.38766099999999
 21
1.808097
 31
0.0
  0
LINE
  5
818
330
1F
100
AcDbEntity
  8
1
  6
CONTINUOUS
370
50
 62
4
100
AcDbLine
 10
69.222229
 20
0.962221
 30
0.0
 11
69.238968
 21
0.973213
 31
0.0
  0
LINE
  5
819
330
1F
100
AcDbEntity
  8
1
  6
CONTINUOUS
370
50
 62
4
100
AcDbLine
 10
69.564598
 20
-1.812267
 30
0.0
 11
69.606369
 21
-1.784289
 31
0.0
  0
LINE
  5
81A
330
1F
100
AcDbEntity
  8
1
  6
CONTINUOUS
370
50
 62
4
100
AcDbLine
 10
69.882324
 20
-1.326747
 30
0.0
 11
69.89207499999999
 21
-1.32008
 31
0.0
  0
LINE
  5
81B
330
1F
100
AcDbEntity
  8
1
  6
CONTINUOUS
370
50
 62
4
100
AcDbLine
 10
69.416389
 20
-1.690269
 30
0.0
 11
69.44126899999999
 21
-1.672628
 31
0.0
  0
LINE
  5
81C
330
1F
100
AcDbEntity
  8
1
  6
CONTINUOUS
370
50
 62
4
100
AcDbLine
 10
57.337006
 20
1.773217
 30
0.0
 11
57.361332
 21
1.791008
 31
0.0
  0
LINE
  5
81D
330
1F
100
AcDbEntity
  8
1
  6
CONTINUOUS
370
50
 62
4
100
AcDbLine
 10
69.606369
 20
-1.784289
 30
0.0
 11
69.645653
 21
-1.754689
 31
0.0
  0
LINE
  5
81E
330
1F
100
AcDbEntity
  8
1
  6
CONTINUOUS
370
50
 62
4
100
AcDbLine
 10
57.0
 20
-0.986383
 30
0.0
 11
57.06216
 21
-0.9386549999999999
 31
0.0
  0
LINE
  5
81F
330
1F
100
AcDbEntity
  8
1
  6
CONTINUOUS
370
50
 62
4
100
AcDbLine
 10
69.44126899999999
 20
-1.672628
 30
0.0
 11
69.46520199999999
 21
-1.653998
 31
0.0
  0
LINE
  5
820
330
1F
100
AcDbEntity
  8
1
  6
CONTINUOUS
370
50
 62
4
100
AcDbLine
 10
57.314693
 20
1.754739
 30
0.0
 11
57.337006
 21
1.773217
 31
0.0
  0
LINE
  5
821
330
1F
100
AcDbEntity
  8
1
  6
CONTINUOUS
370
50
 62
4
100
AcDbLine
 10
69.645653
 20
-1.754689
 30
0.0
 11
69.681969
 21
-1.724069
 31
0.0
  0
LINE
  5
822
330
1F
100
AcDbEntity
  8
1
  6
CONTINUOUS
370
50
 62
4
100
AcDbLine
 10
57.06216
 20
-0.9386549999999999
 30
0.0
 11
57.122276
 21
-0.8879199999999999
 31
0.0
  0
LINE
  5
823
330
1F
100
AcDbEntity
  8
1
  6
CONTINUOUS
370
50
 62
4
100
AcDbLine
 10
69.46520199999999
 20
-1.653998
 30
0.0
 11
69.48816699999999
 21
-1.634508
 31
0.0
  0
LINE
  5
824
330
1F
100
AcDbEntity
  8
1
  6
CONTINUOUS
370
50
 62
4
100
AcDbLine
 10
69.89207499999999
 20
-1.32008
 30
0.0
 11
69.90207699999999
 21
-1.311583
 31
0.0
  0
LINE
  5
825
330
1F
100
AcDbEntity
  8
1
  6
CONTINUOUS
370
50
 62
4
100
AcDbLine
 10
56.341755
 20
-1.674936
 30
0.0
 11
56.398315
 21
-1.625641
 31
0.0
  0
LINE
  5
826
330
1F
100
AcDbEntity
  8
1
  6
CONTINUOUS
370
50
 62
4
100
AcDbLine
 10
69.48816699999999
 20
-1.634508
 30
0.0
 11
69.510155
 21
-1.614287
 31
0.0
  0
LINE
  5
827
330
1F
100
AcDbEntity
  8
1
  6
CONTINUOUS
370
50
 62
4
100
AcDbLine
 10
57.122276
 20
-0.8879199999999999
 30
0.0
 11
57.180187
 21
-0.8342609999999999
 31
0.0
  0
LINE
  5
828
330
1F
100
AcDbEntity
  8
1
  6
CONTINUOUS
370
50
 62
4
100
AcDbLine
 10
69.681969
 20
-1.724069
 30
0.0
 11
69.718193
 21
-1.689983
 31
0.0
  0
LINE
  5
829
330
1F
100
AcDbEntity
  8
1
  6
CONTINUOUS
370
50
 62
4
100
AcDbLine
 10
57.294403
 20
1.735592
 30
0.0
 11
57.314693
 21
1.754739
 31
0.0
  0
LINE
  5
82A
330
1F
100
AcDbEntity
  8
1
  6
CONTINUOUS
370
50
 62
4
100
AcDbLine
 10
56.398315
 20
-1.625641
 30
0.0
 11
56.450424
 21
-1.57642
 31
0.0
  0
LINE
  5
82B
330
1F
100
AcDbEntity
  8
1
  6
CONTINUOUS
370
50
 62
4
100
AcDbLine
 10
69.510155
 20
-1.614287
 30
0.0
 11
69.53147899999999
 21
-1.593139
 31
0.0
  0
LINE
  5
82C
330
1F
100
AcDbEntity
  8
1
  6
CONTINUOUS
370
50
 62
4
100
AcDbLine
 10
57.180187
 20
-0.8342609999999999
 30
0.0
 11
57.235722
 21
-0.777758
 31
0.0
  0
LINE
  5
82D
330
1F
100
AcDbEntity
  8
1
  6
CONTINUOUS
370
50
 62
4
100
AcDbLine
 10
69.90207699999999
 20
-1.311583
 30
0.0
 11
69.91218599999999
 21
-1.301189
 31
0.0
  0
LINE
  5
82E
330
1F
100
AcDbEntity
  8
1
  6
CONTINUOUS
370
50
 62
4
100
AcDbLine
 10
56.450424
 20
-1.57642
 30
0.0
 11
56.498131
 21
-1.52725
 31
0.0
  0
LINE
  5
82F
330
1F
100
AcDbEntity
  8
1
  6
CONTINUOUS
370
50
 62
4
100
AcDbLine
 10
69.238968
 20
0.973213
 30
0.0
 11
69.253113
 21
0.988038
 31
0.0
  0
LINE
  5
830
330
1F
100
AcDbEntity
  8
1
  6
CONTINUOUS
370
50
 62
4
100
AcDbLine
 10
69.718193
 20
-1.689983
 30
0.0
 11
69.753716
 21
-1.652676
 31
0.0
  0
LINE
  5
831
330
1F
100
AcDbEntity
  8
1
  6
CONTINUOUS
370
50
 62
4
100
AcDbLine
 10
69.53147899999999
 20
-1.593139
 30
0.0
 11
69.552437
 21
-1.570804
 31
0.0
  0
LINE
  5
832
330
1F
100
AcDbEntity
  8
1
  6
CONTINUOUS
370
50
 62
4
100
AcDbLine
 10
57.276104
 20
1.715738
 30
0.0
 11
57.294403
 21
1.735592
 31
0.0
  0
LINE
  5
833
330
1F
100
AcDbEntity
  8
1
  6
CONTINUOUS
370
50
 62
4
100
AcDbLine
 10
57.235722
 20
-0.777758
 30
0.0
 11
57.288723
 21
-0.718491
 31
0.0
  0
LINE
  5
834
330
1F
100
AcDbEntity
  8
1
  6
CONTINUOUS
370
50
 62
4
100
AcDbLine
 10
56.498131
 20
-1.52725
 30
0.0
 11
56.541481
 21
-1.478108
 31
0.0
  0
LINE
  5
835
330
1F
100
AcDbEntity
  8
1
  6
CONTINUOUS
370
50
 62
4
100
AcDbLine
 10
69.552437
 20
-1.570804
 30
0.0
 11
69.57300599999999
 21
-1.547282
 31
0.0
  0
LINE
  5
836
330
1F
100
AcDbEntity
  8
1
  6
CONTINUOUS
370
50
 62
4
100
AcDbLine
 10
69.753716
 20
-1.652676
 30
0.0
 11
69.787262
 21
-1.613129
 31
0.0
  0
LINE
  5
837
330
1F
100
AcDbEntity
  8
1
  6
CONTINUOUS
370
50
 62
4
100
AcDbLine
 10
69.57300599999999
 20
-1.547282
 30
0.0
 11
69.59318499999999
 21
-1.522575
 31
0.0
  0
LINE
  5
838
330
1F
100
AcDbEntity
  8
1
  6
CONTINUOUS
370
50
 62
4
100
AcDbLine
 10
57.288723
 20
-0.718491
 30
0.0
 11
57.339016
 21
-0.656543
 31
0.0
  0
LINE
  5
839
330
1F
100
AcDbEntity
  8
1
  6
CONTINUOUS
370
50
 62
4
100
AcDbLine
 10
69.91218599999999
 20
-1.301189
 30
0.0
 11
69.92218799999999
 21
-1.288859
 31
0.0
  0
LINE
  5
83A
330
1F
100
AcDbEntity
  8
1
  6
CONTINUOUS
370
50
 62
4
100
AcDbLine
 10
56.541481
 20
-1.478108
 30
0.0
 11
56.580517
 21
-1.428969
 31
0.0
  0
LINE
  5
83B
330
1F
100
AcDbEntity
  8
1
  6
CONTINUOUS
370
50
 62
4
100
AcDbLine
 10
57.259586
 20
1.694854
 30
0.0
 11
57.276104
 21
1.715738
 31
0.0
  0
LINE
  5
83C
330
1F
100
AcDbEntity
  8
1
  6
CONTINUOUS
370
50
 62
4
100
AcDbLine
 10
69.59318499999999
 20
-1.522575
 30
0.0
 11
69.612961
 21
-1.496685
 31
0.0
  0
LINE
  5
83D
330
1F
100
AcDbEntity
  8
1
  6
CONTINUOUS
370
50
 62
4
100
AcDbLine
 10
69.787262
 20
-1.613129
 30
0.0
 11
69.81792399999999
 21
-1.572736
 31
0.0
  0
LINE
  5
83E
330
1F
100
AcDbEntity
  8
1
  6
CONTINUOUS
370
50
 62
4
100
AcDbLine
 10
57.339016
 20
-0.656543
 30
0.0
 11
57.386444
 21
-0.591993
 31
0.0
  0
LINE
  5
83F
330
1F
100
AcDbEntity
  8
1
  6
CONTINUOUS
370
50
 62
4
100
AcDbLine
 10
69.612961
 20
-1.496685
 30
0.0
 11
69.63233199999999
 21
-1.469613
 31
0.0
  0
LINE
  5
840
330
1F
100
AcDbEntity
  8
1
  6
CONTINUOUS
370
50
 62
4
100
AcDbLine
 10
56.580517
 20
-1.428969
 30
0.0
 11
56.61527599999999
 21
-1.379811
 31
0.0
  0
LINE
  5
841
330
1F
100
AcDbEntity
  8
1
  6
CONTINUOUS
370
50
 62
4
100
AcDbLine
 10
69.92218799999999
 20
-1.288859
 30
0.0
 11
69.93189199999999
 21
-1.274643
 31
0.0
  0
LINE
  5
842
330
1F
100
AcDbEntity
  8
1
  6
CONTINUOUS
370
50
 62
4
100
AcDbLine
 10
69.81792399999999
 20
-1.572736
 30
0.0
 11
69.845444
 21
-1.532154
 31
0.0
  0
LINE
  5
843
330
1F
100
AcDbEntity
  8
1
  6
CONTINUOUS
370
50
 62
4
100
AcDbLine
 10
69.63233199999999
 20
-1.469613
 30
0.0
 11
69.65128299999999
 21
-1.441362
 31
0.0
  0
LINE
  5
844
330
1F
100
AcDbEntity
  8
1
  6
CONTINUOUS
370
50
 62
4
100
AcDbLine
 10
57.24498
 20
1.672905
 30
0.0
 11
57.259586
 21
1.694854
 31
0.0
  0
LINE
  5
845
330
1F
100
AcDbEntity
  8
1
  6
CONTINUOUS
370
50
 62
4
100
AcDbLine
 10
57.386444
 20
-0.591993
 30
0.0
 11
57.430832
 21
-0.524924
 31
0.0
  0
LINE
  5
846
330
1F
100
AcDbEntity
  8
1
  6
CONTINUOUS
370
50
 62
4
100
AcDbLine
 10
69.65128299999999
 20
-1.441362
 30
0.0
 11
69.66980699999999
 21
-1.411932
 31
0.0
  0
LINE
  5
847
330
1F
100
AcDbEntity
  8
1
  6
CONTINUOUS
370
50
 62
4
100
AcDbLine
 10
69.253113
 20
0.988038
 30
0.0
 11
69.264618
 21
1.006409
 31
0.0
  0
LINE
  5
848
330
1F
100
AcDbEntity
  8
1
  6
CONTINUOUS
370
50
 62
4
100
AcDbLine
 10
56.61527599999999
 20
-1.379811
 30
0.0
 11
56.64579
 21
-1.330611
 31
0.0
  0
LINE
  5
849
330
1F
100
AcDbEntity
  8
1
  6
CONTINUOUS
370
50
 62
4
100
AcDbLine
 10
69.845444
 20
-1.532154
 30
0.0
 11
69.872025
 21
-1.488095
 31
0.0
  0
LINE
  5
84A
330
1F
100
AcDbEntity
  8
1
  6
CONTINUOUS
370
50
 62
4
100
AcDbLine
 10
57.430832
 20
-0.524924
 30
0.0
 11
57.471977
 21
-0.455494
 31
0.0
  0
LINE
  5
84B
330
1F
100
AcDbEntity
  8
1
  6
CONTINUOUS
370
50
 62
4
100
AcDbLine
 10
69.66980699999999
 20
-1.411932
 30
0.0
 11
69.68789699999999
 21
-1.381326
 31
0.0
  0
LINE
  5
84C
330
1F
100
AcDbEntity
  8
1
  6
CONTINUOUS
370
50
 62
4
100
AcDbLine
 10
69.93189199999999
 20
-1.274643
 30
0.0
 11
69.94113899999999
 21
-1.258805
 31
0.0
  0
LINE
  5
84D
330
1F
100
AcDbEntity
  8
1
  6
CONTINUOUS
370
50
 62
4
100
AcDbLine
 10
69.68789699999999
 20
-1.381326
 30
0.0
 11
69.705536
 21
-1.349545
 31
0.0
  0
LINE
  5
84E
330
1F
100
AcDbEntity
  8
1
  6
CONTINUOUS
370
50
 62
4
100
AcDbLine
 10
57.232471
 20
1.649915
 30
0.0
 11
57.24498
 21
1.672905
 31
0.0
  0
LINE
  5
84F
330
1F
100
AcDbEntity
  8
1
  6
CONTINUOUS
370
50
 62
4
100
AcDbLine
 10
56.64579
 20
-1.330611
 30
0.0
 11
56.672092
 21
-1.281346
 31
0.0
  0
LINE
  5
850
330
1F
100
AcDbEntity
  8
1
  6
CONTINUOUS
370
50
 62
4
100
AcDbLine
 10
69.872025
 20
-1.488095
 30
0.0
 11
69.896996
 21
-1.44117
 31
0.0
  0
LINE
  5
851
330
1F
100
AcDbEntity
  8
1
  6
CONTINUOUS
370
50
 62
4
100
AcDbLine
 10
57.471977
 20
-0.455494
 30
0.0
 11
57.509552
 21
-0.384097
 31
0.0
  0
LINE
  5
852
330
1F
100
AcDbEntity
  8
1
  6
CONTINUOUS
370
50
 62
4
100
AcDbLine
 10
69.705536
 20
-1.349545
 30
0.0
 11
69.722717
 21
-1.31659
 31
0.0
  0
LINE
  5
853
330
1F
100
AcDbEntity
  8
1
  6
CONTINUOUS
370
50
 62
4
100
AcDbLine
 10
69.94113899999999
 20
-1.258805
 30
0.0
 11
69.94976
 21
-1.241639
 31
0.0
  0
LINE
  5
854
330
1F
100
AcDbEntity
  8
1
  6
CONTINUOUS
370
50
 62
4
100
AcDbLine
 10
69.722717
 20
-1.31659
 30
0.0
 11
69.739311
 21
-1.282735
 31
0.0
  0
LINE
  5
855
330
1F
100
AcDbEntity
  8
1
  6
CONTINUOUS
370
50
 62
4
100
AcDbLine
 10
57.509552
 20
-0.384097
 30
0.0
 11
57.54347199999999
 21
-0.310822
 31
0.0
  0
LINE
  5
856
330
1F
100
AcDbEntity
  8
1
  6
CONTINUOUS
370
50
 62
4
100
AcDbLine
 10
69.896996
 20
-1.44117
 30
0.0
 11
69.91935699999999
 21
-1.39282
 31
0.0
  0
LINE
  5
857
330
1F
100
AcDbEntity
  8
1
  6
CONTINUOUS
370
50
 62
4
100
AcDbLine
 10
56.672092
 20
-1.281346
 30
0.0
 11
56.694202
 21
-1.231992
 31
0.0
  0
LINE
  5
858
330
1F
100
AcDbEntity
  8
1
  6
CONTINUOUS
370
50
 62
4
100
AcDbLine
 10
69.150452
 20
0.9395709999999999
 30
0.0
 11
69.156555
 21
0.953792
 31
0.0
  0
LINE
  5
859
330
1F
100
AcDbEntity
  8
1
  6
CONTINUOUS
370
50
 62
4
100
AcDbLine
 10
69.94976
 20
-1.241639
 30
0.0
 11
69.957993
 21
-1.222364
 31
0.0
  0
LINE
  5
85A
330
1F
100
AcDbEntity
  8
1
  6
CONTINUOUS
370
50
 62
4
100
AcDbLine
 10
57.22225599999999
 20
1.625908
 30
0.0
 11
57.232471
 21
1.649915
 31
0.0
  0
LINE
  5
85B
330
1F
100
AcDbEntity
  8
1
  6
CONTINUOUS
370
50
 62
4
100
AcDbLine
 10
69.264618
 20
1.006409
 30
0.0
 11
69.27356
 21
1.028102
 31
0.0
  0
LINE
  5
85C
330
1F
100
AcDbEntity
  8
1
  6
CONTINUOUS
370
50
 62
4
100
AcDbLine
 10
69.865562
 20
0.798557
 30
0.0
 11
69.87887599999999
 21
0.831395
 31
0.0
  0
LINE
  5
85D
330
1F
100
AcDbEntity
  8
1
  6
CONTINUOUS
370
50
 62
4
100
AcDbLine
 10
57.54347199999999
 20
-0.310822
 30
0.0
 11
57.573673
 21
-0.235722
 31
0.0
  0
LINE
  5
85E
330
1F
100
AcDbEntity
  8
1
  6
CONTINUOUS
370
50
 62
4
100
AcDbLine
 10
69.91935699999999
 20
-1.39282
 30
0.0
 11
69.93856
 21
-1.344784
 31
0.0
  0
LINE
  5
85F
330
1F
100
AcDbEntity
  8
1
  6
CONTINUOUS
370
50
 62
4
100
AcDbLine
 10
69.852791
 20
0.763647
 30
0.0
 11
69.865562
 21
0.798557
 31
0.0
  0
LINE
  5
860
330
1F
100
AcDbEntity
  8
1
  6
CONTINUOUS
370
50
 62
4
100
AcDbLine
 10
69.957993
 20
-1.222364
 30
0.0
 11
69.966156
 21
-1.19999
 31
0.0
  0
LINE
  5
861
330
1F
100
AcDbEntity
  8
1
  6
CONTINUOUS
370
50
 62
4
100
AcDbLine
 10
56.694202
 20
-1.231992
 30
0.0
 11
56.712143
 21
-1.182527
 31
0.0
  0
LINE
  5
862
330
1F
100
AcDbEntity
  8
1
  6
CONTINUOUS
370
50
 62
4
100
AcDbLine
 10
69.145203
 20
0.924384
 30
0.0
 11
69.150452
 21
0.9395709999999999
 31
0.0
  0
LINE
  5
863
330
1F
100
AcDbEntity
  8
1
  6
CONTINUOUS
370
50
 62
4
100
AcDbLine
 10
57.573673
 20
-0.235722
 30
0.0
 11
57.600086
 21
-0.158849
 31
0.0
  0
LINE
  5
864
330
1F
100
AcDbEntity
  8
1
  6
CONTINUOUS
370
50
 62
4
100
AcDbLine
 10
69.93856
 20
-1.344784
 30
0.0
 11
69.954803
 21
-1.296997
 31
0.0
  0
LINE
  5
865
330
1F
100
AcDbEntity
  8
1
  6
CONTINUOUS
370
50
 62
4
100
AcDbLine
 10
69.840576
 20
0.726722
 30
0.0
 11
69.852791
 21
0.763647
 31
0.0
  0
LINE
  5
866
330
1F
100
AcDbEntity
  8
1
  6
CONTINUOUS
370
50
 62
4
100
AcDbLine
 10
69.966156
 20
-1.19999
 30
0.0
 11
69.97367899999999
 21
-1.175905
 31
0.0
  0
LINE
  5
867
330
1F
100
AcDbEntity
  8
1
  6
CONTINUOUS
370
50
 62
4
100
AcDbLine
 10
57.214516
 20
1.600906
 30
0.0
 11
57.22225599999999
 21
1.625908
 31
0.0
  0
LINE
  5
868
330
1F
100
AcDbEntity
  8
1
  6
CONTINUOUS
370
50
 62
4
100
AcDbLine
 10
69.828957
 20
0.687839
 30
0.0
 11
69.840576
 21
0.726722
 31
0.0
  0
LINE
  5
869
330
1F
100
AcDbEntity
  8
1
  6
CONTINUOUS
370
50
 62
4
100
AcDbLine
 10
57.600086
 20
-0.158849
 30
0.0
 11
57.62265
 21
-0.080257
 31
0.0
  0
LINE
  5
86A
330
1F
100
AcDbEntity
  8
1
  6
CONTINUOUS
370
50
 62
4
100
AcDbLine
 10
69.954803
 20
-1.296997
 30
0.0
 11
69.969261
 21
-1.245873
 31
0.0
  0
LINE
  5
86B
330
1F
100
AcDbEntity
  8
1
  6
CONTINUOUS
370
50
 62
4
100
AcDbLine
 10
56.712143
 20
-1.182527
 30
0.0
 11
56.725933
 21
-1.132928
 31
0.0
  0
LINE
  5
86C
330
1F
100
AcDbEntity
  8
1
  6
CONTINUOUS
370
50
 62
4
100
AcDbLine
 10
69.14080799999999
 20
0.9082399999999999
 30
0.0
 11
69.145203
 21
0.924384
 31
0.0
  0
LINE
  5
86D
330
1F
100
AcDbEntity
  8
1
  6
CONTINUOUS
370
50
 62
4
100
AcDbLine
 10
69.81796299999999
 20
0.647056
 30
0.0
 11
69.828957
 21
0.687839
 31
0.0
  0
LINE
  5
86E
330
1F
100
AcDbEntity
  8
1
  6
CONTINUOUS
370
50
 62
4
100
AcDbLine
 10
69.27356
 20
1.028102
 30
0.0
 11
69.280014
 21
1.052883
 31
0.0
  0
LINE
  5
86F
330
1F
100
AcDbEntity
  8
1
  6
CONTINUOUS
370
50
 62
4
100
AcDbLine
 10
69.97367899999999
 20
-1.175905
 30
0.0
 11
69.980148
 21
-1.150839
 31
0.0
  0
LINE
  5
870
330
1F
100
AcDbEntity
  8
1
  6
CONTINUOUS
370
50
 62
4
100
AcDbLine
 10
69.807617
 20
0.604456
 30
0.0
 11
69.81796299999999
 21
0.647056
 31
0.0
  0
LINE
  5
871
330
1F
100
AcDbEntity
  8
1
  6
CONTINUOUS
370
50
 62
4
100
AcDbLine
 10
57.62265
 20
-0.080257
 30
0.0
 11
57.64129999999999
 21
0.0
 31
0.0
  0
LINE
  5
872
330
1F
100
AcDbEntity
  8
1
  6
CONTINUOUS
370
50
 62
4
100
AcDbLine
 10
69.969261
 20
-1.245873
 30
0.0
 11
69.981224
 21
-1.192805
 31
0.0
  0
LINE
  5
873
330
1F
100
AcDbEntity
  8
1
  6
CONTINUOUS
370
50
 62
4
100
AcDbLine
 10
69.797981
 20
0.560241
 30
0.0
 11
69.807617
 21
0.604456
 31
0.0
  0
LINE
  5
874
330
1F
100
AcDbEntity
  8
1
  6
CONTINUOUS
370
50
 62
4
100
AcDbLine
 10
69.980148
 20
-1.150839
 30
0.0
 11
69.98610699999999
 21
-1.122337
 31
0.0
  0
LINE
  5
875
330
1F
100
AcDbEntity
  8
1
  6
CONTINUOUS
370
50
 62
4
100
AcDbLine
 10
69.137283
 20
0.891149
 30
0.0
 11
69.14080799999999
 21
0.9082399999999999
 31
0.0
  0
LINE
  5
876
330
1F
100
AcDbEntity
  8
1
  6
CONTINUOUS
370
50
 62
4
100
AcDbLine
 10
57.209442
 20
1.574939
 30
0.0
 11
57.214516
 21
1.600906
 31
0.0
  0
LINE
  5
877
330
1F
100
AcDbEntity
  8
1
  6
CONTINUOUS
370
50
 62
4
100
AcDbLine
 10
69.789078
 20
0.5145109999999999
 30
0.0
 11
69.797981
 21
0.560241
 31
0.0
  0
LINE
  5
878
330
1F
100
AcDbEntity
  8
1
  6
CONTINUOUS
370
50
 62
4
100
AcDbLine
 10
69.75196799999999
 20
0.291159
 30
0.0
 11
69.766998
 21
0.369073
 31
0.0
  0
LINE
  5
879
330
1F
100
AcDbEntity
  8
1
  6
CONTINUOUS
370
50
 62
4
100
AcDbLine
 10
57.64129999999999
 20
0.0
 30
0.0
 11
57.654034
 21
0.069485
 31
0.0
  0
LINE
  5
87A
330
1F
100
AcDbEntity
  8
1
  6
CONTINUOUS
370
50
 62
4
100
AcDbLine
 10
69.780937
 20
0.467351
 30
0.0
 11
69.789078
 21
0.5145109999999999
 31
0.0
  0
LINE
  5
87B
330
1F
100
AcDbEntity
  8
1
  6
CONTINUOUS
370
50
 62
4
100
AcDbLine
 10
69.73822799999999
 20
0.211002
 30
0.0
 11
69.75196799999999
 21
0.291159
 31
0.0
  0
LINE
  5
87C
330
1F
100
AcDbEntity
  8
1
  6
CONTINUOUS
370
50
 62
4
100
AcDbLine
 10
69.981224
 20
-1.192805
 30
0.0
 11
69.99018099999999
 21
-1.139606
 31
0.0
  0
LINE
  5
87D
330
1F
100
AcDbEntity
  8
1
  6
CONTINUOUS
370
50
 62
4
100
AcDbLine
 10
69.98610699999999
 20
-1.122337
 30
0.0
 11
69.99114999999999
 21
-1.092315
 31
0.0
  0
LINE
  5
87E
330
1F
100
AcDbEntity
  8
1
  6
CONTINUOUS
370
50
 62
4
100
AcDbLine
 10
69.773567
 20
0.418844
 30
0.0
 11
69.780937
 21
0.467351
 31
0.0
  0
LINE
  5
87F
330
1F
100
AcDbEntity
  8
1
  6
CONTINUOUS
370
50
 62
4
100
AcDbLine
 10
69.725838
 20
0.128744
 30
0.0
 11
69.73822799999999
 21
0.211002
 31
0.0
  0
LINE
  5
880
330
1F
100
AcDbEntity
  8
1
  6
CONTINUOUS
370
50
 62
4
100
AcDbLine
 10
69.13462799999999
 20
0.873118
 30
0.0
 11
69.137283
 21
0.891149
 31
0.0
  0
LINE
  5
881
330
1F
100
AcDbEntity
  8
1
  6
CONTINUOUS
370
50
 62
4
100
AcDbLine
 10
69.280014
 20
1.052883
 30
0.0
 11
69.28405
 21
1.080364
 31
0.0
  0
LINE
  5
882
330
1F
100
AcDbEntity
  8
1
  6
CONTINUOUS
370
50
 62
4
100
AcDbLine
 10
57.654034
 20
0.069485
 30
0.0
 11
57.663765
 21
0.139053
 31
0.0
  0
LINE
  5
883
330
1F
100
AcDbEntity
  8
1
  6
CONTINUOUS
370
50
 62
4
100
AcDbLine
 10
69.766998
 20
0.369073
 30
0.0
 11
69.773567
 21
0.418844
 31
0.0
  0
LINE
  5
884
330
1F
100
AcDbEntity
  8
1
  6
CONTINUOUS
370
50
 62
4
100
AcDbLine
 10
69.714821
 20
0.044525
 30
0.0
 11
69.725838
 21
0.128744
 31
0.0
  0
LINE
  5
885
330
1F
100
AcDbEntity
  8
1
  6
CONTINUOUS
370
50
 62
4
100
AcDbLine
 10
69.99114999999999
 20
-1.092315
 30
0.0
 11
69.994934
 21
-1.061872
 31
0.0
  0
LINE
  5
886
330
1F
100
AcDbEntity
  8
1
  6
CONTINUOUS
370
50
 62
4
100
AcDbLine
 10
69.99018099999999
 20
-1.139606
 30
0.0
 11
69.996101
 21
-1.08822
 31
0.0
  0
LINE
  5
887
330
1F
100
AcDbEntity
  8
1
  6
CONTINUOUS
370
50
 62
4
100
AcDbLine
 10
69.705238
 20
-0.041514
 30
0.0
 11
69.714821
 21
0.044525
 31
0.0
  0
LINE
  5
888
330
1F
100
AcDbEntity
  8
1
  6
CONTINUOUS
370
50
 62
4
100
AcDbLine
 10
57.663765
 20
0.139053
 30
0.0
 11
57.670582
 21
0.208615
 31
0.0
  0
LINE
  5
889
330
1F
100
AcDbEntity
  8
1
  6
CONTINUOUS
370
50
 62
4
100
AcDbLine
 10
69.132843
 20
0.854159
 30
0.0
 11
69.13462799999999
 21
0.873118
 31
0.0
  0
LINE
  5
88A
330
1F
100
AcDbEntity
  8
1
  6
CONTINUOUS
370
50
 62
4
100
AcDbLine
 10
69.697136
 20
-0.129231
 30
0.0
 11
69.705238
 21
-0.041514
 31
0.0
  0
LINE
  5
88B
330
1F
100
AcDbEntity
  8
1
  6
CONTINUOUS
370
50
 62
4
100
AcDbLine
 10
69.994934
 20
-1.061872
 30
0.0
 11
69.99777999999999
 21
-1.028533
 31
0.0
  0
LINE
  5
88C
330
1F
100
AcDbEntity
  8
1
  6
CONTINUOUS
370
50
 62
4
100
AcDbLine
 10
57.207249
 20
1.54819
 30
0.0
 11
57.209442
 21
1.574939
 31
0.0
  0
LINE
  5
88D
330
1F
100
AcDbEntity
  8
1
  6
CONTINUOUS
370
50
 62
4
100
AcDbLine
 10
69.690552
 20
-0.218486
 30
0.0
 11
69.697136
 21
-0.129231
 31
0.0
  0
LINE
  5
88E
330
1F
100
AcDbEntity
  8
1
  6
CONTINUOUS
370
50
 62
4
100
AcDbLine
 10
69.28405
 20
1.080364
 30
0.0
 11
69.285789
 21
1.110245
 31
0.0
  0
LINE
  5
88F
330
1F
100
AcDbEntity
  8
1
  6
CONTINUOUS
370
50
 62
4
100
AcDbLine
 10
57.670582
 20
0.208615
 30
0.0
 11
57.674595
 21
0.278085
 31
0.0
  0
LINE
  5
890
330
1F
100
AcDbEntity
  8
1
  6
CONTINUOUS
370
50
 62
4
100
AcDbLine
 10
69.685547
 20
-0.308775
 30
0.0
 11
69.690552
 21
-0.218486
 31
0.0
  0
LINE
  5
891
330
1F
100
AcDbEntity
  8
1
  6
CONTINUOUS
370
50
 62
4
100
AcDbLine
 10
69.99777999999999
 20
-1.028533
 30
0.0
 11
69.99947399999999
 21
-0.9954059999999999
 31
0.0
  0
LINE
  5
892
330
1F
100
AcDbEntity
  8
1
  6
CONTINUOUS
370
50
 62
4
100
AcDbLine
 10
69.13195
 20
0.834278
 30
0.0
 11
69.132843
 21
0.854159
 31
0.0
  0
LINE
  5
893
330
1F
100
AcDbEntity
  8
1
  6
CONTINUOUS
370
50
 62
4
100
AcDbLine
 10
69.682175
 20
-0.399567
 30
0.0
 11
69.685547
 21
-0.308775
 31
0.0
  0
LINE
  5
894
330
1F
100
AcDbEntity
  8
1
  6
CONTINUOUS
370
50
 62
4
100
AcDbLine
 10
69.68045
 20
-0.490669
 30
0.0
 11
69.682175
 21
-0.399567
 31
0.0
  0
LINE
  5
895
330
1F
100
AcDbEntity
  8
1
  6
CONTINUOUS
370
50
 62
4
100
AcDbLine
 10
57.674595
 20
0.278085
 30
0.0
 11
57.6759
 21
0.347376
 31
0.0
  0
LINE
  5
896
330
1F
100
AcDbEntity
  8
1
  6
CONTINUOUS
370
50
 62
4
100
AcDbLine
 10
69.99947399999999
 20
-0.9954059999999999
 30
0.0
 11
70.0
 21
-0.96222
 31
0.0
  0
LINE
  5
897
330
1F
100
AcDbEntity
  8
1
  6
CONTINUOUS
370
50
 62
4
100
AcDbLine
 10
69.680374
 20
-0.581893
 30
0.0
 11
69.68045
 21
-0.490669
 31
0.0
  0
LINE
  5
898
330
1F
100
AcDbEntity
  8
1
  6
CONTINUOUS
370
50
 62
4
100
AcDbLine
 10
53.299999
 20
-2.99995
 30
0.0
 11
53.299999
 21
2.99995
 31
0.0
  0
LINE
  5
899
330
1F
100
AcDbEntity
  8
1
  6
CONTINUOUS
370
50
 62
4
100
AcDbLine
 10
57.0
 20
-0.986383
 30
0.0
 11
57.0
 21
1.99995
 31
0.0
  0
LINE
  5
89A
330
1F
100
AcDbEntity
  8
1
  6
CONTINUOUS
370
50
 62
4
100
AcDbLine
 10
57.0
 20
-1.99995
 30
0.0
 11
57.0
 21
-1.892693
 31
0.0
  0
LINE
  5
89B
330
1F
100
AcDbEntity
  8
1
  6
CONTINUOUS
370
50
 62
4
100
AcDbLine
 10
59.0
 20
-1.998805
 30
0.0
 11
59.0
 21
1.998805
 31
0.0
  0
LINE
  5
89C
330
1F
100
AcDbEntity
  8
1
  6
CONTINUOUS
370
50
 62
4
100
AcDbLine
 10
69.0
 20
-1.916878
 30
0.0
 11
69.0
 21
-1.766978
 31
0.0
  0
LINE
  5
89D
330
1F
100
AcDbEntity
  8
1
  6
CONTINUOUS
370
50
 62
4
100
AcDbLine
 10
70.0
 20
-1.0
 30
0.0
 11
70.0
 21
0.350515
 31
0.0
  0
LINE
  5
89E
330
1F
100
AcDbEntity
  8
1
  6
CONTINUOUS
370
50
 62
4
100
AcDbLine
 10
70.0
 20
0.350516
 30
0.0
 11
70.0
 21
0.999999
 31
0.0
  0
ELLIPSE
  5
89F
330
1F
100
AcDbEntity
  8
1
  6
CONTINUOUS
370
50
 62
4
100
AcDbEllipse
 10
58.113557
 20
-2.360289
 30
0.0
 11
-2.039759087247475
 21
0.7375237587009252
 31
0.0
210
0.0
220
0.0
230
0.9999999999999998
 40
0.1648337198176702
 41
4.750737661075117
 42
5.707895635680814
  0
ELLIPSE
  5
8A0
330
1F
100
AcDbEntity
  8
1
  6
CONTINUOUS
370
50
 62
4
100
AcDbEllipse
 10
58.237916
 20
-2.016352
 30
0.0
 11
-1.942296113562491
 21
0.7022836859218964
 31
0.0
210
0.0
220
0.0
230
0.9999999999999999
 40
0.1648337630413355
 41
4.369475064304062
 42
5.696299216025371
  0
ELLIPSE
  5
8A1
330
1F
100
AcDbEntity
  8
1
  6
CONTINUOUS
370
50
 62
4
100
AcDbEllipse
 10
59.117323
 20
0.415813
 30
0.0
 11
-2.046835812606598
 21
0.7400825182715008
 31
0.0
210
0.0
220
0.0
230
1.0
 40
0.1648339791679911
 41
4.829167382260814
 42
5.705975943420754
  0
ELLIPSE
  5
8A2
330
1F
100
AcDbEntity
  8
1
  6
CONTINUOUS
370
50
 62
4
100
AcDbEllipse
 10
59.332316
 20
1.010416
 30
0.0
 11
-2.826048207851798
 21
1.021825425147391
 31
0.0
210
0.0
220
0.0
230
0.9999999999999998
 40
0.1648336754325176
 41
4.889571385442619
 42
5.295638050328378
  0
ARC
  5
8A3
330
1F
100
AcDbEntity
  8
1
  6
CONTINUOUS
370
50
 62
4
100
AcDbCircle
 10
69.0
 20
-1.0
 30
0.0
 40
0.9999999999999992
100
AcDbArc
 50
355.1331767230603
 51
0.0
  0
LINE
  5
8A4
330
1F
100
AcDbEntity
  8
CUT
  6
CONTINUOUS
370
25
 62
1
100
AcDbLine
 10
59.0
 20
0.0
 30
0.0
 11
70.0
 21
0.0
 31
0.0
  0
LINE
  5
8A5
330
1F
100
AcDbEntity
  8
CUT
  6
CONTINUOUS
370
25
 62
1
100
AcDbLine
 10
70.0
 20
0.0
 30
0.0
 11
70.0
 21
1.0
 31
0.0
  0
ARC
  5
8A6
330
1F
100
AcDbEntity
  8
CUT
  6
CONTINUOUS
370
25
 62
1
100
AcDbCircle
 10
69.0
 20
1.0
 30
0.0
 40
1.0
100
AcDbArc
 50
0.0
 51
90.0
  0
LINE
  5
8A7
330
1F
100
AcDbEntity
  8
CUT
  6
CONTINUOUS
370
25
 62
1
100
AcDbLine
 10
69.0
 20
2.0
 30
0.0
 11
59.0
 21
1.9999
 31
0.0
  0
LINE
  5
8A8
330
1F
100
AcDbEntity
  8
CUT
  6
CONTINUOUS
370
25
 62
1
100
AcDbLine
 10
59.0
 20
1.9999
 30
0.0
 11
59.0
 21
0.0
 31
0.0
  0
LINE
  5
8A9
330
1F
100
AcDbEntity
  8
NOCUT
  6
CONTINUOUS
370
25
 62
7
100
AcDbLine
 10
53.3
 20
0.0
 30
0.0
 11
59.0
 21
0.0
 31
0.0
  0
LINE
  5
8AA
330
1F
100
AcDbEntity
  8
NOCUT
  6
CONTINUOUS
370
25
 62
7
100
AcDbLine
 10
59.0
 20
0.0
 30
0.0
 11
59.0
 21
1.99995
 31
0.0
  0
LINE
  5
8AB
330
1F
100
AcDbEntity
  8
NOCUT
  6
CONTINUOUS
370
25
 62
7
100
AcDbLine
 10
59.0
 20
1.99995
 30
0.0
 11
57.0
 21
1.99995
 31
0.0
  0
LINE
  5
8AC
330
1F
100
AcDbEntity
  8
NOCUT
  6
CONTINUOUS
370
25
 62
7
100
AcDbLine
 10
57.0
 20
1.99995
 30
0.0
 11
53.3
 21
2.99995
 31
0.0
  0
LINE
  5
8AD
330
1F
100
AcDbEntity
  8
NOCUT
  6
CONTINUOUS
370
25
 62
7
100
AcDbLine
 10
53.3
 20
2.99995
 30
0.0
 11
53.3
 21
0.0
 31
0.0
  0
LINE
  5
8AE
330
1F
100
AcDbEntity
  8
SK1
  6
CONTINUOUS
370
50
 62
4
100
AcDbLine
 10
53.3
 20
3.0
 30
0.0
 11
0.3999999999999986
 21
3.0
 31
0.0
  0
LINE
  5
8AF
330
1F
100
AcDbEntity
  8
SK1
  6
CONTINUOUS
370
50
 62
4
100
AcDbLine
 10
0.3999999999999986
 20
3.0
 30
0.0
 11
0.0
 21
2.6
 31
0.0
  0
LINE
  5
8B0
330
1F
100
AcDbEntity
  8
SK1
  6
CONTINUOUS
370
50
 62
4
100
AcDbLine
 10
0.0
 20
2.6
 30
0.0
 11
0.0
 21
-2.6
 31
0.0
  0
LINE
  5
8B1
330
1F
100
AcDbEntity
  8
SK1
  6
CONTINUOUS
370
50
 62
4
100
AcDbLine
 10
0.0
 20
-2.6
 30
0.0
 11
0.3999999999999986
 21
-3.0
 31
0.0
  0
LINE
  5
8B2
330
1F
100
AcDbEntity
  8
SK1
  6
CONTINUOUS
370
50
 62
4
100
AcDbLine
 10
0.3999999999999986
 20
-3.0
 30
0.0
 11
53.3
 21
-3.0
 31
0.0
  0
LINE
  5
8B3
330
1F
100
AcDbEntity
  8
SK1
  6
CONTINUOUS
370
50
 62
4
100
AcDbLine
 10
0.3999999999999986
 20
3.0
 30
0.0
 11
0.3999999999999986
 21
-3.0
 31
0.0
  0
LINE
  5
8B4
330
1F
100
AcDbEntity
  8
SK2
  6
CONTINUOUS
370
25
 62
7
100
AcDbLine
 10
-12.0000002
 20
-3.000001
 30
0.0
 11
-13.00000000000008
 21
-3.000001
 31
0.0
  0
LINE
  5
8B5
330
1F
100
AcDbEntity
  8
SK2
  6
CONTINUOUS
370
25
 62
7
100
AcDbLine
 10
0.0
 20
-3.000001
 30
0.0
 11
-11.9999998
 21
-3.000001
 31
0.0
  0
LINE
  5
8B6
330
1F
100
AcDbEntity
  8
SK2
  6
CONTINUOUS
370
25
 62
7
100
AcDbLine
 10
-13.0
 20
3.0
 30
0.0
 11
0.0
 21
3.0
 31
0.0
  0
LINE
  5
8B7
330
1F
100
AcDbEntity
  8
SK2
  6
CONTINUOUS
370
25
 62
7
100
AcDbLine
 10
-12.0
 20
-10.0
 30
0.0
 11
-12.0
 21
16.475
 31
0.0
  0
LINE
  5
8B8
330
1F
100
AcDbEntity
  8
SK2
  6
CONTINUOUS
370
25
 62
7
100
AcDbLine
 10
-12.0
 20
-3.0
 30
0.0
 11
-11.0
 21
-8.0
 31
0.0
  0
LINE
  5
8B9
330
1F
100
AcDbEntity
  8
SK2
  6
CONTINUOUS
370
25
 62
7
100
AcDbLine
 10
-11.0
 20
-8.0
 30
0.0
 11
-13.0
 21
-8.0
 31
0.0
  0
LINE
  5
8BA
330
1F
100
AcDbEntity
  8
SK2
  6
CONTINUOUS
370
25
 62
7
100
AcDbLine
 10
-13.0
 20
-8.0
 30
0.0
 11
-12.0
 21
-3.0
 31
0.0
  0
LINE
  5
8BB
330
1F
100
AcDbEntity
  8
SK2
  6
CONTINUOUS
370
25
 62
7
100
AcDbLine
 10
-11.12712113868645
 20
-8.0
 30
0.0
 11
-11.02118685644774
 21
-7.894065717761293
 31
0.0
  0
LINE
  5
8BC
330
1F
100
AcDbEntity
  8
SK2
  6
CONTINUOUS
370
25
 62
7
100
AcDbLine
 10
-11.55138520739837
 20
-8.0
 30
0.0
 11
-11.0918975345664
 21
-7.540512327168031
 31
0.0
  0
LINE
  5
8BD
330
1F
100
AcDbEntity
  8
SK2
  6
CONTINUOUS
370
25
 62
7
100
AcDbLine
 10
-11.97564927611029
 20
-8.0
 30
0.0
 11
-11.16260821268506
 21
-7.186958936574769
 31
0.0
  0
LINE
  5
8BE
330
1F
100
AcDbEntity
  8
SK2
  6
CONTINUOUS
370
25
 62
7
100
AcDbLine
 10
-12.39991334482222
 20
-8.000000000000007
 30
0.0
 11
-11.2333188908037
 21
-6.833405545981471
 31
0.0
  0
LINE
  5
8BF
330
1F
100
AcDbEntity
  8
SK2
  6
CONTINUOUS
370
25
 62
7
100
AcDbLine
 10
-12.82417741353414
 20
-8.0
 30
0.0
 11
-11.30402956892237
 21
-6.479852155388215
 31
0.0
  0
LINE
  5
8C0
330
1F
100
AcDbEntity
  8
SK2
  6
CONTINUOUS
370
25
 62
7
100
AcDbLine
 10
-12.93788962943847
 20
-7.689448147192408
 30
0.0
 11
-11.37474024704102
 21
-6.126298764794939
 31
0.0
  0
LINE
  5
8C1
330
1F
100
AcDbEntity
  8
SK2
  6
CONTINUOUS
370
25
 62
7
100
AcDbLine
 10
-12.83182361226049
 20
-7.159118061302493
 30
0.0
 11
-11.44545092515968
 21
-5.772745374201662
 31
0.0
  0
LINE
  5
8C2
330
1F
100
AcDbEntity
  8
SK2
  6
CONTINUOUS
370
25
 62
7
100
AcDbLine
 10
-12.72575759508251
 20
-6.628787975412585
 30
0.0
 11
-11.51616160327833
 21
-5.419191983608393
 31
0.0
  0
LINE
  5
8C3
330
1F
100
AcDbEntity
  8
SK2
  6
CONTINUOUS
370
25
 62
7
100
AcDbLine
 10
-12.61969157790453
 20
-6.098457889522663
 30
0.0
 11
-11.58687228139698
 21
-5.065638593015109
 31
0.0
  0
LINE
  5
8C4
330
1F
100
AcDbEntity
  8
SK2
  6
CONTINUOUS
370
25
 62
7
100
AcDbLine
 10
-12.51362556072655
 20
-5.568127803632763
 30
0.0
 11
-11.65758295951564
 21
-4.712085202421846
 31
0.0
  0
LINE
  5
8C5
330
1F
100
AcDbEntity
  8
SK2
  6
CONTINUOUS
370
25
 62
7
100
AcDbLine
 10
-12.40755954354857
 20
-5.037797717742848
 30
0.0
 11
-11.72829363763429
 21
-4.35853181182857
 31
0.0
  0
LINE
  5
8C6
330
1F
100
AcDbEntity
  8
SK2
  6
CONTINUOUS
370
25
 62
7
100
AcDbLine
 10
-12.30149352637059
 20
-4.50746763185294
 30
0.0
 11
-11.79900431575294
 21
-4.004978421235286
 31
0.0
  0
LINE
  5
8C7
330
1F
100
AcDbEntity
  8
SK2
  6
CONTINUOUS
370
25
 62
7
100
AcDbLine
 10
-12.19542750919261
 20
-3.977137545963018
 30
0.0
 11
-11.8697149938716
 21
-3.651425030642002
 31
0.0
  0
LINE
  5
8C8
330
1F
100
AcDbEntity
  8
SK2
  6
CONTINUOUS
370
25
 62
7
100
AcDbLine
 10
-12.08936149201463
 20
-3.446807460073117
 30
0.0
 11
-11.94042567199024
 21
-3.297871640048726
 31
0.0
  0
LINE
  5
8C9
330
1F
100
AcDbEntity
  8
SK2
  6
CONTINUOUS
370
25
 62
7
100
AcDbLine
 10
-12.95568102687554
 20
-7.778405134377635
 30
0.0
 11
-12.73408616125317
 21
-8.0
 31
0.0
  0
LINE
  5
8CA
330
1F
100
AcDbEntity
  8
SK2
  6
CONTINUOUS
370
25
 62
7
100
AcDbLine
 10
-12.88497034875687
 20
-7.424851743784387
 30
0.0
 11
-12.30982209254124
 21
-8.0
 31
0.0
  0
LINE
  5
8CB
330
1F
100
AcDbEntity
  8
SK2
  6
CONTINUOUS
370
25
 62
7
100
AcDbLine
 10
-12.81425967063822
 20
-7.071298353191111
 30
0.0
 11
-11.88555802382932
 21
-8.0
 31
0.0
  0
LINE
  5
8CC
330
1F
100
AcDbEntity
  8
SK2
  6
CONTINUOUS
370
25
 62
7
100
AcDbLine
 10
-12.74354899251956
 20
-6.71774496259782
 30
0.0
 11
-11.46129395511738
 21
-8.0
 31
0.0
  0
LINE
  5
8CD
330
1F
100
AcDbEntity
  8
SK2
  6
CONTINUOUS
370
25
 62
7
100
AcDbLine
 10
-12.67283831440091
 20
-6.364191572004557
 30
0.0
 11
-11.03702988640546
 21
-8.0
 31
0.0
  0
LINE
  5
8CE
330
1F
100
AcDbEntity
  8
SK2
  6
CONTINUOUS
370
25
 62
7
100
AcDbLine
 10
-12.60212763628226
 20
-6.010638181411281
 30
0.0
 11
-11.09680854557662
 21
-7.515957272116907
 31
0.0
  0
LINE
  5
8CF
330
1F
100
AcDbEntity
  8
SK2
  6
CONTINUOUS
370
25
 62
7
100
AcDbLine
 10
-12.5314169581636
 20
-5.65708479081799
 30
0.0
 11
-11.2028745627546
 21
-6.985627186226992
 31
0.0
  0
LINE
  5
8D0
330
1F
100
AcDbEntity
  8
SK2
  6
CONTINUOUS
370
25
 62
7
100
AcDbLine
 10
-12.46070628004495
 20
-5.303531400224742
 30
0.0
 11
-11.3089405799326
 21
-6.455297100337077
 31
0.0
  0
LINE
  5
8D1
330
1F
100
AcDbEntity
  8
SK2
  6
CONTINUOUS
370
25
 62
7
100
AcDbLine
 10
-12.38999560192629
 20
-4.949978009631465
 30
0.0
 11
-11.41500659711058
 21
-5.924967014447162
 31
0.0
  0
LINE
  5
8D2
330
1F
100
AcDbEntity
  8
SK2
  6
CONTINUOUS
370
25
 62
7
100
AcDbLine
 10
-12.31928492380764
 20
-4.596424619038189
 30
0.0
 11
-11.52107261428856
 21
-5.394636928557276
 31
0.0
  0
LINE
  5
8D3
330
1F
100
AcDbEntity
  8
SK2
  6
CONTINUOUS
370
25
 62
7
100
AcDbLine
 10
-12.24857424568899
 20
-4.242871228444912
 30
0.0
 11
-11.62713863146654
 21
-4.864306842667361
 31
0.0
  0
LINE
  5
8D4
330
1F
100
AcDbEntity
  8
SK2
  6
CONTINUOUS
370
25
 62
7
100
AcDbLine
 10
-12.17786356757033
 20
-3.88931783785165
 30
0.0
 11
-11.73320464864452
 21
-4.333976756777446
 31
0.0
  0
LINE
  5
8D5
330
1F
100
AcDbEntity
  8
SK2
  6
CONTINUOUS
370
25
 62
7
100
AcDbLine
 10
-12.10715288945168
 20
-3.535764447258373
 30
0.0
 11
-11.83927066582248
 21
-3.803646670887574
 31
0.0
  0
LINE
  5
8D6
330
1F
100
AcDbEntity
  8
SK2
  6
CONTINUOUS
370
25
 62
7
100
AcDbLine
 10
-12.03644221133302
 20
-3.182211056665096
 30
0.0
 11
-11.94533668300048
 21
-3.273316584997644
 31
0.0
  0
LINE
  5
8D7
330
1F
100
AcDbEntity
  8
SK2
  6
CONTINUOUS
370
25
 62
7
100
AcDbLine
 10
-12.0
 20
3.0
 30
0.0
 11
-13.0
 21
8.0
 31
0.0
  0
LINE
  5
8D8
330
1F
100
AcDbEntity
  8
SK2
  6
CONTINUOUS
370
25
 62
7
100
AcDbLine
 10
-13.0
 20
8.0
 30
0.0
 11
-11.0
 21
8.0
 31
0.0
  0
LINE
  5
8D9
330
1F
100
AcDbEntity
  8
SK2
  6
CONTINUOUS
370
25
 62
7
100
AcDbLine
 10
-11.0
 20
8.0
 30
0.0
 11
-12.0
 21
3.0
 31
0.0
  0
LINE
  5
8DA
330
1F
100
AcDbEntity
  8
SK2
  6
CONTINUOUS
370
25
 62
7
100
AcDbLine
 10
-12.00108584377007
 20
3.005429218850352
 30
0.0
 11
-11.9983712343449
 21
3.008143828275522
 31
0.0
  0
LINE
  5
8DB
330
1F
100
AcDbEntity
  8
SK2
  6
CONTINUOUS
370
25
 62
7
100
AcDbLine
 10
-12.07179652188873
 20
3.358982609443643
 30
0.0
 11
-11.89230521716691
 21
3.538473914165465
 31
0.0
  0
LINE
  5
8DC
330
1F
100
AcDbEntity
  8
SK2
  6
CONTINUOUS
370
25
 62
7
100
AcDbLine
 10
-12.14250720000737
 20
3.712536000036906
 30
0.0
 11
-11.78623919998894
 21
4.068804000055351
 31
0.0
  0
LINE
  5
8DD
330
1F
100
AcDbEntity
  8
SK2
  6
CONTINUOUS
370
25
 62
7
100
AcDbLine
 10
-12.21321787812603
 20
4.066089390630168
 30
0.0
 11
-11.68017318281096
 21
4.599134085945252
 31
0.0
  0
LINE
  5
8DE
330
1F
100
AcDbEntity
  8
SK2
  6
CONTINUOUS
370
25
 62
7
100
AcDbLine
 10
-12.28392855624469
 20
4.41964278122343
 30
0.0
 11
-11.57410716563297
 21
5.129464171835167
 31
0.0
  0
LINE
  5
8DF
330
1F
100
AcDbEntity
  8
SK2
  6
CONTINUOUS
370
25
 62
7
100
AcDbLine
 10
-12.35463923436335
 20
4.773196171816721
 30
0.0
 11
-11.46804114845499
 21
5.659794257725096
 31
0.0
  0
LINE
  5
8E0
330
1F
100
AcDbEntity
  8
SK2
  6
CONTINUOUS
370
25
 62
7
100
AcDbLine
 10
-12.42534991248201
 20
5.126749562409984
 30
0.0
 11
-11.36197513127701
 21
6.190124343614997
 31
0.0
  0
LINE
  5
8E1
330
1F
100
AcDbEntity
  8
SK2
  6
CONTINUOUS
370
25
 62
7
100
AcDbLine
 10
-12.49606059060065
 20
5.480302953003275
 30
0.0
 11
-11.25590911409903
 21
6.720454429504912
 31
0.0
  0
LINE
  5
8E2
330
1F
100
AcDbEntity
  8
SK2
  6
CONTINUOUS
370
25
 62
7
100
AcDbLine
 10
-12.56677126871931
 20
5.833856343596551
 30
0.0
 11
-11.14984309692105
 21
7.250784515394827
 31
0.0
  0
LINE
  5
8E3
330
1F
100
AcDbEntity
  8
SK2
  6
CONTINUOUS
370
25
 62
7
100
AcDbLine
 10
-12.63748194683795
 20
6.187409734189842
 30
0.0
 11
-11.04377707974307
 21
7.781114601284742
 31
0.0
  0
LINE
  5
8E4
330
1F
100
AcDbEntity
  8
SK2
  6
CONTINUOUS
370
25
 62
7
100
AcDbLine
 10
-12.70819262495662
 20
6.540963124783076
 30
0.0
 11
-11.24915574973973
 21
8.0
 31
0.0
  0
LINE
  5
8E5
330
1F
100
AcDbEntity
  8
SK2
  6
CONTINUOUS
370
25
 62
7
100
AcDbLine
 10
-12.77890330307527
 20
6.894516515376367
 30
0.0
 11
-11.67341981845165
 21
8.0
 31
0.0
  0
LINE
  5
8E6
330
1F
100
AcDbEntity
  8
SK2
  6
CONTINUOUS
370
25
 62
7
100
AcDbLine
 10
-12.84961398119393
 20
7.248069905969643
 30
0.0
 11
-12.09768388716358
 21
8.0
 31
0.0
  0
LINE
  5
8E7
330
1F
100
AcDbEntity
  8
SK2
  6
CONTINUOUS
370
25
 62
7
100
AcDbLine
 10
-12.92032465931258
 20
7.60162329656292
 30
0.0
 11
-12.5219479558755
 21
8.0
 31
0.0
  0
LINE
  5
8E8
330
1F
100
AcDbEntity
  8
SK2
  6
CONTINUOUS
370
25
 62
7
100
AcDbLine
 10
-12.99103533743123
 20
7.955176687156197
 30
0.0
 11
-12.94621202458742
 21
8.0
 31
0.0
  0
LINE
  5
8E9
330
1F
100
AcDbEntity
  8
SK2
  6
CONTINUOUS
370
25
 62
7
100
AcDbLine
 10
-12.02089404741517
 20
3.104470237075802
 30
0.0
 11
-11.98607063505656
 21
3.069646824717196
 31
0.0
  0
LINE
  5
8EA
330
1F
100
AcDbEntity
  8
SK2
  6
CONTINUOUS
370
25
 62
7
100
AcDbLine
 10
-12.12696006459313
 20
3.634800322965688
 30
0.0
 11
-11.91535995693792
 21
3.423200215310473
 31
0.0
  0
LINE
  5
8EB
330
1F
100
AcDbEntity
  8
SK2
  6
CONTINUOUS
370
25
 62
7
100
AcDbLine
 10
-12.23302608177113
 20
4.16513040885561
 30
0.0
 11
-11.84464927881925
 21
3.776753605903728
 31
0.0
  0
LINE
  5
8EC
330
1F
100
AcDbEntity
  8
SK2
  6
CONTINUOUS
370
25
 62
7
100
AcDbLine
 10
-12.33909209894911
 20
4.695460494745525
 30
0.0
 11
-11.7739386007006
 21
4.130306996497019
 31
0.0
  0
LINE
  5
8ED
330
1F
100
AcDbEntity
  8
SK2
  6
CONTINUOUS
370
25
 62
7
100
AcDbLine
 10
-12.44515811612709
 20
5.225790580635433
 30
0.0
 11
-11.70322792258195
 21
4.483860387090289
 31
0.0
  0
LINE
  5
8EE
330
1F
100
AcDbEntity
  8
SK2
  6
CONTINUOUS
370
25
 62
7
100
AcDbLine
 10
-12.55122413330507
 20
5.756120666525334
 30
0.0
 11
-11.63251724446329
 21
4.837413777683565
 31
0.0
  0
LINE
  5
8EF
330
1F
100
AcDbEntity
  8
SK2
  6
CONTINUOUS
370
25
 62
7
100
AcDbLine
 10
-12.65729015048305
 20
6.286450752415242
 30
0.0
 11
-11.56180656634464
 21
5.190967168276835
 31
0.0
  0
LINE
  5
8F0
330
1F
100
AcDbEntity
  8
SK2
  6
CONTINUOUS
370
25
 62
7
100
AcDbLine
 10
-12.76335616766103
 20
6.816780838305142
 30
0.0
 11
-11.49109588822598
 21
5.544520558870111
 31
0.0
  0
LINE
  5
8F1
330
1F
100
AcDbEntity
  8
SK2
  6
CONTINUOUS
370
25
 62
7
100
AcDbLine
 10
-12.86942218483901
 20
7.34711092419505
 30
0.0
 11
-11.42038521010733
 21
5.898073949463381
 31
0.0
  0
LINE
  5
8F2
330
1F
100
AcDbEntity
  8
SK2
  6
CONTINUOUS
370
25
 62
7
100
AcDbLine
 10
-12.975488202017
 20
7.877441010084965
 30
0.0
 11
-11.34967453198867
 21
6.251627340056643
 31
0.0
  0
LINE
  5
8F3
330
1F
100
AcDbEntity
  8
SK2
  6
CONTINUOUS
370
25
 62
7
100
AcDbLine
 10
-12.6737831232201
 20
7.999999999999993
 30
0.0
 11
-11.27896385387001
 21
6.605180730649913
 31
0.0
  0
LINE
  5
8F4
330
1F
100
AcDbEntity
  8
SK2
  6
CONTINUOUS
370
25
 62
7
100
AcDbLine
 10
-12.2495190545082
 20
8.000000000000007
 30
0.0
 11
-11.20825317575137
 21
6.958734121243189
 31
0.0
  0
LINE
  5
8F5
330
1F
100
AcDbEntity
  8
SK2
  6
CONTINUOUS
370
25
 62
7
100
AcDbLine
 10
-11.82525498579626
 20
8.0
 30
0.0
 11
-11.13754249763271
 21
7.312287511836459
 31
0.0
  0
LINE
  5
8F6
330
1F
100
AcDbEntity
  8
SK2
  6
CONTINUOUS
370
25
 62
7
100
AcDbLine
 10
-11.40099091708433
 20
8.0
 30
0.0
 11
-11.06683181951405
 21
7.665840902429736
 31
0.0
  0
TEXT
  5
8F7
330
1F
100
AcDbEntity
  8
SK2
  6
CONTINUOUS
370
25
 62
7
100
AcDbText
 10
-13.5
 20
13.34583333333333
 30
0.0
 40
3.5
  1
6
 50
90.00000000000001
 72
     1
 11
-13.5
 21
14.5125
 31
0.0
100
AcDbText
  0
CIRCLE
  5
8F8
330
1F
100
AcDbEntity
  8
SK2
  6
CONTINUOUS
370
25
 62
7
100
AcDbCircle
 10
-15.25
 20
11.1875
 30
0.0
 40
1.4
  0
LINE
  5
8F9
330
1F
100
AcDbEntity
  8
SK2
  6
CONTINUOUS
370
25
 62
7
100
AcDbLine
 10
-13.84999999999999
 20
9.787500000000001
 30
0.0
 11
-16.65000000000001
 21
12.5875
 31
0.0
  0
LINE
  5
8FA
330
1F
100
AcDbEntity
  8
SK2
  6
CONTINUOUS
370
25
 62
7
100
AcDbLine
 10
0.0
 20
3.0
 30
0.0
 11
0.0
 21
16.00001
 31
0.0
  0
LINE
  5
8FB
330
1F
100
AcDbEntity
  8
SK2
  6
CONTINUOUS
370
25
 62
7
100
AcDbLine
 10
53.3
 20
16.00001
 30
0.0
 11
53.3
 21
3.0
 31
0.0
  0
LINE
  5
8FC
330
1F
100
AcDbEntity
  8
SK2
  6
CONTINUOUS
370
25
 62
7
100
AcDbLine
 10
0.0
 20
15.00001
 30
0.0
 11
53.3
 21
15.00001
 31
0.0
  0
LINE
  5
8FD
330
1F
100
AcDbEntity
  8
SK2
  6
CONTINUOUS
370
25
 62
7
100
AcDbLine
 10
0.0
 20
15.00001
 30
0.0
 11
5.0
 21
16.00001
 31
0.0
  0
LINE
  5
8FE
330
1F
100
AcDbEntity
  8
SK2
  6
CONTINUOUS
370
25
 62
7
100
AcDbLine
 10
5.0
 20
16.00001
 30
0.0
 11
5.0
 21
14.00001
 31
0.0
  0
LINE
  5
8FF
330
1F
100
AcDbEntity
  8
SK2
  6
CONTINUOUS
370
25
 62
7
100
AcDbLine
 10
5.0
 20
14.00001
 30
0.0
 11
0.0
 21
15.00001
 31
0.0
  0
LINE
  5
900
330
1F
100
AcDbEntity
  8
SK2
  6
CONTINUOUS
370
25
 62
7
100
AcDbLine
 10
4.944326582788783
 20
14.01114468344224
 30
0.0
 11
5.0
 21
14.06681810065346
 31
0.0
  0
LINE
  5
901
330
1F
100
AcDbEntity
  8
SK2
  6
CONTINUOUS
370
25
 62
7
100
AcDbLine
 10
4.590773192195513
 20
14.0818553615609
 30
0.0
 11
5.0
 21
14.49108216936538
 31
0.0
  0
LINE
  5
902
330
1F
100
AcDbEntity
  8
SK2
  6
CONTINUOUS
370
25
 62
7
100
AcDbLine
 10
4.237219801602237
 20
14.15256603967956
 30
0.0
 11
5.0
 21
14.91534623807732
 31
0.0
  0
LINE
  5
903
330
1F
100
AcDbEntity
  8
SK2
  6
CONTINUOUS
370
25
 62
7
100
AcDbLine
 10
3.883666411008953
 20
14.22327671779821
 30
0.0
 11
5.0
 21
15.33961030678925
 31
0.0
  0
LINE
  5
904
330
1F
100
AcDbEntity
  8
SK2
  6
CONTINUOUS
370
25
 62
7
100
AcDbLine
 10
3.530113020415676
 20
14.29398739591687
 30
0.0
 11
5.0
 21
15.76387437550119
 31
0.0
  0
LINE
  5
905
330
1F
100
AcDbEntity
  8
SK2
  6
CONTINUOUS
370
25
 62
7
100
AcDbLine
 10
3.176559629822407
 20
14.36469807403552
 30
0.0
 11
4.76483944473361
 21
15.95297788894672
 31
0.0
  0
LINE
  5
906
330
1F
100
AcDbEntity
  8
SK2
  6
CONTINUOUS
370
25
 62
7
100
AcDbLine
 10
2.82300623922913
 20
14.43540875215417
 30
0.0
 11
4.234509358843688
 21
15.84691187176873
 31
0.0
  0
LINE
  5
907
330
1F
100
AcDbEntity
  8
SK2
  6
CONTINUOUS
370
25
 62
7
100
AcDbLine
 10
2.469452848635854
 20
14.50611943027283
 30
0.0
 11
3.704179272953773
 21
15.74084585459075
 31
0.0
  0
LINE
  5
908
330
1F
100
AcDbEntity
  8
SK2
  6
CONTINUOUS
370
25
 62
7
100
AcDbLine
 10
2.115899458042584
 20
14.57683010839148
 30
0.0
 11
3.173849187063865
 21
15.63477983741276
 31
0.0
  0
LINE
  5
909
330
1F
100
AcDbEntity
  8
SK2
  6
CONTINUOUS
370
25
 62
7
100
AcDbLine
 10
1.762346067449307
 20
14.64754078651014
 30
0.0
 11
2.643519101173951
 21
15.52871382023478
 31
0.0
  0
LINE
  5
90A
330
1F
100
AcDbEntity
  8
SK2
  6
CONTINUOUS
370
25
 62
7
100
AcDbLine
 10
1.408792676856024
 20
14.71825146462879
 30
0.0
 11
2.113189015284028
 21
15.4226478030568
 31
0.0
  0
LINE
  5
90B
330
1F
100
AcDbEntity
  8
SK2
  6
CONTINUOUS
370
25
 62
7
100
AcDbLine
 10
1.055239286262747
 20
14.78896214274745
 30
0.0
 11
1.582858929394114
 21
15.31658178587882
 31
0.0
  0
LINE
  5
90C
330
1F
100
AcDbEntity
  8
SK2
  6
CONTINUOUS
370
25
 62
7
100
AcDbLine
 10
0.7016858956694705
 20
14.85967282086611
 30
0.0
 11
1.052528843504192
 21
15.21051576870083
 31
0.0
  0
LINE
  5
90D
330
1F
100
AcDbEntity
  8
SK2
  6
CONTINUOUS
370
25
 62
7
100
AcDbLine
 10
0.348132505076201
 20
14.93038349898476
 30
0.0
 11
0.5221987576142908
 21
15.10444975152285
 31
0.0
  0
LINE
  5
90E
330
1F
100
AcDbEntity
  8
SK2
  6
CONTINUOUS
370
25
 62
7
100
AcDbLine
 10
0.2706652848269471
 20
15.05414305696539
 30
0.0
 11
0.4059979272404135
 21
14.91881041455192
 31
0.0
  0
LINE
  5
90F
330
1F
100
AcDbEntity
  8
SK2
  6
CONTINUOUS
370
25
 62
7
100
AcDbLine
 10
0.6242186754202308
 20
15.12485373508404
 30
0.0
 11
0.9363280131303355
 21
14.81274439737393
 31
0.0
  0
LINE
  5
910
330
1F
100
AcDbEntity
  8
SK2
  6
CONTINUOUS
370
25
 62
7
100
AcDbLine
 10
0.9777720660135003
 20
15.1955644132027
 30
0.0
 11
1.466658099020243
 21
14.70667838019595
 31
0.0
  0
LINE
  5
911
330
1F
100
AcDbEntity
  8
SK2
  6
CONTINUOUS
370
25
 62
7
100
AcDbLine
 10
1.331325456606777
 20
15.26627509132135
 30
0.0
 11
1.996988184910158
 21
14.60061236301797
 31
0.0
  0
LINE
  5
912
330
1F
100
AcDbEntity
  8
SK2
  6
CONTINUOUS
370
25
 62
7
100
AcDbLine
 10
1.684878847200054
 20
15.33698576944001
 30
0.0
 11
2.527318270800073
 21
14.49454634583999
 31
0.0
  0
LINE
  5
913
330
1F
100
AcDbEntity
  8
SK2
  6
CONTINUOUS
370
25
 62
7
100
AcDbLine
 10
2.03843223779333
 20
15.40769644755866
 30
0.0
 11
3.057648356689995
 21
14.38848032866201
 31
0.0
  0
LINE
  5
914
330
1F
100
AcDbEntity
  8
SK2
  6
CONTINUOUS
370
25
 62
7
100
AcDbLine
 10
2.391985628386607
 20
15.47840712567731
 30
0.0
 11
3.587978442579903
 21
14.28241431148403
 31
0.0
  0
LINE
  5
915
330
1F
100
AcDbEntity
  8
SK2
  6
CONTINUOUS
370
25
 62
7
100
AcDbLine
 10
2.745539018979876
 20
15.54911780379597
 30
0.0
 11
4.118308528469811
 21
14.17634829430605
 31
0.0
  0
LINE
  5
916
330
1F
100
AcDbEntity
  8
SK2
  6
CONTINUOUS
370
25
 62
7
100
AcDbLine
 10
3.09909240957316
 20
15.61982848191463
 30
0.0
 11
4.648638614359733
 21
14.07028227712806
 31
0.0
  0
LINE
  5
917
330
1F
100
AcDbEntity
  8
SK2
  6
CONTINUOUS
370
25
 62
7
100
AcDbLine
 10
3.452645800166437
 20
15.69053916003329
 30
0.0
 11
5.0
 21
14.14318496019973
 31
0.0
  0
LINE
  5
918
330
1F
100
AcDbEntity
  8
SK2
  6
CONTINUOUS
370
25
 62
7
100
AcDbLine
 10
3.806199190759713
 20
15.76124983815194
 30
0.0
 11
5.0
 21
14.56744902891165
 31
0.0
  0
LINE
  5
919
330
1F
100
AcDbEntity
  8
SK2
  6
CONTINUOUS
370
25
 62
7
100
AcDbLine
 10
4.159752581352983
 20
15.8319605162706
 30
0.0
 11
5.0
 21
14.99171309762358
 31
0.0
  0
LINE
  5
91A
330
1F
100
AcDbEntity
  8
SK2
  6
CONTINUOUS
370
25
 62
7
100
AcDbLine
 10
4.513305971946266
 20
15.90267119438925
 30
0.0
 11
5.0
 21
15.41597716633552
 31
0.0
  0
LINE
  5
91B
330
1F
100
AcDbEntity
  8
SK2
  6
CONTINUOUS
370
25
 62
7
100
AcDbLine
 10
4.866859362539543
 20
15.97338187250791
 30
0.0
 11
5.0
 21
15.84024123504745
 31
0.0
  0
LINE
  5
91C
330
1F
100
AcDbEntity
  8
SK2
  6
CONTINUOUS
370
25
 62
7
100
AcDbLine
 10
53.3
 20
15.00001
 30
0.0
 11
48.3
 21
14.00001
 31
0.0
  0
LINE
  5
91D
330
1F
100
AcDbEntity
  8
SK2
  6
CONTINUOUS
370
25
 62
7
100
AcDbLine
 10
48.3
 20
14.00001
 30
0.0
 11
48.3
 21
16.00001
 31
0.0
  0
LINE
  5
91E
330
1F
100
AcDbEntity
  8
SK2
  6
CONTINUOUS
370
25
 62
7
100
AcDbLine
 10
48.3
 20
16.00001
 30
0.0
 11
53.3
 21
15.00001
 31
0.0
  0
LINE
  5
91F
330
1F
100
AcDbEntity
  8
SK2
  6
CONTINUOUS
370
25
 62
7
100
AcDbLine
 10
52.95812940796321
 20
14.93163588159264
 30
0.0
 11
53.07208627197548
 21
15.0455927456049
 31
0.0
  0
LINE
  5
920
330
1F
100
AcDbEntity
  8
SK2
  6
CONTINUOUS
370
25
 62
7
100
AcDbLine
 10
52.42779932207331
 20
14.82556986441466
 30
0.0
 11
52.7185328813822
 21
15.11630342372356
 31
0.0
  0
LINE
  5
921
330
1F
100
AcDbEntity
  8
SK2
  6
CONTINUOUS
370
25
 62
7
100
AcDbLine
 10
51.8974692361834
 20
14.71950384723668
 30
0.0
 11
52.36497949078893
 21
15.18701410184221
 31
0.0
  0
LINE
  5
922
330
1F
100
AcDbEntity
  8
SK2
  6
CONTINUOUS
370
25
 62
7
100
AcDbLine
 10
51.36713915029349
 20
14.6134378300587
 30
0.0
 11
52.01142610019566
 21
15.25772477996087
 31
0.0
  0
LINE
  5
923
330
1F
100
AcDbEntity
  8
SK2
  6
CONTINUOUS
370
25
 62
7
100
AcDbLine
 10
50.83680906440358
 20
14.50737181288072
 30
0.0
 11
51.65787270960239
 21
15.32843545807952
 31
0.0
  0
LINE
  5
924
330
1F
100
AcDbEntity
  8
SK2
  6
CONTINUOUS
370
25
 62
7
100
AcDbLine
 10
50.30647897851367
 20
14.40130579570273
 30
0.0
 11
51.30431931900911
 21
15.39914613619818
 31
0.0
  0
LINE
  5
925
330
1F
100
AcDbEntity
  8
SK2
  6
CONTINUOUS
370
25
 62
7
100
AcDbLine
 10
49.77614889262376
 20
14.29523977852475
 30
0.0
 11
50.95076592841584
 21
15.46985681431683
 31
0.0
  0
LINE
  5
926
330
1F
100
AcDbEntity
  8
SK2
  6
CONTINUOUS
370
25
 62
7
100
AcDbLine
 10
49.24581880673385
 20
14.18917376134677
 30
0.0
 11
50.59721253782256
 21
15.54056749243549
 31
0.0
  0
LINE
  5
927
330
1F
100
AcDbEntity
  8
SK2
  6
CONTINUOUS
370
25
 62
7
100
AcDbLine
 10
48.71548872084394
 20
14.08310774416879
 30
0.0
 11
50.24365914722929
 21
15.61127817055414
 31
0.0
  0
LINE
  5
928
330
1F
100
AcDbEntity
  8
SK2
  6
CONTINUOUS
370
25
 62
7
100
AcDbLine
 10
48.3
 20
14.09188309203677
 30
0.0
 11
49.89010575663602
 21
15.68198884867279
 31
0.0
  0
LINE
  5
929
330
1F
100
AcDbEntity
  8
SK2
  6
CONTINUOUS
370
25
 62
7
100
AcDbLine
 10
48.3
 20
14.5161471607487
 30
0.0
 11
49.53655236604274
 21
15.75269952679145
 31
0.0
  0
LINE
  5
92A
330
1F
100
AcDbEntity
  8
SK2
  6
CONTINUOUS
370
25
 62
7
100
AcDbLine
 10
48.3
 20
14.94041122946063
 30
0.0
 11
49.18299897544947
 21
15.8234102049101
 31
0.0
  0
LINE
  5
92B
330
1F
100
AcDbEntity
  8
SK2
  6
CONTINUOUS
370
25
 62
7
100
AcDbLine
 10
48.3
 20
15.36467529817256
 30
0.0
 11
48.8294455848562
 21
15.89412088302876
 31
0.0
  0
LINE
  5
92C
330
1F
100
AcDbEntity
  8
SK2
  6
CONTINUOUS
370
25
 62
7
100
AcDbLine
 10
48.3
 20
15.78893936688448
 30
0.0
 11
48.47589219426293
 21
15.96483156114741
 31
0.0
  0
LINE
  5
92D
330
1F
100
AcDbEntity
  8
SK2
  6
CONTINUOUS
370
25
 62
7
100
AcDbLine
 10
48.3
 20
14.3338095116624
 30
0.0
 11
48.57816625971866
 21
14.05564325194373
 31
0.0
  0
LINE
  5
92E
330
1F
100
AcDbEntity
  8
SK2
  6
CONTINUOUS
370
25
 62
7
100
AcDbLine
 10
48.3
 20
14.75807358037433
 30
0.0
 11
48.93171965031194
 21
14.12635393006239
 31
0.0
  0
LINE
  5
92F
330
1F
100
AcDbEntity
  8
SK2
  6
CONTINUOUS
370
25
 62
7
100
AcDbLine
 10
48.3
 20
15.18233764908626
 30
0.0
 11
49.28527304090521
 21
14.19706460818104
 31
0.0
  0
LINE
  5
930
330
1F
100
AcDbEntity
  8
SK2
  6
CONTINUOUS
370
25
 62
7
100
AcDbLine
 10
48.3
 20
15.60660171779818
 30
0.0
 11
49.63882643149849
 21
14.2677752862997
 31
0.0
  0
LINE
  5
931
330
1F
100
AcDbEntity
  8
SK2
  6
CONTINUOUS
370
25
 62
7
100
AcDbLine
 10
48.33856973313764
 20
15.99229605337247
 30
0.0
 11
49.99237982209176
 21
14.33848596441835
 31
0.0
  0
LINE
  5
932
330
1F
100
AcDbEntity
  8
SK2
  6
CONTINUOUS
370
25
 62
7
100
AcDbLine
 10
48.86889981902755
 20
15.88623003619449
 30
0.0
 11
50.34593321268503
 21
14.40919664253701
 31
0.0
  0
LINE
  5
933
330
1F
100
AcDbEntity
  8
SK2
  6
CONTINUOUS
370
25
 62
7
100
AcDbLine
 10
49.39922990491746
 20
15.78016401901651
 30
0.0
 11
50.69948660327831
 21
14.47990732065566
 31
0.0
  0
LINE
  5
934
330
1F
100
AcDbEntity
  8
SK2
  6
CONTINUOUS
370
25
 62
7
100
AcDbLine
 10
49.92955999080737
 20
15.67409800183852
 30
0.0
 11
51.05303999387158
 21
14.55061799877432
 31
0.0
  0
LINE
  5
935
330
1F
100
AcDbEntity
  8
SK2
  6
CONTINUOUS
370
25
 62
7
100
AcDbLine
 10
50.45989007669728
 20
15.56803198466054
 30
0.0
 11
51.40659338446486
 21
14.62132867689297
 31
0.0
  0
LINE
  5
936
330
1F
100
AcDbEntity
  8
SK2
  6
CONTINUOUS
370
25
 62
7
100
AcDbLine
 10
50.99022016258719
 20
15.46196596748256
 30
0.0
 11
51.76014677505813
 21
14.69203935501162
 31
0.0
  0
LINE
  5
937
330
1F
100
AcDbEntity
  8
SK2
  6
CONTINUOUS
370
25
 62
7
100
AcDbLine
 10
51.5205502484771
 20
15.35589995030458
 30
0.0
 11
52.1137001656514
 21
14.76275003313028
 31
0.0
  0
LINE
  5
938
330
1F
100
AcDbEntity
  8
SK2
  6
CONTINUOUS
370
25
 62
7
100
AcDbLine
 10
52.05088033436701
 20
15.2498339331266
 30
0.0
 11
52.46725355624467
 21
14.83346071124894
 31
0.0
  0
LINE
  5
939
330
1F
100
AcDbEntity
  8
SK2
  6
CONTINUOUS
370
25
 62
7
100
AcDbLine
 10
52.58121042025692
 20
15.14376791594862
 30
0.0
 11
52.82080694683795
 21
14.90417138936759
 31
0.0
  0
LINE
  5
93A
330
1F
100
AcDbEntity
  8
SK2
  6
CONTINUOUS
370
25
 62
7
100
AcDbLine
 10
53.11154050614683
 20
15.03770189877063
 30
0.0
 11
53.17436033743122
 21
14.97488206748625
 31
0.0
  0
TEXT
  5
93B
330
1F
100
AcDbEntity
  8
SK2
  6
CONTINUOUS
370
25
 62
7
100
AcDbText
 10
21.4
 20
16.50001
 30
0.0
 40
3.5
  1
53.3
 72
     1
 11
26.65
 21
16.50001
 31
0.0
100
AcDbText
  0
LINE
  5
93C
330
1F
100
AcDbEntity
  8
2
  6
CONTINUOUS
370
25
 62
7
100
AcDbLine
 10
69.0
 20
-2.0
 30
0.0
 11
90.0
 21
-2.000000000000002
 31
0.0
  0
LINE
  5
93D
330
1F
100
AcDbEntity
  8
2
  6
CONTINUOUS
370
25
 62
7
100
AcDbLine
 10
90.0
 20
1.999999999999998
 30
0.0
 11
69.0
 21
2.0
 31
0.0
  0
LINE
  5
93E
330
1F
100
AcDbEntity
  8
2
  6
CONTINUOUS
370
25
 62
7
100
AcDbLine
 10
89.0
 20
-9.000000000000002
 30
0.0
 11
89.0
 21
15.475
 31
0.0
  0
LINE
  5
93F
330
1F
100
AcDbEntity
  8
2
  6
CONTINUOUS
370
25
 62
7
100
AcDbLine
 10
89.0
 20
-2.000000000000002
 30
0.0
 11
90.0
 21
-7.000000000000002
 31
0.0
  0
LINE
  5
940
330
1F
100
AcDbEntity
  8
2
  6
CONTINUOUS
370
25
 62
7
100
AcDbLine
 10
90.0
 20
-7.000000000000002
 30
0.0
 11
88.0
 21
-7.000000000000002
 31
0.0
  0
LINE
  5
941
330
1F
100
AcDbEntity
  8
2
  6
CONTINUOUS
370
25
 62
7
100
AcDbLine
 10
88.0
 20
-7.000000000000002
 30
0.0
 11
89.0
 21
-2.000000000000002
 31
0.0
  0
LINE
  5
942
330
1F
100
AcDbEntity
  8
2
  6
CONTINUOUS
370
25
 62
7
100
AcDbLine
 10
89.68109910851227
 20
-7.0
 30
0.0
 11
89.9468498514187
 21
-6.734249257093559
 31
0.0
  0
LINE
  5
943
330
1F
100
AcDbEntity
  8
2
  6
CONTINUOUS
370
25
 62
7
100
AcDbLine
 10
89.25683503980034
 20
-7.0
 30
0.0
 11
89.87613917330006
 21
-6.38069586650029
 31
0.0
  0
LINE
  5
944
330
1F
100
AcDbEntity
  8
2
  6
CONTINUOUS
370
25
 62
7
100
AcDbLine
 10
88.83257097108842
 20
-7.0
 30
0.0
 11
89.8054284951814
 21
-6.027142475907006
 31
0.0
  0
LINE
  5
945
330
1F
100
AcDbEntity
  8
2
  6
CONTINUOUS
370
25
 62
7
100
AcDbLine
 10
88.40830690237648
 20
-7.0
 30
0.0
 11
89.73471781706274
 21
-5.673589085313729
 31
0.0
  0
LINE
  5
946
330
1F
100
AcDbEntity
  8
2
  6
CONTINUOUS
370
25
 62
7
100
AcDbLine
 10
88.00398929158385
 20
-6.980053542080697
 30
0.0
 11
89.6640071389441
 21
-5.32003569472046
 31
0.0
  0
LINE
  5
947
330
1F
100
AcDbEntity
  8
2
  6
CONTINUOUS
370
25
 62
7
100
AcDbLine
 10
88.11005530876184
 20
-6.449723456190789
 30
0.0
 11
89.59329646082543
 21
-4.966482304127183
 31
0.0
  0
LINE
  5
948
330
1F
100
AcDbEntity
  8
2
  6
CONTINUOUS
370
25
 62
7
100
AcDbLine
 10
88.21612132593982
 20
-5.919393370300867
 30
0.0
 11
89.52258578270678
 21
-4.612928913533914
 31
0.0
  0
LINE
  5
949
330
1F
100
AcDbEntity
  8
2
  6
CONTINUOUS
370
25
 62
7
100
AcDbLine
 10
88.3221873431178
 20
-5.389063284410945
 30
0.0
 11
89.45187510458813
 21
-4.25937552294063
 31
0.0
  0
LINE
  5
94A
330
1F
100
AcDbEntity
  8
2
  6
CONTINUOUS
370
25
 62
7
100
AcDbLine
 10
88.4282533602958
 20
-4.858733198521037
 30
0.0
 11
89.38116442646947
 21
-3.90582213234736
 31
0.0
  0
LINE
  5
94B
330
1F
100
AcDbEntity
  8
2
  6
CONTINUOUS
370
25
 62
7
100
AcDbLine
 10
88.53431937747376
 20
-4.328403112631129
 30
0.0
 11
89.31045374835081
 21
-3.552268741754084
 31
0.0
  0
LINE
  5
94C
330
1F
100
AcDbEntity
  8
2
  6
CONTINUOUS
370
25
 62
7
100
AcDbLine
 10
88.64038539465176
 20
-3.798073026741214
 30
0.0
 11
89.23974307023215
 21
-3.198715351160807
 31
0.0
  0
LINE
  5
94D
330
1F
100
AcDbEntity
  8
2
  6
CONTINUOUS
370
25
 62
7
100
AcDbLine
 10
88.74645141182972
 20
-3.267742940851306
 30
0.0
 11
89.16903239211351
 21
-2.84516196056753
 31
0.0
  0
LINE
  5
94E
330
1F
100
AcDbEntity
  8
2
  6
CONTINUOUS
370
25
 62
7
100
AcDbLine
 10
88.85251742900772
 20
-2.737412854961384
 30
0.0
 11
89.09832171399485
 21
-2.491608569974261
 31
0.0
  0
LINE
  5
94F
330
1F
100
AcDbEntity
  8
2
  6
CONTINUOUS
370
25
 62
7
100
AcDbLine
 10
88.95858344618571
 20
-2.207082769071469
 30
0.0
 11
89.02761103587619
 21
-2.138055179380984
 31
0.0
  0
LINE
  5
950
330
1F
100
AcDbEntity
  8
2
  6
CONTINUOUS
370
25
 62
7
100
AcDbLine
 10
88.05023808916454
 20
-6.748809554177285
 30
0.0
 11
88.30142853498725
 21
-7.0
 31
0.0
  0
LINE
  5
951
330
1F
100
AcDbEntity
  8
2
  6
CONTINUOUS
370
25
 62
7
100
AcDbLine
 10
88.1209487672832
 20
-6.395256163584001
 30
0.0
 11
88.7256926036992
 21
-7.0
 31
0.0
  0
LINE
  5
952
330
1F
100
AcDbEntity
  8
2
  6
CONTINUOUS
370
25
 62
7
100
AcDbLine
 10
88.19165944540185
 20
-6.041702772990735
 30
0.0
 11
89.14995667241112
 21
-7.000000000000004
 31
0.0
  0
LINE
  5
953
330
1F
100
AcDbEntity
  8
2
  6
CONTINUOUS
370
25
 62
7
100
AcDbLine
 10
88.26237012352051
 20
-5.688149382397466
 30
0.0
 11
89.57422074112306
 21
-7.000000000000004
 31
0.0
  0
LINE
  5
954
330
1F
100
AcDbEntity
  8
2
  6
CONTINUOUS
370
25
 62
7
100
AcDbLine
 10
88.33308080163917
 20
-5.334595991804186
 30
0.0
 11
89.99848480983499
 21
-7.0
 31
0.0
  0
LINE
  5
955
330
1F
100
AcDbEntity
  8
2
  6
CONTINUOUS
370
25
 62
7
100
AcDbLine
 10
88.40379147975781
 20
-4.981042601210909
 30
0.0
 11
89.89431278036326
 21
-6.47156390181636
 31
0.0
  0
LINE
  5
956
330
1F
100
AcDbEntity
  8
2
  6
CONTINUOUS
370
25
 62
7
100
AcDbLine
 10
88.47450215787646
 20
-4.627489210617632
 30
0.0
 11
89.7882467631853
 21
-5.941233815926452
 31
0.0
  0
LINE
  5
957
330
1F
100
AcDbEntity
  8
2
  6
CONTINUOUS
370
25
 62
7
100
AcDbLine
 10
88.54521283599513
 20
-4.273935820024359
 30
0.0
 11
89.6821807460073
 21
-5.410903730036534
 31
0.0
  0
LINE
  5
958
330
1F
100
AcDbEntity
  8
2
  6
CONTINUOUS
370
25
 62
7
100
AcDbLine
 10
88.61592351411377
 20
-3.920382429431079
 30
0.0
 11
89.57611472882932
 21
-4.880573644146629
 31
0.0
  0
LINE
  5
959
330
1F
100
AcDbEntity
  8
2
  6
CONTINUOUS
370
25
 62
7
100
AcDbLine
 10
88.68663419223243
 20
-3.56682903883781
 30
0.0
 11
89.47004871165134
 21
-4.350243558256714
 31
0.0
  0
LINE
  5
95A
330
1F
100
AcDbEntity
  8
2
  6
CONTINUOUS
370
25
 62
7
100
AcDbLine
 10
88.75734487035109
 20
-3.21327564824454
 30
0.0
 11
89.36398269447335
 21
-3.8199134723668
 31
0.0
  0
LINE
  5
95B
330
1F
100
AcDbEntity
  8
2
  6
CONTINUOUS
370
25
 62
7
100
AcDbLine
 10
88.82805554846973
 20
-2.859722257651264
 30
0.0
 11
89.25791667729538
 21
-3.289583386476899
 31
0.0
  0
LINE
  5
95C
330
1F
100
AcDbEntity
  8
2
  6
CONTINUOUS
370
25
 62
7
100
AcDbLine
 10
88.89876622658839
 20
-2.50616886705798
 30
0.0
 11
89.15185066011739
 21
-2.759253300586984
 31
0.0
  0
LINE
  5
95D
330
1F
100
AcDbEntity
  8
2
  6
CONTINUOUS
370
25
 62
7
100
AcDbLine
 10
88.96947690470705
 20
-2.15261547646471
 30
0.0
 11
89.04578464293942
 21
-2.228923214697076
 31
0.0
  0
LINE
  5
95E
330
1F
100
AcDbEntity
  8
2
  6
CONTINUOUS
370
25
 62
7
100
AcDbLine
 10
89.0
 20
1.999999999999998
 30
0.0
 11
88.0
 21
6.999999999999998
 31
0.0
  0
LINE
  5
95F
330
1F
100
AcDbEntity
  8
2
  6
CONTINUOUS
370
25
 62
7
100
AcDbLine
 10
88.0
 20
6.999999999999998
 30
0.0
 11
90.0
 21
6.999999999999998
 31
0.0
  0
LINE
  5
960
330
1F
100
AcDbEntity
  8
2
  6
CONTINUOUS
370
25
 62
7
100
AcDbLine
 10
90.0
 20
6.999999999999998
 30
0.0
 11
89.0
 21
1.999999999999998
 31
0.0
  0
LINE
  5
961
330
1F
100
AcDbEntity
  8
2
  6
CONTINUOUS
370
25
 62
7
100
AcDbLine
 10
88.95701940233982
 20
2.214902988300892
 30
0.0
 11
89.06447089649026
 21
2.322354482451338
 31
0.0
  0
LINE
  5
962
330
1F
100
AcDbEntity
  8
2
  6
CONTINUOUS
370
25
 62
7
100
AcDbLine
 10
88.88630872422117
 20
2.568456378894169
 30
0.0
 11
89.17053691366824
 21
2.852684568341246
 31
0.0
  0
LINE
  5
963
330
1F
100
AcDbEntity
  8
2
  6
CONTINUOUS
370
25
 62
7
100
AcDbLine
 10
88.81559804610251
 20
2.922009769487438
 30
0.0
 11
89.27660293084622
 21
3.383014654231161
 31
0.0
  0
LINE
  5
964
330
1F
100
AcDbEntity
  8
2
  6
CONTINUOUS
370
25
 62
7
100
AcDbLine
 10
88.74488736798386
 20
3.275563160080715
 30
0.0
 11
89.38266894802422
 21
3.913344740121069
 31
0.0
  0
LINE
  5
965
330
1F
100
AcDbEntity
  8
2
  6
CONTINUOUS
370
25
 62
7
100
AcDbLine
 10
88.67417668986519
 20
3.629116550673995
 30
0.0
 11
89.48873496520218
 21
4.443674826010987
 31
0.0
  0
LINE
  5
966
330
1F
100
AcDbEntity
  8
2
  6
CONTINUOUS
370
25
 62
7
100
AcDbLine
 10
88.60346601174655
 20
3.982669941267265
 30
0.0
 11
89.59480098238018
 21
4.974004911900902
 31
0.0
  0
LINE
  5
967
330
1F
100
AcDbEntity
  8
2
  6
CONTINUOUS
370
25
 62
7
100
AcDbLine
 10
88.53275533362789
 20
4.336223331860545
 30
0.0
 11
89.70086699955816
 21
5.504334997790814
 31
0.0
  0
LINE
  5
968
330
1F
100
AcDbEntity
  8
2
  6
CONTINUOUS
370
25
 62
7
100
AcDbLine
 10
88.46204465550923
 20
4.689776722453821
 30
0.0
 11
89.80693301673614
 21
6.034665083680729
 31
0.0
  0
LINE
  5
969
330
1F
100
AcDbEntity
  8
2
  6
CONTINUOUS
370
25
 62
7
100
AcDbLine
 10
88.39133397739057
 20
5.043330113047084
 30
0.0
 11
89.91299903391413
 21
6.564995169570643
 31
0.0
  0
LINE
  5
96A
330
1F
100
AcDbEntity
  8
2
  6
CONTINUOUS
370
25
 62
7
100
AcDbLine
 10
88.32062329927192
 20
5.39688350364036
 30
0.0
 11
89.92373979563155
 21
7.0
 31
0.0
  0
LINE
  5
96B
330
1F
100
AcDbEntity
  8
2
  6
CONTINUOUS
370
25
 62
7
100
AcDbLine
 10
88.24991262115327
 20
5.750436894233637
 30
0.0
 11
89.49947572691963
 21
7.0
 31
0.0
  0
LINE
  5
96C
330
1F
100
AcDbEntity
  8
2
  6
CONTINUOUS
370
25
 62
7
100
AcDbLine
 10
88.17920194303461
 20
6.103990284826914
 30
0.0
 11
89.07521165820769
 21
7.0
 31
0.0
  0
LINE
  5
96D
330
1F
100
AcDbEntity
  8
2
  6
CONTINUOUS
370
25
 62
7
100
AcDbLine
 10
88.10849126491595
 20
6.457543675420183
 30
0.0
 11
88.65094758949576
 21
7.0
 31
0.0
  0
LINE
  5
96E
330
1F
100
AcDbEntity
  8
2
  6
CONTINUOUS
370
25
 62
7
100
AcDbLine
 10
88.03778058679731
 20
6.81109706601347
 30
0.0
 11
88.22668352078384
 21
6.999999999999996
 31
0.0
  0
LINE
  5
96F
330
1F
100
AcDbEntity
  8
2
  6
CONTINUOUS
370
25
 62
7
100
AcDbLine
 10
88.9851244711596
 20
2.074377644202031
 30
0.0
 11
89.00991701922693
 21
2.049585096134692
 31
0.0
  0
LINE
  5
970
330
1F
100
AcDbEntity
  8
2
  6
CONTINUOUS
370
25
 62
7
100
AcDbLine
 10
88.87905845398161
 20
2.604707730091938
 30
0.0
 11
89.08062769734559
 21
2.403138486727968
 31
0.0
  0
LINE
  5
971
330
1F
100
AcDbEntity
  8
2
  6
CONTINUOUS
370
25
 62
7
100
AcDbLine
 10
88.77299243680362
 20
3.135037815981867
 30
0.0
 11
89.15133837546425
 21
2.756691877321238
 31
0.0
  0
LINE
  5
972
330
1F
100
AcDbEntity
  8
2
  6
CONTINUOUS
370
25
 62
7
100
AcDbLine
 10
88.66692641962564
 20
3.665367901871775
 30
0.0
 11
89.22204905358291
 21
3.110245267914514
 31
0.0
  0
LINE
  5
973
330
1F
100
AcDbEntity
  8
2
  6
CONTINUOUS
370
25
 62
7
100
AcDbLine
 10
88.56086040244766
 20
4.195697987761683
 30
0.0
 11
89.29275973170155
 21
3.463798658507791
 31
0.0
  0
LINE
  5
974
330
1F
100
AcDbEntity
  8
2
  6
CONTINUOUS
370
25
 62
7
100
AcDbLine
 10
88.45479438526968
 20
4.726028073651598
 30
0.0
 11
89.36347040982021
 21
3.817352049101068
 31
0.0
  0
LINE
  5
975
330
1F
100
AcDbEntity
  8
2
  6
CONTINUOUS
370
25
 62
7
100
AcDbLine
 10
88.34872836809168
 20
5.256358159541506
 30
0.0
 11
89.43418108793887
 21
4.170905439694337
 31
0.0
  0
LINE
  5
976
330
1F
100
AcDbEntity
  8
2
  6
CONTINUOUS
370
25
 62
7
100
AcDbLine
 10
88.24266235091372
 20
5.786688245431407
 30
0.0
 11
89.50489176605751
 21
4.524458830287614
 31
0.0
  0
LINE
  5
977
330
1F
100
AcDbEntity
  8
2
  6
CONTINUOUS
370
25
 62
7
100
AcDbLine
 10
88.13659633373572
 20
6.317018331321322
 30
0.0
 11
89.57560244417618
 21
4.878012220880883
 31
0.0
  0
LINE
  5
978
330
1F
100
AcDbEntity
  8
2
  6
CONTINUOUS
370
25
 62
7
100
AcDbLine
 10
88.03053031655776
 20
6.847348417211229
 30
0.0
 11
89.64631312229483
 21
5.231565611474167
 31
0.0
  0
LINE
  5
979
330
1F
100
AcDbEntity
  8
2
  6
CONTINUOUS
370
25
 62
7
100
AcDbLine
 10
88.30214280248092
 20
7.0
 30
0.0
 11
89.71702380041349
 21
5.58511900206743
 31
0.0
  0
LINE
  5
97A
330
1F
100
AcDbEntity
  8
2
  6
CONTINUOUS
370
25
 62
7
100
AcDbLine
 10
88.72640687119284
 20
7.0
 30
0.0
 11
89.78773447853214
 21
5.938672392660713
 31
0.0
  0
LINE
  5
97B
330
1F
100
AcDbEntity
  8
2
  6
CONTINUOUS
370
25
 62
7
100
AcDbLine
 10
89.15067093990478
 20
7.0
 30
0.0
 11
89.8584451566508
 21
6.292225783253976
 31
0.0
  0
LINE
  5
97C
330
1F
100
AcDbEntity
  8
2
  6
CONTINUOUS
370
25
 62
7
100
AcDbLine
 10
89.5749350086167
 20
7.0
 30
0.0
 11
89.92915583476946
 21
6.645779173847252
 31
0.0
  0
LINE
  5
97D
330
1F
100
AcDbEntity
  8
2
  6
CONTINUOUS
370
25
 62
7
100
AcDbLine
 10
89.99919907732864
 20
7.0
 30
0.0
 11
89.9998665128881
 21
6.999332564440536
 31
0.0
  0
TEXT
  5
97E
330
1F
100
AcDbEntity
  8
2
  6
CONTINUOUS
370
25
 62
7
100
AcDbText
 10
87.5
 20
12.34583333333333
 30
0.0
 40
3.5
  1
4
 50
90.00000000000001
 72
     1
 11
87.5
 21
13.5125
 31
0.0
100
AcDbText
  0
CIRCLE
  5
97F
330
1F
100
AcDbEntity
  8
2
  6
CONTINUOUS
370
25
 62
7
100
AcDbCircle
 10
85.75
 20
10.1875
 30
0.0
 40
1.4
  0
LINE
  5
980
330
1F
100
AcDbEntity
  8
2
  6
CONTINUOUS
370
25
 62
7
100
AcDbLine
 10
87.15
 20
8.7875
 30
0.0
 11
84.35
 21
11.5875
 31
0.0
  0
LINE
  5
981
330
1F
100
AcDbEntity
  8
2
  6
CONTINUOUS
370
25
 62
7
100
AcDbLine
 10
59.0
 20
-2.0
 30
0.0
 11
59.0
 21
-15.0
 31
0.0
  0
LINE
  5
982
330
1F
100
AcDbEntity
  8
2
  6
CONTINUOUS
370
25
 62
7
100
AcDbLine
 10
70.0
 20
-15.0
 30
0.0
 11
70.0
 21
-1.0
 31
0.0
  0
LINE
  5
983
330
1F
100
AcDbEntity
  8
2
  6
CONTINUOUS
370
25
 62
7
100
AcDbLine
 10
52.0
 20
-14.0
 30
0.0
 11
77.0
 21
-14.0
 31
0.0
  0
LINE
  5
984
330
1F
100
AcDbEntity
  8
2
  6
CONTINUOUS
370
25
 62
7
100
AcDbLine
 10
59.0
 20
-14.0
 30
0.0
 11
54.0
 21
-15.0
 31
0.0
  0
LINE
  5
985
330
1F
100
AcDbEntity
  8
2
  6
CONTINUOUS
370
25
 62
7
100
AcDbLine
 10
54.0
 20
-15.0
 30
0.0
 11
54.0
 21
-13.0
 31
0.0
  0
LINE
  5
986
330
1F
100
AcDbEntity
  8
2
  6
CONTINUOUS
370
25
 62
7
100
AcDbLine
 10
54.0
 20
-13.0
 30
0.0
 11
59.0
 21
-14.0
 31
0.0
  0
LINE
  5
987
330
1F
100
AcDbEntity
  8
2
  6
CONTINUOUS
370
25
 62
7
100
AcDbLine
 10
58.67853835191568
 20
-14.06429232961687
 30
0.0
 11
58.78569223461045
 21
-13.95713844692209
 31
0.0
  0
LINE
  5
988
330
1F
100
AcDbEntity
  8
2
  6
CONTINUOUS
370
25
 62
7
100
AcDbLine
 10
58.14820826602577
 20
-14.17035834679485
 30
0.0
 11
58.43213884401717
 21
-13.88642776880344
 31
0.0
  0
LINE
  5
989
330
1F
100
AcDbEntity
  8
2
  6
CONTINUOUS
370
25
 62
7
100
AcDbLine
 10
57.61787818013585
 20
-14.27642436397283
 30
0.0
 11
58.0785854534239
 21
-13.81571709068478
 31
0.0
  0
LINE
  5
98A
330
1F
100
AcDbEntity
  8
2
  6
CONTINUOUS
370
25
 62
7
100
AcDbLine
 10
57.08754809424595
 20
-14.38249038115081
 30
0.0
 11
57.72503206283063
 21
-13.74500641256613
 31
0.0
  0
LINE
  5
98B
330
1F
100
AcDbEntity
  8
2
  6
CONTINUOUS
370
25
 62
7
100
AcDbLine
 10
56.55721800835604
 20
-14.48855639832879
 30
0.0
 11
57.37147867223736
 21
-13.67429573444747
 31
0.0
  0
LINE
  5
98C
330
1F
100
AcDbEntity
  8
2
  6
CONTINUOUS
370
25
 62
7
100
AcDbLine
 10
56.02688792246613
 20
-14.59462241550677
 30
0.0
 11
57.01792528164408
 21
-13.60358505632882
 31
0.0
  0
LINE
  5
98D
330
1F
100
AcDbEntity
  8
2
  6
CONTINUOUS
370
25
 62
7
100
AcDbLine
 10
55.49655783657622
 20
-14.70068843268476
 30
0.0
 11
56.66437189105081
 21
-13.53287437821016
 31
0.0
  0
LINE
  5
98E
330
1F
100
AcDbEntity
  8
2
  6
CONTINUOUS
370
25
 62
7
100
AcDbLine
 10
54.96622775068631
 20
-14.80675444986274
 30
0.0
 11
56.31081850045754
 21
-13.46216370009151
 31
0.0
  0
LINE
  5
98F
330
1F
100
AcDbEntity
  8
2
  6
CONTINUOUS
370
25
 62
7
100
AcDbLine
 10
54.4358976647964
 20
-14.91282046704072
 30
0.0
 11
55.95726510986427
 21
-13.39145302197285
 31
0.0
  0
LINE
  5
990
330
1F
100
AcDbEntity
  8
2
  6
CONTINUOUS
370
25
 62
7
100
AcDbLine
 10
54.0
 20
-14.92445406312519
 30
0.0
 11
55.60371171927099
 21
-13.3207423438542
 31
0.0
  0
LINE
  5
991
330
1F
100
AcDbEntity
  8
2
  6
CONTINUOUS
370
25
 62
7
100
AcDbLine
 10
54.0
 20
-14.50018999441326
 30
0.0
 11
55.25015832867772
 21
-13.25003166573554
 31
0.0
  0
LINE
  5
992
330
1F
100
AcDbEntity
  8
2
  6
CONTINUOUS
370
25
 62
7
100
AcDbLine
 10
54.0
 20
-14.07592592570134
 30
0.0
 11
54.89660493808444
 21
-13.17932098761689
 31
0.0
  0
LINE
  5
993
330
1F
100
AcDbEntity
  8
2
  6
CONTINUOUS
370
25
 62
7
100
AcDbLine
 10
54.0
 20
-13.65166185698941
 30
0.0
 11
54.54305154749117
 21
-13.10861030949823
 31
0.0
  0
LINE
  5
994
330
1F
100
AcDbEntity
  8
2
  6
CONTINUOUS
370
25
 62
7
100
AcDbLine
 10
54.0
 20
-13.22739778827748
 30
0.0
 11
54.1894981568979
 21
-13.03789963137958
 31
0.0
  0
LINE
  5
995
330
1F
100
AcDbEntity
  8
2
  6
CONTINUOUS
370
25
 62
7
100
AcDbLine
 10
54.0
 20
-14.97958391834728
 30
0.0
 11
54.01701340137726
 21
-14.99659731972455
 31
0.0
  0
LINE
  5
996
330
1F
100
AcDbEntity
  8
2
  6
CONTINUOUS
370
25
 62
7
100
AcDbLine
 10
54.0
 20
-14.55531984963536
 30
0.0
 11
54.37056679197053
 21
-14.92588664160589
 31
0.0
  0
LINE
  5
997
330
1F
100
AcDbEntity
  8
2
  6
CONTINUOUS
370
25
 62
7
100
AcDbLine
 10
54.0
 20
-14.13105578092343
 30
0.0
 11
54.72412018256381
 21
-14.85517596348724
 31
0.0
  0
LINE
  5
998
330
1F
100
AcDbEntity
  8
2
  6
CONTINUOUS
370
25
 62
7
100
AcDbLine
 10
54.0
 20
-13.7067917122115
 30
0.0
 11
55.07767357315708
 21
-14.78446528536858
 31
0.0
  0
LINE
  5
999
330
1F
100
AcDbEntity
  8
2
  6
CONTINUOUS
370
25
 62
7
100
AcDbLine
 10
54.0
 20
-13.28252764349957
 30
0.0
 11
55.43122696375035
 21
-14.71375460724993
 31
0.0
  0
LINE
  5
99A
330
1F
100
AcDbEntity
  8
2
  6
CONTINUOUS
370
25
 62
7
100
AcDbLine
 10
54.17717053151544
 20
-13.03543410630309
 30
0.0
 11
55.78478035434363
 21
-14.64304392913127
 31
0.0
  0
LINE
  5
99B
330
1F
100
AcDbEntity
  8
2
  6
CONTINUOUS
370
25
 62
7
100
AcDbLine
 10
54.70750061740535
 20
-13.14150012348107
 30
0.0
 11
56.1383337449369
 21
-14.57233325101262
 31
0.0
  0
LINE
  5
99C
330
1F
100
AcDbEntity
  8
2
  6
CONTINUOUS
370
25
 62
7
100
AcDbLine
 10
55.23783070329526
 20
-13.24756614065905
 30
0.0
 11
56.49188713553018
 21
-14.50162257289396
 31
0.0
  0
LINE
  5
99D
330
1F
100
AcDbEntity
  8
2
  6
CONTINUOUS
370
25
 62
7
100
AcDbLine
 10
55.76816078918517
 20
-13.35363215783703
 30
0.0
 11
56.84544052612345
 21
-14.43091189477531
 31
0.0
  0
LINE
  5
99E
330
1F
100
AcDbEntity
  8
2
  6
CONTINUOUS
370
25
 62
7
100
AcDbLine
 10
56.29849087507508
 20
-13.45969817501502
 30
0.0
 11
57.19899391671672
 21
-14.36020121665666
 31
0.0
  0
LINE
  5
99F
330
1F
100
AcDbEntity
  8
2
  6
CONTINUOUS
370
25
 62
7
100
AcDbLine
 10
56.82882096096499
 20
-13.565764192193
 30
0.0
 11
57.55254730730999
 21
-14.289490538538
 31
0.0
  0
LINE
  5
9A0
330
1F
100
AcDbEntity
  8
2
  6
CONTINUOUS
370
25
 62
7
100
AcDbLine
 10
57.3591510468549
 20
-13.67183020937098
 30
0.0
 11
57.90610069790327
 21
-14.21877986041935
 31
0.0
  0
LINE
  5
9A1
330
1F
100
AcDbEntity
  8
2
  6
CONTINUOUS
370
25
 62
7
100
AcDbLine
 10
57.88948113274481
 20
-13.77789622654896
 30
0.0
 11
58.25965408849654
 21
-14.14806918230069
 31
0.0
  0
LINE
  5
9A2
330
1F
100
AcDbEntity
  8
2
  6
CONTINUOUS
370
25
 62
7
100
AcDbLine
 10
58.41981121863472
 20
-13.88396224372694
 30
0.0
 11
58.61320747908982
 21
-14.07735850418204
 31
0.0
  0
LINE
  5
9A3
330
1F
100
AcDbEntity
  8
2
  6
CONTINUOUS
370
25
 62
7
100
AcDbLine
 10
58.95014130452463
 20
-13.99002826090492
 30
0.0
 11
58.96676086968309
 21
-14.00664782606338
 31
0.0
  0
LINE
  5
9A4
330
1F
100
AcDbEntity
  8
2
  6
CONTINUOUS
370
25
 62
7
100
AcDbLine
 10
70.0
 20
-14.0
 30
0.0
 11
75.0
 21
-13.0
 31
0.0
  0
LINE
  5
9A5
330
1F
100
AcDbEntity
  8
2
  6
CONTINUOUS
370
25
 62
7
100
AcDbLine
 10
75.0
 20
-13.0
 30
0.0
 11
75.0
 21
-15.0
 31
0.0
  0
LINE
  5
9A6
330
1F
100
AcDbEntity
  8
2
  6
CONTINUOUS
370
25
 62
7
100
AcDbLine
 10
75.0
 20
-15.0
 30
0.0
 11
70.0
 21
-14.0
 31
0.0
  0
LINE
  5
9A7
330
1F
100
AcDbEntity
  8
2
  6
CONTINUOUS
370
25
 62
7
100
AcDbLine
 10
74.91132356384588
 20
-14.98226471276918
 30
0.0
 11
75.0
 21
-14.89358827661506
 31
0.0
  0
LINE
  5
9A8
330
1F
100
AcDbEntity
  8
2
  6
CONTINUOUS
370
25
 62
7
100
AcDbLine
 10
74.5577701732526
 20
-14.91155403465052
 30
0.0
 11
75.0
 21
-14.46932420790313
 31
0.0
  0
LINE
  5
9A9
330
1F
100
AcDbEntity
  8
2
  6
CONTINUOUS
370
25
 62
7
100
AcDbLine
 10
74.20421678265933
 20
-14.84084335653187
 30
0.0
 11
75.0
 21
-14.0450601391912
 31
0.0
  0
LINE
  5
9AA
330
1F
100
AcDbEntity
  8
2
  6
CONTINUOUS
370
25
 62
7
100
AcDbLine
 10
73.85066339206605
 20
-14.77013267841321
 30
0.0
 11
75.0
 21
-13.62079607047928
 31
0.0
  0
LINE
  5
9AB
330
1F
100
AcDbEntity
  8
2
  6
CONTINUOUS
370
25
 62
7
100
AcDbLine
 10
73.49711000147279
 20
-14.69942200029456
 30
0.0
 11
75.0
 21
-13.19653200176735
 31
0.0
  0
LINE
  5
9AC
330
1F
100
AcDbEntity
  8
2
  6
CONTINUOUS
370
25
 62
7
100
AcDbLine
 10
73.14355661087951
 20
-14.6287113221759
 30
0.0
 11
74.71533491631928
 21
-13.05693301673615
 31
0.0
  0
LINE
  5
9AD
330
1F
100
AcDbEntity
  8
2
  6
CONTINUOUS
370
25
 62
7
100
AcDbLine
 10
72.79000322028624
 20
-14.55800064405725
 30
0.0
 11
74.18500483042936
 21
-13.16299903391413
 31
0.0
  0
LINE
  5
9AE
330
1F
100
AcDbEntity
  8
2
  6
CONTINUOUS
370
25
 62
7
100
AcDbLine
 10
72.43644982969298
 20
-14.48728996593859
 30
0.0
 11
73.65467474453945
 21
-13.26906505109211
 31
0.0
  0
LINE
  5
9AF
330
1F
100
AcDbEntity
  8
2
  6
CONTINUOUS
370
25
 62
7
100
AcDbLine
 10
72.0828964390997
 20
-14.41657928781994
 30
0.0
 11
73.12434465864953
 21
-13.37513106827009
 31
0.0
  0
LINE
  5
9B0
330
1F
100
AcDbEntity
  8
2
  6
CONTINUOUS
370
25
 62
7
100
AcDbLine
 10
71.72934304850642
 20
-14.34586860970128
 30
0.0
 11
72.59401457275963
 21
-13.48119708544807
 31
0.0
  0
LINE
  5
9B1
330
1F
100
AcDbEntity
  8
2
  6
CONTINUOUS
370
25
 62
7
100
AcDbLine
 10
71.37578965791315
 20
-14.27515793158263
 30
0.0
 11
72.06368448686972
 21
-13.58726310262606
 31
0.0
  0
LINE
  5
9B2
330
1F
100
AcDbEntity
  8
2
  6
CONTINUOUS
370
25
 62
7
100
AcDbLine
 10
71.02223626731987
 20
-14.20444725346398
 30
0.0
 11
71.53335440097982
 21
-13.69332911980404
 31
0.0
  0
LINE
  5
9B3
330
1F
100
AcDbEntity
  8
2
  6
CONTINUOUS
370
25
 62
7
100
AcDbLine
 10
70.6686828767266
 20
-14.13373657534532
 30
0.0
 11
71.0030243150899
 21
-13.79939513698202
 31
0.0
  0
LINE
  5
9B4
330
1F
100
AcDbEntity
  8
2
  6
CONTINUOUS
370
25
 62
7
100
AcDbLine
 10
70.31512948613333
 20
-14.06302589722667
 30
0.0
 11
70.47269422919999
 21
-13.90546115416
 31
0.0
  0
LINE
  5
9B5
330
1F
100
AcDbEntity
  8
2
  6
CONTINUOUS
370
25
 62
7
100
AcDbLine
 10
70.22487373415298
 20
-13.95502525316941
 30
0.0
 11
70.33731060122946
 21
-14.0674621202459
 31
0.0
  0
LINE
  5
9B6
330
1F
100
AcDbEntity
  8
2
  6
CONTINUOUS
370
25
 62
7
100
AcDbLine
 10
70.57842712474626
 20
-13.88431457505075
 30
0.0
 11
70.86764068711938
 21
-14.17352813742388
 31
0.0
  0
LINE
  5
9B7
330
1F
100
AcDbEntity
  8
2
  6
CONTINUOUS
370
25
 62
7
100
AcDbLine
 10
70.93198051533952
 20
-13.81360389693209
 30
0.0
 11
71.39797077300929
 21
-14.27959415460186
 31
0.0
  0
LINE
  5
9B8
330
1F
100
AcDbEntity
  8
2
  6
CONTINUOUS
370
25
 62
7
100
AcDbLine
 10
71.2855339059328
 20
-13.74289321881344
 30
0.0
 11
71.9283008588992
 21
-14.38566017177984
 31
0.0
  0
LINE
  5
9B9
330
1F
100
AcDbEntity
  8
2
  6
CONTINUOUS
370
25
 62
7
100
AcDbLine
 10
71.63908729652607
 20
-13.67218254069479
 30
0.0
 11
72.4586309447891
 21
-14.49172618895782
 31
0.0
  0
LINE
  5
9BA
330
1F
100
AcDbEntity
  8
2
  6
CONTINUOUS
370
25
 62
7
100
AcDbLine
 10
71.99264068711935
 20
-13.60147186257613
 30
0.0
 11
72.98896103067902
 21
-14.5977922061358
 31
0.0
  0
LINE
  5
9BB
330
1F
100
AcDbEntity
  8
2
  6
CONTINUOUS
370
25
 62
7
100
AcDbLine
 10
72.34619407771262
 20
-13.53076118445748
 30
0.0
 11
73.51929111656892
 21
-14.70385822331378
 31
0.0
  0
LINE
  5
9BC
330
1F
100
AcDbEntity
  8
2
  6
CONTINUOUS
370
25
 62
7
100
AcDbLine
 10
72.69974746830589
 20
-13.46005050633882
 30
0.0
 11
74.04962120245884
 21
-14.80992424049177
 31
0.0
  0
LINE
  5
9BD
330
1F
100
AcDbEntity
  8
2
  6
CONTINUOUS
370
25
 62
7
100
AcDbLine
 10
73.05330085889916
 20
-13.38933982822016
 30
0.0
 11
74.57995128834875
 21
-14.91599025766975
 31
0.0
  0
LINE
  5
9BE
330
1F
100
AcDbEntity
  8
2
  6
CONTINUOUS
370
25
 62
7
100
AcDbLine
 10
73.40685424949244
 20
-13.31862915010151
 30
0.0
 11
75.0
 21
-14.91177490060907
 31
0.0
  0
LINE
  5
9BF
330
1F
100
AcDbEntity
  8
2
  6
CONTINUOUS
370
25
 62
7
100
AcDbLine
 10
73.7604076400857
 20
-13.24791847198286
 30
0.0
 11
75.0
 21
-14.48751083189714
 31
0.0
  0
LINE
  5
9C0
330
1F
100
AcDbEntity
  8
2
  6
CONTINUOUS
370
25
 62
7
100
AcDbLine
 10
74.11396103067898
 20
-13.1772077938642
 30
0.0
 11
75.0
 21
-14.06324676318522
 31
0.0
  0
LINE
  5
9C1
330
1F
100
AcDbEntity
  8
2
  6
CONTINUOUS
370
25
 62
7
100
AcDbLine
 10
74.46751442127226
 20
-13.10649711574555
 30
0.0
 11
75.0
 21
-13.63898269447329
 31
0.0
  0
LINE
  5
9C2
330
1F
100
AcDbEntity
  8
2
  6
CONTINUOUS
370
25
 62
7
100
AcDbLine
 10
74.82106781186553
 20
-13.03578643762689
 30
0.0
 11
75.0
 21
-13.21471862576136
 31
0.0
  0
TEXT
  5
9C3
330
1F
100
AcDbEntity
  8
2
  6
CONTINUOUS
370
25
 62
7
100
AcDbText
 10
62.75
 20
-12.5
 30
0.0
 40
3.5
  1
11
 72
     1
 11
64.5
 21
-12.5
 31
0.0
100
AcDbText
  0
LINE
  5
9C4
330
1F
100
AcDbEntity
  8
2
  6
CONTINUOUS
370
25
 62
7
100
AcDbLine
 10
53.3
 20
0.0
 30
0.0
 11
53.3
 21
25.99995
 31
0.0
  0
LINE
  5
9C5
330
1F
100
AcDbEntity
  8
2
  6
CONTINUOUS
370
25
 62
7
100
AcDbLine
 10
70.0
 20
25.99995
 30
0.0
 11
70.0
 21
1.0
 31
0.0
  0
LINE
  5
9C6
330
1F
100
AcDbEntity
  8
2
  6
CONTINUOUS
370
25
 62
7
100
AcDbLine
 10
46.3
 20
24.99995
 30
0.0
 11
77.0
 21
24.99995
 31
0.0
  0
LINE
  5
9C7
330
1F
100
AcDbEntity
  8
2
  6
CONTINUOUS
370
25
 62
7
100
AcDbLine
 10
53.3
 20
24.99995
 30
0.0
 11
48.3
 21
23.99995
 31
0.0
  0
LINE
  5
9C8
330
1F
100
AcDbEntity
  8
2
  6
CONTINUOUS
370
25
 62
7
100
AcDbLine
 10
48.3
 20
23.99995
 30
0.0
 11
48.3
 21
25.99995
 31
0.0
  0
LINE
  5
9C9
330
1F
100
AcDbEntity
  8
2
  6
CONTINUOUS
370
25
 62
7
100
AcDbLine
 10
48.3
 20
25.99995
 30
0.0
 11
53.3
 21
24.99995
 31
0.0
  0
LINE
  5
9CA
330
1F
100
AcDbEntity
  8
2
  6
CONTINUOUS
370
25
 62
7
100
AcDbLine
 10
53.26046243249531
 20
24.99204248649906
 30
0.0
 11
53.27364162166354
 21
25.00522167566729
 31
0.0
  0
LINE
  5
9CB
330
1F
100
AcDbEntity
  8
2
  6
CONTINUOUS
370
25
 62
7
100
AcDbLine
 10
52.73013234660539
 20
24.88597646932108
 30
0.0
 11
52.92008823107027
 21
25.07593235378594
 31
0.0
  0
LINE
  5
9CC
330
1F
100
AcDbEntity
  8
2
  6
CONTINUOUS
370
25
 62
7
100
AcDbLine
 10
52.19980226071549
 20
24.7799104521431
 30
0.0
 11
52.56653484047699
 21
25.1466430319046
 31
0.0
  0
LINE
  5
9CD
330
1F
100
AcDbEntity
  8
2
  6
CONTINUOUS
370
25
 62
7
100
AcDbLine
 10
51.66947217482558
 20
24.67384443496512
 30
0.0
 11
52.21298144988372
 21
25.21735371002325
 31
0.0
  0
LINE
  5
9CE
330
1F
100
AcDbEntity
  8
2
  6
CONTINUOUS
370
25
 62
7
100
AcDbLine
 10
51.13914208893566
 20
24.56777841778713
 30
0.0
 11
51.85942805929044
 21
25.28806438814191
 31
0.0
  0
LINE
  5
9CF
330
1F
100
AcDbEntity
  8
2
  6
CONTINUOUS
370
25
 62
7
100
AcDbLine
 10
50.60881200304576
 20
24.46171240060915
 30
0.0
 11
51.50587466869717
 21
25.35877506626056
 31
0.0
  0
LINE
  5
9D0
330
1F
100
AcDbEntity
  8
2
  6
CONTINUOUS
370
25
 62
7
100
AcDbLine
 10
50.07848191715585
 20
24.35564638343117
 30
0.0
 11
51.1523212781039
 21
25.42948574437922
 31
0.0
  0
LINE
  5
9D1
330
1F
100
AcDbEntity
  8
2
  6
CONTINUOUS
370
25
 62
7
100
AcDbLine
 10
49.54815183126594
 20
24.24958036625319
 30
0.0
 11
50.79876788751062
 21
25.50019642249787
 31
0.0
  0
LINE
  5
9D2
330
1F
100
AcDbEntity
  8
2
  6
CONTINUOUS
370
25
 62
7
100
AcDbLine
 10
49.01782174537603
 20
24.1435143490752
 30
0.0
 11
50.44521449691735
 21
25.57090710061653
 31
0.0
  0
LINE
  5
9D3
330
1F
100
AcDbEntity
  8
2
  6
CONTINUOUS
370
25
 62
7
100
AcDbLine
 10
48.48749165948612
 20
24.03744833189722
 30
0.0
 11
50.09166110632408
 21
25.64161777873518
 31
0.0
  0
LINE
  5
9D4
330
1F
100
AcDbEntity
  8
2
  6
CONTINUOUS
370
25
 62
7
100
AcDbLine
 10
48.3
 20
24.27422074112303
 30
0.0
 11
49.73810771573081
 21
25.71232845685384
 31
0.0
  0
LINE
  5
9D5
330
1F
100
AcDbEntity
  8
2
  6
CONTINUOUS
370
25
 62
7
100
AcDbLine
 10
48.3
 20
24.69848480983496
 30
0.0
 11
49.38455432513753
 21
25.78303913497249
 31
0.0
  0
LINE
  5
9D6
330
1F
100
AcDbEntity
  8
2
  6
CONTINUOUS
370
25
 62
7
100
AcDbLine
 10
48.3
 20
25.12274887854688
 30
0.0
 11
49.03100093454426
 21
25.85374981309115
 31
0.0
  0
LINE
  5
9D7
330
1F
100
AcDbEntity
  8
2
  6
CONTINUOUS
370
25
 62
7
100
AcDbLine
 10
48.3
 20
25.54701294725881
 30
0.0
 11
48.67744754395099
 21
25.9244604912098
 31
0.0
  0
LINE
  5
9D8
330
1F
100
AcDbEntity
  8
2
  6
CONTINUOUS
370
25
 62
7
100
AcDbLine
 10
48.3
 20
25.97127701597074
 30
0.0
 11
48.32389415335771
 21
25.99517116932845
 31
0.0
  0
LINE
  5
9D9
330
1F
100
AcDbEntity
  8
2
  6
CONTINUOUS
370
25
 62
7
100
AcDbLine
 10
48.3
 20
24.09188309203675
 30
0.0
 11
48.37661091003062
 21
24.01527218200612
 31
0.0
  0
LINE
  5
9DA
330
1F
100
AcDbEntity
  8
2
  6
CONTINUOUS
370
25
 62
7
100
AcDbLine
 10
48.3
 20
24.51614716074868
 30
0.0
 11
48.7301643006239
 21
24.08598286012478
 31
0.0
  0
LINE
  5
9DB
330
1F
100
AcDbEntity
  8
2
  6
CONTINUOUS
370
25
 62
7
100
AcDbLine
 10
48.3
 20
24.9404112294606
 30
0.0
 11
49.08371769121717
 21
24.15669353824343
 31
0.0
  0
LINE
  5
9DC
330
1F
100
AcDbEntity
  8
2
  6
CONTINUOUS
370
25
 62
7
100
AcDbLine
 10
48.3
 20
25.36467529817253
 30
0.0
 11
49.43727108181044
 21
24.22740421636209
 31
0.0
  0
LINE
  5
9DD
330
1F
100
AcDbEntity
  8
2
  6
CONTINUOUS
370
25
 62
7
100
AcDbLine
 10
48.3
 20
25.78893936688446
 30
0.0
 11
49.79082447240371
 21
24.29811489448074
 31
0.0
  0
LINE
  5
9DE
330
1F
100
AcDbEntity
  8
2
  6
CONTINUOUS
370
25
 62
7
100
AcDbLine
 10
48.56656679449548
 20
25.9466366411009
 30
0.0
 11
50.14437786299699
 21
24.3688255725994
 31
0.0
  0
LINE
  5
9DF
330
1F
100
AcDbEntity
  8
2
  6
CONTINUOUS
370
25
 62
7
100
AcDbLine
 10
49.09689688038539
 20
25.84057062392292
 30
0.0
 11
50.49793125359027
 21
24.43953625071805
 31
0.0
  0
LINE
  5
9E0
330
1F
100
AcDbEntity
  8
2
  6
CONTINUOUS
370
25
 62
7
100
AcDbLine
 10
49.6272269662753
 20
25.73450460674494
 30
0.0
 11
50.85148464418354
 21
24.51024692883671
 31
0.0
  0
LINE
  5
9E1
330
1F
100
AcDbEntity
  8
2
  6
CONTINUOUS
370
25
 62
7
100
AcDbLine
 10
50.15755705216521
 20
25.62843858956695
 30
0.0
 11
51.20503803477681
 21
24.58095760695536
 31
0.0
  0
LINE
  5
9E2
330
1F
100
AcDbEntity
  8
2
  6
CONTINUOUS
370
25
 62
7
100
AcDbLine
 10
50.68788713805512
 20
25.52237257238897
 30
0.0
 11
51.55859142537008
 21
24.65166828507402
 31
0.0
  0
LINE
  5
9E3
330
1F
100
AcDbEntity
  8
2
  6
CONTINUOUS
370
25
 62
7
100
AcDbLine
 10
51.21821722394503
 20
25.41630655521099
 30
0.0
 11
51.91214481596335
 21
24.72237896319267
 31
0.0
  0
LINE
  5
9E4
330
1F
100
AcDbEntity
  8
2
  6
CONTINUOUS
370
25
 62
7
100
AcDbLine
 10
51.74854730983494
 20
25.31024053803301
 30
0.0
 11
52.26569820655663
 21
24.79308964131133
 31
0.0
  0
LINE
  5
9E5
330
1F
100
AcDbEntity
  8
2
  6
CONTINUOUS
370
25
 62
7
100
AcDbLine
 10
52.27887739572486
 20
25.20417452085503
 30
0.0
 11
52.6192515971499
 21
24.86380031942998
 31
0.0
  0
LINE
  5
9E6
330
1F
100
AcDbEntity
  8
2
  6
CONTINUOUS
370
25
 62
7
100
AcDbLine
 10
52.80920748161476
 20
25.09810850367705
 30
0.0
 11
52.97280498774317
 21
24.93451099754864
 31
0.0
  0
LINE
  5
9E7
330
1F
100
AcDbEntity
  8
2
  6
CONTINUOUS
370
25
 62
7
100
AcDbLine
 10
70.0
 20
24.99995
 30
0.0
 11
75.0
 21
25.99995
 31
0.0
  0
LINE
  5
9E8
330
1F
100
AcDbEntity
  8
2
  6
CONTINUOUS
370
25
 62
7
100
AcDbLine
 10
75.0
 20
25.99995
 30
0.0
 11
75.0
 21
23.99995
 31
0.0
  0
LINE
  5
9E9
330
1F
100
AcDbEntity
  8
2
  6
CONTINUOUS
370
25
 62
7
100
AcDbLine
 10
75.0
 20
23.99995
 30
0.0
 11
70.0
 21
24.99995
 31
0.0
  0
LINE
  5
9EA
330
1F
100
AcDbEntity
  8
2
  6
CONTINUOUS
370
25
 62
7
100
AcDbLine
 10
74.79530465644035
 20
24.04088906871193
 30
0.0
 11
75.0
 21
24.24558441227157
 31
0.0
  0
LINE
  5
9EB
330
1F
100
AcDbEntity
  8
2
  6
CONTINUOUS
370
25
 62
7
100
AcDbLine
 10
74.44175126584707
 20
24.11159974683058
 30
0.0
 11
75.0
 21
24.6698484809835
 31
0.0
  0
LINE
  5
9EC
330
1F
100
AcDbEntity
  8
2
  6
CONTINUOUS
370
25
 62
7
100
AcDbLine
 10
74.08819787525381
 20
24.18231042494924
 30
0.0
 11
75.0
 21
25.09411254969542
 31
0.0
  0
LINE
  5
9ED
330
1F
100
AcDbEntity
  8
2
  6
CONTINUOUS
370
25
 62
7
100
AcDbLine
 10
73.73464448466054
 20
24.25302110306789
 30
0.0
 11
75.0
 21
25.51837661840735
 31
0.0
  0
LINE
  5
9EE
330
1F
100
AcDbEntity
  8
2
  6
CONTINUOUS
370
25
 62
7
100
AcDbLine
 10
73.38109109406726
 20
24.32373178118655
 30
0.0
 11
75.0
 21
25.94264068711928
 31
0.0
  0
LINE
  5
9EF
330
1F
100
AcDbEntity
  8
2
  6
CONTINUOUS
370
25
 62
7
100
AcDbLine
 10
73.027537703474
 20
24.3944424593052
 30
0.0
 11
74.54130655521098
 21
25.90821131104219
 31
0.0
  0
LINE
  5
9F0
330
1F
100
AcDbEntity
  8
2
  6
CONTINUOUS
370
25
 62
7
100
AcDbLine
 10
72.67398431288072
 20
24.46515313742385
 30
0.0
 11
74.01097646932108
 21
25.80214529386421
 31
0.0
  0
LINE
  5
9F1
330
1F
100
AcDbEntity
  8
2
  6
CONTINUOUS
370
25
 62
7
100
AcDbLine
 10
72.32043092228744
 20
24.53586381554251
 30
0.0
 11
73.48064638343116
 21
25.69607927668623
 31
0.0
  0
LINE
  5
9F2
330
1F
100
AcDbEntity
  8
2
  6
CONTINUOUS
370
25
 62
7
100
AcDbLine
 10
71.96687753169417
 20
24.60657449366116
 30
0.0
 11
72.95031629754126
 21
25.59001325950825
 31
0.0
  0
LINE
  5
9F3
330
1F
100
AcDbEntity
  8
2
  6
CONTINUOUS
370
25
 62
7
100
AcDbLine
 10
71.61332414110089
 20
24.67728517177982
 30
0.0
 11
72.41998621165135
 21
25.48394724233027
 31
0.0
  0
LINE
  5
9F4
330
1F
100
AcDbEntity
  8
2
  6
CONTINUOUS
370
25
 62
7
100
AcDbLine
 10
71.25977075050763
 20
24.74799584989847
 30
0.0
 11
71.88965612576143
 21
25.37788122515229
 31
0.0
  0
LINE
  5
9F5
330
1F
100
AcDbEntity
  8
2
  6
CONTINUOUS
370
25
 62
7
100
AcDbLine
 10
70.90621735991435
 20
24.81870652801713
 30
0.0
 11
71.35932603987152
 21
25.2718152079743
 31
0.0
  0
LINE
  5
9F6
330
1F
100
AcDbEntity
  8
2
  6
CONTINUOUS
370
25
 62
7
100
AcDbLine
 10
70.55266396932107
 20
24.88941720613578
 30
0.0
 11
70.82899595398162
 21
25.16574919079632
 31
0.0
  0
LINE
  5
9F7
330
1F
100
AcDbEntity
  8
2
  6
CONTINUOUS
370
25
 62
7
100
AcDbLine
 10
70.19911057872781
 20
24.96012788425444
 30
0.0
 11
70.2986658680917
 21
25.05968317361834
 31
0.0
  0
LINE
  5
9F8
330
1F
100
AcDbEntity
  8
2
  6
CONTINUOUS
370
25
 62
7
100
AcDbLine
 10
70.25182733540075
 20
25.05031546708015
 30
0.0
 11
70.37774100310114
 21
24.92440179937977
 31
0.0
  0
LINE
  5
9F9
330
1F
100
AcDbEntity
  8
2
  6
CONTINUOUS
370
25
 62
7
100
AcDbLine
 10
70.60538072599402
 20
25.1210261451988
 30
0.0
 11
70.90807108899104
 21
24.81833578220179
 31
0.0
  0
LINE
  5
9FA
330
1F
100
AcDbEntity
  8
2
  6
CONTINUOUS
370
25
 62
7
100
AcDbLine
 10
70.9589341165873
 20
25.19173682331746
 30
0.0
 11
71.43840117488095
 21
24.71226976502381
 31
0.0
  0
LINE
  5
9FB
330
1F
100
AcDbEntity
  8
2
  6
CONTINUOUS
370
25
 62
7
100
AcDbLine
 10
71.31248750718058
 20
25.26244750143611
 30
0.0
 11
71.96873126077085
 21
24.60620374784583
 31
0.0
  0
LINE
  5
9FC
330
1F
100
AcDbEntity
  8
2
  6
CONTINUOUS
370
25
 62
7
100
AcDbLine
 10
71.66604089777384
 20
25.33315817955477
 30
0.0
 11
72.49906134666077
 21
24.50013773066784
 31
0.0
  0
LINE
  5
9FD
330
1F
100
AcDbEntity
  8
2
  6
CONTINUOUS
370
25
 62
7
100
AcDbLine
 10
72.01959428836712
 20
25.40386885767342
 30
0.0
 11
73.02939143255068
 21
24.39407171348986
 31
0.0
  0
LINE
  5
9FE
330
1F
100
AcDbEntity
  8
2
  6
CONTINUOUS
370
25
 62
7
100
AcDbLine
 10
72.3731476789604
 20
25.47457953579208
 30
0.0
 11
73.55972151844058
 21
24.28800569631188
 31
0.0
  0
LINE
  5
9FF
330
1F
100
AcDbEntity
  8
2
  6
CONTINUOUS
370
25
 62
7
100
AcDbLine
 10
72.72670106955366
 20
25.54529021391073
 30
0.0
 11
74.0900516043305
 21
24.1819396791339
 31
0.0
  0
LINE
  5
A00
330
1F
100
AcDbEntity
  8
2
  6
CONTINUOUS
370
25
 62
7
100
AcDbLine
 10
73.08025446014693
 20
25.61600089202938
 30
0.0
 11
74.62038169022041
 21
24.07587366195592
 31
0.0
  0
LINE
  5
A01
330
1F
100
AcDbEntity
  8
2
  6
CONTINUOUS
370
25
 62
7
100
AcDbLine
 10
73.43380785074021
 20
25.68671157014804
 30
0.0
 11
75.0
 21
24.12051942088826
 31
0.0
  0
LINE
  5
A02
330
1F
100
AcDbEntity
  8
2
  6
CONTINUOUS
370
25
 62
7
100
AcDbLine
 10
73.78736124133349
 20
25.75742224826669
 30
0.0
 11
75.0
 21
24.54478348960019
 31
0.0
  0
LINE
  5
A03
330
1F
100
AcDbEntity
  8
2
  6
CONTINUOUS
370
25
 62
7
100
AcDbLine
 10
74.14091463192676
 20
25.82813292638535
 30
0.0
 11
75.0
 21
24.96904755831211
 31
0.0
  0
LINE
  5
A04
330
1F
100
AcDbEntity
  8
2
  6
CONTINUOUS
370
25
 62
7
100
AcDbLine
 10
74.49446802252004
 20
25.89884360450401
 30
0.0
 11
75.0
 21
25.39331162702404
 31
0.0
  0
LINE
  5
A05
330
1F
100
AcDbEntity
  8
2
  6
CONTINUOUS
370
25
 62
7
100
AcDbLine
 10
74.8480214131133
 20
25.96955428262266
 30
0.0
 11
75.0
 21
25.81757569573597
 31
0.0
  0
TEXT
  5
A06
330
1F
100
AcDbEntity
  8
2
  6
CONTINUOUS
370
25
 62
7
100
AcDbText
 10
56.98333333333333
 20
26.49995
 30
0.0
 40
3.5
  1
16.7
 72
     1
 11
61.65
 21
26.49995
 31
0.0
100
AcDbText
  0
LINE
  5
A07
330
1F
100
AcDbEntity
  8
SK2
  6
CONTINUOUS
370
25
 62
7
100
AcDbLine
 10
0.0
 20
0.9999500000000001
 30
0.0
 11
0.0
 21
35.99995
 31
0.0
  0
LINE
  5
A08
330
1F
100
AcDbEntity
  8
SK2
  6
CONTINUOUS
370
25
 62
7
100
AcDbLine
 10
70.0
 20
35.99995
 30
0.0
 11
70.0
 21
1.0
 31
0.0
  0
LINE
  5
A09
330
1F
100
AcDbEntity
  8
SK2
  6
CONTINUOUS
370
25
 62
7
100
AcDbLine
 10
0.0
 20
34.99995
 30
0.0
 11
70.0
 21
34.99995
 31
0.0
  0
LINE
  5
A0A
330
1F
100
AcDbEntity
  8
SK2
  6
CONTINUOUS
370
25
 62
7
100
AcDbLine
 10
0.0
 20
34.99995
 30
0.0
 11
5.0
 21
35.99995
 31
0.0
  0
LINE
  5
A0B
330
1F
100
AcDbEntity
  8
SK2
  6
CONTINUOUS
370
25
 62
7
100
AcDbLine
 10
5.0
 20
35.99995
 30
0.0
 11
5.0
 21
33.99995
 31
0.0
  0
LINE
  5
A0C
330
1F
100
AcDbEntity
  8
SK2
  6
CONTINUOUS
370
25
 62
7
100
AcDbLine
 10
5.0
 20
33.99995
 30
0.0
 11
0.0
 21
34.99995
 31
0.0
  0
LINE
  5
A0D
330
1F
100
AcDbEntity
  8
SK2
  6
CONTINUOUS
370
25
 62
7
100
AcDbLine
 10
4.993933891571551
 20
34.00116322168569
 30
0.0
 11
5.0
 21
34.00722933011414
 31
0.0
  0
LINE
  5
A0E
330
1F
100
AcDbEntity
  8
SK2
  6
CONTINUOUS
370
25
 62
7
100
AcDbLine
 10
4.640380500978274
 20
34.07187389980434
 30
0.0
 11
5.0
 21
34.43149339882606
 31
0.0
  0
LINE
  5
A0F
330
1F
100
AcDbEntity
  8
SK2
  6
CONTINUOUS
370
25
 62
7
100
AcDbLine
 10
4.286827110384991
 20
34.142584577923
 30
0.0
 11
5.0
 21
34.85575746753801
 31
0.0
  0
LINE
  5
A10
330
1F
100
AcDbEntity
  8
SK2
  6
CONTINUOUS
370
25
 62
7
100
AcDbLine
 10
3.933273719791721
 20
34.21329525604165
 30
0.0
 11
5.0
 21
35.28002153624993
 31
0.0
  0
LINE
  5
A11
330
1F
100
AcDbEntity
  8
SK2
  6
CONTINUOUS
370
25
 62
7
100
AcDbLine
 10
3.579720329198437
 20
34.28400593416031
 30
0.0
 11
5.0
 21
35.70428560496187
 31
0.0
  0
LINE
  5
A12
330
1F
100
AcDbEntity
  8
SK2
  6
CONTINUOUS
370
25
 62
7
100
AcDbLine
 10
3.226166938605154
 20
34.35471661227896
 30
0.0
 11
4.839250407907727
 21
35.96780008158154
 31
0.0
  0
LINE
  5
A13
330
1F
100
AcDbEntity
  8
SK2
  6
CONTINUOUS
370
25
 62
7
100
AcDbLine
 10
2.872613548011884
 20
34.42542729039762
 30
0.0
 11
4.308920322017819
 21
35.86173406440356
 31
0.0
  0
LINE
  5
A14
330
1F
100
AcDbEntity
  8
SK2
  6
CONTINUOUS
370
25
 62
7
100
AcDbLine
 10
2.5190601574186
 20
34.49613796851628
 30
0.0
 11
3.778590236127897
 21
35.75566804722558
 31
0.0
  0
LINE
  5
A15
330
1F
100
AcDbEntity
  8
SK2
  6
CONTINUOUS
370
25
 62
7
100
AcDbLine
 10
2.165506766825331
 20
34.56684864663493
 30
0.0
 11
3.248260150237996
 21
35.6496020300476
 31
0.0
  0
LINE
  5
A16
330
1F
100
AcDbEntity
  8
SK2
  6
CONTINUOUS
370
25
 62
7
100
AcDbLine
 10
1.811953376232054
 20
34.63755932475359
 30
0.0
 11
2.717930064348067
 21
35.54353601286961
 31
0.0
  0
LINE
  5
A17
330
1F
100
AcDbEntity
  8
SK2
  6
CONTINUOUS
370
25
 62
7
100
AcDbLine
 10
1.458399985638778
 20
34.70827000287224
 30
0.0
 11
2.187599978458167
 21
35.43746999569163
 31
0.0
  0
LINE
  5
A18
330
1F
100
AcDbEntity
  8
SK2
  6
CONTINUOUS
370
25
 62
7
100
AcDbLine
 10
1.104846595045501
 20
34.7789806809909
 30
0.0
 11
1.657269892568245
 21
35.33140397851365
 31
0.0
  0
LINE
  5
A19
330
1F
100
AcDbEntity
  8
SK2
  6
CONTINUOUS
370
25
 62
7
100
AcDbLine
 10
0.7512932044522316
 20
34.84969135910956
 30
0.0
 11
1.126939806678344
 21
35.22533796133567
 31
0.0
  0
LINE
  5
A1A
330
1F
100
AcDbEntity
  8
SK2
  6
CONTINUOUS
370
25
 62
7
100
AcDbLine
 10
0.3977398138589479
 20
34.92040203722821
 30
0.0
 11
0.5966097207884218
 21
35.11927194415768
 31
0.0
  0
LINE
  5
A1B
330
1F
100
AcDbEntity
  8
SK2
  6
CONTINUOUS
370
25
 62
7
100
AcDbLine
 10
0.0441864232656712
 20
34.99111271534687
 30
0.0
 11
0.0662796348984998
 21
35.01320592697969
 31
0.0
  0
LINE
  5
A1C
330
1F
100
AcDbEntity
  8
SK2
  6
CONTINUOUS
370
25
 62
7
100
AcDbLine
 10
0.3202725936097579
 20
35.06400451872195
 30
0.0
 11
0.4804088904146369
 21
34.90386822191707
 31
0.0
  0
LINE
  5
A1D
330
1F
100
AcDbEntity
  8
SK2
  6
CONTINUOUS
370
25
 62
7
100
AcDbLine
 10
0.6738259842030345
 20
35.1347151968406
 30
0.0
 11
1.010738976304552
 21
34.79780220473909
 31
0.0
  0
LINE
  5
A1E
330
1F
100
AcDbEntity
  8
SK2
  6
CONTINUOUS
370
25
 62
7
100
AcDbLine
 10
1.027379374796311
 20
35.20542587495926
 30
0.0
 11
1.541069062194481
 21
34.69173618756109
 31
0.0
  0
LINE
  5
A1F
330
1F
100
AcDbEntity
  8
SK2
  6
CONTINUOUS
370
25
 62
7
100
AcDbLine
 10
1.380932765389588
 20
35.27613655307792
 30
0.0
 11
2.071399148084389
 21
34.58567017038311
 31
0.0
  0
LINE
  5
A20
330
1F
100
AcDbEntity
  8
SK2
  6
CONTINUOUS
370
25
 62
7
100
AcDbLine
 10
1.734486155982871
 20
35.34684723119657
 30
0.0
 11
2.601729233974304
 21
34.47960415320514
 31
0.0
  0
LINE
  5
A21
330
1F
100
AcDbEntity
  8
SK2
  6
CONTINUOUS
370
25
 62
7
100
AcDbLine
 10
2.088039546576141
 20
35.41755790931523
 30
0.0
 11
3.132059319864211
 21
34.37353813602716
 31
0.0
  0
LINE
  5
A22
330
1F
100
AcDbEntity
  8
SK2
  6
CONTINUOUS
370
25
 62
7
100
AcDbLine
 10
2.441592937169425
 20
35.48826858743388
 30
0.0
 11
3.662389405754141
 21
34.26747211884916
 31
0.0
  0
LINE
  5
A23
330
1F
100
AcDbEntity
  8
SK2
  6
CONTINUOUS
370
25
 62
7
100
AcDbLine
 10
2.795146327762701
 20
35.55897926555254
 30
0.0
 11
4.192719491644048
 21
34.16140610167119
 31
0.0
  0
LINE
  5
A24
330
1F
100
AcDbEntity
  8
SK2
  6
CONTINUOUS
370
25
 62
7
100
AcDbLine
 10
3.148699718355978
 20
35.6296899436712
 30
0.0
 11
4.723049577533956
 21
34.05534008449321
 31
0.0
  0
LINE
  5
A25
330
1F
100
AcDbEntity
  8
SK2
  6
CONTINUOUS
370
25
 62
7
100
AcDbLine
 10
3.502253108949255
 20
35.70040062178985
 30
0.0
 11
5.0
 21
34.2026537307391
 31
0.0
  0
LINE
  5
A26
330
1F
100
AcDbEntity
  8
SK2
  6
CONTINUOUS
370
25
 62
7
100
AcDbLine
 10
3.855806499542531
 20
35.7711112999085
 30
0.0
 11
5.0
 21
34.62691779945103
 31
0.0
  0
LINE
  5
A27
330
1F
100
AcDbEntity
  8
SK2
  6
CONTINUOUS
370
25
 62
7
100
AcDbLine
 10
4.209359890135808
 20
35.84182197802716
 30
0.0
 11
5.0
 21
35.05118186816296
 31
0.0
  0
LINE
  5
A28
330
1F
100
AcDbEntity
  8
SK2
  6
CONTINUOUS
370
25
 62
7
100
AcDbLine
 10
4.562913280729084
 20
35.91253265614582
 30
0.0
 11
5.0
 21
35.4754459368749
 31
0.0
  0
LINE
  5
A29
330
1F
100
AcDbEntity
  8
SK2
  6
CONTINUOUS
370
25
 62
7
100
AcDbLine
 10
4.916466671322361
 20
35.98324333426447
 30
0.0
 11
5.0
 21
35.89971000558683
 31
0.0
  0
LINE
  5
A2A
330
1F
100
AcDbEntity
  8
SK2
  6
CONTINUOUS
370
25
 62
7
100
AcDbLine
 10
70.0
 20
34.99995
 30
0.0
 11
65.0
 21
33.99995
 31
0.0
  0
LINE
  5
A2B
330
1F
100
AcDbEntity
  8
SK2
  6
CONTINUOUS
370
25
 62
7
100
AcDbLine
 10
65.0
 20
33.99995
 30
0.0
 11
65.0
 21
35.99995
 31
0.0
  0
LINE
  5
A2C
330
1F
100
AcDbEntity
  8
SK2
  6
CONTINUOUS
370
25
 62
7
100
AcDbLine
 10
65.0
 20
35.99995
 30
0.0
 11
70.0
 21
34.99995
 31
0.0
  0
LINE
  5
A2D
330
1F
100
AcDbEntity
  8
SK2
  6
CONTINUOUS
370
25
 62
7
100
AcDbLine
 10
69.54041372084392
 20
34.90803274416878
 30
0.0
 11
69.69360914722928
 21
35.06122817055414
 31
0.0
  0
LINE
  5
A2E
330
1F
100
AcDbEntity
  8
SK2
  6
CONTINUOUS
370
25
 62
7
100
AcDbLine
 10
69.010083634954
 20
34.8019667269908
 30
0.0
 11
69.340055756636
 21
35.1319388486728
 31
0.0
  0
LINE
  5
A2F
330
1F
100
AcDbEntity
  8
SK2
  6
CONTINUOUS
370
25
 62
7
100
AcDbLine
 10
68.4797535490641
 20
34.69590070981282
 30
0.0
 11
68.98650236604273
 21
35.20264952679145
 31
0.0
  0
LINE
  5
A30
330
1F
100
AcDbEntity
  8
SK2
  6
CONTINUOUS
370
25
 62
7
100
AcDbLine
 10
67.94942346317418
 20
34.58983469263484
 30
0.0
 11
68.63294897544945
 21
35.27336020491011
 31
0.0
  0
LINE
  5
A31
330
1F
100
AcDbEntity
  8
SK2
  6
CONTINUOUS
370
25
 62
7
100
AcDbLine
 10
67.41909337728427
 20
34.48376867545685
 30
0.0
 11
68.27939558485618
 21
35.34407088302876
 31
0.0
  0
LINE
  5
A32
330
1F
100
AcDbEntity
  8
SK2
  6
CONTINUOUS
370
25
 62
7
100
AcDbLine
 10
66.88876329139437
 20
34.37770265827887
 30
0.0
 11
67.92584219426291
 21
35.41478156114742
 31
0.0
  0
LINE
  5
A33
330
1F
100
AcDbEntity
  8
SK2
  6
CONTINUOUS
370
25
 62
7
100
AcDbLine
 10
66.35843320550445
 20
34.27163664110089
 30
0.0
 11
67.57228880366964
 21
35.48549223926608
 31
0.0
  0
LINE
  5
A34
330
1F
100
AcDbEntity
  8
SK2
  6
CONTINUOUS
370
25
 62
7
100
AcDbLine
 10
65.82810311961454
 20
34.1655706239229
 30
0.0
 11
67.21873541307636
 21
35.55620291738473
 31
0.0
  0
LINE
  5
A35
330
1F
100
AcDbEntity
  8
SK2
  6
CONTINUOUS
370
25
 62
7
100
AcDbLine
 10
65.29777303372464
 20
34.05950460674492
 30
0.0
 11
66.86518202248308
 21
35.62691359550338
 31
0.0
  0
LINE
  5
A36
330
1F
100
AcDbEntity
  8
SK2
  6
CONTINUOUS
370
25
 62
7
100
AcDbLine
 10
65.0
 20
34.18599564173222
 30
0.0
 11
66.5116286318898
 21
35.69762427362204
 31
0.0
  0
LINE
  5
A37
330
1F
100
AcDbEntity
  8
SK2
  6
CONTINUOUS
370
25
 62
7
100
AcDbLine
 10
65.0
 20
34.61025971044415
 30
0.0
 11
66.15807524129653
 21
35.76833495174069
 31
0.0
  0
LINE
  5
A38
330
1F
100
AcDbEntity
  8
SK2
  6
CONTINUOUS
370
25
 62
7
100
AcDbLine
 10
65.0
 20
35.03452377915607
 30
0.0
 11
65.80452185070327
 21
35.83904562985935
 31
0.0
  0
LINE
  5
A39
330
1F
100
AcDbEntity
  8
SK2
  6
CONTINUOUS
370
25
 62
7
100
AcDbLine
 10
65.0
 20
35.45878784786801
 30
0.0
 11
65.45096846010999
 21
35.909756307978
 31
0.0
  0
LINE
  5
A3A
330
1F
100
AcDbEntity
  8
SK2
  6
CONTINUOUS
370
25
 62
7
100
AcDbLine
 10
65.0
 20
35.88305191657994
 30
0.0
 11
65.09741506951671
 21
35.98046698609666
 31
0.0
  0
LINE
  5
A3B
330
1F
100
AcDbEntity
  8
SK2
  6
CONTINUOUS
370
25
 62
7
100
AcDbLine
 10
65.0
 20
34.12051942088826
 30
0.0
 11
65.10047451740688
 21
34.02004490348138
 31
0.0
  0
LINE
  5
A3C
330
1F
100
AcDbEntity
  8
SK2
  6
CONTINUOUS
370
25
 62
7
100
AcDbLine
 10
65.0
 20
34.54478348960019
 30
0.0
 11
65.45402790800016
 21
34.09075558160003
 31
0.0
  0
LINE
  5
A3D
330
1F
100
AcDbEntity
  8
SK2
  6
CONTINUOUS
370
25
 62
7
100
AcDbLine
 10
65.0
 20
34.96904755831211
 30
0.0
 11
65.80758129859343
 21
34.16146625971869
 31
0.0
  0
LINE
  5
A3E
330
1F
100
AcDbEntity
  8
SK2
  6
CONTINUOUS
370
25
 62
7
100
AcDbLine
 10
65.0
 20
35.39331162702405
 30
0.0
 11
66.16113468918671
 21
34.23217693783734
 31
0.0
  0
LINE
  5
A3F
330
1F
100
AcDbEntity
  8
SK2
  6
CONTINUOUS
370
25
 62
7
100
AcDbLine
 10
65.0
 20
35.81757569573598
 30
0.0
 11
66.51468807977997
 21
34.302887615956
 31
0.0
  0
LINE
  5
A40
330
1F
100
AcDbEntity
  8
SK2
  6
CONTINUOUS
370
25
 62
7
100
AcDbLine
 10
65.30236220555987
 20
35.93947755888803
 30
0.0
 11
66.86824147037325
 21
34.37359829407465
 31
0.0
  0
LINE
  5
A41
330
1F
100
AcDbEntity
  8
SK2
  6
CONTINUOUS
370
25
 62
7
100
AcDbLine
 10
65.83269229144979
 20
35.83341154171004
 30
0.0
 11
67.22179486096653
 21
34.4443089721933
 31
0.0
  0
LINE
  5
A42
330
1F
100
AcDbEntity
  8
SK2
  6
CONTINUOUS
370
25
 62
7
100
AcDbLine
 10
66.3630223773397
 20
35.72734552453206
 30
0.0
 11
67.5753482515598
 21
34.51501965031196
 31
0.0
  0
LINE
  5
A43
330
1F
100
AcDbEntity
  8
SK2
  6
CONTINUOUS
370
25
 62
7
100
AcDbLine
 10
66.8933524632296
 20
35.62127950735408
 30
0.0
 11
67.92890164215308
 21
34.58573032843061
 31
0.0
  0
LINE
  5
A44
330
1F
100
AcDbEntity
  8
SK2
  6
CONTINUOUS
370
25
 62
7
100
AcDbLine
 10
67.42368254911952
 20
35.51521349017609
 30
0.0
 11
68.28245503274636
 21
34.65644100654927
 31
0.0
  0
LINE
  5
A45
330
1F
100
AcDbEntity
  8
SK2
  6
CONTINUOUS
370
25
 62
7
100
AcDbLine
 10
67.95401263500943
 20
35.40914747299811
 30
0.0
 11
68.63600842333962
 21
34.72715168466792
 31
0.0
  0
LINE
  5
A46
330
1F
100
AcDbEntity
  8
SK2
  6
CONTINUOUS
370
25
 62
7
100
AcDbLine
 10
68.48434272089935
 20
35.30308145582013
 30
0.0
 11
68.9895618139329
 21
34.79786236278657
 31
0.0
  0
LINE
  5
A47
330
1F
100
AcDbEntity
  8
SK2
  6
CONTINUOUS
370
25
 62
7
100
AcDbLine
 10
69.01467280678925
 20
35.19701543864215
 30
0.0
 11
69.34311520452617
 21
34.86857304090523
 31
0.0
  0
LINE
  5
A48
330
1F
100
AcDbEntity
  8
SK2
  6
CONTINUOUS
370
25
 62
7
100
AcDbLine
 10
69.54500289267916
 20
35.09094942146417
 30
0.0
 11
69.69666859511945
 21
34.93928371902389
 31
0.0
  0
TEXT
  5
A49
330
1F
100
AcDbEntity
  8
SK2
  6
CONTINUOUS
370
25
 62
7
100
AcDbText
 10
32.375
 20
36.49995
 30
0.0
 40
3.5
  1
70
 72
     1
 11
35.0
 21
36.49995
 31
0.0
100
AcDbText
  0
LINE
  5
A4A
330
1F
100
AcDbEntity
  8
2
  6
CONTINUOUS
370
25
 62
7
100
AcDbLine
 10
57.0
 20
-1.99995
 30
0.0
 11
56.99999999999999
 21
-25.0
 31
0.0
  0
LINE
  5
A4B
330
1F
100
AcDbEntity
  8
2
  6
CONTINUOUS
370
25
 62
7
100
AcDbLine
 10
70.0
 20
-25.0
 30
0.0
 11
70.0
 21
-1.0
 31
0.0
  0
LINE
  5
A4C
330
1F
100
AcDbEntity
  8
2
  6
CONTINUOUS
370
25
 62
7
100
AcDbLine
 10
49.99999999999999
 20
-24.0
 30
0.0
 11
77.0
 21
-24.0
 31
0.0
  0
LINE
  5
A4D
330
1F
100
AcDbEntity
  8
2
  6
CONTINUOUS
370
25
 62
7
100
AcDbLine
 10
56.99999999999999
 20
-24.0
 30
0.0
 11
51.99999999999999
 21
-25.0
 31
0.0
  0
LINE
  5
A4E
330
1F
100
AcDbEntity
  8
2
  6
CONTINUOUS
370
25
 62
7
100
AcDbLine
 10
51.99999999999999
 20
-25.0
 30
0.0
 11
51.99999999999999
 21
-23.0
 31
0.0
  0
LINE
  5
A4F
330
1F
100
AcDbEntity
  8
2
  6
CONTINUOUS
370
25
 62
7
100
AcDbLine
 10
51.99999999999999
 20
-23.0
 30
0.0
 11
56.99999999999999
 21
-24.0
 31
0.0
  0
LINE
  5
A50
330
1F
100
AcDbEntity
  8
2
  6
CONTINUOUS
370
25
 62
7
100
AcDbLine
 10
56.60226672000742
 20
-24.07954665599851
 30
0.0
 11
56.73484448000494
 21
-23.94696889600099
 31
0.0
  0
LINE
  5
A51
330
1F
100
AcDbEntity
  8
2
  6
CONTINUOUS
370
25
 62
7
100
AcDbLine
 10
56.07193663411751
 20
-24.1856126731765
 30
0.0
 11
56.38129108941167
 21
-23.87625821788233
 31
0.0
  0
LINE
  5
A52
330
1F
100
AcDbEntity
  8
2
  6
CONTINUOUS
370
25
 62
7
100
AcDbLine
 10
55.5416065482276
 20
-24.29167869035448
 30
0.0
 11
56.02773769881839
 21
-23.80554753976368
 31
0.0
  0
LINE
  5
A53
330
1F
100
AcDbEntity
  8
2
  6
CONTINUOUS
370
25
 62
7
100
AcDbLine
 10
55.01127646233769
 20
-24.39774470753246
 30
0.0
 11
55.67418430822512
 21
-23.73483686164503
 31
0.0
  0
LINE
  5
A54
330
1F
100
AcDbEntity
  8
2
  6
CONTINUOUS
370
25
 62
7
100
AcDbLine
 10
54.48094637644778
 20
-24.50381072471044
 30
0.0
 11
55.32063091763185
 21
-23.66412618352637
 31
0.0
  0
LINE
  5
A55
330
1F
100
AcDbEntity
  8
2
  6
CONTINUOUS
370
25
 62
7
100
AcDbLine
 10
53.95061629055787
 20
-24.60987674188842
 30
0.0
 11
54.96707752703858
 21
-23.59341550540772
 31
0.0
  0
LINE
  5
A56
330
1F
100
AcDbEntity
  8
2
  6
CONTINUOUS
370
25
 62
7
100
AcDbLine
 10
53.42028620466796
 20
-24.7159427590664
 30
0.0
 11
54.6135241364453
 21
-23.52270482728906
 31
0.0
  0
LINE
  5
A57
330
1F
100
AcDbEntity
  8
2
  6
CONTINUOUS
370
25
 62
7
100
AcDbLine
 10
52.88995611877804
 20
-24.82200877624439
 30
0.0
 11
54.25997074585203
 21
-23.45199414917041
 31
0.0
  0
LINE
  5
A58
330
1F
100
AcDbEntity
  8
2
  6
CONTINUOUS
370
25
 62
7
100
AcDbLine
 10
52.35962603288814
 20
-24.92807479342237
 30
0.0
 11
53.90641735525875
 21
-23.38128347105175
 31
0.0
  0
LINE
  5
A59
330
1F
100
AcDbEntity
  8
2
  6
CONTINUOUS
370
25
 62
7
100
AcDbLine
 10
51.99999999999999
 20
-24.86343675759858
 30
0.0
 11
53.55286396466548
 21
-23.3105727929331
 31
0.0
  0
LINE
  5
A5A
330
1F
100
AcDbEntity
  8
2
  6
CONTINUOUS
370
25
 62
7
100
AcDbLine
 10
51.99999999999999
 20
-24.43917268888666
 30
0.0
 11
53.19931057407221
 21
-23.23986211481444
 31
0.0
  0
LINE
  5
A5B
330
1F
100
AcDbEntity
  8
2
  6
CONTINUOUS
370
25
 62
7
100
AcDbLine
 10
51.99999999999999
 20
-24.01490862017473
 30
0.0
 11
52.84575718347894
 21
-23.16915143669579
 31
0.0
  0
LINE
  5
A5C
330
1F
100
AcDbEntity
  8
2
  6
CONTINUOUS
370
25
 62
7
100
AcDbLine
 10
51.99999999999999
 20
-23.5906445514628
 30
0.0
 11
52.49220379288566
 21
-23.09844075857713
 31
0.0
  0
LINE
  5
A5D
330
1F
100
AcDbEntity
  8
2
  6
CONTINUOUS
370
25
 62
7
100
AcDbLine
 10
51.99999999999999
 20
-23.16638048275087
 30
0.0
 11
52.13865040229239
 21
-23.02773008045848
 31
0.0
  0
LINE
  5
A5E
330
1F
100
AcDbEntity
  8
2
  6
CONTINUOUS
370
25
 62
7
100
AcDbLine
 10
51.99999999999999
 20
-24.67592592570137
 30
0.0
 11
52.27006172858218
 21
-24.94598765428356
 31
0.0
  0
LINE
  5
A5F
330
1F
100
AcDbEntity
  8
2
  6
CONTINUOUS
370
25
 62
7
100
AcDbLine
 10
51.99999999999999
 20
-24.25166185698944
 30
0.0
 11
52.62361511917546
 21
-24.8752769761649
 31
0.0
  0
LINE
  5
A60
330
1F
100
AcDbEntity
  8
2
  6
CONTINUOUS
370
25
 62
7
100
AcDbLine
 10
51.99999999999999
 20
-23.82739778827751
 30
0.0
 11
52.97716850976874
 21
-24.80456629804625
 31
0.0
  0
LINE
  5
A61
330
1F
100
AcDbEntity
  8
2
  6
CONTINUOUS
370
25
 62
7
100
AcDbLine
 10
51.99999999999999
 20
-23.40313371956558
 30
0.0
 11
53.33072190036201
 21
-24.7338556199276
 31
0.0
  0
LINE
  5
A62
330
1F
100
AcDbEntity
  8
2
  6
CONTINUOUS
370
25
 62
7
100
AcDbLine
 10
52.02641293643293
 20
-23.00528258728659
 30
0.0
 11
53.68427529095528
 21
-24.66314494180894
 31
0.0
  0
LINE
  5
A63
330
1F
100
AcDbEntity
  8
2
  6
CONTINUOUS
370
25
 62
7
100
AcDbLine
 10
52.55674302232283
 20
-23.11134860446457
 30
0.0
 11
54.03782868154855
 21
-24.59243426369029
 31
0.0
  0
LINE
  5
A64
330
1F
100
AcDbEntity
  8
2
  6
CONTINUOUS
370
25
 62
7
100
AcDbLine
 10
53.08707310821275
 20
-23.21741462164255
 30
0.0
 11
54.39138207214183
 21
-24.52172358557163
 31
0.0
  0
LINE
  5
A65
330
1F
100
AcDbEntity
  8
2
  6
CONTINUOUS
370
25
 62
7
100
AcDbLine
 10
53.61740319410266
 20
-23.32348063882053
 30
0.0
 11
54.7449354627351
 21
-24.45101290745298
 31
0.0
  0
LINE
  5
A66
330
1F
100
AcDbEntity
  8
2
  6
CONTINUOUS
370
25
 62
7
100
AcDbLine
 10
54.14773327999256
 20
-23.42954665599851
 30
0.0
 11
55.09848885332838
 21
-24.38030222933432
 31
0.0
  0
LINE
  5
A67
330
1F
100
AcDbEntity
  8
2
  6
CONTINUOUS
370
25
 62
7
100
AcDbLine
 10
54.67806336588248
 20
-23.5356126731765
 30
0.0
 11
55.45204224392165
 21
-24.30959155121567
 31
0.0
  0
LINE
  5
A68
330
1F
100
AcDbEntity
  8
2
  6
CONTINUOUS
370
25
 62
7
100
AcDbLine
 10
55.20839345177238
 20
-23.64167869035448
 30
0.0
 11
55.80559563451492
 21
-24.23888087309701
 31
0.0
  0
LINE
  5
A69
330
1F
100
AcDbEntity
  8
2
  6
CONTINUOUS
370
25
 62
7
100
AcDbLine
 10
55.7387235376623
 20
-23.74774470753246
 30
0.0
 11
56.15914902510819
 21
-24.16817019497836
 31
0.0
  0
LINE
  5
A6A
330
1F
100
AcDbEntity
  8
2
  6
CONTINUOUS
370
25
 62
7
100
AcDbLine
 10
56.26905362355221
 20
-23.85381072471044
 30
0.0
 11
56.51270241570147
 21
-24.0974595168597
 31
0.0
  0
LINE
  5
A6B
330
1F
100
AcDbEntity
  8
2
  6
CONTINUOUS
370
25
 62
7
100
AcDbLine
 10
56.79938370944212
 20
-23.95987674188843
 30
0.0
 11
56.86625580629475
 21
-24.02674883874105
 31
0.0
  0
LINE
  5
A6C
330
1F
100
AcDbEntity
  8
2
  6
CONTINUOUS
370
25
 62
7
100
AcDbLine
 10
70.0
 20
-24.0
 30
0.0
 11
75.0
 21
-23.0
 31
0.0
  0
LINE
  5
A6D
330
1F
100
AcDbEntity
  8
2
  6
CONTINUOUS
370
25
 62
7
100
AcDbLine
 10
75.0
 20
-23.0
 30
0.0
 11
75.0
 21
-25.0
 31
0.0
  0
LINE
  5
A6E
330
1F
100
AcDbEntity
  8
2
  6
CONTINUOUS
370
25
 62
7
100
AcDbLine
 10
75.0
 20
-25.0
 30
0.0
 11
70.0
 21
-24.0
 31
0.0
  0
LINE
  5
A6F
330
1F
100
AcDbEntity
  8
2
  6
CONTINUOUS
370
25
 62
7
100
AcDbLine
 10
74.75937552294064
 20
-24.95187510458813
 30
0.0
 11
75.0
 21
-24.71125062752877
 31
0.0
  0
LINE
  5
A70
330
1F
100
AcDbEntity
  8
2
  6
CONTINUOUS
370
25
 62
7
100
AcDbLine
 10
74.40582213234737
 20
-24.88116442646947
 30
0.0
 11
75.0
 21
-24.28698655881684
 31
0.0
  0
LINE
  5
A71
330
1F
100
AcDbEntity
  8
2
  6
CONTINUOUS
370
25
 62
7
100
AcDbLine
 10
74.05226874175409
 20
-24.81045374835082
 30
0.0
 11
75.0
 21
-23.86272249010492
 31
0.0
  0
LINE
  5
A72
330
1F
100
AcDbEntity
  8
2
  6
CONTINUOUS
370
25
 62
7
100
AcDbLine
 10
73.69871535116081
 20
-24.73974307023216
 30
0.0
 11
75.0
 21
-23.43845842139298
 31
0.0
  0
LINE
  5
A73
330
1F
100
AcDbEntity
  8
2
  6
CONTINUOUS
370
25
 62
7
100
AcDbLine
 10
73.34516196056755
 20
-24.66903239211351
 30
0.0
 11
75.0
 21
-23.01419435268106
 31
0.0
  0
LINE
  5
A74
330
1F
100
AcDbEntity
  8
2
  6
CONTINUOUS
370
25
 62
7
100
AcDbLine
 10
72.99160856997428
 20
-24.59832171399485
 30
0.0
 11
74.4874128549614
 21
-23.10251742900772
 31
0.0
  0
LINE
  5
A75
330
1F
100
AcDbEntity
  8
2
  6
CONTINUOUS
370
25
 62
7
100
AcDbLine
 10
72.638055179381
 20
-24.5276110358762
 30
0.0
 11
73.9570827690715
 21
-23.2085834461857
 31
0.0
  0
LINE
  5
A76
330
1F
100
AcDbEntity
  8
2
  6
CONTINUOUS
370
25
 62
7
100
AcDbLine
 10
72.28450178878772
 20
-24.45690035775754
 30
0.0
 11
73.42675268318159
 21
-23.31464946336368
 31
0.0
  0
LINE
  5
A77
330
1F
100
AcDbEntity
  8
2
  6
CONTINUOUS
370
25
 62
7
100
AcDbLine
 10
71.93094839819446
 20
-24.38618967963889
 30
0.0
 11
72.89642259729169
 21
-23.42071548054166
 31
0.0
  0
LINE
  5
A78
330
1F
100
AcDbEntity
  8
2
  6
CONTINUOUS
370
25
 62
7
100
AcDbLine
 10
71.57739500760118
 20
-24.31547900152023
 30
0.0
 11
72.36609251140177
 21
-23.52678149771965
 31
0.0
  0
LINE
  5
A79
330
1F
100
AcDbEntity
  8
2
  6
CONTINUOUS
370
25
 62
7
100
AcDbLine
 10
71.2238416170079
 20
-24.24476832340158
 30
0.0
 11
71.83576242551186
 21
-23.63284751489763
 31
0.0
  0
LINE
  5
A7A
330
1F
100
AcDbEntity
  8
2
  6
CONTINUOUS
370
25
 62
7
100
AcDbLine
 10
70.87028822641463
 20
-24.17405764528293
 30
0.0
 11
71.30543233962194
 21
-23.73891353207561
 31
0.0
  0
LINE
  5
A7B
330
1F
100
AcDbEntity
  8
2
  6
CONTINUOUS
370
25
 62
7
100
AcDbLine
 10
70.51673483582137
 20
-24.10334696716427
 30
0.0
 11
70.77510225373204
 21
-23.84497954925359
 31
0.0
  0
LINE
  5
A7C
330
1F
100
AcDbEntity
  8
2
  6
CONTINUOUS
370
25
 62
7
100
AcDbLine
 10
70.16318144522809
 20
-24.03263628904562
 30
0.0
 11
70.24477216784213
 21
-23.95104556643157
 31
0.0
  0
LINE
  5
A7D
330
1F
100
AcDbEntity
  8
2
  6
CONTINUOUS
370
25
 62
7
100
AcDbLine
 10
70.29459277151784
 20
-23.94108144569643
 30
0.0
 11
70.44188915727676
 21
-24.08837783145535
 31
0.0
  0
LINE
  5
A7E
330
1F
100
AcDbEntity
  8
2
  6
CONTINUOUS
370
25
 62
7
100
AcDbLine
 10
70.64814616211112
 20
-23.87037076757777
 30
0.0
 11
70.97221924316668
 21
-24.19444384863333
 31
0.0
  0
LINE
  5
A7F
330
1F
100
AcDbEntity
  8
2
  6
CONTINUOUS
370
25
 62
7
100
AcDbLine
 10
71.00169955270438
 20
-23.79966008945912
 30
0.0
 11
71.50254932905658
 21
-24.30050986581132
 31
0.0
  0
LINE
  5
A80
330
1F
100
AcDbEntity
  8
2
  6
CONTINUOUS
370
25
 62
7
100
AcDbLine
 10
71.35525294329766
 20
-23.72894941134047
 30
0.0
 11
72.03287941494649
 21
-24.4065758829893
 31
0.0
  0
LINE
  5
A81
330
1F
100
AcDbEntity
  8
2
  6
CONTINUOUS
370
25
 62
7
100
AcDbLine
 10
71.70880633389093
 20
-23.65823873322181
 30
0.0
 11
72.5632095008364
 21
-24.51264190016728
 31
0.0
  0
LINE
  5
A82
330
1F
100
AcDbEntity
  8
2
  6
CONTINUOUS
370
25
 62
7
100
AcDbLine
 10
72.0623597244842
 20
-23.58752805510316
 30
0.0
 11
73.09353958672631
 21
-24.61870791734527
 31
0.0
  0
LINE
  5
A83
330
1F
100
AcDbEntity
  8
2
  6
CONTINUOUS
370
25
 62
7
100
AcDbLine
 10
72.41591311507747
 20
-23.5168173769845
 30
0.0
 11
73.62386967261622
 21
-24.72477393452325
 31
0.0
  0
LINE
  5
A84
330
1F
100
AcDbEntity
  8
2
  6
CONTINUOUS
370
25
 62
7
100
AcDbLine
 10
72.76946650567075
 20
-23.44610669886585
 30
0.0
 11
74.15419975850612
 21
-24.83083995170122
 31
0.0
  0
LINE
  5
A85
330
1F
100
AcDbEntity
  8
2
  6
CONTINUOUS
370
25
 62
7
100
AcDbLine
 10
73.12301989626403
 20
-23.3753960207472
 30
0.0
 11
74.68452984439604
 21
-24.93690596887921
 31
0.0
  0
LINE
  5
A86
330
1F
100
AcDbEntity
  8
2
  6
CONTINUOUS
370
25
 62
7
100
AcDbLine
 10
73.4765732868573
 20
-23.30468534262854
 30
0.0
 11
75.0
 21
-24.82811205577124
 31
0.0
  0
LINE
  5
A87
330
1F
100
AcDbEntity
  8
2
  6
CONTINUOUS
370
25
 62
7
100
AcDbLine
 10
73.83012667745056
 20
-23.23397466450989
 30
0.0
 11
75.0
 21
-24.40384798705931
 31
0.0
  0
LINE
  5
A88
330
1F
100
AcDbEntity
  8
2
  6
CONTINUOUS
370
25
 62
7
100
AcDbLine
 10
74.18368006804384
 20
-23.16326398639123
 30
0.0
 11
75.0
 21
-23.97958391834738
 31
0.0
  0
LINE
  5
A89
330
1F
100
AcDbEntity
  8
2
  6
CONTINUOUS
370
25
 62
7
100
AcDbLine
 10
74.53723345863712
 20
-23.09255330827257
 30
0.0
 11
75.0
 21
-23.55531984963546
 31
0.0
  0
LINE
  5
A8A
330
1F
100
AcDbEntity
  8
2
  6
CONTINUOUS
370
25
 62
7
100
AcDbLine
 10
74.89078684923038
 20
-23.02184263015392
 30
0.0
 11
75.0
 21
-23.13105578092353
 31
0.0
  0
TEXT
  5
A8B
330
1F
100
AcDbEntity
  8
2
  6
CONTINUOUS
370
25
 62
7
100
AcDbText
 10
61.16666666666666
 20
-22.5
 30
0.0
 40
3.5
  1
13
 72
     1
 11
63.5
 21
-22.5
 31
0.0
100
AcDbText
  0
LINE
  5
A8C
330
1F
100
AcDbEntity
  8
2
  6
CONTINUOUS
370
25
 62
7
100
AcDbLine
 10
69.70710678
 20
-1.70710678
 30
0.0
 11
87.99994999569464
 21
-19.99994999569461
 31
0.0
  0
LINE
  5
A8D
330
1F
100
AcDbEntity
  8
2
  6
CONTINUOUS
370
25
 62
7
100
AcDbLine
 10
87.99994999569464
 20
-19.99994999569461
 30
0.0
 11
95.47494999569463
 21
-19.99994999569461
 31
0.0
  0
LINE
  5
A8E
330
1F
100
AcDbEntity
  8
2
  6
CONTINUOUS
370
25
 62
7
100
AcDbLine
 10
69.70710678
 20
-1.70710678
 30
0.0
 11
68.99999999881345
 21
-0.9999999988134524
 31
0.0
  0
LINE
  5
A8F
330
1F
100
AcDbEntity
  8
2
  6
CONTINUOUS
370
25
 62
7
100
AcDbLine
 10
69.70710678
 20
-1.70710678
 30
0.0
 11
73.94974746711928
 21
-4.535533904746187
 31
0.0
  0
LINE
  5
A90
330
1F
100
AcDbEntity
  8
2
  6
CONTINUOUS
370
25
 62
7
100
AcDbLine
 10
73.94974746711928
 20
-4.535533904746187
 30
0.0
 11
72.53553390474619
 21
-5.949747467119283
 31
0.0
  0
LINE
  5
A91
330
1F
100
AcDbEntity
  8
2
  6
CONTINUOUS
370
25
 62
7
100
AcDbLine
 10
72.53553390474619
 20
-5.949747467119283
 30
0.0
 11
69.70710678
 21
-1.70710678
 31
0.0
  0
LINE
  5
A92
330
1F
100
AcDbEntity
  8
2
  6
CONTINUOUS
370
25
 62
7
100
AcDbLine
 10
72.37074202191118
 20
-5.70255964286677
 30
0.0
 11
73.70255964286677
 21
-4.37074202191118
 31
0.0
  0
LINE
  5
A93
330
1F
100
AcDbEntity
  8
2
  6
CONTINUOUS
370
25
 62
7
100
AcDbLine
 10
72.20103639442641
 20
-5.448001201639617
 30
0.0
 11
73.44800120163961
 21
-4.20103639442641
 31
0.0
  0
LINE
  5
A94
330
1F
100
AcDbEntity
  8
2
  6
CONTINUOUS
370
25
 62
7
100
AcDbLine
 10
72.03133076694164
 20
-5.193442760412459
 30
0.0
 11
73.19344276041247
 21
-4.03133076694164
 31
0.0
  0
LINE
  5
A95
330
1F
100
AcDbEntity
  8
2
  6
CONTINUOUS
370
25
 62
7
100
AcDbLine
 10
71.86162513945686
 20
-4.938884319185302
 30
0.0
 11
72.9388843191853
 21
-3.861625139456869
 31
0.0
  0
LINE
  5
A96
330
1F
100
AcDbEntity
  8
2
  6
CONTINUOUS
370
25
 62
7
100
AcDbLine
 10
71.6919195119721
 20
-4.684325877958145
 30
0.0
 11
72.68432587795814
 21
-3.691919511972095
 31
0.0
  0
LINE
  5
A97
330
1F
100
AcDbEntity
  8
2
  6
CONTINUOUS
370
25
 62
7
100
AcDbLine
 10
71.52221388448733
 20
-4.429767436730991
 30
0.0
 11
72.429767436731
 21
-3.522213884487325
 31
0.0
  0
LINE
  5
A98
330
1F
100
AcDbEntity
  8
2
  6
CONTINUOUS
370
25
 62
7
100
AcDbLine
 10
71.35250825700255
 20
-4.17520899550383
 30
0.0
 11
72.17520899550384
 21
-3.352508257002555
 31
0.0
  0
LINE
  5
A99
330
1F
100
AcDbEntity
  8
2
  6
CONTINUOUS
370
25
 62
7
100
AcDbLine
 10
71.18280262951778
 20
-3.920650554276676
 30
0.0
 11
71.92065055427668
 21
-3.182802629517784
 31
0.0
  0
LINE
  5
A9A
330
1F
100
AcDbEntity
  8
2
  6
CONTINUOUS
370
25
 62
7
100
AcDbLine
 10
71.013097002033
 20
-3.666092113049519
 30
0.0
 11
71.66609211304952
 21
-3.01309700203301
 31
0.0
  0
LINE
  5
A9B
330
1F
100
AcDbEntity
  8
2
  6
CONTINUOUS
370
25
 62
7
100
AcDbLine
 10
70.84339137454823
 20
-3.411533671822365
 30
0.0
 11
71.41153367182235
 21
-2.84339137454824
 31
0.0
  0
LINE
  5
A9C
330
1F
100
AcDbEntity
  8
2
  6
CONTINUOUS
370
25
 62
7
100
AcDbLine
 10
70.67368574706347
 20
-3.156975230595204
 30
0.0
 11
71.15697523059521
 21
-2.67368574706347
 31
0.0
  0
LINE
  5
A9D
330
1F
100
AcDbEntity
  8
2
  6
CONTINUOUS
370
25
 62
7
100
AcDbLine
 10
70.5039801195787
 20
-2.902416789368051
 30
0.0
 11
70.90241678936805
 21
-2.503980119578699
 31
0.0
  0
LINE
  5
A9E
330
1F
100
AcDbEntity
  8
2
  6
CONTINUOUS
370
25
 62
7
100
AcDbLine
 10
70.33427449209393
 20
-2.647858348140893
 30
0.0
 11
70.64785834814089
 21
-2.334274492093929
 31
0.0
  0
LINE
  5
A9F
330
1F
100
AcDbEntity
  8
2
  6
CONTINUOUS
370
25
 62
7
100
AcDbLine
 10
70.16456886460915
 20
-2.39329990691374
 30
0.0
 11
70.39329990691374
 21
-2.164568864609155
 31
0.0
  0
LINE
  5
AA0
330
1F
100
AcDbEntity
  8
2
  6
CONTINUOUS
370
25
 62
7
100
AcDbLine
 10
69.99486323712438
 20
-2.138741465686579
 30
0.0
 11
70.13874146568658
 21
-1.994863237124385
 31
0.0
  0
LINE
  5
AA1
330
1F
100
AcDbEntity
  8
2
  6
CONTINUOUS
370
25
 62
7
100
AcDbLine
 10
69.8251576096396
 20
-1.884183024459425
 30
0.0
 11
69.88418302445942
 21
-1.825157609639614
 31
0.0
  0
LINE
  5
AA2
330
1F
100
AcDbEntity
  8
2
  6
CONTINUOUS
370
25
 62
7
100
AcDbLine
 10
71.9542063824365
 20
-5.077756183654756
 30
0.0
 11
72.68086578532362
 21
-5.804415586541861
 31
0.0
  0
LINE
  5
AA3
330
1F
100
AcDbEntity
  8
2
  6
CONTINUOUS
370
25
 62
7
100
AcDbLine
 10
71.10567824501264
 20
-3.804963977518968
 30
0.0
 11
72.89299781967958
 21
-5.592283552185899
 31
0.0
  0
LINE
  5
AA4
330
1F
100
AcDbEntity
  8
2
  6
CONTINUOUS
370
25
 62
7
100
AcDbLine
 10
70.25715010758879
 20
-2.532171771383181
 30
0.0
 11
73.10512985403554
 21
-5.380151517829935
 31
0.0
  0
LINE
  5
AA5
330
1F
100
AcDbEntity
  8
2
  6
CONTINUOUS
370
25
 62
7
100
AcDbLine
 10
70.1548339947526
 20
-2.005591589835065
 30
0.0
 11
73.3172618883915
 21
-5.168019483473971
 31
0.0
  0
LINE
  5
AA6
330
1F
100
AcDbEntity
  8
2
  6
CONTINUOUS
370
25
 62
7
100
AcDbLine
 10
71.42762620088837
 20
-2.854119727258917
 30
0.0
 11
73.52939392274746
 21
-4.955887449118007
 31
0.0
  0
LINE
  5
AA7
330
1F
100
AcDbEntity
  8
2
  6
CONTINUOUS
370
25
 62
7
100
AcDbLine
 10
72.70041840702416
 20
-3.702647864682769
 30
0.0
 11
73.74152595710343
 21
-4.743755414762044
 31
0.0
  0
TEXT
  5
AA8
330
1F
100
AcDbEntity
  8
2
  6
CONTINUOUS
370
25
 62
7
100
AcDbText
 10
89.4041166623613
 20
-18.49994999569461
 30
0.0
 40
3.5
  1
R1
 72
     1
 11
91.73744999569463
 21
-18.49994999569461
 31
0.0
100
AcDbText
  0
LINE
  5
AA9
330
1F
100
AcDbEntity
  8
SK1
  6
CONTINUOUS
370
50
 62
4
100
AcDbLine
 10
53.3
 20
0.0
 30
0.0
 11
55.05
 21
0.0
 31
0.0
  0
LINE
  5
AAA
330
1F
100
AcDbEntity
  8
SK1
  6
CONTINUOUS
370
50
 62
4
100
AcDbLine
 10
53.3
 20
0.0
 30
0.0
 11
53.3
 21
1.75
 31
0.0
  0
ARC
  5
AAB
330
1F
100
AcDbEntity
  8
SK1
  6
CONTINUOUS
370
50
 62
4
100
AcDbCircle
 10
53.3
 20
0.0
 30
0.0
 40
1.75
100
AcDbArc
 50
0.0
 51
90.0
  0
LINE
  5
AAC
330
1F
100
AcDbEntity
  8
SK1
  6
CONTINUOUS
370
50
 62
4
100
AcDbLine
 10
53.3
 20
0.0
 30
0.0
 11
51.55
 21
0.0
 31
0.0
  0
ARC
  5
AAD
330
1F
100
AcDbEntity
  8
SK1
  6
CONTINUOUS
370
50
 62
4
100
AcDbCircle
 10
53.3
 20
0.0
 30
0.0
 40
1.75
100
AcDbArc
 50
180.0
 51
270.0
  0
LINE
  5
AAE
330
1F
100
AcDbEntity
  8
SK1
  6
CONTINUOUS
370
50
 62
4
100
AcDbLine
 10
53.3
 20
-1.75
 30
0.0
 11
53.3
 21
0.0
 31
0.0
  0
ARC
  5
AAF
330
1F
100
AcDbEntity
  8
SK1
  6
CONTINUOUS
370
50
 62
4
100
AcDbCircle
 10
53.3
 20
0.0
 30
0.0
 40
1.75
100
AcDbArc
 50
270.0
 51
0.0
  0
ARC
  5
AB0
330
1F
100
AcDbEntity
  8
SK1
  6
CONTINUOUS
370
50
 62
4
100
AcDbCircle
 10
53.3
 20
0.0
 30
0.0
 40
1.75
100
AcDbArc
 50
90.0
 51
180.0
  0
LINE
  5
AB1
330
1F
100
AcDbEntity
  8
SK1
  6
CONTINUOUS
370
50
 62
4
100
AcDbLine
 10
53.07717274741573
 20
-1.73564731720198
 30
0.0
 11
53.3
 21
-1.512820064617713
 31
0.0
  0
LINE
  5
AB2
330
1F
100
AcDbEntity
  8
SK1
  6
CONTINUOUS
370
50
 62
4
100
AcDbLine
 10
54.81282006461771
 20
0.0
 30
0.0
 11
55.03564731720198
 21
0.2228272525842674
 31
0.0
  0
LINE
  5
AB3
330
1F
100
AcDbEntity
  8
SK1
  6
CONTINUOUS
370
50
 62
4
100
AcDbLine
 10
52.86930380681873
 20
-1.69602888438369
 30
0.0
 11
53.3
 21
-1.265332691202421
 31
0.0
  0
LINE
  5
AB4
330
1F
100
AcDbEntity
  8
SK1
  6
CONTINUOUS
370
50
 62
4
100
AcDbLine
 10
54.56533269120241
 20
0.0
 30
0.0
 11
54.99602888438368
 21
0.4306961931812696
 31
0.0
  0
LINE
  5
AB5
330
1F
100
AcDbEntity
  8
SK1
  6
CONTINUOUS
370
50
 62
4
100
AcDbLine
 10
52.68148340435764
 20
-1.636361913429485
 30
0.0
 11
53.3
 21
-1.01784531778713
 31
0.0
  0
LINE
  5
AB6
330
1F
100
AcDbEntity
  8
SK1
  6
CONTINUOUS
370
50
 62
4
100
AcDbLine
 10
54.31784531778712
 20
0.0
 30
0.0
 11
54.93636191342948
 21
0.6185165956423557
 31
0.0
  0
LINE
  5
AB7
330
1F
100
AcDbEntity
  8
SK1
  6
CONTINUOUS
370
50
 62
4
100
AcDbLine
 10
52.5098551094628
 20
-1.560502834909039
 30
0.0
 11
53.3
 21
-0.7703579443718382
 31
0.0
  0
LINE
  5
AB8
330
1F
100
AcDbEntity
  8
SK1
  6
CONTINUOUS
370
50
 62
4
100
AcDbLine
 10
54.07035794437184
 20
0.0
 30
0.0
 11
54.86050283490903
 21
0.7901448905372013
 31
0.0
  0
LINE
  5
AB9
330
1F
100
AcDbEntity
  8
SK1
  6
CONTINUOUS
370
50
 62
4
100
AcDbLine
 10
52.35217783219446
 20
-1.470692738762079
 30
0.0
 11
53.3
 21
-0.5228705709565462
 31
0.0
  0
LINE
  5
ABA
330
1F
100
AcDbEntity
  8
SK1
  6
CONTINUOUS
370
50
 62
4
100
AcDbLine
 10
53.82287057095655
 20
0.0
 30
0.0
 11
54.77069273876207
 21
0.947822167805533
 31
0.0
  0
LINE
  5
ABB
330
1F
100
AcDbEntity
  8
SK1
  6
CONTINUOUS
370
50
 62
4
100
AcDbLine
 10
52.20842956711547
 20
-1.366953630425777
 30
0.0
 11
53.3
 21
-0.2753831975412551
 31
0.0
  0
LINE
  5
ABC
330
1F
100
AcDbEntity
  8
SK1
  6
CONTINUOUS
370
50
 62
4
100
AcDbLine
 10
53.57538319754125
 20
0.0
 30
0.0
 11
54.66695363042577
 21
1.091570432884522
 31
0.0
  0
LINE
  5
ABD
330
1F
100
AcDbEntity
  8
SK1
  6
CONTINUOUS
370
50
 62
4
100
AcDbLine
 10
52.07712164538165
 20
-1.25077417874432
 30
0.0
 11
53.3
 21
-0.0278958241259639
 31
0.0
  0
LINE
  5
ABE
330
1F
100
AcDbEntity
  8
SK1
  6
CONTINUOUS
370
50
 62
4
100
AcDbLine
 10
53.32789582412596
 20
0.0
 30
0.0
 11
54.55077417874432
 21
1.222878354618356
 31
0.0
  0
LINE
  5
ABF
330
1F
100
AcDbEntity
  8
SK1
  6
CONTINUOUS
370
50
 62
4
100
AcDbLine
 10
51.95784030371346
 20
-1.122568146997212
 30
0.0
 11
53.08040845071067
 21
0.0
 31
0.0
  0
LINE
  5
AC0
330
1F
100
AcDbEntity
  8
SK1
  6
CONTINUOUS
370
50
 62
4
100
AcDbLine
 10
53.3
 20
0.2195915492893277
 30
0.0
 11
54.42256814699721
 21
1.34215969628654
 31
0.0
  0
LINE
  5
AC1
330
1F
100
AcDbEntity
  8
SK1
  6
CONTINUOUS
370
50
 62
4
100
AcDbLine
 10
51.85188167231256
 20
-0.9810394049828186
 30
0.0
 11
52.83292107729538
 21
0.0
 31
0.0
  0
LINE
  5
AC2
330
1F
100
AcDbEntity
  8
SK1
  6
CONTINUOUS
370
50
 62
4
100
AcDbLine
 10
53.3
 20
0.4670789227046193
 30
0.0
 11
54.28103940498281
 21
1.448118327687438
 31
0.0
  0
LINE
  5
AC3
330
1F
100
AcDbEntity
  8
SK1
  6
CONTINUOUS
370
50
 62
4
100
AcDbLine
 10
51.75832908651575
 20
-0.8271046173643402
 30
0.0
 11
52.58543370388008
 21
0.0
 31
0.0
  0
LINE
  5
AC4
330
1F
100
AcDbEntity
  8
SK1
  6
CONTINUOUS
370
50
 62
4
100
AcDbLine
 10
53.3
 20
0.71456629611991
 30
0.0
 11
54.12710461736434
 21
1.54167091348425
 31
0.0
  0
LINE
  5
AC5
330
1F
100
AcDbEntity
  8
SK1
  6
CONTINUOUS
370
50
 62
4
100
AcDbLine
 10
51.67918473824204
 20
-0.6587615922227528
 30
0.0
 11
52.3379463304648
 21
0.0
 31
0.0
  0
LINE
  5
AC6
330
1F
100
AcDbEntity
  8
SK1
  6
CONTINUOUS
370
50
 62
4
100
AcDbLine
 10
53.3
 20
0.9620536695352015
 30
0.0
 11
53.95876159222275
 21
1.620815261757954
 31
0.0
  0
LINE
  5
AC7
330
1F
100
AcDbEntity
  8
SK1
  6
CONTINUOUS
370
50
 62
4
100
AcDbLine
 10
51.61629687706963
 20
-0.474162079979876
 30
0.0
 11
52.09045895704951
 21
0.0
 31
0.0
  0
LINE
  5
AC8
330
1F
100
AcDbEntity
  8
SK1
  6
CONTINUOUS
370
50
 62
4
100
AcDbLine
 10
53.3
 20
1.209541042950494
 30
0.0
 11
53.77416207997987
 21
1.683703122930369
 31
0.0
  0
LINE
  5
AC9
330
1F
100
AcDbEntity
  8
SK1
  6
CONTINUOUS
370
50
 62
4
100
AcDbLine
 10
51.57198100434271
 20
-0.2709905792915031
 30
0.0
 11
51.84297158363422
 21
0.0
 31
0.0
  0
LINE
  5
ACA
330
1F
100
AcDbEntity
  8
SK1
  6
CONTINUOUS
370
50
 62
4
100
AcDbLine
 10
53.3
 20
1.457028416365784
 30
0.0
 11
53.5709905792915
 21
1.728018995657286
 31
0.0
  0
LINE
  5
ACB
330
1F
100
AcDbEntity
  8
SK1
  6
CONTINUOUS
370
50
 62
4
100
AcDbLine
 10
51.5513858468978
 20
-0.0440983633211194
 30
0.0
 11
51.59548421021892
 21
0.0
 31
0.0
  0
LINE
  5
ACC
330
1F
100
AcDbEntity
  8
SK1
  6
CONTINUOUS
370
50
 62
4
100
AcDbLine
 10
53.3
 20
1.704515789781075
 30
0.0
 11
53.34409836332112
 21
1.748614153102194
 31
0.0
  0
LINE
  5
ACD
330
1F
100
AcDbEntity
  8
SK1
  6
CONTINUOUS
370
50
 62
4
100
AcDbLine
 10
51.66386517603681
 20
-0.6191473609004006
 30
0.0
 11
52.6808526390996
 21
-1.636134823963186
 31
0.0
  0
LINE
  5
ACE
330
1F
100
AcDbEntity
  8
SK1
  6
CONTINUOUS
370
50
 62
4
100
AcDbLine
 10
51.57363430643545
 20
-0.2814291178837463
 30
0.0
 11
53.01857088211625
 21
-1.726365693564548
 31
0.0
  0
LINE
  5
ACF
330
1F
100
AcDbEntity
  8
SK1
  6
CONTINUOUS
370
50
 62
4
100
AcDbLine
 10
51.55033443431149
 20
-0.0106418723445003
 30
0.0
 11
53.2893581276555
 21
-1.749665565688503
 31
0.0
  0
LINE
  5
AD0
330
1F
100
AcDbEntity
  8
SK1
  6
CONTINUOUS
370
50
 62
4
100
AcDbLine
 10
51.78717993538228
 20
0.0
 30
0.0
 11
53.3
 21
-1.51282006461771
 31
0.0
  0
LINE
  5
AD1
330
1F
100
AcDbEntity
  8
SK1
  6
CONTINUOUS
370
50
 62
4
100
AcDbLine
 10
52.03466730879758
 20
0.0
 30
0.0
 11
53.3
 21
-1.265332691202418
 31
0.0
  0
LINE
  5
AD2
330
1F
100
AcDbEntity
  8
SK1
  6
CONTINUOUS
370
50
 62
4
100
AcDbLine
 10
52.28215468221287
 20
0.0
 30
0.0
 11
53.3
 21
-1.017845317787128
 31
0.0
  0
LINE
  5
AD3
330
1F
100
AcDbEntity
  8
SK1
  6
CONTINUOUS
370
50
 62
4
100
AcDbLine
 10
52.52964205562816
 20
0.0
 30
0.0
 11
53.3
 21
-0.7703579443718369
 31
0.0
  0
LINE
  5
AD4
330
1F
100
AcDbEntity
  8
SK1
  6
CONTINUOUS
370
50
 62
4
100
AcDbLine
 10
52.77712942904345
 20
0.0
 30
0.0
 11
53.3
 21
-0.5228705709565453
 31
0.0
  0
LINE
  5
AD5
330
1F
100
AcDbEntity
  8
SK1
  6
CONTINUOUS
370
50
 62
4
100
AcDbLine
 10
53.02461680245874
 20
0.0
 30
0.0
 11
53.3
 21
-0.2753831975412537
 31
0.0
  0
LINE
  5
AD6
330
1F
100
AcDbEntity
  8
SK1
  6
CONTINUOUS
370
50
 62
4
100
AcDbLine
 10
53.27210417587403
 20
0.0
 30
0.0
 11
53.3
 21
-0.027895824125963
 31
0.0
  0
LINE
  5
AD7
330
1F
100
AcDbEntity
  8
SK1
  6
CONTINUOUS
370
50
 62
4
100
AcDbLine
 10
53.3
 20
0.219591549289329
 30
0.0
 11
53.51959154928932
 21
0.0
 31
0.0
  0
LINE
  5
AD8
330
1F
100
AcDbEntity
  8
SK1
  6
CONTINUOUS
370
50
 62
4
100
AcDbLine
 10
53.3
 20
0.4670789227046202
 30
0.0
 11
53.76707892270462
 21
0.0
 31
0.0
  0
LINE
  5
AD9
330
1F
100
AcDbEntity
  8
SK1
  6
CONTINUOUS
370
50
 62
4
100
AcDbLine
 10
53.3
 20
0.7145662961199113
 30
0.0
 11
54.01456629611991
 21
0.0
 31
0.0
  0
LINE
  5
ADA
330
1F
100
AcDbEntity
  8
SK1
  6
CONTINUOUS
370
50
 62
4
100
AcDbLine
 10
53.3
 20
0.9620536695352029
 30
0.0
 11
54.2620536695352
 21
0.0
 31
0.0
  0
LINE
  5
ADB
330
1F
100
AcDbEntity
  8
SK1
  6
CONTINUOUS
370
50
 62
4
100
AcDbLine
 10
53.3
 20
1.209541042950494
 30
0.0
 11
54.5095410429505
 21
0.0
 31
0.0
  0
LINE
  5
ADC
330
1F
100
AcDbEntity
  8
SK1
  6
CONTINUOUS
370
50
 62
4
100
AcDbLine
 10
53.3
 20
1.457028416365785
 30
0.0
 11
54.75702841636578
 21
0.0
 31
0.0
  0
LINE
  5
ADD
330
1F
100
AcDbEntity
  8
SK1
  6
CONTINUOUS
370
50
 62
4
100
AcDbLine
 10
53.3
 20
1.704515789781076
 30
0.0
 11
55.00451578978107
 21
0.0
 31
0.0
  0
LINE
  5
ADE
330
1F
100
AcDbEntity
  8
SK1
  6
CONTINUOUS
370
50
 62
4
100
AcDbLine
 10
53.51543384193567
 20
1.736569321260697
 30
0.0
 11
55.03656932126069
 21
0.2154338419356714
 31
0.0
  0
LINE
  5
ADF
330
1F
100
AcDbEntity
  8
SK1
  6
CONTINUOUS
370
50
 62
4
100
AcDbLine
 10
53.83283284728993
 20
1.666657689321729
 30
0.0
 11
54.96665768932173
 21
0.5328328472899322
 31
0.0
  0
LINE
  5
AE0
330
1F
100
AcDbEntity
  8
SK1
  6
CONTINUOUS
370
50
 62
4
100
AcDbLine
 10
54.34009874905674
 20
1.406879160970207
 30
0.0
 11
54.7068791609702
 21
1.040098749056747
 31
0.0
  0
LINE
  5
AE1
330
1F
100
AcDbEntity
  8
4
  6
LONGDASH_DASH
370
25
 62
2
100
AcDbLine
 10
53.3
 20
0.0
 30
0.0
 11
70.0
 21
0.0
 31
0.0
  0
LINE
  5
AE2
330
1F
100
AcDbEntity
  8
SK4
  6
LONGDASH_DASH
370
25
 62
2
100
AcDbLine
 10
-6.0
 20
0.0
 30
0.0
 11
76.0
 21
0.0
 31
0.0
  0
ARC
  5
AE3
330
1F
100
AcDbEntity
  8
SK6
  6
CONTINUOUS
370
25
 62
5
100
AcDbCircle
 10
96.4613820083765
 20
-27.84524575338786
 30
0.0
 40
2.76048912849221
100
AcDbArc
 50
338.9379403434233
 51
90.44457437511365
  0
LINE
  5
AE4
330
1F
100
AcDbEntity
  8
SK6
  6
CONTINUOUS
370
25
 62
5
100
AcDbLine
 10
96.43996279695983
 20
-25.08483972421281
 30
0.0
 11
96.43996279695983
 21
-26.18789835613464
 31
0.0
  0
ARC
  5
AE5
330
1F
100
AcDbEntity
  8
SK6
  6
CONTINUOUS
370
25
 62
5
100
AcDbCircle
 10
96.45050902936916
 20
-27.86523924566821
 30
0.0
 40
1.677374043771779
100
AcDbArc
 50
243.4214706017868
 51
90.36024081226083
  0
ARC
  5
AE6
330
1F
100
AcDbEntity
  8
SK6
  6
CONTINUOUS
370
25
 62
5
100
AcDbCircle
 10
98.97275989684958
 20
-27.43383199215561
 30
0.0
 40
3.80021703002276
100
AcDbArc
 50
210.5483731288539
 51
236.97801693668
  0
LINE
  5
AE7
330
1F
100
AcDbEntity
  8
SK6
  6
CONTINUOUS
370
25
 62
5
100
AcDbLine
 10
96.90179068512487
 20
-30.62016781867535
 30
0.0
 11
101.0437309674267
 21
-30.62016781867535
 31
0.0
  0
ARC
  5
AE8
330
1F
100
AcDbEntity
  8
SK6
  6
CONTINUOUS
370
25
 62
5
100
AcDbCircle
 10
98.97276183877257
 20
-27.4338320937346
 30
0.0
 40
3.800216899582472
100
AcDbArc
 50
303.0219828477959
 51
326.3732153033476
  0
LINE
  5
AE9
330
1F
100
AcDbEntity
  8
SK6
  6
CONTINUOUS
370
25
 62
5
100
AcDbLine
 10
102.1370597513572
 20
-29.5383194907709
 30
0.0
 11
98.77976170575462
 21
-29.5383194907709
 31
0.0
  0
LINE
  5
AEA
330
1F
100
AcDbEntity
  8
SK6
  6
CONTINUOUS
370
25
 62
5
100
AcDbLine
 10
98.77976170575462
 20
-29.5383194907709
 30
0.0
 11
102.6996210977199
 21
-28.17691829641694
 31
0.0
  0
ARC
  5
AEB
330
1F
100
AcDbEntity
  8
SK6
  6
CONTINUOUS
370
25
 62
5
100
AcDbCircle
 10
98.97276256157211
 20
-27.4338326048594
 30
0.0
 40
3.800217216614723
100
AcDbArc
 50
348.7238644184696
 51
53.4691051260885
  0
LINE
  5
AEC
330
1F
100
AcDbEntity
  8
SK6
  6
CONTINUOUS
370
25
 62
5
100
AcDbLine
 10
101.2348652453854
 20
-24.38022124429967
 30
0.0
 11
99.03745047882737
 21
-28.83730973507058
 31
0.0
  0
ENDSEC
  0
SECTION
  2
OBJECTS
  0
DICTIONARY
  5
C
330
0
100
AcDbDictionary
281
     1
  3
ACAD_GROUP
350
D
  3
ACAD_LAYOUT
350
1A
  3
ACAD_MATERIAL
350
3B
  3
ACAD_MLEADERSTYLE
350
AEF
  3
ACAD_MLINESTYLE
350
17
  3
ACAD_PLOTSETTINGS
350
19
  3
ACAD_PLOTSTYLENAME
350
E
  3
ACAD_SCALELIST
350
393
  3
ACAD_VISUALSTYLE
350
2A
  3
AcDbVariableDictionary
350
AED
  0
DICTIONARY
  5
D
102
{ACAD_REACTORS
330
C
102
}
330
C
100
AcDbDictionary
281
     1
  0
DICTIONARY
  5
1A
102
{ACAD_REACTORS
330
C
102
}
330
C
100
AcDbDictionary
281
     1
  3
Layout1
350
1E
  3
Layout2
350
26
  3
Model
350
22
  0
DICTIONARY
  5
3B
102
{ACAD_REACTORS
330
C
102
}
330
C
100
AcDbDictionary
281
     1
  3
ByBlock
350
3D
  3
ByLayer
350
3C
  3
Global
350
3E
  0
DICTIONARY
  5
AEF
102
{ACAD_REACTORS
330
C
102
}
330
C
100
AcDbDictionary
281
     1
  0
DICTIONARY
  5
17
102
{ACAD_REACTORS
330
C
102
}
330
C
100
AcDbDictionary
281
     1
  3
Standard
350
18
  0
DICTIONARY
  5
19
102
{ACAD_REACTORS
330
C
102
}
330
C
100
AcDbDictionary
281
     1
  0
ACDBDICTIONARYWDFLT
  5
E
102
{ACAD_REACTORS
330
C
102
}
330
C
100
AcDbDictionary
281
     1
  3
Normal
350
F
100
AcDbDictionaryWithDefault
340
F
  0
DICTIONARY
  5
393
102
{ACAD_REACTORS
330
C
102
}
330
C
100
AcDbDictionary
281
     1
  3
A0
350
394
  3
A1
350
395
  3
A2
350
396
  3
A3
350
397
  3
A4
350
398
  3
A5
350
399
  3
A6
350
39A
  3
A7
350
39B
  3
A8
350
39C
  3
A9
350
39D
  3
B0
350
39E
  3
B1
350
39F
  3
B2
350
3A0
  3
B3
350
3A1
  3
B4
350
3A2
  3
B5
350
3A3
  3
B6
350
3A4
  3
B7
350
3A5
  3
B8
350
3A6
  3
B9
350
3A7
  3
C0
350
3A8
  3
C1
350
3A9
  3
C2
350
3AA
  3
C3
350
3AB
  3
C4
350
3AC
  3
C5
350
3AD
  3
C6
350
3AE
  3
C7
350
3AF
  3
C8
350
3B0
  3
C9
350
3B1
  3
D0
350
3B2
  3
D1
350
3B3
  3
D2
350
3B4
  0
DICTIONARY
  5
2A
102
{ACAD_REACTORS
330
C
102
}
330
C
100
AcDbDictionary
281
     1
  3
2dWireframe
350
2F
  3
3D Hidden
350
31
  3
3dWireframe
350
30
  3
Basic
350
32
  3
Brighten
350
36
  3
ColorChange
350
3A
  3
Conceptual
350
34
  3
Dim
350
35
  3
Facepattern
350
39
  3
Flat
350
2B
  3
FlatWithEdges
350
2C
  3
Gouraud
350
2D
  3
GouraudWithEdges
350
2E
  3
Linepattern
350
38
  3
Realistic
350
33
  3
Thicken
350
37
  0
DICTIONARY
  5
AED
102
{ACAD_REACTORS
330
C
102
}
330
C
100
AcDbDictionary
281
     1
  3
CANNOSCALE
350
AF2
  3
DIMASSOC
350
AF3
  3
HIDETEXT
350
AF4
  3
PSOLHEIGHT
350
AF1
  3
PSOLWIDTH
350
AF0
  0
LAYOUT
  5
1E
102
{ACAD_REACTORS
330
1A
102
}
330
1A
100
AcDbPlotSettings
  1

  2
none_device
  4

  6

 40
0.0
 41
0.0
 42
0.0
 43
0.0
 44
0.0
 45
0.0
 46
0.0
 47
0.0
 48
0.0
 49
0.0
140
0.0
141
0.0
142
1.0
143
1.0
 70
   688
 72
     0
 73
     0
 74
     5
  7

 75
    16
147
1.0
148
0.0
149
0.0
100
AcDbLayout
  1
Layout1
 70
     1
 71
     1
 10
0.0
 20
0.0
 11
420.0
 21
297.0
 12
0.0
 22
0.0
 32
0.0
 14
1.000000000000000E+20
 24
1.000000000000000E+20
 34
1.000000000000000E+20
 15
-1.000000000000000E+20
 25
-1.000000000000000E+20
 35
-1.000000000000000E+20
146
0.0
 13
0.0
 23
0.0
 33
0.0
 16
1.0
 26
0.0
 36
0.0
 17
0.0
 27
1.0
 37
0.0
 76
     0
330
1B
  0
LAYOUT
  5
26
102
{ACAD_REACTORS
330
1A
102
}
330
1A
100
AcDbPlotSettings
  1

  2
none_device
  4

  6

 40
0.0
 41
0.0
 42
0.0
 43
0.0
 44
0.0
 45
0.0
 46
0.0
 47
0.0
 48
0.0
 49
0.0
140
0.0
141
0.0
142
1.0
143
1.0
 70
   688
 72
     0
 73
     0
 74
     5
  7

 75
    16
147
1.0
148
0.0
149
0.0
100
AcDbLayout
  1
Layout2
 70
     1
 71
     2
 10
0.0
 20
0.0
 11
0.0
 21
0.0
 12
0.0
 22
0.0
 32
0.0
 14
0.0
 24
0.0
 34
0.0
 15
0.0
 25
0.0
 35
0.0
146
0.0
 13
0.0
 23
0.0
 33
0.0
 16
1.0
 26
0.0
 36
0.0
 17
0.0
 27
1.0
 37
0.0
 76
     0
330
23
  0
LAYOUT
  5
22
102
{ACAD_REACTORS
330
1A
102
}
330
1A
100
AcDbPlotSettings
  1

  2
none_device
  4

  6

 40
0.0
 41
0.0
 42
0.0
 43
0.0
 44
0.0
 45
0.0
 46
0.0
 47
0.0
 48
0.0
 49
0.0
140
0.0
141
0.0
142
1.0
143
1.0
 70
  1712
 72
     0
 73
     0
 74
     0
  7

 75
     0
147
1.0
148
0.0
149
0.0
100
AcDbLayout
  1
Model
 70
     1
 71
     0
 10
0.0
 20
0.0
 11
420.0
 21
297.0
 12
0.0
 22
0.0
 32
0.0
 14
0.0
 24
0.0
 34
0.0
 15
25.0
 25
35.0
 35
0.0
146
0.0
 13
0.0
 23
0.0
 33
0.0
 16
1.0
 26
0.0
 36
0.0
 17
0.0
 27
1.0
 37
0.0
 76
     0
330
1F
331
29
  0
MATERIAL
  5
3D
102
{ACAD_REACTORS
330
3B
102
}
102
{ACAD_XDICTIONARY
360
B17
102
}
330
3B
100
AcDbMaterial
  1
ByBlock
  0
MATERIAL
  5
3C
102
{ACAD_REACTORS
330
3B
102
}
102
{ACAD_XDICTIONARY
360
B15
102
}
330
3B
100
AcDbMaterial
  1
ByLayer
  0
MATERIAL
  5
3E
102
{ACAD_REACTORS
330
3B
102
}
102
{ACAD_XDICTIONARY
360
B19
102
}
330
3B
100
AcDbMaterial
  1
Global
  0
MLINESTYLE
  5
18
102
{ACAD_REACTORS
330
17
102
}
330
17
100
AcDbMlineStyle
  2
Standard
 70
     0
  3

 62
   256
 51
90.0
 52
90.0
 71
     2
 49
0.5
 62
   256
  6
BYLAYER
 49
-0.5
 62
   256
  6
BYLAYER
  0
ACDBPLACEHOLDER
  5
F
102
{ACAD_REACTORS
330
E
102
}
330
E
  0
SCALE
  5
394
102
{ACAD_REACTORS
330
393
102
}
330
393
100
AcDbScale
 70
     0
300
1:1
140
1.0
141
1.0
290
     1
  0
SCALE
  5
395
102
{ACAD_REACTORS
330
393
102
}
330
393
100
AcDbScale
 70
     0
300
1:2
140
1.0
141
2.0
290
     0
  0
SCALE
  5
396
102
{ACAD_REACTORS
330
393
102
}
330
393
100
AcDbScale
 70
     0
300
1:4
140
1.0
141
4.0
290
     0
  0
SCALE
  5
397
102
{ACAD_REACTORS
330
393
102
}
330
393
100
AcDbScale
 70
     0
300
1:5
140
1.0
141
5.0
290
     0
  0
SCALE
  5
398
102
{ACAD_REACTORS
330
393
102
}
330
393
100
AcDbScale
 70
     0
300
1:8
140
1.0
141
8.0
290
     0
  0
SCALE
  5
399
102
{ACAD_REACTORS
330
393
102
}
330
393
100
AcDbScale
 70
     0
300
1:10
140
1.0
141
10.0
290
     0
  0
SCALE
  5
39A
102
{ACAD_REACTORS
330
393
102
}
330
393
100
AcDbScale
 70
     0
300
1:16
140
1.0
141
16.0
290
     0
  0
SCALE
  5
39B
102
{ACAD_REACTORS
330
393
102
}
330
393
100
AcDbScale
 70
     0
300
1:20
140
1.0
141
20.0
290
     0
  0
SCALE
  5
39C
102
{ACAD_REACTORS
330
393
102
}
330
393
100
AcDbScale
 70
     0
300
1:30
140
1.0
141
30.0
290
     0
  0
SCALE
  5
39D
102
{ACAD_REACTORS
330
393
102
}
330
393
100
AcDbScale
 70
     0
300
1:40
140
1.0
141
40.0
290
     0
  0
SCALE
  5
39E
102
{ACAD_REACTORS
330
393
102
}
330
393
100
AcDbScale
 70
     0
300
1:50
140
1.0
141
50.0
290
     0
  0
SCALE
  5
39F
102
{ACAD_REACTORS
330
393
102
}
330
393
100
AcDbScale
 70
     0
300
1:100
140
1.0
141
100.0
290
     0
  0
SCALE
  5
3A0
102
{ACAD_REACTORS
330
393
102
}
330
393
100
AcDbScale
 70
     0
300
2:1
140
2.0
141
1.0
290
     0
  0
SCALE
  5
3A1
102
{ACAD_REACTORS
330
393
102
}
330
393
100
AcDbScale
 70
     0
300
4:1
140
4.0
141
1.0
290
     0
  0
SCALE
  5
3A2
102
{ACAD_REACTORS
330
393
102
}
330
393
100
AcDbScale
 70
     0
300
8:1
140
8.0
141
1.0
290
     0
  0
SCALE
  5
3A3
102
{ACAD_REACTORS
330
393
102
}
330
393
100
AcDbScale
 70
     0
300
10:1
140
10.0
141
1.0
290
     0
  0
SCALE
  5
3A4
102
{ACAD_REACTORS
330
393
102
}
330
393
100
AcDbScale
 70
     0
300
100:1
140
100.0
141
1.0
290
     0
  0
SCALE
  5
3A5
102
{ACAD_REACTORS
330
393
102
}
330
393
100
AcDbScale
 70
     0
300
1/128" = 1'-0"
140
0.0078125
141
12.0
290
     0
  0
SCALE
  5
3A6
102
{ACAD_REACTORS
330
393
102
}
330
393
100
AcDbScale
 70
     0
300
1/64" = 1'-0"
140
0.015625
141
12.0
290
     0
  0
SCALE
  5
3A7
102
{ACAD_REACTORS
330
393
102
}
330
393
100
AcDbScale
 70
     0
300
1/32" = 1'-0"
140
0.03125
141
12.0
290
     0
  0
SCALE
  5
3A8
102
{ACAD_REACTORS
330
393
102
}
330
393
100
AcDbScale
 70
     0
300
1/16" = 1'-0"
140
0.0625
141
12.0
290
     0
  0
SCALE
  5
3A9
102
{ACAD_REACTORS
330
393
102
}
330
393
100
AcDbScale
 70
     0
300
3/32" = 1'-0"
140
0.09375
141
12.0
290
     0
  0
SCALE
  5
3AA
102
{ACAD_REACTORS
330
393
102
}
330
393
100
AcDbScale
 70
     0
300
1/8" = 1'-0"
140
0.125
141
12.0
290
     0
  0
SCALE
  5
3AB
102
{ACAD_REACTORS
330
393
102
}
330
393
100
AcDbScale
 70
     0
300
3/16" = 1'-0"
140
0.1875
141
12.0
290
     0
  0
SCALE
  5
3AC
102
{ACAD_REACTORS
330
393
102
}
330
393
100
AcDbScale
 70
     0
300
1/4" = 1'-0"
140
0.25
141
12.0
290
     0
  0
SCALE
  5
3AD
102
{ACAD_REACTORS
330
393
102
}
330
393
100
AcDbScale
 70
     0
300
3/8" = 1'-0"
140
0.375
141
12.0
290
     0
  0
SCALE
  5
3AE
102
{ACAD_REACTORS
330
393
102
}
330
393
100
AcDbScale
 70
     0
300
1/2" = 1'-0"
140
0.5
141
12.0
290
     0
  0
SCALE
  5
3AF
102
{ACAD_REACTORS
330
393
102
}
330
393
100
AcDbScale
 70
     0
300
3/4" = 1'-0"
140
0.75
141
12.0
290
     0
  0
SCALE
  5
3B0
102
{ACAD_REACTORS
330
393
102
}
330
393
100
AcDbScale
 70
     0
300
1" = 1'-0"
140
1.0
141
12.0
290
     0
  0
SCALE
  5
3B1
102
{ACAD_REACTORS
330
393
102
}
330
393
100
AcDbScale
 70
     0
300
1-1/2" = 1'-0"
140
1.5
141
12.0
290
     0
  0
SCALE
  5
3B2
102
{ACAD_REACTORS
330
393
102
}
330
393
100
AcDbScale
 70
     0
300
3" = 1'-0"
140
3.0
141
12.0
290
     0
  0
SCALE
  5
3B3
102
{ACAD_REACTORS
330
393
102
}
330
393
100
AcDbScale
 70
     0
300
6" = 1'-0"
140
6.0
141
12.0
290
     0
  0
SCALE
  5
3B4
102
{ACAD_REACTORS
330
393
102
}
330
393
100
AcDbScale
 70
     0
300
1'-0" = 1'-0"
140
12.0
141
12.0
290
     0
  0
VISUALSTYLE
  5
2F
102
{ACAD_REACTORS
330
2A
102
}
102
{ACAD_XDICTIONARY
360
AFD
102
}
330
2A
100
AcDbVisualStyle
  2
2dWireframe
 70
     4
 71
     0
 72
     2
 73
     0
 90
        0
 40
-0.6
 41
-30.0
 62
     5
 63
     7
 74
     1
 91
        4
 64
     7
 65
   257
 75
     1
175
     1
 42
1.0
 92
        0
 66
   257
 43
1.0
 76
     1
 77
     6
 78
     2
 67
     7
 79
     5
170
     0
171
     0
290
     0
174
     0
 93
        1
 44
0.0
173
     0
291
     0
 45
0.0
1001
ACAD
1000
AcDbSavedByObjectVersion
1070
     0
  0
VISUALSTYLE
  5
31
102
{ACAD_REACTORS
330
2A
102
}
102
{ACAD_XDICTIONARY
360
B01
102
}
330
2A
100
AcDbVisualStyle
  2
3D Hidden
 70
     6
 71
     1
 72
     2
 73
     2
 90
        0
 40
-0.6
 41
-30.0
 62
     5
 63
     7
 74
     2
 91
        2
 64
     7
 65
   257
 75
     2
175
     1
 42
40.0
 92
        0
 66
   257
 43
1.0
 76
     1
 77
     6
 78
     2
 67
     7
 79
     3
170
     0
171
     0
290
     0
174
     0
 93
        1
 44
0.0
173
     0
291
     0
 45
0.0
1001
ACAD
1000
AcDbSavedByObjectVersion
1070
     0
  0
VISUALSTYLE
  5
30
102
{ACAD_REACTORS
330
2A
102
}
102
{ACAD_XDICTIONARY
360
AFF
102
}
330
2A
100
AcDbVisualStyle
  2
3dWireframe
 70
     5
 71
     0
 72
     2
 73
     0
 90
        0
 40
-0.6
 41
-30.0
 62
     5
 63
     7
 74
     1
 91
        4
 64
     7
 65
   257
 75
     1
175
     1
 42
1.0
 92
        0
 66
   257
 43
1.0
 76
     1
 77
     6
 78
     2
 67
     7
 79
     5
170
     0
171
     0
290
     0
174
     0
 93
        1
 44
0.0
173
     0
291
     0
 45
0.0
1001
ACAD
1000
AcDbSavedByObjectVersion
1070
     0
  0
VISUALSTYLE
  5
32
102
{ACAD_REACTORS
330
2A
102
}
102
{ACAD_XDICTIONARY
360
B03
102
}
330
2A
100
AcDbVisualStyle
  2
Basic
 70
     7
 71
     1
 72
     0
 73
     1
 90
        0
 40
-0.6
 41
-30.0
 62
     5
 63
     7
 74
     0
 91
        4
 64
     7
 65
   257
 75
     1
175
     1
 42
1.0
 92
        8
 66
     7
 43
1.0
 76
     1
 77
     6
 78
     2
 67
     7
 79
     5
170
     0
171
     0
290
     0
174
     0
 93
        1
 44
0.0
173
     0
291
     1
 45
0.0
1001
ACAD
1000
AcDbSavedByObjectVersion
1070
     0
  0
VISUALSTYLE
  5
36
102
{ACAD_REACTORS
330
2A
102
}
102
{ACAD_XDICTIONARY
360
B0B
102
}
330
2A
100
AcDbVisualStyle
  2
Brighten
 70
    12
 71
     2
 72
     2
 73
     0
 90
        0
 40
-0.6
 41
-30.0
 62
     5
 63
     7
 74
     1
 91
        4
 64
     7
 65
   257
 75
     1
175
     1
 42
1.0
 92
        8
 66
     7
 43
1.0
 76
     1
 77
     6
 78
     2
 67
     7
 79
     5
170
     0
171
     0
290
     0
174
     0
 93
        1
 44
50.0
173
     0
291
     1
 45
0.0
1001
ACAD
1000
AcDbSavedByObjectVersion
1070
     0
  0
VISUALSTYLE
  5
3A
102
{ACAD_REACTORS
330
2A
102
}
102
{ACAD_XDICTIONARY
360
B13
102
}
330
2A
100
AcDbVisualStyle
  2
ColorChange
 70
    16
 71
     2
 72
     2
 73
     3
 90
        0
 40
-0.6
 41
-30.0
 62
     5
 63
     8
 74
     1
 91
        4
 64
     7
 65
   257
 75
     1
175
     1
 42
1.0
 92
        8
 66
     8
 43
1.0
 76
     1
 77
     6
 78
     2
 67
     7
 79
     5
170
     0
171
     0
290
     0
174
     0
 93
        1
 44
0.0
173
     0
291
     1
 45
0.0
1001
ACAD
1000
AcDbSavedByObjectVersion
1070
     0
  0
VISUALSTYLE
  5
34
102
{ACAD_REACTORS
330
2A
102
}
102
{ACAD_XDICTIONARY
360
B07
102
}
330
2A
100
AcDbVisualStyle
  2
Conceptual
 70
     9
 71
     3
 72
     2
 73
     0
 90
        0
 40
-0.6
 41
-30.0
 62
     5
 63
     7
 74
     2
 91
        2
 64
     7
 65
   257
 75
     1
175
     1
 42
40.0
 92
        8
 66
     7
 43
1.0
 76
     1
 77
     6
 78
     2
 67
     7
 79
     3
170
     0
171
     0
290
     0
174
     0
 93
        1
 44
0.0
173
     0
291
     0
 45
0.0
1001
ACAD
1000
AcDbSavedByObjectVersion
1070
     0
  0
VISUALSTYLE
  5
35
102
{ACAD_REACTORS
330
2A
102
}
102
{ACAD_XDICTIONARY
360
B09
102
}
330
2A
100
AcDbVisualStyle
  2
Dim
 70
    11
 71
     2
 72
     2
 73
     0
 90
        0
 40
-0.6
 41
-30.0
 62
     5
 63
     7
 74
     1
 91
        4
 64
     7
 65
   257
 75
     1
175
     1
 42
1.0
 92
        8
 66
     7
 43
1.0
 76
     1
 77
     6
 78
     2
 67
     7
 79
     5
170
     0
171
     0
290
     0
174
     0
 93
        1
 44
-50.0
173
     0
291
     1
 45
0.0
1001
ACAD
1000
AcDbSavedByObjectVersion
1070
     0
  0
VISUALSTYLE
  5
39
102
{ACAD_REACTORS
330
2A
102
}
102
{ACAD_XDICTIONARY
360
B11
102
}
330
2A
100
AcDbVisualStyle
  2
Facepattern
 70
    15
 71
     2
 72
     2
 73
     0
 90
        0
 40
-0.6
 41
-30.0
 62
     5
 63
     7
 74
     1
 91
        4
 64
     7
 65
   257
 75
     1
175
     1
 42
1.0
 92
        8
 66
     7
 43
1.0
 76
     1
 77
     6
 78
     2
 67
     7
 79
     5
170
     0
171
     0
290
     0
174
     0
 93
        1
 44
0.0
173
     0
291
     1
 45
0.0
1001
ACAD
1000
AcDbSavedByObjectVersion
1070
     0
  0
VISUALSTYLE
  5
2B
102
{ACAD_REACTORS
330
2A
102
}
102
{ACAD_XDICTIONARY
360
AF5
102
}
330
2A
100
AcDbVisualStyle
  2
Flat
 70
     0
 71
     2
 72
     1
 73
     1
 90
        2
 40
-0.6
 41
30.0
 62
     5
 63
     7
 74
     0
 91
        4
 64
     7
 65
   257
 75
     1
175
     1
 42
1.0
 92
        8
 66
     7
 43
1.0
 76
     1
 77
     6
 78
     2
 67
     7
 79
     5
170
     0
171
     0
290
     0
174
     0
 93
       13
 44
0.0
173
     0
291
     1
 45
0.0
1001
ACAD
1000
AcDbSavedByObjectVersion
1070
     0
  0
VISUALSTYLE
  5
2C
102
{ACAD_REACTORS
330
2A
102
}
102
{ACAD_XDICTIONARY
360
AF7
102
}
330
2A
100
AcDbVisualStyle
  2
FlatWithEdges
 70
     1
 71
     2
 72
     1
 73
     1
 90
        2
 40
-0.6
 41
30.0
 62
     5
 63
     7
 74
     1
 91
        4
 64
     7
 65
   257
 75
     1
175
     1
 42
1.0
 92
        0
 66
   257
 43
1.0
 76
     1
 77
     6
 78
     2
 67
     7
 79
     5
170
     0
171
     0
290
     0
174
     0
 93
       13
 44
0.0
173
     0
291
     1
 45
0.0
1001
ACAD
1000
AcDbSavedByObjectVersion
1070
     0
  0
VISUALSTYLE
  5
2D
102
{ACAD_REACTORS
330
2A
102
}
102
{ACAD_XDICTIONARY
360
AF9
102
}
330
2A
100
AcDbVisualStyle
  2
Gouraud
 70
     2
 71
     2
 72
     2
 73
     1
 90
        2
 40
-0.6
 41
30.0
 62
     5
 63
     7
 74
     0
 91
        4
 64
     7
 65
   257
 75
     1
175
     1
 42
1.0
 92
        0
 66
     7
 43
1.0
 76
     1
 77
     6
 78
     2
 67
     7
 79
     5
170
     0
171
     0
290
     0
174
     0
 93
       13
 44
0.0
173
     0
291
     1
 45
0.0
1001
ACAD
1000
AcDbSavedByObjectVersion
1070
     0
  0
VISUALSTYLE
  5
2E
102
{ACAD_REACTORS
330
2A
102
}
102
{ACAD_XDICTIONARY
360
AFB
102
}
330
2A
100
AcDbVisualStyle
  2
GouraudWithEdges
 70
     3
 71
     2
 72
     2
 73
     1
 90
        2
 40
-0.6
 41
30.0
 62
     5
 63
     7
 74
     1
 91
        4
 64
     7
 65
   257
 75
     1
175
     1
 42
1.0
 92
        0
 66
   257
 43
1.0
 76
     1
 77
     6
 78
     2
 67
     7
 79
     5
170
     0
171
     0
290
     0
174
     0
 93
       13
 44
0.0
173
     0
291
     1
 45
0.0
1001
ACAD
1000
AcDbSavedByObjectVersion
1070
     0
  0
VISUALSTYLE
  5
38
102
{ACAD_REACTORS
330
2A
102
}
102
{ACAD_XDICTIONARY
360
B0F
102
}
330
2A
100
AcDbVisualStyle
  2
Linepattern
 70
    14
 71
     2
 72
     2
 73
     0
 90
        0
 40
-0.6
 41
-30.0
 62
     5
 63
     7
 74
     1
 91
        4
 64
     7
 65
   257
 75
     7
175
     7
 42
1.0
 92
        8
 66
     7
 43
1.0
 76
     1
 77
     6
 78
     2
 67
     7
 79
     5
170
     0
171
     0
290
     0
174
     0
 93
        1
 44
0.0
173
     0
291
     1
 45
0.0
1001
ACAD
1000
AcDbSavedByObjectVersion
1070
     0
  0
VISUALSTYLE
  5
33
102
{ACAD_REACTORS
330
2A
102
}
102
{ACAD_XDICTIONARY
360
B05
102
}
330
2A
100
AcDbVisualStyle
  2
Realistic
 70
     8
 71
     2
 72
     2
 73
     0
 90
        0
 40
-0.6
 41
-30.0
 62
     5
 63
     7
 74
     1
 91
        0
 64
     7
 65
   257
 75
     1
175
     1
 42
1.0
 92
        8
 66
     8
 43
1.0
 76
     1
 77
     6
 78
     2
 67
     7
 79
     5
170
     0
171
     0
290
     0
174
     0
 93
       13
 44
0.0
173
     0
291
     0
 45
0.0
1001
ACAD
1000
AcDbSavedByObjectVersion
1070
     0
  0
VISUALSTYLE
  5
37
102
{ACAD_REACTORS
330
2A
102
}
102
{ACAD_XDICTIONARY
360
B0D
102
}
330
2A
100
AcDbVisualStyle
  2
Thicken
 70
    13
 71
     2
 72
     2
 73
     0
 90
        0
 40
-0.6
 41
-30.0
 62
     5
 63
     7
 74
     1
 91
        4
 64
     7
 65
   257
 75
     1
175
     1
 42
1.0
 92
       12
 66
     7
 43
1.0
 76
     1
 77
     6
 78
     2
 67
     7
 79
     5
170
     0
171
     0
290
     0
174
     0
 93
        1
 44
0.0
173
     0
291
     1
 45
0.0
1001
ACAD
1000
AcDbSavedByObjectVersion
1070
     0
  0
DICTIONARYVAR
  5
AF2
102
{ACAD_REACTORS
330
AED
102
}
330
AED
100
DictionaryVariables
280
     0
  1
1:1
  0
DICTIONARYVAR
  5
AF3
102
{ACAD_REACTORS
330
AED
102
}
330
AED
100
DictionaryVariables
280
     0
  1
2
  0
DICTIONARYVAR
  5
AF4
102
{ACAD_REACTORS
330
AED
102
}
330
AED
100
DictionaryVariables
280
     0
  1
1
  0
DICTIONARYVAR
  5
AF1
102
{ACAD_REACTORS
330
AED
102
}
330
AED
100
DictionaryVariables
280
     0
  1
80.000000
  0
DICTIONARYVAR
  5
AF0
102
{ACAD_REACTORS
330
AED
102
}
330
AED
100
DictionaryVariables
280
     0
  1
5.000000
  0
DICTIONARY
  5
B17
330
3D
100
AcDbDictionary
280
     1
281
     1
  3
ACAD_XREC_ROUNDTRIP
360
B18
  0
DICTIONARY
  5
B15
330
3C
100
AcDbDictionary
280
     1
281
     1
  3
ACAD_XREC_ROUNDTRIP
360
B16
  0
DICTIONARY
  5
B19
330
3E
100
AcDbDictionary
280
     1
281
     1
  3
ACAD_XREC_ROUNDTRIP
360
B1A
  0
DICTIONARY
  5
AFD
330
2F
100
AcDbDictionary
280
     1
281
     1
  3
ACAD_XREC_ROUNDTRIP
360
AFE
  0
DICTIONARY
  5
B01
330
31
100
AcDbDictionary
280
     1
281
     1
  3
ACAD_XREC_ROUNDTRIP
360
B02
  0
DICTIONARY
  5
AFF
330
30
100
AcDbDictionary
280
     1
281
     1
  3
ACAD_XREC_ROUNDTRIP
360
B00
  0
DICTIONARY
  5
B03
330
32
100
AcDbDictionary
280
     1
281
     1
  3
ACAD_XREC_ROUNDTRIP
360
B04
  0
DICTIONARY
  5
B0B
330
36
100
AcDbDictionary
280
     1
281
     1
  3
ACAD_XREC_ROUNDTRIP
360
B0C
  0
DICTIONARY
  5
B13
330
3A
100
AcDbDictionary
280
     1
281
     1
  3
ACAD_XREC_ROUNDTRIP
360
B14
  0
DICTIONARY
  5
B07
330
34
100
AcDbDictionary
280
     1
281
     1
  3
ACAD_XREC_ROUNDTRIP
360
B08
  0
DICTIONARY
  5
B09
330
35
100
AcDbDictionary
280
     1
281
     1
  3
ACAD_XREC_ROUNDTRIP
360
B0A
  0
DICTIONARY
  5
B11
330
39
100
AcDbDictionary
280
     1
281
     1
  3
ACAD_XREC_ROUNDTRIP
360
B12
  0
DICTIONARY
  5
AF5
330
2B
100
AcDbDictionary
280
     1
281
     1
  3
ACAD_XREC_ROUNDTRIP
360
AF6
  0
DICTIONARY
  5
AF7
330
2C
100
AcDbDictionary
280
     1
281
     1
  3
ACAD_XREC_ROUNDTRIP
360
AF8
  0
DICTIONARY
  5
AF9
330
2D
100
AcDbDictionary
280
     1
281
     1
  3
ACAD_XREC_ROUNDTRIP
360
AFA
  0
DICTIONARY
  5
AFB
330
2E
100
AcDbDictionary
280
     1
281
     1
  3
ACAD_XREC_ROUNDTRIP
360
AFC
  0
DICTIONARY
  5
B0F
330
38
100
AcDbDictionary
280
     1
281
     1
  3
ACAD_XREC_ROUNDTRIP
360
B10
  0
DICTIONARY
  5
B05
330
33
100
AcDbDictionary
280
     1
281
     1
  3
ACAD_XREC_ROUNDTRIP
360
B06
  0
DICTIONARY
  5
B0D
330
37
100
AcDbDictionary
280
     1
281
     1
  3
ACAD_XREC_ROUNDTRIP
360
B0E
  0
XRECORD
  5
B18
102
{ACAD_REACTORS
330
B17
102
}
330
B17
100
AcDbXrecord
280
     1
102
MATERIAL
148
0.0
149
0.0
149
0.0
 93
        0
 94
      127
282
     0
 72
     1
 77
     1
171
     1
175
     1
179
     1
273
     0
  0
XRECORD
  5
B16
102
{ACAD_REACTORS
330
B15
102
}
330
B15
100
AcDbXrecord
280
     1
102
MATERIAL
148
0.0
149
0.0
149
0.0
 93
        0
 94
      127
282
     0
 72
     1
 77
     1
171
     1
175
     1
179
     1
273
     0
  0
XRECORD
  5
B1A
102
{ACAD_REACTORS
330
B19
102
}
330
B19
100
AcDbXrecord
280
     1
102
MATERIAL
148
0.0
149
0.0
149
0.0
 93
        0
 94
      127
282
     0
 72
     1
 77
     1
171
     1
175
     1
179
     1
273
     0
  0
XRECORD
  5
AFE
102
{ACAD_REACTORS
330
AFD
102
}
330
AFD
100
AcDbXrecord
280
     1
102
RTVSPropertyOp0
 70
     1
102
RTVSPropertyOp1
 70
     1
102
RTVSPropertyOp2
 70
     1
102
RTVSPropertyOp3
 70
     1
102
RTVSPropertyOp4
 70
     1
102
RTVSPropertyOp5
 70
     1
102
RTVSPropertyOp6
 70
     1
102
RTVSPropertyOp7
 70
     1
102
RTVSPropertyOp8
 70
     1
102
RTVSPropertyOp9
 70
     1
102
RTVSPropertyOp10
 70
     1
102
RTVSPropertyOp11
 70
     1
102
RTVSPropertyOp12
 70
     1
102
RTVSPropertyOp13
 70
     1
102
RTVSPropertyOp14
 70
     1
102
RTVSPropertyOp15
 70
     1
102
RTVSPropertyOp16
 70
     1
102
RTVSPropertyOp17
 70
     1
102
RTVSPropertyOp18
 70
     1
102
RTVSPropertyOp19
 70
     1
102
RTVSPropertyOp20
 70
     1
102
RTVSPropertyOp21
 70
     1
102
RTVSPropertyOp22
 70
     1
102
RTVSPropertyOp23
 70
     1
102
RTVSPropertyOp24
 70
     1
102
RTVSPropertyOp25
 70
     1
102
RTVSPropertyOp26
 70
     1
102
RTVSPropertyOp27
 70
     1
  0
XRECORD
  5
B02
102
{ACAD_REACTORS
330
B01
102
}
330
B01
100
AcDbXrecord
280
     1
102
RTVSPropertyOp0
 70
     1
102
RTVSPropertyOp1
 70
     1
102
RTVSPropertyOp2
 70
     1
102
RTVSPropertyOp3
 70
     1
102
RTVSPropertyOp4
 70
     1
102
RTVSPropertyOp5
 70
     1
102
RTVSPropertyOp6
 70
     1
102
RTVSPropertyOp7
 70
     1
102
RTVSPropertyOp8
 70
     1
102
RTVSPropertyOp9
 70
     1
102
RTVSPropertyOp10
 70
     1
102
RTVSPropertyOp11
 70
     1
102
RTVSPropertyOp12
 70
     1
102
RTVSPropertyOp13
 70
     1
102
RTVSPropertyOp14
 70
     1
102
RTVSPropertyOp15
 70
     1
102
RTVSPropertyOp16
 70
     1
102
RTVSPropertyOp17
 70
     1
102
RTVSPropertyOp18
 70
     1
102
RTVSPropertyOp19
 70
     1
102
RTVSPropertyOp20
 70
     1
102
RTVSPropertyOp21
 70
     1
102
RTVSPropertyOp22
 70
     1
102
RTVSPropertyOp23
 70
     1
102
RTVSPropertyOp24
 70
     1
102
RTVSPropertyOp25
 70
     1
102
RTVSPropertyOp26
 70
     1
102
RTVSPropertyOp27
 70
     1
  0
XRECORD
  5
B00
102
{ACAD_REACTORS
330
AFF
102
}
330
AFF
100
AcDbXrecord
280
     1
102
RTVSPropertyOp0
 70
     1
102
RTVSPropertyOp1
 70
     1
102
RTVSPropertyOp2
 70
     1
102
RTVSPropertyOp3
 70
     1
102
RTVSPropertyOp4
 70
     1
102
RTVSPropertyOp5
 70
     1
102
RTVSPropertyOp6
 70
     1
102
RTVSPropertyOp7
 70
     1
102
RTVSPropertyOp8
 70
     1
102
RTVSPropertyOp9
 70
     1
102
RTVSPropertyOp10
 70
     1
102
RTVSPropertyOp11
 70
     1
102
RTVSPropertyOp12
 70
     1
102
RTVSPropertyOp13
 70
     1
102
RTVSPropertyOp14
 70
     1
102
RTVSPropertyOp15
 70
     1
102
RTVSPropertyOp16
 70
     1
102
RTVSPropertyOp17
 70
     1
102
RTVSPropertyOp18
 70
     1
102
RTVSPropertyOp19
 70
     1
102
RTVSPropertyOp20
 70
     1
102
RTVSPropertyOp21
 70
     1
102
RTVSPropertyOp22
 70
     1
102
RTVSPropertyOp23
 70
     1
102
RTVSPropertyOp24
 70
     1
102
RTVSPropertyOp25
 70
     1
102
RTVSPropertyOp26
 70
     1
102
RTVSPropertyOp27
 70
     1
  0
XRECORD
  5
B04
102
{ACAD_REACTORS
330
B03
102
}
330
B03
100
AcDbXrecord
280
     1
102
RTVSPropertyOp0
 70
     1
102
RTVSPropertyOp1
 70
     1
102
RTVSPropertyOp2
 70
     1
102
RTVSPropertyOp3
 70
     1
102
RTVSPropertyOp4
 70
     1
102
RTVSPropertyOp5
 70
     1
102
RTVSPropertyOp6
 70
     1
102
RTVSPropertyOp7
 70
     1
102
RTVSPropertyOp8
 70
     1
102
RTVSPropertyOp9
 70
     1
102
RTVSPropertyOp10
 70
     1
102
RTVSPropertyOp11
 70
     1
102
RTVSPropertyOp12
 70
     1
102
RTVSPropertyOp13
 70
     1
102
RTVSPropertyOp14
 70
     1
102
RTVSPropertyOp15
 70
     1
102
RTVSPropertyOp16
 70
     1
102
RTVSPropertyOp17
 70
     1
102
RTVSPropertyOp18
 70
     1
102
RTVSPropertyOp19
 70
     1
102
RTVSPropertyOp20
 70
     1
102
RTVSPropertyOp21
 70
     1
102
RTVSPropertyOp22
 70
     1
102
RTVSPropertyOp23
 70
     1
102
RTVSPropertyOp24
 70
     1
102
RTVSPropertyOp25
 70
     1
102
RTVSPropertyOp26
 70
     1
102
RTVSPropertyOp27
 70
     1
  0
XRECORD
  5
B0C
102
{ACAD_REACTORS
330
B0B
102
}
330
B0B
100
AcDbXrecord
280
     1
102
RTVSPropertyOp0
 70
     1
102
RTVSPropertyOp1
 70
     1
102
RTVSPropertyOp2
 70
     1
102
RTVSPropertyOp3
 70
     1
102
RTVSPropertyOp4
 70
     1
102
RTVSPropertyOp5
 70
     1
102
RTVSPropertyOp6
 70
     1
102
RTVSPropertyOp7
 70
     1
102
RTVSPropertyOp8
 70
     1
102
RTVSPropertyOp9
 70
     1
102
RTVSPropertyOp10
 70
     1
102
RTVSPropertyOp11
 70
     1
102
RTVSPropertyOp12
 70
     1
102
RTVSPropertyOp13
 70
     1
102
RTVSPropertyOp14
 70
     1
102
RTVSPropertyOp15
 70
     1
102
RTVSPropertyOp16
 70
     1
102
RTVSPropertyOp17
 70
     1
102
RTVSPropertyOp18
 70
     1
102
RTVSPropertyOp19
 70
     1
102
RTVSPropertyOp20
 70
     1
102
RTVSPropertyOp21
 70
     1
102
RTVSPropertyOp22
 70
     1
102
RTVSPropertyOp23
 70
     1
102
RTVSPropertyOp24
 70
     1
102
RTVSPropertyOp25
 70
     1
102
RTVSPropertyOp26
 70
     1
102
RTVSPropertyOp27
 70
     1
  0
XRECORD
  5
B14
102
{ACAD_REACTORS
330
B13
102
}
330
B13
100
AcDbXrecord
280
     1
102
RTVSPropertyOp0
 70
     1
102
RTVSPropertyOp1
 70
     1
102
RTVSPropertyOp2
 70
     1
102
RTVSPropertyOp3
 70
     1
102
RTVSPropertyOp4
 70
     1
102
RTVSPropertyOp5
 70
     1
102
RTVSPropertyOp6
 70
     1
102
RTVSPropertyOp7
 70
     1
102
RTVSPropertyOp8
 70
     1
102
RTVSPropertyOp9
 70
     1
102
RTVSPropertyOp10
 70
     1
102
RTVSPropertyOp11
 70
     1
102
RTVSPropertyOp12
 70
     1
102
RTVSPropertyOp13
 70
     1
102
RTVSPropertyOp14
 70
     1
102
RTVSPropertyOp15
 70
     1
102
RTVSPropertyOp16
 70
     1
102
RTVSPropertyOp17
 70
     1
102
RTVSPropertyOp18
 70
     1
102
RTVSPropertyOp19
 70
     1
102
RTVSPropertyOp20
 70
     1
102
RTVSPropertyOp21
 70
     1
102
RTVSPropertyOp22
 70
     1
102
RTVSPropertyOp23
 70
     1
102
RTVSPropertyOp24
 70
     1
102
RTVSPropertyOp25
 70
     1
102
RTVSPropertyOp26
 70
     1
102
RTVSPropertyOp27
 70
     1
  0
XRECORD
  5
B08
102
{ACAD_REACTORS
330
B07
102
}
330
B07
100
AcDbXrecord
280
     1
102
RTVSPropertyOp0
 70
     1
102
RTVSPropertyOp1
 70
     1
102
RTVSPropertyOp2
 70
     1
102
RTVSPropertyOp3
 70
     1
102
RTVSPropertyOp4
 70
     1
102
RTVSPropertyOp5
 70
     1
102
RTVSPropertyOp6
 70
     1
102
RTVSPropertyOp7
 70
     1
102
RTVSPropertyOp8
 70
     1
102
RTVSPropertyOp9
 70
     1
102
RTVSPropertyOp10
 70
     1
102
RTVSPropertyOp11
 70
     1
102
RTVSPropertyOp12
 70
     1
102
RTVSPropertyOp13
 70
     1
102
RTVSPropertyOp14
 70
     1
102
RTVSPropertyOp15
 70
     1
102
RTVSPropertyOp16
 70
     1
102
RTVSPropertyOp17
 70
     1
102
RTVSPropertyOp18
 70
     1
102
RTVSPropertyOp19
 70
     1
102
RTVSPropertyOp20
 70
     1
102
RTVSPropertyOp21
 70
     1
102
RTVSPropertyOp22
 70
     1
102
RTVSPropertyOp23
 70
     1
102
RTVSPropertyOp24
 70
     1
102
RTVSPropertyOp25
 70
     1
102
RTVSPropertyOp26
 70
     1
102
RTVSPropertyOp27
 70
     1
  0
XRECORD
  5
B0A
102
{ACAD_REACTORS
330
B09
102
}
330
B09
100
AcDbXrecord
280
     1
102
RTVSPropertyOp0
 70
     1
102
RTVSPropertyOp1
 70
     1
102
RTVSPropertyOp2
 70
     1
102
RTVSPropertyOp3
 70
     1
102
RTVSPropertyOp4
 70
     1
102
RTVSPropertyOp5
 70
     1
102
RTVSPropertyOp6
 70
     1
102
RTVSPropertyOp7
 70
     1
102
RTVSPropertyOp8
 70
     1
102
RTVSPropertyOp9
 70
     1
102
RTVSPropertyOp10
 70
     1
102
RTVSPropertyOp11
 70
     1
102
RTVSPropertyOp12
 70
     1
102
RTVSPropertyOp13
 70
     1
102
RTVSPropertyOp14
 70
     1
102
RTVSPropertyOp15
 70
     1
102
RTVSPropertyOp16
 70
     1
102
RTVSPropertyOp17
 70
     1
102
RTVSPropertyOp18
 70
     1
102
RTVSPropertyOp19
 70
     1
102
RTVSPropertyOp20
 70
     1
102
RTVSPropertyOp21
 70
     1
102
RTVSPropertyOp22
 70
     1
102
RTVSPropertyOp23
 70
     1
102
RTVSPropertyOp24
 70
     1
102
RTVSPropertyOp25
 70
     1
102
RTVSPropertyOp26
 70
     1
102
RTVSPropertyOp27
 70
     1
  0
XRECORD
  5
B12
102
{ACAD_REACTORS
330
B11
102
}
330
B11
100
AcDbXrecord
280
     1
102
RTVSPropertyOp0
 70
     1
102
RTVSPropertyOp1
 70
     1
102
RTVSPropertyOp2
 70
     1
102
RTVSPropertyOp3
 70
     1
102
RTVSPropertyOp4
 70
     1
102
RTVSPropertyOp5
 70
     1
102
RTVSPropertyOp6
 70
     1
102
RTVSPropertyOp7
 70
     1
102
RTVSPropertyOp8
 70
     1
102
RTVSPropertyOp9
 70
     1
102
RTVSPropertyOp10
 70
     1
102
RTVSPropertyOp11
 70
     1
102
RTVSPropertyOp12
 70
     1
102
RTVSPropertyOp13
 70
     1
102
RTVSPropertyOp14
 70
     1
102
RTVSPropertyOp15
 70
     1
102
RTVSPropertyOp16
 70
     1
102
RTVSPropertyOp17
 70
     1
102
RTVSPropertyOp18
 70
     1
102
RTVSPropertyOp19
 70
     1
102
RTVSPropertyOp20
 70
     1
102
RTVSPropertyOp21
 70
     1
102
RTVSPropertyOp22
 70
     1
102
RTVSPropertyOp23
 70
     1
102
RTVSPropertyOp24
 70
     1
102
RTVSPropertyOp25
 70
     1
102
RTVSPropertyOp26
 70
     1
102
RTVSPropertyOp27
 70
     1
  0
XRECORD
  5
AF6
102
{ACAD_REACTORS
330
AF5
102
}
330
AF5
100
AcDbXrecord
280
     1
102
RTVSPropertyOp0
 70
     1
102
RTVSPropertyOp1
 70
     1
102
RTVSPropertyOp2
 70
     1
102
RTVSPropertyOp3
 70
     1
102
RTVSPropertyOp4
 70
     1
102
RTVSPropertyOp5
 70
     1
102
RTVSPropertyOp6
 70
     1
102
RTVSPropertyOp7
 70
     1
102
RTVSPropertyOp8
 70
     1
102
RTVSPropertyOp9
 70
     1
102
RTVSPropertyOp10
 70
     1
102
RTVSPropertyOp11
 70
     1
102
RTVSPropertyOp12
 70
     1
102
RTVSPropertyOp13
 70
     1
102
RTVSPropertyOp14
 70
     1
102
RTVSPropertyOp15
 70
     1
102
RTVSPropertyOp16
 70
     1
102
RTVSPropertyOp17
 70
     1
102
RTVSPropertyOp18
 70
     1
102
RTVSPropertyOp19
 70
     1
102
RTVSPropertyOp20
 70
     1
102
RTVSPropertyOp21
 70
     1
102
RTVSPropertyOp22
 70
     1
102
RTVSPropertyOp23
 70
     1
102
RTVSPropertyOp24
 70
     1
102
RTVSPropertyOp25
 70
     1
102
RTVSPropertyOp26
 70
     1
102
RTVSPropertyOp27
 70
     1
  0
XRECORD
  5
AF8
102
{ACAD_REACTORS
330
AF7
102
}
330
AF7
100
AcDbXrecord
280
     1
102
RTVSPropertyOp0
 70
     1
102
RTVSPropertyOp1
 70
     1
102
RTVSPropertyOp2
 70
     1
102
RTVSPropertyOp3
 70
     1
102
RTVSPropertyOp4
 70
     1
102
RTVSPropertyOp5
 70
     1
102
RTVSPropertyOp6
 70
     1
102
RTVSPropertyOp7
 70
     1
102
RTVSPropertyOp8
 70
     1
102
RTVSPropertyOp9
 70
     1
102
RTVSPropertyOp10
 70
     1
102
RTVSPropertyOp11
 70
     1
102
RTVSPropertyOp12
 70
     1
102
RTVSPropertyOp13
 70
     1
102
RTVSPropertyOp14
 70
     1
102
RTVSPropertyOp15
 70
     1
102
RTVSPropertyOp16
 70
     1
102
RTVSPropertyOp17
 70
     1
102
RTVSPropertyOp18
 70
     1
102
RTVSPropertyOp19
 70
     1
102
RTVSPropertyOp20
 70
     1
102
RTVSPropertyOp21
 70
     1
102
RTVSPropertyOp22
 70
     1
102
RTVSPropertyOp23
 70
     1
102
RTVSPropertyOp24
 70
     1
102
RTVSPropertyOp25
 70
     1
102
RTVSPropertyOp26
 70
     1
102
RTVSPropertyOp27
 70
     1
  0
XRECORD
  5
AFA
102
{ACAD_REACTORS
330
AF9
102
}
330
AF9
100
AcDbXrecord
280
     1
102
RTVSPropertyOp0
 70
     1
102
RTVSPropertyOp1
 70
     1
102
RTVSPropertyOp2
 70
     1
102
RTVSPropertyOp3
 70
     1
102
RTVSPropertyOp4
 70
     1
102
RTVSPropertyOp5
 70
     1
102
RTVSPropertyOp6
 70
     1
102
RTVSPropertyOp7
 70
     1
102
RTVSPropertyOp8
 70
     1
102
RTVSPropertyOp9
 70
     1
102
RTVSPropertyOp10
 70
     1
102
RTVSPropertyOp11
 70
     1
102
RTVSPropertyOp12
 70
     1
102
RTVSPropertyOp13
 70
     1
102
RTVSPropertyOp14
 70
     1
102
RTVSPropertyOp15
 70
     1
102
RTVSPropertyOp16
 70
     1
102
RTVSPropertyOp17
 70
     1
102
RTVSPropertyOp18
 70
     1
102
RTVSPropertyOp19
 70
     1
102
RTVSPropertyOp20
 70
     1
102
RTVSPropertyOp21
 70
     1
102
RTVSPropertyOp22
 70
     1
102
RTVSPropertyOp23
 70
     1
102
RTVSPropertyOp24
 70
     1
102
RTVSPropertyOp25
 70
     1
102
RTVSPropertyOp26
 70
     1
102
RTVSPropertyOp27
 70
     1
  0
XRECORD
  5
AFC
102
{ACAD_REACTORS
330
AFB
102
}
330
AFB
100
AcDbXrecord
280
     1
102
RTVSPropertyOp0
 70
     1
102
RTVSPropertyOp1
 70
     1
102
RTVSPropertyOp2
 70
     1
102
RTVSPropertyOp3
 70
     1
102
RTVSPropertyOp4
 70
     1
102
RTVSPropertyOp5
 70
     1
102
RTVSPropertyOp6
 70
     1
102
RTVSPropertyOp7
 70
     1
102
RTVSPropertyOp8
 70
     1
102
RTVSPropertyOp9
 70
     1
102
RTVSPropertyOp10
 70
     1
102
RTVSPropertyOp11
 70
     1
102
RTVSPropertyOp12
 70
     1
102
RTVSPropertyOp13
 70
     1
102
RTVSPropertyOp14
 70
     1
102
RTVSPropertyOp15
 70
     1
102
RTVSPropertyOp16
 70
     1
102
RTVSPropertyOp17
 70
     1
102
RTVSPropertyOp18
 70
     1
102
RTVSPropertyOp19
 70
     1
102
RTVSPropertyOp20
 70
     1
102
RTVSPropertyOp21
 70
     1
102
RTVSPropertyOp22
 70
     1
102
RTVSPropertyOp23
 70
     1
102
RTVSPropertyOp24
 70
     1
102
RTVSPropertyOp25
 70
     1
102
RTVSPropertyOp26
 70
     1
102
RTVSPropertyOp27
 70
     1
  0
XRECORD
  5
B10
102
{ACAD_REACTORS
330
B0F
102
}
330
B0F
100
AcDbXrecord
280
     1
102
RTVSPropertyOp0
 70
     1
102
RTVSPropertyOp1
 70
     1
102
RTVSPropertyOp2
 70
     1
102
RTVSPropertyOp3
 70
     1
102
RTVSPropertyOp4
 70
     1
102
RTVSPropertyOp5
 70
     1
102
RTVSPropertyOp6
 70
     1
102
RTVSPropertyOp7
 70
     1
102
RTVSPropertyOp8
 70
     1
102
RTVSPropertyOp9
 70
     1
102
RTVSPropertyOp10
 70
     1
102
RTVSPropertyOp11
 70
     1
102
RTVSPropertyOp12
 70
     1
102
RTVSPropertyOp13
 70
     1
102
RTVSPropertyOp14
 70
     1
102
RTVSPropertyOp15
 70
     1
102
RTVSPropertyOp16
 70
     1
102
RTVSPropertyOp17
 70
     1
102
RTVSPropertyOp18
 70
     1
102
RTVSPropertyOp19
 70
     1
102
RTVSPropertyOp20
 70
     1
102
RTVSPropertyOp21
 70
     1
102
RTVSPropertyOp22
 70
     1
102
RTVSPropertyOp23
 70
     1
102
RTVSPropertyOp24
 70
     1
102
RTVSPropertyOp25
 70
     1
102
RTVSPropertyOp26
 70
     1
102
RTVSPropertyOp27
 70
     1
  0
XRECORD
  5
B06
102
{ACAD_REACTORS
330
B05
102
}
330
B05
100
AcDbXrecord
280
     1
102
RTVSPropertyOp0
 70
     1
102
RTVSPropertyOp1
 70
     1
102
RTVSPropertyOp2
 70
     1
102
RTVSPropertyOp3
 70
     1
102
RTVSPropertyOp4
 70
     1
102
RTVSPropertyOp5
 70
     1
102
RTVSPropertyOp6
 70
     1
102
RTVSPropertyOp7
 70
     1
102
RTVSPropertyOp8
 70
     1
102
RTVSPropertyOp9
 70
     1
102
RTVSPropertyOp10
 70
     1
102
RTVSPropertyOp11
 70
     1
102
RTVSPropertyOp12
 70
     1
102
RTVSPropertyOp13
 70
     1
102
RTVSPropertyOp14
 70
     1
102
RTVSPropertyOp15
 70
     1
102
RTVSPropertyOp16
 70
     1
102
RTVSPropertyOp17
 70
     1
102
RTVSPropertyOp18
 70
     1
102
RTVSPropertyOp19
 70
     1
102
RTVSPropertyOp20
 70
     1
102
RTVSPropertyOp21
 70
     1
102
RTVSPropertyOp22
 70
     1
102
RTVSPropertyOp23
 70
     1
102
RTVSPropertyOp24
 70
     1
102
RTVSPropertyOp25
 70
     1
102
RTVSPropertyOp26
 70
     1
102
RTVSPropertyOp27
 70
     1
  0
XRECORD
  5
B0E
102
{ACAD_REACTORS
330
B0D
102
}
330
B0D
100
AcDbXrecord
280
     1
102
RTVSPropertyOp0
 70
     1
102
RTVSPropertyOp1
 70
     1
102
RTVSPropertyOp2
 70
     1
102
RTVSPropertyOp3
 70
     1
102
RTVSPropertyOp4
 70
     1
102
RTVSPropertyOp5
 70
     1
102
RTVSPropertyOp6
 70
     1
102
RTVSPropertyOp7
 70
     1
102
RTVSPropertyOp8
 70
     1
102
RTVSPropertyOp9
 70
     1
102
RTVSPropertyOp10
 70
     1
102
RTVSPropertyOp11
 70
     1
102
RTVSPropertyOp12
 70
     1
102
RTVSPropertyOp13
 70
     1
102
RTVSPropertyOp14
 70
     1
102
RTVSPropertyOp15
 70
     1
102
RTVSPropertyOp16
 70
     1
102
RTVSPropertyOp17
 70
     1
102
RTVSPropertyOp18
 70
     1
102
RTVSPropertyOp19
 70
     1
102
RTVSPropertyOp20
 70
     1
102
RTVSPropertyOp21
 70
     1
102
RTVSPropertyOp22
 70
     1
102
RTVSPropertyOp23
 70
     1
102
RTVSPropertyOp24
 70
     1
102
RTVSPropertyOp25
 70
     1
102
RTVSPropertyOp26
 70
     1
102
RTVSPropertyOp27
 70
     1
  0
ENDSEC
  0
EOF
