  0
SECTION
  2
HEADER
  9
$ACADVER
  1
AC1015
  9
$ACADMAINTVER
 70
     6
  9
$DWGCODEPAGE
  3
ANSI_1252
  9
$INSBASE
 10
0.0
 20
0.0
 30
0.0
  9
$EXTMIN
 10
0.0
 20
0.0
 30
0.0
  9
$EXTMAX
 10
25.0
 20
35.0
 30
0.0
  9
$LIMMIN
 10
0.0
 20
0.0
  9
$LIMMAX
 10
420.0
 20
297.0
  9
$ORTHOMODE
 70
     0
  9
$REGENMODE
 70
     1
  9
$FILLMODE
 70
     1
  9
$QTEXTMODE
 70
     0
  9
$MIRRTEXT
 70
     1
  9
$LTSCALE
 40
4.2
  9
$ATTMODE
 70
     1
  9
$TEXTSIZE
 40
2.5
  9
$TRACEWID
 40
1.0
  9
$TEXTSTYLE
  7
Standard
  9
$CLAYER
  8
0
  9
$CELTYPE
  6
ByLayer
  9
$CECOLOR
 62
   256
  9
$CELTSCALE
 40
1.0
  9
$DISPSILH
 70
     0
  9
$DIMSCALE
 40
1.0
  9
$DIMASZ
 40
2.5
  9
$DIMEXO
 40
0.625
  9
$DIMDLI
 40
3.75
  9
$DIMRND
 40
0.0
  9
$DIMDLE
 40
0.0
  9
$DIMEXE
 40
1.25
  9
$DIMTP
 40
0.0
  9
$DIMTM
 40
0.0
  9
$DIMTXT
 40
2.5
  9
$DIMCEN
 40
2.5
  9
$DIMTSZ
 40
0.0
  9
$DIMTOL
 70
     0
  9
$DIMLIM
 70
     0
  9
$DIMTIH
 70
     0
  9
$DIMTOH
 70
     0
  9
$DIMSE1
 70
     0
  9
$DIMSE2
 70
     0
  9
$DIMTAD
 70
     1
  9
$DIMZIN
 70
     8
  9
$DIMBLK
  1

  9
$DIMASO
 70
     1
  9
$DIMSHO
 70
     1
  9
$DIMPOST
  1

  9
$DIMAPOST
  1

  9
$DIMALT
 70
     0
  9
$DIMALTD
 70
     3
  9
$DIMALTF
 40
0.03937007874016
  9
$DIMLFAC
 40
1.0
  9
$DIMTOFL
 70
     1
  9
$DIMTVP
 40
0.0
  9
$DIMTIX
 70
     0
  9
$DIMSOXD
 70
     0
  9
$DIMSAH
 70
     0
  9
$DIMBLK1
  1

  9
$DIMBLK2
  1

  9
$DIMSTYLE
  2
ISO-25
  9
$DIMCLRD
 70
     0
  9
$DIMCLRE
 70
     0
  9
$DIMCLRT
 70
     0
  9
$DIMTFAC
 40
1.0
  9
$DIMGAP
 40
0.625
  9
$DIMJUST
 70
     0
  9
$DIMSD1
 70
     0
  9
$DIMSD2
 70
     0
  9
$DIMTOLJ
 70
     0
  9
$DIMTZIN
 70
     8
  9
$DIMALTZ
 70
     0
  9
$DIMALTTZ
 70
     0
  9
$DIMUPT
 70
     0
  9
$DIMDEC
 70
     2
  9
$DIMTDEC
 70
     2
  9
$DIMALTU
 70
     2
  9
$DIMALTTD
 70
     3
  9
$DIMTXSTY
  7
Standard
  9
$DIMAUNIT
 70
     0
  9
$DIMADEC
 70
     0
  9
$DIMALTRND
 40
0.0
  9
$DIMAZIN
 70
     0
  9
$DIMDSEP
 70
    44
  9
$DIMATFIT
 70
     3
  9
$DIMFRAC
 70
     0
  9
$DIMLDRBLK
  1

  9
$DIMLUNIT
 70
     2
  9
$DIMLWD
 70
    -2
  9
$DIMLWE
 70
    -2
  9
$DIMTMOVE
 70
     0
  9
$LUNITS
 70
     2
  9
$LUPREC
 70
     4
  9
$SKETCHINC
 40
1.0
  9
$FILLETRAD
 40
10.0
  9
$AUNITS
 70
     0
  9
$AUPREC
 70
     0
  9
$MENU
  1
.
  9
$ELEVATION
 40
0.0
  9
$PELEVATION
 40
0.0
  9
$THICKNESS
 40
0.0
  9
$LIMCHECK
 70
     0
  9
$CHAMFERA
 40
10.0
  9
$CHAMFERB
 40
10.0
  9
$CHAMFERC
 40
20.0
  9
$CHAMFERD
 40
0.0
  9
$SKPOLY
 70
     0
  9
$TDCREATE
 40
2458578.176388889
  9
$TDUCREATE
 40
2458578.093055556
  9
$TDUPDATE
 40
2458578.179861111
  9
$TDUUPDATE
 40
2458578.096527778
  9
$TDINDWG
 40
0.0000000116
  9
$TDUSRTIMER
 40
0.0000000116
  9
$USRTIMER
 70
     1
  9
$ANGBASE
 50
0.0
  9
$ANGDIR
 70
     0
  9
$PDMODE
 70
     0
  9
$PDSIZE
 40
0.0
  9
$PLINEWID
 40
0.0
  9
$SPLFRAME
 70
     0
  9
$SPLINETYPE
 70
     6
  9
$SPLINESEGS
 70
     8
  9
$HANDSEED
  5
E23
  9
$SURFTAB1
 70
     6
  9
$SURFTAB2
 70
     6
  9
$SURFTYPE
 70
     6
  9
$SURFU
 70
     6
  9
$SURFV
 70
     6
  9
$UCSBASE
  2

  9
$UCSNAME
  2

  9
$UCSORG
 10
0.0
 20
0.0
 30
0.0
  9
$UCSXDIR
 10
1.0
 20
0.0
 30
0.0
  9
$UCSYDIR
 10
0.0
 20
1.0
 30
0.0
  9
$UCSORTHOREF
  2

  9
$UCSORTHOVIEW
 70
     0
  9
$UCSORGTOP
 10
0.0
 20
0.0
 30
0.0
  9
$UCSORGBOTTOM
 10
0.0
 20
0.0
 30
0.0
  9
$UCSORGLEFT
 10
0.0
 20
0.0
 30
0.0
  9
$UCSORGRIGHT
 10
0.0
 20
0.0
 30
0.0
  9
$UCSORGFRONT
 10
0.0
 20
0.0
 30
0.0
  9
$UCSORGBACK
 10
0.0
 20
0.0
 30
0.0
  9
$PUCSBASE
  2

  9
$PUCSNAME
  2

  9
$PUCSORG
 10
0.0
 20
0.0
 30
0.0
  9
$PUCSXDIR
 10
1.0
 20
0.0
 30
0.0
  9
$PUCSYDIR
 10
0.0
 20
1.0
 30
0.0
  9
$PUCSORTHOREF
  2

  9
$PUCSORTHOVIEW
 70
     0
  9
$PUCSORGTOP
 10
0.0
 20
0.0
 30
0.0
  9
$PUCSORGBOTTOM
 10
0.0
 20
0.0
 30
0.0
  9
$PUCSORGLEFT
 10
0.0
 20
0.0
 30
0.0
  9
$PUCSORGRIGHT
 10
0.0
 20
0.0
 30
0.0
  9
$PUCSORGFRONT
 10
0.0
 20
0.0
 30
0.0
  9
$PUCSORGBACK
 10
0.0
 20
0.0
 30
0.0
  9
$USERI1
 70
     0
  9
$USERI2
 70
     0
  9
$USERI3
 70
     0
  9
$USERI4
 70
     0
  9
$USERI5
 70
     0
  9
$USERR1
 40
0.0
  9
$USERR2
 40
0.0
  9
$USERR3
 40
0.0
  9
$USERR4
 40
0.0
  9
$USERR5
 40
0.0
  9
$WORLDVIEW
 70
     1
  9
$SHADEDGE
 70
     3
  9
$SHADEDIF
 70
    70
  9
$TILEMODE
 70
     1
  9
$MAXACTVP
 70
    64
  9
$PINSBASE
 10
0.0
 20
0.0
 30
0.0
  9
$PLIMCHECK
 70
     0
  9
$PEXTMIN
 10
1.000000000000000E+20
 20
1.000000000000000E+20
 30
1.000000000000000E+20
  9
$PEXTMAX
 10
-1.000000000000000E+20
 20
-1.000000000000000E+20
 30
-1.000000000000000E+20
  9
$PLIMMIN
 10
0.0
 20
0.0
  9
$PLIMMAX
 10
420.0
 20
297.0
  9
$UNITMODE
 70
     0
  9
$VISRETAIN
 70
     1
  9
$PLINEGEN
 70
     0
  9
$PSLTSCALE
 70
     1
  9
$TREEDEPTH
 70
  3020
  9
$CMLSTYLE
  2
Standard
  9
$CMLJUST
 70
     0
  9
$CMLSCALE
 40
20.0
  9
$PROXYGRAPHICS
 70
     1
  9
$MEASUREMENT
 70
     1
  9
$CELWEIGHT
370
    -1
  9
$ENDCAPS
280
     0
  9
$JOINSTYLE
280
     0
  9
$LWDISPLAY
290
     0
  9
$INSUNITS
 70
     4
  9
$HYPERLINKBASE
  1

  9
$STYLESHEET
  1

  9
$XEDIT
290
     1
  9
$CEPSNTYPE
380
     0
  9
$PSTYLEMODE
290
     1
  9
$FINGERPRINTGUID
  2
{0F8FE248-4FDC-4B17-9E73-DC5E9FBEEAC8}
  9
$VERSIONGUID
  2
{FAEB1C32-E019-11D5-929B-00C0DF256EC4}
  9
$EXTNAMES
290
     1
  9
$PSVPSCALE
 40
0.0
  9
$OLESTARTUP
290
     0
  0
ENDSEC
  0
SECTION
  2
CLASSES
  0
CLASS
  1
ACDBDICTIONARYWDFLT
  2
AcDbDictionaryWithDefault
  3
ObjectDBX Classes
 90
        0
280
     0
281
     0
  0
CLASS
  1
VISUALSTYLE
  2
AcDbVisualStyle
  3
ObjectDBX Classes
 90
     4095
280
     0
281
     0
  0
CLASS
  1
MATERIAL
  2
AcDbMaterial
  3
ObjectDBX Classes
 90
     1153
280
     0
281
     0
  0
CLASS
  1
SCALE
  2
AcDbScale
  3
ObjectDBX Classes
 90
     1153
280
     0
281
     0
  0
CLASS
  1
DICTIONARYVAR
  2
AcDbDictionaryVar
  3
ObjectDBX Classes
 90
        0
280
     0
281
     0
  0
CLASS
  1
ACDBPLACEHOLDER
  2
AcDbPlaceHolder
  3
ObjectDBX Classes
 90
        0
280
     0
281
     0
  0
CLASS
  1
LAYOUT
  2
AcDbLayout
  3
ObjectDBX Classes
 90
        0
280
     0
281
     0
  0
ENDSEC
  0
SECTION
  2
TABLES
  0
TABLE
  2
VPORT
  5
8
330
0
100
AcDbSymbolTable
 70
     1
  0
VPORT
  5
29
330
8
100
AcDbSymbolTableRecord
100
AcDbViewportTableRecord
  2
*Active
 70
     0
 10
0.0
 20
0.0
 11
1.0
 21
1.0
 12
11.26
 22
4.5
 13
0.0
 23
0.0
 14
10.0
 24
10.0
 15
10.0
 25
10.0
 16
0.0
 26
0.0
 36
1.0
 17
0.0
 27
0.0
 37
0.0
 40
9.0
 41
2.503333333333333
 42
50.0
 43
0.0
 44
0.0
 50
0.0
 51
0.0
 71
     0
 72
   100
 73
     1
 74
     3
 75
     0
 76
     0
 77
     0
 78
     0
281
     0
 65
     1
110
0.0
120
0.0
130
0.0
111
1.0
121
0.0
131
0.0
112
0.0
122
1.0
132
0.0
 79
     0
146
0.0
  0
ENDTAB
  0
TABLE
  2
LTYPE
  5
5
330
0
100
AcDbSymbolTable
 70
    10
  0
LTYPE
  5
14
330
5
100
AcDbSymbolTableRecord
100
AcDbLinetypeTableRecord
  2
ByBlock
 70
     0
  3

 72
    65
 73
     0
 40
0.0
  0
LTYPE
  5
15
330
5
100
AcDbSymbolTableRecord
100
AcDbLinetypeTableRecord
  2
ByLayer
 70
     0
  3

 72
    65
 73
     0
 40
0.0
  0
LTYPE
  5
16
330
5
100
AcDbSymbolTableRecord
100
AcDbLinetypeTableRecord
  2
Continuous
 70
     0
  3
Solid line
 72
    65
 73
     0
 40
0.0
  0
LTYPE
  5
45
330
5
100
AcDbSymbolTableRecord
100
AcDbLinetypeTableRecord
  2
phl_thick
 70
     0
  3
THICK
 72
    65
 73
     0
 40
0.0
  0
LTYPE
  5
4DA
330
5
100
AcDbSymbolTableRecord
100
AcDbLinetypeTableRecord
  2
CUT
 70
     0
  3
THICK
 72
    65
 73
     0
 40
0.0
  0
LTYPE
  5
4E1
330
5
100
AcDbSymbolTableRecord
100
AcDbLinetypeTableRecord
  2
NOCUT
 70
     0
  3
THICK
 72
    65
 73
     0
 40
0.0
  0
LTYPE
  5
4E8
330
5
100
AcDbSymbolTableRecord
100
AcDbLinetypeTableRecord
  2
SK1
 70
     0
  3
THICK
 72
    65
 73
     0
 40
0.0
  0
LTYPE
  5
4F0
330
5
100
AcDbSymbolTableRecord
100
AcDbLinetypeTableRecord
  2
ls_SK2
 70
     0
  3
THIN
 72
    65
 73
     0
 40
0.0
  0
LTYPE
  5
59C
330
5
100
AcDbSymbolTableRecord
100
AcDbLinetypeTableRecord
  2
ls_2
 70
     0
  3
THIN
 72
    65
 73
     0
 40
0.0
  0
LTYPE
  5
6ED
330
5
100
AcDbSymbolTableRecord
100
AcDbLinetypeTableRecord
  2
ls_SK1
 70
     0
  3
THICK
 72
    65
 73
     0
 40
0.0
  0
LTYPE
  5
727
330
5
100
AcDbSymbolTableRecord
100
AcDbLinetypeTableRecord
  2
LONGDASH_DASH
 70
     0
  3
THIN_DASHDOT
 72
    65
 73
     4
 40
0.85
 49
0.4
 74
     0
 49
-0.2
 74
     0
 49
0.05
 74
     0
 49
-0.2
 74
     0
  0
LTYPE
  5
72C
330
5
100
AcDbSymbolTableRecord
100
AcDbLinetypeTableRecord
  2
ls1
 70
     0
  3
THICK
 72
    65
 73
     0
 40
0.0
  0
ENDTAB
  0
TABLE
  2
LAYER
  5
2
330
0
100
AcDbSymbolTable
 70
    10
  0
LAYER
  5
10
330
2
100
AcDbSymbolTableRecord
100
AcDbLayerTableRecord
  2
0
 70
     0
 62
     7
  6
Continuous
370
    -3
390
F
  0
LAYER
  5
44
330
2
100
AcDbSymbolTableRecord
100
AcDbLayerTableRecord
  2
1
 70
     0
 62
4
  6
CONTINUOUS
370
50
370
    -3
390
F
  0
LAYER
  5
4D9
330
2
100
AcDbSymbolTableRecord
100
AcDbLayerTableRecord
  2
CUT
 70
     0
 62
1
  6
CONTINUOUS
370
25
370
    -3
390
F
  0
LAYER
  5
4E0
330
2
100
AcDbSymbolTableRecord
100
AcDbLayerTableRecord
  2
NOCUT
 70
     0
 62
7
  6
CONTINUOUS
370
25
370
    -3
390
F
  0
LAYER
  5
4E7
330
2
100
AcDbSymbolTableRecord
100
AcDbLayerTableRecord
  2
SK1
 70
     0
 62
4
  6
CONTINUOUS
370
50
370
    -3
390
F
  0
LAYER
  5
4EF
330
2
100
AcDbSymbolTableRecord
100
AcDbLayerTableRecord
  2
SK2
 70
     0
 62
7
  6
CONTINUOUS
370
25
370
    -3
390
F
  0
LAYER
  5
59B
330
2
100
AcDbSymbolTableRecord
100
AcDbLayerTableRecord
  2
2
 70
     0
 62
7
  6
CONTINUOUS
370
25
370
    -3
390
F
  0
LAYER
  5
726
330
2
100
AcDbSymbolTableRecord
100
AcDbLayerTableRecord
  2
4
 70
     0
 62
2
  6
LONGDASH_DASH
370
25
370
    -3
390
F
  0
LAYER
  5
729
330
2
100
AcDbSymbolTableRecord
100
AcDbLayerTableRecord
  2
SK4
 70
     0
 62
2
  6
LONGDASH_DASH
370
25
370
    -3
390
F
  0
LAYER
  5
72B
330
2
100
AcDbSymbolTableRecord
100
AcDbLayerTableRecord
  2
SK6
 70
     0
 62
5
  6
CONTINUOUS
370
25
370
    -3
390
F
  0
ENDTAB
  0
TABLE
  2
STYLE
  5
3
330
0
100
AcDbSymbolTable
 70
     1
  0
STYLE
  5
11
330
3
100
AcDbSymbolTableRecord
100
AcDbTextStyleTableRecord
  2
Standard
 70
     0
 40
0.0
 41
1.0
 50
0.0
 71
     0
 42
2.5
  3
Monospac821 BT
  4

  0
ENDTAB
  0
TABLE
  2
VIEW
  5
6
330
0
100
AcDbSymbolTable
 70
     0
  0
ENDTAB
  0
TABLE
  2
UCS
  5
7
330
0
100
AcDbSymbolTable
 70
     0
  0
ENDTAB
  0
TABLE
  2
APPID
  5
9
330
0
100
AcDbSymbolTable
 70
     2
  0
APPID
  5
12
330
9
100
AcDbSymbolTableRecord
100
AcDbRegAppTableRecord
  2
ACAD
 70
     0
  0
APPID
  5
3F
330
9
100
AcDbSymbolTableRecord
100
AcDbRegAppTableRecord
  2
ccLab
 70
     0
  0
ENDTAB
  0
TABLE
  2
DIMSTYLE
  5
A
330
0
100
AcDbSymbolTable
 70
     1
100
AcDbDimStyleTable
  0
DIMSTYLE
105
27
330
A
100
AcDbSymbolTableRecord
100
AcDbDimStyleTableRecord
  2
ISO-25
 70
     0
 41
2.5
 42
0.625
 43
3.75
 44
1.25
 73
     0
 74
     0
 77
     1
 78
     8
140
2.5
141
2.5
143
0.03937007874016
147
0.625
171
     3
172
     1
271
     2
272
     2
274
     3
278
    44
283
     0
284
     8
340
11
  0
ENDTAB
  0
TABLE
  2
BLOCK_RECORD
  5
1
330
0
100
AcDbSymbolTable
 70
     2
  0
BLOCK_RECORD
  5
1F
330
1
100
AcDbSymbolTableRecord
100
AcDbBlockTableRecord
  2
*Model_Space
340
22
  0
BLOCK_RECORD
  5
1B
330
1
100
AcDbSymbolTableRecord
100
AcDbBlockTableRecord
  2
*Paper_Space
340
1E
  0
BLOCK_RECORD
  5
23
330
1
100
AcDbSymbolTableRecord
100
AcDbBlockTableRecord
  2
*Paper_Space0
340
26
  0
ENDTAB
  0
ENDSEC
  0
SECTION
  2
BLOCKS
  0
BLOCK
  5
20
330
1F
100
AcDbEntity
  8
0
100
AcDbBlockBegin
  2
*Model_Space
 70
     0
 10
0.0
 20
0.0
 30
0.0
  3
*Model_Space
  1

  0
ENDBLK
  5
21
330
1F
100
AcDbEntity
  8
0
100
AcDbBlockEnd
  0
BLOCK
  5
1C
330
1B
100
AcDbEntity
 67
     1
  8
0
100
AcDbBlockBegin
  2
*Paper_Space
 70
     0
 10
0.0
 20
0.0
 30
0.0
  3
*Paper_Space
  1

  0
ENDBLK
  5
1D
330
1B
100
AcDbEntity
 67
     1
  8
0
100
AcDbBlockEnd
  0
BLOCK
  5
24
330
23
100
AcDbEntity
  8
0
100
AcDbBlockBegin
  2
*Paper_Space0
 70
     0
 10
0.0
 20
0.0
 30
0.0
  3
*Paper_Space0
  1

  0
ENDBLK
  5
25
330
23
100
AcDbEntity
  8
0
100
AcDbBlockEnd
  0
ENDSEC
  0
SECTION
  2
ENTITIES
  0
LINE
  5
736
330
1F
100
AcDbEntity
  8
1
  6
CONTINUOUS
370
50
 62
4
100
AcDbLine
 10
59.83052799999999
 20
-0.358099
 30
0.0
 11
59.830307
 21
-0.335587
 31
0.0
  0
LINE
  5
737
330
1F
100
AcDbEntity
  8
1
  6
CONTINUOUS
370
50
 62
4
100
AcDbLine
 10
59.47998
 20
0.851536
 30
0.0
 11
59.479809
 21
0.8666159999999999
 31
0.0
  0
LINE
  5
738
330
1F
100
AcDbEntity
  8
1
  6
CONTINUOUS
370
50
 62
4
100
AcDbLine
 10
38.82592
 20
-0.595402
 30
0.0
 11
38.825634
 21
-0.574077
 31
0.0
  0
LINE
  5
739
330
1F
100
AcDbEntity
  8
1
  6
CONTINUOUS
370
50
 62
4
100
AcDbLine
 10
59.825821
 20
-0.6497379999999999
 30
0.0
 11
59.824848
 21
-0.582592
 31
0.0
  0
LINE
  5
73A
330
1F
100
AcDbEntity
  8
1
  6
CONTINUOUS
370
50
 62
4
100
AcDbLine
 10
59.830307
 20
-0.335587
 30
0.0
 11
59.829697
 21
-0.313141
 31
0.0
  0
LINE
  5
73B
330
1F
100
AcDbEntity
  8
1
  6
CONTINUOUS
370
50
 62
4
100
AcDbLine
 10
59.828136
 20
-0.716631
 30
0.0
 11
59.825821
 21
-0.6497379999999999
 31
0.0
  0
LINE
  5
73C
330
1F
100
AcDbEntity
  8
1
  6
CONTINUOUS
370
50
 62
4
100
AcDbLine
 10
59.479992
 20
0.073444
 30
0.0
 11
59.479332
 21
0.091059
 31
0.0
  0
LINE
  5
73D
330
1F
100
AcDbEntity
  8
1
  6
CONTINUOUS
370
50
 62
4
100
AcDbLine
 10
59.829697
 20
-0.313141
 30
0.0
 11
59.828705
 21
-0.290811
 31
0.0
  0
LINE
  5
73E
330
1F
100
AcDbEntity
  8
1
  6
CONTINUOUS
370
50
 62
4
100
AcDbLine
 10
59.831799
 20
-0.783111
 30
0.0
 11
59.828136
 21
-0.716631
 31
0.0
  0
LINE
  5
73F
330
1F
100
AcDbEntity
  8
1
  6
CONTINUOUS
370
50
 62
4
100
AcDbLine
 10
59.828705
 20
-0.290811
 30
0.0
 11
59.827347
 21
-0.268671
 31
0.0
  0
LINE
  5
740
330
1F
100
AcDbEntity
  8
1
  6
CONTINUOUS
370
50
 62
4
100
AcDbLine
 10
38.826096
 20
1.375727
 30
0.0
 11
38.825531
 21
1.384557
 31
0.0
  0
LINE
  5
741
330
1F
100
AcDbEntity
  8
1
  6
CONTINUOUS
370
50
 62
4
100
AcDbLine
 10
59.479809
 20
0.8666159999999999
 30
0.0
 11
59.478725
 21
0.8825489999999999
 31
0.0
  0
LINE
  5
742
330
1F
100
AcDbEntity
  8
1
  6
CONTINUOUS
370
50
 62
4
100
AcDbLine
 10
59.836803
 20
-0.848775
 30
0.0
 11
59.831799
 21
-0.783111
 31
0.0
  0
LINE
  5
743
330
1F
100
AcDbEntity
  8
1
  6
CONTINUOUS
370
50
 62
4
100
AcDbLine
 10
59.827347
 20
-0.268671
 30
0.0
 11
59.825638
 21
-0.246799
 31
0.0
  0
LINE
  5
744
330
1F
100
AcDbEntity
  8
1
  6
CONTINUOUS
370
50
 62
4
100
AcDbLine
 10
59.479332
 20
0.091059
 30
0.0
 11
59.477863
 21
0.108019
 31
0.0
  0
LINE
  5
745
330
1F
100
AcDbEntity
  8
1
  6
CONTINUOUS
370
50
 62
4
100
AcDbLine
 10
59.825638
 20
-0.246799
 30
0.0
 11
59.823589
 21
-0.22523
 31
0.0
  0
LINE
  5
746
330
1F
100
AcDbEntity
  8
1
  6
CONTINUOUS
370
50
 62
4
100
AcDbLine
 10
59.843098
 20
-0.913009
 30
0.0
 11
59.836803
 21
-0.848775
 31
0.0
  0
LINE
  5
747
330
1F
100
AcDbEntity
  8
1
  6
CONTINUOUS
370
50
 62
4
100
AcDbLine
 10
59.478725
 20
0.8825489999999999
 30
0.0
 11
59.476772
 21
0.899249
 31
0.0
  0
LINE
  5
748
330
1F
100
AcDbEntity
  8
1
  6
CONTINUOUS
370
50
 62
4
100
AcDbLine
 10
59.850647
 20
-0.975665
 30
0.0
 11
59.843098
 21
-0.913009
 31
0.0
  0
LINE
  5
749
330
1F
100
AcDbEntity
  8
1
  6
CONTINUOUS
370
50
 62
4
100
AcDbLine
 10
38.828609
 20
-0.61641
 30
0.0
 11
38.82592
 21
-0.595402
 31
0.0
  0
LINE
  5
74A
330
1F
100
AcDbEntity
  8
1
  6
CONTINUOUS
370
50
 62
4
100
AcDbLine
 10
59.477863
 20
0.108019
 30
0.0
 11
59.47562
 21
0.124306
 31
0.0
  0
LINE
  5
74B
330
1F
100
AcDbEntity
  8
1
  6
CONTINUOUS
370
50
 62
4
100
AcDbLine
 10
59.85942799999999
 20
-1.036606
 30
0.0
 11
59.850647
 21
-0.975665
 31
0.0
  0
LINE
  5
74C
330
1F
100
AcDbEntity
  8
1
  6
CONTINUOUS
370
50
 62
4
100
AcDbLine
 10
59.476772
 20
0.899249
 30
0.0
 11
59.473995
 21
0.916634
 31
0.0
  0
LINE
  5
74D
330
1F
100
AcDbEntity
  8
1
  6
CONTINUOUS
370
50
 62
4
100
AcDbLine
 10
59.8694
 20
-1.095698
 30
0.0
 11
59.85942799999999
 21
-1.036606
 31
0.0
  0
LINE
  5
74E
330
1F
100
AcDbEntity
  8
1
  6
CONTINUOUS
370
50
 62
4
100
AcDbLine
 10
59.47562
 20
0.124306
 30
0.0
 11
59.472645
 21
0.1399
 31
0.0
  0
LINE
  5
74F
330
1F
100
AcDbEntity
  8
1
  6
CONTINUOUS
370
50
 62
4
100
AcDbLine
 10
59.880543
 20
-1.152806
 30
0.0
 11
59.8694
 21
-1.095698
 31
0.0
  0
LINE
  5
750
330
1F
100
AcDbEntity
  8
1
  6
CONTINUOUS
370
50
 62
4
100
AcDbLine
 10
59.473995
 20
0.916634
 30
0.0
 11
59.470428
 21
0.934654
 31
0.0
  0
LINE
  5
751
330
1F
100
AcDbEntity
  8
1
  6
CONTINUOUS
370
50
 62
4
100
AcDbLine
 10
59.892796
 20
-1.207711
 30
0.0
 11
59.880543
 21
-1.152806
 31
0.0
  0
LINE
  5
752
330
1F
100
AcDbEntity
  8
1
  6
CONTINUOUS
370
50
 62
4
100
AcDbLine
 10
59.470428
 20
0.934654
 30
0.0
 11
59.46607599999999
 21
0.953376
 31
0.0
  0
LINE
  5
753
330
1F
100
AcDbEntity
  8
1
  6
CONTINUOUS
370
50
 62
4
100
AcDbLine
 10
38.833527
 20
-0.636869
 30
0.0
 11
38.828609
 21
-0.61641
 31
0.0
  0
LINE
  5
754
330
1F
100
AcDbEntity
  8
1
  6
CONTINUOUS
370
50
 62
4
100
AcDbLine
 10
59.472645
 20
0.1399
 30
0.0
 11
59.468948
 21
0.154856
 31
0.0
  0
LINE
  5
755
330
1F
100
AcDbEntity
  8
1
  6
CONTINUOUS
370
50
 62
4
100
AcDbLine
 10
59.90605499999999
 20
-1.260019
 30
0.0
 11
59.892796
 21
-1.207711
 31
0.0
  0
LINE
  5
756
330
1F
100
AcDbEntity
  8
1
  6
CONTINUOUS
370
50
 62
4
100
AcDbLine
 10
59.46607599999999
 20
0.953376
 30
0.0
 11
59.460949
 21
0.9727699999999999
 31
0.0
  0
LINE
  5
757
330
1F
100
AcDbEntity
  8
1
  6
CONTINUOUS
370
50
 62
4
100
AcDbLine
 10
59.920269
 20
-1.309627
 30
0.0
 11
59.90605499999999
 21
-1.260019
 31
0.0
  0
LINE
  5
758
330
1F
100
AcDbEntity
  8
1
  6
CONTINUOUS
370
50
 62
4
100
AcDbLine
 10
59.460949
 20
0.9727699999999999
 30
0.0
 11
59.455067
 21
0.992788
 31
0.0
  0
LINE
  5
759
330
1F
100
AcDbEntity
  8
1
  6
CONTINUOUS
370
50
 62
4
100
AcDbLine
 10
59.468948
 20
0.154856
 30
0.0
 11
59.46453899999999
 21
0.169222
 31
0.0
  0
LINE
  5
75A
330
1F
100
AcDbEntity
  8
1
  6
CONTINUOUS
370
50
 62
4
100
AcDbLine
 10
38.828926
 20
1.366684
 30
0.0
 11
38.826096
 21
1.375727
 31
0.0
  0
LINE
  5
75B
330
1F
100
AcDbEntity
  8
1
  6
CONTINUOUS
370
50
 62
4
100
AcDbLine
 10
59.824009
 20
0.7458429999999999
 30
0.0
 11
59.823803
 21
0.746487
 31
0.0
  0
LINE
  5
75C
330
1F
100
AcDbEntity
  8
1
  6
CONTINUOUS
370
50
 62
4
100
AcDbLine
 10
59.455067
 20
0.992788
 30
0.0
 11
59.44844399999999
 21
1.013388
 31
0.0
  0
LINE
  5
75D
330
1F
100
AcDbEntity
  8
1
  6
CONTINUOUS
370
50
 62
4
100
AcDbLine
 10
59.824619
 20
0.74397
 30
0.0
 11
59.82442099999999
 21
0.7445849999999999
 31
0.0
  0
LINE
  5
75E
330
1F
100
AcDbEntity
  8
1
  6
CONTINUOUS
370
50
 62
4
100
AcDbLine
 10
59.935375
 20
-1.356461
 30
0.0
 11
59.920269
 21
-1.309627
 31
0.0
  0
LINE
  5
75F
330
1F
100
AcDbEntity
  8
1
  6
CONTINUOUS
370
50
 62
4
100
AcDbLine
 10
59.825497
 20
0.741265
 30
0.0
 11
59.824814
 21
0.7433719999999999
 31
0.0
  0
LINE
  5
760
330
1F
100
AcDbEntity
  8
1
  6
CONTINUOUS
370
50
 62
4
100
AcDbLine
 10
59.835842
 20
0.7094239999999999
 30
0.0
 11
59.83100899999999
 21
0.7243069999999999
 31
0.0
  0
LINE
  5
761
330
1F
100
AcDbEntity
  8
1
  6
CONTINUOUS
370
50
 62
4
100
AcDbLine
 10
59.891693
 20
0.537534
 30
0.0
 11
59.879364
 21
0.575484
 31
0.0
  0
LINE
  5
762
330
1F
100
AcDbEntity
  8
1
  6
CONTINUOUS
370
50
 62
4
100
AcDbLine
 10
59.967751
 20
0.303454
 30
0.0
 11
59.950848
 21
0.355481
 31
0.0
  0
LINE
  5
763
330
1F
100
AcDbEntity
  8
1
  6
CONTINUOUS
370
50
 62
4
100
AcDbLine
 10
59.879364
 20
0.575484
 30
0.0
 11
59.868191
 21
0.609874
 31
0.0
  0
LINE
  5
764
330
1F
100
AcDbEntity
  8
1
  6
CONTINUOUS
370
50
 62
4
100
AcDbLine
 10
59.858219
 20
0.6405609999999999
 30
0.0
 11
59.849483
 21
0.6674479999999999
 31
0.0
  0
LINE
  5
765
330
1F
100
AcDbEntity
  8
1
  6
CONTINUOUS
370
50
 62
4
100
AcDbLine
 10
59.83100899999999
 20
0.7243069999999999
 30
0.0
 11
59.82756
 21
0.734922
 31
0.0
  0
LINE
  5
766
330
1F
100
AcDbEntity
  8
1
  6
CONTINUOUS
370
50
 62
4
100
AcDbLine
 10
59.824215
 20
0.745209
 30
0.0
 11
59.824009
 21
0.7458429999999999
 31
0.0
  0
LINE
  5
767
330
1F
100
AcDbEntity
  8
1
  6
CONTINUOUS
370
50
 62
4
100
AcDbLine
 10
59.849483
 20
0.6674479999999999
 30
0.0
 11
59.842014
 21
0.690435
 31
0.0
  0
LINE
  5
768
330
1F
100
AcDbEntity
  8
1
  6
CONTINUOUS
370
50
 62
4
100
AcDbLine
 10
59.985355
 20
0.249275
 30
0.0
 11
59.967751
 21
0.303454
 31
0.0
  0
LINE
  5
769
330
1F
100
AcDbEntity
  8
1
  6
CONTINUOUS
370
50
 62
4
100
AcDbLine
 10
59.950848
 20
0.355481
 30
0.0
 11
59.934704
 21
0.405166
 31
0.0
  0
LINE
  5
76A
330
1F
100
AcDbEntity
  8
1
  6
CONTINUOUS
370
50
 62
4
100
AcDbLine
 10
59.905067
 20
0.496374
 30
0.0
 11
59.891693
 21
0.537534
 31
0.0
  0
LINE
  5
76B
330
1F
100
AcDbEntity
  8
1
  6
CONTINUOUS
370
50
 62
4
100
AcDbLine
 10
60.0
 20
0.204204
 30
0.0
 11
59.985355
 21
0.249275
 31
0.0
  0
LINE
  5
76C
330
1F
100
AcDbEntity
  8
1
  6
CONTINUOUS
370
50
 62
4
100
AcDbLine
 10
59.919422
 20
0.452196
 30
0.0
 11
59.905067
 21
0.496374
 31
0.0
  0
LINE
  5
76D
330
1F
100
AcDbEntity
  8
1
  6
CONTINUOUS
370
50
 62
4
100
AcDbLine
 10
59.934704
 20
0.405166
 30
0.0
 11
59.919422
 21
0.452196
 31
0.0
  0
LINE
  5
76E
330
1F
100
AcDbEntity
  8
1
  6
CONTINUOUS
370
50
 62
4
100
AcDbLine
 10
59.868191
 20
0.609874
 30
0.0
 11
59.858219
 21
0.6405609999999999
 31
0.0
  0
LINE
  5
76F
330
1F
100
AcDbEntity
  8
1
  6
CONTINUOUS
370
50
 62
4
100
AcDbLine
 10
59.842014
 20
0.690435
 30
0.0
 11
59.835842
 21
0.7094239999999999
 31
0.0
  0
LINE
  5
770
330
1F
100
AcDbEntity
  8
1
  6
CONTINUOUS
370
50
 62
4
100
AcDbLine
 10
59.82756
 20
0.734922
 30
0.0
 11
59.825497
 21
0.741265
 31
0.0
  0
LINE
  5
771
330
1F
100
AcDbEntity
  8
1
  6
CONTINUOUS
370
50
 62
4
100
AcDbLine
 10
59.823803
 20
0.746487
 30
0.0
 11
59.823589
 21
0.7471399999999999
 31
0.0
  0
LINE
  5
772
330
1F
100
AcDbEntity
  8
1
  6
CONTINUOUS
370
50
 62
4
100
AcDbLine
 10
59.824818
 20
0.7433639999999999
 30
0.0
 11
59.824619
 21
0.74397
 31
0.0
  0
LINE
  5
773
330
1F
100
AcDbEntity
  8
1
  6
CONTINUOUS
370
50
 62
4
100
AcDbLine
 10
59.82442099999999
 20
0.7445849999999999
 30
0.0
 11
59.824215
 21
0.745209
 31
0.0
  0
LINE
  5
774
330
1F
100
AcDbEntity
  8
1
  6
CONTINUOUS
370
50
 62
4
100
AcDbLine
 10
59.44844399999999
 20
1.013388
 30
0.0
 11
59.441101
 21
1.034523
 31
0.0
  0
LINE
  5
775
330
1F
100
AcDbEntity
  8
1
  6
CONTINUOUS
370
50
 62
4
100
AcDbLine
 10
38.840485
 20
-0.6567419999999999
 30
0.0
 11
38.833527
 21
-0.636869
 31
0.0
  0
LINE
  5
776
330
1F
100
AcDbEntity
  8
1
  6
CONTINUOUS
370
50
 62
4
100
AcDbLine
 10
59.951317
 20
-1.400416
 30
0.0
 11
59.935375
 21
-1.356461
 31
0.0
  0
LINE
  5
777
330
1F
100
AcDbEntity
  8
1
  6
CONTINUOUS
370
50
 62
4
100
AcDbLine
 10
59.46453899999999
 20
0.169222
 30
0.0
 11
59.459431
 21
0.182976
 31
0.0
  0
LINE
  5
778
330
1F
100
AcDbEntity
  8
1
  6
CONTINUOUS
370
50
 62
4
100
AcDbLine
 10
59.441101
 20
1.034523
 30
0.0
 11
59.433048
 21
1.056148
 31
0.0
  0
LINE
  5
779
330
1F
100
AcDbEntity
  8
1
  6
CONTINUOUS
370
50
 62
4
100
AcDbLine
 10
59.433048
 20
1.056148
 30
0.0
 11
59.424305
 21
1.078219
 31
0.0
  0
LINE
  5
77A
330
1F
100
AcDbEntity
  8
1
  6
CONTINUOUS
370
50
 62
4
100
AcDbLine
 10
59.349525
 20
1.256732
 30
0.0
 11
59.33901599999999
 21
1.28262
 31
0.0
  0
LINE
  5
77B
330
1F
100
AcDbEntity
  8
1
  6
CONTINUOUS
370
50
 62
4
100
AcDbLine
 10
59.967999
 20
-1.441324
 30
0.0
 11
59.951317
 21
-1.400416
 31
0.0
  0
LINE
  5
77C
330
1F
100
AcDbEntity
  8
1
  6
CONTINUOUS
370
50
 62
4
100
AcDbLine
 10
59.360146
 20
1.230808
 30
0.0
 11
59.349525
 21
1.256732
 31
0.0
  0
LINE
  5
77D
330
1F
100
AcDbEntity
  8
1
  6
CONTINUOUS
370
50
 62
4
100
AcDbLine
 10
59.370872
 20
1.204848
 30
0.0
 11
59.360146
 21
1.230808
 31
0.0
  0
LINE
  5
77E
330
1F
100
AcDbEntity
  8
1
  6
CONTINUOUS
370
50
 62
4
100
AcDbLine
 10
59.38171
 20
1.178855
 30
0.0
 11
59.370872
 21
1.204848
 31
0.0
  0
LINE
  5
77F
330
1F
100
AcDbEntity
  8
1
  6
CONTINUOUS
370
50
 62
4
100
AcDbLine
 10
59.424305
 20
1.078219
 30
0.0
 11
59.41489
 21
1.10069
 31
0.0
  0
LINE
  5
780
330
1F
100
AcDbEntity
  8
1
  6
CONTINUOUS
370
50
 62
4
100
AcDbLine
 10
59.392658
 20
1.15283
 30
0.0
 11
59.38171
 21
1.178855
 31
0.0
  0
LINE
  5
781
330
1F
100
AcDbEntity
  8
1
  6
CONTINUOUS
370
50
 62
4
100
AcDbLine
 10
59.403717
 20
1.126774
 30
0.0
 11
59.392658
 21
1.15283
 31
0.0
  0
LINE
  5
782
330
1F
100
AcDbEntity
  8
1
  6
CONTINUOUS
370
50
 62
4
100
AcDbLine
 10
59.41489
 20
1.10069
 30
0.0
 11
59.403717
 21
1.126774
 31
0.0
  0
LINE
  5
783
330
1F
100
AcDbEntity
  8
1
  6
CONTINUOUS
370
50
 62
4
100
AcDbLine
 10
59.459431
 20
0.182976
 30
0.0
 11
59.453636
 21
0.196097
 31
0.0
  0
LINE
  5
784
330
1F
100
AcDbEntity
  8
1
  6
CONTINUOUS
370
50
 62
4
100
AcDbLine
 10
38.8493
 20
-0.675993
 30
0.0
 11
38.840485
 21
-0.6567419999999999
 31
0.0
  0
LINE
  5
785
330
1F
100
AcDbEntity
  8
1
  6
CONTINUOUS
370
50
 62
4
100
AcDbLine
 10
59.985355
 20
-1.479142
 30
0.0
 11
59.967999
 21
-1.441324
 31
0.0
  0
LINE
  5
786
330
1F
100
AcDbEntity
  8
1
  6
CONTINUOUS
370
50
 62
4
100
AcDbLine
 10
59.588879
 20
0.797769
 30
0.0
 11
59.33901599999999
 21
1.28262
 31
0.0
  0
LINE
  5
787
330
1F
100
AcDbEntity
  8
1
  6
CONTINUOUS
370
50
 62
4
100
AcDbLine
 10
59.453636
 20
0.196097
 30
0.0
 11
59.447174
 21
0.208562
 31
0.0
  0
LINE
  5
788
330
1F
100
AcDbEntity
  8
1
  6
CONTINUOUS
370
50
 62
4
100
AcDbLine
 10
38.833847
 20
1.357521
 30
0.0
 11
38.828926
 21
1.366684
 31
0.0
  0
LINE
  5
789
330
1F
100
AcDbEntity
  8
1
  6
CONTINUOUS
370
50
 62
4
100
AcDbLine
 10
59.447174
 20
0.208562
 30
0.0
 11
59.44005199999999
 21
0.220349
 31
0.0
  0
LINE
  5
78A
330
1F
100
AcDbEntity
  8
1
  6
CONTINUOUS
370
50
 62
4
100
AcDbLine
 10
38.952023
 20
-0.8311
 30
0.0
 11
38.901443
 21
-0.754683
 31
0.0
  0
LINE
  5
78B
330
1F
100
AcDbEntity
  8
1
  6
CONTINUOUS
370
50
 62
4
100
AcDbLine
 10
38.901443
 20
-0.754683
 30
0.0
 11
38.8493
 21
-0.675993
 31
0.0
  0
LINE
  5
78C
330
1F
100
AcDbEntity
  8
1
  6
CONTINUOUS
370
50
 62
4
100
AcDbLine
 10
39.00156399999999
 20
-0.904974
 30
0.0
 11
38.952023
 21
-0.8311
 31
0.0
  0
LINE
  5
78D
330
1F
100
AcDbEntity
  8
1
  6
CONTINUOUS
370
50
 62
4
100
AcDbLine
 10
39.298058
 20
0.796858
 30
0.0
 11
39.246773
 21
0.871505
 31
0.0
  0
LINE
  5
78E
330
1F
100
AcDbEntity
  8
1
  6
CONTINUOUS
370
50
 62
4
100
AcDbLine
 10
39.050587
 20
-0.976034
 30
0.0
 11
39.00156399999999
 21
-0.904974
 31
0.0
  0
LINE
  5
78F
330
1F
100
AcDbEntity
  8
1
  6
CONTINUOUS
370
50
 62
4
100
AcDbLine
 10
39.350895
 20
0.7203269999999999
 30
0.0
 11
39.298058
 21
0.796858
 31
0.0
  0
LINE
  5
790
330
1F
100
AcDbEntity
  8
1
  6
CONTINUOUS
370
50
 62
4
100
AcDbLine
 10
39.246773
 20
0.871505
 30
0.0
 11
39.196941
 21
0.943284
 31
0.0
  0
LINE
  5
791
330
1F
100
AcDbEntity
  8
1
  6
CONTINUOUS
370
50
 62
4
100
AcDbLine
 10
59.44005199999999
 20
0.220349
 30
0.0
 11
59.432289
 21
0.231438
 31
0.0
  0
LINE
  5
792
330
1F
100
AcDbEntity
  8
1
  6
CONTINUOUS
370
50
 62
4
100
AcDbLine
 10
39.405434
 20
0.642929
 30
0.0
 11
39.350895
 21
0.7203269999999999
 31
0.0
  0
LINE
  5
793
330
1F
100
AcDbEntity
  8
1
  6
CONTINUOUS
370
50
 62
4
100
AcDbLine
 10
39.196941
 20
0.943284
 30
0.0
 11
39.148003
 21
1.011951
 31
0.0
  0
LINE
  5
794
330
1F
100
AcDbEntity
  8
1
  6
CONTINUOUS
370
50
 62
4
100
AcDbLine
 10
39.099396
 20
-1.043721
 30
0.0
 11
39.050587
 21
-0.976034
 31
0.0
  0
LINE
  5
795
330
1F
100
AcDbEntity
  8
1
  6
CONTINUOUS
370
50
 62
4
100
AcDbLine
 10
39.462257
 20
0.565016
 30
0.0
 11
39.405434
 21
0.642929
 31
0.0
  0
LINE
  5
796
330
1F
100
AcDbEntity
  8
1
  6
CONTINUOUS
370
50
 62
4
100
AcDbLine
 10
38.840698
 20
1.348276
 30
0.0
 11
38.833847
 21
1.357521
 31
0.0
  0
LINE
  5
797
330
1F
100
AcDbEntity
  8
1
  6
CONTINUOUS
370
50
 62
4
100
AcDbLine
 10
39.148003
 20
1.011951
 30
0.0
 11
39.099396
 21
1.077263
 31
0.0
  0
LINE
  5
798
330
1F
100
AcDbEntity
  8
1
  6
CONTINUOUS
370
50
 62
4
100
AcDbLine
 10
39.52195
 20
0.486942
 30
0.0
 11
39.462257
 21
0.565016
 31
0.0
  0
LINE
  5
799
330
1F
100
AcDbEntity
  8
1
  6
CONTINUOUS
370
50
 62
4
100
AcDbLine
 10
39.148003
 20
-1.107161
 30
0.0
 11
39.099396
 21
-1.043721
 31
0.0
  0
LINE
  5
79A
330
1F
100
AcDbEntity
  8
1
  6
CONTINUOUS
370
50
 62
4
100
AcDbLine
 10
39.099396
 20
1.077263
 30
0.0
 11
39.050587
 21
1.13895
 31
0.0
  0
LINE
  5
79B
330
1F
100
AcDbEntity
  8
1
  6
CONTINUOUS
370
50
 62
4
100
AcDbLine
 10
59.432289
 20
0.231438
 30
0.0
 11
59.423897
 21
0.241805
 31
0.0
  0
LINE
  5
79C
330
1F
100
AcDbEntity
  8
1
  6
CONTINUOUS
370
50
 62
4
100
AcDbLine
 10
39.585094
 20
0.409059
 30
0.0
 11
39.52195
 21
0.486942
 31
0.0
  0
LINE
  5
79D
330
1F
100
AcDbEntity
  8
1
  6
CONTINUOUS
370
50
 62
4
100
AcDbLine
 10
39.196941
 20
-1.166217
 30
0.0
 11
39.148003
 21
-1.107161
 31
0.0
  0
LINE
  5
79E
330
1F
100
AcDbEntity
  8
1
  6
CONTINUOUS
370
50
 62
4
100
AcDbLine
 10
59.349525
 20
0.321591
 30
0.0
 11
59.33901599999999
 21
0.333886
 31
0.0
  0
LINE
  5
79F
330
1F
100
AcDbEntity
  8
1
  6
CONTINUOUS
370
50
 62
4
100
AcDbLine
 10
39.050587
 20
1.13895
 30
0.0
 11
39.00156399999999
 21
1.19619
 31
0.0
  0
LINE
  5
7A0
330
1F
100
AcDbEntity
  8
1
  6
CONTINUOUS
370
50
 62
4
100
AcDbLine
 10
39.651798
 20
0.332282
 30
0.0
 11
39.585094
 21
0.409059
 31
0.0
  0
LINE
  5
7A1
330
1F
100
AcDbEntity
  8
1
  6
CONTINUOUS
370
50
 62
4
100
AcDbLine
 10
59.360146
 20
0.309461
 30
0.0
 11
59.349525
 21
0.321591
 31
0.0
  0
LINE
  5
7A2
330
1F
100
AcDbEntity
  8
1
  6
CONTINUOUS
370
50
 62
4
100
AcDbLine
 10
59.370872
 20
0.297502
 30
0.0
 11
59.360146
 21
0.309461
 31
0.0
  0
LINE
  5
7A3
330
1F
100
AcDbEntity
  8
1
  6
CONTINUOUS
370
50
 62
4
100
AcDbLine
 10
39.246773
 20
-1.220789
 30
0.0
 11
39.196941
 21
-1.166217
 31
0.0
  0
LINE
  5
7A4
330
1F
100
AcDbEntity
  8
1
  6
CONTINUOUS
370
50
 62
4
100
AcDbLine
 10
59.38171
 20
0.285715
 30
0.0
 11
59.370872
 21
0.297502
 31
0.0
  0
LINE
  5
7A5
330
1F
100
AcDbEntity
  8
1
  6
CONTINUOUS
370
50
 62
4
100
AcDbLine
 10
39.956345
 20
0.044422
 30
0.0
 11
39.949787
 21
0.051545
 31
0.0
  0
LINE
  5
7A6
330
1F
100
AcDbEntity
  8
1
  6
CONTINUOUS
370
50
 62
4
100
AcDbLine
 10
38.8493
 20
1.338986
 30
0.0
 11
38.840698
 21
1.348276
 31
0.0
  0
LINE
  5
7A7
330
1F
100
AcDbEntity
  8
1
  6
CONTINUOUS
370
50
 62
4
100
AcDbLine
 10
59.423897
 20
0.241805
 30
0.0
 11
59.41489
 21
0.25143
 31
0.0
  0
LINE
  5
7A8
330
1F
100
AcDbEntity
  8
1
  6
CONTINUOUS
370
50
 62
4
100
AcDbLine
 10
39.721283
 20
0.2582
 30
0.0
 11
39.651798
 21
0.332282
 31
0.0
  0
LINE
  5
7A9
330
1F
100
AcDbEntity
  8
1
  6
CONTINUOUS
370
50
 62
4
100
AcDbLine
 10
59.392658
 20
0.274106
 30
0.0
 11
59.38171
 21
0.285715
 31
0.0
  0
LINE
  5
7AA
330
1F
100
AcDbEntity
  8
1
  6
CONTINUOUS
370
50
 62
4
100
AcDbLine
 10
39.00156399999999
 20
1.19619
 30
0.0
 11
38.952023
 21
1.248647
 31
0.0
  0
LINE
  5
7AB
330
1F
100
AcDbEntity
  8
1
  6
CONTINUOUS
370
50
 62
4
100
AcDbLine
 10
59.403717
 20
0.262676
 30
0.0
 11
59.392658
 21
0.274106
 31
0.0
  0
LINE
  5
7AC
330
1F
100
AcDbEntity
  8
1
  6
CONTINUOUS
370
50
 62
4
100
AcDbLine
 10
39.963245
 20
0.03733
 30
0.0
 11
39.956345
 21
0.044422
 31
0.0
  0
LINE
  5
7AD
330
1F
100
AcDbEntity
  8
1
  6
CONTINUOUS
370
50
 62
4
100
AcDbLine
 10
59.41489
 20
0.25143
 30
0.0
 11
59.403717
 21
0.262676
 31
0.0
  0
LINE
  5
7AE
330
1F
100
AcDbEntity
  8
1
  6
CONTINUOUS
370
50
 62
4
100
AcDbLine
 10
39.793854
 20
0.186788
 30
0.0
 11
39.721283
 21
0.2582
 31
0.0
  0
LINE
  5
7AF
330
1F
100
AcDbEntity
  8
1
  6
CONTINUOUS
370
50
 62
4
100
AcDbLine
 10
39.970406
 20
0.030309
 30
0.0
 11
39.963245
 21
0.03733
 31
0.0
  0
LINE
  5
7B0
330
1F
100
AcDbEntity
  8
1
  6
CONTINUOUS
370
50
 62
4
100
AcDbLine
 10
39.298058
 20
-1.270774
 30
0.0
 11
39.246773
 21
-1.220789
 31
0.0
  0
LINE
  5
7B1
330
1F
100
AcDbEntity
  8
1
  6
CONTINUOUS
370
50
 62
4
100
AcDbLine
 10
38.952023
 20
1.248647
 30
0.0
 11
38.901443
 21
1.296264
 31
0.0
  0
LINE
  5
7B2
330
1F
100
AcDbEntity
  8
1
  6
CONTINUOUS
370
50
 62
4
100
AcDbLine
 10
39.977745
 20
0.023401
 30
0.0
 11
39.970406
 21
0.030309
 31
0.0
  0
LINE
  5
7B3
330
1F
100
AcDbEntity
  8
1
  6
CONTINUOUS
370
50
 62
4
100
AcDbLine
 10
39.98518
 20
0.016649
 30
0.0
 11
39.977745
 21
0.023401
 31
0.0
  0
LINE
  5
7B4
330
1F
100
AcDbEntity
  8
1
  6
CONTINUOUS
370
50
 62
4
100
AcDbLine
 10
39.8699
 20
0.117938
 30
0.0
 11
39.793854
 21
0.186788
 31
0.0
  0
LINE
  5
7B5
330
1F
100
AcDbEntity
  8
1
  6
CONTINUOUS
370
50
 62
4
100
AcDbLine
 10
39.992626
 20
0.010093
 30
0.0
 11
39.98518
 21
0.016649
 31
0.0
  0
LINE
  5
7B6
330
1F
100
AcDbEntity
  8
1
  6
CONTINUOUS
370
50
 62
4
100
AcDbLine
 10
40.0
 20
0.003776
 30
0.0
 11
39.992626
 21
0.010093
 31
0.0
  0
LINE
  5
7B7
330
1F
100
AcDbEntity
  8
1
  6
CONTINUOUS
370
50
 62
4
100
AcDbLine
 10
39.350895
 20
-1.315665
 30
0.0
 11
39.298058
 21
-1.270774
 31
0.0
  0
LINE
  5
7B8
330
1F
100
AcDbEntity
  8
1
  6
CONTINUOUS
370
50
 62
4
100
AcDbLine
 10
39.949787
 20
0.051545
 30
0.0
 11
39.8699
 21
0.117938
 31
0.0
  0
LINE
  5
7B9
330
1F
100
AcDbEntity
  8
1
  6
CONTINUOUS
370
50
 62
4
100
AcDbLine
 10
38.901443
 20
1.296264
 30
0.0
 11
38.8493
 21
1.338986
 31
0.0
  0
LINE
  5
7BA
330
1F
100
AcDbEntity
  8
1
  6
CONTINUOUS
370
50
 62
4
100
AcDbLine
 10
39.405434
 20
-1.355165
 30
0.0
 11
39.350895
 21
-1.315665
 31
0.0
  0
LINE
  5
7BB
330
1F
100
AcDbEntity
  8
1
  6
CONTINUOUS
370
50
 62
4
100
AcDbLine
 10
55.921684
 20
-0.001499
 30
0.0
 11
55.919373
 21
0.0
 31
0.0
  0
LINE
  5
7BC
330
1F
100
AcDbEntity
  8
1
  6
CONTINUOUS
370
50
 62
4
100
AcDbLine
 10
39.462257
 20
-1.389452
 30
0.0
 11
39.405434
 21
-1.355165
 31
0.0
  0
LINE
  5
7BD
330
1F
100
AcDbEntity
  8
1
  6
CONTINUOUS
370
50
 62
4
100
AcDbLine
 10
56.540527
 20
-0.118645
 30
0.0
 11
56.341396
 21
0.0
 31
0.0
  0
LINE
  5
7BE
330
1F
100
AcDbEntity
  8
1
  6
CONTINUOUS
370
50
 62
4
100
AcDbLine
 10
40.272572
 20
-0.149886
 30
0.0
 11
40.018875
 21
0.0
 31
0.0
  0
LINE
  5
7BF
330
1F
100
AcDbEntity
  8
1
  6
CONTINUOUS
370
50
 62
4
100
AcDbLine
 10
43.667702
 20
0.0
 30
0.0
 11
43.296535
 21
0.218999
 31
0.0
  0
LINE
  5
7C0
330
1F
100
AcDbEntity
  8
1
  6
CONTINUOUS
370
50
 62
4
100
AcDbLine
 10
51.83699
 20
-0.003873
 30
0.0
 11
51.834503
 21
-0.002409
 31
0.0
  0
LINE
  5
7C1
330
1F
100
AcDbEntity
  8
1
  6
CONTINUOUS
370
50
 62
4
100
AcDbLine
 10
51.834503
 20
-0.002409
 30
0.0
 11
51.832016
 21
-0.000946
 31
0.0
  0
LINE
  5
7C2
330
1F
100
AcDbEntity
  8
1
  6
CONTINUOUS
370
50
 62
4
100
AcDbLine
 10
51.844463
 20
-0.008265
 30
0.0
 11
51.83699
 21
-0.003873
 31
0.0
  0
LINE
  5
7C3
330
1F
100
AcDbEntity
  8
1
  6
CONTINUOUS
370
50
 62
4
100
AcDbLine
 10
47.759163
 20
-0.001421
 30
0.0
 11
47.756741
 21
0.0
 31
0.0
  0
LINE
  5
7C4
330
1F
100
AcDbEntity
  8
1
  6
CONTINUOUS
370
50
 62
4
100
AcDbLine
 10
43.675201
 20
-0.003745
 30
0.0
 11
43.672791
 21
-0.002332
 31
0.0
  0
LINE
  5
7C5
330
1F
100
AcDbEntity
  8
1
  6
CONTINUOUS
370
50
 62
4
100
AcDbLine
 10
43.682476
 20
-0.008006
 30
0.0
 11
43.680046
 21
-0.006582
 31
0.0
  0
LINE
  5
7C6
330
1F
100
AcDbEntity
  8
1
  6
CONTINUOUS
370
50
 62
4
100
AcDbLine
 10
43.67762
 20
-0.005162
 30
0.0
 11
43.675201
 21
-0.003745
 31
0.0
  0
LINE
  5
7C7
330
1F
100
AcDbEntity
  8
1
  6
CONTINUOUS
370
50
 62
4
100
AcDbLine
 10
43.672791
 20
-0.002332
 30
0.0
 11
43.670383
 21
-0.000922
 31
0.0
  0
LINE
  5
7C8
330
1F
100
AcDbEntity
  8
1
  6
CONTINUOUS
370
50
 62
4
100
AcDbLine
 10
43.680046
 20
-0.006582
 30
0.0
 11
43.67762
 21
-0.005162
 31
0.0
  0
LINE
  5
7C9
330
1F
100
AcDbEntity
  8
1
  6
CONTINUOUS
370
50
 62
4
100
AcDbLine
 10
56.723881
 20
-0.225818
 30
0.0
 11
56.540527
 21
-0.118645
 31
0.0
  0
LINE
  5
7CA
330
1F
100
AcDbEntity
  8
1
  6
CONTINUOUS
370
50
 62
4
100
AcDbLine
 10
40.015732
 20
0.001826
 30
0.0
 11
40.012592
 21
0.003659
 31
0.0
  0
LINE
  5
7CB
330
1F
100
AcDbEntity
  8
1
  6
CONTINUOUS
370
50
 62
4
100
AcDbLine
 10
40.012592
 20
0.003659
 30
0.0
 11
40.009449
 21
0.005493
 31
0.0
  0
LINE
  5
7CC
330
1F
100
AcDbEntity
  8
1
  6
CONTINUOUS
370
50
 62
4
100
AcDbLine
 10
40.006302
 20
0.007327
 30
0.0
 11
40.003155
 21
0.009163
 31
0.0
  0
LINE
  5
7CD
330
1F
100
AcDbEntity
  8
1
  6
CONTINUOUS
370
50
 62
4
100
AcDbLine
 10
40.009449
 20
0.005493
 30
0.0
 11
40.006302
 21
0.007327
 31
0.0
  0
LINE
  5
7CE
330
1F
100
AcDbEntity
  8
1
  6
CONTINUOUS
370
50
 62
4
100
AcDbLine
 10
52.008575
 20
-0.103886
 30
0.0
 11
51.844463
 21
-0.008265
 31
0.0
  0
LINE
  5
7CF
330
1F
100
AcDbEntity
  8
1
  6
CONTINUOUS
370
50
 62
4
100
AcDbLine
 10
40.003155
 20
0.009163
 30
0.0
 11
40.0
 21
0.010999
 31
0.0
  0
LINE
  5
7D0
330
1F
100
AcDbEntity
  8
1
  6
CONTINUOUS
370
50
 62
4
100
AcDbLine
 10
56.44630799999999
 20
-0.303766
 30
0.0
 11
56.344685
 21
-0.244658
 31
0.0
  0
LINE
  5
7D1
330
1F
100
AcDbEntity
  8
1
  6
CONTINUOUS
370
50
 62
4
100
AcDbLine
 10
56.553345
 20
-0.365984
 30
0.0
 11
56.44630799999999
 21
-0.303766
 31
0.0
  0
LINE
  5
7D2
330
1F
100
AcDbEntity
  8
1
  6
CONTINUOUS
370
50
 62
4
100
AcDbLine
 10
40.527615
 20
-0.298128
 30
0.0
 11
40.272572
 21
-0.149886
 31
0.0
  0
LINE
  5
7D3
330
1F
100
AcDbEntity
  8
1
  6
CONTINUOUS
370
50
 62
4
100
AcDbLine
 10
40.018875
 20
0.0
 30
0.0
 11
40.015732
 21
0.001826
 31
0.0
  0
LINE
  5
7D4
330
1F
100
AcDbEntity
  8
1
  6
CONTINUOUS
370
50
 62
4
100
AcDbLine
 10
48.820587
 20
-0.37169
 30
0.0
 11
48.180538
 21
0.0
 31
0.0
  0
LINE
  5
7D5
330
1F
100
AcDbEntity
  8
1
  6
CONTINUOUS
370
50
 62
4
100
AcDbLine
 10
43.882843
 20
-0.124295
 30
0.0
 11
43.682476
 21
-0.008006
 31
0.0
  0
LINE
  5
7D6
330
1F
100
AcDbEntity
  8
1
  6
CONTINUOUS
370
50
 62
4
100
AcDbLine
 10
60.0
 20
-0.001669
 30
0.0
 11
59.999519
 21
-0.00139
 31
0.0
  0
LINE
  5
7D7
330
1F
100
AcDbEntity
  8
1
  6
CONTINUOUS
370
50
 62
4
100
AcDbLine
 10
59.998554
 20
-0.000834
 30
0.0
 11
59.998074
 21
-0.000556
 31
0.0
  0
LINE
  5
7D8
330
1F
100
AcDbEntity
  8
1
  6
CONTINUOUS
370
50
 62
4
100
AcDbLine
 10
56.20876699999999
 20
0.076646
 30
0.0
 11
56.068535
 21
0.157854
 31
0.0
  0
LINE
  5
7D9
330
1F
100
AcDbEntity
  8
1
  6
CONTINUOUS
370
50
 62
4
100
AcDbLine
 10
48.293144
 20
-0.308021
 30
0.0
 11
48.165218
 21
-0.233951
 31
0.0
  0
LINE
  5
7DA
330
1F
100
AcDbEntity
  8
1
  6
CONTINUOUS
370
50
 62
4
100
AcDbLine
 10
43.748272
 20
0.196131
 30
0.0
 11
43.576565
 21
0.295543
 31
0.0
  0
LINE
  5
7DB
330
1F
100
AcDbEntity
  8
1
  6
CONTINUOUS
370
50
 62
4
100
AcDbLine
 10
56.344685
 20
-0.244658
 30
0.0
 11
56.242462
 21
-0.185488
 31
0.0
  0
LINE
  5
7DC
330
1F
100
AcDbEntity
  8
1
  6
CONTINUOUS
370
50
 62
4
100
AcDbLine
 10
59.999035
 20
-0.001112
 30
0.0
 11
59.998554
 21
-0.000834
 31
0.0
  0
LINE
  5
7DD
330
1F
100
AcDbEntity
  8
1
  6
CONTINUOUS
370
50
 62
4
100
AcDbLine
 10
59.998074
 20
-0.000556
 30
0.0
 11
59.99759299999999
 21
-0.000278
 31
0.0
  0
LINE
  5
7DE
330
1F
100
AcDbEntity
  8
1
  6
CONTINUOUS
370
50
 62
4
100
AcDbLine
 10
56.341396
 20
0.0
 30
0.0
 11
56.20876699999999
 21
0.076646
 31
0.0
  0
LINE
  5
7DF
330
1F
100
AcDbEntity
  8
1
  6
CONTINUOUS
370
50
 62
4
100
AcDbLine
 10
51.849697
 20
0.230851
 30
0.0
 11
51.714924
 21
0.308711
 31
0.0
  0
LINE
  5
7E0
330
1F
100
AcDbEntity
  8
1
  6
CONTINUOUS
370
50
 62
4
100
AcDbLine
 10
48.419704
 20
-0.381011
 30
0.0
 11
48.293144
 21
-0.308021
 31
0.0
  0
LINE
  5
7E1
330
1F
100
AcDbEntity
  8
1
  6
CONTINUOUS
370
50
 62
4
100
AcDbLine
 10
40.206707
 20
-0.351206
 30
0.0
 11
40.0
 21
-0.232003
 31
0.0
  0
LINE
  5
7E2
330
1F
100
AcDbEntity
  8
1
  6
CONTINUOUS
370
50
 62
4
100
AcDbLine
 10
48.180538
 20
0.0
 30
0.0
 11
47.90427
 21
0.159244
 31
0.0
  0
LINE
  5
7E3
330
1F
100
AcDbEntity
  8
1
  6
CONTINUOUS
370
50
 62
4
100
AcDbLine
 10
56.242462
 20
-0.185488
 30
0.0
 11
56.139782
 21
-0.126326
 31
0.0
  0
LINE
  5
7E4
330
1F
100
AcDbEntity
  8
1
  6
CONTINUOUS
370
50
 62
4
100
AcDbLine
 10
48.165218
 20
-0.233951
 30
0.0
 11
48.034904
 21
-0.158895
 31
0.0
  0
LINE
  5
7E5
330
1F
100
AcDbEntity
  8
1
  6
CONTINUOUS
370
50
 62
4
100
AcDbLine
 10
51.983631
 20
0.153853
 30
0.0
 11
51.849697
 21
0.230851
 31
0.0
  0
LINE
  5
7E6
330
1F
100
AcDbEntity
  8
1
  6
CONTINUOUS
370
50
 62
4
100
AcDbLine
 10
43.919037
 20
0.097976
 30
0.0
 11
43.748272
 21
0.196131
 31
0.0
  0
LINE
  5
7E7
330
1F
100
AcDbEntity
  8
1
  6
CONTINUOUS
370
50
 62
4
100
AcDbLine
 10
51.714924
 20
0.308711
 30
0.0
 11
51.572014
 21
0.390815
 31
0.0
  0
LINE
  5
7E8
330
1F
100
AcDbEntity
  8
1
  6
CONTINUOUS
370
50
 62
4
100
AcDbLine
 10
43.576565
 20
0.295543
 30
0.0
 11
43.39193
 21
0.401603
 31
0.0
  0
LINE
  5
7E9
330
1F
100
AcDbEntity
  8
1
  6
CONTINUOUS
370
50
 62
4
100
AcDbLine
 10
59.999519
 20
-0.00139
 30
0.0
 11
59.999035
 21
-0.001112
 31
0.0
  0
LINE
  5
7EA
330
1F
100
AcDbEntity
  8
1
  6
CONTINUOUS
370
50
 62
4
100
AcDbLine
 10
56.139782
 20
-0.126326
 30
0.0
 11
56.036789
 21
-0.067241
 31
0.0
  0
LINE
  5
7EB
330
1F
100
AcDbEntity
  8
1
  6
CONTINUOUS
370
50
 62
4
100
AcDbLine
 10
59.99759299999999
 20
-0.000278
 30
0.0
 11
59.997108
 21
0.0
 31
0.0
  0
LINE
  5
7EC
330
1F
100
AcDbEntity
  8
1
  6
CONTINUOUS
370
50
 62
4
100
AcDbLine
 10
48.034904
 20
-0.158895
 30
0.0
 11
47.903477
 21
-0.083631
 31
0.0
  0
LINE
  5
7ED
330
1F
100
AcDbEntity
  8
1
  6
CONTINUOUS
370
50
 62
4
100
AcDbLine
 10
52.118275
 20
0.076864
 30
0.0
 11
51.983631
 21
0.153853
 31
0.0
  0
LINE
  5
7EE
330
1F
100
AcDbEntity
  8
1
  6
CONTINUOUS
370
50
 62
4
100
AcDbLine
 10
56.036789
 20
-0.067241
 30
0.0
 11
55.93362399999999
 21
-0.008305
 31
0.0
  0
LINE
  5
7EF
330
1F
100
AcDbEntity
  8
1
  6
CONTINUOUS
370
50
 62
4
100
AcDbLine
 10
44.090672
 20
0.0
 30
0.0
 11
43.919037
 21
0.097976
 31
0.0
  0
LINE
  5
7F0
330
1F
100
AcDbEntity
  8
1
  6
CONTINUOUS
370
50
 62
4
100
AcDbLine
 10
55.93362399999999
 20
-0.008305
 30
0.0
 11
55.931236
 21
-0.006943
 31
0.0
  0
LINE
  5
7F1
330
1F
100
AcDbEntity
  8
1
  6
CONTINUOUS
370
50
 62
4
100
AcDbLine
 10
55.931236
 20
-0.006943
 30
0.0
 11
55.921684
 21
-0.001499
 31
0.0
  0
LINE
  5
7F2
330
1F
100
AcDbEntity
  8
1
  6
CONTINUOUS
370
50
 62
4
100
AcDbLine
 10
52.177189
 20
-0.19996
 30
0.0
 11
52.008575
 21
-0.103886
 31
0.0
  0
LINE
  5
7F3
330
1F
100
AcDbEntity
  8
1
  6
CONTINUOUS
370
50
 62
4
100
AcDbLine
 10
47.903477
 20
-0.083631
 30
0.0
 11
47.771355
 21
-0.008351
 31
0.0
  0
LINE
  5
7F4
330
1F
100
AcDbEntity
  8
1
  6
CONTINUOUS
370
50
 62
4
100
AcDbLine
 10
52.25324999999999
 20
0.0
 30
0.0
 11
52.118275
 21
0.076864
 31
0.0
  0
LINE
  5
7F5
330
1F
100
AcDbEntity
  8
1
  6
CONTINUOUS
370
50
 62
4
100
AcDbLine
 10
40.411125
 20
-0.467587
 30
0.0
 11
40.206707
 21
-0.351206
 31
0.0
  0
LINE
  5
7F6
330
1F
100
AcDbEntity
  8
1
  6
CONTINUOUS
370
50
 62
4
100
AcDbLine
 10
56.068535
 20
0.157854
 30
0.0
 11
55.919556
 21
0.242631
 31
0.0
  0
LINE
  5
7F7
330
1F
100
AcDbEntity
  8
1
  6
CONTINUOUS
370
50
 62
4
100
AcDbLine
 10
47.7616
 20
-0.002807
 30
0.0
 11
47.759163
 21
-0.001421
 31
0.0
  0
LINE
  5
7F8
330
1F
100
AcDbEntity
  8
1
  6
CONTINUOUS
370
50
 62
4
100
AcDbLine
 10
47.771355
 20
-0.008351
 30
0.0
 11
47.76891699999999
 21
-0.006965
 31
0.0
  0
LINE
  5
7F9
330
1F
100
AcDbEntity
  8
1
  6
CONTINUOUS
370
50
 62
4
100
AcDbLine
 10
47.766476
 20
-0.005579
 30
0.0
 11
47.7616
 21
-0.002807
 31
0.0
  0
LINE
  5
7FA
330
1F
100
AcDbEntity
  8
1
  6
CONTINUOUS
370
50
 62
4
100
AcDbLine
 10
56.904533
 20
-0.328499
 30
0.0
 11
56.723881
 21
-0.225818
 31
0.0
  0
LINE
  5
7FB
330
1F
100
AcDbEntity
  8
1
  6
CONTINUOUS
370
50
 62
4
100
AcDbLine
 10
44.116085
 20
-0.25682
 30
0.0
 11
43.882843
 21
-0.124295
 31
0.0
  0
LINE
  5
7FC
330
1F
100
AcDbEntity
  8
1
  6
CONTINUOUS
370
50
 62
4
100
AcDbLine
 10
48.546555
 20
-0.453083
 30
0.0
 11
48.419704
 21
-0.381011
 31
0.0
  0
LINE
  5
7FD
330
1F
100
AcDbEntity
  8
1
  6
CONTINUOUS
370
50
 62
4
100
AcDbLine
 10
56.686298
 20
-0.441483
 30
0.0
 11
56.553345
 21
-0.365984
 31
0.0
  0
LINE
  5
7FE
330
1F
100
AcDbEntity
  8
1
  6
CONTINUOUS
370
50
 62
4
100
AcDbLine
 10
47.76891699999999
 20
-0.006965
 30
0.0
 11
47.766476
 21
-0.005579
 31
0.0
  0
LINE
  5
7FF
330
1F
100
AcDbEntity
  8
1
  6
CONTINUOUS
370
50
 62
4
100
AcDbLine
 10
51.829224
 20
0.0
 30
0.0
 11
50.858459
 21
0.550701
 31
0.0
  0
LINE
  5
800
330
1F
100
AcDbEntity
  8
1
  6
CONTINUOUS
370
50
 62
4
100
AcDbLine
 10
52.621212
 20
-0.207835
 30
0.0
 11
52.25324999999999
 21
0.0
 31
0.0
  0
LINE
  5
801
330
1F
100
AcDbEntity
  8
1
  6
CONTINUOUS
370
50
 62
4
100
AcDbLine
 10
47.756741
 20
0.0
 30
0.0
 11
47.201843
 21
0.312811
 31
0.0
  0
LINE
  5
802
330
1F
100
AcDbEntity
  8
1
  6
CONTINUOUS
370
50
 62
4
100
AcDbLine
 10
51.572014
 20
0.390815
 30
0.0
 11
51.41922
 21
0.476941
 31
0.0
  0
LINE
  5
803
330
1F
100
AcDbEntity
  8
1
  6
CONTINUOUS
370
50
 62
4
100
AcDbLine
 10
52.96134199999999
 20
-0.399534
 30
0.0
 11
52.621212
 21
-0.207835
 31
0.0
  0
LINE
  5
804
330
1F
100
AcDbEntity
  8
1
  6
CONTINUOUS
370
50
 62
4
100
AcDbLine
 10
43.296535
 20
0.218999
 30
0.0
 11
42.96384399999999
 21
0.406435
 31
0.0
  0
LINE
  5
805
330
1F
100
AcDbEntity
  8
1
  6
CONTINUOUS
370
50
 62
4
100
AcDbLine
 10
44.868404
 20
-0.438001
 30
0.0
 11
44.090672
 21
0.0
 31
0.0
  0
LINE
  5
806
330
1F
100
AcDbEntity
  8
1
  6
CONTINUOUS
370
50
 62
4
100
AcDbLine
 10
55.919373
 20
0.0
 30
0.0
 11
55.15324
 21
0.431339
 31
0.0
  0
LINE
  5
807
330
1F
100
AcDbEntity
  8
1
  6
CONTINUOUS
370
50
 62
4
100
AcDbLine
 10
59.985355
 20
0.249275
 30
0.0
 11
59.47678399999999
 21
0.535387
 31
0.0
  0
LINE
  5
808
330
1F
100
AcDbEntity
  8
1
  6
CONTINUOUS
370
50
 62
4
100
AcDbLine
 10
47.90427
 20
0.159244
 30
0.0
 11
47.597065
 21
0.331689
 31
0.0
  0
LINE
  5
809
330
1F
100
AcDbEntity
  8
1
  6
CONTINUOUS
370
50
 62
4
100
AcDbLine
 10
52.347507
 20
-0.295372
 30
0.0
 11
52.177189
 21
-0.19996
 31
0.0
  0
LINE
  5
80A
330
1F
100
AcDbEntity
  8
1
  6
CONTINUOUS
370
50
 62
4
100
AcDbLine
 10
43.39193
 20
0.401603
 30
0.0
 11
43.190742
 21
0.5139159999999999
 31
0.0
  0
LINE
  5
80B
330
1F
100
AcDbEntity
  8
1
  6
CONTINUOUS
370
50
 62
4
100
AcDbLine
 10
55.919556
 20
0.242631
 30
0.0
 11
55.762871
 21
0.330016
 31
0.0
  0
LINE
  5
80C
330
1F
100
AcDbEntity
  8
1
  6
CONTINUOUS
370
50
 62
4
100
AcDbLine
 10
40.785709
 20
-0.441807
 30
0.0
 11
40.527615
 21
-0.298128
 31
0.0
  0
LINE
  5
80D
330
1F
100
AcDbEntity
  8
1
  6
CONTINUOUS
370
50
 62
4
100
AcDbLine
 10
53.257984
 20
-0.564646
 30
0.0
 11
52.96134199999999
 21
-0.399534
 31
0.0
  0
LINE
  5
80E
330
1F
100
AcDbEntity
  8
1
  6
CONTINUOUS
370
50
 62
4
100
AcDbLine
 10
47.201843
 20
0.312811
 30
0.0
 11
46.66939199999999
 21
0.609144
 31
0.0
  0
LINE
  5
80F
330
1F
100
AcDbEntity
  8
1
  6
CONTINUOUS
370
50
 62
4
100
AcDbLine
 10
48.67534999999999
 20
-0.524396
 30
0.0
 11
48.546555
 21
-0.453083
 31
0.0
  0
LINE
  5
810
330
1F
100
AcDbEntity
  8
1
  6
CONTINUOUS
370
50
 62
4
100
AcDbLine
 10
44.38001999999999
 20
-0.402897
 30
0.0
 11
44.116085
 21
-0.25682
 31
0.0
  0
LINE
  5
811
330
1F
100
AcDbEntity
  8
1
  6
CONTINUOUS
370
50
 62
4
100
AcDbLine
 10
57.086292
 20
-0.428839
 30
0.0
 11
56.904533
 21
-0.328499
 31
0.0
  0
LINE
  5
812
330
1F
100
AcDbEntity
  8
1
  6
CONTINUOUS
370
50
 62
4
100
AcDbLine
 10
52.51861599999999
 20
-0.389741
 30
0.0
 11
52.347507
 21
-0.295372
 31
0.0
  0
LINE
  5
813
330
1F
100
AcDbEntity
  8
1
  6
CONTINUOUS
370
50
 62
4
100
AcDbLine
 10
59.997108
 20
0.0
 30
0.0
 11
58.652977
 21
0.739599
 31
0.0
  0
LINE
  5
814
330
1F
100
AcDbEntity
  8
1
  6
CONTINUOUS
370
50
 62
4
100
AcDbLine
 10
56.845428
 20
-0.528987
 30
0.0
 11
56.686298
 21
-0.441483
 31
0.0
  0
LINE
  5
815
330
1F
100
AcDbEntity
  8
1
  6
CONTINUOUS
370
50
 62
4
100
AcDbLine
 10
55.762871
 20
0.330016
 30
0.0
 11
55.60471
 21
0.416812
 31
0.0
  0
LINE
  5
816
330
1F
100
AcDbEntity
  8
1
  6
CONTINUOUS
370
50
 62
4
100
AcDbLine
 10
51.41922
 20
0.476941
 30
0.0
 11
51.255413
 21
0.566511
 31
0.0
  0
LINE
  5
817
330
1F
100
AcDbEntity
  8
1
  6
CONTINUOUS
370
50
 62
4
100
AcDbLine
 10
40.62011
 20
-0.5817869999999999
 30
0.0
 11
40.411125
 21
-0.467587
 31
0.0
  0
LINE
  5
818
330
1F
100
AcDbEntity
  8
1
  6
CONTINUOUS
370
50
 62
4
100
AcDbLine
 10
47.597065
 20
0.331689
 30
0.0
 11
47.282204
 21
0.5031329999999999
 31
0.0
  0
LINE
  5
819
330
1F
100
AcDbEntity
  8
1
  6
CONTINUOUS
370
50
 62
4
100
AcDbLine
 10
52.689835
 20
-0.482752
 30
0.0
 11
52.51861599999999
 21
-0.389741
 31
0.0
  0
LINE
  5
81A
330
1F
100
AcDbEntity
  8
1
  6
CONTINUOUS
370
50
 62
4
100
AcDbLine
 10
55.60471
 20
0.416812
 30
0.0
 11
55.446194
 21
0.5024759999999999
 31
0.0
  0
LINE
  5
81B
330
1F
100
AcDbEntity
  8
1
  6
CONTINUOUS
370
50
 62
4
100
AcDbLine
 10
44.657604
 20
-0.552476
 30
0.0
 11
44.38001999999999
 21
-0.402897
 31
0.0
  0
LINE
  5
81C
330
1F
100
AcDbEntity
  8
1
  6
CONTINUOUS
370
50
 62
4
100
AcDbLine
 10
55.15324
 20
0.431339
 30
0.0
 11
54.553802
 21
0.753554
 31
0.0
  0
LINE
  5
81D
330
1F
100
AcDbEntity
  8
1
  6
CONTINUOUS
370
50
 62
4
100
AcDbLine
 10
57.268265
 20
-0.526519
 30
0.0
 11
57.086292
 21
-0.428839
 31
0.0
  0
LINE
  5
81E
330
1F
100
AcDbEntity
  8
1
  6
CONTINUOUS
370
50
 62
4
100
AcDbLine
 10
45.477081
 20
-0.7640049999999999
 30
0.0
 11
44.868404
 21
-0.438001
 31
0.0
  0
LINE
  5
81F
330
1F
100
AcDbEntity
  8
1
  6
CONTINUOUS
370
50
 62
4
100
AcDbLine
 10
52.860485
 20
-0.574095
 30
0.0
 11
52.689835
 21
-0.482752
 31
0.0
  0
LINE
  5
820
330
1F
100
AcDbEntity
  8
1
  6
CONTINUOUS
370
50
 62
4
100
AcDbLine
 10
42.96384399999999
 20
0.406435
 30
0.0
 11
42.630726
 21
0.584711
 31
0.0
  0
LINE
  5
821
330
1F
100
AcDbEntity
  8
1
  6
CONTINUOUS
370
50
 62
4
100
AcDbLine
 10
48.807159
 20
-0.59493
 30
0.0
 11
48.67534999999999
 21
-0.524396
 31
0.0
  0
LINE
  5
822
330
1F
100
AcDbEntity
  8
1
  6
CONTINUOUS
370
50
 62
4
100
AcDbLine
 10
43.190742
 20
0.5139159999999999
 30
0.0
 11
42.970661
 21
0.631332
 31
0.0
  0
LINE
  5
823
330
1F
100
AcDbEntity
  8
1
  6
CONTINUOUS
370
50
 62
4
100
AcDbLine
 10
41.045208
 20
-0.580197
 30
0.0
 11
40.785709
 21
-0.441807
 31
0.0
  0
LINE
  5
824
330
1F
100
AcDbEntity
  8
1
  6
CONTINUOUS
370
50
 62
4
100
AcDbLine
 10
55.446194
 20
0.5024759999999999
 30
0.0
 11
55.287884
 21
0.5867479999999999
 31
0.0
  0
LINE
  5
825
330
1F
100
AcDbEntity
  8
1
  6
CONTINUOUS
370
50
 62
4
100
AcDbLine
 10
53.52169
 20
-0.704897
 30
0.0
 11
53.257984
 21
-0.564646
 31
0.0
  0
LINE
  5
826
330
1F
100
AcDbEntity
  8
1
  6
CONTINUOUS
370
50
 62
4
100
AcDbLine
 10
47.282204
 20
0.5031329999999999
 30
0.0
 11
46.968758
 21
0.6691739999999999
 31
0.0
  0
LINE
  5
827
330
1F
100
AcDbEntity
  8
1
  6
CONTINUOUS
370
50
 62
4
100
AcDbLine
 10
57.029156
 20
-0.626227
 30
0.0
 11
56.845428
 21
-0.528987
 31
0.0
  0
LINE
  5
828
330
1F
100
AcDbEntity
  8
1
  6
CONTINUOUS
370
50
 62
4
100
AcDbLine
 10
49.43597399999999
 20
-0.6972419999999999
 30
0.0
 11
48.820587
 21
-0.37169
 31
0.0
  0
LINE
  5
829
330
1F
100
AcDbEntity
  8
1
  6
CONTINUOUS
370
50
 62
4
100
AcDbLine
 10
53.029888
 20
-0.663457
 30
0.0
 11
52.860485
 21
-0.574095
 31
0.0
  0
LINE
  5
82A
330
1F
100
AcDbEntity
  8
1
  6
CONTINUOUS
370
50
 62
4
100
AcDbLine
 10
44.933819
 20
-0.697606
 30
0.0
 11
44.657604
 21
-0.552476
 31
0.0
  0
LINE
  5
82B
330
1F
100
AcDbEntity
  8
1
  6
CONTINUOUS
370
50
 62
4
100
AcDbLine
 10
51.255413
 20
0.566511
 30
0.0
 11
51.07946399999999
 21
0.6589499999999999
 31
0.0
  0
LINE
  5
82C
330
1F
100
AcDbEntity
  8
1
  6
CONTINUOUS
370
50
 62
4
100
AcDbLine
 10
55.287884
 20
0.5867479999999999
 30
0.0
 11
55.130344
 21
0.669366
 31
0.0
  0
LINE
  5
82D
330
1F
100
AcDbEntity
  8
1
  6
CONTINUOUS
370
50
 62
4
100
AcDbLine
 10
57.449577
 20
-0.62122
 30
0.0
 11
57.268265
 21
-0.526519
 31
0.0
  0
LINE
  5
82E
330
1F
100
AcDbEntity
  8
1
  6
CONTINUOUS
370
50
 62
4
100
AcDbLine
 10
53.197155
 20
-0.750213
 30
0.0
 11
53.029888
 21
-0.663457
 31
0.0
  0
LINE
  5
82F
330
1F
100
AcDbEntity
  8
1
  6
CONTINUOUS
370
50
 62
4
100
AcDbLine
 10
43.682701
 20
-0.008794
 30
0.0
 11
43.682674
 21
-0.00878
 31
0.0
  0
LINE
  5
830
330
1F
100
AcDbEntity
  8
1
  6
CONTINUOUS
370
50
 62
4
100
AcDbLine
 10
47.771488
 20
-0.008369
 30
0.0
 11
47.771461
 21
-0.008355
 31
0.0
  0
LINE
  5
831
330
1F
100
AcDbEntity
  8
1
  6
CONTINUOUS
370
50
 62
4
100
AcDbLine
 10
48.940228
 20
-0.663926
 30
0.0
 11
48.807159
 21
-0.59493
 31
0.0
  0
LINE
  5
832
330
1F
100
AcDbEntity
  8
1
  6
CONTINUOUS
370
50
 62
4
100
AcDbLine
 10
40.834518
 20
-0.692794
 30
0.0
 11
40.62011
 21
-0.5817869999999999
 31
0.0
  0
LINE
  5
833
330
1F
100
AcDbEntity
  8
1
  6
CONTINUOUS
370
50
 62
4
100
AcDbLine
 10
55.130344
 20
0.669366
 30
0.0
 11
54.972595
 21
0.7508039999999999
 31
0.0
  0
LINE
  5
834
330
1F
100
AcDbEntity
  8
1
  6
CONTINUOUS
370
50
 62
4
100
AcDbLine
 10
47.771461
 20
-0.008355
 30
0.0
 11
47.77142
 21
-0.008334
 31
0.0
  0
LINE
  5
835
330
1F
100
AcDbEntity
  8
1
  6
CONTINUOUS
370
50
 62
4
100
AcDbLine
 10
41.305981
 20
-0.713565
 30
0.0
 11
41.045208
 21
-0.580197
 31
0.0
  0
LINE
  5
836
330
1F
100
AcDbEntity
  8
1
  6
CONTINUOUS
370
50
 62
4
100
AcDbLine
 10
60.0
 20
-0.002304
 30
0.0
 11
59.990936
 21
0.002327
 31
0.0
  0
LINE
  5
837
330
1F
100
AcDbEntity
  8
1
  6
CONTINUOUS
370
50
 62
4
100
AcDbLine
 10
59.990936
 20
0.002327
 30
0.0
 11
59.976723
 21
0.009569
 31
0.0
  0
LINE
  5
838
330
1F
100
AcDbEntity
  8
1
  6
CONTINUOUS
370
50
 62
4
100
AcDbLine
 10
59.47678399999999
 20
0.535387
 30
0.0
 11
58.953571
 21
0.8018339999999999
 31
0.0
  0
LINE
  5
839
330
1F
100
AcDbEntity
  8
1
  6
CONTINUOUS
370
50
 62
4
100
AcDbLine
 10
46.968758
 20
0.6691739999999999
 30
0.0
 11
46.640594
 21
0.83629
 31
0.0
  0
LINE
  5
83A
330
1F
100
AcDbEntity
  8
1
  6
CONTINUOUS
370
50
 62
4
100
AcDbLine
 10
59.976723
 20
0.009569
 30
0.0
 11
59.954895
 21
0.020678
 31
0.0
  0
LINE
  5
83B
330
1F
100
AcDbEntity
  8
1
  6
CONTINUOUS
370
50
 62
4
100
AcDbLine
 10
42.630726
 20
0.584711
 30
0.0
 11
42.299427
 21
0.753285
 31
0.0
  0
LINE
  5
83C
330
1F
100
AcDbEntity
  8
1
  6
CONTINUOUS
370
50
 62
4
100
AcDbLine
 10
59.954895
 20
0.020678
 30
0.0
 11
59.92372899999999
 21
0.036533
 31
0.0
  0
LINE
  5
83D
330
1F
100
AcDbEntity
  8
1
  6
CONTINUOUS
370
50
 62
4
100
AcDbLine
 10
59.698193
 20
0.151241
 30
0.0
 11
59.683846
 21
0.158539
 31
0.0
  0
LINE
  5
83E
330
1F
100
AcDbEntity
  8
1
  6
CONTINUOUS
370
50
 62
4
100
AcDbLine
 10
59.786137
 20
0.106513
 30
0.0
 11
59.765182
 21
0.117172
 31
0.0
  0
LINE
  5
83F
330
1F
100
AcDbEntity
  8
1
  6
CONTINUOUS
370
50
 62
4
100
AcDbLine
 10
59.88435699999999
 20
0.056557
 30
0.0
 11
59.845417
 21
0.076364
 31
0.0
  0
LINE
  5
840
330
1F
100
AcDbEntity
  8
1
  6
CONTINUOUS
370
50
 62
4
100
AcDbLine
 10
59.749405
 20
0.125196
 30
0.0
 11
59.73674399999999
 21
0.131636
 31
0.0
  0
LINE
  5
841
330
1F
100
AcDbEntity
  8
1
  6
CONTINUOUS
370
50
 62
4
100
AcDbLine
 10
57.630077
 20
-0.713027
 30
0.0
 11
57.449577
 21
-0.62122
 31
0.0
  0
LINE
  5
842
330
1F
100
AcDbEntity
  8
1
  6
CONTINUOUS
370
50
 62
4
100
AcDbLine
 10
59.73674399999999
 20
0.131636
 30
0.0
 11
59.725132
 21
0.137542
 31
0.0
  0
LINE
  5
843
330
1F
100
AcDbEntity
  8
1
  6
CONTINUOUS
370
50
 62
4
100
AcDbLine
 10
59.845417
 20
0.076364
 30
0.0
 11
59.81432
 21
0.09218
 31
0.0
  0
LINE
  5
844
330
1F
100
AcDbEntity
  8
1
  6
CONTINUOUS
370
50
 62
4
100
AcDbLine
 10
59.640759
 20
0.180448
 30
0.0
 11
59.626343
 21
0.18778
 31
0.0
  0
LINE
  5
845
330
1F
100
AcDbEntity
  8
1
  6
CONTINUOUS
370
50
 62
4
100
AcDbLine
 10
59.725132
 20
0.137542
 30
0.0
 11
59.712505
 21
0.143964
 31
0.0
  0
LINE
  5
846
330
1F
100
AcDbEntity
  8
1
  6
CONTINUOUS
370
50
 62
4
100
AcDbLine
 10
59.765182
 20
0.117172
 30
0.0
 11
59.749405
 21
0.125196
 31
0.0
  0
LINE
  5
847
330
1F
100
AcDbEntity
  8
1
  6
CONTINUOUS
370
50
 62
4
100
AcDbLine
 10
59.92372899999999
 20
0.036533
 30
0.0
 11
59.88435699999999
 21
0.056557
 31
0.0
  0
LINE
  5
848
330
1F
100
AcDbEntity
  8
1
  6
CONTINUOUS
370
50
 62
4
100
AcDbLine
 10
59.523438
 20
0.240107
 30
0.0
 11
59.506359
 21
0.248793
 31
0.0
  0
LINE
  5
849
330
1F
100
AcDbEntity
  8
1
  6
CONTINUOUS
370
50
 62
4
100
AcDbLine
 10
59.46847899999999
 20
0.268053
 30
0.0
 11
59.448071
 21
0.278432
 31
0.0
  0
LINE
  5
84A
330
1F
100
AcDbEntity
  8
1
  6
CONTINUOUS
370
50
 62
4
100
AcDbLine
 10
59.81432
 20
0.09218
 30
0.0
 11
59.786137
 21
0.106513
 31
0.0
  0
LINE
  5
84B
330
1F
100
AcDbEntity
  8
1
  6
CONTINUOUS
370
50
 62
4
100
AcDbLine
 10
59.596508
 20
0.20295
 30
0.0
 11
59.58155799999999
 21
0.210553
 31
0.0
  0
LINE
  5
84C
330
1F
100
AcDbEntity
  8
1
  6
CONTINUOUS
370
50
 62
4
100
AcDbLine
 10
59.58155799999999
 20
0.210553
 30
0.0
 11
59.566956
 21
0.217979
 31
0.0
  0
LINE
  5
84D
330
1F
100
AcDbEntity
  8
1
  6
CONTINUOUS
370
50
 62
4
100
AcDbLine
 10
59.539024
 20
0.232181
 30
0.0
 11
59.523438
 21
0.240107
 31
0.0
  0
LINE
  5
84E
330
1F
100
AcDbEntity
  8
1
  6
CONTINUOUS
370
50
 62
4
100
AcDbLine
 10
59.383266
 20
0.311384
 30
0.0
 11
59.361118
 21
0.322647
 31
0.0
  0
LINE
  5
84F
330
1F
100
AcDbEntity
  8
1
  6
CONTINUOUS
370
50
 62
4
100
AcDbLine
 10
59.61152999999999
 20
0.195311
 30
0.0
 11
59.596508
 21
0.20295
 31
0.0
  0
LINE
  5
850
330
1F
100
AcDbEntity
  8
1
  6
CONTINUOUS
370
50
 62
4
100
AcDbLine
 10
59.65514
 20
0.173135
 30
0.0
 11
59.640759
 21
0.180448
 31
0.0
  0
LINE
  5
851
330
1F
100
AcDbEntity
  8
1
  6
CONTINUOUS
370
50
 62
4
100
AcDbLine
 10
59.448071
 20
0.278432
 30
0.0
 11
59.426937
 21
0.289179
 31
0.0
  0
LINE
  5
852
330
1F
100
AcDbEntity
  8
1
  6
CONTINUOUS
370
50
 62
4
100
AcDbLine
 10
59.361118
 20
0.322647
 30
0.0
 11
59.33901599999999
 21
0.333886
 31
0.0
  0
LINE
  5
853
330
1F
100
AcDbEntity
  8
1
  6
CONTINUOUS
370
50
 62
4
100
AcDbLine
 10
59.487972
 20
0.258141
 30
0.0
 11
59.46847899999999
 21
0.268053
 31
0.0
  0
LINE
  5
854
330
1F
100
AcDbEntity
  8
1
  6
CONTINUOUS
370
50
 62
4
100
AcDbLine
 10
59.426937
 20
0.289179
 30
0.0
 11
59.40526999999999
 21
0.300196
 31
0.0
  0
LINE
  5
855
330
1F
100
AcDbEntity
  8
1
  6
CONTINUOUS
370
50
 62
4
100
AcDbLine
 10
59.683846
 20
0.158539
 30
0.0
 11
59.669495
 21
0.165836
 31
0.0
  0
LINE
  5
856
330
1F
100
AcDbEntity
  8
1
  6
CONTINUOUS
370
50
 62
4
100
AcDbLine
 10
59.669495
 20
0.165836
 30
0.0
 11
59.65514
 21
0.173135
 31
0.0
  0
LINE
  5
857
330
1F
100
AcDbEntity
  8
1
  6
CONTINUOUS
370
50
 62
4
100
AcDbLine
 10
59.712505
 20
0.143964
 30
0.0
 11
59.698193
 21
0.151241
 31
0.0
  0
LINE
  5
858
330
1F
100
AcDbEntity
  8
1
  6
CONTINUOUS
370
50
 62
4
100
AcDbLine
 10
59.552982
 20
0.225084
 30
0.0
 11
59.539024
 21
0.232181
 31
0.0
  0
LINE
  5
859
330
1F
100
AcDbEntity
  8
1
  6
CONTINUOUS
370
50
 62
4
100
AcDbLine
 10
59.40526999999999
 20
0.300196
 30
0.0
 11
59.383266
 21
0.311384
 31
0.0
  0
LINE
  5
85A
330
1F
100
AcDbEntity
  8
1
  6
CONTINUOUS
370
50
 62
4
100
AcDbLine
 10
59.566956
 20
0.217979
 30
0.0
 11
59.552982
 21
0.225084
 31
0.0
  0
LINE
  5
85B
330
1F
100
AcDbEntity
  8
1
  6
CONTINUOUS
370
50
 62
4
100
AcDbLine
 10
59.626343
 20
0.18778
 30
0.0
 11
59.61152999999999
 21
0.195311
 31
0.0
  0
LINE
  5
85C
330
1F
100
AcDbEntity
  8
1
  6
CONTINUOUS
370
50
 62
4
100
AcDbLine
 10
59.506359
 20
0.248793
 30
0.0
 11
59.487972
 21
0.258141
 31
0.0
  0
LINE
  5
85D
330
1F
100
AcDbEntity
  8
1
  6
CONTINUOUS
370
50
 62
4
100
AcDbLine
 10
45.20335
 20
-0.8344269999999999
 30
0.0
 11
44.933819
 21
-0.697606
 31
0.0
  0
LINE
  5
85E
330
1F
100
AcDbEntity
  8
1
  6
CONTINUOUS
370
50
 62
4
100
AcDbLine
 10
57.235905
 20
-0.730928
 30
0.0
 11
57.029156
 21
-0.626227
 31
0.0
  0
LINE
  5
85F
330
1F
100
AcDbEntity
  8
1
  6
CONTINUOUS
370
50
 62
4
100
AcDbLine
 10
42.970661
 20
0.631332
 30
0.0
 11
42.732403
 21
0.751406
 31
0.0
  0
LINE
  5
860
330
1F
100
AcDbEntity
  8
1
  6
CONTINUOUS
370
50
 62
4
100
AcDbLine
 10
49.073978
 20
-0.731174
 30
0.0
 11
48.940228
 21
-0.663926
 31
0.0
  0
LINE
  5
861
330
1F
100
AcDbEntity
  8
1
  6
CONTINUOUS
370
50
 62
4
100
AcDbLine
 10
53.362888
 20
-0.833471
 30
0.0
 11
53.197155
 21
-0.750213
 31
0.0
  0
LINE
  5
862
330
1F
100
AcDbEntity
  8
1
  6
CONTINUOUS
370
50
 62
4
100
AcDbLine
 10
54.972595
 20
0.7508039999999999
 30
0.0
 11
54.80439399999999
 21
0.835123
 31
0.0
  0
LINE
  5
863
330
1F
100
AcDbEntity
  8
1
  6
CONTINUOUS
370
50
 62
4
100
AcDbLine
 10
51.07946399999999
 20
0.6589499999999999
 30
0.0
 11
50.891834
 21
0.753003
 31
0.0
  0
LINE
  5
864
330
1F
100
AcDbEntity
  8
1
  6
CONTINUOUS
370
50
 62
4
100
AcDbLine
 10
46.66939199999999
 20
0.609144
 30
0.0
 11
46.129417
 21
0.8792019999999999
 31
0.0
  0
LINE
  5
865
330
1F
100
AcDbEntity
  8
1
  6
CONTINUOUS
370
50
 62
4
100
AcDbLine
 10
43.682735
 20
-0.008811
 30
0.0
 11
43.682701
 21
-0.008794
 31
0.0
  0
LINE
  5
866
330
1F
100
AcDbEntity
  8
1
  6
CONTINUOUS
370
50
 62
4
100
AcDbLine
 10
50.858459
 20
0.550701
 30
0.0
 11
50.11306
 21
0.921329
 31
0.0
  0
LINE
  5
867
330
1F
100
AcDbEntity
  8
1
  6
CONTINUOUS
370
50
 62
4
100
AcDbLine
 10
57.810528
 20
-0.802407
 30
0.0
 11
57.630077
 21
-0.713027
 31
0.0
  0
LINE
  5
868
330
1F
100
AcDbEntity
  8
1
  6
CONTINUOUS
370
50
 62
4
100
AcDbLine
 10
53.782215
 20
-0.83333
 30
0.0
 11
53.52169
 21
-0.704897
 31
0.0
  0
LINE
  5
869
330
1F
100
AcDbEntity
  8
1
  6
CONTINUOUS
370
50
 62
4
100
AcDbLine
 10
41.050591
 20
-0.7990879999999999
 30
0.0
 11
40.834518
 21
-0.692794
 31
0.0
  0
LINE
  5
86A
330
1F
100
AcDbEntity
  8
1
  6
CONTINUOUS
370
50
 62
4
100
AcDbLine
 10
41.565552
 20
-0.84082
 30
0.0
 11
41.305981
 21
-0.713565
 31
0.0
  0
LINE
  5
86B
330
1F
100
AcDbEntity
  8
1
  6
CONTINUOUS
370
50
 62
4
100
AcDbLine
 10
39.52195
 20
-1.418702
 30
0.0
 11
39.462257
 21
-1.389452
 31
0.0
  0
LINE
  5
86C
330
1F
100
AcDbEntity
  8
1
  6
CONTINUOUS
370
50
 62
4
100
AcDbLine
 10
49.208088
 20
-0.7965479999999999
 30
0.0
 11
49.073978
 21
-0.731174
 31
0.0
  0
LINE
  5
86D
330
1F
100
AcDbEntity
  8
1
  6
CONTINUOUS
370
50
 62
4
100
AcDbLine
 10
49.96772
 20
-0.954711
 30
0.0
 11
49.43597399999999
 21
-0.6972419999999999
 31
0.0
  0
LINE
  5
86E
330
1F
100
AcDbEntity
  8
1
  6
CONTINUOUS
370
50
 62
4
100
AcDbLine
 10
42.299427
 20
0.753285
 30
0.0
 11
41.971489
 21
0.9118649999999999
 31
0.0
  0
LINE
  5
86F
330
1F
100
AcDbEntity
  8
1
  6
CONTINUOUS
370
50
 62
4
100
AcDbLine
 10
57.46332899999999
 20
-0.840472
 30
0.0
 11
57.235905
 21
-0.730928
 31
0.0
  0
LINE
  5
870
330
1F
100
AcDbEntity
  8
1
  6
CONTINUOUS
370
50
 62
4
100
AcDbLine
 10
43.682762
 20
-0.008824
 30
0.0
 11
43.682735
 21
-0.008811
 31
0.0
  0
LINE
  5
871
330
1F
100
AcDbEntity
  8
1
  6
CONTINUOUS
370
50
 62
4
100
AcDbLine
 10
57.99030699999999
 20
-0.8889539999999999
 30
0.0
 11
57.810528
 21
-0.802407
 31
0.0
  0
LINE
  5
872
330
1F
100
AcDbEntity
  8
1
  6
CONTINUOUS
370
50
 62
4
100
AcDbLine
 10
50.891834
 20
0.753003
 30
0.0
 11
50.701466
 21
0.8442259999999999
 31
0.0
  0
LINE
  5
873
330
1F
100
AcDbEntity
  8
1
  6
CONTINUOUS
370
50
 62
4
100
AcDbLine
 10
53.530048
 20
-0.913368
 30
0.0
 11
53.362888
 21
-0.833471
 31
0.0
  0
LINE
  5
874
330
1F
100
AcDbEntity
  8
1
  6
CONTINUOUS
370
50
 62
4
100
AcDbLine
 10
42.732403
 20
0.751406
 30
0.0
 11
42.490639
 21
0.866649
 31
0.0
  0
LINE
  5
875
330
1F
100
AcDbEntity
  8
1
  6
CONTINUOUS
370
50
 62
4
100
AcDbLine
 10
54.80439399999999
 20
0.835123
 30
0.0
 11
54.622269
 21
0.9218529999999999
 31
0.0
  0
LINE
  5
876
330
1F
100
AcDbEntity
  8
1
  6
CONTINUOUS
370
50
 62
4
100
AcDbLine
 10
49.342232
 20
-0.8599209999999999
 30
0.0
 11
49.208088
 21
-0.7965479999999999
 31
0.0
  0
LINE
  5
877
330
1F
100
AcDbEntity
  8
1
  6
CONTINUOUS
370
50
 62
4
100
AcDbLine
 10
47.771381
 20
-0.008317
 30
0.0
 11
47.771347
 21
-0.008301
 31
0.0
  0
LINE
  5
878
330
1F
100
AcDbEntity
  8
1
  6
CONTINUOUS
370
50
 62
4
100
AcDbLine
 10
41.819122
 20
-0.9598359999999999
 30
0.0
 11
41.565552
 21
-0.84082
 31
0.0
  0
LINE
  5
879
330
1F
100
AcDbEntity
  8
1
  6
CONTINUOUS
370
50
 62
4
100
AcDbLine
 10
45.475536
 20
-0.962143
 30
0.0
 11
45.20335
 21
-0.8344269999999999
 31
0.0
  0
LINE
  5
87A
330
1F
100
AcDbEntity
  8
1
  6
CONTINUOUS
370
50
 62
4
100
AcDbLine
 10
41.266968
 20
-0.9001399999999999
 30
0.0
 11
41.050591
 21
-0.7990879999999999
 31
0.0
  0
LINE
  5
87B
330
1F
100
AcDbEntity
  8
1
  6
CONTINUOUS
370
50
 62
4
100
AcDbLine
 10
58.17886
 20
-0.9766119999999999
 30
0.0
 11
57.99030699999999
 21
-0.8889539999999999
 31
0.0
  0
LINE
  5
87C
330
1F
100
AcDbEntity
  8
1
  6
CONTINUOUS
370
50
 62
4
100
AcDbLine
 10
54.553802
 20
0.753554
 30
0.0
 11
53.99078
 21
1.011619
 31
0.0
  0
LINE
  5
87D
330
1F
100
AcDbEntity
  8
1
  6
CONTINUOUS
370
50
 62
4
100
AcDbLine
 10
50.701466
 20
0.8442259999999999
 30
0.0
 11
50.510742
 21
0.931549
 31
0.0
  0
LINE
  5
87E
330
1F
100
AcDbEntity
  8
1
  6
CONTINUOUS
370
50
 62
4
100
AcDbLine
 10
46.640594
 20
0.83629
 30
0.0
 11
46.257141
 21
1.011766
 31
0.0
  0
LINE
  5
87F
330
1F
100
AcDbEntity
  8
1
  6
CONTINUOUS
370
50
 62
4
100
AcDbLine
 10
49.476082
 20
-0.921167
 30
0.0
 11
49.342232
 21
-0.8599209999999999
 31
0.0
  0
LINE
  5
880
330
1F
100
AcDbEntity
  8
1
  6
CONTINUOUS
370
50
 62
4
100
AcDbLine
 10
57.69615899999999
 20
-0.946801
 30
0.0
 11
57.46332899999999
 21
-0.840472
 31
0.0
  0
LINE
  5
881
330
1F
100
AcDbEntity
  8
1
  6
CONTINUOUS
370
50
 62
4
100
AcDbLine
 10
58.652977
 20
0.739599
 30
0.0
 11
57.853989
 21
1.103902
 31
0.0
  0
LINE
  5
882
330
1F
100
AcDbEntity
  8
1
  6
CONTINUOUS
370
50
 62
4
100
AcDbLine
 10
54.04439499999999
 20
-0.9527359999999999
 30
0.0
 11
53.782215
 21
-0.83333
 31
0.0
  0
LINE
  5
883
330
1F
100
AcDbEntity
  8
1
  6
CONTINUOUS
370
50
 62
4
100
AcDbLine
 10
46.05274199999999
 20
-1.025495
 30
0.0
 11
45.477081
 21
-0.7640049999999999
 31
0.0
  0
LINE
  5
884
330
1F
100
AcDbEntity
  8
1
  6
CONTINUOUS
370
50
 62
4
100
AcDbLine
 10
58.953571
 20
0.8018339999999999
 30
0.0
 11
58.45365899999999
 21
1.027239
 31
0.0
  0
LINE
  5
885
330
1F
100
AcDbEntity
  8
1
  6
CONTINUOUS
370
50
 62
4
100
AcDbLine
 10
42.490639
 20
0.866649
 30
0.0
 11
42.249363
 21
0.97532
 31
0.0
  0
LINE
  5
886
330
1F
100
AcDbEntity
  8
1
  6
CONTINUOUS
370
50
 62
4
100
AcDbLine
 10
53.701641
 20
-0.9900829999999999
 30
0.0
 11
53.530048
 21
-0.913368
 31
0.0
  0
LINE
  5
887
330
1F
100
AcDbEntity
  8
1
  6
CONTINUOUS
370
50
 62
4
100
AcDbLine
 10
41.971489
 20
0.9118649999999999
 30
0.0
 11
41.650078
 21
1.055164
 31
0.0
  0
LINE
  5
888
330
1F
100
AcDbEntity
  8
1
  6
CONTINUOUS
370
50
 62
4
100
AcDbLine
 10
43.682644
 20
-0.008718
 30
0.0
 11
43.347858
 21
0.140361
 31
0.0
  0
LINE
  5
889
330
1F
100
AcDbEntity
  8
1
  6
CONTINUOUS
370
50
 62
4
100
AcDbLine
 10
51.844292
 20
-0.00874
 30
0.0
 11
51.530659
 21
0.130853
 31
0.0
  0
LINE
  5
88A
330
1F
100
AcDbEntity
  8
1
  6
CONTINUOUS
370
50
 62
4
100
AcDbLine
 10
54.622269
 20
0.9218529999999999
 30
0.0
 11
54.424408
 21
1.009629
 31
0.0
  0
LINE
  5
88B
330
1F
100
AcDbEntity
  8
1
  6
CONTINUOUS
370
50
 62
4
100
AcDbLine
 10
49.609314
 20
-0.980161
 30
0.0
 11
49.476082
 21
-0.921167
 31
0.0
  0
LINE
  5
88C
330
1F
100
AcDbEntity
  8
1
  6
CONTINUOUS
370
50
 62
4
100
AcDbLine
 10
41.482296
 20
-0.995423
 30
0.0
 11
41.266968
 21
-0.9001399999999999
 31
0.0
  0
LINE
  5
88D
330
1F
100
AcDbEntity
  8
1
  6
CONTINUOUS
370
50
 62
4
100
AcDbLine
 10
50.11306
 20
0.921329
 30
0.0
 11
49.784046
 21
1.066695
 31
0.0
  0
LINE
  5
88E
330
1F
100
AcDbEntity
  8
1
  6
CONTINUOUS
370
50
 62
4
100
AcDbLine
 10
50.510742
 20
0.931549
 30
0.0
 11
50.32064399999999
 21
1.014539
 31
0.0
  0
LINE
  5
88F
330
1F
100
AcDbEntity
  8
1
  6
CONTINUOUS
370
50
 62
4
100
AcDbLine
 10
47.77142
 20
-0.008334
 30
0.0
 11
47.771381
 21
-0.008317
 31
0.0
  0
LINE
  5
890
330
1F
100
AcDbEntity
  8
1
  6
CONTINUOUS
370
50
 62
4
100
AcDbLine
 10
42.069397
 20
-1.068847
 30
0.0
 11
41.819122
 21
-0.9598359999999999
 31
0.0
  0
LINE
  5
891
330
1F
100
AcDbEntity
  8
1
  6
CONTINUOUS
370
50
 62
4
100
AcDbLine
 10
43.682674
 20
-0.00878
 30
0.0
 11
43.682644
 21
-0.008767
 31
0.0
  0
LINE
  5
892
330
1F
100
AcDbEntity
  8
1
  6
CONTINUOUS
370
50
 62
4
100
AcDbLine
 10
57.927853
 20
-1.046799
 30
0.0
 11
57.69615899999999
 21
-0.946801
 31
0.0
  0
LINE
  5
893
330
1F
100
AcDbEntity
  8
1
  6
CONTINUOUS
370
50
 62
4
100
AcDbLine
 10
51.530659
 20
0.130853
 30
0.0
 11
51.21703
 21
0.266118
 31
0.0
  0
LINE
  5
894
330
1F
100
AcDbEntity
  8
1
  6
CONTINUOUS
370
50
 62
4
100
AcDbLine
 10
49.741608
 20
-1.036778
 30
0.0
 11
49.609314
 21
-0.980161
 31
0.0
  0
LINE
  5
895
330
1F
100
AcDbEntity
  8
1
  6
CONTINUOUS
370
50
 62
4
100
AcDbLine
 10
43.347858
 20
0.140361
 30
0.0
 11
43.013077
 21
0.283533
 31
0.0
  0
LINE
  5
896
330
1F
100
AcDbEntity
  8
1
  6
CONTINUOUS
370
50
 62
4
100
AcDbLine
 10
55.933907
 20
-0.008397
 30
0.0
 11
55.620659
 21
0.125244
 31
0.0
  0
LINE
  5
897
330
1F
100
AcDbEntity
  8
1
  6
CONTINUOUS
370
50
 62
4
100
AcDbLine
 10
47.771347
 20
-0.008406
 30
0.0
 11
47.439259
 21
0.133066
 31
0.0
  0
LINE
  5
898
330
1F
100
AcDbEntity
  8
1
  6
CONTINUOUS
370
50
 62
4
100
AcDbLine
 10
42.249363
 20
0.97532
 30
0.0
 11
42.01199
 21
1.076136
 31
0.0
  0
LINE
  5
899
330
1F
100
AcDbEntity
  8
1
  6
CONTINUOUS
370
50
 62
4
100
AcDbLine
 10
58.454353
 20
-1.093422
 30
0.0
 11
58.17886
 21
-0.9766119999999999
 31
0.0
  0
LINE
  5
89A
330
1F
100
AcDbEntity
  8
1
  6
CONTINUOUS
370
50
 62
4
100
AcDbLine
 10
46.129417
 20
0.8792019999999999
 30
0.0
 11
45.582954
 21
1.1101
 31
0.0
  0
LINE
  5
89B
330
1F
100
AcDbEntity
  8
1
  6
CONTINUOUS
370
50
 62
4
100
AcDbLine
 10
47.439259
 20
0.133066
 30
0.0
 11
47.10717
 21
0.273382
 31
0.0
  0
LINE
  5
89C
330
1F
100
AcDbEntity
  8
1
  6
CONTINUOUS
370
50
 62
4
100
AcDbLine
 10
55.620659
 20
0.125244
 30
0.0
 11
55.307407
 21
0.257534
 31
0.0
  0
LINE
  5
89D
330
1F
100
AcDbEntity
  8
1
  6
CONTINUOUS
370
50
 62
4
100
AcDbLine
 10
47.10717
 20
0.273382
 30
0.0
 11
46.775078
 21
0.412761
 31
0.0
  0
LINE
  5
89E
330
1F
100
AcDbEntity
  8
1
  6
CONTINUOUS
370
50
 62
4
100
AcDbLine
 10
54.305733
 20
-1.062377
 30
0.0
 11
54.04439499999999
 21
-0.9527359999999999
 31
0.0
  0
LINE
  5
89F
330
1F
100
AcDbEntity
  8
1
  6
CONTINUOUS
370
50
 62
4
100
AcDbLine
 10
55.307407
 20
0.257534
 30
0.0
 11
54.994156
 21
0.388649
 31
0.0
  0
LINE
  5
8A0
330
1F
100
AcDbEntity
  8
1
  6
CONTINUOUS
370
50
 62
4
100
AcDbLine
 10
41.694565
 20
-1.084219
 30
0.0
 11
41.482296
 21
-0.995423
 31
0.0
  0
LINE
  5
8A1
330
1F
100
AcDbEntity
  8
1
  6
CONTINUOUS
370
50
 62
4
100
AcDbLine
 10
45.757774
 20
-1.080172
 30
0.0
 11
45.475536
 21
-0.962143
 31
0.0
  0
LINE
  5
8A2
330
1F
100
AcDbEntity
  8
1
  6
CONTINUOUS
370
50
 62
4
100
AcDbLine
 10
50.410263
 20
-1.139051
 30
0.0
 11
49.96772
 21
-0.954711
 31
0.0
  0
LINE
  5
8A3
330
1F
100
AcDbEntity
  8
1
  6
CONTINUOUS
370
50
 62
4
100
AcDbLine
 10
53.877056
 20
-1.062969
 30
0.0
 11
53.701641
 21
-0.9900829999999999
 31
0.0
  0
LINE
  5
8A4
330
1F
100
AcDbEntity
  8
1
  6
CONTINUOUS
370
50
 62
4
100
AcDbLine
 10
50.32064399999999
 20
1.014539
 30
0.0
 11
50.131649
 21
1.092956
 31
0.0
  0
LINE
  5
8A5
330
1F
100
AcDbEntity
  8
1
  6
CONTINUOUS
370
50
 62
4
100
AcDbLine
 10
49.87321499999999
 20
-1.091092
 30
0.0
 11
49.741608
 21
-1.036778
 31
0.0
  0
LINE
  5
8A6
330
1F
100
AcDbEntity
  8
1
  6
CONTINUOUS
370
50
 62
4
100
AcDbLine
 10
59.41489
 20
0.25143
 30
0.0
 11
59.09891099999999
 21
0.381461
 31
0.0
  0
LINE
  5
8A7
330
1F
100
AcDbEntity
  8
1
  6
CONTINUOUS
370
50
 62
4
100
AcDbLine
 10
51.21703
 20
0.266118
 30
0.0
 11
50.903397
 21
0.39466
 31
0.0
  0
LINE
  5
8A8
330
1F
100
AcDbEntity
  8
1
  6
CONTINUOUS
370
50
 62
4
100
AcDbLine
 10
54.994156
 20
0.388649
 30
0.0
 11
54.680908
 21
0.516594
 31
0.0
  0
LINE
  5
8A9
330
1F
100
AcDbEntity
  8
1
  6
CONTINUOUS
370
50
 62
4
100
AcDbLine
 10
54.424408
 20
1.009629
 30
0.0
 11
54.209145
 21
1.097041
 31
0.0
  0
LINE
  5
8AA
330
1F
100
AcDbEntity
  8
1
  6
CONTINUOUS
370
50
 62
4
100
AcDbLine
 10
43.013077
 20
0.283533
 30
0.0
 11
42.678291
 21
0.419468
 31
0.0
  0
LINE
  5
8AB
330
1F
100
AcDbEntity
  8
1
  6
CONTINUOUS
370
50
 62
4
100
AcDbLine
 10
58.168209
 20
-1.143726
 30
0.0
 11
57.927853
 21
-1.046799
 31
0.0
  0
LINE
  5
8AC
330
1F
100
AcDbEntity
  8
1
  6
CONTINUOUS
370
50
 62
4
100
AcDbLine
 10
46.775078
 20
0.412761
 30
0.0
 11
46.442993
 21
0.5459809999999999
 31
0.0
  0
LINE
  5
8AD
330
1F
100
AcDbEntity
  8
1
  6
CONTINUOUS
370
50
 62
4
100
AcDbLine
 10
58.45365899999999
 20
1.027239
 30
0.0
 11
58.10942799999999
 21
1.165011
 31
0.0
  0
LINE
  5
8AE
330
1F
100
AcDbEntity
  8
1
  6
CONTINUOUS
370
50
 62
4
100
AcDbLine
 10
50.007828
 20
-1.144429
 30
0.0
 11
49.87321499999999
 21
-1.091092
 31
0.0
  0
LINE
  5
8AF
330
1F
100
AcDbEntity
  8
1
  6
CONTINUOUS
370
50
 62
4
100
AcDbLine
 10
42.01199
 20
1.076136
 30
0.0
 11
41.78075399999999
 21
1.167065
 31
0.0
  0
LINE
  5
8B0
330
1F
100
AcDbEntity
  8
1
  6
CONTINUOUS
370
50
 62
4
100
AcDbLine
 10
59.09891099999999
 20
0.381461
 30
0.0
 11
58.782928
 21
0.5054839999999999
 31
0.0
  0
LINE
  5
8B1
330
1F
100
AcDbEntity
  8
1
  6
CONTINUOUS
370
50
 62
4
100
AcDbLine
 10
41.90053899999999
 20
-1.164903
 30
0.0
 11
41.694565
 21
-1.084219
 31
0.0
  0
LINE
  5
8B2
330
1F
100
AcDbEntity
  8
1
  6
CONTINUOUS
370
50
 62
4
100
AcDbLine
 10
50.903397
 20
0.39466
 30
0.0
 11
50.589764
 21
0.517091
 31
0.0
  0
LINE
  5
8B3
330
1F
100
AcDbEntity
  8
1
  6
CONTINUOUS
370
50
 62
4
100
AcDbLine
 10
50.131649
 20
1.092956
 30
0.0
 11
49.931026
 21
1.170662
 31
0.0
  0
LINE
  5
8B4
330
1F
100
AcDbEntity
  8
1
  6
CONTINUOUS
370
50
 62
4
100
AcDbLine
 10
54.053734
 20
-1.131228
 30
0.0
 11
53.877056
 21
-1.062969
 31
0.0
  0
LINE
  5
8B5
330
1F
100
AcDbEntity
  8
1
  6
CONTINUOUS
370
50
 62
4
100
AcDbLine
 10
39.585094
 20
-1.443094
 30
0.0
 11
39.52195
 21
-1.418702
 31
0.0
  0
LINE
  5
8B6
330
1F
100
AcDbEntity
  8
1
  6
CONTINUOUS
370
50
 62
4
100
AcDbLine
 10
42.678291
 20
0.419468
 30
0.0
 11
42.343502
 21
0.5487839999999999
 31
0.0
  0
LINE
  5
8B7
330
1F
100
AcDbEntity
  8
1
  6
CONTINUOUS
370
50
 62
4
100
AcDbLine
 10
46.257141
 20
1.011766
 30
0.0
 11
45.81924799999999
 21
1.180653
 31
0.0
  0
LINE
  5
8B8
330
1F
100
AcDbEntity
  8
1
  6
CONTINUOUS
370
50
 62
4
100
AcDbLine
 10
54.562801
 20
-1.161363
 30
0.0
 11
54.305733
 21
-1.062377
 31
0.0
  0
LINE
  5
8B9
330
1F
100
AcDbEntity
  8
1
  6
CONTINUOUS
370
50
 62
4
100
AcDbLine
 10
42.327736
 20
-1.168244
 30
0.0
 11
42.069397
 21
-1.068847
 31
0.0
  0
LINE
  5
8BA
330
1F
100
AcDbEntity
  8
1
  6
CONTINUOUS
370
50
 62
4
100
AcDbLine
 10
41.650078
 20
1.055164
 30
0.0
 11
41.316639
 21
1.182609
 31
0.0
  0
LINE
  5
8BB
330
1F
100
AcDbEntity
  8
1
  6
CONTINUOUS
370
50
 62
4
100
AcDbLine
 10
49.784046
 20
1.066695
 30
0.0
 11
49.488903
 21
1.179259
 31
0.0
  0
LINE
  5
8BC
330
1F
100
AcDbEntity
  8
1
  6
CONTINUOUS
370
50
 62
4
100
AcDbLine
 10
53.99078
 20
1.011619
 30
0.0
 11
53.439396
 21
1.221529
 31
0.0
  0
LINE
  5
8BD
330
1F
100
AcDbEntity
  8
1
  6
CONTINUOUS
370
50
 62
4
100
AcDbLine
 10
46.577789
 20
-1.224307
 30
0.0
 11
46.05274199999999
 21
-1.025495
 31
0.0
  0
LINE
  5
8BE
330
1F
100
AcDbEntity
  8
1
  6
CONTINUOUS
370
50
 62
4
100
AcDbLine
 10
54.680908
 20
0.516594
 30
0.0
 11
54.367661
 21
0.6335799999999999
 31
0.0
  0
LINE
  5
8BF
330
1F
100
AcDbEntity
  8
1
  6
CONTINUOUS
370
50
 62
4
100
AcDbLine
 10
58.782928
 20
0.5054839999999999
 30
0.0
 11
58.466949
 21
0.6233569999999999
 31
0.0
  0
LINE
  5
8C0
330
1F
100
AcDbEntity
  8
1
  6
CONTINUOUS
370
50
 62
4
100
AcDbLine
 10
50.589764
 20
0.517091
 30
0.0
 11
50.276131
 21
0.6335189999999999
 31
0.0
  0
LINE
  5
8C1
330
1F
100
AcDbEntity
  8
1
  6
CONTINUOUS
370
50
 62
4
100
AcDbLine
 10
46.042721
 20
-1.185754
 30
0.0
 11
45.757774
 21
-1.080172
 31
0.0
  0
LINE
  5
8C2
330
1F
100
AcDbEntity
  8
1
  6
CONTINUOUS
370
50
 62
4
100
AcDbLine
 10
54.209145
 20
1.097041
 30
0.0
 11
53.985573
 21
1.17939
 31
0.0
  0
LINE
  5
8C3
330
1F
100
AcDbEntity
  8
1
  6
CONTINUOUS
370
50
 62
4
100
AcDbLine
 10
42.343502
 20
0.5487839999999999
 30
0.0
 11
42.008713
 21
0.671435
 31
0.0
  0
LINE
  5
8C4
330
1F
100
AcDbEntity
  8
1
  6
CONTINUOUS
370
50
 62
4
100
AcDbLine
 10
46.442993
 20
0.5459809999999999
 30
0.0
 11
46.110909
 21
0.666536
 31
0.0
  0
LINE
  5
8C5
330
1F
100
AcDbEntity
  8
1
  6
CONTINUOUS
370
50
 62
4
100
AcDbLine
 10
50.224998
 20
-1.223173
 30
0.0
 11
50.007828
 21
-1.144429
 31
0.0
  0
LINE
  5
8C6
330
1F
100
AcDbEntity
  8
1
  6
CONTINUOUS
370
50
 62
4
100
AcDbLine
 10
58.82281099999999
 20
-1.226528
 30
0.0
 11
58.454353
 21
-1.093422
 31
0.0
  0
LINE
  5
8C7
330
1F
100
AcDbEntity
  8
1
  6
CONTINUOUS
370
50
 62
4
100
AcDbLine
 10
54.23093
 20
-1.194596
 30
0.0
 11
54.053734
 21
-1.131228
 31
0.0
  0
LINE
  5
8C8
330
1F
100
AcDbEntity
  8
1
  6
CONTINUOUS
370
50
 62
4
100
AcDbLine
 10
42.108135
 20
-1.238018
 30
0.0
 11
41.90053899999999
 21
-1.164903
 31
0.0
  0
LINE
  5
8C9
330
1F
100
AcDbEntity
  8
1
  6
CONTINUOUS
370
50
 62
4
100
AcDbLine
 10
58.466949
 20
0.6233569999999999
 30
0.0
 11
58.150974
 21
0.734617
 31
0.0
  0
LINE
  5
8CA
330
1F
100
AcDbEntity
  8
1
  6
CONTINUOUS
370
50
 62
4
100
AcDbLine
 10
50.276131
 20
0.6335189999999999
 30
0.0
 11
49.962494
 21
0.7436959999999999
 31
0.0
  0
LINE
  5
8CB
330
1F
100
AcDbEntity
  8
1
  6
CONTINUOUS
370
50
 62
4
100
AcDbLine
 10
54.811569
 20
-1.248358
 30
0.0
 11
54.562801
 21
-1.161363
 31
0.0
  0
LINE
  5
8CC
330
1F
100
AcDbEntity
  8
1
  6
CONTINUOUS
370
50
 62
4
100
AcDbLine
 10
58.10942799999999
 20
1.165011
 30
0.0
 11
57.869923
 21
1.248579
 31
0.0
  0
LINE
  5
8CD
330
1F
100
AcDbEntity
  8
1
  6
CONTINUOUS
370
50
 62
4
100
AcDbLine
 10
58.510586
 20
-1.262785
 30
0.0
 11
58.168209
 21
-1.143726
 31
0.0
  0
LINE
  5
8CE
330
1F
100
AcDbEntity
  8
1
  6
CONTINUOUS
370
50
 62
4
100
AcDbLine
 10
45.582954
 20
1.1101
 30
0.0
 11
45.058708
 21
1.292076
 31
0.0
  0
LINE
  5
8CF
330
1F
100
AcDbEntity
  8
1
  6
CONTINUOUS
370
50
 62
4
100
AcDbLine
 10
49.931026
 20
1.170662
 30
0.0
 11
49.710499
 21
1.247203
 31
0.0
  0
LINE
  5
8D0
330
1F
100
AcDbEntity
  8
1
  6
CONTINUOUS
370
50
 62
4
100
AcDbLine
 10
41.78075399999999
 20
1.167065
 30
0.0
 11
41.544987
 21
1.248706
 31
0.0
  0
LINE
  5
8D1
330
1F
100
AcDbEntity
  8
1
  6
CONTINUOUS
370
50
 62
4
100
AcDbLine
 10
43.670383
 20
-0.000922
 30
0.0
 11
43.667702
 21
0.0
 31
0.0
  0
LINE
  5
8D2
330
1F
100
AcDbEntity
  8
1
  6
CONTINUOUS
370
50
 62
4
100
AcDbLine
 10
42.008713
 20
0.671435
 30
0.0
 11
41.673927
 21
0.785311
 31
0.0
  0
LINE
  5
8D3
330
1F
100
AcDbEntity
  8
1
  6
CONTINUOUS
370
50
 62
4
100
AcDbLine
 10
51.832016
 20
-0.000946
 30
0.0
 11
51.829224
 21
0.0
 31
0.0
  0
LINE
  5
8D4
330
1F
100
AcDbEntity
  8
1
  6
CONTINUOUS
370
50
 62
4
100
AcDbLine
 10
54.367661
 20
0.6335799999999999
 30
0.0
 11
54.054413
 21
0.7396809999999999
 31
0.0
  0
LINE
  5
8D5
330
1F
100
AcDbEntity
  8
1
  6
CONTINUOUS
370
50
 62
4
100
AcDbLine
 10
42.588871
 20
-1.255532
 30
0.0
 11
42.327736
 21
-1.168244
 31
0.0
  0
LINE
  5
8D6
330
1F
100
AcDbEntity
  8
1
  6
CONTINUOUS
370
50
 62
4
100
AcDbLine
 10
57.853989
 20
1.103902
 30
0.0
 11
57.24057
 21
1.30859
 31
0.0
  0
LINE
  5
8D7
330
1F
100
AcDbEntity
  8
1
  6
CONTINUOUS
370
50
 62
4
100
AcDbLine
 10
50.847794
 20
-1.284545
 30
0.0
 11
50.410263
 21
-1.139051
 31
0.0
  0
LINE
  5
8D8
330
1F
100
AcDbEntity
  8
1
  6
CONTINUOUS
370
50
 62
4
100
AcDbLine
 10
53.985573
 20
1.17939
 30
0.0
 11
53.761261
 21
1.253775
 31
0.0
  0
LINE
  5
8D9
330
1F
100
AcDbEntity
  8
1
  6
CONTINUOUS
370
50
 62
4
100
AcDbLine
 10
54.407887
 20
-1.252808
 30
0.0
 11
54.23093
 21
-1.194596
 31
0.0
  0
LINE
  5
8DA
330
1F
100
AcDbEntity
  8
1
  6
CONTINUOUS
370
50
 62
4
100
AcDbLine
 10
46.110909
 20
0.666536
 30
0.0
 11
45.77882
 21
0.775426
 31
0.0
  0
LINE
  5
8DB
330
1F
100
AcDbEntity
  8
1
  6
CONTINUOUS
370
50
 62
4
100
AcDbLine
 10
49.488903
 20
1.179259
 30
0.0
 11
49.190628
 21
1.276194
 31
0.0
  0
LINE
  5
8DC
330
1F
100
AcDbEntity
  8
1
  6
CONTINUOUS
370
50
 62
4
100
AcDbLine
 10
46.327148
 20
-1.277877
 30
0.0
 11
46.042721
 21
-1.185754
 31
0.0
  0
LINE
  5
8DD
330
1F
100
AcDbEntity
  8
1
  6
CONTINUOUS
370
50
 62
4
100
AcDbLine
 10
54.959183
 20
-0.147206
 30
0.0
 11
54.513577
 21
-0.004559
 31
0.0
  0
LINE
  5
8DE
330
1F
100
AcDbEntity
  8
1
  6
CONTINUOUS
370
50
 62
4
100
AcDbLine
 10
42.259846
 20
-0.00485
 30
0.0
 11
41.883228
 21
0.115575
 31
0.0
  0
LINE
  5
8DF
330
1F
100
AcDbEntity
  8
1
  6
CONTINUOUS
370
50
 62
4
100
AcDbLine
 10
54.948887
 20
-0.14367
 30
0.0
 11
54.51383999999999
 21
-0.004619
 31
0.0
  0
LINE
  5
8E0
330
1F
100
AcDbEntity
  8
1
  6
CONTINUOUS
370
50
 62
4
100
AcDbLine
 10
41.316639
 20
1.182609
 30
0.0
 11
40.979733
 21
1.290257
 31
0.0
  0
LINE
  5
8E1
330
1F
100
AcDbEntity
  8
1
  6
CONTINUOUS
370
50
 62
4
100
AcDbLine
 10
46.797886
 20
-0.147216
 30
0.0
 11
46.35142099999999
 21
-0.004606
 31
0.0
  0
LINE
  5
8E2
330
1F
100
AcDbEntity
  8
1
  6
CONTINUOUS
370
50
 62
4
100
AcDbLine
 10
46.787983
 20
-0.143845
 30
0.0
 11
46.351418
 21
-0.004526
 31
0.0
  0
LINE
  5
8E3
330
1F
100
AcDbEntity
  8
1
  6
CONTINUOUS
370
50
 62
4
100
AcDbLine
 10
50.42207
 20
-0.004828
 30
0.0
 11
50.01754
 21
0.124191
 31
0.0
  0
LINE
  5
8E4
330
1F
100
AcDbEntity
  8
1
  6
CONTINUOUS
370
50
 62
4
100
AcDbLine
 10
58.58511
 20
-0.00486
 30
0.0
 11
58.180389
 21
0.123905
 31
0.0
  0
LINE
  5
8E5
330
1F
100
AcDbEntity
  8
1
  6
CONTINUOUS
370
50
 62
4
100
AcDbLine
 10
58.150974
 20
0.734617
 30
0.0
 11
57.835003
 21
0.8351409999999999
 31
0.0
  0
LINE
  5
8E6
330
1F
100
AcDbEntity
  8
1
  6
CONTINUOUS
370
50
 62
4
100
AcDbLine
 10
41.883228
 20
0.115575
 30
0.0
 11
41.506569
 21
0.233751
 31
0.0
  0
LINE
  5
8E7
330
1F
100
AcDbEntity
  8
1
  6
CONTINUOUS
370
50
 62
4
100
AcDbLine
 10
45.81924799999999
 20
1.180653
 30
0.0
 11
45.376167
 21
1.319549
 31
0.0
  0
LINE
  5
8E8
330
1F
100
AcDbEntity
  8
1
  6
CONTINUOUS
370
50
 62
4
100
AcDbLine
 10
49.962494
 20
0.7436959999999999
 30
0.0
 11
49.648865
 21
0.8419869999999999
 31
0.0
  0
LINE
  5
8E9
330
1F
100
AcDbEntity
  8
1
  6
CONTINUOUS
370
50
 62
4
100
AcDbLine
 10
58.180389
 20
0.123905
 30
0.0
 11
57.7756
 21
0.250636
 31
0.0
  0
LINE
  5
8EA
330
1F
100
AcDbEntity
  8
1
  6
CONTINUOUS
370
50
 62
4
100
AcDbLine
 10
50.01754
 20
0.124191
 30
0.0
 11
49.612965
 21
0.250601
 31
0.0
  0
LINE
  5
8EB
330
1F
100
AcDbEntity
  8
1
  6
CONTINUOUS
370
50
 62
4
100
AcDbLine
 10
58.792576
 20
-0.069673
 30
0.0
 11
58.58511
 21
-0.00486
 31
0.0
  0
LINE
  5
8EC
330
1F
100
AcDbEntity
  8
1
  6
CONTINUOUS
370
50
 62
4
100
AcDbLine
 10
58.793377
 20
-0.069852
 30
0.0
 11
58.584732
 21
-0.004814
 31
0.0
  0
LINE
  5
8ED
330
1F
100
AcDbEntity
  8
1
  6
CONTINUOUS
370
50
 62
4
100
AcDbLine
 10
54.513577
 20
-0.004559
 30
0.0
 11
54.105511
 21
0.122403
 31
0.0
  0
LINE
  5
8EE
330
1F
100
AcDbEntity
  8
1
  6
CONTINUOUS
370
50
 62
4
100
AcDbLine
 10
46.35142099999999
 20
-0.004606
 30
0.0
 11
45.94336699999999
 21
0.122214
 31
0.0
  0
LINE
  5
8EF
330
1F
100
AcDbEntity
  8
1
  6
CONTINUOUS
370
50
 62
4
100
AcDbLine
 10
42.708466
 20
-0.144062
 30
0.0
 11
42.259846
 21
-0.00485
 31
0.0
  0
LINE
  5
8F0
330
1F
100
AcDbEntity
  8
1
  6
CONTINUOUS
370
50
 62
4
100
AcDbLine
 10
50.871471
 20
-0.144148
 30
0.0
 11
50.42207
 21
-0.004828
 31
0.0
  0
LINE
  5
8F1
330
1F
100
AcDbEntity
  8
1
  6
CONTINUOUS
370
50
 62
4
100
AcDbLine
 10
42.711853
 20
-0.144825
 30
0.0
 11
42.259815
 21
-0.004915
 31
0.0
  0
LINE
  5
8F2
330
1F
100
AcDbEntity
  8
1
  6
CONTINUOUS
370
50
 62
4
100
AcDbLine
 10
50.87248599999999
 20
-0.144172
 30
0.0
 11
50.421955
 21
-0.004859
 31
0.0
  0
LINE
  5
8F3
330
1F
100
AcDbEntity
  8
1
  6
CONTINUOUS
370
50
 62
4
100
AcDbLine
 10
59.000042
 20
-0.133706
 30
0.0
 11
58.792576
 21
-0.069673
 31
0.0
  0
LINE
  5
8F4
330
1F
100
AcDbEntity
  8
1
  6
CONTINUOUS
370
50
 62
4
100
AcDbLine
 10
59.002579
 20
-0.134218
 30
0.0
 11
58.793377
 21
-0.069852
 31
0.0
  0
LINE
  5
8F5
330
1F
100
AcDbEntity
  8
1
  6
CONTINUOUS
370
50
 62
4
100
AcDbLine
 10
47.231613
 20
-0.280179
 30
0.0
 11
46.787983
 21
-0.143845
 31
0.0
  0
LINE
  5
8F6
330
1F
100
AcDbEntity
  8
1
  6
CONTINUOUS
370
50
 62
4
100
AcDbLine
 10
47.244297
 20
-0.284235
 30
0.0
 11
46.797886
 21
-0.147216
 31
0.0
  0
LINE
  5
8F7
330
1F
100
AcDbEntity
  8
1
  6
CONTINUOUS
370
50
 62
4
100
AcDbLine
 10
55.393261
 20
-0.279842
 30
0.0
 11
54.948887
 21
-0.14367
 31
0.0
  0
LINE
  5
8F8
330
1F
100
AcDbEntity
  8
1
  6
CONTINUOUS
370
50
 62
4
100
AcDbLine
 10
42.320141
 20
-1.302959
 30
0.0
 11
42.108135
 21
-1.238018
 31
0.0
  0
LINE
  5
8F9
330
1F
100
AcDbEntity
  8
1
  6
CONTINUOUS
370
50
 62
4
100
AcDbLine
 10
54.054413
 20
0.7396809999999999
 30
0.0
 11
53.741165
 21
0.835542
 31
0.0
  0
LINE
  5
8FA
330
1F
100
AcDbEntity
  8
1
  6
CONTINUOUS
370
50
 62
4
100
AcDbLine
 10
55.404743
 20
-0.283555
 30
0.0
 11
54.959183
 21
-0.147206
 31
0.0
  0
LINE
  5
8FB
330
1F
100
AcDbEntity
  8
1
  6
CONTINUOUS
370
50
 62
4
100
AcDbLine
 10
59.20751199999999
 20
-0.196957
 30
0.0
 11
59.000042
 21
-0.133706
 31
0.0
  0
LINE
  5
8FC
330
1F
100
AcDbEntity
  8
1
  6
CONTINUOUS
370
50
 62
4
100
AcDbLine
 10
59.211388
 20
-0.197644
 30
0.0
 11
59.002579
 21
-0.134218
 31
0.0
  0
LINE
  5
8FD
330
1F
100
AcDbEntity
  8
1
  6
CONTINUOUS
370
50
 62
4
100
AcDbLine
 10
45.94336699999999
 20
0.122214
 30
0.0
 11
45.535362
 21
0.246027
 31
0.0
  0
LINE
  5
8FE
330
1F
100
AcDbEntity
  8
1
  6
CONTINUOUS
370
50
 62
4
100
AcDbLine
 10
50.546768
 20
-1.3208
 30
0.0
 11
50.224998
 21
-1.223173
 31
0.0
  0
LINE
  5
8FF
330
1F
100
AcDbEntity
  8
1
  6
CONTINUOUS
370
50
 62
4
100
AcDbLine
 10
54.105511
 20
0.122403
 30
0.0
 11
53.697495
 21
0.246066
 31
0.0
  0
LINE
  5
900
330
1F
100
AcDbEntity
  8
1
  6
CONTINUOUS
370
50
 62
4
100
AcDbLine
 10
55.05933
 20
-1.323321
 30
0.0
 11
54.811569
 21
-1.248358
 31
0.0
  0
LINE
  5
901
330
1F
100
AcDbEntity
  8
1
  6
CONTINUOUS
370
50
 62
4
100
AcDbLine
 10
51.32093
 20
-0.279902
 30
0.0
 11
50.871471
 21
-0.144148
 31
0.0
  0
LINE
  5
902
330
1F
100
AcDbEntity
  8
1
  6
CONTINUOUS
370
50
 62
4
100
AcDbLine
 10
43.157146
 20
-0.279378
 30
0.0
 11
42.708466
 21
-0.144062
 31
0.0
  0
LINE
  5
903
330
1F
100
AcDbEntity
  8
1
  6
CONTINUOUS
370
50
 62
4
100
AcDbLine
 10
51.322281
 20
-0.279614
 30
0.0
 11
50.87248599999999
 21
-0.144172
 31
0.0
  0
LINE
  5
904
330
1F
100
AcDbEntity
  8
1
  6
CONTINUOUS
370
50
 62
4
100
AcDbLine
 10
59.414974
 20
-0.259369
 30
0.0
 11
59.20751199999999
 21
-0.196957
 31
0.0
  0
LINE
  5
905
330
1F
100
AcDbEntity
  8
1
  6
CONTINUOUS
370
50
 62
4
100
AcDbLine
 10
43.161793
 20
-0.280114
 30
0.0
 11
42.711853
 21
-0.144825
 31
0.0
  0
LINE
  5
906
330
1F
100
AcDbEntity
  8
1
  6
CONTINUOUS
370
50
 62
4
100
AcDbLine
 10
54.583855
 20
-1.3056
 30
0.0
 11
54.407887
 21
-1.252808
 31
0.0
  0
LINE
  5
907
330
1F
100
AcDbEntity
  8
1
  6
CONTINUOUS
370
50
 62
4
100
AcDbLine
 10
59.418915
 20
-0.25989
 30
0.0
 11
59.211388
 21
-0.197644
 31
0.0
  0
LINE
  5
908
330
1F
100
AcDbEntity
  8
1
  6
CONTINUOUS
370
50
 62
4
100
AcDbLine
 10
47.006939
 20
-1.352169
 30
0.0
 11
46.577789
 21
-1.224307
 31
0.0
  0
LINE
  5
909
330
1F
100
AcDbEntity
  8
1
  6
CONTINUOUS
370
50
 62
4
100
AcDbLine
 10
49.710499
 20
1.247203
 30
0.0
 11
49.466881
 21
1.319758
 31
0.0
  0
LINE
  5
90A
330
1F
100
AcDbEntity
  8
1
  6
CONTINUOUS
370
50
 62
4
100
AcDbLine
 10
45.535362
 20
0.246027
 30
0.0
 11
45.127357
 21
0.367219
 31
0.0
  0
LINE
  5
90B
330
1F
100
AcDbEntity
  8
1
  6
CONTINUOUS
370
50
 62
4
100
AcDbLine
 10
59.622429
 20
-0.320883
 30
0.0
 11
59.414974
 21
-0.259369
 31
0.0
  0
LINE
  5
90C
330
1F
100
AcDbEntity
  8
1
  6
CONTINUOUS
370
50
 62
4
100
AcDbLine
 10
57.869923
 20
1.248579
 30
0.0
 11
57.629303
 21
1.319892
 31
0.0
  0
LINE
  5
90D
330
1F
100
AcDbEntity
  8
1
  6
CONTINUOUS
370
50
 62
4
100
AcDbLine
 10
59.625656
 20
-0.32112
 30
0.0
 11
59.418915
 21
-0.25989
 31
0.0
  0
LINE
  5
90E
330
1F
100
AcDbEntity
  8
1
  6
CONTINUOUS
370
50
 62
4
100
AcDbLine
 10
53.697495
 20
0.246066
 30
0.0
 11
53.289486
 21
0.36681
 31
0.0
  0
LINE
  5
90F
330
1F
100
AcDbEntity
  8
1
  6
CONTINUOUS
370
50
 62
4
100
AcDbLine
 10
41.544987
 20
1.248706
 30
0.0
 11
41.304417
 21
1.31972
 31
0.0
  0
LINE
  5
910
330
1F
100
AcDbEntity
  8
1
  6
CONTINUOUS
370
50
 62
4
100
AcDbLine
 10
53.761261
 20
1.253775
 30
0.0
 11
53.537811
 21
1.319596
 31
0.0
  0
LINE
  5
911
330
1F
100
AcDbEntity
  8
1
  6
CONTINUOUS
370
50
 62
4
100
AcDbLine
 10
39.651798
 20
-1.462712
 30
0.0
 11
39.585094
 21
-1.443094
 31
0.0
  0
LINE
  5
912
330
1F
100
AcDbEntity
  8
1
  6
CONTINUOUS
370
50
 62
4
100
AcDbLine
 10
45.77882
 20
0.775426
 30
0.0
 11
45.446732
 21
0.8729079999999999
 31
0.0
  0
LINE
  5
913
330
1F
100
AcDbEntity
  8
1
  6
CONTINUOUS
370
50
 62
4
100
AcDbLine
 10
51.758621
 20
-0.407146
 30
0.0
 11
51.322281
 21
-0.279614
 31
0.0
  0
LINE
  5
914
330
1F
100
AcDbEntity
  8
1
  6
CONTINUOUS
370
50
 62
4
100
AcDbLine
 10
51.770363
 20
-0.411143
 30
0.0
 11
51.32093
 21
-0.279902
 31
0.0
  0
LINE
  5
915
330
1F
100
AcDbEntity
  8
1
  6
CONTINUOUS
370
50
 62
4
100
AcDbLine
 10
41.506569
 20
0.233751
 30
0.0
 11
41.129902
 21
0.343731
 31
0.0
  0
LINE
  5
916
330
1F
100
AcDbEntity
  8
1
  6
CONTINUOUS
370
50
 62
4
100
AcDbLine
 10
41.673927
 20
0.785311
 30
0.0
 11
41.339146
 21
0.882976
 31
0.0
  0
LINE
  5
917
330
1F
100
AcDbEntity
  8
1
  6
CONTINUOUS
370
50
 62
4
100
AcDbLine
 10
43.597679
 20
-0.40726
 30
0.0
 11
43.161793
 21
-0.280114
 31
0.0
  0
LINE
  5
918
330
1F
100
AcDbEntity
  8
1
  6
CONTINUOUS
370
50
 62
4
100
AcDbLine
 10
43.605808
 20
-0.410241
 30
0.0
 11
43.157146
 21
-0.279378
 31
0.0
  0
LINE
  5
919
330
1F
100
AcDbEntity
  8
1
  6
CONTINUOUS
370
50
 62
4
100
AcDbLine
 10
59.82986099999999
 20
-0.381228
 30
0.0
 11
59.622429
 21
-0.320883
 31
0.0
  0
LINE
  5
91A
330
1F
100
AcDbEntity
  8
1
  6
CONTINUOUS
370
50
 62
4
100
AcDbLine
 10
59.21692299999999
 20
-1.341146
 30
0.0
 11
58.82281099999999
 21
-1.226528
 31
0.0
  0
LINE
  5
91B
330
1F
100
AcDbEntity
  8
1
  6
CONTINUOUS
370
50
 62
4
100
AcDbLine
 10
59.830349
 20
-0.380631
 30
0.0
 11
59.625656
 21
-0.32112
 31
0.0
  0
LINE
  5
91C
330
1F
100
AcDbEntity
  8
1
  6
CONTINUOUS
370
50
 62
4
100
AcDbLine
 10
53.439396
 20
1.221529
 30
0.0
 11
52.90729899999999
 21
1.375206
 31
0.0
  0
LINE
  5
91D
330
1F
100
AcDbEntity
  8
1
  6
CONTINUOUS
370
50
 62
4
100
AcDbLine
 10
49.612965
 20
0.250601
 30
0.0
 11
49.208382
 21
0.367322
 31
0.0
  0
LINE
  5
91E
330
1F
100
AcDbEntity
  8
1
  6
CONTINUOUS
370
50
 62
4
100
AcDbLine
 10
57.7756
 20
0.250636
 30
0.0
 11
57.370815
 21
0.367362
 31
0.0
  0
LINE
  5
91F
330
1F
100
AcDbEntity
  8
1
  6
CONTINUOUS
370
50
 62
4
100
AcDbLine
 10
49.99270199999999
 20
1.172624
 30
0.0
 11
49.94611399999999
 21
1.186056
 31
0.0
  0
LINE
  5
920
330
1F
100
AcDbEntity
  8
1
  6
CONTINUOUS
370
50
 62
4
100
AcDbLine
 10
58.131294
 20
1.179321
 30
0.0
 11
58.06155
 21
1.199417
 31
0.0
  0
LINE
  5
921
330
1F
100
AcDbEntity
  8
1
  6
CONTINUOUS
370
50
 62
4
100
AcDbLine
 10
50.07597
 20
1.148646
 30
0.0
 11
49.99270199999999
 21
1.172624
 31
0.0
  0
LINE
  5
922
330
1F
100
AcDbEntity
  8
1
  6
CONTINUOUS
370
50
 62
4
100
AcDbLine
 10
58.201038
 20
1.159253
 30
0.0
 11
58.131294
 21
1.179321
 31
0.0
  0
LINE
  5
923
330
1F
100
AcDbEntity
  8
1
  6
CONTINUOUS
370
50
 62
4
100
AcDbLine
 10
41.873535
 20
1.160577
 30
0.0
 11
41.784389
 21
1.186221
 31
0.0
  0
LINE
  5
924
330
1F
100
AcDbEntity
  8
1
  6
CONTINUOUS
370
50
 62
4
100
AcDbLine
 10
41.962677
 20
1.134962
 30
0.0
 11
41.873535
 21
1.160577
 31
0.0
  0
LINE
  5
925
330
1F
100
AcDbEntity
  8
1
  6
CONTINUOUS
370
50
 62
4
100
AcDbLine
 10
49.94611399999999
 20
1.186056
 30
0.0
 11
49.899525
 21
1.199411
 31
0.0
  0
LINE
  5
926
330
1F
100
AcDbEntity
  8
1
  6
CONTINUOUS
370
50
 62
4
100
AcDbLine
 10
42.849644
 20
-1.330126
 30
0.0
 11
42.588871
 21
-1.255532
 31
0.0
  0
LINE
  5
927
330
1F
100
AcDbEntity
  8
1
  6
CONTINUOUS
370
50
 62
4
100
AcDbLine
 10
58.06155
 20
1.199417
 30
0.0
 11
58.007233
 21
1.214939
 31
0.0
  0
LINE
  5
928
330
1F
100
AcDbEntity
  8
1
  6
CONTINUOUS
370
50
 62
4
100
AcDbLine
 10
41.784389
 20
1.186221
 30
0.0
 11
41.73807499999999
 21
1.199439
 31
0.0
  0
LINE
  5
929
330
1F
100
AcDbEntity
  8
1
  6
CONTINUOUS
370
50
 62
4
100
AcDbLine
 10
58.272945
 20
1.138755
 30
0.0
 11
58.201038
 21
1.159253
 31
0.0
  0
LINE
  5
92A
330
1F
100
AcDbEntity
  8
1
  6
CONTINUOUS
370
50
 62
4
100
AcDbLine
 10
49.899525
 20
1.199411
 30
0.0
 11
49.833652
 21
1.218162
 31
0.0
  0
LINE
  5
92B
330
1F
100
AcDbEntity
  8
1
  6
CONTINUOUS
370
50
 62
4
100
AcDbLine
 10
50.159321
 20
1.124935
 30
0.0
 11
50.07597
 21
1.148646
 31
0.0
  0
LINE
  5
92C
330
1F
100
AcDbEntity
  8
1
  6
CONTINUOUS
370
50
 62
4
100
AcDbLine
 10
58.007233
 20
1.214939
 30
0.0
 11
57.95291899999999
 21
1.230348
 31
0.0
  0
LINE
  5
92D
330
1F
100
AcDbEntity
  8
1
  6
CONTINUOUS
370
50
 62
4
100
AcDbLine
 10
42.051922
 20
1.109666
 30
0.0
 11
41.962677
 21
1.134962
 31
0.0
  0
LINE
  5
92E
330
1F
100
AcDbEntity
  8
1
  6
CONTINUOUS
370
50
 62
4
100
AcDbLine
 10
41.73807499999999
 20
1.199439
 30
0.0
 11
41.660526
 21
1.221406
 31
0.0
  0
LINE
  5
92F
330
1F
100
AcDbEntity
  8
1
  6
CONTINUOUS
370
50
 62
4
100
AcDbLine
 10
58.344845
 20
1.118455
 30
0.0
 11
58.272945
 21
1.138755
 31
0.0
  0
LINE
  5
930
330
1F
100
AcDbEntity
  8
1
  6
CONTINUOUS
370
50
 62
4
100
AcDbLine
 10
49.833652
 20
1.218162
 30
0.0
 11
49.767776
 21
1.236758
 31
0.0
  0
LINE
  5
931
330
1F
100
AcDbEntity
  8
1
  6
CONTINUOUS
370
50
 62
4
100
AcDbLine
 10
55.850323
 20
-0.409176
 30
0.0
 11
55.404743
 21
-0.283555
 31
0.0
  0
LINE
  5
932
330
1F
100
AcDbEntity
  8
1
  6
CONTINUOUS
370
50
 62
4
100
AcDbLine
 10
47.690727
 20
-0.410012
 30
0.0
 11
47.244297
 21
-0.284235
 31
0.0
  0
LINE
  5
933
330
1F
100
AcDbEntity
  8
1
  6
CONTINUOUS
370
50
 62
4
100
AcDbLine
 10
57.95291899999999
 20
1.230348
 30
0.0
 11
57.898518
 21
1.24567
 31
0.0
  0
LINE
  5
934
330
1F
100
AcDbEntity
  8
1
  6
CONTINUOUS
370
50
 62
4
100
AcDbLine
 10
55.847305
 20
-0.407483
 30
0.0
 11
55.393261
 21
-0.279842
 31
0.0
  0
LINE
  5
935
330
1F
100
AcDbEntity
  8
1
  6
CONTINUOUS
370
50
 62
4
100
AcDbLine
 10
47.686794
 20
-0.40811
 30
0.0
 11
47.231613
 21
-0.280179
 31
0.0
  0
LINE
  5
936
330
1F
100
AcDbEntity
  8
1
  6
CONTINUOUS
370
50
 62
4
100
AcDbLine
 10
50.24276
 20
1.101495
 30
0.0
 11
50.159321
 21
1.124935
 31
0.0
  0
LINE
  5
937
330
1F
100
AcDbEntity
  8
1
  6
CONTINUOUS
370
50
 62
4
100
AcDbLine
 10
41.660526
 20
1.221406
 30
0.0
 11
41.582905
 21
1.243191
 31
0.0
  0
LINE
  5
938
330
1F
100
AcDbEntity
  8
1
  6
CONTINUOUS
370
50
 62
4
100
AcDbLine
 10
49.767776
 20
1.236758
 30
0.0
 11
49.70182399999999
 21
1.255224
 31
0.0
  0
LINE
  5
939
330
1F
100
AcDbEntity
  8
1
  6
CONTINUOUS
370
50
 62
4
100
AcDbLine
 10
57.898518
 20
1.24567
 30
0.0
 11
57.844116
 21
1.260881
 31
0.0
  0
LINE
  5
93A
330
1F
100
AcDbEntity
  8
1
  6
CONTINUOUS
370
50
 62
4
100
AcDbLine
 10
58.416859
 20
1.098326
 30
0.0
 11
58.344845
 21
1.118455
 31
0.0
  0
LINE
  5
93B
330
1F
100
AcDbEntity
  8
1
  6
CONTINUOUS
370
50
 62
4
100
AcDbLine
 10
42.141281
 20
1.084689
 30
0.0
 11
42.051922
 21
1.109666
 31
0.0
  0
LINE
  5
93C
330
1F
100
AcDbEntity
  8
1
  6
CONTINUOUS
370
50
 62
4
100
AcDbLine
 10
41.582905
 20
1.243191
 30
0.0
 11
41.505192
 21
1.264801
 31
0.0
  0
LINE
  5
93D
330
1F
100
AcDbEntity
  8
1
  6
CONTINUOUS
370
50
 62
4
100
AcDbLine
 10
49.70182399999999
 20
1.255224
 30
0.0
 11
49.635796
 21
1.273558
 31
0.0
  0
LINE
  5
93E
330
1F
100
AcDbEntity
  8
1
  6
CONTINUOUS
370
50
 62
4
100
AcDbLine
 10
57.844116
 20
1.260881
 30
0.0
 11
57.790443
 21
1.275781
 31
0.0
  0
LINE
  5
93F
330
1F
100
AcDbEntity
  8
1
  6
CONTINUOUS
370
50
 62
4
100
AcDbLine
 10
50.32630899999999
 20
1.078318
 30
0.0
 11
50.24276
 21
1.101495
 31
0.0
  0
LINE
  5
940
330
1F
100
AcDbEntity
  8
1
  6
CONTINUOUS
370
50
 62
4
100
AcDbLine
 10
42.164043
 20
1.078382
 30
0.0
 11
42.141281
 21
1.084689
 31
0.0
  0
LINE
  5
941
330
1F
100
AcDbEntity
  8
1
  6
CONTINUOUS
370
50
 62
4
100
AcDbLine
 10
46.607433
 20
-1.355452
 30
0.0
 11
46.327148
 21
-1.277877
 31
0.0
  0
LINE
  5
942
330
1F
100
AcDbEntity
  8
1
  6
CONTINUOUS
370
50
 62
4
100
AcDbLine
 10
58.48886899999999
 20
1.078398
 30
0.0
 11
58.416859
 21
1.098326
 31
0.0
  0
LINE
  5
943
330
1F
100
AcDbEntity
  8
1
  6
CONTINUOUS
370
50
 62
4
100
AcDbLine
 10
45.459553
 20
1.296495
 30
0.0
 11
45.376167
 21
1.319545
 31
0.0
  0
LINE
  5
944
330
1F
100
AcDbEntity
  8
1
  6
CONTINUOUS
370
50
 62
4
100
AcDbLine
 10
53.561504
 20
1.313054
 30
0.0
 11
53.537811
 21
1.319588
 31
0.0
  0
LINE
  5
945
330
1F
100
AcDbEntity
  8
1
  6
CONTINUOUS
370
50
 62
4
100
AcDbLine
 10
45.543007
 20
1.273482
 30
0.0
 11
45.459553
 21
1.296495
 31
0.0
  0
LINE
  5
946
330
1F
100
AcDbEntity
  8
1
  6
CONTINUOUS
370
50
 62
4
100
AcDbLine
 10
57.790443
 20
1.275781
 30
0.0
 11
57.736774
 21
1.290577
 31
0.0
  0
LINE
  5
947
330
1F
100
AcDbEntity
  8
1
  6
CONTINUOUS
370
50
 62
4
100
AcDbLine
 10
53.289486
 20
0.36681
 30
0.0
 11
52.881428
 21
0.479302
 31
0.0
  0
LINE
  5
948
330
1F
100
AcDbEntity
  8
1
  6
CONTINUOUS
370
50
 62
4
100
AcDbLine
 10
41.505192
 20
1.264801
 30
0.0
 11
41.427483
 21
1.286216
 31
0.0
  0
LINE
  5
949
330
1F
100
AcDbEntity
  8
1
  6
CONTINUOUS
370
50
 62
4
100
AcDbLine
 10
53.650673
 20
1.2885
 30
0.0
 11
53.561504
 21
1.313054
 31
0.0
  0
LINE
  5
94A
330
1F
100
AcDbEntity
  8
1
  6
CONTINUOUS
370
50
 62
4
100
AcDbLine
 10
50.349586
 20
1.071912
 30
0.0
 11
50.32630899999999
 21
1.078318
 31
0.0
  0
LINE
  5
94B
330
1F
100
AcDbEntity
  8
1
  6
CONTINUOUS
370
50
 62
4
100
AcDbLine
 10
49.635796
 20
1.273558
 30
0.0
 11
49.551376
 21
1.296784
 31
0.0
  0
LINE
  5
94C
330
1F
100
AcDbEntity
  8
1
  6
CONTINUOUS
370
50
 62
4
100
AcDbLine
 10
45.626541
 20
1.250501
 30
0.0
 11
45.543007
 21
1.273482
 31
0.0
  0
LINE
  5
94D
330
1F
100
AcDbEntity
  8
1
  6
CONTINUOUS
370
50
 62
4
100
AcDbLine
 10
53.739841
 20
1.263997
 30
0.0
 11
53.650673
 21
1.2885
 31
0.0
  0
LINE
  5
94E
330
1F
100
AcDbEntity
  8
1
  6
CONTINUOUS
370
50
 62
4
100
AcDbLine
 10
42.24752
 20
1.055447
 30
0.0
 11
42.164043
 21
1.078382
 31
0.0
  0
LINE
  5
94F
330
1F
100
AcDbEntity
  8
1
  6
CONTINUOUS
370
50
 62
4
100
AcDbLine
 10
45.127357
 20
0.367219
 30
0.0
 11
44.719303
 21
0.479268
 31
0.0
  0
LINE
  5
950
330
1F
100
AcDbEntity
  8
1
  6
CONTINUOUS
370
50
 62
4
100
AcDbLine
 10
45.710079
 20
1.227573
 30
0.0
 11
45.626541
 21
1.250501
 31
0.0
  0
LINE
  5
951
330
1F
100
AcDbEntity
  8
1
  6
CONTINUOUS
370
50
 62
4
100
AcDbLine
 10
53.829117
 20
1.239516
 30
0.0
 11
53.739841
 21
1.263997
 31
0.0
  0
LINE
  5
952
330
1F
100
AcDbEntity
  8
1
  6
CONTINUOUS
370
50
 62
4
100
AcDbLine
 10
45.76194
 20
1.213365
 30
0.0
 11
45.710079
 21
1.227573
 31
0.0
  0
LINE
  5
953
330
1F
100
AcDbEntity
  8
1
  6
CONTINUOUS
370
50
 62
4
100
AcDbLine
 10
58.557934
 20
1.059477
 30
0.0
 11
58.48886899999999
 21
1.078398
 31
0.0
  0
LINE
  5
954
330
1F
100
AcDbEntity
  8
1
  6
CONTINUOUS
370
50
 62
4
100
AcDbLine
 10
57.736774
 20
1.290577
 30
0.0
 11
57.683037
 21
1.305289
 31
0.0
  0
LINE
  5
955
330
1F
100
AcDbEntity
  8
1
  6
CONTINUOUS
370
50
 62
4
100
AcDbLine
 10
53.918392
 20
1.215078
 30
0.0
 11
53.829117
 21
1.239516
 31
0.0
  0
LINE
  5
956
330
1F
100
AcDbEntity
  8
1
  6
CONTINUOUS
370
50
 62
4
100
AcDbLine
 10
45.813797
 20
1.199174
 30
0.0
 11
45.76194
 21
1.213365
 31
0.0
  0
LINE
  5
957
330
1F
100
AcDbEntity
  8
1
  6
CONTINUOUS
370
50
 62
4
100
AcDbLine
 10
54.848324
 20
0.961224
 30
0.0
 11
54.794334
 21
0.975992
 31
0.0
  0
LINE
  5
958
330
1F
100
AcDbEntity
  8
1
  6
CONTINUOUS
370
50
 62
4
100
AcDbLine
 10
54.794334
 20
0.975992
 30
0.0
 11
54.740341
 21
0.990756
 31
0.0
  0
LINE
  5
959
330
1F
100
AcDbEntity
  8
1
  6
CONTINUOUS
370
50
 62
4
100
AcDbLine
 10
53.976357
 20
1.199232
 30
0.0
 11
53.918392
 21
1.215078
 31
0.0
  0
LINE
  5
95A
330
1F
100
AcDbEntity
  8
1
  6
CONTINUOUS
370
50
 62
4
100
AcDbLine
 10
41.427483
 20
1.286216
 30
0.0
 11
41.365948
 21
1.303037
 31
0.0
  0
LINE
  5
95B
330
1F
100
AcDbEntity
  8
1
  6
CONTINUOUS
370
50
 62
4
100
AcDbLine
 10
54.740341
 20
0.990756
 30
0.0
 11
54.686268
 21
1.005535
 31
0.0
  0
LINE
  5
95C
330
1F
100
AcDbEntity
  8
1
  6
CONTINUOUS
370
50
 62
4
100
AcDbLine
 10
45.87709
 20
1.181876
 30
0.0
 11
45.813797
 21
1.199174
 31
0.0
  0
LINE
  5
95D
330
1F
100
AcDbEntity
  8
1
  6
CONTINUOUS
370
50
 62
4
100
AcDbLine
 10
54.686268
 20
1.005535
 30
0.0
 11
54.632195
 21
1.020308
 31
0.0
  0
LINE
  5
95E
330
1F
100
AcDbEntity
  8
1
  6
CONTINUOUS
370
50
 62
4
100
AcDbLine
 10
54.051086
 20
1.178822
 30
0.0
 11
53.976357
 21
1.199232
 31
0.0
  0
LINE
  5
95F
330
1F
100
AcDbEntity
  8
1
  6
CONTINUOUS
370
50
 62
4
100
AcDbLine
 10
54.632195
 20
1.020308
 30
0.0
 11
54.578556
 21
1.034956
 31
0.0
  0
LINE
  5
960
330
1F
100
AcDbEntity
  8
1
  6
CONTINUOUS
370
50
 62
4
100
AcDbLine
 10
45.94038399999999
 20
1.164597
 30
0.0
 11
45.87709
 21
1.181876
 31
0.0
  0
LINE
  5
961
330
1F
100
AcDbEntity
  8
1
  6
CONTINUOUS
370
50
 62
4
100
AcDbLine
 10
54.578556
 20
1.034956
 30
0.0
 11
54.524918
 21
1.049597
 31
0.0
  0
LINE
  5
962
330
1F
100
AcDbEntity
  8
1
  6
CONTINUOUS
370
50
 62
4
100
AcDbLine
 10
54.12582
 20
1.15843
 30
0.0
 11
54.051086
 21
1.178822
 31
0.0
  0
LINE
  5
963
330
1F
100
AcDbEntity
  8
1
  6
CONTINUOUS
370
50
 62
4
100
AcDbLine
 10
50.438759
 20
1.047582
 30
0.0
 11
50.349586
 21
1.071912
 31
0.0
  0
LINE
  5
964
330
1F
100
AcDbEntity
  8
1
  6
CONTINUOUS
370
50
 62
4
100
AcDbLine
 10
54.524918
 20
1.049597
 30
0.0
 11
54.47122599999999
 21
1.064246
 31
0.0
  0
LINE
  5
965
330
1F
100
AcDbEntity
  8
1
  6
CONTINUOUS
370
50
 62
4
100
AcDbLine
 10
54.47122599999999
 20
1.064246
 30
0.0
 11
54.417534
 21
1.078891
 31
0.0
  0
LINE
  5
966
330
1F
100
AcDbEntity
  8
1
  6
CONTINUOUS
370
50
 62
4
100
AcDbLine
 10
54.20055
 20
1.138049
 30
0.0
 11
54.12582
 21
1.15843
 31
0.0
  0
LINE
  5
967
330
1F
100
AcDbEntity
  8
1
  6
CONTINUOUS
370
50
 62
4
100
AcDbLine
 10
46.003677
 20
1.147336
 30
0.0
 11
45.94038399999999
 21
1.164597
 31
0.0
  0
LINE
  5
968
330
1F
100
AcDbEntity
  8
1
  6
CONTINUOUS
370
50
 62
4
100
AcDbLine
 10
54.417534
 20
1.078891
 30
0.0
 11
54.34640899999999
 21
1.098284
 31
0.0
  0
LINE
  5
969
330
1F
100
AcDbEntity
  8
1
  6
CONTINUOUS
370
50
 62
4
100
AcDbLine
 10
54.275284
 20
1.117674
 30
0.0
 11
54.20055
 21
1.138049
 31
0.0
  0
LINE
  5
96A
330
1F
100
AcDbEntity
  8
1
  6
CONTINUOUS
370
50
 62
4
100
AcDbLine
 10
54.34640899999999
 20
1.098284
 30
0.0
 11
54.275284
 21
1.117674
 31
0.0
  0
LINE
  5
96B
330
1F
100
AcDbEntity
  8
1
  6
CONTINUOUS
370
50
 62
4
100
AcDbLine
 10
54.918713
 20
0.9420409999999999
 30
0.0
 11
54.848324
 21
0.961224
 31
0.0
  0
LINE
  5
96C
330
1F
100
AcDbEntity
  8
1
  6
CONTINUOUS
370
50
 62
4
100
AcDbLine
 10
46.066971
 20
1.130088
 30
0.0
 11
46.003677
 21
1.147336
 31
0.0
  0
LINE
  5
96D
330
1F
100
AcDbEntity
  8
1
  6
CONTINUOUS
370
50
 62
4
100
AcDbLine
 10
46.687065
 20
0.961271
 30
0.0
 11
46.621319
 21
0.979178
 31
0.0
  0
LINE
  5
96E
330
1F
100
AcDbEntity
  8
1
  6
CONTINUOUS
370
50
 62
4
100
AcDbLine
 10
46.113998
 20
1.11728
 30
0.0
 11
46.066971
 21
1.130088
 31
0.0
  0
LINE
  5
96F
330
1F
100
AcDbEntity
  8
1
  6
CONTINUOUS
370
50
 62
4
100
AcDbLine
 10
53.741165
 20
0.835542
 30
0.0
 11
53.42791
 21
0.920854
 31
0.0
  0
LINE
  5
970
330
1F
100
AcDbEntity
  8
1
  6
CONTINUOUS
370
50
 62
4
100
AcDbLine
 10
46.733929
 20
0.9485079999999999
 30
0.0
 11
46.687065
 21
0.961271
 31
0.0
  0
LINE
  5
971
330
1F
100
AcDbEntity
  8
1
  6
CONTINUOUS
370
50
 62
4
100
AcDbLine
 10
49.551376
 20
1.296784
 30
0.0
 11
49.466881
 21
1.319795
 31
0.0
  0
LINE
  5
972
330
1F
100
AcDbEntity
  8
1
  6
CONTINUOUS
370
50
 62
4
100
AcDbLine
 10
46.621319
 20
0.979178
 30
0.0
 11
46.555569
 21
0.997084
 31
0.0
  0
LINE
  5
973
330
1F
100
AcDbEntity
  8
1
  6
CONTINUOUS
370
50
 62
4
100
AcDbLine
 10
46.555569
 20
0.997084
 30
0.0
 11
46.489723
 21
1.015013
 31
0.0
  0
LINE
  5
974
330
1F
100
AcDbEntity
  8
1
  6
CONTINUOUS
370
50
 62
4
100
AcDbLine
 10
46.161026
 20
1.104475
 30
0.0
 11
46.113998
 21
1.11728
 31
0.0
  0
LINE
  5
975
330
1F
100
AcDbEntity
  8
1
  6
CONTINUOUS
370
50
 62
4
100
AcDbLine
 10
46.489723
 20
1.015013
 30
0.0
 11
46.42387799999999
 21
1.032937
 31
0.0
  0
LINE
  5
976
330
1F
100
AcDbEntity
  8
1
  6
CONTINUOUS
370
50
 62
4
100
AcDbLine
 10
46.208057
 20
1.091674
 30
0.0
 11
46.161026
 21
1.104475
 31
0.0
  0
LINE
  5
977
330
1F
100
AcDbEntity
  8
1
  6
CONTINUOUS
370
50
 62
4
100
AcDbLine
 10
41.129902
 20
0.343731
 30
0.0
 11
40.753273
 21
0.446241
 31
0.0
  0
LINE
  5
978
330
1F
100
AcDbEntity
  8
1
  6
CONTINUOUS
370
50
 62
4
100
AcDbLine
 10
46.42387799999999
 20
1.032937
 30
0.0
 11
46.339481
 21
1.055907
 31
0.0
  0
LINE
  5
979
330
1F
100
AcDbEntity
  8
1
  6
CONTINUOUS
370
50
 62
4
100
AcDbLine
 10
46.255085
 20
1.078875
 30
0.0
 11
46.208057
 21
1.091674
 31
0.0
  0
LINE
  5
97A
330
1F
100
AcDbEntity
  8
1
  6
CONTINUOUS
370
50
 62
4
100
AcDbLine
 10
46.339481
 20
1.055907
 30
0.0
 11
46.255085
 21
1.078875
 31
0.0
  0
LINE
  5
97B
330
1F
100
AcDbEntity
  8
1
  6
CONTINUOUS
370
50
 62
4
100
AcDbLine
 10
57.683037
 20
1.305289
 30
0.0
 11
57.629303
 21
1.3199
 31
0.0
  0
LINE
  5
97C
330
1F
100
AcDbEntity
  8
1
  6
CONTINUOUS
370
50
 62
4
100
AcDbLine
 10
46.780788
 20
0.935784
 30
0.0
 11
46.733929
 21
0.9485079999999999
 31
0.0
  0
LINE
  5
97D
330
1F
100
AcDbEntity
  8
1
  6
CONTINUOUS
370
50
 62
4
100
AcDbLine
 10
41.365948
 20
1.303037
 30
0.0
 11
41.304417
 21
1.319742
 31
0.0
  0
LINE
  5
97E
330
1F
100
AcDbEntity
  8
1
  6
CONTINUOUS
370
50
 62
4
100
AcDbLine
 10
42.330997
 20
1.03281
 30
0.0
 11
42.24752
 21
1.055447
 31
0.0
  0
LINE
  5
97F
330
1F
100
AcDbEntity
  8
1
  6
CONTINUOUS
370
50
 62
4
100
AcDbLine
 10
58.64711399999999
 20
1.035316
 30
0.0
 11
58.557934
 21
1.059477
 31
0.0
  0
LINE
  5
980
330
1F
100
AcDbEntity
  8
1
  6
CONTINUOUS
370
50
 62
4
100
AcDbLine
 10
49.190628
 20
1.276194
 30
0.0
 11
48.892731
 21
1.35677
 31
0.0
  0
LINE
  5
981
330
1F
100
AcDbEntity
  8
1
  6
CONTINUOUS
370
50
 62
4
100
AcDbLine
 10
54.7589
 20
-1.352915
 30
0.0
 11
54.583855
 21
-1.3056
 31
0.0
  0
LINE
  5
982
330
1F
100
AcDbEntity
  8
1
  6
CONTINUOUS
370
50
 62
4
100
AcDbLine
 10
57.835003
 20
0.8351409999999999
 30
0.0
 11
57.519035
 21
0.920473
 31
0.0
  0
LINE
  5
983
330
1F
100
AcDbEntity
  8
1
  6
CONTINUOUS
370
50
 62
4
100
AcDbLine
 10
50.527931
 20
1.023575
 30
0.0
 11
50.438759
 21
1.047582
 31
0.0
  0
LINE
  5
984
330
1F
100
AcDbEntity
  8
1
  6
CONTINUOUS
370
50
 62
4
100
AcDbLine
 10
38.0
 20
1.49995
 30
0.0
 11
32.400002
 21
2.99995
 31
0.0
  0
LINE
  5
985
330
1F
100
AcDbEntity
  8
1
  6
CONTINUOUS
370
50
 62
4
100
AcDbLine
 10
54.989098
 20
0.9231999999999999
 30
0.0
 11
54.918713
 21
0.9420409999999999
 31
0.0
  0
LINE
  5
986
330
1F
100
AcDbEntity
  8
1
  6
CONTINUOUS
370
50
 62
4
100
AcDbLine
 10
42.41457399999999
 20
1.010438
 30
0.0
 11
42.330997
 21
1.03281
 31
0.0
  0
LINE
  5
987
330
1F
100
AcDbEntity
  8
1
  6
CONTINUOUS
370
50
 62
4
100
AcDbLine
 10
58.736294
 20
1.01146
 30
0.0
 11
58.64711399999999
 21
1.035316
 31
0.0
  0
LINE
  5
988
330
1F
100
AcDbEntity
  8
1
  6
CONTINUOUS
370
50
 62
4
100
AcDbLine
 10
49.208382
 20
0.367322
 30
0.0
 11
48.803848
 21
0.475244
 31
0.0
  0
LINE
  5
989
330
1F
100
AcDbEntity
  8
1
  6
CONTINUOUS
370
50
 62
4
100
AcDbLine
 10
46.86412
 20
0.913553
 30
0.0
 11
46.780788
 21
0.935784
 31
0.0
  0
LINE
  5
98A
330
1F
100
AcDbEntity
  8
1
  6
CONTINUOUS
370
50
 62
4
100
AcDbLine
 10
49.648865
 20
0.8419869999999999
 30
0.0
 11
49.33523599999999
 21
0.925632
 31
0.0
  0
LINE
  5
98B
330
1F
100
AcDbEntity
  8
1
  6
CONTINUOUS
370
50
 62
4
100
AcDbLine
 10
57.370815
 20
0.367362
 30
0.0
 11
56.966091
 21
0.475067
 31
0.0
  0
LINE
  5
98C
330
1F
100
AcDbEntity
  8
1
  6
CONTINUOUS
370
50
 62
4
100
AcDbLine
 10
50.617195
 20
0.9998579999999999
 30
0.0
 11
50.527931
 21
1.023575
 31
0.0
  0
LINE
  5
98D
330
1F
100
AcDbEntity
  8
1
  6
CONTINUOUS
370
50
 62
4
100
AcDbLine
 10
58.966427
 20
-1.383564
 30
0.0
 11
58.510586
 21
-1.262785
 31
0.0
  0
LINE
  5
98E
330
1F
100
AcDbEntity
  8
1
  6
CONTINUOUS
370
50
 62
4
100
AcDbLine
 10
42.498154
 20
0.9883489999999999
 30
0.0
 11
42.41457399999999
 21
1.010438
 31
0.0
  0
LINE
  5
98F
330
1F
100
AcDbEntity
  8
1
  6
CONTINUOUS
370
50
 62
4
100
AcDbLine
 10
58.825546
 20
0.987883
 30
0.0
 11
58.736294
 21
1.01146
 31
0.0
  0
LINE
  5
990
330
1F
100
AcDbEntity
  8
1
  6
CONTINUOUS
370
50
 62
4
100
AcDbLine
 10
55.061012
 20
0.90433
 30
0.0
 11
54.989098
 21
0.9231999999999999
 31
0.0
  0
LINE
  5
991
330
1F
100
AcDbEntity
  8
1
  6
CONTINUOUS
370
50
 62
4
100
AcDbLine
 10
50.706459
 20
0.976445
 30
0.0
 11
50.617195
 21
0.9998579999999999
 31
0.0
  0
LINE
  5
992
330
1F
100
AcDbEntity
  8
1
  6
CONTINUOUS
370
50
 62
4
100
AcDbLine
 10
42.532875
 20
-1.358691
 30
0.0
 11
42.320141
 21
-1.302959
 31
0.0
  0
LINE
  5
993
330
1F
100
AcDbEntity
  8
1
  6
CONTINUOUS
370
50
 62
4
100
AcDbLine
 10
42.550491
 20
0.9746579999999999
 30
0.0
 11
42.498154
 21
0.9883489999999999
 31
0.0
  0
LINE
  5
994
330
1F
100
AcDbEntity
  8
1
  6
CONTINUOUS
370
50
 62
4
100
AcDbLine
 10
53.537811
 20
1.319596
 30
0.0
 11
53.373627
 21
1.362513
 31
0.0
  0
LINE
  5
995
330
1F
100
AcDbEntity
  8
1
  6
CONTINUOUS
370
50
 62
4
100
AcDbLine
 10
45.376167
 20
1.319549
 30
0.0
 11
45.197605
 21
1.366141
 31
0.0
  0
LINE
  5
996
330
1F
100
AcDbEntity
  8
1
  6
CONTINUOUS
370
50
 62
4
100
AcDbLine
 10
58.914795
 20
0.9645999999999999
 30
0.0
 11
58.825546
 21
0.987883
 31
0.0
  0
LINE
  5
997
330
1F
100
AcDbEntity
  8
1
  6
CONTINUOUS
370
50
 62
4
100
AcDbLine
 10
46.947563
 20
0.89182
 30
0.0
 11
46.86412
 21
0.913553
 31
0.0
  0
LINE
  5
998
330
1F
100
AcDbEntity
  8
1
  6
CONTINUOUS
370
50
 62
4
100
AcDbLine
 10
44.044365
 20
-0.523591
 30
0.0
 11
43.597679
 21
-0.40726
 31
0.0
  0
LINE
  5
999
330
1F
100
AcDbEntity
  8
1
  6
CONTINUOUS
370
50
 62
4
100
AcDbLine
 10
52.208134
 20
-0.523859
 30
0.0
 11
51.758621
 21
-0.407146
 31
0.0
  0
LINE
  5
99A
330
1F
100
AcDbEntity
  8
1
  6
CONTINUOUS
370
50
 62
4
100
AcDbLine
 10
44.054424
 20
-0.5267189999999999
 30
0.0
 11
43.605808
 21
-0.410241
 31
0.0
  0
LINE
  5
99B
330
1F
100
AcDbEntity
  8
1
  6
CONTINUOUS
370
50
 62
4
100
AcDbLine
 10
50.765457
 20
0.961131
 30
0.0
 11
50.706459
 21
0.976445
 31
0.0
  0
LINE
  5
99C
330
1F
100
AcDbEntity
  8
1
  6
CONTINUOUS
370
50
 62
4
100
AcDbLine
 10
42.602829
 20
0.961073
 30
0.0
 11
42.550491
 21
0.9746579999999999
 31
0.0
  0
LINE
  5
99D
330
1F
100
AcDbEntity
  8
1
  6
CONTINUOUS
370
50
 62
4
100
AcDbLine
 10
56.293919
 20
-0.5230119999999999
 30
0.0
 11
55.847305
 21
-0.407483
 31
0.0
  0
LINE
  5
99E
330
1F
100
AcDbEntity
  8
1
  6
CONTINUOUS
370
50
 62
4
100
AcDbLine
 10
40.979733
 20
1.290257
 30
0.0
 11
40.644642
 21
1.376935
 31
0.0
  0
LINE
  5
99F
330
1F
100
AcDbEntity
  8
1
  6
CONTINUOUS
370
50
 62
4
100
AcDbLine
 10
52.219753
 20
-0.52738
 30
0.0
 11
51.770363
 21
-0.411143
 31
0.0
  0
LINE
  5
9A0
330
1F
100
AcDbEntity
  8
1
  6
CONTINUOUS
370
50
 62
4
100
AcDbLine
 10
56.295944
 20
-0.524396
 30
0.0
 11
55.850323
 21
-0.409176
 31
0.0
  0
LINE
  5
9A1
330
1F
100
AcDbEntity
  8
1
  6
CONTINUOUS
370
50
 62
4
100
AcDbLine
 10
48.137203
 20
-0.5250549999999999
 30
0.0
 11
47.690727
 21
-0.410012
 31
0.0
  0
LINE
  5
9A2
330
1F
100
AcDbEntity
  8
1
  6
CONTINUOUS
370
50
 62
4
100
AcDbLine
 10
59.004009
 20
0.941614
 30
0.0
 11
58.914795
 21
0.9645999999999999
 31
0.0
  0
LINE
  5
9A3
330
1F
100
AcDbEntity
  8
1
  6
CONTINUOUS
370
50
 62
4
100
AcDbLine
 10
45.446732
 20
0.8729079999999999
 30
0.0
 11
45.114643
 21
0.95841
 31
0.0
  0
LINE
  5
9A4
330
1F
100
AcDbEntity
  8
1
  6
CONTINUOUS
370
50
 62
4
100
AcDbLine
 10
48.136086
 20
-0.523778
 30
0.0
 11
47.686794
 21
-0.40811
 31
0.0
  0
LINE
  5
9A5
330
1F
100
AcDbEntity
  8
1
  6
CONTINUOUS
370
50
 62
4
100
AcDbLine
 10
42.665882
 20
0.9448439999999999
 30
0.0
 11
42.602829
 21
0.961073
 31
0.0
  0
LINE
  5
9A6
330
1F
100
AcDbEntity
  8
1
  6
CONTINUOUS
370
50
 62
4
100
AcDbLine
 10
50.839931
 20
0.9419799999999999
 30
0.0
 11
50.765457
 21
0.961131
 31
0.0
  0
LINE
  5
9A7
330
1F
100
AcDbEntity
  8
1
  6
CONTINUOUS
370
50
 62
4
100
AcDbLine
 10
55.132927
 20
0.885838
 30
0.0
 11
55.061012
 21
0.90433
 31
0.0
  0
LINE
  5
9A8
330
1F
100
AcDbEntity
  8
1
  6
CONTINUOUS
370
50
 62
4
100
AcDbLine
 10
59.49074599999999
 20
-0.141967
 30
0.0
 11
59.435844
 21
-0.127946
 31
0.0
  0
LINE
  5
9A9
330
1F
100
AcDbEntity
  8
1
  6
CONTINUOUS
370
50
 62
4
100
AcDbLine
 10
51.266289
 20
-1.391334
 30
0.0
 11
50.847794
 21
-1.284545
 31
0.0
  0
LINE
  5
9AA
330
1F
100
AcDbEntity
  8
1
  6
CONTINUOUS
370
50
 62
4
100
AcDbLine
 10
42.728931
 20
0.928761
 30
0.0
 11
42.665882
 21
0.9448439999999999
 31
0.0
  0
LINE
  5
9AB
330
1F
100
AcDbEntity
  8
1
  6
CONTINUOUS
370
50
 62
4
100
AcDbLine
 10
50.914406
 20
0.923021
 30
0.0
 11
50.839931
 21
0.9419799999999999
 31
0.0
  0
LINE
  5
9AC
330
1F
100
AcDbEntity
  8
1
  6
CONTINUOUS
370
50
 62
4
100
AcDbLine
 10
59.093224
 20
0.918909
 30
0.0
 11
59.004009
 21
0.941614
 31
0.0
  0
LINE
  5
9AD
330
1F
100
AcDbEntity
  8
1
  6
CONTINUOUS
370
50
 62
4
100
AcDbLine
 10
47.031094
 20
0.870587
 30
0.0
 11
46.947563
 21
0.89182
 31
0.0
  0
LINE
  5
9AE
330
1F
100
AcDbEntity
  8
1
  6
CONTINUOUS
370
50
 62
4
100
AcDbLine
 10
59.545628
 20
-0.155898
 30
0.0
 11
59.49074599999999
 21
-0.141967
 31
0.0
  0
LINE
  5
9AF
330
1F
100
AcDbEntity
  8
1
  6
CONTINUOUS
370
50
 62
4
100
AcDbLine
 10
40.753273
 20
0.446241
 30
0.0
 11
40.376656
 21
0.541469
 31
0.0
  0
LINE
  5
9B0
330
1F
100
AcDbEntity
  8
1
  6
CONTINUOUS
370
50
 62
4
100
AcDbLine
 10
42.791985
 20
0.912821
 30
0.0
 11
42.728931
 21
0.928761
 31
0.0
  0
LINE
  5
9B1
330
1F
100
AcDbEntity
  8
1
  6
CONTINUOUS
370
50
 62
4
100
AcDbLine
 10
59.600471
 20
-0.169738
 30
0.0
 11
59.545628
 21
-0.155898
 31
0.0
  0
LINE
  5
9B2
330
1F
100
AcDbEntity
  8
1
  6
CONTINUOUS
370
50
 62
4
100
AcDbLine
 10
50.98887999999999
 20
0.904249
 30
0.0
 11
50.914406
 21
0.923021
 31
0.0
  0
LINE
  5
9B3
330
1F
100
AcDbEntity
  8
1
  6
CONTINUOUS
370
50
 62
4
100
AcDbLine
 10
55.204956
 20
0.8676929999999999
 30
0.0
 11
55.132927
 21
0.885838
 31
0.0
  0
LINE
  5
9B4
330
1F
100
AcDbEntity
  8
1
  6
CONTINUOUS
370
50
 62
4
100
AcDbLine
 10
59.182434
 20
0.896481
 30
0.0
 11
59.093224
 21
0.918909
 31
0.0
  0
LINE
  5
9B5
330
1F
100
AcDbEntity
  8
1
  6
CONTINUOUS
370
50
 62
4
100
AcDbLine
 10
59.65543
 20
-0.183526
 30
0.0
 11
59.600471
 21
-0.169738
 31
0.0
  0
LINE
  5
9B6
330
1F
100
AcDbEntity
  8
1
  6
CONTINUOUS
370
50
 62
4
100
AcDbLine
 10
42.855042
 20
0.8970199999999999
 30
0.0
 11
42.791985
 21
0.912821
 31
0.0
  0
LINE
  5
9B7
330
1F
100
AcDbEntity
  8
1
  6
CONTINUOUS
370
50
 62
4
100
AcDbLine
 10
49.466881
 20
1.319758
 30
0.0
 11
49.260113
 21
1.371499
 31
0.0
  0
LINE
  5
9B8
330
1F
100
AcDbEntity
  8
1
  6
CONTINUOUS
370
50
 62
4
100
AcDbLine
 10
51.063354
 20
0.88566
 30
0.0
 11
50.98887999999999
 21
0.904249
 31
0.0
  0
LINE
  5
9B9
330
1F
100
AcDbEntity
  8
1
  6
CONTINUOUS
370
50
 62
4
100
AcDbLine
 10
59.711033
 20
-0.197396
 30
0.0
 11
59.65543
 21
-0.183526
 31
0.0
  0
LINE
  5
9BA
330
1F
100
AcDbEntity
  8
1
  6
CONTINUOUS
370
50
 62
4
100
AcDbLine
 10
57.629303
 20
1.319892
 30
0.0
 11
57.412785
 21
1.373792
 31
0.0
  0
LINE
  5
9BB
330
1F
100
AcDbEntity
  8
1
  6
CONTINUOUS
370
50
 62
4
100
AcDbLine
 10
41.304417
 20
1.31972
 30
0.0
 11
41.087315
 21
1.373745
 31
0.0
  0
LINE
  5
9BC
330
1F
100
AcDbEntity
  8
1
  6
CONTINUOUS
370
50
 62
4
100
AcDbLine
 10
42.902256
 20
0.885278
 30
0.0
 11
42.855042
 21
0.8970199999999999
 31
0.0
  0
LINE
  5
9BD
330
1F
100
AcDbEntity
  8
1
  6
CONTINUOUS
370
50
 62
4
100
AcDbLine
 10
59.271648
 20
0.874327
 30
0.0
 11
59.182434
 21
0.896481
 31
0.0
  0
LINE
  5
9BE
330
1F
100
AcDbEntity
  8
1
  6
CONTINUOUS
370
50
 62
4
100
AcDbLine
 10
47.11472699999999
 20
0.849843
 30
0.0
 11
47.031094
 21
0.870587
 31
0.0
  0
LINE
  5
9BF
330
1F
100
AcDbEntity
  8
1
  6
CONTINUOUS
370
50
 62
4
100
AcDbLine
 10
59.767151
 20
-0.211314
 30
0.0
 11
59.711033
 21
-0.197396
 31
0.0
  0
LINE
  5
9C0
330
1F
100
AcDbEntity
  8
1
  6
CONTINUOUS
370
50
 62
4
100
AcDbLine
 10
51.134766
 20
0.868003
 30
0.0
 11
51.063354
 21
0.88566
 31
0.0
  0
LINE
  5
9C1
330
1F
100
AcDbEntity
  8
1
  6
CONTINUOUS
370
50
 62
4
100
AcDbLine
 10
55.313683
 20
-1.386193
 30
0.0
 11
55.05933
 21
-1.323321
 31
0.0
  0
LINE
  5
9C2
330
1F
100
AcDbEntity
  8
1
  6
CONTINUOUS
370
50
 62
4
100
AcDbLine
 10
42.949474
 20
0.87361
 30
0.0
 11
42.902256
 21
0.885278
 31
0.0
  0
LINE
  5
9C3
330
1F
100
AcDbEntity
  8
1
  6
CONTINUOUS
370
50
 62
4
100
AcDbLine
 10
55.276985
 20
0.849916
 30
0.0
 11
55.204956
 21
0.8676929999999999
 31
0.0
  0
LINE
  5
9C4
330
1F
100
AcDbEntity
  8
1
  6
CONTINUOUS
370
50
 62
4
100
AcDbLine
 10
59.823589
 20
-0.22523
 30
0.0
 11
59.767151
 21
-0.211314
 31
0.0
  0
LINE
  5
9C5
330
1F
100
AcDbEntity
  8
1
  6
CONTINUOUS
370
50
 62
4
100
AcDbLine
 10
59.320274
 20
0.862367
 30
0.0
 11
59.271648
 21
0.874327
 31
0.0
  0
LINE
  5
9C6
330
1F
100
AcDbEntity
  8
1
  6
CONTINUOUS
370
50
 62
4
100
AcDbLine
 10
42.996689
 20
0.862018
 30
0.0
 11
42.949474
 21
0.87361
 31
0.0
  0
LINE
  5
9C7
330
1F
100
AcDbEntity
  8
1
  6
CONTINUOUS
370
50
 62
4
100
AcDbLine
 10
48.803848
 20
0.475244
 30
0.0
 11
48.399319
 21
0.574533
 31
0.0
  0
LINE
  5
9C8
330
1F
100
AcDbEntity
  8
1
  6
CONTINUOUS
370
50
 62
4
100
AcDbLine
 10
51.206177
 20
0.8505079999999999
 30
0.0
 11
51.134766
 21
0.868003
 31
0.0
  0
LINE
  5
9C9
330
1F
100
AcDbEntity
  8
1
  6
CONTINUOUS
370
50
 62
4
100
AcDbLine
 10
56.966091
 20
0.475067
 30
0.0
 11
56.56138199999999
 21
0.574047
 31
0.0
  0
LINE
  5
9CA
330
1F
100
AcDbEntity
  8
1
  6
CONTINUOUS
370
50
 62
4
100
AcDbLine
 10
41.339146
 20
0.882976
 30
0.0
 11
41.00436
 21
0.964803
 31
0.0
  0
LINE
  5
9CB
330
1F
100
AcDbEntity
  8
1
  6
CONTINUOUS
370
50
 62
4
100
AcDbLine
 10
59.368896
 20
0.850487
 30
0.0
 11
59.320274
 21
0.862367
 31
0.0
  0
LINE
  5
9CC
330
1F
100
AcDbEntity
  8
1
  6
CONTINUOUS
370
50
 62
4
100
AcDbLine
 10
47.137657
 20
0.8442449999999999
 30
0.0
 11
47.11472699999999
 21
0.849843
 31
0.0
  0
LINE
  5
9CD
330
1F
100
AcDbEntity
  8
1
  6
CONTINUOUS
370
50
 62
4
100
AcDbLine
 10
43.043907
 20
0.850498
 30
0.0
 11
42.996689
 21
0.862018
 31
0.0
  0
LINE
  5
9CE
330
1F
100
AcDbEntity
  8
1
  6
CONTINUOUS
370
50
 62
4
100
AcDbLine
 10
51.259731
 20
0.8374929999999999
 30
0.0
 11
51.206177
 21
0.8505079999999999
 31
0.0
  0
LINE
  5
9CF
330
1F
100
AcDbEntity
  8
1
  6
CONTINUOUS
370
50
 62
4
100
AcDbLine
 10
59.433834
 20
0.834749
 30
0.0
 11
59.368896
 21
0.850487
 31
0.0
  0
LINE
  5
9D0
330
1F
100
AcDbEntity
  8
1
  6
CONTINUOUS
370
50
 62
4
100
AcDbLine
 10
55.345963
 20
0.833233
 30
0.0
 11
55.276985
 21
0.849916
 31
0.0
  0
LINE
  5
9D1
330
1F
100
AcDbEntity
  8
1
  6
CONTINUOUS
370
50
 62
4
100
AcDbLine
 10
43.12793
 20
0.830181
 30
0.0
 11
43.043907
 21
0.850498
 31
0.0
  0
LINE
  5
9D2
330
1F
100
AcDbEntity
  8
1
  6
CONTINUOUS
370
50
 62
4
100
AcDbLine
 10
51.313282
 20
0.824568
 30
0.0
 11
51.259731
 21
0.8374929999999999
 31
0.0
  0
LINE
  5
9D3
330
1F
100
AcDbEntity
  8
1
  6
CONTINUOUS
370
50
 62
4
100
AcDbLine
 10
45.058708
 20
1.292076
 30
0.0
 11
44.529758
 21
1.41967
 31
0.0
  0
LINE
  5
9D4
330
1F
100
AcDbEntity
  8
1
  6
CONTINUOUS
370
50
 62
4
100
AcDbLine
 10
47.22683
 20
0.822828
 30
0.0
 11
47.137657
 21
0.8442449999999999
 31
0.0
  0
LINE
  5
9D5
330
1F
100
AcDbEntity
  8
1
  6
CONTINUOUS
370
50
 62
4
100
AcDbLine
 10
59.49876399999999
 20
0.8191579999999999
 30
0.0
 11
59.433834
 21
0.834749
 31
0.0
  0
LINE
  5
9D6
330
1F
100
AcDbEntity
  8
1
  6
CONTINUOUS
370
50
 62
4
100
AcDbLine
 10
51.36677599999999
 20
0.8117479999999999
 30
0.0
 11
51.313282
 21
0.824568
 31
0.0
  0
LINE
  5
9D7
330
1F
100
AcDbEntity
  8
1
  6
CONTINUOUS
370
50
 62
4
100
AcDbLine
 10
40.144203
 20
-0.564384
 30
0.0
 11
40.0
 21
-0.529847
 31
0.0
  0
LINE
  5
9D8
330
1F
100
AcDbEntity
  8
1
  6
CONTINUOUS
370
50
 62
4
100
AcDbLine
 10
43.211952
 20
0.8100959999999999
 30
0.0
 11
43.12793
 21
0.830181
 31
0.0
  0
LINE
  5
9D9
330
1F
100
AcDbEntity
  8
1
  6
CONTINUOUS
370
50
 62
4
100
AcDbLine
 10
40.14431
 20
-0.565485
 30
0.0
 11
40.0
 21
-0.531029
 31
0.0
  0
LINE
  5
9DA
330
1F
100
AcDbEntity
  8
1
  6
CONTINUOUS
370
50
 62
4
100
AcDbLine
 10
43.109268
 20
-1.392041
 30
0.0
 11
42.849644
 21
-1.330126
 31
0.0
  0
LINE
  5
9DB
330
1F
100
AcDbEntity
  8
1
  6
CONTINUOUS
370
50
 62
4
100
AcDbLine
 10
52.881428
 20
0.479302
 30
0.0
 11
52.473366
 21
0.5764859999999999
 31
0.0
  0
LINE
  5
9DC
330
1F
100
AcDbEntity
  8
1
  6
CONTINUOUS
370
50
 62
4
100
AcDbLine
 10
51.420269
 20
0.7990189999999999
 30
0.0
 11
51.36677599999999
 21
0.8117479999999999
 31
0.0
  0
LINE
  5
9DD
330
1F
100
AcDbEntity
  8
1
  6
CONTINUOUS
370
50
 62
4
100
AcDbLine
 10
44.719303
 20
0.479268
 30
0.0
 11
44.311249
 21
0.576313
 31
0.0
  0
LINE
  5
9DE
330
1F
100
AcDbEntity
  8
1
  6
CONTINUOUS
370
50
 62
4
100
AcDbLine
 10
59.563622
 20
0.803734
 30
0.0
 11
59.49876399999999
 21
0.8191579999999999
 31
0.0
  0
LINE
  5
9DF
330
1F
100
AcDbEntity
  8
1
  6
CONTINUOUS
370
50
 62
4
100
AcDbLine
 10
43.277649
 20
0.794553
 30
0.0
 11
43.211952
 21
0.8100959999999999
 31
0.0
  0
LINE
  5
9E0
330
1F
100
AcDbEntity
  8
1
  6
CONTINUOUS
370
50
 62
4
100
AcDbLine
 10
55.435143
 20
0.812145
 30
0.0
 11
55.345963
 21
0.833233
 31
0.0
  0
LINE
  5
9E1
330
1F
100
AcDbEntity
  8
1
  6
CONTINUOUS
370
50
 62
4
100
AcDbLine
 10
51.474056
 20
0.786314
 30
0.0
 11
51.420269
 21
0.7990189999999999
 31
0.0
  0
LINE
  5
9E2
330
1F
100
AcDbEntity
  8
1
  6
CONTINUOUS
370
50
 62
4
100
AcDbLine
 10
54.945507
 20
-1.396908
 30
0.0
 11
54.7589
 21
-1.352915
 31
0.0
  0
LINE
  5
9E3
330
1F
100
AcDbEntity
  8
1
  6
CONTINUOUS
370
50
 62
4
100
AcDbLine
 10
59.62847499999999
 20
0.788462
 30
0.0
 11
59.563622
 21
0.803734
 31
0.0
  0
LINE
  5
9E4
330
1F
100
AcDbEntity
  8
1
  6
CONTINUOUS
370
50
 62
4
100
AcDbLine
 10
53.42791
 20
0.920854
 30
0.0
 11
53.114662
 21
0.994506
 31
0.0
  0
LINE
  5
9E5
330
1F
100
AcDbEntity
  8
1
  6
CONTINUOUS
370
50
 62
4
100
AcDbLine
 10
51.52784
 20
0.773705
 30
0.0
 11
51.474056
 21
0.786314
 31
0.0
  0
LINE
  5
9E6
330
1F
100
AcDbEntity
  8
1
  6
CONTINUOUS
370
50
 62
4
100
AcDbLine
 10
43.343346
 20
0.779156
 30
0.0
 11
43.277649
 21
0.794553
 31
0.0
  0
LINE
  5
9E7
330
1F
100
AcDbEntity
  8
1
  6
CONTINUOUS
370
50
 62
4
100
AcDbLine
 10
47.31600599999999
 20
0.801967
 30
0.0
 11
47.22683
 21
0.822828
 31
0.0
  0
LINE
  5
9E8
330
1F
100
AcDbEntity
  8
1
  6
CONTINUOUS
370
50
 62
4
100
AcDbLine
 10
59.71417599999999
 20
0.7685219999999999
 30
0.0
 11
59.62847499999999
 21
0.788462
 31
0.0
  0
LINE
  5
9E9
330
1F
100
AcDbEntity
  8
1
  6
CONTINUOUS
370
50
 62
4
100
AcDbLine
 10
51.581532
 20
0.7612169999999999
 30
0.0
 11
51.52784
 21
0.773705
 31
0.0
  0
LINE
  5
9EA
330
1F
100
AcDbEntity
  8
1
  6
CONTINUOUS
370
50
 62
4
100
AcDbLine
 10
43.408928
 20
0.763934
 30
0.0
 11
43.343346
 21
0.779156
 31
0.0
  0
LINE
  5
9EB
330
1F
100
AcDbEntity
  8
1
  6
CONTINUOUS
370
50
 62
4
100
AcDbLine
 10
57.24057
 20
1.30859
 30
0.0
 11
56.741085
 21
1.423921
 31
0.0
  0
LINE
  5
9EC
330
1F
100
AcDbEntity
  8
1
  6
CONTINUOUS
370
50
 62
4
100
AcDbLine
 10
51.63522
 20
0.748833
 30
0.0
 11
51.581532
 21
0.7612169999999999
 31
0.0
  0
LINE
  5
9ED
330
1F
100
AcDbEntity
  8
1
  6
CONTINUOUS
370
50
 62
4
100
AcDbLine
 10
55.52432599999999
 20
0.791588
 30
0.0
 11
55.435143
 21
0.812145
 31
0.0
  0
LINE
  5
9EE
330
1F
100
AcDbEntity
  8
1
  6
CONTINUOUS
370
50
 62
4
100
AcDbLine
 10
56.730747
 20
-0.623451
 30
0.0
 11
56.293919
 21
-0.5230119999999999
 31
0.0
  0
LINE
  5
9EF
330
1F
100
AcDbEntity
  8
1
  6
CONTINUOUS
370
50
 62
4
100
AcDbLine
 10
43.474506
 20
0.7488659999999999
 30
0.0
 11
43.408928
 21
0.763934
 31
0.0
  0
LINE
  5
9F0
330
1F
100
AcDbEntity
  8
1
  6
CONTINUOUS
370
50
 62
4
100
AcDbLine
 10
40.285511
 20
-0.5968359999999999
 30
0.0
 11
40.144203
 21
-0.564384
 31
0.0
  0
LINE
  5
9F1
330
1F
100
AcDbEntity
  8
1
  6
CONTINUOUS
370
50
 62
4
100
AcDbLine
 10
48.574017
 20
-0.624247
 30
0.0
 11
48.136086
 21
-0.523778
 31
0.0
  0
LINE
  5
9F2
330
1F
100
AcDbEntity
  8
1
  6
CONTINUOUS
370
50
 62
4
100
AcDbLine
 10
56.741528
 20
-0.626547
 30
0.0
 11
56.295944
 21
-0.524396
 31
0.0
  0
LINE
  5
9F3
330
1F
100
AcDbEntity
  8
1
  6
CONTINUOUS
370
50
 62
4
100
AcDbLine
 10
40.288612
 20
-0.598523
 30
0.0
 11
40.14431
 21
-0.565485
 31
0.0
  0
LINE
  5
9F4
330
1F
100
AcDbEntity
  8
1
  6
CONTINUOUS
370
50
 62
4
100
AcDbLine
 10
50.957664
 20
-1.414863
 30
0.0
 11
50.546768
 21
-1.3208
 31
0.0
  0
LINE
  5
9F5
330
1F
100
AcDbEntity
  8
1
  6
CONTINUOUS
370
50
 62
4
100
AcDbLine
 10
53.373627
 20
1.362513
 30
0.0
 11
53.199726
 21
1.40231
 31
0.0
  0
LINE
  5
9F6
330
1F
100
AcDbEntity
  8
1
  6
CONTINUOUS
370
50
 62
4
100
AcDbLine
 10
48.583649
 20
-0.6271869999999999
 30
0.0
 11
48.137203
 21
-0.5250549999999999
 31
0.0
  0
LINE
  5
9F7
330
1F
100
AcDbEntity
  8
1
  6
CONTINUOUS
370
50
 62
4
100
AcDbLine
 10
59.79987
 20
0.7489439999999999
 30
0.0
 11
59.71417599999999
 21
0.7685219999999999
 31
0.0
  0
LINE
  5
9F8
330
1F
100
AcDbEntity
  8
1
  6
CONTINUOUS
370
50
 62
4
100
AcDbLine
 10
47.405262
 20
0.781631
 30
0.0
 11
47.31600599999999
 21
0.801967
 31
0.0
  0
LINE
  5
9F9
330
1F
100
AcDbEntity
  8
1
  6
CONTINUOUS
370
50
 62
4
100
AcDbLine
 10
40.376656
 20
0.541469
 30
0.0
 11
40.0
 21
0.6271669999999999
 31
0.0
  0
LINE
  5
9FA
330
1F
100
AcDbEntity
  8
1
  6
CONTINUOUS
370
50
 62
4
100
AcDbLine
 10
43.521683
 20
0.73814
 30
0.0
 11
43.474506
 21
0.7488659999999999
 31
0.0
  0
LINE
  5
9FB
330
1F
100
AcDbEntity
  8
1
  6
CONTINUOUS
370
50
 62
4
100
AcDbLine
 10
57.519035
 20
0.920473
 30
0.0
 11
57.20306
 21
0.9917309999999999
 31
0.0
  0
LINE
  5
9FC
330
1F
100
AcDbEntity
  8
1
  6
CONTINUOUS
370
50
 62
4
100
AcDbLine
 10
51.70619199999999
 20
0.732834
 30
0.0
 11
51.63522
 21
0.748833
 31
0.0
  0
LINE
  5
9FD
330
1F
100
AcDbEntity
  8
1
  6
CONTINUOUS
370
50
 62
4
100
AcDbLine
 10
55.61357899999999
 20
0.771535
 30
0.0
 11
55.52432599999999
 21
0.791588
 31
0.0
  0
LINE
  5
9FE
330
1F
100
AcDbEntity
  8
1
  6
CONTINUOUS
370
50
 62
4
100
AcDbLine
 10
46.880638
 20
-1.416737
 30
0.0
 11
46.607433
 21
-1.355452
 31
0.0
  0
LINE
  5
9FF
330
1F
100
AcDbEntity
  8
1
  6
CONTINUOUS
370
50
 62
4
100
AcDbLine
 10
45.197605
 20
1.366141
 30
0.0
 11
45.005024
 21
1.409198
 31
0.0
  0
LINE
  5
A00
330
1F
100
AcDbEntity
  8
1
  6
CONTINUOUS
370
50
 62
4
100
AcDbLine
 10
59.824814
 20
0.743371
 30
0.0
 11
59.79987
 21
0.7489439999999999
 31
0.0
  0
LINE
  5
A01
330
1F
100
AcDbEntity
  8
1
  6
CONTINUOUS
370
50
 62
4
100
AcDbLine
 10
49.33523599999999
 20
0.925632
 30
0.0
 11
49.021603
 21
0.995641
 31
0.0
  0
LINE
  5
A02
330
1F
100
AcDbEntity
  8
1
  6
CONTINUOUS
370
50
 62
4
100
AcDbLine
 10
43.568855
 20
0.7276239999999999
 30
0.0
 11
43.521683
 21
0.73814
 31
0.0
  0
LINE
  5
A03
330
1F
100
AcDbEntity
  8
1
  6
CONTINUOUS
370
50
 62
4
100
AcDbLine
 10
47.494522
 20
0.761825
 30
0.0
 11
47.405262
 21
0.781631
 31
0.0
  0
LINE
  5
A04
330
1F
100
AcDbEntity
  8
1
  6
CONTINUOUS
370
50
 62
4
100
AcDbLine
 10
44.503067
 20
-0.625915
 30
0.0
 11
44.054424
 21
-0.5267189999999999
 31
0.0
  0
LINE
  5
A05
330
1F
100
AcDbEntity
  8
1
  6
CONTINUOUS
370
50
 62
4
100
AcDbLine
 10
52.669178
 20
-0.626637
 30
0.0
 11
52.219753
 21
-0.52738
 31
0.0
  0
LINE
  5
A06
330
1F
100
AcDbEntity
  8
1
  6
CONTINUOUS
370
50
 62
4
100
AcDbLine
 10
44.50024
 20
-0.6240089999999999
 30
0.0
 11
44.044365
 21
-0.523591
 31
0.0
  0
LINE
  5
A07
330
1F
100
AcDbEntity
  8
1
  6
CONTINUOUS
370
50
 62
4
100
AcDbLine
 10
52.665462
 20
-0.624501
 30
0.0
 11
52.208134
 21
-0.523859
 31
0.0
  0
LINE
  5
A08
330
1F
100
AcDbEntity
  8
1
  6
CONTINUOUS
370
50
 62
4
100
AcDbLine
 10
59.604282
 20
-1.426061
 30
0.0
 11
59.21692299999999
 21
-1.341146
 31
0.0
  0
LINE
  5
A09
330
1F
100
AcDbEntity
  8
1
  6
CONTINUOUS
370
50
 62
4
100
AcDbLine
 10
42.745956
 20
-1.40538
 30
0.0
 11
42.532875
 21
-1.358691
 31
0.0
  0
LINE
  5
A0A
330
1F
100
AcDbEntity
  8
1
  6
CONTINUOUS
370
50
 62
4
100
AcDbLine
 10
55.702831
 20
0.7519899999999999
 30
0.0
 11
55.61357899999999
 21
0.771535
 31
0.0
  0
LINE
  5
A0B
330
1F
100
AcDbEntity
  8
1
  6
CONTINUOUS
370
50
 62
4
100
AcDbLine
 10
51.777161
 20
0.717347
 30
0.0
 11
51.70619199999999
 21
0.732834
 31
0.0
  0
LINE
  5
A0C
330
1F
100
AcDbEntity
  8
1
  6
CONTINUOUS
370
50
 62
4
100
AcDbLine
 10
47.554497
 20
0.748809
 30
0.0
 11
47.494522
 21
0.761825
 31
0.0
  0
LINE
  5
A0D
330
1F
100
AcDbEntity
  8
1
  6
CONTINUOUS
370
50
 62
4
100
AcDbLine
 10
48.892731
 20
1.35677
 30
0.0
 11
48.60001399999999
 21
1.420105
 31
0.0
  0
LINE
  5
A0E
330
1F
100
AcDbEntity
  8
1
  6
CONTINUOUS
370
50
 62
4
100
AcDbLine
 10
43.652328
 20
0.709575
 30
0.0
 11
43.568855
 21
0.7276239999999999
 31
0.0
  0
LINE
  5
A0F
330
1F
100
AcDbEntity
  8
1
  6
CONTINUOUS
370
50
 62
4
100
AcDbLine
 10
40.428062
 20
-0.627518
 30
0.0
 11
40.285511
 21
-0.5968359999999999
 31
0.0
  0
LINE
  5
A10
330
1F
100
AcDbEntity
  8
1
  6
CONTINUOUS
370
50
 62
4
100
AcDbLine
 10
39.721283
 20
-1.477651
 30
0.0
 11
39.651798
 21
-1.462712
 31
0.0
  0
LINE
  5
A11
330
1F
100
AcDbEntity
  8
1
  6
CONTINUOUS
370
50
 62
4
100
AcDbLine
 10
40.432911
 20
-0.629433
 30
0.0
 11
40.288612
 21
-0.598523
 31
0.0
  0
LINE
  5
A12
330
1F
100
AcDbEntity
  8
1
  6
CONTINUOUS
370
50
 62
4
100
AcDbLine
 10
55.792084
 20
0.732941
 30
0.0
 11
55.702831
 21
0.7519899999999999
 31
0.0
  0
LINE
  5
A13
330
1F
100
AcDbEntity
  8
1
  6
CONTINUOUS
370
50
 62
4
100
AcDbLine
 10
56.56138199999999
 20
0.574047
 30
0.0
 11
56.15663499999999
 21
0.660154
 31
0.0
  0
LINE
  5
A14
330
1F
100
AcDbEntity
  8
1
  6
CONTINUOUS
370
50
 62
4
100
AcDbLine
 10
47.628723
 20
0.733019
 30
0.0
 11
47.554497
 21
0.748809
 31
0.0
  0
LINE
  5
A15
330
1F
100
AcDbEntity
  8
1
  6
CONTINUOUS
370
50
 62
4
100
AcDbLine
 10
48.399319
 20
0.574533
 30
0.0
 11
47.994743
 21
0.6601659999999999
 31
0.0
  0
LINE
  5
A16
330
1F
100
AcDbEntity
  8
1
  6
CONTINUOUS
370
50
 62
4
100
AcDbLine
 10
51.849155
 20
0.702152
 30
0.0
 11
51.777161
 21
0.717347
 31
0.0
  0
LINE
  5
A17
330
1F
100
AcDbEntity
  8
1
  6
CONTINUOUS
370
50
 62
4
100
AcDbLine
 10
45.114643
 20
0.95841
 30
0.0
 11
44.782555
 21
1.027761
 31
0.0
  0
LINE
  5
A18
330
1F
100
AcDbEntity
  8
1
  6
CONTINUOUS
370
50
 62
4
100
AcDbLine
 10
49.260113
 20
1.371499
 30
0.0
 11
49.049946
 21
1.415331
 31
0.0
  0
LINE
  5
A19
330
1F
100
AcDbEntity
  8
1
  6
CONTINUOUS
370
50
 62
4
100
AcDbLine
 10
47.702953
 20
0.717575
 30
0.0
 11
47.628723
 21
0.733019
 31
0.0
  0
LINE
  5
A1A
330
1F
100
AcDbEntity
  8
1
  6
CONTINUOUS
370
50
 62
4
100
AcDbLine
 10
55.881336
 20
0.71438
 30
0.0
 11
55.792084
 21
0.732941
 31
0.0
  0
LINE
  5
A1B
330
1F
100
AcDbEntity
  8
1
  6
CONTINUOUS
370
50
 62
4
100
AcDbLine
 10
43.735893
 20
0.692211
 30
0.0
 11
43.652328
 21
0.709575
 31
0.0
  0
LINE
  5
A1C
330
1F
100
AcDbEntity
  8
1
  6
CONTINUOUS
370
50
 62
4
100
AcDbLine
 10
47.414661
 20
-1.436501
 30
0.0
 11
47.006939
 21
-1.352169
 31
0.0
  0
LINE
  5
A1D
330
1F
100
AcDbEntity
  8
1
  6
CONTINUOUS
370
50
 62
4
100
AcDbLine
 10
41.087315
 20
1.373745
 30
0.0
 11
40.870811
 21
1.418354
 31
0.0
  0
LINE
  5
A1E
330
1F
100
AcDbEntity
  8
1
  6
CONTINUOUS
370
50
 62
4
100
AcDbLine
 10
57.412785
 20
1.373792
 30
0.0
 11
57.195026
 21
1.418545
 31
0.0
  0
LINE
  5
A1F
330
1F
100
AcDbEntity
  8
1
  6
CONTINUOUS
370
50
 62
4
100
AcDbLine
 10
44.311249
 20
0.576313
 30
0.0
 11
43.903244
 21
0.659617
 31
0.0
  0
LINE
  5
A20
330
1F
100
AcDbEntity
  8
1
  6
CONTINUOUS
370
50
 62
4
100
AcDbLine
 10
51.921146
 20
0.687465
 30
0.0
 11
51.849155
 21
0.702152
 31
0.0
  0
LINE
  5
A21
330
1F
100
AcDbEntity
  8
1
  6
CONTINUOUS
370
50
 62
4
100
AcDbLine
 10
52.473366
 20
0.5764859999999999
 30
0.0
 11
52.06535
 21
0.659662
 31
0.0
  0
LINE
  5
A22
330
1F
100
AcDbEntity
  8
1
  6
CONTINUOUS
370
50
 62
4
100
AcDbLine
 10
47.777184
 20
0.702475
 30
0.0
 11
47.702953
 21
0.717575
 31
0.0
  0
LINE
  5
A23
330
1F
100
AcDbEntity
  8
1
  6
CONTINUOUS
370
50
 62
4
100
AcDbLine
 10
55.970535
 20
0.6963119999999999
 30
0.0
 11
55.881336
 21
0.71438
 31
0.0
  0
LINE
  5
A24
330
1F
100
AcDbEntity
  8
1
  6
CONTINUOUS
370
50
 62
4
100
AcDbLine
 10
43.819538
 20
0.675523
 30
0.0
 11
43.735893
 21
0.692211
 31
0.0
  0
LINE
  5
A25
330
1F
100
AcDbEntity
  8
1
  6
CONTINUOUS
370
50
 62
4
100
AcDbLine
 10
41.00436
 20
0.964803
 30
0.0
 11
40.669571
 21
1.031455
 31
0.0
  0
LINE
  5
A26
330
1F
100
AcDbEntity
  8
1
  6
CONTINUOUS
370
50
 62
4
100
AcDbLine
 10
47.851418
 20
0.687713
 30
0.0
 11
47.777184
 21
0.702475
 31
0.0
  0
LINE
  5
A27
330
1F
100
AcDbEntity
  8
1
  6
CONTINUOUS
370
50
 62
4
100
AcDbLine
 10
40.57222
 20
-0.656108
 30
0.0
 11
40.428062
 21
-0.627518
 31
0.0
  0
LINE
  5
A28
330
1F
100
AcDbEntity
  8
1
  6
CONTINUOUS
370
50
 62
4
100
AcDbLine
 10
40.644642
 20
1.376935
 30
0.0
 11
40.320515
 21
1.441028
 31
0.0
  0
LINE
  5
A29
330
1F
100
AcDbEntity
  8
1
  6
CONTINUOUS
370
50
 62
4
100
AcDbLine
 10
40.577202
 20
-0.657964
 30
0.0
 11
40.432911
 21
-0.629433
 31
0.0
  0
LINE
  5
A2A
330
1F
100
AcDbEntity
  8
1
  6
CONTINUOUS
370
50
 62
4
100
AcDbLine
 10
56.059734
 20
0.678723
 30
0.0
 11
55.970535
 21
0.6963119999999999
 31
0.0
  0
LINE
  5
A2B
330
1F
100
AcDbEntity
  8
1
  6
CONTINUOUS
370
50
 62
4
100
AcDbLine
 10
51.99324799999999
 20
0.673258
 30
0.0
 11
51.921146
 21
0.687465
 31
0.0
  0
LINE
  5
A2C
330
1F
100
AcDbEntity
  8
1
  6
CONTINUOUS
370
50
 62
4
100
AcDbLine
 10
47.923077
 20
0.673785
 30
0.0
 11
47.851418
 21
0.687713
 31
0.0
  0
LINE
  5
A2D
330
1F
100
AcDbEntity
  8
1
  6
CONTINUOUS
370
50
 62
4
100
AcDbLine
 10
56.108177
 20
0.669369
 30
0.0
 11
56.059734
 21
0.678723
 31
0.0
  0
LINE
  5
A2E
330
1F
100
AcDbEntity
  8
1
  6
CONTINUOUS
370
50
 62
4
100
AcDbLine
 10
55.15044
 20
-1.436253
 30
0.0
 11
54.945507
 21
-1.396908
 31
0.0
  0
LINE
  5
A2F
330
1F
100
AcDbEntity
  8
1
  6
CONTINUOUS
370
50
 62
4
100
AcDbLine
 10
55.571766
 20
-1.435609
 30
0.0
 11
55.313683
 21
-1.386193
 31
0.0
  0
LINE
  5
A30
330
1F
100
AcDbEntity
  8
1
  6
CONTINUOUS
370
50
 62
4
100
AcDbLine
 10
43.903278
 20
0.659493
 30
0.0
 11
43.819538
 21
0.675523
 31
0.0
  0
LINE
  5
A31
330
1F
100
AcDbEntity
  8
1
  6
CONTINUOUS
370
50
 62
4
100
AcDbLine
 10
52.06535
 20
0.659543
 30
0.0
 11
51.99324799999999
 21
0.673258
 31
0.0
  0
LINE
  5
A32
330
1F
100
AcDbEntity
  8
1
  6
CONTINUOUS
370
50
 62
4
100
AcDbLine
 10
56.156624
 20
0.660158
 30
0.0
 11
56.108177
 21
0.669369
 31
0.0
  0
LINE
  5
A33
330
1F
100
AcDbEntity
  8
1
  6
CONTINUOUS
370
50
 62
4
100
AcDbLine
 10
47.994732
 20
0.660171
 30
0.0
 11
47.923077
 21
0.673785
 31
0.0
  0
LINE
  5
A34
330
1F
100
AcDbEntity
  8
1
  6
CONTINUOUS
370
50
 62
4
100
AcDbLine
 10
43.368019
 20
-1.441022
 30
0.0
 11
43.109268
 21
-1.392041
 31
0.0
  0
LINE
  5
A35
330
1F
100
AcDbEntity
  8
1
  6
CONTINUOUS
370
50
 62
4
100
AcDbLine
 10
53.199726
 20
1.40231
 30
0.0
 11
53.010796
 21
1.437936
 31
0.0
  0
LINE
  5
A36
330
1F
100
AcDbEntity
  8
1
  6
CONTINUOUS
370
50
 62
4
100
AcDbLine
 10
53.114662
 20
0.994506
 30
0.0
 11
52.80141399999999
 21
1.051913
 31
0.0
  0
LINE
  5
A37
330
1F
100
AcDbEntity
  8
1
  6
CONTINUOUS
370
50
 62
4
100
AcDbLine
 10
44.94795999999999
 20
-0.7059219999999999
 30
0.0
 11
44.50024
 21
-0.6240089999999999
 31
0.0
  0
LINE
  5
A38
330
1F
100
AcDbEntity
  8
1
  6
CONTINUOUS
370
50
 62
4
100
AcDbLine
 10
53.11454
 20
-0.7066359999999999
 30
0.0
 11
52.665462
 21
-0.624501
 31
0.0
  0
LINE
  5
A39
330
1F
100
AcDbEntity
  8
1
  6
CONTINUOUS
370
50
 62
4
100
AcDbLine
 10
44.951752
 20
-0.707892
 30
0.0
 11
44.503067
 21
-0.625915
 31
0.0
  0
LINE
  5
A3A
330
1F
100
AcDbEntity
  8
1
  6
CONTINUOUS
370
50
 62
4
100
AcDbLine
 10
53.118637
 20
-0.708739
 30
0.0
 11
52.669178
 21
-0.626637
 31
0.0
  0
LINE
  5
A3B
330
1F
100
AcDbEntity
  8
1
  6
CONTINUOUS
370
50
 62
4
100
AcDbLine
 10
49.027187
 20
-0.706865
 30
0.0
 11
48.574017
 21
-0.624247
 31
0.0
  0
LINE
  5
A3C
330
1F
100
AcDbEntity
  8
1
  6
CONTINUOUS
370
50
 62
4
100
AcDbLine
 10
57.183983
 20
-0.706027
 30
0.0
 11
56.730747
 21
-0.623451
 31
0.0
  0
LINE
  5
A3D
330
1F
100
AcDbEntity
  8
1
  6
CONTINUOUS
370
50
 62
4
100
AcDbLine
 10
57.20306
 20
0.9917309999999999
 30
0.0
 11
56.88708099999999
 21
1.049297
 31
0.0
  0
LINE
  5
A3E
330
1F
100
AcDbEntity
  8
1
  6
CONTINUOUS
370
50
 62
4
100
AcDbLine
 10
49.03005599999999
 20
-0.708387
 30
0.0
 11
48.583649
 21
-0.6271869999999999
 31
0.0
  0
LINE
  5
A3F
330
1F
100
AcDbEntity
  8
1
  6
CONTINUOUS
370
50
 62
4
100
AcDbLine
 10
57.187084
 20
-0.707583
 30
0.0
 11
56.741528
 21
-0.626547
 31
0.0
  0
LINE
  5
A40
330
1F
100
AcDbEntity
  8
1
  6
CONTINUOUS
370
50
 62
4
100
AcDbLine
 10
40.717171
 20
-0.6824469999999999
 30
0.0
 11
40.57222
 21
-0.656108
 31
0.0
  0
LINE
  5
A41
330
1F
100
AcDbEntity
  8
1
  6
CONTINUOUS
370
50
 62
4
100
AcDbLine
 10
40.721489
 20
-0.6841729999999999
 30
0.0
 11
40.577202
 21
-0.657964
 31
0.0
  0
LINE
  5
A42
330
1F
100
AcDbEntity
  8
1
  6
CONTINUOUS
370
50
 62
4
100
AcDbLine
 10
51.624584
 20
-1.455994
 30
0.0
 11
51.266289
 21
-1.391334
 31
0.0
  0
LINE
  5
A43
330
1F
100
AcDbEntity
  8
1
  6
CONTINUOUS
370
50
 62
4
100
AcDbLine
 10
49.021603
 20
0.995641
 30
0.0
 11
48.707966
 21
1.0521
 31
0.0
  0
LINE
  5
A44
330
1F
100
AcDbEntity
  8
1
  6
CONTINUOUS
370
50
 62
4
100
AcDbLine
 10
45.005024
 20
1.409198
 30
0.0
 11
44.794422
 21
1.446661
 31
0.0
  0
LINE
  5
A45
330
1F
100
AcDbEntity
  8
1
  6
CONTINUOUS
370
50
 62
4
100
AcDbLine
 10
42.960083
 20
-1.443216
 30
0.0
 11
42.745956
 21
-1.40538
 31
0.0
  0
LINE
  5
A46
330
1F
100
AcDbEntity
  8
1
  6
CONTINUOUS
370
50
 62
4
100
AcDbLine
 10
52.90729899999999
 20
1.375206
 30
0.0
 11
52.36306
 21
1.46883
 31
0.0
  0
LINE
  5
A47
330
1F
100
AcDbEntity
  8
1
  6
CONTINUOUS
370
50
 62
4
100
AcDbLine
 10
59.486313
 20
-1.470416
 30
0.0
 11
58.966427
 21
-1.383564
 31
0.0
  0
LINE
  5
A48
330
1F
100
AcDbEntity
  8
1
  6
CONTINUOUS
370
50
 62
4
100
AcDbLine
 10
49.049946
 20
1.415331
 30
0.0
 11
48.839512
 21
1.450439
 31
0.0
  0
LINE
  5
A49
330
1F
100
AcDbEntity
  8
1
  6
CONTINUOUS
370
50
 62
4
100
AcDbLine
 10
40.865776
 20
-0.70812
 30
0.0
 11
40.721489
 21
-0.6841729999999999
 31
0.0
  0
LINE
  5
A4A
330
1F
100
AcDbEntity
  8
1
  6
CONTINUOUS
370
50
 62
4
100
AcDbLine
 10
40.862553
 20
-0.706523
 30
0.0
 11
40.717171
 21
-0.6824469999999999
 31
0.0
  0
LINE
  5
A4B
330
1F
100
AcDbEntity
  8
1
  6
CONTINUOUS
370
50
 62
4
100
AcDbLine
 10
40.870811
 20
1.418354
 30
0.0
 11
40.65567
 21
1.453501
 31
0.0
  0
LINE
  5
A4C
330
1F
100
AcDbEntity
  8
1
  6
CONTINUOUS
370
50
 62
4
100
AcDbLine
 10
57.195026
 20
1.418545
 30
0.0
 11
56.976826
 21
1.453952
 31
0.0
  0
LINE
  5
A4D
330
1F
100
AcDbEntity
  8
1
  6
CONTINUOUS
370
50
 62
4
100
AcDbLine
 10
47.159748
 20
-1.461729
 30
0.0
 11
46.880638
 21
-1.416737
 31
0.0
  0
LINE
  5
A4E
330
1F
100
AcDbEntity
  8
1
  6
CONTINUOUS
370
50
 62
4
100
AcDbLine
 10
48.60001399999999
 20
1.420105
 30
0.0
 11
48.317436
 21
1.465018
 31
0.0
  0
LINE
  5
A4F
330
1F
100
AcDbEntity
  8
1
  6
CONTINUOUS
370
50
 62
4
100
AcDbLine
 10
44.782555
 20
1.027761
 30
0.0
 11
44.45047
 21
1.078522
 31
0.0
  0
LINE
  5
A50
330
1F
100
AcDbEntity
  8
1
  6
CONTINUOUS
370
50
 62
4
100
AcDbLine
 10
40.669571
 20
1.031455
 30
0.0
 11
40.334785
 21
1.082175
 31
0.0
  0
LINE
  5
A51
330
1F
100
AcDbEntity
  8
1
  6
CONTINUOUS
370
50
 62
4
100
AcDbLine
 10
56.741085
 20
1.423921
 30
0.0
 11
56.41644299999999
 21
1.472394
 31
0.0
  0
LINE
  5
A52
330
1F
100
AcDbEntity
  8
1
  6
CONTINUOUS
370
50
 62
4
100
AcDbLine
 10
39.793854
 20
-1.488371
 30
0.0
 11
39.721283
 21
-1.477651
 31
0.0
  0
LINE
  5
A53
330
1F
100
AcDbEntity
  8
1
  6
CONTINUOUS
370
50
 62
4
100
AcDbLine
 10
51.398067
 20
-1.478347
 30
0.0
 11
50.957664
 21
-1.414863
 31
0.0
  0
LINE
  5
A54
330
1F
100
AcDbEntity
  8
1
  6
CONTINUOUS
370
50
 62
4
100
AcDbLine
 10
53.010796
 20
1.437936
 30
0.0
 11
52.804749
 21
1.46737
 31
0.0
  0
LINE
  5
A55
330
1F
100
AcDbEntity
  8
1
  6
CONTINUOUS
370
50
 62
4
100
AcDbLine
 10
55.376701
 20
-1.468427
 30
0.0
 11
55.15044
 21
-1.436253
 31
0.0
  0
LINE
  5
A56
330
1F
100
AcDbEntity
  8
1
  6
CONTINUOUS
370
50
 62
4
100
AcDbLine
 10
59.985355
 20
-1.479142
 30
0.0
 11
59.604282
 21
-1.426061
 31
0.0
  0
LINE
  5
A57
330
1F
100
AcDbEntity
  8
1
  6
CONTINUOUS
370
50
 62
4
100
AcDbLine
 10
55.830265
 20
-1.471161
 30
0.0
 11
55.571766
 21
-1.435609
 31
0.0
  0
LINE
  5
A58
330
1F
100
AcDbEntity
  8
1
  6
CONTINUOUS
370
50
 62
4
100
AcDbLine
 10
56.88708099999999
 20
1.049297
 30
0.0
 11
56.571106
 21
1.092399
 31
0.0
  0
LINE
  5
A59
330
1F
100
AcDbEntity
  8
1
  6
CONTINUOUS
370
50
 62
4
100
AcDbLine
 10
48.707966
 20
1.0521
 30
0.0
 11
48.394333
 21
1.094234
 31
0.0
  0
LINE
  5
A5A
330
1F
100
AcDbEntity
  8
1
  6
CONTINUOUS
370
50
 62
4
100
AcDbLine
 10
43.174053
 20
-1.471784
 30
0.0
 11
42.960083
 21
-1.443216
 31
0.0
  0
LINE
  5
A5B
330
1F
100
AcDbEntity
  8
1
  6
CONTINUOUS
370
50
 62
4
100
AcDbLine
 10
52.80141399999999
 20
1.051913
 30
0.0
 11
52.488167
 21
1.093097
 31
0.0
  0
LINE
  5
A5C
330
1F
100
AcDbEntity
  8
1
  6
CONTINUOUS
370
50
 62
4
100
AcDbLine
 10
43.66196799999999
 20
-1.479536
 30
0.0
 11
43.368019
 21
-1.441022
 31
0.0
  0
LINE
  5
A5D
330
1F
100
AcDbEntity
  8
1
  6
CONTINUOUS
370
50
 62
4
100
AcDbLine
 10
44.529758
 20
1.41967
 30
0.0
 11
44.023228
 21
1.48599
 31
0.0
  0
LINE
  5
A5E
330
1F
100
AcDbEntity
  8
1
  6
CONTINUOUS
370
50
 62
4
100
AcDbLine
 10
40.320515
 20
1.441028
 30
0.0
 11
40.0
 21
1.481848
 31
0.0
  0
LINE
  5
A5F
330
1F
100
AcDbEntity
  8
1
  6
CONTINUOUS
370
50
 62
4
100
AcDbLine
 10
44.794422
 20
1.446661
 30
0.0
 11
44.563183
 21
1.476055
 31
0.0
  0
LINE
  5
A60
330
1F
100
AcDbEntity
  8
1
  6
CONTINUOUS
370
50
 62
4
100
AcDbLine
 10
48.839512
 20
1.450439
 30
0.0
 11
48.630135
 21
1.476465
 31
0.0
  0
LINE
  5
A61
330
1F
100
AcDbEntity
  8
1
  6
CONTINUOUS
370
50
 62
4
100
AcDbLine
 10
47.820503
 20
-1.485614
 30
0.0
 11
47.414661
 21
-1.436501
 31
0.0
  0
LINE
  5
A62
330
1F
100
AcDbEntity
  8
1
  6
CONTINUOUS
370
50
 62
4
100
AcDbLine
 10
40.65567
 20
1.453501
 30
0.0
 11
40.441238
 21
1.479154
 31
0.0
  0
LINE
  5
A63
330
1F
100
AcDbEntity
  8
1
  6
CONTINUOUS
370
50
 62
4
100
AcDbLine
 10
56.976826
 20
1.453952
 30
0.0
 11
56.759705
 21
1.479604
 31
0.0
  0
LINE
  5
A64
330
1F
100
AcDbEntity
  8
1
  6
CONTINUOUS
370
50
 62
4
100
AcDbLine
 10
51.937504
 20
-1.489082
 30
0.0
 11
51.624584
 21
-1.455994
 31
0.0
  0
LINE
  5
A65
330
1F
100
AcDbEntity
  8
1
  6
CONTINUOUS
370
50
 62
4
100
AcDbLine
 10
44.45047
 20
1.078522
 30
0.0
 11
44.118385
 21
1.111922
 31
0.0
  0
LINE
  5
A66
330
1F
100
AcDbEntity
  8
1
  6
CONTINUOUS
370
50
 62
4
100
AcDbLine
 10
40.334785
 20
1.082175
 30
0.0
 11
40.0
 21
1.115119
 31
0.0
  0
LINE
  5
A67
330
1F
100
AcDbEntity
  8
1
  6
CONTINUOUS
370
50
 62
4
100
AcDbLine
 10
47.447353
 20
-1.489706
 30
0.0
 11
47.159748
 21
-1.461729
 31
0.0
  0
LINE
  5
A68
330
1F
100
AcDbEntity
  8
1
  6
CONTINUOUS
370
50
 62
4
100
AcDbLine
 10
52.804749
 20
1.46737
 30
0.0
 11
52.57967799999999
 21
1.488577
 31
0.0
  0
LINE
  5
A69
330
1F
100
AcDbEntity
  8
1
  6
CONTINUOUS
370
50
 62
4
100
AcDbLine
 10
48.317436
 20
1.465018
 30
0.0
 11
48.030373
 21
1.491776
 31
0.0
  0
LINE
  5
A6A
330
1F
100
AcDbEntity
  8
1
  6
CONTINUOUS
370
50
 62
4
100
AcDbLine
 10
39.8699
 20
-1.495349
 30
0.0
 11
39.793854
 21
-1.488371
 31
0.0
  0
LINE
  5
A6B
330
1F
100
AcDbEntity
  8
1
  6
CONTINUOUS
370
50
 62
4
100
AcDbLine
 10
55.621799
 20
-1.490488
 30
0.0
 11
55.376701
 21
-1.468427
 31
0.0
  0
LINE
  5
A6C
330
1F
100
AcDbEntity
  8
1
  6
CONTINUOUS
370
50
 62
4
100
AcDbLine
 10
43.38659699999999
 20
-1.490644
 30
0.0
 11
43.174053
 21
-1.471784
 31
0.0
  0
LINE
  5
A6D
330
1F
100
AcDbEntity
  8
1
  6
CONTINUOUS
370
50
 62
4
100
AcDbLine
 10
56.571106
 20
1.092399
 30
0.0
 11
56.255131
 21
1.119469
 31
0.0
  0
LINE
  5
A6E
330
1F
100
AcDbEntity
  8
1
  6
CONTINUOUS
370
50
 62
4
100
AcDbLine
 10
56.08619299999999
 20
-1.492673
 30
0.0
 11
55.830265
 21
-1.471161
 31
0.0
  0
LINE
  5
A6F
330
1F
100
AcDbEntity
  8
1
  6
CONTINUOUS
370
50
 62
4
100
AcDbLine
 10
48.394333
 20
1.094234
 30
0.0
 11
48.080704
 21
1.120215
 31
0.0
  0
LINE
  5
A70
330
1F
100
AcDbEntity
  8
1
  6
CONTINUOUS
370
50
 62
4
100
AcDbLine
 10
52.488167
 20
1.093097
 30
0.0
 11
52.174919
 21
1.118953
 31
0.0
  0
LINE
  5
A71
330
1F
100
AcDbEntity
  8
1
  6
CONTINUOUS
370
50
 62
4
100
AcDbLine
 10
56.41644299999999
 20
1.472394
 30
0.0
 11
56.14461499999999
 21
1.494415
 31
0.0
  0
LINE
  5
A72
330
1F
100
AcDbEntity
  8
1
  6
CONTINUOUS
370
50
 62
4
100
AcDbLine
 10
48.630135
 20
1.476465
 30
0.0
 11
48.41864
 21
1.49331
 31
0.0
  0
LINE
  5
A73
330
1F
100
AcDbEntity
  8
1
  6
CONTINUOUS
370
50
 62
4
100
AcDbLine
 10
44.563183
 20
1.476055
 30
0.0
 11
44.319645
 21
1.494339
 31
0.0
  0
LINE
  5
A74
330
1F
100
AcDbEntity
  8
1
  6
CONTINUOUS
370
50
 62
4
100
AcDbLine
 10
40.441238
 20
1.479154
 30
0.0
 11
40.230274
 21
1.49474
 31
0.0
  0
LINE
  5
A75
330
1F
100
AcDbEntity
  8
1
  6
CONTINUOUS
370
50
 62
4
100
AcDbLine
 10
59.822426
 20
0.747219
 30
0.0
 11
59.82126599999999
 21
0.747304
 31
0.0
  0
LINE
  5
A76
330
1F
100
AcDbEntity
  8
1
  6
CONTINUOUS
370
50
 62
4
100
AcDbLine
 10
59.820103
 20
0.7473879999999999
 30
0.0
 11
59.818943
 21
0.7474729999999999
 31
0.0
  0
LINE
  5
A77
330
1F
100
AcDbEntity
  8
1
  6
CONTINUOUS
370
50
 62
4
100
AcDbLine
 10
59.81778
 20
0.7475569999999999
 30
0.0
 11
59.81662
 21
0.7476419999999999
 31
0.0
  0
LINE
  5
A78
330
1F
100
AcDbEntity
  8
1
  6
CONTINUOUS
370
50
 62
4
100
AcDbLine
 10
59.82126599999999
 20
0.747304
 30
0.0
 11
59.820103
 21
0.7473879999999999
 31
0.0
  0
LINE
  5
A79
330
1F
100
AcDbEntity
  8
1
  6
CONTINUOUS
370
50
 62
4
100
AcDbLine
 10
59.818943
 20
0.7474729999999999
 30
0.0
 11
59.81778
 21
0.7475569999999999
 31
0.0
  0
LINE
  5
A7A
330
1F
100
AcDbEntity
  8
1
  6
CONTINUOUS
370
50
 62
4
100
AcDbLine
 10
56.759705
 20
1.479604
 30
0.0
 11
56.545322
 21
1.495082
 31
0.0
  0
LINE
  5
A7B
330
1F
100
AcDbEntity
  8
1
  6
CONTINUOUS
370
50
 62
4
100
AcDbLine
 10
59.823589
 20
0.7471399999999999
 30
0.0
 11
59.822426
 21
0.747219
 31
0.0
  0
LINE
  5
A7C
330
1F
100
AcDbEntity
  8
1
  6
CONTINUOUS
370
50
 62
4
100
AcDbLine
 10
52.36306
 20
1.46883
 30
0.0
 11
51.829338
 21
1.50003
 31
0.0
  0
LINE
  5
A7D
330
1F
100
AcDbEntity
  8
1
  6
CONTINUOUS
370
50
 62
4
100
AcDbLine
 10
59.997288
 20
-1.5
 30
0.0
 11
59.486313
 21
-1.470416
 31
0.0
  0
LINE
  5
A7E
330
1F
100
AcDbEntity
  8
1
  6
CONTINUOUS
370
50
 62
4
100
AcDbLine
 10
51.829315
 20
-1.50003
 30
0.0
 11
51.398067
 21
-1.478347
 31
0.0
  0
LINE
  5
A7F
330
1F
100
AcDbEntity
  8
1
  6
CONTINUOUS
370
50
 62
4
100
AcDbLine
 10
44.118385
 20
1.111922
 30
0.0
 11
43.786293
 21
1.127858
 31
0.0
  0
LINE
  5
A80
330
1F
100
AcDbEntity
  8
1
  6
CONTINUOUS
370
50
 62
4
100
AcDbLine
 10
44.096191
 20
-1.499973
 30
0.0
 11
43.66196799999999
 21
-1.479536
 31
0.0
  0
LINE
  5
A81
330
1F
100
AcDbEntity
  8
1
  6
CONTINUOUS
370
50
 62
4
100
AcDbLine
 10
39.949787
 20
-1.499064
 30
0.0
 11
39.8699
 21
-1.495349
 31
0.0
  0
LINE
  5
A82
330
1F
100
AcDbEntity
  8
1
  6
CONTINUOUS
370
50
 62
4
100
AcDbLine
 10
52.57967799999999
 20
1.488577
 30
0.0
 11
52.345749
 21
1.499045
 31
0.0
  0
LINE
  5
A83
330
1F
100
AcDbEntity
  8
1
  6
CONTINUOUS
370
50
 62
4
100
AcDbLine
 10
48.184269
 20
-1.500058
 30
0.0
 11
47.820503
 21
-1.485614
 31
0.0
  0
LINE
  5
A84
330
1F
100
AcDbEntity
  8
1
  6
CONTINUOUS
370
50
 62
4
100
AcDbLine
 10
43.628479
 20
-1.499801
 30
0.0
 11
43.38659699999999
 21
-1.490644
 31
0.0
  0
LINE
  5
A85
330
1F
100
AcDbEntity
  8
1
  6
CONTINUOUS
370
50
 62
4
100
AcDbLine
 10
55.870186
 20
-1.499718
 30
0.0
 11
55.621799
 21
-1.490488
 31
0.0
  0
LINE
  5
A86
330
1F
100
AcDbEntity
  8
1
  6
CONTINUOUS
370
50
 62
4
100
AcDbLine
 10
47.736832
 20
-1.499901
 30
0.0
 11
47.447353
 21
-1.489706
 31
0.0
  0
LINE
  5
A87
330
1F
100
AcDbEntity
  8
1
  6
CONTINUOUS
370
50
 62
4
100
AcDbLine
 10
52.246834
 20
-1.499956
 30
0.0
 11
51.937504
 21
-1.489082
 31
0.0
  0
LINE
  5
A88
330
1F
100
AcDbEntity
  8
1
  6
CONTINUOUS
370
50
 62
4
100
AcDbLine
 10
44.023228
 20
1.48599
 30
0.0
 11
43.628479
 21
1.499801
 31
0.0
  0
LINE
  5
A89
330
1F
100
AcDbEntity
  8
1
  6
CONTINUOUS
370
50
 62
4
100
AcDbLine
 10
39.956345
 20
-1.499291
 30
0.0
 11
39.949787
 21
-1.499064
 31
0.0
  0
LINE
  5
A8A
330
1F
100
AcDbEntity
  8
1
  6
CONTINUOUS
370
50
 62
4
100
AcDbLine
 10
52.174919
 20
1.118953
 30
0.0
 11
51.86166799999999
 21
1.129017
 31
0.0
  0
LINE
  5
A8B
330
1F
100
AcDbEntity
  8
1
  6
CONTINUOUS
370
50
 62
4
100
AcDbLine
 10
56.255131
 20
1.119469
 30
0.0
 11
55.939156
 21
1.129085
 31
0.0
  0
LINE
  5
A8C
330
1F
100
AcDbEntity
  8
1
  6
CONTINUOUS
370
50
 62
4
100
AcDbLine
 10
56.332973
 20
-1.500055
 30
0.0
 11
56.08619299999999
 21
-1.492673
 31
0.0
  0
LINE
  5
A8D
330
1F
100
AcDbEntity
  8
1
  6
CONTINUOUS
370
50
 62
4
100
AcDbLine
 10
48.41864
 20
1.49331
 30
0.0
 11
48.18663799999999
 21
1.500054
 31
0.0
  0
LINE
  5
A8E
330
1F
100
AcDbEntity
  8
1
  6
CONTINUOUS
370
50
 62
4
100
AcDbLine
 10
48.080704
 20
1.120215
 30
0.0
 11
47.767071
 21
1.12911
 31
0.0
  0
LINE
  5
A8F
330
1F
100
AcDbEntity
  8
1
  6
CONTINUOUS
370
50
 62
4
100
AcDbLine
 10
39.963245
 20
-1.499482
 30
0.0
 11
39.956345
 21
-1.499291
 31
0.0
  0
LINE
  5
A90
330
1F
100
AcDbEntity
  8
1
  6
CONTINUOUS
370
50
 62
4
100
AcDbLine
 10
48.030373
 20
1.491776
 30
0.0
 11
47.736832
 21
1.499901
 31
0.0
  0
LINE
  5
A91
330
1F
100
AcDbEntity
  8
1
  6
CONTINUOUS
370
50
 62
4
100
AcDbLine
 10
44.319645
 20
1.494339
 30
0.0
 11
44.09523
 21
1.499975
 31
0.0
  0
LINE
  5
A92
330
1F
100
AcDbEntity
  8
1
  6
CONTINUOUS
370
50
 62
4
100
AcDbLine
 10
40.230274
 20
1.49474
 30
0.0
 11
40.018589
 21
1.499901
 31
0.0
  0
LINE
  5
A93
330
1F
100
AcDbEntity
  8
1
  6
CONTINUOUS
370
50
 62
4
100
AcDbLine
 10
56.545322
 20
1.495082
 30
0.0
 11
56.332806
 21
1.500055
 31
0.0
  0
LINE
  5
A94
330
1F
100
AcDbEntity
  8
1
  6
CONTINUOUS
370
50
 62
4
100
AcDbLine
 10
39.970406
 20
-1.499639
 30
0.0
 11
39.963245
 21
-1.499482
 31
0.0
  0
LINE
  5
A95
330
1F
100
AcDbEntity
  8
1
  6
CONTINUOUS
370
50
 62
4
100
AcDbLine
 10
56.14461499999999
 20
1.494415
 30
0.0
 11
55.87052199999999
 21
1.499722
 31
0.0
  0
LINE
  5
A96
330
1F
100
AcDbEntity
  8
1
  6
CONTINUOUS
370
50
 62
4
100
AcDbLine
 10
39.977745
 20
-1.499763
 30
0.0
 11
39.970406
 21
-1.499639
 31
0.0
  0
LINE
  5
A97
330
1F
100
AcDbEntity
  8
1
  6
CONTINUOUS
370
50
 62
4
100
AcDbLine
 10
39.98518
 20
-1.499855
 30
0.0
 11
39.977745
 21
-1.499763
 31
0.0
  0
LINE
  5
A98
330
1F
100
AcDbEntity
  8
1
  6
CONTINUOUS
370
50
 62
4
100
AcDbLine
 10
39.992626
 20
-1.499915
 30
0.0
 11
39.98518
 21
-1.499855
 31
0.0
  0
LINE
  5
A99
330
1F
100
AcDbEntity
  8
1
  6
CONTINUOUS
370
50
 62
4
100
AcDbLine
 10
40.0
 20
-1.499945
 30
0.0
 11
39.992626
 21
-1.499915
 31
0.0
  0
LINE
  5
A9A
330
1F
100
AcDbEntity
  8
1
  6
CONTINUOUS
370
50
 62
4
100
AcDbLine
 10
40.006775
 20
-1.499884
 30
0.0
 11
40.0
 21
-1.49986
 31
0.0
  0
LINE
  5
A9B
330
1F
100
AcDbEntity
  8
1
  6
CONTINUOUS
370
50
 62
4
100
AcDbLine
 10
40.013535
 20
-1.499898
 30
0.0
 11
40.006775
 21
-1.499884
 31
0.0
  0
LINE
  5
A9C
330
1F
100
AcDbEntity
  8
1
  6
CONTINUOUS
370
50
 62
4
100
AcDbLine
 10
40.020283
 20
-1.499901
 30
0.0
 11
40.013535
 21
-1.499898
 31
0.0
  0
LINE
  5
A9D
330
1F
100
AcDbEntity
  8
1
  6
CONTINUOUS
370
50
 62
4
100
AcDbLine
 10
48.18049999999999
 20
-1.499941
 30
0.0
 11
47.756687
 21
-1.499939
 31
0.0
  0
LINE
  5
A9E
330
1F
100
AcDbEntity
  8
1
  6
CONTINUOUS
370
50
 62
4
100
AcDbLine
 10
44.090698
 20
-1.49992
 30
0.0
 11
43.667774
 21
-1.499918
 31
0.0
  0
LINE
  5
A9F
330
1F
100
AcDbEntity
  8
1
  6
CONTINUOUS
370
50
 62
4
100
AcDbLine
 10
56.34159099999999
 20
-1.499982
 30
0.0
 11
55.919498
 21
-1.49998
 31
0.0
  0
LINE
  5
AA0
330
1F
100
AcDbEntity
  8
1
  6
CONTINUOUS
370
50
 62
4
100
AcDbLine
 10
52.25324999999999
 20
-1.499961
 30
0.0
 11
51.829735
 21
-1.499959
 31
0.0
  0
LINE
  5
AA1
330
1F
100
AcDbEntity
  8
1
  6
CONTINUOUS
370
50
 62
4
100
AcDbLine
 10
59.99712
 20
-1.5
 30
0.0
 11
60.0
 21
-1.5
 31
0.0
  0
LINE
  5
AA2
330
1F
100
AcDbEntity
  8
1
  6
CONTINUOUS
370
50
 62
4
100
AcDbLine
 10
38.0
 20
-1.49995
 30
0.0
 11
40.0
 21
-1.49995
 31
0.0
  0
LINE
  5
AA3
330
1F
100
AcDbEntity
  8
1
  6
CONTINUOUS
370
50
 62
4
100
AcDbLine
 10
40.0
 20
-1.4999
 30
0.0
 11
40.018562
 21
-1.4999
 31
0.0
  0
LINE
  5
AA4
330
1F
100
AcDbEntity
  8
1
  6
CONTINUOUS
370
50
 62
4
100
AcDbLine
 10
40.0
 20
1.4999
 30
0.0
 11
40.018879
 21
1.4999
 31
0.0
  0
LINE
  5
AA5
330
1F
100
AcDbEntity
  8
1
  6
CONTINUOUS
370
50
 62
4
100
AcDbLine
 10
38.0
 20
1.49995
 30
0.0
 11
40.0
 21
1.49995
 31
0.0
  0
LINE
  5
AA6
330
1F
100
AcDbEntity
  8
1
  6
CONTINUOUS
370
50
 62
4
100
AcDbLine
 10
55.91950199999999
 20
1.49998
 30
0.0
 11
56.341442
 21
1.499982
 31
0.0
  0
LINE
  5
AA7
330
1F
100
AcDbEntity
  8
1
  6
CONTINUOUS
370
50
 62
4
100
AcDbLine
 10
43.667774
 20
1.499918
 30
0.0
 11
44.090683
 21
1.49992
 31
0.0
  0
LINE
  5
AA8
330
1F
100
AcDbEntity
  8
1
  6
CONTINUOUS
370
50
 62
4
100
AcDbLine
 10
51.829731
 20
1.499959
 30
0.0
 11
52.254047
 21
1.499961
 31
0.0
  0
LINE
  5
AA9
330
1F
100
AcDbEntity
  8
1
  6
CONTINUOUS
370
50
 62
4
100
AcDbLine
 10
47.756687
 20
1.499939
 30
0.0
 11
48.18034
 21
1.499941
 31
0.0
  0
LINE
  5
AAA
330
1F
100
AcDbEntity
  8
1
  6
CONTINUOUS
370
50
 62
4
100
AcDbLine
 10
40.020283
 20
-1.499901
 30
0.0
 11
40.027012
 21
-1.499895
 31
0.0
  0
LINE
  5
AAB
330
1F
100
AcDbEntity
  8
1
  6
CONTINUOUS
370
50
 62
4
100
AcDbLine
 10
40.027012
 20
-1.499895
 30
0.0
 11
40.03373
 21
-1.499879
 31
0.0
  0
LINE
  5
AAC
330
1F
100
AcDbEntity
  8
1
  6
CONTINUOUS
370
50
 62
4
100
AcDbLine
 10
39.91560399999999
 20
1.481493
 30
0.0
 11
40.0
 21
1.481741
 31
0.0
  0
LINE
  5
AAD
330
1F
100
AcDbEntity
  8
1
  6
CONTINUOUS
370
50
 62
4
100
AcDbLine
 10
39.831211
 20
1.481229
 30
0.0
 11
39.91560399999999
 21
1.481493
 31
0.0
  0
LINE
  5
AAE
330
1F
100
AcDbEntity
  8
1
  6
CONTINUOUS
370
50
 62
4
100
AcDbLine
 10
39.746815
 20
1.480949
 30
0.0
 11
39.831211
 21
1.481229
 31
0.0
  0
LINE
  5
AAF
330
1F
100
AcDbEntity
  8
1
  6
CONTINUOUS
370
50
 62
4
100
AcDbLine
 10
39.662422
 20
1.480653
 30
0.0
 11
39.746815
 21
1.480949
 31
0.0
  0
LINE
  5
AB0
330
1F
100
AcDbEntity
  8
1
  6
CONTINUOUS
370
50
 62
4
100
AcDbLine
 10
39.578033
 20
1.480339
 30
0.0
 11
39.662422
 21
1.480653
 31
0.0
  0
LINE
  5
AB1
330
1F
100
AcDbEntity
  8
1
  6
CONTINUOUS
370
50
 62
4
100
AcDbLine
 10
40.03373
 20
-1.499879
 30
0.0
 11
40.040432
 21
-1.499853
 31
0.0
  0
LINE
  5
AB2
330
1F
100
AcDbEntity
  8
1
  6
CONTINUOUS
370
50
 62
4
100
AcDbLine
 10
39.493649
 20
1.480009
 30
0.0
 11
39.578033
 21
1.480339
 31
0.0
  0
LINE
  5
AB3
330
1F
100
AcDbEntity
  8
1
  6
CONTINUOUS
370
50
 62
4
100
AcDbLine
 10
39.409264
 20
1.479661
 30
0.0
 11
39.493649
 21
1.480009
 31
0.0
  0
LINE
  5
AB4
330
1F
100
AcDbEntity
  8
1
  6
CONTINUOUS
370
50
 62
4
100
AcDbLine
 10
39.382168
 20
1.479492
 30
0.0
 11
39.409264
 21
1.479661
 31
0.0
  0
LINE
  5
AB5
330
1F
100
AcDbEntity
  8
1
  6
CONTINUOUS
370
50
 62
4
100
AcDbLine
 10
43.45420499999999
 20
1.125168
 30
0.0
 11
43.786293
 21
1.127858
 31
0.0
  0
LINE
  5
AB6
330
1F
100
AcDbEntity
  8
1
  6
CONTINUOUS
370
50
 62
4
100
AcDbLine
 10
39.355042
 20
1.479207
 30
0.0
 11
39.382168
 21
1.479492
 31
0.0
  0
LINE
  5
AB7
330
1F
100
AcDbEntity
  8
1
  6
CONTINUOUS
370
50
 62
4
100
AcDbLine
 10
39.327934
 20
1.478801
 30
0.0
 11
39.355042
 21
1.479207
 31
0.0
  0
LINE
  5
AB8
330
1F
100
AcDbEntity
  8
1
  6
CONTINUOUS
370
50
 62
4
100
AcDbLine
 10
39.91560399999999
 20
-0.234581
 30
0.0
 11
40.0
 21
-0.233012
 31
0.0
  0
LINE
  5
AB9
330
1F
100
AcDbEntity
  8
1
  6
CONTINUOUS
370
50
 62
4
100
AcDbLine
 10
39.831211
 20
-0.236241
 30
0.0
 11
39.91560399999999
 21
-0.234581
 31
0.0
  0
LINE
  5
ABA
330
1F
100
AcDbEntity
  8
1
  6
CONTINUOUS
370
50
 62
4
100
AcDbLine
 10
39.300888
 20
1.478266
 30
0.0
 11
39.327934
 21
1.478801
 31
0.0
  0
LINE
  5
ABB
330
1F
100
AcDbEntity
  8
1
  6
CONTINUOUS
370
50
 62
4
100
AcDbLine
 10
39.746815
 20
-0.23799
 30
0.0
 11
39.831211
 21
-0.236241
 31
0.0
  0
LINE
  5
ABC
330
1F
100
AcDbEntity
  8
1
  6
CONTINUOUS
370
50
 62
4
100
AcDbLine
 10
51.548416
 20
1.122313
 30
0.0
 11
51.86166799999999
 21
1.129017
 31
0.0
  0
LINE
  5
ABD
330
1F
100
AcDbEntity
  8
1
  6
CONTINUOUS
370
50
 62
4
100
AcDbLine
 10
55.62318399999999
 20
1.122249
 30
0.0
 11
55.939156
 21
1.129085
 31
0.0
  0
LINE
  5
ABE
330
1F
100
AcDbEntity
  8
1
  6
CONTINUOUS
370
50
 62
4
100
AcDbLine
 10
39.662422
 20
-0.239829
 30
0.0
 11
39.746815
 21
-0.23799
 31
0.0
  0
LINE
  5
ABF
330
1F
100
AcDbEntity
  8
1
  6
CONTINUOUS
370
50
 62
4
100
AcDbLine
 10
39.578033
 20
-0.241755
 30
0.0
 11
39.662422
 21
-0.239829
 31
0.0
  0
LINE
  5
AC0
330
1F
100
AcDbEntity
  8
1
  6
CONTINUOUS
370
50
 62
4
100
AcDbLine
 10
47.453442
 20
1.121947
 30
0.0
 11
47.767071
 21
1.12911
 31
0.0
  0
LINE
  5
AC1
330
1F
100
AcDbEntity
  8
1
  6
CONTINUOUS
370
50
 62
4
100
AcDbLine
 10
56.332973
 20
-1.500055
 30
0.0
 11
56.545471
 21
-1.495075
 31
0.0
  0
LINE
  5
AC2
330
1F
100
AcDbEntity
  8
1
  6
CONTINUOUS
370
50
 62
4
100
AcDbLine
 10
39.493649
 20
-0.24377
 30
0.0
 11
39.578033
 21
-0.241755
 31
0.0
  0
LINE
  5
AC3
330
1F
100
AcDbEntity
  8
1
  6
CONTINUOUS
370
50
 62
4
100
AcDbLine
 10
39.273945
 20
1.477596
 30
0.0
 11
39.300888
 21
1.478266
 31
0.0
  0
LINE
  5
AC4
330
1F
100
AcDbEntity
  8
1
  6
CONTINUOUS
370
50
 62
4
100
AcDbLine
 10
39.409264
 20
-0.245871
 30
0.0
 11
39.493649
 21
-0.24377
 31
0.0
  0
LINE
  5
AC5
330
1F
100
AcDbEntity
  8
1
  6
CONTINUOUS
370
50
 62
4
100
AcDbLine
 10
44.096191
 20
-1.499973
 30
0.0
 11
44.32077
 21
-1.494284
 31
0.0
  0
LINE
  5
AC6
330
1F
100
AcDbEntity
  8
1
  6
CONTINUOUS
370
50
 62
4
100
AcDbLine
 10
52.246834
 20
-1.499956
 30
0.0
 11
52.497471
 21
-1.493588
 31
0.0
  0
LINE
  5
AC7
330
1F
100
AcDbEntity
  8
1
  6
CONTINUOUS
370
50
 62
4
100
AcDbLine
 10
48.184269
 20
-1.500058
 30
0.0
 11
48.41686199999999
 21
-1.49341
 31
0.0
  0
LINE
  5
AC8
330
1F
100
AcDbEntity
  8
1
  6
CONTINUOUS
370
50
 62
4
100
AcDbLine
 10
40.040432
 20
-1.499853
 30
0.0
 11
40.247871
 21
-1.49383
 31
0.0
  0
LINE
  5
AC9
330
1F
100
AcDbEntity
  8
1
  6
CONTINUOUS
370
50
 62
4
100
AcDbLine
 10
39.24715
 20
1.476786
 30
0.0
 11
39.273945
 21
1.477596
 31
0.0
  0
LINE
  5
ACA
330
1F
100
AcDbEntity
  8
1
  6
CONTINUOUS
370
50
 62
4
100
AcDbLine
 10
39.390427
 20
-0.246517
 30
0.0
 11
39.409264
 21
-0.245871
 31
0.0
  0
LINE
  5
ACB
330
1F
100
AcDbEntity
  8
1
  6
CONTINUOUS
370
50
 62
4
100
AcDbLine
 10
39.220554
 20
1.475827
 30
0.0
 11
39.24715
 21
1.476786
 31
0.0
  0
LINE
  5
ACC
330
1F
100
AcDbEntity
  8
1
  6
CONTINUOUS
370
50
 62
4
100
AcDbLine
 10
47.434116
 20
1.488812
 30
0.0
 11
47.736832
 21
1.499901
 31
0.0
  0
LINE
  5
ACD
330
1F
100
AcDbEntity
  8
1
  6
CONTINUOUS
370
50
 62
4
100
AcDbLine
 10
59.67042499999999
 20
1.487871
 30
0.0
 11
60.0
 21
1.499999
 31
0.0
  0
LINE
  5
ACE
330
1F
100
AcDbEntity
  8
1
  6
CONTINUOUS
370
50
 62
4
100
AcDbLine
 10
55.603981
 20
1.489319
 30
0.0
 11
55.87052199999999
 21
1.499722
 31
0.0
  0
LINE
  5
ACF
330
1F
100
AcDbEntity
  8
1
  6
CONTINUOUS
370
50
 62
4
100
AcDbLine
 10
51.485729
 20
1.486179
 30
0.0
 11
51.829338
 21
1.50003
 31
0.0
  0
LINE
  5
AD0
330
1F
100
AcDbEntity
  8
1
  6
CONTINUOUS
370
50
 62
4
100
AcDbLine
 10
43.353672
 20
1.488365
 30
0.0
 11
43.628479
 21
1.499801
 31
0.0
  0
LINE
  5
AD1
330
1F
100
AcDbEntity
  8
1
  6
CONTINUOUS
370
50
 62
4
100
AcDbLine
 10
39.194191
 20
1.474713
 30
0.0
 11
39.220554
 21
1.475827
 31
0.0
  0
LINE
  5
AD2
330
1F
100
AcDbEntity
  8
1
  6
CONTINUOUS
370
50
 62
4
100
AcDbLine
 10
59.523453
 20
1.291382
 30
0.0
 11
59.53904
 21
1.292057
 31
0.0
  0
LINE
  5
AD3
330
1F
100
AcDbEntity
  8
1
  6
CONTINUOUS
370
50
 62
4
100
AcDbLine
 10
59.53904
 20
1.292057
 30
0.0
 11
59.552994
 21
1.292664
 31
0.0
  0
LINE
  5
AD4
330
1F
100
AcDbEntity
  8
1
  6
CONTINUOUS
370
50
 62
4
100
AcDbLine
 10
59.50637399999999
 20
1.290639
 30
0.0
 11
59.523453
 21
1.291382
 31
0.0
  0
LINE
  5
AD5
330
1F
100
AcDbEntity
  8
1
  6
CONTINUOUS
370
50
 62
4
100
AcDbLine
 10
59.552994
 20
1.292664
 30
0.0
 11
59.56696299999999
 21
1.293278
 31
0.0
  0
LINE
  5
AD6
330
1F
100
AcDbEntity
  8
1
  6
CONTINUOUS
370
50
 62
4
100
AcDbLine
 10
59.48798799999999
 20
1.28983
 30
0.0
 11
59.50637399999999
 21
1.290639
 31
0.0
  0
LINE
  5
AD7
330
1F
100
AcDbEntity
  8
1
  6
CONTINUOUS
370
50
 62
4
100
AcDbLine
 10
59.468494
 20
1.28896
 30
0.0
 11
59.48798799999999
 21
1.28983
 31
0.0
  0
LINE
  5
AD8
330
1F
100
AcDbEntity
  8
1
  6
CONTINUOUS
370
50
 62
4
100
AcDbLine
 10
59.56696299999999
 20
1.293278
 30
0.0
 11
59.581566
 21
1.293935
 31
0.0
  0
LINE
  5
AD9
330
1F
100
AcDbEntity
  8
1
  6
CONTINUOUS
370
50
 62
4
100
AcDbLine
 10
59.448082
 20
1.288029
 30
0.0
 11
59.468494
 21
1.28896
 31
0.0
  0
LINE
  5
ADA
330
1F
100
AcDbEntity
  8
1
  6
CONTINUOUS
370
50
 62
4
100
AcDbLine
 10
59.581566
 20
1.293935
 30
0.0
 11
59.596519
 21
1.294626
 31
0.0
  0
LINE
  5
ADB
330
1F
100
AcDbEntity
  8
1
  6
CONTINUOUS
370
50
 62
4
100
AcDbLine
 10
59.426945
 20
1.287042
 30
0.0
 11
59.448082
 21
1.288029
 31
0.0
  0
LINE
  5
ADC
330
1F
100
AcDbEntity
  8
1
  6
CONTINUOUS
370
50
 62
4
100
AcDbLine
 10
59.596519
 20
1.294626
 30
0.0
 11
59.611542
 21
1.295347
 31
0.0
  0
LINE
  5
ADD
330
1F
100
AcDbEntity
  8
1
  6
CONTINUOUS
370
50
 62
4
100
AcDbLine
 10
59.405281
 20
1.286002
 30
0.0
 11
59.426945
 21
1.287042
 31
0.0
  0
LINE
  5
ADE
330
1F
100
AcDbEntity
  8
1
  6
CONTINUOUS
370
50
 62
4
100
AcDbLine
 10
39.16814
 20
1.473439
 30
0.0
 11
39.194191
 21
1.474713
 31
0.0
  0
LINE
  5
ADF
330
1F
100
AcDbEntity
  8
1
  6
CONTINUOUS
370
50
 62
4
100
AcDbLine
 10
59.383274
 20
1.284911
 30
0.0
 11
59.405281
 21
1.286002
 31
0.0
  0
LINE
  5
AE0
330
1F
100
AcDbEntity
  8
1
  6
CONTINUOUS
370
50
 62
4
100
AcDbLine
 10
59.611542
 20
1.295347
 30
0.0
 11
59.62635
 21
1.29609
 31
0.0
  0
LINE
  5
AE1
330
1F
100
AcDbEntity
  8
1
  6
CONTINUOUS
370
50
 62
4
100
AcDbLine
 10
59.36112199999999
 20
1.283773
 30
0.0
 11
59.383274
 21
1.284911
 31
0.0
  0
LINE
  5
AE2
330
1F
100
AcDbEntity
  8
1
  6
CONTINUOUS
370
50
 62
4
100
AcDbLine
 10
39.371567
 20
-0.247499
 30
0.0
 11
39.390427
 21
-0.246517
 31
0.0
  0
LINE
  5
AE3
330
1F
100
AcDbEntity
  8
1
  6
CONTINUOUS
370
50
 62
4
100
AcDbLine
 10
59.33901599999999
 20
1.28262
 30
0.0
 11
59.36112199999999
 21
1.283773
 31
0.0
  0
LINE
  5
AE4
330
1F
100
AcDbEntity
  8
1
  6
CONTINUOUS
370
50
 62
4
100
AcDbLine
 10
59.62635
 20
1.29609
 30
0.0
 11
59.640766
 21
1.296856
 31
0.0
  0
LINE
  5
AE5
330
1F
100
AcDbEntity
  8
1
  6
CONTINUOUS
370
50
 62
4
100
AcDbLine
 10
39.1427
 20
1.472008
 30
0.0
 11
39.16814
 21
1.473439
 31
0.0
  0
LINE
  5
AE6
330
1F
100
AcDbEntity
  8
1
  6
CONTINUOUS
370
50
 62
4
100
AcDbLine
 10
59.640766
 20
1.296856
 30
0.0
 11
59.655148
 21
1.297669
 31
0.0
  0
LINE
  5
AE7
330
1F
100
AcDbEntity
  8
1
  6
CONTINUOUS
370
50
 62
4
100
AcDbLine
 10
59.655148
 20
1.297669
 30
0.0
 11
59.669498
 21
1.29854
 31
0.0
  0
LINE
  5
AE8
330
1F
100
AcDbEntity
  8
1
  6
CONTINUOUS
370
50
 62
4
100
AcDbLine
 10
43.12212
 20
1.103835
 30
0.0
 11
43.45420499999999
 21
1.125168
 31
0.0
  0
LINE
  5
AE9
330
1F
100
AcDbEntity
  8
1
  6
CONTINUOUS
370
50
 62
4
100
AcDbLine
 10
39.117958
 20
1.470413
 30
0.0
 11
39.1427
 21
1.472008
 31
0.0
  0
LINE
  5
AEA
330
1F
100
AcDbEntity
  8
1
  6
CONTINUOUS
370
50
 62
4
100
AcDbLine
 10
59.669498
 20
1.29854
 30
0.0
 11
59.683849
 21
1.299484
 31
0.0
  0
LINE
  5
AEB
330
1F
100
AcDbEntity
  8
1
  6
CONTINUOUS
370
50
 62
4
100
AcDbLine
 10
39.352703
 20
-0.248821
 30
0.0
 11
39.371567
 21
-0.247499
 31
0.0
  0
LINE
  5
AEC
330
1F
100
AcDbEntity
  8
1
  6
CONTINUOUS
370
50
 62
4
100
AcDbLine
 10
59.683849
 20
1.299484
 30
0.0
 11
59.698196
 21
1.300515
 31
0.0
  0
LINE
  5
AED
330
1F
100
AcDbEntity
  8
1
  6
CONTINUOUS
370
50
 62
4
100
AcDbLine
 10
56.545471
 20
-1.495075
 30
0.0
 11
56.759834
 21
-1.479591
 31
0.0
  0
LINE
  5
AEE
330
1F
100
AcDbEntity
  8
1
  6
CONTINUOUS
370
50
 62
4
100
AcDbLine
 10
55.307205
 20
1.099408
 30
0.0
 11
55.62318399999999
 21
1.122249
 31
0.0
  0
LINE
  5
AEF
330
1F
100
AcDbEntity
  8
1
  6
CONTINUOUS
370
50
 62
4
100
AcDbLine
 10
47.139805
 20
1.098934
 30
0.0
 11
47.453442
 21
1.121947
 31
0.0
  0
LINE
  5
AF0
330
1F
100
AcDbEntity
  8
1
  6
CONTINUOUS
370
50
 62
4
100
AcDbLine
 10
39.093952
 20
1.468646
 30
0.0
 11
39.117958
 21
1.470413
 31
0.0
  0
LINE
  5
AF1
330
1F
100
AcDbEntity
  8
1
  6
CONTINUOUS
370
50
 62
4
100
AcDbLine
 10
51.23516799999999
 20
1.099163
 30
0.0
 11
51.548416
 21
1.122313
 31
0.0
  0
LINE
  5
AF2
330
1F
100
AcDbEntity
  8
1
  6
CONTINUOUS
370
50
 62
4
100
AcDbLine
 10
44.32077
 20
-1.494284
 30
0.0
 11
44.56435
 21
-1.475937
 31
0.0
  0
LINE
  5
AF3
330
1F
100
AcDbEntity
  8
1
  6
CONTINUOUS
370
50
 62
4
100
AcDbLine
 10
40.247871
 20
-1.49383
 30
0.0
 11
40.455635
 21
-1.477734
 31
0.0
  0
LINE
  5
AF4
330
1F
100
AcDbEntity
  8
1
  6
CONTINUOUS
370
50
 62
4
100
AcDbLine
 10
52.497471
 20
-1.493588
 30
0.0
 11
52.743088
 21
-1.474291
 31
0.0
  0
LINE
  5
AF5
330
1F
100
AcDbEntity
  8
1
  6
CONTINUOUS
370
50
 62
4
100
AcDbLine
 10
59.698196
 20
1.300515
 30
0.0
 11
59.712505
 21
1.301648
 31
0.0
  0
LINE
  5
AF6
330
1F
100
AcDbEntity
  8
1
  6
CONTINUOUS
370
50
 62
4
100
AcDbLine
 10
48.41686199999999
 20
-1.49341
 30
0.0
 11
48.628792
 21
-1.476603
 31
0.0
  0
LINE
  5
AF7
330
1F
100
AcDbEntity
  8
1
  6
CONTINUOUS
370
50
 62
4
100
AcDbLine
 10
39.07071699999999
 20
1.4667
 30
0.0
 11
39.093952
 21
1.468646
 31
0.0
  0
LINE
  5
AF8
330
1F
100
AcDbEntity
  8
1
  6
CONTINUOUS
370
50
 62
4
100
AcDbLine
 10
39.333847
 20
-0.250482
 30
0.0
 11
39.352703
 21
-0.248821
 31
0.0
  0
LINE
  5
AF9
330
1F
100
AcDbEntity
  8
1
  6
CONTINUOUS
370
50
 62
4
100
AcDbLine
 10
59.712505
 20
1.301648
 30
0.0
 11
59.725132
 21
1.302761
 31
0.0
  0
LINE
  5
AFA
330
1F
100
AcDbEntity
  8
1
  6
CONTINUOUS
370
50
 62
4
100
AcDbLine
 10
39.048283
 20
1.464566
 30
0.0
 11
39.07071699999999
 21
1.4667
 31
0.0
  0
LINE
  5
AFB
330
1F
100
AcDbEntity
  8
1
  6
CONTINUOUS
370
50
 62
4
100
AcDbLine
 10
55.342384
 20
1.464293
 30
0.0
 11
55.603981
 21
1.489319
 31
0.0
  0
LINE
  5
AFC
330
1F
100
AcDbEntity
  8
1
  6
CONTINUOUS
370
50
 62
4
100
AcDbLine
 10
59.725132
 20
1.302761
 30
0.0
 11
59.73674399999999
 21
1.303911
 31
0.0
  0
LINE
  5
AFD
330
1F
100
AcDbEntity
  8
1
  6
CONTINUOUS
370
50
 62
4
100
AcDbLine
 10
43.107563
 20
1.463914
 30
0.0
 11
43.353672
 21
1.488365
 31
0.0
  0
LINE
  5
AFE
330
1F
100
AcDbEntity
  8
1
  6
CONTINUOUS
370
50
 62
4
100
AcDbLine
 10
47.13361399999999
 20
1.458285
 30
0.0
 11
47.434116
 21
1.488812
 31
0.0
  0
LINE
  5
AFF
330
1F
100
AcDbEntity
  8
1
  6
CONTINUOUS
370
50
 62
4
100
AcDbLine
 10
59.305706
 20
1.089379
 30
0.0
 11
59.41489
 21
1.10069
 31
0.0
  0
LINE
  5
B00
330
1F
100
AcDbEntity
  8
1
  6
CONTINUOUS
370
50
 62
4
100
AcDbLine
 10
59.814316
 20
1.312254
 30
0.0
 11
59.845413
 21
1.315478
 31
0.0
  0
LINE
  5
B01
330
1F
100
AcDbEntity
  8
1
  6
CONTINUOUS
370
50
 62
4
100
AcDbLine
 10
59.845413
 20
1.315478
 30
0.0
 11
59.88435399999999
 21
1.319561
 31
0.0
  0
LINE
  5
B02
330
1F
100
AcDbEntity
  8
1
  6
CONTINUOUS
370
50
 62
4
100
AcDbLine
 10
59.786137
 20
1.309269
 30
0.0
 11
59.814316
 21
1.312254
 31
0.0
  0
LINE
  5
B03
330
1F
100
AcDbEntity
  8
1
  6
CONTINUOUS
370
50
 62
4
100
AcDbLine
 10
39.315022
 20
-0.252486
 30
0.0
 11
39.333847
 21
-0.250482
 31
0.0
  0
LINE
  5
B04
330
1F
100
AcDbEntity
  8
1
  6
CONTINUOUS
370
50
 62
4
100
AcDbLine
 10
59.73674399999999
 20
1.303911
 30
0.0
 11
59.749405
 21
1.305266
 31
0.0
  0
LINE
  5
B05
330
1F
100
AcDbEntity
  8
1
  6
CONTINUOUS
370
50
 62
4
100
AcDbLine
 10
39.026684
 20
1.462237
 30
0.0
 11
39.048283
 21
1.464566
 31
0.0
  0
LINE
  5
B06
330
1F
100
AcDbEntity
  8
1
  6
CONTINUOUS
370
50
 62
4
100
AcDbLine
 10
59.765182
 20
1.306996
 30
0.0
 11
59.786137
 21
1.309269
 31
0.0
  0
LINE
  5
B07
330
1F
100
AcDbEntity
  8
1
  6
CONTINUOUS
370
50
 62
4
100
AcDbLine
 10
59.749405
 20
1.305266
 30
0.0
 11
59.765182
 21
1.306996
 31
0.0
  0
LINE
  5
B08
330
1F
100
AcDbEntity
  8
1
  6
CONTINUOUS
370
50
 62
4
100
AcDbLine
 10
59.336918
 20
1.451044
 30
0.0
 11
59.67042499999999
 21
1.487871
 31
0.0
  0
LINE
  5
B09
330
1F
100
AcDbEntity
  8
1
  6
CONTINUOUS
370
50
 62
4
100
AcDbLine
 10
42.790035
 20
1.065063
 30
0.0
 11
43.12212
 21
1.103835
 31
0.0
  0
LINE
  5
B0A
330
1F
100
AcDbEntity
  8
1
  6
CONTINUOUS
370
50
 62
4
100
AcDbLine
 10
51.135143
 20
1.445175
 30
0.0
 11
51.485729
 21
1.486179
 31
0.0
  0
LINE
  5
B0B
330
1F
100
AcDbEntity
  8
1
  6
CONTINUOUS
370
50
 62
4
100
AcDbLine
 10
56.759834
 20
-1.479591
 30
0.0
 11
56.97693599999999
 21
-1.453937
 31
0.0
  0
LINE
  5
B0C
330
1F
100
AcDbEntity
  8
1
  6
CONTINUOUS
370
50
 62
4
100
AcDbLine
 10
59.88435399999999
 20
1.319561
 30
0.0
 11
59.923721
 21
1.324218
 31
0.0
  0
LINE
  5
B0D
330
1F
100
AcDbEntity
  8
1
  6
CONTINUOUS
370
50
 62
4
100
AcDbLine
 10
59.19652199999999
 20
1.076121
 30
0.0
 11
59.305706
 21
1.089379
 31
0.0
  0
LINE
  5
B0E
330
1F
100
AcDbEntity
  8
1
  6
CONTINUOUS
370
50
 62
4
100
AcDbLine
 10
39.005955
 20
1.459704
 30
0.0
 11
39.026684
 21
1.462237
 31
0.0
  0
LINE
  5
B0F
330
1F
100
AcDbEntity
  8
1
  6
CONTINUOUS
370
50
 62
4
100
AcDbLine
 10
40.455635
 20
-1.477734
 30
0.0
 11
40.66652699999999
 21
-1.45195
 31
0.0
  0
LINE
  5
B10
330
1F
100
AcDbEntity
  8
1
  6
CONTINUOUS
370
50
 62
4
100
AcDbLine
 10
50.92192499999999
 20
1.060622
 30
0.0
 11
51.23516799999999
 21
1.099163
 31
0.0
  0
LINE
  5
B11
330
1F
100
AcDbEntity
  8
1
  6
CONTINUOUS
370
50
 62
4
100
AcDbLine
 10
48.628792
 20
-1.476603
 30
0.0
 11
48.838497
 21
-1.450587
 31
0.0
  0
LINE
  5
B12
330
1F
100
AcDbEntity
  8
1
  6
CONTINUOUS
370
50
 62
4
100
AcDbLine
 10
39.29623
 20
-0.254834
 30
0.0
 11
39.315022
 21
-0.252486
 31
0.0
  0
LINE
  5
B13
330
1F
100
AcDbEntity
  8
1
  6
CONTINUOUS
370
50
 62
4
100
AcDbLine
 10
54.991226
 20
1.059619
 30
0.0
 11
55.307205
 21
1.099408
 31
0.0
  0
LINE
  5
B14
330
1F
100
AcDbEntity
  8
1
  6
CONTINUOUS
370
50
 62
4
100
AcDbLine
 10
46.826172
 20
1.059047
 30
0.0
 11
47.139805
 21
1.098934
 31
0.0
  0
LINE
  5
B15
330
1F
100
AcDbEntity
  8
1
  6
CONTINUOUS
370
50
 62
4
100
AcDbLine
 10
44.56435
 20
-1.475937
 30
0.0
 11
44.795364
 21
-1.446517
 31
0.0
  0
LINE
  5
B16
330
1F
100
AcDbEntity
  8
1
  6
CONTINUOUS
370
50
 62
4
100
AcDbLine
 10
52.743088
 20
-1.474291
 30
0.0
 11
52.968422
 21
-1.444791
 31
0.0
  0
LINE
  5
B17
330
1F
100
AcDbEntity
  8
1
  6
CONTINUOUS
370
50
 62
4
100
AcDbLine
 10
59.087341
 20
1.061048
 30
0.0
 11
59.19652199999999
 21
1.076121
 31
0.0
  0
LINE
  5
B18
330
1F
100
AcDbEntity
  8
1
  6
CONTINUOUS
370
50
 62
4
100
AcDbLine
 10
38.98613
 20
1.456959
 30
0.0
 11
39.005955
 21
1.459704
 31
0.0
  0
LINE
  5
B19
330
1F
100
AcDbEntity
  8
1
  6
CONTINUOUS
370
50
 62
4
100
AcDbLine
 10
39.26857
 20
-0.258937
 30
0.0
 11
39.29623
 21
-0.254834
 31
0.0
  0
LINE
  5
B1A
330
1F
100
AcDbEntity
  8
1
  6
CONTINUOUS
370
50
 62
4
100
AcDbLine
 10
42.860077
 20
1.426682
 30
0.0
 11
43.107563
 21
1.463914
 31
0.0
  0
LINE
  5
B1B
330
1F
100
AcDbEntity
  8
1
  6
CONTINUOUS
370
50
 62
4
100
AcDbLine
 10
55.103924
 20
1.428177
 30
0.0
 11
55.342384
 21
1.464293
 31
0.0
  0
LINE
  5
B1C
330
1F
100
AcDbEntity
  8
1
  6
CONTINUOUS
370
50
 62
4
100
AcDbLine
 10
58.978157
 20
1.04419
 30
0.0
 11
59.087341
 21
1.061048
 31
0.0
  0
LINE
  5
B1D
330
1F
100
AcDbEntity
  8
1
  6
CONTINUOUS
370
50
 62
4
100
AcDbLine
 10
38.967014
 20
1.453957
 30
0.0
 11
38.98613
 21
1.456959
 31
0.0
  0
LINE
  5
B1E
330
1F
100
AcDbEntity
  8
1
  6
CONTINUOUS
370
50
 62
4
100
AcDbLine
 10
56.97693599999999
 20
-1.453937
 30
0.0
 11
57.195114
 21
-1.418529
 31
0.0
  0
LINE
  5
B1F
330
1F
100
AcDbEntity
  8
1
  6
CONTINUOUS
370
50
 62
4
100
AcDbLine
 10
40.66652699999999
 20
-1.45195
 30
0.0
 11
40.878075
 21
-1.417007
 31
0.0
  0
LINE
  5
B20
330
1F
100
AcDbEntity
  8
1
  6
CONTINUOUS
370
50
 62
4
100
AcDbLine
 10
42.457947
 20
1.009786
 30
0.0
 11
42.790035
 21
1.065063
 31
0.0
  0
LINE
  5
B21
330
1F
100
AcDbEntity
  8
1
  6
CONTINUOUS
370
50
 62
4
100
AcDbLine
 10
48.838497
 20
-1.450587
 30
0.0
 11
49.049267
 21
-1.415458
 31
0.0
  0
LINE
  5
B22
330
1F
100
AcDbEntity
  8
1
  6
CONTINUOUS
370
50
 62
4
100
AcDbLine
 10
59.923721
 20
1.324218
 30
0.0
 11
59.954891
 21
1.329415
 31
0.0
  0
LINE
  5
B23
330
1F
100
AcDbEntity
  8
1
  6
CONTINUOUS
370
50
 62
4
100
AcDbLine
 10
46.843105
 20
1.409291
 30
0.0
 11
47.13361399999999
 21
1.458285
 31
0.0
  0
LINE
  5
B24
330
1F
100
AcDbEntity
  8
1
  6
CONTINUOUS
370
50
 62
4
100
AcDbLine
 10
50.608673
 20
1.00748
 30
0.0
 11
50.92192499999999
 21
1.060622
 31
0.0
  0
LINE
  5
B25
330
1F
100
AcDbEntity
  8
1
  6
CONTINUOUS
370
50
 62
4
100
AcDbLine
 10
58.868973
 20
1.025575
 30
0.0
 11
58.978157
 21
1.04419
 31
0.0
  0
LINE
  5
B26
330
1F
100
AcDbEntity
  8
1
  6
CONTINUOUS
370
50
 62
4
100
AcDbLine
 10
39.241077
 20
-0.263801
 30
0.0
 11
39.26857
 21
-0.258937
 31
0.0
  0
LINE
  5
B27
330
1F
100
AcDbEntity
  8
1
  6
CONTINUOUS
370
50
 62
4
100
AcDbLine
 10
44.795364
 20
-1.446517
 30
0.0
 11
45.005703
 21
-1.409063
 31
0.0
  0
LINE
  5
B28
330
1F
100
AcDbEntity
  8
1
  6
CONTINUOUS
370
50
 62
4
100
AcDbLine
 10
59.000347
 20
1.390877
 30
0.0
 11
59.336918
 21
1.451044
 31
0.0
  0
LINE
  5
B29
330
1F
100
AcDbEntity
  8
1
  6
CONTINUOUS
370
50
 62
4
100
AcDbLine
 10
38.948414
 20
1.450625
 30
0.0
 11
38.967014
 21
1.453957
 31
0.0
  0
LINE
  5
B2A
330
1F
100
AcDbEntity
  8
1
  6
CONTINUOUS
370
50
 62
4
100
AcDbLine
 10
54.675251
 20
1.002825
 30
0.0
 11
54.991226
 21
1.059619
 31
0.0
  0
LINE
  5
B2B
330
1F
100
AcDbEntity
  8
1
  6
CONTINUOUS
370
50
 62
4
100
AcDbLine
 10
46.512539
 20
1.002662
 30
0.0
 11
46.826172
 21
1.059047
 31
0.0
  0
LINE
  5
B2C
330
1F
100
AcDbEntity
  8
1
  6
CONTINUOUS
370
50
 62
4
100
AcDbLine
 10
52.968422
 20
-1.444791
 30
0.0
 11
53.173737
 21
-1.407694
 31
0.0
  0
LINE
  5
B2D
330
1F
100
AcDbEntity
  8
1
  6
CONTINUOUS
370
50
 62
4
100
AcDbLine
 10
58.759789
 20
1.005192
 30
0.0
 11
58.868973
 21
1.025575
 31
0.0
  0
LINE
  5
B2E
330
1F
100
AcDbEntity
  8
1
  6
CONTINUOUS
370
50
 62
4
100
AcDbLine
 10
50.78532
 20
1.379475
 30
0.0
 11
51.135143
 21
1.445175
 31
0.0
  0
LINE
  5
B2F
330
1F
100
AcDbEntity
  8
1
  6
CONTINUOUS
370
50
 62
4
100
AcDbLine
 10
42.613178
 20
1.377345
 30
0.0
 11
42.860077
 21
1.426682
 31
0.0
  0
LINE
  5
B30
330
1F
100
AcDbEntity
  8
1
  6
CONTINUOUS
370
50
 62
4
100
AcDbLine
 10
54.889275
 20
1.384434
 30
0.0
 11
55.103924
 21
1.428177
 31
0.0
  0
LINE
  5
B31
330
1F
100
AcDbEntity
  8
1
  6
CONTINUOUS
370
50
 62
4
100
AcDbLine
 10
57.195114
 20
-1.418529
 30
0.0
 11
57.41284899999999
 21
-1.373778
 31
0.0
  0
LINE
  5
B32
330
1F
100
AcDbEntity
  8
1
  6
CONTINUOUS
370
50
 62
4
100
AcDbLine
 10
38.930489
 20
1.446934
 30
0.0
 11
38.948414
 21
1.450625
 31
0.0
  0
LINE
  5
B33
330
1F
100
AcDbEntity
  8
1
  6
CONTINUOUS
370
50
 62
4
100
AcDbLine
 10
39.213799
 20
-0.269433
 30
0.0
 11
39.241077
 21
-0.263801
 31
0.0
  0
LINE
  5
B34
330
1F
100
AcDbEntity
  8
1
  6
CONTINUOUS
370
50
 62
4
100
AcDbLine
 10
40.878075
 20
-1.417007
 30
0.0
 11
41.090965
 21
-1.372914
 31
0.0
  0
LINE
  5
B35
330
1F
100
AcDbEntity
  8
1
  6
CONTINUOUS
370
50
 62
4
100
AcDbLine
 10
49.049267
 20
-1.415458
 30
0.0
 11
49.259773
 21
-1.371577
 31
0.0
  0
LINE
  5
B36
330
1F
100
AcDbEntity
  8
1
  6
CONTINUOUS
370
50
 62
4
100
AcDbLine
 10
45.005703
 20
-1.409063
 30
0.0
 11
45.197956
 21
-1.366055
 31
0.0
  0
LINE
  5
B37
330
1F
100
AcDbEntity
  8
1
  6
CONTINUOUS
370
50
 62
4
100
AcDbLine
 10
53.173737
 20
-1.407694
 30
0.0
 11
53.361599
 21
-1.365465
 31
0.0
  0
LINE
  5
B38
330
1F
100
AcDbEntity
  8
1
  6
CONTINUOUS
370
50
 62
4
100
AcDbLine
 10
59.435844
 20
-0.127946
 30
0.0
 11
59.99688
 21
-0.000708
 31
0.0
  0
LINE
  5
B39
330
1F
100
AcDbEntity
  8
1
  6
CONTINUOUS
370
50
 62
4
100
AcDbLine
 10
46.55677
 20
1.342424
 30
0.0
 11
46.843105
 21
1.409291
 31
0.0
  0
LINE
  5
B3A
330
1F
100
AcDbEntity
  8
1
  6
CONTINUOUS
370
50
 62
4
100
AcDbLine
 10
39.186783
 20
-0.275838
 30
0.0
 11
39.213799
 21
-0.269433
 31
0.0
  0
LINE
  5
B3B
330
1F
100
AcDbEntity
  8
1
  6
CONTINUOUS
370
50
 62
4
100
AcDbLine
 10
38.913395
 20
1.442854
 30
0.0
 11
38.930489
 21
1.446934
 31
0.0
  0
LINE
  5
B3C
330
1F
100
AcDbEntity
  8
1
  6
CONTINUOUS
370
50
 62
4
100
AcDbLine
 10
58.689178
 20
1.315151
 30
0.0
 11
59.000347
 21
1.390877
 31
0.0
  0
LINE
  5
B3D
330
1F
100
AcDbEntity
  8
1
  6
CONTINUOUS
370
50
 62
4
100
AcDbLine
 10
54.694702
 20
1.336181
 30
0.0
 11
54.889275
 21
1.384434
 31
0.0
  0
LINE
  5
B3E
330
1F
100
AcDbEntity
  8
1
  6
CONTINUOUS
370
50
 62
4
100
AcDbLine
 10
57.41284899999999
 20
-1.373778
 30
0.0
 11
57.629345
 21
-1.319881
 31
0.0
  0
LINE
  5
B3F
330
1F
100
AcDbEntity
  8
1
  6
CONTINUOUS
370
50
 62
4
100
AcDbLine
 10
42.367359
 20
1.31613
 30
0.0
 11
42.613178
 21
1.377345
 31
0.0
  0
LINE
  5
B40
330
1F
100
AcDbEntity
  8
1
  6
CONTINUOUS
370
50
 62
4
100
AcDbLine
 10
41.090965
 20
-1.372914
 30
0.0
 11
41.304417
 21
-1.31972
 31
0.0
  0
LINE
  5
B41
330
1F
100
AcDbEntity
  8
1
  6
CONTINUOUS
370
50
 62
4
100
AcDbLine
 10
49.259773
 20
-1.371577
 30
0.0
 11
49.466881
 21
-1.319758
 31
0.0
  0
LINE
  5
B42
330
1F
100
AcDbEntity
  8
1
  6
CONTINUOUS
370
50
 62
4
100
AcDbLine
 10
50.476299
 20
1.301275
 30
0.0
 11
50.78532
 21
1.379475
 31
0.0
  0
LINE
  5
B43
330
1F
100
AcDbEntity
  8
1
  6
CONTINUOUS
370
50
 62
4
100
AcDbLine
 10
50.4067
 20
-0.000006
 30
0.0
 11
50.406727
 21
0.000001
 31
0.0
  0
LINE
  5
B44
330
1F
100
AcDbEntity
  8
1
  6
CONTINUOUS
370
50
 62
4
100
AcDbLine
 10
53.361599
 20
-1.365465
 30
0.0
 11
53.537792
 21
-1.319602
 31
0.0
  0
LINE
  5
B45
330
1F
100
AcDbEntity
  8
1
  6
CONTINUOUS
370
50
 62
4
100
AcDbLine
 10
45.197956
 20
-1.366055
 30
0.0
 11
45.376163
 21
-1.31955
 31
0.0
  0
LINE
  5
B46
330
1F
100
AcDbEntity
  8
1
  6
CONTINUOUS
370
50
 62
4
100
AcDbLine
 10
32.400002
 20
-2.99995
 30
0.0
 11
38.0
 21
-1.49995
 31
0.0
  0
LINE
  5
B47
330
1F
100
AcDbEntity
  8
1
  6
CONTINUOUS
370
50
 62
4
100
AcDbLine
 10
39.160172
 20
-0.282996
 30
0.0
 11
39.186783
 21
-0.275838
 31
0.0
  0
LINE
  5
B48
330
1F
100
AcDbEntity
  8
1
  6
CONTINUOUS
370
50
 62
4
100
AcDbLine
 10
41.304417
 20
-1.319742
 30
0.0
 11
41.366703
 21
-1.302832
 31
0.0
  0
LINE
  5
B49
330
1F
100
AcDbEntity
  8
1
  6
CONTINUOUS
370
50
 62
4
100
AcDbLine
 10
57.629345
 20
-1.319889
 30
0.0
 11
57.683418
 21
-1.305185
 31
0.0
  0
LINE
  5
B4A
330
1F
100
AcDbEntity
  8
1
  6
CONTINUOUS
370
50
 62
4
100
AcDbLine
 10
49.466881
 20
-1.319795
 30
0.0
 11
49.558281
 21
-1.294893
 31
0.0
  0
LINE
  5
B4B
330
1F
100
AcDbEntity
  8
1
  6
CONTINUOUS
370
50
 62
4
100
AcDbLine
 10
54.052139
 20
-1.178535
 30
0.0
 11
54.127022
 21
-1.158102
 31
0.0
  0
LINE
  5
B4C
330
1F
100
AcDbEntity
  8
1
  6
CONTINUOUS
370
50
 62
4
100
AcDbLine
 10
45.89807099999999
 20
-1.176145
 30
0.0
 11
45.964363
 21
-1.158055
 31
0.0
  0
LINE
  5
B4D
330
1F
100
AcDbEntity
  8
1
  6
CONTINUOUS
370
50
 62
4
100
AcDbLine
 10
53.977062
 20
-1.19904
 30
0.0
 11
54.052139
 21
-1.178535
 31
0.0
  0
LINE
  5
B4E
330
1F
100
AcDbEntity
  8
1
  6
CONTINUOUS
370
50
 62
4
100
AcDbLine
 10
45.830116
 20
-1.194712
 30
0.0
 11
45.89807099999999
 21
-1.176145
 31
0.0
  0
LINE
  5
B4F
330
1F
100
AcDbEntity
  8
1
  6
CONTINUOUS
370
50
 62
4
100
AcDbLine
 10
53.918972
 20
-1.214919
 30
0.0
 11
53.977062
 21
-1.19904
 31
0.0
  0
LINE
  5
B50
330
1F
100
AcDbEntity
  8
1
  6
CONTINUOUS
370
50
 62
4
100
AcDbLine
 10
41.366703
 20
-1.302832
 30
0.0
 11
41.429008
 21
-1.285797
 31
0.0
  0
LINE
  5
B51
330
1F
100
AcDbEntity
  8
1
  6
CONTINUOUS
370
50
 62
4
100
AcDbLine
 10
45.77422
 20
-1.210003
 30
0.0
 11
45.830116
 21
-1.194712
 31
0.0
  0
LINE
  5
B52
330
1F
100
AcDbEntity
  8
1
  6
CONTINUOUS
370
50
 62
4
100
AcDbLine
 10
53.829834
 20
-1.239318
 30
0.0
 11
53.918972
 21
-1.214919
 31
0.0
  0
LINE
  5
B53
330
1F
100
AcDbEntity
  8
1
  6
CONTINUOUS
370
50
 62
4
100
AcDbLine
 10
57.683418
 20
-1.305185
 30
0.0
 11
57.737492
 21
-1.29038
 31
0.0
  0
LINE
  5
B54
330
1F
100
AcDbEntity
  8
1
  6
CONTINUOUS
370
50
 62
4
100
AcDbLine
 10
45.71990599999999
 20
-1.22488
 30
0.0
 11
45.77422
 21
-1.210003
 31
0.0
  0
LINE
  5
B55
330
1F
100
AcDbEntity
  8
1
  6
CONTINUOUS
370
50
 62
4
100
AcDbLine
 10
53.740379
 20
-1.26385
 30
0.0
 11
53.829834
 21
-1.239318
 31
0.0
  0
LINE
  5
B56
330
1F
100
AcDbEntity
  8
1
  6
CONTINUOUS
370
50
 62
4
100
AcDbLine
 10
45.638958
 20
-1.247091
 30
0.0
 11
45.71990599999999
 21
-1.22488
 31
0.0
  0
LINE
  5
B57
330
1F
100
AcDbEntity
  8
1
  6
CONTINUOUS
370
50
 62
4
100
AcDbLine
 10
53.651031
 20
-1.288401
 30
0.0
 11
53.740379
 21
-1.26385
 31
0.0
  0
LINE
  5
B58
330
1F
100
AcDbEntity
  8
1
  6
CONTINUOUS
370
50
 62
4
100
AcDbLine
 10
45.550911
 20
-1.271305
 30
0.0
 11
45.638958
 21
-1.247091
 31
0.0
  0
LINE
  5
B59
330
1F
100
AcDbEntity
  8
1
  6
CONTINUOUS
370
50
 62
4
100
AcDbLine
 10
53.561554
 20
-1.313041
 30
0.0
 11
53.651031
 21
-1.288401
 31
0.0
  0
LINE
  5
B5A
330
1F
100
AcDbEntity
  8
1
  6
CONTINUOUS
370
50
 62
4
100
AcDbLine
 10
49.558281
 20
-1.294893
 30
0.0
 11
49.646423
 21
-1.270617
 31
0.0
  0
LINE
  5
B5B
330
1F
100
AcDbEntity
  8
1
  6
CONTINUOUS
370
50
 62
4
100
AcDbLine
 10
41.429008
 20
-1.285797
 30
0.0
 11
41.508045
 21
-1.264012
 31
0.0
  0
LINE
  5
B5C
330
1F
100
AcDbEntity
  8
1
  6
CONTINUOUS
370
50
 62
4
100
AcDbLine
 10
53.537792
 20
-1.319592
 30
0.0
 11
53.561554
 21
-1.313041
 31
0.0
  0
LINE
  5
B5D
330
1F
100
AcDbEntity
  8
1
  6
CONTINUOUS
370
50
 62
4
100
AcDbLine
 10
45.463497
 20
-1.295405
 30
0.0
 11
45.550911
 21
-1.271305
 31
0.0
  0
LINE
  5
B5E
330
1F
100
AcDbEntity
  8
1
  6
CONTINUOUS
370
50
 62
4
100
AcDbLine
 10
57.737492
 20
-1.29038
 30
0.0
 11
57.791504
 21
-1.275488
 31
0.0
  0
LINE
  5
B5F
330
1F
100
AcDbEntity
  8
1
  6
CONTINUOUS
370
50
 62
4
100
AcDbLine
 10
45.376163
 20
-1.319546
 30
0.0
 11
45.463497
 21
-1.295405
 31
0.0
  0
LINE
  5
B60
330
1F
100
AcDbEntity
  8
1
  6
CONTINUOUS
370
50
 62
4
100
AcDbLine
 10
57.791504
 20
-1.275488
 30
0.0
 11
57.84552
 21
-1.26049
 31
0.0
  0
LINE
  5
B61
330
1F
100
AcDbEntity
  8
1
  6
CONTINUOUS
370
50
 62
4
100
AcDbLine
 10
49.646423
 20
-1.270617
 30
0.0
 11
49.717747
 21
-1.250779
 31
0.0
  0
LINE
  5
B62
330
1F
100
AcDbEntity
  8
1
  6
CONTINUOUS
370
50
 62
4
100
AcDbLine
 10
41.508045
 20
-1.264012
 30
0.0
 11
41.586704
 21
-1.242129
 31
0.0
  0
LINE
  5
B63
330
1F
100
AcDbEntity
  8
1
  6
CONTINUOUS
370
50
 62
4
100
AcDbLine
 10
38.897301
 20
1.438357
 30
0.0
 11
38.913395
 21
1.442854
 31
0.0
  0
LINE
  5
B64
330
1F
100
AcDbEntity
  8
1
  6
CONTINUOUS
370
50
 62
4
100
AcDbLine
 10
57.84552
 20
-1.26049
 30
0.0
 11
57.900291
 21
-1.245171
 31
0.0
  0
LINE
  5
B65
330
1F
100
AcDbEntity
  8
1
  6
CONTINUOUS
370
50
 62
4
100
AcDbLine
 10
49.717747
 20
-1.250779
 30
0.0
 11
49.788982
 21
-1.230788
 31
0.0
  0
LINE
  5
B66
330
1F
100
AcDbEntity
  8
1
  6
CONTINUOUS
370
50
 62
4
100
AcDbLine
 10
41.586704
 20
-1.242129
 30
0.0
 11
41.665379
 21
-1.220037
 31
0.0
  0
LINE
  5
B67
330
1F
100
AcDbEntity
  8
1
  6
CONTINUOUS
370
50
 62
4
100
AcDbLine
 10
57.900291
 20
-1.245171
 30
0.0
 11
57.955048
 21
-1.229746
 31
0.0
  0
LINE
  5
B68
330
1F
100
AcDbEntity
  8
1
  6
CONTINUOUS
370
50
 62
4
100
AcDbLine
 10
54.506866
 20
1.283136
 30
0.0
 11
54.694702
 21
1.336181
 31
0.0
  0
LINE
  5
B69
330
1F
100
AcDbEntity
  8
1
  6
CONTINUOUS
370
50
 62
4
100
AcDbLine
 10
49.788982
 20
-1.230788
 30
0.0
 11
49.862019
 21
-1.210103
 31
0.0
  0
LINE
  5
B6A
330
1F
100
AcDbEntity
  8
1
  6
CONTINUOUS
370
50
 62
4
100
AcDbLine
 10
41.665379
 20
-1.220037
 30
0.0
 11
41.741474
 21
-1.198471
 31
0.0
  0
LINE
  5
B6B
330
1F
100
AcDbEntity
  8
1
  6
CONTINUOUS
370
50
 62
4
100
AcDbLine
 10
57.955048
 20
-1.229746
 30
0.0
 11
58.009716
 21
-1.214232
 31
0.0
  0
LINE
  5
B6C
330
1F
100
AcDbEntity
  8
1
  6
CONTINUOUS
370
50
 62
4
100
AcDbLine
 10
49.862019
 20
-1.210103
 30
0.0
 11
49.922024
 21
-1.192972
 31
0.0
  0
LINE
  5
B6D
330
1F
100
AcDbEntity
  8
1
  6
CONTINUOUS
370
50
 62
4
100
AcDbLine
 10
41.741474
 20
-1.198471
 30
0.0
 11
41.78896
 21
-1.184913
 31
0.0
  0
LINE
  5
B6E
330
1F
100
AcDbEntity
  8
1
  6
CONTINUOUS
370
50
 62
4
100
AcDbLine
 10
58.009716
 20
-1.214232
 30
0.0
 11
58.064468
 21
-1.198579
 31
0.0
  0
LINE
  5
B6F
330
1F
100
AcDbEntity
  8
1
  6
CONTINUOUS
370
50
 62
4
100
AcDbLine
 10
46.262222
 20
1.258021
 30
0.0
 11
46.55677
 21
1.342424
 31
0.0
  0
LINE
  5
B70
330
1F
100
AcDbEntity
  8
1
  6
CONTINUOUS
370
50
 62
4
100
AcDbLine
 10
49.922024
 20
-1.192972
 30
0.0
 11
49.972359
 21
-1.178499
 31
0.0
  0
LINE
  5
B71
330
1F
100
AcDbEntity
  8
1
  6
CONTINUOUS
370
50
 62
4
100
AcDbLine
 10
58.135391
 20
-1.178137
 30
0.0
 11
58.205612
 21
-1.157943
 31
0.0
  0
LINE
  5
B72
330
1F
100
AcDbEntity
  8
1
  6
CONTINUOUS
370
50
 62
4
100
AcDbLine
 10
41.78896
 20
-1.184913
 30
0.0
 11
41.882259
 21
-1.158056
 31
0.0
  0
LINE
  5
B73
330
1F
100
AcDbEntity
  8
1
  6
CONTINUOUS
370
50
 62
4
100
AcDbLine
 10
58.064468
 20
-1.198579
 30
0.0
 11
58.135391
 21
-1.178137
 31
0.0
  0
LINE
  5
B74
330
1F
100
AcDbEntity
  8
1
  6
CONTINUOUS
370
50
 62
4
100
AcDbLine
 10
49.972359
 20
-1.178499
 30
0.0
 11
50.043308
 21
-1.158026
 31
0.0
  0
LINE
  5
B75
330
1F
100
AcDbEntity
  8
1
  6
CONTINUOUS
370
50
 62
4
100
AcDbLine
 10
42.122177
 20
1.242619
 30
0.0
 11
42.367359
 21
1.31613
 31
0.0
  0
LINE
  5
B76
330
1F
100
AcDbEntity
  8
1
  6
CONTINUOUS
370
50
 62
4
100
AcDbLine
 10
39.134258
 20
-0.290828
 30
0.0
 11
39.160172
 21
-0.282996
 31
0.0
  0
LINE
  5
B77
330
1F
100
AcDbEntity
  8
1
  6
CONTINUOUS
370
50
 62
4
100
AcDbLine
 10
58.42297
 20
1.234677
 30
0.0
 11
58.689178
 21
1.315151
 31
0.0
  0
LINE
  5
B78
330
1F
100
AcDbEntity
  8
1
  6
CONTINUOUS
370
50
 62
4
100
AcDbLine
 10
59.954891
 20
1.329415
 30
0.0
 11
59.976723
 21
1.336019
 31
0.0
  0
LINE
  5
B79
330
1F
100
AcDbEntity
  8
1
  6
CONTINUOUS
370
50
 62
4
100
AcDbLine
 10
50.406631
 20
-0.000028
 30
0.0
 11
50.40667699999999
 21
-0.000014
 31
0.0
  0
LINE
  5
B7A
330
1F
100
AcDbEntity
  8
1
  6
CONTINUOUS
370
50
 62
4
100
AcDbLine
 10
50.406727
 20
0.000001
 30
0.0
 11
50.406773
 21
0.000015
 31
0.0
  0
LINE
  5
B7B
330
1F
100
AcDbEntity
  8
1
  6
CONTINUOUS
370
50
 62
4
100
AcDbLine
 10
50.226494
 20
1.223678
 30
0.0
 11
50.476299
 21
1.301275
 31
0.0
  0
LINE
  5
B7C
330
1F
100
AcDbEntity
  8
1
  6
CONTINUOUS
370
50
 62
4
100
AcDbLine
 10
54.31740199999999
 20
1.223677
 30
0.0
 11
54.506866
 21
1.283136
 31
0.0
  0
LINE
  5
B7D
330
1F
100
AcDbEntity
  8
1
  6
CONTINUOUS
370
50
 62
4
100
AcDbLine
 10
38.882362
 20
1.433412
 30
0.0
 11
38.897301
 21
1.438357
 31
0.0
  0
LINE
  5
B7E
330
1F
100
AcDbEntity
  8
1
  6
CONTINUOUS
370
50
 62
4
100
AcDbLine
 10
45.964336
 20
1.158039
 30
0.0
 11
46.262222
 21
1.258021
 31
0.0
  0
LINE
  5
B7F
330
1F
100
AcDbEntity
  8
1
  6
CONTINUOUS
370
50
 62
4
100
AcDbLine
 10
39.109097
 20
-0.29931
 30
0.0
 11
39.134258
 21
-0.290828
 31
0.0
  0
LINE
  5
B80
330
1F
100
AcDbEntity
  8
1
  6
CONTINUOUS
370
50
 62
4
100
AcDbLine
 10
54.127243
 20
1.158131
 30
0.0
 11
54.31740199999999
 21
1.223677
 31
0.0
  0
LINE
  5
B81
330
1F
100
AcDbEntity
  8
1
  6
CONTINUOUS
370
50
 62
4
100
AcDbLine
 10
50.40667699999999
 20
-0.000014
 30
0.0
 11
50.4067
 21
-0.000006
 31
0.0
  0
LINE
  5
B82
330
1F
100
AcDbEntity
  8
1
  6
CONTINUOUS
370
50
 62
4
100
AcDbLine
 10
41.882259
 20
1.158034
 30
0.0
 11
42.122177
 21
1.242619
 31
0.0
  0
LINE
  5
B83
330
1F
100
AcDbEntity
  8
1
  6
CONTINUOUS
370
50
 62
4
100
AcDbLine
 10
58.205566
 20
1.157919
 30
0.0
 11
58.42297
 21
1.234677
 31
0.0
  0
LINE
  5
B84
330
1F
100
AcDbEntity
  8
1
  6
CONTINUOUS
370
50
 62
4
100
AcDbLine
 10
50.0434
 20
1.158056
 30
0.0
 11
50.226494
 21
1.223678
 31
0.0
  0
LINE
  5
B85
330
1F
100
AcDbEntity
  8
1
  6
CONTINUOUS
370
50
 62
4
100
AcDbLine
 10
39.084724
 20
-0.308423
 30
0.0
 11
39.109097
 21
-0.29931
 31
0.0
  0
LINE
  5
B86
330
1F
100
AcDbEntity
  8
1
  6
CONTINUOUS
370
50
 62
4
100
AcDbLine
 10
38.868748
 20
1.427988
 30
0.0
 11
38.882362
 21
1.433412
 31
0.0
  0
LINE
  5
B87
330
1F
100
AcDbEntity
  8
1
  6
CONTINUOUS
370
50
 62
4
100
AcDbLine
 10
39.061176
 20
-0.318149
 30
0.0
 11
39.084724
 21
-0.308423
 31
0.0
  0
LINE
  5
B88
330
1F
100
AcDbEntity
  8
1
  6
CONTINUOUS
370
50
 62
4
100
AcDbLine
 10
39.038494
 20
-0.328469
 30
0.0
 11
39.061176
 21
-0.318149
 31
0.0
  0
LINE
  5
B89
330
1F
100
AcDbEntity
  8
1
  6
CONTINUOUS
370
50
 62
4
100
AcDbLine
 10
38.856647
 20
1.422052
 30
0.0
 11
38.868748
 21
1.427988
 31
0.0
  0
LINE
  5
B8A
330
1F
100
AcDbEntity
  8
1
  6
CONTINUOUS
370
50
 62
4
100
AcDbLine
 10
39.016708
 20
-0.339363
 30
0.0
 11
39.038494
 21
-0.328469
 31
0.0
  0
LINE
  5
B8B
330
1F
100
AcDbEntity
  8
1
  6
CONTINUOUS
370
50
 62
4
100
AcDbLine
 10
38.995857
 20
-0.350813
 30
0.0
 11
39.016708
 21
-0.339363
 31
0.0
  0
LINE
  5
B8C
330
1F
100
AcDbEntity
  8
1
  6
CONTINUOUS
370
50
 62
4
100
AcDbLine
 10
38.975922
 20
-0.362837
 30
0.0
 11
38.995857
 21
-0.350813
 31
0.0
  0
LINE
  5
B8D
330
1F
100
AcDbEntity
  8
1
  6
CONTINUOUS
370
50
 62
4
100
AcDbLine
 10
38.846249
 20
1.415571
 30
0.0
 11
38.856647
 21
1.422052
 31
0.0
  0
LINE
  5
B8E
330
1F
100
AcDbEntity
  8
1
  6
CONTINUOUS
370
50
 62
4
100
AcDbLine
 10
59.976723
 20
1.336019
 30
0.0
 11
59.990936
 21
1.345296
 31
0.0
  0
LINE
  5
B8F
330
1F
100
AcDbEntity
  8
1
  6
CONTINUOUS
370
50
 62
4
100
AcDbLine
 10
38.956547
 20
-0.375707
 30
0.0
 11
38.975922
 21
-0.362837
 31
0.0
  0
LINE
  5
B90
330
1F
100
AcDbEntity
  8
1
  6
CONTINUOUS
370
50
 62
4
100
AcDbLine
 10
38.937813
 20
-0.389484
 30
0.0
 11
38.956547
 21
-0.375707
 31
0.0
  0
LINE
  5
B91
330
1F
100
AcDbEntity
  8
1
  6
CONTINUOUS
370
50
 62
4
100
AcDbLine
 10
38.919888
 20
-0.404169
 30
0.0
 11
38.937813
 21
-0.389484
 31
0.0
  0
LINE
  5
B92
330
1F
100
AcDbEntity
  8
1
  6
CONTINUOUS
370
50
 62
4
100
AcDbLine
 10
38.837734
 20
1.408515
 30
0.0
 11
38.846249
 21
1.415571
 31
0.0
  0
LINE
  5
B93
330
1F
100
AcDbEntity
  8
1
  6
CONTINUOUS
370
50
 62
4
100
AcDbLine
 10
59.823589
 20
-0.22523
 30
0.0
 11
60.0
 21
-0.074697
 31
0.0
  0
LINE
  5
B94
330
1F
100
AcDbEntity
  8
1
  6
CONTINUOUS
370
50
 62
4
100
AcDbLine
 10
38.90295
 20
-0.419766
 30
0.0
 11
38.919888
 21
-0.404169
 31
0.0
  0
LINE
  5
B95
330
1F
100
AcDbEntity
  8
1
  6
CONTINUOUS
370
50
 62
4
100
AcDbLine
 10
38.887169
 20
-0.436277
 30
0.0
 11
38.90295
 21
-0.419766
 31
0.0
  0
LINE
  5
B96
330
1F
100
AcDbEntity
  8
1
  6
CONTINUOUS
370
50
 62
4
100
AcDbLine
 10
59.830265
 20
-0.38073
 30
0.0
 11
59.830349
 21
-0.380631
 31
0.0
  0
LINE
  5
B97
330
1F
100
AcDbEntity
  8
1
  6
CONTINUOUS
370
50
 62
4
100
AcDbLine
 10
38.831375
 20
1.400958
 30
0.0
 11
38.837734
 21
1.408515
 31
0.0
  0
LINE
  5
B98
330
1F
100
AcDbEntity
  8
1
  6
CONTINUOUS
370
50
 62
4
100
AcDbLine
 10
59.82986099999999
 20
-0.381228
 30
0.0
 11
59.829945
 21
-0.381128
 31
0.0
  0
LINE
  5
B99
330
1F
100
AcDbEntity
  8
1
  6
CONTINUOUS
370
50
 62
4
100
AcDbLine
 10
38.87273
 20
-0.453704
 30
0.0
 11
38.887169
 21
-0.436277
 31
0.0
  0
LINE
  5
B9A
330
1F
100
AcDbEntity
  8
1
  6
CONTINUOUS
370
50
 62
4
100
AcDbLine
 10
59.829945
 20
-0.381128
 30
0.0
 11
59.830025
 21
-0.381029
 31
0.0
  0
LINE
  5
B9B
330
1F
100
AcDbEntity
  8
1
  6
CONTINUOUS
370
50
 62
4
100
AcDbLine
 10
59.830105
 20
-0.380929
 30
0.0
 11
59.830185
 21
-0.38083
 31
0.0
  0
LINE
  5
B9C
330
1F
100
AcDbEntity
  8
1
  6
CONTINUOUS
370
50
 62
4
100
AcDbLine
 10
59.830025
 20
-0.381029
 30
0.0
 11
59.830105
 21
-0.380929
 31
0.0
  0
LINE
  5
B9D
330
1F
100
AcDbEntity
  8
1
  6
CONTINUOUS
370
50
 62
4
100
AcDbLine
 10
59.830185
 20
-0.38083
 30
0.0
 11
59.830265
 21
-0.38073
 31
0.0
  0
LINE
  5
B9E
330
1F
100
AcDbEntity
  8
1
  6
CONTINUOUS
370
50
 62
4
100
AcDbLine
 10
38.859825
 20
-0.472029
 30
0.0
 11
38.87273
 21
-0.453704
 31
0.0
  0
LINE
  5
B9F
330
1F
100
AcDbEntity
  8
1
  6
CONTINUOUS
370
50
 62
4
100
AcDbLine
 10
59.990936
 20
1.345296
 30
0.0
 11
60.0
 21
1.359058
 31
0.0
  0
LINE
  5
BA0
330
1F
100
AcDbEntity
  8
1
  6
CONTINUOUS
370
50
 62
4
100
AcDbLine
 10
38.84866
 20
-0.491228
 30
0.0
 11
38.859825
 21
-0.472029
 31
0.0
  0
LINE
  5
BA1
330
1F
100
AcDbEntity
  8
1
  6
CONTINUOUS
370
50
 62
4
100
AcDbLine
 10
38.827297
 20
1.392973
 30
0.0
 11
38.831375
 21
1.400958
 31
0.0
  0
LINE
  5
BA2
330
1F
100
AcDbEntity
  8
1
  6
CONTINUOUS
370
50
 62
4
100
AcDbLine
 10
38.839439
 20
-0.511277
 30
0.0
 11
38.84866
 21
-0.491228
 31
0.0
  0
LINE
  5
BA3
330
1F
100
AcDbEntity
  8
1
  6
CONTINUOUS
370
50
 62
4
100
AcDbLine
 10
59.435844
 20
-0.127946
 30
0.0
 11
59.444561
 21
-0.106944
 31
0.0
  0
LINE
  5
BA4
330
1F
100
AcDbEntity
  8
1
  6
CONTINUOUS
370
50
 62
4
100
AcDbLine
 10
59.444561
 20
-0.106944
 30
0.0
 11
59.452381
 21
-0.085782
 31
0.0
  0
LINE
  5
BA5
330
1F
100
AcDbEntity
  8
1
  6
CONTINUOUS
370
50
 62
4
100
AcDbLine
 10
38.832424
 20
-0.531959
 30
0.0
 11
38.839439
 21
-0.511277
 31
0.0
  0
LINE
  5
BA6
330
1F
100
AcDbEntity
  8
1
  6
CONTINUOUS
370
50
 62
4
100
AcDbLine
 10
59.452381
 20
-0.085782
 30
0.0
 11
59.459213
 21
-0.064735
 31
0.0
  0
LINE
  5
BA7
330
1F
100
AcDbEntity
  8
1
  6
CONTINUOUS
370
50
 62
4
100
AcDbLine
 10
59.459213
 20
-0.064735
 30
0.0
 11
59.46505399999999
 21
-0.043901
 31
0.0
  0
LINE
  5
BA8
330
1F
100
AcDbEntity
  8
1
  6
CONTINUOUS
370
50
 62
4
100
AcDbLine
 10
59.46505399999999
 20
-0.043901
 30
0.0
 11
59.46991
 21
-0.023325
 31
0.0
  0
LINE
  5
BA9
330
1F
100
AcDbEntity
  8
1
  6
CONTINUOUS
370
50
 62
4
100
AcDbLine
 10
38.827812
 20
-0.552908
 30
0.0
 11
38.832424
 21
-0.531959
 31
0.0
  0
LINE
  5
BAA
330
1F
100
AcDbEntity
  8
1
  6
CONTINUOUS
370
50
 62
4
100
AcDbLine
 10
38.825531
 20
1.384557
 30
0.0
 11
38.827297
 21
1.392973
 31
0.0
  0
LINE
  5
BAB
330
1F
100
AcDbEntity
  8
1
  6
CONTINUOUS
370
50
 62
4
100
AcDbLine
 10
59.46991
 20
-0.023325
 30
0.0
 11
59.47380099999999
 21
-0.003053
 31
0.0
  0
LINE
  5
BAC
330
1F
100
AcDbEntity
  8
1
  6
CONTINUOUS
370
50
 62
4
100
AcDbLine
 10
59.47380099999999
 20
-0.003053
 30
0.0
 11
59.476738
 21
0.01687
 31
0.0
  0
LINE
  5
BAD
330
1F
100
AcDbEntity
  8
1
  6
CONTINUOUS
370
50
 62
4
100
AcDbLine
 10
59.477417
 20
0.8242659999999999
 30
0.0
 11
59.479198
 21
0.837391
 31
0.0
  0
LINE
  5
BAE
330
1F
100
AcDbEntity
  8
1
  6
CONTINUOUS
370
50
 62
4
100
AcDbLine
 10
38.825634
 20
-0.574077
 30
0.0
 11
38.827812
 21
-0.552908
 31
0.0
  0
LINE
  5
BAF
330
1F
100
AcDbEntity
  8
1
  6
CONTINUOUS
370
50
 62
4
100
AcDbLine
 10
59.476738
 20
0.01687
 30
0.0
 11
59.478733
 21
0.03633
 31
0.0
  0
LINE
  5
BB0
330
1F
100
AcDbEntity
  8
1
  6
CONTINUOUS
370
50
 62
4
100
AcDbLine
 10
59.478733
 20
0.03633
 30
0.0
 11
59.479805
 21
0.055194
 31
0.0
  0
LINE
  5
BB1
330
1F
100
AcDbEntity
  8
1
  6
CONTINUOUS
370
50
 62
4
100
AcDbLine
 10
59.479198
 20
0.837391
 30
0.0
 11
59.47998
 21
0.851536
 31
0.0
  0
LINE
  5
BB2
330
1F
100
AcDbEntity
  8
1
  6
CONTINUOUS
370
50
 62
4
100
AcDbLine
 10
59.826881
 20
-0.448176
 30
0.0
 11
59.82986099999999
 21
-0.381228
 31
0.0
  0
LINE
  5
BB3
330
1F
100
AcDbEntity
  8
1
  6
CONTINUOUS
370
50
 62
4
100
AcDbLine
 10
59.825207
 20
-0.515351
 30
0.0
 11
59.826881
 21
-0.448176
 31
0.0
  0
LINE
  5
BB4
330
1F
100
AcDbEntity
  8
1
  6
CONTINUOUS
370
50
 62
4
100
AcDbLine
 10
59.479805
 20
0.055194
 30
0.0
 11
59.479992
 21
0.073444
 31
0.0
  0
LINE
  5
BB5
330
1F
100
AcDbEntity
  8
1
  6
CONTINUOUS
370
50
 62
4
100
AcDbLine
 10
59.830349
 20
-0.380631
 30
0.0
 11
59.83052799999999
 21
-0.358099
 31
0.0
  0
LINE
  5
BB6
330
1F
100
AcDbEntity
  8
1
  6
CONTINUOUS
370
50
 62
4
100
AcDbLine
 10
59.824848
 20
-0.582592
 30
0.0
 11
59.825207
 21
-0.515351
 31
0.0
  0
LINE
  5
BB7
330
1F
100
AcDbEntity
  8
1
  6
CONTINUOUS
370
50
 62
4
100
AcDbLine
 10
32.400002
 20
-2.99995
 30
0.0
 11
32.400002
 21
2.99995
 31
0.0
  0
LINE
  5
BB8
330
1F
100
AcDbEntity
  8
1
  6
CONTINUOUS
370
50
 62
4
100
AcDbLine
 10
38.0
 20
-1.49995
 30
0.0
 11
38.0
 21
1.49995
 31
0.0
  0
LINE
  5
BB9
330
1F
100
AcDbEntity
  8
1
  6
CONTINUOUS
370
50
 62
4
100
AcDbLine
 10
40.0
 20
-1.49995
 30
0.0
 11
40.0
 21
1.49995
 31
0.0
  0
LINE
  5
BBA
330
1F
100
AcDbEntity
  8
1
  6
CONTINUOUS
370
50
 62
4
100
AcDbLine
 10
60.0
 20
-1.5
 30
0.0
 11
60.0
 21
0.204204
 31
0.0
  0
LINE
  5
BBB
330
1F
100
AcDbEntity
  8
1
  6
CONTINUOUS
370
50
 62
4
100
AcDbLine
 10
60.0
 20
1.479865
 30
0.0
 11
60.0
 21
1.499999
 31
0.0
  0
LINE
  5
BBC
330
1F
100
AcDbEntity
  8
1
  6
CONTINUOUS
370
50
 62
4
100
AcDbLine
 10
60.0
 20
1.45973
 30
0.0
 11
60.0
 21
1.479865
 31
0.0
  0
LINE
  5
BBD
330
1F
100
AcDbEntity
  8
1
  6
CONTINUOUS
370
50
 62
4
100
AcDbLine
 10
60.0
 20
1.439596
 30
0.0
 11
60.0
 21
1.45973
 31
0.0
  0
LINE
  5
BBE
330
1F
100
AcDbEntity
  8
1
  6
CONTINUOUS
370
50
 62
4
100
AcDbLine
 10
60.0
 20
1.419461
 30
0.0
 11
60.0
 21
1.439596
 31
0.0
  0
LINE
  5
BBF
330
1F
100
AcDbEntity
  8
1
  6
CONTINUOUS
370
50
 62
4
100
AcDbLine
 10
60.0
 20
1.399327
 30
0.0
 11
60.0
 21
1.419461
 31
0.0
  0
LINE
  5
BC0
330
1F
100
AcDbEntity
  8
1
  6
CONTINUOUS
370
50
 62
4
100
AcDbLine
 10
60.0
 20
1.379193
 30
0.0
 11
60.0
 21
1.399327
 31
0.0
  0
LINE
  5
BC1
330
1F
100
AcDbEntity
  8
1
  6
CONTINUOUS
370
50
 62
4
100
AcDbLine
 10
60.0
 20
1.359058
 30
0.0
 11
60.0
 21
1.379193
 31
0.0
  0
LINE
  5
BC2
330
1F
100
AcDbEntity
  8
1
  6
CONTINUOUS
370
50
 62
4
100
AcDbLine
 10
60.0
 20
0.204208
 30
0.0
 11
60.0
 21
1.359058
 31
0.0
  0
ELLIPSE
  5
BC3
330
1F
100
AcDbEntity
  8
1
  6
CONTINUOUS
370
50
 62
4
100
AcDbEllipse
 10
49.897495
 20
-13.786421
 30
0.0
 11
-21.1206049802193
 21
5.735597072839886
 31
0.0
210
0.0
220
0.0
230
1.0
 40
0.5215425430305605
 41
5.335576506743178
 42
5.338235557831363
  0
ELLIPSE
  5
BC4
330
1F
100
AcDbEntity
  8
1
  6
CONTINUOUS
370
50
 62
4
100
AcDbEllipse
 10
49.897495
 20
15.185647
 30
0.0
 11
-20.11475215217615
 21
8.62402364506295
 31
0.0
210
0.0
220
0.0
230
1.0
 40
0.8234035238369466
 41
1.425015121334993
 42
1.427674172437876
  0
ELLIPSE
  5
BC5
330
1F
100
AcDbEntity
  8
1
  6
CONTINUOUS
370
50
 62
4
100
AcDbEllipse
 10
50.144155
 20
-12.878126
 30
0.0
 11
-21.2411280524864
 21
5.768326806725526
 31
0.0
210
0.0
220
0.0
230
1.0
 40
0.5215425476054638
 41
5.345610422873978
 42
5.407552378055728
  0
ELLIPSE
  5
BC6
330
1F
100
AcDbEntity
  8
1
  6
CONTINUOUS
370
50
 62
4
100
AcDbEllipse
 10
50.144155
 20
15.76096
 30
0.0
 11
-20.22953592266241
 21
8.673236180382913
 31
0.0
210
0.0
220
0.0
230
1.0
 40
0.8234035127867779
 41
1.355698307938431
 42
1.417640262460798
  0
ELLIPSE
  5
BC7
330
1F
100
AcDbEntity
  8
1
  6
CONTINUOUS
370
50
 62
4
100
AcDbEllipse
 10
50.267753
 20
16.049239
 30
0.0
 11
-20.1039280417545
 21
8.619382902611413
 31
0.0
210
0.0
220
0.0
230
0.9999999999999998
 40
0.8234035111472613
 41
1.375780080427256
 42
1.407681367685407
  0
ELLIPSE
  5
BC8
330
1F
100
AcDbEntity
  8
1
  6
CONTINUOUS
370
50
 62
4
100
AcDbEllipse
 10
60.066351
 20
0.0
 30
0.0
 11
9.184547653667829E-17
 21
1.5
 31
0.0
210
0.0
220
0.0
230
1.0
 40
0.3249200000000012
 41
2.974633276055468
 42
3.005031445455675
  0
LINE
  5
BC9
330
1F
100
AcDbEntity
  8
CUT
  6
CONTINUOUS
370
25
 62
1
100
AcDbLine
 10
40.0
 20
0.0
 30
0.0
 11
60.0
 21
0.0
 31
0.0
  0
LINE
  5
BCA
330
1F
100
AcDbEntity
  8
CUT
  6
CONTINUOUS
370
25
 62
1
100
AcDbLine
 10
60.0
 20
0.0
 30
0.0
 11
60.0
 21
1.495
 31
0.0
  0
LINE
  5
BCB
330
1F
100
AcDbEntity
  8
CUT
  6
CONTINUOUS
370
25
 62
1
100
AcDbLine
 10
60.0
 20
1.495
 30
0.0
 11
60.0
 21
1.5
 31
0.0
  0
LINE
  5
BCC
330
1F
100
AcDbEntity
  8
CUT
  6
CONTINUOUS
370
25
 62
1
100
AcDbLine
 10
60.0
 20
1.5
 30
0.0
 11
40.0
 21
1.4999
 31
0.0
  0
LINE
  5
BCD
330
1F
100
AcDbEntity
  8
CUT
  6
CONTINUOUS
370
25
 62
1
100
AcDbLine
 10
40.0
 20
1.4999
 30
0.0
 11
40.0
 21
0.0
 31
0.0
  0
LINE
  5
BCE
330
1F
100
AcDbEntity
  8
NOCUT
  6
CONTINUOUS
370
25
 62
7
100
AcDbLine
 10
32.4
 20
0.0
 30
0.0
 11
40.0
 21
0.0
 31
0.0
  0
LINE
  5
BCF
330
1F
100
AcDbEntity
  8
NOCUT
  6
CONTINUOUS
370
25
 62
7
100
AcDbLine
 10
40.0
 20
0.0
 30
0.0
 11
40.0
 21
1.49995
 31
0.0
  0
LINE
  5
BD0
330
1F
100
AcDbEntity
  8
NOCUT
  6
CONTINUOUS
370
25
 62
7
100
AcDbLine
 10
40.0
 20
1.49995
 30
0.0
 11
38.0
 21
1.49995
 31
0.0
  0
LINE
  5
BD1
330
1F
100
AcDbEntity
  8
NOCUT
  6
CONTINUOUS
370
25
 62
7
100
AcDbLine
 10
38.0
 20
1.49995
 30
0.0
 11
32.4
 21
2.99995
 31
0.0
  0
LINE
  5
BD2
330
1F
100
AcDbEntity
  8
NOCUT
  6
CONTINUOUS
370
25
 62
7
100
AcDbLine
 10
32.4
 20
2.99995
 30
0.0
 11
32.4
 21
0.0
 31
0.0
  0
LINE
  5
BD3
330
1F
100
AcDbEntity
  8
SK1
  6
CONTINUOUS
370
50
 62
4
100
AcDbLine
 10
32.4
 20
3.0
 30
0.0
 11
0.3999999999999986
 21
3.0
 31
0.0
  0
LINE
  5
BD4
330
1F
100
AcDbEntity
  8
SK1
  6
CONTINUOUS
370
50
 62
4
100
AcDbLine
 10
0.3999999999999986
 20
3.0
 30
0.0
 11
0.0
 21
2.6
 31
0.0
  0
LINE
  5
BD5
330
1F
100
AcDbEntity
  8
SK1
  6
CONTINUOUS
370
50
 62
4
100
AcDbLine
 10
0.0
 20
2.6
 30
0.0
 11
0.0
 21
-2.6
 31
0.0
  0
LINE
  5
BD6
330
1F
100
AcDbEntity
  8
SK1
  6
CONTINUOUS
370
50
 62
4
100
AcDbLine
 10
0.0
 20
-2.6
 30
0.0
 11
0.3999999999999986
 21
-3.0
 31
0.0
  0
LINE
  5
BD7
330
1F
100
AcDbEntity
  8
SK1
  6
CONTINUOUS
370
50
 62
4
100
AcDbLine
 10
0.3999999999999986
 20
-3.0
 30
0.0
 11
32.4
 21
-3.0
 31
0.0
  0
LINE
  5
BD8
330
1F
100
AcDbEntity
  8
SK1
  6
CONTINUOUS
370
50
 62
4
100
AcDbLine
 10
0.3999999999999986
 20
3.0
 30
0.0
 11
0.3999999999999986
 21
-3.0
 31
0.0
  0
LINE
  5
BD9
330
1F
100
AcDbEntity
  8
SK2
  6
CONTINUOUS
370
25
 62
7
100
AcDbLine
 10
-12.0000002
 20
-3.000001
 30
0.0
 11
-13.00000000000008
 21
-3.000001
 31
0.0
  0
LINE
  5
BDA
330
1F
100
AcDbEntity
  8
SK2
  6
CONTINUOUS
370
25
 62
7
100
AcDbLine
 10
0.0
 20
-3.000001
 30
0.0
 11
-11.9999998
 21
-3.000001
 31
0.0
  0
LINE
  5
BDB
330
1F
100
AcDbEntity
  8
SK2
  6
CONTINUOUS
370
25
 62
7
100
AcDbLine
 10
-13.0
 20
3.0
 30
0.0
 11
0.0
 21
3.0
 31
0.0
  0
LINE
  5
BDC
330
1F
100
AcDbEntity
  8
SK2
  6
CONTINUOUS
370
25
 62
7
100
AcDbLine
 10
-12.0
 20
-10.0
 30
0.0
 11
-12.0
 21
16.475
 31
0.0
  0
LINE
  5
BDD
330
1F
100
AcDbEntity
  8
SK2
  6
CONTINUOUS
370
25
 62
7
100
AcDbLine
 10
-12.0
 20
-3.0
 30
0.0
 11
-11.0
 21
-8.0
 31
0.0
  0
LINE
  5
BDE
330
1F
100
AcDbEntity
  8
SK2
  6
CONTINUOUS
370
25
 62
7
100
AcDbLine
 10
-11.0
 20
-8.0
 30
0.0
 11
-13.0
 21
-8.0
 31
0.0
  0
LINE
  5
BDF
330
1F
100
AcDbEntity
  8
SK2
  6
CONTINUOUS
370
25
 62
7
100
AcDbLine
 10
-13.0
 20
-8.0
 30
0.0
 11
-12.0
 21
-3.0
 31
0.0
  0
LINE
  5
BE0
330
1F
100
AcDbEntity
  8
SK2
  6
CONTINUOUS
370
25
 62
7
100
AcDbLine
 10
-11.23818177180196
 20
-8.0
 30
0.0
 11
-11.039696961967
 21
-7.801515190165034
 31
0.0
  0
LINE
  5
BE1
330
1F
100
AcDbEntity
  8
SK2
  6
CONTINUOUS
370
25
 62
7
100
AcDbLine
 10
-11.6624458405139
 20
-8.0
 30
0.0
 11
-11.11040764008565
 21
-7.44796179957175
 31
0.0
  0
LINE
  5
BE2
330
1F
100
AcDbEntity
  8
SK2
  6
CONTINUOUS
370
25
 62
7
100
AcDbLine
 10
-12.08670990922582
 20
-8.0
 30
0.0
 11
-11.18111831820431
 21
-7.094408408978488
 31
0.0
  0
LINE
  5
BE3
330
1F
100
AcDbEntity
  8
SK2
  6
CONTINUOUS
370
25
 62
7
100
AcDbLine
 10
-12.51097397793776
 20
-8.0
 30
0.0
 11
-11.25182899632296
 21
-6.740855018385204
 31
0.0
  0
LINE
  5
BE4
330
1F
100
AcDbEntity
  8
SK2
  6
CONTINUOUS
370
25
 62
7
100
AcDbLine
 10
-12.93523804664969
 20
-8.0
 30
0.0
 11
-11.32253967444161
 21
-6.387301627791928
 31
0.0
  0
LINE
  5
BE5
330
1F
100
AcDbEntity
  8
SK2
  6
CONTINUOUS
370
25
 62
7
100
AcDbLine
 10
-12.9101244711596
 20
-7.550622355797977
 30
0.0
 11
-11.39325035256028
 21
-6.033748237198658
 31
0.0
  0
LINE
  5
BE6
330
1F
100
AcDbEntity
  8
SK2
  6
CONTINUOUS
370
25
 62
7
100
AcDbLine
 10
-12.80405845398162
 20
-7.020292269908069
 30
0.0
 11
-11.46396103067893
 21
-5.680194846605382
 31
0.0
  0
LINE
  5
BE7
330
1F
100
AcDbEntity
  8
SK2
  6
CONTINUOUS
370
25
 62
7
100
AcDbLine
 10
-12.69799243680363
 20
-6.48996218401814
 30
0.0
 11
-11.53467170879758
 21
-5.326641456012091
 31
0.0
  0
LINE
  5
BE8
330
1F
100
AcDbEntity
  8
SK2
  6
CONTINUOUS
370
25
 62
7
100
AcDbLine
 10
-12.59192641962565
 20
-5.959632098128232
 30
0.0
 11
-11.60538238691623
 21
-4.973088065418814
 31
0.0
  0
LINE
  5
BE9
330
1F
100
AcDbEntity
  8
SK2
  6
CONTINUOUS
370
25
 62
7
100
AcDbLine
 10
-12.48586040244766
 20
-5.42930201223831
 30
0.0
 11
-11.67609306503488
 21
-4.61953467482553
 31
0.0
  0
LINE
  5
BEA
330
1F
100
AcDbEntity
  8
SK2
  6
CONTINUOUS
370
25
 62
7
100
AcDbLine
 10
-12.37979438526968
 20
-4.898971926348402
 30
0.0
 11
-11.74680374315355
 21
-4.265981284232268
 31
0.0
  0
LINE
  5
BEB
330
1F
100
AcDbEntity
  8
SK2
  6
CONTINUOUS
370
25
 62
7
100
AcDbLine
 10
-12.2737283680917
 20
-4.36864184045848
 30
0.0
 11
-11.8175144212722
 21
-3.912427893638984
 31
0.0
  0
LINE
  5
BEC
330
1F
100
AcDbEntity
  8
SK2
  6
CONTINUOUS
370
25
 62
7
100
AcDbLine
 10
-12.16766235091372
 20
-3.838311754568572
 30
0.0
 11
-11.88822509939086
 21
-3.558874503045715
 31
0.0
  0
LINE
  5
BED
330
1F
100
AcDbEntity
  8
SK2
  6
CONTINUOUS
370
25
 62
7
100
AcDbLine
 10
-12.06159633373574
 20
-3.307981668678657
 30
0.0
 11
-11.95893577750951
 21
-3.205321112452431
 31
0.0
  0
LINE
  5
BEE
330
1F
100
AcDbEntity
  8
SK2
  6
CONTINUOUS
370
25
 62
7
100
AcDbLine
 10
-12.93717092135632
 20
-7.685854606781618
 30
0.0
 11
-12.62302552813794
 21
-8.0
 31
0.0
  0
LINE
  5
BEF
330
1F
100
AcDbEntity
  8
SK2
  6
CONTINUOUS
370
25
 62
7
100
AcDbLine
 10
-12.86646024323767
 20
-7.332301216188334
 30
0.0
 11
-12.198761459426
 21
-8.0
 31
0.0
  0
LINE
  5
BF0
330
1F
100
AcDbEntity
  8
SK2
  6
CONTINUOUS
370
25
 62
7
100
AcDbLine
 10
-12.79574956511901
 20
-6.978747825595057
 30
0.0
 11
-11.77449739071407
 21
-8.0
 31
0.0
  0
LINE
  5
BF1
330
1F
100
AcDbEntity
  8
SK2
  6
CONTINUOUS
370
25
 62
7
100
AcDbLine
 10
-12.72503888700036
 20
-6.625194435001774
 30
0.0
 11
-11.35023332200213
 21
-8.0
 31
0.0
  0
LINE
  5
BF2
330
1F
100
AcDbEntity
  8
SK2
  6
CONTINUOUS
370
25
 62
7
100
AcDbLine
 10
-12.65432820888169
 20
-6.271641044408504
 30
0.0
 11
-11.01850768667745
 21
-7.907461566612746
 31
0.0
  0
LINE
  5
BF3
330
1F
100
AcDbEntity
  8
SK2
  6
CONTINUOUS
370
25
 62
7
100
AcDbLine
 10
-12.58361753076304
 20
-5.918087653815228
 30
0.0
 11
-11.12457370385544
 21
-7.377131480722831
 31
0.0
  0
LINE
  5
BF4
330
1F
100
AcDbEntity
  8
SK2
  6
CONTINUOUS
370
25
 62
7
100
AcDbLine
 10
-12.51290685264439
 20
-5.564534263221951
 30
0.0
 11
-11.23063972103342
 21
-6.846801394832923
 31
0.0
  0
LINE
  5
BF5
330
1F
100
AcDbEntity
  8
SK2
  6
CONTINUOUS
370
25
 62
7
100
AcDbLine
 10
-12.44219617452573
 20
-5.210980872628681
 30
0.0
 11
-11.3367057382114
 21
-6.316471308943015
 31
0.0
  0
LINE
  5
BF6
330
1F
100
AcDbEntity
  8
SK2
  6
CONTINUOUS
370
25
 62
7
100
AcDbLine
 10
-12.37148549640708
 20
-4.857427482035398
 30
0.0
 11
-11.44277175538938
 21
-5.7861412230531
 31
0.0
  0
LINE
  5
BF7
330
1F
100
AcDbEntity
  8
SK2
  6
CONTINUOUS
370
25
 62
7
100
AcDbLine
 10
-12.30077481828843
 20
-4.503874091442114
 30
0.0
 11
-11.54883777256737
 21
-5.255811137163178
 31
0.0
  0
LINE
  5
BF8
330
1F
100
AcDbEntity
  8
SK2
  6
CONTINUOUS
370
25
 62
7
100
AcDbLine
 10
-12.23006414016977
 20
-4.150320700848852
 30
0.0
 11
-11.65490378974534
 21
-4.725481051273285
 31
0.0
  0
LINE
  5
BF9
330
1F
100
AcDbEntity
  8
SK2
  6
CONTINUOUS
370
25
 62
7
100
AcDbLine
 10
-12.15935346205112
 20
-3.796767310255575
 30
0.0
 11
-11.76096980692333
 21
-4.195150965383363
 31
0.0
  0
LINE
  5
BFA
330
1F
100
AcDbEntity
  8
SK2
  6
CONTINUOUS
370
25
 62
7
100
AcDbLine
 10
-12.08864278393246
 20
-3.443213919662305
 30
0.0
 11
-11.86703582410131
 21
-3.664820879493455
 31
0.0
  0
LINE
  5
BFB
330
1F
100
AcDbEntity
  8
SK2
  6
CONTINUOUS
370
25
 62
7
100
AcDbLine
 10
-12.01793210581381
 20
-3.089660529069015
 30
0.0
 11
-11.9731018412793
 21
-3.134490793603518
 31
0.0
  0
LINE
  5
BFC
330
1F
100
AcDbEntity
  8
SK2
  6
CONTINUOUS
370
25
 62
7
100
AcDbLine
 10
-12.0
 20
3.0
 30
0.0
 11
-13.0
 21
8.0
 31
0.0
  0
LINE
  5
BFD
330
1F
100
AcDbEntity
  8
SK2
  6
CONTINUOUS
370
25
 62
7
100
AcDbLine
 10
-13.0
 20
8.0
 30
0.0
 11
-11.0
 21
8.0
 31
0.0
  0
LINE
  5
BFE
330
1F
100
AcDbEntity
  8
SK2
  6
CONTINUOUS
370
25
 62
7
100
AcDbLine
 10
-11.0
 20
8.0
 30
0.0
 11
-12.0
 21
3.0
 31
0.0
  0
LINE
  5
BFF
330
1F
100
AcDbEntity
  8
SK2
  6
CONTINUOUS
370
25
 62
7
100
AcDbLine
 10
-12.01959594928933
 20
3.097979746446647
 30
0.0
 11
-11.97060607606601
 21
3.14696961966996
 31
0.0
  0
LINE
  5
C00
330
1F
100
AcDbEntity
  8
SK2
  6
CONTINUOUS
370
25
 62
7
100
AcDbLine
 10
-12.09030662740798
 20
3.451533137039917
 30
0.0
 11
-11.86454005888803
 21
3.677299705559868
 31
0.0
  0
LINE
  5
C01
330
1F
100
AcDbEntity
  8
SK2
  6
CONTINUOUS
370
25
 62
7
100
AcDbLine
 10
-12.16101730552663
 20
3.8050865276332
 30
0.0
 11
-11.75847404171004
 21
4.20762979144979
 31
0.0
  0
LINE
  5
C02
330
1F
100
AcDbEntity
  8
SK2
  6
CONTINUOUS
370
25
 62
7
100
AcDbLine
 10
-12.2317279836453
 20
4.15863991822647
 30
0.0
 11
-11.65240802453206
 21
4.737959877339705
 31
0.0
  0
LINE
  5
C03
330
1F
100
AcDbEntity
  8
SK2
  6
CONTINUOUS
370
25
 62
7
100
AcDbLine
 10
-12.30243866176396
 20
4.512193308819732
 30
0.0
 11
-11.54634200735408
 21
5.268289963229613
 31
0.0
  0
LINE
  5
C04
330
1F
100
AcDbEntity
  8
SK2
  6
CONTINUOUS
370
25
 62
7
100
AcDbLine
 10
-12.37314933988261
 20
4.865746699413016
 30
0.0
 11
-11.44027599017609
 21
5.798620049119535
 31
0.0
  0
LINE
  5
C05
330
1F
100
AcDbEntity
  8
SK2
  6
CONTINUOUS
370
25
 62
7
100
AcDbLine
 10
-12.44386001800127
 20
5.219300090006293
 30
0.0
 11
-11.33420997299811
 21
6.328950135009443
 31
0.0
  0
LINE
  5
C06
330
1F
100
AcDbEntity
  8
SK2
  6
CONTINUOUS
370
25
 62
7
100
AcDbLine
 10
-12.51457069611992
 20
5.572853480599576
 30
0.0
 11
-11.22814395582013
 21
6.859280220899358
 31
0.0
  0
LINE
  5
C07
330
1F
100
AcDbEntity
  8
SK2
  6
CONTINUOUS
370
25
 62
7
100
AcDbLine
 10
-12.58528137423857
 20
5.926406871192853
 30
0.0
 11
-11.12207793864215
 21
7.389610306789272
 31
0.0
  0
LINE
  5
C08
330
1F
100
AcDbEntity
  8
SK2
  6
CONTINUOUS
370
25
 62
7
100
AcDbLine
 10
-12.65599205235723
 20
6.27996026178613
 30
0.0
 11
-11.01601192146416
 21
7.919940392679194
 31
0.0
  0
LINE
  5
C09
330
1F
100
AcDbEntity
  8
SK2
  6
CONTINUOUS
370
25
 62
7
100
AcDbLine
 10
-12.72670273047589
 20
6.633513652379406
 30
0.0
 11
-11.36021638285529
 21
8.0
 31
0.0
  0
LINE
  5
C0A
330
1F
100
AcDbEntity
  8
SK2
  6
CONTINUOUS
370
25
 62
7
100
AcDbLine
 10
-12.79741340859454
 20
6.987067042972676
 30
0.0
 11
-11.78448045156722
 21
8.0
 31
0.0
  0
LINE
  5
C0B
330
1F
100
AcDbEntity
  8
SK2
  6
CONTINUOUS
370
25
 62
7
100
AcDbLine
 10
-12.86812408671319
 20
7.340620433565952
 30
0.0
 11
-12.20874452027915
 21
8.0
 31
0.0
  0
LINE
  5
C0C
330
1F
100
AcDbEntity
  8
SK2
  6
CONTINUOUS
370
25
 62
7
100
AcDbLine
 10
-12.93883476483185
 20
7.694173824159229
 30
0.0
 11
-12.63300858899107
 21
8.0
 31
0.0
  0
LINE
  5
C0D
330
1F
100
AcDbEntity
  8
SK2
  6
CONTINUOUS
370
25
 62
7
100
AcDbLine
 10
-12.04865920569395
 20
3.243296028469757
 30
0.0
 11
-11.96756052953737
 21
3.162197352313179
 31
0.0
  0
LINE
  5
C0E
330
1F
100
AcDbEntity
  8
SK2
  6
CONTINUOUS
370
25
 62
7
100
AcDbLine
 10
-12.15472522287193
 20
3.773626114359672
 30
0.0
 11
-11.89684985141871
 21
3.515750742906455
 31
0.0
  0
LINE
  5
C0F
330
1F
100
AcDbEntity
  8
SK2
  6
CONTINUOUS
370
25
 62
7
100
AcDbLine
 10
-12.26079124004992
 20
4.30395620024958
 30
0.0
 11
-11.82613917330006
 21
3.869304133499725
 31
0.0
  0
LINE
  5
C10
330
1F
100
AcDbEntity
  8
SK2
  6
CONTINUOUS
370
25
 62
7
100
AcDbLine
 10
-12.36685725722791
 20
4.834286286139502
 30
0.0
 11
-11.7554284951814
 21
4.222857524092994
 31
0.0
  0
LINE
  5
C11
330
1F
100
AcDbEntity
  8
SK2
  6
CONTINUOUS
370
25
 62
7
100
AcDbLine
 10
-12.47292327440589
 20
5.36461637202941
 30
0.0
 11
-11.68471781706275
 21
4.576410914686271
 31
0.0
  0
LINE
  5
C12
330
1F
100
AcDbEntity
  8
SK2
  6
CONTINUOUS
370
25
 62
7
100
AcDbLine
 10
-12.57898929158387
 20
5.894946457919318
 30
0.0
 11
-11.6140071389441
 21
4.929964305279547
 31
0.0
  0
LINE
  5
C13
330
1F
100
AcDbEntity
  8
SK2
  6
CONTINUOUS
370
25
 62
7
100
AcDbLine
 10
-12.68505530876185
 20
6.425276543809247
 30
0.0
 11
-11.54329646082543
 21
5.283517695872824
 31
0.0
  0
LINE
  5
C14
330
1F
100
AcDbEntity
  8
SK2
  6
CONTINUOUS
370
25
 62
7
100
AcDbLine
 10
-12.79112132593984
 20
6.955606629699169
 30
0.0
 11
-11.47258578270678
 21
5.637071086466108
 31
0.0
  0
LINE
  5
C15
330
1F
100
AcDbEntity
  8
SK2
  6
CONTINUOUS
370
25
 62
7
100
AcDbLine
 10
-12.89718734311782
 20
7.485936715589077
 30
0.0
 11
-11.40187510458812
 21
5.990624477059377
 31
0.0
  0
LINE
  5
C16
330
1F
100
AcDbEntity
  8
SK2
  6
CONTINUOUS
370
25
 62
7
100
AcDbLine
 10
-12.98698655881681
 20
8.0
 30
0.0
 11
-11.33116442646947
 21
6.344177867652661
 31
0.0
  0
LINE
  5
C17
330
1F
100
AcDbEntity
  8
SK2
  6
CONTINUOUS
370
25
 62
7
100
AcDbLine
 10
-12.56272249010488
 20
8.0
 30
0.0
 11
-11.26045374835082
 21
6.697731258245938
 31
0.0
  0
LINE
  5
C18
330
1F
100
AcDbEntity
  8
SK2
  6
CONTINUOUS
370
25
 62
7
100
AcDbLine
 10
-12.13845842139295
 20
8.0
 30
0.0
 11
-11.18974307023215
 21
7.0512846488392
 31
0.0
  0
LINE
  5
C19
330
1F
100
AcDbEntity
  8
SK2
  6
CONTINUOUS
370
25
 62
7
100
AcDbLine
 10
-11.71419435268103
 20
8.0
 30
0.0
 11
-11.1190323921135
 21
7.404838039432477
 31
0.0
  0
LINE
  5
C1A
330
1F
100
AcDbEntity
  8
SK2
  6
CONTINUOUS
370
25
 62
7
100
AcDbLine
 10
-11.2899302839691
 20
8.0
 30
0.0
 11
-11.04832171399485
 21
7.758391430025746
 31
0.0
  0
TEXT
  5
C1B
330
1F
100
AcDbEntity
  8
SK2
  6
CONTINUOUS
370
25
 62
7
100
AcDbText
 10
-13.5
 20
13.34583333333333
 30
0.0
 40
3.5
  1
6
 50
90.00000000000001
 72
     1
 11
-13.5
 21
14.5125
 31
0.0
100
AcDbText
  0
CIRCLE
  5
C1C
330
1F
100
AcDbEntity
  8
SK2
  6
CONTINUOUS
370
25
 62
7
100
AcDbCircle
 10
-15.25
 20
11.1875
 30
0.0
 40
1.4
  0
LINE
  5
C1D
330
1F
100
AcDbEntity
  8
SK2
  6
CONTINUOUS
370
25
 62
7
100
AcDbLine
 10
-13.85
 20
9.787500000000001
 30
0.0
 11
-16.65
 21
12.5875
 31
0.0
  0
LINE
  5
C1E
330
1F
100
AcDbEntity
  8
SK2
  6
CONTINUOUS
370
25
 62
7
100
AcDbLine
 10
0.0
 20
3.0
 30
0.0
 11
0.0
 21
16.00001
 31
0.0
  0
LINE
  5
C1F
330
1F
100
AcDbEntity
  8
SK2
  6
CONTINUOUS
370
25
 62
7
100
AcDbLine
 10
32.4
 20
16.00001
 30
0.0
 11
32.4
 21
3.0
 31
0.0
  0
LINE
  5
C20
330
1F
100
AcDbEntity
  8
SK2
  6
CONTINUOUS
370
25
 62
7
100
AcDbLine
 10
0.0
 20
15.00001
 30
0.0
 11
32.4
 21
15.00001
 31
0.0
  0
LINE
  5
C21
330
1F
100
AcDbEntity
  8
SK2
  6
CONTINUOUS
370
25
 62
7
100
AcDbLine
 10
0.0
 20
15.00001
 30
0.0
 11
5.0
 21
16.00001
 31
0.0
  0
LINE
  5
C22
330
1F
100
AcDbEntity
  8
SK2
  6
CONTINUOUS
370
25
 62
7
100
AcDbLine
 10
5.0
 20
16.00001
 30
0.0
 11
5.0
 21
14.00001
 31
0.0
  0
LINE
  5
C23
330
1F
100
AcDbEntity
  8
SK2
  6
CONTINUOUS
370
25
 62
7
100
AcDbLine
 10
5.0
 20
14.00001
 30
0.0
 11
0.0
 21
15.00001
 31
0.0
  0
LINE
  5
C24
330
1F
100
AcDbEntity
  8
SK2
  6
CONTINUOUS
370
25
 62
7
100
AcDbLine
 10
4.851776055192516
 20
14.02965478896149
 30
0.0
 11
5.0
 21
14.17787873376898
 31
0.0
  0
LINE
  5
C25
330
1F
100
AcDbEntity
  8
SK2
  6
CONTINUOUS
370
25
 62
7
100
AcDbLine
 10
4.498222664599236
 20
14.10036546708015
 30
0.0
 11
5.0
 21
14.60214280248091
 31
0.0
  0
LINE
  5
C26
330
1F
100
AcDbEntity
  8
SK2
  6
CONTINUOUS
370
25
 62
7
100
AcDbLine
 10
4.14466927400597
 20
14.17107614519881
 30
0.0
 11
5.0
 21
15.02640687119283
 31
0.0
  0
LINE
  5
C27
330
1F
100
AcDbEntity
  8
SK2
  6
CONTINUOUS
370
25
 62
7
100
AcDbLine
 10
3.791115883412694
 20
14.24178682331747
 30
0.0
 11
5.0
 21
15.45067093990477
 31
0.0
  0
LINE
  5
C28
330
1F
100
AcDbEntity
  8
SK2
  6
CONTINUOUS
370
25
 62
7
100
AcDbLine
 10
3.437562492819421
 20
14.31249750143612
 30
0.0
 11
5.0
 21
15.87493500861669
 31
0.0
  0
LINE
  5
C29
330
1F
100
AcDbEntity
  8
SK2
  6
CONTINUOUS
370
25
 62
7
100
AcDbLine
 10
3.08400910222614
 20
14.38320817955477
 30
0.0
 11
4.626013653339214
 21
15.92521273066784
 31
0.0
  0
LINE
  5
C2A
330
1F
100
AcDbEntity
  8
SK2
  6
CONTINUOUS
370
25
 62
7
100
AcDbLine
 10
2.730455711632874
 20
14.45391885767343
 30
0.0
 11
4.095683567449314
 21
15.81914671348986
 31
0.0
  0
LINE
  5
C2B
330
1F
100
AcDbEntity
  8
SK2
  6
CONTINUOUS
370
25
 62
7
100
AcDbLine
 10
2.376902321039587
 20
14.52462953579208
 30
0.0
 11
3.565353481559391
 21
15.71308069631188
 31
0.0
  0
LINE
  5
C2C
330
1F
100
AcDbEntity
  8
SK2
  6
CONTINUOUS
370
25
 62
7
100
AcDbLine
 10
2.023348930446321
 20
14.59534021391073
 30
0.0
 11
3.035023395669491
 21
15.6070146791339
 31
0.0
  0
LINE
  5
C2D
330
1F
100
AcDbEntity
  8
SK2
  6
CONTINUOUS
370
25
 62
7
100
AcDbLine
 10
1.669795539853041
 20
14.66605089202939
 30
0.0
 11
2.504693309779562
 21
15.50094866195591
 31
0.0
  0
LINE
  5
C2E
330
1F
100
AcDbEntity
  8
SK2
  6
CONTINUOUS
370
25
 62
7
100
AcDbLine
 10
1.316242149259772
 20
14.73676157014805
 30
0.0
 11
1.974363223889657
 21
15.39488264477793
 31
0.0
  0
LINE
  5
C2F
330
1F
100
AcDbEntity
  8
SK2
  6
CONTINUOUS
370
25
 62
7
100
AcDbLine
 10
0.9626887586664843
 20
14.8074722482667
 30
0.0
 11
1.444033137999739
 21
15.28881662759995
 31
0.0
  0
LINE
  5
C30
330
1F
100
AcDbEntity
  8
SK2
  6
CONTINUOUS
370
25
 62
7
100
AcDbLine
 10
0.6091353680732183
 20
14.87818292638536
 30
0.0
 11
0.9137030521098346
 21
15.18275061042197
 31
0.0
  0
LINE
  5
C31
330
1F
100
AcDbEntity
  8
SK2
  6
CONTINUOUS
370
25
 62
7
100
AcDbLine
 10
0.2555819774799417
 20
14.94889360450401
 30
0.0
 11
0.383372966219909
 21
15.07668459324398
 31
0.0
  0
LINE
  5
C32
330
1F
100
AcDbEntity
  8
SK2
  6
CONTINUOUS
370
25
 62
7
100
AcDbLine
 10
0.0096624218299581
 20
15.00194248436599
 30
0.0
 11
0.0144936327449443
 21
14.99711127345101
 31
0.0
  0
LINE
  5
C33
330
1F
100
AcDbEntity
  8
SK2
  6
CONTINUOUS
370
25
 62
7
100
AcDbLine
 10
0.3632158124232348
 20
15.07265316248465
 30
0.0
 11
0.5448237186348557
 21
14.89104525627303
 31
0.0
  0
LINE
  5
C34
330
1F
100
AcDbEntity
  8
SK2
  6
CONTINUOUS
370
25
 62
7
100
AcDbLine
 10
0.7167692030165078
 20
15.14336384060331
 30
0.0
 11
1.075153804524771
 21
14.78497923909504
 31
0.0
  0
LINE
  5
C35
330
1F
100
AcDbEntity
  8
SK2
  6
CONTINUOUS
370
25
 62
7
100
AcDbLine
 10
1.070322593609784
 20
15.21407451872196
 30
0.0
 11
1.605483890414682
 21
14.67891322191706
 31
0.0
  0
LINE
  5
C36
330
1F
100
AcDbEntity
  8
SK2
  6
CONTINUOUS
370
25
 62
7
100
AcDbLine
 10
1.423875984203065
 20
15.28478519684061
 30
0.0
 11
2.135813976304593
 21
14.57284720473908
 31
0.0
  0
LINE
  5
C37
330
1F
100
AcDbEntity
  8
SK2
  6
CONTINUOUS
370
25
 62
7
100
AcDbLine
 10
1.777429374796334
 20
15.35549587495927
 30
0.0
 11
2.666144062194505
 21
14.4667811875611
 31
0.0
  0
LINE
  5
C38
330
1F
100
AcDbEntity
  8
SK2
  6
CONTINUOUS
370
25
 62
7
100
AcDbLine
 10
2.130982765389611
 20
15.42620655307792
 30
0.0
 11
3.196474148084413
 21
14.36071517038312
 31
0.0
  0
LINE
  5
C39
330
1F
100
AcDbEntity
  8
SK2
  6
CONTINUOUS
370
25
 62
7
100
AcDbLine
 10
2.484536155982884
 20
15.49691723119658
 30
0.0
 11
3.726804233974324
 21
14.25464915320513
 31
0.0
  0
LINE
  5
C3A
330
1F
100
AcDbEntity
  8
SK2
  6
CONTINUOUS
370
25
 62
7
100
AcDbLine
 10
2.838089546576153
 20
15.56762790931524
 30
0.0
 11
4.257134319864232
 21
14.14858313602715
 31
0.0
  0
LINE
  5
C3B
330
1F
100
AcDbEntity
  8
SK2
  6
CONTINUOUS
370
25
 62
7
100
AcDbLine
 10
3.19164293716943
 20
15.63833858743389
 30
0.0
 11
4.787464405754143
 21
14.04251711884917
 31
0.0
  0
LINE
  5
C3C
330
1F
100
AcDbEntity
  8
SK2
  6
CONTINUOUS
370
25
 62
7
100
AcDbLine
 10
3.545196327762703
 20
15.70904926555254
 30
0.0
 11
5.0
 21
14.25424559331524
 31
0.0
  0
LINE
  5
C3D
330
1F
100
AcDbEntity
  8
SK2
  6
CONTINUOUS
370
25
 62
7
100
AcDbLine
 10
3.89874971835598
 20
15.77975994367119
 30
0.0
 11
5.0
 21
14.67850966202717
 31
0.0
  0
LINE
  5
C3E
330
1F
100
AcDbEntity
  8
SK2
  6
CONTINUOUS
370
25
 62
7
100
AcDbLine
 10
4.252303108949253
 20
15.85047062178985
 30
0.0
 11
5.0
 21
15.1027737307391
 31
0.0
  0
LINE
  5
C3F
330
1F
100
AcDbEntity
  8
SK2
  6
CONTINUOUS
370
25
 62
7
100
AcDbLine
 10
4.605856499542526
 20
15.9211812999085
 30
0.0
 11
5.0
 21
15.52703779945103
 31
0.0
  0
LINE
  5
C40
330
1F
100
AcDbEntity
  8
SK2
  6
CONTINUOUS
370
25
 62
7
100
AcDbLine
 10
4.959409890135799
 20
15.99189197802716
 30
0.0
 11
5.0
 21
15.95130186816296
 31
0.0
  0
LINE
  5
C41
330
1F
100
AcDbEntity
  8
SK2
  6
CONTINUOUS
370
25
 62
7
100
AcDbLine
 10
32.4
 20
15.00001
 30
0.0
 11
27.4
 21
14.00001
 31
0.0
  0
LINE
  5
C42
330
1F
100
AcDbEntity
  8
SK2
  6
CONTINUOUS
370
25
 62
7
100
AcDbLine
 10
27.4
 20
14.00001
 30
0.0
 11
27.4
 21
16.00001
 31
0.0
  0
LINE
  5
C43
330
1F
100
AcDbEntity
  8
SK2
  6
CONTINUOUS
370
25
 62
7
100
AcDbLine
 10
27.4
 20
16.00001
 30
0.0
 11
32.4
 21
15.00001
 31
0.0
  0
LINE
  5
C44
330
1F
100
AcDbEntity
  8
SK2
  6
CONTINUOUS
370
25
 62
7
100
AcDbLine
 10
32.05812940796321
 20
14.93163588159264
 30
0.0
 11
32.17208627197548
 21
15.0455927456049
 31
0.0
  0
LINE
  5
C45
330
1F
100
AcDbEntity
  8
SK2
  6
CONTINUOUS
370
25
 62
7
100
AcDbLine
 10
31.52779932207331
 20
14.82556986441466
 30
0.0
 11
31.8185328813822
 21
15.11630342372356
 31
0.0
  0
LINE
  5
C46
330
1F
100
AcDbEntity
  8
SK2
  6
CONTINUOUS
370
25
 62
7
100
AcDbLine
 10
30.9974692361834
 20
14.71950384723668
 30
0.0
 11
31.46497949078893
 21
15.18701410184221
 31
0.0
  0
LINE
  5
C47
330
1F
100
AcDbEntity
  8
SK2
  6
CONTINUOUS
370
25
 62
7
100
AcDbLine
 10
30.46713915029349
 20
14.6134378300587
 30
0.0
 11
31.11142610019566
 21
15.25772477996087
 31
0.0
  0
LINE
  5
C48
330
1F
100
AcDbEntity
  8
SK2
  6
CONTINUOUS
370
25
 62
7
100
AcDbLine
 10
29.93680906440358
 20
14.50737181288072
 30
0.0
 11
30.75787270960238
 21
15.32843545807952
 31
0.0
  0
LINE
  5
C49
330
1F
100
AcDbEntity
  8
SK2
  6
CONTINUOUS
370
25
 62
7
100
AcDbLine
 10
29.40647897851367
 20
14.40130579570273
 30
0.0
 11
30.40431931900911
 21
15.39914613619818
 31
0.0
  0
LINE
  5
C4A
330
1F
100
AcDbEntity
  8
SK2
  6
CONTINUOUS
370
25
 62
7
100
AcDbLine
 10
28.87614889262376
 20
14.29523977852475
 30
0.0
 11
30.05076592841584
 21
15.46985681431683
 31
0.0
  0
LINE
  5
C4B
330
1F
100
AcDbEntity
  8
SK2
  6
CONTINUOUS
370
25
 62
7
100
AcDbLine
 10
28.34581880673385
 20
14.18917376134677
 30
0.0
 11
29.69721253782257
 21
15.54056749243549
 31
0.0
  0
LINE
  5
C4C
330
1F
100
AcDbEntity
  8
SK2
  6
CONTINUOUS
370
25
 62
7
100
AcDbLine
 10
27.81548872084394
 20
14.08310774416879
 30
0.0
 11
29.34365914722929
 21
15.61127817055414
 31
0.0
  0
LINE
  5
C4D
330
1F
100
AcDbEntity
  8
SK2
  6
CONTINUOUS
370
25
 62
7
100
AcDbLine
 10
27.4
 20
14.09188309203677
 30
0.0
 11
28.99010575663602
 21
15.68198884867279
 31
0.0
  0
LINE
  5
C4E
330
1F
100
AcDbEntity
  8
SK2
  6
CONTINUOUS
370
25
 62
7
100
AcDbLine
 10
27.4
 20
14.5161471607487
 30
0.0
 11
28.63655236604275
 21
15.75269952679145
 31
0.0
  0
LINE
  5
C4F
330
1F
100
AcDbEntity
  8
SK2
  6
CONTINUOUS
370
25
 62
7
100
AcDbLine
 10
27.4
 20
14.94041122946063
 30
0.0
 11
28.28299897544947
 21
15.8234102049101
 31
0.0
  0
LINE
  5
C50
330
1F
100
AcDbEntity
  8
SK2
  6
CONTINUOUS
370
25
 62
7
100
AcDbLine
 10
27.4
 20
15.36467529817256
 30
0.0
 11
27.9294455848562
 21
15.89412088302876
 31
0.0
  0
LINE
  5
C51
330
1F
100
AcDbEntity
  8
SK2
  6
CONTINUOUS
370
25
 62
7
100
AcDbLine
 10
27.4
 20
15.78893936688448
 30
0.0
 11
27.57589219426293
 21
15.96483156114741
 31
0.0
  0
LINE
  5
C52
330
1F
100
AcDbEntity
  8
SK2
  6
CONTINUOUS
370
25
 62
7
100
AcDbLine
 10
27.4
 20
14.3338095116624
 30
0.0
 11
27.67816625971867
 21
14.05564325194373
 31
0.0
  0
LINE
  5
C53
330
1F
100
AcDbEntity
  8
SK2
  6
CONTINUOUS
370
25
 62
7
100
AcDbLine
 10
27.4
 20
14.75807358037433
 30
0.0
 11
28.03171965031194
 21
14.12635393006239
 31
0.0
  0
LINE
  5
C54
330
1F
100
AcDbEntity
  8
SK2
  6
CONTINUOUS
370
25
 62
7
100
AcDbLine
 10
27.4
 20
15.18233764908626
 30
0.0
 11
28.38527304090521
 21
14.19706460818104
 31
0.0
  0
LINE
  5
C55
330
1F
100
AcDbEntity
  8
SK2
  6
CONTINUOUS
370
25
 62
7
100
AcDbLine
 10
27.4
 20
15.60660171779818
 30
0.0
 11
28.73882643149849
 21
14.2677752862997
 31
0.0
  0
LINE
  5
C56
330
1F
100
AcDbEntity
  8
SK2
  6
CONTINUOUS
370
25
 62
7
100
AcDbLine
 10
27.43856973313764
 20
15.99229605337247
 30
0.0
 11
29.09237982209176
 21
14.33848596441835
 31
0.0
  0
LINE
  5
C57
330
1F
100
AcDbEntity
  8
SK2
  6
CONTINUOUS
370
25
 62
7
100
AcDbLine
 10
27.96889981902755
 20
15.88623003619449
 30
0.0
 11
29.44593321268503
 21
14.40919664253701
 31
0.0
  0
LINE
  5
C58
330
1F
100
AcDbEntity
  8
SK2
  6
CONTINUOUS
370
25
 62
7
100
AcDbLine
 10
28.49922990491746
 20
15.78016401901651
 30
0.0
 11
29.79948660327831
 21
14.47990732065566
 31
0.0
  0
LINE
  5
C59
330
1F
100
AcDbEntity
  8
SK2
  6
CONTINUOUS
370
25
 62
7
100
AcDbLine
 10
29.02955999080737
 20
15.67409800183852
 30
0.0
 11
30.15303999387158
 21
14.55061799877432
 31
0.0
  0
LINE
  5
C5A
330
1F
100
AcDbEntity
  8
SK2
  6
CONTINUOUS
370
25
 62
7
100
AcDbLine
 10
29.55989007669728
 20
15.56803198466054
 30
0.0
 11
30.50659338446485
 21
14.62132867689297
 31
0.0
  0
LINE
  5
C5B
330
1F
100
AcDbEntity
  8
SK2
  6
CONTINUOUS
370
25
 62
7
100
AcDbLine
 10
30.09022016258719
 20
15.46196596748256
 30
0.0
 11
30.86014677505813
 21
14.69203935501162
 31
0.0
  0
LINE
  5
C5C
330
1F
100
AcDbEntity
  8
SK2
  6
CONTINUOUS
370
25
 62
7
100
AcDbLine
 10
30.6205502484771
 20
15.35589995030458
 30
0.0
 11
31.2137001656514
 21
14.76275003313028
 31
0.0
  0
LINE
  5
C5D
330
1F
100
AcDbEntity
  8
SK2
  6
CONTINUOUS
370
25
 62
7
100
AcDbLine
 10
31.15088033436701
 20
15.2498339331266
 30
0.0
 11
31.56725355624468
 21
14.83346071124894
 31
0.0
  0
LINE
  5
C5E
330
1F
100
AcDbEntity
  8
SK2
  6
CONTINUOUS
370
25
 62
7
100
AcDbLine
 10
31.68121042025692
 20
15.14376791594862
 30
0.0
 11
31.92080694683795
 21
14.90417138936759
 31
0.0
  0
LINE
  5
C5F
330
1F
100
AcDbEntity
  8
SK2
  6
CONTINUOUS
370
25
 62
7
100
AcDbLine
 10
32.21154050614683
 20
15.03770189877063
 30
0.0
 11
32.27436033743123
 21
14.97488206748625
 31
0.0
  0
TEXT
  5
C60
330
1F
100
AcDbEntity
  8
SK2
  6
CONTINUOUS
370
25
 62
7
100
AcDbText
 10
10.95
 20
16.50001
 30
0.0
 40
3.5
  1
32.4
 72
     1
 11
16.2
 21
16.50001
 31
0.0
100
AcDbText
  0
LINE
  5
C61
330
1F
100
AcDbEntity
  8
2
  6
CONTINUOUS
370
25
 62
7
100
AcDbLine
 10
60.0
 20
-1.5
 30
0.0
 11
73.0
 21
-1.500000000000002
 31
0.0
  0
LINE
  5
C62
330
1F
100
AcDbEntity
  8
2
  6
CONTINUOUS
370
25
 62
7
100
AcDbLine
 10
73.0
 20
1.499999999999998
 30
0.0
 11
60.0
 21
1.5
 31
0.0
  0
LINE
  5
C63
330
1F
100
AcDbEntity
  8
2
  6
CONTINUOUS
370
25
 62
7
100
AcDbLine
 10
72.0
 20
-8.500000000000002
 30
0.0
 11
72.0
 21
14.975
 31
0.0
  0
LINE
  5
C64
330
1F
100
AcDbEntity
  8
2
  6
CONTINUOUS
370
25
 62
7
100
AcDbLine
 10
72.0
 20
-1.500000000000001
 30
0.0
 11
73.0
 21
-6.500000000000002
 31
0.0
  0
LINE
  5
C65
330
1F
100
AcDbEntity
  8
2
  6
CONTINUOUS
370
25
 62
7
100
AcDbLine
 10
73.0
 20
-6.500000000000002
 30
0.0
 11
71.0
 21
-6.500000000000002
 31
0.0
  0
LINE
  5
C66
330
1F
100
AcDbEntity
  8
2
  6
CONTINUOUS
370
25
 62
7
100
AcDbLine
 10
71.0
 20
-6.500000000000002
 30
0.0
 11
72.0
 21
-1.500000000000001
 31
0.0
  0
LINE
  5
C67
330
1F
100
AcDbEntity
  8
2
  6
CONTINUOUS
370
25
 62
7
100
AcDbLine
 10
72.68698655881684
 20
-6.5
 30
0.0
 11
72.94783109313614
 21
-6.239155465680703
 31
0.0
  0
LINE
  5
C68
330
1F
100
AcDbEntity
  8
2
  6
CONTINUOUS
370
25
 62
7
100
AcDbLine
 10
72.26272249010492
 20
-6.5
 30
0.0
 11
72.87712041501749
 21
-5.885602075087434
 31
0.0
  0
LINE
  5
C69
330
1F
100
AcDbEntity
  8
2
  6
CONTINUOUS
370
25
 62
7
100
AcDbLine
 10
71.838458421393
 20
-6.5
 30
0.0
 11
72.80640973689884
 21
-5.53204868449415
 31
0.0
  0
LINE
  5
C6A
330
1F
100
AcDbEntity
  8
2
  6
CONTINUOUS
370
25
 62
7
100
AcDbLine
 10
71.41419435268105
 20
-6.5
 30
0.0
 11
72.73569905878017
 21
-5.178495293900873
 31
0.0
  0
LINE
  5
C6B
330
1F
100
AcDbEntity
  8
2
  6
CONTINUOUS
370
25
 62
7
100
AcDbLine
 10
71.00251742900772
 20
-6.487412854961413
 30
0.0
 11
72.66498838066153
 21
-4.824941903307597
 31
0.0
  0
LINE
  5
C6C
330
1F
100
AcDbEntity
  8
2
  6
CONTINUOUS
370
25
 62
7
100
AcDbLine
 10
71.1085834461857
 20
-5.957082769071484
 30
0.0
 11
72.59427770254285
 21
-4.471388512714327
 31
0.0
  0
LINE
  5
C6D
330
1F
100
AcDbEntity
  8
2
  6
CONTINUOUS
370
25
 62
7
100
AcDbLine
 10
71.21464946336368
 20
-5.426752683181576
 30
0.0
 11
72.52356702442421
 21
-4.117835122121058
 31
0.0
  0
LINE
  5
C6E
330
1F
100
AcDbEntity
  8
2
  6
CONTINUOUS
370
25
 62
7
100
AcDbLine
 10
71.32071548054166
 20
-4.896422597291668
 30
0.0
 11
72.45285634630555
 21
-3.764281731527781
 31
0.0
  0
LINE
  5
C6F
330
1F
100
AcDbEntity
  8
2
  6
CONTINUOUS
370
25
 62
7
100
AcDbLine
 10
71.42678149771965
 20
-4.366092511401753
 30
0.0
 11
72.3821456681869
 21
-3.410728340934497
 31
0.0
  0
LINE
  5
C70
330
1F
100
AcDbEntity
  8
2
  6
CONTINUOUS
370
25
 62
7
100
AcDbLine
 10
71.53284751489764
 20
-3.835762425511831
 30
0.0
 11
72.31143499006825
 21
-3.057174950341221
 31
0.0
  0
LINE
  5
C71
330
1F
100
AcDbEntity
  8
2
  6
CONTINUOUS
370
25
 62
7
100
AcDbLine
 10
71.6389135320756
 20
-3.305432339621923
 30
0.0
 11
72.24072431194959
 21
-2.703621559747944
 31
0.0
  0
LINE
  5
C72
330
1F
100
AcDbEntity
  8
2
  6
CONTINUOUS
370
25
 62
7
100
AcDbLine
 10
71.7449795492536
 20
-2.775102253732008
 30
0.0
 11
72.17001363383093
 21
-2.350068169154675
 31
0.0
  0
LINE
  5
C73
330
1F
100
AcDbEntity
  8
2
  6
CONTINUOUS
370
25
 62
7
100
AcDbLine
 10
71.85104556643158
 20
-2.244772167842093
 30
0.0
 11
72.09930295571228
 21
-1.996514778561398
 31
0.0
  0
LINE
  5
C74
330
1F
100
AcDbEntity
  8
2
  6
CONTINUOUS
370
25
 62
7
100
AcDbLine
 10
71.95711158360956
 20
-1.714442081952186
 30
0.0
 11
72.02859227759362
 21
-1.642961387968121
 31
0.0
  0
LINE
  5
C75
330
1F
100
AcDbEntity
  8
2
  6
CONTINUOUS
370
25
 62
7
100
AcDbLine
 10
71.02401153701776
 20
-6.379942314911197
 30
0.0
 11
71.14406922210657
 21
-6.5
 31
0.0
  0
LINE
  5
C76
330
1F
100
AcDbEntity
  8
2
  6
CONTINUOUS
370
25
 62
7
100
AcDbLine
 10
71.09472221513641
 20
-6.026388924317935
 30
0.0
 11
71.56833329081849
 21
-6.5
 31
0.0
  0
LINE
  5
C77
330
1F
100
AcDbEntity
  8
2
  6
CONTINUOUS
370
25
 62
7
100
AcDbLine
 10
71.16543289325506
 20
-5.672835533724651
 30
0.0
 11
71.99259735953042
 21
-6.5
 31
0.0
  0
LINE
  5
C78
330
1F
100
AcDbEntity
  8
2
  6
CONTINUOUS
370
25
 62
7
100
AcDbLine
 10
71.23614357137372
 20
-5.319282143131375
 30
0.0
 11
72.41686142824236
 21
-6.5
 31
0.0
  0
LINE
  5
C79
330
1F
100
AcDbEntity
  8
2
  6
CONTINUOUS
370
25
 62
7
100
AcDbLine
 10
71.30685424949237
 20
-4.965728752538098
 30
0.0
 11
72.84112549695428
 21
-6.5
 31
0.0
  0
LINE
  5
C7A
330
1F
100
AcDbEntity
  8
2
  6
CONTINUOUS
370
25
 62
7
100
AcDbLine
 10
71.37756492761103
 20
-4.612175361944828
 30
0.0
 11
72.93365260858344
 21
-6.168263042917239
 31
0.0
  0
LINE
  5
C7B
330
1F
100
AcDbEntity
  8
2
  6
CONTINUOUS
370
25
 62
7
100
AcDbLine
 10
71.44827560572969
 20
-4.258621971351552
 30
0.0
 11
72.82758659140546
 21
-5.637932957027324
 31
0.0
  0
LINE
  5
C7C
330
1F
100
AcDbEntity
  8
2
  6
CONTINUOUS
370
25
 62
7
100
AcDbLine
 10
71.51898628384834
 20
-3.905068580758268
 30
0.0
 11
72.72152057422748
 21
-5.107602871137409
 31
0.0
  0
LINE
  5
C7D
330
1F
100
AcDbEntity
  8
2
  6
CONTINUOUS
370
25
 62
7
100
AcDbLine
 10
71.58969696196701
 20
-3.551515190164999
 30
0.0
 11
72.6154545570495
 21
-4.577272785247494
 31
0.0
  0
LINE
  5
C7E
330
1F
100
AcDbEntity
  8
2
  6
CONTINUOUS
370
25
 62
7
100
AcDbLine
 10
71.66040764008565
 20
-3.197961799571722
 30
0.0
 11
72.50938853987151
 21
-4.046942699357572
 31
0.0
  0
LINE
  5
C7F
330
1F
100
AcDbEntity
  8
2
  6
CONTINUOUS
370
25
 62
7
100
AcDbLine
 10
71.73111831820431
 20
-2.844408408978445
 30
0.0
 11
72.40332252269353
 21
-3.516612613467665
 31
0.0
  0
LINE
  5
C80
330
1F
100
AcDbEntity
  8
2
  6
CONTINUOUS
370
25
 62
7
100
AcDbLine
 10
71.80182899632297
 20
-2.490855018385169
 30
0.0
 11
72.29725650551555
 21
-2.98628252757775
 31
0.0
  0
LINE
  5
C81
330
1F
100
AcDbEntity
  8
2
  6
CONTINUOUS
370
25
 62
7
100
AcDbLine
 10
71.87253967444161
 20
-2.137301627791892
 30
0.0
 11
72.19119048833757
 21
-2.455952441687842
 31
0.0
  0
LINE
  5
C82
330
1F
100
AcDbEntity
  8
2
  6
CONTINUOUS
370
25
 62
7
100
AcDbLine
 10
71.94325035256028
 20
-1.783748237198616
 30
0.0
 11
72.08512447115959
 21
-1.92562235579792
 31
0.0
  0
LINE
  5
C83
330
1F
100
AcDbEntity
  8
2
  6
CONTINUOUS
370
25
 62
7
100
AcDbLine
 10
72.0
 20
1.499999999999999
 30
0.0
 11
71.0
 21
6.499999999999998
 31
0.0
  0
LINE
  5
C84
330
1F
100
AcDbEntity
  8
2
  6
CONTINUOUS
370
25
 62
7
100
AcDbLine
 10
71.0
 20
6.499999999999998
 30
0.0
 11
73.0
 21
6.499999999999998
 31
0.0
  0
LINE
  5
C85
330
1F
100
AcDbEntity
  8
2
  6
CONTINUOUS
370
25
 62
7
100
AcDbLine
 10
73.0
 20
6.499999999999998
 30
0.0
 11
72.0
 21
1.499999999999999
 31
0.0
  0
LINE
  5
C86
330
1F
100
AcDbEntity
  8
2
  6
CONTINUOUS
370
25
 62
7
100
AcDbLine
 10
71.9832459544866
 20
1.583770227566966
 30
0.0
 11
72.0251310682701
 21
1.625655341350452
 31
0.0
  0
LINE
  5
C87
330
1F
100
AcDbEntity
  8
2
  6
CONTINUOUS
370
25
 62
7
100
AcDbLine
 10
71.91253527636795
 20
1.937323618160242
 30
0.0
 11
72.13119708544806
 21
2.155985427240367
 31
0.0
  0
LINE
  5
C88
330
1F
100
AcDbEntity
  8
2
  6
CONTINUOUS
370
25
 62
7
100
AcDbLine
 10
71.84182459824929
 20
2.290877008753519
 30
0.0
 11
72.23726310262606
 21
2.686315513130289
 31
0.0
  0
LINE
  5
C89
330
1F
100
AcDbEntity
  8
2
  6
CONTINUOUS
370
25
 62
7
100
AcDbLine
 10
71.77111392013063
 20
2.644430399346795
 30
0.0
 11
72.34332911980404
 21
3.216645599020197
 31
0.0
  0
LINE
  5
C8A
330
1F
100
AcDbEntity
  8
2
  6
CONTINUOUS
370
25
 62
7
100
AcDbLine
 10
71.70040324201199
 20
2.997983789940072
 30
0.0
 11
72.44939513698202
 21
3.746975684910119
 31
0.0
  0
LINE
  5
C8B
330
1F
100
AcDbEntity
  8
2
  6
CONTINUOUS
370
25
 62
7
100
AcDbLine
 10
71.62969256389333
 20
3.351537180533349
 30
0.0
 11
72.55546115416001
 21
4.277305770800027
 31
0.0
  0
LINE
  5
C8C
330
1F
100
AcDbEntity
  8
2
  6
CONTINUOUS
370
25
 62
7
100
AcDbLine
 10
71.55898188577467
 20
3.705090571126625
 30
0.0
 11
72.66152717133798
 21
4.807635856689942
 31
0.0
  0
LINE
  5
C8D
330
1F
100
AcDbEntity
  8
2
  6
CONTINUOUS
370
25
 62
7
100
AcDbLine
 10
71.48827120765603
 20
4.058643961719902
 30
0.0
 11
72.76759318851597
 21
5.337965942579849
 31
0.0
  0
LINE
  5
C8E
330
1F
100
AcDbEntity
  8
2
  6
CONTINUOUS
370
25
 62
7
100
AcDbLine
 10
71.41756052953735
 20
4.412197352313179
 30
0.0
 11
72.87365920569395
 21
5.868296028469771
 31
0.0
  0
LINE
  5
C8F
330
1F
100
AcDbEntity
  8
2
  6
CONTINUOUS
370
25
 62
7
100
AcDbLine
 10
71.34684985141871
 20
4.765750742906462
 30
0.0
 11
72.97972522287193
 21
6.398626114359686
 31
0.0
  0
LINE
  5
C90
330
1F
100
AcDbEntity
  8
2
  6
CONTINUOUS
370
25
 62
7
100
AcDbLine
 10
71.27613917330005
 20
5.119304133499732
 30
0.0
 11
72.65683503980031
 21
6.5
 31
0.0
  0
LINE
  5
C91
330
1F
100
AcDbEntity
  8
2
  6
CONTINUOUS
370
25
 62
7
100
AcDbLine
 10
71.2054284951814
 20
5.472857524093008
 30
0.0
 11
72.23257097108839
 21
6.5
 31
0.0
  0
LINE
  5
C92
330
1F
100
AcDbEntity
  8
2
  6
CONTINUOUS
370
25
 62
7
100
AcDbLine
 10
71.13471781706275
 20
5.826410914686285
 30
0.0
 11
71.80830690237646
 21
6.5
 31
0.0
  0
LINE
  5
C93
330
1F
100
AcDbEntity
  8
2
  6
CONTINUOUS
370
25
 62
7
100
AcDbLine
 10
71.06400713894408
 20
6.179964305279562
 30
0.0
 11
71.38404283366452
 21
6.5
 31
0.0
  0
LINE
  5
C94
330
1F
100
AcDbEntity
  8
2
  6
CONTINUOUS
370
25
 62
7
100
AcDbLine
 10
71.98659633373573
 20
1.567018331321329
 30
0.0
 11
72.0089357775095
 21
1.544678887547555
 31
0.0
  0
LINE
  5
C95
330
1F
100
AcDbEntity
  8
2
  6
CONTINUOUS
370
25
 62
7
100
AcDbLine
 10
71.88053031655775
 20
2.097348417211236
 30
0.0
 11
72.07964645562816
 21
1.898232278140824
 31
0.0
  0
LINE
  5
C96
330
1F
100
AcDbEntity
  8
2
  6
CONTINUOUS
370
25
 62
7
100
AcDbLine
 10
71.77446429937977
 20
2.627678503101144
 30
0.0
 11
72.15035713374681
 21
2.251785668734101
 31
0.0
  0
LINE
  5
C97
330
1F
100
AcDbEntity
  8
2
  6
CONTINUOUS
370
25
 62
7
100
AcDbLine
 10
71.66839828220179
 20
3.158008588991059
 30
0.0
 11
72.22106781186547
 21
2.605339059327385
 31
0.0
  0
LINE
  5
C98
330
1F
100
AcDbEntity
  8
2
  6
CONTINUOUS
370
25
 62
7
100
AcDbLine
 10
71.5623322650238
 20
3.688338674880981
 30
0.0
 11
72.29177848998413
 21
2.958892449920661
 31
0.0
  0
LINE
  5
C99
330
1F
100
AcDbEntity
  8
2
  6
CONTINUOUS
370
25
 62
7
100
AcDbLine
 10
71.45626624784583
 20
4.218668760770882
 30
0.0
 11
72.36248916810278
 21
3.312445840513931
 31
0.0
  0
LINE
  5
C9A
330
1F
100
AcDbEntity
  8
2
  6
CONTINUOUS
370
25
 62
7
100
AcDbLine
 10
71.35020023066784
 20
4.748998846660811
 30
0.0
 11
72.43319984622144
 21
3.665999231107207
 31
0.0
  0
LINE
  5
C9B
330
1F
100
AcDbEntity
  8
2
  6
CONTINUOUS
370
25
 62
7
100
AcDbLine
 10
71.24413421348986
 20
5.279328932550712
 30
0.0
 11
72.50391052434009
 21
4.019552621700477
 31
0.0
  0
LINE
  5
C9C
330
1F
100
AcDbEntity
  8
2
  6
CONTINUOUS
370
25
 62
7
100
AcDbLine
 10
71.13806819631188
 20
5.809659018440627
 30
0.0
 11
72.57462120245876
 21
4.373106012293754
 31
0.0
  0
LINE
  5
C9D
330
1F
100
AcDbEntity
  8
2
  6
CONTINUOUS
370
25
 62
7
100
AcDbLine
 10
71.03200217913388
 20
6.339989104330542
 30
0.0
 11
72.6453318805774
 21
4.72665940288703
 31
0.0
  0
LINE
  5
C9E
330
1F
100
AcDbEntity
  8
2
  6
CONTINUOUS
370
25
 62
7
100
AcDbLine
 10
71.29625535217636
 20
6.5
 30
0.0
 11
72.71604255869607
 21
5.080212793480307
 31
0.0
  0
LINE
  5
C9F
330
1F
100
AcDbEntity
  8
2
  6
CONTINUOUS
370
25
 62
7
100
AcDbLine
 10
71.7205194208883
 20
6.5
 30
0.0
 11
72.78675323681472
 21
5.433766184073583
 31
0.0
  0
LINE
  5
CA0
330
1F
100
AcDbEntity
  8
2
  6
CONTINUOUS
370
25
 62
7
100
AcDbLine
 10
72.14478348960023
 20
6.5
 30
0.0
 11
72.85746391493336
 21
5.787319574666867
 31
0.0
  0
LINE
  5
CA1
330
1F
100
AcDbEntity
  8
2
  6
CONTINUOUS
370
25
 62
7
100
AcDbLine
 10
72.56904755831216
 20
6.5
 30
0.0
 11
72.92817459305203
 21
6.140872965260137
 31
0.0
  0
LINE
  5
CA2
330
1F
100
AcDbEntity
  8
2
  6
CONTINUOUS
370
25
 62
7
100
AcDbLine
 10
72.9933116270241
 20
6.5
 30
0.0
 11
72.99888527117068
 21
6.494426355853413
 31
0.0
  0
TEXT
  5
CA3
330
1F
100
AcDbEntity
  8
2
  6
CONTINUOUS
370
25
 62
7
100
AcDbText
 10
70.5
 20
11.84583333333333
 30
0.0
 40
3.5
  1
3
 50
90.00000000000001
 72
     1
 11
70.5
 21
13.0125
 31
0.0
100
AcDbText
  0
CIRCLE
  5
CA4
330
1F
100
AcDbEntity
  8
2
  6
CONTINUOUS
370
25
 62
7
100
AcDbCircle
 10
68.75
 20
9.687499999999998
 30
0.0
 40
1.4
  0
LINE
  5
CA5
330
1F
100
AcDbEntity
  8
2
  6
CONTINUOUS
370
25
 62
7
100
AcDbLine
 10
70.15
 20
8.2875
 30
0.0
 11
67.35
 21
11.0875
 31
0.0
  0
LINE
  5
CA6
330
1F
100
AcDbEntity
  8
2
  6
CONTINUOUS
370
25
 62
7
100
AcDbLine
 10
40.0
 20
-1.5
 30
0.0
 11
40.0
 21
-14.5
 31
0.0
  0
LINE
  5
CA7
330
1F
100
AcDbEntity
  8
2
  6
CONTINUOUS
370
25
 62
7
100
AcDbLine
 10
60.0
 20
-14.5
 30
0.0
 11
60.0
 21
-1.5
 31
0.0
  0
LINE
  5
CA8
330
1F
100
AcDbEntity
  8
2
  6
CONTINUOUS
370
25
 62
7
100
AcDbLine
 10
40.0
 20
-13.5
 30
0.0
 11
60.0
 21
-13.5
 31
0.0
  0
LINE
  5
CA9
330
1F
100
AcDbEntity
  8
2
  6
CONTINUOUS
370
25
 62
7
100
AcDbLine
 10
40.0
 20
-13.5
 30
0.0
 11
45.0
 21
-12.5
 31
0.0
  0
LINE
  5
CAA
330
1F
100
AcDbEntity
  8
2
  6
CONTINUOUS
370
25
 62
7
100
AcDbLine
 10
45.0
 20
-12.5
 30
0.0
 11
45.0
 21
-14.5
 31
0.0
  0
LINE
  5
CAB
330
1F
100
AcDbEntity
  8
2
  6
CONTINUOUS
370
25
 62
7
100
AcDbLine
 10
45.0
 20
-14.5
 30
0.0
 11
40.0
 21
-13.5
 31
0.0
  0
LINE
  5
CAC
330
1F
100
AcDbEntity
  8
2
  6
CONTINUOUS
370
25
 62
7
100
AcDbLine
 10
44.68949815689788
 20
-14.43789963137958
 30
0.0
 11
45.0
 21
-14.12739778827747
 31
0.0
  0
LINE
  5
CAD
330
1F
100
AcDbEntity
  8
2
  6
CONTINUOUS
370
25
 62
7
100
AcDbLine
 10
44.33594476630461
 20
-14.36718895326092
 30
0.0
 11
45.0
 21
-13.70313371956554
 31
0.0
  0
LINE
  5
CAE
330
1F
100
AcDbEntity
  8
2
  6
CONTINUOUS
370
25
 62
7
100
AcDbLine
 10
43.98239137571134
 20
-14.29647827514227
 30
0.0
 11
45.0
 21
-13.27886965085361
 31
0.0
  0
LINE
  5
CAF
330
1F
100
AcDbEntity
  8
2
  6
CONTINUOUS
370
25
 62
7
100
AcDbLine
 10
43.62883798511807
 20
-14.22576759702362
 30
0.0
 11
45.0
 21
-12.85460558214168
 31
0.0
  0
LINE
  5
CB0
330
1F
100
AcDbEntity
  8
2
  6
CONTINUOUS
370
25
 62
7
100
AcDbLine
 10
43.27528459452479
 20
-14.15505691890496
 30
0.0
 11
44.91292689178719
 21
-12.51741462164256
 31
0.0
  0
LINE
  5
CB1
330
1F
100
AcDbEntity
  8
2
  6
CONTINUOUS
370
25
 62
7
100
AcDbLine
 10
42.92173120393151
 20
-14.0843462407863
 30
0.0
 11
44.38259680589728
 21
-12.62348063882054
 31
0.0
  0
LINE
  5
CB2
330
1F
100
AcDbEntity
  8
2
  6
CONTINUOUS
370
25
 62
7
100
AcDbLine
 10
42.56817781333825
 20
-14.01363556266765
 30
0.0
 11
43.85226672000737
 21
-12.72954665599852
 31
0.0
  0
LINE
  5
CB3
330
1F
100
AcDbEntity
  8
2
  6
CONTINUOUS
370
25
 62
7
100
AcDbLine
 10
42.21462442274498
 20
-13.942924884549
 30
0.0
 11
43.32193663411746
 21
-12.83561267317651
 31
0.0
  0
LINE
  5
CB4
330
1F
100
AcDbEntity
  8
2
  6
CONTINUOUS
370
25
 62
7
100
AcDbLine
 10
41.8610710321517
 20
-13.87221420643034
 30
0.0
 11
42.79160654822755
 21
-12.94167869035449
 31
0.0
  0
LINE
  5
CB5
330
1F
100
AcDbEntity
  8
2
  6
CONTINUOUS
370
25
 62
7
100
AcDbLine
 10
41.50751764155842
 20
-13.80150352831169
 30
0.0
 11
42.26127646233764
 21
-13.04774470753247
 31
0.0
  0
LINE
  5
CB6
330
1F
100
AcDbEntity
  8
2
  6
CONTINUOUS
370
25
 62
7
100
AcDbLine
 10
41.15396425096515
 20
-13.73079285019303
 30
0.0
 11
41.73094637644773
 21
-13.15381072471045
 31
0.0
  0
LINE
  5
CB7
330
1F
100
AcDbEntity
  8
2
  6
CONTINUOUS
370
25
 62
7
100
AcDbLine
 10
40.80041086037188
 20
-13.66008217207438
 30
0.0
 11
41.20061629055782
 21
-13.25987674188844
 31
0.0
  0
LINE
  5
CB8
330
1F
100
AcDbEntity
  8
2
  6
CONTINUOUS
370
25
 62
7
100
AcDbLine
 10
40.44685746977861
 20
-13.58937149395572
 30
0.0
 11
40.67028620466791
 21
-13.36594275906642
 31
0.0
  0
LINE
  5
CB9
330
1F
100
AcDbEntity
  8
2
  6
CONTINUOUS
370
25
 62
7
100
AcDbLine
 10
40.09330407918533
 20
-13.51866081583707
 30
0.0
 11
40.139956118778
 21
-13.4720087762444
 31
0.0
  0
LINE
  5
CBA
330
1F
100
AcDbEntity
  8
2
  6
CONTINUOUS
370
25
 62
7
100
AcDbLine
 10
40.04704587581149
 20
-13.4905908248377
 30
0.0
 11
40.07056881371724
 21
-13.51411376274345
 31
0.0
  0
LINE
  5
CBB
330
1F
100
AcDbEntity
  8
2
  6
CONTINUOUS
370
25
 62
7
100
AcDbLine
 10
40.40059926640477
 20
-13.41988014671904
 30
0.0
 11
40.60089889960715
 21
-13.62017977992143
 31
0.0
  0
LINE
  5
CBC
330
1F
100
AcDbEntity
  8
2
  6
CONTINUOUS
370
25
 62
7
100
AcDbLine
 10
40.75415265699804
 20
-13.34916946860039
 30
0.0
 11
41.13122898549706
 21
-13.72624579709941
 31
0.0
  0
LINE
  5
CBD
330
1F
100
AcDbEntity
  8
2
  6
CONTINUOUS
370
25
 62
7
100
AcDbLine
 10
41.10770604759131
 20
-13.27845879048174
 30
0.0
 11
41.66155907138698
 21
-13.8323118142774
 31
0.0
  0
LINE
  5
CBE
330
1F
100
AcDbEntity
  8
2
  6
CONTINUOUS
370
25
 62
7
100
AcDbLine
 10
41.46125943818458
 20
-13.20774811236308
 30
0.0
 11
42.19188915727688
 21
-13.93837783145538
 31
0.0
  0
LINE
  5
CBF
330
1F
100
AcDbEntity
  8
2
  6
CONTINUOUS
370
25
 62
7
100
AcDbLine
 10
41.81481282877786
 20
-13.13703743424443
 30
0.0
 11
42.72221924316679
 21
-14.04444384863336
 31
0.0
  0
LINE
  5
CC0
330
1F
100
AcDbEntity
  8
2
  6
CONTINUOUS
370
25
 62
7
100
AcDbLine
 10
42.16836621937113
 20
-13.06632675612577
 30
0.0
 11
43.2525493290567
 21
-14.15050986581134
 31
0.0
  0
LINE
  5
CC1
330
1F
100
AcDbEntity
  8
2
  6
CONTINUOUS
370
25
 62
7
100
AcDbLine
 10
42.52191960996441
 20
-12.99561607800712
 30
0.0
 11
43.78287941494661
 21
-14.25657588298932
 31
0.0
  0
LINE
  5
CC2
330
1F
100
AcDbEntity
  8
2
  6
CONTINUOUS
370
25
 62
7
100
AcDbLine
 10
42.87547300055768
 20
-12.92490539988846
 30
0.0
 11
44.31320950083652
 21
-14.36264190016731
 31
0.0
  0
LINE
  5
CC3
330
1F
100
AcDbEntity
  8
2
  6
CONTINUOUS
370
25
 62
7
100
AcDbLine
 10
43.22902639115095
 20
-12.85419472176981
 30
0.0
 11
44.84353958672643
 21
-14.46870791734529
 31
0.0
  0
LINE
  5
CC4
330
1F
100
AcDbEntity
  8
2
  6
CONTINUOUS
370
25
 62
7
100
AcDbLine
 10
43.58257978174422
 20
-12.78348404365115
 30
0.0
 11
45.0
 21
-14.20090426190692
 31
0.0
  0
LINE
  5
CC5
330
1F
100
AcDbEntity
  8
2
  6
CONTINUOUS
370
25
 62
7
100
AcDbLine
 10
43.9361331723375
 20
-12.7127733655325
 30
0.0
 11
45.0
 21
-13.776640193195
 31
0.0
  0
LINE
  5
CC6
330
1F
100
AcDbEntity
  8
2
  6
CONTINUOUS
370
25
 62
7
100
AcDbLine
 10
44.28968656293077
 20
-12.64206268741384
 30
0.0
 11
45.0
 21
-13.35237612448307
 31
0.0
  0
LINE
  5
CC7
330
1F
100
AcDbEntity
  8
2
  6
CONTINUOUS
370
25
 62
7
100
AcDbLine
 10
44.64323995352404
 20
-12.57135200929519
 30
0.0
 11
45.0
 21
-12.92811205577114
 31
0.0
  0
LINE
  5
CC8
330
1F
100
AcDbEntity
  8
2
  6
CONTINUOUS
370
25
 62
7
100
AcDbLine
 10
44.99679334411732
 20
-12.50064133117653
 30
0.0
 11
45.0
 21
-12.50384798705921
 31
0.0
  0
LINE
  5
CC9
330
1F
100
AcDbEntity
  8
2
  6
CONTINUOUS
370
25
 62
7
100
AcDbLine
 10
60.0
 20
-13.5
 30
0.0
 11
55.0
 21
-14.5
 31
0.0
  0
LINE
  5
CCA
330
1F
100
AcDbEntity
  8
2
  6
CONTINUOUS
370
25
 62
7
100
AcDbLine
 10
55.0
 20
-14.5
 30
0.0
 11
55.0
 21
-12.5
 31
0.0
  0
LINE
  5
CCB
330
1F
100
AcDbEntity
  8
2
  6
CONTINUOUS
370
25
 62
7
100
AcDbLine
 10
55.0
 20
-12.5
 30
0.0
 11
60.0
 21
-13.5
 31
0.0
  0
LINE
  5
CCC
330
1F
100
AcDbEntity
  8
2
  6
CONTINUOUS
370
25
 62
7
100
AcDbLine
 10
59.91203405742016
 20
-13.51759318851597
 30
0.0
 11
59.94135603828011
 21
-13.48827120765602
 31
0.0
  0
LINE
  5
CCD
330
1F
100
AcDbEntity
  8
2
  6
CONTINUOUS
370
25
 62
7
100
AcDbLine
 10
59.38170397153026
 20
-13.62365920569395
 30
0.0
 11
59.58780264768684
 21
-13.41756052953737
 31
0.0
  0
LINE
  5
CCE
330
1F
100
AcDbEntity
  8
2
  6
CONTINUOUS
370
25
 62
7
100
AcDbLine
 10
58.85137388564034
 20
-13.72972522287193
 30
0.0
 11
59.23424925709355
 21
-13.34684985141871
 31
0.0
  0
LINE
  5
CCF
330
1F
100
AcDbEntity
  8
2
  6
CONTINUOUS
370
25
 62
7
100
AcDbLine
 10
58.32104379975043
 20
-13.83579124004991
 30
0.0
 11
58.88069586650029
 21
-13.27613917330006
 31
0.0
  0
LINE
  5
CD0
330
1F
100
AcDbEntity
  8
2
  6
CONTINUOUS
370
25
 62
7
100
AcDbLine
 10
57.79071371386051
 20
-13.9418572572279
 30
0.0
 11
58.52714247590701
 21
-13.2054284951814
 31
0.0
  0
LINE
  5
CD1
330
1F
100
AcDbEntity
  8
2
  6
CONTINUOUS
370
25
 62
7
100
AcDbLine
 10
57.26038362797061
 20
-14.04792327440588
 30
0.0
 11
58.17358908531374
 21
-13.13471781706275
 31
0.0
  0
LINE
  5
CD2
330
1F
100
AcDbEntity
  8
2
  6
CONTINUOUS
370
25
 62
7
100
AcDbLine
 10
56.7300535420807
 20
-14.15398929158386
 30
0.0
 11
57.82003569472047
 21
-13.06400713894409
 31
0.0
  0
LINE
  5
CD3
330
1F
100
AcDbEntity
  8
2
  6
CONTINUOUS
370
25
 62
7
100
AcDbLine
 10
56.1997234561908
 20
-14.26005530876184
 30
0.0
 11
57.4664823041272
 21
-12.99329646082544
 31
0.0
  0
LINE
  5
CD4
330
1F
100
AcDbEntity
  8
2
  6
CONTINUOUS
370
25
 62
7
100
AcDbLine
 10
55.66939337030088
 20
-14.36612132593983
 30
0.0
 11
57.11292891353392
 21
-12.92258578270678
 31
0.0
  0
LINE
  5
CD5
330
1F
100
AcDbEntity
  8
2
  6
CONTINUOUS
370
25
 62
7
100
AcDbLine
 10
55.13906328441098
 20
-14.47218734311781
 30
0.0
 11
56.75937552294065
 21
-12.85187510458813
 31
0.0
  0
LINE
  5
CD6
330
1F
100
AcDbEntity
  8
2
  6
CONTINUOUS
370
25
 62
7
100
AcDbLine
 10
55.0
 20
-14.18698655881685
 30
0.0
 11
56.40582213234737
 21
-12.78116442646947
 31
0.0
  0
LINE
  5
CD7
330
1F
100
AcDbEntity
  8
2
  6
CONTINUOUS
370
25
 62
7
100
AcDbLine
 10
55.0
 20
-13.76272249010493
 30
0.0
 11
56.05226874175411
 21
-12.71045374835082
 31
0.0
  0
LINE
  5
CD8
330
1F
100
AcDbEntity
  8
2
  6
CONTINUOUS
370
25
 62
7
100
AcDbLine
 10
55.0
 20
-13.338458421393
 30
0.0
 11
55.69871535116083
 21
-12.63974307023216
 31
0.0
  0
LINE
  5
CD9
330
1F
100
AcDbEntity
  8
2
  6
CONTINUOUS
370
25
 62
7
100
AcDbLine
 10
55.0
 20
-12.91419435268108
 30
0.0
 11
55.34516196056756
 21
-12.56903239211351
 31
0.0
  0
LINE
  5
CDA
330
1F
100
AcDbEntity
  8
2
  6
CONTINUOUS
370
25
 62
7
100
AcDbLine
 10
55.0
 20
-14.11471862576134
 30
0.0
 11
55.32106781186555
 21
-14.43578643762689
 31
0.0
  0
LINE
  5
CDB
330
1F
100
AcDbEntity
  8
2
  6
CONTINUOUS
370
25
 62
7
100
AcDbLine
 10
55.0
 20
-13.69045455704941
 30
0.0
 11
55.67462120245882
 21
-14.36507575950824
 31
0.0
  0
LINE
  5
CDC
330
1F
100
AcDbEntity
  8
2
  6
CONTINUOUS
370
25
 62
7
100
AcDbLine
 10
55.0
 20
-13.26619048833748
 30
0.0
 11
56.0281745930521
 21
-14.29436508138958
 31
0.0
  0
LINE
  5
CDD
330
1F
100
AcDbEntity
  8
2
  6
CONTINUOUS
370
25
 62
7
100
AcDbLine
 10
55.0
 20
-12.84192641962555
 30
0.0
 11
56.38172798364537
 21
-14.22365440327093
 31
0.0
  0
LINE
  5
CDE
330
1F
100
AcDbEntity
  8
2
  6
CONTINUOUS
370
25
 62
7
100
AcDbLine
 10
55.10292206135796
 20
-12.52058441227159
 30
0.0
 11
56.73528137423864
 21
-14.15294372515227
 31
0.0
  0
LINE
  5
CDF
330
1F
100
AcDbEntity
  8
2
  6
CONTINUOUS
370
25
 62
7
100
AcDbLine
 10
55.63325214724787
 20
-12.62665042944958
 30
0.0
 11
57.08883476483192
 21
-14.08223304703361
 31
0.0
  0
LINE
  5
CE0
330
1F
100
AcDbEntity
  8
2
  6
CONTINUOUS
370
25
 62
7
100
AcDbLine
 10
56.16358223313778
 20
-12.73271644662756
 30
0.0
 11
57.44238815542519
 21
-14.01152236891496
 31
0.0
  0
LINE
  5
CE1
330
1F
100
AcDbEntity
  8
2
  6
CONTINUOUS
370
25
 62
7
100
AcDbLine
 10
56.69391231902769
 20
-12.83878246380554
 30
0.0
 11
57.79594154601847
 21
-13.94081169079631
 31
0.0
  0
LINE
  5
CE2
330
1F
100
AcDbEntity
  8
2
  6
CONTINUOUS
370
25
 62
7
100
AcDbLine
 10
57.2242424049176
 20
-12.94484848098352
 30
0.0
 11
58.14949493661174
 21
-13.87010101267765
 31
0.0
  0
LINE
  5
CE3
330
1F
100
AcDbEntity
  8
2
  6
CONTINUOUS
370
25
 62
7
100
AcDbLine
 10
57.7545724908075
 20
-13.0509144981615
 30
0.0
 11
58.50304832720501
 21
-13.799390334559
 31
0.0
  0
LINE
  5
CE4
330
1F
100
AcDbEntity
  8
2
  6
CONTINUOUS
370
25
 62
7
100
AcDbLine
 10
58.28490257669742
 20
-13.15698051533948
 30
0.0
 11
58.85660171779828
 21
-13.72867965644035
 31
0.0
  0
LINE
  5
CE5
330
1F
100
AcDbEntity
  8
2
  6
CONTINUOUS
370
25
 62
7
100
AcDbLine
 10
58.81523266258733
 20
-13.26304653251747
 30
0.0
 11
59.21015510839155
 21
-13.65796897832169
 31
0.0
  0
LINE
  5
CE6
330
1F
100
AcDbEntity
  8
2
  6
CONTINUOUS
370
25
 62
7
100
AcDbLine
 10
59.34556274847724
 20
-13.36911254969545
 30
0.0
 11
59.56370849898483
 21
-13.58725830020304
 31
0.0
  0
LINE
  5
CE7
330
1F
100
AcDbEntity
  8
2
  6
CONTINUOUS
370
25
 62
7
100
AcDbLine
 10
59.87589283436715
 20
-13.47517856687343
 30
0.0
 11
59.9172618895781
 21
-13.51654762208438
 31
0.0
  0
TEXT
  5
CE8
330
1F
100
AcDbEntity
  8
2
  6
CONTINUOUS
370
25
 62
7
100
AcDbText
 10
47.375
 20
-12.0
 30
0.0
 40
3.5
  1
20
 72
     1
 11
50.0
 21
-12.0
 31
0.0
100
AcDbText
  0
LINE
  5
CE9
330
1F
100
AcDbEntity
  8
2
  6
CONTINUOUS
370
25
 62
7
100
AcDbLine
 10
32.4
 20
0.0
 30
0.0
 11
32.4
 21
25.99995
 31
0.0
  0
LINE
  5
CEA
330
1F
100
AcDbEntity
  8
2
  6
CONTINUOUS
370
25
 62
7
100
AcDbLine
 10
60.0
 20
25.99995
 30
0.0
 11
60.0
 21
1.5
 31
0.0
  0
LINE
  5
CEB
330
1F
100
AcDbEntity
  8
2
  6
CONTINUOUS
370
25
 62
7
100
AcDbLine
 10
32.4
 20
24.99995
 30
0.0
 11
60.0
 21
24.99995
 31
0.0
  0
LINE
  5
CEC
330
1F
100
AcDbEntity
  8
2
  6
CONTINUOUS
370
25
 62
7
100
AcDbLine
 10
32.4
 20
24.99995
 30
0.0
 11
37.4
 21
25.99995
 31
0.0
  0
LINE
  5
CED
330
1F
100
AcDbEntity
  8
2
  6
CONTINUOUS
370
25
 62
7
100
AcDbLine
 10
37.4
 20
25.99995
 30
0.0
 11
37.4
 21
23.99995
 31
0.0
  0
LINE
  5
CEE
330
1F
100
AcDbEntity
  8
2
  6
CONTINUOUS
370
25
 62
7
100
AcDbLine
 10
37.4
 20
23.99995
 30
0.0
 11
32.4
 21
24.99995
 31
0.0
  0
LINE
  5
CEF
330
1F
100
AcDbEntity
  8
2
  6
CONTINUOUS
370
25
 62
7
100
AcDbLine
 10
37.32338908996937
 20
24.01527218200612
 30
0.0
 11
37.4
 21
24.09188309203675
 31
0.0
  0
LINE
  5
CF0
330
1F
100
AcDbEntity
  8
2
  6
CONTINUOUS
370
25
 62
7
100
AcDbLine
 10
36.9698356993761
 20
24.08598286012478
 30
0.0
 11
37.4
 21
24.51614716074868
 31
0.0
  0
LINE
  5
CF1
330
1F
100
AcDbEntity
  8
2
  6
CONTINUOUS
370
25
 62
7
100
AcDbLine
 10
36.61628230878283
 20
24.15669353824343
 30
0.0
 11
37.4
 21
24.9404112294606
 31
0.0
  0
LINE
  5
CF2
330
1F
100
AcDbEntity
  8
2
  6
CONTINUOUS
370
25
 62
7
100
AcDbLine
 10
36.26272891818955
 20
24.22740421636209
 30
0.0
 11
37.4
 21
25.36467529817253
 31
0.0
  0
LINE
  5
CF3
330
1F
100
AcDbEntity
  8
2
  6
CONTINUOUS
370
25
 62
7
100
AcDbLine
 10
35.90917552759628
 20
24.29811489448074
 30
0.0
 11
37.4
 21
25.78893936688446
 31
0.0
  0
LINE
  5
CF4
330
1F
100
AcDbEntity
  8
2
  6
CONTINUOUS
370
25
 62
7
100
AcDbLine
 10
35.55562213700301
 20
24.3688255725994
 30
0.0
 11
37.13343320550452
 21
25.9466366411009
 31
0.0
  0
LINE
  5
CF5
330
1F
100
AcDbEntity
  8
2
  6
CONTINUOUS
370
25
 62
7
100
AcDbLine
 10
35.20206874640974
 20
24.43953625071805
 30
0.0
 11
36.60310311961461
 21
25.84057062392292
 31
0.0
  0
LINE
  5
CF6
330
1F
100
AcDbEntity
  8
2
  6
CONTINUOUS
370
25
 62
7
100
AcDbLine
 10
34.84851535581646
 20
24.5102469288367
 30
0.0
 11
36.07277303372469
 21
25.73450460674494
 31
0.0
  0
LINE
  5
CF7
330
1F
100
AcDbEntity
  8
2
  6
CONTINUOUS
370
25
 62
7
100
AcDbLine
 10
34.49496196522319
 20
24.58095760695536
 30
0.0
 11
35.54244294783479
 21
25.62843858956695
 31
0.0
  0
LINE
  5
CF8
330
1F
100
AcDbEntity
  8
2
  6
CONTINUOUS
370
25
 62
7
100
AcDbLine
 10
34.14140857462991
 20
24.65166828507401
 30
0.0
 11
35.01211286194488
 21
25.52237257238897
 31
0.0
  0
LINE
  5
CF9
330
1F
100
AcDbEntity
  8
2
  6
CONTINUOUS
370
25
 62
7
100
AcDbLine
 10
33.78785518403664
 20
24.72237896319267
 30
0.0
 11
34.48178277605496
 21
25.41630655521099
 31
0.0
  0
LINE
  5
CFA
330
1F
100
AcDbEntity
  8
2
  6
CONTINUOUS
370
25
 62
7
100
AcDbLine
 10
33.43430179344337
 20
24.79308964131132
 30
0.0
 11
33.95145269016506
 21
25.31024053803301
 31
0.0
  0
LINE
  5
CFB
330
1F
100
AcDbEntity
  8
2
  6
CONTINUOUS
370
25
 62
7
100
AcDbLine
 10
33.0807484028501
 20
24.86380031942998
 30
0.0
 11
33.42112260427515
 21
25.20417452085503
 31
0.0
  0
LINE
  5
CFC
330
1F
100
AcDbEntity
  8
2
  6
CONTINUOUS
370
25
 62
7
100
AcDbLine
 10
32.72719501225682
 20
24.93451099754863
 30
0.0
 11
32.89079251838523
 21
25.09810850367705
 31
0.0
  0
LINE
  5
CFD
330
1F
100
AcDbEntity
  8
2
  6
CONTINUOUS
370
25
 62
7
100
AcDbLine
 10
32.42635837833645
 20
25.00522167566729
 30
0.0
 11
32.43953756750468
 21
24.99204248649906
 31
0.0
  0
LINE
  5
CFE
330
1F
100
AcDbEntity
  8
2
  6
CONTINUOUS
370
25
 62
7
100
AcDbLine
 10
32.77991176892973
 20
25.07593235378594
 30
0.0
 11
32.96986765339459
 21
24.88597646932108
 31
0.0
  0
LINE
  5
CFF
330
1F
100
AcDbEntity
  8
2
  6
CONTINUOUS
370
25
 62
7
100
AcDbLine
 10
33.133465159523
 20
25.1466430319046
 30
0.0
 11
33.5001977392845
 21
24.7799104521431
 31
0.0
  0
LINE
  5
D00
330
1F
100
AcDbEntity
  8
2
  6
CONTINUOUS
370
25
 62
7
100
AcDbLine
 10
33.48701855011628
 20
25.21735371002325
 30
0.0
 11
34.03052782517441
 21
24.67384443496512
 31
0.0
  0
LINE
  5
D01
330
1F
100
AcDbEntity
  8
2
  6
CONTINUOUS
370
25
 62
7
100
AcDbLine
 10
33.84057194070954
 20
25.28806438814191
 30
0.0
 11
34.56085791106432
 21
24.56777841778714
 31
0.0
  0
LINE
  5
D02
330
1F
100
AcDbEntity
  8
2
  6
CONTINUOUS
370
25
 62
7
100
AcDbLine
 10
34.19412533130282
 20
25.35877506626056
 30
0.0
 11
35.09118799695423
 21
24.46171240060915
 31
0.0
  0
LINE
  5
D03
330
1F
100
AcDbEntity
  8
2
  6
CONTINUOUS
370
25
 62
7
100
AcDbLine
 10
34.54767872189609
 20
25.42948574437922
 30
0.0
 11
35.62151808284414
 21
24.35564638343117
 31
0.0
  0
LINE
  5
D04
330
1F
100
AcDbEntity
  8
2
  6
CONTINUOUS
370
25
 62
7
100
AcDbLine
 10
34.90123211248937
 20
25.50019642249787
 30
0.0
 11
36.15184816873405
 21
24.24958036625319
 31
0.0
  0
LINE
  5
D05
330
1F
100
AcDbEntity
  8
2
  6
CONTINUOUS
370
25
 62
7
100
AcDbLine
 10
35.25478550308264
 20
25.57090710061653
 30
0.0
 11
36.68217825462396
 21
24.1435143490752
 31
0.0
  0
LINE
  5
D06
330
1F
100
AcDbEntity
  8
2
  6
CONTINUOUS
370
25
 62
7
100
AcDbLine
 10
35.60833889367591
 20
25.64161777873518
 30
0.0
 11
37.21250834051387
 21
24.03744833189722
 31
0.0
  0
LINE
  5
D07
330
1F
100
AcDbEntity
  8
2
  6
CONTINUOUS
370
25
 62
7
100
AcDbLine
 10
35.96189228426918
 20
25.71232845685384
 30
0.0
 11
37.4
 21
24.27422074112302
 31
0.0
  0
LINE
  5
D08
330
1F
100
AcDbEntity
  8
2
  6
CONTINUOUS
370
25
 62
7
100
AcDbLine
 10
36.31544567486246
 20
25.78303913497249
 30
0.0
 11
37.4
 21
24.69848480983495
 31
0.0
  0
LINE
  5
D09
330
1F
100
AcDbEntity
  8
2
  6
CONTINUOUS
370
25
 62
7
100
AcDbLine
 10
36.66899906545574
 20
25.85374981309115
 30
0.0
 11
37.4
 21
25.12274887854688
 31
0.0
  0
LINE
  5
D0A
330
1F
100
AcDbEntity
  8
2
  6
CONTINUOUS
370
25
 62
7
100
AcDbLine
 10
37.02255245604901
 20
25.9244604912098
 30
0.0
 11
37.4
 21
25.54701294725881
 31
0.0
  0
LINE
  5
D0B
330
1F
100
AcDbEntity
  8
2
  6
CONTINUOUS
370
25
 62
7
100
AcDbLine
 10
37.37610584664228
 20
25.99517116932845
 30
0.0
 11
37.4
 21
25.97127701597073
 31
0.0
  0
LINE
  5
D0C
330
1F
100
AcDbEntity
  8
2
  6
CONTINUOUS
370
25
 62
7
100
AcDbLine
 10
60.0
 20
24.99995
 30
0.0
 11
55.0
 21
23.99995
 31
0.0
  0
LINE
  5
D0D
330
1F
100
AcDbEntity
  8
2
  6
CONTINUOUS
370
25
 62
7
100
AcDbLine
 10
55.0
 20
23.99995
 30
0.0
 11
55.0
 21
25.99995
 31
0.0
  0
LINE
  5
D0E
330
1F
100
AcDbEntity
  8
2
  6
CONTINUOUS
370
25
 62
7
100
AcDbLine
 10
55.0
 20
25.99995
 30
0.0
 11
60.0
 21
24.99995
 31
0.0
  0
LINE
  5
D0F
330
1F
100
AcDbEntity
  8
2
  6
CONTINUOUS
370
25
 62
7
100
AcDbLine
 10
59.51680428751212
 20
24.90331085750242
 30
0.0
 11
59.67786952500808
 21
25.06437609499838
 31
0.0
  0
LINE
  5
D10
330
1F
100
AcDbEntity
  8
2
  6
CONTINUOUS
370
25
 62
7
100
AcDbLine
 10
58.9864742016222
 20
24.79724484032444
 30
0.0
 11
59.3243161344148
 21
25.13508677311704
 31
0.0
  0
LINE
  5
D11
330
1F
100
AcDbEntity
  8
2
  6
CONTINUOUS
370
25
 62
7
100
AcDbLine
 10
58.4561441157323
 20
24.69117882314646
 30
0.0
 11
58.97076274382153
 21
25.20579745123569
 31
0.0
  0
LINE
  5
D12
330
1F
100
AcDbEntity
  8
2
  6
CONTINUOUS
370
25
 62
7
100
AcDbLine
 10
57.92581402984239
 20
24.58511280596847
 30
0.0
 11
58.61720935322826
 21
25.27650812935435
 31
0.0
  0
LINE
  5
D13
330
1F
100
AcDbEntity
  8
2
  6
CONTINUOUS
370
25
 62
7
100
AcDbLine
 10
57.39548394395248
 20
24.47904678879049
 30
0.0
 11
58.26365596263499
 21
25.347218807473
 31
0.0
  0
LINE
  5
D14
330
1F
100
AcDbEntity
  8
2
  6
CONTINUOUS
370
25
 62
7
100
AcDbLine
 10
56.86515385806257
 20
24.37298077161251
 30
0.0
 11
57.91010257204171
 21
25.41792948559166
 31
0.0
  0
LINE
  5
D15
330
1F
100
AcDbEntity
  8
2
  6
CONTINUOUS
370
25
 62
7
100
AcDbLine
 10
56.33482377217265
 20
24.26691475443453
 30
0.0
 11
57.55654918144844
 21
25.48864016371031
 31
0.0
  0
LINE
  5
D16
330
1F
100
AcDbEntity
  8
2
  6
CONTINUOUS
370
25
 62
7
100
AcDbLine
 10
55.80449368628275
 20
24.16084873725655
 30
0.0
 11
57.20299579085517
 21
25.55935084182897
 31
0.0
  0
LINE
  5
D17
330
1F
100
AcDbEntity
  8
2
  6
CONTINUOUS
370
25
 62
7
100
AcDbLine
 10
55.27416360039284
 20
24.05478272007857
 30
0.0
 11
56.84944240026189
 21
25.63006151994762
 31
0.0
  0
LINE
  5
D18
330
1F
100
AcDbEntity
  8
2
  6
CONTINUOUS
370
25
 62
7
100
AcDbLine
 10
55.0
 20
24.20488318839766
 30
0.0
 11
56.49588900966862
 21
25.70077219806628
 31
0.0
  0
LINE
  5
D19
330
1F
100
AcDbEntity
  8
2
  6
CONTINUOUS
370
25
 62
7
100
AcDbLine
 10
55.0
 20
24.62914725710958
 30
0.0
 11
56.14233561907535
 21
25.77148287618493
 31
0.0
  0
LINE
  5
D1A
330
1F
100
AcDbEntity
  8
2
  6
CONTINUOUS
370
25
 62
7
100
AcDbLine
 10
55.0
 20
25.05341132582151
 30
0.0
 11
55.78878222848208
 21
25.84219355430358
 31
0.0
  0
LINE
  5
D1B
330
1F
100
AcDbEntity
  8
2
  6
CONTINUOUS
370
25
 62
7
100
AcDbLine
 10
55.0
 20
25.47767539453344
 30
0.0
 11
55.4352288378888
 21
25.91290423242224
 31
0.0
  0
LINE
  5
D1C
330
1F
100
AcDbEntity
  8
2
  6
CONTINUOUS
370
25
 62
7
100
AcDbLine
 10
55.0
 20
25.90193946324537
 30
0.0
 11
55.08167544729552
 21
25.98361491054089
 31
0.0
  0
LINE
  5
D1D
330
1F
100
AcDbEntity
  8
2
  6
CONTINUOUS
370
25
 62
7
100
AcDbLine
 10
55.0
 20
24.06904755831214
 30
0.0
 11
55.05758129859345
 21
24.01146625971869
 31
0.0
  0
LINE
  5
D1E
330
1F
100
AcDbEntity
  8
2
  6
CONTINUOUS
370
25
 62
7
100
AcDbLine
 10
55.0
 20
24.49331162702407
 30
0.0
 11
55.41113468918672
 21
24.08217693783735
 31
0.0
  0
LINE
  5
D1F
330
1F
100
AcDbEntity
  8
2
  6
CONTINUOUS
370
25
 62
7
100
AcDbLine
 10
55.0
 20
24.91757569573599
 30
0.0
 11
55.76468807977999
 21
24.152887615956
 31
0.0
  0
LINE
  5
D20
330
1F
100
AcDbEntity
  8
2
  6
CONTINUOUS
370
25
 62
7
100
AcDbLine
 10
55.0
 20
25.34183976444792
 30
0.0
 11
56.11824147037326
 21
24.22359829407466
 31
0.0
  0
LINE
  5
D21
330
1F
100
AcDbEntity
  8
2
  6
CONTINUOUS
370
25
 62
7
100
AcDbLine
 10
55.0
 20
25.76610383315985
 30
0.0
 11
56.47179486096654
 21
24.29430897219331
 31
0.0
  0
LINE
  5
D22
330
1F
100
AcDbEntity
  8
2
  6
CONTINUOUS
370
25
 62
7
100
AcDbLine
 10
55.23802237733973
 20
25.95234552453205
 30
0.0
 11
56.82534825155982
 21
24.36501965031196
 31
0.0
  0
LINE
  5
D23
330
1F
100
AcDbEntity
  8
2
  6
CONTINUOUS
370
25
 62
7
100
AcDbLine
 10
55.76835246322963
 20
25.84627950735407
 30
0.0
 11
57.17890164215309
 21
24.43573032843062
 31
0.0
  0
LINE
  5
D24
330
1F
100
AcDbEntity
  8
2
  6
CONTINUOUS
370
25
 62
7
100
AcDbLine
 10
56.29868254911955
 20
25.74021349017609
 30
0.0
 11
57.53245503274636
 21
24.50644100654927
 31
0.0
  0
LINE
  5
D25
330
1F
100
AcDbEntity
  8
2
  6
CONTINUOUS
370
25
 62
7
100
AcDbLine
 10
56.82901263500946
 20
25.6341474729981
 30
0.0
 11
57.88600842333963
 21
24.57715168466793
 31
0.0
  0
LINE
  5
D26
330
1F
100
AcDbEntity
  8
2
  6
CONTINUOUS
370
25
 62
7
100
AcDbLine
 10
57.35934272089936
 20
25.52808145582012
 30
0.0
 11
58.23956181393291
 21
24.64786236278658
 31
0.0
  0
LINE
  5
D27
330
1F
100
AcDbEntity
  8
2
  6
CONTINUOUS
370
25
 62
7
100
AcDbLine
 10
57.88967280678926
 20
25.42201543864214
 30
0.0
 11
58.59311520452617
 21
24.71857304090524
 31
0.0
  0
LINE
  5
D28
330
1F
100
AcDbEntity
  8
2
  6
CONTINUOUS
370
25
 62
7
100
AcDbLine
 10
58.42000289267919
 20
25.31594942146416
 30
0.0
 11
58.94666859511945
 21
24.78928371902389
 31
0.0
  0
LINE
  5
D29
330
1F
100
AcDbEntity
  8
2
  6
CONTINUOUS
370
25
 62
7
100
AcDbLine
 10
58.95033297856909
 20
25.20988340428618
 30
0.0
 11
59.30022198571272
 21
24.85999439714255
 31
0.0
  0
LINE
  5
D2A
330
1F
100
AcDbEntity
  8
2
  6
CONTINUOUS
370
25
 62
7
100
AcDbLine
 10
59.48066306445901
 20
25.10381738710819
 30
0.0
 11
59.653775376306
 21
24.9307050752612
 31
0.0
  0
TEXT
  5
D2B
330
1F
100
AcDbEntity
  8
2
  6
CONTINUOUS
370
25
 62
7
100
AcDbText
 10
40.95
 20
26.49995
 30
0.0
 40
3.5
  1
27.6
 72
     1
 11
46.2
 21
26.49995
 31
0.0
100
AcDbText
  0
LINE
  5
D2C
330
1F
100
AcDbEntity
  8
SK2
  6
CONTINUOUS
370
25
 62
7
100
AcDbLine
 10
0.0
 20
0.9999500000000001
 30
0.0
 11
0.0
 21
35.99995
 31
0.0
  0
LINE
  5
D2D
330
1F
100
AcDbEntity
  8
SK2
  6
CONTINUOUS
370
25
 62
7
100
AcDbLine
 10
60.0
 20
35.99995
 30
0.0
 11
60.0
 21
1.5
 31
0.0
  0
LINE
  5
D2E
330
1F
100
AcDbEntity
  8
SK2
  6
CONTINUOUS
370
25
 62
7
100
AcDbLine
 10
0.0
 20
34.99995
 30
0.0
 11
60.0
 21
34.99995
 31
0.0
  0
LINE
  5
D2F
330
1F
100
AcDbEntity
  8
SK2
  6
CONTINUOUS
370
25
 62
7
100
AcDbLine
 10
0.0
 20
34.99995
 30
0.0
 11
5.0
 21
35.99995
 31
0.0
  0
LINE
  5
D30
330
1F
100
AcDbEntity
  8
SK2
  6
CONTINUOUS
370
25
 62
7
100
AcDbLine
 10
5.0
 20
35.99995
 30
0.0
 11
5.0
 21
33.99995
 31
0.0
  0
LINE
  5
D31
330
1F
100
AcDbEntity
  8
SK2
  6
CONTINUOUS
370
25
 62
7
100
AcDbLine
 10
5.0
 20
33.99995
 30
0.0
 11
0.0
 21
34.99995
 31
0.0
  0
LINE
  5
D32
330
1F
100
AcDbEntity
  8
SK2
  6
CONTINUOUS
370
25
 62
7
100
AcDbLine
 10
4.901383363975306
 20
34.01967332720494
 30
0.0
 11
5.0
 21
34.11828996322963
 31
0.0
  0
LINE
  5
D33
330
1F
100
AcDbEntity
  8
SK2
  6
CONTINUOUS
370
25
 62
7
100
AcDbLine
 10
4.547829973382026
 20
34.09038400532359
 30
0.0
 11
5.0
 21
34.54255403194156
 31
0.0
  0
LINE
  5
D34
330
1F
100
AcDbEntity
  8
SK2
  6
CONTINUOUS
370
25
 62
7
100
AcDbLine
 10
4.194276582788746
 20
34.16109468344224
 30
0.0
 11
5.0
 21
34.9668181006535
 31
0.0
  0
LINE
  5
D35
330
1F
100
AcDbEntity
  8
SK2
  6
CONTINUOUS
370
25
 62
7
100
AcDbLine
 10
3.84072319219548
 20
34.23180536156091
 30
0.0
 11
5.0
 21
35.39108216936543
 31
0.0
  0
LINE
  5
D36
330
1F
100
AcDbEntity
  8
SK2
  6
CONTINUOUS
370
25
 62
7
100
AcDbLine
 10
3.487169801602199
 20
34.30251603967956
 30
0.0
 11
5.0
 21
35.81534623807735
 31
0.0
  0
LINE
  5
D37
330
1F
100
AcDbEntity
  8
SK2
  6
CONTINUOUS
370
25
 62
7
100
AcDbLine
 10
3.133616411008923
 20
34.37322671779822
 30
0.0
 11
4.700424616513388
 21
35.94003492330268
 31
0.0
  0
LINE
  5
D38
330
1F
100
AcDbEntity
  8
SK2
  6
CONTINUOUS
370
25
 62
7
100
AcDbLine
 10
2.780063020415643
 20
34.44393739591687
 30
0.0
 11
4.170094530623469
 21
35.8339689061247
 31
0.0
  0
LINE
  5
D39
330
1F
100
AcDbEntity
  8
SK2
  6
CONTINUOUS
370
25
 62
7
100
AcDbLine
 10
2.426509629822363
 20
34.51464807403552
 30
0.0
 11
3.639764444733551
 21
35.72790288894672
 31
0.0
  0
LINE
  5
D3A
330
1F
100
AcDbEntity
  8
SK2
  6
CONTINUOUS
370
25
 62
7
100
AcDbLine
 10
2.072956239229097
 20
34.58535875215418
 30
0.0
 11
3.10943435884365
 21
35.62183687176874
 31
0.0
  0
LINE
  5
D3B
330
1F
100
AcDbEntity
  8
SK2
  6
CONTINUOUS
370
25
 62
7
100
AcDbLine
 10
1.719402848635816
 20
34.65606943027284
 30
0.0
 11
2.579104272953732
 21
35.51577085459075
 31
0.0
  0
LINE
  5
D3C
330
1F
100
AcDbEntity
  8
SK2
  6
CONTINUOUS
370
25
 62
7
100
AcDbLine
 10
1.365849458042536
 20
34.72678010839149
 30
0.0
 11
2.048774187063813
 21
35.40970483741276
 31
0.0
  0
LINE
  5
D3D
330
1F
100
AcDbEntity
  8
SK2
  6
CONTINUOUS
370
25
 62
7
100
AcDbLine
 10
1.01229606744927
 20
34.79749078651014
 30
0.0
 11
1.518444101173912
 21
35.30363882023478
 31
0.0
  0
LINE
  5
D3E
330
1F
100
AcDbEntity
  8
SK2
  6
CONTINUOUS
370
25
 62
7
100
AcDbLine
 10
0.6587426768559901
 20
34.8682014646288
 30
0.0
 11
0.988114015283994
 21
35.1975728030568
 31
0.0
  0
LINE
  5
D3F
330
1F
100
AcDbEntity
  8
SK2
  6
CONTINUOUS
370
25
 62
7
100
AcDbLine
 10
0.3051892862627099
 20
34.93891214274745
 30
0.0
 11
0.4577839293940755
 21
35.09150678587882
 31
0.0
  0
LINE
  5
D40
330
1F
100
AcDbEntity
  8
SK2
  6
CONTINUOUS
370
25
 62
7
100
AcDbLine
 10
0.3082487341527909
 20
35.06159974683056
 30
0.0
 11
0.4623731012291934
 21
34.90747537975416
 31
0.0
  0
LINE
  5
D41
330
1F
100
AcDbEntity
  8
SK2
  6
CONTINUOUS
370
25
 62
7
100
AcDbLine
 10
0.6618021247460675
 20
35.13231042494922
 30
0.0
 11
0.9927031871191083
 21
34.80140936257617
 31
0.0
  0
LINE
  5
D42
330
1F
100
AcDbEntity
  8
SK2
  6
CONTINUOUS
370
25
 62
7
100
AcDbLine
 10
1.015355515339344
 20
35.20302110306787
 30
0.0
 11
1.523033273009023
 21
34.69534334539819
 31
0.0
  0
LINE
  5
D43
330
1F
100
AcDbEntity
  8
SK2
  6
CONTINUOUS
370
25
 62
7
100
AcDbLine
 10
1.368908905932614
 20
35.27373178118653
 30
0.0
 11
2.053363358898928
 21
34.58927732822021
 31
0.0
  0
LINE
  5
D44
330
1F
100
AcDbEntity
  8
SK2
  6
CONTINUOUS
370
25
 62
7
100
AcDbLine
 10
1.72246229652589
 20
35.34444245930518
 30
0.0
 11
2.583693444788839
 21
34.48321131104223
 31
0.0
  0
LINE
  5
D45
330
1F
100
AcDbEntity
  8
SK2
  6
CONTINUOUS
370
25
 62
7
100
AcDbLine
 10
2.076015687119167
 20
35.41515313742384
 30
0.0
 11
3.11402353067875
 21
34.37714529386425
 31
0.0
  0
LINE
  5
D46
330
1F
100
AcDbEntity
  8
SK2
  6
CONTINUOUS
370
25
 62
7
100
AcDbLine
 10
2.429569077712443
 20
35.48586381554249
 30
0.0
 11
3.644353616568662
 21
34.27107927668627
 31
0.0
  0
LINE
  5
D47
330
1F
100
AcDbEntity
  8
SK2
  6
CONTINUOUS
370
25
 62
7
100
AcDbLine
 10
2.783122468305717
 20
35.55657449366115
 30
0.0
 11
4.174683702458569
 21
34.16501325950829
 31
0.0
  0
LINE
  5
D48
330
1F
100
AcDbEntity
  8
SK2
  6
CONTINUOUS
370
25
 62
7
100
AcDbLine
 10
3.136675858898993
 20
35.6272851717798
 30
0.0
 11
4.705013788348477
 21
34.05894724233031
 31
0.0
  0
LINE
  5
D49
330
1F
100
AcDbEntity
  8
SK2
  6
CONTINUOUS
370
25
 62
7
100
AcDbLine
 10
3.490229249492266
 20
35.69799584989846
 30
0.0
 11
5.0
 21
34.18822509939071
 31
0.0
  0
LINE
  5
D4A
330
1F
100
AcDbEntity
  8
SK2
  6
CONTINUOUS
370
25
 62
7
100
AcDbLine
 10
3.843782640085546
 20
35.76870652801711
 30
0.0
 11
5.0
 21
34.61248916810264
 31
0.0
  0
LINE
  5
D4B
330
1F
100
AcDbEntity
  8
SK2
  6
CONTINUOUS
370
25
 62
7
100
AcDbLine
 10
4.197336030678819
 20
35.83941720613576
 30
0.0
 11
5.0
 21
35.03675323681458
 31
0.0
  0
LINE
  5
D4C
330
1F
100
AcDbEntity
  8
SK2
  6
CONTINUOUS
370
25
 62
7
100
AcDbLine
 10
4.550889421272093
 20
35.91012788425442
 30
0.0
 11
5.0
 21
35.46101730552651
 31
0.0
  0
LINE
  5
D4D
330
1F
100
AcDbEntity
  8
SK2
  6
CONTINUOUS
370
25
 62
7
100
AcDbLine
 10
4.904442811865366
 20
35.98083856237308
 30
0.0
 11
5.0
 21
35.88528137423844
 31
0.0
  0
LINE
  5
D4E
330
1F
100
AcDbEntity
  8
SK2
  6
CONTINUOUS
370
25
 62
7
100
AcDbLine
 10
60.0
 20
34.99995
 30
0.0
 11
55.0
 21
33.99995
 31
0.0
  0
LINE
  5
D4F
330
1F
100
AcDbEntity
  8
SK2
  6
CONTINUOUS
370
25
 62
7
100
AcDbLine
 10
55.0
 20
33.99995
 30
0.0
 11
55.0
 21
35.99995
 31
0.0
  0
LINE
  5
D50
330
1F
100
AcDbEntity
  8
SK2
  6
CONTINUOUS
370
25
 62
7
100
AcDbLine
 10
55.0
 20
35.99995
 30
0.0
 11
60.0
 21
34.99995
 31
0.0
  0
LINE
  5
D51
330
1F
100
AcDbEntity
  8
SK2
  6
CONTINUOUS
370
25
 62
7
100
AcDbLine
 10
59.7039959539816
 20
34.94074919079632
 30
0.0
 11
59.80266396932107
 21
35.03941720613579
 31
0.0
  0
LINE
  5
D52
330
1F
100
AcDbEntity
  8
SK2
  6
CONTINUOUS
370
25
 62
7
100
AcDbLine
 10
59.17366586809169
 20
34.83468317361833
 30
0.0
 11
59.4491105787278
 21
35.11012788425444
 31
0.0
  0
LINE
  5
D53
330
1F
100
AcDbEntity
  8
SK2
  6
CONTINUOUS
370
25
 62
7
100
AcDbLine
 10
58.64333578220177
 20
34.72861715644035
 30
0.0
 11
59.09555718813452
 21
35.1808385623731
 31
0.0
  0
LINE
  5
D54
330
1F
100
AcDbEntity
  8
SK2
  6
CONTINUOUS
370
25
 62
7
100
AcDbLine
 10
58.11300569631186
 20
34.62255113926237
 30
0.0
 11
58.74200379754124
 21
35.25154924049176
 31
0.0
  0
LINE
  5
D55
330
1F
100
AcDbEntity
  8
SK2
  6
CONTINUOUS
370
25
 62
7
100
AcDbLine
 10
57.58267561042196
 20
34.51648512208439
 30
0.0
 11
58.38845040694797
 21
35.32225991861041
 31
0.0
  0
LINE
  5
D56
330
1F
100
AcDbEntity
  8
SK2
  6
CONTINUOUS
370
25
 62
7
100
AcDbLine
 10
57.05234552453204
 20
34.41041910490641
 30
0.0
 11
58.03489701635469
 21
35.39297059672906
 31
0.0
  0
LINE
  5
D57
330
1F
100
AcDbEntity
  8
SK2
  6
CONTINUOUS
370
25
 62
7
100
AcDbLine
 10
56.52201543864214
 20
34.30435308772843
 30
0.0
 11
57.68134362576142
 21
35.46368127484772
 31
0.0
  0
LINE
  5
D58
330
1F
100
AcDbEntity
  8
SK2
  6
CONTINUOUS
370
25
 62
7
100
AcDbLine
 10
55.99168535275223
 20
34.19828707055044
 30
0.0
 11
57.32779023516815
 21
35.53439195296637
 31
0.0
  0
LINE
  5
D59
330
1F
100
AcDbEntity
  8
SK2
  6
CONTINUOUS
370
25
 62
7
100
AcDbLine
 10
55.46135526686231
 20
34.09222105337246
 30
0.0
 11
56.97423684457488
 21
35.60510263108503
 31
0.0
  0
LINE
  5
D5A
330
1F
100
AcDbEntity
  8
SK2
  6
CONTINUOUS
370
25
 62
7
100
AcDbLine
 10
55.0
 20
34.05512985522208
 30
0.0
 11
56.6206834539816
 21
35.67581330920368
 31
0.0
  0
LINE
  5
D5B
330
1F
100
AcDbEntity
  8
SK2
  6
CONTINUOUS
370
25
 62
7
100
AcDbLine
 10
55.0
 20
34.479393923934
 30
0.0
 11
56.26713006338832
 21
35.74652398732233
 31
0.0
  0
LINE
  5
D5C
330
1F
100
AcDbEntity
  8
SK2
  6
CONTINUOUS
370
25
 62
7
100
AcDbLine
 10
55.0
 20
34.90365799264593
 30
0.0
 11
55.91357667279505
 21
35.81723466544099
 31
0.0
  0
LINE
  5
D5D
330
1F
100
AcDbEntity
  8
SK2
  6
CONTINUOUS
370
25
 62
7
100
AcDbLine
 10
55.0
 20
35.32792206135787
 30
0.0
 11
55.56002328220178
 21
35.88794534355965
 31
0.0
  0
LINE
  5
D5E
330
1F
100
AcDbEntity
  8
SK2
  6
CONTINUOUS
370
25
 62
7
100
AcDbLine
 10
55.0
 20
35.75218613006979
 30
0.0
 11
55.20646989160851
 21
35.9586560216783
 31
0.0
  0
LINE
  5
D5F
330
1F
100
AcDbEntity
  8
SK2
  6
CONTINUOUS
370
25
 62
7
100
AcDbLine
 10
55.0
 20
34.2513852073984
 30
0.0
 11
55.20952933949867
 21
34.04185586789973
 31
0.0
  0
LINE
  5
D60
330
1F
100
AcDbEntity
  8
SK2
  6
CONTINUOUS
370
25
 62
7
100
AcDbLine
 10
55.0
 20
34.67564927611033
 30
0.0
 11
55.56308273009193
 21
34.11256654601839
 31
0.0
  0
LINE
  5
D61
330
1F
100
AcDbEntity
  8
SK2
  6
CONTINUOUS
370
25
 62
7
100
AcDbLine
 10
55.0
 20
35.09991334482226
 30
0.0
 11
55.91663612068521
 21
34.18327722413704
 31
0.0
  0
LINE
  5
D62
330
1F
100
AcDbEntity
  8
SK2
  6
CONTINUOUS
370
25
 62
7
100
AcDbLine
 10
55.0
 20
35.52417741353419
 30
0.0
 11
56.27018951127849
 21
34.2539879022557
 31
0.0
  0
LINE
  5
D63
330
1F
100
AcDbEntity
  8
SK2
  6
CONTINUOUS
370
25
 62
7
100
AcDbLine
 10
55.0
 20
35.94844148224611
 30
0.0
 11
56.62374290187176
 21
34.32469858037435
 31
0.0
  0
LINE
  5
D64
330
1F
100
AcDbEntity
  8
SK2
  6
CONTINUOUS
370
25
 62
7
100
AcDbLine
 10
55.46594443869755
 20
35.9067611122605
 30
0.0
 11
56.97729629246503
 21
34.395409258493
 31
0.0
  0
LINE
  5
D65
330
1F
100
AcDbEntity
  8
SK2
  6
CONTINUOUS
370
25
 62
7
100
AcDbLine
 10
55.99627452458748
 20
35.8006950950825
 30
0.0
 11
57.33084968305832
 21
34.46611993661166
 31
0.0
  0
LINE
  5
D66
330
1F
100
AcDbEntity
  8
SK2
  6
CONTINUOUS
370
25
 62
7
100
AcDbLine
 10
56.52660461047738
 20
35.69462907790452
 30
0.0
 11
57.68440307365158
 21
34.53683061473032
 31
0.0
  0
LINE
  5
D67
330
1F
100
AcDbEntity
  8
SK2
  6
CONTINUOUS
370
25
 62
7
100
AcDbLine
 10
57.05693469636729
 20
35.58856306072654
 30
0.0
 11
58.03795646424486
 21
34.60754129284897
 31
0.0
  0
LINE
  5
D68
330
1F
100
AcDbEntity
  8
SK2
  6
CONTINUOUS
370
25
 62
7
100
AcDbLine
 10
57.58726478225721
 20
35.48249704354856
 30
0.0
 11
58.39150985483813
 21
34.67825197096762
 31
0.0
  0
LINE
  5
D69
330
1F
100
AcDbEntity
  8
SK2
  6
CONTINUOUS
370
25
 62
7
100
AcDbLine
 10
58.11759486814711
 20
35.37643102637058
 30
0.0
 11
58.74506324543141
 21
34.74896264908628
 31
0.0
  0
LINE
  5
D6A
330
1F
100
AcDbEntity
  8
SK2
  6
CONTINUOUS
370
25
 62
7
100
AcDbLine
 10
58.64792495403702
 20
35.2703650091926
 30
0.0
 11
59.09861663602469
 21
34.81967332720494
 31
0.0
  0
LINE
  5
D6B
330
1F
100
AcDbEntity
  8
SK2
  6
CONTINUOUS
370
25
 62
7
100
AcDbLine
 10
59.17825503992692
 20
35.16429899201462
 30
0.0
 11
59.45217002661795
 21
34.89038400532359
 31
0.0
  0
LINE
  5
D6C
330
1F
100
AcDbEntity
  8
SK2
  6
CONTINUOUS
370
25
 62
7
100
AcDbLine
 10
59.70858512581684
 20
35.05823297483663
 30
0.0
 11
59.80572341721123
 21
34.96109468344225
 31
0.0
  0
TEXT
  5
D6D
330
1F
100
AcDbEntity
  8
SK2
  6
CONTINUOUS
370
25
 62
7
100
AcDbText
 10
27.375
 20
36.49995
 30
0.0
 40
3.5
  1
60
 72
     1
 11
30.0
 21
36.49995
 31
0.0
100
AcDbText
  0
LINE
  5
D6E
330
1F
100
AcDbEntity
  8
2
  6
CONTINUOUS
370
25
 62
7
100
AcDbLine
 10
38.0
 20
-1.49995
 30
0.0
 11
38.0
 21
-24.5
 31
0.0
  0
LINE
  5
D6F
330
1F
100
AcDbEntity
  8
2
  6
CONTINUOUS
370
25
 62
7
100
AcDbLine
 10
60.0
 20
-24.5
 30
0.0
 11
60.0
 21
-1.5
 31
0.0
  0
LINE
  5
D70
330
1F
100
AcDbEntity
  8
2
  6
CONTINUOUS
370
25
 62
7
100
AcDbLine
 10
38.0
 20
-23.5
 30
0.0
 11
60.0
 21
-23.5
 31
0.0
  0
LINE
  5
D71
330
1F
100
AcDbEntity
  8
2
  6
CONTINUOUS
370
25
 62
7
100
AcDbLine
 10
38.0
 20
-23.5
 30
0.0
 11
43.0
 21
-22.5
 31
0.0
  0
LINE
  5
D72
330
1F
100
AcDbEntity
  8
2
  6
CONTINUOUS
370
25
 62
7
100
AcDbLine
 10
43.0
 20
-22.5
 30
0.0
 11
43.0
 21
-24.5
 31
0.0
  0
LINE
  5
D73
330
1F
100
AcDbEntity
  8
2
  6
CONTINUOUS
370
25
 62
7
100
AcDbLine
 10
43.0
 20
-24.5
 30
0.0
 11
38.0
 21
-23.5
 31
0.0
  0
LINE
  5
D74
330
1F
100
AcDbEntity
  8
2
  6
CONTINUOUS
370
25
 62
7
100
AcDbLine
 10
42.99220379288564
 20
-24.49844075857713
 30
0.0
 11
43.0
 21
-24.49064455146277
 31
0.0
  0
LINE
  5
D75
330
1F
100
AcDbEntity
  8
2
  6
CONTINUOUS
370
25
 62
7
100
AcDbLine
 10
42.63865040229237
 20
-24.42773008045847
 30
0.0
 11
43.0
 21
-24.06638048275084
 31
0.0
  0
LINE
  5
D76
330
1F
100
AcDbEntity
  8
2
  6
CONTINUOUS
370
25
 62
7
100
AcDbLine
 10
42.28509701169909
 20
-24.35701940233982
 30
0.0
 11
43.0
 21
-23.64211641403892
 31
0.0
  0
LINE
  5
D77
330
1F
100
AcDbEntity
  8
2
  6
CONTINUOUS
370
25
 62
7
100
AcDbLine
 10
41.93154362110582
 20
-24.28630872422116
 30
0.0
 11
43.0
 21
-23.21785234532699
 31
0.0
  0
LINE
  5
D78
330
1F
100
AcDbEntity
  8
2
  6
CONTINUOUS
370
25
 62
7
100
AcDbLine
 10
41.57799023051255
 20
-24.21559804610251
 30
0.0
 11
43.0
 21
-22.79358827661506
 31
0.0
  0
LINE
  5
D79
330
1F
100
AcDbEntity
  8
2
  6
CONTINUOUS
370
25
 62
7
100
AcDbLine
 10
41.22443683991928
 20
-24.14488736798386
 30
0.0
 11
42.83665525987891
 21
-22.53266894802422
 31
0.0
  0
LINE
  5
D7A
330
1F
100
AcDbEntity
  8
2
  6
CONTINUOUS
370
25
 62
7
100
AcDbLine
 10
40.870883449326
 20
-24.0741766898652
 30
0.0
 11
42.306325173989
 21
-22.6387349652022
 31
0.0
  0
LINE
  5
D7B
330
1F
100
AcDbEntity
  8
2
  6
CONTINUOUS
370
25
 62
7
100
AcDbLine
 10
40.51733005873273
 20
-24.00346601174655
 30
0.0
 11
41.77599508809909
 21
-22.74480098238018
 31
0.0
  0
LINE
  5
D7C
330
1F
100
AcDbEntity
  8
2
  6
CONTINUOUS
370
25
 62
7
100
AcDbLine
 10
40.16377666813946
 20
-23.93275533362789
 30
0.0
 11
41.24566500220919
 21
-22.85086699955816
 31
0.0
  0
LINE
  5
D7D
330
1F
100
AcDbEntity
  8
2
  6
CONTINUOUS
370
25
 62
7
100
AcDbLine
 10
39.81022327754619
 20
-23.86204465550924
 30
0.0
 11
40.71533491631928
 21
-22.95693301673614
 31
0.0
  0
LINE
  5
D7E
330
1F
100
AcDbEntity
  8
2
  6
CONTINUOUS
370
25
 62
7
100
AcDbLine
 10
39.45666988695292
 20
-23.79133397739058
 30
0.0
 11
40.18500483042937
 21
-23.06299903391413
 31
0.0
  0
LINE
  5
D7F
330
1F
100
AcDbEntity
  8
2
  6
CONTINUOUS
370
25
 62
7
100
AcDbLine
 10
39.10311649635964
 20
-23.72062329927193
 30
0.0
 11
39.65467474453946
 21
-23.16906505109211
 31
0.0
  0
LINE
  5
D80
330
1F
100
AcDbEntity
  8
2
  6
CONTINUOUS
370
25
 62
7
100
AcDbLine
 10
38.74956310576637
 20
-23.64991262115327
 30
0.0
 11
39.12434465864955
 21
-23.27513106827009
 31
0.0
  0
LINE
  5
D81
330
1F
100
AcDbEntity
  8
2
  6
CONTINUOUS
370
25
 62
7
100
AcDbLine
 10
38.39600971517309
 20
-23.57920194303462
 30
0.0
 11
38.59401457275963
 21
-23.38119708544807
 31
0.0
  0
LINE
  5
D82
330
1F
100
AcDbEntity
  8
2
  6
CONTINUOUS
370
25
 62
7
100
AcDbLine
 10
38.04245632457982
 20
-23.50849126491596
 30
0.0
 11
38.06368448686973
 21
-23.48726310262606
 31
0.0
  0
LINE
  5
D83
330
1F
100
AcDbEntity
  8
2
  6
CONTINUOUS
370
25
 62
7
100
AcDbLine
 10
38.30009420301641
 20
-23.43998115939672
 30
0.0
 11
38.45014130452461
 21
-23.59002826090492
 31
0.0
  0
LINE
  5
D84
330
1F
100
AcDbEntity
  8
2
  6
CONTINUOUS
370
25
 62
7
100
AcDbLine
 10
38.65364759360968
 20
-23.36927048127806
 30
0.0
 11
38.98047139041452
 21
-23.6960942780829
 31
0.0
  0
LINE
  5
D85
330
1F
100
AcDbEntity
  8
2
  6
CONTINUOUS
370
25
 62
7
100
AcDbLine
 10
39.00720098420295
 20
-23.29855980315941
 30
0.0
 11
39.51080147630444
 21
-23.80216029526089
 31
0.0
  0
LINE
  5
D86
330
1F
100
AcDbEntity
  8
2
  6
CONTINUOUS
370
25
 62
7
100
AcDbLine
 10
39.36075437479623
 20
-23.22784912504076
 30
0.0
 11
40.04113156219434
 21
-23.90822631243887
 31
0.0
  0
LINE
  5
D87
330
1F
100
AcDbEntity
  8
2
  6
CONTINUOUS
370
25
 62
7
100
AcDbLine
 10
39.71430776538951
 20
-23.1571384469221
 30
0.0
 11
40.57146164808425
 21
-24.01429232961685
 31
0.0
  0
LINE
  5
D88
330
1F
100
AcDbEntity
  8
2
  6
CONTINUOUS
370
25
 62
7
100
AcDbLine
 10
40.06786115598278
 20
-23.08642776880345
 30
0.0
 11
41.10179173397417
 21
-24.12035834679483
 31
0.0
  0
LINE
  5
D89
330
1F
100
AcDbEntity
  8
2
  6
CONTINUOUS
370
25
 62
7
100
AcDbLine
 10
40.42141454657605
 20
-23.01571709068479
 30
0.0
 11
41.63212181986408
 21
-24.22642436397281
 31
0.0
  0
LINE
  5
D8A
330
1F
100
AcDbEntity
  8
2
  6
CONTINUOUS
370
25
 62
7
100
AcDbLine
 10
40.77496793716932
 20
-22.94500641256614
 30
0.0
 11
42.16245190575398
 21
-24.3324903811508
 31
0.0
  0
LINE
  5
D8B
330
1F
100
AcDbEntity
  8
2
  6
CONTINUOUS
370
25
 62
7
100
AcDbLine
 10
41.1285213277626
 20
-22.87429573444748
 30
0.0
 11
42.6927819916439
 21
-24.43855639832878
 31
0.0
  0
LINE
  5
D8C
330
1F
100
AcDbEntity
  8
2
  6
CONTINUOUS
370
25
 62
7
100
AcDbLine
 10
41.48207471835587
 20
-22.80358505632883
 30
0.0
 11
43.0
 21
-24.32151033797295
 31
0.0
  0
LINE
  5
D8D
330
1F
100
AcDbEntity
  8
2
  6
CONTINUOUS
370
25
 62
7
100
AcDbLine
 10
41.83562810894914
 20
-22.73287437821017
 30
0.0
 11
43.0
 21
-23.89724626926103
 31
0.0
  0
LINE
  5
D8E
330
1F
100
AcDbEntity
  8
2
  6
CONTINUOUS
370
25
 62
7
100
AcDbLine
 10
42.18918149954241
 20
-22.66216370009152
 30
0.0
 11
43.0
 21
-23.4729822005491
 31
0.0
  0
LINE
  5
D8F
330
1F
100
AcDbEntity
  8
2
  6
CONTINUOUS
370
25
 62
7
100
AcDbLine
 10
42.54273489013569
 20
-22.59145302197286
 30
0.0
 11
43.0
 21
-23.04871813183717
 31
0.0
  0
LINE
  5
D90
330
1F
100
AcDbEntity
  8
2
  6
CONTINUOUS
370
25
 62
7
100
AcDbLine
 10
42.89628828072896
 20
-22.52074234385421
 30
0.0
 11
43.0
 21
-22.62445406312524
 31
0.0
  0
LINE
  5
D91
330
1F
100
AcDbEntity
  8
2
  6
CONTINUOUS
370
25
 62
7
100
AcDbLine
 10
60.0
 20
-23.5
 30
0.0
 11
55.0
 21
-24.5
 31
0.0
  0
LINE
  5
D92
330
1F
100
AcDbEntity
  8
2
  6
CONTINUOUS
370
25
 62
7
100
AcDbLine
 10
55.0
 20
-24.5
 30
0.0
 11
55.0
 21
-22.5
 31
0.0
  0
LINE
  5
D93
330
1F
100
AcDbEntity
  8
2
  6
CONTINUOUS
370
25
 62
7
100
AcDbLine
 10
55.0
 20
-22.5
 30
0.0
 11
60.0
 21
-23.5
 31
0.0
  0
LINE
  5
D94
330
1F
100
AcDbEntity
  8
2
  6
CONTINUOUS
370
25
 62
7
100
AcDbLine
 10
59.68411199606231
 20
-23.56317760078754
 30
0.0
 11
59.78940799737487
 21
-23.45788159947498
 31
0.0
  0
LINE
  5
D95
330
1F
100
AcDbEntity
  8
2
  6
CONTINUOUS
370
25
 62
7
100
AcDbLine
 10
59.15378191017241
 20
-23.66924361796552
 30
0.0
 11
59.4358546067816
 21
-23.38717092135632
 31
0.0
  0
LINE
  5
D96
330
1F
100
AcDbEntity
  8
2
  6
CONTINUOUS
370
25
 62
7
100
AcDbLine
 10
58.62345182428248
 20
-23.7753096351435
 30
0.0
 11
59.08230121618833
 21
-23.31646024323767
 31
0.0
  0
LINE
  5
D97
330
1F
100
AcDbEntity
  8
2
  6
CONTINUOUS
370
25
 62
7
100
AcDbLine
 10
58.09312173839258
 20
-23.88137565232148
 30
0.0
 11
58.72874782559506
 21
-23.24574956511901
 31
0.0
  0
LINE
  5
D98
330
1F
100
AcDbEntity
  8
2
  6
CONTINUOUS
370
25
 62
7
100
AcDbLine
 10
57.56279165250267
 20
-23.98744166949947
 30
0.0
 11
58.37519443500178
 21
-23.17503888700035
 31
0.0
  0
LINE
  5
D99
330
1F
100
AcDbEntity
  8
2
  6
CONTINUOUS
370
25
 62
7
100
AcDbLine
 10
57.03246156661277
 20
-24.09350768667745
 30
0.0
 11
58.02164104440851
 21
-23.1043282088817
 31
0.0
  0
LINE
  5
D9A
330
1F
100
AcDbEntity
  8
2
  6
CONTINUOUS
370
25
 62
7
100
AcDbLine
 10
56.50213148072285
 20
-24.19957370385543
 30
0.0
 11
57.66808765381523
 21
-23.03361753076305
 31
0.0
  0
LINE
  5
D9B
330
1F
100
AcDbEntity
  8
2
  6
CONTINUOUS
370
25
 62
7
100
AcDbLine
 10
55.97180139483295
 20
-24.30563972103341
 30
0.0
 11
57.31453426322197
 21
-22.96290685264439
 31
0.0
  0
LINE
  5
D9C
330
1F
100
AcDbEntity
  8
2
  6
CONTINUOUS
370
25
 62
7
100
AcDbLine
 10
55.44147130894303
 20
-24.4117057382114
 30
0.0
 11
56.96098087262869
 21
-22.89219617452574
 31
0.0
  0
LINE
  5
D9D
330
1F
100
AcDbEntity
  8
2
  6
CONTINUOUS
370
25
 62
7
100
AcDbLine
 10
55.0
 20
-24.42891297844251
 30
0.0
 11
56.60742748203542
 21
-22.82148549640709
 31
0.0
  0
LINE
  5
D9E
330
1F
100
AcDbEntity
  8
2
  6
CONTINUOUS
370
25
 62
7
100
AcDbLine
 10
55.0
 20
-24.00464890973057
 30
0.0
 11
56.25387409144214
 21
-22.75077481828843
 31
0.0
  0
LINE
  5
D9F
330
1F
100
AcDbEntity
  8
2
  6
CONTINUOUS
370
25
 62
7
100
AcDbLine
 10
55.0
 20
-23.58038484101865
 30
0.0
 11
55.90032070084887
 21
-22.68006414016978
 31
0.0
  0
LINE
  5
DA0
330
1F
100
AcDbEntity
  8
2
  6
CONTINUOUS
370
25
 62
7
100
AcDbLine
 10
55.0
 20
-23.15612077230672
 30
0.0
 11
55.5467673102556
 21
-22.60935346205112
 31
0.0
  0
LINE
  5
DA1
330
1F
100
AcDbEntity
  8
2
  6
CONTINUOUS
370
25
 62
7
100
AcDbLine
 10
55.0
 20
-22.7318567035948
 30
0.0
 11
55.19321391966233
 21
-22.53864278393247
 31
0.0
  0
LINE
  5
DA2
330
1F
100
AcDbEntity
  8
2
  6
CONTINUOUS
370
25
 62
7
100
AcDbLine
 10
55.0
 20
-24.38324191099331
 30
0.0
 11
55.09729840750558
 21
-24.48054031849889
 31
0.0
  0
LINE
  5
DA3
330
1F
100
AcDbEntity
  8
2
  6
CONTINUOUS
370
25
 62
7
100
AcDbLine
 10
55.0
 20
-23.95897784228138
 30
0.0
 11
55.45085179809885
 21
-24.40982964038023
 31
0.0
  0
LINE
  5
DA4
330
1F
100
AcDbEntity
  8
2
  6
CONTINUOUS
370
25
 62
7
100
AcDbLine
 10
55.0
 20
-23.53471377356945
 30
0.0
 11
55.80440518869212
 21
-24.33911896226158
 31
0.0
  0
LINE
  5
DA5
330
1F
100
AcDbEntity
  8
2
  6
CONTINUOUS
370
25
 62
7
100
AcDbLine
 10
55.0
 20
-23.11044970485753
 30
0.0
 11
56.15795857928539
 21
-24.26840828414292
 31
0.0
  0
LINE
  5
DA6
330
1F
100
AcDbEntity
  8
2
  6
CONTINUOUS
370
25
 62
7
100
AcDbLine
 10
55.0
 20
-22.6861856361456
 30
0.0
 11
56.51151196987867
 21
-24.19769760602427
 31
0.0
  0
LINE
  5
DA7
330
1F
100
AcDbEntity
  8
2
  6
CONTINUOUS
370
25
 62
7
100
AcDbLine
 10
55.29759804070791
 20
-22.55951960814158
 30
0.0
 11
56.86506536047195
 21
-24.12698692790561
 31
0.0
  0
LINE
  5
DA8
330
1F
100
AcDbEntity
  8
2
  6
CONTINUOUS
370
25
 62
7
100
AcDbLine
 10
55.82792812659782
 20
-22.66558562531957
 30
0.0
 11
57.21861875106521
 21
-24.05627624978696
 31
0.0
  0
LINE
  5
DA9
330
1F
100
AcDbEntity
  8
2
  6
CONTINUOUS
370
25
 62
7
100
AcDbLine
 10
56.35825821248773
 20
-22.77165164249755
 30
0.0
 11
57.57217214165848
 21
-23.9855655716683
 31
0.0
  0
LINE
  5
DAA
330
1F
100
AcDbEntity
  8
2
  6
CONTINUOUS
370
25
 62
7
100
AcDbLine
 10
56.88858829837764
 20
-22.87771765967553
 30
0.0
 11
57.92572553225176
 21
-23.91485489354965
 31
0.0
  0
LINE
  5
DAB
330
1F
100
AcDbEntity
  8
2
  6
CONTINUOUS
370
25
 62
7
100
AcDbLine
 10
57.41891838426755
 20
-22.98378367685351
 30
0.0
 11
58.27927892284504
 21
-23.84414421543099
 31
0.0
  0
LINE
  5
DAC
330
1F
100
AcDbEntity
  8
2
  6
CONTINUOUS
370
25
 62
7
100
AcDbLine
 10
57.94924847015746
 20
-23.08984969403149
 30
0.0
 11
58.6328323134383
 21
-23.77343353731234
 31
0.0
  0
LINE
  5
DAD
330
1F
100
AcDbEntity
  8
2
  6
CONTINUOUS
370
25
 62
7
100
AcDbLine
 10
58.47957855604736
 20
-23.19591571120947
 30
0.0
 11
58.98638570403158
 21
-23.70272285919368
 31
0.0
  0
LINE
  5
DAE
330
1F
100
AcDbEntity
  8
2
  6
CONTINUOUS
370
25
 62
7
100
AcDbLine
 10
59.00990864193727
 20
-23.30198172838746
 30
0.0
 11
59.33993909462485
 21
-23.63201218107503
 31
0.0
  0
LINE
  5
DAF
330
1F
100
AcDbEntity
  8
2
  6
CONTINUOUS
370
25
 62
7
100
AcDbLine
 10
59.54023872782719
 20
-23.40804774556544
 30
0.0
 11
59.69349248521813
 21
-23.56130150295638
 31
0.0
  0
TEXT
  5
DB0
330
1F
100
AcDbEntity
  8
2
  6
CONTINUOUS
370
25
 62
7
100
AcDbText
 10
46.08333333333334
 20
-22.0
 30
0.0
 40
3.5
  1
22
 72
     1
 11
49.0
 21
-22.0
 31
0.0
100
AcDbText
  0
LINE
  5
DB1
330
1F
100
AcDbEntity
  8
SK1
  6
CONTINUOUS
370
50
 62
4
100
AcDbLine
 10
32.4
 20
0.0
 30
0.0
 11
34.15
 21
0.0
 31
0.0
  0
LINE
  5
DB2
330
1F
100
AcDbEntity
  8
SK1
  6
CONTINUOUS
370
50
 62
4
100
AcDbLine
 10
32.4
 20
0.0
 30
0.0
 11
32.4
 21
1.75
 31
0.0
  0
ARC
  5
DB3
330
1F
100
AcDbEntity
  8
SK1
  6
CONTINUOUS
370
50
 62
4
100
AcDbCircle
 10
32.4
 20
0.0
 30
0.0
 40
1.75
100
AcDbArc
 50
0.0
 51
90.0
  0
LINE
  5
DB4
330
1F
100
AcDbEntity
  8
SK1
  6
CONTINUOUS
370
50
 62
4
100
AcDbLine
 10
32.4
 20
0.0
 30
0.0
 11
30.65
 21
0.0
 31
0.0
  0
ARC
  5
DB5
330
1F
100
AcDbEntity
  8
SK1
  6
CONTINUOUS
370
50
 62
4
100
AcDbCircle
 10
32.4
 20
0.0
 30
0.0
 40
1.75
100
AcDbArc
 50
180.0
 51
270.0
  0
LINE
  5
DB6
330
1F
100
AcDbEntity
  8
SK1
  6
CONTINUOUS
370
50
 62
4
100
AcDbLine
 10
32.4
 20
-1.75
 30
0.0
 11
32.4
 21
0.0
 31
0.0
  0
ARC
  5
DB7
330
1F
100
AcDbEntity
  8
SK1
  6
CONTINUOUS
370
50
 62
4
100
AcDbCircle
 10
32.4
 20
0.0
 30
0.0
 40
1.75
100
AcDbArc
 50
270.0
 51
0.0
  0
ARC
  5
DB8
330
1F
100
AcDbEntity
  8
SK1
  6
CONTINUOUS
370
50
 62
4
100
AcDbCircle
 10
32.4
 20
0.0
 30
0.0
 40
1.75
100
AcDbArc
 50
90.0
 51
180.0
  0
LINE
  5
DB9
330
1F
100
AcDbEntity
  8
SK1
  6
CONTINUOUS
370
50
 62
4
100
AcDbLine
 10
32.17717274741573
 20
-1.73564731720198
 30
0.0
 11
32.4
 21
-1.512820064617713
 31
0.0
  0
LINE
  5
DBA
330
1F
100
AcDbEntity
  8
SK1
  6
CONTINUOUS
370
50
 62
4
100
AcDbLine
 10
33.91282006461771
 20
0.0
 30
0.0
 11
34.13564731720198
 21
0.2228272525842674
 31
0.0
  0
LINE
  5
DBB
330
1F
100
AcDbEntity
  8
SK1
  6
CONTINUOUS
370
50
 62
4
100
AcDbLine
 10
31.96930380681873
 20
-1.69602888438369
 30
0.0
 11
32.4
 21
-1.265332691202421
 31
0.0
  0
LINE
  5
DBC
330
1F
100
AcDbEntity
  8
SK1
  6
CONTINUOUS
370
50
 62
4
100
AcDbLine
 10
33.66533269120242
 20
0.0
 30
0.0
 11
34.09602888438368
 21
0.4306961931812696
 31
0.0
  0
LINE
  5
DBD
330
1F
100
AcDbEntity
  8
SK1
  6
CONTINUOUS
370
50
 62
4
100
AcDbLine
 10
31.78148340435764
 20
-1.636361913429485
 30
0.0
 11
32.4
 21
-1.01784531778713
 31
0.0
  0
LINE
  5
DBE
330
1F
100
AcDbEntity
  8
SK1
  6
CONTINUOUS
370
50
 62
4
100
AcDbLine
 10
33.41784531778713
 20
0.0
 30
0.0
 11
34.03636191342948
 21
0.6185165956423557
 31
0.0
  0
LINE
  5
DBF
330
1F
100
AcDbEntity
  8
SK1
  6
CONTINUOUS
370
50
 62
4
100
AcDbLine
 10
31.6098551094628
 20
-1.560502834909039
 30
0.0
 11
32.4
 21
-0.7703579443718382
 31
0.0
  0
LINE
  5
DC0
330
1F
100
AcDbEntity
  8
SK1
  6
CONTINUOUS
370
50
 62
4
100
AcDbLine
 10
33.17035794437184
 20
0.0
 30
0.0
 11
33.96050283490904
 21
0.7901448905372013
 31
0.0
  0
LINE
  5
DC1
330
1F
100
AcDbEntity
  8
SK1
  6
CONTINUOUS
370
50
 62
4
100
AcDbLine
 10
31.45217783219447
 20
-1.470692738762079
 30
0.0
 11
32.4
 21
-0.5228705709565462
 31
0.0
  0
LINE
  5
DC2
330
1F
100
AcDbEntity
  8
SK1
  6
CONTINUOUS
370
50
 62
4
100
AcDbLine
 10
32.92287057095655
 20
0.0
 30
0.0
 11
33.87069273876207
 21
0.947822167805533
 31
0.0
  0
LINE
  5
DC3
330
1F
100
AcDbEntity
  8
SK1
  6
CONTINUOUS
370
50
 62
4
100
AcDbLine
 10
31.30842956711548
 20
-1.366953630425777
 30
0.0
 11
32.4
 21
-0.2753831975412551
 31
0.0
  0
LINE
  5
DC4
330
1F
100
AcDbEntity
  8
SK1
  6
CONTINUOUS
370
50
 62
4
100
AcDbLine
 10
32.67538319754125
 20
0.0
 30
0.0
 11
33.76695363042577
 21
1.091570432884522
 31
0.0
  0
LINE
  5
DC5
330
1F
100
AcDbEntity
  8
SK1
  6
CONTINUOUS
370
50
 62
4
100
AcDbLine
 10
31.17712164538164
 20
-1.25077417874432
 30
0.0
 11
32.4
 21
-0.0278958241259639
 31
0.0
  0
LINE
  5
DC6
330
1F
100
AcDbEntity
  8
SK1
  6
CONTINUOUS
370
50
 62
4
100
AcDbLine
 10
32.42789582412596
 20
0.0
 30
0.0
 11
33.65077417874432
 21
1.222878354618356
 31
0.0
  0
LINE
  5
DC7
330
1F
100
AcDbEntity
  8
SK1
  6
CONTINUOUS
370
50
 62
4
100
AcDbLine
 10
31.05784030371346
 20
-1.122568146997212
 30
0.0
 11
32.18040845071067
 21
0.0
 31
0.0
  0
LINE
  5
DC8
330
1F
100
AcDbEntity
  8
SK1
  6
CONTINUOUS
370
50
 62
4
100
AcDbLine
 10
32.4
 20
0.2195915492893277
 30
0.0
 11
33.52256814699721
 21
1.34215969628654
 31
0.0
  0
LINE
  5
DC9
330
1F
100
AcDbEntity
  8
SK1
  6
CONTINUOUS
370
50
 62
4
100
AcDbLine
 10
30.95188167231256
 20
-0.9810394049828186
 30
0.0
 11
31.93292107729538
 21
0.0
 31
0.0
  0
LINE
  5
DCA
330
1F
100
AcDbEntity
  8
SK1
  6
CONTINUOUS
370
50
 62
4
100
AcDbLine
 10
32.4
 20
0.4670789227046193
 30
0.0
 11
33.38103940498281
 21
1.448118327687438
 31
0.0
  0
LINE
  5
DCB
330
1F
100
AcDbEntity
  8
SK1
  6
CONTINUOUS
370
50
 62
4
100
AcDbLine
 10
30.85832908651575
 20
-0.8271046173643402
 30
0.0
 11
31.68543370388009
 21
0.0
 31
0.0
  0
LINE
  5
DCC
330
1F
100
AcDbEntity
  8
SK1
  6
CONTINUOUS
370
50
 62
4
100
AcDbLine
 10
32.4
 20
0.71456629611991
 30
0.0
 11
33.22710461736434
 21
1.54167091348425
 31
0.0
  0
LINE
  5
DCD
330
1F
100
AcDbEntity
  8
SK1
  6
CONTINUOUS
370
50
 62
4
100
AcDbLine
 10
30.77918473824204
 20
-0.6587615922227528
 30
0.0
 11
31.4379463304648
 21
0.0
 31
0.0
  0
LINE
  5
DCE
330
1F
100
AcDbEntity
  8
SK1
  6
CONTINUOUS
370
50
 62
4
100
AcDbLine
 10
32.4
 20
0.9620536695352015
 30
0.0
 11
33.05876159222275
 21
1.620815261757954
 31
0.0
  0
LINE
  5
DCF
330
1F
100
AcDbEntity
  8
SK1
  6
CONTINUOUS
370
50
 62
4
100
AcDbLine
 10
30.71629687706963
 20
-0.474162079979876
 30
0.0
 11
31.1904589570495
 21
0.0
 31
0.0
  0
LINE
  5
DD0
330
1F
100
AcDbEntity
  8
SK1
  6
CONTINUOUS
370
50
 62
4
100
AcDbLine
 10
32.4
 20
1.209541042950494
 30
0.0
 11
32.87416207997988
 21
1.683703122930369
 31
0.0
  0
LINE
  5
DD1
330
1F
100
AcDbEntity
  8
SK1
  6
CONTINUOUS
370
50
 62
4
100
AcDbLine
 10
30.67198100434271
 20
-0.2709905792915031
 30
0.0
 11
30.94297158363421
 21
0.0
 31
0.0
  0
LINE
  5
DD2
330
1F
100
AcDbEntity
  8
SK1
  6
CONTINUOUS
370
50
 62
4
100
AcDbLine
 10
32.4
 20
1.457028416365784
 30
0.0
 11
32.6709905792915
 21
1.728018995657286
 31
0.0
  0
LINE
  5
DD3
330
1F
100
AcDbEntity
  8
SK1
  6
CONTINUOUS
370
50
 62
4
100
AcDbLine
 10
30.6513858468978
 20
-0.0440983633211194
 30
0.0
 11
30.69548421021893
 21
0.0
 31
0.0
  0
LINE
  5
DD4
330
1F
100
AcDbEntity
  8
SK1
  6
CONTINUOUS
370
50
 62
4
100
AcDbLine
 10
32.4
 20
1.704515789781075
 30
0.0
 11
32.44409836332112
 21
1.748614153102194
 31
0.0
  0
LINE
  5
DD5
330
1F
100
AcDbEntity
  8
SK1
  6
CONTINUOUS
370
50
 62
4
100
AcDbLine
 10
30.76386517603681
 20
-0.6191473609004006
 30
0.0
 11
31.7808526390996
 21
-1.636134823963186
 31
0.0
  0
LINE
  5
DD6
330
1F
100
AcDbEntity
  8
SK1
  6
CONTINUOUS
370
50
 62
4
100
AcDbLine
 10
30.67363430643545
 20
-0.2814291178837463
 30
0.0
 11
32.11857088211625
 21
-1.726365693564548
 31
0.0
  0
LINE
  5
DD7
330
1F
100
AcDbEntity
  8
SK1
  6
CONTINUOUS
370
50
 62
4
100
AcDbLine
 10
30.6503344343115
 20
-0.0106418723445003
 30
0.0
 11
32.3893581276555
 21
-1.749665565688503
 31
0.0
  0
LINE
  5
DD8
330
1F
100
AcDbEntity
  8
SK1
  6
CONTINUOUS
370
50
 62
4
100
AcDbLine
 10
30.88717993538229
 20
0.0
 30
0.0
 11
32.4
 21
-1.51282006461771
 31
0.0
  0
LINE
  5
DD9
330
1F
100
AcDbEntity
  8
SK1
  6
CONTINUOUS
370
50
 62
4
100
AcDbLine
 10
31.13466730879758
 20
0.0
 30
0.0
 11
32.4
 21
-1.265332691202418
 31
0.0
  0
LINE
  5
DDA
330
1F
100
AcDbEntity
  8
SK1
  6
CONTINUOUS
370
50
 62
4
100
AcDbLine
 10
31.38215468221287
 20
0.0
 30
0.0
 11
32.4
 21
-1.017845317787128
 31
0.0
  0
LINE
  5
DDB
330
1F
100
AcDbEntity
  8
SK1
  6
CONTINUOUS
370
50
 62
4
100
AcDbLine
 10
31.62964205562816
 20
0.0
 30
0.0
 11
32.4
 21
-0.7703579443718369
 31
0.0
  0
LINE
  5
DDC
330
1F
100
AcDbEntity
  8
SK1
  6
CONTINUOUS
370
50
 62
4
100
AcDbLine
 10
31.87712942904345
 20
0.0
 30
0.0
 11
32.4
 21
-0.5228705709565453
 31
0.0
  0
LINE
  5
DDD
330
1F
100
AcDbEntity
  8
SK1
  6
CONTINUOUS
370
50
 62
4
100
AcDbLine
 10
32.12461680245875
 20
0.0
 30
0.0
 11
32.4
 21
-0.2753831975412537
 31
0.0
  0
LINE
  5
DDE
330
1F
100
AcDbEntity
  8
SK1
  6
CONTINUOUS
370
50
 62
4
100
AcDbLine
 10
32.37210417587404
 20
0.0
 30
0.0
 11
32.4
 21
-0.027895824125963
 31
0.0
  0
LINE
  5
DDF
330
1F
100
AcDbEntity
  8
SK1
  6
CONTINUOUS
370
50
 62
4
100
AcDbLine
 10
32.4
 20
0.219591549289329
 30
0.0
 11
32.61959154928932
 21
0.0
 31
0.0
  0
LINE
  5
DE0
330
1F
100
AcDbEntity
  8
SK1
  6
CONTINUOUS
370
50
 62
4
100
AcDbLine
 10
32.4
 20
0.4670789227046202
 30
0.0
 11
32.86707892270462
 21
0.0
 31
0.0
  0
LINE
  5
DE1
330
1F
100
AcDbEntity
  8
SK1
  6
CONTINUOUS
370
50
 62
4
100
AcDbLine
 10
32.4
 20
0.7145662961199113
 30
0.0
 11
33.11456629611991
 21
0.0
 31
0.0
  0
LINE
  5
DE2
330
1F
100
AcDbEntity
  8
SK1
  6
CONTINUOUS
370
50
 62
4
100
AcDbLine
 10
32.4
 20
0.9620536695352029
 30
0.0
 11
33.3620536695352
 21
0.0
 31
0.0
  0
LINE
  5
DE3
330
1F
100
AcDbEntity
  8
SK1
  6
CONTINUOUS
370
50
 62
4
100
AcDbLine
 10
32.4
 20
1.209541042950494
 30
0.0
 11
33.6095410429505
 21
0.0
 31
0.0
  0
LINE
  5
DE4
330
1F
100
AcDbEntity
  8
SK1
  6
CONTINUOUS
370
50
 62
4
100
AcDbLine
 10
32.4
 20
1.457028416365785
 30
0.0
 11
33.85702841636579
 21
0.0
 31
0.0
  0
LINE
  5
DE5
330
1F
100
AcDbEntity
  8
SK1
  6
CONTINUOUS
370
50
 62
4
100
AcDbLine
 10
32.4
 20
1.704515789781076
 30
0.0
 11
34.10451578978108
 21
0.0
 31
0.0
  0
LINE
  5
DE6
330
1F
100
AcDbEntity
  8
SK1
  6
CONTINUOUS
370
50
 62
4
100
AcDbLine
 10
32.61543384193567
 20
1.736569321260697
 30
0.0
 11
34.13656932126069
 21
0.2154338419356714
 31
0.0
  0
LINE
  5
DE7
330
1F
100
AcDbEntity
  8
SK1
  6
CONTINUOUS
370
50
 62
4
100
AcDbLine
 10
32.93283284728993
 20
1.666657689321729
 30
0.0
 11
34.06665768932173
 21
0.5328328472899322
 31
0.0
  0
LINE
  5
DE8
330
1F
100
AcDbEntity
  8
SK1
  6
CONTINUOUS
370
50
 62
4
100
AcDbLine
 10
33.44009874905674
 20
1.406879160970207
 30
0.0
 11
33.8068791609702
 21
1.040098749056747
 31
0.0
  0
LINE
  5
DE9
330
1F
100
AcDbEntity
  8
4
  6
LONGDASH_DASH
370
25
 62
2
100
AcDbLine
 10
32.4
 20
0.0
 30
0.0
 11
60.0
 21
0.0
 31
0.0
  0
LINE
  5
DEA
330
1F
100
AcDbEntity
  8
SK4
  6
LONGDASH_DASH
370
25
 62
2
100
AcDbLine
 10
-6.0
 20
0.0
 30
0.0
 11
66.0
 21
0.0
 31
0.0
  0
ARC
  5
DEB
330
1F
100
AcDbEntity
  8
SK6
  6
CONTINUOUS
370
25
 62
5
100
AcDbCircle
 10
85.4613820083765
 20
-27.84524575338786
 30
0.0
 40
2.76048912849221
100
AcDbArc
 50
338.9379403434233
 51
90.44457437511365
  0
LINE
  5
DEC
330
1F
100
AcDbEntity
  8
SK6
  6
CONTINUOUS
370
25
 62
5
100
AcDbLine
 10
85.43996279695983
 20
-25.08483972421281
 30
0.0
 11
85.43996279695983
 21
-26.18789835613464
 31
0.0
  0
ARC
  5
DED
330
1F
100
AcDbEntity
  8
SK6
  6
CONTINUOUS
370
25
 62
5
100
AcDbCircle
 10
85.45050902936916
 20
-27.86523924566821
 30
0.0
 40
1.677374043771779
100
AcDbArc
 50
243.4214706017868
 51
90.36024081226083
  0
ARC
  5
DEE
330
1F
100
AcDbEntity
  8
SK6
  6
CONTINUOUS
370
25
 62
5
100
AcDbCircle
 10
87.97275989684958
 20
-27.43383199215561
 30
0.0
 40
3.80021703002276
100
AcDbArc
 50
210.5483731288539
 51
236.97801693668
  0
LINE
  5
DEF
330
1F
100
AcDbEntity
  8
SK6
  6
CONTINUOUS
370
25
 62
5
100
AcDbLine
 10
85.90179068512487
 20
-30.62016781867535
 30
0.0
 11
90.04373096742671
 21
-30.62016781867535
 31
0.0
  0
ARC
  5
DF0
330
1F
100
AcDbEntity
  8
SK6
  6
CONTINUOUS
370
25
 62
5
100
AcDbCircle
 10
87.97276183877257
 20
-27.4338320937346
 30
0.0
 40
3.800216899582472
100
AcDbArc
 50
303.0219828477959
 51
326.3732153033476
  0
LINE
  5
DF1
330
1F
100
AcDbEntity
  8
SK6
  6
CONTINUOUS
370
25
 62
5
100
AcDbLine
 10
91.13705975135723
 20
-29.5383194907709
 30
0.0
 11
87.77976170575462
 21
-29.5383194907709
 31
0.0
  0
LINE
  5
DF2
330
1F
100
AcDbEntity
  8
SK6
  6
CONTINUOUS
370
25
 62
5
100
AcDbLine
 10
87.77976170575462
 20
-29.5383194907709
 30
0.0
 11
91.69962109771987
 21
-28.17691829641694
 31
0.0
  0
ARC
  5
DF3
330
1F
100
AcDbEntity
  8
SK6
  6
CONTINUOUS
370
25
 62
5
100
AcDbCircle
 10
87.97276256157211
 20
-27.4338326048594
 30
0.0
 40
3.800217216614723
100
AcDbArc
 50
348.7238644184696
 51
53.4691051260885
  0
LINE
  5
DF4
330
1F
100
AcDbEntity
  8
SK6
  6
CONTINUOUS
370
25
 62
5
100
AcDbLine
 10
90.23486524538545
 20
-24.38022124429967
 30
0.0
 11
88.03745047882737
 21
-28.83730973507058
 31
0.0
  0
ENDSEC
  0
SECTION
  2
OBJECTS
  0
DICTIONARY
  5
C
330
0
100
AcDbDictionary
281
     1
  3
ACAD_GROUP
350
D
  3
ACAD_LAYOUT
350
1A
  3
ACAD_MATERIAL
350
3B
  3
ACAD_MLEADERSTYLE
350
DF7
  3
ACAD_MLINESTYLE
350
17
  3
ACAD_PLOTSETTINGS
350
19
  3
ACAD_PLOTSTYLENAME
350
E
  3
ACAD_SCALELIST
350
533
  3
ACAD_VISUALSTYLE
350
2A
  3
AcDbVariableDictionary
350
DF5
  0
DICTIONARY
  5
D
102
{ACAD_REACTORS
330
C
102
}
330
C
100
AcDbDictionary
281
     1
  0
DICTIONARY
  5
1A
102
{ACAD_REACTORS
330
C
102
}
330
C
100
AcDbDictionary
281
     1
  3
Layout1
350
1E
  3
Layout2
350
26
  3
Model
350
22
  0
DICTIONARY
  5
3B
102
{ACAD_REACTORS
330
C
102
}
330
C
100
AcDbDictionary
281
     1
  3
ByBlock
350
3D
  3
ByLayer
350
3C
  3
Global
350
3E
  0
DICTIONARY
  5
DF7
102
{ACAD_REACTORS
330
C
102
}
330
C
100
AcDbDictionary
281
     1
  0
DICTIONARY
  5
17
102
{ACAD_REACTORS
330
C
102
}
330
C
100
AcDbDictionary
281
     1
  3
Standard
350
18
  0
DICTIONARY
  5
19
102
{ACAD_REACTORS
330
C
102
}
330
C
100
AcDbDictionary
281
     1
  0
ACDBDICTIONARYWDFLT
  5
E
102
{ACAD_REACTORS
330
C
102
}
330
C
100
AcDbDictionary
281
     1
  3
Normal
350
F
100
AcDbDictionaryWithDefault
340
F
  0
DICTIONARY
  5
533
102
{ACAD_REACTORS
330
C
102
}
330
C
100
AcDbDictionary
281
     1
  3
A0
350
534
  3
A1
350
535
  3
A2
350
536
  3
A3
350
537
  3
A4
350
538
  3
A5
350
539
  3
A6
350
53A
  3
A7
350
53B
  3
A8
350
53C
  3
A9
350
53D
  3
B0
350
53E
  3
B1
350
53F
  3
B2
350
540
  3
B3
350
541
  3
B4
350
542
  3
B5
350
543
  3
B6
350
544
  3
B7
350
545
  3
B8
350
546
  3
B9
350
547
  3
C0
350
548
  3
C1
350
549
  3
C2
350
54A
  3
C3
350
54B
  3
C4
350
54C
  3
C5
350
54D
  3
C6
350
54E
  3
C7
350
54F
  3
C8
350
550
  3
C9
350
551
  3
D0
350
552
  3
D1
350
553
  3
D2
350
554
  0
DICTIONARY
  5
2A
102
{ACAD_REACTORS
330
C
102
}
330
C
100
AcDbDictionary
281
     1
  3
2dWireframe
350
2F
  3
3D Hidden
350
31
  3
3dWireframe
350
30
  3
Basic
350
32
  3
Brighten
350
36
  3
ColorChange
350
3A
  3
Conceptual
350
34
  3
Dim
350
35
  3
Facepattern
350
39
  3
Flat
350
2B
  3
FlatWithEdges
350
2C
  3
Gouraud
350
2D
  3
GouraudWithEdges
350
2E
  3
Linepattern
350
38
  3
Realistic
350
33
  3
Thicken
350
37
  0
DICTIONARY
  5
DF5
102
{ACAD_REACTORS
330
C
102
}
330
C
100
AcDbDictionary
281
     1
  3
CANNOSCALE
350
DFA
  3
DIMASSOC
350
DFB
  3
HIDETEXT
350
DFC
  3
PSOLHEIGHT
350
DF9
  3
PSOLWIDTH
350
DF8
  0
LAYOUT
  5
1E
102
{ACAD_REACTORS
330
1A
102
}
330
1A
100
AcDbPlotSettings
  1

  2
none_device
  4

  6

 40
0.0
 41
0.0
 42
0.0
 43
0.0
 44
0.0
 45
0.0
 46
0.0
 47
0.0
 48
0.0
 49
0.0
140
0.0
141
0.0
142
1.0
143
1.0
 70
   688
 72
     0
 73
     0
 74
     5
  7

 75
    16
147
1.0
148
0.0
149
0.0
100
AcDbLayout
  1
Layout1
 70
     1
 71
     1
 10
0.0
 20
0.0
 11
420.0
 21
297.0
 12
0.0
 22
0.0
 32
0.0
 14
1.000000000000000E+20
 24
1.000000000000000E+20
 34
1.000000000000000E+20
 15
-1.000000000000000E+20
 25
-1.000000000000000E+20
 35
-1.000000000000000E+20
146
0.0
 13
0.0
 23
0.0
 33
0.0
 16
1.0
 26
0.0
 36
0.0
 17
0.0
 27
1.0
 37
0.0
 76
     0
330
1B
  0
LAYOUT
  5
26
102
{ACAD_REACTORS
330
1A
102
}
330
1A
100
AcDbPlotSettings
  1

  2
none_device
  4

  6

 40
0.0
 41
0.0
 42
0.0
 43
0.0
 44
0.0
 45
0.0
 46
0.0
 47
0.0
 48
0.0
 49
0.0
140
0.0
141
0.0
142
1.0
143
1.0
 70
   688
 72
     0
 73
     0
 74
     5
  7

 75
    16
147
1.0
148
0.0
149
0.0
100
AcDbLayout
  1
Layout2
 70
     1
 71
     2
 10
0.0
 20
0.0
 11
0.0
 21
0.0
 12
0.0
 22
0.0
 32
0.0
 14
0.0
 24
0.0
 34
0.0
 15
0.0
 25
0.0
 35
0.0
146
0.0
 13
0.0
 23
0.0
 33
0.0
 16
1.0
 26
0.0
 36
0.0
 17
0.0
 27
1.0
 37
0.0
 76
     0
330
23
  0
LAYOUT
  5
22
102
{ACAD_REACTORS
330
1A
102
}
330
1A
100
AcDbPlotSettings
  1

  2
none_device
  4

  6

 40
0.0
 41
0.0
 42
0.0
 43
0.0
 44
0.0
 45
0.0
 46
0.0
 47
0.0
 48
0.0
 49
0.0
140
0.0
141
0.0
142
1.0
143
1.0
 70
  1712
 72
     0
 73
     0
 74
     0
  7

 75
     0
147
1.0
148
0.0
149
0.0
100
AcDbLayout
  1
Model
 70
     1
 71
     0
 10
0.0
 20
0.0
 11
420.0
 21
297.0
 12
0.0
 22
0.0
 32
0.0
 14
0.0
 24
0.0
 34
0.0
 15
25.0
 25
35.0
 35
0.0
146
0.0
 13
0.0
 23
0.0
 33
0.0
 16
1.0
 26
0.0
 36
0.0
 17
0.0
 27
1.0
 37
0.0
 76
     0
330
1F
331
29
  0
MATERIAL
  5
3D
102
{ACAD_REACTORS
330
3B
102
}
102
{ACAD_XDICTIONARY
360
E1F
102
}
330
3B
100
AcDbMaterial
  1
ByBlock
  0
MATERIAL
  5
3C
102
{ACAD_REACTORS
330
3B
102
}
102
{ACAD_XDICTIONARY
360
E1D
102
}
330
3B
100
AcDbMaterial
  1
ByLayer
  0
MATERIAL
  5
3E
102
{ACAD_REACTORS
330
3B
102
}
102
{ACAD_XDICTIONARY
360
E21
102
}
330
3B
100
AcDbMaterial
  1
Global
  0
MLINESTYLE
  5
18
102
{ACAD_REACTORS
330
17
102
}
330
17
100
AcDbMlineStyle
  2
Standard
 70
     0
  3

 62
   256
 51
90.0
 52
90.0
 71
     2
 49
0.5
 62
   256
  6
BYLAYER
 49
-0.5
 62
   256
  6
BYLAYER
  0
ACDBPLACEHOLDER
  5
F
102
{ACAD_REACTORS
330
E
102
}
330
E
  0
SCALE
  5
534
102
{ACAD_REACTORS
330
533
102
}
330
533
100
AcDbScale
 70
     0
300
1:1
140
1.0
141
1.0
290
     1
  0
SCALE
  5
535
102
{ACAD_REACTORS
330
533
102
}
330
533
100
AcDbScale
 70
     0
300
1:2
140
1.0
141
2.0
290
     0
  0
SCALE
  5
536
102
{ACAD_REACTORS
330
533
102
}
330
533
100
AcDbScale
 70
     0
300
1:4
140
1.0
141
4.0
290
     0
  0
SCALE
  5
537
102
{ACAD_REACTORS
330
533
102
}
330
533
100
AcDbScale
 70
     0
300
1:5
140
1.0
141
5.0
290
     0
  0
SCALE
  5
538
102
{ACAD_REACTORS
330
533
102
}
330
533
100
AcDbScale
 70
     0
300
1:8
140
1.0
141
8.0
290
     0
  0
SCALE
  5
539
102
{ACAD_REACTORS
330
533
102
}
330
533
100
AcDbScale
 70
     0
300
1:10
140
1.0
141
10.0
290
     0
  0
SCALE
  5
53A
102
{ACAD_REACTORS
330
533
102
}
330
533
100
AcDbScale
 70
     0
300
1:16
140
1.0
141
16.0
290
     0
  0
SCALE
  5
53B
102
{ACAD_REACTORS
330
533
102
}
330
533
100
AcDbScale
 70
     0
300
1:20
140
1.0
141
20.0
290
     0
  0
SCALE
  5
53C
102
{ACAD_REACTORS
330
533
102
}
330
533
100
AcDbScale
 70
     0
300
1:30
140
1.0
141
30.0
290
     0
  0
SCALE
  5
53D
102
{ACAD_REACTORS
330
533
102
}
330
533
100
AcDbScale
 70
     0
300
1:40
140
1.0
141
40.0
290
     0
  0
SCALE
  5
53E
102
{ACAD_REACTORS
330
533
102
}
330
533
100
AcDbScale
 70
     0
300
1:50
140
1.0
141
50.0
290
     0
  0
SCALE
  5
53F
102
{ACAD_REACTORS
330
533
102
}
330
533
100
AcDbScale
 70
     0
300
1:100
140
1.0
141
100.0
290
     0
  0
SCALE
  5
540
102
{ACAD_REACTORS
330
533
102
}
330
533
100
AcDbScale
 70
     0
300
2:1
140
2.0
141
1.0
290
     0
  0
SCALE
  5
541
102
{ACAD_REACTORS
330
533
102
}
330
533
100
AcDbScale
 70
     0
300
4:1
140
4.0
141
1.0
290
     0
  0
SCALE
  5
542
102
{ACAD_REACTORS
330
533
102
}
330
533
100
AcDbScale
 70
     0
300
8:1
140
8.0
141
1.0
290
     0
  0
SCALE
  5
543
102
{ACAD_REACTORS
330
533
102
}
330
533
100
AcDbScale
 70
     0
300
10:1
140
10.0
141
1.0
290
     0
  0
SCALE
  5
544
102
{ACAD_REACTORS
330
533
102
}
330
533
100
AcDbScale
 70
     0
300
100:1
140
100.0
141
1.0
290
     0
  0
SCALE
  5
545
102
{ACAD_REACTORS
330
533
102
}
330
533
100
AcDbScale
 70
     0
300
1/128" = 1'-0"
140
0.0078125
141
12.0
290
     0
  0
SCALE
  5
546
102
{ACAD_REACTORS
330
533
102
}
330
533
100
AcDbScale
 70
     0
300
1/64" = 1'-0"
140
0.015625
141
12.0
290
     0
  0
SCALE
  5
547
102
{ACAD_REACTORS
330
533
102
}
330
533
100
AcDbScale
 70
     0
300
1/32" = 1'-0"
140
0.03125
141
12.0
290
     0
  0
SCALE
  5
548
102
{ACAD_REACTORS
330
533
102
}
330
533
100
AcDbScale
 70
     0
300
1/16" = 1'-0"
140
0.0625
141
12.0
290
     0
  0
SCALE
  5
549
102
{ACAD_REACTORS
330
533
102
}
330
533
100
AcDbScale
 70
     0
300
3/32" = 1'-0"
140
0.09375
141
12.0
290
     0
  0
SCALE
  5
54A
102
{ACAD_REACTORS
330
533
102
}
330
533
100
AcDbScale
 70
     0
300
1/8" = 1'-0"
140
0.125
141
12.0
290
     0
  0
SCALE
  5
54B
102
{ACAD_REACTORS
330
533
102
}
330
533
100
AcDbScale
 70
     0
300
3/16" = 1'-0"
140
0.1875
141
12.0
290
     0
  0
SCALE
  5
54C
102
{ACAD_REACTORS
330
533
102
}
330
533
100
AcDbScale
 70
     0
300
1/4" = 1'-0"
140
0.25
141
12.0
290
     0
  0
SCALE
  5
54D
102
{ACAD_REACTORS
330
533
102
}
330
533
100
AcDbScale
 70
     0
300
3/8" = 1'-0"
140
0.375
141
12.0
290
     0
  0
SCALE
  5
54E
102
{ACAD_REACTORS
330
533
102
}
330
533
100
AcDbScale
 70
     0
300
1/2" = 1'-0"
140
0.5
141
12.0
290
     0
  0
SCALE
  5
54F
102
{ACAD_REACTORS
330
533
102
}
330
533
100
AcDbScale
 70
     0
300
3/4" = 1'-0"
140
0.75
141
12.0
290
     0
  0
SCALE
  5
550
102
{ACAD_REACTORS
330
533
102
}
330
533
100
AcDbScale
 70
     0
300
1" = 1'-0"
140
1.0
141
12.0
290
     0
  0
SCALE
  5
551
102
{ACAD_REACTORS
330
533
102
}
330
533
100
AcDbScale
 70
     0
300
1-1/2" = 1'-0"
140
1.5
141
12.0
290
     0
  0
SCALE
  5
552
102
{ACAD_REACTORS
330
533
102
}
330
533
100
AcDbScale
 70
     0
300
3" = 1'-0"
140
3.0
141
12.0
290
     0
  0
SCALE
  5
553
102
{ACAD_REACTORS
330
533
102
}
330
533
100
AcDbScale
 70
     0
300
6" = 1'-0"
140
6.0
141
12.0
290
     0
  0
SCALE
  5
554
102
{ACAD_REACTORS
330
533
102
}
330
533
100
AcDbScale
 70
     0
300
1'-0" = 1'-0"
140
12.0
141
12.0
290
     0
  0
VISUALSTYLE
  5
2F
102
{ACAD_REACTORS
330
2A
102
}
102
{ACAD_XDICTIONARY
360
E05
102
}
330
2A
100
AcDbVisualStyle
  2
2dWireframe
 70
     4
 71
     0
 72
     2
 73
     0
 90
        0
 40
-0.6
 41
-30.0
 62
     5
 63
     7
 74
     1
 91
        4
 64
     7
 65
   257
 75
     1
175
     1
 42
1.0
 92
        0
 66
   257
 43
1.0
 76
     1
 77
     6
 78
     2
 67
     7
 79
     5
170
     0
171
     0
290
     0
174
     0
 93
        1
 44
0.0
173
     0
291
     0
 45
0.0
1001
ACAD
1000
AcDbSavedByObjectVersion
1070
     0
  0
VISUALSTYLE
  5
31
102
{ACAD_REACTORS
330
2A
102
}
102
{ACAD_XDICTIONARY
360
E09
102
}
330
2A
100
AcDbVisualStyle
  2
3D Hidden
 70
     6
 71
     1
 72
     2
 73
     2
 90
        0
 40
-0.6
 41
-30.0
 62
     5
 63
     7
 74
     2
 91
        2
 64
     7
 65
   257
 75
     2
175
     1
 42
40.0
 92
        0
 66
   257
 43
1.0
 76
     1
 77
     6
 78
     2
 67
     7
 79
     3
170
     0
171
     0
290
     0
174
     0
 93
        1
 44
0.0
173
     0
291
     0
 45
0.0
1001
ACAD
1000
AcDbSavedByObjectVersion
1070
     0
  0
VISUALSTYLE
  5
30
102
{ACAD_REACTORS
330
2A
102
}
102
{ACAD_XDICTIONARY
360
E07
102
}
330
2A
100
AcDbVisualStyle
  2
3dWireframe
 70
     5
 71
     0
 72
     2
 73
     0
 90
        0
 40
-0.6
 41
-30.0
 62
     5
 63
     7
 74
     1
 91
        4
 64
     7
 65
   257
 75
     1
175
     1
 42
1.0
 92
        0
 66
   257
 43
1.0
 76
     1
 77
     6
 78
     2
 67
     7
 79
     5
170
     0
171
     0
290
     0
174
     0
 93
        1
 44
0.0
173
     0
291
     0
 45
0.0
1001
ACAD
1000
AcDbSavedByObjectVersion
1070
     0
  0
VISUALSTYLE
  5
32
102
{ACAD_REACTORS
330
2A
102
}
102
{ACAD_XDICTIONARY
360
E0B
102
}
330
2A
100
AcDbVisualStyle
  2
Basic
 70
     7
 71
     1
 72
     0
 73
     1
 90
        0
 40
-0.6
 41
-30.0
 62
     5
 63
     7
 74
     0
 91
        4
 64
     7
 65
   257
 75
     1
175
     1
 42
1.0
 92
        8
 66
     7
 43
1.0
 76
     1
 77
     6
 78
     2
 67
     7
 79
     5
170
     0
171
     0
290
     0
174
     0
 93
        1
 44
0.0
173
     0
291
     1
 45
0.0
1001
ACAD
1000
AcDbSavedByObjectVersion
1070
     0
  0
VISUALSTYLE
  5
36
102
{ACAD_REACTORS
330
2A
102
}
102
{ACAD_XDICTIONARY
360
E13
102
}
330
2A
100
AcDbVisualStyle
  2
Brighten
 70
    12
 71
     2
 72
     2
 73
     0
 90
        0
 40
-0.6
 41
-30.0
 62
     5
 63
     7
 74
     1
 91
        4
 64
     7
 65
   257
 75
     1
175
     1
 42
1.0
 92
        8
 66
     7
 43
1.0
 76
     1
 77
     6
 78
     2
 67
     7
 79
     5
170
     0
171
     0
290
     0
174
     0
 93
        1
 44
50.0
173
     0
291
     1
 45
0.0
1001
ACAD
1000
AcDbSavedByObjectVersion
1070
     0
  0
VISUALSTYLE
  5
3A
102
{ACAD_REACTORS
330
2A
102
}
102
{ACAD_XDICTIONARY
360
E1B
102
}
330
2A
100
AcDbVisualStyle
  2
ColorChange
 70
    16
 71
     2
 72
     2
 73
     3
 90
        0
 40
-0.6
 41
-30.0
 62
     5
 63
     8
 74
     1
 91
        4
 64
     7
 65
   257
 75
     1
175
     1
 42
1.0
 92
        8
 66
     8
 43
1.0
 76
     1
 77
     6
 78
     2
 67
     7
 79
     5
170
     0
171
     0
290
     0
174
     0
 93
        1
 44
0.0
173
     0
291
     1
 45
0.0
1001
ACAD
1000
AcDbSavedByObjectVersion
1070
     0
  0
VISUALSTYLE
  5
34
102
{ACAD_REACTORS
330
2A
102
}
102
{ACAD_XDICTIONARY
360
E0F
102
}
330
2A
100
AcDbVisualStyle
  2
Conceptual
 70
     9
 71
     3
 72
     2
 73
     0
 90
        0
 40
-0.6
 41
-30.0
 62
     5
 63
     7
 74
     2
 91
        2
 64
     7
 65
   257
 75
     1
175
     1
 42
40.0
 92
        8
 66
     7
 43
1.0
 76
     1
 77
     6
 78
     2
 67
     7
 79
     3
170
     0
171
     0
290
     0
174
     0
 93
        1
 44
0.0
173
     0
291
     0
 45
0.0
1001
ACAD
1000
AcDbSavedByObjectVersion
1070
     0
  0
VISUALSTYLE
  5
35
102
{ACAD_REACTORS
330
2A
102
}
102
{ACAD_XDICTIONARY
360
E11
102
}
330
2A
100
AcDbVisualStyle
  2
Dim
 70
    11
 71
     2
 72
     2
 73
     0
 90
        0
 40
-0.6
 41
-30.0
 62
     5
 63
     7
 74
     1
 91
        4
 64
     7
 65
   257
 75
     1
175
     1
 42
1.0
 92
        8
 66
     7
 43
1.0
 76
     1
 77
     6
 78
     2
 67
     7
 79
     5
170
     0
171
     0
290
     0
174
     0
 93
        1
 44
-50.0
173
     0
291
     1
 45
0.0
1001
ACAD
1000
AcDbSavedByObjectVersion
1070
     0
  0
VISUALSTYLE
  5
39
102
{ACAD_REACTORS
330
2A
102
}
102
{ACAD_XDICTIONARY
360
E19
102
}
330
2A
100
AcDbVisualStyle
  2
Facepattern
 70
    15
 71
     2
 72
     2
 73
     0
 90
        0
 40
-0.6
 41
-30.0
 62
     5
 63
     7
 74
     1
 91
        4
 64
     7
 65
   257
 75
     1
175
     1
 42
1.0
 92
        8
 66
     7
 43
1.0
 76
     1
 77
     6
 78
     2
 67
     7
 79
     5
170
     0
171
     0
290
     0
174
     0
 93
        1
 44
0.0
173
     0
291
     1
 45
0.0
1001
ACAD
1000
AcDbSavedByObjectVersion
1070
     0
  0
VISUALSTYLE
  5
2B
102
{ACAD_REACTORS
330
2A
102
}
102
{ACAD_XDICTIONARY
360
DFD
102
}
330
2A
100
AcDbVisualStyle
  2
Flat
 70
     0
 71
     2
 72
     1
 73
     1
 90
        2
 40
-0.6
 41
30.0
 62
     5
 63
     7
 74
     0
 91
        4
 64
     7
 65
   257
 75
     1
175
     1
 42
1.0
 92
        8
 66
     7
 43
1.0
 76
     1
 77
     6
 78
     2
 67
     7
 79
     5
170
     0
171
     0
290
     0
174
     0
 93
       13
 44
0.0
173
     0
291
     1
 45
0.0
1001
ACAD
1000
AcDbSavedByObjectVersion
1070
     0
  0
VISUALSTYLE
  5
2C
102
{ACAD_REACTORS
330
2A
102
}
102
{ACAD_XDICTIONARY
360
DFF
102
}
330
2A
100
AcDbVisualStyle
  2
FlatWithEdges
 70
     1
 71
     2
 72
     1
 73
     1
 90
        2
 40
-0.6
 41
30.0
 62
     5
 63
     7
 74
     1
 91
        4
 64
     7
 65
   257
 75
     1
175
     1
 42
1.0
 92
        0
 66
   257
 43
1.0
 76
     1
 77
     6
 78
     2
 67
     7
 79
     5
170
     0
171
     0
290
     0
174
     0
 93
       13
 44
0.0
173
     0
291
     1
 45
0.0
1001
ACAD
1000
AcDbSavedByObjectVersion
1070
     0
  0
VISUALSTYLE
  5
2D
102
{ACAD_REACTORS
330
2A
102
}
102
{ACAD_XDICTIONARY
360
E01
102
}
330
2A
100
AcDbVisualStyle
  2
Gouraud
 70
     2
 71
     2
 72
     2
 73
     1
 90
        2
 40
-0.6
 41
30.0
 62
     5
 63
     7
 74
     0
 91
        4
 64
     7
 65
   257
 75
     1
175
     1
 42
1.0
 92
        0
 66
     7
 43
1.0
 76
     1
 77
     6
 78
     2
 67
     7
 79
     5
170
     0
171
     0
290
     0
174
     0
 93
       13
 44
0.0
173
     0
291
     1
 45
0.0
1001
ACAD
1000
AcDbSavedByObjectVersion
1070
     0
  0
VISUALSTYLE
  5
2E
102
{ACAD_REACTORS
330
2A
102
}
102
{ACAD_XDICTIONARY
360
E03
102
}
330
2A
100
AcDbVisualStyle
  2
GouraudWithEdges
 70
     3
 71
     2
 72
     2
 73
     1
 90
        2
 40
-0.6
 41
30.0
 62
     5
 63
     7
 74
     1
 91
        4
 64
     7
 65
   257
 75
     1
175
     1
 42
1.0
 92
        0
 66
   257
 43
1.0
 76
     1
 77
     6
 78
     2
 67
     7
 79
     5
170
     0
171
     0
290
     0
174
     0
 93
       13
 44
0.0
173
     0
291
     1
 45
0.0
1001
ACAD
1000
AcDbSavedByObjectVersion
1070
     0
  0
VISUALSTYLE
  5
38
102
{ACAD_REACTORS
330
2A
102
}
102
{ACAD_XDICTIONARY
360
E17
102
}
330
2A
100
AcDbVisualStyle
  2
Linepattern
 70
    14
 71
     2
 72
     2
 73
     0
 90
        0
 40
-0.6
 41
-30.0
 62
     5
 63
     7
 74
     1
 91
        4
 64
     7
 65
   257
 75
     7
175
     7
 42
1.0
 92
        8
 66
     7
 43
1.0
 76
     1
 77
     6
 78
     2
 67
     7
 79
     5
170
     0
171
     0
290
     0
174
     0
 93
        1
 44
0.0
173
     0
291
     1
 45
0.0
1001
ACAD
1000
AcDbSavedByObjectVersion
1070
     0
  0
VISUALSTYLE
  5
33
102
{ACAD_REACTORS
330
2A
102
}
102
{ACAD_XDICTIONARY
360
E0D
102
}
330
2A
100
AcDbVisualStyle
  2
Realistic
 70
     8
 71
     2
 72
     2
 73
     0
 90
        0
 40
-0.6
 41
-30.0
 62
     5
 63
     7
 74
     1
 91
        0
 64
     7
 65
   257
 75
     1
175
     1
 42
1.0
 92
        8
 66
     8
 43
1.0
 76
     1
 77
     6
 78
     2
 67
     7
 79
     5
170
     0
171
     0
290
     0
174
     0
 93
       13
 44
0.0
173
     0
291
     0
 45
0.0
1001
ACAD
1000
AcDbSavedByObjectVersion
1070
     0
  0
VISUALSTYLE
  5
37
102
{ACAD_REACTORS
330
2A
102
}
102
{ACAD_XDICTIONARY
360
E15
102
}
330
2A
100
AcDbVisualStyle
  2
Thicken
 70
    13
 71
     2
 72
     2
 73
     0
 90
        0
 40
-0.6
 41
-30.0
 62
     5
 63
     7
 74
     1
 91
        4
 64
     7
 65
   257
 75
     1
175
     1
 42
1.0
 92
       12
 66
     7
 43
1.0
 76
     1
 77
     6
 78
     2
 67
     7
 79
     5
170
     0
171
     0
290
     0
174
     0
 93
        1
 44
0.0
173
     0
291
     1
 45
0.0
1001
ACAD
1000
AcDbSavedByObjectVersion
1070
     0
  0
DICTIONARYVAR
  5
DFA
102
{ACAD_REACTORS
330
DF5
102
}
330
DF5
100
DictionaryVariables
280
     0
  1
1:1
  0
DICTIONARYVAR
  5
DFB
102
{ACAD_REACTORS
330
DF5
102
}
330
DF5
100
DictionaryVariables
280
     0
  1
2
  0
DICTIONARYVAR
  5
DFC
102
{ACAD_REACTORS
330
DF5
102
}
330
DF5
100
DictionaryVariables
280
     0
  1
1
  0
DICTIONARYVAR
  5
DF9
102
{ACAD_REACTORS
330
DF5
102
}
330
DF5
100
DictionaryVariables
280
     0
  1
80.000000
  0
DICTIONARYVAR
  5
DF8
102
{ACAD_REACTORS
330
DF5
102
}
330
DF5
100
DictionaryVariables
280
     0
  1
5.000000
  0
DICTIONARY
  5
E1F
330
3D
100
AcDbDictionary
280
     1
281
     1
  3
ACAD_XREC_ROUNDTRIP
360
E20
  0
DICTIONARY
  5
E1D
330
3C
100
AcDbDictionary
280
     1
281
     1
  3
ACAD_XREC_ROUNDTRIP
360
E1E
  0
DICTIONARY
  5
E21
330
3E
100
AcDbDictionary
280
     1
281
     1
  3
ACAD_XREC_ROUNDTRIP
360
E22
  0
DICTIONARY
  5
E05
330
2F
100
AcDbDictionary
280
     1
281
     1
  3
ACAD_XREC_ROUNDTRIP
360
E06
  0
DICTIONARY
  5
E09
330
31
100
AcDbDictionary
280
     1
281
     1
  3
ACAD_XREC_ROUNDTRIP
360
E0A
  0
DICTIONARY
  5
E07
330
30
100
AcDbDictionary
280
     1
281
     1
  3
ACAD_XREC_ROUNDTRIP
360
E08
  0
DICTIONARY
  5
E0B
330
32
100
AcDbDictionary
280
     1
281
     1
  3
ACAD_XREC_ROUNDTRIP
360
E0C
  0
DICTIONARY
  5
E13
330
36
100
AcDbDictionary
280
     1
281
     1
  3
ACAD_XREC_ROUNDTRIP
360
E14
  0
DICTIONARY
  5
E1B
330
3A
100
AcDbDictionary
280
     1
281
     1
  3
ACAD_XREC_ROUNDTRIP
360
E1C
  0
DICTIONARY
  5
E0F
330
34
100
AcDbDictionary
280
     1
281
     1
  3
ACAD_XREC_ROUNDTRIP
360
E10
  0
DICTIONARY
  5
E11
330
35
100
AcDbDictionary
280
     1
281
     1
  3
ACAD_XREC_ROUNDTRIP
360
E12
  0
DICTIONARY
  5
E19
330
39
100
AcDbDictionary
280
     1
281
     1
  3
ACAD_XREC_ROUNDTRIP
360
E1A
  0
DICTIONARY
  5
DFD
330
2B
100
AcDbDictionary
280
     1
281
     1
  3
ACAD_XREC_ROUNDTRIP
360
DFE
  0
DICTIONARY
  5
DFF
330
2C
100
AcDbDictionary
280
     1
281
     1
  3
ACAD_XREC_ROUNDTRIP
360
E00
  0
DICTIONARY
  5
E01
330
2D
100
AcDbDictionary
280
     1
281
     1
  3
ACAD_XREC_ROUNDTRIP
360
E02
  0
DICTIONARY
  5
E03
330
2E
100
AcDbDictionary
280
     1
281
     1
  3
ACAD_XREC_ROUNDTRIP
360
E04
  0
DICTIONARY
  5
E17
330
38
100
AcDbDictionary
280
     1
281
     1
  3
ACAD_XREC_ROUNDTRIP
360
E18
  0
DICTIONARY
  5
E0D
330
33
100
AcDbDictionary
280
     1
281
     1
  3
ACAD_XREC_ROUNDTRIP
360
E0E
  0
DICTIONARY
  5
E15
330
37
100
AcDbDictionary
280
     1
281
     1
  3
ACAD_XREC_ROUNDTRIP
360
E16
  0
XRECORD
  5
E20
102
{ACAD_REACTORS
330
E1F
102
}
330
E1F
100
AcDbXrecord
280
     1
102
MATERIAL
148
0.0
149
0.0
149
0.0
 93
        0
 94
      127
282
     0
 72
     1
 77
     1
171
     1
175
     1
179
     1
273
     0
  0
XRECORD
  5
E1E
102
{ACAD_REACTORS
330
E1D
102
}
330
E1D
100
AcDbXrecord
280
     1
102
MATERIAL
148
0.0
149
0.0
149
0.0
 93
        0
 94
      127
282
     0
 72
     1
 77
     1
171
     1
175
     1
179
     1
273
     0
  0
XRECORD
  5
E22
102
{ACAD_REACTORS
330
E21
102
}
330
E21
100
AcDbXrecord
280
     1
102
MATERIAL
148
0.0
149
0.0
149
0.0
 93
        0
 94
      127
282
     0
 72
     1
 77
     1
171
     1
175
     1
179
     1
273
     0
  0
XRECORD
  5
E06
102
{ACAD_REACTORS
330
E05
102
}
330
E05
100
AcDbXrecord
280
     1
102
RTVSPropertyOp0
 70
     1
102
RTVSPropertyOp1
 70
     1
102
RTVSPropertyOp2
 70
     1
102
RTVSPropertyOp3
 70
     1
102
RTVSPropertyOp4
 70
     1
102
RTVSPropertyOp5
 70
     1
102
RTVSPropertyOp6
 70
     1
102
RTVSPropertyOp7
 70
     1
102
RTVSPropertyOp8
 70
     1
102
RTVSPropertyOp9
 70
     1
102
RTVSPropertyOp10
 70
     1
102
RTVSPropertyOp11
 70
     1
102
RTVSPropertyOp12
 70
     1
102
RTVSPropertyOp13
 70
     1
102
RTVSPropertyOp14
 70
     1
102
RTVSPropertyOp15
 70
     1
102
RTVSPropertyOp16
 70
     1
102
RTVSPropertyOp17
 70
     1
102
RTVSPropertyOp18
 70
     1
102
RTVSPropertyOp19
 70
     1
102
RTVSPropertyOp20
 70
     1
102
RTVSPropertyOp21
 70
     1
102
RTVSPropertyOp22
 70
     1
102
RTVSPropertyOp23
 70
     1
102
RTVSPropertyOp24
 70
     1
102
RTVSPropertyOp25
 70
     1
102
RTVSPropertyOp26
 70
     1
102
RTVSPropertyOp27
 70
     1
  0
XRECORD
  5
E0A
102
{ACAD_REACTORS
330
E09
102
}
330
E09
100
AcDbXrecord
280
     1
102
RTVSPropertyOp0
 70
     1
102
RTVSPropertyOp1
 70
     1
102
RTVSPropertyOp2
 70
     1
102
RTVSPropertyOp3
 70
     1
102
RTVSPropertyOp4
 70
     1
102
RTVSPropertyOp5
 70
     1
102
RTVSPropertyOp6
 70
     1
102
RTVSPropertyOp7
 70
     1
102
RTVSPropertyOp8
 70
     1
102
RTVSPropertyOp9
 70
     1
102
RTVSPropertyOp10
 70
     1
102
RTVSPropertyOp11
 70
     1
102
RTVSPropertyOp12
 70
     1
102
RTVSPropertyOp13
 70
     1
102
RTVSPropertyOp14
 70
     1
102
RTVSPropertyOp15
 70
     1
102
RTVSPropertyOp16
 70
     1
102
RTVSPropertyOp17
 70
     1
102
RTVSPropertyOp18
 70
     1
102
RTVSPropertyOp19
 70
     1
102
RTVSPropertyOp20
 70
     1
102
RTVSPropertyOp21
 70
     1
102
RTVSPropertyOp22
 70
     1
102
RTVSPropertyOp23
 70
     1
102
RTVSPropertyOp24
 70
     1
102
RTVSPropertyOp25
 70
     1
102
RTVSPropertyOp26
 70
     1
102
RTVSPropertyOp27
 70
     1
  0
XRECORD
  5
E08
102
{ACAD_REACTORS
330
E07
102
}
330
E07
100
AcDbXrecord
280
     1
102
RTVSPropertyOp0
 70
     1
102
RTVSPropertyOp1
 70
     1
102
RTVSPropertyOp2
 70
     1
102
RTVSPropertyOp3
 70
     1
102
RTVSPropertyOp4
 70
     1
102
RTVSPropertyOp5
 70
     1
102
RTVSPropertyOp6
 70
     1
102
RTVSPropertyOp7
 70
     1
102
RTVSPropertyOp8
 70
     1
102
RTVSPropertyOp9
 70
     1
102
RTVSPropertyOp10
 70
     1
102
RTVSPropertyOp11
 70
     1
102
RTVSPropertyOp12
 70
     1
102
RTVSPropertyOp13
 70
     1
102
RTVSPropertyOp14
 70
     1
102
RTVSPropertyOp15
 70
     1
102
RTVSPropertyOp16
 70
     1
102
RTVSPropertyOp17
 70
     1
102
RTVSPropertyOp18
 70
     1
102
RTVSPropertyOp19
 70
     1
102
RTVSPropertyOp20
 70
     1
102
RTVSPropertyOp21
 70
     1
102
RTVSPropertyOp22
 70
     1
102
RTVSPropertyOp23
 70
     1
102
RTVSPropertyOp24
 70
     1
102
RTVSPropertyOp25
 70
     1
102
RTVSPropertyOp26
 70
     1
102
RTVSPropertyOp27
 70
     1
  0
XRECORD
  5
E0C
102
{ACAD_REACTORS
330
E0B
102
}
330
E0B
100
AcDbXrecord
280
     1
102
RTVSPropertyOp0
 70
     1
102
RTVSPropertyOp1
 70
     1
102
RTVSPropertyOp2
 70
     1
102
RTVSPropertyOp3
 70
     1
102
RTVSPropertyOp4
 70
     1
102
RTVSPropertyOp5
 70
     1
102
RTVSPropertyOp6
 70
     1
102
RTVSPropertyOp7
 70
     1
102
RTVSPropertyOp8
 70
     1
102
RTVSPropertyOp9
 70
     1
102
RTVSPropertyOp10
 70
     1
102
RTVSPropertyOp11
 70
     1
102
RTVSPropertyOp12
 70
     1
102
RTVSPropertyOp13
 70
     1
102
RTVSPropertyOp14
 70
     1
102
RTVSPropertyOp15
 70
     1
102
RTVSPropertyOp16
 70
     1
102
RTVSPropertyOp17
 70
     1
102
RTVSPropertyOp18
 70
     1
102
RTVSPropertyOp19
 70
     1
102
RTVSPropertyOp20
 70
     1
102
RTVSPropertyOp21
 70
     1
102
RTVSPropertyOp22
 70
     1
102
RTVSPropertyOp23
 70
     1
102
RTVSPropertyOp24
 70
     1
102
RTVSPropertyOp25
 70
     1
102
RTVSPropertyOp26
 70
     1
102
RTVSPropertyOp27
 70
     1
  0
XRECORD
  5
E14
102
{ACAD_REACTORS
330
E13
102
}
330
E13
100
AcDbXrecord
280
     1
102
RTVSPropertyOp0
 70
     1
102
RTVSPropertyOp1
 70
     1
102
RTVSPropertyOp2
 70
     1
102
RTVSPropertyOp3
 70
     1
102
RTVSPropertyOp4
 70
     1
102
RTVSPropertyOp5
 70
     1
102
RTVSPropertyOp6
 70
     1
102
RTVSPropertyOp7
 70
     1
102
RTVSPropertyOp8
 70
     1
102
RTVSPropertyOp9
 70
     1
102
RTVSPropertyOp10
 70
     1
102
RTVSPropertyOp11
 70
     1
102
RTVSPropertyOp12
 70
     1
102
RTVSPropertyOp13
 70
     1
102
RTVSPropertyOp14
 70
     1
102
RTVSPropertyOp15
 70
     1
102
RTVSPropertyOp16
 70
     1
102
RTVSPropertyOp17
 70
     1
102
RTVSPropertyOp18
 70
     1
102
RTVSPropertyOp19
 70
     1
102
RTVSPropertyOp20
 70
     1
102
RTVSPropertyOp21
 70
     1
102
RTVSPropertyOp22
 70
     1
102
RTVSPropertyOp23
 70
     1
102
RTVSPropertyOp24
 70
     1
102
RTVSPropertyOp25
 70
     1
102
RTVSPropertyOp26
 70
     1
102
RTVSPropertyOp27
 70
     1
  0
XRECORD
  5
E1C
102
{ACAD_REACTORS
330
E1B
102
}
330
E1B
100
AcDbXrecord
280
     1
102
RTVSPropertyOp0
 70
     1
102
RTVSPropertyOp1
 70
     1
102
RTVSPropertyOp2
 70
     1
102
RTVSPropertyOp3
 70
     1
102
RTVSPropertyOp4
 70
     1
102
RTVSPropertyOp5
 70
     1
102
RTVSPropertyOp6
 70
     1
102
RTVSPropertyOp7
 70
     1
102
RTVSPropertyOp8
 70
     1
102
RTVSPropertyOp9
 70
     1
102
RTVSPropertyOp10
 70
     1
102
RTVSPropertyOp11
 70
     1
102
RTVSPropertyOp12
 70
     1
102
RTVSPropertyOp13
 70
     1
102
RTVSPropertyOp14
 70
     1
102
RTVSPropertyOp15
 70
     1
102
RTVSPropertyOp16
 70
     1
102
RTVSPropertyOp17
 70
     1
102
RTVSPropertyOp18
 70
     1
102
RTVSPropertyOp19
 70
     1
102
RTVSPropertyOp20
 70
     1
102
RTVSPropertyOp21
 70
     1
102
RTVSPropertyOp22
 70
     1
102
RTVSPropertyOp23
 70
     1
102
RTVSPropertyOp24
 70
     1
102
RTVSPropertyOp25
 70
     1
102
RTVSPropertyOp26
 70
     1
102
RTVSPropertyOp27
 70
     1
  0
XRECORD
  5
E10
102
{ACAD_REACTORS
330
E0F
102
}
330
E0F
100
AcDbXrecord
280
     1
102
RTVSPropertyOp0
 70
     1
102
RTVSPropertyOp1
 70
     1
102
RTVSPropertyOp2
 70
     1
102
RTVSPropertyOp3
 70
     1
102
RTVSPropertyOp4
 70
     1
102
RTVSPropertyOp5
 70
     1
102
RTVSPropertyOp6
 70
     1
102
RTVSPropertyOp7
 70
     1
102
RTVSPropertyOp8
 70
     1
102
RTVSPropertyOp9
 70
     1
102
RTVSPropertyOp10
 70
     1
102
RTVSPropertyOp11
 70
     1
102
RTVSPropertyOp12
 70
     1
102
RTVSPropertyOp13
 70
     1
102
RTVSPropertyOp14
 70
     1
102
RTVSPropertyOp15
 70
     1
102
RTVSPropertyOp16
 70
     1
102
RTVSPropertyOp17
 70
     1
102
RTVSPropertyOp18
 70
     1
102
RTVSPropertyOp19
 70
     1
102
RTVSPropertyOp20
 70
     1
102
RTVSPropertyOp21
 70
     1
102
RTVSPropertyOp22
 70
     1
102
RTVSPropertyOp23
 70
     1
102
RTVSPropertyOp24
 70
     1
102
RTVSPropertyOp25
 70
     1
102
RTVSPropertyOp26
 70
     1
102
RTVSPropertyOp27
 70
     1
  0
XRECORD
  5
E12
102
{ACAD_REACTORS
330
E11
102
}
330
E11
100
AcDbXrecord
280
     1
102
RTVSPropertyOp0
 70
     1
102
RTVSPropertyOp1
 70
     1
102
RTVSPropertyOp2
 70
     1
102
RTVSPropertyOp3
 70
     1
102
RTVSPropertyOp4
 70
     1
102
RTVSPropertyOp5
 70
     1
102
RTVSPropertyOp6
 70
     1
102
RTVSPropertyOp7
 70
     1
102
RTVSPropertyOp8
 70
     1
102
RTVSPropertyOp9
 70
     1
102
RTVSPropertyOp10
 70
     1
102
RTVSPropertyOp11
 70
     1
102
RTVSPropertyOp12
 70
     1
102
RTVSPropertyOp13
 70
     1
102
RTVSPropertyOp14
 70
     1
102
RTVSPropertyOp15
 70
     1
102
RTVSPropertyOp16
 70
     1
102
RTVSPropertyOp17
 70
     1
102
RTVSPropertyOp18
 70
     1
102
RTVSPropertyOp19
 70
     1
102
RTVSPropertyOp20
 70
     1
102
RTVSPropertyOp21
 70
     1
102
RTVSPropertyOp22
 70
     1
102
RTVSPropertyOp23
 70
     1
102
RTVSPropertyOp24
 70
     1
102
RTVSPropertyOp25
 70
     1
102
RTVSPropertyOp26
 70
     1
102
RTVSPropertyOp27
 70
     1
  0
XRECORD
  5
E1A
102
{ACAD_REACTORS
330
E19
102
}
330
E19
100
AcDbXrecord
280
     1
102
RTVSPropertyOp0
 70
     1
102
RTVSPropertyOp1
 70
     1
102
RTVSPropertyOp2
 70
     1
102
RTVSPropertyOp3
 70
     1
102
RTVSPropertyOp4
 70
     1
102
RTVSPropertyOp5
 70
     1
102
RTVSPropertyOp6
 70
     1
102
RTVSPropertyOp7
 70
     1
102
RTVSPropertyOp8
 70
     1
102
RTVSPropertyOp9
 70
     1
102
RTVSPropertyOp10
 70
     1
102
RTVSPropertyOp11
 70
     1
102
RTVSPropertyOp12
 70
     1
102
RTVSPropertyOp13
 70
     1
102
RTVSPropertyOp14
 70
     1
102
RTVSPropertyOp15
 70
     1
102
RTVSPropertyOp16
 70
     1
102
RTVSPropertyOp17
 70
     1
102
RTVSPropertyOp18
 70
     1
102
RTVSPropertyOp19
 70
     1
102
RTVSPropertyOp20
 70
     1
102
RTVSPropertyOp21
 70
     1
102
RTVSPropertyOp22
 70
     1
102
RTVSPropertyOp23
 70
     1
102
RTVSPropertyOp24
 70
     1
102
RTVSPropertyOp25
 70
     1
102
RTVSPropertyOp26
 70
     1
102
RTVSPropertyOp27
 70
     1
  0
XRECORD
  5
DFE
102
{ACAD_REACTORS
330
DFD
102
}
330
DFD
100
AcDbXrecord
280
     1
102
RTVSPropertyOp0
 70
     1
102
RTVSPropertyOp1
 70
     1
102
RTVSPropertyOp2
 70
     1
102
RTVSPropertyOp3
 70
     1
102
RTVSPropertyOp4
 70
     1
102
RTVSPropertyOp5
 70
     1
102
RTVSPropertyOp6
 70
     1
102
RTVSPropertyOp7
 70
     1
102
RTVSPropertyOp8
 70
     1
102
RTVSPropertyOp9
 70
     1
102
RTVSPropertyOp10
 70
     1
102
RTVSPropertyOp11
 70
     1
102
RTVSPropertyOp12
 70
     1
102
RTVSPropertyOp13
 70
     1
102
RTVSPropertyOp14
 70
     1
102
RTVSPropertyOp15
 70
     1
102
RTVSPropertyOp16
 70
     1
102
RTVSPropertyOp17
 70
     1
102
RTVSPropertyOp18
 70
     1
102
RTVSPropertyOp19
 70
     1
102
RTVSPropertyOp20
 70
     1
102
RTVSPropertyOp21
 70
     1
102
RTVSPropertyOp22
 70
     1
102
RTVSPropertyOp23
 70
     1
102
RTVSPropertyOp24
 70
     1
102
RTVSPropertyOp25
 70
     1
102
RTVSPropertyOp26
 70
     1
102
RTVSPropertyOp27
 70
     1
  0
XRECORD
  5
E00
102
{ACAD_REACTORS
330
DFF
102
}
330
DFF
100
AcDbXrecord
280
     1
102
RTVSPropertyOp0
 70
     1
102
RTVSPropertyOp1
 70
     1
102
RTVSPropertyOp2
 70
     1
102
RTVSPropertyOp3
 70
     1
102
RTVSPropertyOp4
 70
     1
102
RTVSPropertyOp5
 70
     1
102
RTVSPropertyOp6
 70
     1
102
RTVSPropertyOp7
 70
     1
102
RTVSPropertyOp8
 70
     1
102
RTVSPropertyOp9
 70
     1
102
RTVSPropertyOp10
 70
     1
102
RTVSPropertyOp11
 70
     1
102
RTVSPropertyOp12
 70
     1
102
RTVSPropertyOp13
 70
     1
102
RTVSPropertyOp14
 70
     1
102
RTVSPropertyOp15
 70
     1
102
RTVSPropertyOp16
 70
     1
102
RTVSPropertyOp17
 70
     1
102
RTVSPropertyOp18
 70
     1
102
RTVSPropertyOp19
 70
     1
102
RTVSPropertyOp20
 70
     1
102
RTVSPropertyOp21
 70
     1
102
RTVSPropertyOp22
 70
     1
102
RTVSPropertyOp23
 70
     1
102
RTVSPropertyOp24
 70
     1
102
RTVSPropertyOp25
 70
     1
102
RTVSPropertyOp26
 70
     1
102
RTVSPropertyOp27
 70
     1
  0
XRECORD
  5
E02
102
{ACAD_REACTORS
330
E01
102
}
330
E01
100
AcDbXrecord
280
     1
102
RTVSPropertyOp0
 70
     1
102
RTVSPropertyOp1
 70
     1
102
RTVSPropertyOp2
 70
     1
102
RTVSPropertyOp3
 70
     1
102
RTVSPropertyOp4
 70
     1
102
RTVSPropertyOp5
 70
     1
102
RTVSPropertyOp6
 70
     1
102
RTVSPropertyOp7
 70
     1
102
RTVSPropertyOp8
 70
     1
102
RTVSPropertyOp9
 70
     1
102
RTVSPropertyOp10
 70
     1
102
RTVSPropertyOp11
 70
     1
102
RTVSPropertyOp12
 70
     1
102
RTVSPropertyOp13
 70
     1
102
RTVSPropertyOp14
 70
     1
102
RTVSPropertyOp15
 70
     1
102
RTVSPropertyOp16
 70
     1
102
RTVSPropertyOp17
 70
     1
102
RTVSPropertyOp18
 70
     1
102
RTVSPropertyOp19
 70
     1
102
RTVSPropertyOp20
 70
     1
102
RTVSPropertyOp21
 70
     1
102
RTVSPropertyOp22
 70
     1
102
RTVSPropertyOp23
 70
     1
102
RTVSPropertyOp24
 70
     1
102
RTVSPropertyOp25
 70
     1
102
RTVSPropertyOp26
 70
     1
102
RTVSPropertyOp27
 70
     1
  0
XRECORD
  5
E04
102
{ACAD_REACTORS
330
E03
102
}
330
E03
100
AcDbXrecord
280
     1
102
RTVSPropertyOp0
 70
     1
102
RTVSPropertyOp1
 70
     1
102
RTVSPropertyOp2
 70
     1
102
RTVSPropertyOp3
 70
     1
102
RTVSPropertyOp4
 70
     1
102
RTVSPropertyOp5
 70
     1
102
RTVSPropertyOp6
 70
     1
102
RTVSPropertyOp7
 70
     1
102
RTVSPropertyOp8
 70
     1
102
RTVSPropertyOp9
 70
     1
102
RTVSPropertyOp10
 70
     1
102
RTVSPropertyOp11
 70
     1
102
RTVSPropertyOp12
 70
     1
102
RTVSPropertyOp13
 70
     1
102
RTVSPropertyOp14
 70
     1
102
RTVSPropertyOp15
 70
     1
102
RTVSPropertyOp16
 70
     1
102
RTVSPropertyOp17
 70
     1
102
RTVSPropertyOp18
 70
     1
102
RTVSPropertyOp19
 70
     1
102
RTVSPropertyOp20
 70
     1
102
RTVSPropertyOp21
 70
     1
102
RTVSPropertyOp22
 70
     1
102
RTVSPropertyOp23
 70
     1
102
RTVSPropertyOp24
 70
     1
102
RTVSPropertyOp25
 70
     1
102
RTVSPropertyOp26
 70
     1
102
RTVSPropertyOp27
 70
     1
  0
XRECORD
  5
E18
102
{ACAD_REACTORS
330
E17
102
}
330
E17
100
AcDbXrecord
280
     1
102
RTVSPropertyOp0
 70
     1
102
RTVSPropertyOp1
 70
     1
102
RTVSPropertyOp2
 70
     1
102
RTVSPropertyOp3
 70
     1
102
RTVSPropertyOp4
 70
     1
102
RTVSPropertyOp5
 70
     1
102
RTVSPropertyOp6
 70
     1
102
RTVSPropertyOp7
 70
     1
102
RTVSPropertyOp8
 70
     1
102
RTVSPropertyOp9
 70
     1
102
RTVSPropertyOp10
 70
     1
102
RTVSPropertyOp11
 70
     1
102
RTVSPropertyOp12
 70
     1
102
RTVSPropertyOp13
 70
     1
102
RTVSPropertyOp14
 70
     1
102
RTVSPropertyOp15
 70
     1
102
RTVSPropertyOp16
 70
     1
102
RTVSPropertyOp17
 70
     1
102
RTVSPropertyOp18
 70
     1
102
RTVSPropertyOp19
 70
     1
102
RTVSPropertyOp20
 70
     1
102
RTVSPropertyOp21
 70
     1
102
RTVSPropertyOp22
 70
     1
102
RTVSPropertyOp23
 70
     1
102
RTVSPropertyOp24
 70
     1
102
RTVSPropertyOp25
 70
     1
102
RTVSPropertyOp26
 70
     1
102
RTVSPropertyOp27
 70
     1
  0
XRECORD
  5
E0E
102
{ACAD_REACTORS
330
E0D
102
}
330
E0D
100
AcDbXrecord
280
     1
102
RTVSPropertyOp0
 70
     1
102
RTVSPropertyOp1
 70
     1
102
RTVSPropertyOp2
 70
     1
102
RTVSPropertyOp3
 70
     1
102
RTVSPropertyOp4
 70
     1
102
RTVSPropertyOp5
 70
     1
102
RTVSPropertyOp6
 70
     1
102
RTVSPropertyOp7
 70
     1
102
RTVSPropertyOp8
 70
     1
102
RTVSPropertyOp9
 70
     1
102
RTVSPropertyOp10
 70
     1
102
RTVSPropertyOp11
 70
     1
102
RTVSPropertyOp12
 70
     1
102
RTVSPropertyOp13
 70
     1
102
RTVSPropertyOp14
 70
     1
102
RTVSPropertyOp15
 70
     1
102
RTVSPropertyOp16
 70
     1
102
RTVSPropertyOp17
 70
     1
102
RTVSPropertyOp18
 70
     1
102
RTVSPropertyOp19
 70
     1
102
RTVSPropertyOp20
 70
     1
102
RTVSPropertyOp21
 70
     1
102
RTVSPropertyOp22
 70
     1
102
RTVSPropertyOp23
 70
     1
102
RTVSPropertyOp24
 70
     1
102
RTVSPropertyOp25
 70
     1
102
RTVSPropertyOp26
 70
     1
102
RTVSPropertyOp27
 70
     1
  0
XRECORD
  5
E16
102
{ACAD_REACTORS
330
E15
102
}
330
E15
100
AcDbXrecord
280
     1
102
RTVSPropertyOp0
 70
     1
102
RTVSPropertyOp1
 70
     1
102
RTVSPropertyOp2
 70
     1
102
RTVSPropertyOp3
 70
     1
102
RTVSPropertyOp4
 70
     1
102
RTVSPropertyOp5
 70
     1
102
RTVSPropertyOp6
 70
     1
102
RTVSPropertyOp7
 70
     1
102
RTVSPropertyOp8
 70
     1
102
RTVSPropertyOp9
 70
     1
102
RTVSPropertyOp10
 70
     1
102
RTVSPropertyOp11
 70
     1
102
RTVSPropertyOp12
 70
     1
102
RTVSPropertyOp13
 70
     1
102
RTVSPropertyOp14
 70
     1
102
RTVSPropertyOp15
 70
     1
102
RTVSPropertyOp16
 70
     1
102
RTVSPropertyOp17
 70
     1
102
RTVSPropertyOp18
 70
     1
102
RTVSPropertyOp19
 70
     1
102
RTVSPropertyOp20
 70
     1
102
RTVSPropertyOp21
 70
     1
102
RTVSPropertyOp22
 70
     1
102
RTVSPropertyOp23
 70
     1
102
RTVSPropertyOp24
 70
     1
102
RTVSPropertyOp25
 70
     1
102
RTVSPropertyOp26
 70
     1
102
RTVSPropertyOp27
 70
     1
  0
ENDSEC
  0
EOF
