  0
SECTION
  2
HEADER
  9
$ACADVER
  1
AC1015
  9
$ACADMAINTVER
 70
     6
  9
$DWGCODEPAGE
  3
ANSI_1252
  9
$INSBASE
 10
0.0
 20
0.0
 30
0.0
  9
$EXTMIN
 10
0.0
 20
0.0
 30
0.0
  9
$EXTMAX
 10
25.0
 20
35.0
 30
0.0
  9
$LIMMIN
 10
0.0
 20
0.0
  9
$LIMMAX
 10
420.0
 20
297.0
  9
$ORTHOMODE
 70
     0
  9
$REGENMODE
 70
     1
  9
$FILLMODE
 70
     1
  9
$QTEXTMODE
 70
     0
  9
$MIRRTEXT
 70
     1
  9
$LTSCALE
 40
4.2
  9
$ATTMODE
 70
     1
  9
$TEXTSIZE
 40
2.5
  9
$TRACEWID
 40
1.0
  9
$TEXTSTYLE
  7
Standard
  9
$CLAYER
  8
0
  9
$CELTYPE
  6
ByLayer
  9
$CECOLOR
 62
   256
  9
$CELTSCALE
 40
1.0
  9
$DISPSILH
 70
     0
  9
$DIMSCALE
 40
1.0
  9
$DIMASZ
 40
2.5
  9
$DIMEXO
 40
0.625
  9
$DIMDLI
 40
3.75
  9
$DIMRND
 40
0.0
  9
$DIMDLE
 40
0.0
  9
$DIMEXE
 40
1.25
  9
$DIMTP
 40
0.0
  9
$DIMTM
 40
0.0
  9
$DIMTXT
 40
2.5
  9
$DIMCEN
 40
2.5
  9
$DIMTSZ
 40
0.0
  9
$DIMTOL
 70
     0
  9
$DIMLIM
 70
     0
  9
$DIMTIH
 70
     0
  9
$DIMTOH
 70
     0
  9
$DIMSE1
 70
     0
  9
$DIMSE2
 70
     0
  9
$DIMTAD
 70
     1
  9
$DIMZIN
 70
     8
  9
$DIMBLK
  1

  9
$DIMASO
 70
     1
  9
$DIMSHO
 70
     1
  9
$DIMPOST
  1

  9
$DIMAPOST
  1

  9
$DIMALT
 70
     0
  9
$DIMALTD
 70
     3
  9
$DIMALTF
 40
0.03937007874016
  9
$DIMLFAC
 40
1.0
  9
$DIMTOFL
 70
     1
  9
$DIMTVP
 40
0.0
  9
$DIMTIX
 70
     0
  9
$DIMSOXD
 70
     0
  9
$DIMSAH
 70
     0
  9
$DIMBLK1
  1

  9
$DIMBLK2
  1

  9
$DIMSTYLE
  2
ISO-25
  9
$DIMCLRD
 70
     0
  9
$DIMCLRE
 70
     0
  9
$DIMCLRT
 70
     0
  9
$DIMTFAC
 40
1.0
  9
$DIMGAP
 40
0.625
  9
$DIMJUST
 70
     0
  9
$DIMSD1
 70
     0
  9
$DIMSD2
 70
     0
  9
$DIMTOLJ
 70
     0
  9
$DIMTZIN
 70
     8
  9
$DIMALTZ
 70
     0
  9
$DIMALTTZ
 70
     0
  9
$DIMUPT
 70
     0
  9
$DIMDEC
 70
     2
  9
$DIMTDEC
 70
     2
  9
$DIMALTU
 70
     2
  9
$DIMALTTD
 70
     3
  9
$DIMTXSTY
  7
Standard
  9
$DIMAUNIT
 70
     0
  9
$DIMADEC
 70
     0
  9
$DIMALTRND
 40
0.0
  9
$DIMAZIN
 70
     0
  9
$DIMDSEP
 70
    44
  9
$DIMATFIT
 70
     3
  9
$DIMFRAC
 70
     0
  9
$DIMLDRBLK
  1

  9
$DIMLUNIT
 70
     2
  9
$DIMLWD
 70
    -2
  9
$DIMLWE
 70
    -2
  9
$DIMTMOVE
 70
     0
  9
$LUNITS
 70
     2
  9
$LUPREC
 70
     4
  9
$SKETCHINC
 40
1.0
  9
$FILLETRAD
 40
10.0
  9
$AUNITS
 70
     0
  9
$AUPREC
 70
     0
  9
$MENU
  1
.
  9
$ELEVATION
 40
0.0
  9
$PELEVATION
 40
0.0
  9
$THICKNESS
 40
0.0
  9
$LIMCHECK
 70
     0
  9
$CHAMFERA
 40
10.0
  9
$CHAMFERB
 40
10.0
  9
$CHAMFERC
 40
20.0
  9
$CHAMFERD
 40
0.0
  9
$SKPOLY
 70
     0
  9
$TDCREATE
 40
2458577.760416667
  9
$TDUCREATE
 40
2458577.677083333
  9
$TDUPDATE
 40
2458577.763888889
  9
$TDUUPDATE
 40
2458577.680555556
  9
$TDINDWG
 40
0.0000000116
  9
$TDUSRTIMER
 40
0.0000000116
  9
$USRTIMER
 70
     1
  9
$ANGBASE
 50
0.0
  9
$ANGDIR
 70
     0
  9
$PDMODE
 70
     0
  9
$PDSIZE
 40
0.0
  9
$PLINEWID
 40
0.0
  9
$SPLFRAME
 70
     0
  9
$SPLINETYPE
 70
     6
  9
$SPLINESEGS
 70
     8
  9
$HANDSEED
  5
D0D
  9
$SURFTAB1
 70
     6
  9
$SURFTAB2
 70
     6
  9
$SURFTYPE
 70
     6
  9
$SURFU
 70
     6
  9
$SURFV
 70
     6
  9
$UCSBASE
  2

  9
$UCSNAME
  2

  9
$UCSORG
 10
0.0
 20
0.0
 30
0.0
  9
$UCSXDIR
 10
1.0
 20
0.0
 30
0.0
  9
$UCSYDIR
 10
0.0
 20
1.0
 30
0.0
  9
$UCSORTHOREF
  2

  9
$UCSORTHOVIEW
 70
     0
  9
$UCSORGTOP
 10
0.0
 20
0.0
 30
0.0
  9
$UCSORGBOTTOM
 10
0.0
 20
0.0
 30
0.0
  9
$UCSORGLEFT
 10
0.0
 20
0.0
 30
0.0
  9
$UCSORGRIGHT
 10
0.0
 20
0.0
 30
0.0
  9
$UCSORGFRONT
 10
0.0
 20
0.0
 30
0.0
  9
$UCSORGBACK
 10
0.0
 20
0.0
 30
0.0
  9
$PUCSBASE
  2

  9
$PUCSNAME
  2

  9
$PUCSORG
 10
0.0
 20
0.0
 30
0.0
  9
$PUCSXDIR
 10
1.0
 20
0.0
 30
0.0
  9
$PUCSYDIR
 10
0.0
 20
1.0
 30
0.0
  9
$PUCSORTHOREF
  2

  9
$PUCSORTHOVIEW
 70
     0
  9
$PUCSORGTOP
 10
0.0
 20
0.0
 30
0.0
  9
$PUCSORGBOTTOM
 10
0.0
 20
0.0
 30
0.0
  9
$PUCSORGLEFT
 10
0.0
 20
0.0
 30
0.0
  9
$PUCSORGRIGHT
 10
0.0
 20
0.0
 30
0.0
  9
$PUCSORGFRONT
 10
0.0
 20
0.0
 30
0.0
  9
$PUCSORGBACK
 10
0.0
 20
0.0
 30
0.0
  9
$USERI1
 70
     0
  9
$USERI2
 70
     0
  9
$USERI3
 70
     0
  9
$USERI4
 70
     0
  9
$USERI5
 70
     0
  9
$USERR1
 40
0.0
  9
$USERR2
 40
0.0
  9
$USERR3
 40
0.0
  9
$USERR4
 40
0.0
  9
$USERR5
 40
0.0
  9
$WORLDVIEW
 70
     1
  9
$SHADEDGE
 70
     3
  9
$SHADEDIF
 70
    70
  9
$TILEMODE
 70
     1
  9
$MAXACTVP
 70
    64
  9
$PINSBASE
 10
0.0
 20
0.0
 30
0.0
  9
$PLIMCHECK
 70
     0
  9
$PEXTMIN
 10
1.000000000000000E+20
 20
1.000000000000000E+20
 30
1.000000000000000E+20
  9
$PEXTMAX
 10
-1.000000000000000E+20
 20
-1.000000000000000E+20
 30
-1.000000000000000E+20
  9
$PLIMMIN
 10
0.0
 20
0.0
  9
$PLIMMAX
 10
420.0
 20
297.0
  9
$UNITMODE
 70
     0
  9
$VISRETAIN
 70
     1
  9
$PLINEGEN
 70
     0
  9
$PSLTSCALE
 70
     1
  9
$TREEDEPTH
 70
  3020
  9
$CMLSTYLE
  2
Standard
  9
$CMLJUST
 70
     0
  9
$CMLSCALE
 40
20.0
  9
$PROXYGRAPHICS
 70
     1
  9
$MEASUREMENT
 70
     1
  9
$CELWEIGHT
370
    -1
  9
$ENDCAPS
280
     0
  9
$JOINSTYLE
280
     0
  9
$LWDISPLAY
290
     0
  9
$INSUNITS
 70
     4
  9
$HYPERLINKBASE
  1

  9
$STYLESHEET
  1

  9
$XEDIT
290
     1
  9
$CEPSNTYPE
380
     0
  9
$PSTYLEMODE
290
     1
  9
$FINGERPRINTGUID
  2
{48EB4683-58CD-412A-BD8A-9A27DB51A5A8}
  9
$VERSIONGUID
  2
{FAEB1C32-E019-11D5-929B-00C0DF256EC4}
  9
$EXTNAMES
290
     1
  9
$PSVPSCALE
 40
0.0
  9
$OLESTARTUP
290
     0
  0
ENDSEC
  0
SECTION
  2
CLASSES
  0
CLASS
  1
ACDBDICTIONARYWDFLT
  2
AcDbDictionaryWithDefault
  3
ObjectDBX Classes
 90
        0
280
     0
281
     0
  0
CLASS
  1
VISUALSTYLE
  2
AcDbVisualStyle
  3
ObjectDBX Classes
 90
     4095
280
     0
281
     0
  0
CLASS
  1
MATERIAL
  2
AcDbMaterial
  3
ObjectDBX Classes
 90
     1153
280
     0
281
     0
  0
CLASS
  1
SCALE
  2
AcDbScale
  3
ObjectDBX Classes
 90
     1153
280
     0
281
     0
  0
CLASS
  1
DICTIONARYVAR
  2
AcDbDictionaryVar
  3
ObjectDBX Classes
 90
        0
280
     0
281
     0
  0
CLASS
  1
ACDBPLACEHOLDER
  2
AcDbPlaceHolder
  3
ObjectDBX Classes
 90
        0
280
     0
281
     0
  0
CLASS
  1
LAYOUT
  2
AcDbLayout
  3
ObjectDBX Classes
 90
        0
280
     0
281
     0
  0
ENDSEC
  0
SECTION
  2
TABLES
  0
TABLE
  2
VPORT
  5
8
330
0
100
AcDbSymbolTable
 70
     1
  0
VPORT
  5
29
330
8
100
AcDbSymbolTableRecord
100
AcDbViewportTableRecord
  2
*Active
 70
     0
 10
0.0
 20
0.0
 11
1.0
 21
1.0
 12
11.26
 22
4.5
 13
0.0
 23
0.0
 14
10.0
 24
10.0
 15
10.0
 25
10.0
 16
0.0
 26
0.0
 36
1.0
 17
0.0
 27
0.0
 37
0.0
 40
9.0
 41
2.503333333333333
 42
50.0
 43
0.0
 44
0.0
 50
0.0
 51
0.0
 71
     0
 72
   100
 73
     1
 74
     3
 75
     0
 76
     0
 77
     0
 78
     0
281
     0
 65
     1
110
0.0
120
0.0
130
0.0
111
1.0
121
0.0
131
0.0
112
0.0
122
1.0
132
0.0
 79
     0
146
0.0
  0
ENDTAB
  0
TABLE
  2
LTYPE
  5
5
330
0
100
AcDbSymbolTable
 70
    10
  0
LTYPE
  5
14
330
5
100
AcDbSymbolTableRecord
100
AcDbLinetypeTableRecord
  2
ByBlock
 70
     0
  3

 72
    65
 73
     0
 40
0.0
  0
LTYPE
  5
15
330
5
100
AcDbSymbolTableRecord
100
AcDbLinetypeTableRecord
  2
ByLayer
 70
     0
  3

 72
    65
 73
     0
 40
0.0
  0
LTYPE
  5
16
330
5
100
AcDbSymbolTableRecord
100
AcDbLinetypeTableRecord
  2
Continuous
 70
     0
  3
Solid line
 72
    65
 73
     0
 40
0.0
  0
LTYPE
  5
45
330
5
100
AcDbSymbolTableRecord
100
AcDbLinetypeTableRecord
  2
phl_thick
 70
     0
  3
THICK
 72
    65
 73
     0
 40
0.0
  0
LTYPE
  5
3EE
330
5
100
AcDbSymbolTableRecord
100
AcDbLinetypeTableRecord
  2
CUT
 70
     0
  3
THICK
 72
    65
 73
     0
 40
0.0
  0
LTYPE
  5
3F5
330
5
100
AcDbSymbolTableRecord
100
AcDbLinetypeTableRecord
  2
NOCUT
 70
     0
  3
THICK
 72
    65
 73
     0
 40
0.0
  0
LTYPE
  5
3FC
330
5
100
AcDbSymbolTableRecord
100
AcDbLinetypeTableRecord
  2
SK1
 70
     0
  3
THICK
 72
    65
 73
     0
 40
0.0
  0
LTYPE
  5
404
330
5
100
AcDbSymbolTableRecord
100
AcDbLinetypeTableRecord
  2
ls_SK2
 70
     0
  3
THIN
 72
    65
 73
     0
 40
0.0
  0
LTYPE
  5
4AF
330
5
100
AcDbSymbolTableRecord
100
AcDbLinetypeTableRecord
  2
ls_2
 70
     0
  3
THIN
 72
    65
 73
     0
 40
0.0
  0
LTYPE
  5
662
330
5
100
AcDbSymbolTableRecord
100
AcDbLinetypeTableRecord
  2
ls_SK1
 70
     0
  3
THICK
 72
    65
 73
     0
 40
0.0
  0
LTYPE
  5
69C
330
5
100
AcDbSymbolTableRecord
100
AcDbLinetypeTableRecord
  2
LONGDASH_DASH
 70
     0
  3
THIN_DASHDOT
 72
    65
 73
     4
 40
0.85
 49
0.4
 74
     0
 49
-0.2
 74
     0
 49
0.05
 74
     0
 49
-0.2
 74
     0
  0
LTYPE
  5
6A1
330
5
100
AcDbSymbolTableRecord
100
AcDbLinetypeTableRecord
  2
ls1
 70
     0
  3
THICK
 72
    65
 73
     0
 40
0.0
  0
ENDTAB
  0
TABLE
  2
LAYER
  5
2
330
0
100
AcDbSymbolTable
 70
    10
  0
LAYER
  5
10
330
2
100
AcDbSymbolTableRecord
100
AcDbLayerTableRecord
  2
0
 70
     0
 62
     7
  6
Continuous
370
    -3
390
F
  0
LAYER
  5
44
330
2
100
AcDbSymbolTableRecord
100
AcDbLayerTableRecord
  2
1
 70
     0
 62
4
  6
CONTINUOUS
370
50
370
    -3
390
F
  0
LAYER
  5
3ED
330
2
100
AcDbSymbolTableRecord
100
AcDbLayerTableRecord
  2
CUT
 70
     0
 62
1
  6
CONTINUOUS
370
25
370
    -3
390
F
  0
LAYER
  5
3F4
330
2
100
AcDbSymbolTableRecord
100
AcDbLayerTableRecord
  2
NOCUT
 70
     0
 62
7
  6
CONTINUOUS
370
25
370
    -3
390
F
  0
LAYER
  5
3FB
330
2
100
AcDbSymbolTableRecord
100
AcDbLayerTableRecord
  2
SK1
 70
     0
 62
4
  6
CONTINUOUS
370
50
370
    -3
390
F
  0
LAYER
  5
403
330
2
100
AcDbSymbolTableRecord
100
AcDbLayerTableRecord
  2
SK2
 70
     0
 62
7
  6
CONTINUOUS
370
25
370
    -3
390
F
  0
LAYER
  5
4AE
330
2
100
AcDbSymbolTableRecord
100
AcDbLayerTableRecord
  2
2
 70
     0
 62
7
  6
CONTINUOUS
370
25
370
    -3
390
F
  0
LAYER
  5
69B
330
2
100
AcDbSymbolTableRecord
100
AcDbLayerTableRecord
  2
4
 70
     0
 62
2
  6
LONGDASH_DASH
370
25
370
    -3
390
F
  0
LAYER
  5
69E
330
2
100
AcDbSymbolTableRecord
100
AcDbLayerTableRecord
  2
SK4
 70
     0
 62
2
  6
LONGDASH_DASH
370
25
370
    -3
390
F
  0
LAYER
  5
6A0
330
2
100
AcDbSymbolTableRecord
100
AcDbLayerTableRecord
  2
SK6
 70
     0
 62
5
  6
CONTINUOUS
370
25
370
    -3
390
F
  0
ENDTAB
  0
TABLE
  2
STYLE
  5
3
330
0
100
AcDbSymbolTable
 70
     1
  0
STYLE
  5
11
330
3
100
AcDbSymbolTableRecord
100
AcDbTextStyleTableRecord
  2
Standard
 70
     0
 40
0.0
 41
1.0
 50
0.0
 71
     0
 42
2.5
  3
Monospac821 BT
  4

  0
ENDTAB
  0
TABLE
  2
VIEW
  5
6
330
0
100
AcDbSymbolTable
 70
     0
  0
ENDTAB
  0
TABLE
  2
UCS
  5
7
330
0
100
AcDbSymbolTable
 70
     0
  0
ENDTAB
  0
TABLE
  2
APPID
  5
9
330
0
100
AcDbSymbolTable
 70
     2
  0
APPID
  5
12
330
9
100
AcDbSymbolTableRecord
100
AcDbRegAppTableRecord
  2
ACAD
 70
     0
  0
APPID
  5
3F
330
9
100
AcDbSymbolTableRecord
100
AcDbRegAppTableRecord
  2
ccLab
 70
     0
  0
ENDTAB
  0
TABLE
  2
DIMSTYLE
  5
A
330
0
100
AcDbSymbolTable
 70
     1
100
AcDbDimStyleTable
  0
DIMSTYLE
105
27
330
A
100
AcDbSymbolTableRecord
100
AcDbDimStyleTableRecord
  2
ISO-25
 70
     0
 41
2.5
 42
0.625
 43
3.75
 44
1.25
 73
     0
 74
     0
 77
     1
 78
     8
140
2.5
141
2.5
143
0.03937007874016
147
0.625
171
     3
172
     1
271
     2
272
     2
274
     3
278
    44
283
     0
284
     8
340
11
  0
ENDTAB
  0
TABLE
  2
BLOCK_RECORD
  5
1
330
0
100
AcDbSymbolTable
 70
     2
  0
BLOCK_RECORD
  5
1F
330
1
100
AcDbSymbolTableRecord
100
AcDbBlockTableRecord
  2
*Model_Space
340
22
  0
BLOCK_RECORD
  5
1B
330
1
100
AcDbSymbolTableRecord
100
AcDbBlockTableRecord
  2
*Paper_Space
340
1E
  0
BLOCK_RECORD
  5
23
330
1
100
AcDbSymbolTableRecord
100
AcDbBlockTableRecord
  2
*Paper_Space0
340
26
  0
ENDTAB
  0
ENDSEC
  0
SECTION
  2
BLOCKS
  0
BLOCK
  5
20
330
1F
100
AcDbEntity
  8
0
100
AcDbBlockBegin
  2
*Model_Space
 70
     0
 10
0.0
 20
0.0
 30
0.0
  3
*Model_Space
  1

  0
ENDBLK
  5
21
330
1F
100
AcDbEntity
  8
0
100
AcDbBlockEnd
  0
BLOCK
  5
1C
330
1B
100
AcDbEntity
 67
     1
  8
0
100
AcDbBlockBegin
  2
*Paper_Space
 70
     0
 10
0.0
 20
0.0
 30
0.0
  3
*Paper_Space
  1

  0
ENDBLK
  5
1D
330
1B
100
AcDbEntity
 67
     1
  8
0
100
AcDbBlockEnd
  0
BLOCK
  5
24
330
23
100
AcDbEntity
  8
0
100
AcDbBlockBegin
  2
*Paper_Space0
 70
     0
 10
0.0
 20
0.0
 30
0.0
  3
*Paper_Space0
  1

  0
ENDBLK
  5
25
330
23
100
AcDbEntity
  8
0
100
AcDbBlockEnd
  0
ENDSEC
  0
SECTION
  2
ENTITIES
  0
LINE
  5
6AB
330
1F
100
AcDbEntity
  8
1
  6
CONTINUOUS
370
50
 62
4
100
AcDbLine
 10
49.649506
 20
-0.604371
 30
0.0
 11
49.649372
 21
-0.565429
 31
0.0
  0
LINE
  5
6AC
330
1F
100
AcDbEntity
  8
1
  6
CONTINUOUS
370
50
 62
4
100
AcDbLine
 10
49.62804
 20
-1.273982
 30
0.0
 11
49.627495
 21
-1.155013
 31
0.0
  0
LINE
  5
6AD
330
1F
100
AcDbEntity
  8
1
  6
CONTINUOUS
370
50
 62
4
100
AcDbLine
 10
49.649372
 20
-0.565429
 30
0.0
 11
49.648643
 21
-0.526531
 31
0.0
  0
LINE
  5
6AE
330
1F
100
AcDbEntity
  8
1
  6
CONTINUOUS
370
50
 62
4
100
AcDbLine
 10
49.630814
 20
-1.392909
 30
0.0
 11
49.62804
 21
-1.273982
 31
0.0
  0
LINE
  5
6AF
330
1F
100
AcDbEntity
  8
1
  6
CONTINUOUS
370
50
 62
4
100
AcDbLine
 10
49.040001
 20
1.852463
 30
0.0
 11
49.039093
 21
1.884626
 31
0.0
  0
LINE
  5
6B0
330
1F
100
AcDbEntity
  8
1
  6
CONTINUOUS
370
50
 62
4
100
AcDbLine
 10
49.040001
 20
0.5229619999999999
 30
0.0
 11
49.039253
 21
0.547438
 31
0.0
  0
LINE
  5
6B1
330
1F
100
AcDbEntity
  8
1
  6
CONTINUOUS
370
50
 62
4
100
AcDbLine
 10
49.648643
 20
-0.526531
 30
0.0
 11
49.647343
 21
-0.487746
 31
0.0
  0
LINE
  5
6B2
330
1F
100
AcDbEntity
  8
1
  6
CONTINUOUS
370
50
 62
4
100
AcDbLine
 10
50.0
 20
2.499983
 30
0.0
 11
49.998817
 21
2.534384
 31
0.0
  0
LINE
  5
6B3
330
1F
100
AcDbEntity
  8
1
  6
CONTINUOUS
370
50
 62
4
100
AcDbLine
 10
49.635853
 20
-1.511518
 30
0.0
 11
49.630814
 21
-1.392909
 31
0.0
  0
LINE
  5
6B4
330
1F
100
AcDbEntity
  8
1
  6
CONTINUOUS
370
50
 62
4
100
AcDbLine
 10
49.647343
 20
-0.487746
 30
0.0
 11
49.645489
 21
-0.449143
 31
0.0
  0
LINE
  5
6B5
330
1F
100
AcDbEntity
  8
1
  6
CONTINUOUS
370
50
 62
4
100
AcDbLine
 10
49.643124
 20
-1.628629
 30
0.0
 11
49.635853
 21
-1.511518
 31
0.0
  0
LINE
  5
6B6
330
1F
100
AcDbEntity
  8
1
  6
CONTINUOUS
370
50
 62
4
100
AcDbLine
 10
49.645489
 20
-0.449143
 30
0.0
 11
49.643105
 21
-0.410791
 31
0.0
  0
LINE
  5
6B7
330
1F
100
AcDbEntity
  8
1
  6
CONTINUOUS
370
50
 62
4
100
AcDbLine
 10
49.039093
 20
1.884626
 30
0.0
 11
49.036777
 21
1.917973
 31
0.0
  0
LINE
  5
6B8
330
1F
100
AcDbEntity
  8
1
  6
CONTINUOUS
370
50
 62
4
100
AcDbLine
 10
49.039253
 20
0.547438
 30
0.0
 11
49.037399
 21
0.571453
 31
0.0
  0
LINE
  5
6B9
330
1F
100
AcDbEntity
  8
1
  6
CONTINUOUS
370
50
 62
4
100
AcDbLine
 10
49.652584
 20
-1.743702
 30
0.0
 11
49.643124
 21
-1.628629
 31
0.0
  0
LINE
  5
6BA
330
1F
100
AcDbEntity
  8
1
  6
CONTINUOUS
370
50
 62
4
100
AcDbLine
 10
39.217251
 20
-1.139277
 30
0.0
 11
39.213196
 21
-1.093014
 31
0.0
  0
LINE
  5
6BB
330
1F
100
AcDbEntity
  8
1
  6
CONTINUOUS
370
50
 62
4
100
AcDbLine
 10
49.664207
 20
-1.856523
 30
0.0
 11
49.652584
 21
-1.743702
 31
0.0
  0
LINE
  5
6BC
330
1F
100
AcDbEntity
  8
1
  6
CONTINUOUS
370
50
 62
4
100
AcDbLine
 10
49.998817
 20
2.534384
 30
0.0
 11
49.9953
 21
2.568379
 31
0.0
  0
LINE
  5
6BD
330
1F
100
AcDbEntity
  8
1
  6
CONTINUOUS
370
50
 62
4
100
AcDbLine
 10
49.036777
 20
1.917973
 30
0.0
 11
49.033085
 21
1.952439
 31
0.0
  0
LINE
  5
6BE
330
1F
100
AcDbEntity
  8
1
  6
CONTINUOUS
370
50
 62
4
100
AcDbLine
 10
49.677948
 20
-1.966879
 30
0.0
 11
49.664207
 21
-1.856523
 31
0.0
  0
LINE
  5
6BF
330
1F
100
AcDbEntity
  8
1
  6
CONTINUOUS
370
50
 62
4
100
AcDbLine
 10
49.037399
 20
0.571453
 30
0.0
 11
49.034454
 21
0.59498
 31
0.0
  0
LINE
  5
6C0
330
1F
100
AcDbEntity
  8
1
  6
CONTINUOUS
370
50
 62
4
100
AcDbLine
 10
49.033085
 20
1.952439
 30
0.0
 11
49.028023
 21
1.987957
 31
0.0
  0
LINE
  5
6C1
330
1F
100
AcDbEntity
  8
1
  6
CONTINUOUS
370
50
 62
4
100
AcDbLine
 10
49.693783
 20
-2.074558
 30
0.0
 11
49.677948
 21
-1.966879
 31
0.0
  0
LINE
  5
6C2
330
1F
100
AcDbEntity
  8
1
  6
CONTINUOUS
370
50
 62
4
100
AcDbLine
 10
49.71167
 20
-2.179332
 30
0.0
 11
49.693783
 21
-2.074558
 31
0.0
  0
LINE
  5
6C3
330
1F
100
AcDbEntity
  8
1
  6
CONTINUOUS
370
50
 62
4
100
AcDbLine
 10
49.9953
 20
2.568379
 30
0.0
 11
49.98950199999999
 21
2.601856
 31
0.0
  0
LINE
  5
6C4
330
1F
100
AcDbEntity
  8
1
  6
CONTINUOUS
370
50
 62
4
100
AcDbLine
 10
49.034454
 20
0.59498
 30
0.0
 11
49.03042199999999
 21
0.6179939999999999
 31
0.0
  0
LINE
  5
6C5
330
1F
100
AcDbEntity
  8
1
  6
CONTINUOUS
370
50
 62
4
100
AcDbLine
 10
49.028023
 20
1.987957
 30
0.0
 11
49.021618
 21
2.024461
 31
0.0
  0
LINE
  5
6C6
330
1F
100
AcDbEntity
  8
1
  6
CONTINUOUS
370
50
 62
4
100
AcDbLine
 10
39.22604
 20
-1.184504
 30
0.0
 11
39.217251
 21
-1.139277
 31
0.0
  0
LINE
  5
6C7
330
1F
100
AcDbEntity
  8
1
  6
CONTINUOUS
370
50
 62
4
100
AcDbLine
 10
49.731445
 20
-2.280386
 30
0.0
 11
49.71167
 21
-2.179332
 31
0.0
  0
LINE
  5
6C8
330
1F
100
AcDbEntity
  8
1
  6
CONTINUOUS
370
50
 62
4
100
AcDbLine
 10
49.021618
 20
2.024461
 30
0.0
 11
49.01388499999999
 21
2.061886
 31
0.0
  0
LINE
  5
6C9
330
1F
100
AcDbEntity
  8
1
  6
CONTINUOUS
370
50
 62
4
100
AcDbLine
 10
49.752972
 20
-2.377265
 30
0.0
 11
49.731445
 21
-2.280386
 31
0.0
  0
LINE
  5
6CA
330
1F
100
AcDbEntity
  8
1
  6
CONTINUOUS
370
50
 62
4
100
AcDbLine
 10
39.217674
 20
2.611055
 30
0.0
 11
39.213345
 21
2.630375
 31
0.0
  0
LINE
  5
6CB
330
1F
100
AcDbEntity
  8
1
  6
CONTINUOUS
370
50
 62
4
100
AcDbLine
 10
49.03042199999999
 20
0.6179939999999999
 30
0.0
 11
49.025326
 21
0.64047
 31
0.0
  0
LINE
  5
6CC
330
1F
100
AcDbEntity
  8
1
  6
CONTINUOUS
370
50
 62
4
100
AcDbLine
 10
49.01388499999999
 20
2.061886
 30
0.0
 11
49.004845
 21
2.100164
 31
0.0
  0
LINE
  5
6CD
330
1F
100
AcDbEntity
  8
1
  6
CONTINUOUS
370
50
 62
4
100
AcDbLine
 10
48.915695
 20
2.440254
 30
0.0
 11
48.903526
 21
2.490124
 31
0.0
  0
LINE
  5
6CE
330
1F
100
AcDbEntity
  8
1
  6
CONTINUOUS
370
50
 62
4
100
AcDbLine
 10
49.98950199999999
 20
2.601856
 30
0.0
 11
49.98148
 21
2.634691
 31
0.0
  0
LINE
  5
6CF
330
1F
100
AcDbEntity
  8
1
  6
CONTINUOUS
370
50
 62
4
100
AcDbLine
 10
48.928135
 20
2.390279
 30
0.0
 11
48.915695
 21
2.440254
 31
0.0
  0
LINE
  5
6D0
330
1F
100
AcDbEntity
  8
1
  6
CONTINUOUS
370
50
 62
4
100
AcDbLine
 10
49.776169
 20
-2.469868
 30
0.0
 11
49.752972
 21
-2.377265
 31
0.0
  0
LINE
  5
6D1
330
1F
100
AcDbEntity
  8
1
  6
CONTINUOUS
370
50
 62
4
100
AcDbLine
 10
48.940849
 20
2.340208
 30
0.0
 11
48.928135
 21
2.390279
 31
0.0
  0
LINE
  5
6D2
330
1F
100
AcDbEntity
  8
1
  6
CONTINUOUS
370
50
 62
4
100
AcDbLine
 10
48.953838
 20
2.290055
 30
0.0
 11
48.940849
 21
2.340208
 31
0.0
  0
LINE
  5
6D3
330
1F
100
AcDbEntity
  8
1
  6
CONTINUOUS
370
50
 62
4
100
AcDbLine
 10
48.96711
 20
2.239833
 30
0.0
 11
48.953838
 21
2.290055
 31
0.0
  0
LINE
  5
6D4
330
1F
100
AcDbEntity
  8
1
  6
CONTINUOUS
370
50
 62
4
100
AcDbLine
 10
49.004845
 20
2.100164
 30
0.0
 11
48.994518
 21
2.13923
 31
0.0
  0
LINE
  5
6D5
330
1F
100
AcDbEntity
  8
1
  6
CONTINUOUS
370
50
 62
4
100
AcDbLine
 10
48.980667
 20
2.189553
 30
0.0
 11
48.96711
 21
2.239833
 31
0.0
  0
LINE
  5
6D6
330
1F
100
AcDbEntity
  8
1
  6
CONTINUOUS
370
50
 62
4
100
AcDbLine
 10
48.994518
 20
2.13923
 30
0.0
 11
48.980667
 21
2.189553
 31
0.0
  0
LINE
  5
6D7
330
1F
100
AcDbEntity
  8
1
  6
CONTINUOUS
370
50
 62
4
100
AcDbLine
 10
49.025326
 20
0.64047
 30
0.0
 11
49.01917299999999
 21
0.6623819999999999
 31
0.0
  0
LINE
  5
6D8
330
1F
100
AcDbEntity
  8
1
  6
CONTINUOUS
370
50
 62
4
100
AcDbLine
 10
49.800957
 20
-2.558097
 30
0.0
 11
49.776169
 21
-2.469868
 31
0.0
  0
LINE
  5
6D9
330
1F
100
AcDbEntity
  8
1
  6
CONTINUOUS
370
50
 62
4
100
AcDbLine
 10
39.239208
 20
-1.228599
 30
0.0
 11
39.22604
 21
-1.184504
 31
0.0
  0
LINE
  5
6DA
330
1F
100
AcDbEntity
  8
1
  6
CONTINUOUS
370
50
 62
4
100
AcDbLine
 10
49.827248
 20
-2.641853
 30
0.0
 11
49.800957
 21
-2.558097
 31
0.0
  0
LINE
  5
6DB
330
1F
100
AcDbEntity
  8
1
  6
CONTINUOUS
370
50
 62
4
100
AcDbLine
 10
49.98148
 20
2.634691
 30
0.0
 11
49.971416
 21
2.666414
 31
0.0
  0
LINE
  5
6DC
330
1F
100
AcDbEntity
  8
1
  6
CONTINUOUS
370
50
 62
4
100
AcDbLine
 10
49.999989
 20
0.408441
 30
0.0
 11
49.99953499999999
 21
0.409844
 31
0.0
  0
LINE
  5
6DD
330
1F
100
AcDbEntity
  8
1
  6
CONTINUOUS
370
50
 62
4
100
AcDbLine
 10
49.628654
 20
1.551285
 30
0.0
 11
49.627426
 21
1.555073
 31
0.0
  0
LINE
  5
6DE
330
1F
100
AcDbEntity
  8
1
  6
CONTINUOUS
370
50
 62
4
100
AcDbLine
 10
49.927143
 20
0.632635
 30
0.0
 11
49.92067
 21
0.652565
 31
0.0
  0
LINE
  5
6DF
330
1F
100
AcDbEntity
  8
1
  6
CONTINUOUS
370
50
 62
4
100
AcDbLine
 10
49.992733
 20
0.430772
 30
0.0
 11
49.98904
 21
0.442142
 31
0.0
  0
LINE
  5
6E0
330
1F
100
AcDbEntity
  8
1
  6
CONTINUOUS
370
50
 62
4
100
AcDbLine
 10
49.957817
 20
0.5382279999999999
 30
0.0
 11
49.951668
 21
0.557159
 31
0.0
  0
LINE
  5
6E1
330
1F
100
AcDbEntity
  8
1
  6
CONTINUOUS
370
50
 62
4
100
AcDbLine
 10
49.97479999999999
 20
0.485965
 30
0.0
 11
49.969521
 21
0.502217
 31
0.0
  0
LINE
  5
6E2
330
1F
100
AcDbEntity
  8
1
  6
CONTINUOUS
370
50
 62
4
100
AcDbLine
 10
49.907314
 20
0.693664
 30
0.0
 11
49.900543
 21
0.714509
 31
0.0
  0
LINE
  5
6E3
330
1F
100
AcDbEntity
  8
1
  6
CONTINUOUS
370
50
 62
4
100
AcDbLine
 10
49.88047
 20
0.776284
 30
0.0
 11
49.874039
 21
0.796082
 31
0.0
  0
LINE
  5
6E4
330
1F
100
AcDbEntity
  8
1
  6
CONTINUOUS
370
50
 62
4
100
AcDbLine
 10
49.945496
 20
0.576155
 30
0.0
 11
49.939438
 21
0.594803
 31
0.0
  0
LINE
  5
6E5
330
1F
100
AcDbEntity
  8
1
  6
CONTINUOUS
370
50
 62
4
100
AcDbLine
 10
49.887066
 20
0.75598
 30
0.0
 11
49.88047
 21
0.776284
 31
0.0
  0
LINE
  5
6E6
330
1F
100
AcDbEntity
  8
1
  6
CONTINUOUS
370
50
 62
4
100
AcDbLine
 10
49.86137799999999
 20
0.8350409999999999
 30
0.0
 11
49.854969
 21
0.854769
 31
0.0
  0
LINE
  5
6E7
330
1F
100
AcDbEntity
  8
1
  6
CONTINUOUS
370
50
 62
4
100
AcDbLine
 10
49.705734
 20
1.31406
 30
0.0
 11
49.687641
 21
1.369753
 31
0.0
  0
LINE
  5
6E8
330
1F
100
AcDbEntity
  8
1
  6
CONTINUOUS
370
50
 62
4
100
AcDbLine
 10
49.671837
 20
1.418385
 30
0.0
 11
49.658371
 21
1.459834
 31
0.0
  0
LINE
  5
6E9
330
1F
100
AcDbEntity
  8
1
  6
CONTINUOUS
370
50
 62
4
100
AcDbLine
 10
49.91404
 20
0.672962
 30
0.0
 11
49.907314
 21
0.693664
 31
0.0
  0
LINE
  5
6EA
330
1F
100
AcDbEntity
  8
1
  6
CONTINUOUS
370
50
 62
4
100
AcDbLine
 10
49.658371
 20
1.459834
 30
0.0
 11
49.647278
 21
1.493977
 31
0.0
  0
LINE
  5
6EB
330
1F
100
AcDbEntity
  8
1
  6
CONTINUOUS
370
50
 62
4
100
AcDbLine
 10
49.979809
 20
0.470548
 30
0.0
 11
49.97479999999999
 21
0.485965
 31
0.0
  0
LINE
  5
6EC
330
1F
100
AcDbEntity
  8
1
  6
CONTINUOUS
370
50
 62
4
100
AcDbLine
 10
49.798244
 20
1.02935
 30
0.0
 11
49.772358
 21
1.109022
 31
0.0
  0
LINE
  5
6ED
330
1F
100
AcDbEntity
  8
1
  6
CONTINUOUS
370
50
 62
4
100
AcDbLine
 10
49.951668
 20
0.557159
 30
0.0
 11
49.945496
 21
0.576155
 31
0.0
  0
LINE
  5
6EE
330
1F
100
AcDbEntity
  8
1
  6
CONTINUOUS
370
50
 62
4
100
AcDbLine
 10
49.748245
 20
1.183226
 30
0.0
 11
49.726006
 21
1.251672
 31
0.0
  0
LINE
  5
6EF
330
1F
100
AcDbEntity
  8
1
  6
CONTINUOUS
370
50
 62
4
100
AcDbLine
 10
49.854969
 20
0.854769
 30
0.0
 11
49.825813
 21
0.944502
 31
0.0
  0
LINE
  5
6F0
330
1F
100
AcDbEntity
  8
1
  6
CONTINUOUS
370
50
 62
4
100
AcDbLine
 10
49.933414
 20
0.613335
 30
0.0
 11
49.927143
 21
0.632635
 31
0.0
  0
LINE
  5
6F1
330
1F
100
AcDbEntity
  8
1
  6
CONTINUOUS
370
50
 62
4
100
AcDbLine
 10
49.825813
 20
0.944502
 30
0.0
 11
49.798244
 21
1.02935
 31
0.0
  0
LINE
  5
6F2
330
1F
100
AcDbEntity
  8
1
  6
CONTINUOUS
370
50
 62
4
100
AcDbLine
 10
49.900543
 20
0.714509
 30
0.0
 11
49.893776
 21
0.735335
 31
0.0
  0
LINE
  5
6F3
330
1F
100
AcDbEntity
  8
1
  6
CONTINUOUS
370
50
 62
4
100
AcDbLine
 10
49.867733
 20
0.815483
 30
0.0
 11
49.86137799999999
 21
0.8350409999999999
 31
0.0
  0
LINE
  5
6F4
330
1F
100
AcDbEntity
  8
1
  6
CONTINUOUS
370
50
 62
4
100
AcDbLine
 10
49.726006
 20
1.251672
 30
0.0
 11
49.705734
 21
1.31406
 31
0.0
  0
LINE
  5
6F5
330
1F
100
AcDbEntity
  8
1
  6
CONTINUOUS
370
50
 62
4
100
AcDbLine
 10
49.984711
 20
0.455462
 30
0.0
 11
49.979809
 21
0.470548
 31
0.0
  0
LINE
  5
6F6
330
1F
100
AcDbEntity
  8
1
  6
CONTINUOUS
370
50
 62
4
100
AcDbLine
 10
49.772358
 20
1.109022
 30
0.0
 11
49.748245
 21
1.183226
 31
0.0
  0
LINE
  5
6F7
330
1F
100
AcDbEntity
  8
1
  6
CONTINUOUS
370
50
 62
4
100
AcDbLine
 10
49.638596
 20
1.520693
 30
0.0
 11
49.63236999999999
 21
1.539852
 31
0.0
  0
LINE
  5
6F8
330
1F
100
AcDbEntity
  8
1
  6
CONTINUOUS
370
50
 62
4
100
AcDbLine
 10
49.687641
 20
1.369753
 30
0.0
 11
49.671837
 21
1.418385
 31
0.0
  0
LINE
  5
6F9
330
1F
100
AcDbEntity
  8
1
  6
CONTINUOUS
370
50
 62
4
100
AcDbLine
 10
49.647278
 20
1.493977
 30
0.0
 11
49.638596
 21
1.520693
 31
0.0
  0
LINE
  5
6FA
330
1F
100
AcDbEntity
  8
1
  6
CONTINUOUS
370
50
 62
4
100
AcDbLine
 10
49.99953499999999
 20
0.409844
 30
0.0
 11
49.998119
 21
0.414201
 31
0.0
  0
LINE
  5
6FB
330
1F
100
AcDbEntity
  8
1
  6
CONTINUOUS
370
50
 62
4
100
AcDbLine
 10
49.98904
 20
0.442142
 30
0.0
 11
49.984711
 21
0.455462
 31
0.0
  0
LINE
  5
6FC
330
1F
100
AcDbEntity
  8
1
  6
CONTINUOUS
370
50
 62
4
100
AcDbLine
 10
49.963814
 20
0.519776
 30
0.0
 11
49.957817
 21
0.5382279999999999
 31
0.0
  0
LINE
  5
6FD
330
1F
100
AcDbEntity
  8
1
  6
CONTINUOUS
370
50
 62
4
100
AcDbLine
 10
49.99589899999999
 20
0.421031
 30
0.0
 11
49.992733
 21
0.430772
 31
0.0
  0
LINE
  5
6FE
330
1F
100
AcDbEntity
  8
1
  6
CONTINUOUS
370
50
 62
4
100
AcDbLine
 10
49.893776
 20
0.735335
 30
0.0
 11
49.887066
 21
0.75598
 31
0.0
  0
LINE
  5
6FF
330
1F
100
AcDbEntity
  8
1
  6
CONTINUOUS
370
50
 62
4
100
AcDbLine
 10
49.969521
 20
0.502217
 30
0.0
 11
49.963814
 21
0.519776
 31
0.0
  0
LINE
  5
700
330
1F
100
AcDbEntity
  8
1
  6
CONTINUOUS
370
50
 62
4
100
AcDbLine
 10
49.63236999999999
 20
1.539852
 30
0.0
 11
49.628654
 21
1.551285
 31
0.0
  0
LINE
  5
701
330
1F
100
AcDbEntity
  8
1
  6
CONTINUOUS
370
50
 62
4
100
AcDbLine
 10
49.874039
 20
0.796082
 30
0.0
 11
49.867733
 21
0.815483
 31
0.0
  0
LINE
  5
702
330
1F
100
AcDbEntity
  8
1
  6
CONTINUOUS
370
50
 62
4
100
AcDbLine
 10
49.998119
 20
0.414201
 30
0.0
 11
49.99589899999999
 21
0.421031
 31
0.0
  0
LINE
  5
703
330
1F
100
AcDbEntity
  8
1
  6
CONTINUOUS
370
50
 62
4
100
AcDbLine
 10
49.92067
 20
0.652565
 30
0.0
 11
49.91404
 21
0.672962
 31
0.0
  0
LINE
  5
704
330
1F
100
AcDbEntity
  8
1
  6
CONTINUOUS
370
50
 62
4
100
AcDbLine
 10
49.939438
 20
0.594803
 30
0.0
 11
49.933414
 21
0.613335
 31
0.0
  0
LINE
  5
705
330
1F
100
AcDbEntity
  8
1
  6
CONTINUOUS
370
50
 62
4
100
AcDbLine
 10
49.01917299999999
 20
0.6623819999999999
 30
0.0
 11
49.011978
 21
0.683704
 31
0.0
  0
LINE
  5
706
330
1F
100
AcDbEntity
  8
1
  6
CONTINUOUS
370
50
 62
4
100
AcDbLine
 10
49.854969
 20
-2.721035
 30
0.0
 11
49.827248
 21
-2.641853
 31
0.0
  0
LINE
  5
707
330
1F
100
AcDbEntity
  8
1
  6
CONTINUOUS
370
50
 62
4
100
AcDbLine
 10
49.971416
 20
2.666414
 30
0.0
 11
49.959488
 21
2.696771
 31
0.0
  0
LINE
  5
708
330
1F
100
AcDbEntity
  8
1
  6
CONTINUOUS
370
50
 62
4
100
AcDbLine
 10
49.011978
 20
0.683704
 30
0.0
 11
49.003754
 21
0.704411
 31
0.0
  0
LINE
  5
709
330
1F
100
AcDbEntity
  8
1
  6
CONTINUOUS
370
50
 62
4
100
AcDbLine
 10
39.256401
 20
-1.271466
 30
0.0
 11
39.239208
 21
-1.228599
 31
0.0
  0
LINE
  5
70A
330
1F
100
AcDbEntity
  8
1
  6
CONTINUOUS
370
50
 62
4
100
AcDbLine
 10
48.915695
 20
0.8997959999999999
 30
0.0
 11
48.903526
 21
0.929878
 31
0.0
  0
LINE
  5
70B
330
1F
100
AcDbEntity
  8
1
  6
CONTINUOUS
370
50
 62
4
100
AcDbLine
 10
49.902573
 20
2.25699
 30
0.0
 11
49.887318
 21
2.293982
 31
0.0
  0
LINE
  5
70C
330
1F
100
AcDbEntity
  8
1
  6
CONTINUOUS
370
50
 62
4
100
AcDbLine
 10
48.928135
 20
0.8699319999999999
 30
0.0
 11
48.915695
 21
0.8997959999999999
 31
0.0
  0
LINE
  5
70D
330
1F
100
AcDbEntity
  8
1
  6
CONTINUOUS
370
50
 62
4
100
AcDbLine
 10
48.940849
 20
0.8403039999999999
 30
0.0
 11
48.928135
 21
0.8699319999999999
 31
0.0
  0
LINE
  5
70E
330
1F
100
AcDbEntity
  8
1
  6
CONTINUOUS
370
50
 62
4
100
AcDbLine
 10
49.250008
 20
1.703255
 30
0.0
 11
48.903526
 21
2.490124
 31
0.0
  0
LINE
  5
70F
330
1F
100
AcDbEntity
  8
1
  6
CONTINUOUS
370
50
 62
4
100
AcDbLine
 10
48.953838
 20
0.810928
 30
0.0
 11
48.940849
 21
0.8403039999999999
 31
0.0
  0
LINE
  5
710
330
1F
100
AcDbEntity
  8
1
  6
CONTINUOUS
370
50
 62
4
100
AcDbLine
 10
49.910847
 20
2.238306
 30
0.0
 11
49.902573
 21
2.25699
 31
0.0
  0
LINE
  5
711
330
1F
100
AcDbEntity
  8
1
  6
CONTINUOUS
370
50
 62
4
100
AcDbLine
 10
39.226513
 20
2.591264
 30
0.0
 11
39.217674
 21
2.611055
 31
0.0
  0
LINE
  5
712
330
1F
100
AcDbEntity
  8
1
  6
CONTINUOUS
370
50
 62
4
100
AcDbLine
 10
48.96711
 20
0.781821
 30
0.0
 11
48.953838
 21
0.810928
 31
0.0
  0
LINE
  5
713
330
1F
100
AcDbEntity
  8
1
  6
CONTINUOUS
370
50
 62
4
100
AcDbLine
 10
49.003754
 20
0.704411
 30
0.0
 11
48.994518
 21
0.7244769999999999
 31
0.0
  0
LINE
  5
714
330
1F
100
AcDbEntity
  8
1
  6
CONTINUOUS
370
50
 62
4
100
AcDbLine
 10
48.980667
 20
0.752998
 30
0.0
 11
48.96711
 21
0.781821
 31
0.0
  0
LINE
  5
715
330
1F
100
AcDbEntity
  8
1
  6
CONTINUOUS
370
50
 62
4
100
AcDbLine
 10
49.959488
 20
2.696771
 30
0.0
 11
49.945831
 21
2.725708
 31
0.0
  0
LINE
  5
716
330
1F
100
AcDbEntity
  8
1
  6
CONTINUOUS
370
50
 62
4
100
AcDbLine
 10
48.994518
 20
0.7244769999999999
 30
0.0
 11
48.980667
 21
0.752998
 31
0.0
  0
LINE
  5
717
330
1F
100
AcDbEntity
  8
1
  6
CONTINUOUS
370
50
 62
4
100
AcDbLine
 10
49.887318
 20
2.293982
 30
0.0
 11
49.869621
 21
2.328564
 31
0.0
  0
LINE
  5
718
330
1F
100
AcDbEntity
  8
1
  6
CONTINUOUS
370
50
 62
4
100
AcDbLine
 10
49.945831
 20
2.725708
 30
0.0
 11
49.93058
 21
2.753169
 31
0.0
  0
LINE
  5
719
330
1F
100
AcDbEntity
  8
1
  6
CONTINUOUS
370
50
 62
4
100
AcDbLine
 10
49.921665
 20
2.219494
 30
0.0
 11
49.910847
 21
2.238306
 31
0.0
  0
LINE
  5
71A
330
1F
100
AcDbEntity
  8
1
  6
CONTINUOUS
370
50
 62
4
100
AcDbLine
 10
39.337399
 20
-1.410323
 30
0.0
 11
39.256401
 21
-1.271466
 31
0.0
  0
LINE
  5
71B
330
1F
100
AcDbEntity
  8
1
  6
CONTINUOUS
370
50
 62
4
100
AcDbLine
 10
39.416531
 20
-1.544703
 30
0.0
 11
39.337399
 21
-1.410323
 31
0.0
  0
LINE
  5
71C
330
1F
100
AcDbEntity
  8
1
  6
CONTINUOUS
370
50
 62
4
100
AcDbLine
 10
39.494453
 20
-1.674305
 30
0.0
 11
39.416531
 21
-1.544703
 31
0.0
  0
LINE
  5
71D
330
1F
100
AcDbEntity
  8
1
  6
CONTINUOUS
370
50
 62
4
100
AcDbLine
 10
39.571831
 20
-1.798828
 30
0.0
 11
39.494453
 21
-1.674305
 31
0.0
  0
LINE
  5
71E
330
1F
100
AcDbEntity
  8
1
  6
CONTINUOUS
370
50
 62
4
100
AcDbLine
 10
49.869621
 20
2.328564
 30
0.0
 11
49.849144
 21
2.360599
 31
0.0
  0
LINE
  5
71F
330
1F
100
AcDbEntity
  8
1
  6
CONTINUOUS
370
50
 62
4
100
AcDbLine
 10
49.93058
 20
2.753169
 30
0.0
 11
49.913883
 21
2.779079
 31
0.0
  0
LINE
  5
720
330
1F
100
AcDbEntity
  8
1
  6
CONTINUOUS
370
50
 62
4
100
AcDbLine
 10
39.239532
 20
2.571085
 30
0.0
 11
39.226513
 21
2.591264
 31
0.0
  0
LINE
  5
721
330
1F
100
AcDbEntity
  8
1
  6
CONTINUOUS
370
50
 62
4
100
AcDbLine
 10
39.649323
 20
-1.917971
 30
0.0
 11
39.571831
 21
-1.798828
 31
0.0
  0
LINE
  5
722
330
1F
100
AcDbEntity
  8
1
  6
CONTINUOUS
370
50
 62
4
100
AcDbLine
 10
40.05681999999999
 20
1.509332
 30
0.0
 11
39.971706
 21
1.637471
 31
0.0
  0
LINE
  5
723
330
1F
100
AcDbEntity
  8
1
  6
CONTINUOUS
370
50
 62
4
100
AcDbLine
 10
39.971706
 20
1.637471
 30
0.0
 11
39.88873299999999
 21
1.762351
 31
0.0
  0
LINE
  5
724
330
1F
100
AcDbEntity
  8
1
  6
CONTINUOUS
370
50
 62
4
100
AcDbLine
 10
40.144764
 20
1.3784
 30
0.0
 11
40.05681999999999
 21
1.509332
 31
0.0
  0
LINE
  5
725
330
1F
100
AcDbEntity
  8
1
  6
CONTINUOUS
370
50
 62
4
100
AcDbLine
 10
39.88873299999999
 20
1.762351
 30
0.0
 11
39.807274
 21
1.883417
 31
0.0
  0
LINE
  5
726
330
1F
100
AcDbEntity
  8
1
  6
CONTINUOUS
370
50
 62
4
100
AcDbLine
 10
40.236233
 20
1.24514
 30
0.0
 11
40.144764
 21
1.3784
 31
0.0
  0
LINE
  5
727
330
1F
100
AcDbEntity
  8
1
  6
CONTINUOUS
370
50
 62
4
100
AcDbLine
 10
39.727581
 20
-2.031433
 30
0.0
 11
39.649323
 21
-1.917971
 31
0.0
  0
LINE
  5
728
330
1F
100
AcDbEntity
  8
1
  6
CONTINUOUS
370
50
 62
4
100
AcDbLine
 10
39.807274
 20
1.883417
 30
0.0
 11
39.727581
 21
1.998863
 31
0.0
  0
LINE
  5
729
330
1F
100
AcDbEntity
  8
1
  6
CONTINUOUS
370
50
 62
4
100
AcDbLine
 10
49.934731
 20
2.200615
 30
0.0
 11
49.921665
 21
2.219494
 31
0.0
  0
LINE
  5
72A
330
1F
100
AcDbEntity
  8
1
  6
CONTINUOUS
370
50
 62
4
100
AcDbLine
 10
40.331917
 20
1.110017
 30
0.0
 11
40.236233
 21
1.24514
 31
0.0
  0
LINE
  5
72B
330
1F
100
AcDbEntity
  8
1
  6
CONTINUOUS
370
50
 62
4
100
AcDbLine
 10
39.727581
 20
1.998863
 30
0.0
 11
39.649323
 21
2.107965
 31
0.0
  0
LINE
  5
72C
330
1F
100
AcDbEntity
  8
1
  6
CONTINUOUS
370
50
 62
4
100
AcDbLine
 10
40.43225899999999
 20
0.973854
 30
0.0
 11
40.331917
 21
1.110017
 31
0.0
  0
LINE
  5
72D
330
1F
100
AcDbEntity
  8
1
  6
CONTINUOUS
370
50
 62
4
100
AcDbLine
 10
49.913883
 20
2.779079
 30
0.0
 11
49.895962
 21
2.803263
 31
0.0
  0
LINE
  5
72E
330
1F
100
AcDbEntity
  8
1
  6
CONTINUOUS
370
50
 62
4
100
AcDbLine
 10
39.807274
 20
-2.138914
 30
0.0
 11
39.727581
 21
-2.031433
 31
0.0
  0
LINE
  5
72F
330
1F
100
AcDbEntity
  8
1
  6
CONTINUOUS
370
50
 62
4
100
AcDbLine
 10
39.649323
 20
2.107965
 30
0.0
 11
39.571831
 21
2.210501
 31
0.0
  0
LINE
  5
730
330
1F
100
AcDbEntity
  8
1
  6
CONTINUOUS
370
50
 62
4
100
AcDbLine
 10
40.536442
 20
0.839105
 30
0.0
 11
40.43225899999999
 21
0.973854
 31
0.0
  0
LINE
  5
731
330
1F
100
AcDbEntity
  8
1
  6
CONTINUOUS
370
50
 62
4
100
AcDbLine
 10
45.298145
 20
-0.002951
 30
0.0
 11
45.295807
 21
0.0
 31
0.0
  0
LINE
  5
732
330
1F
100
AcDbEntity
  8
1
  6
CONTINUOUS
370
50
 62
4
100
AcDbLine
 10
49.949707
 20
2.181772
 30
0.0
 11
49.934731
 21
2.200615
 31
0.0
  0
LINE
  5
733
330
1F
100
AcDbEntity
  8
1
  6
CONTINUOUS
370
50
 62
4
100
AcDbLine
 10
49.849144
 20
2.360599
 30
0.0
 11
49.825523
 21
2.389977
 31
0.0
  0
LINE
  5
734
330
1F
100
AcDbEntity
  8
1
  6
CONTINUOUS
370
50
 62
4
100
AcDbLine
 10
39.88873299999999
 20
-2.239716
 30
0.0
 11
39.807274
 21
-2.138914
 31
0.0
  0
LINE
  5
735
330
1F
100
AcDbEntity
  8
1
  6
CONTINUOUS
370
50
 62
4
100
AcDbLine
 10
39.571831
 20
2.210501
 30
0.0
 11
39.494453
 21
2.306253
 31
0.0
  0
LINE
  5
736
330
1F
100
AcDbEntity
  8
1
  6
CONTINUOUS
370
50
 62
4
100
AcDbLine
 10
40.644768
 20
0.706235
 30
0.0
 11
40.536442
 21
0.839105
 31
0.0
  0
LINE
  5
737
330
1F
100
AcDbEntity
  8
1
  6
CONTINUOUS
370
50
 62
4
100
AcDbLine
 10
39.256401
 20
2.550606
 30
0.0
 11
39.239532
 21
2.571085
 31
0.0
  0
LINE
  5
738
330
1F
100
AcDbEntity
  8
1
  6
CONTINUOUS
370
50
 62
4
100
AcDbLine
 10
49.895962
 20
2.803263
 30
0.0
 11
49.87696099999999
 21
2.825697
 31
0.0
  0
LINE
  5
739
330
1F
100
AcDbEntity
  8
1
  6
CONTINUOUS
370
50
 62
4
100
AcDbLine
 10
40.75777799999999
 20
0.575342
 30
0.0
 11
40.644768
 21
0.706235
 31
0.0
  0
LINE
  5
73A
330
1F
100
AcDbEntity
  8
1
  6
CONTINUOUS
370
50
 62
4
100
AcDbLine
 10
39.494453
 20
2.306253
 30
0.0
 11
39.416531
 21
2.395001
 31
0.0
  0
LINE
  5
73B
330
1F
100
AcDbEntity
  8
1
  6
CONTINUOUS
370
50
 62
4
100
AcDbLine
 10
49.965973
 20
2.163373
 30
0.0
 11
49.949707
 21
2.181772
 31
0.0
  0
LINE
  5
73C
330
1F
100
AcDbEntity
  8
1
  6
CONTINUOUS
370
50
 62
4
100
AcDbLine
 10
39.971706
 20
-2.332564
 30
0.0
 11
39.88873299999999
 21
-2.239716
 31
0.0
  0
LINE
  5
73D
330
1F
100
AcDbEntity
  8
1
  6
CONTINUOUS
370
50
 62
4
100
AcDbLine
 10
50.0
 20
0.009135
 30
0.0
 11
49.998817
 21
0.010456
 31
0.0
  0
LINE
  5
73E
330
1F
100
AcDbEntity
  8
1
  6
CONTINUOUS
370
50
 62
4
100
AcDbLine
 10
40.876007
 20
0.446523
 30
0.0
 11
40.75777799999999
 21
0.575342
 31
0.0
  0
LINE
  5
73F
330
1F
100
AcDbEntity
  8
1
  6
CONTINUOUS
370
50
 62
4
100
AcDbLine
 10
45.578934
 20
-0.300486
 30
0.0
 11
45.310986
 21
-0.01641
 31
0.0
  0
LINE
  5
740
330
1F
100
AcDbEntity
  8
1
  6
CONTINUOUS
370
50
 62
4
100
AcDbLine
 10
45.591175
 20
0.173634
 30
0.0
 11
45.428795
 21
0.345682
 31
0.0
  0
LINE
  5
741
330
1F
100
AcDbEntity
  8
1
  6
CONTINUOUS
370
50
 62
4
100
AcDbLine
 10
45.756504
 20
0.0
 30
0.0
 11
45.591175
 21
0.173634
 31
0.0
  0
LINE
  5
742
330
1F
100
AcDbEntity
  8
1
  6
CONTINUOUS
370
50
 62
4
100
AcDbLine
 10
45.310986
 20
-0.01641
 30
0.0
 11
45.308434
 21
-0.013732
 31
0.0
  0
LINE
  5
743
330
1F
100
AcDbEntity
  8
1
  6
CONTINUOUS
370
50
 62
4
100
AcDbLine
 10
45.30587
 20
-0.011047
 30
0.0
 11
45.303303
 21
-0.008355
 31
0.0
  0
LINE
  5
744
330
1F
100
AcDbEntity
  8
1
  6
CONTINUOUS
370
50
 62
4
100
AcDbLine
 10
45.303303
 20
-0.008355
 30
0.0
 11
45.300728
 21
-0.005656
 31
0.0
  0
LINE
  5
745
330
1F
100
AcDbEntity
  8
1
  6
CONTINUOUS
370
50
 62
4
100
AcDbLine
 10
45.300728
 20
-0.005656
 30
0.0
 11
45.298145
 21
-0.002951
 31
0.0
  0
LINE
  5
746
330
1F
100
AcDbEntity
  8
1
  6
CONTINUOUS
370
50
 62
4
100
AcDbLine
 10
45.308434
 20
-0.013732
 30
0.0
 11
45.30587
 21
-0.011047
 31
0.0
  0
LINE
  5
747
330
1F
100
AcDbEntity
  8
1
  6
CONTINUOUS
370
50
 62
4
100
AcDbLine
 10
45.428795
 20
0.345682
 30
0.0
 11
45.264851
 21
0.517189
 31
0.0
  0
LINE
  5
748
330
1F
100
AcDbEntity
  8
1
  6
CONTINUOUS
370
50
 62
4
100
AcDbLine
 10
49.982929
 20
2.145716
 30
0.0
 11
49.965973
 21
2.163373
 31
0.0
  0
LINE
  5
749
330
1F
100
AcDbEntity
  8
1
  6
CONTINUOUS
370
50
 62
4
100
AcDbLine
 10
45.787807
 20
-0.517241
 30
0.0
 11
45.578934
 21
-0.300486
 31
0.0
  0
LINE
  5
74A
330
1F
100
AcDbEntity
  8
1
  6
CONTINUOUS
370
50
 62
4
100
AcDbLine
 10
49.87696099999999
 20
2.825697
 30
0.0
 11
49.856987
 21
2.846385
 31
0.0
  0
LINE
  5
74B
330
1F
100
AcDbEntity
  8
1
  6
CONTINUOUS
370
50
 62
4
100
AcDbLine
 10
39.416531
 20
2.395001
 30
0.0
 11
39.337399
 21
2.476525
 31
0.0
  0
LINE
  5
74C
330
1F
100
AcDbEntity
  8
1
  6
CONTINUOUS
370
50
 62
4
100
AcDbLine
 10
45.295807
 20
0.0
 30
0.0
 11
45.075539
 21
0.226587
 31
0.0
  0
LINE
  5
74D
330
1F
100
AcDbEntity
  8
1
  6
CONTINUOUS
370
50
 62
4
100
AcDbLine
 10
45.931255
 20
-0.178987
 30
0.0
 11
45.756504
 21
0.0
 31
0.0
  0
LINE
  5
74E
330
1F
100
AcDbEntity
  8
1
  6
CONTINUOUS
370
50
 62
4
100
AcDbLine
 10
41.0
 20
0.319874
 30
0.0
 11
40.876007
 21
0.446523
 31
0.0
  0
LINE
  5
74F
330
1F
100
AcDbEntity
  8
1
  6
CONTINUOUS
370
50
 62
4
100
AcDbLine
 10
45.264851
 20
0.517189
 30
0.0
 11
45.09501299999999
 21
0.689076
 31
0.0
  0
LINE
  5
750
330
1F
100
AcDbEntity
  8
1
  6
CONTINUOUS
370
50
 62
4
100
AcDbLine
 10
46.106926
 20
-0.35437
 30
0.0
 11
45.931255
 21
-0.178987
 31
0.0
  0
LINE
  5
751
330
1F
100
AcDbEntity
  8
1
  6
CONTINUOUS
370
50
 62
4
100
AcDbLine
 10
40.05681999999999
 20
-2.417442
 30
0.0
 11
39.971706
 21
-2.332564
 31
0.0
  0
LINE
  5
752
330
1F
100
AcDbEntity
  8
1
  6
CONTINUOUS
370
50
 62
4
100
AcDbLine
 10
45.999573
 20
-0.728368
 30
0.0
 11
45.787807
 21
-0.517241
 31
0.0
  0
LINE
  5
753
330
1F
100
AcDbEntity
  8
1
  6
CONTINUOUS
370
50
 62
4
100
AcDbLine
 10
49.746452
 20
0.254816
 30
0.0
 11
49.722805
 21
0.278339
 31
0.0
  0
LINE
  5
754
330
1F
100
AcDbEntity
  8
1
  6
CONTINUOUS
370
50
 62
4
100
AcDbLine
 10
49.76968
 20
0.231712
 30
0.0
 11
49.746452
 21
0.254816
 31
0.0
  0
LINE
  5
755
330
1F
100
AcDbEntity
  8
1
  6
CONTINUOUS
370
50
 62
4
100
AcDbLine
 10
45.075539
 20
0.226587
 30
0.0
 11
44.81806599999999
 21
0.482585
 31
0.0
  0
LINE
  5
756
330
1F
100
AcDbEntity
  8
1
  6
CONTINUOUS
370
50
 62
4
100
AcDbLine
 10
49.722805
 20
0.278339
 30
0.0
 11
49.698814
 21
0.30219
 31
0.0
  0
LINE
  5
757
330
1F
100
AcDbEntity
  8
1
  6
CONTINUOUS
370
50
 62
4
100
AcDbLine
 10
49.792423
 20
0.209121
 30
0.0
 11
49.76968
 21
0.231712
 31
0.0
  0
LINE
  5
758
330
1F
100
AcDbEntity
  8
1
  6
CONTINUOUS
370
50
 62
4
100
AcDbLine
 10
49.698814
 20
0.30219
 30
0.0
 11
49.67454499999999
 21
0.326275
 31
0.0
  0
LINE
  5
759
330
1F
100
AcDbEntity
  8
1
  6
CONTINUOUS
370
50
 62
4
100
AcDbLine
 10
49.814606
 20
0.187135
 30
0.0
 11
49.792423
 21
0.209121
 31
0.0
  0
LINE
  5
75A
330
1F
100
AcDbEntity
  8
1
  6
CONTINUOUS
370
50
 62
4
100
AcDbLine
 10
49.67454499999999
 20
0.326275
 30
0.0
 11
49.650043
 21
0.350528
 31
0.0
  0
LINE
  5
75B
330
1F
100
AcDbEntity
  8
1
  6
CONTINUOUS
370
50
 62
4
100
AcDbLine
 10
49.836163
 20
0.165849
 30
0.0
 11
49.814606
 21
0.187135
 31
0.0
  0
LINE
  5
75C
330
1F
100
AcDbEntity
  8
1
  6
CONTINUOUS
370
50
 62
4
100
AcDbLine
 10
49.650043
 20
0.350528
 30
0.0
 11
49.625328
 21
0.374897
 31
0.0
  0
LINE
  5
75D
330
1F
100
AcDbEntity
  8
1
  6
CONTINUOUS
370
50
 62
4
100
AcDbLine
 10
49.825523
 20
2.389977
 30
0.0
 11
49.798298
 21
2.416742
 31
0.0
  0
LINE
  5
75E
330
1F
100
AcDbEntity
  8
1
  6
CONTINUOUS
370
50
 62
4
100
AcDbLine
 10
49.856987
 20
0.145379
 30
0.0
 11
49.836163
 21
0.165849
 31
0.0
  0
LINE
  5
75F
330
1F
100
AcDbEntity
  8
1
  6
CONTINUOUS
370
50
 62
4
100
AcDbLine
 10
41.005939
 20
0.034978
 30
0.0
 11
41.0
 21
0.040812
 31
0.0
  0
LINE
  5
760
330
1F
100
AcDbEntity
  8
1
  6
CONTINUOUS
370
50
 62
4
100
AcDbLine
 10
49.625328
 20
0.374897
 30
0.0
 11
49.600456
 21
0.399306
 31
0.0
  0
LINE
  5
761
330
1F
100
AcDbEntity
  8
1
  6
CONTINUOUS
370
50
 62
4
100
AcDbLine
 10
41.011883
 20
0.029146
 30
0.0
 11
41.005939
 21
0.034978
 31
0.0
  0
LINE
  5
762
330
1F
100
AcDbEntity
  8
1
  6
CONTINUOUS
370
50
 62
4
100
AcDbLine
 10
41.017826
 20
0.023315
 30
0.0
 11
41.011883
 21
0.029146
 31
0.0
  0
LINE
  5
763
330
1F
100
AcDbEntity
  8
1
  6
CONTINUOUS
370
50
 62
4
100
AcDbLine
 10
41.023769
 20
0.017485
 30
0.0
 11
41.017826
 21
0.023315
 31
0.0
  0
LINE
  5
764
330
1F
100
AcDbEntity
  8
1
  6
CONTINUOUS
370
50
 62
4
100
AcDbLine
 10
41.029716
 20
0.011656
 30
0.0
 11
41.023769
 21
0.017485
 31
0.0
  0
LINE
  5
765
330
1F
100
AcDbEntity
  8
1
  6
CONTINUOUS
370
50
 62
4
100
AcDbLine
 10
41.035664
 20
0.005828
 30
0.0
 11
41.029716
 21
0.011656
 31
0.0
  0
LINE
  5
766
330
1F
100
AcDbEntity
  8
1
  6
CONTINUOUS
370
50
 62
4
100
AcDbLine
 10
41.041615
 20
0.0
 30
0.0
 11
41.035664
 21
0.005828
 31
0.0
  0
LINE
  5
767
330
1F
100
AcDbEntity
  8
1
  6
CONTINUOUS
370
50
 62
4
100
AcDbLine
 10
49.87696099999999
 20
0.125847
 30
0.0
 11
49.856987
 21
0.145379
 31
0.0
  0
LINE
  5
768
330
1F
100
AcDbEntity
  8
1
  6
CONTINUOUS
370
50
 62
4
100
AcDbLine
 10
50.0
 20
2.129057
 30
0.0
 11
49.982929
 21
2.145716
 31
0.0
  0
LINE
  5
769
330
1F
100
AcDbEntity
  8
1
  6
CONTINUOUS
370
50
 62
4
100
AcDbLine
 10
49.600456
 20
0.399306
 30
0.0
 11
49.575455
 21
0.423696
 31
0.0
  0
LINE
  5
76A
330
1F
100
AcDbEntity
  8
1
  6
CONTINUOUS
370
50
 62
4
100
AcDbLine
 10
46.282879
 20
-0.52584
 30
0.0
 11
46.106926
 21
-0.35437
 31
0.0
  0
LINE
  5
76B
330
1F
100
AcDbEntity
  8
1
  6
CONTINUOUS
370
50
 62
4
100
AcDbLine
 10
45.09501299999999
 20
0.689076
 30
0.0
 11
44.921135
 21
0.858468
 31
0.0
  0
LINE
  5
76C
330
1F
100
AcDbEntity
  8
1
  6
CONTINUOUS
370
50
 62
4
100
AcDbLine
 10
49.895962
 20
0.107373
 30
0.0
 11
49.87696099999999
 21
0.125847
 31
0.0
  0
LINE
  5
76D
330
1F
100
AcDbEntity
  8
1
  6
CONTINUOUS
370
50
 62
4
100
AcDbLine
 10
49.575455
 20
0.423696
 30
0.0
 11
49.550358
 21
0.448012
 31
0.0
  0
LINE
  5
76E
330
1F
100
AcDbEntity
  8
1
  6
CONTINUOUS
370
50
 62
4
100
AcDbLine
 10
49.913883
 20
0.090078
 30
0.0
 11
49.895962
 21
0.107373
 31
0.0
  0
LINE
  5
76F
330
1F
100
AcDbEntity
  8
1
  6
CONTINUOUS
370
50
 62
4
100
AcDbLine
 10
41.513802
 20
-0.454688
 30
0.0
 11
41.041615
 21
0.0
 31
0.0
  0
LINE
  5
770
330
1F
100
AcDbEntity
  8
1
  6
CONTINUOUS
370
50
 62
4
100
AcDbLine
 10
49.550358
 20
0.448012
 30
0.0
 11
49.525196
 21
0.472189
 31
0.0
  0
LINE
  5
771
330
1F
100
AcDbEntity
  8
1
  6
CONTINUOUS
370
50
 62
4
100
AcDbLine
 10
44.81806599999999
 20
0.482585
 30
0.0
 11
44.552387
 21
0.736877
 31
0.0
  0
LINE
  5
772
330
1F
100
AcDbEntity
  8
1
  6
CONTINUOUS
370
50
 62
4
100
AcDbLine
 10
41.25959
 20
-0.693844
 30
0.0
 11
41.0
 21
-0.445416
 31
0.0
  0
LINE
  5
773
330
1F
100
AcDbEntity
  8
1
  6
CONTINUOUS
370
50
 62
4
100
AcDbLine
 10
46.213783
 20
-0.9333589999999999
 30
0.0
 11
45.999573
 21
-0.728368
 31
0.0
  0
LINE
  5
774
330
1F
100
AcDbEntity
  8
1
  6
CONTINUOUS
370
50
 62
4
100
AcDbLine
 10
49.93058
 20
0.074101
 30
0.0
 11
49.913883
 21
0.090078
 31
0.0
  0
LINE
  5
775
330
1F
100
AcDbEntity
  8
1
  6
CONTINUOUS
370
50
 62
4
100
AcDbLine
 10
46.458504
 20
-0.693124
 30
0.0
 11
46.282879
 21
-0.52584
 31
0.0
  0
LINE
  5
776
330
1F
100
AcDbEntity
  8
1
  6
CONTINUOUS
370
50
 62
4
100
AcDbLine
 10
49.525196
 20
0.472189
 30
0.0
 11
49.5
 21
0.496174
 31
0.0
  0
LINE
  5
777
330
1F
100
AcDbEntity
  8
1
  6
CONTINUOUS
370
50
 62
4
100
AcDbLine
 10
49.945831
 20
0.059647
 30
0.0
 11
49.93058
 21
0.074101
 31
0.0
  0
LINE
  5
778
330
1F
100
AcDbEntity
  8
1
  6
CONTINUOUS
370
50
 62
4
100
AcDbLine
 10
49.5
 20
0.496174
 30
0.0
 11
49.305687
 21
0.6791809999999999
 31
0.0
  0
LINE
  5
779
330
1F
100
AcDbEntity
  8
1
  6
CONTINUOUS
370
50
 62
4
100
AcDbLine
 10
44.921135
 20
0.858468
 30
0.0
 11
44.74559
 21
1.023528
 31
0.0
  0
LINE
  5
77A
330
1F
100
AcDbEntity
  8
1
  6
CONTINUOUS
370
50
 62
4
100
AcDbLine
 10
49.998817
 20
0.010456
 30
0.0
 11
49.9953
 21
0.013762
 31
0.0
  0
LINE
  5
77B
330
1F
100
AcDbEntity
  8
1
  6
CONTINUOUS
370
50
 62
4
100
AcDbLine
 10
49.959488
 20
0.046823
 30
0.0
 11
49.945831
 21
0.059647
 31
0.0
  0
LINE
  5
77C
330
1F
100
AcDbEntity
  8
1
  6
CONTINUOUS
370
50
 62
4
100
AcDbLine
 10
41.986351
 20
-0.897905
 30
0.0
 11
41.513802
 21
-0.454688
 31
0.0
  0
LINE
  5
77D
330
1F
100
AcDbEntity
  8
1
  6
CONTINUOUS
370
50
 62
4
100
AcDbLine
 10
46.633198
 20
-0.8559479999999999
 30
0.0
 11
46.458504
 21
-0.693124
 31
0.0
  0
LINE
  5
77E
330
1F
100
AcDbEntity
  8
1
  6
CONTINUOUS
370
50
 62
4
100
AcDbLine
 10
49.305687
 20
0.6791809999999999
 30
0.0
 11
49.111134
 21
0.860489
 31
0.0
  0
LINE
  5
77F
330
1F
100
AcDbEntity
  8
1
  6
CONTINUOUS
370
50
 62
4
100
AcDbLine
 10
49.971416
 20
0.035721
 30
0.0
 11
49.959488
 21
0.046823
 31
0.0
  0
LINE
  5
780
330
1F
100
AcDbEntity
  8
1
  6
CONTINUOUS
370
50
 62
4
100
AcDbLine
 10
41.52670699999999
 20
-0.941669
 30
0.0
 11
41.25959
 21
-0.693844
 31
0.0
  0
LINE
  5
781
330
1F
100
AcDbEntity
  8
1
  6
CONTINUOUS
370
50
 62
4
100
AcDbLine
 10
44.552387
 20
0.736877
 30
0.0
 11
44.28498099999999
 21
0.983803
 31
0.0
  0
LINE
  5
782
330
1F
100
AcDbEntity
  8
1
  6
CONTINUOUS
370
50
 62
4
100
AcDbLine
 10
49.98148
 20
0.02643
 30
0.0
 11
49.971416
 21
0.035721
 31
0.0
  0
LINE
  5
783
330
1F
100
AcDbEntity
  8
1
  6
CONTINUOUS
370
50
 62
4
100
AcDbLine
 10
49.111134
 20
0.860489
 30
0.0
 11
48.917133
 21
1.039486
 31
0.0
  0
LINE
  5
784
330
1F
100
AcDbEntity
  8
1
  6
CONTINUOUS
370
50
 62
4
100
AcDbLine
 10
42.40108499999999
 20
-1.280306
 30
0.0
 11
41.986351
 21
-0.897905
 31
0.0
  0
LINE
  5
785
330
1F
100
AcDbEntity
  8
1
  6
CONTINUOUS
370
50
 62
4
100
AcDbLine
 10
46.430763
 20
-1.132484
 30
0.0
 11
46.213783
 21
-0.9333589999999999
 31
0.0
  0
LINE
  5
786
330
1F
100
AcDbEntity
  8
1
  6
CONTINUOUS
370
50
 62
4
100
AcDbLine
 10
49.9953
 20
0.013762
 30
0.0
 11
49.98950199999999
 21
0.019078
 31
0.0
  0
LINE
  5
787
330
1F
100
AcDbEntity
  8
1
  6
CONTINUOUS
370
50
 62
4
100
AcDbLine
 10
49.98950199999999
 20
0.019078
 30
0.0
 11
49.98148
 21
0.02643
 31
0.0
  0
LINE
  5
788
330
1F
100
AcDbEntity
  8
1
  6
CONTINUOUS
370
50
 62
4
100
AcDbLine
 10
39.337399
 20
2.476525
 30
0.0
 11
39.256401
 21
2.550606
 31
0.0
  0
LINE
  5
789
330
1F
100
AcDbEntity
  8
1
  6
CONTINUOUS
370
50
 62
4
100
AcDbLine
 10
48.917133
 20
1.039486
 30
0.0
 11
48.72446799999999
 21
1.215565
 31
0.0
  0
LINE
  5
78A
330
1F
100
AcDbEntity
  8
1
  6
CONTINUOUS
370
50
 62
4
100
AcDbLine
 10
46.806347
 20
-1.014039
 30
0.0
 11
46.633198
 21
-0.8559479999999999
 31
0.0
  0
LINE
  5
78B
330
1F
100
AcDbEntity
  8
1
  6
CONTINUOUS
370
50
 62
4
100
AcDbLine
 10
49.856987
 20
2.846385
 30
0.0
 11
49.836163
 21
2.865334
 31
0.0
  0
LINE
  5
78C
330
1F
100
AcDbEntity
  8
1
  6
CONTINUOUS
370
50
 62
4
100
AcDbLine
 10
44.74559
 20
1.023528
 30
0.0
 11
44.568882
 21
1.183952
 31
0.0
  0
LINE
  5
78D
330
1F
100
AcDbEntity
  8
1
  6
CONTINUOUS
370
50
 62
4
100
AcDbLine
 10
42.716961
 20
-1.566771
 30
0.0
 11
42.40108499999999
 21
-1.280306
 31
0.0
  0
LINE
  5
78E
330
1F
100
AcDbEntity
  8
1
  6
CONTINUOUS
370
50
 62
4
100
AcDbLine
 10
48.72446799999999
 20
1.215565
 30
0.0
 11
48.533936
 21
1.388116
 31
0.0
  0
LINE
  5
78F
330
1F
100
AcDbEntity
  8
1
  6
CONTINUOUS
370
50
 62
4
100
AcDbLine
 10
48.533936
 20
1.388116
 30
0.0
 11
48.349144
 21
1.554528
 31
0.0
  0
LINE
  5
790
330
1F
100
AcDbEntity
  8
1
  6
CONTINUOUS
370
50
 62
4
100
AcDbLine
 10
41.799145
 20
-1.186919
 30
0.0
 11
41.52670699999999
 21
-0.941669
 31
0.0
  0
LINE
  5
791
330
1F
100
AcDbEntity
  8
1
  6
CONTINUOUS
370
50
 62
4
100
AcDbLine
 10
46.977345
 20
-1.167123
 30
0.0
 11
46.806347
 21
-1.014039
 31
0.0
  0
LINE
  5
792
330
1F
100
AcDbEntity
  8
1
  6
CONTINUOUS
370
50
 62
4
100
AcDbLine
 10
44.28498099999999
 20
0.983803
 30
0.0
 11
44.017838
 21
1.222268
 31
0.0
  0
LINE
  5
793
330
1F
100
AcDbEntity
  8
1
  6
CONTINUOUS
370
50
 62
4
100
AcDbLine
 10
49.511845
 20
0.958519
 30
0.0
 11
49.5
 21
0.969084
 31
0.0
  0
LINE
  5
794
330
1F
100
AcDbEntity
  8
1
  6
CONTINUOUS
370
50
 62
4
100
AcDbLine
 10
49.5
 20
0.969084
 30
0.0
 11
49.152397
 21
1.278519
 31
0.0
  0
LINE
  5
795
330
1F
100
AcDbEntity
  8
1
  6
CONTINUOUS
370
50
 62
4
100
AcDbLine
 10
48.349144
 20
1.554528
 30
0.0
 11
48.171352
 21
1.712255
 31
0.0
  0
LINE
  5
796
330
1F
100
AcDbEntity
  8
1
  6
CONTINUOUS
370
50
 62
4
100
AcDbLine
 10
42.931961
 20
-1.757443
 30
0.0
 11
42.716961
 21
-1.566771
 31
0.0
  0
LINE
  5
797
330
1F
100
AcDbEntity
  8
1
  6
CONTINUOUS
370
50
 62
4
100
AcDbLine
 10
46.653625
 20
-1.328898
 30
0.0
 11
46.430763
 21
-1.132484
 31
0.0
  0
LINE
  5
798
330
1F
100
AcDbEntity
  8
1
  6
CONTINUOUS
370
50
 62
4
100
AcDbLine
 10
47.145588
 20
-1.314927
 30
0.0
 11
46.977345
 21
-1.167123
 31
0.0
  0
LINE
  5
799
330
1F
100
AcDbEntity
  8
1
  6
CONTINUOUS
370
50
 62
4
100
AcDbLine
 10
44.568882
 20
1.183952
 30
0.0
 11
44.39151
 21
1.339434
 31
0.0
  0
LINE
  5
79A
330
1F
100
AcDbEntity
  8
1
  6
CONTINUOUS
370
50
 62
4
100
AcDbLine
 10
40.144764
 20
-2.494415
 30
0.0
 11
40.05681999999999
 21
-2.417442
 31
0.0
  0
LINE
  5
79B
330
1F
100
AcDbEntity
  8
1
  6
CONTINUOUS
370
50
 62
4
100
AcDbLine
 10
42.074696
 20
-1.427626
 30
0.0
 11
41.799145
 21
-1.186919
 31
0.0
  0
LINE
  5
79C
330
1F
100
AcDbEntity
  8
1
  6
CONTINUOUS
370
50
 62
4
100
AcDbLine
 10
44.017838
 20
1.222268
 30
0.0
 11
43.751152
 21
1.452959
 31
0.0
  0
LINE
  5
79D
330
1F
100
AcDbEntity
  8
1
  6
CONTINUOUS
370
50
 62
4
100
AcDbLine
 10
47.310501
 20
-1.457207
 30
0.0
 11
47.145588
 21
-1.314927
 31
0.0
  0
LINE
  5
79E
330
1F
100
AcDbEntity
  8
1
  6
CONTINUOUS
370
50
 62
4
100
AcDbLine
 10
49.523952
 20
0.9481259999999999
 30
0.0
 11
49.511845
 21
0.958519
 31
0.0
  0
LINE
  5
79F
330
1F
100
AcDbEntity
  8
1
  6
CONTINUOUS
370
50
 62
4
100
AcDbLine
 10
49.152397
 20
1.278519
 30
0.0
 11
48.806431
 21
1.574731
 31
0.0
  0
LINE
  5
7A0
330
1F
100
AcDbEntity
  8
1
  6
CONTINUOUS
370
50
 62
4
100
AcDbLine
 10
48.95762999999999
 20
0.883729
 30
0.0
 11
48.903526
 21
0.929879
 31
0.0
  0
LINE
  5
7A1
330
1F
100
AcDbEntity
  8
1
  6
CONTINUOUS
370
50
 62
4
100
AcDbLine
 10
49.06599
 20
0.79131
 30
0.0
 11
49.01181
 21
0.8375199999999999
 31
0.0
  0
LINE
  5
7A2
330
1F
100
AcDbEntity
  8
1
  6
CONTINUOUS
370
50
 62
4
100
AcDbLine
 10
49.01181
 20
0.8375199999999999
 30
0.0
 11
48.95762999999999
 21
0.883729
 31
0.0
  0
LINE
  5
7A3
330
1F
100
AcDbEntity
  8
1
  6
CONTINUOUS
370
50
 62
4
100
AcDbLine
 10
49.174179
 20
0.699048
 30
0.0
 11
49.12011
 21
0.745158
 31
0.0
  0
LINE
  5
7A4
330
1F
100
AcDbEntity
  8
1
  6
CONTINUOUS
370
50
 62
4
100
AcDbLine
 10
49.12011
 20
0.745158
 30
0.0
 11
49.06599
 21
0.79131
 31
0.0
  0
LINE
  5
7A5
330
1F
100
AcDbEntity
  8
1
  6
CONTINUOUS
370
50
 62
4
100
AcDbLine
 10
49.228817
 20
0.652459
 30
0.0
 11
49.174179
 21
0.699048
 31
0.0
  0
LINE
  5
7A6
330
1F
100
AcDbEntity
  8
1
  6
CONTINUOUS
370
50
 62
4
100
AcDbLine
 10
49.33894
 20
0.5585629999999999
 30
0.0
 11
49.283859
 21
0.605528
 31
0.0
  0
LINE
  5
7A7
330
1F
100
AcDbEntity
  8
1
  6
CONTINUOUS
370
50
 62
4
100
AcDbLine
 10
49.283859
 20
0.605528
 30
0.0
 11
49.228817
 21
0.652459
 31
0.0
  0
LINE
  5
7A8
330
1F
100
AcDbEntity
  8
1
  6
CONTINUOUS
370
50
 62
4
100
AcDbLine
 10
49.393707
 20
0.511873
 30
0.0
 11
49.33894
 21
0.5585629999999999
 31
0.0
  0
LINE
  5
7A9
330
1F
100
AcDbEntity
  8
1
  6
CONTINUOUS
370
50
 62
4
100
AcDbLine
 10
49.447796
 20
0.465764
 30
0.0
 11
49.393707
 21
0.511873
 31
0.0
  0
LINE
  5
7AA
330
1F
100
AcDbEntity
  8
1
  6
CONTINUOUS
370
50
 62
4
100
AcDbLine
 10
49.500687
 20
0.420682
 30
0.0
 11
49.447796
 21
0.465764
 31
0.0
  0
LINE
  5
7AB
330
1F
100
AcDbEntity
  8
1
  6
CONTINUOUS
370
50
 62
4
100
AcDbLine
 10
49.55183
 20
0.377092
 30
0.0
 11
49.500687
 21
0.420682
 31
0.0
  0
LINE
  5
7AC
330
1F
100
AcDbEntity
  8
1
  6
CONTINUOUS
370
50
 62
4
100
AcDbLine
 10
49.600842
 20
0.335328
 30
0.0
 11
49.55183
 21
0.377092
 31
0.0
  0
LINE
  5
7AD
330
1F
100
AcDbEntity
  8
1
  6
CONTINUOUS
370
50
 62
4
100
AcDbLine
 10
49.647327
 20
0.295721
 30
0.0
 11
49.600842
 21
0.335328
 31
0.0
  0
LINE
  5
7AE
330
1F
100
AcDbEntity
  8
1
  6
CONTINUOUS
370
50
 62
4
100
AcDbLine
 10
49.690895
 20
0.258606
 30
0.0
 11
49.647327
 21
0.295721
 31
0.0
  0
LINE
  5
7AF
330
1F
100
AcDbEntity
  8
1
  6
CONTINUOUS
370
50
 62
4
100
AcDbLine
 10
49.731144
 20
0.224328
 30
0.0
 11
49.690895
 21
0.258606
 31
0.0
  0
LINE
  5
7B0
330
1F
100
AcDbEntity
  8
1
  6
CONTINUOUS
370
50
 62
4
100
AcDbLine
 10
49.766991
 20
0.193809
 30
0.0
 11
49.731144
 21
0.224328
 31
0.0
  0
LINE
  5
7B1
330
1F
100
AcDbEntity
  8
1
  6
CONTINUOUS
370
50
 62
4
100
AcDbLine
 10
48.171352
 20
1.712255
 30
0.0
 11
47.994549
 21
1.862752
 31
0.0
  0
LINE
  5
7B2
330
1F
100
AcDbEntity
  8
1
  6
CONTINUOUS
370
50
 62
4
100
AcDbLine
 10
49.798298
 20
0.167167
 30
0.0
 11
49.766991
 21
0.193809
 31
0.0
  0
LINE
  5
7B3
330
1F
100
AcDbEntity
  8
1
  6
CONTINUOUS
370
50
 62
4
100
AcDbLine
 10
49.825523
 20
0.144006
 30
0.0
 11
49.798298
 21
0.167167
 31
0.0
  0
LINE
  5
7B4
330
1F
100
AcDbEntity
  8
1
  6
CONTINUOUS
370
50
 62
4
100
AcDbLine
 10
50.0
 20
-0.004229
 30
0.0
 11
49.982929
 21
0.010291
 31
0.0
  0
LINE
  5
7B5
330
1F
100
AcDbEntity
  8
1
  6
CONTINUOUS
370
50
 62
4
100
AcDbLine
 10
49.982929
 20
0.010291
 30
0.0
 11
49.965973
 21
0.024712
 31
0.0
  0
LINE
  5
7B6
330
1F
100
AcDbEntity
  8
1
  6
CONTINUOUS
370
50
 62
4
100
AcDbLine
 10
49.965973
 20
0.024712
 30
0.0
 11
49.949707
 21
0.038544
 31
0.0
  0
LINE
  5
7B7
330
1F
100
AcDbEntity
  8
1
  6
CONTINUOUS
370
50
 62
4
100
AcDbLine
 10
49.949707
 20
0.038544
 30
0.0
 11
49.934731
 21
0.051276
 31
0.0
  0
LINE
  5
7B8
330
1F
100
AcDbEntity
  8
1
  6
CONTINUOUS
370
50
 62
4
100
AcDbLine
 10
49.849144
 20
0.123928
 30
0.0
 11
49.825523
 21
0.144006
 31
0.0
  0
LINE
  5
7B9
330
1F
100
AcDbEntity
  8
1
  6
CONTINUOUS
370
50
 62
4
100
AcDbLine
 10
49.934731
 20
0.051276
 30
0.0
 11
49.921665
 21
0.062377
 31
0.0
  0
LINE
  5
7BA
330
1F
100
AcDbEntity
  8
1
  6
CONTINUOUS
370
50
 62
4
100
AcDbLine
 10
49.869621
 20
0.106533
 30
0.0
 11
49.849144
 21
0.123928
 31
0.0
  0
LINE
  5
7BB
330
1F
100
AcDbEntity
  8
1
  6
CONTINUOUS
370
50
 62
4
100
AcDbLine
 10
49.921665
 20
0.062377
 30
0.0
 11
49.910847
 21
0.071564
 31
0.0
  0
LINE
  5
7BC
330
1F
100
AcDbEntity
  8
1
  6
CONTINUOUS
370
50
 62
4
100
AcDbLine
 10
49.887318
 20
0.091514
 30
0.0
 11
49.869621
 21
0.106533
 31
0.0
  0
LINE
  5
7BD
330
1F
100
AcDbEntity
  8
1
  6
CONTINUOUS
370
50
 62
4
100
AcDbLine
 10
47.473381
 20
-1.595356
 30
0.0
 11
47.310501
 21
-1.457207
 31
0.0
  0
LINE
  5
7BE
330
1F
100
AcDbEntity
  8
1
  6
CONTINUOUS
370
50
 62
4
100
AcDbLine
 10
49.910847
 20
0.071564
 30
0.0
 11
49.902573
 21
0.07858
 31
0.0
  0
LINE
  5
7BF
330
1F
100
AcDbEntity
  8
1
  6
CONTINUOUS
370
50
 62
4
100
AcDbLine
 10
49.902573
 20
0.07858
 30
0.0
 11
49.887318
 21
0.091514
 31
0.0
  0
LINE
  5
7C0
330
1F
100
AcDbEntity
  8
1
  6
CONTINUOUS
370
50
 62
4
100
AcDbLine
 10
42.351154
 20
-1.66182
 30
0.0
 11
42.074696
 21
-1.427626
 31
0.0
  0
LINE
  5
7C1
330
1F
100
AcDbEntity
  8
1
  6
CONTINUOUS
370
50
 62
4
100
AcDbLine
 10
44.39151
 20
1.339434
 30
0.0
 11
44.213631
 21
1.490043
 31
0.0
  0
LINE
  5
7C2
330
1F
100
AcDbEntity
  8
1
  6
CONTINUOUS
370
50
 62
4
100
AcDbLine
 10
46.881557
 20
-1.521831
 30
0.0
 11
46.653625
 21
-1.328898
 31
0.0
  0
LINE
  5
7C3
330
1F
100
AcDbEntity
  8
1
  6
CONTINUOUS
370
50
 62
4
100
AcDbLine
 10
43.751152
 20
1.452959
 30
0.0
 11
43.48637
 21
1.674919
 31
0.0
  0
LINE
  5
7C4
330
1F
100
AcDbEntity
  8
1
  6
CONTINUOUS
370
50
 62
4
100
AcDbLine
 10
47.635036
 20
-1.729984
 30
0.0
 11
47.473381
 21
-1.595356
 31
0.0
  0
LINE
  5
7C5
330
1F
100
AcDbEntity
  8
1
  6
CONTINUOUS
370
50
 62
4
100
AcDbLine
 10
43.117241
 20
-1.911741
 30
0.0
 11
42.931961
 21
-1.757443
 31
0.0
  0
LINE
  5
7C6
330
1F
100
AcDbEntity
  8
1
  6
CONTINUOUS
370
50
 62
4
100
AcDbLine
 10
48.806431
 20
1.574731
 30
0.0
 11
48.476677
 21
1.846741
 31
0.0
  0
LINE
  5
7C7
330
1F
100
AcDbEntity
  8
1
  6
CONTINUOUS
370
50
 62
4
100
AcDbLine
 10
49.536324
 20
0.937931
 30
0.0
 11
49.523952
 21
0.9481259999999999
 31
0.0
  0
LINE
  5
7C8
330
1F
100
AcDbEntity
  8
1
  6
CONTINUOUS
370
50
 62
4
100
AcDbLine
 10
42.626312
 20
-1.887531
 30
0.0
 11
42.351154
 21
-1.66182
 31
0.0
  0
LINE
  5
7C9
330
1F
100
AcDbEntity
  8
1
  6
CONTINUOUS
370
50
 62
4
100
AcDbLine
 10
44.213631
 20
1.490043
 30
0.0
 11
44.035183
 21
1.63614
 31
0.0
  0
LINE
  5
7CA
330
1F
100
AcDbEntity
  8
1
  6
CONTINUOUS
370
50
 62
4
100
AcDbLine
 10
47.795265
 20
-1.860707
 30
0.0
 11
47.635036
 21
-1.729984
 31
0.0
  0
LINE
  5
7CB
330
1F
100
AcDbEntity
  8
1
  6
CONTINUOUS
370
50
 62
4
100
AcDbLine
 10
47.113194
 20
-1.709944
 30
0.0
 11
46.881557
 21
-1.521831
 31
0.0
  0
LINE
  5
7CC
330
1F
100
AcDbEntity
  8
1
  6
CONTINUOUS
370
50
 62
4
100
AcDbLine
 10
43.48637
 20
1.674919
 30
0.0
 11
43.227486
 21
1.885116
 31
0.0
  0
LINE
  5
7CD
330
1F
100
AcDbEntity
  8
1
  6
CONTINUOUS
370
50
 62
4
100
AcDbLine
 10
49.836163
 20
2.865334
 30
0.0
 11
49.814606
 21
2.882548
 31
0.0
  0
LINE
  5
7CE
330
1F
100
AcDbEntity
  8
1
  6
CONTINUOUS
370
50
 62
4
100
AcDbLine
 10
47.953865
 20
-1.987144
 30
0.0
 11
47.795265
 21
-1.860707
 31
0.0
  0
LINE
  5
7CF
330
1F
100
AcDbEntity
  8
1
  6
CONTINUOUS
370
50
 62
4
100
AcDbLine
 10
47.994549
 20
1.862752
 30
0.0
 11
47.81365599999999
 21
2.006781
 31
0.0
  0
LINE
  5
7D0
330
1F
100
AcDbEntity
  8
1
  6
CONTINUOUS
370
50
 62
4
100
AcDbLine
 10
48.476677
 20
1.846741
 30
0.0
 11
48.208523
 21
2.059308
 31
0.0
  0
LINE
  5
7D1
330
1F
100
AcDbEntity
  8
1
  6
CONTINUOUS
370
50
 62
4
100
AcDbLine
 10
44.035183
 20
1.63614
 30
0.0
 11
43.856846
 21
1.777332
 31
0.0
  0
LINE
  5
7D2
330
1F
100
AcDbEntity
  8
1
  6
CONTINUOUS
370
50
 62
4
100
AcDbLine
 10
49.548969
 20
0.927962
 30
0.0
 11
49.536324
 21
0.937931
 31
0.0
  0
LINE
  5
7D3
330
1F
100
AcDbEntity
  8
1
  6
CONTINUOUS
370
50
 62
4
100
AcDbLine
 10
42.907143
 20
-2.108479
 30
0.0
 11
42.626312
 21
-1.887531
 31
0.0
  0
LINE
  5
7D4
330
1F
100
AcDbEntity
  8
1
  6
CONTINUOUS
370
50
 62
4
100
AcDbLine
 10
43.227486
 20
1.885116
 30
0.0
 11
42.993237
 21
2.069076
 31
0.0
  0
LINE
  5
7D5
330
1F
100
AcDbEntity
  8
1
  6
CONTINUOUS
370
50
 62
4
100
AcDbLine
 10
47.347157
 20
-1.891902
 30
0.0
 11
47.113194
 21
-1.709944
 31
0.0
  0
LINE
  5
7D6
330
1F
100
AcDbEntity
  8
1
  6
CONTINUOUS
370
50
 62
4
100
AcDbLine
 10
45.310959
 20
-0.015906
 30
0.0
 11
45.057384
 21
0.180632
 31
0.0
  0
LINE
  5
7D7
330
1F
100
AcDbEntity
  8
1
  6
CONTINUOUS
370
50
 62
4
100
AcDbLine
 10
48.119614
 20
-2.115578
 30
0.0
 11
47.953865
 21
-1.987144
 31
0.0
  0
LINE
  5
7D8
330
1F
100
AcDbEntity
  8
1
  6
CONTINUOUS
370
50
 62
4
100
AcDbLine
 10
49.798298
 20
2.416742
 30
0.0
 11
49.766991
 21
2.440907
 31
0.0
  0
LINE
  5
7D9
330
1F
100
AcDbEntity
  8
1
  6
CONTINUOUS
370
50
 62
4
100
AcDbLine
 10
43.304955
 20
-2.056182
 30
0.0
 11
43.117241
 21
-1.911741
 31
0.0
  0
LINE
  5
7DA
330
1F
100
AcDbEntity
  8
1
  6
CONTINUOUS
370
50
 62
4
100
AcDbLine
 10
43.856846
 20
1.777332
 30
0.0
 11
43.679317
 21
1.913212
 31
0.0
  0
LINE
  5
7DB
330
1F
100
AcDbEntity
  8
1
  6
CONTINUOUS
370
50
 62
4
100
AcDbLine
 10
40.236233
 20
-2.563544
 30
0.0
 11
40.144764
 21
-2.494415
 31
0.0
  0
LINE
  5
7DC
330
1F
100
AcDbEntity
  8
1
  6
CONTINUOUS
370
50
 62
4
100
AcDbLine
 10
49.561886
 20
0.918261
 30
0.0
 11
49.548969
 21
0.927962
 31
0.0
  0
LINE
  5
7DD
330
1F
100
AcDbEntity
  8
1
  6
CONTINUOUS
370
50
 62
4
100
AcDbLine
 10
35.0
 20
2.84995
 30
0.0
 11
34.799999
 21
2.99995
 31
0.0
  0
LINE
  5
7DE
330
1F
100
AcDbEntity
  8
1
  6
CONTINUOUS
370
50
 62
4
100
AcDbLine
 10
45.057384
 20
0.180632
 30
0.0
 11
44.803818
 21
0.370075
 31
0.0
  0
LINE
  5
7DF
330
1F
100
AcDbEntity
  8
1
  6
CONTINUOUS
370
50
 62
4
100
AcDbLine
 10
48.208523
 20
2.059308
 30
0.0
 11
48.00358199999999
 21
2.212402
 31
0.0
  0
LINE
  5
7E0
330
1F
100
AcDbEntity
  8
1
  6
CONTINUOUS
370
50
 62
4
100
AcDbLine
 10
47.582081
 20
-2.066367
 30
0.0
 11
47.347157
 21
-1.891902
 31
0.0
  0
LINE
  5
7E1
330
1F
100
AcDbEntity
  8
1
  6
CONTINUOUS
370
50
 62
4
100
AcDbLine
 10
42.993237
 20
2.069076
 30
0.0
 11
42.780586
 21
2.226465
 31
0.0
  0
LINE
  5
7E2
330
1F
100
AcDbEntity
  8
1
  6
CONTINUOUS
370
50
 62
4
100
AcDbLine
 10
50.0
 20
0.006787
 30
0.0
 11
49.983761
 21
0.018795
 31
0.0
  0
LINE
  5
7E3
330
1F
100
AcDbEntity
  8
1
  6
CONTINUOUS
370
50
 62
4
100
AcDbLine
 10
43.679317
 20
1.913212
 30
0.0
 11
43.50329199999999
 21
2.04337
 31
0.0
  0
LINE
  5
7E4
330
1F
100
AcDbEntity
  8
1
  6
CONTINUOUS
370
50
 62
4
100
AcDbLine
 10
49.983761
 20
0.018795
 30
0.0
 11
49.96752499999999
 21
0.030786
 31
0.0
  0
LINE
  5
7E5
330
1F
100
AcDbEntity
  8
1
  6
CONTINUOUS
370
50
 62
4
100
AcDbLine
 10
49.96752499999999
 20
0.030786
 30
0.0
 11
49.951286
 21
0.04276
 31
0.0
  0
LINE
  5
7E6
330
1F
100
AcDbEntity
  8
1
  6
CONTINUOUS
370
50
 62
4
100
AcDbLine
 10
49.951286
 20
0.04276
 30
0.0
 11
49.93505099999999
 21
0.054717
 31
0.0
  0
LINE
  5
7E7
330
1F
100
AcDbEntity
  8
1
  6
CONTINUOUS
370
50
 62
4
100
AcDbLine
 10
49.93505099999999
 20
0.054717
 30
0.0
 11
49.918812
 21
0.066658
 31
0.0
  0
LINE
  5
7E8
330
1F
100
AcDbEntity
  8
1
  6
CONTINUOUS
370
50
 62
4
100
AcDbLine
 10
47.81365599999999
 20
2.006781
 30
0.0
 11
47.631001
 21
2.140937
 31
0.0
  0
LINE
  5
7E9
330
1F
100
AcDbEntity
  8
1
  6
CONTINUOUS
370
50
 62
4
100
AcDbLine
 10
49.918812
 20
0.066658
 30
0.0
 11
49.902573
 21
0.078582
 31
0.0
  0
LINE
  5
7EA
330
1F
100
AcDbEntity
  8
1
  6
CONTINUOUS
370
50
 62
4
100
AcDbLine
 10
48.329475
 20
-2.267316
 30
0.0
 11
48.119614
 21
-2.115578
 31
0.0
  0
LINE
  5
7EB
330
1F
100
AcDbEntity
  8
1
  6
CONTINUOUS
370
50
 62
4
100
AcDbLine
 10
44.803818
 20
0.370075
 30
0.0
 11
44.550247
 21
0.55259
 31
0.0
  0
LINE
  5
7EC
330
1F
100
AcDbEntity
  8
1
  6
CONTINUOUS
370
50
 62
4
100
AcDbLine
 10
43.50329199999999
 20
2.04337
 30
0.0
 11
43.32906
 21
2.167622
 31
0.0
  0
LINE
  5
7ED
330
1F
100
AcDbEntity
  8
1
  6
CONTINUOUS
370
50
 62
4
100
AcDbLine
 10
49.57508499999999
 20
0.908856
 30
0.0
 11
49.561886
 21
0.918261
 31
0.0
  0
LINE
  5
7EE
330
1F
100
AcDbEntity
  8
1
  6
CONTINUOUS
370
50
 62
4
100
AcDbLine
 10
43.494869
 20
-2.190707
 30
0.0
 11
43.304955
 21
-2.056182
 31
0.0
  0
LINE
  5
7EF
330
1F
100
AcDbEntity
  8
1
  6
CONTINUOUS
370
50
 62
4
100
AcDbLine
 10
47.81659699999999
 20
-2.232002
 30
0.0
 11
47.582081
 21
-2.066367
 31
0.0
  0
LINE
  5
7F0
330
1F
100
AcDbEntity
  8
1
  6
CONTINUOUS
370
50
 62
4
100
AcDbLine
 10
43.221809
 20
-2.330029
 30
0.0
 11
42.907143
 21
-2.108479
 31
0.0
  0
LINE
  5
7F1
330
1F
100
AcDbEntity
  8
1
  6
CONTINUOUS
370
50
 62
4
100
AcDbLine
 10
49.814606
 20
2.882548
 30
0.0
 11
49.792423
 21
2.89804
 31
0.0
  0
LINE
  5
7F2
330
1F
100
AcDbEntity
  8
1
  6
CONTINUOUS
370
50
 62
4
100
AcDbLine
 10
44.550247
 20
0.55259
 30
0.0
 11
44.296669
 21
0.7288439999999999
 31
0.0
  0
LINE
  5
7F3
330
1F
100
AcDbEntity
  8
1
  6
CONTINUOUS
370
50
 62
4
100
AcDbLine
 10
48.994518
 20
0.724503
 30
0.0
 11
48.74931
 21
0.893705
 31
0.0
  0
LINE
  5
7F4
330
1F
100
AcDbEntity
  8
1
  6
CONTINUOUS
370
50
 62
4
100
AcDbLine
 10
43.32906
 20
2.167622
 30
0.0
 11
43.156651
 21
2.285656
 31
0.0
  0
LINE
  5
7F5
330
1F
100
AcDbEntity
  8
1
  6
CONTINUOUS
370
50
 62
4
100
AcDbLine
 10
48.74931
 20
0.893705
 30
0.0
 11
48.504101
 21
1.061182
 31
0.0
  0
LINE
  5
7F6
330
1F
100
AcDbEntity
  8
1
  6
CONTINUOUS
370
50
 62
4
100
AcDbLine
 10
48.00358199999999
 20
2.212402
 30
0.0
 11
47.823776
 21
2.334902
 31
0.0
  0
LINE
  5
7F7
330
1F
100
AcDbEntity
  8
1
  6
CONTINUOUS
370
50
 62
4
100
AcDbLine
 10
47.631001
 20
2.140937
 30
0.0
 11
47.447922
 21
2.264702
 31
0.0
  0
LINE
  5
7F8
330
1F
100
AcDbEntity
  8
1
  6
CONTINUOUS
370
50
 62
4
100
AcDbLine
 10
42.780586
 20
2.226465
 30
0.0
 11
42.579815
 21
2.361655
 31
0.0
  0
LINE
  5
7F9
330
1F
100
AcDbEntity
  8
1
  6
CONTINUOUS
370
50
 62
4
100
AcDbLine
 10
48.504101
 20
1.061182
 30
0.0
 11
48.258896
 21
1.226262
 31
0.0
  0
LINE
  5
7FA
330
1F
100
AcDbEntity
  8
1
  6
CONTINUOUS
370
50
 62
4
100
AcDbLine
 10
44.296669
 20
0.7288439999999999
 30
0.0
 11
44.043079
 21
0.899567
 31
0.0
  0
LINE
  5
7FB
330
1F
100
AcDbEntity
  8
1
  6
CONTINUOUS
370
50
 62
4
100
AcDbLine
 10
49.588551
 20
0.8997959999999999
 30
0.0
 11
49.57508499999999
 21
0.908856
 31
0.0
  0
LINE
  5
7FC
330
1F
100
AcDbEntity
  8
1
  6
CONTINUOUS
370
50
 62
4
100
AcDbLine
 10
48.047768
 20
-2.386238
 30
0.0
 11
47.81659699999999
 21
-2.232002
 31
0.0
  0
LINE
  5
7FD
330
1F
100
AcDbEntity
  8
1
  6
CONTINUOUS
370
50
 62
4
100
AcDbLine
 10
48.258896
 20
1.226262
 30
0.0
 11
48.01370199999999
 21
1.38686
 31
0.0
  0
LINE
  5
7FE
330
1F
100
AcDbEntity
  8
1
  6
CONTINUOUS
370
50
 62
4
100
AcDbLine
 10
43.156651
 20
2.285656
 30
0.0
 11
42.986248
 21
2.396983
 31
0.0
  0
LINE
  5
7FF
330
1F
100
AcDbEntity
  8
1
  6
CONTINUOUS
370
50
 62
4
100
AcDbLine
 10
44.043079
 20
0.899567
 30
0.0
 11
43.789482
 21
1.065245
 31
0.0
  0
LINE
  5
800
330
1F
100
AcDbEntity
  8
1
  6
CONTINUOUS
370
50
 62
4
100
AcDbLine
 10
43.686913
 20
-2.315397
 30
0.0
 11
43.494869
 21
-2.190707
 31
0.0
  0
LINE
  5
801
330
1F
100
AcDbEntity
  8
1
  6
CONTINUOUS
370
50
 62
4
100
AcDbLine
 10
40.331917
 20
-2.624893
 30
0.0
 11
40.236233
 21
-2.563544
 31
0.0
  0
LINE
  5
802
330
1F
100
AcDbEntity
  8
1
  6
CONTINUOUS
370
50
 62
4
100
AcDbLine
 10
48.589851
 20
-2.433479
 30
0.0
 11
48.329475
 21
-2.267316
 31
0.0
  0
LINE
  5
803
330
1F
100
AcDbEntity
  8
1
  6
CONTINUOUS
370
50
 62
4
100
AcDbLine
 10
43.789482
 20
1.065245
 30
0.0
 11
43.535873
 21
1.226166
 31
0.0
  0
LINE
  5
804
330
1F
100
AcDbEntity
  8
1
  6
CONTINUOUS
370
50
 62
4
100
AcDbLine
 10
49.60228
 20
0.891131
 30
0.0
 11
49.588551
 21
0.8997959999999999
 31
0.0
  0
LINE
  5
805
330
1F
100
AcDbEntity
  8
1
  6
CONTINUOUS
370
50
 62
4
100
AcDbLine
 10
47.447922
 20
2.264702
 30
0.0
 11
47.265068
 21
2.378222
 31
0.0
  0
LINE
  5
806
330
1F
100
AcDbEntity
  8
1
  6
CONTINUOUS
370
50
 62
4
100
AcDbLine
 10
47.823776
 20
2.334902
 30
0.0
 11
47.641819
 21
2.446989
 31
0.0
  0
LINE
  5
807
330
1F
100
AcDbEntity
  8
1
  6
CONTINUOUS
370
50
 62
4
100
AcDbLine
 10
43.535873
 20
1.226166
 30
0.0
 11
43.282265
 21
1.382387
 31
0.0
  0
LINE
  5
808
330
1F
100
AcDbEntity
  8
1
  6
CONTINUOUS
370
50
 62
4
100
AcDbLine
 10
42.986248
 20
2.396983
 30
0.0
 11
42.809574
 21
2.505774
 31
0.0
  0
LINE
  5
809
330
1F
100
AcDbEntity
  8
1
  6
CONTINUOUS
370
50
 62
4
100
AcDbLine
 10
48.274487
 20
-2.524359
 30
0.0
 11
48.047768
 21
-2.386238
 31
0.0
  0
LINE
  5
80A
330
1F
100
AcDbEntity
  8
1
  6
CONTINUOUS
370
50
 62
4
100
AcDbLine
 10
49.792423
 20
2.89804
 30
0.0
 11
49.76968
 21
2.911838
 31
0.0
  0
LINE
  5
80B
330
1F
100
AcDbEntity
  8
1
  6
CONTINUOUS
370
50
 62
4
100
AcDbLine
 10
49.766991
 20
2.440907
 30
0.0
 11
49.731144
 21
2.462472
 31
0.0
  0
LINE
  5
80C
330
1F
100
AcDbEntity
  8
1
  6
CONTINUOUS
370
50
 62
4
100
AcDbLine
 10
42.579815
 20
2.361655
 30
0.0
 11
42.379189
 21
2.482018
 31
0.0
  0
LINE
  5
80D
330
1F
100
AcDbEntity
  8
1
  6
CONTINUOUS
370
50
 62
4
100
AcDbLine
 10
48.01370199999999
 20
1.38686
 30
0.0
 11
47.768524
 21
1.533461
 31
0.0
  0
LINE
  5
80E
330
1F
100
AcDbEntity
  8
1
  6
CONTINUOUS
370
50
 62
4
100
AcDbLine
 10
43.282265
 20
1.382387
 30
0.0
 11
43.028664
 21
1.533024
 31
0.0
  0
LINE
  5
80F
330
1F
100
AcDbEntity
  8
1
  6
CONTINUOUS
370
50
 62
4
100
AcDbLine
 10
43.880707
 20
-2.430335
 30
0.0
 11
43.686913
 21
-2.315397
 31
0.0
  0
LINE
  5
810
330
1F
100
AcDbEntity
  8
1
  6
CONTINUOUS
370
50
 62
4
100
AcDbLine
 10
49.616249
 20
0.882914
 30
0.0
 11
49.60228
 21
0.891131
 31
0.0
  0
LINE
  5
811
330
1F
100
AcDbEntity
  8
1
  6
CONTINUOUS
370
50
 62
4
100
AcDbLine
 10
43.578495
 20
-2.538584
 30
0.0
 11
43.221809
 21
-2.330029
 31
0.0
  0
LINE
  5
812
330
1F
100
AcDbEntity
  8
1
  6
CONTINUOUS
370
50
 62
4
100
AcDbLine
 10
48.35969499999999
 20
-0.010351
 30
0.0
 11
48.079128
 21
0.152478
 31
0.0
  0
LINE
  5
813
330
1F
100
AcDbEntity
  8
1
  6
CONTINUOUS
370
50
 62
4
100
AcDbLine
 10
47.265068
 20
2.378222
 30
0.0
 11
47.083088
 21
2.481647
 31
0.0
  0
LINE
  5
814
330
1F
100
AcDbEntity
  8
1
  6
CONTINUOUS
370
50
 62
4
100
AcDbLine
 10
48.079128
 20
0.152478
 30
0.0
 11
47.798378
 21
0.311986
 31
0.0
  0
LINE
  5
815
330
1F
100
AcDbEntity
  8
1
  6
CONTINUOUS
370
50
 62
4
100
AcDbLine
 10
43.05578999999999
 20
0.312771
 30
0.0
 11
42.76218799999999
 21
0.479076
 31
0.0
  0
LINE
  5
816
330
1F
100
AcDbEntity
  8
1
  6
CONTINUOUS
370
50
 62
4
100
AcDbLine
 10
43.028664
 20
1.533024
 30
0.0
 11
42.775074
 21
1.67607
 31
0.0
  0
LINE
  5
817
330
1F
100
AcDbEntity
  8
1
  6
CONTINUOUS
370
50
 62
4
100
AcDbLine
 10
48.574158
 20
-0.130828
 30
0.0
 11
48.35969499999999
 21
-0.010351
 31
0.0
  0
LINE
  5
818
330
1F
100
AcDbEntity
  8
1
  6
CONTINUOUS
370
50
 62
4
100
AcDbLine
 10
48.57238
 20
-0.129736
 30
0.0
 11
48.359596
 21
-0.010346
 31
0.0
  0
LINE
  5
819
330
1F
100
AcDbEntity
  8
1
  6
CONTINUOUS
370
50
 62
4
100
AcDbLine
 10
43.349236
 20
0.149035
 30
0.0
 11
43.05578999999999
 21
0.312771
 31
0.0
  0
LINE
  5
81A
330
1F
100
AcDbEntity
  8
1
  6
CONTINUOUS
370
50
 62
4
100
AcDbLine
 10
43.642899
 20
-0.010875
 30
0.0
 11
43.642845
 21
-0.010845
 31
0.0
  0
LINE
  5
81B
330
1F
100
AcDbEntity
  8
1
  6
CONTINUOUS
370
50
 62
4
100
AcDbLine
 10
43.642731
 20
-0.010785
 30
0.0
 11
43.642677
 21
-0.010755
 31
0.0
  0
LINE
  5
81C
330
1F
100
AcDbEntity
  8
1
  6
CONTINUOUS
370
50
 62
4
100
AcDbLine
 10
47.641819
 20
2.446989
 30
0.0
 11
47.458008
 21
2.548696
 31
0.0
  0
LINE
  5
81D
330
1F
100
AcDbEntity
  8
1
  6
CONTINUOUS
370
50
 62
4
100
AcDbLine
 10
48.942684
 20
-0.048567
 30
0.0
 11
48.826744
 21
0.014782
 31
0.0
  0
LINE
  5
81E
330
1F
100
AcDbEntity
  8
1
  6
CONTINUOUS
370
50
 62
4
100
AcDbLine
 10
48.788597
 20
-0.247716
 30
0.0
 11
48.574158
 21
-0.130828
 31
0.0
  0
LINE
  5
81F
330
1F
100
AcDbEntity
  8
1
  6
CONTINUOUS
370
50
 62
4
100
AcDbLine
 10
43.642647
 20
-0.010746
 30
0.0
 11
43.349236
 21
0.149035
 31
0.0
  0
LINE
  5
820
330
1F
100
AcDbEntity
  8
1
  6
CONTINUOUS
370
50
 62
4
100
AcDbLine
 10
48.78677
 20
-0.246446
 30
0.0
 11
48.57238
 21
-0.129736
 31
0.0
  0
LINE
  5
821
330
1F
100
AcDbEntity
  8
1
  6
CONTINUOUS
370
50
 62
4
100
AcDbLine
 10
49.63044
 20
0.875199
 30
0.0
 11
49.616249
 21
0.882914
 31
0.0
  0
LINE
  5
822
330
1F
100
AcDbEntity
  8
1
  6
CONTINUOUS
370
50
 62
4
100
AcDbLine
 10
48.889297
 20
-2.595286
 30
0.0
 11
48.589851
 21
-2.433479
 31
0.0
  0
LINE
  5
823
330
1F
100
AcDbEntity
  8
1
  6
CONTINUOUS
370
50
 62
4
100
AcDbLine
 10
44.075352
 20
-2.535317
 30
0.0
 11
43.880707
 21
-2.430335
 31
0.0
  0
LINE
  5
824
330
1F
100
AcDbEntity
  8
1
  6
CONTINUOUS
370
50
 62
4
100
AcDbLine
 10
42.809574
 20
2.505774
 30
0.0
 11
42.55939499999999
 21
2.640465
 31
0.0
  0
LINE
  5
825
330
1F
100
AcDbEntity
  8
1
  6
CONTINUOUS
370
50
 62
4
100
AcDbLine
 10
47.798378
 20
0.311986
 30
0.0
 11
47.517536
 21
0.463092
 31
0.0
  0
LINE
  5
826
330
1F
100
AcDbEntity
  8
1
  6
CONTINUOUS
370
50
 62
4
100
AcDbLine
 10
49.059128
 20
-0.111161
 30
0.0
 11
48.942684
 21
-0.048567
 31
0.0
  0
LINE
  5
827
330
1F
100
AcDbEntity
  8
1
  6
CONTINUOUS
370
50
 62
4
100
AcDbLine
 10
47.768524
 20
1.533461
 30
0.0
 11
47.523354
 21
1.665039
 31
0.0
  0
LINE
  5
828
330
1F
100
AcDbEntity
  8
1
  6
CONTINUOUS
370
50
 62
4
100
AcDbLine
 10
42.76218799999999
 20
0.479076
 30
0.0
 11
42.468399
 21
0.6362169999999999
 31
0.0
  0
LINE
  5
829
330
1F
100
AcDbEntity
  8
1
  6
CONTINUOUS
370
50
 62
4
100
AcDbLine
 10
40.43225899999999
 20
-2.678419
 30
0.0
 11
40.331917
 21
-2.624893
 31
0.0
  0
LINE
  5
82A
330
1F
100
AcDbEntity
  8
1
  6
CONTINUOUS
370
50
 62
4
100
AcDbLine
 10
43.925537
 20
-0.161184
 30
0.0
 11
43.642647
 21
-0.010746
 31
0.0
  0
LINE
  5
82B
330
1F
100
AcDbEntity
  8
1
  6
CONTINUOUS
370
50
 62
4
100
AcDbLine
 10
42.379189
 20
2.482018
 30
0.0
 11
42.177757
 21
2.589032
 31
0.0
  0
LINE
  5
82C
330
1F
100
AcDbEntity
  8
1
  6
CONTINUOUS
370
50
 62
4
100
AcDbLine
 10
49.175907
 20
-0.172941
 30
0.0
 11
49.059128
 21
-0.111161
 31
0.0
  0
LINE
  5
82D
330
1F
100
AcDbEntity
  8
1
  6
CONTINUOUS
370
50
 62
4
100
AcDbLine
 10
49.003063
 20
-0.361104
 30
0.0
 11
48.788597
 21
-0.247716
 31
0.0
  0
LINE
  5
82E
330
1F
100
AcDbEntity
  8
1
  6
CONTINUOUS
370
50
 62
4
100
AcDbLine
 10
49.002052
 20
-0.360204
 30
0.0
 11
48.78677
 21
-0.246446
 31
0.0
  0
LINE
  5
82F
330
1F
100
AcDbEntity
  8
1
  6
CONTINUOUS
370
50
 62
4
100
AcDbLine
 10
43.642956
 20
-0.010905
 30
0.0
 11
43.642899
 21
-0.010875
 31
0.0
  0
LINE
  5
830
330
1F
100
AcDbEntity
  8
1
  6
CONTINUOUS
370
50
 62
4
100
AcDbLine
 10
43.642845
 20
-0.010845
 30
0.0
 11
43.642731
 21
-0.010785
 31
0.0
  0
LINE
  5
831
330
1F
100
AcDbEntity
  8
1
  6
CONTINUOUS
370
50
 62
4
100
AcDbLine
 10
43.642677
 20
-0.010755
 30
0.0
 11
43.64262
 21
-0.010725
 31
0.0
  0
LINE
  5
832
330
1F
100
AcDbEntity
  8
1
  6
CONTINUOUS
370
50
 62
4
100
AcDbLine
 10
48.508675
 20
-2.64752
 30
0.0
 11
48.274487
 21
-2.524359
 31
0.0
  0
LINE
  5
833
330
1F
100
AcDbEntity
  8
1
  6
CONTINUOUS
370
50
 62
4
100
AcDbLine
 10
44.201977
 20
-0.304702
 30
0.0
 11
43.642979
 21
-0.010722
 31
0.0
  0
LINE
  5
834
330
1F
100
AcDbEntity
  8
1
  6
CONTINUOUS
370
50
 62
4
100
AcDbLine
 10
49.76968
 20
2.911838
 30
0.0
 11
49.746452
 21
2.923965
 31
0.0
  0
LINE
  5
835
330
1F
100
AcDbEntity
  8
1
  6
CONTINUOUS
370
50
 62
4
100
AcDbLine
 10
44.208527
 20
-0.308732
 30
0.0
 11
43.925537
 21
-0.161184
 31
0.0
  0
LINE
  5
836
330
1F
100
AcDbEntity
  8
1
  6
CONTINUOUS
370
50
 62
4
100
AcDbLine
 10
49.29284699999999
 20
-0.233848
 30
0.0
 11
49.175907
 21
-0.172941
 31
0.0
  0
LINE
  5
837
330
1F
100
AcDbEntity
  8
1
  6
CONTINUOUS
370
50
 62
4
100
AcDbLine
 10
47.083088
 20
2.481647
 30
0.0
 11
46.902634
 21
2.575124
 31
0.0
  0
LINE
  5
838
330
1F
100
AcDbEntity
  8
1
  6
CONTINUOUS
370
50
 62
4
100
AcDbLine
 10
42.903645
 20
2.466217
 30
0.0
 11
42.837322
 21
2.500564
 31
0.0
  0
LINE
  5
839
330
1F
100
AcDbEntity
  8
1
  6
CONTINUOUS
370
50
 62
4
100
AcDbLine
 10
48.168518
 20
2.19973
 30
0.0
 11
48.084259
 21
2.24324
 31
0.0
  0
LINE
  5
83A
330
1F
100
AcDbEntity
  8
1
  6
CONTINUOUS
370
50
 62
4
100
AcDbLine
 10
42.970016
 20
2.432024
 30
0.0
 11
42.903645
 21
2.466217
 31
0.0
  0
LINE
  5
83B
330
1F
100
AcDbEntity
  8
1
  6
CONTINUOUS
370
50
 62
4
100
AcDbLine
 10
49.217575
 20
-0.471258
 30
0.0
 11
49.003063
 21
-0.361104
 31
0.0
  0
LINE
  5
83C
330
1F
100
AcDbEntity
  8
1
  6
CONTINUOUS
370
50
 62
4
100
AcDbLine
 10
49.21751
 20
-0.470739
 30
0.0
 11
49.002052
 21
-0.360204
 31
0.0
  0
LINE
  5
83D
330
1F
100
AcDbEntity
  8
1
  6
CONTINUOUS
370
50
 62
4
100
AcDbLine
 10
48.084259
 20
2.24324
 30
0.0
 11
48.006847
 21
2.282953
 31
0.0
  0
LINE
  5
83E
330
1F
100
AcDbEntity
  8
1
  6
CONTINUOUS
370
50
 62
4
100
AcDbLine
 10
44.49163799999999
 20
-0.453961
 30
0.0
 11
44.208527
 21
-0.308732
 31
0.0
  0
LINE
  5
83F
330
1F
100
AcDbEntity
  8
1
  6
CONTINUOUS
370
50
 62
4
100
AcDbLine
 10
49.409786
 20
-0.293823
 30
0.0
 11
49.29284699999999
 21
-0.233848
 31
0.0
  0
LINE
  5
840
330
1F
100
AcDbEntity
  8
1
  6
CONTINUOUS
370
50
 62
4
100
AcDbLine
 10
42.837322
 20
2.500564
 30
0.0
 11
42.770996
 21
2.534561
 31
0.0
  0
LINE
  5
841
330
1F
100
AcDbEntity
  8
1
  6
CONTINUOUS
370
50
 62
4
100
AcDbLine
 10
43.036381
 20
2.398137
 30
0.0
 11
42.970016
 21
2.432024
 31
0.0
  0
LINE
  5
842
330
1F
100
AcDbEntity
  8
1
  6
CONTINUOUS
370
50
 62
4
100
AcDbLine
 10
48.25285
 20
2.156765
 30
0.0
 11
48.168518
 21
2.19973
 31
0.0
  0
LINE
  5
843
330
1F
100
AcDbEntity
  8
1
  6
CONTINUOUS
370
50
 62
4
100
AcDbLine
 10
47.517536
 20
0.463092
 30
0.0
 11
47.23671299999999
 21
0.6059089999999999
 31
0.0
  0
LINE
  5
844
330
1F
100
AcDbEntity
  8
1
  6
CONTINUOUS
370
50
 62
4
100
AcDbLine
 10
48.006847
 20
2.282953
 30
0.0
 11
47.929344
 21
2.322319
 31
0.0
  0
LINE
  5
845
330
1F
100
AcDbEntity
  8
1
  6
CONTINUOUS
370
50
 62
4
100
AcDbLine
 10
44.754936
 20
-0.5854309999999999
 30
0.0
 11
44.201977
 21
-0.304702
 31
0.0
  0
LINE
  5
846
330
1F
100
AcDbEntity
  8
1
  6
CONTINUOUS
370
50
 62
4
100
AcDbLine
 10
42.770996
 20
2.534561
 30
0.0
 11
42.718132
 21
2.561358
 31
0.0
  0
LINE
  5
847
330
1F
100
AcDbEntity
  8
1
  6
CONTINUOUS
370
50
 62
4
100
AcDbLine
 10
44.774845
 20
-0.597177
 30
0.0
 11
44.49163799999999
 21
-0.453961
 31
0.0
  0
LINE
  5
848
330
1F
100
AcDbEntity
  8
1
  6
CONTINUOUS
370
50
 62
4
100
AcDbLine
 10
43.12504999999999
 20
2.353347
 30
0.0
 11
43.036381
 21
2.398137
 31
0.0
  0
LINE
  5
849
330
1F
100
AcDbEntity
  8
1
  6
CONTINUOUS
370
50
 62
4
100
AcDbLine
 10
49.52655799999999
 20
-0.352805
 30
0.0
 11
49.409786
 21
-0.293823
 31
0.0
  0
LINE
  5
84A
330
1F
100
AcDbEntity
  8
1
  6
CONTINUOUS
370
50
 62
4
100
AcDbLine
 10
47.929344
 20
2.322319
 30
0.0
 11
47.851761
 21
2.361327
 31
0.0
  0
LINE
  5
84B
330
1F
100
AcDbEntity
  8
1
  6
CONTINUOUS
370
50
 62
4
100
AcDbLine
 10
42.718132
 20
2.561358
 30
0.0
 11
42.665268
 21
2.58789
 31
0.0
  0
LINE
  5
84C
330
1F
100
AcDbEntity
  8
1
  6
CONTINUOUS
370
50
 62
4
100
AcDbLine
 10
48.321335
 20
2.12241
 30
0.0
 11
48.25285
 21
2.156765
 31
0.0
  0
LINE
  5
84D
330
1F
100
AcDbEntity
  8
1
  6
CONTINUOUS
370
50
 62
4
100
AcDbLine
 10
42.775074
 20
1.67607
 30
0.0
 11
42.521496
 21
1.80283
 31
0.0
  0
LINE
  5
84E
330
1F
100
AcDbEntity
  8
1
  6
CONTINUOUS
370
50
 62
4
100
AcDbLine
 10
49.432148
 20
-0.578483
 30
0.0
 11
49.217575
 21
-0.471258
 31
0.0
  0
LINE
  5
84F
330
1F
100
AcDbEntity
  8
1
  6
CONTINUOUS
370
50
 62
4
100
AcDbLine
 10
45.058098
 20
-0.738536
 30
0.0
 11
44.774845
 21
-0.597177
 31
0.0
  0
LINE
  5
850
330
1F
100
AcDbEntity
  8
1
  6
CONTINUOUS
370
50
 62
4
100
AcDbLine
 10
43.213829
 20
2.309077
 30
0.0
 11
43.12504999999999
 21
2.353347
 31
0.0
  0
LINE
  5
851
330
1F
100
AcDbEntity
  8
1
  6
CONTINUOUS
370
50
 62
4
100
AcDbLine
 10
49.432434
 20
-0.577784
 30
0.0
 11
49.21751
 21
-0.470739
 31
0.0
  0
LINE
  5
852
330
1F
100
AcDbEntity
  8
1
  6
CONTINUOUS
370
50
 62
4
100
AcDbLine
 10
47.851761
 20
2.361327
 30
0.0
 11
47.774097
 21
2.399971
 31
0.0
  0
LINE
  5
853
330
1F
100
AcDbEntity
  8
1
  6
CONTINUOUS
370
50
 62
4
100
AcDbLine
 10
49.643105
 20
-0.410791
 30
0.0
 11
49.52655799999999
 21
-0.352805
 31
0.0
  0
LINE
  5
854
330
1F
100
AcDbEntity
  8
1
  6
CONTINUOUS
370
50
 62
4
100
AcDbLine
 10
49.644768
 20
0.868073
 30
0.0
 11
49.63044
 21
0.875199
 31
0.0
  0
LINE
  5
855
330
1F
100
AcDbEntity
  8
1
  6
CONTINUOUS
370
50
 62
4
100
AcDbLine
 10
42.665268
 20
2.58789
 30
0.0
 11
42.61233499999999
 21
2.614189
 31
0.0
  0
LINE
  5
856
330
1F
100
AcDbEntity
  8
1
  6
CONTINUOUS
370
50
 62
4
100
AcDbLine
 10
42.468399
 20
0.6362169999999999
 30
0.0
 11
42.174549
 21
0.781573
 31
0.0
  0
LINE
  5
857
330
1F
100
AcDbEntity
  8
1
  6
CONTINUOUS
370
50
 62
4
100
AcDbLine
 10
48.389812
 20
2.088546
 30
0.0
 11
48.321335
 21
2.12241
 31
0.0
  0
LINE
  5
858
330
1F
100
AcDbEntity
  8
1
  6
CONTINUOUS
370
50
 62
4
100
AcDbLine
 10
45.29781699999999
 20
-0.85388
 30
0.0
 11
44.754936
 21
-0.5854309999999999
 31
0.0
  0
LINE
  5
859
330
1F
100
AcDbEntity
  8
1
  6
CONTINUOUS
370
50
 62
4
100
AcDbLine
 10
47.458008
 20
2.548696
 30
0.0
 11
47.272625
 21
2.640062
 31
0.0
  0
LINE
  5
85A
330
1F
100
AcDbEntity
  8
1
  6
CONTINUOUS
370
50
 62
4
100
AcDbLine
 10
47.774097
 20
2.399971
 30
0.0
 11
47.707691
 21
2.432694
 31
0.0
  0
LINE
  5
85B
330
1F
100
AcDbEntity
  8
1
  6
CONTINUOUS
370
50
 62
4
100
AcDbLine
 10
43.292854
 20
2.270159
 30
0.0
 11
43.213829
 21
2.309077
 31
0.0
  0
LINE
  5
85C
330
1F
100
AcDbEntity
  8
1
  6
CONTINUOUS
370
50
 62
4
100
AcDbLine
 10
42.61233499999999
 20
2.614189
 30
0.0
 11
42.559402
 21
2.640223
 31
0.0
  0
LINE
  5
85D
330
1F
100
AcDbEntity
  8
1
  6
CONTINUOUS
370
50
 62
4
100
AcDbLine
 10
45.34131199999999
 20
-0.8773449999999999
 30
0.0
 11
45.058098
 21
-0.738536
 31
0.0
  0
LINE
  5
85E
330
1F
100
AcDbEntity
  8
1
  6
CONTINUOUS
370
50
 62
4
100
AcDbLine
 10
47.707691
 20
2.432694
 30
0.0
 11
47.641289
 21
2.465124
 31
0.0
  0
LINE
  5
85F
330
1F
100
AcDbEntity
  8
1
  6
CONTINUOUS
370
50
 62
4
100
AcDbLine
 10
48.458405
 20
2.055115
 30
0.0
 11
48.389812
 21
2.088546
 31
0.0
  0
LINE
  5
860
330
1F
100
AcDbEntity
  8
1
  6
CONTINUOUS
370
50
 62
4
100
AcDbLine
 10
44.269943
 20
-2.63014
 30
0.0
 11
44.075352
 21
-2.535317
 31
0.0
  0
LINE
  5
861
330
1F
100
AcDbEntity
  8
1
  6
CONTINUOUS
370
50
 62
4
100
AcDbLine
 10
49.646797
 20
-0.683043
 30
0.0
 11
49.432148
 21
-0.578483
 31
0.0
  0
LINE
  5
862
330
1F
100
AcDbEntity
  8
1
  6
CONTINUOUS
370
50
 62
4
100
AcDbLine
 10
43.371952
 20
2.231667
 30
0.0
 11
43.292854
 21
2.270159
 31
0.0
  0
LINE
  5
863
330
1F
100
AcDbEntity
  8
1
  6
CONTINUOUS
370
50
 62
4
100
AcDbLine
 10
49.647881
 20
-0.682148
 30
0.0
 11
49.432434
 21
-0.577784
 31
0.0
  0
LINE
  5
864
330
1F
100
AcDbEntity
  8
1
  6
CONTINUOUS
370
50
 62
4
100
AcDbLine
 10
47.641289
 20
2.465124
 30
0.0
 11
47.549225
 21
2.509608
 31
0.0
  0
LINE
  5
865
330
1F
100
AcDbEntity
  8
1
  6
CONTINUOUS
370
50
 62
4
100
AcDbLine
 10
47.23671299999999
 20
0.6059089999999999
 30
0.0
 11
46.955967
 21
0.741024
 31
0.0
  0
LINE
  5
866
330
1F
100
AcDbEntity
  8
1
  6
CONTINUOUS
370
50
 62
4
100
AcDbLine
 10
43.451141
 20
2.193596
 30
0.0
 11
43.371952
 21
2.231667
 31
0.0
  0
LINE
  5
867
330
1F
100
AcDbEntity
  8
1
  6
CONTINUOUS
370
50
 62
4
100
AcDbLine
 10
48.526989
 20
2.022175
 30
0.0
 11
48.458405
 21
2.055115
 31
0.0
  0
LINE
  5
868
330
1F
100
AcDbEntity
  8
1
  6
CONTINUOUS
370
50
 62
4
100
AcDbLine
 10
47.523354
 20
1.665039
 30
0.0
 11
47.278183
 21
1.782498
 31
0.0
  0
LINE
  5
869
330
1F
100
AcDbEntity
  8
1
  6
CONTINUOUS
370
50
 62
4
100
AcDbLine
 10
47.549225
 20
2.509608
 30
0.0
 11
47.457085
 21
2.553587
 31
0.0
  0
LINE
  5
86A
330
1F
100
AcDbEntity
  8
1
  6
CONTINUOUS
370
50
 62
4
100
AcDbLine
 10
43.530327
 20
2.155986
 30
0.0
 11
43.451141
 21
2.193596
 31
0.0
  0
LINE
  5
86B
330
1F
100
AcDbEntity
  8
1
  6
CONTINUOUS
370
50
 62
4
100
AcDbLine
 10
48.581402
 20
1.996388
 30
0.0
 11
48.526989
 21
2.022175
 31
0.0
  0
LINE
  5
86C
330
1F
100
AcDbEntity
  8
1
  6
CONTINUOUS
370
50
 62
4
100
AcDbLine
 10
45.624367
 20
-1.011465
 30
0.0
 11
45.34131199999999
 21
-0.8773449999999999
 31
0.0
  0
LINE
  5
86D
330
1F
100
AcDbEntity
  8
1
  6
CONTINUOUS
370
50
 62
4
100
AcDbLine
 10
47.457085
 20
2.553587
 30
0.0
 11
47.364853
 21
2.597082
 31
0.0
  0
LINE
  5
86E
330
1F
100
AcDbEntity
  8
1
  6
CONTINUOUS
370
50
 62
4
100
AcDbLine
 10
43.593391
 20
2.126356
 30
0.0
 11
43.530327
 21
2.155986
 31
0.0
  0
LINE
  5
86F
330
1F
100
AcDbEntity
  8
1
  6
CONTINUOUS
370
50
 62
4
100
AcDbLine
 10
46.902634
 20
2.575124
 30
0.0
 11
46.724346
 21
2.658801
 31
0.0
  0
LINE
  5
870
330
1F
100
AcDbEntity
  8
1
  6
CONTINUOUS
370
50
 62
4
100
AcDbLine
 10
43.943447
 20
-2.709682
 30
0.0
 11
43.578495
 21
-2.538584
 31
0.0
  0
LINE
  5
871
330
1F
100
AcDbEntity
  8
1
  6
CONTINUOUS
370
50
 62
4
100
AcDbLine
 10
48.635811
 20
1.970907
 30
0.0
 11
48.581402
 21
1.996388
 31
0.0
  0
LINE
  5
872
330
1F
100
AcDbEntity
  8
1
  6
CONTINUOUS
370
50
 62
4
100
AcDbLine
 10
42.177757
 20
2.589032
 30
0.0
 11
41.976368
 21
2.682979
 31
0.0
  0
LINE
  5
873
330
1F
100
AcDbEntity
  8
1
  6
CONTINUOUS
370
50
 62
4
100
AcDbLine
 10
47.364853
 20
2.597082
 30
0.0
 11
47.272625
 21
2.640062
 31
0.0
  0
LINE
  5
874
330
1F
100
AcDbEntity
  8
1
  6
CONTINUOUS
370
50
 62
4
100
AcDbLine
 10
43.65645199999999
 20
2.097008
 30
0.0
 11
43.593391
 21
2.126356
 31
0.0
  0
LINE
  5
875
330
1F
100
AcDbEntity
  8
1
  6
CONTINUOUS
370
50
 62
4
100
AcDbLine
 10
49.731144
 20
2.462472
 30
0.0
 11
49.690895
 21
2.481192
 31
0.0
  0
LINE
  5
876
330
1F
100
AcDbEntity
  8
1
  6
CONTINUOUS
370
50
 62
4
100
AcDbLine
 10
45.800121
 20
-1.087457
 30
0.0
 11
45.29781699999999
 21
-0.85388
 31
0.0
  0
LINE
  5
877
330
1F
100
AcDbEntity
  8
1
  6
CONTINUOUS
370
50
 62
4
100
AcDbLine
 10
48.690281
 20
1.945702
 30
0.0
 11
48.635811
 21
1.970907
 31
0.0
  0
LINE
  5
878
330
1F
100
AcDbEntity
  8
1
  6
CONTINUOUS
370
50
 62
4
100
AcDbLine
 10
43.705002
 20
2.074606
 30
0.0
 11
43.65645199999999
 21
2.097008
 31
0.0
  0
LINE
  5
879
330
1F
100
AcDbEntity
  8
1
  6
CONTINUOUS
370
50
 62
4
100
AcDbLine
 10
43.75355099999999
 20
2.052365
 30
0.0
 11
43.705002
 21
2.074606
 31
0.0
  0
LINE
  5
87A
330
1F
100
AcDbEntity
  8
1
  6
CONTINUOUS
370
50
 62
4
100
AcDbLine
 10
48.744747
 20
1.920796
 30
0.0
 11
48.690281
 21
1.945702
 31
0.0
  0
LINE
  5
87B
330
1F
100
AcDbEntity
  8
1
  6
CONTINUOUS
370
50
 62
4
100
AcDbLine
 10
46.955967
 20
0.741024
 30
0.0
 11
46.675331
 21
0.869213
 31
0.0
  0
LINE
  5
87C
330
1F
100
AcDbEntity
  8
1
  6
CONTINUOUS
370
50
 62
4
100
AcDbLine
 10
42.174549
 20
0.781573
 30
0.0
 11
41.880749
 21
0.915709
 31
0.0
  0
LINE
  5
87D
330
1F
100
AcDbEntity
  8
1
  6
CONTINUOUS
370
50
 62
4
100
AcDbLine
 10
43.802101
 20
2.030282
 30
0.0
 11
43.75355099999999
 21
2.052365
 31
0.0
  0
LINE
  5
87E
330
1F
100
AcDbEntity
  8
1
  6
CONTINUOUS
370
50
 62
4
100
AcDbLine
 10
42.55939499999999
 20
2.640465
 30
0.0
 11
42.370049
 21
2.726468
 31
0.0
  0
LINE
  5
87F
330
1F
100
AcDbEntity
  8
1
  6
CONTINUOUS
370
50
 62
4
100
AcDbLine
 10
48.800919
 20
1.895419
 30
0.0
 11
48.744747
 21
1.920796
 31
0.0
  0
LINE
  5
880
330
1F
100
AcDbEntity
  8
1
  6
CONTINUOUS
370
50
 62
4
100
AcDbLine
 10
43.850651
 20
2.008356
 30
0.0
 11
43.802101
 21
2.030282
 31
0.0
  0
LINE
  5
881
330
1F
100
AcDbEntity
  8
1
  6
CONTINUOUS
370
50
 62
4
100
AcDbLine
 10
49.659191
 20
0.861586
 30
0.0
 11
49.644768
 21
0.868073
 31
0.0
  0
LINE
  5
882
330
1F
100
AcDbEntity
  8
1
  6
CONTINUOUS
370
50
 62
4
100
AcDbLine
 10
43.899246
 20
1.986563
 30
0.0
 11
43.850651
 21
2.008356
 31
0.0
  0
LINE
  5
883
330
1F
100
AcDbEntity
  8
1
  6
CONTINUOUS
370
50
 62
4
100
AcDbLine
 10
48.85709
 20
1.870353
 30
0.0
 11
48.800919
 21
1.895419
 31
0.0
  0
LINE
  5
884
330
1F
100
AcDbEntity
  8
1
  6
CONTINUOUS
370
50
 62
4
100
AcDbLine
 10
43.947838
 20
1.96492
 30
0.0
 11
43.899246
 21
1.986563
 31
0.0
  0
LINE
  5
885
330
1F
100
AcDbEntity
  8
1
  6
CONTINUOUS
370
50
 62
4
100
AcDbLine
 10
49.19424799999999
 20
-2.730869
 30
0.0
 11
48.889297
 21
-2.595286
 31
0.0
  0
LINE
  5
886
330
1F
100
AcDbEntity
  8
1
  6
CONTINUOUS
370
50
 62
4
100
AcDbLine
 10
49.746452
 20
2.923965
 30
0.0
 11
49.722805
 21
2.934445
 31
0.0
  0
LINE
  5
887
330
1F
100
AcDbEntity
  8
1
  6
CONTINUOUS
370
50
 62
4
100
AcDbLine
 10
43.996437
 20
1.943423
 30
0.0
 11
43.947838
 21
1.96492
 31
0.0
  0
LINE
  5
888
330
1F
100
AcDbEntity
  8
1
  6
CONTINUOUS
370
50
 62
4
100
AcDbLine
 10
48.913311
 20
1.845572
 30
0.0
 11
48.85709
 21
1.870353
 31
0.0
  0
LINE
  5
889
330
1F
100
AcDbEntity
  8
1
  6
CONTINUOUS
370
50
 62
4
100
AcDbLine
 10
44.045036
 20
1.922069
 30
0.0
 11
43.996437
 21
1.943423
 31
0.0
  0
LINE
  5
88A
330
1F
100
AcDbEntity
  8
1
  6
CONTINUOUS
370
50
 62
4
100
AcDbLine
 10
44.099087
 20
1.898482
 30
0.0
 11
44.045036
 21
1.922069
 31
0.0
  0
LINE
  5
88B
330
1F
100
AcDbEntity
  8
1
  6
CONTINUOUS
370
50
 62
4
100
AcDbLine
 10
44.46376799999999
 20
-2.714694
 30
0.0
 11
44.269943
 21
-2.63014
 31
0.0
  0
LINE
  5
88C
330
1F
100
AcDbEntity
  8
1
  6
CONTINUOUS
370
50
 62
4
100
AcDbLine
 10
48.753208
 20
-2.75414
 30
0.0
 11
48.508675
 21
-2.64752
 31
0.0
  0
LINE
  5
88D
330
1F
100
AcDbEntity
  8
1
  6
CONTINUOUS
370
50
 62
4
100
AcDbLine
 10
48.969532
 20
1.82109
 30
0.0
 11
48.913311
 21
1.845572
 31
0.0
  0
LINE
  5
88E
330
1F
100
AcDbEntity
  8
1
  6
CONTINUOUS
370
50
 62
4
100
AcDbLine
 10
40.536442
 20
-2.723728
 30
0.0
 11
40.43225899999999
 21
-2.678419
 31
0.0
  0
LINE
  5
88F
330
1F
100
AcDbEntity
  8
1
  6
CONTINUOUS
370
50
 62
4
100
AcDbLine
 10
46.675331
 20
0.869213
 30
0.0
 11
46.394806
 21
0.9910359999999999
 31
0.0
  0
LINE
  5
890
330
1F
100
AcDbEntity
  8
1
  6
CONTINUOUS
370
50
 62
4
100
AcDbLine
 10
44.154438
 20
1.874504
 30
0.0
 11
44.099087
 21
1.898482
 31
0.0
  0
LINE
  5
891
330
1F
100
AcDbEntity
  8
1
  6
CONTINUOUS
370
50
 62
4
100
AcDbLine
 10
47.272625
 20
2.640062
 30
0.0
 11
47.065552
 21
2.729472
 31
0.0
  0
LINE
  5
892
330
1F
100
AcDbEntity
  8
1
  6
CONTINUOUS
370
50
 62
4
100
AcDbLine
 10
42.521496
 20
1.80283
 30
0.0
 11
42.267929
 21
1.912314
 31
0.0
  0
LINE
  5
893
330
1F
100
AcDbEntity
  8
1
  6
CONTINUOUS
370
50
 62
4
100
AcDbLine
 10
44.20979699999999
 20
1.850697
 30
0.0
 11
44.154438
 21
1.874504
 31
0.0
  0
LINE
  5
894
330
1F
100
AcDbEntity
  8
1
  6
CONTINUOUS
370
50
 62
4
100
AcDbLine
 10
49.04174
 20
1.790079
 30
0.0
 11
48.969532
 21
1.82109
 31
0.0
  0
LINE
  5
895
330
1F
100
AcDbEntity
  8
1
  6
CONTINUOUS
370
50
 62
4
100
AcDbLine
 10
45.907249
 20
-1.132572
 30
0.0
 11
45.624367
 21
-1.011465
 31
0.0
  0
LINE
  5
896
330
1F
100
AcDbEntity
  8
1
  6
CONTINUOUS
370
50
 62
4
100
AcDbLine
 10
44.265156
 20
1.827056
 30
0.0
 11
44.20979699999999
 21
1.850697
 31
0.0
  0
LINE
  5
897
330
1F
100
AcDbEntity
  8
1
  6
CONTINUOUS
370
50
 62
4
100
AcDbLine
 10
47.278183
 20
1.782498
 30
0.0
 11
47.033005
 21
1.886632
 31
0.0
  0
LINE
  5
898
330
1F
100
AcDbEntity
  8
1
  6
CONTINUOUS
370
50
 62
4
100
AcDbLine
 10
44.320518
 20
1.803576
 30
0.0
 11
44.265156
 21
1.827056
 31
0.0
  0
LINE
  5
899
330
1F
100
AcDbEntity
  8
1
  6
CONTINUOUS
370
50
 62
4
100
AcDbLine
 10
49.113953
 20
1.759542
 30
0.0
 11
49.04174
 21
1.790079
 31
0.0
  0
LINE
  5
89A
330
1F
100
AcDbEntity
  8
1
  6
CONTINUOUS
370
50
 62
4
100
AcDbLine
 10
46.724346
 20
2.658801
 30
0.0
 11
46.548882
 21
2.732828
 31
0.0
  0
LINE
  5
89B
330
1F
100
AcDbEntity
  8
1
  6
CONTINUOUS
370
50
 62
4
100
AcDbLine
 10
41.880749
 20
0.915709
 30
0.0
 11
41.587044
 21
1.039562
 31
0.0
  0
LINE
  5
89C
330
1F
100
AcDbEntity
  8
1
  6
CONTINUOUS
370
50
 62
4
100
AcDbLine
 10
44.37586599999999
 20
1.780262
 30
0.0
 11
44.320518
 21
1.803576
 31
0.0
  0
LINE
  5
89D
330
1F
100
AcDbEntity
  8
1
  6
CONTINUOUS
370
50
 62
4
100
AcDbLine
 10
44.431217
 20
1.757101
 30
0.0
 11
44.37586599999999
 21
1.780262
 31
0.0
  0
LINE
  5
89E
330
1F
100
AcDbEntity
  8
1
  6
CONTINUOUS
370
50
 62
4
100
AcDbLine
 10
49.186226
 20
1.729443
 30
0.0
 11
49.113953
 21
1.759542
 31
0.0
  0
LINE
  5
89F
330
1F
100
AcDbEntity
  8
1
  6
CONTINUOUS
370
50
 62
4
100
AcDbLine
 10
44.486572
 20
1.734089
 30
0.0
 11
44.431217
 21
1.757101
 31
0.0
  0
LINE
  5
8A0
330
1F
100
AcDbEntity
  8
1
  6
CONTINUOUS
370
50
 62
4
100
AcDbLine
 10
44.541931
 20
1.711223
 30
0.0
 11
44.486572
 21
1.734089
 31
0.0
  0
LINE
  5
8A1
330
1F
100
AcDbEntity
  8
1
  6
CONTINUOUS
370
50
 62
4
100
AcDbLine
 10
46.394806
 20
0.9910359999999999
 30
0.0
 11
46.114357
 21
1.106827
 31
0.0
  0
LINE
  5
8A2
330
1F
100
AcDbEntity
  8
1
  6
CONTINUOUS
370
50
 62
4
100
AcDbLine
 10
44.56460999999999
 20
1.701897
 30
0.0
 11
44.541931
 21
1.711223
 31
0.0
  0
LINE
  5
8A3
330
1F
100
AcDbEntity
  8
1
  6
CONTINUOUS
370
50
 62
4
100
AcDbLine
 10
49.258503
 20
1.699793
 30
0.0
 11
49.186226
 21
1.729443
 31
0.0
  0
LINE
  5
8A4
330
1F
100
AcDbEntity
  8
1
  6
CONTINUOUS
370
50
 62
4
100
AcDbLine
 10
44.617214
 20
1.68036
 30
0.0
 11
44.56460999999999
 21
1.701897
 31
0.0
  0
LINE
  5
8A5
330
1F
100
AcDbEntity
  8
1
  6
CONTINUOUS
370
50
 62
4
100
AcDbLine
 10
44.669815
 20
1.658949
 30
0.0
 11
44.617214
 21
1.68036
 31
0.0
  0
LINE
  5
8A6
330
1F
100
AcDbEntity
  8
1
  6
CONTINUOUS
370
50
 62
4
100
AcDbLine
 10
41.976368
 20
2.682979
 30
0.0
 11
41.775879
 21
2.764143
 31
0.0
  0
LINE
  5
8A7
330
1F
100
AcDbEntity
  8
1
  6
CONTINUOUS
370
50
 62
4
100
AcDbLine
 10
44.722385
 20
1.63768
 30
0.0
 11
44.669815
 21
1.658949
 31
0.0
  0
LINE
  5
8A8
330
1F
100
AcDbEntity
  8
1
  6
CONTINUOUS
370
50
 62
4
100
AcDbLine
 10
49.335331
 20
1.668759
 30
0.0
 11
49.258503
 21
1.699793
 31
0.0
  0
LINE
  5
8A9
330
1F
100
AcDbEntity
  8
1
  6
CONTINUOUS
370
50
 62
4
100
AcDbLine
 10
41.177105
 20
-1.124478
 30
0.0
 11
41.0
 21
-1.053231
 31
0.0
  0
LINE
  5
8AA
330
1F
100
AcDbEntity
  8
1
  6
CONTINUOUS
370
50
 62
4
100
AcDbLine
 10
44.774952
 20
1.616535
 30
0.0
 11
44.722385
 21
1.63768
 31
0.0
  0
LINE
  5
8AB
330
1F
100
AcDbEntity
  8
1
  6
CONTINUOUS
370
50
 62
4
100
AcDbLine
 10
49.673691
 20
0.855775
 30
0.0
 11
49.659191
 21
0.861586
 31
0.0
  0
LINE
  5
8AC
330
1F
100
AcDbEntity
  8
1
  6
CONTINUOUS
370
50
 62
4
100
AcDbLine
 10
41.175594
 20
-1.123266
 30
0.0
 11
41.0
 21
-1.052897
 31
0.0
  0
LINE
  5
8AD
330
1F
100
AcDbEntity
  8
1
  6
CONTINUOUS
370
50
 62
4
100
AcDbLine
 10
44.827484
 20
1.595529
 30
0.0
 11
44.774952
 21
1.616535
 31
0.0
  0
LINE
  5
8AE
330
1F
100
AcDbEntity
  8
1
  6
CONTINUOUS
370
50
 62
4
100
AcDbLine
 10
49.412167
 20
1.638205
 30
0.0
 11
49.335331
 21
1.668759
 31
0.0
  0
LINE
  5
8AF
330
1F
100
AcDbEntity
  8
1
  6
CONTINUOUS
370
50
 62
4
100
AcDbLine
 10
44.880016
 20
1.574647
 30
0.0
 11
44.827484
 21
1.595529
 31
0.0
  0
LINE
  5
8B0
330
1F
100
AcDbEntity
  8
1
  6
CONTINUOUS
370
50
 62
4
100
AcDbLine
 10
44.932503
 20
1.553909
 30
0.0
 11
44.880016
 21
1.574647
 31
0.0
  0
LINE
  5
8B1
330
1F
100
AcDbEntity
  8
1
  6
CONTINUOUS
370
50
 62
4
100
AcDbLine
 10
44.984989
 20
1.533296
 30
0.0
 11
44.932503
 21
1.553909
 31
0.0
  0
LINE
  5
8B2
330
1F
100
AcDbEntity
  8
1
  6
CONTINUOUS
370
50
 62
4
100
AcDbLine
 10
49.465977
 20
1.617088
 30
0.0
 11
49.412167
 21
1.638205
 31
0.0
  0
LINE
  5
8B3
330
1F
100
AcDbEntity
  8
1
  6
CONTINUOUS
370
50
 62
4
100
AcDbLine
 10
46.114357
 20
1.106827
 30
0.0
 11
45.833931
 21
1.21657
 31
0.0
  0
LINE
  5
8B4
330
1F
100
AcDbEntity
  8
1
  6
CONTINUOUS
370
50
 62
4
100
AcDbLine
 10
41.587044
 20
1.039562
 30
0.0
 11
41.293468
 21
1.154029
 31
0.0
  0
LINE
  5
8B5
330
1F
100
AcDbEntity
  8
1
  6
CONTINUOUS
370
50
 62
4
100
AcDbLine
 10
45.071743
 20
1.499508
 30
0.0
 11
44.984989
 21
1.533296
 31
0.0
  0
LINE
  5
8B6
330
1F
100
AcDbEntity
  8
1
  6
CONTINUOUS
370
50
 62
4
100
AcDbLine
 10
49.519787
 20
1.596195
 30
0.0
 11
49.465977
 21
1.617088
 31
0.0
  0
LINE
  5
8B7
330
1F
100
AcDbEntity
  8
1
  6
CONTINUOUS
370
50
 62
4
100
AcDbLine
 10
44.657024
 20
-2.789172
 30
0.0
 11
44.46376799999999
 21
-2.714694
 31
0.0
  0
LINE
  5
8B8
330
1F
100
AcDbEntity
  8
1
  6
CONTINUOUS
370
50
 62
4
100
AcDbLine
 10
45.160976
 20
1.465132
 30
0.0
 11
45.071743
 21
1.499508
 31
0.0
  0
LINE
  5
8B9
330
1F
100
AcDbEntity
  8
1
  6
CONTINUOUS
370
50
 62
4
100
AcDbLine
 10
49.573605
 20
1.575522
 30
0.0
 11
49.519787
 21
1.596195
 31
0.0
  0
LINE
  5
8BA
330
1F
100
AcDbEntity
  8
1
  6
CONTINUOUS
370
50
 62
4
100
AcDbLine
 10
42.370049
 20
2.726468
 30
0.0
 11
42.151447
 21
2.809928
 31
0.0
  0
LINE
  5
8BB
330
1F
100
AcDbEntity
  8
1
  6
CONTINUOUS
370
50
 62
4
100
AcDbLine
 10
45.250107
 20
1.4312
 30
0.0
 11
45.160976
 21
1.465132
 31
0.0
  0
LINE
  5
8BC
330
1F
100
AcDbEntity
  8
1
  6
CONTINUOUS
370
50
 62
4
100
AcDbLine
 10
46.289505
 20
-1.273592
 30
0.0
 11
45.800121
 21
-1.087457
 31
0.0
  0
LINE
  5
8BD
330
1F
100
AcDbEntity
  8
1
  6
CONTINUOUS
370
50
 62
4
100
AcDbLine
 10
49.627426
 20
1.555065
 30
0.0
 11
49.573605
 21
1.575522
 31
0.0
  0
LINE
  5
8BE
330
1F
100
AcDbEntity
  8
1
  6
CONTINUOUS
370
50
 62
4
100
AcDbLine
 10
46.190075
 20
-1.239867
 30
0.0
 11
45.907249
 21
-1.132572
 31
0.0
  0
LINE
  5
8BF
330
1F
100
AcDbEntity
  8
1
  6
CONTINUOUS
370
50
 62
4
100
AcDbLine
 10
41.35424
 20
-1.19136
 30
0.0
 11
41.177105
 21
-1.124478
 31
0.0
  0
LINE
  5
8C0
330
1F
100
AcDbEntity
  8
1
  6
CONTINUOUS
370
50
 62
4
100
AcDbLine
 10
45.339123
 20
1.397741
 30
0.0
 11
45.250107
 21
1.4312
 31
0.0
  0
LINE
  5
8C1
330
1F
100
AcDbEntity
  8
1
  6
CONTINUOUS
370
50
 62
4
100
AcDbLine
 10
41.351662
 20
-1.189342
 30
0.0
 11
41.175594
 21
-1.123266
 31
0.0
  0
LINE
  5
8C2
330
1F
100
AcDbEntity
  8
1
  6
CONTINUOUS
370
50
 62
4
100
AcDbLine
 10
46.548882
 20
2.732828
 30
0.0
 11
46.376881
 21
2.797353
 31
0.0
  0
LINE
  5
8C3
330
1F
100
AcDbEntity
  8
1
  6
CONTINUOUS
370
50
 62
4
100
AcDbLine
 10
47.033005
 20
1.886632
 30
0.0
 11
46.78781499999999
 21
1.978177
 31
0.0
  0
LINE
  5
8C4
330
1F
100
AcDbEntity
  8
1
  6
CONTINUOUS
370
50
 62
4
100
AcDbLine
 10
45.428013
 20
1.364791
 30
0.0
 11
45.339123
 21
1.397741
 31
0.0
  0
LINE
  5
8C5
330
1F
100
AcDbEntity
  8
1
  6
CONTINUOUS
370
50
 62
4
100
AcDbLine
 10
47.065552
 20
2.729472
 30
0.0
 11
46.853699
 21
2.807762
 31
0.0
  0
LINE
  5
8C6
330
1F
100
AcDbEntity
  8
1
  6
CONTINUOUS
370
50
 62
4
100
AcDbLine
 10
49.722805
 20
2.934445
 30
0.0
 11
49.698814
 21
2.943302
 31
0.0
  0
LINE
  5
8C7
330
1F
100
AcDbEntity
  8
1
  6
CONTINUOUS
370
50
 62
4
100
AcDbLine
 10
42.267929
 20
1.912314
 30
0.0
 11
42.014359
 21
2.00571
 31
0.0
  0
LINE
  5
8C8
330
1F
100
AcDbEntity
  8
1
  6
CONTINUOUS
370
50
 62
4
100
AcDbLine
 10
45.833931
 20
1.21657
 30
0.0
 11
45.553413
 21
1.319354
 31
0.0
  0
LINE
  5
8C9
330
1F
100
AcDbEntity
  8
1
  6
CONTINUOUS
370
50
 62
4
100
AcDbLine
 10
45.490726
 20
1.341844
 30
0.0
 11
45.428013
 21
1.364791
 31
0.0
  0
LINE
  5
8CA
330
1F
100
AcDbEntity
  8
1
  6
CONTINUOUS
370
50
 62
4
100
AcDbLine
 10
44.309994
 20
-2.841828
 30
0.0
 11
43.943447
 21
-2.709682
 31
0.0
  0
LINE
  5
8CB
330
1F
100
AcDbEntity
  8
1
  6
CONTINUOUS
370
50
 62
4
100
AcDbLine
 10
41.293468
 20
1.154029
 30
0.0
 11
41.0
 21
1.259496
 31
0.0
  0
LINE
  5
8CC
330
1F
100
AcDbEntity
  8
1
  6
CONTINUOUS
370
50
 62
4
100
AcDbLine
 10
45.553429
 20
1.319343
 30
0.0
 11
45.490726
 21
1.341844
 31
0.0
  0
LINE
  5
8CD
330
1F
100
AcDbEntity
  8
1
  6
CONTINUOUS
370
50
 62
4
100
AcDbLine
 10
49.690895
 20
2.481192
 30
0.0
 11
49.647327
 21
2.496764
 31
0.0
  0
LINE
  5
8CE
330
1F
100
AcDbEntity
  8
1
  6
CONTINUOUS
370
50
 62
4
100
AcDbLine
 10
49.5
 20
-2.839168
 30
0.0
 11
49.19424799999999
 21
-2.730869
 31
0.0
  0
LINE
  5
8CF
330
1F
100
AcDbEntity
  8
1
  6
CONTINUOUS
370
50
 62
4
100
AcDbLine
 10
41.531422
 20
-1.254063
 30
0.0
 11
41.35424
 21
-1.19136
 31
0.0
  0
LINE
  5
8D0
330
1F
100
AcDbEntity
  8
1
  6
CONTINUOUS
370
50
 62
4
100
AcDbLine
 10
49.001053
 20
-2.841481
 30
0.0
 11
48.753208
 21
-2.75414
 31
0.0
  0
LINE
  5
8D1
330
1F
100
AcDbEntity
  8
1
  6
CONTINUOUS
370
50
 62
4
100
AcDbLine
 10
41.527802
 20
-1.251126
 30
0.0
 11
41.351662
 21
-1.189342
 31
0.0
  0
LINE
  5
8D2
330
1F
100
AcDbEntity
  8
1
  6
CONTINUOUS
370
50
 62
4
100
AcDbLine
 10
49.688251
 20
0.850675
 30
0.0
 11
49.673691
 21
0.855775
 31
0.0
  0
LINE
  5
8D3
330
1F
100
AcDbEntity
  8
1
  6
CONTINUOUS
370
50
 62
4
100
AcDbLine
 10
40.644768
 20
-2.761216
 30
0.0
 11
40.536442
 21
-2.723728
 31
0.0
  0
LINE
  5
8D4
330
1F
100
AcDbEntity
  8
1
  6
CONTINUOUS
370
50
 62
4
100
AcDbLine
 10
41.775879
 20
2.764143
 30
0.0
 11
41.577145
 21
2.832808
 31
0.0
  0
LINE
  5
8D5
330
1F
100
AcDbEntity
  8
1
  6
CONTINUOUS
370
50
 62
4
100
AcDbLine
 10
46.472942
 20
-1.334257
 30
0.0
 11
46.190075
 21
-1.239867
 31
0.0
  0
LINE
  5
8D6
330
1F
100
AcDbEntity
  8
1
  6
CONTINUOUS
370
50
 62
4
100
AcDbLine
 10
44.849197
 20
-2.853197
 30
0.0
 11
44.657024
 21
-2.789172
 31
0.0
  0
LINE
  5
8D7
330
1F
100
AcDbEntity
  8
1
  6
CONTINUOUS
370
50
 62
4
100
AcDbLine
 10
41.708649
 20
-1.312725
 30
0.0
 11
41.531422
 21
-1.254063
 31
0.0
  0
LINE
  5
8D8
330
1F
100
AcDbEntity
  8
1
  6
CONTINUOUS
370
50
 62
4
100
AcDbLine
 10
46.376881
 20
2.797353
 30
0.0
 11
46.208374
 21
2.852731
 31
0.0
  0
LINE
  5
8D9
330
1F
100
AcDbEntity
  8
1
  6
CONTINUOUS
370
50
 62
4
100
AcDbLine
 10
41.704212
 20
-1.308821
 30
0.0
 11
41.527802
 21
-1.251126
 31
0.0
  0
LINE
  5
8DA
330
1F
100
AcDbEntity
  8
1
  6
CONTINUOUS
370
50
 62
4
100
AcDbLine
 10
46.78781499999999
 20
1.978177
 30
0.0
 11
46.54262199999999
 21
2.057648
 31
0.0
  0
LINE
  5
8DB
330
1F
100
AcDbEntity
  8
1
  6
CONTINUOUS
370
50
 62
4
100
AcDbLine
 10
42.014359
 20
2.00571
 30
0.0
 11
41.760784
 21
2.083914
 31
0.0
  0
LINE
  5
8DC
330
1F
100
AcDbEntity
  8
1
  6
CONTINUOUS
370
50
 62
4
100
AcDbLine
 10
41.885921
 20
-1.367315
 30
0.0
 11
41.708649
 21
-1.312725
 31
0.0
  0
LINE
  5
8DD
330
1F
100
AcDbEntity
  8
1
  6
CONTINUOUS
370
50
 62
4
100
AcDbLine
 10
46.853699
 20
2.807762
 30
0.0
 11
46.638248
 21
2.874005
 31
0.0
  0
LINE
  5
8DE
330
1F
100
AcDbEntity
  8
1
  6
CONTINUOUS
370
50
 62
4
100
AcDbLine
 10
42.151447
 20
2.809928
 30
0.0
 11
41.904697
 21
2.885109
 31
0.0
  0
LINE
  5
8DF
330
1F
100
AcDbEntity
  8
1
  6
CONTINUOUS
370
50
 62
4
100
AcDbLine
 10
41.88044
 20
-1.36238
 30
0.0
 11
41.704212
 21
-1.308821
 31
0.0
  0
LINE
  5
8E0
330
1F
100
AcDbEntity
  8
1
  6
CONTINUOUS
370
50
 62
4
100
AcDbLine
 10
46.751793
 20
-1.413205
 30
0.0
 11
46.289505
 21
-1.273592
 31
0.0
  0
LINE
  5
8E1
330
1F
100
AcDbEntity
  8
1
  6
CONTINUOUS
370
50
 62
4
100
AcDbLine
 10
49.698814
 20
2.943302
 30
0.0
 11
49.67454499999999
 21
2.95056
 31
0.0
  0
LINE
  5
8E2
330
1F
100
AcDbEntity
  8
1
  6
CONTINUOUS
370
50
 62
4
100
AcDbLine
 10
49.702858
 20
0.8463229999999999
 30
0.0
 11
49.688251
 21
0.850675
 31
0.0
  0
LINE
  5
8E3
330
1F
100
AcDbEntity
  8
1
  6
CONTINUOUS
370
50
 62
4
100
AcDbLine
 10
46.75589799999999
 20
-1.4164
 30
0.0
 11
46.472942
 21
-1.334257
 31
0.0
  0
LINE
  5
8E4
330
1F
100
AcDbEntity
  8
1
  6
CONTINUOUS
370
50
 62
4
100
AcDbLine
 10
41.577145
 20
2.832808
 30
0.0
 11
41.381016
 21
2.889258
 31
0.0
  0
LINE
  5
8E5
330
1F
100
AcDbEntity
  8
1
  6
CONTINUOUS
370
50
 62
4
100
AcDbLine
 10
49.513931
 20
-2.843161
 30
0.0
 11
49.5
 21
-2.839168
 31
0.0
  0
LINE
  5
8E6
330
1F
100
AcDbEntity
  8
1
  6
CONTINUOUS
370
50
 62
4
100
AcDbLine
 10
42.063229
 20
-1.417734
 30
0.0
 11
41.885921
 21
-1.367315
 31
0.0
  0
LINE
  5
8E7
330
1F
100
AcDbEntity
  8
1
  6
CONTINUOUS
370
50
 62
4
100
AcDbLine
 10
46.208374
 20
2.852731
 30
0.0
 11
46.041313
 21
2.899743
 31
0.0
  0
LINE
  5
8E8
330
1F
100
AcDbEntity
  8
1
  6
CONTINUOUS
370
50
 62
4
100
AcDbLine
 10
42.056419
 20
-1.411869
 30
0.0
 11
41.88044
 21
-1.36238
 31
0.0
  0
LINE
  5
8E9
330
1F
100
AcDbEntity
  8
1
  6
CONTINUOUS
370
50
 62
4
100
AcDbLine
 10
45.039627
 20
-2.906307
 30
0.0
 11
44.849197
 21
-2.853197
 31
0.0
  0
LINE
  5
8EA
330
1F
100
AcDbEntity
  8
1
  6
CONTINUOUS
370
50
 62
4
100
AcDbLine
 10
46.54262199999999
 20
2.057648
 30
0.0
 11
46.297417
 21
2.124892
 31
0.0
  0
LINE
  5
8EB
330
1F
100
AcDbEntity
  8
1
  6
CONTINUOUS
370
50
 62
4
100
AcDbLine
 10
49.250538
 20
-2.909633
 30
0.0
 11
49.001053
 21
-2.841481
 31
0.0
  0
LINE
  5
8EC
330
1F
100
AcDbEntity
  8
1
  6
CONTINUOUS
370
50
 62
4
100
AcDbLine
 10
49.647327
 20
2.496764
 30
0.0
 11
49.600842
 21
2.509398
 31
0.0
  0
LINE
  5
8ED
330
1F
100
AcDbEntity
  8
1
  6
CONTINUOUS
370
50
 62
4
100
AcDbLine
 10
40.75777799999999
 20
-2.791402
 30
0.0
 11
40.644768
 21
-2.761216
 31
0.0
  0
LINE
  5
8EE
330
1F
100
AcDbEntity
  8
1
  6
CONTINUOUS
370
50
 62
4
100
AcDbLine
 10
44.676437
 20
-2.935323
 30
0.0
 11
44.309994
 21
-2.841828
 31
0.0
  0
LINE
  5
8EF
330
1F
100
AcDbEntity
  8
1
  6
CONTINUOUS
370
50
 62
4
100
AcDbLine
 10
41.760784
 20
2.083914
 30
0.0
 11
41.507198
 21
2.14769
 31
0.0
  0
LINE
  5
8F0
330
1F
100
AcDbEntity
  8
1
  6
CONTINUOUS
370
50
 62
4
100
AcDbLine
 10
46.638248
 20
2.874005
 30
0.0
 11
46.420376
 21
2.927272
 31
0.0
  0
LINE
  5
8F1
330
1F
100
AcDbEntity
  8
1
  6
CONTINUOUS
370
50
 62
4
100
AcDbLine
 10
49.717453
 20
0.842762
 30
0.0
 11
49.702858
 21
0.8463229999999999
 31
0.0
  0
LINE
  5
8F2
330
1F
100
AcDbEntity
  8
1
  6
CONTINUOUS
370
50
 62
4
100
AcDbLine
 10
49.52822099999999
 20
-2.846582
 30
0.0
 11
49.513931
 21
-2.843161
 31
0.0
  0
LINE
  5
8F3
330
1F
100
AcDbEntity
  8
1
  6
CONTINUOUS
370
50
 62
4
100
AcDbLine
 10
49.67454499999999
 20
2.95056
 30
0.0
 11
49.650043
 21
2.956248
 31
0.0
  0
LINE
  5
8F4
330
1F
100
AcDbEntity
  8
1
  6
CONTINUOUS
370
50
 62
4
100
AcDbLine
 10
46.041313
 20
2.899743
 30
0.0
 11
45.875683
 21
2.938153
 31
0.0
  0
LINE
  5
8F5
330
1F
100
AcDbEntity
  8
1
  6
CONTINUOUS
370
50
 62
4
100
AcDbLine
 10
41.381016
 20
2.889258
 30
0.0
 11
41.188351
 21
2.933777
 31
0.0
  0
LINE
  5
8F6
330
1F
100
AcDbEntity
  8
1
  6
CONTINUOUS
370
50
 62
4
100
AcDbLine
 10
41.904697
 20
2.885109
 30
0.0
 11
41.646805
 21
2.943223
 31
0.0
  0
LINE
  5
8F7
330
1F
100
AcDbEntity
  8
1
  6
CONTINUOUS
370
50
 62
4
100
AcDbLine
 10
46.297417
 20
2.124892
 30
0.0
 11
46.052204
 21
2.179621
 31
0.0
  0
LINE
  5
8F8
330
1F
100
AcDbEntity
  8
1
  6
CONTINUOUS
370
50
 62
4
100
AcDbLine
 10
45.226669
 20
-2.947943
 30
0.0
 11
45.039627
 21
-2.906307
 31
0.0
  0
LINE
  5
8F9
330
1F
100
AcDbEntity
  8
1
  6
CONTINUOUS
370
50
 62
4
100
AcDbLine
 10
49.600842
 20
2.509398
 30
0.0
 11
49.55183
 21
2.519313
 31
0.0
  0
LINE
  5
8FA
330
1F
100
AcDbEntity
  8
1
  6
CONTINUOUS
370
50
 62
4
100
AcDbLine
 10
40.876007
 20
-2.814804
 30
0.0
 11
40.75777799999999
 21
-2.791402
 31
0.0
  0
LINE
  5
8FB
330
1F
100
AcDbEntity
  8
1
  6
CONTINUOUS
370
50
 62
4
100
AcDbLine
 10
49.5
 20
-2.958684
 30
0.0
 11
49.250538
 21
-2.909633
 31
0.0
  0
LINE
  5
8FC
330
1F
100
AcDbEntity
  8
1
  6
CONTINUOUS
370
50
 62
4
100
AcDbLine
 10
41.507198
 20
2.14769
 30
0.0
 11
41.253605
 21
2.197444
 31
0.0
  0
LINE
  5
8FD
330
1F
100
AcDbEntity
  8
1
  6
CONTINUOUS
370
50
 62
4
100
AcDbLine
 10
49.542889
 20
-2.849389
 30
0.0
 11
49.52822099999999
 21
-2.846582
 31
0.0
  0
LINE
  5
8FE
330
1F
100
AcDbEntity
  8
1
  6
CONTINUOUS
370
50
 62
4
100
AcDbLine
 10
49.731812
 20
0.840054
 30
0.0
 11
49.717453
 21
0.842762
 31
0.0
  0
LINE
  5
8FF
330
1F
100
AcDbEntity
  8
1
  6
CONTINUOUS
370
50
 62
4
100
AcDbLine
 10
45.875683
 20
2.938153
 30
0.0
 11
45.71170799999999
 21
2.967629
 31
0.0
  0
LINE
  5
900
330
1F
100
AcDbEntity
  8
1
  6
CONTINUOUS
370
50
 62
4
100
AcDbLine
 10
46.420376
 20
2.927272
 30
0.0
 11
46.201256
 21
2.966636
 31
0.0
  0
LINE
  5
901
330
1F
100
AcDbEntity
  8
1
  6
CONTINUOUS
370
50
 62
4
100
AcDbLine
 10
41.188351
 20
2.933777
 30
0.0
 11
41.0
 21
2.966649
 31
0.0
  0
LINE
  5
902
330
1F
100
AcDbEntity
  8
1
  6
CONTINUOUS
370
50
 62
4
100
AcDbLine
 10
46.052204
 20
2.179621
 30
0.0
 11
45.806995
 21
2.221025
 31
0.0
  0
LINE
  5
903
330
1F
100
AcDbEntity
  8
1
  6
CONTINUOUS
370
50
 62
4
100
AcDbLine
 10
49.650043
 20
2.956248
 30
0.0
 11
49.625328
 21
2.960394
 31
0.0
  0
LINE
  5
904
330
1F
100
AcDbEntity
  8
1
  6
CONTINUOUS
370
50
 62
4
100
AcDbLine
 10
45.406422
 20
-2.977334
 30
0.0
 11
45.226669
 21
-2.947943
 31
0.0
  0
LINE
  5
905
330
1F
100
AcDbEntity
  8
1
  6
CONTINUOUS
370
50
 62
4
100
AcDbLine
 10
45.035835
 20
-2.988084
 30
0.0
 11
44.676437
 21
-2.935323
 31
0.0
  0
LINE
  5
906
330
1F
100
AcDbEntity
  8
1
  6
CONTINUOUS
370
50
 62
4
100
AcDbLine
 10
41.646805
 20
2.943223
 30
0.0
 11
41.388626
 21
2.981083
 31
0.0
  0
LINE
  5
907
330
1F
100
AcDbEntity
  8
1
  6
CONTINUOUS
370
50
 62
4
100
AcDbLine
 10
49.55183
 20
2.519313
 30
0.0
 11
49.500687
 21
2.526727
 31
0.0
  0
LINE
  5
908
330
1F
100
AcDbEntity
  8
1
  6
CONTINUOUS
370
50
 62
4
100
AcDbLine
 10
49.55792599999999
 20
-2.851532
 30
0.0
 11
49.542889
 21
-2.849389
 31
0.0
  0
LINE
  5
909
330
1F
100
AcDbEntity
  8
1
  6
CONTINUOUS
370
50
 62
4
100
AcDbLine
 10
41.253605
 20
2.197444
 30
0.0
 11
41.0
 21
2.232791
 31
0.0
  0
LINE
  5
90A
330
1F
100
AcDbEntity
  8
1
  6
CONTINUOUS
370
50
 62
4
100
AcDbLine
 10
41.0
 20
-2.831942
 30
0.0
 11
40.876007
 21
-2.814804
 31
0.0
  0
LINE
  5
90B
330
1F
100
AcDbEntity
  8
1
  6
CONTINUOUS
370
50
 62
4
100
AcDbLine
 10
49.745884
 20
0.8381909999999999
 30
0.0
 11
49.731812
 21
0.840054
 31
0.0
  0
LINE
  5
90C
330
1F
100
AcDbEntity
  8
1
  6
CONTINUOUS
370
50
 62
4
100
AcDbLine
 10
49.525196
 20
-2.961963
 30
0.0
 11
49.5
 21
-2.958684
 31
0.0
  0
LINE
  5
90D
330
1F
100
AcDbEntity
  8
1
  6
CONTINUOUS
370
50
 62
4
100
AcDbLine
 10
45.71170799999999
 20
2.967629
 30
0.0
 11
45.547958
 21
2.98801
 31
0.0
  0
LINE
  5
90E
330
1F
100
AcDbEntity
  8
1
  6
CONTINUOUS
370
50
 62
4
100
AcDbLine
 10
46.201256
 20
2.966636
 30
0.0
 11
45.982067
 21
2.99117
 31
0.0
  0
LINE
  5
90F
330
1F
100
AcDbEntity
  8
1
  6
CONTINUOUS
370
50
 62
4
100
AcDbLine
 10
45.806995
 20
2.221025
 30
0.0
 11
45.561794
 21
2.247656
 31
0.0
  0
LINE
  5
910
330
1F
100
AcDbEntity
  8
1
  6
CONTINUOUS
370
50
 62
4
100
AcDbLine
 10
49.625328
 20
2.960394
 30
0.0
 11
49.600456
 21
2.96302
 31
0.0
  0
LINE
  5
911
330
1F
100
AcDbEntity
  8
1
  6
CONTINUOUS
370
50
 62
4
100
AcDbLine
 10
45.58358
 20
-2.994592
 30
0.0
 11
45.406422
 21
-2.977334
 31
0.0
  0
LINE
  5
912
330
1F
100
AcDbEntity
  8
1
  6
CONTINUOUS
370
50
 62
4
100
AcDbLine
 10
49.500687
 20
2.526727
 30
0.0
 11
49.4478
 21
2.531858
 31
0.0
  0
LINE
  5
913
330
1F
100
AcDbEntity
  8
1
  6
CONTINUOUS
370
50
 62
4
100
AcDbLine
 10
49.573345
 20
-2.852956
 30
0.0
 11
49.55792599999999
 21
-2.851532
 31
0.0
  0
LINE
  5
914
330
1F
100
AcDbEntity
  8
1
  6
CONTINUOUS
370
50
 62
4
100
AcDbLine
 10
49.759666
 20
0.837155
 30
0.0
 11
49.745884
 21
0.8381909999999999
 31
0.0
  0
LINE
  5
915
330
1F
100
AcDbEntity
  8
1
  6
CONTINUOUS
370
50
 62
4
100
AcDbLine
 10
49.550358
 20
-2.963788
 30
0.0
 11
49.525196
 21
-2.961963
 31
0.0
  0
LINE
  5
916
330
1F
100
AcDbEntity
  8
1
  6
CONTINUOUS
370
50
 62
4
100
AcDbLine
 10
41.388626
 20
2.981083
 30
0.0
 11
41.131104
 21
2.998631
 31
0.0
  0
LINE
  5
917
330
1F
100
AcDbEntity
  8
1
  6
CONTINUOUS
370
50
 62
4
100
AcDbLine
 10
49.4478
 20
2.531858
 30
0.0
 11
49.393707
 21
2.534885
 31
0.0
  0
LINE
  5
918
330
1F
100
AcDbEntity
  8
1
  6
CONTINUOUS
370
50
 62
4
100
AcDbLine
 10
45.547958
 20
2.98801
 30
0.0
 11
45.336372
 21
2.999795
 31
0.0
  0
LINE
  5
919
330
1F
100
AcDbEntity
  8
1
  6
CONTINUOUS
370
50
 62
4
100
AcDbLine
 10
49.600456
 20
2.96302
 30
0.0
 11
49.575455
 21
2.964145
 31
0.0
  0
LINE
  5
91A
330
1F
100
AcDbEntity
  8
1
  6
CONTINUOUS
370
50
 62
4
100
AcDbLine
 10
45.561794
 20
2.247656
 30
0.0
 11
45.316608
 21
2.25795
 31
0.0
  0
LINE
  5
91B
330
1F
100
AcDbEntity
  8
1
  6
CONTINUOUS
370
50
 62
4
100
AcDbLine
 10
49.589142
 20
-2.853605
 30
0.0
 11
49.573345
 21
-2.852956
 31
0.0
  0
LINE
  5
91C
330
1F
100
AcDbEntity
  8
1
  6
CONTINUOUS
370
50
 62
4
100
AcDbLine
 10
45.982067
 20
2.99117
 30
0.0
 11
45.76399199999999
 21
2.999947
 31
0.0
  0
LINE
  5
91D
330
1F
100
AcDbEntity
  8
1
  6
CONTINUOUS
370
50
 62
4
100
AcDbLine
 10
45.336372
 20
-2.999795
 30
0.0
 11
45.035835
 21
-2.988084
 31
0.0
  0
LINE
  5
91E
330
1F
100
AcDbEntity
  8
1
  6
CONTINUOUS
370
50
 62
4
100
AcDbLine
 10
45.763996
 20
-2.999947
 30
0.0
 11
45.58358
 21
-2.994592
 31
0.0
  0
LINE
  5
91F
330
1F
100
AcDbEntity
  8
1
  6
CONTINUOUS
370
50
 62
4
100
AcDbLine
 10
49.393707
 20
2.534885
 30
0.0
 11
49.338943
 21
2.535948
 31
0.0
  0
LINE
  5
920
330
1F
100
AcDbEntity
  8
1
  6
CONTINUOUS
370
50
 62
4
100
AcDbLine
 10
49.773155
 20
0.8369289999999999
 30
0.0
 11
49.759666
 21
0.837155
 31
0.0
  0
LINE
  5
921
330
1F
100
AcDbEntity
  8
1
  6
CONTINUOUS
370
50
 62
4
100
AcDbLine
 10
49.575455
 20
-2.964145
 30
0.0
 11
49.550358
 21
-2.963788
 31
0.0
  0
LINE
  5
922
330
1F
100
AcDbEntity
  8
1
  6
CONTINUOUS
370
50
 62
4
100
AcDbLine
 10
49.994953
 20
0.000064
 30
0.0
 11
48.826744
 21
0.014784
 31
0.0
  0
LINE
  5
923
330
1F
100
AcDbEntity
  8
1
  6
CONTINUOUS
370
50
 62
4
100
AcDbLine
 10
41.021763
 20
-2.999837
 30
0.0
 11
41.0
 21
-2.999622
 31
0.0
  0
LINE
  5
924
330
1F
100
AcDbEntity
  8
1
  6
CONTINUOUS
370
50
 62
4
100
AcDbLine
 10
41.043549
 20
-2.9999
 30
0.0
 11
41.021763
 21
-2.999837
 31
0.0
  0
LINE
  5
925
330
1F
100
AcDbEntity
  8
1
  6
CONTINUOUS
370
50
 62
4
100
AcDbLine
 10
41.041653
 20
-2.999901
 30
0.0
 11
41.0
 21
-2.9999
 31
0.0
  0
LINE
  5
926
330
1F
100
AcDbEntity
  8
1
  6
CONTINUOUS
370
50
 62
4
100
AcDbLine
 10
45.756462
 20
-2.999956
 30
0.0
 11
45.295403
 21
-2.999951
 31
0.0
  0
LINE
  5
927
330
1F
100
AcDbEntity
  8
1
  6
CONTINUOUS
370
50
 62
4
100
AcDbLine
 10
35.0
 20
-2.84995
 30
0.0
 11
41.0
 21
-2.84995
 31
0.0
  0
LINE
  5
928
330
1F
100
AcDbEntity
  8
1
  6
CONTINUOUS
370
50
 62
4
100
AcDbLine
 10
35.0
 20
2.84995
 30
0.0
 11
41.0
 21
2.84995
 31
0.0
  0
LINE
  5
929
330
1F
100
AcDbEntity
  8
1
  6
CONTINUOUS
370
50
 62
4
100
AcDbLine
 10
45.295403
 20
2.999951
 30
0.0
 11
45.756462
 21
2.999956
 31
0.0
  0
LINE
  5
92A
330
1F
100
AcDbEntity
  8
1
  6
CONTINUOUS
370
50
 62
4
100
AcDbLine
 10
41.0
 20
2.9999
 30
0.0
 11
41.041744
 21
2.999901
 31
0.0
  0
LINE
  5
92B
330
1F
100
AcDbEntity
  8
1
  6
CONTINUOUS
370
50
 62
4
100
AcDbLine
 10
49.983761
 20
2.258263
 30
0.0
 11
50.0
 21
2.258281
 31
0.0
  0
LINE
  5
92C
330
1F
100
AcDbEntity
  8
1
  6
CONTINUOUS
370
50
 62
4
100
AcDbLine
 10
40.88692899999999
 20
2.821135
 30
0.0
 11
41.0
 21
2.821429
 31
0.0
  0
LINE
  5
92D
330
1F
100
AcDbEntity
  8
1
  6
CONTINUOUS
370
50
 62
4
100
AcDbLine
 10
40.773861
 20
2.820831
 30
0.0
 11
40.88692899999999
 21
2.821135
 31
0.0
  0
LINE
  5
92E
330
1F
100
AcDbEntity
  8
1
  6
CONTINUOUS
370
50
 62
4
100
AcDbLine
 10
40.660789
 20
2.820519
 30
0.0
 11
40.773861
 21
2.820831
 31
0.0
  0
LINE
  5
92F
330
1F
100
AcDbEntity
  8
1
  6
CONTINUOUS
370
50
 62
4
100
AcDbLine
 10
40.547718
 20
2.820197
 30
0.0
 11
40.660789
 21
2.820519
 31
0.0
  0
LINE
  5
930
330
1F
100
AcDbEntity
  8
1
  6
CONTINUOUS
370
50
 62
4
100
AcDbLine
 10
40.43465
 20
2.819867
 30
0.0
 11
40.547718
 21
2.820197
 31
0.0
  0
LINE
  5
931
330
1F
100
AcDbEntity
  8
1
  6
CONTINUOUS
370
50
 62
4
100
AcDbLine
 10
40.321583
 20
2.819527
 30
0.0
 11
40.43465
 21
2.819867
 31
0.0
  0
LINE
  5
932
330
1F
100
AcDbEntity
  8
1
  6
CONTINUOUS
370
50
 62
4
100
AcDbLine
 10
40.208519
 20
2.819178
 30
0.0
 11
40.321583
 21
2.819527
 31
0.0
  0
LINE
  5
933
330
1F
100
AcDbEntity
  8
1
  6
CONTINUOUS
370
50
 62
4
100
AcDbLine
 10
41.043549
 20
-2.9999
 30
0.0
 11
41.06535299999999
 21
-2.999811
 31
0.0
  0
LINE
  5
934
330
1F
100
AcDbEntity
  8
1
  6
CONTINUOUS
370
50
 62
4
100
AcDbLine
 10
40.158287
 20
2.818902
 30
0.0
 11
40.208519
 21
2.819178
 31
0.0
  0
LINE
  5
935
330
1F
100
AcDbEntity
  8
1
  6
CONTINUOUS
370
50
 62
4
100
AcDbLine
 10
49.96752499999999
 20
2.258148
 30
0.0
 11
49.983761
 21
2.258263
 31
0.0
  0
LINE
  5
936
330
1F
100
AcDbEntity
  8
1
  6
CONTINUOUS
370
50
 62
4
100
AcDbLine
 10
40.108086
 20
2.81838
 30
0.0
 11
40.158287
 21
2.818902
 31
0.0
  0
LINE
  5
937
330
1F
100
AcDbEntity
  8
1
  6
CONTINUOUS
370
50
 62
4
100
AcDbLine
 10
49.951286
 20
2.25797
 30
0.0
 11
49.96752499999999
 21
2.258148
 31
0.0
  0
LINE
  5
938
330
1F
100
AcDbEntity
  8
1
  6
CONTINUOUS
370
50
 62
4
100
AcDbLine
 10
41.06535299999999
 20
-2.999811
 30
0.0
 11
41.087185
 21
-2.999571
 31
0.0
  0
LINE
  5
939
330
1F
100
AcDbEntity
  8
1
  6
CONTINUOUS
370
50
 62
4
100
AcDbLine
 10
49.589142
 20
-2.853605
 30
0.0
 11
49.605293
 21
-2.853417
 31
0.0
  0
LINE
  5
93A
330
1F
100
AcDbEntity
  8
1
  6
CONTINUOUS
370
50
 62
4
100
AcDbLine
 10
49.283859
 20
2.535206
 30
0.0
 11
49.338943
 21
2.535948
 31
0.0
  0
LINE
  5
93B
330
1F
100
AcDbEntity
  8
1
  6
CONTINUOUS
370
50
 62
4
100
AcDbLine
 10
49.550358
 20
2.963788
 30
0.0
 11
49.575455
 21
2.964145
 31
0.0
  0
LINE
  5
93C
330
1F
100
AcDbEntity
  8
1
  6
CONTINUOUS
370
50
 62
4
100
AcDbLine
 10
49.93505099999999
 20
2.257728
 30
0.0
 11
49.951286
 21
2.25797
 31
0.0
  0
LINE
  5
93D
330
1F
100
AcDbEntity
  8
1
  6
CONTINUOUS
370
50
 62
4
100
AcDbLine
 10
40.058006
 20
2.817599
 30
0.0
 11
40.108086
 21
2.81838
 31
0.0
  0
LINE
  5
93E
330
1F
100
AcDbEntity
  8
1
  6
CONTINUOUS
370
50
 62
4
100
AcDbLine
 10
41.087185
 20
-2.999571
 30
0.0
 11
41.109032
 21
-2.999179
 31
0.0
  0
LINE
  5
93F
330
1F
100
AcDbEntity
  8
1
  6
CONTINUOUS
370
50
 62
4
100
AcDbLine
 10
40.88692899999999
 20
-0.404246
 30
0.0
 11
41.0
 21
-0.402185
 31
0.0
  0
LINE
  5
940
330
1F
100
AcDbEntity
  8
1
  6
CONTINUOUS
370
50
 62
4
100
AcDbLine
 10
40.773861
 20
-0.406358
 30
0.0
 11
40.88692899999999
 21
-0.404246
 31
0.0
  0
LINE
  5
941
330
1F
100
AcDbEntity
  8
1
  6
CONTINUOUS
370
50
 62
4
100
AcDbLine
 10
49.918812
 20
2.257423
 30
0.0
 11
49.93505099999999
 21
2.257728
 31
0.0
  0
LINE
  5
942
330
1F
100
AcDbEntity
  8
1
  6
CONTINUOUS
370
50
 62
4
100
AcDbLine
 10
40.660789
 20
-0.408521
 30
0.0
 11
40.773861
 21
-0.406358
 31
0.0
  0
LINE
  5
943
330
1F
100
AcDbEntity
  8
1
  6
CONTINUOUS
370
50
 62
4
100
AcDbLine
 10
40.547718
 20
-0.410733
 30
0.0
 11
40.660789
 21
-0.408521
 31
0.0
  0
LINE
  5
944
330
1F
100
AcDbEntity
  8
1
  6
CONTINUOUS
370
50
 62
4
100
AcDbLine
 10
40.43465
 20
-0.412996
 30
0.0
 11
40.547718
 21
-0.410733
 31
0.0
  0
LINE
  5
945
330
1F
100
AcDbEntity
  8
1
  6
CONTINUOUS
370
50
 62
4
100
AcDbLine
 10
40.321583
 20
-0.415309
 30
0.0
 11
40.43465
 21
-0.412996
 31
0.0
  0
LINE
  5
946
330
1F
100
AcDbEntity
  8
1
  6
CONTINUOUS
370
50
 62
4
100
AcDbLine
 10
40.208519
 20
-0.417671
 30
0.0
 11
40.321583
 21
-0.415309
 31
0.0
  0
LINE
  5
947
330
1F
100
AcDbEntity
  8
1
  6
CONTINUOUS
370
50
 62
4
100
AcDbLine
 10
40.008144
 20
2.816546
 30
0.0
 11
40.058006
 21
2.817599
 31
0.0
  0
LINE
  5
948
330
1F
100
AcDbEntity
  8
1
  6
CONTINUOUS
370
50
 62
4
100
AcDbLine
 10
41.109032
 20
-2.999179
 30
0.0
 11
41.13089799999999
 21
-2.998636
 31
0.0
  0
LINE
  5
949
330
1F
100
AcDbEntity
  8
1
  6
CONTINUOUS
370
50
 62
4
100
AcDbLine
 10
45.071434
 20
2.251722
 30
0.0
 11
45.316608
 21
2.25795
 31
0.0
  0
LINE
  5
94A
330
1F
100
AcDbEntity
  8
1
  6
CONTINUOUS
370
50
 62
4
100
AcDbLine
 10
49.902573
 20
2.25699
 30
0.0
 11
49.918812
 21
2.257423
 31
0.0
  0
LINE
  5
94B
330
1F
100
AcDbEntity
  8
1
  6
CONTINUOUS
370
50
 62
4
100
AcDbLine
 10
39.958588
 20
2.815209
 30
0.0
 11
40.008144
 21
2.816546
 31
0.0
  0
LINE
  5
94C
330
1F
100
AcDbEntity
  8
1
  6
CONTINUOUS
370
50
 62
4
100
AcDbLine
 10
40.17992
 20
-0.418542
 30
0.0
 11
40.208519
 21
-0.417671
 31
0.0
  0
LINE
  5
94D
330
1F
100
AcDbEntity
  8
1
  6
CONTINUOUS
370
50
 62
4
100
AcDbLine
 10
39.909428
 20
2.813574
 30
0.0
 11
39.958588
 21
2.815209
 31
0.0
  0
LINE
  5
94E
330
1F
100
AcDbEntity
  8
1
  6
CONTINUOUS
370
50
 62
4
100
AcDbLine
 10
45.032181
 20
2.987751
 30
0.0
 11
45.336372
 21
2.999795
 31
0.0
  0
LINE
  5
94F
330
1F
100
AcDbEntity
  8
1
  6
CONTINUOUS
370
50
 62
4
100
AcDbLine
 10
39.860737
 20
2.811629
 30
0.0
 11
39.909428
 21
2.813574
 31
0.0
  0
LINE
  5
950
330
1F
100
AcDbEntity
  8
1
  6
CONTINUOUS
370
50
 62
4
100
AcDbLine
 10
45.763996
 20
-2.999947
 30
0.0
 11
45.982067
 21
-2.99117
 31
0.0
  0
LINE
  5
951
330
1F
100
AcDbEntity
  8
1
  6
CONTINUOUS
370
50
 62
4
100
AcDbLine
 10
49.773155
 20
0.8369289999999999
 30
0.0
 11
49.78630099999999
 21
0.837492
 31
0.0
  0
LINE
  5
952
330
1F
100
AcDbEntity
  8
1
  6
CONTINUOUS
370
50
 62
4
100
AcDbLine
 10
49.228817
 20
2.53282
 30
0.0
 11
49.283859
 21
2.535206
 31
0.0
  0
LINE
  5
953
330
1F
100
AcDbEntity
  8
1
  6
CONTINUOUS
370
50
 62
4
100
AcDbLine
 10
49.575455
 20
-2.964145
 30
0.0
 11
49.600456
 21
-2.96302
 31
0.0
  0
LINE
  5
954
330
1F
100
AcDbEntity
  8
1
  6
CONTINUOUS
370
50
 62
4
100
AcDbLine
 10
39.81241199999999
 20
2.809342
 30
0.0
 11
39.860737
 21
2.811629
 31
0.0
  0
LINE
  5
955
330
1F
100
AcDbEntity
  8
1
  6
CONTINUOUS
370
50
 62
4
100
AcDbLine
 10
40.151318
 20
-0.419949
 30
0.0
 11
40.17992
 21
-0.418542
 31
0.0
  0
LINE
  5
956
330
1F
100
AcDbEntity
  8
1
  6
CONTINUOUS
370
50
 62
4
100
AcDbLine
 10
39.764553
 20
2.806674
 30
0.0
 11
39.81241199999999
 21
2.809342
 31
0.0
  0
LINE
  5
957
330
1F
100
AcDbEntity
  8
1
  6
CONTINUOUS
370
50
 62
4
100
AcDbLine
 10
39.717319
 20
2.803583
 30
0.0
 11
39.764553
 21
2.806674
 31
0.0
  0
LINE
  5
958
330
1F
100
AcDbEntity
  8
1
  6
CONTINUOUS
370
50
 62
4
100
AcDbLine
 10
49.605293
 20
-2.853417
 30
0.0
 11
49.62177699999999
 21
-2.85233
 31
0.0
  0
LINE
  5
959
330
1F
100
AcDbEntity
  8
1
  6
CONTINUOUS
370
50
 62
4
100
AcDbLine
 10
40.12273
 20
-0.421893
 30
0.0
 11
40.151318
 21
-0.419949
 31
0.0
  0
LINE
  5
95A
330
1F
100
AcDbEntity
  8
1
  6
CONTINUOUS
370
50
 62
4
100
AcDbLine
 10
41.13089799999999
 20
-2.998636
 30
0.0
 11
41.38847
 21
-2.9811
 31
0.0
  0
LINE
  5
95B
330
1F
100
AcDbEntity
  8
1
  6
CONTINUOUS
370
50
 62
4
100
AcDbLine
 10
49.174179
 20
2.528949
 30
0.0
 11
49.228817
 21
2.53282
 31
0.0
  0
LINE
  5
95C
330
1F
100
AcDbEntity
  8
1
  6
CONTINUOUS
370
50
 62
4
100
AcDbLine
 10
49.525196
 20
2.961963
 30
0.0
 11
49.550358
 21
2.963788
 31
0.0
  0
LINE
  5
95D
330
1F
100
AcDbEntity
  8
1
  6
CONTINUOUS
370
50
 62
4
100
AcDbLine
 10
39.670883
 20
2.80003
 30
0.0
 11
39.717319
 21
2.803583
 31
0.0
  0
LINE
  5
95E
330
1F
100
AcDbEntity
  8
1
  6
CONTINUOUS
370
50
 62
4
100
AcDbLine
 10
40.094173
 20
-0.424374
 30
0.0
 11
40.12273
 21
-0.421893
 31
0.0
  0
LINE
  5
95F
330
1F
100
AcDbEntity
  8
1
  6
CONTINUOUS
370
50
 62
4
100
AcDbLine
 10
44.826263
 20
2.230408
 30
0.0
 11
45.071434
 21
2.251722
 31
0.0
  0
LINE
  5
960
330
1F
100
AcDbEntity
  8
1
  6
CONTINUOUS
370
50
 62
4
100
AcDbLine
 10
39.625416
 20
2.795975
 30
0.0
 11
39.670883
 21
2.80003
 31
0.0
  0
LINE
  5
961
330
1F
100
AcDbEntity
  8
1
  6
CONTINUOUS
370
50
 62
4
100
AcDbLine
 10
49.12011
 20
2.523735
 30
0.0
 11
49.174179
 21
2.528949
 31
0.0
  0
LINE
  5
962
330
1F
100
AcDbEntity
  8
1
  6
CONTINUOUS
370
50
 62
4
100
AcDbLine
 10
49.78630099999999
 20
0.837492
 30
0.0
 11
49.798969
 21
0.8388009999999999
 31
0.0
  0
LINE
  5
963
330
1F
100
AcDbEntity
  8
1
  6
CONTINUOUS
370
50
 62
4
100
AcDbLine
 10
39.581081
 20
2.791377
 30
0.0
 11
39.625416
 21
2.795975
 31
0.0
  0
LINE
  5
964
330
1F
100
AcDbEntity
  8
1
  6
CONTINUOUS
370
50
 62
4
100
AcDbLine
 10
49.600456
 20
-2.96302
 30
0.0
 11
49.625328
 21
-2.960394
 31
0.0
  0
LINE
  5
965
330
1F
100
AcDbEntity
  8
1
  6
CONTINUOUS
370
50
 62
4
100
AcDbLine
 10
40.065666
 20
-0.427394
 30
0.0
 11
40.094173
 21
-0.424374
 31
0.0
  0
LINE
  5
966
330
1F
100
AcDbEntity
  8
1
  6
CONTINUOUS
370
50
 62
4
100
AcDbLine
 10
45.982067
 20
-2.99117
 30
0.0
 11
46.201256
 21
-2.966636
 31
0.0
  0
LINE
  5
967
330
1F
100
AcDbEntity
  8
1
  6
CONTINUOUS
370
50
 62
4
100
AcDbLine
 10
49.854969
 20
-2.721018
 30
0.0
 11
49.86137799999999
 21
-2.720262
 31
0.0
  0
LINE
  5
968
330
1F
100
AcDbEntity
  8
1
  6
CONTINUOUS
370
50
 62
4
100
AcDbLine
 10
39.537903
 20
2.786172
 30
0.0
 11
39.581081
 21
2.791377
 31
0.0
  0
LINE
  5
969
330
1F
100
AcDbEntity
  8
1
  6
CONTINUOUS
370
50
 62
4
100
AcDbLine
 10
49.06599
 20
2.517203
 30
0.0
 11
49.12011
 21
2.523735
 31
0.0
  0
LINE
  5
96A
330
1F
100
AcDbEntity
  8
1
  6
CONTINUOUS
370
50
 62
4
100
AcDbLine
 10
49.62177699999999
 20
-2.85233
 30
0.0
 11
49.638527
 21
-2.850289
 31
0.0
  0
LINE
  5
96B
330
1F
100
AcDbEntity
  8
1
  6
CONTINUOUS
370
50
 62
4
100
AcDbLine
 10
40.03722399999999
 20
-0.430953
 30
0.0
 11
40.065666
 21
-0.427394
 31
0.0
  0
LINE
  5
96C
330
1F
100
AcDbEntity
  8
1
  6
CONTINUOUS
370
50
 62
4
100
AcDbLine
 10
49.5
 20
2.958684
 30
0.0
 11
49.525196
 21
2.961963
 31
0.0
  0
LINE
  5
96D
330
1F
100
AcDbEntity
  8
1
  6
CONTINUOUS
370
50
 62
4
100
AcDbLine
 10
39.495964
 20
2.780267
 30
0.0
 11
39.537903
 21
2.786172
 31
0.0
  0
LINE
  5
96E
330
1F
100
AcDbEntity
  8
1
  6
CONTINUOUS
370
50
 62
4
100
AcDbLine
 10
44.581089
 20
2.195253
 30
0.0
 11
44.826263
 21
2.230408
 31
0.0
  0
LINE
  5
96F
330
1F
100
AcDbEntity
  8
1
  6
CONTINUOUS
370
50
 62
4
100
AcDbLine
 10
49.01181
 20
2.509393
 30
0.0
 11
49.06599
 21
2.517203
 31
0.0
  0
LINE
  5
970
330
1F
100
AcDbEntity
  8
1
  6
CONTINUOUS
370
50
 62
4
100
AcDbLine
 10
41.38847
 20
-2.9811
 30
0.0
 11
41.646698
 21
-2.943243
 31
0.0
  0
LINE
  5
971
330
1F
100
AcDbEntity
  8
1
  6
CONTINUOUS
370
50
 62
4
100
AcDbLine
 10
44.668613
 20
2.933736
 30
0.0
 11
45.032181
 21
2.987751
 31
0.0
  0
LINE
  5
972
330
1F
100
AcDbEntity
  8
1
  6
CONTINUOUS
370
50
 62
4
100
AcDbLine
 10
39.986404
 20
-0.438694
 30
0.0
 11
40.03722399999999
 21
-0.430953
 31
0.0
  0
LINE
  5
973
330
1F
100
AcDbEntity
  8
1
  6
CONTINUOUS
370
50
 62
4
100
AcDbLine
 10
49.798969
 20
0.8388009999999999
 30
0.0
 11
49.811142
 21
0.840804
 31
0.0
  0
LINE
  5
974
330
1F
100
AcDbEntity
  8
1
  6
CONTINUOUS
370
50
 62
4
100
AcDbLine
 10
39.455578
 20
2.773585
 30
0.0
 11
39.495964
 21
2.780267
 31
0.0
  0
LINE
  5
975
330
1F
100
AcDbEntity
  8
1
  6
CONTINUOUS
370
50
 62
4
100
AcDbLine
 10
48.95762999999999
 20
2.500353
 30
0.0
 11
49.01181
 21
2.509393
 31
0.0
  0
LINE
  5
976
330
1F
100
AcDbEntity
  8
1
  6
CONTINUOUS
370
50
 62
4
100
AcDbLine
 10
49.625328
 20
-2.960394
 30
0.0
 11
49.650043
 21
-2.956248
 31
0.0
  0
LINE
  5
977
330
1F
100
AcDbEntity
  8
1
  6
CONTINUOUS
370
50
 62
4
100
AcDbLine
 10
49.86137799999999
 20
-2.720262
 30
0.0
 11
49.867733
 21
-2.719128
 31
0.0
  0
LINE
  5
978
330
1F
100
AcDbEntity
  8
1
  6
CONTINUOUS
370
50
 62
4
100
AcDbLine
 10
49.638527
 20
-2.850289
 30
0.0
 11
49.65542199999999
 21
-2.847257
 31
0.0
  0
LINE
  5
979
330
1F
100
AcDbEntity
  8
1
  6
CONTINUOUS
370
50
 62
4
100
AcDbLine
 10
46.201256
 20
-2.966636
 30
0.0
 11
46.420376
 21
-2.927272
 31
0.0
  0
LINE
  5
97A
330
1F
100
AcDbEntity
  8
1
  6
CONTINUOUS
370
50
 62
4
100
AcDbLine
 10
39.935944
 20
-0.448178
 30
0.0
 11
39.986404
 21
-0.438694
 31
0.0
  0
LINE
  5
97B
330
1F
100
AcDbEntity
  8
1
  6
CONTINUOUS
370
50
 62
4
100
AcDbLine
 10
48.903526
 20
2.490128
 30
0.0
 11
48.95762999999999
 21
2.500353
 31
0.0
  0
LINE
  5
97C
330
1F
100
AcDbEntity
  8
1
  6
CONTINUOUS
370
50
 62
4
100
AcDbLine
 10
39.417072
 20
2.766051
 30
0.0
 11
39.455578
 21
2.773585
 31
0.0
  0
LINE
  5
97D
330
1F
100
AcDbEntity
  8
1
  6
CONTINUOUS
370
50
 62
4
100
AcDbLine
 10
44.335911
 20
2.146757
 30
0.0
 11
44.581089
 21
2.195253
 31
0.0
  0
LINE
  5
97E
330
1F
100
AcDbEntity
  8
1
  6
CONTINUOUS
370
50
 62
4
100
AcDbLine
 10
49.231159
 20
2.905029
 30
0.0
 11
49.5
 21
2.958684
 31
0.0
  0
LINE
  5
97F
330
1F
100
AcDbEntity
  8
1
  6
CONTINUOUS
370
50
 62
4
100
AcDbLine
 10
39.88594399999999
 20
-0.459411
 30
0.0
 11
39.935944
 21
-0.448178
 31
0.0
  0
LINE
  5
980
330
1F
100
AcDbEntity
  8
1
  6
CONTINUOUS
370
50
 62
4
100
AcDbLine
 10
41.646698
 20
-2.943243
 30
0.0
 11
41.90464
 21
-2.885124
 31
0.0
  0
LINE
  5
981
330
1F
100
AcDbEntity
  8
1
  6
CONTINUOUS
370
50
 62
4
100
AcDbLine
 10
49.811142
 20
0.840804
 30
0.0
 11
49.822826
 21
0.843453
 31
0.0
  0
LINE
  5
982
330
1F
100
AcDbEntity
  8
1
  6
CONTINUOUS
370
50
 62
4
100
AcDbLine
 10
49.650043
 20
-2.956248
 30
0.0
 11
49.67454499999999
 21
-2.95056
 31
0.0
  0
LINE
  5
983
330
1F
100
AcDbEntity
  8
1
  6
CONTINUOUS
370
50
 62
4
100
AcDbLine
 10
39.380768
 20
2.757588
 30
0.0
 11
39.417072
 21
2.766051
 31
0.0
  0
LINE
  5
984
330
1F
100
AcDbEntity
  8
1
  6
CONTINUOUS
370
50
 62
4
100
AcDbLine
 10
49.65542199999999
 20
-2.847257
 30
0.0
 11
49.672428
 21
-2.843195
 31
0.0
  0
LINE
  5
985
330
1F
100
AcDbEntity
  8
1
  6
CONTINUOUS
370
50
 62
4
100
AcDbLine
 10
49.867733
 20
-2.719128
 30
0.0
 11
49.874039
 21
-2.717605
 31
0.0
  0
LINE
  5
986
330
1F
100
AcDbEntity
  8
1
  6
CONTINUOUS
370
50
 62
4
100
AcDbLine
 10
48.920723
 20
2.121253
 30
0.0
 11
48.994518
 21
2.13923
 31
0.0
  0
LINE
  5
987
330
1F
100
AcDbEntity
  8
1
  6
CONTINUOUS
370
50
 62
4
100
AcDbLine
 10
46.420376
 20
-2.927272
 30
0.0
 11
46.638248
 21
-2.874005
 31
0.0
  0
LINE
  5
988
330
1F
100
AcDbEntity
  8
1
  6
CONTINUOUS
370
50
 62
4
100
AcDbLine
 10
44.09072099999999
 20
2.085263
 30
0.0
 11
44.335911
 21
2.146757
 31
0.0
  0
LINE
  5
989
330
1F
100
AcDbEntity
  8
1
  6
CONTINUOUS
370
50
 62
4
100
AcDbLine
 10
44.298187
 20
2.838172
 30
0.0
 11
44.668613
 21
2.933736
 31
0.0
  0
LINE
  5
98A
330
1F
100
AcDbEntity
  8
1
  6
CONTINUOUS
370
50
 62
4
100
AcDbLine
 10
39.836399
 20
-0.472427
 30
0.0
 11
39.88594399999999
 21
-0.459411
 31
0.0
  0
LINE
  5
98B
330
1F
100
AcDbEntity
  8
1
  6
CONTINUOUS
370
50
 62
4
100
AcDbLine
 10
48.846931
 20
2.101865
 30
0.0
 11
48.920723
 21
2.121253
 31
0.0
  0
LINE
  5
98C
330
1F
100
AcDbEntity
  8
1
  6
CONTINUOUS
370
50
 62
4
100
AcDbLine
 10
39.346989
 20
2.748122
 30
0.0
 11
39.380768
 21
2.757588
 31
0.0
  0
LINE
  5
98D
330
1F
100
AcDbEntity
  8
1
  6
CONTINUOUS
370
50
 62
4
100
AcDbLine
 10
48.773136
 20
2.081114
 30
0.0
 11
48.846931
 21
2.101865
 31
0.0
  0
LINE
  5
98E
330
1F
100
AcDbEntity
  8
1
  6
CONTINUOUS
370
50
 62
4
100
AcDbLine
 10
48.962437
 20
2.829186
 30
0.0
 11
49.231159
 21
2.905029
 31
0.0
  0
LINE
  5
98F
330
1F
100
AcDbEntity
  8
1
  6
CONTINUOUS
370
50
 62
4
100
AcDbLine
 10
49.822826
 20
0.843453
 30
0.0
 11
49.83402599999999
 21
0.846696
 31
0.0
  0
LINE
  5
990
330
1F
100
AcDbEntity
  8
1
  6
CONTINUOUS
370
50
 62
4
100
AcDbLine
 10
49.67454499999999
 20
-2.95056
 30
0.0
 11
49.698814
 21
-2.943302
 31
0.0
  0
LINE
  5
991
330
1F
100
AcDbEntity
  8
1
  6
CONTINUOUS
370
50
 62
4
100
AcDbLine
 10
48.699341
 20
2.058977
 30
0.0
 11
48.773136
 21
2.081114
 31
0.0
  0
LINE
  5
992
330
1F
100
AcDbEntity
  8
1
  6
CONTINUOUS
370
50
 62
4
100
AcDbLine
 10
49.672428
 20
-2.843195
 30
0.0
 11
49.689522
 21
-2.838061
 31
0.0
  0
LINE
  5
993
330
1F
100
AcDbEntity
  8
1
  6
CONTINUOUS
370
50
 62
4
100
AcDbLine
 10
39.787251
 20
-0.487298
 30
0.0
 11
39.836399
 21
-0.472427
 31
0.0
  0
LINE
  5
994
330
1F
100
AcDbEntity
  8
1
  6
CONTINUOUS
370
50
 62
4
100
AcDbLine
 10
43.845524
 20
2.010664
 30
0.0
 11
44.09072099999999
 21
2.085263
 31
0.0
  0
LINE
  5
995
330
1F
100
AcDbEntity
  8
1
  6
CONTINUOUS
370
50
 62
4
100
AcDbLine
 10
41.90464
 20
-2.885124
 30
0.0
 11
42.15144
 21
-2.809931
 31
0.0
  0
LINE
  5
996
330
1F
100
AcDbEntity
  8
1
  6
CONTINUOUS
370
50
 62
4
100
AcDbLine
 10
46.638248
 20
-2.874005
 30
0.0
 11
46.853699
 21
-2.807762
 31
0.0
  0
LINE
  5
997
330
1F
100
AcDbEntity
  8
1
  6
CONTINUOUS
370
50
 62
4
100
AcDbLine
 10
49.874039
 20
-2.717605
 30
0.0
 11
49.88047
 21
-2.715579
 31
0.0
  0
LINE
  5
998
330
1F
100
AcDbEntity
  8
1
  6
CONTINUOUS
370
50
 62
4
100
AcDbLine
 10
48.625546
 20
2.035423
 30
0.0
 11
48.699341
 21
2.058977
 31
0.0
  0
LINE
  5
999
330
1F
100
AcDbEntity
  8
1
  6
CONTINUOUS
370
50
 62
4
100
AcDbLine
 10
48.55175
 20
2.010416
 30
0.0
 11
48.625546
 21
2.035423
 31
0.0
  0
LINE
  5
99A
330
1F
100
AcDbEntity
  8
1
  6
CONTINUOUS
370
50
 62
4
100
AcDbLine
 10
39.316132
 20
2.737575
 30
0.0
 11
39.346989
 21
2.748122
 31
0.0
  0
LINE
  5
99B
330
1F
100
AcDbEntity
  8
1
  6
CONTINUOUS
370
50
 62
4
100
AcDbLine
 10
39.738674
 20
-0.504046
 30
0.0
 11
39.787251
 21
-0.487298
 31
0.0
  0
LINE
  5
99C
330
1F
100
AcDbEntity
  8
1
  6
CONTINUOUS
370
50
 62
4
100
AcDbLine
 10
49.83402599999999
 20
0.846696
 30
0.0
 11
49.844738
 21
0.8504849999999999
 31
0.0
  0
LINE
  5
99D
330
1F
100
AcDbEntity
  8
1
  6
CONTINUOUS
370
50
 62
4
100
AcDbLine
 10
49.689522
 20
-2.838061
 30
0.0
 11
49.70667299999999
 21
-2.831813
 31
0.0
  0
LINE
  5
99E
330
1F
100
AcDbEntity
  8
1
  6
CONTINUOUS
370
50
 62
4
100
AcDbLine
 10
43.927746
 20
2.703148
 30
0.0
 11
44.298187
 21
2.838172
 31
0.0
  0
LINE
  5
99F
330
1F
100
AcDbEntity
  8
1
  6
CONTINUOUS
370
50
 62
4
100
AcDbLine
 10
48.695923
 20
2.731044
 30
0.0
 11
48.962437
 21
2.829186
 31
0.0
  0
LINE
  5
9A0
330
1F
100
AcDbEntity
  8
1
  6
CONTINUOUS
370
50
 62
4
100
AcDbLine
 10
49.698814
 20
-2.943302
 30
0.0
 11
49.722805
 21
-2.934445
 31
0.0
  0
LINE
  5
9A1
330
1F
100
AcDbEntity
  8
1
  6
CONTINUOUS
370
50
 62
4
100
AcDbLine
 10
46.853699
 20
-2.807762
 30
0.0
 11
47.065552
 21
-2.729472
 31
0.0
  0
LINE
  5
9A2
330
1F
100
AcDbEntity
  8
1
  6
CONTINUOUS
370
50
 62
4
100
AcDbLine
 10
42.15144
 20
-2.809931
 30
0.0
 11
42.370083
 21
-2.726454
 31
0.0
  0
LINE
  5
9A3
330
1F
100
AcDbEntity
  8
1
  6
CONTINUOUS
370
50
 62
4
100
AcDbLine
 10
39.690853
 20
-0.52269
 30
0.0
 11
39.738674
 21
-0.504046
 31
0.0
  0
LINE
  5
9A4
330
1F
100
AcDbEntity
  8
1
  6
CONTINUOUS
370
50
 62
4
100
AcDbLine
 10
49.88047
 20
-2.715579
 30
0.0
 11
49.887066
 21
-2.713005
 31
0.0
  0
LINE
  5
9A5
330
1F
100
AcDbEntity
  8
1
  6
CONTINUOUS
370
50
 62
4
100
AcDbLine
 10
49.844738
 20
0.8504849999999999
 30
0.0
 11
49.854969
 21
0.854768
 31
0.0
  0
LINE
  5
9A6
330
1F
100
AcDbEntity
  8
1
  6
CONTINUOUS
370
50
 62
4
100
AcDbLine
 10
39.288574
 20
2.725867
 30
0.0
 11
39.316132
 21
2.737575
 31
0.0
  0
LINE
  5
9A7
330
1F
100
AcDbEntity
  8
1
  6
CONTINUOUS
370
50
 62
4
100
AcDbLine
 10
49.70667299999999
 20
-2.831813
 30
0.0
 11
49.723728
 21
-2.824468
 31
0.0
  0
LINE
  5
9A8
330
1F
100
AcDbEntity
  8
1
  6
CONTINUOUS
370
50
 62
4
100
AcDbLine
 10
47.065552
 20
-2.729472
 30
0.0
 11
47.272625
 21
-2.640062
 31
0.0
  0
LINE
  5
9A9
330
1F
100
AcDbEntity
  8
1
  6
CONTINUOUS
370
50
 62
4
100
AcDbLine
 10
39.643967
 20
-0.54325
 30
0.0
 11
39.690853
 21
-0.52269
 31
0.0
  0
LINE
  5
9AA
330
1F
100
AcDbEntity
  8
1
  6
CONTINUOUS
370
50
 62
4
100
AcDbLine
 10
49.722805
 20
-2.934445
 30
0.0
 11
49.746452
 21
-2.923965
 31
0.0
  0
LINE
  5
9AB
330
1F
100
AcDbEntity
  8
1
  6
CONTINUOUS
370
50
 62
4
100
AcDbLine
 10
42.370083
 20
-2.726454
 30
0.0
 11
42.559456
 21
-2.640435
 31
0.0
  0
LINE
  5
9AC
330
1F
100
AcDbEntity
  8
1
  6
CONTINUOUS
370
50
 62
4
100
AcDbLine
 10
48.43441
 20
2.61079
 30
0.0
 11
48.695923
 21
2.731044
 31
0.0
  0
LINE
  5
9AD
330
1F
100
AcDbEntity
  8
1
  6
CONTINUOUS
370
50
 62
4
100
AcDbLine
 10
49.887066
 20
-2.713005
 30
0.0
 11
49.893776
 21
-2.709888
 31
0.0
  0
LINE
  5
9AE
330
1F
100
AcDbEntity
  8
1
  6
CONTINUOUS
370
50
 62
4
100
AcDbLine
 10
47.272625
 20
-2.640062
 30
0.0
 11
47.366608
 21
-2.596258
 31
0.0
  0
LINE
  5
9AF
330
1F
100
AcDbEntity
  8
1
  6
CONTINUOUS
370
50
 62
4
100
AcDbLine
 10
47.366608
 20
-2.596258
 30
0.0
 11
47.460594
 21
-2.551921
 31
0.0
  0
LINE
  5
9B0
330
1F
100
AcDbEntity
  8
1
  6
CONTINUOUS
370
50
 62
4
100
AcDbLine
 10
43.559059
 20
2.528314
 30
0.0
 11
43.927746
 21
2.703148
 31
0.0
  0
LINE
  5
9B1
330
1F
100
AcDbEntity
  8
1
  6
CONTINUOUS
370
50
 62
4
100
AcDbLine
 10
47.460594
 20
-2.551921
 30
0.0
 11
47.554565
 21
-2.507042
 31
0.0
  0
LINE
  5
9B2
330
1F
100
AcDbEntity
  8
1
  6
CONTINUOUS
370
50
 62
4
100
AcDbLine
 10
47.554565
 20
-2.507042
 30
0.0
 11
47.646347
 21
-2.462663
 31
0.0
  0
LINE
  5
9B3
330
1F
100
AcDbEntity
  8
1
  6
CONTINUOUS
370
50
 62
4
100
AcDbLine
 10
47.646347
 20
-2.462663
 30
0.0
 11
47.714012
 21
-2.429592
 31
0.0
  0
LINE
  5
9B4
330
1F
100
AcDbEntity
  8
1
  6
CONTINUOUS
370
50
 62
4
100
AcDbLine
 10
39.59819
 20
-0.5657449999999999
 30
0.0
 11
39.643967
 21
-0.54325
 31
0.0
  0
LINE
  5
9B5
330
1F
100
AcDbEntity
  8
1
  6
CONTINUOUS
370
50
 62
4
100
AcDbLine
 10
42.559464
 20
-2.640193
 30
0.0
 11
42.617271
 21
-2.611748
 31
0.0
  0
LINE
  5
9B6
330
1F
100
AcDbEntity
  8
1
  6
CONTINUOUS
370
50
 62
4
100
AcDbLine
 10
47.714012
 20
-2.429592
 30
0.0
 11
47.78196
 21
-2.396076
 31
0.0
  0
LINE
  5
9B7
330
1F
100
AcDbEntity
  8
1
  6
CONTINUOUS
370
50
 62
4
100
AcDbLine
 10
42.617271
 20
-2.611748
 30
0.0
 11
42.675076
 21
-2.582989
 31
0.0
  0
LINE
  5
9B8
330
1F
100
AcDbEntity
  8
1
  6
CONTINUOUS
370
50
 62
4
100
AcDbLine
 10
47.78196
 20
-2.396076
 30
0.0
 11
47.862106
 21
-2.356148
 31
0.0
  0
LINE
  5
9B9
330
1F
100
AcDbEntity
  8
1
  6
CONTINUOUS
370
50
 62
4
100
AcDbLine
 10
49.723728
 20
-2.824468
 30
0.0
 11
49.74041
 21
-2.816139
 31
0.0
  0
LINE
  5
9BA
330
1F
100
AcDbEntity
  8
1
  6
CONTINUOUS
370
50
 62
4
100
AcDbLine
 10
43.100883
 20
-2.365503
 30
0.0
 11
43.20009599999999
 21
-2.315887
 31
0.0
  0
LINE
  5
9BB
330
1F
100
AcDbEntity
  8
1
  6
CONTINUOUS
370
50
 62
4
100
AcDbLine
 10
42.675076
 20
-2.582989
 30
0.0
 11
42.732807
 21
-2.553947
 31
0.0
  0
LINE
  5
9BC
330
1F
100
AcDbEntity
  8
1
  6
CONTINUOUS
370
50
 62
4
100
AcDbLine
 10
47.862106
 20
-2.356148
 30
0.0
 11
47.94115799999999
 21
-2.316345
 31
0.0
  0
LINE
  5
9BD
330
1F
100
AcDbEntity
  8
1
  6
CONTINUOUS
370
50
 62
4
100
AcDbLine
 10
43.012974
 20
-2.410054
 30
0.0
 11
43.100883
 21
-2.365503
 31
0.0
  0
LINE
  5
9BE
330
1F
100
AcDbEntity
  8
1
  6
CONTINUOUS
370
50
 62
4
100
AcDbLine
 10
42.732807
 20
-2.553947
 30
0.0
 11
42.793564
 21
-2.523037
 31
0.0
  0
LINE
  5
9BF
330
1F
100
AcDbEntity
  8
1
  6
CONTINUOUS
370
50
 62
4
100
AcDbLine
 10
42.940483
 20
-2.447202
 30
0.0
 11
43.012974
 21
-2.410054
 31
0.0
  0
LINE
  5
9C0
330
1F
100
AcDbEntity
  8
1
  6
CONTINUOUS
370
50
 62
4
100
AcDbLine
 10
42.793564
 20
-2.523037
 30
0.0
 11
42.867992
 21
-2.484697
 31
0.0
  0
LINE
  5
9C1
330
1F
100
AcDbEntity
  8
1
  6
CONTINUOUS
370
50
 62
4
100
AcDbLine
 10
42.867992
 20
-2.484697
 30
0.0
 11
42.940483
 21
-2.447202
 31
0.0
  0
LINE
  5
9C2
330
1F
100
AcDbEntity
  8
1
  6
CONTINUOUS
370
50
 62
4
100
AcDbLine
 10
43.622707
 20
0.000015
 30
0.0
 11
43.622734
 21
0.000029
 31
0.0
  0
LINE
  5
9C3
330
1F
100
AcDbEntity
  8
1
  6
CONTINUOUS
370
50
 62
4
100
AcDbLine
 10
49.746452
 20
-2.923965
 30
0.0
 11
49.76968
 21
-2.911838
 31
0.0
  0
LINE
  5
9C4
330
1F
100
AcDbEntity
  8
1
  6
CONTINUOUS
370
50
 62
4
100
AcDbLine
 10
43.622761
 20
0.000044
 30
0.0
 11
43.622787
 21
0.000058
 31
0.0
  0
LINE
  5
9C5
330
1F
100
AcDbEntity
  8
1
  6
CONTINUOUS
370
50
 62
4
100
AcDbLine
 10
49.893776
 20
-2.709888
 30
0.0
 11
49.900543
 21
-2.706232
 31
0.0
  0
LINE
  5
9C6
330
1F
100
AcDbEntity
  8
1
  6
CONTINUOUS
370
50
 62
4
100
AcDbLine
 10
39.264694
 20
2.712912
 30
0.0
 11
39.288574
 21
2.725867
 31
0.0
  0
LINE
  5
9C7
330
1F
100
AcDbEntity
  8
1
  6
CONTINUOUS
370
50
 62
4
100
AcDbLine
 10
39.553646
 20
-0.590233
 30
0.0
 11
39.59819
 21
-0.5657449999999999
 31
0.0
  0
LINE
  5
9C8
330
1F
100
AcDbEntity
  8
1
  6
CONTINUOUS
370
50
 62
4
100
AcDbLine
 10
43.622734
 20
0.000029
 30
0.0
 11
43.622761
 21
0.000044
 31
0.0
  0
LINE
  5
9C9
330
1F
100
AcDbEntity
  8
1
  6
CONTINUOUS
370
50
 62
4
100
AcDbLine
 10
43.622787
 20
0.000058
 30
0.0
 11
43.622841
 21
0.000088
 31
0.0
  0
LINE
  5
9CA
330
1F
100
AcDbEntity
  8
1
  6
CONTINUOUS
370
50
 62
4
100
AcDbLine
 10
48.18633699999999
 20
2.472637
 30
0.0
 11
48.43441
 21
2.61079
 31
0.0
  0
LINE
  5
9CB
330
1F
100
AcDbEntity
  8
1
  6
CONTINUOUS
370
50
 62
4
100
AcDbLine
 10
49.74041
 20
-2.816139
 30
0.0
 11
49.756699
 21
-2.80685
 31
0.0
  0
LINE
  5
9CC
330
1F
100
AcDbEntity
  8
1
  6
CONTINUOUS
370
50
 62
4
100
AcDbLine
 10
43.622681
 20
0.0
 30
0.0
 11
43.622707
 21
0.000015
 31
0.0
  0
LINE
  5
9CD
330
1F
100
AcDbEntity
  8
1
  6
CONTINUOUS
370
50
 62
4
100
AcDbLine
 10
43.2001
 20
2.315882
 30
0.0
 11
43.559059
 21
2.528314
 31
0.0
  0
LINE
  5
9CE
330
1F
100
AcDbEntity
  8
1
  6
CONTINUOUS
370
50
 62
4
100
AcDbLine
 10
49.76968
 20
-2.911838
 30
0.0
 11
49.792423
 21
-2.89804
 31
0.0
  0
LINE
  5
9CF
330
1F
100
AcDbEntity
  8
1
  6
CONTINUOUS
370
50
 62
4
100
AcDbLine
 10
39.510311
 20
-0.6168969999999999
 30
0.0
 11
39.553646
 21
-0.590233
 31
0.0
  0
LINE
  5
9D0
330
1F
100
AcDbEntity
  8
1
  6
CONTINUOUS
370
50
 62
4
100
AcDbLine
 10
49.900543
 20
-2.706232
 30
0.0
 11
49.907314
 21
-2.702039
 31
0.0
  0
LINE
  5
9D1
330
1F
100
AcDbEntity
  8
1
  6
CONTINUOUS
370
50
 62
4
100
AcDbLine
 10
46.539043
 20
0.9291919999999999
 30
0.0
 11
46.53907
 21
0.929209
 31
0.0
  0
LINE
  5
9D2
330
1F
100
AcDbEntity
  8
1
  6
CONTINUOUS
370
50
 62
4
100
AcDbLine
 10
46.539093
 20
0.929225
 30
0.0
 11
46.53912
 21
0.929242
 31
0.0
  0
LINE
  5
9D3
330
1F
100
AcDbEntity
  8
1
  6
CONTINUOUS
370
50
 62
4
100
AcDbLine
 10
47.941154
 20
2.316352
 30
0.0
 11
48.18633699999999
 21
2.472637
 31
0.0
  0
LINE
  5
9D4
330
1F
100
AcDbEntity
  8
1
  6
CONTINUOUS
370
50
 62
4
100
AcDbLine
 10
49.756699
 20
-2.80685
 30
0.0
 11
49.772575
 21
-2.796626
 31
0.0
  0
LINE
  5
9D5
330
1F
100
AcDbEntity
  8
1
  6
CONTINUOUS
370
50
 62
4
100
AcDbLine
 10
46.539143
 20
0.9292579999999999
 30
0.0
 11
46.539169
 21
0.929275
 31
0.0
  0
LINE
  5
9D6
330
1F
100
AcDbEntity
  8
1
  6
CONTINUOUS
370
50
 62
4
100
AcDbLine
 10
39.468487
 20
-0.645764
 30
0.0
 11
39.510311
 21
-0.6168969999999999
 31
0.0
  0
LINE
  5
9D7
330
1F
100
AcDbEntity
  8
1
  6
CONTINUOUS
370
50
 62
4
100
AcDbLine
 10
49.643105
 20
-0.410791
 30
0.0
 11
50.0
 21
-0.164394
 31
0.0
  0
LINE
  5
9D8
330
1F
100
AcDbEntity
  8
1
  6
CONTINUOUS
370
50
 62
4
100
AcDbLine
 10
46.53907
 20
0.929209
 30
0.0
 11
46.539093
 21
0.929225
 31
0.0
  0
LINE
  5
9D9
330
1F
100
AcDbEntity
  8
1
  6
CONTINUOUS
370
50
 62
4
100
AcDbLine
 10
46.53912
 20
0.929242
 30
0.0
 11
46.539143
 21
0.9292579999999999
 31
0.0
  0
LINE
  5
9DA
330
1F
100
AcDbEntity
  8
1
  6
CONTINUOUS
370
50
 62
4
100
AcDbLine
 10
49.792423
 20
-2.89804
 30
0.0
 11
49.814606
 21
-2.882548
 31
0.0
  0
LINE
  5
9DB
330
1F
100
AcDbEntity
  8
1
  6
CONTINUOUS
370
50
 62
4
100
AcDbLine
 10
49.907314
 20
-2.702039
 30
0.0
 11
49.91404
 21
-2.697314
 31
0.0
  0
LINE
  5
9DC
330
1F
100
AcDbEntity
  8
1
  6
CONTINUOUS
370
50
 62
4
100
AcDbLine
 10
39.244873
 20
2.698635
 30
0.0
 11
39.264694
 21
2.712912
 31
0.0
  0
LINE
  5
9DD
330
1F
100
AcDbEntity
  8
1
  6
CONTINUOUS
370
50
 62
4
100
AcDbLine
 10
49.772575
 20
-2.796626
 30
0.0
 11
49.787983
 21
-2.785524
 31
0.0
  0
LINE
  5
9DE
330
1F
100
AcDbEntity
  8
1
  6
CONTINUOUS
370
50
 62
4
100
AcDbLine
 10
46.539021
 20
0.929176
 30
0.0
 11
46.539043
 21
0.9291919999999999
 31
0.0
  0
LINE
  5
9DF
330
1F
100
AcDbEntity
  8
1
  6
CONTINUOUS
370
50
 62
4
100
AcDbLine
 10
34.799999
 20
-2.99995
 30
0.0
 11
35.0
 21
-2.84995
 31
0.0
  0
LINE
  5
9E0
330
1F
100
AcDbEntity
  8
1
  6
CONTINUOUS
370
50
 62
4
100
AcDbLine
 10
39.428513
 20
-0.67684
 30
0.0
 11
39.468487
 21
-0.645764
 31
0.0
  0
LINE
  5
9E1
330
1F
100
AcDbEntity
  8
1
  6
CONTINUOUS
370
50
 62
4
100
AcDbLine
 10
49.91404
 20
-2.697314
 30
0.0
 11
49.92067
 21
-2.692059
 31
0.0
  0
LINE
  5
9E2
330
1F
100
AcDbEntity
  8
1
  6
CONTINUOUS
370
50
 62
4
100
AcDbLine
 10
49.646976
 20
-0.682854
 30
0.0
 11
49.647163
 21
-0.682705
 31
0.0
  0
LINE
  5
9E3
330
1F
100
AcDbEntity
  8
1
  6
CONTINUOUS
370
50
 62
4
100
AcDbLine
 10
49.647346
 20
-0.6825559999999999
 30
0.0
 11
49.647533
 21
-0.682407
 31
0.0
  0
LINE
  5
9E4
330
1F
100
AcDbEntity
  8
1
  6
CONTINUOUS
370
50
 62
4
100
AcDbLine
 10
49.814606
 20
-2.882548
 30
0.0
 11
49.836163
 21
-2.865334
 31
0.0
  0
LINE
  5
9E5
330
1F
100
AcDbEntity
  8
1
  6
CONTINUOUS
370
50
 62
4
100
AcDbLine
 10
49.787983
 20
-2.785524
 30
0.0
 11
49.802727
 21
-2.773727
 31
0.0
  0
LINE
  5
9E6
330
1F
100
AcDbEntity
  8
1
  6
CONTINUOUS
370
50
 62
4
100
AcDbLine
 10
49.647717
 20
-0.682257
 30
0.0
 11
49.647903
 21
-0.6821079999999999
 31
0.0
  0
LINE
  5
9E7
330
1F
100
AcDbEntity
  8
1
  6
CONTINUOUS
370
50
 62
4
100
AcDbLine
 10
49.647163
 20
-0.682705
 30
0.0
 11
49.647346
 21
-0.6825559999999999
 31
0.0
  0
LINE
  5
9E8
330
1F
100
AcDbEntity
  8
1
  6
CONTINUOUS
370
50
 62
4
100
AcDbLine
 10
49.647533
 20
-0.682407
 30
0.0
 11
49.647717
 21
-0.682257
 31
0.0
  0
LINE
  5
9E9
330
1F
100
AcDbEntity
  8
1
  6
CONTINUOUS
370
50
 62
4
100
AcDbLine
 10
49.646793
 20
-0.683004
 30
0.0
 11
49.646976
 21
-0.682854
 31
0.0
  0
LINE
  5
9EA
330
1F
100
AcDbEntity
  8
1
  6
CONTINUOUS
370
50
 62
4
100
AcDbLine
 10
39.390732
 20
-0.710131
 30
0.0
 11
39.428513
 21
-0.67684
 31
0.0
  0
LINE
  5
9EB
330
1F
100
AcDbEntity
  8
1
  6
CONTINUOUS
370
50
 62
4
100
AcDbLine
 10
49.802727
 20
-2.773727
 30
0.0
 11
49.816792
 21
-2.761314
 31
0.0
  0
LINE
  5
9EC
330
1F
100
AcDbEntity
  8
1
  6
CONTINUOUS
370
50
 62
4
100
AcDbLine
 10
46.313053
 20
1.025483
 30
0.0
 11
46.313118
 21
1.025541
 31
0.0
  0
LINE
  5
9ED
330
1F
100
AcDbEntity
  8
1
  6
CONTINUOUS
370
50
 62
4
100
AcDbLine
 10
46.313179
 20
1.025599
 30
0.0
 11
46.313244
 21
1.025657
 31
0.0
  0
LINE
  5
9EE
330
1F
100
AcDbEntity
  8
1
  6
CONTINUOUS
370
50
 62
4
100
AcDbLine
 10
46.313305
 20
1.025714
 30
0.0
 11
46.31337
 21
1.025772
 31
0.0
  0
LINE
  5
9EF
330
1F
100
AcDbEntity
  8
1
  6
CONTINUOUS
370
50
 62
4
100
AcDbLine
 10
49.92067
 20
-2.692059
 30
0.0
 11
49.927143
 21
-2.68628
 31
0.0
  0
LINE
  5
9F0
330
1F
100
AcDbEntity
  8
1
  6
CONTINUOUS
370
50
 62
4
100
AcDbLine
 10
49.836163
 20
-2.865334
 30
0.0
 11
49.856987
 21
-2.846385
 31
0.0
  0
LINE
  5
9F1
330
1F
100
AcDbEntity
  8
1
  6
CONTINUOUS
370
50
 62
4
100
AcDbLine
 10
46.312992
 20
1.025426
 30
0.0
 11
46.313053
 21
1.025483
 31
0.0
  0
LINE
  5
9F2
330
1F
100
AcDbEntity
  8
1
  6
CONTINUOUS
370
50
 62
4
100
AcDbLine
 10
46.313244
 20
1.025657
 30
0.0
 11
46.313305
 21
1.025714
 31
0.0
  0
LINE
  5
9F3
330
1F
100
AcDbEntity
  8
1
  6
CONTINUOUS
370
50
 62
4
100
AcDbLine
 10
46.313118
 20
1.025541
 30
0.0
 11
46.313179
 21
1.025599
 31
0.0
  0
LINE
  5
9F4
330
1F
100
AcDbEntity
  8
1
  6
CONTINUOUS
370
50
 62
4
100
AcDbLine
 10
49.816792
 20
-2.761314
 30
0.0
 11
49.830185
 21
-2.74835
 31
0.0
  0
LINE
  5
9F5
330
1F
100
AcDbEntity
  8
1
  6
CONTINUOUS
370
50
 62
4
100
AcDbLine
 10
49.927143
 20
-2.68628
 30
0.0
 11
49.933414
 21
-2.679979
 31
0.0
  0
LINE
  5
9F6
330
1F
100
AcDbEntity
  8
1
  6
CONTINUOUS
370
50
 62
4
100
AcDbLine
 10
39.355492
 20
-0.7456419999999999
 30
0.0
 11
39.390732
 21
-0.710131
 31
0.0
  0
LINE
  5
9F7
330
1F
100
AcDbEntity
  8
1
  6
CONTINUOUS
370
50
 62
4
100
AcDbLine
 10
39.229675
 20
2.683193
 30
0.0
 11
39.244873
 21
2.698635
 31
0.0
  0
LINE
  5
9F8
330
1F
100
AcDbEntity
  8
1
  6
CONTINUOUS
370
50
 62
4
100
AcDbLine
 10
49.856987
 20
-2.846385
 30
0.0
 11
49.87696099999999
 21
-2.825697
 31
0.0
  0
LINE
  5
9F9
330
1F
100
AcDbEntity
  8
1
  6
CONTINUOUS
370
50
 62
4
100
AcDbLine
 10
49.830185
 20
-2.74835
 30
0.0
 11
49.842911
 21
-2.734902
 31
0.0
  0
LINE
  5
9FA
330
1F
100
AcDbEntity
  8
1
  6
CONTINUOUS
370
50
 62
4
100
AcDbLine
 10
49.933414
 20
-2.679979
 30
0.0
 11
49.939438
 21
-2.673151
 31
0.0
  0
LINE
  5
9FB
330
1F
100
AcDbEntity
  8
1
  6
CONTINUOUS
370
50
 62
4
100
AcDbLine
 10
49.842911
 20
-2.734902
 30
0.0
 11
49.854969
 21
-2.721035
 31
0.0
  0
LINE
  5
9FC
330
1F
100
AcDbEntity
  8
1
  6
CONTINUOUS
370
50
 62
4
100
AcDbLine
 10
39.323185
 20
-0.78333
 30
0.0
 11
39.355492
 21
-0.7456419999999999
 31
0.0
  0
LINE
  5
9FD
330
1F
100
AcDbEntity
  8
1
  6
CONTINUOUS
370
50
 62
4
100
AcDbLine
 10
48.826744
 20
0.014784
 30
0.0
 11
48.85017
 21
0.042214
 31
0.0
  0
LINE
  5
9FE
330
1F
100
AcDbEntity
  8
1
  6
CONTINUOUS
370
50
 62
4
100
AcDbLine
 10
49.87696099999999
 20
-2.825697
 30
0.0
 11
49.895962
 21
-2.803263
 31
0.0
  0
LINE
  5
9FF
330
1F
100
AcDbEntity
  8
1
  6
CONTINUOUS
370
50
 62
4
100
AcDbLine
 10
48.85017
 20
0.042214
 30
0.0
 11
48.87254
 21
0.070465
 31
0.0
  0
LINE
  5
A00
330
1F
100
AcDbEntity
  8
1
  6
CONTINUOUS
370
50
 62
4
100
AcDbLine
 10
49.939438
 20
-2.673151
 30
0.0
 11
49.945496
 21
-2.665366
 31
0.0
  0
LINE
  5
A01
330
1F
100
AcDbEntity
  8
1
  6
CONTINUOUS
370
50
 62
4
100
AcDbLine
 10
49.895962
 20
-2.803263
 30
0.0
 11
49.913883
 21
-2.779079
 31
0.0
  0
LINE
  5
A02
330
1F
100
AcDbEntity
  8
1
  6
CONTINUOUS
370
50
 62
4
100
AcDbLine
 10
48.87254
 20
0.070465
 30
0.0
 11
48.893795
 21
0.099481
 31
0.0
  0
LINE
  5
A03
330
1F
100
AcDbEntity
  8
1
  6
CONTINUOUS
370
50
 62
4
100
AcDbLine
 10
39.294235
 20
-0.823112
 30
0.0
 11
39.323185
 21
-0.78333
 31
0.0
  0
LINE
  5
A04
330
1F
100
AcDbEntity
  8
1
  6
CONTINUOUS
370
50
 62
4
100
AcDbLine
 10
49.945496
 20
-2.665366
 30
0.0
 11
49.951668
 21
-2.656465
 31
0.0
  0
LINE
  5
A05
330
1F
100
AcDbEntity
  8
1
  6
CONTINUOUS
370
50
 62
4
100
AcDbLine
 10
48.893795
 20
0.099481
 30
0.0
 11
48.913792
 21
0.12908
 31
0.0
  0
LINE
  5
A06
330
1F
100
AcDbEntity
  8
1
  6
CONTINUOUS
370
50
 62
4
100
AcDbLine
 10
49.913883
 20
-2.779079
 30
0.0
 11
49.93058
 21
-2.753169
 31
0.0
  0
LINE
  5
A07
330
1F
100
AcDbEntity
  8
1
  6
CONTINUOUS
370
50
 62
4
100
AcDbLine
 10
39.219315
 20
2.666668
 30
0.0
 11
39.229675
 21
2.683193
 31
0.0
  0
LINE
  5
A08
330
1F
100
AcDbEntity
  8
1
  6
CONTINUOUS
370
50
 62
4
100
AcDbLine
 10
48.913792
 20
0.12908
 30
0.0
 11
48.932274
 21
0.158847
 31
0.0
  0
LINE
  5
A09
330
1F
100
AcDbEntity
  8
1
  6
CONTINUOUS
370
50
 62
4
100
AcDbLine
 10
49.951668
 20
-2.656465
 30
0.0
 11
49.957817
 21
-2.646558
 31
0.0
  0
LINE
  5
A0A
330
1F
100
AcDbEntity
  8
1
  6
CONTINUOUS
370
50
 62
4
100
AcDbLine
 10
39.269035
 20
-0.864926
 30
0.0
 11
39.294235
 21
-0.823112
 31
0.0
  0
LINE
  5
A0B
330
1F
100
AcDbEntity
  8
1
  6
CONTINUOUS
370
50
 62
4
100
AcDbLine
 10
48.932274
 20
0.158847
 30
0.0
 11
48.949242
 21
0.188696
 31
0.0
  0
LINE
  5
A0C
330
1F
100
AcDbEntity
  8
1
  6
CONTINUOUS
370
50
 62
4
100
AcDbLine
 10
49.93058
 20
-2.753169
 30
0.0
 11
49.945831
 21
-2.725708
 31
0.0
  0
LINE
  5
A0D
330
1F
100
AcDbEntity
  8
1
  6
CONTINUOUS
370
50
 62
4
100
AcDbLine
 10
49.957817
 20
-2.646558
 30
0.0
 11
49.963814
 21
-2.635756
 31
0.0
  0
LINE
  5
A0E
330
1F
100
AcDbEntity
  8
1
  6
CONTINUOUS
370
50
 62
4
100
AcDbLine
 10
48.949242
 20
0.188696
 30
0.0
 11
48.964706
 21
0.218563
 31
0.0
  0
LINE
  5
A0F
330
1F
100
AcDbEntity
  8
1
  6
CONTINUOUS
370
50
 62
4
100
AcDbLine
 10
49.963814
 20
-2.635756
 30
0.0
 11
49.969521
 21
-2.624168
 31
0.0
  0
LINE
  5
A10
330
1F
100
AcDbEntity
  8
1
  6
CONTINUOUS
370
50
 62
4
100
AcDbLine
 10
39.247986
 20
-0.908708
 30
0.0
 11
39.269035
 21
-0.864926
 31
0.0
  0
LINE
  5
A11
330
1F
100
AcDbEntity
  8
1
  6
CONTINUOUS
370
50
 62
4
100
AcDbLine
 10
49.945831
 20
-2.725708
 30
0.0
 11
49.959488
 21
-2.696771
 31
0.0
  0
LINE
  5
A12
330
1F
100
AcDbEntity
  8
1
  6
CONTINUOUS
370
50
 62
4
100
AcDbLine
 10
48.964706
 20
0.218563
 30
0.0
 11
48.97868
 21
0.248383
 31
0.0
  0
LINE
  5
A13
330
1F
100
AcDbEntity
  8
1
  6
CONTINUOUS
370
50
 62
4
100
AcDbLine
 10
49.969521
 20
-2.624168
 30
0.0
 11
49.97479999999999
 21
-2.611905
 31
0.0
  0
LINE
  5
A14
330
1F
100
AcDbEntity
  8
1
  6
CONTINUOUS
370
50
 62
4
100
AcDbLine
 10
48.97868
 20
0.248383
 30
0.0
 11
48.991169
 21
0.278092
 31
0.0
  0
LINE
  5
A15
330
1F
100
AcDbEntity
  8
1
  6
CONTINUOUS
370
50
 62
4
100
AcDbLine
 10
49.959488
 20
-2.696771
 30
0.0
 11
49.971416
 21
-2.666414
 31
0.0
  0
LINE
  5
A16
330
1F
100
AcDbEntity
  8
1
  6
CONTINUOUS
370
50
 62
4
100
AcDbLine
 10
48.991169
 20
0.278092
 30
0.0
 11
49.002151
 21
0.307505
 31
0.0
  0
LINE
  5
A17
330
1F
100
AcDbEntity
  8
1
  6
CONTINUOUS
370
50
 62
4
100
AcDbLine
 10
49.97479999999999
 20
-2.611905
 30
0.0
 11
49.979809
 21
-2.598285
 31
0.0
  0
LINE
  5
A18
330
1F
100
AcDbEntity
  8
1
  6
CONTINUOUS
370
50
 62
4
100
AcDbLine
 10
39.231667
 20
-0.953812
 30
0.0
 11
39.247986
 21
-0.908708
 31
0.0
  0
LINE
  5
A19
330
1F
100
AcDbEntity
  8
1
  6
CONTINUOUS
370
50
 62
4
100
AcDbLine
 10
49.002151
 20
0.307505
 30
0.0
 11
49.011616
 21
0.336441
 31
0.0
  0
LINE
  5
A1A
330
1F
100
AcDbEntity
  8
1
  6
CONTINUOUS
370
50
 62
4
100
AcDbLine
 10
49.971416
 20
-2.666414
 30
0.0
 11
49.98148
 21
-2.634691
 31
0.0
  0
LINE
  5
A1B
330
1F
100
AcDbEntity
  8
1
  6
CONTINUOUS
370
50
 62
4
100
AcDbLine
 10
49.979809
 20
-2.598285
 30
0.0
 11
49.984711
 21
-2.582691
 31
0.0
  0
LINE
  5
A1C
330
1F
100
AcDbEntity
  8
1
  6
CONTINUOUS
370
50
 62
4
100
AcDbLine
 10
39.213856
 20
2.649051
 30
0.0
 11
39.219315
 21
2.666668
 31
0.0
  0
LINE
  5
A1D
330
1F
100
AcDbEntity
  8
1
  6
CONTINUOUS
370
50
 62
4
100
AcDbLine
 10
49.011616
 20
0.336441
 30
0.0
 11
49.019623
 21
0.364863
 31
0.0
  0
LINE
  5
A1E
330
1F
100
AcDbEntity
  8
1
  6
CONTINUOUS
370
50
 62
4
100
AcDbLine
 10
49.984711
 20
-2.582691
 30
0.0
 11
49.98904
 21
-2.566307
 31
0.0
  0
LINE
  5
A1F
330
1F
100
AcDbEntity
  8
1
  6
CONTINUOUS
370
50
 62
4
100
AcDbLine
 10
39.220383
 20
-0.999656
 30
0.0
 11
39.231667
 21
-0.953812
 31
0.0
  0
LINE
  5
A20
330
1F
100
AcDbEntity
  8
1
  6
CONTINUOUS
370
50
 62
4
100
AcDbLine
 10
49.98148
 20
-2.634691
 30
0.0
 11
49.98950199999999
 21
-2.601856
 31
0.0
  0
LINE
  5
A21
330
1F
100
AcDbEntity
  8
1
  6
CONTINUOUS
370
50
 62
4
100
AcDbLine
 10
49.019623
 20
0.364863
 30
0.0
 11
49.026218
 21
0.392736
 31
0.0
  0
LINE
  5
A22
330
1F
100
AcDbEntity
  8
1
  6
CONTINUOUS
370
50
 62
4
100
AcDbLine
 10
49.98904
 20
-2.566307
 30
0.0
 11
49.992733
 21
-2.548592
 31
0.0
  0
LINE
  5
A23
330
1F
100
AcDbEntity
  8
1
  6
CONTINUOUS
370
50
 62
4
100
AcDbLine
 10
49.026218
 20
0.392736
 30
0.0
 11
49.031464
 21
0.420022
 31
0.0
  0
LINE
  5
A24
330
1F
100
AcDbEntity
  8
1
  6
CONTINUOUS
370
50
 62
4
100
AcDbLine
 10
49.98950199999999
 20
-2.601856
 30
0.0
 11
49.9953
 21
-2.568379
 31
0.0
  0
LINE
  5
A25
330
1F
100
AcDbEntity
  8
1
  6
CONTINUOUS
370
50
 62
4
100
AcDbLine
 10
49.992733
 20
-2.548592
 30
0.0
 11
49.99589899999999
 21
-2.528988
 31
0.0
  0
LINE
  5
A26
330
1F
100
AcDbEntity
  8
1
  6
CONTINUOUS
370
50
 62
4
100
AcDbLine
 10
49.031464
 20
0.420022
 30
0.0
 11
49.035408
 21
0.446686
 31
0.0
  0
LINE
  5
A27
330
1F
100
AcDbEntity
  8
1
  6
CONTINUOUS
370
50
 62
4
100
AcDbLine
 10
39.21420699999999
 20
-1.046119
 30
0.0
 11
39.220383
 21
-0.999656
 31
0.0
  0
LINE
  5
A28
330
1F
100
AcDbEntity
  8
1
  6
CONTINUOUS
370
50
 62
4
100
AcDbLine
 10
49.99589899999999
 20
-2.528988
 30
0.0
 11
49.998119
 21
-2.50916
 31
0.0
  0
LINE
  5
A29
330
1F
100
AcDbEntity
  8
1
  6
CONTINUOUS
370
50
 62
4
100
AcDbLine
 10
49.035408
 20
0.446686
 30
0.0
 11
49.038109
 21
0.472692
 31
0.0
  0
LINE
  5
A2A
330
1F
100
AcDbEntity
  8
1
  6
CONTINUOUS
370
50
 62
4
100
AcDbLine
 10
49.9953
 20
-2.568379
 30
0.0
 11
49.998817
 21
-2.534384
 31
0.0
  0
LINE
  5
A2B
330
1F
100
AcDbEntity
  8
1
  6
CONTINUOUS
370
50
 62
4
100
AcDbLine
 10
49.638824
 20
-0.799997
 30
0.0
 11
49.646793
 21
-0.683004
 31
0.0
  0
LINE
  5
A2C
330
1F
100
AcDbEntity
  8
1
  6
CONTINUOUS
370
50
 62
4
100
AcDbLine
 10
49.037529
 20
1.791874
 30
0.0
 11
49.03949
 21
1.82155
 31
0.0
  0
LINE
  5
A2D
330
1F
100
AcDbEntity
  8
1
  6
CONTINUOUS
370
50
 62
4
100
AcDbLine
 10
49.998119
 20
-2.50916
 30
0.0
 11
49.99953499999999
 21
-2.487491
 31
0.0
  0
LINE
  5
A2E
330
1F
100
AcDbEntity
  8
1
  6
CONTINUOUS
370
50
 62
4
100
AcDbLine
 10
49.038109
 20
0.472692
 30
0.0
 11
49.039623
 21
0.49805
 31
0.0
  0
LINE
  5
A2F
330
1F
100
AcDbEntity
  8
1
  6
CONTINUOUS
370
50
 62
4
100
AcDbLine
 10
49.632927
 20
-0.917806
 30
0.0
 11
49.638824
 21
-0.799997
 31
0.0
  0
LINE
  5
A30
330
1F
100
AcDbEntity
  8
1
  6
CONTINUOUS
370
50
 62
4
100
AcDbLine
 10
49.998817
 20
-2.534384
 30
0.0
 11
50.0
 21
-2.499983
 31
0.0
  0
LINE
  5
A31
330
1F
100
AcDbEntity
  8
1
  6
CONTINUOUS
370
50
 62
4
100
AcDbLine
 10
49.629139
 20
-1.036216
 30
0.0
 11
49.632927
 21
-0.917806
 31
0.0
  0
LINE
  5
A32
330
1F
100
AcDbEntity
  8
1
  6
CONTINUOUS
370
50
 62
4
100
AcDbLine
 10
49.647903
 20
-0.6821079999999999
 30
0.0
 11
49.649021
 21
-0.6432869999999999
 31
0.0
  0
LINE
  5
A33
330
1F
100
AcDbEntity
  8
1
  6
CONTINUOUS
370
50
 62
4
100
AcDbLine
 10
39.213345
 20
2.630375
 30
0.0
 11
39.213856
 21
2.649051
 31
0.0
  0
LINE
  5
A34
330
1F
100
AcDbEntity
  8
1
  6
CONTINUOUS
370
50
 62
4
100
AcDbLine
 10
39.213196
 20
-1.093014
 30
0.0
 11
39.21420699999999
 21
-1.046119
 31
0.0
  0
LINE
  5
A35
330
1F
100
AcDbEntity
  8
1
  6
CONTINUOUS
370
50
 62
4
100
AcDbLine
 10
49.99953499999999
 20
-2.487491
 30
0.0
 11
49.999989
 21
-2.466415
 31
0.0
  0
LINE
  5
A36
330
1F
100
AcDbEntity
  8
1
  6
CONTINUOUS
370
50
 62
4
100
AcDbLine
 10
49.03949
 20
1.82155
 30
0.0
 11
49.040001
 21
1.852463
 31
0.0
  0
LINE
  5
A37
330
1F
100
AcDbEntity
  8
1
  6
CONTINUOUS
370
50
 62
4
100
AcDbLine
 10
49.039623
 20
0.49805
 30
0.0
 11
49.040001
 21
0.5229619999999999
 31
0.0
  0
LINE
  5
A38
330
1F
100
AcDbEntity
  8
1
  6
CONTINUOUS
370
50
 62
4
100
AcDbLine
 10
49.627495
 20
-1.155013
 30
0.0
 11
49.629139
 21
-1.036216
 31
0.0
  0
LINE
  5
A39
330
1F
100
AcDbEntity
  8
1
  6
CONTINUOUS
370
50
 62
4
100
AcDbLine
 10
49.649021
 20
-0.6432869999999999
 30
0.0
 11
49.649506
 21
-0.604371
 31
0.0
  0
LINE
  5
A3A
330
1F
100
AcDbEntity
  8
1
  6
CONTINUOUS
370
50
 62
4
100
AcDbLine
 10
34.799999
 20
-2.99995
 30
0.0
 11
34.799999
 21
2.99995
 31
0.0
  0
LINE
  5
A3B
330
1F
100
AcDbEntity
  8
1
  6
CONTINUOUS
370
50
 62
4
100
AcDbLine
 10
35.0
 20
-2.84995
 30
0.0
 11
35.0
 21
2.84995
 31
0.0
  0
LINE
  5
A3C
330
1F
100
AcDbEntity
  8
1
  6
CONTINUOUS
370
50
 62
4
100
AcDbLine
 10
41.0
 20
-2.9999
 30
0.0
 11
41.0
 21
2.9999
 31
0.0
  0
LINE
  5
A3D
330
1F
100
AcDbEntity
  8
1
  6
CONTINUOUS
370
50
 62
4
100
AcDbLine
 10
49.5
 20
0.496174
 30
0.0
 11
49.5
 21
0.969084
 31
0.0
  0
LINE
  5
A3E
330
1F
100
AcDbEntity
  8
1
  6
CONTINUOUS
370
50
 62
4
100
AcDbLine
 10
49.5
 20
-2.958684
 30
0.0
 11
49.5
 21
-2.839168
 31
0.0
  0
LINE
  5
A3F
330
1F
100
AcDbEntity
  8
1
  6
CONTINUOUS
370
50
 62
4
100
AcDbLine
 10
50.0
 20
-2.499983
 30
0.0
 11
50.0
 21
0.408407
 31
0.0
  0
LINE
  5
A40
330
1F
100
AcDbEntity
  8
1
  6
CONTINUOUS
370
50
 62
4
100
AcDbLine
 10
50.0
 20
2.239702
 30
0.0
 11
50.0
 21
2.258281
 31
0.0
  0
LINE
  5
A41
330
1F
100
AcDbEntity
  8
1
  6
CONTINUOUS
370
50
 62
4
100
AcDbLine
 10
50.0
 20
2.221152
 30
0.0
 11
50.0
 21
2.239702
 31
0.0
  0
LINE
  5
A42
330
1F
100
AcDbEntity
  8
1
  6
CONTINUOUS
370
50
 62
4
100
AcDbLine
 10
50.0
 20
2.202637
 30
0.0
 11
50.0
 21
2.221152
 31
0.0
  0
LINE
  5
A43
330
1F
100
AcDbEntity
  8
1
  6
CONTINUOUS
370
50
 62
4
100
AcDbLine
 10
50.0
 20
2.184164
 30
0.0
 11
50.0
 21
2.202637
 31
0.0
  0
LINE
  5
A44
330
1F
100
AcDbEntity
  8
1
  6
CONTINUOUS
370
50
 62
4
100
AcDbLine
 10
50.0
 20
2.165739
 30
0.0
 11
50.0
 21
2.184164
 31
0.0
  0
LINE
  5
A45
330
1F
100
AcDbEntity
  8
1
  6
CONTINUOUS
370
50
 62
4
100
AcDbLine
 10
50.0
 20
2.147368
 30
0.0
 11
50.0
 21
2.165739
 31
0.0
  0
LINE
  5
A46
330
1F
100
AcDbEntity
  8
1
  6
CONTINUOUS
370
50
 62
4
100
AcDbLine
 10
50.0
 20
2.129057
 30
0.0
 11
50.0
 21
2.147368
 31
0.0
  0
LINE
  5
A47
330
1F
100
AcDbEntity
  8
1
  6
CONTINUOUS
370
50
 62
4
100
AcDbLine
 10
50.0
 20
2.465455
 30
0.0
 11
50.0
 21
2.499983
 31
0.0
  0
LINE
  5
A48
330
1F
100
AcDbEntity
  8
1
  6
CONTINUOUS
370
50
 62
4
100
AcDbLine
 10
50.0
 20
2.430926
 30
0.0
 11
50.0
 21
2.465455
 31
0.0
  0
LINE
  5
A49
330
1F
100
AcDbEntity
  8
1
  6
CONTINUOUS
370
50
 62
4
100
AcDbLine
 10
50.0
 20
2.396397
 30
0.0
 11
50.0
 21
2.430926
 31
0.0
  0
LINE
  5
A4A
330
1F
100
AcDbEntity
  8
1
  6
CONTINUOUS
370
50
 62
4
100
AcDbLine
 10
50.0
 20
2.361868
 30
0.0
 11
50.0
 21
2.396397
 31
0.0
  0
LINE
  5
A4B
330
1F
100
AcDbEntity
  8
1
  6
CONTINUOUS
370
50
 62
4
100
AcDbLine
 10
50.0
 20
2.327339
 30
0.0
 11
50.0
 21
2.361868
 31
0.0
  0
LINE
  5
A4C
330
1F
100
AcDbEntity
  8
1
  6
CONTINUOUS
370
50
 62
4
100
AcDbLine
 10
50.0
 20
2.29281
 30
0.0
 11
50.0
 21
2.327339
 31
0.0
  0
LINE
  5
A4D
330
1F
100
AcDbEntity
  8
1
  6
CONTINUOUS
370
50
 62
4
100
AcDbLine
 10
50.0
 20
2.258281
 30
0.0
 11
50.0
 21
2.29281
 31
0.0
  0
LINE
  5
A4E
330
1F
100
AcDbEntity
  8
1
  6
CONTINUOUS
370
50
 62
4
100
AcDbLine
 10
50.0
 20
0.408441
 30
0.0
 11
50.0
 21
2.129057
 31
0.0
  0
ELLIPSE
  5
A4F
330
1F
100
AcDbEntity
  8
1
  6
CONTINUOUS
370
50
 62
4
100
AcDbEllipse
 10
67.707751
 20
-28.719694
 30
0.0
 11
-48.54301207386279
 21
14.93420575991207
 31
0.0
210
0.0
220
0.0
230
1.0
 40
0.4888913988757178
 41
5.436954493213515
 42
5.479898526730501
  0
ELLIPSE
  5
A50
330
1F
100
AcDbEntity
  8
1
  6
CONTINUOUS
370
50
 62
4
100
AcDbEllipse
 10
67.707751
 20
34.4343
 30
0.0
 11
-44.97381680587112
 21
23.59682936999532
 31
0.0
210
0.0
220
0.0
230
1.0
 40
0.8337788872067369
 41
1.36495698419865
 42
1.407901018118258
  0
ELLIPSE
  5
A51
330
1F
100
AcDbEntity
  8
1
  6
CONTINUOUS
370
50
 62
4
100
AcDbEllipse
 10
67.986684
 20
34.965924
 30
0.0
 11
-44.76490195796829
 21
23.48721608010933
 31
0.0
210
0.0
220
0.0
230
1.0
 40
0.8337788682698835
 41
1.378479992131516
 42
1.39803927136169
  0
LINE
  5
A52
330
1F
100
AcDbEntity
  8
CUT
  6
CONTINUOUS
370
25
 62
1
100
AcDbLine
 10
41.0
 20
0.0
 30
0.0
 11
50.0
 21
0.0
 31
0.0
  0
LINE
  5
A53
330
1F
100
AcDbEntity
  8
CUT
  6
CONTINUOUS
370
25
 62
1
100
AcDbLine
 10
50.0
 20
0.0
 30
0.0
 11
50.0
 21
2.5
 31
0.0
  0
ARC
  5
A54
330
1F
100
AcDbEntity
  8
CUT
  6
CONTINUOUS
370
25
 62
1
100
AcDbCircle
 10
49.5
 20
2.5
 30
0.0
 40
0.5
100
AcDbArc
 50
0.0
 51
90.0
  0
LINE
  5
A55
330
1F
100
AcDbEntity
  8
CUT
  6
CONTINUOUS
370
25
 62
1
100
AcDbLine
 10
49.5
 20
3.0
 30
0.0
 11
41.0
 21
2.9999
 31
0.0
  0
LINE
  5
A56
330
1F
100
AcDbEntity
  8
CUT
  6
CONTINUOUS
370
25
 62
1
100
AcDbLine
 10
41.0
 20
2.9999
 30
0.0
 11
41.0
 21
0.0
 31
0.0
  0
LINE
  5
A57
330
1F
100
AcDbEntity
  8
NOCUT
  6
CONTINUOUS
370
25
 62
7
100
AcDbLine
 10
34.8
 20
0.0
 30
0.0
 11
41.0
 21
0.0
 31
0.0
  0
LINE
  5
A58
330
1F
100
AcDbEntity
  8
NOCUT
  6
CONTINUOUS
370
25
 62
7
100
AcDbLine
 10
41.0
 20
0.0
 30
0.0
 11
41.0
 21
2.84995
 31
0.0
  0
LINE
  5
A59
330
1F
100
AcDbEntity
  8
NOCUT
  6
CONTINUOUS
370
25
 62
7
100
AcDbLine
 10
41.0
 20
2.84995
 30
0.0
 11
35.0
 21
2.84995
 31
0.0
  0
LINE
  5
A5A
330
1F
100
AcDbEntity
  8
NOCUT
  6
CONTINUOUS
370
25
 62
7
100
AcDbLine
 10
35.0
 20
2.84995
 30
0.0
 11
34.8
 21
2.99995
 31
0.0
  0
LINE
  5
A5B
330
1F
100
AcDbEntity
  8
NOCUT
  6
CONTINUOUS
370
25
 62
7
100
AcDbLine
 10
34.8
 20
2.99995
 30
0.0
 11
34.8
 21
0.0
 31
0.0
  0
LINE
  5
A5C
330
1F
100
AcDbEntity
  8
SK1
  6
CONTINUOUS
370
50
 62
4
100
AcDbLine
 10
34.8
 20
3.0
 30
0.0
 11
0.3999999999999986
 21
3.0
 31
0.0
  0
LINE
  5
A5D
330
1F
100
AcDbEntity
  8
SK1
  6
CONTINUOUS
370
50
 62
4
100
AcDbLine
 10
0.3999999999999986
 20
3.0
 30
0.0
 11
0.0
 21
2.6
 31
0.0
  0
LINE
  5
A5E
330
1F
100
AcDbEntity
  8
SK1
  6
CONTINUOUS
370
50
 62
4
100
AcDbLine
 10
0.0
 20
2.6
 30
0.0
 11
0.0
 21
-2.6
 31
0.0
  0
LINE
  5
A5F
330
1F
100
AcDbEntity
  8
SK1
  6
CONTINUOUS
370
50
 62
4
100
AcDbLine
 10
0.0
 20
-2.6
 30
0.0
 11
0.3999999999999986
 21
-3.0
 31
0.0
  0
LINE
  5
A60
330
1F
100
AcDbEntity
  8
SK1
  6
CONTINUOUS
370
50
 62
4
100
AcDbLine
 10
0.3999999999999986
 20
-3.0
 30
0.0
 11
34.8
 21
-3.0
 31
0.0
  0
LINE
  5
A61
330
1F
100
AcDbEntity
  8
SK1
  6
CONTINUOUS
370
50
 62
4
100
AcDbLine
 10
0.3999999999999986
 20
3.0
 30
0.0
 11
0.3999999999999986
 21
-3.0
 31
0.0
  0
LINE
  5
A62
330
1F
100
AcDbEntity
  8
SK2
  6
CONTINUOUS
370
25
 62
7
100
AcDbLine
 10
-12.0000002
 20
-3.000001
 30
0.0
 11
-13.00000000000008
 21
-3.000001
 31
0.0
  0
LINE
  5
A63
330
1F
100
AcDbEntity
  8
SK2
  6
CONTINUOUS
370
25
 62
7
100
AcDbLine
 10
0.0
 20
-3.000001
 30
0.0
 11
-11.9999998
 21
-3.000001
 31
0.0
  0
LINE
  5
A64
330
1F
100
AcDbEntity
  8
SK2
  6
CONTINUOUS
370
25
 62
7
100
AcDbLine
 10
-13.0
 20
3.0
 30
0.0
 11
0.0
 21
3.0
 31
0.0
  0
LINE
  5
A65
330
1F
100
AcDbEntity
  8
SK2
  6
CONTINUOUS
370
25
 62
7
100
AcDbLine
 10
-12.0
 20
-10.0
 30
0.0
 11
-12.0
 21
16.475
 31
0.0
  0
LINE
  5
A66
330
1F
100
AcDbEntity
  8
SK2
  6
CONTINUOUS
370
25
 62
7
100
AcDbLine
 10
-12.0
 20
-3.0
 30
0.0
 11
-11.0
 21
-8.0
 31
0.0
  0
LINE
  5
A67
330
1F
100
AcDbEntity
  8
SK2
  6
CONTINUOUS
370
25
 62
7
100
AcDbLine
 10
-11.0
 20
-8.0
 30
0.0
 11
-13.0
 21
-8.0
 31
0.0
  0
LINE
  5
A68
330
1F
100
AcDbEntity
  8
SK2
  6
CONTINUOUS
370
25
 62
7
100
AcDbLine
 10
-13.0
 20
-8.0
 30
0.0
 11
-12.0
 21
-3.0
 31
0.0
  0
LINE
  5
A69
330
1F
100
AcDbEntity
  8
SK2
  6
CONTINUOUS
370
25
 62
7
100
AcDbLine
 10
-11.38376618407356
 20
-8.0
 30
0.0
 11
-11.06396103067893
 21
-7.680194846605367
 31
0.0
  0
LINE
  5
A6A
330
1F
100
AcDbEntity
  8
SK2
  6
CONTINUOUS
370
25
 62
7
100
AcDbLine
 10
-11.80803025278549
 20
-8.0
 30
0.0
 11
-11.13467170879759
 21
-7.326641456012105
 31
0.0
  0
LINE
  5
A6B
330
1F
100
AcDbEntity
  8
SK2
  6
CONTINUOUS
370
25
 62
7
100
AcDbLine
 10
-12.23229432149741
 20
-8.0
 30
0.0
 11
-11.20538238691624
 21
-6.973088065418828
 31
0.0
  0
LINE
  5
A6C
330
1F
100
AcDbEntity
  8
SK2
  6
CONTINUOUS
370
25
 62
7
100
AcDbLine
 10
-12.65655839020934
 20
-8.0
 30
0.0
 11
-11.27609306503489
 21
-6.619534674825552
 31
0.0
  0
LINE
  5
A6D
330
1F
100
AcDbEntity
  8
SK2
  6
CONTINUOUS
370
25
 62
7
100
AcDbLine
 10
-12.97979438526968
 20
-7.898971926348409
 30
0.0
 11
-11.34680374315355
 21
-6.265981284232275
 31
0.0
  0
LINE
  5
A6E
330
1F
100
AcDbEntity
  8
SK2
  6
CONTINUOUS
370
25
 62
7
100
AcDbLine
 10
-12.8737283680917
 20
-7.368641840458501
 30
0.0
 11
-11.4175144212722
 21
-5.912427893638998
 31
0.0
  0
LINE
  5
A6F
330
1F
100
AcDbEntity
  8
SK2
  6
CONTINUOUS
370
25
 62
7
100
AcDbLine
 10
-12.76766235091372
 20
-6.838311754568579
 30
0.0
 11
-11.48822509939087
 21
-5.558874503045729
 31
0.0
  0
LINE
  5
A70
330
1F
100
AcDbEntity
  8
SK2
  6
CONTINUOUS
370
25
 62
7
100
AcDbLine
 10
-12.66159633373574
 20
-6.307981668678664
 30
0.0
 11
-11.55893577750951
 21
-5.205321112452438
 31
0.0
  0
LINE
  5
A71
330
1F
100
AcDbEntity
  8
SK2
  6
CONTINUOUS
370
25
 62
7
100
AcDbLine
 10
-12.55553031655775
 20
-5.777651582788742
 30
0.0
 11
-11.62964645562816
 21
-4.851767721859154
 31
0.0
  0
LINE
  5
A72
330
1F
100
AcDbEntity
  8
SK2
  6
CONTINUOUS
370
25
 62
7
100
AcDbLine
 10
-12.44946429937977
 20
-5.247321496898834
 30
0.0
 11
-11.70035713374683
 21
-4.498214331265892
 31
0.0
  0
LINE
  5
A73
330
1F
100
AcDbEntity
  8
SK2
  6
CONTINUOUS
370
25
 62
7
100
AcDbLine
 10
-12.34339828220178
 20
-4.716991411008912
 30
0.0
 11
-11.77106781186548
 21
-4.144660940672608
 31
0.0
  0
LINE
  5
A74
330
1F
100
AcDbEntity
  8
SK2
  6
CONTINUOUS
370
25
 62
7
100
AcDbLine
 10
-12.2373322650238
 20
-4.186661325119005
 30
0.0
 11
-11.84177848998414
 21
-3.791107550079339
 31
0.0
  0
LINE
  5
A75
330
1F
100
AcDbEntity
  8
SK2
  6
CONTINUOUS
370
25
 62
7
100
AcDbLine
 10
-12.13126624784582
 20
-3.65633123922909
 30
0.0
 11
-11.91248916810279
 21
-3.437554159486055
 31
0.0
  0
LINE
  5
A76
330
1F
100
AcDbEntity
  8
SK2
  6
CONTINUOUS
370
25
 62
7
100
AcDbLine
 10
-12.02520023066784
 20
-3.126001153339182
 30
0.0
 11
-11.98319984622144
 21
-3.084000768892778
 31
0.0
  0
LINE
  5
A77
330
1F
100
AcDbEntity
  8
SK2
  6
CONTINUOUS
370
25
 62
7
100
AcDbLine
 10
-12.98361753076305
 20
-7.918087653815256
 30
0.0
 11
-12.9017051845783
 21
-8.0
 31
0.0
  0
LINE
  5
A78
330
1F
100
AcDbEntity
  8
SK2
  6
CONTINUOUS
370
25
 62
7
100
AcDbLine
 10
-12.91290685264439
 20
-7.564534263221979
 30
0.0
 11
-12.47744111586637
 21
-8.0
 31
0.0
  0
LINE
  5
A79
330
1F
100
AcDbEntity
  8
SK2
  6
CONTINUOUS
370
25
 62
7
100
AcDbLine
 10
-12.84219617452574
 20
-7.210980872628696
 30
0.0
 11
-12.05317704715443
 21
-8.0
 31
0.0
  0
LINE
  5
A7A
330
1F
100
AcDbEntity
  8
SK2
  6
CONTINUOUS
370
25
 62
7
100
AcDbLine
 10
-12.77148549640709
 20
-6.857427482035412
 30
0.0
 11
-11.6289129784425
 21
-8.0
 31
0.0
  0
LINE
  5
A7B
330
1F
100
AcDbEntity
  8
SK2
  6
CONTINUOUS
370
25
 62
7
100
AcDbLine
 10
-12.70077481828843
 20
-6.503874091442135
 30
0.0
 11
-11.20464890973057
 21
-8.0
 31
0.0
  0
LINE
  5
A7C
330
1F
100
AcDbEntity
  8
SK2
  6
CONTINUOUS
370
25
 62
7
100
AcDbLine
 10
-12.63006414016978
 20
-6.150320700848866
 30
0.0
 11
-11.05490378974534
 21
-7.725481051273306
 31
0.0
  0
LINE
  5
A7D
330
1F
100
AcDbEntity
  8
SK2
  6
CONTINUOUS
370
25
 62
7
100
AcDbLine
 10
-12.55935346205113
 20
-5.796767310255582
 30
0.0
 11
-11.16096980692333
 21
-7.195150965383384
 31
0.0
  0
LINE
  5
A7E
330
1F
100
AcDbEntity
  8
SK2
  6
CONTINUOUS
370
25
 62
7
100
AcDbLine
 10
-12.48864278393246
 20
-5.44321391966232
 30
0.0
 11
-11.26703582410131
 21
-6.664820879493476
 31
0.0
  0
LINE
  5
A7F
330
1F
100
AcDbEntity
  8
SK2
  6
CONTINUOUS
370
25
 62
7
100
AcDbLine
 10
-12.41793210581381
 20
-5.089660529069036
 30
0.0
 11
-11.37310184127929
 21
-6.134490793603554
 31
0.0
  0
LINE
  5
A80
330
1F
100
AcDbEntity
  8
SK2
  6
CONTINUOUS
370
25
 62
7
100
AcDbLine
 10
-12.34722142769515
 20
-4.736107138475774
 30
0.0
 11
-11.47916785845727
 21
-5.604160707713653
 31
0.0
  0
LINE
  5
A81
330
1F
100
AcDbEntity
  8
SK2
  6
CONTINUOUS
370
25
 62
7
100
AcDbLine
 10
-12.2765107495765
 20
-4.38255374788249
 30
0.0
 11
-11.58523387563525
 21
-5.073830621823738
 31
0.0
  0
LINE
  5
A82
330
1F
100
AcDbEntity
  8
SK2
  6
CONTINUOUS
370
25
 62
7
100
AcDbLine
 10
-12.20580007145785
 20
-4.029000357289206
 30
0.0
 11
-11.69129989281323
 21
-4.543500535933823
 31
0.0
  0
LINE
  5
A83
330
1F
100
AcDbEntity
  8
SK2
  6
CONTINUOUS
370
25
 62
7
100
AcDbLine
 10
-12.13508939333919
 20
-3.67544696669593
 30
0.0
 11
-11.79736590999122
 21
-4.013170450043901
 31
0.0
  0
LINE
  5
A84
330
1F
100
AcDbEntity
  8
SK2
  6
CONTINUOUS
370
25
 62
7
100
AcDbLine
 10
-12.06437871522054
 20
-3.321893576102646
 30
0.0
 11
-11.90343192716921
 21
-3.482840364153979
 31
0.0
  0
LINE
  5
A85
330
1F
100
AcDbEntity
  8
SK2
  6
CONTINUOUS
370
25
 62
7
100
AcDbLine
 10
-12.0
 20
3.0
 30
0.0
 11
-13.0
 21
8.0
 31
0.0
  0
LINE
  5
A86
330
1F
100
AcDbEntity
  8
SK2
  6
CONTINUOUS
370
25
 62
7
100
AcDbLine
 10
-13.0
 20
8.0
 30
0.0
 11
-11.0
 21
8.0
 31
0.0
  0
LINE
  5
A87
330
1F
100
AcDbEntity
  8
SK2
  6
CONTINUOUS
370
25
 62
7
100
AcDbLine
 10
-11.0
 20
8.0
 30
0.0
 11
-12.0
 21
3.0
 31
0.0
  0
LINE
  5
A88
330
1F
100
AcDbEntity
  8
SK2
  6
CONTINUOUS
370
25
 62
7
100
AcDbLine
 10
-12.04386001800126
 20
3.219300090006293
 30
0.0
 11
-11.93420997299812
 21
3.328950135009435
 31
0.0
  0
LINE
  5
A89
330
1F
100
AcDbEntity
  8
SK2
  6
CONTINUOUS
370
25
 62
7
100
AcDbLine
 10
-12.11457069611991
 20
3.572853480599569
 30
0.0
 11
-11.82814395582014
 21
3.859280220899343
 31
0.0
  0
LINE
  5
A8A
330
1F
100
AcDbEntity
  8
SK2
  6
CONTINUOUS
370
25
 62
7
100
AcDbLine
 10
-12.18528137423856
 20
3.926406871192853
 30
0.0
 11
-11.72207793864215
 21
4.389610306789265
 31
0.0
  0
LINE
  5
A8B
330
1F
100
AcDbEntity
  8
SK2
  6
CONTINUOUS
370
25
 62
7
100
AcDbLine
 10
-12.25599205235723
 20
4.279960261786115
 30
0.0
 11
-11.61601192146417
 21
4.919940392679173
 31
0.0
  0
LINE
  5
A8C
330
1F
100
AcDbEntity
  8
SK2
  6
CONTINUOUS
370
25
 62
7
100
AcDbLine
 10
-12.32670273047588
 20
4.633513652379399
 30
0.0
 11
-11.50994590428618
 21
5.450270478569095
 31
0.0
  0
LINE
  5
A8D
330
1F
100
AcDbEntity
  8
SK2
  6
CONTINUOUS
370
25
 62
7
100
AcDbLine
 10
-12.39741340859455
 20
4.987067042972662
 30
0.0
 11
-11.4038798871082
 21
5.980600564459003
 31
0.0
  0
LINE
  5
A8E
330
1F
100
AcDbEntity
  8
SK2
  6
CONTINUOUS
370
25
 62
7
100
AcDbLine
 10
-12.4681240867132
 20
5.340620433565945
 30
0.0
 11
-11.29781386993022
 21
6.510930650348925
 31
0.0
  0
LINE
  5
A8F
330
1F
100
AcDbEntity
  8
SK2
  6
CONTINUOUS
370
25
 62
7
100
AcDbLine
 10
-12.53883476483185
 20
5.694173824159229
 30
0.0
 11
-11.19174785275224
 21
7.04126073623884
 31
0.0
  0
LINE
  5
A90
330
1F
100
AcDbEntity
  8
SK2
  6
CONTINUOUS
370
25
 62
7
100
AcDbLine
 10
-12.60954544295051
 20
6.047727214752491
 30
0.0
 11
-11.08568183557426
 21
7.571590822128741
 31
0.0
  0
LINE
  5
A91
330
1F
100
AcDbEntity
  8
SK2
  6
CONTINUOUS
370
25
 62
7
100
AcDbLine
 10
-12.68025612106916
 20
6.401280605345775
 30
0.0
 11
-11.08153672641493
 21
8.0
 31
0.0
  0
LINE
  5
A92
330
1F
100
AcDbEntity
  8
SK2
  6
CONTINUOUS
370
25
 62
7
100
AcDbLine
 10
-12.75096679918781
 20
6.754833995939052
 30
0.0
 11
-11.50580079512686
 21
8.0
 31
0.0
  0
LINE
  5
A93
330
1F
100
AcDbEntity
  8
SK2
  6
CONTINUOUS
370
25
 62
7
100
AcDbLine
 10
-12.82167747730647
 20
7.108387386532321
 30
0.0
 11
-11.93006486383879
 21
8.0
 31
0.0
  0
LINE
  5
A94
330
1F
100
AcDbEntity
  8
SK2
  6
CONTINUOUS
370
25
 62
7
100
AcDbLine
 10
-12.89238815542512
 20
7.461940777125598
 30
0.0
 11
-12.35432893255072
 21
8.0
 31
0.0
  0
LINE
  5
A95
330
1F
100
AcDbEntity
  8
SK2
  6
CONTINUOUS
370
25
 62
7
100
AcDbLine
 10
-12.96309883354378
 20
7.815494167718882
 30
0.0
 11
-12.77859300126266
 21
8.0
 31
0.0
  0
LINE
  5
A96
330
1F
100
AcDbEntity
  8
SK2
  6
CONTINUOUS
370
25
 62
7
100
AcDbLine
 10
-12.08505530876185
 20
3.425276543809225
 30
0.0
 11
-11.94329646082544
 21
3.283517695872824
 31
0.0
  0
LINE
  5
A97
330
1F
100
AcDbEntity
  8
SK2
  6
CONTINUOUS
370
25
 62
7
100
AcDbLine
 10
-12.19112132593983
 20
3.955606629699133
 30
0.0
 11
-11.87258578270679
 21
3.637071086466094
 31
0.0
  0
LINE
  5
A98
330
1F
100
AcDbEntity
  8
SK2
  6
CONTINUOUS
370
25
 62
7
100
AcDbLine
 10
-12.29718734311781
 20
4.485936715589055
 30
0.0
 11
-11.80187510458813
 21
3.990624477059377
 31
0.0
  0
LINE
  5
A99
330
1F
100
AcDbEntity
  8
SK2
  6
CONTINUOUS
370
25
 62
7
100
AcDbLine
 10
-12.40325336029579
 20
5.016266801478963
 30
0.0
 11
-11.73116442646948
 21
4.344177867652654
 31
0.0
  0
LINE
  5
A9A
330
1F
100
AcDbEntity
  8
SK2
  6
CONTINUOUS
370
25
 62
7
100
AcDbLine
 10
-12.50931937747378
 20
5.546596887368885
 30
0.0
 11
-11.66045374835082
 21
4.697731258245923
 31
0.0
  0
LINE
  5
A9B
330
1F
100
AcDbEntity
  8
SK2
  6
CONTINUOUS
370
25
 62
7
100
AcDbLine
 10
-12.61538539465176
 20
6.076926973258793
 30
0.0
 11
-11.58974307023217
 21
5.0512846488392
 31
0.0
  0
LINE
  5
A9C
330
1F
100
AcDbEntity
  8
SK2
  6
CONTINUOUS
370
25
 62
7
100
AcDbLine
 10
-12.72145141182975
 20
6.607257059148715
 30
0.0
 11
-11.51903239211351
 21
5.404838039432477
 31
0.0
  0
LINE
  5
A9D
330
1F
100
AcDbEntity
  8
SK2
  6
CONTINUOUS
370
25
 62
7
100
AcDbLine
 10
-12.82751742900773
 20
7.137587145038623
 30
0.0
 11
-11.44832171399485
 21
5.758391430025746
 31
0.0
  0
LINE
  5
A9E
330
1F
100
AcDbEntity
  8
SK2
  6
CONTINUOUS
370
25
 62
7
100
AcDbLine
 10
-12.93358344618571
 20
7.667917230928545
 30
0.0
 11
-11.37761103587619
 21
6.111944820619023
 31
0.0
  0
LINE
  5
A9F
330
1F
100
AcDbEntity
  8
SK2
  6
CONTINUOUS
370
25
 62
7
100
AcDbLine
 10
-12.84140214654525
 20
8.0
 30
0.0
 11
-11.30690035775754
 21
6.465498211212299
 31
0.0
  0
LINE
  5
AA0
330
1F
100
AcDbEntity
  8
SK2
  6
CONTINUOUS
370
25
 62
7
100
AcDbLine
 10
-12.41713807783331
 20
8.0
 30
0.0
 11
-11.23618967963889
 21
6.819051601805583
 31
0.0
  0
LINE
  5
AA1
330
1F
100
AcDbEntity
  8
SK2
  6
CONTINUOUS
370
25
 62
7
100
AcDbLine
 10
-11.99287400912138
 20
8.0
 30
0.0
 11
-11.16547900152023
 21
7.172604992398853
 31
0.0
  0
LINE
  5
AA2
330
1F
100
AcDbEntity
  8
SK2
  6
CONTINUOUS
370
25
 62
7
100
AcDbLine
 10
-11.56860994040944
 20
8.0
 30
0.0
 11
-11.09476832340157
 21
7.526158382992129
 31
0.0
  0
LINE
  5
AA3
330
1F
100
AcDbEntity
  8
SK2
  6
CONTINUOUS
370
25
 62
7
100
AcDbLine
 10
-11.14434587169752
 20
8.0
 30
0.0
 11
-11.02405764528292
 21
7.879711773585399
 31
0.0
  0
TEXT
  5
AA4
330
1F
100
AcDbEntity
  8
SK2
  6
CONTINUOUS
370
25
 62
7
100
AcDbText
 10
-13.5
 20
13.34583333333333
 30
0.0
 40
3.5
  1
6
 50
90.00000000000001
 72
     1
 11
-13.5
 21
14.5125
 31
0.0
100
AcDbText
  0
CIRCLE
  5
AA5
330
1F
100
AcDbEntity
  8
SK2
  6
CONTINUOUS
370
25
 62
7
100
AcDbCircle
 10
-15.25
 20
11.1875
 30
0.0
 40
1.4
  0
LINE
  5
AA6
330
1F
100
AcDbEntity
  8
SK2
  6
CONTINUOUS
370
25
 62
7
100
AcDbLine
 10
-13.85
 20
9.787500000000001
 30
0.0
 11
-16.65
 21
12.5875
 31
0.0
  0
LINE
  5
AA7
330
1F
100
AcDbEntity
  8
SK2
  6
CONTINUOUS
370
25
 62
7
100
AcDbLine
 10
0.0
 20
3.0
 30
0.0
 11
0.0
 21
16.00001
 31
0.0
  0
LINE
  5
AA8
330
1F
100
AcDbEntity
  8
SK2
  6
CONTINUOUS
370
25
 62
7
100
AcDbLine
 10
34.8
 20
16.00001
 30
0.0
 11
34.8
 21
3.0
 31
0.0
  0
LINE
  5
AA9
330
1F
100
AcDbEntity
  8
SK2
  6
CONTINUOUS
370
25
 62
7
100
AcDbLine
 10
0.0
 20
15.00001
 30
0.0
 11
34.8
 21
15.00001
 31
0.0
  0
LINE
  5
AAA
330
1F
100
AcDbEntity
  8
SK2
  6
CONTINUOUS
370
25
 62
7
100
AcDbLine
 10
0.0
 20
15.00001
 30
0.0
 11
5.0
 21
16.00001
 31
0.0
  0
LINE
  5
AAB
330
1F
100
AcDbEntity
  8
SK2
  6
CONTINUOUS
370
25
 62
7
100
AcDbLine
 10
5.0
 20
16.00001
 30
0.0
 11
5.0
 21
14.00001
 31
0.0
  0
LINE
  5
AAC
330
1F
100
AcDbEntity
  8
SK2
  6
CONTINUOUS
370
25
 62
7
100
AcDbLine
 10
5.0
 20
14.00001
 30
0.0
 11
0.0
 21
15.00001
 31
0.0
  0
LINE
  5
AAD
330
1F
100
AcDbEntity
  8
SK2
  6
CONTINUOUS
370
25
 62
7
100
AcDbLine
 10
4.730455711632871
 20
14.05391885767342
 30
0.0
 11
5.0
 21
14.32346314604055
 31
0.0
  0
LINE
  5
AAE
330
1F
100
AcDbEntity
  8
SK2
  6
CONTINUOUS
370
25
 62
7
100
AcDbLine
 10
4.376902321039605
 20
14.12462953579208
 30
0.0
 11
5.0
 21
14.74772721475247
 31
0.0
  0
LINE
  5
AAF
330
1F
100
AcDbEntity
  8
SK2
  6
CONTINUOUS
370
25
 62
7
100
AcDbLine
 10
4.023348930446325
 20
14.19534021391074
 30
0.0
 11
5.0
 21
15.17199128346441
 31
0.0
  0
LINE
  5
AB0
330
1F
100
AcDbEntity
  8
SK2
  6
CONTINUOUS
370
25
 62
7
100
AcDbLine
 10
3.669795539853045
 20
14.26605089202938
 30
0.0
 11
5.0
 21
15.59625535217634
 31
0.0
  0
LINE
  5
AB1
330
1F
100
AcDbEntity
  8
SK2
  6
CONTINUOUS
370
25
 62
7
100
AcDbLine
 10
3.316242149259782
 20
14.33676157014805
 30
0.0
 11
4.974363223889675
 21
15.99488264477793
 31
0.0
  0
LINE
  5
AB2
330
1F
100
AcDbEntity
  8
SK2
  6
CONTINUOUS
370
25
 62
7
100
AcDbLine
 10
2.962688758666502
 20
14.4074722482667
 30
0.0
 11
4.444033137999764
 21
15.88881662759995
 31
0.0
  0
LINE
  5
AB3
330
1F
100
AcDbEntity
  8
SK2
  6
CONTINUOUS
370
25
 62
7
100
AcDbLine
 10
2.609135368073225
 20
14.47818292638535
 30
0.0
 11
3.913703052109852
 21
15.78275061042197
 31
0.0
  0
LINE
  5
AB4
330
1F
100
AcDbEntity
  8
SK2
  6
CONTINUOUS
370
25
 62
7
100
AcDbLine
 10
2.255581977479942
 20
14.548893604504
 30
0.0
 11
3.38337296621993
 21
15.67668459324399
 31
0.0
  0
LINE
  5
AB5
330
1F
100
AcDbEntity
  8
SK2
  6
CONTINUOUS
370
25
 62
7
100
AcDbLine
 10
1.902028586886679
 20
14.61960428262267
 30
0.0
 11
2.853042880330019
 21
15.570618576066
 31
0.0
  0
LINE
  5
AB6
330
1F
100
AcDbEntity
  8
SK2
  6
CONTINUOUS
370
25
 62
7
100
AcDbLine
 10
1.548475196293396
 20
14.69031496074131
 30
0.0
 11
2.322712794440108
 21
15.46455255888802
 31
0.0
  0
LINE
  5
AB7
330
1F
100
AcDbEntity
  8
SK2
  6
CONTINUOUS
370
25
 62
7
100
AcDbLine
 10
1.194921805700119
 20
14.76102563885997
 30
0.0
 11
1.792382708550193
 21
15.35848654171004
 31
0.0
  0
LINE
  5
AB8
330
1F
100
AcDbEntity
  8
SK2
  6
CONTINUOUS
370
25
 62
7
100
AcDbLine
 10
0.8413684151068423
 20
14.83173631697863
 30
0.0
 11
1.262052622660271
 21
15.25242052453206
 31
0.0
  0
LINE
  5
AB9
330
1F
100
AcDbEntity
  8
SK2
  6
CONTINUOUS
370
25
 62
7
100
AcDbLine
 10
0.4878150245135728
 20
14.90244699509729
 30
0.0
 11
0.7317225367703628
 21
15.14635450735407
 31
0.0
  0
LINE
  5
ABA
330
1F
100
AcDbEntity
  8
SK2
  6
CONTINUOUS
370
25
 62
7
100
AcDbLine
 10
0.1342616339202891
 20
14.97315767321594
 30
0.0
 11
0.2013924508804479
 21
15.0402884901761
 31
0.0
  0
LINE
  5
ABB
330
1F
100
AcDbEntity
  8
SK2
  6
CONTINUOUS
370
25
 62
7
100
AcDbLine
 10
0.1309827653895042
 20
15.0262065530779
 30
0.0
 11
0.1964741480842633
 21
14.96071517038314
 31
0.0
  0
LINE
  5
ABC
330
1F
100
AcDbEntity
  8
SK2
  6
CONTINUOUS
370
25
 62
7
100
AcDbLine
 10
0.4845361559827808
 20
15.09691723119655
 30
0.0
 11
0.7268042339741783
 21
14.85464915320516
 31
0.0
  0
LINE
  5
ABD
330
1F
100
AcDbEntity
  8
SK2
  6
CONTINUOUS
370
25
 62
7
100
AcDbLine
 10
0.8380895465760503
 20
15.16762790931521
 30
0.0
 11
1.257134319864086
 21
14.74858313602718
 31
0.0
  0
LINE
  5
ABE
330
1F
100
AcDbEntity
  8
SK2
  6
CONTINUOUS
370
25
 62
7
100
AcDbLine
 10
1.191642937169327
 20
15.23833858743387
 30
0.0
 11
1.787464405753994
 21
14.6425171188492
 31
0.0
  0
LINE
  5
ABF
330
1F
100
AcDbEntity
  8
SK2
  6
CONTINUOUS
370
25
 62
7
100
AcDbLine
 10
1.545196327762604
 20
15.30904926555252
 30
0.0
 11
2.317794491643909
 21
14.53645110167121
 31
0.0
  0
LINE
  5
AC0
330
1F
100
AcDbEntity
  8
SK2
  6
CONTINUOUS
370
25
 62
7
100
AcDbLine
 10
1.898749718355873
 20
15.37975994367118
 30
0.0
 11
2.848124577533817
 21
14.43038508449323
 31
0.0
  0
LINE
  5
AC1
330
1F
100
AcDbEntity
  8
SK2
  6
CONTINUOUS
370
25
 62
7
100
AcDbLine
 10
2.25230310894915
 20
15.45047062178983
 30
0.0
 11
3.378454663423732
 21
14.32431906731525
 31
0.0
  0
LINE
  5
AC2
330
1F
100
AcDbEntity
  8
SK2
  6
CONTINUOUS
370
25
 62
7
100
AcDbLine
 10
2.605856499542426
 20
15.52118129990849
 30
0.0
 11
3.908784749313643
 21
14.21825305013727
 31
0.0
  0
LINE
  5
AC3
330
1F
100
AcDbEntity
  8
SK2
  6
CONTINUOUS
370
25
 62
7
100
AcDbLine
 10
2.959409890135699
 20
15.59189197802715
 30
0.0
 11
4.439114835203551
 21
14.11218703295929
 31
0.0
  0
LINE
  5
AC4
330
1F
100
AcDbEntity
  8
SK2
  6
CONTINUOUS
370
25
 62
7
100
AcDbLine
 10
3.312963280728969
 20
15.6626026561458
 30
0.0
 11
4.969444921093455
 21
14.0061210157813
 31
0.0
  0
LINE
  5
AC5
330
1F
100
AcDbEntity
  8
SK2
  6
CONTINUOUS
370
25
 62
7
100
AcDbLine
 10
3.666516671322242
 20
15.73331333426446
 30
0.0
 11
5.0
 21
14.39983000558669
 31
0.0
  0
LINE
  5
AC6
330
1F
100
AcDbEntity
  8
SK2
  6
CONTINUOUS
370
25
 62
7
100
AcDbLine
 10
4.020070061915519
 20
15.80402401238311
 30
0.0
 11
5.0
 21
14.82409407429862
 31
0.0
  0
LINE
  5
AC7
330
1F
100
AcDbEntity
  8
SK2
  6
CONTINUOUS
370
25
 62
7
100
AcDbLine
 10
4.373623452508792
 20
15.87473469050176
 30
0.0
 11
5.0
 21
15.24835814301055
 31
0.0
  0
LINE
  5
AC8
330
1F
100
AcDbEntity
  8
SK2
  6
CONTINUOUS
370
25
 62
7
100
AcDbLine
 10
4.727176843102068
 20
15.94544536862042
 30
0.0
 11
5.0
 21
15.67262221172248
 31
0.0
  0
LINE
  5
AC9
330
1F
100
AcDbEntity
  8
SK2
  6
CONTINUOUS
370
25
 62
7
100
AcDbLine
 10
34.8
 20
15.00001
 30
0.0
 11
29.8
 21
14.00001
 31
0.0
  0
LINE
  5
ACA
330
1F
100
AcDbEntity
  8
SK2
  6
CONTINUOUS
370
25
 62
7
100
AcDbLine
 10
29.8
 20
14.00001
 30
0.0
 11
29.8
 21
16.00001
 31
0.0
  0
LINE
  5
ACB
330
1F
100
AcDbEntity
  8
SK2
  6
CONTINUOUS
370
25
 62
7
100
AcDbLine
 10
29.8
 20
16.00001
 30
0.0
 11
34.8
 21
15.00001
 31
0.0
  0
LINE
  5
ACC
330
1F
100
AcDbEntity
  8
SK2
  6
CONTINUOUS
370
25
 62
7
100
AcDbLine
 10
34.45812940796321
 20
14.93163588159264
 30
0.0
 11
34.57208627197548
 21
15.0455927456049
 31
0.0
  0
LINE
  5
ACD
330
1F
100
AcDbEntity
  8
SK2
  6
CONTINUOUS
370
25
 62
7
100
AcDbLine
 10
33.92779932207331
 20
14.82556986441466
 30
0.0
 11
34.2185328813822
 21
15.11630342372356
 31
0.0
  0
LINE
  5
ACE
330
1F
100
AcDbEntity
  8
SK2
  6
CONTINUOUS
370
25
 62
7
100
AcDbLine
 10
33.3974692361834
 20
14.71950384723668
 30
0.0
 11
33.86497949078893
 21
15.18701410184221
 31
0.0
  0
LINE
  5
ACF
330
1F
100
AcDbEntity
  8
SK2
  6
CONTINUOUS
370
25
 62
7
100
AcDbLine
 10
32.86713915029349
 20
14.6134378300587
 30
0.0
 11
33.51142610019566
 21
15.25772477996087
 31
0.0
  0
LINE
  5
AD0
330
1F
100
AcDbEntity
  8
SK2
  6
CONTINUOUS
370
25
 62
7
100
AcDbLine
 10
32.33680906440358
 20
14.50737181288072
 30
0.0
 11
33.15787270960239
 21
15.32843545807952
 31
0.0
  0
LINE
  5
AD1
330
1F
100
AcDbEntity
  8
SK2
  6
CONTINUOUS
370
25
 62
7
100
AcDbLine
 10
31.80647897851367
 20
14.40130579570273
 30
0.0
 11
32.80431931900911
 21
15.39914613619818
 31
0.0
  0
LINE
  5
AD2
330
1F
100
AcDbEntity
  8
SK2
  6
CONTINUOUS
370
25
 62
7
100
AcDbLine
 10
31.27614889262376
 20
14.29523977852475
 30
0.0
 11
32.45076592841584
 21
15.46985681431683
 31
0.0
  0
LINE
  5
AD3
330
1F
100
AcDbEntity
  8
SK2
  6
CONTINUOUS
370
25
 62
7
100
AcDbLine
 10
30.74581880673385
 20
14.18917376134677
 30
0.0
 11
32.09721253782256
 21
15.54056749243549
 31
0.0
  0
LINE
  5
AD4
330
1F
100
AcDbEntity
  8
SK2
  6
CONTINUOUS
370
25
 62
7
100
AcDbLine
 10
30.21548872084394
 20
14.08310774416879
 30
0.0
 11
31.74365914722929
 21
15.61127817055414
 31
0.0
  0
LINE
  5
AD5
330
1F
100
AcDbEntity
  8
SK2
  6
CONTINUOUS
370
25
 62
7
100
AcDbLine
 10
29.8
 20
14.09188309203677
 30
0.0
 11
31.39010575663602
 21
15.68198884867279
 31
0.0
  0
LINE
  5
AD6
330
1F
100
AcDbEntity
  8
SK2
  6
CONTINUOUS
370
25
 62
7
100
AcDbLine
 10
29.8
 20
14.5161471607487
 30
0.0
 11
31.03655236604274
 21
15.75269952679145
 31
0.0
  0
LINE
  5
AD7
330
1F
100
AcDbEntity
  8
SK2
  6
CONTINUOUS
370
25
 62
7
100
AcDbLine
 10
29.8
 20
14.94041122946063
 30
0.0
 11
30.68299897544947
 21
15.8234102049101
 31
0.0
  0
LINE
  5
AD8
330
1F
100
AcDbEntity
  8
SK2
  6
CONTINUOUS
370
25
 62
7
100
AcDbLine
 10
29.8
 20
15.36467529817256
 30
0.0
 11
30.3294455848562
 21
15.89412088302876
 31
0.0
  0
LINE
  5
AD9
330
1F
100
AcDbEntity
  8
SK2
  6
CONTINUOUS
370
25
 62
7
100
AcDbLine
 10
29.8
 20
15.78893936688448
 30
0.0
 11
29.97589219426293
 21
15.96483156114741
 31
0.0
  0
LINE
  5
ADA
330
1F
100
AcDbEntity
  8
SK2
  6
CONTINUOUS
370
25
 62
7
100
AcDbLine
 10
29.8
 20
14.3338095116624
 30
0.0
 11
30.07816625971867
 21
14.05564325194373
 31
0.0
  0
LINE
  5
ADB
330
1F
100
AcDbEntity
  8
SK2
  6
CONTINUOUS
370
25
 62
7
100
AcDbLine
 10
29.8
 20
14.75807358037433
 30
0.0
 11
30.43171965031194
 21
14.12635393006239
 31
0.0
  0
LINE
  5
ADC
330
1F
100
AcDbEntity
  8
SK2
  6
CONTINUOUS
370
25
 62
7
100
AcDbLine
 10
29.8
 20
15.18233764908626
 30
0.0
 11
30.78527304090521
 21
14.19706460818104
 31
0.0
  0
LINE
  5
ADD
330
1F
100
AcDbEntity
  8
SK2
  6
CONTINUOUS
370
25
 62
7
100
AcDbLine
 10
29.8
 20
15.60660171779818
 30
0.0
 11
31.13882643149849
 21
14.2677752862997
 31
0.0
  0
LINE
  5
ADE
330
1F
100
AcDbEntity
  8
SK2
  6
CONTINUOUS
370
25
 62
7
100
AcDbLine
 10
29.83856973313764
 20
15.99229605337247
 30
0.0
 11
31.49237982209176
 21
14.33848596441835
 31
0.0
  0
LINE
  5
ADF
330
1F
100
AcDbEntity
  8
SK2
  6
CONTINUOUS
370
25
 62
7
100
AcDbLine
 10
30.36889981902755
 20
15.88623003619449
 30
0.0
 11
31.84593321268503
 21
14.40919664253701
 31
0.0
  0
LINE
  5
AE0
330
1F
100
AcDbEntity
  8
SK2
  6
CONTINUOUS
370
25
 62
7
100
AcDbLine
 10
30.89922990491746
 20
15.78016401901651
 30
0.0
 11
32.19948660327831
 21
14.47990732065566
 31
0.0
  0
LINE
  5
AE1
330
1F
100
AcDbEntity
  8
SK2
  6
CONTINUOUS
370
25
 62
7
100
AcDbLine
 10
31.42955999080737
 20
15.67409800183852
 30
0.0
 11
32.55303999387158
 21
14.55061799877432
 31
0.0
  0
LINE
  5
AE2
330
1F
100
AcDbEntity
  8
SK2
  6
CONTINUOUS
370
25
 62
7
100
AcDbLine
 10
31.95989007669728
 20
15.56803198466054
 30
0.0
 11
32.90659338446486
 21
14.62132867689297
 31
0.0
  0
LINE
  5
AE3
330
1F
100
AcDbEntity
  8
SK2
  6
CONTINUOUS
370
25
 62
7
100
AcDbLine
 10
32.49022016258719
 20
15.46196596748256
 30
0.0
 11
33.26014677505813
 21
14.69203935501162
 31
0.0
  0
LINE
  5
AE4
330
1F
100
AcDbEntity
  8
SK2
  6
CONTINUOUS
370
25
 62
7
100
AcDbLine
 10
33.0205502484771
 20
15.35589995030458
 30
0.0
 11
33.6137001656514
 21
14.76275003313028
 31
0.0
  0
LINE
  5
AE5
330
1F
100
AcDbEntity
  8
SK2
  6
CONTINUOUS
370
25
 62
7
100
AcDbLine
 10
33.55088033436701
 20
15.2498339331266
 30
0.0
 11
33.96725355624467
 21
14.83346071124894
 31
0.0
  0
LINE
  5
AE6
330
1F
100
AcDbEntity
  8
SK2
  6
CONTINUOUS
370
25
 62
7
100
AcDbLine
 10
34.08121042025692
 20
15.14376791594862
 30
0.0
 11
34.32080694683795
 21
14.90417138936759
 31
0.0
  0
LINE
  5
AE7
330
1F
100
AcDbEntity
  8
SK2
  6
CONTINUOUS
370
25
 62
7
100
AcDbLine
 10
34.61154050614683
 20
15.03770189877063
 30
0.0
 11
34.67436033743122
 21
14.97488206748625
 31
0.0
  0
TEXT
  5
AE8
330
1F
100
AcDbEntity
  8
SK2
  6
CONTINUOUS
370
25
 62
7
100
AcDbText
 10
12.15
 20
16.50001
 30
0.0
 40
3.5
  1
34.8
 72
     1
 11
17.4
 21
16.50001
 31
0.0
100
AcDbText
  0
LINE
  5
AE9
330
1F
100
AcDbEntity
  8
2
  6
CONTINUOUS
370
25
 62
7
100
AcDbLine
 10
49.5
 20
-3.0
 30
0.0
 11
70.0
 21
-3.000000000000003
 31
0.0
  0
LINE
  5
AEA
330
1F
100
AcDbEntity
  8
2
  6
CONTINUOUS
370
25
 62
7
100
AcDbLine
 10
70.0
 20
2.999999999999997
 30
0.0
 11
49.5
 21
3.0
 31
0.0
  0
LINE
  5
AEB
330
1F
100
AcDbEntity
  8
2
  6
CONTINUOUS
370
25
 62
7
100
AcDbLine
 10
69.0
 20
-10.0
 30
0.0
 11
69.0
 21
16.475
 31
0.0
  0
LINE
  5
AEC
330
1F
100
AcDbEntity
  8
2
  6
CONTINUOUS
370
25
 62
7
100
AcDbLine
 10
69.0
 20
-3.000000000000003
 30
0.0
 11
70.0
 21
-8.000000000000004
 31
0.0
  0
LINE
  5
AED
330
1F
100
AcDbEntity
  8
2
  6
CONTINUOUS
370
25
 62
7
100
AcDbLine
 10
70.0
 20
-8.000000000000004
 30
0.0
 11
68.0
 21
-8.000000000000004
 31
0.0
  0
LINE
  5
AEE
330
1F
100
AcDbEntity
  8
2
  6
CONTINUOUS
370
25
 62
7
100
AcDbLine
 10
68.0
 20
-8.000000000000004
 30
0.0
 11
69.0
 21
-3.000000000000003
 31
0.0
  0
LINE
  5
AEF
330
1F
100
AcDbEntity
  8
2
  6
CONTINUOUS
370
25
 62
7
100
AcDbLine
 10
69.60536317722423
 20
-8.0
 30
0.0
 11
69.93422719620403
 21
-7.671135981020193
 31
0.0
  0
LINE
  5
AF0
330
1F
100
AcDbEntity
  8
2
  6
CONTINUOUS
370
25
 62
7
100
AcDbLine
 10
69.18109910851229
 20
-8.000000000000007
 30
0.0
 11
69.86351651808539
 21
-7.317582590426916
 31
0.0
  0
LINE
  5
AF1
330
1F
100
AcDbEntity
  8
2
  6
CONTINUOUS
370
25
 62
7
100
AcDbLine
 10
68.75683503980036
 20
-8.0
 30
0.0
 11
69.79280583996673
 21
-6.964029199833639
 31
0.0
  0
LINE
  5
AF2
330
1F
100
AcDbEntity
  8
2
  6
CONTINUOUS
370
25
 62
7
100
AcDbLine
 10
68.33257097108844
 20
-8.000000000000007
 30
0.0
 11
69.72209516184807
 21
-6.61047580924037
 31
0.0
  0
LINE
  5
AF3
330
1F
100
AcDbEntity
  8
2
  6
CONTINUOUS
370
25
 62
7
100
AcDbLine
 10
68.02292327440588
 20
-7.88538362797064
 30
0.0
 11
69.65138448372942
 21
-6.2569224186471
 31
0.0
  0
LINE
  5
AF4
330
1F
100
AcDbEntity
  8
2
  6
CONTINUOUS
370
25
 62
7
100
AcDbLine
 10
68.12898929158385
 20
-7.355053542080732
 30
0.0
 11
69.58067380561076
 21
-5.903369028053817
 31
0.0
  0
LINE
  5
AF5
330
1F
100
AcDbEntity
  8
2
  6
CONTINUOUS
370
25
 62
7
100
AcDbLine
 10
68.23505530876184
 20
-6.824723456190817
 30
0.0
 11
69.50996312749211
 21
-5.549815637460533
 31
0.0
  0
LINE
  5
AF6
330
1F
100
AcDbEntity
  8
2
  6
CONTINUOUS
370
25
 62
7
100
AcDbLine
 10
68.34112132593982
 20
-6.294393370300902
 30
0.0
 11
69.43925244937346
 21
-5.196262246867263
 31
0.0
  0
LINE
  5
AF7
330
1F
100
AcDbEntity
  8
2
  6
CONTINUOUS
370
25
 62
7
100
AcDbLine
 10
68.4471873431178
 20
-5.764063284410994
 30
0.0
 11
69.3685417712548
 21
-4.842708856273994
 31
0.0
  0
LINE
  5
AF8
330
1F
100
AcDbEntity
  8
2
  6
CONTINUOUS
370
25
 62
7
100
AcDbLine
 10
68.5532533602958
 20
-5.233733198521072
 30
0.0
 11
69.29783109313614
 21
-4.489155465680717
 31
0.0
  0
LINE
  5
AF9
330
1F
100
AcDbEntity
  8
2
  6
CONTINUOUS
370
25
 62
7
100
AcDbLine
 10
68.65931937747376
 20
-4.703403112631165
 30
0.0
 11
69.2271204150175
 21
-4.135602075087434
 31
0.0
  0
LINE
  5
AFA
330
1F
100
AcDbEntity
  8
2
  6
CONTINUOUS
370
25
 62
7
100
AcDbLine
 10
68.76538539465174
 20
-4.173073026741257
 30
0.0
 11
69.15640973689884
 21
-3.782048684494164
 31
0.0
  0
LINE
  5
AFB
330
1F
100
AcDbEntity
  8
2
  6
CONTINUOUS
370
25
 62
7
100
AcDbLine
 10
68.87145141182972
 20
-3.642742940851335
 30
0.0
 11
69.08569905878018
 21
-3.428495293900887
 31
0.0
  0
LINE
  5
AFC
330
1F
100
AcDbEntity
  8
2
  6
CONTINUOUS
370
25
 62
7
100
AcDbLine
 10
68.97751742900772
 20
-3.11241285496142
 30
0.0
 11
69.01498838066152
 21
-3.074941903307618
 31
0.0
  0
LINE
  5
AFD
330
1F
100
AcDbEntity
  8
2
  6
CONTINUOUS
370
25
 62
7
100
AcDbLine
 10
68.04264068711927
 20
-7.786796564403595
 30
0.0
 11
68.2558441227157
 21
-8.000000000000007
 31
0.0
  0
LINE
  5
AFE
330
1F
100
AcDbEntity
  8
2
  6
CONTINUOUS
370
25
 62
7
100
AcDbLine
 10
68.11335136523795
 20
-7.433243173810329
 30
0.0
 11
68.68010819142762
 21
-8.000000000000004
 31
0.0
  0
LINE
  5
AFF
330
1F
100
AcDbEntity
  8
2
  6
CONTINUOUS
370
25
 62
7
100
AcDbLine
 10
68.18406204335659
 20
-7.079689783217045
 30
0.0
 11
69.10437226013954
 21
-8.000000000000004
 31
0.0
  0
LINE
  5
B00
330
1F
100
AcDbEntity
  8
2
  6
CONTINUOUS
370
25
 62
7
100
AcDbLine
 10
68.25477272147525
 20
-6.726136392623779
 30
0.0
 11
69.52863632885149
 21
-8.000000000000007
 31
0.0
  0
LINE
  5
B01
330
1F
100
AcDbEntity
  8
2
  6
CONTINUOUS
370
25
 62
7
100
AcDbLine
 10
68.3254833995939
 20
-6.372583002030503
 30
0.0
 11
69.95290039756341
 21
-8.0
 31
0.0
  0
LINE
  5
B02
330
1F
100
AcDbEntity
  8
2
  6
CONTINUOUS
370
25
 62
7
100
AcDbLine
 10
68.39619407771255
 20
-6.019029611437229
 30
0.0
 11
69.90570888343116
 21
-7.528544417155825
 31
0.0
  0
LINE
  5
B03
330
1F
100
AcDbEntity
  8
2
  6
CONTINUOUS
370
25
 62
7
100
AcDbLine
 10
68.46690475583121
 20
-5.665476220843949
 30
0.0
 11
69.79964286625318
 21
-6.99821433126592
 31
0.0
  0
LINE
  5
B04
330
1F
100
AcDbEntity
  8
2
  6
CONTINUOUS
370
25
 62
7
100
AcDbLine
 10
68.53761543394987
 20
-5.311922830250669
 30
0.0
 11
69.69357684907521
 21
-6.467884245376016
 31
0.0
  0
LINE
  5
B05
330
1F
100
AcDbEntity
  8
2
  6
CONTINUOUS
370
25
 62
7
100
AcDbLine
 10
68.60832611206853
 20
-4.958369439657407
 30
0.0
 11
69.58751083189722
 21
-5.937554159486101
 31
0.0
  0
LINE
  5
B06
330
1F
100
AcDbEntity
  8
2
  6
CONTINUOUS
370
25
 62
7
100
AcDbLine
 10
68.67903679018718
 20
-4.60481604906413
 30
0.0
 11
69.48144481471924
 21
-5.407224073596186
 31
0.0
  0
LINE
  5
B07
330
1F
100
AcDbEntity
  8
2
  6
CONTINUOUS
370
25
 62
7
100
AcDbLine
 10
68.74974746830583
 20
-4.251262658470857
 30
0.0
 11
69.37537879754126
 21
-4.876893987706275
 31
0.0
  0
LINE
  5
B08
330
1F
100
AcDbEntity
  8
2
  6
CONTINUOUS
370
25
 62
7
100
AcDbLine
 10
68.82045814642449
 20
-3.897709267877584
 30
0.0
 11
69.26931278036326
 21
-4.346563901816364
 31
0.0
  0
LINE
  5
B09
330
1F
100
AcDbEntity
  8
2
  6
CONTINUOUS
370
25
 62
7
100
AcDbLine
 10
68.89116882454314
 20
-3.544155877284314
 30
0.0
 11
69.1632467631853
 21
-3.816233815926456
 31
0.0
  0
LINE
  5
B0A
330
1F
100
AcDbEntity
  8
2
  6
CONTINUOUS
370
25
 62
7
100
AcDbLine
 10
68.9618795026618
 20
-3.190602486691038
 30
0.0
 11
69.0571807460073
 21
-3.285903730036541
 31
0.0
  0
LINE
  5
B0B
330
1F
100
AcDbEntity
  8
2
  6
CONTINUOUS
370
25
 62
7
100
AcDbLine
 10
69.0
 20
2.999999999999997
 30
0.0
 11
68.0
 21
7.999999999999997
 31
0.0
  0
LINE
  5
B0C
330
1F
100
AcDbEntity
  8
2
  6
CONTINUOUS
370
25
 62
7
100
AcDbLine
 10
68.0
 20
7.999999999999997
 30
0.0
 11
70.0
 21
7.999999999999997
 31
0.0
  0
LINE
  5
B0D
330
1F
100
AcDbEntity
  8
2
  6
CONTINUOUS
370
25
 62
7
100
AcDbLine
 10
70.0
 20
7.999999999999997
 30
0.0
 11
69.0
 21
2.999999999999997
 31
0.0
  0
LINE
  5
B0E
330
1F
100
AcDbEntity
  8
2
  6
CONTINUOUS
370
25
 62
7
100
AcDbLine
 10
68.96461680438509
 20
3.176915978074575
 30
0.0
 11
69.05307479342238
 21
3.26537396711187
 31
0.0
  0
LINE
  5
B0F
330
1F
100
AcDbEntity
  8
2
  6
CONTINUOUS
370
25
 62
7
100
AcDbLine
 10
68.89390612626642
 20
3.530469368667845
 30
0.0
 11
69.15914081060035
 21
3.795704053001778
 31
0.0
  0
LINE
  5
B10
330
1F
100
AcDbEntity
  8
2
  6
CONTINUOUS
370
25
 62
7
100
AcDbLine
 10
68.82319544814777
 20
3.884022759261128
 30
0.0
 11
69.26520682777833
 21
4.326034138891679
 31
0.0
  0
LINE
  5
B11
330
1F
100
AcDbEntity
  8
2
  6
CONTINUOUS
370
25
 62
7
100
AcDbLine
 10
68.75248477002913
 20
4.237576149854402
 30
0.0
 11
69.37127284495631
 21
4.856364224781597
 31
0.0
  0
LINE
  5
B12
330
1F
100
AcDbEntity
  8
2
  6
CONTINUOUS
370
25
 62
7
100
AcDbLine
 10
68.68177409191046
 20
4.591129540447671
 30
0.0
 11
69.4773388621343
 21
5.386694310671505
 31
0.0
  0
LINE
  5
B13
330
1F
100
AcDbEntity
  8
2
  6
CONTINUOUS
370
25
 62
7
100
AcDbLine
 10
68.61106341379181
 20
4.944682931040948
 30
0.0
 11
69.58340487931227
 21
5.917024396561413
 31
0.0
  0
LINE
  5
B14
330
1F
100
AcDbEntity
  8
2
  6
CONTINUOUS
370
25
 62
7
100
AcDbLine
 10
68.54035273567315
 20
5.298236321634221
 30
0.0
 11
69.68947089649026
 21
6.447354482451338
 31
0.0
  0
LINE
  5
B15
330
1F
100
AcDbEntity
  8
2
  6
CONTINUOUS
370
25
 62
7
100
AcDbLine
 10
68.4696420575545
 20
5.651789712227497
 30
0.0
 11
69.79553691366824
 21
6.977684568341253
 31
0.0
  0
LINE
  5
B16
330
1F
100
AcDbEntity
  8
2
  6
CONTINUOUS
370
25
 62
7
100
AcDbLine
 10
68.39893137943584
 20
6.005343102820767
 30
0.0
 11
69.90160293084624
 21
7.508014654231175
 31
0.0
  0
LINE
  5
B17
330
1F
100
AcDbEntity
  8
2
  6
CONTINUOUS
370
25
 62
7
100
AcDbLine
 10
68.32822070131718
 20
6.358896493414047
 30
0.0
 11
69.96932420790313
 21
7.999999999999996
 31
0.0
  0
LINE
  5
B18
330
1F
100
AcDbEntity
  8
2
  6
CONTINUOUS
370
25
 62
7
100
AcDbLine
 10
68.25751002319853
 20
6.712449884007324
 30
0.0
 11
69.54506013919121
 21
7.999999999999996
 31
0.0
  0
LINE
  5
B19
330
1F
100
AcDbEntity
  8
2
  6
CONTINUOUS
370
25
 62
7
100
AcDbLine
 10
68.18679934507988
 20
7.066003274600597
 30
0.0
 11
69.12079607047927
 21
8.0
 31
0.0
  0
LINE
  5
B1A
330
1F
100
AcDbEntity
  8
2
  6
CONTINUOUS
370
25
 62
7
100
AcDbLine
 10
68.11608866696122
 20
7.41955666519387
 30
0.0
 11
68.69653200176734
 21
7.999999999999996
 31
0.0
  0
LINE
  5
B1B
330
1F
100
AcDbEntity
  8
2
  6
CONTINUOUS
370
25
 62
7
100
AcDbLine
 10
68.04537798884257
 20
7.773110055787146
 30
0.0
 11
68.27226793305542
 21
7.999999999999996
 31
0.0
  0
LINE
  5
B1C
330
1F
100
AcDbEntity
  8
2
  6
CONTINUOUS
370
25
 62
7
100
AcDbLine
 10
68.96619048833757
 20
3.16904755831213
 30
0.0
 11
69.02253967444162
 21
3.112698372208087
 31
0.0
  0
LINE
  5
B1D
330
1F
100
AcDbEntity
  8
2
  6
CONTINUOUS
370
25
 62
7
100
AcDbLine
 10
68.8601244711596
 20
3.699377644202045
 30
0.0
 11
69.09325035256028
 21
3.466251762801356
 31
0.0
  0
LINE
  5
B1E
330
1F
100
AcDbEntity
  8
2
  6
CONTINUOUS
370
25
 62
7
100
AcDbLine
 10
68.7540584539816
 20
4.229707730091953
 30
0.0
 11
69.16396103067893
 21
3.819805153394633
 31
0.0
  0
LINE
  5
B1F
330
1F
100
AcDbEntity
  8
2
  6
CONTINUOUS
370
25
 62
7
100
AcDbLine
 10
68.64799243680363
 20
4.760037815981867
 30
0.0
 11
69.23467170879758
 21
4.173358543987916
 31
0.0
  0
LINE
  5
B20
330
1F
100
AcDbEntity
  8
2
  6
CONTINUOUS
370
25
 62
7
100
AcDbLine
 10
68.54192641962564
 20
5.290367901871768
 30
0.0
 11
69.30538238691624
 21
4.526911934581186
 31
0.0
  0
LINE
  5
B21
330
1F
100
AcDbEntity
  8
2
  6
CONTINUOUS
370
25
 62
7
100
AcDbLine
 10
68.43586040244767
 20
5.820697987761676
 30
0.0
 11
69.3760930650349
 21
4.880465325174463
 31
0.0
  0
LINE
  5
B22
330
1F
100
AcDbEntity
  8
2
  6
CONTINUOUS
370
25
 62
7
100
AcDbLine
 10
68.32979438526968
 20
6.351028073651591
 30
0.0
 11
69.44680374315354
 21
5.234018715767732
 31
0.0
  0
LINE
  5
B23
330
1F
100
AcDbEntity
  8
2
  6
CONTINUOUS
370
25
 62
7
100
AcDbLine
 10
68.2237283680917
 20
6.881358159541499
 30
0.0
 11
69.5175144212722
 21
5.587572106361016
 31
0.0
  0
LINE
  5
B24
330
1F
100
AcDbEntity
  8
2
  6
CONTINUOUS
370
25
 62
7
100
AcDbLine
 10
68.11766235091372
 20
7.411688245431407
 30
0.0
 11
69.58822509939085
 21
5.941125496954285
 31
0.0
  0
LINE
  5
B25
330
1F
100
AcDbEntity
  8
2
  6
CONTINUOUS
370
25
 62
7
100
AcDbLine
 10
68.01159633373572
 20
7.942018331321329
 30
0.0
 11
69.65893577750951
 21
6.294678887547562
 31
0.0
  0
LINE
  5
B26
330
1F
100
AcDbEntity
  8
2
  6
CONTINUOUS
370
25
 62
7
100
AcDbLine
 10
68.377878733769
 20
8.0
 30
0.0
 11
69.72964645562817
 21
6.648232278140831
 31
0.0
  0
LINE
  5
B27
330
1F
100
AcDbEntity
  8
2
  6
CONTINUOUS
370
25
 62
7
100
AcDbLine
 10
68.80214280248092
 20
8.0
 30
0.0
 11
69.80035713374681
 21
7.001785668734108
 31
0.0
  0
LINE
  5
B28
330
1F
100
AcDbEntity
  8
2
  6
CONTINUOUS
370
25
 62
7
100
AcDbLine
 10
69.22640687119285
 20
8.0
 30
0.0
 11
69.87106781186547
 21
7.355339059327378
 31
0.0
  0
LINE
  5
B29
330
1F
100
AcDbEntity
  8
2
  6
CONTINUOUS
370
25
 62
7
100
AcDbLine
 10
69.65067093990478
 20
8.0
 30
0.0
 11
69.94177848998413
 21
7.708892449920654
 31
0.0
  0
TEXT
  5
B2A
330
1F
100
AcDbEntity
  8
2
  6
CONTINUOUS
370
25
 62
7
100
AcDbText
 10
67.5
 20
13.34583333333333
 30
0.0
 40
3.5
  1
6
 50
90.00000000000001
 72
     1
 11
67.5
 21
14.5125
 31
0.0
100
AcDbText
  0
CIRCLE
  5
B2B
330
1F
100
AcDbEntity
  8
2
  6
CONTINUOUS
370
25
 62
7
100
AcDbCircle
 10
65.75
 20
11.1875
 30
0.0
 40
1.4
  0
LINE
  5
B2C
330
1F
100
AcDbEntity
  8
2
  6
CONTINUOUS
370
25
 62
7
100
AcDbLine
 10
67.15
 20
9.787499999999998
 30
0.0
 11
64.35
 21
12.5875
 31
0.0
  0
LINE
  5
B2D
330
1F
100
AcDbEntity
  8
2
  6
CONTINUOUS
370
25
 62
7
100
AcDbLine
 10
41.0
 20
-2.84995
 30
0.0
 11
38.0
 21
-2.84995
 31
0.0
  0
LINE
  5
B2E
330
1F
100
AcDbEntity
  8
2
  6
CONTINUOUS
370
25
 62
7
100
AcDbLine
 10
38.0
 20
2.849950000000001
 30
0.0
 11
41.0
 21
2.84995
 31
0.0
  0
LINE
  5
B2F
330
1F
100
AcDbEntity
  8
2
  6
CONTINUOUS
370
25
 62
7
100
AcDbLine
 10
39.0
 20
-9.84995
 30
0.0
 11
39.0
 21
22.27495
 31
0.0
  0
LINE
  5
B30
330
1F
100
AcDbEntity
  8
2
  6
CONTINUOUS
370
25
 62
7
100
AcDbLine
 10
39.0
 20
-2.84995
 30
0.0
 11
40.0
 21
-7.84995
 31
0.0
  0
LINE
  5
B31
330
1F
100
AcDbEntity
  8
2
  6
CONTINUOUS
370
25
 62
7
100
AcDbLine
 10
40.0
 20
-7.84995
 30
0.0
 11
38.0
 21
-7.84995
 31
0.0
  0
LINE
  5
B32
330
1F
100
AcDbEntity
  8
2
  6
CONTINUOUS
370
25
 62
7
100
AcDbLine
 10
38.0
 20
-7.84995
 30
0.0
 11
39.0
 21
-2.84995
 31
0.0
  0
LINE
  5
B33
330
1F
100
AcDbEntity
  8
2
  6
CONTINUOUS
370
25
 62
7
100
AcDbLine
 10
39.57806205577111
 20
-7.84995
 30
0.0
 11
39.92967700929518
 21
-7.498335046475927
 31
0.0
  0
LINE
  5
B34
330
1F
100
AcDbEntity
  8
2
  6
CONTINUOUS
370
25
 62
7
100
AcDbLine
 10
39.15379798705918
 20
-7.84995
 30
0.0
 11
39.85896633117652
 21
-7.144781655882654
 31
0.0
  0
LINE
  5
B35
330
1F
100
AcDbEntity
  8
2
  6
CONTINUOUS
370
25
 62
7
100
AcDbLine
 10
38.72953391834726
 20
-7.84995
 30
0.0
 11
39.78825565305787
 21
-6.791228265289381
 31
0.0
  0
LINE
  5
B36
330
1F
100
AcDbEntity
  8
2
  6
CONTINUOUS
370
25
 62
7
100
AcDbLine
 10
38.30526984963532
 20
-7.84995
 30
0.0
 11
39.71754497493922
 21
-6.437674874696107
 31
0.0
  0
LINE
  5
B37
330
1F
100
AcDbEntity
  8
2
  6
CONTINUOUS
370
25
 62
7
100
AcDbLine
 10
38.02974855476915
 20
-7.701207226154251
 30
0.0
 11
39.64683429682056
 21
-6.084121484102834
 31
0.0
  0
LINE
  5
B38
330
1F
100
AcDbEntity
  8
2
  6
CONTINUOUS
370
25
 62
7
100
AcDbLine
 10
38.13581457194713
 20
-7.17087714026434
 30
0.0
 11
39.57612361870191
 21
-5.73056809350956
 31
0.0
  0
LINE
  5
B39
330
1F
100
AcDbEntity
  8
2
  6
CONTINUOUS
370
25
 62
7
100
AcDbLine
 10
38.24188058912511
 20
-6.64054705437443
 30
0.0
 11
39.50541294058326
 21
-5.377014702916287
 31
0.0
  0
LINE
  5
B3A
330
1F
100
AcDbEntity
  8
2
  6
CONTINUOUS
370
25
 62
7
100
AcDbLine
 10
38.3479466063031
 20
-6.11021696848452
 30
0.0
 11
39.4347022624646
 21
-5.023461312323013
 31
0.0
  0
LINE
  5
B3B
330
1F
100
AcDbEntity
  8
2
  6
CONTINUOUS
370
25
 62
7
100
AcDbLine
 10
38.45401262348108
 20
-5.579886882594609
 30
0.0
 11
39.36399158434595
 21
-4.669907921729739
 31
0.0
  0
LINE
  5
B3C
330
1F
100
AcDbEntity
  8
2
  6
CONTINUOUS
370
25
 62
7
100
AcDbLine
 10
38.56007864065906
 20
-5.049556796704699
 30
0.0
 11
39.29328090622729
 21
-4.316354531136466
 31
0.0
  0
LINE
  5
B3D
330
1F
100
AcDbEntity
  8
2
  6
CONTINUOUS
370
25
 62
7
100
AcDbLine
 10
38.66614465783704
 20
-4.51922671081479
 30
0.0
 11
39.22257022810864
 21
-3.962801140543193
 31
0.0
  0
LINE
  5
B3E
330
1F
100
AcDbEntity
  8
2
  6
CONTINUOUS
370
25
 62
7
100
AcDbLine
 10
38.77221067501502
 20
-3.988896624924879
 30
0.0
 11
39.15185954998998
 21
-3.609247749949919
 31
0.0
  0
LINE
  5
B3F
330
1F
100
AcDbEntity
  8
2
  6
CONTINUOUS
370
25
 62
7
100
AcDbLine
 10
38.878276692193
 20
-3.458566539034971
 30
0.0
 11
39.08114887187133
 21
-3.255694359356647
 31
0.0
  0
LINE
  5
B40
330
1F
100
AcDbEntity
  8
2
  6
CONTINUOUS
370
25
 62
7
100
AcDbLine
 10
38.98434270937098
 20
-2.928236453145059
 30
0.0
 11
39.01043819375267
 21
-2.902140968763372
 31
0.0
  0
LINE
  5
B41
330
1F
100
AcDbEntity
  8
2
  6
CONTINUOUS
370
25
 62
7
100
AcDbLine
 10
38.05610942833172
 20
-7.569402858341409
 30
0.0
 11
38.33665656999031
 21
-7.84995
 31
0.0
  0
LINE
  5
B42
330
1F
100
AcDbEntity
  8
2
  6
CONTINUOUS
370
25
 62
7
100
AcDbLine
 10
38.12682010645037
 20
-7.215849467748135
 30
0.0
 11
38.76092063870224
 21
-7.84995
 31
0.0
  0
LINE
  5
B43
330
1F
100
AcDbEntity
  8
2
  6
CONTINUOUS
370
25
 62
7
100
AcDbLine
 10
38.19753078456903
 20
-6.862296077154864
 30
0.0
 11
39.18518470741416
 21
-7.84995
 31
0.0
  0
LINE
  5
B44
330
1F
100
AcDbEntity
  8
2
  6
CONTINUOUS
370
25
 62
7
100
AcDbLine
 10
38.26824146268768
 20
-6.50874268656159
 30
0.0
 11
39.60944877612609
 21
-7.84995
 31
0.0
  0
LINE
  5
B45
330
1F
100
AcDbEntity
  8
2
  6
CONTINUOUS
370
25
 62
7
100
AcDbLine
 10
38.33895214080633
 20
-6.155189295968315
 30
0.0
 11
39.99157178879049
 21
-7.807808943952471
 31
0.0
  0
LINE
  5
B46
330
1F
100
AcDbEntity
  8
2
  6
CONTINUOUS
370
25
 62
7
100
AcDbLine
 10
38.40966281892499
 20
-5.801635905375042
 30
0.0
 11
39.88550577161251
 21
-7.277478858062562
 31
0.0
  0
LINE
  5
B47
330
1F
100
AcDbEntity
  8
2
  6
CONTINUOUS
370
25
 62
7
100
AcDbLine
 10
38.48037349704364
 20
-5.44808251478177
 30
0.0
 11
39.77943975443453
 21
-6.747148772172652
 31
0.0
  0
LINE
  5
B48
330
1F
100
AcDbEntity
  8
2
  6
CONTINUOUS
370
25
 62
7
100
AcDbLine
 10
38.55108417516229
 20
-5.094529124188496
 30
0.0
 11
39.67337373725655
 21
-6.216818686282744
 31
0.0
  0
LINE
  5
B49
330
1F
100
AcDbEntity
  8
2
  6
CONTINUOUS
370
25
 62
7
100
AcDbLine
 10
38.62179485328095
 20
-4.740975733595223
 30
0.0
 11
39.56730772007857
 21
-5.686488600392834
 31
0.0
  0
LINE
  5
B4A
330
1F
100
AcDbEntity
  8
2
  6
CONTINUOUS
370
25
 62
7
100
AcDbLine
 10
38.6925055313996
 20
-4.387422343001949
 30
0.0
 11
39.46124170290058
 21
-5.156158514502923
 31
0.0
  0
LINE
  5
B4B
330
1F
100
AcDbEntity
  8
2
  6
CONTINUOUS
370
25
 62
7
100
AcDbLine
 10
38.76321620951826
 20
-4.033868952408675
 30
0.0
 11
39.3551756857226
 21
-4.625828428613014
 31
0.0
  0
LINE
  5
B4C
330
1F
100
AcDbEntity
  8
2
  6
CONTINUOUS
370
25
 62
7
100
AcDbLine
 10
38.83392688763692
 20
-3.680315561815402
 30
0.0
 11
39.24910966854462
 21
-4.095498342723102
 31
0.0
  0
LINE
  5
B4D
330
1F
100
AcDbEntity
  8
2
  6
CONTINUOUS
370
25
 62
7
100
AcDbLine
 10
38.90463756575557
 20
-3.326762171222129
 30
0.0
 11
39.14304365136664
 21
-3.565168256833193
 31
0.0
  0
LINE
  5
B4E
330
1F
100
AcDbEntity
  8
2
  6
CONTINUOUS
370
25
 62
7
100
AcDbLine
 10
38.97534824387422
 20
-2.973208780628855
 30
0.0
 11
39.03697763418865
 21
-3.034838170943283
 31
0.0
  0
LINE
  5
B4F
330
1F
100
AcDbEntity
  8
2
  6
CONTINUOUS
370
25
 62
7
100
AcDbLine
 10
39.0
 20
2.849950000000001
 30
0.0
 11
38.0
 21
7.849950000000001
 31
0.0
  0
LINE
  5
B50
330
1F
100
AcDbEntity
  8
2
  6
CONTINUOUS
370
25
 62
7
100
AcDbLine
 10
38.0
 20
7.849950000000001
 30
0.0
 11
40.0
 21
7.849950000000001
 31
0.0
  0
LINE
  5
B51
330
1F
100
AcDbEntity
  8
2
  6
CONTINUOUS
370
25
 62
7
100
AcDbLine
 10
40.0
 20
7.849950000000001
 30
0.0
 11
39.0
 21
2.849950000000001
 31
0.0
  0
LINE
  5
B52
330
1F
100
AcDbEntity
  8
2
  6
CONTINUOUS
370
25
 62
7
100
AcDbLine
 10
38.93937260602424
 20
3.153086969878778
 30
0.0
 11
39.09094109096363
 21
3.304655454818166
 31
0.0
  0
LINE
  5
B53
330
1F
100
AcDbEntity
  8
2
  6
CONTINUOUS
370
25
 62
7
100
AcDbLine
 10
38.86866192790558
 20
3.506640360472051
 30
0.0
 11
39.19700710814161
 21
3.834985540708076
 31
0.0
  0
LINE
  5
B54
330
1F
100
AcDbEntity
  8
2
  6
CONTINUOUS
370
25
 62
7
100
AcDbLine
 10
38.79795124978693
 20
3.860193751065324
 30
0.0
 11
39.30307312531959
 21
4.365315626597987
 31
0.0
  0
LINE
  5
B55
330
1F
100
AcDbEntity
  8
2
  6
CONTINUOUS
370
25
 62
7
100
AcDbLine
 10
38.72724057166828
 20
4.213747141658597
 30
0.0
 11
39.40913914249758
 21
4.895645712487897
 31
0.0
  0
LINE
  5
B56
330
1F
100
AcDbEntity
  8
2
  6
CONTINUOUS
370
25
 62
7
100
AcDbLine
 10
38.65652989354962
 20
4.567300532251871
 30
0.0
 11
39.51520515967556
 21
5.425975798377807
 31
0.0
  0
LINE
  5
B57
330
1F
100
AcDbEntity
  8
2
  6
CONTINUOUS
370
25
 62
7
100
AcDbLine
 10
38.58581921543097
 20
4.920853922845144
 30
0.0
 11
39.62127117685354
 21
5.956305884267715
 31
0.0
  0
LINE
  5
B58
330
1F
100
AcDbEntity
  8
2
  6
CONTINUOUS
370
25
 62
7
100
AcDbLine
 10
38.51510853731232
 20
5.274407313438418
 30
0.0
 11
39.72733719403152
 21
6.486635970157625
 31
0.0
  0
LINE
  5
B59
330
1F
100
AcDbEntity
  8
2
  6
CONTINUOUS
370
25
 62
7
100
AcDbLine
 10
38.44439785919366
 20
5.627960704031691
 30
0.0
 11
39.8334032112095
 21
7.016966056047533
 31
0.0
  0
LINE
  5
B5A
330
1F
100
AcDbEntity
  8
2
  6
CONTINUOUS
370
25
 62
7
100
AcDbLine
 10
38.37368718107501
 20
5.981514094624965
 30
0.0
 11
39.93946922838749
 21
7.547296141937443
 31
0.0
  0
LINE
  5
B5B
330
1F
100
AcDbEntity
  8
2
  6
CONTINUOUS
370
25
 62
7
100
AcDbLine
 10
38.30297650295635
 20
6.335067485218238
 30
0.0
 11
39.81785901773812
 21
7.849950000000001
 31
0.0
  0
LINE
  5
B5C
330
1F
100
AcDbEntity
  8
2
  6
CONTINUOUS
370
25
 62
7
100
AcDbLine
 10
38.2322658248377
 20
6.688620875811511
 30
0.0
 11
39.39359494902619
 21
7.849950000000001
 31
0.0
  0
LINE
  5
B5D
330
1F
100
AcDbEntity
  8
2
  6
CONTINUOUS
370
25
 62
7
100
AcDbLine
 10
38.16155514671904
 20
7.042174266404784
 30
0.0
 11
38.96933088031426
 21
7.849950000000001
 31
0.0
  0
LINE
  5
B5E
330
1F
100
AcDbEntity
  8
2
  6
CONTINUOUS
370
25
 62
7
100
AcDbLine
 10
38.09084446860039
 20
7.395727656998057
 30
0.0
 11
38.54506681160233
 21
7.849950000000001
 31
0.0
  0
LINE
  5
B5F
330
1F
100
AcDbEntity
  8
2
  6
CONTINUOUS
370
25
 62
7
100
AcDbLine
 10
38.02013379048173
 20
7.74928104759133
 30
0.0
 11
38.1208027428904
 21
7.849950000000001
 31
0.0
  0
LINE
  5
B60
330
1F
100
AcDbEntity
  8
2
  6
CONTINUOUS
370
25
 62
7
100
AcDbLine
 10
38.9593652079743
 20
3.053123960128479
 30
0.0
 11
39.02708986135046
 21
2.985399306752321
 31
0.0
  0
LINE
  5
B61
330
1F
100
AcDbEntity
  8
2
  6
CONTINUOUS
370
25
 62
7
100
AcDbLine
 10
38.85329919079632
 20
3.583454046018389
 30
0.0
 11
39.09780053946911
 21
3.338952697345594
 31
0.0
  0
LINE
  5
B62
330
1F
100
AcDbEntity
  8
2
  6
CONTINUOUS
370
25
 62
7
100
AcDbLine
 10
38.74723317361833
 20
4.1137841319083
 30
0.0
 11
39.16851121758777
 21
3.692506087938868
 31
0.0
  0
LINE
  5
B63
330
1F
100
AcDbEntity
  8
2
  6
CONTINUOUS
370
25
 62
7
100
AcDbLine
 10
38.64116715644035
 20
4.644114217798208
 30
0.0
 11
39.23922189570642
 21
4.046059478532141
 31
0.0
  0
LINE
  5
B64
330
1F
100
AcDbEntity
  8
2
  6
CONTINUOUS
370
25
 62
7
100
AcDbLine
 10
38.53510113926237
 20
5.174444303688118
 30
0.0
 11
39.30993257382508
 21
4.399612869125414
 31
0.0
  0
LINE
  5
B65
330
1F
100
AcDbEntity
  8
2
  6
CONTINUOUS
370
25
 62
7
100
AcDbLine
 10
38.42903512208439
 20
5.704774389578029
 30
0.0
 11
39.38064325194374
 21
4.753166259718687
 31
0.0
  0
LINE
  5
B66
330
1F
100
AcDbEntity
  8
2
  6
CONTINUOUS
370
25
 62
7
100
AcDbLine
 10
38.32296910490641
 20
6.235104475467939
 30
0.0
 11
39.45135393006239
 21
5.10671965031196
 31
0.0
  0
LINE
  5
B67
330
1F
100
AcDbEntity
  8
2
  6
CONTINUOUS
370
25
 62
7
100
AcDbLine
 10
38.21690308772843
 20
6.765434561357847
 30
0.0
 11
39.52206460818104
 21
5.460273040905233
 31
0.0
  0
LINE
  5
B68
330
1F
100
AcDbEntity
  8
2
  6
CONTINUOUS
370
25
 62
7
100
AcDbLine
 10
38.11083707055045
 20
7.295764647247757
 30
0.0
 11
39.5927752862997
 21
5.813826431498506
 31
0.0
  0
LINE
  5
B69
330
1F
100
AcDbEntity
  8
2
  6
CONTINUOUS
370
25
 62
7
100
AcDbLine
 10
38.00477105337247
 20
7.826094733137666
 30
0.0
 11
39.66348596441836
 21
6.167379822091779
 31
0.0
  0
LINE
  5
B6A
330
1F
100
AcDbEntity
  8
2
  6
CONTINUOUS
370
25
 62
7
100
AcDbLine
 10
38.40517985522206
 20
7.849950000000001
 30
0.0
 11
39.73419664253701
 21
6.520933212685052
 31
0.0
  0
LINE
  5
B6B
330
1F
100
AcDbEntity
  8
2
  6
CONTINUOUS
370
25
 62
7
100
AcDbLine
 10
38.82944392393399
 20
7.849950000000001
 30
0.0
 11
39.80490732065566
 21
6.874486603278326
 31
0.0
  0
LINE
  5
B6C
330
1F
100
AcDbEntity
  8
2
  6
CONTINUOUS
370
25
 62
7
100
AcDbLine
 10
39.25370799264591
 20
7.849950000000001
 30
0.0
 11
39.87561799877432
 21
7.2280399938716
 31
0.0
  0
LINE
  5
B6D
330
1F
100
AcDbEntity
  8
2
  6
CONTINUOUS
370
25
 62
7
100
AcDbLine
 10
39.67797206135784
 20
7.849950000000001
 30
0.0
 11
39.94632867689297
 21
7.581593384464873
 31
0.0
  0
TEXT
  5
B6E
330
1F
100
AcDbEntity
  8
2
  6
CONTINUOUS
370
25
 62
7
100
AcDbText
 10
37.5
 20
13.83745
 30
0.0
 40
3.5
  1
5.7
 50
90.00000000000001
 72
     1
 11
37.5
 21
17.33745
 31
0.0
100
AcDbText
  0
CIRCLE
  5
B6F
330
1F
100
AcDbEntity
  8
2
  6
CONTINUOUS
370
25
 62
7
100
AcDbCircle
 10
35.75
 20
10.86245
 30
0.0
 40
1.4
  0
LINE
  5
B70
330
1F
100
AcDbEntity
  8
2
  6
CONTINUOUS
370
25
 62
7
100
AcDbLine
 10
37.15
 20
9.462449999999997
 30
0.0
 11
34.34999999999999
 21
12.26245
 31
0.0
  0
LINE
  5
B71
330
1F
100
AcDbEntity
  8
2
  6
CONTINUOUS
370
25
 62
7
100
AcDbLine
 10
41.0
 20
-3.0
 30
0.0
 11
41.0
 21
-16.0
 31
0.0
  0
LINE
  5
B72
330
1F
100
AcDbEntity
  8
2
  6
CONTINUOUS
370
25
 62
7
100
AcDbLine
 10
50.0
 20
-16.0
 30
0.0
 11
50.0
 21
-2.5
 31
0.0
  0
LINE
  5
B73
330
1F
100
AcDbEntity
  8
2
  6
CONTINUOUS
370
25
 62
7
100
AcDbLine
 10
34.0
 20
-15.0
 30
0.0
 11
57.0
 21
-15.0
 31
0.0
  0
LINE
  5
B74
330
1F
100
AcDbEntity
  8
2
  6
CONTINUOUS
370
25
 62
7
100
AcDbLine
 10
41.0
 20
-15.0
 30
0.0
 11
36.0
 21
-16.0
 31
0.0
  0
LINE
  5
B75
330
1F
100
AcDbEntity
  8
2
  6
CONTINUOUS
370
25
 62
7
100
AcDbLine
 10
36.0
 20
-16.0
 30
0.0
 11
36.0
 21
-14.0
 31
0.0
  0
LINE
  5
B76
330
1F
100
AcDbEntity
  8
2
  6
CONTINUOUS
370
25
 62
7
100
AcDbLine
 10
36.0
 20
-14.0
 30
0.0
 11
41.0
 21
-15.0
 31
0.0
  0
LINE
  5
B77
330
1F
100
AcDbEntity
  8
2
  6
CONTINUOUS
370
25
 62
7
100
AcDbLine
 10
40.96254809424596
 20
-15.00749038115081
 30
0.0
 11
40.97503206283064
 21
-14.99500641256613
 31
0.0
  0
LINE
  5
B78
330
1F
100
AcDbEntity
  8
2
  6
CONTINUOUS
370
25
 62
7
100
AcDbLine
 10
40.43221800835605
 20
-15.11355639832879
 30
0.0
 11
40.62147867223737
 21
-14.92429573444747
 31
0.0
  0
LINE
  5
B79
330
1F
100
AcDbEntity
  8
2
  6
CONTINUOUS
370
25
 62
7
100
AcDbLine
 10
39.90188792246614
 20
-15.21962241550677
 30
0.0
 11
40.2679252816441
 21
-14.85358505632882
 31
0.0
  0
LINE
  5
B7A
330
1F
100
AcDbEntity
  8
2
  6
CONTINUOUS
370
25
 62
7
100
AcDbLine
 10
39.37155783657624
 20
-15.32568843268475
 30
0.0
 11
39.91437189105082
 21
-14.78287437821017
 31
0.0
  0
LINE
  5
B7B
330
1F
100
AcDbEntity
  8
2
  6
CONTINUOUS
370
25
 62
7
100
AcDbLine
 10
38.84122775068632
 20
-15.43175444986273
 30
0.0
 11
39.56081850045754
 21
-14.71216370009151
 31
0.0
  0
LINE
  5
B7C
330
1F
100
AcDbEntity
  8
2
  6
CONTINUOUS
370
25
 62
7
100
AcDbLine
 10
38.31089766479641
 20
-15.53782046704072
 30
0.0
 11
39.20726510986427
 21
-14.64145302197285
 31
0.0
  0
LINE
  5
B7D
330
1F
100
AcDbEntity
  8
2
  6
CONTINUOUS
370
25
 62
7
100
AcDbLine
 10
37.7805675789065
 20
-15.6438864842187
 30
0.0
 11
38.853711719271
 21
-14.5707423438542
 31
0.0
  0
LINE
  5
B7E
330
1F
100
AcDbEntity
  8
2
  6
CONTINUOUS
370
25
 62
7
100
AcDbLine
 10
37.25023749301659
 20
-15.74995250139668
 30
0.0
 11
38.50015832867773
 21
-14.50003166573554
 31
0.0
  0
LINE
  5
B7F
330
1F
100
AcDbEntity
  8
2
  6
CONTINUOUS
370
25
 62
7
100
AcDbLine
 10
36.71990740712668
 20
-15.85601851857466
 30
0.0
 11
38.14660493808445
 21
-14.42932098761689
 31
0.0
  0
LINE
  5
B80
330
1F
100
AcDbEntity
  8
2
  6
CONTINUOUS
370
25
 62
7
100
AcDbLine
 10
36.18957732123677
 20
-15.96208453575264
 30
0.0
 11
37.79305154749118
 21
-14.35861030949824
 31
0.0
  0
LINE
  5
B81
330
1F
100
AcDbEntity
  8
2
  6
CONTINUOUS
370
25
 62
7
100
AcDbLine
 10
36.0
 20
-15.72739778827749
 30
0.0
 11
37.4394981568979
 21
-14.28789963137958
 31
0.0
  0
LINE
  5
B82
330
1F
100
AcDbEntity
  8
2
  6
CONTINUOUS
370
25
 62
7
100
AcDbLine
 10
36.0
 20
-15.30313371956556
 30
0.0
 11
37.08594476630464
 21
-14.21718895326093
 31
0.0
  0
LINE
  5
B83
330
1F
100
AcDbEntity
  8
2
  6
CONTINUOUS
370
25
 62
7
100
AcDbLine
 10
36.0
 20
-14.87886965085363
 30
0.0
 11
36.73239137571136
 21
-14.14647827514227
 31
0.0
  0
LINE
  5
B84
330
1F
100
AcDbEntity
  8
2
  6
CONTINUOUS
370
25
 62
7
100
AcDbLine
 10
36.0
 20
-14.45460558214171
 30
0.0
 11
36.37883798511809
 21
-14.07576759702362
 31
0.0
  0
LINE
  5
B85
330
1F
100
AcDbEntity
  8
2
  6
CONTINUOUS
370
25
 62
7
100
AcDbLine
 10
36.0
 20
-14.03034151342978
 30
0.0
 11
36.02528459452481
 21
-14.00505691890496
 31
0.0
  0
LINE
  5
B86
330
1F
100
AcDbEntity
  8
2
  6
CONTINUOUS
370
25
 62
7
100
AcDbLine
 10
36.0
 20
-15.63105578092343
 30
0.0
 11
36.30745351589714
 21
-15.93850929682057
 31
0.0
  0
LINE
  5
B87
330
1F
100
AcDbEntity
  8
2
  6
CONTINUOUS
370
25
 62
7
100
AcDbLine
 10
36.0
 20
-15.2067917122115
 30
0.0
 11
36.66100690649041
 21
-15.86779861870192
 31
0.0
  0
LINE
  5
B88
330
1F
100
AcDbEntity
  8
2
  6
CONTINUOUS
370
25
 62
7
100
AcDbLine
 10
36.0
 20
-14.78252764349957
 30
0.0
 11
37.01456029708368
 21
-15.79708794058326
 31
0.0
  0
LINE
  5
B89
330
1F
100
AcDbEntity
  8
2
  6
CONTINUOUS
370
25
 62
7
100
AcDbLine
 10
36.0
 20
-14.35826357478764
 30
0.0
 11
37.36811368767696
 21
-15.72637726246461
 31
0.0
  0
LINE
  5
B8A
330
1F
100
AcDbEntity
  8
2
  6
CONTINUOUS
370
25
 62
7
100
AcDbLine
 10
36.08250061740535
 20
-14.01650012348107
 30
0.0
 11
37.72166707827023
 21
-15.65566658434595
 31
0.0
  0
LINE
  5
B8B
330
1F
100
AcDbEntity
  8
2
  6
CONTINUOUS
370
25
 62
7
100
AcDbLine
 10
36.61283070329526
 20
-14.12256614065905
 30
0.0
 11
38.07522046886351
 21
-15.5849559062273
 31
0.0
  0
LINE
  5
B8C
330
1F
100
AcDbEntity
  8
2
  6
CONTINUOUS
370
25
 62
7
100
AcDbLine
 10
37.14316078918517
 20
-14.22863215783704
 30
0.0
 11
38.42877385945678
 21
-15.51424522810864
 31
0.0
  0
LINE
  5
B8D
330
1F
100
AcDbEntity
  8
2
  6
CONTINUOUS
370
25
 62
7
100
AcDbLine
 10
37.67349087507508
 20
-14.33469817501502
 30
0.0
 11
38.78232725005005
 21
-15.44353454998999
 31
0.0
  0
LINE
  5
B8E
330
1F
100
AcDbEntity
  8
2
  6
CONTINUOUS
370
25
 62
7
100
AcDbLine
 10
38.20382096096499
 20
-14.440764192193
 30
0.0
 11
39.13588064064332
 21
-15.37282387187133
 31
0.0
  0
LINE
  5
B8F
330
1F
100
AcDbEntity
  8
2
  6
CONTINUOUS
370
25
 62
7
100
AcDbLine
 10
38.7341510468549
 20
-14.54683020937098
 30
0.0
 11
39.4894340312366
 21
-15.30211319375268
 31
0.0
  0
LINE
  5
B90
330
1F
100
AcDbEntity
  8
2
  6
CONTINUOUS
370
25
 62
7
100
AcDbLine
 10
39.26448113274481
 20
-14.65289622654896
 30
0.0
 11
39.84298742182987
 21
-15.23140251563402
 31
0.0
  0
LINE
  5
B91
330
1F
100
AcDbEntity
  8
2
  6
CONTINUOUS
370
25
 62
7
100
AcDbLine
 10
39.79481121863472
 20
-14.75896224372694
 30
0.0
 11
40.19654081242314
 21
-15.16069183751537
 31
0.0
  0
LINE
  5
B92
330
1F
100
AcDbEntity
  8
2
  6
CONTINUOUS
370
25
 62
7
100
AcDbLine
 10
40.32514130452463
 20
-14.86502826090493
 30
0.0
 11
40.55009420301642
 21
-15.08998115939671
 31
0.0
  0
LINE
  5
B93
330
1F
100
AcDbEntity
  8
2
  6
CONTINUOUS
370
25
 62
7
100
AcDbLine
 10
40.85547139041454
 20
-14.97109427808291
 30
0.0
 11
40.90364759360969
 21
-15.01927048127806
 31
0.0
  0
LINE
  5
B94
330
1F
100
AcDbEntity
  8
2
  6
CONTINUOUS
370
25
 62
7
100
AcDbLine
 10
50.0
 20
-15.0
 30
0.0
 11
55.0
 21
-14.0
 31
0.0
  0
LINE
  5
B95
330
1F
100
AcDbEntity
  8
2
  6
CONTINUOUS
370
25
 62
7
100
AcDbLine
 10
55.0
 20
-14.0
 30
0.0
 11
55.0
 21
-16.0
 31
0.0
  0
LINE
  5
B96
330
1F
100
AcDbEntity
  8
2
  6
CONTINUOUS
370
25
 62
7
100
AcDbLine
 10
55.0
 20
-16.0
 30
0.0
 11
50.0
 21
-15.0
 31
0.0
  0
LINE
  5
B97
330
1F
100
AcDbEntity
  8
2
  6
CONTINUOUS
370
25
 62
7
100
AcDbLine
 10
54.84821028777247
 20
-15.96964205755449
 30
0.0
 11
55.0
 21
-15.81785234532697
 31
0.0
  0
LINE
  5
B98
330
1F
100
AcDbEntity
  8
2
  6
CONTINUOUS
370
25
 62
7
100
AcDbLine
 10
54.49465689717921
 20
-15.89893137943584
 30
0.0
 11
55.0
 21
-15.39358827661505
 31
0.0
  0
LINE
  5
B99
330
1F
100
AcDbEntity
  8
2
  6
CONTINUOUS
370
25
 62
7
100
AcDbLine
 10
54.14110350658593
 20
-15.82822070131719
 30
0.0
 11
55.0
 21
-14.96932420790312
 31
0.0
  0
LINE
  5
B9A
330
1F
100
AcDbEntity
  8
2
  6
CONTINUOUS
370
25
 62
7
100
AcDbLine
 10
53.78755011599266
 20
-15.75751002319853
 30
0.0
 11
55.0
 21
-14.5450601391912
 31
0.0
  0
LINE
  5
B9B
330
1F
100
AcDbEntity
  8
2
  6
CONTINUOUS
370
25
 62
7
100
AcDbLine
 10
53.43399672539938
 20
-15.68679934507988
 30
0.0
 11
55.0
 21
-14.12079607047926
 31
0.0
  0
LINE
  5
B9C
330
1F
100
AcDbEntity
  8
2
  6
CONTINUOUS
370
25
 62
7
100
AcDbLine
 10
53.08044333480612
 20
-15.61608866696122
 30
0.0
 11
54.62066500220917
 21
-14.07586699955817
 31
0.0
  0
LINE
  5
B9D
330
1F
100
AcDbEntity
  8
2
  6
CONTINUOUS
370
25
 62
7
100
AcDbLine
 10
52.72688994421284
 20
-15.54537798884257
 30
0.0
 11
54.09033491631925
 21
-14.18193301673615
 31
0.0
  0
LINE
  5
B9E
330
1F
100
AcDbEntity
  8
2
  6
CONTINUOUS
370
25
 62
7
100
AcDbLine
 10
52.37333655361957
 20
-15.47466731072391
 30
0.0
 11
53.56000483042935
 21
-14.28799903391413
 31
0.0
  0
LINE
  5
B9F
330
1F
100
AcDbEntity
  8
2
  6
CONTINUOUS
370
25
 62
7
100
AcDbLine
 10
52.01978316302629
 20
-15.40395663260526
 30
0.0
 11
53.02967474453943
 21
-14.39406505109211
 31
0.0
  0
LINE
  5
BA0
330
1F
100
AcDbEntity
  8
2
  6
CONTINUOUS
370
25
 62
7
100
AcDbLine
 10
51.66622977243303
 20
-15.3332459544866
 30
0.0
 11
52.49934465864953
 21
-14.50013106827009
 31
0.0
  0
LINE
  5
BA1
330
1F
100
AcDbEntity
  8
2
  6
CONTINUOUS
370
25
 62
7
100
AcDbLine
 10
51.31267638183975
 20
-15.26253527636795
 30
0.0
 11
51.96901457275962
 21
-14.60619708544808
 31
0.0
  0
LINE
  5
BA2
330
1F
100
AcDbEntity
  8
2
  6
CONTINUOUS
370
25
 62
7
100
AcDbLine
 10
50.95912299124647
 20
-15.19182459824929
 30
0.0
 11
51.43868448686971
 21
-14.71226310262606
 31
0.0
  0
LINE
  5
BA3
330
1F
100
AcDbEntity
  8
2
  6
CONTINUOUS
370
25
 62
7
100
AcDbLine
 10
50.6055696006532
 20
-15.12111392013064
 30
0.0
 11
50.9083544009798
 21
-14.81832911980404
 31
0.0
  0
LINE
  5
BA4
330
1F
100
AcDbEntity
  8
2
  6
CONTINUOUS
370
25
 62
7
100
AcDbLine
 10
50.25201621005993
 20
-15.05040324201199
 30
0.0
 11
50.37802431508989
 21
-14.92439513698202
 31
0.0
  0
LINE
  5
BA5
330
1F
100
AcDbEntity
  8
2
  6
CONTINUOUS
370
25
 62
7
100
AcDbLine
 10
50.18063174083893
 20
-14.96387365183221
 30
0.0
 11
50.27094761125841
 21
-15.05418952225168
 31
0.0
  0
LINE
  5
BA6
330
1F
100
AcDbEntity
  8
2
  6
CONTINUOUS
370
25
 62
7
100
AcDbLine
 10
50.53418513143221
 20
-14.89316297371356
 30
0.0
 11
50.80127769714831
 21
-15.16025553942966
 31
0.0
  0
LINE
  5
BA7
330
1F
100
AcDbEntity
  8
2
  6
CONTINUOUS
370
25
 62
7
100
AcDbLine
 10
50.88773852202549
 20
-14.8224522955949
 30
0.0
 11
51.33160778303822
 21
-15.26632155660765
 31
0.0
  0
LINE
  5
BA8
330
1F
100
AcDbEntity
  8
2
  6
CONTINUOUS
370
25
 62
7
100
AcDbLine
 10
51.24129191261876
 20
-14.75174161747625
 30
0.0
 11
51.86193786892814
 21
-15.37238757378563
 31
0.0
  0
LINE
  5
BA9
330
1F
100
AcDbEntity
  8
2
  6
CONTINUOUS
370
25
 62
7
100
AcDbLine
 10
51.59484530321203
 20
-14.6810309393576
 30
0.0
 11
52.39226795481805
 21
-15.47845359096361
 31
0.0
  0
LINE
  5
BAA
330
1F
100
AcDbEntity
  8
2
  6
CONTINUOUS
370
25
 62
7
100
AcDbLine
 10
51.9483986938053
 20
-14.61032026123894
 30
0.0
 11
52.92259804070795
 21
-15.58451960814159
 31
0.0
  0
LINE
  5
BAB
330
1F
100
AcDbEntity
  8
2
  6
CONTINUOUS
370
25
 62
7
100
AcDbLine
 10
52.30195208439858
 20
-14.53960958312028
 30
0.0
 11
53.45292812659787
 21
-15.69058562531957
 31
0.0
  0
LINE
  5
BAC
330
1F
100
AcDbEntity
  8
2
  6
CONTINUOUS
370
25
 62
7
100
AcDbLine
 10
52.65550547499185
 20
-14.46889890500163
 30
0.0
 11
53.98325821248778
 21
-15.79665164249756
 31
0.0
  0
LINE
  5
BAD
330
1F
100
AcDbEntity
  8
2
  6
CONTINUOUS
370
25
 62
7
100
AcDbLine
 10
53.00905886558512
 20
-14.39818822688298
 30
0.0
 11
54.51358829837768
 21
-15.90271765967554
 31
0.0
  0
LINE
  5
BAE
330
1F
100
AcDbEntity
  8
2
  6
CONTINUOUS
370
25
 62
7
100
AcDbLine
 10
53.36261225617839
 20
-14.32747754876432
 30
0.0
 11
55.0
 21
-15.96486529258592
 31
0.0
  0
LINE
  5
BAF
330
1F
100
AcDbEntity
  8
2
  6
CONTINUOUS
370
25
 62
7
100
AcDbLine
 10
53.71616564677167
 20
-14.25676687064567
 30
0.0
 11
55.0
 21
-15.54060122387399
 31
0.0
  0
LINE
  5
BB0
330
1F
100
AcDbEntity
  8
2
  6
CONTINUOUS
370
25
 62
7
100
AcDbLine
 10
54.06971903736494
 20
-14.18605619252701
 30
0.0
 11
55.0
 21
-15.11633715516206
 31
0.0
  0
LINE
  5
BB1
330
1F
100
AcDbEntity
  8
2
  6
CONTINUOUS
370
25
 62
7
100
AcDbLine
 10
54.42327242795821
 20
-14.11534551440836
 30
0.0
 11
55.0
 21
-14.69207308645014
 31
0.0
  0
LINE
  5
BB2
330
1F
100
AcDbEntity
  8
2
  6
CONTINUOUS
370
25
 62
7
100
AcDbLine
 10
54.77682581855149
 20
-14.0446348362897
 30
0.0
 11
55.0
 21
-14.26780901773821
 31
0.0
  0
TEXT
  5
BB3
330
1F
100
AcDbEntity
  8
2
  6
CONTINUOUS
370
25
 62
7
100
AcDbText
 10
44.33333333333334
 20
-13.5
 30
0.0
 40
3.5
  1
9
 72
     1
 11
45.5
 21
-13.5
 31
0.0
100
AcDbText
  0
LINE
  5
BB4
330
1F
100
AcDbEntity
  8
2
  6
CONTINUOUS
370
25
 62
7
100
AcDbLine
 10
34.8
 20
0.0
 30
0.0
 11
34.8
 21
26.425
 31
0.0
  0
LINE
  5
BB5
330
1F
100
AcDbEntity
  8
2
  6
CONTINUOUS
370
25
 62
7
100
AcDbLine
 10
50.0
 20
26.425
 30
0.0
 11
50.0
 21
2.5
 31
0.0
  0
LINE
  5
BB6
330
1F
100
AcDbEntity
  8
2
  6
CONTINUOUS
370
25
 62
7
100
AcDbLine
 10
27.8
 20
25.425
 30
0.0
 11
57.0
 21
25.425
 31
0.0
  0
LINE
  5
BB7
330
1F
100
AcDbEntity
  8
2
  6
CONTINUOUS
370
25
 62
7
100
AcDbLine
 10
34.8
 20
25.425
 30
0.0
 11
29.8
 21
24.425
 31
0.0
  0
LINE
  5
BB8
330
1F
100
AcDbEntity
  8
2
  6
CONTINUOUS
370
25
 62
7
100
AcDbLine
 10
29.8
 20
24.425
 30
0.0
 11
29.8
 21
26.425
 31
0.0
  0
LINE
  5
BB9
330
1F
100
AcDbEntity
  8
2
  6
CONTINUOUS
370
25
 62
7
100
AcDbLine
 10
29.8
 20
26.425
 30
0.0
 11
34.8
 21
25.425
 31
0.0
  0
LINE
  5
BBA
330
1F
100
AcDbEntity
  8
2
  6
CONTINUOUS
370
25
 62
7
100
AcDbLine
 10
34.76144484660539
 20
25.41728896932108
 30
0.0
 11
34.7742965644036
 21
25.43014068711928
 31
0.0
  0
LINE
  5
BBB
330
1F
100
AcDbEntity
  8
2
  6
CONTINUOUS
370
25
 62
7
100
AcDbLine
 10
34.23111476071549
 20
25.3112229521431
 30
0.0
 11
34.42074317381032
 21
25.50085136523793
 31
0.0
  0
LINE
  5
BBC
330
1F
100
AcDbEntity
  8
2
  6
CONTINUOUS
370
25
 62
7
100
AcDbLine
 10
33.70078467482558
 20
25.20515693496512
 30
0.0
 11
34.06718978321705
 21
25.57156204335659
 31
0.0
  0
LINE
  5
BBD
330
1F
100
AcDbEntity
  8
2
  6
CONTINUOUS
370
25
 62
7
100
AcDbLine
 10
33.17045458893567
 20
25.09909091778713
 30
0.0
 11
33.71363639262378
 21
25.64227272147524
 31
0.0
  0
LINE
  5
BBE
330
1F
100
AcDbEntity
  8
2
  6
CONTINUOUS
370
25
 62
7
100
AcDbLine
 10
32.64012450304575
 20
24.99302490060915
 30
0.0
 11
33.3600830020305
 21
25.7129833995939
 31
0.0
  0
LINE
  5
BBF
330
1F
100
AcDbEntity
  8
2
  6
CONTINUOUS
370
25
 62
7
100
AcDbLine
 10
32.10979441715585
 20
24.88695888343117
 30
0.0
 11
33.00652961143723
 21
25.78369407771255
 31
0.0
  0
LINE
  5
BC0
330
1F
100
AcDbEntity
  8
2
  6
CONTINUOUS
370
25
 62
7
100
AcDbLine
 10
31.57946433126594
 20
24.78089286625319
 30
0.0
 11
32.65297622084395
 21
25.85440475583121
 31
0.0
  0
LINE
  5
BC1
330
1F
100
AcDbEntity
  8
2
  6
CONTINUOUS
370
25
 62
7
100
AcDbLine
 10
31.04913424537603
 20
24.67482684907521
 30
0.0
 11
32.29942283025068
 21
25.92511543394986
 31
0.0
  0
LINE
  5
BC2
330
1F
100
AcDbEntity
  8
2
  6
CONTINUOUS
370
25
 62
7
100
AcDbLine
 10
30.51880415948612
 20
24.56876083189723
 30
0.0
 11
31.94586943965741
 21
25.99582611206852
 31
0.0
  0
LINE
  5
BC3
330
1F
100
AcDbEntity
  8
2
  6
CONTINUOUS
370
25
 62
7
100
AcDbLine
 10
29.9884740735962
 20
24.46269481471924
 30
0.0
 11
31.59231604906413
 21
26.06653679018717
 31
0.0
  0
LINE
  5
BC4
330
1F
100
AcDbEntity
  8
2
  6
CONTINUOUS
370
25
 62
7
100
AcDbLine
 10
29.8
 20
24.69848480983496
 30
0.0
 11
31.23876265847086
 21
26.13724746830583
 31
0.0
  0
LINE
  5
BC5
330
1F
100
AcDbEntity
  8
2
  6
CONTINUOUS
370
25
 62
7
100
AcDbLine
 10
29.8
 20
25.12274887854689
 30
0.0
 11
30.88520926787759
 21
26.20795814642448
 31
0.0
  0
LINE
  5
BC6
330
1F
100
AcDbEntity
  8
2
  6
CONTINUOUS
370
25
 62
7
100
AcDbLine
 10
29.8
 20
25.54701294725882
 30
0.0
 11
30.53165587728432
 21
26.27866882454314
 31
0.0
  0
LINE
  5
BC7
330
1F
100
AcDbEntity
  8
2
  6
CONTINUOUS
370
25
 62
7
100
AcDbLine
 10
29.8
 20
25.97127701597075
 30
0.0
 11
30.17810248669104
 21
26.34937950266179
 31
0.0
  0
LINE
  5
BC8
330
1F
100
AcDbEntity
  8
2
  6
CONTINUOUS
370
25
 62
7
100
AcDbLine
 10
29.8
 20
26.39554108468267
 30
0.0
 11
29.82454909609777
 21
26.42009018078044
 31
0.0
  0
LINE
  5
BC9
330
1F
100
AcDbEntity
  8
2
  6
CONTINUOUS
370
25
 62
7
100
AcDbLine
 10
29.8
 20
24.51614716074867
 30
0.0
 11
29.87595596729056
 21
24.44019119345811
 31
0.0
  0
LINE
  5
BCA
330
1F
100
AcDbEntity
  8
2
  6
CONTINUOUS
370
25
 62
7
100
AcDbLine
 10
29.8
 20
24.9404112294606
 30
0.0
 11
30.22950935788383
 21
24.51090187157677
 31
0.0
  0
LINE
  5
BCB
330
1F
100
AcDbEntity
  8
2
  6
CONTINUOUS
370
25
 62
7
100
AcDbLine
 10
29.8
 20
25.36467529817253
 30
0.0
 11
30.5830627484771
 21
24.58161254969542
 31
0.0
  0
LINE
  5
BCC
330
1F
100
AcDbEntity
  8
2
  6
CONTINUOUS
370
25
 62
7
100
AcDbLine
 10
29.8
 20
25.78893936688446
 30
0.0
 11
30.93661613907038
 21
24.65232322781408
 31
0.0
  0
LINE
  5
BCD
330
1F
100
AcDbEntity
  8
2
  6
CONTINUOUS
370
25
 62
7
100
AcDbLine
 10
29.8
 20
26.21320343559638
 30
0.0
 11
31.29016952966365
 21
24.72303390593273
 31
0.0
  0
LINE
  5
BCE
330
1F
100
AcDbEntity
  8
2
  6
CONTINUOUS
370
25
 62
7
100
AcDbLine
 10
30.06558438038538
 20
26.37188312392292
 30
0.0
 11
31.64372292025692
 21
24.79374458405139
 31
0.0
  0
LINE
  5
BCF
330
1F
100
AcDbEntity
  8
2
  6
CONTINUOUS
370
25
 62
7
100
AcDbLine
 10
30.5959144662753
 20
26.26581710674494
 30
0.0
 11
31.9972763108502
 21
24.86445526217004
 31
0.0
  0
LINE
  5
BD0
330
1F
100
AcDbEntity
  8
2
  6
CONTINUOUS
370
25
 62
7
100
AcDbLine
 10
31.1262445521652
 20
26.15975108956696
 30
0.0
 11
32.35082970144347
 21
24.93516594028869
 31
0.0
  0
LINE
  5
BD1
330
1F
100
AcDbEntity
  8
2
  6
CONTINUOUS
370
25
 62
7
100
AcDbLine
 10
31.65657463805512
 20
26.05368507238898
 30
0.0
 11
32.70438309203674
 21
25.00587661840735
 31
0.0
  0
LINE
  5
BD2
330
1F
100
AcDbEntity
  8
2
  6
CONTINUOUS
370
25
 62
7
100
AcDbLine
 10
32.18690472394503
 20
25.947619055211
 30
0.0
 11
33.05793648263002
 21
25.076587296526
 31
0.0
  0
LINE
  5
BD3
330
1F
100
AcDbEntity
  8
2
  6
CONTINUOUS
370
25
 62
7
100
AcDbLine
 10
32.71723480983493
 20
25.84155303803301
 30
0.0
 11
33.41148987322329
 21
25.14729797464466
 31
0.0
  0
LINE
  5
BD4
330
1F
100
AcDbEntity
  8
2
  6
CONTINUOUS
370
25
 62
7
100
AcDbLine
 10
33.24756489572485
 20
25.73548702085503
 30
0.0
 11
33.76504326381657
 21
25.21800865276331
 31
0.0
  0
LINE
  5
BD5
330
1F
100
AcDbEntity
  8
2
  6
CONTINUOUS
370
25
 62
7
100
AcDbLine
 10
33.77789498161476
 20
25.62942100367705
 30
0.0
 11
34.11859665440983
 21
25.28871933088197
 31
0.0
  0
LINE
  5
BD6
330
1F
100
AcDbEntity
  8
2
  6
CONTINUOUS
370
25
 62
7
100
AcDbLine
 10
34.30822506750467
 20
25.52335498649907
 30
0.0
 11
34.47215004500311
 21
25.35943000900062
 31
0.0
  0
LINE
  5
BD7
330
1F
100
AcDbEntity
  8
2
  6
CONTINUOUS
370
25
 62
7
100
AcDbLine
 10
50.0
 20
25.425
 30
0.0
 11
55.0
 21
26.425
 31
0.0
  0
LINE
  5
BD8
330
1F
100
AcDbEntity
  8
2
  6
CONTINUOUS
370
25
 62
7
100
AcDbLine
 10
55.0
 20
26.425
 30
0.0
 11
55.0
 21
24.425
 31
0.0
  0
LINE
  5
BD9
330
1F
100
AcDbEntity
  8
2
  6
CONTINUOUS
370
25
 62
7
100
AcDbLine
 10
55.0
 20
24.425
 30
0.0
 11
50.0
 21
25.425
 31
0.0
  0
LINE
  5
BDA
330
1F
100
AcDbEntity
  8
2
  6
CONTINUOUS
370
25
 62
7
100
AcDbLine
 10
54.9852994274006
 20
24.42794011451988
 30
0.0
 11
55.0
 21
24.44264068711929
 31
0.0
  0
LINE
  5
BDB
330
1F
100
AcDbEntity
  8
2
  6
CONTINUOUS
370
25
 62
7
100
AcDbLine
 10
54.63174603680733
 20
24.49865079263854
 30
0.0
 11
55.0
 21
24.86690475583121
 31
0.0
  0
LINE
  5
BDC
330
1F
100
AcDbEntity
  8
2
  6
CONTINUOUS
370
25
 62
7
100
AcDbLine
 10
54.27819264621405
 20
24.56936147075719
 30
0.0
 11
55.0
 21
25.29116882454314
 31
0.0
  0
LINE
  5
BDD
330
1F
100
AcDbEntity
  8
2
  6
CONTINUOUS
370
25
 62
7
100
AcDbLine
 10
53.92463925562078
 20
24.64007214887584
 30
0.0
 11
55.0
 21
25.71543289325507
 31
0.0
  0
LINE
  5
BDE
330
1F
100
AcDbEntity
  8
2
  6
CONTINUOUS
370
25
 62
7
100
AcDbLine
 10
53.5710858650275
 20
24.7107828269945
 30
0.0
 11
55.0
 21
26.139696961967
 31
0.0
  0
LINE
  5
BDF
330
1F
100
AcDbEntity
  8
2
  6
CONTINUOUS
370
25
 62
7
100
AcDbLine
 10
53.21753247443423
 20
24.78149350511315
 30
0.0
 11
54.82629871165135
 21
26.39025974233027
 31
0.0
  0
LINE
  5
BE0
330
1F
100
AcDbEntity
  8
2
  6
CONTINUOUS
370
25
 62
7
100
AcDbLine
 10
52.86397908384096
 20
24.85220418323181
 30
0.0
 11
54.29596862576144
 21
26.28419372515229
 31
0.0
  0
LINE
  5
BE1
330
1F
100
AcDbEntity
  8
2
  6
CONTINUOUS
370
25
 62
7
100
AcDbLine
 10
52.51042569324768
 20
24.92291486135046
 30
0.0
 11
53.76563853987153
 21
26.1781277079743
 31
0.0
  0
LINE
  5
BE2
330
1F
100
AcDbEntity
  8
2
  6
CONTINUOUS
370
25
 62
7
100
AcDbLine
 10
52.15687230265441
 20
24.99362553946911
 30
0.0
 11
53.23530845398162
 21
26.07206169079632
 31
0.0
  0
LINE
  5
BE3
330
1F
100
AcDbEntity
  8
2
  6
CONTINUOUS
370
25
 62
7
100
AcDbLine
 10
51.80331891206114
 20
25.06433621758777
 30
0.0
 11
52.70497836809171
 21
25.96599567361834
 31
0.0
  0
LINE
  5
BE4
330
1F
100
AcDbEntity
  8
2
  6
CONTINUOUS
370
25
 62
7
100
AcDbLine
 10
51.44976552146787
 20
25.13504689570642
 30
0.0
 11
52.1746482822018
 21
25.85992965644036
 31
0.0
  0
LINE
  5
BE5
330
1F
100
AcDbEntity
  8
2
  6
CONTINUOUS
370
25
 62
7
100
AcDbLine
 10
51.09621213087459
 20
25.20575757382508
 30
0.0
 11
51.64431819631189
 21
25.75386363926238
 31
0.0
  0
LINE
  5
BE6
330
1F
100
AcDbEntity
  8
2
  6
CONTINUOUS
370
25
 62
7
100
AcDbLine
 10
50.74265874028131
 20
25.27646825194374
 30
0.0
 11
51.11398811042198
 21
25.6477976220844
 31
0.0
  0
LINE
  5
BE7
330
1F
100
AcDbEntity
  8
2
  6
CONTINUOUS
370
25
 62
7
100
AcDbLine
 10
50.38910534968804
 20
25.34717893006239
 30
0.0
 11
50.58365802453207
 21
25.54173160490642
 31
0.0
  0
LINE
  5
BE8
330
1F
100
AcDbEntity
  8
2
  6
CONTINUOUS
370
25
 62
7
100
AcDbLine
 10
50.03555195909478
 20
25.41788960818105
 30
0.0
 11
50.05332793864216
 21
25.43566558772843
 31
0.0
  0
LINE
  5
BE9
330
1F
100
AcDbEntity
  8
2
  6
CONTINUOUS
370
25
 62
7
100
AcDbLine
 10
50.08695883028759
 20
25.44239176605752
 30
0.0
 11
50.13043824543139
 21
25.39891235091372
 31
0.0
  0
LINE
  5
BEA
330
1F
100
AcDbEntity
  8
2
  6
CONTINUOUS
370
25
 62
7
100
AcDbLine
 10
50.44051222088088
 20
25.51310244417618
 30
0.0
 11
50.66076833132131
 21
25.29284633373574
 31
0.0
  0
LINE
  5
BEB
330
1F
100
AcDbEntity
  8
2
  6
CONTINUOUS
370
25
 62
7
100
AcDbLine
 10
50.79406561147414
 20
25.58381312229483
 30
0.0
 11
51.19109841721121
 21
25.18678031655776
 31
0.0
  0
LINE
  5
BEC
330
1F
100
AcDbEntity
  8
2
  6
CONTINUOUS
370
25
 62
7
100
AcDbLine
 10
51.14761900206742
 20
25.65452380041349
 30
0.0
 11
51.72142850310113
 21
25.08071429937977
 31
0.0
  0
LINE
  5
BED
330
1F
100
AcDbEntity
  8
2
  6
CONTINUOUS
370
25
 62
7
100
AcDbLine
 10
51.50117239266069
 20
25.72523447853214
 30
0.0
 11
52.25175858899103
 21
24.97464828220179
 31
0.0
  0
LINE
  5
BEE
330
1F
100
AcDbEntity
  8
2
  6
CONTINUOUS
370
25
 62
7
100
AcDbLine
 10
51.85472578325397
 20
25.7959451566508
 30
0.0
 11
52.78208867488095
 21
24.86858226502381
 31
0.0
  0
LINE
  5
BEF
330
1F
100
AcDbEntity
  8
2
  6
CONTINUOUS
370
25
 62
7
100
AcDbLine
 10
52.20827917384723
 20
25.86665583476945
 30
0.0
 11
53.31241876077085
 21
24.76251624784583
 31
0.0
  0
LINE
  5
BF0
330
1F
100
AcDbEntity
  8
2
  6
CONTINUOUS
370
25
 62
7
100
AcDbLine
 10
52.56183256444051
 20
25.9373665128881
 30
0.0
 11
53.84274884666076
 21
24.65645023066785
 31
0.0
  0
LINE
  5
BF1
330
1F
100
AcDbEntity
  8
2
  6
CONTINUOUS
370
25
 62
7
100
AcDbLine
 10
52.91538595503378
 20
26.00807719100676
 30
0.0
 11
54.37307893255067
 21
24.55038421348987
 31
0.0
  0
LINE
  5
BF2
330
1F
100
AcDbEntity
  8
2
  6
CONTINUOUS
370
25
 62
7
100
AcDbLine
 10
53.26893934562705
 20
26.07878786912541
 30
0.0
 11
54.90340901844058
 21
24.44431819631188
 31
0.0
  0
LINE
  5
BF3
330
1F
100
AcDbEntity
  8
2
  6
CONTINUOUS
370
25
 62
7
100
AcDbLine
 10
53.62249273622032
 20
26.14949854724406
 30
0.0
 11
55.0
 21
24.77199128346439
 31
0.0
  0
LINE
  5
BF4
330
1F
100
AcDbEntity
  8
2
  6
CONTINUOUS
370
25
 62
7
100
AcDbLine
 10
53.9760461268136
 20
26.22020922536272
 30
0.0
 11
55.0
 21
25.19625535217632
 31
0.0
  0
LINE
  5
BF5
330
1F
100
AcDbEntity
  8
2
  6
CONTINUOUS
370
25
 62
7
100
AcDbLine
 10
54.32959951740688
 20
26.29091990348137
 30
0.0
 11
55.0
 21
25.62051942088825
 31
0.0
  0
LINE
  5
BF6
330
1F
100
AcDbEntity
  8
2
  6
CONTINUOUS
370
25
 62
7
100
AcDbLine
 10
54.68315290800015
 20
26.36163058160003
 30
0.0
 11
55.0
 21
26.04478348960018
 31
0.0
  0
TEXT
  5
BF7
330
1F
100
AcDbEntity
  8
2
  6
CONTINUOUS
370
25
 62
7
100
AcDbText
 10
37.73333333333333
 20
26.925
 30
0.0
 40
3.499999999999998
  1
15.2
 72
     1
 11
42.4
 21
26.925
 31
0.0
100
AcDbText
  0
LINE
  5
BF8
330
1F
100
AcDbEntity
  8
SK2
  6
CONTINUOUS
370
25
 62
7
100
AcDbLine
 10
0.0
 20
1.0
 30
0.0
 11
0.0
 21
36.425
 31
0.0
  0
LINE
  5
BF9
330
1F
100
AcDbEntity
  8
SK2
  6
CONTINUOUS
370
25
 62
7
100
AcDbLine
 10
50.0
 20
36.425
 30
0.0
 11
50.0
 21
2.5
 31
0.0
  0
LINE
  5
BFA
330
1F
100
AcDbEntity
  8
SK2
  6
CONTINUOUS
370
25
 62
7
100
AcDbLine
 10
0.0
 20
35.425
 30
0.0
 11
50.0
 21
35.425
 31
0.0
  0
LINE
  5
BFB
330
1F
100
AcDbEntity
  8
SK2
  6
CONTINUOUS
370
25
 62
7
100
AcDbLine
 10
0.0
 20
35.425
 30
0.0
 11
5.0
 21
36.425
 31
0.0
  0
LINE
  5
BFC
330
1F
100
AcDbEntity
  8
SK2
  6
CONTINUOUS
370
25
 62
7
100
AcDbLine
 10
5.0
 20
36.425
 30
0.0
 11
5.0
 21
34.425
 31
0.0
  0
LINE
  5
BFD
330
1F
100
AcDbEntity
  8
SK2
  6
CONTINUOUS
370
25
 62
7
100
AcDbLine
 10
5.0
 20
34.425
 30
0.0
 11
0.0
 21
35.425
 31
0.0
  0
LINE
  5
BFE
330
1F
100
AcDbEntity
  8
SK2
  6
CONTINUOUS
370
25
 62
7
100
AcDbLine
 10
4.780717963155702
 20
34.46885640736885
 30
0.0
 11
5.0
 21
34.68813844421315
 31
0.0
  0
LINE
  5
BFF
330
1F
100
AcDbEntity
  8
SK2
  6
CONTINUOUS
370
25
 62
7
100
AcDbLine
 10
4.427164572562422
 20
34.5395670854875
 30
0.0
 11
5.0
 21
35.11240251292509
 31
0.0
  0
LINE
  5
C00
330
1F
100
AcDbEntity
  8
SK2
  6
CONTINUOUS
370
25
 62
7
100
AcDbLine
 10
4.073611181969145
 20
34.61027776360616
 30
0.0
 11
5.0
 21
35.53666658163702
 31
0.0
  0
LINE
  5
C01
330
1F
100
AcDbEntity
  8
SK2
  6
CONTINUOUS
370
25
 62
7
100
AcDbLine
 10
3.720057791375876
 20
34.68098844172482
 30
0.0
 11
5.0
 21
35.96093065034894
 31
0.0
  0
LINE
  5
C02
330
1F
100
AcDbEntity
  8
SK2
  6
CONTINUOUS
370
25
 62
7
100
AcDbLine
 10
3.366504400782599
 20
34.75169911984348
 30
0.0
 11
5.0
 21
36.38519471906088
 31
0.0
  0
LINE
  5
C03
330
1F
100
AcDbEntity
  8
SK2
  6
CONTINUOUS
370
25
 62
7
100
AcDbLine
 10
3.012951010189319
 20
34.82240979796213
 30
0.0
 11
4.519426515283985
 21
36.32888530305679
 31
0.0
  0
LINE
  5
C04
330
1F
100
AcDbEntity
  8
SK2
  6
CONTINUOUS
370
25
 62
7
100
AcDbLine
 10
2.659397619596049
 20
34.89312047608078
 30
0.0
 11
3.989096429394085
 21
36.22281928587881
 31
0.0
  0
LINE
  5
C05
330
1F
100
AcDbEntity
  8
SK2
  6
CONTINUOUS
370
25
 62
7
100
AcDbLine
 10
2.305844229002773
 20
34.96383115419944
 30
0.0
 11
3.458766343504166
 21
36.11675326870083
 31
0.0
  0
LINE
  5
C06
330
1F
100
AcDbEntity
  8
SK2
  6
CONTINUOUS
370
25
 62
7
100
AcDbLine
 10
1.952290838409496
 20
35.0345418323181
 30
0.0
 11
2.928436257614248
 21
36.01068725152285
 31
0.0
  0
LINE
  5
C07
330
1F
100
AcDbEntity
  8
SK2
  6
CONTINUOUS
370
25
 62
7
100
AcDbLine
 10
1.598737447816212
 20
35.10525251043675
 30
0.0
 11
2.398106171724329
 21
35.90462123434487
 31
0.0
  0
LINE
  5
C08
330
1F
100
AcDbEntity
  8
SK2
  6
CONTINUOUS
370
25
 62
7
100
AcDbLine
 10
1.245184057222936
 20
35.17596318855541
 30
0.0
 11
1.867776085834414
 21
35.79855521716689
 31
0.0
  0
LINE
  5
C09
330
1F
100
AcDbEntity
  8
SK2
  6
CONTINUOUS
370
25
 62
7
100
AcDbLine
 10
0.8916306666296663
 20
35.24667386667406
 30
0.0
 11
1.337445999944514
 21
35.69248919998891
 31
0.0
  0
LINE
  5
C0A
330
1F
100
AcDbEntity
  8
SK2
  6
CONTINUOUS
370
25
 62
7
100
AcDbLine
 10
0.5380772760363897
 20
35.31738454479272
 30
0.0
 11
0.8071159140545916
 21
35.58642318281092
 31
0.0
  0
LINE
  5
C0B
330
1F
100
AcDbEntity
  8
SK2
  6
CONTINUOUS
370
25
 62
7
100
AcDbLine
 10
0.184523885443113
 20
35.38809522291137
 30
0.0
 11
0.2767858281646767
 21
35.48035716563294
 31
0.0
  0
LINE
  5
C0C
330
1F
100
AcDbEntity
  8
SK2
  6
CONTINUOUS
370
25
 62
7
100
AcDbLine
 10
0.1812450169124347
 20
35.46124900338248
 30
0.0
 11
0.2718675253686556
 21
35.37062649492626
 31
0.0
  0
LINE
  5
C0D
330
1F
100
AcDbEntity
  8
SK2
  6
CONTINUOUS
370
25
 62
7
100
AcDbLine
 10
0.5347984075057113
 20
35.53195968150114
 30
0.0
 11
0.8021976112585705
 21
35.26456047774828
 31
0.0
  0
LINE
  5
C0E
330
1F
100
AcDbEntity
  8
SK2
  6
CONTINUOUS
370
25
 62
7
100
AcDbLine
 10
0.8883517980989879
 20
35.60267035961979
 30
0.0
 11
1.332527697148485
 21
35.1584944605703
 31
0.0
  0
LINE
  5
C0F
330
1F
100
AcDbEntity
  8
SK2
  6
CONTINUOUS
370
25
 62
7
100
AcDbLine
 10
1.241905188692257
 20
35.67338103773845
 30
0.0
 11
1.862857783038393
 21
35.05242844339232
 31
0.0
  0
LINE
  5
C10
330
1F
100
AcDbEntity
  8
SK2
  6
CONTINUOUS
370
25
 62
7
100
AcDbLine
 10
1.595458579285534
 20
35.74409171585711
 30
0.0
 11
2.393187868928308
 21
34.94636242621433
 31
0.0
  0
LINE
  5
C11
330
1F
100
AcDbEntity
  8
SK2
  6
CONTINUOUS
370
25
 62
7
100
AcDbLine
 10
1.949011969878818
 20
35.81480239397576
 30
0.0
 11
2.92351795481822
 21
34.84029640903636
 31
0.0
  0
LINE
  5
C12
330
1F
100
AcDbEntity
  8
SK2
  6
CONTINUOUS
370
25
 62
7
100
AcDbLine
 10
2.302565360472087
 20
35.88551307209442
 30
0.0
 11
3.453848040708124
 21
34.73423039185837
 31
0.0
  0
LINE
  5
C13
330
1F
100
AcDbEntity
  8
SK2
  6
CONTINUOUS
370
25
 62
7
100
AcDbLine
 10
2.656118751065364
 20
35.95622375021307
 30
0.0
 11
3.984178126598035
 21
34.62816437468039
 31
0.0
  0
LINE
  5
C14
330
1F
100
AcDbEntity
  8
SK2
  6
CONTINUOUS
370
25
 62
7
100
AcDbLine
 10
3.00967214165864
 20
36.02693442833173
 30
0.0
 11
4.514508212487947
 21
34.5220983575024
 31
0.0
  0
LINE
  5
C15
330
1F
100
AcDbEntity
  8
SK2
  6
CONTINUOUS
370
25
 62
7
100
AcDbLine
 10
3.363225532251914
 20
36.09764510645039
 30
0.0
 11
5.0
 21
34.46087063870227
 31
0.0
  0
LINE
  5
C16
330
1F
100
AcDbEntity
  8
SK2
  6
CONTINUOUS
370
25
 62
7
100
AcDbLine
 10
3.71677892284519
 20
36.16835578456904
 30
0.0
 11
5.0
 21
34.88513470741421
 31
0.0
  0
LINE
  5
C17
330
1F
100
AcDbEntity
  8
SK2
  6
CONTINUOUS
370
25
 62
7
100
AcDbLine
 10
4.070332313438463
 20
36.2390664626877
 30
0.0
 11
5.0
 21
35.30939877612614
 31
0.0
  0
LINE
  5
C18
330
1F
100
AcDbEntity
  8
SK2
  6
CONTINUOUS
370
25
 62
7
100
AcDbLine
 10
4.42388570403174
 20
36.30977714080635
 30
0.0
 11
5.0
 21
35.73366284483808
 31
0.0
  0
LINE
  5
C19
330
1F
100
AcDbEntity
  8
SK2
  6
CONTINUOUS
370
25
 62
7
100
AcDbLine
 10
4.777439094625013
 20
36.380487818925
 30
0.0
 11
5.0
 21
36.15792691355001
 31
0.0
  0
LINE
  5
C1A
330
1F
100
AcDbEntity
  8
SK2
  6
CONTINUOUS
370
25
 62
7
100
AcDbLine
 10
50.0
 20
35.425
 30
0.0
 11
45.0
 21
34.425
 31
0.0
  0
LINE
  5
C1B
330
1F
100
AcDbEntity
  8
SK2
  6
CONTINUOUS
370
25
 62
7
100
AcDbLine
 10
45.0
 20
34.425
 30
0.0
 11
45.0
 21
36.425
 31
0.0
  0
LINE
  5
C1C
330
1F
100
AcDbEntity
  8
SK2
  6
CONTINUOUS
370
25
 62
7
100
AcDbLine
 10
45.0
 20
36.425
 30
0.0
 11
50.0
 21
35.425
 31
0.0
  0
LINE
  5
C1D
330
1F
100
AcDbEntity
  8
SK2
  6
CONTINUOUS
370
25
 62
7
100
AcDbLine
 10
49.82540587728435
 20
35.39008117545687
 30
0.0
 11
49.88360391818956
 21
35.44827921636208
 31
0.0
  0
LINE
  5
C1E
330
1F
100
AcDbEntity
  8
SK2
  6
CONTINUOUS
370
25
 62
7
100
AcDbLine
 10
49.29507579139444
 20
35.28401515827889
 30
0.0
 11
49.53005052759629
 21
35.51898989448074
 31
0.0
  0
LINE
  5
C1F
330
1F
100
AcDbEntity
  8
SK2
  6
CONTINUOUS
370
25
 62
7
100
AcDbLine
 10
48.76474570550453
 20
35.1779491411009
 30
0.0
 11
49.17649713700302
 21
35.58970057259939
 31
0.0
  0
LINE
  5
C20
330
1F
100
AcDbEntity
  8
SK2
  6
CONTINUOUS
370
25
 62
7
100
AcDbLine
 10
48.23441561961462
 20
35.07188312392292
 30
0.0
 11
48.82294374640974
 21
35.66041125071805
 31
0.0
  0
LINE
  5
C21
330
1F
100
AcDbEntity
  8
SK2
  6
CONTINUOUS
370
25
 62
7
100
AcDbLine
 10
47.70408553372471
 20
34.96581710674494
 30
0.0
 11
48.46939035581647
 21
35.7311219288367
 31
0.0
  0
LINE
  5
C22
330
1F
100
AcDbEntity
  8
SK2
  6
CONTINUOUS
370
25
 62
7
100
AcDbLine
 10
47.1737554478348
 20
34.85975108956696
 30
0.0
 11
48.1158369652232
 21
35.80183260695536
 31
0.0
  0
LINE
  5
C23
330
1F
100
AcDbEntity
  8
SK2
  6
CONTINUOUS
370
25
 62
7
100
AcDbLine
 10
46.64342536194489
 20
34.75368507238898
 30
0.0
 11
47.76228357462992
 21
35.87254328507402
 31
0.0
  0
LINE
  5
C24
330
1F
100
AcDbEntity
  8
SK2
  6
CONTINUOUS
370
25
 62
7
100
AcDbLine
 10
46.11309527605498
 20
34.647619055211
 30
0.0
 11
47.40873018403664
 21
35.94325396319267
 31
0.0
  0
LINE
  5
C25
330
1F
100
AcDbEntity
  8
SK2
  6
CONTINUOUS
370
25
 62
7
100
AcDbLine
 10
45.58276519016507
 20
34.54155303803302
 30
0.0
 11
47.05517679344337
 21
36.01396464131132
 31
0.0
  0
LINE
  5
C26
330
1F
100
AcDbEntity
  8
SK2
  6
CONTINUOUS
370
25
 62
7
100
AcDbLine
 10
45.05243510427516
 20
34.43548702085503
 30
0.0
 11
46.7016234028501
 21
36.08467531942998
 31
0.0
  0
LINE
  5
C27
330
1F
100
AcDbEntity
  8
SK2
  6
CONTINUOUS
370
25
 62
7
100
AcDbLine
 10
45.0
 20
34.8073159852918
 30
0.0
 11
46.34807001225683
 21
36.15538599754863
 31
0.0
  0
LINE
  5
C28
330
1F
100
AcDbEntity
  8
SK2
  6
CONTINUOUS
370
25
 62
7
100
AcDbLine
 10
45.0
 20
35.23158005400373
 30
0.0
 11
45.99451662166355
 21
36.22609667566729
 31
0.0
  0
LINE
  5
C29
330
1F
100
AcDbEntity
  8
SK2
  6
CONTINUOUS
370
25
 62
7
100
AcDbLine
 10
45.0
 20
35.65584412271566
 30
0.0
 11
45.64096323107027
 21
36.29680735378594
 31
0.0
  0
LINE
  5
C2A
330
1F
100
AcDbEntity
  8
SK2
  6
CONTINUOUS
370
25
 62
7
100
AcDbLine
 10
45.0
 20
36.08010819142759
 30
0.0
 11
45.287409840477
 21
36.36751803190459
 31
0.0
  0
LINE
  5
C2B
330
1F
100
AcDbEntity
  8
SK2
  6
CONTINUOUS
370
25
 62
7
100
AcDbLine
 10
45.0
 20
34.77199128346439
 30
0.0
 11
45.289159402887
 21
34.48283188057739
 31
0.0
  0
LINE
  5
C2C
330
1F
100
AcDbEntity
  8
SK2
  6
CONTINUOUS
370
25
 62
7
100
AcDbLine
 10
45.0
 20
35.19625535217633
 30
0.0
 11
45.64271279348028
 21
34.55354255869605
 31
0.0
  0
LINE
  5
C2D
330
1F
100
AcDbEntity
  8
SK2
  6
CONTINUOUS
370
25
 62
7
100
AcDbLine
 10
45.0
 20
35.62051942088826
 30
0.0
 11
45.99626618407355
 21
34.62425323681471
 31
0.0
  0
LINE
  5
C2E
330
1F
100
AcDbEntity
  8
SK2
  6
CONTINUOUS
370
25
 62
7
100
AcDbLine
 10
45.0
 20
36.04478348960019
 30
0.0
 11
46.34981957466682
 21
34.69496391493337
 31
0.0
  0
LINE
  5
C2F
330
1F
100
AcDbEntity
  8
SK2
  6
CONTINUOUS
370
25
 62
7
100
AcDbLine
 10
45.05505944789016
 20
36.41398811042197
 30
0.0
 11
46.7033729652601
 21
34.76567459305202
 31
0.0
  0
LINE
  5
C30
330
1F
100
AcDbEntity
  8
SK2
  6
CONTINUOUS
370
25
 62
7
100
AcDbLine
 10
45.58538953378007
 20
36.30792209324398
 30
0.0
 11
47.05692635585338
 21
34.83638527117067
 31
0.0
  0
LINE
  5
C31
330
1F
100
AcDbEntity
  8
SK2
  6
CONTINUOUS
370
25
 62
7
100
AcDbLine
 10
46.11571961966998
 20
36.201856076066
 30
0.0
 11
47.41047974644665
 21
34.90709594928933
 31
0.0
  0
LINE
  5
C32
330
1F
100
AcDbEntity
  8
SK2
  6
CONTINUOUS
370
25
 62
7
100
AcDbLine
 10
46.64604970555989
 20
36.09579005888801
 30
0.0
 11
47.76403313703992
 21
34.97780662740799
 31
0.0
  0
LINE
  5
C33
330
1F
100
AcDbEntity
  8
SK2
  6
CONTINUOUS
370
25
 62
7
100
AcDbLine
 10
47.1763797914498
 20
35.98972404171003
 30
0.0
 11
48.11758652763319
 21
35.04851730552664
 31
0.0
  0
LINE
  5
C34
330
1F
100
AcDbEntity
  8
SK2
  6
CONTINUOUS
370
25
 62
7
100
AcDbLine
 10
47.7067098773397
 20
35.88365802453205
 30
0.0
 11
48.47113991822647
 21
35.11922798364529
 31
0.0
  0
LINE
  5
C35
330
1F
100
AcDbEntity
  8
SK2
  6
CONTINUOUS
370
25
 62
7
100
AcDbLine
 10
48.23703996322962
 20
35.77759200735407
 30
0.0
 11
48.82469330881974
 21
35.18993866176395
 31
0.0
  0
LINE
  5
C36
330
1F
100
AcDbEntity
  8
SK2
  6
CONTINUOUS
370
25
 62
7
100
AcDbLine
 10
48.76737004911953
 20
35.67152599017609
 30
0.0
 11
49.17824669941302
 21
35.2606493398826
 31
0.0
  0
LINE
  5
C37
330
1F
100
AcDbEntity
  8
SK2
  6
CONTINUOUS
370
25
 62
7
100
AcDbLine
 10
49.29770013500944
 20
35.56545997299811
 30
0.0
 11
49.53180009000629
 21
35.33136001800126
 31
0.0
  0
LINE
  5
C38
330
1F
100
AcDbEntity
  8
SK2
  6
CONTINUOUS
370
25
 62
7
100
AcDbLine
 10
49.82803022089934
 20
35.45939395582013
 30
0.0
 11
49.88535348059956
 21
35.40207069611991
 31
0.0
  0
TEXT
  5
C39
330
1F
100
AcDbEntity
  8
SK2
  6
CONTINUOUS
370
25
 62
7
100
AcDbText
 10
22.375
 20
36.925
 30
0.0
 40
3.5
  1
50
 72
     1
 11
25.0
 21
36.925
 31
0.0
100
AcDbText
  0
LINE
  5
C3A
330
1F
100
AcDbEntity
  8
2
  6
CONTINUOUS
370
25
 62
7
100
AcDbLine
 10
35.0
 20
-2.84995
 30
0.0
 11
34.99999999999999
 21
-26.0
 31
0.0
  0
LINE
  5
C3B
330
1F
100
AcDbEntity
  8
2
  6
CONTINUOUS
370
25
 62
7
100
AcDbLine
 10
50.0
 20
-26.0
 30
0.0
 11
50.0
 21
-2.5
 31
0.0
  0
LINE
  5
C3C
330
1F
100
AcDbEntity
  8
2
  6
CONTINUOUS
370
25
 62
7
100
AcDbLine
 10
28.0
 20
-25.0
 30
0.0
 11
57.0
 21
-25.0
 31
0.0
  0
LINE
  5
C3D
330
1F
100
AcDbEntity
  8
2
  6
CONTINUOUS
370
25
 62
7
100
AcDbLine
 10
34.99999999999999
 20
-25.0
 30
0.0
 11
30.0
 21
-26.0
 31
0.0
  0
LINE
  5
C3E
330
1F
100
AcDbEntity
  8
2
  6
CONTINUOUS
370
25
 62
7
100
AcDbLine
 10
30.0
 20
-26.0
 30
0.0
 11
30.0
 21
-24.0
 31
0.0
  0
LINE
  5
C3F
330
1F
100
AcDbEntity
  8
2
  6
CONTINUOUS
370
25
 62
7
100
AcDbLine
 10
30.0
 20
-24.0
 30
0.0
 11
34.99999999999999
 21
-25.0
 31
0.0
  0
LINE
  5
C40
330
1F
100
AcDbEntity
  8
2
  6
CONTINUOUS
370
25
 62
7
100
AcDbLine
 10
34.65924723534688
 20
-25.06815055293062
 30
0.0
 11
34.77283149023125
 21
-24.95456629804625
 31
0.0
  0
LINE
  5
C41
330
1F
100
AcDbEntity
  8
2
  6
CONTINUOUS
370
25
 62
7
100
AcDbLine
 10
34.12891714945697
 20
-25.17421657010861
 30
0.0
 11
34.41927809963798
 21
-24.8838556199276
 31
0.0
  0
LINE
  5
C42
330
1F
100
AcDbEntity
  8
2
  6
CONTINUOUS
370
25
 62
7
100
AcDbLine
 10
33.59858706356706
 20
-25.28028258728659
 30
0.0
 11
34.0657247090447
 21
-24.81314494180894
 31
0.0
  0
LINE
  5
C43
330
1F
100
AcDbEntity
  8
2
  6
CONTINUOUS
370
25
 62
7
100
AcDbLine
 10
33.06825697767715
 20
-25.38634860446457
 30
0.0
 11
33.71217131845143
 21
-24.74243426369029
 31
0.0
  0
LINE
  5
C44
330
1F
100
AcDbEntity
  8
2
  6
CONTINUOUS
370
25
 62
7
100
AcDbLine
 10
32.53792689178724
 20
-25.49241462164255
 30
0.0
 11
33.35861792785816
 21
-24.67172358557163
 31
0.0
  0
LINE
  5
C45
330
1F
100
AcDbEntity
  8
2
  6
CONTINUOUS
370
25
 62
7
100
AcDbLine
 10
32.00759680589733
 20
-25.59848063882053
 30
0.0
 11
33.00506453726488
 21
-24.60101290745298
 31
0.0
  0
LINE
  5
C46
330
1F
100
AcDbEntity
  8
2
  6
CONTINUOUS
370
25
 62
7
100
AcDbLine
 10
31.47726672000742
 20
-25.70454665599851
 30
0.0
 11
32.65151114667161
 21
-24.53030222933432
 31
0.0
  0
LINE
  5
C47
330
1F
100
AcDbEntity
  8
2
  6
CONTINUOUS
370
25
 62
7
100
AcDbLine
 10
30.94693663411751
 20
-25.8106126731765
 30
0.0
 11
32.29795775607833
 21
-24.45959155121567
 31
0.0
  0
LINE
  5
C48
330
1F
100
AcDbEntity
  8
2
  6
CONTINUOUS
370
25
 62
7
100
AcDbLine
 10
30.4166065482276
 20
-25.91667869035448
 30
0.0
 11
31.94440436548506
 21
-24.38888087309702
 31
0.0
  0
LINE
  5
C49
330
1F
100
AcDbEntity
  8
2
  6
CONTINUOUS
370
25
 62
7
100
AcDbLine
 10
30.0
 20
-25.90902116987015
 30
0.0
 11
31.59085097489179
 21
-24.31817019497836
 31
0.0
  0
LINE
  5
C4A
330
1F
100
AcDbEntity
  8
2
  6
CONTINUOUS
370
25
 62
7
100
AcDbLine
 10
30.0
 20
-25.48475710115822
 30
0.0
 11
31.23729758429851
 21
-24.24745951685971
 31
0.0
  0
LINE
  5
C4B
330
1F
100
AcDbEntity
  8
2
  6
CONTINUOUS
370
25
 62
7
100
AcDbLine
 10
30.0
 20
-25.0604930324463
 30
0.0
 11
30.88374419370524
 21
-24.17674883874105
 31
0.0
  0
LINE
  5
C4C
330
1F
100
AcDbEntity
  8
2
  6
CONTINUOUS
370
25
 62
7
100
AcDbLine
 10
30.0
 20
-24.63622896373437
 30
0.0
 11
30.53019080311197
 21
-24.1060381606224
 31
0.0
  0
LINE
  5
C4D
330
1F
100
AcDbEntity
  8
2
  6
CONTINUOUS
370
25
 62
7
100
AcDbLine
 10
30.0
 20
-24.21196489502244
 30
0.0
 11
30.17663741251869
 21
-24.03532748250374
 31
0.0
  0
LINE
  5
C4E
330
1F
100
AcDbEntity
  8
2
  6
CONTINUOUS
370
25
 62
7
100
AcDbLine
 10
30.0
 20
-25.93328523858208
 30
0.0
 11
30.05559563451493
 21
-25.98888087309701
 31
0.0
  0
LINE
  5
C4F
330
1F
100
AcDbEntity
  8
2
  6
CONTINUOUS
370
25
 62
7
100
AcDbLine
 10
30.0
 20
-25.50902116987015
 30
0.0
 11
30.4091490251082
 21
-25.91817019497836
 31
0.0
  0
LINE
  5
C50
330
1F
100
AcDbEntity
  8
2
  6
CONTINUOUS
370
25
 62
7
100
AcDbLine
 10
30.0
 20
-25.08475710115822
 30
0.0
 11
30.76270241570148
 21
-25.8474595168597
 31
0.0
  0
LINE
  5
C51
330
1F
100
AcDbEntity
  8
2
  6
CONTINUOUS
370
25
 62
7
100
AcDbLine
 10
30.0
 20
-24.6604930324463
 30
0.0
 11
31.11625580629475
 21
-25.77674883874105
 31
0.0
  0
LINE
  5
C52
330
1F
100
AcDbEntity
  8
2
  6
CONTINUOUS
370
25
 62
7
100
AcDbLine
 10
30.0
 20
-24.23622896373437
 30
0.0
 11
31.46980919688802
 21
-25.70603816062239
 31
0.0
  0
LINE
  5
C53
330
1F
100
AcDbEntity
  8
2
  6
CONTINUOUS
370
25
 62
7
100
AcDbLine
 10
30.23504388122194
 20
-24.04700877624439
 30
0.0
 11
31.8233625874813
 21
-25.63532748250374
 31
0.0
  0
LINE
  5
C54
330
1F
100
AcDbEntity
  8
2
  6
CONTINUOUS
370
25
 62
7
100
AcDbLine
 10
30.76537396711186
 20
-24.15307479342237
 30
0.0
 11
32.17691597807457
 21
-25.56461680438509
 31
0.0
  0
LINE
  5
C55
330
1F
100
AcDbEntity
  8
2
  6
CONTINUOUS
370
25
 62
7
100
AcDbLine
 10
31.29570405300176
 20
-24.25914081060035
 30
0.0
 11
32.53046936866784
 21
-25.49390612626643
 31
0.0
  0
LINE
  5
C56
330
1F
100
AcDbEntity
  8
2
  6
CONTINUOUS
370
25
 62
7
100
AcDbLine
 10
31.82603413889167
 20
-24.36520682777834
 30
0.0
 11
32.88402275926111
 21
-25.42319544814778
 31
0.0
  0
LINE
  5
C57
330
1F
100
AcDbEntity
  8
2
  6
CONTINUOUS
370
25
 62
7
100
AcDbLine
 10
32.35636422478158
 20
-24.47127284495632
 30
0.0
 11
33.23757614985439
 21
-25.35248477002912
 31
0.0
  0
LINE
  5
C58
330
1F
100
AcDbEntity
  8
2
  6
CONTINUOUS
370
25
 62
7
100
AcDbLine
 10
32.88669431067149
 20
-24.5773388621343
 30
0.0
 11
33.59112954044766
 21
-25.28177409191047
 31
0.0
  0
LINE
  5
C59
330
1F
100
AcDbEntity
  8
2
  6
CONTINUOUS
370
25
 62
7
100
AcDbLine
 10
33.4170243965614
 20
-24.68340487931228
 30
0.0
 11
33.94468293104094
 21
-25.21106341379181
 31
0.0
  0
LINE
  5
C5A
330
1F
100
AcDbEntity
  8
2
  6
CONTINUOUS
370
25
 62
7
100
AcDbLine
 10
33.94735448245132
 20
-24.78947089649026
 30
0.0
 11
34.29823632163421
 21
-25.14035273567316
 31
0.0
  0
LINE
  5
C5B
330
1F
100
AcDbEntity
  8
2
  6
CONTINUOUS
370
25
 62
7
100
AcDbLine
 10
34.47768456834122
 20
-24.89553691366824
 30
0.0
 11
34.65178971222748
 21
-25.0696420575545
 31
0.0
  0
LINE
  5
C5C
330
1F
100
AcDbEntity
  8
2
  6
CONTINUOUS
370
25
 62
7
100
AcDbLine
 10
50.0
 20
-25.0
 30
0.0
 11
55.0
 21
-24.0
 31
0.0
  0
LINE
  5
C5D
330
1F
100
AcDbEntity
  8
2
  6
CONTINUOUS
370
25
 62
7
100
AcDbLine
 10
55.0
 20
-24.0
 30
0.0
 11
55.0
 21
-26.0
 31
0.0
  0
LINE
  5
C5E
330
1F
100
AcDbEntity
  8
2
  6
CONTINUOUS
370
25
 62
7
100
AcDbLine
 10
55.0
 20
-26.0
 30
0.0
 11
50.0
 21
-25.0
 31
0.0
  0
LINE
  5
C5F
330
1F
100
AcDbEntity
  8
2
  6
CONTINUOUS
370
25
 62
7
100
AcDbLine
 10
54.69626224686724
 20
-25.93925244937345
 30
0.0
 11
55.0
 21
-25.63551469624069
 31
0.0
  0
LINE
  5
C60
330
1F
100
AcDbEntity
  8
2
  6
CONTINUOUS
370
25
 62
7
100
AcDbLine
 10
54.34270885627396
 20
-25.86854177125479
 30
0.0
 11
55.0
 21
-25.21125062752876
 31
0.0
  0
LINE
  5
C61
330
1F
100
AcDbEntity
  8
2
  6
CONTINUOUS
370
25
 62
7
100
AcDbLine
 10
53.98915546568069
 20
-25.79783109313614
 30
0.0
 11
55.0
 21
-24.78698655881683
 31
0.0
  0
LINE
  5
C62
330
1F
100
AcDbEntity
  8
2
  6
CONTINUOUS
370
25
 62
7
100
AcDbLine
 10
53.63560207508742
 20
-25.72712041501748
 30
0.0
 11
55.0
 21
-24.3627224901049
 31
0.0
  0
LINE
  5
C63
330
1F
100
AcDbEntity
  8
2
  6
CONTINUOUS
370
25
 62
7
100
AcDbLine
 10
53.28204868449414
 20
-25.65640973689883
 30
0.0
 11
54.92307302674122
 21
-24.01538539465176
 31
0.0
  0
LINE
  5
C64
330
1F
100
AcDbEntity
  8
2
  6
CONTINUOUS
370
25
 62
7
100
AcDbLine
 10
52.92849529390087
 20
-25.58569905878018
 30
0.0
 11
54.39274294085131
 21
-24.12145141182974
 31
0.0
  0
LINE
  5
C65
330
1F
100
AcDbEntity
  8
2
  6
CONTINUOUS
370
25
 62
7
100
AcDbLine
 10
52.57494190330759
 20
-25.51498838066152
 30
0.0
 11
53.8624128549614
 21
-24.22751742900772
 31
0.0
  0
LINE
  5
C66
330
1F
100
AcDbEntity
  8
2
  6
CONTINUOUS
370
25
 62
7
100
AcDbLine
 10
52.22138851271432
 20
-25.44427770254287
 30
0.0
 11
53.33208276907149
 21
-24.3335834461857
 31
0.0
  0
LINE
  5
C67
330
1F
100
AcDbEntity
  8
2
  6
CONTINUOUS
370
25
 62
7
100
AcDbLine
 10
51.86783512212105
 20
-25.37356702442422
 30
0.0
 11
52.80175268318158
 21
-24.43964946336368
 31
0.0
  0
LINE
  5
C68
330
1F
100
AcDbEntity
  8
2
  6
CONTINUOUS
370
25
 62
7
100
AcDbLine
 10
51.51428173152777
 20
-25.30285634630556
 30
0.0
 11
52.27142259729167
 21
-24.54571548054167
 31
0.0
  0
LINE
  5
C69
330
1F
100
AcDbEntity
  8
2
  6
CONTINUOUS
370
25
 62
7
100
AcDbLine
 10
51.1607283409345
 20
-25.23214566818691
 30
0.0
 11
51.74109251140176
 21
-24.65178149771965
 31
0.0
  0
LINE
  5
C6A
330
1F
100
AcDbEntity
  8
2
  6
CONTINUOUS
370
25
 62
7
100
AcDbLine
 10
50.80717495034123
 20
-25.16143499006825
 30
0.0
 11
51.21076242551185
 21
-24.75784751489763
 31
0.0
  0
LINE
  5
C6B
330
1F
100
AcDbEntity
  8
2
  6
CONTINUOUS
370
25
 62
7
100
AcDbLine
 10
50.45362155974796
 20
-25.09072431194959
 30
0.0
 11
50.68043233962194
 21
-24.86391353207561
 31
0.0
  0
LINE
  5
C6C
330
1F
100
AcDbEntity
  8
2
  6
CONTINUOUS
370
25
 62
7
100
AcDbLine
 10
50.10006816915468
 20
-25.02001363383094
 30
0.0
 11
50.15010225373203
 21
-24.96997954925359
 31
0.0
  0
LINE
  5
C6D
330
1F
100
AcDbEntity
  8
2
  6
CONTINUOUS
370
25
 62
7
100
AcDbLine
 10
50.33257978174415
 20
-24.93348404365117
 30
0.0
 11
50.49886967261622
 21
-25.09977393452325
 31
0.0
  0
LINE
  5
C6E
330
1F
100
AcDbEntity
  8
2
  6
CONTINUOUS
370
25
 62
7
100
AcDbLine
 10
50.68613317233742
 20
-24.86277336553252
 30
0.0
 11
51.02919975850614
 21
-25.20583995170123
 31
0.0
  0
LINE
  5
C6F
330
1F
100
AcDbEntity
  8
2
  6
CONTINUOUS
370
25
 62
7
100
AcDbLine
 10
51.0396865629307
 20
-24.79206268741386
 30
0.0
 11
51.55952984439605
 21
-25.31190596887921
 31
0.0
  0
LINE
  5
C70
330
1F
100
AcDbEntity
  8
2
  6
CONTINUOUS
370
25
 62
7
100
AcDbLine
 10
51.39323995352397
 20
-24.72135200929521
 30
0.0
 11
52.08985993028595
 21
-25.41797198605719
 31
0.0
  0
LINE
  5
C71
330
1F
100
AcDbEntity
  8
2
  6
CONTINUOUS
370
25
 62
7
100
AcDbLine
 10
51.74679334411724
 20
-24.65064133117655
 30
0.0
 11
52.62019001617587
 21
-25.52403800323517
 31
0.0
  0
LINE
  5
C72
330
1F
100
AcDbEntity
  8
2
  6
CONTINUOUS
370
25
 62
7
100
AcDbLine
 10
52.10034673471051
 20
-24.5799306530579
 30
0.0
 11
53.15052010206578
 21
-25.63010402041316
 31
0.0
  0
LINE
  5
C73
330
1F
100
AcDbEntity
  8
2
  6
CONTINUOUS
370
25
 62
7
100
AcDbLine
 10
52.45390012530379
 20
-24.50921997493924
 30
0.0
 11
53.68085018795568
 21
-25.73617003759114
 31
0.0
  0
LINE
  5
C74
330
1F
100
AcDbEntity
  8
2
  6
CONTINUOUS
370
25
 62
7
100
AcDbLine
 10
52.80745351589707
 20
-24.43850929682058
 30
0.0
 11
54.2111802738456
 21
-25.84223605476912
 31
0.0
  0
LINE
  5
C75
330
1F
100
AcDbEntity
  8
2
  6
CONTINUOUS
370
25
 62
7
100
AcDbLine
 10
53.16100690649034
 20
-24.36779861870193
 30
0.0
 11
54.74151035973551
 21
-25.9483020719471
 31
0.0
  0
LINE
  5
C76
330
1F
100
AcDbEntity
  8
2
  6
CONTINUOUS
370
25
 62
7
100
AcDbLine
 10
53.51456029708361
 20
-24.29708794058327
 30
0.0
 11
55.0
 21
-25.78252764349966
 31
0.0
  0
LINE
  5
C77
330
1F
100
AcDbEntity
  8
2
  6
CONTINUOUS
370
25
 62
7
100
AcDbLine
 10
53.86811368767688
 20
-24.22637726246462
 30
0.0
 11
55.0
 21
-25.35826357478773
 31
0.0
  0
LINE
  5
C78
330
1F
100
AcDbEntity
  8
2
  6
CONTINUOUS
370
25
 62
7
100
AcDbLine
 10
54.22166707827016
 20
-24.15566658434597
 30
0.0
 11
55.0
 21
-24.93399950607581
 31
0.0
  0
LINE
  5
C79
330
1F
100
AcDbEntity
  8
2
  6
CONTINUOUS
370
25
 62
7
100
AcDbLine
 10
54.57522046886343
 20
-24.08495590622731
 30
0.0
 11
55.0
 21
-24.50973543736388
 31
0.0
  0
LINE
  5
C7A
330
1F
100
AcDbEntity
  8
2
  6
CONTINUOUS
370
25
 62
7
100
AcDbLine
 10
54.9287738594567
 20
-24.01424522810866
 30
0.0
 11
55.0
 21
-24.08547136865195
 31
0.0
  0
TEXT
  5
C7B
330
1F
100
AcDbEntity
  8
2
  6
CONTINUOUS
370
25
 62
7
100
AcDbText
 10
40.16666666666666
 20
-23.5
 30
0.0
 40
3.5
  1
15
 72
     1
 11
42.49999999999999
 21
-23.5
 31
0.0
100
AcDbText
  0
LINE
  5
C7C
330
1F
100
AcDbEntity
  8
2
  6
CONTINUOUS
370
25
 62
7
100
AcDbLine
 10
49.85355338999999
 20
-2.85355339
 30
0.0
 11
66.99999999832545
 21
-19.99999999832544
 31
0.0
  0
LINE
  5
C7D
330
1F
100
AcDbEntity
  8
2
  6
CONTINUOUS
370
25
 62
7
100
AcDbLine
 10
66.99999999832545
 20
-19.99999999832544
 30
0.0
 11
80.42499999832546
 21
-19.99999999832544
 31
0.0
  0
LINE
  5
C7E
330
1F
100
AcDbEntity
  8
2
  6
CONTINUOUS
370
25
 62
7
100
AcDbLine
 10
49.85355338999999
 20
-2.85355339
 30
0.0
 11
49.49999999940673
 21
-2.499999999406726
 31
0.0
  0
LINE
  5
C7F
330
1F
100
AcDbEntity
  8
2
  6
CONTINUOUS
370
25
 62
7
100
AcDbLine
 10
49.85355338999999
 20
-2.85355339
 30
0.0
 11
54.09619407711928
 21
-5.681980514746187
 31
0.0
  0
LINE
  5
C80
330
1F
100
AcDbEntity
  8
2
  6
CONTINUOUS
370
25
 62
7
100
AcDbLine
 10
54.09619407711928
 20
-5.681980514746187
 30
0.0
 11
52.68198051474619
 21
-7.096194077119283
 31
0.0
  0
LINE
  5
C81
330
1F
100
AcDbEntity
  8
2
  6
CONTINUOUS
370
25
 62
7
100
AcDbLine
 10
52.68198051474619
 20
-7.096194077119283
 30
0.0
 11
49.85355338999999
 21
-2.85355339
 31
0.0
  0
LINE
  5
C82
330
1F
100
AcDbEntity
  8
2
  6
CONTINUOUS
370
25
 62
7
100
AcDbLine
 10
52.60405154739595
 20
-6.979300626093924
 30
0.0
 11
53.97930062609392
 21
-5.604051547395951
 31
0.0
  0
LINE
  5
C83
330
1F
100
AcDbEntity
  8
2
  6
CONTINUOUS
370
25
 62
7
100
AcDbLine
 10
52.43434591991118
 20
-6.724742184866766
 30
0.0
 11
53.72474218486677
 21
-5.434345919911181
 31
0.0
  0
LINE
  5
C84
330
1F
100
AcDbEntity
  8
2
  6
CONTINUOUS
370
25
 62
7
100
AcDbLine
 10
52.26464029242641
 20
-6.470183743639616
 30
0.0
 11
53.47018374363961
 21
-5.264640292426407
 31
0.0
  0
LINE
  5
C85
330
1F
100
AcDbEntity
  8
2
  6
CONTINUOUS
370
25
 62
7
100
AcDbLine
 10
52.09493466494163
 20
-6.215625302412455
 30
0.0
 11
53.21562530241246
 21
-5.094934664941636
 31
0.0
  0
LINE
  5
C86
330
1F
100
AcDbEntity
  8
2
  6
CONTINUOUS
370
25
 62
7
100
AcDbLine
 10
51.92522903745686
 20
-5.961066861185301
 30
0.0
 11
52.9610668611853
 21
-4.925229037456866
 31
0.0
  0
LINE
  5
C87
330
1F
100
AcDbEntity
  8
2
  6
CONTINUOUS
370
25
 62
7
100
AcDbLine
 10
51.7555234099721
 20
-5.706508419958141
 30
0.0
 11
52.70650841995814
 21
-4.755523409972096
 31
0.0
  0
LINE
  5
C88
330
1F
100
AcDbEntity
  8
2
  6
CONTINUOUS
370
25
 62
7
100
AcDbLine
 10
51.58581778248733
 20
-5.451949978730987
 30
0.0
 11
52.45194997873099
 21
-4.585817782487322
 31
0.0
  0
LINE
  5
C89
330
1F
100
AcDbEntity
  8
2
  6
CONTINUOUS
370
25
 62
7
100
AcDbLine
 10
51.41611215500255
 20
-5.19739153750383
 30
0.0
 11
52.19739153750383
 21
-4.416112155002551
 31
0.0
  0
LINE
  5
C8A
330
1F
100
AcDbEntity
  8
2
  6
CONTINUOUS
370
25
 62
7
100
AcDbLine
 10
51.24640652751778
 20
-4.942833096276676
 30
0.0
 11
51.94283309627667
 21
-4.246406527517781
 31
0.0
  0
LINE
  5
C8B
330
1F
100
AcDbEntity
  8
2
  6
CONTINUOUS
370
25
 62
7
100
AcDbLine
 10
51.07670090003301
 20
-4.688274655049515
 30
0.0
 11
51.68827465504951
 21
-4.076700900033011
 31
0.0
  0
LINE
  5
C8C
330
1F
100
AcDbEntity
  8
2
  6
CONTINUOUS
370
25
 62
7
100
AcDbLine
 10
50.90699527254824
 20
-4.433716213822361
 30
0.0
 11
51.43371621382236
 21
-3.90699527254824
 31
0.0
  0
LINE
  5
C8D
330
1F
100
AcDbEntity
  8
2
  6
CONTINUOUS
370
25
 62
7
100
AcDbLine
 10
50.73728964506347
 20
-4.179157772595204
 30
0.0
 11
51.1791577725952
 21
-3.73728964506347
 31
0.0
  0
LINE
  5
C8E
330
1F
100
AcDbEntity
  8
2
  6
CONTINUOUS
370
25
 62
7
100
AcDbLine
 10
50.5675840175787
 20
-3.924599331368047
 30
0.0
 11
50.92459933136804
 21
-3.567584017578699
 31
0.0
  0
LINE
  5
C8F
330
1F
100
AcDbEntity
  8
2
  6
CONTINUOUS
370
25
 62
7
100
AcDbLine
 10
50.39787839009392
 20
-3.670040890140891
 30
0.0
 11
50.67004089014088
 21
-3.397878390093929
 31
0.0
  0
LINE
  5
C90
330
1F
100
AcDbEntity
  8
2
  6
CONTINUOUS
370
25
 62
7
100
AcDbLine
 10
50.22817276260916
 20
-3.415482448913734
 30
0.0
 11
50.41548244891373
 21
-3.228172762609157
 31
0.0
  0
LINE
  5
C91
330
1F
100
AcDbEntity
  8
2
  6
CONTINUOUS
370
25
 62
7
100
AcDbLine
 10
50.05846713512438
 20
-3.160924007686573
 30
0.0
 11
50.16092400768657
 21
-3.058467135124385
 31
0.0
  0
LINE
  5
C92
330
1F
100
AcDbEntity
  8
2
  6
CONTINUOUS
370
25
 62
7
100
AcDbLine
 10
49.88876150763961
 20
-2.906365566459417
 30
0.0
 11
49.90636556645941
 21
-2.888761507639614
 31
0.0
  0
LINE
  5
C93
330
1F
100
AcDbEntity
  8
2
  6
CONTINUOUS
370
25
 62
7
100
AcDbLine
 10
52.19182181697973
 20
-6.3609560304696
 30
0.0
 11
52.8045201891878
 21
-6.973654402677662
 31
0.0
  0
LINE
  5
C94
330
1F
100
AcDbEntity
  8
2
  6
CONTINUOUS
370
25
 62
7
100
AcDbLine
 10
51.34329367955587
 20
-5.088163824333813
 30
0.0
 11
53.01665222354376
 21
-6.761522368321698
 31
0.0
  0
LINE
  5
C95
330
1F
100
AcDbEntity
  8
2
  6
CONTINUOUS
370
25
 62
7
100
AcDbLine
 10
50.49476554213201
 20
-3.815371618198029
 30
0.0
 11
53.22878425789973
 21
-6.549390333965734
 31
0.0
  0
LINE
  5
C96
330
1F
100
AcDbEntity
  8
2
  6
CONTINUOUS
370
25
 62
7
100
AcDbLine
 10
50.16452736793775
 20
-3.060869375291839
 30
0.0
 11
53.44091629225569
 21
-6.337258299609777
 31
0.0
  0
LINE
  5
C97
330
1F
100
AcDbEntity
  8
2
  6
CONTINUOUS
370
25
 62
7
100
AcDbLine
 10
51.43731957407354
 20
-3.909397512715694
 30
0.0
 11
53.65304832661165
 21
-6.12512626525381
 31
0.0
  0
LINE
  5
C98
330
1F
100
AcDbEntity
  8
2
  6
CONTINUOUS
370
25
 62
7
100
AcDbLine
 10
52.71011178020932
 20
-4.757925650139549
 30
0.0
 11
53.86518036096762
 21
-5.912994230897846
 31
0.0
  0
LINE
  5
C99
330
1F
100
AcDbEntity
  8
2
  6
CONTINUOUS
370
25
 62
7
100
AcDbLine
 10
53.98290398634511
 20
-5.606453787563403
 30
0.0
 11
54.07731239532359
 21
-5.70086219654188
 31
0.0
  0
TEXT
  5
C9A
330
1F
100
AcDbEntity
  8
2
  6
CONTINUOUS
370
25
 62
7
100
AcDbText
 10
68.75416666499213
 20
-18.49999999832544
 30
0.0
 40
3.5
  1
R0.5
 72
     1
 11
73.71249999832546
 21
-18.49999999832544
 31
0.0
100
AcDbText
  0
LINE
  5
C9B
330
1F
100
AcDbEntity
  8
SK1
  6
CONTINUOUS
370
50
 62
4
100
AcDbLine
 10
34.8
 20
0.0
 30
0.0
 11
36.55
 21
0.0
 31
0.0
  0
LINE
  5
C9C
330
1F
100
AcDbEntity
  8
SK1
  6
CONTINUOUS
370
50
 62
4
100
AcDbLine
 10
34.8
 20
0.0
 30
0.0
 11
34.8
 21
1.75
 31
0.0
  0
ARC
  5
C9D
330
1F
100
AcDbEntity
  8
SK1
  6
CONTINUOUS
370
50
 62
4
100
AcDbCircle
 10
34.8
 20
0.0
 30
0.0
 40
1.75
100
AcDbArc
 50
0.0
 51
90.0
  0
LINE
  5
C9E
330
1F
100
AcDbEntity
  8
SK1
  6
CONTINUOUS
370
50
 62
4
100
AcDbLine
 10
34.8
 20
0.0
 30
0.0
 11
33.05
 21
0.0
 31
0.0
  0
ARC
  5
C9F
330
1F
100
AcDbEntity
  8
SK1
  6
CONTINUOUS
370
50
 62
4
100
AcDbCircle
 10
34.8
 20
0.0
 30
0.0
 40
1.75
100
AcDbArc
 50
180.0
 51
270.0
  0
LINE
  5
CA0
330
1F
100
AcDbEntity
  8
SK1
  6
CONTINUOUS
370
50
 62
4
100
AcDbLine
 10
34.8
 20
-1.75
 30
0.0
 11
34.8
 21
0.0
 31
0.0
  0
ARC
  5
CA1
330
1F
100
AcDbEntity
  8
SK1
  6
CONTINUOUS
370
50
 62
4
100
AcDbCircle
 10
34.8
 20
0.0
 30
0.0
 40
1.75
100
AcDbArc
 50
270.0
 51
0.0
  0
ARC
  5
CA2
330
1F
100
AcDbEntity
  8
SK1
  6
CONTINUOUS
370
50
 62
4
100
AcDbCircle
 10
34.8
 20
0.0
 30
0.0
 40
1.75
100
AcDbArc
 50
90.0
 51
180.0
  0
LINE
  5
CA3
330
1F
100
AcDbEntity
  8
SK1
  6
CONTINUOUS
370
50
 62
4
100
AcDbLine
 10
34.57717274741573
 20
-1.73564731720198
 30
0.0
 11
34.8
 21
-1.512820064617713
 31
0.0
  0
LINE
  5
CA4
330
1F
100
AcDbEntity
  8
SK1
  6
CONTINUOUS
370
50
 62
4
100
AcDbLine
 10
36.31282006461771
 20
0.0
 30
0.0
 11
36.53564731720198
 21
0.2228272525842674
 31
0.0
  0
LINE
  5
CA5
330
1F
100
AcDbEntity
  8
SK1
  6
CONTINUOUS
370
50
 62
4
100
AcDbLine
 10
34.36930380681873
 20
-1.69602888438369
 30
0.0
 11
34.8
 21
-1.265332691202421
 31
0.0
  0
LINE
  5
CA6
330
1F
100
AcDbEntity
  8
SK1
  6
CONTINUOUS
370
50
 62
4
100
AcDbLine
 10
36.06533269120241
 20
0.0
 30
0.0
 11
36.49602888438368
 21
0.4306961931812696
 31
0.0
  0
LINE
  5
CA7
330
1F
100
AcDbEntity
  8
SK1
  6
CONTINUOUS
370
50
 62
4
100
AcDbLine
 10
34.18148340435764
 20
-1.636361913429485
 30
0.0
 11
34.8
 21
-1.01784531778713
 31
0.0
  0
LINE
  5
CA8
330
1F
100
AcDbEntity
  8
SK1
  6
CONTINUOUS
370
50
 62
4
100
AcDbLine
 10
35.81784531778712
 20
0.0
 30
0.0
 11
36.43636191342948
 21
0.6185165956423557
 31
0.0
  0
LINE
  5
CA9
330
1F
100
AcDbEntity
  8
SK1
  6
CONTINUOUS
370
50
 62
4
100
AcDbLine
 10
34.0098551094628
 20
-1.560502834909039
 30
0.0
 11
34.8
 21
-0.7703579443718382
 31
0.0
  0
LINE
  5
CAA
330
1F
100
AcDbEntity
  8
SK1
  6
CONTINUOUS
370
50
 62
4
100
AcDbLine
 10
35.57035794437184
 20
0.0
 30
0.0
 11
36.36050283490903
 21
0.7901448905372013
 31
0.0
  0
LINE
  5
CAB
330
1F
100
AcDbEntity
  8
SK1
  6
CONTINUOUS
370
50
 62
4
100
AcDbLine
 10
33.85217783219446
 20
-1.470692738762079
 30
0.0
 11
34.8
 21
-0.5228705709565462
 31
0.0
  0
LINE
  5
CAC
330
1F
100
AcDbEntity
  8
SK1
  6
CONTINUOUS
370
50
 62
4
100
AcDbLine
 10
35.32287057095655
 20
0.0
 30
0.0
 11
36.27069273876207
 21
0.947822167805533
 31
0.0
  0
LINE
  5
CAD
330
1F
100
AcDbEntity
  8
SK1
  6
CONTINUOUS
370
50
 62
4
100
AcDbLine
 10
33.70842956711547
 20
-1.366953630425777
 30
0.0
 11
34.8
 21
-0.2753831975412551
 31
0.0
  0
LINE
  5
CAE
330
1F
100
AcDbEntity
  8
SK1
  6
CONTINUOUS
370
50
 62
4
100
AcDbLine
 10
35.07538319754125
 20
0.0
 30
0.0
 11
36.16695363042577
 21
1.091570432884522
 31
0.0
  0
LINE
  5
CAF
330
1F
100
AcDbEntity
  8
SK1
  6
CONTINUOUS
370
50
 62
4
100
AcDbLine
 10
33.57712164538165
 20
-1.25077417874432
 30
0.0
 11
34.8
 21
-0.0278958241259639
 31
0.0
  0
LINE
  5
CB0
330
1F
100
AcDbEntity
  8
SK1
  6
CONTINUOUS
370
50
 62
4
100
AcDbLine
 10
34.82789582412596
 20
0.0
 30
0.0
 11
36.05077417874432
 21
1.222878354618356
 31
0.0
  0
LINE
  5
CB1
330
1F
100
AcDbEntity
  8
SK1
  6
CONTINUOUS
370
50
 62
4
100
AcDbLine
 10
33.45784030371346
 20
-1.122568146997212
 30
0.0
 11
34.58040845071067
 21
0.0
 31
0.0
  0
LINE
  5
CB2
330
1F
100
AcDbEntity
  8
SK1
  6
CONTINUOUS
370
50
 62
4
100
AcDbLine
 10
34.8
 20
0.2195915492893277
 30
0.0
 11
35.92256814699721
 21
1.34215969628654
 31
0.0
  0
LINE
  5
CB3
330
1F
100
AcDbEntity
  8
SK1
  6
CONTINUOUS
370
50
 62
4
100
AcDbLine
 10
33.35188167231256
 20
-0.9810394049828186
 30
0.0
 11
34.33292107729538
 21
0.0
 31
0.0
  0
LINE
  5
CB4
330
1F
100
AcDbEntity
  8
SK1
  6
CONTINUOUS
370
50
 62
4
100
AcDbLine
 10
34.8
 20
0.4670789227046193
 30
0.0
 11
35.78103940498281
 21
1.448118327687438
 31
0.0
  0
LINE
  5
CB5
330
1F
100
AcDbEntity
  8
SK1
  6
CONTINUOUS
370
50
 62
4
100
AcDbLine
 10
33.25832908651575
 20
-0.8271046173643402
 30
0.0
 11
34.08543370388008
 21
0.0
 31
0.0
  0
LINE
  5
CB6
330
1F
100
AcDbEntity
  8
SK1
  6
CONTINUOUS
370
50
 62
4
100
AcDbLine
 10
34.8
 20
0.71456629611991
 30
0.0
 11
35.62710461736434
 21
1.54167091348425
 31
0.0
  0
LINE
  5
CB7
330
1F
100
AcDbEntity
  8
SK1
  6
CONTINUOUS
370
50
 62
4
100
AcDbLine
 10
33.17918473824204
 20
-0.6587615922227528
 30
0.0
 11
33.8379463304648
 21
0.0
 31
0.0
  0
LINE
  5
CB8
330
1F
100
AcDbEntity
  8
SK1
  6
CONTINUOUS
370
50
 62
4
100
AcDbLine
 10
34.8
 20
0.9620536695352015
 30
0.0
 11
35.45876159222275
 21
1.620815261757954
 31
0.0
  0
LINE
  5
CB9
330
1F
100
AcDbEntity
  8
SK1
  6
CONTINUOUS
370
50
 62
4
100
AcDbLine
 10
33.11629687706963
 20
-0.474162079979876
 30
0.0
 11
33.59045895704951
 21
0.0
 31
0.0
  0
LINE
  5
CBA
330
1F
100
AcDbEntity
  8
SK1
  6
CONTINUOUS
370
50
 62
4
100
AcDbLine
 10
34.8
 20
1.209541042950494
 30
0.0
 11
35.27416207997987
 21
1.683703122930369
 31
0.0
  0
LINE
  5
CBB
330
1F
100
AcDbEntity
  8
SK1
  6
CONTINUOUS
370
50
 62
4
100
AcDbLine
 10
33.07198100434271
 20
-0.2709905792915031
 30
0.0
 11
33.34297158363422
 21
0.0
 31
0.0
  0
LINE
  5
CBC
330
1F
100
AcDbEntity
  8
SK1
  6
CONTINUOUS
370
50
 62
4
100
AcDbLine
 10
34.8
 20
1.457028416365784
 30
0.0
 11
35.0709905792915
 21
1.728018995657286
 31
0.0
  0
LINE
  5
CBD
330
1F
100
AcDbEntity
  8
SK1
  6
CONTINUOUS
370
50
 62
4
100
AcDbLine
 10
33.0513858468978
 20
-0.0440983633211194
 30
0.0
 11
33.09548421021892
 21
0.0
 31
0.0
  0
LINE
  5
CBE
330
1F
100
AcDbEntity
  8
SK1
  6
CONTINUOUS
370
50
 62
4
100
AcDbLine
 10
34.8
 20
1.704515789781075
 30
0.0
 11
34.84409836332112
 21
1.748614153102194
 31
0.0
  0
LINE
  5
CBF
330
1F
100
AcDbEntity
  8
SK1
  6
CONTINUOUS
370
50
 62
4
100
AcDbLine
 10
33.16386517603681
 20
-0.6191473609004006
 30
0.0
 11
34.1808526390996
 21
-1.636134823963186
 31
0.0
  0
LINE
  5
CC0
330
1F
100
AcDbEntity
  8
SK1
  6
CONTINUOUS
370
50
 62
4
100
AcDbLine
 10
33.07363430643545
 20
-0.2814291178837463
 30
0.0
 11
34.51857088211625
 21
-1.726365693564548
 31
0.0
  0
LINE
  5
CC1
330
1F
100
AcDbEntity
  8
SK1
  6
CONTINUOUS
370
50
 62
4
100
AcDbLine
 10
33.05033443431149
 20
-0.0106418723445003
 30
0.0
 11
34.7893581276555
 21
-1.749665565688503
 31
0.0
  0
LINE
  5
CC2
330
1F
100
AcDbEntity
  8
SK1
  6
CONTINUOUS
370
50
 62
4
100
AcDbLine
 10
33.28717993538228
 20
0.0
 30
0.0
 11
34.8
 21
-1.51282006461771
 31
0.0
  0
LINE
  5
CC3
330
1F
100
AcDbEntity
  8
SK1
  6
CONTINUOUS
370
50
 62
4
100
AcDbLine
 10
33.53466730879758
 20
0.0
 30
0.0
 11
34.8
 21
-1.265332691202418
 31
0.0
  0
LINE
  5
CC4
330
1F
100
AcDbEntity
  8
SK1
  6
CONTINUOUS
370
50
 62
4
100
AcDbLine
 10
33.78215468221287
 20
0.0
 30
0.0
 11
34.8
 21
-1.017845317787128
 31
0.0
  0
LINE
  5
CC5
330
1F
100
AcDbEntity
  8
SK1
  6
CONTINUOUS
370
50
 62
4
100
AcDbLine
 10
34.02964205562816
 20
0.0
 30
0.0
 11
34.8
 21
-0.7703579443718369
 31
0.0
  0
LINE
  5
CC6
330
1F
100
AcDbEntity
  8
SK1
  6
CONTINUOUS
370
50
 62
4
100
AcDbLine
 10
34.27712942904345
 20
0.0
 30
0.0
 11
34.8
 21
-0.5228705709565453
 31
0.0
  0
LINE
  5
CC7
330
1F
100
AcDbEntity
  8
SK1
  6
CONTINUOUS
370
50
 62
4
100
AcDbLine
 10
34.52461680245874
 20
0.0
 30
0.0
 11
34.8
 21
-0.2753831975412537
 31
0.0
  0
LINE
  5
CC8
330
1F
100
AcDbEntity
  8
SK1
  6
CONTINUOUS
370
50
 62
4
100
AcDbLine
 10
34.77210417587403
 20
0.0
 30
0.0
 11
34.8
 21
-0.027895824125963
 31
0.0
  0
LINE
  5
CC9
330
1F
100
AcDbEntity
  8
SK1
  6
CONTINUOUS
370
50
 62
4
100
AcDbLine
 10
34.8
 20
0.219591549289329
 30
0.0
 11
35.01959154928932
 21
0.0
 31
0.0
  0
LINE
  5
CCA
330
1F
100
AcDbEntity
  8
SK1
  6
CONTINUOUS
370
50
 62
4
100
AcDbLine
 10
34.8
 20
0.4670789227046202
 30
0.0
 11
35.26707892270462
 21
0.0
 31
0.0
  0
LINE
  5
CCB
330
1F
100
AcDbEntity
  8
SK1
  6
CONTINUOUS
370
50
 62
4
100
AcDbLine
 10
34.8
 20
0.7145662961199113
 30
0.0
 11
35.51456629611991
 21
0.0
 31
0.0
  0
LINE
  5
CCC
330
1F
100
AcDbEntity
  8
SK1
  6
CONTINUOUS
370
50
 62
4
100
AcDbLine
 10
34.8
 20
0.9620536695352029
 30
0.0
 11
35.7620536695352
 21
0.0
 31
0.0
  0
LINE
  5
CCD
330
1F
100
AcDbEntity
  8
SK1
  6
CONTINUOUS
370
50
 62
4
100
AcDbLine
 10
34.8
 20
1.209541042950494
 30
0.0
 11
36.0095410429505
 21
0.0
 31
0.0
  0
LINE
  5
CCE
330
1F
100
AcDbEntity
  8
SK1
  6
CONTINUOUS
370
50
 62
4
100
AcDbLine
 10
34.8
 20
1.457028416365785
 30
0.0
 11
36.25702841636578
 21
0.0
 31
0.0
  0
LINE
  5
CCF
330
1F
100
AcDbEntity
  8
SK1
  6
CONTINUOUS
370
50
 62
4
100
AcDbLine
 10
34.8
 20
1.704515789781076
 30
0.0
 11
36.50451578978107
 21
0.0
 31
0.0
  0
LINE
  5
CD0
330
1F
100
AcDbEntity
  8
SK1
  6
CONTINUOUS
370
50
 62
4
100
AcDbLine
 10
35.01543384193567
 20
1.736569321260697
 30
0.0
 11
36.53656932126069
 21
0.2154338419356714
 31
0.0
  0
LINE
  5
CD1
330
1F
100
AcDbEntity
  8
SK1
  6
CONTINUOUS
370
50
 62
4
100
AcDbLine
 10
35.33283284728993
 20
1.666657689321729
 30
0.0
 11
36.46665768932173
 21
0.5328328472899322
 31
0.0
  0
LINE
  5
CD2
330
1F
100
AcDbEntity
  8
SK1
  6
CONTINUOUS
370
50
 62
4
100
AcDbLine
 10
35.84009874905674
 20
1.406879160970207
 30
0.0
 11
36.2068791609702
 21
1.040098749056747
 31
0.0
  0
LINE
  5
CD3
330
1F
100
AcDbEntity
  8
4
  6
LONGDASH_DASH
370
25
 62
2
100
AcDbLine
 10
34.8
 20
0.0
 30
0.0
 11
50.0
 21
0.0
 31
0.0
  0
LINE
  5
CD4
330
1F
100
AcDbEntity
  8
SK4
  6
LONGDASH_DASH
370
25
 62
2
100
AcDbLine
 10
-6.0
 20
0.0
 30
0.0
 11
56.0
 21
0.0
 31
0.0
  0
ARC
  5
CD5
330
1F
100
AcDbEntity
  8
SK6
  6
CONTINUOUS
370
25
 62
5
100
AcDbCircle
 10
74.4613820083765
 20
-27.84524575338786
 30
0.0
 40
2.76048912849221
100
AcDbArc
 50
338.9379403434233
 51
90.44457437511365
  0
LINE
  5
CD6
330
1F
100
AcDbEntity
  8
SK6
  6
CONTINUOUS
370
25
 62
5
100
AcDbLine
 10
74.43996279695983
 20
-25.08483972421281
 30
0.0
 11
74.43996279695983
 21
-26.18789835613464
 31
0.0
  0
ARC
  5
CD7
330
1F
100
AcDbEntity
  8
SK6
  6
CONTINUOUS
370
25
 62
5
100
AcDbCircle
 10
74.45050902936916
 20
-27.86523924566821
 30
0.0
 40
1.677374043771779
100
AcDbArc
 50
243.4214706017868
 51
90.36024081226083
  0
ARC
  5
CD8
330
1F
100
AcDbEntity
  8
SK6
  6
CONTINUOUS
370
25
 62
5
100
AcDbCircle
 10
76.97275989684958
 20
-27.43383199215561
 30
0.0
 40
3.80021703002276
100
AcDbArc
 50
210.5483731288539
 51
236.97801693668
  0
LINE
  5
CD9
330
1F
100
AcDbEntity
  8
SK6
  6
CONTINUOUS
370
25
 62
5
100
AcDbLine
 10
74.90179068512487
 20
-30.62016781867535
 30
0.0
 11
79.04373096742671
 21
-30.62016781867535
 31
0.0
  0
ARC
  5
CDA
330
1F
100
AcDbEntity
  8
SK6
  6
CONTINUOUS
370
25
 62
5
100
AcDbCircle
 10
76.97276183877257
 20
-27.4338320937346
 30
0.0
 40
3.800216899582472
100
AcDbArc
 50
303.0219828477959
 51
326.3732153033476
  0
LINE
  5
CDB
330
1F
100
AcDbEntity
  8
SK6
  6
CONTINUOUS
370
25
 62
5
100
AcDbLine
 10
80.13705975135723
 20
-29.5383194907709
 30
0.0
 11
76.77976170575462
 21
-29.5383194907709
 31
0.0
  0
LINE
  5
CDC
330
1F
100
AcDbEntity
  8
SK6
  6
CONTINUOUS
370
25
 62
5
100
AcDbLine
 10
76.77976170575462
 20
-29.5383194907709
 30
0.0
 11
80.69962109771987
 21
-28.17691829641694
 31
0.0
  0
ARC
  5
CDD
330
1F
100
AcDbEntity
  8
SK6
  6
CONTINUOUS
370
25
 62
5
100
AcDbCircle
 10
76.97276256157211
 20
-27.4338326048594
 30
0.0
 40
3.800217216614723
100
AcDbArc
 50
348.7238644184696
 51
53.4691051260885
  0
LINE
  5
CDE
330
1F
100
AcDbEntity
  8
SK6
  6
CONTINUOUS
370
25
 62
5
100
AcDbLine
 10
79.23486524538545
 20
-24.38022124429967
 30
0.0
 11
77.03745047882737
 21
-28.83730973507058
 31
0.0
  0
ENDSEC
  0
SECTION
  2
OBJECTS
  0
DICTIONARY
  5
C
330
0
100
AcDbDictionary
281
     1
  3
ACAD_GROUP
350
D
  3
ACAD_LAYOUT
350
1A
  3
ACAD_MATERIAL
350
3B
  3
ACAD_MLEADERSTYLE
350
CE1
  3
ACAD_MLINESTYLE
350
17
  3
ACAD_PLOTSETTINGS
350
19
  3
ACAD_PLOTSTYLENAME
350
E
  3
ACAD_SCALELIST
350
447
  3
ACAD_VISUALSTYLE
350
2A
  3
AcDbVariableDictionary
350
CDF
  0
DICTIONARY
  5
D
102
{ACAD_REACTORS
330
C
102
}
330
C
100
AcDbDictionary
281
     1
  0
DICTIONARY
  5
1A
102
{ACAD_REACTORS
330
C
102
}
330
C
100
AcDbDictionary
281
     1
  3
Layout1
350
1E
  3
Layout2
350
26
  3
Model
350
22
  0
DICTIONARY
  5
3B
102
{ACAD_REACTORS
330
C
102
}
330
C
100
AcDbDictionary
281
     1
  3
ByBlock
350
3D
  3
ByLayer
350
3C
  3
Global
350
3E
  0
DICTIONARY
  5
CE1
102
{ACAD_REACTORS
330
C
102
}
330
C
100
AcDbDictionary
281
     1
  0
DICTIONARY
  5
17
102
{ACAD_REACTORS
330
C
102
}
330
C
100
AcDbDictionary
281
     1
  3
Standard
350
18
  0
DICTIONARY
  5
19
102
{ACAD_REACTORS
330
C
102
}
330
C
100
AcDbDictionary
281
     1
  0
ACDBDICTIONARYWDFLT
  5
E
102
{ACAD_REACTORS
330
C
102
}
330
C
100
AcDbDictionary
281
     1
  3
Normal
350
F
100
AcDbDictionaryWithDefault
340
F
  0
DICTIONARY
  5
447
102
{ACAD_REACTORS
330
C
102
}
330
C
100
AcDbDictionary
281
     1
  3
A0
350
448
  3
A1
350
449
  3
A2
350
44A
  3
A3
350
44B
  3
A4
350
44C
  3
A5
350
44D
  3
A6
350
44E
  3
A7
350
44F
  3
A8
350
450
  3
A9
350
451
  3
B0
350
452
  3
B1
350
453
  3
B2
350
454
  3
B3
350
455
  3
B4
350
456
  3
B5
350
457
  3
B6
350
458
  3
B7
350
459
  3
B8
350
45A
  3
B9
350
45B
  3
C0
350
45C
  3
C1
350
45D
  3
C2
350
45E
  3
C3
350
45F
  3
C4
350
460
  3
C5
350
461
  3
C6
350
462
  3
C7
350
463
  3
C8
350
464
  3
C9
350
465
  3
D0
350
466
  3
D1
350
467
  3
D2
350
468
  0
DICTIONARY
  5
2A
102
{ACAD_REACTORS
330
C
102
}
330
C
100
AcDbDictionary
281
     1
  3
2dWireframe
350
2F
  3
3D Hidden
350
31
  3
3dWireframe
350
30
  3
Basic
350
32
  3
Brighten
350
36
  3
ColorChange
350
3A
  3
Conceptual
350
34
  3
Dim
350
35
  3
Facepattern
350
39
  3
Flat
350
2B
  3
FlatWithEdges
350
2C
  3
Gouraud
350
2D
  3
GouraudWithEdges
350
2E
  3
Linepattern
350
38
  3
Realistic
350
33
  3
Thicken
350
37
  0
DICTIONARY
  5
CDF
102
{ACAD_REACTORS
330
C
102
}
330
C
100
AcDbDictionary
281
     1
  3
CANNOSCALE
350
CE4
  3
DIMASSOC
350
CE5
  3
HIDETEXT
350
CE6
  3
PSOLHEIGHT
350
CE3
  3
PSOLWIDTH
350
CE2
  0
LAYOUT
  5
1E
102
{ACAD_REACTORS
330
1A
102
}
330
1A
100
AcDbPlotSettings
  1

  2
none_device
  4

  6

 40
0.0
 41
0.0
 42
0.0
 43
0.0
 44
0.0
 45
0.0
 46
0.0
 47
0.0
 48
0.0
 49
0.0
140
0.0
141
0.0
142
1.0
143
1.0
 70
   688
 72
     0
 73
     0
 74
     5
  7

 75
    16
147
1.0
148
0.0
149
0.0
100
AcDbLayout
  1
Layout1
 70
     1
 71
     1
 10
0.0
 20
0.0
 11
420.0
 21
297.0
 12
0.0
 22
0.0
 32
0.0
 14
1.000000000000000E+20
 24
1.000000000000000E+20
 34
1.000000000000000E+20
 15
-1.000000000000000E+20
 25
-1.000000000000000E+20
 35
-1.000000000000000E+20
146
0.0
 13
0.0
 23
0.0
 33
0.0
 16
1.0
 26
0.0
 36
0.0
 17
0.0
 27
1.0
 37
0.0
 76
     0
330
1B
  0
LAYOUT
  5
26
102
{ACAD_REACTORS
330
1A
102
}
330
1A
100
AcDbPlotSettings
  1

  2
none_device
  4

  6

 40
0.0
 41
0.0
 42
0.0
 43
0.0
 44
0.0
 45
0.0
 46
0.0
 47
0.0
 48
0.0
 49
0.0
140
0.0
141
0.0
142
1.0
143
1.0
 70
   688
 72
     0
 73
     0
 74
     5
  7

 75
    16
147
1.0
148
0.0
149
0.0
100
AcDbLayout
  1
Layout2
 70
     1
 71
     2
 10
0.0
 20
0.0
 11
0.0
 21
0.0
 12
0.0
 22
0.0
 32
0.0
 14
0.0
 24
0.0
 34
0.0
 15
0.0
 25
0.0
 35
0.0
146
0.0
 13
0.0
 23
0.0
 33
0.0
 16
1.0
 26
0.0
 36
0.0
 17
0.0
 27
1.0
 37
0.0
 76
     0
330
23
  0
LAYOUT
  5
22
102
{ACAD_REACTORS
330
1A
102
}
330
1A
100
AcDbPlotSettings
  1

  2
none_device
  4

  6

 40
0.0
 41
0.0
 42
0.0
 43
0.0
 44
0.0
 45
0.0
 46
0.0
 47
0.0
 48
0.0
 49
0.0
140
0.0
141
0.0
142
1.0
143
1.0
 70
  1712
 72
     0
 73
     0
 74
     0
  7

 75
     0
147
1.0
148
0.0
149
0.0
100
AcDbLayout
  1
Model
 70
     1
 71
     0
 10
0.0
 20
0.0
 11
420.0
 21
297.0
 12
0.0
 22
0.0
 32
0.0
 14
0.0
 24
0.0
 34
0.0
 15
25.0
 25
35.0
 35
0.0
146
0.0
 13
0.0
 23
0.0
 33
0.0
 16
1.0
 26
0.0
 36
0.0
 17
0.0
 27
1.0
 37
0.0
 76
     0
330
1F
331
29
  0
MATERIAL
  5
3D
102
{ACAD_REACTORS
330
3B
102
}
102
{ACAD_XDICTIONARY
360
D09
102
}
330
3B
100
AcDbMaterial
  1
ByBlock
  0
MATERIAL
  5
3C
102
{ACAD_REACTORS
330
3B
102
}
102
{ACAD_XDICTIONARY
360
D07
102
}
330
3B
100
AcDbMaterial
  1
ByLayer
  0
MATERIAL
  5
3E
102
{ACAD_REACTORS
330
3B
102
}
102
{ACAD_XDICTIONARY
360
D0B
102
}
330
3B
100
AcDbMaterial
  1
Global
  0
MLINESTYLE
  5
18
102
{ACAD_REACTORS
330
17
102
}
330
17
100
AcDbMlineStyle
  2
Standard
 70
     0
  3

 62
   256
 51
90.0
 52
90.0
 71
     2
 49
0.5
 62
   256
  6
BYLAYER
 49
-0.5
 62
   256
  6
BYLAYER
  0
ACDBPLACEHOLDER
  5
F
102
{ACAD_REACTORS
330
E
102
}
330
E
  0
SCALE
  5
448
102
{ACAD_REACTORS
330
447
102
}
330
447
100
AcDbScale
 70
     0
300
1:1
140
1.0
141
1.0
290
     1
  0
SCALE
  5
449
102
{ACAD_REACTORS
330
447
102
}
330
447
100
AcDbScale
 70
     0
300
1:2
140
1.0
141
2.0
290
     0
  0
SCALE
  5
44A
102
{ACAD_REACTORS
330
447
102
}
330
447
100
AcDbScale
 70
     0
300
1:4
140
1.0
141
4.0
290
     0
  0
SCALE
  5
44B
102
{ACAD_REACTORS
330
447
102
}
330
447
100
AcDbScale
 70
     0
300
1:5
140
1.0
141
5.0
290
     0
  0
SCALE
  5
44C
102
{ACAD_REACTORS
330
447
102
}
330
447
100
AcDbScale
 70
     0
300
1:8
140
1.0
141
8.0
290
     0
  0
SCALE
  5
44D
102
{ACAD_REACTORS
330
447
102
}
330
447
100
AcDbScale
 70
     0
300
1:10
140
1.0
141
10.0
290
     0
  0
SCALE
  5
44E
102
{ACAD_REACTORS
330
447
102
}
330
447
100
AcDbScale
 70
     0
300
1:16
140
1.0
141
16.0
290
     0
  0
SCALE
  5
44F
102
{ACAD_REACTORS
330
447
102
}
330
447
100
AcDbScale
 70
     0
300
1:20
140
1.0
141
20.0
290
     0
  0
SCALE
  5
450
102
{ACAD_REACTORS
330
447
102
}
330
447
100
AcDbScale
 70
     0
300
1:30
140
1.0
141
30.0
290
     0
  0
SCALE
  5
451
102
{ACAD_REACTORS
330
447
102
}
330
447
100
AcDbScale
 70
     0
300
1:40
140
1.0
141
40.0
290
     0
  0
SCALE
  5
452
102
{ACAD_REACTORS
330
447
102
}
330
447
100
AcDbScale
 70
     0
300
1:50
140
1.0
141
50.0
290
     0
  0
SCALE
  5
453
102
{ACAD_REACTORS
330
447
102
}
330
447
100
AcDbScale
 70
     0
300
1:100
140
1.0
141
100.0
290
     0
  0
SCALE
  5
454
102
{ACAD_REACTORS
330
447
102
}
330
447
100
AcDbScale
 70
     0
300
2:1
140
2.0
141
1.0
290
     0
  0
SCALE
  5
455
102
{ACAD_REACTORS
330
447
102
}
330
447
100
AcDbScale
 70
     0
300
4:1
140
4.0
141
1.0
290
     0
  0
SCALE
  5
456
102
{ACAD_REACTORS
330
447
102
}
330
447
100
AcDbScale
 70
     0
300
8:1
140
8.0
141
1.0
290
     0
  0
SCALE
  5
457
102
{ACAD_REACTORS
330
447
102
}
330
447
100
AcDbScale
 70
     0
300
10:1
140
10.0
141
1.0
290
     0
  0
SCALE
  5
458
102
{ACAD_REACTORS
330
447
102
}
330
447
100
AcDbScale
 70
     0
300
100:1
140
100.0
141
1.0
290
     0
  0
SCALE
  5
459
102
{ACAD_REACTORS
330
447
102
}
330
447
100
AcDbScale
 70
     0
300
1/128" = 1'-0"
140
0.0078125
141
12.0
290
     0
  0
SCALE
  5
45A
102
{ACAD_REACTORS
330
447
102
}
330
447
100
AcDbScale
 70
     0
300
1/64" = 1'-0"
140
0.015625
141
12.0
290
     0
  0
SCALE
  5
45B
102
{ACAD_REACTORS
330
447
102
}
330
447
100
AcDbScale
 70
     0
300
1/32" = 1'-0"
140
0.03125
141
12.0
290
     0
  0
SCALE
  5
45C
102
{ACAD_REACTORS
330
447
102
}
330
447
100
AcDbScale
 70
     0
300
1/16" = 1'-0"
140
0.0625
141
12.0
290
     0
  0
SCALE
  5
45D
102
{ACAD_REACTORS
330
447
102
}
330
447
100
AcDbScale
 70
     0
300
3/32" = 1'-0"
140
0.09375
141
12.0
290
     0
  0
SCALE
  5
45E
102
{ACAD_REACTORS
330
447
102
}
330
447
100
AcDbScale
 70
     0
300
1/8" = 1'-0"
140
0.125
141
12.0
290
     0
  0
SCALE
  5
45F
102
{ACAD_REACTORS
330
447
102
}
330
447
100
AcDbScale
 70
     0
300
3/16" = 1'-0"
140
0.1875
141
12.0
290
     0
  0
SCALE
  5
460
102
{ACAD_REACTORS
330
447
102
}
330
447
100
AcDbScale
 70
     0
300
1/4" = 1'-0"
140
0.25
141
12.0
290
     0
  0
SCALE
  5
461
102
{ACAD_REACTORS
330
447
102
}
330
447
100
AcDbScale
 70
     0
300
3/8" = 1'-0"
140
0.375
141
12.0
290
     0
  0
SCALE
  5
462
102
{ACAD_REACTORS
330
447
102
}
330
447
100
AcDbScale
 70
     0
300
1/2" = 1'-0"
140
0.5
141
12.0
290
     0
  0
SCALE
  5
463
102
{ACAD_REACTORS
330
447
102
}
330
447
100
AcDbScale
 70
     0
300
3/4" = 1'-0"
140
0.75
141
12.0
290
     0
  0
SCALE
  5
464
102
{ACAD_REACTORS
330
447
102
}
330
447
100
AcDbScale
 70
     0
300
1" = 1'-0"
140
1.0
141
12.0
290
     0
  0
SCALE
  5
465
102
{ACAD_REACTORS
330
447
102
}
330
447
100
AcDbScale
 70
     0
300
1-1/2" = 1'-0"
140
1.5
141
12.0
290
     0
  0
SCALE
  5
466
102
{ACAD_REACTORS
330
447
102
}
330
447
100
AcDbScale
 70
     0
300
3" = 1'-0"
140
3.0
141
12.0
290
     0
  0
SCALE
  5
467
102
{ACAD_REACTORS
330
447
102
}
330
447
100
AcDbScale
 70
     0
300
6" = 1'-0"
140
6.0
141
12.0
290
     0
  0
SCALE
  5
468
102
{ACAD_REACTORS
330
447
102
}
330
447
100
AcDbScale
 70
     0
300
1'-0" = 1'-0"
140
12.0
141
12.0
290
     0
  0
VISUALSTYLE
  5
2F
102
{ACAD_REACTORS
330
2A
102
}
102
{ACAD_XDICTIONARY
360
CEF
102
}
330
2A
100
AcDbVisualStyle
  2
2dWireframe
 70
     4
 71
     0
 72
     2
 73
     0
 90
        0
 40
-0.6
 41
-30.0
 62
     5
 63
     7
 74
     1
 91
        4
 64
     7
 65
   257
 75
     1
175
     1
 42
1.0
 92
        0
 66
   257
 43
1.0
 76
     1
 77
     6
 78
     2
 67
     7
 79
     5
170
     0
171
     0
290
     0
174
     0
 93
        1
 44
0.0
173
     0
291
     0
 45
0.0
1001
ACAD
1000
AcDbSavedByObjectVersion
1070
     0
  0
VISUALSTYLE
  5
31
102
{ACAD_REACTORS
330
2A
102
}
102
{ACAD_XDICTIONARY
360
CF3
102
}
330
2A
100
AcDbVisualStyle
  2
3D Hidden
 70
     6
 71
     1
 72
     2
 73
     2
 90
        0
 40
-0.6
 41
-30.0
 62
     5
 63
     7
 74
     2
 91
        2
 64
     7
 65
   257
 75
     2
175
     1
 42
40.0
 92
        0
 66
   257
 43
1.0
 76
     1
 77
     6
 78
     2
 67
     7
 79
     3
170
     0
171
     0
290
     0
174
     0
 93
        1
 44
0.0
173
     0
291
     0
 45
0.0
1001
ACAD
1000
AcDbSavedByObjectVersion
1070
     0
  0
VISUALSTYLE
  5
30
102
{ACAD_REACTORS
330
2A
102
}
102
{ACAD_XDICTIONARY
360
CF1
102
}
330
2A
100
AcDbVisualStyle
  2
3dWireframe
 70
     5
 71
     0
 72
     2
 73
     0
 90
        0
 40
-0.6
 41
-30.0
 62
     5
 63
     7
 74
     1
 91
        4
 64
     7
 65
   257
 75
     1
175
     1
 42
1.0
 92
        0
 66
   257
 43
1.0
 76
     1
 77
     6
 78
     2
 67
     7
 79
     5
170
     0
171
     0
290
     0
174
     0
 93
        1
 44
0.0
173
     0
291
     0
 45
0.0
1001
ACAD
1000
AcDbSavedByObjectVersion
1070
     0
  0
VISUALSTYLE
  5
32
102
{ACAD_REACTORS
330
2A
102
}
102
{ACAD_XDICTIONARY
360
CF5
102
}
330
2A
100
AcDbVisualStyle
  2
Basic
 70
     7
 71
     1
 72
     0
 73
     1
 90
        0
 40
-0.6
 41
-30.0
 62
     5
 63
     7
 74
     0
 91
        4
 64
     7
 65
   257
 75
     1
175
     1
 42
1.0
 92
        8
 66
     7
 43
1.0
 76
     1
 77
     6
 78
     2
 67
     7
 79
     5
170
     0
171
     0
290
     0
174
     0
 93
        1
 44
0.0
173
     0
291
     1
 45
0.0
1001
ACAD
1000
AcDbSavedByObjectVersion
1070
     0
  0
VISUALSTYLE
  5
36
102
{ACAD_REACTORS
330
2A
102
}
102
{ACAD_XDICTIONARY
360
CFD
102
}
330
2A
100
AcDbVisualStyle
  2
Brighten
 70
    12
 71
     2
 72
     2
 73
     0
 90
        0
 40
-0.6
 41
-30.0
 62
     5
 63
     7
 74
     1
 91
        4
 64
     7
 65
   257
 75
     1
175
     1
 42
1.0
 92
        8
 66
     7
 43
1.0
 76
     1
 77
     6
 78
     2
 67
     7
 79
     5
170
     0
171
     0
290
     0
174
     0
 93
        1
 44
50.0
173
     0
291
     1
 45
0.0
1001
ACAD
1000
AcDbSavedByObjectVersion
1070
     0
  0
VISUALSTYLE
  5
3A
102
{ACAD_REACTORS
330
2A
102
}
102
{ACAD_XDICTIONARY
360
D05
102
}
330
2A
100
AcDbVisualStyle
  2
ColorChange
 70
    16
 71
     2
 72
     2
 73
     3
 90
        0
 40
-0.6
 41
-30.0
 62
     5
 63
     8
 74
     1
 91
        4
 64
     7
 65
   257
 75
     1
175
     1
 42
1.0
 92
        8
 66
     8
 43
1.0
 76
     1
 77
     6
 78
     2
 67
     7
 79
     5
170
     0
171
     0
290
     0
174
     0
 93
        1
 44
0.0
173
     0
291
     1
 45
0.0
1001
ACAD
1000
AcDbSavedByObjectVersion
1070
     0
  0
VISUALSTYLE
  5
34
102
{ACAD_REACTORS
330
2A
102
}
102
{ACAD_XDICTIONARY
360
CF9
102
}
330
2A
100
AcDbVisualStyle
  2
Conceptual
 70
     9
 71
     3
 72
     2
 73
     0
 90
        0
 40
-0.6
 41
-30.0
 62
     5
 63
     7
 74
     2
 91
        2
 64
     7
 65
   257
 75
     1
175
     1
 42
40.0
 92
        8
 66
     7
 43
1.0
 76
     1
 77
     6
 78
     2
 67
     7
 79
     3
170
     0
171
     0
290
     0
174
     0
 93
        1
 44
0.0
173
     0
291
     0
 45
0.0
1001
ACAD
1000
AcDbSavedByObjectVersion
1070
     0
  0
VISUALSTYLE
  5
35
102
{ACAD_REACTORS
330
2A
102
}
102
{ACAD_XDICTIONARY
360
CFB
102
}
330
2A
100
AcDbVisualStyle
  2
Dim
 70
    11
 71
     2
 72
     2
 73
     0
 90
        0
 40
-0.6
 41
-30.0
 62
     5
 63
     7
 74
     1
 91
        4
 64
     7
 65
   257
 75
     1
175
     1
 42
1.0
 92
        8
 66
     7
 43
1.0
 76
     1
 77
     6
 78
     2
 67
     7
 79
     5
170
     0
171
     0
290
     0
174
     0
 93
        1
 44
-50.0
173
     0
291
     1
 45
0.0
1001
ACAD
1000
AcDbSavedByObjectVersion
1070
     0
  0
VISUALSTYLE
  5
39
102
{ACAD_REACTORS
330
2A
102
}
102
{ACAD_XDICTIONARY
360
D03
102
}
330
2A
100
AcDbVisualStyle
  2
Facepattern
 70
    15
 71
     2
 72
     2
 73
     0
 90
        0
 40
-0.6
 41
-30.0
 62
     5
 63
     7
 74
     1
 91
        4
 64
     7
 65
   257
 75
     1
175
     1
 42
1.0
 92
        8
 66
     7
 43
1.0
 76
     1
 77
     6
 78
     2
 67
     7
 79
     5
170
     0
171
     0
290
     0
174
     0
 93
        1
 44
0.0
173
     0
291
     1
 45
0.0
1001
ACAD
1000
AcDbSavedByObjectVersion
1070
     0
  0
VISUALSTYLE
  5
2B
102
{ACAD_REACTORS
330
2A
102
}
102
{ACAD_XDICTIONARY
360
CE7
102
}
330
2A
100
AcDbVisualStyle
  2
Flat
 70
     0
 71
     2
 72
     1
 73
     1
 90
        2
 40
-0.6
 41
30.0
 62
     5
 63
     7
 74
     0
 91
        4
 64
     7
 65
   257
 75
     1
175
     1
 42
1.0
 92
        8
 66
     7
 43
1.0
 76
     1
 77
     6
 78
     2
 67
     7
 79
     5
170
     0
171
     0
290
     0
174
     0
 93
       13
 44
0.0
173
     0
291
     1
 45
0.0
1001
ACAD
1000
AcDbSavedByObjectVersion
1070
     0
  0
VISUALSTYLE
  5
2C
102
{ACAD_REACTORS
330
2A
102
}
102
{ACAD_XDICTIONARY
360
CE9
102
}
330
2A
100
AcDbVisualStyle
  2
FlatWithEdges
 70
     1
 71
     2
 72
     1
 73
     1
 90
        2
 40
-0.6
 41
30.0
 62
     5
 63
     7
 74
     1
 91
        4
 64
     7
 65
   257
 75
     1
175
     1
 42
1.0
 92
        0
 66
   257
 43
1.0
 76
     1
 77
     6
 78
     2
 67
     7
 79
     5
170
     0
171
     0
290
     0
174
     0
 93
       13
 44
0.0
173
     0
291
     1
 45
0.0
1001
ACAD
1000
AcDbSavedByObjectVersion
1070
     0
  0
VISUALSTYLE
  5
2D
102
{ACAD_REACTORS
330
2A
102
}
102
{ACAD_XDICTIONARY
360
CEB
102
}
330
2A
100
AcDbVisualStyle
  2
Gouraud
 70
     2
 71
     2
 72
     2
 73
     1
 90
        2
 40
-0.6
 41
30.0
 62
     5
 63
     7
 74
     0
 91
        4
 64
     7
 65
   257
 75
     1
175
     1
 42
1.0
 92
        0
 66
     7
 43
1.0
 76
     1
 77
     6
 78
     2
 67
     7
 79
     5
170
     0
171
     0
290
     0
174
     0
 93
       13
 44
0.0
173
     0
291
     1
 45
0.0
1001
ACAD
1000
AcDbSavedByObjectVersion
1070
     0
  0
VISUALSTYLE
  5
2E
102
{ACAD_REACTORS
330
2A
102
}
102
{ACAD_XDICTIONARY
360
CED
102
}
330
2A
100
AcDbVisualStyle
  2
GouraudWithEdges
 70
     3
 71
     2
 72
     2
 73
     1
 90
        2
 40
-0.6
 41
30.0
 62
     5
 63
     7
 74
     1
 91
        4
 64
     7
 65
   257
 75
     1
175
     1
 42
1.0
 92
        0
 66
   257
 43
1.0
 76
     1
 77
     6
 78
     2
 67
     7
 79
     5
170
     0
171
     0
290
     0
174
     0
 93
       13
 44
0.0
173
     0
291
     1
 45
0.0
1001
ACAD
1000
AcDbSavedByObjectVersion
1070
     0
  0
VISUALSTYLE
  5
38
102
{ACAD_REACTORS
330
2A
102
}
102
{ACAD_XDICTIONARY
360
D01
102
}
330
2A
100
AcDbVisualStyle
  2
Linepattern
 70
    14
 71
     2
 72
     2
 73
     0
 90
        0
 40
-0.6
 41
-30.0
 62
     5
 63
     7
 74
     1
 91
        4
 64
     7
 65
   257
 75
     7
175
     7
 42
1.0
 92
        8
 66
     7
 43
1.0
 76
     1
 77
     6
 78
     2
 67
     7
 79
     5
170
     0
171
     0
290
     0
174
     0
 93
        1
 44
0.0
173
     0
291
     1
 45
0.0
1001
ACAD
1000
AcDbSavedByObjectVersion
1070
     0
  0
VISUALSTYLE
  5
33
102
{ACAD_REACTORS
330
2A
102
}
102
{ACAD_XDICTIONARY
360
CF7
102
}
330
2A
100
AcDbVisualStyle
  2
Realistic
 70
     8
 71
     2
 72
     2
 73
     0
 90
        0
 40
-0.6
 41
-30.0
 62
     5
 63
     7
 74
     1
 91
        0
 64
     7
 65
   257
 75
     1
175
     1
 42
1.0
 92
        8
 66
     8
 43
1.0
 76
     1
 77
     6
 78
     2
 67
     7
 79
     5
170
     0
171
     0
290
     0
174
     0
 93
       13
 44
0.0
173
     0
291
     0
 45
0.0
1001
ACAD
1000
AcDbSavedByObjectVersion
1070
     0
  0
VISUALSTYLE
  5
37
102
{ACAD_REACTORS
330
2A
102
}
102
{ACAD_XDICTIONARY
360
CFF
102
}
330
2A
100
AcDbVisualStyle
  2
Thicken
 70
    13
 71
     2
 72
     2
 73
     0
 90
        0
 40
-0.6
 41
-30.0
 62
     5
 63
     7
 74
     1
 91
        4
 64
     7
 65
   257
 75
     1
175
     1
 42
1.0
 92
       12
 66
     7
 43
1.0
 76
     1
 77
     6
 78
     2
 67
     7
 79
     5
170
     0
171
     0
290
     0
174
     0
 93
        1
 44
0.0
173
     0
291
     1
 45
0.0
1001
ACAD
1000
AcDbSavedByObjectVersion
1070
     0
  0
DICTIONARYVAR
  5
CE4
102
{ACAD_REACTORS
330
CDF
102
}
330
CDF
100
DictionaryVariables
280
     0
  1
1:1
  0
DICTIONARYVAR
  5
CE5
102
{ACAD_REACTORS
330
CDF
102
}
330
CDF
100
DictionaryVariables
280
     0
  1
2
  0
DICTIONARYVAR
  5
CE6
102
{ACAD_REACTORS
330
CDF
102
}
330
CDF
100
DictionaryVariables
280
     0
  1
1
  0
DICTIONARYVAR
  5
CE3
102
{ACAD_REACTORS
330
CDF
102
}
330
CDF
100
DictionaryVariables
280
     0
  1
80.000000
  0
DICTIONARYVAR
  5
CE2
102
{ACAD_REACTORS
330
CDF
102
}
330
CDF
100
DictionaryVariables
280
     0
  1
5.000000
  0
DICTIONARY
  5
D09
330
3D
100
AcDbDictionary
280
     1
281
     1
  3
ACAD_XREC_ROUNDTRIP
360
D0A
  0
DICTIONARY
  5
D07
330
3C
100
AcDbDictionary
280
     1
281
     1
  3
ACAD_XREC_ROUNDTRIP
360
D08
  0
DICTIONARY
  5
D0B
330
3E
100
AcDbDictionary
280
     1
281
     1
  3
ACAD_XREC_ROUNDTRIP
360
D0C
  0
DICTIONARY
  5
CEF
330
2F
100
AcDbDictionary
280
     1
281
     1
  3
ACAD_XREC_ROUNDTRIP
360
CF0
  0
DICTIONARY
  5
CF3
330
31
100
AcDbDictionary
280
     1
281
     1
  3
ACAD_XREC_ROUNDTRIP
360
CF4
  0
DICTIONARY
  5
CF1
330
30
100
AcDbDictionary
280
     1
281
     1
  3
ACAD_XREC_ROUNDTRIP
360
CF2
  0
DICTIONARY
  5
CF5
330
32
100
AcDbDictionary
280
     1
281
     1
  3
ACAD_XREC_ROUNDTRIP
360
CF6
  0
DICTIONARY
  5
CFD
330
36
100
AcDbDictionary
280
     1
281
     1
  3
ACAD_XREC_ROUNDTRIP
360
CFE
  0
DICTIONARY
  5
D05
330
3A
100
AcDbDictionary
280
     1
281
     1
  3
ACAD_XREC_ROUNDTRIP
360
D06
  0
DICTIONARY
  5
CF9
330
34
100
AcDbDictionary
280
     1
281
     1
  3
ACAD_XREC_ROUNDTRIP
360
CFA
  0
DICTIONARY
  5
CFB
330
35
100
AcDbDictionary
280
     1
281
     1
  3
ACAD_XREC_ROUNDTRIP
360
CFC
  0
DICTIONARY
  5
D03
330
39
100
AcDbDictionary
280
     1
281
     1
  3
ACAD_XREC_ROUNDTRIP
360
D04
  0
DICTIONARY
  5
CE7
330
2B
100
AcDbDictionary
280
     1
281
     1
  3
ACAD_XREC_ROUNDTRIP
360
CE8
  0
DICTIONARY
  5
CE9
330
2C
100
AcDbDictionary
280
     1
281
     1
  3
ACAD_XREC_ROUNDTRIP
360
CEA
  0
DICTIONARY
  5
CEB
330
2D
100
AcDbDictionary
280
     1
281
     1
  3
ACAD_XREC_ROUNDTRIP
360
CEC
  0
DICTIONARY
  5
CED
330
2E
100
AcDbDictionary
280
     1
281
     1
  3
ACAD_XREC_ROUNDTRIP
360
CEE
  0
DICTIONARY
  5
D01
330
38
100
AcDbDictionary
280
     1
281
     1
  3
ACAD_XREC_ROUNDTRIP
360
D02
  0
DICTIONARY
  5
CF7
330
33
100
AcDbDictionary
280
     1
281
     1
  3
ACAD_XREC_ROUNDTRIP
360
CF8
  0
DICTIONARY
  5
CFF
330
37
100
AcDbDictionary
280
     1
281
     1
  3
ACAD_XREC_ROUNDTRIP
360
D00
  0
XRECORD
  5
D0A
102
{ACAD_REACTORS
330
D09
102
}
330
D09
100
AcDbXrecord
280
     1
102
MATERIAL
148
0.0
149
0.0
149
0.0
 93
        0
 94
      127
282
     0
 72
     1
 77
     1
171
     1
175
     1
179
     1
273
     0
  0
XRECORD
  5
D08
102
{ACAD_REACTORS
330
D07
102
}
330
D07
100
AcDbXrecord
280
     1
102
MATERIAL
148
0.0
149
0.0
149
0.0
 93
        0
 94
      127
282
     0
 72
     1
 77
     1
171
     1
175
     1
179
     1
273
     0
  0
XRECORD
  5
D0C
102
{ACAD_REACTORS
330
D0B
102
}
330
D0B
100
AcDbXrecord
280
     1
102
MATERIAL
148
0.0
149
0.0
149
0.0
 93
        0
 94
      127
282
     0
 72
     1
 77
     1
171
     1
175
     1
179
     1
273
     0
  0
XRECORD
  5
CF0
102
{ACAD_REACTORS
330
CEF
102
}
330
CEF
100
AcDbXrecord
280
     1
102
RTVSPropertyOp0
 70
     1
102
RTVSPropertyOp1
 70
     1
102
RTVSPropertyOp2
 70
     1
102
RTVSPropertyOp3
 70
     1
102
RTVSPropertyOp4
 70
     1
102
RTVSPropertyOp5
 70
     1
102
RTVSPropertyOp6
 70
     1
102
RTVSPropertyOp7
 70
     1
102
RTVSPropertyOp8
 70
     1
102
RTVSPropertyOp9
 70
     1
102
RTVSPropertyOp10
 70
     1
102
RTVSPropertyOp11
 70
     1
102
RTVSPropertyOp12
 70
     1
102
RTVSPropertyOp13
 70
     1
102
RTVSPropertyOp14
 70
     1
102
RTVSPropertyOp15
 70
     1
102
RTVSPropertyOp16
 70
     1
102
RTVSPropertyOp17
 70
     1
102
RTVSPropertyOp18
 70
     1
102
RTVSPropertyOp19
 70
     1
102
RTVSPropertyOp20
 70
     1
102
RTVSPropertyOp21
 70
     1
102
RTVSPropertyOp22
 70
     1
102
RTVSPropertyOp23
 70
     1
102
RTVSPropertyOp24
 70
     1
102
RTVSPropertyOp25
 70
     1
102
RTVSPropertyOp26
 70
     1
102
RTVSPropertyOp27
 70
     1
  0
XRECORD
  5
CF4
102
{ACAD_REACTORS
330
CF3
102
}
330
CF3
100
AcDbXrecord
280
     1
102
RTVSPropertyOp0
 70
     1
102
RTVSPropertyOp1
 70
     1
102
RTVSPropertyOp2
 70
     1
102
RTVSPropertyOp3
 70
     1
102
RTVSPropertyOp4
 70
     1
102
RTVSPropertyOp5
 70
     1
102
RTVSPropertyOp6
 70
     1
102
RTVSPropertyOp7
 70
     1
102
RTVSPropertyOp8
 70
     1
102
RTVSPropertyOp9
 70
     1
102
RTVSPropertyOp10
 70
     1
102
RTVSPropertyOp11
 70
     1
102
RTVSPropertyOp12
 70
     1
102
RTVSPropertyOp13
 70
     1
102
RTVSPropertyOp14
 70
     1
102
RTVSPropertyOp15
 70
     1
102
RTVSPropertyOp16
 70
     1
102
RTVSPropertyOp17
 70
     1
102
RTVSPropertyOp18
 70
     1
102
RTVSPropertyOp19
 70
     1
102
RTVSPropertyOp20
 70
     1
102
RTVSPropertyOp21
 70
     1
102
RTVSPropertyOp22
 70
     1
102
RTVSPropertyOp23
 70
     1
102
RTVSPropertyOp24
 70
     1
102
RTVSPropertyOp25
 70
     1
102
RTVSPropertyOp26
 70
     1
102
RTVSPropertyOp27
 70
     1
  0
XRECORD
  5
CF2
102
{ACAD_REACTORS
330
CF1
102
}
330
CF1
100
AcDbXrecord
280
     1
102
RTVSPropertyOp0
 70
     1
102
RTVSPropertyOp1
 70
     1
102
RTVSPropertyOp2
 70
     1
102
RTVSPropertyOp3
 70
     1
102
RTVSPropertyOp4
 70
     1
102
RTVSPropertyOp5
 70
     1
102
RTVSPropertyOp6
 70
     1
102
RTVSPropertyOp7
 70
     1
102
RTVSPropertyOp8
 70
     1
102
RTVSPropertyOp9
 70
     1
102
RTVSPropertyOp10
 70
     1
102
RTVSPropertyOp11
 70
     1
102
RTVSPropertyOp12
 70
     1
102
RTVSPropertyOp13
 70
     1
102
RTVSPropertyOp14
 70
     1
102
RTVSPropertyOp15
 70
     1
102
RTVSPropertyOp16
 70
     1
102
RTVSPropertyOp17
 70
     1
102
RTVSPropertyOp18
 70
     1
102
RTVSPropertyOp19
 70
     1
102
RTVSPropertyOp20
 70
     1
102
RTVSPropertyOp21
 70
     1
102
RTVSPropertyOp22
 70
     1
102
RTVSPropertyOp23
 70
     1
102
RTVSPropertyOp24
 70
     1
102
RTVSPropertyOp25
 70
     1
102
RTVSPropertyOp26
 70
     1
102
RTVSPropertyOp27
 70
     1
  0
XRECORD
  5
CF6
102
{ACAD_REACTORS
330
CF5
102
}
330
CF5
100
AcDbXrecord
280
     1
102
RTVSPropertyOp0
 70
     1
102
RTVSPropertyOp1
 70
     1
102
RTVSPropertyOp2
 70
     1
102
RTVSPropertyOp3
 70
     1
102
RTVSPropertyOp4
 70
     1
102
RTVSPropertyOp5
 70
     1
102
RTVSPropertyOp6
 70
     1
102
RTVSPropertyOp7
 70
     1
102
RTVSPropertyOp8
 70
     1
102
RTVSPropertyOp9
 70
     1
102
RTVSPropertyOp10
 70
     1
102
RTVSPropertyOp11
 70
     1
102
RTVSPropertyOp12
 70
     1
102
RTVSPropertyOp13
 70
     1
102
RTVSPropertyOp14
 70
     1
102
RTVSPropertyOp15
 70
     1
102
RTVSPropertyOp16
 70
     1
102
RTVSPropertyOp17
 70
     1
102
RTVSPropertyOp18
 70
     1
102
RTVSPropertyOp19
 70
     1
102
RTVSPropertyOp20
 70
     1
102
RTVSPropertyOp21
 70
     1
102
RTVSPropertyOp22
 70
     1
102
RTVSPropertyOp23
 70
     1
102
RTVSPropertyOp24
 70
     1
102
RTVSPropertyOp25
 70
     1
102
RTVSPropertyOp26
 70
     1
102
RTVSPropertyOp27
 70
     1
  0
XRECORD
  5
CFE
102
{ACAD_REACTORS
330
CFD
102
}
330
CFD
100
AcDbXrecord
280
     1
102
RTVSPropertyOp0
 70
     1
102
RTVSPropertyOp1
 70
     1
102
RTVSPropertyOp2
 70
     1
102
RTVSPropertyOp3
 70
     1
102
RTVSPropertyOp4
 70
     1
102
RTVSPropertyOp5
 70
     1
102
RTVSPropertyOp6
 70
     1
102
RTVSPropertyOp7
 70
     1
102
RTVSPropertyOp8
 70
     1
102
RTVSPropertyOp9
 70
     1
102
RTVSPropertyOp10
 70
     1
102
RTVSPropertyOp11
 70
     1
102
RTVSPropertyOp12
 70
     1
102
RTVSPropertyOp13
 70
     1
102
RTVSPropertyOp14
 70
     1
102
RTVSPropertyOp15
 70
     1
102
RTVSPropertyOp16
 70
     1
102
RTVSPropertyOp17
 70
     1
102
RTVSPropertyOp18
 70
     1
102
RTVSPropertyOp19
 70
     1
102
RTVSPropertyOp20
 70
     1
102
RTVSPropertyOp21
 70
     1
102
RTVSPropertyOp22
 70
     1
102
RTVSPropertyOp23
 70
     1
102
RTVSPropertyOp24
 70
     1
102
RTVSPropertyOp25
 70
     1
102
RTVSPropertyOp26
 70
     1
102
RTVSPropertyOp27
 70
     1
  0
XRECORD
  5
D06
102
{ACAD_REACTORS
330
D05
102
}
330
D05
100
AcDbXrecord
280
     1
102
RTVSPropertyOp0
 70
     1
102
RTVSPropertyOp1
 70
     1
102
RTVSPropertyOp2
 70
     1
102
RTVSPropertyOp3
 70
     1
102
RTVSPropertyOp4
 70
     1
102
RTVSPropertyOp5
 70
     1
102
RTVSPropertyOp6
 70
     1
102
RTVSPropertyOp7
 70
     1
102
RTVSPropertyOp8
 70
     1
102
RTVSPropertyOp9
 70
     1
102
RTVSPropertyOp10
 70
     1
102
RTVSPropertyOp11
 70
     1
102
RTVSPropertyOp12
 70
     1
102
RTVSPropertyOp13
 70
     1
102
RTVSPropertyOp14
 70
     1
102
RTVSPropertyOp15
 70
     1
102
RTVSPropertyOp16
 70
     1
102
RTVSPropertyOp17
 70
     1
102
RTVSPropertyOp18
 70
     1
102
RTVSPropertyOp19
 70
     1
102
RTVSPropertyOp20
 70
     1
102
RTVSPropertyOp21
 70
     1
102
RTVSPropertyOp22
 70
     1
102
RTVSPropertyOp23
 70
     1
102
RTVSPropertyOp24
 70
     1
102
RTVSPropertyOp25
 70
     1
102
RTVSPropertyOp26
 70
     1
102
RTVSPropertyOp27
 70
     1
  0
XRECORD
  5
CFA
102
{ACAD_REACTORS
330
CF9
102
}
330
CF9
100
AcDbXrecord
280
     1
102
RTVSPropertyOp0
 70
     1
102
RTVSPropertyOp1
 70
     1
102
RTVSPropertyOp2
 70
     1
102
RTVSPropertyOp3
 70
     1
102
RTVSPropertyOp4
 70
     1
102
RTVSPropertyOp5
 70
     1
102
RTVSPropertyOp6
 70
     1
102
RTVSPropertyOp7
 70
     1
102
RTVSPropertyOp8
 70
     1
102
RTVSPropertyOp9
 70
     1
102
RTVSPropertyOp10
 70
     1
102
RTVSPropertyOp11
 70
     1
102
RTVSPropertyOp12
 70
     1
102
RTVSPropertyOp13
 70
     1
102
RTVSPropertyOp14
 70
     1
102
RTVSPropertyOp15
 70
     1
102
RTVSPropertyOp16
 70
     1
102
RTVSPropertyOp17
 70
     1
102
RTVSPropertyOp18
 70
     1
102
RTVSPropertyOp19
 70
     1
102
RTVSPropertyOp20
 70
     1
102
RTVSPropertyOp21
 70
     1
102
RTVSPropertyOp22
 70
     1
102
RTVSPropertyOp23
 70
     1
102
RTVSPropertyOp24
 70
     1
102
RTVSPropertyOp25
 70
     1
102
RTVSPropertyOp26
 70
     1
102
RTVSPropertyOp27
 70
     1
  0
XRECORD
  5
CFC
102
{ACAD_REACTORS
330
CFB
102
}
330
CFB
100
AcDbXrecord
280
     1
102
RTVSPropertyOp0
 70
     1
102
RTVSPropertyOp1
 70
     1
102
RTVSPropertyOp2
 70
     1
102
RTVSPropertyOp3
 70
     1
102
RTVSPropertyOp4
 70
     1
102
RTVSPropertyOp5
 70
     1
102
RTVSPropertyOp6
 70
     1
102
RTVSPropertyOp7
 70
     1
102
RTVSPropertyOp8
 70
     1
102
RTVSPropertyOp9
 70
     1
102
RTVSPropertyOp10
 70
     1
102
RTVSPropertyOp11
 70
     1
102
RTVSPropertyOp12
 70
     1
102
RTVSPropertyOp13
 70
     1
102
RTVSPropertyOp14
 70
     1
102
RTVSPropertyOp15
 70
     1
102
RTVSPropertyOp16
 70
     1
102
RTVSPropertyOp17
 70
     1
102
RTVSPropertyOp18
 70
     1
102
RTVSPropertyOp19
 70
     1
102
RTVSPropertyOp20
 70
     1
102
RTVSPropertyOp21
 70
     1
102
RTVSPropertyOp22
 70
     1
102
RTVSPropertyOp23
 70
     1
102
RTVSPropertyOp24
 70
     1
102
RTVSPropertyOp25
 70
     1
102
RTVSPropertyOp26
 70
     1
102
RTVSPropertyOp27
 70
     1
  0
XRECORD
  5
D04
102
{ACAD_REACTORS
330
D03
102
}
330
D03
100
AcDbXrecord
280
     1
102
RTVSPropertyOp0
 70
     1
102
RTVSPropertyOp1
 70
     1
102
RTVSPropertyOp2
 70
     1
102
RTVSPropertyOp3
 70
     1
102
RTVSPropertyOp4
 70
     1
102
RTVSPropertyOp5
 70
     1
102
RTVSPropertyOp6
 70
     1
102
RTVSPropertyOp7
 70
     1
102
RTVSPropertyOp8
 70
     1
102
RTVSPropertyOp9
 70
     1
102
RTVSPropertyOp10
 70
     1
102
RTVSPropertyOp11
 70
     1
102
RTVSPropertyOp12
 70
     1
102
RTVSPropertyOp13
 70
     1
102
RTVSPropertyOp14
 70
     1
102
RTVSPropertyOp15
 70
     1
102
RTVSPropertyOp16
 70
     1
102
RTVSPropertyOp17
 70
     1
102
RTVSPropertyOp18
 70
     1
102
RTVSPropertyOp19
 70
     1
102
RTVSPropertyOp20
 70
     1
102
RTVSPropertyOp21
 70
     1
102
RTVSPropertyOp22
 70
     1
102
RTVSPropertyOp23
 70
     1
102
RTVSPropertyOp24
 70
     1
102
RTVSPropertyOp25
 70
     1
102
RTVSPropertyOp26
 70
     1
102
RTVSPropertyOp27
 70
     1
  0
XRECORD
  5
CE8
102
{ACAD_REACTORS
330
CE7
102
}
330
CE7
100
AcDbXrecord
280
     1
102
RTVSPropertyOp0
 70
     1
102
RTVSPropertyOp1
 70
     1
102
RTVSPropertyOp2
 70
     1
102
RTVSPropertyOp3
 70
     1
102
RTVSPropertyOp4
 70
     1
102
RTVSPropertyOp5
 70
     1
102
RTVSPropertyOp6
 70
     1
102
RTVSPropertyOp7
 70
     1
102
RTVSPropertyOp8
 70
     1
102
RTVSPropertyOp9
 70
     1
102
RTVSPropertyOp10
 70
     1
102
RTVSPropertyOp11
 70
     1
102
RTVSPropertyOp12
 70
     1
102
RTVSPropertyOp13
 70
     1
102
RTVSPropertyOp14
 70
     1
102
RTVSPropertyOp15
 70
     1
102
RTVSPropertyOp16
 70
     1
102
RTVSPropertyOp17
 70
     1
102
RTVSPropertyOp18
 70
     1
102
RTVSPropertyOp19
 70
     1
102
RTVSPropertyOp20
 70
     1
102
RTVSPropertyOp21
 70
     1
102
RTVSPropertyOp22
 70
     1
102
RTVSPropertyOp23
 70
     1
102
RTVSPropertyOp24
 70
     1
102
RTVSPropertyOp25
 70
     1
102
RTVSPropertyOp26
 70
     1
102
RTVSPropertyOp27
 70
     1
  0
XRECORD
  5
CEA
102
{ACAD_REACTORS
330
CE9
102
}
330
CE9
100
AcDbXrecord
280
     1
102
RTVSPropertyOp0
 70
     1
102
RTVSPropertyOp1
 70
     1
102
RTVSPropertyOp2
 70
     1
102
RTVSPropertyOp3
 70
     1
102
RTVSPropertyOp4
 70
     1
102
RTVSPropertyOp5
 70
     1
102
RTVSPropertyOp6
 70
     1
102
RTVSPropertyOp7
 70
     1
102
RTVSPropertyOp8
 70
     1
102
RTVSPropertyOp9
 70
     1
102
RTVSPropertyOp10
 70
     1
102
RTVSPropertyOp11
 70
     1
102
RTVSPropertyOp12
 70
     1
102
RTVSPropertyOp13
 70
     1
102
RTVSPropertyOp14
 70
     1
102
RTVSPropertyOp15
 70
     1
102
RTVSPropertyOp16
 70
     1
102
RTVSPropertyOp17
 70
     1
102
RTVSPropertyOp18
 70
     1
102
RTVSPropertyOp19
 70
     1
102
RTVSPropertyOp20
 70
     1
102
RTVSPropertyOp21
 70
     1
102
RTVSPropertyOp22
 70
     1
102
RTVSPropertyOp23
 70
     1
102
RTVSPropertyOp24
 70
     1
102
RTVSPropertyOp25
 70
     1
102
RTVSPropertyOp26
 70
     1
102
RTVSPropertyOp27
 70
     1
  0
XRECORD
  5
CEC
102
{ACAD_REACTORS
330
CEB
102
}
330
CEB
100
AcDbXrecord
280
     1
102
RTVSPropertyOp0
 70
     1
102
RTVSPropertyOp1
 70
     1
102
RTVSPropertyOp2
 70
     1
102
RTVSPropertyOp3
 70
     1
102
RTVSPropertyOp4
 70
     1
102
RTVSPropertyOp5
 70
     1
102
RTVSPropertyOp6
 70
     1
102
RTVSPropertyOp7
 70
     1
102
RTVSPropertyOp8
 70
     1
102
RTVSPropertyOp9
 70
     1
102
RTVSPropertyOp10
 70
     1
102
RTVSPropertyOp11
 70
     1
102
RTVSPropertyOp12
 70
     1
102
RTVSPropertyOp13
 70
     1
102
RTVSPropertyOp14
 70
     1
102
RTVSPropertyOp15
 70
     1
102
RTVSPropertyOp16
 70
     1
102
RTVSPropertyOp17
 70
     1
102
RTVSPropertyOp18
 70
     1
102
RTVSPropertyOp19
 70
     1
102
RTVSPropertyOp20
 70
     1
102
RTVSPropertyOp21
 70
     1
102
RTVSPropertyOp22
 70
     1
102
RTVSPropertyOp23
 70
     1
102
RTVSPropertyOp24
 70
     1
102
RTVSPropertyOp25
 70
     1
102
RTVSPropertyOp26
 70
     1
102
RTVSPropertyOp27
 70
     1
  0
XRECORD
  5
CEE
102
{ACAD_REACTORS
330
CED
102
}
330
CED
100
AcDbXrecord
280
     1
102
RTVSPropertyOp0
 70
     1
102
RTVSPropertyOp1
 70
     1
102
RTVSPropertyOp2
 70
     1
102
RTVSPropertyOp3
 70
     1
102
RTVSPropertyOp4
 70
     1
102
RTVSPropertyOp5
 70
     1
102
RTVSPropertyOp6
 70
     1
102
RTVSPropertyOp7
 70
     1
102
RTVSPropertyOp8
 70
     1
102
RTVSPropertyOp9
 70
     1
102
RTVSPropertyOp10
 70
     1
102
RTVSPropertyOp11
 70
     1
102
RTVSPropertyOp12
 70
     1
102
RTVSPropertyOp13
 70
     1
102
RTVSPropertyOp14
 70
     1
102
RTVSPropertyOp15
 70
     1
102
RTVSPropertyOp16
 70
     1
102
RTVSPropertyOp17
 70
     1
102
RTVSPropertyOp18
 70
     1
102
RTVSPropertyOp19
 70
     1
102
RTVSPropertyOp20
 70
     1
102
RTVSPropertyOp21
 70
     1
102
RTVSPropertyOp22
 70
     1
102
RTVSPropertyOp23
 70
     1
102
RTVSPropertyOp24
 70
     1
102
RTVSPropertyOp25
 70
     1
102
RTVSPropertyOp26
 70
     1
102
RTVSPropertyOp27
 70
     1
  0
XRECORD
  5
D02
102
{ACAD_REACTORS
330
D01
102
}
330
D01
100
AcDbXrecord
280
     1
102
RTVSPropertyOp0
 70
     1
102
RTVSPropertyOp1
 70
     1
102
RTVSPropertyOp2
 70
     1
102
RTVSPropertyOp3
 70
     1
102
RTVSPropertyOp4
 70
     1
102
RTVSPropertyOp5
 70
     1
102
RTVSPropertyOp6
 70
     1
102
RTVSPropertyOp7
 70
     1
102
RTVSPropertyOp8
 70
     1
102
RTVSPropertyOp9
 70
     1
102
RTVSPropertyOp10
 70
     1
102
RTVSPropertyOp11
 70
     1
102
RTVSPropertyOp12
 70
     1
102
RTVSPropertyOp13
 70
     1
102
RTVSPropertyOp14
 70
     1
102
RTVSPropertyOp15
 70
     1
102
RTVSPropertyOp16
 70
     1
102
RTVSPropertyOp17
 70
     1
102
RTVSPropertyOp18
 70
     1
102
RTVSPropertyOp19
 70
     1
102
RTVSPropertyOp20
 70
     1
102
RTVSPropertyOp21
 70
     1
102
RTVSPropertyOp22
 70
     1
102
RTVSPropertyOp23
 70
     1
102
RTVSPropertyOp24
 70
     1
102
RTVSPropertyOp25
 70
     1
102
RTVSPropertyOp26
 70
     1
102
RTVSPropertyOp27
 70
     1
  0
XRECORD
  5
CF8
102
{ACAD_REACTORS
330
CF7
102
}
330
CF7
100
AcDbXrecord
280
     1
102
RTVSPropertyOp0
 70
     1
102
RTVSPropertyOp1
 70
     1
102
RTVSPropertyOp2
 70
     1
102
RTVSPropertyOp3
 70
     1
102
RTVSPropertyOp4
 70
     1
102
RTVSPropertyOp5
 70
     1
102
RTVSPropertyOp6
 70
     1
102
RTVSPropertyOp7
 70
     1
102
RTVSPropertyOp8
 70
     1
102
RTVSPropertyOp9
 70
     1
102
RTVSPropertyOp10
 70
     1
102
RTVSPropertyOp11
 70
     1
102
RTVSPropertyOp12
 70
     1
102
RTVSPropertyOp13
 70
     1
102
RTVSPropertyOp14
 70
     1
102
RTVSPropertyOp15
 70
     1
102
RTVSPropertyOp16
 70
     1
102
RTVSPropertyOp17
 70
     1
102
RTVSPropertyOp18
 70
     1
102
RTVSPropertyOp19
 70
     1
102
RTVSPropertyOp20
 70
     1
102
RTVSPropertyOp21
 70
     1
102
RTVSPropertyOp22
 70
     1
102
RTVSPropertyOp23
 70
     1
102
RTVSPropertyOp24
 70
     1
102
RTVSPropertyOp25
 70
     1
102
RTVSPropertyOp26
 70
     1
102
RTVSPropertyOp27
 70
     1
  0
XRECORD
  5
D00
102
{ACAD_REACTORS
330
CFF
102
}
330
CFF
100
AcDbXrecord
280
     1
102
RTVSPropertyOp0
 70
     1
102
RTVSPropertyOp1
 70
     1
102
RTVSPropertyOp2
 70
     1
102
RTVSPropertyOp3
 70
     1
102
RTVSPropertyOp4
 70
     1
102
RTVSPropertyOp5
 70
     1
102
RTVSPropertyOp6
 70
     1
102
RTVSPropertyOp7
 70
     1
102
RTVSPropertyOp8
 70
     1
102
RTVSPropertyOp9
 70
     1
102
RTVSPropertyOp10
 70
     1
102
RTVSPropertyOp11
 70
     1
102
RTVSPropertyOp12
 70
     1
102
RTVSPropertyOp13
 70
     1
102
RTVSPropertyOp14
 70
     1
102
RTVSPropertyOp15
 70
     1
102
RTVSPropertyOp16
 70
     1
102
RTVSPropertyOp17
 70
     1
102
RTVSPropertyOp18
 70
     1
102
RTVSPropertyOp19
 70
     1
102
RTVSPropertyOp20
 70
     1
102
RTVSPropertyOp21
 70
     1
102
RTVSPropertyOp22
 70
     1
102
RTVSPropertyOp23
 70
     1
102
RTVSPropertyOp24
 70
     1
102
RTVSPropertyOp25
 70
     1
102
RTVSPropertyOp26
 70
     1
102
RTVSPropertyOp27
 70
     1
  0
ENDSEC
  0
EOF
