  0
SECTION
  2
HEADER
  9
$ACADVER
  1
AC1015
  9
$ACADMAINTVER
 70
     6
  9
$DWGCODEPAGE
  3
ANSI_1252
  9
$INSBASE
 10
0.0
 20
0.0
 30
0.0
  9
$EXTMIN
 10
0.0
 20
0.0
 30
0.0
  9
$EXTMAX
 10
25.0
 20
35.0
 30
0.0
  9
$LIMMIN
 10
0.0
 20
0.0
  9
$LIMMAX
 10
420.0
 20
297.0
  9
$ORTHOMODE
 70
     0
  9
$REGENMODE
 70
     1
  9
$FILLMODE
 70
     1
  9
$QTEXTMODE
 70
     0
  9
$MIRRTEXT
 70
     1
  9
$LTSCALE
 40
4.45
  9
$ATTMODE
 70
     1
  9
$TEXTSIZE
 40
2.5
  9
$TRACEWID
 40
1.0
  9
$TEXTSTYLE
  7
Standard
  9
$CLAYER
  8
0
  9
$CELTYPE
  6
ByLayer
  9
$CECOLOR
 62
   256
  9
$CELTSCALE
 40
1.0
  9
$DISPSILH
 70
     0
  9
$DIMSCALE
 40
1.0
  9
$DIMASZ
 40
2.5
  9
$DIMEXO
 40
0.625
  9
$DIMDLI
 40
3.75
  9
$DIMRND
 40
0.0
  9
$DIMDLE
 40
0.0
  9
$DIMEXE
 40
1.25
  9
$DIMTP
 40
0.0
  9
$DIMTM
 40
0.0
  9
$DIMTXT
 40
2.5
  9
$DIMCEN
 40
2.5
  9
$DIMTSZ
 40
0.0
  9
$DIMTOL
 70
     0
  9
$DIMLIM
 70
     0
  9
$DIMTIH
 70
     0
  9
$DIMTOH
 70
     0
  9
$DIMSE1
 70
     0
  9
$DIMSE2
 70
     0
  9
$DIMTAD
 70
     1
  9
$DIMZIN
 70
     8
  9
$DIMBLK
  1

  9
$DIMASO
 70
     1
  9
$DIMSHO
 70
     1
  9
$DIMPOST
  1

  9
$DIMAPOST
  1

  9
$DIMALT
 70
     0
  9
$DIMALTD
 70
     3
  9
$DIMALTF
 40
0.03937007874016
  9
$DIMLFAC
 40
1.0
  9
$DIMTOFL
 70
     1
  9
$DIMTVP
 40
0.0
  9
$DIMTIX
 70
     0
  9
$DIMSOXD
 70
     0
  9
$DIMSAH
 70
     0
  9
$DIMBLK1
  1

  9
$DIMBLK2
  1

  9
$DIMSTYLE
  2
ISO-25
  9
$DIMCLRD
 70
     0
  9
$DIMCLRE
 70
     0
  9
$DIMCLRT
 70
     0
  9
$DIMTFAC
 40
1.0
  9
$DIMGAP
 40
0.625
  9
$DIMJUST
 70
     0
  9
$DIMSD1
 70
     0
  9
$DIMSD2
 70
     0
  9
$DIMTOLJ
 70
     0
  9
$DIMTZIN
 70
     8
  9
$DIMALTZ
 70
     0
  9
$DIMALTTZ
 70
     0
  9
$DIMUPT
 70
     0
  9
$DIMDEC
 70
     2
  9
$DIMTDEC
 70
     2
  9
$DIMALTU
 70
     2
  9
$DIMALTTD
 70
     3
  9
$DIMTXSTY
  7
Standard
  9
$DIMAUNIT
 70
     0
  9
$DIMADEC
 70
     0
  9
$DIMALTRND
 40
0.0
  9
$DIMAZIN
 70
     0
  9
$DIMDSEP
 70
    44
  9
$DIMATFIT
 70
     3
  9
$DIMFRAC
 70
     0
  9
$DIMLDRBLK
  1

  9
$DIMLUNIT
 70
     2
  9
$DIMLWD
 70
    -2
  9
$DIMLWE
 70
    -2
  9
$DIMTMOVE
 70
     0
  9
$LUNITS
 70
     2
  9
$LUPREC
 70
     4
  9
$SKETCHINC
 40
1.0
  9
$FILLETRAD
 40
10.0
  9
$AUNITS
 70
     0
  9
$AUPREC
 70
     0
  9
$MENU
  1
.
  9
$ELEVATION
 40
0.0
  9
$PELEVATION
 40
0.0
  9
$THICKNESS
 40
0.0
  9
$LIMCHECK
 70
     0
  9
$CHAMFERA
 40
10.0
  9
$CHAMFERB
 40
10.0
  9
$CHAMFERC
 40
20.0
  9
$CHAMFERD
 40
0.0
  9
$SKPOLY
 70
     0
  9
$TDCREATE
 40
2458577.129861111
  9
$TDUCREATE
 40
2458577.046527778
  9
$TDUPDATE
 40
2458577.133333333
  9
$TDUUPDATE
 40
2458577.05
  9
$TDINDWG
 40
0.0000000116
  9
$TDUSRTIMER
 40
0.0000000116
  9
$USRTIMER
 70
     1
  9
$ANGBASE
 50
0.0
  9
$ANGDIR
 70
     0
  9
$PDMODE
 70
     0
  9
$PDSIZE
 40
0.0
  9
$PLINEWID
 40
0.0
  9
$SPLFRAME
 70
     0
  9
$SPLINETYPE
 70
     6
  9
$SPLINESEGS
 70
     8
  9
$HANDSEED
  5
B99
  9
$SURFTAB1
 70
     6
  9
$SURFTAB2
 70
     6
  9
$SURFTYPE
 70
     6
  9
$SURFU
 70
     6
  9
$SURFV
 70
     6
  9
$UCSBASE
  2

  9
$UCSNAME
  2

  9
$UCSORG
 10
0.0
 20
0.0
 30
0.0
  9
$UCSXDIR
 10
1.0
 20
0.0
 30
0.0
  9
$UCSYDIR
 10
0.0
 20
1.0
 30
0.0
  9
$UCSORTHOREF
  2

  9
$UCSORTHOVIEW
 70
     0
  9
$UCSORGTOP
 10
0.0
 20
0.0
 30
0.0
  9
$UCSORGBOTTOM
 10
0.0
 20
0.0
 30
0.0
  9
$UCSORGLEFT
 10
0.0
 20
0.0
 30
0.0
  9
$UCSORGRIGHT
 10
0.0
 20
0.0
 30
0.0
  9
$UCSORGFRONT
 10
0.0
 20
0.0
 30
0.0
  9
$UCSORGBACK
 10
0.0
 20
0.0
 30
0.0
  9
$PUCSBASE
  2

  9
$PUCSNAME
  2

  9
$PUCSORG
 10
0.0
 20
0.0
 30
0.0
  9
$PUCSXDIR
 10
1.0
 20
0.0
 30
0.0
  9
$PUCSYDIR
 10
0.0
 20
1.0
 30
0.0
  9
$PUCSORTHOREF
  2

  9
$PUCSORTHOVIEW
 70
     0
  9
$PUCSORGTOP
 10
0.0
 20
0.0
 30
0.0
  9
$PUCSORGBOTTOM
 10
0.0
 20
0.0
 30
0.0
  9
$PUCSORGLEFT
 10
0.0
 20
0.0
 30
0.0
  9
$PUCSORGRIGHT
 10
0.0
 20
0.0
 30
0.0
  9
$PUCSORGFRONT
 10
0.0
 20
0.0
 30
0.0
  9
$PUCSORGBACK
 10
0.0
 20
0.0
 30
0.0
  9
$USERI1
 70
     0
  9
$USERI2
 70
     0
  9
$USERI3
 70
     0
  9
$USERI4
 70
     0
  9
$USERI5
 70
     0
  9
$USERR1
 40
0.0
  9
$USERR2
 40
0.0
  9
$USERR3
 40
0.0
  9
$USERR4
 40
0.0
  9
$USERR5
 40
0.0
  9
$WORLDVIEW
 70
     1
  9
$SHADEDGE
 70
     3
  9
$SHADEDIF
 70
    70
  9
$TILEMODE
 70
     1
  9
$MAXACTVP
 70
    64
  9
$PINSBASE
 10
0.0
 20
0.0
 30
0.0
  9
$PLIMCHECK
 70
     0
  9
$PEXTMIN
 10
1.000000000000000E+20
 20
1.000000000000000E+20
 30
1.000000000000000E+20
  9
$PEXTMAX
 10
-1.000000000000000E+20
 20
-1.000000000000000E+20
 30
-1.000000000000000E+20
  9
$PLIMMIN
 10
0.0
 20
0.0
  9
$PLIMMAX
 10
420.0
 20
297.0
  9
$UNITMODE
 70
     0
  9
$VISRETAIN
 70
     1
  9
$PLINEGEN
 70
     0
  9
$PSLTSCALE
 70
     1
  9
$TREEDEPTH
 70
  3020
  9
$CMLSTYLE
  2
Standard
  9
$CMLJUST
 70
     0
  9
$CMLSCALE
 40
20.0
  9
$PROXYGRAPHICS
 70
     1
  9
$MEASUREMENT
 70
     1
  9
$CELWEIGHT
370
    -1
  9
$ENDCAPS
280
     0
  9
$JOINSTYLE
280
     0
  9
$LWDISPLAY
290
     0
  9
$INSUNITS
 70
     4
  9
$HYPERLINKBASE
  1

  9
$STYLESHEET
  1

  9
$XEDIT
290
     1
  9
$CEPSNTYPE
380
     0
  9
$PSTYLEMODE
290
     1
  9
$FINGERPRINTGUID
  2
{20CBA199-604C-478E-BEF5-687EF8AD3DD5}
  9
$VERSIONGUID
  2
{FAEB1C32-E019-11D5-929B-00C0DF256EC4}
  9
$EXTNAMES
290
     1
  9
$PSVPSCALE
 40
0.0
  9
$OLESTARTUP
290
     0
  0
ENDSEC
  0
SECTION
  2
CLASSES
  0
CLASS
  1
ACDBDICTIONARYWDFLT
  2
AcDbDictionaryWithDefault
  3
ObjectDBX Classes
 90
        0
280
     0
281
     0
  0
CLASS
  1
VISUALSTYLE
  2
AcDbVisualStyle
  3
ObjectDBX Classes
 90
     4095
280
     0
281
     0
  0
CLASS
  1
MATERIAL
  2
AcDbMaterial
  3
ObjectDBX Classes
 90
     1153
280
     0
281
     0
  0
CLASS
  1
SCALE
  2
AcDbScale
  3
ObjectDBX Classes
 90
     1153
280
     0
281
     0
  0
CLASS
  1
DICTIONARYVAR
  2
AcDbDictionaryVar
  3
ObjectDBX Classes
 90
        0
280
     0
281
     0
  0
CLASS
  1
ACDBPLACEHOLDER
  2
AcDbPlaceHolder
  3
ObjectDBX Classes
 90
        0
280
     0
281
     0
  0
CLASS
  1
LAYOUT
  2
AcDbLayout
  3
ObjectDBX Classes
 90
        0
280
     0
281
     0
  0
ENDSEC
  0
SECTION
  2
TABLES
  0
TABLE
  2
VPORT
  5
8
330
0
100
AcDbSymbolTable
 70
     1
  0
VPORT
  5
29
330
8
100
AcDbSymbolTableRecord
100
AcDbViewportTableRecord
  2
*Active
 70
     0
 10
0.0
 20
0.0
 11
1.0
 21
1.0
 12
11.26
 22
4.5
 13
0.0
 23
0.0
 14
10.0
 24
10.0
 15
10.0
 25
10.0
 16
0.0
 26
0.0
 36
1.0
 17
0.0
 27
0.0
 37
0.0
 40
9.0
 41
2.503333333333333
 42
50.0
 43
0.0
 44
0.0
 50
0.0
 51
0.0
 71
     0
 72
   100
 73
     1
 74
     3
 75
     0
 76
     0
 77
     0
 78
     0
281
     0
 65
     1
110
0.0
120
0.0
130
0.0
111
1.0
121
0.0
131
0.0
112
0.0
122
1.0
132
0.0
 79
     0
146
0.0
  0
ENDTAB
  0
TABLE
  2
LTYPE
  5
5
330
0
100
AcDbSymbolTable
 70
    10
  0
LTYPE
  5
14
330
5
100
AcDbSymbolTableRecord
100
AcDbLinetypeTableRecord
  2
ByBlock
 70
     0
  3

 72
    65
 73
     0
 40
0.0
  0
LTYPE
  5
15
330
5
100
AcDbSymbolTableRecord
100
AcDbLinetypeTableRecord
  2
ByLayer
 70
     0
  3

 72
    65
 73
     0
 40
0.0
  0
LTYPE
  5
16
330
5
100
AcDbSymbolTableRecord
100
AcDbLinetypeTableRecord
  2
Continuous
 70
     0
  3
Solid line
 72
    65
 73
     0
 40
0.0
  0
LTYPE
  5
45
330
5
100
AcDbSymbolTableRecord
100
AcDbLinetypeTableRecord
  2
phl_thick
 70
     0
  3
THICK
 72
    65
 73
     0
 40
0.0
  0
LTYPE
  5
30B
330
5
100
AcDbSymbolTableRecord
100
AcDbLinetypeTableRecord
  2
CUT
 70
     0
  3
THICK
 72
    65
 73
     0
 40
0.0
  0
LTYPE
  5
312
330
5
100
AcDbSymbolTableRecord
100
AcDbLinetypeTableRecord
  2
NOCUT
 70
     0
  3
THICK
 72
    65
 73
     0
 40
0.0
  0
LTYPE
  5
31A
330
5
100
AcDbSymbolTableRecord
100
AcDbLinetypeTableRecord
  2
SK1
 70
     0
  3
THICK
 72
    65
 73
     0
 40
0.0
  0
LTYPE
  5
325
330
5
100
AcDbSymbolTableRecord
100
AcDbLinetypeTableRecord
  2
ls_SK2
 70
     0
  3
THIN
 72
    65
 73
     0
 40
0.0
  0
LTYPE
  5
3D3
330
5
100
AcDbSymbolTableRecord
100
AcDbLinetypeTableRecord
  2
ls_2
 70
     0
  3
THIN
 72
    65
 73
     0
 40
0.0
  0
LTYPE
  5
5A8
330
5
100
AcDbSymbolTableRecord
100
AcDbLinetypeTableRecord
  2
ls_SK1
 70
     0
  3
THICK
 72
    65
 73
     0
 40
0.0
  0
LTYPE
  5
5E2
330
5
100
AcDbSymbolTableRecord
100
AcDbLinetypeTableRecord
  2
LONGDASH_DASH
 70
     0
  3
THIN_DASHDOT
 72
    65
 73
     4
 40
0.85
 49
0.4
 74
     0
 49
-0.2
 74
     0
 49
0.05
 74
     0
 49
-0.2
 74
     0
  0
LTYPE
  5
5E7
330
5
100
AcDbSymbolTableRecord
100
AcDbLinetypeTableRecord
  2
ls1
 70
     0
  3
THICK
 72
    65
 73
     0
 40
0.0
  0
ENDTAB
  0
TABLE
  2
LAYER
  5
2
330
0
100
AcDbSymbolTable
 70
    10
  0
LAYER
  5
10
330
2
100
AcDbSymbolTableRecord
100
AcDbLayerTableRecord
  2
0
 70
     0
 62
     7
  6
Continuous
370
    -3
390
F
  0
LAYER
  5
44
330
2
100
AcDbSymbolTableRecord
100
AcDbLayerTableRecord
  2
1
 70
     0
 62
4
  6
CONTINUOUS
370
50
370
    -3
390
F
  0
LAYER
  5
30A
330
2
100
AcDbSymbolTableRecord
100
AcDbLayerTableRecord
  2
CUT
 70
     0
 62
1
  6
CONTINUOUS
370
25
370
    -3
390
F
  0
LAYER
  5
311
330
2
100
AcDbSymbolTableRecord
100
AcDbLayerTableRecord
  2
NOCUT
 70
     0
 62
7
  6
CONTINUOUS
370
25
370
    -3
390
F
  0
LAYER
  5
319
330
2
100
AcDbSymbolTableRecord
100
AcDbLayerTableRecord
  2
SK1
 70
     0
 62
4
  6
CONTINUOUS
370
50
370
    -3
390
F
  0
LAYER
  5
324
330
2
100
AcDbSymbolTableRecord
100
AcDbLayerTableRecord
  2
SK2
 70
     0
 62
7
  6
CONTINUOUS
370
25
370
    -3
390
F
  0
LAYER
  5
3D2
330
2
100
AcDbSymbolTableRecord
100
AcDbLayerTableRecord
  2
2
 70
     0
 62
7
  6
CONTINUOUS
370
25
370
    -3
390
F
  0
LAYER
  5
5E1
330
2
100
AcDbSymbolTableRecord
100
AcDbLayerTableRecord
  2
4
 70
     0
 62
2
  6
LONGDASH_DASH
370
25
370
    -3
390
F
  0
LAYER
  5
5E4
330
2
100
AcDbSymbolTableRecord
100
AcDbLayerTableRecord
  2
SK4
 70
     0
 62
2
  6
LONGDASH_DASH
370
25
370
    -3
390
F
  0
LAYER
  5
5E6
330
2
100
AcDbSymbolTableRecord
100
AcDbLayerTableRecord
  2
SK6
 70
     0
 62
5
  6
CONTINUOUS
370
25
370
    -3
390
F
  0
ENDTAB
  0
TABLE
  2
STYLE
  5
3
330
0
100
AcDbSymbolTable
 70
     1
  0
STYLE
  5
11
330
3
100
AcDbSymbolTableRecord
100
AcDbTextStyleTableRecord
  2
Standard
 70
     0
 40
0.0
 41
1.0
 50
0.0
 71
     0
 42
2.5
  3
Monospac821 BT
  4

  0
ENDTAB
  0
TABLE
  2
VIEW
  5
6
330
0
100
AcDbSymbolTable
 70
     0
  0
ENDTAB
  0
TABLE
  2
UCS
  5
7
330
0
100
AcDbSymbolTable
 70
     0
  0
ENDTAB
  0
TABLE
  2
APPID
  5
9
330
0
100
AcDbSymbolTable
 70
     2
  0
APPID
  5
12
330
9
100
AcDbSymbolTableRecord
100
AcDbRegAppTableRecord
  2
ACAD
 70
     0
  0
APPID
  5
3F
330
9
100
AcDbSymbolTableRecord
100
AcDbRegAppTableRecord
  2
ccLab
 70
     0
  0
ENDTAB
  0
TABLE
  2
DIMSTYLE
  5
A
330
0
100
AcDbSymbolTable
 70
     1
100
AcDbDimStyleTable
  0
DIMSTYLE
105
27
330
A
100
AcDbSymbolTableRecord
100
AcDbDimStyleTableRecord
  2
ISO-25
 70
     0
 41
2.5
 42
0.625
 43
3.75
 44
1.25
 73
     0
 74
     0
 77
     1
 78
     8
140
2.5
141
2.5
143
0.03937007874016
147
0.625
171
     3
172
     1
271
     2
272
     2
274
     3
278
    44
283
     0
284
     8
340
11
  0
ENDTAB
  0
TABLE
  2
BLOCK_RECORD
  5
1
330
0
100
AcDbSymbolTable
 70
     2
  0
BLOCK_RECORD
  5
1F
330
1
100
AcDbSymbolTableRecord
100
AcDbBlockTableRecord
  2
*Model_Space
340
22
  0
BLOCK_RECORD
  5
1B
330
1
100
AcDbSymbolTableRecord
100
AcDbBlockTableRecord
  2
*Paper_Space
340
1E
  0
BLOCK_RECORD
  5
23
330
1
100
AcDbSymbolTableRecord
100
AcDbBlockTableRecord
  2
*Paper_Space0
340
26
  0
ENDTAB
  0
ENDSEC
  0
SECTION
  2
BLOCKS
  0
BLOCK
  5
20
330
1F
100
AcDbEntity
  8
0
100
AcDbBlockBegin
  2
*Model_Space
 70
     0
 10
0.0
 20
0.0
 30
0.0
  3
*Model_Space
  1

  0
ENDBLK
  5
21
330
1F
100
AcDbEntity
  8
0
100
AcDbBlockEnd
  0
BLOCK
  5
1C
330
1B
100
AcDbEntity
 67
     1
  8
0
100
AcDbBlockBegin
  2
*Paper_Space
 70
     0
 10
0.0
 20
0.0
 30
0.0
  3
*Paper_Space
  1

  0
ENDBLK
  5
1D
330
1B
100
AcDbEntity
 67
     1
  8
0
100
AcDbBlockEnd
  0
BLOCK
  5
24
330
23
100
AcDbEntity
  8
0
100
AcDbBlockBegin
  2
*Paper_Space0
 70
     0
 10
0.0
 20
0.0
 30
0.0
  3
*Paper_Space0
  1

  0
ENDBLK
  5
25
330
23
100
AcDbEntity
  8
0
100
AcDbBlockEnd
  0
ENDSEC
  0
SECTION
  2
ENTITIES
  0
LINE
  5
5F1
330
1F
100
AcDbEntity
  8
1
  6
CONTINUOUS
370
50
 62
4
100
AcDbLine
 10
129.227554
 20
-3.544304
 30
0.0
 11
129.225876
 21
-3.386676
 31
0.0
  0
LINE
  5
5F2
330
1F
100
AcDbEntity
  8
1
  6
CONTINUOUS
370
50
 62
4
100
AcDbLine
 10
128.23996
 20
3.174357
 30
0.0
 11
128.238693
 21
3.24347
 31
0.0
  0
LINE
  5
5F3
330
1F
100
AcDbEntity
  8
1
  6
CONTINUOUS
370
50
 62
4
100
AcDbLine
 10
129.304565
 20
2.366146
 30
0.0
 11
129.304443
 21
2.370898
 31
0.0
  0
LINE
  5
5F4
330
1F
100
AcDbEntity
  8
1
  6
CONTINUOUS
370
50
 62
4
100
AcDbLine
 10
129.228943
 20
1.717009
 30
0.0
 11
129.225525
 21
1.846285
 31
0.0
  0
LINE
  5
5F5
330
1F
100
AcDbEntity
  8
1
  6
CONTINUOUS
370
50
 62
4
100
AcDbLine
 10
129.304855
 20
2.356573
 30
0.0
 11
129.304718
 21
2.361372
 31
0.0
  0
LINE
  5
5F6
330
1F
100
AcDbEntity
  8
1
  6
CONTINUOUS
370
50
 62
4
100
AcDbLine
 10
129.304565
 20
-2.519949
 30
0.0
 11
129.304443
 21
-2.515894
 31
0.0
  0
LINE
  5
5F7
330
1F
100
AcDbEntity
  8
1
  6
CONTINUOUS
370
50
 62
4
100
AcDbLine
 10
129.304718
 20
2.361372
 30
0.0
 11
129.304565
 21
2.366146
 31
0.0
  0
LINE
  5
5F8
330
1F
100
AcDbEntity
  8
1
  6
CONTINUOUS
370
50
 62
4
100
AcDbLine
 10
129.304855
 20
-2.527984
 30
0.0
 11
129.304718
 21
-2.523979
 31
0.0
  0
LINE
  5
5F9
330
1F
100
AcDbEntity
  8
1
  6
CONTINUOUS
370
50
 62
4
100
AcDbLine
 10
129.305359
 20
2.34204
 30
0.0
 11
129.305191
 21
2.346908
 31
0.0
  0
LINE
  5
5FA
330
1F
100
AcDbEntity
  8
1
  6
CONTINUOUS
370
50
 62
4
100
AcDbLine
 10
129.305191
 20
2.346908
 30
0.0
 11
129.305023
 21
2.351752
 31
0.0
  0
LINE
  5
5FB
330
1F
100
AcDbEntity
  8
1
  6
CONTINUOUS
370
50
 62
4
100
AcDbLine
 10
129.305023
 20
2.351752
 30
0.0
 11
129.304855
 21
2.356573
 31
0.0
  0
LINE
  5
5FC
330
1F
100
AcDbEntity
  8
1
  6
CONTINUOUS
370
50
 62
4
100
AcDbLine
 10
129.305542
 20
2.33715
 30
0.0
 11
129.305359
 21
2.34204
 31
0.0
  0
LINE
  5
5FD
330
1F
100
AcDbEntity
  8
1
  6
CONTINUOUS
370
50
 62
4
100
AcDbLine
 10
129.304718
 20
-2.523979
 30
0.0
 11
129.304565
 21
-2.519949
 31
0.0
  0
LINE
  5
5FE
330
1F
100
AcDbEntity
  8
1
  6
CONTINUOUS
370
50
 62
4
100
AcDbLine
 10
129.305023
 20
-2.531965
 30
0.0
 11
129.304855
 21
-2.527984
 31
0.0
  0
LINE
  5
5FF
330
1F
100
AcDbEntity
  8
1
  6
CONTINUOUS
370
50
 62
4
100
AcDbLine
 10
129.305191
 20
-2.53592
 30
0.0
 11
129.305023
 21
-2.531965
 31
0.0
  0
LINE
  5
600
330
1F
100
AcDbEntity
  8
1
  6
CONTINUOUS
370
50
 62
4
100
AcDbLine
 10
113.348022
 20
-1.759024
 30
0.0
 11
113.344597
 21
-1.67882
 31
0.0
  0
LINE
  5
601
330
1F
100
AcDbEntity
  8
1
  6
CONTINUOUS
370
50
 62
4
100
AcDbLine
 10
129.305359
 20
-2.539851
 30
0.0
 11
129.305191
 21
-2.53592
 31
0.0
  0
LINE
  5
602
330
1F
100
AcDbEntity
  8
1
  6
CONTINUOUS
370
50
 62
4
100
AcDbLine
 10
129.305542
 20
-2.543757
 30
0.0
 11
129.305359
 21
-2.539851
 31
0.0
  0
LINE
  5
603
330
1F
100
AcDbEntity
  8
1
  6
CONTINUOUS
370
50
 62
4
100
AcDbLine
 10
129.23732
 20
1.575644
 30
0.0
 11
129.228943
 21
1.717009
 31
0.0
  0
LINE
  5
604
330
1F
100
AcDbEntity
  8
1
  6
CONTINUOUS
370
50
 62
4
100
AcDbLine
 10
128.238693
 20
3.24347
 30
0.0
 11
128.234375
 21
3.315506
 31
0.0
  0
LINE
  5
605
330
1F
100
AcDbEntity
  8
1
  6
CONTINUOUS
370
50
 62
4
100
AcDbLine
 10
129.238235
 20
-3.676329
 30
0.0
 11
129.227554
 21
-3.544304
 31
0.0
  0
LINE
  5
606
330
1F
100
AcDbEntity
  8
1
  6
CONTINUOUS
370
50
 62
4
100
AcDbLine
 10
129.25061
 20
1.422591
 30
0.0
 11
129.23732
 21
1.575644
 31
0.0
  0
LINE
  5
607
330
1F
100
AcDbEntity
  8
1
  6
CONTINUOUS
370
50
 62
4
100
AcDbLine
 10
128.234375
 20
3.315506
 30
0.0
 11
128.227081
 21
3.390348
 31
0.0
  0
LINE
  5
608
330
1F
100
AcDbEntity
  8
1
  6
CONTINUOUS
370
50
 62
4
100
AcDbLine
 10
129.268784
 20
1.258255
 30
0.0
 11
129.25061
 21
1.422591
 31
0.0
  0
LINE
  5
609
330
1F
100
AcDbEntity
  8
1
  6
CONTINUOUS
370
50
 62
4
100
AcDbLine
 10
129.291779
 20
1.083038
 30
0.0
 11
129.268784
 21
1.258255
 31
0.0
  0
LINE
  5
60A
330
1F
100
AcDbEntity
  8
1
  6
CONTINUOUS
370
50
 62
4
100
AcDbLine
 10
128.227081
 20
3.390348
 30
0.0
 11
128.216843
 21
3.467854
 31
0.0
  0
LINE
  5
60B
330
1F
100
AcDbEntity
  8
1
  6
CONTINUOUS
370
50
 62
4
100
AcDbLine
 10
113.359818
 20
-1.837958
 30
0.0
 11
113.348022
 21
-1.759024
 31
0.0
  0
LINE
  5
60C
330
1F
100
AcDbEntity
  8
1
  6
CONTINUOUS
370
50
 62
4
100
AcDbLine
 10
129.319565
 20
0.8973629999999999
 30
0.0
 11
129.291779
 21
1.083038
 31
0.0
  0
LINE
  5
60D
330
1F
100
AcDbEntity
  8
1
  6
CONTINUOUS
370
50
 62
4
100
AcDbLine
 10
128.216843
 20
3.467854
 30
0.0
 11
128.20372
 21
3.547881
 31
0.0
  0
LINE
  5
60E
330
1F
100
AcDbEntity
  8
1
  6
CONTINUOUS
370
50
 62
4
100
AcDbLine
 10
129.351883
 20
0.7029529999999999
 30
0.0
 11
129.319565
 21
0.8973629999999999
 31
0.0
  0
LINE
  5
60F
330
1F
100
AcDbEntity
  8
1
  6
CONTINUOUS
370
50
 62
4
100
AcDbLine
 10
129.388443
 20
0.5012059999999999
 30
0.0
 11
129.351883
 21
0.7029529999999999
 31
0.0
  0
LINE
  5
610
330
1F
100
AcDbEntity
  8
1
  6
CONTINUOUS
370
50
 62
4
100
AcDbLine
 10
129.257843
 20
-3.782006
 30
0.0
 11
129.238235
 21
-3.676329
 31
0.0
  0
LINE
  5
611
330
1F
100
AcDbEntity
  8
1
  6
CONTINUOUS
370
50
 62
4
100
AcDbLine
 10
128.20372
 20
3.547881
 30
0.0
 11
128.187744
 21
3.630285
 31
0.0
  0
LINE
  5
612
330
1F
100
AcDbEntity
  8
1
  6
CONTINUOUS
370
50
 62
4
100
AcDbLine
 10
129.429077
 20
0.292773
 30
0.0
 11
129.388443
 21
0.5012059999999999
 31
0.0
  0
LINE
  5
613
330
1F
100
AcDbEntity
  8
1
  6
CONTINUOUS
370
50
 62
4
100
AcDbLine
 10
129.473618
 20
0.078302
 30
0.0
 11
129.429077
 21
0.292773
 31
0.0
  0
LINE
  5
614
330
1F
100
AcDbEntity
  8
1
  6
CONTINUOUS
370
50
 62
4
100
AcDbLine
 10
129.521881
 20
-0.141555
 30
0.0
 11
129.473618
 21
0.078302
 31
0.0
  0
LINE
  5
615
330
1F
100
AcDbEntity
  8
1
  6
CONTINUOUS
370
50
 62
4
100
AcDbLine
 10
128.187744
 20
3.630285
 30
0.0
 11
128.168976
 21
3.714923
 31
0.0
  0
LINE
  5
616
330
1F
100
AcDbEntity
  8
1
  6
CONTINUOUS
370
50
 62
4
100
AcDbLine
 10
129.5737
 20
-0.36615
 30
0.0
 11
129.521881
 21
-0.141555
 31
0.0
  0
LINE
  5
617
330
1F
100
AcDbEntity
  8
1
  6
CONTINUOUS
370
50
 62
4
100
AcDbLine
 10
129.628738
 20
-0.594189
 30
0.0
 11
129.5737
 21
-0.36615
 31
0.0
  0
LINE
  5
618
330
1F
100
AcDbEntity
  8
1
  6
CONTINUOUS
370
50
 62
4
100
AcDbLine
 10
128.168976
 20
3.714923
 30
0.0
 11
128.147461
 21
3.801653
 31
0.0
  0
LINE
  5
619
330
1F
100
AcDbEntity
  8
1
  6
CONTINUOUS
370
50
 62
4
100
AcDbLine
 10
129.68663
 20
-0.824337
 30
0.0
 11
129.628738
 21
-0.594189
 31
0.0
  0
LINE
  5
61A
330
1F
100
AcDbEntity
  8
1
  6
CONTINUOUS
370
50
 62
4
100
AcDbLine
 10
113.37925
 20
-1.914488
 30
0.0
 11
113.359818
 21
-1.837958
 31
0.0
  0
LINE
  5
61B
330
1F
100
AcDbEntity
  8
1
  6
CONTINUOUS
370
50
 62
4
100
AcDbLine
 10
129.747192
 20
-1.055968
 30
0.0
 11
129.68663
 21
-0.824337
 31
0.0
  0
LINE
  5
61C
330
1F
100
AcDbEntity
  8
1
  6
CONTINUOUS
370
50
 62
4
100
AcDbLine
 10
129.810181
 20
-1.288453
 30
0.0
 11
129.747192
 21
-1.055968
 31
0.0
  0
LINE
  5
61D
330
1F
100
AcDbEntity
  8
1
  6
CONTINUOUS
370
50
 62
4
100
AcDbLine
 10
128.147461
 20
3.801653
 30
0.0
 11
128.123245
 21
3.890332
 31
0.0
  0
LINE
  5
61E
330
1F
100
AcDbEntity
  8
1
  6
CONTINUOUS
370
50
 62
4
100
AcDbLine
 10
129.875305
 20
-1.520867
 30
0.0
 11
129.810181
 21
-1.288453
 31
0.0
  0
LINE
  5
61F
330
1F
100
AcDbEntity
  8
1
  6
CONTINUOUS
370
50
 62
4
100
AcDbLine
 10
128.034836
 20
4.184191
 30
0.0
 11
128.024826
 21
4.218014999999999
 31
0.0
  0
LINE
  5
620
330
1F
100
AcDbEntity
  8
1
  6
CONTINUOUS
370
50
 62
4
100
AcDbLine
 10
128.123245
 20
3.890332
 30
0.0
 11
128.096375
 21
3.980815
 31
0.0
  0
LINE
  5
621
330
1F
100
AcDbEntity
  8
1
  6
CONTINUOUS
370
50
 62
4
100
AcDbLine
 10
128.044907
 20
4.150345
 30
0.0
 11
128.034836
 21
4.184191
 31
0.0
  0
LINE
  5
622
330
1F
100
AcDbEntity
  8
1
  6
CONTINUOUS
370
50
 62
4
100
AcDbLine
 10
128.055054
 20
4.116477
 30
0.0
 11
128.044907
 21
4.150345
 31
0.0
  0
LINE
  5
623
330
1F
100
AcDbEntity
  8
1
  6
CONTINUOUS
370
50
 62
4
100
AcDbLine
 10
128.065277
 20
4.08259
 30
0.0
 11
128.055054
 21
4.116477
 31
0.0
  0
LINE
  5
624
330
1F
100
AcDbEntity
  8
1
  6
CONTINUOUS
370
50
 62
4
100
AcDbLine
 10
128.075577
 20
4.048684
 30
0.0
 11
128.065277
 21
4.08259
 31
0.0
  0
LINE
  5
625
330
1F
100
AcDbEntity
  8
1
  6
CONTINUOUS
370
50
 62
4
100
AcDbLine
 10
128.085938
 20
4.014758
 30
0.0
 11
128.075577
 21
4.048684
 31
0.0
  0
LINE
  5
626
330
1F
100
AcDbEntity
  8
1
  6
CONTINUOUS
370
50
 62
4
100
AcDbLine
 10
128.096375
 20
3.980815
 30
0.0
 11
128.085938
 21
4.014758
 31
0.0
  0
LINE
  5
627
330
1F
100
AcDbEntity
  8
1
  6
CONTINUOUS
370
50
 62
4
100
AcDbLine
 10
113.523399
 20
-2.269376
 30
0.0
 11
113.476059
 21
-2.128538
 31
0.0
  0
LINE
  5
628
330
1F
100
AcDbEntity
  8
1
  6
CONTINUOUS
370
50
 62
4
100
AcDbLine
 10
129.495529
 20
2.070958
 30
0.0
 11
129.37059
 21
2.43367
 31
0.0
  0
LINE
  5
629
330
1F
100
AcDbEntity
  8
1
  6
CONTINUOUS
370
50
 62
4
100
AcDbLine
 10
129.800003
 20
1.187086
 30
0.0
 11
129.495529
 21
2.070958
 31
0.0
  0
LINE
  5
62A
330
1F
100
AcDbEntity
  8
1
  6
CONTINUOUS
370
50
 62
4
100
AcDbLine
 10
113.405586
 20
-1.988504
 30
0.0
 11
113.37925
 21
-1.914488
 31
0.0
  0
LINE
  5
62B
330
1F
100
AcDbEntity
  8
1
  6
CONTINUOUS
370
50
 62
4
100
AcDbLine
 10
129.28624
 20
-3.860854
 30
0.0
 11
129.257843
 21
-3.782006
 31
0.0
  0
LINE
  5
62C
330
1F
100
AcDbEntity
  8
1
  6
CONTINUOUS
370
50
 62
4
100
AcDbLine
 10
113.572983
 20
-2.404544
 30
0.0
 11
113.523399
 21
-2.269376
 31
0.0
  0
LINE
  5
62D
330
1F
100
AcDbEntity
  8
1
  6
CONTINUOUS
370
50
 62
4
100
AcDbLine
 10
113.625107
 20
-2.533896
 30
0.0
 11
113.572983
 21
-2.404544
 31
0.0
  0
LINE
  5
62E
330
1F
100
AcDbEntity
  8
1
  6
CONTINUOUS
370
50
 62
4
100
AcDbLine
 10
113.680084
 20
-2.657284
 30
0.0
 11
113.625107
 21
-2.533896
 31
0.0
  0
LINE
  5
62F
330
1F
100
AcDbEntity
  8
1
  6
CONTINUOUS
370
50
 62
4
100
AcDbLine
 10
113.438095
 20
-2.059891
 30
0.0
 11
113.405586
 21
-1.988504
 31
0.0
  0
LINE
  5
630
330
1F
100
AcDbEntity
  8
1
  6
CONTINUOUS
370
50
 62
4
100
AcDbLine
 10
128.827118
 20
2.504709
 30
0.0
 11
128.024826
 21
4.218014999999999
 31
0.0
  0
LINE
  5
631
330
1F
100
AcDbEntity
  8
1
  6
CONTINUOUS
370
50
 62
4
100
AcDbLine
 10
113.738228
 20
-2.774562
 30
0.0
 11
113.680084
 21
-2.657284
 31
0.0
  0
LINE
  5
632
330
1F
100
AcDbEntity
  8
1
  6
CONTINUOUS
370
50
 62
4
100
AcDbLine
 10
113.476059
 20
-2.128538
 30
0.0
 11
113.438095
 21
-2.059891
 31
0.0
  0
LINE
  5
633
330
1F
100
AcDbEntity
  8
1
  6
CONTINUOUS
370
50
 62
4
100
AcDbLine
 10
113.79985
 20
-2.885571
 30
0.0
 11
113.738228
 21
-2.774562
 31
0.0
  0
LINE
  5
634
330
1F
100
AcDbEntity
  8
1
  6
CONTINUOUS
370
50
 62
4
100
AcDbLine
 10
113.864952
 20
-2.989646
 30
0.0
 11
113.79985
 21
-2.885571
 31
0.0
  0
LINE
  5
635
330
1F
100
AcDbEntity
  8
1
  6
CONTINUOUS
370
50
 62
4
100
AcDbLine
 10
113.933739
 20
-3.086531
 30
0.0
 11
113.864952
 21
-2.989646
 31
0.0
  0
LINE
  5
636
330
1F
100
AcDbEntity
  8
1
  6
CONTINUOUS
370
50
 62
4
100
AcDbLine
 10
129.323364
 20
-3.912384
 30
0.0
 11
129.28624
 21
-3.860854
 31
0.0
  0
LINE
  5
637
330
1F
100
AcDbEntity
  8
1
  6
CONTINUOUS
370
50
 62
4
100
AcDbLine
 10
114.006561
 20
-3.176308
 30
0.0
 11
113.933739
 21
-3.086531
 31
0.0
  0
LINE
  5
638
330
1F
100
AcDbEntity
  8
1
  6
CONTINUOUS
370
50
 62
4
100
AcDbLine
 10
114.083771
 20
-3.259059
 30
0.0
 11
114.006561
 21
-3.176308
 31
0.0
  0
LINE
  5
639
330
1F
100
AcDbEntity
  8
1
  6
CONTINUOUS
370
50
 62
4
100
AcDbLine
 10
129.304443
 20
2.370898
 30
0.0
 11
129.304214
 21
2.371143
 31
0.0
  0
LINE
  5
63A
330
1F
100
AcDbEntity
  8
1
  6
CONTINUOUS
370
50
 62
4
100
AcDbLine
 10
114.163269
 20
3.155016
 30
0.0
 11
114.054878
 21
3.265283
 31
0.0
  0
LINE
  5
63B
330
1F
100
AcDbEntity
  8
1
  6
CONTINUOUS
370
50
 62
4
100
AcDbLine
 10
114.054878
 20
3.265283
 30
0.0
 11
113.95475
 21
3.366578
 31
0.0
  0
LINE
  5
63C
330
1F
100
AcDbEntity
  8
1
  6
CONTINUOUS
370
50
 62
4
100
AcDbLine
 10
114.280777
 20
3.036659
 30
0.0
 11
114.163269
 21
3.155016
 31
0.0
  0
LINE
  5
63D
330
1F
100
AcDbEntity
  8
1
  6
CONTINUOUS
370
50
 62
4
100
AcDbLine
 10
113.95475
 20
3.366578
 30
0.0
 11
113.862038
 21
3.45802
 31
0.0
  0
LINE
  5
63E
330
1F
100
AcDbEntity
  8
1
  6
CONTINUOUS
370
50
 62
4
100
AcDbLine
 10
114.40744
 20
2.91198
 30
0.0
 11
114.280777
 21
3.036659
 31
0.0
  0
LINE
  5
63F
330
1F
100
AcDbEntity
  8
1
  6
CONTINUOUS
370
50
 62
4
100
AcDbLine
 10
126.876884
 20
-0.005012
 30
0.0
 11
126.871651
 21
0.0
 31
0.0
  0
LINE
  5
640
330
1F
100
AcDbEntity
  8
1
  6
CONTINUOUS
370
50
 62
4
100
AcDbLine
 10
114.542267
 20
2.783493
 30
0.0
 11
114.40744
 21
2.91198
 31
0.0
  0
LINE
  5
641
330
1F
100
AcDbEntity
  8
1
  6
CONTINUOUS
370
50
 62
4
100
AcDbLine
 10
113.862038
 20
3.45802
 30
0.0
 11
113.775887
 21
3.538716
 31
0.0
  0
LINE
  5
642
330
1F
100
AcDbEntity
  8
1
  6
CONTINUOUS
370
50
 62
4
100
AcDbLine
 10
114.165726
 20
-3.334867
 30
0.0
 11
114.083771
 21
-3.259059
 31
0.0
  0
LINE
  5
643
330
1F
100
AcDbEntity
  8
1
  6
CONTINUOUS
370
50
 62
4
100
AcDbLine
 10
114.685669
 20
2.651893
 30
0.0
 11
114.542267
 21
2.783493
 31
0.0
  0
LINE
  5
644
330
1F
100
AcDbEntity
  8
1
  6
CONTINUOUS
370
50
 62
4
100
AcDbLine
 10
114.838097
 20
2.517828
 30
0.0
 11
114.685669
 21
2.651893
 31
0.0
  0
LINE
  5
645
330
1F
100
AcDbEntity
  8
1
  6
CONTINUOUS
370
50
 62
4
100
AcDbLine
 10
126.893135
 20
-0.019253
 30
0.0
 11
126.887733
 21
-0.014517
 31
0.0
  0
LINE
  5
646
330
1F
100
AcDbEntity
  8
1
  6
CONTINUOUS
370
50
 62
4
100
AcDbLine
 10
126.887733
 20
-0.014517
 30
0.0
 11
126.882317
 21
-0.00977
 31
0.0
  0
LINE
  5
647
330
1F
100
AcDbEntity
  8
1
  6
CONTINUOUS
370
50
 62
4
100
AcDbLine
 10
126.903908
 20
-0.028693
 30
0.0
 11
126.898529
 21
-0.023979
 31
0.0
  0
LINE
  5
648
330
1F
100
AcDbEntity
  8
1
  6
CONTINUOUS
370
50
 62
4
100
AcDbLine
 10
126.898529
 20
-0.023979
 30
0.0
 11
126.893135
 21
-0.019253
 31
0.0
  0
LINE
  5
649
330
1F
100
AcDbEntity
  8
1
  6
CONTINUOUS
370
50
 62
4
100
AcDbLine
 10
126.882317
 20
-0.00977
 30
0.0
 11
126.876884
 21
-0.005012
 31
0.0
  0
LINE
  5
64A
330
1F
100
AcDbEntity
  8
1
  6
CONTINUOUS
370
50
 62
4
100
AcDbLine
 10
127.20948
 20
-0.294993
 30
0.0
 11
126.903908
 21
-0.028693
 31
0.0
  0
LINE
  5
64B
330
1F
100
AcDbEntity
  8
1
  6
CONTINUOUS
370
50
 62
4
100
AcDbLine
 10
126.871651
 20
0.0
 30
0.0
 11
126.597939
 21
0.238503
 31
0.0
  0
LINE
  5
64C
330
1F
100
AcDbEntity
  8
1
  6
CONTINUOUS
370
50
 62
4
100
AcDbLine
 10
126.597939
 20
0.238503
 30
0.0
 11
126.292091
 21
0.501563
 31
0.0
  0
LINE
  5
64D
330
1F
100
AcDbEntity
  8
1
  6
CONTINUOUS
370
50
 62
4
100
AcDbLine
 10
113.775887
 20
3.538716
 30
0.0
 11
113.69603
 21
3.60733
 31
0.0
  0
LINE
  5
64E
330
1F
100
AcDbEntity
  8
1
  6
CONTINUOUS
370
50
 62
4
100
AcDbLine
 10
127.407295
 20
0.49168
 30
0.0
 11
126.83683
 21
0.981757
 31
0.0
  0
LINE
  5
64F
330
1F
100
AcDbEntity
  8
1
  6
CONTINUOUS
370
50
 62
4
100
AcDbLine
 10
127.515213
 20
-0.556075
 30
0.0
 11
127.20948
 21
-0.294993
 31
0.0
  0
LINE
  5
650
330
1F
100
AcDbEntity
  8
1
  6
CONTINUOUS
370
50
 62
4
100
AcDbLine
 10
127.991447
 20
0.0
 30
0.0
 11
127.407295
 21
0.49168
 31
0.0
  0
LINE
  5
651
330
1F
100
AcDbEntity
  8
1
  6
CONTINUOUS
370
50
 62
4
100
AcDbLine
 10
126.83683
 20
0.981757
 30
0.0
 11
126.26226
 21
1.465182
 31
0.0
  0
LINE
  5
652
330
1F
100
AcDbEntity
  8
1
  6
CONTINUOUS
370
50
 62
4
100
AcDbLine
 10
126.292091
 20
0.501563
 30
0.0
 11
125.950836
 21
0.788241
 31
0.0
  0
LINE
  5
653
330
1F
100
AcDbEntity
  8
1
  6
CONTINUOUS
370
50
 62
4
100
AcDbLine
 10
115.0
 20
2.381943
 30
0.0
 11
114.838097
 21
2.517828
 31
0.0
  0
LINE
  5
654
330
1F
100
AcDbEntity
  8
1
  6
CONTINUOUS
370
50
 62
4
100
AcDbLine
 10
127.822983
 20
-0.8134199999999999
 30
0.0
 11
127.515213
 21
-0.556075
 31
0.0
  0
LINE
  5
655
330
1F
100
AcDbEntity
  8
1
  6
CONTINUOUS
370
50
 62
4
100
AcDbLine
 10
128.260727
 20
-0.222605
 30
0.0
 11
127.991447
 21
0.0
 31
0.0
  0
LINE
  5
656
330
1F
100
AcDbEntity
  8
1
  6
CONTINUOUS
370
50
 62
4
100
AcDbLine
 10
115.074509
 20
0.36867
 30
0.0
 11
115.0
 21
0.430137
 31
0.0
  0
LINE
  5
657
330
1F
100
AcDbEntity
  8
1
  6
CONTINUOUS
370
50
 62
4
100
AcDbLine
 10
115.149124
 20
0.307199
 30
0.0
 11
115.074509
 21
0.36867
 31
0.0
  0
LINE
  5
658
330
1F
100
AcDbEntity
  8
1
  6
CONTINUOUS
370
50
 62
4
100
AcDbLine
 10
115.223846
 20
0.245729
 30
0.0
 11
115.149124
 21
0.307199
 31
0.0
  0
LINE
  5
659
330
1F
100
AcDbEntity
  8
1
  6
CONTINUOUS
370
50
 62
4
100
AcDbLine
 10
115.298645
 20
0.184269
 30
0.0
 11
115.223846
 21
0.245729
 31
0.0
  0
LINE
  5
65A
330
1F
100
AcDbEntity
  8
1
  6
CONTINUOUS
370
50
 62
4
100
AcDbLine
 10
115.373528
 20
0.122824
 30
0.0
 11
115.298645
 21
0.184269
 31
0.0
  0
LINE
  5
65B
330
1F
100
AcDbEntity
  8
1
  6
CONTINUOUS
370
50
 62
4
100
AcDbLine
 10
128.530411
 20
-0.443852
 30
0.0
 11
128.260727
 21
-0.222605
 31
0.0
  0
LINE
  5
65C
330
1F
100
AcDbEntity
  8
1
  6
CONTINUOUS
370
50
 62
4
100
AcDbLine
 10
115.448463
 20
0.061403
 30
0.0
 11
115.373528
 21
0.122824
 31
0.0
  0
LINE
  5
65D
330
1F
100
AcDbEntity
  8
1
  6
CONTINUOUS
370
50
 62
4
100
AcDbLine
 10
115.523445
 20
0.0
 30
0.0
 11
115.448463
 21
0.061403
 31
0.0
  0
LINE
  5
65E
330
1F
100
AcDbEntity
  8
1
  6
CONTINUOUS
370
50
 62
4
100
AcDbLine
 10
125.950836
 20
0.788241
 30
0.0
 11
125.594353
 21
1.080122
 31
0.0
  0
LINE
  5
65F
330
1F
100
AcDbEntity
  8
1
  6
CONTINUOUS
370
50
 62
4
100
AcDbLine
 10
128.132233
 20
-1.066604
 30
0.0
 11
127.822983
 21
-0.8134199999999999
 31
0.0
  0
LINE
  5
660
330
1F
100
AcDbEntity
  8
1
  6
CONTINUOUS
370
50
 62
4
100
AcDbLine
 10
115.806236
 20
-0.230935
 30
0.0
 11
115.523445
 21
0.0
 31
0.0
  0
LINE
  5
661
330
1F
100
AcDbEntity
  8
1
  6
CONTINUOUS
370
50
 62
4
100
AcDbLine
 10
115.493027
 20
-0.9284009999999999
 30
0.0
 11
115.0
 21
-0.526662
 31
0.0
  0
LINE
  5
662
330
1F
100
AcDbEntity
  8
1
  6
CONTINUOUS
370
50
 62
4
100
AcDbLine
 10
116.08886
 20
-0.460986
 30
0.0
 11
115.806236
 21
-0.230935
 31
0.0
  0
LINE
  5
663
330
1F
100
AcDbEntity
  8
1
  6
CONTINUOUS
370
50
 62
4
100
AcDbLine
 10
128.800156
 20
-0.6632049999999999
 30
0.0
 11
128.530411
 21
-0.443852
 31
0.0
  0
LINE
  5
664
330
1F
100
AcDbEntity
  8
1
  6
CONTINUOUS
370
50
 62
4
100
AcDbLine
 10
116.370995
 20
-0.690089
 30
0.0
 11
116.08886
 21
-0.460986
 31
0.0
  0
LINE
  5
665
330
1F
100
AcDbEntity
  8
1
  6
CONTINUOUS
370
50
 62
4
100
AcDbLine
 10
116.652954
 20
-0.918666
 30
0.0
 11
116.370995
 21
-0.690089
 31
0.0
  0
LINE
  5
666
330
1F
100
AcDbEntity
  8
1
  6
CONTINUOUS
370
50
 62
4
100
AcDbLine
 10
116.934212
 20
-1.146363
 30
0.0
 11
116.652954
 21
-0.918666
 31
0.0
  0
LINE
  5
667
330
1F
100
AcDbEntity
  8
1
  6
CONTINUOUS
370
50
 62
4
100
AcDbLine
 10
117.214211
 20
-1.372792
 30
0.0
 11
116.934212
 21
-1.146363
 31
0.0
  0
LINE
  5
668
330
1F
100
AcDbEntity
  8
1
  6
CONTINUOUS
370
50
 62
4
100
AcDbLine
 10
117.492477
 20
-1.597621
 30
0.0
 11
117.214211
 21
-1.372792
 31
0.0
  0
LINE
  5
669
330
1F
100
AcDbEntity
  8
1
  6
CONTINUOUS
370
50
 62
4
100
AcDbLine
 10
117.769028
 20
-1.8207
 30
0.0
 11
117.492477
 21
-1.597621
 31
0.0
  0
LINE
  5
66A
330
1F
100
AcDbEntity
  8
1
  6
CONTINUOUS
370
50
 62
4
100
AcDbLine
 10
129.069443
 20
-0.880336
 30
0.0
 11
128.800156
 21
-0.6632049999999999
 31
0.0
  0
LINE
  5
66B
330
1F
100
AcDbEntity
  8
1
  6
CONTINUOUS
370
50
 62
4
100
AcDbLine
 10
118.043716
 20
-2.041653
 30
0.0
 11
117.769028
 21
-1.8207
 31
0.0
  0
LINE
  5
66C
330
1F
100
AcDbEntity
  8
1
  6
CONTINUOUS
370
50
 62
4
100
AcDbLine
 10
128.442383
 20
-1.3152
 30
0.0
 11
128.132233
 21
-1.066604
 31
0.0
  0
LINE
  5
66D
330
1F
100
AcDbEntity
  8
1
  6
CONTINUOUS
370
50
 62
4
100
AcDbLine
 10
129.338348
 20
-1.095482
 30
0.0
 11
129.069443
 21
-0.880336
 31
0.0
  0
LINE
  5
66E
330
1F
100
AcDbEntity
  8
1
  6
CONTINUOUS
370
50
 62
4
100
AcDbLine
 10
125.594353
 20
1.080122
 30
0.0
 11
125.235916
 21
1.366561
 31
0.0
  0
LINE
  5
66F
330
1F
100
AcDbEntity
  8
1
  6
CONTINUOUS
370
50
 62
4
100
AcDbLine
 10
115.988991
 20
-1.323312
 30
0.0
 11
115.493027
 21
-0.9284009999999999
 31
0.0
  0
LINE
  5
670
330
1F
100
AcDbEntity
  8
1
  6
CONTINUOUS
370
50
 62
4
100
AcDbLine
 10
129.607162
 20
-1.309101
 30
0.0
 11
129.338348
 21
-1.095482
 31
0.0
  0
LINE
  5
671
330
1F
100
AcDbEntity
  8
1
  6
CONTINUOUS
370
50
 62
4
100
AcDbLine
 10
114.252785
 20
-3.403814
 30
0.0
 11
114.165726
 21
-3.334867
 31
0.0
  0
LINE
  5
672
330
1F
100
AcDbEntity
  8
1
  6
CONTINUOUS
370
50
 62
4
100
AcDbLine
 10
118.366295
 20
-2.296805
 30
0.0
 11
118.043716
 21
-2.041653
 31
0.0
  0
LINE
  5
673
330
1F
100
AcDbEntity
  8
1
  6
CONTINUOUS
370
50
 62
4
100
AcDbLine
 10
126.26226
 20
1.465182
 30
0.0
 11
125.663582
 21
1.938004
 31
0.0
  0
LINE
  5
674
330
1F
100
AcDbEntity
  8
1
  6
CONTINUOUS
370
50
 62
4
100
AcDbLine
 10
129.875305
 20
-1.520867
 30
0.0
 11
129.607162
 21
-1.309101
 31
0.0
  0
LINE
  5
675
330
1F
100
AcDbEntity
  8
1
  6
CONTINUOUS
370
50
 62
4
100
AcDbLine
 10
128.753387
 20
-1.559277
 30
0.0
 11
128.442383
 21
-1.3152
 31
0.0
  0
LINE
  5
676
330
1F
100
AcDbEntity
  8
1
  6
CONTINUOUS
370
50
 62
4
100
AcDbLine
 10
125.235916
 20
1.366561
 30
0.0
 11
124.87674
 21
1.646885
 31
0.0
  0
LINE
  5
677
330
1F
100
AcDbEntity
  8
1
  6
CONTINUOUS
370
50
 62
4
100
AcDbLine
 10
116.484489
 20
-1.709502
 30
0.0
 11
115.988991
 21
-1.323312
 31
0.0
  0
LINE
  5
678
330
1F
100
AcDbEntity
  8
1
  6
CONTINUOUS
370
50
 62
4
100
AcDbLine
 10
129.065506
 20
-1.799374
 30
0.0
 11
128.753387
 21
-1.559277
 31
0.0
  0
LINE
  5
679
330
1F
100
AcDbEntity
  8
1
  6
CONTINUOUS
370
50
 62
4
100
AcDbLine
 10
116.976341
 20
-2.085236
 30
0.0
 11
116.484489
 21
-1.709502
 31
0.0
  0
LINE
  5
67A
330
1F
100
AcDbEntity
  8
1
  6
CONTINUOUS
370
50
 62
4
100
AcDbLine
 10
124.87674
 20
1.646885
 30
0.0
 11
124.51783
 21
1.920642
 31
0.0
  0
LINE
  5
67B
330
1F
100
AcDbEntity
  8
1
  6
CONTINUOUS
370
50
 62
4
100
AcDbLine
 10
129.377899
 20
-2.035039
 30
0.0
 11
129.065506
 21
-1.799374
 31
0.0
  0
LINE
  5
67C
330
1F
100
AcDbEntity
  8
1
  6
CONTINUOUS
370
50
 62
4
100
AcDbLine
 10
113.69603
 20
3.60733
 30
0.0
 11
113.621994
 21
3.663049
 31
0.0
  0
LINE
  5
67D
330
1F
100
AcDbEntity
  8
1
  6
CONTINUOUS
370
50
 62
4
100
AcDbLine
 10
117.464363
 20
-2.450659
 30
0.0
 11
116.976341
 21
-2.085236
 31
0.0
  0
LINE
  5
67E
330
1F
100
AcDbEntity
  8
1
  6
CONTINUOUS
370
50
 62
4
100
AcDbLine
 10
124.51783
 20
1.920642
 30
0.0
 11
124.158455
 21
2.188794
 31
0.0
  0
LINE
  5
67F
330
1F
100
AcDbEntity
  8
1
  6
CONTINUOUS
370
50
 62
4
100
AcDbLine
 10
118.834282
 20
-2.645866
 30
0.0
 11
118.366295
 21
-2.296805
 31
0.0
  0
LINE
  5
680
330
1F
100
AcDbEntity
  8
1
  6
CONTINUOUS
370
50
 62
4
100
AcDbLine
 10
125.663582
 20
1.938004
 30
0.0
 11
125.055618
 21
2.389055
 31
0.0
  0
LINE
  5
681
330
1F
100
AcDbEntity
  8
1
  6
CONTINUOUS
370
50
 62
4
100
AcDbLine
 10
129.689697
 20
-2.265789
 30
0.0
 11
129.377899
 21
-2.035039
 31
0.0
  0
LINE
  5
682
330
1F
100
AcDbEntity
  8
1
  6
CONTINUOUS
370
50
 62
4
100
AcDbLine
 10
117.945168
 20
-2.80291
 30
0.0
 11
117.464363
 21
-2.450659
 31
0.0
  0
LINE
  5
683
330
1F
100
AcDbEntity
  8
1
  6
CONTINUOUS
370
50
 62
4
100
AcDbLine
 10
126.903908
 20
-0.028458
 30
0.0
 11
126.51992
 21
0.252398
 31
0.0
  0
LINE
  5
684
330
1F
100
AcDbEntity
  8
1
  6
CONTINUOUS
370
50
 62
4
100
AcDbLine
 10
124.158455
 20
2.188794
 30
0.0
 11
123.799393
 21
2.450851
 31
0.0
  0
LINE
  5
685
330
1F
100
AcDbEntity
  8
1
  6
CONTINUOUS
370
50
 62
4
100
AcDbLine
 10
130.0
 20
-2.49114
 30
0.0
 11
129.689697
 21
-2.265789
 31
0.0
  0
LINE
  5
686
330
1F
100
AcDbEntity
  8
1
  6
CONTINUOUS
370
50
 62
4
100
AcDbLine
 10
123.799393
 20
2.450851
 30
0.0
 11
123.441788
 21
2.705966
 31
0.0
  0
LINE
  5
687
330
1F
100
AcDbEntity
  8
1
  6
CONTINUOUS
370
50
 62
4
100
AcDbLine
 10
126.51992
 20
0.252398
 30
0.0
 11
126.135933
 21
0.526025
 31
0.0
  0
LINE
  5
688
330
1F
100
AcDbEntity
  8
1
  6
CONTINUOUS
370
50
 62
4
100
AcDbLine
 10
118.415741
 20
-3.133985
 30
0.0
 11
117.945168
 21
-2.80291
 31
0.0
  0
LINE
  5
689
330
1F
100
AcDbEntity
  8
1
  6
CONTINUOUS
370
50
 62
4
100
AcDbLine
 10
125.055618
 20
2.389055
 30
0.0
 11
124.444099
 21
2.815356
 31
0.0
  0
LINE
  5
68A
330
1F
100
AcDbEntity
  8
1
  6
CONTINUOUS
370
50
 62
4
100
AcDbLine
 10
123.441788
 20
2.705966
 30
0.0
 11
123.086792
 21
2.95329
 31
0.0
  0
LINE
  5
68B
330
1F
100
AcDbEntity
  8
1
  6
CONTINUOUS
370
50
 62
4
100
AcDbLine
 10
126.135933
 20
0.526025
 30
0.0
 11
125.751945
 21
0.792454
 31
0.0
  0
LINE
  5
68C
330
1F
100
AcDbEntity
  8
1
  6
CONTINUOUS
370
50
 62
4
100
AcDbLine
 10
119.4235
 20
-3.050373
 30
0.0
 11
118.834282
 21
-2.645866
 31
0.0
  0
LINE
  5
68D
330
1F
100
AcDbEntity
  8
1
  6
CONTINUOUS
370
50
 62
4
100
AcDbLine
 10
113.801682
 20
3.539815
 30
0.0
 11
113.622002
 21
3.663122
 31
0.0
  0
LINE
  5
68E
330
1F
100
AcDbEntity
  8
1
  6
CONTINUOUS
370
50
 62
4
100
AcDbLine
 10
113.981689
 20
3.417006
 30
0.0
 11
113.801682
 21
3.539815
 31
0.0
  0
LINE
  5
68F
330
1F
100
AcDbEntity
  8
1
  6
CONTINUOUS
370
50
 62
4
100
AcDbLine
 10
123.086792
 20
2.95329
 30
0.0
 11
122.738876
 21
3.190107
 31
0.0
  0
LINE
  5
690
330
1F
100
AcDbEntity
  8
1
  6
CONTINUOUS
370
50
 62
4
100
AcDbLine
 10
114.217041
 20
3.257613
 30
0.0
 11
113.981689
 21
3.417006
 31
0.0
  0
LINE
  5
691
330
1F
100
AcDbEntity
  8
1
  6
CONTINUOUS
370
50
 62
4
100
AcDbLine
 10
125.751945
 20
0.792454
 30
0.0
 11
125.367958
 21
1.051837
 31
0.0
  0
LINE
  5
692
330
1F
100
AcDbEntity
  8
1
  6
CONTINUOUS
370
50
 62
4
100
AcDbLine
 10
114.489601
 20
3.074322
 30
0.0
 11
114.217041
 21
3.257613
 31
0.0
  0
LINE
  5
693
330
1F
100
AcDbEntity
  8
1
  6
CONTINUOUS
370
50
 62
4
100
AcDbLine
 10
114.345169
 20
-3.465912
 30
0.0
 11
114.252785
 21
-3.403814
 31
0.0
  0
LINE
  5
694
330
1F
100
AcDbEntity
  8
1
  6
CONTINUOUS
370
50
 62
4
100
AcDbLine
 10
114.744492
 20
2.904464
 30
0.0
 11
114.489601
 21
3.074322
 31
0.0
  0
LINE
  5
695
330
1F
100
AcDbEntity
  8
1
  6
CONTINUOUS
370
50
 62
4
100
AcDbLine
 10
113.621994
 20
3.663049
 30
0.0
 11
113.596176
 21
3.680146
 31
0.0
  0
LINE
  5
696
330
1F
100
AcDbEntity
  8
1
  6
CONTINUOUS
370
50
 62
4
100
AcDbLine
 10
115.0
 20
2.735598
 30
0.0
 11
114.744492
 21
2.904464
 31
0.0
  0
LINE
  5
697
330
1F
100
AcDbEntity
  8
1
  6
CONTINUOUS
370
50
 62
4
100
AcDbLine
 10
125.367958
 20
1.051837
 30
0.0
 11
124.983971
 21
1.304585
 31
0.0
  0
LINE
  5
698
330
1F
100
AcDbEntity
  8
1
  6
CONTINUOUS
370
50
 62
4
100
AcDbLine
 10
122.738876
 20
3.190107
 30
0.0
 11
122.400543
 21
3.41258
 31
0.0
  0
LINE
  5
699
330
1F
100
AcDbEntity
  8
1
  6
CONTINUOUS
370
50
 62
4
100
AcDbLine
 10
124.444099
 20
2.815356
 30
0.0
 11
123.834747
 21
3.213928
 31
0.0
  0
LINE
  5
69A
330
1F
100
AcDbEntity
  8
1
  6
CONTINUOUS
370
50
 62
4
100
AcDbLine
 10
118.901367
 20
-3.446629
 30
0.0
 11
118.415741
 21
-3.133985
 31
0.0
  0
LINE
  5
69B
330
1F
100
AcDbEntity
  8
1
  6
CONTINUOUS
370
50
 62
4
100
AcDbLine
 10
124.983971
 20
1.304585
 30
0.0
 11
124.599968
 21
1.551161
 31
0.0
  0
LINE
  5
69C
330
1F
100
AcDbEntity
  8
1
  6
CONTINUOUS
370
50
 62
4
100
AcDbLine
 10
124.599968
 20
1.551161
 30
0.0
 11
124.215965
 21
1.791936
 31
0.0
  0
LINE
  5
69D
330
1F
100
AcDbEntity
  8
1
  6
CONTINUOUS
370
50
 62
4
100
AcDbLine
 10
120.033066
 20
-3.430794
 30
0.0
 11
119.4235
 21
-3.050373
 31
0.0
  0
LINE
  5
69E
330
1F
100
AcDbEntity
  8
1
  6
CONTINUOUS
370
50
 62
4
100
AcDbLine
 10
122.400543
 20
3.41258
 30
0.0
 11
122.057671
 21
3.623991
 31
0.0
  0
LINE
  5
69F
330
1F
100
AcDbEntity
  8
1
  6
CONTINUOUS
370
50
 62
4
100
AcDbLine
 10
124.215965
 20
1.791936
 30
0.0
 11
123.831963
 21
2.0271
 31
0.0
  0
LINE
  5
6A0
330
1F
100
AcDbEntity
  8
1
  6
CONTINUOUS
370
50
 62
4
100
AcDbLine
 10
123.834747
 20
3.213928
 30
0.0
 11
123.233269
 21
3.581794
 31
0.0
  0
LINE
  5
6A1
330
1F
100
AcDbEntity
  8
1
  6
CONTINUOUS
370
50
 62
4
100
AcDbLine
 10
113.596176
 20
3.680146
 30
0.0
 11
113.571014
 21
3.695428
 31
0.0
  0
LINE
  5
6A2
330
1F
100
AcDbEntity
  8
1
  6
CONTINUOUS
370
50
 62
4
100
AcDbLine
 10
123.831963
 20
2.0271
 30
0.0
 11
123.447945
 21
2.256811
 31
0.0
  0
LINE
  5
6A3
330
1F
100
AcDbEntity
  8
1
  6
CONTINUOUS
370
50
 62
4
100
AcDbLine
 10
130.0
 20
3.981656
 30
0.0
 11
129.950821
 21
4.010611
 31
0.0
  0
LINE
  5
6A4
330
1F
100
AcDbEntity
  8
1
  6
CONTINUOUS
370
50
 62
4
100
AcDbLine
 10
123.447945
 20
2.256811
 30
0.0
 11
123.063934
 21
2.480888
 31
0.0
  0
LINE
  5
6A5
330
1F
100
AcDbEntity
  8
1
  6
CONTINUOUS
370
50
 62
4
100
AcDbLine
 10
129.950821
 20
4.010611
 30
0.0
 11
129.901611
 21
4.039274
 31
0.0
  0
LINE
  5
6A6
330
1F
100
AcDbEntity
  8
1
  6
CONTINUOUS
370
50
 62
4
100
AcDbLine
 10
119.393082
 20
-3.732487
 30
0.0
 11
118.901367
 21
-3.446629
 31
0.0
  0
LINE
  5
6A7
330
1F
100
AcDbEntity
  8
1
  6
CONTINUOUS
370
50
 62
4
100
AcDbLine
 10
129.901611
 20
4.039274
 30
0.0
 11
129.852417
 21
4.067629
 31
0.0
  0
LINE
  5
6A8
330
1F
100
AcDbEntity
  8
1
  6
CONTINUOUS
370
50
 62
4
100
AcDbLine
 10
129.852417
 20
4.067629
 30
0.0
 11
129.803268
 21
4.095656
 31
0.0
  0
LINE
  5
6A9
330
1F
100
AcDbEntity
  8
1
  6
CONTINUOUS
370
50
 62
4
100
AcDbLine
 10
123.233269
 20
3.581794
 30
0.0
 11
122.649345
 21
3.914037
 31
0.0
  0
LINE
  5
6AA
330
1F
100
AcDbEntity
  8
1
  6
CONTINUOUS
370
50
 62
4
100
AcDbLine
 10
122.057671
 20
3.623991
 30
0.0
 11
121.709221
 21
3.821993
 31
0.0
  0
LINE
  5
6AB
330
1F
100
AcDbEntity
  8
1
  6
CONTINUOUS
370
50
 62
4
100
AcDbLine
 10
123.063934
 20
2.480888
 30
0.0
 11
122.679932
 21
2.698687
 31
0.0
  0
LINE
  5
6AC
330
1F
100
AcDbEntity
  8
1
  6
CONTINUOUS
370
50
 62
4
100
AcDbLine
 10
114.442177
 20
-3.520808
 30
0.0
 11
114.345169
 21
-3.465912
 31
0.0
  0
LINE
  5
6AD
330
1F
100
AcDbEntity
  8
1
  6
CONTINUOUS
370
50
 62
4
100
AcDbLine
 10
120.642731
 20
-3.775124
 30
0.0
 11
120.033066
 21
-3.430794
 31
0.0
  0
LINE
  5
6AE
330
1F
100
AcDbEntity
  8
1
  6
CONTINUOUS
370
50
 62
4
100
AcDbLine
 10
129.803268
 20
4.095656
 30
0.0
 11
129.754211
 21
4.123334
 31
0.0
  0
LINE
  5
6AF
330
1F
100
AcDbEntity
  8
1
  6
CONTINUOUS
370
50
 62
4
100
AcDbLine
 10
129.754211
 20
4.123334
 30
0.0
 11
129.705261
 21
4.150641
 31
0.0
  0
LINE
  5
6B0
330
1F
100
AcDbEntity
  8
1
  6
CONTINUOUS
370
50
 62
4
100
AcDbLine
 10
129.705261
 20
4.150641
 30
0.0
 11
129.656479
 21
4.177557
 31
0.0
  0
LINE
  5
6B1
330
1F
100
AcDbEntity
  8
1
  6
CONTINUOUS
370
50
 62
4
100
AcDbLine
 10
113.571014
 20
3.695428
 30
0.0
 11
113.546448
 21
3.708872
 31
0.0
  0
LINE
  5
6B2
330
1F
100
AcDbEntity
  8
1
  6
CONTINUOUS
370
50
 62
4
100
AcDbLine
 10
122.679932
 20
2.698687
 30
0.0
 11
122.295929
 21
2.908017
 31
0.0
  0
LINE
  5
6B3
330
1F
100
AcDbEntity
  8
1
  6
CONTINUOUS
370
50
 62
4
100
AcDbLine
 10
129.368622
 20
-3.936038
 30
0.0
 11
129.323364
 21
-3.912384
 31
0.0
  0
LINE
  5
6B4
330
1F
100
AcDbEntity
  8
1
  6
CONTINUOUS
370
50
 62
4
100
AcDbLine
 10
119.888954
 20
-3.99128
 30
0.0
 11
119.393082
 21
-3.732487
 31
0.0
  0
LINE
  5
6B5
330
1F
100
AcDbEntity
  8
1
  6
CONTINUOUS
370
50
 62
4
100
AcDbLine
 10
121.709221
 20
3.821993
 30
0.0
 11
121.358429
 21
4.00484
 31
0.0
  0
LINE
  5
6B6
330
1F
100
AcDbEntity
  8
1
  6
CONTINUOUS
370
50
 62
4
100
AcDbLine
 10
122.649345
 20
3.914037
 30
0.0
 11
122.078865
 21
4.204202
 31
0.0
  0
LINE
  5
6B7
330
1F
100
AcDbEntity
  8
1
  6
CONTINUOUS
370
50
 62
4
100
AcDbLine
 10
121.251457
 20
-4.084076
 30
0.0
 11
120.642731
 21
-3.775124
 31
0.0
  0
LINE
  5
6B8
330
1F
100
AcDbEntity
  8
1
  6
CONTINUOUS
370
50
 62
4
100
AcDbLine
 10
122.295929
 20
2.908017
 30
0.0
 11
121.911942
 21
3.100779
 31
0.0
  0
LINE
  5
6B9
330
1F
100
AcDbEntity
  8
1
  6
CONTINUOUS
370
50
 62
4
100
AcDbLine
 10
122.5355
 20
0.039996
 30
0.0
 11
122.026604
 21
0.294678
 31
0.0
  0
LINE
  5
6BA
330
1F
100
AcDbEntity
  8
1
  6
CONTINUOUS
370
50
 62
4
100
AcDbLine
 10
123.168335
 20
-0.275284
 30
0.0
 11
122.5355
 21
0.039996
 31
0.0
  0
LINE
  5
6BB
330
1F
100
AcDbEntity
  8
1
  6
CONTINUOUS
370
50
 62
4
100
AcDbLine
 10
122.653679
 20
0.042602
 30
0.0
 11
122.238045
 21
0.248398
 31
0.0
  0
LINE
  5
6BC
330
1F
100
AcDbEntity
  8
1
  6
CONTINUOUS
370
50
 62
4
100
AcDbLine
 10
123.069397
 20
-0.160352
 30
0.0
 11
122.653679
 21
0.042602
 31
0.0
  0
LINE
  5
6BD
330
1F
100
AcDbEntity
  8
1
  6
CONTINUOUS
370
50
 62
4
100
AcDbLine
 10
129.656479
 20
4.177557
 30
0.0
 11
129.603043
 21
4.203427
 31
0.0
  0
LINE
  5
6BE
330
1F
100
AcDbEntity
  8
1
  6
CONTINUOUS
370
50
 62
4
100
AcDbLine
 10
113.546448
 20
3.708872
 30
0.0
 11
113.522461
 21
3.720456
 31
0.0
  0
LINE
  5
6BF
330
1F
100
AcDbEntity
  8
1
  6
CONTINUOUS
370
50
 62
4
100
AcDbLine
 10
122.238045
 20
0.248398
 30
0.0
 11
121.822479
 21
0.448522
 31
0.0
  0
LINE
  5
6C0
330
1F
100
AcDbEntity
  8
1
  6
CONTINUOUS
370
50
 62
4
100
AcDbLine
 10
121.358429
 20
4.00484
 30
0.0
 11
121.005653
 21
4.172677
 31
0.0
  0
LINE
  5
6C1
330
1F
100
AcDbEntity
  8
1
  6
CONTINUOUS
370
50
 62
4
100
AcDbLine
 10
123.485153
 20
-0.358111
 30
0.0
 11
123.069397
 21
-0.160352
 31
0.0
  0
LINE
  5
6C2
330
1F
100
AcDbEntity
  8
1
  6
CONTINUOUS
370
50
 62
4
100
AcDbLine
 10
122.026604
 20
0.294678
 30
0.0
 11
121.530693
 21
0.530525
 31
0.0
  0
LINE
  5
6C3
330
1F
100
AcDbEntity
  8
1
  6
CONTINUOUS
370
50
 62
4
100
AcDbLine
 10
114.543785
 20
-3.568771
 30
0.0
 11
114.442177
 21
-3.520808
 31
0.0
  0
LINE
  5
6C4
330
1F
100
AcDbEntity
  8
1
  6
CONTINUOUS
370
50
 62
4
100
AcDbLine
 10
121.822479
 20
0.448522
 30
0.0
 11
121.406944
 21
0.6423519999999999
 31
0.0
  0
LINE
  5
6C5
330
1F
100
AcDbEntity
  8
1
  6
CONTINUOUS
370
50
 62
4
100
AcDbLine
 10
123.95063
 20
-0.639354
 30
0.0
 11
123.168335
 21
-0.275284
 31
0.0
  0
LINE
  5
6C6
330
1F
100
AcDbEntity
  8
1
  6
CONTINUOUS
370
50
 62
4
100
AcDbLine
 10
120.387817
 20
-4.223206999999999
 30
0.0
 11
119.888954
 21
-3.99128
 31
0.0
  0
LINE
  5
6C7
330
1F
100
AcDbEntity
  8
1
  6
CONTINUOUS
370
50
 62
4
100
AcDbLine
 10
123.900909
 20
-0.5506679999999999
 30
0.0
 11
123.485153
 21
-0.358111
 31
0.0
  0
LINE
  5
6C8
330
1F
100
AcDbEntity
  8
1
  6
CONTINUOUS
370
50
 62
4
100
AcDbLine
 10
121.911942
 20
3.100779
 30
0.0
 11
121.527962
 21
3.276586
 31
0.0
  0
LINE
  5
6C9
330
1F
100
AcDbEntity
  8
1
  6
CONTINUOUS
370
50
 62
4
100
AcDbLine
 10
121.530693
 20
0.530525
 30
0.0
 11
121.030434
 21
0.757145
 31
0.0
  0
LINE
  5
6CA
330
1F
100
AcDbEntity
  8
1
  6
CONTINUOUS
370
50
 62
4
100
AcDbLine
 10
121.406944
 20
0.6423519999999999
 30
0.0
 11
120.991386
 21
0.830106
 31
0.0
  0
LINE
  5
6CB
330
1F
100
AcDbEntity
  8
1
  6
CONTINUOUS
370
50
 62
4
100
AcDbLine
 10
124.316628
 20
-0.738286
 30
0.0
 11
123.900909
 21
-0.5506679999999999
 31
0.0
  0
LINE
  5
6CC
330
1F
100
AcDbEntity
  8
1
  6
CONTINUOUS
370
50
 62
4
100
AcDbLine
 10
121.855843
 20
-4.355238
 30
0.0
 11
121.251457
 21
-4.084076
 31
0.0
  0
LINE
  5
6CD
330
1F
100
AcDbEntity
  8
1
  6
CONTINUOUS
370
50
 62
4
100
AcDbLine
 10
124.7323
 20
-0.921372
 30
0.0
 11
124.316628
 21
-0.738286
 31
0.0
  0
LINE
  5
6CE
330
1F
100
AcDbEntity
  8
1
  6
CONTINUOUS
370
50
 62
4
100
AcDbLine
 10
120.991386
 20
0.830106
 30
0.0
 11
120.57579
 21
1.012117
 31
0.0
  0
LINE
  5
6CF
330
1F
100
AcDbEntity
  8
1
  6
CONTINUOUS
370
50
 62
4
100
AcDbLine
 10
124.755676
 20
-0.990359
 30
0.0
 11
123.95063
 21
-0.639354
 31
0.0
  0
LINE
  5
6D0
330
1F
100
AcDbEntity
  8
1
  6
CONTINUOUS
370
50
 62
4
100
AcDbLine
 10
121.030434
 20
0.757145
 30
0.0
 11
120.530037
 21
0.974541
 31
0.0
  0
LINE
  5
6D1
330
1F
100
AcDbEntity
  8
1
  6
CONTINUOUS
370
50
 62
4
100
AcDbLine
 10
121.005653
 20
4.172677
 30
0.0
 11
120.650543
 21
4.325976
 31
0.0
  0
LINE
  5
6D2
330
1F
100
AcDbEntity
  8
1
  6
CONTINUOUS
370
50
 62
4
100
AcDbLine
 10
125.147919
 20
-1.100299
 30
0.0
 11
124.7323
 21
-0.921372
 31
0.0
  0
LINE
  5
6D3
330
1F
100
AcDbEntity
  8
1
  6
CONTINUOUS
370
50
 62
4
100
AcDbLine
 10
120.57579
 20
1.012117
 30
0.0
 11
120.160156
 21
1.188749
 31
0.0
  0
LINE
  5
6D4
330
1F
100
AcDbEntity
  8
1
  6
CONTINUOUS
370
50
 62
4
100
AcDbLine
 10
122.078865
 20
4.204202
 30
0.0
 11
121.49115
 21
4.452767
 31
0.0
  0
LINE
  5
6D5
330
1F
100
AcDbEntity
  8
1
  6
CONTINUOUS
370
50
 62
4
100
AcDbLine
 10
125.563492
 20
-1.275338
 30
0.0
 11
125.147919
 21
-1.100299
 31
0.0
  0
LINE
  5
6D6
330
1F
100
AcDbEntity
  8
1
  6
CONTINUOUS
370
50
 62
4
100
AcDbLine
 10
120.530037
 20
0.974541
 30
0.0
 11
120.022552
 21
1.187733
 31
0.0
  0
LINE
  5
6D7
330
1F
100
AcDbEntity
  8
1
  6
CONTINUOUS
370
50
 62
4
100
AcDbLine
 10
125.551872
 20
-1.321515
 30
0.0
 11
124.755676
 21
-0.990359
 31
0.0
  0
LINE
  5
6D8
330
1F
100
AcDbEntity
  8
1
  6
CONTINUOUS
370
50
 62
4
100
AcDbLine
 10
121.527962
 20
3.276586
 30
0.0
 11
121.143974
 21
3.436253
 31
0.0
  0
LINE
  5
6D9
330
1F
100
AcDbEntity
  8
1
  6
CONTINUOUS
370
50
 62
4
100
AcDbLine
 10
113.522461
 20
3.720456
 30
0.0
 11
113.499008
 21
3.730157
 31
0.0
  0
LINE
  5
6DA
330
1F
100
AcDbEntity
  8
1
  6
CONTINUOUS
370
50
 62
4
100
AcDbLine
 10
120.160156
 20
1.188749
 30
0.0
 11
119.744469
 21
1.360366
 31
0.0
  0
LINE
  5
6DB
330
1F
100
AcDbEntity
  8
1
  6
CONTINUOUS
370
50
 62
4
100
AcDbLine
 10
125.979034
 20
-1.446731
 30
0.0
 11
125.563492
 21
-1.275338
 31
0.0
  0
LINE
  5
6DC
330
1F
100
AcDbEntity
  8
1
  6
CONTINUOUS
370
50
 62
4
100
AcDbLine
 10
120.886208
 20
-4.427172
 30
0.0
 11
120.387817
 21
-4.223206999999999
 31
0.0
  0
LINE
  5
6DD
330
1F
100
AcDbEntity
  8
1
  6
CONTINUOUS
370
50
 62
4
100
AcDbLine
 10
120.022552
 20
1.187733
 30
0.0
 11
119.510582
 21
1.396648
 31
0.0
  0
LINE
  5
6DE
330
1F
100
AcDbEntity
  8
1
  6
CONTINUOUS
370
50
 62
4
100
AcDbLine
 10
126.394585
 20
-1.614404
 30
0.0
 11
125.979034
 21
-1.446731
 31
0.0
  0
LINE
  5
6DF
330
1F
100
AcDbEntity
  8
1
  6
CONTINUOUS
370
50
 62
4
100
AcDbLine
 10
126.32753
 20
-1.634267
 30
0.0
 11
125.551872
 21
-1.321515
 31
0.0
  0
LINE
  5
6E0
330
1F
100
AcDbEntity
  8
1
  6
CONTINUOUS
370
50
 62
4
100
AcDbLine
 10
119.744469
 20
1.360366
 30
0.0
 11
119.32872
 21
1.527167
 31
0.0
  0
LINE
  5
6E1
330
1F
100
AcDbEntity
  8
1
  6
CONTINUOUS
370
50
 62
4
100
AcDbLine
 10
119.510582
 20
1.396648
 30
0.0
 11
119.000214
 21
1.599497
 31
0.0
  0
LINE
  5
6E2
330
1F
100
AcDbEntity
  8
1
  6
CONTINUOUS
370
50
 62
4
100
AcDbLine
 10
126.810188
 20
-1.777949
 30
0.0
 11
126.394585
 21
-1.614404
 31
0.0
  0
LINE
  5
6E3
330
1F
100
AcDbEntity
  8
1
  6
CONTINUOUS
370
50
 62
4
100
AcDbLine
 10
127.049683
 20
-1.917005
 30
0.0
 11
126.32753
 21
-1.634267
 31
0.0
  0
LINE
  5
6E4
330
1F
100
AcDbEntity
  8
1
  6
CONTINUOUS
370
50
 62
4
100
AcDbLine
 10
114.650185
 20
-3.610197
 30
0.0
 11
114.543785
 21
-3.568771
 31
0.0
  0
LINE
  5
6E5
330
1F
100
AcDbEntity
  8
1
  6
CONTINUOUS
370
50
 62
4
100
AcDbLine
 10
119.32872
 20
1.527167
 30
0.0
 11
118.912956
 21
1.688797
 31
0.0
  0
LINE
  5
6E6
330
1F
100
AcDbEntity
  8
1
  6
CONTINUOUS
370
50
 62
4
100
AcDbLine
 10
120.650543
 20
4.325976
 30
0.0
 11
120.29425
 21
4.464471
 31
0.0
  0
LINE
  5
6E7
330
1F
100
AcDbEntity
  8
1
  6
CONTINUOUS
370
50
 62
4
100
AcDbLine
 10
119.000214
 20
1.599497
 30
0.0
 11
118.500908
 21
1.793328
 31
0.0
  0
LINE
  5
6E8
330
1F
100
AcDbEntity
  8
1
  6
CONTINUOUS
370
50
 62
4
100
AcDbLine
 10
122.446686
 20
-4.583412
 30
0.0
 11
121.855843
 21
-4.355238
 31
0.0
  0
LINE
  5
6E9
330
1F
100
AcDbEntity
  8
1
  6
CONTINUOUS
370
50
 62
4
100
AcDbLine
 10
118.500908
 20
1.793328
 30
0.0
 11
118.047607
 21
1.963843
 31
0.0
  0
LINE
  5
6EA
330
1F
100
AcDbEntity
  8
1
  6
CONTINUOUS
370
50
 62
4
100
AcDbLine
 10
118.912956
 20
1.688797
 30
0.0
 11
118.497215
 21
1.84478
 31
0.0
  0
LINE
  5
6EB
330
1F
100
AcDbEntity
  8
1
  6
CONTINUOUS
370
50
 62
4
100
AcDbLine
 10
121.143974
 20
3.436253
 30
0.0
 11
120.759987
 21
3.580322
 31
0.0
  0
LINE
  5
6EC
330
1F
100
AcDbEntity
  8
1
  6
CONTINUOUS
370
50
 62
4
100
AcDbLine
 10
127.225868
 20
-1.933509
 30
0.0
 11
126.810188
 21
-1.777949
 31
0.0
  0
LINE
  5
6ED
330
1F
100
AcDbEntity
  8
1
  6
CONTINUOUS
370
50
 62
4
100
AcDbLine
 10
129.603043
 20
4.203427
 30
0.0
 11
129.53688
 21
4.227975
 31
0.0
  0
LINE
  5
6EE
330
1F
100
AcDbEntity
  8
1
  6
CONTINUOUS
370
50
 62
4
100
AcDbLine
 10
118.497215
 20
1.84478
 30
0.0
 11
118.081535
 21
1.9946
 31
0.0
  0
LINE
  5
6EF
330
1F
100
AcDbEntity
  8
1
  6
CONTINUOUS
370
50
 62
4
100
AcDbLine
 10
121.380791
 20
-4.602126
 30
0.0
 11
120.886208
 21
-4.427172
 31
0.0
  0
LINE
  5
6F0
330
1F
100
AcDbEntity
  8
1
  6
CONTINUOUS
370
50
 62
4
100
AcDbLine
 10
120.29425
 20
4.464471
 30
0.0
 11
119.938042
 21
4.58784
 31
0.0
  0
LINE
  5
6F1
330
1F
100
AcDbEntity
  8
1
  6
CONTINUOUS
370
50
 62
4
100
AcDbLine
 10
118.047607
 20
1.963843
 30
0.0
 11
117.587761
 21
2.121241
 31
0.0
  0
LINE
  5
6F2
330
1F
100
AcDbEntity
  8
1
  6
CONTINUOUS
370
50
 62
4
100
AcDbLine
 10
127.641617
 20
-2.075255
 30
0.0
 11
127.225868
 21
-1.933509
 31
0.0
  0
LINE
  5
6F3
330
1F
100
AcDbEntity
  8
1
  6
CONTINUOUS
370
50
 62
4
100
AcDbLine
 10
121.49115
 20
4.452767
 30
0.0
 11
120.897324
 21
4.65462
 31
0.0
  0
LINE
  5
6F4
330
1F
100
AcDbEntity
  8
1
  6
CONTINUOUS
370
50
 62
4
100
AcDbLine
 10
113.499008
 20
3.730157
 30
0.0
 11
113.476059
 21
3.737953
 31
0.0
  0
LINE
  5
6F5
330
1F
100
AcDbEntity
  8
1
  6
CONTINUOUS
370
50
 62
4
100
AcDbLine
 10
127.794228
 20
-2.168797
 30
0.0
 11
127.049683
 21
-1.917005
 31
0.0
  0
LINE
  5
6F6
330
1F
100
AcDbEntity
  8
1
  6
CONTINUOUS
370
50
 62
4
100
AcDbLine
 10
122.521362
 20
4.138361
 30
0.0
 11
122.434532
 21
4.16754
 31
0.0
  0
LINE
  5
6F7
330
1F
100
AcDbEntity
  8
1
  6
CONTINUOUS
370
50
 62
4
100
AcDbLine
 10
120.759987
 20
3.580322
 30
0.0
 11
120.375992
 21
3.709161
 31
0.0
  0
LINE
  5
6F8
330
1F
100
AcDbEntity
  8
1
  6
CONTINUOUS
370
50
 62
4
100
AcDbLine
 10
122.60817
 20
4.109256
 30
0.0
 11
122.521362
 21
4.138361
 31
0.0
  0
LINE
  5
6F9
330
1F
100
AcDbEntity
  8
1
  6
CONTINUOUS
370
50
 62
4
100
AcDbLine
 10
118.081535
 20
1.9946
 30
0.0
 11
117.665932
 21
2.133439
 31
0.0
  0
LINE
  5
6FA
330
1F
100
AcDbEntity
  8
1
  6
CONTINUOUS
370
50
 62
4
100
AcDbLine
 10
122.434532
 20
4.16754
 30
0.0
 11
122.347702
 21
4.196547
 31
0.0
  0
LINE
  5
6FB
330
1F
100
AcDbEntity
  8
1
  6
CONTINUOUS
370
50
 62
4
100
AcDbLine
 10
122.695015
 20
4.08031
 30
0.0
 11
122.60817
 21
4.109256
 31
0.0
  0
LINE
  5
6FC
330
1F
100
AcDbEntity
  8
1
  6
CONTINUOUS
370
50
 62
4
100
AcDbLine
 10
122.347702
 20
4.196547
 30
0.0
 11
122.260841
 21
4.225376
 31
0.0
  0
LINE
  5
6FD
330
1F
100
AcDbEntity
  8
1
  6
CONTINUOUS
370
50
 62
4
100
AcDbLine
 10
122.785202
 20
4.050432
 30
0.0
 11
122.695015
 21
4.08031
 31
0.0
  0
LINE
  5
6FE
330
1F
100
AcDbEntity
  8
1
  6
CONTINUOUS
370
50
 62
4
100
AcDbLine
 10
122.260841
 20
4.225376
 30
0.0
 11
122.173988
 21
4.254022
 31
0.0
  0
LINE
  5
6FF
330
1F
100
AcDbEntity
  8
1
  6
CONTINUOUS
370
50
 62
4
100
AcDbLine
 10
122.875381
 20
4.020743
 30
0.0
 11
122.785202
 21
4.050432
 31
0.0
  0
LINE
  5
700
330
1F
100
AcDbEntity
  8
1
  6
CONTINUOUS
370
50
 62
4
100
AcDbLine
 10
122.173988
 20
4.254022
 30
0.0
 11
122.087097
 21
4.282493
 31
0.0
  0
LINE
  5
701
330
1F
100
AcDbEntity
  8
1
  6
CONTINUOUS
370
50
 62
4
100
AcDbLine
 10
122.965057
 20
3.99141
 30
0.0
 11
122.875381
 21
4.020743
 31
0.0
  0
LINE
  5
702
330
1F
100
AcDbEntity
  8
1
  6
CONTINUOUS
370
50
 62
4
100
AcDbLine
 10
122.087097
 20
4.282493
 30
0.0
 11
122.000214
 21
4.310781
 31
0.0
  0
LINE
  5
703
330
1F
100
AcDbEntity
  8
1
  6
CONTINUOUS
370
50
 62
4
100
AcDbLine
 10
123.054733
 20
3.962265
 30
0.0
 11
122.965057
 21
3.99141
 31
0.0
  0
LINE
  5
704
330
1F
100
AcDbEntity
  8
1
  6
CONTINUOUS
370
50
 62
4
100
AcDbLine
 10
122.000214
 20
4.310781
 30
0.0
 11
121.905838
 21
4.341301
 31
0.0
  0
LINE
  5
705
330
1F
100
AcDbEntity
  8
1
  6
CONTINUOUS
370
50
 62
4
100
AcDbLine
 10
123.144417
 20
3.933304
 30
0.0
 11
123.054733
 21
3.962265
 31
0.0
  0
LINE
  5
706
330
1F
100
AcDbEntity
  8
1
  6
CONTINUOUS
370
50
 62
4
100
AcDbLine
 10
121.905838
 20
4.341301
 30
0.0
 11
121.811462
 21
4.371607
 31
0.0
  0
LINE
  5
707
330
1F
100
AcDbEntity
  8
1
  6
CONTINUOUS
370
50
 62
4
100
AcDbLine
 10
123.234108
 20
3.904532
 30
0.0
 11
123.144417
 21
3.933304
 31
0.0
  0
LINE
  5
708
330
1F
100
AcDbEntity
  8
1
  6
CONTINUOUS
370
50
 62
4
100
AcDbLine
 10
121.811462
 20
4.371607
 30
0.0
 11
121.725655
 21
4.398976999999999
 31
0.0
  0
LINE
  5
709
330
1F
100
AcDbEntity
  8
1
  6
CONTINUOUS
370
50
 62
4
100
AcDbLine
 10
123.323807
 20
3.875942
 30
0.0
 11
123.234108
 21
3.904532
 31
0.0
  0
LINE
  5
70A
330
1F
100
AcDbEntity
  8
1
  6
CONTINUOUS
370
50
 62
4
100
AcDbLine
 10
121.725655
 20
4.398976999999999
 30
0.0
 11
121.639854
 21
4.426175
 31
0.0
  0
LINE
  5
70B
330
1F
100
AcDbEntity
  8
1
  6
CONTINUOUS
370
50
 62
4
100
AcDbLine
 10
114.761559
 20
-3.645484
 30
0.0
 11
114.650185
 21
-3.610197
 31
0.0
  0
LINE
  5
70C
330
1F
100
AcDbEntity
  8
1
  6
CONTINUOUS
370
50
 62
4
100
AcDbLine
 10
123.413513
 20
3.847539
 30
0.0
 11
123.323807
 21
3.875942
 31
0.0
  0
LINE
  5
70D
330
1F
100
AcDbEntity
  8
1
  6
CONTINUOUS
370
50
 62
4
100
AcDbLine
 10
121.639854
 20
4.426175
 30
0.0
 11
121.554054
 21
4.453201
 31
0.0
  0
LINE
  5
70E
330
1F
100
AcDbEntity
  8
1
  6
CONTINUOUS
370
50
 62
4
100
AcDbLine
 10
123.503227
 20
3.819317
 30
0.0
 11
123.413513
 21
3.847539
 31
0.0
  0
LINE
  5
70F
330
1F
100
AcDbEntity
  8
1
  6
CONTINUOUS
370
50
 62
4
100
AcDbLine
 10
121.554054
 20
4.453201
 30
0.0
 11
121.468262
 21
4.480058
 31
0.0
  0
LINE
  5
710
330
1F
100
AcDbEntity
  8
1
  6
CONTINUOUS
370
50
 62
4
100
AcDbLine
 10
123.592949
 20
3.79128
 30
0.0
 11
123.503227
 21
3.819317
 31
0.0
  0
LINE
  5
711
330
1F
100
AcDbEntity
  8
1
  6
CONTINUOUS
370
50
 62
4
100
AcDbLine
 10
115.464722
 20
-2.166795
 30
0.0
 11
115.0
 21
-2.021881
 31
0.0
  0
LINE
  5
712
330
1F
100
AcDbEntity
  8
1
  6
CONTINUOUS
370
50
 62
4
100
AcDbLine
 10
121.468262
 20
4.480058
 30
0.0
 11
121.382431
 21
4.506758
 31
0.0
  0
LINE
  5
713
330
1F
100
AcDbEntity
  8
1
  6
CONTINUOUS
370
50
 62
4
100
AcDbLine
 10
123.671616
 20
3.766845
 30
0.0
 11
123.592949
 21
3.79128
 31
0.0
  0
LINE
  5
714
330
1F
100
AcDbEntity
  8
1
  6
CONTINUOUS
370
50
 62
4
100
AcDbLine
 10
121.382431
 20
4.506758
 30
0.0
 11
121.296608
 21
4.533294
 31
0.0
  0
LINE
  5
715
330
1F
100
AcDbEntity
  8
1
  6
CONTINUOUS
370
50
 62
4
100
AcDbLine
 10
128.057373
 20
-2.203796
 30
0.0
 11
127.641617
 21
-2.075255
 31
0.0
  0
LINE
  5
716
330
1F
100
AcDbEntity
  8
1
  6
CONTINUOUS
370
50
 62
4
100
AcDbLine
 10
123.750282
 20
3.742549
 30
0.0
 11
123.671616
 21
3.766845
 31
0.0
  0
LINE
  5
717
330
1F
100
AcDbEntity
  8
1
  6
CONTINUOUS
370
50
 62
4
100
AcDbLine
 10
121.296608
 20
4.533294
 30
0.0
 11
121.210785
 21
4.559667999999999
 31
0.0
  0
LINE
  5
718
330
1F
100
AcDbEntity
  8
1
  6
CONTINUOUS
370
50
 62
4
100
AcDbLine
 10
123.846375
 20
3.713059
 30
0.0
 11
123.750282
 21
3.742549
 31
0.0
  0
LINE
  5
719
330
1F
100
AcDbEntity
  8
1
  6
CONTINUOUS
370
50
 62
4
100
AcDbLine
 10
123.03463
 20
-4.763508
 30
0.0
 11
122.446686
 21
-4.583412
 31
0.0
  0
LINE
  5
71A
330
1F
100
AcDbEntity
  8
1
  6
CONTINUOUS
370
50
 62
4
100
AcDbLine
 10
121.210785
 20
4.559667999999999
 30
0.0
 11
121.124962
 21
4.585882
 31
0.0
  0
LINE
  5
71B
330
1F
100
AcDbEntity
  8
1
  6
CONTINUOUS
370
50
 62
4
100
AcDbLine
 10
115.329018
 20
-2.169866
 30
0.0
 11
115.0
 21
-2.069392
 31
0.0
  0
LINE
  5
71C
330
1F
100
AcDbEntity
  8
1
  6
CONTINUOUS
370
50
 62
4
100
AcDbLine
 10
123.942459
 20
3.68377
 30
0.0
 11
123.846375
 21
3.713059
 31
0.0
  0
LINE
  5
71D
330
1F
100
AcDbEntity
  8
1
  6
CONTINUOUS
370
50
 62
4
100
AcDbLine
 10
119.938042
 20
4.58784
 30
0.0
 11
119.583199
 21
4.695758
 31
0.0
  0
LINE
  5
71E
330
1F
100
AcDbEntity
  8
1
  6
CONTINUOUS
370
50
 62
4
100
AcDbLine
 10
121.124962
 20
4.585882
 30
0.0
 11
121.011139
 21
4.620409
 31
0.0
  0
LINE
  5
71F
330
1F
100
AcDbEntity
  8
1
  6
CONTINUOUS
370
50
 62
4
100
AcDbLine
 10
124.038551
 20
3.654679
 30
0.0
 11
123.942459
 21
3.68377
 31
0.0
  0
LINE
  5
720
330
1F
100
AcDbEntity
  8
1
  6
CONTINUOUS
370
50
 62
4
100
AcDbLine
 10
117.665932
 20
2.133439
 30
0.0
 11
117.250381
 21
2.258678
 31
0.0
  0
LINE
  5
721
330
1F
100
AcDbEntity
  8
1
  6
CONTINUOUS
370
50
 62
4
100
AcDbLine
 10
121.011139
 20
4.620409
 30
0.0
 11
120.897324
 21
4.654666
 31
0.0
  0
LINE
  5
722
330
1F
100
AcDbEntity
  8
1
  6
CONTINUOUS
370
50
 62
4
100
AcDbLine
 10
117.587761
 20
2.121241
 30
0.0
 11
117.11306
 21
2.264092
 31
0.0
  0
LINE
  5
723
330
1F
100
AcDbEntity
  8
1
  6
CONTINUOUS
370
50
 62
4
100
AcDbLine
 10
124.134651
 20
3.625782
 30
0.0
 11
124.038551
 21
3.654679
 31
0.0
  0
LINE
  5
724
330
1F
100
AcDbEntity
  8
1
  6
CONTINUOUS
370
50
 62
4
100
AcDbLine
 10
124.230766
 20
3.597069
 30
0.0
 11
124.134651
 21
3.625782
 31
0.0
  0
LINE
  5
725
330
1F
100
AcDbEntity
  8
1
  6
CONTINUOUS
370
50
 62
4
100
AcDbLine
 10
120.375992
 20
3.709161
 30
0.0
 11
119.991989
 21
3.823135
 31
0.0
  0
LINE
  5
726
330
1F
100
AcDbEntity
  8
1
  6
CONTINUOUS
370
50
 62
4
100
AcDbLine
 10
124.326881
 20
3.568543
 30
0.0
 11
124.230766
 21
3.597069
 31
0.0
  0
LINE
  5
727
330
1F
100
AcDbEntity
  8
1
  6
CONTINUOUS
370
50
 62
4
100
AcDbLine
 10
121.871277
 20
-4.747633
 30
0.0
 11
121.380791
 21
-4.602126
 31
0.0
  0
LINE
  5
728
330
1F
100
AcDbEntity
  8
1
  6
CONTINUOUS
370
50
 62
4
100
AcDbLine
 10
124.423004
 20
3.5402
 30
0.0
 11
124.326881
 21
3.568543
 31
0.0
  0
LINE
  5
729
330
1F
100
AcDbEntity
  8
1
  6
CONTINUOUS
370
50
 62
4
100
AcDbLine
 10
124.519127
 20
3.512035
 30
0.0
 11
124.423004
 21
3.5402
 31
0.0
  0
LINE
  5
72A
330
1F
100
AcDbEntity
  8
1
  6
CONTINUOUS
370
50
 62
4
100
AcDbLine
 10
124.625198
 20
3.481157
 30
0.0
 11
124.519127
 21
3.512035
 31
0.0
  0
LINE
  5
72B
330
1F
100
AcDbEntity
  8
1
  6
CONTINUOUS
370
50
 62
4
100
AcDbLine
 10
124.728218
 20
3.451368
 30
0.0
 11
124.625198
 21
3.481157
 31
0.0
  0
LINE
  5
72C
330
1F
100
AcDbEntity
  8
1
  6
CONTINUOUS
370
50
 62
4
100
AcDbLine
 10
124.831245
 20
3.42177
 30
0.0
 11
124.728218
 21
3.451368
 31
0.0
  0
LINE
  5
72D
330
1F
100
AcDbEntity
  8
1
  6
CONTINUOUS
370
50
 62
4
100
AcDbLine
 10
124.934273
 20
3.392359
 30
0.0
 11
124.831245
 21
3.42177
 31
0.0
  0
LINE
  5
72E
330
1F
100
AcDbEntity
  8
1
  6
CONTINUOUS
370
50
 62
4
100
AcDbLine
 10
125.037308
 20
3.363128
 30
0.0
 11
124.934273
 21
3.392359
 31
0.0
  0
LINE
  5
72F
330
1F
100
AcDbEntity
  8
1
  6
CONTINUOUS
370
50
 62
4
100
AcDbLine
 10
115.668587
 20
-2.265745
 30
0.0
 11
115.329018
 21
-2.169866
 31
0.0
  0
LINE
  5
730
330
1F
100
AcDbEntity
  8
1
  6
CONTINUOUS
370
50
 62
4
100
AcDbLine
 10
125.140327
 20
3.33408
 30
0.0
 11
125.037308
 21
3.363128
 31
0.0
  0
LINE
  5
731
330
1F
100
AcDbEntity
  8
1
  6
CONTINUOUS
370
50
 62
4
100
AcDbLine
 10
115.929398
 20
-2.29766
 30
0.0
 11
115.464722
 21
-2.166795
 31
0.0
  0
LINE
  5
732
330
1F
100
AcDbEntity
  8
1
  6
CONTINUOUS
370
50
 62
4
100
AcDbLine
 10
125.243355
 20
3.305205
 30
0.0
 11
125.140327
 21
3.33408
 31
0.0
  0
LINE
  5
733
330
1F
100
AcDbEntity
  8
1
  6
CONTINUOUS
370
50
 62
4
100
AcDbLine
 10
128.473099
 20
-2.319781
 30
0.0
 11
128.057373
 21
-2.203796
 31
0.0
  0
LINE
  5
734
330
1F
100
AcDbEntity
  8
1
  6
CONTINUOUS
370
50
 62
4
100
AcDbLine
 10
125.346397
 20
3.276496
 30
0.0
 11
125.243355
 21
3.305205
 31
0.0
  0
LINE
  5
735
330
1F
100
AcDbEntity
  8
1
  6
CONTINUOUS
370
50
 62
4
100
AcDbLine
 10
125.449417
 20
3.247963
 30
0.0
 11
125.346397
 21
3.276496
 31
0.0
  0
LINE
  5
736
330
1F
100
AcDbEntity
  8
1
  6
CONTINUOUS
370
50
 62
4
100
AcDbLine
 10
125.500381
 20
3.233911
 30
0.0
 11
125.449417
 21
3.247963
 31
0.0
  0
LINE
  5
737
330
1F
100
AcDbEntity
  8
1
  6
CONTINUOUS
370
50
 62
4
100
AcDbLine
 10
129.53688
 20
4.227975
 30
0.0
 11
129.455811
 21
4.250308
 31
0.0
  0
LINE
  5
738
330
1F
100
AcDbEntity
  8
1
  6
CONTINUOUS
370
50
 62
4
100
AcDbLine
 10
128.552628
 20
-2.377419
 30
0.0
 11
127.794228
 21
-2.168797
 31
0.0
  0
LINE
  5
739
330
1F
100
AcDbEntity
  8
1
  6
CONTINUOUS
370
50
 62
4
100
AcDbLine
 10
125.607925
 20
3.204386
 30
0.0
 11
125.500381
 21
3.233911
 31
0.0
  0
LINE
  5
73A
330
1F
100
AcDbEntity
  8
1
  6
CONTINUOUS
370
50
 62
4
100
AcDbLine
 10
120.897324
 20
4.65462
 30
0.0
 11
120.507004
 21
4.761712
 31
0.0
  0
LINE
  5
73B
330
1F
100
AcDbEntity
  8
1
  6
CONTINUOUS
370
50
 62
4
100
AcDbLine
 10
125.715469
 20
3.175037
 30
0.0
 11
125.607925
 21
3.204386
 31
0.0
  0
LINE
  5
73C
330
1F
100
AcDbEntity
  8
1
  6
CONTINUOUS
370
50
 62
4
100
AcDbLine
 10
125.822998
 20
3.145869
 30
0.0
 11
125.715469
 21
3.175037
 31
0.0
  0
LINE
  5
73D
330
1F
100
AcDbEntity
  8
1
  6
CONTINUOUS
370
50
 62
4
100
AcDbLine
 10
117.250381
 20
2.258678
 30
0.0
 11
116.834839
 21
2.370945
 31
0.0
  0
LINE
  5
73E
330
1F
100
AcDbEntity
  8
1
  6
CONTINUOUS
370
50
 62
4
100
AcDbLine
 10
125.930534
 20
3.116875
 30
0.0
 11
125.822998
 21
3.145869
 31
0.0
  0
LINE
  5
73F
330
1F
100
AcDbEntity
  8
1
  6
CONTINUOUS
370
50
 62
4
100
AcDbLine
 10
126.03804
 20
3.088063
 30
0.0
 11
125.930534
 21
3.116875
 31
0.0
  0
LINE
  5
740
330
1F
100
AcDbEntity
  8
1
  6
CONTINUOUS
370
50
 62
4
100
AcDbLine
 10
126.145546
 20
3.059427
 30
0.0
 11
126.03804
 21
3.088063
 31
0.0
  0
LINE
  5
741
330
1F
100
AcDbEntity
  8
1
  6
CONTINUOUS
370
50
 62
4
100
AcDbLine
 10
126.253021
 20
3.030978
 30
0.0
 11
126.145546
 21
3.059427
 31
0.0
  0
LINE
  5
742
330
1F
100
AcDbEntity
  8
1
  6
CONTINUOUS
370
50
 62
4
100
AcDbLine
 10
117.11306
 20
2.264092
 30
0.0
 11
116.631264
 21
2.39101
 31
0.0
  0
LINE
  5
743
330
1F
100
AcDbEntity
  8
1
  6
CONTINUOUS
370
50
 62
4
100
AcDbLine
 10
126.360497
 20
3.00271
 30
0.0
 11
126.253021
 21
3.030978
 31
0.0
  0
LINE
  5
744
330
1F
100
AcDbEntity
  8
1
  6
CONTINUOUS
370
50
 62
4
100
AcDbLine
 10
119.583199
 20
4.695758
 30
0.0
 11
119.230698
 21
4.787967
 31
0.0
  0
LINE
  5
745
330
1F
100
AcDbEntity
  8
1
  6
CONTINUOUS
370
50
 62
4
100
AcDbLine
 10
126.470634
 20
2.973932
 30
0.0
 11
126.360497
 21
3.00271
 31
0.0
  0
LINE
  5
746
330
1F
100
AcDbEntity
  8
1
  6
CONTINUOUS
370
50
 62
4
100
AcDbLine
 10
116.016724
 20
-2.356416
 30
0.0
 11
115.668587
 21
-2.265745
 31
0.0
  0
LINE
  5
747
330
1F
100
AcDbEntity
  8
1
  6
CONTINUOUS
370
50
 62
4
100
AcDbLine
 10
126.580765
 20
2.945355
 30
0.0
 11
126.470634
 21
2.973932
 31
0.0
  0
LINE
  5
748
330
1F
100
AcDbEntity
  8
1
  6
CONTINUOUS
370
50
 62
4
100
AcDbLine
 10
119.991989
 20
3.823135
 30
0.0
 11
119.607986
 21
3.922597
 31
0.0
  0
LINE
  5
749
330
1F
100
AcDbEntity
  8
1
  6
CONTINUOUS
370
50
 62
4
100
AcDbLine
 10
129.304214
 20
2.371143
 30
0.0
 11
129.304001
 21
2.371198
 31
0.0
  0
LINE
  5
74A
330
1F
100
AcDbEntity
  8
1
  6
CONTINUOUS
370
50
 62
4
100
AcDbLine
 10
126.690849
 20
2.916996
 30
0.0
 11
126.580765
 21
2.945355
 31
0.0
  0
LINE
  5
74B
330
1F
100
AcDbEntity
  8
1
  6
CONTINUOUS
370
50
 62
4
100
AcDbLine
 10
129.303574
 20
2.371306
 30
0.0
 11
129.30336
 21
2.371361
 31
0.0
  0
LINE
  5
74C
330
1F
100
AcDbEntity
  8
1
  6
CONTINUOUS
370
50
 62
4
100
AcDbLine
 10
126.800926
 20
2.888854
 30
0.0
 11
126.690849
 21
2.916996
 31
0.0
  0
LINE
  5
74D
330
1F
100
AcDbEntity
  8
1
  6
CONTINUOUS
370
50
 62
4
100
AcDbLine
 10
129.303787
 20
2.371252
 30
0.0
 11
129.303574
 21
2.371306
 31
0.0
  0
LINE
  5
74E
330
1F
100
AcDbEntity
  8
1
  6
CONTINUOUS
370
50
 62
4
100
AcDbLine
 10
114.878105
 20
-3.675028
 30
0.0
 11
114.761559
 21
-3.645484
 31
0.0
  0
LINE
  5
74F
330
1F
100
AcDbEntity
  8
1
  6
CONTINUOUS
370
50
 62
4
100
AcDbLine
 10
126.910973
 20
2.860967
 30
0.0
 11
126.800926
 21
2.888854
 31
0.0
  0
LINE
  5
750
330
1F
100
AcDbEntity
  8
1
  6
CONTINUOUS
370
50
 62
4
100
AcDbLine
 10
116.39402
 20
-2.415139
 30
0.0
 11
115.929398
 21
-2.29766
 31
0.0
  0
LINE
  5
751
330
1F
100
AcDbEntity
  8
1
  6
CONTINUOUS
370
50
 62
4
100
AcDbLine
 10
129.304001
 20
2.371198
 30
0.0
 11
129.303787
 21
2.371252
 31
0.0
  0
LINE
  5
752
330
1F
100
AcDbEntity
  8
1
  6
CONTINUOUS
370
50
 62
4
100
AcDbLine
 10
129.30336
 20
2.371361
 30
0.0
 11
129.303146
 21
2.371415
 31
0.0
  0
LINE
  5
753
330
1F
100
AcDbEntity
  8
1
  6
CONTINUOUS
370
50
 62
4
100
AcDbLine
 10
129.305542
 20
2.33715
 30
0.0
 11
129.110352
 21
2.386014
 31
0.0
  0
LINE
  5
754
330
1F
100
AcDbEntity
  8
1
  6
CONTINUOUS
370
50
 62
4
100
AcDbLine
 10
128.888794
 20
-2.423683
 30
0.0
 11
128.473099
 21
-2.319781
 31
0.0
  0
LINE
  5
755
330
1F
100
AcDbEntity
  8
1
  6
CONTINUOUS
370
50
 62
4
100
AcDbLine
 10
127.021004
 20
2.833679
 30
0.0
 11
126.910973
 21
2.860967
 31
0.0
  0
LINE
  5
756
330
1F
100
AcDbEntity
  8
1
  6
CONTINUOUS
370
50
 62
4
100
AcDbLine
 10
116.834839
 20
2.370945
 30
0.0
 11
116.540947
 21
2.442854
 31
0.0
  0
LINE
  5
757
330
1F
100
AcDbEntity
  8
1
  6
CONTINUOUS
370
50
 62
4
100
AcDbLine
 10
129.303146
 20
2.371415
 30
0.0
 11
129.027313
 21
2.438603
 31
0.0
  0
LINE
  5
758
330
1F
100
AcDbEntity
  8
1
  6
CONTINUOUS
370
50
 62
4
100
AcDbLine
 10
127.131065
 20
2.807087
 30
0.0
 11
127.021004
 21
2.833679
 31
0.0
  0
LINE
  5
759
330
1F
100
AcDbEntity
  8
1
  6
CONTINUOUS
370
50
 62
4
100
AcDbLine
 10
116.371445
 20
-2.441266
 30
0.0
 11
116.016724
 21
-2.356416
 31
0.0
  0
LINE
  5
75A
330
1F
100
AcDbEntity
  8
1
  6
CONTINUOUS
370
50
 62
4
100
AcDbLine
 10
129.110352
 20
2.386014
 30
0.0
 11
128.91539
 21
2.432488
 31
0.0
  0
LINE
  5
75B
330
1F
100
AcDbEntity
  8
1
  6
CONTINUOUS
370
50
 62
4
100
AcDbLine
 10
113.731102
 20
3.620636
 30
0.0
 11
113.658752
 21
3.637836
 31
0.0
  0
LINE
  5
75C
330
1F
100
AcDbEntity
  8
1
  6
CONTINUOUS
370
50
 62
4
100
AcDbLine
 10
122.354713
 20
-4.861875
 30
0.0
 11
121.871277
 21
-4.747633
 31
0.0
  0
LINE
  5
75D
330
1F
100
AcDbEntity
  8
1
  6
CONTINUOUS
370
50
 62
4
100
AcDbLine
 10
127.241112
 20
2.781192
 30
0.0
 11
127.131065
 21
2.807087
 31
0.0
  0
LINE
  5
75E
330
1F
100
AcDbEntity
  8
1
  6
CONTINUOUS
370
50
 62
4
100
AcDbLine
 10
116.631264
 20
2.39101
 30
0.0
 11
116.147369
 21
2.501875
 31
0.0
  0
LINE
  5
75F
330
1F
100
AcDbEntity
  8
1
  6
CONTINUOUS
370
50
 62
4
100
AcDbLine
 10
127.352013
 20
2.75579
 30
0.0
 11
127.241112
 21
2.781192
 31
0.0
  0
LINE
  5
760
330
1F
100
AcDbEntity
  8
1
  6
CONTINUOUS
370
50
 62
4
100
AcDbLine
 10
128.91539
 20
2.432488
 30
0.0
 11
128.719513
 21
2.476895
 31
0.0
  0
LINE
  5
761
330
1F
100
AcDbEntity
  8
1
  6
CONTINUOUS
370
50
 62
4
100
AcDbLine
 10
129.027313
 20
2.438603
 30
0.0
 11
128.75145
 21
2.500772
 31
0.0
  0
LINE
  5
762
330
1F
100
AcDbEntity
  8
1
  6
CONTINUOUS
370
50
 62
4
100
AcDbLine
 10
116.858574
 20
-2.51975
 30
0.0
 11
116.39402
 21
-2.415139
 31
0.0
  0
LINE
  5
763
330
1F
100
AcDbEntity
  8
1
  6
CONTINUOUS
370
50
 62
4
100
AcDbLine
 10
116.540947
 20
2.442854
 30
0.0
 11
116.247025
 21
2.508785
 31
0.0
  0
LINE
  5
764
330
1F
100
AcDbEntity
  8
1
  6
CONTINUOUS
370
50
 62
4
100
AcDbLine
 10
120.507004
 20
4.761712
 30
0.0
 11
120.11631
 21
4.849165999999999
 31
0.0
  0
LINE
  5
765
330
1F
100
AcDbEntity
  8
1
  6
CONTINUOUS
370
50
 62
4
100
AcDbLine
 10
113.807762
 20
3.60351
 30
0.0
 11
113.731102
 21
3.620636
 31
0.0
  0
LINE
  5
766
330
1F
100
AcDbEntity
  8
1
  6
CONTINUOUS
370
50
 62
4
100
AcDbLine
 10
127.462906
 20
2.731078
 30
0.0
 11
127.352013
 21
2.75579
 31
0.0
  0
LINE
  5
767
330
1F
100
AcDbEntity
  8
1
  6
CONTINUOUS
370
50
 62
4
100
AcDbLine
 10
129.304443
 20
-2.515894
 30
0.0
 11
128.888794
 21
-2.423683
 31
0.0
  0
LINE
  5
768
330
1F
100
AcDbEntity
  8
1
  6
CONTINUOUS
370
50
 62
4
100
AcDbLine
 10
129.305542
 20
-2.543757
 30
0.0
 11
128.552628
 21
-2.377419
 31
0.0
  0
LINE
  5
769
330
1F
100
AcDbEntity
  8
1
  6
CONTINUOUS
370
50
 62
4
100
AcDbLine
 10
119.607986
 20
3.922597
 30
0.0
 11
119.223976
 21
4.007385
 31
0.0
  0
LINE
  5
76A
330
1F
100
AcDbEntity
  8
1
  6
CONTINUOUS
370
50
 62
4
100
AcDbLine
 10
116.730789
 20
-2.519683
 30
0.0
 11
116.371445
 21
-2.441266
 31
0.0
  0
LINE
  5
76B
330
1F
100
AcDbEntity
  8
1
  6
CONTINUOUS
370
50
 62
4
100
AcDbLine
 10
119.230698
 20
4.787967
 30
0.0
 11
118.880089
 21
4.864386
 31
0.0
  0
LINE
  5
76C
330
1F
100
AcDbEntity
  8
1
  6
CONTINUOUS
370
50
 62
4
100
AcDbLine
 10
127.57383
 20
2.707037
 30
0.0
 11
127.462906
 21
2.731078
 31
0.0
  0
LINE
  5
76D
330
1F
100
AcDbEntity
  8
1
  6
CONTINUOUS
370
50
 62
4
100
AcDbLine
 10
127.988335
 20
-1.825281
 30
0.0
 11
127.741394
 21
-1.771869
 31
0.0
  0
LINE
  5
76E
330
1F
100
AcDbEntity
  8
1
  6
CONTINUOUS
370
50
 62
4
100
AcDbLine
 10
128.719513
 20
2.476895
 30
0.0
 11
128.522903
 21
2.519158
 31
0.0
  0
LINE
  5
76F
330
1F
100
AcDbEntity
  8
1
  6
CONTINUOUS
370
50
 62
4
100
AcDbLine
 10
123.646194
 20
-4.894617999999999
 30
0.0
 11
123.03463
 21
-4.763508
 31
0.0
  0
LINE
  5
770
330
1F
100
AcDbEntity
  8
1
  6
CONTINUOUS
370
50
 62
4
100
AcDbLine
 10
128.228317
 20
-1.87614
 30
0.0
 11
127.988335
 21
-1.825281
 31
0.0
  0
LINE
  5
771
330
1F
100
AcDbEntity
  8
1
  6
CONTINUOUS
370
50
 62
4
100
AcDbLine
 10
127.684753
 20
2.683666
 30
0.0
 11
127.57383
 21
2.707037
 31
0.0
  0
LINE
  5
772
330
1F
100
AcDbEntity
  8
1
  6
CONTINUOUS
370
50
 62
4
100
AcDbLine
 10
113.887833
 20
3.586695
 30
0.0
 11
113.807762
 21
3.60351
 31
0.0
  0
LINE
  5
773
330
1F
100
AcDbEntity
  8
1
  6
CONTINUOUS
370
50
 62
4
100
AcDbLine
 10
115.083275
 20
2.709738
 30
0.0
 11
115.0
 21
2.727181
 31
0.0
  0
LINE
  5
774
330
1F
100
AcDbEntity
  8
1
  6
CONTINUOUS
370
50
 62
4
100
AcDbLine
 10
128.462677
 20
-1.924688
 30
0.0
 11
128.228317
 21
-1.87614
 31
0.0
  0
LINE
  5
775
330
1F
100
AcDbEntity
  8
1
  6
CONTINUOUS
370
50
 62
4
100
AcDbLine
 10
128.75145
 20
2.500772
 30
0.0
 11
128.475586
 21
2.557893
 31
0.0
  0
LINE
  5
776
330
1F
100
AcDbEntity
  8
1
  6
CONTINUOUS
370
50
 62
4
100
AcDbLine
 10
115.166557
 20
2.692622
 30
0.0
 11
115.083275
 21
2.709738
 31
0.0
  0
LINE
  5
777
330
1F
100
AcDbEntity
  8
1
  6
CONTINUOUS
370
50
 62
4
100
AcDbLine
 10
127.7957
 20
2.660949
 30
0.0
 11
127.684753
 21
2.683666
 31
0.0
  0
LINE
  5
778
330
1F
100
AcDbEntity
  8
1
  6
CONTINUOUS
370
50
 62
4
100
AcDbLine
 10
116.247025
 20
2.508785
 30
0.0
 11
115.953079
 21
2.56876
 31
0.0
  0
LINE
  5
779
330
1F
100
AcDbEntity
  8
1
  6
CONTINUOUS
370
50
 62
4
100
AcDbLine
 10
128.522903
 20
2.519158
 30
0.0
 11
128.325836
 21
2.559165
 31
0.0
  0
LINE
  5
77A
330
1F
100
AcDbEntity
  8
1
  6
CONTINUOUS
370
50
 62
4
100
AcDbLine
 10
128.692734
 20
-1.971177
 30
0.0
 11
128.462677
 21
-1.924688
 31
0.0
  0
LINE
  5
77B
330
1F
100
AcDbEntity
  8
1
  6
CONTINUOUS
370
50
 62
4
100
AcDbLine
 10
115.249832
 20
2.675828
 30
0.0
 11
115.166557
 21
2.692622
 31
0.0
  0
LINE
  5
77C
330
1F
100
AcDbEntity
  8
1
  6
CONTINUOUS
370
50
 62
4
100
AcDbLine
 10
127.906654
 20
2.638881
 30
0.0
 11
127.7957
 21
2.660949
 31
0.0
  0
LINE
  5
77D
330
1F
100
AcDbEntity
  8
1
  6
CONTINUOUS
370
50
 62
4
100
AcDbLine
 10
115.0
 20
-3.699229
 30
0.0
 11
114.878105
 21
-3.675028
 31
0.0
  0
LINE
  5
77E
330
1F
100
AcDbEntity
  8
1
  6
CONTINUOUS
370
50
 62
4
100
AcDbLine
 10
115.333115
 20
2.659354
 30
0.0
 11
115.249832
 21
2.675828
 31
0.0
  0
LINE
  5
77F
330
1F
100
AcDbEntity
  8
1
  6
CONTINUOUS
370
50
 62
4
100
AcDbLine
 10
117.092758
 20
-2.591054
 30
0.0
 11
116.730789
 21
-2.519683
 31
0.0
  0
LINE
  5
780
330
1F
100
AcDbEntity
  8
1
  6
CONTINUOUS
370
50
 62
4
100
AcDbLine
 10
113.970871
 20
3.570331
 30
0.0
 11
113.887833
 21
3.586695
 31
0.0
  0
LINE
  5
781
330
1F
100
AcDbEntity
  8
1
  6
CONTINUOUS
370
50
 62
4
100
AcDbLine
 10
116.147369
 20
2.501875
 30
0.0
 11
115.666367
 21
2.596564
 31
0.0
  0
LINE
  5
782
330
1F
100
AcDbEntity
  8
1
  6
CONTINUOUS
370
50
 62
4
100
AcDbLine
 10
128.919846
 20
-2.015857
 30
0.0
 11
128.692734
 21
-1.971177
 31
0.0
  0
LINE
  5
783
330
1F
100
AcDbEntity
  8
1
  6
CONTINUOUS
370
50
 62
4
100
AcDbLine
 10
117.32309
 20
-2.611132
 30
0.0
 11
116.858574
 21
-2.51975
 31
0.0
  0
LINE
  5
784
330
1F
100
AcDbEntity
  8
1
  6
CONTINUOUS
370
50
 62
4
100
AcDbLine
 10
129.455811
 20
4.250308
 30
0.0
 11
129.357651
 21
4.269533
 31
0.0
  0
LINE
  5
785
330
1F
100
AcDbEntity
  8
1
  6
CONTINUOUS
370
50
 62
4
100
AcDbLine
 10
115.416412
 20
2.643193
 30
0.0
 11
115.333115
 21
2.659354
 31
0.0
  0
LINE
  5
786
330
1F
100
AcDbEntity
  8
1
  6
CONTINUOUS
370
50
 62
4
100
AcDbLine
 10
128.017624
 20
2.617447
 30
0.0
 11
127.906654
 21
2.638881
 31
0.0
  0
LINE
  5
787
330
1F
100
AcDbEntity
  8
1
  6
CONTINUOUS
370
50
 62
4
100
AcDbLine
 10
129.14534
 20
-2.058975
 30
0.0
 11
128.919846
 21
-2.015857
 31
0.0
  0
LINE
  5
788
330
1F
100
AcDbEntity
  8
1
  6
CONTINUOUS
370
50
 62
4
100
AcDbLine
 10
128.325836
 20
2.559165
 30
0.0
 11
128.128632
 21
2.596801
 31
0.0
  0
LINE
  5
789
330
1F
100
AcDbEntity
  8
1
  6
CONTINUOUS
370
50
 62
4
100
AcDbLine
 10
115.49971
 20
2.627344
 30
0.0
 11
115.416412
 21
2.643193
 31
0.0
  0
LINE
  5
78A
330
1F
100
AcDbEntity
  8
1
  6
CONTINUOUS
370
50
 62
4
100
AcDbLine
 10
128.475586
 20
2.557893
 30
0.0
 11
128.199692
 21
2.609936
 31
0.0
  0
LINE
  5
78B
330
1F
100
AcDbEntity
  8
1
  6
CONTINUOUS
370
50
 62
4
100
AcDbLine
 10
128.128616
 20
2.596643
 30
0.0
 11
128.017624
 21
2.617447
 31
0.0
  0
LINE
  5
78C
330
1F
100
AcDbEntity
  8
1
  6
CONTINUOUS
370
50
 62
4
100
AcDbLine
 10
115.583008
 20
2.611805
 30
0.0
 11
115.49971
 21
2.627344
 31
0.0
  0
LINE
  5
78D
330
1F
100
AcDbEntity
  8
1
  6
CONTINUOUS
370
50
 62
4
100
AcDbLine
 10
114.056854
 20
3.554433
 30
0.0
 11
113.970871
 21
3.570331
 31
0.0
  0
LINE
  5
78E
330
1F
100
AcDbEntity
  8
1
  6
CONTINUOUS
370
50
 62
4
100
AcDbLine
 10
129.37059
 20
-2.100537
 30
0.0
 11
129.14534
 21
-2.058975
 31
0.0
  0
LINE
  5
78F
330
1F
100
AcDbEntity
  8
1
  6
CONTINUOUS
370
50
 62
4
100
AcDbLine
 10
115.953079
 20
2.56876
 30
0.0
 11
115.659111
 21
2.622722
 31
0.0
  0
LINE
  5
790
330
1F
100
AcDbEntity
  8
1
  6
CONTINUOUS
370
50
 62
4
100
AcDbLine
 10
115.666313
 20
2.596571
 30
0.0
 11
115.583008
 21
2.611805
 31
0.0
  0
LINE
  5
791
330
1F
100
AcDbEntity
  8
1
  6
CONTINUOUS
370
50
 62
4
100
AcDbLine
 10
119.223976
 20
4.007385
 30
0.0
 11
118.839958
 21
4.076693
 31
0.0
  0
LINE
  5
792
330
1F
100
AcDbEntity
  8
1
  6
CONTINUOUS
370
50
 62
4
100
AcDbLine
 10
117.455383
 20
-2.654768
 30
0.0
 11
117.092758
 21
-2.591054
 31
0.0
  0
LINE
  5
793
330
1F
100
AcDbEntity
  8
1
  6
CONTINUOUS
370
50
 62
4
100
AcDbLine
 10
120.11631
 20
4.849165999999999
 30
0.0
 11
119.725182
 21
4.91714
 31
0.0
  0
LINE
  5
794
330
1F
100
AcDbEntity
  8
1
  6
CONTINUOUS
370
50
 62
4
100
AcDbLine
 10
114.145287
 20
3.539103
 30
0.0
 11
114.056854
 21
3.554433
 31
0.0
  0
LINE
  5
795
330
1F
100
AcDbEntity
  8
1
  6
CONTINUOUS
370
50
 62
4
100
AcDbLine
 10
118.880089
 20
4.864386
 30
0.0
 11
118.532036
 21
4.924443999999999
 31
0.0
  0
LINE
  5
796
330
1F
100
AcDbEntity
  8
1
  6
CONTINUOUS
370
50
 62
4
100
AcDbLine
 10
128.199692
 20
2.609936
 30
0.0
 11
127.923782
 21
2.656873
 31
0.0
  0
LINE
  5
797
330
1F
100
AcDbEntity
  8
1
  6
CONTINUOUS
370
50
 62
4
100
AcDbLine
 10
122.829712
 20
-4.941966
 30
0.0
 11
122.354713
 21
-4.861875
 31
0.0
  0
LINE
  5
798
330
1F
100
AcDbEntity
  8
1
  6
CONTINUOUS
370
50
 62
4
100
AcDbLine
 10
117.787643
 20
-2.688538
 30
0.0
 11
117.32309
 21
-2.611132
 31
0.0
  0
LINE
  5
799
330
1F
100
AcDbEntity
  8
1
  6
CONTINUOUS
370
50
 62
4
100
AcDbLine
 10
115.659111
 20
2.622722
 30
0.0
 11
115.36512
 21
2.670614
 31
0.0
  0
LINE
  5
79A
330
1F
100
AcDbEntity
  8
1
  6
CONTINUOUS
370
50
 62
4
100
AcDbLine
 10
114.235695
 20
3.524445
 30
0.0
 11
114.145287
 21
3.539103
 31
0.0
  0
LINE
  5
79B
330
1F
100
AcDbEntity
  8
1
  6
CONTINUOUS
370
50
 62
4
100
AcDbLine
 10
113.476059
 20
3.737953
 30
0.0
 11
113.453743
 21
3.741415
 31
0.0
  0
LINE
  5
79C
330
1F
100
AcDbEntity
  8
1
  6
CONTINUOUS
370
50
 62
4
100
AcDbLine
 10
117.816681
 20
-2.71021
 30
0.0
 11
117.455383
 21
-2.654768
 31
0.0
  0
LINE
  5
79D
330
1F
100
AcDbEntity
  8
1
  6
CONTINUOUS
370
50
 62
4
100
AcDbLine
 10
127.923782
 20
2.656873
 30
0.0
 11
127.647858
 21
2.698597
 31
0.0
  0
LINE
  5
79E
330
1F
100
AcDbEntity
  8
1
  6
CONTINUOUS
370
50
 62
4
100
AcDbLine
 10
114.327583
 20
3.510563
 30
0.0
 11
114.235695
 21
3.524445
 31
0.0
  0
LINE
  5
79F
330
1F
100
AcDbEntity
  8
1
  6
CONTINUOUS
370
50
 62
4
100
AcDbLine
 10
115.36512
 20
2.670614
 30
0.0
 11
115.071106
 21
2.71238
 31
0.0
  0
LINE
  5
7A0
330
1F
100
AcDbEntity
  8
1
  6
CONTINUOUS
370
50
 62
4
100
AcDbLine
 10
113.453743
 20
3.741415
 30
0.0
 11
113.433098
 21
3.744322
 31
0.0
  0
LINE
  5
7A1
330
1F
100
AcDbEntity
  8
1
  6
CONTINUOUS
370
50
 62
4
100
AcDbLine
 10
114.420479
 20
3.497558
 30
0.0
 11
114.327583
 21
3.510563
 31
0.0
  0
LINE
  5
7A2
330
1F
100
AcDbEntity
  8
1
  6
CONTINUOUS
370
50
 62
4
100
AcDbLine
 10
118.839958
 20
4.076693
 30
0.0
 11
118.455948
 21
4.12967
 31
0.0
  0
LINE
  5
7A3
330
1F
100
AcDbEntity
  8
1
  6
CONTINUOUS
370
50
 62
4
100
AcDbLine
 10
129.37059
 20
2.43367
 30
0.0
 11
129.243027
 21
2.451241
 31
0.0
  0
LINE
  5
7A4
330
1F
100
AcDbEntity
  8
1
  6
CONTINUOUS
370
50
 62
4
100
AcDbLine
 10
129.243027
 20
2.451241
 30
0.0
 11
129.115753
 21
2.468087
 31
0.0
  0
LINE
  5
7A5
330
1F
100
AcDbEntity
  8
1
  6
CONTINUOUS
370
50
 62
4
100
AcDbLine
 10
129.357651
 20
4.269533
 30
0.0
 11
129.241882
 21
4.284587999999999
 31
0.0
  0
LINE
  5
7A6
330
1F
100
AcDbEntity
  8
1
  6
CONTINUOUS
370
50
 62
4
100
AcDbLine
 10
129.115753
 20
2.468087
 30
0.0
 11
128.988495
 21
2.484504
 31
0.0
  0
LINE
  5
7A7
330
1F
100
AcDbEntity
  8
1
  6
CONTINUOUS
370
50
 62
4
100
AcDbLine
 10
114.514595
 20
3.48542
 30
0.0
 11
114.420479
 21
3.497558
 31
0.0
  0
LINE
  5
7A8
330
1F
100
AcDbEntity
  8
1
  6
CONTINUOUS
370
50
 62
4
100
AcDbLine
 10
124.267868
 20
-4.973574
 30
0.0
 11
123.646194
 21
-4.894617999999999
 31
0.0
  0
LINE
  5
7A9
330
1F
100
AcDbEntity
  8
1
  6
CONTINUOUS
370
50
 62
4
100
AcDbLine
 10
118.532036
 20
4.924443999999999
 30
0.0
 11
118.193275
 21
4.967032
 31
0.0
  0
LINE
  5
7AA
330
1F
100
AcDbEntity
  8
1
  6
CONTINUOUS
370
50
 62
4
100
AcDbLine
 10
128.988495
 20
2.484504
 30
0.0
 11
128.860962
 21
2.500528
 31
0.0
  0
LINE
  5
7AB
330
1F
100
AcDbEntity
  8
1
  6
CONTINUOUS
370
50
 62
4
100
AcDbLine
 10
113.433098
 20
3.744322
 30
0.0
 11
113.414268
 21
3.746651
 31
0.0
  0
LINE
  5
7AC
330
1F
100
AcDbEntity
  8
1
  6
CONTINUOUS
370
50
 62
4
100
AcDbLine
 10
119.725182
 20
4.91714
 30
0.0
 11
119.335358
 21
4.965176
 31
0.0
  0
LINE
  5
7AD
330
1F
100
AcDbEntity
  8
1
  6
CONTINUOUS
370
50
 62
4
100
AcDbLine
 10
128.860962
 20
2.500528
 30
0.0
 11
128.732895
 21
2.516195
 31
0.0
  0
LINE
  5
7AE
330
1F
100
AcDbEntity
  8
1
  6
CONTINUOUS
370
50
 62
4
100
AcDbLine
 10
128.732895
 20
2.516195
 30
0.0
 11
128.604019
 21
2.531543
 31
0.0
  0
LINE
  5
7AF
330
1F
100
AcDbEntity
  8
1
  6
CONTINUOUS
370
50
 62
4
100
AcDbLine
 10
114.610016
 20
3.474144
 30
0.0
 11
114.514595
 21
3.48542
 31
0.0
  0
LINE
  5
7B0
330
1F
100
AcDbEntity
  8
1
  6
CONTINUOUS
370
50
 62
4
100
AcDbLine
 10
129.316895
 20
2.369463
 30
0.0
 11
129.304443
 21
2.370898
 31
0.0
  0
LINE
  5
7B1
330
1F
100
AcDbEntity
  8
1
  6
CONTINUOUS
370
50
 62
4
100
AcDbLine
 10
114.706497
 20
3.463775
 30
0.0
 11
114.610016
 21
3.474144
 31
0.0
  0
LINE
  5
7B2
330
1F
100
AcDbEntity
  8
1
  6
CONTINUOUS
370
50
 62
4
100
AcDbLine
 10
113.414268
 20
3.746651
 30
0.0
 11
113.397392
 21
3.748377
 31
0.0
  0
LINE
  5
7B3
330
1F
100
AcDbEntity
  8
1
  6
CONTINUOUS
370
50
 62
4
100
AcDbLine
 10
114.80381
 20
3.454353
 30
0.0
 11
114.706497
 21
3.463775
 31
0.0
  0
LINE
  5
7B4
330
1F
100
AcDbEntity
  8
1
  6
CONTINUOUS
370
50
 62
4
100
AcDbLine
 10
123.322784
 20
-4.988312
 30
0.0
 11
122.829712
 21
-4.941966
 31
0.0
  0
LINE
  5
7B5
330
1F
100
AcDbEntity
  8
1
  6
CONTINUOUS
370
50
 62
4
100
AcDbLine
 10
118.455948
 20
4.12967
 30
0.0
 11
118.071945
 21
4.165455
 31
0.0
  0
LINE
  5
7B6
330
1F
100
AcDbEntity
  8
1
  6
CONTINUOUS
370
50
 62
4
100
AcDbLine
 10
114.901726
 20
3.44592
 30
0.0
 11
114.80381
 21
3.454353
 31
0.0
  0
LINE
  5
7B7
330
1F
100
AcDbEntity
  8
1
  6
CONTINUOUS
370
50
 62
4
100
AcDbLine
 10
129.241882
 20
4.284587999999999
 30
0.0
 11
129.119614
 21
4.294055999999999
 31
0.0
  0
LINE
  5
7B8
330
1F
100
AcDbEntity
  8
1
  6
CONTINUOUS
370
50
 62
4
100
AcDbLine
 10
115.0
 20
3.438519
 30
0.0
 11
114.901726
 21
3.44592
 31
0.0
  0
LINE
  5
7B9
330
1F
100
AcDbEntity
  8
1
  6
CONTINUOUS
370
50
 62
4
100
AcDbLine
 10
118.193275
 20
4.967032
 30
0.0
 11
117.857368
 21
4.992062
 31
0.0
  0
LINE
  5
7BA
330
1F
100
AcDbEntity
  8
1
  6
CONTINUOUS
370
50
 62
4
100
AcDbLine
 10
113.397392
 20
3.748377
 30
0.0
 11
113.382599
 21
3.749477
 31
0.0
  0
LINE
  5
7BB
330
1F
100
AcDbEntity
  8
1
  6
CONTINUOUS
370
50
 62
4
100
AcDbLine
 10
119.335358
 20
4.965176
 30
0.0
 11
118.952736
 21
4.992651
 31
0.0
  0
LINE
  5
7BC
330
1F
100
AcDbEntity
  8
1
  6
CONTINUOUS
370
50
 62
4
100
AcDbLine
 10
118.071945
 20
4.165455
 30
0.0
 11
117.687958
 21
4.182708
 31
0.0
  0
LINE
  5
7BD
330
1F
100
AcDbEntity
  8
1
  6
CONTINUOUS
370
50
 62
4
100
AcDbLine
 10
124.893532
 20
-5.000243999999999
 30
0.0
 11
124.267868
 21
-4.973574
 31
0.0
  0
LINE
  5
7BE
330
1F
100
AcDbEntity
  8
1
  6
CONTINUOUS
370
50
 62
4
100
AcDbLine
 10
129.119614
 20
4.294055999999999
 30
0.0
 11
128.995926
 21
4.298497999999999
 31
0.0
  0
LINE
  5
7BF
330
1F
100
AcDbEntity
  8
1
  6
CONTINUOUS
370
50
 62
4
100
AcDbLine
 10
113.382599
 20
3.749477
 30
0.0
 11
113.370026
 21
3.749925
 31
0.0
  0
LINE
  5
7C0
330
1F
100
AcDbEntity
  8
1
  6
CONTINUOUS
370
50
 62
4
100
AcDbLine
 10
117.857368
 20
4.992062
 30
0.0
 11
117.513168
 21
4.999896
 31
0.0
  0
LINE
  5
7C1
330
1F
100
AcDbEntity
  8
1
  6
CONTINUOUS
370
50
 62
4
100
AcDbLine
 10
123.823166
 20
-4.999383
 30
0.0
 11
123.322784
 21
-4.988312
 31
0.0
  0
LINE
  5
7C2
330
1F
100
AcDbEntity
  8
1
  6
CONTINUOUS
370
50
 62
4
100
AcDbLine
 10
118.952736
 20
4.992651
 30
0.0
 11
118.617012
 21
5.000061
 31
0.0
  0
LINE
  5
7C3
330
1F
100
AcDbEntity
  8
1
  6
CONTINUOUS
370
50
 62
4
100
AcDbLine
 10
128.995926
 20
4.298497999999999
 30
0.0
 11
128.873947
 21
4.298770999999999
 31
0.0
  0
LINE
  5
7C4
330
1F
100
AcDbEntity
  8
1
  6
CONTINUOUS
370
50
 62
4
100
AcDbLine
 10
124.899498
 20
-4.999966
 30
0.0
 11
123.73127
 21
-4.999957999999999
 31
0.0
  0
LINE
  5
7C5
330
1F
100
AcDbEntity
  8
1
  6
CONTINUOUS
370
50
 62
4
100
AcDbLine
 10
40.0
 20
-4.0
 30
0.0
 11
110.0
 21
-4.0
 31
0.0
  0
LINE
  5
7C6
330
1F
100
AcDbEntity
  8
1
  6
CONTINUOUS
370
50
 62
4
100
AcDbLine
 10
110.0
 20
-3.74995
 30
0.0
 11
115.0
 21
-3.74995
 31
0.0
  0
LINE
  5
7C7
330
1F
100
AcDbEntity
  8
1
  6
CONTINUOUS
370
50
 62
4
100
AcDbLine
 10
110.0
 20
3.74995
 30
0.0
 11
113.368217
 21
3.74995
 31
0.0
  0
LINE
  5
7C8
330
1F
100
AcDbEntity
  8
1
  6
CONTINUOUS
370
50
 62
4
100
AcDbLine
 10
40.0
 20
4.0
 30
0.0
 11
110.0
 21
4.0
 31
0.0
  0
LINE
  5
7C9
330
1F
100
AcDbEntity
  8
1
  6
CONTINUOUS
370
50
 62
4
100
AcDbLine
 10
117.531296
 20
4.999917
 30
0.0
 11
118.633949
 21
4.999924
 31
0.0
  0
LINE
  5
7CA
330
1F
100
AcDbEntity
  8
1
  6
CONTINUOUS
370
50
 62
4
100
AcDbLine
 10
129.942749
 20
4.184305999999999
 30
0.0
 11
130.0
 21
4.184407999999999
 31
0.0
  0
LINE
  5
7CB
330
1F
100
AcDbEntity
  8
1
  6
CONTINUOUS
370
50
 62
4
100
AcDbLine
 10
117.30397
 20
4.181572
 30
0.0
 11
117.687958
 21
4.182708
 31
0.0
  0
LINE
  5
7CC
330
1F
100
AcDbEntity
  8
1
  6
CONTINUOUS
370
50
 62
4
100
AcDbLine
 10
129.885498
 20
4.183705
 30
0.0
 11
129.942749
 21
4.184305999999999
 31
0.0
  0
LINE
  5
7CD
330
1F
100
AcDbEntity
  8
1
  6
CONTINUOUS
370
50
 62
4
100
AcDbLine
 10
129.828247
 20
4.182733
 30
0.0
 11
129.885498
 21
4.183705
 31
0.0
  0
LINE
  5
7CE
330
1F
100
AcDbEntity
  8
1
  6
CONTINUOUS
370
50
 62
4
100
AcDbLine
 10
129.698578
 20
4.993283
 30
0.0
 11
130.0
 21
4.999989999999999
 31
0.0
  0
LINE
  5
7CF
330
1F
100
AcDbEntity
  8
1
  6
CONTINUOUS
370
50
 62
4
100
AcDbLine
 10
129.770981
 20
4.181391
 30
0.0
 11
129.828247
 21
4.182733
 31
0.0
  0
LINE
  5
7D0
330
1F
100
AcDbEntity
  8
1
  6
CONTINUOUS
370
50
 62
4
100
AcDbLine
 10
124.893532
 20
-5.000243999999999
 30
0.0
 11
125.275208
 21
-4.990746
 31
0.0
  0
LINE
  5
7D1
330
1F
100
AcDbEntity
  8
1
  6
CONTINUOUS
370
50
 62
4
100
AcDbLine
 10
128.754181
 20
4.29565
 30
0.0
 11
128.873947
 21
4.298770999999999
 31
0.0
  0
LINE
  5
7D2
330
1F
100
AcDbEntity
  8
1
  6
CONTINUOUS
370
50
 62
4
100
AcDbLine
 10
129.71373
 20
4.179684
 30
0.0
 11
129.770981
 21
4.181391
 31
0.0
  0
LINE
  5
7D3
330
1F
100
AcDbEntity
  8
1
  6
CONTINUOUS
370
50
 62
4
100
AcDbLine
 10
117.098915
 20
4.986619999999999
 30
0.0
 11
117.513168
 21
4.999896
 31
0.0
  0
LINE
  5
7D4
330
1F
100
AcDbEntity
  8
1
  6
CONTINUOUS
370
50
 62
4
100
AcDbLine
 10
129.656479
 20
4.177557
 30
0.0
 11
129.71373
 21
4.179684
 31
0.0
  0
LINE
  5
7D5
330
1F
100
AcDbEntity
  8
1
  6
CONTINUOUS
370
50
 62
4
100
AcDbLine
 10
116.919983
 20
4.162927
 30
0.0
 11
117.30397
 21
4.181572
 31
0.0
  0
LINE
  5
7D6
330
1F
100
AcDbEntity
  8
1
  6
CONTINUOUS
370
50
 62
4
100
AcDbLine
 10
128.633286
 20
4.289448
 30
0.0
 11
128.754181
 21
4.29565
 31
0.0
  0
LINE
  5
7D7
330
1F
100
AcDbEntity
  8
1
  6
CONTINUOUS
370
50
 62
4
100
AcDbLine
 10
129.395721
 20
4.974259
 30
0.0
 11
129.698578
 21
4.993283
 31
0.0
  0
LINE
  5
7D8
330
1F
100
AcDbEntity
  8
1
  6
CONTINUOUS
370
50
 62
4
100
AcDbLine
 10
129.368622
 20
-3.936038
 30
0.0
 11
129.421448
 21
-3.932176
 31
0.0
  0
LINE
  5
7D9
330
1F
100
AcDbEntity
  8
1
  6
CONTINUOUS
370
50
 62
4
100
AcDbLine
 10
128.511566
 20
4.280330999999999
 30
0.0
 11
128.633286
 21
4.289448
 31
0.0
  0
LINE
  5
7DA
330
1F
100
AcDbEntity
  8
1
  6
CONTINUOUS
370
50
 62
4
100
AcDbLine
 10
125.275208
 20
-4.990746
 30
0.0
 11
125.654678
 21
-4.961644
 31
0.0
  0
LINE
  5
7DB
330
1F
100
AcDbEntity
  8
1
  6
CONTINUOUS
370
50
 62
4
100
AcDbLine
 10
116.681969
 20
4.949472
 30
0.0
 11
117.098915
 21
4.986619999999999
 31
0.0
  0
LINE
  5
7DC
330
1F
100
AcDbEntity
  8
1
  6
CONTINUOUS
370
50
 62
4
100
AcDbLine
 10
116.536003
 20
4.127651999999999
 30
0.0
 11
116.919983
 21
4.162927
 31
0.0
  0
LINE
  5
7DD
330
1F
100
AcDbEntity
  8
1
  6
CONTINUOUS
370
50
 62
4
100
AcDbLine
 10
128.389465
 20
4.268463
 30
0.0
 11
128.511566
 21
4.280330999999999
 31
0.0
  0
LINE
  5
7DE
330
1F
100
AcDbEntity
  8
1
  6
CONTINUOUS
370
50
 62
4
100
AcDbLine
 10
129.092255
 20
4.943027
 30
0.0
 11
129.395721
 21
4.974259
 31
0.0
  0
LINE
  5
7DF
330
1F
100
AcDbEntity
  8
1
  6
CONTINUOUS
370
50
 62
4
100
AcDbLine
 10
128.267365
 20
4.254011
 30
0.0
 11
128.389465
 21
4.268463
 31
0.0
  0
LINE
  5
7E0
330
1F
100
AcDbEntity
  8
1
  6
CONTINUOUS
370
50
 62
4
100
AcDbLine
 10
125.654678
 20
-4.961644
 30
0.0
 11
126.030563
 21
-4.912907
 31
0.0
  0
LINE
  5
7E1
330
1F
100
AcDbEntity
  8
1
  6
CONTINUOUS
370
50
 62
4
100
AcDbLine
 10
116.152008
 20
4.076495
 30
0.0
 11
116.536003
 21
4.127651999999999
 31
0.0
  0
LINE
  5
7E2
330
1F
100
AcDbEntity
  8
1
  6
CONTINUOUS
370
50
 62
4
100
AcDbLine
 10
128.145676
 20
4.23714
 30
0.0
 11
128.267365
 21
4.254011
 31
0.0
  0
LINE
  5
7E3
330
1F
100
AcDbEntity
  8
1
  6
CONTINUOUS
370
50
 62
4
100
AcDbLine
 10
128.788971
 20
4.899694999999999
 30
0.0
 11
129.092255
 21
4.943027
 31
0.0
  0
LINE
  5
7E4
330
1F
100
AcDbEntity
  8
1
  6
CONTINUOUS
370
50
 62
4
100
AcDbLine
 10
116.261917
 20
4.888888
 30
0.0
 11
116.681969
 21
4.949472
 31
0.0
  0
LINE
  5
7E5
330
1F
100
AcDbEntity
  8
1
  6
CONTINUOUS
370
50
 62
4
100
AcDbLine
 10
128.024826
 20
4.218014999999999
 30
0.0
 11
128.145676
 21
4.23714
 31
0.0
  0
LINE
  5
7E6
330
1F
100
AcDbEntity
  8
1
  6
CONTINUOUS
370
50
 62
4
100
AcDbLine
 10
115.768013
 20
4.009428
 30
0.0
 11
116.152008
 21
4.076495
 31
0.0
  0
LINE
  5
7E7
330
1F
100
AcDbEntity
  8
1
  6
CONTINUOUS
370
50
 62
4
100
AcDbLine
 10
128.486694
 20
4.844371
 30
0.0
 11
128.788971
 21
4.899694999999999
 31
0.0
  0
LINE
  5
7E8
330
1F
100
AcDbEntity
  8
1
  6
CONTINUOUS
370
50
 62
4
100
AcDbLine
 10
126.030563
 20
-4.912907
 30
0.0
 11
126.401276
 21
-4.844539
 31
0.0
  0
LINE
  5
7E9
330
1F
100
AcDbEntity
  8
1
  6
CONTINUOUS
370
50
 62
4
100
AcDbLine
 10
114.909698
 20
-0.440388
 30
0.0
 11
115.0
 21
-0.423483
 31
0.0
  0
LINE
  5
7EA
330
1F
100
AcDbEntity
  8
1
  6
CONTINUOUS
370
50
 62
4
100
AcDbLine
 10
129.316895
 20
2.369463
 30
0.0
 11
129.328339
 21
2.371617
 31
0.0
  0
LINE
  5
7EB
330
1F
100
AcDbEntity
  8
1
  6
CONTINUOUS
370
50
 62
4
100
AcDbLine
 10
115.840172
 20
4.805128
 30
0.0
 11
116.261917
 21
4.888888
 31
0.0
  0
LINE
  5
7EC
330
1F
100
AcDbEntity
  8
1
  6
CONTINUOUS
370
50
 62
4
100
AcDbLine
 10
114.819679
 20
-0.459672
 30
0.0
 11
114.909698
 21
-0.440388
 31
0.0
  0
LINE
  5
7ED
330
1F
100
AcDbEntity
  8
1
  6
CONTINUOUS
370
50
 62
4
100
AcDbLine
 10
115.38401
 20
3.926135
 30
0.0
 11
115.768013
 21
4.009428
 31
0.0
  0
LINE
  5
7EE
330
1F
100
AcDbEntity
  8
1
  6
CONTINUOUS
370
50
 62
4
100
AcDbLine
 10
128.185303
 20
4.776924999999999
 30
0.0
 11
128.486694
 21
4.844371
 31
0.0
  0
LINE
  5
7EF
330
1F
100
AcDbEntity
  8
1
  6
CONTINUOUS
370
50
 62
4
100
AcDbLine
 10
127.706345
 20
3.888173
 30
0.0
 11
128.096375
 21
3.980815
 31
0.0
  0
LINE
  5
7F0
330
1F
100
AcDbEntity
  8
1
  6
CONTINUOUS
370
50
 62
4
100
AcDbLine
 10
126.401276
 20
-4.844539
 30
0.0
 11
126.758659
 21
-4.758344999999999
 31
0.0
  0
LINE
  5
7F1
330
1F
100
AcDbEntity
  8
1
  6
CONTINUOUS
370
50
 62
4
100
AcDbLine
 10
114.730141
 20
-0.481358
 30
0.0
 11
114.819679
 21
-0.459672
 31
0.0
  0
LINE
  5
7F2
330
1F
100
AcDbEntity
  8
1
  6
CONTINUOUS
370
50
 62
4
100
AcDbLine
 10
115.418839
 20
4.698493
 30
0.0
 11
115.840172
 21
4.805128
 31
0.0
  0
LINE
  5
7F3
330
1F
100
AcDbEntity
  8
1
  6
CONTINUOUS
370
50
 62
4
100
AcDbLine
 10
115.0
 20
3.8262
 30
0.0
 11
115.38401
 21
3.926135
 31
0.0
  0
LINE
  5
7F4
330
1F
100
AcDbEntity
  8
1
  6
CONTINUOUS
370
50
 62
4
100
AcDbLine
 10
127.884674
 20
4.697114
 30
0.0
 11
128.185303
 21
4.776924999999999
 31
0.0
  0
LINE
  5
7F5
330
1F
100
AcDbEntity
  8
1
  6
CONTINUOUS
370
50
 62
4
100
AcDbLine
 10
114.641251
 20
-0.505472
 30
0.0
 11
114.730141
 21
-0.481358
 31
0.0
  0
LINE
  5
7F6
330
1F
100
AcDbEntity
  8
1
  6
CONTINUOUS
370
50
 62
4
100
AcDbLine
 10
127.316315
 20
3.776889
 30
0.0
 11
127.706345
 21
3.888173
 31
0.0
  0
LINE
  5
7F7
330
1F
100
AcDbEntity
  8
1
  6
CONTINUOUS
370
50
 62
4
100
AcDbLine
 10
126.758659
 20
-4.758344999999999
 30
0.0
 11
127.111336
 21
-4.654303
 31
0.0
  0
LINE
  5
7F8
330
1F
100
AcDbEntity
  8
1
  6
CONTINUOUS
370
50
 62
4
100
AcDbLine
 10
118.680763
 20
-3.387416
 30
0.0
 11
118.765381
 21
-3.36222
 31
0.0
  0
LINE
  5
7F9
330
1F
100
AcDbEntity
  8
1
  6
CONTINUOUS
370
50
 62
4
100
AcDbLine
 10
118.596153
 20
-3.412892
 30
0.0
 11
118.680763
 21
-3.387416
 31
0.0
  0
LINE
  5
7FA
330
1F
100
AcDbEntity
  8
1
  6
CONTINUOUS
370
50
 62
4
100
AcDbLine
 10
114.5532
 20
-0.532037
 30
0.0
 11
114.641251
 21
-0.505472
 31
0.0
  0
LINE
  5
7FB
330
1F
100
AcDbEntity
  8
1
  6
CONTINUOUS
370
50
 62
4
100
AcDbLine
 10
118.511551
 20
-3.438655
 30
0.0
 11
118.596153
 21
-3.412892
 31
0.0
  0
LINE
  5
7FC
330
1F
100
AcDbEntity
  8
1
  6
CONTINUOUS
370
50
 62
4
100
AcDbLine
 10
115.068054
 20
-4.516353
 30
0.0
 11
115.136116
 21
-4.495403
 31
0.0
  0
LINE
  5
7FD
330
1F
100
AcDbEntity
  8
1
  6
CONTINUOUS
370
50
 62
4
100
AcDbLine
 10
115.0
 20
-4.537300999999999
 30
0.0
 11
115.068054
 21
-4.516353
 31
0.0
  0
LINE
  5
7FE
330
1F
100
AcDbEntity
  8
1
  6
CONTINUOUS
370
50
 62
4
100
AcDbLine
 10
115.136116
 20
-4.495403
 30
0.0
 11
115.20417
 21
-4.47445
 31
0.0
  0
LINE
  5
7FF
330
1F
100
AcDbEntity
  8
1
  6
CONTINUOUS
370
50
 62
4
100
AcDbLine
 10
115.20417
 20
-4.47445
 30
0.0
 11
115.272224
 21
-4.453494
 31
0.0
  0
LINE
  5
800
330
1F
100
AcDbEntity
  8
1
  6
CONTINUOUS
370
50
 62
4
100
AcDbLine
 10
115.272224
 20
-4.453494
 30
0.0
 11
115.340294
 21
-4.43253
 31
0.0
  0
LINE
  5
801
330
1F
100
AcDbEntity
  8
1
  6
CONTINUOUS
370
50
 62
4
100
AcDbLine
 10
115.340294
 20
-4.43253
 30
0.0
 11
115.408363
 21
-4.411562
 31
0.0
  0
LINE
  5
802
330
1F
100
AcDbEntity
  8
1
  6
CONTINUOUS
370
50
 62
4
100
AcDbLine
 10
115.408363
 20
-4.411562
 30
0.0
 11
115.476425
 21
-4.390588999999999
 31
0.0
  0
LINE
  5
803
330
1F
100
AcDbEntity
  8
1
  6
CONTINUOUS
370
50
 62
4
100
AcDbLine
 10
115.476425
 20
-4.390588999999999
 30
0.0
 11
115.54451
 21
-4.369605
 31
0.0
  0
LINE
  5
804
330
1F
100
AcDbEntity
  8
1
  6
CONTINUOUS
370
50
 62
4
100
AcDbLine
 10
129.36879
 20
-3.948397
 30
0.0
 11
129.421448
 21
-3.932165
 31
0.0
  0
LINE
  5
805
330
1F
100
AcDbEntity
  8
1
  6
CONTINUOUS
370
50
 62
4
100
AcDbLine
 10
115.54451
 20
-4.369605
 30
0.0
 11
115.628082
 21
-4.34384
 31
0.0
  0
LINE
  5
806
330
1F
100
AcDbEntity
  8
1
  6
CONTINUOUS
370
50
 62
4
100
AcDbLine
 10
127.585335
 20
4.604820999999999
 30
0.0
 11
127.884674
 21
4.697114
 31
0.0
  0
LINE
  5
807
330
1F
100
AcDbEntity
  8
1
  6
CONTINUOUS
370
50
 62
4
100
AcDbLine
 10
118.404007
 20
-3.471817
 30
0.0
 11
118.511551
 21
-3.438655
 31
0.0
  0
LINE
  5
808
330
1F
100
AcDbEntity
  8
1
  6
CONTINUOUS
370
50
 62
4
100
AcDbLine
 10
129.316147
 20
-3.964633
 30
0.0
 11
129.36879
 21
-3.948397
 31
0.0
  0
LINE
  5
809
330
1F
100
AcDbEntity
  8
1
  6
CONTINUOUS
370
50
 62
4
100
AcDbLine
 10
115.628082
 20
-4.34384
 30
0.0
 11
115.711304
 21
-4.318169999999999
 31
0.0
  0
LINE
  5
80A
330
1F
100
AcDbEntity
  8
1
  6
CONTINUOUS
370
50
 62
4
100
AcDbLine
 10
129.263504
 20
-3.980872
 30
0.0
 11
129.316147
 21
-3.964633
 31
0.0
  0
LINE
  5
80B
330
1F
100
AcDbEntity
  8
1
  6
CONTINUOUS
370
50
 62
4
100
AcDbLine
 10
115.0
 20
4.569283
 30
0.0
 11
115.418839
 21
4.698493
 31
0.0
  0
LINE
  5
80C
330
1F
100
AcDbEntity
  8
1
  6
CONTINUOUS
370
50
 62
4
100
AcDbLine
 10
115.711304
 20
-4.318169999999999
 30
0.0
 11
115.794533
 21
-4.292483
 31
0.0
  0
LINE
  5
80D
330
1F
100
AcDbEntity
  8
1
  6
CONTINUOUS
370
50
 62
4
100
AcDbLine
 10
129.210876
 20
-3.997117
 30
0.0
 11
129.263504
 21
-3.980872
 31
0.0
  0
LINE
  5
80E
330
1F
100
AcDbEntity
  8
1
  6
CONTINUOUS
370
50
 62
4
100
AcDbLine
 10
129.158234
 20
-4.013367
 30
0.0
 11
129.210876
 21
-3.997117
 31
0.0
  0
LINE
  5
80F
330
1F
100
AcDbEntity
  8
1
  6
CONTINUOUS
370
50
 62
4
100
AcDbLine
 10
129.105591
 20
-4.029622
 30
0.0
 11
129.158234
 21
-4.013367
 31
0.0
  0
LINE
  5
810
330
1F
100
AcDbEntity
  8
1
  6
CONTINUOUS
370
50
 62
4
100
AcDbLine
 10
115.794533
 20
-4.292483
 30
0.0
 11
115.877464
 21
-4.266874
 31
0.0
  0
LINE
  5
811
330
1F
100
AcDbEntity
  8
1
  6
CONTINUOUS
370
50
 62
4
100
AcDbLine
 10
129.052948
 20
-4.045885
 30
0.0
 11
129.105591
 21
-4.029622
 31
0.0
  0
LINE
  5
812
330
1F
100
AcDbEntity
  8
1
  6
CONTINUOUS
370
50
 62
4
100
AcDbLine
 10
115.877464
 20
-4.266874
 30
0.0
 11
115.952774
 21
-4.243603999999999
 31
0.0
  0
LINE
  5
813
330
1F
100
AcDbEntity
  8
1
  6
CONTINUOUS
370
50
 62
4
100
AcDbLine
 10
129.000305
 20
-4.062154
 30
0.0
 11
129.052948
 21
-4.045885
 31
0.0
  0
LINE
  5
814
330
1F
100
AcDbEntity
  8
1
  6
CONTINUOUS
370
50
 62
4
100
AcDbLine
 10
115.952774
 20
-4.243603999999999
 30
0.0
 11
116.028084
 21
-4.220318
 31
0.0
  0
LINE
  5
815
330
1F
100
AcDbEntity
  8
1
  6
CONTINUOUS
370
50
 62
4
100
AcDbLine
 10
128.939209
 20
-4.081049999999999
 30
0.0
 11
129.000305
 21
-4.062154
 31
0.0
  0
LINE
  5
816
330
1F
100
AcDbEntity
  8
1
  6
CONTINUOUS
370
50
 62
4
100
AcDbLine
 10
116.028084
 20
-4.220318
 30
0.0
 11
116.103401
 21
-4.197014
 31
0.0
  0
LINE
  5
817
330
1F
100
AcDbEntity
  8
1
  6
CONTINUOUS
370
50
 62
4
100
AcDbLine
 10
128.888336
 20
-4.096792
 30
0.0
 11
128.939209
 21
-4.081049999999999
 31
0.0
  0
LINE
  5
818
330
1F
100
AcDbEntity
  8
1
  6
CONTINUOUS
370
50
 62
4
100
AcDbLine
 10
128.837463
 20
-4.112541999999999
 30
0.0
 11
128.888336
 21
-4.096792
 31
0.0
  0
LINE
  5
819
330
1F
100
AcDbEntity
  8
1
  6
CONTINUOUS
370
50
 62
4
100
AcDbLine
 10
128.786575
 20
-4.128301
 30
0.0
 11
128.837463
 21
-4.112541999999999
 31
0.0
  0
LINE
  5
81A
330
1F
100
AcDbEntity
  8
1
  6
CONTINUOUS
370
50
 62
4
100
AcDbLine
 10
116.103401
 20
-4.197014
 30
0.0
 11
116.178711
 21
-4.173691
 31
0.0
  0
LINE
  5
81B
330
1F
100
AcDbEntity
  8
1
  6
CONTINUOUS
370
50
 62
4
100
AcDbLine
 10
116.178711
 20
-4.173691
 30
0.0
 11
116.254028
 21
-4.150348
 31
0.0
  0
LINE
  5
81C
330
1F
100
AcDbEntity
  8
1
  6
CONTINUOUS
370
50
 62
4
100
AcDbLine
 10
128.735703
 20
-4.144069
 30
0.0
 11
128.786575
 21
-4.128301
 31
0.0
  0
LINE
  5
81D
330
1F
100
AcDbEntity
  8
1
  6
CONTINUOUS
370
50
 62
4
100
AcDbLine
 10
128.68483
 20
-4.159848
 30
0.0
 11
128.735703
 21
-4.144069
 31
0.0
  0
LINE
  5
81E
330
1F
100
AcDbEntity
  8
1
  6
CONTINUOUS
370
50
 62
4
100
AcDbLine
 10
116.254028
 20
-4.150348
 30
0.0
 11
116.329346
 21
-4.126981
 31
0.0
  0
LINE
  5
81F
330
1F
100
AcDbEntity
  8
1
  6
CONTINUOUS
370
50
 62
4
100
AcDbLine
 10
128.633957
 20
-4.175636
 30
0.0
 11
128.68483
 21
-4.159848
 31
0.0
  0
LINE
  5
820
330
1F
100
AcDbEntity
  8
1
  6
CONTINUOUS
370
50
 62
4
100
AcDbLine
 10
116.329346
 20
-4.126981
 30
0.0
 11
116.404686
 21
-4.103585
 31
0.0
  0
LINE
  5
821
330
1F
100
AcDbEntity
  8
1
  6
CONTINUOUS
370
50
 62
4
100
AcDbLine
 10
128.583084
 20
-4.191435
 30
0.0
 11
128.633957
 21
-4.175636
 31
0.0
  0
LINE
  5
822
330
1F
100
AcDbEntity
  8
1
  6
CONTINUOUS
370
50
 62
4
100
AcDbLine
 10
116.404686
 20
-4.103585
 30
0.0
 11
116.479599
 21
-4.080296
 31
0.0
  0
LINE
  5
823
330
1F
100
AcDbEntity
  8
1
  6
CONTINUOUS
370
50
 62
4
100
AcDbLine
 10
128.532227
 20
-4.207246
 30
0.0
 11
128.583084
 21
-4.191435
 31
0.0
  0
LINE
  5
824
330
1F
100
AcDbEntity
  8
1
  6
CONTINUOUS
370
50
 62
4
100
AcDbLine
 10
128.481354
 20
-4.223066
 30
0.0
 11
128.532227
 21
-4.207246
 31
0.0
  0
LINE
  5
825
330
1F
100
AcDbEntity
  8
1
  6
CONTINUOUS
370
50
 62
4
100
AcDbLine
 10
116.479599
 20
-4.080296
 30
0.0
 11
116.548416
 21
-4.058878
 31
0.0
  0
LINE
  5
826
330
1F
100
AcDbEntity
  8
1
  6
CONTINUOUS
370
50
 62
4
100
AcDbLine
 10
128.430496
 20
-4.238898
 30
0.0
 11
128.481354
 21
-4.223066
 31
0.0
  0
LINE
  5
827
330
1F
100
AcDbEntity
  8
1
  6
CONTINUOUS
370
50
 62
4
100
AcDbLine
 10
128.379623
 20
-4.254742
 30
0.0
 11
128.430496
 21
-4.238898
 31
0.0
  0
LINE
  5
828
330
1F
100
AcDbEntity
  8
1
  6
CONTINUOUS
370
50
 62
4
100
AcDbLine
 10
116.548416
 20
-4.058878
 30
0.0
 11
116.617233
 21
-4.037436
 31
0.0
  0
LINE
  5
829
330
1F
100
AcDbEntity
  8
1
  6
CONTINUOUS
370
50
 62
4
100
AcDbLine
 10
128.328766
 20
-4.270599
 30
0.0
 11
128.379623
 21
-4.254742
 31
0.0
  0
LINE
  5
82A
330
1F
100
AcDbEntity
  8
1
  6
CONTINUOUS
370
50
 62
4
100
AcDbLine
 10
116.617233
 20
-4.037436
 30
0.0
 11
116.68605
 21
-4.01597
 31
0.0
  0
LINE
  5
82B
330
1F
100
AcDbEntity
  8
1
  6
CONTINUOUS
370
50
 62
4
100
AcDbLine
 10
128.277908
 20
-4.286468999999999
 30
0.0
 11
128.328766
 21
-4.270599
 31
0.0
  0
LINE
  5
82C
330
1F
100
AcDbEntity
  8
1
  6
CONTINUOUS
370
50
 62
4
100
AcDbLine
 10
128.227036
 20
-4.302352
 30
0.0
 11
128.277908
 21
-4.286468999999999
 31
0.0
  0
LINE
  5
82D
330
1F
100
AcDbEntity
  8
1
  6
CONTINUOUS
370
50
 62
4
100
AcDbLine
 10
116.68605
 20
-4.01597
 30
0.0
 11
116.75499
 21
-3.994439
 31
0.0
  0
LINE
  5
82E
330
1F
100
AcDbEntity
  8
1
  6
CONTINUOUS
370
50
 62
4
100
AcDbLine
 10
128.176178
 20
-4.318249
 30
0.0
 11
128.227036
 21
-4.302352
 31
0.0
  0
LINE
  5
82F
330
1F
100
AcDbEntity
  8
1
  6
CONTINUOUS
370
50
 62
4
100
AcDbLine
 10
116.75499
 20
-3.994439
 30
0.0
 11
116.836357
 21
-3.968993
 31
0.0
  0
LINE
  5
830
330
1F
100
AcDbEntity
  8
1
  6
CONTINUOUS
370
50
 62
4
100
AcDbLine
 10
118.289291
 20
-3.507705
 30
0.0
 11
118.404007
 21
-3.471817
 31
0.0
  0
LINE
  5
831
330
1F
100
AcDbEntity
  8
1
  6
CONTINUOUS
370
50
 62
4
100
AcDbLine
 10
128.12532
 20
-4.33416
 30
0.0
 11
128.176178
 21
-4.318249
 31
0.0
  0
LINE
  5
832
330
1F
100
AcDbEntity
  8
1
  6
CONTINUOUS
370
50
 62
4
100
AcDbLine
 10
128.068649
 20
-4.351904
 30
0.0
 11
128.12532
 21
-4.33416
 31
0.0
  0
LINE
  5
833
330
1F
100
AcDbEntity
  8
1
  6
CONTINUOUS
370
50
 62
4
100
AcDbLine
 10
116.836357
 20
-3.968993
 30
0.0
 11
116.916992
 21
-3.943735
 31
0.0
  0
LINE
  5
834
330
1F
100
AcDbEntity
  8
1
  6
CONTINUOUS
370
50
 62
4
100
AcDbLine
 10
128.011978
 20
-4.369664999999999
 30
0.0
 11
128.068649
 21
-4.351904
 31
0.0
  0
LINE
  5
835
330
1F
100
AcDbEntity
  8
1
  6
CONTINUOUS
370
50
 62
4
100
AcDbLine
 10
116.916992
 20
-3.943735
 30
0.0
 11
116.997627
 21
-3.918437
 31
0.0
  0
LINE
  5
836
330
1F
100
AcDbEntity
  8
1
  6
CONTINUOUS
370
50
 62
4
100
AcDbLine
 10
127.91674
 20
-4.399554999999999
 30
0.0
 11
128.011978
 21
-4.369664999999999
 31
0.0
  0
LINE
  5
837
330
1F
100
AcDbEntity
  8
1
  6
CONTINUOUS
370
50
 62
4
100
AcDbLine
 10
116.997627
 20
-3.918437
 30
0.0
 11
117.07827
 21
-3.893097
 31
0.0
  0
LINE
  5
838
330
1F
100
AcDbEntity
  8
1
  6
CONTINUOUS
370
50
 62
4
100
AcDbLine
 10
127.82151
 20
-4.429495999999999
 30
0.0
 11
127.91674
 21
-4.399554999999999
 31
0.0
  0
LINE
  5
839
330
1F
100
AcDbEntity
  8
1
  6
CONTINUOUS
370
50
 62
4
100
AcDbLine
 10
117.07827
 20
-3.893097
 30
0.0
 11
117.158882
 21
-3.867722
 31
0.0
  0
LINE
  5
83A
330
1F
100
AcDbEntity
  8
1
  6
CONTINUOUS
370
50
 62
4
100
AcDbLine
 10
127.726288
 20
-4.459483
 30
0.0
 11
127.82151
 21
-4.429495999999999
 31
0.0
  0
LINE
  5
83B
330
1F
100
AcDbEntity
  8
1
  6
CONTINUOUS
370
50
 62
4
100
AcDbLine
 10
117.158882
 20
-3.867722
 30
0.0
 11
117.239494
 21
-3.842301
 31
0.0
  0
LINE
  5
83C
330
1F
100
AcDbEntity
  8
1
  6
CONTINUOUS
370
50
 62
4
100
AcDbLine
 10
127.631065
 20
-4.48952
 30
0.0
 11
127.726288
 21
-4.459483
 31
0.0
  0
LINE
  5
83D
330
1F
100
AcDbEntity
  8
1
  6
CONTINUOUS
370
50
 62
4
100
AcDbLine
 10
117.239494
 20
-3.842301
 30
0.0
 11
117.320107
 21
-3.816835
 31
0.0
  0
LINE
  5
83E
330
1F
100
AcDbEntity
  8
1
  6
CONTINUOUS
370
50
 62
4
100
AcDbLine
 10
127.535866
 20
-4.5196
 30
0.0
 11
127.631065
 21
-4.48952
 31
0.0
  0
LINE
  5
83F
330
1F
100
AcDbEntity
  8
1
  6
CONTINUOUS
370
50
 62
4
100
AcDbLine
 10
127.440659
 20
-4.549728
 30
0.0
 11
127.535866
 21
-4.5196
 31
0.0
  0
LINE
  5
840
330
1F
100
AcDbEntity
  8
1
  6
CONTINUOUS
370
50
 62
4
100
AcDbLine
 10
117.320107
 20
-3.816835
 30
0.0
 11
117.401352
 21
-3.791123
 31
0.0
  0
LINE
  5
841
330
1F
100
AcDbEntity
  8
1
  6
CONTINUOUS
370
50
 62
4
100
AcDbLine
 10
118.206581
 20
-3.533911
 30
0.0
 11
118.289291
 21
-3.507705
 31
0.0
  0
LINE
  5
842
330
1F
100
AcDbEntity
  8
1
  6
CONTINUOUS
370
50
 62
4
100
AcDbLine
 10
127.345482
 20
-4.579893999999999
 30
0.0
 11
127.440659
 21
-4.549728
 31
0.0
  0
LINE
  5
843
330
1F
100
AcDbEntity
  8
1
  6
CONTINUOUS
370
50
 62
4
100
AcDbLine
 10
117.401352
 20
-3.791123
 30
0.0
 11
117.52095
 21
-3.753186
 31
0.0
  0
LINE
  5
844
330
1F
100
AcDbEntity
  8
1
  6
CONTINUOUS
370
50
 62
4
100
AcDbLine
 10
127.250298
 20
-4.610104
 30
0.0
 11
127.345482
 21
-4.579893999999999
 31
0.0
  0
LINE
  5
845
330
1F
100
AcDbEntity
  8
1
  6
CONTINUOUS
370
50
 62
4
100
AcDbLine
 10
127.180817
 20
-4.632179
 30
0.0
 11
127.250298
 21
-4.610104
 31
0.0
  0
LINE
  5
846
330
1F
100
AcDbEntity
  8
1
  6
CONTINUOUS
370
50
 62
4
100
AcDbLine
 10
127.111336
 20
-4.654273
 30
0.0
 11
127.180817
 21
-4.632179
 31
0.0
  0
LINE
  5
847
330
1F
100
AcDbEntity
  8
1
  6
CONTINUOUS
370
50
 62
4
100
AcDbLine
 10
117.52095
 20
-3.753186
 30
0.0
 11
117.633598
 21
-3.71736
 31
0.0
  0
LINE
  5
848
330
1F
100
AcDbEntity
  8
1
  6
CONTINUOUS
370
50
 62
4
100
AcDbLine
 10
117.633598
 20
-3.71736
 30
0.0
 11
117.715485
 21
-3.691259
 31
0.0
  0
LINE
  5
849
330
1F
100
AcDbEntity
  8
1
  6
CONTINUOUS
370
50
 62
4
100
AcDbLine
 10
117.715485
 20
-3.691259
 30
0.0
 11
117.797371
 21
-3.665111
 31
0.0
  0
LINE
  5
84A
330
1F
100
AcDbEntity
  8
1
  6
CONTINUOUS
370
50
 62
4
100
AcDbLine
 10
117.797371
 20
-3.665111
 30
0.0
 11
117.879234
 21
-3.638922
 31
0.0
  0
LINE
  5
84B
330
1F
100
AcDbEntity
  8
1
  6
CONTINUOUS
370
50
 62
4
100
AcDbLine
 10
118.124756
 20
-3.560109
 30
0.0
 11
118.206581
 21
-3.533911
 31
0.0
  0
LINE
  5
84C
330
1F
100
AcDbEntity
  8
1
  6
CONTINUOUS
370
50
 62
4
100
AcDbLine
 10
117.879234
 20
-3.638922
 30
0.0
 11
117.96109
 21
-3.612689
 31
0.0
  0
LINE
  5
84D
330
1F
100
AcDbEntity
  8
1
  6
CONTINUOUS
370
50
 62
4
100
AcDbLine
 10
117.96109
 20
-3.612689
 30
0.0
 11
118.042923
 21
-3.586419
 31
0.0
  0
LINE
  5
84E
330
1F
100
AcDbEntity
  8
1
  6
CONTINUOUS
370
50
 62
4
100
AcDbLine
 10
118.042923
 20
-3.586419
 30
0.0
 11
118.124756
 21
-3.560109
 31
0.0
  0
LINE
  5
84F
330
1F
100
AcDbEntity
  8
1
  6
CONTINUOUS
370
50
 62
4
100
AcDbLine
 10
114.466164
 20
-0.561078
 30
0.0
 11
114.5532
 21
-0.532037
 31
0.0
  0
LINE
  5
850
330
1F
100
AcDbEntity
  8
1
  6
CONTINUOUS
370
50
 62
4
100
AcDbLine
 10
126.926292
 20
3.645942
 30
0.0
 11
127.316315
 21
3.776889
 31
0.0
  0
LINE
  5
851
330
1F
100
AcDbEntity
  8
1
  6
CONTINUOUS
370
50
 62
4
100
AcDbLine
 10
127.287796
 20
4.499929
 30
0.0
 11
127.585335
 21
4.604820999999999
 31
0.0
  0
LINE
  5
852
330
1F
100
AcDbEntity
  8
1
  6
CONTINUOUS
370
50
 62
4
100
AcDbLine
 10
114.380295
 20
-0.59263
 30
0.0
 11
114.466164
 21
-0.561078
 31
0.0
  0
LINE
  5
853
330
1F
100
AcDbEntity
  8
1
  6
CONTINUOUS
370
50
 62
4
100
AcDbLine
 10
126.536278
 20
3.497365
 30
0.0
 11
126.926292
 21
3.645942
 31
0.0
  0
LINE
  5
854
330
1F
100
AcDbEntity
  8
1
  6
CONTINUOUS
370
50
 62
4
100
AcDbLine
 10
126.992546
 20
4.382306
 30
0.0
 11
127.287796
 21
4.499929
 31
0.0
  0
LINE
  5
855
330
1F
100
AcDbEntity
  8
1
  6
CONTINUOUS
370
50
 62
4
100
AcDbLine
 10
114.295258
 20
-0.626949
 30
0.0
 11
114.380295
 21
-0.59263
 31
0.0
  0
LINE
  5
856
330
1F
100
AcDbEntity
  8
1
  6
CONTINUOUS
370
50
 62
4
100
AcDbLine
 10
126.146271
 20
3.336367
 30
0.0
 11
126.536278
 21
3.497365
 31
0.0
  0
LINE
  5
857
330
1F
100
AcDbEntity
  8
1
  6
CONTINUOUS
370
50
 62
4
100
AcDbLine
 10
126.675995
 20
4.242399
 30
0.0
 11
126.992546
 21
4.382306
 31
0.0
  0
LINE
  5
858
330
1F
100
AcDbEntity
  8
1
  6
CONTINUOUS
370
50
 62
4
100
AcDbLine
 10
125.756271
 20
3.163948
 30
0.0
 11
126.146271
 21
3.336367
 31
0.0
  0
LINE
  5
859
330
1F
100
AcDbEntity
  8
1
  6
CONTINUOUS
370
50
 62
4
100
AcDbLine
 10
114.211205
 20
-0.664152
 30
0.0
 11
114.295258
 21
-0.626949
 31
0.0
  0
LINE
  5
85A
330
1F
100
AcDbEntity
  8
1
  6
CONTINUOUS
370
50
 62
4
100
AcDbLine
 10
126.313744
 20
4.068373999999999
 30
0.0
 11
126.675995
 21
4.242399
 31
0.0
  0
LINE
  5
85B
330
1F
100
AcDbEntity
  8
1
  6
CONTINUOUS
370
50
 62
4
100
AcDbLine
 10
114.12851
 20
-0.7042729999999999
 30
0.0
 11
114.211205
 21
-0.664152
 31
0.0
  0
LINE
  5
85C
330
1F
100
AcDbEntity
  8
1
  6
CONTINUOUS
370
50
 62
4
100
AcDbLine
 10
129.421448
 20
-3.932176
 30
0.0
 11
129.482162
 21
-3.900914
 31
0.0
  0
LINE
  5
85D
330
1F
100
AcDbEntity
  8
1
  6
CONTINUOUS
370
50
 62
4
100
AcDbLine
 10
125.901199
 20
3.855467
 30
0.0
 11
126.313744
 21
4.068373999999999
 31
0.0
  0
LINE
  5
85E
330
1F
100
AcDbEntity
  8
1
  6
CONTINUOUS
370
50
 62
4
100
AcDbLine
 10
114.047554
 20
-0.7473449999999999
 30
0.0
 11
114.12851
 21
-0.7042729999999999
 31
0.0
  0
LINE
  5
85F
330
1F
100
AcDbEntity
  8
1
  6
CONTINUOUS
370
50
 62
4
100
AcDbLine
 10
129.328339
 20
2.371617
 30
0.0
 11
129.338776
 21
2.37729
 31
0.0
  0
LINE
  5
860
330
1F
100
AcDbEntity
  8
1
  6
CONTINUOUS
370
50
 62
4
100
AcDbLine
 10
125.470268
 20
3.617745
 30
0.0
 11
125.901199
 21
3.855467
 31
0.0
  0
LINE
  5
861
330
1F
100
AcDbEntity
  8
1
  6
CONTINUOUS
370
50
 62
4
100
AcDbLine
 10
128.009659
 20
2.642819
 30
0.0
 11
128.051453
 21
2.666545
 31
0.0
  0
LINE
  5
862
330
1F
100
AcDbEntity
  8
1
  6
CONTINUOUS
370
50
 62
4
100
AcDbLine
 10
113.968719
 20
-0.7934009999999999
 30
0.0
 11
114.047554
 21
-0.7473449999999999
 31
0.0
  0
LINE
  5
863
330
1F
100
AcDbEntity
  8
1
  6
CONTINUOUS
370
50
 62
4
100
AcDbLine
 10
125.037094
 20
3.363189
 30
0.0
 11
125.470268
 21
3.617745
 31
0.0
  0
LINE
  5
864
330
1F
100
AcDbEntity
  8
1
  6
CONTINUOUS
370
50
 62
4
100
AcDbLine
 10
113.892387
 20
-0.842476
 30
0.0
 11
113.968719
 21
-0.7934009999999999
 31
0.0
  0
LINE
  5
865
330
1F
100
AcDbEntity
  8
1
  6
CONTINUOUS
370
50
 62
4
100
AcDbLine
 10
113.818542
 20
-0.894901
 30
0.0
 11
113.892387
 21
-0.842476
 31
0.0
  0
LINE
  5
866
330
1F
100
AcDbEntity
  8
1
  6
CONTINUOUS
370
50
 62
4
100
AcDbLine
 10
127.741394
 20
-1.771869
 30
0.0
 11
128.102219
 21
-1.488807
 31
0.0
  0
LINE
  5
867
330
1F
100
AcDbEntity
  8
1
  6
CONTINUOUS
370
50
 62
4
100
AcDbLine
 10
128.102219
 20
-1.488807
 30
0.0
 11
128.383331
 21
-1.268273
 31
0.0
  0
LINE
  5
868
330
1F
100
AcDbEntity
  8
1
  6
CONTINUOUS
370
50
 62
4
100
AcDbLine
 10
113.747498
 20
-0.950908
 30
0.0
 11
113.818542
 21
-0.894901
 31
0.0
  0
LINE
  5
869
330
1F
100
AcDbEntity
  8
1
  6
CONTINUOUS
370
50
 62
4
100
AcDbLine
 10
128.051453
 20
2.666545
 30
0.0
 11
128.088852
 21
2.696338
 31
0.0
  0
LINE
  5
86A
330
1F
100
AcDbEntity
  8
1
  6
CONTINUOUS
370
50
 62
4
100
AcDbLine
 10
129.482162
 20
-3.900914
 30
0.0
 11
129.549744
 21
-3.842811
 31
0.0
  0
LINE
  5
86B
330
1F
100
AcDbEntity
  8
1
  6
CONTINUOUS
370
50
 62
4
100
AcDbLine
 10
113.679909
 20
-1.010478
 30
0.0
 11
113.747498
 21
-0.950908
 31
0.0
  0
LINE
  5
86C
330
1F
100
AcDbEntity
  8
1
  6
CONTINUOUS
370
50
 62
4
100
AcDbLine
 10
129.338776
 20
2.37729
 30
0.0
 11
129.348236
 21
2.386414
 31
0.0
  0
LINE
  5
86D
330
1F
100
AcDbEntity
  8
1
  6
CONTINUOUS
370
50
 62
4
100
AcDbLine
 10
113.616478
 20
-1.073595
 30
0.0
 11
113.679909
 21
-1.010478
 31
0.0
  0
LINE
  5
86E
330
1F
100
AcDbEntity
  8
1
  6
CONTINUOUS
370
50
 62
4
100
AcDbLine
 10
128.088852
 20
2.696338
 30
0.0
 11
128.121902
 21
2.731894
 31
0.0
  0
LINE
  5
86F
330
1F
100
AcDbEntity
  8
1
  6
CONTINUOUS
370
50
 62
4
100
AcDbLine
 10
127.741394
 20
-1.771869
 30
0.0
 11
127.804123
 21
-1.700759
 31
0.0
  0
LINE
  5
870
330
1F
100
AcDbEntity
  8
1
  6
CONTINUOUS
370
50
 62
4
100
AcDbLine
 10
113.557869
 20
-1.14024
 30
0.0
 11
113.616478
 21
-1.073595
 31
0.0
  0
LINE
  5
871
330
1F
100
AcDbEntity
  8
1
  6
CONTINUOUS
370
50
 62
4
100
AcDbLine
 10
129.549744
 20
-3.842811
 30
0.0
 11
129.623642
 21
-3.758708
 31
0.0
  0
LINE
  5
872
330
1F
100
AcDbEntity
  8
1
  6
CONTINUOUS
370
50
 62
4
100
AcDbLine
 10
127.804123
 20
-1.700759
 30
0.0
 11
127.863487
 21
-1.631044
 31
0.0
  0
LINE
  5
873
330
1F
100
AcDbEntity
  8
1
  6
CONTINUOUS
370
50
 62
4
100
AcDbLine
 10
127.863487
 20
-1.631044
 30
0.0
 11
127.91922
 21
-1.563026
 31
0.0
  0
LINE
  5
874
330
1F
100
AcDbEntity
  8
1
  6
CONTINUOUS
370
50
 62
4
100
AcDbLine
 10
127.91922
 20
-1.563026
 30
0.0
 11
127.971138
 21
-1.49692
 31
0.0
  0
LINE
  5
875
330
1F
100
AcDbEntity
  8
1
  6
CONTINUOUS
370
50
 62
4
100
AcDbLine
 10
113.504875
 20
-1.210247
 30
0.0
 11
113.557869
 21
-1.14024
 31
0.0
  0
LINE
  5
876
330
1F
100
AcDbEntity
  8
1
  6
CONTINUOUS
370
50
 62
4
100
AcDbLine
 10
127.971138
 20
-1.49692
 30
0.0
 11
128.018768
 21
-1.433324
 31
0.0
  0
LINE
  5
877
330
1F
100
AcDbEntity
  8
1
  6
CONTINUOUS
370
50
 62
4
100
AcDbLine
 10
129.623642
 20
-3.758708
 30
0.0
 11
129.702911
 21
-3.650098
 31
0.0
  0
LINE
  5
878
330
1F
100
AcDbEntity
  8
1
  6
CONTINUOUS
370
50
 62
4
100
AcDbLine
 10
128.018768
 20
-1.433324
 30
0.0
 11
128.061523
 21
-1.373116
 31
0.0
  0
LINE
  5
879
330
1F
100
AcDbEntity
  8
1
  6
CONTINUOUS
370
50
 62
4
100
AcDbLine
 10
128.121902
 20
2.731894
 30
0.0
 11
128.150711
 21
2.772909
 31
0.0
  0
LINE
  5
87A
330
1F
100
AcDbEntity
  8
1
  6
CONTINUOUS
370
50
 62
4
100
AcDbLine
 10
129.348236
 20
2.386414
 30
0.0
 11
129.356689
 21
2.398921
 31
0.0
  0
LINE
  5
87B
330
1F
100
AcDbEntity
  8
1
  6
CONTINUOUS
370
50
 62
4
100
AcDbLine
 10
128.061523
 20
-1.373116
 30
0.0
 11
128.099442
 21
-1.316344
 31
0.0
  0
LINE
  5
87C
330
1F
100
AcDbEntity
  8
1
  6
CONTINUOUS
370
50
 62
4
100
AcDbLine
 10
129.702911
 20
-3.650098
 30
0.0
 11
129.787018
 21
-3.518242
 31
0.0
  0
LINE
  5
87D
330
1F
100
AcDbEntity
  8
1
  6
CONTINUOUS
370
50
 62
4
100
AcDbLine
 10
113.458359
 20
-1.283251
 30
0.0
 11
113.504875
 21
-1.210247
 31
0.0
  0
LINE
  5
87E
330
1F
100
AcDbEntity
  8
1
  6
CONTINUOUS
370
50
 62
4
100
AcDbLine
 10
128.099442
 20
-1.316344
 30
0.0
 11
128.132629
 21
-1.263033
 31
0.0
  0
LINE
  5
87F
330
1F
100
AcDbEntity
  8
1
  6
CONTINUOUS
370
50
 62
4
100
AcDbLine
 10
129.787018
 20
-3.518242
 30
0.0
 11
129.875305
 21
-3.364516
 31
0.0
  0
LINE
  5
880
330
1F
100
AcDbEntity
  8
1
  6
CONTINUOUS
370
50
 62
4
100
AcDbLine
 10
128.132629
 20
-1.263033
 30
0.0
 11
128.161163
 21
-1.213212
 31
0.0
  0
LINE
  5
881
330
1F
100
AcDbEntity
  8
1
  6
CONTINUOUS
370
50
 62
4
100
AcDbLine
 10
128.150711
 20
2.772909
 30
0.0
 11
128.175293
 21
2.819016
 31
0.0
  0
LINE
  5
882
330
1F
100
AcDbEntity
  8
1
  6
CONTINUOUS
370
50
 62
4
100
AcDbLine
 10
129.280792
 20
2.28955
 30
0.0
 11
129.305542
 21
2.33715
 31
0.0
  0
LINE
  5
883
330
1F
100
AcDbEntity
  8
1
  6
CONTINUOUS
370
50
 62
4
100
AcDbLine
 10
113.418938
 20
-1.359125
 30
0.0
 11
113.458359
 21
-1.283251
 31
0.0
  0
LINE
  5
884
330
1F
100
AcDbEntity
  8
1
  6
CONTINUOUS
370
50
 62
4
100
AcDbLine
 10
128.161163
 20
-1.213212
 30
0.0
 11
128.185028
 21
-1.167086
 31
0.0
  0
LINE
  5
885
330
1F
100
AcDbEntity
  8
1
  6
CONTINUOUS
370
50
 62
4
100
AcDbLine
 10
129.356689
 20
2.398921
 30
0.0
 11
129.364136
 21
2.414717
 31
0.0
  0
LINE
  5
886
330
1F
100
AcDbEntity
  8
1
  6
CONTINUOUS
370
50
 62
4
100
AcDbLine
 10
128.185028
 20
-1.167086
 30
0.0
 11
128.204285
 21
-1.124829
 31
0.0
  0
LINE
  5
887
330
1F
100
AcDbEntity
  8
1
  6
CONTINUOUS
370
50
 62
4
100
AcDbLine
 10
129.37059
 20
-2.100537
 30
0.0
 11
129.392929
 21
-2.046275
 31
0.0
  0
LINE
  5
888
330
1F
100
AcDbEntity
  8
1
  6
CONTINUOUS
370
50
 62
4
100
AcDbLine
 10
113.387215
 20
-1.437749
 30
0.0
 11
113.418938
 21
-1.359125
 31
0.0
  0
LINE
  5
889
330
1F
100
AcDbEntity
  8
1
  6
CONTINUOUS
370
50
 62
4
100
AcDbLine
 10
128.175293
 20
2.819016
 30
0.0
 11
128.195633
 21
2.869532
 31
0.0
  0
LINE
  5
88A
330
1F
100
AcDbEntity
  8
1
  6
CONTINUOUS
370
50
 62
4
100
AcDbLine
 10
129.364136
 20
2.414717
 30
0.0
 11
129.37059
 21
2.43367
 31
0.0
  0
LINE
  5
88B
330
1F
100
AcDbEntity
  8
1
  6
CONTINUOUS
370
50
 62
4
100
AcDbLine
 10
129.260452
 20
2.228329
 30
0.0
 11
129.280792
 21
2.28955
 31
0.0
  0
LINE
  5
88C
330
1F
100
AcDbEntity
  8
1
  6
CONTINUOUS
370
50
 62
4
100
AcDbLine
 10
128.195633
 20
2.869532
 30
0.0
 11
128.211884
 21
2.924032
 31
0.0
  0
LINE
  5
88D
330
1F
100
AcDbEntity
  8
1
  6
CONTINUOUS
370
50
 62
4
100
AcDbLine
 10
113.364052
 20
-1.518017
 30
0.0
 11
113.387215
 21
-1.437749
 31
0.0
  0
LINE
  5
88E
330
1F
100
AcDbEntity
  8
1
  6
CONTINUOUS
370
50
 62
4
100
AcDbLine
 10
128.211884
 20
2.924032
 30
0.0
 11
128.224258
 21
2.98214
 31
0.0
  0
LINE
  5
88F
330
1F
100
AcDbEntity
  8
1
  6
CONTINUOUS
370
50
 62
4
100
AcDbLine
 10
129.244644
 20
2.15344
 30
0.0
 11
129.260452
 21
2.228329
 31
0.0
  0
LINE
  5
890
330
1F
100
AcDbEntity
  8
1
  6
CONTINUOUS
370
50
 62
4
100
AcDbLine
 10
129.304443
 20
-2.515894
 30
0.0
 11
129.31691
 21
-2.450827
 31
0.0
  0
LINE
  5
891
330
1F
100
AcDbEntity
  8
1
  6
CONTINUOUS
370
50
 62
4
100
AcDbLine
 10
129.31691
 20
-2.450827
 30
0.0
 11
129.328369
 21
-2.387605
 31
0.0
  0
LINE
  5
892
330
1F
100
AcDbEntity
  8
1
  6
CONTINUOUS
370
50
 62
4
100
AcDbLine
 10
113.349892
 20
-1.598431
 30
0.0
 11
113.364052
 21
-1.518017
 31
0.0
  0
LINE
  5
893
330
1F
100
AcDbEntity
  8
1
  6
CONTINUOUS
370
50
 62
4
100
AcDbLine
 10
129.328369
 20
-2.387605
 30
0.0
 11
129.338806
 21
-2.326267
 31
0.0
  0
LINE
  5
894
330
1F
100
AcDbEntity
  8
1
  6
CONTINUOUS
370
50
 62
4
100
AcDbLine
 10
129.338806
 20
-2.326267
 30
0.0
 11
129.348251
 21
-2.266853
 31
0.0
  0
LINE
  5
895
330
1F
100
AcDbEntity
  8
1
  6
CONTINUOUS
370
50
 62
4
100
AcDbLine
 10
129.348251
 20
-2.266853
 30
0.0
 11
129.356674
 21
-2.209401
 31
0.0
  0
LINE
  5
896
330
1F
100
AcDbEntity
  8
1
  6
CONTINUOUS
370
50
 62
4
100
AcDbLine
 10
128.224258
 20
2.98214
 30
0.0
 11
128.232941
 21
3.04348
 31
0.0
  0
LINE
  5
897
330
1F
100
AcDbEntity
  8
1
  6
CONTINUOUS
370
50
 62
4
100
AcDbLine
 10
129.273224
 20
-2.783325
 30
0.0
 11
129.305542
 21
-2.543757
 31
0.0
  0
LINE
  5
898
330
1F
100
AcDbEntity
  8
1
  6
CONTINUOUS
370
50
 62
4
100
AcDbLine
 10
129.356674
 20
-2.209401
 30
0.0
 11
129.36412
 21
-2.153949
 31
0.0
  0
LINE
  5
899
330
1F
100
AcDbEntity
  8
1
  6
CONTINUOUS
370
50
 62
4
100
AcDbLine
 10
129.233475
 20
2.064834
 30
0.0
 11
129.244644
 21
2.15344
 31
0.0
  0
LINE
  5
89A
330
1F
100
AcDbEntity
  8
1
  6
CONTINUOUS
370
50
 62
4
100
AcDbLine
 10
129.36412
 20
-2.153949
 30
0.0
 11
129.37059
 21
-2.100537
 31
0.0
  0
LINE
  5
89B
330
1F
100
AcDbEntity
  8
1
  6
CONTINUOUS
370
50
 62
4
100
AcDbLine
 10
129.248993
 20
-3.004606
 30
0.0
 11
129.273224
 21
-2.783325
 31
0.0
  0
LINE
  5
89C
330
1F
100
AcDbEntity
  8
1
  6
CONTINUOUS
370
50
 62
4
100
AcDbLine
 10
128.232941
 20
3.04348
 30
0.0
 11
128.238113
 21
3.107678
 31
0.0
  0
LINE
  5
89D
330
1F
100
AcDbEntity
  8
1
  6
CONTINUOUS
370
50
 62
4
100
AcDbLine
 10
129.233109
 20
-3.206192
 30
0.0
 11
129.248993
 21
-3.004606
 31
0.0
  0
LINE
  5
89E
330
1F
100
AcDbEntity
  8
1
  6
CONTINUOUS
370
50
 62
4
100
AcDbLine
 10
113.344597
 20
-1.67882
 30
0.0
 11
113.349892
 21
-1.598431
 31
0.0
  0
LINE
  5
89F
330
1F
100
AcDbEntity
  8
1
  6
CONTINUOUS
370
50
 62
4
100
AcDbLine
 10
129.227051
 20
1.962465
 30
0.0
 11
129.233475
 21
2.064834
 31
0.0
  0
LINE
  5
8A0
330
1F
100
AcDbEntity
  8
1
  6
CONTINUOUS
370
50
 62
4
100
AcDbLine
 10
129.225876
 20
-3.386676
 30
0.0
 11
129.233109
 21
-3.206192
 31
0.0
  0
LINE
  5
8A1
330
1F
100
AcDbEntity
  8
1
  6
CONTINUOUS
370
50
 62
4
100
AcDbLine
 10
128.238113
 20
3.107678
 30
0.0
 11
128.23996
 21
3.174357
 31
0.0
  0
LINE
  5
8A2
330
1F
100
AcDbEntity
  8
1
  6
CONTINUOUS
370
50
 62
4
100
AcDbLine
 10
129.225525
 20
1.846285
 30
0.0
 11
129.227051
 21
1.962465
 31
0.0
  0
LINE
  5
8A3
330
1F
100
AcDbEntity
  8
1
  6
CONTINUOUS
370
50
 62
4
100
AcDbLine
 10
40.0
 20
-4.0
 30
0.0
 11
40.0
 21
4.0
 31
0.0
  0
LINE
  5
8A4
330
1F
100
AcDbEntity
  8
1
  6
CONTINUOUS
370
50
 62
4
100
AcDbLine
 10
110.0
 20
-4.0
 30
0.0
 11
110.0
 21
4.0
 31
0.0
  0
LINE
  5
8A5
330
1F
100
AcDbEntity
  8
1
  6
CONTINUOUS
370
50
 62
4
100
AcDbLine
 10
115.0
 20
-4.537299
 30
0.0
 11
115.0
 21
4.569283
 31
0.0
  0
LINE
  5
8A6
330
1F
100
AcDbEntity
  8
1
  6
CONTINUOUS
370
50
 62
4
100
AcDbLine
 10
129.800003
 20
1.187087
 30
0.0
 11
129.800003
 21
2.245587
 31
0.0
  0
LINE
  5
8A7
330
1F
100
AcDbEntity
  8
1
  6
CONTINUOUS
370
50
 62
4
100
AcDbLine
 10
129.800003
 20
0.203
 30
0.0
 11
129.800003
 21
1.187086
 31
0.0
  0
LINE
  5
8A8
330
1F
100
AcDbEntity
  8
1
  6
CONTINUOUS
370
50
 62
4
100
AcDbLine
 10
130.0
 20
2.144569
 30
0.0
 11
130.0
 21
4.999989999999999
 31
0.0
  0
LINE
  5
8A9
330
1F
100
AcDbEntity
  8
1
  6
CONTINUOUS
370
50
 62
4
100
AcDbLine
 10
130.0
 20
-2.49114
 30
0.0
 11
130.0
 21
-1.887241
 31
0.0
  0
LINE
  5
8AA
330
1F
100
AcDbEntity
  8
1
  6
CONTINUOUS
370
50
 62
4
100
AcDbLine
 10
130.0
 20
-1.887241
 30
0.0
 11
130.0
 21
-0.4828
 31
0.0
  0
LINE
  5
8AB
330
1F
100
AcDbEntity
  8
1
  6
CONTINUOUS
370
50
 62
4
100
AcDbLine
 10
130.0
 20
-3.06621
 30
0.0
 11
130.0
 21
-2.491134
 31
0.0
  0
ELLIPSE
  5
8AC
330
1F
100
AcDbEntity
  8
1
  6
CONTINUOUS
370
50
 62
4
100
AcDbEllipse
 10
130.0
 20
0.0
 30
0.0
 11
-3.102548001366081
 21
0.008861521726813832
 31
0.0
210
0.0
220
0.0
230
1.0
 40
0.7252048953997744
 41
4.714460313283799
 42
4.893969490746842
  0
ELLIPSE
  5
8AD
330
1F
100
AcDbEntity
  8
1
  6
CONTINUOUS
370
50
 62
4
100
AcDbEllipse
 10
130.0
 20
0.0
 30
0.0
 11
2.273802163970543
 21
2.23136883291128
 31
0.0
210
0.0
220
0.0
230
0.9999999999999998
 40
0.1270779726625473
 41
2.270763773253685
 42
2.422647824556849
  0
ELLIPSE
  5
8AE
330
1F
100
AcDbEntity
  8
1
  6
CONTINUOUS
370
50
 62
4
100
AcDbEllipse
 10
130.0
 20
0.0
 30
0.0
 11
-7.000500085429394
 21
1.311763544088262
 31
0.0
210
0.0
220
0.0
230
1.0
 40
0.2611317694902342
 41
1.345496711213798
 42
1.462685122382262
  0
ELLIPSE
  5
8AF
330
1F
100
AcDbEntity
  8
1
  6
CONTINUOUS
370
50
 62
4
100
AcDbEllipse
 10
130.221166
 20
0.0
 30
0.0
 11
1.377682148050174E-16
 21
2.25
 31
0.0
210
0.0
220
0.0
230
1.0
 40
0.3249195555555578
 41
0.3073394794814899
 42
0.613912016792962
  0
ELLIPSE
  5
8B0
330
1F
100
AcDbEntity
  8
1
  6
CONTINUOUS
370
50
 62
4
100
AcDbEllipse
 10
130.221166
 20
0.0
 30
0.0
 11
0.6483584985187173
 21
2.247889856212387
 31
0.0
210
0.0
220
0.0
230
0.9999999999999999
 40
0.1502644499338342
 41
2.855090371801858
 42
3.316761452312561
  0
ELLIPSE
  5
8B1
330
1F
100
AcDbEntity
  8
1
  6
CONTINUOUS
370
50
 62
4
100
AcDbEllipse
 10
130.221166
 20
0.0
 30
0.0
 11
-0.6483584985186901
 21
2.247889856212395
 31
0.0
210
0.0
220
0.0
230
1.0
 40
0.1502644499338338
 41
0.358313634093358
 42
1.743742365777003
  0
ELLIPSE
  5
8B2
330
1F
100
AcDbEntity
  8
1
  6
CONTINUOUS
370
50
 62
4
100
AcDbEllipse
 10
130.221169
 20
-0.000009
 30
0.0
 11
-1.44079701100447
 21
4.995311996825984
 31
0.0
210
0.0
220
0.0
230
0.9999999999999999
 40
0.1502642699354901
 41
1.836551375856584
 42
1.914519649257133
  0
ELLIPSE
  5
8B3
330
1F
100
AcDbEntity
  8
1
  6
CONTINUOUS
370
50
 62
4
100
AcDbEllipse
 10
130.221169
 20
0.000009
 30
0.0
 11
1.44079701100449
 21
4.995311996825977
 31
0.0
210
0.0
220
0.0
230
1.0
 40
0.1502642699354904
 41
4.017573635581492
 42
4.095541907603923
  0
ELLIPSE
  5
8B4
330
1F
100
AcDbEntity
  8
1
  6
CONTINUOUS
370
50
 62
4
100
AcDbEllipse
 10
159.418049
 20
-45.795153
 30
0.0
 11
-81.02365305900156
 21
24.36313280378046
 31
0.0
210
0.0
220
0.0
230
1.0
 40
0.4543924714775361
 41
5.422381454564761
 42
5.444739996468321
  0
LINE
  5
8B5
330
1F
100
AcDbEntity
  8
CUT
  6
CONTINUOUS
370
25
 62
1
100
AcDbLine
 10
115.0
 20
2.25
 30
0.0
 11
130.0
 21
2.25
 31
0.0
  0
LINE
  5
8B6
330
1F
100
AcDbEntity
  8
CUT
  6
CONTINUOUS
370
25
 62
1
100
AcDbLine
 10
130.0
 20
2.25
 30
0.0
 11
130.0
 21
4.995
 31
0.0
  0
LINE
  5
8B7
330
1F
100
AcDbEntity
  8
CUT
  6
CONTINUOUS
370
25
 62
1
100
AcDbLine
 10
130.0
 20
4.995
 30
0.0
 11
130.0
 21
5.0
 31
0.0
  0
LINE
  5
8B8
330
1F
100
AcDbEntity
  8
CUT
  6
CONTINUOUS
370
25
 62
1
100
AcDbLine
 10
130.0
 20
5.0
 30
0.0
 11
115.0
 21
4.9999
 31
0.0
  0
LINE
  5
8B9
330
1F
100
AcDbEntity
  8
CUT
  6
CONTINUOUS
370
25
 62
1
100
AcDbLine
 10
115.0
 20
4.9999
 30
0.0
 11
115.0
 21
2.25
 31
0.0
  0
LINE
  5
8BA
330
1F
100
AcDbEntity
  8
NOCUT
  6
CONTINUOUS
370
25
 62
7
100
AcDbLine
 10
110.0
 20
0.0
 30
0.0
 11
129.8
 21
0.0
 31
0.0
  0
LINE
  5
8BB
330
1F
100
AcDbEntity
  8
NOCUT
  6
CONTINUOUS
370
25
 62
7
100
AcDbLine
 10
129.8
 20
0.0
 30
0.0
 11
129.8
 21
2.25
 31
0.0
  0
LINE
  5
8BC
330
1F
100
AcDbEntity
  8
NOCUT
  6
CONTINUOUS
370
25
 62
7
100
AcDbLine
 10
129.8
 20
2.25
 30
0.0
 11
115.0
 21
2.25
 31
0.0
  0
LINE
  5
8BD
330
1F
100
AcDbEntity
  8
NOCUT
  6
CONTINUOUS
370
25
 62
7
100
AcDbLine
 10
115.0
 20
2.25
 30
0.0
 11
115.0
 21
3.74995
 31
0.0
  0
LINE
  5
8BE
330
1F
100
AcDbEntity
  8
NOCUT
  6
CONTINUOUS
370
25
 62
7
100
AcDbLine
 10
115.0
 20
3.74995
 30
0.0
 11
110.0
 21
3.74995
 31
0.0
  0
LINE
  5
8BF
330
1F
100
AcDbEntity
  8
NOCUT
  6
CONTINUOUS
370
25
 62
7
100
AcDbLine
 10
110.0
 20
3.74995
 30
0.0
 11
110.0
 21
3.99995
 31
0.0
  0
LINE
  5
8C0
330
1F
100
AcDbEntity
  8
SK1
  6
CONTINUOUS
370
50
 62
4
100
AcDbLine
 10
40.0
 20
4.0
 30
0.0
 11
0.3999999999999986
 21
4.0
 31
0.0
  0
LINE
  5
8C1
330
1F
100
AcDbEntity
  8
SK1
  6
CONTINUOUS
370
50
 62
4
100
AcDbLine
 10
0.3999999999999986
 20
4.0
 30
0.0
 11
0.0
 21
3.6
 31
0.0
  0
LINE
  5
8C2
330
1F
100
AcDbEntity
  8
SK1
  6
CONTINUOUS
370
50
 62
4
100
AcDbLine
 10
0.0
 20
3.6
 30
0.0
 11
0.0
 21
-3.6
 31
0.0
  0
LINE
  5
8C3
330
1F
100
AcDbEntity
  8
SK1
  6
CONTINUOUS
370
50
 62
4
100
AcDbLine
 10
0.0
 20
-3.6
 30
0.0
 11
0.3999999999999986
 21
-4.0
 31
0.0
  0
LINE
  5
8C4
330
1F
100
AcDbEntity
  8
SK1
  6
CONTINUOUS
370
50
 62
4
100
AcDbLine
 10
0.3999999999999986
 20
-4.0
 30
0.0
 11
40.0
 21
-4.0
 31
0.0
  0
LINE
  5
8C5
330
1F
100
AcDbEntity
  8
SK1
  6
CONTINUOUS
370
50
 62
4
100
AcDbLine
 10
0.3999999999999986
 20
4.0
 30
0.0
 11
0.3999999999999986
 21
-4.0
 31
0.0
  0
LINE
  5
8C6
330
1F
100
AcDbEntity
  8
NOCUT
  6
CONTINUOUS
370
25
 62
7
100
AcDbLine
 10
40.0
 20
0.0
 30
0.0
 11
40.0
 21
4.0
 31
0.0
  0
LINE
  5
8C7
330
1F
100
AcDbEntity
  8
NOCUT
  6
CONTINUOUS
370
25
 62
7
100
AcDbLine
 10
40.0
 20
4.0
 30
0.0
 11
110.0
 21
4.0
 31
0.0
  0
LINE
  5
8C8
330
1F
100
AcDbEntity
  8
NOCUT
  6
CONTINUOUS
370
25
 62
7
100
AcDbLine
 10
110.0
 20
0.0
 30
0.0
 11
40.0
 21
0.0
 31
0.0
  0
LINE
  5
8C9
330
1F
100
AcDbEntity
  8
SK2
  6
CONTINUOUS
370
25
 62
7
100
AcDbLine
 10
-12.0000002
 20
-4.000001
 30
0.0
 11
-13.00000000000008
 21
-4.000001
 31
0.0
  0
LINE
  5
8CA
330
1F
100
AcDbEntity
  8
SK2
  6
CONTINUOUS
370
25
 62
7
100
AcDbLine
 10
0.0
 20
-4.000001
 30
0.0
 11
-11.9999998
 21
-4.000001
 31
0.0
  0
LINE
  5
8CB
330
1F
100
AcDbEntity
  8
SK2
  6
CONTINUOUS
370
25
 62
7
100
AcDbLine
 10
-13.0
 20
4.0
 30
0.0
 11
0.0
 21
4.0
 31
0.0
  0
LINE
  5
8CC
330
1F
100
AcDbEntity
  8
SK2
  6
CONTINUOUS
370
25
 62
7
100
AcDbLine
 10
-12.0
 20
-11.0
 30
0.0
 11
-12.0
 21
11.0
 31
0.0
  0
LINE
  5
8CD
330
1F
100
AcDbEntity
  8
SK2
  6
CONTINUOUS
370
25
 62
7
100
AcDbLine
 10
-12.0
 20
-4.0
 30
0.0
 11
-11.0
 21
-9.0
 31
0.0
  0
LINE
  5
8CE
330
1F
100
AcDbEntity
  8
SK2
  6
CONTINUOUS
370
25
 62
7
100
AcDbLine
 10
-11.0
 20
-9.0
 30
0.0
 11
-13.0
 21
-9.0
 31
0.0
  0
LINE
  5
8CF
330
1F
100
AcDbEntity
  8
SK2
  6
CONTINUOUS
370
25
 62
7
100
AcDbLine
 10
-13.0
 20
-9.0
 30
0.0
 11
-12.0
 21
-4.0
 31
0.0
  0
LINE
  5
8D0
330
1F
100
AcDbEntity
  8
SK2
  6
CONTINUOUS
370
25
 62
7
100
AcDbLine
 10
-11.00214280248085
 20
-9.0
 30
0.0
 11
-11.00035713374681
 21
-8.998214331265956
 31
0.0
  0
LINE
  5
8D1
330
1F
100
AcDbEntity
  8
SK2
  6
CONTINUOUS
370
25
 62
7
100
AcDbLine
 10
-11.42640687119278
 20
-9.0
 30
0.0
 11
-11.07106781186547
 21
-8.644660940672686
 31
0.0
  0
LINE
  5
8D2
330
1F
100
AcDbEntity
  8
SK2
  6
CONTINUOUS
370
25
 62
7
100
AcDbLine
 10
-11.85067093990472
 20
-9.0
 30
0.0
 11
-11.14177848998412
 21
-8.291107550079403
 31
0.0
  0
LINE
  5
8D3
330
1F
100
AcDbEntity
  8
SK2
  6
CONTINUOUS
370
25
 62
7
100
AcDbLine
 10
-12.27493500861664
 20
-9.0
 30
0.0
 11
-11.21248916810277
 21
-7.937554159486126
 31
0.0
  0
LINE
  5
8D4
330
1F
100
AcDbEntity
  8
SK2
  6
CONTINUOUS
370
25
 62
7
100
AcDbLine
 10
-12.69919907732858
 20
-9.0
 30
0.0
 11
-11.28319984622144
 21
-7.584000768892857
 31
0.0
  0
LINE
  5
8D5
330
1F
100
AcDbEntity
  8
SK2
  6
CONTINUOUS
370
25
 62
7
100
AcDbLine
 10
-12.96913421348987
 20
-8.845671067449366
 30
0.0
 11
-11.35391052434009
 21
-7.23044737829958
 31
0.0
  0
LINE
  5
8D6
330
1F
100
AcDbEntity
  8
SK2
  6
CONTINUOUS
370
25
 62
7
100
AcDbLine
 10
-12.86306819631189
 20
-8.315340981559444
 30
0.0
 11
-11.42462120245875
 21
-6.876893987706296
 31
0.0
  0
LINE
  5
8D7
330
1F
100
AcDbEntity
  8
SK2
  6
CONTINUOUS
370
25
 62
7
100
AcDbLine
 10
-12.75700217913391
 20
-7.785010895669529
 30
0.0
 11
-11.4953318805774
 21
-6.52334059711302
 31
0.0
  0
LINE
  5
8D8
330
1F
100
AcDbEntity
  8
SK2
  6
CONTINUOUS
370
25
 62
7
100
AcDbLine
 10
-12.65093616195593
 20
-7.254680809779614
 30
0.0
 11
-11.56604255869606
 21
-6.16978720651975
 31
0.0
  0
LINE
  5
8D9
330
1F
100
AcDbEntity
  8
SK2
  6
CONTINUOUS
370
25
 62
7
100
AcDbLine
 10
-12.54487014477795
 20
-6.724350723889714
 30
0.0
 11
-11.63675323681471
 21
-5.816233815926473
 31
0.0
  0
LINE
  5
8DA
330
1F
100
AcDbEntity
  8
SK2
  6
CONTINUOUS
370
25
 62
7
100
AcDbLine
 10
-12.43880412759997
 20
-6.194020637999799
 30
0.0
 11
-11.70746391493336
 21
-5.46268042533319
 31
0.0
  0
LINE
  5
8DB
330
1F
100
AcDbEntity
  8
SK2
  6
CONTINUOUS
370
25
 62
7
100
AcDbLine
 10
-12.33273811042199
 20
-5.663690552109891
 30
0.0
 11
-11.77817459305201
 21
-5.10912703473992
 31
0.0
  0
LINE
  5
8DC
330
1F
100
AcDbEntity
  8
SK2
  6
CONTINUOUS
370
25
 62
7
100
AcDbLine
 10
-12.226672093244
 20
-5.133360466219969
 30
0.0
 11
-11.84888527117067
 21
-4.755573644146637
 31
0.0
  0
LINE
  5
8DD
330
1F
100
AcDbEntity
  8
SK2
  6
CONTINUOUS
370
25
 62
7
100
AcDbLine
 10
-12.12060607606602
 20
-4.603030380330061
 30
0.0
 11
-11.91959594928933
 21
-4.402020253553374
 31
0.0
  0
LINE
  5
8DE
330
1F
100
AcDbEntity
  8
SK2
  6
CONTINUOUS
370
25
 62
7
100
AcDbLine
 10
-12.01454005888803
 20
-4.072700294440139
 30
0.0
 11
-11.99030662740798
 21
-4.04846686296009
 31
0.0
  0
LINE
  5
8DF
330
1F
100
AcDbEntity
  8
SK2
  6
CONTINUOUS
370
25
 62
7
100
AcDbLine
 10
-12.95629069231656
 20
-8.781453461582814
 30
0.0
 11
-12.73774415389937
 21
-9.0
 31
0.0
  0
LINE
  5
8E0
330
1F
100
AcDbEntity
  8
SK2
  6
CONTINUOUS
370
25
 62
7
100
AcDbLine
 10
-12.88558001419791
 20
-8.427900070989537
 30
0.0
 11
-12.31348008518744
 21
-9.0
 31
0.0
  0
LINE
  5
8E1
330
1F
100
AcDbEntity
  8
SK2
  6
CONTINUOUS
370
25
 62
7
100
AcDbLine
 10
-12.81486933607925
 20
-8.07434668039626
 30
0.0
 11
-11.88921601647552
 21
-9.0
 31
0.0
  0
LINE
  5
8E2
330
1F
100
AcDbEntity
  8
SK2
  6
CONTINUOUS
370
25
 62
7
100
AcDbLine
 10
-12.7441586579606
 20
-7.720793289802984
 30
0.0
 11
-11.46495194776358
 21
-9.0
 31
0.0
  0
LINE
  5
8E3
330
1F
100
AcDbEntity
  8
SK2
  6
CONTINUOUS
370
25
 62
7
100
AcDbLine
 10
-12.67344797984194
 20
-7.367239899209707
 30
0.0
 11
-11.04068787905165
 21
-9.0
 31
0.0
  0
LINE
  5
8E4
330
1F
100
AcDbEntity
  8
SK2
  6
CONTINUOUS
370
25
 62
7
100
AcDbLine
 10
-12.60273730172328
 20
-7.013686508616438
 30
0.0
 11
-11.09589404741507
 21
-8.520529762924653
 31
0.0
  0
LINE
  5
8E5
330
1F
100
AcDbEntity
  8
SK2
  6
CONTINUOUS
370
25
 62
7
100
AcDbLine
 10
-12.53202662360463
 20
-6.660133118023154
 30
0.0
 11
-11.20196006459305
 21
-7.990199677034738
 31
0.0
  0
LINE
  5
8E6
330
1F
100
AcDbEntity
  8
SK2
  6
CONTINUOUS
370
25
 62
7
100
AcDbLine
 10
-12.46131594548598
 20
-6.306579727429877
 30
0.0
 11
-11.30802608177103
 21
-7.459869591144823
 31
0.0
  0
LINE
  5
8E7
330
1F
100
AcDbEntity
  8
SK2
  6
CONTINUOUS
370
25
 62
7
100
AcDbLine
 10
-12.39060526736732
 20
-5.953026336836601
 30
0.0
 11
-11.41409209894901
 21
-6.929539505254908
 31
0.0
  0
LINE
  5
8E8
330
1F
100
AcDbEntity
  8
SK2
  6
CONTINUOUS
370
25
 62
7
100
AcDbLine
 10
-12.31989458924866
 20
-5.599472946243324
 30
0.0
 11
-11.52015811612701
 21
-6.399209419364979
 31
0.0
  0
LINE
  5
8E9
330
1F
100
AcDbEntity
  8
SK2
  6
CONTINUOUS
370
25
 62
7
100
AcDbLine
 10
-12.24918391113001
 20
-5.24591955565004
 30
0.0
 11
-11.62622413330499
 21
-5.868879333475064
 31
0.0
  0
LINE
  5
8EA
330
1F
100
AcDbEntity
  8
SK2
  6
CONTINUOUS
370
25
 62
7
100
AcDbLine
 10
-12.17847323301135
 20
-4.892366165056771
 30
0.0
 11
-11.73229015048297
 21
-5.338549247585142
 31
0.0
  0
LINE
  5
8EB
330
1F
100
AcDbEntity
  8
SK2
  6
CONTINUOUS
370
25
 62
7
100
AcDbLine
 10
-12.10776255489269
 20
-4.538812774463494
 30
0.0
 11
-11.83835616766095
 21
-4.808219161695234
 31
0.0
  0
LINE
  5
8EC
330
1F
100
AcDbEntity
  8
SK2
  6
CONTINUOUS
370
25
 62
7
100
AcDbLine
 10
-12.03705187677404
 20
-4.185259383870225
 30
0.0
 11
-11.94442218483894
 21
-4.277889075805319
 31
0.0
  0
LINE
  5
8ED
330
1F
100
AcDbEntity
  8
SK2
  6
CONTINUOUS
370
25
 62
7
100
AcDbLine
 10
-12.0
 20
4.0
 30
0.0
 11
-13.0
 21
9.0
 31
0.0
  0
LINE
  5
8EE
330
1F
100
AcDbEntity
  8
SK2
  6
CONTINUOUS
370
25
 62
7
100
AcDbLine
 10
-13.0
 20
9.0
 30
0.0
 11
-11.0
 21
9.0
 31
0.0
  0
LINE
  5
8EF
330
1F
100
AcDbEntity
  8
SK2
  6
CONTINUOUS
370
25
 62
7
100
AcDbLine
 10
-11.0
 20
9.0
 30
0.0
 11
-12.0
 21
4.0
 31
0.0
  0
LINE
  5
8F0
330
1F
100
AcDbEntity
  8
SK2
  6
CONTINUOUS
370
25
 62
7
100
AcDbLine
 10
-12.00047617832909
 20
4.002380891645466
 30
0.0
 11
-11.99928573250637
 21
4.003571337468188
 31
0.0
  0
LINE
  5
8F1
330
1F
100
AcDbEntity
  8
SK2
  6
CONTINUOUS
370
25
 62
7
100
AcDbLine
 10
-12.07118685644775
 20
4.355934282238735
 30
0.0
 11
-11.89321971532839
 21
4.533901423358095
 31
0.0
  0
LINE
  5
8F2
330
1F
100
AcDbEntity
  8
SK2
  6
CONTINUOUS
370
25
 62
7
100
AcDbLine
 10
-12.1418975345664
 20
4.709487672832012
 30
0.0
 11
-11.78715369815041
 21
5.064231509248003
 31
0.0
  0
LINE
  5
8F3
330
1F
100
AcDbEntity
  8
SK2
  6
CONTINUOUS
370
25
 62
7
100
AcDbLine
 10
-12.21260821268505
 20
5.063041063425288
 30
0.0
 11
-11.68108768097242
 21
5.594561595137918
 31
0.0
  0
LINE
  5
8F4
330
1F
100
AcDbEntity
  8
SK2
  6
CONTINUOUS
370
25
 62
7
100
AcDbLine
 10
-12.28331889080371
 20
5.416594454018558
 30
0.0
 11
-11.57502166379444
 21
6.124891681027833
 31
0.0
  0
LINE
  5
8F5
330
1F
100
AcDbEntity
  8
SK2
  6
CONTINUOUS
370
25
 62
7
100
AcDbLine
 10
-12.35402956892236
 20
5.770147844611841
 30
0.0
 11
-11.46895564661645
 21
6.655221766917755
 31
0.0
  0
LINE
  5
8F6
330
1F
100
AcDbEntity
  8
SK2
  6
CONTINUOUS
370
25
 62
7
100
AcDbLine
 10
-12.42474024704103
 20
6.123701235205111
 30
0.0
 11
-11.36288962943846
 21
7.185551852807684
 31
0.0
  0
LINE
  5
8F7
330
1F
100
AcDbEntity
  8
SK2
  6
CONTINUOUS
370
25
 62
7
100
AcDbLine
 10
-12.49545092515968
 20
6.477254625798395
 30
0.0
 11
-11.25682361226048
 21
7.715881938697599
 31
0.0
  0
LINE
  5
8F8
330
1F
100
AcDbEntity
  8
SK2
  6
CONTINUOUS
370
25
 62
7
100
AcDbLine
 10
-12.56616160327833
 20
6.830808016391671
 30
0.0
 11
-11.1507575950825
 21
8.246212024587507
 31
0.0
  0
LINE
  5
8F9
330
1F
100
AcDbEntity
  8
SK2
  6
CONTINUOUS
370
25
 62
7
100
AcDbLine
 10
-12.63687228139699
 20
7.184361406984948
 30
0.0
 11
-11.04469157790451
 21
8.776542110477429
 31
0.0
  0
LINE
  5
8FA
330
1F
100
AcDbEntity
  8
SK2
  6
CONTINUOUS
370
25
 62
7
100
AcDbLine
 10
-12.70758295951564
 20
7.537914797578225
 30
0.0
 11
-11.24549775709387
 21
9.0
 31
0.0
  0
LINE
  5
8FB
330
1F
100
AcDbEntity
  8
SK2
  6
CONTINUOUS
370
25
 62
7
100
AcDbLine
 10
-12.77829363763431
 20
7.891468188171494
 30
0.0
 11
-11.6697618258058
 21
9.0
 31
0.0
  0
LINE
  5
8FC
330
1F
100
AcDbEntity
  8
SK2
  6
CONTINUOUS
370
25
 62
7
100
AcDbLine
 10
-12.84900431575296
 20
8.24502157876477
 30
0.0
 11
-12.09402589451773
 21
9.0
 31
0.0
  0
LINE
  5
8FD
330
1F
100
AcDbEntity
  8
SK2
  6
CONTINUOUS
370
25
 62
7
100
AcDbLine
 10
-12.91971499387161
 20
8.598574969358054
 30
0.0
 11
-12.51828996322966
 21
9.0
 31
0.0
  0
LINE
  5
8FE
330
1F
100
AcDbEntity
  8
SK2
  6
CONTINUOUS
370
25
 62
7
100
AcDbLine
 10
-12.99042567199027
 20
8.952128359951331
 30
0.0
 11
-12.9425540319416
 21
9.0
 31
0.0
  0
LINE
  5
8FF
330
1F
100
AcDbEntity
  8
SK2
  6
CONTINUOUS
370
25
 62
7
100
AcDbLine
 10
-12.09571548054166
 20
4.478577402708311
 30
0.0
 11
-11.93618967963889
 21
4.319051601805548
 31
0.0
  0
LINE
  5
900
330
1F
100
AcDbEntity
  8
SK2
  6
CONTINUOUS
370
25
 62
7
100
AcDbLine
 10
-12.20178149771965
 20
5.008907488598247
 30
0.0
 11
-11.86547900152023
 21
4.672604992398824
 31
0.0
  0
LINE
  5
901
330
1F
100
AcDbEntity
  8
SK2
  6
CONTINUOUS
370
25
 62
7
100
AcDbLine
 10
-12.30784751489763
 20
5.539237574488155
 30
0.0
 11
-11.79476832340158
 21
5.026158382992101
 31
0.0
  0
LINE
  5
902
330
1F
100
AcDbEntity
  8
SK2
  6
CONTINUOUS
370
25
 62
7
100
AcDbLine
 10
-12.41391353207561
 20
6.069567660378063
 30
0.0
 11
-11.72405764528293
 21
5.379711773585377
 31
0.0
  0
LINE
  5
903
330
1F
100
AcDbEntity
  8
SK2
  6
CONTINUOUS
370
25
 62
7
100
AcDbLine
 10
-12.51997954925359
 20
6.599897746267978
 30
0.0
 11
-11.65334696716427
 21
5.733265164178654
 31
0.0
  0
LINE
  5
904
330
1F
100
AcDbEntity
  8
SK2
  6
CONTINUOUS
370
25
 62
7
100
AcDbLine
 10
-12.62604556643158
 20
7.130227832157892
 30
0.0
 11
-11.58263628904561
 21
6.086818554771924
 31
0.0
  0
LINE
  5
905
330
1F
100
AcDbEntity
  8
SK2
  6
CONTINUOUS
370
25
 62
7
100
AcDbLine
 10
-12.73211158360957
 20
7.660557918047814
 30
0.0
 11
-11.51192561092695
 21
6.4403719453652
 31
0.0
  0
LINE
  5
906
330
1F
100
AcDbEntity
  8
SK2
  6
CONTINUOUS
370
25
 62
7
100
AcDbLine
 10
-12.83817760078755
 20
8.19088800393773
 30
0.0
 11
-11.4412149328083
 21
6.793925335958484
 31
0.0
  0
LINE
  5
907
330
1F
100
AcDbEntity
  8
SK2
  6
CONTINUOUS
370
25
 62
7
100
AcDbLine
 10
-12.94424361796553
 20
8.721218089827637
 30
0.0
 11
-11.37050425468965
 21
7.147478726551761
 31
0.0
  0
LINE
  5
908
330
1F
100
AcDbEntity
  8
SK2
  6
CONTINUOUS
370
25
 62
7
100
AcDbLine
 10
-12.79876145942596
 20
9.0
 30
0.0
 11
-11.299793576571
 21
7.501032117145037
 31
0.0
  0
LINE
  5
909
330
1F
100
AcDbEntity
  8
SK2
  6
CONTINUOUS
370
25
 62
7
100
AcDbLine
 10
-12.37449739071403
 20
9.0
 30
0.0
 11
-11.22908289845234
 21
7.854585507738307
 31
0.0
  0
LINE
  5
90A
330
1F
100
AcDbEntity
  8
SK2
  6
CONTINUOUS
370
25
 62
7
100
AcDbLine
 10
-11.95023332200211
 20
9.0
 30
0.0
 11
-11.15837222033368
 21
8.208138898331576
 31
0.0
  0
LINE
  5
90B
330
1F
100
AcDbEntity
  8
SK2
  6
CONTINUOUS
370
25
 62
7
100
AcDbLine
 10
-11.52596925329016
 20
9.0
 30
0.0
 11
-11.08766154221503
 21
8.561692288924867
 31
0.0
  0
LINE
  5
90C
330
1F
100
AcDbEntity
  8
SK2
  6
CONTINUOUS
370
25
 62
7
100
AcDbLine
 10
-11.10170518457823
 20
9.0
 30
0.0
 11
-11.01695086409637
 21
8.915245679518137
 31
0.0
  0
TEXT
  5
90D
330
1F
100
AcDbEntity
  8
SK2
  6
CONTINUOUS
370
25
 62
7
100
AcDbText
 10
-13.5
 20
1.108333333333333
 30
0.0
 40
3.5
  1
8
 50
90.0
 72
     1
 11
-13.5
 21
2.275
 31
0.0
100
AcDbText
  0
CIRCLE
  5
90E
330
1F
100
AcDbEntity
  8
SK2
  6
CONTINUOUS
370
25
 62
7
100
AcDbCircle
 10
-15.25
 20
-1.05
 30
0.0
 40
1.4
  0
LINE
  5
90F
330
1F
100
AcDbEntity
  8
SK2
  6
CONTINUOUS
370
25
 62
7
100
AcDbLine
 10
-13.85
 20
-2.45
 30
0.0
 11
-16.65
 21
0.3500000000000005
 31
0.0
  0
LINE
  5
910
330
1F
100
AcDbEntity
  8
SK2
  6
CONTINUOUS
370
25
 62
7
100
AcDbLine
 10
0.0
 20
4.0
 30
0.0
 11
0.0
 21
17.99867275
 31
0.0
  0
LINE
  5
911
330
1F
100
AcDbEntity
  8
SK2
  6
CONTINUOUS
370
25
 62
7
100
AcDbLine
 10
40.0
 20
17.99867275
 30
0.0
 11
40.0
 21
4.0
 31
0.0
  0
LINE
  5
912
330
1F
100
AcDbEntity
  8
SK2
  6
CONTINUOUS
370
25
 62
7
100
AcDbLine
 10
0.0
 20
16.99867275
 30
0.0
 11
40.0
 21
16.99867275
 31
0.0
  0
LINE
  5
913
330
1F
100
AcDbEntity
  8
SK2
  6
CONTINUOUS
370
25
 62
7
100
AcDbLine
 10
0.0
 20
16.99867275
 30
0.0
 11
5.0
 21
17.99867275
 31
0.0
  0
LINE
  5
914
330
1F
100
AcDbEntity
  8
SK2
  6
CONTINUOUS
370
25
 62
7
100
AcDbLine
 10
5.0
 20
17.99867275
 30
0.0
 11
5.0
 21
15.99867275
 31
0.0
  0
LINE
  5
915
330
1F
100
AcDbEntity
  8
SK2
  6
CONTINUOUS
370
25
 62
7
100
AcDbLine
 10
5.0
 20
15.99867275
 30
0.0
 11
0.0
 21
16.99867275
 31
0.0
  0
LINE
  5
916
330
1F
100
AcDbEntity
  8
SK2
  6
CONTINUOUS
370
25
 62
7
100
AcDbLine
 10
4.718933696547218
 20
16.05488601069055
 30
0.0
 11
5.0
 21
16.33595231414333
 31
0.0
  0
LINE
  5
917
330
1F
100
AcDbEntity
  8
SK2
  6
CONTINUOUS
370
25
 62
7
100
AcDbLine
 10
4.365380305953948
 20
16.12559668880922
 30
0.0
 11
5.0
 21
16.76021638285526
 31
0.0
  0
LINE
  5
918
330
1F
100
AcDbEntity
  8
SK2
  6
CONTINUOUS
370
25
 62
7
100
AcDbLine
 10
4.011826915360672
 20
16.19630736692786
 30
0.0
 11
5.0
 21
17.18448045156719
 31
0.0
  0
LINE
  5
919
330
1F
100
AcDbEntity
  8
SK2
  6
CONTINUOUS
370
25
 62
7
100
AcDbLine
 10
3.658273524767402
 20
16.26701804504653
 30
0.0
 11
5.0
 21
17.60874452027912
 31
0.0
  0
LINE
  5
91A
330
1F
100
AcDbEntity
  8
SK2
  6
CONTINUOUS
370
25
 62
7
100
AcDbLine
 10
3.304720134174126
 20
16.33772872316518
 30
0.0
 11
4.957080201261192
 21
17.99008879025224
 31
0.0
  0
LINE
  5
91B
330
1F
100
AcDbEntity
  8
SK2
  6
CONTINUOUS
370
25
 62
7
100
AcDbLine
 10
2.951166743580842
 20
16.40843940128383
 30
0.0
 11
4.42675011537127
 21
17.88402277307425
 31
0.0
  0
LINE
  5
91C
330
1F
100
AcDbEntity
  8
SK2
  6
CONTINUOUS
370
25
 62
7
100
AcDbLine
 10
2.597613352987565
 20
16.47915007940249
 30
0.0
 11
3.896420029481348
 21
17.77795675589626
 31
0.0
  0
LINE
  5
91D
330
1F
100
AcDbEntity
  8
SK2
  6
CONTINUOUS
370
25
 62
7
100
AcDbLine
 10
2.244059962394296
 20
16.54986075752115
 30
0.0
 11
3.36608994359144
 21
17.67189073871829
 31
0.0
  0
LINE
  5
91E
330
1F
100
AcDbEntity
  8
SK2
  6
CONTINUOUS
370
25
 62
7
100
AcDbLine
 10
1.890506571801019
 20
16.6205714356398
 30
0.0
 11
2.835759857701525
 21
17.5658247215403
 31
0.0
  0
LINE
  5
91F
330
1F
100
AcDbEntity
  8
SK2
  6
CONTINUOUS
370
25
 62
7
100
AcDbLine
 10
1.53695318120775
 20
16.69128211375846
 30
0.0
 11
2.305429771811617
 21
17.45975870436232
 31
0.0
  0
LINE
  5
920
330
1F
100
AcDbEntity
  8
SK2
  6
CONTINUOUS
370
25
 62
7
100
AcDbLine
 10
1.183399790614466
 20
16.76199279187711
 30
0.0
 11
1.775099685921703
 21
17.35369268718434
 31
0.0
  0
LINE
  5
921
330
1F
100
AcDbEntity
  8
SK2
  6
CONTINUOUS
370
25
 62
7
100
AcDbLine
 10
0.8298464000211894
 20
16.83270346999576
 30
0.0
 11
1.24476960003178
 21
17.24762667000635
 31
0.0
  0
LINE
  5
922
330
1F
100
AcDbEntity
  8
SK2
  6
CONTINUOUS
370
25
 62
7
100
AcDbLine
 10
0.4762930094279056
 20
16.90341414811441
 30
0.0
 11
0.7144395141418585
 21
17.14156065282837
 31
0.0
  0
LINE
  5
923
330
1F
100
AcDbEntity
  8
SK2
  6
CONTINUOUS
370
25
 62
7
100
AcDbLine
 10
0.1227396188346432
 20
16.97412482623308
 30
0.0
 11
0.1841094282519507
 21
17.03549463565039
 31
0.0
  0
LINE
  5
924
330
1F
100
AcDbEntity
  8
SK2
  6
CONTINUOUS
370
25
 62
7
100
AcDbLine
 10
0.2916288484690952
 20
17.05699851969381
 30
0.0
 11
0.4374432727036322
 21
16.91118409545928
 31
0.0
  0
LINE
  5
925
330
1F
100
AcDbEntity
  8
SK2
  6
CONTINUOUS
370
25
 62
7
100
AcDbLine
 10
0.6451822390623647
 20
17.12770919781248
 30
0.0
 11
0.96777335859354
 21
16.8051180782813
 31
0.0
  0
LINE
  5
926
330
1F
100
AcDbEntity
  8
SK2
  6
CONTINUOUS
370
25
 62
7
100
AcDbLine
 10
0.9987356296556413
 20
17.19841987593113
 30
0.0
 11
1.498103444483455
 21
16.69905206110332
 31
0.0
  0
LINE
  5
927
330
1F
100
AcDbEntity
  8
SK2
  6
CONTINUOUS
370
25
 62
7
100
AcDbLine
 10
1.352289020248918
 20
17.26913055404978
 30
0.0
 11
2.02843353037337
 21
16.59298604392533
 31
0.0
  0
LINE
  5
928
330
1F
100
AcDbEntity
  8
SK2
  6
CONTINUOUS
370
25
 62
7
100
AcDbLine
 10
1.705842410842195
 20
17.33984123216844
 30
0.0
 11
2.558763616263285
 21
16.48692002674735
 31
0.0
  0
LINE
  5
929
330
1F
100
AcDbEntity
  8
SK2
  6
CONTINUOUS
370
25
 62
7
100
AcDbLine
 10
2.059395801435471
 20
17.41055191028709
 30
0.0
 11
3.0890937021532
 21
16.38085400956937
 31
0.0
  0
LINE
  5
92A
330
1F
100
AcDbEntity
  8
SK2
  6
CONTINUOUS
370
25
 62
7
100
AcDbLine
 10
2.412949192028748
 20
17.48126258840575
 30
0.0
 11
3.619423788043115
 21
16.27478799239138
 31
0.0
  0
LINE
  5
92B
330
1F
100
AcDbEntity
  8
SK2
  6
CONTINUOUS
370
25
 62
7
100
AcDbLine
 10
2.766502582622024
 20
17.5519732665244
 30
0.0
 11
4.14975387393303
 21
16.1687219752134
 31
0.0
  0
LINE
  5
92C
330
1F
100
AcDbEntity
  8
SK2
  6
CONTINUOUS
370
25
 62
7
100
AcDbLine
 10
3.120055973215301
 20
17.62268394464306
 30
0.0
 11
4.680083959822944
 21
16.06265595803541
 31
0.0
  0
LINE
  5
92D
330
1F
100
AcDbEntity
  8
SK2
  6
CONTINUOUS
370
25
 62
7
100
AcDbLine
 10
3.473609363808578
 20
17.69339462276171
 30
0.0
 11
5.0
 21
16.16700398657029
 31
0.0
  0
LINE
  5
92E
330
1F
100
AcDbEntity
  8
SK2
  6
CONTINUOUS
370
25
 62
7
100
AcDbLine
 10
3.827162754401854
 20
17.76410530088036
 30
0.0
 11
5.0
 21
16.59126805528221
 31
0.0
  0
LINE
  5
92F
330
1F
100
AcDbEntity
  8
SK2
  6
CONTINUOUS
370
25
 62
7
100
AcDbLine
 10
4.180716144995117
 20
17.83481597899903
 30
0.0
 11
5.0
 21
17.01553212399415
 31
0.0
  0
LINE
  5
930
330
1F
100
AcDbEntity
  8
SK2
  6
CONTINUOUS
370
25
 62
7
100
AcDbLine
 10
4.534269535588393
 20
17.90552665711768
 30
0.0
 11
5.0
 21
17.43979619270607
 31
0.0
  0
LINE
  5
931
330
1F
100
AcDbEntity
  8
SK2
  6
CONTINUOUS
370
25
 62
7
100
AcDbLine
 10
4.88782292618167
 20
17.97623733523633
 30
0.0
 11
5.0
 21
17.864060261418
 31
0.0
  0
LINE
  5
932
330
1F
100
AcDbEntity
  8
SK2
  6
CONTINUOUS
370
25
 62
7
100
AcDbLine
 10
40.0
 20
16.99867275
 30
0.0
 11
35.0
 21
15.99867275
 31
0.0
  0
LINE
  5
933
330
1F
100
AcDbEntity
  8
SK2
  6
CONTINUOUS
370
25
 62
7
100
AcDbLine
 10
35.0
 20
15.99867275
 30
0.0
 11
35.0
 21
17.99867275
 31
0.0
  0
LINE
  5
934
330
1F
100
AcDbEntity
  8
SK2
  6
CONTINUOUS
370
25
 62
7
100
AcDbLine
 10
35.0
 20
17.99867275
 30
0.0
 11
40.0
 21
16.99867275
 31
0.0
  0
LINE
  5
935
330
1F
100
AcDbEntity
  8
SK2
  6
CONTINUOUS
370
25
 62
7
100
AcDbLine
 10
39.50480741601366
 20
16.89963423320273
 30
0.0
 11
39.66987161067578
 21
17.06469842786484
 31
0.0
  0
LINE
  5
936
330
1F
100
AcDbEntity
  8
SK2
  6
CONTINUOUS
370
25
 62
7
100
AcDbLine
 10
38.97447733012375
 20
16.79356821602475
 30
0.0
 11
39.3163182200825
 21
17.1354091059835
 31
0.0
  0
LINE
  5
937
330
1F
100
AcDbEntity
  8
SK2
  6
CONTINUOUS
370
25
 62
7
100
AcDbLine
 10
38.44414724423385
 20
16.68750219884677
 30
0.0
 11
38.96276482948923
 21
17.20611978410216
 31
0.0
  0
LINE
  5
938
330
1F
100
AcDbEntity
  8
SK2
  6
CONTINUOUS
370
25
 62
7
100
AcDbLine
 10
37.91381715834394
 20
16.58143618166879
 30
0.0
 11
38.60921143889595
 21
17.27683046222081
 31
0.0
  0
LINE
  5
939
330
1F
100
AcDbEntity
  8
SK2
  6
CONTINUOUS
370
25
 62
7
100
AcDbLine
 10
37.38348707245402
 20
16.4753701644908
 30
0.0
 11
38.25565804830268
 21
17.34754114033947
 31
0.0
  0
LINE
  5
93A
330
1F
100
AcDbEntity
  8
SK2
  6
CONTINUOUS
370
25
 62
7
100
AcDbLine
 10
36.85315698656412
 20
16.36930414731282
 30
0.0
 11
37.90210465770941
 21
17.41825181845812
 31
0.0
  0
LINE
  5
93B
330
1F
100
AcDbEntity
  8
SK2
  6
CONTINUOUS
370
25
 62
7
100
AcDbLine
 10
36.3228269006742
 20
16.26323813013484
 30
0.0
 11
37.54855126711614
 21
17.48896249657678
 31
0.0
  0
LINE
  5
93C
330
1F
100
AcDbEntity
  8
SK2
  6
CONTINUOUS
370
25
 62
7
100
AcDbLine
 10
35.79249681478429
 20
16.15717211295686
 30
0.0
 11
37.19499787652286
 21
17.55967317469543
 31
0.0
  0
LINE
  5
93D
330
1F
100
AcDbEntity
  8
SK2
  6
CONTINUOUS
370
25
 62
7
100
AcDbLine
 10
35.26216672889439
 20
16.05110609577888
 30
0.0
 11
36.84144448592959
 21
17.63038385281408
 31
0.0
  0
LINE
  5
93E
330
1F
100
AcDbEntity
  8
SK2
  6
CONTINUOUS
370
25
 62
7
100
AcDbLine
 10
35.0
 20
16.21320343559642
 30
0.0
 11
36.48789109533632
 21
17.70109453093274
 31
0.0
  0
LINE
  5
93F
330
1F
100
AcDbEntity
  8
SK2
  6
CONTINUOUS
370
25
 62
7
100
AcDbLine
 10
35.0
 20
16.63746750430835
 30
0.0
 11
36.13433770474305
 21
17.77180520905139
 31
0.0
  0
LINE
  5
940
330
1F
100
AcDbEntity
  8
SK2
  6
CONTINUOUS
370
25
 62
7
100
AcDbLine
 10
35.0
 20
17.06173157302027
 30
0.0
 11
35.78078431414977
 21
17.84251588717004
 31
0.0
  0
LINE
  5
941
330
1F
100
AcDbEntity
  8
SK2
  6
CONTINUOUS
370
25
 62
7
100
AcDbLine
 10
35.0
 20
17.4859956417322
 30
0.0
 11
35.4272309235565
 21
17.9132265652887
 31
0.0
  0
LINE
  5
942
330
1F
100
AcDbEntity
  8
SK2
  6
CONTINUOUS
370
25
 62
7
100
AcDbLine
 10
35.0
 20
17.91025971044413
 30
0.0
 11
35.07367753296322
 21
17.98393724340735
 31
0.0
  0
LINE
  5
943
330
1F
100
AcDbEntity
  8
SK2
  6
CONTINUOUS
370
25
 62
7
100
AcDbLine
 10
35.0
 20
16.03086578651011
 30
0.0
 11
35.02682753042509
 21
16.00403825608502
 31
0.0
  0
LINE
  5
944
330
1F
100
AcDbEntity
  8
SK2
  6
CONTINUOUS
370
25
 62
7
100
AcDbLine
 10
35.0
 20
16.45512985522204
 30
0.0
 11
35.38038092101836
 21
16.07474893420368
 31
0.0
  0
LINE
  5
945
330
1F
100
AcDbEntity
  8
SK2
  6
CONTINUOUS
370
25
 62
7
100
AcDbLine
 10
35.0
 20
16.87939392393397
 30
0.0
 11
35.73393431161164
 21
16.14545961232233
 31
0.0
  0
LINE
  5
946
330
1F
100
AcDbEntity
  8
SK2
  6
CONTINUOUS
370
25
 62
7
100
AcDbLine
 10
35.0
 20
17.3036579926459
 30
0.0
 11
36.08748770220491
 21
16.21617029044099
 31
0.0
  0
LINE
  5
947
330
1F
100
AcDbEntity
  8
SK2
  6
CONTINUOUS
370
25
 62
7
100
AcDbLine
 10
35.0
 20
17.72792206135782
 30
0.0
 11
36.44104109279819
 21
16.28688096855964
 31
0.0
  0
LINE
  5
948
330
1F
100
AcDbEntity
  8
SK2
  6
CONTINUOUS
370
25
 62
7
100
AcDbLine
 10
35.19189172508719
 20
17.96029440498256
 30
0.0
 11
36.79459448339146
 21
16.35759164667829
 31
0.0
  0
LINE
  5
949
330
1F
100
AcDbEntity
  8
SK2
  6
CONTINUOUS
370
25
 62
7
100
AcDbLine
 10
35.7222218109771
 20
17.85422838780458
 30
0.0
 11
37.14814787398473
 21
16.42830232479695
 31
0.0
  0
LINE
  5
94A
330
1F
100
AcDbEntity
  8
SK2
  6
CONTINUOUS
370
25
 62
7
100
AcDbLine
 10
36.25255189686701
 20
17.7481623706266
 30
0.0
 11
37.50170126457801
 21
16.4990130029156
 31
0.0
  0
LINE
  5
94B
330
1F
100
AcDbEntity
  8
SK2
  6
CONTINUOUS
370
25
 62
7
100
AcDbLine
 10
36.78288198275692
 20
17.64209635344862
 30
0.0
 11
37.85525465517128
 21
16.56972368103426
 31
0.0
  0
LINE
  5
94C
330
1F
100
AcDbEntity
  8
SK2
  6
CONTINUOUS
370
25
 62
7
100
AcDbLine
 10
37.31321206864683
 20
17.53603033627063
 30
0.0
 11
38.20880804576456
 21
16.64043435915291
 31
0.0
  0
LINE
  5
94D
330
1F
100
AcDbEntity
  8
SK2
  6
CONTINUOUS
370
25
 62
7
100
AcDbLine
 10
37.84354215453673
 20
17.42996431909265
 30
0.0
 11
38.56236143635783
 21
16.71114503727157
 31
0.0
  0
LINE
  5
94E
330
1F
100
AcDbEntity
  8
SK2
  6
CONTINUOUS
370
25
 62
7
100
AcDbLine
 10
38.37387224042665
 20
17.32389830191467
 30
0.0
 11
38.9159148269511
 21
16.78185571539022
 31
0.0
  0
LINE
  5
94F
330
1F
100
AcDbEntity
  8
SK2
  6
CONTINUOUS
370
25
 62
7
100
AcDbLine
 10
38.90420232631656
 20
17.21783228473669
 30
0.0
 11
39.26946821754437
 21
16.85256639350888
 31
0.0
  0
LINE
  5
950
330
1F
100
AcDbEntity
  8
SK2
  6
CONTINUOUS
370
25
 62
7
100
AcDbLine
 10
39.43453241220647
 20
17.11176626755871
 30
0.0
 11
39.62302160813765
 21
16.92327707162753
 31
0.0
  0
LINE
  5
951
330
1F
100
AcDbEntity
  8
SK2
  6
CONTINUOUS
370
25
 62
7
100
AcDbLine
 10
39.96486249809638
 20
17.00570025038072
 30
0.0
 11
39.97657499873092
 21
16.99398774974619
 31
0.0
  0
TEXT
  5
952
330
1F
100
AcDbEntity
  8
SK2
  6
CONTINUOUS
370
25
 62
7
100
AcDbText
 10
17.375
 20
18.49867275
 30
0.0
 40
3.5
  1
40
 72
     1
 11
20.0
 21
18.49867275
 31
0.0
100
AcDbText
  0
LINE
  5
953
330
1F
100
AcDbEntity
  8
2
  6
CONTINUOUS
370
25
 62
7
100
AcDbLine
 10
40.0
 20
-4.99937427
 30
0.0
 11
40.0
 21
-17.99937427
 31
0.0
  0
LINE
  5
954
330
1F
100
AcDbEntity
  8
2
  6
CONTINUOUS
370
25
 62
7
100
AcDbLine
 10
110.0
 20
-17.99937427
 30
0.0
 11
110.0
 21
-4.999374270000001
 31
0.0
  0
LINE
  5
955
330
1F
100
AcDbEntity
  8
2
  6
CONTINUOUS
370
25
 62
7
100
AcDbLine
 10
40.0
 20
-16.99937427
 30
0.0
 11
110.0
 21
-16.99937427
 31
0.0
  0
LINE
  5
956
330
1F
100
AcDbEntity
  8
2
  6
CONTINUOUS
370
25
 62
7
100
AcDbLine
 10
40.0
 20
-16.99937427
 30
0.0
 11
45.0
 21
-15.99937427
 31
0.0
  0
LINE
  5
957
330
1F
100
AcDbEntity
  8
2
  6
CONTINUOUS
370
25
 62
7
100
AcDbLine
 10
45.0
 20
-15.99937427
 30
0.0
 11
45.0
 21
-17.99937427
 31
0.0
  0
LINE
  5
958
330
1F
100
AcDbEntity
  8
2
  6
CONTINUOUS
370
25
 62
7
100
AcDbLine
 10
45.0
 20
-17.99937427
 30
0.0
 11
40.0
 21
-16.99937427
 31
0.0
  0
LINE
  5
959
330
1F
100
AcDbEntity
  8
2
  6
CONTINUOUS
370
25
 62
7
100
AcDbLine
 10
44.80784395449732
 20
-17.96094306089946
 30
0.0
 11
45.0
 21
-17.76878701539678
 31
0.0
  0
LINE
  5
95A
330
1F
100
AcDbEntity
  8
2
  6
CONTINUOUS
370
25
 62
7
100
AcDbLine
 10
44.45429056390405
 20
-17.89023238278081
 30
0.0
 11
45.0
 21
-17.34452294668485
 31
0.0
  0
LINE
  5
95B
330
1F
100
AcDbEntity
  8
2
  6
CONTINUOUS
370
25
 62
7
100
AcDbLine
 10
44.10073717331078
 20
-17.81952170466215
 30
0.0
 11
45.0
 21
-16.92025887797293
 31
0.0
  0
LINE
  5
95C
330
1F
100
AcDbEntity
  8
2
  6
CONTINUOUS
370
25
 62
7
100
AcDbLine
 10
43.7471837827175
 20
-17.7488110265435
 30
0.0
 11
45.0
 21
-16.495994809261
 31
0.0
  0
LINE
  5
95D
330
1F
100
AcDbEntity
  8
2
  6
CONTINUOUS
370
25
 62
7
100
AcDbLine
 10
43.39363039212422
 20
-17.67810034842485
 30
0.0
 11
45.0
 21
-16.07173074054907
 31
0.0
  0
LINE
  5
95E
330
1F
100
AcDbEntity
  8
2
  6
CONTINUOUS
370
25
 62
7
100
AcDbLine
 10
43.04007700153095
 20
-17.60738967030619
 30
0.0
 11
44.56011550229643
 21
-16.08735116954071
 31
0.0
  0
LINE
  5
95F
330
1F
100
AcDbEntity
  8
2
  6
CONTINUOUS
370
25
 62
7
100
AcDbLine
 10
42.68652361093768
 20
-17.53667899218754
 30
0.0
 11
44.02978541640652
 21
-16.1934171867187
 31
0.0
  0
LINE
  5
960
330
1F
100
AcDbEntity
  8
2
  6
CONTINUOUS
370
25
 62
7
100
AcDbLine
 10
42.33297022034441
 20
-17.46596831406888
 30
0.0
 11
43.49945533051661
 21
-16.29948320389668
 31
0.0
  0
LINE
  5
961
330
1F
100
AcDbEntity
  8
2
  6
CONTINUOUS
370
25
 62
7
100
AcDbLine
 10
41.97941682975113
 20
-17.39525763595023
 30
0.0
 11
42.9691252446267
 21
-16.40554922107466
 31
0.0
  0
LINE
  5
962
330
1F
100
AcDbEntity
  8
2
  6
CONTINUOUS
370
25
 62
7
100
AcDbLine
 10
41.62586343915786
 20
-17.32454695783157
 30
0.0
 11
42.4387951587368
 21
-16.51161523825264
 31
0.0
  0
LINE
  5
963
330
1F
100
AcDbEntity
  8
2
  6
CONTINUOUS
370
25
 62
7
100
AcDbLine
 10
41.27231004856459
 20
-17.25383627971292
 30
0.0
 11
41.90846507284688
 21
-16.61768125543063
 31
0.0
  0
LINE
  5
964
330
1F
100
AcDbEntity
  8
2
  6
CONTINUOUS
370
25
 62
7
100
AcDbLine
 10
40.91875665797131
 20
-17.18312560159426
 30
0.0
 11
41.37813498695697
 21
-16.72374727260861
 31
0.0
  0
LINE
  5
965
330
1F
100
AcDbEntity
  8
2
  6
CONTINUOUS
370
25
 62
7
100
AcDbLine
 10
40.56520326737804
 20
-17.11241492347561
 30
0.0
 11
40.84780490106706
 21
-16.82981328978659
 31
0.0
  0
LINE
  5
966
330
1F
100
AcDbEntity
  8
2
  6
CONTINUOUS
370
25
 62
7
100
AcDbLine
 10
40.21164987678477
 20
-17.04170424535695
 30
0.0
 11
40.31747481517715
 21
-16.93587930696457
 31
0.0
  0
LINE
  5
967
330
1F
100
AcDbEntity
  8
2
  6
CONTINUOUS
370
25
 62
7
100
AcDbLine
 10
40.34350886349655
 20
-16.93067249730069
 30
0.0
 11
40.51526329524482
 21
-17.10242692904896
 31
0.0
  0
LINE
  5
968
330
1F
100
AcDbEntity
  8
2
  6
CONTINUOUS
370
25
 62
7
100
AcDbLine
 10
40.69706225408982
 20
-16.85996181918204
 30
0.0
 11
41.04559338113473
 21
-17.20849294622695
 31
0.0
  0
LINE
  5
969
330
1F
100
AcDbEntity
  8
2
  6
CONTINUOUS
370
25
 62
7
100
AcDbLine
 10
41.05061564468309
 20
-16.78925114106338
 30
0.0
 11
41.57592346702464
 21
-17.31455896340493
 31
0.0
  0
LINE
  5
96A
330
1F
100
AcDbEntity
  8
2
  6
CONTINUOUS
370
25
 62
7
100
AcDbLine
 10
41.40416903527637
 20
-16.71854046294473
 30
0.0
 11
42.10625355291454
 21
-17.42062498058291
 31
0.0
  0
LINE
  5
96B
330
1F
100
AcDbEntity
  8
2
  6
CONTINUOUS
370
25
 62
7
100
AcDbLine
 10
41.75772242586964
 20
-16.64782978482607
 30
0.0
 11
42.63658363880446
 21
-17.52669099776089
 31
0.0
  0
LINE
  5
96C
330
1F
100
AcDbEntity
  8
2
  6
CONTINUOUS
370
25
 62
7
100
AcDbLine
 10
42.11127581646291
 20
-16.57711910670742
 30
0.0
 11
43.16691372469437
 21
-17.63275701493887
 31
0.0
  0
LINE
  5
96D
330
1F
100
AcDbEntity
  8
2
  6
CONTINUOUS
370
25
 62
7
100
AcDbLine
 10
42.46482920705618
 20
-16.50640842858876
 30
0.0
 11
43.69724381058428
 21
-17.73882303211685
 31
0.0
  0
LINE
  5
96E
330
1F
100
AcDbEntity
  8
2
  6
CONTINUOUS
370
25
 62
7
100
AcDbLine
 10
42.81838259764946
 20
-16.43569775047011
 30
0.0
 11
44.22757389647419
 21
-17.84488904929484
 31
0.0
  0
LINE
  5
96F
330
1F
100
AcDbEntity
  8
2
  6
CONTINUOUS
370
25
 62
7
100
AcDbLine
 10
43.17193598824273
 20
-16.36498707235145
 30
0.0
 11
44.7579039823641
 21
-17.95095506647282
 31
0.0
  0
LINE
  5
970
330
1F
100
AcDbEntity
  8
2
  6
CONTINUOUS
370
25
 62
7
100
AcDbLine
 10
43.52548937883601
 20
-16.2942763942328
 30
0.0
 11
45.0
 21
-17.7687870153968
 31
0.0
  0
LINE
  5
971
330
1F
100
AcDbEntity
  8
2
  6
CONTINUOUS
370
25
 62
7
100
AcDbLine
 10
43.87904276942928
 20
-16.22356571611414
 30
0.0
 11
45.0
 21
-17.34452294668487
 31
0.0
  0
LINE
  5
972
330
1F
100
AcDbEntity
  8
2
  6
CONTINUOUS
370
25
 62
7
100
AcDbLine
 10
44.23259616002255
 20
-16.15285503799549
 30
0.0
 11
45.0
 21
-16.92025887797294
 31
0.0
  0
LINE
  5
973
330
1F
100
AcDbEntity
  8
2
  6
CONTINUOUS
370
25
 62
7
100
AcDbLine
 10
44.58614955061582
 20
-16.08214435987684
 30
0.0
 11
45.0
 21
-16.49599480926101
 31
0.0
  0
LINE
  5
974
330
1F
100
AcDbEntity
  8
2
  6
CONTINUOUS
370
25
 62
7
100
AcDbLine
 10
44.9397029412091
 20
-16.01143368175818
 30
0.0
 11
45.0
 21
-16.07173074054909
 31
0.0
  0
LINE
  5
975
330
1F
100
AcDbEntity
  8
2
  6
CONTINUOUS
370
25
 62
7
100
AcDbLine
 10
110.0
 20
-16.99937427
 30
0.0
 11
105.0
 21
-17.99937427
 31
0.0
  0
LINE
  5
976
330
1F
100
AcDbEntity
  8
2
  6
CONTINUOUS
370
25
 62
7
100
AcDbLine
 10
105.0
 20
-17.99937427
 30
0.0
 11
105.0
 21
-15.99937427
 31
0.0
  0
LINE
  5
977
330
1F
100
AcDbEntity
  8
2
  6
CONTINUOUS
370
25
 62
7
100
AcDbLine
 10
105.0
 20
-15.99937427
 30
0.0
 11
110.0
 21
-16.99937427
 31
0.0
  0
LINE
  5
978
330
1F
100
AcDbEntity
  8
2
  6
CONTINUOUS
370
25
 62
7
100
AcDbLine
 10
109.4802725329196
 20
-17.10331976341608
 30
0.0
 11
109.6535150219464
 21
-16.93007727438929
 31
0.0
  0
LINE
  5
979
330
1F
100
AcDbEntity
  8
2
  6
CONTINUOUS
370
25
 62
7
100
AcDbLine
 10
108.9499424470297
 20
-17.20938578059408
 30
0.0
 11
109.2999616313531
 21
-16.85936659627063
 31
0.0
  0
LINE
  5
97A
330
1F
100
AcDbEntity
  8
2
  6
CONTINUOUS
370
25
 62
7
100
AcDbLine
 10
108.4196123611398
 20
-17.31545179777204
 30
0.0
 11
108.9464082407598
 21
-16.78865591815197
 31
0.0
  0
LINE
  5
97B
330
1F
100
AcDbEntity
  8
2
  6
CONTINUOUS
370
25
 62
7
100
AcDbLine
 10
107.8892822752498
 20
-17.42151781495002
 30
0.0
 11
108.5928548501665
 21
-16.71794524003333
 31
0.0
  0
LINE
  5
97C
330
1F
100
AcDbEntity
  8
2
  6
CONTINUOUS
370
25
 62
7
100
AcDbLine
 10
107.3589521893599
 20
-17.52758383212803
 30
0.0
 11
108.2393014595733
 21
-16.64723456191466
 31
0.0
  0
LINE
  5
97D
330
1F
100
AcDbEntity
  8
2
  6
CONTINUOUS
370
25
 62
7
100
AcDbLine
 10
106.82862210347
 20
-17.633649849306
 30
0.0
 11
107.88574806898
 21
-16.57652388379601
 31
0.0
  0
LINE
  5
97E
330
1F
100
AcDbEntity
  8
2
  6
CONTINUOUS
370
25
 62
7
100
AcDbLine
 10
106.2982920175801
 20
-17.73971586648399
 30
0.0
 11
107.5321946783867
 21
-16.50581320567734
 31
0.0
  0
LINE
  5
97F
330
1F
100
AcDbEntity
  8
2
  6
CONTINUOUS
370
25
 62
7
100
AcDbLine
 10
105.7679619316902
 20
-17.84578188366196
 30
0.0
 11
107.1786412877935
 21
-16.4351025275587
 31
0.0
  0
LINE
  5
980
330
1F
100
AcDbEntity
  8
2
  6
CONTINUOUS
370
25
 62
7
100
AcDbLine
 10
105.2376318458003
 20
-17.95184790083995
 30
0.0
 11
106.8250878972002
 21
-16.36439184944004
 31
0.0
  0
LINE
  5
981
330
1F
100
AcDbEntity
  8
2
  6
CONTINUOUS
370
25
 62
7
100
AcDbLine
 10
105.0
 20
-17.76521567792828
 30
0.0
 11
106.4715345066069
 21
-16.2936811713214
 31
0.0
  0
LINE
  5
982
330
1F
100
AcDbEntity
  8
2
  6
CONTINUOUS
370
25
 62
7
100
AcDbLine
 10
105.0
 20
-17.34095160921638
 30
0.0
 11
106.1179811160137
 21
-16.22297049320272
 31
0.0
  0
LINE
  5
983
330
1F
100
AcDbEntity
  8
2
  6
CONTINUOUS
370
25
 62
7
100
AcDbLine
 10
105.0
 20
-16.91668754050443
 30
0.0
 11
105.7644277254204
 21
-16.15225981508408
 31
0.0
  0
LINE
  5
984
330
1F
100
AcDbEntity
  8
2
  6
CONTINUOUS
370
25
 62
7
100
AcDbLine
 10
105.0
 20
-16.49242347179252
 30
0.0
 11
105.4108743348271
 21
-16.08154913696542
 31
0.0
  0
LINE
  5
985
330
1F
100
AcDbEntity
  8
2
  6
CONTINUOUS
370
25
 62
7
100
AcDbLine
 10
105.0
 20
-16.06815940308057
 30
0.0
 11
105.0573209442338
 21
-16.01083845884676
 31
0.0
  0
LINE
  5
986
330
1F
100
AcDbEntity
  8
2
  6
CONTINUOUS
370
25
 62
7
100
AcDbLine
 10
105.0
 20
-17.90668837297552
 30
0.0
 11
105.0772382475204
 21
-17.98392662049592
 31
0.0
  0
LINE
  5
987
330
1F
100
AcDbEntity
  8
2
  6
CONTINUOUS
370
25
 62
7
100
AcDbLine
 10
105.0
 20
-17.48242430426359
 30
0.0
 11
105.4307916381137
 21
-17.91321594237726
 31
0.0
  0
LINE
  5
988
330
1F
100
AcDbEntity
  8
2
  6
CONTINUOUS
370
25
 62
7
100
AcDbLine
 10
105.0
 20
-17.05816023555165
 30
0.0
 11
105.784345028707
 21
-17.84250526425861
 31
0.0
  0
LINE
  5
989
330
1F
100
AcDbEntity
  8
2
  6
CONTINUOUS
370
25
 62
7
100
AcDbLine
 10
105.0
 20
-16.63389616683973
 30
0.0
 11
106.1378984193002
 21
-17.77179458613997
 31
0.0
  0
LINE
  5
98A
330
1F
100
AcDbEntity
  8
2
  6
CONTINUOUS
370
25
 62
7
100
AcDbLine
 10
105.0
 20
-16.2096320981278
 30
0.0
 11
106.4914518098935
 21
-17.7010839080213
 31
0.0
  0
LINE
  5
98B
330
1F
100
AcDbEntity
  8
2
  6
CONTINUOUS
370
25
 62
7
100
AcDbLine
 10
105.2675078007302
 20
-16.05287583014602
 30
0.0
 11
106.8450052004868
 21
-17.63037322990264
 31
0.0
  0
LINE
  5
98C
330
1F
100
AcDbEntity
  8
2
  6
CONTINUOUS
370
25
 62
7
100
AcDbLine
 10
105.7978378866201
 20
-16.15894184732402
 30
0.0
 11
107.19855859108
 21
-17.55966255178399
 31
0.0
  0
LINE
  5
98D
330
1F
100
AcDbEntity
  8
2
  6
CONTINUOUS
370
25
 62
7
100
AcDbLine
 10
106.32816797251
 20
-16.26500786450199
 30
0.0
 11
107.5521119816733
 21
-17.48895187366534
 31
0.0
  0
LINE
  5
98E
330
1F
100
AcDbEntity
  8
2
  6
CONTINUOUS
370
25
 62
7
100
AcDbLine
 10
106.8584980583999
 20
-16.37107388167999
 30
0.0
 11
107.9056653722666
 21
-17.41824119554668
 31
0.0
  0
LINE
  5
98F
330
1F
100
AcDbEntity
  8
2
  6
CONTINUOUS
370
25
 62
7
100
AcDbLine
 10
107.3888281442898
 20
-16.47713989885796
 30
0.0
 11
108.2592187628599
 21
-17.34753051742804
 31
0.0
  0
LINE
  5
990
330
1F
100
AcDbEntity
  8
2
  6
CONTINUOUS
370
25
 62
7
100
AcDbLine
 10
107.9191582301797
 20
-16.58320591603595
 30
0.0
 11
108.6127721534531
 21
-17.27681983930938
 31
0.0
  0
LINE
  5
991
330
1F
100
AcDbEntity
  8
2
  6
CONTINUOUS
370
25
 62
7
100
AcDbLine
 10
108.4494883160696
 20
-16.68927193321391
 30
0.0
 11
108.9663255440464
 21
-17.20610916119072
 31
0.0
  0
LINE
  5
992
330
1F
100
AcDbEntity
  8
2
  6
CONTINUOUS
370
25
 62
7
100
AcDbLine
 10
108.9798184019595
 20
-16.79533795039191
 30
0.0
 11
109.3198789346397
 21
-17.13539848307207
 31
0.0
  0
LINE
  5
993
330
1F
100
AcDbEntity
  8
2
  6
CONTINUOUS
370
25
 62
7
100
AcDbLine
 10
109.5101484878494
 20
-16.90140396756987
 30
0.0
 11
109.6734323252329
 21
-17.06468780495342
 31
0.0
  0
TEXT
  5
994
330
1F
100
AcDbEntity
  8
2
  6
CONTINUOUS
370
25
 62
7
100
AcDbText
 10
72.375
 20
-15.49937427
 30
0.0
 40
3.5
  1
70
 72
     1
 11
75.0
 21
-15.49937427
 31
0.0
100
AcDbText
  0
LINE
  5
995
330
1F
100
AcDbEntity
  8
2
  6
CONTINUOUS
370
25
 62
7
100
AcDbLine
 10
130.0
 20
-5.0
 30
0.0
 11
143.0
 21
-5.000000000000002
 31
0.0
  0
LINE
  5
996
330
1F
100
AcDbEntity
  8
2
  6
CONTINUOUS
370
25
 62
7
100
AcDbLine
 10
143.0
 20
4.999999999999998
 30
0.0
 11
130.0
 21
5.0
 31
0.0
  0
LINE
  5
997
330
1F
100
AcDbEntity
  8
2
  6
CONTINUOUS
370
25
 62
7
100
AcDbLine
 10
142.0
 20
-12.0
 30
0.0
 11
142.0
 21
21.45
 31
0.0
  0
LINE
  5
998
330
1F
100
AcDbEntity
  8
2
  6
CONTINUOUS
370
25
 62
7
100
AcDbLine
 10
142.0
 20
-5.000000000000002
 30
0.0
 11
143.0
 21
-10.0
 31
0.0
  0
LINE
  5
999
330
1F
100
AcDbEntity
  8
2
  6
CONTINUOUS
370
25
 62
7
100
AcDbLine
 10
143.0
 20
-10.0
 30
0.0
 11
141.0
 21
-10.0
 31
0.0
  0
LINE
  5
99A
330
1F
100
AcDbEntity
  8
2
  6
CONTINUOUS
370
25
 62
7
100
AcDbLine
 10
141.0
 20
-10.0
 30
0.0
 11
142.0
 21
-5.000000000000002
 31
0.0
  0
LINE
  5
99B
330
1F
100
AcDbEntity
  8
2
  6
CONTINUOUS
370
25
 62
7
100
AcDbLine
 10
142.8260559084676
 20
-10.0
 30
0.0
 11
142.9710093180779
 21
-9.855046590389662
 31
0.0
  0
LINE
  5
99C
330
1F
100
AcDbEntity
  8
2
  6
CONTINUOUS
370
25
 62
7
100
AcDbLine
 10
142.4017918397557
 20
-10.0
 30
0.0
 11
142.9002986399593
 21
-9.501493199796386
 31
0.0
  0
LINE
  5
99D
330
1F
100
AcDbEntity
  8
2
  6
CONTINUOUS
370
25
 62
7
100
AcDbLine
 10
141.9775277710438
 20
-10.0
 30
0.0
 11
142.8295879618406
 21
-9.147939809203123
 31
0.0
  0
LINE
  5
99E
330
1F
100
AcDbEntity
  8
2
  6
CONTINUOUS
370
25
 62
7
100
AcDbLine
 10
141.5532637023318
 20
-10.0
 30
0.0
 11
142.758877283722
 21
-8.794386418609847
 31
0.0
  0
LINE
  5
99F
330
1F
100
AcDbEntity
  8
2
  6
CONTINUOUS
370
25
 62
7
100
AcDbLine
 10
141.1289996336199
 20
-10.0
 30
0.0
 11
142.6881666056033
 21
-8.44083302801657
 31
0.0
  0
LINE
  5
9A0
330
1F
100
AcDbEntity
  8
2
  6
CONTINUOUS
370
25
 62
7
100
AcDbLine
 10
141.073816108773
 20
-9.630919456134961
 30
0.0
 11
142.6174559274847
 21
-8.087279637423293
 31
0.0
  0
LINE
  5
9A1
330
1F
100
AcDbEntity
  8
2
  6
CONTINUOUS
370
25
 62
7
100
AcDbLine
 10
141.179882125951
 20
-9.10058937024506
 30
0.0
 11
142.546745249366
 21
-7.733726246830045
 31
0.0
  0
LINE
  5
9A2
330
1F
100
AcDbEntity
  8
2
  6
CONTINUOUS
370
25
 62
7
100
AcDbLine
 10
141.285948143129
 20
-8.57025928435516
 30
0.0
 11
142.4760345712473
 21
-7.380172856236769
 31
0.0
  0
LINE
  5
9A3
330
1F
100
AcDbEntity
  8
2
  6
CONTINUOUS
370
25
 62
7
100
AcDbLine
 10
141.392014160307
 20
-8.03992919846523
 30
0.0
 11
142.4053238931287
 21
-7.026619465643478
 31
0.0
  0
LINE
  5
9A4
330
1F
100
AcDbEntity
  8
2
  6
CONTINUOUS
370
25
 62
7
100
AcDbLine
 10
141.498080177485
 20
-7.50959911257533
 30
0.0
 11
142.3346132150101
 21
-6.673066075050215
 31
0.0
  0
LINE
  5
9A5
330
1F
100
AcDbEntity
  8
2
  6
CONTINUOUS
370
25
 62
7
100
AcDbLine
 10
141.6041461946629
 20
-6.979269026685429
 30
0.0
 11
142.2639025368914
 21
-6.319512684456953
 31
0.0
  0
LINE
  5
9A6
330
1F
100
AcDbEntity
  8
2
  6
CONTINUOUS
370
25
 62
7
100
AcDbLine
 10
141.7102122118409
 20
-6.448938940795529
 30
0.0
 11
142.1931918587728
 21
-5.965959293863676
 31
0.0
  0
LINE
  5
9A7
330
1F
100
AcDbEntity
  8
2
  6
CONTINUOUS
370
25
 62
7
100
AcDbLine
 10
141.8162782290189
 20
-5.918608854905614
 30
0.0
 11
142.1224811806541
 21
-5.612405903270414
 31
0.0
  0
LINE
  5
9A8
330
1F
100
AcDbEntity
  8
2
  6
CONTINUOUS
370
25
 62
7
100
AcDbLine
 10
141.9223442461969
 20
-5.388278769015699
 30
0.0
 11
142.0517705025354
 21
-5.258852512677151
 31
0.0
  0
LINE
  5
9A9
330
1F
100
AcDbEntity
  8
2
  6
CONTINUOUS
370
25
 62
7
100
AcDbLine
 10
141.0361291288442
 20
-9.819354355779012
 30
0.0
 11
141.2167747730652
 21
-10.0
 31
0.0
  0
LINE
  5
9AA
330
1F
100
AcDbEntity
  8
2
  6
CONTINUOUS
370
25
 62
7
100
AcDbLine
 10
141.1068398069629
 20
-9.465800965185764
 30
0.0
 11
141.6410388417771
 21
-10.0
 31
0.0
  0
LINE
  5
9AB
330
1F
100
AcDbEntity
  8
2
  6
CONTINUOUS
370
25
 62
7
100
AcDbLine
 10
141.1775504850815
 20
-9.112247574592473
 30
0.0
 11
142.065302910489
 21
-10.0
 31
0.0
  0
LINE
  5
9AC
330
1F
100
AcDbEntity
  8
2
  6
CONTINUOUS
370
25
 62
7
100
AcDbLine
 10
141.2482611632001
 20
-8.75869418399921
 30
0.0
 11
142.489566979201
 21
-10.0
 31
0.0
  0
LINE
  5
9AD
330
1F
100
AcDbEntity
  8
2
  6
CONTINUOUS
370
25
 62
7
100
AcDbLine
 10
141.3189718413188
 20
-8.405140793405934
 30
0.0
 11
142.9138310479129
 21
-10.0
 31
0.0
  0
LINE
  5
9AE
330
1F
100
AcDbEntity
  8
2
  6
CONTINUOUS
370
25
 62
7
100
AcDbLine
 10
141.3896825194375
 20
-8.051587402812672
 30
0.0
 11
142.9154762208438
 21
-9.577381104219
 31
0.0
  0
LINE
  5
9AF
330
1F
100
AcDbEntity
  8
2
  6
CONTINUOUS
370
25
 62
7
100
AcDbLine
 10
141.4603931975561
 20
-7.698034012219409
 30
0.0
 11
142.8094102036658
 21
-9.047051018329086
 31
0.0
  0
LINE
  5
9B0
330
1F
100
AcDbEntity
  8
2
  6
CONTINUOUS
370
25
 62
7
100
AcDbLine
 10
141.5311038756748
 20
-7.344480621626133
 30
0.0
 11
142.7033441864878
 21
-8.516720932439199
 31
0.0
  0
LINE
  5
9B1
330
1F
100
AcDbEntity
  8
2
  6
CONTINUOUS
370
25
 62
7
100
AcDbLine
 10
141.6018145537934
 20
-6.99092723103287
 30
0.0
 11
142.5972781693098
 21
-7.986390846549298
 31
0.0
  0
LINE
  5
9B2
330
1F
100
AcDbEntity
  8
2
  6
CONTINUOUS
370
25
 62
7
100
AcDbLine
 10
141.6725252319121
 20
-6.637373840439579
 30
0.0
 11
142.4912121521319
 21
-7.456060760659383
 31
0.0
  0
LINE
  5
9B3
330
1F
100
AcDbEntity
  8
2
  6
CONTINUOUS
370
25
 62
7
100
AcDbLine
 10
141.7432359100308
 20
-6.283820449846331
 30
0.0
 11
142.3851461349539
 21
-6.925730674769483
 31
0.0
  0
LINE
  5
9B4
330
1F
100
AcDbEntity
  8
2
  6
CONTINUOUS
370
25
 62
7
100
AcDbLine
 10
141.8139465881494
 20
-5.930267059253069
 30
0.0
 11
142.2790801177759
 21
-6.395400588879582
 31
0.0
  0
LINE
  5
9B5
330
1F
100
AcDbEntity
  8
2
  6
CONTINUOUS
370
25
 62
7
100
AcDbLine
 10
141.8846572662681
 20
-5.576713668659778
 30
0.0
 11
142.1730141005979
 21
-5.865070502989667
 31
0.0
  0
LINE
  5
9B6
330
1F
100
AcDbEntity
  8
2
  6
CONTINUOUS
370
25
 62
7
100
AcDbLine
 10
141.9553679443867
 20
-5.223160278066501
 30
0.0
 11
142.06694808342
 21
-5.334740417099766
 31
0.0
  0
LINE
  5
9B7
330
1F
100
AcDbEntity
  8
2
  6
CONTINUOUS
370
25
 62
7
100
AcDbLine
 10
142.0
 20
4.999999999999998
 30
0.0
 11
141.0
 21
9.999999999999998
 31
0.0
  0
LINE
  5
9B8
330
1F
100
AcDbEntity
  8
2
  6
CONTINUOUS
370
25
 62
7
100
AcDbLine
 10
141.0
 20
9.999999999999998
 30
0.0
 11
143.0
 21
9.999999999999998
 31
0.0
  0
LINE
  5
9B9
330
1F
100
AcDbEntity
  8
2
  6
CONTINUOUS
370
25
 62
7
100
AcDbLine
 10
143.0
 20
9.999999999999998
 30
0.0
 11
142.0
 21
4.999999999999998
 31
0.0
  0
LINE
  5
9BA
330
1F
100
AcDbEntity
  8
2
  6
CONTINUOUS
370
25
 62
7
100
AcDbLine
 10
141.9711283626602
 20
5.144358186699108
 30
0.0
 11
142.0433074560098
 21
5.216537280048669
 31
0.0
  0
LINE
  5
9BB
330
1F
100
AcDbEntity
  8
2
  6
CONTINUOUS
370
25
 62
7
100
AcDbLine
 10
141.9004176845415
 20
5.497911577292371
 30
0.0
 11
142.1493734731877
 21
5.74686736593857
 31
0.0
  0
LINE
  5
9BC
330
1F
100
AcDbEntity
  8
2
  6
CONTINUOUS
370
25
 62
7
100
AcDbLine
 10
141.8297070064229
 20
5.851464967885647
 30
0.0
 11
142.2554394903657
 21
6.277197451828471
 31
0.0
  0
LINE
  5
9BD
330
1F
100
AcDbEntity
  8
2
  6
CONTINUOUS
370
25
 62
7
100
AcDbLine
 10
141.7589963283042
 20
6.205018358478895
 30
0.0
 11
142.3615055075437
 21
6.807527537718371
 31
0.0
  0
LINE
  5
9BE
330
1F
100
AcDbEntity
  8
2
  6
CONTINUOUS
370
25
 62
7
100
AcDbLine
 10
141.6882856501855
 20
6.558571749072172
 30
0.0
 11
142.4675715247217
 21
7.337857623608286
 31
0.0
  0
LINE
  5
9BF
330
1F
100
AcDbEntity
  8
2
  6
CONTINUOUS
370
25
 62
7
100
AcDbLine
 10
141.6175749720669
 20
6.912125139665463
 30
0.0
 11
142.5736375418996
 21
7.868187709498159
 31
0.0
  0
LINE
  5
9C0
330
1F
100
AcDbEntity
  8
2
  6
CONTINUOUS
370
25
 62
7
100
AcDbLine
 10
141.5468642939483
 20
7.265678530258725
 30
0.0
 11
142.6797035590776
 21
8.398517795388074
 31
0.0
  0
LINE
  5
9C1
330
1F
100
AcDbEntity
  8
2
  6
CONTINUOUS
370
25
 62
7
100
AcDbLine
 10
141.4761536158296
 20
7.619231920852016
 30
0.0
 11
142.7857695762556
 21
8.928847881277989
 31
0.0
  0
LINE
  5
9C2
330
1F
100
AcDbEntity
  8
2
  6
CONTINUOUS
370
25
 62
7
100
AcDbLine
 10
141.4054429377109
 20
7.97278531144525
 30
0.0
 11
142.8918355934336
 21
9.459177967167875
 31
0.0
  0
LINE
  5
9C3
330
1F
100
AcDbEntity
  8
2
  6
CONTINUOUS
370
25
 62
7
100
AcDbLine
 10
141.3347322595923
 20
8.326338702038527
 30
0.0
 11
142.9979016106116
 21
9.989508053057776
 31
0.0
  0
LINE
  5
9C4
330
1F
100
AcDbEntity
  8
2
  6
CONTINUOUS
370
25
 62
7
100
AcDbLine
 10
141.2640215814736
 20
8.679892092631789
 30
0.0
 11
142.5841294888419
 21
10.0
 31
0.0
  0
LINE
  5
9C5
330
1F
100
AcDbEntity
  8
2
  6
CONTINUOUS
370
25
 62
7
100
AcDbLine
 10
141.193310903355
 20
9.033445483225066
 30
0.0
 11
142.1598654201299
 21
10.0
 31
0.0
  0
LINE
  5
9C6
330
1F
100
AcDbEntity
  8
2
  6
CONTINUOUS
370
25
 62
7
100
AcDbLine
 10
141.1226002252363
 20
9.386998873818342
 30
0.0
 11
141.735601351418
 21
10.0
 31
0.0
  0
LINE
  5
9C7
330
1F
100
AcDbEntity
  8
2
  6
CONTINUOUS
370
25
 62
7
100
AcDbLine
 10
141.0518895471177
 20
9.74055226441159
 30
0.0
 11
141.3113372827061
 21
10.0
 31
0.0
  0
LINE
  5
9C8
330
1F
100
AcDbEntity
  8
2
  6
CONTINUOUS
370
25
 62
7
100
AcDbLine
 10
141.9152976539704
 20
5.423511730147908
 30
0.0
 11
142.0564682306864
 21
5.282341153431929
 31
0.0
  0
LINE
  5
9C9
330
1F
100
AcDbEntity
  8
2
  6
CONTINUOUS
370
25
 62
7
100
AcDbLine
 10
141.8092316367924
 20
5.953841816037809
 30
0.0
 11
142.127178908805
 21
5.635894544025192
 31
0.0
  0
LINE
  5
9CA
330
1F
100
AcDbEntity
  8
2
  6
CONTINUOUS
370
25
 62
7
100
AcDbLine
 10
141.7031656196145
 20
6.484171901927695
 30
0.0
 11
142.1978895869237
 21
5.989447934618454
 31
0.0
  0
LINE
  5
9CB
330
1F
100
AcDbEntity
  8
2
  6
CONTINUOUS
370
25
 62
7
100
AcDbLine
 10
141.5970996024365
 20
7.014501987817582
 30
0.0
 11
142.2686002650423
 21
6.343001325211731
 31
0.0
  0
LINE
  5
9CC
330
1F
100
AcDbEntity
  8
2
  6
CONTINUOUS
370
25
 62
7
100
AcDbLine
 10
141.4910335852585
 20
7.544832073707511
 30
0.0
 11
142.339310943161
 21
6.696554715805007
 31
0.0
  0
LINE
  5
9CD
330
1F
100
AcDbEntity
  8
2
  6
CONTINUOUS
370
25
 62
7
100
AcDbLine
 10
141.3849675680805
 20
8.075162159597397
 30
0.0
 11
142.4100216212796
 21
7.050108106398284
 31
0.0
  0
LINE
  5
9CE
330
1F
100
AcDbEntity
  8
2
  6
CONTINUOUS
370
25
 62
7
100
AcDbLine
 10
141.2789015509025
 20
8.605492245487312
 30
0.0
 11
142.4807322993983
 21
7.403661496991532
 31
0.0
  0
LINE
  5
9CF
330
1F
100
AcDbEntity
  8
2
  6
CONTINUOUS
370
25
 62
7
100
AcDbLine
 10
141.1728355337246
 20
9.135822331377199
 30
0.0
 11
142.551442977517
 21
7.757214887584809
 31
0.0
  0
LINE
  5
9D0
330
1F
100
AcDbEntity
  8
2
  6
CONTINUOUS
370
25
 62
7
100
AcDbLine
 10
141.0667695165466
 20
9.666152417267128
 30
0.0
 11
142.6221536556356
 21
8.110768278178085
 31
0.0
  0
LINE
  5
9D1
330
1F
100
AcDbEntity
  8
2
  6
CONTINUOUS
370
25
 62
7
100
AcDbLine
 10
141.1571860025256
 20
10.0
 30
0.0
 11
142.6928643337542
 21
8.464321668771362
 31
0.0
  0
LINE
  5
9D2
330
1F
100
AcDbEntity
  8
2
  6
CONTINUOUS
370
25
 62
7
100
AcDbLine
 10
141.5814500712376
 20
10.0
 30
0.0
 11
142.7635750118729
 21
8.817875059364624
 31
0.0
  0
LINE
  5
9D3
330
1F
100
AcDbEntity
  8
2
  6
CONTINUOUS
370
25
 62
7
100
AcDbLine
 10
142.0057141399495
 20
10.0
 30
0.0
 11
142.8342856899916
 21
9.1714284499579
 31
0.0
  0
LINE
  5
9D4
330
1F
100
AcDbEntity
  8
2
  6
CONTINUOUS
370
25
 62
7
100
AcDbLine
 10
142.4299782086614
 20
10.0
 30
0.0
 11
142.9049963681102
 21
9.524981840551149
 31
0.0
  0
LINE
  5
9D5
330
1F
100
AcDbEntity
  8
2
  6
CONTINUOUS
370
25
 62
7
100
AcDbLine
 10
142.8542422773733
 20
10.0
 30
0.0
 11
142.9757070462289
 21
9.878535231144426
 31
0.0
  0
TEXT
  5
9D6
330
1F
100
AcDbEntity
  8
2
  6
CONTINUOUS
370
25
 62
7
100
AcDbText
 10
140.5
 20
15.95833333333333
 30
0.0
 40
3.5
  1
10
 50
90.00000000000001
 72
     1
 11
140.5
 21
18.0
 31
0.0
100
AcDbText
  0
CIRCLE
  5
9D7
330
1F
100
AcDbEntity
  8
2
  6
CONTINUOUS
370
25
 62
7
100
AcDbCircle
 10
138.75
 20
13.1
 30
0.0
 40
1.4
  0
LINE
  5
9D8
330
1F
100
AcDbEntity
  8
2
  6
CONTINUOUS
370
25
 62
7
100
AcDbLine
 10
140.15
 20
11.7
 30
0.0
 11
137.35
 21
14.5
 31
0.0
  0
LINE
  5
9D9
330
1F
100
AcDbEntity
  8
2
  6
CONTINUOUS
370
25
 62
7
100
AcDbLine
 10
115.0
 20
-3.74995
 30
0.0
 11
112.0
 21
-3.74995
 31
0.0
  0
LINE
  5
9DA
330
1F
100
AcDbEntity
  8
2
  6
CONTINUOUS
370
25
 62
7
100
AcDbLine
 10
112.0
 20
3.749950000000001
 30
0.0
 11
115.0
 21
3.74995
 31
0.0
  0
LINE
  5
9DB
330
1F
100
AcDbEntity
  8
2
  6
CONTINUOUS
370
25
 62
7
100
AcDbLine
 10
113.0
 20
-10.74995
 30
0.0
 11
113.0
 21
23.17495
 31
0.0
  0
LINE
  5
9DC
330
1F
100
AcDbEntity
  8
2
  6
CONTINUOUS
370
25
 62
7
100
AcDbLine
 10
113.0
 20
-3.74995
 30
0.0
 11
114.0
 21
-8.74995
 31
0.0
  0
LINE
  5
9DD
330
1F
100
AcDbEntity
  8
2
  6
CONTINUOUS
370
25
 62
7
100
AcDbLine
 10
114.0
 20
-8.74995
 30
0.0
 11
112.0
 21
-8.74995
 31
0.0
  0
LINE
  5
9DE
330
1F
100
AcDbEntity
  8
2
  6
CONTINUOUS
370
25
 62
7
100
AcDbLine
 10
112.0
 20
-8.74995
 30
0.0
 11
113.0
 21
-3.74995
 31
0.0
  0
LINE
  5
9DF
330
1F
100
AcDbEntity
  8
2
  6
CONTINUOUS
370
25
 62
7
100
AcDbLine
 10
113.6987547870146
 20
-8.749949999999998
 30
0.0
 11
113.9497924645024
 21
-8.498912322512155
 31
0.0
  0
LINE
  5
9E0
330
1F
100
AcDbEntity
  8
2
  6
CONTINUOUS
370
25
 62
7
100
AcDbLine
 10
113.2744907183027
 20
-8.749949999999998
 30
0.0
 11
113.8790817863838
 21
-8.145358931918892
 31
0.0
  0
LINE
  5
9E1
330
1F
100
AcDbEntity
  8
2
  6
CONTINUOUS
370
25
 62
7
100
AcDbLine
 10
112.8502266495908
 20
-8.749949999999998
 30
0.0
 11
113.8083711082651
 21
-7.79180554132563
 31
0.0
  0
LINE
  5
9E2
330
1F
100
AcDbEntity
  8
2
  6
CONTINUOUS
370
25
 62
7
100
AcDbLine
 10
112.4259625808788
 20
-8.749949999999998
 30
0.0
 11
113.7376604301465
 21
-7.438252150732339
 31
0.0
  0
LINE
  5
9E3
330
1F
100
AcDbEntity
  8
2
  6
CONTINUOUS
370
25
 62
7
100
AcDbLine
 10
112.0016985121669
 20
-8.749949999999998
 30
0.0
 11
113.6669497520278
 21
-7.084698760139077
 31
0.0
  0
LINE
  5
9E4
330
1F
100
AcDbEntity
  8
2
  6
CONTINUOUS
370
25
 62
7
100
AcDbLine
 10
112.1056413891363
 20
-8.221743054318708
 30
0.0
 11
113.5962390739092
 21
-6.731145369545814
 31
0.0
  0
LINE
  5
9E5
330
1F
100
AcDbEntity
  8
2
  6
CONTINUOUS
370
25
 62
7
100
AcDbLine
 10
112.2117074063142
 20
-7.691412968428807
 30
0.0
 11
113.5255283957905
 21
-6.377591978952552
 31
0.0
  0
LINE
  5
9E6
330
1F
100
AcDbEntity
  8
2
  6
CONTINUOUS
370
25
 62
7
100
AcDbLine
 10
112.3177734234922
 20
-7.161082882538892
 30
0.0
 11
113.4548177176718
 21
-6.024038588359275
 31
0.0
  0
LINE
  5
9E7
330
1F
100
AcDbEntity
  8
2
  6
CONTINUOUS
370
25
 62
7
100
AcDbLine
 10
112.4238394406702
 20
-6.630752796648991
 30
0.0
 11
113.3841070395532
 21
-5.670485197765998
 31
0.0
  0
LINE
  5
9E8
330
1F
100
AcDbEntity
  8
2
  6
CONTINUOUS
370
25
 62
7
100
AcDbLine
 10
112.5299054578482
 20
-6.100422710759091
 30
0.0
 11
113.3133963614345
 21
-5.316931807172736
 31
0.0
  0
LINE
  5
9E9
330
1F
100
AcDbEntity
  8
2
  6
CONTINUOUS
370
25
 62
7
100
AcDbLine
 10
112.6359714750262
 20
-5.57009262486919
 30
0.0
 11
113.2426856833159
 21
-4.963378416579474
 31
0.0
  0
LINE
  5
9EA
330
1F
100
AcDbEntity
  8
2
  6
CONTINUOUS
370
25
 62
7
100
AcDbLine
 10
112.7420374922041
 20
-5.039762538979275
 30
0.0
 11
113.1719750051972
 21
-4.609825025986183
 31
0.0
  0
LINE
  5
9EB
330
1F
100
AcDbEntity
  8
2
  6
CONTINUOUS
370
25
 62
7
100
AcDbLine
 10
112.8481035093821
 20
-4.509432453089374
 30
0.0
 11
113.1012643270786
 21
-4.25627163539292
 31
0.0
  0
LINE
  5
9EC
330
1F
100
AcDbEntity
  8
2
  6
CONTINUOUS
370
25
 62
7
100
AcDbLine
 10
112.9541695265601
 20
-3.979102367199459
 30
0.0
 11
113.0305536489599
 21
-3.902718244799644
 31
0.0
  0
LINE
  5
9ED
330
1F
100
AcDbEntity
  8
2
  6
CONTINUOUS
370
25
 62
7
100
AcDbLine
 10
112.0649267177983
 20
-8.425316411008623
 30
0.0
 11
112.3895603067897
 21
-8.749949999999998
 31
0.0
  0
LINE
  5
9EE
330
1F
100
AcDbEntity
  8
2
  6
CONTINUOUS
370
25
 62
7
100
AcDbLine
 10
112.1356373959169
 20
-8.071763020415347
 30
0.0
 11
112.8138243755016
 21
-8.749949999999998
 31
0.0
  0
LINE
  5
9EF
330
1F
100
AcDbEntity
  8
2
  6
CONTINUOUS
370
25
 62
7
100
AcDbLine
 10
112.2063480740356
 20
-7.718209629822084
 30
0.0
 11
113.2380884442135
 21
-8.749949999999998
 31
0.0
  0
LINE
  5
9F0
330
1F
100
AcDbEntity
  8
2
  6
CONTINUOUS
370
25
 62
7
100
AcDbLine
 10
112.2770587521542
 20
-7.364656239228808
 30
0.0
 11
113.6623525129254
 21
-8.749949999999998
 31
0.0
  0
LINE
  5
9F1
330
1F
100
AcDbEntity
  8
2
  6
CONTINUOUS
370
25
 62
7
100
AcDbLine
 10
112.3477694302729
 20
-7.011102848635531
 30
0.0
 11
113.9783458545907
 21
-8.641679272953297
 31
0.0
  0
LINE
  5
9F2
330
1F
100
AcDbEntity
  8
2
  6
CONTINUOUS
370
25
 62
7
100
AcDbLine
 10
112.4184801083915
 20
-6.657549458042268
 30
0.0
 11
113.8722798374127
 21
-8.111349187063396
 31
0.0
  0
LINE
  5
9F3
330
1F
100
AcDbEntity
  8
2
  6
CONTINUOUS
370
25
 62
7
100
AcDbLine
 10
112.4891907865102
 20
-6.303996067448992
 30
0.0
 11
113.7662138202347
 21
-7.581019101173482
 31
0.0
  0
LINE
  5
9F4
330
1F
100
AcDbEntity
  8
2
  6
CONTINUOUS
370
25
 62
7
100
AcDbLine
 10
112.5599014646289
 20
-5.950442676855729
 30
0.0
 11
113.6601478030567
 21
-7.050689015283567
 31
0.0
  0
LINE
  5
9F5
330
1F
100
AcDbEntity
  8
2
  6
CONTINUOUS
370
25
 62
7
100
AcDbLine
 10
112.6306121427475
 20
-5.596889286262453
 30
0.0
 11
113.5540817858787
 21
-6.52035892939368
 31
0.0
  0
LINE
  5
9F6
330
1F
100
AcDbEntity
  8
2
  6
CONTINUOUS
370
25
 62
7
100
AcDbLine
 10
112.7013228208662
 20
-5.24333589566919
 30
0.0
 11
113.4480157687007
 21
-5.990028843503765
 31
0.0
  0
LINE
  5
9F7
330
1F
100
AcDbEntity
  8
2
  6
CONTINUOUS
370
25
 62
7
100
AcDbLine
 10
112.7720334989848
 20
-4.889782505075914
 30
0.0
 11
113.3419497515228
 21
-5.459698757613864
 31
0.0
  0
LINE
  5
9F8
330
1F
100
AcDbEntity
  8
2
  6
CONTINUOUS
370
25
 62
7
100
AcDbLine
 10
112.8427441771035
 20
-4.536229114482651
 30
0.0
 11
113.2358837343448
 21
-4.929368671723964
 31
0.0
  0
LINE
  5
9F9
330
1F
100
AcDbEntity
  8
2
  6
CONTINUOUS
370
25
 62
7
100
AcDbLine
 10
112.9134548552221
 20
-4.182675723889375
 30
0.0
 11
113.1298177171668
 21
-4.399038585834063
 31
0.0
  0
LINE
  5
9FA
330
1F
100
AcDbEntity
  8
2
  6
CONTINUOUS
370
25
 62
7
100
AcDbLine
 10
112.9841655333408
 20
-3.829122333296098
 30
0.0
 11
113.0237516999888
 21
-3.868708499944148
 31
0.0
  0
LINE
  5
9FB
330
1F
100
AcDbEntity
  8
2
  6
CONTINUOUS
370
25
 62
7
100
AcDbLine
 10
113.0
 20
3.749950000000001
 30
0.0
 11
112.0
 21
8.74995
 31
0.0
  0
LINE
  5
9FC
330
1F
100
AcDbEntity
  8
2
  6
CONTINUOUS
370
25
 62
7
100
AcDbLine
 10
112.0
 20
8.74995
 30
0.0
 11
114.0
 21
8.74995
 31
0.0
  0
LINE
  5
9FD
330
1F
100
AcDbEntity
  8
2
  6
CONTINUOUS
370
25
 62
7
100
AcDbLine
 10
114.0
 20
8.74995
 30
0.0
 11
113.0
 21
3.749950000000001
 31
0.0
  0
LINE
  5
9FE
330
1F
100
AcDbEntity
  8
2
  6
CONTINUOUS
370
25
 62
7
100
AcDbLine
 10
112.9423307737061
 20
4.038296131469522
 30
0.0
 11
113.0865038394409
 21
4.182469197204298
 31
0.0
  0
LINE
  5
9FF
330
1F
100
AcDbEntity
  8
2
  6
CONTINUOUS
370
25
 62
7
100
AcDbLine
 10
112.8716200955874
 20
4.391849522062799
 30
0.0
 11
113.1925698566188
 21
4.712799283094185
 31
0.0
  0
LINE
  5
A00
330
1F
100
AcDbEntity
  8
2
  6
CONTINUOUS
370
25
 62
7
100
AcDbLine
 10
112.8009094174688
 20
4.745402912656061
 30
0.0
 11
113.2986358737968
 21
5.243129368984086
 31
0.0
  0
LINE
  5
A01
330
1F
100
AcDbEntity
  8
2
  6
CONTINUOUS
370
25
 62
7
100
AcDbLine
 10
112.7301987393501
 20
5.098956303249338
 30
0.0
 11
113.4047018909748
 21
5.773459454873986
 31
0.0
  0
LINE
  5
A02
330
1F
100
AcDbEntity
  8
2
  6
CONTINUOUS
370
25
 62
7
100
AcDbLine
 10
112.6594880612315
 20
5.452509693842615
 30
0.0
 11
113.5107679081528
 21
6.303789540763901
 31
0.0
  0
LINE
  5
A03
330
1F
100
AcDbEntity
  8
2
  6
CONTINUOUS
370
25
 62
7
100
AcDbLine
 10
112.5887773831128
 20
5.806063084435877
 30
0.0
 11
113.6168339253308
 21
6.834119626653816
 31
0.0
  0
LINE
  5
A04
330
1F
100
AcDbEntity
  8
2
  6
CONTINUOUS
370
25
 62
7
100
AcDbLine
 10
112.5180667049942
 20
6.159616475029154
 30
0.0
 11
113.7228999425087
 21
7.364449712543703
 31
0.0
  0
LINE
  5
A05
330
1F
100
AcDbEntity
  8
2
  6
CONTINUOUS
370
25
 62
7
100
AcDbLine
 10
112.4473560268755
 20
6.513169865622402
 30
0.0
 11
113.8289659596867
 21
7.894779798433618
 31
0.0
  0
LINE
  5
A06
330
1F
100
AcDbEntity
  8
2
  6
CONTINUOUS
370
25
 62
7
100
AcDbLine
 10
112.3766453487569
 20
6.866723256215693
 30
0.0
 11
113.9350319768647
 21
8.425109884323533
 31
0.0
  0
LINE
  5
A07
330
1F
100
AcDbEntity
  8
2
  6
CONTINUOUS
370
25
 62
7
100
AcDbLine
 10
112.3059346706382
 20
7.220276646808955
 30
0.0
 11
113.8356080238293
 21
8.749949999999998
 31
0.0
  0
LINE
  5
A08
330
1F
100
AcDbEntity
  8
2
  6
CONTINUOUS
370
25
 62
7
100
AcDbLine
 10
112.2352239925196
 20
7.573830037402217
 30
0.0
 11
113.4113439551173
 21
8.749949999999998
 31
0.0
  0
LINE
  5
A09
330
1F
100
AcDbEntity
  8
2
  6
CONTINUOUS
370
25
 62
7
100
AcDbLine
 10
112.1645133144009
 20
7.927383427995508
 30
0.0
 11
112.9870798864054
 21
8.749949999999998
 31
0.0
  0
LINE
  5
A0A
330
1F
100
AcDbEntity
  8
2
  6
CONTINUOUS
370
25
 62
7
100
AcDbLine
 10
112.0938026362822
 20
8.28093681858877
 30
0.0
 11
112.5628158176935
 21
8.749949999999998
 31
0.0
  0
LINE
  5
A0B
330
1F
100
AcDbEntity
  8
2
  6
CONTINUOUS
370
25
 62
7
100
AcDbLine
 10
112.0230919581636
 20
8.634490209182019
 30
0.0
 11
112.1385517489816
 21
8.749949999999998
 31
0.0
  0
LINE
  5
A0C
330
1F
100
AcDbEntity
  8
2
  6
CONTINUOUS
370
25
 62
7
100
AcDbLine
 10
112.9895383907852
 20
3.802258046074144
 30
0.0
 11
113.0069744061432
 21
3.7848220307161
 31
0.0
  0
LINE
  5
A0D
330
1F
100
AcDbEntity
  8
2
  6
CONTINUOUS
370
25
 62
7
100
AcDbLine
 10
112.8834723736072
 20
4.332588131964059
 30
0.0
 11
113.0776850842619
 21
4.138375421309377
 31
0.0
  0
LINE
  5
A0E
330
1F
100
AcDbEntity
  8
2
  6
CONTINUOUS
370
25
 62
7
100
AcDbLine
 10
112.7774063564292
 20
4.862918217853959
 30
0.0
 11
113.1483957623805
 21
4.491928811902639
 31
0.0
  0
LINE
  5
A0F
330
1F
100
AcDbEntity
  8
2
  6
CONTINUOUS
370
25
 62
7
100
AcDbLine
 10
112.6713403392512
 20
5.393248303743874
 30
0.0
 11
113.2191064404992
 21
4.84548220249593
 31
0.0
  0
LINE
  5
A10
330
1F
100
AcDbEntity
  8
2
  6
CONTINUOUS
370
25
 62
7
100
AcDbLine
 10
112.5652743220733
 20
5.923578389633789
 30
0.0
 11
113.2898171186178
 21
5.199035593089206
 31
0.0
  0
LINE
  5
A11
330
1F
100
AcDbEntity
  8
2
  6
CONTINUOUS
370
25
 62
7
100
AcDbLine
 10
112.4592083048953
 20
6.45390847552369
 30
0.0
 11
113.3605277967365
 21
5.552588983682469
 31
0.0
  0
LINE
  5
A12
330
1F
100
AcDbEntity
  8
2
  6
CONTINUOUS
370
25
 62
7
100
AcDbLine
 10
112.3531422877173
 20
6.984238561413591
 30
0.0
 11
113.4312384748551
 21
5.906142374275746
 31
0.0
  0
LINE
  5
A13
330
1F
100
AcDbEntity
  8
2
  6
CONTINUOUS
370
25
 62
7
100
AcDbLine
 10
112.2470762705393
 20
7.514568647303506
 30
0.0
 11
113.5019491529738
 21
6.259695764868994
 31
0.0
  0
LINE
  5
A14
330
1F
100
AcDbEntity
  8
2
  6
CONTINUOUS
370
25
 62
7
100
AcDbLine
 10
112.1410102533613
 20
8.04489873319342
 30
0.0
 11
113.5726598310925
 21
6.61324915546227
 31
0.0
  0
LINE
  5
A15
330
1F
100
AcDbEntity
  8
2
  6
CONTINUOUS
370
25
 62
7
100
AcDbLine
 10
112.0349442361833
 20
8.575228819083321
 30
0.0
 11
113.6433705092111
 21
6.966802546055547
 31
0.0
  0
LINE
  5
A16
330
1F
100
AcDbEntity
  8
2
  6
CONTINUOUS
370
25
 62
7
100
AcDbLine
 10
112.2844871239786
 20
8.749949999999998
 30
0.0
 11
113.7140811873298
 21
7.320355936648795
 31
0.0
  0
LINE
  5
A17
330
1F
100
AcDbEntity
  8
2
  6
CONTINUOUS
370
25
 62
7
100
AcDbLine
 10
112.7087511926905
 20
8.749949999999998
 30
0.0
 11
113.7847918654484
 21
7.673909327242072
 31
0.0
  0
LINE
  5
A18
330
1F
100
AcDbEntity
  8
2
  6
CONTINUOUS
370
25
 62
7
100
AcDbLine
 10
113.1330152614024
 20
8.749949999999998
 30
0.0
 11
113.8555025435671
 21
8.027462717835334
 31
0.0
  0
LINE
  5
A19
330
1F
100
AcDbEntity
  8
2
  6
CONTINUOUS
370
25
 62
7
100
AcDbLine
 10
113.5572793301143
 20
8.749949999999998
 30
0.0
 11
113.9262132216857
 21
8.38101610842861
 31
0.0
  0
LINE
  5
A1A
330
1F
100
AcDbEntity
  8
2
  6
CONTINUOUS
370
25
 62
7
100
AcDbLine
 10
113.9815433988263
 20
8.749949999999998
 30
0.0
 11
113.9969238998044
 21
8.734569499021873
 31
0.0
  0
TEXT
  5
A1B
330
1F
100
AcDbEntity
  8
2
  6
CONTINUOUS
370
25
 62
7
100
AcDbText
 10
111.5
 20
14.73745
 30
0.0
 40
3.5
  1
7.5
 50
90.00000000000001
 72
     1
 11
111.5
 21
18.23745
 31
0.0
100
AcDbText
  0
CIRCLE
  5
A1C
330
1F
100
AcDbEntity
  8
2
  6
CONTINUOUS
370
25
 62
7
100
AcDbCircle
 10
109.75
 20
11.76245
 30
0.0
 40
1.4
  0
LINE
  5
A1D
330
1F
100
AcDbEntity
  8
2
  6
CONTINUOUS
370
25
 62
7
100
AcDbLine
 10
111.15
 20
10.36245
 30
0.0
 11
108.35
 21
13.16245
 31
0.0
  0
LINE
  5
A1E
330
1F
100
AcDbEntity
  8
2
  6
CONTINUOUS
370
25
 62
7
100
AcDbLine
 10
115.0
 20
-5.0
 30
0.0
 11
115.0
 21
-18.0
 31
0.0
  0
LINE
  5
A1F
330
1F
100
AcDbEntity
  8
2
  6
CONTINUOUS
370
25
 62
7
100
AcDbLine
 10
130.0
 20
-18.0
 30
0.0
 11
130.0
 21
-5.0
 31
0.0
  0
LINE
  5
A20
330
1F
100
AcDbEntity
  8
2
  6
CONTINUOUS
370
25
 62
7
100
AcDbLine
 10
108.0
 20
-17.0
 30
0.0
 11
137.0
 21
-17.0
 31
0.0
  0
LINE
  5
A21
330
1F
100
AcDbEntity
  8
2
  6
CONTINUOUS
370
25
 62
7
100
AcDbLine
 10
115.0
 20
-17.0
 30
0.0
 11
110.0
 21
-18.0
 31
0.0
  0
LINE
  5
A22
330
1F
100
AcDbEntity
  8
2
  6
CONTINUOUS
370
25
 62
7
100
AcDbLine
 10
110.0
 20
-18.0
 30
0.0
 11
110.0
 21
-16.0
 31
0.0
  0
LINE
  5
A23
330
1F
100
AcDbEntity
  8
2
  6
CONTINUOUS
370
25
 62
7
100
AcDbLine
 10
110.0
 20
-16.0
 30
0.0
 11
115.0
 21
-17.0
 31
0.0
  0
LINE
  5
A24
330
1F
100
AcDbEntity
  8
2
  6
CONTINUOUS
370
25
 62
7
100
AcDbLine
 10
114.8974237506306
 20
-17.02051524987388
 30
0.0
 11
114.9316158337537
 21
-16.98632316675075
 31
0.0
  0
LINE
  5
A25
330
1F
100
AcDbEntity
  8
2
  6
CONTINUOUS
370
25
 62
7
100
AcDbLine
 10
114.3670936647406
 20
-17.12658126705188
 30
0.0
 11
114.5780624431604
 21
-16.91561248863209
 31
0.0
  0
LINE
  5
A26
330
1F
100
AcDbEntity
  8
2
  6
CONTINUOUS
370
25
 62
7
100
AcDbLine
 10
113.8367635788507
 20
-17.23264728422986
 30
0.0
 11
114.2245090525671
 21
-16.84490181051343
 31
0.0
  0
LINE
  5
A27
330
1F
100
AcDbEntity
  8
2
  6
CONTINUOUS
370
25
 62
7
100
AcDbLine
 10
113.3064334929608
 20
-17.33871330140784
 30
0.0
 11
113.8709556619739
 21
-16.77419113239478
 31
0.0
  0
LINE
  5
A28
330
1F
100
AcDbEntity
  8
2
  6
CONTINUOUS
370
25
 62
7
100
AcDbLine
 10
112.7761034070709
 20
-17.44477931858582
 30
0.0
 11
113.5174022713806
 21
-16.70348045427613
 31
0.0
  0
LINE
  5
A29
330
1F
100
AcDbEntity
  8
2
  6
CONTINUOUS
370
25
 62
7
100
AcDbLine
 10
112.245773321181
 20
-17.5508453357638
 30
0.0
 11
113.1638488807873
 21
-16.63276977615747
 31
0.0
  0
LINE
  5
A2A
330
1F
100
AcDbEntity
  8
2
  6
CONTINUOUS
370
25
 62
7
100
AcDbLine
 10
111.7154432352911
 20
-17.65691135294178
 30
0.0
 11
112.8102954901941
 21
-16.56205909803882
 31
0.0
  0
LINE
  5
A2B
330
1F
100
AcDbEntity
  8
2
  6
CONTINUOUS
370
25
 62
7
100
AcDbLine
 10
111.1851131494012
 20
-17.76297737011976
 30
0.0
 11
112.4567420996008
 21
-16.49134841992017
 31
0.0
  0
LINE
  5
A2C
330
1F
100
AcDbEntity
  8
2
  6
CONTINUOUS
370
25
 62
7
100
AcDbLine
 10
110.6547830635113
 20
-17.86904338729774
 30
0.0
 11
112.1031887090075
 21
-16.42063774180151
 31
0.0
  0
LINE
  5
A2D
330
1F
100
AcDbEntity
  8
2
  6
CONTINUOUS
370
25
 62
7
100
AcDbLine
 10
110.1244529776214
 20
-17.97510940447572
 30
0.0
 11
111.7496353184142
 21
-16.34992706368286
 31
0.0
  0
LINE
  5
A2E
330
1F
100
AcDbEntity
  8
2
  6
CONTINUOUS
370
25
 62
7
100
AcDbLine
 10
110.0
 20
-17.67529831338518
 30
0.0
 11
111.396081927821
 21
-16.2792163855642
 31
0.0
  0
LINE
  5
A2F
330
1F
100
AcDbEntity
  8
2
  6
CONTINUOUS
370
25
 62
7
100
AcDbLine
 10
110.0
 20
-17.25103424467326
 30
0.0
 11
111.0425285372277
 21
-16.20850570744555
 31
0.0
  0
LINE
  5
A30
330
1F
100
AcDbEntity
  8
2
  6
CONTINUOUS
370
25
 62
7
100
AcDbLine
 10
110.0
 20
-16.82677017596133
 30
0.0
 11
110.6889751466344
 21
-16.1377950293269
 31
0.0
  0
LINE
  5
A31
330
1F
100
AcDbEntity
  8
2
  6
CONTINUOUS
370
25
 62
7
100
AcDbLine
 10
110.0
 20
-16.40250610724941
 30
0.0
 11
110.3354217560412
 21
-16.06708435120824
 31
0.0
  0
LINE
  5
A32
330
1F
100
AcDbEntity
  8
2
  6
CONTINUOUS
370
25
 62
7
100
AcDbLine
 10
110.0
 20
-17.81551954843237
 30
0.0
 11
110.1537337096397
 21
-17.96925325807205
 31
0.0
  0
LINE
  5
A33
330
1F
100
AcDbEntity
  8
2
  6
CONTINUOUS
370
25
 62
7
100
AcDbLine
 10
110.0
 20
-17.39125547972044
 30
0.0
 11
110.507287100233
 21
-17.8985425799534
 31
0.0
  0
LINE
  5
A34
330
1F
100
AcDbEntity
  8
2
  6
CONTINUOUS
370
25
 62
7
100
AcDbLine
 10
110.0
 20
-16.96699141100852
 30
0.0
 11
110.8608404908262
 21
-17.82783190183474
 31
0.0
  0
LINE
  5
A35
330
1F
100
AcDbEntity
  8
2
  6
CONTINUOUS
370
25
 62
7
100
AcDbLine
 10
110.0
 20
-16.5427273422966
 30
0.0
 11
111.2143938814195
 21
-17.7571212237161
 31
0.0
  0
LINE
  5
A36
330
1F
100
AcDbEntity
  8
2
  6
CONTINUOUS
370
25
 62
7
100
AcDbLine
 10
110.0
 20
-16.11846327358467
 30
0.0
 11
111.5679472720128
 21
-17.68641054559745
 31
0.0
  0
LINE
  5
A37
330
1F
100
AcDbEntity
  8
2
  6
CONTINUOUS
370
25
 62
7
100
AcDbLine
 10
110.3822509939091
 20
-16.07645019878181
 30
0.0
 11
111.921500662606
 21
-17.61569986747878
 31
0.0
  0
LINE
  5
A38
330
1F
100
AcDbEntity
  8
2
  6
CONTINUOUS
370
25
 62
7
100
AcDbLine
 10
110.912581079799
 20
-16.18251621595979
 30
0.0
 11
112.2750540531993
 21
-17.54498918936014
 31
0.0
  0
LINE
  5
A39
330
1F
100
AcDbEntity
  8
2
  6
CONTINUOUS
370
25
 62
7
100
AcDbLine
 10
111.4429111656889
 20
-16.28858223313777
 30
0.0
 11
112.6286074437926
 21
-17.47427851124148
 31
0.0
  0
LINE
  5
A3A
330
1F
100
AcDbEntity
  8
2
  6
CONTINUOUS
370
25
 62
7
100
AcDbLine
 10
111.9732412515788
 20
-16.39464825031576
 30
0.0
 11
112.9821608343858
 21
-17.40356783312281
 31
0.0
  0
LINE
  5
A3B
330
1F
100
AcDbEntity
  8
2
  6
CONTINUOUS
370
25
 62
7
100
AcDbLine
 10
112.5035713374687
 20
-16.50071426749375
 30
0.0
 11
113.3357142249791
 21
-17.33285715500418
 31
0.0
  0
LINE
  5
A3C
330
1F
100
AcDbEntity
  8
2
  6
CONTINUOUS
370
25
 62
7
100
AcDbLine
 10
113.0339014233586
 20
-16.60678028467173
 30
0.0
 11
113.6892676155724
 21
-17.26214647688552
 31
0.0
  0
LINE
  5
A3D
330
1F
100
AcDbEntity
  8
2
  6
CONTINUOUS
370
25
 62
7
100
AcDbLine
 10
113.5642315092485
 20
-16.71284630184971
 30
0.0
 11
114.0428210061657
 21
-17.19143579876686
 31
0.0
  0
LINE
  5
A3E
330
1F
100
AcDbEntity
  8
2
  6
CONTINUOUS
370
25
 62
7
100
AcDbLine
 10
114.0945615951384
 20
-16.81891231902768
 30
0.0
 11
114.3963743967589
 21
-17.12072512064821
 31
0.0
  0
LINE
  5
A3F
330
1F
100
AcDbEntity
  8
2
  6
CONTINUOUS
370
25
 62
7
100
AcDbLine
 10
114.6248916810283
 20
-16.92497833620567
 30
0.0
 11
114.7499277873522
 21
-17.05001444252956
 31
0.0
  0
LINE
  5
A40
330
1F
100
AcDbEntity
  8
2
  6
CONTINUOUS
370
25
 62
7
100
AcDbLine
 10
130.0
 20
-17.0
 30
0.0
 11
135.0
 21
-16.0
 31
0.0
  0
LINE
  5
A41
330
1F
100
AcDbEntity
  8
2
  6
CONTINUOUS
370
25
 62
7
100
AcDbLine
 10
135.0
 20
-16.0
 30
0.0
 11
135.0
 21
-18.0
 31
0.0
  0
LINE
  5
A42
330
1F
100
AcDbEntity
  8
2
  6
CONTINUOUS
370
25
 62
7
100
AcDbLine
 10
135.0
 20
-18.0
 30
0.0
 11
130.0
 21
-17.0
 31
0.0
  0
LINE
  5
A43
330
1F
100
AcDbEntity
  8
2
  6
CONTINUOUS
370
25
 62
7
100
AcDbLine
 10
134.8550465903896
 20
-17.97100931807793
 30
0.0
 11
135.0
 21
-17.82605590846754
 31
0.0
  0
LINE
  5
A44
330
1F
100
AcDbEntity
  8
2
  6
CONTINUOUS
370
25
 62
7
100
AcDbLine
 10
134.5014931997964
 20
-17.90029863995927
 30
0.0
 11
135.0
 21
-17.40179183975562
 31
0.0
  0
LINE
  5
A45
330
1F
100
AcDbEntity
  8
2
  6
CONTINUOUS
370
25
 62
7
100
AcDbLine
 10
134.1479398092031
 20
-17.82958796184063
 30
0.0
 11
135.0
 21
-16.9775277710437
 31
0.0
  0
LINE
  5
A46
330
1F
100
AcDbEntity
  8
2
  6
CONTINUOUS
370
25
 62
7
100
AcDbLine
 10
133.7943864186098
 20
-17.75887728372197
 30
0.0
 11
135.0
 21
-16.55326370233178
 31
0.0
  0
LINE
  5
A47
330
1F
100
AcDbEntity
  8
2
  6
CONTINUOUS
370
25
 62
7
100
AcDbLine
 10
133.4408330280165
 20
-17.68816660560331
 30
0.0
 11
135.0
 21
-16.12899963361986
 31
0.0
  0
LINE
  5
A48
330
1F
100
AcDbEntity
  8
2
  6
CONTINUOUS
370
25
 62
7
100
AcDbLine
 10
133.0872796374233
 20
-17.61745592748467
 30
0.0
 11
134.6309194561349
 21
-16.07381610877302
 31
0.0
  0
LINE
  5
A49
330
1F
100
AcDbEntity
  8
2
  6
CONTINUOUS
370
25
 62
7
100
AcDbLine
 10
132.73372624683
 20
-17.54674524936601
 30
0.0
 11
134.100589370245
 21
-16.179882125951
 31
0.0
  0
LINE
  5
A4A
330
1F
100
AcDbEntity
  8
2
  6
CONTINUOUS
370
25
 62
7
100
AcDbLine
 10
132.3801728562367
 20
-17.47603457124735
 30
0.0
 11
133.5702592843551
 21
-16.28594814312898
 31
0.0
  0
LINE
  5
A4B
330
1F
100
AcDbEntity
  8
2
  6
CONTINUOUS
370
25
 62
7
100
AcDbLine
 10
132.0266194656434
 20
-17.4053238931287
 30
0.0
 11
133.0399291984652
 21
-16.39201416030696
 31
0.0
  0
LINE
  5
A4C
330
1F
100
AcDbEntity
  8
2
  6
CONTINUOUS
370
25
 62
7
100
AcDbLine
 10
131.6730660750502
 20
-17.33461321501005
 30
0.0
 11
132.5095991125753
 21
-16.49808017748494
 31
0.0
  0
LINE
  5
A4D
330
1F
100
AcDbEntity
  8
2
  6
CONTINUOUS
370
25
 62
7
100
AcDbLine
 10
131.3195126844569
 20
-17.26390253689139
 30
0.0
 11
131.9792690266854
 21
-16.60414619466292
 31
0.0
  0
LINE
  5
A4E
330
1F
100
AcDbEntity
  8
2
  6
CONTINUOUS
370
25
 62
7
100
AcDbLine
 10
130.9659592938636
 20
-17.19319185877274
 30
0.0
 11
131.4489389407955
 21
-16.7102122118409
 31
0.0
  0
LINE
  5
A4F
330
1F
100
AcDbEntity
  8
2
  6
CONTINUOUS
370
25
 62
7
100
AcDbLine
 10
130.6124059032704
 20
-17.12248118065409
 30
0.0
 11
130.9186088549056
 21
-16.81627822901889
 31
0.0
  0
LINE
  5
A50
330
1F
100
AcDbEntity
  8
2
  6
CONTINUOUS
370
25
 62
7
100
AcDbLine
 10
130.2588525126771
 20
-17.05177050253543
 30
0.0
 11
130.3882787690156
 21
-16.92234424619687
 31
0.0
  0
LINE
  5
A51
330
1F
100
AcDbEntity
  8
2
  6
CONTINUOUS
370
25
 62
7
100
AcDbLine
 10
130.3314032393035
 20
-16.93371935213931
 30
0.0
 11
130.4971048589552
 21
-17.09942097179105
 31
0.0
  0
LINE
  5
A52
330
1F
100
AcDbEntity
  8
2
  6
CONTINUOUS
370
25
 62
7
100
AcDbLine
 10
130.6849566298967
 20
-16.86300867402065
 30
0.0
 11
131.0274349448451
 21
-17.20548698896903
 31
0.0
  0
LINE
  5
A53
330
1F
100
AcDbEntity
  8
2
  6
CONTINUOUS
370
25
 62
7
100
AcDbLine
 10
131.03851002049
 20
-16.79229799590199
 30
0.0
 11
131.557765030735
 21
-17.31155300614701
 31
0.0
  0
LINE
  5
A54
330
1F
100
AcDbEntity
  8
2
  6
CONTINUOUS
370
25
 62
7
100
AcDbLine
 10
131.3920634110833
 20
-16.72158731778335
 30
0.0
 11
132.0880951166249
 21
-17.41761902332499
 31
0.0
  0
LINE
  5
A55
330
1F
100
AcDbEntity
  8
2
  6
CONTINUOUS
370
25
 62
7
100
AcDbLine
 10
131.7456168016765
 20
-16.65087663966469
 30
0.0
 11
132.6184252025148
 21
-17.52368504050297
 31
0.0
  0
LINE
  5
A56
330
1F
100
AcDbEntity
  8
2
  6
CONTINUOUS
370
25
 62
7
100
AcDbLine
 10
132.0991701922698
 20
-16.58016596154603
 30
0.0
 11
133.1487552884047
 21
-17.62975105768095
 31
0.0
  0
LINE
  5
A57
330
1F
100
AcDbEntity
  8
2
  6
CONTINUOUS
370
25
 62
7
100
AcDbLine
 10
132.4527235828631
 20
-16.50945528342739
 30
0.0
 11
133.6790853742946
 21
-17.73581707485893
 31
0.0
  0
LINE
  5
A58
330
1F
100
AcDbEntity
  8
2
  6
CONTINUOUS
370
25
 62
7
100
AcDbLine
 10
132.8062769734563
 20
-16.43874460530873
 30
0.0
 11
134.2094154601845
 21
-17.84188309203691
 31
0.0
  0
LINE
  5
A59
330
1F
100
AcDbEntity
  8
2
  6
CONTINUOUS
370
25
 62
7
100
AcDbLine
 10
133.1598303640496
 20
-16.36803392719007
 30
0.0
 11
134.7397455460745
 21
-17.9479491092149
 31
0.0
  0
LINE
  5
A5A
330
1F
100
AcDbEntity
  8
2
  6
CONTINUOUS
370
25
 62
7
100
AcDbLine
 10
133.5133837546429
 20
-16.29732324907143
 30
0.0
 11
135.0
 21
-17.78393949442854
 31
0.0
  0
LINE
  5
A5B
330
1F
100
AcDbEntity
  8
2
  6
CONTINUOUS
370
25
 62
7
100
AcDbLine
 10
133.8669371452361
 20
-16.22661257095277
 30
0.0
 11
135.0
 21
-17.35967542571662
 31
0.0
  0
LINE
  5
A5C
330
1F
100
AcDbEntity
  8
2
  6
CONTINUOUS
370
25
 62
7
100
AcDbLine
 10
134.2204905358294
 20
-16.15590189283411
 30
0.0
 11
135.0
 21
-16.9354113570047
 31
0.0
  0
LINE
  5
A5D
330
1F
100
AcDbEntity
  8
2
  6
CONTINUOUS
370
25
 62
7
100
AcDbLine
 10
134.5740439264227
 20
-16.08519121471546
 30
0.0
 11
135.0
 21
-16.51114728829278
 31
0.0
  0
LINE
  5
A5E
330
1F
100
AcDbEntity
  8
2
  6
CONTINUOUS
370
25
 62
7
100
AcDbLine
 10
134.927597317016
 20
-16.01448053659681
 30
0.0
 11
135.0
 21
-16.08688321958084
 31
0.0
  0
TEXT
  5
A5F
330
1F
100
AcDbEntity
  8
2
  6
CONTINUOUS
370
25
 62
7
100
AcDbText
 10
120.1666666666667
 20
-15.5
 30
0.0
 40
3.5
  1
15
 72
     1
 11
122.5
 21
-15.5
 31
0.0
100
AcDbText
  0
LINE
  5
A60
330
1F
100
AcDbEntity
  8
2
  6
CONTINUOUS
370
25
 62
7
100
AcDbLine
 10
40.0
 20
0.0
 30
0.0
 11
40.0
 21
28.425
 31
0.0
  0
LINE
  5
A61
330
1F
100
AcDbEntity
  8
2
  6
CONTINUOUS
370
25
 62
7
100
AcDbLine
 10
130.0
 20
28.425
 30
0.0
 11
130.0
 21
5.0
 31
0.0
  0
LINE
  5
A62
330
1F
100
AcDbEntity
  8
2
  6
CONTINUOUS
370
25
 62
7
100
AcDbLine
 10
40.0
 20
27.425
 30
0.0
 11
130.0
 21
27.425
 31
0.0
  0
LINE
  5
A63
330
1F
100
AcDbEntity
  8
2
  6
CONTINUOUS
370
25
 62
7
100
AcDbLine
 10
40.0
 20
27.425
 30
0.0
 11
45.0
 21
28.425
 31
0.0
  0
LINE
  5
A64
330
1F
100
AcDbEntity
  8
2
  6
CONTINUOUS
370
25
 62
7
100
AcDbLine
 10
45.0
 20
28.425
 30
0.0
 11
45.0
 21
26.425
 31
0.0
  0
LINE
  5
A65
330
1F
100
AcDbEntity
  8
2
  6
CONTINUOUS
370
25
 62
7
100
AcDbLine
 10
45.0
 20
26.425
 30
0.0
 11
40.0
 21
27.425
 31
0.0
  0
LINE
  5
A66
330
1F
100
AcDbEntity
  8
2
  6
CONTINUOUS
370
25
 62
7
100
AcDbLine
 10
44.82294374640974
 20
26.46041125071805
 30
0.0
 11
45.0
 21
26.63746750430831
 31
0.0
  0
LINE
  5
A67
330
1F
100
AcDbEntity
  8
2
  6
CONTINUOUS
370
25
 62
7
100
AcDbLine
 10
44.46939035581647
 20
26.5311219288367
 30
0.0
 11
45.0
 21
27.06173157302024
 31
0.0
  0
LINE
  5
A68
330
1F
100
AcDbEntity
  8
2
  6
CONTINUOUS
370
25
 62
7
100
AcDbLine
 10
44.1158369652232
 20
26.60183260695536
 30
0.0
 11
45.0
 21
27.48599564173217
 31
0.0
  0
LINE
  5
A69
330
1F
100
AcDbEntity
  8
2
  6
CONTINUOUS
370
25
 62
7
100
AcDbLine
 10
43.76228357462993
 20
26.67254328507402
 30
0.0
 11
45.0
 21
27.91025971044409
 31
0.0
  0
LINE
  5
A6A
330
1F
100
AcDbEntity
  8
2
  6
CONTINUOUS
370
25
 62
7
100
AcDbLine
 10
43.40873018403665
 20
26.74325396319267
 30
0.0
 11
45.0
 21
28.33452377915602
 31
0.0
  0
LINE
  5
A6B
330
1F
100
AcDbEntity
  8
2
  6
CONTINUOUS
370
25
 62
7
100
AcDbLine
 10
43.05517679344337
 20
26.81396464131133
 30
0.0
 11
44.58276519016506
 21
28.34155303803301
 31
0.0
  0
LINE
  5
A6C
330
1F
100
AcDbEntity
  8
2
  6
CONTINUOUS
370
25
 62
7
100
AcDbLine
 10
42.7016234028501
 20
26.88467531942998
 30
0.0
 11
44.05243510427515
 21
28.23548702085503
 31
0.0
  0
LINE
  5
A6D
330
1F
100
AcDbEntity
  8
2
  6
CONTINUOUS
370
25
 62
7
100
AcDbLine
 10
42.34807001225683
 20
26.95538599754864
 30
0.0
 11
43.52210501838524
 21
28.12942100367705
 31
0.0
  0
LINE
  5
A6E
330
1F
100
AcDbEntity
  8
2
  6
CONTINUOUS
370
25
 62
7
100
AcDbLine
 10
41.99451662166356
 20
27.02609667566729
 30
0.0
 11
42.99177493249533
 21
28.02335498649907
 31
0.0
  0
LINE
  5
A6F
330
1F
100
AcDbEntity
  8
2
  6
CONTINUOUS
370
25
 62
7
100
AcDbLine
 10
41.64096323107028
 20
27.09680735378594
 30
0.0
 11
42.46144484660542
 21
27.91728896932108
 31
0.0
  0
LINE
  5
A70
330
1F
100
AcDbEntity
  8
2
  6
CONTINUOUS
370
25
 62
7
100
AcDbLine
 10
41.28740984047701
 20
27.1675180319046
 30
0.0
 11
41.93111476071551
 21
27.8112229521431
 31
0.0
  0
LINE
  5
A71
330
1F
100
AcDbEntity
  8
2
  6
CONTINUOUS
370
25
 62
7
100
AcDbLine
 10
40.93385644988373
 20
27.23822871002325
 30
0.0
 11
41.40078467482559
 21
27.70515693496512
 31
0.0
  0
LINE
  5
A72
330
1F
100
AcDbEntity
  8
2
  6
CONTINUOUS
370
25
 62
7
100
AcDbLine
 10
40.58030305929046
 20
27.30893938814191
 30
0.0
 11
40.87045458893569
 21
27.59909091778714
 31
0.0
  0
LINE
  5
A73
330
1F
100
AcDbEntity
  8
2
  6
CONTINUOUS
370
25
 62
7
100
AcDbLine
 10
40.22674966869718
 20
27.37965006626056
 30
0.0
 11
40.34012450304577
 21
27.49302490060915
 31
0.0
  0
LINE
  5
A74
330
1F
100
AcDbEntity
  8
2
  6
CONTINUOUS
370
25
 62
7
100
AcDbLine
 10
40.1268037218961
 20
27.45036074437922
 30
0.0
 11
40.19020558284414
 21
27.38695888343117
 31
0.0
  0
LINE
  5
A75
330
1F
100
AcDbEntity
  8
2
  6
CONTINUOUS
370
25
 62
7
100
AcDbLine
 10
40.48035711248937
 20
27.52107142249788
 30
0.0
 11
40.72053566873405
 21
27.28089286625319
 31
0.0
  0
LINE
  5
A76
330
1F
100
AcDbEntity
  8
2
  6
CONTINUOUS
370
25
 62
7
100
AcDbLine
 10
40.83391050308264
 20
27.59178210061653
 30
0.0
 11
41.25086575462396
 21
27.17482684907521
 31
0.0
  0
LINE
  5
A77
330
1F
100
AcDbEntity
  8
2
  6
CONTINUOUS
370
25
 62
7
100
AcDbLine
 10
41.18746389367591
 20
27.66249277873519
 30
0.0
 11
41.78119584051387
 21
27.06876083189723
 31
0.0
  0
LINE
  5
A78
330
1F
100
AcDbEntity
  8
2
  6
CONTINUOUS
370
25
 62
7
100
AcDbLine
 10
41.54101728426919
 20
27.73320345685384
 30
0.0
 11
42.31152592640378
 21
26.96269481471925
 31
0.0
  0
LINE
  5
A79
330
1F
100
AcDbEntity
  8
2
  6
CONTINUOUS
370
25
 62
7
100
AcDbLine
 10
41.89457067486246
 20
27.80391413497249
 30
0.0
 11
42.84185601229369
 21
26.85662879754126
 31
0.0
  0
LINE
  5
A7A
330
1F
100
AcDbEntity
  8
2
  6
CONTINUOUS
370
25
 62
7
100
AcDbLine
 10
42.24812406545573
 20
27.87462481309115
 30
0.0
 11
43.3721860981836
 21
26.75056278036328
 31
0.0
  0
LINE
  5
A7B
330
1F
100
AcDbEntity
  8
2
  6
CONTINUOUS
370
25
 62
7
100
AcDbLine
 10
42.60167745604901
 20
27.9453354912098
 30
0.0
 11
43.90251618407352
 21
26.6444967631853
 31
0.0
  0
LINE
  5
A7C
330
1F
100
AcDbEntity
  8
2
  6
CONTINUOUS
370
25
 62
7
100
AcDbLine
 10
42.95523084664228
 20
28.01604616932846
 30
0.0
 11
44.43284626996343
 21
26.53843074600731
 31
0.0
  0
LINE
  5
A7D
330
1F
100
AcDbEntity
  8
2
  6
CONTINUOUS
370
25
 62
7
100
AcDbLine
 10
43.30878423723556
 20
28.08675684744711
 30
0.0
 11
44.96317635585334
 21
26.43236472882933
 31
0.0
  0
LINE
  5
A7E
330
1F
100
AcDbEntity
  8
2
  6
CONTINUOUS
370
25
 62
7
100
AcDbLine
 10
43.66233762782883
 20
28.15746752556577
 30
0.0
 11
45.0
 21
26.8198051533946
 31
0.0
  0
LINE
  5
A7F
330
1F
100
AcDbEntity
  8
2
  6
CONTINUOUS
370
25
 62
7
100
AcDbLine
 10
44.01589101842211
 20
28.22817820368442
 30
0.0
 11
45.0
 21
27.24406922210653
 31
0.0
  0
LINE
  5
A80
330
1F
100
AcDbEntity
  8
2
  6
CONTINUOUS
370
25
 62
7
100
AcDbLine
 10
44.36944440901538
 20
28.29888888180308
 30
0.0
 11
45.0
 21
27.66833329081846
 31
0.0
  0
LINE
  5
A81
330
1F
100
AcDbEntity
  8
2
  6
CONTINUOUS
370
25
 62
7
100
AcDbLine
 10
44.72299779960866
 20
28.36959955992173
 30
0.0
 11
45.0
 21
28.09259735953039
 31
0.0
  0
LINE
  5
A82
330
1F
100
AcDbEntity
  8
2
  6
CONTINUOUS
370
25
 62
7
100
AcDbLine
 10
130.0
 20
27.425
 30
0.0
 11
125.0
 21
26.425
 31
0.0
  0
LINE
  5
A83
330
1F
100
AcDbEntity
  8
2
  6
CONTINUOUS
370
25
 62
7
100
AcDbLine
 10
125.0
 20
26.425
 30
0.0
 11
125.0
 21
28.425
 31
0.0
  0
LINE
  5
A84
330
1F
100
AcDbEntity
  8
2
  6
CONTINUOUS
370
25
 62
7
100
AcDbLine
 10
125.0
 20
28.425
 30
0.0
 11
130.0
 21
27.425
 31
0.0
  0
LINE
  5
A85
330
1F
100
AcDbEntity
  8
2
  6
CONTINUOUS
370
25
 62
7
100
AcDbLine
 10
129.708949677034
 20
27.3667899354068
 30
0.0
 11
129.805966451356
 21
27.4638067097288
 31
0.0
  0
LINE
  5
A86
330
1F
100
AcDbEntity
  8
2
  6
CONTINUOUS
370
25
 62
7
100
AcDbLine
 10
129.1786195911441
 20
27.26072391822882
 30
0.0
 11
129.4524130607627
 21
27.53451738784744
 31
0.0
  0
LINE
  5
A87
330
1F
100
AcDbEntity
  8
2
  6
CONTINUOUS
370
25
 62
7
100
AcDbLine
 10
128.6482895052542
 20
27.15465790105085
 30
0.0
 11
129.0988596701694
 21
27.60522806596611
 31
0.0
  0
LINE
  5
A88
330
1F
100
AcDbEntity
  8
2
  6
CONTINUOUS
370
25
 62
7
100
AcDbLine
 10
128.1179594193643
 20
27.04859188387286
 30
0.0
 11
128.7453062795762
 21
27.67593874408476
 31
0.0
  0
LINE
  5
A89
330
1F
100
AcDbEntity
  8
2
  6
CONTINUOUS
370
25
 62
7
100
AcDbLine
 10
127.5876293334744
 20
26.94252586669488
 30
0.0
 11
128.3917528889829
 21
27.74664942220342
 31
0.0
  0
LINE
  5
A8A
330
1F
100
AcDbEntity
  8
2
  6
CONTINUOUS
370
25
 62
7
100
AcDbLine
 10
127.0572992475845
 20
26.8364598495169
 30
0.0
 11
128.0381994983896
 21
27.81736010032206
 31
0.0
  0
LINE
  5
A8B
330
1F
100
AcDbEntity
  8
2
  6
CONTINUOUS
370
25
 62
7
100
AcDbLine
 10
126.5269691616946
 20
26.73039383233891
 30
0.0
 11
127.6846461077964
 21
27.88807077844073
 31
0.0
  0
LINE
  5
A8C
330
1F
100
AcDbEntity
  8
2
  6
CONTINUOUS
370
25
 62
7
100
AcDbLine
 10
125.9966390758046
 20
26.62432781516092
 30
0.0
 11
127.3310927172031
 21
27.95878145655938
 31
0.0
  0
LINE
  5
A8D
330
1F
100
AcDbEntity
  8
2
  6
CONTINUOUS
370
25
 62
7
100
AcDbLine
 10
125.4663089899147
 20
26.51826179798294
 30
0.0
 11
126.9775393266098
 21
28.02949213467804
 31
0.0
  0
LINE
  5
A8E
330
1F
100
AcDbEntity
  8
2
  6
CONTINUOUS
370
25
 62
7
100
AcDbLine
 10
125.0
 20
26.47621687678014
 30
0.0
 11
126.6239859360166
 21
28.1002028127967
 31
0.0
  0
LINE
  5
A8F
330
1F
100
AcDbEntity
  8
2
  6
CONTINUOUS
370
25
 62
7
100
AcDbLine
 10
125.0
 20
26.90048094549206
 30
0.0
 11
126.2704325454233
 21
28.17091349091533
 31
0.0
  0
LINE
  5
A90
330
1F
100
AcDbEntity
  8
2
  6
CONTINUOUS
370
25
 62
7
100
AcDbLine
 10
125.0
 20
27.324745014204
 30
0.0
 11
125.91687915483
 21
28.241624169034
 31
0.0
  0
LINE
  5
A91
330
1F
100
AcDbEntity
  8
2
  6
CONTINUOUS
370
25
 62
7
100
AcDbLine
 10
125.0
 20
27.7490090829159
 30
0.0
 11
125.5633257642367
 21
28.31233484715264
 31
0.0
  0
LINE
  5
A92
330
1F
100
AcDbEntity
  8
2
  6
CONTINUOUS
370
25
 62
7
100
AcDbLine
 10
125.0
 20
28.17327315162784
 30
0.0
 11
125.2097723736435
 21
28.38304552527131
 31
0.0
  0
LINE
  5
A93
330
1F
100
AcDbEntity
  8
2
  6
CONTINUOUS
370
25
 62
7
100
AcDbLine
 10
125.0
 20
26.5814500712375
 30
0.0
 11
125.1303750593646
 21
26.45107501187292
 31
0.0
  0
LINE
  5
A94
330
1F
100
AcDbEntity
  8
2
  6
CONTINUOUS
370
25
 62
7
100
AcDbLine
 10
125.0
 20
27.00571413994943
 30
0.0
 11
125.4839284499579
 21
26.52178568999157
 31
0.0
  0
LINE
  5
A95
330
1F
100
AcDbEntity
  8
2
  6
CONTINUOUS
370
25
 62
7
100
AcDbLine
 10
125.0
 20
27.42997820866135
 30
0.0
 11
125.8374818405511
 21
26.59249636811023
 31
0.0
  0
LINE
  5
A96
330
1F
100
AcDbEntity
  8
2
  6
CONTINUOUS
370
25
 62
7
100
AcDbLine
 10
125.0
 20
27.85424227737327
 30
0.0
 11
126.1910352311444
 21
26.66320704622889
 31
0.0
  0
LINE
  5
A97
330
1F
100
AcDbEntity
  8
2
  6
CONTINUOUS
370
25
 62
7
100
AcDbLine
 10
125.0
 20
28.27850634608519
 30
0.0
 11
126.5445886217377
 21
26.73391772434753
 31
0.0
  0
LINE
  5
A98
330
1F
100
AcDbEntity
  8
2
  6
CONTINUOUS
370
25
 62
7
100
AcDbLine
 10
125.3472130184964
 20
28.35555739630071
 30
0.0
 11
126.8981420123309
 21
26.80462840246619
 31
0.0
  0
LINE
  5
A99
330
1F
100
AcDbEntity
  8
2
  6
CONTINUOUS
370
25
 62
7
100
AcDbLine
 10
125.8775431043863
 20
28.24949137912273
 30
0.0
 11
127.2516954029242
 21
26.87533908058485
 31
0.0
  0
LINE
  5
A9A
330
1F
100
AcDbEntity
  8
2
  6
CONTINUOUS
370
25
 62
7
100
AcDbLine
 10
126.4078731902762
 20
28.14342536194475
 30
0.0
 11
127.6052487935175
 21
26.9460497587035
 31
0.0
  0
LINE
  5
A9B
330
1F
100
AcDbEntity
  8
2
  6
CONTINUOUS
370
25
 62
7
100
AcDbLine
 10
126.9382032761661
 20
28.03735934476677
 30
0.0
 11
127.9588021841107
 21
27.01676043682215
 31
0.0
  0
LINE
  5
A9C
330
1F
100
AcDbEntity
  8
2
  6
CONTINUOUS
370
25
 62
7
100
AcDbLine
 10
127.468533362056
 20
27.9312933275888
 30
0.0
 11
128.312355574704
 21
27.0874711149408
 31
0.0
  0
LINE
  5
A9D
330
1F
100
AcDbEntity
  8
2
  6
CONTINUOUS
370
25
 62
7
100
AcDbLine
 10
127.9988634479459
 20
27.82522731041081
 30
0.0
 11
128.6659089652973
 21
27.15818179305946
 31
0.0
  0
LINE
  5
A9E
330
1F
100
AcDbEntity
  8
2
  6
CONTINUOUS
370
25
 62
7
100
AcDbLine
 10
128.5291935338358
 20
27.71916129323284
 30
0.0
 11
129.0194623558905
 21
27.22889247117811
 31
0.0
  0
LINE
  5
A9F
330
1F
100
AcDbEntity
  8
2
  6
CONTINUOUS
370
25
 62
7
100
AcDbLine
 10
129.0595236197257
 20
27.61309527605485
 30
0.0
 11
129.3730157464838
 21
27.29960314929676
 31
0.0
  0
LINE
  5
AA0
330
1F
100
AcDbEntity
  8
2
  6
CONTINUOUS
370
25
 62
7
100
AcDbLine
 10
129.5898537056156
 20
27.50702925887687
 30
0.0
 11
129.7265691370771
 21
27.37031382741542
 31
0.0
  0
TEXT
  5
AA1
330
1F
100
AcDbEntity
  8
2
  6
CONTINUOUS
370
25
 62
7
100
AcDbText
 10
82.375
 20
28.925
 30
0.0
 40
3.499999999999998
  1
90
 72
     1
 11
85.0
 21
28.925
 31
0.0
100
AcDbText
  0
LINE
  5
AA2
330
1F
100
AcDbEntity
  8
SK2
  6
CONTINUOUS
370
25
 62
7
100
AcDbLine
 10
0.0
 20
3.0
 30
0.0
 11
0.0
 21
38.425
 31
0.0
  0
LINE
  5
AA3
330
1F
100
AcDbEntity
  8
SK2
  6
CONTINUOUS
370
25
 62
7
100
AcDbLine
 10
130.0
 20
38.425
 30
0.0
 11
130.0
 21
5.0
 31
0.0
  0
LINE
  5
AA4
330
1F
100
AcDbEntity
  8
SK2
  6
CONTINUOUS
370
25
 62
7
100
AcDbLine
 10
0.0
 20
37.425
 30
0.0
 11
130.0
 21
37.425
 31
0.0
  0
LINE
  5
AA5
330
1F
100
AcDbEntity
  8
SK2
  6
CONTINUOUS
370
25
 62
7
100
AcDbLine
 10
0.0
 20
37.425
 30
0.0
 11
5.0
 21
38.425
 31
0.0
  0
LINE
  5
AA6
330
1F
100
AcDbEntity
  8
SK2
  6
CONTINUOUS
370
25
 62
7
100
AcDbLine
 10
5.0
 20
38.425
 30
0.0
 11
5.0
 21
36.425
 31
0.0
  0
LINE
  5
AA7
330
1F
100
AcDbEntity
  8
SK2
  6
CONTINUOUS
370
25
 62
7
100
AcDbLine
 10
5.0
 20
36.425
 30
0.0
 11
0.0
 21
37.425
 31
0.0
  0
LINE
  5
AA8
330
1F
100
AcDbEntity
  8
SK2
  6
CONTINUOUS
370
25
 62
7
100
AcDbLine
 10
4.770310323070056
 20
36.47093793538598
 30
0.0
 11
5.0
 21
36.70062761231593
 31
0.0
  0
LINE
  5
AA9
330
1F
100
AcDbEntity
  8
SK2
  6
CONTINUOUS
370
25
 62
7
100
AcDbLine
 10
4.41675693247678
 20
36.54164861350464
 30
0.0
 11
5.0
 21
37.12489168102786
 31
0.0
  0
LINE
  5
AAA
330
1F
100
AcDbEntity
  8
SK2
  6
CONTINUOUS
370
25
 62
7
100
AcDbLine
 10
4.063203541883496
 20
36.61235929162329
 30
0.0
 11
5.0
 21
37.5491557497398
 31
0.0
  0
LINE
  5
AAB
330
1F
100
AcDbEntity
  8
SK2
  6
CONTINUOUS
370
25
 62
7
100
AcDbLine
 10
3.709650151290219
 20
36.68306996974195
 30
0.0
 11
5.0
 21
37.97341981845173
 31
0.0
  0
LINE
  5
AAC
330
1F
100
AcDbEntity
  8
SK2
  6
CONTINUOUS
370
25
 62
7
100
AcDbLine
 10
3.35609676069695
 20
36.7537806478606
 30
0.0
 11
5.0
 21
38.39768388716365
 31
0.0
  0
LINE
  5
AAD
330
1F
100
AcDbEntity
  8
SK2
  6
CONTINUOUS
370
25
 62
7
100
AcDbLine
 10
3.002543370103659
 20
36.82449132597926
 30
0.0
 11
4.503815055155499
 21
38.3257630110311
 31
0.0
  0
LINE
  5
AAE
330
1F
100
AcDbEntity
  8
SK2
  6
CONTINUOUS
370
25
 62
7
100
AcDbLine
 10
2.648989979510397
 20
36.89520200409792
 30
0.0
 11
3.973484969265598
 21
38.21969699385312
 31
0.0
  0
LINE
  5
AAF
330
1F
100
AcDbEntity
  8
SK2
  6
CONTINUOUS
370
25
 62
7
100
AcDbLine
 10
2.295436588917106
 20
36.96591268221658
 30
0.0
 11
3.443154883375662
 21
38.11363097667513
 31
0.0
  0
LINE
  5
AB0
330
1F
100
AcDbEntity
  8
SK2
  6
CONTINUOUS
370
25
 62
7
100
AcDbLine
 10
1.941883198323836
 20
37.03662336033523
 30
0.0
 11
2.912824797485762
 21
38.00756495949715
 31
0.0
  0
LINE
  5
AB1
330
1F
100
AcDbEntity
  8
SK2
  6
CONTINUOUS
370
25
 62
7
100
AcDbLine
 10
1.588329807730545
 20
37.10733403845389
 30
0.0
 11
2.382494711595825
 21
37.90149894231917
 31
0.0
  0
LINE
  5
AB2
330
1F
100
AcDbEntity
  8
SK2
  6
CONTINUOUS
370
25
 62
7
100
AcDbLine
 10
1.234776417137276
 20
37.17804471657254
 30
0.0
 11
1.852164625705925
 21
37.79543292514118
 31
0.0
  0
LINE
  5
AB3
330
1F
100
AcDbEntity
  8
SK2
  6
CONTINUOUS
370
25
 62
7
100
AcDbLine
 10
0.8812230265439851
 20
37.24875539469119
 30
0.0
 11
1.321834539815988
 21
37.6893669079632
 31
0.0
  0
LINE
  5
AB4
330
1F
100
AcDbEntity
  8
SK2
  6
CONTINUOUS
370
25
 62
7
100
AcDbLine
 10
0.5276696359507227
 20
37.31946607280985
 30
0.0
 11
0.7915044539260876
 21
37.58330089078522
 31
0.0
  0
LINE
  5
AB5
330
1F
100
AcDbEntity
  8
SK2
  6
CONTINUOUS
370
25
 62
7
100
AcDbLine
 10
0.1741162453574319
 20
37.39017675092851
 30
0.0
 11
0.2611743680361514
 21
37.47723487360723
 31
0.0
  0
LINE
  5
AB6
330
1F
100
AcDbEntity
  8
SK2
  6
CONTINUOUS
370
25
 62
7
100
AcDbLine
 10
0.3430054749919549
 20
37.49360109499839
 30
0.0
 11
0.5145082124879323
 21
37.32209835750241
 31
0.0
  0
LINE
  5
AB7
330
1F
100
AcDbEntity
  8
SK2
  6
CONTINUOUS
370
25
 62
7
100
AcDbLine
 10
0.6965588655852315
 20
37.56431177311704
 30
0.0
 11
1.044838298377847
 21
37.21603234032442
 31
0.0
  0
LINE
  5
AB8
330
1F
100
AcDbEntity
  8
SK2
  6
CONTINUOUS
370
25
 62
7
100
AcDbLine
 10
1.050112256178508
 20
37.63502245123571
 30
0.0
 11
1.575168384267769
 21
37.10996632314644
 31
0.0
  0
LINE
  5
AB9
330
1F
100
AcDbEntity
  8
SK2
  6
CONTINUOUS
370
25
 62
7
100
AcDbLine
 10
1.403665646771792
 20
37.70573312935435
 30
0.0
 11
2.105498470157684
 21
37.00390030596846
 31
0.0
  0
LINE
  5
ABA
330
1F
100
AcDbEntity
  8
SK2
  6
CONTINUOUS
370
25
 62
7
100
AcDbLine
 10
1.757219037365068
 20
37.77644380747301
 30
0.0
 11
2.635828556047606
 21
36.89783428879047
 31
0.0
  0
LINE
  5
ABB
330
1F
100
AcDbEntity
  8
SK2
  6
CONTINUOUS
370
25
 62
7
100
AcDbLine
 10
2.110772427958345
 20
37.84715448559167
 30
0.0
 11
3.166158641937521
 21
36.79176827161249
 31
0.0
  0
LINE
  5
ABC
330
1F
100
AcDbEntity
  8
SK2
  6
CONTINUOUS
370
25
 62
7
100
AcDbLine
 10
2.464325818551622
 20
37.91786516371032
 30
0.0
 11
3.696488727827436
 21
36.68570225443451
 31
0.0
  0
LINE
  5
ABD
330
1F
100
AcDbEntity
  8
SK2
  6
CONTINUOUS
370
25
 62
7
100
AcDbLine
 10
2.817879209144905
 20
37.98857584182898
 30
0.0
 11
4.226818813717358
 21
36.57963623725652
 31
0.0
  0
LINE
  5
ABE
330
1F
100
AcDbEntity
  8
SK2
  6
CONTINUOUS
370
25
 62
7
100
AcDbLine
 10
3.171432599738182
 20
38.05928651994763
 30
0.0
 11
4.757148899607273
 21
36.47357022007854
 31
0.0
  0
LINE
  5
ABF
330
1F
100
AcDbEntity
  8
SK2
  6
CONTINUOUS
370
25
 62
7
100
AcDbLine
 10
3.524985990331459
 20
38.12999719806629
 30
0.0
 11
5.0
 21
36.65498318839775
 31
0.0
  0
LINE
  5
AC0
330
1F
100
AcDbEntity
  8
SK2
  6
CONTINUOUS
370
25
 62
7
100
AcDbLine
 10
3.878539380924735
 20
38.20070787618494
 30
0.0
 11
5.0
 21
37.07924725710968
 31
0.0
  0
LINE
  5
AC1
330
1F
100
AcDbEntity
  8
SK2
  6
CONTINUOUS
370
25
 62
7
100
AcDbLine
 10
4.232092771518012
 20
38.2714185543036
 30
0.0
 11
5.0
 21
37.50351132582161
 31
0.0
  0
LINE
  5
AC2
330
1F
100
AcDbEntity
  8
SK2
  6
CONTINUOUS
370
25
 62
7
100
AcDbLine
 10
4.585646162111296
 20
38.34212923242225
 30
0.0
 11
5.0
 21
37.92777539453355
 31
0.0
  0
LINE
  5
AC3
330
1F
100
AcDbEntity
  8
SK2
  6
CONTINUOUS
370
25
 62
7
100
AcDbLine
 10
4.939199552704565
 20
38.41283991054091
 30
0.0
 11
5.0
 21
38.35203946324548
 31
0.0
  0
LINE
  5
AC4
330
1F
100
AcDbEntity
  8
SK2
  6
CONTINUOUS
370
25
 62
7
100
AcDbLine
 10
130.0
 20
37.425
 30
0.0
 11
125.0
 21
36.425
 31
0.0
  0
LINE
  5
AC5
330
1F
100
AcDbEntity
  8
SK2
  6
CONTINUOUS
370
25
 62
7
100
AcDbLine
 10
125.0
 20
36.425
 30
0.0
 11
125.0
 21
38.425
 31
0.0
  0
LINE
  5
AC6
330
1F
100
AcDbEntity
  8
SK2
  6
CONTINUOUS
370
25
 62
7
100
AcDbLine
 10
125.0
 20
38.425
 30
0.0
 11
130.0
 21
37.425
 31
0.0
  0
LINE
  5
AC7
330
1F
100
AcDbEntity
  8
SK2
  6
CONTINUOUS
370
25
 62
7
100
AcDbLine
 10
129.9368717383918
 20
37.41237434767835
 30
0.0
 11
129.9579144922612
 21
37.43341710154778
 31
0.0
  0
LINE
  5
AC8
330
1F
100
AcDbEntity
  8
SK2
  6
CONTINUOUS
370
25
 62
7
100
AcDbLine
 10
129.4065416525019
 20
37.30630833050038
 30
0.0
 11
129.6043611016679
 21
37.50412777966643
 31
0.0
  0
LINE
  5
AC9
330
1F
100
AcDbEntity
  8
SK2
  6
CONTINUOUS
370
25
 62
7
100
AcDbLine
 10
128.876211566612
 20
37.20024231332239
 30
0.0
 11
129.2508077110746
 21
37.57483845778508
 31
0.0
  0
LINE
  5
ACA
330
1F
100
AcDbEntity
  8
SK2
  6
CONTINUOUS
370
25
 62
7
100
AcDbLine
 10
128.345881480722
 20
37.09417629614439
 30
0.0
 11
128.8972543204814
 21
37.64554913590373
 31
0.0
  0
LINE
  5
ACB
330
1F
100
AcDbEntity
  8
SK2
  6
CONTINUOUS
370
25
 62
7
100
AcDbLine
 10
127.8155513948321
 20
36.98811027896643
 30
0.0
 11
128.5437009298881
 21
37.71625981402238
 31
0.0
  0
LINE
  5
ACC
330
1F
100
AcDbEntity
  8
SK2
  6
CONTINUOUS
370
25
 62
7
100
AcDbLine
 10
127.2852213089422
 20
36.88204426178846
 30
0.0
 11
128.1901475392948
 21
37.78697049214104
 31
0.0
  0
LINE
  5
ACD
330
1F
100
AcDbEntity
  8
SK2
  6
CONTINUOUS
370
25
 62
7
100
AcDbLine
 10
126.7548912230523
 20
36.77597824461046
 30
0.0
 11
127.8365941487016
 21
37.8576811702597
 31
0.0
  0
LINE
  5
ACE
330
1F
100
AcDbEntity
  8
SK2
  6
CONTINUOUS
370
25
 62
7
100
AcDbLine
 10
126.2245611371624
 20
36.66991222743246
 30
0.0
 11
127.4830407581083
 21
37.92839184837835
 31
0.0
  0
LINE
  5
ACF
330
1F
100
AcDbEntity
  8
SK2
  6
CONTINUOUS
370
25
 62
7
100
AcDbLine
 10
125.6942310512725
 20
36.56384621025448
 30
0.0
 11
127.129487367515
 21
37.99910252649701
 31
0.0
  0
LINE
  5
AD0
330
1F
100
AcDbEntity
  8
SK2
  6
CONTINUOUS
370
25
 62
7
100
AcDbLine
 10
125.1639009653826
 20
36.45778019307652
 30
0.0
 11
126.7759339769217
 21
38.06981320461566
 31
0.0
  0
LINE
  5
AD1
330
1F
100
AcDbEntity
  8
SK2
  6
CONTINUOUS
370
25
 62
7
100
AcDbLine
 10
125.0
 20
36.71814329640584
 30
0.0
 11
126.4223805863285
 21
38.14052388273431
 31
0.0
  0
LINE
  5
AD2
330
1F
100
AcDbEntity
  8
SK2
  6
CONTINUOUS
370
25
 62
7
100
AcDbLine
 10
125.0
 20
37.14240736511777
 30
0.0
 11
126.0688271957352
 21
38.21123456085295
 31
0.0
  0
LINE
  5
AD3
330
1F
100
AcDbEntity
  8
SK2
  6
CONTINUOUS
370
25
 62
7
100
AcDbLine
 10
125.0
 20
37.5666714338297
 30
0.0
 11
125.7152738051419
 21
38.28194523897162
 31
0.0
  0
LINE
  5
AD4
330
1F
100
AcDbEntity
  8
SK2
  6
CONTINUOUS
370
25
 62
7
100
AcDbLine
 10
125.0
 20
37.99093550254162
 30
0.0
 11
125.3617204145486
 21
38.35265591709027
 31
0.0
  0
LINE
  5
AD5
330
1F
100
AcDbEntity
  8
SK2
  6
CONTINUOUS
370
25
 62
7
100
AcDbLine
 10
125.0
 20
38.41519957125355
 30
0.0
 11
125.0081670239554
 21
38.42336659520892
 31
0.0
  0
LINE
  5
AD6
330
1F
100
AcDbEntity
  8
SK2
  6
CONTINUOUS
370
25
 62
7
100
AcDbLine
 10
125.0
 20
36.76378772032371
 30
0.0
 11
125.2823231002698
 21
36.48146462005394
 31
0.0
  0
LINE
  5
AD7
330
1F
100
AcDbEntity
  8
SK2
  6
CONTINUOUS
370
25
 62
7
100
AcDbLine
 10
125.0
 20
37.18805178903564
 30
0.0
 11
125.635876490863
 21
36.5521752981726
 31
0.0
  0
LINE
  5
AD8
330
1F
100
AcDbEntity
  8
SK2
  6
CONTINUOUS
370
25
 62
7
100
AcDbLine
 10
125.0
 20
37.61231585774757
 30
0.0
 11
125.9894298814563
 21
36.62288597629126
 31
0.0
  0
LINE
  5
AD9
330
1F
100
AcDbEntity
  8
SK2
  6
CONTINUOUS
370
25
 62
7
100
AcDbLine
 10
125.0
 20
38.03657992645948
 30
0.0
 11
126.3429832720496
 21
36.6935966544099
 31
0.0
  0
LINE
  5
ADA
330
1F
100
AcDbEntity
  8
SK2
  6
CONTINUOUS
370
25
 62
7
100
AcDbLine
 10
125.0448049939643
 20
38.41603900120715
 30
0.0
 11
126.6965366626429
 21
36.76430733252857
 31
0.0
  0
LINE
  5
ADB
330
1F
100
AcDbEntity
  8
SK2
  6
CONTINUOUS
370
25
 62
7
100
AcDbLine
 10
125.5751350798542
 20
38.30997298402917
 30
0.0
 11
127.0500900532361
 21
36.83501801064722
 31
0.0
  0
LINE
  5
ADC
330
1F
100
AcDbEntity
  8
SK2
  6
CONTINUOUS
370
25
 62
7
100
AcDbLine
 10
126.1054651657441
 20
38.20390696685119
 30
0.0
 11
127.4036434438294
 21
36.90572868876586
 31
0.0
  0
LINE
  5
ADD
330
1F
100
AcDbEntity
  8
SK2
  6
CONTINUOUS
370
25
 62
7
100
AcDbLine
 10
126.635795251634
 20
38.09784094967321
 30
0.0
 11
127.7571968344227
 21
36.97643936688452
 31
0.0
  0
LINE
  5
ADE
330
1F
100
AcDbEntity
  8
SK2
  6
CONTINUOUS
370
25
 62
7
100
AcDbLine
 10
127.1661253375239
 20
37.99177493249522
 30
0.0
 11
128.1107502250159
 21
37.04715004500318
 31
0.0
  0
LINE
  5
ADF
330
1F
100
AcDbEntity
  8
SK2
  6
CONTINUOUS
370
25
 62
7
100
AcDbLine
 10
127.6964554234138
 20
37.88570891531724
 30
0.0
 11
128.4643036156092
 21
37.11786072312184
 31
0.0
  0
LINE
  5
AE0
330
1F
100
AcDbEntity
  8
SK2
  6
CONTINUOUS
370
25
 62
7
100
AcDbLine
 10
128.2267855093037
 20
37.77964289813926
 30
0.0
 11
128.8178570062025
 21
37.18857140124048
 31
0.0
  0
LINE
  5
AE1
330
1F
100
AcDbEntity
  8
SK2
  6
CONTINUOUS
370
25
 62
7
100
AcDbLine
 10
128.7571155951936
 20
37.67357688096126
 30
0.0
 11
129.1714103967957
 21
37.25928207935914
 31
0.0
  0
LINE
  5
AE2
330
1F
100
AcDbEntity
  8
SK2
  6
CONTINUOUS
370
25
 62
7
100
AcDbLine
 10
129.2874456810836
 20
37.56751086378328
 30
0.0
 11
129.524963787389
 21
37.3299927574778
 31
0.0
  0
LINE
  5
AE3
330
1F
100
AcDbEntity
  8
SK2
  6
CONTINUOUS
370
25
 62
7
100
AcDbLine
 10
129.8177757669735
 20
37.4614448466053
 30
0.0
 11
129.8785171779823
 21
37.40070343559645
 31
0.0
  0
TEXT
  5
AE4
330
1F
100
AcDbEntity
  8
SK2
  6
CONTINUOUS
370
25
 62
7
100
AcDbText
 10
61.20833333333334
 20
38.925
 30
0.0
 40
3.5
  1
130
 72
     1
 11
65.0
 21
38.925
 31
0.0
100
AcDbText
  0
LINE
  5
AE5
330
1F
100
AcDbEntity
  8
2
  6
CONTINUOUS
370
25
 62
7
100
AcDbLine
 10
110.0
 20
-3.74995
 30
0.0
 11
110.0
 21
-28.0
 31
0.0
  0
LINE
  5
AE6
330
1F
100
AcDbEntity
  8
2
  6
CONTINUOUS
370
25
 62
7
100
AcDbLine
 10
130.0
 20
-28.0
 30
0.0
 11
130.0
 21
-5.0
 31
0.0
  0
LINE
  5
AE7
330
1F
100
AcDbEntity
  8
2
  6
CONTINUOUS
370
25
 62
7
100
AcDbLine
 10
110.0
 20
-27.0
 30
0.0
 11
130.0
 21
-27.0
 31
0.0
  0
LINE
  5
AE8
330
1F
100
AcDbEntity
  8
2
  6
CONTINUOUS
370
25
 62
7
100
AcDbLine
 10
110.0
 20
-27.0
 30
0.0
 11
115.0
 21
-26.0
 31
0.0
  0
LINE
  5
AE9
330
1F
100
AcDbEntity
  8
2
  6
CONTINUOUS
370
25
 62
7
100
AcDbLine
 10
115.0
 20
-26.0
 30
0.0
 11
115.0
 21
-28.0
 31
0.0
  0
LINE
  5
AEA
330
1F
100
AcDbEntity
  8
2
  6
CONTINUOUS
370
25
 62
7
100
AcDbLine
 10
115.0
 20
-28.0
 30
0.0
 11
110.0
 21
-27.0
 31
0.0
  0
LINE
  5
AEB
330
1F
100
AcDbEntity
  8
2
  6
CONTINUOUS
370
25
 62
7
100
AcDbLine
 10
114.6534412407017
 20
-27.93068824814034
 30
0.0
 11
115.0
 21
-27.58412948884205
 31
0.0
  0
LINE
  5
AEC
330
1F
100
AcDbEntity
  8
2
  6
CONTINUOUS
370
25
 62
7
100
AcDbLine
 10
114.2998878501084
 20
-27.85997757002168
 30
0.0
 11
115.0
 21
-27.15986542013012
 31
0.0
  0
LINE
  5
AED
330
1F
100
AcDbEntity
  8
2
  6
CONTINUOUS
370
25
 62
7
100
AcDbLine
 10
113.9463344595152
 20
-27.78926689190303
 30
0.0
 11
115.0
 21
-26.73560135141818
 31
0.0
  0
LINE
  5
AEE
330
1F
100
AcDbEntity
  8
2
  6
CONTINUOUS
370
25
 62
7
100
AcDbLine
 10
113.5927810689219
 20
-27.71855621378437
 30
0.0
 11
115.0
 21
-26.31133728270626
 31
0.0
  0
LINE
  5
AEF
330
1F
100
AcDbEntity
  8
2
  6
CONTINUOUS
370
25
 62
7
100
AcDbLine
 10
113.2392276783286
 20
-27.64784553566574
 30
0.0
 11
114.8588415174929
 21
-26.02823169650141
 31
0.0
  0
LINE
  5
AF0
330
1F
100
AcDbEntity
  8
2
  6
CONTINUOUS
370
25
 62
7
100
AcDbLine
 10
112.8856742877353
 20
-27.57713485754708
 30
0.0
 11
114.328511431603
 21
-26.13429771367939
 31
0.0
  0
LINE
  5
AF1
330
1F
100
AcDbEntity
  8
2
  6
CONTINUOUS
370
25
 62
7
100
AcDbLine
 10
112.5321208971421
 20
-27.50642417942842
 30
0.0
 11
113.7981813457131
 21
-26.24036373085737
 31
0.0
  0
LINE
  5
AF2
330
1F
100
AcDbEntity
  8
2
  6
CONTINUOUS
370
25
 62
7
100
AcDbLine
 10
112.1785675065488
 20
-27.43571350130976
 30
0.0
 11
113.2678512598232
 21
-26.34642974803536
 31
0.0
  0
LINE
  5
AF3
330
1F
100
AcDbEntity
  8
2
  6
CONTINUOUS
370
25
 62
7
100
AcDbLine
 10
111.8250141159555
 20
-27.36500282319112
 30
0.0
 11
112.7375211739333
 21
-26.45249576521334
 31
0.0
  0
LINE
  5
AF4
330
1F
100
AcDbEntity
  8
2
  6
CONTINUOUS
370
25
 62
7
100
AcDbLine
 10
111.4714607253623
 20
-27.29429214507246
 30
0.0
 11
112.2071910880434
 21
-26.55856178239132
 31
0.0
  0
LINE
  5
AF5
330
1F
100
AcDbEntity
  8
2
  6
CONTINUOUS
370
25
 62
7
100
AcDbLine
 10
111.117907334769
 20
-27.2235814669538
 30
0.0
 11
111.6768610021535
 21
-26.6646277995693
 31
0.0
  0
LINE
  5
AF6
330
1F
100
AcDbEntity
  8
2
  6
CONTINUOUS
370
25
 62
7
100
AcDbLine
 10
110.7643539441757
 20
-27.15287078883514
 30
0.0
 11
111.1465309162636
 21
-26.77069381674727
 31
0.0
  0
LINE
  5
AF7
330
1F
100
AcDbEntity
  8
2
  6
CONTINUOUS
370
25
 62
7
100
AcDbLine
 10
110.4108005535824
 20
-27.08216011071649
 30
0.0
 11
110.6162008303737
 21
-26.87675983392525
 31
0.0
  0
LINE
  5
AF8
330
1F
100
AcDbEntity
  8
2
  6
CONTINUOUS
370
25
 62
7
100
AcDbLine
 10
110.0572471629892
 20
-27.01144943259784
 30
0.0
 11
110.0858707444838
 21
-26.98282585110324
 31
0.0
  0
LINE
  5
AF9
330
1F
100
AcDbEntity
  8
2
  6
CONTINUOUS
370
25
 62
7
100
AcDbLine
 10
110.229112507181
 20
-26.95417749856382
 30
0.0
 11
110.3436687607715
 21
-27.06873375215429
 31
0.0
  0
LINE
  5
AFA
330
1F
100
AcDbEntity
  8
2
  6
CONTINUOUS
370
25
 62
7
100
AcDbLine
 10
110.5826658977743
 20
-26.88346682044514
 30
0.0
 11
110.8739988466614
 21
-27.1747997693323
 31
0.0
  0
LINE
  5
AFB
330
1F
100
AcDbEntity
  8
2
  6
CONTINUOUS
370
25
 62
7
100
AcDbLine
 10
110.9362192883675
 20
-26.81275614232649
 30
0.0
 11
111.4043289325513
 21
-27.28086578651026
 31
0.0
  0
LINE
  5
AFC
330
1F
100
AcDbEntity
  8
2
  6
CONTINUOUS
370
25
 62
7
100
AcDbLine
 10
111.2897726789608
 20
-26.74204546420785
 30
0.0
 11
111.9346590184412
 21
-27.38693180368824
 31
0.0
  0
LINE
  5
AFD
330
1F
100
AcDbEntity
  8
2
  6
CONTINUOUS
370
25
 62
7
100
AcDbLine
 10
111.6433260695541
 20
-26.6713347860892
 30
0.0
 11
112.4649891043311
 21
-27.49299782086621
 31
0.0
  0
LINE
  5
AFE
330
1F
100
AcDbEntity
  8
2
  6
CONTINUOUS
370
25
 62
7
100
AcDbLine
 10
111.9968794601474
 20
-26.60062410797053
 30
0.0
 11
112.995319190221
 21
-27.5990638380442
 31
0.0
  0
LINE
  5
AFF
330
1F
100
AcDbEntity
  8
2
  6
CONTINUOUS
370
25
 62
7
100
AcDbLine
 10
112.3504328507406
 20
-26.52991342985189
 30
0.0
 11
113.5256492761109
 21
-27.70512985522218
 31
0.0
  0
LINE
  5
B00
330
1F
100
AcDbEntity
  8
2
  6
CONTINUOUS
370
25
 62
7
100
AcDbLine
 10
112.7039862413339
 20
-26.45920275173322
 30
0.0
 11
114.0559793620008
 21
-27.81119587240016
 31
0.0
  0
LINE
  5
B01
330
1F
100
AcDbEntity
  8
2
  6
CONTINUOUS
370
25
 62
7
100
AcDbLine
 10
113.0575396319272
 20
-26.38849207361456
 30
0.0
 11
114.5863094478908
 21
-27.91726188957815
 31
0.0
  0
LINE
  5
B02
330
1F
100
AcDbEntity
  8
2
  6
CONTINUOUS
370
25
 62
7
100
AcDbLine
 10
113.4110930225204
 20
-26.31778139549591
 30
0.0
 11
115.0
 21
-27.90668837297547
 31
0.0
  0
LINE
  5
B03
330
1F
100
AcDbEntity
  8
2
  6
CONTINUOUS
370
25
 62
7
100
AcDbLine
 10
113.7646464131137
 20
-26.24707071737726
 30
0.0
 11
115.0
 21
-27.48242430426355
 31
0.0
  0
LINE
  5
B04
330
1F
100
AcDbEntity
  8
2
  6
CONTINUOUS
370
25
 62
7
100
AcDbLine
 10
114.118199803707
 20
-26.17636003925861
 30
0.0
 11
115.0
 21
-27.05816023555164
 31
0.0
  0
LINE
  5
B05
330
1F
100
AcDbEntity
  8
2
  6
CONTINUOUS
370
25
 62
7
100
AcDbLine
 10
114.4717531943002
 20
-26.10564936113995
 30
0.0
 11
115.0
 21
-26.63389616683971
 31
0.0
  0
LINE
  5
B06
330
1F
100
AcDbEntity
  8
2
  6
CONTINUOUS
370
25
 62
7
100
AcDbLine
 10
114.8253065848935
 20
-26.03493868302131
 30
0.0
 11
115.0
 21
-26.20963209812778
 31
0.0
  0
LINE
  5
B07
330
1F
100
AcDbEntity
  8
2
  6
CONTINUOUS
370
25
 62
7
100
AcDbLine
 10
130.0
 20
-27.0
 30
0.0
 11
125.0
 21
-28.0
 31
0.0
  0
LINE
  5
B08
330
1F
100
AcDbEntity
  8
2
  6
CONTINUOUS
370
25
 62
7
100
AcDbLine
 10
125.0
 20
-28.0
 30
0.0
 11
125.0
 21
-26.0
 31
0.0
  0
LINE
  5
B09
330
1F
100
AcDbEntity
  8
2
  6
CONTINUOUS
370
25
 62
7
100
AcDbLine
 10
125.0
 20
-26.0
 30
0.0
 11
130.0
 21
-27.0
 31
0.0
  0
LINE
  5
B0A
330
1F
100
AcDbEntity
  8
2
  6
CONTINUOUS
370
25
 62
7
100
AcDbLine
 10
129.8579486831258
 20
-27.02841026337485
 30
0.0
 11
129.9052991220838
 21
-26.98105982441677
 31
0.0
  0
LINE
  5
B0B
330
1F
100
AcDbEntity
  8
2
  6
CONTINUOUS
370
25
 62
7
100
AcDbLine
 10
129.3276185972358
 20
-27.13447628055285
 30
0.0
 11
129.5517457314905
 21
-26.91034914629812
 31
0.0
  0
LINE
  5
B0C
330
1F
100
AcDbEntity
  8
2
  6
CONTINUOUS
370
25
 62
7
100
AcDbLine
 10
128.7972885113459
 20
-27.24054229773081
 30
0.0
 11
129.1981923408973
 21
-26.83963846817946
 31
0.0
  0
LINE
  5
B0D
330
1F
100
AcDbEntity
  8
2
  6
CONTINUOUS
370
25
 62
7
100
AcDbLine
 10
128.266958425456
 20
-27.34660831490878
 30
0.0
 11
128.844638950304
 21
-26.76892779006081
 31
0.0
  0
LINE
  5
B0E
330
1F
100
AcDbEntity
  8
2
  6
CONTINUOUS
370
25
 62
7
100
AcDbLine
 10
127.7366283395661
 20
-27.45267433208676
 30
0.0
 11
128.4910855597108
 21
-26.69821711194214
 31
0.0
  0
LINE
  5
B0F
330
1F
100
AcDbEntity
  8
2
  6
CONTINUOUS
370
25
 62
7
100
AcDbLine
 10
127.2062982536762
 20
-27.55874034926475
 30
0.0
 11
128.1375321691175
 21
-26.6275064338235
 31
0.0
  0
LINE
  5
B10
330
1F
100
AcDbEntity
  8
2
  6
CONTINUOUS
370
25
 62
7
100
AcDbLine
 10
126.6759681677863
 20
-27.66480636644273
 30
0.0
 11
127.7839787785242
 21
-26.55679575570484
 31
0.0
  0
LINE
  5
B11
330
1F
100
AcDbEntity
  8
2
  6
CONTINUOUS
370
25
 62
7
100
AcDbLine
 10
126.1456380818964
 20
-27.77087238362071
 30
0.0
 11
127.4304253879309
 21
-26.4860850775862
 31
0.0
  0
LINE
  5
B12
330
1F
100
AcDbEntity
  8
2
  6
CONTINUOUS
370
25
 62
7
100
AcDbLine
 10
125.6153079960065
 20
-27.87693840079869
 30
0.0
 11
127.0768719973377
 21
-26.41537439946754
 31
0.0
  0
LINE
  5
B13
330
1F
100
AcDbEntity
  8
2
  6
CONTINUOUS
370
25
 62
7
100
AcDbLine
 10
125.0849779101166
 20
-27.98300441797669
 30
0.0
 11
126.7233186067444
 21
-26.34466372134888
 31
0.0
  0
LINE
  5
B14
330
1F
100
AcDbEntity
  8
2
  6
CONTINUOUS
370
25
 62
7
100
AcDbLine
 10
125.0
 20
-27.64371825938134
 30
0.0
 11
126.3697652161511
 21
-26.27395304323024
 31
0.0
  0
LINE
  5
B15
330
1F
100
AcDbEntity
  8
2
  6
CONTINUOUS
370
25
 62
7
100
AcDbLine
 10
125.0
 20
-27.21945419066942
 30
0.0
 11
126.0162118255578
 21
-26.20324236511158
 31
0.0
  0
LINE
  5
B16
330
1F
100
AcDbEntity
  8
2
  6
CONTINUOUS
370
25
 62
7
100
AcDbLine
 10
125.0
 20
-26.7951901219575
 30
0.0
 11
125.6626584349646
 21
-26.13253168699292
 31
0.0
  0
LINE
  5
B17
330
1F
100
AcDbEntity
  8
2
  6
CONTINUOUS
370
25
 62
7
100
AcDbLine
 10
125.0
 20
-26.37092605324558
 30
0.0
 11
125.3091050443713
 21
-26.06182100887428
 31
0.0
  0
LINE
  5
B18
330
1F
100
AcDbEntity
  8
2
  6
CONTINUOUS
370
25
 62
7
100
AcDbLine
 10
125.0
 20
-27.72435072388907
 30
0.0
 11
125.2297077300924
 21
-27.95405845398152
 31
0.0
  0
LINE
  5
B19
330
1F
100
AcDbEntity
  8
2
  6
CONTINUOUS
370
25
 62
7
100
AcDbLine
 10
125.0
 20
-27.30008665517714
 30
0.0
 11
125.5832611206857
 21
-27.88334777586286
 31
0.0
  0
LINE
  5
B1A
330
1F
100
AcDbEntity
  8
2
  6
CONTINUOUS
370
25
 62
7
100
AcDbLine
 10
125.0
 20
-26.87582258646522
 30
0.0
 11
125.936814511279
 21
-27.8126370977442
 31
0.0
  0
LINE
  5
B1B
330
1F
100
AcDbEntity
  8
2
  6
CONTINUOUS
370
25
 62
7
100
AcDbLine
 10
125.0
 20
-26.45155851775329
 30
0.0
 11
126.2903679018723
 21
-27.74192641962555
 31
0.0
  0
LINE
  5
B1C
330
1F
100
AcDbEntity
  8
2
  6
CONTINUOUS
370
25
 62
7
100
AcDbLine
 10
125.0
 20
-26.02729444904136
 30
0.0
 11
126.6439212924655
 21
-27.67121574150688
 31
0.0
  0
LINE
  5
B1D
330
1F
100
AcDbEntity
  8
2
  6
CONTINUOUS
370
25
 62
7
100
AcDbLine
 10
125.4962120245882
 20
-26.09924240491765
 30
0.0
 11
126.9974746830588
 21
-27.60050506338823
 31
0.0
  0
LINE
  5
B1E
330
1F
100
AcDbEntity
  8
2
  6
CONTINUOUS
370
25
 62
7
100
AcDbLine
 10
126.0265421104781
 20
-26.20530842209561
 30
0.0
 11
127.3510280736521
 21
-27.52979438526958
 31
0.0
  0
LINE
  5
B1F
330
1F
100
AcDbEntity
  8
2
  6
CONTINUOUS
370
25
 62
7
100
AcDbLine
 10
126.556872196368
 20
-26.3113744392736
 30
0.0
 11
127.7045814642453
 21
-27.45908370715092
 31
0.0
  0
LINE
  5
B20
330
1F
100
AcDbEntity
  8
2
  6
CONTINUOUS
370
25
 62
7
100
AcDbLine
 10
127.0872022822579
 20
-26.41744045645159
 30
0.0
 11
128.0581348548386
 21
-27.38837302903228
 31
0.0
  0
LINE
  5
B21
330
1F
100
AcDbEntity
  8
2
  6
CONTINUOUS
370
25
 62
7
100
AcDbLine
 10
127.6175323681478
 20
-26.52350647362957
 30
0.0
 11
128.4116882454319
 21
-27.31766235091362
 31
0.0
  0
LINE
  5
B22
330
1F
100
AcDbEntity
  8
2
  6
CONTINUOUS
370
25
 62
7
100
AcDbLine
 10
128.1478624540377
 20
-26.62957249080755
 30
0.0
 11
128.7652416360251
 21
-27.24695167279496
 31
0.0
  0
LINE
  5
B23
330
1F
100
AcDbEntity
  8
2
  6
CONTINUOUS
370
25
 62
7
100
AcDbLine
 10
128.6781925399276
 20
-26.73563850798555
 30
0.0
 11
129.1187950266184
 21
-27.17624099467633
 31
0.0
  0
LINE
  5
B24
330
1F
100
AcDbEntity
  8
2
  6
CONTINUOUS
370
25
 62
7
100
AcDbLine
 10
129.2085226258176
 20
-26.84170452516352
 30
0.0
 11
129.4723484172117
 21
-27.10553031655766
 31
0.0
  0
LINE
  5
B25
330
1F
100
AcDbEntity
  8
2
  6
CONTINUOUS
370
25
 62
7
100
AcDbLine
 10
129.7388527117075
 20
-26.94777054234149
 30
0.0
 11
129.8259018078049
 21
-27.03481963843899
 31
0.0
  0
TEXT
  5
B26
330
1F
100
AcDbEntity
  8
2
  6
CONTINUOUS
370
25
 62
7
100
AcDbText
 10
117.375
 20
-25.5
 30
0.0
 40
3.5
  1
20
 72
     1
 11
120.0
 21
-25.5
 31
0.0
100
AcDbText
  0
LINE
  5
B27
330
1F
100
AcDbEntity
  8
SK1
  6
CONTINUOUS
370
50
 62
4
100
AcDbLine
 10
40.0
 20
0.0
 30
0.0
 11
41.75
 21
0.0
 31
0.0
  0
LINE
  5
B28
330
1F
100
AcDbEntity
  8
SK1
  6
CONTINUOUS
370
50
 62
4
100
AcDbLine
 10
40.0
 20
0.0
 30
0.0
 11
40.0
 21
1.75
 31
0.0
  0
ARC
  5
B29
330
1F
100
AcDbEntity
  8
SK1
  6
CONTINUOUS
370
50
 62
4
100
AcDbCircle
 10
40.0
 20
0.0
 30
0.0
 40
1.75
100
AcDbArc
 50
0.0
 51
90.0
  0
LINE
  5
B2A
330
1F
100
AcDbEntity
  8
SK1
  6
CONTINUOUS
370
50
 62
4
100
AcDbLine
 10
40.0
 20
0.0
 30
0.0
 11
38.25
 21
0.0
 31
0.0
  0
ARC
  5
B2B
330
1F
100
AcDbEntity
  8
SK1
  6
CONTINUOUS
370
50
 62
4
100
AcDbCircle
 10
40.0
 20
0.0
 30
0.0
 40
1.75
100
AcDbArc
 50
180.0
 51
270.0
  0
LINE
  5
B2C
330
1F
100
AcDbEntity
  8
SK1
  6
CONTINUOUS
370
50
 62
4
100
AcDbLine
 10
40.0
 20
-1.75
 30
0.0
 11
40.0
 21
0.0
 31
0.0
  0
ARC
  5
B2D
330
1F
100
AcDbEntity
  8
SK1
  6
CONTINUOUS
370
50
 62
4
100
AcDbCircle
 10
40.0
 20
0.0
 30
0.0
 40
1.75
100
AcDbArc
 50
270.0
 51
0.0
  0
ARC
  5
B2E
330
1F
100
AcDbEntity
  8
SK1
  6
CONTINUOUS
370
50
 62
4
100
AcDbCircle
 10
40.0
 20
0.0
 30
0.0
 40
1.75
100
AcDbArc
 50
90.0
 51
180.0
  0
LINE
  5
B2F
330
1F
100
AcDbEntity
  8
SK1
  6
CONTINUOUS
370
50
 62
4
100
AcDbLine
 10
39.77717274741573
 20
-1.73564731720198
 30
0.0
 11
40.0
 21
-1.512820064617713
 31
0.0
  0
LINE
  5
B30
330
1F
100
AcDbEntity
  8
SK1
  6
CONTINUOUS
370
50
 62
4
100
AcDbLine
 10
41.51282006461771
 20
0.0
 30
0.0
 11
41.73564731720198
 21
0.2228272525842674
 31
0.0
  0
LINE
  5
B31
330
1F
100
AcDbEntity
  8
SK1
  6
CONTINUOUS
370
50
 62
4
100
AcDbLine
 10
39.56930380681873
 20
-1.69602888438369
 30
0.0
 11
40.0
 21
-1.265332691202421
 31
0.0
  0
LINE
  5
B32
330
1F
100
AcDbEntity
  8
SK1
  6
CONTINUOUS
370
50
 62
4
100
AcDbLine
 10
41.26533269120242
 20
0.0
 30
0.0
 11
41.69602888438369
 21
0.4306961931812696
 31
0.0
  0
LINE
  5
B33
330
1F
100
AcDbEntity
  8
SK1
  6
CONTINUOUS
370
50
 62
4
100
AcDbLine
 10
39.38148340435765
 20
-1.636361913429485
 30
0.0
 11
40.0
 21
-1.01784531778713
 31
0.0
  0
LINE
  5
B34
330
1F
100
AcDbEntity
  8
SK1
  6
CONTINUOUS
370
50
 62
4
100
AcDbLine
 10
41.01784531778713
 20
0.0
 30
0.0
 11
41.63636191342948
 21
0.6185165956423557
 31
0.0
  0
LINE
  5
B35
330
1F
100
AcDbEntity
  8
SK1
  6
CONTINUOUS
370
50
 62
4
100
AcDbLine
 10
39.2098551094628
 20
-1.560502834909039
 30
0.0
 11
40.0
 21
-0.7703579443718382
 31
0.0
  0
LINE
  5
B36
330
1F
100
AcDbEntity
  8
SK1
  6
CONTINUOUS
370
50
 62
4
100
AcDbLine
 10
40.77035794437184
 20
0.0
 30
0.0
 11
41.56050283490904
 21
0.7901448905372013
 31
0.0
  0
LINE
  5
B37
330
1F
100
AcDbEntity
  8
SK1
  6
CONTINUOUS
370
50
 62
4
100
AcDbLine
 10
39.05217783219447
 20
-1.470692738762079
 30
0.0
 11
40.0
 21
-0.5228705709565462
 31
0.0
  0
LINE
  5
B38
330
1F
100
AcDbEntity
  8
SK1
  6
CONTINUOUS
370
50
 62
4
100
AcDbLine
 10
40.52287057095655
 20
0.0
 30
0.0
 11
41.47069273876208
 21
0.947822167805533
 31
0.0
  0
LINE
  5
B39
330
1F
100
AcDbEntity
  8
SK1
  6
CONTINUOUS
370
50
 62
4
100
AcDbLine
 10
38.90842956711548
 20
-1.366953630425777
 30
0.0
 11
40.0
 21
-0.2753831975412551
 31
0.0
  0
LINE
  5
B3A
330
1F
100
AcDbEntity
  8
SK1
  6
CONTINUOUS
370
50
 62
4
100
AcDbLine
 10
40.27538319754125
 20
0.0
 30
0.0
 11
41.36695363042578
 21
1.091570432884522
 31
0.0
  0
LINE
  5
B3B
330
1F
100
AcDbEntity
  8
SK1
  6
CONTINUOUS
370
50
 62
4
100
AcDbLine
 10
38.77712164538165
 20
-1.25077417874432
 30
0.0
 11
40.0
 21
-0.0278958241259639
 31
0.0
  0
LINE
  5
B3C
330
1F
100
AcDbEntity
  8
SK1
  6
CONTINUOUS
370
50
 62
4
100
AcDbLine
 10
40.02789582412596
 20
0.0
 30
0.0
 11
41.25077417874432
 21
1.222878354618356
 31
0.0
  0
LINE
  5
B3D
330
1F
100
AcDbEntity
  8
SK1
  6
CONTINUOUS
370
50
 62
4
100
AcDbLine
 10
38.65784030371346
 20
-1.122568146997212
 30
0.0
 11
39.78040845071067
 21
0.0
 31
0.0
  0
LINE
  5
B3E
330
1F
100
AcDbEntity
  8
SK1
  6
CONTINUOUS
370
50
 62
4
100
AcDbLine
 10
40.0
 20
0.2195915492893277
 30
0.0
 11
41.12256814699721
 21
1.34215969628654
 31
0.0
  0
LINE
  5
B3F
330
1F
100
AcDbEntity
  8
SK1
  6
CONTINUOUS
370
50
 62
4
100
AcDbLine
 10
38.55188167231256
 20
-0.9810394049828186
 30
0.0
 11
39.53292107729538
 21
0.0
 31
0.0
  0
LINE
  5
B40
330
1F
100
AcDbEntity
  8
SK1
  6
CONTINUOUS
370
50
 62
4
100
AcDbLine
 10
40.0
 20
0.4670789227046193
 30
0.0
 11
40.98103940498282
 21
1.448118327687438
 31
0.0
  0
LINE
  5
B41
330
1F
100
AcDbEntity
  8
SK1
  6
CONTINUOUS
370
50
 62
4
100
AcDbLine
 10
38.45832908651575
 20
-0.8271046173643402
 30
0.0
 11
39.28543370388009
 21
0.0
 31
0.0
  0
LINE
  5
B42
330
1F
100
AcDbEntity
  8
SK1
  6
CONTINUOUS
370
50
 62
4
100
AcDbLine
 10
40.0
 20
0.71456629611991
 30
0.0
 11
40.82710461736434
 21
1.54167091348425
 31
0.0
  0
LINE
  5
B43
330
1F
100
AcDbEntity
  8
SK1
  6
CONTINUOUS
370
50
 62
4
100
AcDbLine
 10
38.37918473824205
 20
-0.6587615922227528
 30
0.0
 11
39.0379463304648
 21
0.0
 31
0.0
  0
LINE
  5
B44
330
1F
100
AcDbEntity
  8
SK1
  6
CONTINUOUS
370
50
 62
4
100
AcDbLine
 10
40.0
 20
0.9620536695352015
 30
0.0
 11
40.65876159222275
 21
1.620815261757954
 31
0.0
  0
LINE
  5
B45
330
1F
100
AcDbEntity
  8
SK1
  6
CONTINUOUS
370
50
 62
4
100
AcDbLine
 10
38.31629687706963
 20
-0.474162079979876
 30
0.0
 11
38.79045895704951
 21
0.0
 31
0.0
  0
LINE
  5
B46
330
1F
100
AcDbEntity
  8
SK1
  6
CONTINUOUS
370
50
 62
4
100
AcDbLine
 10
40.0
 20
1.209541042950494
 30
0.0
 11
40.47416207997988
 21
1.683703122930369
 31
0.0
  0
LINE
  5
B47
330
1F
100
AcDbEntity
  8
SK1
  6
CONTINUOUS
370
50
 62
4
100
AcDbLine
 10
38.27198100434271
 20
-0.2709905792915031
 30
0.0
 11
38.54297158363422
 21
0.0
 31
0.0
  0
LINE
  5
B48
330
1F
100
AcDbEntity
  8
SK1
  6
CONTINUOUS
370
50
 62
4
100
AcDbLine
 10
40.0
 20
1.457028416365784
 30
0.0
 11
40.2709905792915
 21
1.728018995657286
 31
0.0
  0
LINE
  5
B49
330
1F
100
AcDbEntity
  8
SK1
  6
CONTINUOUS
370
50
 62
4
100
AcDbLine
 10
38.2513858468978
 20
-0.0440983633211194
 30
0.0
 11
38.29548421021892
 21
0.0
 31
0.0
  0
LINE
  5
B4A
330
1F
100
AcDbEntity
  8
SK1
  6
CONTINUOUS
370
50
 62
4
100
AcDbLine
 10
40.0
 20
1.704515789781075
 30
0.0
 11
40.04409836332112
 21
1.748614153102194
 31
0.0
  0
LINE
  5
B4B
330
1F
100
AcDbEntity
  8
SK1
  6
CONTINUOUS
370
50
 62
4
100
AcDbLine
 10
38.36386517603682
 20
-0.6191473609004006
 30
0.0
 11
39.3808526390996
 21
-1.636134823963186
 31
0.0
  0
LINE
  5
B4C
330
1F
100
AcDbEntity
  8
SK1
  6
CONTINUOUS
370
50
 62
4
100
AcDbLine
 10
38.27363430643545
 20
-0.2814291178837463
 30
0.0
 11
39.71857088211625
 21
-1.726365693564548
 31
0.0
  0
LINE
  5
B4D
330
1F
100
AcDbEntity
  8
SK1
  6
CONTINUOUS
370
50
 62
4
100
AcDbLine
 10
38.2503344343115
 20
-0.0106418723445003
 30
0.0
 11
39.9893581276555
 21
-1.749665565688503
 31
0.0
  0
LINE
  5
B4E
330
1F
100
AcDbEntity
  8
SK1
  6
CONTINUOUS
370
50
 62
4
100
AcDbLine
 10
38.48717993538229
 20
0.0
 30
0.0
 11
40.0
 21
-1.51282006461771
 31
0.0
  0
LINE
  5
B4F
330
1F
100
AcDbEntity
  8
SK1
  6
CONTINUOUS
370
50
 62
4
100
AcDbLine
 10
38.73466730879758
 20
0.0
 30
0.0
 11
40.0
 21
-1.265332691202418
 31
0.0
  0
LINE
  5
B50
330
1F
100
AcDbEntity
  8
SK1
  6
CONTINUOUS
370
50
 62
4
100
AcDbLine
 10
38.98215468221287
 20
0.0
 30
0.0
 11
40.0
 21
-1.017845317787128
 31
0.0
  0
LINE
  5
B51
330
1F
100
AcDbEntity
  8
SK1
  6
CONTINUOUS
370
50
 62
4
100
AcDbLine
 10
39.22964205562816
 20
0.0
 30
0.0
 11
40.0
 21
-0.7703579443718369
 31
0.0
  0
LINE
  5
B52
330
1F
100
AcDbEntity
  8
SK1
  6
CONTINUOUS
370
50
 62
4
100
AcDbLine
 10
39.47712942904345
 20
0.0
 30
0.0
 11
40.0
 21
-0.5228705709565453
 31
0.0
  0
LINE
  5
B53
330
1F
100
AcDbEntity
  8
SK1
  6
CONTINUOUS
370
50
 62
4
100
AcDbLine
 10
39.72461680245875
 20
0.0
 30
0.0
 11
40.0
 21
-0.2753831975412537
 31
0.0
  0
LINE
  5
B54
330
1F
100
AcDbEntity
  8
SK1
  6
CONTINUOUS
370
50
 62
4
100
AcDbLine
 10
39.97210417587404
 20
0.0
 30
0.0
 11
40.0
 21
-0.027895824125963
 31
0.0
  0
LINE
  5
B55
330
1F
100
AcDbEntity
  8
SK1
  6
CONTINUOUS
370
50
 62
4
100
AcDbLine
 10
40.0
 20
0.219591549289329
 30
0.0
 11
40.21959154928933
 21
0.0
 31
0.0
  0
LINE
  5
B56
330
1F
100
AcDbEntity
  8
SK1
  6
CONTINUOUS
370
50
 62
4
100
AcDbLine
 10
40.0
 20
0.4670789227046202
 30
0.0
 11
40.46707892270462
 21
0.0
 31
0.0
  0
LINE
  5
B57
330
1F
100
AcDbEntity
  8
SK1
  6
CONTINUOUS
370
50
 62
4
100
AcDbLine
 10
40.0
 20
0.7145662961199113
 30
0.0
 11
40.71456629611991
 21
0.0
 31
0.0
  0
LINE
  5
B58
330
1F
100
AcDbEntity
  8
SK1
  6
CONTINUOUS
370
50
 62
4
100
AcDbLine
 10
40.0
 20
0.9620536695352029
 30
0.0
 11
40.9620536695352
 21
0.0
 31
0.0
  0
LINE
  5
B59
330
1F
100
AcDbEntity
  8
SK1
  6
CONTINUOUS
370
50
 62
4
100
AcDbLine
 10
40.0
 20
1.209541042950494
 30
0.0
 11
41.2095410429505
 21
0.0
 31
0.0
  0
LINE
  5
B5A
330
1F
100
AcDbEntity
  8
SK1
  6
CONTINUOUS
370
50
 62
4
100
AcDbLine
 10
40.0
 20
1.457028416365785
 30
0.0
 11
41.45702841636579
 21
0.0
 31
0.0
  0
LINE
  5
B5B
330
1F
100
AcDbEntity
  8
SK1
  6
CONTINUOUS
370
50
 62
4
100
AcDbLine
 10
40.0
 20
1.704515789781076
 30
0.0
 11
41.70451578978108
 21
0.0
 31
0.0
  0
LINE
  5
B5C
330
1F
100
AcDbEntity
  8
SK1
  6
CONTINUOUS
370
50
 62
4
100
AcDbLine
 10
40.21543384193567
 20
1.736569321260697
 30
0.0
 11
41.7365693212607
 21
0.2154338419356714
 31
0.0
  0
LINE
  5
B5D
330
1F
100
AcDbEntity
  8
SK1
  6
CONTINUOUS
370
50
 62
4
100
AcDbLine
 10
40.53283284728993
 20
1.666657689321729
 30
0.0
 11
41.66665768932173
 21
0.5328328472899322
 31
0.0
  0
LINE
  5
B5E
330
1F
100
AcDbEntity
  8
SK1
  6
CONTINUOUS
370
50
 62
4
100
AcDbLine
 10
41.04009874905675
 20
1.406879160970207
 30
0.0
 11
41.40687916097021
 21
1.040098749056747
 31
0.0
  0
LINE
  5
B5F
330
1F
100
AcDbEntity
  8
4
  6
LONGDASH_DASH
370
25
 62
2
100
AcDbLine
 10
40.0
 20
0.0
 30
0.0
 11
130.0
 21
0.0
 31
0.0
  0
LINE
  5
B60
330
1F
100
AcDbEntity
  8
SK4
  6
LONGDASH_DASH
370
25
 62
2
100
AcDbLine
 10
-6.0
 20
0.0
 30
0.0
 11
136.0
 21
0.0
 31
0.0
  0
ARC
  5
B61
330
1F
100
AcDbEntity
  8
SK6
  6
CONTINUOUS
370
25
 62
5
100
AcDbCircle
 10
162.4613820083765
 20
-30.03885760338786
 30
0.0
 40
2.76048912849221
100
AcDbArc
 50
338.9379403434233
 51
90.44457437511392
  0
LINE
  5
B62
330
1F
100
AcDbEntity
  8
SK6
  6
CONTINUOUS
370
25
 62
5
100
AcDbLine
 10
162.4399627969598
 20
-27.27845157421281
 30
0.0
 11
162.4399627969598
 21
-28.38151020613464
 31
0.0
  0
ARC
  5
B63
330
1F
100
AcDbEntity
  8
SK6
  6
CONTINUOUS
370
25
 62
5
100
AcDbCircle
 10
162.4505090293692
 20
-30.05885109566821
 30
0.0
 40
1.677374043771792
100
AcDbArc
 50
243.421470601786
 51
90.3602408122618
  0
ARC
  5
B64
330
1F
100
AcDbEntity
  8
SK6
  6
CONTINUOUS
370
25
 62
5
100
AcDbCircle
 10
164.9727598968496
 20
-29.62744384215561
 30
0.0
 40
3.80021703002276
100
AcDbArc
 50
210.5483731288539
 51
236.9780169366803
  0
LINE
  5
B65
330
1F
100
AcDbEntity
  8
SK6
  6
CONTINUOUS
370
25
 62
5
100
AcDbLine
 10
162.9017906851249
 20
-32.81377966867535
 30
0.0
 11
167.0437309674267
 21
-32.81377966867535
 31
0.0
  0
ARC
  5
B66
330
1F
100
AcDbEntity
  8
SK6
  6
CONTINUOUS
370
25
 62
5
100
AcDbCircle
 10
164.9727618387726
 20
-29.6274439437346
 30
0.0
 40
3.80021689958248
100
AcDbArc
 50
303.021982847796
 51
326.3732153033476
  0
LINE
  5
B67
330
1F
100
AcDbEntity
  8
SK6
  6
CONTINUOUS
370
25
 62
5
100
AcDbLine
 10
168.1370597513572
 20
-31.7319313407709
 30
0.0
 11
164.7797617057546
 21
-31.7319313407709
 31
0.0
  0
LINE
  5
B68
330
1F
100
AcDbEntity
  8
SK6
  6
CONTINUOUS
370
25
 62
5
100
AcDbLine
 10
164.7797617057546
 20
-31.7319313407709
 30
0.0
 11
168.6996210977199
 21
-30.37053014641694
 31
0.0
  0
ARC
  5
B69
330
1F
100
AcDbEntity
  8
SK6
  6
CONTINUOUS
370
25
 62
5
100
AcDbCircle
 10
164.9727625615721
 20
-29.6274444548594
 30
0.0
 40
3.800217216614737
100
AcDbArc
 50
348.7238644184696
 51
53.4691051260886
  0
LINE
  5
B6A
330
1F
100
AcDbEntity
  8
SK6
  6
CONTINUOUS
370
25
 62
5
100
AcDbLine
 10
167.2348652453854
 20
-26.57383309429967
 30
0.0
 11
165.0374504788273
 21
-31.03092158507058
 31
0.0
  0
ENDSEC
  0
SECTION
  2
OBJECTS
  0
DICTIONARY
  5
C
330
0
100
AcDbDictionary
281
     1
  3
ACAD_GROUP
350
D
  3
ACAD_LAYOUT
350
1A
  3
ACAD_MATERIAL
350
3B
  3
ACAD_MLEADERSTYLE
350
B6D
  3
ACAD_MLINESTYLE
350
17
  3
ACAD_PLOTSETTINGS
350
19
  3
ACAD_PLOTSTYLENAME
350
E
  3
ACAD_SCALELIST
350
36A
  3
ACAD_VISUALSTYLE
350
2A
  3
AcDbVariableDictionary
350
B6B
  0
DICTIONARY
  5
D
102
{ACAD_REACTORS
330
C
102
}
330
C
100
AcDbDictionary
281
     1
  0
DICTIONARY
  5
1A
102
{ACAD_REACTORS
330
C
102
}
330
C
100
AcDbDictionary
281
     1
  3
Layout1
350
1E
  3
Layout2
350
26
  3
Model
350
22
  0
DICTIONARY
  5
3B
102
{ACAD_REACTORS
330
C
102
}
330
C
100
AcDbDictionary
281
     1
  3
ByBlock
350
3D
  3
ByLayer
350
3C
  3
Global
350
3E
  0
DICTIONARY
  5
B6D
102
{ACAD_REACTORS
330
C
102
}
330
C
100
AcDbDictionary
281
     1
  0
DICTIONARY
  5
17
102
{ACAD_REACTORS
330
C
102
}
330
C
100
AcDbDictionary
281
     1
  3
Standard
350
18
  0
DICTIONARY
  5
19
102
{ACAD_REACTORS
330
C
102
}
330
C
100
AcDbDictionary
281
     1
  0
ACDBDICTIONARYWDFLT
  5
E
102
{ACAD_REACTORS
330
C
102
}
330
C
100
AcDbDictionary
281
     1
  3
Normal
350
F
100
AcDbDictionaryWithDefault
340
F
  0
DICTIONARY
  5
36A
102
{ACAD_REACTORS
330
C
102
}
330
C
100
AcDbDictionary
281
     1
  3
A0
350
36B
  3
A1
350
36C
  3
A2
350
36D
  3
A3
350
36E
  3
A4
350
36F
  3
A5
350
370
  3
A6
350
371
  3
A7
350
372
  3
A8
350
373
  3
A9
350
374
  3
B0
350
375
  3
B1
350
376
  3
B2
350
377
  3
B3
350
378
  3
B4
350
379
  3
B5
350
37A
  3
B6
350
37B
  3
B7
350
37C
  3
B8
350
37D
  3
B9
350
37E
  3
C0
350
37F
  3
C1
350
380
  3
C2
350
381
  3
C3
350
382
  3
C4
350
383
  3
C5
350
384
  3
C6
350
385
  3
C7
350
386
  3
C8
350
387
  3
C9
350
388
  3
D0
350
389
  3
D1
350
38A
  3
D2
350
38B
  0
DICTIONARY
  5
2A
102
{ACAD_REACTORS
330
C
102
}
330
C
100
AcDbDictionary
281
     1
  3
2dWireframe
350
2F
  3
3D Hidden
350
31
  3
3dWireframe
350
30
  3
Basic
350
32
  3
Brighten
350
36
  3
ColorChange
350
3A
  3
Conceptual
350
34
  3
Dim
350
35
  3
Facepattern
350
39
  3
Flat
350
2B
  3
FlatWithEdges
350
2C
  3
Gouraud
350
2D
  3
GouraudWithEdges
350
2E
  3
Linepattern
350
38
  3
Realistic
350
33
  3
Thicken
350
37
  0
DICTIONARY
  5
B6B
102
{ACAD_REACTORS
330
C
102
}
330
C
100
AcDbDictionary
281
     1
  3
CANNOSCALE
350
B70
  3
DIMASSOC
350
B71
  3
HIDETEXT
350
B72
  3
PSOLHEIGHT
350
B6F
  3
PSOLWIDTH
350
B6E
  0
LAYOUT
  5
1E
102
{ACAD_REACTORS
330
1A
102
}
330
1A
100
AcDbPlotSettings
  1

  2
none_device
  4

  6

 40
0.0
 41
0.0
 42
0.0
 43
0.0
 44
0.0
 45
0.0
 46
0.0
 47
0.0
 48
0.0
 49
0.0
140
0.0
141
0.0
142
1.0
143
1.0
 70
   688
 72
     0
 73
     0
 74
     5
  7

 75
    16
147
1.0
148
0.0
149
0.0
100
AcDbLayout
  1
Layout1
 70
     1
 71
     1
 10
0.0
 20
0.0
 11
420.0
 21
297.0
 12
0.0
 22
0.0
 32
0.0
 14
1.000000000000000E+20
 24
1.000000000000000E+20
 34
1.000000000000000E+20
 15
-1.000000000000000E+20
 25
-1.000000000000000E+20
 35
-1.000000000000000E+20
146
0.0
 13
0.0
 23
0.0
 33
0.0
 16
1.0
 26
0.0
 36
0.0
 17
0.0
 27
1.0
 37
0.0
 76
     0
330
1B
  0
LAYOUT
  5
26
102
{ACAD_REACTORS
330
1A
102
}
330
1A
100
AcDbPlotSettings
  1

  2
none_device
  4

  6

 40
0.0
 41
0.0
 42
0.0
 43
0.0
 44
0.0
 45
0.0
 46
0.0
 47
0.0
 48
0.0
 49
0.0
140
0.0
141
0.0
142
1.0
143
1.0
 70
   688
 72
     0
 73
     0
 74
     5
  7

 75
    16
147
1.0
148
0.0
149
0.0
100
AcDbLayout
  1
Layout2
 70
     1
 71
     2
 10
0.0
 20
0.0
 11
0.0
 21
0.0
 12
0.0
 22
0.0
 32
0.0
 14
0.0
 24
0.0
 34
0.0
 15
0.0
 25
0.0
 35
0.0
146
0.0
 13
0.0
 23
0.0
 33
0.0
 16
1.0
 26
0.0
 36
0.0
 17
0.0
 27
1.0
 37
0.0
 76
     0
330
23
  0
LAYOUT
  5
22
102
{ACAD_REACTORS
330
1A
102
}
330
1A
100
AcDbPlotSettings
  1

  2
none_device
  4

  6

 40
0.0
 41
0.0
 42
0.0
 43
0.0
 44
0.0
 45
0.0
 46
0.0
 47
0.0
 48
0.0
 49
0.0
140
0.0
141
0.0
142
1.0
143
1.0
 70
  1712
 72
     0
 73
     0
 74
     0
  7

 75
     0
147
1.0
148
0.0
149
0.0
100
AcDbLayout
  1
Model
 70
     1
 71
     0
 10
0.0
 20
0.0
 11
420.0
 21
297.0
 12
0.0
 22
0.0
 32
0.0
 14
0.0
 24
0.0
 34
0.0
 15
25.0
 25
35.0
 35
0.0
146
0.0
 13
0.0
 23
0.0
 33
0.0
 16
1.0
 26
0.0
 36
0.0
 17
0.0
 27
1.0
 37
0.0
 76
     0
330
1F
331
29
  0
MATERIAL
  5
3D
102
{ACAD_REACTORS
330
3B
102
}
102
{ACAD_XDICTIONARY
360
B95
102
}
330
3B
100
AcDbMaterial
  1
ByBlock
  0
MATERIAL
  5
3C
102
{ACAD_REACTORS
330
3B
102
}
102
{ACAD_XDICTIONARY
360
B93
102
}
330
3B
100
AcDbMaterial
  1
ByLayer
  0
MATERIAL
  5
3E
102
{ACAD_REACTORS
330
3B
102
}
102
{ACAD_XDICTIONARY
360
B97
102
}
330
3B
100
AcDbMaterial
  1
Global
  0
MLINESTYLE
  5
18
102
{ACAD_REACTORS
330
17
102
}
330
17
100
AcDbMlineStyle
  2
Standard
 70
     0
  3

 62
   256
 51
90.0
 52
90.0
 71
     2
 49
0.5
 62
   256
  6
BYLAYER
 49
-0.5
 62
   256
  6
BYLAYER
  0
ACDBPLACEHOLDER
  5
F
102
{ACAD_REACTORS
330
E
102
}
330
E
  0
SCALE
  5
36B
102
{ACAD_REACTORS
330
36A
102
}
330
36A
100
AcDbScale
 70
     0
300
1:1
140
1.0
141
1.0
290
     1
  0
SCALE
  5
36C
102
{ACAD_REACTORS
330
36A
102
}
330
36A
100
AcDbScale
 70
     0
300
1:2
140
1.0
141
2.0
290
     0
  0
SCALE
  5
36D
102
{ACAD_REACTORS
330
36A
102
}
330
36A
100
AcDbScale
 70
     0
300
1:4
140
1.0
141
4.0
290
     0
  0
SCALE
  5
36E
102
{ACAD_REACTORS
330
36A
102
}
330
36A
100
AcDbScale
 70
     0
300
1:5
140
1.0
141
5.0
290
     0
  0
SCALE
  5
36F
102
{ACAD_REACTORS
330
36A
102
}
330
36A
100
AcDbScale
 70
     0
300
1:8
140
1.0
141
8.0
290
     0
  0
SCALE
  5
370
102
{ACAD_REACTORS
330
36A
102
}
330
36A
100
AcDbScale
 70
     0
300
1:10
140
1.0
141
10.0
290
     0
  0
SCALE
  5
371
102
{ACAD_REACTORS
330
36A
102
}
330
36A
100
AcDbScale
 70
     0
300
1:16
140
1.0
141
16.0
290
     0
  0
SCALE
  5
372
102
{ACAD_REACTORS
330
36A
102
}
330
36A
100
AcDbScale
 70
     0
300
1:20
140
1.0
141
20.0
290
     0
  0
SCALE
  5
373
102
{ACAD_REACTORS
330
36A
102
}
330
36A
100
AcDbScale
 70
     0
300
1:30
140
1.0
141
30.0
290
     0
  0
SCALE
  5
374
102
{ACAD_REACTORS
330
36A
102
}
330
36A
100
AcDbScale
 70
     0
300
1:40
140
1.0
141
40.0
290
     0
  0
SCALE
  5
375
102
{ACAD_REACTORS
330
36A
102
}
330
36A
100
AcDbScale
 70
     0
300
1:50
140
1.0
141
50.0
290
     0
  0
SCALE
  5
376
102
{ACAD_REACTORS
330
36A
102
}
330
36A
100
AcDbScale
 70
     0
300
1:100
140
1.0
141
100.0
290
     0
  0
SCALE
  5
377
102
{ACAD_REACTORS
330
36A
102
}
330
36A
100
AcDbScale
 70
     0
300
2:1
140
2.0
141
1.0
290
     0
  0
SCALE
  5
378
102
{ACAD_REACTORS
330
36A
102
}
330
36A
100
AcDbScale
 70
     0
300
4:1
140
4.0
141
1.0
290
     0
  0
SCALE
  5
379
102
{ACAD_REACTORS
330
36A
102
}
330
36A
100
AcDbScale
 70
     0
300
8:1
140
8.0
141
1.0
290
     0
  0
SCALE
  5
37A
102
{ACAD_REACTORS
330
36A
102
}
330
36A
100
AcDbScale
 70
     0
300
10:1
140
10.0
141
1.0
290
     0
  0
SCALE
  5
37B
102
{ACAD_REACTORS
330
36A
102
}
330
36A
100
AcDbScale
 70
     0
300
100:1
140
100.0
141
1.0
290
     0
  0
SCALE
  5
37C
102
{ACAD_REACTORS
330
36A
102
}
330
36A
100
AcDbScale
 70
     0
300
1/128" = 1'-0"
140
0.0078125
141
12.0
290
     0
  0
SCALE
  5
37D
102
{ACAD_REACTORS
330
36A
102
}
330
36A
100
AcDbScale
 70
     0
300
1/64" = 1'-0"
140
0.015625
141
12.0
290
     0
  0
SCALE
  5
37E
102
{ACAD_REACTORS
330
36A
102
}
330
36A
100
AcDbScale
 70
     0
300
1/32" = 1'-0"
140
0.03125
141
12.0
290
     0
  0
SCALE
  5
37F
102
{ACAD_REACTORS
330
36A
102
}
330
36A
100
AcDbScale
 70
     0
300
1/16" = 1'-0"
140
0.0625
141
12.0
290
     0
  0
SCALE
  5
380
102
{ACAD_REACTORS
330
36A
102
}
330
36A
100
AcDbScale
 70
     0
300
3/32" = 1'-0"
140
0.09375
141
12.0
290
     0
  0
SCALE
  5
381
102
{ACAD_REACTORS
330
36A
102
}
330
36A
100
AcDbScale
 70
     0
300
1/8" = 1'-0"
140
0.125
141
12.0
290
     0
  0
SCALE
  5
382
102
{ACAD_REACTORS
330
36A
102
}
330
36A
100
AcDbScale
 70
     0
300
3/16" = 1'-0"
140
0.1875
141
12.0
290
     0
  0
SCALE
  5
383
102
{ACAD_REACTORS
330
36A
102
}
330
36A
100
AcDbScale
 70
     0
300
1/4" = 1'-0"
140
0.25
141
12.0
290
     0
  0
SCALE
  5
384
102
{ACAD_REACTORS
330
36A
102
}
330
36A
100
AcDbScale
 70
     0
300
3/8" = 1'-0"
140
0.375
141
12.0
290
     0
  0
SCALE
  5
385
102
{ACAD_REACTORS
330
36A
102
}
330
36A
100
AcDbScale
 70
     0
300
1/2" = 1'-0"
140
0.5
141
12.0
290
     0
  0
SCALE
  5
386
102
{ACAD_REACTORS
330
36A
102
}
330
36A
100
AcDbScale
 70
     0
300
3/4" = 1'-0"
140
0.75
141
12.0
290
     0
  0
SCALE
  5
387
102
{ACAD_REACTORS
330
36A
102
}
330
36A
100
AcDbScale
 70
     0
300
1" = 1'-0"
140
1.0
141
12.0
290
     0
  0
SCALE
  5
388
102
{ACAD_REACTORS
330
36A
102
}
330
36A
100
AcDbScale
 70
     0
300
1-1/2" = 1'-0"
140
1.5
141
12.0
290
     0
  0
SCALE
  5
389
102
{ACAD_REACTORS
330
36A
102
}
330
36A
100
AcDbScale
 70
     0
300
3" = 1'-0"
140
3.0
141
12.0
290
     0
  0
SCALE
  5
38A
102
{ACAD_REACTORS
330
36A
102
}
330
36A
100
AcDbScale
 70
     0
300
6" = 1'-0"
140
6.0
141
12.0
290
     0
  0
SCALE
  5
38B
102
{ACAD_REACTORS
330
36A
102
}
330
36A
100
AcDbScale
 70
     0
300
1'-0" = 1'-0"
140
12.0
141
12.0
290
     0
  0
VISUALSTYLE
  5
2F
102
{ACAD_REACTORS
330
2A
102
}
102
{ACAD_XDICTIONARY
360
B7B
102
}
330
2A
100
AcDbVisualStyle
  2
2dWireframe
 70
     4
 71
     0
 72
     2
 73
     0
 90
        0
 40
-0.6
 41
-30.0
 62
     5
 63
     7
 74
     1
 91
        4
 64
     7
 65
   257
 75
     1
175
     1
 42
1.0
 92
        0
 66
   257
 43
1.0
 76
     1
 77
     6
 78
     2
 67
     7
 79
     5
170
     0
171
     0
290
     0
174
     0
 93
        1
 44
0.0
173
     0
291
     0
 45
0.0
1001
ACAD
1000
AcDbSavedByObjectVersion
1070
     0
  0
VISUALSTYLE
  5
31
102
{ACAD_REACTORS
330
2A
102
}
102
{ACAD_XDICTIONARY
360
B7F
102
}
330
2A
100
AcDbVisualStyle
  2
3D Hidden
 70
     6
 71
     1
 72
     2
 73
     2
 90
        0
 40
-0.6
 41
-30.0
 62
     5
 63
     7
 74
     2
 91
        2
 64
     7
 65
   257
 75
     2
175
     1
 42
40.0
 92
        0
 66
   257
 43
1.0
 76
     1
 77
     6
 78
     2
 67
     7
 79
     3
170
     0
171
     0
290
     0
174
     0
 93
        1
 44
0.0
173
     0
291
     0
 45
0.0
1001
ACAD
1000
AcDbSavedByObjectVersion
1070
     0
  0
VISUALSTYLE
  5
30
102
{ACAD_REACTORS
330
2A
102
}
102
{ACAD_XDICTIONARY
360
B7D
102
}
330
2A
100
AcDbVisualStyle
  2
3dWireframe
 70
     5
 71
     0
 72
     2
 73
     0
 90
        0
 40
-0.6
 41
-30.0
 62
     5
 63
     7
 74
     1
 91
        4
 64
     7
 65
   257
 75
     1
175
     1
 42
1.0
 92
        0
 66
   257
 43
1.0
 76
     1
 77
     6
 78
     2
 67
     7
 79
     5
170
     0
171
     0
290
     0
174
     0
 93
        1
 44
0.0
173
     0
291
     0
 45
0.0
1001
ACAD
1000
AcDbSavedByObjectVersion
1070
     0
  0
VISUALSTYLE
  5
32
102
{ACAD_REACTORS
330
2A
102
}
102
{ACAD_XDICTIONARY
360
B81
102
}
330
2A
100
AcDbVisualStyle
  2
Basic
 70
     7
 71
     1
 72
     0
 73
     1
 90
        0
 40
-0.6
 41
-30.0
 62
     5
 63
     7
 74
     0
 91
        4
 64
     7
 65
   257
 75
     1
175
     1
 42
1.0
 92
        8
 66
     7
 43
1.0
 76
     1
 77
     6
 78
     2
 67
     7
 79
     5
170
     0
171
     0
290
     0
174
     0
 93
        1
 44
0.0
173
     0
291
     1
 45
0.0
1001
ACAD
1000
AcDbSavedByObjectVersion
1070
     0
  0
VISUALSTYLE
  5
36
102
{ACAD_REACTORS
330
2A
102
}
102
{ACAD_XDICTIONARY
360
B89
102
}
330
2A
100
AcDbVisualStyle
  2
Brighten
 70
    12
 71
     2
 72
     2
 73
     0
 90
        0
 40
-0.6
 41
-30.0
 62
     5
 63
     7
 74
     1
 91
        4
 64
     7
 65
   257
 75
     1
175
     1
 42
1.0
 92
        8
 66
     7
 43
1.0
 76
     1
 77
     6
 78
     2
 67
     7
 79
     5
170
     0
171
     0
290
     0
174
     0
 93
        1
 44
50.0
173
     0
291
     1
 45
0.0
1001
ACAD
1000
AcDbSavedByObjectVersion
1070
     0
  0
VISUALSTYLE
  5
3A
102
{ACAD_REACTORS
330
2A
102
}
102
{ACAD_XDICTIONARY
360
B91
102
}
330
2A
100
AcDbVisualStyle
  2
ColorChange
 70
    16
 71
     2
 72
     2
 73
     3
 90
        0
 40
-0.6
 41
-30.0
 62
     5
 63
     8
 74
     1
 91
        4
 64
     7
 65
   257
 75
     1
175
     1
 42
1.0
 92
        8
 66
     8
 43
1.0
 76
     1
 77
     6
 78
     2
 67
     7
 79
     5
170
     0
171
     0
290
     0
174
     0
 93
        1
 44
0.0
173
     0
291
     1
 45
0.0
1001
ACAD
1000
AcDbSavedByObjectVersion
1070
     0
  0
VISUALSTYLE
  5
34
102
{ACAD_REACTORS
330
2A
102
}
102
{ACAD_XDICTIONARY
360
B85
102
}
330
2A
100
AcDbVisualStyle
  2
Conceptual
 70
     9
 71
     3
 72
     2
 73
     0
 90
        0
 40
-0.6
 41
-30.0
 62
     5
 63
     7
 74
     2
 91
        2
 64
     7
 65
   257
 75
     1
175
     1
 42
40.0
 92
        8
 66
     7
 43
1.0
 76
     1
 77
     6
 78
     2
 67
     7
 79
     3
170
     0
171
     0
290
     0
174
     0
 93
        1
 44
0.0
173
     0
291
     0
 45
0.0
1001
ACAD
1000
AcDbSavedByObjectVersion
1070
     0
  0
VISUALSTYLE
  5
35
102
{ACAD_REACTORS
330
2A
102
}
102
{ACAD_XDICTIONARY
360
B87
102
}
330
2A
100
AcDbVisualStyle
  2
Dim
 70
    11
 71
     2
 72
     2
 73
     0
 90
        0
 40
-0.6
 41
-30.0
 62
     5
 63
     7
 74
     1
 91
        4
 64
     7
 65
   257
 75
     1
175
     1
 42
1.0
 92
        8
 66
     7
 43
1.0
 76
     1
 77
     6
 78
     2
 67
     7
 79
     5
170
     0
171
     0
290
     0
174
     0
 93
        1
 44
-50.0
173
     0
291
     1
 45
0.0
1001
ACAD
1000
AcDbSavedByObjectVersion
1070
     0
  0
VISUALSTYLE
  5
39
102
{ACAD_REACTORS
330
2A
102
}
102
{ACAD_XDICTIONARY
360
B8F
102
}
330
2A
100
AcDbVisualStyle
  2
Facepattern
 70
    15
 71
     2
 72
     2
 73
     0
 90
        0
 40
-0.6
 41
-30.0
 62
     5
 63
     7
 74
     1
 91
        4
 64
     7
 65
   257
 75
     1
175
     1
 42
1.0
 92
        8
 66
     7
 43
1.0
 76
     1
 77
     6
 78
     2
 67
     7
 79
     5
170
     0
171
     0
290
     0
174
     0
 93
        1
 44
0.0
173
     0
291
     1
 45
0.0
1001
ACAD
1000
AcDbSavedByObjectVersion
1070
     0
  0
VISUALSTYLE
  5
2B
102
{ACAD_REACTORS
330
2A
102
}
102
{ACAD_XDICTIONARY
360
B73
102
}
330
2A
100
AcDbVisualStyle
  2
Flat
 70
     0
 71
     2
 72
     1
 73
     1
 90
        2
 40
-0.6
 41
30.0
 62
     5
 63
     7
 74
     0
 91
        4
 64
     7
 65
   257
 75
     1
175
     1
 42
1.0
 92
        8
 66
     7
 43
1.0
 76
     1
 77
     6
 78
     2
 67
     7
 79
     5
170
     0
171
     0
290
     0
174
     0
 93
       13
 44
0.0
173
     0
291
     1
 45
0.0
1001
ACAD
1000
AcDbSavedByObjectVersion
1070
     0
  0
VISUALSTYLE
  5
2C
102
{ACAD_REACTORS
330
2A
102
}
102
{ACAD_XDICTIONARY
360
B75
102
}
330
2A
100
AcDbVisualStyle
  2
FlatWithEdges
 70
     1
 71
     2
 72
     1
 73
     1
 90
        2
 40
-0.6
 41
30.0
 62
     5
 63
     7
 74
     1
 91
        4
 64
     7
 65
   257
 75
     1
175
     1
 42
1.0
 92
        0
 66
   257
 43
1.0
 76
     1
 77
     6
 78
     2
 67
     7
 79
     5
170
     0
171
     0
290
     0
174
     0
 93
       13
 44
0.0
173
     0
291
     1
 45
0.0
1001
ACAD
1000
AcDbSavedByObjectVersion
1070
     0
  0
VISUALSTYLE
  5
2D
102
{ACAD_REACTORS
330
2A
102
}
102
{ACAD_XDICTIONARY
360
B77
102
}
330
2A
100
AcDbVisualStyle
  2
Gouraud
 70
     2
 71
     2
 72
     2
 73
     1
 90
        2
 40
-0.6
 41
30.0
 62
     5
 63
     7
 74
     0
 91
        4
 64
     7
 65
   257
 75
     1
175
     1
 42
1.0
 92
        0
 66
     7
 43
1.0
 76
     1
 77
     6
 78
     2
 67
     7
 79
     5
170
     0
171
     0
290
     0
174
     0
 93
       13
 44
0.0
173
     0
291
     1
 45
0.0
1001
ACAD
1000
AcDbSavedByObjectVersion
1070
     0
  0
VISUALSTYLE
  5
2E
102
{ACAD_REACTORS
330
2A
102
}
102
{ACAD_XDICTIONARY
360
B79
102
}
330
2A
100
AcDbVisualStyle
  2
GouraudWithEdges
 70
     3
 71
     2
 72
     2
 73
     1
 90
        2
 40
-0.6
 41
30.0
 62
     5
 63
     7
 74
     1
 91
        4
 64
     7
 65
   257
 75
     1
175
     1
 42
1.0
 92
        0
 66
   257
 43
1.0
 76
     1
 77
     6
 78
     2
 67
     7
 79
     5
170
     0
171
     0
290
     0
174
     0
 93
       13
 44
0.0
173
     0
291
     1
 45
0.0
1001
ACAD
1000
AcDbSavedByObjectVersion
1070
     0
  0
VISUALSTYLE
  5
38
102
{ACAD_REACTORS
330
2A
102
}
102
{ACAD_XDICTIONARY
360
B8D
102
}
330
2A
100
AcDbVisualStyle
  2
Linepattern
 70
    14
 71
     2
 72
     2
 73
     0
 90
        0
 40
-0.6
 41
-30.0
 62
     5
 63
     7
 74
     1
 91
        4
 64
     7
 65
   257
 75
     7
175
     7
 42
1.0
 92
        8
 66
     7
 43
1.0
 76
     1
 77
     6
 78
     2
 67
     7
 79
     5
170
     0
171
     0
290
     0
174
     0
 93
        1
 44
0.0
173
     0
291
     1
 45
0.0
1001
ACAD
1000
AcDbSavedByObjectVersion
1070
     0
  0
VISUALSTYLE
  5
33
102
{ACAD_REACTORS
330
2A
102
}
102
{ACAD_XDICTIONARY
360
B83
102
}
330
2A
100
AcDbVisualStyle
  2
Realistic
 70
     8
 71
     2
 72
     2
 73
     0
 90
        0
 40
-0.6
 41
-30.0
 62
     5
 63
     7
 74
     1
 91
        0
 64
     7
 65
   257
 75
     1
175
     1
 42
1.0
 92
        8
 66
     8
 43
1.0
 76
     1
 77
     6
 78
     2
 67
     7
 79
     5
170
     0
171
     0
290
     0
174
     0
 93
       13
 44
0.0
173
     0
291
     0
 45
0.0
1001
ACAD
1000
AcDbSavedByObjectVersion
1070
     0
  0
VISUALSTYLE
  5
37
102
{ACAD_REACTORS
330
2A
102
}
102
{ACAD_XDICTIONARY
360
B8B
102
}
330
2A
100
AcDbVisualStyle
  2
Thicken
 70
    13
 71
     2
 72
     2
 73
     0
 90
        0
 40
-0.6
 41
-30.0
 62
     5
 63
     7
 74
     1
 91
        4
 64
     7
 65
   257
 75
     1
175
     1
 42
1.0
 92
       12
 66
     7
 43
1.0
 76
     1
 77
     6
 78
     2
 67
     7
 79
     5
170
     0
171
     0
290
     0
174
     0
 93
        1
 44
0.0
173
     0
291
     1
 45
0.0
1001
ACAD
1000
AcDbSavedByObjectVersion
1070
     0
  0
DICTIONARYVAR
  5
B70
102
{ACAD_REACTORS
330
B6B
102
}
330
B6B
100
DictionaryVariables
280
     0
  1
1:1
  0
DICTIONARYVAR
  5
B71
102
{ACAD_REACTORS
330
B6B
102
}
330
B6B
100
DictionaryVariables
280
     0
  1
2
  0
DICTIONARYVAR
  5
B72
102
{ACAD_REACTORS
330
B6B
102
}
330
B6B
100
DictionaryVariables
280
     0
  1
1
  0
DICTIONARYVAR
  5
B6F
102
{ACAD_REACTORS
330
B6B
102
}
330
B6B
100
DictionaryVariables
280
     0
  1
80.000000
  0
DICTIONARYVAR
  5
B6E
102
{ACAD_REACTORS
330
B6B
102
}
330
B6B
100
DictionaryVariables
280
     0
  1
5.000000
  0
DICTIONARY
  5
B95
330
3D
100
AcDbDictionary
280
     1
281
     1
  3
ACAD_XREC_ROUNDTRIP
360
B96
  0
DICTIONARY
  5
B93
330
3C
100
AcDbDictionary
280
     1
281
     1
  3
ACAD_XREC_ROUNDTRIP
360
B94
  0
DICTIONARY
  5
B97
330
3E
100
AcDbDictionary
280
     1
281
     1
  3
ACAD_XREC_ROUNDTRIP
360
B98
  0
DICTIONARY
  5
B7B
330
2F
100
AcDbDictionary
280
     1
281
     1
  3
ACAD_XREC_ROUNDTRIP
360
B7C
  0
DICTIONARY
  5
B7F
330
31
100
AcDbDictionary
280
     1
281
     1
  3
ACAD_XREC_ROUNDTRIP
360
B80
  0
DICTIONARY
  5
B7D
330
30
100
AcDbDictionary
280
     1
281
     1
  3
ACAD_XREC_ROUNDTRIP
360
B7E
  0
DICTIONARY
  5
B81
330
32
100
AcDbDictionary
280
     1
281
     1
  3
ACAD_XREC_ROUNDTRIP
360
B82
  0
DICTIONARY
  5
B89
330
36
100
AcDbDictionary
280
     1
281
     1
  3
ACAD_XREC_ROUNDTRIP
360
B8A
  0
DICTIONARY
  5
B91
330
3A
100
AcDbDictionary
280
     1
281
     1
  3
ACAD_XREC_ROUNDTRIP
360
B92
  0
DICTIONARY
  5
B85
330
34
100
AcDbDictionary
280
     1
281
     1
  3
ACAD_XREC_ROUNDTRIP
360
B86
  0
DICTIONARY
  5
B87
330
35
100
AcDbDictionary
280
     1
281
     1
  3
ACAD_XREC_ROUNDTRIP
360
B88
  0
DICTIONARY
  5
B8F
330
39
100
AcDbDictionary
280
     1
281
     1
  3
ACAD_XREC_ROUNDTRIP
360
B90
  0
DICTIONARY
  5
B73
330
2B
100
AcDbDictionary
280
     1
281
     1
  3
ACAD_XREC_ROUNDTRIP
360
B74
  0
DICTIONARY
  5
B75
330
2C
100
AcDbDictionary
280
     1
281
     1
  3
ACAD_XREC_ROUNDTRIP
360
B76
  0
DICTIONARY
  5
B77
330
2D
100
AcDbDictionary
280
     1
281
     1
  3
ACAD_XREC_ROUNDTRIP
360
B78
  0
DICTIONARY
  5
B79
330
2E
100
AcDbDictionary
280
     1
281
     1
  3
ACAD_XREC_ROUNDTRIP
360
B7A
  0
DICTIONARY
  5
B8D
330
38
100
AcDbDictionary
280
     1
281
     1
  3
ACAD_XREC_ROUNDTRIP
360
B8E
  0
DICTIONARY
  5
B83
330
33
100
AcDbDictionary
280
     1
281
     1
  3
ACAD_XREC_ROUNDTRIP
360
B84
  0
DICTIONARY
  5
B8B
330
37
100
AcDbDictionary
280
     1
281
     1
  3
ACAD_XREC_ROUNDTRIP
360
B8C
  0
XRECORD
  5
B96
102
{ACAD_REACTORS
330
B95
102
}
330
B95
100
AcDbXrecord
280
     1
102
MATERIAL
148
0.0
149
0.0
149
0.0
 93
        0
 94
      127
282
     0
 72
     1
 77
     1
171
     1
175
     1
179
     1
273
     0
  0
XRECORD
  5
B94
102
{ACAD_REACTORS
330
B93
102
}
330
B93
100
AcDbXrecord
280
     1
102
MATERIAL
148
0.0
149
0.0
149
0.0
 93
        0
 94
      127
282
     0
 72
     1
 77
     1
171
     1
175
     1
179
     1
273
     0
  0
XRECORD
  5
B98
102
{ACAD_REACTORS
330
B97
102
}
330
B97
100
AcDbXrecord
280
     1
102
MATERIAL
148
0.0
149
0.0
149
0.0
 93
        0
 94
      127
282
     0
 72
     1
 77
     1
171
     1
175
     1
179
     1
273
     0
  0
XRECORD
  5
B7C
102
{ACAD_REACTORS
330
B7B
102
}
330
B7B
100
AcDbXrecord
280
     1
102
RTVSPropertyOp0
 70
     1
102
RTVSPropertyOp1
 70
     1
102
RTVSPropertyOp2
 70
     1
102
RTVSPropertyOp3
 70
     1
102
RTVSPropertyOp4
 70
     1
102
RTVSPropertyOp5
 70
     1
102
RTVSPropertyOp6
 70
     1
102
RTVSPropertyOp7
 70
     1
102
RTVSPropertyOp8
 70
     1
102
RTVSPropertyOp9
 70
     1
102
RTVSPropertyOp10
 70
     1
102
RTVSPropertyOp11
 70
     1
102
RTVSPropertyOp12
 70
     1
102
RTVSPropertyOp13
 70
     1
102
RTVSPropertyOp14
 70
     1
102
RTVSPropertyOp15
 70
     1
102
RTVSPropertyOp16
 70
     1
102
RTVSPropertyOp17
 70
     1
102
RTVSPropertyOp18
 70
     1
102
RTVSPropertyOp19
 70
     1
102
RTVSPropertyOp20
 70
     1
102
RTVSPropertyOp21
 70
     1
102
RTVSPropertyOp22
 70
     1
102
RTVSPropertyOp23
 70
     1
102
RTVSPropertyOp24
 70
     1
102
RTVSPropertyOp25
 70
     1
102
RTVSPropertyOp26
 70
     1
102
RTVSPropertyOp27
 70
     1
  0
XRECORD
  5
B80
102
{ACAD_REACTORS
330
B7F
102
}
330
B7F
100
AcDbXrecord
280
     1
102
RTVSPropertyOp0
 70
     1
102
RTVSPropertyOp1
 70
     1
102
RTVSPropertyOp2
 70
     1
102
RTVSPropertyOp3
 70
     1
102
RTVSPropertyOp4
 70
     1
102
RTVSPropertyOp5
 70
     1
102
RTVSPropertyOp6
 70
     1
102
RTVSPropertyOp7
 70
     1
102
RTVSPropertyOp8
 70
     1
102
RTVSPropertyOp9
 70
     1
102
RTVSPropertyOp10
 70
     1
102
RTVSPropertyOp11
 70
     1
102
RTVSPropertyOp12
 70
     1
102
RTVSPropertyOp13
 70
     1
102
RTVSPropertyOp14
 70
     1
102
RTVSPropertyOp15
 70
     1
102
RTVSPropertyOp16
 70
     1
102
RTVSPropertyOp17
 70
     1
102
RTVSPropertyOp18
 70
     1
102
RTVSPropertyOp19
 70
     1
102
RTVSPropertyOp20
 70
     1
102
RTVSPropertyOp21
 70
     1
102
RTVSPropertyOp22
 70
     1
102
RTVSPropertyOp23
 70
     1
102
RTVSPropertyOp24
 70
     1
102
RTVSPropertyOp25
 70
     1
102
RTVSPropertyOp26
 70
     1
102
RTVSPropertyOp27
 70
     1
  0
XRECORD
  5
B7E
102
{ACAD_REACTORS
330
B7D
102
}
330
B7D
100
AcDbXrecord
280
     1
102
RTVSPropertyOp0
 70
     1
102
RTVSPropertyOp1
 70
     1
102
RTVSPropertyOp2
 70
     1
102
RTVSPropertyOp3
 70
     1
102
RTVSPropertyOp4
 70
     1
102
RTVSPropertyOp5
 70
     1
102
RTVSPropertyOp6
 70
     1
102
RTVSPropertyOp7
 70
     1
102
RTVSPropertyOp8
 70
     1
102
RTVSPropertyOp9
 70
     1
102
RTVSPropertyOp10
 70
     1
102
RTVSPropertyOp11
 70
     1
102
RTVSPropertyOp12
 70
     1
102
RTVSPropertyOp13
 70
     1
102
RTVSPropertyOp14
 70
     1
102
RTVSPropertyOp15
 70
     1
102
RTVSPropertyOp16
 70
     1
102
RTVSPropertyOp17
 70
     1
102
RTVSPropertyOp18
 70
     1
102
RTVSPropertyOp19
 70
     1
102
RTVSPropertyOp20
 70
     1
102
RTVSPropertyOp21
 70
     1
102
RTVSPropertyOp22
 70
     1
102
RTVSPropertyOp23
 70
     1
102
RTVSPropertyOp24
 70
     1
102
RTVSPropertyOp25
 70
     1
102
RTVSPropertyOp26
 70
     1
102
RTVSPropertyOp27
 70
     1
  0
XRECORD
  5
B82
102
{ACAD_REACTORS
330
B81
102
}
330
B81
100
AcDbXrecord
280
     1
102
RTVSPropertyOp0
 70
     1
102
RTVSPropertyOp1
 70
     1
102
RTVSPropertyOp2
 70
     1
102
RTVSPropertyOp3
 70
     1
102
RTVSPropertyOp4
 70
     1
102
RTVSPropertyOp5
 70
     1
102
RTVSPropertyOp6
 70
     1
102
RTVSPropertyOp7
 70
     1
102
RTVSPropertyOp8
 70
     1
102
RTVSPropertyOp9
 70
     1
102
RTVSPropertyOp10
 70
     1
102
RTVSPropertyOp11
 70
     1
102
RTVSPropertyOp12
 70
     1
102
RTVSPropertyOp13
 70
     1
102
RTVSPropertyOp14
 70
     1
102
RTVSPropertyOp15
 70
     1
102
RTVSPropertyOp16
 70
     1
102
RTVSPropertyOp17
 70
     1
102
RTVSPropertyOp18
 70
     1
102
RTVSPropertyOp19
 70
     1
102
RTVSPropertyOp20
 70
     1
102
RTVSPropertyOp21
 70
     1
102
RTVSPropertyOp22
 70
     1
102
RTVSPropertyOp23
 70
     1
102
RTVSPropertyOp24
 70
     1
102
RTVSPropertyOp25
 70
     1
102
RTVSPropertyOp26
 70
     1
102
RTVSPropertyOp27
 70
     1
  0
XRECORD
  5
B8A
102
{ACAD_REACTORS
330
B89
102
}
330
B89
100
AcDbXrecord
280
     1
102
RTVSPropertyOp0
 70
     1
102
RTVSPropertyOp1
 70
     1
102
RTVSPropertyOp2
 70
     1
102
RTVSPropertyOp3
 70
     1
102
RTVSPropertyOp4
 70
     1
102
RTVSPropertyOp5
 70
     1
102
RTVSPropertyOp6
 70
     1
102
RTVSPropertyOp7
 70
     1
102
RTVSPropertyOp8
 70
     1
102
RTVSPropertyOp9
 70
     1
102
RTVSPropertyOp10
 70
     1
102
RTVSPropertyOp11
 70
     1
102
RTVSPropertyOp12
 70
     1
102
RTVSPropertyOp13
 70
     1
102
RTVSPropertyOp14
 70
     1
102
RTVSPropertyOp15
 70
     1
102
RTVSPropertyOp16
 70
     1
102
RTVSPropertyOp17
 70
     1
102
RTVSPropertyOp18
 70
     1
102
RTVSPropertyOp19
 70
     1
102
RTVSPropertyOp20
 70
     1
102
RTVSPropertyOp21
 70
     1
102
RTVSPropertyOp22
 70
     1
102
RTVSPropertyOp23
 70
     1
102
RTVSPropertyOp24
 70
     1
102
RTVSPropertyOp25
 70
     1
102
RTVSPropertyOp26
 70
     1
102
RTVSPropertyOp27
 70
     1
  0
XRECORD
  5
B92
102
{ACAD_REACTORS
330
B91
102
}
330
B91
100
AcDbXrecord
280
     1
102
RTVSPropertyOp0
 70
     1
102
RTVSPropertyOp1
 70
     1
102
RTVSPropertyOp2
 70
     1
102
RTVSPropertyOp3
 70
     1
102
RTVSPropertyOp4
 70
     1
102
RTVSPropertyOp5
 70
     1
102
RTVSPropertyOp6
 70
     1
102
RTVSPropertyOp7
 70
     1
102
RTVSPropertyOp8
 70
     1
102
RTVSPropertyOp9
 70
     1
102
RTVSPropertyOp10
 70
     1
102
RTVSPropertyOp11
 70
     1
102
RTVSPropertyOp12
 70
     1
102
RTVSPropertyOp13
 70
     1
102
RTVSPropertyOp14
 70
     1
102
RTVSPropertyOp15
 70
     1
102
RTVSPropertyOp16
 70
     1
102
RTVSPropertyOp17
 70
     1
102
RTVSPropertyOp18
 70
     1
102
RTVSPropertyOp19
 70
     1
102
RTVSPropertyOp20
 70
     1
102
RTVSPropertyOp21
 70
     1
102
RTVSPropertyOp22
 70
     1
102
RTVSPropertyOp23
 70
     1
102
RTVSPropertyOp24
 70
     1
102
RTVSPropertyOp25
 70
     1
102
RTVSPropertyOp26
 70
     1
102
RTVSPropertyOp27
 70
     1
  0
XRECORD
  5
B86
102
{ACAD_REACTORS
330
B85
102
}
330
B85
100
AcDbXrecord
280
     1
102
RTVSPropertyOp0
 70
     1
102
RTVSPropertyOp1
 70
     1
102
RTVSPropertyOp2
 70
     1
102
RTVSPropertyOp3
 70
     1
102
RTVSPropertyOp4
 70
     1
102
RTVSPropertyOp5
 70
     1
102
RTVSPropertyOp6
 70
     1
102
RTVSPropertyOp7
 70
     1
102
RTVSPropertyOp8
 70
     1
102
RTVSPropertyOp9
 70
     1
102
RTVSPropertyOp10
 70
     1
102
RTVSPropertyOp11
 70
     1
102
RTVSPropertyOp12
 70
     1
102
RTVSPropertyOp13
 70
     1
102
RTVSPropertyOp14
 70
     1
102
RTVSPropertyOp15
 70
     1
102
RTVSPropertyOp16
 70
     1
102
RTVSPropertyOp17
 70
     1
102
RTVSPropertyOp18
 70
     1
102
RTVSPropertyOp19
 70
     1
102
RTVSPropertyOp20
 70
     1
102
RTVSPropertyOp21
 70
     1
102
RTVSPropertyOp22
 70
     1
102
RTVSPropertyOp23
 70
     1
102
RTVSPropertyOp24
 70
     1
102
RTVSPropertyOp25
 70
     1
102
RTVSPropertyOp26
 70
     1
102
RTVSPropertyOp27
 70
     1
  0
XRECORD
  5
B88
102
{ACAD_REACTORS
330
B87
102
}
330
B87
100
AcDbXrecord
280
     1
102
RTVSPropertyOp0
 70
     1
102
RTVSPropertyOp1
 70
     1
102
RTVSPropertyOp2
 70
     1
102
RTVSPropertyOp3
 70
     1
102
RTVSPropertyOp4
 70
     1
102
RTVSPropertyOp5
 70
     1
102
RTVSPropertyOp6
 70
     1
102
RTVSPropertyOp7
 70
     1
102
RTVSPropertyOp8
 70
     1
102
RTVSPropertyOp9
 70
     1
102
RTVSPropertyOp10
 70
     1
102
RTVSPropertyOp11
 70
     1
102
RTVSPropertyOp12
 70
     1
102
RTVSPropertyOp13
 70
     1
102
RTVSPropertyOp14
 70
     1
102
RTVSPropertyOp15
 70
     1
102
RTVSPropertyOp16
 70
     1
102
RTVSPropertyOp17
 70
     1
102
RTVSPropertyOp18
 70
     1
102
RTVSPropertyOp19
 70
     1
102
RTVSPropertyOp20
 70
     1
102
RTVSPropertyOp21
 70
     1
102
RTVSPropertyOp22
 70
     1
102
RTVSPropertyOp23
 70
     1
102
RTVSPropertyOp24
 70
     1
102
RTVSPropertyOp25
 70
     1
102
RTVSPropertyOp26
 70
     1
102
RTVSPropertyOp27
 70
     1
  0
XRECORD
  5
B90
102
{ACAD_REACTORS
330
B8F
102
}
330
B8F
100
AcDbXrecord
280
     1
102
RTVSPropertyOp0
 70
     1
102
RTVSPropertyOp1
 70
     1
102
RTVSPropertyOp2
 70
     1
102
RTVSPropertyOp3
 70
     1
102
RTVSPropertyOp4
 70
     1
102
RTVSPropertyOp5
 70
     1
102
RTVSPropertyOp6
 70
     1
102
RTVSPropertyOp7
 70
     1
102
RTVSPropertyOp8
 70
     1
102
RTVSPropertyOp9
 70
     1
102
RTVSPropertyOp10
 70
     1
102
RTVSPropertyOp11
 70
     1
102
RTVSPropertyOp12
 70
     1
102
RTVSPropertyOp13
 70
     1
102
RTVSPropertyOp14
 70
     1
102
RTVSPropertyOp15
 70
     1
102
RTVSPropertyOp16
 70
     1
102
RTVSPropertyOp17
 70
     1
102
RTVSPropertyOp18
 70
     1
102
RTVSPropertyOp19
 70
     1
102
RTVSPropertyOp20
 70
     1
102
RTVSPropertyOp21
 70
     1
102
RTVSPropertyOp22
 70
     1
102
RTVSPropertyOp23
 70
     1
102
RTVSPropertyOp24
 70
     1
102
RTVSPropertyOp25
 70
     1
102
RTVSPropertyOp26
 70
     1
102
RTVSPropertyOp27
 70
     1
  0
XRECORD
  5
B74
102
{ACAD_REACTORS
330
B73
102
}
330
B73
100
AcDbXrecord
280
     1
102
RTVSPropertyOp0
 70
     1
102
RTVSPropertyOp1
 70
     1
102
RTVSPropertyOp2
 70
     1
102
RTVSPropertyOp3
 70
     1
102
RTVSPropertyOp4
 70
     1
102
RTVSPropertyOp5
 70
     1
102
RTVSPropertyOp6
 70
     1
102
RTVSPropertyOp7
 70
     1
102
RTVSPropertyOp8
 70
     1
102
RTVSPropertyOp9
 70
     1
102
RTVSPropertyOp10
 70
     1
102
RTVSPropertyOp11
 70
     1
102
RTVSPropertyOp12
 70
     1
102
RTVSPropertyOp13
 70
     1
102
RTVSPropertyOp14
 70
     1
102
RTVSPropertyOp15
 70
     1
102
RTVSPropertyOp16
 70
     1
102
RTVSPropertyOp17
 70
     1
102
RTVSPropertyOp18
 70
     1
102
RTVSPropertyOp19
 70
     1
102
RTVSPropertyOp20
 70
     1
102
RTVSPropertyOp21
 70
     1
102
RTVSPropertyOp22
 70
     1
102
RTVSPropertyOp23
 70
     1
102
RTVSPropertyOp24
 70
     1
102
RTVSPropertyOp25
 70
     1
102
RTVSPropertyOp26
 70
     1
102
RTVSPropertyOp27
 70
     1
  0
XRECORD
  5
B76
102
{ACAD_REACTORS
330
B75
102
}
330
B75
100
AcDbXrecord
280
     1
102
RTVSPropertyOp0
 70
     1
102
RTVSPropertyOp1
 70
     1
102
RTVSPropertyOp2
 70
     1
102
RTVSPropertyOp3
 70
     1
102
RTVSPropertyOp4
 70
     1
102
RTVSPropertyOp5
 70
     1
102
RTVSPropertyOp6
 70
     1
102
RTVSPropertyOp7
 70
     1
102
RTVSPropertyOp8
 70
     1
102
RTVSPropertyOp9
 70
     1
102
RTVSPropertyOp10
 70
     1
102
RTVSPropertyOp11
 70
     1
102
RTVSPropertyOp12
 70
     1
102
RTVSPropertyOp13
 70
     1
102
RTVSPropertyOp14
 70
     1
102
RTVSPropertyOp15
 70
     1
102
RTVSPropertyOp16
 70
     1
102
RTVSPropertyOp17
 70
     1
102
RTVSPropertyOp18
 70
     1
102
RTVSPropertyOp19
 70
     1
102
RTVSPropertyOp20
 70
     1
102
RTVSPropertyOp21
 70
     1
102
RTVSPropertyOp22
 70
     1
102
RTVSPropertyOp23
 70
     1
102
RTVSPropertyOp24
 70
     1
102
RTVSPropertyOp25
 70
     1
102
RTVSPropertyOp26
 70
     1
102
RTVSPropertyOp27
 70
     1
  0
XRECORD
  5
B78
102
{ACAD_REACTORS
330
B77
102
}
330
B77
100
AcDbXrecord
280
     1
102
RTVSPropertyOp0
 70
     1
102
RTVSPropertyOp1
 70
     1
102
RTVSPropertyOp2
 70
     1
102
RTVSPropertyOp3
 70
     1
102
RTVSPropertyOp4
 70
     1
102
RTVSPropertyOp5
 70
     1
102
RTVSPropertyOp6
 70
     1
102
RTVSPropertyOp7
 70
     1
102
RTVSPropertyOp8
 70
     1
102
RTVSPropertyOp9
 70
     1
102
RTVSPropertyOp10
 70
     1
102
RTVSPropertyOp11
 70
     1
102
RTVSPropertyOp12
 70
     1
102
RTVSPropertyOp13
 70
     1
102
RTVSPropertyOp14
 70
     1
102
RTVSPropertyOp15
 70
     1
102
RTVSPropertyOp16
 70
     1
102
RTVSPropertyOp17
 70
     1
102
RTVSPropertyOp18
 70
     1
102
RTVSPropertyOp19
 70
     1
102
RTVSPropertyOp20
 70
     1
102
RTVSPropertyOp21
 70
     1
102
RTVSPropertyOp22
 70
     1
102
RTVSPropertyOp23
 70
     1
102
RTVSPropertyOp24
 70
     1
102
RTVSPropertyOp25
 70
     1
102
RTVSPropertyOp26
 70
     1
102
RTVSPropertyOp27
 70
     1
  0
XRECORD
  5
B7A
102
{ACAD_REACTORS
330
B79
102
}
330
B79
100
AcDbXrecord
280
     1
102
RTVSPropertyOp0
 70
     1
102
RTVSPropertyOp1
 70
     1
102
RTVSPropertyOp2
 70
     1
102
RTVSPropertyOp3
 70
     1
102
RTVSPropertyOp4
 70
     1
102
RTVSPropertyOp5
 70
     1
102
RTVSPropertyOp6
 70
     1
102
RTVSPropertyOp7
 70
     1
102
RTVSPropertyOp8
 70
     1
102
RTVSPropertyOp9
 70
     1
102
RTVSPropertyOp10
 70
     1
102
RTVSPropertyOp11
 70
     1
102
RTVSPropertyOp12
 70
     1
102
RTVSPropertyOp13
 70
     1
102
RTVSPropertyOp14
 70
     1
102
RTVSPropertyOp15
 70
     1
102
RTVSPropertyOp16
 70
     1
102
RTVSPropertyOp17
 70
     1
102
RTVSPropertyOp18
 70
     1
102
RTVSPropertyOp19
 70
     1
102
RTVSPropertyOp20
 70
     1
102
RTVSPropertyOp21
 70
     1
102
RTVSPropertyOp22
 70
     1
102
RTVSPropertyOp23
 70
     1
102
RTVSPropertyOp24
 70
     1
102
RTVSPropertyOp25
 70
     1
102
RTVSPropertyOp26
 70
     1
102
RTVSPropertyOp27
 70
     1
  0
XRECORD
  5
B8E
102
{ACAD_REACTORS
330
B8D
102
}
330
B8D
100
AcDbXrecord
280
     1
102
RTVSPropertyOp0
 70
     1
102
RTVSPropertyOp1
 70
     1
102
RTVSPropertyOp2
 70
     1
102
RTVSPropertyOp3
 70
     1
102
RTVSPropertyOp4
 70
     1
102
RTVSPropertyOp5
 70
     1
102
RTVSPropertyOp6
 70
     1
102
RTVSPropertyOp7
 70
     1
102
RTVSPropertyOp8
 70
     1
102
RTVSPropertyOp9
 70
     1
102
RTVSPropertyOp10
 70
     1
102
RTVSPropertyOp11
 70
     1
102
RTVSPropertyOp12
 70
     1
102
RTVSPropertyOp13
 70
     1
102
RTVSPropertyOp14
 70
     1
102
RTVSPropertyOp15
 70
     1
102
RTVSPropertyOp16
 70
     1
102
RTVSPropertyOp17
 70
     1
102
RTVSPropertyOp18
 70
     1
102
RTVSPropertyOp19
 70
     1
102
RTVSPropertyOp20
 70
     1
102
RTVSPropertyOp21
 70
     1
102
RTVSPropertyOp22
 70
     1
102
RTVSPropertyOp23
 70
     1
102
RTVSPropertyOp24
 70
     1
102
RTVSPropertyOp25
 70
     1
102
RTVSPropertyOp26
 70
     1
102
RTVSPropertyOp27
 70
     1
  0
XRECORD
  5
B84
102
{ACAD_REACTORS
330
B83
102
}
330
B83
100
AcDbXrecord
280
     1
102
RTVSPropertyOp0
 70
     1
102
RTVSPropertyOp1
 70
     1
102
RTVSPropertyOp2
 70
     1
102
RTVSPropertyOp3
 70
     1
102
RTVSPropertyOp4
 70
     1
102
RTVSPropertyOp5
 70
     1
102
RTVSPropertyOp6
 70
     1
102
RTVSPropertyOp7
 70
     1
102
RTVSPropertyOp8
 70
     1
102
RTVSPropertyOp9
 70
     1
102
RTVSPropertyOp10
 70
     1
102
RTVSPropertyOp11
 70
     1
102
RTVSPropertyOp12
 70
     1
102
RTVSPropertyOp13
 70
     1
102
RTVSPropertyOp14
 70
     1
102
RTVSPropertyOp15
 70
     1
102
RTVSPropertyOp16
 70
     1
102
RTVSPropertyOp17
 70
     1
102
RTVSPropertyOp18
 70
     1
102
RTVSPropertyOp19
 70
     1
102
RTVSPropertyOp20
 70
     1
102
RTVSPropertyOp21
 70
     1
102
RTVSPropertyOp22
 70
     1
102
RTVSPropertyOp23
 70
     1
102
RTVSPropertyOp24
 70
     1
102
RTVSPropertyOp25
 70
     1
102
RTVSPropertyOp26
 70
     1
102
RTVSPropertyOp27
 70
     1
  0
XRECORD
  5
B8C
102
{ACAD_REACTORS
330
B8B
102
}
330
B8B
100
AcDbXrecord
280
     1
102
RTVSPropertyOp0
 70
     1
102
RTVSPropertyOp1
 70
     1
102
RTVSPropertyOp2
 70
     1
102
RTVSPropertyOp3
 70
     1
102
RTVSPropertyOp4
 70
     1
102
RTVSPropertyOp5
 70
     1
102
RTVSPropertyOp6
 70
     1
102
RTVSPropertyOp7
 70
     1
102
RTVSPropertyOp8
 70
     1
102
RTVSPropertyOp9
 70
     1
102
RTVSPropertyOp10
 70
     1
102
RTVSPropertyOp11
 70
     1
102
RTVSPropertyOp12
 70
     1
102
RTVSPropertyOp13
 70
     1
102
RTVSPropertyOp14
 70
     1
102
RTVSPropertyOp15
 70
     1
102
RTVSPropertyOp16
 70
     1
102
RTVSPropertyOp17
 70
     1
102
RTVSPropertyOp18
 70
     1
102
RTVSPropertyOp19
 70
     1
102
RTVSPropertyOp20
 70
     1
102
RTVSPropertyOp21
 70
     1
102
RTVSPropertyOp22
 70
     1
102
RTVSPropertyOp23
 70
     1
102
RTVSPropertyOp24
 70
     1
102
RTVSPropertyOp25
 70
     1
102
RTVSPropertyOp26
 70
     1
102
RTVSPropertyOp27
 70
     1
  0
ENDSEC
  0
EOF
