  0
SECTION
  2
HEADER
  9
$ACADVER
  1
AC1015
  9
$ACADMAINTVER
 70
     6
  9
$DWGCODEPAGE
  3
ANSI_1252
  9
$INSBASE
 10
0.0
 20
0.0
 30
0.0
  9
$EXTMIN
 10
0.0
 20
0.0
 30
0.0
  9
$EXTMAX
 10
25.0
 20
35.0
 30
0.0
  9
$LIMMIN
 10
0.0
 20
0.0
  9
$LIMMAX
 10
420.0
 20
297.0
  9
$ORTHOMODE
 70
     0
  9
$REGENMODE
 70
     1
  9
$FILLMODE
 70
     1
  9
$QTEXTMODE
 70
     0
  9
$MIRRTEXT
 70
     1
  9
$LTSCALE
 40
4.2
  9
$ATTMODE
 70
     1
  9
$TEXTSIZE
 40
2.5
  9
$TRACEWID
 40
1.0
  9
$TEXTSTYLE
  7
Standard
  9
$CLAYER
  8
0
  9
$CELTYPE
  6
ByLayer
  9
$CECOLOR
 62
   256
  9
$CELTSCALE
 40
1.0
  9
$DISPSILH
 70
     0
  9
$DIMSCALE
 40
1.0
  9
$DIMASZ
 40
2.5
  9
$DIMEXO
 40
0.625
  9
$DIMDLI
 40
3.75
  9
$DIMRND
 40
0.0
  9
$DIMDLE
 40
0.0
  9
$DIMEXE
 40
1.25
  9
$DIMTP
 40
0.0
  9
$DIMTM
 40
0.0
  9
$DIMTXT
 40
2.5
  9
$DIMCEN
 40
2.5
  9
$DIMTSZ
 40
0.0
  9
$DIMTOL
 70
     0
  9
$DIMLIM
 70
     0
  9
$DIMTIH
 70
     0
  9
$DIMTOH
 70
     0
  9
$DIMSE1
 70
     0
  9
$DIMSE2
 70
     0
  9
$DIMTAD
 70
     1
  9
$DIMZIN
 70
     8
  9
$DIMBLK
  1

  9
$DIMASO
 70
     1
  9
$DIMSHO
 70
     1
  9
$DIMPOST
  1

  9
$DIMAPOST
  1

  9
$DIMALT
 70
     0
  9
$DIMALTD
 70
     3
  9
$DIMALTF
 40
0.03937007874016
  9
$DIMLFAC
 40
1.0
  9
$DIMTOFL
 70
     1
  9
$DIMTVP
 40
0.0
  9
$DIMTIX
 70
     0
  9
$DIMSOXD
 70
     0
  9
$DIMSAH
 70
     0
  9
$DIMBLK1
  1

  9
$DIMBLK2
  1

  9
$DIMSTYLE
  2
ISO-25
  9
$DIMCLRD
 70
     0
  9
$DIMCLRE
 70
     0
  9
$DIMCLRT
 70
     0
  9
$DIMTFAC
 40
1.0
  9
$DIMGAP
 40
0.625
  9
$DIMJUST
 70
     0
  9
$DIMSD1
 70
     0
  9
$DIMSD2
 70
     0
  9
$DIMTOLJ
 70
     0
  9
$DIMTZIN
 70
     8
  9
$DIMALTZ
 70
     0
  9
$DIMALTTZ
 70
     0
  9
$DIMUPT
 70
     0
  9
$DIMDEC
 70
     2
  9
$DIMTDEC
 70
     2
  9
$DIMALTU
 70
     2
  9
$DIMALTTD
 70
     3
  9
$DIMTXSTY
  7
Standard
  9
$DIMAUNIT
 70
     0
  9
$DIMADEC
 70
     0
  9
$DIMALTRND
 40
0.0
  9
$DIMAZIN
 70
     0
  9
$DIMDSEP
 70
    44
  9
$DIMATFIT
 70
     3
  9
$DIMFRAC
 70
     0
  9
$DIMLDRBLK
  1

  9
$DIMLUNIT
 70
     2
  9
$DIMLWD
 70
    -2
  9
$DIMLWE
 70
    -2
  9
$DIMTMOVE
 70
     0
  9
$LUNITS
 70
     2
  9
$LUPREC
 70
     4
  9
$SKETCHINC
 40
1.0
  9
$FILLETRAD
 40
10.0
  9
$AUNITS
 70
     0
  9
$AUPREC
 70
     0
  9
$MENU
  1
.
  9
$ELEVATION
 40
0.0
  9
$PELEVATION
 40
0.0
  9
$THICKNESS
 40
0.0
  9
$LIMCHECK
 70
     0
  9
$CHAMFERA
 40
10.0
  9
$CHAMFERB
 40
10.0
  9
$CHAMFERC
 40
20.0
  9
$CHAMFERD
 40
0.0
  9
$SKPOLY
 70
     0
  9
$TDCREATE
 40
2458578.381944444
  9
$TDUCREATE
 40
2458578.298611111
  9
$TDUPDATE
 40
2458578.385416667
  9
$TDUUPDATE
 40
2458578.302083333
  9
$TDINDWG
 40
0.0000000116
  9
$TDUSRTIMER
 40
0.0000000116
  9
$USRTIMER
 70
     1
  9
$ANGBASE
 50
0.0
  9
$ANGDIR
 70
     0
  9
$PDMODE
 70
     0
  9
$PDSIZE
 40
0.0
  9
$PLINEWID
 40
0.0
  9
$SPLFRAME
 70
     0
  9
$SPLINETYPE
 70
     6
  9
$SPLINESEGS
 70
     8
  9
$HANDSEED
  5
B33
  9
$SURFTAB1
 70
     6
  9
$SURFTAB2
 70
     6
  9
$SURFTYPE
 70
     6
  9
$SURFU
 70
     6
  9
$SURFV
 70
     6
  9
$UCSBASE
  2

  9
$UCSNAME
  2

  9
$UCSORG
 10
0.0
 20
0.0
 30
0.0
  9
$UCSXDIR
 10
1.0
 20
0.0
 30
0.0
  9
$UCSYDIR
 10
0.0
 20
1.0
 30
0.0
  9
$UCSORTHOREF
  2

  9
$UCSORTHOVIEW
 70
     0
  9
$UCSORGTOP
 10
0.0
 20
0.0
 30
0.0
  9
$UCSORGBOTTOM
 10
0.0
 20
0.0
 30
0.0
  9
$UCSORGLEFT
 10
0.0
 20
0.0
 30
0.0
  9
$UCSORGRIGHT
 10
0.0
 20
0.0
 30
0.0
  9
$UCSORGFRONT
 10
0.0
 20
0.0
 30
0.0
  9
$UCSORGBACK
 10
0.0
 20
0.0
 30
0.0
  9
$PUCSBASE
  2

  9
$PUCSNAME
  2

  9
$PUCSORG
 10
0.0
 20
0.0
 30
0.0
  9
$PUCSXDIR
 10
1.0
 20
0.0
 30
0.0
  9
$PUCSYDIR
 10
0.0
 20
1.0
 30
0.0
  9
$PUCSORTHOREF
  2

  9
$PUCSORTHOVIEW
 70
     0
  9
$PUCSORGTOP
 10
0.0
 20
0.0
 30
0.0
  9
$PUCSORGBOTTOM
 10
0.0
 20
0.0
 30
0.0
  9
$PUCSORGLEFT
 10
0.0
 20
0.0
 30
0.0
  9
$PUCSORGRIGHT
 10
0.0
 20
0.0
 30
0.0
  9
$PUCSORGFRONT
 10
0.0
 20
0.0
 30
0.0
  9
$PUCSORGBACK
 10
0.0
 20
0.0
 30
0.0
  9
$USERI1
 70
     0
  9
$USERI2
 70
     0
  9
$USERI3
 70
     0
  9
$USERI4
 70
     0
  9
$USERI5
 70
     0
  9
$USERR1
 40
0.0
  9
$USERR2
 40
0.0
  9
$USERR3
 40
0.0
  9
$USERR4
 40
0.0
  9
$USERR5
 40
0.0
  9
$WORLDVIEW
 70
     1
  9
$SHADEDGE
 70
     3
  9
$SHADEDIF
 70
    70
  9
$TILEMODE
 70
     1
  9
$MAXACTVP
 70
    64
  9
$PINSBASE
 10
0.0
 20
0.0
 30
0.0
  9
$PLIMCHECK
 70
     0
  9
$PEXTMIN
 10
1.000000000000000E+20
 20
1.000000000000000E+20
 30
1.000000000000000E+20
  9
$PEXTMAX
 10
-1.000000000000000E+20
 20
-1.000000000000000E+20
 30
-1.000000000000000E+20
  9
$PLIMMIN
 10
0.0
 20
0.0
  9
$PLIMMAX
 10
420.0
 20
297.0
  9
$UNITMODE
 70
     0
  9
$VISRETAIN
 70
     1
  9
$PLINEGEN
 70
     0
  9
$PSLTSCALE
 70
     1
  9
$TREEDEPTH
 70
  3020
  9
$CMLSTYLE
  2
Standard
  9
$CMLJUST
 70
     0
  9
$CMLSCALE
 40
20.0
  9
$PROXYGRAPHICS
 70
     1
  9
$MEASUREMENT
 70
     1
  9
$CELWEIGHT
370
    -1
  9
$ENDCAPS
280
     0
  9
$JOINSTYLE
280
     0
  9
$LWDISPLAY
290
     0
  9
$INSUNITS
 70
     4
  9
$HYPERLINKBASE
  1

  9
$STYLESHEET
  1

  9
$XEDIT
290
     1
  9
$CEPSNTYPE
380
     0
  9
$PSTYLEMODE
290
     1
  9
$FINGERPRINTGUID
  2
{C4C7543A-3D1B-4333-88F8-C6D88D0BC96C}
  9
$VERSIONGUID
  2
{FAEB1C32-E019-11D5-929B-00C0DF256EC4}
  9
$EXTNAMES
290
     1
  9
$PSVPSCALE
 40
0.0
  9
$OLESTARTUP
290
     0
  0
ENDSEC
  0
SECTION
  2
CLASSES
  0
CLASS
  1
ACDBDICTIONARYWDFLT
  2
AcDbDictionaryWithDefault
  3
ObjectDBX Classes
 90
        0
280
     0
281
     0
  0
CLASS
  1
VISUALSTYLE
  2
AcDbVisualStyle
  3
ObjectDBX Classes
 90
     4095
280
     0
281
     0
  0
CLASS
  1
MATERIAL
  2
AcDbMaterial
  3
ObjectDBX Classes
 90
     1153
280
     0
281
     0
  0
CLASS
  1
SCALE
  2
AcDbScale
  3
ObjectDBX Classes
 90
     1153
280
     0
281
     0
  0
CLASS
  1
DICTIONARYVAR
  2
AcDbDictionaryVar
  3
ObjectDBX Classes
 90
        0
280
     0
281
     0
  0
CLASS
  1
ACDBPLACEHOLDER
  2
AcDbPlaceHolder
  3
ObjectDBX Classes
 90
        0
280
     0
281
     0
  0
CLASS
  1
LAYOUT
  2
AcDbLayout
  3
ObjectDBX Classes
 90
        0
280
     0
281
     0
  0
ENDSEC
  0
SECTION
  2
TABLES
  0
TABLE
  2
VPORT
  5
8
330
0
100
AcDbSymbolTable
 70
     1
  0
VPORT
  5
29
330
8
100
AcDbSymbolTableRecord
100
AcDbViewportTableRecord
  2
*Active
 70
     0
 10
0.0
 20
0.0
 11
1.0
 21
1.0
 12
11.26
 22
4.5
 13
0.0
 23
0.0
 14
10.0
 24
10.0
 15
10.0
 25
10.0
 16
0.0
 26
0.0
 36
1.0
 17
0.0
 27
0.0
 37
0.0
 40
9.0
 41
2.503333333333333
 42
50.0
 43
0.0
 44
0.0
 50
0.0
 51
0.0
 71
     0
 72
   100
 73
     1
 74
     3
 75
     0
 76
     0
 77
     0
 78
     0
281
     0
 65
     1
110
0.0
120
0.0
130
0.0
111
1.0
121
0.0
131
0.0
112
0.0
122
1.0
132
0.0
 79
     0
146
0.0
  0
ENDTAB
  0
TABLE
  2
LTYPE
  5
5
330
0
100
AcDbSymbolTable
 70
    10
  0
LTYPE
  5
14
330
5
100
AcDbSymbolTableRecord
100
AcDbLinetypeTableRecord
  2
ByBlock
 70
     0
  3

 72
    65
 73
     0
 40
0.0
  0
LTYPE
  5
15
330
5
100
AcDbSymbolTableRecord
100
AcDbLinetypeTableRecord
  2
ByLayer
 70
     0
  3

 72
    65
 73
     0
 40
0.0
  0
LTYPE
  5
16
330
5
100
AcDbSymbolTableRecord
100
AcDbLinetypeTableRecord
  2
Continuous
 70
     0
  3
Solid line
 72
    65
 73
     0
 40
0.0
  0
LTYPE
  5
45
330
5
100
AcDbSymbolTableRecord
100
AcDbLinetypeTableRecord
  2
phl_thick
 70
     0
  3
THICK
 72
    65
 73
     0
 40
0.0
  0
LTYPE
  5
363
330
5
100
AcDbSymbolTableRecord
100
AcDbLinetypeTableRecord
  2
CUT
 70
     0
  3
THICK
 72
    65
 73
     0
 40
0.0
  0
LTYPE
  5
36A
330
5
100
AcDbSymbolTableRecord
100
AcDbLinetypeTableRecord
  2
NOCUT
 70
     0
  3
THICK
 72
    65
 73
     0
 40
0.0
  0
LTYPE
  5
371
330
5
100
AcDbSymbolTableRecord
100
AcDbLinetypeTableRecord
  2
SK1
 70
     0
  3
THICK
 72
    65
 73
     0
 40
0.0
  0
LTYPE
  5
379
330
5
100
AcDbSymbolTableRecord
100
AcDbLinetypeTableRecord
  2
ls_SK2
 70
     0
  3
THIN
 72
    65
 73
     0
 40
0.0
  0
LTYPE
  5
425
330
5
100
AcDbSymbolTableRecord
100
AcDbLinetypeTableRecord
  2
ls_2
 70
     0
  3
THIN
 72
    65
 73
     0
 40
0.0
  0
LTYPE
  5
575
330
5
100
AcDbSymbolTableRecord
100
AcDbLinetypeTableRecord
  2
ls_SK1
 70
     0
  3
THICK
 72
    65
 73
     0
 40
0.0
  0
LTYPE
  5
5AF
330
5
100
AcDbSymbolTableRecord
100
AcDbLinetypeTableRecord
  2
LONGDASH_DASH
 70
     0
  3
THIN_DASHDOT
 72
    65
 73
     4
 40
0.85
 49
0.4
 74
     0
 49
-0.2
 74
     0
 49
0.05
 74
     0
 49
-0.2
 74
     0
  0
LTYPE
  5
5B4
330
5
100
AcDbSymbolTableRecord
100
AcDbLinetypeTableRecord
  2
ls1
 70
     0
  3
THICK
 72
    65
 73
     0
 40
0.0
  0
ENDTAB
  0
TABLE
  2
LAYER
  5
2
330
0
100
AcDbSymbolTable
 70
    10
  0
LAYER
  5
10
330
2
100
AcDbSymbolTableRecord
100
AcDbLayerTableRecord
  2
0
 70
     0
 62
     7
  6
Continuous
370
    -3
390
F
  0
LAYER
  5
44
330
2
100
AcDbSymbolTableRecord
100
AcDbLayerTableRecord
  2
1
 70
     0
 62
4
  6
CONTINUOUS
370
50
370
    -3
390
F
  0
LAYER
  5
362
330
2
100
AcDbSymbolTableRecord
100
AcDbLayerTableRecord
  2
CUT
 70
     0
 62
1
  6
CONTINUOUS
370
25
370
    -3
390
F
  0
LAYER
  5
369
330
2
100
AcDbSymbolTableRecord
100
AcDbLayerTableRecord
  2
NOCUT
 70
     0
 62
7
  6
CONTINUOUS
370
25
370
    -3
390
F
  0
LAYER
  5
370
330
2
100
AcDbSymbolTableRecord
100
AcDbLayerTableRecord
  2
SK1
 70
     0
 62
4
  6
CONTINUOUS
370
50
370
    -3
390
F
  0
LAYER
  5
378
330
2
100
AcDbSymbolTableRecord
100
AcDbLayerTableRecord
  2
SK2
 70
     0
 62
7
  6
CONTINUOUS
370
25
370
    -3
390
F
  0
LAYER
  5
424
330
2
100
AcDbSymbolTableRecord
100
AcDbLayerTableRecord
  2
2
 70
     0
 62
7
  6
CONTINUOUS
370
25
370
    -3
390
F
  0
LAYER
  5
5AE
330
2
100
AcDbSymbolTableRecord
100
AcDbLayerTableRecord
  2
4
 70
     0
 62
2
  6
LONGDASH_DASH
370
25
370
    -3
390
F
  0
LAYER
  5
5B1
330
2
100
AcDbSymbolTableRecord
100
AcDbLayerTableRecord
  2
SK4
 70
     0
 62
2
  6
LONGDASH_DASH
370
25
370
    -3
390
F
  0
LAYER
  5
5B3
330
2
100
AcDbSymbolTableRecord
100
AcDbLayerTableRecord
  2
SK6
 70
     0
 62
5
  6
CONTINUOUS
370
25
370
    -3
390
F
  0
ENDTAB
  0
TABLE
  2
STYLE
  5
3
330
0
100
AcDbSymbolTable
 70
     1
  0
STYLE
  5
11
330
3
100
AcDbSymbolTableRecord
100
AcDbTextStyleTableRecord
  2
Standard
 70
     0
 40
0.0
 41
1.0
 50
0.0
 71
     0
 42
2.5
  3
Monospac821 BT
  4

  0
ENDTAB
  0
TABLE
  2
VIEW
  5
6
330
0
100
AcDbSymbolTable
 70
     0
  0
ENDTAB
  0
TABLE
  2
UCS
  5
7
330
0
100
AcDbSymbolTable
 70
     0
  0
ENDTAB
  0
TABLE
  2
APPID
  5
9
330
0
100
AcDbSymbolTable
 70
     2
  0
APPID
  5
12
330
9
100
AcDbSymbolTableRecord
100
AcDbRegAppTableRecord
  2
ACAD
 70
     0
  0
APPID
  5
3F
330
9
100
AcDbSymbolTableRecord
100
AcDbRegAppTableRecord
  2
ccLab
 70
     0
  0
ENDTAB
  0
TABLE
  2
DIMSTYLE
  5
A
330
0
100
AcDbSymbolTable
 70
     1
100
AcDbDimStyleTable
  0
DIMSTYLE
105
27
330
A
100
AcDbSymbolTableRecord
100
AcDbDimStyleTableRecord
  2
ISO-25
 70
     0
 41
2.5
 42
0.625
 43
3.75
 44
1.25
 73
     0
 74
     0
 77
     1
 78
     8
140
2.5
141
2.5
143
0.03937007874016
147
0.625
171
     3
172
     1
271
     2
272
     2
274
     3
278
    44
283
     0
284
     8
340
11
  0
ENDTAB
  0
TABLE
  2
BLOCK_RECORD
  5
1
330
0
100
AcDbSymbolTable
 70
     2
  0
BLOCK_RECORD
  5
1F
330
1
100
AcDbSymbolTableRecord
100
AcDbBlockTableRecord
  2
*Model_Space
340
22
  0
BLOCK_RECORD
  5
1B
330
1
100
AcDbSymbolTableRecord
100
AcDbBlockTableRecord
  2
*Paper_Space
340
1E
  0
BLOCK_RECORD
  5
23
330
1
100
AcDbSymbolTableRecord
100
AcDbBlockTableRecord
  2
*Paper_Space0
340
26
  0
ENDTAB
  0
ENDSEC
  0
SECTION
  2
BLOCKS
  0
BLOCK
  5
20
330
1F
100
AcDbEntity
  8
0
100
AcDbBlockBegin
  2
*Model_Space
 70
     0
 10
0.0
 20
0.0
 30
0.0
  3
*Model_Space
  1

  0
ENDBLK
  5
21
330
1F
100
AcDbEntity
  8
0
100
AcDbBlockEnd
  0
BLOCK
  5
1C
330
1B
100
AcDbEntity
 67
     1
  8
0
100
AcDbBlockBegin
  2
*Paper_Space
 70
     0
 10
0.0
 20
0.0
 30
0.0
  3
*Paper_Space
  1

  0
ENDBLK
  5
1D
330
1B
100
AcDbEntity
 67
     1
  8
0
100
AcDbBlockEnd
  0
BLOCK
  5
24
330
23
100
AcDbEntity
  8
0
100
AcDbBlockBegin
  2
*Paper_Space0
 70
     0
 10
0.0
 20
0.0
 30
0.0
  3
*Paper_Space0
  1

  0
ENDBLK
  5
25
330
23
100
AcDbEntity
  8
0
100
AcDbBlockEnd
  0
ENDSEC
  0
SECTION
  2
ENTITIES
  0
LINE
  5
5BE
330
1F
100
AcDbEntity
  8
1
  6
CONTINUOUS
370
50
 62
4
100
AcDbLine
 10
59.82859
 20
-0.347471
 30
0.0
 11
59.82848
 21
-0.324815
 31
0.0
  0
LINE
  5
5BF
330
1F
100
AcDbEntity
  8
1
  6
CONTINUOUS
370
50
 62
4
100
AcDbLine
 10
59.822701
 20
-0.6443479999999999
 30
0.0
 11
59.821976
 21
-0.575656
 31
0.0
  0
LINE
  5
5C0
330
1F
100
AcDbEntity
  8
1
  6
CONTINUOUS
370
50
 62
4
100
AcDbLine
 10
59.82848
 20
-0.324815
 30
0.0
 11
59.827972
 21
-0.302201
 31
0.0
  0
LINE
  5
5C1
330
1F
100
AcDbEntity
  8
1
  6
CONTINUOUS
370
50
 62
4
100
AcDbLine
 10
59.49403
 20
0.896554
 30
0.0
 11
59.493519
 21
0.9144369999999999
 31
0.0
  0
LINE
  5
5C2
330
1F
100
AcDbEntity
  8
1
  6
CONTINUOUS
370
50
 62
4
100
AcDbLine
 10
59.824875
 20
-0.7128479999999999
 30
0.0
 11
59.822701
 21
-0.6443479999999999
 31
0.0
  0
LINE
  5
5C3
330
1F
100
AcDbEntity
  8
1
  6
CONTINUOUS
370
50
 62
4
100
AcDbLine
 10
59.494015
 20
0.179313
 30
0.0
 11
59.493469
 21
0.194814
 31
0.0
  0
LINE
  5
5C4
330
1F
100
AcDbEntity
  8
1
  6
CONTINUOUS
370
50
 62
4
100
AcDbLine
 10
59.827972
 20
-0.302201
 30
0.0
 11
59.827076
 21
-0.279686
 31
0.0
  0
LINE
  5
5C5
330
1F
100
AcDbEntity
  8
1
  6
CONTINUOUS
370
50
 62
4
100
AcDbLine
 10
59.828518
 20
-0.78098
 30
0.0
 11
59.824875
 21
-0.7128479999999999
 31
0.0
  0
LINE
  5
5C6
330
1F
100
AcDbEntity
  8
1
  6
CONTINUOUS
370
50
 62
4
100
AcDbLine
 10
59.827076
 20
-0.279686
 30
0.0
 11
59.825809
 21
-0.257358
 31
0.0
  0
LINE
  5
5C7
330
1F
100
AcDbEntity
  8
1
  6
CONTINUOUS
370
50
 62
4
100
AcDbLine
 10
59.825809
 20
-0.257358
 30
0.0
 11
59.824192
 21
-0.23527
 31
0.0
  0
LINE
  5
5C8
330
1F
100
AcDbEntity
  8
1
  6
CONTINUOUS
370
50
 62
4
100
AcDbLine
 10
59.833607
 20
-0.848059
 30
0.0
 11
59.828518
 21
-0.78098
 31
0.0
  0
LINE
  5
5C9
330
1F
100
AcDbEntity
  8
1
  6
CONTINUOUS
370
50
 62
4
100
AcDbLine
 10
59.493519
 20
0.9144369999999999
 30
0.0
 11
59.49204599999999
 21
0.9331389999999999
 31
0.0
  0
LINE
  5
5CA
330
1F
100
AcDbEntity
  8
1
  6
CONTINUOUS
370
50
 62
4
100
AcDbLine
 10
59.493469
 20
0.194814
 30
0.0
 11
59.49218
 21
0.209881
 31
0.0
  0
LINE
  5
5CB
330
1F
100
AcDbEntity
  8
1
  6
CONTINUOUS
370
50
 62
4
100
AcDbLine
 10
51.010971
 20
-1.079287
 30
0.0
 11
51.009422
 21
-1.06158
 31
0.0
  0
LINE
  5
5CC
330
1F
100
AcDbEntity
  8
1
  6
CONTINUOUS
370
50
 62
4
100
AcDbLine
 10
59.824192
 20
-0.23527
 30
0.0
 11
59.822235
 21
-0.213461
 31
0.0
  0
LINE
  5
5CD
330
1F
100
AcDbEntity
  8
1
  6
CONTINUOUS
370
50
 62
4
100
AcDbLine
 10
59.84008799999999
 20
-0.9135979999999999
 30
0.0
 11
59.833607
 21
-0.848059
 31
0.0
  0
LINE
  5
5CE
330
1F
100
AcDbEntity
  8
1
  6
CONTINUOUS
370
50
 62
4
100
AcDbLine
 10
51.011215
 20
1.040095
 30
0.0
 11
51.009476
 21
1.057637
 31
0.0
  0
LINE
  5
5CF
330
1F
100
AcDbEntity
  8
1
  6
CONTINUOUS
370
50
 62
4
100
AcDbLine
 10
59.847935
 20
-0.9774499999999999
 30
0.0
 11
59.84008799999999
 21
-0.9135979999999999
 31
0.0
  0
LINE
  5
5D0
330
1F
100
AcDbEntity
  8
1
  6
CONTINUOUS
370
50
 62
4
100
AcDbLine
 10
59.49204599999999
 20
0.9331389999999999
 30
0.0
 11
59.489632
 21
0.9526859999999999
 31
0.0
  0
LINE
  5
5D1
330
1F
100
AcDbEntity
  8
1
  6
CONTINUOUS
370
50
 62
4
100
AcDbLine
 10
59.49218
 20
0.209881
 30
0.0
 11
59.49015
 21
0.224547
 31
0.0
  0
LINE
  5
5D2
330
1F
100
AcDbEntity
  8
1
  6
CONTINUOUS
370
50
 62
4
100
AcDbLine
 10
59.857113
 20
-1.039465
 30
0.0
 11
59.847935
 21
-0.9774499999999999
 31
0.0
  0
LINE
  5
5D3
330
1F
100
AcDbEntity
  8
1
  6
CONTINUOUS
370
50
 62
4
100
AcDbLine
 10
59.489632
 20
0.9526859999999999
 30
0.0
 11
59.486298
 21
0.973019
 31
0.0
  0
LINE
  5
5D4
330
1F
100
AcDbEntity
  8
1
  6
CONTINUOUS
370
50
 62
4
100
AcDbLine
 10
59.867588
 20
-1.099495
 30
0.0
 11
59.857113
 21
-1.039465
 31
0.0
  0
LINE
  5
5D5
330
1F
100
AcDbEntity
  8
1
  6
CONTINUOUS
370
50
 62
4
100
AcDbLine
 10
59.49015
 20
0.224547
 30
0.0
 11
59.487404
 21
0.238789
 31
0.0
  0
LINE
  5
5D6
330
1F
100
AcDbEntity
  8
1
  6
CONTINUOUS
370
50
 62
4
100
AcDbLine
 10
59.486298
 20
0.973019
 30
0.0
 11
59.482059
 21
0.994081
 31
0.0
  0
LINE
  5
5D7
330
1F
100
AcDbEntity
  8
1
  6
CONTINUOUS
370
50
 62
4
100
AcDbLine
 10
59.879326
 20
-1.157367
 30
0.0
 11
59.867588
 21
-1.099495
 31
0.0
  0
LINE
  5
5D8
330
1F
100
AcDbEntity
  8
1
  6
CONTINUOUS
370
50
 62
4
100
AcDbLine
 10
51.015186
 20
1.022511
 30
0.0
 11
51.011215
 21
1.040095
 31
0.0
  0
LINE
  5
5D9
330
1F
100
AcDbEntity
  8
1
  6
CONTINUOUS
370
50
 62
4
100
AcDbLine
 10
51.014896
 20
-1.096459
 30
0.0
 11
51.010971
 21
-1.079287
 31
0.0
  0
LINE
  5
5DA
330
1F
100
AcDbEntity
  8
1
  6
CONTINUOUS
370
50
 62
4
100
AcDbLine
 10
59.892208
 20
-1.212603
 30
0.0
 11
59.879326
 21
-1.157367
 31
0.0
  0
LINE
  5
5DB
330
1F
100
AcDbEntity
  8
1
  6
CONTINUOUS
370
50
 62
4
100
AcDbLine
 10
59.482059
 20
0.994081
 30
0.0
 11
59.476933
 21
1.015813
 31
0.0
  0
LINE
  5
5DC
330
1F
100
AcDbEntity
  8
1
  6
CONTINUOUS
370
50
 62
4
100
AcDbLine
 10
59.487404
 20
0.238789
 30
0.0
 11
59.48394399999999
 21
0.252584
 31
0.0
  0
LINE
  5
5DD
330
1F
100
AcDbEntity
  8
1
  6
CONTINUOUS
370
50
 62
4
100
AcDbLine
 10
59.906147
 20
-1.265002
 30
0.0
 11
59.892208
 21
-1.212603
 31
0.0
  0
LINE
  5
5DE
330
1F
100
AcDbEntity
  8
1
  6
CONTINUOUS
370
50
 62
4
100
AcDbLine
 10
59.476933
 20
1.015813
 30
0.0
 11
59.470943
 21
1.038158
 31
0.0
  0
LINE
  5
5DF
330
1F
100
AcDbEntity
  8
1
  6
CONTINUOUS
370
50
 62
4
100
AcDbLine
 10
59.470943
 20
1.038158
 30
0.0
 11
59.46409999999999
 21
1.061056
 31
0.0
  0
LINE
  5
5E0
330
1F
100
AcDbEntity
  8
1
  6
CONTINUOUS
370
50
 62
4
100
AcDbLine
 10
59.921085
 20
-1.314488
 30
0.0
 11
59.906147
 21
-1.265002
 31
0.0
  0
LINE
  5
5E1
330
1F
100
AcDbEntity
  8
1
  6
CONTINUOUS
370
50
 62
4
100
AcDbLine
 10
59.48394399999999
 20
0.252584
 30
0.0
 11
59.479786
 21
0.26591
 31
0.0
  0
LINE
  5
5E2
330
1F
100
AcDbEntity
  8
1
  6
CONTINUOUS
370
50
 62
4
100
AcDbLine
 10
59.410828
 20
1.223019
 30
0.0
 11
59.403606
 21
1.245995
 31
0.0
  0
LINE
  5
5E3
330
1F
100
AcDbEntity
  8
1
  6
CONTINUOUS
370
50
 62
4
100
AcDbLine
 10
59.418156
 20
1.200004
 30
0.0
 11
59.410828
 21
1.223019
 31
0.0
  0
LINE
  5
5E4
330
1F
100
AcDbEntity
  8
1
  6
CONTINUOUS
370
50
 62
4
100
AcDbLine
 10
59.425591
 20
1.176952
 30
0.0
 11
59.418156
 21
1.200004
 31
0.0
  0
LINE
  5
5E5
330
1F
100
AcDbEntity
  8
1
  6
CONTINUOUS
370
50
 62
4
100
AcDbLine
 10
59.822792
 20
0.749593
 30
0.0
 11
59.821976
 21
0.7521089999999999
 31
0.0
  0
LINE
  5
5E6
330
1F
100
AcDbEntity
  8
1
  6
CONTINUOUS
370
50
 62
4
100
AcDbLine
 10
59.861805
 20
0.629522
 30
0.0
 11
59.851414
 21
0.661509
 31
0.0
  0
LINE
  5
5E7
330
1F
100
AcDbEntity
  8
1
  6
CONTINUOUS
370
50
 62
4
100
AcDbLine
 10
60.0
 20
0.204204
 30
0.0
 11
59.989281
 21
0.237198
 31
0.0
  0
LINE
  5
5E8
330
1F
100
AcDbEntity
  8
1
  6
CONTINUOUS
370
50
 62
4
100
AcDbLine
 10
59.951389
 20
0.353811
 30
0.0
 11
59.933697
 21
0.408266
 31
0.0
  0
LINE
  5
5E9
330
1F
100
AcDbEntity
  8
1
  6
CONTINUOUS
370
50
 62
4
100
AcDbLine
 10
59.88688999999999
 20
0.552318
 30
0.0
 11
59.873661
 21
0.593036
 31
0.0
  0
LINE
  5
5EA
330
1F
100
AcDbEntity
  8
1
  6
CONTINUOUS
370
50
 62
4
100
AcDbLine
 10
59.916981
 20
0.459706
 30
0.0
 11
59.901356
 21
0.507798
 31
0.0
  0
LINE
  5
5EB
330
1F
100
AcDbEntity
  8
1
  6
CONTINUOUS
370
50
 62
4
100
AcDbLine
 10
59.829399
 20
0.729259
 30
0.0
 11
59.82526
 21
0.7419979999999999
 31
0.0
  0
LINE
  5
5EC
330
1F
100
AcDbEntity
  8
1
  6
CONTINUOUS
370
50
 62
4
100
AcDbLine
 10
59.842522
 20
0.688875
 30
0.0
 11
59.835171
 21
0.711499
 31
0.0
  0
LINE
  5
5ED
330
1F
100
AcDbEntity
  8
1
  6
CONTINUOUS
370
50
 62
4
100
AcDbLine
 10
59.989281
 20
0.237198
 30
0.0
 11
59.969944
 21
0.29671
 31
0.0
  0
LINE
  5
5EE
330
1F
100
AcDbEntity
  8
1
  6
CONTINUOUS
370
50
 62
4
100
AcDbLine
 10
59.851414
 20
0.661509
 30
0.0
 11
59.842522
 21
0.688875
 31
0.0
  0
LINE
  5
5EF
330
1F
100
AcDbEntity
  8
1
  6
CONTINUOUS
370
50
 62
4
100
AcDbLine
 10
59.901356
 20
0.507798
 30
0.0
 11
59.88688999999999
 21
0.552318
 31
0.0
  0
LINE
  5
5F0
330
1F
100
AcDbEntity
  8
1
  6
CONTINUOUS
370
50
 62
4
100
AcDbLine
 10
59.873661
 20
0.593036
 30
0.0
 11
59.861805
 21
0.629522
 31
0.0
  0
LINE
  5
5F1
330
1F
100
AcDbEntity
  8
1
  6
CONTINUOUS
370
50
 62
4
100
AcDbLine
 10
59.969944
 20
0.29671
 30
0.0
 11
59.951389
 21
0.353811
 31
0.0
  0
LINE
  5
5F2
330
1F
100
AcDbEntity
  8
1
  6
CONTINUOUS
370
50
 62
4
100
AcDbLine
 10
59.82526
 20
0.7419979999999999
 30
0.0
 11
59.822792
 21
0.749593
 31
0.0
  0
LINE
  5
5F3
330
1F
100
AcDbEntity
  8
1
  6
CONTINUOUS
370
50
 62
4
100
AcDbLine
 10
59.933697
 20
0.408266
 30
0.0
 11
59.916981
 21
0.459706
 31
0.0
  0
LINE
  5
5F4
330
1F
100
AcDbEntity
  8
1
  6
CONTINUOUS
370
50
 62
4
100
AcDbLine
 10
59.835171
 20
0.711499
 30
0.0
 11
59.829399
 21
0.729259
 31
0.0
  0
LINE
  5
5F5
330
1F
100
AcDbEntity
  8
1
  6
CONTINUOUS
370
50
 62
4
100
AcDbLine
 10
59.433136
 20
1.153868
 30
0.0
 11
59.425591
 21
1.176952
 31
0.0
  0
LINE
  5
5F6
330
1F
100
AcDbEntity
  8
1
  6
CONTINUOUS
370
50
 62
4
100
AcDbLine
 10
59.46409999999999
 20
1.061056
 30
0.0
 11
59.456425
 21
1.084449
 31
0.0
  0
LINE
  5
5F7
330
1F
100
AcDbEntity
  8
1
  6
CONTINUOUS
370
50
 62
4
100
AcDbLine
 10
59.440788
 20
1.130753
 30
0.0
 11
59.433136
 21
1.153868
 31
0.0
  0
LINE
  5
5F8
330
1F
100
AcDbEntity
  8
1
  6
CONTINUOUS
370
50
 62
4
100
AcDbLine
 10
59.44855099999999
 20
1.107613
 30
0.0
 11
59.440788
 21
1.130753
 31
0.0
  0
LINE
  5
5F9
330
1F
100
AcDbEntity
  8
1
  6
CONTINUOUS
370
50
 62
4
100
AcDbLine
 10
59.456425
 20
1.084449
 30
0.0
 11
59.44855099999999
 21
1.107613
 31
0.0
  0
LINE
  5
5FA
330
1F
100
AcDbEntity
  8
1
  6
CONTINUOUS
370
50
 62
4
100
AcDbLine
 10
59.93696199999999
 20
-1.360982
 30
0.0
 11
59.921085
 21
-1.314488
 31
0.0
  0
LINE
  5
5FB
330
1F
100
AcDbEntity
  8
1
  6
CONTINUOUS
370
50
 62
4
100
AcDbLine
 10
51.02124
 20
1.00494
 30
0.0
 11
51.015186
 21
1.022511
 31
0.0
  0
LINE
  5
5FC
330
1F
100
AcDbEntity
  8
1
  6
CONTINUOUS
370
50
 62
4
100
AcDbLine
 10
51.021038
 20
-1.113066
 30
0.0
 11
51.014896
 21
-1.096459
 31
0.0
  0
LINE
  5
5FD
330
1F
100
AcDbEntity
  8
1
  6
CONTINUOUS
370
50
 62
4
100
AcDbLine
 10
59.479786
 20
0.26591
 30
0.0
 11
59.47494099999999
 21
0.278743
 31
0.0
  0
LINE
  5
5FE
330
1F
100
AcDbEntity
  8
1
  6
CONTINUOUS
370
50
 62
4
100
AcDbLine
 10
59.953678
 20
-1.404306
 30
0.0
 11
59.93696199999999
 21
-1.360982
 31
0.0
  0
LINE
  5
5FF
330
1F
100
AcDbEntity
  8
1
  6
CONTINUOUS
370
50
 62
4
100
AcDbLine
 10
59.971138
 20
-1.444361
 30
0.0
 11
59.953678
 21
-1.404306
 31
0.0
  0
LINE
  5
600
330
1F
100
AcDbEntity
  8
1
  6
CONTINUOUS
370
50
 62
4
100
AcDbLine
 10
59.47494099999999
 20
0.278743
 30
0.0
 11
59.46942499999999
 21
0.29106
 31
0.0
  0
LINE
  5
601
330
1F
100
AcDbEntity
  8
1
  6
CONTINUOUS
370
50
 62
4
100
AcDbLine
 10
51.029228
 20
0.987435
 30
0.0
 11
51.02124
 21
1.00494
 31
0.0
  0
LINE
  5
602
330
1F
100
AcDbEntity
  8
1
  6
CONTINUOUS
370
50
 62
4
100
AcDbLine
 10
59.60643
 20
0.822253
 30
0.0
 11
59.403606
 21
1.245995
 31
0.0
  0
LINE
  5
603
330
1F
100
AcDbEntity
  8
1
  6
CONTINUOUS
370
50
 62
4
100
AcDbLine
 10
51.349098
 20
0.381727
 30
0.0
 11
51.303619
 21
0.476132
 31
0.0
  0
LINE
  5
604
330
1F
100
AcDbEntity
  8
1
  6
CONTINUOUS
370
50
 62
4
100
AcDbLine
 10
51.303619
 20
0.476132
 30
0.0
 11
51.25880799999999
 21
0.568877
 31
0.0
  0
LINE
  5
605
330
1F
100
AcDbEntity
  8
1
  6
CONTINUOUS
370
50
 62
4
100
AcDbLine
 10
51.395851
 20
0.285994
 30
0.0
 11
51.349098
 21
0.381727
 31
0.0
  0
LINE
  5
606
330
1F
100
AcDbEntity
  8
1
  6
CONTINUOUS
370
50
 62
4
100
AcDbLine
 10
51.25880799999999
 20
0.568877
 30
0.0
 11
51.214062
 21
0.6596259999999999
 31
0.0
  0
LINE
  5
607
330
1F
100
AcDbEntity
  8
1
  6
CONTINUOUS
370
50
 62
4
100
AcDbLine
 10
59.989281
 20
-1.481127
 30
0.0
 11
59.971138
 21
-1.444361
 31
0.0
  0
LINE
  5
608
330
1F
100
AcDbEntity
  8
1
  6
CONTINUOUS
370
50
 62
4
100
AcDbLine
 10
51.44432399999999
 20
0.189613
 30
0.0
 11
51.395851
 21
0.285994
 31
0.0
  0
LINE
  5
609
330
1F
100
AcDbEntity
  8
1
  6
CONTINUOUS
370
50
 62
4
100
AcDbLine
 10
51.029228
 20
-1.12908
 30
0.0
 11
51.021038
 21
-1.113066
 31
0.0
  0
LINE
  5
60A
330
1F
100
AcDbEntity
  8
1
  6
CONTINUOUS
370
50
 62
4
100
AcDbLine
 10
51.214062
 20
0.6596259999999999
 30
0.0
 11
51.169075
 21
0.747505
 31
0.0
  0
LINE
  5
60B
330
1F
100
AcDbEntity
  8
1
  6
CONTINUOUS
370
50
 62
4
100
AcDbLine
 10
59.46942499999999
 20
0.29106
 30
0.0
 11
59.463249
 21
0.30284
 31
0.0
  0
LINE
  5
60C
330
1F
100
AcDbEntity
  8
1
  6
CONTINUOUS
370
50
 62
4
100
AcDbLine
 10
51.494602
 20
0.094126
 30
0.0
 11
51.44432399999999
 21
0.189613
 31
0.0
  0
LINE
  5
60D
330
1F
100
AcDbEntity
  8
1
  6
CONTINUOUS
370
50
 62
4
100
AcDbLine
 10
51.169075
 20
0.747505
 30
0.0
 11
51.123653
 21
0.831579
 31
0.0
  0
LINE
  5
60E
330
1F
100
AcDbEntity
  8
1
  6
CONTINUOUS
370
50
 62
4
100
AcDbLine
 10
59.410828
 20
0.389299
 30
0.0
 11
59.403606
 21
0.402272
 31
0.0
  0
LINE
  5
60F
330
1F
100
AcDbEntity
  8
1
  6
CONTINUOUS
370
50
 62
4
100
AcDbLine
 10
51.547325
 20
-0.000013
 30
0.0
 11
51.494602
 21
0.094126
 31
0.0
  0
LINE
  5
610
330
1F
100
AcDbEntity
  8
1
  6
CONTINUOUS
370
50
 62
4
100
AcDbLine
 10
59.418156
 20
0.376441
 30
0.0
 11
59.410828
 21
0.389299
 31
0.0
  0
LINE
  5
611
330
1F
100
AcDbEntity
  8
1
  6
CONTINUOUS
370
50
 62
4
100
AcDbLine
 10
51.123653
 20
0.831579
 30
0.0
 11
51.077229
 21
0.911627
 31
0.0
  0
LINE
  5
612
330
1F
100
AcDbEntity
  8
1
  6
CONTINUOUS
370
50
 62
4
100
AcDbLine
 10
59.425591
 20
0.363704
 30
0.0
 11
59.418156
 21
0.376441
 31
0.0
  0
LINE
  5
613
330
1F
100
AcDbEntity
  8
1
  6
CONTINUOUS
370
50
 62
4
100
AcDbLine
 10
51.578522
 20
-0.052579
 30
0.0
 11
51.547325
 21
-0.000013
 31
0.0
  0
LINE
  5
614
330
1F
100
AcDbEntity
  8
1
  6
CONTINUOUS
370
50
 62
4
100
AcDbLine
 10
59.433136
 20
0.351092
 30
0.0
 11
59.425591
 21
0.363704
 31
0.0
  0
LINE
  5
615
330
1F
100
AcDbEntity
  8
1
  6
CONTINUOUS
370
50
 62
4
100
AcDbLine
 10
59.463249
 20
0.30284
 30
0.0
 11
59.456425
 21
0.314058
 31
0.0
  0
LINE
  5
616
330
1F
100
AcDbEntity
  8
1
  6
CONTINUOUS
370
50
 62
4
100
AcDbLine
 10
59.440788
 20
0.33861
 30
0.0
 11
59.433136
 21
0.351092
 31
0.0
  0
LINE
  5
617
330
1F
100
AcDbEntity
  8
1
  6
CONTINUOUS
370
50
 62
4
100
AcDbLine
 10
51.610851
 20
-0.104538
 30
0.0
 11
51.578522
 21
-0.052579
 31
0.0
  0
LINE
  5
618
330
1F
100
AcDbEntity
  8
1
  6
CONTINUOUS
370
50
 62
4
100
AcDbLine
 10
59.44855099999999
 20
0.326264
 30
0.0
 11
59.440788
 21
0.33861
 31
0.0
  0
LINE
  5
619
330
1F
100
AcDbEntity
  8
1
  6
CONTINUOUS
370
50
 62
4
100
AcDbLine
 10
51.077229
 20
0.911627
 30
0.0
 11
51.029228
 21
0.987435
 31
0.0
  0
LINE
  5
61A
330
1F
100
AcDbEntity
  8
1
  6
CONTINUOUS
370
50
 62
4
100
AcDbLine
 10
59.456425
 20
0.314058
 30
0.0
 11
59.44855099999999
 21
0.326264
 31
0.0
  0
LINE
  5
61B
330
1F
100
AcDbEntity
  8
1
  6
CONTINUOUS
370
50
 62
4
100
AcDbLine
 10
51.644436
 20
-0.155828
 30
0.0
 11
51.610851
 21
-0.104538
 31
0.0
  0
LINE
  5
61C
330
1F
100
AcDbEntity
  8
1
  6
CONTINUOUS
370
50
 62
4
100
AcDbLine
 10
51.67939
 20
-0.206362
 30
0.0
 11
51.644436
 21
-0.155828
 31
0.0
  0
LINE
  5
61D
330
1F
100
AcDbEntity
  8
1
  6
CONTINUOUS
370
50
 62
4
100
AcDbLine
 10
51.715481
 20
-0.255584
 30
0.0
 11
51.67939
 21
-0.206362
 31
0.0
  0
LINE
  5
61E
330
1F
100
AcDbEntity
  8
1
  6
CONTINUOUS
370
50
 62
4
100
AcDbLine
 10
51.077061
 20
-1.190914
 30
0.0
 11
51.029228
 21
-1.12908
 31
0.0
  0
LINE
  5
61F
330
1F
100
AcDbEntity
  8
1
  6
CONTINUOUS
370
50
 62
4
100
AcDbLine
 10
51.752663
 20
-0.303317
 30
0.0
 11
51.715481
 21
-0.255584
 31
0.0
  0
LINE
  5
620
330
1F
100
AcDbEntity
  8
1
  6
CONTINUOUS
370
50
 62
4
100
AcDbLine
 10
51.123329
 20
-1.247939
 30
0.0
 11
51.077061
 21
-1.190914
 31
0.0
  0
LINE
  5
621
330
1F
100
AcDbEntity
  8
1
  6
CONTINUOUS
370
50
 62
4
100
AcDbLine
 10
51.963699
 20
-0.528106
 30
0.0
 11
51.958302
 21
-0.521474
 31
0.0
  0
LINE
  5
622
330
1F
100
AcDbEntity
  8
1
  6
CONTINUOUS
370
50
 62
4
100
AcDbLine
 10
51.791035
 20
-0.349613
 30
0.0
 11
51.752663
 21
-0.303317
 31
0.0
  0
LINE
  5
623
330
1F
100
AcDbEntity
  8
1
  6
CONTINUOUS
370
50
 62
4
100
AcDbLine
 10
51.969387
 20
-0.534713
 30
0.0
 11
51.963699
 21
-0.528106
 31
0.0
  0
LINE
  5
624
330
1F
100
AcDbEntity
  8
1
  6
CONTINUOUS
370
50
 62
4
100
AcDbLine
 10
51.168594
 20
-1.299888
 30
0.0
 11
51.123329
 21
-1.247939
 31
0.0
  0
LINE
  5
625
330
1F
100
AcDbEntity
  8
1
  6
CONTINUOUS
370
50
 62
4
100
AcDbLine
 10
51.830685
 20
-0.394524
 30
0.0
 11
51.791035
 21
-0.349613
 31
0.0
  0
LINE
  5
626
330
1F
100
AcDbEntity
  8
1
  6
CONTINUOUS
370
50
 62
4
100
AcDbLine
 10
51.975307
 20
-0.541261
 30
0.0
 11
51.969387
 21
-0.534713
 31
0.0
  0
LINE
  5
627
330
1F
100
AcDbEntity
  8
1
  6
CONTINUOUS
370
50
 62
4
100
AcDbLine
 10
51.871716
 20
-0.438104
 30
0.0
 11
51.830685
 21
-0.394524
 31
0.0
  0
LINE
  5
628
330
1F
100
AcDbEntity
  8
1
  6
CONTINUOUS
370
50
 62
4
100
AcDbLine
 10
51.981392
 20
-0.547713
 30
0.0
 11
51.975307
 21
-0.541261
 31
0.0
  0
LINE
  5
629
330
1F
100
AcDbEntity
  8
1
  6
CONTINUOUS
370
50
 62
4
100
AcDbLine
 10
51.213421
 20
-1.346498
 30
0.0
 11
51.168594
 21
-1.299888
 31
0.0
  0
LINE
  5
62A
330
1F
100
AcDbEntity
  8
1
  6
CONTINUOUS
370
50
 62
4
100
AcDbLine
 10
51.987579
 20
-0.554036
 30
0.0
 11
51.981392
 21
-0.547713
 31
0.0
  0
LINE
  5
62B
330
1F
100
AcDbEntity
  8
1
  6
CONTINUOUS
370
50
 62
4
100
AcDbLine
 10
51.914223
 20
-0.480403
 30
0.0
 11
51.871716
 21
-0.438104
 31
0.0
  0
LINE
  5
62C
330
1F
100
AcDbEntity
  8
1
  6
CONTINUOUS
370
50
 62
4
100
AcDbLine
 10
51.993801
 20
-0.5601929999999999
 30
0.0
 11
51.987579
 21
-0.554036
 31
0.0
  0
LINE
  5
62D
330
1F
100
AcDbEntity
  8
1
  6
CONTINUOUS
370
50
 62
4
100
AcDbLine
 10
52.0
 20
-0.566151
 30
0.0
 11
51.993801
 21
-0.5601929999999999
 31
0.0
  0
LINE
  5
62E
330
1F
100
AcDbEntity
  8
1
  6
CONTINUOUS
370
50
 62
4
100
AcDbLine
 10
51.958302
 20
-0.521474
 30
0.0
 11
51.914223
 21
-0.480403
 31
0.0
  0
LINE
  5
62F
330
1F
100
AcDbEntity
  8
1
  6
CONTINUOUS
370
50
 62
4
100
AcDbLine
 10
51.258015
 20
-1.387215
 30
0.0
 11
51.213421
 21
-1.346498
 31
0.0
  0
LINE
  5
630
330
1F
100
AcDbEntity
  8
1
  6
CONTINUOUS
370
50
 62
4
100
AcDbLine
 10
54.2756
 20
0.0
 30
0.0
 11
54.193798
 21
0.068281
 31
0.0
  0
LINE
  5
631
330
1F
100
AcDbEntity
  8
1
  6
CONTINUOUS
370
50
 62
4
100
AcDbLine
 10
54.221256
 20
-0.197306
 30
0.0
 11
54.104504
 21
-0.101177
 31
0.0
  0
LINE
  5
632
330
1F
100
AcDbEntity
  8
1
  6
CONTINUOUS
370
50
 62
4
100
AcDbLine
 10
53.980652
 20
-0.001272
 30
0.0
 11
53.97910299999999
 21
0.0
 31
0.0
  0
LINE
  5
633
330
1F
100
AcDbEntity
  8
1
  6
CONTINUOUS
370
50
 62
4
100
AcDbLine
 10
54.193798
 20
0.068281
 30
0.0
 11
54.092686
 21
0.151308
 31
0.0
  0
LINE
  5
634
330
1F
100
AcDbEntity
  8
1
  6
CONTINUOUS
370
50
 62
4
100
AcDbLine
 10
54.341984
 20
-0.29632
 30
0.0
 11
54.221256
 21
-0.197306
 31
0.0
  0
LINE
  5
635
330
1F
100
AcDbEntity
  8
1
  6
CONTINUOUS
370
50
 62
4
100
AcDbLine
 10
57.804543
 20
-0.398742
 30
0.0
 11
57.564026
 21
-0.202961
 31
0.0
  0
LINE
  5
636
330
1F
100
AcDbEntity
  8
1
  6
CONTINUOUS
370
50
 62
4
100
AcDbLine
 10
59.644047
 20
0.267009
 30
0.0
 11
59.412888
 21
0.454296
 31
0.0
  0
LINE
  5
637
330
1F
100
AcDbEntity
  8
1
  6
CONTINUOUS
370
50
 62
4
100
AcDbLine
 10
54.104504
 20
-0.101177
 30
0.0
 11
53.988476
 21
-0.007507
 31
0.0
  0
LINE
  5
638
330
1F
100
AcDbEntity
  8
1
  6
CONTINUOUS
370
50
 62
4
100
AcDbLine
 10
54.092686
 20
0.151308
 30
0.0
 11
53.972786
 21
0.247098
 31
0.0
  0
LINE
  5
639
330
1F
100
AcDbEntity
  8
1
  6
CONTINUOUS
370
50
 62
4
100
AcDbLine
 10
54.469803
 20
-0.398268
 30
0.0
 11
54.341984
 21
-0.29632
 31
0.0
  0
LINE
  5
63A
330
1F
100
AcDbEntity
  8
1
  6
CONTINUOUS
370
50
 62
4
100
AcDbLine
 10
53.988476
 20
-0.007507
 30
0.0
 11
53.98534799999999
 21
-0.005013
 31
0.0
  0
LINE
  5
63B
330
1F
100
AcDbEntity
  8
1
  6
CONTINUOUS
370
50
 62
4
100
AcDbLine
 10
53.98378
 20
-0.003766
 30
0.0
 11
53.980652
 21
-0.001272
 31
0.0
  0
LINE
  5
63C
330
1F
100
AcDbEntity
  8
1
  6
CONTINUOUS
370
50
 62
4
100
AcDbLine
 10
59.88446399999999
 20
0.075633
 30
0.0
 11
59.644047
 21
0.267009
 31
0.0
  0
LINE
  5
63D
330
1F
100
AcDbEntity
  8
1
  6
CONTINUOUS
370
50
 62
4
100
AcDbLine
 10
53.98534799999999
 20
-0.005013
 30
0.0
 11
53.98378
 21
-0.003766
 31
0.0
  0
LINE
  5
63E
330
1F
100
AcDbEntity
  8
1
  6
CONTINUOUS
370
50
 62
4
100
AcDbLine
 10
57.564026
 20
-0.202961
 30
0.0
 11
57.308052
 21
0.0
 31
0.0
  0
LINE
  5
63F
330
1F
100
AcDbEntity
  8
1
  6
CONTINUOUS
370
50
 62
4
100
AcDbLine
 10
54.817963
 20
-0.424213
 30
0.0
 11
54.2756
 21
0.0
 31
0.0
  0
LINE
  5
640
330
1F
100
AcDbEntity
  8
1
  6
CONTINUOUS
370
50
 62
4
100
AcDbLine
 10
53.97910299999999
 20
0.0
 30
0.0
 11
53.786514
 21
0.150355
 31
0.0
  0
LINE
  5
641
330
1F
100
AcDbEntity
  8
1
  6
CONTINUOUS
370
50
 62
4
100
AcDbLine
 10
57.694725
 20
-0.542283
 30
0.0
 11
57.52224
 21
-0.408081
 31
0.0
  0
LINE
  5
642
330
1F
100
AcDbEntity
  8
1
  6
CONTINUOUS
370
50
 62
4
100
AcDbLine
 10
59.626785
 20
0.5156689999999999
 30
0.0
 11
59.56739
 21
0.561705
 31
0.0
  0
LINE
  5
643
330
1F
100
AcDbEntity
  8
1
  6
CONTINUOUS
370
50
 62
4
100
AcDbLine
 10
59.56739
 20
0.561705
 30
0.0
 11
59.50396
 21
0.6108239999999999
 31
0.0
  0
LINE
  5
644
330
1F
100
AcDbEntity
  8
1
  6
CONTINUOUS
370
50
 62
4
100
AcDbLine
 10
59.686497
 20
0.469465
 30
0.0
 11
59.626785
 21
0.5156689999999999
 31
0.0
  0
LINE
  5
645
330
1F
100
AcDbEntity
  8
1
  6
CONTINUOUS
370
50
 62
4
100
AcDbLine
 10
51.302658
 20
-1.421702
 30
0.0
 11
51.258015
 21
-1.387215
 31
0.0
  0
LINE
  5
646
330
1F
100
AcDbEntity
  8
1
  6
CONTINUOUS
370
50
 62
4
100
AcDbLine
 10
59.746506
 20
0.42313
 30
0.0
 11
59.686497
 21
0.469465
 31
0.0
  0
LINE
  5
647
330
1F
100
AcDbEntity
  8
1
  6
CONTINUOUS
370
50
 62
4
100
AcDbLine
 10
53.972786
 20
0.247098
 30
0.0
 11
53.834637
 21
0.353696
 31
0.0
  0
LINE
  5
648
330
1F
100
AcDbEntity
  8
1
  6
CONTINUOUS
370
50
 62
4
100
AcDbLine
 10
57.52224
 20
-0.408081
 30
0.0
 11
57.34876999999999
 21
-0.274498
 31
0.0
  0
LINE
  5
649
330
1F
100
AcDbEntity
  8
1
  6
CONTINUOUS
370
50
 62
4
100
AcDbLine
 10
59.806801
 20
0.376701
 30
0.0
 11
59.746506
 21
0.42313
 31
0.0
  0
LINE
  5
64A
330
1F
100
AcDbEntity
  8
1
  6
CONTINUOUS
370
50
 62
4
100
AcDbLine
 10
57.308052
 20
0.0
 30
0.0
 11
57.233036
 21
0.057718
 31
0.0
  0
LINE
  5
64B
330
1F
100
AcDbEntity
  8
1
  6
CONTINUOUS
370
50
 62
4
100
AcDbLine
 10
59.867371
 20
0.330211
 30
0.0
 11
59.806801
 21
0.376701
 31
0.0
  0
LINE
  5
64C
330
1F
100
AcDbEntity
  8
1
  6
CONTINUOUS
370
50
 62
4
100
AcDbLine
 10
58.052521
 20
-0.588899
 30
0.0
 11
57.804543
 21
-0.398742
 31
0.0
  0
LINE
  5
64D
330
1F
100
AcDbEntity
  8
1
  6
CONTINUOUS
370
50
 62
4
100
AcDbLine
 10
59.9282
 20
0.283699
 30
0.0
 11
59.867371
 21
0.330211
 31
0.0
  0
LINE
  5
64E
330
1F
100
AcDbEntity
  8
1
  6
CONTINUOUS
370
50
 62
4
100
AcDbLine
 10
57.34876999999999
 20
-0.274498
 30
0.0
 11
57.173409
 21
-0.140884
 31
0.0
  0
LINE
  5
64F
330
1F
100
AcDbEntity
  8
1
  6
CONTINUOUS
370
50
 62
4
100
AcDbLine
 10
57.233036
 20
0.057718
 30
0.0
 11
57.157753
 21
0.115056
 31
0.0
  0
LINE
  5
650
330
1F
100
AcDbEntity
  8
1
  6
CONTINUOUS
370
50
 62
4
100
AcDbLine
 10
59.989281
 20
0.237198
 30
0.0
 11
59.9282
 21
0.283699
 31
0.0
  0
LINE
  5
651
330
1F
100
AcDbEntity
  8
1
  6
CONTINUOUS
370
50
 62
4
100
AcDbLine
 10
54.607834
 20
-0.503199
 30
0.0
 11
54.469803
 21
-0.398268
 31
0.0
  0
LINE
  5
652
330
1F
100
AcDbEntity
  8
1
  6
CONTINUOUS
370
50
 62
4
100
AcDbLine
 10
57.878044
 20
-0.6814899999999999
 30
0.0
 11
57.694725
 21
-0.542283
 31
0.0
  0
LINE
  5
653
330
1F
100
AcDbEntity
  8
1
  6
CONTINUOUS
370
50
 62
4
100
AcDbLine
 10
59.50396
 20
0.6108239999999999
 30
0.0
 11
59.422939
 21
0.672225
 31
0.0
  0
LINE
  5
654
330
1F
100
AcDbEntity
  8
1
  6
CONTINUOUS
370
50
 62
4
100
AcDbLine
 10
57.173409
 20
-0.140884
 30
0.0
 11
56.997334
 21
-0.008094
 31
0.0
  0
LINE
  5
655
330
1F
100
AcDbEntity
  8
1
  6
CONTINUOUS
370
50
 62
4
100
AcDbLine
 10
57.157753
 20
0.115056
 30
0.0
 11
57.082283
 21
0.171919
 31
0.0
  0
LINE
  5
656
330
1F
100
AcDbEntity
  8
1
  6
CONTINUOUS
370
50
 62
4
100
AcDbLine
 10
53.786514
 20
0.150355
 30
0.0
 11
53.592079
 21
0.296726
 31
0.0
  0
LINE
  5
657
330
1F
100
AcDbEntity
  8
1
  6
CONTINUOUS
370
50
 62
4
100
AcDbLine
 10
59.412888
 20
0.454296
 30
0.0
 11
59.170216
 21
0.6369699999999999
 31
0.0
  0
LINE
  5
658
330
1F
100
AcDbEntity
  8
1
  6
CONTINUOUS
370
50
 62
4
100
AcDbLine
 10
56.988346
 20
-0.001351
 30
0.0
 11
56.986549
 21
0.0
 31
0.0
  0
LINE
  5
659
330
1F
100
AcDbEntity
  8
1
  6
CONTINUOUS
370
50
 62
4
100
AcDbLine
 10
56.997334
 20
-0.008094
 30
0.0
 11
56.99374
 21
-0.005396
 31
0.0
  0
LINE
  5
65A
330
1F
100
AcDbEntity
  8
1
  6
CONTINUOUS
370
50
 62
4
100
AcDbLine
 10
56.990143
 20
-0.0027
 30
0.0
 11
56.988346
 21
-0.001351
 31
0.0
  0
LINE
  5
65B
330
1F
100
AcDbEntity
  8
1
  6
CONTINUOUS
370
50
 62
4
100
AcDbLine
 10
56.99194
 20
-0.004048
 30
0.0
 11
56.990143
 21
-0.0027
 31
0.0
  0
LINE
  5
65C
330
1F
100
AcDbEntity
  8
1
  6
CONTINUOUS
370
50
 62
4
100
AcDbLine
 10
56.99374
 20
-0.005396
 30
0.0
 11
56.99194
 21
-0.004048
 31
0.0
  0
LINE
  5
65D
330
1F
100
AcDbEntity
  8
1
  6
CONTINUOUS
370
50
 62
4
100
AcDbLine
 10
56.440357
 20
0.406935
 30
0.0
 11
56.182964
 21
0.59922
 31
0.0
  0
LINE
  5
65E
330
1F
100
AcDbEntity
  8
1
  6
CONTINUOUS
370
50
 62
4
100
AcDbLine
 10
56.986549
 20
0.0
 30
0.0
 11
56.713161
 21
0.204075
 31
0.0
  0
LINE
  5
65F
330
1F
100
AcDbEntity
  8
1
  6
CONTINUOUS
370
50
 62
4
100
AcDbLine
 10
57.082283
 20
0.171919
 30
0.0
 11
57.006741
 21
0.228248
 31
0.0
  0
LINE
  5
660
330
1F
100
AcDbEntity
  8
1
  6
CONTINUOUS
370
50
 62
4
100
AcDbLine
 10
56.713161
 20
0.204075
 30
0.0
 11
56.440357
 21
0.406935
 31
0.0
  0
LINE
  5
661
330
1F
100
AcDbEntity
  8
1
  6
CONTINUOUS
370
50
 62
4
100
AcDbLine
 10
53.834637
 20
0.353696
 30
0.0
 11
53.678776
 21
0.469146
 31
0.0
  0
LINE
  5
662
330
1F
100
AcDbEntity
  8
1
  6
CONTINUOUS
370
50
 62
4
100
AcDbLine
 10
57.006741
 20
0.228248
 30
0.0
 11
56.931236
 21
0.283984
 31
0.0
  0
LINE
  5
663
330
1F
100
AcDbEntity
  8
1
  6
CONTINUOUS
370
50
 62
4
100
AcDbLine
 10
56.997334
 20
-0.008085
 30
0.0
 11
56.99729199999999
 21
-0.008054
 31
0.0
  0
LINE
  5
664
330
1F
100
AcDbEntity
  8
1
  6
CONTINUOUS
370
50
 62
4
100
AcDbLine
 10
56.182964
 20
0.59922
 30
0.0
 11
55.957558
 21
0.765164
 31
0.0
  0
LINE
  5
665
330
1F
100
AcDbEntity
  8
1
  6
CONTINUOUS
370
50
 62
4
100
AcDbLine
 10
56.931236
 20
0.283984
 30
0.0
 11
56.855873
 21
0.339082
 31
0.0
  0
LINE
  5
666
330
1F
100
AcDbEntity
  8
1
  6
CONTINUOUS
370
50
 62
4
100
AcDbLine
 10
53.592079
 20
0.296726
 30
0.0
 11
53.397442
 21
0.438179
 31
0.0
  0
LINE
  5
667
330
1F
100
AcDbEntity
  8
1
  6
CONTINUOUS
370
50
 62
4
100
AcDbLine
 10
59.422939
 20
0.672225
 30
0.0
 11
59.323605
 21
0.7443329999999999
 31
0.0
  0
LINE
  5
668
330
1F
100
AcDbEntity
  8
1
  6
CONTINUOUS
370
50
 62
4
100
AcDbLine
 10
56.855873
 20
0.339082
 30
0.0
 11
56.780403
 21
0.393787
 31
0.0
  0
LINE
  5
669
330
1F
100
AcDbEntity
  8
1
  6
CONTINUOUS
370
50
 62
4
100
AcDbLine
 10
56.780403
 20
0.393787
 30
0.0
 11
56.704811
 21
0.448158
 31
0.0
  0
LINE
  5
66A
330
1F
100
AcDbEntity
  8
1
  6
CONTINUOUS
370
50
 62
4
100
AcDbLine
 10
54.753201
 20
-0.6076739999999999
 30
0.0
 11
54.607834
 21
-0.503199
 31
0.0
  0
LINE
  5
66B
330
1F
100
AcDbEntity
  8
1
  6
CONTINUOUS
370
50
 62
4
100
AcDbLine
 10
56.99724999999999
 20
-0.008025
 30
0.0
 11
56.997211
 21
-0.007997
 31
0.0
  0
LINE
  5
66C
330
1F
100
AcDbEntity
  8
1
  6
CONTINUOUS
370
50
 62
4
100
AcDbLine
 10
56.704811
 20
0.448158
 30
0.0
 11
56.629219
 21
0.502126
 31
0.0
  0
LINE
  5
66D
330
1F
100
AcDbEntity
  8
1
  6
CONTINUOUS
370
50
 62
4
100
AcDbLine
 10
56.629219
 20
0.502126
 30
0.0
 11
56.553745
 21
0.55562
 31
0.0
  0
LINE
  5
66E
330
1F
100
AcDbEntity
  8
1
  6
CONTINUOUS
370
50
 62
4
100
AcDbLine
 10
53.678776
 20
0.469146
 30
0.0
 11
53.505745
 21
0.591492
 31
0.0
  0
LINE
  5
66F
330
1F
100
AcDbEntity
  8
1
  6
CONTINUOUS
370
50
 62
4
100
AcDbLine
 10
53.397442
 20
0.438179
 30
0.0
 11
53.202187
 21
0.5756939999999999
 31
0.0
  0
LINE
  5
670
330
1F
100
AcDbEntity
  8
1
  6
CONTINUOUS
370
50
 62
4
100
AcDbLine
 10
56.553745
 20
0.55562
 30
0.0
 11
56.478519
 21
0.608572
 31
0.0
  0
LINE
  5
671
330
1F
100
AcDbEntity
  8
1
  6
CONTINUOUS
370
50
 62
4
100
AcDbLine
 10
52.422897
 20
-0.848397
 30
0.0
 11
52.0
 21
-0.5515019999999999
 31
0.0
  0
LINE
  5
672
330
1F
100
AcDbEntity
  8
1
  6
CONTINUOUS
370
50
 62
4
100
AcDbLine
 10
56.478519
 20
0.608572
 30
0.0
 11
56.403664
 21
0.660913
 31
0.0
  0
LINE
  5
673
330
1F
100
AcDbEntity
  8
1
  6
CONTINUOUS
370
50
 62
4
100
AcDbLine
 10
58.08365999999999
 20
-0.8249529999999999
 30
0.0
 11
57.878044
 21
-0.6814899999999999
 31
0.0
  0
LINE
  5
674
330
1F
100
AcDbEntity
  8
1
  6
CONTINUOUS
370
50
 62
4
100
AcDbLine
 10
56.403664
 20
0.660913
 30
0.0
 11
56.3293
 21
0.712572
 31
0.0
  0
LINE
  5
675
330
1F
100
AcDbEntity
  8
1
  6
CONTINUOUS
370
50
 62
4
100
AcDbLine
 10
56.99729199999999
 20
-0.008054
 30
0.0
 11
56.99724999999999
 21
-0.008025
 31
0.0
  0
LINE
  5
676
330
1F
100
AcDbEntity
  8
1
  6
CONTINUOUS
370
50
 62
4
100
AcDbLine
 10
56.3293
 20
0.712572
 30
0.0
 11
56.255444
 21
0.763532
 31
0.0
  0
LINE
  5
677
330
1F
100
AcDbEntity
  8
1
  6
CONTINUOUS
370
50
 62
4
100
AcDbLine
 10
58.310558
 20
-0.7665219999999999
 30
0.0
 11
58.052521
 21
-0.588899
 31
0.0
  0
LINE
  5
678
330
1F
100
AcDbEntity
  8
1
  6
CONTINUOUS
370
50
 62
4
100
AcDbLine
 10
59.323605
 20
0.7443329999999999
 30
0.0
 11
59.206249
 21
0.824781
 31
0.0
  0
LINE
  5
679
330
1F
100
AcDbEntity
  8
1
  6
CONTINUOUS
370
50
 62
4
100
AcDbLine
 10
55.342239
 20
-0.78306
 30
0.0
 11
54.817963
 21
-0.424213
 31
0.0
  0
LINE
  5
67A
330
1F
100
AcDbEntity
  8
1
  6
CONTINUOUS
370
50
 62
4
100
AcDbLine
 10
56.255444
 20
0.763532
 30
0.0
 11
56.18203
 21
0.813778
 31
0.0
  0
LINE
  5
67B
330
1F
100
AcDbEntity
  8
1
  6
CONTINUOUS
370
50
 62
4
100
AcDbLine
 10
53.202187
 20
0.5756939999999999
 30
0.0
 11
53.007252
 21
0.7091109999999999
 31
0.0
  0
LINE
  5
67C
330
1F
100
AcDbEntity
  8
1
  6
CONTINUOUS
370
50
 62
4
100
AcDbLine
 10
54.90001299999999
 20
-0.7077979999999999
 30
0.0
 11
54.753201
 21
-0.6076739999999999
 31
0.0
  0
LINE
  5
67D
330
1F
100
AcDbEntity
  8
1
  6
CONTINUOUS
370
50
 62
4
100
AcDbLine
 10
59.884468
 20
0.075631
 30
0.0
 11
59.870483
 21
0.08516
 31
0.0
  0
LINE
  5
67E
330
1F
100
AcDbEntity
  8
1
  6
CONTINUOUS
370
50
 62
4
100
AcDbLine
 10
59.870483
 20
0.08516
 30
0.0
 11
59.854786
 21
0.095846
 31
0.0
  0
LINE
  5
67F
330
1F
100
AcDbEntity
  8
1
  6
CONTINUOUS
370
50
 62
4
100
AcDbLine
 10
59.854786
 20
0.095846
 30
0.0
 11
59.837193
 21
0.107815
 31
0.0
  0
LINE
  5
680
330
1F
100
AcDbEntity
  8
1
  6
CONTINUOUS
370
50
 62
4
100
AcDbLine
 10
59.837193
 20
0.107815
 30
0.0
 11
59.817532
 21
0.121184
 31
0.0
  0
LINE
  5
681
330
1F
100
AcDbEntity
  8
1
  6
CONTINUOUS
370
50
 62
4
100
AcDbLine
 10
59.817532
 20
0.121184
 30
0.0
 11
59.795635
 21
0.136067
 31
0.0
  0
LINE
  5
682
330
1F
100
AcDbEntity
  8
1
  6
CONTINUOUS
370
50
 62
4
100
AcDbLine
 10
59.795635
 20
0.136067
 30
0.0
 11
59.77133199999999
 21
0.15258
 31
0.0
  0
LINE
  5
683
330
1F
100
AcDbEntity
  8
1
  6
CONTINUOUS
370
50
 62
4
100
AcDbLine
 10
59.77133199999999
 20
0.15258
 30
0.0
 11
59.74449199999999
 21
0.170813
 31
0.0
  0
LINE
  5
684
330
1F
100
AcDbEntity
  8
1
  6
CONTINUOUS
370
50
 62
4
100
AcDbLine
 10
59.74449199999999
 20
0.170813
 30
0.0
 11
59.71505399999999
 21
0.190808
 31
0.0
  0
LINE
  5
685
330
1F
100
AcDbEntity
  8
1
  6
CONTINUOUS
370
50
 62
4
100
AcDbLine
 10
59.71505399999999
 20
0.190808
 30
0.0
 11
59.682911
 21
0.212638
 31
0.0
  0
LINE
  5
686
330
1F
100
AcDbEntity
  8
1
  6
CONTINUOUS
370
50
 62
4
100
AcDbLine
 10
59.64795299999999
 20
0.236375
 30
0.0
 11
59.610077
 21
0.262094
 31
0.0
  0
LINE
  5
687
330
1F
100
AcDbEntity
  8
1
  6
CONTINUOUS
370
50
 62
4
100
AcDbLine
 10
59.682911
 20
0.212638
 30
0.0
 11
59.64795299999999
 21
0.236375
 31
0.0
  0
LINE
  5
688
330
1F
100
AcDbEntity
  8
1
  6
CONTINUOUS
370
50
 62
4
100
AcDbLine
 10
59.610077
 20
0.262094
 30
0.0
 11
59.56917199999999
 21
0.289869
 31
0.0
  0
LINE
  5
689
330
1F
100
AcDbEntity
  8
1
  6
CONTINUOUS
370
50
 62
4
100
AcDbLine
 10
59.56917199999999
 20
0.289869
 30
0.0
 11
59.52861
 21
0.31741
 31
0.0
  0
LINE
  5
68A
330
1F
100
AcDbEntity
  8
1
  6
CONTINUOUS
370
50
 62
4
100
AcDbLine
 10
59.496578
 20
0.339157
 30
0.0
 11
59.47163399999999
 21
0.356093
 31
0.0
  0
LINE
  5
68B
330
1F
100
AcDbEntity
  8
1
  6
CONTINUOUS
370
50
 62
4
100
AcDbLine
 10
59.52861
 20
0.31741
 30
0.0
 11
59.496578
 21
0.339157
 31
0.0
  0
LINE
  5
68C
330
1F
100
AcDbEntity
  8
1
  6
CONTINUOUS
370
50
 62
4
100
AcDbLine
 10
59.47163399999999
 20
0.356093
 30
0.0
 11
59.451801
 21
0.369557
 31
0.0
  0
LINE
  5
68D
330
1F
100
AcDbEntity
  8
1
  6
CONTINUOUS
370
50
 62
4
100
AcDbLine
 10
59.451801
 20
0.369557
 30
0.0
 11
59.435112
 21
0.380886
 31
0.0
  0
LINE
  5
68E
330
1F
100
AcDbEntity
  8
1
  6
CONTINUOUS
370
50
 62
4
100
AcDbLine
 10
59.419376
 20
0.391567
 30
0.0
 11
59.403606
 21
0.402272
 31
0.0
  0
LINE
  5
68F
330
1F
100
AcDbEntity
  8
1
  6
CONTINUOUS
370
50
 62
4
100
AcDbLine
 10
59.435112
 20
0.380886
 30
0.0
 11
59.419376
 21
0.391567
 31
0.0
  0
LINE
  5
690
330
1F
100
AcDbEntity
  8
1
  6
CONTINUOUS
370
50
 62
4
100
AcDbLine
 10
56.18203
 20
0.813778
 30
0.0
 11
56.109081
 21
0.863232
 31
0.0
  0
LINE
  5
691
330
1F
100
AcDbEntity
  8
1
  6
CONTINUOUS
370
50
 62
4
100
AcDbLine
 10
55.957558
 20
0.765164
 30
0.0
 11
55.746361
 21
0.9081269999999999
 31
0.0
  0
LINE
  5
692
330
1F
100
AcDbEntity
  8
1
  6
CONTINUOUS
370
50
 62
4
100
AcDbLine
 10
59.170216
 20
0.6369699999999999
 30
0.0
 11
58.918865
 21
0.8065049999999999
 31
0.0
  0
LINE
  5
693
330
1F
100
AcDbEntity
  8
1
  6
CONTINUOUS
370
50
 62
4
100
AcDbLine
 10
53.505745
 20
0.591492
 30
0.0
 11
53.318703
 21
0.717259
 31
0.0
  0
LINE
  5
694
330
1F
100
AcDbEntity
  8
1
  6
CONTINUOUS
370
50
 62
4
100
AcDbLine
 10
56.109081
 20
0.863232
 30
0.0
 11
56.03556099999999
 21
0.912542
 31
0.0
  0
LINE
  5
695
330
1F
100
AcDbEntity
  8
1
  6
CONTINUOUS
370
50
 62
4
100
AcDbLine
 10
56.997211
 20
-0.007997
 30
0.0
 11
56.997169
 21
-0.007969
 31
0.0
  0
LINE
  5
696
330
1F
100
AcDbEntity
  8
1
  6
CONTINUOUS
370
50
 62
4
100
AcDbLine
 10
53.007252
 20
0.7091109999999999
 30
0.0
 11
52.815117
 21
0.837044
 31
0.0
  0
LINE
  5
697
330
1F
100
AcDbEntity
  8
1
  6
CONTINUOUS
370
50
 62
4
100
AcDbLine
 10
56.03556099999999
 20
0.912542
 30
0.0
 11
55.937408
 21
0.9765689999999999
 31
0.0
  0
LINE
  5
698
330
1F
100
AcDbEntity
  8
1
  6
CONTINUOUS
370
50
 62
4
100
AcDbLine
 10
52.815117
 20
0.837044
 30
0.0
 11
52.63767199999999
 21
0.95236
 31
0.0
  0
LINE
  5
699
330
1F
100
AcDbEntity
  8
1
  6
CONTINUOUS
370
50
 62
4
100
AcDbLine
 10
52.156124
 20
-0.8717699999999999
 30
0.0
 11
52.0
 21
-0.770524
 31
0.0
  0
LINE
  5
69A
330
1F
100
AcDbEntity
  8
1
  6
CONTINUOUS
370
50
 62
4
100
AcDbLine
 10
55.047348
 20
-0.803259
 30
0.0
 11
54.90001299999999
 21
-0.7077979999999999
 31
0.0
  0
LINE
  5
69B
330
1F
100
AcDbEntity
  8
1
  6
CONTINUOUS
370
50
 62
4
100
AcDbLine
 10
53.318703
 20
0.717259
 30
0.0
 11
53.129269
 21
0.838757
 31
0.0
  0
LINE
  5
69C
330
1F
100
AcDbEntity
  8
1
  6
CONTINUOUS
370
50
 62
4
100
AcDbLine
 10
59.206249
 20
0.824781
 30
0.0
 11
59.07115599999999
 21
0.9112
 31
0.0
  0
LINE
  5
69D
330
1F
100
AcDbEntity
  8
1
  6
CONTINUOUS
370
50
 62
4
100
AcDbLine
 10
56.997169
 20
-0.007969
 30
0.0
 11
56.997128
 21
-0.007943
 31
0.0
  0
LINE
  5
69E
330
1F
100
AcDbEntity
  8
1
  6
CONTINUOUS
370
50
 62
4
100
AcDbLine
 10
52.310589
 20
-0.9689869999999999
 30
0.0
 11
52.156124
 21
-0.8717699999999999
 31
0.0
  0
LINE
  5
69F
330
1F
100
AcDbEntity
  8
1
  6
CONTINUOUS
370
50
 62
4
100
AcDbLine
 10
51.34795
 20
-1.449937
 30
0.0
 11
51.302658
 21
-1.421702
 31
0.0
  0
LINE
  5
6A0
330
1F
100
AcDbEntity
  8
1
  6
CONTINUOUS
370
50
 62
4
100
AcDbLine
 10
58.311249
 20
-0.9656549999999999
 30
0.0
 11
58.08365999999999
 21
-0.8249529999999999
 31
0.0
  0
LINE
  5
6A1
330
1F
100
AcDbEntity
  8
1
  6
CONTINUOUS
370
50
 62
4
100
AcDbLine
 10
58.57060199999999
 20
-0.927205
 30
0.0
 11
58.310558
 21
-0.7665219999999999
 31
0.0
  0
LINE
  5
6A2
330
1F
100
AcDbEntity
  8
1
  6
CONTINUOUS
370
50
 62
4
100
AcDbLine
 10
52.84152599999999
 20
-1.106841
 30
0.0
 11
52.422897
 21
-0.848397
 31
0.0
  0
LINE
  5
6A3
330
1F
100
AcDbEntity
  8
1
  6
CONTINUOUS
370
50
 62
4
100
AcDbLine
 10
52.63767199999999
 20
0.95236
 30
0.0
 11
52.474186
 21
1.053268
 31
0.0
  0
LINE
  5
6A4
330
1F
100
AcDbEntity
  8
1
  6
CONTINUOUS
370
50
 62
4
100
AcDbLine
 10
55.194309
 20
-0.893745
 30
0.0
 11
55.047348
 21
-0.803259
 31
0.0
  0
LINE
  5
6A5
330
1F
100
AcDbEntity
  8
1
  6
CONTINUOUS
370
50
 62
4
100
AcDbLine
 10
53.129269
 20
0.838757
 30
0.0
 11
52.940369
 21
0.954175
 31
0.0
  0
LINE
  5
6A6
330
1F
100
AcDbEntity
  8
1
  6
CONTINUOUS
370
50
 62
4
100
AcDbLine
 10
55.789749
 20
-1.056037
 30
0.0
 11
55.342239
 21
-0.78306
 31
0.0
  0
LINE
  5
6A7
330
1F
100
AcDbEntity
  8
1
  6
CONTINUOUS
370
50
 62
4
100
AcDbLine
 10
52.464447
 20
-1.062349
 30
0.0
 11
52.310589
 21
-0.9689869999999999
 31
0.0
  0
LINE
  5
6A8
330
1F
100
AcDbEntity
  8
1
  6
CONTINUOUS
370
50
 62
4
100
AcDbLine
 10
58.918865
 20
0.8065049999999999
 30
0.0
 11
58.665844
 21
0.9597159999999999
 31
0.0
  0
LINE
  5
6A9
330
1F
100
AcDbEntity
  8
1
  6
CONTINUOUS
370
50
 62
4
100
AcDbLine
 10
55.937408
 20
0.9765689999999999
 30
0.0
 11
55.805344
 21
1.056394
 31
0.0
  0
LINE
  5
6AA
330
1F
100
AcDbEntity
  8
1
  6
CONTINUOUS
370
50
 62
4
100
AcDbLine
 10
56.997128
 20
-0.007943
 30
0.0
 11
56.997108
 21
-0.007931
 31
0.0
  0
LINE
  5
6AB
330
1F
100
AcDbEntity
  8
1
  6
CONTINUOUS
370
50
 62
4
100
AcDbLine
 10
55.746361
 20
0.9081269999999999
 30
0.0
 11
55.533161
 21
1.035079
 31
0.0
  0
LINE
  5
6AC
330
1F
100
AcDbEntity
  8
1
  6
CONTINUOUS
370
50
 62
4
100
AcDbLine
 10
59.07115599999999
 20
0.9112
 30
0.0
 11
58.918606
 21
1.001222
 31
0.0
  0
LINE
  5
6AD
330
1F
100
AcDbEntity
  8
1
  6
CONTINUOUS
370
50
 62
4
100
AcDbLine
 10
53.988506
 20
-0.007568
 30
0.0
 11
53.739956
 21
0.138186
 31
0.0
  0
LINE
  5
6AE
330
1F
100
AcDbEntity
  8
1
  6
CONTINUOUS
370
50
 62
4
100
AcDbLine
 10
55.340973
 20
-0.97963
 30
0.0
 11
55.194309
 21
-0.893745
 31
0.0
  0
LINE
  5
6AF
330
1F
100
AcDbEntity
  8
1
  6
CONTINUOUS
370
50
 62
4
100
AcDbLine
 10
52.940369
 20
0.954175
 30
0.0
 11
52.753876
 21
1.062363
 31
0.0
  0
LINE
  5
6B0
330
1F
100
AcDbEntity
  8
1
  6
CONTINUOUS
370
50
 62
4
100
AcDbLine
 10
59.456425
 20
0.314058
 30
0.0
 11
59.214237
 21
0.453938
 31
0.0
  0
LINE
  5
6B1
330
1F
100
AcDbEntity
  8
1
  6
CONTINUOUS
370
50
 62
4
100
AcDbLine
 10
56.997391
 20
-0.007992
 30
0.0
 11
56.764664
 21
0.122777
 31
0.0
  0
LINE
  5
6B2
330
1F
100
AcDbEntity
  8
1
  6
CONTINUOUS
370
50
 62
4
100
AcDbLine
 10
52.474186
 20
1.053268
 30
0.0
 11
52.31699
 21
1.141528
 31
0.0
  0
LINE
  5
6B3
330
1F
100
AcDbEntity
  8
1
  6
CONTINUOUS
370
50
 62
4
100
AcDbLine
 10
52.623886
 20
-1.151735
 30
0.0
 11
52.464447
 21
-1.062349
 31
0.0
  0
LINE
  5
6B4
330
1F
100
AcDbEntity
  8
1
  6
CONTINUOUS
370
50
 62
4
100
AcDbLine
 10
56.531929
 20
0.252899
 30
0.0
 11
56.299194
 21
0.383287
 31
0.0
  0
LINE
  5
6B5
330
1F
100
AcDbEntity
  8
1
  6
CONTINUOUS
370
50
 62
4
100
AcDbLine
 10
56.299194
 20
0.383287
 30
0.0
 11
56.066456
 21
0.513672
 31
0.0
  0
LINE
  5
6B6
330
1F
100
AcDbEntity
  8
1
  6
CONTINUOUS
370
50
 62
4
100
AcDbLine
 10
56.764664
 20
0.122777
 30
0.0
 11
56.531929
 21
0.252899
 31
0.0
  0
LINE
  5
6B7
330
1F
100
AcDbEntity
  8
1
  6
CONTINUOUS
370
50
 62
4
100
AcDbLine
 10
53.739956
 20
0.138186
 30
0.0
 11
53.491398
 21
0.276949
 31
0.0
  0
LINE
  5
6B8
330
1F
100
AcDbEntity
  8
1
  6
CONTINUOUS
370
50
 62
4
100
AcDbLine
 10
55.487564
 20
-1.061134
 30
0.0
 11
55.340973
 21
-0.97963
 31
0.0
  0
LINE
  5
6B9
330
1F
100
AcDbEntity
  8
1
  6
CONTINUOUS
370
50
 62
4
100
AcDbLine
 10
58.830513
 20
-1.071463
 30
0.0
 11
58.57060199999999
 21
-0.927205
 31
0.0
  0
LINE
  5
6BA
330
1F
100
AcDbEntity
  8
1
  6
CONTINUOUS
370
50
 62
4
100
AcDbLine
 10
52.753876
 20
1.062363
 30
0.0
 11
52.575474
 21
1.160336
 31
0.0
  0
LINE
  5
6BB
330
1F
100
AcDbEntity
  8
1
  6
CONTINUOUS
370
50
 62
4
100
AcDbLine
 10
58.541737
 20
-1.091444
 30
0.0
 11
58.311249
 21
-0.9656549999999999
 31
0.0
  0
LINE
  5
6BC
330
1F
100
AcDbEntity
  8
1
  6
CONTINUOUS
370
50
 62
4
100
AcDbLine
 10
56.05721699999999
 20
-1.201385
 30
0.0
 11
55.789749
 21
-1.056037
 31
0.0
  0
LINE
  5
6BD
330
1F
100
AcDbEntity
  8
1
  6
CONTINUOUS
370
50
 62
4
100
AcDbLine
 10
58.665844
 20
0.9597159999999999
 30
0.0
 11
58.413956
 21
1.096373
 31
0.0
  0
LINE
  5
6BE
330
1F
100
AcDbEntity
  8
1
  6
CONTINUOUS
370
50
 62
4
100
AcDbLine
 10
55.805344
 20
1.056394
 30
0.0
 11
55.640297
 21
1.145588
 31
0.0
  0
LINE
  5
6BF
330
1F
100
AcDbEntity
  8
1
  6
CONTINUOUS
370
50
 62
4
100
AcDbLine
 10
56.066456
 20
0.513672
 30
0.0
 11
55.833733
 21
0.639031
 31
0.0
  0
LINE
  5
6C0
330
1F
100
AcDbEntity
  8
1
  6
CONTINUOUS
370
50
 62
4
100
AcDbLine
 10
58.918606
 20
1.001222
 30
0.0
 11
58.749786
 21
1.092036
 31
0.0
  0
LINE
  5
6C1
330
1F
100
AcDbEntity
  8
1
  6
CONTINUOUS
370
50
 62
4
100
AcDbLine
 10
53.491398
 20
0.276949
 30
0.0
 11
53.242832
 21
0.410003
 31
0.0
  0
LINE
  5
6C2
330
1F
100
AcDbEntity
  8
1
  6
CONTINUOUS
370
50
 62
4
100
AcDbLine
 10
55.633362
 20
-1.137708
 30
0.0
 11
55.487564
 21
-1.061134
 31
0.0
  0
LINE
  5
6C3
330
1F
100
AcDbEntity
  8
1
  6
CONTINUOUS
370
50
 62
4
100
AcDbLine
 10
55.533161
 20
1.035079
 30
0.0
 11
55.317772
 21
1.147187
 31
0.0
  0
LINE
  5
6C4
330
1F
100
AcDbEntity
  8
1
  6
CONTINUOUS
370
50
 62
4
100
AcDbLine
 10
59.214237
 20
0.453938
 30
0.0
 11
58.972054
 21
0.579876
 31
0.0
  0
LINE
  5
6C5
330
1F
100
AcDbEntity
  8
1
  6
CONTINUOUS
370
50
 62
4
100
AcDbLine
 10
53.242832
 20
0.410003
 30
0.0
 11
52.994259
 21
0.538605
 31
0.0
  0
LINE
  5
6C6
330
1F
100
AcDbEntity
  8
1
  6
CONTINUOUS
370
50
 62
4
100
AcDbLine
 10
59.06711199999999
 20
-1.189725
 30
0.0
 11
58.830513
 21
-1.071463
 31
0.0
  0
LINE
  5
6C7
330
1F
100
AcDbEntity
  8
1
  6
CONTINUOUS
370
50
 62
4
100
AcDbLine
 10
52.994259
 20
0.538605
 30
0.0
 11
52.745678
 21
0.662566
 31
0.0
  0
LINE
  5
6C8
330
1F
100
AcDbEntity
  8
1
  6
CONTINUOUS
370
50
 62
4
100
AcDbLine
 10
52.575474
 20
1.160336
 30
0.0
 11
52.404125
 21
1.245703
 31
0.0
  0
LINE
  5
6C9
330
1F
100
AcDbEntity
  8
1
  6
CONTINUOUS
370
50
 62
4
100
AcDbLine
 10
55.777657
 20
-1.208804
 30
0.0
 11
55.633362
 21
-1.137708
 31
0.0
  0
LINE
  5
6CA
330
1F
100
AcDbEntity
  8
1
  6
CONTINUOUS
370
50
 62
4
100
AcDbLine
 10
52.31699
 20
1.141528
 30
0.0
 11
52.159367
 21
1.219062
 31
0.0
  0
LINE
  5
6CB
330
1F
100
AcDbEntity
  8
1
  6
CONTINUOUS
370
50
 62
4
100
AcDbLine
 10
52.79611999999999
 20
-1.236156
 30
0.0
 11
52.623886
 21
-1.151735
 31
0.0
  0
LINE
  5
6CC
330
1F
100
AcDbEntity
  8
1
  6
CONTINUOUS
370
50
 62
4
100
AcDbLine
 10
58.749786
 20
1.092036
 30
0.0
 11
58.57667199999999
 21
1.176286
 31
0.0
  0
LINE
  5
6CD
330
1F
100
AcDbEntity
  8
1
  6
CONTINUOUS
370
50
 62
4
100
AcDbLine
 10
58.413956
 20
1.096373
 30
0.0
 11
58.163338
 21
1.217444
 31
0.0
  0
LINE
  5
6CE
330
1F
100
AcDbEntity
  8
1
  6
CONTINUOUS
370
50
 62
4
100
AcDbLine
 10
58.77270499999999
 20
-1.202202
 30
0.0
 11
58.541737
 21
-1.091444
 31
0.0
  0
LINE
  5
6CF
330
1F
100
AcDbEntity
  8
1
  6
CONTINUOUS
370
50
 62
4
100
AcDbLine
 10
52.745678
 20
0.662566
 30
0.0
 11
52.497108
 21
0.780717
 31
0.0
  0
LINE
  5
6D0
330
1F
100
AcDbEntity
  8
1
  6
CONTINUOUS
370
50
 62
4
100
AcDbLine
 10
51.394493
 20
-1.471897
 30
0.0
 11
51.34795
 21
-1.449937
 31
0.0
  0
LINE
  5
6D1
330
1F
100
AcDbEntity
  8
1
  6
CONTINUOUS
370
50
 62
4
100
AcDbLine
 10
55.833733
 20
0.639031
 30
0.0
 11
55.601021
 21
0.7488239999999999
 31
0.0
  0
LINE
  5
6D2
330
1F
100
AcDbEntity
  8
1
  6
CONTINUOUS
370
50
 62
4
100
AcDbLine
 10
55.640297
 20
1.145588
 30
0.0
 11
55.44463
 21
1.237123
 31
0.0
  0
LINE
  5
6D3
330
1F
100
AcDbEntity
  8
1
  6
CONTINUOUS
370
50
 62
4
100
AcDbLine
 10
58.972054
 20
0.579876
 30
0.0
 11
58.72986599999999
 21
0.6931109999999999
 31
0.0
  0
LINE
  5
6D4
330
1F
100
AcDbEntity
  8
1
  6
CONTINUOUS
370
50
 62
4
100
AcDbLine
 10
51.963699
 20
1.403906
 30
0.0
 11
51.958302
 21
1.406384
 31
0.0
  0
LINE
  5
6D5
330
1F
100
AcDbEntity
  8
1
  6
CONTINUOUS
370
50
 62
4
100
AcDbLine
 10
56.23142199999999
 20
-1.281184
 30
0.0
 11
56.05721699999999
 21
-1.201385
 31
0.0
  0
LINE
  5
6D6
330
1F
100
AcDbEntity
  8
1
  6
CONTINUOUS
370
50
 62
4
100
AcDbLine
 10
55.920906
 20
-1.27441
 30
0.0
 11
55.777657
 21
-1.208804
 31
0.0
  0
LINE
  5
6D7
330
1F
100
AcDbEntity
  8
1
  6
CONTINUOUS
370
50
 62
4
100
AcDbLine
 10
55.317772
 20
1.147187
 30
0.0
 11
55.102097
 21
1.244346
 31
0.0
  0
LINE
  5
6D8
330
1F
100
AcDbEntity
  8
1
  6
CONTINUOUS
370
50
 62
4
100
AcDbLine
 10
56.26035299999999
 20
-0.14552
 30
0.0
 11
55.946262
 21
-0.004766
 31
0.0
  0
LINE
  5
6D9
330
1F
100
AcDbEntity
  8
1
  6
CONTINUOUS
370
50
 62
4
100
AcDbLine
 10
56.274292
 20
-0.151552
 30
0.0
 11
55.946278
 21
-0.004598
 31
0.0
  0
LINE
  5
6DA
330
1F
100
AcDbEntity
  8
1
  6
CONTINUOUS
370
50
 62
4
100
AcDbLine
 10
59.264278
 20
-1.278005
 30
0.0
 11
59.06711199999999
 21
-1.189725
 31
0.0
  0
LINE
  5
6DB
330
1F
100
AcDbEntity
  8
1
  6
CONTINUOUS
370
50
 62
4
100
AcDbLine
 10
53.287693
 20
-1.306053
 30
0.0
 11
52.84152599999999
 21
-1.106841
 31
0.0
  0
LINE
  5
6DC
330
1F
100
AcDbEntity
  8
1
  6
CONTINUOUS
370
50
 62
4
100
AcDbLine
 10
55.946278
 20
-0.004598
 30
0.0
 11
55.746738
 21
0.084454
 31
0.0
  0
LINE
  5
6DD
330
1F
100
AcDbEntity
  8
1
  6
CONTINUOUS
370
50
 62
4
100
AcDbLine
 10
52.785065
 20
0.049879
 30
0.0
 11
52.523502
 21
0.165957
 31
0.0
  0
LINE
  5
6DE
330
1F
100
AcDbEntity
  8
1
  6
CONTINUOUS
370
50
 62
4
100
AcDbLine
 10
51.969387
 20
1.4014
 30
0.0
 11
51.963699
 21
1.403906
 31
0.0
  0
LINE
  5
6DF
330
1F
100
AcDbEntity
  8
1
  6
CONTINUOUS
370
50
 62
4
100
AcDbLine
 10
59.559307
 20
-0.259271
 30
0.0
 11
59.310783
 21
-0.149961
 31
0.0
  0
LINE
  5
6E0
330
1F
100
AcDbEntity
  8
1
  6
CONTINUOUS
370
50
 62
4
100
AcDbLine
 10
59.565182
 20
-0.261116
 30
0.0
 11
59.329201
 21
-0.157556
 31
0.0
  0
LINE
  5
6E1
330
1F
100
AcDbEntity
  8
1
  6
CONTINUOUS
370
50
 62
4
100
AcDbLine
 10
58.57667199999999
 20
1.176286
 30
0.0
 11
58.403702
 21
1.252012
 31
0.0
  0
LINE
  5
6E2
330
1F
100
AcDbEntity
  8
1
  6
CONTINUOUS
370
50
 62
4
100
AcDbLine
 10
52.523502
 20
0.165957
 30
0.0
 11
52.261787
 21
0.279906
 31
0.0
  0
LINE
  5
6E3
330
1F
100
AcDbEntity
  8
1
  6
CONTINUOUS
370
50
 62
4
100
AcDbLine
 10
59.329201
 20
-0.157556
 30
0.0
 11
59.08046299999999
 21
-0.050805
 31
0.0
  0
LINE
  5
6E4
330
1F
100
AcDbEntity
  8
1
  6
CONTINUOUS
370
50
 62
4
100
AcDbLine
 10
59.310783
 20
-0.149961
 30
0.0
 11
59.06218699999999
 21
-0.043276
 31
0.0
  0
LINE
  5
6E5
330
1F
100
AcDbEntity
  8
1
  6
CONTINUOUS
370
50
 62
4
100
AcDbLine
 10
53.046577
 20
-0.061571
 30
0.0
 11
52.785065
 21
0.049879
 31
0.0
  0
LINE
  5
6E6
330
1F
100
AcDbEntity
  8
1
  6
CONTINUOUS
370
50
 62
4
100
AcDbLine
 10
52.159367
 20
1.219062
 30
0.0
 11
52.0
 21
1.286854
 31
0.0
  0
LINE
  5
6E7
330
1F
100
AcDbEntity
  8
1
  6
CONTINUOUS
370
50
 62
4
100
AcDbLine
 10
51.975307
 20
1.398883
 30
0.0
 11
51.969387
 21
1.4014
 31
0.0
  0
LINE
  5
6E8
330
1F
100
AcDbEntity
  8
1
  6
CONTINUOUS
370
50
 62
4
100
AcDbLine
 10
55.746738
 20
0.084454
 30
0.0
 11
55.547161
 21
0.169145
 31
0.0
  0
LINE
  5
6E9
330
1F
100
AcDbEntity
  8
1
  6
CONTINUOUS
370
50
 62
4
100
AcDbLine
 10
58.163338
 20
1.217444
 30
0.0
 11
57.929176
 21
1.316804
 31
0.0
  0
LINE
  5
6EA
330
1F
100
AcDbEntity
  8
1
  6
CONTINUOUS
370
50
 62
4
100
AcDbLine
 10
58.72986599999999
 20
0.6931109999999999
 30
0.0
 11
58.487663
 21
0.79499
 31
0.0
  0
LINE
  5
6EB
330
1F
100
AcDbEntity
  8
1
  6
CONTINUOUS
370
50
 62
4
100
AcDbLine
 10
52.404125
 20
1.245703
 30
0.0
 11
52.226685
 21
1.320166
 31
0.0
  0
LINE
  5
6EC
330
1F
100
AcDbEntity
  8
1
  6
CONTINUOUS
370
50
 62
4
100
AcDbLine
 10
52.497108
 20
0.780717
 30
0.0
 11
52.24854999999999
 21
0.884446
 31
0.0
  0
LINE
  5
6ED
330
1F
100
AcDbEntity
  8
1
  6
CONTINUOUS
370
50
 62
4
100
AcDbLine
 10
59.004257
 20
-1.298483
 30
0.0
 11
58.77270499999999
 21
-1.202202
 31
0.0
  0
LINE
  5
6EE
330
1F
100
AcDbEntity
  8
1
  6
CONTINUOUS
370
50
 62
4
100
AcDbLine
 10
59.06218699999999
 20
-0.043276
 30
0.0
 11
58.813637
 21
0.059929
 31
0.0
  0
LINE
  5
6EF
330
1F
100
AcDbEntity
  8
1
  6
CONTINUOUS
370
50
 62
4
100
AcDbLine
 10
59.08046299999999
 20
-0.050805
 30
0.0
 11
58.827118
 21
0.054366
 31
0.0
  0
LINE
  5
6F0
330
1F
100
AcDbEntity
  8
1
  6
CONTINUOUS
370
50
 62
4
100
AcDbLine
 10
59.80765899999999
 20
-0.361646
 30
0.0
 11
59.565182
 21
-0.261116
 31
0.0
  0
LINE
  5
6F1
330
1F
100
AcDbEntity
  8
1
  6
CONTINUOUS
370
50
 62
4
100
AcDbLine
 10
59.811096
 20
-0.363067
 30
0.0
 11
59.80765899999999
 21
-0.361646
 31
0.0
  0
LINE
  5
6F2
330
1F
100
AcDbEntity
  8
1
  6
CONTINUOUS
370
50
 62
4
100
AcDbLine
 10
51.981392
 20
1.39637
 30
0.0
 11
51.975307
 21
1.398883
 31
0.0
  0
LINE
  5
6F3
330
1F
100
AcDbEntity
  8
1
  6
CONTINUOUS
370
50
 62
4
100
AcDbLine
 10
59.80765899999999
 20
-0.361646
 30
0.0
 11
59.559307
 21
-0.259271
 31
0.0
  0
LINE
  5
6F4
330
1F
100
AcDbEntity
  8
1
  6
CONTINUOUS
370
50
 62
4
100
AcDbLine
 10
59.81453699999999
 20
-0.364483
 30
0.0
 11
59.811096
 21
-0.363067
 31
0.0
  0
LINE
  5
6F5
330
1F
100
AcDbEntity
  8
1
  6
CONTINUOUS
370
50
 62
4
100
AcDbLine
 10
59.817974
 20
-0.365897
 30
0.0
 11
59.81453699999999
 21
-0.364483
 31
0.0
  0
LINE
  5
6F6
330
1F
100
AcDbEntity
  8
1
  6
CONTINUOUS
370
50
 62
4
100
AcDbLine
 10
52.983475
 20
-1.312983
 30
0.0
 11
52.79611999999999
 21
-1.236156
 31
0.0
  0
LINE
  5
6F7
330
1F
100
AcDbEntity
  8
1
  6
CONTINUOUS
370
50
 62
4
100
AcDbLine
 10
59.821411
 20
-0.367306
 30
0.0
 11
59.817974
 21
-0.365897
 31
0.0
  0
LINE
  5
6F8
330
1F
100
AcDbEntity
  8
1
  6
CONTINUOUS
370
50
 62
4
100
AcDbLine
 10
53.308151
 20
-0.168754
 30
0.0
 11
53.046577
 21
-0.061571
 31
0.0
  0
LINE
  5
6F9
330
1F
100
AcDbEntity
  8
1
  6
CONTINUOUS
370
50
 62
4
100
AcDbLine
 10
56.069244
 20
-1.335176
 30
0.0
 11
55.920906
 21
-1.27441
 31
0.0
  0
LINE
  5
6FA
330
1F
100
AcDbEntity
  8
1
  6
CONTINUOUS
370
50
 62
4
100
AcDbLine
 10
56.596886
 20
-0.28336
 30
0.0
 11
56.26035299999999
 21
-0.14552
 31
0.0
  0
LINE
  5
6FB
330
1F
100
AcDbEntity
  8
1
  6
CONTINUOUS
370
50
 62
4
100
AcDbLine
 10
59.824848
 20
-0.368713
 30
0.0
 11
59.821411
 21
-0.367306
 31
0.0
  0
LINE
  5
6FC
330
1F
100
AcDbEntity
  8
1
  6
CONTINUOUS
370
50
 62
4
100
AcDbLine
 10
56.602234
 20
-0.285683
 30
0.0
 11
56.274292
 21
-0.151552
 31
0.0
  0
LINE
  5
6FD
330
1F
100
AcDbEntity
  8
1
  6
CONTINUOUS
370
50
 62
4
100
AcDbLine
 10
52.532009
 20
1.199312
 30
0.0
 11
52.46817
 21
1.225386
 31
0.0
  0
LINE
  5
6FE
330
1F
100
AcDbEntity
  8
1
  6
CONTINUOUS
370
50
 62
4
100
AcDbLine
 10
59.82828499999999
 20
-0.370115
 30
0.0
 11
59.824848
 21
-0.368713
 31
0.0
  0
LINE
  5
6FF
330
1F
100
AcDbEntity
  8
1
  6
CONTINUOUS
370
50
 62
4
100
AcDbLine
 10
55.601021
 20
0.7488239999999999
 30
0.0
 11
55.368305
 21
0.843737
 31
0.0
  0
LINE
  5
700
330
1F
100
AcDbEntity
  8
1
  6
CONTINUOUS
370
50
 62
4
100
AcDbLine
 10
52.551033
 20
1.191585
 30
0.0
 11
52.532009
 21
1.199312
 31
0.0
  0
LINE
  5
701
330
1F
100
AcDbEntity
  8
1
  6
CONTINUOUS
370
50
 62
4
100
AcDbLine
 10
58.827118
 20
0.054366
 30
0.0
 11
58.571045
 21
0.157968
 31
0.0
  0
LINE
  5
702
330
1F
100
AcDbEntity
  8
1
  6
CONTINUOUS
370
50
 62
4
100
AcDbLine
 10
58.813637
 20
0.059929
 30
0.0
 11
58.565166
 21
0.160366
 31
0.0
  0
LINE
  5
703
330
1F
100
AcDbEntity
  8
1
  6
CONTINUOUS
370
50
 62
4
100
AcDbLine
 10
51.987579
 20
1.393874
 30
0.0
 11
51.981392
 21
1.39637
 31
0.0
  0
LINE
  5
704
330
1F
100
AcDbEntity
  8
1
  6
CONTINUOUS
370
50
 62
4
100
AcDbLine
 10
52.46817
 20
1.225386
 30
0.0
 11
52.40413299999999
 21
1.251179
 31
0.0
  0
LINE
  5
705
330
1F
100
AcDbEntity
  8
1
  6
CONTINUOUS
370
50
 62
4
100
AcDbLine
 10
55.547161
 20
0.169145
 30
0.0
 11
55.347607
 21
0.249493
 31
0.0
  0
LINE
  5
706
330
1F
100
AcDbEntity
  8
1
  6
CONTINUOUS
370
50
 62
4
100
AcDbLine
 10
52.619591
 20
1.164035
 30
0.0
 11
52.551033
 21
1.191585
 31
0.0
  0
LINE
  5
707
330
1F
100
AcDbEntity
  8
1
  6
CONTINUOUS
370
50
 62
4
100
AcDbLine
 10
59.475437
 20
-0.079765
 30
0.0
 11
59.41810599999999
 21
-0.05683
 31
0.0
  0
LINE
  5
708
330
1F
100
AcDbEntity
  8
1
  6
CONTINUOUS
370
50
 62
4
100
AcDbLine
 10
56.005653
 20
1.028854
 30
0.0
 11
55.942284
 21
1.05411
 31
0.0
  0
LINE
  5
709
330
1F
100
AcDbEntity
  8
1
  6
CONTINUOUS
370
50
 62
4
100
AcDbLine
 10
59.421036
 20
-1.340376
 30
0.0
 11
59.264278
 21
-1.278005
 31
0.0
  0
LINE
  5
70A
330
1F
100
AcDbEntity
  8
1
  6
CONTINUOUS
370
50
 62
4
100
AcDbLine
 10
58.571045
 20
0.157968
 30
0.0
 11
58.316803
 21
0.258957
 31
0.0
  0
LINE
  5
70B
330
1F
100
AcDbEntity
  8
1
  6
CONTINUOUS
370
50
 62
4
100
AcDbLine
 10
58.07788499999999
 20
0.352261
 30
0.0
 11
58.038429
 21
0.367932
 31
0.0
  0
LINE
  5
70C
330
1F
100
AcDbEntity
  8
1
  6
CONTINUOUS
370
50
 62
4
100
AcDbLine
 10
58.565166
 20
0.160366
 30
0.0
 11
58.316803
 21
0.258957
 31
0.0
  0
LINE
  5
70D
330
1F
100
AcDbEntity
  8
1
  6
CONTINUOUS
370
50
 62
4
100
AcDbLine
 10
59.532864
 20
-0.1025
 30
0.0
 11
59.475437
 21
-0.079765
 31
0.0
  0
LINE
  5
70E
330
1F
100
AcDbEntity
  8
1
  6
CONTINUOUS
370
50
 62
4
100
AcDbLine
 10
58.117393
 20
0.336626
 30
0.0
 11
58.07788499999999
 21
0.352261
 31
0.0
  0
LINE
  5
70F
330
1F
100
AcDbEntity
  8
1
  6
CONTINUOUS
370
50
 62
4
100
AcDbLine
 10
51.993801
 20
1.391413
 30
0.0
 11
51.987579
 21
1.393874
 31
0.0
  0
LINE
  5
710
330
1F
100
AcDbEntity
  8
1
  6
CONTINUOUS
370
50
 62
4
100
AcDbLine
 10
52.40413299999999
 20
1.251179
 30
0.0
 11
52.339893
 21
1.276577
 31
0.0
  0
LINE
  5
711
330
1F
100
AcDbEntity
  8
1
  6
CONTINUOUS
370
50
 62
4
100
AcDbLine
 10
53.569824
 20
-0.272206
 30
0.0
 11
53.308151
 21
-0.168754
 31
0.0
  0
LINE
  5
712
330
1F
100
AcDbEntity
  8
1
  6
CONTINUOUS
370
50
 62
4
100
AcDbLine
 10
55.942284
 20
1.05411
 30
0.0
 11
55.87875
 21
1.079199
 31
0.0
  0
LINE
  5
713
330
1F
100
AcDbEntity
  8
1
  6
CONTINUOUS
370
50
 62
4
100
AcDbLine
 10
52.688362
 20
1.136879
 30
0.0
 11
52.619591
 21
1.164035
 31
0.0
  0
LINE
  5
714
330
1F
100
AcDbEntity
  8
1
  6
CONTINUOUS
370
50
 62
4
100
AcDbLine
 10
56.068977
 20
1.003875
 30
0.0
 11
56.005653
 21
1.028854
 31
0.0
  0
LINE
  5
715
330
1F
100
AcDbEntity
  8
1
  6
CONTINUOUS
370
50
 62
4
100
AcDbLine
 10
58.157047
 20
0.321005
 30
0.0
 11
58.117393
 21
0.336626
 31
0.0
  0
LINE
  5
716
330
1F
100
AcDbEntity
  8
1
  6
CONTINUOUS
370
50
 62
4
100
AcDbLine
 10
55.44463
 20
1.237123
 30
0.0
 11
55.234131
 21
1.319948
 31
0.0
  0
LINE
  5
717
330
1F
100
AcDbEntity
  8
1
  6
CONTINUOUS
370
50
 62
4
100
AcDbLine
 10
55.87875
 20
1.079199
 30
0.0
 11
55.856991
 21
1.087734
 31
0.0
  0
LINE
  5
718
330
1F
100
AcDbEntity
  8
1
  6
CONTINUOUS
370
50
 62
4
100
AcDbLine
 10
52.261787
 20
0.279906
 30
0.0
 11
52.000004
 21
0.38252
 31
0.0
  0
LINE
  5
719
330
1F
100
AcDbEntity
  8
1
  6
CONTINUOUS
370
50
 62
4
100
AcDbLine
 10
58.19688799999999
 20
0.305396
 30
0.0
 11
58.157047
 21
0.321005
 31
0.0
  0
LINE
  5
71A
330
1F
100
AcDbEntity
  8
1
  6
CONTINUOUS
370
50
 62
4
100
AcDbLine
 10
59.59048499999999
 20
-0.125073
 30
0.0
 11
59.532864
 21
-0.1025
 31
0.0
  0
LINE
  5
71B
330
1F
100
AcDbEntity
  8
1
  6
CONTINUOUS
370
50
 62
4
100
AcDbLine
 10
58.236771
 20
0.28986
 30
0.0
 11
58.19688799999999
 21
0.305396
 31
0.0
  0
LINE
  5
71C
330
1F
100
AcDbEntity
  8
1
  6
CONTINUOUS
370
50
 62
4
100
AcDbLine
 10
58.403702
 20
1.252012
 30
0.0
 11
58.230946
 21
1.319282
 31
0.0
  0
LINE
  5
71D
330
1F
100
AcDbEntity
  8
1
  6
CONTINUOUS
370
50
 62
4
100
AcDbLine
 10
55.856991
 20
1.087734
 30
0.0
 11
55.788353
 21
1.114461
 31
0.0
  0
LINE
  5
71E
330
1F
100
AcDbEntity
  8
1
  6
CONTINUOUS
370
50
 62
4
100
AcDbLine
 10
52.0
 20
1.389001
 30
0.0
 11
51.993801
 21
1.391413
 31
0.0
  0
LINE
  5
71F
330
1F
100
AcDbEntity
  8
1
  6
CONTINUOUS
370
50
 62
4
100
AcDbLine
 10
58.038429
 20
0.367932
 30
0.0
 11
57.89315
 21
0.424339
 31
0.0
  0
LINE
  5
720
330
1F
100
AcDbEntity
  8
1
  6
CONTINUOUS
370
50
 62
4
100
AcDbLine
 10
52.339893
 20
1.276577
 30
0.0
 11
52.27546299999999
 21
1.30157
 31
0.0
  0
LINE
  5
721
330
1F
100
AcDbEntity
  8
1
  6
CONTINUOUS
370
50
 62
4
100
AcDbLine
 10
52.757332
 20
1.110135
 30
0.0
 11
52.688362
 21
1.136879
 31
0.0
  0
LINE
  5
722
330
1F
100
AcDbEntity
  8
1
  6
CONTINUOUS
370
50
 62
4
100
AcDbLine
 10
59.648331
 20
-0.147494
 30
0.0
 11
59.59048499999999
 21
-0.125073
 31
0.0
  0
LINE
  5
723
330
1F
100
AcDbEntity
  8
1
  6
CONTINUOUS
370
50
 62
4
100
AcDbLine
 10
58.27673
 20
0.274387
 30
0.0
 11
58.236771
 21
0.28986
 31
0.0
  0
LINE
  5
724
330
1F
100
AcDbEntity
  8
1
  6
CONTINUOUS
370
50
 62
4
100
AcDbLine
 10
58.316803
 20
0.258957
 30
0.0
 11
58.27673
 21
0.274387
 31
0.0
  0
LINE
  5
725
330
1F
100
AcDbEntity
  8
1
  6
CONTINUOUS
370
50
 62
4
100
AcDbLine
 10
55.788353
 20
1.114461
 30
0.0
 11
55.71954299999999
 21
1.140952
 31
0.0
  0
LINE
  5
726
330
1F
100
AcDbEntity
  8
1
  6
CONTINUOUS
370
50
 62
4
100
AcDbLine
 10
56.132526
 20
0.9794219999999999
 30
0.0
 11
56.068977
 21
1.003875
 31
0.0
  0
LINE
  5
727
330
1F
100
AcDbEntity
  8
1
  6
CONTINUOUS
370
50
 62
4
100
AcDbLine
 10
55.102097
 20
1.244346
 30
0.0
 11
54.88556699999999
 21
1.32754
 31
0.0
  0
LINE
  5
728
330
1F
100
AcDbEntity
  8
1
  6
CONTINUOUS
370
50
 62
4
100
AcDbLine
 10
53.831577
 20
-0.372598
 30
0.0
 11
53.569824
 21
-0.272206
 31
0.0
  0
LINE
  5
729
330
1F
100
AcDbEntity
  8
1
  6
CONTINUOUS
370
50
 62
4
100
AcDbLine
 10
59.706253
 20
-0.169704
 30
0.0
 11
59.648331
 21
-0.147494
 31
0.0
  0
LINE
  5
72A
330
1F
100
AcDbEntity
  8
1
  6
CONTINUOUS
370
50
 62
4
100
AcDbLine
 10
55.347607
 20
0.249493
 30
0.0
 11
55.148098
 21
0.325944
 31
0.0
  0
LINE
  5
72B
330
1F
100
AcDbEntity
  8
1
  6
CONTINUOUS
370
50
 62
4
100
AcDbLine
 10
57.89315
 20
0.424339
 30
0.0
 11
57.747833
 21
0.479945
 31
0.0
  0
LINE
  5
72C
330
1F
100
AcDbEntity
  8
1
  6
CONTINUOUS
370
50
 62
4
100
AcDbLine
 10
52.27546299999999
 20
1.30157
 30
0.0
 11
52.226685
 21
1.320173
 31
0.0
  0
LINE
  5
72D
330
1F
100
AcDbEntity
  8
1
  6
CONTINUOUS
370
50
 62
4
100
AcDbLine
 10
55.71954299999999
 20
1.140952
 30
0.0
 11
55.650551
 21
1.167209
 31
0.0
  0
LINE
  5
72E
330
1F
100
AcDbEntity
  8
1
  6
CONTINUOUS
370
50
 62
4
100
AcDbLine
 10
52.826511
 20
1.083811
 30
0.0
 11
52.757332
 21
1.110135
 31
0.0
  0
LINE
  5
72F
330
1F
100
AcDbEntity
  8
1
  6
CONTINUOUS
370
50
 62
4
100
AcDbLine
 10
59.764229
 20
-0.191696
 30
0.0
 11
59.706253
 21
-0.169704
 31
0.0
  0
LINE
  5
730
330
1F
100
AcDbEntity
  8
1
  6
CONTINUOUS
370
50
 62
4
100
AcDbLine
 10
58.487663
 20
0.79499
 30
0.0
 11
58.245453
 21
0.886709
 31
0.0
  0
LINE
  5
731
330
1F
100
AcDbEntity
  8
1
  6
CONTINUOUS
370
50
 62
4
100
AcDbLine
 10
56.40829799999999
 20
-1.348081
 30
0.0
 11
56.23142199999999
 21
-1.281184
 31
0.0
  0
LINE
  5
732
330
1F
100
AcDbEntity
  8
1
  6
CONTINUOUS
370
50
 62
4
100
AcDbLine
 10
55.650551
 20
1.167209
 30
0.0
 11
55.581387
 21
1.193228
 31
0.0
  0
LINE
  5
733
330
1F
100
AcDbEntity
  8
1
  6
CONTINUOUS
370
50
 62
4
100
AcDbLine
 10
52.842384
 20
1.07784
 30
0.0
 11
52.826511
 21
1.083811
 31
0.0
  0
LINE
  5
734
330
1F
100
AcDbEntity
  8
1
  6
CONTINUOUS
370
50
 62
4
100
AcDbLine
 10
56.182838
 20
0.960502
 30
0.0
 11
56.132526
 21
0.9794219999999999
 31
0.0
  0
LINE
  5
735
330
1F
100
AcDbEntity
  8
1
  6
CONTINUOUS
370
50
 62
4
100
AcDbLine
 10
59.822235
 20
-0.213461
 30
0.0
 11
59.764229
 21
-0.191696
 31
0.0
  0
LINE
  5
736
330
1F
100
AcDbEntity
  8
1
  6
CONTINUOUS
370
50
 62
4
100
AcDbLine
 10
55.581387
 20
1.193228
 30
0.0
 11
55.562744
 21
1.200191
 31
0.0
  0
LINE
  5
737
330
1F
100
AcDbEntity
  8
1
  6
CONTINUOUS
370
50
 62
4
100
AcDbLine
 10
56.930271
 20
-0.408034
 30
0.0
 11
56.602234
 21
-0.285683
 31
0.0
  0
LINE
  5
738
330
1F
100
AcDbEntity
  8
1
  6
CONTINUOUS
370
50
 62
4
100
AcDbLine
 10
54.093353
 20
-0.470042
 30
0.0
 11
53.831577
 21
-0.372598
 31
0.0
  0
LINE
  5
739
330
1F
100
AcDbEntity
  8
1
  6
CONTINUOUS
370
50
 62
4
100
AcDbLine
 10
52.907093
 20
1.053773
 30
0.0
 11
52.842384
 21
1.07784
 31
0.0
  0
LINE
  5
73A
330
1F
100
AcDbEntity
  8
1
  6
CONTINUOUS
370
50
 62
4
100
AcDbLine
 10
56.937542
 20
-0.409848
 30
0.0
 11
56.596886
 21
-0.28336
 31
0.0
  0
LINE
  5
73B
330
1F
100
AcDbEntity
  8
1
  6
CONTINUOUS
370
50
 62
4
100
AcDbLine
 10
55.562744
 20
1.200191
 30
0.0
 11
55.49865
 21
1.223971
 31
0.0
  0
LINE
  5
73C
330
1F
100
AcDbEntity
  8
1
  6
CONTINUOUS
370
50
 62
4
100
AcDbLine
 10
52.226685
 20
1.320166
 30
0.0
 11
52.189144
 21
1.334063
 31
0.0
  0
LINE
  5
73D
330
1F
100
AcDbEntity
  8
1
  6
CONTINUOUS
370
50
 62
4
100
AcDbLine
 10
56.238934
 20
0.939863
 30
0.0
 11
56.182838
 21
0.960502
 31
0.0
  0
LINE
  5
73E
330
1F
100
AcDbEntity
  8
1
  6
CONTINUOUS
370
50
 62
4
100
AcDbLine
 10
55.49865
 20
1.223971
 30
0.0
 11
55.434452
 21
1.247549
 31
0.0
  0
LINE
  5
73F
330
1F
100
AcDbEntity
  8
1
  6
CONTINUOUS
370
50
 62
4
100
AcDbLine
 10
59.48321199999999
 20
0.866378
 30
0.0
 11
59.438606
 21
0.882744
 31
0.0
  0
LINE
  5
740
330
1F
100
AcDbEntity
  8
1
  6
CONTINUOUS
370
50
 62
4
100
AcDbLine
 10
59.438606
 20
0.882744
 30
0.0
 11
59.384449
 21
0.902596
 31
0.0
  0
LINE
  5
741
330
1F
100
AcDbEntity
  8
1
  6
CONTINUOUS
370
50
 62
4
100
AcDbLine
 10
55.148098
 20
0.325944
 30
0.0
 11
54.94865
 21
0.398996
 31
0.0
  0
LINE
  5
742
330
1F
100
AcDbEntity
  8
1
  6
CONTINUOUS
370
50
 62
4
100
AcDbLine
 10
59.384449
 20
0.902596
 30
0.0
 11
59.330147
 21
0.922473
 31
0.0
  0
LINE
  5
743
330
1F
100
AcDbEntity
  8
1
  6
CONTINUOUS
370
50
 62
4
100
AcDbLine
 10
59.52781299999999
 20
0.8500829999999999
 30
0.0
 11
59.48321199999999
 21
0.866378
 31
0.0
  0
LINE
  5
744
330
1F
100
AcDbEntity
  8
1
  6
CONTINUOUS
370
50
 62
4
100
AcDbLine
 10
52.971928
 20
1.030086
 30
0.0
 11
52.907093
 21
1.053773
 31
0.0
  0
LINE
  5
745
330
1F
100
AcDbEntity
  8
1
  6
CONTINUOUS
370
50
 62
4
100
AcDbLine
 10
59.330147
 20
0.922473
 30
0.0
 11
59.275703
 21
0.942361
 31
0.0
  0
LINE
  5
746
330
1F
100
AcDbEntity
  8
1
  6
CONTINUOUS
370
50
 62
4
100
AcDbLine
 10
59.275703
 20
0.942361
 30
0.0
 11
59.221127
 21
0.962251
 31
0.0
  0
LINE
  5
747
330
1F
100
AcDbEntity
  8
1
  6
CONTINUOUS
370
50
 62
4
100
AcDbLine
 10
58.283604
 20
1.300057
 30
0.0
 11
58.230942
 21
1.319231
 31
0.0
  0
LINE
  5
748
330
1F
100
AcDbEntity
  8
1
  6
CONTINUOUS
370
50
 62
4
100
AcDbLine
 10
55.434452
 20
1.247549
 30
0.0
 11
55.370144
 21
1.270941
 31
0.0
  0
LINE
  5
749
330
1F
100
AcDbEntity
  8
1
  6
CONTINUOUS
370
50
 62
4
100
AcDbLine
 10
59.221127
 20
0.962251
 30
0.0
 11
59.162926
 21
0.9834069999999999
 31
0.0
  0
LINE
  5
74A
330
1F
100
AcDbEntity
  8
1
  6
CONTINUOUS
370
50
 62
4
100
AcDbLine
 10
58.336262
 20
1.280941
 30
0.0
 11
58.283604
 21
1.300057
 31
0.0
  0
LINE
  5
74B
330
1F
100
AcDbEntity
  8
1
  6
CONTINUOUS
370
50
 62
4
100
AcDbLine
 10
59.162926
 20
0.9834069999999999
 30
0.0
 11
59.094212
 21
1.008311
 31
0.0
  0
LINE
  5
74C
330
1F
100
AcDbEntity
  8
1
  6
CONTINUOUS
370
50
 62
4
100
AcDbLine
 10
58.392796
 20
1.260478
 30
0.0
 11
58.336262
 21
1.280941
 31
0.0
  0
LINE
  5
74D
330
1F
100
AcDbEntity
  8
1
  6
CONTINUOUS
370
50
 62
4
100
AcDbLine
 10
57.747833
 20
0.479945
 30
0.0
 11
57.602463
 21
0.532502
 31
0.0
  0
LINE
  5
74E
330
1F
100
AcDbEntity
  8
1
  6
CONTINUOUS
370
50
 62
4
100
AcDbLine
 10
59.094212
 20
1.008311
 30
0.0
 11
59.025349
 21
1.03319
 31
0.0
  0
LINE
  5
74F
330
1F
100
AcDbEntity
  8
1
  6
CONTINUOUS
370
50
 62
4
100
AcDbLine
 10
58.449329
 20
1.240069
 30
0.0
 11
58.392796
 21
1.260478
 31
0.0
  0
LINE
  5
750
330
1F
100
AcDbEntity
  8
1
  6
CONTINUOUS
370
50
 62
4
100
AcDbLine
 10
55.370144
 20
1.270941
 30
0.0
 11
55.305836
 21
1.294118
 31
0.0
  0
LINE
  5
751
330
1F
100
AcDbEntity
  8
1
  6
CONTINUOUS
370
50
 62
4
100
AcDbLine
 10
59.025349
 20
1.03319
 30
0.0
 11
58.95636
 21
1.058046
 31
0.0
  0
LINE
  5
752
330
1F
100
AcDbEntity
  8
1
  6
CONTINUOUS
370
50
 62
4
100
AcDbLine
 10
58.505951
 20
1.219679
 30
0.0
 11
58.449329
 21
1.240069
 31
0.0
  0
LINE
  5
753
330
1F
100
AcDbEntity
  8
1
  6
CONTINUOUS
370
50
 62
4
100
AcDbLine
 10
58.95636
 20
1.058046
 30
0.0
 11
58.88728
 21
1.082878
 31
0.0
  0
LINE
  5
754
330
1F
100
AcDbEntity
  8
1
  6
CONTINUOUS
370
50
 62
4
100
AcDbLine
 10
58.562569
 20
1.199327
 30
0.0
 11
58.505951
 21
1.219679
 31
0.0
  0
LINE
  5
755
330
1F
100
AcDbEntity
  8
1
  6
CONTINUOUS
370
50
 62
4
100
AcDbLine
 10
56.29515499999999
 20
0.919658
 30
0.0
 11
56.238934
 21
0.939863
 31
0.0
  0
LINE
  5
756
330
1F
100
AcDbEntity
  8
1
  6
CONTINUOUS
370
50
 62
4
100
AcDbLine
 10
58.611736
 20
1.18168
 30
0.0
 11
58.562569
 21
1.199327
 31
0.0
  0
LINE
  5
757
330
1F
100
AcDbEntity
  8
1
  6
CONTINUOUS
370
50
 62
4
100
AcDbLine
 10
58.88728
 20
1.082878
 30
0.0
 11
58.818428
 21
1.107586
 31
0.0
  0
LINE
  5
758
330
1F
100
AcDbEntity
  8
1
  6
CONTINUOUS
370
50
 62
4
100
AcDbLine
 10
53.03688
 20
1.006778
 30
0.0
 11
52.971928
 21
1.030086
 31
0.0
  0
LINE
  5
759
330
1F
100
AcDbEntity
  8
1
  6
CONTINUOUS
370
50
 62
4
100
AcDbLine
 10
58.680656
 20
1.156968
 30
0.0
 11
58.611736
 21
1.18168
 31
0.0
  0
LINE
  5
75A
330
1F
100
AcDbEntity
  8
1
  6
CONTINUOUS
370
50
 62
4
100
AcDbLine
 10
58.818428
 20
1.107586
 30
0.0
 11
58.74957999999999
 21
1.132266
 31
0.0
  0
LINE
  5
75B
330
1F
100
AcDbEntity
  8
1
  6
CONTINUOUS
370
50
 62
4
100
AcDbLine
 10
58.74957999999999
 20
1.132266
 30
0.0
 11
58.680656
 21
1.156968
 31
0.0
  0
LINE
  5
75C
330
1F
100
AcDbEntity
  8
1
  6
CONTINUOUS
370
50
 62
4
100
AcDbLine
 10
59.574253
 20
0.833498
 30
0.0
 11
59.52781299999999
 21
0.8500829999999999
 31
0.0
  0
LINE
  5
75D
330
1F
100
AcDbEntity
  8
1
  6
CONTINUOUS
370
50
 62
4
100
AcDbLine
 10
55.305836
 20
1.294118
 30
0.0
 11
55.234119
 21
1.319727
 31
0.0
  0
LINE
  5
75E
330
1F
100
AcDbEntity
  8
1
  6
CONTINUOUS
370
50
 62
4
100
AcDbLine
 10
57.929176
 20
1.316804
 30
0.0
 11
57.72460899999999
 21
1.389438
 31
0.0
  0
LINE
  5
75F
330
1F
100
AcDbEntity
  8
1
  6
CONTINUOUS
370
50
 62
4
100
AcDbLine
 10
52.189144
 20
1.334063
 30
0.0
 11
52.151497
 21
1.347373
 31
0.0
  0
LINE
  5
760
330
1F
100
AcDbEntity
  8
1
  6
CONTINUOUS
370
50
 62
4
100
AcDbLine
 10
53.10192499999999
 20
0.9838429999999999
 30
0.0
 11
53.03688
 21
1.006778
 31
0.0
  0
LINE
  5
761
330
1F
100
AcDbEntity
  8
1
  6
CONTINUOUS
370
50
 62
4
100
AcDbLine
 10
54.355019
 20
-0.5619879999999999
 30
0.0
 11
54.093353
 21
-0.470042
 31
0.0
  0
LINE
  5
762
330
1F
100
AcDbEntity
  8
1
  6
CONTINUOUS
370
50
 62
4
100
AcDbLine
 10
59.536419
 20
-1.380911
 30
0.0
 11
59.421036
 21
-1.340376
 31
0.0
  0
LINE
  5
763
330
1F
100
AcDbEntity
  8
1
  6
CONTINUOUS
370
50
 62
4
100
AcDbLine
 10
56.35149
 20
0.899886
 30
0.0
 11
56.29515499999999
 21
0.919658
 31
0.0
  0
LINE
  5
764
330
1F
100
AcDbEntity
  8
1
  6
CONTINUOUS
370
50
 62
4
100
AcDbLine
 10
54.94865
 20
0.398996
 30
0.0
 11
54.749252
 21
0.468977
 31
0.0
  0
LINE
  5
765
330
1F
100
AcDbEntity
  8
1
  6
CONTINUOUS
370
50
 62
4
100
AcDbLine
 10
55.368305
 20
0.843737
 30
0.0
 11
55.135586
 21
0.925076
 31
0.0
  0
LINE
  5
766
330
1F
100
AcDbEntity
  8
1
  6
CONTINUOUS
370
50
 62
4
100
AcDbLine
 10
59.233166
 20
-1.378429
 30
0.0
 11
59.004257
 21
-1.298483
 31
0.0
  0
LINE
  5
767
330
1F
100
AcDbEntity
  8
1
  6
CONTINUOUS
370
50
 62
4
100
AcDbLine
 10
59.62078899999999
 20
0.8173009999999999
 30
0.0
 11
59.574253
 21
0.833498
 31
0.0
  0
LINE
  5
768
330
1F
100
AcDbEntity
  8
1
  6
CONTINUOUS
370
50
 62
4
100
AcDbLine
 10
53.168747
 20
0.960692
 30
0.0
 11
53.10192499999999
 21
0.9838429999999999
 31
0.0
  0
LINE
  5
769
330
1F
100
AcDbEntity
  8
1
  6
CONTINUOUS
370
50
 62
4
100
AcDbLine
 10
56.407932
 20
0.8805459999999999
 30
0.0
 11
56.35149
 21
0.899886
 31
0.0
  0
LINE
  5
76A
330
1F
100
AcDbEntity
  8
1
  6
CONTINUOUS
370
50
 62
4
100
AcDbLine
 10
57.25846499999999
 20
-0.520339
 30
0.0
 11
56.930271
 21
-0.408034
 31
0.0
  0
LINE
  5
76B
330
1F
100
AcDbEntity
  8
1
  6
CONTINUOUS
370
50
 62
4
100
AcDbLine
 10
56.228775
 20
-1.389622
 30
0.0
 11
56.069244
 21
-1.335176
 31
0.0
  0
LINE
  5
76C
330
1F
100
AcDbEntity
  8
1
  6
CONTINUOUS
370
50
 62
4
100
AcDbLine
 10
53.220901
 20
0.9429019999999999
 30
0.0
 11
53.168747
 21
0.960692
 31
0.0
  0
LINE
  5
76D
330
1F
100
AcDbEntity
  8
1
  6
CONTINUOUS
370
50
 62
4
100
AcDbLine
 10
54.749252
 20
0.468977
 30
0.0
 11
54.730209
 21
0.47547
 31
0.0
  0
LINE
  5
76E
330
1F
100
AcDbEntity
  8
1
  6
CONTINUOUS
370
50
 62
4
100
AcDbLine
 10
58.230946
 20
1.319282
 30
0.0
 11
58.072426
 21
1.373304
 31
0.0
  0
LINE
  5
76F
330
1F
100
AcDbEntity
  8
1
  6
CONTINUOUS
370
50
 62
4
100
AcDbLine
 10
54.730209
 20
0.47547
 30
0.0
 11
54.711208
 21
0.48194
 31
0.0
  0
LINE
  5
770
330
1F
100
AcDbEntity
  8
1
  6
CONTINUOUS
370
50
 62
4
100
AcDbLine
 10
54.711208
 20
0.48194
 30
0.0
 11
54.692242
 21
0.488386
 31
0.0
  0
LINE
  5
771
330
1F
100
AcDbEntity
  8
1
  6
CONTINUOUS
370
50
 62
4
100
AcDbLine
 10
54.692242
 20
0.488386
 30
0.0
 11
54.673298
 21
0.494811
 31
0.0
  0
LINE
  5
772
330
1F
100
AcDbEntity
  8
1
  6
CONTINUOUS
370
50
 62
4
100
AcDbLine
 10
59.667419
 20
0.8014939999999999
 30
0.0
 11
59.62078899999999
 21
0.8173009999999999
 31
0.0
  0
LINE
  5
773
330
1F
100
AcDbEntity
  8
1
  6
CONTINUOUS
370
50
 62
4
100
AcDbLine
 10
54.673298
 20
0.494811
 30
0.0
 11
54.654373
 21
0.501217
 31
0.0
  0
LINE
  5
774
330
1F
100
AcDbEntity
  8
1
  6
CONTINUOUS
370
50
 62
4
100
AcDbLine
 10
57.2728
 20
-0.523234
 30
0.0
 11
56.937542
 21
-0.409848
 31
0.0
  0
LINE
  5
775
330
1F
100
AcDbEntity
  8
1
  6
CONTINUOUS
370
50
 62
4
100
AcDbLine
 10
54.654373
 20
0.501217
 30
0.0
 11
54.63545999999999
 21
0.507603
 31
0.0
  0
LINE
  5
776
330
1F
100
AcDbEntity
  8
1
  6
CONTINUOUS
370
50
 62
4
100
AcDbLine
 10
52.151497
 20
1.347373
 30
0.0
 11
52.113754
 21
1.3601
 31
0.0
  0
LINE
  5
777
330
1F
100
AcDbEntity
  8
1
  6
CONTINUOUS
370
50
 62
4
100
AcDbLine
 10
54.63545999999999
 20
0.507603
 30
0.0
 11
54.616547
 21
0.513973
 31
0.0
  0
LINE
  5
778
330
1F
100
AcDbEntity
  8
1
  6
CONTINUOUS
370
50
 62
4
100
AcDbLine
 10
53.273056
 20
0.925345
 30
0.0
 11
53.220901
 21
0.9429019999999999
 31
0.0
  0
LINE
  5
779
330
1F
100
AcDbEntity
  8
1
  6
CONTINUOUS
370
50
 62
4
100
AcDbLine
 10
52.24854999999999
 20
0.884446
 30
0.0
 11
52.0
 21
0.967827
 31
0.0
  0
LINE
  5
77A
330
1F
100
AcDbEntity
  8
1
  6
CONTINUOUS
370
50
 62
4
100
AcDbLine
 10
56.45497899999999
 20
0.864776
 30
0.0
 11
56.407932
 21
0.8805459999999999
 31
0.0
  0
LINE
  5
77B
330
1F
100
AcDbEntity
  8
1
  6
CONTINUOUS
370
50
 62
4
100
AcDbLine
 10
53.174229
 20
-1.376826
 30
0.0
 11
52.983475
 21
-1.312983
 31
0.0
  0
LINE
  5
77C
330
1F
100
AcDbEntity
  8
1
  6
CONTINUOUS
370
50
 62
4
100
AcDbLine
 10
58.245453
 20
0.886709
 30
0.0
 11
58.003239
 21
0.9676199999999999
 31
0.0
  0
LINE
  5
77D
330
1F
100
AcDbEntity
  8
1
  6
CONTINUOUS
370
50
 62
4
100
AcDbLine
 10
53.325214
 20
0.908013
 30
0.0
 11
53.273056
 21
0.925345
 31
0.0
  0
LINE
  5
77E
330
1F
100
AcDbEntity
  8
1
  6
CONTINUOUS
370
50
 62
4
100
AcDbLine
 10
54.616547
 20
0.513973
 30
0.0
 11
54.538292
 21
0.539932
 31
0.0
  0
LINE
  5
77F
330
1F
100
AcDbEntity
  8
1
  6
CONTINUOUS
370
50
 62
4
100
AcDbLine
 10
55.234131
 20
1.319948
 30
0.0
 11
55.078369
 21
1.371413
 31
0.0
  0
LINE
  5
780
330
1F
100
AcDbEntity
  8
1
  6
CONTINUOUS
370
50
 62
4
100
AcDbLine
 10
59.714142
 20
0.7860809999999999
 30
0.0
 11
59.667419
 21
0.8014939999999999
 31
0.0
  0
LINE
  5
781
330
1F
100
AcDbEntity
  8
1
  6
CONTINUOUS
370
50
 62
4
100
AcDbLine
 10
56.502026
 20
0.84932
 30
0.0
 11
56.45497899999999
 21
0.864776
 31
0.0
  0
LINE
  5
782
330
1F
100
AcDbEntity
  8
1
  6
CONTINUOUS
370
50
 62
4
100
AcDbLine
 10
53.377373
 20
0.890898
 30
0.0
 11
53.325214
 21
0.908013
 31
0.0
  0
LINE
  5
783
330
1F
100
AcDbEntity
  8
1
  6
CONTINUOUS
370
50
 62
4
100
AcDbLine
 10
51.958302
 20
1.406384
 30
0.0
 11
51.878212
 21
1.432539
 31
0.0
  0
LINE
  5
784
330
1F
100
AcDbEntity
  8
1
  6
CONTINUOUS
370
50
 62
4
100
AcDbLine
 10
57.602463
 20
0.532502
 30
0.0
 11
57.457054
 21
0.5799449999999999
 31
0.0
  0
LINE
  5
785
330
1F
100
AcDbEntity
  8
1
  6
CONTINUOUS
370
50
 62
4
100
AcDbLine
 10
54.538292
 20
0.539932
 30
0.0
 11
54.46003
 21
0.565372
 31
0.0
  0
LINE
  5
786
330
1F
100
AcDbEntity
  8
1
  6
CONTINUOUS
370
50
 62
4
100
AcDbLine
 10
51.442745
 20
-1.487519
 30
0.0
 11
51.394493
 21
-1.471897
 31
0.0
  0
LINE
  5
787
330
1F
100
AcDbEntity
  8
1
  6
CONTINUOUS
370
50
 62
4
100
AcDbLine
 10
53.439953
 20
0.87064
 30
0.0
 11
53.377373
 21
0.890898
 31
0.0
  0
LINE
  5
788
330
1F
100
AcDbEntity
  8
1
  6
CONTINUOUS
370
50
 62
4
100
AcDbLine
 10
56.54731
 20
0.834733
 30
0.0
 11
56.502026
 21
0.84932
 31
0.0
  0
LINE
  5
789
330
1F
100
AcDbEntity
  8
1
  6
CONTINUOUS
370
50
 62
4
100
AcDbLine
 10
52.113754
 20
1.3601
 30
0.0
 11
52.07592
 21
1.372249
 31
0.0
  0
LINE
  5
78A
330
1F
100
AcDbEntity
  8
1
  6
CONTINUOUS
370
50
 62
4
100
AcDbLine
 10
59.768002
 20
0.768834
 30
0.0
 11
59.714142
 21
0.7860809999999999
 31
0.0
  0
LINE
  5
78B
330
1F
100
AcDbEntity
  8
1
  6
CONTINUOUS
370
50
 62
4
100
AcDbLine
 10
53.502533
 20
0.850668
 30
0.0
 11
53.439953
 21
0.87064
 31
0.0
  0
LINE
  5
78C
330
1F
100
AcDbEntity
  8
1
  6
CONTINUOUS
370
50
 62
4
100
AcDbLine
 10
54.46003
 20
0.565372
 30
0.0
 11
54.38176
 21
0.5902689999999999
 31
0.0
  0
LINE
  5
78D
330
1F
100
AcDbEntity
  8
1
  6
CONTINUOUS
370
50
 62
4
100
AcDbLine
 10
54.88556699999999
 20
1.32754
 30
0.0
 11
54.670372
 21
1.395918
 31
0.0
  0
LINE
  5
78E
330
1F
100
AcDbEntity
  8
1
  6
CONTINUOUS
370
50
 62
4
100
AcDbLine
 10
56.592594
 20
0.8204239999999999
 30
0.0
 11
56.54731
 21
0.834733
 31
0.0
  0
LINE
  5
78F
330
1F
100
AcDbEntity
  8
1
  6
CONTINUOUS
370
50
 62
4
100
AcDbLine
 10
53.577724
 20
0.8270369999999999
 30
0.0
 11
53.502533
 21
0.850668
 31
0.0
  0
LINE
  5
790
330
1F
100
AcDbEntity
  8
1
  6
CONTINUOUS
370
50
 62
4
100
AcDbLine
 10
54.38176
 20
0.5902689999999999
 30
0.0
 11
54.303478
 21
0.6145809999999999
 31
0.0
  0
LINE
  5
791
330
1F
100
AcDbEntity
  8
1
  6
CONTINUOUS
370
50
 62
4
100
AcDbLine
 10
56.637959
 20
0.806361
 30
0.0
 11
56.592594
 21
0.8204239999999999
 31
0.0
  0
LINE
  5
792
330
1F
100
AcDbEntity
  8
1
  6
CONTINUOUS
370
50
 62
4
100
AcDbLine
 10
59.821976
 20
0.7521059999999999
 30
0.0
 11
59.768002
 21
0.768834
 31
0.0
  0
LINE
  5
793
330
1F
100
AcDbEntity
  8
1
  6
CONTINUOUS
370
50
 62
4
100
AcDbLine
 10
53.652924
 20
0.803785
 30
0.0
 11
53.577724
 21
0.8270369999999999
 31
0.0
  0
LINE
  5
794
330
1F
100
AcDbEntity
  8
1
  6
CONTINUOUS
370
50
 62
4
100
AcDbLine
 10
57.586712
 20
-0.6218199999999999
 30
0.0
 11
57.25846499999999
 21
-0.520339
 31
0.0
  0
LINE
  5
795
330
1F
100
AcDbEntity
  8
1
  6
CONTINUOUS
370
50
 62
4
100
AcDbLine
 10
57.604477
 20
-0.625058
 30
0.0
 11
57.2728
 21
-0.523234
 31
0.0
  0
LINE
  5
796
330
1F
100
AcDbEntity
  8
1
  6
CONTINUOUS
370
50
 62
4
100
AcDbLine
 10
59.62595
 20
-1.408339
 30
0.0
 11
59.536419
 21
-1.380911
 31
0.0
  0
LINE
  5
797
330
1F
100
AcDbEntity
  8
1
  6
CONTINUOUS
370
50
 62
4
100
AcDbLine
 10
53.69772
 20
0.79011
 30
0.0
 11
53.652924
 21
0.803785
 31
0.0
  0
LINE
  5
798
330
1F
100
AcDbEntity
  8
1
  6
CONTINUOUS
370
50
 62
4
100
AcDbLine
 10
52.07592
 20
1.372249
 30
0.0
 11
52.038002
 21
1.383824
 31
0.0
  0
LINE
  5
799
330
1F
100
AcDbEntity
  8
1
  6
CONTINUOUS
370
50
 62
4
100
AcDbLine
 10
56.68332299999999
 20
0.7925639999999999
 30
0.0
 11
56.637959
 21
0.806361
 31
0.0
  0
LINE
  5
79A
330
1F
100
AcDbEntity
  8
1
  6
CONTINUOUS
370
50
 62
4
100
AcDbLine
 10
56.587734
 20
-1.402606
 30
0.0
 11
56.40829799999999
 21
-1.348081
 31
0.0
  0
LINE
  5
79B
330
1F
100
AcDbEntity
  8
1
  6
CONTINUOUS
370
50
 62
4
100
AcDbLine
 10
51.878212
 20
1.432539
 30
0.0
 11
51.803196
 21
1.455265
 31
0.0
  0
LINE
  5
79C
330
1F
100
AcDbEntity
  8
1
  6
CONTINUOUS
370
50
 62
4
100
AcDbLine
 10
53.74251899999999
 20
0.7765639999999999
 30
0.0
 11
53.69772
 21
0.79011
 31
0.0
  0
LINE
  5
79D
330
1F
100
AcDbEntity
  8
1
  6
CONTINUOUS
370
50
 62
4
100
AcDbLine
 10
54.303478
 20
0.6145809999999999
 30
0.0
 11
54.225185
 21
0.638209
 31
0.0
  0
LINE
  5
79E
330
1F
100
AcDbEntity
  8
1
  6
CONTINUOUS
370
50
 62
4
100
AcDbLine
 10
53.78722399999999
 20
0.7631749999999999
 30
0.0
 11
53.74251899999999
 21
0.7765639999999999
 31
0.0
  0
LINE
  5
79F
330
1F
100
AcDbEntity
  8
1
  6
CONTINUOUS
370
50
 62
4
100
AcDbLine
 10
53.711323
 20
-1.432285
 30
0.0
 11
53.287693
 21
-1.306053
 31
0.0
  0
LINE
  5
7A0
330
1F
100
AcDbEntity
  8
1
  6
CONTINUOUS
370
50
 62
4
100
AcDbLine
 10
54.616547
 20
-0.639826
 30
0.0
 11
54.355019
 21
-0.5619879999999999
 31
0.0
  0
LINE
  5
7A1
330
1F
100
AcDbEntity
  8
1
  6
CONTINUOUS
370
50
 62
4
100
AcDbLine
 10
53.831928
 20
0.749915
 30
0.0
 11
53.78722399999999
 21
0.7631749999999999
 31
0.0
  0
LINE
  5
7A2
330
1F
100
AcDbEntity
  8
1
  6
CONTINUOUS
370
50
 62
4
100
AcDbLine
 10
56.758408
 20
0.770297
 30
0.0
 11
56.68332299999999
 21
0.7925639999999999
 31
0.0
  0
LINE
  5
7A3
330
1F
100
AcDbEntity
  8
1
  6
CONTINUOUS
370
50
 62
4
100
AcDbLine
 10
55.135586
 20
0.925076
 30
0.0
 11
54.902855
 21
0.993896
 31
0.0
  0
LINE
  5
7A4
330
1F
100
AcDbEntity
  8
1
  6
CONTINUOUS
370
50
 62
4
100
AcDbLine
 10
53.880241
 20
0.73573
 30
0.0
 11
53.831928
 21
0.749915
 31
0.0
  0
LINE
  5
7A5
330
1F
100
AcDbEntity
  8
1
  6
CONTINUOUS
370
50
 62
4
100
AcDbLine
 10
57.457054
 20
0.5799449999999999
 30
0.0
 11
57.31162999999999
 21
0.6225729999999999
 31
0.0
  0
LINE
  5
7A6
330
1F
100
AcDbEntity
  8
1
  6
CONTINUOUS
370
50
 62
4
100
AcDbLine
 10
58.072426
 20
1.373304
 30
0.0
 11
57.916908
 21
1.418651
 31
0.0
  0
LINE
  5
7A7
330
1F
100
AcDbEntity
  8
1
  6
CONTINUOUS
370
50
 62
4
100
AcDbLine
 10
53.928555
 20
0.7217
 30
0.0
 11
53.880241
 21
0.73573
 31
0.0
  0
LINE
  5
7A8
330
1F
100
AcDbEntity
  8
1
  6
CONTINUOUS
370
50
 62
4
100
AcDbLine
 10
52.038002
 20
1.383824
 30
0.0
 11
52.0
 21
1.394828
 31
0.0
  0
LINE
  5
7A9
330
1F
100
AcDbEntity
  8
1
  6
CONTINUOUS
370
50
 62
4
100
AcDbLine
 10
56.833496
 20
0.74871
 30
0.0
 11
56.758408
 21
0.770297
 31
0.0
  0
LINE
  5
7AA
330
1F
100
AcDbEntity
  8
1
  6
CONTINUOUS
370
50
 62
4
100
AcDbLine
 10
53.98332199999999
 20
0.7059869999999999
 30
0.0
 11
53.928555
 21
0.7217
 31
0.0
  0
LINE
  5
7AB
330
1F
100
AcDbEntity
  8
1
  6
CONTINUOUS
370
50
 62
4
100
AcDbLine
 10
54.037968
 20
0.69052
 30
0.0
 11
53.98332199999999
 21
0.7059869999999999
 31
0.0
  0
LINE
  5
7AC
330
1F
100
AcDbEntity
  8
1
  6
CONTINUOUS
370
50
 62
4
100
AcDbLine
 10
54.225185
 20
0.638209
 30
0.0
 11
54.14687
 21
0.660365
 31
0.0
  0
LINE
  5
7AD
330
1F
100
AcDbEntity
  8
1
  6
CONTINUOUS
370
50
 62
4
100
AcDbLine
 10
58.003239
 20
0.9676199999999999
 30
0.0
 11
57.761028
 21
1.035881
 31
0.0
  0
LINE
  5
7AE
330
1F
100
AcDbEntity
  8
1
  6
CONTINUOUS
370
50
 62
4
100
AcDbLine
 10
56.896141
 20
0.731204
 30
0.0
 11
56.833496
 21
0.74871
 31
0.0
  0
LINE
  5
7AF
330
1F
100
AcDbEntity
  8
1
  6
CONTINUOUS
370
50
 62
4
100
AcDbLine
 10
54.092487
 20
0.675312
 30
0.0
 11
54.037968
 21
0.69052
 31
0.0
  0
LINE
  5
7B0
330
1F
100
AcDbEntity
  8
1
  6
CONTINUOUS
370
50
 62
4
100
AcDbLine
 10
59.451912
 20
-1.439193
 30
0.0
 11
59.233166
 21
-1.378429
 31
0.0
  0
LINE
  5
7B1
330
1F
100
AcDbEntity
  8
1
  6
CONTINUOUS
370
50
 62
4
100
AcDbLine
 10
55.078369
 20
1.371413
 30
0.0
 11
54.91943
 21
1.415444
 31
0.0
  0
LINE
  5
7B2
330
1F
100
AcDbEntity
  8
1
  6
CONTINUOUS
370
50
 62
4
100
AcDbLine
 10
54.146866
 20
0.660381
 30
0.0
 11
54.092487
 21
0.675312
 31
0.0
  0
LINE
  5
7B3
330
1F
100
AcDbEntity
  8
1
  6
CONTINUOUS
370
50
 62
4
100
AcDbLine
 10
54.63545999999999
 20
-0.64501
 30
0.0
 11
54.616547
 21
-0.639832
 31
0.0
  0
LINE
  5
7B4
330
1F
100
AcDbEntity
  8
1
  6
CONTINUOUS
370
50
 62
4
100
AcDbLine
 10
50.0
 20
1.49995
 30
0.0
 11
44.5
 21
2.99995
 31
0.0
  0
LINE
  5
7B5
330
1F
100
AcDbEntity
  8
1
  6
CONTINUOUS
370
50
 62
4
100
AcDbLine
 10
56.958797
 20
0.7141419999999999
 30
0.0
 11
56.896141
 21
0.731204
 31
0.0
  0
LINE
  5
7B6
330
1F
100
AcDbEntity
  8
1
  6
CONTINUOUS
370
50
 62
4
100
AcDbLine
 10
57.72460899999999
 20
1.389438
 30
0.0
 11
57.53542299999999
 21
1.440466
 31
0.0
  0
LINE
  5
7B7
330
1F
100
AcDbEntity
  8
1
  6
CONTINUOUS
370
50
 62
4
100
AcDbLine
 10
54.654373
 20
-0.6500659999999999
 30
0.0
 11
54.63545999999999
 21
-0.64501
 31
0.0
  0
LINE
  5
7B8
330
1F
100
AcDbEntity
  8
1
  6
CONTINUOUS
370
50
 62
4
100
AcDbLine
 10
57.01067699999999
 20
0.70034
 30
0.0
 11
56.958797
 21
0.7141419999999999
 31
0.0
  0
LINE
  5
7B9
330
1F
100
AcDbEntity
  8
1
  6
CONTINUOUS
370
50
 62
4
100
AcDbLine
 10
51.803196
 20
1.455265
 30
0.0
 11
51.732647
 21
1.474007
 31
0.0
  0
LINE
  5
7BA
330
1F
100
AcDbEntity
  8
1
  6
CONTINUOUS
370
50
 62
4
100
AcDbLine
 10
57.914188
 20
-0.707174
 30
0.0
 11
57.604477
 21
-0.625058
 31
0.0
  0
LINE
  5
7BB
330
1F
100
AcDbEntity
  8
1
  6
CONTINUOUS
370
50
 62
4
100
AcDbLine
 10
53.365585
 20
-1.42735
 30
0.0
 11
53.174229
 21
-1.376826
 31
0.0
  0
LINE
  5
7BC
330
1F
100
AcDbEntity
  8
1
  6
CONTINUOUS
370
50
 62
4
100
AcDbLine
 10
56.405067
 20
-1.436042
 30
0.0
 11
56.228775
 21
-1.389622
 31
0.0
  0
LINE
  5
7BD
330
1F
100
AcDbEntity
  8
1
  6
CONTINUOUS
370
50
 62
4
100
AcDbLine
 10
59.715832
 20
-1.43192
 30
0.0
 11
59.62595
 21
-1.408339
 31
0.0
  0
LINE
  5
7BE
330
1F
100
AcDbEntity
  8
1
  6
CONTINUOUS
370
50
 62
4
100
AcDbLine
 10
57.31162999999999
 20
0.6225729999999999
 30
0.0
 11
57.16621
 21
0.660685
 31
0.0
  0
LINE
  5
7BF
330
1F
100
AcDbEntity
  8
1
  6
CONTINUOUS
370
50
 62
4
100
AcDbLine
 10
57.914787
 20
-0.707712
 30
0.0
 11
57.586712
 21
-0.6218199999999999
 31
0.0
  0
LINE
  5
7C0
330
1F
100
AcDbEntity
  8
1
  6
CONTINUOUS
370
50
 62
4
100
AcDbLine
 10
54.673298
 20
-0.6550039999999999
 30
0.0
 11
54.654373
 21
-0.6500659999999999
 31
0.0
  0
LINE
  5
7C1
330
1F
100
AcDbEntity
  8
1
  6
CONTINUOUS
370
50
 62
4
100
AcDbLine
 10
57.062565
 20
0.6868299999999999
 30
0.0
 11
57.01067699999999
 21
0.70034
 31
0.0
  0
LINE
  5
7C2
330
1F
100
AcDbEntity
  8
1
  6
CONTINUOUS
370
50
 62
4
100
AcDbLine
 10
57.114388
 20
0.673624
 30
0.0
 11
57.062565
 21
0.6868299999999999
 31
0.0
  0
LINE
  5
7C3
330
1F
100
AcDbEntity
  8
1
  6
CONTINUOUS
370
50
 62
4
100
AcDbLine
 10
54.692242
 20
-0.659828
 30
0.0
 11
54.673298
 21
-0.6550039999999999
 31
0.0
  0
LINE
  5
7C4
330
1F
100
AcDbEntity
  8
1
  6
CONTINUOUS
370
50
 62
4
100
AcDbLine
 10
54.670372
 20
1.395918
 30
0.0
 11
54.464752
 21
1.447282
 31
0.0
  0
LINE
  5
7C5
330
1F
100
AcDbEntity
  8
1
  6
CONTINUOUS
370
50
 62
4
100
AcDbLine
 10
57.16621
 20
0.660702
 30
0.0
 11
57.114388
 21
0.673624
 31
0.0
  0
LINE
  5
7C6
330
1F
100
AcDbEntity
  8
1
  6
CONTINUOUS
370
50
 62
4
100
AcDbLine
 10
54.711208
 20
-0.664542
 30
0.0
 11
54.692242
 21
-0.659828
 31
0.0
  0
LINE
  5
7C7
330
1F
100
AcDbEntity
  8
1
  6
CONTINUOUS
370
50
 62
4
100
AcDbLine
 10
54.730209
 20
-0.669148
 30
0.0
 11
54.711208
 21
-0.664542
 31
0.0
  0
LINE
  5
7C8
330
1F
100
AcDbEntity
  8
1
  6
CONTINUOUS
370
50
 62
4
100
AcDbLine
 10
54.902855
 20
0.993896
 30
0.0
 11
54.670116
 21
1.050151
 31
0.0
  0
LINE
  5
7C9
330
1F
100
AcDbEntity
  8
1
  6
CONTINUOUS
370
50
 62
4
100
AcDbLine
 10
54.774502
 20
-0.679694
 30
0.0
 11
54.749252
 21
-0.673663
 31
0.0
  0
LINE
  5
7CA
330
1F
100
AcDbEntity
  8
1
  6
CONTINUOUS
370
50
 62
4
100
AcDbLine
 10
54.77433
 20
-0.6796099999999999
 30
0.0
 11
54.749252
 21
-0.6736489999999999
 31
0.0
  0
LINE
  5
7CB
330
1F
100
AcDbEntity
  8
1
  6
CONTINUOUS
370
50
 62
4
100
AcDbLine
 10
57.916908
 20
1.418651
 30
0.0
 11
57.76796299999999
 21
1.454026
 31
0.0
  0
LINE
  5
7CC
330
1F
100
AcDbEntity
  8
1
  6
CONTINUOUS
370
50
 62
4
100
AcDbLine
 10
54.749252
 20
-0.6736489999999999
 30
0.0
 11
54.730209
 21
-0.669148
 31
0.0
  0
LINE
  5
7CD
330
1F
100
AcDbEntity
  8
1
  6
CONTINUOUS
370
50
 62
4
100
AcDbLine
 10
56.768257
 20
-1.444933
 30
0.0
 11
56.587734
 21
-1.402606
 31
0.0
  0
LINE
  5
7CE
330
1F
100
AcDbEntity
  8
1
  6
CONTINUOUS
370
50
 62
4
100
AcDbLine
 10
54.799751
 20
-0.685596
 30
0.0
 11
54.774502
 21
-0.679694
 31
0.0
  0
LINE
  5
7CF
330
1F
100
AcDbEntity
  8
1
  6
CONTINUOUS
370
50
 62
4
100
AcDbLine
 10
54.799442
 20
-0.6854439999999999
 30
0.0
 11
54.77433
 21
-0.6796099999999999
 31
0.0
  0
LINE
  5
7D0
330
1F
100
AcDbEntity
  8
1
  6
CONTINUOUS
370
50
 62
4
100
AcDbLine
 10
54.824997
 20
-0.691371
 30
0.0
 11
54.799751
 21
-0.685596
 31
0.0
  0
LINE
  5
7D1
330
1F
100
AcDbEntity
  8
1
  6
CONTINUOUS
370
50
 62
4
100
AcDbLine
 10
54.824585
 20
-0.691152
 30
0.0
 11
54.799442
 21
-0.6854439999999999
 31
0.0
  0
LINE
  5
7D2
330
1F
100
AcDbEntity
  8
1
  6
CONTINUOUS
370
50
 62
4
100
AcDbLine
 10
54.850246
 20
-0.6970189999999999
 30
0.0
 11
54.824997
 21
-0.691371
 31
0.0
  0
LINE
  5
7D3
330
1F
100
AcDbEntity
  8
1
  6
CONTINUOUS
370
50
 62
4
100
AcDbLine
 10
54.91943
 20
1.415444
 30
0.0
 11
54.758392
 21
1.451177
 31
0.0
  0
LINE
  5
7D4
330
1F
100
AcDbEntity
  8
1
  6
CONTINUOUS
370
50
 62
4
100
AcDbLine
 10
54.849754
 20
-0.696735
 30
0.0
 11
54.824585
 21
-0.691152
 31
0.0
  0
LINE
  5
7D5
330
1F
100
AcDbEntity
  8
1
  6
CONTINUOUS
370
50
 62
4
100
AcDbLine
 10
59.806377
 20
-1.451854
 30
0.0
 11
59.715832
 21
-1.43192
 31
0.0
  0
LINE
  5
7D6
330
1F
100
AcDbEntity
  8
1
  6
CONTINUOUS
370
50
 62
4
100
AcDbLine
 10
54.8755
 20
-0.702542
 30
0.0
 11
54.850246
 21
-0.6970189999999999
 31
0.0
  0
LINE
  5
7D7
330
1F
100
AcDbEntity
  8
1
  6
CONTINUOUS
370
50
 62
4
100
AcDbLine
 10
54.87494299999999
 20
-0.7021919999999999
 30
0.0
 11
54.849754
 21
-0.696735
 31
0.0
  0
LINE
  5
7D8
330
1F
100
AcDbEntity
  8
1
  6
CONTINUOUS
370
50
 62
4
100
AcDbLine
 10
54.900749
 20
-0.7079409999999999
 30
0.0
 11
54.8755
 21
-0.702542
 31
0.0
  0
LINE
  5
7D9
330
1F
100
AcDbEntity
  8
1
  6
CONTINUOUS
370
50
 62
4
100
AcDbLine
 10
51.732647
 20
1.474007
 30
0.0
 11
51.665966
 21
1.488211
 31
0.0
  0
LINE
  5
7DA
330
1F
100
AcDbEntity
  8
1
  6
CONTINUOUS
370
50
 62
4
100
AcDbLine
 10
54.900154
 20
-0.707523
 30
0.0
 11
54.87494299999999
 21
-0.7021919999999999
 31
0.0
  0
LINE
  5
7DB
330
1F
100
AcDbEntity
  8
1
  6
CONTINUOUS
370
50
 62
4
100
AcDbLine
 10
57.761028
 20
1.035881
 30
0.0
 11
57.518829
 21
1.086557
 31
0.0
  0
LINE
  5
7DC
330
1F
100
AcDbEntity
  8
1
  6
CONTINUOUS
370
50
 62
4
100
AcDbLine
 10
53.556252
 20
-1.464701
 30
0.0
 11
53.365585
 21
-1.42735
 31
0.0
  0
LINE
  5
7DD
330
1F
100
AcDbEntity
  8
1
  6
CONTINUOUS
370
50
 62
4
100
AcDbLine
 10
59.664188
 20
-1.478891
 30
0.0
 11
59.451912
 21
-1.439193
 31
0.0
  0
LINE
  5
7DE
330
1F
100
AcDbEntity
  8
1
  6
CONTINUOUS
370
50
 62
4
100
AcDbLine
 10
56.58987399999999
 20
-1.470507
 30
0.0
 11
56.405067
 21
-1.436042
 31
0.0
  0
LINE
  5
7DF
330
1F
100
AcDbEntity
  8
1
  6
CONTINUOUS
370
50
 62
4
100
AcDbLine
 10
51.492771
 20
-1.496767
 30
0.0
 11
51.442745
 21
-1.487519
 31
0.0
  0
LINE
  5
7E0
330
1F
100
AcDbEntity
  8
1
  6
CONTINUOUS
370
50
 62
4
100
AcDbLine
 10
54.670116
 20
1.050151
 30
0.0
 11
54.437378
 21
1.093036
 31
0.0
  0
LINE
  5
7E1
330
1F
100
AcDbEntity
  8
1
  6
CONTINUOUS
370
50
 62
4
100
AcDbLine
 10
57.53542299999999
 20
1.440466
 30
0.0
 11
57.346031
 21
1.475037
 31
0.0
  0
LINE
  5
7E2
330
1F
100
AcDbEntity
  8
1
  6
CONTINUOUS
370
50
 62
4
100
AcDbLine
 10
59.897541
 20
-1.468227
 30
0.0
 11
59.806377
 21
-1.451854
 31
0.0
  0
LINE
  5
7E3
330
1F
100
AcDbEntity
  8
1
  6
CONTINUOUS
370
50
 62
4
100
AcDbLine
 10
54.464752
 20
1.447282
 30
0.0
 11
54.27993799999999
 21
1.479857
 31
0.0
  0
LINE
  5
7E4
330
1F
100
AcDbEntity
  8
1
  6
CONTINUOUS
370
50
 62
4
100
AcDbLine
 10
57.76796299999999
 20
1.454026
 30
0.0
 11
57.620548
 21
1.479328
 31
0.0
  0
LINE
  5
7E5
330
1F
100
AcDbEntity
  8
1
  6
CONTINUOUS
370
50
 62
4
100
AcDbLine
 10
56.948429
 20
-1.475215
 30
0.0
 11
56.768257
 21
-1.444933
 31
0.0
  0
LINE
  5
7E6
330
1F
100
AcDbEntity
  8
1
  6
CONTINUOUS
370
50
 62
4
100
AcDbLine
 10
54.042656
 20
-1.487697
 30
0.0
 11
53.711323
 21
-1.432285
 31
0.0
  0
LINE
  5
7E7
330
1F
100
AcDbEntity
  8
1
  6
CONTINUOUS
370
50
 62
4
100
AcDbLine
 10
54.758392
 20
1.451177
 30
0.0
 11
54.59634
 21
1.477746
 31
0.0
  0
LINE
  5
7E8
330
1F
100
AcDbEntity
  8
1
  6
CONTINUOUS
370
50
 62
4
100
AcDbLine
 10
51.665966
 20
1.488211
 30
0.0
 11
51.603493
 21
1.497059
 31
0.0
  0
LINE
  5
7E9
330
1F
100
AcDbEntity
  8
1
  6
CONTINUOUS
370
50
 62
4
100
AcDbLine
 10
59.989281
 20
-1.481127
 30
0.0
 11
59.897541
 21
-1.468227
 31
0.0
  0
LINE
  5
7EA
330
1F
100
AcDbEntity
  8
1
  6
CONTINUOUS
370
50
 62
4
100
AcDbLine
 10
53.746872
 20
-1.489015
 30
0.0
 11
53.556252
 21
-1.464701
 31
0.0
  0
LINE
  5
7EB
330
1F
100
AcDbEntity
  8
1
  6
CONTINUOUS
370
50
 62
4
100
AcDbLine
 10
57.518829
 20
1.086557
 30
0.0
 11
57.276642
 21
1.116814
 31
0.0
  0
LINE
  5
7EC
330
1F
100
AcDbEntity
  8
1
  6
CONTINUOUS
370
50
 62
4
100
AcDbLine
 10
54.437378
 20
1.093036
 30
0.0
 11
54.20464699999999
 21
1.120268
 31
0.0
  0
LINE
  5
7ED
330
1F
100
AcDbEntity
  8
1
  6
CONTINUOUS
370
50
 62
4
100
AcDbLine
 10
56.776165
 20
-1.491703
 30
0.0
 11
56.58987399999999
 21
-1.470507
 31
0.0
  0
LINE
  5
7EE
330
1F
100
AcDbEntity
  8
1
  6
CONTINUOUS
370
50
 62
4
100
AcDbLine
 10
57.128819
 20
-1.493704
 30
0.0
 11
56.948429
 21
-1.475215
 31
0.0
  0
LINE
  5
7EF
330
1F
100
AcDbEntity
  8
1
  6
CONTINUOUS
370
50
 62
4
100
AcDbLine
 10
57.346031
 20
1.475037
 30
0.0
 11
57.1544
 21
1.494629
 31
0.0
  0
LINE
  5
7F0
330
1F
100
AcDbEntity
  8
1
  6
CONTINUOUS
370
50
 62
4
100
AcDbLine
 10
54.59634
 20
1.477746
 30
0.0
 11
54.434364
 21
1.494287
 31
0.0
  0
LINE
  5
7F1
330
1F
100
AcDbEntity
  8
1
  6
CONTINUOUS
370
50
 62
4
100
AcDbLine
 10
57.620548
 20
1.479328
 30
0.0
 11
57.468128
 21
1.494699
 31
0.0
  0
LINE
  5
7F2
330
1F
100
AcDbEntity
  8
1
  6
CONTINUOUS
370
50
 62
4
100
AcDbLine
 10
54.27993799999999
 20
1.479857
 30
0.0
 11
54.107021
 21
1.496386
 31
0.0
  0
LINE
  5
7F3
330
1F
100
AcDbEntity
  8
1
  6
CONTINUOUS
370
50
 62
4
100
AcDbLine
 10
59.88446399999999
 20
-1.498091
 30
0.0
 11
59.664188
 21
-1.478891
 31
0.0
  0
LINE
  5
7F4
330
1F
100
AcDbEntity
  8
1
  6
CONTINUOUS
370
50
 62
4
100
AcDbLine
 10
51.545204
 20
-1.499931
 30
0.0
 11
51.492771
 21
-1.496767
 31
0.0
  0
LINE
  5
7F5
330
1F
100
AcDbEntity
  8
1
  6
CONTINUOUS
370
50
 62
4
100
AcDbLine
 10
53.93604699999999
 20
-1.499542
 30
0.0
 11
53.746872
 21
-1.489015
 31
0.0
  0
LINE
  5
7F6
330
1F
100
AcDbEntity
  8
1
  6
CONTINUOUS
370
50
 62
4
100
AcDbLine
 10
54.270317
 20
-1.499939
 30
0.0
 11
54.042656
 21
-1.487697
 31
0.0
  0
LINE
  5
7F7
330
1F
100
AcDbEntity
  8
1
  6
CONTINUOUS
370
50
 62
4
100
AcDbLine
 10
57.276642
 20
1.116814
 30
0.0
 11
57.034451
 21
1.129009
 31
0.0
  0
LINE
  5
7F8
330
1F
100
AcDbEntity
  8
1
  6
CONTINUOUS
370
50
 62
4
100
AcDbLine
 10
51.603493
 20
1.497059
 30
0.0
 11
51.545204
 21
1.499931
 31
0.0
  0
LINE
  5
7F9
330
1F
100
AcDbEntity
  8
1
  6
CONTINUOUS
370
50
 62
4
100
AcDbLine
 10
56.96207399999999
 20
-1.49985
 30
0.0
 11
56.776165
 21
-1.491703
 31
0.0
  0
LINE
  5
7FA
330
1F
100
AcDbEntity
  8
1
  6
CONTINUOUS
370
50
 62
4
100
AcDbLine
 10
54.20464699999999
 20
1.120268
 30
0.0
 11
53.971931
 21
1.129045
 31
0.0
  0
LINE
  5
7FB
330
1F
100
AcDbEntity
  8
1
  6
CONTINUOUS
370
50
 62
4
100
AcDbLine
 10
57.30839899999999
 20
-1.499969
 30
0.0
 11
57.128819
 21
-1.493704
 31
0.0
  0
LINE
  5
7FC
330
1F
100
AcDbEntity
  8
1
  6
CONTINUOUS
370
50
 62
4
100
AcDbLine
 10
54.434364
 20
1.494287
 30
0.0
 11
54.27046199999999
 21
1.499939
 31
0.0
  0
LINE
  5
7FD
330
1F
100
AcDbEntity
  8
1
  6
CONTINUOUS
370
50
 62
4
100
AcDbLine
 10
57.468128
 20
1.494699
 30
0.0
 11
57.308392
 21
1.499969
 31
0.0
  0
LINE
  5
7FE
330
1F
100
AcDbEntity
  8
1
  6
CONTINUOUS
370
50
 62
4
100
AcDbLine
 10
57.1544
 20
1.494629
 30
0.0
 11
56.96207399999999
 21
1.49985
 31
0.0
  0
LINE
  5
7FF
330
1F
100
AcDbEntity
  8
1
  6
CONTINUOUS
370
50
 62
4
100
AcDbLine
 10
54.107021
 20
1.496386
 30
0.0
 11
53.93604699999999
 21
1.499542
 31
0.0
  0
LINE
  5
800
330
1F
100
AcDbEntity
  8
1
  6
CONTINUOUS
370
50
 62
4
100
AcDbLine
 10
57.308243
 20
-1.499966
 30
0.0
 11
56.986385
 21
-1.499962
 31
0.0
  0
LINE
  5
801
330
1F
100
AcDbEntity
  8
1
  6
CONTINUOUS
370
50
 62
4
100
AcDbLine
 10
54.275848
 20
-1.499928
 30
0.0
 11
53.97861899999999
 21
-1.499925
 31
0.0
  0
LINE
  5
802
330
1F
100
AcDbEntity
  8
1
  6
CONTINUOUS
370
50
 62
4
100
AcDbLine
 10
59.99596
 20
-1.5
 30
0.0
 11
60.0
 21
-1.5
 31
0.0
  0
LINE
  5
803
330
1F
100
AcDbEntity
  8
1
  6
CONTINUOUS
370
50
 62
4
100
AcDbLine
 10
50.0
 20
-1.49995
 30
0.0
 11
51.547386
 21
-1.49995
 31
0.0
  0
LINE
  5
804
330
1F
100
AcDbEntity
  8
1
  6
CONTINUOUS
370
50
 62
4
100
AcDbLine
 10
50.0
 20
1.49995
 30
0.0
 11
51.547386
 21
1.49995
 31
0.0
  0
LINE
  5
805
330
1F
100
AcDbEntity
  8
1
  6
CONTINUOUS
370
50
 62
4
100
AcDbLine
 10
53.97861899999999
 20
1.499925
 30
0.0
 11
54.27601199999999
 21
1.499928
 31
0.0
  0
LINE
  5
806
330
1F
100
AcDbEntity
  8
1
  6
CONTINUOUS
370
50
 62
4
100
AcDbLine
 10
56.986385
 20
1.499962
 30
0.0
 11
57.308235
 21
1.499966
 31
0.0
  0
LINE
  5
807
330
1F
100
AcDbEntity
  8
1
  6
CONTINUOUS
370
50
 62
4
100
AcDbLine
 10
51.929478
 20
1.28152
 30
0.0
 11
52.0
 21
1.282234
 31
0.0
  0
LINE
  5
808
330
1F
100
AcDbEntity
  8
1
  6
CONTINUOUS
370
50
 62
4
100
AcDbLine
 10
51.858959
 20
1.280785
 30
0.0
 11
51.929478
 21
1.28152
 31
0.0
  0
LINE
  5
809
330
1F
100
AcDbEntity
  8
1
  6
CONTINUOUS
370
50
 62
4
100
AcDbLine
 10
51.78843699999999
 20
1.280028
 30
0.0
 11
51.858959
 21
1.280785
 31
0.0
  0
LINE
  5
80A
330
1F
100
AcDbEntity
  8
1
  6
CONTINUOUS
370
50
 62
4
100
AcDbLine
 10
51.717915
 20
1.279248
 30
0.0
 11
51.78843699999999
 21
1.280028
 31
0.0
  0
LINE
  5
80B
330
1F
100
AcDbEntity
  8
1
  6
CONTINUOUS
370
50
 62
4
100
AcDbLine
 10
51.647392
 20
1.278448
 30
0.0
 11
51.717915
 21
1.279248
 31
0.0
  0
LINE
  5
80C
330
1F
100
AcDbEntity
  8
1
  6
CONTINUOUS
370
50
 62
4
100
AcDbLine
 10
51.576874
 20
1.277625
 30
0.0
 11
51.647392
 21
1.278448
 31
0.0
  0
LINE
  5
80D
330
1F
100
AcDbEntity
  8
1
  6
CONTINUOUS
370
50
 62
4
100
AcDbLine
 10
51.506359
 20
1.276781
 30
0.0
 11
51.576874
 21
1.277625
 31
0.0
  0
LINE
  5
80E
330
1F
100
AcDbEntity
  8
1
  6
CONTINUOUS
370
50
 62
4
100
AcDbLine
 10
51.929478
 20
-0.779458
 30
0.0
 11
52.0
 21
-0.778284
 31
0.0
  0
LINE
  5
80F
330
1F
100
AcDbEntity
  8
1
  6
CONTINUOUS
370
50
 62
4
100
AcDbLine
 10
51.858959
 20
-0.780667
 30
0.0
 11
51.929478
 21
-0.779458
 31
0.0
  0
LINE
  5
810
330
1F
100
AcDbEntity
  8
1
  6
CONTINUOUS
370
50
 62
4
100
AcDbLine
 10
51.78843699999999
 20
-0.7819079999999999
 30
0.0
 11
51.858959
 21
-0.780667
 31
0.0
  0
LINE
  5
811
330
1F
100
AcDbEntity
  8
1
  6
CONTINUOUS
370
50
 62
4
100
AcDbLine
 10
51.717915
 20
-0.7831819999999999
 30
0.0
 11
51.78843699999999
 21
-0.7819079999999999
 31
0.0
  0
LINE
  5
812
330
1F
100
AcDbEntity
  8
1
  6
CONTINUOUS
370
50
 62
4
100
AcDbLine
 10
56.792248
 20
1.12457
 30
0.0
 11
57.034451
 21
1.129009
 31
0.0
  0
LINE
  5
813
330
1F
100
AcDbEntity
  8
1
  6
CONTINUOUS
370
50
 62
4
100
AcDbLine
 10
51.647392
 20
-0.784488
 30
0.0
 11
51.717915
 21
-0.7831819999999999
 31
0.0
  0
LINE
  5
814
330
1F
100
AcDbEntity
  8
1
  6
CONTINUOUS
370
50
 62
4
100
AcDbLine
 10
51.576874
 20
-0.7858269999999999
 30
0.0
 11
51.647392
 21
-0.784488
 31
0.0
  0
LINE
  5
815
330
1F
100
AcDbEntity
  8
1
  6
CONTINUOUS
370
50
 62
4
100
AcDbLine
 10
51.506359
 20
-0.787198
 30
0.0
 11
51.576874
 21
-0.7858269999999999
 31
0.0
  0
LINE
  5
816
330
1F
100
AcDbEntity
  8
1
  6
CONTINUOUS
370
50
 62
4
100
AcDbLine
 10
51.481327
 20
1.276259
 30
0.0
 11
51.506359
 21
1.276781
 31
0.0
  0
LINE
  5
817
330
1F
100
AcDbEntity
  8
1
  6
CONTINUOUS
370
50
 62
4
100
AcDbLine
 10
57.30839899999999
 20
-1.499969
 30
0.0
 11
57.468159
 21
-1.494697
 31
0.0
  0
LINE
  5
818
330
1F
100
AcDbEntity
  8
1
  6
CONTINUOUS
370
50
 62
4
100
AcDbLine
 10
54.270317
 20
-1.499939
 30
0.0
 11
54.434265
 21
-1.494294
 31
0.0
  0
LINE
  5
819
330
1F
100
AcDbEntity
  8
1
  6
CONTINUOUS
370
50
 62
4
100
AcDbLine
 10
53.73922
 20
1.120766
 30
0.0
 11
53.971931
 21
1.129045
 31
0.0
  0
LINE
  5
81A
330
1F
100
AcDbEntity
  8
1
  6
CONTINUOUS
370
50
 62
4
100
AcDbLine
 10
51.477966
 20
-0.7882159999999999
 30
0.0
 11
51.506359
 21
-0.787198
 31
0.0
  0
LINE
  5
81B
330
1F
100
AcDbEntity
  8
1
  6
CONTINUOUS
370
50
 62
4
100
AcDbLine
 10
51.456318
 20
1.275295
 30
0.0
 11
51.481327
 21
1.276259
 31
0.0
  0
LINE
  5
81C
330
1F
100
AcDbEntity
  8
1
  6
CONTINUOUS
370
50
 62
4
100
AcDbLine
 10
56.757019
 20
1.490131
 30
0.0
 11
56.96207399999999
 21
1.49985
 31
0.0
  0
LINE
  5
81D
330
1F
100
AcDbEntity
  8
1
  6
CONTINUOUS
370
50
 62
4
100
AcDbLine
 10
51.545204
 20
-1.499931
 30
0.0
 11
51.603493
 21
-1.497059
 31
0.0
  0
LINE
  5
81E
330
1F
100
AcDbEntity
  8
1
  6
CONTINUOUS
370
50
 62
4
100
AcDbLine
 10
53.74876
 20
1.489189
 30
0.0
 11
53.93604699999999
 21
1.499542
 31
0.0
  0
LINE
  5
81F
330
1F
100
AcDbEntity
  8
1
  6
CONTINUOUS
370
50
 62
4
100
AcDbLine
 10
51.431374
 20
1.273883
 30
0.0
 11
51.456318
 21
1.275295
 31
0.0
  0
LINE
  5
820
330
1F
100
AcDbEntity
  8
1
  6
CONTINUOUS
370
50
 62
4
100
AcDbLine
 10
51.449608
 20
-0.7901539999999999
 30
0.0
 11
51.477966
 21
-0.7882159999999999
 31
0.0
  0
LINE
  5
821
330
1F
100
AcDbEntity
  8
1
  6
CONTINUOUS
370
50
 62
4
100
AcDbLine
 10
51.40654
 20
1.272017
 30
0.0
 11
51.431374
 21
1.273883
 31
0.0
  0
LINE
  5
822
330
1F
100
AcDbEntity
  8
1
  6
CONTINUOUS
370
50
 62
4
100
AcDbLine
 10
59.685596
 20
1.481712
 30
0.0
 11
59.88446399999999
 21
1.498091
 31
0.0
  0
LINE
  5
823
330
1F
100
AcDbEntity
  8
1
  6
CONTINUOUS
370
50
 62
4
100
AcDbLine
 10
56.550037
 20
1.10309
 30
0.0
 11
56.792248
 21
1.12457
 31
0.0
  0
LINE
  5
824
330
1F
100
AcDbEntity
  8
1
  6
CONTINUOUS
370
50
 62
4
100
AcDbLine
 10
51.381863
 20
1.269691
 30
0.0
 11
51.40654
 21
1.272017
 31
0.0
  0
LINE
  5
825
330
1F
100
AcDbEntity
  8
1
  6
CONTINUOUS
370
50
 62
4
100
AcDbLine
 10
59.41810599999999
 20
-0.05683
 30
0.0
 11
59.996471
 21
-0.000345
 31
0.0
  0
LINE
  5
826
330
1F
100
AcDbEntity
  8
1
  6
CONTINUOUS
370
50
 62
4
100
AcDbLine
 10
57.468159
 20
-1.494697
 30
0.0
 11
57.620602
 21
-1.479321
 31
0.0
  0
LINE
  5
827
330
1F
100
AcDbEntity
  8
1
  6
CONTINUOUS
370
50
 62
4
100
AcDbLine
 10
51.421352
 20
-0.7930109999999999
 30
0.0
 11
51.449608
 21
-0.7901539999999999
 31
0.0
  0
LINE
  5
828
330
1F
100
AcDbEntity
  8
1
  6
CONTINUOUS
370
50
 62
4
100
AcDbLine
 10
53.5065
 20
1.097224
 30
0.0
 11
53.73922
 21
1.120766
 31
0.0
  0
LINE
  5
829
330
1F
100
AcDbEntity
  8
1
  6
CONTINUOUS
370
50
 62
4
100
AcDbLine
 10
54.434265
 20
-1.494294
 30
0.0
 11
54.596272
 21
-1.477755
 31
0.0
  0
LINE
  5
82A
330
1F
100
AcDbEntity
  8
1
  6
CONTINUOUS
370
50
 62
4
100
AcDbLine
 10
51.357384
 20
1.266898
 30
0.0
 11
51.381863
 21
1.269691
 31
0.0
  0
LINE
  5
82B
330
1F
100
AcDbEntity
  8
1
  6
CONTINUOUS
370
50
 62
4
100
AcDbLine
 10
56.551739
 20
1.464519
 30
0.0
 11
56.757019
 21
1.490131
 31
0.0
  0
LINE
  5
82C
330
1F
100
AcDbEntity
  8
1
  6
CONTINUOUS
370
50
 62
4
100
AcDbLine
 10
53.56004
 20
1.465312
 30
0.0
 11
53.74876
 21
1.489189
 31
0.0
  0
LINE
  5
82D
330
1F
100
AcDbEntity
  8
1
  6
CONTINUOUS
370
50
 62
4
100
AcDbLine
 10
51.393257
 20
-0.796785
 30
0.0
 11
51.421352
 21
-0.7930109999999999
 31
0.0
  0
LINE
  5
82E
330
1F
100
AcDbEntity
  8
1
  6
CONTINUOUS
370
50
 62
4
100
AcDbLine
 10
51.33313
 20
1.263628
 30
0.0
 11
51.357384
 21
1.266898
 31
0.0
  0
LINE
  5
82F
330
1F
100
AcDbEntity
  8
1
  6
CONTINUOUS
370
50
 62
4
100
AcDbLine
 10
51.603493
 20
-1.497059
 30
0.0
 11
51.665966
 21
-1.488211
 31
0.0
  0
LINE
  5
830
330
1F
100
AcDbEntity
  8
1
  6
CONTINUOUS
370
50
 62
4
100
AcDbLine
 10
51.309059
 20
1.259855
 30
0.0
 11
51.33313
 21
1.263628
 31
0.0
  0
LINE
  5
831
330
1F
100
AcDbEntity
  8
1
  6
CONTINUOUS
370
50
 62
4
100
AcDbLine
 10
56.307823
 20
1.063889
 30
0.0
 11
56.550037
 21
1.10309
 31
0.0
  0
LINE
  5
832
330
1F
100
AcDbEntity
  8
1
  6
CONTINUOUS
370
50
 62
4
100
AcDbLine
 10
54.596272
 20
-1.477755
 30
0.0
 11
54.758347
 21
-1.451185
 31
0.0
  0
LINE
  5
833
330
1F
100
AcDbEntity
  8
1
  6
CONTINUOUS
370
50
 62
4
100
AcDbLine
 10
53.273773
 20
1.058693
 30
0.0
 11
53.5065
 21
1.097224
 31
0.0
  0
LINE
  5
834
330
1F
100
AcDbEntity
  8
1
  6
CONTINUOUS
370
50
 62
4
100
AcDbLine
 10
51.365398
 20
-0.8014779999999999
 30
0.0
 11
51.393257
 21
-0.796785
 31
0.0
  0
LINE
  5
835
330
1F
100
AcDbEntity
  8
1
  6
CONTINUOUS
370
50
 62
4
100
AcDbLine
 10
57.620602
 20
-1.479321
 30
0.0
 11
57.76804
 21
-1.45401
 31
0.0
  0
LINE
  5
836
330
1F
100
AcDbEntity
  8
1
  6
CONTINUOUS
370
50
 62
4
100
AcDbLine
 10
59.49302299999999
 20
1.448544
 30
0.0
 11
59.685596
 21
1.481712
 31
0.0
  0
LINE
  5
837
330
1F
100
AcDbEntity
  8
1
  6
CONTINUOUS
370
50
 62
4
100
AcDbLine
 10
51.28523999999999
 20
1.255555
 30
0.0
 11
51.309059
 21
1.259855
 31
0.0
  0
LINE
  5
838
330
1F
100
AcDbEntity
  8
1
  6
CONTINUOUS
370
50
 62
4
100
AcDbLine
 10
59.397366
 20
1.073547
 30
0.0
 11
59.456425
 21
1.084449
 31
0.0
  0
LINE
  5
839
330
1F
100
AcDbEntity
  8
1
  6
CONTINUOUS
370
50
 62
4
100
AcDbLine
 10
53.371273
 20
1.42865
 30
0.0
 11
53.56004
 21
1.465312
 31
0.0
  0
LINE
  5
83A
330
1F
100
AcDbEntity
  8
1
  6
CONTINUOUS
370
50
 62
4
100
AcDbLine
 10
59.338306
 20
1.061675
 30
0.0
 11
59.397366
 21
1.073547
 31
0.0
  0
LINE
  5
83B
330
1F
100
AcDbEntity
  8
1
  6
CONTINUOUS
370
50
 62
4
100
AcDbLine
 10
51.337822
 20
-0.807089
 30
0.0
 11
51.365398
 21
-0.8014779999999999
 31
0.0
  0
LINE
  5
83C
330
1F
100
AcDbEntity
  8
1
  6
CONTINUOUS
370
50
 62
4
100
AcDbLine
 10
56.348827
 20
1.422742
 30
0.0
 11
56.551739
 21
1.464519
 31
0.0
  0
LINE
  5
83D
330
1F
100
AcDbEntity
  8
1
  6
CONTINUOUS
370
50
 62
4
100
AcDbLine
 10
51.261745
 20
1.25071
 30
0.0
 11
51.28523999999999
 21
1.255555
 31
0.0
  0
LINE
  5
83E
330
1F
100
AcDbEntity
  8
1
  6
CONTINUOUS
370
50
 62
4
100
AcDbLine
 10
51.665966
 20
-1.488211
 30
0.0
 11
51.732647
 21
-1.474007
 31
0.0
  0
LINE
  5
83F
330
1F
100
AcDbEntity
  8
1
  6
CONTINUOUS
370
50
 62
4
100
AcDbLine
 10
59.279247
 20
1.048882
 30
0.0
 11
59.338306
 21
1.061675
 31
0.0
  0
LINE
  5
840
330
1F
100
AcDbEntity
  8
1
  6
CONTINUOUS
370
50
 62
4
100
AcDbLine
 10
54.758347
 20
-1.451185
 30
0.0
 11
54.919411
 21
-1.415449
 31
0.0
  0
LINE
  5
841
330
1F
100
AcDbEntity
  8
1
  6
CONTINUOUS
370
50
 62
4
100
AcDbLine
 10
53.041042
 20
1.005264
 30
0.0
 11
53.273773
 21
1.058693
 31
0.0
  0
LINE
  5
842
330
1F
100
AcDbEntity
  8
1
  6
CONTINUOUS
370
50
 62
4
100
AcDbLine
 10
59.220192
 20
1.035209
 30
0.0
 11
59.279247
 21
1.048882
 31
0.0
  0
LINE
  5
843
330
1F
100
AcDbEntity
  8
1
  6
CONTINUOUS
370
50
 62
4
100
AcDbLine
 10
51.238663
 20
1.245298
 30
0.0
 11
51.261745
 21
1.25071
 31
0.0
  0
LINE
  5
844
330
1F
100
AcDbEntity
  8
1
  6
CONTINUOUS
370
50
 62
4
100
AcDbLine
 10
57.76804
 20
-1.45401
 30
0.0
 11
57.917011
 21
-1.418624
 31
0.0
  0
LINE
  5
845
330
1F
100
AcDbEntity
  8
1
  6
CONTINUOUS
370
50
 62
4
100
AcDbLine
 10
51.31048999999999
 20
-0.8136479999999999
 30
0.0
 11
51.337822
 21
-0.807089
 31
0.0
  0
LINE
  5
846
330
1F
100
AcDbEntity
  8
1
  6
CONTINUOUS
370
50
 62
4
100
AcDbLine
 10
56.065613
 20
1.005198
 30
0.0
 11
56.307823
 21
1.063889
 31
0.0
  0
LINE
  5
847
330
1F
100
AcDbEntity
  8
1
  6
CONTINUOUS
370
50
 62
4
100
AcDbLine
 10
59.161133
 20
1.020702
 30
0.0
 11
59.220192
 21
1.035209
 31
0.0
  0
LINE
  5
848
330
1F
100
AcDbEntity
  8
1
  6
CONTINUOUS
370
50
 62
4
100
AcDbLine
 10
59.29942699999999
 20
1.39853
 30
0.0
 11
59.49302299999999
 21
1.448544
 31
0.0
  0
LINE
  5
849
330
1F
100
AcDbEntity
  8
1
  6
CONTINUOUS
370
50
 62
4
100
AcDbLine
 10
59.403606
 20
1.245995
 30
0.0
 11
59.419376
 21
1.250079
 31
0.0
  0
LINE
  5
84A
330
1F
100
AcDbEntity
  8
1
  6
CONTINUOUS
370
50
 62
4
100
AcDbLine
 10
59.10207399999999
 20
1.005404
 30
0.0
 11
59.161133
 21
1.020702
 31
0.0
  0
LINE
  5
84B
330
1F
100
AcDbEntity
  8
1
  6
CONTINUOUS
370
50
 62
4
100
AcDbLine
 10
53.181828
 20
1.379085
 30
0.0
 11
53.371273
 21
1.42865
 31
0.0
  0
LINE
  5
84C
330
1F
100
AcDbEntity
  8
1
  6
CONTINUOUS
370
50
 62
4
100
AcDbLine
 10
51.216068
 20
1.2393
 30
0.0
 11
51.238663
 21
1.245298
 31
0.0
  0
LINE
  5
84D
330
1F
100
AcDbEntity
  8
1
  6
CONTINUOUS
370
50
 62
4
100
AcDbLine
 10
51.732647
 20
-1.474007
 30
0.0
 11
51.803196
 21
-1.455265
 31
0.0
  0
LINE
  5
84E
330
1F
100
AcDbEntity
  8
1
  6
CONTINUOUS
370
50
 62
4
100
AcDbLine
 10
59.419376
 20
1.250079
 30
0.0
 11
59.435112
 21
1.254341
 31
0.0
  0
LINE
  5
84F
330
1F
100
AcDbEntity
  8
1
  6
CONTINUOUS
370
50
 62
4
100
AcDbLine
 10
44.5
 20
-2.99995
 30
0.0
 11
50.0
 21
-1.49995
 31
0.0
  0
LINE
  5
850
330
1F
100
AcDbEntity
  8
1
  6
CONTINUOUS
370
50
 62
4
100
AcDbLine
 10
54.919411
 20
-1.415449
 30
0.0
 11
55.078377
 21
-1.371411
 31
0.0
  0
LINE
  5
851
330
1F
100
AcDbEntity
  8
1
  6
CONTINUOUS
370
50
 62
4
100
AcDbLine
 10
51.283474
 20
-0.821166
 30
0.0
 11
51.31048999999999
 21
-0.8136479999999999
 31
0.0
  0
LINE
  5
852
330
1F
100
AcDbEntity
  8
1
  6
CONTINUOUS
370
50
 62
4
100
AcDbLine
 10
59.435112
 20
1.254341
 30
0.0
 11
59.451801
 21
1.259149
 31
0.0
  0
LINE
  5
853
330
1F
100
AcDbEntity
  8
1
  6
CONTINUOUS
370
50
 62
4
100
AcDbLine
 10
52.0
 20
-1.394828
 30
0.0
 11
52.038002
 21
-1.383824
 31
0.0
  0
LINE
  5
854
330
1F
100
AcDbEntity
  8
1
  6
CONTINUOUS
370
50
 62
4
100
AcDbLine
 10
56.16151
 20
1.368126
 30
0.0
 11
56.348827
 21
1.422742
 31
0.0
  0
LINE
  5
855
330
1F
100
AcDbEntity
  8
1
  6
CONTINUOUS
370
50
 62
4
100
AcDbLine
 10
57.917011
 20
-1.418624
 30
0.0
 11
58.072556
 21
-1.373262
 31
0.0
  0
LINE
  5
856
330
1F
100
AcDbEntity
  8
1
  6
CONTINUOUS
370
50
 62
4
100
AcDbLine
 10
51.194027
 20
1.232692
 30
0.0
 11
51.216068
 21
1.2393
 31
0.0
  0
LINE
  5
857
330
1F
100
AcDbEntity
  8
1
  6
CONTINUOUS
370
50
 62
4
100
AcDbLine
 10
51.803196
 20
-1.455265
 30
0.0
 11
51.878212
 21
-1.432539
 31
0.0
  0
LINE
  5
858
330
1F
100
AcDbEntity
  8
1
  6
CONTINUOUS
370
50
 62
4
100
AcDbLine
 10
52.038002
 20
-1.383824
 30
0.0
 11
52.07592
 21
-1.372249
 31
0.0
  0
LINE
  5
859
330
1F
100
AcDbEntity
  8
1
  6
CONTINUOUS
370
50
 62
4
100
AcDbLine
 10
54.412327
 20
0.580372
 30
0.0
 11
54.412422
 21
0.580401
 31
0.0
  0
LINE
  5
85A
330
1F
100
AcDbEntity
  8
1
  6
CONTINUOUS
370
50
 62
4
100
AcDbLine
 10
54.413177
 20
-0.5803429999999999
 30
0.0
 11
54.413284
 21
-0.58031
 31
0.0
  0
LINE
  5
85B
330
1F
100
AcDbEntity
  8
1
  6
CONTINUOUS
370
50
 62
4
100
AcDbLine
 10
59.451801
 20
1.259149
 30
0.0
 11
59.47163399999999
 21
1.265296
 31
0.0
  0
LINE
  5
85C
330
1F
100
AcDbEntity
  8
1
  6
CONTINUOUS
370
50
 62
4
100
AcDbLine
 10
54.412422
 20
0.580401
 30
0.0
 11
54.412518
 21
0.5804309999999999
 31
0.0
  0
LINE
  5
85D
330
1F
100
AcDbEntity
  8
1
  6
CONTINUOUS
370
50
 62
4
100
AcDbLine
 10
54.41214
 20
0.5803119999999999
 30
0.0
 11
54.412235
 21
0.580342
 31
0.0
  0
LINE
  5
85E
330
1F
100
AcDbEntity
  8
1
  6
CONTINUOUS
370
50
 62
4
100
AcDbLine
 10
54.412518
 20
0.5804309999999999
 30
0.0
 11
54.412613
 21
0.580461
 31
0.0
  0
LINE
  5
85F
330
1F
100
AcDbEntity
  8
1
  6
CONTINUOUS
370
50
 62
4
100
AcDbLine
 10
54.412613
 20
0.580461
 30
0.0
 11
54.412704
 21
0.58049
 31
0.0
  0
LINE
  5
860
330
1F
100
AcDbEntity
  8
1
  6
CONTINUOUS
370
50
 62
4
100
AcDbLine
 10
51.25688599999999
 20
-0.829641
 30
0.0
 11
51.283474
 21
-0.821166
 31
0.0
  0
LINE
  5
861
330
1F
100
AcDbEntity
  8
1
  6
CONTINUOUS
370
50
 62
4
100
AcDbLine
 10
54.412868
 20
-0.580442
 30
0.0
 11
54.413177
 21
-0.5803429999999999
 31
0.0
  0
LINE
  5
862
330
1F
100
AcDbEntity
  8
1
  6
CONTINUOUS
370
50
 62
4
100
AcDbLine
 10
54.413284
 20
-0.58031
 30
0.0
 11
54.413387
 21
-0.5802769999999999
 31
0.0
  0
LINE
  5
863
330
1F
100
AcDbEntity
  8
1
  6
CONTINUOUS
370
50
 62
4
100
AcDbLine
 10
52.07592
 20
-1.372249
 30
0.0
 11
52.113754
 21
-1.3601
 31
0.0
  0
LINE
  5
864
330
1F
100
AcDbEntity
  8
1
  6
CONTINUOUS
370
50
 62
4
100
AcDbLine
 10
54.412766
 20
-0.580475
 30
0.0
 11
54.412868
 21
-0.580442
 31
0.0
  0
LINE
  5
865
330
1F
100
AcDbEntity
  8
1
  6
CONTINUOUS
370
50
 62
4
100
AcDbLine
 10
59.09442499999999
 20
1.331853
 30
0.0
 11
59.29942699999999
 21
1.39853
 31
0.0
  0
LINE
  5
866
330
1F
100
AcDbEntity
  8
1
  6
CONTINUOUS
370
50
 62
4
100
AcDbLine
 10
54.412235
 20
0.580342
 30
0.0
 11
54.412327
 21
0.580372
 31
0.0
  0
LINE
  5
867
330
1F
100
AcDbEntity
  8
1
  6
CONTINUOUS
370
50
 62
4
100
AcDbLine
 10
51.878212
 20
-1.432539
 30
0.0
 11
51.958302
 21
-1.406384
 31
0.0
  0
LINE
  5
868
330
1F
100
AcDbEntity
  8
1
  6
CONTINUOUS
370
50
 62
4
100
AcDbLine
 10
59.47163399999999
 20
1.265296
 30
0.0
 11
59.496578
 21
1.273511
 31
0.0
  0
LINE
  5
869
330
1F
100
AcDbEntity
  8
1
  6
CONTINUOUS
370
50
 62
4
100
AcDbLine
 10
55.078377
 20
-1.371411
 30
0.0
 11
55.234161
 21
-1.319937
 31
0.0
  0
LINE
  5
86A
330
1F
100
AcDbEntity
  8
1
  6
CONTINUOUS
370
50
 62
4
100
AcDbLine
 10
52.992893
 20
1.316465
 30
0.0
 11
53.181828
 21
1.379085
 31
0.0
  0
LINE
  5
86B
330
1F
100
AcDbEntity
  8
1
  6
CONTINUOUS
370
50
 62
4
100
AcDbLine
 10
52.113754
 20
-1.3601
 30
0.0
 11
52.151497
 21
-1.347373
 31
0.0
  0
LINE
  5
86C
330
1F
100
AcDbEntity
  8
1
  6
CONTINUOUS
370
50
 62
4
100
AcDbLine
 10
51.172512
 20
1.225404
 30
0.0
 11
51.194027
 21
1.232692
 31
0.0
  0
LINE
  5
86D
330
1F
100
AcDbEntity
  8
1
  6
CONTINUOUS
370
50
 62
4
100
AcDbLine
 10
58.072556
 20
-1.373262
 30
0.0
 11
58.231102
 21
-1.319224
 31
0.0
  0
LINE
  5
86E
330
1F
100
AcDbEntity
  8
1
  6
CONTINUOUS
370
50
 62
4
100
AcDbLine
 10
59.496578
 20
1.273511
 30
0.0
 11
59.52861
 21
1.284521
 31
0.0
  0
LINE
  5
86F
330
1F
100
AcDbEntity
  8
1
  6
CONTINUOUS
370
50
 62
4
100
AcDbLine
 10
52.151497
 20
-1.347373
 30
0.0
 11
52.189144
 21
-1.334063
 31
0.0
  0
LINE
  5
870
330
1F
100
AcDbEntity
  8
1
  6
CONTINUOUS
370
50
 62
4
100
AcDbLine
 10
59.52861
 20
1.284521
 30
0.0
 11
59.56917199999999
 21
1.298868
 31
0.0
  0
LINE
  5
871
330
1F
100
AcDbEntity
  8
1
  6
CONTINUOUS
370
50
 62
4
100
AcDbLine
 10
55.234154
 20
-1.319716
 30
0.0
 11
55.308971
 21
-1.292992
 31
0.0
  0
LINE
  5
872
330
1F
100
AcDbEntity
  8
1
  6
CONTINUOUS
370
50
 62
4
100
AcDbLine
 10
58.602646
 20
-1.184941
 30
0.0
 11
58.677235
 21
-1.158194
 31
0.0
  0
LINE
  5
873
330
1F
100
AcDbEntity
  8
1
  6
CONTINUOUS
370
50
 62
4
100
AcDbLine
 10
58.545513
 20
-1.205454
 30
0.0
 11
58.602646
 21
-1.184941
 31
0.0
  0
LINE
  5
874
330
1F
100
AcDbEntity
  8
1
  6
CONTINUOUS
370
50
 62
4
100
AcDbLine
 10
58.48009099999999
 20
-1.228986
 30
0.0
 11
58.545513
 21
-1.205454
 31
0.0
  0
LINE
  5
875
330
1F
100
AcDbEntity
  8
1
  6
CONTINUOUS
370
50
 62
4
100
AcDbLine
 10
58.415833
 20
-1.252155
 30
0.0
 11
58.48009099999999
 21
-1.228986
 31
0.0
  0
LINE
  5
876
330
1F
100
AcDbEntity
  8
1
  6
CONTINUOUS
370
50
 62
4
100
AcDbLine
 10
55.308971
 20
-1.292992
 30
0.0
 11
55.37641499999999
 21
-1.26867
 31
0.0
  0
LINE
  5
877
330
1F
100
AcDbEntity
  8
1
  6
CONTINUOUS
370
50
 62
4
100
AcDbLine
 10
58.351055
 20
-1.275581
 30
0.0
 11
58.415833
 21
-1.252155
 31
0.0
  0
LINE
  5
878
330
1F
100
AcDbEntity
  8
1
  6
CONTINUOUS
370
50
 62
4
100
AcDbLine
 10
51.23085
 20
-0.8390759999999999
 30
0.0
 11
51.25688599999999
 21
-0.829641
 31
0.0
  0
LINE
  5
879
330
1F
100
AcDbEntity
  8
1
  6
CONTINUOUS
370
50
 62
4
100
AcDbLine
 10
58.29082099999999
 20
-1.297433
 30
0.0
 11
58.351055
 21
-1.275581
 31
0.0
  0
LINE
  5
87A
330
1F
100
AcDbEntity
  8
1
  6
CONTINUOUS
370
50
 62
4
100
AcDbLine
 10
59.56917199999999
 20
1.298868
 30
0.0
 11
59.610077
 21
1.313742
 31
0.0
  0
LINE
  5
87B
330
1F
100
AcDbEntity
  8
1
  6
CONTINUOUS
370
50
 62
4
100
AcDbLine
 10
58.231102
 20
-1.319173
 30
0.0
 11
58.29082099999999
 21
-1.297433
 31
0.0
  0
LINE
  5
87C
330
1F
100
AcDbEntity
  8
1
  6
CONTINUOUS
370
50
 62
4
100
AcDbLine
 10
55.37641499999999
 20
-1.26867
 30
0.0
 11
55.443848
 21
-1.244113
 31
0.0
  0
LINE
  5
87D
330
1F
100
AcDbEntity
  8
1
  6
CONTINUOUS
370
50
 62
4
100
AcDbLine
 10
55.443848
 20
-1.244113
 30
0.0
 11
55.512543
 21
-1.218832
 31
0.0
  0
LINE
  5
87E
330
1F
100
AcDbEntity
  8
1
  6
CONTINUOUS
370
50
 62
4
100
AcDbLine
 10
52.189144
 20
-1.334063
 30
0.0
 11
52.226685
 21
-1.320166
 31
0.0
  0
LINE
  5
87F
330
1F
100
AcDbEntity
  8
1
  6
CONTINUOUS
370
50
 62
4
100
AcDbLine
 10
55.512543
 20
-1.218832
 30
0.0
 11
55.567291
 21
-1.198495
 31
0.0
  0
LINE
  5
880
330
1F
100
AcDbEntity
  8
1
  6
CONTINUOUS
370
50
 62
4
100
AcDbLine
 10
55.567291
 20
-1.198495
 30
0.0
 11
55.594238
 21
-1.188409
 31
0.0
  0
LINE
  5
881
330
1F
100
AcDbEntity
  8
1
  6
CONTINUOUS
370
50
 62
4
100
AcDbLine
 10
55.992054
 20
1.304662
 30
0.0
 11
56.16151
 21
1.368126
 31
0.0
  0
LINE
  5
882
330
1F
100
AcDbEntity
  8
1
  6
CONTINUOUS
370
50
 62
4
100
AcDbLine
 10
55.594238
 20
-1.188409
 30
0.0
 11
55.674114
 21
-1.158275
 31
0.0
  0
LINE
  5
883
330
1F
100
AcDbEntity
  8
1
  6
CONTINUOUS
370
50
 62
4
100
AcDbLine
 10
59.610077
 20
1.313742
 30
0.0
 11
59.64795299999999
 21
1.328139
 31
0.0
  0
LINE
  5
884
330
1F
100
AcDbEntity
  8
1
  6
CONTINUOUS
370
50
 62
4
100
AcDbLine
 10
52.226685
 20
-1.320173
 30
0.0
 11
52.277092
 21
-1.300943
 31
0.0
  0
LINE
  5
885
330
1F
100
AcDbEntity
  8
1
  6
CONTINUOUS
370
50
 62
4
100
AcDbLine
 10
51.151642
 20
1.217396
 30
0.0
 11
51.172512
 21
1.225404
 31
0.0
  0
LINE
  5
886
330
1F
100
AcDbEntity
  8
1
  6
CONTINUOUS
370
50
 62
4
100
AcDbLine
 10
58.886204
 20
1.251265
 30
0.0
 11
59.09442499999999
 21
1.331853
 31
0.0
  0
LINE
  5
887
330
1F
100
AcDbEntity
  8
1
  6
CONTINUOUS
370
50
 62
4
100
AcDbLine
 10
52.277092
 20
-1.300943
 30
0.0
 11
52.344105
 21
-1.274926
 31
0.0
  0
LINE
  5
888
330
1F
100
AcDbEntity
  8
1
  6
CONTINUOUS
370
50
 62
4
100
AcDbLine
 10
52.344105
 20
-1.274926
 30
0.0
 11
52.410435
 21
-1.248662
 31
0.0
  0
LINE
  5
889
330
1F
100
AcDbEntity
  8
1
  6
CONTINUOUS
370
50
 62
4
100
AcDbLine
 10
52.558231
 20
-1.188677
 30
0.0
 11
52.635357
 21
-1.157767
 31
0.0
  0
LINE
  5
88A
330
1F
100
AcDbEntity
  8
1
  6
CONTINUOUS
370
50
 62
4
100
AcDbLine
 10
52.410435
 20
-1.248662
 30
0.0
 11
52.477215
 21
-1.221704
 31
0.0
  0
LINE
  5
88B
330
1F
100
AcDbEntity
  8
1
  6
CONTINUOUS
370
50
 62
4
100
AcDbLine
 10
59.64795299999999
 20
1.328139
 30
0.0
 11
59.682911
 21
1.342299
 31
0.0
  0
LINE
  5
88C
330
1F
100
AcDbEntity
  8
1
  6
CONTINUOUS
370
50
 62
4
100
AcDbLine
 10
52.535126
 20
-1.198044
 30
0.0
 11
52.558231
 21
-1.188677
 31
0.0
  0
LINE
  5
88D
330
1F
100
AcDbEntity
  8
1
  6
CONTINUOUS
370
50
 62
4
100
AcDbLine
 10
52.806934
 20
1.241005
 30
0.0
 11
52.992893
 21
1.316465
 31
0.0
  0
LINE
  5
88E
330
1F
100
AcDbEntity
  8
1
  6
CONTINUOUS
370
50
 62
4
100
AcDbLine
 10
52.477215
 20
-1.221704
 30
0.0
 11
52.535126
 21
-1.198044
 31
0.0
  0
LINE
  5
88F
330
1F
100
AcDbEntity
  8
1
  6
CONTINUOUS
370
50
 62
4
100
AcDbLine
 10
51.205475
 20
-0.849472
 30
0.0
 11
51.23085
 21
-0.8390759999999999
 31
0.0
  0
LINE
  5
890
330
1F
100
AcDbEntity
  8
1
  6
CONTINUOUS
370
50
 62
4
100
AcDbLine
 10
51.131561
 20
1.208633
 30
0.0
 11
51.151642
 21
1.217396
 31
0.0
  0
LINE
  5
891
330
1F
100
AcDbEntity
  8
1
  6
CONTINUOUS
370
50
 62
4
100
AcDbLine
 10
55.832497
 20
1.234528
 30
0.0
 11
55.992054
 21
1.304662
 31
0.0
  0
LINE
  5
892
330
1F
100
AcDbEntity
  8
1
  6
CONTINUOUS
370
50
 62
4
100
AcDbLine
 10
59.682911
 20
1.342299
 30
0.0
 11
59.71505399999999
 21
1.356459
 31
0.0
  0
LINE
  5
893
330
1F
100
AcDbEntity
  8
1
  6
CONTINUOUS
370
50
 62
4
100
AcDbLine
 10
58.677223
 20
1.15819
 30
0.0
 11
58.886204
 21
1.251265
 31
0.0
  0
LINE
  5
894
330
1F
100
AcDbEntity
  8
1
  6
CONTINUOUS
370
50
 62
4
100
AcDbLine
 10
51.183056
 20
-0.859768
 30
0.0
 11
51.205475
 21
-0.849472
 31
0.0
  0
LINE
  5
895
330
1F
100
AcDbEntity
  8
1
  6
CONTINUOUS
370
50
 62
4
100
AcDbLine
 10
55.674114
 20
1.158275
 30
0.0
 11
55.832497
 21
1.234528
 31
0.0
  0
LINE
  5
896
330
1F
100
AcDbEntity
  8
1
  6
CONTINUOUS
370
50
 62
4
100
AcDbLine
 10
52.63535299999999
 20
1.157771
 30
0.0
 11
52.806934
 21
1.241005
 31
0.0
  0
LINE
  5
897
330
1F
100
AcDbEntity
  8
1
  6
CONTINUOUS
370
50
 62
4
100
AcDbLine
 10
59.71505399999999
 20
1.356459
 30
0.0
 11
59.74449199999999
 21
1.370861
 31
0.0
  0
LINE
  5
898
330
1F
100
AcDbEntity
  8
1
  6
CONTINUOUS
370
50
 62
4
100
AcDbLine
 10
51.112423
 20
1.199084
 30
0.0
 11
51.131561
 21
1.208633
 31
0.0
  0
LINE
  5
899
330
1F
100
AcDbEntity
  8
1
  6
CONTINUOUS
370
50
 62
4
100
AcDbLine
 10
51.161243
 20
-0.870934
 30
0.0
 11
51.183056
 21
-0.859768
 31
0.0
  0
LINE
  5
89A
330
1F
100
AcDbEntity
  8
1
  6
CONTINUOUS
370
50
 62
4
100
AcDbLine
 10
59.74449199999999
 20
1.370861
 30
0.0
 11
59.77133199999999
 21
1.385741
 31
0.0
  0
LINE
  5
89B
330
1F
100
AcDbEntity
  8
1
  6
CONTINUOUS
370
50
 62
4
100
AcDbLine
 10
51.140194
 20
-0.8829589999999999
 30
0.0
 11
51.161243
 21
-0.870934
 31
0.0
  0
LINE
  5
89C
330
1F
100
AcDbEntity
  8
1
  6
CONTINUOUS
370
50
 62
4
100
AcDbLine
 10
51.094372
 20
1.188715
 30
0.0
 11
51.112423
 21
1.199084
 31
0.0
  0
LINE
  5
89D
330
1F
100
AcDbEntity
  8
1
  6
CONTINUOUS
370
50
 62
4
100
AcDbLine
 10
51.120075
 20
-0.895832
 30
0.0
 11
51.140194
 21
-0.8829589999999999
 31
0.0
  0
LINE
  5
89E
330
1F
100
AcDbEntity
  8
1
  6
CONTINUOUS
370
50
 62
4
100
AcDbLine
 10
59.77133199999999
 20
1.385741
 30
0.0
 11
59.795635
 21
1.401307
 31
0.0
  0
LINE
  5
89F
330
1F
100
AcDbEntity
  8
1
  6
CONTINUOUS
370
50
 62
4
100
AcDbLine
 10
51.07756
 20
1.177493
 30
0.0
 11
51.094372
 21
1.188715
 31
0.0
  0
LINE
  5
8A0
330
1F
100
AcDbEntity
  8
1
  6
CONTINUOUS
370
50
 62
4
100
AcDbLine
 10
51.10104399999999
 20
-0.9095399999999999
 30
0.0
 11
51.120075
 21
-0.895832
 31
0.0
  0
LINE
  5
8A1
330
1F
100
AcDbEntity
  8
1
  6
CONTINUOUS
370
50
 62
4
100
AcDbLine
 10
59.795635
 20
1.401307
 30
0.0
 11
59.817532
 21
1.417798
 31
0.0
  0
LINE
  5
8A2
330
1F
100
AcDbEntity
  8
1
  6
CONTINUOUS
370
50
 62
4
100
AcDbLine
 10
59.822235
 20
-0.213461
 30
0.0
 11
60.0
 21
-0.077975
 31
0.0
  0
LINE
  5
8A3
330
1F
100
AcDbEntity
  8
1
  6
CONTINUOUS
370
50
 62
4
100
AcDbLine
 10
51.062176
 20
1.165396
 30
0.0
 11
51.07756
 21
1.177493
 31
0.0
  0
LINE
  5
8A4
330
1F
100
AcDbEntity
  8
1
  6
CONTINUOUS
370
50
 62
4
100
AcDbLine
 10
51.083263
 20
-0.924072
 30
0.0
 11
51.10104399999999
 21
-0.9095399999999999
 31
0.0
  0
LINE
  5
8A5
330
1F
100
AcDbEntity
  8
1
  6
CONTINUOUS
370
50
 62
4
100
AcDbLine
 10
59.817532
 20
1.417798
 30
0.0
 11
59.837193
 21
1.435464
 31
0.0
  0
LINE
  5
8A6
330
1F
100
AcDbEntity
  8
1
  6
CONTINUOUS
370
50
 62
4
100
AcDbLine
 10
51.066921
 20
-0.939395
 30
0.0
 11
51.083263
 21
-0.924072
 31
0.0
  0
LINE
  5
8A7
330
1F
100
AcDbEntity
  8
1
  6
CONTINUOUS
370
50
 62
4
100
AcDbLine
 10
51.04839699999999
 20
1.152398
 30
0.0
 11
51.062176
 21
1.165396
 31
0.0
  0
LINE
  5
8A8
330
1F
100
AcDbEntity
  8
1
  6
CONTINUOUS
370
50
 62
4
100
AcDbLine
 10
59.837193
 20
1.435464
 30
0.0
 11
59.854786
 21
1.454559
 31
0.0
  0
LINE
  5
8A9
330
1F
100
AcDbEntity
  8
1
  6
CONTINUOUS
370
50
 62
4
100
AcDbLine
 10
51.052223
 20
-0.955461
 30
0.0
 11
51.066921
 21
-0.939395
 31
0.0
  0
LINE
  5
8AA
330
1F
100
AcDbEntity
  8
1
  6
CONTINUOUS
370
50
 62
4
100
AcDbLine
 10
51.036404
 20
1.138474
 30
0.0
 11
51.04839699999999
 21
1.152398
 31
0.0
  0
LINE
  5
8AB
330
1F
100
AcDbEntity
  8
1
  6
CONTINUOUS
370
50
 62
4
100
AcDbLine
 10
51.039352
 20
-0.972228
 30
0.0
 11
51.052223
 21
-0.955461
 31
0.0
  0
LINE
  5
8AC
330
1F
100
AcDbEntity
  8
1
  6
CONTINUOUS
370
50
 62
4
100
AcDbLine
 10
59.854786
 20
1.454559
 30
0.0
 11
59.870483
 21
1.475339
 31
0.0
  0
LINE
  5
8AD
330
1F
100
AcDbEntity
  8
1
  6
CONTINUOUS
370
50
 62
4
100
AcDbLine
 10
51.026379
 20
1.123616
 30
0.0
 11
51.036404
 21
1.138474
 31
0.0
  0
LINE
  5
8AE
330
1F
100
AcDbEntity
  8
1
  6
CONTINUOUS
370
50
 62
4
100
AcDbLine
 10
59.41810599999999
 20
-0.05683
 30
0.0
 11
59.429726
 21
-0.038349
 31
0.0
  0
LINE
  5
8AF
330
1F
100
AcDbEntity
  8
1
  6
CONTINUOUS
370
50
 62
4
100
AcDbLine
 10
51.028515
 20
-0.989649
 30
0.0
 11
51.039352
 21
-0.972228
 31
0.0
  0
LINE
  5
8B0
330
1F
100
AcDbEntity
  8
1
  6
CONTINUOUS
370
50
 62
4
100
AcDbLine
 10
59.870483
 20
1.475339
 30
0.0
 11
59.884468
 21
1.498088
 31
0.0
  0
LINE
  5
8B1
330
1F
100
AcDbEntity
  8
1
  6
CONTINUOUS
370
50
 62
4
100
AcDbLine
 10
59.429726
 20
-0.038349
 30
0.0
 11
59.440517
 21
-0.019441
 31
0.0
  0
LINE
  5
8B2
330
1F
100
AcDbEntity
  8
1
  6
CONTINUOUS
370
50
 62
4
100
AcDbLine
 10
59.440517
 20
-0.019441
 30
0.0
 11
59.450371
 21
-0.000302
 31
0.0
  0
LINE
  5
8B3
330
1F
100
AcDbEntity
  8
1
  6
CONTINUOUS
370
50
 62
4
100
AcDbLine
 10
51.018604
 20
1.108043
 30
0.0
 11
51.026379
 21
1.123616
 31
0.0
  0
LINE
  5
8B4
330
1F
100
AcDbEntity
  8
1
  6
CONTINUOUS
370
50
 62
4
100
AcDbLine
 10
51.019993
 20
-1.007448
 30
0.0
 11
51.028515
 21
-0.989649
 31
0.0
  0
LINE
  5
8B5
330
1F
100
AcDbEntity
  8
1
  6
CONTINUOUS
370
50
 62
4
100
AcDbLine
 10
59.450371
 20
-0.000302
 30
0.0
 11
59.459179
 21
0.018811
 31
0.0
  0
LINE
  5
8B6
330
1F
100
AcDbEntity
  8
1
  6
CONTINUOUS
370
50
 62
4
100
AcDbLine
 10
59.459179
 20
0.018811
 30
0.0
 11
59.466957
 21
0.03785
 31
0.0
  0
LINE
  5
8B7
330
1F
100
AcDbEntity
  8
1
  6
CONTINUOUS
370
50
 62
4
100
AcDbLine
 10
59.466957
 20
0.03785
 30
0.0
 11
59.473717
 21
0.056764
 31
0.0
  0
LINE
  5
8B8
330
1F
100
AcDbEntity
  8
1
  6
CONTINUOUS
370
50
 62
4
100
AcDbLine
 10
51.013943
 20
-1.025412
 30
0.0
 11
51.019993
 21
-1.007448
 31
0.0
  0
LINE
  5
8B9
330
1F
100
AcDbEntity
  8
1
  6
CONTINUOUS
370
50
 62
4
100
AcDbLine
 10
51.013168
 20
1.091837
 30
0.0
 11
51.018604
 21
1.108043
 31
0.0
  0
LINE
  5
8BA
330
1F
100
AcDbEntity
  8
1
  6
CONTINUOUS
370
50
 62
4
100
AcDbLine
 10
59.473717
 20
0.056764
 30
0.0
 11
59.479477
 21
0.075506
 31
0.0
  0
LINE
  5
8BB
330
1F
100
AcDbEntity
  8
1
  6
CONTINUOUS
370
50
 62
4
100
AcDbLine
 10
59.479477
 20
0.075506
 30
0.0
 11
59.484234
 21
0.093966
 31
0.0
  0
LINE
  5
8BC
330
1F
100
AcDbEntity
  8
1
  6
CONTINUOUS
370
50
 62
4
100
AcDbLine
 10
59.484234
 20
0.093966
 30
0.0
 11
59.488003
 21
0.111999
 31
0.0
  0
LINE
  5
8BD
330
1F
100
AcDbEntity
  8
1
  6
CONTINUOUS
370
50
 62
4
100
AcDbLine
 10
51.010406
 20
-1.043484
 30
0.0
 11
51.013943
 21
-1.025412
 31
0.0
  0
LINE
  5
8BE
330
1F
100
AcDbEntity
  8
1
  6
CONTINUOUS
370
50
 62
4
100
AcDbLine
 10
51.010113
 20
1.075014
 30
0.0
 11
51.013168
 21
1.091837
 31
0.0
  0
LINE
  5
8BF
330
1F
100
AcDbEntity
  8
1
  6
CONTINUOUS
370
50
 62
4
100
AcDbLine
 10
59.488003
 20
0.111999
 30
0.0
 11
59.490818
 21
0.129576
 31
0.0
  0
LINE
  5
8C0
330
1F
100
AcDbEntity
  8
1
  6
CONTINUOUS
370
50
 62
4
100
AcDbLine
 10
59.490818
 20
0.129576
 30
0.0
 11
59.49273299999999
 21
0.146672
 31
0.0
  0
LINE
  5
8C1
330
1F
100
AcDbEntity
  8
1
  6
CONTINUOUS
370
50
 62
4
100
AcDbLine
 10
59.491985
 20
0.863159
 30
0.0
 11
59.493542
 21
0.879421
 31
0.0
  0
LINE
  5
8C2
330
1F
100
AcDbEntity
  8
1
  6
CONTINUOUS
370
50
 62
4
100
AcDbLine
 10
59.49273299999999
 20
0.146672
 30
0.0
 11
59.493782
 21
0.16326
 31
0.0
  0
LINE
  5
8C3
330
1F
100
AcDbEntity
  8
1
  6
CONTINUOUS
370
50
 62
4
100
AcDbLine
 10
51.009422
 20
-1.06158
 30
0.0
 11
51.010406
 21
-1.043484
 31
0.0
  0
LINE
  5
8C4
330
1F
100
AcDbEntity
  8
1
  6
CONTINUOUS
370
50
 62
4
100
AcDbLine
 10
59.824787
 20
-0.438372
 30
0.0
 11
59.82828499999999
 21
-0.370115
 31
0.0
  0
LINE
  5
8C5
330
1F
100
AcDbEntity
  8
1
  6
CONTINUOUS
370
50
 62
4
100
AcDbLine
 10
51.009476
 20
1.057637
 30
0.0
 11
51.010113
 21
1.075014
 31
0.0
  0
LINE
  5
8C6
330
1F
100
AcDbEntity
  8
1
  6
CONTINUOUS
370
50
 62
4
100
AcDbLine
 10
59.822678
 20
-0.506941
 30
0.0
 11
59.824787
 21
-0.438372
 31
0.0
  0
LINE
  5
8C7
330
1F
100
AcDbEntity
  8
1
  6
CONTINUOUS
370
50
 62
4
100
AcDbLine
 10
59.493542
 20
0.879421
 30
0.0
 11
59.49403
 21
0.896554
 31
0.0
  0
LINE
  5
8C8
330
1F
100
AcDbEntity
  8
1
  6
CONTINUOUS
370
50
 62
4
100
AcDbLine
 10
59.493782
 20
0.16326
 30
0.0
 11
59.494015
 21
0.179313
 31
0.0
  0
LINE
  5
8C9
330
1F
100
AcDbEntity
  8
1
  6
CONTINUOUS
370
50
 62
4
100
AcDbLine
 10
59.82828499999999
 20
-0.370115
 30
0.0
 11
59.82859
 21
-0.347471
 31
0.0
  0
LINE
  5
8CA
330
1F
100
AcDbEntity
  8
1
  6
CONTINUOUS
370
50
 62
4
100
AcDbLine
 10
59.821976
 20
-0.575656
 30
0.0
 11
59.822678
 21
-0.506941
 31
0.0
  0
LINE
  5
8CB
330
1F
100
AcDbEntity
  8
1
  6
CONTINUOUS
370
50
 62
4
100
AcDbLine
 10
44.5
 20
-2.99995
 30
0.0
 11
44.5
 21
2.99995
 31
0.0
  0
LINE
  5
8CC
330
1F
100
AcDbEntity
  8
1
  6
CONTINUOUS
370
50
 62
4
100
AcDbLine
 10
50.0
 20
-1.49995
 30
0.0
 11
50.0
 21
1.49995
 31
0.0
  0
LINE
  5
8CD
330
1F
100
AcDbEntity
  8
1
  6
CONTINUOUS
370
50
 62
4
100
AcDbLine
 10
52.0
 20
-1.394828
 30
0.0
 11
52.0
 21
1.394828
 31
0.0
  0
LINE
  5
8CE
330
1F
100
AcDbEntity
  8
1
  6
CONTINUOUS
370
50
 62
4
100
AcDbLine
 10
60.0
 20
-1.5
 30
0.0
 11
60.0
 21
0.204204
 31
0.0
  0
LINE
  5
8CF
330
1F
100
AcDbEntity
  8
1
  6
CONTINUOUS
370
50
 62
4
100
AcDbLine
 10
60.0
 20
0.204208
 30
0.0
 11
60.0
 21
1.499997
 31
0.0
  0
ELLIPSE
  5
8D0
330
1F
100
AcDbEntity
  8
1
  6
CONTINUOUS
370
50
 62
4
100
AcDbEllipse
 10
60.000041
 20
-0.000028
 30
0.0
 11
-2.211335029875542
 21
1.499998955956748
 31
0.0
210
0.0
220
0.0
230
1.0
 40
0.0008484543016941
 41
1.519086018487017
 42
1.571353425750619
  0
ELLIPSE
  5
8D1
330
1F
100
AcDbEntity
  8
1
  6
CONTINUOUS
370
50
 62
4
100
AcDbEllipse
 10
60.000041
 20
0.0
 30
0.0
 11
2.211333001084014
 21
0.005074527639889127
 31
0.0
210
0.0
220
0.0
230
1.0
 40
0.6783198183694458
 41
4.658543970701241
 42
4.708986784252472
  0
ELLIPSE
  5
8D2
330
1F
100
AcDbEntity
  8
1
  6
CONTINUOUS
370
50
 62
4
100
AcDbEllipse
 10
60.000041
 20
0.0
 30
0.0
 11
-2.211333001084014
 21
0.005074527639997224
 31
0.0
210
0.0
220
0.0
230
0.9999999999999999
 40
0.6783198183694455
 41
4.71396400316635
 42
4.76623399006813
  0
ELLIPSE
  5
8D3
330
1F
100
AcDbEntity
  8
1
  6
CONTINUOUS
370
50
 62
4
100
AcDbEllipse
 10
60.06635199999999
 20
0.0
 30
0.0
 11
9.184553776699598E-17
 21
1.500001
 31
0.0
210
0.0
220
0.0
230
1.0
 40
0.3249197833868122
 41
2.98279002552989
 42
3.005028941332458
  0
ELLIPSE
  5
8D4
330
1F
100
AcDbEntity
  8
1
  6
CONTINUOUS
370
50
 62
4
100
AcDbEllipse
 10
65.073301
 20
-20.599675
 30
0.0
 11
-23.05663087441753
 21
10.29429928127305
 31
0.0
210
0.0
220
0.0
230
0.9999999999999998
 40
0.7772570064244884
 41
5.61171533247937
 42
5.613740020431461
  0
ELLIPSE
  5
8D5
330
1F
100
AcDbEntity
  8
1
  6
CONTINUOUS
370
50
 62
4
100
AcDbEllipse
 10
65.073301
 20
9.337285999999999
 30
0.0
 11
-23.97831716651335
 21
7.913349495446298
 31
0.0
210
0.0
220
0.0
230
0.9999999999999999
 40
0.5745202643615926
 41
1.190850268301191
 42
1.192874956231555
  0
ELLIPSE
  5
8D6
330
1F
100
AcDbEntity
  8
1
  6
CONTINUOUS
370
50
 62
4
100
AcDbEllipse
 10
65.073301
 20
20.599675
 30
0.0
 11
23.05663087441753
 21
10.29429928127304
 31
0.0
210
0.0
220
0.0
230
0.9999999999999998
 40
0.7772570064244883
 41
3.811037940337921
 42
3.813062628290012
  0
ELLIPSE
  5
8D7
330
1F
100
AcDbEntity
  8
1
  6
CONTINUOUS
370
50
 62
4
100
AcDbEllipse
 10
65.353876
 20
-19.971259
 30
0.0
 11
-23.18793998669508
 21
10.35292602979964
 31
0.0
210
0.0
220
0.0
230
0.9999999999999999
 40
0.7772570082108541
 41
5.628000120592085
 42
5.66959309953227
  0
ELLIPSE
  5
8D8
330
1F
100
AcDbEntity
  8
1
  6
CONTINUOUS
370
50
 62
4
100
AcDbEllipse
 10
65.353876
 20
10.187457
 30
0.0
 11
-24.11487606382033
 21
7.958416806617409
 31
0.0
210
0.0
220
0.0
230
0.9999999999999999
 40
0.5745202687986298
 41
1.134997187955014
 42
1.182898211543169
  0
ELLIPSE
  5
8D9
330
1F
100
AcDbEntity
  8
1
  6
CONTINUOUS
370
50
 62
4
100
AcDbEllipse
 10
65.493342
 20
10.610055
 30
0.0
 11
-24.00285605144791
 21
7.921447844107182
 31
0.0
210
0.0
220
0.0
230
0.9999999999999999
 40
0.5745202528554476
 41
1.148597885977262
 42
1.173036470962156
  0
LINE
  5
8DA
330
1F
100
AcDbEntity
  8
CUT
  6
CONTINUOUS
370
25
 62
1
100
AcDbLine
 10
52.0
 20
0.0
 30
0.0
 11
60.0
 21
0.0
 31
0.0
  0
LINE
  5
8DB
330
1F
100
AcDbEntity
  8
CUT
  6
CONTINUOUS
370
25
 62
1
100
AcDbLine
 10
60.0
 20
0.0
 30
0.0
 11
60.0
 21
1.495
 31
0.0
  0
LINE
  5
8DC
330
1F
100
AcDbEntity
  8
CUT
  6
CONTINUOUS
370
25
 62
1
100
AcDbLine
 10
60.0
 20
1.495
 30
0.0
 11
60.0
 21
1.5
 31
0.0
  0
LINE
  5
8DD
330
1F
100
AcDbEntity
  8
CUT
  6
CONTINUOUS
370
25
 62
1
100
AcDbLine
 10
60.0
 20
1.5
 30
0.0
 11
52.0
 21
1.4999
 31
0.0
  0
LINE
  5
8DE
330
1F
100
AcDbEntity
  8
CUT
  6
CONTINUOUS
370
25
 62
1
100
AcDbLine
 10
52.0
 20
1.4999
 30
0.0
 11
52.0
 21
0.0
 31
0.0
  0
LINE
  5
8DF
330
1F
100
AcDbEntity
  8
NOCUT
  6
CONTINUOUS
370
25
 62
7
100
AcDbLine
 10
44.5
 20
0.0
 30
0.0
 11
52.0
 21
0.0
 31
0.0
  0
LINE
  5
8E0
330
1F
100
AcDbEntity
  8
NOCUT
  6
CONTINUOUS
370
25
 62
7
100
AcDbLine
 10
52.0
 20
0.0
 30
0.0
 11
52.0
 21
1.49995
 31
0.0
  0
LINE
  5
8E1
330
1F
100
AcDbEntity
  8
NOCUT
  6
CONTINUOUS
370
25
 62
7
100
AcDbLine
 10
52.0
 20
1.49995
 30
0.0
 11
50.0
 21
1.49995
 31
0.0
  0
LINE
  5
8E2
330
1F
100
AcDbEntity
  8
NOCUT
  6
CONTINUOUS
370
25
 62
7
100
AcDbLine
 10
50.0
 20
1.49995
 30
0.0
 11
44.5
 21
2.99995
 31
0.0
  0
LINE
  5
8E3
330
1F
100
AcDbEntity
  8
NOCUT
  6
CONTINUOUS
370
25
 62
7
100
AcDbLine
 10
44.5
 20
2.99995
 30
0.0
 11
44.5
 21
0.0
 31
0.0
  0
LINE
  5
8E4
330
1F
100
AcDbEntity
  8
SK1
  6
CONTINUOUS
370
50
 62
4
100
AcDbLine
 10
44.5
 20
3.0
 30
0.0
 11
0.3999999999999986
 21
3.0
 31
0.0
  0
LINE
  5
8E5
330
1F
100
AcDbEntity
  8
SK1
  6
CONTINUOUS
370
50
 62
4
100
AcDbLine
 10
0.3999999999999986
 20
3.0
 30
0.0
 11
0.0
 21
2.6
 31
0.0
  0
LINE
  5
8E6
330
1F
100
AcDbEntity
  8
SK1
  6
CONTINUOUS
370
50
 62
4
100
AcDbLine
 10
0.0
 20
2.6
 30
0.0
 11
0.0
 21
-2.6
 31
0.0
  0
LINE
  5
8E7
330
1F
100
AcDbEntity
  8
SK1
  6
CONTINUOUS
370
50
 62
4
100
AcDbLine
 10
0.0
 20
-2.6
 30
0.0
 11
0.3999999999999986
 21
-3.0
 31
0.0
  0
LINE
  5
8E8
330
1F
100
AcDbEntity
  8
SK1
  6
CONTINUOUS
370
50
 62
4
100
AcDbLine
 10
0.3999999999999986
 20
-3.0
 30
0.0
 11
44.5
 21
-3.0
 31
0.0
  0
LINE
  5
8E9
330
1F
100
AcDbEntity
  8
SK1
  6
CONTINUOUS
370
50
 62
4
100
AcDbLine
 10
0.3999999999999986
 20
3.0
 30
0.0
 11
0.3999999999999986
 21
-3.0
 31
0.0
  0
LINE
  5
8EA
330
1F
100
AcDbEntity
  8
SK2
  6
CONTINUOUS
370
25
 62
7
100
AcDbLine
 10
-12.0000002
 20
-3.000001
 30
0.0
 11
-13.00000000000008
 21
-3.000001
 31
0.0
  0
LINE
  5
8EB
330
1F
100
AcDbEntity
  8
SK2
  6
CONTINUOUS
370
25
 62
7
100
AcDbLine
 10
0.0
 20
-3.000001
 30
0.0
 11
-11.9999998
 21
-3.000001
 31
0.0
  0
LINE
  5
8EC
330
1F
100
AcDbEntity
  8
SK2
  6
CONTINUOUS
370
25
 62
7
100
AcDbLine
 10
-13.0
 20
3.0
 30
0.0
 11
0.0
 21
3.0
 31
0.0
  0
LINE
  5
8ED
330
1F
100
AcDbEntity
  8
SK2
  6
CONTINUOUS
370
25
 62
7
100
AcDbLine
 10
-12.0
 20
-10.0
 30
0.0
 11
-12.0
 21
16.475
 31
0.0
  0
LINE
  5
8EE
330
1F
100
AcDbEntity
  8
SK2
  6
CONTINUOUS
370
25
 62
7
100
AcDbLine
 10
-12.0
 20
-3.0
 30
0.0
 11
-11.0
 21
-8.0
 31
0.0
  0
LINE
  5
8EF
330
1F
100
AcDbEntity
  8
SK2
  6
CONTINUOUS
370
25
 62
7
100
AcDbLine
 10
-11.0
 20
-8.0
 30
0.0
 11
-13.0
 21
-8.0
 31
0.0
  0
LINE
  5
8F0
330
1F
100
AcDbEntity
  8
SK2
  6
CONTINUOUS
370
25
 62
7
100
AcDbLine
 10
-13.0
 20
-8.0
 30
0.0
 11
-12.0
 21
-3.0
 31
0.0
  0
LINE
  5
8F1
330
1F
100
AcDbEntity
  8
SK2
  6
CONTINUOUS
370
25
 62
7
100
AcDbLine
 10
-11.01757569573596
 20
-8.0
 30
0.0
 11
-11.00292928262266
 21
-7.985353586886703
 31
0.0
  0
LINE
  5
8F2
330
1F
100
AcDbEntity
  8
SK2
  6
CONTINUOUS
370
25
 62
7
100
AcDbLine
 10
-11.4418397644479
 20
-8.0
 30
0.0
 11
-11.07363996074132
 21
-7.631800196293426
 31
0.0
  0
LINE
  5
8F3
330
1F
100
AcDbEntity
  8
SK2
  6
CONTINUOUS
370
25
 62
7
100
AcDbLine
 10
-11.86610383315982
 20
-8.0
 30
0.0
 11
-11.14435063885998
 21
-7.278246805700149
 31
0.0
  0
LINE
  5
8F4
330
1F
100
AcDbEntity
  8
SK2
  6
CONTINUOUS
370
25
 62
7
100
AcDbLine
 10
-12.29036790187175
 20
-8.0
 30
0.0
 11
-11.21506131697863
 21
-6.924693415106873
 31
0.0
  0
LINE
  5
8F5
330
1F
100
AcDbEntity
  8
SK2
  6
CONTINUOUS
370
25
 62
7
100
AcDbLine
 10
-12.71463197058368
 20
-8.0
 30
0.0
 11
-11.28577199509729
 21
-6.571140024513596
 31
0.0
  0
LINE
  5
8F6
330
1F
100
AcDbEntity
  8
SK2
  6
CONTINUOUS
370
25
 62
7
100
AcDbLine
 10
-12.9652759901761
 20
-7.826379950880479
 30
0.0
 11
-11.35648267321594
 21
-6.21758663392032
 31
0.0
  0
LINE
  5
8F7
330
1F
100
AcDbEntity
  8
SK2
  6
CONTINUOUS
370
25
 62
7
100
AcDbLine
 10
-12.85920997299812
 20
-7.296049864990565
 30
0.0
 11
-11.42719335133459
 21
-5.864033243327043
 31
0.0
  0
LINE
  5
8F8
330
1F
100
AcDbEntity
  8
SK2
  6
CONTINUOUS
370
25
 62
7
100
AcDbLine
 10
-12.75314395582014
 20
-6.765719779100657
 30
0.0
 11
-11.49790402945325
 21
-5.510479852733766
 31
0.0
  0
LINE
  5
8F9
330
1F
100
AcDbEntity
  8
SK2
  6
CONTINUOUS
370
25
 62
7
100
AcDbLine
 10
-12.64707793864216
 20
-6.235389693210742
 30
0.0
 11
-11.5686147075719
 21
-5.156926462140483
 31
0.0
  0
LINE
  5
8FA
330
1F
100
AcDbEntity
  8
SK2
  6
CONTINUOUS
370
25
 62
7
100
AcDbLine
 10
-12.54101192146417
 20
-5.70505960732082
 30
0.0
 11
-11.63932538569055
 21
-4.803373071547199
 31
0.0
  0
LINE
  5
8FB
330
1F
100
AcDbEntity
  8
SK2
  6
CONTINUOUS
370
25
 62
7
100
AcDbLine
 10
-12.43494590428619
 20
-5.174729521430912
 30
0.0
 11
-11.71003606380921
 21
-4.449819680953937
 31
0.0
  0
LINE
  5
8FC
330
1F
100
AcDbEntity
  8
SK2
  6
CONTINUOUS
370
25
 62
7
100
AcDbLine
 10
-12.3288798871082
 20
-4.644399435540997
 30
0.0
 11
-11.78074674192786
 21
-4.09626629036066
 31
0.0
  0
LINE
  5
8FD
330
1F
100
AcDbEntity
  8
SK2
  6
CONTINUOUS
370
25
 62
7
100
AcDbLine
 10
-12.22281386993022
 20
-4.114069349651082
 30
0.0
 11
-11.85145742004652
 21
-3.742712899767383
 31
0.0
  0
LINE
  5
8FE
330
1F
100
AcDbEntity
  8
SK2
  6
CONTINUOUS
370
25
 62
7
100
AcDbLine
 10
-12.11674785275224
 20
-3.583739263761167
 30
0.0
 11
-11.92216809816517
 21
-3.3891595091741
 31
0.0
  0
LINE
  5
8FF
330
1F
100
AcDbEntity
  8
SK2
  6
CONTINUOUS
370
25
 62
7
100
AcDbLine
 10
-12.01068183557425
 20
-3.053409177871252
 30
0.0
 11
-11.99287877628384
 21
-3.035606118580837
 31
0.0
  0
LINE
  5
900
330
1F
100
AcDbEntity
  8
SK2
  6
CONTINUOUS
370
25
 62
7
100
AcDbLine
 10
-12.97393860070066
 20
-7.869693003503293
 30
0.0
 11
-12.84363160420395
 21
-8.0
 31
0.0
  0
LINE
  5
901
330
1F
100
AcDbEntity
  8
SK2
  6
CONTINUOUS
370
25
 62
7
100
AcDbLine
 10
-12.903227922582
 20
-7.516139612910024
 30
0.0
 11
-12.41936753549203
 21
-8.0
 31
0.0
  0
LINE
  5
902
330
1F
100
AcDbEntity
  8
SK2
  6
CONTINUOUS
370
25
 62
7
100
AcDbLine
 10
-12.83251724446335
 20
-7.16258622231674
 30
0.0
 11
-11.99510346678009
 21
-8.0
 31
0.0
  0
LINE
  5
903
330
1F
100
AcDbEntity
  8
SK2
  6
CONTINUOUS
370
25
 62
7
100
AcDbLine
 10
-12.7618065663447
 20
-6.809032831723464
 30
0.0
 11
-11.57083939806816
 21
-8.0
 31
0.0
  0
LINE
  5
904
330
1F
100
AcDbEntity
  8
SK2
  6
CONTINUOUS
370
25
 62
7
100
AcDbLine
 10
-12.69109588822604
 20
-6.455479441130187
 30
0.0
 11
-11.14657532935623
 21
-8.0
 31
0.0
  0
LINE
  5
905
330
1F
100
AcDbEntity
  8
SK2
  6
CONTINUOUS
370
25
 62
7
100
AcDbLine
 10
-12.62038521010738
 20
-6.101926050536918
 30
0.0
 11
-11.06942218483892
 21
-7.652889075805376
 31
0.0
  0
LINE
  5
906
330
1F
100
AcDbEntity
  8
SK2
  6
CONTINUOUS
370
25
 62
7
100
AcDbLine
 10
-12.54967453198873
 20
-5.748372659943634
 30
0.0
 11
-11.17548820201691
 21
-7.122558989915454
 31
0.0
  0
LINE
  5
907
330
1F
100
AcDbEntity
  8
SK2
  6
CONTINUOUS
370
25
 62
7
100
AcDbLine
 10
-12.47896385387008
 20
-5.394819269350357
 30
0.0
 11
-11.28155421919489
 21
-6.592228904025546
 31
0.0
  0
LINE
  5
908
330
1F
100
AcDbEntity
  8
SK2
  6
CONTINUOUS
370
25
 62
7
100
AcDbLine
 10
-12.40825317575142
 20
-5.041265878757081
 30
0.0
 11
-11.38762023637287
 21
-6.061898818135631
 31
0.0
  0
LINE
  5
909
330
1F
100
AcDbEntity
  8
SK2
  6
CONTINUOUS
370
25
 62
7
100
AcDbLine
 10
-12.33754249763277
 20
-4.687712488163804
 30
0.0
 11
-11.49368625355085
 21
-5.531568732245724
 31
0.0
  0
LINE
  5
90A
330
1F
100
AcDbEntity
  8
SK2
  6
CONTINUOUS
370
25
 62
7
100
AcDbLine
 10
-12.26683181951412
 20
-4.33415909757052
 30
0.0
 11
-11.59975227072884
 21
-5.001238646355802
 31
0.0
  0
LINE
  5
90B
330
1F
100
AcDbEntity
  8
SK2
  6
CONTINUOUS
370
25
 62
7
100
AcDbLine
 10
-12.19612114139545
 20
-3.980605706977265
 30
0.0
 11
-11.70581828790682
 21
-4.470908560465894
 31
0.0
  0
LINE
  5
90C
330
1F
100
AcDbEntity
  8
SK2
  6
CONTINUOUS
370
25
 62
7
100
AcDbLine
 10
-12.12541046327679
 20
-3.627052316383995
 30
0.0
 11
-11.81188430508481
 21
-3.940578474575972
 31
0.0
  0
LINE
  5
90D
330
1F
100
AcDbEntity
  8
SK2
  6
CONTINUOUS
370
25
 62
7
100
AcDbLine
 10
-12.05469978515814
 20
-3.273498925790712
 30
0.0
 11
-11.9179503222628
 21
-3.41024838868605
 31
0.0
  0
LINE
  5
90E
330
1F
100
AcDbEntity
  8
SK2
  6
CONTINUOUS
370
25
 62
7
100
AcDbLine
 10
-12.0
 20
3.0
 30
0.0
 11
-13.0
 21
8.0
 31
0.0
  0
LINE
  5
90F
330
1F
100
AcDbEntity
  8
SK2
  6
CONTINUOUS
370
25
 62
7
100
AcDbLine
 10
-13.0
 20
8.0
 30
0.0
 11
-11.0
 21
8.0
 31
0.0
  0
LINE
  5
910
330
1F
100
AcDbEntity
  8
SK2
  6
CONTINUOUS
370
25
 62
7
100
AcDbLine
 10
-11.0
 20
8.0
 30
0.0
 11
-12.0
 21
3.0
 31
0.0
  0
LINE
  5
911
330
1F
100
AcDbEntity
  8
SK2
  6
CONTINUOUS
370
25
 62
7
100
AcDbLine
 10
-12.05353894806365
 20
3.267694740318241
 30
0.0
 11
-11.91969157790453
 21
3.401542110477358
 31
0.0
  0
LINE
  5
912
330
1F
100
AcDbEntity
  8
SK2
  6
CONTINUOUS
370
25
 62
7
100
AcDbLine
 10
-12.1242496261823
 20
3.621248130911518
 30
0.0
 11
-11.81362556072655
 21
3.931872196367266
 31
0.0
  0
LINE
  5
913
330
1F
100
AcDbEntity
  8
SK2
  6
CONTINUOUS
370
25
 62
7
100
AcDbLine
 10
-12.19496030430096
 20
3.974801521504794
 30
0.0
 11
-11.70755954354857
 21
4.462202282257181
 31
0.0
  0
LINE
  5
914
330
1F
100
AcDbEntity
  8
SK2
  6
CONTINUOUS
370
25
 62
7
100
AcDbLine
 10
-12.26567098241961
 20
4.328354912098078
 30
0.0
 11
-11.60149352637058
 21
4.992532368147103
 31
0.0
  0
LINE
  5
915
330
1F
100
AcDbEntity
  8
SK2
  6
CONTINUOUS
370
25
 62
7
100
AcDbLine
 10
-12.33638166053826
 20
4.681908302691355
 30
0.0
 11
-11.4954275091926
 21
5.522862454037011
 31
0.0
  0
LINE
  5
916
330
1F
100
AcDbEntity
  8
SK2
  6
CONTINUOUS
370
25
 62
7
100
AcDbLine
 10
-12.40709233865693
 20
5.03546169328461
 30
0.0
 11
-11.38936149201461
 21
6.053192539926933
 31
0.0
  0
LINE
  5
917
330
1F
100
AcDbEntity
  8
SK2
  6
CONTINUOUS
370
25
 62
7
100
AcDbLine
 10
-12.47780301677559
 20
5.389015083877879
 30
0.0
 11
-11.28329547483663
 21
6.58352262581684
 31
0.0
  0
LINE
  5
918
330
1F
100
AcDbEntity
  8
SK2
  6
CONTINUOUS
370
25
 62
7
100
AcDbLine
 10
-12.54851369489424
 20
5.742568474471163
 30
0.0
 11
-11.17722945765864
 21
7.113852711706762
 31
0.0
  0
LINE
  5
919
330
1F
100
AcDbEntity
  8
SK2
  6
CONTINUOUS
370
25
 62
7
100
AcDbLine
 10
-12.61922437301289
 20
6.09612186506444
 30
0.0
 11
-11.07116344048066
 21
7.64418279759667
 31
0.0
  0
LINE
  5
91A
330
1F
100
AcDbEntity
  8
SK2
  6
CONTINUOUS
370
25
 62
7
100
AcDbLine
 10
-12.68993505113155
 20
6.449675255657716
 30
0.0
 11
-11.13961030678927
 21
8.0
 31
0.0
  0
LINE
  5
91B
330
1F
100
AcDbEntity
  8
SK2
  6
CONTINUOUS
370
25
 62
7
100
AcDbLine
 10
-12.7606457292502
 20
6.803228646251
 30
0.0
 11
-11.5638743755012
 21
8.0
 31
0.0
  0
LINE
  5
91C
330
1F
100
AcDbEntity
  8
SK2
  6
CONTINUOUS
370
25
 62
7
100
AcDbLine
 10
-12.83135640736885
 20
7.156782036844284
 30
0.0
 11
-11.98813844421313
 21
8.0
 31
0.0
  0
LINE
  5
91D
330
1F
100
AcDbEntity
  8
SK2
  6
CONTINUOUS
370
25
 62
7
100
AcDbLine
 10
-12.90206708548752
 20
7.510335427437539
 30
0.0
 11
-12.41240251292506
 21
8.0
 31
0.0
  0
LINE
  5
91E
330
1F
100
AcDbEntity
  8
SK2
  6
CONTINUOUS
370
25
 62
7
100
AcDbLine
 10
-12.97277776360617
 20
7.863888818030823
 30
0.0
 11
-12.83666658163699
 21
8.0
 31
0.0
  0
LINE
  5
91F
330
1F
100
AcDbEntity
  8
SK2
  6
CONTINUOUS
370
25
 62
7
100
AcDbLine
 10
-12.09957370385543
 20
3.497868519277141
 30
0.0
 11
-11.93361753076305
 21
3.331912346184765
 31
0.0
  0
LINE
  5
920
330
1F
100
AcDbEntity
  8
SK2
  6
CONTINUOUS
370
25
 62
7
100
AcDbLine
 10
-12.20563972103341
 20
4.028198605167063
 30
0.0
 11
-11.86290685264439
 21
3.685465736778042
 31
0.0
  0
LINE
  5
921
330
1F
100
AcDbEntity
  8
SK2
  6
CONTINUOUS
370
25
 62
7
100
AcDbLine
 10
-12.31170573821139
 20
4.558528691056971
 30
0.0
 11
-11.79219617452574
 21
4.039019127371319
 31
0.0
  0
LINE
  5
922
330
1F
100
AcDbEntity
  8
SK2
  6
CONTINUOUS
370
25
 62
7
100
AcDbLine
 10
-12.41777175538938
 20
5.088858776946893
 30
0.0
 11
-11.72148549640708
 21
4.392572517964588
 31
0.0
  0
LINE
  5
923
330
1F
100
AcDbEntity
  8
SK2
  6
CONTINUOUS
370
25
 62
7
100
AcDbLine
 10
-12.52383777256736
 20
5.619188862836801
 30
0.0
 11
-11.65077481828843
 21
4.746125908557865
 31
0.0
  0
LINE
  5
924
330
1F
100
AcDbEntity
  8
SK2
  6
CONTINUOUS
370
25
 62
7
100
AcDbLine
 10
-12.62990378974534
 20
6.149518948726715
 30
0.0
 11
-11.58006414016977
 21
5.099679299151148
 31
0.0
  0
LINE
  5
925
330
1F
100
AcDbEntity
  8
SK2
  6
CONTINUOUS
370
25
 62
7
100
AcDbLine
 10
-12.73596980692333
 20
6.67984903461663
 30
0.0
 11
-11.50935346205112
 21
5.453232689744418
 31
0.0
  0
LINE
  5
926
330
1F
100
AcDbEntity
  8
SK2
  6
CONTINUOUS
370
25
 62
7
100
AcDbLine
 10
-12.84203582410131
 20
7.210179120506538
 30
0.0
 11
-11.43864278393247
 21
5.806786080337695
 31
0.0
  0
LINE
  5
927
330
1F
100
AcDbEntity
  8
SK2
  6
CONTINUOUS
370
25
 62
7
100
AcDbLine
 10
-12.94810184127928
 20
7.740509206396439
 30
0.0
 11
-11.36793210581381
 21
6.160339470930971
 31
0.0
  0
LINE
  5
928
330
1F
100
AcDbEntity
  8
SK2
  6
CONTINUOUS
370
25
 62
7
100
AcDbLine
 10
-12.78332856617091
 20
8.0
 30
0.0
 11
-11.29722142769516
 21
6.513892861524255
 31
0.0
  0
LINE
  5
929
330
1F
100
AcDbEntity
  8
SK2
  6
CONTINUOUS
370
25
 62
7
100
AcDbLine
 10
-12.35906449745898
 20
8.0
 30
0.0
 11
-11.22651074957651
 21
6.867446252117531
 31
0.0
  0
LINE
  5
92A
330
1F
100
AcDbEntity
  8
SK2
  6
CONTINUOUS
370
25
 62
7
100
AcDbLine
 10
-11.93480042874704
 20
8.0
 30
0.0
 11
-11.15580007145784
 21
7.220999642710801
 31
0.0
  0
LINE
  5
92B
330
1F
100
AcDbEntity
  8
SK2
  6
CONTINUOUS
370
25
 62
7
100
AcDbLine
 10
-11.51053636003511
 20
8.0
 30
0.0
 11
-11.08508939333919
 21
7.574553033304078
 31
0.0
  0
LINE
  5
92C
330
1F
100
AcDbEntity
  8
SK2
  6
CONTINUOUS
370
25
 62
7
100
AcDbLine
 10
-11.08627229132318
 20
8.0
 30
0.0
 11
-11.01437871522053
 21
7.928106423897354
 31
0.0
  0
TEXT
  5
92D
330
1F
100
AcDbEntity
  8
SK2
  6
CONTINUOUS
370
25
 62
7
100
AcDbText
 10
-13.5
 20
13.34583333333333
 30
0.0
 40
3.5
  1
6
 50
90.00000000000001
 72
     1
 11
-13.5
 21
14.5125
 31
0.0
100
AcDbText
  0
CIRCLE
  5
92E
330
1F
100
AcDbEntity
  8
SK2
  6
CONTINUOUS
370
25
 62
7
100
AcDbCircle
 10
-15.25
 20
11.1875
 30
0.0
 40
1.4
  0
LINE
  5
92F
330
1F
100
AcDbEntity
  8
SK2
  6
CONTINUOUS
370
25
 62
7
100
AcDbLine
 10
-13.85
 20
9.787500000000001
 30
0.0
 11
-16.65
 21
12.5875
 31
0.0
  0
LINE
  5
930
330
1F
100
AcDbEntity
  8
SK2
  6
CONTINUOUS
370
25
 62
7
100
AcDbLine
 10
0.0
 20
3.0
 30
0.0
 11
0.0
 21
16.00001
 31
0.0
  0
LINE
  5
931
330
1F
100
AcDbEntity
  8
SK2
  6
CONTINUOUS
370
25
 62
7
100
AcDbLine
 10
44.5
 20
16.00001
 30
0.0
 11
44.5
 21
3.0
 31
0.0
  0
LINE
  5
932
330
1F
100
AcDbEntity
  8
SK2
  6
CONTINUOUS
370
25
 62
7
100
AcDbLine
 10
0.0
 20
15.00001
 30
0.0
 11
44.5
 21
15.00001
 31
0.0
  0
LINE
  5
933
330
1F
100
AcDbEntity
  8
SK2
  6
CONTINUOUS
370
25
 62
7
100
AcDbLine
 10
0.0
 20
15.00001
 30
0.0
 11
5.0
 21
16.00001
 31
0.0
  0
LINE
  5
934
330
1F
100
AcDbEntity
  8
SK2
  6
CONTINUOUS
370
25
 62
7
100
AcDbLine
 10
5.0
 20
16.00001
 30
0.0
 11
5.0
 21
14.00001
 31
0.0
  0
LINE
  5
935
330
1F
100
AcDbEntity
  8
SK2
  6
CONTINUOUS
370
25
 62
7
100
AcDbLine
 10
5.0
 20
14.00001
 30
0.0
 11
0.0
 21
15.00001
 31
0.0
  0
LINE
  5
936
330
1F
100
AcDbEntity
  8
SK2
  6
CONTINUOUS
370
25
 62
7
100
AcDbLine
 10
4.682061061320923
 20
14.06359778773582
 30
0.0
 11
5.0
 21
14.38153672641489
 31
0.0
  0
LINE
  5
937
330
1F
100
AcDbEntity
  8
SK2
  6
CONTINUOUS
370
25
 62
7
100
AcDbLine
 10
4.328507670727653
 20
14.13430846585447
 30
0.0
 11
5.0
 21
14.80580079512682
 31
0.0
  0
LINE
  5
938
330
1F
100
AcDbEntity
  8
SK2
  6
CONTINUOUS
370
25
 62
7
100
AcDbLine
 10
3.974954280134376
 20
14.20501914397313
 30
0.0
 11
5.0
 21
15.23006486383875
 31
0.0
  0
LINE
  5
939
330
1F
100
AcDbEntity
  8
SK2
  6
CONTINUOUS
370
25
 62
7
100
AcDbLine
 10
3.6214008895411
 20
14.27572982209178
 30
0.0
 11
5.0
 21
15.65432893255068
 31
0.0
  0
LINE
  5
93A
330
1F
100
AcDbEntity
  8
SK2
  6
CONTINUOUS
370
25
 62
7
100
AcDbLine
 10
3.267847498947816
 20
14.34644050021043
 30
0.0
 11
4.901771248421724
 21
15.98036424968434
 31
0.0
  0
LINE
  5
93B
330
1F
100
AcDbEntity
  8
SK2
  6
CONTINUOUS
370
25
 62
7
100
AcDbLine
 10
2.914294108354547
 20
14.41715117832909
 30
0.0
 11
4.371441162531816
 21
15.87429823250636
 31
0.0
  0
LINE
  5
93C
330
1F
100
AcDbEntity
  8
SK2
  6
CONTINUOUS
370
25
 62
7
100
AcDbLine
 10
2.56074071776127
 20
14.48786185644774
 30
0.0
 11
3.841111076641909
 21
15.76823221532838
 31
0.0
  0
LINE
  5
93D
330
1F
100
AcDbEntity
  8
SK2
  6
CONTINUOUS
370
25
 62
7
100
AcDbLine
 10
2.207187327167993
 20
14.5585725345664
 30
0.0
 11
3.310780990751987
 21
15.66216619815039
 31
0.0
  0
LINE
  5
93E
330
1F
100
AcDbEntity
  8
SK2
  6
CONTINUOUS
370
25
 62
7
100
AcDbLine
 10
1.853633936574717
 20
14.62928321268506
 30
0.0
 11
2.780450904862072
 21
15.55610018097241
 31
0.0
  0
LINE
  5
93F
330
1F
100
AcDbEntity
  8
SK2
  6
CONTINUOUS
370
25
 62
7
100
AcDbLine
 10
1.50008054598144
 20
14.69999389080371
 30
0.0
 11
2.250120818972164
 21
15.45003416379443
 31
0.0
  0
LINE
  5
940
330
1F
100
AcDbEntity
  8
SK2
  6
CONTINUOUS
370
25
 62
7
100
AcDbLine
 10
1.146527155388171
 20
14.77070456892237
 30
0.0
 11
1.719790733082249
 21
15.34396814661645
 31
0.0
  0
LINE
  5
941
330
1F
100
AcDbEntity
  8
SK2
  6
CONTINUOUS
370
25
 62
7
100
AcDbLine
 10
0.7929737647948869
 20
14.84141524704102
 30
0.0
 11
1.189460647192334
 21
15.23790212943847
 31
0.0
  0
LINE
  5
942
330
1F
100
AcDbEntity
  8
SK2
  6
CONTINUOUS
370
25
 62
7
100
AcDbLine
 10
0.4394203742016103
 20
14.91212592515968
 30
0.0
 11
0.6591305613024119
 21
15.13183611226048
 31
0.0
  0
LINE
  5
943
330
1F
100
AcDbEntity
  8
SK2
  6
CONTINUOUS
370
25
 62
7
100
AcDbLine
 10
0.0858669836083337
 20
14.98283660327833
 30
0.0
 11
0.1288004754125041
 21
15.0257700950825
 31
0.0
  0
LINE
  5
944
330
1F
100
AcDbEntity
  8
SK2
  6
CONTINUOUS
370
25
 62
7
100
AcDbLine
 10
0.1793774157015307
 20
15.03588548314031
 30
0.0
 11
0.2690661235522924
 21
14.94619677528954
 31
0.0
  0
LINE
  5
945
330
1F
100
AcDbEntity
  8
SK2
  6
CONTINUOUS
370
25
 62
7
100
AcDbLine
 10
0.5329308062948073
 20
15.10659616125896
 30
0.0
 11
0.7993962094422002
 21
14.84013075811157
 31
0.0
  0
LINE
  5
946
330
1F
100
AcDbEntity
  8
SK2
  6
CONTINUOUS
370
25
 62
7
100
AcDbLine
 10
0.8864841968880839
 20
15.17730683937761
 30
0.0
 11
1.329726295332122
 21
14.73406474093358
 31
0.0
  0
LINE
  5
947
330
1F
100
AcDbEntity
  8
SK2
  6
CONTINUOUS
370
25
 62
7
100
AcDbLine
 10
1.240037587481353
 20
15.24801751749628
 30
0.0
 11
1.86005638122203
 21
14.6279987237556
 31
0.0
  0
LINE
  5
948
330
1F
100
AcDbEntity
  8
SK2
  6
CONTINUOUS
370
25
 62
7
100
AcDbLine
 10
1.593590978074637
 20
15.31872819561492
 30
0.0
 11
2.390386467111952
 21
14.52193270657761
 31
0.0
  0
LINE
  5
949
330
1F
100
AcDbEntity
  8
SK2
  6
CONTINUOUS
370
25
 62
7
100
AcDbLine
 10
1.947144368667914
 20
15.38943887373358
 30
0.0
 11
2.92071655300186
 21
14.41586668939963
 31
0.0
  0
LINE
  5
94A
330
1F
100
AcDbEntity
  8
SK2
  6
CONTINUOUS
370
25
 62
7
100
AcDbLine
 10
2.30069775926119
 20
15.46014955185223
 30
0.0
 11
3.451046638891782
 21
14.30980067222164
 31
0.0
  0
LINE
  5
94B
330
1F
100
AcDbEntity
  8
SK2
  6
CONTINUOUS
370
25
 62
7
100
AcDbLine
 10
2.65425114985446
 20
15.53086022997089
 30
0.0
 11
3.98137672478169
 21
14.20373465504366
 31
0.0
  0
LINE
  5
94C
330
1F
100
AcDbEntity
  8
SK2
  6
CONTINUOUS
370
25
 62
7
100
AcDbLine
 10
3.007804540447736
 20
15.60157090808954
 30
0.0
 11
4.511706810671605
 21
14.09766863786567
 31
0.0
  0
LINE
  5
94D
330
1F
100
AcDbEntity
  8
SK2
  6
CONTINUOUS
370
25
 62
7
100
AcDbLine
 10
3.361357931041006
 20
15.6722815862082
 30
0.0
 11
5.0
 21
14.03363951724921
 31
0.0
  0
LINE
  5
94E
330
1F
100
AcDbEntity
  8
SK2
  6
CONTINUOUS
370
25
 62
7
100
AcDbLine
 10
3.71491132163429
 20
15.74299226432685
 30
0.0
 11
5.0
 21
14.45790358596114
 31
0.0
  0
LINE
  5
94F
330
1F
100
AcDbEntity
  8
SK2
  6
CONTINUOUS
370
25
 62
7
100
AcDbLine
 10
4.068464712227566
 20
15.81370294244551
 30
0.0
 11
5.0
 21
14.88216765467307
 31
0.0
  0
LINE
  5
950
330
1F
100
AcDbEntity
  8
SK2
  6
CONTINUOUS
370
25
 62
7
100
AcDbLine
 10
4.422018102820836
 20
15.88441362056417
 30
0.0
 11
5.0
 21
15.306431723385
 31
0.0
  0
LINE
  5
951
330
1F
100
AcDbEntity
  8
SK2
  6
CONTINUOUS
370
25
 62
7
100
AcDbLine
 10
4.775571493414112
 20
15.95512429868282
 30
0.0
 11
5.0
 21
15.73069579209693
 31
0.0
  0
LINE
  5
952
330
1F
100
AcDbEntity
  8
SK2
  6
CONTINUOUS
370
25
 62
7
100
AcDbLine
 10
44.5
 20
15.00001
 30
0.0
 11
39.5
 21
14.00001
 31
0.0
  0
LINE
  5
953
330
1F
100
AcDbEntity
  8
SK2
  6
CONTINUOUS
370
25
 62
7
100
AcDbLine
 10
39.5
 20
14.00001
 30
0.0
 11
39.5
 21
16.00001
 31
0.0
  0
LINE
  5
954
330
1F
100
AcDbEntity
  8
SK2
  6
CONTINUOUS
370
25
 62
7
100
AcDbLine
 10
39.5
 20
16.00001
 30
0.0
 11
44.5
 21
15.00001
 31
0.0
  0
LINE
  5
955
330
1F
100
AcDbEntity
  8
SK2
  6
CONTINUOUS
370
25
 62
7
100
AcDbLine
 10
44.15812940796322
 20
14.93163588159264
 30
0.0
 11
44.27208627197548
 21
15.0455927456049
 31
0.0
  0
LINE
  5
956
330
1F
100
AcDbEntity
  8
SK2
  6
CONTINUOUS
370
25
 62
7
100
AcDbLine
 10
43.62779932207331
 20
14.82556986441466
 30
0.0
 11
43.91853288138221
 21
15.11630342372356
 31
0.0
  0
LINE
  5
957
330
1F
100
AcDbEntity
  8
SK2
  6
CONTINUOUS
370
25
 62
7
100
AcDbLine
 10
43.0974692361834
 20
14.71950384723668
 30
0.0
 11
43.56497949078894
 21
15.18701410184221
 31
0.0
  0
LINE
  5
958
330
1F
100
AcDbEntity
  8
SK2
  6
CONTINUOUS
370
25
 62
7
100
AcDbLine
 10
42.56713915029349
 20
14.6134378300587
 30
0.0
 11
43.21142610019566
 21
15.25772477996087
 31
0.0
  0
LINE
  5
959
330
1F
100
AcDbEntity
  8
SK2
  6
CONTINUOUS
370
25
 62
7
100
AcDbLine
 10
42.03680906440358
 20
14.50737181288072
 30
0.0
 11
42.85787270960239
 21
15.32843545807952
 31
0.0
  0
LINE
  5
95A
330
1F
100
AcDbEntity
  8
SK2
  6
CONTINUOUS
370
25
 62
7
100
AcDbLine
 10
41.50647897851367
 20
14.40130579570273
 30
0.0
 11
42.50431931900911
 21
15.39914613619818
 31
0.0
  0
LINE
  5
95B
330
1F
100
AcDbEntity
  8
SK2
  6
CONTINUOUS
370
25
 62
7
100
AcDbLine
 10
40.97614889262376
 20
14.29523977852475
 30
0.0
 11
42.15076592841584
 21
15.46985681431683
 31
0.0
  0
LINE
  5
95C
330
1F
100
AcDbEntity
  8
SK2
  6
CONTINUOUS
370
25
 62
7
100
AcDbLine
 10
40.44581880673385
 20
14.18917376134677
 30
0.0
 11
41.79721253782257
 21
15.54056749243549
 31
0.0
  0
LINE
  5
95D
330
1F
100
AcDbEntity
  8
SK2
  6
CONTINUOUS
370
25
 62
7
100
AcDbLine
 10
39.91548872084394
 20
14.08310774416879
 30
0.0
 11
41.44365914722929
 21
15.61127817055414
 31
0.0
  0
LINE
  5
95E
330
1F
100
AcDbEntity
  8
SK2
  6
CONTINUOUS
370
25
 62
7
100
AcDbLine
 10
39.5
 20
14.09188309203677
 30
0.0
 11
41.09010575663602
 21
15.68198884867279
 31
0.0
  0
LINE
  5
95F
330
1F
100
AcDbEntity
  8
SK2
  6
CONTINUOUS
370
25
 62
7
100
AcDbLine
 10
39.5
 20
14.5161471607487
 30
0.0
 11
40.73655236604274
 21
15.75269952679145
 31
0.0
  0
LINE
  5
960
330
1F
100
AcDbEntity
  8
SK2
  6
CONTINUOUS
370
25
 62
7
100
AcDbLine
 10
39.5
 20
14.94041122946063
 30
0.0
 11
40.38299897544947
 21
15.8234102049101
 31
0.0
  0
LINE
  5
961
330
1F
100
AcDbEntity
  8
SK2
  6
CONTINUOUS
370
25
 62
7
100
AcDbLine
 10
39.5
 20
15.36467529817256
 30
0.0
 11
40.02944558485621
 21
15.89412088302876
 31
0.0
  0
LINE
  5
962
330
1F
100
AcDbEntity
  8
SK2
  6
CONTINUOUS
370
25
 62
7
100
AcDbLine
 10
39.5
 20
15.78893936688448
 30
0.0
 11
39.67589219426293
 21
15.96483156114741
 31
0.0
  0
LINE
  5
963
330
1F
100
AcDbEntity
  8
SK2
  6
CONTINUOUS
370
25
 62
7
100
AcDbLine
 10
39.5
 20
14.3338095116624
 30
0.0
 11
39.77816625971867
 21
14.05564325194373
 31
0.0
  0
LINE
  5
964
330
1F
100
AcDbEntity
  8
SK2
  6
CONTINUOUS
370
25
 62
7
100
AcDbLine
 10
39.5
 20
14.75807358037433
 30
0.0
 11
40.13171965031194
 21
14.12635393006239
 31
0.0
  0
LINE
  5
965
330
1F
100
AcDbEntity
  8
SK2
  6
CONTINUOUS
370
25
 62
7
100
AcDbLine
 10
39.5
 20
15.18233764908626
 30
0.0
 11
40.48527304090521
 21
14.19706460818104
 31
0.0
  0
LINE
  5
966
330
1F
100
AcDbEntity
  8
SK2
  6
CONTINUOUS
370
25
 62
7
100
AcDbLine
 10
39.5
 20
15.60660171779818
 30
0.0
 11
40.83882643149849
 21
14.2677752862997
 31
0.0
  0
LINE
  5
967
330
1F
100
AcDbEntity
  8
SK2
  6
CONTINUOUS
370
25
 62
7
100
AcDbLine
 10
39.53856973313764
 20
15.99229605337247
 30
0.0
 11
41.19237982209176
 21
14.33848596441835
 31
0.0
  0
LINE
  5
968
330
1F
100
AcDbEntity
  8
SK2
  6
CONTINUOUS
370
25
 62
7
100
AcDbLine
 10
40.06889981902755
 20
15.88623003619449
 30
0.0
 11
41.54593321268504
 21
14.40919664253701
 31
0.0
  0
LINE
  5
969
330
1F
100
AcDbEntity
  8
SK2
  6
CONTINUOUS
370
25
 62
7
100
AcDbLine
 10
40.59922990491746
 20
15.78016401901651
 30
0.0
 11
41.89948660327831
 21
14.47990732065566
 31
0.0
  0
LINE
  5
96A
330
1F
100
AcDbEntity
  8
SK2
  6
CONTINUOUS
370
25
 62
7
100
AcDbLine
 10
41.12955999080737
 20
15.67409800183852
 30
0.0
 11
42.25303999387158
 21
14.55061799877432
 31
0.0
  0
LINE
  5
96B
330
1F
100
AcDbEntity
  8
SK2
  6
CONTINUOUS
370
25
 62
7
100
AcDbLine
 10
41.65989007669728
 20
15.56803198466054
 30
0.0
 11
42.60659338446486
 21
14.62132867689297
 31
0.0
  0
LINE
  5
96C
330
1F
100
AcDbEntity
  8
SK2
  6
CONTINUOUS
370
25
 62
7
100
AcDbLine
 10
42.19022016258719
 20
15.46196596748256
 30
0.0
 11
42.96014677505813
 21
14.69203935501162
 31
0.0
  0
LINE
  5
96D
330
1F
100
AcDbEntity
  8
SK2
  6
CONTINUOUS
370
25
 62
7
100
AcDbLine
 10
42.7205502484771
 20
15.35589995030458
 30
0.0
 11
43.3137001656514
 21
14.76275003313028
 31
0.0
  0
LINE
  5
96E
330
1F
100
AcDbEntity
  8
SK2
  6
CONTINUOUS
370
25
 62
7
100
AcDbLine
 10
43.25088033436701
 20
15.2498339331266
 30
0.0
 11
43.66725355624467
 21
14.83346071124894
 31
0.0
  0
LINE
  5
96F
330
1F
100
AcDbEntity
  8
SK2
  6
CONTINUOUS
370
25
 62
7
100
AcDbLine
 10
43.78121042025693
 20
15.14376791594862
 30
0.0
 11
44.02080694683795
 21
14.90417138936759
 31
0.0
  0
LINE
  5
970
330
1F
100
AcDbEntity
  8
SK2
  6
CONTINUOUS
370
25
 62
7
100
AcDbLine
 10
44.31154050614683
 20
15.03770189877063
 30
0.0
 11
44.37436033743123
 21
14.97488206748625
 31
0.0
  0
TEXT
  5
971
330
1F
100
AcDbEntity
  8
SK2
  6
CONTINUOUS
370
25
 62
7
100
AcDbText
 10
17.0
 20
16.50001
 30
0.0
 40
3.5
  1
44.5
 72
     1
 11
22.25
 21
16.50001
 31
0.0
100
AcDbText
  0
LINE
  5
972
330
1F
100
AcDbEntity
  8
2
  6
CONTINUOUS
370
25
 62
7
100
AcDbLine
 10
60.0
 20
-1.5
 30
0.0
 11
80.0
 21
-1.500000000000002
 31
0.0
  0
LINE
  5
973
330
1F
100
AcDbEntity
  8
2
  6
CONTINUOUS
370
25
 62
7
100
AcDbLine
 10
80.0
 20
1.499999999999998
 30
0.0
 11
60.0
 21
1.5
 31
0.0
  0
LINE
  5
974
330
1F
100
AcDbEntity
  8
2
  6
CONTINUOUS
370
25
 62
7
100
AcDbLine
 10
79.0
 20
-8.500000000000002
 30
0.0
 11
79.0
 21
14.975
 31
0.0
  0
LINE
  5
975
330
1F
100
AcDbEntity
  8
2
  6
CONTINUOUS
370
25
 62
7
100
AcDbLine
 10
79.0
 20
-1.500000000000002
 30
0.0
 11
80.0
 21
-6.500000000000002
 31
0.0
  0
LINE
  5
976
330
1F
100
AcDbEntity
  8
2
  6
CONTINUOUS
370
25
 62
7
100
AcDbLine
 10
80.0
 20
-6.500000000000002
 30
0.0
 11
78.0
 21
-6.500000000000002
 31
0.0
  0
LINE
  5
977
330
1F
100
AcDbEntity
  8
2
  6
CONTINUOUS
370
25
 62
7
100
AcDbLine
 10
78.0
 20
-6.500000000000002
 30
0.0
 11
79.0
 21
-1.500000000000002
 31
0.0
  0
LINE
  5
978
330
1F
100
AcDbEntity
  8
2
  6
CONTINUOUS
370
25
 62
7
100
AcDbLine
 10
79.67815538335998
 20
-6.5
 30
0.0
 11
79.94635923056
 21
-6.231796152799987
 31
0.0
  0
LINE
  5
979
330
1F
100
AcDbEntity
  8
2
  6
CONTINUOUS
370
25
 62
7
100
AcDbLine
 10
79.25389131464806
 20
-6.5
 30
0.0
 11
79.87564855244133
 21
-5.878242762206717
 31
0.0
  0
LINE
  5
97A
330
1F
100
AcDbEntity
  8
2
  6
CONTINUOUS
370
25
 62
7
100
AcDbLine
 10
78.82962724593614
 20
-6.5
 30
0.0
 11
79.80493787432269
 21
-5.524689371613441
 31
0.0
  0
LINE
  5
97B
330
1F
100
AcDbEntity
  8
2
  6
CONTINUOUS
370
25
 62
7
100
AcDbLine
 10
78.40536317722419
 20
-6.5
 30
0.0
 11
79.73422719620403
 21
-5.171135981020164
 31
0.0
  0
LINE
  5
97C
330
1F
100
AcDbEntity
  8
2
  6
CONTINUOUS
370
25
 62
7
100
AcDbLine
 10
78.00472522287194
 20
-6.476373885640342
 30
0.0
 11
79.66351651808537
 21
-4.817582590426902
 31
0.0
  0
LINE
  5
97D
330
1F
100
AcDbEntity
  8
2
  6
CONTINUOUS
370
25
 62
7
100
AcDbLine
 10
78.1107912400499
 20
-5.946043799750427
 30
0.0
 11
79.59280583996673
 21
-4.464029199833611
 31
0.0
  0
LINE
  5
97E
330
1F
100
AcDbEntity
  8
2
  6
CONTINUOUS
370
25
 62
7
100
AcDbLine
 10
78.2168572572279
 20
-5.415713713860519
 30
0.0
 11
79.52209516184807
 21
-4.110475809240334
 31
0.0
  0
LINE
  5
97F
330
1F
100
AcDbEntity
  8
2
  6
CONTINUOUS
370
25
 62
7
100
AcDbLine
 10
78.32292327440587
 20
-4.885383627970612
 30
0.0
 11
79.45138448372941
 21
-3.756922418647065
 31
0.0
  0
LINE
  5
980
330
1F
100
AcDbEntity
  8
2
  6
CONTINUOUS
370
25
 62
7
100
AcDbLine
 10
78.42898929158386
 20
-4.35505354208069
 30
0.0
 11
79.38067380561075
 21
-3.403369028053788
 31
0.0
  0
LINE
  5
981
330
1F
100
AcDbEntity
  8
2
  6
CONTINUOUS
370
25
 62
7
100
AcDbLine
 10
78.53505530876184
 20
-3.824723456190782
 30
0.0
 11
79.3099631274921
 21
-3.049815637460512
 31
0.0
  0
LINE
  5
982
330
1F
100
AcDbEntity
  8
2
  6
CONTINUOUS
370
25
 62
7
100
AcDbLine
 10
78.64112132593982
 20
-3.294393370300867
 30
0.0
 11
79.23925244937345
 21
-2.696262246867235
 31
0.0
  0
LINE
  5
983
330
1F
100
AcDbEntity
  8
2
  6
CONTINUOUS
370
25
 62
7
100
AcDbLine
 10
78.74718734311782
 20
-2.764063284410945
 30
0.0
 11
79.1685417712548
 21
-2.342708856273958
 31
0.0
  0
LINE
  5
984
330
1F
100
AcDbEntity
  8
2
  6
CONTINUOUS
370
25
 62
7
100
AcDbLine
 10
78.8532533602958
 20
-2.23373319852103
 30
0.0
 11
79.09783109313614
 21
-1.989155465680689
 31
0.0
  0
LINE
  5
985
330
1F
100
AcDbEntity
  8
2
  6
CONTINUOUS
370
25
 62
7
100
AcDbLine
 10
78.95931937747378
 20
-1.703403112631115
 30
0.0
 11
79.02712041501748
 21
-1.635602075087419
 31
0.0
  0
LINE
  5
986
330
1F
100
AcDbEntity
  8
2
  6
CONTINUOUS
370
25
 62
7
100
AcDbLine
 10
78.0254833995939
 20
-6.372583002030503
 30
0.0
 11
78.1529003975634
 21
-6.5
 31
0.0
  0
LINE
  5
987
330
1F
100
AcDbEntity
  8
2
  6
CONTINUOUS
370
25
 62
7
100
AcDbLine
 10
78.09619407771255
 20
-6.019029611437226
 30
0.0
 11
78.57716446627532
 21
-6.5
 31
0.0
  0
LINE
  5
988
330
1F
100
AcDbEntity
  8
2
  6
CONTINUOUS
370
25
 62
7
100
AcDbLine
 10
78.16690475583121
 20
-5.665476220843949
 30
0.0
 11
79.00142853498726
 21
-6.5
 31
0.0
  0
LINE
  5
989
330
1F
100
AcDbEntity
  8
2
  6
CONTINUOUS
370
25
 62
7
100
AcDbLine
 10
78.23761543394986
 20
-5.311922830250673
 30
0.0
 11
79.42569260369919
 21
-6.5
 31
0.0
  0
LINE
  5
98A
330
1F
100
AcDbEntity
  8
2
  6
CONTINUOUS
370
25
 62
7
100
AcDbLine
 10
78.30832611206853
 20
-4.958369439657407
 30
0.0
 11
79.84995667241112
 21
-6.500000000000004
 31
0.0
  0
LINE
  5
98B
330
1F
100
AcDbEntity
  8
2
  6
CONTINUOUS
370
25
 62
7
100
AcDbLine
 10
78.37903679018717
 20
-4.60481604906413
 30
0.0
 11
79.93144481471924
 21
-6.157224073596193
 31
0.0
  0
LINE
  5
98C
330
1F
100
AcDbEntity
  8
2
  6
CONTINUOUS
370
25
 62
7
100
AcDbLine
 10
78.44974746830582
 20
-4.251262658470843
 30
0.0
 11
79.82537879754126
 21
-5.626893987706282
 31
0.0
  0
LINE
  5
98D
330
1F
100
AcDbEntity
  8
2
  6
CONTINUOUS
370
25
 62
7
100
AcDbLine
 10
78.52045814642449
 20
-3.897709267877584
 30
0.0
 11
79.71931278036327
 21
-5.096563901816356
 31
0.0
  0
LINE
  5
98E
330
1F
100
AcDbEntity
  8
2
  6
CONTINUOUS
370
25
 62
7
100
AcDbLine
 10
78.59116882454313
 20
-3.544155877284307
 30
0.0
 11
79.61324676318529
 21
-4.566233815926456
 31
0.0
  0
LINE
  5
98F
330
1F
100
AcDbEntity
  8
2
  6
CONTINUOUS
370
25
 62
7
100
AcDbLine
 10
78.66187950266179
 20
-3.190602486691027
 30
0.0
 11
79.50718074600732
 21
-4.035903730036544
 31
0.0
  0
LINE
  5
990
330
1F
100
AcDbEntity
  8
2
  6
CONTINUOUS
370
25
 62
7
100
AcDbLine
 10
78.73259018078045
 20
-2.837049096097761
 30
0.0
 11
79.40111472882933
 21
-3.505573644146626
 31
0.0
  0
LINE
  5
991
330
1F
100
AcDbEntity
  8
2
  6
CONTINUOUS
370
25
 62
7
100
AcDbLine
 10
78.8033008588991
 20
-2.483495705504488
 30
0.0
 11
79.29504871165133
 21
-2.975243558256722
 31
0.0
  0
LINE
  5
992
330
1F
100
AcDbEntity
  8
2
  6
CONTINUOUS
370
25
 62
7
100
AcDbLine
 10
78.87401153701776
 20
-2.129942314911212
 30
0.0
 11
79.18898269447337
 21
-2.444913472366814
 31
0.0
  0
LINE
  5
993
330
1F
100
AcDbEntity
  8
2
  6
CONTINUOUS
370
25
 62
7
100
AcDbLine
 10
78.94472221513641
 20
-1.776388924317928
 30
0.0
 11
79.08291667729537
 21
-1.914583386476899
 31
0.0
  0
LINE
  5
994
330
1F
100
AcDbEntity
  8
2
  6
CONTINUOUS
370
25
 62
7
100
AcDbLine
 10
79.0
 20
1.499999999999998
 30
0.0
 11
78.0
 21
6.499999999999998
 31
0.0
  0
LINE
  5
995
330
1F
100
AcDbEntity
  8
2
  6
CONTINUOUS
370
25
 62
7
100
AcDbLine
 10
78.0
 20
6.499999999999998
 30
0.0
 11
80.0
 21
6.499999999999998
 31
0.0
  0
LINE
  5
996
330
1F
100
AcDbEntity
  8
2
  6
CONTINUOUS
370
25
 62
7
100
AcDbLine
 10
80.0
 20
6.499999999999998
 30
0.0
 11
79.0
 21
1.499999999999998
 31
0.0
  0
LINE
  5
997
330
1F
100
AcDbEntity
  8
2
  6
CONTINUOUS
370
25
 62
7
100
AcDbLine
 10
78.98177409191047
 20
1.591129540447682
 30
0.0
 11
79.0273388621343
 21
1.636694310671515
 31
0.0
  0
LINE
  5
998
330
1F
100
AcDbEntity
  8
2
  6
CONTINUOUS
370
25
 62
7
100
AcDbLine
 10
78.91106341379182
 20
1.944682931040965
 30
0.0
 11
79.13340487931228
 21
2.167024396561438
 31
0.0
  0
LINE
  5
999
330
1F
100
AcDbEntity
  8
2
  6
CONTINUOUS
370
25
 62
7
100
AcDbLine
 10
78.84035273567315
 20
2.298236321634235
 30
0.0
 11
79.23947089649027
 21
2.697354482451345
 31
0.0
  0
LINE
  5
99A
330
1F
100
AcDbEntity
  8
2
  6
CONTINUOUS
370
25
 62
7
100
AcDbLine
 10
78.7696420575545
 20
2.651789712227501
 30
0.0
 11
79.34553691366824
 21
3.22768456834125
 31
0.0
  0
LINE
  5
99B
330
1F
100
AcDbEntity
  8
2
  6
CONTINUOUS
370
25
 62
7
100
AcDbLine
 10
78.69893137943583
 20
3.005343102820774
 30
0.0
 11
79.45160293084624
 21
3.758014654231168
 31
0.0
  0
LINE
  5
99C
330
1F
100
AcDbEntity
  8
2
  6
CONTINUOUS
370
25
 62
7
100
AcDbLine
 10
78.62822070131719
 20
3.358896493414054
 30
0.0
 11
79.55766894802422
 21
4.288344740121087
 31
0.0
  0
LINE
  5
99D
330
1F
100
AcDbEntity
  8
2
  6
CONTINUOUS
370
25
 62
7
100
AcDbLine
 10
78.55751002319853
 20
3.712449884007324
 30
0.0
 11
79.6637349652022
 21
4.818674826010994
 31
0.0
  0
LINE
  5
99E
330
1F
100
AcDbEntity
  8
2
  6
CONTINUOUS
370
25
 62
7
100
AcDbLine
 10
78.48679934507987
 20
4.066003274600604
 30
0.0
 11
79.76980098238019
 21
5.349004911900913
 31
0.0
  0
LINE
  5
99F
330
1F
100
AcDbEntity
  8
2
  6
CONTINUOUS
370
25
 62
7
100
AcDbLine
 10
78.41608866696123
 20
4.419556665193873
 30
0.0
 11
79.87586699955817
 21
5.879334997790828
 31
0.0
  0
LINE
  5
9A0
330
1F
100
AcDbEntity
  8
2
  6
CONTINUOUS
370
25
 62
7
100
AcDbLine
 10
78.34537798884256
 20
4.773110055787146
 30
0.0
 11
79.98193301673615
 21
6.409665083680739
 31
0.0
  0
LINE
  5
9A1
330
1F
100
AcDbEntity
  8
2
  6
CONTINUOUS
370
25
 62
7
100
AcDbLine
 10
78.27466731072391
 20
5.126663446380423
 30
0.0
 11
79.64800386434348
 21
6.499999999999996
 31
0.0
  0
LINE
  5
9A2
330
1F
100
AcDbEntity
  8
2
  6
CONTINUOUS
370
25
 62
7
100
AcDbLine
 10
78.20395663260526
 20
5.480216836973696
 30
0.0
 11
79.22373979563156
 21
6.5
 31
0.0
  0
LINE
  5
9A3
330
1F
100
AcDbEntity
  8
2
  6
CONTINUOUS
370
25
 62
7
100
AcDbLine
 10
78.1332459544866
 20
5.833770227566976
 30
0.0
 11
78.79947572691961
 21
6.499999999999996
 31
0.0
  0
LINE
  5
9A4
330
1F
100
AcDbEntity
  8
2
  6
CONTINUOUS
370
25
 62
7
100
AcDbLine
 10
78.06253527636795
 20
6.187323618160249
 30
0.0
 11
78.37521165820769
 21
6.5
 31
0.0
  0
LINE
  5
9A5
330
1F
100
AcDbEntity
  8
2
  6
CONTINUOUS
370
25
 62
7
100
AcDbLine
 10
78.98438853987153
 20
1.578057300642385
 30
0.0
 11
79.01040764008565
 21
1.552038200428257
 31
0.0
  0
LINE
  5
9A6
330
1F
100
AcDbEntity
  8
2
  6
CONTINUOUS
370
25
 62
7
100
AcDbLine
 10
78.87832252269354
 20
2.108387386532293
 30
0.0
 11
79.0811183182043
 21
1.905591591021533
 31
0.0
  0
LINE
  5
9A7
330
1F
100
AcDbEntity
  8
2
  6
CONTINUOUS
370
25
 62
7
100
AcDbLine
 10
78.77225650551556
 20
2.638717472422208
 30
0.0
 11
79.15182899632296
 21
2.25914498161481
 31
0.0
  0
LINE
  5
9A8
330
1F
100
AcDbEntity
  8
2
  6
CONTINUOUS
370
25
 62
7
100
AcDbLine
 10
78.66619048833758
 20
3.169047558312108
 30
0.0
 11
79.2225396744416
 21
2.612698372208087
 31
0.0
  0
LINE
  5
9A9
330
1F
100
AcDbEntity
  8
2
  6
CONTINUOUS
370
25
 62
7
100
AcDbLine
 10
78.5601244711596
 20
3.699377644202023
 30
0.0
 11
79.29325035256028
 21
2.966251762801349
 31
0.0
  0
LINE
  5
9AA
330
1F
100
AcDbEntity
  8
2
  6
CONTINUOUS
370
25
 62
7
100
AcDbLine
 10
78.45405845398162
 20
4.229707730091938
 30
0.0
 11
79.36396103067892
 21
3.319805153394633
 31
0.0
  0
LINE
  5
9AB
330
1F
100
AcDbEntity
  8
2
  6
CONTINUOUS
370
25
 62
7
100
AcDbLine
 10
78.34799243680362
 20
4.760037815981853
 30
0.0
 11
79.43467170879758
 21
3.673358543987902
 31
0.0
  0
LINE
  5
9AC
330
1F
100
AcDbEntity
  8
2
  6
CONTINUOUS
370
25
 62
7
100
AcDbLine
 10
78.24192641962566
 20
5.290367901871754
 30
0.0
 11
79.50538238691624
 21
4.026911934581172
 31
0.0
  0
LINE
  5
9AD
330
1F
100
AcDbEntity
  8
2
  6
CONTINUOUS
370
25
 62
7
100
AcDbLine
 10
78.13586040244766
 20
5.820697987761669
 30
0.0
 11
79.57609306503488
 21
4.380465325174455
 31
0.0
  0
LINE
  5
9AE
330
1F
100
AcDbEntity
  8
2
  6
CONTINUOUS
370
25
 62
7
100
AcDbLine
 10
78.0297943852697
 20
6.351028073651577
 30
0.0
 11
79.64680374315355
 21
4.734018715767725
 31
0.0
  0
LINE
  5
9AF
330
1F
100
AcDbEntity
  8
2
  6
CONTINUOUS
370
25
 62
7
100
AcDbLine
 10
78.3050865276332
 20
6.5
 30
0.0
 11
79.7175144212722
 21
5.087572106360994
 31
0.0
  0
LINE
  5
9B0
330
1F
100
AcDbEntity
  8
2
  6
CONTINUOUS
370
25
 62
7
100
AcDbLine
 10
78.72935059634511
 20
6.5
 30
0.0
 11
79.78822509939084
 21
5.441125496954278
 31
0.0
  0
LINE
  5
9B1
330
1F
100
AcDbEntity
  8
2
  6
CONTINUOUS
370
25
 62
7
100
AcDbLine
 10
79.15361466505705
 20
6.5
 30
0.0
 11
79.85893577750952
 21
5.794678887547548
 31
0.0
  0
LINE
  5
9B2
330
1F
100
AcDbEntity
  8
2
  6
CONTINUOUS
370
25
 62
7
100
AcDbLine
 10
79.57787873376898
 20
6.5
 30
0.0
 11
79.92964645562816
 21
6.148232278140817
 31
0.0
  0
TEXT
  5
9B3
330
1F
100
AcDbEntity
  8
2
  6
CONTINUOUS
370
25
 62
7
100
AcDbText
 10
77.5
 20
11.84583333333333
 30
0.0
 40
3.5
  1
3
 50
90.00000000000001
 72
     1
 11
77.5
 21
13.0125
 31
0.0
100
AcDbText
  0
CIRCLE
  5
9B4
330
1F
100
AcDbEntity
  8
2
  6
CONTINUOUS
370
25
 62
7
100
AcDbCircle
 10
75.75
 20
9.687499999999998
 30
0.0
 40
1.4
  0
LINE
  5
9B5
330
1F
100
AcDbEntity
  8
2
  6
CONTINUOUS
370
25
 62
7
100
AcDbLine
 10
77.15
 20
8.2875
 30
0.0
 11
74.35
 21
11.0875
 31
0.0
  0
LINE
  5
9B6
330
1F
100
AcDbEntity
  8
2
  6
CONTINUOUS
370
25
 62
7
100
AcDbLine
 10
52.0
 20
-1.5
 30
0.0
 11
52.0
 21
-14.5
 31
0.0
  0
LINE
  5
9B7
330
1F
100
AcDbEntity
  8
2
  6
CONTINUOUS
370
25
 62
7
100
AcDbLine
 10
60.0
 20
-14.5
 30
0.0
 11
60.0
 21
-1.5
 31
0.0
  0
LINE
  5
9B8
330
1F
100
AcDbEntity
  8
2
  6
CONTINUOUS
370
25
 62
7
100
AcDbLine
 10
45.0
 20
-13.5
 30
0.0
 11
67.0
 21
-13.5
 31
0.0
  0
LINE
  5
9B9
330
1F
100
AcDbEntity
  8
2
  6
CONTINUOUS
370
25
 62
7
100
AcDbLine
 10
52.0
 20
-13.5
 30
0.0
 11
47.0
 21
-14.5
 31
0.0
  0
LINE
  5
9BA
330
1F
100
AcDbEntity
  8
2
  6
CONTINUOUS
370
25
 62
7
100
AcDbLine
 10
47.0
 20
-14.5
 30
0.0
 11
47.0
 21
-12.5
 31
0.0
  0
LINE
  5
9BB
330
1F
100
AcDbEntity
  8
2
  6
CONTINUOUS
370
25
 62
7
100
AcDbLine
 10
47.0
 20
-12.5
 30
0.0
 11
52.0
 21
-13.5
 31
0.0
  0
LINE
  5
9BC
330
1F
100
AcDbEntity
  8
2
  6
CONTINUOUS
370
25
 62
7
100
AcDbLine
 10
51.71254809424595
 20
-13.55749038115081
 30
0.0
 11
51.80836539616396
 21
-13.46167307923279
 31
0.0
  0
LINE
  5
9BD
330
1F
100
AcDbEntity
  8
2
  6
CONTINUOUS
370
25
 62
7
100
AcDbLine
 10
51.18221800835604
 20
-13.66355639832879
 30
0.0
 11
51.45481200557069
 21
-13.39096240111414
 31
0.0
  0
LINE
  5
9BE
330
1F
100
AcDbEntity
  8
2
  6
CONTINUOUS
370
25
 62
7
100
AcDbLine
 10
50.65188792246613
 20
-13.76962241550677
 30
0.0
 11
51.10125861497742
 21
-13.32025172299548
 31
0.0
  0
LINE
  5
9BF
330
1F
100
AcDbEntity
  8
2
  6
CONTINUOUS
370
25
 62
7
100
AcDbLine
 10
50.12155783657622
 20
-13.87568843268476
 30
0.0
 11
50.74770522438415
 21
-13.24954104487683
 31
0.0
  0
LINE
  5
9C0
330
1F
100
AcDbEntity
  8
2
  6
CONTINUOUS
370
25
 62
7
100
AcDbLine
 10
49.59122775068631
 20
-13.98175444986274
 30
0.0
 11
50.39415183379087
 21
-13.17883036675818
 31
0.0
  0
LINE
  5
9C1
330
1F
100
AcDbEntity
  8
2
  6
CONTINUOUS
370
25
 62
7
100
AcDbLine
 10
49.0608976647964
 20
-14.08782046704072
 30
0.0
 11
50.0405984431976
 21
-13.10811968863952
 31
0.0
  0
LINE
  5
9C2
330
1F
100
AcDbEntity
  8
2
  6
CONTINUOUS
370
25
 62
7
100
AcDbLine
 10
48.53056757890648
 20
-14.1938864842187
 30
0.0
 11
49.68704505260433
 21
-13.03740901052087
 31
0.0
  0
LINE
  5
9C3
330
1F
100
AcDbEntity
  8
2
  6
CONTINUOUS
370
25
 62
7
100
AcDbLine
 10
48.00023749301658
 20
-14.29995250139669
 30
0.0
 11
49.33349166201105
 21
-12.96669833240221
 31
0.0
  0
LINE
  5
9C4
330
1F
100
AcDbEntity
  8
2
  6
CONTINUOUS
370
25
 62
7
100
AcDbLine
 10
47.46990740712667
 20
-14.40601851857467
 30
0.0
 11
48.97993827141778
 21
-12.89598765428356
 31
0.0
  0
LINE
  5
9C5
330
1F
100
AcDbEntity
  8
2
  6
CONTINUOUS
370
25
 62
7
100
AcDbLine
 10
47.0
 20
-14.45166185698941
 30
0.0
 11
48.6263848808245
 21
-12.8252769761649
 31
0.0
  0
LINE
  5
9C6
330
1F
100
AcDbEntity
  8
2
  6
CONTINUOUS
370
25
 62
7
100
AcDbLine
 10
47.0
 20
-14.02739778827748
 30
0.0
 11
48.27283149023123
 21
-12.75456629804625
 31
0.0
  0
LINE
  5
9C7
330
1F
100
AcDbEntity
  8
2
  6
CONTINUOUS
370
25
 62
7
100
AcDbLine
 10
47.0
 20
-13.60313371956555
 30
0.0
 11
47.91927809963796
 21
-12.68385561992759
 31
0.0
  0
LINE
  5
9C8
330
1F
100
AcDbEntity
  8
2
  6
CONTINUOUS
370
25
 62
7
100
AcDbLine
 10
47.0
 20
-13.17886965085362
 30
0.0
 11
47.56572470904469
 21
-12.61314494180894
 31
0.0
  0
LINE
  5
9C9
330
1F
100
AcDbEntity
  8
2
  6
CONTINUOUS
370
25
 62
7
100
AcDbLine
 10
47.0
 20
-12.7546055821417
 30
0.0
 11
47.21217131845141
 21
-12.54243426369028
 31
0.0
  0
LINE
  5
9CA
330
1F
100
AcDbEntity
  8
2
  6
CONTINUOUS
370
25
 62
7
100
AcDbLine
 10
47.0
 20
-14.3009042619069
 30
0.0
 11
47.16591311507758
 21
-14.46681737698448
 31
0.0
  0
LINE
  5
9CB
330
1F
100
AcDbEntity
  8
2
  6
CONTINUOUS
370
25
 62
7
100
AcDbLine
 10
47.0
 20
-13.87664019319497
 30
0.0
 11
47.51946650567086
 21
-14.39610669886583
 31
0.0
  0
LINE
  5
9CC
330
1F
100
AcDbEntity
  8
2
  6
CONTINUOUS
370
25
 62
7
100
AcDbLine
 10
47.0
 20
-13.45237612448305
 30
0.0
 11
47.87301989626413
 21
-14.32539602074717
 31
0.0
  0
LINE
  5
9CD
330
1F
100
AcDbEntity
  8
2
  6
CONTINUOUS
370
25
 62
7
100
AcDbLine
 10
47.0
 20
-13.02811205577112
 30
0.0
 11
48.2265732868574
 21
-14.25468534262852
 31
0.0
  0
LINE
  5
9CE
330
1F
100
AcDbEntity
  8
2
  6
CONTINUOUS
370
25
 62
7
100
AcDbLine
 10
47.0
 20
-12.60384798705919
 30
0.0
 11
48.58012667745068
 21
-14.18397466450986
 31
0.0
  0
LINE
  5
9CF
330
1F
100
AcDbEntity
  8
2
  6
CONTINUOUS
370
25
 62
7
100
AcDbLine
 10
47.40052010206592
 20
-12.58010402041318
 30
0.0
 11
48.93368006804395
 21
-14.11326398639121
 31
0.0
  0
LINE
  5
9D0
330
1F
100
AcDbEntity
  8
2
  6
CONTINUOUS
370
25
 62
7
100
AcDbLine
 10
47.93085018795583
 20
-12.68617003759117
 30
0.0
 11
49.28723345863722
 21
-14.04255330827256
 31
0.0
  0
LINE
  5
9D1
330
1F
100
AcDbEntity
  8
2
  6
CONTINUOUS
370
25
 62
7
100
AcDbLine
 10
48.46118027384574
 20
-12.79223605476915
 30
0.0
 11
49.64078684923049
 21
-13.9718426301539
 31
0.0
  0
LINE
  5
9D2
330
1F
100
AcDbEntity
  8
2
  6
CONTINUOUS
370
25
 62
7
100
AcDbLine
 10
48.99151035973566
 20
-12.89830207194713
 30
0.0
 11
49.99434023982377
 21
-13.90113195203525
 31
0.0
  0
LINE
  5
9D3
330
1F
100
AcDbEntity
  8
2
  6
CONTINUOUS
370
25
 62
7
100
AcDbLine
 10
49.52184044562556
 20
-13.00436808912511
 30
0.0
 11
50.34789363041704
 21
-13.83042127391659
 31
0.0
  0
LINE
  5
9D4
330
1F
100
AcDbEntity
  8
2
  6
CONTINUOUS
370
25
 62
7
100
AcDbLine
 10
50.05217053151547
 20
-13.1104341063031
 30
0.0
 11
50.70144702101032
 21
-13.75971059579794
 31
0.0
  0
LINE
  5
9D5
330
1F
100
AcDbEntity
  8
2
  6
CONTINUOUS
370
25
 62
7
100
AcDbLine
 10
50.58250061740539
 20
-13.21650012348108
 30
0.0
 11
51.05500041160359
 21
-13.68899991767928
 31
0.0
  0
LINE
  5
9D6
330
1F
100
AcDbEntity
  8
2
  6
CONTINUOUS
370
25
 62
7
100
AcDbLine
 10
51.11283070329529
 20
-13.32256614065906
 30
0.0
 11
51.40855380219686
 21
-13.61828923956063
 31
0.0
  0
LINE
  5
9D7
330
1F
100
AcDbEntity
  8
2
  6
CONTINUOUS
370
25
 62
7
100
AcDbLine
 10
51.6431607891852
 20
-13.42863215783704
 30
0.0
 11
51.76210719279013
 21
-13.54757856144197
 31
0.0
  0
LINE
  5
9D8
330
1F
100
AcDbEntity
  8
2
  6
CONTINUOUS
370
25
 62
7
100
AcDbLine
 10
60.0
 20
-13.5
 30
0.0
 11
65.0
 21
-12.5
 31
0.0
  0
LINE
  5
9D9
330
1F
100
AcDbEntity
  8
2
  6
CONTINUOUS
370
25
 62
7
100
AcDbLine
 10
65.0
 20
-12.5
 30
0.0
 11
65.0
 21
-14.5
 31
0.0
  0
LINE
  5
9DA
330
1F
100
AcDbEntity
  8
2
  6
CONTINUOUS
370
25
 62
7
100
AcDbLine
 10
65.0
 20
-14.5
 30
0.0
 11
60.0
 21
-13.5
 31
0.0
  0
LINE
  5
9DB
330
1F
100
AcDbEntity
  8
2
  6
CONTINUOUS
370
25
 62
7
100
AcDbLine
 10
64.9088704595523
 20
-14.48177409191046
 30
0.0
 11
65.0
 21
-14.39064455146276
 31
0.0
  0
LINE
  5
9DC
330
1F
100
AcDbEntity
  8
2
  6
CONTINUOUS
370
25
 62
7
100
AcDbLine
 10
64.55531706895903
 20
-14.4110634137918
 30
0.0
 11
65.0
 21
-13.96638048275084
 31
0.0
  0
LINE
  5
9DD
330
1F
100
AcDbEntity
  8
2
  6
CONTINUOUS
370
25
 62
7
100
AcDbLine
 10
64.20176367836575
 20
-14.34035273567315
 30
0.0
 11
65.0
 21
-13.54211641403891
 31
0.0
  0
LINE
  5
9DE
330
1F
100
AcDbEntity
  8
2
  6
CONTINUOUS
370
25
 62
7
100
AcDbLine
 10
63.84821028777249
 20
-14.2696420575545
 30
0.0
 11
65.0
 21
-13.11785234532698
 31
0.0
  0
LINE
  5
9DF
330
1F
100
AcDbEntity
  8
2
  6
CONTINUOUS
370
25
 62
7
100
AcDbLine
 10
63.49465689717921
 20
-14.19893137943584
 30
0.0
 11
65.0
 21
-12.69358827661505
 31
0.0
  0
LINE
  5
9E0
330
1F
100
AcDbEntity
  8
2
  6
CONTINUOUS
370
25
 62
7
100
AcDbLine
 10
63.14110350658594
 20
-14.12822070131719
 30
0.0
 11
64.71165525987891
 21
-12.55766894802422
 31
0.0
  0
LINE
  5
9E1
330
1F
100
AcDbEntity
  8
2
  6
CONTINUOUS
370
25
 62
7
100
AcDbLine
 10
62.78755011599266
 20
-14.05751002319854
 30
0.0
 11
64.181325173989
 21
-12.6637349652022
 31
0.0
  0
LINE
  5
9E2
330
1F
100
AcDbEntity
  8
2
  6
CONTINUOUS
370
25
 62
7
100
AcDbLine
 10
62.43399672539939
 20
-13.98679934507988
 30
0.0
 11
63.65099508809909
 21
-12.76980098238018
 31
0.0
  0
LINE
  5
9E3
330
1F
100
AcDbEntity
  8
2
  6
CONTINUOUS
370
25
 62
7
100
AcDbLine
 10
62.08044333480612
 20
-13.91608866696123
 30
0.0
 11
63.12066500220918
 21
-12.87586699955817
 31
0.0
  0
LINE
  5
9E4
330
1F
100
AcDbEntity
  8
2
  6
CONTINUOUS
370
25
 62
7
100
AcDbLine
 10
61.72688994421284
 20
-13.84537798884257
 30
0.0
 11
62.59033491631927
 21
-12.98193301673615
 31
0.0
  0
LINE
  5
9E5
330
1F
100
AcDbEntity
  8
2
  6
CONTINUOUS
370
25
 62
7
100
AcDbLine
 10
61.37333655361957
 20
-13.77466731072392
 30
0.0
 11
62.06000483042936
 21
-13.08799903391413
 31
0.0
  0
LINE
  5
9E6
330
1F
100
AcDbEntity
  8
2
  6
CONTINUOUS
370
25
 62
7
100
AcDbLine
 10
61.0197831630263
 20
-13.70395663260526
 30
0.0
 11
61.52967474453945
 21
-13.19406505109211
 31
0.0
  0
LINE
  5
9E7
330
1F
100
AcDbEntity
  8
2
  6
CONTINUOUS
370
25
 62
7
100
AcDbLine
 10
60.66622977243303
 20
-13.63324595448661
 30
0.0
 11
60.99934465864954
 21
-13.30013106827009
 31
0.0
  0
LINE
  5
9E8
330
1F
100
AcDbEntity
  8
2
  6
CONTINUOUS
370
25
 62
7
100
AcDbLine
 10
60.31267638183975
 20
-13.56253527636795
 30
0.0
 11
60.46901457275963
 21
-13.40619708544807
 31
0.0
  0
LINE
  5
9E9
330
1F
100
AcDbEntity
  8
2
  6
CONTINUOUS
370
25
 62
7
100
AcDbLine
 10
60.26641817846588
 20
-13.44671636430683
 30
0.0
 11
60.39962726769882
 21
-13.57992545353976
 31
0.0
  0
LINE
  5
9EA
330
1F
100
AcDbEntity
  8
2
  6
CONTINUOUS
370
25
 62
7
100
AcDbLine
 10
60.61997156905916
 20
-13.37600568618817
 30
0.0
 11
60.92995735358873
 21
-13.68599147071775
 31
0.0
  0
LINE
  5
9EB
330
1F
100
AcDbEntity
  8
2
  6
CONTINUOUS
370
25
 62
7
100
AcDbLine
 10
60.97352495965244
 20
-13.30529500806952
 30
0.0
 11
61.46028743947864
 21
-13.79205748789573
 31
0.0
  0
LINE
  5
9EC
330
1F
100
AcDbEntity
  8
2
  6
CONTINUOUS
370
25
 62
7
100
AcDbLine
 10
61.32707835024571
 20
-13.23458432995086
 30
0.0
 11
61.99061752536855
 21
-13.89812350507371
 31
0.0
  0
LINE
  5
9ED
330
1F
100
AcDbEntity
  8
2
  6
CONTINUOUS
370
25
 62
7
100
AcDbLine
 10
61.68063174083898
 20
-13.16387365183221
 30
0.0
 11
62.52094761125846
 21
-14.00418952225169
 31
0.0
  0
LINE
  5
9EE
330
1F
100
AcDbEntity
  8
2
  6
CONTINUOUS
370
25
 62
7
100
AcDbLine
 10
62.03418513143225
 20
-13.09316297371355
 30
0.0
 11
63.05127769714837
 21
-14.11025553942967
 31
0.0
  0
LINE
  5
9EF
330
1F
100
AcDbEntity
  8
2
  6
CONTINUOUS
370
25
 62
7
100
AcDbLine
 10
62.38773852202553
 20
-13.0224522955949
 30
0.0
 11
63.58160778303828
 21
-14.21632155660765
 31
0.0
  0
LINE
  5
9F0
330
1F
100
AcDbEntity
  8
2
  6
CONTINUOUS
370
25
 62
7
100
AcDbLine
 10
62.7412919126188
 20
-12.95174161747624
 30
0.0
 11
64.1119378689282
 21
-14.32238757378564
 31
0.0
  0
LINE
  5
9F1
330
1F
100
AcDbEntity
  8
2
  6
CONTINUOUS
370
25
 62
7
100
AcDbLine
 10
63.09484530321207
 20
-12.88103093935759
 30
0.0
 11
64.64226795481811
 21
-14.42845359096362
 31
0.0
  0
LINE
  5
9F2
330
1F
100
AcDbEntity
  8
2
  6
CONTINUOUS
370
25
 62
7
100
AcDbLine
 10
63.44839869380534
 20
-12.81032026123894
 30
0.0
 11
65.0
 21
-14.36192156743359
 31
0.0
  0
LINE
  5
9F3
330
1F
100
AcDbEntity
  8
2
  6
CONTINUOUS
370
25
 62
7
100
AcDbLine
 10
63.80195208439862
 20
-12.73960958312028
 30
0.0
 11
65.0
 21
-13.93765749872166
 31
0.0
  0
LINE
  5
9F4
330
1F
100
AcDbEntity
  8
2
  6
CONTINUOUS
370
25
 62
7
100
AcDbLine
 10
64.15550547499188
 20
-12.66889890500162
 30
0.0
 11
65.0
 21
-13.51339343000973
 31
0.0
  0
LINE
  5
9F5
330
1F
100
AcDbEntity
  8
2
  6
CONTINUOUS
370
25
 62
7
100
AcDbLine
 10
64.50905886558516
 20
-12.59818822688297
 30
0.0
 11
65.0
 21
-13.0891293612978
 31
0.0
  0
LINE
  5
9F6
330
1F
100
AcDbEntity
  8
2
  6
CONTINUOUS
370
25
 62
7
100
AcDbLine
 10
64.86261225617844
 20
-12.52747754876431
 30
0.0
 11
65.0
 21
-12.66486529258587
 31
0.0
  0
TEXT
  5
9F7
330
1F
100
AcDbEntity
  8
2
  6
CONTINUOUS
370
25
 62
7
100
AcDbText
 10
54.83333333333334
 20
-12.0
 30
0.0
 40
3.5
  1
8
 72
     1
 11
56.0
 21
-12.0
 31
0.0
100
AcDbText
  0
LINE
  5
9F8
330
1F
100
AcDbEntity
  8
2
  6
CONTINUOUS
370
25
 62
7
100
AcDbLine
 10
44.5
 20
0.0
 30
0.0
 11
44.5
 21
25.99995
 31
0.0
  0
LINE
  5
9F9
330
1F
100
AcDbEntity
  8
2
  6
CONTINUOUS
370
25
 62
7
100
AcDbLine
 10
60.0
 20
25.99995
 30
0.0
 11
60.0
 21
1.5
 31
0.0
  0
LINE
  5
9FA
330
1F
100
AcDbEntity
  8
2
  6
CONTINUOUS
370
25
 62
7
100
AcDbLine
 10
37.5
 20
24.99995
 30
0.0
 11
67.0
 21
24.99995
 31
0.0
  0
LINE
  5
9FB
330
1F
100
AcDbEntity
  8
2
  6
CONTINUOUS
370
25
 62
7
100
AcDbLine
 10
44.5
 20
24.99995
 30
0.0
 11
39.5
 21
23.99995
 31
0.0
  0
LINE
  5
9FC
330
1F
100
AcDbEntity
  8
2
  6
CONTINUOUS
370
25
 62
7
100
AcDbLine
 10
39.5
 20
23.99995
 30
0.0
 11
39.5
 21
25.99995
 31
0.0
  0
LINE
  5
9FD
330
1F
100
AcDbEntity
  8
2
  6
CONTINUOUS
370
25
 62
7
100
AcDbLine
 10
39.5
 20
25.99995
 30
0.0
 11
44.5
 21
24.99995
 31
0.0
  0
LINE
  5
9FE
330
1F
100
AcDbEntity
  8
2
  6
CONTINUOUS
370
25
 62
7
100
AcDbLine
 10
44.46046243249531
 20
24.99204248649906
 30
0.0
 11
44.47364162166354
 21
25.00522167566729
 31
0.0
  0
LINE
  5
9FF
330
1F
100
AcDbEntity
  8
2
  6
CONTINUOUS
370
25
 62
7
100
AcDbLine
 10
43.9301323466054
 20
24.88597646932108
 30
0.0
 11
44.12008823107027
 21
25.07593235378594
 31
0.0
  0
LINE
  5
A00
330
1F
100
AcDbEntity
  8
2
  6
CONTINUOUS
370
25
 62
7
100
AcDbLine
 10
43.39980226071549
 20
24.7799104521431
 30
0.0
 11
43.76653484047699
 21
25.1466430319046
 31
0.0
  0
LINE
  5
A01
330
1F
100
AcDbEntity
  8
2
  6
CONTINUOUS
370
25
 62
7
100
AcDbLine
 10
42.86947217482558
 20
24.67384443496512
 30
0.0
 11
43.41298144988372
 21
25.21735371002325
 31
0.0
  0
LINE
  5
A02
330
1F
100
AcDbEntity
  8
2
  6
CONTINUOUS
370
25
 62
7
100
AcDbLine
 10
42.33914208893567
 20
24.56777841778713
 30
0.0
 11
43.05942805929045
 21
25.28806438814191
 31
0.0
  0
LINE
  5
A03
330
1F
100
AcDbEntity
  8
2
  6
CONTINUOUS
370
25
 62
7
100
AcDbLine
 10
41.80881200304576
 20
24.46171240060915
 30
0.0
 11
42.70587466869717
 21
25.35877506626056
 31
0.0
  0
LINE
  5
A04
330
1F
100
AcDbEntity
  8
2
  6
CONTINUOUS
370
25
 62
7
100
AcDbLine
 10
41.27848191715585
 20
24.35564638343117
 30
0.0
 11
42.3523212781039
 21
25.42948574437922
 31
0.0
  0
LINE
  5
A05
330
1F
100
AcDbEntity
  8
2
  6
CONTINUOUS
370
25
 62
7
100
AcDbLine
 10
40.74815183126594
 20
24.24958036625319
 30
0.0
 11
41.99876788751062
 21
25.50019642249787
 31
0.0
  0
LINE
  5
A06
330
1F
100
AcDbEntity
  8
2
  6
CONTINUOUS
370
25
 62
7
100
AcDbLine
 10
40.21782174537603
 20
24.1435143490752
 30
0.0
 11
41.64521449691735
 21
25.57090710061653
 31
0.0
  0
LINE
  5
A07
330
1F
100
AcDbEntity
  8
2
  6
CONTINUOUS
370
25
 62
7
100
AcDbLine
 10
39.68749165948612
 20
24.03744833189722
 30
0.0
 11
41.29166110632408
 21
25.64161777873518
 31
0.0
  0
LINE
  5
A08
330
1F
100
AcDbEntity
  8
2
  6
CONTINUOUS
370
25
 62
7
100
AcDbLine
 10
39.5
 20
24.27422074112303
 30
0.0
 11
40.93810771573081
 21
25.71232845685384
 31
0.0
  0
LINE
  5
A09
330
1F
100
AcDbEntity
  8
2
  6
CONTINUOUS
370
25
 62
7
100
AcDbLine
 10
39.5
 20
24.69848480983496
 30
0.0
 11
40.58455432513753
 21
25.78303913497249
 31
0.0
  0
LINE
  5
A0A
330
1F
100
AcDbEntity
  8
2
  6
CONTINUOUS
370
25
 62
7
100
AcDbLine
 10
39.5
 20
25.12274887854688
 30
0.0
 11
40.23100093454426
 21
25.85374981309115
 31
0.0
  0
LINE
  5
A0B
330
1F
100
AcDbEntity
  8
2
  6
CONTINUOUS
370
25
 62
7
100
AcDbLine
 10
39.5
 20
25.54701294725881
 30
0.0
 11
39.87744754395099
 21
25.9244604912098
 31
0.0
  0
LINE
  5
A0C
330
1F
100
AcDbEntity
  8
2
  6
CONTINUOUS
370
25
 62
7
100
AcDbLine
 10
39.5
 20
25.97127701597074
 30
0.0
 11
39.52389415335772
 21
25.99517116932845
 31
0.0
  0
LINE
  5
A0D
330
1F
100
AcDbEntity
  8
2
  6
CONTINUOUS
370
25
 62
7
100
AcDbLine
 10
39.5
 20
24.09188309203675
 30
0.0
 11
39.57661091003062
 21
24.01527218200612
 31
0.0
  0
LINE
  5
A0E
330
1F
100
AcDbEntity
  8
2
  6
CONTINUOUS
370
25
 62
7
100
AcDbLine
 10
39.5
 20
24.51614716074868
 30
0.0
 11
39.9301643006239
 21
24.08598286012478
 31
0.0
  0
LINE
  5
A0F
330
1F
100
AcDbEntity
  8
2
  6
CONTINUOUS
370
25
 62
7
100
AcDbLine
 10
39.5
 20
24.9404112294606
 30
0.0
 11
40.28371769121717
 21
24.15669353824343
 31
0.0
  0
LINE
  5
A10
330
1F
100
AcDbEntity
  8
2
  6
CONTINUOUS
370
25
 62
7
100
AcDbLine
 10
39.5
 20
25.36467529817253
 30
0.0
 11
40.63727108181044
 21
24.22740421636209
 31
0.0
  0
LINE
  5
A11
330
1F
100
AcDbEntity
  8
2
  6
CONTINUOUS
370
25
 62
7
100
AcDbLine
 10
39.5
 20
25.78893936688446
 30
0.0
 11
40.99082447240372
 21
24.29811489448074
 31
0.0
  0
LINE
  5
A12
330
1F
100
AcDbEntity
  8
2
  6
CONTINUOUS
370
25
 62
7
100
AcDbLine
 10
39.76656679449548
 20
25.9466366411009
 30
0.0
 11
41.34437786299699
 21
24.3688255725994
 31
0.0
  0
LINE
  5
A13
330
1F
100
AcDbEntity
  8
2
  6
CONTINUOUS
370
25
 62
7
100
AcDbLine
 10
40.2968968803854
 20
25.84057062392292
 30
0.0
 11
41.69793125359027
 21
24.43953625071805
 31
0.0
  0
LINE
  5
A14
330
1F
100
AcDbEntity
  8
2
  6
CONTINUOUS
370
25
 62
7
100
AcDbLine
 10
40.8272269662753
 20
25.73450460674494
 30
0.0
 11
42.05148464418354
 21
24.51024692883671
 31
0.0
  0
LINE
  5
A15
330
1F
100
AcDbEntity
  8
2
  6
CONTINUOUS
370
25
 62
7
100
AcDbLine
 10
41.35755705216521
 20
25.62843858956695
 30
0.0
 11
42.40503803477681
 21
24.58095760695536
 31
0.0
  0
LINE
  5
A16
330
1F
100
AcDbEntity
  8
2
  6
CONTINUOUS
370
25
 62
7
100
AcDbLine
 10
41.88788713805512
 20
25.52237257238897
 30
0.0
 11
42.75859142537008
 21
24.65166828507402
 31
0.0
  0
LINE
  5
A17
330
1F
100
AcDbEntity
  8
2
  6
CONTINUOUS
370
25
 62
7
100
AcDbLine
 10
42.41821722394504
 20
25.41630655521099
 30
0.0
 11
43.11214481596335
 21
24.72237896319267
 31
0.0
  0
LINE
  5
A18
330
1F
100
AcDbEntity
  8
2
  6
CONTINUOUS
370
25
 62
7
100
AcDbLine
 10
42.94854730983494
 20
25.31024053803301
 30
0.0
 11
43.46569820655663
 21
24.79308964131133
 31
0.0
  0
LINE
  5
A19
330
1F
100
AcDbEntity
  8
2
  6
CONTINUOUS
370
25
 62
7
100
AcDbLine
 10
43.47887739572486
 20
25.20417452085503
 30
0.0
 11
43.81925159714991
 21
24.86380031942998
 31
0.0
  0
LINE
  5
A1A
330
1F
100
AcDbEntity
  8
2
  6
CONTINUOUS
370
25
 62
7
100
AcDbLine
 10
44.00920748161477
 20
25.09810850367705
 30
0.0
 11
44.17280498774318
 21
24.93451099754864
 31
0.0
  0
LINE
  5
A1B
330
1F
100
AcDbEntity
  8
2
  6
CONTINUOUS
370
25
 62
7
100
AcDbLine
 10
60.0
 20
24.99995
 30
0.0
 11
65.0
 21
25.99995
 31
0.0
  0
LINE
  5
A1C
330
1F
100
AcDbEntity
  8
2
  6
CONTINUOUS
370
25
 62
7
100
AcDbLine
 10
65.0
 20
25.99995
 30
0.0
 11
65.0
 21
23.99995
 31
0.0
  0
LINE
  5
A1D
330
1F
100
AcDbEntity
  8
2
  6
CONTINUOUS
370
25
 62
7
100
AcDbLine
 10
65.0
 20
23.99995
 30
0.0
 11
60.0
 21
24.99995
 31
0.0
  0
LINE
  5
A1E
330
1F
100
AcDbEntity
  8
2
  6
CONTINUOUS
370
25
 62
7
100
AcDbLine
 10
64.73464448466054
 20
24.05302110306789
 30
0.0
 11
65.0
 21
24.31837661840736
 31
0.0
  0
LINE
  5
A1F
330
1F
100
AcDbEntity
  8
2
  6
CONTINUOUS
370
25
 62
7
100
AcDbLine
 10
64.38109109406726
 20
24.12373178118655
 30
0.0
 11
65.0
 21
24.74264068711928
 31
0.0
  0
LINE
  5
A20
330
1F
100
AcDbEntity
  8
2
  6
CONTINUOUS
370
25
 62
7
100
AcDbLine
 10
64.027537703474
 20
24.1944424593052
 30
0.0
 11
65.0
 21
25.16690475583121
 31
0.0
  0
LINE
  5
A21
330
1F
100
AcDbEntity
  8
2
  6
CONTINUOUS
370
25
 62
7
100
AcDbLine
 10
63.67398431288072
 20
24.26515313742386
 30
0.0
 11
65.0
 21
25.59116882454314
 31
0.0
  0
LINE
  5
A22
330
1F
100
AcDbEntity
  8
2
  6
CONTINUOUS
370
25
 62
7
100
AcDbLine
 10
63.32043092228744
 20
24.33586381554251
 30
0.0
 11
64.98064638343116
 21
25.99607927668623
 31
0.0
  0
LINE
  5
A23
330
1F
100
AcDbEntity
  8
2
  6
CONTINUOUS
370
25
 62
7
100
AcDbLine
 10
62.96687753169417
 20
24.40657449366116
 30
0.0
 11
64.45031629754126
 21
25.89001325950825
 31
0.0
  0
LINE
  5
A24
330
1F
100
AcDbEntity
  8
2
  6
CONTINUOUS
370
25
 62
7
100
AcDbLine
 10
62.6133241411009
 20
24.47728517177982
 30
0.0
 11
63.91998621165135
 21
25.78394724233027
 31
0.0
  0
LINE
  5
A25
330
1F
100
AcDbEntity
  8
2
  6
CONTINUOUS
370
25
 62
7
100
AcDbLine
 10
62.25977075050763
 20
24.54799584989847
 30
0.0
 11
63.38965612576143
 21
25.67788122515229
 31
0.0
  0
LINE
  5
A26
330
1F
100
AcDbEntity
  8
2
  6
CONTINUOUS
370
25
 62
7
100
AcDbLine
 10
61.90621735991435
 20
24.61870652801713
 30
0.0
 11
62.85932603987153
 21
25.5718152079743
 31
0.0
  0
LINE
  5
A27
330
1F
100
AcDbEntity
  8
2
  6
CONTINUOUS
370
25
 62
7
100
AcDbLine
 10
61.55266396932107
 20
24.68941720613578
 30
0.0
 11
62.32899595398162
 21
25.46574919079632
 31
0.0
  0
LINE
  5
A28
330
1F
100
AcDbEntity
  8
2
  6
CONTINUOUS
370
25
 62
7
100
AcDbLine
 10
61.1991105787278
 20
24.76012788425444
 30
0.0
 11
61.7986658680917
 21
25.35968317361834
 31
0.0
  0
LINE
  5
A29
330
1F
100
AcDbEntity
  8
2
  6
CONTINUOUS
370
25
 62
7
100
AcDbLine
 10
60.84555718813453
 20
24.83083856237309
 30
0.0
 11
61.2683357822018
 21
25.25361715644036
 31
0.0
  0
LINE
  5
A2A
330
1F
100
AcDbEntity
  8
2
  6
CONTINUOUS
370
25
 62
7
100
AcDbLine
 10
60.49200379754126
 20
24.90154924049175
 30
0.0
 11
60.73800569631189
 21
25.14755113926238
 31
0.0
  0
LINE
  5
A2B
330
1F
100
AcDbEntity
  8
2
  6
CONTINUOUS
370
25
 62
7
100
AcDbLine
 10
60.13845040694798
 20
24.9722599186104
 30
0.0
 11
60.20767561042198
 21
25.0414851220844
 31
0.0
  0
LINE
  5
A2C
330
1F
100
AcDbEntity
  8
2
  6
CONTINUOUS
370
25
 62
7
100
AcDbLine
 10
60.19116716362093
 20
25.03818343272418
 30
0.0
 11
60.2867507454314
 21
24.94259985091372
 31
0.0
  0
LINE
  5
A2D
330
1F
100
AcDbEntity
  8
2
  6
CONTINUOUS
370
25
 62
7
100
AcDbLine
 10
60.5447205542142
 20
25.10889411084284
 30
0.0
 11
60.8170808313213
 21
24.83653383373574
 31
0.0
  0
LINE
  5
A2E
330
1F
100
AcDbEntity
  8
2
  6
CONTINUOUS
370
25
 62
7
100
AcDbLine
 10
60.89827394480749
 20
25.17960478896149
 30
0.0
 11
61.34741091721122
 21
24.73046781655776
 31
0.0
  0
LINE
  5
A2F
330
1F
100
AcDbEntity
  8
2
  6
CONTINUOUS
370
25
 62
7
100
AcDbLine
 10
61.25182733540075
 20
25.25031546708015
 30
0.0
 11
61.87774100310112
 21
24.62440179937977
 31
0.0
  0
LINE
  5
A30
330
1F
100
AcDbEntity
  8
2
  6
CONTINUOUS
370
25
 62
7
100
AcDbLine
 10
61.60538072599402
 20
25.3210261451988
 30
0.0
 11
62.40807108899104
 21
24.51833578220179
 31
0.0
  0
LINE
  5
A31
330
1F
100
AcDbEntity
  8
2
  6
CONTINUOUS
370
25
 62
7
100
AcDbLine
 10
61.95893411658729
 20
25.39173682331745
 30
0.0
 11
62.93840117488094
 21
24.41226976502381
 31
0.0
  0
LINE
  5
A32
330
1F
100
AcDbEntity
  8
2
  6
CONTINUOUS
370
25
 62
7
100
AcDbLine
 10
62.31248750718058
 20
25.46244750143611
 30
0.0
 11
63.46873126077086
 21
24.30620374784583
 31
0.0
  0
LINE
  5
A33
330
1F
100
AcDbEntity
  8
2
  6
CONTINUOUS
370
25
 62
7
100
AcDbLine
 10
62.66604089777384
 20
25.53315817955476
 30
0.0
 11
63.99906134666077
 21
24.20013773066784
 31
0.0
  0
LINE
  5
A34
330
1F
100
AcDbEntity
  8
2
  6
CONTINUOUS
370
25
 62
7
100
AcDbLine
 10
63.01959428836712
 20
25.60386885767342
 30
0.0
 11
64.52939143255067
 21
24.09407171348986
 31
0.0
  0
LINE
  5
A35
330
1F
100
AcDbEntity
  8
2
  6
CONTINUOUS
370
25
 62
7
100
AcDbLine
 10
63.37314767896039
 20
25.67457953579207
 30
0.0
 11
65.0
 21
24.04772721475246
 31
0.0
  0
LINE
  5
A36
330
1F
100
AcDbEntity
  8
2
  6
CONTINUOUS
370
25
 62
7
100
AcDbLine
 10
63.72670106955366
 20
25.74529021391073
 30
0.0
 11
65.0
 21
24.47199128346439
 31
0.0
  0
LINE
  5
A37
330
1F
100
AcDbEntity
  8
2
  6
CONTINUOUS
370
25
 62
7
100
AcDbLine
 10
64.08025446014693
 20
25.81600089202938
 30
0.0
 11
65.0
 21
24.89625535217632
 31
0.0
  0
LINE
  5
A38
330
1F
100
AcDbEntity
  8
2
  6
CONTINUOUS
370
25
 62
7
100
AcDbLine
 10
64.43380785074021
 20
25.88671157014804
 30
0.0
 11
65.0
 21
25.32051942088825
 31
0.0
  0
LINE
  5
A39
330
1F
100
AcDbEntity
  8
2
  6
CONTINUOUS
370
25
 62
7
100
AcDbLine
 10
64.78736124133349
 20
25.95742224826669
 30
0.0
 11
65.0
 21
25.74478348960017
 31
0.0
  0
TEXT
  5
A3A
330
1F
100
AcDbEntity
  8
2
  6
CONTINUOUS
370
25
 62
7
100
AcDbText
 10
47.58333333333334
 20
26.49995
 30
0.0
 40
3.5
  1
15.5
 72
     1
 11
52.25
 21
26.49995
 31
0.0
100
AcDbText
  0
LINE
  5
A3B
330
1F
100
AcDbEntity
  8
SK2
  6
CONTINUOUS
370
25
 62
7
100
AcDbLine
 10
0.0
 20
0.9999500000000001
 30
0.0
 11
0.0
 21
35.99995
 31
0.0
  0
LINE
  5
A3C
330
1F
100
AcDbEntity
  8
SK2
  6
CONTINUOUS
370
25
 62
7
100
AcDbLine
 10
60.0
 20
35.99995
 30
0.0
 11
60.0
 21
1.5
 31
0.0
  0
LINE
  5
A3D
330
1F
100
AcDbEntity
  8
SK2
  6
CONTINUOUS
370
25
 62
7
100
AcDbLine
 10
0.0
 20
34.99995
 30
0.0
 11
60.0
 21
34.99995
 31
0.0
  0
LINE
  5
A3E
330
1F
100
AcDbEntity
  8
SK2
  6
CONTINUOUS
370
25
 62
7
100
AcDbLine
 10
0.0
 20
34.99995
 30
0.0
 11
5.0
 21
35.99995
 31
0.0
  0
LINE
  5
A3F
330
1F
100
AcDbEntity
  8
SK2
  6
CONTINUOUS
370
25
 62
7
100
AcDbLine
 10
5.0
 20
35.99995
 30
0.0
 11
5.0
 21
33.99995
 31
0.0
  0
LINE
  5
A40
330
1F
100
AcDbEntity
  8
SK2
  6
CONTINUOUS
370
25
 62
7
100
AcDbLine
 10
5.0
 20
33.99995
 30
0.0
 11
0.0
 21
34.99995
 31
0.0
  0
LINE
  5
A41
330
1F
100
AcDbEntity
  8
SK2
  6
CONTINUOUS
370
25
 62
7
100
AcDbLine
 10
4.731668370103691
 20
34.05361632597926
 30
0.0
 11
5.0
 21
34.32194795587557
 31
0.0
  0
LINE
  5
A42
330
1F
100
AcDbEntity
  8
SK2
  6
CONTINUOUS
370
25
 62
7
100
AcDbLine
 10
4.378114979510414
 20
34.12432700409791
 30
0.0
 11
5.0
 21
34.7462120245875
 31
0.0
  0
LINE
  5
A43
330
1F
100
AcDbEntity
  8
SK2
  6
CONTINUOUS
370
25
 62
7
100
AcDbLine
 10
4.024561588917138
 20
34.19503768221657
 30
0.0
 11
5.0
 21
35.17047609329943
 31
0.0
  0
LINE
  5
A44
330
1F
100
AcDbEntity
  8
SK2
  6
CONTINUOUS
370
25
 62
7
100
AcDbLine
 10
3.671008198323868
 20
34.26574836033522
 30
0.0
 11
5.0
 21
35.59474016201136
 31
0.0
  0
LINE
  5
A45
330
1F
100
AcDbEntity
  8
SK2
  6
CONTINUOUS
370
25
 62
7
100
AcDbLine
 10
3.317454807730577
 20
34.33645903845388
 30
0.0
 11
4.976182211595869
 21
35.99518644231917
 31
0.0
  0
LINE
  5
A46
330
1F
100
AcDbEntity
  8
SK2
  6
CONTINUOUS
370
25
 62
7
100
AcDbLine
 10
2.963901417137308
 20
34.40716971657254
 30
0.0
 11
4.445852125705954
 21
35.88912042514119
 31
0.0
  0
LINE
  5
A47
330
1F
100
AcDbEntity
  8
SK2
  6
CONTINUOUS
370
25
 62
7
100
AcDbLine
 10
2.610348026544031
 20
34.47788039469119
 30
0.0
 11
3.91552203981604
 21
35.78305440796321
 31
0.0
  0
LINE
  5
A48
330
1F
100
AcDbEntity
  8
SK2
  6
CONTINUOUS
370
25
 62
7
100
AcDbLine
 10
2.256794635950747
 20
34.54859107280985
 30
0.0
 11
3.385191953926117
 21
35.67698839078522
 31
0.0
  0
LINE
  5
A49
330
1F
100
AcDbEntity
  8
SK2
  6
CONTINUOUS
370
25
 62
7
100
AcDbLine
 10
1.903241245357478
 20
34.61930175092851
 30
0.0
 11
2.85486186803621
 21
35.57092237360724
 31
0.0
  0
LINE
  5
A4A
330
1F
100
AcDbEntity
  8
SK2
  6
CONTINUOUS
370
25
 62
7
100
AcDbLine
 10
1.549687854764187
 20
34.69001242904716
 30
0.0
 11
2.324531782146281
 21
35.46485635642925
 31
0.0
  0
LINE
  5
A4B
330
1F
100
AcDbEntity
  8
SK2
  6
CONTINUOUS
370
25
 62
7
100
AcDbLine
 10
1.196134464170918
 20
34.76072310716582
 30
0.0
 11
1.794201696256373
 21
35.35879033925127
 31
0.0
  0
LINE
  5
A4C
330
1F
100
AcDbEntity
  8
SK2
  6
CONTINUOUS
370
25
 62
7
100
AcDbLine
 10
0.8425810735776338
 20
34.83143378528447
 30
0.0
 11
1.263871610366451
 21
35.25272432207329
 31
0.0
  0
LINE
  5
A4D
330
1F
100
AcDbEntity
  8
SK2
  6
CONTINUOUS
370
25
 62
7
100
AcDbLine
 10
0.4890276829843643
 20
34.90214446340313
 30
0.0
 11
0.7335415244765429
 21
35.1466583048953
 31
0.0
  0
LINE
  5
A4E
330
1F
100
AcDbEntity
  8
SK2
  6
CONTINUOUS
370
25
 62
7
100
AcDbLine
 10
0.1354742923910877
 20
34.97285514152178
 30
0.0
 11
0.203211438586635
 21
35.04059228771732
 31
0.0
  0
LINE
  5
A4F
330
1F
100
AcDbEntity
  8
SK2
  6
CONTINUOUS
370
25
 62
7
100
AcDbLine
 10
0.2289847244843415
 20
35.04574694489686
 30
0.0
 11
0.3434770867265087
 21
34.9312545826547
 31
0.0
  0
LINE
  5
A50
330
1F
100
AcDbEntity
  8
SK2
  6
CONTINUOUS
370
25
 62
7
100
AcDbLine
 10
0.5825381150776181
 20
35.11645762301552
 30
0.0
 11
0.8738071726164236
 21
34.82518856547672
 31
0.0
  0
LINE
  5
A51
330
1F
100
AcDbEntity
  8
SK2
  6
CONTINUOUS
370
25
 62
7
100
AcDbLine
 10
0.9360915056708947
 20
35.18716830113418
 30
0.0
 11
1.404137258506339
 21
34.71912254829873
 31
0.0
  0
LINE
  5
A52
330
1F
100
AcDbEntity
  8
SK2
  6
CONTINUOUS
370
25
 62
7
100
AcDbLine
 10
1.289644896264171
 20
35.25787897925283
 30
0.0
 11
1.934467344396253
 21
34.61305653112075
 31
0.0
  0
LINE
  5
A53
330
1F
100
AcDbEntity
  8
SK2
  6
CONTINUOUS
370
25
 62
7
100
AcDbLine
 10
1.643198286857441
 20
35.32858965737149
 30
0.0
 11
2.464797430286161
 21
34.50699051394277
 31
0.0
  0
LINE
  5
A54
330
1F
100
AcDbEntity
  8
SK2
  6
CONTINUOUS
370
25
 62
7
100
AcDbLine
 10
1.996751677450725
 20
35.39930033549015
 30
0.0
 11
2.99512751617609
 21
34.40092449676478
 31
0.0
  0
LINE
  5
A55
330
1F
100
AcDbEntity
  8
SK2
  6
CONTINUOUS
370
25
 62
7
100
AcDbLine
 10
2.350305068044001
 20
35.4700110136088
 30
0.0
 11
3.525457602065998
 21
34.2948584795868
 31
0.0
  0
LINE
  5
A56
330
1F
100
AcDbEntity
  8
SK2
  6
CONTINUOUS
370
25
 62
7
100
AcDbLine
 10
2.703858458637278
 20
35.54072169172746
 30
0.0
 11
4.055787687955913
 21
34.18879246240881
 31
0.0
  0
LINE
  5
A57
330
1F
100
AcDbEntity
  8
SK2
  6
CONTINUOUS
370
25
 62
7
100
AcDbLine
 10
3.057411849230554
 20
35.61143236984611
 30
0.0
 11
4.586117773845828
 21
34.08272644523083
 31
0.0
  0
LINE
  5
A58
330
1F
100
AcDbEntity
  8
SK2
  6
CONTINUOUS
370
25
 62
7
100
AcDbLine
 10
3.410965239823831
 20
35.68214304796476
 30
0.0
 11
5.0
 21
34.09310828778859
 31
0.0
  0
LINE
  5
A59
330
1F
100
AcDbEntity
  8
SK2
  6
CONTINUOUS
370
25
 62
7
100
AcDbLine
 10
3.764518630417108
 20
35.75285372608342
 30
0.0
 11
5.0
 21
34.51737235650052
 31
0.0
  0
LINE
  5
A5A
330
1F
100
AcDbEntity
  8
SK2
  6
CONTINUOUS
370
25
 62
7
100
AcDbLine
 10
4.118072021010384
 20
35.82356440420207
 30
0.0
 11
5.0
 21
34.94163642521245
 31
0.0
  0
LINE
  5
A5B
330
1F
100
AcDbEntity
  8
SK2
  6
CONTINUOUS
370
25
 62
7
100
AcDbLine
 10
4.471625411603661
 20
35.89427508232073
 30
0.0
 11
5.0
 21
35.36590049392439
 31
0.0
  0
LINE
  5
A5C
330
1F
100
AcDbEntity
  8
SK2
  6
CONTINUOUS
370
25
 62
7
100
AcDbLine
 10
4.825178802196938
 20
35.96498576043939
 30
0.0
 11
5.0
 21
35.79016456263633
 31
0.0
  0
LINE
  5
A5D
330
1F
100
AcDbEntity
  8
SK2
  6
CONTINUOUS
370
25
 62
7
100
AcDbLine
 10
60.0
 20
34.99995
 30
0.0
 11
55.0
 21
33.99995
 31
0.0
  0
LINE
  5
A5E
330
1F
100
AcDbEntity
  8
SK2
  6
CONTINUOUS
370
25
 62
7
100
AcDbLine
 10
55.0
 20
33.99995
 30
0.0
 11
55.0
 21
35.99995
 31
0.0
  0
LINE
  5
A5F
330
1F
100
AcDbEntity
  8
SK2
  6
CONTINUOUS
370
25
 62
7
100
AcDbLine
 10
55.0
 20
35.99995
 30
0.0
 11
60.0
 21
34.99995
 31
0.0
  0
LINE
  5
A60
330
1F
100
AcDbEntity
  8
SK2
  6
CONTINUOUS
370
25
 62
7
100
AcDbLine
 10
59.9797535490641
 20
34.99590070981282
 30
0.0
 11
59.98650236604274
 21
35.00264952679145
 31
0.0
  0
LINE
  5
A61
330
1F
100
AcDbEntity
  8
SK2
  6
CONTINUOUS
370
25
 62
7
100
AcDbLine
 10
59.44942346317419
 20
34.88983469263484
 30
0.0
 11
59.63294897544947
 21
35.07336020491011
 31
0.0
  0
LINE
  5
A62
330
1F
100
AcDbEntity
  8
SK2
  6
CONTINUOUS
370
25
 62
7
100
AcDbLine
 10
58.91909337728428
 20
34.78376867545686
 30
0.0
 11
59.27939558485619
 21
35.14407088302876
 31
0.0
  0
LINE
  5
A63
330
1F
100
AcDbEntity
  8
SK2
  6
CONTINUOUS
370
25
 62
7
100
AcDbLine
 10
58.38876329139437
 20
34.67770265827887
 30
0.0
 11
58.92584219426291
 21
35.21478156114742
 31
0.0
  0
LINE
  5
A64
330
1F
100
AcDbEntity
  8
SK2
  6
CONTINUOUS
370
25
 62
7
100
AcDbLine
 10
57.85843320550445
 20
34.57163664110089
 30
0.0
 11
58.57228880366964
 21
35.28549223926608
 31
0.0
  0
LINE
  5
A65
330
1F
100
AcDbEntity
  8
SK2
  6
CONTINUOUS
370
25
 62
7
100
AcDbLine
 10
57.32810311961455
 20
34.46557062392291
 30
0.0
 11
58.21873541307637
 21
35.35620291738473
 31
0.0
  0
LINE
  5
A66
330
1F
100
AcDbEntity
  8
SK2
  6
CONTINUOUS
370
25
 62
7
100
AcDbLine
 10
56.79777303372464
 20
34.35950460674492
 30
0.0
 11
57.86518202248309
 21
35.42691359550338
 31
0.0
  0
LINE
  5
A67
330
1F
100
AcDbEntity
  8
SK2
  6
CONTINUOUS
370
25
 62
7
100
AcDbLine
 10
56.26744294783472
 20
34.25343858956694
 30
0.0
 11
57.51162863188982
 21
35.49762427362204
 31
0.0
  0
LINE
  5
A68
330
1F
100
AcDbEntity
  8
SK2
  6
CONTINUOUS
370
25
 62
7
100
AcDbLine
 10
55.73711286194482
 20
34.14737257238896
 30
0.0
 11
57.15807524129654
 21
35.5683349517407
 31
0.0
  0
LINE
  5
A69
330
1F
100
AcDbEntity
  8
SK2
  6
CONTINUOUS
370
25
 62
7
100
AcDbLine
 10
55.20678277605491
 20
34.04130655521098
 30
0.0
 11
56.80452185070327
 21
35.63904562985935
 31
0.0
  0
LINE
  5
A6A
330
1F
100
AcDbEntity
  8
SK2
  6
CONTINUOUS
370
25
 62
7
100
AcDbLine
 10
55.0
 20
34.258787847868
 30
0.0
 11
56.45096846010999
 21
35.709756307978
 31
0.0
  0
LINE
  5
A6B
330
1F
100
AcDbEntity
  8
SK2
  6
CONTINUOUS
370
25
 62
7
100
AcDbLine
 10
55.0
 20
34.68305191657993
 30
0.0
 11
56.09741506951672
 21
35.78046698609666
 31
0.0
  0
LINE
  5
A6C
330
1F
100
AcDbEntity
  8
SK2
  6
CONTINUOUS
370
25
 62
7
100
AcDbLine
 10
55.0
 20
35.10731598529186
 30
0.0
 11
55.74386167892345
 21
35.85117766421531
 31
0.0
  0
LINE
  5
A6D
330
1F
100
AcDbEntity
  8
SK2
  6
CONTINUOUS
370
25
 62
7
100
AcDbLine
 10
55.0
 20
35.53158005400379
 30
0.0
 11
55.39030828833017
 21
35.92188834233396
 31
0.0
  0
LINE
  5
A6E
330
1F
100
AcDbEntity
  8
SK2
  6
CONTINUOUS
370
25
 62
7
100
AcDbLine
 10
55.0
 20
35.95584412271572
 30
0.0
 11
55.0367548977369
 21
35.99259902045262
 31
0.0
  0
LINE
  5
A6F
330
1F
100
AcDbEntity
  8
SK2
  6
CONTINUOUS
370
25
 62
7
100
AcDbLine
 10
55.0
 20
34.04772721475246
 30
0.0
 11
55.03981434562706
 21
34.00791286912541
 31
0.0
  0
LINE
  5
A70
330
1F
100
AcDbEntity
  8
SK2
  6
CONTINUOUS
370
25
 62
7
100
AcDbLine
 10
55.0
 20
34.4719912834644
 30
0.0
 11
55.39336773622033
 21
34.07862354724406
 31
0.0
  0
LINE
  5
A71
330
1F
100
AcDbEntity
  8
SK2
  6
CONTINUOUS
370
25
 62
7
100
AcDbLine
 10
55.0
 20
34.89625535217633
 30
0.0
 11
55.74692112681361
 21
34.14933422536272
 31
0.0
  0
LINE
  5
A72
330
1F
100
AcDbEntity
  8
SK2
  6
CONTINUOUS
370
25
 62
7
100
AcDbLine
 10
55.0
 20
35.32051942088826
 30
0.0
 11
56.10047451740688
 21
34.22004490348137
 31
0.0
  0
LINE
  5
A73
330
1F
100
AcDbEntity
  8
SK2
  6
CONTINUOUS
370
25
 62
7
100
AcDbLine
 10
55.0
 20
35.74478348960019
 30
0.0
 11
56.45402790800016
 21
34.29075558160003
 31
0.0
  0
LINE
  5
A74
330
1F
100
AcDbEntity
  8
SK2
  6
CONTINUOUS
370
25
 62
7
100
AcDbLine
 10
55.21137194789015
 20
35.95767561042197
 30
0.0
 11
56.80758129859343
 21
34.36146625971868
 31
0.0
  0
LINE
  5
A75
330
1F
100
AcDbEntity
  8
SK2
  6
CONTINUOUS
370
25
 62
7
100
AcDbLine
 10
55.74170203378006
 20
35.85160959324399
 30
0.0
 11
57.16113468918671
 21
34.43217693783734
 31
0.0
  0
LINE
  5
A76
330
1F
100
AcDbEntity
  8
SK2
  6
CONTINUOUS
370
25
 62
7
100
AcDbLine
 10
56.27203211966997
 20
35.74554357606601
 30
0.0
 11
57.51468807977998
 21
34.50288761595599
 31
0.0
  0
LINE
  5
A77
330
1F
100
AcDbEntity
  8
SK2
  6
CONTINUOUS
370
25
 62
7
100
AcDbLine
 10
56.80236220555988
 20
35.63947755888803
 30
0.0
 11
57.86824147037326
 21
34.57359829407464
 31
0.0
  0
LINE
  5
A78
330
1F
100
AcDbEntity
  8
SK2
  6
CONTINUOUS
370
25
 62
7
100
AcDbLine
 10
57.3326922914498
 20
35.53341154171004
 30
0.0
 11
58.22179486096653
 21
34.6443089721933
 31
0.0
  0
LINE
  5
A79
330
1F
100
AcDbEntity
  8
SK2
  6
CONTINUOUS
370
25
 62
7
100
AcDbLine
 10
57.8630223773397
 20
35.42734552453206
 30
0.0
 11
58.5753482515598
 21
34.71501965031196
 31
0.0
  0
LINE
  5
A7A
330
1F
100
AcDbEntity
  8
SK2
  6
CONTINUOUS
370
25
 62
7
100
AcDbLine
 10
58.39335246322961
 20
35.32127950735408
 30
0.0
 11
58.92890164215307
 21
34.78573032843061
 31
0.0
  0
LINE
  5
A7B
330
1F
100
AcDbEntity
  8
SK2
  6
CONTINUOUS
370
25
 62
7
100
AcDbLine
 10
58.92368254911952
 20
35.2152134901761
 30
0.0
 11
59.28245503274635
 21
34.85644100654927
 31
0.0
  0
LINE
  5
A7C
330
1F
100
AcDbEntity
  8
SK2
  6
CONTINUOUS
370
25
 62
7
100
AcDbLine
 10
59.45401263500943
 20
35.10914747299812
 30
0.0
 11
59.63600842333962
 21
34.92715168466792
 31
0.0
  0
LINE
  5
A7D
330
1F
100
AcDbEntity
  8
SK2
  6
CONTINUOUS
370
25
 62
7
100
AcDbLine
 10
59.98434272089934
 20
35.00308145582013
 30
0.0
 11
59.98956181393289
 21
34.99786236278658
 31
0.0
  0
TEXT
  5
A7E
330
1F
100
AcDbEntity
  8
SK2
  6
CONTINUOUS
370
25
 62
7
100
AcDbText
 10
27.375
 20
36.49995
 30
0.0
 40
3.5
  1
60
 72
     1
 11
30.0
 21
36.49995
 31
0.0
100
AcDbText
  0
LINE
  5
A7F
330
1F
100
AcDbEntity
  8
2
  6
CONTINUOUS
370
25
 62
7
100
AcDbLine
 10
50.0
 20
-1.49995
 30
0.0
 11
50.0
 21
-24.5
 31
0.0
  0
LINE
  5
A80
330
1F
100
AcDbEntity
  8
2
  6
CONTINUOUS
370
25
 62
7
100
AcDbLine
 10
60.0
 20
-24.5
 30
0.0
 11
60.0
 21
-1.5
 31
0.0
  0
LINE
  5
A81
330
1F
100
AcDbEntity
  8
2
  6
CONTINUOUS
370
25
 62
7
100
AcDbLine
 10
43.0
 20
-23.5
 30
0.0
 11
67.0
 21
-23.5
 31
0.0
  0
LINE
  5
A82
330
1F
100
AcDbEntity
  8
2
  6
CONTINUOUS
370
25
 62
7
100
AcDbLine
 10
50.0
 20
-23.5
 30
0.0
 11
45.0
 21
-24.5
 31
0.0
  0
LINE
  5
A83
330
1F
100
AcDbEntity
  8
2
  6
CONTINUOUS
370
25
 62
7
100
AcDbLine
 10
45.0
 20
-24.5
 30
0.0
 11
45.0
 21
-22.5
 31
0.0
  0
LINE
  5
A84
330
1F
100
AcDbEntity
  8
2
  6
CONTINUOUS
370
25
 62
7
100
AcDbLine
 10
45.0
 20
-22.5
 30
0.0
 11
50.0
 21
-23.5
 31
0.0
  0
LINE
  5
A85
330
1F
100
AcDbEntity
  8
2
  6
CONTINUOUS
370
25
 62
7
100
AcDbLine
 10
49.63627646233768
 20
-23.57274470753246
 30
0.0
 11
49.75751764155846
 21
-23.45150352831169
 31
0.0
  0
LINE
  5
A86
330
1F
100
AcDbEntity
  8
2
  6
CONTINUOUS
370
25
 62
7
100
AcDbLine
 10
49.10594637644778
 20
-23.67881072471044
 30
0.0
 11
49.40396425096519
 21
-23.38079285019304
 31
0.0
  0
LINE
  5
A87
330
1F
100
AcDbEntity
  8
2
  6
CONTINUOUS
370
25
 62
7
100
AcDbLine
 10
48.57561629055787
 20
-23.78487674188843
 30
0.0
 11
49.05041086037191
 21
-23.31008217207438
 31
0.0
  0
LINE
  5
A88
330
1F
100
AcDbEntity
  8
2
  6
CONTINUOUS
370
25
 62
7
100
AcDbLine
 10
48.04528620466796
 20
-23.89094275906641
 30
0.0
 11
48.69685746977864
 21
-23.23937149395573
 31
0.0
  0
LINE
  5
A89
330
1F
100
AcDbEntity
  8
2
  6
CONTINUOUS
370
25
 62
7
100
AcDbLine
 10
47.51495611877804
 20
-23.99700877624439
 30
0.0
 11
48.34330407918537
 21
-23.16866081583707
 31
0.0
  0
LINE
  5
A8A
330
1F
100
AcDbEntity
  8
2
  6
CONTINUOUS
370
25
 62
7
100
AcDbLine
 10
46.98462603288814
 20
-24.10307479342237
 30
0.0
 11
47.9897506885921
 21
-23.09795013771842
 31
0.0
  0
LINE
  5
A8B
330
1F
100
AcDbEntity
  8
2
  6
CONTINUOUS
370
25
 62
7
100
AcDbLine
 10
46.45429594699822
 20
-24.20914081060036
 30
0.0
 11
47.63619729799882
 21
-23.02723945959976
 31
0.0
  0
LINE
  5
A8C
330
1F
100
AcDbEntity
  8
2
  6
CONTINUOUS
370
25
 62
7
100
AcDbLine
 10
45.92396586110831
 20
-24.31520682777834
 30
0.0
 11
47.28264390740554
 21
-22.95652878148111
 31
0.0
  0
LINE
  5
A8D
330
1F
100
AcDbEntity
  8
2
  6
CONTINUOUS
370
25
 62
7
100
AcDbLine
 10
45.3936357752184
 20
-24.42127284495632
 30
0.0
 11
46.92909051681227
 21
-22.88581810336245
 31
0.0
  0
LINE
  5
A8E
330
1F
100
AcDbEntity
  8
2
  6
CONTINUOUS
370
25
 62
7
100
AcDbLine
 10
45.0
 20
-24.3906445514628
 30
0.0
 11
46.575537126219
 21
-22.8151074252438
 31
0.0
  0
LINE
  5
A8F
330
1F
100
AcDbEntity
  8
2
  6
CONTINUOUS
370
25
 62
7
100
AcDbLine
 10
45.0
 20
-23.96638048275087
 30
0.0
 11
46.22198373562573
 21
-22.74439674712514
 31
0.0
  0
LINE
  5
A90
330
1F
100
AcDbEntity
  8
2
  6
CONTINUOUS
370
25
 62
7
100
AcDbLine
 10
45.0
 20
-23.54211641403894
 30
0.0
 11
45.86843034503245
 21
-22.67368606900649
 31
0.0
  0
LINE
  5
A91
330
1F
100
AcDbEntity
  8
2
  6
CONTINUOUS
370
25
 62
7
100
AcDbLine
 10
45.0
 20
-23.11785234532702
 30
0.0
 11
45.51487695443918
 21
-22.60297539088783
 31
0.0
  0
LINE
  5
A92
330
1F
100
AcDbEntity
  8
2
  6
CONTINUOUS
370
25
 62
7
100
AcDbLine
 10
45.0
 20
-22.69358827661509
 30
0.0
 11
45.1613235638459
 21
-22.53226471276918
 31
0.0
  0
LINE
  5
A93
330
1F
100
AcDbEntity
  8
2
  6
CONTINUOUS
370
25
 62
7
100
AcDbLine
 10
45.0
 20
-24.42151033797294
 30
0.0
 11
45.06540805168921
 21
-24.48691838966216
 31
0.0
  0
LINE
  5
A94
330
1F
100
AcDbEntity
  8
2
  6
CONTINUOUS
370
25
 62
7
100
AcDbLine
 10
45.0
 20
-23.99724626926102
 30
0.0
 11
45.41896144228249
 21
-24.4162077115435
 31
0.0
  0
LINE
  5
A95
330
1F
100
AcDbEntity
  8
2
  6
CONTINUOUS
370
25
 62
7
100
AcDbLine
 10
45.0
 20
-23.57298220054909
 30
0.0
 11
45.77251483287576
 21
-24.34549703342485
 31
0.0
  0
LINE
  5
A96
330
1F
100
AcDbEntity
  8
2
  6
CONTINUOUS
370
25
 62
7
100
AcDbLine
 10
45.0
 20
-23.14871813183716
 30
0.0
 11
46.12606822346903
 21
-24.27478635530619
 31
0.0
  0
LINE
  5
A97
330
1F
100
AcDbEntity
  8
2
  6
CONTINUOUS
370
25
 62
7
100
AcDbLine
 10
45.0
 20
-22.72445406312523
 30
0.0
 11
46.4796216140623
 21
-24.20407567718754
 31
0.0
  0
LINE
  5
A98
330
1F
100
AcDbEntity
  8
2
  6
CONTINUOUS
370
25
 62
7
100
AcDbLine
 10
45.24976250698337
 20
-22.54995250139667
 30
0.0
 11
46.83317500465558
 21
-24.13336499906888
 31
0.0
  0
LINE
  5
A99
330
1F
100
AcDbEntity
  8
2
  6
CONTINUOUS
370
25
 62
7
100
AcDbLine
 10
45.78009259287327
 20
-22.65601851857465
 30
0.0
 11
47.18672839524885
 21
-24.06265432095023
 31
0.0
  0
LINE
  5
A9A
330
1F
100
AcDbEntity
  8
2
  6
CONTINUOUS
370
25
 62
7
100
AcDbLine
 10
46.31042267876318
 20
-22.76208453575263
 30
0.0
 11
47.54028178584213
 21
-23.99194364283158
 31
0.0
  0
LINE
  5
A9B
330
1F
100
AcDbEntity
  8
2
  6
CONTINUOUS
370
25
 62
7
100
AcDbLine
 10
46.8407527646531
 20
-22.86815055293062
 30
0.0
 11
47.8938351764354
 21
-23.92123296471292
 31
0.0
  0
LINE
  5
A9C
330
1F
100
AcDbEntity
  8
2
  6
CONTINUOUS
370
25
 62
7
100
AcDbLine
 10
47.371082850543
 20
-22.9742165701086
 30
0.0
 11
48.24738856702867
 21
-23.85052228659427
 31
0.0
  0
LINE
  5
A9D
330
1F
100
AcDbEntity
  8
2
  6
CONTINUOUS
370
25
 62
7
100
AcDbLine
 10
47.90141293643291
 20
-23.08028258728658
 30
0.0
 11
48.60094195762195
 21
-23.77981160847561
 31
0.0
  0
LINE
  5
A9E
330
1F
100
AcDbEntity
  8
2
  6
CONTINUOUS
370
25
 62
7
100
AcDbLine
 10
48.43174302232283
 20
-23.18634860446456
 30
0.0
 11
48.95449534821522
 21
-23.70910093035696
 31
0.0
  0
LINE
  5
A9F
330
1F
100
AcDbEntity
  8
2
  6
CONTINUOUS
370
25
 62
7
100
AcDbLine
 10
48.96207310821273
 20
-23.29241462164255
 30
0.0
 11
49.30804873880849
 21
-23.6383902522383
 31
0.0
  0
LINE
  5
AA0
330
1F
100
AcDbEntity
  8
2
  6
CONTINUOUS
370
25
 62
7
100
AcDbLine
 10
49.49240319410264
 20
-23.39848063882053
 30
0.0
 11
49.66160212940176
 21
-23.56767957411965
 31
0.0
  0
LINE
  5
AA1
330
1F
100
AcDbEntity
  8
2
  6
CONTINUOUS
370
25
 62
7
100
AcDbLine
 10
60.0
 20
-23.5
 30
0.0
 11
65.0
 21
-22.5
 31
0.0
  0
LINE
  5
AA2
330
1F
100
AcDbEntity
  8
2
  6
CONTINUOUS
370
25
 62
7
100
AcDbLine
 10
65.0
 20
-22.5
 30
0.0
 11
65.0
 21
-24.5
 31
0.0
  0
LINE
  5
AA3
330
1F
100
AcDbEntity
  8
2
  6
CONTINUOUS
370
25
 62
7
100
AcDbLine
 10
65.0
 20
-24.5
 30
0.0
 11
60.0
 21
-23.5
 31
0.0
  0
LINE
  5
AA4
330
1F
100
AcDbEntity
  8
2
  6
CONTINUOUS
370
25
 62
7
100
AcDbLine
 10
64.75692241864706
 20
-24.45138448372941
 30
0.0
 11
65.0
 21
-24.20830690237648
 31
0.0
  0
LINE
  5
AA5
330
1F
100
AcDbEntity
  8
2
  6
CONTINUOUS
370
25
 62
7
100
AcDbLine
 10
64.40336902805379
 20
-24.38067380561076
 30
0.0
 11
65.0
 21
-23.78404283366455
 31
0.0
  0
LINE
  5
AA6
330
1F
100
AcDbEntity
  8
2
  6
CONTINUOUS
370
25
 62
7
100
AcDbLine
 10
64.04981563746053
 20
-24.3099631274921
 30
0.0
 11
65.0
 21
-23.35977876495263
 31
0.0
  0
LINE
  5
AA7
330
1F
100
AcDbEntity
  8
2
  6
CONTINUOUS
370
25
 62
7
100
AcDbLine
 10
63.69626224686725
 20
-24.23925244937345
 30
0.0
 11
65.0
 21
-22.9355146962407
 31
0.0
  0
LINE
  5
AA8
330
1F
100
AcDbEntity
  8
2
  6
CONTINUOUS
370
25
 62
7
100
AcDbLine
 10
63.34270885627397
 20
-24.16854177125479
 30
0.0
 11
65.0
 21
-22.51125062752877
 31
0.0
  0
LINE
  5
AA9
330
1F
100
AcDbEntity
  8
2
  6
CONTINUOUS
370
25
 62
7
100
AcDbLine
 10
62.9891554656807
 20
-24.09783109313614
 30
0.0
 11
64.48373319852105
 21
-22.60325336029579
 31
0.0
  0
LINE
  5
AAA
330
1F
100
AcDbEntity
  8
2
  6
CONTINUOUS
370
25
 62
7
100
AcDbLine
 10
62.63560207508743
 20
-24.02712041501749
 30
0.0
 11
63.95340311263115
 21
-22.70931937747377
 31
0.0
  0
LINE
  5
AAB
330
1F
100
AcDbEntity
  8
2
  6
CONTINUOUS
370
25
 62
7
100
AcDbLine
 10
62.28204868449416
 20
-23.95640973689883
 30
0.0
 11
63.42307302674124
 21
-22.81538539465175
 31
0.0
  0
LINE
  5
AAC
330
1F
100
AcDbEntity
  8
2
  6
CONTINUOUS
370
25
 62
7
100
AcDbLine
 10
61.92849529390088
 20
-23.88569905878018
 30
0.0
 11
62.89274294085133
 21
-22.92145141182973
 31
0.0
  0
LINE
  5
AAD
330
1F
100
AcDbEntity
  8
2
  6
CONTINUOUS
370
25
 62
7
100
AcDbLine
 10
61.57494190330761
 20
-23.81498838066152
 30
0.0
 11
62.36241285496142
 21
-23.02751742900772
 31
0.0
  0
LINE
  5
AAE
330
1F
100
AcDbEntity
  8
2
  6
CONTINUOUS
370
25
 62
7
100
AcDbLine
 10
61.22138851271434
 20
-23.74427770254287
 30
0.0
 11
61.8320827690715
 21
-23.1335834461857
 31
0.0
  0
LINE
  5
AAF
330
1F
100
AcDbEntity
  8
2
  6
CONTINUOUS
370
25
 62
7
100
AcDbLine
 10
60.86783512212106
 20
-23.67356702442421
 30
0.0
 11
61.3017526831816
 21
-23.23964946336368
 31
0.0
  0
LINE
  5
AB0
330
1F
100
AcDbEntity
  8
2
  6
CONTINUOUS
370
25
 62
7
100
AcDbLine
 10
60.51428173152779
 20
-23.60285634630556
 30
0.0
 11
60.77142259729169
 21
-23.34571548054166
 31
0.0
  0
LINE
  5
AB1
330
1F
100
AcDbEntity
  8
2
  6
CONTINUOUS
370
25
 62
7
100
AcDbLine
 10
60.16072834093452
 20
-23.5321456681869
 30
0.0
 11
60.24109251140177
 21
-23.45178149771964
 31
0.0
  0
LINE
  5
AB2
330
1F
100
AcDbEntity
  8
2
  6
CONTINUOUS
370
25
 62
7
100
AcDbLine
 10
60.06481282877782
 20
-23.48703743424444
 30
0.0
 11
60.09721924316674
 21
-23.51944384863335
 31
0.0
  0
LINE
  5
AB3
330
1F
100
AcDbEntity
  8
2
  6
CONTINUOUS
370
25
 62
7
100
AcDbLine
 10
60.4183662193711
 20
-23.41632675612578
 30
0.0
 11
60.62754932905665
 21
-23.62550986581133
 31
0.0
  0
LINE
  5
AB4
330
1F
100
AcDbEntity
  8
2
  6
CONTINUOUS
370
25
 62
7
100
AcDbLine
 10
60.77191960996437
 20
-23.34561607800713
 30
0.0
 11
61.15787941494656
 21
-23.73157588298931
 31
0.0
  0
LINE
  5
AB5
330
1F
100
AcDbEntity
  8
2
  6
CONTINUOUS
370
25
 62
7
100
AcDbLine
 10
61.12547300055765
 20
-23.27490539988847
 30
0.0
 11
61.68820950083648
 21
-23.8376419001673
 31
0.0
  0
LINE
  5
AB6
330
1F
100
AcDbEntity
  8
2
  6
CONTINUOUS
370
25
 62
7
100
AcDbLine
 10
61.47902639115092
 20
-23.20419472176982
 30
0.0
 11
62.21853958672638
 21
-23.94370791734528
 31
0.0
  0
LINE
  5
AB7
330
1F
100
AcDbEntity
  8
2
  6
CONTINUOUS
370
25
 62
7
100
AcDbLine
 10
61.83257978174419
 20
-23.13348404365116
 30
0.0
 11
62.74886967261629
 21
-24.04977393452326
 31
0.0
  0
LINE
  5
AB8
330
1F
100
AcDbEntity
  8
2
  6
CONTINUOUS
370
25
 62
7
100
AcDbLine
 10
62.18613317233746
 20
-23.0627733655325
 30
0.0
 11
63.27919975850621
 21
-24.15583995170124
 31
0.0
  0
LINE
  5
AB9
330
1F
100
AcDbEntity
  8
2
  6
CONTINUOUS
370
25
 62
7
100
AcDbLine
 10
62.53968656293074
 20
-22.99206268741385
 30
0.0
 11
63.80952984439611
 21
-24.26190596887923
 31
0.0
  0
LINE
  5
ABA
330
1F
100
AcDbEntity
  8
2
  6
CONTINUOUS
370
25
 62
7
100
AcDbLine
 10
62.89323995352401
 20
-22.92135200929519
 30
0.0
 11
64.33985993028602
 21
-24.36797198605721
 31
0.0
  0
LINE
  5
ABB
330
1F
100
AcDbEntity
  8
2
  6
CONTINUOUS
370
25
 62
7
100
AcDbLine
 10
63.24679334411728
 20
-22.85064133117654
 30
0.0
 11
64.87019001617594
 21
-24.47403800323519
 31
0.0
  0
LINE
  5
ABC
330
1F
100
AcDbEntity
  8
2
  6
CONTINUOUS
370
25
 62
7
100
AcDbLine
 10
63.60034673471056
 20
-22.77993065305789
 30
0.0
 11
65.0
 21
-24.17958391834733
 31
0.0
  0
LINE
  5
ABD
330
1F
100
AcDbEntity
  8
2
  6
CONTINUOUS
370
25
 62
7
100
AcDbLine
 10
63.95390012530383
 20
-22.70921997493923
 30
0.0
 11
65.0
 21
-23.7553198496354
 31
0.0
  0
LINE
  5
ABE
330
1F
100
AcDbEntity
  8
2
  6
CONTINUOUS
370
25
 62
7
100
AcDbLine
 10
64.30745351589711
 20
-22.63850929682058
 30
0.0
 11
65.0
 21
-23.33105578092347
 31
0.0
  0
LINE
  5
ABF
330
1F
100
AcDbEntity
  8
2
  6
CONTINUOUS
370
25
 62
7
100
AcDbLine
 10
64.66100690649037
 20
-22.56779861870192
 30
0.0
 11
65.0
 21
-22.90679171221154
 31
0.0
  0
TEXT
  5
AC0
330
1F
100
AcDbEntity
  8
2
  6
CONTINUOUS
370
25
 62
7
100
AcDbText
 10
52.95833333333334
 20
-22.0
 30
0.0
 40
3.5
  1
10
 72
     1
 11
55.0
 21
-22.0
 31
0.0
100
AcDbText
  0
LINE
  5
AC1
330
1F
100
AcDbEntity
  8
SK1
  6
CONTINUOUS
370
50
 62
4
100
AcDbLine
 10
44.5
 20
0.0
 30
0.0
 11
46.25
 21
0.0
 31
0.0
  0
LINE
  5
AC2
330
1F
100
AcDbEntity
  8
SK1
  6
CONTINUOUS
370
50
 62
4
100
AcDbLine
 10
44.5
 20
0.0
 30
0.0
 11
44.5
 21
1.75
 31
0.0
  0
ARC
  5
AC3
330
1F
100
AcDbEntity
  8
SK1
  6
CONTINUOUS
370
50
 62
4
100
AcDbCircle
 10
44.5
 20
0.0
 30
0.0
 40
1.75
100
AcDbArc
 50
0.0
 51
90.0
  0
LINE
  5
AC4
330
1F
100
AcDbEntity
  8
SK1
  6
CONTINUOUS
370
50
 62
4
100
AcDbLine
 10
44.5
 20
0.0
 30
0.0
 11
42.75
 21
0.0
 31
0.0
  0
ARC
  5
AC5
330
1F
100
AcDbEntity
  8
SK1
  6
CONTINUOUS
370
50
 62
4
100
AcDbCircle
 10
44.5
 20
0.0
 30
0.0
 40
1.75
100
AcDbArc
 50
180.0
 51
270.0
  0
LINE
  5
AC6
330
1F
100
AcDbEntity
  8
SK1
  6
CONTINUOUS
370
50
 62
4
100
AcDbLine
 10
44.5
 20
-1.75
 30
0.0
 11
44.5
 21
0.0
 31
0.0
  0
ARC
  5
AC7
330
1F
100
AcDbEntity
  8
SK1
  6
CONTINUOUS
370
50
 62
4
100
AcDbCircle
 10
44.5
 20
0.0
 30
0.0
 40
1.75
100
AcDbArc
 50
270.0
 51
0.0
  0
ARC
  5
AC8
330
1F
100
AcDbEntity
  8
SK1
  6
CONTINUOUS
370
50
 62
4
100
AcDbCircle
 10
44.5
 20
0.0
 30
0.0
 40
1.75
100
AcDbArc
 50
90.0
 51
180.0
  0
LINE
  5
AC9
330
1F
100
AcDbEntity
  8
SK1
  6
CONTINUOUS
370
50
 62
4
100
AcDbLine
 10
44.27717274741573
 20
-1.73564731720198
 30
0.0
 11
44.5
 21
-1.512820064617713
 31
0.0
  0
LINE
  5
ACA
330
1F
100
AcDbEntity
  8
SK1
  6
CONTINUOUS
370
50
 62
4
100
AcDbLine
 10
46.01282006461771
 20
0.0
 30
0.0
 11
46.23564731720198
 21
0.2228272525842674
 31
0.0
  0
LINE
  5
ACB
330
1F
100
AcDbEntity
  8
SK1
  6
CONTINUOUS
370
50
 62
4
100
AcDbLine
 10
44.06930380681873
 20
-1.69602888438369
 30
0.0
 11
44.5
 21
-1.265332691202421
 31
0.0
  0
LINE
  5
ACC
330
1F
100
AcDbEntity
  8
SK1
  6
CONTINUOUS
370
50
 62
4
100
AcDbLine
 10
45.76533269120242
 20
0.0
 30
0.0
 11
46.19602888438369
 21
0.4306961931812696
 31
0.0
  0
LINE
  5
ACD
330
1F
100
AcDbEntity
  8
SK1
  6
CONTINUOUS
370
50
 62
4
100
AcDbLine
 10
43.88148340435765
 20
-1.636361913429485
 30
0.0
 11
44.5
 21
-1.01784531778713
 31
0.0
  0
LINE
  5
ACE
330
1F
100
AcDbEntity
  8
SK1
  6
CONTINUOUS
370
50
 62
4
100
AcDbLine
 10
45.51784531778713
 20
0.0
 30
0.0
 11
46.13636191342948
 21
0.6185165956423557
 31
0.0
  0
LINE
  5
ACF
330
1F
100
AcDbEntity
  8
SK1
  6
CONTINUOUS
370
50
 62
4
100
AcDbLine
 10
43.7098551094628
 20
-1.560502834909039
 30
0.0
 11
44.5
 21
-0.7703579443718382
 31
0.0
  0
LINE
  5
AD0
330
1F
100
AcDbEntity
  8
SK1
  6
CONTINUOUS
370
50
 62
4
100
AcDbLine
 10
45.27035794437184
 20
0.0
 30
0.0
 11
46.06050283490904
 21
0.7901448905372013
 31
0.0
  0
LINE
  5
AD1
330
1F
100
AcDbEntity
  8
SK1
  6
CONTINUOUS
370
50
 62
4
100
AcDbLine
 10
43.55217783219447
 20
-1.470692738762079
 30
0.0
 11
44.5
 21
-0.5228705709565462
 31
0.0
  0
LINE
  5
AD2
330
1F
100
AcDbEntity
  8
SK1
  6
CONTINUOUS
370
50
 62
4
100
AcDbLine
 10
45.02287057095655
 20
0.0
 30
0.0
 11
45.97069273876208
 21
0.947822167805533
 31
0.0
  0
LINE
  5
AD3
330
1F
100
AcDbEntity
  8
SK1
  6
CONTINUOUS
370
50
 62
4
100
AcDbLine
 10
43.40842956711548
 20
-1.366953630425777
 30
0.0
 11
44.5
 21
-0.2753831975412551
 31
0.0
  0
LINE
  5
AD4
330
1F
100
AcDbEntity
  8
SK1
  6
CONTINUOUS
370
50
 62
4
100
AcDbLine
 10
44.77538319754125
 20
0.0
 30
0.0
 11
45.86695363042578
 21
1.091570432884522
 31
0.0
  0
LINE
  5
AD5
330
1F
100
AcDbEntity
  8
SK1
  6
CONTINUOUS
370
50
 62
4
100
AcDbLine
 10
43.27712164538165
 20
-1.25077417874432
 30
0.0
 11
44.5
 21
-0.0278958241259639
 31
0.0
  0
LINE
  5
AD6
330
1F
100
AcDbEntity
  8
SK1
  6
CONTINUOUS
370
50
 62
4
100
AcDbLine
 10
44.52789582412596
 20
0.0
 30
0.0
 11
45.75077417874432
 21
1.222878354618356
 31
0.0
  0
LINE
  5
AD7
330
1F
100
AcDbEntity
  8
SK1
  6
CONTINUOUS
370
50
 62
4
100
AcDbLine
 10
43.15784030371346
 20
-1.122568146997212
 30
0.0
 11
44.28040845071067
 21
0.0
 31
0.0
  0
LINE
  5
AD8
330
1F
100
AcDbEntity
  8
SK1
  6
CONTINUOUS
370
50
 62
4
100
AcDbLine
 10
44.5
 20
0.2195915492893277
 30
0.0
 11
45.62256814699721
 21
1.34215969628654
 31
0.0
  0
LINE
  5
AD9
330
1F
100
AcDbEntity
  8
SK1
  6
CONTINUOUS
370
50
 62
4
100
AcDbLine
 10
43.05188167231256
 20
-0.9810394049828186
 30
0.0
 11
44.03292107729538
 21
0.0
 31
0.0
  0
LINE
  5
ADA
330
1F
100
AcDbEntity
  8
SK1
  6
CONTINUOUS
370
50
 62
4
100
AcDbLine
 10
44.5
 20
0.4670789227046193
 30
0.0
 11
45.48103940498282
 21
1.448118327687438
 31
0.0
  0
LINE
  5
ADB
330
1F
100
AcDbEntity
  8
SK1
  6
CONTINUOUS
370
50
 62
4
100
AcDbLine
 10
42.95832908651575
 20
-0.8271046173643402
 30
0.0
 11
43.78543370388009
 21
0.0
 31
0.0
  0
LINE
  5
ADC
330
1F
100
AcDbEntity
  8
SK1
  6
CONTINUOUS
370
50
 62
4
100
AcDbLine
 10
44.5
 20
0.71456629611991
 30
0.0
 11
45.32710461736434
 21
1.54167091348425
 31
0.0
  0
LINE
  5
ADD
330
1F
100
AcDbEntity
  8
SK1
  6
CONTINUOUS
370
50
 62
4
100
AcDbLine
 10
42.87918473824205
 20
-0.6587615922227528
 30
0.0
 11
43.5379463304648
 21
0.0
 31
0.0
  0
LINE
  5
ADE
330
1F
100
AcDbEntity
  8
SK1
  6
CONTINUOUS
370
50
 62
4
100
AcDbLine
 10
44.5
 20
0.9620536695352015
 30
0.0
 11
45.15876159222275
 21
1.620815261757954
 31
0.0
  0
LINE
  5
ADF
330
1F
100
AcDbEntity
  8
SK1
  6
CONTINUOUS
370
50
 62
4
100
AcDbLine
 10
42.81629687706963
 20
-0.474162079979876
 30
0.0
 11
43.29045895704951
 21
0.0
 31
0.0
  0
LINE
  5
AE0
330
1F
100
AcDbEntity
  8
SK1
  6
CONTINUOUS
370
50
 62
4
100
AcDbLine
 10
44.5
 20
1.209541042950494
 30
0.0
 11
44.97416207997988
 21
1.683703122930369
 31
0.0
  0
LINE
  5
AE1
330
1F
100
AcDbEntity
  8
SK1
  6
CONTINUOUS
370
50
 62
4
100
AcDbLine
 10
42.77198100434271
 20
-0.2709905792915031
 30
0.0
 11
43.04297158363422
 21
0.0
 31
0.0
  0
LINE
  5
AE2
330
1F
100
AcDbEntity
  8
SK1
  6
CONTINUOUS
370
50
 62
4
100
AcDbLine
 10
44.5
 20
1.457028416365784
 30
0.0
 11
44.7709905792915
 21
1.728018995657286
 31
0.0
  0
LINE
  5
AE3
330
1F
100
AcDbEntity
  8
SK1
  6
CONTINUOUS
370
50
 62
4
100
AcDbLine
 10
42.7513858468978
 20
-0.0440983633211194
 30
0.0
 11
42.79548421021892
 21
0.0
 31
0.0
  0
LINE
  5
AE4
330
1F
100
AcDbEntity
  8
SK1
  6
CONTINUOUS
370
50
 62
4
100
AcDbLine
 10
44.5
 20
1.704515789781075
 30
0.0
 11
44.54409836332112
 21
1.748614153102194
 31
0.0
  0
LINE
  5
AE5
330
1F
100
AcDbEntity
  8
SK1
  6
CONTINUOUS
370
50
 62
4
100
AcDbLine
 10
42.86386517603682
 20
-0.6191473609004006
 30
0.0
 11
43.8808526390996
 21
-1.636134823963186
 31
0.0
  0
LINE
  5
AE6
330
1F
100
AcDbEntity
  8
SK1
  6
CONTINUOUS
370
50
 62
4
100
AcDbLine
 10
42.77363430643545
 20
-0.2814291178837463
 30
0.0
 11
44.21857088211625
 21
-1.726365693564548
 31
0.0
  0
LINE
  5
AE7
330
1F
100
AcDbEntity
  8
SK1
  6
CONTINUOUS
370
50
 62
4
100
AcDbLine
 10
42.7503344343115
 20
-0.0106418723445003
 30
0.0
 11
44.4893581276555
 21
-1.749665565688503
 31
0.0
  0
LINE
  5
AE8
330
1F
100
AcDbEntity
  8
SK1
  6
CONTINUOUS
370
50
 62
4
100
AcDbLine
 10
42.98717993538229
 20
0.0
 30
0.0
 11
44.5
 21
-1.51282006461771
 31
0.0
  0
LINE
  5
AE9
330
1F
100
AcDbEntity
  8
SK1
  6
CONTINUOUS
370
50
 62
4
100
AcDbLine
 10
43.23466730879758
 20
0.0
 30
0.0
 11
44.5
 21
-1.265332691202418
 31
0.0
  0
LINE
  5
AEA
330
1F
100
AcDbEntity
  8
SK1
  6
CONTINUOUS
370
50
 62
4
100
AcDbLine
 10
43.48215468221287
 20
0.0
 30
0.0
 11
44.5
 21
-1.017845317787128
 31
0.0
  0
LINE
  5
AEB
330
1F
100
AcDbEntity
  8
SK1
  6
CONTINUOUS
370
50
 62
4
100
AcDbLine
 10
43.72964205562816
 20
0.0
 30
0.0
 11
44.5
 21
-0.7703579443718369
 31
0.0
  0
LINE
  5
AEC
330
1F
100
AcDbEntity
  8
SK1
  6
CONTINUOUS
370
50
 62
4
100
AcDbLine
 10
43.97712942904345
 20
0.0
 30
0.0
 11
44.5
 21
-0.5228705709565453
 31
0.0
  0
LINE
  5
AED
330
1F
100
AcDbEntity
  8
SK1
  6
CONTINUOUS
370
50
 62
4
100
AcDbLine
 10
44.22461680245875
 20
0.0
 30
0.0
 11
44.5
 21
-0.2753831975412537
 31
0.0
  0
LINE
  5
AEE
330
1F
100
AcDbEntity
  8
SK1
  6
CONTINUOUS
370
50
 62
4
100
AcDbLine
 10
44.47210417587404
 20
0.0
 30
0.0
 11
44.5
 21
-0.027895824125963
 31
0.0
  0
LINE
  5
AEF
330
1F
100
AcDbEntity
  8
SK1
  6
CONTINUOUS
370
50
 62
4
100
AcDbLine
 10
44.5
 20
0.219591549289329
 30
0.0
 11
44.71959154928933
 21
0.0
 31
0.0
  0
LINE
  5
AF0
330
1F
100
AcDbEntity
  8
SK1
  6
CONTINUOUS
370
50
 62
4
100
AcDbLine
 10
44.5
 20
0.4670789227046202
 30
0.0
 11
44.96707892270462
 21
0.0
 31
0.0
  0
LINE
  5
AF1
330
1F
100
AcDbEntity
  8
SK1
  6
CONTINUOUS
370
50
 62
4
100
AcDbLine
 10
44.5
 20
0.7145662961199113
 30
0.0
 11
45.21456629611991
 21
0.0
 31
0.0
  0
LINE
  5
AF2
330
1F
100
AcDbEntity
  8
SK1
  6
CONTINUOUS
370
50
 62
4
100
AcDbLine
 10
44.5
 20
0.9620536695352029
 30
0.0
 11
45.4620536695352
 21
0.0
 31
0.0
  0
LINE
  5
AF3
330
1F
100
AcDbEntity
  8
SK1
  6
CONTINUOUS
370
50
 62
4
100
AcDbLine
 10
44.5
 20
1.209541042950494
 30
0.0
 11
45.7095410429505
 21
0.0
 31
0.0
  0
LINE
  5
AF4
330
1F
100
AcDbEntity
  8
SK1
  6
CONTINUOUS
370
50
 62
4
100
AcDbLine
 10
44.5
 20
1.457028416365785
 30
0.0
 11
45.95702841636579
 21
0.0
 31
0.0
  0
LINE
  5
AF5
330
1F
100
AcDbEntity
  8
SK1
  6
CONTINUOUS
370
50
 62
4
100
AcDbLine
 10
44.5
 20
1.704515789781076
 30
0.0
 11
46.20451578978108
 21
0.0
 31
0.0
  0
LINE
  5
AF6
330
1F
100
AcDbEntity
  8
SK1
  6
CONTINUOUS
370
50
 62
4
100
AcDbLine
 10
44.71543384193567
 20
1.736569321260697
 30
0.0
 11
46.2365693212607
 21
0.2154338419356714
 31
0.0
  0
LINE
  5
AF7
330
1F
100
AcDbEntity
  8
SK1
  6
CONTINUOUS
370
50
 62
4
100
AcDbLine
 10
45.03283284728993
 20
1.666657689321729
 30
0.0
 11
46.16665768932173
 21
0.5328328472899322
 31
0.0
  0
LINE
  5
AF8
330
1F
100
AcDbEntity
  8
SK1
  6
CONTINUOUS
370
50
 62
4
100
AcDbLine
 10
45.54009874905675
 20
1.406879160970207
 30
0.0
 11
45.90687916097021
 21
1.040098749056747
 31
0.0
  0
LINE
  5
AF9
330
1F
100
AcDbEntity
  8
4
  6
LONGDASH_DASH
370
25
 62
2
100
AcDbLine
 10
44.5
 20
0.0
 30
0.0
 11
60.0
 21
0.0
 31
0.0
  0
LINE
  5
AFA
330
1F
100
AcDbEntity
  8
SK4
  6
LONGDASH_DASH
370
25
 62
2
100
AcDbLine
 10
-6.0
 20
0.0
 30
0.0
 11
66.0
 21
0.0
 31
0.0
  0
ARC
  5
AFB
330
1F
100
AcDbEntity
  8
SK6
  6
CONTINUOUS
370
25
 62
5
100
AcDbCircle
 10
85.4613820083765
 20
-27.84524575338786
 30
0.0
 40
2.76048912849221
100
AcDbArc
 50
338.9379403434233
 51
90.44457437511365
  0
LINE
  5
AFC
330
1F
100
AcDbEntity
  8
SK6
  6
CONTINUOUS
370
25
 62
5
100
AcDbLine
 10
85.43996279695983
 20
-25.08483972421281
 30
0.0
 11
85.43996279695983
 21
-26.18789835613464
 31
0.0
  0
ARC
  5
AFD
330
1F
100
AcDbEntity
  8
SK6
  6
CONTINUOUS
370
25
 62
5
100
AcDbCircle
 10
85.45050902936916
 20
-27.86523924566821
 30
0.0
 40
1.677374043771779
100
AcDbArc
 50
243.4214706017868
 51
90.36024081226083
  0
ARC
  5
AFE
330
1F
100
AcDbEntity
  8
SK6
  6
CONTINUOUS
370
25
 62
5
100
AcDbCircle
 10
87.97275989684958
 20
-27.43383199215561
 30
0.0
 40
3.80021703002276
100
AcDbArc
 50
210.5483731288539
 51
236.97801693668
  0
LINE
  5
AFF
330
1F
100
AcDbEntity
  8
SK6
  6
CONTINUOUS
370
25
 62
5
100
AcDbLine
 10
85.90179068512487
 20
-30.62016781867535
 30
0.0
 11
90.04373096742671
 21
-30.62016781867535
 31
0.0
  0
ARC
  5
B00
330
1F
100
AcDbEntity
  8
SK6
  6
CONTINUOUS
370
25
 62
5
100
AcDbCircle
 10
87.97276183877257
 20
-27.4338320937346
 30
0.0
 40
3.800216899582472
100
AcDbArc
 50
303.0219828477959
 51
326.3732153033476
  0
LINE
  5
B01
330
1F
100
AcDbEntity
  8
SK6
  6
CONTINUOUS
370
25
 62
5
100
AcDbLine
 10
91.13705975135723
 20
-29.5383194907709
 30
0.0
 11
87.77976170575462
 21
-29.5383194907709
 31
0.0
  0
LINE
  5
B02
330
1F
100
AcDbEntity
  8
SK6
  6
CONTINUOUS
370
25
 62
5
100
AcDbLine
 10
87.77976170575462
 20
-29.5383194907709
 30
0.0
 11
91.69962109771987
 21
-28.17691829641694
 31
0.0
  0
ARC
  5
B03
330
1F
100
AcDbEntity
  8
SK6
  6
CONTINUOUS
370
25
 62
5
100
AcDbCircle
 10
87.97276256157211
 20
-27.4338326048594
 30
0.0
 40
3.800217216614723
100
AcDbArc
 50
348.7238644184696
 51
53.4691051260885
  0
LINE
  5
B04
330
1F
100
AcDbEntity
  8
SK6
  6
CONTINUOUS
370
25
 62
5
100
AcDbLine
 10
90.23486524538545
 20
-24.38022124429967
 30
0.0
 11
88.03745047882737
 21
-28.83730973507058
 31
0.0
  0
ENDSEC
  0
SECTION
  2
OBJECTS
  0
DICTIONARY
  5
C
330
0
100
AcDbDictionary
281
     1
  3
ACAD_GROUP
350
D
  3
ACAD_LAYOUT
350
1A
  3
ACAD_MATERIAL
350
3B
  3
ACAD_MLEADERSTYLE
350
B07
  3
ACAD_MLINESTYLE
350
17
  3
ACAD_PLOTSETTINGS
350
19
  3
ACAD_PLOTSTYLENAME
350
E
  3
ACAD_SCALELIST
350
3BD
  3
ACAD_VISUALSTYLE
350
2A
  3
AcDbVariableDictionary
350
B05
  0
DICTIONARY
  5
D
102
{ACAD_REACTORS
330
C
102
}
330
C
100
AcDbDictionary
281
     1
  0
DICTIONARY
  5
1A
102
{ACAD_REACTORS
330
C
102
}
330
C
100
AcDbDictionary
281
     1
  3
Layout1
350
1E
  3
Layout2
350
26
  3
Model
350
22
  0
DICTIONARY
  5
3B
102
{ACAD_REACTORS
330
C
102
}
330
C
100
AcDbDictionary
281
     1
  3
ByBlock
350
3D
  3
ByLayer
350
3C
  3
Global
350
3E
  0
DICTIONARY
  5
B07
102
{ACAD_REACTORS
330
C
102
}
330
C
100
AcDbDictionary
281
     1
  0
DICTIONARY
  5
17
102
{ACAD_REACTORS
330
C
102
}
330
C
100
AcDbDictionary
281
     1
  3
Standard
350
18
  0
DICTIONARY
  5
19
102
{ACAD_REACTORS
330
C
102
}
330
C
100
AcDbDictionary
281
     1
  0
ACDBDICTIONARYWDFLT
  5
E
102
{ACAD_REACTORS
330
C
102
}
330
C
100
AcDbDictionary
281
     1
  3
Normal
350
F
100
AcDbDictionaryWithDefault
340
F
  0
DICTIONARY
  5
3BD
102
{ACAD_REACTORS
330
C
102
}
330
C
100
AcDbDictionary
281
     1
  3
A0
350
3BE
  3
A1
350
3BF
  3
A2
350
3C0
  3
A3
350
3C1
  3
A4
350
3C2
  3
A5
350
3C3
  3
A6
350
3C4
  3
A7
350
3C5
  3
A8
350
3C6
  3
A9
350
3C7
  3
B0
350
3C8
  3
B1
350
3C9
  3
B2
350
3CA
  3
B3
350
3CB
  3
B4
350
3CC
  3
B5
350
3CD
  3
B6
350
3CE
  3
B7
350
3CF
  3
B8
350
3D0
  3
B9
350
3D1
  3
C0
350
3D2
  3
C1
350
3D3
  3
C2
350
3D4
  3
C3
350
3D5
  3
C4
350
3D6
  3
C5
350
3D7
  3
C6
350
3D8
  3
C7
350
3D9
  3
C8
350
3DA
  3
C9
350
3DB
  3
D0
350
3DC
  3
D1
350
3DD
  3
D2
350
3DE
  0
DICTIONARY
  5
2A
102
{ACAD_REACTORS
330
C
102
}
330
C
100
AcDbDictionary
281
     1
  3
2dWireframe
350
2F
  3
3D Hidden
350
31
  3
3dWireframe
350
30
  3
Basic
350
32
  3
Brighten
350
36
  3
ColorChange
350
3A
  3
Conceptual
350
34
  3
Dim
350
35
  3
Facepattern
350
39
  3
Flat
350
2B
  3
FlatWithEdges
350
2C
  3
Gouraud
350
2D
  3
GouraudWithEdges
350
2E
  3
Linepattern
350
38
  3
Realistic
350
33
  3
Thicken
350
37
  0
DICTIONARY
  5
B05
102
{ACAD_REACTORS
330
C
102
}
330
C
100
AcDbDictionary
281
     1
  3
CANNOSCALE
350
B0A
  3
DIMASSOC
350
B0B
  3
HIDETEXT
350
B0C
  3
PSOLHEIGHT
350
B09
  3
PSOLWIDTH
350
B08
  0
LAYOUT
  5
1E
102
{ACAD_REACTORS
330
1A
102
}
330
1A
100
AcDbPlotSettings
  1

  2
none_device
  4

  6

 40
0.0
 41
0.0
 42
0.0
 43
0.0
 44
0.0
 45
0.0
 46
0.0
 47
0.0
 48
0.0
 49
0.0
140
0.0
141
0.0
142
1.0
143
1.0
 70
   688
 72
     0
 73
     0
 74
     5
  7

 75
    16
147
1.0
148
0.0
149
0.0
100
AcDbLayout
  1
Layout1
 70
     1
 71
     1
 10
0.0
 20
0.0
 11
420.0
 21
297.0
 12
0.0
 22
0.0
 32
0.0
 14
1.000000000000000E+20
 24
1.000000000000000E+20
 34
1.000000000000000E+20
 15
-1.000000000000000E+20
 25
-1.000000000000000E+20
 35
-1.000000000000000E+20
146
0.0
 13
0.0
 23
0.0
 33
0.0
 16
1.0
 26
0.0
 36
0.0
 17
0.0
 27
1.0
 37
0.0
 76
     0
330
1B
  0
LAYOUT
  5
26
102
{ACAD_REACTORS
330
1A
102
}
330
1A
100
AcDbPlotSettings
  1

  2
none_device
  4

  6

 40
0.0
 41
0.0
 42
0.0
 43
0.0
 44
0.0
 45
0.0
 46
0.0
 47
0.0
 48
0.0
 49
0.0
140
0.0
141
0.0
142
1.0
143
1.0
 70
   688
 72
     0
 73
     0
 74
     5
  7

 75
    16
147
1.0
148
0.0
149
0.0
100
AcDbLayout
  1
Layout2
 70
     1
 71
     2
 10
0.0
 20
0.0
 11
0.0
 21
0.0
 12
0.0
 22
0.0
 32
0.0
 14
0.0
 24
0.0
 34
0.0
 15
0.0
 25
0.0
 35
0.0
146
0.0
 13
0.0
 23
0.0
 33
0.0
 16
1.0
 26
0.0
 36
0.0
 17
0.0
 27
1.0
 37
0.0
 76
     0
330
23
  0
LAYOUT
  5
22
102
{ACAD_REACTORS
330
1A
102
}
330
1A
100
AcDbPlotSettings
  1

  2
none_device
  4

  6

 40
0.0
 41
0.0
 42
0.0
 43
0.0
 44
0.0
 45
0.0
 46
0.0
 47
0.0
 48
0.0
 49
0.0
140
0.0
141
0.0
142
1.0
143
1.0
 70
  1712
 72
     0
 73
     0
 74
     0
  7

 75
     0
147
1.0
148
0.0
149
0.0
100
AcDbLayout
  1
Model
 70
     1
 71
     0
 10
0.0
 20
0.0
 11
420.0
 21
297.0
 12
0.0
 22
0.0
 32
0.0
 14
0.0
 24
0.0
 34
0.0
 15
25.0
 25
35.0
 35
0.0
146
0.0
 13
0.0
 23
0.0
 33
0.0
 16
1.0
 26
0.0
 36
0.0
 17
0.0
 27
1.0
 37
0.0
 76
     0
330
1F
331
29
  0
MATERIAL
  5
3D
102
{ACAD_REACTORS
330
3B
102
}
102
{ACAD_XDICTIONARY
360
B2F
102
}
330
3B
100
AcDbMaterial
  1
ByBlock
  0
MATERIAL
  5
3C
102
{ACAD_REACTORS
330
3B
102
}
102
{ACAD_XDICTIONARY
360
B2D
102
}
330
3B
100
AcDbMaterial
  1
ByLayer
  0
MATERIAL
  5
3E
102
{ACAD_REACTORS
330
3B
102
}
102
{ACAD_XDICTIONARY
360
B31
102
}
330
3B
100
AcDbMaterial
  1
Global
  0
MLINESTYLE
  5
18
102
{ACAD_REACTORS
330
17
102
}
330
17
100
AcDbMlineStyle
  2
Standard
 70
     0
  3

 62
   256
 51
90.0
 52
90.0
 71
     2
 49
0.5
 62
   256
  6
BYLAYER
 49
-0.5
 62
   256
  6
BYLAYER
  0
ACDBPLACEHOLDER
  5
F
102
{ACAD_REACTORS
330
E
102
}
330
E
  0
SCALE
  5
3BE
102
{ACAD_REACTORS
330
3BD
102
}
330
3BD
100
AcDbScale
 70
     0
300
1:1
140
1.0
141
1.0
290
     1
  0
SCALE
  5
3BF
102
{ACAD_REACTORS
330
3BD
102
}
330
3BD
100
AcDbScale
 70
     0
300
1:2
140
1.0
141
2.0
290
     0
  0
SCALE
  5
3C0
102
{ACAD_REACTORS
330
3BD
102
}
330
3BD
100
AcDbScale
 70
     0
300
1:4
140
1.0
141
4.0
290
     0
  0
SCALE
  5
3C1
102
{ACAD_REACTORS
330
3BD
102
}
330
3BD
100
AcDbScale
 70
     0
300
1:5
140
1.0
141
5.0
290
     0
  0
SCALE
  5
3C2
102
{ACAD_REACTORS
330
3BD
102
}
330
3BD
100
AcDbScale
 70
     0
300
1:8
140
1.0
141
8.0
290
     0
  0
SCALE
  5
3C3
102
{ACAD_REACTORS
330
3BD
102
}
330
3BD
100
AcDbScale
 70
     0
300
1:10
140
1.0
141
10.0
290
     0
  0
SCALE
  5
3C4
102
{ACAD_REACTORS
330
3BD
102
}
330
3BD
100
AcDbScale
 70
     0
300
1:16
140
1.0
141
16.0
290
     0
  0
SCALE
  5
3C5
102
{ACAD_REACTORS
330
3BD
102
}
330
3BD
100
AcDbScale
 70
     0
300
1:20
140
1.0
141
20.0
290
     0
  0
SCALE
  5
3C6
102
{ACAD_REACTORS
330
3BD
102
}
330
3BD
100
AcDbScale
 70
     0
300
1:30
140
1.0
141
30.0
290
     0
  0
SCALE
  5
3C7
102
{ACAD_REACTORS
330
3BD
102
}
330
3BD
100
AcDbScale
 70
     0
300
1:40
140
1.0
141
40.0
290
     0
  0
SCALE
  5
3C8
102
{ACAD_REACTORS
330
3BD
102
}
330
3BD
100
AcDbScale
 70
     0
300
1:50
140
1.0
141
50.0
290
     0
  0
SCALE
  5
3C9
102
{ACAD_REACTORS
330
3BD
102
}
330
3BD
100
AcDbScale
 70
     0
300
1:100
140
1.0
141
100.0
290
     0
  0
SCALE
  5
3CA
102
{ACAD_REACTORS
330
3BD
102
}
330
3BD
100
AcDbScale
 70
     0
300
2:1
140
2.0
141
1.0
290
     0
  0
SCALE
  5
3CB
102
{ACAD_REACTORS
330
3BD
102
}
330
3BD
100
AcDbScale
 70
     0
300
4:1
140
4.0
141
1.0
290
     0
  0
SCALE
  5
3CC
102
{ACAD_REACTORS
330
3BD
102
}
330
3BD
100
AcDbScale
 70
     0
300
8:1
140
8.0
141
1.0
290
     0
  0
SCALE
  5
3CD
102
{ACAD_REACTORS
330
3BD
102
}
330
3BD
100
AcDbScale
 70
     0
300
10:1
140
10.0
141
1.0
290
     0
  0
SCALE
  5
3CE
102
{ACAD_REACTORS
330
3BD
102
}
330
3BD
100
AcDbScale
 70
     0
300
100:1
140
100.0
141
1.0
290
     0
  0
SCALE
  5
3CF
102
{ACAD_REACTORS
330
3BD
102
}
330
3BD
100
AcDbScale
 70
     0
300
1/128" = 1'-0"
140
0.0078125
141
12.0
290
     0
  0
SCALE
  5
3D0
102
{ACAD_REACTORS
330
3BD
102
}
330
3BD
100
AcDbScale
 70
     0
300
1/64" = 1'-0"
140
0.015625
141
12.0
290
     0
  0
SCALE
  5
3D1
102
{ACAD_REACTORS
330
3BD
102
}
330
3BD
100
AcDbScale
 70
     0
300
1/32" = 1'-0"
140
0.03125
141
12.0
290
     0
  0
SCALE
  5
3D2
102
{ACAD_REACTORS
330
3BD
102
}
330
3BD
100
AcDbScale
 70
     0
300
1/16" = 1'-0"
140
0.0625
141
12.0
290
     0
  0
SCALE
  5
3D3
102
{ACAD_REACTORS
330
3BD
102
}
330
3BD
100
AcDbScale
 70
     0
300
3/32" = 1'-0"
140
0.09375
141
12.0
290
     0
  0
SCALE
  5
3D4
102
{ACAD_REACTORS
330
3BD
102
}
330
3BD
100
AcDbScale
 70
     0
300
1/8" = 1'-0"
140
0.125
141
12.0
290
     0
  0
SCALE
  5
3D5
102
{ACAD_REACTORS
330
3BD
102
}
330
3BD
100
AcDbScale
 70
     0
300
3/16" = 1'-0"
140
0.1875
141
12.0
290
     0
  0
SCALE
  5
3D6
102
{ACAD_REACTORS
330
3BD
102
}
330
3BD
100
AcDbScale
 70
     0
300
1/4" = 1'-0"
140
0.25
141
12.0
290
     0
  0
SCALE
  5
3D7
102
{ACAD_REACTORS
330
3BD
102
}
330
3BD
100
AcDbScale
 70
     0
300
3/8" = 1'-0"
140
0.375
141
12.0
290
     0
  0
SCALE
  5
3D8
102
{ACAD_REACTORS
330
3BD
102
}
330
3BD
100
AcDbScale
 70
     0
300
1/2" = 1'-0"
140
0.5
141
12.0
290
     0
  0
SCALE
  5
3D9
102
{ACAD_REACTORS
330
3BD
102
}
330
3BD
100
AcDbScale
 70
     0
300
3/4" = 1'-0"
140
0.75
141
12.0
290
     0
  0
SCALE
  5
3DA
102
{ACAD_REACTORS
330
3BD
102
}
330
3BD
100
AcDbScale
 70
     0
300
1" = 1'-0"
140
1.0
141
12.0
290
     0
  0
SCALE
  5
3DB
102
{ACAD_REACTORS
330
3BD
102
}
330
3BD
100
AcDbScale
 70
     0
300
1-1/2" = 1'-0"
140
1.5
141
12.0
290
     0
  0
SCALE
  5
3DC
102
{ACAD_REACTORS
330
3BD
102
}
330
3BD
100
AcDbScale
 70
     0
300
3" = 1'-0"
140
3.0
141
12.0
290
     0
  0
SCALE
  5
3DD
102
{ACAD_REACTORS
330
3BD
102
}
330
3BD
100
AcDbScale
 70
     0
300
6" = 1'-0"
140
6.0
141
12.0
290
     0
  0
SCALE
  5
3DE
102
{ACAD_REACTORS
330
3BD
102
}
330
3BD
100
AcDbScale
 70
     0
300
1'-0" = 1'-0"
140
12.0
141
12.0
290
     0
  0
VISUALSTYLE
  5
2F
102
{ACAD_REACTORS
330
2A
102
}
102
{ACAD_XDICTIONARY
360
B15
102
}
330
2A
100
AcDbVisualStyle
  2
2dWireframe
 70
     4
 71
     0
 72
     2
 73
     0
 90
        0
 40
-0.6
 41
-30.0
 62
     5
 63
     7
 74
     1
 91
        4
 64
     7
 65
   257
 75
     1
175
     1
 42
1.0
 92
        0
 66
   257
 43
1.0
 76
     1
 77
     6
 78
     2
 67
     7
 79
     5
170
     0
171
     0
290
     0
174
     0
 93
        1
 44
0.0
173
     0
291
     0
 45
0.0
1001
ACAD
1000
AcDbSavedByObjectVersion
1070
     0
  0
VISUALSTYLE
  5
31
102
{ACAD_REACTORS
330
2A
102
}
102
{ACAD_XDICTIONARY
360
B19
102
}
330
2A
100
AcDbVisualStyle
  2
3D Hidden
 70
     6
 71
     1
 72
     2
 73
     2
 90
        0
 40
-0.6
 41
-30.0
 62
     5
 63
     7
 74
     2
 91
        2
 64
     7
 65
   257
 75
     2
175
     1
 42
40.0
 92
        0
 66
   257
 43
1.0
 76
     1
 77
     6
 78
     2
 67
     7
 79
     3
170
     0
171
     0
290
     0
174
     0
 93
        1
 44
0.0
173
     0
291
     0
 45
0.0
1001
ACAD
1000
AcDbSavedByObjectVersion
1070
     0
  0
VISUALSTYLE
  5
30
102
{ACAD_REACTORS
330
2A
102
}
102
{ACAD_XDICTIONARY
360
B17
102
}
330
2A
100
AcDbVisualStyle
  2
3dWireframe
 70
     5
 71
     0
 72
     2
 73
     0
 90
        0
 40
-0.6
 41
-30.0
 62
     5
 63
     7
 74
     1
 91
        4
 64
     7
 65
   257
 75
     1
175
     1
 42
1.0
 92
        0
 66
   257
 43
1.0
 76
     1
 77
     6
 78
     2
 67
     7
 79
     5
170
     0
171
     0
290
     0
174
     0
 93
        1
 44
0.0
173
     0
291
     0
 45
0.0
1001
ACAD
1000
AcDbSavedByObjectVersion
1070
     0
  0
VISUALSTYLE
  5
32
102
{ACAD_REACTORS
330
2A
102
}
102
{ACAD_XDICTIONARY
360
B1B
102
}
330
2A
100
AcDbVisualStyle
  2
Basic
 70
     7
 71
     1
 72
     0
 73
     1
 90
        0
 40
-0.6
 41
-30.0
 62
     5
 63
     7
 74
     0
 91
        4
 64
     7
 65
   257
 75
     1
175
     1
 42
1.0
 92
        8
 66
     7
 43
1.0
 76
     1
 77
     6
 78
     2
 67
     7
 79
     5
170
     0
171
     0
290
     0
174
     0
 93
        1
 44
0.0
173
     0
291
     1
 45
0.0
1001
ACAD
1000
AcDbSavedByObjectVersion
1070
     0
  0
VISUALSTYLE
  5
36
102
{ACAD_REACTORS
330
2A
102
}
102
{ACAD_XDICTIONARY
360
B23
102
}
330
2A
100
AcDbVisualStyle
  2
Brighten
 70
    12
 71
     2
 72
     2
 73
     0
 90
        0
 40
-0.6
 41
-30.0
 62
     5
 63
     7
 74
     1
 91
        4
 64
     7
 65
   257
 75
     1
175
     1
 42
1.0
 92
        8
 66
     7
 43
1.0
 76
     1
 77
     6
 78
     2
 67
     7
 79
     5
170
     0
171
     0
290
     0
174
     0
 93
        1
 44
50.0
173
     0
291
     1
 45
0.0
1001
ACAD
1000
AcDbSavedByObjectVersion
1070
     0
  0
VISUALSTYLE
  5
3A
102
{ACAD_REACTORS
330
2A
102
}
102
{ACAD_XDICTIONARY
360
B2B
102
}
330
2A
100
AcDbVisualStyle
  2
ColorChange
 70
    16
 71
     2
 72
     2
 73
     3
 90
        0
 40
-0.6
 41
-30.0
 62
     5
 63
     8
 74
     1
 91
        4
 64
     7
 65
   257
 75
     1
175
     1
 42
1.0
 92
        8
 66
     8
 43
1.0
 76
     1
 77
     6
 78
     2
 67
     7
 79
     5
170
     0
171
     0
290
     0
174
     0
 93
        1
 44
0.0
173
     0
291
     1
 45
0.0
1001
ACAD
1000
AcDbSavedByObjectVersion
1070
     0
  0
VISUALSTYLE
  5
34
102
{ACAD_REACTORS
330
2A
102
}
102
{ACAD_XDICTIONARY
360
B1F
102
}
330
2A
100
AcDbVisualStyle
  2
Conceptual
 70
     9
 71
     3
 72
     2
 73
     0
 90
        0
 40
-0.6
 41
-30.0
 62
     5
 63
     7
 74
     2
 91
        2
 64
     7
 65
   257
 75
     1
175
     1
 42
40.0
 92
        8
 66
     7
 43
1.0
 76
     1
 77
     6
 78
     2
 67
     7
 79
     3
170
     0
171
     0
290
     0
174
     0
 93
        1
 44
0.0
173
     0
291
     0
 45
0.0
1001
ACAD
1000
AcDbSavedByObjectVersion
1070
     0
  0
VISUALSTYLE
  5
35
102
{ACAD_REACTORS
330
2A
102
}
102
{ACAD_XDICTIONARY
360
B21
102
}
330
2A
100
AcDbVisualStyle
  2
Dim
 70
    11
 71
     2
 72
     2
 73
     0
 90
        0
 40
-0.6
 41
-30.0
 62
     5
 63
     7
 74
     1
 91
        4
 64
     7
 65
   257
 75
     1
175
     1
 42
1.0
 92
        8
 66
     7
 43
1.0
 76
     1
 77
     6
 78
     2
 67
     7
 79
     5
170
     0
171
     0
290
     0
174
     0
 93
        1
 44
-50.0
173
     0
291
     1
 45
0.0
1001
ACAD
1000
AcDbSavedByObjectVersion
1070
     0
  0
VISUALSTYLE
  5
39
102
{ACAD_REACTORS
330
2A
102
}
102
{ACAD_XDICTIONARY
360
B29
102
}
330
2A
100
AcDbVisualStyle
  2
Facepattern
 70
    15
 71
     2
 72
     2
 73
     0
 90
        0
 40
-0.6
 41
-30.0
 62
     5
 63
     7
 74
     1
 91
        4
 64
     7
 65
   257
 75
     1
175
     1
 42
1.0
 92
        8
 66
     7
 43
1.0
 76
     1
 77
     6
 78
     2
 67
     7
 79
     5
170
     0
171
     0
290
     0
174
     0
 93
        1
 44
0.0
173
     0
291
     1
 45
0.0
1001
ACAD
1000
AcDbSavedByObjectVersion
1070
     0
  0
VISUALSTYLE
  5
2B
102
{ACAD_REACTORS
330
2A
102
}
102
{ACAD_XDICTIONARY
360
B0D
102
}
330
2A
100
AcDbVisualStyle
  2
Flat
 70
     0
 71
     2
 72
     1
 73
     1
 90
        2
 40
-0.6
 41
30.0
 62
     5
 63
     7
 74
     0
 91
        4
 64
     7
 65
   257
 75
     1
175
     1
 42
1.0
 92
        8
 66
     7
 43
1.0
 76
     1
 77
     6
 78
     2
 67
     7
 79
     5
170
     0
171
     0
290
     0
174
     0
 93
       13
 44
0.0
173
     0
291
     1
 45
0.0
1001
ACAD
1000
AcDbSavedByObjectVersion
1070
     0
  0
VISUALSTYLE
  5
2C
102
{ACAD_REACTORS
330
2A
102
}
102
{ACAD_XDICTIONARY
360
B0F
102
}
330
2A
100
AcDbVisualStyle
  2
FlatWithEdges
 70
     1
 71
     2
 72
     1
 73
     1
 90
        2
 40
-0.6
 41
30.0
 62
     5
 63
     7
 74
     1
 91
        4
 64
     7
 65
   257
 75
     1
175
     1
 42
1.0
 92
        0
 66
   257
 43
1.0
 76
     1
 77
     6
 78
     2
 67
     7
 79
     5
170
     0
171
     0
290
     0
174
     0
 93
       13
 44
0.0
173
     0
291
     1
 45
0.0
1001
ACAD
1000
AcDbSavedByObjectVersion
1070
     0
  0
VISUALSTYLE
  5
2D
102
{ACAD_REACTORS
330
2A
102
}
102
{ACAD_XDICTIONARY
360
B11
102
}
330
2A
100
AcDbVisualStyle
  2
Gouraud
 70
     2
 71
     2
 72
     2
 73
     1
 90
        2
 40
-0.6
 41
30.0
 62
     5
 63
     7
 74
     0
 91
        4
 64
     7
 65
   257
 75
     1
175
     1
 42
1.0
 92
        0
 66
     7
 43
1.0
 76
     1
 77
     6
 78
     2
 67
     7
 79
     5
170
     0
171
     0
290
     0
174
     0
 93
       13
 44
0.0
173
     0
291
     1
 45
0.0
1001
ACAD
1000
AcDbSavedByObjectVersion
1070
     0
  0
VISUALSTYLE
  5
2E
102
{ACAD_REACTORS
330
2A
102
}
102
{ACAD_XDICTIONARY
360
B13
102
}
330
2A
100
AcDbVisualStyle
  2
GouraudWithEdges
 70
     3
 71
     2
 72
     2
 73
     1
 90
        2
 40
-0.6
 41
30.0
 62
     5
 63
     7
 74
     1
 91
        4
 64
     7
 65
   257
 75
     1
175
     1
 42
1.0
 92
        0
 66
   257
 43
1.0
 76
     1
 77
     6
 78
     2
 67
     7
 79
     5
170
     0
171
     0
290
     0
174
     0
 93
       13
 44
0.0
173
     0
291
     1
 45
0.0
1001
ACAD
1000
AcDbSavedByObjectVersion
1070
     0
  0
VISUALSTYLE
  5
38
102
{ACAD_REACTORS
330
2A
102
}
102
{ACAD_XDICTIONARY
360
B27
102
}
330
2A
100
AcDbVisualStyle
  2
Linepattern
 70
    14
 71
     2
 72
     2
 73
     0
 90
        0
 40
-0.6
 41
-30.0
 62
     5
 63
     7
 74
     1
 91
        4
 64
     7
 65
   257
 75
     7
175
     7
 42
1.0
 92
        8
 66
     7
 43
1.0
 76
     1
 77
     6
 78
     2
 67
     7
 79
     5
170
     0
171
     0
290
     0
174
     0
 93
        1
 44
0.0
173
     0
291
     1
 45
0.0
1001
ACAD
1000
AcDbSavedByObjectVersion
1070
     0
  0
VISUALSTYLE
  5
33
102
{ACAD_REACTORS
330
2A
102
}
102
{ACAD_XDICTIONARY
360
B1D
102
}
330
2A
100
AcDbVisualStyle
  2
Realistic
 70
     8
 71
     2
 72
     2
 73
     0
 90
        0
 40
-0.6
 41
-30.0
 62
     5
 63
     7
 74
     1
 91
        0
 64
     7
 65
   257
 75
     1
175
     1
 42
1.0
 92
        8
 66
     8
 43
1.0
 76
     1
 77
     6
 78
     2
 67
     7
 79
     5
170
     0
171
     0
290
     0
174
     0
 93
       13
 44
0.0
173
     0
291
     0
 45
0.0
1001
ACAD
1000
AcDbSavedByObjectVersion
1070
     0
  0
VISUALSTYLE
  5
37
102
{ACAD_REACTORS
330
2A
102
}
102
{ACAD_XDICTIONARY
360
B25
102
}
330
2A
100
AcDbVisualStyle
  2
Thicken
 70
    13
 71
     2
 72
     2
 73
     0
 90
        0
 40
-0.6
 41
-30.0
 62
     5
 63
     7
 74
     1
 91
        4
 64
     7
 65
   257
 75
     1
175
     1
 42
1.0
 92
       12
 66
     7
 43
1.0
 76
     1
 77
     6
 78
     2
 67
     7
 79
     5
170
     0
171
     0
290
     0
174
     0
 93
        1
 44
0.0
173
     0
291
     1
 45
0.0
1001
ACAD
1000
AcDbSavedByObjectVersion
1070
     0
  0
DICTIONARYVAR
  5
B0A
102
{ACAD_REACTORS
330
B05
102
}
330
B05
100
DictionaryVariables
280
     0
  1
1:1
  0
DICTIONARYVAR
  5
B0B
102
{ACAD_REACTORS
330
B05
102
}
330
B05
100
DictionaryVariables
280
     0
  1
2
  0
DICTIONARYVAR
  5
B0C
102
{ACAD_REACTORS
330
B05
102
}
330
B05
100
DictionaryVariables
280
     0
  1
1
  0
DICTIONARYVAR
  5
B09
102
{ACAD_REACTORS
330
B05
102
}
330
B05
100
DictionaryVariables
280
     0
  1
80.000000
  0
DICTIONARYVAR
  5
B08
102
{ACAD_REACTORS
330
B05
102
}
330
B05
100
DictionaryVariables
280
     0
  1
5.000000
  0
DICTIONARY
  5
B2F
330
3D
100
AcDbDictionary
280
     1
281
     1
  3
ACAD_XREC_ROUNDTRIP
360
B30
  0
DICTIONARY
  5
B2D
330
3C
100
AcDbDictionary
280
     1
281
     1
  3
ACAD_XREC_ROUNDTRIP
360
B2E
  0
DICTIONARY
  5
B31
330
3E
100
AcDbDictionary
280
     1
281
     1
  3
ACAD_XREC_ROUNDTRIP
360
B32
  0
DICTIONARY
  5
B15
330
2F
100
AcDbDictionary
280
     1
281
     1
  3
ACAD_XREC_ROUNDTRIP
360
B16
  0
DICTIONARY
  5
B19
330
31
100
AcDbDictionary
280
     1
281
     1
  3
ACAD_XREC_ROUNDTRIP
360
B1A
  0
DICTIONARY
  5
B17
330
30
100
AcDbDictionary
280
     1
281
     1
  3
ACAD_XREC_ROUNDTRIP
360
B18
  0
DICTIONARY
  5
B1B
330
32
100
AcDbDictionary
280
     1
281
     1
  3
ACAD_XREC_ROUNDTRIP
360
B1C
  0
DICTIONARY
  5
B23
330
36
100
AcDbDictionary
280
     1
281
     1
  3
ACAD_XREC_ROUNDTRIP
360
B24
  0
DICTIONARY
  5
B2B
330
3A
100
AcDbDictionary
280
     1
281
     1
  3
ACAD_XREC_ROUNDTRIP
360
B2C
  0
DICTIONARY
  5
B1F
330
34
100
AcDbDictionary
280
     1
281
     1
  3
ACAD_XREC_ROUNDTRIP
360
B20
  0
DICTIONARY
  5
B21
330
35
100
AcDbDictionary
280
     1
281
     1
  3
ACAD_XREC_ROUNDTRIP
360
B22
  0
DICTIONARY
  5
B29
330
39
100
AcDbDictionary
280
     1
281
     1
  3
ACAD_XREC_ROUNDTRIP
360
B2A
  0
DICTIONARY
  5
B0D
330
2B
100
AcDbDictionary
280
     1
281
     1
  3
ACAD_XREC_ROUNDTRIP
360
B0E
  0
DICTIONARY
  5
B0F
330
2C
100
AcDbDictionary
280
     1
281
     1
  3
ACAD_XREC_ROUNDTRIP
360
B10
  0
DICTIONARY
  5
B11
330
2D
100
AcDbDictionary
280
     1
281
     1
  3
ACAD_XREC_ROUNDTRIP
360
B12
  0
DICTIONARY
  5
B13
330
2E
100
AcDbDictionary
280
     1
281
     1
  3
ACAD_XREC_ROUNDTRIP
360
B14
  0
DICTIONARY
  5
B27
330
38
100
AcDbDictionary
280
     1
281
     1
  3
ACAD_XREC_ROUNDTRIP
360
B28
  0
DICTIONARY
  5
B1D
330
33
100
AcDbDictionary
280
     1
281
     1
  3
ACAD_XREC_ROUNDTRIP
360
B1E
  0
DICTIONARY
  5
B25
330
37
100
AcDbDictionary
280
     1
281
     1
  3
ACAD_XREC_ROUNDTRIP
360
B26
  0
XRECORD
  5
B30
102
{ACAD_REACTORS
330
B2F
102
}
330
B2F
100
AcDbXrecord
280
     1
102
MATERIAL
148
0.0
149
0.0
149
0.0
 93
        0
 94
      127
282
     0
 72
     1
 77
     1
171
     1
175
     1
179
     1
273
     0
  0
XRECORD
  5
B2E
102
{ACAD_REACTORS
330
B2D
102
}
330
B2D
100
AcDbXrecord
280
     1
102
MATERIAL
148
0.0
149
0.0
149
0.0
 93
        0
 94
      127
282
     0
 72
     1
 77
     1
171
     1
175
     1
179
     1
273
     0
  0
XRECORD
  5
B32
102
{ACAD_REACTORS
330
B31
102
}
330
B31
100
AcDbXrecord
280
     1
102
MATERIAL
148
0.0
149
0.0
149
0.0
 93
        0
 94
      127
282
     0
 72
     1
 77
     1
171
     1
175
     1
179
     1
273
     0
  0
XRECORD
  5
B16
102
{ACAD_REACTORS
330
B15
102
}
330
B15
100
AcDbXrecord
280
     1
102
RTVSPropertyOp0
 70
     1
102
RTVSPropertyOp1
 70
     1
102
RTVSPropertyOp2
 70
     1
102
RTVSPropertyOp3
 70
     1
102
RTVSPropertyOp4
 70
     1
102
RTVSPropertyOp5
 70
     1
102
RTVSPropertyOp6
 70
     1
102
RTVSPropertyOp7
 70
     1
102
RTVSPropertyOp8
 70
     1
102
RTVSPropertyOp9
 70
     1
102
RTVSPropertyOp10
 70
     1
102
RTVSPropertyOp11
 70
     1
102
RTVSPropertyOp12
 70
     1
102
RTVSPropertyOp13
 70
     1
102
RTVSPropertyOp14
 70
     1
102
RTVSPropertyOp15
 70
     1
102
RTVSPropertyOp16
 70
     1
102
RTVSPropertyOp17
 70
     1
102
RTVSPropertyOp18
 70
     1
102
RTVSPropertyOp19
 70
     1
102
RTVSPropertyOp20
 70
     1
102
RTVSPropertyOp21
 70
     1
102
RTVSPropertyOp22
 70
     1
102
RTVSPropertyOp23
 70
     1
102
RTVSPropertyOp24
 70
     1
102
RTVSPropertyOp25
 70
     1
102
RTVSPropertyOp26
 70
     1
102
RTVSPropertyOp27
 70
     1
  0
XRECORD
  5
B1A
102
{ACAD_REACTORS
330
B19
102
}
330
B19
100
AcDbXrecord
280
     1
102
RTVSPropertyOp0
 70
     1
102
RTVSPropertyOp1
 70
     1
102
RTVSPropertyOp2
 70
     1
102
RTVSPropertyOp3
 70
     1
102
RTVSPropertyOp4
 70
     1
102
RTVSPropertyOp5
 70
     1
102
RTVSPropertyOp6
 70
     1
102
RTVSPropertyOp7
 70
     1
102
RTVSPropertyOp8
 70
     1
102
RTVSPropertyOp9
 70
     1
102
RTVSPropertyOp10
 70
     1
102
RTVSPropertyOp11
 70
     1
102
RTVSPropertyOp12
 70
     1
102
RTVSPropertyOp13
 70
     1
102
RTVSPropertyOp14
 70
     1
102
RTVSPropertyOp15
 70
     1
102
RTVSPropertyOp16
 70
     1
102
RTVSPropertyOp17
 70
     1
102
RTVSPropertyOp18
 70
     1
102
RTVSPropertyOp19
 70
     1
102
RTVSPropertyOp20
 70
     1
102
RTVSPropertyOp21
 70
     1
102
RTVSPropertyOp22
 70
     1
102
RTVSPropertyOp23
 70
     1
102
RTVSPropertyOp24
 70
     1
102
RTVSPropertyOp25
 70
     1
102
RTVSPropertyOp26
 70
     1
102
RTVSPropertyOp27
 70
     1
  0
XRECORD
  5
B18
102
{ACAD_REACTORS
330
B17
102
}
330
B17
100
AcDbXrecord
280
     1
102
RTVSPropertyOp0
 70
     1
102
RTVSPropertyOp1
 70
     1
102
RTVSPropertyOp2
 70
     1
102
RTVSPropertyOp3
 70
     1
102
RTVSPropertyOp4
 70
     1
102
RTVSPropertyOp5
 70
     1
102
RTVSPropertyOp6
 70
     1
102
RTVSPropertyOp7
 70
     1
102
RTVSPropertyOp8
 70
     1
102
RTVSPropertyOp9
 70
     1
102
RTVSPropertyOp10
 70
     1
102
RTVSPropertyOp11
 70
     1
102
RTVSPropertyOp12
 70
     1
102
RTVSPropertyOp13
 70
     1
102
RTVSPropertyOp14
 70
     1
102
RTVSPropertyOp15
 70
     1
102
RTVSPropertyOp16
 70
     1
102
RTVSPropertyOp17
 70
     1
102
RTVSPropertyOp18
 70
     1
102
RTVSPropertyOp19
 70
     1
102
RTVSPropertyOp20
 70
     1
102
RTVSPropertyOp21
 70
     1
102
RTVSPropertyOp22
 70
     1
102
RTVSPropertyOp23
 70
     1
102
RTVSPropertyOp24
 70
     1
102
RTVSPropertyOp25
 70
     1
102
RTVSPropertyOp26
 70
     1
102
RTVSPropertyOp27
 70
     1
  0
XRECORD
  5
B1C
102
{ACAD_REACTORS
330
B1B
102
}
330
B1B
100
AcDbXrecord
280
     1
102
RTVSPropertyOp0
 70
     1
102
RTVSPropertyOp1
 70
     1
102
RTVSPropertyOp2
 70
     1
102
RTVSPropertyOp3
 70
     1
102
RTVSPropertyOp4
 70
     1
102
RTVSPropertyOp5
 70
     1
102
RTVSPropertyOp6
 70
     1
102
RTVSPropertyOp7
 70
     1
102
RTVSPropertyOp8
 70
     1
102
RTVSPropertyOp9
 70
     1
102
RTVSPropertyOp10
 70
     1
102
RTVSPropertyOp11
 70
     1
102
RTVSPropertyOp12
 70
     1
102
RTVSPropertyOp13
 70
     1
102
RTVSPropertyOp14
 70
     1
102
RTVSPropertyOp15
 70
     1
102
RTVSPropertyOp16
 70
     1
102
RTVSPropertyOp17
 70
     1
102
RTVSPropertyOp18
 70
     1
102
RTVSPropertyOp19
 70
     1
102
RTVSPropertyOp20
 70
     1
102
RTVSPropertyOp21
 70
     1
102
RTVSPropertyOp22
 70
     1
102
RTVSPropertyOp23
 70
     1
102
RTVSPropertyOp24
 70
     1
102
RTVSPropertyOp25
 70
     1
102
RTVSPropertyOp26
 70
     1
102
RTVSPropertyOp27
 70
     1
  0
XRECORD
  5
B24
102
{ACAD_REACTORS
330
B23
102
}
330
B23
100
AcDbXrecord
280
     1
102
RTVSPropertyOp0
 70
     1
102
RTVSPropertyOp1
 70
     1
102
RTVSPropertyOp2
 70
     1
102
RTVSPropertyOp3
 70
     1
102
RTVSPropertyOp4
 70
     1
102
RTVSPropertyOp5
 70
     1
102
RTVSPropertyOp6
 70
     1
102
RTVSPropertyOp7
 70
     1
102
RTVSPropertyOp8
 70
     1
102
RTVSPropertyOp9
 70
     1
102
RTVSPropertyOp10
 70
     1
102
RTVSPropertyOp11
 70
     1
102
RTVSPropertyOp12
 70
     1
102
RTVSPropertyOp13
 70
     1
102
RTVSPropertyOp14
 70
     1
102
RTVSPropertyOp15
 70
     1
102
RTVSPropertyOp16
 70
     1
102
RTVSPropertyOp17
 70
     1
102
RTVSPropertyOp18
 70
     1
102
RTVSPropertyOp19
 70
     1
102
RTVSPropertyOp20
 70
     1
102
RTVSPropertyOp21
 70
     1
102
RTVSPropertyOp22
 70
     1
102
RTVSPropertyOp23
 70
     1
102
RTVSPropertyOp24
 70
     1
102
RTVSPropertyOp25
 70
     1
102
RTVSPropertyOp26
 70
     1
102
RTVSPropertyOp27
 70
     1
  0
XRECORD
  5
B2C
102
{ACAD_REACTORS
330
B2B
102
}
330
B2B
100
AcDbXrecord
280
     1
102
RTVSPropertyOp0
 70
     1
102
RTVSPropertyOp1
 70
     1
102
RTVSPropertyOp2
 70
     1
102
RTVSPropertyOp3
 70
     1
102
RTVSPropertyOp4
 70
     1
102
RTVSPropertyOp5
 70
     1
102
RTVSPropertyOp6
 70
     1
102
RTVSPropertyOp7
 70
     1
102
RTVSPropertyOp8
 70
     1
102
RTVSPropertyOp9
 70
     1
102
RTVSPropertyOp10
 70
     1
102
RTVSPropertyOp11
 70
     1
102
RTVSPropertyOp12
 70
     1
102
RTVSPropertyOp13
 70
     1
102
RTVSPropertyOp14
 70
     1
102
RTVSPropertyOp15
 70
     1
102
RTVSPropertyOp16
 70
     1
102
RTVSPropertyOp17
 70
     1
102
RTVSPropertyOp18
 70
     1
102
RTVSPropertyOp19
 70
     1
102
RTVSPropertyOp20
 70
     1
102
RTVSPropertyOp21
 70
     1
102
RTVSPropertyOp22
 70
     1
102
RTVSPropertyOp23
 70
     1
102
RTVSPropertyOp24
 70
     1
102
RTVSPropertyOp25
 70
     1
102
RTVSPropertyOp26
 70
     1
102
RTVSPropertyOp27
 70
     1
  0
XRECORD
  5
B20
102
{ACAD_REACTORS
330
B1F
102
}
330
B1F
100
AcDbXrecord
280
     1
102
RTVSPropertyOp0
 70
     1
102
RTVSPropertyOp1
 70
     1
102
RTVSPropertyOp2
 70
     1
102
RTVSPropertyOp3
 70
     1
102
RTVSPropertyOp4
 70
     1
102
RTVSPropertyOp5
 70
     1
102
RTVSPropertyOp6
 70
     1
102
RTVSPropertyOp7
 70
     1
102
RTVSPropertyOp8
 70
     1
102
RTVSPropertyOp9
 70
     1
102
RTVSPropertyOp10
 70
     1
102
RTVSPropertyOp11
 70
     1
102
RTVSPropertyOp12
 70
     1
102
RTVSPropertyOp13
 70
     1
102
RTVSPropertyOp14
 70
     1
102
RTVSPropertyOp15
 70
     1
102
RTVSPropertyOp16
 70
     1
102
RTVSPropertyOp17
 70
     1
102
RTVSPropertyOp18
 70
     1
102
RTVSPropertyOp19
 70
     1
102
RTVSPropertyOp20
 70
     1
102
RTVSPropertyOp21
 70
     1
102
RTVSPropertyOp22
 70
     1
102
RTVSPropertyOp23
 70
     1
102
RTVSPropertyOp24
 70
     1
102
RTVSPropertyOp25
 70
     1
102
RTVSPropertyOp26
 70
     1
102
RTVSPropertyOp27
 70
     1
  0
XRECORD
  5
B22
102
{ACAD_REACTORS
330
B21
102
}
330
B21
100
AcDbXrecord
280
     1
102
RTVSPropertyOp0
 70
     1
102
RTVSPropertyOp1
 70
     1
102
RTVSPropertyOp2
 70
     1
102
RTVSPropertyOp3
 70
     1
102
RTVSPropertyOp4
 70
     1
102
RTVSPropertyOp5
 70
     1
102
RTVSPropertyOp6
 70
     1
102
RTVSPropertyOp7
 70
     1
102
RTVSPropertyOp8
 70
     1
102
RTVSPropertyOp9
 70
     1
102
RTVSPropertyOp10
 70
     1
102
RTVSPropertyOp11
 70
     1
102
RTVSPropertyOp12
 70
     1
102
RTVSPropertyOp13
 70
     1
102
RTVSPropertyOp14
 70
     1
102
RTVSPropertyOp15
 70
     1
102
RTVSPropertyOp16
 70
     1
102
RTVSPropertyOp17
 70
     1
102
RTVSPropertyOp18
 70
     1
102
RTVSPropertyOp19
 70
     1
102
RTVSPropertyOp20
 70
     1
102
RTVSPropertyOp21
 70
     1
102
RTVSPropertyOp22
 70
     1
102
RTVSPropertyOp23
 70
     1
102
RTVSPropertyOp24
 70
     1
102
RTVSPropertyOp25
 70
     1
102
RTVSPropertyOp26
 70
     1
102
RTVSPropertyOp27
 70
     1
  0
XRECORD
  5
B2A
102
{ACAD_REACTORS
330
B29
102
}
330
B29
100
AcDbXrecord
280
     1
102
RTVSPropertyOp0
 70
     1
102
RTVSPropertyOp1
 70
     1
102
RTVSPropertyOp2
 70
     1
102
RTVSPropertyOp3
 70
     1
102
RTVSPropertyOp4
 70
     1
102
RTVSPropertyOp5
 70
     1
102
RTVSPropertyOp6
 70
     1
102
RTVSPropertyOp7
 70
     1
102
RTVSPropertyOp8
 70
     1
102
RTVSPropertyOp9
 70
     1
102
RTVSPropertyOp10
 70
     1
102
RTVSPropertyOp11
 70
     1
102
RTVSPropertyOp12
 70
     1
102
RTVSPropertyOp13
 70
     1
102
RTVSPropertyOp14
 70
     1
102
RTVSPropertyOp15
 70
     1
102
RTVSPropertyOp16
 70
     1
102
RTVSPropertyOp17
 70
     1
102
RTVSPropertyOp18
 70
     1
102
RTVSPropertyOp19
 70
     1
102
RTVSPropertyOp20
 70
     1
102
RTVSPropertyOp21
 70
     1
102
RTVSPropertyOp22
 70
     1
102
RTVSPropertyOp23
 70
     1
102
RTVSPropertyOp24
 70
     1
102
RTVSPropertyOp25
 70
     1
102
RTVSPropertyOp26
 70
     1
102
RTVSPropertyOp27
 70
     1
  0
XRECORD
  5
B0E
102
{ACAD_REACTORS
330
B0D
102
}
330
B0D
100
AcDbXrecord
280
     1
102
RTVSPropertyOp0
 70
     1
102
RTVSPropertyOp1
 70
     1
102
RTVSPropertyOp2
 70
     1
102
RTVSPropertyOp3
 70
     1
102
RTVSPropertyOp4
 70
     1
102
RTVSPropertyOp5
 70
     1
102
RTVSPropertyOp6
 70
     1
102
RTVSPropertyOp7
 70
     1
102
RTVSPropertyOp8
 70
     1
102
RTVSPropertyOp9
 70
     1
102
RTVSPropertyOp10
 70
     1
102
RTVSPropertyOp11
 70
     1
102
RTVSPropertyOp12
 70
     1
102
RTVSPropertyOp13
 70
     1
102
RTVSPropertyOp14
 70
     1
102
RTVSPropertyOp15
 70
     1
102
RTVSPropertyOp16
 70
     1
102
RTVSPropertyOp17
 70
     1
102
RTVSPropertyOp18
 70
     1
102
RTVSPropertyOp19
 70
     1
102
RTVSPropertyOp20
 70
     1
102
RTVSPropertyOp21
 70
     1
102
RTVSPropertyOp22
 70
     1
102
RTVSPropertyOp23
 70
     1
102
RTVSPropertyOp24
 70
     1
102
RTVSPropertyOp25
 70
     1
102
RTVSPropertyOp26
 70
     1
102
RTVSPropertyOp27
 70
     1
  0
XRECORD
  5
B10
102
{ACAD_REACTORS
330
B0F
102
}
330
B0F
100
AcDbXrecord
280
     1
102
RTVSPropertyOp0
 70
     1
102
RTVSPropertyOp1
 70
     1
102
RTVSPropertyOp2
 70
     1
102
RTVSPropertyOp3
 70
     1
102
RTVSPropertyOp4
 70
     1
102
RTVSPropertyOp5
 70
     1
102
RTVSPropertyOp6
 70
     1
102
RTVSPropertyOp7
 70
     1
102
RTVSPropertyOp8
 70
     1
102
RTVSPropertyOp9
 70
     1
102
RTVSPropertyOp10
 70
     1
102
RTVSPropertyOp11
 70
     1
102
RTVSPropertyOp12
 70
     1
102
RTVSPropertyOp13
 70
     1
102
RTVSPropertyOp14
 70
     1
102
RTVSPropertyOp15
 70
     1
102
RTVSPropertyOp16
 70
     1
102
RTVSPropertyOp17
 70
     1
102
RTVSPropertyOp18
 70
     1
102
RTVSPropertyOp19
 70
     1
102
RTVSPropertyOp20
 70
     1
102
RTVSPropertyOp21
 70
     1
102
RTVSPropertyOp22
 70
     1
102
RTVSPropertyOp23
 70
     1
102
RTVSPropertyOp24
 70
     1
102
RTVSPropertyOp25
 70
     1
102
RTVSPropertyOp26
 70
     1
102
RTVSPropertyOp27
 70
     1
  0
XRECORD
  5
B12
102
{ACAD_REACTORS
330
B11
102
}
330
B11
100
AcDbXrecord
280
     1
102
RTVSPropertyOp0
 70
     1
102
RTVSPropertyOp1
 70
     1
102
RTVSPropertyOp2
 70
     1
102
RTVSPropertyOp3
 70
     1
102
RTVSPropertyOp4
 70
     1
102
RTVSPropertyOp5
 70
     1
102
RTVSPropertyOp6
 70
     1
102
RTVSPropertyOp7
 70
     1
102
RTVSPropertyOp8
 70
     1
102
RTVSPropertyOp9
 70
     1
102
RTVSPropertyOp10
 70
     1
102
RTVSPropertyOp11
 70
     1
102
RTVSPropertyOp12
 70
     1
102
RTVSPropertyOp13
 70
     1
102
RTVSPropertyOp14
 70
     1
102
RTVSPropertyOp15
 70
     1
102
RTVSPropertyOp16
 70
     1
102
RTVSPropertyOp17
 70
     1
102
RTVSPropertyOp18
 70
     1
102
RTVSPropertyOp19
 70
     1
102
RTVSPropertyOp20
 70
     1
102
RTVSPropertyOp21
 70
     1
102
RTVSPropertyOp22
 70
     1
102
RTVSPropertyOp23
 70
     1
102
RTVSPropertyOp24
 70
     1
102
RTVSPropertyOp25
 70
     1
102
RTVSPropertyOp26
 70
     1
102
RTVSPropertyOp27
 70
     1
  0
XRECORD
  5
B14
102
{ACAD_REACTORS
330
B13
102
}
330
B13
100
AcDbXrecord
280
     1
102
RTVSPropertyOp0
 70
     1
102
RTVSPropertyOp1
 70
     1
102
RTVSPropertyOp2
 70
     1
102
RTVSPropertyOp3
 70
     1
102
RTVSPropertyOp4
 70
     1
102
RTVSPropertyOp5
 70
     1
102
RTVSPropertyOp6
 70
     1
102
RTVSPropertyOp7
 70
     1
102
RTVSPropertyOp8
 70
     1
102
RTVSPropertyOp9
 70
     1
102
RTVSPropertyOp10
 70
     1
102
RTVSPropertyOp11
 70
     1
102
RTVSPropertyOp12
 70
     1
102
RTVSPropertyOp13
 70
     1
102
RTVSPropertyOp14
 70
     1
102
RTVSPropertyOp15
 70
     1
102
RTVSPropertyOp16
 70
     1
102
RTVSPropertyOp17
 70
     1
102
RTVSPropertyOp18
 70
     1
102
RTVSPropertyOp19
 70
     1
102
RTVSPropertyOp20
 70
     1
102
RTVSPropertyOp21
 70
     1
102
RTVSPropertyOp22
 70
     1
102
RTVSPropertyOp23
 70
     1
102
RTVSPropertyOp24
 70
     1
102
RTVSPropertyOp25
 70
     1
102
RTVSPropertyOp26
 70
     1
102
RTVSPropertyOp27
 70
     1
  0
XRECORD
  5
B28
102
{ACAD_REACTORS
330
B27
102
}
330
B27
100
AcDbXrecord
280
     1
102
RTVSPropertyOp0
 70
     1
102
RTVSPropertyOp1
 70
     1
102
RTVSPropertyOp2
 70
     1
102
RTVSPropertyOp3
 70
     1
102
RTVSPropertyOp4
 70
     1
102
RTVSPropertyOp5
 70
     1
102
RTVSPropertyOp6
 70
     1
102
RTVSPropertyOp7
 70
     1
102
RTVSPropertyOp8
 70
     1
102
RTVSPropertyOp9
 70
     1
102
RTVSPropertyOp10
 70
     1
102
RTVSPropertyOp11
 70
     1
102
RTVSPropertyOp12
 70
     1
102
RTVSPropertyOp13
 70
     1
102
RTVSPropertyOp14
 70
     1
102
RTVSPropertyOp15
 70
     1
102
RTVSPropertyOp16
 70
     1
102
RTVSPropertyOp17
 70
     1
102
RTVSPropertyOp18
 70
     1
102
RTVSPropertyOp19
 70
     1
102
RTVSPropertyOp20
 70
     1
102
RTVSPropertyOp21
 70
     1
102
RTVSPropertyOp22
 70
     1
102
RTVSPropertyOp23
 70
     1
102
RTVSPropertyOp24
 70
     1
102
RTVSPropertyOp25
 70
     1
102
RTVSPropertyOp26
 70
     1
102
RTVSPropertyOp27
 70
     1
  0
XRECORD
  5
B1E
102
{ACAD_REACTORS
330
B1D
102
}
330
B1D
100
AcDbXrecord
280
     1
102
RTVSPropertyOp0
 70
     1
102
RTVSPropertyOp1
 70
     1
102
RTVSPropertyOp2
 70
     1
102
RTVSPropertyOp3
 70
     1
102
RTVSPropertyOp4
 70
     1
102
RTVSPropertyOp5
 70
     1
102
RTVSPropertyOp6
 70
     1
102
RTVSPropertyOp7
 70
     1
102
RTVSPropertyOp8
 70
     1
102
RTVSPropertyOp9
 70
     1
102
RTVSPropertyOp10
 70
     1
102
RTVSPropertyOp11
 70
     1
102
RTVSPropertyOp12
 70
     1
102
RTVSPropertyOp13
 70
     1
102
RTVSPropertyOp14
 70
     1
102
RTVSPropertyOp15
 70
     1
102
RTVSPropertyOp16
 70
     1
102
RTVSPropertyOp17
 70
     1
102
RTVSPropertyOp18
 70
     1
102
RTVSPropertyOp19
 70
     1
102
RTVSPropertyOp20
 70
     1
102
RTVSPropertyOp21
 70
     1
102
RTVSPropertyOp22
 70
     1
102
RTVSPropertyOp23
 70
     1
102
RTVSPropertyOp24
 70
     1
102
RTVSPropertyOp25
 70
     1
102
RTVSPropertyOp26
 70
     1
102
RTVSPropertyOp27
 70
     1
  0
XRECORD
  5
B26
102
{ACAD_REACTORS
330
B25
102
}
330
B25
100
AcDbXrecord
280
     1
102
RTVSPropertyOp0
 70
     1
102
RTVSPropertyOp1
 70
     1
102
RTVSPropertyOp2
 70
     1
102
RTVSPropertyOp3
 70
     1
102
RTVSPropertyOp4
 70
     1
102
RTVSPropertyOp5
 70
     1
102
RTVSPropertyOp6
 70
     1
102
RTVSPropertyOp7
 70
     1
102
RTVSPropertyOp8
 70
     1
102
RTVSPropertyOp9
 70
     1
102
RTVSPropertyOp10
 70
     1
102
RTVSPropertyOp11
 70
     1
102
RTVSPropertyOp12
 70
     1
102
RTVSPropertyOp13
 70
     1
102
RTVSPropertyOp14
 70
     1
102
RTVSPropertyOp15
 70
     1
102
RTVSPropertyOp16
 70
     1
102
RTVSPropertyOp17
 70
     1
102
RTVSPropertyOp18
 70
     1
102
RTVSPropertyOp19
 70
     1
102
RTVSPropertyOp20
 70
     1
102
RTVSPropertyOp21
 70
     1
102
RTVSPropertyOp22
 70
     1
102
RTVSPropertyOp23
 70
     1
102
RTVSPropertyOp24
 70
     1
102
RTVSPropertyOp25
 70
     1
102
RTVSPropertyOp26
 70
     1
102
RTVSPropertyOp27
 70
     1
  0
ENDSEC
  0
EOF
