  0
SECTION
  2
HEADER
  9
$ACADVER
  1
AC1015
  9
$ACADMAINTVER
 70
     6
  9
$DWGCODEPAGE
  3
ANSI_1252
  9
$INSBASE
 10
0.0
 20
0.0
 30
0.0
  9
$EXTMIN
 10
0.0
 20
0.0
 30
0.0
  9
$EXTMAX
 10
25.0
 20
35.0
 30
0.0
  9
$LIMMIN
 10
0.0
 20
0.0
  9
$LIMMAX
 10
420.0
 20
297.0
  9
$ORTHOMODE
 70
     0
  9
$REGENMODE
 70
     1
  9
$FILLMODE
 70
     1
  9
$QTEXTMODE
 70
     0
  9
$MIRRTEXT
 70
     1
  9
$LTSCALE
 40
4.2
  9
$ATTMODE
 70
     1
  9
$TEXTSIZE
 40
2.5
  9
$TRACEWID
 40
1.0
  9
$TEXTSTYLE
  7
Standard
  9
$CLAYER
  8
0
  9
$CELTYPE
  6
ByLayer
  9
$CECOLOR
 62
   256
  9
$CELTSCALE
 40
1.0
  9
$DISPSILH
 70
     0
  9
$DIMSCALE
 40
1.0
  9
$DIMASZ
 40
2.5
  9
$DIMEXO
 40
0.625
  9
$DIMDLI
 40
3.75
  9
$DIMRND
 40
0.0
  9
$DIMDLE
 40
0.0
  9
$DIMEXE
 40
1.25
  9
$DIMTP
 40
0.0
  9
$DIMTM
 40
0.0
  9
$DIMTXT
 40
2.5
  9
$DIMCEN
 40
2.5
  9
$DIMTSZ
 40
0.0
  9
$DIMTOL
 70
     0
  9
$DIMLIM
 70
     0
  9
$DIMTIH
 70
     0
  9
$DIMTOH
 70
     0
  9
$DIMSE1
 70
     0
  9
$DIMSE2
 70
     0
  9
$DIMTAD
 70
     1
  9
$DIMZIN
 70
     8
  9
$DIMBLK
  1

  9
$DIMASO
 70
     1
  9
$DIMSHO
 70
     1
  9
$DIMPOST
  1

  9
$DIMAPOST
  1

  9
$DIMALT
 70
     0
  9
$DIMALTD
 70
     3
  9
$DIMALTF
 40
0.03937007874016
  9
$DIMLFAC
 40
1.0
  9
$DIMTOFL
 70
     1
  9
$DIMTVP
 40
0.0
  9
$DIMTIX
 70
     0
  9
$DIMSOXD
 70
     0
  9
$DIMSAH
 70
     0
  9
$DIMBLK1
  1

  9
$DIMBLK2
  1

  9
$DIMSTYLE
  2
ISO-25
  9
$DIMCLRD
 70
     0
  9
$DIMCLRE
 70
     0
  9
$DIMCLRT
 70
     0
  9
$DIMTFAC
 40
1.0
  9
$DIMGAP
 40
0.625
  9
$DIMJUST
 70
     0
  9
$DIMSD1
 70
     0
  9
$DIMSD2
 70
     0
  9
$DIMTOLJ
 70
     0
  9
$DIMTZIN
 70
     8
  9
$DIMALTZ
 70
     0
  9
$DIMALTTZ
 70
     0
  9
$DIMUPT
 70
     0
  9
$DIMDEC
 70
     2
  9
$DIMTDEC
 70
     2
  9
$DIMALTU
 70
     2
  9
$DIMALTTD
 70
     3
  9
$DIMTXSTY
  7
Standard
  9
$DIMAUNIT
 70
     0
  9
$DIMADEC
 70
     0
  9
$DIMALTRND
 40
0.0
  9
$DIMAZIN
 70
     0
  9
$DIMDSEP
 70
    44
  9
$DIMATFIT
 70
     3
  9
$DIMFRAC
 70
     0
  9
$DIMLDRBLK
  1

  9
$DIMLUNIT
 70
     2
  9
$DIMLWD
 70
    -2
  9
$DIMLWE
 70
    -2
  9
$DIMTMOVE
 70
     0
  9
$LUNITS
 70
     2
  9
$LUPREC
 70
     4
  9
$SKETCHINC
 40
1.0
  9
$FILLETRAD
 40
10.0
  9
$AUNITS
 70
     0
  9
$AUPREC
 70
     0
  9
$MENU
  1
.
  9
$ELEVATION
 40
0.0
  9
$PELEVATION
 40
0.0
  9
$THICKNESS
 40
0.0
  9
$LIMCHECK
 70
     0
  9
$CHAMFERA
 40
10.0
  9
$CHAMFERB
 40
10.0
  9
$CHAMFERC
 40
20.0
  9
$CHAMFERD
 40
0.0
  9
$SKPOLY
 70
     0
  9
$TDCREATE
 40
2458578.842361111
  9
$TDUCREATE
 40
2458578.759027778
  9
$TDUPDATE
 40
2458578.845833333
  9
$TDUUPDATE
 40
2458578.7625
  9
$TDINDWG
 40
0.0000000116
  9
$TDUSRTIMER
 40
0.0000000116
  9
$USRTIMER
 70
     1
  9
$ANGBASE
 50
0.0
  9
$ANGDIR
 70
     0
  9
$PDMODE
 70
     0
  9
$PDSIZE
 40
0.0
  9
$PLINEWID
 40
0.0
  9
$SPLFRAME
 70
     0
  9
$SPLINETYPE
 70
     6
  9
$SPLINESEGS
 70
     8
  9
$HANDSEED
  5
C9F
  9
$SURFTAB1
 70
     6
  9
$SURFTAB2
 70
     6
  9
$SURFTYPE
 70
     6
  9
$SURFU
 70
     6
  9
$SURFV
 70
     6
  9
$UCSBASE
  2

  9
$UCSNAME
  2

  9
$UCSORG
 10
0.0
 20
0.0
 30
0.0
  9
$UCSXDIR
 10
1.0
 20
0.0
 30
0.0
  9
$UCSYDIR
 10
0.0
 20
1.0
 30
0.0
  9
$UCSORTHOREF
  2

  9
$UCSORTHOVIEW
 70
     0
  9
$UCSORGTOP
 10
0.0
 20
0.0
 30
0.0
  9
$UCSORGBOTTOM
 10
0.0
 20
0.0
 30
0.0
  9
$UCSORGLEFT
 10
0.0
 20
0.0
 30
0.0
  9
$UCSORGRIGHT
 10
0.0
 20
0.0
 30
0.0
  9
$UCSORGFRONT
 10
0.0
 20
0.0
 30
0.0
  9
$UCSORGBACK
 10
0.0
 20
0.0
 30
0.0
  9
$PUCSBASE
  2

  9
$PUCSNAME
  2

  9
$PUCSORG
 10
0.0
 20
0.0
 30
0.0
  9
$PUCSXDIR
 10
1.0
 20
0.0
 30
0.0
  9
$PUCSYDIR
 10
0.0
 20
1.0
 30
0.0
  9
$PUCSORTHOREF
  2

  9
$PUCSORTHOVIEW
 70
     0
  9
$PUCSORGTOP
 10
0.0
 20
0.0
 30
0.0
  9
$PUCSORGBOTTOM
 10
0.0
 20
0.0
 30
0.0
  9
$PUCSORGLEFT
 10
0.0
 20
0.0
 30
0.0
  9
$PUCSORGRIGHT
 10
0.0
 20
0.0
 30
0.0
  9
$PUCSORGFRONT
 10
0.0
 20
0.0
 30
0.0
  9
$PUCSORGBACK
 10
0.0
 20
0.0
 30
0.0
  9
$USERI1
 70
     0
  9
$USERI2
 70
     0
  9
$USERI3
 70
     0
  9
$USERI4
 70
     0
  9
$USERI5
 70
     0
  9
$USERR1
 40
0.0
  9
$USERR2
 40
0.0
  9
$USERR3
 40
0.0
  9
$USERR4
 40
0.0
  9
$USERR5
 40
0.0
  9
$WORLDVIEW
 70
     1
  9
$SHADEDGE
 70
     3
  9
$SHADEDIF
 70
    70
  9
$TILEMODE
 70
     1
  9
$MAXACTVP
 70
    64
  9
$PINSBASE
 10
0.0
 20
0.0
 30
0.0
  9
$PLIMCHECK
 70
     0
  9
$PEXTMIN
 10
1.000000000000000E+20
 20
1.000000000000000E+20
 30
1.000000000000000E+20
  9
$PEXTMAX
 10
-1.000000000000000E+20
 20
-1.000000000000000E+20
 30
-1.000000000000000E+20
  9
$PLIMMIN
 10
0.0
 20
0.0
  9
$PLIMMAX
 10
420.0
 20
297.0
  9
$UNITMODE
 70
     0
  9
$VISRETAIN
 70
     1
  9
$PLINEGEN
 70
     0
  9
$PSLTSCALE
 70
     1
  9
$TREEDEPTH
 70
  3020
  9
$CMLSTYLE
  2
Standard
  9
$CMLJUST
 70
     0
  9
$CMLSCALE
 40
20.0
  9
$PROXYGRAPHICS
 70
     1
  9
$MEASUREMENT
 70
     1
  9
$CELWEIGHT
370
    -1
  9
$ENDCAPS
280
     0
  9
$JOINSTYLE
280
     0
  9
$LWDISPLAY
290
     0
  9
$INSUNITS
 70
     4
  9
$HYPERLINKBASE
  1

  9
$STYLESHEET
  1

  9
$XEDIT
290
     1
  9
$CEPSNTYPE
380
     0
  9
$PSTYLEMODE
290
     1
  9
$FINGERPRINTGUID
  2
{92CAC392-02E3-4B7B-B04F-1026196EDE23}
  9
$VERSIONGUID
  2
{FAEB1C32-E019-11D5-929B-00C0DF256EC4}
  9
$EXTNAMES
290
     1
  9
$PSVPSCALE
 40
0.0
  9
$OLESTARTUP
290
     0
  0
ENDSEC
  0
SECTION
  2
CLASSES
  0
CLASS
  1
ACDBDICTIONARYWDFLT
  2
AcDbDictionaryWithDefault
  3
ObjectDBX Classes
 90
        0
280
     0
281
     0
  0
CLASS
  1
VISUALSTYLE
  2
AcDbVisualStyle
  3
ObjectDBX Classes
 90
     4095
280
     0
281
     0
  0
CLASS
  1
MATERIAL
  2
AcDbMaterial
  3
ObjectDBX Classes
 90
     1153
280
     0
281
     0
  0
CLASS
  1
SCALE
  2
AcDbScale
  3
ObjectDBX Classes
 90
     1153
280
     0
281
     0
  0
CLASS
  1
DICTIONARYVAR
  2
AcDbDictionaryVar
  3
ObjectDBX Classes
 90
        0
280
     0
281
     0
  0
CLASS
  1
ACDBPLACEHOLDER
  2
AcDbPlaceHolder
  3
ObjectDBX Classes
 90
        0
280
     0
281
     0
  0
CLASS
  1
LAYOUT
  2
AcDbLayout
  3
ObjectDBX Classes
 90
        0
280
     0
281
     0
  0
ENDSEC
  0
SECTION
  2
TABLES
  0
TABLE
  2
VPORT
  5
8
330
0
100
AcDbSymbolTable
 70
     1
  0
VPORT
  5
29
330
8
100
AcDbSymbolTableRecord
100
AcDbViewportTableRecord
  2
*Active
 70
     0
 10
0.0
 20
0.0
 11
1.0
 21
1.0
 12
11.26
 22
4.5
 13
0.0
 23
0.0
 14
10.0
 24
10.0
 15
10.0
 25
10.0
 16
0.0
 26
0.0
 36
1.0
 17
0.0
 27
0.0
 37
0.0
 40
9.0
 41
2.503333333333333
 42
50.0
 43
0.0
 44
0.0
 50
0.0
 51
0.0
 71
     0
 72
   100
 73
     1
 74
     3
 75
     0
 76
     0
 77
     0
 78
     0
281
     0
 65
     1
110
0.0
120
0.0
130
0.0
111
1.0
121
0.0
131
0.0
112
0.0
122
1.0
132
0.0
 79
     0
146
0.0
  0
ENDTAB
  0
TABLE
  2
LTYPE
  5
5
330
0
100
AcDbSymbolTable
 70
    10
  0
LTYPE
  5
14
330
5
100
AcDbSymbolTableRecord
100
AcDbLinetypeTableRecord
  2
ByBlock
 70
     0
  3

 72
    65
 73
     0
 40
0.0
  0
LTYPE
  5
15
330
5
100
AcDbSymbolTableRecord
100
AcDbLinetypeTableRecord
  2
ByLayer
 70
     0
  3

 72
    65
 73
     0
 40
0.0
  0
LTYPE
  5
16
330
5
100
AcDbSymbolTableRecord
100
AcDbLinetypeTableRecord
  2
Continuous
 70
     0
  3
Solid line
 72
    65
 73
     0
 40
0.0
  0
LTYPE
  5
45
330
5
100
AcDbSymbolTableRecord
100
AcDbLinetypeTableRecord
  2
phl_thick
 70
     0
  3
THICK
 72
    65
 73
     0
 40
0.0
  0
LTYPE
  5
45D
330
5
100
AcDbSymbolTableRecord
100
AcDbLinetypeTableRecord
  2
CUT
 70
     0
  3
THICK
 72
    65
 73
     0
 40
0.0
  0
LTYPE
  5
464
330
5
100
AcDbSymbolTableRecord
100
AcDbLinetypeTableRecord
  2
NOCUT
 70
     0
  3
THICK
 72
    65
 73
     0
 40
0.0
  0
LTYPE
  5
46C
330
5
100
AcDbSymbolTableRecord
100
AcDbLinetypeTableRecord
  2
SK1
 70
     0
  3
THICK
 72
    65
 73
     0
 40
0.0
  0
LTYPE
  5
474
330
5
100
AcDbSymbolTableRecord
100
AcDbLinetypeTableRecord
  2
ls_SK2
 70
     0
  3
THIN
 72
    65
 73
     0
 40
0.0
  0
LTYPE
  5
51F
330
5
100
AcDbSymbolTableRecord
100
AcDbLinetypeTableRecord
  2
ls_2
 70
     0
  3
THIN
 72
    65
 73
     0
 40
0.0
  0
LTYPE
  5
62B
330
5
100
AcDbSymbolTableRecord
100
AcDbLinetypeTableRecord
  2
ls_SK1
 70
     0
  3
THICK
 72
    65
 73
     0
 40
0.0
  0
LTYPE
  5
665
330
5
100
AcDbSymbolTableRecord
100
AcDbLinetypeTableRecord
  2
LONGDASH_DASH
 70
     0
  3
THIN_DASHDOT
 72
    65
 73
     4
 40
0.85
 49
0.4
 74
     0
 49
-0.2
 74
     0
 49
0.05
 74
     0
 49
-0.2
 74
     0
  0
LTYPE
  5
66A
330
5
100
AcDbSymbolTableRecord
100
AcDbLinetypeTableRecord
  2
ls1
 70
     0
  3
THICK
 72
    65
 73
     0
 40
0.0
  0
ENDTAB
  0
TABLE
  2
LAYER
  5
2
330
0
100
AcDbSymbolTable
 70
    10
  0
LAYER
  5
10
330
2
100
AcDbSymbolTableRecord
100
AcDbLayerTableRecord
  2
0
 70
     0
 62
     7
  6
Continuous
370
    -3
390
F
  0
LAYER
  5
44
330
2
100
AcDbSymbolTableRecord
100
AcDbLayerTableRecord
  2
1
 70
     0
 62
4
  6
CONTINUOUS
370
50
370
    -3
390
F
  0
LAYER
  5
45C
330
2
100
AcDbSymbolTableRecord
100
AcDbLayerTableRecord
  2
CUT
 70
     0
 62
1
  6
CONTINUOUS
370
25
370
    -3
390
F
  0
LAYER
  5
463
330
2
100
AcDbSymbolTableRecord
100
AcDbLayerTableRecord
  2
NOCUT
 70
     0
 62
7
  6
CONTINUOUS
370
25
370
    -3
390
F
  0
LAYER
  5
46B
330
2
100
AcDbSymbolTableRecord
100
AcDbLayerTableRecord
  2
SK1
 70
     0
 62
4
  6
CONTINUOUS
370
50
370
    -3
390
F
  0
LAYER
  5
473
330
2
100
AcDbSymbolTableRecord
100
AcDbLayerTableRecord
  2
SK2
 70
     0
 62
7
  6
CONTINUOUS
370
25
370
    -3
390
F
  0
LAYER
  5
51E
330
2
100
AcDbSymbolTableRecord
100
AcDbLayerTableRecord
  2
2
 70
     0
 62
7
  6
CONTINUOUS
370
25
370
    -3
390
F
  0
LAYER
  5
664
330
2
100
AcDbSymbolTableRecord
100
AcDbLayerTableRecord
  2
4
 70
     0
 62
2
  6
LONGDASH_DASH
370
25
370
    -3
390
F
  0
LAYER
  5
667
330
2
100
AcDbSymbolTableRecord
100
AcDbLayerTableRecord
  2
SK4
 70
     0
 62
2
  6
LONGDASH_DASH
370
25
370
    -3
390
F
  0
LAYER
  5
669
330
2
100
AcDbSymbolTableRecord
100
AcDbLayerTableRecord
  2
SK6
 70
     0
 62
5
  6
CONTINUOUS
370
25
370
    -3
390
F
  0
ENDTAB
  0
TABLE
  2
STYLE
  5
3
330
0
100
AcDbSymbolTable
 70
     1
  0
STYLE
  5
11
330
3
100
AcDbSymbolTableRecord
100
AcDbTextStyleTableRecord
  2
Standard
 70
     0
 40
0.0
 41
1.0
 50
0.0
 71
     0
 42
2.5
  3
Monospac821 BT
  4

  0
ENDTAB
  0
TABLE
  2
VIEW
  5
6
330
0
100
AcDbSymbolTable
 70
     0
  0
ENDTAB
  0
TABLE
  2
UCS
  5
7
330
0
100
AcDbSymbolTable
 70
     0
  0
ENDTAB
  0
TABLE
  2
APPID
  5
9
330
0
100
AcDbSymbolTable
 70
     2
  0
APPID
  5
12
330
9
100
AcDbSymbolTableRecord
100
AcDbRegAppTableRecord
  2
ACAD
 70
     0
  0
APPID
  5
3F
330
9
100
AcDbSymbolTableRecord
100
AcDbRegAppTableRecord
  2
ccLab
 70
     0
  0
ENDTAB
  0
TABLE
  2
DIMSTYLE
  5
A
330
0
100
AcDbSymbolTable
 70
     1
100
AcDbDimStyleTable
  0
DIMSTYLE
105
27
330
A
100
AcDbSymbolTableRecord
100
AcDbDimStyleTableRecord
  2
ISO-25
 70
     0
 41
2.5
 42
0.625
 43
3.75
 44
1.25
 73
     0
 74
     0
 77
     1
 78
     8
140
2.5
141
2.5
143
0.03937007874016
147
0.625
171
     3
172
     1
271
     2
272
     2
274
     3
278
    44
283
     0
284
     8
340
11
  0
ENDTAB
  0
TABLE
  2
BLOCK_RECORD
  5
1
330
0
100
AcDbSymbolTable
 70
     2
  0
BLOCK_RECORD
  5
1F
330
1
100
AcDbSymbolTableRecord
100
AcDbBlockTableRecord
  2
*Model_Space
340
22
  0
BLOCK_RECORD
  5
1B
330
1
100
AcDbSymbolTableRecord
100
AcDbBlockTableRecord
  2
*Paper_Space
340
1E
  0
BLOCK_RECORD
  5
23
330
1
100
AcDbSymbolTableRecord
100
AcDbBlockTableRecord
  2
*Paper_Space0
340
26
  0
ENDTAB
  0
ENDSEC
  0
SECTION
  2
BLOCKS
  0
BLOCK
  5
20
330
1F
100
AcDbEntity
  8
0
100
AcDbBlockBegin
  2
*Model_Space
 70
     0
 10
0.0
 20
0.0
 30
0.0
  3
*Model_Space
  1

  0
ENDBLK
  5
21
330
1F
100
AcDbEntity
  8
0
100
AcDbBlockEnd
  0
BLOCK
  5
1C
330
1B
100
AcDbEntity
 67
     1
  8
0
100
AcDbBlockBegin
  2
*Paper_Space
 70
     0
 10
0.0
 20
0.0
 30
0.0
  3
*Paper_Space
  1

  0
ENDBLK
  5
1D
330
1B
100
AcDbEntity
 67
     1
  8
0
100
AcDbBlockEnd
  0
BLOCK
  5
24
330
23
100
AcDbEntity
  8
0
100
AcDbBlockBegin
  2
*Paper_Space0
 70
     0
 10
0.0
 20
0.0
 30
0.0
  3
*Paper_Space0
  1

  0
ENDBLK
  5
25
330
23
100
AcDbEntity
  8
0
100
AcDbBlockEnd
  0
ENDSEC
  0
SECTION
  2
ENTITIES
  0
LINE
  5
674
330
1F
100
AcDbEntity
  8
1
  6
CONTINUOUS
370
50
 62
4
100
AcDbLine
 10
49.743168
 20
-1.607847
 30
0.0
 11
49.74152
 21
-1.509332
 31
0.0
  0
LINE
  5
675
330
1F
100
AcDbEntity
  8
1
  6
CONTINUOUS
370
50
 62
4
100
AcDbLine
 10
49.017391
 20
1.272568
 30
0.0
 11
49.016777
 21
1.304049
 31
0.0
  0
LINE
  5
676
330
1F
100
AcDbEntity
  8
1
  6
CONTINUOUS
370
50
 62
4
100
AcDbLine
 10
49.742493
 20
0.250992
 30
0.0
 11
49.74133699999999
 21
0.305914
 31
0.0
  0
LINE
  5
677
330
1F
100
AcDbEntity
  8
1
  6
CONTINUOUS
370
50
 62
4
100
AcDbLine
 10
49.746498
 20
-1.70587
 30
0.0
 11
49.743168
 21
-1.607847
 31
0.0
  0
LINE
  5
678
330
1F
100
AcDbEntity
  8
1
  6
CONTINUOUS
370
50
 62
4
100
AcDbLine
 10
49.74550199999999
 20
0.191375
 30
0.0
 11
49.742493
 21
0.250992
 31
0.0
  0
LINE
  5
679
330
1F
100
AcDbEntity
  8
1
  6
CONTINUOUS
370
50
 62
4
100
AcDbLine
 10
49.751518
 20
-1.803243
 30
0.0
 11
49.746498
 21
-1.70587
 31
0.0
  0
LINE
  5
67A
330
1F
100
AcDbEntity
  8
1
  6
CONTINUOUS
370
50
 62
4
100
AcDbLine
 10
36.211208
 20
-1.678223
 30
0.0
 11
36.209625
 21
-1.653528
 31
0.0
  0
LINE
  5
67B
330
1F
100
AcDbEntity
  8
1
  6
CONTINUOUS
370
50
 62
4
100
AcDbLine
 10
49.016777
 20
1.304049
 30
0.0
 11
49.01472099999999
 21
1.335287
 31
0.0
  0
LINE
  5
67C
330
1F
100
AcDbEntity
  8
1
  6
CONTINUOUS
370
50
 62
4
100
AcDbLine
 10
36.211433
 20
1.312361
 30
0.0
 11
36.20966
 21
1.338669
 31
0.0
  0
LINE
  5
67D
330
1F
100
AcDbEntity
  8
1
  6
CONTINUOUS
370
50
 62
4
100
AcDbLine
 10
49.75824
 20
-1.899812
 30
0.0
 11
49.751518
 21
-1.803243
 31
0.0
  0
LINE
  5
67E
330
1F
100
AcDbEntity
  8
1
  6
CONTINUOUS
370
50
 62
4
100
AcDbLine
 10
49.750378
 20
0.127121
 30
0.0
 11
49.74550199999999
 21
0.191375
 31
0.0
  0
LINE
  5
67F
330
1F
100
AcDbEntity
  8
1
  6
CONTINUOUS
370
50
 62
4
100
AcDbLine
 10
49.76667399999999
 20
-1.995373
 30
0.0
 11
49.75824
 21
-1.899812
 31
0.0
  0
LINE
  5
680
330
1F
100
AcDbEntity
  8
1
  6
CONTINUOUS
370
50
 62
4
100
AcDbLine
 10
49.75713
 20
0.058288
 30
0.0
 11
49.750378
 21
0.127121
 31
0.0
  0
LINE
  5
681
330
1F
100
AcDbEntity
  8
1
  6
CONTINUOUS
370
50
 62
4
100
AcDbLine
 10
49.776741
 20
-2.089075
 30
0.0
 11
49.76667399999999
 21
-1.995373
 31
0.0
  0
LINE
  5
682
330
1F
100
AcDbEntity
  8
1
  6
CONTINUOUS
370
50
 62
4
100
AcDbLine
 10
49.01472099999999
 20
1.335287
 30
0.0
 11
49.01125
 21
1.366334
 31
0.0
  0
LINE
  5
683
330
1F
100
AcDbEntity
  8
1
  6
CONTINUOUS
370
50
 62
4
100
AcDbLine
 10
49.765774
 20
-0.015047
 30
0.0
 11
49.75713
 21
0.058288
 31
0.0
  0
LINE
  5
684
330
1F
100
AcDbEntity
  8
1
  6
CONTINUOUS
370
50
 62
4
100
AcDbLine
 10
49.788387
 20
-2.180561
 30
0.0
 11
49.776741
 21
-2.089075
 31
0.0
  0
LINE
  5
685
330
1F
100
AcDbEntity
  8
1
  6
CONTINUOUS
370
50
 62
4
100
AcDbLine
 10
49.74711199999999
 20
0.397814
 30
0.0
 11
49.74409499999999
 21
0.420779
 31
0.0
  0
LINE
  5
686
330
1F
100
AcDbEntity
  8
1
  6
CONTINUOUS
370
50
 62
4
100
AcDbLine
 10
49.77623
 20
-0.092226
 30
0.0
 11
49.765774
 21
-0.015047
 31
0.0
  0
LINE
  5
687
330
1F
100
AcDbEntity
  8
1
  6
CONTINUOUS
370
50
 62
4
100
AcDbLine
 10
49.801575
 20
-2.269709
 30
0.0
 11
49.788387
 21
-2.180561
 31
0.0
  0
LINE
  5
688
330
1F
100
AcDbEntity
  8
1
  6
CONTINUOUS
370
50
 62
4
100
AcDbLine
 10
49.74409499999999
 20
0.420779
 30
0.0
 11
49.740517
 21
0.444906
 31
0.0
  0
LINE
  5
689
330
1F
100
AcDbEntity
  8
1
  6
CONTINUOUS
370
50
 62
4
100
AcDbLine
 10
49.788422
 20
-0.172796
 30
0.0
 11
49.77623
 21
-0.092226
 31
0.0
  0
LINE
  5
68A
330
1F
100
AcDbEntity
  8
1
  6
CONTINUOUS
370
50
 62
4
100
AcDbLine
 10
49.01125
 20
1.366334
 30
0.0
 11
49.006386
 21
1.397099
 31
0.0
  0
LINE
  5
68B
330
1F
100
AcDbEntity
  8
1
  6
CONTINUOUS
370
50
 62
4
100
AcDbLine
 10
49.740517
 20
0.444906
 30
0.0
 11
49.73642
 21
0.470073
 31
0.0
  0
LINE
  5
68C
330
1F
100
AcDbEntity
  8
1
  6
CONTINUOUS
370
50
 62
4
100
AcDbLine
 10
36.215771
 20
1.28596
 30
0.0
 11
36.211433
 21
1.312361
 31
0.0
  0
LINE
  5
68D
330
1F
100
AcDbEntity
  8
1
  6
CONTINUOUS
370
50
 62
4
100
AcDbLine
 10
49.802311
 20
-0.256565
 30
0.0
 11
49.788422
 21
-0.172796
 31
0.0
  0
LINE
  5
68E
330
1F
100
AcDbEntity
  8
1
  6
CONTINUOUS
370
50
 62
4
100
AcDbLine
 10
49.81626499999999
 20
-2.356401
 30
0.0
 11
49.801575
 21
-2.269709
 31
0.0
  0
LINE
  5
68F
330
1F
100
AcDbEntity
  8
1
  6
CONTINUOUS
370
50
 62
4
100
AcDbLine
 10
36.21542
 20
-1.702738
 30
0.0
 11
36.211208
 21
-1.678223
 31
0.0
  0
LINE
  5
690
330
1F
100
AcDbEntity
  8
1
  6
CONTINUOUS
370
50
 62
4
100
AcDbLine
 10
49.73642
 20
0.470073
 30
0.0
 11
49.731831
 21
0.496155
 31
0.0
  0
LINE
  5
691
330
1F
100
AcDbEntity
  8
1
  6
CONTINUOUS
370
50
 62
4
100
AcDbLine
 10
49.817844
 20
-0.343342
 30
0.0
 11
49.802311
 21
-0.256565
 31
0.0
  0
LINE
  5
692
330
1F
100
AcDbEntity
  8
1
  6
CONTINUOUS
370
50
 62
4
100
AcDbLine
 10
49.731831
 20
0.496155
 30
0.0
 11
49.726791
 21
0.523036
 31
0.0
  0
LINE
  5
693
330
1F
100
AcDbEntity
  8
1
  6
CONTINUOUS
370
50
 62
4
100
AcDbLine
 10
49.834976
 20
-0.432936
 30
0.0
 11
49.817844
 21
-0.343342
 31
0.0
  0
LINE
  5
694
330
1F
100
AcDbEntity
  8
1
  6
CONTINUOUS
370
50
 62
4
100
AcDbLine
 10
49.832417
 20
-2.440515
 30
0.0
 11
49.81626499999999
 21
-2.356401
 31
0.0
  0
LINE
  5
695
330
1F
100
AcDbEntity
  8
1
  6
CONTINUOUS
370
50
 62
4
100
AcDbLine
 10
49.726791
 20
0.523036
 30
0.0
 11
49.721321
 21
0.550613
 31
0.0
  0
LINE
  5
696
330
1F
100
AcDbEntity
  8
1
  6
CONTINUOUS
370
50
 62
4
100
AcDbLine
 10
49.853657
 20
-0.525154
 30
0.0
 11
49.834976
 21
-0.432936
 31
0.0
  0
LINE
  5
697
330
1F
100
AcDbEntity
  8
1
  6
CONTINUOUS
370
50
 62
4
100
AcDbLine
 10
49.006386
 20
1.397099
 30
0.0
 11
49.00016
 21
1.427492
 31
0.0
  0
LINE
  5
698
330
1F
100
AcDbEntity
  8
1
  6
CONTINUOUS
370
50
 62
4
100
AcDbLine
 10
49.721321
 20
0.550613
 30
0.0
 11
49.715462
 21
0.578784
 31
0.0
  0
LINE
  5
699
330
1F
100
AcDbEntity
  8
1
  6
CONTINUOUS
370
50
 62
4
100
AcDbLine
 10
49.87384
 20
-0.619765
 30
0.0
 11
49.853657
 21
-0.525154
 31
0.0
  0
LINE
  5
69A
330
1F
100
AcDbEntity
  8
1
  6
CONTINUOUS
370
50
 62
4
100
AcDbLine
 10
49.849995
 20
-2.521932
 30
0.0
 11
49.832417
 21
-2.440515
 31
0.0
  0
LINE
  5
69B
330
1F
100
AcDbEntity
  8
1
  6
CONTINUOUS
370
50
 62
4
100
AcDbLine
 10
49.895329
 20
-0.7159719999999999
 30
0.0
 11
49.87384
 21
-0.619765
 31
0.0
  0
LINE
  5
69C
330
1F
100
AcDbEntity
  8
1
  6
CONTINUOUS
370
50
 62
4
100
AcDbLine
 10
49.918018
 20
-0.8133819999999999
 30
0.0
 11
49.895329
 21
-0.7159719999999999
 31
0.0
  0
LINE
  5
69D
330
1F
100
AcDbEntity
  8
1
  6
CONTINUOUS
370
50
 62
4
100
AcDbLine
 10
49.869778
 20
-2.603818
 30
0.0
 11
49.849995
 21
-2.521932
 31
0.0
  0
LINE
  5
69E
330
1F
100
AcDbEntity
  8
1
  6
CONTINUOUS
370
50
 62
4
100
AcDbLine
 10
49.941841
 20
-0.911809
 30
0.0
 11
49.918018
 21
-0.8133819999999999
 31
0.0
  0
LINE
  5
69F
330
1F
100
AcDbEntity
  8
1
  6
CONTINUOUS
370
50
 62
4
100
AcDbLine
 10
49.966721
 20
-1.011066
 30
0.0
 11
49.941841
 21
-0.911809
 31
0.0
  0
LINE
  5
6A0
330
1F
100
AcDbEntity
  8
1
  6
CONTINUOUS
370
50
 62
4
100
AcDbLine
 10
49.00016
 20
1.427492
 30
0.0
 11
48.992588
 21
1.457423
 31
0.0
  0
LINE
  5
6A1
330
1F
100
AcDbEntity
  8
1
  6
CONTINUOUS
370
50
 62
4
100
AcDbLine
 10
36.222511
 20
1.259891
 30
0.0
 11
36.215771
 21
1.28596
 31
0.0
  0
LINE
  5
6A2
330
1F
100
AcDbEntity
  8
1
  6
CONTINUOUS
370
50
 62
4
100
AcDbLine
 10
49.99259199999999
 20
-1.110968
 30
0.0
 11
49.966721
 21
-1.011066
 31
0.0
  0
LINE
  5
6A3
330
1F
100
AcDbEntity
  8
1
  6
CONTINUOUS
370
50
 62
4
100
AcDbLine
 10
49.893501
 20
-2.691237
 30
0.0
 11
49.869778
 21
-2.603818
 31
0.0
  0
LINE
  5
6A4
330
1F
100
AcDbEntity
  8
1
  6
CONTINUOUS
370
50
 62
4
100
AcDbLine
 10
36.222115
 20
-1.726688
 30
0.0
 11
36.21542
 21
-1.702738
 31
0.0
  0
LINE
  5
6A5
330
1F
100
AcDbEntity
  8
1
  6
CONTINUOUS
370
50
 62
4
100
AcDbLine
 10
48.992588
 20
1.457423
 30
0.0
 11
48.9837
 21
1.486802
 31
0.0
  0
LINE
  5
6A6
330
1F
100
AcDbEntity
  8
1
  6
CONTINUOUS
370
50
 62
4
100
AcDbLine
 10
49.921608
 20
-2.782465
 30
0.0
 11
49.893501
 21
-2.691237
 31
0.0
  0
LINE
  5
6A7
330
1F
100
AcDbEntity
  8
1
  6
CONTINUOUS
370
50
 62
4
100
AcDbLine
 10
48.840878
 20
1.893911
 30
0.0
 11
48.820377
 21
1.958264
 31
0.0
  0
LINE
  5
6A8
330
1F
100
AcDbEntity
  8
1
  6
CONTINUOUS
370
50
 62
4
100
AcDbLine
 10
48.861828
 20
1.829874
 30
0.0
 11
48.840878
 21
1.893911
 31
0.0
  0
LINE
  5
6A9
330
1F
100
AcDbEntity
  8
1
  6
CONTINUOUS
370
50
 62
4
100
AcDbLine
 10
48.883232
 20
1.766185
 30
0.0
 11
48.861828
 21
1.829874
 31
0.0
  0
LINE
  5
6AA
330
1F
100
AcDbEntity
  8
1
  6
CONTINUOUS
370
50
 62
4
100
AcDbLine
 10
48.905094
 20
1.702875
 30
0.0
 11
48.883232
 21
1.766185
 31
0.0
  0
LINE
  5
6AB
330
1F
100
AcDbEntity
  8
1
  6
CONTINUOUS
370
50
 62
4
100
AcDbLine
 10
36.23148
 20
1.234312
 30
0.0
 11
36.222511
 21
1.259891
 31
0.0
  0
LINE
  5
6AC
330
1F
100
AcDbEntity
  8
1
  6
CONTINUOUS
370
50
 62
4
100
AcDbLine
 10
49.954498
 20
-2.875629
 30
0.0
 11
49.921608
 21
-2.782465
 31
0.0
  0
LINE
  5
6AD
330
1F
100
AcDbEntity
  8
1
  6
CONTINUOUS
370
50
 62
4
100
AcDbLine
 10
48.9837
 20
1.486802
 30
0.0
 11
48.973518
 21
1.515538
 31
0.0
  0
LINE
  5
6AE
330
1F
100
AcDbEntity
  8
1
  6
CONTINUOUS
370
50
 62
4
100
AcDbLine
 10
48.927425
 20
1.639976
 30
0.0
 11
48.905094
 21
1.702875
 31
0.0
  0
LINE
  5
6AF
330
1F
100
AcDbEntity
  8
1
  6
CONTINUOUS
370
50
 62
4
100
AcDbLine
 10
48.950233
 20
1.57752
 30
0.0
 11
48.927425
 21
1.639976
 31
0.0
  0
LINE
  5
6B0
330
1F
100
AcDbEntity
  8
1
  6
CONTINUOUS
370
50
 62
4
100
AcDbLine
 10
48.973518
 20
1.515538
 30
0.0
 11
48.950233
 21
1.57752
 31
0.0
  0
LINE
  5
6B1
330
1F
100
AcDbEntity
  8
1
  6
CONTINUOUS
370
50
 62
4
100
AcDbLine
 10
36.231102
 20
-1.749923
 30
0.0
 11
36.222115
 21
-1.726688
 31
0.0
  0
LINE
  5
6B2
330
1F
100
AcDbEntity
  8
1
  6
CONTINUOUS
370
50
 62
4
100
AcDbLine
 10
37.979885
 20
-0.7515919999999999
 30
0.0
 11
37.97702
 21
-0.744452
 31
0.0
  0
LINE
  5
6B3
330
1F
100
AcDbEntity
  8
1
  6
CONTINUOUS
370
50
 62
4
100
AcDbLine
 10
49.99258
 20
-2.968858
 30
0.0
 11
49.954498
 21
-2.875629
 31
0.0
  0
LINE
  5
6B4
330
1F
100
AcDbEntity
  8
1
  6
CONTINUOUS
370
50
 62
4
100
AcDbLine
 10
37.98291
 20
-0.7586849999999999
 30
0.0
 11
37.979885
 21
-0.7515919999999999
 31
0.0
  0
LINE
  5
6B5
330
1F
100
AcDbEntity
  8
1
  6
CONTINUOUS
370
50
 62
4
100
AcDbLine
 10
36.242512
 20
1.209277
 30
0.0
 11
36.23148
 21
1.234312
 31
0.0
  0
LINE
  5
6B6
330
1F
100
AcDbEntity
  8
1
  6
CONTINUOUS
370
50
 62
4
100
AcDbLine
 10
37.98608
 20
-0.7657269999999999
 30
0.0
 11
37.98291
 21
-0.7586849999999999
 31
0.0
  0
LINE
  5
6B7
330
1F
100
AcDbEntity
  8
1
  6
CONTINUOUS
370
50
 62
4
100
AcDbLine
 10
37.989388
 20
-0.772712
 30
0.0
 11
37.98608
 21
-0.7657269999999999
 31
0.0
  0
LINE
  5
6B8
330
1F
100
AcDbEntity
  8
1
  6
CONTINUOUS
370
50
 62
4
100
AcDbLine
 10
36.242207
 20
-1.772414
 30
0.0
 11
36.231102
 21
-1.749923
 31
0.0
  0
LINE
  5
6B9
330
1F
100
AcDbEntity
  8
1
  6
CONTINUOUS
370
50
 62
4
100
AcDbLine
 10
37.992813
 20
-0.7796329999999999
 30
0.0
 11
37.989388
 21
-0.772712
 31
0.0
  0
LINE
  5
6BA
330
1F
100
AcDbEntity
  8
1
  6
CONTINUOUS
370
50
 62
4
100
AcDbLine
 10
37.996357
 20
-0.786484
 30
0.0
 11
37.992813
 21
-0.7796329999999999
 31
0.0
  0
LINE
  5
6BB
330
1F
100
AcDbEntity
  8
1
  6
CONTINUOUS
370
50
 62
4
100
AcDbLine
 10
36.210892
 20
2.992821
 30
0.0
 11
36.209694
 21
2.995099
 31
0.0
  0
LINE
  5
6BC
330
1F
100
AcDbEntity
  8
1
  6
CONTINUOUS
370
50
 62
4
100
AcDbLine
 10
36.255436
 20
1.18484
 30
0.0
 11
36.242512
 21
1.209277
 31
0.0
  0
LINE
  5
6BD
330
1F
100
AcDbEntity
  8
1
  6
CONTINUOUS
370
50
 62
4
100
AcDbLine
 10
38.0
 20
-0.793261
 30
0.0
 11
37.996357
 21
-0.786484
 31
0.0
  0
LINE
  5
6BE
330
1F
100
AcDbEntity
  8
1
  6
CONTINUOUS
370
50
 62
4
100
AcDbLine
 10
37.979885
 20
2.13938
 30
0.0
 11
37.97702
 21
2.144542
 31
0.0
  0
LINE
  5
6BF
330
1F
100
AcDbEntity
  8
1
  6
CONTINUOUS
370
50
 62
4
100
AcDbLine
 10
37.98291
 20
2.134235
 30
0.0
 11
37.979885
 21
2.13938
 31
0.0
  0
LINE
  5
6C0
330
1F
100
AcDbEntity
  8
1
  6
CONTINUOUS
370
50
 62
4
100
AcDbLine
 10
36.255264
 20
-1.794129
 30
0.0
 11
36.242207
 21
-1.772414
 31
0.0
  0
LINE
  5
6C1
330
1F
100
AcDbEntity
  8
1
  6
CONTINUOUS
370
50
 62
4
100
AcDbLine
 10
49.393009
 20
1.007648
 30
0.0
 11
48.820377
 21
1.958264
 31
0.0
  0
LINE
  5
6C2
330
1F
100
AcDbEntity
  8
1
  6
CONTINUOUS
370
50
 62
4
100
AcDbLine
 10
49.626022
 20
0.62083
 30
0.0
 11
49.393009
 21
1.007648
 31
0.0
  0
LINE
  5
6C3
330
1F
100
AcDbEntity
  8
1
  6
CONTINUOUS
370
50
 62
4
100
AcDbLine
 10
36.270092
 20
1.161054
 30
0.0
 11
36.255436
 21
1.18484
 31
0.0
  0
LINE
  5
6C4
330
1F
100
AcDbEntity
  8
1
  6
CONTINUOUS
370
50
 62
4
100
AcDbLine
 10
37.98608
 20
2.129112
 30
0.0
 11
37.98291
 21
2.134235
 31
0.0
  0
LINE
  5
6C5
330
1F
100
AcDbEntity
  8
1
  6
CONTINUOUS
370
50
 62
4
100
AcDbLine
 10
37.989388
 20
2.124015
 30
0.0
 11
37.98608
 21
2.129112
 31
0.0
  0
LINE
  5
6C6
330
1F
100
AcDbEntity
  8
1
  6
CONTINUOUS
370
50
 62
4
100
AcDbLine
 10
49.79826
 20
0.454644
 30
0.0
 11
49.715462
 21
0.578784
 31
0.0
  0
LINE
  5
6C7
330
1F
100
AcDbEntity
  8
1
  6
CONTINUOUS
370
50
 62
4
100
AcDbLine
 10
49.900002
 20
0.302102
 30
0.0
 11
49.79826
 21
0.454644
 31
0.0
  0
LINE
  5
6C8
330
1F
100
AcDbEntity
  8
1
  6
CONTINUOUS
370
50
 62
4
100
AcDbLine
 10
37.992813
 20
2.118949
 30
0.0
 11
37.989388
 21
2.124015
 31
0.0
  0
LINE
  5
6C9
330
1F
100
AcDbEntity
  8
1
  6
CONTINUOUS
370
50
 62
4
100
AcDbLine
 10
49.99259199999999
 20
1.857839
 30
0.0
 11
49.966293
 21
1.896451
 31
0.0
  0
LINE
  5
6CA
330
1F
100
AcDbEntity
  8
1
  6
CONTINUOUS
370
50
 62
4
100
AcDbLine
 10
37.996357
 20
2.113919
 30
0.0
 11
37.992813
 21
2.118949
 31
0.0
  0
LINE
  5
6CB
330
1F
100
AcDbEntity
  8
1
  6
CONTINUOUS
370
50
 62
4
100
AcDbLine
 10
49.74563999999999
 20
0.399884
 30
0.0
 11
49.74527399999999
 21
0.400403
 31
0.0
  0
LINE
  5
6CC
330
1F
100
AcDbEntity
  8
1
  6
CONTINUOUS
370
50
 62
4
100
AcDbLine
 10
49.746376
 20
0.398848
 30
0.0
 11
49.74601
 21
0.399366
 31
0.0
  0
LINE
  5
6CD
330
1F
100
AcDbEntity
  8
1
  6
CONTINUOUS
370
50
 62
4
100
AcDbLine
 10
49.74711199999999
 20
0.397814
 30
0.0
 11
49.74674599999999
 21
0.398331
 31
0.0
  0
LINE
  5
6CE
330
1F
100
AcDbEntity
  8
1
  6
CONTINUOUS
370
50
 62
4
100
AcDbLine
 10
49.74527399999999
 20
0.400403
 30
0.0
 11
49.744907
 21
0.400921
 31
0.0
  0
LINE
  5
6CF
330
1F
100
AcDbEntity
  8
1
  6
CONTINUOUS
370
50
 62
4
100
AcDbLine
 10
36.270092
 20
-1.815039
 30
0.0
 11
36.255264
 21
-1.794129
 31
0.0
  0
LINE
  5
6D0
330
1F
100
AcDbEntity
  8
1
  6
CONTINUOUS
370
50
 62
4
100
AcDbLine
 10
49.744907
 20
0.400921
 30
0.0
 11
49.744537
 21
0.40144
 31
0.0
  0
LINE
  5
6D1
330
1F
100
AcDbEntity
  8
1
  6
CONTINUOUS
370
50
 62
4
100
AcDbLine
 10
49.74601
 20
0.399366
 30
0.0
 11
49.74563999999999
 21
0.399884
 31
0.0
  0
LINE
  5
6D2
330
1F
100
AcDbEntity
  8
1
  6
CONTINUOUS
370
50
 62
4
100
AcDbLine
 10
49.74674599999999
 20
0.398331
 30
0.0
 11
49.746376
 21
0.398848
 31
0.0
  0
LINE
  5
6D3
330
1F
100
AcDbEntity
  8
1
  6
CONTINUOUS
370
50
 62
4
100
AcDbLine
 10
38.0
 20
2.108929
 30
0.0
 11
37.996357
 21
2.113919
 31
0.0
  0
LINE
  5
6D4
330
1F
100
AcDbEntity
  8
1
  6
CONTINUOUS
370
50
 62
4
100
AcDbLine
 10
49.966293
 20
1.896451
 30
0.0
 11
49.941021
 21
1.930263
 31
0.0
  0
LINE
  5
6D5
330
1F
100
AcDbEntity
  8
1
  6
CONTINUOUS
370
50
 62
4
100
AcDbLine
 10
37.534843
 20
-0.214126
 30
0.0
 11
37.448078
 21
-0.107061
 31
0.0
  0
LINE
  5
6D6
330
1F
100
AcDbEntity
  8
1
  6
CONTINUOUS
370
50
 62
4
100
AcDbLine
 10
37.448078
 20
-0.107061
 30
0.0
 11
37.361107
 21
0.000107
 31
0.0
  0
LINE
  5
6D7
330
1F
100
AcDbEntity
  8
1
  6
CONTINUOUS
370
50
 62
4
100
AcDbLine
 10
37.621727
 20
-0.320989
 30
0.0
 11
37.534843
 21
-0.214126
 31
0.0
  0
LINE
  5
6D8
330
1F
100
AcDbEntity
  8
1
  6
CONTINUOUS
370
50
 62
4
100
AcDbLine
 10
37.361107
 20
0.000107
 30
0.0
 11
37.211723
 21
0.182413
 31
0.0
  0
LINE
  5
6D9
330
1F
100
AcDbEntity
  8
1
  6
CONTINUOUS
370
50
 62
4
100
AcDbLine
 10
37.709061
 20
-0.427551
 30
0.0
 11
37.621727
 21
-0.320989
 31
0.0
  0
LINE
  5
6DA
330
1F
100
AcDbEntity
  8
1
  6
CONTINUOUS
370
50
 62
4
100
AcDbLine
 10
37.797169
 20
-0.5337149999999999
 30
0.0
 11
37.709061
 21
-0.427551
 31
0.0
  0
LINE
  5
6DB
330
1F
100
AcDbEntity
  8
1
  6
CONTINUOUS
370
50
 62
4
100
AcDbLine
 10
49.941021
 20
1.930263
 30
0.0
 11
49.916851
 21
1.959081
 31
0.0
  0
LINE
  5
6DC
330
1F
100
AcDbEntity
  8
1
  6
CONTINUOUS
370
50
 62
4
100
AcDbLine
 10
37.211723
 20
0.182413
 30
0.0
 11
37.059208
 21
0.364222
 31
0.0
  0
LINE
  5
6DD
330
1F
100
AcDbEntity
  8
1
  6
CONTINUOUS
370
50
 62
4
100
AcDbLine
 10
37.886379
 20
-0.639381
 30
0.0
 11
37.797169
 21
-0.5337149999999999
 31
0.0
  0
LINE
  5
6DE
330
1F
100
AcDbEntity
  8
1
  6
CONTINUOUS
370
50
 62
4
100
AcDbLine
 10
37.97702
 20
-0.744452
 30
0.0
 11
37.886379
 21
-0.639381
 31
0.0
  0
LINE
  5
6DF
330
1F
100
AcDbEntity
  8
1
  6
CONTINUOUS
370
50
 62
4
100
AcDbLine
 10
37.059208
 20
0.364222
 30
0.0
 11
36.905266
 21
0.54092
 31
0.0
  0
LINE
  5
6E0
330
1F
100
AcDbEntity
  8
1
  6
CONTINUOUS
370
50
 62
4
100
AcDbLine
 10
36.905266
 20
0.54092
 30
0.0
 11
36.750813
 21
0.709213
 31
0.0
  0
LINE
  5
6E1
330
1F
100
AcDbEntity
  8
1
  6
CONTINUOUS
370
50
 62
4
100
AcDbLine
 10
49.916851
 20
1.959081
 30
0.0
 11
49.893848
 21
1.982716
 31
0.0
  0
LINE
  5
6E2
330
1F
100
AcDbEntity
  8
1
  6
CONTINUOUS
370
50
 62
4
100
AcDbLine
 10
36.750813
 20
0.709213
 30
0.0
 11
36.594421
 21
0.86884
 31
0.0
  0
LINE
  5
6E3
330
1F
100
AcDbEntity
  8
1
  6
CONTINUOUS
370
50
 62
4
100
AcDbLine
 10
36.594421
 20
0.86884
 30
0.0
 11
36.434658
 21
1.019541
 31
0.0
  0
LINE
  5
6E4
330
1F
100
AcDbEntity
  8
1
  6
CONTINUOUS
370
50
 62
4
100
AcDbLine
 10
40.333767
 20
-0.015433
 30
0.0
 11
40.333725
 21
-0.015396
 31
0.0
  0
LINE
  5
6E5
330
1F
100
AcDbEntity
  8
1
  6
CONTINUOUS
370
50
 62
4
100
AcDbLine
 10
36.434658
 20
1.019541
 30
0.0
 11
36.270092
 21
1.161054
 31
0.0
  0
LINE
  5
6E6
330
1F
100
AcDbEntity
  8
1
  6
CONTINUOUS
370
50
 62
4
100
AcDbLine
 10
44.17372899999999
 20
-0.00536
 30
0.0
 11
44.170303
 21
-0.002449
 31
0.0
  0
LINE
  5
6E7
330
1F
100
AcDbEntity
  8
1
  6
CONTINUOUS
370
50
 62
4
100
AcDbLine
 10
44.184021
 20
-0.014096
 30
0.0
 11
44.180592
 21
-0.011183
 31
0.0
  0
LINE
  5
6E8
330
1F
100
AcDbEntity
  8
1
  6
CONTINUOUS
370
50
 62
4
100
AcDbLine
 10
44.177158
 20
-0.008271
 30
0.0
 11
44.17372899999999
 21
-0.00536
 31
0.0
  0
LINE
  5
6E9
330
1F
100
AcDbEntity
  8
1
  6
CONTINUOUS
370
50
 62
4
100
AcDbLine
 10
44.187454
 20
-0.017009
 30
0.0
 11
44.184021
 21
-0.014096
 31
0.0
  0
LINE
  5
6EA
330
1F
100
AcDbEntity
  8
1
  6
CONTINUOUS
370
50
 62
4
100
AcDbLine
 10
44.180592
 20
-0.011183
 30
0.0
 11
44.177158
 21
-0.008271
 31
0.0
  0
LINE
  5
6EB
330
1F
100
AcDbEntity
  8
1
  6
CONTINUOUS
370
50
 62
4
100
AcDbLine
 10
41.358974
 20
-0.440711
 30
0.0
 11
40.83755499999999
 21
0.0
 31
0.0
  0
LINE
  5
6EC
330
1F
100
AcDbEntity
  8
1
  6
CONTINUOUS
370
50
 62
4
100
AcDbLine
 10
40.952873
 20
-0.527337
 30
0.0
 11
40.85814999999999
 21
-0.447488
 31
0.0
  0
LINE
  5
6ED
330
1F
100
AcDbEntity
  8
1
  6
CONTINUOUS
370
50
 62
4
100
AcDbLine
 10
41.086796
 20
-0.639884
 30
0.0
 11
40.952873
 21
-0.527337
 31
0.0
  0
LINE
  5
6EE
330
1F
100
AcDbEntity
  8
1
  6
CONTINUOUS
370
50
 62
4
100
AcDbLine
 10
44.377907
 20
-0.176894
 30
0.0
 11
44.187454
 21
-0.017009
 31
0.0
  0
LINE
  5
6EF
330
1F
100
AcDbEntity
  8
1
  6
CONTINUOUS
370
50
 62
4
100
AcDbLine
 10
49.893848
 20
1.982716
 30
0.0
 11
49.872093
 21
2.000975
 31
0.0
  0
LINE
  5
6F0
330
1F
100
AcDbEntity
  8
1
  6
CONTINUOUS
370
50
 62
4
100
AcDbLine
 10
44.291218
 20
0.326313
 30
0.0
 11
43.916142
 21
0.640938
 31
0.0
  0
LINE
  5
6F1
330
1F
100
AcDbEntity
  8
1
  6
CONTINUOUS
370
50
 62
4
100
AcDbLine
 10
40.85814999999999
 20
-0.447488
 30
0.0
 11
40.771542
 21
-0.375031
 31
0.0
  0
LINE
  5
6F2
330
1F
100
AcDbEntity
  8
1
  6
CONTINUOUS
370
50
 62
4
100
AcDbLine
 10
40.83755499999999
 20
0.0
 30
0.0
 11
40.564213
 21
0.228168
 31
0.0
  0
LINE
  5
6F3
330
1F
100
AcDbEntity
  8
1
  6
CONTINUOUS
370
50
 62
4
100
AcDbLine
 10
44.166485
 20
0.0
 30
0.0
 11
43.388371
 21
0.6478769999999999
 31
0.0
  0
LINE
  5
6F4
330
1F
100
AcDbEntity
  8
1
  6
CONTINUOUS
370
50
 62
4
100
AcDbLine
 10
40.771542
 20
-0.375031
 30
0.0
 11
40.684612
 21
-0.302732
 31
0.0
  0
LINE
  5
6F5
330
1F
100
AcDbEntity
  8
1
  6
CONTINUOUS
370
50
 62
4
100
AcDbLine
 10
40.317818
 20
-0.002608
 30
0.0
 11
40.314671
 21
0.0
 31
0.0
  0
LINE
  5
6F6
330
1F
100
AcDbEntity
  8
1
  6
CONTINUOUS
370
50
 62
4
100
AcDbLine
 10
40.684612
 20
-0.302732
 30
0.0
 11
40.597385
 21
-0.230617
 31
0.0
  0
LINE
  5
6F7
330
1F
100
AcDbEntity
  8
1
  6
CONTINUOUS
370
50
 62
4
100
AcDbLine
 10
40.597385
 20
-0.230617
 30
0.0
 11
40.509861
 21
-0.158713
 31
0.0
  0
LINE
  5
6F8
330
1F
100
AcDbEntity
  8
1
  6
CONTINUOUS
370
50
 62
4
100
AcDbLine
 10
37.97702
 20
2.144542
 30
0.0
 11
37.922867
 21
2.189025
 31
0.0
  0
LINE
  5
6F9
330
1F
100
AcDbEntity
  8
1
  6
CONTINUOUS
370
50
 62
4
100
AcDbLine
 10
41.261295
 20
-0.783171
 30
0.0
 11
41.086796
 21
-0.639884
 31
0.0
  0
LINE
  5
6FA
330
1F
100
AcDbEntity
  8
1
  6
CONTINUOUS
370
50
 62
4
100
AcDbLine
 10
44.689495
 20
0.000069
 30
0.0
 11
44.291218
 21
0.326313
 31
0.0
  0
LINE
  5
6FB
330
1F
100
AcDbEntity
  8
1
  6
CONTINUOUS
370
50
 62
4
100
AcDbLine
 10
44.574955
 20
-0.338052
 30
0.0
 11
44.377907
 21
-0.176894
 31
0.0
  0
LINE
  5
6FC
330
1F
100
AcDbEntity
  8
1
  6
CONTINUOUS
370
50
 62
4
100
AcDbLine
 10
40.509861
 20
-0.158713
 30
0.0
 11
40.421986
 21
-0.086997
 31
0.0
  0
LINE
  5
6FD
330
1F
100
AcDbEntity
  8
1
  6
CONTINUOUS
370
50
 62
4
100
AcDbLine
 10
38.213882
 20
-1.012342
 30
0.0
 11
38.0
 21
-0.838722
 31
0.0
  0
LINE
  5
6FE
330
1F
100
AcDbEntity
  8
1
  6
CONTINUOUS
370
50
 62
4
100
AcDbLine
 10
40.421986
 20
-0.086997
 30
0.0
 11
40.333725
 21
-0.015451
 31
0.0
  0
LINE
  5
6FF
330
1F
100
AcDbEntity
  8
1
  6
CONTINUOUS
370
50
 62
4
100
AcDbLine
 10
37.922867
 20
2.189025
 30
0.0
 11
37.869267
 21
2.232443
 31
0.0
  0
LINE
  5
700
330
1F
100
AcDbEntity
  8
1
  6
CONTINUOUS
370
50
 62
4
100
AcDbLine
 10
40.333855
 20
-0.015502
 30
0.0
 11
40.333813
 21
-0.015468
 31
0.0
  0
LINE
  5
701
330
1F
100
AcDbEntity
  8
1
  6
CONTINUOUS
370
50
 62
4
100
AcDbLine
 10
40.564213
 20
0.228168
 30
0.0
 11
40.283142
 21
0.455444
 31
0.0
  0
LINE
  5
702
330
1F
100
AcDbEntity
  8
1
  6
CONTINUOUS
370
50
 62
4
100
AcDbLine
 10
40.333725
 20
-0.015451
 30
0.0
 11
40.330547
 21
-0.012882
 31
0.0
  0
LINE
  5
703
330
1F
100
AcDbEntity
  8
1
  6
CONTINUOUS
370
50
 62
4
100
AcDbLine
 10
48.041229
 20
0.0
 30
0.0
 11
47.093521
 21
0.765652
 31
0.0
  0
LINE
  5
704
330
1F
100
AcDbEntity
  8
1
  6
CONTINUOUS
370
50
 62
4
100
AcDbLine
 10
40.330547
 20
-0.012882
 30
0.0
 11
40.327366
 21
-0.010313
 31
0.0
  0
LINE
  5
705
330
1F
100
AcDbEntity
  8
1
  6
CONTINUOUS
370
50
 62
4
100
AcDbLine
 10
40.327366
 20
-0.010313
 30
0.0
 11
40.324184
 21
-0.007744
 31
0.0
  0
LINE
  5
706
330
1F
100
AcDbEntity
  8
1
  6
CONTINUOUS
370
50
 62
4
100
AcDbLine
 10
43.916142
 20
0.640938
 30
0.0
 11
43.536949
 21
0.947063
 31
0.0
  0
LINE
  5
707
330
1F
100
AcDbEntity
  8
1
  6
CONTINUOUS
370
50
 62
4
100
AcDbLine
 10
40.324184
 20
-0.007744
 30
0.0
 11
40.321003
 21
-0.005176
 31
0.0
  0
LINE
  5
708
330
1F
100
AcDbEntity
  8
1
  6
CONTINUOUS
370
50
 62
4
100
AcDbLine
 10
40.321003
 20
-0.005176
 30
0.0
 11
40.317818
 21
-0.002608
 31
0.0
  0
LINE
  5
709
330
1F
100
AcDbEntity
  8
1
  6
CONTINUOUS
370
50
 62
4
100
AcDbLine
 10
49.992584
 20
-1.110965
 30
0.0
 11
49.796597
 21
-0.954062
 31
0.0
  0
LINE
  5
70A
330
1F
100
AcDbEntity
  8
1
  6
CONTINUOUS
370
50
 62
4
100
AcDbLine
 10
44.773792
 20
-0.497032
 30
0.0
 11
44.574955
 21
-0.338052
 31
0.0
  0
LINE
  5
70B
330
1F
100
AcDbEntity
  8
1
  6
CONTINUOUS
370
50
 62
4
100
AcDbLine
 10
40.314671
 20
0.0
 30
0.0
 11
40.06834
 21
0.196928
 31
0.0
  0
LINE
  5
70C
330
1F
100
AcDbEntity
  8
1
  6
CONTINUOUS
370
50
 62
4
100
AcDbLine
 10
49.796597
 20
-0.954062
 30
0.0
 11
49.598454
 21
-0.79592
 31
0.0
  0
LINE
  5
70D
330
1F
100
AcDbEntity
  8
1
  6
CONTINUOUS
370
50
 62
4
100
AcDbLine
 10
37.869267
 20
2.232443
 30
0.0
 11
37.816151
 21
2.274786
 31
0.0
  0
LINE
  5
70E
330
1F
100
AcDbEntity
  8
1
  6
CONTINUOUS
370
50
 62
4
100
AcDbLine
 10
47.093521
 20
0.765652
 30
0.0
 11
46.548485
 21
1.199762
 31
0.0
  0
LINE
  5
70F
330
1F
100
AcDbEntity
  8
1
  6
CONTINUOUS
370
50
 62
4
100
AcDbLine
 10
49.598454
 20
-0.79592
 30
0.0
 11
49.398621
 21
-0.636922
 31
0.0
  0
LINE
  5
710
330
1F
100
AcDbEntity
  8
1
  6
CONTINUOUS
370
50
 62
4
100
AcDbLine
 10
41.474663
 20
-0.9524969999999999
 30
0.0
 11
41.261295
 21
-0.783171
 31
0.0
  0
LINE
  5
711
330
1F
100
AcDbEntity
  8
1
  6
CONTINUOUS
370
50
 62
4
100
AcDbLine
 10
49.398621
 20
-0.636922
 30
0.0
 11
49.197559
 21
-0.477453
 31
0.0
  0
LINE
  5
712
330
1F
100
AcDbEntity
  8
1
  6
CONTINUOUS
370
50
 62
4
100
AcDbLine
 10
48.048916
 20
-0.005646
 30
0.0
 11
48.045177
 21
-0.002687
 31
0.0
  0
LINE
  5
713
330
1F
100
AcDbEntity
  8
1
  6
CONTINUOUS
370
50
 62
4
100
AcDbLine
 10
48.060165
 20
-0.014545
 30
0.0
 11
48.05641199999999
 21
-0.011575
 31
0.0
  0
LINE
  5
714
330
1F
100
AcDbEntity
  8
1
  6
CONTINUOUS
370
50
 62
4
100
AcDbLine
 10
48.052662
 20
-0.008609
 30
0.0
 11
48.048916
 21
-0.005646
 31
0.0
  0
LINE
  5
715
330
1F
100
AcDbEntity
  8
1
  6
CONTINUOUS
370
50
 62
4
100
AcDbLine
 10
48.05641199999999
 20
-0.011575
 30
0.0
 11
48.052662
 21
-0.008609
 31
0.0
  0
LINE
  5
716
330
1F
100
AcDbEntity
  8
1
  6
CONTINUOUS
370
50
 62
4
100
AcDbLine
 10
49.197559
 20
-0.477453
 30
0.0
 11
48.995735
 21
-0.317896
 31
0.0
  0
LINE
  5
717
330
1F
100
AcDbEntity
  8
1
  6
CONTINUOUS
370
50
 62
4
100
AcDbLine
 10
48.063927
 20
-0.017518
 30
0.0
 11
48.060165
 21
-0.014545
 31
0.0
  0
LINE
  5
718
330
1F
100
AcDbEntity
  8
1
  6
CONTINUOUS
370
50
 62
4
100
AcDbLine
 10
41.906849
 20
-0.873092
 30
0.0
 11
41.358974
 21
-0.440711
 31
0.0
  0
LINE
  5
719
330
1F
100
AcDbEntity
  8
1
  6
CONTINUOUS
370
50
 62
4
100
AcDbLine
 10
48.995735
 20
-0.317896
 30
0.0
 11
48.793613
 21
-0.158635
 31
0.0
  0
LINE
  5
71A
330
1F
100
AcDbEntity
  8
1
  6
CONTINUOUS
370
50
 62
4
100
AcDbLine
 10
48.279003
 20
-0.186847
 30
0.0
 11
48.063927
 21
-0.017518
 31
0.0
  0
LINE
  5
71B
330
1F
100
AcDbEntity
  8
1
  6
CONTINUOUS
370
50
 62
4
100
AcDbLine
 10
40.06834
 20
0.196928
 30
0.0
 11
39.820644
 21
0.39172
 31
0.0
  0
LINE
  5
71C
330
1F
100
AcDbEntity
  8
1
  6
CONTINUOUS
370
50
 62
4
100
AcDbLine
 10
47.174675
 20
1.109715
 30
0.0
 11
47.07306699999999
 21
1.189576
 31
0.0
  0
LINE
  5
71D
330
1F
100
AcDbEntity
  8
1
  6
CONTINUOUS
370
50
 62
4
100
AcDbLine
 10
45.448559
 20
-0.5962729999999999
 30
0.0
 11
44.689495
 21
0.000069
 31
0.0
  0
LINE
  5
71E
330
1F
100
AcDbEntity
  8
1
  6
CONTINUOUS
370
50
 62
4
100
AcDbLine
 10
48.793613
 20
-0.158635
 30
0.0
 11
48.591652
 21
-0.000054
 31
0.0
  0
LINE
  5
71F
330
1F
100
AcDbEntity
  8
1
  6
CONTINUOUS
370
50
 62
4
100
AcDbLine
 10
47.274029
 20
1.031724
 30
0.0
 11
47.174675
 21
1.109715
 31
0.0
  0
LINE
  5
720
330
1F
100
AcDbEntity
  8
1
  6
CONTINUOUS
370
50
 62
4
100
AcDbLine
 10
47.37392
 20
0.9533459999999999
 30
0.0
 11
47.274029
 21
1.031724
 31
0.0
  0
LINE
  5
721
330
1F
100
AcDbEntity
  8
1
  6
CONTINUOUS
370
50
 62
4
100
AcDbLine
 10
47.474289
 20
0.8746299999999999
 30
0.0
 11
47.37392
 21
0.9533459999999999
 31
0.0
  0
LINE
  5
722
330
1F
100
AcDbEntity
  8
1
  6
CONTINUOUS
370
50
 62
4
100
AcDbLine
 10
47.575069
 20
0.7956249999999999
 30
0.0
 11
47.474289
 21
0.8746299999999999
 31
0.0
  0
LINE
  5
723
330
1F
100
AcDbEntity
  8
1
  6
CONTINUOUS
370
50
 62
4
100
AcDbLine
 10
47.676193
 20
0.71638
 30
0.0
 11
47.575069
 21
0.7956249999999999
 31
0.0
  0
LINE
  5
724
330
1F
100
AcDbEntity
  8
1
  6
CONTINUOUS
370
50
 62
4
100
AcDbLine
 10
40.283142
 20
0.455444
 30
0.0
 11
39.99918
 21
0.6779499999999999
 31
0.0
  0
LINE
  5
725
330
1F
100
AcDbEntity
  8
1
  6
CONTINUOUS
370
50
 62
4
100
AcDbLine
 10
47.777596
 20
0.636944
 30
0.0
 11
47.676193
 21
0.71638
 31
0.0
  0
LINE
  5
726
330
1F
100
AcDbEntity
  8
1
  6
CONTINUOUS
370
50
 62
4
100
AcDbLine
 10
48.591652
 20
-0.000054
 30
0.0
 11
48.489906
 21
0.079625
 31
0.0
  0
LINE
  5
727
330
1F
100
AcDbEntity
  8
1
  6
CONTINUOUS
370
50
 62
4
100
AcDbLine
 10
47.879219
 20
0.557366
 30
0.0
 11
47.777596
 21
0.636944
 31
0.0
  0
LINE
  5
728
330
1F
100
AcDbEntity
  8
1
  6
CONTINUOUS
370
50
 62
4
100
AcDbLine
 10
37.816151
 20
2.274786
 30
0.0
 11
37.763451
 21
2.316043
 31
0.0
  0
LINE
  5
729
330
1F
100
AcDbEntity
  8
1
  6
CONTINUOUS
370
50
 62
4
100
AcDbLine
 10
47.980991
 20
0.477696
 30
0.0
 11
47.879219
 21
0.557366
 31
0.0
  0
LINE
  5
72A
330
1F
100
AcDbEntity
  8
1
  6
CONTINUOUS
370
50
 62
4
100
AcDbLine
 10
48.082848
 20
0.397982
 30
0.0
 11
47.980991
 21
0.477696
 31
0.0
  0
LINE
  5
72B
330
1F
100
AcDbEntity
  8
1
  6
CONTINUOUS
370
50
 62
4
100
AcDbLine
 10
48.184731
 20
0.318273
 30
0.0
 11
48.082848
 21
0.397982
 31
0.0
  0
LINE
  5
72C
330
1F
100
AcDbEntity
  8
1
  6
CONTINUOUS
370
50
 62
4
100
AcDbLine
 10
44.97376999999999
 20
-0.653476
 30
0.0
 11
44.773792
 21
-0.497032
 31
0.0
  0
LINE
  5
72D
330
1F
100
AcDbEntity
  8
1
  6
CONTINUOUS
370
50
 62
4
100
AcDbLine
 10
48.286572
 20
0.238619
 30
0.0
 11
48.184731
 21
0.318273
 31
0.0
  0
LINE
  5
72E
330
1F
100
AcDbEntity
  8
1
  6
CONTINUOUS
370
50
 62
4
100
AcDbLine
 10
48.388302
 20
0.159069
 30
0.0
 11
48.286572
 21
0.238619
 31
0.0
  0
LINE
  5
72F
330
1F
100
AcDbEntity
  8
1
  6
CONTINUOUS
370
50
 62
4
100
AcDbLine
 10
48.489906
 20
0.079625
 30
0.0
 11
48.388302
 21
0.159069
 31
0.0
  0
LINE
  5
730
330
1F
100
AcDbEntity
  8
1
  6
CONTINUOUS
370
50
 62
4
100
AcDbLine
 10
47.07306699999999
 20
1.189576
 30
0.0
 11
46.928875
 21
1.30213
 31
0.0
  0
LINE
  5
731
330
1F
100
AcDbEntity
  8
1
  6
CONTINUOUS
370
50
 62
4
100
AcDbLine
 10
48.508232
 20
-0.365703
 30
0.0
 11
48.279003
 21
-0.186847
 31
0.0
  0
LINE
  5
732
330
1F
100
AcDbEntity
  8
1
  6
CONTINUOUS
370
50
 62
4
100
AcDbLine
 10
38.078403
 20
-1.304024
 30
0.0
 11
38.0
 21
-1.243063
 31
0.0
  0
LINE
  5
733
330
1F
100
AcDbEntity
  8
1
  6
CONTINUOUS
370
50
 62
4
100
AcDbLine
 10
48.744003
 20
-0.5482429999999999
 30
0.0
 11
48.508232
 21
-0.365703
 31
0.0
  0
LINE
  5
734
330
1F
100
AcDbEntity
  8
1
  6
CONTINUOUS
370
50
 62
4
100
AcDbLine
 10
39.820644
 20
0.39172
 30
0.0
 11
39.572632
 21
0.583731
 31
0.0
  0
LINE
  5
735
330
1F
100
AcDbEntity
  8
1
  6
CONTINUOUS
370
50
 62
4
100
AcDbLine
 10
48.979595
 20
-0.729592
 30
0.0
 11
48.744003
 21
-0.5482429999999999
 31
0.0
  0
LINE
  5
736
330
1F
100
AcDbEntity
  8
1
  6
CONTINUOUS
370
50
 62
4
100
AcDbLine
 10
38.527214
 20
-1.252857
 30
0.0
 11
38.213882
 21
-1.012342
 31
0.0
  0
LINE
  5
737
330
1F
100
AcDbEntity
  8
1
  6
CONTINUOUS
370
50
 62
4
100
AcDbLine
 10
37.763451
 20
2.316043
 30
0.0
 11
37.711098
 21
2.356205
 31
0.0
  0
LINE
  5
738
330
1F
100
AcDbEntity
  8
1
  6
CONTINUOUS
370
50
 62
4
100
AcDbLine
 10
49.214039
 20
-0.9091899999999999
 30
0.0
 11
48.979595
 21
-0.729592
 31
0.0
  0
LINE
  5
739
330
1F
100
AcDbEntity
  8
1
  6
CONTINUOUS
370
50
 62
4
100
AcDbLine
 10
45.174358
 20
-0.807095
 30
0.0
 11
44.97376999999999
 21
-0.653476
 31
0.0
  0
LINE
  5
73A
330
1F
100
AcDbEntity
  8
1
  6
CONTINUOUS
370
50
 62
4
100
AcDbLine
 10
39.572632
 20
0.583731
 30
0.0
 11
39.32539
 21
0.772359
 31
0.0
  0
LINE
  5
73B
330
1F
100
AcDbEntity
  8
1
  6
CONTINUOUS
370
50
 62
4
100
AcDbLine
 10
49.43670299999999
 20
-1.079035
 30
0.0
 11
49.214039
 21
-0.9091899999999999
 31
0.0
  0
LINE
  5
73C
330
1F
100
AcDbEntity
  8
1
  6
CONTINUOUS
370
50
 62
4
100
AcDbLine
 10
38.162724
 20
-1.368271
 30
0.0
 11
38.078403
 21
-1.304024
 31
0.0
  0
LINE
  5
73D
330
1F
100
AcDbEntity
  8
1
  6
CONTINUOUS
370
50
 62
4
100
AcDbLine
 10
41.72517
 20
-1.143158
 30
0.0
 11
41.474663
 21
-0.9524969999999999
 31
0.0
  0
LINE
  5
73E
330
1F
100
AcDbEntity
  8
1
  6
CONTINUOUS
370
50
 62
4
100
AcDbLine
 10
40.333813
 20
-0.015468
 30
0.0
 11
40.333767
 21
-0.015433
 31
0.0
  0
LINE
  5
73F
330
1F
100
AcDbEntity
  8
1
  6
CONTINUOUS
370
50
 62
4
100
AcDbLine
 10
39.99918
 20
0.6779499999999999
 30
0.0
 11
39.713932
 21
0.8948389999999999
 31
0.0
  0
LINE
  5
740
330
1F
100
AcDbEntity
  8
1
  6
CONTINUOUS
370
50
 62
4
100
AcDbLine
 10
49.629154
 20
-1.225166
 30
0.0
 11
49.43670299999999
 21
-1.079035
 31
0.0
  0
LINE
  5
741
330
1F
100
AcDbEntity
  8
1
  6
CONTINUOUS
370
50
 62
4
100
AcDbLine
 10
49.788761
 20
-1.345817
 30
0.0
 11
49.629154
 21
-1.225166
 31
0.0
  0
LINE
  5
742
330
1F
100
AcDbEntity
  8
1
  6
CONTINUOUS
370
50
 62
4
100
AcDbLine
 10
46.155697
 20
-1.129372
 30
0.0
 11
45.448559
 21
-0.5962729999999999
 31
0.0
  0
LINE
  5
743
330
1F
100
AcDbEntity
  8
1
  6
CONTINUOUS
370
50
 62
4
100
AcDbLine
 10
43.536949
 20
0.947063
 30
0.0
 11
43.151566
 21
1.237531
 31
0.0
  0
LINE
  5
744
330
1F
100
AcDbEntity
  8
1
  6
CONTINUOUS
370
50
 62
4
100
AcDbLine
 10
39.32539
 20
0.772359
 30
0.0
 11
39.086746
 21
0.952174
 31
0.0
  0
LINE
  5
745
330
1F
100
AcDbEntity
  8
1
  6
CONTINUOUS
370
50
 62
4
100
AcDbLine
 10
49.913162
 20
-1.439444
 30
0.0
 11
49.788761
 21
-1.345817
 31
0.0
  0
LINE
  5
746
330
1F
100
AcDbEntity
  8
1
  6
CONTINUOUS
370
50
 62
4
100
AcDbLine
 10
46.928875
 20
1.30213
 30
0.0
 11
46.731129
 21
1.450737
 31
0.0
  0
LINE
  5
747
330
1F
100
AcDbEntity
  8
1
  6
CONTINUOUS
370
50
 62
4
100
AcDbLine
 10
36.755638
 20
-2.173414
 30
0.0
 11
36.597691
 21
-2.054721
 31
0.0
  0
LINE
  5
748
330
1F
100
AcDbEntity
  8
1
  6
CONTINUOUS
370
50
 62
4
100
AcDbLine
 10
43.388371
 20
0.6478769999999999
 30
0.0
 11
42.58453
 21
1.251243
 31
0.0
  0
LINE
  5
749
330
1F
100
AcDbEntity
  8
1
  6
CONTINUOUS
370
50
 62
4
100
AcDbLine
 10
45.375011
 20
-0.9576
 30
0.0
 11
45.174358
 21
-0.807095
 31
0.0
  0
LINE
  5
74A
330
1F
100
AcDbEntity
  8
1
  6
CONTINUOUS
370
50
 62
4
100
AcDbLine
 10
37.711098
 20
2.356205
 30
0.0
 11
37.659023
 21
2.39526
 31
0.0
  0
LINE
  5
74B
330
1F
100
AcDbEntity
  8
1
  6
CONTINUOUS
370
50
 62
4
100
AcDbLine
 10
50.0
 20
-1.5045
 30
0.0
 11
49.913162
 21
-1.439444
 31
0.0
  0
LINE
  5
74C
330
1F
100
AcDbEntity
  8
1
  6
CONTINUOUS
370
50
 62
4
100
AcDbLine
 10
36.911648
 20
-2.289707
 30
0.0
 11
36.755638
 21
-2.173414
 31
0.0
  0
LINE
  5
74D
330
1F
100
AcDbEntity
  8
1
  6
CONTINUOUS
370
50
 62
4
100
AcDbLine
 10
39.086746
 20
0.952174
 30
0.0
 11
38.864052
 21
1.11815
 31
0.0
  0
LINE
  5
74E
330
1F
100
AcDbEntity
  8
1
  6
CONTINUOUS
370
50
 62
4
100
AcDbLine
 10
38.252903
 20
-1.435482
 30
0.0
 11
38.162724
 21
-1.368271
 31
0.0
  0
LINE
  5
74F
330
1F
100
AcDbEntity
  8
1
  6
CONTINUOUS
370
50
 62
4
100
AcDbLine
 10
36.597691
 20
-2.054721
 30
0.0
 11
36.436337
 21
-1.934854
 31
0.0
  0
LINE
  5
750
330
1F
100
AcDbEntity
  8
1
  6
CONTINUOUS
370
50
 62
4
100
AcDbLine
 10
37.715702
 20
2.353212
 30
0.0
 11
37.659
 21
2.395142
 31
0.0
  0
LINE
  5
751
330
1F
100
AcDbEntity
  8
1
  6
CONTINUOUS
370
50
 62
4
100
AcDbLine
 10
39.713932
 20
0.8948389999999999
 30
0.0
 11
39.429012
 21
1.105264
 31
0.0
  0
LINE
  5
752
330
1F
100
AcDbEntity
  8
1
  6
CONTINUOUS
370
50
 62
4
100
AcDbLine
 10
40.333897
 20
-0.015533
 30
0.0
 11
40.333855
 21
-0.015502
 31
0.0
  0
LINE
  5
753
330
1F
100
AcDbEntity
  8
1
  6
CONTINUOUS
370
50
 62
4
100
AcDbLine
 10
37.772453
 20
2.311359
 30
0.0
 11
37.715702
 21
2.353212
 31
0.0
  0
LINE
  5
754
330
1F
100
AcDbEntity
  8
1
  6
CONTINUOUS
370
50
 62
4
100
AcDbLine
 10
38.864052
 20
1.11815
 30
0.0
 11
38.6576
 21
1.27036
 31
0.0
  0
LINE
  5
755
330
1F
100
AcDbEntity
  8
1
  6
CONTINUOUS
370
50
 62
4
100
AcDbLine
 10
37.829262
 20
2.26958
 30
0.0
 11
37.772453
 21
2.311359
 31
0.0
  0
LINE
  5
756
330
1F
100
AcDbEntity
  8
1
  6
CONTINUOUS
370
50
 62
4
100
AcDbLine
 10
45.575375
 20
-1.104857
 30
0.0
 11
45.375011
 21
-0.9576
 31
0.0
  0
LINE
  5
757
330
1F
100
AcDbEntity
  8
1
  6
CONTINUOUS
370
50
 62
4
100
AcDbLine
 10
37.88612
 20
2.227878
 30
0.0
 11
37.829262
 21
2.26958
 31
0.0
  0
LINE
  5
758
330
1F
100
AcDbEntity
  8
1
  6
CONTINUOUS
370
50
 62
4
100
AcDbLine
 10
42.464924
 20
-1.282303
 30
0.0
 11
41.906849
 21
-0.873092
 31
0.0
  0
LINE
  5
759
330
1F
100
AcDbEntity
  8
1
  6
CONTINUOUS
370
50
 62
4
100
AcDbLine
 10
37.94303499999999
 20
2.186251
 30
0.0
 11
37.88612
 21
2.227878
 31
0.0
  0
LINE
  5
75A
330
1F
100
AcDbEntity
  8
1
  6
CONTINUOUS
370
50
 62
4
100
AcDbLine
 10
46.695953
 20
-1.52426
 30
0.0
 11
46.155697
 21
-1.129372
 31
0.0
  0
LINE
  5
75B
330
1F
100
AcDbEntity
  8
1
  6
CONTINUOUS
370
50
 62
4
100
AcDbLine
 10
38.0
 20
2.144701
 30
0.0
 11
37.94303499999999
 21
2.186251
 31
0.0
  0
LINE
  5
75C
330
1F
100
AcDbEntity
  8
1
  6
CONTINUOUS
370
50
 62
4
100
AcDbLine
 10
38.6576
 20
1.27036
 30
0.0
 11
38.467682
 21
1.408871
 31
0.0
  0
LINE
  5
75D
330
1F
100
AcDbEntity
  8
1
  6
CONTINUOUS
370
50
 62
4
100
AcDbLine
 10
38.348888
 20
-1.505334
 30
0.0
 11
38.252903
 21
-1.435482
 31
0.0
  0
LINE
  5
75E
330
1F
100
AcDbEntity
  8
1
  6
CONTINUOUS
370
50
 62
4
100
AcDbLine
 10
42.009224
 20
-1.349132
 30
0.0
 11
41.72517
 21
-1.143158
 31
0.0
  0
LINE
  5
75F
330
1F
100
AcDbEntity
  8
1
  6
CONTINUOUS
370
50
 62
4
100
AcDbLine
 10
37.067196
 20
-2.402375
 30
0.0
 11
36.911648
 21
-2.289707
 31
0.0
  0
LINE
  5
760
330
1F
100
AcDbEntity
  8
1
  6
CONTINUOUS
370
50
 62
4
100
AcDbLine
 10
38.467682
 20
1.408871
 30
0.0
 11
38.294582
 21
1.533756
 31
0.0
  0
LINE
  5
761
330
1F
100
AcDbEntity
  8
1
  6
CONTINUOUS
370
50
 62
4
100
AcDbLine
 10
45.776108
 20
-1.249624
 30
0.0
 11
45.575375
 21
-1.104857
 31
0.0
  0
LINE
  5
762
330
1F
100
AcDbEntity
  8
1
  6
CONTINUOUS
370
50
 62
4
100
AcDbLine
 10
36.436337
 20
-1.934854
 30
0.0
 11
36.270092
 21
-1.815039
 31
0.0
  0
LINE
  5
763
330
1F
100
AcDbEntity
  8
1
  6
CONTINUOUS
370
50
 62
4
100
AcDbLine
 10
39.429012
 20
1.105264
 30
0.0
 11
39.145554
 21
1.308779
 31
0.0
  0
LINE
  5
764
330
1F
100
AcDbEntity
  8
1
  6
CONTINUOUS
370
50
 62
4
100
AcDbLine
 10
38.294582
 20
1.533756
 30
0.0
 11
38.138592
 21
1.645083
 31
0.0
  0
LINE
  5
765
330
1F
100
AcDbEntity
  8
1
  6
CONTINUOUS
370
50
 62
4
100
AcDbLine
 10
38.913391
 20
-1.528267
 30
0.0
 11
38.527214
 21
-1.252857
 31
0.0
  0
LINE
  5
766
330
1F
100
AcDbEntity
  8
1
  6
CONTINUOUS
370
50
 62
4
100
AcDbLine
 10
46.548485
 20
1.199762
 30
0.0
 11
46.000648
 21
1.589778
 31
0.0
  0
LINE
  5
767
330
1F
100
AcDbEntity
  8
1
  6
CONTINUOUS
370
50
 62
4
100
AcDbLine
 10
46.731129
 20
1.450737
 30
0.0
 11
46.482525
 21
1.627253
 31
0.0
  0
LINE
  5
768
330
1F
100
AcDbEntity
  8
1
  6
CONTINUOUS
370
50
 62
4
100
AcDbLine
 10
38.450619
 20
-1.577506
 30
0.0
 11
38.348888
 21
-1.505334
 31
0.0
  0
LINE
  5
769
330
1F
100
AcDbEntity
  8
1
  6
CONTINUOUS
370
50
 62
4
100
AcDbLine
 10
37.659023
 20
2.39526
 30
0.0
 11
37.492386
 21
2.513399
 31
0.0
  0
LINE
  5
76A
330
1F
100
AcDbEntity
  8
1
  6
CONTINUOUS
370
50
 62
4
100
AcDbLine
 10
45.976902
 20
-1.391736
 30
0.0
 11
45.776108
 21
-1.249624
 31
0.0
  0
LINE
  5
76B
330
1F
100
AcDbEntity
  8
1
  6
CONTINUOUS
370
50
 62
4
100
AcDbLine
 10
47.046616
 20
-1.772129
 30
0.0
 11
46.695953
 21
-1.52426
 31
0.0
  0
LINE
  5
76C
330
1F
100
AcDbEntity
  8
1
  6
CONTINUOUS
370
50
 62
4
100
AcDbLine
 10
38.138592
 20
1.645083
 30
0.0
 11
38.0
 21
1.742923
 31
0.0
  0
LINE
  5
76D
330
1F
100
AcDbEntity
  8
1
  6
CONTINUOUS
370
50
 62
4
100
AcDbLine
 10
43.151566
 20
1.237531
 30
0.0
 11
42.758858
 21
1.513384
 31
0.0
  0
LINE
  5
76E
330
1F
100
AcDbEntity
  8
1
  6
CONTINUOUS
370
50
 62
4
100
AcDbLine
 10
39.145554
 20
1.308779
 30
0.0
 11
38.862881
 21
1.506385
 31
0.0
  0
LINE
  5
76F
330
1F
100
AcDbEntity
  8
1
  6
CONTINUOUS
370
50
 62
4
100
AcDbLine
 10
50.0
 20
1.495495
 30
0.0
 11
49.473309
 21
1.861396
 31
0.0
  0
LINE
  5
770
330
1F
100
AcDbEntity
  8
1
  6
CONTINUOUS
370
50
 62
4
100
AcDbLine
 10
46.177223
 20
-1.530819
 30
0.0
 11
45.976902
 21
-1.391736
 31
0.0
  0
LINE
  5
771
330
1F
100
AcDbEntity
  8
1
  6
CONTINUOUS
370
50
 62
4
100
AcDbLine
 10
38.558037
 20
-1.651675
 30
0.0
 11
38.450619
 21
-1.577506
 31
0.0
  0
LINE
  5
772
330
1F
100
AcDbEntity
  8
1
  6
CONTINUOUS
370
50
 62
4
100
AcDbLine
 10
37.979885
 20
-2.890971
 30
0.0
 11
37.97702
 21
-2.888993
 31
0.0
  0
LINE
  5
773
330
1F
100
AcDbEntity
  8
1
  6
CONTINUOUS
370
50
 62
4
100
AcDbLine
 10
42.302853
 20
-1.551298
 30
0.0
 11
42.009224
 21
-1.349132
 31
0.0
  0
LINE
  5
774
330
1F
100
AcDbEntity
  8
1
  6
CONTINUOUS
370
50
 62
4
100
AcDbLine
 10
37.221088
 20
-2.508268
 30
0.0
 11
37.067196
 21
-2.402375
 31
0.0
  0
LINE
  5
775
330
1F
100
AcDbEntity
  8
1
  6
CONTINUOUS
370
50
 62
4
100
AcDbLine
 10
43.021038
 20
-1.662477
 30
0.0
 11
42.464924
 21
-1.282303
 31
0.0
  0
LINE
  5
776
330
1F
100
AcDbEntity
  8
1
  6
CONTINUOUS
370
50
 62
4
100
AcDbLine
 10
46.37653
 20
-1.666501
 30
0.0
 11
46.177223
 21
-1.530819
 31
0.0
  0
LINE
  5
777
330
1F
100
AcDbEntity
  8
1
  6
CONTINUOUS
370
50
 62
4
100
AcDbLine
 10
48.045177
 20
-0.002687
 30
0.0
 11
48.041229
 21
0.0
 31
0.0
  0
LINE
  5
778
330
1F
100
AcDbEntity
  8
1
  6
CONTINUOUS
370
50
 62
4
100
AcDbLine
 10
38.862881
 20
1.506385
 30
0.0
 11
38.583599
 21
1.696443
 31
0.0
  0
LINE
  5
779
330
1F
100
AcDbEntity
  8
1
  6
CONTINUOUS
370
50
 62
4
100
AcDbLine
 10
42.58453
 20
1.251243
 30
0.0
 11
41.780773
 21
1.79486
 31
0.0
  0
LINE
  5
77A
330
1F
100
AcDbEntity
  8
1
  6
CONTINUOUS
370
50
 62
4
100
AcDbLine
 10
38.67108899999999
 20
-1.72752
 30
0.0
 11
38.558037
 21
-1.651675
 31
0.0
  0
LINE
  5
77B
330
1F
100
AcDbEntity
  8
1
  6
CONTINUOUS
370
50
 62
4
100
AcDbLine
 10
47.246449
 20
-1.905952
 30
0.0
 11
47.046616
 21
-1.772129
 31
0.0
  0
LINE
  5
77C
330
1F
100
AcDbEntity
  8
1
  6
CONTINUOUS
370
50
 62
4
100
AcDbLine
 10
46.57427999999999
 20
-1.798409
 30
0.0
 11
46.37653
 21
-1.666501
 31
0.0
  0
LINE
  5
77D
330
1F
100
AcDbEntity
  8
1
  6
CONTINUOUS
370
50
 62
4
100
AcDbLine
 10
38.583599
 20
1.696443
 30
0.0
 11
38.338696
 21
1.858639
 31
0.0
  0
LINE
  5
77E
330
1F
100
AcDbEntity
  8
1
  6
CONTINUOUS
370
50
 62
4
100
AcDbLine
 10
46.482525
 20
1.627253
 30
0.0
 11
46.18575999999999
 21
1.823534
 31
0.0
  0
LINE
  5
77F
330
1F
100
AcDbEntity
  8
1
  6
CONTINUOUS
370
50
 62
4
100
AcDbLine
 10
49.992584
 20
1.85788
 30
0.0
 11
49.825832
 21
1.967599
 31
0.0
  0
LINE
  5
780
330
1F
100
AcDbEntity
  8
1
  6
CONTINUOUS
370
50
 62
4
100
AcDbLine
 10
39.307587
 20
-1.78712
 30
0.0
 11
38.913391
 21
-1.528267
 31
0.0
  0
LINE
  5
781
330
1F
100
AcDbEntity
  8
1
  6
CONTINUOUS
370
50
 62
4
100
AcDbLine
 10
42.758858
 20
1.513384
 30
0.0
 11
42.361919
 21
1.7733
 31
0.0
  0
LINE
  5
782
330
1F
100
AcDbEntity
  8
1
  6
CONTINUOUS
370
50
 62
4
100
AcDbLine
 10
42.597721
 20
-1.744047
 30
0.0
 11
42.302853
 21
-1.551298
 31
0.0
  0
LINE
  5
783
330
1F
100
AcDbEntity
  8
1
  6
CONTINUOUS
370
50
 62
4
100
AcDbLine
 10
46.770184
 20
-1.926249
 30
0.0
 11
46.57427999999999
 21
-1.798409
 31
0.0
  0
LINE
  5
784
330
1F
100
AcDbEntity
  8
1
  6
CONTINUOUS
370
50
 62
4
100
AcDbLine
 10
38.789715
 20
-1.804719
 30
0.0
 11
38.67108899999999
 21
-1.72752
 31
0.0
  0
LINE
  5
785
330
1F
100
AcDbEntity
  8
1
  6
CONTINUOUS
370
50
 62
4
100
AcDbLine
 10
38.338696
 20
1.858639
 30
0.0
 11
38.143093
 21
1.984843
 31
0.0
  0
LINE
  5
786
330
1F
100
AcDbEntity
  8
1
  6
CONTINUOUS
370
50
 62
4
100
AcDbLine
 10
37.98291
 20
-2.89292
 30
0.0
 11
37.979885
 21
-2.890971
 31
0.0
  0
LINE
  5
787
330
1F
100
AcDbEntity
  8
1
  6
CONTINUOUS
370
50
 62
4
100
AcDbLine
 10
44.170303
 20
-0.002449
 30
0.0
 11
44.166485
 21
0.0
 31
0.0
  0
LINE
  5
788
330
1F
100
AcDbEntity
  8
1
  6
CONTINUOUS
370
50
 62
4
100
AcDbLine
 10
37.371864
 20
-2.604585
 30
0.0
 11
37.221088
 21
-2.508268
 31
0.0
  0
LINE
  5
789
330
1F
100
AcDbEntity
  8
1
  6
CONTINUOUS
370
50
 62
4
100
AcDbLine
 10
37.492386
 20
2.513399
 30
0.0
 11
37.325603
 21
2.619619
 31
0.0
  0
LINE
  5
78A
330
1F
100
AcDbEntity
  8
1
  6
CONTINUOUS
370
50
 62
4
100
AcDbLine
 10
43.564629
 20
-2.008631
 30
0.0
 11
43.021038
 21
-1.662477
 31
0.0
  0
LINE
  5
78B
330
1F
100
AcDbEntity
  8
1
  6
CONTINUOUS
370
50
 62
4
100
AcDbLine
 10
46.964443
 20
-2.049784
 30
0.0
 11
46.770184
 21
-1.926249
 31
0.0
  0
LINE
  5
78C
330
1F
100
AcDbEntity
  8
1
  6
CONTINUOUS
370
50
 62
4
100
AcDbLine
 10
46.000648
 20
1.589778
 30
0.0
 11
45.448708
 21
1.939673
 31
0.0
  0
LINE
  5
78D
330
1F
100
AcDbEntity
  8
1
  6
CONTINUOUS
370
50
 62
4
100
AcDbLine
 10
38.143093
 20
1.984843
 30
0.0
 11
38.0
 21
2.075025
 31
0.0
  0
LINE
  5
78E
330
1F
100
AcDbEntity
  8
1
  6
CONTINUOUS
370
50
 62
4
100
AcDbLine
 10
38.91386
 20
-1.88295
 30
0.0
 11
38.789715
 21
-1.804719
 31
0.0
  0
LINE
  5
78F
330
1F
100
AcDbEntity
  8
1
  6
CONTINUOUS
370
50
 62
4
100
AcDbLine
 10
47.440289
 20
-2.027404
 30
0.0
 11
47.246449
 21
-1.905952
 31
0.0
  0
LINE
  5
790
330
1F
100
AcDbEntity
  8
1
  6
CONTINUOUS
370
50
 62
4
100
AcDbLine
 10
49.872093
 20
2.000975
 30
0.0
 11
49.851707
 21
2.013636
 31
0.0
  0
LINE
  5
791
330
1F
100
AcDbEntity
  8
1
  6
CONTINUOUS
370
50
 62
4
100
AcDbLine
 10
42.891899
 20
-1.926556
 30
0.0
 11
42.597721
 21
-1.744047
 31
0.0
  0
LINE
  5
792
330
1F
100
AcDbEntity
  8
1
  6
CONTINUOUS
370
50
 62
4
100
AcDbLine
 10
49.825832
 20
1.967599
 30
0.0
 11
49.657471
 21
2.071935
 31
0.0
  0
LINE
  5
793
330
1F
100
AcDbEntity
  8
1
  6
CONTINUOUS
370
50
 62
4
100
AcDbLine
 10
49.54725999999999
 20
1.52188
 30
0.0
 11
49.51644899999999
 21
1.540951
 31
0.0
  0
LINE
  5
794
330
1F
100
AcDbEntity
  8
1
  6
CONTINUOUS
370
50
 62
4
100
AcDbLine
 10
49.51644899999999
 20
1.540951
 30
0.0
 11
49.484413
 21
1.560773
 31
0.0
  0
LINE
  5
795
330
1F
100
AcDbEntity
  8
1
  6
CONTINUOUS
370
50
 62
4
100
AcDbLine
 10
49.581787
 20
1.500527
 30
0.0
 11
49.54725999999999
 21
1.52188
 31
0.0
  0
LINE
  5
796
330
1F
100
AcDbEntity
  8
1
  6
CONTINUOUS
370
50
 62
4
100
AcDbLine
 10
49.484413
 20
1.560773
 30
0.0
 11
49.451172
 21
1.581319
 31
0.0
  0
LINE
  5
797
330
1F
100
AcDbEntity
  8
1
  6
CONTINUOUS
370
50
 62
4
100
AcDbLine
 10
49.451172
 20
1.581319
 30
0.0
 11
49.41674399999999
 21
1.602565
 31
0.0
  0
LINE
  5
798
330
1F
100
AcDbEntity
  8
1
  6
CONTINUOUS
370
50
 62
4
100
AcDbLine
 10
49.628708
 20
1.471598
 30
0.0
 11
49.581787
 21
1.500527
 31
0.0
  0
LINE
  5
799
330
1F
100
AcDbEntity
  8
1
  6
CONTINUOUS
370
50
 62
4
100
AcDbLine
 10
49.41674399999999
 20
1.602565
 30
0.0
 11
49.381142
 21
1.624484
 31
0.0
  0
LINE
  5
79A
330
1F
100
AcDbEntity
  8
1
  6
CONTINUOUS
370
50
 62
4
100
AcDbLine
 10
41.780773
 20
1.79486
 30
0.0
 11
41.160992
 21
2.17575
 31
0.0
  0
LINE
  5
79B
330
1F
100
AcDbEntity
  8
1
  6
CONTINUOUS
370
50
 62
4
100
AcDbLine
 10
49.381142
 20
1.624484
 30
0.0
 11
49.344387
 21
1.647051
 31
0.0
  0
LINE
  5
79C
330
1F
100
AcDbEntity
  8
1
  6
CONTINUOUS
370
50
 62
4
100
AcDbLine
 10
49.677853
 20
1.441493
 30
0.0
 11
49.628708
 21
1.471598
 31
0.0
  0
LINE
  5
79D
330
1F
100
AcDbEntity
  8
1
  6
CONTINUOUS
370
50
 62
4
100
AcDbLine
 10
49.344387
 20
1.647051
 30
0.0
 11
49.30648799999999
 21
1.670241
 31
0.0
  0
LINE
  5
79E
330
1F
100
AcDbEntity
  8
1
  6
CONTINUOUS
370
50
 62
4
100
AcDbLine
 10
49.30648799999999
 20
1.670241
 30
0.0
 11
49.267464
 21
1.694027
 31
0.0
  0
LINE
  5
79F
330
1F
100
AcDbEntity
  8
1
  6
CONTINUOUS
370
50
 62
4
100
AcDbLine
 10
42.361919
 20
1.7733
 30
0.0
 11
41.965122
 21
2.015049
 31
0.0
  0
LINE
  5
7A0
330
1F
100
AcDbEntity
  8
1
  6
CONTINUOUS
370
50
 62
4
100
AcDbLine
 10
39.043472
 20
-1.961891
 30
0.0
 11
38.91386
 21
-1.88295
 31
0.0
  0
LINE
  5
7A1
330
1F
100
AcDbEntity
  8
1
  6
CONTINUOUS
370
50
 62
4
100
AcDbLine
 10
46.18575999999999
 20
1.823534
 30
0.0
 11
45.84354
 21
2.031437
 31
0.0
  0
LINE
  5
7A2
330
1F
100
AcDbEntity
  8
1
  6
CONTINUOUS
370
50
 62
4
100
AcDbLine
 10
49.267464
 20
1.694027
 30
0.0
 11
49.227329
 21
1.718386
 31
0.0
  0
LINE
  5
7A3
330
1F
100
AcDbEntity
  8
1
  6
CONTINUOUS
370
50
 62
4
100
AcDbLine
 10
37.98608
 20
-2.894839
 30
0.0
 11
37.98291
 21
-2.89292
 31
0.0
  0
LINE
  5
7A4
330
1F
100
AcDbEntity
  8
1
  6
CONTINUOUS
370
50
 62
4
100
AcDbLine
 10
47.188538
 20
-2.185275
 30
0.0
 11
46.964443
 21
-2.049784
 31
0.0
  0
LINE
  5
7A5
330
1F
100
AcDbEntity
  8
1
  6
CONTINUOUS
370
50
 62
4
100
AcDbLine
 10
49.72189299999999
 20
1.414878
 30
0.0
 11
49.677853
 21
1.441493
 31
0.0
  0
LINE
  5
7A6
330
1F
100
AcDbEntity
  8
1
  6
CONTINUOUS
370
50
 62
4
100
AcDbLine
 10
49.227329
 20
1.718386
 30
0.0
 11
49.186104
 21
1.74329
 31
0.0
  0
LINE
  5
7A7
330
1F
100
AcDbEntity
  8
1
  6
CONTINUOUS
370
50
 62
4
100
AcDbLine
 10
39.703972
 20
-2.026551
 30
0.0
 11
39.307587
 21
-1.78712
 31
0.0
  0
LINE
  5
7A8
330
1F
100
AcDbEntity
  8
1
  6
CONTINUOUS
370
50
 62
4
100
AcDbLine
 10
49.186104
 20
1.74329
 30
0.0
 11
49.143803
 21
1.768715
 31
0.0
  0
LINE
  5
7A9
330
1F
100
AcDbEntity
  8
1
  6
CONTINUOUS
370
50
 62
4
100
AcDbLine
 10
44.187508
 20
-0.01774
 30
0.0
 11
43.843758
 21
0.188868
 31
0.0
  0
LINE
  5
7AA
330
1F
100
AcDbEntity
  8
1
  6
CONTINUOUS
370
50
 62
4
100
AcDbLine
 10
49.143803
 20
1.768715
 30
0.0
 11
49.100441
 21
1.794635
 31
0.0
  0
LINE
  5
7AB
330
1F
100
AcDbEntity
  8
1
  6
CONTINUOUS
370
50
 62
4
100
AcDbLine
 10
49.100441
 20
1.794635
 30
0.0
 11
49.05603
 21
1.821025
 31
0.0
  0
LINE
  5
7AC
330
1F
100
AcDbEntity
  8
1
  6
CONTINUOUS
370
50
 62
4
100
AcDbLine
 10
49.05603
 20
1.821025
 30
0.0
 11
49.010593
 21
1.847858
 31
0.0
  0
LINE
  5
7AD
330
1F
100
AcDbEntity
  8
1
  6
CONTINUOUS
370
50
 62
4
100
AcDbLine
 10
49.765427
 20
1.389169
 30
0.0
 11
49.72189299999999
 21
1.414878
 31
0.0
  0
LINE
  5
7AE
330
1F
100
AcDbEntity
  8
1
  6
CONTINUOUS
370
50
 62
4
100
AcDbLine
 10
43.183647
 20
-2.09811
 30
0.0
 11
42.891899
 21
-1.926556
 31
0.0
  0
LINE
  5
7AF
330
1F
100
AcDbEntity
  8
1
  6
CONTINUOUS
370
50
 62
4
100
AcDbLine
 10
39.178486
 20
-2.041219
 30
0.0
 11
39.043472
 21
-1.961891
 31
0.0
  0
LINE
  5
7B0
330
1F
100
AcDbEntity
  8
1
  6
CONTINUOUS
370
50
 62
4
100
AcDbLine
 10
49.010593
 20
1.847858
 30
0.0
 11
48.964146
 21
1.875111
 31
0.0
  0
LINE
  5
7B1
330
1F
100
AcDbEntity
  8
1
  6
CONTINUOUS
370
50
 62
4
100
AcDbLine
 10
47.635757
 20
-2.141978
 30
0.0
 11
47.440289
 21
-2.027404
 31
0.0
  0
LINE
  5
7B2
330
1F
100
AcDbEntity
  8
1
  6
CONTINUOUS
370
50
 62
4
100
AcDbLine
 10
49.657471
 20
2.071935
 30
0.0
 11
49.487778
 21
2.170855
 31
0.0
  0
LINE
  5
7B3
330
1F
100
AcDbEntity
  8
1
  6
CONTINUOUS
370
50
 62
4
100
AcDbLine
 10
48.964146
 20
1.875111
 30
0.0
 11
48.916698
 21
1.902756
 31
0.0
  0
LINE
  5
7B4
330
1F
100
AcDbEntity
  8
1
  6
CONTINUOUS
370
50
 62
4
100
AcDbLine
 10
44.094414
 20
-2.317258
 30
0.0
 11
43.564629
 21
-2.008631
 31
0.0
  0
LINE
  5
7B5
330
1F
100
AcDbEntity
  8
1
  6
CONTINUOUS
370
50
 62
4
100
AcDbLine
 10
43.843758
 20
0.188868
 30
0.0
 11
43.50001899999999
 21
0.388489
 31
0.0
  0
LINE
  5
7B6
330
1F
100
AcDbEntity
  8
1
  6
CONTINUOUS
370
50
 62
4
100
AcDbLine
 10
37.521187
 20
-2.69107
 30
0.0
 11
37.371864
 21
-2.604585
 31
0.0
  0
LINE
  5
7B7
330
1F
100
AcDbEntity
  8
1
  6
CONTINUOUS
370
50
 62
4
100
AcDbLine
 10
47.37696099999999
 20
0.369819
 30
0.0
 11
47.033413
 21
0.5686129999999999
 31
0.0
  0
LINE
  5
7B8
330
1F
100
AcDbEntity
  8
1
  6
CONTINUOUS
370
50
 62
4
100
AcDbLine
 10
48.916698
 20
1.902756
 30
0.0
 11
48.868511
 21
1.930629
 31
0.0
  0
LINE
  5
7B9
330
1F
100
AcDbEntity
  8
1
  6
CONTINUOUS
370
50
 62
4
100
AcDbLine
 10
48.868511
 20
1.930629
 30
0.0
 11
48.820377
 21
1.958264
 31
0.0
  0
LINE
  5
7BA
330
1F
100
AcDbEntity
  8
1
  6
CONTINUOUS
370
50
 62
4
100
AcDbLine
 10
37.989388
 20
-2.896727
 30
0.0
 11
37.98608
 21
-2.894839
 31
0.0
  0
LINE
  5
7BB
330
1F
100
AcDbEntity
  8
1
  6
CONTINUOUS
370
50
 62
4
100
AcDbLine
 10
47.72052
 20
0.174218
 30
0.0
 11
47.37696099999999
 21
0.369819
 31
0.0
  0
LINE
  5
7BC
330
1F
100
AcDbEntity
  8
1
  6
CONTINUOUS
370
50
 62
4
100
AcDbLine
 10
47.033413
 20
0.5686129999999999
 30
0.0
 11
46.689873
 21
0.7634869999999999
 31
0.0
  0
LINE
  5
7BD
330
1F
100
AcDbEntity
  8
1
  6
CONTINUOUS
370
50
 62
4
100
AcDbLine
 10
49.808811
 20
1.364599
 30
0.0
 11
49.765427
 21
1.389169
 31
0.0
  0
LINE
  5
7BE
330
1F
100
AcDbEntity
  8
1
  6
CONTINUOUS
370
50
 62
4
100
AcDbLine
 10
39.318848
 20
-2.120613
 30
0.0
 11
39.178486
 21
-2.041219
 31
0.0
  0
LINE
  5
7BF
330
1F
100
AcDbEntity
  8
1
  6
CONTINUOUS
370
50
 62
4
100
AcDbLine
 10
41.965122
 20
2.015049
 30
0.0
 11
41.572834
 21
2.2364
 31
0.0
  0
LINE
  5
7C0
330
1F
100
AcDbEntity
  8
1
  6
CONTINUOUS
370
50
 62
4
100
AcDbLine
 10
45.448708
 20
1.939673
 30
0.0
 11
44.897095
 21
2.249682
 31
0.0
  0
LINE
  5
7C1
330
1F
100
AcDbEntity
  8
1
  6
CONTINUOUS
370
50
 62
4
100
AcDbLine
 10
40.333878
 20
-0.015799
 30
0.0
 11
39.944916
 21
0.202524
 31
0.0
  0
LINE
  5
7C2
330
1F
100
AcDbEntity
  8
1
  6
CONTINUOUS
370
50
 62
4
100
AcDbLine
 10
49.473309
 20
1.861396
 30
0.0
 11
48.592247
 21
2.355687
 31
0.0
  0
LINE
  5
7C3
330
1F
100
AcDbEntity
  8
1
  6
CONTINUOUS
370
50
 62
4
100
AcDbLine
 10
48.064072
 20
-0.017933
 30
0.0
 11
47.72052
 21
0.174218
 31
0.0
  0
LINE
  5
7C4
330
1F
100
AcDbEntity
  8
1
  6
CONTINUOUS
370
50
 62
4
100
AcDbLine
 10
41.160992
 20
2.17575
 30
0.0
 11
40.832417
 21
2.358735
 31
0.0
  0
LINE
  5
7C5
330
1F
100
AcDbEntity
  8
1
  6
CONTINUOUS
370
50
 62
4
100
AcDbLine
 10
36.214909
 20
2.990585
 30
0.0
 11
36.210892
 21
2.992821
 31
0.0
  0
LINE
  5
7C6
330
1F
100
AcDbEntity
  8
1
  6
CONTINUOUS
370
50
 62
4
100
AcDbLine
 10
37.325603
 20
2.619619
 30
0.0
 11
37.156368
 21
2.713578
 31
0.0
  0
LINE
  5
7C7
330
1F
100
AcDbEntity
  8
1
  6
CONTINUOUS
370
50
 62
4
100
AcDbLine
 10
43.473202
 20
-2.258853
 30
0.0
 11
43.183647
 21
-2.09811
 31
0.0
  0
LINE
  5
7C8
330
1F
100
AcDbEntity
  8
1
  6
CONTINUOUS
370
50
 62
4
100
AcDbLine
 10
43.50001899999999
 20
0.388489
 30
0.0
 11
43.156281
 21
0.5787599999999999
 31
0.0
  0
LINE
  5
7C9
330
1F
100
AcDbEntity
  8
1
  6
CONTINUOUS
370
50
 62
4
100
AcDbLine
 10
40.101105
 20
-2.246279
 30
0.0
 11
39.703972
 21
-2.026551
 31
0.0
  0
LINE
  5
7CA
330
1F
100
AcDbEntity
  8
1
  6
CONTINUOUS
370
50
 62
4
100
AcDbLine
 10
45.84354
 20
2.031437
 30
0.0
 11
45.46114
 21
2.241539
 31
0.0
  0
LINE
  5
7CB
330
1F
100
AcDbEntity
  8
1
  6
CONTINUOUS
370
50
 62
4
100
AcDbLine
 10
49.487778
 20
2.170855
 30
0.0
 11
49.317047
 21
2.264327
 31
0.0
  0
LINE
  5
7CC
330
1F
100
AcDbEntity
  8
1
  6
CONTINUOUS
370
50
 62
4
100
AcDbLine
 10
47.832375
 20
-2.249609
 30
0.0
 11
47.635757
 21
-2.141978
 31
0.0
  0
LINE
  5
7CD
330
1F
100
AcDbEntity
  8
1
  6
CONTINUOUS
370
50
 62
4
100
AcDbLine
 10
39.944916
 20
0.202524
 30
0.0
 11
39.555946
 21
0.415138
 31
0.0
  0
LINE
  5
7CE
330
1F
100
AcDbEntity
  8
1
  6
CONTINUOUS
370
50
 62
4
100
AcDbLine
 10
39.462341
 20
-2.198627
 30
0.0
 11
39.318848
 21
-2.120613
 31
0.0
  0
LINE
  5
7CF
330
1F
100
AcDbEntity
  8
1
  6
CONTINUOUS
370
50
 62
4
100
AcDbLine
 10
47.495415
 20
-2.351868
 30
0.0
 11
47.188538
 21
-2.185275
 31
0.0
  0
LINE
  5
7D0
330
1F
100
AcDbEntity
  8
1
  6
CONTINUOUS
370
50
 62
4
100
AcDbLine
 10
37.992813
 20
-2.898582
 30
0.0
 11
37.989388
 21
-2.896727
 31
0.0
  0
LINE
  5
7D1
330
1F
100
AcDbEntity
  8
1
  6
CONTINUOUS
370
50
 62
4
100
AcDbLine
 10
39.555946
 20
0.415138
 30
0.0
 11
39.166965
 21
0.6227849999999999
 31
0.0
  0
LINE
  5
7D2
330
1F
100
AcDbEntity
  8
1
  6
CONTINUOUS
370
50
 62
4
100
AcDbLine
 10
46.689873
 20
0.7634869999999999
 30
0.0
 11
46.34634399999999
 21
0.94499
 31
0.0
  0
LINE
  5
7D3
330
1F
100
AcDbEntity
  8
1
  6
CONTINUOUS
370
50
 62
4
100
AcDbLine
 10
43.156281
 20
0.5787599999999999
 30
0.0
 11
42.812538
 21
0.760126
 31
0.0
  0
LINE
  5
7D4
330
1F
100
AcDbEntity
  8
1
  6
CONTINUOUS
370
50
 62
4
100
AcDbLine
 10
39.166965
 20
0.6227849999999999
 30
0.0
 11
38.777977
 21
0.8263809999999999
 31
0.0
  0
LINE
  5
7D5
330
1F
100
AcDbEntity
  8
1
  6
CONTINUOUS
370
50
 62
4
100
AcDbLine
 10
39.606262
 20
-2.273752
 30
0.0
 11
39.462341
 21
-2.198627
 31
0.0
  0
LINE
  5
7D6
330
1F
100
AcDbEntity
  8
1
  6
CONTINUOUS
370
50
 62
4
100
AcDbLine
 10
49.850739
 20
1.342726
 30
0.0
 11
49.808811
 21
1.364599
 31
0.0
  0
LINE
  5
7D7
330
1F
100
AcDbEntity
  8
1
  6
CONTINUOUS
370
50
 62
4
100
AcDbLine
 10
43.759949
 20
-2.407892
 30
0.0
 11
43.473202
 21
-2.258853
 31
0.0
  0
LINE
  5
7D8
330
1F
100
AcDbEntity
  8
1
  6
CONTINUOUS
370
50
 62
4
100
AcDbLine
 10
41.572834
 20
2.2364
 30
0.0
 11
41.190865
 21
2.434526
 31
0.0
  0
LINE
  5
7D9
330
1F
100
AcDbEntity
  8
1
  6
CONTINUOUS
370
50
 62
4
100
AcDbLine
 10
38.777977
 20
0.8263809999999999
 30
0.0
 11
38.388985
 21
1.02651
 31
0.0
  0
LINE
  5
7DA
330
1F
100
AcDbEntity
  8
1
  6
CONTINUOUS
370
50
 62
4
100
AcDbLine
 10
37.996357
 20
-2.900403
 30
0.0
 11
37.992813
 21
-2.898582
 31
0.0
  0
LINE
  5
7DB
330
1F
100
AcDbEntity
  8
1
  6
CONTINUOUS
370
50
 62
4
100
AcDbLine
 10
49.317047
 20
2.264327
 30
0.0
 11
49.145565
 21
2.352319
 31
0.0
  0
LINE
  5
7DC
330
1F
100
AcDbEntity
  8
1
  6
CONTINUOUS
370
50
 62
4
100
AcDbLine
 10
37.670708
 20
-2.767468
 30
0.0
 11
37.521187
 21
-2.69107
 31
0.0
  0
LINE
  5
7DD
330
1F
100
AcDbEntity
  8
1
  6
CONTINUOUS
370
50
 62
4
100
AcDbLine
 10
48.029678
 20
-2.350232
 30
0.0
 11
47.832375
 21
-2.249609
 31
0.0
  0
LINE
  5
7DE
330
1F
100
AcDbEntity
  8
1
  6
CONTINUOUS
370
50
 62
4
100
AcDbLine
 10
38.065033
 20
2.078837
 30
0.0
 11
38.0
 21
2.111783
 31
0.0
  0
LINE
  5
7DF
330
1F
100
AcDbEntity
  8
1
  6
CONTINUOUS
370
50
 62
4
100
AcDbLine
 10
42.812538
 20
0.760126
 30
0.0
 11
42.468792
 21
0.933377
 31
0.0
  0
LINE
  5
7E0
330
1F
100
AcDbEntity
  8
1
  6
CONTINUOUS
370
50
 62
4
100
AcDbLine
 10
38.388985
 20
1.02651
 30
0.0
 11
38.0
 21
1.222125
 31
0.0
  0
LINE
  5
7E1
330
1F
100
AcDbEntity
  8
1
  6
CONTINUOUS
370
50
 62
4
100
AcDbLine
 10
38.130062
 20
2.046171
 30
0.0
 11
38.065033
 21
2.078837
 31
0.0
  0
LINE
  5
7E2
330
1F
100
AcDbEntity
  8
1
  6
CONTINUOUS
370
50
 62
4
100
AcDbLine
 10
40.494621
 20
-2.443683
 30
0.0
 11
40.101105
 21
-2.246279
 31
0.0
  0
LINE
  5
7E3
330
1F
100
AcDbEntity
  8
1
  6
CONTINUOUS
370
50
 62
4
100
AcDbLine
 10
39.750393
 20
-2.345873
 30
0.0
 11
39.606262
 21
-2.273752
 31
0.0
  0
LINE
  5
7E4
330
1F
100
AcDbEntity
  8
1
  6
CONTINUOUS
370
50
 62
4
100
AcDbLine
 10
46.754845
 20
-0.012892
 30
0.0
 11
46.754807
 21
-0.012873
 31
0.0
  0
LINE
  5
7E5
330
1F
100
AcDbEntity
  8
1
  6
CONTINUOUS
370
50
 62
4
100
AcDbLine
 10
38.195148
 20
2.013758
 30
0.0
 11
38.130062
 21
2.046171
 31
0.0
  0
LINE
  5
7E6
330
1F
100
AcDbEntity
  8
1
  6
CONTINUOUS
370
50
 62
4
100
AcDbLine
 10
49.851707
 20
2.013636
 30
0.0
 11
49.784481
 21
2.047061
 31
0.0
  0
LINE
  5
7E7
330
1F
100
AcDbEntity
  8
1
  6
CONTINUOUS
370
50
 62
4
100
AcDbLine
 10
49.784481
 20
2.047061
 30
0.0
 11
49.71725499999999
 21
2.080296
 31
0.0
  0
LINE
  5
7E8
330
1F
100
AcDbEntity
  8
1
  6
CONTINUOUS
370
50
 62
4
100
AcDbLine
 10
40.832417
 20
2.358735
 30
0.0
 11
40.593151
 21
2.476988
 31
0.0
  0
LINE
  5
7E9
330
1F
100
AcDbEntity
  8
1
  6
CONTINUOUS
370
50
 62
4
100
AcDbLine
 10
38.260235
 20
1.981632
 30
0.0
 11
38.195148
 21
2.013758
 31
0.0
  0
LINE
  5
7EA
330
1F
100
AcDbEntity
  8
1
  6
CONTINUOUS
370
50
 62
4
100
AcDbLine
 10
47.166847
 20
-0.216235
 30
0.0
 11
46.754814
 21
-0.012916
 31
0.0
  0
LINE
  5
7EB
330
1F
100
AcDbEntity
  8
1
  6
CONTINUOUS
370
50
 62
4
100
AcDbLine
 10
41.270531
 20
2.395124
 30
0.0
 11
41.190865
 21
2.434317
 31
0.0
  0
LINE
  5
7EC
330
1F
100
AcDbEntity
  8
1
  6
CONTINUOUS
370
50
 62
4
100
AcDbLine
 10
49.71725499999999
 20
2.080296
 30
0.0
 11
49.649975
 21
2.113364
 31
0.0
  0
LINE
  5
7ED
330
1F
100
AcDbEntity
  8
1
  6
CONTINUOUS
370
50
 62
4
100
AcDbLine
 10
46.34634399999999
 20
0.94499
 30
0.0
 11
46.002811
 21
1.113697
 31
0.0
  0
LINE
  5
7EE
330
1F
100
AcDbEntity
  8
1
  6
CONTINUOUS
370
50
 62
4
100
AcDbLine
 10
45.46114
 20
2.241539
 30
0.0
 11
45.068871
 21
2.434042
 31
0.0
  0
LINE
  5
7EF
330
1F
100
AcDbEntity
  8
1
  6
CONTINUOUS
370
50
 62
4
100
AcDbLine
 10
47.20285
 20
-0.23269
 30
0.0
 11
46.754482
 21
-0.012717
 31
0.0
  0
LINE
  5
7F0
330
1F
100
AcDbEntity
  8
1
  6
CONTINUOUS
370
50
 62
4
100
AcDbLine
 10
38.0
 20
-2.90219
 30
0.0
 11
37.996357
 21
-2.900403
 31
0.0
  0
LINE
  5
7F1
330
1F
100
AcDbEntity
  8
1
  6
CONTINUOUS
370
50
 62
4
100
AcDbLine
 10
44.897095
 20
2.249682
 30
0.0
 11
44.351982
 21
2.516877
 31
0.0
  0
LINE
  5
7F2
330
1F
100
AcDbEntity
  8
1
  6
CONTINUOUS
370
50
 62
4
100
AcDbLine
 10
41.33564
 20
2.363258
 30
0.0
 11
41.270531
 21
2.395124
 31
0.0
  0
LINE
  5
7F3
330
1F
100
AcDbEntity
  8
1
  6
CONTINUOUS
370
50
 62
4
100
AcDbLine
 10
38.325375
 20
1.949767
 30
0.0
 11
38.260235
 21
1.981632
 31
0.0
  0
LINE
  5
7F4
330
1F
100
AcDbEntity
  8
1
  6
CONTINUOUS
370
50
 62
4
100
AcDbLine
 10
49.649975
 20
2.113364
 30
0.0
 11
49.582687
 21
2.146239
 31
0.0
  0
LINE
  5
7F5
330
1F
100
AcDbEntity
  8
1
  6
CONTINUOUS
370
50
 62
4
100
AcDbLine
 10
46.754642
 20
-0.012794
 30
0.0
 11
46.754482
 21
-0.012716
 31
0.0
  0
LINE
  5
7F6
330
1F
100
AcDbEntity
  8
1
  6
CONTINUOUS
370
50
 62
4
100
AcDbLine
 10
41.400742
 20
2.331541
 30
0.0
 11
41.33564
 21
2.363258
 31
0.0
  0
LINE
  5
7F7
330
1F
100
AcDbEntity
  8
1
  6
CONTINUOUS
370
50
 62
4
100
AcDbLine
 10
49.582687
 20
2.146239
 30
0.0
 11
49.515087
 21
2.179072
 31
0.0
  0
LINE
  5
7F8
330
1F
100
AcDbEntity
  8
1
  6
CONTINUOUS
370
50
 62
4
100
AcDbLine
 10
41.465897
 20
2.299951
 30
0.0
 11
41.400742
 21
2.331541
 31
0.0
  0
LINE
  5
7F9
330
1F
100
AcDbEntity
  8
1
  6
CONTINUOUS
370
50
 62
4
100
AcDbLine
 10
38.390511
 20
1.918192
 30
0.0
 11
38.325375
 21
1.949767
 31
0.0
  0
LINE
  5
7FA
330
1F
100
AcDbEntity
  8
1
  6
CONTINUOUS
370
50
 62
4
100
AcDbLine
 10
46.754803
 20
-0.012872
 30
0.0
 11
46.754642
 21
-0.012794
 31
0.0
  0
LINE
  5
7FB
330
1F
100
AcDbEntity
  8
1
  6
CONTINUOUS
370
50
 62
4
100
AcDbLine
 10
38.161728
 20
0.366104
 30
0.0
 11
38.0
 21
0.44433
 31
0.0
  0
LINE
  5
7FC
330
1F
100
AcDbEntity
  8
1
  6
CONTINUOUS
370
50
 62
4
100
AcDbLine
 10
49.515087
 20
2.179072
 30
0.0
 11
49.447487
 21
2.21171
 31
0.0
  0
LINE
  5
7FD
330
1F
100
AcDbEntity
  8
1
  6
CONTINUOUS
370
50
 62
4
100
AcDbLine
 10
42.468792
 20
0.933377
 30
0.0
 11
42.125038
 21
1.09934
 31
0.0
  0
LINE
  5
7FE
330
1F
100
AcDbEntity
  8
1
  6
CONTINUOUS
370
50
 62
4
100
AcDbLine
 10
41.531048
 20
2.268515
 30
0.0
 11
41.465897
 21
2.299951
 31
0.0
  0
LINE
  5
7FF
330
1F
100
AcDbEntity
  8
1
  6
CONTINUOUS
370
50
 62
4
100
AcDbLine
 10
38.4557
 20
1.886882
 30
0.0
 11
38.390511
 21
1.918192
 31
0.0
  0
LINE
  5
800
330
1F
100
AcDbEntity
  8
1
  6
CONTINUOUS
370
50
 62
4
100
AcDbLine
 10
41.596241
 20
2.237213
 30
0.0
 11
41.531048
 21
2.268515
 31
0.0
  0
LINE
  5
801
330
1F
100
AcDbEntity
  8
1
  6
CONTINUOUS
370
50
 62
4
100
AcDbLine
 10
49.447487
 20
2.21171
 30
0.0
 11
49.38829
 21
2.240129
 31
0.0
  0
LINE
  5
802
330
1F
100
AcDbEntity
  8
1
  6
CONTINUOUS
370
50
 62
4
100
AcDbLine
 10
49.145565
 20
2.352319
 30
0.0
 11
48.973614
 21
2.434798
 31
0.0
  0
LINE
  5
803
330
1F
100
AcDbEntity
  8
1
  6
CONTINUOUS
370
50
 62
4
100
AcDbLine
 10
38.323437
 20
0.288544
 30
0.0
 11
38.161728
 21
0.366104
 31
0.0
  0
LINE
  5
804
330
1F
100
AcDbEntity
  8
1
  6
CONTINUOUS
370
50
 62
4
100
AcDbLine
 10
44.039623
 20
-2.542008
 30
0.0
 11
43.759949
 21
-2.407892
 31
0.0
  0
LINE
  5
805
330
1F
100
AcDbEntity
  8
1
  6
CONTINUOUS
370
50
 62
4
100
AcDbLine
 10
39.89452
 20
-2.41488
 30
0.0
 11
39.750393
 21
-2.345873
 31
0.0
  0
LINE
  5
806
330
1F
100
AcDbEntity
  8
1
  6
CONTINUOUS
370
50
 62
4
100
AcDbLine
 10
41.661438
 20
2.206065
 30
0.0
 11
41.596241
 21
2.237213
 31
0.0
  0
LINE
  5
807
330
1F
100
AcDbEntity
  8
1
  6
CONTINUOUS
370
50
 62
4
100
AcDbLine
 10
49.38829
 20
2.240129
 30
0.0
 11
49.329094
 21
2.2684
 31
0.0
  0
LINE
  5
808
330
1F
100
AcDbEntity
  8
1
  6
CONTINUOUS
370
50
 62
4
100
AcDbLine
 10
44.64333
 20
-2.579168
 30
0.0
 11
44.094414
 21
-2.317258
 31
0.0
  0
LINE
  5
809
330
1F
100
AcDbEntity
  8
1
  6
CONTINUOUS
370
50
 62
4
100
AcDbLine
 10
46.754814
 20
-0.012916
 30
0.0
 11
46.334122
 21
0.187665
 31
0.0
  0
LINE
  5
80A
330
1F
100
AcDbEntity
  8
1
  6
CONTINUOUS
370
50
 62
4
100
AcDbLine
 10
38.970455
 20
-0.014798
 30
0.0
 11
38.970413
 21
-0.014778
 31
0.0
  0
LINE
  5
80B
330
1F
100
AcDbEntity
  8
1
  6
CONTINUOUS
370
50
 62
4
100
AcDbLine
 10
38.970329
 20
-0.01474
 30
0.0
 11
38.970287
 21
-0.01472
 31
0.0
  0
LINE
  5
80C
330
1F
100
AcDbEntity
  8
1
  6
CONTINUOUS
370
50
 62
4
100
AcDbLine
 10
46.754845
 20
-0.012892
 30
0.0
 11
46.754803
 21
-0.012872
 31
0.0
  0
LINE
  5
80D
330
1F
100
AcDbEntity
  8
1
  6
CONTINUOUS
370
50
 62
4
100
AcDbLine
 10
38.520885
 20
1.855862
 30
0.0
 11
38.4557
 21
1.886882
 31
0.0
  0
LINE
  5
80E
330
1F
100
AcDbEntity
  8
1
  6
CONTINUOUS
370
50
 62
4
100
AcDbLine
 10
38.48513
 20
0.211668
 30
0.0
 11
38.323437
 21
0.288544
 31
0.0
  0
LINE
  5
80F
330
1F
100
AcDbEntity
  8
1
  6
CONTINUOUS
370
50
 62
4
100
AcDbLine
 10
41.726669
 20
2.175053
 30
0.0
 11
41.661438
 21
2.206065
 31
0.0
  0
LINE
  5
810
330
1F
100
AcDbEntity
  8
1
  6
CONTINUOUS
370
50
 62
4
100
AcDbLine
 10
49.329094
 20
2.2684
 30
0.0
 11
49.26987099999999
 21
2.296539
 31
0.0
  0
LINE
  5
811
330
1F
100
AcDbEntity
  8
1
  6
CONTINUOUS
370
50
 62
4
100
AcDbLine
 10
48.227188
 20
-2.443779
 30
0.0
 11
48.029678
 21
-2.350232
 31
0.0
  0
LINE
  5
812
330
1F
100
AcDbEntity
  8
1
  6
CONTINUOUS
370
50
 62
4
100
AcDbLine
 10
47.57877
 20
-0.411185
 30
0.0
 11
47.166847
 21
-0.216235
 31
0.0
  0
LINE
  5
813
330
1F
100
AcDbEntity
  8
1
  6
CONTINUOUS
370
50
 62
4
100
AcDbLine
 10
41.791904
 20
2.144193
 30
0.0
 11
41.726669
 21
2.175053
 31
0.0
  0
LINE
  5
814
330
1F
100
AcDbEntity
  8
1
  6
CONTINUOUS
370
50
 62
4
100
AcDbLine
 10
49.26987099999999
 20
2.296539
 30
0.0
 11
49.210651
 21
2.324534
 31
0.0
  0
LINE
  5
815
330
1F
100
AcDbEntity
  8
1
  6
CONTINUOUS
370
50
 62
4
100
AcDbLine
 10
46.999146
 20
1.536116
 30
0.0
 11
46.909866
 21
1.578316
 31
0.0
  0
LINE
  5
816
330
1F
100
AcDbEntity
  8
1
  6
CONTINUOUS
370
50
 62
4
100
AcDbLine
 10
44.107471
 20
-0.5887009999999999
 30
0.0
 11
43.69651
 21
-0.394479
 31
0.0
  0
LINE
  5
817
330
1F
100
AcDbEntity
  8
1
  6
CONTINUOUS
370
50
 62
4
100
AcDbLine
 10
46.909866
 20
1.578316
 30
0.0
 11
46.815926
 21
1.62267
 31
0.0
  0
LINE
  5
818
330
1F
100
AcDbEntity
  8
1
  6
CONTINUOUS
370
50
 62
4
100
AcDbLine
 10
48.937466
 20
-0.732151
 30
0.0
 11
48.91497
 21
-0.72154
 31
0.0
  0
LINE
  5
819
330
1F
100
AcDbEntity
  8
1
  6
CONTINUOUS
370
50
 62
4
100
AcDbLine
 10
46.815926
 20
1.62267
 30
0.0
 11
46.721977
 21
1.666959
 31
0.0
  0
LINE
  5
81A
330
1F
100
AcDbEntity
  8
1
  6
CONTINUOUS
370
50
 62
4
100
AcDbLine
 10
38.59196499999999
 20
1.822363
 30
0.0
 11
38.520885
 21
1.855862
 31
0.0
  0
LINE
  5
81B
330
1F
100
AcDbEntity
  8
1
  6
CONTINUOUS
370
50
 62
4
100
AcDbLine
 10
38.64682
 20
0.135497
 30
0.0
 11
38.48513
 21
0.211668
 31
0.0
  0
LINE
  5
81C
330
1F
100
AcDbEntity
  8
1
  6
CONTINUOUS
370
50
 62
4
100
AcDbLine
 10
46.721977
 20
1.666959
 30
0.0
 11
46.671036
 21
1.69094
 31
0.0
  0
LINE
  5
81D
330
1F
100
AcDbEntity
  8
1
  6
CONTINUOUS
370
50
 62
4
100
AcDbLine
 10
41.862965
 20
2.110749
 30
0.0
 11
41.791904
 21
2.144193
 31
0.0
  0
LINE
  5
81E
330
1F
100
AcDbEntity
  8
1
  6
CONTINUOUS
370
50
 62
4
100
AcDbLine
 10
49.210651
 20
2.324534
 30
0.0
 11
49.15139
 21
2.352405
 31
0.0
  0
LINE
  5
81F
330
1F
100
AcDbEntity
  8
1
  6
CONTINUOUS
370
50
 62
4
100
AcDbLine
 10
46.671036
 20
1.69094
 30
0.0
 11
46.62009399999999
 21
1.714896
 31
0.0
  0
LINE
  5
820
330
1F
100
AcDbEntity
  8
1
  6
CONTINUOUS
370
50
 62
4
100
AcDbLine
 10
46.62009399999999
 20
1.714896
 30
0.0
 11
46.569122
 21
1.73884
 31
0.0
  0
LINE
  5
821
330
1F
100
AcDbEntity
  8
1
  6
CONTINUOUS
370
50
 62
4
100
AcDbLine
 10
49.715462
 20
0.578784
 30
0.0
 11
49.600708
 21
0.632672
 31
0.0
  0
LINE
  5
822
330
1F
100
AcDbEntity
  8
1
  6
CONTINUOUS
370
50
 62
4
100
AcDbLine
 10
48.959965
 20
-0.7427119999999999
 30
0.0
 11
48.937466
 21
-0.732151
 31
0.0
  0
LINE
  5
823
330
1F
100
AcDbEntity
  8
1
  6
CONTINUOUS
370
50
 62
4
100
AcDbLine
 10
46.569122
 20
1.73884
 30
0.0
 11
46.51815
 21
1.762757
 31
0.0
  0
LINE
  5
824
330
1F
100
AcDbEntity
  8
1
  6
CONTINUOUS
370
50
 62
4
100
AcDbLine
 10
46.51815
 20
1.762757
 30
0.0
 11
46.46714
 21
1.786661
 31
0.0
  0
LINE
  5
825
330
1F
100
AcDbEntity
  8
1
  6
CONTINUOUS
370
50
 62
4
100
AcDbLine
 10
41.934025
 20
2.077481
 30
0.0
 11
41.862965
 21
2.110749
 31
0.0
  0
LINE
  5
826
330
1F
100
AcDbEntity
  8
1
  6
CONTINUOUS
370
50
 62
4
100
AcDbLine
 10
46.46714
 20
1.786661
 30
0.0
 11
46.416134
 21
1.810536
 31
0.0
  0
LINE
  5
827
330
1F
100
AcDbEntity
  8
1
  6
CONTINUOUS
370
50
 62
4
100
AcDbLine
 10
47.088417
 20
1.49433
 30
0.0
 11
46.999146
 21
1.536116
 31
0.0
  0
LINE
  5
828
330
1F
100
AcDbEntity
  8
1
  6
CONTINUOUS
370
50
 62
4
100
AcDbLine
 10
49.15139
 20
2.352405
 30
0.0
 11
49.092129
 21
2.380135
 31
0.0
  0
LINE
  5
829
330
1F
100
AcDbEntity
  8
1
  6
CONTINUOUS
370
50
 62
4
100
AcDbLine
 10
37.156368
 20
2.713578
 30
0.0
 11
36.983337
 21
2.794493
 31
0.0
  0
LINE
  5
82A
330
1F
100
AcDbEntity
  8
1
  6
CONTINUOUS
370
50
 62
4
100
AcDbLine
 10
43.69651
 20
-0.394479
 30
0.0
 11
43.285469
 21
-0.202275
 31
0.0
  0
LINE
  5
82B
330
1F
100
AcDbEntity
  8
1
  6
CONTINUOUS
370
50
 62
4
100
AcDbLine
 10
46.416134
 20
1.810536
 30
0.0
 11
46.36512399999999
 21
1.834383
 31
0.0
  0
LINE
  5
82C
330
1F
100
AcDbEntity
  8
1
  6
CONTINUOUS
370
50
 62
4
100
AcDbLine
 10
47.880314
 20
-2.531773
 30
0.0
 11
47.495415
 21
-2.351868
 31
0.0
  0
LINE
  5
82D
330
1F
100
AcDbEntity
  8
1
  6
CONTINUOUS
370
50
 62
4
100
AcDbLine
 10
44.252018
 20
-0.651845
 30
0.0
 11
43.792236
 21
-0.43708
 31
0.0
  0
LINE
  5
82E
330
1F
100
AcDbEntity
  8
1
  6
CONTINUOUS
370
50
 62
4
100
AcDbLine
 10
48.982475
 20
-0.753224
 30
0.0
 11
48.959965
 21
-0.7427119999999999
 31
0.0
  0
LINE
  5
82F
330
1F
100
AcDbEntity
  8
1
  6
CONTINUOUS
370
50
 62
4
100
AcDbLine
 10
46.36512399999999
 20
1.834383
 30
0.0
 11
46.314117
 21
1.8582
 31
0.0
  0
LINE
  5
830
330
1F
100
AcDbEntity
  8
1
  6
CONTINUOUS
370
50
 62
4
100
AcDbLine
 10
38.808514
 20
0.06005
 30
0.0
 11
38.64682
 21
0.135497
 31
0.0
  0
LINE
  5
831
330
1F
100
AcDbEntity
  8
1
  6
CONTINUOUS
370
50
 62
4
100
AcDbLine
 10
43.792236
 20
-0.43708
 30
0.0
 11
43.33479699999999
 21
-0.223666
 31
0.0
  0
LINE
  5
832
330
1F
100
AcDbEntity
  8
1
  6
CONTINUOUS
370
50
 62
4
100
AcDbLine
 10
38.663044
 20
1.789204
 30
0.0
 11
38.59196499999999
 21
1.822363
 31
0.0
  0
LINE
  5
833
330
1F
100
AcDbEntity
  8
1
  6
CONTINUOUS
370
50
 62
4
100
AcDbLine
 10
46.314117
 20
1.8582
 30
0.0
 11
46.245411
 21
1.890236
 31
0.0
  0
LINE
  5
834
330
1F
100
AcDbEntity
  8
1
  6
CONTINUOUS
370
50
 62
4
100
AcDbLine
 10
47.686073
 20
-0.45777
 30
0.0
 11
47.20285
 21
-0.23269
 31
0.0
  0
LINE
  5
835
330
1F
100
AcDbEntity
  8
1
  6
CONTINUOUS
370
50
 62
4
100
AcDbLine
 10
42.005119
 20
2.044372
 30
0.0
 11
41.934025
 21
2.077481
 31
0.0
  0
LINE
  5
836
330
1F
100
AcDbEntity
  8
1
  6
CONTINUOUS
370
50
 62
4
100
AcDbLine
 10
49.092129
 20
2.380135
 30
0.0
 11
49.032867
 21
2.407729
 31
0.0
  0
LINE
  5
837
330
1F
100
AcDbEntity
  8
1
  6
CONTINUOUS
370
50
 62
4
100
AcDbLine
 10
46.245411
 20
1.890236
 30
0.0
 11
46.176708
 21
1.922221
 31
0.0
  0
LINE
  5
838
330
1F
100
AcDbEntity
  8
1
  6
CONTINUOUS
370
50
 62
4
100
AcDbLine
 10
49.600708
 20
0.632672
 30
0.0
 11
49.48605
 21
0.685998
 31
0.0
  0
LINE
  5
839
330
1F
100
AcDbEntity
  8
1
  6
CONTINUOUS
370
50
 62
4
100
AcDbLine
 10
46.176708
 20
1.922221
 30
0.0
 11
46.116405
 21
1.950255
 31
0.0
  0
LINE
  5
83A
330
1F
100
AcDbEntity
  8
1
  6
CONTINUOUS
370
50
 62
4
100
AcDbLine
 10
49.004993
 20
-0.763687
 30
0.0
 11
48.982475
 21
-0.753224
 31
0.0
  0
LINE
  5
83B
330
1F
100
AcDbEntity
  8
1
  6
CONTINUOUS
370
50
 62
4
100
AcDbLine
 10
46.116405
 20
1.950255
 30
0.0
 11
46.056103
 21
1.978254
 31
0.0
  0
LINE
  5
83C
330
1F
100
AcDbEntity
  8
1
  6
CONTINUOUS
370
50
 62
4
100
AcDbLine
 10
49.744537
 20
0.401405
 30
0.0
 11
49.472103
 21
0.527751
 31
0.0
  0
LINE
  5
83D
330
1F
100
AcDbEntity
  8
1
  6
CONTINUOUS
370
50
 62
4
100
AcDbLine
 10
46.056103
 20
1.978254
 30
0.0
 11
45.9958
 21
2.006219
 31
0.0
  0
LINE
  5
83E
330
1F
100
AcDbEntity
  8
1
  6
CONTINUOUS
370
50
 62
4
100
AcDbLine
 10
49.032867
 20
2.407729
 30
0.0
 11
48.97361
 21
2.435188
 31
0.0
  0
LINE
  5
83F
330
1F
100
AcDbEntity
  8
1
  6
CONTINUOUS
370
50
 62
4
100
AcDbLine
 10
42.076214
 20
2.011432
 30
0.0
 11
42.005119
 21
2.044372
 31
0.0
  0
LINE
  5
840
330
1F
100
AcDbEntity
  8
1
  6
CONTINUOUS
370
50
 62
4
100
AcDbLine
 10
45.9958
 20
2.006219
 30
0.0
 11
45.935501
 21
2.034152
 31
0.0
  0
LINE
  5
841
330
1F
100
AcDbEntity
  8
1
  6
CONTINUOUS
370
50
 62
4
100
AcDbLine
 10
42.125038
 20
1.09934
 30
0.0
 11
41.781277
 21
1.258568
 31
0.0
  0
LINE
  5
842
330
1F
100
AcDbEntity
  8
1
  6
CONTINUOUS
370
50
 62
4
100
AcDbLine
 10
45.935501
 20
2.034152
 30
0.0
 11
45.875172
 21
2.062072
 31
0.0
  0
LINE
  5
843
330
1F
100
AcDbEntity
  8
1
  6
CONTINUOUS
370
50
 62
4
100
AcDbLine
 10
45.875172
 20
2.062072
 30
0.0
 11
45.81483799999999
 21
2.089966
 31
0.0
  0
LINE
  5
844
330
1F
100
AcDbEntity
  8
1
  6
CONTINUOUS
370
50
 62
4
100
AcDbLine
 10
49.027519
 20
-0.7741009999999999
 30
0.0
 11
49.004993
 21
-0.763687
 31
0.0
  0
LINE
  5
845
330
1F
100
AcDbEntity
  8
1
  6
CONTINUOUS
370
50
 62
4
100
AcDbLine
 10
38.97020699999999
 20
-0.014686
 30
0.0
 11
38.808514
 21
0.06005
 31
0.0
  0
LINE
  5
846
330
1F
100
AcDbEntity
  8
1
  6
CONTINUOUS
370
50
 62
4
100
AcDbLine
 10
45.81483799999999
 20
2.089966
 30
0.0
 11
45.754509
 21
2.117837
 31
0.0
  0
LINE
  5
847
330
1F
100
AcDbEntity
  8
1
  6
CONTINUOUS
370
50
 62
4
100
AcDbLine
 10
38.734169
 20
1.75636
 30
0.0
 11
38.663044
 21
1.789204
 31
0.0
  0
LINE
  5
848
330
1F
100
AcDbEntity
  8
1
  6
CONTINUOUS
370
50
 62
4
100
AcDbLine
 10
45.754509
 20
2.117837
 30
0.0
 11
45.694183
 21
2.145687
 31
0.0
  0
LINE
  5
849
330
1F
100
AcDbEntity
  8
1
  6
CONTINUOUS
370
50
 62
4
100
AcDbLine
 10
45.694183
 20
2.145687
 30
0.0
 11
45.631504
 21
2.174605
 31
0.0
  0
LINE
  5
84A
330
1F
100
AcDbEntity
  8
1
  6
CONTINUOUS
370
50
 62
4
100
AcDbLine
 10
45.139191
 20
2.401504
 30
0.0
 11
45.068871
 21
2.433931
 31
0.0
  0
LINE
  5
84B
330
1F
100
AcDbEntity
  8
1
  6
CONTINUOUS
370
50
 62
4
100
AcDbLine
 10
45.631504
 20
2.174605
 30
0.0
 11
45.561165
 21
2.20704
 31
0.0
  0
LINE
  5
84C
330
1F
100
AcDbEntity
  8
1
  6
CONTINUOUS
370
50
 62
4
100
AcDbLine
 10
42.147343
 20
1.97864
 30
0.0
 11
42.076214
 21
2.011432
 31
0.0
  0
LINE
  5
84D
330
1F
100
AcDbEntity
  8
1
  6
CONTINUOUS
370
50
 62
4
100
AcDbLine
 10
45.209511
 20
2.369089
 30
0.0
 11
45.139191
 21
2.401504
 31
0.0
  0
LINE
  5
84E
330
1F
100
AcDbEntity
  8
1
  6
CONTINUOUS
370
50
 62
4
100
AcDbLine
 10
45.561165
 20
2.20704
 30
0.0
 11
45.490826
 21
2.239462
 31
0.0
  0
LINE
  5
84F
330
1F
100
AcDbEntity
  8
1
  6
CONTINUOUS
370
50
 62
4
100
AcDbLine
 10
45.279831
 20
2.336684
 30
0.0
 11
45.209511
 21
2.369089
 31
0.0
  0
LINE
  5
850
330
1F
100
AcDbEntity
  8
1
  6
CONTINUOUS
370
50
 62
4
100
AcDbLine
 10
45.490826
 20
2.239462
 30
0.0
 11
45.420486
 21
2.271874
 31
0.0
  0
LINE
  5
851
330
1F
100
AcDbEntity
  8
1
  6
CONTINUOUS
370
50
 62
4
100
AcDbLine
 10
45.350147
 20
2.304283
 30
0.0
 11
45.279831
 21
2.336684
 31
0.0
  0
LINE
  5
852
330
1F
100
AcDbEntity
  8
1
  6
CONTINUOUS
370
50
 62
4
100
AcDbLine
 10
45.420486
 20
2.271874
 30
0.0
 11
45.350147
 21
2.304283
 31
0.0
  0
LINE
  5
853
330
1F
100
AcDbEntity
  8
1
  6
CONTINUOUS
370
50
 62
4
100
AcDbLine
 10
41.190865
 20
2.434526
 30
0.0
 11
40.823093
 21
2.603936
 31
0.0
  0
LINE
  5
854
330
1F
100
AcDbEntity
  8
1
  6
CONTINUOUS
370
50
 62
4
100
AcDbLine
 10
43.285469
 20
-0.202275
 30
0.0
 11
42.874435
 21
-0.012943
 31
0.0
  0
LINE
  5
855
330
1F
100
AcDbEntity
  8
1
  6
CONTINUOUS
370
50
 62
4
100
AcDbLine
 10
49.48605
 20
0.685998
 30
0.0
 11
49.371506
 21
0.7387509999999999
 31
0.0
  0
LINE
  5
856
330
1F
100
AcDbEntity
  8
1
  6
CONTINUOUS
370
50
 62
4
100
AcDbLine
 10
49.050053
 20
-0.7844669999999999
 30
0.0
 11
49.027519
 21
-0.7741009999999999
 31
0.0
  0
LINE
  5
857
330
1F
100
AcDbEntity
  8
1
  6
CONTINUOUS
370
50
 62
4
100
AcDbLine
 10
42.218475
 20
1.946008
 30
0.0
 11
42.147343
 21
1.97864
 31
0.0
  0
LINE
  5
858
330
1F
100
AcDbEntity
  8
1
  6
CONTINUOUS
370
50
 62
4
100
AcDbLine
 10
47.177753
 20
1.453392
 30
0.0
 11
47.088417
 21
1.49433
 31
0.0
  0
LINE
  5
859
330
1F
100
AcDbEntity
  8
1
  6
CONTINUOUS
370
50
 62
4
100
AcDbLine
 10
43.33479699999999
 20
-0.223666
 30
0.0
 11
42.874432
 21
-0.012961
 31
0.0
  0
LINE
  5
85A
330
1F
100
AcDbEntity
  8
1
  6
CONTINUOUS
370
50
 62
4
100
AcDbLine
 10
38.805294
 20
1.723849
 30
0.0
 11
38.734169
 21
1.75636
 31
0.0
  0
LINE
  5
85B
330
1F
100
AcDbEntity
  8
1
  6
CONTINUOUS
370
50
 62
4
100
AcDbLine
 10
40.038433
 20
-2.480662
 30
0.0
 11
39.89452
 21
-2.41488
 31
0.0
  0
LINE
  5
85C
330
1F
100
AcDbEntity
  8
1
  6
CONTINUOUS
370
50
 62
4
100
AcDbLine
 10
42.289608
 20
1.913532
 30
0.0
 11
42.218475
 21
1.946008
 31
0.0
  0
LINE
  5
85D
330
1F
100
AcDbEntity
  8
1
  6
CONTINUOUS
370
50
 62
4
100
AcDbLine
 10
46.002811
 20
1.113697
 30
0.0
 11
45.659275
 21
1.270443
 31
0.0
  0
LINE
  5
85E
330
1F
100
AcDbEntity
  8
1
  6
CONTINUOUS
370
50
 62
4
100
AcDbLine
 10
49.371506
 20
0.7387509999999999
 30
0.0
 11
49.257122
 21
0.7909149999999999
 31
0.0
  0
LINE
  5
85F
330
1F
100
AcDbEntity
  8
1
  6
CONTINUOUS
370
50
 62
4
100
AcDbLine
 10
46.334122
 20
0.187665
 30
0.0
 11
45.91343699999999
 21
0.379413
 31
0.0
  0
LINE
  5
860
330
1F
100
AcDbEntity
  8
1
  6
CONTINUOUS
370
50
 62
4
100
AcDbLine
 10
39.379627
 20
-0.201143
 30
0.0
 11
38.97020699999999
 21
-0.014686
 31
0.0
  0
LINE
  5
861
330
1F
100
AcDbEntity
  8
1
  6
CONTINUOUS
370
50
 62
4
100
AcDbLine
 10
42.360741
 20
1.881205
 30
0.0
 11
42.289608
 21
1.913532
 31
0.0
  0
LINE
  5
862
330
1F
100
AcDbEntity
  8
1
  6
CONTINUOUS
370
50
 62
4
100
AcDbLine
 10
39.35921099999999
 20
-0.190369
 30
0.0
 11
38.970547
 21
-0.01387
 31
0.0
  0
LINE
  5
863
330
1F
100
AcDbEntity
  8
1
  6
CONTINUOUS
370
50
 62
4
100
AcDbLine
 10
42.874435
 20
-0.012943
 30
0.0
 11
42.458462
 21
0.175803
 31
0.0
  0
LINE
  5
864
330
1F
100
AcDbEntity
  8
1
  6
CONTINUOUS
370
50
 62
4
100
AcDbLine
 10
42.414627
 20
1.856815
 30
0.0
 11
42.360741
 21
1.881205
 31
0.0
  0
LINE
  5
865
330
1F
100
AcDbEntity
  8
1
  6
CONTINUOUS
370
50
 62
4
100
AcDbLine
 10
38.87645699999999
 20
1.691648
 30
0.0
 11
38.805294
 21
1.723849
 31
0.0
  0
LINE
  5
866
330
1F
100
AcDbEntity
  8
1
  6
CONTINUOUS
370
50
 62
4
100
AcDbLine
 10
38.970413
 20
-0.014778
 30
0.0
 11
38.970329
 21
-0.01474
 31
0.0
  0
LINE
  5
867
330
1F
100
AcDbEntity
  8
1
  6
CONTINUOUS
370
50
 62
4
100
AcDbLine
 10
38.970287
 20
-0.01472
 30
0.0
 11
38.970203
 21
-0.014682
 31
0.0
  0
LINE
  5
868
330
1F
100
AcDbEntity
  8
1
  6
CONTINUOUS
370
50
 62
4
100
AcDbLine
 10
49.257122
 20
0.7909149999999999
 30
0.0
 11
49.14291
 21
0.8424849999999999
 31
0.0
  0
LINE
  5
869
330
1F
100
AcDbEntity
  8
1
  6
CONTINUOUS
370
50
 62
4
100
AcDbLine
 10
42.476032
 20
1.829118
 30
0.0
 11
42.414627
 21
1.856815
 31
0.0
  0
LINE
  5
86A
330
1F
100
AcDbEntity
  8
1
  6
CONTINUOUS
370
50
 62
4
100
AcDbLine
 10
48.973614
 20
2.434798
 30
0.0
 11
48.830864
 21
2.498996
 31
0.0
  0
LINE
  5
86B
330
1F
100
AcDbEntity
  8
1
  6
CONTINUOUS
370
50
 62
4
100
AcDbLine
 10
42.537437
 20
1.801521
 30
0.0
 11
42.476032
 21
1.829118
 31
0.0
  0
LINE
  5
86C
330
1F
100
AcDbEntity
  8
1
  6
CONTINUOUS
370
50
 62
4
100
AcDbLine
 10
42.458462
 20
0.175803
 30
0.0
 11
42.042564
 21
0.362526
 31
0.0
  0
LINE
  5
86D
330
1F
100
AcDbEntity
  8
1
  6
CONTINUOUS
370
50
 62
4
100
AcDbLine
 10
47.267139
 20
1.413306
 30
0.0
 11
47.177753
 21
1.453392
 31
0.0
  0
LINE
  5
86E
330
1F
100
AcDbEntity
  8
1
  6
CONTINUOUS
370
50
 62
4
100
AcDbLine
 10
40.875713
 20
-2.614491
 30
0.0
 11
40.494621
 21
-2.443683
 31
0.0
  0
LINE
  5
86F
330
1F
100
AcDbEntity
  8
1
  6
CONTINUOUS
370
50
 62
4
100
AcDbLine
 10
38.94762
 20
1.65977
 30
0.0
 11
38.87645699999999
 21
1.691648
 31
0.0
  0
LINE
  5
870
330
1F
100
AcDbEntity
  8
1
  6
CONTINUOUS
370
50
 62
4
100
AcDbLine
 10
42.59884599999999
 20
1.774023
 30
0.0
 11
42.537437
 21
1.801521
 31
0.0
  0
LINE
  5
871
330
1F
100
AcDbEntity
  8
1
  6
CONTINUOUS
370
50
 62
4
100
AcDbLine
 10
39.789127
 20
-0.38445
 30
0.0
 11
39.379627
 21
-0.201143
 31
0.0
  0
LINE
  5
872
330
1F
100
AcDbEntity
  8
1
  6
CONTINUOUS
370
50
 62
4
100
AcDbLine
 10
49.14291
 20
0.8424849999999999
 30
0.0
 11
49.02887
 21
0.893465
 31
0.0
  0
LINE
  5
873
330
1F
100
AcDbEntity
  8
1
  6
CONTINUOUS
370
50
 62
4
100
AcDbLine
 10
42.042564
 20
0.362526
 30
0.0
 11
41.626728
 21
0.5483279999999999
 31
0.0
  0
LINE
  5
874
330
1F
100
AcDbEntity
  8
1
  6
CONTINUOUS
370
50
 62
4
100
AcDbLine
 10
39.724457
 20
-0.353565
 30
0.0
 11
39.35921099999999
 21
-0.190369
 31
0.0
  0
LINE
  5
875
330
1F
100
AcDbEntity
  8
1
  6
CONTINUOUS
370
50
 62
4
100
AcDbLine
 10
42.660255
 20
1.746618
 30
0.0
 11
42.59884599999999
 21
1.774023
 31
0.0
  0
LINE
  5
876
330
1F
100
AcDbEntity
  8
1
  6
CONTINUOUS
370
50
 62
4
100
AcDbLine
 10
41.626728
 20
0.5483279999999999
 30
0.0
 11
41.210892
 21
0.7335999999999999
 31
0.0
  0
LINE
  5
877
330
1F
100
AcDbEntity
  8
1
  6
CONTINUOUS
370
50
 62
4
100
AcDbLine
 10
47.990681
 20
-0.5946509999999999
 30
0.0
 11
47.57877
 21
-0.411185
 31
0.0
  0
LINE
  5
878
330
1F
100
AcDbEntity
  8
1
  6
CONTINUOUS
370
50
 62
4
100
AcDbLine
 10
44.518314
 20
-0.7715219999999999
 30
0.0
 11
44.107471
 21
-0.5887009999999999
 31
0.0
  0
LINE
  5
879
330
1F
100
AcDbEntity
  8
1
  6
CONTINUOUS
370
50
 62
4
100
AcDbLine
 10
42.721664
 20
1.719303
 30
0.0
 11
42.660255
 21
1.746618
 31
0.0
  0
LINE
  5
87A
330
1F
100
AcDbEntity
  8
1
  6
CONTINUOUS
370
50
 62
4
100
AcDbLine
 10
39.018818
 20
1.628196
 30
0.0
 11
38.94762
 21
1.65977
 31
0.0
  0
LINE
  5
87B
330
1F
100
AcDbEntity
  8
1
  6
CONTINUOUS
370
50
 62
4
100
AcDbLine
 10
42.783077
 20
1.692077
 30
0.0
 11
42.721664
 21
1.719303
 31
0.0
  0
LINE
  5
87C
330
1F
100
AcDbEntity
  8
1
  6
CONTINUOUS
370
50
 62
4
100
AcDbLine
 10
49.02887
 20
0.893465
 30
0.0
 11
48.91497
 21
0.9438679999999999
 31
0.0
  0
LINE
  5
87D
330
1F
100
AcDbEntity
  8
1
  6
CONTINUOUS
370
50
 62
4
100
AcDbLine
 10
41.781277
 20
1.258568
 30
0.0
 11
41.437511
 21
1.410515
 31
0.0
  0
LINE
  5
87E
330
1F
100
AcDbEntity
  8
1
  6
CONTINUOUS
370
50
 62
4
100
AcDbLine
 10
49.472103
 20
0.527751
 30
0.0
 11
49.19965699999999
 21
0.6481629999999999
 31
0.0
  0
LINE
  5
87F
330
1F
100
AcDbEntity
  8
1
  6
CONTINUOUS
370
50
 62
4
100
AcDbLine
 10
42.844494
 20
1.664935
 30
0.0
 11
42.783077
 21
1.692077
 31
0.0
  0
LINE
  5
880
330
1F
100
AcDbEntity
  8
1
  6
CONTINUOUS
370
50
 62
4
100
AcDbLine
 10
40.1987
 20
-0.565352
 30
0.0
 11
39.789127
 21
-0.38445
 31
0.0
  0
LINE
  5
881
330
1F
100
AcDbEntity
  8
1
  6
CONTINUOUS
370
50
 62
4
100
AcDbLine
 10
49.886745
 20
1.326851
 30
0.0
 11
49.850739
 21
1.342726
 31
0.0
  0
LINE
  5
882
330
1F
100
AcDbEntity
  8
1
  6
CONTINUOUS
370
50
 62
4
100
AcDbLine
 10
40.06115
 20
-0.501946
 30
0.0
 11
39.724457
 21
-0.353565
 31
0.0
  0
LINE
  5
883
330
1F
100
AcDbEntity
  8
1
  6
CONTINUOUS
370
50
 62
4
100
AcDbLine
 10
42.905907
 20
1.637875
 30
0.0
 11
42.844494
 21
1.664935
 31
0.0
  0
LINE
  5
884
330
1F
100
AcDbEntity
  8
1
  6
CONTINUOUS
370
50
 62
4
100
AcDbLine
 10
47.324448
 20
1.388063
 30
0.0
 11
47.267139
 21
1.413306
 31
0.0
  0
LINE
  5
885
330
1F
100
AcDbEntity
  8
1
  6
CONTINUOUS
370
50
 62
4
100
AcDbLine
 10
42.972771
 20
1.608506
 30
0.0
 11
42.905907
 21
1.637875
 31
0.0
  0
LINE
  5
886
330
1F
100
AcDbEntity
  8
1
  6
CONTINUOUS
370
50
 62
4
100
AcDbLine
 10
39.090015
 20
1.596934
 30
0.0
 11
39.018818
 21
1.628196
 31
0.0
  0
LINE
  5
887
330
1F
100
AcDbEntity
  8
1
  6
CONTINUOUS
370
50
 62
4
100
AcDbLine
 10
40.593151
 20
2.476988
 30
0.0
 11
40.351463
 21
2.582984
 31
0.0
  0
LINE
  5
888
330
1F
100
AcDbEntity
  8
1
  6
CONTINUOUS
370
50
 62
4
100
AcDbLine
 10
48.424442
 20
-2.530186
 30
0.0
 11
48.227188
 21
-2.443779
 31
0.0
  0
LINE
  5
889
330
1F
100
AcDbEntity
  8
1
  6
CONTINUOUS
370
50
 62
4
100
AcDbLine
 10
43.039631
 20
1.57923
 30
0.0
 11
42.972771
 21
1.608506
 31
0.0
  0
LINE
  5
88A
330
1F
100
AcDbEntity
  8
1
  6
CONTINUOUS
370
50
 62
4
100
AcDbLine
 10
45.91343699999999
 20
0.379413
 30
0.0
 11
45.492817
 21
0.563196
 31
0.0
  0
LINE
  5
88B
330
1F
100
AcDbEntity
  8
1
  6
CONTINUOUS
370
50
 62
4
100
AcDbLine
 10
40.608299
 20
-0.744215
 30
0.0
 11
40.1987
 21
-0.565352
 31
0.0
  0
LINE
  5
88C
330
1F
100
AcDbEntity
  8
1
  6
CONTINUOUS
370
50
 62
4
100
AcDbLine
 10
43.091091
 20
1.556759
 30
0.0
 11
43.039631
 21
1.57923
 31
0.0
  0
LINE
  5
88D
330
1F
100
AcDbEntity
  8
1
  6
CONTINUOUS
370
50
 62
4
100
AcDbLine
 10
41.210892
 20
0.7335999999999999
 30
0.0
 11
40.794949
 21
0.915206
 31
0.0
  0
LINE
  5
88E
330
1F
100
AcDbEntity
  8
1
  6
CONTINUOUS
370
50
 62
4
100
AcDbLine
 10
37.822098
 20
-2.833527
 30
0.0
 11
37.670708
 21
-2.767468
 31
0.0
  0
LINE
  5
88F
330
1F
100
AcDbEntity
  8
1
  6
CONTINUOUS
370
50
 62
4
100
AcDbLine
 10
40.375954
 20
-0.639231
 30
0.0
 11
40.06115
 21
-0.501946
 31
0.0
  0
LINE
  5
890
330
1F
100
AcDbEntity
  8
1
  6
CONTINUOUS
370
50
 62
4
100
AcDbLine
 10
43.142555
 20
1.53434
 30
0.0
 11
43.091091
 21
1.556759
 31
0.0
  0
LINE
  5
891
330
1F
100
AcDbEntity
  8
1
  6
CONTINUOUS
370
50
 62
4
100
AcDbLine
 10
39.135155
 20
1.577273
 30
0.0
 11
39.090015
 21
1.596934
 31
0.0
  0
LINE
  5
892
330
1F
100
AcDbEntity
  8
1
  6
CONTINUOUS
370
50
 62
4
100
AcDbLine
 10
40.181915
 20
-2.543106
 30
0.0
 11
40.038433
 21
-2.480662
 31
0.0
  0
LINE
  5
893
330
1F
100
AcDbEntity
  8
1
  6
CONTINUOUS
370
50
 62
4
100
AcDbLine
 10
43.194016
 20
1.511973
 30
0.0
 11
43.142555
 21
1.53434
 31
0.0
  0
LINE
  5
894
330
1F
100
AcDbEntity
  8
1
  6
CONTINUOUS
370
50
 62
4
100
AcDbLine
 10
47.381752
 20
1.363176
 30
0.0
 11
47.324448
 21
1.388063
 31
0.0
  0
LINE
  5
895
330
1F
100
AcDbEntity
  8
1
  6
CONTINUOUS
370
50
 62
4
100
AcDbLine
 10
43.24548
 20
1.489657
 30
0.0
 11
43.194016
 21
1.511973
 31
0.0
  0
LINE
  5
896
330
1F
100
AcDbEntity
  8
1
  6
CONTINUOUS
370
50
 62
4
100
AcDbLine
 10
48.17497299999999
 20
-0.669756
 30
0.0
 11
47.686073
 21
-0.45777
 31
0.0
  0
LINE
  5
897
330
1F
100
AcDbEntity
  8
1
  6
CONTINUOUS
370
50
 62
4
100
AcDbLine
 10
43.296902
 20
1.467409
 30
0.0
 11
43.24548
 21
1.489657
 31
0.0
  0
LINE
  5
898
330
1F
100
AcDbEntity
  8
1
  6
CONTINUOUS
370
50
 62
4
100
AcDbLine
 10
40.689243
 20
-0.774698
 30
0.0
 11
40.375954
 21
-0.639231
 31
0.0
  0
LINE
  5
899
330
1F
100
AcDbEntity
  8
1
  6
CONTINUOUS
370
50
 62
4
100
AcDbLine
 10
39.197643
 20
1.550255
 30
0.0
 11
39.135155
 21
1.577273
 31
0.0
  0
LINE
  5
89A
330
1F
100
AcDbEntity
  8
1
  6
CONTINUOUS
370
50
 62
4
100
AcDbLine
 10
43.34833099999999
 20
1.445211
 30
0.0
 11
43.296902
 21
1.467409
 31
0.0
  0
LINE
  5
89B
330
1F
100
AcDbEntity
  8
1
  6
CONTINUOUS
370
50
 62
4
100
AcDbLine
 10
45.068871
 20
2.434042
 30
0.0
 11
44.679134
 21
2.602241
 31
0.0
  0
LINE
  5
89C
330
1F
100
AcDbEntity
  8
1
  6
CONTINUOUS
370
50
 62
4
100
AcDbLine
 10
43.399757
 20
1.423066
 30
0.0
 11
43.34833099999999
 21
1.445211
 31
0.0
  0
LINE
  5
89D
330
1F
100
AcDbEntity
  8
1
  6
CONTINUOUS
370
50
 62
4
100
AcDbLine
 10
43.451183
 20
1.400972
 30
0.0
 11
43.399757
 21
1.423066
 31
0.0
  0
LINE
  5
89E
330
1F
100
AcDbEntity
  8
1
  6
CONTINUOUS
370
50
 62
4
100
AcDbLine
 10
41.017838
 20
-0.9200729999999999
 30
0.0
 11
40.608299
 21
-0.744215
 31
0.0
  0
LINE
  5
89F
330
1F
100
AcDbEntity
  8
1
  6
CONTINUOUS
370
50
 62
4
100
AcDbLine
 10
39.260136
 20
1.523466
 30
0.0
 11
39.197643
 21
1.550255
 31
0.0
  0
LINE
  5
8A0
330
1F
100
AcDbEntity
  8
1
  6
CONTINUOUS
370
50
 62
4
100
AcDbLine
 10
43.50035099999999
 20
1.379899
 30
0.0
 11
43.451183
 21
1.400972
 31
0.0
  0
LINE
  5
8A1
330
1F
100
AcDbEntity
  8
1
  6
CONTINUOUS
370
50
 62
4
100
AcDbLine
 10
47.43909499999999
 20
1.338625
 30
0.0
 11
47.381752
 21
1.363176
 31
0.0
  0
LINE
  5
8A2
330
1F
100
AcDbEntity
  8
1
  6
CONTINUOUS
370
50
 62
4
100
AcDbLine
 10
43.549519
 20
1.358875
 30
0.0
 11
43.50035099999999
 21
1.379899
 31
0.0
  0
LINE
  5
8A3
330
1F
100
AcDbEntity
  8
1
  6
CONTINUOUS
370
50
 62
4
100
AcDbLine
 10
41.005524
 20
-0.9098149999999999
 30
0.0
 11
40.689243
 21
-0.774698
 31
0.0
  0
LINE
  5
8A4
330
1F
100
AcDbEntity
  8
1
  6
CONTINUOUS
370
50
 62
4
100
AcDbLine
 10
43.598682
 20
1.337903
 30
0.0
 11
43.549519
 21
1.358875
 31
0.0
  0
LINE
  5
8A5
330
1F
100
AcDbEntity
  8
1
  6
CONTINUOUS
370
50
 62
4
100
AcDbLine
 10
44.74177599999999
 20
-0.860653
 30
0.0
 11
44.252018
 21
-0.651845
 31
0.0
  0
LINE
  5
8A6
330
1F
100
AcDbEntity
  8
1
  6
CONTINUOUS
370
50
 62
4
100
AcDbLine
 10
43.64785
 20
1.316984
 30
0.0
 11
43.598682
 21
1.337903
 31
0.0
  0
LINE
  5
8A7
330
1F
100
AcDbEntity
  8
1
  6
CONTINUOUS
370
50
 62
4
100
AcDbLine
 10
39.322628
 20
1.496901
 30
0.0
 11
39.260136
 21
1.523466
 31
0.0
  0
LINE
  5
8A8
330
1F
100
AcDbEntity
  8
1
  6
CONTINUOUS
370
50
 62
4
100
AcDbLine
 10
45.659275
 20
1.270443
 30
0.0
 11
45.315731
 21
1.416133
 31
0.0
  0
LINE
  5
8A9
330
1F
100
AcDbEntity
  8
1
  6
CONTINUOUS
370
50
 62
4
100
AcDbLine
 10
43.73505
 20
1.280018
 30
0.0
 11
43.64785
 21
1.316984
 31
0.0
  0
LINE
  5
8AA
330
1F
100
AcDbEntity
  8
1
  6
CONTINUOUS
370
50
 62
4
100
AcDbLine
 10
48.830864
 20
2.498996
 30
0.0
 11
48.688152
 21
2.559361
 31
0.0
  0
LINE
  5
8AB
330
1F
100
AcDbEntity
  8
1
  6
CONTINUOUS
370
50
 62
4
100
AcDbLine
 10
47.496441
 20
1.314424
 30
0.0
 11
47.43909499999999
 21
1.338625
 31
0.0
  0
LINE
  5
8AC
330
1F
100
AcDbEntity
  8
1
  6
CONTINUOUS
370
50
 62
4
100
AcDbLine
 10
43.822243
 20
1.24324
 30
0.0
 11
43.73505
 21
1.280018
 31
0.0
  0
LINE
  5
8AD
330
1F
100
AcDbEntity
  8
1
  6
CONTINUOUS
370
50
 62
4
100
AcDbLine
 10
39.385124
 20
1.470557
 30
0.0
 11
39.322628
 21
1.496901
 31
0.0
  0
LINE
  5
8AE
330
1F
100
AcDbEntity
  8
1
  6
CONTINUOUS
370
50
 62
4
100
AcDbLine
 10
45.492817
 20
0.563196
 30
0.0
 11
45.072273
 21
0.740304
 31
0.0
  0
LINE
  5
8AF
330
1F
100
AcDbEntity
  8
1
  6
CONTINUOUS
370
50
 62
4
100
AcDbLine
 10
49.19965699999999
 20
0.6481629999999999
 30
0.0
 11
48.92722699999999
 21
0.762856
 31
0.0
  0
LINE
  5
8B0
330
1F
100
AcDbEntity
  8
1
  6
CONTINUOUS
370
50
 62
4
100
AcDbLine
 10
44.32086899999999
 20
-2.660355
 30
0.0
 11
44.039623
 21
-2.542008
 31
0.0
  0
LINE
  5
8B1
330
1F
100
AcDbEntity
  8
1
  6
CONTINUOUS
370
50
 62
4
100
AcDbLine
 10
48.402645
 20
-0.767556
 30
0.0
 11
47.990681
 21
-0.5946509999999999
 31
0.0
  0
LINE
  5
8B2
330
1F
100
AcDbEntity
  8
1
  6
CONTINUOUS
370
50
 62
4
100
AcDbLine
 10
43.90934
 20
1.206703
 30
0.0
 11
43.822243
 21
1.24324
 31
0.0
  0
LINE
  5
8B3
330
1F
100
AcDbEntity
  8
1
  6
CONTINUOUS
370
50
 62
4
100
AcDbLine
 10
48.592247
 20
2.355687
 30
0.0
 11
47.775562
 21
2.697735
 31
0.0
  0
LINE
  5
8B4
330
1F
100
AcDbEntity
  8
1
  6
CONTINUOUS
370
50
 62
4
100
AcDbLine
 10
41.437511
 20
1.410515
 30
0.0
 11
41.093754
 21
1.554361
 31
0.0
  0
LINE
  5
8B5
330
1F
100
AcDbEntity
  8
1
  6
CONTINUOUS
370
50
 62
4
100
AcDbLine
 10
39.44762
 20
1.44443
 30
0.0
 11
39.385124
 21
1.470557
 31
0.0
  0
LINE
  5
8B6
330
1F
100
AcDbEntity
  8
1
  6
CONTINUOUS
370
50
 62
4
100
AcDbLine
 10
43.996429
 20
1.17039
 30
0.0
 11
43.90934
 21
1.206703
 31
0.0
  0
LINE
  5
8B7
330
1F
100
AcDbEntity
  8
1
  6
CONTINUOUS
370
50
 62
4
100
AcDbLine
 10
47.575336
 20
1.281693
 30
0.0
 11
47.496441
 21
1.314424
 31
0.0
  0
LINE
  5
8B8
330
1F
100
AcDbEntity
  8
1
  6
CONTINUOUS
370
50
 62
4
100
AcDbLine
 10
39.510117
 20
1.418514
 30
0.0
 11
39.44762
 21
1.44443
 31
0.0
  0
LINE
  5
8B9
330
1F
100
AcDbEntity
  8
1
  6
CONTINUOUS
370
50
 62
4
100
AcDbLine
 10
40.32476
 20
-2.602102
 30
0.0
 11
40.181915
 21
-2.543106
 31
0.0
  0
LINE
  5
8BA
330
1F
100
AcDbEntity
  8
1
  6
CONTINUOUS
370
50
 62
4
100
AcDbLine
 10
44.055126
 20
1.146204
 30
0.0
 11
43.996429
 21
1.17039
 31
0.0
  0
LINE
  5
8BB
330
1F
100
AcDbEntity
  8
1
  6
CONTINUOUS
370
50
 62
4
100
AcDbLine
 10
39.572617
 20
1.392808
 30
0.0
 11
39.510117
 21
1.418514
 31
0.0
  0
LINE
  5
8BC
330
1F
100
AcDbEntity
  8
1
  6
CONTINUOUS
370
50
 62
4
100
AcDbLine
 10
44.351982
 20
2.516877
 30
0.0
 11
43.83794
 21
2.726815
 31
0.0
  0
LINE
  5
8BD
330
1F
100
AcDbEntity
  8
1
  6
CONTINUOUS
370
50
 62
4
100
AcDbLine
 10
39.63512
 20
1.367308
 30
0.0
 11
39.572617
 21
1.392808
 31
0.0
  0
LINE
  5
8BE
330
1F
100
AcDbEntity
  8
1
  6
CONTINUOUS
370
50
 62
4
100
AcDbLine
 10
45.072273
 20
0.740304
 30
0.0
 11
44.651806
 21
0.911555
 31
0.0
  0
LINE
  5
8BF
330
1F
100
AcDbEntity
  8
1
  6
CONTINUOUS
370
50
 62
4
100
AcDbLine
 10
44.929123
 20
-0.938727
 30
0.0
 11
44.518314
 21
-0.7715219999999999
 31
0.0
  0
LINE
  5
8C0
330
1F
100
AcDbEntity
  8
1
  6
CONTINUOUS
370
50
 62
4
100
AcDbLine
 10
47.654232
 20
1.249609
 30
0.0
 11
47.575336
 21
1.281693
 31
0.0
  0
LINE
  5
8C1
330
1F
100
AcDbEntity
  8
1
  6
CONTINUOUS
370
50
 62
4
100
AcDbLine
 10
39.698166
 20
1.34179
 30
0.0
 11
39.63512
 21
1.367308
 31
0.0
  0
LINE
  5
8C2
330
1F
100
AcDbEntity
  8
1
  6
CONTINUOUS
370
50
 62
4
100
AcDbLine
 10
48.662045
 20
-0.866856
 30
0.0
 11
48.17497299999999
 21
-0.669756
 31
0.0
  0
LINE
  5
8C3
330
1F
100
AcDbEntity
  8
1
  6
CONTINUOUS
370
50
 62
4
100
AcDbLine
 10
44.113819
 20
1.12248
 30
0.0
 11
44.055126
 21
1.146204
 31
0.0
  0
LINE
  5
8C4
330
1F
100
AcDbEntity
  8
1
  6
CONTINUOUS
370
50
 62
4
100
AcDbLine
 10
48.62163899999999
 20
-2.609767
 30
0.0
 11
48.424442
 21
-2.530186
 31
0.0
  0
LINE
  5
8C5
330
1F
100
AcDbEntity
  8
1
  6
CONTINUOUS
370
50
 62
4
100
AcDbLine
 10
41.377415
 20
-1.059351
 30
0.0
 11
41.005524
 21
-0.9098149999999999
 31
0.0
  0
LINE
  5
8C6
330
1F
100
AcDbEntity
  8
1
  6
CONTINUOUS
370
50
 62
4
100
AcDbLine
 10
39.761215
 20
1.316476
 30
0.0
 11
39.698166
 21
1.34179
 31
0.0
  0
LINE
  5
8C7
330
1F
100
AcDbEntity
  8
1
  6
CONTINUOUS
370
50
 62
4
100
AcDbLine
 10
48.92722699999999
 20
0.762856
 30
0.0
 11
48.654823
 21
0.8722129999999999
 31
0.0
  0
LINE
  5
8C8
330
1F
100
AcDbEntity
  8
1
  6
CONTINUOUS
370
50
 62
4
100
AcDbLine
 10
39.813614
 20
1.295588
 30
0.0
 11
39.761215
 21
1.316476
 31
0.0
  0
LINE
  5
8C9
330
1F
100
AcDbEntity
  8
1
  6
CONTINUOUS
370
50
 62
4
100
AcDbLine
 10
47.733185
 20
1.21814
 30
0.0
 11
47.654232
 21
1.249609
 31
0.0
  0
LINE
  5
8CA
330
1F
100
AcDbEntity
  8
1
  6
CONTINUOUS
370
50
 62
4
100
AcDbLine
 10
41.42725
 20
-1.083139
 30
0.0
 11
41.017838
 21
-0.9200729999999999
 31
0.0
  0
LINE
  5
8CB
330
1F
100
AcDbEntity
  8
1
  6
CONTINUOUS
370
50
 62
4
100
AcDbLine
 10
48.814701
 20
-0.9310269999999999
 30
0.0
 11
48.402645
 21
-0.767556
 31
0.0
  0
LINE
  5
8CC
330
1F
100
AcDbEntity
  8
1
  6
CONTINUOUS
370
50
 62
4
100
AcDbLine
 10
48.688152
 20
2.559361
 30
0.0
 11
48.545643
 21
2.615876
 31
0.0
  0
LINE
  5
8CD
330
1F
100
AcDbEntity
  8
1
  6
CONTINUOUS
370
50
 62
4
100
AcDbLine
 10
44.172577
 20
1.09919
 30
0.0
 11
44.113819
 21
1.12248
 31
0.0
  0
LINE
  5
8CE
330
1F
100
AcDbEntity
  8
1
  6
CONTINUOUS
370
50
 62
4
100
AcDbLine
 10
39.86602
 20
1.274837
 30
0.0
 11
39.813614
 21
1.295588
 31
0.0
  0
LINE
  5
8CF
330
1F
100
AcDbEntity
  8
1
  6
CONTINUOUS
370
50
 62
4
100
AcDbLine
 10
39.918423
 20
1.254222
 30
0.0
 11
39.86602
 21
1.274837
 31
0.0
  0
LINE
  5
8D0
330
1F
100
AcDbEntity
  8
1
  6
CONTINUOUS
370
50
 62
4
100
AcDbLine
 10
40.794949
 20
0.915206
 30
0.0
 11
40.378899
 21
1.07882
 31
0.0
  0
LINE
  5
8D1
330
1F
100
AcDbEntity
  8
1
  6
CONTINUOUS
370
50
 62
4
100
AcDbLine
 10
45.315731
 20
1.416133
 30
0.0
 11
44.972179
 21
1.551217
 31
0.0
  0
LINE
  5
8D2
330
1F
100
AcDbEntity
  8
1
  6
CONTINUOUS
370
50
 62
4
100
AcDbLine
 10
44.651806
 20
0.911555
 30
0.0
 11
44.231331
 21
1.076465
 31
0.0
  0
LINE
  5
8D3
330
1F
100
AcDbEntity
  8
1
  6
CONTINUOUS
370
50
 62
4
100
AcDbLine
 10
39.97082899999999
 20
1.233741
 30
0.0
 11
39.918423
 21
1.254222
 31
0.0
  0
LINE
  5
8D4
330
1F
100
AcDbEntity
  8
1
  6
CONTINUOUS
370
50
 62
4
100
AcDbLine
 10
47.812138
 20
1.1873
 30
0.0
 11
47.733185
 21
1.21814
 31
0.0
  0
LINE
  5
8D5
330
1F
100
AcDbEntity
  8
1
  6
CONTINUOUS
370
50
 62
4
100
AcDbLine
 10
40.466747
 20
-2.657539
 30
0.0
 11
40.32476
 21
-2.602102
 31
0.0
  0
LINE
  5
8D6
330
1F
100
AcDbEntity
  8
1
  6
CONTINUOUS
370
50
 62
4
100
AcDbLine
 10
44.231331
 20
1.076359
 30
0.0
 11
44.172577
 21
1.09919
 31
0.0
  0
LINE
  5
8D7
330
1F
100
AcDbEntity
  8
1
  6
CONTINUOUS
370
50
 62
4
100
AcDbLine
 10
40.023209
 20
1.213405
 30
0.0
 11
39.97082899999999
 21
1.233741
 31
0.0
  0
LINE
  5
8D8
330
1F
100
AcDbEntity
  8
1
  6
CONTINUOUS
370
50
 62
4
100
AcDbLine
 10
40.075588
 20
1.193201
 30
0.0
 11
40.023209
 21
1.213405
 31
0.0
  0
LINE
  5
8D9
330
1F
100
AcDbEntity
  8
1
  6
CONTINUOUS
370
50
 62
4
100
AcDbLine
 10
40.351463
 20
2.582984
 30
0.0
 11
40.107239
 21
2.677046
 31
0.0
  0
LINE
  5
8DA
330
1F
100
AcDbEntity
  8
1
  6
CONTINUOUS
370
50
 62
4
100
AcDbLine
 10
41.093754
 20
1.554361
 30
0.0
 11
40.750004
 21
1.686307
 31
0.0
  0
LINE
  5
8DB
330
1F
100
AcDbEntity
  8
1
  6
CONTINUOUS
370
50
 62
4
100
AcDbLine
 10
48.654823
 20
0.8722129999999999
 30
0.0
 11
48.382458
 21
0.976637
 31
0.0
  0
LINE
  5
8DC
330
1F
100
AcDbEntity
  8
1
  6
CONTINUOUS
370
50
 62
4
100
AcDbLine
 10
40.127972
 20
1.173131
 30
0.0
 11
40.075588
 21
1.193201
 31
0.0
  0
LINE
  5
8DD
330
1F
100
AcDbEntity
  8
1
  6
CONTINUOUS
370
50
 62
4
100
AcDbLine
 10
47.886616
 20
1.158774
 30
0.0
 11
47.812138
 21
1.1873
 31
0.0
  0
LINE
  5
8DE
330
1F
100
AcDbEntity
  8
1
  6
CONTINUOUS
370
50
 62
4
100
AcDbLine
 10
48.337353
 20
-2.706539
 30
0.0
 11
47.880314
 21
-2.531773
 31
0.0
  0
LINE
  5
8DF
330
1F
100
AcDbEntity
  8
1
  6
CONTINUOUS
370
50
 62
4
100
AcDbLine
 10
45.235252
 20
-1.048846
 30
0.0
 11
44.74177599999999
 21
-0.860653
 31
0.0
  0
LINE
  5
8E0
330
1F
100
AcDbEntity
  8
1
  6
CONTINUOUS
370
50
 62
4
100
AcDbLine
 10
40.180351
 20
1.153193
 30
0.0
 11
40.127972
 21
1.173131
 31
0.0
  0
LINE
  5
8E1
330
1F
100
AcDbEntity
  8
1
  6
CONTINUOUS
370
50
 62
4
100
AcDbLine
 10
36.221523
 20
2.988083
 30
0.0
 11
36.214909
 21
2.990585
 31
0.0
  0
LINE
  5
8E2
330
1F
100
AcDbEntity
  8
1
  6
CONTINUOUS
370
50
 62
4
100
AcDbLine
 10
36.983337
 20
2.794493
 30
0.0
 11
36.809734
 21
2.86015
 31
0.0
  0
LINE
  5
8E3
330
1F
100
AcDbEntity
  8
1
  6
CONTINUOUS
370
50
 62
4
100
AcDbLine
 10
40.229988
 20
1.134423
 30
0.0
 11
40.180351
 21
1.153193
 31
0.0
  0
LINE
  5
8E4
330
1F
100
AcDbEntity
  8
1
  6
CONTINUOUS
370
50
 62
4
100
AcDbLine
 10
49.142773
 20
-1.048566
 30
0.0
 11
48.662045
 21
-0.866856
 31
0.0
  0
LINE
  5
8E5
330
1F
100
AcDbEntity
  8
1
  6
CONTINUOUS
370
50
 62
4
100
AcDbLine
 10
41.246937
 20
-2.754475
 30
0.0
 11
40.875713
 21
-2.614491
 31
0.0
  0
LINE
  5
8E6
330
1F
100
AcDbEntity
  8
1
  6
CONTINUOUS
370
50
 62
4
100
AcDbLine
 10
47.961098
 20
1.130789
 30
0.0
 11
47.886616
 21
1.158774
 31
0.0
  0
LINE
  5
8E7
330
1F
100
AcDbEntity
  8
1
  6
CONTINUOUS
370
50
 62
4
100
AcDbLine
 10
40.279625
 20
1.115774
 30
0.0
 11
40.229988
 21
1.134423
 31
0.0
  0
LINE
  5
8E8
330
1F
100
AcDbEntity
  8
1
  6
CONTINUOUS
370
50
 62
4
100
AcDbLine
 10
49.226826
 20
-1.085513
 30
0.0
 11
48.814701
 21
-0.9310269999999999
 31
0.0
  0
LINE
  5
8E9
330
1F
100
AcDbEntity
  8
1
  6
CONTINUOUS
370
50
 62
4
100
AcDbLine
 10
40.823093
 20
2.603936
 30
0.0
 11
40.442307
 21
2.74629
 31
0.0
  0
LINE
  5
8EA
330
1F
100
AcDbEntity
  8
1
  6
CONTINUOUS
370
50
 62
4
100
AcDbLine
 10
40.329262
 20
1.097245
 30
0.0
 11
40.279625
 21
1.115774
 31
0.0
  0
LINE
  5
8EB
330
1F
100
AcDbEntity
  8
1
  6
CONTINUOUS
370
50
 62
4
100
AcDbLine
 10
45.33998099999999
 20
-1.091579
 30
0.0
 11
44.929123
 21
-0.938727
 31
0.0
  0
LINE
  5
8EC
330
1F
100
AcDbEntity
  8
1
  6
CONTINUOUS
370
50
 62
4
100
AcDbLine
 10
40.378899
 20
1.078838
 30
0.0
 11
40.329262
 21
1.097245
 31
0.0
  0
LINE
  5
8ED
330
1F
100
AcDbEntity
  8
1
  6
CONTINUOUS
370
50
 62
4
100
AcDbLine
 10
44.679134
 20
2.602241
 30
0.0
 11
44.296997
 21
2.743865
 31
0.0
  0
LINE
  5
8EE
330
1F
100
AcDbEntity
  8
1
  6
CONTINUOUS
370
50
 62
4
100
AcDbLine
 10
48.545643
 20
2.615876
 30
0.0
 11
48.403458
 21
2.668545
 31
0.0
  0
LINE
  5
8EF
330
1F
100
AcDbEntity
  8
1
  6
CONTINUOUS
370
50
 62
4
100
AcDbLine
 10
48.819359
 20
-2.682895
 30
0.0
 11
48.62163899999999
 21
-2.609767
 31
0.0
  0
LINE
  5
8F0
330
1F
100
AcDbEntity
  8
1
  6
CONTINUOUS
370
50
 62
4
100
AcDbLine
 10
48.035614
 20
1.103324
 30
0.0
 11
47.961098
 21
1.130789
 31
0.0
  0
LINE
  5
8F1
330
1F
100
AcDbEntity
  8
1
  6
CONTINUOUS
370
50
 62
4
100
AcDbLine
 10
40.607777
 20
-2.70933
 30
0.0
 11
40.466747
 21
-2.657539
 31
0.0
  0
LINE
  5
8F2
330
1F
100
AcDbEntity
  8
1
  6
CONTINUOUS
370
50
 62
4
100
AcDbLine
 10
48.973518
 20
1.515532
 30
0.0
 11
48.619324
 21
1.645463
 31
0.0
  0
LINE
  5
8F3
330
1F
100
AcDbEntity
  8
1
  6
CONTINUOUS
370
50
 62
4
100
AcDbLine
 10
48.382458
 20
0.976637
 30
0.0
 11
48.11013
 21
1.076413
 31
0.0
  0
LINE
  5
8F4
330
1F
100
AcDbEntity
  8
1
  6
CONTINUOUS
370
50
 62
4
100
AcDbLine
 10
44.972179
 20
1.551217
 30
0.0
 11
44.62862399999999
 21
1.675715
 31
0.0
  0
LINE
  5
8F5
330
1F
100
AcDbEntity
  8
1
  6
CONTINUOUS
370
50
 62
4
100
AcDbLine
 10
48.11013
 20
1.076381
 30
0.0
 11
48.035614
 21
1.103324
 31
0.0
  0
LINE
  5
8F6
330
1F
100
AcDbEntity
  8
1
  6
CONTINUOUS
370
50
 62
4
100
AcDbLine
 10
37.97702
 20
-2.888993
 30
0.0
 11
37.822098
 21
-2.833527
 31
0.0
  0
LINE
  5
8F7
330
1F
100
AcDbEntity
  8
1
  6
CONTINUOUS
370
50
 62
4
100
AcDbLine
 10
41.82835
 20
-1.218895
 30
0.0
 11
41.377415
 21
-1.059351
 31
0.0
  0
LINE
  5
8F8
330
1F
100
AcDbEntity
  8
1
  6
CONTINUOUS
370
50
 62
4
100
AcDbLine
 10
49.62152099999999
 20
-1.217559
 30
0.0
 11
49.142773
 21
-1.048566
 31
0.0
  0
LINE
  5
8F9
330
1F
100
AcDbEntity
  8
1
  6
CONTINUOUS
370
50
 62
4
100
AcDbLine
 10
45.215191
 20
-2.780947
 30
0.0
 11
44.64333
 21
-2.579168
 31
0.0
  0
LINE
  5
8FA
330
1F
100
AcDbEntity
  8
1
  6
CONTINUOUS
370
50
 62
4
100
AcDbLine
 10
49.638977
 20
-1.230794
 30
0.0
 11
49.226826
 21
-1.085513
 31
0.0
  0
LINE
  5
8FB
330
1F
100
AcDbEntity
  8
1
  6
CONTINUOUS
370
50
 62
4
100
AcDbLine
 10
41.836617
 20
-1.227057
 30
0.0
 11
41.42725
 21
-1.083139
 31
0.0
  0
LINE
  5
8FC
330
1F
100
AcDbEntity
  8
1
  6
CONTINUOUS
370
50
 62
4
100
AcDbLine
 10
44.615891
 20
-2.763624
 30
0.0
 11
44.32086899999999
 21
-2.660355
 31
0.0
  0
LINE
  5
8FD
330
1F
100
AcDbEntity
  8
1
  6
CONTINUOUS
370
50
 62
4
100
AcDbLine
 10
48.403458
 20
2.668545
 30
0.0
 11
48.261135
 21
2.717657
 31
0.0
  0
LINE
  5
8FE
330
1F
100
AcDbEntity
  8
1
  6
CONTINUOUS
370
50
 62
4
100
AcDbLine
 10
40.748024
 20
-2.757426
 30
0.0
 11
40.607777
 21
-2.70933
 31
0.0
  0
LINE
  5
8FF
330
1F
100
AcDbEntity
  8
1
  6
CONTINUOUS
370
50
 62
4
100
AcDbLine
 10
45.734234
 20
-1.218531
 30
0.0
 11
45.235252
 21
-1.048846
 31
0.0
  0
LINE
  5
900
330
1F
100
AcDbEntity
  8
1
  6
CONTINUOUS
370
50
 62
4
100
AcDbLine
 10
45.750919
 20
-1.23081
 30
0.0
 11
45.33998099999999
 21
-1.091579
 31
0.0
  0
LINE
  5
901
330
1F
100
AcDbEntity
  8
1
  6
CONTINUOUS
370
50
 62
4
100
AcDbLine
 10
49.017181
 20
-2.749263
 30
0.0
 11
48.819359
 21
-2.682895
 31
0.0
  0
LINE
  5
902
330
1F
100
AcDbEntity
  8
1
  6
CONTINUOUS
370
50
 62
4
100
AcDbLine
 10
40.107239
 20
2.677046
 30
0.0
 11
39.861465
 21
2.759161
 31
0.0
  0
LINE
  5
903
330
1F
100
AcDbEntity
  8
1
  6
CONTINUOUS
370
50
 62
4
100
AcDbLine
 10
44.62862399999999
 20
1.675715
 30
0.0
 11
44.285069
 21
1.789012
 31
0.0
  0
LINE
  5
904
330
1F
100
AcDbEntity
  8
1
  6
CONTINUOUS
370
50
 62
4
100
AcDbLine
 10
40.750004
 20
1.686307
 30
0.0
 11
40.406265
 21
1.798775
 31
0.0
  0
LINE
  5
905
330
1F
100
AcDbEntity
  8
1
  6
CONTINUOUS
370
50
 62
4
100
AcDbLine
 10
48.619324
 20
1.645463
 30
0.0
 11
48.265121
 21
1.760552
 31
0.0
  0
LINE
  5
906
330
1F
100
AcDbEntity
  8
1
  6
CONTINUOUS
370
50
 62
4
100
AcDbLine
 10
48.261135
 20
2.717657
 30
0.0
 11
48.118637
 21
2.763224
 31
0.0
  0
LINE
  5
907
330
1F
100
AcDbEntity
  8
1
  6
CONTINUOUS
370
50
 62
4
100
AcDbLine
 10
40.887459
 20
-2.801689
 30
0.0
 11
40.748024
 21
-2.757426
 31
0.0
  0
LINE
  5
908
330
1F
100
AcDbEntity
  8
1
  6
CONTINUOUS
370
50
 62
4
100
AcDbLine
 10
44.296997
 20
2.743865
 30
0.0
 11
43.936901
 21
2.853148
 31
0.0
  0
LINE
  5
909
330
1F
100
AcDbEntity
  8
1
  6
CONTINUOUS
370
50
 62
4
100
AcDbLine
 10
36.23053
 20
2.985355
 30
0.0
 11
36.221523
 21
2.988083
 31
0.0
  0
LINE
  5
90A
330
1F
100
AcDbEntity
  8
1
  6
CONTINUOUS
370
50
 62
4
100
AcDbLine
 10
49.915901
 20
1.31806
 30
0.0
 11
49.886745
 21
1.326851
 31
0.0
  0
LINE
  5
90B
330
1F
100
AcDbEntity
  8
1
  6
CONTINUOUS
370
50
 62
4
100
AcDbLine
 10
49.214672
 20
-2.808562
 30
0.0
 11
49.017181
 21
-2.749263
 31
0.0
  0
LINE
  5
90C
330
1F
100
AcDbEntity
  8
1
  6
CONTINUOUS
370
50
 62
4
100
AcDbLine
 10
47.775562
 20
2.697735
 30
0.0
 11
47.185398
 21
2.873571
 31
0.0
  0
LINE
  5
90D
330
1F
100
AcDbEntity
  8
1
  6
CONTINUOUS
370
50
 62
4
100
AcDbLine
 10
48.118637
 20
2.763224
 30
0.0
 11
47.976135
 21
2.805138
 31
0.0
  0
LINE
  5
90E
330
1F
100
AcDbEntity
  8
1
  6
CONTINUOUS
370
50
 62
4
100
AcDbLine
 10
44.285069
 20
1.789012
 30
0.0
 11
43.94152099999999
 21
1.889466
 31
0.0
  0
LINE
  5
90F
330
1F
100
AcDbEntity
  8
1
  6
CONTINUOUS
370
50
 62
4
100
AcDbLine
 10
36.809734
 20
2.86015
 30
0.0
 11
36.634354
 21
2.911417
 31
0.0
  0
LINE
  5
910
330
1F
100
AcDbEntity
  8
1
  6
CONTINUOUS
370
50
 62
4
100
AcDbLine
 10
48.846394
 20
-2.854247
 30
0.0
 11
48.337353
 21
-2.706539
 31
0.0
  0
LINE
  5
911
330
1F
100
AcDbEntity
  8
1
  6
CONTINUOUS
370
50
 62
4
100
AcDbLine
 10
43.83794
 20
2.726815
 30
0.0
 11
43.312408
 21
2.878577
 31
0.0
  0
LINE
  5
912
330
1F
100
AcDbEntity
  8
1
  6
CONTINUOUS
370
50
 62
4
100
AcDbLine
 10
41.079033
 20
-2.856477
 30
0.0
 11
40.887459
 21
-2.801689
 31
0.0
  0
LINE
  5
913
330
1F
100
AcDbEntity
  8
1
  6
CONTINUOUS
370
50
 62
4
100
AcDbLine
 10
41.633976
 20
-2.864949
 30
0.0
 11
41.246937
 21
-2.754475
 31
0.0
  0
LINE
  5
914
330
1F
100
AcDbEntity
  8
1
  6
CONTINUOUS
370
50
 62
4
100
AcDbLine
 10
39.861465
 20
2.759161
 30
0.0
 11
39.615208
 21
2.829293
 31
0.0
  0
LINE
  5
915
330
1F
100
AcDbEntity
  8
1
  6
CONTINUOUS
370
50
 62
4
100
AcDbLine
 10
40.442307
 20
2.74629
 30
0.0
 11
40.051083
 21
2.857505
 31
0.0
  0
LINE
  5
916
330
1F
100
AcDbEntity
  8
1
  6
CONTINUOUS
370
50
 62
4
100
AcDbLine
 10
48.265121
 20
1.760552
 30
0.0
 11
47.910915
 21
1.860975
 31
0.0
  0
LINE
  5
917
330
1F
100
AcDbEntity
  8
1
  6
CONTINUOUS
370
50
 62
4
100
AcDbLine
 10
44.915287
 20
-2.84815
 30
0.0
 11
44.615891
 21
-2.763624
 31
0.0
  0
LINE
  5
918
330
1F
100
AcDbEntity
  8
1
  6
CONTINUOUS
370
50
 62
4
100
AcDbLine
 10
40.406265
 20
1.798775
 30
0.0
 11
40.062531
 21
1.892729
 31
0.0
  0
LINE
  5
919
330
1F
100
AcDbEntity
  8
1
  6
CONTINUOUS
370
50
 62
4
100
AcDbLine
 10
47.976135
 20
2.805138
 30
0.0
 11
47.833813
 21
2.843287
 31
0.0
  0
LINE
  5
91A
330
1F
100
AcDbEntity
  8
1
  6
CONTINUOUS
370
50
 62
4
100
AcDbLine
 10
49.411388
 20
-2.860481
 30
0.0
 11
49.214672
 21
-2.808562
 31
0.0
  0
LINE
  5
91B
330
1F
100
AcDbEntity
  8
1
  6
CONTINUOUS
370
50
 62
4
100
AcDbLine
 10
36.241749
 20
2.98243
 30
0.0
 11
36.23053
 21
2.985355
 31
0.0
  0
LINE
  5
91C
330
1F
100
AcDbEntity
  8
1
  6
CONTINUOUS
370
50
 62
4
100
AcDbLine
 10
47.910915
 20
1.860975
 30
0.0
 11
47.556698
 21
1.946837
 31
0.0
  0
LINE
  5
91D
330
1F
100
AcDbEntity
  8
1
  6
CONTINUOUS
370
50
 62
4
100
AcDbLine
 10
47.833813
 20
2.843287
 30
0.0
 11
47.691841
 21
2.877563
 31
0.0
  0
LINE
  5
91E
330
1F
100
AcDbEntity
  8
1
  6
CONTINUOUS
370
50
 62
4
100
AcDbLine
 10
45.78310399999999
 20
-2.916769
 30
0.0
 11
45.215191
 21
-2.780947
 31
0.0
  0
LINE
  5
91F
330
1F
100
AcDbEntity
  8
1
  6
CONTINUOUS
370
50
 62
4
100
AcDbLine
 10
43.94152099999999
 20
1.889466
 30
0.0
 11
43.597988
 21
1.971241
 31
0.0
  0
LINE
  5
920
330
1F
100
AcDbEntity
  8
1
  6
CONTINUOUS
370
50
 62
4
100
AcDbLine
 10
39.615208
 20
2.829293
 30
0.0
 11
39.369526
 21
2.887404
 31
0.0
  0
LINE
  5
921
330
1F
100
AcDbEntity
  8
1
  6
CONTINUOUS
370
50
 62
4
100
AcDbLine
 10
36.254997
 20
2.979333
 30
0.0
 11
36.241749
 21
2.98243
 31
0.0
  0
LINE
  5
922
330
1F
100
AcDbEntity
  8
1
  6
CONTINUOUS
370
50
 62
4
100
AcDbLine
 10
49.606907
 20
-2.904708
 30
0.0
 11
49.411388
 21
-2.860481
 31
0.0
  0
LINE
  5
923
330
1F
100
AcDbEntity
  8
1
  6
CONTINUOUS
370
50
 62
4
100
AcDbLine
 10
41.376011
 20
-2.922872
 30
0.0
 11
41.079033
 21
-2.856477
 31
0.0
  0
LINE
  5
924
330
1F
100
AcDbEntity
  8
1
  6
CONTINUOUS
370
50
 62
4
100
AcDbLine
 10
40.062531
 20
1.892729
 30
0.0
 11
39.718788
 21
1.969555
 31
0.0
  0
LINE
  5
925
330
1F
100
AcDbEntity
  8
1
  6
CONTINUOUS
370
50
 62
4
100
AcDbLine
 10
43.936901
 20
2.853148
 30
0.0
 11
43.57378
 21
2.932453
 31
0.0
  0
LINE
  5
926
330
1F
100
AcDbEntity
  8
1
  6
CONTINUOUS
370
50
 62
4
100
AcDbLine
 10
45.216408
 20
-2.913844
 30
0.0
 11
44.915287
 21
-2.84815
 31
0.0
  0
LINE
  5
927
330
1F
100
AcDbEntity
  8
1
  6
CONTINUOUS
370
50
 62
4
100
AcDbLine
 10
36.270092
 20
2.976094
 30
0.0
 11
36.254997
 21
2.979333
 31
0.0
  0
LINE
  5
928
330
1F
100
AcDbEntity
  8
1
  6
CONTINUOUS
370
50
 62
4
100
AcDbLine
 10
47.691841
 20
2.877563
 30
0.0
 11
47.5504
 21
2.907856
 31
0.0
  0
LINE
  5
929
330
1F
100
AcDbEntity
  8
1
  6
CONTINUOUS
370
50
 62
4
100
AcDbLine
 10
36.634354
 20
2.911417
 30
0.0
 11
36.455154
 21
2.949623
 31
0.0
  0
LINE
  5
92A
330
1F
100
AcDbEntity
  8
1
  6
CONTINUOUS
370
50
 62
4
100
AcDbLine
 10
47.185398
 20
2.873571
 30
0.0
 11
46.815033
 21
2.948108
 31
0.0
  0
LINE
  5
92B
330
1F
100
AcDbEntity
  8
1
  6
CONTINUOUS
370
50
 62
4
100
AcDbLine
 10
40.051083
 20
2.857505
 30
0.0
 11
39.656849
 21
2.936624
 31
0.0
  0
LINE
  5
92C
330
1F
100
AcDbEntity
  8
1
  6
CONTINUOUS
370
50
 62
4
100
AcDbLine
 10
47.556698
 20
1.946837
 30
0.0
 11
47.202488
 21
2.017094
 31
0.0
  0
LINE
  5
92D
330
1F
100
AcDbEntity
  8
1
  6
CONTINUOUS
370
50
 62
4
100
AcDbLine
 10
42.029972
 20
-2.942668
 30
0.0
 11
41.633976
 21
-2.864949
 31
0.0
  0
LINE
  5
92E
330
1F
100
AcDbEntity
  8
1
  6
CONTINUOUS
370
50
 62
4
100
AcDbLine
 10
38.090294
 20
-2.931297
 30
0.0
 11
38.0
 21
-2.913746
 31
0.0
  0
LINE
  5
92F
330
1F
100
AcDbEntity
  8
1
  6
CONTINUOUS
370
50
 62
4
100
AcDbLine
 10
49.35284799999999
 20
-2.9524
 30
0.0
 11
48.846394
 21
-2.854247
 31
0.0
  0
LINE
  5
930
330
1F
100
AcDbEntity
  8
1
  6
CONTINUOUS
370
50
 62
4
100
AcDbLine
 10
39.369526
 20
2.887404
 30
0.0
 11
39.129959
 21
2.932803
 31
0.0
  0
LINE
  5
931
330
1F
100
AcDbEntity
  8
1
  6
CONTINUOUS
370
50
 62
4
100
AcDbLine
 10
49.800781
 20
-2.940933
 30
0.0
 11
49.606907
 21
-2.904708
 31
0.0
  0
LINE
  5
932
330
1F
100
AcDbEntity
  8
1
  6
CONTINUOUS
370
50
 62
4
100
AcDbLine
 10
47.5504
 20
2.907856
 30
0.0
 11
47.409664
 21
2.934055
 31
0.0
  0
LINE
  5
933
330
1F
100
AcDbEntity
  8
1
  6
CONTINUOUS
370
50
 62
4
100
AcDbLine
 10
43.597988
 20
1.971241
 30
0.0
 11
43.254456
 21
2.033086
 31
0.0
  0
LINE
  5
934
330
1F
100
AcDbEntity
  8
1
  6
CONTINUOUS
370
50
 62
4
100
AcDbLine
 10
39.718788
 20
1.969555
 30
0.0
 11
39.375038
 21
2.02994
 31
0.0
  0
LINE
  5
935
330
1F
100
AcDbEntity
  8
1
  6
CONTINUOUS
370
50
 62
4
100
AcDbLine
 10
43.312408
 20
2.878577
 30
0.0
 11
42.777905
 21
2.968947
 31
0.0
  0
LINE
  5
936
330
1F
100
AcDbEntity
  8
1
  6
CONTINUOUS
370
50
 62
4
100
AcDbLine
 10
38.204819
 20
-2.950504
 30
0.0
 11
38.090294
 21
-2.931297
 31
0.0
  0
LINE
  5
937
330
1F
100
AcDbEntity
  8
1
  6
CONTINUOUS
370
50
 62
4
100
AcDbLine
 10
47.409664
 20
2.934055
 30
0.0
 11
47.269814
 21
2.956052
 31
0.0
  0
LINE
  5
938
330
1F
100
AcDbEntity
  8
1
  6
CONTINUOUS
370
50
 62
4
100
AcDbLine
 10
45.517452
 20
-2.960904
 30
0.0
 11
45.216408
 21
-2.913844
 31
0.0
  0
LINE
  5
939
330
1F
100
AcDbEntity
  8
1
  6
CONTINUOUS
370
50
 62
4
100
AcDbLine
 10
47.202488
 20
2.017094
 30
0.0
 11
46.848282
 21
2.069341
 31
0.0
  0
LINE
  5
93A
330
1F
100
AcDbEntity
  8
1
  6
CONTINUOUS
370
50
 62
4
100
AcDbLine
 10
49.992584
 20
-2.968845
 30
0.0
 11
49.800781
 21
-2.940933
 31
0.0
  0
LINE
  5
93B
330
1F
100
AcDbEntity
  8
1
  6
CONTINUOUS
370
50
 62
4
100
AcDbLine
 10
39.129959
 20
2.932803
 30
0.0
 11
38.905834
 21
2.965117
 31
0.0
  0
LINE
  5
93C
330
1F
100
AcDbEntity
  8
1
  6
CONTINUOUS
370
50
 62
4
100
AcDbLine
 10
36.455154
 20
2.949623
 30
0.0
 11
36.270092
 21
2.976094
 31
0.0
  0
LINE
  5
93D
330
1F
100
AcDbEntity
  8
1
  6
CONTINUOUS
370
50
 62
4
100
AcDbLine
 10
41.771255
 20
-2.978274
 30
0.0
 11
41.376011
 21
-2.922872
 31
0.0
  0
LINE
  5
93E
330
1F
100
AcDbEntity
  8
1
  6
CONTINUOUS
370
50
 62
4
100
AcDbLine
 10
46.279148
 20
-2.984069
 30
0.0
 11
45.78310399999999
 21
-2.916769
 31
0.0
  0
LINE
  5
93F
330
1F
100
AcDbEntity
  8
1
  6
CONTINUOUS
370
50
 62
4
100
AcDbLine
 10
38.342587
 20
-2.969173
 30
0.0
 11
38.204819
 21
-2.950504
 31
0.0
  0
LINE
  5
940
330
1F
100
AcDbEntity
  8
1
  6
CONTINUOUS
370
50
 62
4
100
AcDbLine
 10
43.57378
 20
2.932453
 30
0.0
 11
43.204788
 21
2.980956
 31
0.0
  0
LINE
  5
941
330
1F
100
AcDbEntity
  8
1
  6
CONTINUOUS
370
50
 62
4
100
AcDbLine
 10
39.375038
 20
2.02994
 30
0.0
 11
39.031281
 21
2.073775
 31
0.0
  0
LINE
  5
942
330
1F
100
AcDbEntity
  8
1
  6
CONTINUOUS
370
50
 62
4
100
AcDbLine
 10
47.269814
 20
2.956052
 30
0.0
 11
47.131023
 21
2.973736
 31
0.0
  0
LINE
  5
943
330
1F
100
AcDbEntity
  8
1
  6
CONTINUOUS
370
50
 62
4
100
AcDbLine
 10
43.254456
 20
2.033086
 30
0.0
 11
42.910923
 21
2.076613
 31
0.0
  0
LINE
  5
944
330
1F
100
AcDbEntity
  8
1
  6
CONTINUOUS
370
50
 62
4
100
AcDbLine
 10
39.656849
 20
2.936624
 30
0.0
 11
39.263824
 21
2.983972
 31
0.0
  0
LINE
  5
945
330
1F
100
AcDbEntity
  8
1
  6
CONTINUOUS
370
50
 62
4
100
AcDbLine
 10
46.815033
 20
2.948108
 30
0.0
 11
46.470112
 21
2.987627
 31
0.0
  0
LINE
  5
946
330
1F
100
AcDbEntity
  8
1
  6
CONTINUOUS
370
50
 62
4
100
AcDbLine
 10
42.429817
 20
-2.987543
 30
0.0
 11
42.029972
 21
-2.942668
 31
0.0
  0
LINE
  5
947
330
1F
100
AcDbEntity
  8
1
  6
CONTINUOUS
370
50
 62
4
100
AcDbLine
 10
49.756897
 20
-2.993456
 30
0.0
 11
49.35284799999999
 21
-2.9524
 31
0.0
  0
LINE
  5
948
330
1F
100
AcDbEntity
  8
1
  6
CONTINUOUS
370
50
 62
4
100
AcDbLine
 10
38.905834
 20
2.965117
 30
0.0
 11
38.697666
 21
2.985978
 31
0.0
  0
LINE
  5
949
330
1F
100
AcDbEntity
  8
1
  6
CONTINUOUS
370
50
 62
4
100
AcDbLine
 10
38.502632
 20
-2.985107
 30
0.0
 11
38.342587
 21
-2.969173
 31
0.0
  0
LINE
  5
94A
330
1F
100
AcDbEntity
  8
1
  6
CONTINUOUS
370
50
 62
4
100
AcDbLine
 10
45.818798
 20
-2.989697
 30
0.0
 11
45.517452
 21
-2.960904
 31
0.0
  0
LINE
  5
94B
330
1F
100
AcDbEntity
  8
1
  6
CONTINUOUS
370
50
 62
4
100
AcDbLine
 10
47.131023
 20
2.973736
 30
0.0
 11
46.955593
 21
2.990268
 31
0.0
  0
LINE
  5
94C
330
1F
100
AcDbEntity
  8
1
  6
CONTINUOUS
370
50
 62
4
100
AcDbLine
 10
46.848282
 20
2.069341
 30
0.0
 11
46.49409499999999
 21
2.100167
 31
0.0
  0
LINE
  5
94D
330
1F
100
AcDbEntity
  8
1
  6
CONTINUOUS
370
50
 62
4
100
AcDbLine
 10
39.031281
 20
2.073775
 30
0.0
 11
38.687519
 21
2.100909
 31
0.0
  0
LINE
  5
94E
330
1F
100
AcDbEntity
  8
1
  6
CONTINUOUS
370
50
 62
4
100
AcDbLine
 10
38.049114
 20
-2.989762
 30
0.0
 11
38.0
 21
-2.985986
 31
0.0
  0
LINE
  5
94F
330
1F
100
AcDbEntity
  8
1
  6
CONTINUOUS
370
50
 62
4
100
AcDbLine
 10
42.910923
 20
2.076613
 30
0.0
 11
42.567387
 21
2.102473
 31
0.0
  0
LINE
  5
950
330
1F
100
AcDbEntity
  8
1
  6
CONTINUOUS
370
50
 62
4
100
AcDbLine
 10
49.93854899999999
 20
1.316492
 30
0.0
 11
49.915901
 21
1.31806
 31
0.0
  0
LINE
  5
951
330
1F
100
AcDbEntity
  8
1
  6
CONTINUOUS
370
50
 62
4
100
AcDbLine
 10
38.100624
 20
-2.993078
 30
0.0
 11
38.049114
 21
-2.989762
 31
0.0
  0
LINE
  5
952
330
1F
100
AcDbEntity
  8
1
  6
CONTINUOUS
370
50
 62
4
100
AcDbLine
 10
38.683708
 20
-2.996098
 30
0.0
 11
38.502632
 21
-2.985107
 31
0.0
  0
LINE
  5
953
330
1F
100
AcDbEntity
  8
1
  6
CONTINUOUS
370
50
 62
4
100
AcDbLine
 10
38.697666
 20
2.985978
 30
0.0
 11
38.505733
 21
2.997061
 31
0.0
  0
LINE
  5
954
330
1F
100
AcDbEntity
  8
1
  6
CONTINUOUS
370
50
 62
4
100
AcDbLine
 10
42.777905
 20
2.968947
 30
0.0
 11
42.238052
 21
2.999926
 31
0.0
  0
LINE
  5
955
330
1F
100
AcDbEntity
  8
1
  6
CONTINUOUS
370
50
 62
4
100
AcDbLine
 10
38.154514
 20
-2.99585
 30
0.0
 11
38.100624
 21
-2.993078
 31
0.0
  0
LINE
  5
956
330
1F
100
AcDbEntity
  8
1
  6
CONTINUOUS
370
50
 62
4
100
AcDbLine
 10
43.204788
 20
2.980956
 30
0.0
 11
42.829048
 21
2.999699
 31
0.0
  0
LINE
  5
957
330
1F
100
AcDbEntity
  8
1
  6
CONTINUOUS
370
50
 62
4
100
AcDbLine
 10
42.238052
 20
-2.999926
 30
0.0
 11
41.771255
 21
-2.978274
 31
0.0
  0
LINE
  5
958
330
1F
100
AcDbEntity
  8
1
  6
CONTINUOUS
370
50
 62
4
100
AcDbLine
 10
46.67622
 20
-3.00077
 30
0.0
 11
46.279148
 21
-2.984069
 31
0.0
  0
LINE
  5
959
330
1F
100
AcDbEntity
  8
1
  6
CONTINUOUS
370
50
 62
4
100
AcDbLine
 10
39.263824
 20
2.983972
 30
0.0
 11
38.872807
 21
2.999908
 31
0.0
  0
LINE
  5
95A
330
1F
100
AcDbEntity
  8
1
  6
CONTINUOUS
370
50
 62
4
100
AcDbLine
 10
38.21077
 20
-2.997992
 30
0.0
 11
38.154514
 21
-2.99585
 31
0.0
  0
LINE
  5
95B
330
1F
100
AcDbEntity
  8
1
  6
CONTINUOUS
370
50
 62
4
100
AcDbLine
 10
46.955593
 20
2.990268
 30
0.0
 11
46.67622
 21
3.00077
 31
0.0
  0
LINE
  5
95C
330
1F
100
AcDbEntity
  8
1
  6
CONTINUOUS
370
50
 62
4
100
AcDbLine
 10
46.470112
 20
2.987627
 30
0.0
 11
46.120022
 21
2.999956
 31
0.0
  0
LINE
  5
95D
330
1F
100
AcDbEntity
  8
1
  6
CONTINUOUS
370
50
 62
4
100
AcDbLine
 10
46.120022
 20
-2.999956
 30
0.0
 11
45.818798
 21
-2.989697
 31
0.0
  0
LINE
  5
95E
330
1F
100
AcDbEntity
  8
1
  6
CONTINUOUS
370
50
 62
4
100
AcDbLine
 10
36.421074
 20
2.995952
 30
0.0
 11
36.394459
 21
2.996805
 31
0.0
  0
LINE
  5
95F
330
1F
100
AcDbEntity
  8
1
  6
CONTINUOUS
370
50
 62
4
100
AcDbLine
 10
36.448643
 20
2.995074
 30
0.0
 11
36.421074
 21
2.995952
 31
0.0
  0
LINE
  5
960
330
1F
100
AcDbEntity
  8
1
  6
CONTINUOUS
370
50
 62
4
100
AcDbLine
 10
36.394459
 20
2.996805
 30
0.0
 11
36.368896
 21
2.997615
 31
0.0
  0
LINE
  5
961
330
1F
100
AcDbEntity
  8
1
  6
CONTINUOUS
370
50
 62
4
100
AcDbLine
 10
36.477036
 20
2.994188
 30
0.0
 11
36.448643
 21
2.995074
 31
0.0
  0
LINE
  5
962
330
1F
100
AcDbEntity
  8
1
  6
CONTINUOUS
370
50
 62
4
100
AcDbLine
 10
42.829048
 20
-2.999699
 30
0.0
 11
42.429817
 21
-2.987543
 31
0.0
  0
LINE
  5
963
330
1F
100
AcDbEntity
  8
1
  6
CONTINUOUS
370
50
 62
4
100
AcDbLine
 10
36.368896
 20
2.997615
 30
0.0
 11
36.344479
 21
2.998355
 31
0.0
  0
LINE
  5
964
330
1F
100
AcDbEntity
  8
1
  6
CONTINUOUS
370
50
 62
4
100
AcDbLine
 10
36.506138
 20
2.993313
 30
0.0
 11
36.477036
 21
2.994188
 31
0.0
  0
LINE
  5
965
330
1F
100
AcDbEntity
  8
1
  6
CONTINUOUS
370
50
 62
4
100
AcDbLine
 10
46.49409499999999
 20
2.100167
 30
0.0
 11
46.139904
 21
2.110731
 31
0.0
  0
LINE
  5
966
330
1F
100
AcDbEntity
  8
1
  6
CONTINUOUS
370
50
 62
4
100
AcDbLine
 10
36.535824
 20
2.992465
 30
0.0
 11
36.506138
 21
2.993313
 31
0.0
  0
LINE
  5
967
330
1F
100
AcDbEntity
  8
1
  6
CONTINUOUS
370
50
 62
4
100
AcDbLine
 10
38.687519
 20
2.100909
 30
0.0
 11
38.343758
 21
2.110682
 31
0.0
  0
LINE
  5
968
330
1F
100
AcDbEntity
  8
1
  6
CONTINUOUS
370
50
 62
4
100
AcDbLine
 10
36.344479
 20
2.998355
 30
0.0
 11
36.321404
 21
2.998991
 31
0.0
  0
LINE
  5
969
330
1F
100
AcDbEntity
  8
1
  6
CONTINUOUS
370
50
 62
4
100
AcDbLine
 10
49.996998
 20
-2.999999
 30
0.0
 11
49.756897
 21
-2.993456
 31
0.0
  0
LINE
  5
96A
330
1F
100
AcDbEntity
  8
1
  6
CONTINUOUS
370
50
 62
4
100
AcDbLine
 10
36.565968
 20
2.991664
 30
0.0
 11
36.535824
 21
2.992465
 31
0.0
  0
LINE
  5
96B
330
1F
100
AcDbEntity
  8
1
  6
CONTINUOUS
370
50
 62
4
100
AcDbLine
 10
42.567387
 20
2.102473
 30
0.0
 11
42.223843
 21
2.111071
 31
0.0
  0
LINE
  5
96C
330
1F
100
AcDbEntity
  8
1
  6
CONTINUOUS
370
50
 62
4
100
AcDbLine
 10
38.269379
 20
-2.999417
 30
0.0
 11
38.21077
 21
-2.997992
 31
0.0
  0
LINE
  5
96D
330
1F
100
AcDbEntity
  8
1
  6
CONTINUOUS
370
50
 62
4
100
AcDbLine
 10
36.59647
 20
2.990926
 30
0.0
 11
36.565968
 21
2.991664
 31
0.0
  0
LINE
  5
96E
330
1F
100
AcDbEntity
  8
1
  6
CONTINUOUS
370
50
 62
4
100
AcDbLine
 10
36.321404
 20
2.998991
 30
0.0
 11
36.299873
 21
2.999491
 31
0.0
  0
LINE
  5
96F
330
1F
100
AcDbEntity
  8
1
  6
CONTINUOUS
370
50
 62
4
100
AcDbLine
 10
49.528313
 20
2.502091
 30
0.0
 11
49.494053
 21
2.502871
 31
0.0
  0
LINE
  5
970
330
1F
100
AcDbEntity
  8
1
  6
CONTINUOUS
370
50
 62
4
100
AcDbLine
 10
49.561207
 20
2.501346
 30
0.0
 11
49.528313
 21
2.502091
 31
0.0
  0
LINE
  5
971
330
1F
100
AcDbEntity
  8
1
  6
CONTINUOUS
370
50
 62
4
100
AcDbLine
 10
49.494053
 20
2.502871
 30
0.0
 11
49.458431
 21
2.503644
 31
0.0
  0
LINE
  5
972
330
1F
100
AcDbEntity
  8
1
  6
CONTINUOUS
370
50
 62
4
100
AcDbLine
 10
36.627361
 20
2.990259
 30
0.0
 11
36.59647
 21
2.990926
 31
0.0
  0
LINE
  5
973
330
1F
100
AcDbEntity
  8
1
  6
CONTINUOUS
370
50
 62
4
100
AcDbLine
 10
49.592773
 20
2.500674
 30
0.0
 11
49.561207
 21
2.501346
 31
0.0
  0
LINE
  5
974
330
1F
100
AcDbEntity
  8
1
  6
CONTINUOUS
370
50
 62
4
100
AcDbLine
 10
38.872807
 20
-2.999908
 30
0.0
 11
38.683708
 21
-2.996098
 31
0.0
  0
LINE
  5
975
330
1F
100
AcDbEntity
  8
1
  6
CONTINUOUS
370
50
 62
4
100
AcDbLine
 10
49.458431
 20
2.503644
 30
0.0
 11
49.421459
 21
2.504371
 31
0.0
  0
LINE
  5
976
330
1F
100
AcDbEntity
  8
1
  6
CONTINUOUS
370
50
 62
4
100
AcDbLine
 10
36.658619
 20
2.989669
 30
0.0
 11
36.627361
 21
2.990259
 31
0.0
  0
LINE
  5
977
330
1F
100
AcDbEntity
  8
1
  6
CONTINUOUS
370
50
 62
4
100
AcDbLine
 10
49.626369
 20
2.500068
 30
0.0
 11
49.592773
 21
2.500674
 31
0.0
  0
LINE
  5
978
330
1F
100
AcDbEntity
  8
1
  6
CONTINUOUS
370
50
 62
4
100
AcDbLine
 10
38.505733
 20
2.997061
 30
0.0
 11
38.330326
 21
3.000039
 31
0.0
  0
LINE
  5
979
330
1F
100
AcDbEntity
  8
1
  6
CONTINUOUS
370
50
 62
4
100
AcDbLine
 10
49.421459
 20
2.504371
 30
0.0
 11
49.383137
 21
2.505011
 31
0.0
  0
LINE
  5
97A
330
1F
100
AcDbEntity
  8
1
  6
CONTINUOUS
370
50
 62
4
100
AcDbLine
 10
36.299873
 20
2.999491
 30
0.0
 11
36.280094
 21
2.999821
 31
0.0
  0
LINE
  5
97B
330
1F
100
AcDbEntity
  8
1
  6
CONTINUOUS
370
50
 62
4
100
AcDbLine
 10
36.690166
 20
2.98916
 30
0.0
 11
36.658619
 21
2.989669
 31
0.0
  0
LINE
  5
97C
330
1F
100
AcDbEntity
  8
1
  6
CONTINUOUS
370
50
 62
4
100
AcDbLine
 10
36.721947
 20
2.988739
 30
0.0
 11
36.690166
 21
2.98916
 31
0.0
  0
LINE
  5
97D
330
1F
100
AcDbEntity
  8
1
  6
CONTINUOUS
370
50
 62
4
100
AcDbLine
 10
49.383137
 20
2.505011
 30
0.0
 11
49.343472
 21
2.505525
 31
0.0
  0
LINE
  5
97E
330
1F
100
AcDbEntity
  8
1
  6
CONTINUOUS
370
50
 62
4
100
AcDbLine
 10
49.662201
 20
2.499639
 30
0.0
 11
49.626369
 21
2.500068
 31
0.0
  0
LINE
  5
97F
330
1F
100
AcDbEntity
  8
1
  6
CONTINUOUS
370
50
 62
4
100
AcDbLine
 10
36.753887
 20
2.988412
 30
0.0
 11
36.721947
 21
2.988739
 31
0.0
  0
LINE
  5
980
330
1F
100
AcDbEntity
  8
1
  6
CONTINUOUS
370
50
 62
4
100
AcDbLine
 10
38.330326
 20
-3.000039
 30
0.0
 11
38.269379
 21
-2.999417
 31
0.0
  0
LINE
  5
981
330
1F
100
AcDbEntity
  8
1
  6
CONTINUOUS
370
50
 62
4
100
AcDbLine
 10
49.343472
 20
2.505525
 30
0.0
 11
49.302467
 21
2.505872
 31
0.0
  0
LINE
  5
982
330
1F
100
AcDbEntity
  8
1
  6
CONTINUOUS
370
50
 62
4
100
AcDbLine
 10
36.280094
 20
2.999821
 30
0.0
 11
36.262291
 21
2.999949
 31
0.0
  0
LINE
  5
983
330
1F
100
AcDbEntity
  8
1
  6
CONTINUOUS
370
50
 62
4
100
AcDbLine
 10
36.785923
 20
2.988185
 30
0.0
 11
36.753887
 21
2.988412
 31
0.0
  0
LINE
  5
984
330
1F
100
AcDbEntity
  8
1
  6
CONTINUOUS
370
50
 62
4
100
AcDbLine
 10
36.817986
 20
2.988062
 30
0.0
 11
36.785923
 21
2.988185
 31
0.0
  0
LINE
  5
985
330
1F
100
AcDbEntity
  8
1
  6
CONTINUOUS
370
50
 62
4
100
AcDbLine
 10
49.302467
 20
2.505872
 30
0.0
 11
49.260132
 21
2.506012
 31
0.0
  0
LINE
  5
986
330
1F
100
AcDbEntity
  8
1
  6
CONTINUOUS
370
50
 62
4
100
AcDbLine
 10
36.986832
 20
2.987706
 30
0.0
 11
36.817986
 21
2.988062
 31
0.0
  0
LINE
  5
987
330
1F
100
AcDbEntity
  8
1
  6
CONTINUOUS
370
50
 62
4
100
AcDbLine
 10
37.155685
 20
2.987355
 30
0.0
 11
36.986832
 21
2.987706
 31
0.0
  0
LINE
  5
988
330
1F
100
AcDbEntity
  8
1
  6
CONTINUOUS
370
50
 62
4
100
AcDbLine
 10
49.697559
 20
2.499566
 30
0.0
 11
49.662201
 21
2.499639
 31
0.0
  0
LINE
  5
989
330
1F
100
AcDbEntity
  8
1
  6
CONTINUOUS
370
50
 62
4
100
AcDbLine
 10
37.324547
 20
2.98701
 30
0.0
 11
37.155685
 21
2.987355
 31
0.0
  0
LINE
  5
98A
330
1F
100
AcDbEntity
  8
1
  6
CONTINUOUS
370
50
 62
4
100
AcDbLine
 10
37.493408
 20
2.98667
 30
0.0
 11
37.324547
 21
2.98701
 31
0.0
  0
LINE
  5
98B
330
1F
100
AcDbEntity
  8
1
  6
CONTINUOUS
370
50
 62
4
100
AcDbLine
 10
37.662277
 20
2.986336
 30
0.0
 11
37.493408
 21
2.98667
 31
0.0
  0
LINE
  5
98C
330
1F
100
AcDbEntity
  8
1
  6
CONTINUOUS
370
50
 62
4
100
AcDbLine
 10
37.831139
 20
2.986009
 30
0.0
 11
37.662277
 21
2.986336
 31
0.0
  0
LINE
  5
98D
330
1F
100
AcDbEntity
  8
1
  6
CONTINUOUS
370
50
 62
4
100
AcDbLine
 10
38.0
 20
2.985689
 30
0.0
 11
37.831139
 21
2.986009
 31
0.0
  0
LINE
  5
98E
330
1F
100
AcDbEntity
  8
1
  6
CONTINUOUS
370
50
 62
4
100
AcDbLine
 10
42.778015
 20
-2.99994
 30
0.0
 11
42.226837
 21
-2.999935
 31
0.0
  0
LINE
  5
98F
330
1F
100
AcDbEntity
  8
1
  6
CONTINUOUS
370
50
 62
4
100
AcDbLine
 10
46.66392099999999
 20
-2.999972
 30
0.0
 11
46.13271
 21
-2.999968
 31
0.0
  0
LINE
  5
990
330
1F
100
AcDbEntity
  8
1
  6
CONTINUOUS
370
50
 62
4
100
AcDbLine
 10
38.872158
 20
-2.999907
 30
0.0
 11
38.341217
 21
-2.999903
 31
0.0
  0
LINE
  5
991
330
1F
100
AcDbEntity
  8
1
  6
CONTINUOUS
370
50
 62
4
100
AcDbLine
 10
49.994152
 20
-3.0
 30
0.0
 11
50.0
 21
-3.0
 31
0.0
  0
LINE
  5
992
330
1F
100
AcDbEntity
  8
1
  6
CONTINUOUS
370
50
 62
4
100
AcDbLine
 10
32.0
 20
-2.99995
 30
0.0
 11
36.261276
 21
-2.99995
 31
0.0
  0
LINE
  5
993
330
1F
100
AcDbEntity
  8
1
  6
CONTINUOUS
370
50
 62
4
100
AcDbLine
 10
32.0
 20
2.99995
 30
0.0
 11
36.261276
 21
2.99995
 31
0.0
  0
LINE
  5
994
330
1F
100
AcDbEntity
  8
1
  6
CONTINUOUS
370
50
 62
4
100
AcDbLine
 10
46.13271
 20
2.999968
 30
0.0
 11
46.66392099999999
 21
2.999972
 31
0.0
  0
LINE
  5
995
330
1F
100
AcDbEntity
  8
1
  6
CONTINUOUS
370
50
 62
4
100
AcDbLine
 10
38.341217
 20
2.999903
 30
0.0
 11
38.872162
 21
2.999907
 31
0.0
  0
LINE
  5
996
330
1F
100
AcDbEntity
  8
1
  6
CONTINUOUS
370
50
 62
4
100
AcDbLine
 10
42.226837
 20
2.999935
 30
0.0
 11
42.778015
 21
2.99994
 31
0.0
  0
LINE
  5
997
330
1F
100
AcDbEntity
  8
1
  6
CONTINUOUS
370
50
 62
4
100
AcDbLine
 10
37.831139
 20
-2.986009
 30
0.0
 11
38.0
 21
-2.985689
 31
0.0
  0
LINE
  5
998
330
1F
100
AcDbEntity
  8
1
  6
CONTINUOUS
370
50
 62
4
100
AcDbLine
 10
37.662277
 20
-2.986336
 30
0.0
 11
37.831139
 21
-2.986009
 31
0.0
  0
LINE
  5
999
330
1F
100
AcDbEntity
  8
1
  6
CONTINUOUS
370
50
 62
4
100
AcDbLine
 10
37.493408
 20
-2.98667
 30
0.0
 11
37.662277
 21
-2.986336
 31
0.0
  0
LINE
  5
99A
330
1F
100
AcDbEntity
  8
1
  6
CONTINUOUS
370
50
 62
4
100
AcDbLine
 10
37.324547
 20
-2.98701
 30
0.0
 11
37.493408
 21
-2.98667
 31
0.0
  0
LINE
  5
99B
330
1F
100
AcDbEntity
  8
1
  6
CONTINUOUS
370
50
 62
4
100
AcDbLine
 10
37.155685
 20
-2.987355
 30
0.0
 11
37.324547
 21
-2.98701
 31
0.0
  0
LINE
  5
99C
330
1F
100
AcDbEntity
  8
1
  6
CONTINUOUS
370
50
 62
4
100
AcDbLine
 10
36.986832
 20
-2.987706
 30
0.0
 11
37.155685
 21
-2.987355
 31
0.0
  0
LINE
  5
99D
330
1F
100
AcDbEntity
  8
1
  6
CONTINUOUS
370
50
 62
4
100
AcDbLine
 10
36.817986
 20
-2.988062
 30
0.0
 11
36.986832
 21
-2.987706
 31
0.0
  0
LINE
  5
99E
330
1F
100
AcDbEntity
  8
1
  6
CONTINUOUS
370
50
 62
4
100
AcDbLine
 10
49.216473
 20
2.505905
 30
0.0
 11
49.260132
 21
2.506012
 31
0.0
  0
LINE
  5
99F
330
1F
100
AcDbEntity
  8
1
  6
CONTINUOUS
370
50
 62
4
100
AcDbLine
 10
36.785923
 20
-2.988185
 30
0.0
 11
36.817986
 21
-2.988062
 31
0.0
  0
LINE
  5
9A0
330
1F
100
AcDbEntity
  8
1
  6
CONTINUOUS
370
50
 62
4
100
AcDbLine
 10
36.753887
 20
-2.988412
 30
0.0
 11
36.785923
 21
-2.988185
 31
0.0
  0
LINE
  5
9A1
330
1F
100
AcDbEntity
  8
1
  6
CONTINUOUS
370
50
 62
4
100
AcDbLine
 10
36.262291
 20
-2.999949
 30
0.0
 11
36.280094
 21
-2.999821
 31
0.0
  0
LINE
  5
9A2
330
1F
100
AcDbEntity
  8
1
  6
CONTINUOUS
370
50
 62
4
100
AcDbLine
 10
36.244556
 20
2.999796
 30
0.0
 11
36.262291
 21
2.999949
 31
0.0
  0
LINE
  5
9A3
330
1F
100
AcDbEntity
  8
1
  6
CONTINUOUS
370
50
 62
4
100
AcDbLine
 10
49.17149
 20
2.505511
 30
0.0
 11
49.216473
 21
2.505905
 31
0.0
  0
LINE
  5
9A4
330
1F
100
AcDbEntity
  8
1
  6
CONTINUOUS
370
50
 62
4
100
AcDbLine
 10
38.269379
 20
2.999417
 30
0.0
 11
38.330326
 21
3.000039
 31
0.0
  0
LINE
  5
9A5
330
1F
100
AcDbEntity
  8
1
  6
CONTINUOUS
370
50
 62
4
100
AcDbLine
 10
36.721947
 20
-2.988739
 30
0.0
 11
36.753887
 21
-2.988412
 31
0.0
  0
LINE
  5
9A6
330
1F
100
AcDbEntity
  8
1
  6
CONTINUOUS
370
50
 62
4
100
AcDbLine
 10
36.690166
 20
-2.98916
 30
0.0
 11
36.721947
 21
-2.988739
 31
0.0
  0
LINE
  5
9A7
330
1F
100
AcDbEntity
  8
1
  6
CONTINUOUS
370
50
 62
4
100
AcDbLine
 10
49.697559
 20
2.499566
 30
0.0
 11
49.731567
 21
2.500037
 31
0.0
  0
LINE
  5
9A8
330
1F
100
AcDbEntity
  8
1
  6
CONTINUOUS
370
50
 62
4
100
AcDbLine
 10
49.858913
 20
2.997993
 30
0.0
 11
50.0
 21
2.999995
 31
0.0
  0
LINE
  5
9A9
330
1F
100
AcDbEntity
  8
1
  6
CONTINUOUS
370
50
 62
4
100
AcDbLine
 10
49.125191
 20
2.504789
 30
0.0
 11
49.17149
 21
2.505511
 31
0.0
  0
LINE
  5
9AA
330
1F
100
AcDbEntity
  8
1
  6
CONTINUOUS
370
50
 62
4
100
AcDbLine
 10
37.831139
 20
1.743179
 30
0.0
 11
38.0
 21
1.745864
 31
0.0
  0
LINE
  5
9AB
330
1F
100
AcDbEntity
  8
1
  6
CONTINUOUS
370
50
 62
4
100
AcDbLine
 10
36.658619
 20
-2.989669
 30
0.0
 11
36.690166
 21
-2.98916
 31
0.0
  0
LINE
  5
9AC
330
1F
100
AcDbEntity
  8
1
  6
CONTINUOUS
370
50
 62
4
100
AcDbLine
 10
37.662277
 20
1.740399
 30
0.0
 11
37.831139
 21
1.743179
 31
0.0
  0
LINE
  5
9AD
330
1F
100
AcDbEntity
  8
1
  6
CONTINUOUS
370
50
 62
4
100
AcDbLine
 10
36.280094
 20
-2.999821
 30
0.0
 11
36.299873
 21
-2.999491
 31
0.0
  0
LINE
  5
9AE
330
1F
100
AcDbEntity
  8
1
  6
CONTINUOUS
370
50
 62
4
100
AcDbLine
 10
37.493408
 20
1.737524
 30
0.0
 11
37.662277
 21
1.740399
 31
0.0
  0
LINE
  5
9AF
330
1F
100
AcDbEntity
  8
1
  6
CONTINUOUS
370
50
 62
4
100
AcDbLine
 10
37.324547
 20
1.734555
 30
0.0
 11
37.493408
 21
1.737524
 31
0.0
  0
LINE
  5
9B0
330
1F
100
AcDbEntity
  8
1
  6
CONTINUOUS
370
50
 62
4
100
AcDbLine
 10
37.831139
 20
-1.24283
 30
0.0
 11
38.0
 21
-1.239825
 31
0.0
  0
LINE
  5
9B1
330
1F
100
AcDbEntity
  8
1
  6
CONTINUOUS
370
50
 62
4
100
AcDbLine
 10
37.155685
 20
1.731492
 30
0.0
 11
37.324547
 21
1.734555
 31
0.0
  0
LINE
  5
9B2
330
1F
100
AcDbEntity
  8
1
  6
CONTINUOUS
370
50
 62
4
100
AcDbLine
 10
37.662277
 20
-1.245937
 30
0.0
 11
37.831139
 21
-1.24283
 31
0.0
  0
LINE
  5
9B3
330
1F
100
AcDbEntity
  8
1
  6
CONTINUOUS
370
50
 62
4
100
AcDbLine
 10
36.986832
 20
1.728336
 30
0.0
 11
37.155685
 21
1.731492
 31
0.0
  0
LINE
  5
9B4
330
1F
100
AcDbEntity
  8
1
  6
CONTINUOUS
370
50
 62
4
100
AcDbLine
 10
36.627361
 20
-2.990259
 30
0.0
 11
36.658619
 21
-2.989669
 31
0.0
  0
LINE
  5
9B5
330
1F
100
AcDbEntity
  8
1
  6
CONTINUOUS
370
50
 62
4
100
AcDbLine
 10
37.493408
 20
-1.249146
 30
0.0
 11
37.662277
 21
-1.245937
 31
0.0
  0
LINE
  5
9B6
330
1F
100
AcDbEntity
  8
1
  6
CONTINUOUS
370
50
 62
4
100
AcDbLine
 10
36.817986
 20
1.725088
 30
0.0
 11
36.986832
 21
1.728336
 31
0.0
  0
LINE
  5
9B7
330
1F
100
AcDbEntity
  8
1
  6
CONTINUOUS
370
50
 62
4
100
AcDbLine
 10
37.324547
 20
-1.252455
 30
0.0
 11
37.493408
 21
-1.249146
 31
0.0
  0
LINE
  5
9B8
330
1F
100
AcDbEntity
  8
1
  6
CONTINUOUS
370
50
 62
4
100
AcDbLine
 10
37.155685
 20
-1.255863
 30
0.0
 11
37.324547
 21
-1.252455
 31
0.0
  0
LINE
  5
9B9
330
1F
100
AcDbEntity
  8
1
  6
CONTINUOUS
370
50
 62
4
100
AcDbLine
 10
36.986832
 20
-1.25937
 30
0.0
 11
37.155685
 21
-1.255863
 31
0.0
  0
LINE
  5
9BA
330
1F
100
AcDbEntity
  8
1
  6
CONTINUOUS
370
50
 62
4
100
AcDbLine
 10
36.817986
 20
-1.262974
 30
0.0
 11
36.986832
 21
-1.25937
 31
0.0
  0
LINE
  5
9BB
330
1F
100
AcDbEntity
  8
1
  6
CONTINUOUS
370
50
 62
4
100
AcDbLine
 10
36.59647
 20
-2.990926
 30
0.0
 11
36.627361
 21
-2.990259
 31
0.0
  0
LINE
  5
9BC
330
1F
100
AcDbEntity
  8
1
  6
CONTINUOUS
370
50
 62
4
100
AcDbLine
 10
49.078045
 20
2.503711
 30
0.0
 11
49.125191
 21
2.504789
 31
0.0
  0
LINE
  5
9BD
330
1F
100
AcDbEntity
  8
1
  6
CONTINUOUS
370
50
 62
4
100
AcDbLine
 10
45.785713
 20
2.102532
 30
0.0
 11
46.139904
 21
2.110731
 31
0.0
  0
LINE
  5
9BE
330
1F
100
AcDbEntity
  8
1
  6
CONTINUOUS
370
50
 62
4
100
AcDbLine
 10
36.299873
 20
-2.999491
 30
0.0
 11
36.321404
 21
-2.998991
 31
0.0
  0
LINE
  5
9BF
330
1F
100
AcDbEntity
  8
1
  6
CONTINUOUS
370
50
 62
4
100
AcDbLine
 10
36.565968
 20
-2.991664
 30
0.0
 11
36.59647
 21
-2.990926
 31
0.0
  0
LINE
  5
9C0
330
1F
100
AcDbEntity
  8
1
  6
CONTINUOUS
370
50
 62
4
100
AcDbLine
 10
38.21077
 20
2.997992
 30
0.0
 11
38.269379
 21
2.999417
 31
0.0
  0
LINE
  5
9C1
330
1F
100
AcDbEntity
  8
1
  6
CONTINUOUS
370
50
 62
4
100
AcDbLine
 10
41.880291
 20
2.10269
 30
0.0
 11
42.223843
 21
2.111071
 31
0.0
  0
LINE
  5
9C2
330
1F
100
AcDbEntity
  8
1
  6
CONTINUOUS
370
50
 62
4
100
AcDbLine
 10
36.535824
 20
-2.992465
 30
0.0
 11
36.565968
 21
-2.991664
 31
0.0
  0
LINE
  5
9C3
330
1F
100
AcDbEntity
  8
1
  6
CONTINUOUS
370
50
 62
4
100
AcDbLine
 10
38.0
 20
2.101238
 30
0.0
 11
38.343758
 21
2.110682
 31
0.0
  0
LINE
  5
9C4
330
1F
100
AcDbEntity
  8
1
  6
CONTINUOUS
370
50
 62
4
100
AcDbLine
 10
36.321404
 20
-2.998991
 30
0.0
 11
36.344479
 21
-2.998355
 31
0.0
  0
LINE
  5
9C5
330
1F
100
AcDbEntity
  8
1
  6
CONTINUOUS
370
50
 62
4
100
AcDbLine
 10
36.506138
 20
-2.993313
 30
0.0
 11
36.535824
 21
-2.992465
 31
0.0
  0
LINE
  5
9C6
330
1F
100
AcDbEntity
  8
1
  6
CONTINUOUS
370
50
 62
4
100
AcDbLine
 10
38.872807
 20
-2.999908
 30
0.0
 11
39.156414
 21
-2.991477
 31
0.0
  0
LINE
  5
9C7
330
1F
100
AcDbEntity
  8
1
  6
CONTINUOUS
370
50
 62
4
100
AcDbLine
 10
36.477036
 20
-2.994188
 30
0.0
 11
36.506138
 21
-2.993313
 31
0.0
  0
LINE
  5
9C8
330
1F
100
AcDbEntity
  8
1
  6
CONTINUOUS
370
50
 62
4
100
AcDbLine
 10
36.344479
 20
-2.998355
 30
0.0
 11
36.368896
 21
-2.997615
 31
0.0
  0
LINE
  5
9C9
330
1F
100
AcDbEntity
  8
1
  6
CONTINUOUS
370
50
 62
4
100
AcDbLine
 10
49.031078
 20
2.502281
 30
0.0
 11
49.078045
 21
2.503711
 31
0.0
  0
LINE
  5
9CA
330
1F
100
AcDbEntity
  8
1
  6
CONTINUOUS
370
50
 62
4
100
AcDbLine
 10
36.448643
 20
-2.995074
 30
0.0
 11
36.477036
 21
-2.994188
 31
0.0
  0
LINE
  5
9CB
330
1F
100
AcDbEntity
  8
1
  6
CONTINUOUS
370
50
 62
4
100
AcDbLine
 10
36.368896
 20
-2.997615
 30
0.0
 11
36.394459
 21
-2.996805
 31
0.0
  0
LINE
  5
9CC
330
1F
100
AcDbEntity
  8
1
  6
CONTINUOUS
370
50
 62
4
100
AcDbLine
 10
36.421074
 20
-2.995952
 30
0.0
 11
36.448643
 21
-2.995074
 31
0.0
  0
LINE
  5
9CD
330
1F
100
AcDbEntity
  8
1
  6
CONTINUOUS
370
50
 62
4
100
AcDbLine
 10
36.394459
 20
-2.996805
 30
0.0
 11
36.421074
 21
-2.995952
 31
0.0
  0
LINE
  5
9CE
330
1F
100
AcDbEntity
  8
1
  6
CONTINUOUS
370
50
 62
4
100
AcDbLine
 10
45.836681
 20
2.990829
 30
0.0
 11
46.120022
 21
2.999956
 31
0.0
  0
LINE
  5
9CF
330
1F
100
AcDbEntity
  8
1
  6
CONTINUOUS
370
50
 62
4
100
AcDbLine
 10
36.788002
 20
1.724084
 30
0.0
 11
36.817986
 21
1.725088
 31
0.0
  0
LINE
  5
9D0
330
1F
100
AcDbEntity
  8
1
  6
CONTINUOUS
370
50
 62
4
100
AcDbLine
 10
36.23016399999999
 20
2.999272
 30
0.0
 11
36.244556
 21
2.999796
 31
0.0
  0
LINE
  5
9D1
330
1F
100
AcDbEntity
  8
1
  6
CONTINUOUS
370
50
 62
4
100
AcDbLine
 10
49.731567
 20
2.500037
 30
0.0
 11
49.765499
 21
2.50132
 31
0.0
  0
LINE
  5
9D2
330
1F
100
AcDbEntity
  8
1
  6
CONTINUOUS
370
50
 62
4
100
AcDbLine
 10
38.154514
 20
2.99585
 30
0.0
 11
38.21077
 21
2.997992
 31
0.0
  0
LINE
  5
9D3
330
1F
100
AcDbEntity
  8
1
  6
CONTINUOUS
370
50
 62
4
100
AcDbLine
 10
48.984314
 20
2.500495
 30
0.0
 11
49.031078
 21
2.502281
 31
0.0
  0
LINE
  5
9D4
330
1F
100
AcDbEntity
  8
1
  6
CONTINUOUS
370
50
 62
4
100
AcDbLine
 10
46.67622
 20
-3.00077
 30
0.0
 11
46.96426
 21
-2.989623
 31
0.0
  0
LINE
  5
9D5
330
1F
100
AcDbEntity
  8
1
  6
CONTINUOUS
370
50
 62
4
100
AcDbLine
 10
42.829048
 20
-2.999699
 30
0.0
 11
43.101505
 21
-2.989097
 31
0.0
  0
LINE
  5
9D6
330
1F
100
AcDbEntity
  8
1
  6
CONTINUOUS
370
50
 62
4
100
AcDbLine
 10
36.781689
 20
-1.264444
 30
0.0
 11
36.817986
 21
-1.262974
 31
0.0
  0
LINE
  5
9D7
330
1F
100
AcDbEntity
  8
1
  6
CONTINUOUS
370
50
 62
4
100
AcDbLine
 10
48.93774
 20
2.498348
 30
0.0
 11
48.984314
 21
2.500495
 31
0.0
  0
LINE
  5
9D8
330
1F
100
AcDbEntity
  8
1
  6
CONTINUOUS
370
50
 62
4
100
AcDbLine
 10
41.756416
 20
2.976828
 30
0.0
 11
42.238052
 21
2.999926
 31
0.0
  0
LINE
  5
9D9
330
1F
100
AcDbEntity
  8
1
  6
CONTINUOUS
370
50
 62
4
100
AcDbLine
 10
38.100624
 20
2.993078
 30
0.0
 11
38.154514
 21
2.99585
 31
0.0
  0
LINE
  5
9DA
330
1F
100
AcDbEntity
  8
1
  6
CONTINUOUS
370
50
 62
4
100
AcDbLine
 10
48.891338
 20
2.495836
 30
0.0
 11
48.93774
 21
2.498348
 31
0.0
  0
LINE
  5
9DB
330
1F
100
AcDbEntity
  8
1
  6
CONTINUOUS
370
50
 62
4
100
AcDbLine
 10
49.638805
 20
2.985132
 30
0.0
 11
49.858913
 21
2.997993
 31
0.0
  0
LINE
  5
9DC
330
1F
100
AcDbEntity
  8
1
  6
CONTINUOUS
370
50
 62
4
100
AcDbLine
 10
36.758038
 20
1.722235
 30
0.0
 11
36.788002
 21
1.724084
 31
0.0
  0
LINE
  5
9DD
330
1F
100
AcDbEntity
  8
1
  6
CONTINUOUS
370
50
 62
4
100
AcDbLine
 10
48.8451
 20
2.492952
 30
0.0
 11
48.891338
 21
2.495836
 31
0.0
  0
LINE
  5
9DE
330
1F
100
AcDbEntity
  8
1
  6
CONTINUOUS
370
50
 62
4
100
AcDbLine
 10
38.049114
 20
2.989762
 30
0.0
 11
38.100624
 21
2.993078
 31
0.0
  0
LINE
  5
9DF
330
1F
100
AcDbEntity
  8
1
  6
CONTINUOUS
370
50
 62
4
100
AcDbLine
 10
49.765499
 20
2.50132
 30
0.0
 11
49.79935099999999
 21
2.50387
 31
0.0
  0
LINE
  5
9E0
330
1F
100
AcDbEntity
  8
1
  6
CONTINUOUS
370
50
 62
4
100
AcDbLine
 10
38.0
 20
2.985986
 30
0.0
 11
38.049114
 21
2.989762
 31
0.0
  0
LINE
  5
9E1
330
1F
100
AcDbEntity
  8
1
  6
CONTINUOUS
370
50
 62
4
100
AcDbLine
 10
36.745441
 20
-1.267287
 30
0.0
 11
36.781689
 21
-1.264444
 31
0.0
  0
LINE
  5
9E2
330
1F
100
AcDbEntity
  8
1
  6
CONTINUOUS
370
50
 62
4
100
AcDbLine
 10
36.219372
 20
2.998329
 30
0.0
 11
36.23016399999999
 21
2.999272
 31
0.0
  0
LINE
  5
9E3
330
1F
100
AcDbEntity
  8
1
  6
CONTINUOUS
370
50
 62
4
100
AcDbLine
 10
39.156414
 20
-2.991477
 30
0.0
 11
39.440811
 21
-2.966513
 31
0.0
  0
LINE
  5
9E4
330
1F
100
AcDbEntity
  8
1
  6
CONTINUOUS
370
50
 62
4
100
AcDbLine
 10
45.553143
 20
2.965269
 30
0.0
 11
45.836681
 21
2.990829
 31
0.0
  0
LINE
  5
9E5
330
1F
100
AcDbEntity
  8
1
  6
CONTINUOUS
370
50
 62
4
100
AcDbLine
 10
36.72814899999999
 20
1.719536
 30
0.0
 11
36.758038
 21
1.722235
 31
0.0
  0
LINE
  5
9E6
330
1F
100
AcDbEntity
  8
1
  6
CONTINUOUS
370
50
 62
4
100
AcDbLine
 10
46.96426
 20
-2.989623
 30
0.0
 11
47.14164
 21
-2.972533
 31
0.0
  0
LINE
  5
9E7
330
1F
100
AcDbEntity
  8
1
  6
CONTINUOUS
370
50
 62
4
100
AcDbLine
 10
43.101505
 20
-2.989097
 30
0.0
 11
43.370197
 21
-2.963042
 31
0.0
  0
LINE
  5
9E8
330
1F
100
AcDbEntity
  8
1
  6
CONTINUOUS
370
50
 62
4
100
AcDbLine
 10
49.347191
 20
2.951582
 30
0.0
 11
49.638805
 21
2.985132
 31
0.0
  0
LINE
  5
9E9
330
1F
100
AcDbEntity
  8
1
  6
CONTINUOUS
370
50
 62
4
100
AcDbLine
 10
36.709339
 20
-1.271503
 30
0.0
 11
36.745441
 21
-1.267287
 31
0.0
  0
LINE
  5
9EA
330
1F
100
AcDbEntity
  8
1
  6
CONTINUOUS
370
50
 62
4
100
AcDbLine
 10
36.698391
 20
1.715982
 30
0.0
 11
36.72814899999999
 21
1.719536
 31
0.0
  0
LINE
  5
9EB
330
1F
100
AcDbEntity
  8
1
  6
CONTINUOUS
370
50
 62
4
100
AcDbLine
 10
47.14164
 20
-2.972533
 30
0.0
 11
47.285873
 21
-2.953735
 31
0.0
  0
LINE
  5
9EC
330
1F
100
AcDbEntity
  8
1
  6
CONTINUOUS
370
50
 62
4
100
AcDbLine
 10
49.79935099999999
 20
2.50387
 30
0.0
 11
49.833187
 21
2.508481
 31
0.0
  0
LINE
  5
9ED
330
1F
100
AcDbEntity
  8
1
  6
CONTINUOUS
370
50
 62
4
100
AcDbLine
 10
41.352833
 20
2.91849
 30
0.0
 11
41.756416
 21
2.976828
 31
0.0
  0
LINE
  5
9EE
330
1F
100
AcDbEntity
  8
1
  6
CONTINUOUS
370
50
 62
4
100
AcDbLine
 10
39.440811
 20
-2.966513
 30
0.0
 11
39.726677
 21
-2.92494
 31
0.0
  0
LINE
  5
9EF
330
1F
100
AcDbEntity
  8
1
  6
CONTINUOUS
370
50
 62
4
100
AcDbLine
 10
45.27002299999999
 20
2.923574
 30
0.0
 11
45.553143
 21
2.965269
 31
0.0
  0
LINE
  5
9F0
330
1F
100
AcDbEntity
  8
1
  6
CONTINUOUS
370
50
 62
4
100
AcDbLine
 10
36.668816
 20
1.711567
 30
0.0
 11
36.698391
 21
1.715982
 31
0.0
  0
LINE
  5
9F1
330
1F
100
AcDbEntity
  8
1
  6
CONTINUOUS
370
50
 62
4
100
AcDbLine
 10
36.673473
 20
-1.277096
 30
0.0
 11
36.709339
 21
-1.271503
 31
0.0
  0
LINE
  5
9F2
330
1F
100
AcDbEntity
  8
1
  6
CONTINUOUS
370
50
 62
4
100
AcDbLine
 10
43.370197
 20
-2.963042
 30
0.0
 11
43.635994
 21
-2.92116
 31
0.0
  0
LINE
  5
9F3
330
1F
100
AcDbEntity
  8
1
  6
CONTINUOUS
370
50
 62
4
100
AcDbLine
 10
47.285873
 20
-2.953735
 30
0.0
 11
47.43122899999999
 21
-2.930301
 31
0.0
  0
LINE
  5
9F4
330
1F
100
AcDbEntity
  8
1
  6
CONTINUOUS
370
50
 62
4
100
AcDbLine
 10
49.00544
 20
2.890412
 30
0.0
 11
49.347191
 21
2.951582
 31
0.0
  0
LINE
  5
9F5
330
1F
100
AcDbEntity
  8
1
  6
CONTINUOUS
370
50
 62
4
100
AcDbLine
 10
36.639481
 20
1.706285
 30
0.0
 11
36.668816
 21
1.711567
 31
0.0
  0
LINE
  5
9F6
330
1F
100
AcDbEntity
  8
1
  6
CONTINUOUS
370
50
 62
4
100
AcDbLine
 10
47.43122899999999
 20
-2.930301
 30
0.0
 11
47.577503
 21
-2.902354
 31
0.0
  0
LINE
  5
9F7
330
1F
100
AcDbEntity
  8
1
  6
CONTINUOUS
370
50
 62
4
100
AcDbLine
 10
36.637947
 20
-1.284065
 30
0.0
 11
36.673473
 21
-1.277096
 31
0.0
  0
LINE
  5
9F8
330
1F
100
AcDbEntity
  8
1
  6
CONTINUOUS
370
50
 62
4
100
AcDbLine
 10
36.212502
 20
2.996935
 30
0.0
 11
36.219372
 21
2.998329
 31
0.0
  0
LINE
  5
9F9
330
1F
100
AcDbEntity
  8
1
  6
CONTINUOUS
370
50
 62
4
100
AcDbLine
 10
39.726677
 20
-2.92494
 30
0.0
 11
40.012802
 21
-2.866604
 31
0.0
  0
LINE
  5
9FA
330
1F
100
AcDbEntity
  8
1
  6
CONTINUOUS
370
50
 62
4
100
AcDbLine
 10
44.986629
 20
2.86543
 30
0.0
 11
45.27002299999999
 21
2.923574
 31
0.0
  0
LINE
  5
9FB
330
1F
100
AcDbEntity
  8
1
  6
CONTINUOUS
370
50
 62
4
100
AcDbLine
 10
36.610439
 20
1.700131
 30
0.0
 11
36.639481
 21
1.706285
 31
0.0
  0
LINE
  5
9FC
330
1F
100
AcDbEntity
  8
1
  6
CONTINUOUS
370
50
 62
4
100
AcDbLine
 10
47.577503
 20
-2.902354
 30
0.0
 11
47.724506
 21
-2.870016
 31
0.0
  0
LINE
  5
9FD
330
1F
100
AcDbEntity
  8
1
  6
CONTINUOUS
370
50
 62
4
100
AcDbLine
 10
43.635994
 20
-2.92116
 30
0.0
 11
43.898666
 21
-2.863021
 31
0.0
  0
LINE
  5
9FE
330
1F
100
AcDbEntity
  8
1
  6
CONTINUOUS
370
50
 62
4
100
AcDbLine
 10
41.05475999999999
 20
2.850036
 30
0.0
 11
41.352833
 21
2.91849
 31
0.0
  0
LINE
  5
9FF
330
1F
100
AcDbEntity
  8
1
  6
CONTINUOUS
370
50
 62
4
100
AcDbLine
 10
49.833187
 20
2.508481
 30
0.0
 11
49.863789
 21
2.515639
 31
0.0
  0
LINE
  5
A00
330
1F
100
AcDbEntity
  8
1
  6
CONTINUOUS
370
50
 62
4
100
AcDbLine
 10
36.602859
 20
-1.292414
 30
0.0
 11
36.637947
 21
-1.284065
 31
0.0
  0
LINE
  5
A01
330
1F
100
AcDbEntity
  8
1
  6
CONTINUOUS
370
50
 62
4
100
AcDbLine
 10
36.581745
 20
1.693099
 30
0.0
 11
36.610439
 21
1.700131
 31
0.0
  0
LINE
  5
A02
330
1F
100
AcDbEntity
  8
1
  6
CONTINUOUS
370
50
 62
4
100
AcDbLine
 10
48.65847
 20
2.805369
 30
0.0
 11
49.00544
 21
2.890412
 31
0.0
  0
LINE
  5
A03
330
1F
100
AcDbEntity
  8
1
  6
CONTINUOUS
370
50
 62
4
100
AcDbLine
 10
47.724506
 20
-2.870016
 30
0.0
 11
47.872036
 21
-2.83341
 31
0.0
  0
LINE
  5
A04
330
1F
100
AcDbEntity
  8
1
  6
CONTINUOUS
370
50
 62
4
100
AcDbLine
 10
40.012802
 20
-2.866604
 30
0.0
 11
40.297554
 21
-2.791383
 31
0.0
  0
LINE
  5
A05
330
1F
100
AcDbEntity
  8
1
  6
CONTINUOUS
370
50
 62
4
100
AcDbLine
 10
44.70438
 20
2.790663
 30
0.0
 11
44.986629
 21
2.86543
 31
0.0
  0
LINE
  5
A06
330
1F
100
AcDbEntity
  8
1
  6
CONTINUOUS
370
50
 62
4
100
AcDbLine
 10
47.872036
 20
-2.83341
 30
0.0
 11
48.019897
 21
-2.792659
 31
0.0
  0
LINE
  5
A07
330
1F
100
AcDbEntity
  8
1
  6
CONTINUOUS
370
50
 62
4
100
AcDbLine
 10
36.55336399999999
 20
1.685152
 30
0.0
 11
36.581745
 21
1.693099
 31
0.0
  0
LINE
  5
A08
330
1F
100
AcDbEntity
  8
1
  6
CONTINUOUS
370
50
 62
4
100
AcDbLine
 10
36.568272
 20
-1.302153
 30
0.0
 11
36.602859
 21
-1.292414
 31
0.0
  0
LINE
  5
A09
330
1F
100
AcDbEntity
  8
1
  6
CONTINUOUS
370
50
 62
4
100
AcDbLine
 10
43.898666
 20
-2.863021
 30
0.0
 11
44.15728
 21
-2.78955
 31
0.0
  0
LINE
  5
A0A
330
1F
100
AcDbEntity
  8
1
  6
CONTINUOUS
370
50
 62
4
100
AcDbLine
 10
40.868717
 20
2.795952
 30
0.0
 11
41.05475999999999
 21
2.850036
 31
0.0
  0
LINE
  5
A0B
330
1F
100
AcDbEntity
  8
1
  6
CONTINUOUS
370
50
 62
4
100
AcDbLine
 10
49.93854899999999
 20
1.316492
 30
0.0
 11
49.955284
 21
1.321429
 31
0.0
  0
LINE
  5
A0C
330
1F
100
AcDbEntity
  8
1
  6
CONTINUOUS
370
50
 62
4
100
AcDbLine
 10
48.019897
 20
-2.792659
 30
0.0
 11
48.167889
 21
-2.747885
 31
0.0
  0
LINE
  5
A0D
330
1F
100
AcDbEntity
  8
1
  6
CONTINUOUS
370
50
 62
4
100
AcDbLine
 10
48.315804
 20
2.699209
 30
0.0
 11
48.65847
 21
2.805369
 31
0.0
  0
LINE
  5
A0E
330
1F
100
AcDbEntity
  8
1
  6
CONTINUOUS
370
50
 62
4
100
AcDbLine
 10
36.525322
 20
1.676256
 30
0.0
 11
36.55336399999999
 21
1.685152
 31
0.0
  0
LINE
  5
A0F
330
1F
100
AcDbEntity
  8
1
  6
CONTINUOUS
370
50
 62
4
100
AcDbLine
 10
40.724449
 20
2.749588
 30
0.0
 11
40.868717
 21
2.795952
 31
0.0
  0
LINE
  5
A10
330
1F
100
AcDbEntity
  8
1
  6
CONTINUOUS
370
50
 62
4
100
AcDbLine
 10
40.297554
 20
-2.791383
 30
0.0
 11
40.579311
 21
-2.699154
 31
0.0
  0
LINE
  5
A11
330
1F
100
AcDbEntity
  8
1
  6
CONTINUOUS
370
50
 62
4
100
AcDbLine
 10
44.424789
 20
2.699112
 30
0.0
 11
44.70438
 21
2.790663
 31
0.0
  0
LINE
  5
A12
330
1F
100
AcDbEntity
  8
1
  6
CONTINUOUS
370
50
 62
4
100
AcDbLine
 10
36.534142
 20
-1.313341
 30
0.0
 11
36.568272
 21
-1.302153
 31
0.0
  0
LINE
  5
A13
330
1F
100
AcDbEntity
  8
1
  6
CONTINUOUS
370
50
 62
4
100
AcDbLine
 10
48.167889
 20
-2.747885
 30
0.0
 11
48.315815
 21
-2.699212
 31
0.0
  0
LINE
  5
A14
330
1F
100
AcDbEntity
  8
1
  6
CONTINUOUS
370
50
 62
4
100
AcDbLine
 10
44.15728
 20
-2.78955
 30
0.0
 11
44.424778
 21
-2.699106
 31
0.0
  0
LINE
  5
A15
330
1F
100
AcDbEntity
  8
1
  6
CONTINUOUS
370
50
 62
4
100
AcDbLine
 10
40.579327
 20
2.699154
 30
0.0
 11
40.724449
 21
2.749588
 31
0.0
  0
LINE
  5
A16
330
1F
100
AcDbEntity
  8
1
  6
CONTINUOUS
370
50
 62
4
100
AcDbLine
 10
36.497726
 20
1.666394
 30
0.0
 11
36.525322
 21
1.676256
 31
0.0
  0
LINE
  5
A17
330
1F
100
AcDbEntity
  8
1
  6
CONTINUOUS
370
50
 62
4
100
AcDbLine
 10
36.506046
 20
-1.323826
 30
0.0
 11
36.534142
 21
-1.313341
 31
0.0
  0
LINE
  5
A18
330
1F
100
AcDbEntity
  8
1
  6
CONTINUOUS
370
50
 62
4
100
AcDbLine
 10
49.863789
 20
2.515639
 30
0.0
 11
49.889549
 21
2.52547
 31
0.0
  0
LINE
  5
A19
330
1F
100
AcDbEntity
  8
1
  6
CONTINUOUS
370
50
 62
4
100
AcDbLine
 10
36.470665
 20
1.655546
 30
0.0
 11
36.497726
 21
1.666394
 31
0.0
  0
LINE
  5
A1A
330
1F
100
AcDbEntity
  8
1
  6
CONTINUOUS
370
50
 62
4
100
AcDbLine
 10
36.478474
 20
-1.335342
 30
0.0
 11
36.506046
 21
-1.323826
 31
0.0
  0
LINE
  5
A1B
330
1F
100
AcDbEntity
  8
1
  6
CONTINUOUS
370
50
 62
4
100
AcDbLine
 10
36.444248
 20
1.643695
 30
0.0
 11
36.470665
 21
1.655546
 31
0.0
  0
LINE
  5
A1C
330
1F
100
AcDbEntity
  8
1
  6
CONTINUOUS
370
50
 62
4
100
AcDbLine
 10
36.451527
 20
-1.34789
 30
0.0
 11
36.478474
 21
-1.335342
 31
0.0
  0
LINE
  5
A1D
330
1F
100
AcDbEntity
  8
1
  6
CONTINUOUS
370
50
 62
4
100
AcDbLine
 10
36.418575
 20
1.630822
 30
0.0
 11
36.444248
 21
1.643695
 31
0.0
  0
LINE
  5
A1E
330
1F
100
AcDbEntity
  8
1
  6
CONTINUOUS
370
50
 62
4
100
AcDbLine
 10
36.425312
 20
-1.361476
 30
0.0
 11
36.451527
 21
-1.34789
 31
0.0
  0
LINE
  5
A1F
330
1F
100
AcDbEntity
  8
1
  6
CONTINUOUS
370
50
 62
4
100
AcDbLine
 10
36.393742
 20
1.61691
 30
0.0
 11
36.418575
 21
1.630822
 31
0.0
  0
LINE
  5
A20
330
1F
100
AcDbEntity
  8
1
  6
CONTINUOUS
370
50
 62
4
100
AcDbLine
 10
36.399933
 20
-1.376104
 30
0.0
 11
36.425312
 21
-1.361476
 31
0.0
  0
LINE
  5
A21
330
1F
100
AcDbEntity
  8
1
  6
CONTINUOUS
370
50
 62
4
100
AcDbLine
 10
49.889549
 20
2.52547
 30
0.0
 11
49.911148
 21
2.538368
 31
0.0
  0
LINE
  5
A22
330
1F
100
AcDbEntity
  8
1
  6
CONTINUOUS
370
50
 62
4
100
AcDbLine
 10
36.369827
 20
1.601924
 30
0.0
 11
36.393742
 21
1.61691
 31
0.0
  0
LINE
  5
A23
330
1F
100
AcDbEntity
  8
1
  6
CONTINUOUS
370
50
 62
4
100
AcDbLine
 10
36.375484
 20
-1.391783
 30
0.0
 11
36.399933
 21
-1.376104
 31
0.0
  0
LINE
  5
A24
330
1F
100
AcDbEntity
  8
1
  6
CONTINUOUS
370
50
 62
4
100
AcDbLine
 10
36.209694
 20
2.995099
 30
0.0
 11
36.212502
 21
2.996935
 31
0.0
  0
LINE
  5
A25
330
1F
100
AcDbEntity
  8
1
  6
CONTINUOUS
370
50
 62
4
100
AcDbLine
 10
48.91497
 20
-0.72154
 30
0.0
 11
48.94398899999999
 21
-0.702244
 31
0.0
  0
LINE
  5
A26
330
1F
100
AcDbEntity
  8
1
  6
CONTINUOUS
370
50
 62
4
100
AcDbLine
 10
36.346912
 20
1.5858
 30
0.0
 11
36.369827
 21
1.601924
 31
0.0
  0
LINE
  5
A27
330
1F
100
AcDbEntity
  8
1
  6
CONTINUOUS
370
50
 62
4
100
AcDbLine
 10
36.352032
 20
-1.408562
 30
0.0
 11
36.375484
 21
-1.391783
 31
0.0
  0
LINE
  5
A28
330
1F
100
AcDbEntity
  8
1
  6
CONTINUOUS
370
50
 62
4
100
AcDbLine
 10
36.325153
 20
1.568524
 30
0.0
 11
36.346912
 21
1.5858
 31
0.0
  0
LINE
  5
A29
330
1F
100
AcDbEntity
  8
1
  6
CONTINUOUS
370
50
 62
4
100
AcDbLine
 10
36.329723
 20
-1.426437
 30
0.0
 11
36.352032
 21
-1.408562
 31
0.0
  0
LINE
  5
A2A
330
1F
100
AcDbEntity
  8
1
  6
CONTINUOUS
370
50
 62
4
100
AcDbLine
 10
49.955284
 20
1.321429
 30
0.0
 11
49.968258
 21
1.332427
 31
0.0
  0
LINE
  5
A2B
330
1F
100
AcDbEntity
  8
1
  6
CONTINUOUS
370
50
 62
4
100
AcDbLine
 10
36.304714
 20
1.550082
 30
0.0
 11
36.325153
 21
1.568524
 31
0.0
  0
LINE
  5
A2C
330
1F
100
AcDbEntity
  8
1
  6
CONTINUOUS
370
50
 62
4
100
AcDbLine
 10
36.308735
 20
-1.445392
 30
0.0
 11
36.329723
 21
-1.426437
 31
0.0
  0
LINE
  5
A2D
330
1F
100
AcDbEntity
  8
1
  6
CONTINUOUS
370
50
 62
4
100
AcDbLine
 10
49.911148
 20
2.538368
 30
0.0
 11
49.929588
 21
2.555219
 31
0.0
  0
LINE
  5
A2E
330
1F
100
AcDbEntity
  8
1
  6
CONTINUOUS
370
50
 62
4
100
AcDbLine
 10
36.289238
 20
-1.465414
 30
0.0
 11
36.308735
 21
-1.445392
 31
0.0
  0
LINE
  5
A2F
330
1F
100
AcDbEntity
  8
1
  6
CONTINUOUS
370
50
 62
4
100
AcDbLine
 10
36.285767
 20
1.530463
 30
0.0
 11
36.304714
 21
1.550082
 31
0.0
  0
LINE
  5
A30
330
1F
100
AcDbEntity
  8
1
  6
CONTINUOUS
370
50
 62
4
100
AcDbLine
 10
36.271408
 20
-1.486485
 30
0.0
 11
36.289238
 21
-1.465414
 31
0.0
  0
LINE
  5
A31
330
1F
100
AcDbEntity
  8
1
  6
CONTINUOUS
370
50
 62
4
100
AcDbLine
 10
36.268475
 20
1.509658
 30
0.0
 11
36.285767
 21
1.530463
 31
0.0
  0
LINE
  5
A32
330
1F
100
AcDbEntity
  8
1
  6
CONTINUOUS
370
50
 62
4
100
AcDbLine
 10
48.91497
 20
-0.72154
 30
0.0
 11
48.91848
 21
-0.717147
 31
0.0
  0
LINE
  5
A33
330
1F
100
AcDbEntity
  8
1
  6
CONTINUOUS
370
50
 62
4
100
AcDbLine
 10
48.91848
 20
-0.717147
 30
0.0
 11
48.92194
 21
-0.712777
 31
0.0
  0
LINE
  5
A34
330
1F
100
AcDbEntity
  8
1
  6
CONTINUOUS
370
50
 62
4
100
AcDbLine
 10
48.92194
 20
-0.712777
 30
0.0
 11
48.92534999999999
 21
-0.708432
 31
0.0
  0
LINE
  5
A35
330
1F
100
AcDbEntity
  8
1
  6
CONTINUOUS
370
50
 62
4
100
AcDbLine
 10
48.92534999999999
 20
-0.708432
 30
0.0
 11
48.928711
 21
-0.704112
 31
0.0
  0
LINE
  5
A36
330
1F
100
AcDbEntity
  8
1
  6
CONTINUOUS
370
50
 62
4
100
AcDbLine
 10
48.928711
 20
-0.704112
 30
0.0
 11
48.932022
 21
-0.6998179999999999
 31
0.0
  0
LINE
  5
A37
330
1F
100
AcDbEntity
  8
1
  6
CONTINUOUS
370
50
 62
4
100
AcDbLine
 10
48.932022
 20
-0.6998179999999999
 30
0.0
 11
48.93528
 21
-0.6955509999999999
 31
0.0
  0
LINE
  5
A38
330
1F
100
AcDbEntity
  8
1
  6
CONTINUOUS
370
50
 62
4
100
AcDbLine
 10
36.255482
 20
-1.508492
 30
0.0
 11
36.271408
 21
-1.486485
 31
0.0
  0
LINE
  5
A39
330
1F
100
AcDbEntity
  8
1
  6
CONTINUOUS
370
50
 62
4
100
AcDbLine
 10
49.929588
 20
2.555219
 30
0.0
 11
49.945103
 21
2.576672
 31
0.0
  0
LINE
  5
A3A
330
1F
100
AcDbEntity
  8
1
  6
CONTINUOUS
370
50
 62
4
100
AcDbLine
 10
48.91497
 20
0.9438679999999999
 30
0.0
 11
48.932541
 21
0.9683029999999999
 31
0.0
  0
LINE
  5
A3B
330
1F
100
AcDbEntity
  8
1
  6
CONTINUOUS
370
50
 62
4
100
AcDbLine
 10
36.253094
 20
1.487777
 30
0.0
 11
36.268475
 21
1.509658
 31
0.0
  0
LINE
  5
A3C
330
1F
100
AcDbEntity
  8
1
  6
CONTINUOUS
370
50
 62
4
100
AcDbLine
 10
48.932541
 20
0.9683029999999999
 30
0.0
 11
48.94873399999999
 21
0.9946769999999999
 31
0.0
  0
LINE
  5
A3D
330
1F
100
AcDbEntity
  8
1
  6
CONTINUOUS
370
50
 62
4
100
AcDbLine
 10
36.241684
 20
-1.5313
 30
0.0
 11
36.255482
 21
-1.508492
 31
0.0
  0
LINE
  5
A3E
330
1F
100
AcDbEntity
  8
1
  6
CONTINUOUS
370
50
 62
4
100
AcDbLine
 10
49.968258
 20
1.332427
 30
0.0
 11
49.978649
 21
1.350114
 31
0.0
  0
LINE
  5
A3F
330
1F
100
AcDbEntity
  8
1
  6
CONTINUOUS
370
50
 62
4
100
AcDbLine
 10
36.239811
 20
1.464896
 30
0.0
 11
36.253094
 21
1.487777
 31
0.0
  0
LINE
  5
A40
330
1F
100
AcDbEntity
  8
1
  6
CONTINUOUS
370
50
 62
4
100
AcDbLine
 10
48.94873399999999
 20
0.9946769999999999
 30
0.0
 11
48.963341
 21
1.022665
 31
0.0
  0
LINE
  5
A41
330
1F
100
AcDbEntity
  8
1
  6
CONTINUOUS
370
50
 62
4
100
AcDbLine
 10
49.945103
 20
2.576672
 30
0.0
 11
49.957161
 21
2.601307
 31
0.0
  0
LINE
  5
A42
330
1F
100
AcDbEntity
  8
1
  6
CONTINUOUS
370
50
 62
4
100
AcDbLine
 10
36.23016
 20
-1.554858
 30
0.0
 11
36.241684
 21
-1.5313
 31
0.0
  0
LINE
  5
A43
330
1F
100
AcDbEntity
  8
1
  6
CONTINUOUS
370
50
 62
4
100
AcDbLine
 10
36.228764
 20
1.441039
 30
0.0
 11
36.239811
 21
1.464896
 31
0.0
  0
LINE
  5
A44
330
1F
100
AcDbEntity
  8
1
  6
CONTINUOUS
370
50
 62
4
100
AcDbLine
 10
48.963341
 20
1.022665
 30
0.0
 11
48.976177
 21
1.051825
 31
0.0
  0
LINE
  5
A45
330
1F
100
AcDbEntity
  8
1
  6
CONTINUOUS
370
50
 62
4
100
AcDbLine
 10
36.221046
 20
-1.579116
 30
0.0
 11
36.23016
 21
-1.554858
 31
0.0
  0
LINE
  5
A46
330
1F
100
AcDbEntity
  8
1
  6
CONTINUOUS
370
50
 62
4
100
AcDbLine
 10
48.976177
 20
1.051825
 30
0.0
 11
48.98725899999999
 21
1.082006
 31
0.0
  0
LINE
  5
A47
330
1F
100
AcDbEntity
  8
1
  6
CONTINUOUS
370
50
 62
4
100
AcDbLine
 10
36.220085
 20
1.416228
 30
0.0
 11
36.228764
 21
1.441039
 31
0.0
  0
LINE
  5
A48
330
1F
100
AcDbEntity
  8
1
  6
CONTINUOUS
370
50
 62
4
100
AcDbLine
 10
49.957161
 20
2.601307
 30
0.0
 11
49.966568
 21
2.62869
 31
0.0
  0
LINE
  5
A49
330
1F
100
AcDbEntity
  8
1
  6
CONTINUOUS
370
50
 62
4
100
AcDbLine
 10
49.978649
 20
1.350114
 30
0.0
 11
49.986519
 21
1.373616
 31
0.0
  0
LINE
  5
A4A
330
1F
100
AcDbEntity
  8
1
  6
CONTINUOUS
370
50
 62
4
100
AcDbLine
 10
48.98725899999999
 20
1.082006
 30
0.0
 11
48.996586
 21
1.11306
 31
0.0
  0
LINE
  5
A4B
330
1F
100
AcDbEntity
  8
1
  6
CONTINUOUS
370
50
 62
4
100
AcDbLine
 10
36.214516
 20
-1.603898
 30
0.0
 11
36.221046
 21
-1.579116
 31
0.0
  0
LINE
  5
A4C
330
1F
100
AcDbEntity
  8
1
  6
CONTINUOUS
370
50
 62
4
100
AcDbLine
 10
49.966568
 20
2.62869
 30
0.0
 11
49.974567
 21
2.661256
 31
0.0
  0
LINE
  5
A4D
330
1F
100
AcDbEntity
  8
1
  6
CONTINUOUS
370
50
 62
4
100
AcDbLine
 10
36.213955
 20
1.390667
 30
0.0
 11
36.220085
 21
1.416228
 31
0.0
  0
LINE
  5
A4E
330
1F
100
AcDbEntity
  8
1
  6
CONTINUOUS
370
50
 62
4
100
AcDbLine
 10
48.996586
 20
1.11306
 30
0.0
 11
49.004166
 21
1.144786
 31
0.0
  0
LINE
  5
A4F
330
1F
100
AcDbEntity
  8
1
  6
CONTINUOUS
370
50
 62
4
100
AcDbLine
 10
49.986519
 20
1.373616
 30
0.0
 11
49.992275
 21
1.40112
 31
0.0
  0
LINE
  5
A50
330
1F
100
AcDbEntity
  8
1
  6
CONTINUOUS
370
50
 62
4
100
AcDbLine
 10
49.004166
 20
1.144786
 30
0.0
 11
49.009968
 21
1.176754
 31
0.0
  0
LINE
  5
A51
330
1F
100
AcDbEntity
  8
1
  6
CONTINUOUS
370
50
 62
4
100
AcDbLine
 10
49.974567
 20
2.661256
 30
0.0
 11
49.981384
 21
2.699951
 31
0.0
  0
LINE
  5
A52
330
1F
100
AcDbEntity
  8
1
  6
CONTINUOUS
370
50
 62
4
100
AcDbLine
 10
36.21071999999999
 20
-1.628733
 30
0.0
 11
36.214516
 21
-1.603898
 31
0.0
  0
LINE
  5
A53
330
1F
100
AcDbEntity
  8
1
  6
CONTINUOUS
370
50
 62
4
100
AcDbLine
 10
49.992275
 20
1.40112
 30
0.0
 11
49.996582
 21
1.431688
 31
0.0
  0
LINE
  5
A54
330
1F
100
AcDbEntity
  8
1
  6
CONTINUOUS
370
50
 62
4
100
AcDbLine
 10
36.210487
 20
1.36479
 30
0.0
 11
36.213955
 21
1.390667
 31
0.0
  0
LINE
  5
A55
330
1F
100
AcDbEntity
  8
1
  6
CONTINUOUS
370
50
 62
4
100
AcDbLine
 10
49.009968
 20
1.176754
 30
0.0
 11
49.014061
 21
1.208793
 31
0.0
  0
LINE
  5
A56
330
1F
100
AcDbEntity
  8
1
  6
CONTINUOUS
370
50
 62
4
100
AcDbLine
 10
49.981384
 20
2.699951
 30
0.0
 11
49.987206
 21
2.745898
 31
0.0
  0
LINE
  5
A57
330
1F
100
AcDbEntity
  8
1
  6
CONTINUOUS
370
50
 62
4
100
AcDbLine
 10
49.996582
 20
1.431688
 30
0.0
 11
49.999996
 21
1.466022
 31
0.0
  0
LINE
  5
A58
330
1F
100
AcDbEntity
  8
1
  6
CONTINUOUS
370
50
 62
4
100
AcDbLine
 10
49.987206
 20
2.745898
 30
0.0
 11
49.992191
 21
2.800618
 31
0.0
  0
LINE
  5
A59
330
1F
100
AcDbEntity
  8
1
  6
CONTINUOUS
370
50
 62
4
100
AcDbLine
 10
49.014061
 20
1.208793
 30
0.0
 11
49.01651
 21
1.240773
 31
0.0
  0
LINE
  5
A5A
330
1F
100
AcDbEntity
  8
1
  6
CONTINUOUS
370
50
 62
4
100
AcDbLine
 10
49.992191
 20
2.800618
 30
0.0
 11
49.996426
 21
2.865379
 31
0.0
  0
LINE
  5
A5B
330
1F
100
AcDbEntity
  8
1
  6
CONTINUOUS
370
50
 62
4
100
AcDbLine
 10
49.742023
 20
0.356082
 30
0.0
 11
49.744537
 21
0.40144
 31
0.0
  0
LINE
  5
A5C
330
1F
100
AcDbEntity
  8
1
  6
CONTINUOUS
370
50
 62
4
100
AcDbLine
 10
49.996426
 20
2.865379
 30
0.0
 11
50.000008
 21
2.941446
 31
0.0
  0
LINE
  5
A5D
330
1F
100
AcDbEntity
  8
1
  6
CONTINUOUS
370
50
 62
4
100
AcDbLine
 10
36.209625
 20
-1.653528
 30
0.0
 11
36.21071999999999
 21
-1.628733
 31
0.0
  0
LINE
  5
A5E
330
1F
100
AcDbEntity
  8
1
  6
CONTINUOUS
370
50
 62
4
100
AcDbLine
 10
36.20966
 20
1.338669
 30
0.0
 11
36.210487
 21
1.36479
 31
0.0
  0
LINE
  5
A5F
330
1F
100
AcDbEntity
  8
1
  6
CONTINUOUS
370
50
 62
4
100
AcDbLine
 10
49.01651
 20
1.240773
 30
0.0
 11
49.017391
 21
1.272568
 31
0.0
  0
LINE
  5
A60
330
1F
100
AcDbEntity
  8
1
  6
CONTINUOUS
370
50
 62
4
100
AcDbLine
 10
49.741539
 20
-1.41048
 30
0.0
 11
49.743225
 21
-1.311447
 31
0.0
  0
LINE
  5
A61
330
1F
100
AcDbEntity
  8
1
  6
CONTINUOUS
370
50
 62
4
100
AcDbLine
 10
49.74133699999999
 20
0.305914
 30
0.0
 11
49.742023
 21
0.356082
 31
0.0
  0
LINE
  5
A62
330
1F
100
AcDbEntity
  8
1
  6
CONTINUOUS
370
50
 62
4
100
AcDbLine
 10
49.74152
 20
-1.509332
 30
0.0
 11
49.741539
 21
-1.41048
 31
0.0
  0
LINE
  5
A63
330
1F
100
AcDbEntity
  8
1
  6
CONTINUOUS
370
50
 62
4
100
AcDbLine
 10
32.0
 20
-2.99995
 30
0.0
 11
32.0
 21
2.99995
 31
0.0
  0
LINE
  5
A64
330
1F
100
AcDbEntity
  8
1
  6
CONTINUOUS
370
50
 62
4
100
AcDbLine
 10
38.0
 20
-2.985986
 30
0.0
 11
38.0
 21
2.144701
 31
0.0
  0
LINE
  5
A65
330
1F
100
AcDbEntity
  8
1
  6
CONTINUOUS
370
50
 62
4
100
AcDbLine
 10
38.0
 20
2.144702
 30
0.0
 11
38.0
 21
2.985689
 31
0.0
  0
LINE
  5
A66
330
1F
100
AcDbEntity
  8
1
  6
CONTINUOUS
370
50
 62
4
100
AcDbLine
 10
38.0
 20
2.144703
 30
0.0
 11
38.0
 21
2.284917
 31
0.0
  0
LINE
  5
A67
330
1F
100
AcDbEntity
  8
1
  6
CONTINUOUS
370
50
 62
4
100
AcDbLine
 10
38.0
 20
2.284917
 30
0.0
 11
38.0
 21
2.425131
 31
0.0
  0
LINE
  5
A68
330
1F
100
AcDbEntity
  8
1
  6
CONTINUOUS
370
50
 62
4
100
AcDbLine
 10
38.0
 20
2.425131
 30
0.0
 11
38.0
 21
2.565344
 31
0.0
  0
LINE
  5
A69
330
1F
100
AcDbEntity
  8
1
  6
CONTINUOUS
370
50
 62
4
100
AcDbLine
 10
38.0
 20
2.565344
 30
0.0
 11
38.0
 21
2.705558
 31
0.0
  0
LINE
  5
A6A
330
1F
100
AcDbEntity
  8
1
  6
CONTINUOUS
370
50
 62
4
100
AcDbLine
 10
38.0
 20
2.705558
 30
0.0
 11
38.0
 21
2.845772
 31
0.0
  0
LINE
  5
A6B
330
1F
100
AcDbEntity
  8
1
  6
CONTINUOUS
370
50
 62
4
100
AcDbLine
 10
38.0
 20
2.845772
 30
0.0
 11
38.0
 21
2.985986
 31
0.0
  0
LINE
  5
A6C
330
1F
100
AcDbEntity
  8
1
  6
CONTINUOUS
370
50
 62
4
100
AcDbLine
 10
49.900002
 20
0.302103
 30
0.0
 11
49.900002
 21
0.732748
 31
0.0
  0
LINE
  5
A6D
330
1F
100
AcDbEntity
  8
1
  6
CONTINUOUS
370
50
 62
4
100
AcDbLine
 10
49.900002
 20
0.048039
 30
0.0
 11
49.900002
 21
0.302102
 31
0.0
  0
LINE
  5
A6E
330
1F
100
AcDbEntity
  8
1
  6
CONTINUOUS
370
50
 62
4
100
AcDbLine
 10
50.0
 20
0.28968
 30
0.0
 11
50.0
 21
1.839726
 31
0.0
  0
LINE
  5
A6F
330
1F
100
AcDbEntity
  8
1
  6
CONTINUOUS
370
50
 62
4
100
AcDbLine
 10
50.0
 20
2.991631
 30
0.0
 11
50.0
 21
2.999995
 31
0.0
  0
LINE
  5
A70
330
1F
100
AcDbEntity
  8
1
  6
CONTINUOUS
370
50
 62
4
100
AcDbLine
 10
50.0
 20
2.983267
 30
0.0
 11
50.0
 21
2.991631
 31
0.0
  0
LINE
  5
A71
330
1F
100
AcDbEntity
  8
1
  6
CONTINUOUS
370
50
 62
4
100
AcDbLine
 10
50.0
 20
2.974903
 30
0.0
 11
50.0
 21
2.983267
 31
0.0
  0
LINE
  5
A72
330
1F
100
AcDbEntity
  8
1
  6
CONTINUOUS
370
50
 62
4
100
AcDbLine
 10
50.0
 20
2.966539
 30
0.0
 11
50.0
 21
2.974903
 31
0.0
  0
LINE
  5
A73
330
1F
100
AcDbEntity
  8
1
  6
CONTINUOUS
370
50
 62
4
100
AcDbLine
 10
50.0
 20
2.958175
 30
0.0
 11
50.0
 21
2.966539
 31
0.0
  0
LINE
  5
A74
330
1F
100
AcDbEntity
  8
1
  6
CONTINUOUS
370
50
 62
4
100
AcDbLine
 10
50.0
 20
2.949811
 30
0.0
 11
50.0
 21
2.958175
 31
0.0
  0
LINE
  5
A75
330
1F
100
AcDbEntity
  8
1
  6
CONTINUOUS
370
50
 62
4
100
AcDbLine
 10
50.0
 20
2.941447
 30
0.0
 11
50.0
 21
2.949811
 31
0.0
  0
LINE
  5
A76
330
1F
100
AcDbEntity
  8
1
  6
CONTINUOUS
370
50
 62
4
100
AcDbLine
 10
50.0
 20
1.839728
 30
0.0
 11
50.0
 21
2.941447
 31
0.0
  0
LINE
  5
A77
330
1F
100
AcDbEntity
  8
1
  6
CONTINUOUS
370
50
 62
4
100
AcDbLine
 10
50.0
 20
-1.5045
 30
0.0
 11
50.0
 21
-1.132344
 31
0.0
  0
LINE
  5
A78
330
1F
100
AcDbEntity
  8
1
  6
CONTINUOUS
370
50
 62
4
100
AcDbLine
 10
50.0
 20
-1.132344
 30
0.0
 11
50.0
 21
-0.28968
 31
0.0
  0
LINE
  5
A79
330
1F
100
AcDbEntity
  8
1
  6
CONTINUOUS
370
50
 62
4
100
AcDbLine
 10
50.0
 20
-3.0
 30
0.0
 11
50.0
 21
-2.972071
 31
0.0
  0
LINE
  5
A7A
330
1F
100
AcDbEntity
  8
1
  6
CONTINUOUS
370
50
 62
4
100
AcDbLine
 10
50.0
 20
-2.972071
 30
0.0
 11
50.0
 21
-1.504499
 31
0.0
  0
ELLIPSE
  5
A7B
330
1F
100
AcDbEntity
  8
1
  6
CONTINUOUS
370
50
 62
4
100
AcDbEllipse
 10
50.0
 20
0.0
 30
0.0
 11
1.059580746822018
 21
1.076434249214086
 31
0.0
210
0.0
220
0.0
230
1.0
 40
0.768920163512502
 41
1.376042597245626
 42
1.561434650501899
  0
ELLIPSE
  5
A7C
330
1F
100
AcDbEntity
  8
1
  6
CONTINUOUS
370
50
 62
4
100
AcDbEllipse
 10
50.0
 20
0.0
 30
0.0
 11
1.898196233354032
 21
1.263389649394264
 31
0.0
210
0.0
220
0.0
230
1.0
 40
0.2506374851055271
 41
1.407346035934939
 42
1.457487612930778
  0
ELLIPSE
  5
A7D
330
1F
100
AcDbEntity
  8
1
  6
CONTINUOUS
370
50
 62
4
100
AcDbEllipse
 10
50.0
 20
0.0
 30
0.0
 11
-1.898523912861969
 21
1.264647130814076
 31
0.0
210
0.0
220
0.0
230
1.0
 40
0.2488275188871825
 41
4.876644951359433
 42
5.197536741387024
  0
ELLIPSE
  5
A7E
330
1F
100
AcDbEntity
  8
1
  6
CONTINUOUS
370
50
 62
4
100
AcDbEllipse
 10
50.132699
 20
0.0
 30
0.0
 11
0.3890151144716893
 21
1.348733966982955
 31
0.0
210
0.0
220
0.0
230
1.0
 40
0.1502645808989842
 41
1.397850135403967
 42
1.61411000803587
  0
ELLIPSE
  5
A7F
330
1F
100
AcDbEntity
  8
1
  6
CONTINUOUS
370
50
 62
4
100
AcDbEllipse
 10
50.132699
 20
0.0
 30
0.0
 11
-0.3890151144716932
 21
1.348733966982954
 31
0.0
210
0.0
220
0.0
230
1.0
 40
0.1502645808989844
 41
1.183993730661273
 42
1.743742518185824
  0
ELLIPSE
  5
A80
330
1F
100
AcDbEntity
  8
1
  6
CONTINUOUS
370
50
 62
4
100
AcDbEllipse
 10
50.13270199999999
 20
-0.000007
 30
0.0
 11
-0.8644781379871315
 21
2.997186960200398
 31
0.0
210
0.0
220
0.0
230
1.0
 40
0.1502642202581082
 41
5.329236431641011
 42
5.336920355196061
  0
ELLIPSE
  5
A81
330
1F
100
AcDbEntity
  8
1
  6
CONTINUOUS
370
50
 62
4
100
AcDbEllipse
 10
50.13270199999999
 20
-0.000007
 30
0.0
 11
-0.8644781379871315
 21
2.997186960200398
 31
0.0
210
0.0
220
0.0
230
1.0
 40
0.1502642202581082
 41
1.906835087380157
 42
1.914519009890878
  0
ELLIPSE
  5
A82
330
1F
100
AcDbEntity
  8
1
  6
CONTINUOUS
370
50
 62
4
100
AcDbEllipse
 10
50.13270199999999
 20
0.0
 30
0.0
 11
1.836910143036743E-16
 21
3.000001
 31
0.0
210
0.0
220
0.0
230
1.0
 40
0.3249195583601469
 41
2.997346261722393
 42
3.005030189153981
  0
ELLIPSE
  5
A83
330
1F
100
AcDbEntity
  8
1
  6
CONTINUOUS
370
50
 62
4
100
AcDbEllipse
 10
64.42747899999999
 20
-37.953716
 30
0.0
 11
-46.4206439963339
 21
17.95805500947667
 31
0.0
210
0.0
220
0.0
230
1.0
 40
0.7032372738805684
 41
5.559583729506405
 42
5.560155525136912
  0
ELLIPSE
  5
A84
330
1F
100
AcDbEntity
  8
1
  6
CONTINUOUS
370
50
 62
4
100
AcDbEllipse
 10
64.42747899999999
 20
2.000139
 30
0.0
 11
-48.01939992306507
 21
13.09599928209903
 31
0.0
210
0.0
220
0.0
230
1.0
 40
0.2226152158705324
 41
1.049289988533025
 42
1.049861784154746
  0
ELLIPSE
  5
A85
330
1F
100
AcDbEntity
  8
1
  6
CONTINUOUS
370
50
 62
4
100
AcDbEllipse
 10
64.42747899999999
 20
39.953855
 30
0.0
 11
-36.54925424596119
 21
33.78638773392543
 31
0.0
210
0.0
220
0.0
230
1.0
 40
0.9258524863583925
 41
1.696540994146194
 42
1.697112789775826
  0
ELLIPSE
  5
A86
330
1F
100
AcDbEntity
  8
1
  6
CONTINUOUS
370
50
 62
4
100
AcDbEllipse
 10
64.78288599999999
 20
-37.035006
 30
0.0
 11
-47.31389688620473
 21
18.30361429415487
 31
0.0
210
0.0
220
0.0
230
0.9999999999999998
 40
0.7032372776923073
 41
5.555851029404261
 42
5.598577318573756
  0
ELLIPSE
  5
A87
330
1F
100
AcDbEntity
  8
1
  6
CONTINUOUS
370
50
 62
4
100
AcDbEllipse
 10
64.78288599999999
 20
3.30332
 30
0.0
 11
-48.94341698032241
 21
13.3480000721522
 31
0.0
210
0.0
220
0.0
230
1.0
 40
0.2226152289160735
 41
1.010868171910885
 42
1.053594461705043
  0
ELLIPSE
  5
A88
330
1F
100
AcDbEntity
  8
1
  6
CONTINUOUS
370
50
 62
4
100
AcDbEllipse
 10
64.97282299999999
 20
3.999766
 30
0.0
 11
-48.87339302141459
 21
13.32890292147861
 31
0.0
210
0.0
220
0.0
230
1.0
 40
0.2226152191267526
 41
1.018807811735544
 42
1.048018997798601
  0
ELLIPSE
  5
A89
330
1F
100
AcDbEntity
  8
1
  6
CONTINUOUS
370
50
 62
4
100
AcDbEllipse
 10
64.97282299999999
 20
40.543795
 30
0.0
 11
-37.199258111322
 21
34.38725587957471
 31
0.0
210
0.0
220
0.0
230
1.0
 40
0.9258525006081919
 41
1.666058824942964
 42
1.676000383982789
  0
LINE
  5
A8A
330
1F
100
AcDbEntity
  8
CUT
  6
CONTINUOUS
370
25
 62
1
100
AcDbLine
 10
38.0
 20
1.35
 30
0.0
 11
50.0
 21
1.35
 31
0.0
  0
LINE
  5
A8B
330
1F
100
AcDbEntity
  8
CUT
  6
CONTINUOUS
370
25
 62
1
100
AcDbLine
 10
50.0
 20
1.35
 30
0.0
 11
50.0
 21
2.995
 31
0.0
  0
LINE
  5
A8C
330
1F
100
AcDbEntity
  8
CUT
  6
CONTINUOUS
370
25
 62
1
100
AcDbLine
 10
50.0
 20
2.995
 30
0.0
 11
50.0
 21
3.0
 31
0.0
  0
LINE
  5
A8D
330
1F
100
AcDbEntity
  8
CUT
  6
CONTINUOUS
370
25
 62
1
100
AcDbLine
 10
50.0
 20
3.0
 30
0.0
 11
38.0
 21
2.9999
 31
0.0
  0
LINE
  5
A8E
330
1F
100
AcDbEntity
  8
CUT
  6
CONTINUOUS
370
25
 62
1
100
AcDbLine
 10
38.0
 20
2.9999
 30
0.0
 11
38.0
 21
1.35
 31
0.0
  0
LINE
  5
A8F
330
1F
100
AcDbEntity
  8
NOCUT
  6
CONTINUOUS
370
25
 62
7
100
AcDbLine
 10
32.0
 20
0.0
 30
0.0
 11
49.9
 21
0.0
 31
0.0
  0
LINE
  5
A90
330
1F
100
AcDbEntity
  8
NOCUT
  6
CONTINUOUS
370
25
 62
7
100
AcDbLine
 10
49.9
 20
0.0
 30
0.0
 11
49.9
 21
1.35
 31
0.0
  0
LINE
  5
A91
330
1F
100
AcDbEntity
  8
NOCUT
  6
CONTINUOUS
370
25
 62
7
100
AcDbLine
 10
49.9
 20
1.35
 30
0.0
 11
38.0
 21
1.35
 31
0.0
  0
LINE
  5
A92
330
1F
100
AcDbEntity
  8
NOCUT
  6
CONTINUOUS
370
25
 62
7
100
AcDbLine
 10
38.0
 20
1.35
 30
0.0
 11
38.0
 21
2.99995
 31
0.0
  0
LINE
  5
A93
330
1F
100
AcDbEntity
  8
NOCUT
  6
CONTINUOUS
370
25
 62
7
100
AcDbLine
 10
38.0
 20
2.99995
 30
0.0
 11
32.0
 21
2.99995
 31
0.0
  0
LINE
  5
A94
330
1F
100
AcDbEntity
  8
NOCUT
  6
CONTINUOUS
370
25
 62
7
100
AcDbLine
 10
32.0
 20
2.99995
 30
0.0
 11
32.0
 21
0.0
 31
0.0
  0
LINE
  5
A95
330
1F
100
AcDbEntity
  8
SK1
  6
CONTINUOUS
370
50
 62
4
100
AcDbLine
 10
32.0
 20
3.0
 30
0.0
 11
0.3999999999999986
 21
3.0
 31
0.0
  0
LINE
  5
A96
330
1F
100
AcDbEntity
  8
SK1
  6
CONTINUOUS
370
50
 62
4
100
AcDbLine
 10
0.3999999999999986
 20
3.0
 30
0.0
 11
0.0
 21
2.6
 31
0.0
  0
LINE
  5
A97
330
1F
100
AcDbEntity
  8
SK1
  6
CONTINUOUS
370
50
 62
4
100
AcDbLine
 10
0.0
 20
2.6
 30
0.0
 11
0.0
 21
-2.6
 31
0.0
  0
LINE
  5
A98
330
1F
100
AcDbEntity
  8
SK1
  6
CONTINUOUS
370
50
 62
4
100
AcDbLine
 10
0.0
 20
-2.6
 30
0.0
 11
0.3999999999999986
 21
-3.0
 31
0.0
  0
LINE
  5
A99
330
1F
100
AcDbEntity
  8
SK1
  6
CONTINUOUS
370
50
 62
4
100
AcDbLine
 10
0.3999999999999986
 20
-3.0
 30
0.0
 11
32.0
 21
-3.0
 31
0.0
  0
LINE
  5
A9A
330
1F
100
AcDbEntity
  8
SK1
  6
CONTINUOUS
370
50
 62
4
100
AcDbLine
 10
0.3999999999999986
 20
3.0
 30
0.0
 11
0.3999999999999986
 21
-3.0
 31
0.0
  0
LINE
  5
A9B
330
1F
100
AcDbEntity
  8
SK2
  6
CONTINUOUS
370
25
 62
7
100
AcDbLine
 10
-12.0000002
 20
-3.000001
 30
0.0
 11
-13.00000000000008
 21
-3.000001
 31
0.0
  0
LINE
  5
A9C
330
1F
100
AcDbEntity
  8
SK2
  6
CONTINUOUS
370
25
 62
7
100
AcDbLine
 10
0.0
 20
-3.000001
 30
0.0
 11
-11.9999998
 21
-3.000001
 31
0.0
  0
LINE
  5
A9D
330
1F
100
AcDbEntity
  8
SK2
  6
CONTINUOUS
370
25
 62
7
100
AcDbLine
 10
-13.0
 20
3.0
 30
0.0
 11
0.0
 21
3.0
 31
0.0
  0
LINE
  5
A9E
330
1F
100
AcDbEntity
  8
SK2
  6
CONTINUOUS
370
25
 62
7
100
AcDbLine
 10
-12.0
 20
-10.0
 30
0.0
 11
-12.0
 21
16.475
 31
0.0
  0
LINE
  5
A9F
330
1F
100
AcDbEntity
  8
SK2
  6
CONTINUOUS
370
25
 62
7
100
AcDbLine
 10
-12.0
 20
-3.0
 30
0.0
 11
-11.0
 21
-8.0
 31
0.0
  0
LINE
  5
AA0
330
1F
100
AcDbEntity
  8
SK2
  6
CONTINUOUS
370
25
 62
7
100
AcDbLine
 10
-11.0
 20
-8.0
 30
0.0
 11
-13.0
 21
-8.0
 31
0.0
  0
LINE
  5
AA1
330
1F
100
AcDbEntity
  8
SK2
  6
CONTINUOUS
370
25
 62
7
100
AcDbLine
 10
-13.0
 20
-8.0
 30
0.0
 11
-12.0
 21
-3.0
 31
0.0
  0
LINE
  5
AA2
330
1F
100
AcDbEntity
  8
SK2
  6
CONTINUOUS
370
25
 62
7
100
AcDbLine
 10
-11.21391770309003
 20
-8.0
 30
0.0
 11
-11.03565295051501
 21
-7.821735247424975
 31
0.0
  0
LINE
  5
AA3
330
1F
100
AcDbEntity
  8
SK2
  6
CONTINUOUS
370
25
 62
7
100
AcDbLine
 10
-11.63818177180197
 20
-8.0
 30
0.0
 11
-11.10636362863366
 21
-7.468181856831691
 31
0.0
  0
LINE
  5
AA4
330
1F
100
AcDbEntity
  8
SK2
  6
CONTINUOUS
370
25
 62
7
100
AcDbLine
 10
-12.0624458405139
 20
-8.0
 30
0.0
 11
-11.17707430675232
 21
-7.114628466238429
 31
0.0
  0
LINE
  5
AA5
330
1F
100
AcDbEntity
  8
SK2
  6
CONTINUOUS
370
25
 62
7
100
AcDbLine
 10
-12.48670990922583
 20
-8.0
 30
0.0
 11
-11.24778498487098
 21
-6.761075075645145
 31
0.0
  0
LINE
  5
AA6
330
1F
100
AcDbEntity
  8
SK2
  6
CONTINUOUS
370
25
 62
7
100
AcDbLine
 10
-12.91097397793776
 20
-8.0
 30
0.0
 11
-11.31849566298963
 21
-6.407521685051869
 31
0.0
  0
LINE
  5
AA7
330
1F
100
AcDbEntity
  8
SK2
  6
CONTINUOUS
370
25
 62
7
100
AcDbLine
 10
-12.91619048833758
 20
-7.580952441687884
 30
0.0
 11
-11.38920634110828
 21
-6.053968294458592
 31
0.0
  0
LINE
  5
AA8
330
1F
100
AcDbEntity
  8
SK2
  6
CONTINUOUS
370
25
 62
7
100
AcDbLine
 10
-12.8101244711596
 20
-7.050622355797977
 30
0.0
 11
-11.45991701922694
 21
-5.700414903865322
 31
0.0
  0
LINE
  5
AA9
330
1F
100
AcDbEntity
  8
SK2
  6
CONTINUOUS
370
25
 62
7
100
AcDbLine
 10
-12.70405845398161
 20
-6.520292269908047
 30
0.0
 11
-11.53062769734559
 21
-5.346861513272032
 31
0.0
  0
LINE
  5
AAA
330
1F
100
AcDbEntity
  8
SK2
  6
CONTINUOUS
370
25
 62
7
100
AcDbLine
 10
-12.59799243680363
 20
-5.98996218401814
 30
0.0
 11
-11.60133837546424
 21
-4.993308122678755
 31
0.0
  0
LINE
  5
AAB
330
1F
100
AcDbEntity
  8
SK2
  6
CONTINUOUS
370
25
 62
7
100
AcDbLine
 10
-12.49192641962564
 20
-5.459632098128218
 30
0.0
 11
-11.6720490535829
 21
-4.639754732085471
 31
0.0
  0
LINE
  5
AAC
330
1F
100
AcDbEntity
  8
SK2
  6
CONTINUOUS
370
25
 62
7
100
AcDbLine
 10
-12.38586040244766
 20
-4.92930201223831
 30
0.0
 11
-11.74275973170155
 21
-4.286201341492202
 31
0.0
  0
LINE
  5
AAD
330
1F
100
AcDbEntity
  8
SK2
  6
CONTINUOUS
370
25
 62
7
100
AcDbLine
 10
-12.27979438526967
 20
-4.398971926348388
 30
0.0
 11
-11.81347040982021
 21
-3.932647950898925
 31
0.0
  0
LINE
  5
AAE
330
1F
100
AcDbEntity
  8
SK2
  6
CONTINUOUS
370
25
 62
7
100
AcDbLine
 10
-12.17372836809169
 20
-3.86864184045848
 30
0.0
 11
-11.88418108793887
 21
-3.579094560305656
 31
0.0
  0
LINE
  5
AAF
330
1F
100
AcDbEntity
  8
SK2
  6
CONTINUOUS
370
25
 62
7
100
AcDbLine
 10
-12.06766235091371
 20
-3.338311754568565
 30
0.0
 11
-11.95489176605752
 21
-3.225541169712372
 31
0.0
  0
LINE
  5
AB0
330
1F
100
AcDbEntity
  8
SK2
  6
CONTINUOUS
370
25
 62
7
100
AcDbLine
 10
-12.94121493280831
 20
-7.706074664041552
 30
0.0
 11
-12.64728959684987
 21
-8.0
 31
0.0
  0
LINE
  5
AB1
330
1F
100
AcDbEntity
  8
SK2
  6
CONTINUOUS
370
25
 62
7
100
AcDbLine
 10
-12.87050425468965
 20
-7.352521273448275
 30
0.0
 11
-12.22302552813792
 21
-8.0
 31
0.0
  0
LINE
  5
AB2
330
1F
100
AcDbEntity
  8
SK2
  6
CONTINUOUS
370
25
 62
7
100
AcDbLine
 10
-12.799793576571
 20
-6.998967882854998
 30
0.0
 11
-11.798761459426
 21
-8.0
 31
0.0
  0
LINE
  5
AB3
330
1F
100
AcDbEntity
  8
SK2
  6
CONTINUOUS
370
25
 62
7
100
AcDbLine
 10
-12.72908289845234
 20
-6.645414492261722
 30
0.0
 11
-11.37449739071406
 21
-8.0
 31
0.0
  0
LINE
  5
AB4
330
1F
100
AcDbEntity
  8
SK2
  6
CONTINUOUS
370
25
 62
7
100
AcDbLine
 10
-12.65837222033369
 20
-6.291861101668445
 30
0.0
 11
-11.01244166949947
 21
-7.937791652502668
 31
0.0
  0
LINE
  5
AB5
330
1F
100
AcDbEntity
  8
SK2
  6
CONTINUOUS
370
25
 62
7
100
AcDbLine
 10
-12.58766154221504
 20
-5.938307711075169
 30
0.0
 11
-11.11850768667745
 21
-7.40746156661276
 31
0.0
  0
LINE
  5
AB6
330
1F
100
AcDbEntity
  8
SK2
  6
CONTINUOUS
370
25
 62
7
100
AcDbLine
 10
-12.51695086409638
 20
-5.584754320481892
 30
0.0
 11
-11.22457370385543
 21
-6.877131480722838
 31
0.0
  0
LINE
  5
AB7
330
1F
100
AcDbEntity
  8
SK2
  6
CONTINUOUS
370
25
 62
7
100
AcDbLine
 10
-12.44624018597773
 20
-5.231200929888615
 30
0.0
 11
-11.33063972103341
 21
-6.34680139483293
 31
0.0
  0
LINE
  5
AB8
330
1F
100
AcDbEntity
  8
SK2
  6
CONTINUOUS
370
25
 62
7
100
AcDbLine
 10
-12.37552950785906
 20
-4.877647539295353
 30
0.0
 11
-11.43670573821139
 21
-5.816471308943022
 31
0.0
  0
LINE
  5
AB9
330
1F
100
AcDbEntity
  8
SK2
  6
CONTINUOUS
370
25
 62
7
100
AcDbLine
 10
-12.30481882974041
 20
-4.524094148702076
 30
0.0
 11
-11.54277175538937
 21
-5.286141223053114
 31
0.0
  0
LINE
  5
ABA
330
1F
100
AcDbEntity
  8
SK2
  6
CONTINUOUS
370
25
 62
7
100
AcDbLine
 10
-12.23410815162176
 20
-4.170540758108793
 30
0.0
 11
-11.64883777256736
 21
-4.755811137163192
 31
0.0
  0
LINE
  5
ABB
330
1F
100
AcDbEntity
  8
SK2
  6
CONTINUOUS
370
25
 62
7
100
AcDbLine
 10
-12.1633974735031
 20
-3.816987367515509
 30
0.0
 11
-11.75490378974535
 21
-4.225481051273263
 31
0.0
  0
LINE
  5
ABC
330
1F
100
AcDbEntity
  8
SK2
  6
CONTINUOUS
370
25
 62
7
100
AcDbLine
 10
-12.09268679538445
 20
-3.463433976922232
 30
0.0
 11
-11.86096980692333
 21
-3.695150965383355
 31
0.0
  0
LINE
  5
ABD
330
1F
100
AcDbEntity
  8
SK2
  6
CONTINUOUS
370
25
 62
7
100
AcDbLine
 10
-12.0219761172658
 20
-3.109880586328948
 30
0.0
 11
-11.96703582410132
 21
-3.164820879493433
 31
0.0
  0
LINE
  5
ABE
330
1F
100
AcDbEntity
  8
SK2
  6
CONTINUOUS
370
25
 62
7
100
AcDbLine
 10
-12.0
 20
3.0
 30
0.0
 11
-13.0
 21
8.0
 31
0.0
  0
LINE
  5
ABF
330
1F
100
AcDbEntity
  8
SK2
  6
CONTINUOUS
370
25
 62
7
100
AcDbLine
 10
-13.0
 20
8.0
 30
0.0
 11
-11.0
 21
8.0
 31
0.0
  0
LINE
  5
AC0
330
1F
100
AcDbEntity
  8
SK2
  6
CONTINUOUS
370
25
 62
7
100
AcDbLine
 10
-11.0
 20
8.0
 30
0.0
 11
-12.0
 21
3.0
 31
0.0
  0
LINE
  5
AC1
330
1F
100
AcDbEntity
  8
SK2
  6
CONTINUOUS
370
25
 62
7
100
AcDbLine
 10
-12.01555193783734
 20
3.077759689186713
 30
0.0
 11
-11.97667209324399
 21
3.116639533780059
 31
0.0
  0
LINE
  5
AC2
330
1F
100
AcDbEntity
  8
SK2
  6
CONTINUOUS
370
25
 62
7
100
AcDbLine
 10
-12.086262615956
 20
3.431313079779983
 30
0.0
 11
-11.87060607606601
 21
3.646969619669967
 31
0.0
  0
LINE
  5
AC3
330
1F
100
AcDbEntity
  8
SK2
  6
CONTINUOUS
370
25
 62
7
100
AcDbLine
 10
-12.15697329407465
 20
3.784866470373267
 30
0.0
 11
-11.76454005888802
 21
4.177299705559889
 31
0.0
  0
LINE
  5
AC4
330
1F
100
AcDbEntity
  8
SK2
  6
CONTINUOUS
370
25
 62
7
100
AcDbLine
 10
-12.22768397219331
 20
4.138419860966529
 30
0.0
 11
-11.65847404171004
 21
4.707629791449797
 31
0.0
  0
LINE
  5
AC5
330
1F
100
AcDbEntity
  8
SK2
  6
CONTINUOUS
370
25
 62
7
100
AcDbLine
 10
-12.29839465031196
 20
4.491973251559813
 30
0.0
 11
-11.55240802453206
 21
5.237959877339719
 31
0.0
  0
LINE
  5
AC6
330
1F
100
AcDbEntity
  8
SK2
  6
CONTINUOUS
370
25
 62
7
100
AcDbLine
 10
-12.36910532843062
 20
4.845526642153075
 30
0.0
 11
-11.44634200735408
 21
5.76828996322962
 31
0.0
  0
LINE
  5
AC7
330
1F
100
AcDbEntity
  8
SK2
  6
CONTINUOUS
370
25
 62
7
100
AcDbLine
 10
-12.43981600654928
 20
5.199080032746352
 30
0.0
 11
-11.34027599017609
 21
6.298620049119542
 31
0.0
  0
LINE
  5
AC8
330
1F
100
AcDbEntity
  8
SK2
  6
CONTINUOUS
370
25
 62
7
100
AcDbLine
 10
-12.51052668466793
 20
5.552633423339635
 30
0.0
 11
-11.23420997299811
 21
6.828950135009457
 31
0.0
  0
LINE
  5
AC9
330
1F
100
AcDbEntity
  8
SK2
  6
CONTINUOUS
370
25
 62
7
100
AcDbLine
 10
-12.58123736278658
 20
5.906186813932912
 30
0.0
 11
-11.12814395582013
 21
7.359280220899365
 31
0.0
  0
LINE
  5
ACA
330
1F
100
AcDbEntity
  8
SK2
  6
CONTINUOUS
370
25
 62
7
100
AcDbLine
 10
-12.65194804090524
 20
6.259740204526196
 30
0.0
 11
-11.02207793864214
 21
7.889610306789294
 31
0.0
  0
LINE
  5
ACB
330
1F
100
AcDbEntity
  8
SK2
  6
CONTINUOUS
370
25
 62
7
100
AcDbLine
 10
-12.7226587190239
 20
6.613293595119465
 30
0.0
 11
-11.33595231414336
 21
8.0
 31
0.0
  0
LINE
  5
ACC
330
1F
100
AcDbEntity
  8
SK2
  6
CONTINUOUS
370
25
 62
7
100
AcDbLine
 10
-12.79336939714256
 20
6.966846985712742
 30
0.0
 11
-11.7602163828553
 21
8.0
 31
0.0
  0
LINE
  5
ACD
330
1F
100
AcDbEntity
  8
SK2
  6
CONTINUOUS
370
25
 62
7
100
AcDbLine
 10
-12.86408007526121
 20
7.320400376306019
 30
0.0
 11
-12.18448045156723
 21
8.0
 31
0.0
  0
LINE
  5
ACE
330
1F
100
AcDbEntity
  8
SK2
  6
CONTINUOUS
370
25
 62
7
100
AcDbLine
 10
-12.93479075337986
 20
7.673953766899302
 30
0.0
 11
-12.60874452027916
 21
8.0
 31
0.0
  0
LINE
  5
ACF
330
1F
100
AcDbEntity
  8
SK2
  6
CONTINUOUS
370
25
 62
7
100
AcDbLine
 10
-12.04259318851597
 20
3.212965942579842
 30
0.0
 11
-11.97160454098935
 21
3.141977295053223
 31
0.0
  0
LINE
  5
AD0
330
1F
100
AcDbEntity
  8
SK2
  6
CONTINUOUS
370
25
 62
7
100
AcDbLine
 10
-12.14865920569395
 20
3.74329602846975
 30
0.0
 11
-11.9008938628707
 21
3.4955306856465
 31
0.0
  0
LINE
  5
AD1
330
1F
100
AcDbEntity
  8
SK2
  6
CONTINUOUS
370
25
 62
7
100
AcDbLine
 10
-12.25472522287193
 20
4.273626114359658
 30
0.0
 11
-11.83018318475204
 21
3.84908407623977
 31
0.0
  0
LINE
  5
AD2
330
1F
100
AcDbEntity
  8
SK2
  6
CONTINUOUS
370
25
 62
7
100
AcDbLine
 10
-12.36079124004991
 20
4.803956200249573
 30
0.0
 11
-11.75947250663339
 21
4.202637466833053
 31
0.0
  0
LINE
  5
AD3
330
1F
100
AcDbEntity
  8
SK2
  6
CONTINUOUS
370
25
 62
7
100
AcDbLine
 10
-12.46685725722791
 20
5.334286286139509
 30
0.0
 11
-11.68876182851473
 21
4.55619085742633
 31
0.0
  0
LINE
  5
AD4
330
1F
100
AcDbEntity
  8
SK2
  6
CONTINUOUS
370
25
 62
7
100
AcDbLine
 10
-12.57292327440589
 20
5.864616372029417
 30
0.0
 11
-11.61805115039608
 21
4.909744248019607
 31
0.0
  0
LINE
  5
AD5
330
1F
100
AcDbEntity
  8
SK2
  6
CONTINUOUS
370
25
 62
7
100
AcDbLine
 10
-12.67898929158387
 20
6.394946457919325
 30
0.0
 11
-11.54734047227743
 21
5.263297638612883
 31
0.0
  0
LINE
  5
AD6
330
1F
100
AcDbEntity
  8
SK2
  6
CONTINUOUS
370
25
 62
7
100
AcDbLine
 10
-12.78505530876186
 20
6.925276543809247
 30
0.0
 11
-11.47662979415877
 21
5.61685102920616
 31
0.0
  0
LINE
  5
AD7
330
1F
100
AcDbEntity
  8
SK2
  6
CONTINUOUS
370
25
 62
7
100
AcDbLine
 10
-12.89112132593984
 20
7.455606629699155
 30
0.0
 11
-11.40591911604011
 21
5.970404419799429
 31
0.0
  0
LINE
  5
AD8
330
1F
100
AcDbEntity
  8
SK2
  6
CONTINUOUS
370
25
 62
7
100
AcDbLine
 10
-12.99718734311782
 20
7.985936715589062
 30
0.0
 11
-11.33520843792145
 21
6.323957810392699
 31
0.0
  0
LINE
  5
AD9
330
1F
100
AcDbEntity
  8
SK2
  6
CONTINUOUS
370
25
 62
7
100
AcDbLine
 10
-12.58698655881683
 20
8.0
 30
0.0
 11
-11.2644977598028
 21
6.677511200985975
 31
0.0
  0
LINE
  5
ADA
330
1F
100
AcDbEntity
  8
SK2
  6
CONTINUOUS
370
25
 62
7
100
AcDbLine
 10
-12.16272249010488
 20
8.0
 30
0.0
 11
-11.19378708168415
 21
7.031064591579266
 31
0.0
  0
LINE
  5
ADB
330
1F
100
AcDbEntity
  8
SK2
  6
CONTINUOUS
370
25
 62
7
100
AcDbLine
 10
-11.73845842139295
 20
8.0
 30
0.0
 11
-11.1230764035655
 21
7.38461798217255
 31
0.0
  0
LINE
  5
ADC
330
1F
100
AcDbEntity
  8
SK2
  6
CONTINUOUS
370
25
 62
7
100
AcDbLine
 10
-11.31419435268102
 20
8.0
 30
0.0
 11
-11.05236572544683
 21
7.738171372765812
 31
0.0
  0
TEXT
  5
ADD
330
1F
100
AcDbEntity
  8
SK2
  6
CONTINUOUS
370
25
 62
7
100
AcDbText
 10
-13.5
 20
13.34583333333333
 30
0.0
 40
3.5
  1
6
 50
90.00000000000001
 72
     1
 11
-13.5
 21
14.5125
 31
0.0
100
AcDbText
  0
CIRCLE
  5
ADE
330
1F
100
AcDbEntity
  8
SK2
  6
CONTINUOUS
370
25
 62
7
100
AcDbCircle
 10
-15.25
 20
11.1875
 30
0.0
 40
1.4
  0
LINE
  5
ADF
330
1F
100
AcDbEntity
  8
SK2
  6
CONTINUOUS
370
25
 62
7
100
AcDbLine
 10
-13.85
 20
9.787500000000001
 30
0.0
 11
-16.65
 21
12.5875
 31
0.0
  0
LINE
  5
AE0
330
1F
100
AcDbEntity
  8
SK2
  6
CONTINUOUS
370
25
 62
7
100
AcDbLine
 10
0.0
 20
3.0
 30
0.0
 11
0.0
 21
16.00001
 31
0.0
  0
LINE
  5
AE1
330
1F
100
AcDbEntity
  8
SK2
  6
CONTINUOUS
370
25
 62
7
100
AcDbLine
 10
32.0
 20
16.00001
 30
0.0
 11
32.0
 21
3.0
 31
0.0
  0
LINE
  5
AE2
330
1F
100
AcDbEntity
  8
SK2
  6
CONTINUOUS
370
25
 62
7
100
AcDbLine
 10
0.0
 20
15.00001
 30
0.0
 11
32.0
 21
15.00001
 31
0.0
  0
LINE
  5
AE3
330
1F
100
AcDbEntity
  8
SK2
  6
CONTINUOUS
370
25
 62
7
100
AcDbLine
 10
0.0
 20
15.00001
 30
0.0
 11
5.0
 21
16.00001
 31
0.0
  0
LINE
  5
AE4
330
1F
100
AcDbEntity
  8
SK2
  6
CONTINUOUS
370
25
 62
7
100
AcDbLine
 10
5.0
 20
16.00001
 30
0.0
 11
5.0
 21
14.00001
 31
0.0
  0
LINE
  5
AE5
330
1F
100
AcDbEntity
  8
SK2
  6
CONTINUOUS
370
25
 62
7
100
AcDbLine
 10
5.0
 20
14.00001
 30
0.0
 11
0.0
 21
15.00001
 31
0.0
  0
LINE
  5
AE6
330
1F
100
AcDbEntity
  8
SK2
  6
CONTINUOUS
370
25
 62
7
100
AcDbLine
 10
4.871996112452457
 20
14.02561077750951
 30
0.0
 11
5.0
 21
14.15361466505705
 31
0.0
  0
LINE
  5
AE7
330
1F
100
AcDbEntity
  8
SK2
  6
CONTINUOUS
370
25
 62
7
100
AcDbLine
 10
4.518442721859184
 20
14.09632145562816
 30
0.0
 11
5.0
 21
14.57787873376898
 31
0.0
  0
LINE
  5
AE8
330
1F
100
AcDbEntity
  8
SK2
  6
CONTINUOUS
370
25
 62
7
100
AcDbLine
 10
4.164889331265908
 20
14.16703213374682
 30
0.0
 11
5.0
 21
15.00214280248091
 31
0.0
  0
LINE
  5
AE9
330
1F
100
AcDbEntity
  8
SK2
  6
CONTINUOUS
370
25
 62
7
100
AcDbLine
 10
3.811335940672627
 20
14.23774281186547
 30
0.0
 11
5.0
 21
15.42640687119284
 31
0.0
  0
LINE
  5
AEA
330
1F
100
AcDbEntity
  8
SK2
  6
CONTINUOUS
370
25
 62
7
100
AcDbLine
 10
3.457782550079362
 20
14.30845348998412
 30
0.0
 11
5.0
 21
15.85067093990476
 31
0.0
  0
LINE
  5
AEB
330
1F
100
AcDbEntity
  8
SK2
  6
CONTINUOUS
370
25
 62
7
100
AcDbLine
 10
3.104229159486081
 20
14.37916416810278
 30
0.0
 11
4.656343739229129
 21
15.93127874784582
 31
0.0
  0
LINE
  5
AEC
330
1F
100
AcDbEntity
  8
SK2
  6
CONTINUOUS
370
25
 62
7
100
AcDbLine
 10
2.750675768892808
 20
14.44987484622144
 30
0.0
 11
4.126013653339221
 21
15.82521273066784
 31
0.0
  0
LINE
  5
AED
330
1F
100
AcDbEntity
  8
SK2
  6
CONTINUOUS
370
25
 62
7
100
AcDbLine
 10
2.397122378299528
 20
14.52058552434009
 30
0.0
 11
3.59568356744931
 21
15.71914671348987
 31
0.0
  0
LINE
  5
AEE
330
1F
100
AcDbEntity
  8
SK2
  6
CONTINUOUS
370
25
 62
7
100
AcDbLine
 10
2.043568987706252
 20
14.59129620245875
 30
0.0
 11
3.065353481559388
 21
15.61308069631188
 31
0.0
  0
LINE
  5
AEF
330
1F
100
AcDbEntity
  8
SK2
  6
CONTINUOUS
370
25
 62
7
100
AcDbLine
 10
1.690015597112982
 20
14.6620068805774
 30
0.0
 11
2.53502339566948
 21
15.5070146791339
 31
0.0
  0
LINE
  5
AF0
330
1F
100
AcDbEntity
  8
SK2
  6
CONTINUOUS
370
25
 62
7
100
AcDbLine
 10
1.336462206519709
 20
14.73271755869606
 30
0.0
 11
2.004693309779565
 21
15.40094866195591
 31
0.0
  0
LINE
  5
AF1
330
1F
100
AcDbEntity
  8
SK2
  6
CONTINUOUS
370
25
 62
7
100
AcDbLine
 10
0.9829088159264288
 20
14.80342823681471
 30
0.0
 11
1.474363223889654
 21
15.29488264477794
 31
0.0
  0
LINE
  5
AF2
330
1F
100
AcDbEntity
  8
SK2
  6
CONTINUOUS
370
25
 62
7
100
AcDbLine
 10
0.6293554253331521
 20
14.87413891493337
 30
0.0
 11
0.9440331379997318
 21
15.18881662759994
 31
0.0
  0
LINE
  5
AF3
330
1F
100
AcDbEntity
  8
SK2
  6
CONTINUOUS
370
25
 62
7
100
AcDbLine
 10
0.2758020347398791
 20
14.94484959305202
 30
0.0
 11
0.4137030521098168
 21
15.08275061042196
 31
0.0
  0
LINE
  5
AF4
330
1F
100
AcDbEntity
  8
SK2
  6
CONTINUOUS
370
25
 62
7
100
AcDbLine
 10
0.3429957551632938
 20
15.06860915103266
 30
0.0
 11
0.5144936327449479
 21
14.89711127345101
 31
0.0
  0
LINE
  5
AF5
330
1F
100
AcDbEntity
  8
SK2
  6
CONTINUOUS
370
25
 62
7
100
AcDbLine
 10
0.6965491457565598
 20
15.13931982915132
 30
0.0
 11
1.044823718634845
 21
14.79104525627303
 31
0.0
  0
LINE
  5
AF6
330
1F
100
AcDbEntity
  8
SK2
  6
CONTINUOUS
370
25
 62
7
100
AcDbLine
 10
1.050102536349836
 20
15.21003050726997
 30
0.0
 11
1.575153804524764
 21
14.68497923909504
 31
0.0
  0
LINE
  5
AF7
330
1F
100
AcDbEntity
  8
SK2
  6
CONTINUOUS
370
25
 62
7
100
AcDbLine
 10
1.403655926943117
 20
15.28074118538862
 30
0.0
 11
2.105483890414671
 21
14.57891322191707
 31
0.0
  0
LINE
  5
AF8
330
1F
100
AcDbEntity
  8
SK2
  6
CONTINUOUS
370
25
 62
7
100
AcDbLine
 10
1.757209317536386
 20
15.35145186350728
 30
0.0
 11
2.635813976304586
 21
14.47284720473908
 31
0.0
  0
LINE
  5
AF9
330
1F
100
AcDbEntity
  8
SK2
  6
CONTINUOUS
370
25
 62
7
100
AcDbLine
 10
2.110762708129666
 20
15.42216254162593
 30
0.0
 11
3.166144062194494
 21
14.3667811875611
 31
0.0
  0
LINE
  5
AFA
330
1F
100
AcDbEntity
  8
SK2
  6
CONTINUOUS
370
25
 62
7
100
AcDbLine
 10
2.464316098722936
 20
15.49287321974459
 30
0.0
 11
3.696474148084409
 21
14.26071517038311
 31
0.0
  0
LINE
  5
AFB
330
1F
100
AcDbEntity
  8
SK2
  6
CONTINUOUS
370
25
 62
7
100
AcDbLine
 10
2.817869489316212
 20
15.56358389786324
 30
0.0
 11
4.226804233974313
 21
14.15464915320514
 31
0.0
  0
LINE
  5
AFC
330
1F
100
AcDbEntity
  8
SK2
  6
CONTINUOUS
370
25
 62
7
100
AcDbLine
 10
3.171422879909485
 20
15.6342945759819
 30
0.0
 11
4.757134319864228
 21
14.04858313602715
 31
0.0
  0
LINE
  5
AFD
330
1F
100
AcDbEntity
  8
SK2
  6
CONTINUOUS
370
25
 62
7
100
AcDbLine
 10
3.524976270502755
 20
15.70500525410056
 30
0.0
 11
5.0
 21
14.22998152460331
 31
0.0
  0
LINE
  5
AFE
330
1F
100
AcDbEntity
  8
SK2
  6
CONTINUOUS
370
25
 62
7
100
AcDbLine
 10
3.878529661096032
 20
15.77571593221921
 30
0.0
 11
5.0
 21
14.65424559331523
 31
0.0
  0
LINE
  5
AFF
330
1F
100
AcDbEntity
  8
SK2
  6
CONTINUOUS
370
25
 62
7
100
AcDbLine
 10
4.232083051689301
 20
15.84642661033787
 30
0.0
 11
5.0
 21
15.07850966202717
 31
0.0
  0
LINE
  5
B00
330
1F
100
AcDbEntity
  8
SK2
  6
CONTINUOUS
370
25
 62
7
100
AcDbLine
 10
4.585636442282585
 20
15.91713728845652
 30
0.0
 11
5.0
 21
15.5027737307391
 31
0.0
  0
LINE
  5
B01
330
1F
100
AcDbEntity
  8
SK2
  6
CONTINUOUS
370
25
 62
7
100
AcDbLine
 10
4.939189832875854
 20
15.98784796657518
 30
0.0
 11
5.0
 21
15.92703779945103
 31
0.0
  0
LINE
  5
B02
330
1F
100
AcDbEntity
  8
SK2
  6
CONTINUOUS
370
25
 62
7
100
AcDbLine
 10
32.0
 20
15.00001
 30
0.0
 11
27.0
 21
14.00001
 31
0.0
  0
LINE
  5
B03
330
1F
100
AcDbEntity
  8
SK2
  6
CONTINUOUS
370
25
 62
7
100
AcDbLine
 10
27.0
 20
14.00001
 30
0.0
 11
27.0
 21
16.00001
 31
0.0
  0
LINE
  5
B04
330
1F
100
AcDbEntity
  8
SK2
  6
CONTINUOUS
370
25
 62
7
100
AcDbLine
 10
27.0
 20
16.00001
 30
0.0
 11
32.0
 21
15.00001
 31
0.0
  0
LINE
  5
B05
330
1F
100
AcDbEntity
  8
SK2
  6
CONTINUOUS
370
25
 62
7
100
AcDbLine
 10
31.65812940796322
 20
14.93163588159264
 30
0.0
 11
31.77208627197548
 21
15.0455927456049
 31
0.0
  0
LINE
  5
B06
330
1F
100
AcDbEntity
  8
SK2
  6
CONTINUOUS
370
25
 62
7
100
AcDbLine
 10
31.12779932207331
 20
14.82556986441466
 30
0.0
 11
31.41853288138221
 21
15.11630342372356
 31
0.0
  0
LINE
  5
B07
330
1F
100
AcDbEntity
  8
SK2
  6
CONTINUOUS
370
25
 62
7
100
AcDbLine
 10
30.5974692361834
 20
14.71950384723668
 30
0.0
 11
31.06497949078893
 21
15.18701410184221
 31
0.0
  0
LINE
  5
B08
330
1F
100
AcDbEntity
  8
SK2
  6
CONTINUOUS
370
25
 62
7
100
AcDbLine
 10
30.06713915029349
 20
14.6134378300587
 30
0.0
 11
30.71142610019566
 21
15.25772477996087
 31
0.0
  0
LINE
  5
B09
330
1F
100
AcDbEntity
  8
SK2
  6
CONTINUOUS
370
25
 62
7
100
AcDbLine
 10
29.53680906440358
 20
14.50737181288072
 30
0.0
 11
30.35787270960239
 21
15.32843545807952
 31
0.0
  0
LINE
  5
B0A
330
1F
100
AcDbEntity
  8
SK2
  6
CONTINUOUS
370
25
 62
7
100
AcDbLine
 10
29.00647897851367
 20
14.40130579570273
 30
0.0
 11
30.00431931900911
 21
15.39914613619818
 31
0.0
  0
LINE
  5
B0B
330
1F
100
AcDbEntity
  8
SK2
  6
CONTINUOUS
370
25
 62
7
100
AcDbLine
 10
28.47614889262377
 20
14.29523977852475
 30
0.0
 11
29.65076592841584
 21
15.46985681431683
 31
0.0
  0
LINE
  5
B0C
330
1F
100
AcDbEntity
  8
SK2
  6
CONTINUOUS
370
25
 62
7
100
AcDbLine
 10
27.94581880673385
 20
14.18917376134677
 30
0.0
 11
29.29721253782257
 21
15.54056749243549
 31
0.0
  0
LINE
  5
B0D
330
1F
100
AcDbEntity
  8
SK2
  6
CONTINUOUS
370
25
 62
7
100
AcDbLine
 10
27.41548872084394
 20
14.08310774416879
 30
0.0
 11
28.94365914722929
 21
15.61127817055414
 31
0.0
  0
LINE
  5
B0E
330
1F
100
AcDbEntity
  8
SK2
  6
CONTINUOUS
370
25
 62
7
100
AcDbLine
 10
27.0
 20
14.09188309203677
 30
0.0
 11
28.59010575663602
 21
15.68198884867279
 31
0.0
  0
LINE
  5
B0F
330
1F
100
AcDbEntity
  8
SK2
  6
CONTINUOUS
370
25
 62
7
100
AcDbLine
 10
27.0
 20
14.5161471607487
 30
0.0
 11
28.23655236604275
 21
15.75269952679145
 31
0.0
  0
LINE
  5
B10
330
1F
100
AcDbEntity
  8
SK2
  6
CONTINUOUS
370
25
 62
7
100
AcDbLine
 10
27.0
 20
14.94041122946063
 30
0.0
 11
27.88299897544947
 21
15.8234102049101
 31
0.0
  0
LINE
  5
B11
330
1F
100
AcDbEntity
  8
SK2
  6
CONTINUOUS
370
25
 62
7
100
AcDbLine
 10
27.0
 20
15.36467529817256
 30
0.0
 11
27.5294455848562
 21
15.89412088302876
 31
0.0
  0
LINE
  5
B12
330
1F
100
AcDbEntity
  8
SK2
  6
CONTINUOUS
370
25
 62
7
100
AcDbLine
 10
27.0
 20
15.78893936688448
 30
0.0
 11
27.17589219426293
 21
15.96483156114741
 31
0.0
  0
LINE
  5
B13
330
1F
100
AcDbEntity
  8
SK2
  6
CONTINUOUS
370
25
 62
7
100
AcDbLine
 10
27.0
 20
14.3338095116624
 30
0.0
 11
27.27816625971867
 21
14.05564325194373
 31
0.0
  0
LINE
  5
B14
330
1F
100
AcDbEntity
  8
SK2
  6
CONTINUOUS
370
25
 62
7
100
AcDbLine
 10
27.0
 20
14.75807358037433
 30
0.0
 11
27.63171965031194
 21
14.12635393006239
 31
0.0
  0
LINE
  5
B15
330
1F
100
AcDbEntity
  8
SK2
  6
CONTINUOUS
370
25
 62
7
100
AcDbLine
 10
27.0
 20
15.18233764908626
 30
0.0
 11
27.98527304090521
 21
14.19706460818104
 31
0.0
  0
LINE
  5
B16
330
1F
100
AcDbEntity
  8
SK2
  6
CONTINUOUS
370
25
 62
7
100
AcDbLine
 10
27.0
 20
15.60660171779818
 30
0.0
 11
28.33882643149849
 21
14.2677752862997
 31
0.0
  0
LINE
  5
B17
330
1F
100
AcDbEntity
  8
SK2
  6
CONTINUOUS
370
25
 62
7
100
AcDbLine
 10
27.03856973313764
 20
15.99229605337247
 30
0.0
 11
28.69237982209176
 21
14.33848596441835
 31
0.0
  0
LINE
  5
B18
330
1F
100
AcDbEntity
  8
SK2
  6
CONTINUOUS
370
25
 62
7
100
AcDbLine
 10
27.56889981902755
 20
15.88623003619449
 30
0.0
 11
29.04593321268504
 21
14.40919664253701
 31
0.0
  0
LINE
  5
B19
330
1F
100
AcDbEntity
  8
SK2
  6
CONTINUOUS
370
25
 62
7
100
AcDbLine
 10
28.09922990491746
 20
15.78016401901651
 30
0.0
 11
29.39948660327831
 21
14.47990732065566
 31
0.0
  0
LINE
  5
B1A
330
1F
100
AcDbEntity
  8
SK2
  6
CONTINUOUS
370
25
 62
7
100
AcDbLine
 10
28.62955999080737
 20
15.67409800183852
 30
0.0
 11
29.75303999387158
 21
14.55061799877432
 31
0.0
  0
LINE
  5
B1B
330
1F
100
AcDbEntity
  8
SK2
  6
CONTINUOUS
370
25
 62
7
100
AcDbLine
 10
29.15989007669728
 20
15.56803198466054
 30
0.0
 11
30.10659338446485
 21
14.62132867689297
 31
0.0
  0
LINE
  5
B1C
330
1F
100
AcDbEntity
  8
SK2
  6
CONTINUOUS
370
25
 62
7
100
AcDbLine
 10
29.69022016258719
 20
15.46196596748256
 30
0.0
 11
30.46014677505813
 21
14.69203935501162
 31
0.0
  0
LINE
  5
B1D
330
1F
100
AcDbEntity
  8
SK2
  6
CONTINUOUS
370
25
 62
7
100
AcDbLine
 10
30.2205502484771
 20
15.35589995030458
 30
0.0
 11
30.8137001656514
 21
14.76275003313028
 31
0.0
  0
LINE
  5
B1E
330
1F
100
AcDbEntity
  8
SK2
  6
CONTINUOUS
370
25
 62
7
100
AcDbLine
 10
30.75088033436701
 20
15.2498339331266
 30
0.0
 11
31.16725355624468
 21
14.83346071124894
 31
0.0
  0
LINE
  5
B1F
330
1F
100
AcDbEntity
  8
SK2
  6
CONTINUOUS
370
25
 62
7
100
AcDbLine
 10
31.28121042025692
 20
15.14376791594862
 30
0.0
 11
31.52080694683795
 21
14.90417138936759
 31
0.0
  0
LINE
  5
B20
330
1F
100
AcDbEntity
  8
SK2
  6
CONTINUOUS
370
25
 62
7
100
AcDbLine
 10
31.81154050614684
 20
15.03770189877063
 30
0.0
 11
31.87436033743122
 21
14.97488206748625
 31
0.0
  0
TEXT
  5
B21
330
1F
100
AcDbEntity
  8
SK2
  6
CONTINUOUS
370
25
 62
7
100
AcDbText
 10
13.08333333333333
 20
16.50001
 30
0.0
 40
3.5
  1
32
 72
     1
 11
16.0
 21
16.50001
 31
0.0
100
AcDbText
  0
LINE
  5
B22
330
1F
100
AcDbEntity
  8
2
  6
CONTINUOUS
370
25
 62
7
100
AcDbLine
 10
50.0
 20
-3.0
 30
0.0
 11
63.0
 21
-3.000000000000002
 31
0.0
  0
LINE
  5
B23
330
1F
100
AcDbEntity
  8
2
  6
CONTINUOUS
370
25
 62
7
100
AcDbLine
 10
63.0
 20
2.999999999999998
 30
0.0
 11
50.0
 21
3.0
 31
0.0
  0
LINE
  5
B24
330
1F
100
AcDbEntity
  8
2
  6
CONTINUOUS
370
25
 62
7
100
AcDbLine
 10
62.0
 20
-10.0
 30
0.0
 11
62.0
 21
16.475
 31
0.0
  0
LINE
  5
B25
330
1F
100
AcDbEntity
  8
2
  6
CONTINUOUS
370
25
 62
7
100
AcDbLine
 10
62.0
 20
-3.000000000000002
 30
0.0
 11
63.0
 21
-8.000000000000002
 31
0.0
  0
LINE
  5
B26
330
1F
100
AcDbEntity
  8
2
  6
CONTINUOUS
370
25
 62
7
100
AcDbLine
 10
63.0
 20
-8.000000000000002
 30
0.0
 11
61.0
 21
-8.000000000000002
 31
0.0
  0
LINE
  5
B27
330
1F
100
AcDbEntity
  8
2
  6
CONTINUOUS
370
25
 62
7
100
AcDbLine
 10
61.0
 20
-8.000000000000002
 30
0.0
 11
62.0
 21
-3.000000000000002
 31
0.0
  0
LINE
  5
B28
330
1F
100
AcDbEntity
  8
2
  6
CONTINUOUS
370
25
 62
7
100
AcDbLine
 10
62.64800386434351
 20
-8.0
 30
0.0
 11
62.94133397739058
 21
-7.70666988695292
 31
0.0
  0
LINE
  5
B29
330
1F
100
AcDbEntity
  8
2
  6
CONTINUOUS
370
25
 62
7
100
AcDbLine
 10
62.22373979563157
 20
-8.0
 30
0.0
 11
62.87062329927193
 21
-7.353116496359647
 31
0.0
  0
LINE
  5
B2A
330
1F
100
AcDbEntity
  8
2
  6
CONTINUOUS
370
25
 62
7
100
AcDbLine
 10
61.79947572691965
 20
-8.0
 30
0.0
 11
62.79991262115327
 21
-6.99956310576637
 31
0.0
  0
LINE
  5
B2B
330
1F
100
AcDbEntity
  8
2
  6
CONTINUOUS
370
25
 62
7
100
AcDbLine
 10
61.37521165820772
 20
-8.0
 30
0.0
 11
62.72920194303462
 21
-6.646009715173093
 31
0.0
  0
LINE
  5
B2C
330
1F
100
AcDbEntity
  8
2
  6
CONTINUOUS
370
25
 62
7
100
AcDbLine
 10
61.01226310262605
 20
-7.938684486869743
 30
0.0
 11
62.65849126491597
 21
-6.29245632457982
 31
0.0
  0
LINE
  5
B2D
330
1F
100
AcDbEntity
  8
2
  6
CONTINUOUS
370
25
 62
7
100
AcDbLine
 10
61.11832911980403
 20
-7.408354400979825
 30
0.0
 11
62.58778058679732
 21
-5.93890293398654
 31
0.0
  0
LINE
  5
B2E
330
1F
100
AcDbEntity
  8
2
  6
CONTINUOUS
370
25
 62
7
100
AcDbLine
 10
61.22439513698201
 20
-6.87802431508992
 30
0.0
 11
62.51706990867866
 21
-5.585349543393271
 31
0.0
  0
LINE
  5
B2F
330
1F
100
AcDbEntity
  8
2
  6
CONTINUOUS
370
25
 62
7
100
AcDbLine
 10
61.33046115416001
 20
-6.347694229199998
 30
0.0
 11
62.44635923056
 21
-5.231796152799994
 31
0.0
  0
LINE
  5
B30
330
1F
100
AcDbEntity
  8
2
  6
CONTINUOUS
370
25
 62
7
100
AcDbLine
 10
61.43652717133799
 20
-5.81736414331009
 30
0.0
 11
62.37564855244135
 21
-4.878242762206721
 31
0.0
  0
LINE
  5
B31
330
1F
100
AcDbEntity
  8
2
  6
CONTINUOUS
370
25
 62
7
100
AcDbLine
 10
61.54259318851597
 20
-5.287034057420172
 30
0.0
 11
62.30493787432269
 21
-4.524689371613444
 31
0.0
  0
LINE
  5
B32
330
1F
100
AcDbEntity
  8
2
  6
CONTINUOUS
370
25
 62
7
100
AcDbLine
 10
61.64865920569395
 20
-4.756703971530253
 30
0.0
 11
62.23422719620403
 21
-4.171135981020164
 31
0.0
  0
LINE
  5
B33
330
1F
100
AcDbEntity
  8
2
  6
CONTINUOUS
370
25
 62
7
100
AcDbLine
 10
61.75472522287193
 20
-4.226373885640335
 30
0.0
 11
62.16351651808537
 21
-3.817582590426888
 31
0.0
  0
LINE
  5
B34
330
1F
100
AcDbEntity
  8
2
  6
CONTINUOUS
370
25
 62
7
100
AcDbLine
 10
61.86079124004992
 20
-3.696043799750424
 30
0.0
 11
62.09280583996672
 21
-3.464029199833618
 31
0.0
  0
LINE
  5
B35
330
1F
100
AcDbEntity
  8
2
  6
CONTINUOUS
370
25
 62
7
100
AcDbLine
 10
61.9668572572279
 20
-3.165713713860505
 30
0.0
 11
62.02209516184807
 21
-3.110475809240338
 31
0.0
  0
LINE
  5
B36
330
1F
100
AcDbEntity
  8
2
  6
CONTINUOUS
370
25
 62
7
100
AcDbLine
 10
61.03553390593274
 20
-7.822330470336251
 30
0.0
 11
61.2132034355965
 21
-8.0
 31
0.0
  0
LINE
  5
B37
330
1F
100
AcDbEntity
  8
2
  6
CONTINUOUS
370
25
 62
7
100
AcDbLine
 10
61.1062445840514
 20
-7.468777079742974
 30
0.0
 11
61.63746750430843
 21
-8.0
 31
0.0
  0
LINE
  5
B38
330
1F
100
AcDbEntity
  8
2
  6
CONTINUOUS
370
25
 62
7
100
AcDbLine
 10
61.17695526217005
 20
-7.115223689149701
 30
0.0
 11
62.06173157302037
 21
-8.000000000000004
 31
0.0
  0
LINE
  5
B39
330
1F
100
AcDbEntity
  8
2
  6
CONTINUOUS
370
25
 62
7
100
AcDbLine
 10
61.24766594028871
 20
-6.761670298556428
 30
0.0
 11
62.48599564173229
 21
-8.0
 31
0.0
  0
LINE
  5
B3A
330
1F
100
AcDbEntity
  8
2
  6
CONTINUOUS
370
25
 62
7
100
AcDbLine
 10
61.31837661840737
 20
-6.408116907963159
 30
0.0
 11
62.91025971044422
 21
-8.000000000000004
 31
0.0
  0
LINE
  5
B3B
330
1F
100
AcDbEntity
  8
2
  6
CONTINUOUS
370
25
 62
7
100
AcDbLine
 10
61.38908729652602
 20
-6.054563517369878
 30
0.0
 11
62.91636905521096
 21
-7.581845276054814
 31
0.0
  0
LINE
  5
B3C
330
1F
100
AcDbEntity
  8
2
  6
CONTINUOUS
370
25
 62
7
100
AcDbLine
 10
61.45979797464468
 20
-5.701010126776609
 30
0.0
 11
62.81030303803298
 21
-7.051515190164899
 31
0.0
  0
LINE
  5
B3D
330
1F
100
AcDbEntity
  8
2
  6
CONTINUOUS
370
25
 62
7
100
AcDbLine
 10
61.53050865276333
 20
-5.347456736183336
 30
0.0
 11
62.704237020855
 21
-6.521185104274995
 31
0.0
  0
LINE
  5
B3E
330
1F
100
AcDbEntity
  8
2
  6
CONTINUOUS
370
25
 62
7
100
AcDbLine
 10
61.60121933088199
 20
-4.993903345590056
 30
0.0
 11
62.59817100367702
 21
-5.99085501838508
 31
0.0
  0
LINE
  5
B3F
330
1F
100
AcDbEntity
  8
2
  6
CONTINUOUS
370
25
 62
7
100
AcDbLine
 10
61.67193000900065
 20
-4.640349954996783
 30
0.0
 11
62.49210498649903
 21
-5.460524932495169
 31
0.0
  0
LINE
  5
B40
330
1F
100
AcDbEntity
  8
2
  6
CONTINUOUS
370
25
 62
7
100
AcDbLine
 10
61.7426406871193
 20
-4.28679656440351
 30
0.0
 11
62.38603896932105
 21
-4.930194846605261
 31
0.0
  0
LINE
  5
B41
330
1F
100
AcDbEntity
  8
2
  6
CONTINUOUS
370
25
 62
7
100
AcDbLine
 10
61.81335136523795
 20
-3.933243173810236
 30
0.0
 11
62.27997295214307
 21
-4.399864760715353
 31
0.0
  0
LINE
  5
B42
330
1F
100
AcDbEntity
  8
2
  6
CONTINUOUS
370
25
 62
7
100
AcDbLine
 10
61.88406204335661
 20
-3.579689783216967
 30
0.0
 11
62.17390693496509
 21
-3.869534674825442
 31
0.0
  0
LINE
  5
B43
330
1F
100
AcDbEntity
  8
2
  6
CONTINUOUS
370
25
 62
7
100
AcDbLine
 10
61.95477272147527
 20
-3.22613639262369
 30
0.0
 11
62.06784091778711
 21
-3.339204588935534
 31
0.0
  0
LINE
  5
B44
330
1F
100
AcDbEntity
  8
2
  6
CONTINUOUS
370
25
 62
7
100
AcDbLine
 10
62.0
 20
2.999999999999998
 30
0.0
 11
61.0
 21
7.999999999999998
 31
0.0
  0
LINE
  5
B45
330
1F
100
AcDbEntity
  8
2
  6
CONTINUOUS
370
25
 62
7
100
AcDbLine
 10
61.0
 20
7.999999999999998
 30
0.0
 11
63.0
 21
7.999999999999998
 31
0.0
  0
LINE
  5
B46
330
1F
100
AcDbEntity
  8
2
  6
CONTINUOUS
370
25
 62
7
100
AcDbLine
 10
63.0
 20
7.999999999999998
 30
0.0
 11
62.0
 21
2.999999999999998
 31
0.0
  0
LINE
  5
B47
330
1F
100
AcDbEntity
  8
2
  6
CONTINUOUS
370
25
 62
7
100
AcDbLine
 10
61.97172358557164
 20
3.141382072141852
 30
0.0
 11
62.04241462164255
 21
3.21207310821277
 31
0.0
  0
LINE
  5
B48
330
1F
100
AcDbEntity
  8
2
  6
CONTINUOUS
370
25
 62
7
100
AcDbLine
 10
61.90101290745298
 20
3.494935462735121
 30
0.0
 11
62.14848063882054
 21
3.742403194102685
 31
0.0
  0
LINE
  5
B49
330
1F
100
AcDbEntity
  8
2
  6
CONTINUOUS
370
25
 62
7
100
AcDbLine
 10
61.83030222933432
 20
3.848488853328398
 30
0.0
 11
62.25454665599852
 21
4.272733279992597
 31
0.0
  0
LINE
  5
B4A
330
1F
100
AcDbEntity
  8
2
  6
CONTINUOUS
370
25
 62
7
100
AcDbLine
 10
61.75959155121566
 20
4.202042243921671
 30
0.0
 11
62.3606126731765
 21
4.803063365882512
 31
0.0
  0
LINE
  5
B4B
330
1F
100
AcDbEntity
  8
2
  6
CONTINUOUS
370
25
 62
7
100
AcDbLine
 10
61.68888087309701
 20
4.555595634514951
 30
0.0
 11
62.46667869035448
 21
5.333393451772423
 31
0.0
  0
LINE
  5
B4C
330
1F
100
AcDbEntity
  8
2
  6
CONTINUOUS
370
25
 62
7
100
AcDbLine
 10
61.61817019497836
 20
4.909149025108224
 30
0.0
 11
62.57274470753246
 21
5.863723537662338
 31
0.0
  0
LINE
  5
B4D
330
1F
100
AcDbEntity
  8
2
  6
CONTINUOUS
370
25
 62
7
100
AcDbLine
 10
61.5474595168597
 20
5.262702415701497
 30
0.0
 11
62.67881072471045
 21
6.394053623552253
 31
0.0
  0
LINE
  5
B4E
330
1F
100
AcDbEntity
  8
2
  6
CONTINUOUS
370
25
 62
7
100
AcDbLine
 10
61.47674883874105
 20
5.616255806294777
 30
0.0
 11
62.78487674188843
 21
6.924383709442164
 31
0.0
  0
LINE
  5
B4F
330
1F
100
AcDbEntity
  8
2
  6
CONTINUOUS
370
25
 62
7
100
AcDbLine
 10
61.40603816062239
 20
5.969809196888047
 30
0.0
 11
62.89094275906642
 21
7.454713795332083
 31
0.0
  0
LINE
  5
B50
330
1F
100
AcDbEntity
  8
2
  6
CONTINUOUS
370
25
 62
7
100
AcDbLine
 10
61.33532748250374
 20
6.323362587481324
 30
0.0
 11
62.9970087762444
 21
7.985043881221994
 31
0.0
  0
LINE
  5
B51
330
1F
100
AcDbEntity
  8
2
  6
CONTINUOUS
370
25
 62
7
100
AcDbLine
 10
61.26461680438508
 20
6.6769159780746
 30
0.0
 11
62.58770082631047
 21
8.0
 31
0.0
  0
LINE
  5
B52
330
1F
100
AcDbEntity
  8
2
  6
CONTINUOUS
370
25
 62
7
100
AcDbLine
 10
61.19390612626643
 20
7.03046936866787
 30
0.0
 11
62.16343675759855
 21
7.999999999999996
 31
0.0
  0
LINE
  5
B53
330
1F
100
AcDbEntity
  8
2
  6
CONTINUOUS
370
25
 62
7
100
AcDbLine
 10
61.12319544814777
 20
7.38402275926115
 30
0.0
 11
61.73917268888662
 21
8.0
 31
0.0
  0
LINE
  5
B54
330
1F
100
AcDbEntity
  8
2
  6
CONTINUOUS
370
25
 62
7
100
AcDbLine
 10
61.05248477002911
 20
7.737576149854423
 30
0.0
 11
61.31490862017469
 21
8.0
 31
0.0
  0
LINE
  5
B55
330
1F
100
AcDbEntity
  8
2
  6
CONTINUOUS
370
25
 62
7
100
AcDbLine
 10
61.97685066011738
 20
3.115746699413094
 30
0.0
 11
62.01543289325508
 21
3.077164466275395
 31
0.0
  0
LINE
  5
B56
330
1F
100
AcDbEntity
  8
2
  6
CONTINUOUS
370
25
 62
7
100
AcDbLine
 10
61.8707846429394
 20
3.646076785303002
 30
0.0
 11
62.08614357137373
 21
3.430717856868672
 31
0.0
  0
LINE
  5
B57
330
1F
100
AcDbEntity
  8
2
  6
CONTINUOUS
370
25
 62
7
100
AcDbLine
 10
61.76471862576142
 20
4.176406871192924
 30
0.0
 11
62.15685424949239
 21
3.784271247461952
 31
0.0
  0
LINE
  5
B58
330
1F
100
AcDbEntity
  8
2
  6
CONTINUOUS
370
25
 62
7
100
AcDbLine
 10
61.65865260858344
 20
4.706736957082821
 30
0.0
 11
62.22756492761104
 21
4.137824638055218
 31
0.0
  0
LINE
  5
B59
330
1F
100
AcDbEntity
  8
2
  6
CONTINUOUS
370
25
 62
7
100
AcDbLine
 10
61.55258659140545
 20
5.23706704297274
 30
0.0
 11
62.2982756057297
 21
4.491378028648491
 31
0.0
  0
LINE
  5
B5A
330
1F
100
AcDbEntity
  8
2
  6
CONTINUOUS
370
25
 62
7
100
AcDbLine
 10
61.44652057422747
 20
5.767397128862651
 30
0.0
 11
62.36898628384836
 21
4.844931419241771
 31
0.0
  0
LINE
  5
B5B
330
1F
100
AcDbEntity
  8
2
  6
CONTINUOUS
370
25
 62
7
100
AcDbLine
 10
61.34045455704948
 20
6.297727214752559
 30
0.0
 11
62.43969696196701
 21
5.19848480983504
 31
0.0
  0
LINE
  5
B5C
330
1F
100
AcDbEntity
  8
2
  6
CONTINUOUS
370
25
 62
7
100
AcDbLine
 10
61.2343885398715
 20
6.828057300642467
 30
0.0
 11
62.51040764008566
 21
5.552038200428317
 31
0.0
  0
LINE
  5
B5D
330
1F
100
AcDbEntity
  8
2
  6
CONTINUOUS
370
25
 62
7
100
AcDbLine
 10
61.12832252269352
 20
7.358387386532389
 30
0.0
 11
62.58111831820432
 21
5.905591591021594
 31
0.0
  0
LINE
  5
B5E
330
1F
100
AcDbEntity
  8
2
  6
CONTINUOUS
370
25
 62
7
100
AcDbLine
 10
61.02225650551554
 20
7.888717472422286
 30
0.0
 11
62.65182899632297
 21
6.25914498161487
 31
0.0
  0
LINE
  5
B5F
330
1F
100
AcDbEntity
  8
2
  6
CONTINUOUS
370
25
 62
7
100
AcDbLine
 10
61.33523804664976
 20
8.0
 30
0.0
 11
62.72253967444163
 21
6.612698372208143
 31
0.0
  0
LINE
  5
B60
330
1F
100
AcDbEntity
  8
2
  6
CONTINUOUS
370
25
 62
7
100
AcDbLine
 10
61.75950211536169
 20
8.0
 30
0.0
 11
62.79325035256028
 21
6.966251762801416
 31
0.0
  0
LINE
  5
B61
330
1F
100
AcDbEntity
  8
2
  6
CONTINUOUS
370
25
 62
7
100
AcDbLine
 10
62.18376618407362
 20
8.0
 30
0.0
 11
62.86396103067894
 21
7.319805153394682
 31
0.0
  0
LINE
  5
B62
330
1F
100
AcDbEntity
  8
2
  6
CONTINUOUS
370
25
 62
7
100
AcDbLine
 10
62.60803025278555
 20
8.0
 30
0.0
 11
62.93467170879759
 21
7.673358543987955
 31
0.0
  0
TEXT
  5
B63
330
1F
100
AcDbEntity
  8
2
  6
CONTINUOUS
370
25
 62
7
100
AcDbText
 10
60.5
 20
13.34583333333333
 30
0.0
 40
3.5
  1
6
 50
90.00000000000001
 72
     1
 11
60.5
 21
14.5125
 31
0.0
100
AcDbText
  0
CIRCLE
  5
B64
330
1F
100
AcDbEntity
  8
2
  6
CONTINUOUS
370
25
 62
7
100
AcDbCircle
 10
58.75
 20
11.1875
 30
0.0
 40
1.4
  0
LINE
  5
B65
330
1F
100
AcDbEntity
  8
2
  6
CONTINUOUS
370
25
 62
7
100
AcDbLine
 10
60.15
 20
9.7875
 30
0.0
 11
57.35
 21
12.5875
 31
0.0
  0
LINE
  5
B66
330
1F
100
AcDbEntity
  8
2
  6
CONTINUOUS
370
25
 62
7
100
AcDbLine
 10
38.0
 20
-3.0
 30
0.0
 11
38.0
 21
-16.0
 31
0.0
  0
LINE
  5
B67
330
1F
100
AcDbEntity
  8
2
  6
CONTINUOUS
370
25
 62
7
100
AcDbLine
 10
50.0
 20
-16.0
 30
0.0
 11
50.0
 21
-3.0
 31
0.0
  0
LINE
  5
B68
330
1F
100
AcDbEntity
  8
2
  6
CONTINUOUS
370
25
 62
7
100
AcDbLine
 10
31.0
 20
-15.0
 30
0.0
 11
57.0
 21
-15.0
 31
0.0
  0
LINE
  5
B69
330
1F
100
AcDbEntity
  8
2
  6
CONTINUOUS
370
25
 62
7
100
AcDbLine
 10
38.0
 20
-15.0
 30
0.0
 11
33.0
 21
-16.0
 31
0.0
  0
LINE
  5
B6A
330
1F
100
AcDbEntity
  8
2
  6
CONTINUOUS
370
25
 62
7
100
AcDbLine
 10
33.0
 20
-16.0
 30
0.0
 11
33.0
 21
-14.0
 31
0.0
  0
LINE
  5
B6B
330
1F
100
AcDbEntity
  8
2
  6
CONTINUOUS
370
25
 62
7
100
AcDbLine
 10
33.0
 20
-14.0
 30
0.0
 11
38.0
 21
-15.0
 31
0.0
  0
LINE
  5
B6C
330
1F
100
AcDbEntity
  8
2
  6
CONTINUOUS
370
25
 62
7
100
AcDbLine
 10
37.71254809424597
 20
-15.05749038115081
 30
0.0
 11
37.80836539616398
 21
-14.9616730792328
 31
0.0
  0
LINE
  5
B6D
330
1F
100
AcDbEntity
  8
2
  6
CONTINUOUS
370
25
 62
7
100
AcDbLine
 10
37.18221800835606
 20
-15.16355639832879
 30
0.0
 11
37.4548120055707
 21
-14.89096240111414
 31
0.0
  0
LINE
  5
B6E
330
1F
100
AcDbEntity
  8
2
  6
CONTINUOUS
370
25
 62
7
100
AcDbLine
 10
36.65188792246614
 20
-15.26962241550677
 30
0.0
 11
37.10125861497743
 21
-14.82025172299549
 31
0.0
  0
LINE
  5
B6F
330
1F
100
AcDbEntity
  8
2
  6
CONTINUOUS
370
25
 62
7
100
AcDbLine
 10
36.12155783657624
 20
-15.37568843268475
 30
0.0
 11
36.74770522438416
 21
-14.74954104487683
 31
0.0
  0
LINE
  5
B70
330
1F
100
AcDbEntity
  8
2
  6
CONTINUOUS
370
25
 62
7
100
AcDbLine
 10
35.59122775068633
 20
-15.48175444986273
 30
0.0
 11
36.39415183379089
 21
-14.67883036675818
 31
0.0
  0
LINE
  5
B71
330
1F
100
AcDbEntity
  8
2
  6
CONTINUOUS
370
25
 62
7
100
AcDbLine
 10
35.06089766479641
 20
-15.58782046704072
 30
0.0
 11
36.04059844319761
 21
-14.60811968863952
 31
0.0
  0
LINE
  5
B72
330
1F
100
AcDbEntity
  8
2
  6
CONTINUOUS
370
25
 62
7
100
AcDbLine
 10
34.53056757890651
 20
-15.6938864842187
 30
0.0
 11
35.68704505260434
 21
-14.53740901052087
 31
0.0
  0
LINE
  5
B73
330
1F
100
AcDbEntity
  8
2
  6
CONTINUOUS
370
25
 62
7
100
AcDbLine
 10
34.0002374930166
 20
-15.79995250139668
 30
0.0
 11
35.33349166201106
 21
-14.46669833240221
 31
0.0
  0
LINE
  5
B74
330
1F
100
AcDbEntity
  8
2
  6
CONTINUOUS
370
25
 62
7
100
AcDbLine
 10
33.46990740712669
 20
-15.90601851857466
 30
0.0
 11
34.97993827141779
 21
-14.39598765428356
 31
0.0
  0
LINE
  5
B75
330
1F
100
AcDbEntity
  8
2
  6
CONTINUOUS
370
25
 62
7
100
AcDbLine
 10
33.0
 20
-15.95166185698942
 30
0.0
 11
34.62638488082452
 21
-14.3252769761649
 31
0.0
  0
LINE
  5
B76
330
1F
100
AcDbEntity
  8
2
  6
CONTINUOUS
370
25
 62
7
100
AcDbLine
 10
33.0
 20
-15.5273977882775
 30
0.0
 11
34.27283149023125
 21
-14.25456629804625
 31
0.0
  0
LINE
  5
B77
330
1F
100
AcDbEntity
  8
2
  6
CONTINUOUS
370
25
 62
7
100
AcDbLine
 10
33.0
 20
-15.10313371956556
 30
0.0
 11
33.91927809963797
 21
-14.18385561992759
 31
0.0
  0
LINE
  5
B78
330
1F
100
AcDbEntity
  8
2
  6
CONTINUOUS
370
25
 62
7
100
AcDbLine
 10
33.0
 20
-14.67886965085364
 30
0.0
 11
33.56572470904469
 21
-14.11314494180894
 31
0.0
  0
LINE
  5
B79
330
1F
100
AcDbEntity
  8
2
  6
CONTINUOUS
370
25
 62
7
100
AcDbLine
 10
33.0
 20
-14.25460558214171
 30
0.0
 11
33.21217131845142
 21
-14.04243426369029
 31
0.0
  0
LINE
  5
B7A
330
1F
100
AcDbEntity
  8
2
  6
CONTINUOUS
370
25
 62
7
100
AcDbLine
 10
33.0
 20
-15.83105578092343
 30
0.0
 11
33.14078684923047
 21
-15.9718426301539
 31
0.0
  0
LINE
  5
B7B
330
1F
100
AcDbEntity
  8
2
  6
CONTINUOUS
370
25
 62
7
100
AcDbLine
 10
33.0
 20
-15.4067917122115
 30
0.0
 11
33.49434023982374
 21
-15.90113195203525
 31
0.0
  0
LINE
  5
B7C
330
1F
100
AcDbEntity
  8
2
  6
CONTINUOUS
370
25
 62
7
100
AcDbLine
 10
33.0
 20
-14.98252764349958
 30
0.0
 11
33.84789363041702
 21
-15.8304212739166
 31
0.0
  0
LINE
  5
B7D
330
1F
100
AcDbEntity
  8
2
  6
CONTINUOUS
370
25
 62
7
100
AcDbLine
 10
33.0
 20
-14.55826357478765
 30
0.0
 11
34.2014470210103
 21
-15.75971059579794
 31
0.0
  0
LINE
  5
B7E
330
1F
100
AcDbEntity
  8
2
  6
CONTINUOUS
370
25
 62
7
100
AcDbLine
 10
33.0
 20
-14.13399950607572
 30
0.0
 11
34.55500041160357
 21
-15.68899991767929
 31
0.0
  0
LINE
  5
B7F
330
1F
100
AcDbEntity
  8
2
  6
CONTINUOUS
370
25
 62
7
100
AcDbLine
 10
33.36283070329526
 20
-14.07256614065905
 30
0.0
 11
34.90855380219684
 21
-15.61828923956063
 31
0.0
  0
LINE
  5
B80
330
1F
100
AcDbEntity
  8
2
  6
CONTINUOUS
370
25
 62
7
100
AcDbLine
 10
33.89316078918517
 20
-14.17863215783703
 30
0.0
 11
35.26210719279011
 21
-15.54757856144198
 31
0.0
  0
LINE
  5
B81
330
1F
100
AcDbEntity
  8
2
  6
CONTINUOUS
370
25
 62
7
100
AcDbLine
 10
34.42349087507508
 20
-14.28469817501502
 30
0.0
 11
35.61566058338339
 21
-15.47686788332332
 31
0.0
  0
LINE
  5
B82
330
1F
100
AcDbEntity
  8
2
  6
CONTINUOUS
370
25
 62
7
100
AcDbLine
 10
34.95382096096499
 20
-14.390764192193
 30
0.0
 11
35.96921397397666
 21
-15.40615720520467
 31
0.0
  0
LINE
  5
B83
330
1F
100
AcDbEntity
  8
2
  6
CONTINUOUS
370
25
 62
7
100
AcDbLine
 10
35.4841510468549
 20
-14.49683020937098
 30
0.0
 11
36.32276736456993
 21
-15.33544652708601
 31
0.0
  0
LINE
  5
B84
330
1F
100
AcDbEntity
  8
2
  6
CONTINUOUS
370
25
 62
7
100
AcDbLine
 10
36.01448113274481
 20
-14.60289622654896
 30
0.0
 11
36.6763207551632
 21
-15.26473584896736
 31
0.0
  0
LINE
  5
B85
330
1F
100
AcDbEntity
  8
2
  6
CONTINUOUS
370
25
 62
7
100
AcDbLine
 10
36.54481121863472
 20
-14.70896224372694
 30
0.0
 11
37.02987414575648
 21
-15.1940251708487
 31
0.0
  0
LINE
  5
B86
330
1F
100
AcDbEntity
  8
2
  6
CONTINUOUS
370
25
 62
7
100
AcDbLine
 10
37.07514130452464
 20
-14.81502826090493
 30
0.0
 11
37.38342753634976
 21
-15.12331449273005
 31
0.0
  0
LINE
  5
B87
330
1F
100
AcDbEntity
  8
2
  6
CONTINUOUS
370
25
 62
7
100
AcDbLine
 10
37.60547139041454
 20
-14.92109427808291
 30
0.0
 11
37.73698092694303
 21
-15.05260381461139
 31
0.0
  0
LINE
  5
B88
330
1F
100
AcDbEntity
  8
2
  6
CONTINUOUS
370
25
 62
7
100
AcDbLine
 10
50.0
 20
-15.0
 30
0.0
 11
55.0
 21
-14.0
 31
0.0
  0
LINE
  5
B89
330
1F
100
AcDbEntity
  8
2
  6
CONTINUOUS
370
25
 62
7
100
AcDbLine
 10
55.0
 20
-14.0
 30
0.0
 11
55.0
 21
-16.0
 31
0.0
  0
LINE
  5
B8A
330
1F
100
AcDbEntity
  8
2
  6
CONTINUOUS
370
25
 62
7
100
AcDbLine
 10
55.0
 20
-16.0
 30
0.0
 11
50.0
 21
-15.0
 31
0.0
  0
LINE
  5
B8B
330
1F
100
AcDbEntity
  8
2
  6
CONTINUOUS
370
25
 62
7
100
AcDbLine
 10
54.7066698869529
 20
-15.94133397739058
 30
0.0
 11
55.0
 21
-15.64800386434348
 31
0.0
  0
LINE
  5
B8C
330
1F
100
AcDbEntity
  8
2
  6
CONTINUOUS
370
25
 62
7
100
AcDbLine
 10
54.35311649635962
 20
-15.87062329927192
 30
0.0
 11
55.0
 21
-15.22373979563154
 31
0.0
  0
LINE
  5
B8D
330
1F
100
AcDbEntity
  8
2
  6
CONTINUOUS
370
25
 62
7
100
AcDbLine
 10
53.99956310576636
 20
-15.79991262115327
 30
0.0
 11
55.0
 21
-14.79947572691962
 31
0.0
  0
LINE
  5
B8E
330
1F
100
AcDbEntity
  8
2
  6
CONTINUOUS
370
25
 62
7
100
AcDbLine
 10
53.64600971517308
 20
-15.72920194303461
 30
0.0
 11
55.0
 21
-14.37521165820769
 31
0.0
  0
LINE
  5
B8F
330
1F
100
AcDbEntity
  8
2
  6
CONTINUOUS
370
25
 62
7
100
AcDbLine
 10
53.29245632457981
 20
-15.65849126491596
 30
0.0
 11
54.9386844868697
 21
-14.01226310262606
 31
0.0
  0
LINE
  5
B90
330
1F
100
AcDbEntity
  8
2
  6
CONTINUOUS
370
25
 62
7
100
AcDbLine
 10
52.93890293398653
 20
-15.5877805867973
 30
0.0
 11
54.40835440097979
 21
-14.11832911980405
 31
0.0
  0
LINE
  5
B91
330
1F
100
AcDbEntity
  8
2
  6
CONTINUOUS
370
25
 62
7
100
AcDbLine
 10
52.58534954339326
 20
-15.51706990867865
 30
0.0
 11
53.87802431508989
 21
-14.22439513698203
 31
0.0
  0
LINE
  5
B92
330
1F
100
AcDbEntity
  8
2
  6
CONTINUOUS
370
25
 62
7
100
AcDbLine
 10
52.23179615279999
 20
-15.44635923056
 30
0.0
 11
53.34769422919997
 21
-14.33046115416001
 31
0.0
  0
LINE
  5
B93
330
1F
100
AcDbEntity
  8
2
  6
CONTINUOUS
370
25
 62
7
100
AcDbLine
 10
51.87824276220672
 20
-15.37564855244134
 30
0.0
 11
52.81736414331007
 21
-14.43652717133799
 31
0.0
  0
LINE
  5
B94
330
1F
100
AcDbEntity
  8
2
  6
CONTINUOUS
370
25
 62
7
100
AcDbLine
 10
51.52468937161343
 20
-15.30493787432269
 30
0.0
 11
52.28703405742015
 21
-14.54259318851597
 31
0.0
  0
LINE
  5
B95
330
1F
100
AcDbEntity
  8
2
  6
CONTINUOUS
370
25
 62
7
100
AcDbLine
 10
51.17113598102017
 20
-15.23422719620403
 30
0.0
 11
51.75670397153025
 21
-14.64865920569395
 31
0.0
  0
LINE
  5
B96
330
1F
100
AcDbEntity
  8
2
  6
CONTINUOUS
370
25
 62
7
100
AcDbLine
 10
50.81758259042689
 20
-15.16351651808538
 30
0.0
 11
51.22637388564033
 21
-14.75472522287194
 31
0.0
  0
LINE
  5
B97
330
1F
100
AcDbEntity
  8
2
  6
CONTINUOUS
370
25
 62
7
100
AcDbLine
 10
50.46402919983363
 20
-15.09280583996672
 30
0.0
 11
50.69604379975043
 21
-14.86079124004992
 31
0.0
  0
LINE
  5
B98
330
1F
100
AcDbEntity
  8
2
  6
CONTINUOUS
370
25
 62
7
100
AcDbLine
 10
50.11047580924034
 20
-15.02209516184807
 30
0.0
 11
50.16571371386051
 21
-14.9668572572279
 31
0.0
  0
LINE
  5
B99
330
1F
100
AcDbEntity
  8
2
  6
CONTINUOUS
370
25
 62
7
100
AcDbLine
 10
50.32842712474626
 20
-14.93431457505075
 30
0.0
 11
50.49264068711938
 21
-15.09852813742387
 31
0.0
  0
LINE
  5
B9A
330
1F
100
AcDbEntity
  8
2
  6
CONTINUOUS
370
25
 62
7
100
AcDbLine
 10
50.68198051533953
 20
-14.86360389693209
 30
0.0
 11
51.02297077300929
 21
-15.20459415460186
 31
0.0
  0
LINE
  5
B9B
330
1F
100
AcDbEntity
  8
2
  6
CONTINUOUS
370
25
 62
7
100
AcDbLine
 10
51.03553390593281
 20
-14.79289321881344
 30
0.0
 11
51.55330085889921
 21
-15.31066017177984
 31
0.0
  0
LINE
  5
B9C
330
1F
100
AcDbEntity
  8
2
  6
CONTINUOUS
370
25
 62
7
100
AcDbLine
 10
51.38908729652609
 20
-14.72218254069479
 30
0.0
 11
52.08363094478912
 21
-15.41672618895782
 31
0.0
  0
LINE
  5
B9D
330
1F
100
AcDbEntity
  8
2
  6
CONTINUOUS
370
25
 62
7
100
AcDbLine
 10
51.74264068711935
 20
-14.65147186257614
 30
0.0
 11
52.61396103067902
 21
-15.5227922061358
 31
0.0
  0
LINE
  5
B9E
330
1F
100
AcDbEntity
  8
2
  6
CONTINUOUS
370
25
 62
7
100
AcDbLine
 10
52.09619407771262
 20
-14.58076118445748
 30
0.0
 11
53.14429111656894
 21
-15.62885822331379
 31
0.0
  0
LINE
  5
B9F
330
1F
100
AcDbEntity
  8
2
  6
CONTINUOUS
370
25
 62
7
100
AcDbLine
 10
52.4497474683059
 20
-14.51005050633882
 30
0.0
 11
53.67462120245885
 21
-15.73492424049177
 31
0.0
  0
LINE
  5
BA0
330
1F
100
AcDbEntity
  8
2
  6
CONTINUOUS
370
25
 62
7
100
AcDbLine
 10
52.80330085889918
 20
-14.43933982822017
 30
0.0
 11
54.20495128834876
 21
-15.84099025766975
 31
0.0
  0
LINE
  5
BA1
330
1F
100
AcDbEntity
  8
2
  6
CONTINUOUS
370
25
 62
7
100
AcDbLine
 10
53.15685424949245
 20
-14.36862915010151
 30
0.0
 11
54.73528137423867
 21
-15.94705627484773
 31
0.0
  0
LINE
  5
BA2
330
1F
100
AcDbEntity
  8
2
  6
CONTINUOUS
370
25
 62
7
100
AcDbLine
 10
53.51040764008572
 20
-14.29791847198286
 30
0.0
 11
55.0
 21
-15.78751083189714
 31
0.0
  0
LINE
  5
BA3
330
1F
100
AcDbEntity
  8
2
  6
CONTINUOUS
370
25
 62
7
100
AcDbLine
 10
53.86396103067899
 20
-14.2272077938642
 30
0.0
 11
55.0
 21
-15.36324676318521
 31
0.0
  0
LINE
  5
BA4
330
1F
100
AcDbEntity
  8
2
  6
CONTINUOUS
370
25
 62
7
100
AcDbLine
 10
54.21751442127227
 20
-14.15649711574555
 30
0.0
 11
55.0
 21
-14.93898269447328
 31
0.0
  0
LINE
  5
BA5
330
1F
100
AcDbEntity
  8
2
  6
CONTINUOUS
370
25
 62
7
100
AcDbLine
 10
54.57106781186553
 20
-14.0857864376269
 30
0.0
 11
55.0
 21
-14.51471862576136
 31
0.0
  0
LINE
  5
BA6
330
1F
100
AcDbEntity
  8
2
  6
CONTINUOUS
370
25
 62
7
100
AcDbLine
 10
54.92462120245881
 20
-14.01507575950824
 30
0.0
 11
55.0
 21
-14.09045455704943
 31
0.0
  0
TEXT
  5
BA7
330
1F
100
AcDbEntity
  8
2
  6
CONTINUOUS
370
25
 62
7
100
AcDbText
 10
41.66666666666666
 20
-13.5
 30
0.0
 40
3.5
  1
12
 72
     1
 11
44.0
 21
-13.5
 31
0.0
100
AcDbText
  0
LINE
  5
BA8
330
1F
100
AcDbEntity
  8
2
  6
CONTINUOUS
370
25
 62
7
100
AcDbLine
 10
32.0
 20
0.0
 30
0.0
 11
32.0
 21
26.0
 31
0.0
  0
LINE
  5
BA9
330
1F
100
AcDbEntity
  8
2
  6
CONTINUOUS
370
25
 62
7
100
AcDbLine
 10
50.0
 20
26.0
 30
0.0
 11
50.0
 21
3.0
 31
0.0
  0
LINE
  5
BAA
330
1F
100
AcDbEntity
  8
2
  6
CONTINUOUS
370
25
 62
7
100
AcDbLine
 10
32.0
 20
25.0
 30
0.0
 11
50.0
 21
25.0
 31
0.0
  0
LINE
  5
BAB
330
1F
100
AcDbEntity
  8
2
  6
CONTINUOUS
370
25
 62
7
100
AcDbLine
 10
32.0
 20
25.0
 30
0.0
 11
37.0
 21
26.0
 31
0.0
  0
LINE
  5
BAC
330
1F
100
AcDbEntity
  8
2
  6
CONTINUOUS
370
25
 62
7
100
AcDbLine
 10
37.0
 20
26.0
 30
0.0
 11
37.0
 21
24.0
 31
0.0
  0
LINE
  5
BAD
330
1F
100
AcDbEntity
  8
2
  6
CONTINUOUS
370
25
 62
7
100
AcDbLine
 10
37.0
 20
24.0
 30
0.0
 11
32.0
 21
25.0
 31
0.0
  0
LINE
  5
BAE
330
1F
100
AcDbEntity
  8
2
  6
CONTINUOUS
370
25
 62
7
100
AcDbLine
 10
36.92343075663604
 20
24.01531384867279
 30
0.0
 11
37.0
 21
24.09188309203675
 31
0.0
  0
LINE
  5
BAF
330
1F
100
AcDbEntity
  8
2
  6
CONTINUOUS
370
25
 62
7
100
AcDbLine
 10
36.56987736604277
 20
24.08602452679144
 30
0.0
 11
37.0
 21
24.51614716074867
 31
0.0
  0
LINE
  5
BB0
330
1F
100
AcDbEntity
  8
2
  6
CONTINUOUS
370
25
 62
7
100
AcDbLine
 10
36.2163239754495
 20
24.1567352049101
 30
0.0
 11
37.0
 21
24.9404112294606
 31
0.0
  0
LINE
  5
BB1
330
1F
100
AcDbEntity
  8
2
  6
CONTINUOUS
370
25
 62
7
100
AcDbLine
 10
35.86277058485623
 20
24.22744588302875
 30
0.0
 11
37.0
 21
25.36467529817253
 31
0.0
  0
LINE
  5
BB2
330
1F
100
AcDbEntity
  8
2
  6
CONTINUOUS
370
25
 62
7
100
AcDbLine
 10
35.50921719426295
 20
24.29815656114741
 30
0.0
 11
37.0
 21
25.78893936688446
 31
0.0
  0
LINE
  5
BB3
330
1F
100
AcDbEntity
  8
2
  6
CONTINUOUS
370
25
 62
7
100
AcDbLine
 10
35.15566380366968
 20
24.36886723926606
 30
0.0
 11
36.73349570550452
 21
25.9466991411009
 31
0.0
  0
LINE
  5
BB4
330
1F
100
AcDbEntity
  8
2
  6
CONTINUOUS
370
25
 62
7
100
AcDbLine
 10
34.80211041307641
 20
24.43957791738472
 30
0.0
 11
36.20316561961462
 21
25.84063312392292
 31
0.0
  0
LINE
  5
BB5
330
1F
100
AcDbEntity
  8
2
  6
CONTINUOUS
370
25
 62
7
100
AcDbLine
 10
34.44855702248314
 20
24.51028859550337
 30
0.0
 11
35.6728355337247
 21
25.73456710674494
 31
0.0
  0
LINE
  5
BB6
330
1F
100
AcDbEntity
  8
2
  6
CONTINUOUS
370
25
 62
7
100
AcDbLine
 10
34.09500363188986
 20
24.58099927362203
 30
0.0
 11
35.14250544783479
 21
25.62850108956696
 31
0.0
  0
LINE
  5
BB7
330
1F
100
AcDbEntity
  8
2
  6
CONTINUOUS
370
25
 62
7
100
AcDbLine
 10
33.74145024129659
 20
24.65170995174068
 30
0.0
 11
34.61217536194489
 21
25.52243507238898
 31
0.0
  0
LINE
  5
BB8
330
1F
100
AcDbEntity
  8
2
  6
CONTINUOUS
370
25
 62
7
100
AcDbLine
 10
33.38789685070331
 20
24.72242062985934
 30
0.0
 11
34.08184527605498
 21
25.416369055211
 31
0.0
  0
LINE
  5
BB9
330
1F
100
AcDbEntity
  8
2
  6
CONTINUOUS
370
25
 62
7
100
AcDbLine
 10
33.03434346011004
 20
24.79313130797799
 30
0.0
 11
33.55151519016506
 21
25.31030303803301
 31
0.0
  0
LINE
  5
BBA
330
1F
100
AcDbEntity
  8
2
  6
CONTINUOUS
370
25
 62
7
100
AcDbLine
 10
32.68079006951677
 20
24.86384198609665
 30
0.0
 11
33.02118510427515
 21
25.20423702085503
 31
0.0
  0
LINE
  5
BBB
330
1F
100
AcDbEntity
  8
2
  6
CONTINUOUS
370
25
 62
7
100
AcDbLine
 10
32.3272366789235
 20
24.9345526642153
 30
0.0
 11
32.49085501838525
 21
25.09817100367705
 31
0.0
  0
LINE
  5
BBC
330
1F
100
AcDbEntity
  8
2
  6
CONTINUOUS
370
25
 62
7
100
AcDbLine
 10
32.02631671166979
 20
25.00526334233396
 30
0.0
 11
32.03947506750468
 21
24.99210498649906
 31
0.0
  0
LINE
  5
BBD
330
1F
100
AcDbEntity
  8
2
  6
CONTINUOUS
370
25
 62
7
100
AcDbLine
 10
32.37987010226306
 20
25.07597402045261
 30
0.0
 11
32.56980515339459
 21
24.88603896932108
 31
0.0
  0
LINE
  5
BBE
330
1F
100
AcDbEntity
  8
2
  6
CONTINUOUS
370
25
 62
7
100
AcDbLine
 10
32.73342349285633
 20
25.14668469857127
 30
0.0
 11
33.1001352392845
 21
24.7799729521431
 31
0.0
  0
LINE
  5
BBF
330
1F
100
AcDbEntity
  8
2
  6
CONTINUOUS
370
25
 62
7
100
AcDbLine
 10
33.08697688344961
 20
25.21739537668992
 30
0.0
 11
33.63046532517441
 21
24.67390693496512
 31
0.0
  0
LINE
  5
BC0
330
1F
100
AcDbEntity
  8
2
  6
CONTINUOUS
370
25
 62
7
100
AcDbLine
 10
33.44053027404288
 20
25.28810605480858
 30
0.0
 11
34.16079541106432
 21
24.56784091778714
 31
0.0
  0
LINE
  5
BC1
330
1F
100
AcDbEntity
  8
2
  6
CONTINUOUS
370
25
 62
7
100
AcDbLine
 10
33.79408366463615
 20
25.35881673292723
 30
0.0
 11
34.69112549695423
 21
24.46177490060915
 31
0.0
  0
LINE
  5
BC2
330
1F
100
AcDbEntity
  8
2
  6
CONTINUOUS
370
25
 62
7
100
AcDbLine
 10
34.14763705522942
 20
25.42952741104589
 30
0.0
 11
35.22145558284414
 21
24.35570888343117
 31
0.0
  0
LINE
  5
BC3
330
1F
100
AcDbEntity
  8
2
  6
CONTINUOUS
370
25
 62
7
100
AcDbLine
 10
34.5011904458227
 20
25.50023808916454
 30
0.0
 11
35.75178566873405
 21
24.24964286625319
 31
0.0
  0
LINE
  5
BC4
330
1F
100
AcDbEntity
  8
2
  6
CONTINUOUS
370
25
 62
7
100
AcDbLine
 10
34.85474383641597
 20
25.57094876728319
 30
0.0
 11
36.28211575462396
 21
24.14357684907521
 31
0.0
  0
LINE
  5
BC5
330
1F
100
AcDbEntity
  8
2
  6
CONTINUOUS
370
25
 62
7
100
AcDbLine
 10
35.20829722700925
 20
25.64165944540185
 30
0.0
 11
36.81244584051387
 21
24.03751083189723
 31
0.0
  0
LINE
  5
BC6
330
1F
100
AcDbEntity
  8
2
  6
CONTINUOUS
370
25
 62
7
100
AcDbLine
 10
35.56185061760252
 20
25.7123701235205
 30
0.0
 11
37.0
 21
24.27422074112302
 31
0.0
  0
LINE
  5
BC7
330
1F
100
AcDbEntity
  8
2
  6
CONTINUOUS
370
25
 62
7
100
AcDbLine
 10
35.91540400819579
 20
25.78308080163916
 30
0.0
 11
37.0
 21
24.69848480983495
 31
0.0
  0
LINE
  5
BC8
330
1F
100
AcDbEntity
  8
2
  6
CONTINUOUS
370
25
 62
7
100
AcDbLine
 10
36.26895739878907
 20
25.85379147975781
 30
0.0
 11
37.0
 21
25.12274887854688
 31
0.0
  0
LINE
  5
BC9
330
1F
100
AcDbEntity
  8
2
  6
CONTINUOUS
370
25
 62
7
100
AcDbLine
 10
36.62251078938234
 20
25.92450215787647
 30
0.0
 11
37.0
 21
25.54701294725881
 31
0.0
  0
LINE
  5
BCA
330
1F
100
AcDbEntity
  8
2
  6
CONTINUOUS
370
25
 62
7
100
AcDbLine
 10
36.97606417997561
 20
25.99521283599512
 30
0.0
 11
37.0
 21
25.97127701597073
 31
0.0
  0
LINE
  5
BCB
330
1F
100
AcDbEntity
  8
2
  6
CONTINUOUS
370
25
 62
7
100
AcDbLine
 10
50.0
 20
25.0
 30
0.0
 11
45.0
 21
24.0
 31
0.0
  0
LINE
  5
BCC
330
1F
100
AcDbEntity
  8
2
  6
CONTINUOUS
370
25
 62
7
100
AcDbLine
 10
45.0
 20
24.0
 30
0.0
 11
45.0
 21
26.0
 31
0.0
  0
LINE
  5
BCD
330
1F
100
AcDbEntity
  8
2
  6
CONTINUOUS
370
25
 62
7
100
AcDbLine
 10
45.0
 20
26.0
 30
0.0
 11
50.0
 21
25.0
 31
0.0
  0
LINE
  5
BCE
330
1F
100
AcDbEntity
  8
2
  6
CONTINUOUS
370
25
 62
7
100
AcDbLine
 10
49.73438853987152
 20
24.9468777079743
 30
0.0
 11
49.82292569324768
 21
25.03541486135046
 31
0.0
  0
LINE
  5
BCF
330
1F
100
AcDbEntity
  8
2
  6
CONTINUOUS
370
25
 62
7
100
AcDbLine
 10
49.20405845398161
 20
24.84081169079632
 30
0.0
 11
49.46937230265441
 21
25.10612553946912
 31
0.0
  0
LINE
  5
BD0
330
1F
100
AcDbEntity
  8
2
  6
CONTINUOUS
370
25
 62
7
100
AcDbLine
 10
48.6737283680917
 20
24.73474567361834
 30
0.0
 11
49.11581891206114
 21
25.17683621758777
 31
0.0
  0
LINE
  5
BD1
330
1F
100
AcDbEntity
  8
2
  6
CONTINUOUS
370
25
 62
7
100
AcDbLine
 10
48.14339828220179
 20
24.62867965644035
 30
0.0
 11
48.76226552146787
 21
25.24754689570643
 31
0.0
  0
LINE
  5
BD2
330
1F
100
AcDbEntity
  8
2
  6
CONTINUOUS
370
25
 62
7
100
AcDbLine
 10
47.61306819631189
 20
24.52261363926237
 30
0.0
 11
48.40871213087459
 21
25.31825757382508
 31
0.0
  0
LINE
  5
BD3
330
1F
100
AcDbEntity
  8
2
  6
CONTINUOUS
370
25
 62
7
100
AcDbLine
 10
47.08273811042197
 20
24.41654762208439
 30
0.0
 11
48.05515874028131
 21
25.38896825194374
 31
0.0
  0
LINE
  5
BD4
330
1F
100
AcDbEntity
  8
2
  6
CONTINUOUS
370
25
 62
7
100
AcDbLine
 10
46.55240802453206
 20
24.31048160490641
 30
0.0
 11
47.70160534968804
 21
25.4596789300624
 31
0.0
  0
LINE
  5
BD5
330
1F
100
AcDbEntity
  8
2
  6
CONTINUOUS
370
25
 62
7
100
AcDbLine
 10
46.02207793864216
 20
24.20441558772843
 30
0.0
 11
47.34805195909478
 21
25.53038960818105
 31
0.0
  0
LINE
  5
BD6
330
1F
100
AcDbEntity
  8
2
  6
CONTINUOUS
370
25
 62
7
100
AcDbLine
 10
45.49174785275224
 20
24.09834957055045
 30
0.0
 11
46.9944985685015
 21
25.6011002862997
 31
0.0
  0
LINE
  5
BD7
330
1F
100
AcDbEntity
  8
2
  6
CONTINUOUS
370
25
 62
7
100
AcDbLine
 10
45.0
 20
24.03086578651013
 30
0.0
 11
46.64094517790823
 21
25.67181096441836
 31
0.0
  0
LINE
  5
BD8
330
1F
100
AcDbEntity
  8
2
  6
CONTINUOUS
370
25
 62
7
100
AcDbLine
 10
45.0
 20
24.45512985522206
 30
0.0
 11
46.28739178731495
 21
25.74252164253701
 31
0.0
  0
LINE
  5
BD9
330
1F
100
AcDbEntity
  8
2
  6
CONTINUOUS
370
25
 62
7
100
AcDbLine
 10
45.0
 20
24.87939392393399
 30
0.0
 11
45.93383839672168
 21
25.81323232065566
 31
0.0
  0
LINE
  5
BDA
330
1F
100
AcDbEntity
  8
2
  6
CONTINUOUS
370
25
 62
7
100
AcDbLine
 10
45.0
 20
25.30365799264591
 30
0.0
 11
45.58028500612841
 21
25.88394299877432
 31
0.0
  0
LINE
  5
BDB
330
1F
100
AcDbEntity
  8
2
  6
CONTINUOUS
370
25
 62
7
100
AcDbLine
 10
45.0
 20
25.72792206135784
 30
0.0
 11
45.22673161553514
 21
25.95465367689297
 31
0.0
  0
LINE
  5
BDC
330
1F
100
AcDbEntity
  8
2
  6
CONTINUOUS
370
25
 62
7
100
AcDbLine
 10
45.0
 20
24.33523804664969
 30
0.0
 11
45.27936503887474
 21
24.05587300777495
 31
0.0
  0
LINE
  5
BDD
330
1F
100
AcDbEntity
  8
2
  6
CONTINUOUS
370
25
 62
7
100
AcDbLine
 10
45.0
 20
24.75950211536161
 30
0.0
 11
45.63291842946801
 21
24.1265836858936
 31
0.0
  0
LINE
  5
BDE
330
1F
100
AcDbEntity
  8
2
  6
CONTINUOUS
370
25
 62
7
100
AcDbLine
 10
45.0
 20
25.18376618407355
 30
0.0
 11
45.9864718200613
 21
24.19729436401226
 31
0.0
  0
LINE
  5
BDF
330
1F
100
AcDbEntity
  8
2
  6
CONTINUOUS
370
25
 62
7
100
AcDbLine
 10
45.0
 20
25.60803025278547
 30
0.0
 11
46.34002521065456
 21
24.26800504213091
 31
0.0
  0
LINE
  5
BE0
330
1F
100
AcDbEntity
  8
2
  6
CONTINUOUS
370
25
 62
7
100
AcDbLine
 10
45.04036790187175
 20
25.99192641962565
 30
0.0
 11
46.69357860124784
 21
24.33871572024957
 31
0.0
  0
LINE
  5
BE1
330
1F
100
AcDbEntity
  8
2
  6
CONTINUOUS
370
25
 62
7
100
AcDbLine
 10
45.57069798776165
 20
25.88586040244767
 30
0.0
 11
47.04713199184111
 21
24.40942639836822
 31
0.0
  0
LINE
  5
BE2
330
1F
100
AcDbEntity
  8
2
  6
CONTINUOUS
370
25
 62
7
100
AcDbLine
 10
46.10102807365156
 20
25.77979438526969
 30
0.0
 11
47.40068538243438
 21
24.48013707648688
 31
0.0
  0
LINE
  5
BE3
330
1F
100
AcDbEntity
  8
2
  6
CONTINUOUS
370
25
 62
7
100
AcDbLine
 10
46.63135815954148
 20
25.67372836809171
 30
0.0
 11
47.75423877302765
 21
24.55084775460553
 31
0.0
  0
LINE
  5
BE4
330
1F
100
AcDbEntity
  8
2
  6
CONTINUOUS
370
25
 62
7
100
AcDbLine
 10
47.16168824543139
 20
25.56766235091373
 30
0.0
 11
48.10779216362093
 21
24.62155843272418
 31
0.0
  0
LINE
  5
BE5
330
1F
100
AcDbEntity
  8
2
  6
CONTINUOUS
370
25
 62
7
100
AcDbLine
 10
47.69201833132129
 20
25.46159633373574
 30
0.0
 11
48.4613455542142
 21
24.69226911084284
 31
0.0
  0
LINE
  5
BE6
330
1F
100
AcDbEntity
  8
2
  6
CONTINUOUS
370
25
 62
7
100
AcDbLine
 10
48.22234841721121
 20
25.35553031655776
 30
0.0
 11
48.81489894480747
 21
24.76297978896149
 31
0.0
  0
LINE
  5
BE7
330
1F
100
AcDbEntity
  8
2
  6
CONTINUOUS
370
25
 62
7
100
AcDbLine
 10
48.75267850310112
 20
25.24946429937978
 30
0.0
 11
49.16845233540074
 21
24.83369046708015
 31
0.0
  0
LINE
  5
BE8
330
1F
100
AcDbEntity
  8
2
  6
CONTINUOUS
370
25
 62
7
100
AcDbLine
 10
49.28300858899102
 20
25.1433982822018
 30
0.0
 11
49.52200572599402
 21
24.9044011451988
 31
0.0
  0
LINE
  5
BE9
330
1F
100
AcDbEntity
  8
2
  6
CONTINUOUS
370
25
 62
7
100
AcDbLine
 10
49.81333867488094
 20
25.03733226502382
 30
0.0
 11
49.8755591165873
 21
24.97511182331746
 31
0.0
  0
TEXT
  5
BEA
330
1F
100
AcDbEntity
  8
2
  6
CONTINUOUS
370
25
 62
7
100
AcDbText
 10
38.66666666666666
 20
26.5
 30
0.0
 40
3.5
  1
18
 72
     1
 11
41.0
 21
26.5
 31
0.0
100
AcDbText
  0
LINE
  5
BEB
330
1F
100
AcDbEntity
  8
SK2
  6
CONTINUOUS
370
25
 62
7
100
AcDbLine
 10
0.0
 20
1.0
 30
0.0
 11
0.0000000000000036
 21
36.0
 31
0.0
  0
LINE
  5
BEC
330
1F
100
AcDbEntity
  8
SK2
  6
CONTINUOUS
370
25
 62
7
100
AcDbLine
 10
50.0
 20
36.0
 30
0.0
 11
50.0
 21
3.0
 31
0.0
  0
LINE
  5
BED
330
1F
100
AcDbEntity
  8
SK2
  6
CONTINUOUS
370
25
 62
7
100
AcDbLine
 10
0.0000000000000036
 20
35.0
 30
0.0
 11
50.0
 21
35.0
 31
0.0
  0
LINE
  5
BEE
330
1F
100
AcDbEntity
  8
SK2
  6
CONTINUOUS
370
25
 62
7
100
AcDbLine
 10
0.0000000000000036
 20
35.0
 30
0.0
 11
5.000000000000004
 21
36.0
 31
0.0
  0
LINE
  5
BEF
330
1F
100
AcDbEntity
  8
SK2
  6
CONTINUOUS
370
25
 62
7
100
AcDbLine
 10
5.000000000000004
 20
36.0
 30
0.0
 11
5.000000000000004
 21
34.0
 31
0.0
  0
LINE
  5
BF0
330
1F
100
AcDbEntity
  8
SK2
  6
CONTINUOUS
370
25
 62
7
100
AcDbLine
 10
5.000000000000004
 20
34.0
 30
0.0
 11
0.0000000000000036
 21
35.0
 31
0.0
  0
LINE
  5
BF1
330
1F
100
AcDbEntity
  8
SK2
  6
CONTINUOUS
370
25
 62
7
100
AcDbLine
 10
4.921645087901911
 20
34.01567098241962
 30
0.0
 11
5.000000000000004
 21
34.09402589451771
 31
0.0
  0
LINE
  5
BF2
330
1F
100
AcDbEntity
  8
SK2
  6
CONTINUOUS
370
25
 62
7
100
AcDbLine
 10
4.568091697308638
 20
34.08638166053827
 30
0.0
 11
5.000000000000004
 21
34.51828996322963
 31
0.0
  0
LINE
  5
BF3
330
1F
100
AcDbEntity
  8
SK2
  6
CONTINUOUS
370
25
 62
7
100
AcDbLine
 10
4.214538306715358
 20
34.15709233865692
 30
0.0
 11
5.000000000000004
 21
34.94255403194157
 31
0.0
  0
LINE
  5
BF4
330
1F
100
AcDbEntity
  8
SK2
  6
CONTINUOUS
370
25
 62
7
100
AcDbLine
 10
3.860984916122082
 20
34.22780301677558
 30
0.0
 11
5.000000000000004
 21
35.3668181006535
 31
0.0
  0
LINE
  5
BF5
330
1F
100
AcDbEntity
  8
SK2
  6
CONTINUOUS
370
25
 62
7
100
AcDbLine
 10
3.507431525528808
 20
34.29851369489424
 30
0.0
 11
5.000000000000004
 21
35.79108216936544
 31
0.0
  0
LINE
  5
BF6
330
1F
100
AcDbEntity
  8
SK2
  6
CONTINUOUS
370
25
 62
7
100
AcDbLine
 10
3.153878134935535
 20
34.3692243730129
 30
0.0
 11
4.730817202403301
 21
35.94616344048066
 31
0.0
  0
LINE
  5
BF7
330
1F
100
AcDbEntity
  8
SK2
  6
CONTINUOUS
370
25
 62
7
100
AcDbLine
 10
2.800324744342255
 20
34.43993505113155
 30
0.0
 11
4.200487116513383
 21
35.84009742330268
 31
0.0
  0
LINE
  5
BF8
330
1F
100
AcDbEntity
  8
SK2
  6
CONTINUOUS
370
25
 62
7
100
AcDbLine
 10
2.446771353748975
 20
34.5106457292502
 30
0.0
 11
3.670157030623464
 21
35.73403140612469
 31
0.0
  0
LINE
  5
BF9
330
1F
100
AcDbEntity
  8
SK2
  6
CONTINUOUS
370
25
 62
7
100
AcDbLine
 10
2.093217963155709
 20
34.58135640736886
 30
0.0
 11
3.139826944733564
 21
35.62796538894671
 31
0.0
  0
LINE
  5
BFA
330
1F
100
AcDbEntity
  8
SK2
  6
CONTINUOUS
370
25
 62
7
100
AcDbLine
 10
1.739664572562429
 20
34.65206708548752
 30
0.0
 11
2.609496858843645
 21
35.52189937176873
 31
0.0
  0
LINE
  5
BFB
330
1F
100
AcDbEntity
  8
SK2
  6
CONTINUOUS
370
25
 62
7
100
AcDbLine
 10
1.386111181969152
 20
34.72277776360617
 30
0.0
 11
2.079166772953727
 21
35.41583335459075
 31
0.0
  0
LINE
  5
BFC
330
1F
100
AcDbEntity
  8
SK2
  6
CONTINUOUS
370
25
 62
7
100
AcDbLine
 10
1.032557791375872
 20
34.79348844172483
 30
0.0
 11
1.548836687063808
 21
35.30976733741277
 31
0.0
  0
LINE
  5
BFD
330
1F
100
AcDbEntity
  8
SK2
  6
CONTINUOUS
370
25
 62
7
100
AcDbLine
 10
0.6790044007825919
 20
34.86419911984348
 30
0.0
 11
1.01850660117389
 21
35.20370132023478
 31
0.0
  0
LINE
  5
BFE
330
1F
100
AcDbEntity
  8
SK2
  6
CONTINUOUS
370
25
 62
7
100
AcDbLine
 10
0.325451010189326
 20
34.93490979796213
 30
0.0
 11
0.488176515283989
 21
35.0976353030568
 31
0.0
  0
LINE
  5
BFF
330
1F
100
AcDbEntity
  8
SK2
  6
CONTINUOUS
370
25
 62
7
100
AcDbLine
 10
0.3284271247460708
 20
35.06568542494922
 30
0.0
 11
0.4926406871191063
 21
34.90147186257618
 31
0.0
  0
LINE
  5
C00
330
1F
100
AcDbEntity
  8
SK2
  6
CONTINUOUS
370
25
 62
7
100
AcDbLine
 10
0.6819805153393439
 20
35.13639610306787
 30
0.0
 11
1.022970773009014
 21
34.79540584539819
 31
0.0
  0
LINE
  5
C01
330
1F
100
AcDbEntity
  8
SK2
  6
CONTINUOUS
370
25
 62
7
100
AcDbLine
 10
1.035533905932621
 20
35.20710678118652
 30
0.0
 11
1.553300858898925
 21
34.68933982822021
 31
0.0
  0
LINE
  5
C02
330
1F
100
AcDbEntity
  8
SK2
  6
CONTINUOUS
370
25
 62
7
100
AcDbLine
 10
1.389087296525897
 20
35.27781745930518
 30
0.0
 11
2.08363094478884
 21
34.58327381104223
 31
0.0
  0
LINE
  5
C03
330
1F
100
AcDbEntity
  8
SK2
  6
CONTINUOUS
370
25
 62
7
100
AcDbLine
 10
1.742640687119174
 20
35.34852813742383
 30
0.0
 11
2.613961030678752
 21
34.47720779386425
 31
0.0
  0
LINE
  5
C04
330
1F
100
AcDbEntity
  8
SK2
  6
CONTINUOUS
370
25
 62
7
100
AcDbLine
 10
2.09619407771245
 20
35.41923881554249
 30
0.0
 11
3.144291116568663
 21
34.37114177668627
 31
0.0
  0
LINE
  5
C05
330
1F
100
AcDbEntity
  8
SK2
  6
CONTINUOUS
370
25
 62
7
100
AcDbLine
 10
2.449747468305723
 20
35.48994949366114
 30
0.0
 11
3.674621202458574
 21
34.26507575950829
 31
0.0
  0
LINE
  5
C06
330
1F
100
AcDbEntity
  8
SK2
  6
CONTINUOUS
370
25
 62
7
100
AcDbLine
 10
2.803300858899
 20
35.5606601717798
 30
0.0
 11
4.204951288348482
 21
34.1590097423303
 31
0.0
  0
LINE
  5
C07
330
1F
100
AcDbEntity
  8
SK2
  6
CONTINUOUS
370
25
 62
7
100
AcDbLine
 10
3.156854249492273
 20
35.63137084989846
 30
0.0
 11
4.73528137423839
 21
34.05294372515232
 31
0.0
  0
LINE
  5
C08
330
1F
100
AcDbEntity
  8
SK2
  6
CONTINUOUS
370
25
 62
7
100
AcDbLine
 10
3.510407640085546
 20
35.70208152801711
 30
0.0
 11
5.000000000000004
 21
34.21248916810264
 31
0.0
  0
LINE
  5
C09
330
1F
100
AcDbEntity
  8
SK2
  6
CONTINUOUS
370
25
 62
7
100
AcDbLine
 10
3.863961030678823
 20
35.77279220613576
 30
0.0
 11
5.000000000000004
 21
34.63675323681457
 31
0.0
  0
LINE
  5
C0A
330
1F
100
AcDbEntity
  8
SK2
  6
CONTINUOUS
370
25
 62
7
100
AcDbLine
 10
4.217514421272099
 20
35.84350288425442
 30
0.0
 11
5.000000000000004
 21
35.06101730552651
 31
0.0
  0
LINE
  5
C0B
330
1F
100
AcDbEntity
  8
SK2
  6
CONTINUOUS
370
25
 62
7
100
AcDbLine
 10
4.571067811865372
 20
35.91421356237308
 30
0.0
 11
5.000000000000004
 21
35.48528137423844
 31
0.0
  0
LINE
  5
C0C
330
1F
100
AcDbEntity
  8
SK2
  6
CONTINUOUS
370
25
 62
7
100
AcDbLine
 10
4.924621202458646
 20
35.98492424049173
 30
0.0
 11
5.000000000000004
 21
35.90954544295037
 31
0.0
  0
LINE
  5
C0D
330
1F
100
AcDbEntity
  8
SK2
  6
CONTINUOUS
370
25
 62
7
100
AcDbLine
 10
50.0
 20
35.0
 30
0.0
 11
45.0
 21
34.0
 31
0.0
  0
LINE
  5
C0E
330
1F
100
AcDbEntity
  8
SK2
  6
CONTINUOUS
370
25
 62
7
100
AcDbLine
 10
45.0
 20
34.0
 30
0.0
 11
45.0
 21
36.0
 31
0.0
  0
LINE
  5
C0F
330
1F
100
AcDbEntity
  8
SK2
  6
CONTINUOUS
370
25
 62
7
100
AcDbLine
 10
45.0
 20
36.0
 30
0.0
 11
50.0
 21
35.0
 31
0.0
  0
LINE
  5
C10
330
1F
100
AcDbEntity
  8
SK2
  6
CONTINUOUS
370
25
 62
7
100
AcDbLine
 10
49.50646647851364
 20
34.90129329570273
 30
0.0
 11
49.67097765234243
 21
35.06580446953151
 31
0.0
  0
LINE
  5
C11
330
1F
100
AcDbEntity
  8
SK2
  6
CONTINUOUS
370
25
 62
7
100
AcDbLine
 10
48.97613639262373
 20
34.79522727852475
 30
0.0
 11
49.31742426174916
 21
35.13651514765017
 31
0.0
  0
LINE
  5
C12
330
1F
100
AcDbEntity
  8
SK2
  6
CONTINUOUS
370
25
 62
7
100
AcDbLine
 10
48.44580630673383
 20
34.68916126134676
 30
0.0
 11
48.96387087115589
 21
35.20722582576883
 31
0.0
  0
LINE
  5
C13
330
1F
100
AcDbEntity
  8
SK2
  6
CONTINUOUS
370
25
 62
7
100
AcDbLine
 10
47.91547622084391
 20
34.58309524416878
 30
0.0
 11
48.61031748056261
 21
35.27793650388748
 31
0.0
  0
LINE
  5
C14
330
1F
100
AcDbEntity
  8
SK2
  6
CONTINUOUS
370
25
 62
7
100
AcDbLine
 10
47.38514613495401
 20
34.4770292269908
 30
0.0
 11
48.25676408996934
 21
35.34864718200613
 31
0.0
  0
LINE
  5
C15
330
1F
100
AcDbEntity
  8
SK2
  6
CONTINUOUS
370
25
 62
7
100
AcDbLine
 10
46.85481604906409
 20
34.37096320981281
 30
0.0
 11
47.90321069937606
 21
35.41935786012479
 31
0.0
  0
LINE
  5
C16
330
1F
100
AcDbEntity
  8
SK2
  6
CONTINUOUS
370
25
 62
7
100
AcDbLine
 10
46.32448596317418
 20
34.26489719263483
 30
0.0
 11
47.54965730878279
 21
35.49006853824345
 31
0.0
  0
LINE
  5
C17
330
1F
100
AcDbEntity
  8
SK2
  6
CONTINUOUS
370
25
 62
7
100
AcDbLine
 10
45.79415587728428
 20
34.15883117545685
 30
0.0
 11
47.19610391818951
 21
35.5607792163621
 31
0.0
  0
LINE
  5
C18
330
1F
100
AcDbEntity
  8
SK2
  6
CONTINUOUS
370
25
 62
7
100
AcDbLine
 10
45.26382579139437
 20
34.05276515827887
 30
0.0
 11
46.84255052759624
 21
35.63148989448075
 31
0.0
  0
LINE
  5
C19
330
1F
100
AcDbEntity
  8
SK2
  6
CONTINUOUS
370
25
 62
7
100
AcDbLine
 10
45.0
 20
34.21320343559644
 30
0.0
 11
46.48899713700297
 21
35.70220057259941
 31
0.0
  0
LINE
  5
C1A
330
1F
100
AcDbEntity
  8
SK2
  6
CONTINUOUS
370
25
 62
7
100
AcDbLine
 10
45.0
 20
34.63746750430837
 30
0.0
 11
46.13544374640969
 21
35.77291125071807
 31
0.0
  0
LINE
  5
C1B
330
1F
100
AcDbEntity
  8
SK2
  6
CONTINUOUS
370
25
 62
7
100
AcDbLine
 10
45.0
 20
35.0617315730203
 30
0.0
 11
45.78189035581642
 21
35.84362192883672
 31
0.0
  0
LINE
  5
C1C
330
1F
100
AcDbEntity
  8
SK2
  6
CONTINUOUS
370
25
 62
7
100
AcDbLine
 10
45.0
 20
35.48599564173223
 30
0.0
 11
45.42833696522315
 21
35.91433260695537
 31
0.0
  0
LINE
  5
C1D
330
1F
100
AcDbEntity
  8
SK2
  6
CONTINUOUS
370
25
 62
7
100
AcDbLine
 10
45.0
 20
35.91025971044417
 30
0.0
 11
45.07478357462987
 21
35.98504328507403
 31
0.0
  0
LINE
  5
C1E
330
1F
100
AcDbEntity
  8
SK2
  6
CONTINUOUS
370
25
 62
7
100
AcDbLine
 10
45.0
 20
34.09331162702404
 30
0.0
 11
45.07775968918671
 21
34.01555193783734
 31
0.0
  0
LINE
  5
C1F
330
1F
100
AcDbEntity
  8
SK2
  6
CONTINUOUS
370
25
 62
7
100
AcDbLine
 10
45.0
 20
34.51757569573596
 30
0.0
 11
45.43131307977998
 21
34.086262615956
 31
0.0
  0
LINE
  5
C20
330
1F
100
AcDbEntity
  8
SK2
  6
CONTINUOUS
370
25
 62
7
100
AcDbLine
 10
45.0
 20
34.9418397644479
 30
0.0
 11
45.78486647037325
 21
34.15697329407465
 31
0.0
  0
LINE
  5
C21
330
1F
100
AcDbEntity
  8
SK2
  6
CONTINUOUS
370
25
 62
7
100
AcDbLine
 10
45.0
 20
35.36610383315983
 30
0.0
 11
46.13841986096652
 21
34.2276839721933
 31
0.0
  0
LINE
  5
C22
330
1F
100
AcDbEntity
  8
SK2
  6
CONTINUOUS
370
25
 62
7
100
AcDbLine
 10
45.0
 20
35.79036790187175
 30
0.0
 11
46.4919732515598
 21
34.29839465031196
 31
0.0
  0
LINE
  5
C23
330
1F
100
AcDbEntity
  8
SK2
  6
CONTINUOUS
370
25
 62
7
100
AcDbLine
 10
45.26828996322962
 20
35.94634200735408
 30
0.0
 11
46.84552664215308
 21
34.36910532843061
 31
0.0
  0
LINE
  5
C24
330
1F
100
AcDbEntity
  8
SK2
  6
CONTINUOUS
370
25
 62
7
100
AcDbLine
 10
45.79862004911952
 20
35.8402759901761
 30
0.0
 11
47.19908003274635
 21
34.43981600654926
 31
0.0
  0
LINE
  5
C25
330
1F
100
AcDbEntity
  8
SK2
  6
CONTINUOUS
370
25
 62
7
100
AcDbLine
 10
46.32895013500944
 20
35.73420997299812
 30
0.0
 11
47.55263342333963
 21
34.51052668466792
 31
0.0
  0
LINE
  5
C26
330
1F
100
AcDbEntity
  8
SK2
  6
CONTINUOUS
370
25
 62
7
100
AcDbLine
 10
46.85928022089935
 20
35.62814395582014
 30
0.0
 11
47.9061868139329
 21
34.58123736278658
 31
0.0
  0
LINE
  5
C27
330
1F
100
AcDbEntity
  8
SK2
  6
CONTINUOUS
370
25
 62
7
100
AcDbLine
 10
47.38961030678926
 20
35.52207793864215
 30
0.0
 11
48.25974020452617
 21
34.65194804090523
 31
0.0
  0
LINE
  5
C28
330
1F
100
AcDbEntity
  8
SK2
  6
CONTINUOUS
370
25
 62
7
100
AcDbLine
 10
47.91994039267917
 20
35.41601192146417
 30
0.0
 11
48.61329359511944
 21
34.72265871902388
 31
0.0
  0
LINE
  5
C29
330
1F
100
AcDbEntity
  8
SK2
  6
CONTINUOUS
370
25
 62
7
100
AcDbLine
 10
48.45027047856907
 20
35.30994590428618
 30
0.0
 11
48.96684698571272
 21
34.79336939714254
 31
0.0
  0
LINE
  5
C2A
330
1F
100
AcDbEntity
  8
SK2
  6
CONTINUOUS
370
25
 62
7
100
AcDbLine
 10
48.98060056445899
 20
35.2038798871082
 30
0.0
 11
49.320400376306
 21
34.8640800752612
 31
0.0
  0
LINE
  5
C2B
330
1F
100
AcDbEntity
  8
SK2
  6
CONTINUOUS
370
25
 62
7
100
AcDbLine
 10
49.5109306503489
 20
35.09781386993022
 30
0.0
 11
49.67395376689927
 21
34.93479075337986
 31
0.0
  0
TEXT
  5
C2C
330
1F
100
AcDbEntity
  8
SK2
  6
CONTINUOUS
370
25
 62
7
100
AcDbText
 10
22.375
 20
36.5
 30
0.0
 40
3.5
  1
50
 72
     1
 11
25.0
 21
36.5
 31
0.0
100
AcDbText
  0
LINE
  5
C2D
330
1F
100
AcDbEntity
  8
SK1
  6
CONTINUOUS
370
50
 62
4
100
AcDbLine
 10
32.0
 20
0.0
 30
0.0
 11
33.75
 21
0.0
 31
0.0
  0
LINE
  5
C2E
330
1F
100
AcDbEntity
  8
SK1
  6
CONTINUOUS
370
50
 62
4
100
AcDbLine
 10
32.0
 20
0.0
 30
0.0
 11
32.0
 21
1.75
 31
0.0
  0
ARC
  5
C2F
330
1F
100
AcDbEntity
  8
SK1
  6
CONTINUOUS
370
50
 62
4
100
AcDbCircle
 10
32.0
 20
0.0
 30
0.0
 40
1.75
100
AcDbArc
 50
0.0
 51
90.0
  0
LINE
  5
C30
330
1F
100
AcDbEntity
  8
SK1
  6
CONTINUOUS
370
50
 62
4
100
AcDbLine
 10
32.0
 20
0.0
 30
0.0
 11
30.25
 21
0.0
 31
0.0
  0
ARC
  5
C31
330
1F
100
AcDbEntity
  8
SK1
  6
CONTINUOUS
370
50
 62
4
100
AcDbCircle
 10
32.0
 20
0.0
 30
0.0
 40
1.75
100
AcDbArc
 50
180.0
 51
270.0
  0
LINE
  5
C32
330
1F
100
AcDbEntity
  8
SK1
  6
CONTINUOUS
370
50
 62
4
100
AcDbLine
 10
32.0
 20
-1.75
 30
0.0
 11
32.0
 21
0.0
 31
0.0
  0
ARC
  5
C33
330
1F
100
AcDbEntity
  8
SK1
  6
CONTINUOUS
370
50
 62
4
100
AcDbCircle
 10
32.0
 20
0.0
 30
0.0
 40
1.75
100
AcDbArc
 50
270.0
 51
0.0
  0
ARC
  5
C34
330
1F
100
AcDbEntity
  8
SK1
  6
CONTINUOUS
370
50
 62
4
100
AcDbCircle
 10
32.0
 20
0.0
 30
0.0
 40
1.75
100
AcDbArc
 50
90.0
 51
180.0
  0
LINE
  5
C35
330
1F
100
AcDbEntity
  8
SK1
  6
CONTINUOUS
370
50
 62
4
100
AcDbLine
 10
31.77717274741573
 20
-1.73564731720198
 30
0.0
 11
32.0
 21
-1.512820064617713
 31
0.0
  0
LINE
  5
C36
330
1F
100
AcDbEntity
  8
SK1
  6
CONTINUOUS
370
50
 62
4
100
AcDbLine
 10
33.51282006461771
 20
0.0
 30
0.0
 11
33.73564731720198
 21
0.2228272525842674
 31
0.0
  0
LINE
  5
C37
330
1F
100
AcDbEntity
  8
SK1
  6
CONTINUOUS
370
50
 62
4
100
AcDbLine
 10
31.56930380681873
 20
-1.69602888438369
 30
0.0
 11
32.0
 21
-1.265332691202421
 31
0.0
  0
LINE
  5
C38
330
1F
100
AcDbEntity
  8
SK1
  6
CONTINUOUS
370
50
 62
4
100
AcDbLine
 10
33.26533269120242
 20
0.0
 30
0.0
 11
33.69602888438369
 21
0.4306961931812696
 31
0.0
  0
LINE
  5
C39
330
1F
100
AcDbEntity
  8
SK1
  6
CONTINUOUS
370
50
 62
4
100
AcDbLine
 10
31.38148340435765
 20
-1.636361913429485
 30
0.0
 11
32.0
 21
-1.01784531778713
 31
0.0
  0
LINE
  5
C3A
330
1F
100
AcDbEntity
  8
SK1
  6
CONTINUOUS
370
50
 62
4
100
AcDbLine
 10
33.01784531778713
 20
0.0
 30
0.0
 11
33.63636191342948
 21
0.6185165956423557
 31
0.0
  0
LINE
  5
C3B
330
1F
100
AcDbEntity
  8
SK1
  6
CONTINUOUS
370
50
 62
4
100
AcDbLine
 10
31.2098551094628
 20
-1.560502834909039
 30
0.0
 11
32.0
 21
-0.7703579443718382
 31
0.0
  0
LINE
  5
C3C
330
1F
100
AcDbEntity
  8
SK1
  6
CONTINUOUS
370
50
 62
4
100
AcDbLine
 10
32.77035794437184
 20
0.0
 30
0.0
 11
33.56050283490904
 21
0.7901448905372013
 31
0.0
  0
LINE
  5
C3D
330
1F
100
AcDbEntity
  8
SK1
  6
CONTINUOUS
370
50
 62
4
100
AcDbLine
 10
31.05217783219447
 20
-1.470692738762079
 30
0.0
 11
32.0
 21
-0.5228705709565462
 31
0.0
  0
LINE
  5
C3E
330
1F
100
AcDbEntity
  8
SK1
  6
CONTINUOUS
370
50
 62
4
100
AcDbLine
 10
32.52287057095655
 20
0.0
 30
0.0
 11
33.47069273876208
 21
0.947822167805533
 31
0.0
  0
LINE
  5
C3F
330
1F
100
AcDbEntity
  8
SK1
  6
CONTINUOUS
370
50
 62
4
100
AcDbLine
 10
30.90842956711548
 20
-1.366953630425777
 30
0.0
 11
32.0
 21
-0.2753831975412551
 31
0.0
  0
LINE
  5
C40
330
1F
100
AcDbEntity
  8
SK1
  6
CONTINUOUS
370
50
 62
4
100
AcDbLine
 10
32.27538319754125
 20
0.0
 30
0.0
 11
33.36695363042578
 21
1.091570432884522
 31
0.0
  0
LINE
  5
C41
330
1F
100
AcDbEntity
  8
SK1
  6
CONTINUOUS
370
50
 62
4
100
AcDbLine
 10
30.77712164538164
 20
-1.25077417874432
 30
0.0
 11
32.0
 21
-0.0278958241259639
 31
0.0
  0
LINE
  5
C42
330
1F
100
AcDbEntity
  8
SK1
  6
CONTINUOUS
370
50
 62
4
100
AcDbLine
 10
32.02789582412596
 20
0.0
 30
0.0
 11
33.25077417874432
 21
1.222878354618356
 31
0.0
  0
LINE
  5
C43
330
1F
100
AcDbEntity
  8
SK1
  6
CONTINUOUS
370
50
 62
4
100
AcDbLine
 10
30.65784030371346
 20
-1.122568146997212
 30
0.0
 11
31.78040845071067
 21
0.0
 31
0.0
  0
LINE
  5
C44
330
1F
100
AcDbEntity
  8
SK1
  6
CONTINUOUS
370
50
 62
4
100
AcDbLine
 10
32.0
 20
0.2195915492893277
 30
0.0
 11
33.12256814699721
 21
1.34215969628654
 31
0.0
  0
LINE
  5
C45
330
1F
100
AcDbEntity
  8
SK1
  6
CONTINUOUS
370
50
 62
4
100
AcDbLine
 10
30.55188167231256
 20
-0.9810394049828186
 30
0.0
 11
31.53292107729538
 21
0.0
 31
0.0
  0
LINE
  5
C46
330
1F
100
AcDbEntity
  8
SK1
  6
CONTINUOUS
370
50
 62
4
100
AcDbLine
 10
32.0
 20
0.4670789227046193
 30
0.0
 11
32.98103940498282
 21
1.448118327687438
 31
0.0
  0
LINE
  5
C47
330
1F
100
AcDbEntity
  8
SK1
  6
CONTINUOUS
370
50
 62
4
100
AcDbLine
 10
30.45832908651575
 20
-0.8271046173643402
 30
0.0
 11
31.28543370388009
 21
0.0
 31
0.0
  0
LINE
  5
C48
330
1F
100
AcDbEntity
  8
SK1
  6
CONTINUOUS
370
50
 62
4
100
AcDbLine
 10
32.0
 20
0.71456629611991
 30
0.0
 11
32.82710461736434
 21
1.54167091348425
 31
0.0
  0
LINE
  5
C49
330
1F
100
AcDbEntity
  8
SK1
  6
CONTINUOUS
370
50
 62
4
100
AcDbLine
 10
30.37918473824205
 20
-0.6587615922227528
 30
0.0
 11
31.0379463304648
 21
0.0
 31
0.0
  0
LINE
  5
C4A
330
1F
100
AcDbEntity
  8
SK1
  6
CONTINUOUS
370
50
 62
4
100
AcDbLine
 10
32.0
 20
0.9620536695352015
 30
0.0
 11
32.65876159222275
 21
1.620815261757954
 31
0.0
  0
LINE
  5
C4B
330
1F
100
AcDbEntity
  8
SK1
  6
CONTINUOUS
370
50
 62
4
100
AcDbLine
 10
30.31629687706963
 20
-0.474162079979876
 30
0.0
 11
30.79045895704951
 21
0.0
 31
0.0
  0
LINE
  5
C4C
330
1F
100
AcDbEntity
  8
SK1
  6
CONTINUOUS
370
50
 62
4
100
AcDbLine
 10
32.0
 20
1.209541042950494
 30
0.0
 11
32.47416207997988
 21
1.683703122930369
 31
0.0
  0
LINE
  5
C4D
330
1F
100
AcDbEntity
  8
SK1
  6
CONTINUOUS
370
50
 62
4
100
AcDbLine
 10
30.27198100434271
 20
-0.2709905792915031
 30
0.0
 11
30.54297158363422
 21
0.0
 31
0.0
  0
LINE
  5
C4E
330
1F
100
AcDbEntity
  8
SK1
  6
CONTINUOUS
370
50
 62
4
100
AcDbLine
 10
32.0
 20
1.457028416365784
 30
0.0
 11
32.2709905792915
 21
1.728018995657286
 31
0.0
  0
LINE
  5
C4F
330
1F
100
AcDbEntity
  8
SK1
  6
CONTINUOUS
370
50
 62
4
100
AcDbLine
 10
30.2513858468978
 20
-0.0440983633211194
 30
0.0
 11
30.29548421021893
 21
0.0
 31
0.0
  0
LINE
  5
C50
330
1F
100
AcDbEntity
  8
SK1
  6
CONTINUOUS
370
50
 62
4
100
AcDbLine
 10
32.0
 20
1.704515789781075
 30
0.0
 11
32.04409836332112
 21
1.748614153102194
 31
0.0
  0
LINE
  5
C51
330
1F
100
AcDbEntity
  8
SK1
  6
CONTINUOUS
370
50
 62
4
100
AcDbLine
 10
30.36386517603681
 20
-0.6191473609004006
 30
0.0
 11
31.3808526390996
 21
-1.636134823963186
 31
0.0
  0
LINE
  5
C52
330
1F
100
AcDbEntity
  8
SK1
  6
CONTINUOUS
370
50
 62
4
100
AcDbLine
 10
30.27363430643545
 20
-0.2814291178837463
 30
0.0
 11
31.71857088211625
 21
-1.726365693564548
 31
0.0
  0
LINE
  5
C53
330
1F
100
AcDbEntity
  8
SK1
  6
CONTINUOUS
370
50
 62
4
100
AcDbLine
 10
30.2503344343115
 20
-0.0106418723445003
 30
0.0
 11
31.9893581276555
 21
-1.749665565688503
 31
0.0
  0
LINE
  5
C54
330
1F
100
AcDbEntity
  8
SK1
  6
CONTINUOUS
370
50
 62
4
100
AcDbLine
 10
30.48717993538229
 20
0.0
 30
0.0
 11
32.0
 21
-1.51282006461771
 31
0.0
  0
LINE
  5
C55
330
1F
100
AcDbEntity
  8
SK1
  6
CONTINUOUS
370
50
 62
4
100
AcDbLine
 10
30.73466730879758
 20
0.0
 30
0.0
 11
32.0
 21
-1.265332691202418
 31
0.0
  0
LINE
  5
C56
330
1F
100
AcDbEntity
  8
SK1
  6
CONTINUOUS
370
50
 62
4
100
AcDbLine
 10
30.98215468221287
 20
0.0
 30
0.0
 11
32.0
 21
-1.017845317787128
 31
0.0
  0
LINE
  5
C57
330
1F
100
AcDbEntity
  8
SK1
  6
CONTINUOUS
370
50
 62
4
100
AcDbLine
 10
31.22964205562816
 20
0.0
 30
0.0
 11
32.0
 21
-0.7703579443718369
 31
0.0
  0
LINE
  5
C58
330
1F
100
AcDbEntity
  8
SK1
  6
CONTINUOUS
370
50
 62
4
100
AcDbLine
 10
31.47712942904345
 20
0.0
 30
0.0
 11
32.0
 21
-0.5228705709565453
 31
0.0
  0
LINE
  5
C59
330
1F
100
AcDbEntity
  8
SK1
  6
CONTINUOUS
370
50
 62
4
100
AcDbLine
 10
31.72461680245875
 20
0.0
 30
0.0
 11
32.0
 21
-0.2753831975412537
 31
0.0
  0
LINE
  5
C5A
330
1F
100
AcDbEntity
  8
SK1
  6
CONTINUOUS
370
50
 62
4
100
AcDbLine
 10
31.97210417587404
 20
0.0
 30
0.0
 11
32.0
 21
-0.027895824125963
 31
0.0
  0
LINE
  5
C5B
330
1F
100
AcDbEntity
  8
SK1
  6
CONTINUOUS
370
50
 62
4
100
AcDbLine
 10
32.0
 20
0.219591549289329
 30
0.0
 11
32.21959154928933
 21
0.0
 31
0.0
  0
LINE
  5
C5C
330
1F
100
AcDbEntity
  8
SK1
  6
CONTINUOUS
370
50
 62
4
100
AcDbLine
 10
32.0
 20
0.4670789227046202
 30
0.0
 11
32.46707892270462
 21
0.0
 31
0.0
  0
LINE
  5
C5D
330
1F
100
AcDbEntity
  8
SK1
  6
CONTINUOUS
370
50
 62
4
100
AcDbLine
 10
32.0
 20
0.7145662961199113
 30
0.0
 11
32.71456629611991
 21
0.0
 31
0.0
  0
LINE
  5
C5E
330
1F
100
AcDbEntity
  8
SK1
  6
CONTINUOUS
370
50
 62
4
100
AcDbLine
 10
32.0
 20
0.9620536695352029
 30
0.0
 11
32.9620536695352
 21
0.0
 31
0.0
  0
LINE
  5
C5F
330
1F
100
AcDbEntity
  8
SK1
  6
CONTINUOUS
370
50
 62
4
100
AcDbLine
 10
32.0
 20
1.209541042950494
 30
0.0
 11
33.2095410429505
 21
0.0
 31
0.0
  0
LINE
  5
C60
330
1F
100
AcDbEntity
  8
SK1
  6
CONTINUOUS
370
50
 62
4
100
AcDbLine
 10
32.0
 20
1.457028416365785
 30
0.0
 11
33.45702841636579
 21
0.0
 31
0.0
  0
LINE
  5
C61
330
1F
100
AcDbEntity
  8
SK1
  6
CONTINUOUS
370
50
 62
4
100
AcDbLine
 10
32.0
 20
1.704515789781076
 30
0.0
 11
33.70451578978108
 21
0.0
 31
0.0
  0
LINE
  5
C62
330
1F
100
AcDbEntity
  8
SK1
  6
CONTINUOUS
370
50
 62
4
100
AcDbLine
 10
32.21543384193567
 20
1.736569321260697
 30
0.0
 11
33.7365693212607
 21
0.2154338419356714
 31
0.0
  0
LINE
  5
C63
330
1F
100
AcDbEntity
  8
SK1
  6
CONTINUOUS
370
50
 62
4
100
AcDbLine
 10
32.53283284728993
 20
1.666657689321729
 30
0.0
 11
33.66665768932173
 21
0.5328328472899322
 31
0.0
  0
LINE
  5
C64
330
1F
100
AcDbEntity
  8
SK1
  6
CONTINUOUS
370
50
 62
4
100
AcDbLine
 10
33.04009874905675
 20
1.406879160970207
 30
0.0
 11
33.40687916097021
 21
1.040098749056747
 31
0.0
  0
LINE
  5
C65
330
1F
100
AcDbEntity
  8
4
  6
LONGDASH_DASH
370
25
 62
2
100
AcDbLine
 10
32.0
 20
0.0
 30
0.0
 11
50.0
 21
0.0
 31
0.0
  0
LINE
  5
C66
330
1F
100
AcDbEntity
  8
SK4
  6
LONGDASH_DASH
370
25
 62
2
100
AcDbLine
 10
-6.0
 20
0.0
 30
0.0
 11
56.0
 21
0.0
 31
0.0
  0
ARC
  5
C67
330
1F
100
AcDbEntity
  8
SK6
  6
CONTINUOUS
370
25
 62
5
100
AcDbCircle
 10
74.4613820083765
 20
-27.84610370338786
 30
0.0
 40
2.76048912849221
100
AcDbArc
 50
338.9379403434233
 51
90.44457437511365
  0
LINE
  5
C68
330
1F
100
AcDbEntity
  8
SK6
  6
CONTINUOUS
370
25
 62
5
100
AcDbLine
 10
74.43996279695983
 20
-25.08569767421281
 30
0.0
 11
74.43996279695983
 21
-26.18875630613464
 31
0.0
  0
ARC
  5
C69
330
1F
100
AcDbEntity
  8
SK6
  6
CONTINUOUS
370
25
 62
5
100
AcDbCircle
 10
74.45050902936916
 20
-27.86609719566821
 30
0.0
 40
1.677374043771779
100
AcDbArc
 50
243.4214706017868
 51
90.36024081226083
  0
ARC
  5
C6A
330
1F
100
AcDbEntity
  8
SK6
  6
CONTINUOUS
370
25
 62
5
100
AcDbCircle
 10
76.97275989684958
 20
-27.43468994215561
 30
0.0
 40
3.80021703002276
100
AcDbArc
 50
210.5483731288539
 51
236.97801693668
  0
LINE
  5
C6B
330
1F
100
AcDbEntity
  8
SK6
  6
CONTINUOUS
370
25
 62
5
100
AcDbLine
 10
74.90179068512487
 20
-30.62102576867535
 30
0.0
 11
79.04373096742671
 21
-30.62102576867535
 31
0.0
  0
ARC
  5
C6C
330
1F
100
AcDbEntity
  8
SK6
  6
CONTINUOUS
370
25
 62
5
100
AcDbCircle
 10
76.97276183877257
 20
-27.4346900437346
 30
0.0
 40
3.800216899582472
100
AcDbArc
 50
303.0219828477959
 51
326.3732153033476
  0
LINE
  5
C6D
330
1F
100
AcDbEntity
  8
SK6
  6
CONTINUOUS
370
25
 62
5
100
AcDbLine
 10
80.13705975135723
 20
-29.5391774407709
 30
0.0
 11
76.77976170575462
 21
-29.5391774407709
 31
0.0
  0
LINE
  5
C6E
330
1F
100
AcDbEntity
  8
SK6
  6
CONTINUOUS
370
25
 62
5
100
AcDbLine
 10
76.77976170575462
 20
-29.5391774407709
 30
0.0
 11
80.69962109771987
 21
-28.17777624641694
 31
0.0
  0
ARC
  5
C6F
330
1F
100
AcDbEntity
  8
SK6
  6
CONTINUOUS
370
25
 62
5
100
AcDbCircle
 10
76.97276256157211
 20
-27.4346905548594
 30
0.0
 40
3.800217216614723
100
AcDbArc
 50
348.7238644184696
 51
53.4691051260885
  0
LINE
  5
C70
330
1F
100
AcDbEntity
  8
SK6
  6
CONTINUOUS
370
25
 62
5
100
AcDbLine
 10
79.23486524538545
 20
-24.38107919429967
 30
0.0
 11
77.03745047882737
 21
-28.83816768507058
 31
0.0
  0
ENDSEC
  0
SECTION
  2
OBJECTS
  0
DICTIONARY
  5
C
330
0
100
AcDbDictionary
281
     1
  3
ACAD_GROUP
350
D
  3
ACAD_LAYOUT
350
1A
  3
ACAD_MATERIAL
350
3B
  3
ACAD_MLEADERSTYLE
350
C73
  3
ACAD_MLINESTYLE
350
17
  3
ACAD_PLOTSETTINGS
350
19
  3
ACAD_PLOTSTYLENAME
350
E
  3
ACAD_SCALELIST
350
4B7
  3
ACAD_VISUALSTYLE
350
2A
  3
AcDbVariableDictionary
350
C71
  0
DICTIONARY
  5
D
102
{ACAD_REACTORS
330
C
102
}
330
C
100
AcDbDictionary
281
     1
  0
DICTIONARY
  5
1A
102
{ACAD_REACTORS
330
C
102
}
330
C
100
AcDbDictionary
281
     1
  3
Layout1
350
1E
  3
Layout2
350
26
  3
Model
350
22
  0
DICTIONARY
  5
3B
102
{ACAD_REACTORS
330
C
102
}
330
C
100
AcDbDictionary
281
     1
  3
ByBlock
350
3D
  3
ByLayer
350
3C
  3
Global
350
3E
  0
DICTIONARY
  5
C73
102
{ACAD_REACTORS
330
C
102
}
330
C
100
AcDbDictionary
281
     1
  0
DICTIONARY
  5
17
102
{ACAD_REACTORS
330
C
102
}
330
C
100
AcDbDictionary
281
     1
  3
Standard
350
18
  0
DICTIONARY
  5
19
102
{ACAD_REACTORS
330
C
102
}
330
C
100
AcDbDictionary
281
     1
  0
ACDBDICTIONARYWDFLT
  5
E
102
{ACAD_REACTORS
330
C
102
}
330
C
100
AcDbDictionary
281
     1
  3
Normal
350
F
100
AcDbDictionaryWithDefault
340
F
  0
DICTIONARY
  5
4B7
102
{ACAD_REACTORS
330
C
102
}
330
C
100
AcDbDictionary
281
     1
  3
A0
350
4B8
  3
A1
350
4B9
  3
A2
350
4BA
  3
A3
350
4BB
  3
A4
350
4BC
  3
A5
350
4BD
  3
A6
350
4BE
  3
A7
350
4BF
  3
A8
350
4C0
  3
A9
350
4C1
  3
B0
350
4C2
  3
B1
350
4C3
  3
B2
350
4C4
  3
B3
350
4C5
  3
B4
350
4C6
  3
B5
350
4C7
  3
B6
350
4C8
  3
B7
350
4C9
  3
B8
350
4CA
  3
B9
350
4CB
  3
C0
350
4CC
  3
C1
350
4CD
  3
C2
350
4CE
  3
C3
350
4CF
  3
C4
350
4D0
  3
C5
350
4D1
  3
C6
350
4D2
  3
C7
350
4D3
  3
C8
350
4D4
  3
C9
350
4D5
  3
D0
350
4D6
  3
D1
350
4D7
  3
D2
350
4D8
  0
DICTIONARY
  5
2A
102
{ACAD_REACTORS
330
C
102
}
330
C
100
AcDbDictionary
281
     1
  3
2dWireframe
350
2F
  3
3D Hidden
350
31
  3
3dWireframe
350
30
  3
Basic
350
32
  3
Brighten
350
36
  3
ColorChange
350
3A
  3
Conceptual
350
34
  3
Dim
350
35
  3
Facepattern
350
39
  3
Flat
350
2B
  3
FlatWithEdges
350
2C
  3
Gouraud
350
2D
  3
GouraudWithEdges
350
2E
  3
Linepattern
350
38
  3
Realistic
350
33
  3
Thicken
350
37
  0
DICTIONARY
  5
C71
102
{ACAD_REACTORS
330
C
102
}
330
C
100
AcDbDictionary
281
     1
  3
CANNOSCALE
350
C76
  3
DIMASSOC
350
C77
  3
HIDETEXT
350
C78
  3
PSOLHEIGHT
350
C75
  3
PSOLWIDTH
350
C74
  0
LAYOUT
  5
1E
102
{ACAD_REACTORS
330
1A
102
}
330
1A
100
AcDbPlotSettings
  1

  2
none_device
  4

  6

 40
0.0
 41
0.0
 42
0.0
 43
0.0
 44
0.0
 45
0.0
 46
0.0
 47
0.0
 48
0.0
 49
0.0
140
0.0
141
0.0
142
1.0
143
1.0
 70
   688
 72
     0
 73
     0
 74
     5
  7

 75
    16
147
1.0
148
0.0
149
0.0
100
AcDbLayout
  1
Layout1
 70
     1
 71
     1
 10
0.0
 20
0.0
 11
420.0
 21
297.0
 12
0.0
 22
0.0
 32
0.0
 14
1.000000000000000E+20
 24
1.000000000000000E+20
 34
1.000000000000000E+20
 15
-1.000000000000000E+20
 25
-1.000000000000000E+20
 35
-1.000000000000000E+20
146
0.0
 13
0.0
 23
0.0
 33
0.0
 16
1.0
 26
0.0
 36
0.0
 17
0.0
 27
1.0
 37
0.0
 76
     0
330
1B
  0
LAYOUT
  5
26
102
{ACAD_REACTORS
330
1A
102
}
330
1A
100
AcDbPlotSettings
  1

  2
none_device
  4

  6

 40
0.0
 41
0.0
 42
0.0
 43
0.0
 44
0.0
 45
0.0
 46
0.0
 47
0.0
 48
0.0
 49
0.0
140
0.0
141
0.0
142
1.0
143
1.0
 70
   688
 72
     0
 73
     0
 74
     5
  7

 75
    16
147
1.0
148
0.0
149
0.0
100
AcDbLayout
  1
Layout2
 70
     1
 71
     2
 10
0.0
 20
0.0
 11
0.0
 21
0.0
 12
0.0
 22
0.0
 32
0.0
 14
0.0
 24
0.0
 34
0.0
 15
0.0
 25
0.0
 35
0.0
146
0.0
 13
0.0
 23
0.0
 33
0.0
 16
1.0
 26
0.0
 36
0.0
 17
0.0
 27
1.0
 37
0.0
 76
     0
330
23
  0
LAYOUT
  5
22
102
{ACAD_REACTORS
330
1A
102
}
330
1A
100
AcDbPlotSettings
  1

  2
none_device
  4

  6

 40
0.0
 41
0.0
 42
0.0
 43
0.0
 44
0.0
 45
0.0
 46
0.0
 47
0.0
 48
0.0
 49
0.0
140
0.0
141
0.0
142
1.0
143
1.0
 70
  1712
 72
     0
 73
     0
 74
     0
  7

 75
     0
147
1.0
148
0.0
149
0.0
100
AcDbLayout
  1
Model
 70
     1
 71
     0
 10
0.0
 20
0.0
 11
420.0
 21
297.0
 12
0.0
 22
0.0
 32
0.0
 14
0.0
 24
0.0
 34
0.0
 15
25.0
 25
35.0
 35
0.0
146
0.0
 13
0.0
 23
0.0
 33
0.0
 16
1.0
 26
0.0
 36
0.0
 17
0.0
 27
1.0
 37
0.0
 76
     0
330
1F
331
29
  0
MATERIAL
  5
3D
102
{ACAD_REACTORS
330
3B
102
}
102
{ACAD_XDICTIONARY
360
C9B
102
}
330
3B
100
AcDbMaterial
  1
ByBlock
  0
MATERIAL
  5
3C
102
{ACAD_REACTORS
330
3B
102
}
102
{ACAD_XDICTIONARY
360
C99
102
}
330
3B
100
AcDbMaterial
  1
ByLayer
  0
MATERIAL
  5
3E
102
{ACAD_REACTORS
330
3B
102
}
102
{ACAD_XDICTIONARY
360
C9D
102
}
330
3B
100
AcDbMaterial
  1
Global
  0
MLINESTYLE
  5
18
102
{ACAD_REACTORS
330
17
102
}
330
17
100
AcDbMlineStyle
  2
Standard
 70
     0
  3

 62
   256
 51
90.0
 52
90.0
 71
     2
 49
0.5
 62
   256
  6
BYLAYER
 49
-0.5
 62
   256
  6
BYLAYER
  0
ACDBPLACEHOLDER
  5
F
102
{ACAD_REACTORS
330
E
102
}
330
E
  0
SCALE
  5
4B8
102
{ACAD_REACTORS
330
4B7
102
}
330
4B7
100
AcDbScale
 70
     0
300
1:1
140
1.0
141
1.0
290
     1
  0
SCALE
  5
4B9
102
{ACAD_REACTORS
330
4B7
102
}
330
4B7
100
AcDbScale
 70
     0
300
1:2
140
1.0
141
2.0
290
     0
  0
SCALE
  5
4BA
102
{ACAD_REACTORS
330
4B7
102
}
330
4B7
100
AcDbScale
 70
     0
300
1:4
140
1.0
141
4.0
290
     0
  0
SCALE
  5
4BB
102
{ACAD_REACTORS
330
4B7
102
}
330
4B7
100
AcDbScale
 70
     0
300
1:5
140
1.0
141
5.0
290
     0
  0
SCALE
  5
4BC
102
{ACAD_REACTORS
330
4B7
102
}
330
4B7
100
AcDbScale
 70
     0
300
1:8
140
1.0
141
8.0
290
     0
  0
SCALE
  5
4BD
102
{ACAD_REACTORS
330
4B7
102
}
330
4B7
100
AcDbScale
 70
     0
300
1:10
140
1.0
141
10.0
290
     0
  0
SCALE
  5
4BE
102
{ACAD_REACTORS
330
4B7
102
}
330
4B7
100
AcDbScale
 70
     0
300
1:16
140
1.0
141
16.0
290
     0
  0
SCALE
  5
4BF
102
{ACAD_REACTORS
330
4B7
102
}
330
4B7
100
AcDbScale
 70
     0
300
1:20
140
1.0
141
20.0
290
     0
  0
SCALE
  5
4C0
102
{ACAD_REACTORS
330
4B7
102
}
330
4B7
100
AcDbScale
 70
     0
300
1:30
140
1.0
141
30.0
290
     0
  0
SCALE
  5
4C1
102
{ACAD_REACTORS
330
4B7
102
}
330
4B7
100
AcDbScale
 70
     0
300
1:40
140
1.0
141
40.0
290
     0
  0
SCALE
  5
4C2
102
{ACAD_REACTORS
330
4B7
102
}
330
4B7
100
AcDbScale
 70
     0
300
1:50
140
1.0
141
50.0
290
     0
  0
SCALE
  5
4C3
102
{ACAD_REACTORS
330
4B7
102
}
330
4B7
100
AcDbScale
 70
     0
300
1:100
140
1.0
141
100.0
290
     0
  0
SCALE
  5
4C4
102
{ACAD_REACTORS
330
4B7
102
}
330
4B7
100
AcDbScale
 70
     0
300
2:1
140
2.0
141
1.0
290
     0
  0
SCALE
  5
4C5
102
{ACAD_REACTORS
330
4B7
102
}
330
4B7
100
AcDbScale
 70
     0
300
4:1
140
4.0
141
1.0
290
     0
  0
SCALE
  5
4C6
102
{ACAD_REACTORS
330
4B7
102
}
330
4B7
100
AcDbScale
 70
     0
300
8:1
140
8.0
141
1.0
290
     0
  0
SCALE
  5
4C7
102
{ACAD_REACTORS
330
4B7
102
}
330
4B7
100
AcDbScale
 70
     0
300
10:1
140
10.0
141
1.0
290
     0
  0
SCALE
  5
4C8
102
{ACAD_REACTORS
330
4B7
102
}
330
4B7
100
AcDbScale
 70
     0
300
100:1
140
100.0
141
1.0
290
     0
  0
SCALE
  5
4C9
102
{ACAD_REACTORS
330
4B7
102
}
330
4B7
100
AcDbScale
 70
     0
300
1/128" = 1'-0"
140
0.0078125
141
12.0
290
     0
  0
SCALE
  5
4CA
102
{ACAD_REACTORS
330
4B7
102
}
330
4B7
100
AcDbScale
 70
     0
300
1/64" = 1'-0"
140
0.015625
141
12.0
290
     0
  0
SCALE
  5
4CB
102
{ACAD_REACTORS
330
4B7
102
}
330
4B7
100
AcDbScale
 70
     0
300
1/32" = 1'-0"
140
0.03125
141
12.0
290
     0
  0
SCALE
  5
4CC
102
{ACAD_REACTORS
330
4B7
102
}
330
4B7
100
AcDbScale
 70
     0
300
1/16" = 1'-0"
140
0.0625
141
12.0
290
     0
  0
SCALE
  5
4CD
102
{ACAD_REACTORS
330
4B7
102
}
330
4B7
100
AcDbScale
 70
     0
300
3/32" = 1'-0"
140
0.09375
141
12.0
290
     0
  0
SCALE
  5
4CE
102
{ACAD_REACTORS
330
4B7
102
}
330
4B7
100
AcDbScale
 70
     0
300
1/8" = 1'-0"
140
0.125
141
12.0
290
     0
  0
SCALE
  5
4CF
102
{ACAD_REACTORS
330
4B7
102
}
330
4B7
100
AcDbScale
 70
     0
300
3/16" = 1'-0"
140
0.1875
141
12.0
290
     0
  0
SCALE
  5
4D0
102
{ACAD_REACTORS
330
4B7
102
}
330
4B7
100
AcDbScale
 70
     0
300
1/4" = 1'-0"
140
0.25
141
12.0
290
     0
  0
SCALE
  5
4D1
102
{ACAD_REACTORS
330
4B7
102
}
330
4B7
100
AcDbScale
 70
     0
300
3/8" = 1'-0"
140
0.375
141
12.0
290
     0
  0
SCALE
  5
4D2
102
{ACAD_REACTORS
330
4B7
102
}
330
4B7
100
AcDbScale
 70
     0
300
1/2" = 1'-0"
140
0.5
141
12.0
290
     0
  0
SCALE
  5
4D3
102
{ACAD_REACTORS
330
4B7
102
}
330
4B7
100
AcDbScale
 70
     0
300
3/4" = 1'-0"
140
0.75
141
12.0
290
     0
  0
SCALE
  5
4D4
102
{ACAD_REACTORS
330
4B7
102
}
330
4B7
100
AcDbScale
 70
     0
300
1" = 1'-0"
140
1.0
141
12.0
290
     0
  0
SCALE
  5
4D5
102
{ACAD_REACTORS
330
4B7
102
}
330
4B7
100
AcDbScale
 70
     0
300
1-1/2" = 1'-0"
140
1.5
141
12.0
290
     0
  0
SCALE
  5
4D6
102
{ACAD_REACTORS
330
4B7
102
}
330
4B7
100
AcDbScale
 70
     0
300
3" = 1'-0"
140
3.0
141
12.0
290
     0
  0
SCALE
  5
4D7
102
{ACAD_REACTORS
330
4B7
102
}
330
4B7
100
AcDbScale
 70
     0
300
6" = 1'-0"
140
6.0
141
12.0
290
     0
  0
SCALE
  5
4D8
102
{ACAD_REACTORS
330
4B7
102
}
330
4B7
100
AcDbScale
 70
     0
300
1'-0" = 1'-0"
140
12.0
141
12.0
290
     0
  0
VISUALSTYLE
  5
2F
102
{ACAD_REACTORS
330
2A
102
}
102
{ACAD_XDICTIONARY
360
C81
102
}
330
2A
100
AcDbVisualStyle
  2
2dWireframe
 70
     4
 71
     0
 72
     2
 73
     0
 90
        0
 40
-0.6
 41
-30.0
 62
     5
 63
     7
 74
     1
 91
        4
 64
     7
 65
   257
 75
     1
175
     1
 42
1.0
 92
        0
 66
   257
 43
1.0
 76
     1
 77
     6
 78
     2
 67
     7
 79
     5
170
     0
171
     0
290
     0
174
     0
 93
        1
 44
0.0
173
     0
291
     0
 45
0.0
1001
ACAD
1000
AcDbSavedByObjectVersion
1070
     0
  0
VISUALSTYLE
  5
31
102
{ACAD_REACTORS
330
2A
102
}
102
{ACAD_XDICTIONARY
360
C85
102
}
330
2A
100
AcDbVisualStyle
  2
3D Hidden
 70
     6
 71
     1
 72
     2
 73
     2
 90
        0
 40
-0.6
 41
-30.0
 62
     5
 63
     7
 74
     2
 91
        2
 64
     7
 65
   257
 75
     2
175
     1
 42
40.0
 92
        0
 66
   257
 43
1.0
 76
     1
 77
     6
 78
     2
 67
     7
 79
     3
170
     0
171
     0
290
     0
174
     0
 93
        1
 44
0.0
173
     0
291
     0
 45
0.0
1001
ACAD
1000
AcDbSavedByObjectVersion
1070
     0
  0
VISUALSTYLE
  5
30
102
{ACAD_REACTORS
330
2A
102
}
102
{ACAD_XDICTIONARY
360
C83
102
}
330
2A
100
AcDbVisualStyle
  2
3dWireframe
 70
     5
 71
     0
 72
     2
 73
     0
 90
        0
 40
-0.6
 41
-30.0
 62
     5
 63
     7
 74
     1
 91
        4
 64
     7
 65
   257
 75
     1
175
     1
 42
1.0
 92
        0
 66
   257
 43
1.0
 76
     1
 77
     6
 78
     2
 67
     7
 79
     5
170
     0
171
     0
290
     0
174
     0
 93
        1
 44
0.0
173
     0
291
     0
 45
0.0
1001
ACAD
1000
AcDbSavedByObjectVersion
1070
     0
  0
VISUALSTYLE
  5
32
102
{ACAD_REACTORS
330
2A
102
}
102
{ACAD_XDICTIONARY
360
C87
102
}
330
2A
100
AcDbVisualStyle
  2
Basic
 70
     7
 71
     1
 72
     0
 73
     1
 90
        0
 40
-0.6
 41
-30.0
 62
     5
 63
     7
 74
     0
 91
        4
 64
     7
 65
   257
 75
     1
175
     1
 42
1.0
 92
        8
 66
     7
 43
1.0
 76
     1
 77
     6
 78
     2
 67
     7
 79
     5
170
     0
171
     0
290
     0
174
     0
 93
        1
 44
0.0
173
     0
291
     1
 45
0.0
1001
ACAD
1000
AcDbSavedByObjectVersion
1070
     0
  0
VISUALSTYLE
  5
36
102
{ACAD_REACTORS
330
2A
102
}
102
{ACAD_XDICTIONARY
360
C8F
102
}
330
2A
100
AcDbVisualStyle
  2
Brighten
 70
    12
 71
     2
 72
     2
 73
     0
 90
        0
 40
-0.6
 41
-30.0
 62
     5
 63
     7
 74
     1
 91
        4
 64
     7
 65
   257
 75
     1
175
     1
 42
1.0
 92
        8
 66
     7
 43
1.0
 76
     1
 77
     6
 78
     2
 67
     7
 79
     5
170
     0
171
     0
290
     0
174
     0
 93
        1
 44
50.0
173
     0
291
     1
 45
0.0
1001
ACAD
1000
AcDbSavedByObjectVersion
1070
     0
  0
VISUALSTYLE
  5
3A
102
{ACAD_REACTORS
330
2A
102
}
102
{ACAD_XDICTIONARY
360
C97
102
}
330
2A
100
AcDbVisualStyle
  2
ColorChange
 70
    16
 71
     2
 72
     2
 73
     3
 90
        0
 40
-0.6
 41
-30.0
 62
     5
 63
     8
 74
     1
 91
        4
 64
     7
 65
   257
 75
     1
175
     1
 42
1.0
 92
        8
 66
     8
 43
1.0
 76
     1
 77
     6
 78
     2
 67
     7
 79
     5
170
     0
171
     0
290
     0
174
     0
 93
        1
 44
0.0
173
     0
291
     1
 45
0.0
1001
ACAD
1000
AcDbSavedByObjectVersion
1070
     0
  0
VISUALSTYLE
  5
34
102
{ACAD_REACTORS
330
2A
102
}
102
{ACAD_XDICTIONARY
360
C8B
102
}
330
2A
100
AcDbVisualStyle
  2
Conceptual
 70
     9
 71
     3
 72
     2
 73
     0
 90
        0
 40
-0.6
 41
-30.0
 62
     5
 63
     7
 74
     2
 91
        2
 64
     7
 65
   257
 75
     1
175
     1
 42
40.0
 92
        8
 66
     7
 43
1.0
 76
     1
 77
     6
 78
     2
 67
     7
 79
     3
170
     0
171
     0
290
     0
174
     0
 93
        1
 44
0.0
173
     0
291
     0
 45
0.0
1001
ACAD
1000
AcDbSavedByObjectVersion
1070
     0
  0
VISUALSTYLE
  5
35
102
{ACAD_REACTORS
330
2A
102
}
102
{ACAD_XDICTIONARY
360
C8D
102
}
330
2A
100
AcDbVisualStyle
  2
Dim
 70
    11
 71
     2
 72
     2
 73
     0
 90
        0
 40
-0.6
 41
-30.0
 62
     5
 63
     7
 74
     1
 91
        4
 64
     7
 65
   257
 75
     1
175
     1
 42
1.0
 92
        8
 66
     7
 43
1.0
 76
     1
 77
     6
 78
     2
 67
     7
 79
     5
170
     0
171
     0
290
     0
174
     0
 93
        1
 44
-50.0
173
     0
291
     1
 45
0.0
1001
ACAD
1000
AcDbSavedByObjectVersion
1070
     0
  0
VISUALSTYLE
  5
39
102
{ACAD_REACTORS
330
2A
102
}
102
{ACAD_XDICTIONARY
360
C95
102
}
330
2A
100
AcDbVisualStyle
  2
Facepattern
 70
    15
 71
     2
 72
     2
 73
     0
 90
        0
 40
-0.6
 41
-30.0
 62
     5
 63
     7
 74
     1
 91
        4
 64
     7
 65
   257
 75
     1
175
     1
 42
1.0
 92
        8
 66
     7
 43
1.0
 76
     1
 77
     6
 78
     2
 67
     7
 79
     5
170
     0
171
     0
290
     0
174
     0
 93
        1
 44
0.0
173
     0
291
     1
 45
0.0
1001
ACAD
1000
AcDbSavedByObjectVersion
1070
     0
  0
VISUALSTYLE
  5
2B
102
{ACAD_REACTORS
330
2A
102
}
102
{ACAD_XDICTIONARY
360
C79
102
}
330
2A
100
AcDbVisualStyle
  2
Flat
 70
     0
 71
     2
 72
     1
 73
     1
 90
        2
 40
-0.6
 41
30.0
 62
     5
 63
     7
 74
     0
 91
        4
 64
     7
 65
   257
 75
     1
175
     1
 42
1.0
 92
        8
 66
     7
 43
1.0
 76
     1
 77
     6
 78
     2
 67
     7
 79
     5
170
     0
171
     0
290
     0
174
     0
 93
       13
 44
0.0
173
     0
291
     1
 45
0.0
1001
ACAD
1000
AcDbSavedByObjectVersion
1070
     0
  0
VISUALSTYLE
  5
2C
102
{ACAD_REACTORS
330
2A
102
}
102
{ACAD_XDICTIONARY
360
C7B
102
}
330
2A
100
AcDbVisualStyle
  2
FlatWithEdges
 70
     1
 71
     2
 72
     1
 73
     1
 90
        2
 40
-0.6
 41
30.0
 62
     5
 63
     7
 74
     1
 91
        4
 64
     7
 65
   257
 75
     1
175
     1
 42
1.0
 92
        0
 66
   257
 43
1.0
 76
     1
 77
     6
 78
     2
 67
     7
 79
     5
170
     0
171
     0
290
     0
174
     0
 93
       13
 44
0.0
173
     0
291
     1
 45
0.0
1001
ACAD
1000
AcDbSavedByObjectVersion
1070
     0
  0
VISUALSTYLE
  5
2D
102
{ACAD_REACTORS
330
2A
102
}
102
{ACAD_XDICTIONARY
360
C7D
102
}
330
2A
100
AcDbVisualStyle
  2
Gouraud
 70
     2
 71
     2
 72
     2
 73
     1
 90
        2
 40
-0.6
 41
30.0
 62
     5
 63
     7
 74
     0
 91
        4
 64
     7
 65
   257
 75
     1
175
     1
 42
1.0
 92
        0
 66
     7
 43
1.0
 76
     1
 77
     6
 78
     2
 67
     7
 79
     5
170
     0
171
     0
290
     0
174
     0
 93
       13
 44
0.0
173
     0
291
     1
 45
0.0
1001
ACAD
1000
AcDbSavedByObjectVersion
1070
     0
  0
VISUALSTYLE
  5
2E
102
{ACAD_REACTORS
330
2A
102
}
102
{ACAD_XDICTIONARY
360
C7F
102
}
330
2A
100
AcDbVisualStyle
  2
GouraudWithEdges
 70
     3
 71
     2
 72
     2
 73
     1
 90
        2
 40
-0.6
 41
30.0
 62
     5
 63
     7
 74
     1
 91
        4
 64
     7
 65
   257
 75
     1
175
     1
 42
1.0
 92
        0
 66
   257
 43
1.0
 76
     1
 77
     6
 78
     2
 67
     7
 79
     5
170
     0
171
     0
290
     0
174
     0
 93
       13
 44
0.0
173
     0
291
     1
 45
0.0
1001
ACAD
1000
AcDbSavedByObjectVersion
1070
     0
  0
VISUALSTYLE
  5
38
102
{ACAD_REACTORS
330
2A
102
}
102
{ACAD_XDICTIONARY
360
C93
102
}
330
2A
100
AcDbVisualStyle
  2
Linepattern
 70
    14
 71
     2
 72
     2
 73
     0
 90
        0
 40
-0.6
 41
-30.0
 62
     5
 63
     7
 74
     1
 91
        4
 64
     7
 65
   257
 75
     7
175
     7
 42
1.0
 92
        8
 66
     7
 43
1.0
 76
     1
 77
     6
 78
     2
 67
     7
 79
     5
170
     0
171
     0
290
     0
174
     0
 93
        1
 44
0.0
173
     0
291
     1
 45
0.0
1001
ACAD
1000
AcDbSavedByObjectVersion
1070
     0
  0
VISUALSTYLE
  5
33
102
{ACAD_REACTORS
330
2A
102
}
102
{ACAD_XDICTIONARY
360
C89
102
}
330
2A
100
AcDbVisualStyle
  2
Realistic
 70
     8
 71
     2
 72
     2
 73
     0
 90
        0
 40
-0.6
 41
-30.0
 62
     5
 63
     7
 74
     1
 91
        0
 64
     7
 65
   257
 75
     1
175
     1
 42
1.0
 92
        8
 66
     8
 43
1.0
 76
     1
 77
     6
 78
     2
 67
     7
 79
     5
170
     0
171
     0
290
     0
174
     0
 93
       13
 44
0.0
173
     0
291
     0
 45
0.0
1001
ACAD
1000
AcDbSavedByObjectVersion
1070
     0
  0
VISUALSTYLE
  5
37
102
{ACAD_REACTORS
330
2A
102
}
102
{ACAD_XDICTIONARY
360
C91
102
}
330
2A
100
AcDbVisualStyle
  2
Thicken
 70
    13
 71
     2
 72
     2
 73
     0
 90
        0
 40
-0.6
 41
-30.0
 62
     5
 63
     7
 74
     1
 91
        4
 64
     7
 65
   257
 75
     1
175
     1
 42
1.0
 92
       12
 66
     7
 43
1.0
 76
     1
 77
     6
 78
     2
 67
     7
 79
     5
170
     0
171
     0
290
     0
174
     0
 93
        1
 44
0.0
173
     0
291
     1
 45
0.0
1001
ACAD
1000
AcDbSavedByObjectVersion
1070
     0
  0
DICTIONARYVAR
  5
C76
102
{ACAD_REACTORS
330
C71
102
}
330
C71
100
DictionaryVariables
280
     0
  1
1:1
  0
DICTIONARYVAR
  5
C77
102
{ACAD_REACTORS
330
C71
102
}
330
C71
100
DictionaryVariables
280
     0
  1
2
  0
DICTIONARYVAR
  5
C78
102
{ACAD_REACTORS
330
C71
102
}
330
C71
100
DictionaryVariables
280
     0
  1
1
  0
DICTIONARYVAR
  5
C75
102
{ACAD_REACTORS
330
C71
102
}
330
C71
100
DictionaryVariables
280
     0
  1
80.000000
  0
DICTIONARYVAR
  5
C74
102
{ACAD_REACTORS
330
C71
102
}
330
C71
100
DictionaryVariables
280
     0
  1
5.000000
  0
DICTIONARY
  5
C9B
330
3D
100
AcDbDictionary
280
     1
281
     1
  3
ACAD_XREC_ROUNDTRIP
360
C9C
  0
DICTIONARY
  5
C99
330
3C
100
AcDbDictionary
280
     1
281
     1
  3
ACAD_XREC_ROUNDTRIP
360
C9A
  0
DICTIONARY
  5
C9D
330
3E
100
AcDbDictionary
280
     1
281
     1
  3
ACAD_XREC_ROUNDTRIP
360
C9E
  0
DICTIONARY
  5
C81
330
2F
100
AcDbDictionary
280
     1
281
     1
  3
ACAD_XREC_ROUNDTRIP
360
C82
  0
DICTIONARY
  5
C85
330
31
100
AcDbDictionary
280
     1
281
     1
  3
ACAD_XREC_ROUNDTRIP
360
C86
  0
DICTIONARY
  5
C83
330
30
100
AcDbDictionary
280
     1
281
     1
  3
ACAD_XREC_ROUNDTRIP
360
C84
  0
DICTIONARY
  5
C87
330
32
100
AcDbDictionary
280
     1
281
     1
  3
ACAD_XREC_ROUNDTRIP
360
C88
  0
DICTIONARY
  5
C8F
330
36
100
AcDbDictionary
280
     1
281
     1
  3
ACAD_XREC_ROUNDTRIP
360
C90
  0
DICTIONARY
  5
C97
330
3A
100
AcDbDictionary
280
     1
281
     1
  3
ACAD_XREC_ROUNDTRIP
360
C98
  0
DICTIONARY
  5
C8B
330
34
100
AcDbDictionary
280
     1
281
     1
  3
ACAD_XREC_ROUNDTRIP
360
C8C
  0
DICTIONARY
  5
C8D
330
35
100
AcDbDictionary
280
     1
281
     1
  3
ACAD_XREC_ROUNDTRIP
360
C8E
  0
DICTIONARY
  5
C95
330
39
100
AcDbDictionary
280
     1
281
     1
  3
ACAD_XREC_ROUNDTRIP
360
C96
  0
DICTIONARY
  5
C79
330
2B
100
AcDbDictionary
280
     1
281
     1
  3
ACAD_XREC_ROUNDTRIP
360
C7A
  0
DICTIONARY
  5
C7B
330
2C
100
AcDbDictionary
280
     1
281
     1
  3
ACAD_XREC_ROUNDTRIP
360
C7C
  0
DICTIONARY
  5
C7D
330
2D
100
AcDbDictionary
280
     1
281
     1
  3
ACAD_XREC_ROUNDTRIP
360
C7E
  0
DICTIONARY
  5
C7F
330
2E
100
AcDbDictionary
280
     1
281
     1
  3
ACAD_XREC_ROUNDTRIP
360
C80
  0
DICTIONARY
  5
C93
330
38
100
AcDbDictionary
280
     1
281
     1
  3
ACAD_XREC_ROUNDTRIP
360
C94
  0
DICTIONARY
  5
C89
330
33
100
AcDbDictionary
280
     1
281
     1
  3
ACAD_XREC_ROUNDTRIP
360
C8A
  0
DICTIONARY
  5
C91
330
37
100
AcDbDictionary
280
     1
281
     1
  3
ACAD_XREC_ROUNDTRIP
360
C92
  0
XRECORD
  5
C9C
102
{ACAD_REACTORS
330
C9B
102
}
330
C9B
100
AcDbXrecord
280
     1
102
MATERIAL
148
0.0
149
0.0
149
0.0
 93
        0
 94
      127
282
     0
 72
     1
 77
     1
171
     1
175
     1
179
     1
273
     0
  0
XRECORD
  5
C9A
102
{ACAD_REACTORS
330
C99
102
}
330
C99
100
AcDbXrecord
280
     1
102
MATERIAL
148
0.0
149
0.0
149
0.0
 93
        0
 94
      127
282
     0
 72
     1
 77
     1
171
     1
175
     1
179
     1
273
     0
  0
XRECORD
  5
C9E
102
{ACAD_REACTORS
330
C9D
102
}
330
C9D
100
AcDbXrecord
280
     1
102
MATERIAL
148
0.0
149
0.0
149
0.0
 93
        0
 94
      127
282
     0
 72
     1
 77
     1
171
     1
175
     1
179
     1
273
     0
  0
XRECORD
  5
C82
102
{ACAD_REACTORS
330
C81
102
}
330
C81
100
AcDbXrecord
280
     1
102
RTVSPropertyOp0
 70
     1
102
RTVSPropertyOp1
 70
     1
102
RTVSPropertyOp2
 70
     1
102
RTVSPropertyOp3
 70
     1
102
RTVSPropertyOp4
 70
     1
102
RTVSPropertyOp5
 70
     1
102
RTVSPropertyOp6
 70
     1
102
RTVSPropertyOp7
 70
     1
102
RTVSPropertyOp8
 70
     1
102
RTVSPropertyOp9
 70
     1
102
RTVSPropertyOp10
 70
     1
102
RTVSPropertyOp11
 70
     1
102
RTVSPropertyOp12
 70
     1
102
RTVSPropertyOp13
 70
     1
102
RTVSPropertyOp14
 70
     1
102
RTVSPropertyOp15
 70
     1
102
RTVSPropertyOp16
 70
     1
102
RTVSPropertyOp17
 70
     1
102
RTVSPropertyOp18
 70
     1
102
RTVSPropertyOp19
 70
     1
102
RTVSPropertyOp20
 70
     1
102
RTVSPropertyOp21
 70
     1
102
RTVSPropertyOp22
 70
     1
102
RTVSPropertyOp23
 70
     1
102
RTVSPropertyOp24
 70
     1
102
RTVSPropertyOp25
 70
     1
102
RTVSPropertyOp26
 70
     1
102
RTVSPropertyOp27
 70
     1
  0
XRECORD
  5
C86
102
{ACAD_REACTORS
330
C85
102
}
330
C85
100
AcDbXrecord
280
     1
102
RTVSPropertyOp0
 70
     1
102
RTVSPropertyOp1
 70
     1
102
RTVSPropertyOp2
 70
     1
102
RTVSPropertyOp3
 70
     1
102
RTVSPropertyOp4
 70
     1
102
RTVSPropertyOp5
 70
     1
102
RTVSPropertyOp6
 70
     1
102
RTVSPropertyOp7
 70
     1
102
RTVSPropertyOp8
 70
     1
102
RTVSPropertyOp9
 70
     1
102
RTVSPropertyOp10
 70
     1
102
RTVSPropertyOp11
 70
     1
102
RTVSPropertyOp12
 70
     1
102
RTVSPropertyOp13
 70
     1
102
RTVSPropertyOp14
 70
     1
102
RTVSPropertyOp15
 70
     1
102
RTVSPropertyOp16
 70
     1
102
RTVSPropertyOp17
 70
     1
102
RTVSPropertyOp18
 70
     1
102
RTVSPropertyOp19
 70
     1
102
RTVSPropertyOp20
 70
     1
102
RTVSPropertyOp21
 70
     1
102
RTVSPropertyOp22
 70
     1
102
RTVSPropertyOp23
 70
     1
102
RTVSPropertyOp24
 70
     1
102
RTVSPropertyOp25
 70
     1
102
RTVSPropertyOp26
 70
     1
102
RTVSPropertyOp27
 70
     1
  0
XRECORD
  5
C84
102
{ACAD_REACTORS
330
C83
102
}
330
C83
100
AcDbXrecord
280
     1
102
RTVSPropertyOp0
 70
     1
102
RTVSPropertyOp1
 70
     1
102
RTVSPropertyOp2
 70
     1
102
RTVSPropertyOp3
 70
     1
102
RTVSPropertyOp4
 70
     1
102
RTVSPropertyOp5
 70
     1
102
RTVSPropertyOp6
 70
     1
102
RTVSPropertyOp7
 70
     1
102
RTVSPropertyOp8
 70
     1
102
RTVSPropertyOp9
 70
     1
102
RTVSPropertyOp10
 70
     1
102
RTVSPropertyOp11
 70
     1
102
RTVSPropertyOp12
 70
     1
102
RTVSPropertyOp13
 70
     1
102
RTVSPropertyOp14
 70
     1
102
RTVSPropertyOp15
 70
     1
102
RTVSPropertyOp16
 70
     1
102
RTVSPropertyOp17
 70
     1
102
RTVSPropertyOp18
 70
     1
102
RTVSPropertyOp19
 70
     1
102
RTVSPropertyOp20
 70
     1
102
RTVSPropertyOp21
 70
     1
102
RTVSPropertyOp22
 70
     1
102
RTVSPropertyOp23
 70
     1
102
RTVSPropertyOp24
 70
     1
102
RTVSPropertyOp25
 70
     1
102
RTVSPropertyOp26
 70
     1
102
RTVSPropertyOp27
 70
     1
  0
XRECORD
  5
C88
102
{ACAD_REACTORS
330
C87
102
}
330
C87
100
AcDbXrecord
280
     1
102
RTVSPropertyOp0
 70
     1
102
RTVSPropertyOp1
 70
     1
102
RTVSPropertyOp2
 70
     1
102
RTVSPropertyOp3
 70
     1
102
RTVSPropertyOp4
 70
     1
102
RTVSPropertyOp5
 70
     1
102
RTVSPropertyOp6
 70
     1
102
RTVSPropertyOp7
 70
     1
102
RTVSPropertyOp8
 70
     1
102
RTVSPropertyOp9
 70
     1
102
RTVSPropertyOp10
 70
     1
102
RTVSPropertyOp11
 70
     1
102
RTVSPropertyOp12
 70
     1
102
RTVSPropertyOp13
 70
     1
102
RTVSPropertyOp14
 70
     1
102
RTVSPropertyOp15
 70
     1
102
RTVSPropertyOp16
 70
     1
102
RTVSPropertyOp17
 70
     1
102
RTVSPropertyOp18
 70
     1
102
RTVSPropertyOp19
 70
     1
102
RTVSPropertyOp20
 70
     1
102
RTVSPropertyOp21
 70
     1
102
RTVSPropertyOp22
 70
     1
102
RTVSPropertyOp23
 70
     1
102
RTVSPropertyOp24
 70
     1
102
RTVSPropertyOp25
 70
     1
102
RTVSPropertyOp26
 70
     1
102
RTVSPropertyOp27
 70
     1
  0
XRECORD
  5
C90
102
{ACAD_REACTORS
330
C8F
102
}
330
C8F
100
AcDbXrecord
280
     1
102
RTVSPropertyOp0
 70
     1
102
RTVSPropertyOp1
 70
     1
102
RTVSPropertyOp2
 70
     1
102
RTVSPropertyOp3
 70
     1
102
RTVSPropertyOp4
 70
     1
102
RTVSPropertyOp5
 70
     1
102
RTVSPropertyOp6
 70
     1
102
RTVSPropertyOp7
 70
     1
102
RTVSPropertyOp8
 70
     1
102
RTVSPropertyOp9
 70
     1
102
RTVSPropertyOp10
 70
     1
102
RTVSPropertyOp11
 70
     1
102
RTVSPropertyOp12
 70
     1
102
RTVSPropertyOp13
 70
     1
102
RTVSPropertyOp14
 70
     1
102
RTVSPropertyOp15
 70
     1
102
RTVSPropertyOp16
 70
     1
102
RTVSPropertyOp17
 70
     1
102
RTVSPropertyOp18
 70
     1
102
RTVSPropertyOp19
 70
     1
102
RTVSPropertyOp20
 70
     1
102
RTVSPropertyOp21
 70
     1
102
RTVSPropertyOp22
 70
     1
102
RTVSPropertyOp23
 70
     1
102
RTVSPropertyOp24
 70
     1
102
RTVSPropertyOp25
 70
     1
102
RTVSPropertyOp26
 70
     1
102
RTVSPropertyOp27
 70
     1
  0
XRECORD
  5
C98
102
{ACAD_REACTORS
330
C97
102
}
330
C97
100
AcDbXrecord
280
     1
102
RTVSPropertyOp0
 70
     1
102
RTVSPropertyOp1
 70
     1
102
RTVSPropertyOp2
 70
     1
102
RTVSPropertyOp3
 70
     1
102
RTVSPropertyOp4
 70
     1
102
RTVSPropertyOp5
 70
     1
102
RTVSPropertyOp6
 70
     1
102
RTVSPropertyOp7
 70
     1
102
RTVSPropertyOp8
 70
     1
102
RTVSPropertyOp9
 70
     1
102
RTVSPropertyOp10
 70
     1
102
RTVSPropertyOp11
 70
     1
102
RTVSPropertyOp12
 70
     1
102
RTVSPropertyOp13
 70
     1
102
RTVSPropertyOp14
 70
     1
102
RTVSPropertyOp15
 70
     1
102
RTVSPropertyOp16
 70
     1
102
RTVSPropertyOp17
 70
     1
102
RTVSPropertyOp18
 70
     1
102
RTVSPropertyOp19
 70
     1
102
RTVSPropertyOp20
 70
     1
102
RTVSPropertyOp21
 70
     1
102
RTVSPropertyOp22
 70
     1
102
RTVSPropertyOp23
 70
     1
102
RTVSPropertyOp24
 70
     1
102
RTVSPropertyOp25
 70
     1
102
RTVSPropertyOp26
 70
     1
102
RTVSPropertyOp27
 70
     1
  0
XRECORD
  5
C8C
102
{ACAD_REACTORS
330
C8B
102
}
330
C8B
100
AcDbXrecord
280
     1
102
RTVSPropertyOp0
 70
     1
102
RTVSPropertyOp1
 70
     1
102
RTVSPropertyOp2
 70
     1
102
RTVSPropertyOp3
 70
     1
102
RTVSPropertyOp4
 70
     1
102
RTVSPropertyOp5
 70
     1
102
RTVSPropertyOp6
 70
     1
102
RTVSPropertyOp7
 70
     1
102
RTVSPropertyOp8
 70
     1
102
RTVSPropertyOp9
 70
     1
102
RTVSPropertyOp10
 70
     1
102
RTVSPropertyOp11
 70
     1
102
RTVSPropertyOp12
 70
     1
102
RTVSPropertyOp13
 70
     1
102
RTVSPropertyOp14
 70
     1
102
RTVSPropertyOp15
 70
     1
102
RTVSPropertyOp16
 70
     1
102
RTVSPropertyOp17
 70
     1
102
RTVSPropertyOp18
 70
     1
102
RTVSPropertyOp19
 70
     1
102
RTVSPropertyOp20
 70
     1
102
RTVSPropertyOp21
 70
     1
102
RTVSPropertyOp22
 70
     1
102
RTVSPropertyOp23
 70
     1
102
RTVSPropertyOp24
 70
     1
102
RTVSPropertyOp25
 70
     1
102
RTVSPropertyOp26
 70
     1
102
RTVSPropertyOp27
 70
     1
  0
XRECORD
  5
C8E
102
{ACAD_REACTORS
330
C8D
102
}
330
C8D
100
AcDbXrecord
280
     1
102
RTVSPropertyOp0
 70
     1
102
RTVSPropertyOp1
 70
     1
102
RTVSPropertyOp2
 70
     1
102
RTVSPropertyOp3
 70
     1
102
RTVSPropertyOp4
 70
     1
102
RTVSPropertyOp5
 70
     1
102
RTVSPropertyOp6
 70
     1
102
RTVSPropertyOp7
 70
     1
102
RTVSPropertyOp8
 70
     1
102
RTVSPropertyOp9
 70
     1
102
RTVSPropertyOp10
 70
     1
102
RTVSPropertyOp11
 70
     1
102
RTVSPropertyOp12
 70
     1
102
RTVSPropertyOp13
 70
     1
102
RTVSPropertyOp14
 70
     1
102
RTVSPropertyOp15
 70
     1
102
RTVSPropertyOp16
 70
     1
102
RTVSPropertyOp17
 70
     1
102
RTVSPropertyOp18
 70
     1
102
RTVSPropertyOp19
 70
     1
102
RTVSPropertyOp20
 70
     1
102
RTVSPropertyOp21
 70
     1
102
RTVSPropertyOp22
 70
     1
102
RTVSPropertyOp23
 70
     1
102
RTVSPropertyOp24
 70
     1
102
RTVSPropertyOp25
 70
     1
102
RTVSPropertyOp26
 70
     1
102
RTVSPropertyOp27
 70
     1
  0
XRECORD
  5
C96
102
{ACAD_REACTORS
330
C95
102
}
330
C95
100
AcDbXrecord
280
     1
102
RTVSPropertyOp0
 70
     1
102
RTVSPropertyOp1
 70
     1
102
RTVSPropertyOp2
 70
     1
102
RTVSPropertyOp3
 70
     1
102
RTVSPropertyOp4
 70
     1
102
RTVSPropertyOp5
 70
     1
102
RTVSPropertyOp6
 70
     1
102
RTVSPropertyOp7
 70
     1
102
RTVSPropertyOp8
 70
     1
102
RTVSPropertyOp9
 70
     1
102
RTVSPropertyOp10
 70
     1
102
RTVSPropertyOp11
 70
     1
102
RTVSPropertyOp12
 70
     1
102
RTVSPropertyOp13
 70
     1
102
RTVSPropertyOp14
 70
     1
102
RTVSPropertyOp15
 70
     1
102
RTVSPropertyOp16
 70
     1
102
RTVSPropertyOp17
 70
     1
102
RTVSPropertyOp18
 70
     1
102
RTVSPropertyOp19
 70
     1
102
RTVSPropertyOp20
 70
     1
102
RTVSPropertyOp21
 70
     1
102
RTVSPropertyOp22
 70
     1
102
RTVSPropertyOp23
 70
     1
102
RTVSPropertyOp24
 70
     1
102
RTVSPropertyOp25
 70
     1
102
RTVSPropertyOp26
 70
     1
102
RTVSPropertyOp27
 70
     1
  0
XRECORD
  5
C7A
102
{ACAD_REACTORS
330
C79
102
}
330
C79
100
AcDbXrecord
280
     1
102
RTVSPropertyOp0
 70
     1
102
RTVSPropertyOp1
 70
     1
102
RTVSPropertyOp2
 70
     1
102
RTVSPropertyOp3
 70
     1
102
RTVSPropertyOp4
 70
     1
102
RTVSPropertyOp5
 70
     1
102
RTVSPropertyOp6
 70
     1
102
RTVSPropertyOp7
 70
     1
102
RTVSPropertyOp8
 70
     1
102
RTVSPropertyOp9
 70
     1
102
RTVSPropertyOp10
 70
     1
102
RTVSPropertyOp11
 70
     1
102
RTVSPropertyOp12
 70
     1
102
RTVSPropertyOp13
 70
     1
102
RTVSPropertyOp14
 70
     1
102
RTVSPropertyOp15
 70
     1
102
RTVSPropertyOp16
 70
     1
102
RTVSPropertyOp17
 70
     1
102
RTVSPropertyOp18
 70
     1
102
RTVSPropertyOp19
 70
     1
102
RTVSPropertyOp20
 70
     1
102
RTVSPropertyOp21
 70
     1
102
RTVSPropertyOp22
 70
     1
102
RTVSPropertyOp23
 70
     1
102
RTVSPropertyOp24
 70
     1
102
RTVSPropertyOp25
 70
     1
102
RTVSPropertyOp26
 70
     1
102
RTVSPropertyOp27
 70
     1
  0
XRECORD
  5
C7C
102
{ACAD_REACTORS
330
C7B
102
}
330
C7B
100
AcDbXrecord
280
     1
102
RTVSPropertyOp0
 70
     1
102
RTVSPropertyOp1
 70
     1
102
RTVSPropertyOp2
 70
     1
102
RTVSPropertyOp3
 70
     1
102
RTVSPropertyOp4
 70
     1
102
RTVSPropertyOp5
 70
     1
102
RTVSPropertyOp6
 70
     1
102
RTVSPropertyOp7
 70
     1
102
RTVSPropertyOp8
 70
     1
102
RTVSPropertyOp9
 70
     1
102
RTVSPropertyOp10
 70
     1
102
RTVSPropertyOp11
 70
     1
102
RTVSPropertyOp12
 70
     1
102
RTVSPropertyOp13
 70
     1
102
RTVSPropertyOp14
 70
     1
102
RTVSPropertyOp15
 70
     1
102
RTVSPropertyOp16
 70
     1
102
RTVSPropertyOp17
 70
     1
102
RTVSPropertyOp18
 70
     1
102
RTVSPropertyOp19
 70
     1
102
RTVSPropertyOp20
 70
     1
102
RTVSPropertyOp21
 70
     1
102
RTVSPropertyOp22
 70
     1
102
RTVSPropertyOp23
 70
     1
102
RTVSPropertyOp24
 70
     1
102
RTVSPropertyOp25
 70
     1
102
RTVSPropertyOp26
 70
     1
102
RTVSPropertyOp27
 70
     1
  0
XRECORD
  5
C7E
102
{ACAD_REACTORS
330
C7D
102
}
330
C7D
100
AcDbXrecord
280
     1
102
RTVSPropertyOp0
 70
     1
102
RTVSPropertyOp1
 70
     1
102
RTVSPropertyOp2
 70
     1
102
RTVSPropertyOp3
 70
     1
102
RTVSPropertyOp4
 70
     1
102
RTVSPropertyOp5
 70
     1
102
RTVSPropertyOp6
 70
     1
102
RTVSPropertyOp7
 70
     1
102
RTVSPropertyOp8
 70
     1
102
RTVSPropertyOp9
 70
     1
102
RTVSPropertyOp10
 70
     1
102
RTVSPropertyOp11
 70
     1
102
RTVSPropertyOp12
 70
     1
102
RTVSPropertyOp13
 70
     1
102
RTVSPropertyOp14
 70
     1
102
RTVSPropertyOp15
 70
     1
102
RTVSPropertyOp16
 70
     1
102
RTVSPropertyOp17
 70
     1
102
RTVSPropertyOp18
 70
     1
102
RTVSPropertyOp19
 70
     1
102
RTVSPropertyOp20
 70
     1
102
RTVSPropertyOp21
 70
     1
102
RTVSPropertyOp22
 70
     1
102
RTVSPropertyOp23
 70
     1
102
RTVSPropertyOp24
 70
     1
102
RTVSPropertyOp25
 70
     1
102
RTVSPropertyOp26
 70
     1
102
RTVSPropertyOp27
 70
     1
  0
XRECORD
  5
C80
102
{ACAD_REACTORS
330
C7F
102
}
330
C7F
100
AcDbXrecord
280
     1
102
RTVSPropertyOp0
 70
     1
102
RTVSPropertyOp1
 70
     1
102
RTVSPropertyOp2
 70
     1
102
RTVSPropertyOp3
 70
     1
102
RTVSPropertyOp4
 70
     1
102
RTVSPropertyOp5
 70
     1
102
RTVSPropertyOp6
 70
     1
102
RTVSPropertyOp7
 70
     1
102
RTVSPropertyOp8
 70
     1
102
RTVSPropertyOp9
 70
     1
102
RTVSPropertyOp10
 70
     1
102
RTVSPropertyOp11
 70
     1
102
RTVSPropertyOp12
 70
     1
102
RTVSPropertyOp13
 70
     1
102
RTVSPropertyOp14
 70
     1
102
RTVSPropertyOp15
 70
     1
102
RTVSPropertyOp16
 70
     1
102
RTVSPropertyOp17
 70
     1
102
RTVSPropertyOp18
 70
     1
102
RTVSPropertyOp19
 70
     1
102
RTVSPropertyOp20
 70
     1
102
RTVSPropertyOp21
 70
     1
102
RTVSPropertyOp22
 70
     1
102
RTVSPropertyOp23
 70
     1
102
RTVSPropertyOp24
 70
     1
102
RTVSPropertyOp25
 70
     1
102
RTVSPropertyOp26
 70
     1
102
RTVSPropertyOp27
 70
     1
  0
XRECORD
  5
C94
102
{ACAD_REACTORS
330
C93
102
}
330
C93
100
AcDbXrecord
280
     1
102
RTVSPropertyOp0
 70
     1
102
RTVSPropertyOp1
 70
     1
102
RTVSPropertyOp2
 70
     1
102
RTVSPropertyOp3
 70
     1
102
RTVSPropertyOp4
 70
     1
102
RTVSPropertyOp5
 70
     1
102
RTVSPropertyOp6
 70
     1
102
RTVSPropertyOp7
 70
     1
102
RTVSPropertyOp8
 70
     1
102
RTVSPropertyOp9
 70
     1
102
RTVSPropertyOp10
 70
     1
102
RTVSPropertyOp11
 70
     1
102
RTVSPropertyOp12
 70
     1
102
RTVSPropertyOp13
 70
     1
102
RTVSPropertyOp14
 70
     1
102
RTVSPropertyOp15
 70
     1
102
RTVSPropertyOp16
 70
     1
102
RTVSPropertyOp17
 70
     1
102
RTVSPropertyOp18
 70
     1
102
RTVSPropertyOp19
 70
     1
102
RTVSPropertyOp20
 70
     1
102
RTVSPropertyOp21
 70
     1
102
RTVSPropertyOp22
 70
     1
102
RTVSPropertyOp23
 70
     1
102
RTVSPropertyOp24
 70
     1
102
RTVSPropertyOp25
 70
     1
102
RTVSPropertyOp26
 70
     1
102
RTVSPropertyOp27
 70
     1
  0
XRECORD
  5
C8A
102
{ACAD_REACTORS
330
C89
102
}
330
C89
100
AcDbXrecord
280
     1
102
RTVSPropertyOp0
 70
     1
102
RTVSPropertyOp1
 70
     1
102
RTVSPropertyOp2
 70
     1
102
RTVSPropertyOp3
 70
     1
102
RTVSPropertyOp4
 70
     1
102
RTVSPropertyOp5
 70
     1
102
RTVSPropertyOp6
 70
     1
102
RTVSPropertyOp7
 70
     1
102
RTVSPropertyOp8
 70
     1
102
RTVSPropertyOp9
 70
     1
102
RTVSPropertyOp10
 70
     1
102
RTVSPropertyOp11
 70
     1
102
RTVSPropertyOp12
 70
     1
102
RTVSPropertyOp13
 70
     1
102
RTVSPropertyOp14
 70
     1
102
RTVSPropertyOp15
 70
     1
102
RTVSPropertyOp16
 70
     1
102
RTVSPropertyOp17
 70
     1
102
RTVSPropertyOp18
 70
     1
102
RTVSPropertyOp19
 70
     1
102
RTVSPropertyOp20
 70
     1
102
RTVSPropertyOp21
 70
     1
102
RTVSPropertyOp22
 70
     1
102
RTVSPropertyOp23
 70
     1
102
RTVSPropertyOp24
 70
     1
102
RTVSPropertyOp25
 70
     1
102
RTVSPropertyOp26
 70
     1
102
RTVSPropertyOp27
 70
     1
  0
XRECORD
  5
C92
102
{ACAD_REACTORS
330
C91
102
}
330
C91
100
AcDbXrecord
280
     1
102
RTVSPropertyOp0
 70
     1
102
RTVSPropertyOp1
 70
     1
102
RTVSPropertyOp2
 70
     1
102
RTVSPropertyOp3
 70
     1
102
RTVSPropertyOp4
 70
     1
102
RTVSPropertyOp5
 70
     1
102
RTVSPropertyOp6
 70
     1
102
RTVSPropertyOp7
 70
     1
102
RTVSPropertyOp8
 70
     1
102
RTVSPropertyOp9
 70
     1
102
RTVSPropertyOp10
 70
     1
102
RTVSPropertyOp11
 70
     1
102
RTVSPropertyOp12
 70
     1
102
RTVSPropertyOp13
 70
     1
102
RTVSPropertyOp14
 70
     1
102
RTVSPropertyOp15
 70
     1
102
RTVSPropertyOp16
 70
     1
102
RTVSPropertyOp17
 70
     1
102
RTVSPropertyOp18
 70
     1
102
RTVSPropertyOp19
 70
     1
102
RTVSPropertyOp20
 70
     1
102
RTVSPropertyOp21
 70
     1
102
RTVSPropertyOp22
 70
     1
102
RTVSPropertyOp23
 70
     1
102
RTVSPropertyOp24
 70
     1
102
RTVSPropertyOp25
 70
     1
102
RTVSPropertyOp26
 70
     1
102
RTVSPropertyOp27
 70
     1
  0
ENDSEC
  0
EOF
