  0
SECTION
  2
HEADER
  9
$ACADVER
  1
AC1015
  9
$ACADMAINTVER
 70
     6
  9
$DWGCODEPAGE
  3
ANSI_1252
  9
$INSBASE
 10
0.0
 20
0.0
 30
0.0
  9
$EXTMIN
 10
0.0
 20
0.0
 30
0.0
  9
$EXTMAX
 10
25.0
 20
35.0
 30
0.0
  9
$LIMMIN
 10
0.0
 20
0.0
  9
$LIMMAX
 10
420.0
 20
297.0
  9
$ORTHOMODE
 70
     0
  9
$REGENMODE
 70
     1
  9
$FILLMODE
 70
     1
  9
$QTEXTMODE
 70
     0
  9
$MIRRTEXT
 70
     1
  9
$LTSCALE
 40
4.45
  9
$ATTMODE
 70
     1
  9
$TEXTSIZE
 40
2.5
  9
$TRACEWID
 40
1.0
  9
$TEXTSTYLE
  7
Standard
  9
$CLAYER
  8
0
  9
$CELTYPE
  6
ByLayer
  9
$CECOLOR
 62
   256
  9
$CELTSCALE
 40
1.0
  9
$DISPSILH
 70
     0
  9
$DIMSCALE
 40
1.0
  9
$DIMASZ
 40
2.5
  9
$DIMEXO
 40
0.625
  9
$DIMDLI
 40
3.75
  9
$DIMRND
 40
0.0
  9
$DIMDLE
 40
0.0
  9
$DIMEXE
 40
1.25
  9
$DIMTP
 40
0.0
  9
$DIMTM
 40
0.0
  9
$DIMTXT
 40
2.5
  9
$DIMCEN
 40
2.5
  9
$DIMTSZ
 40
0.0
  9
$DIMTOL
 70
     0
  9
$DIMLIM
 70
     0
  9
$DIMTIH
 70
     0
  9
$DIMTOH
 70
     0
  9
$DIMSE1
 70
     0
  9
$DIMSE2
 70
     0
  9
$DIMTAD
 70
     1
  9
$DIMZIN
 70
     8
  9
$DIMBLK
  1

  9
$DIMASO
 70
     1
  9
$DIMSHO
 70
     1
  9
$DIMPOST
  1

  9
$DIMAPOST
  1

  9
$DIMALT
 70
     0
  9
$DIMALTD
 70
     3
  9
$DIMALTF
 40
0.03937007874016
  9
$DIMLFAC
 40
1.0
  9
$DIMTOFL
 70
     1
  9
$DIMTVP
 40
0.0
  9
$DIMTIX
 70
     0
  9
$DIMSOXD
 70
     0
  9
$DIMSAH
 70
     0
  9
$DIMBLK1
  1

  9
$DIMBLK2
  1

  9
$DIMSTYLE
  2
ISO-25
  9
$DIMCLRD
 70
     0
  9
$DIMCLRE
 70
     0
  9
$DIMCLRT
 70
     0
  9
$DIMTFAC
 40
1.0
  9
$DIMGAP
 40
0.625
  9
$DIMJUST
 70
     0
  9
$DIMSD1
 70
     0
  9
$DIMSD2
 70
     0
  9
$DIMTOLJ
 70
     0
  9
$DIMTZIN
 70
     8
  9
$DIMALTZ
 70
     0
  9
$DIMALTTZ
 70
     0
  9
$DIMUPT
 70
     0
  9
$DIMDEC
 70
     2
  9
$DIMTDEC
 70
     2
  9
$DIMALTU
 70
     2
  9
$DIMALTTD
 70
     3
  9
$DIMTXSTY
  7
Standard
  9
$DIMAUNIT
 70
     0
  9
$DIMADEC
 70
     0
  9
$DIMALTRND
 40
0.0
  9
$DIMAZIN
 70
     0
  9
$DIMDSEP
 70
    44
  9
$DIMATFIT
 70
     3
  9
$DIMFRAC
 70
     0
  9
$DIMLDRBLK
  1

  9
$DIMLUNIT
 70
     2
  9
$DIMLWD
 70
    -2
  9
$DIMLWE
 70
    -2
  9
$DIMTMOVE
 70
     0
  9
$LUNITS
 70
     2
  9
$LUPREC
 70
     4
  9
$SKETCHINC
 40
1.0
  9
$FILLETRAD
 40
10.0
  9
$AUNITS
 70
     0
  9
$AUPREC
 70
     0
  9
$MENU
  1
.
  9
$ELEVATION
 40
0.0
  9
$PELEVATION
 40
0.0
  9
$THICKNESS
 40
0.0
  9
$LIMCHECK
 70
     0
  9
$CHAMFERA
 40
10.0
  9
$CHAMFERB
 40
10.0
  9
$CHAMFERC
 40
20.0
  9
$CHAMFERD
 40
0.0
  9
$SKPOLY
 70
     0
  9
$TDCREATE
 40
2460693.195138889
  9
$TDUCREATE
 40
2460693.153472222
  9
$TDUPDATE
 40
2460693.198611111
  9
$TDUUPDATE
 40
2460693.156944444
  9
$TDINDWG
 40
0.0000000116
  9
$TDUSRTIMER
 40
0.0000000116
  9
$USRTIMER
 70
     1
  9
$ANGBASE
 50
0.0
  9
$ANGDIR
 70
     0
  9
$PDMODE
 70
     0
  9
$PDSIZE
 40
0.0
  9
$PLINEWID
 40
0.0
  9
$SPLFRAME
 70
     0
  9
$SPLINETYPE
 70
     6
  9
$SPLINESEGS
 70
     8
  9
$HANDSEED
  5
A8F
  9
$SURFTAB1
 70
     6
  9
$SURFTAB2
 70
     6
  9
$SURFTYPE
 70
     6
  9
$SURFU
 70
     6
  9
$SURFV
 70
     6
  9
$UCSBASE
  2

  9
$UCSNAME
  2

  9
$UCSORG
 10
0.0
 20
0.0
 30
0.0
  9
$UCSXDIR
 10
1.0
 20
0.0
 30
0.0
  9
$UCSYDIR
 10
0.0
 20
1.0
 30
0.0
  9
$UCSORTHOREF
  2

  9
$UCSORTHOVIEW
 70
     0
  9
$UCSORGTOP
 10
0.0
 20
0.0
 30
0.0
  9
$UCSORGBOTTOM
 10
0.0
 20
0.0
 30
0.0
  9
$UCSORGLEFT
 10
0.0
 20
0.0
 30
0.0
  9
$UCSORGRIGHT
 10
0.0
 20
0.0
 30
0.0
  9
$UCSORGFRONT
 10
0.0
 20
0.0
 30
0.0
  9
$UCSORGBACK
 10
0.0
 20
0.0
 30
0.0
  9
$PUCSBASE
  2

  9
$PUCSNAME
  2

  9
$PUCSORG
 10
0.0
 20
0.0
 30
0.0
  9
$PUCSXDIR
 10
1.0
 20
0.0
 30
0.0
  9
$PUCSYDIR
 10
0.0
 20
1.0
 30
0.0
  9
$PUCSORTHOREF
  2

  9
$PUCSORTHOVIEW
 70
     0
  9
$PUCSORGTOP
 10
0.0
 20
0.0
 30
0.0
  9
$PUCSORGBOTTOM
 10
0.0
 20
0.0
 30
0.0
  9
$PUCSORGLEFT
 10
0.0
 20
0.0
 30
0.0
  9
$PUCSORGRIGHT
 10
0.0
 20
0.0
 30
0.0
  9
$PUCSORGFRONT
 10
0.0
 20
0.0
 30
0.0
  9
$PUCSORGBACK
 10
0.0
 20
0.0
 30
0.0
  9
$USERI1
 70
     0
  9
$USERI2
 70
     0
  9
$USERI3
 70
     0
  9
$USERI4
 70
     0
  9
$USERI5
 70
     0
  9
$USERR1
 40
0.0
  9
$USERR2
 40
0.0
  9
$USERR3
 40
0.0
  9
$USERR4
 40
0.0
  9
$USERR5
 40
0.0
  9
$WORLDVIEW
 70
     1
  9
$SHADEDGE
 70
     3
  9
$SHADEDIF
 70
    70
  9
$TILEMODE
 70
     1
  9
$MAXACTVP
 70
    64
  9
$PINSBASE
 10
0.0
 20
0.0
 30
0.0
  9
$PLIMCHECK
 70
     0
  9
$PEXTMIN
 10
1.000000000000000E+20
 20
1.000000000000000E+20
 30
1.000000000000000E+20
  9
$PEXTMAX
 10
-1.000000000000000E+20
 20
-1.000000000000000E+20
 30
-1.000000000000000E+20
  9
$PLIMMIN
 10
0.0
 20
0.0
  9
$PLIMMAX
 10
420.0
 20
297.0
  9
$UNITMODE
 70
     0
  9
$VISRETAIN
 70
     1
  9
$PLINEGEN
 70
     0
  9
$PSLTSCALE
 70
     1
  9
$TREEDEPTH
 70
  3020
  9
$CMLSTYLE
  2
Standard
  9
$CMLJUST
 70
     0
  9
$CMLSCALE
 40
20.0
  9
$PROXYGRAPHICS
 70
     1
  9
$MEASUREMENT
 70
     1
  9
$CELWEIGHT
370
    -1
  9
$ENDCAPS
280
     0
  9
$JOINSTYLE
280
     0
  9
$LWDISPLAY
290
     0
  9
$INSUNITS
 70
     4
  9
$HYPERLINKBASE
  1

  9
$STYLESHEET
  1

  9
$XEDIT
290
     1
  9
$CEPSNTYPE
380
     0
  9
$PSTYLEMODE
290
     1
  9
$FINGERPRINTGUID
  2
{0E771579-1123-4A94-BB97-84D6764E7181}
  9
$VERSIONGUID
  2
{FAEB1C32-E019-11D5-929B-00C0DF256EC4}
  9
$EXTNAMES
290
     1
  9
$PSVPSCALE
 40
0.0
  9
$OLESTARTUP
290
     0
  0
ENDSEC
  0
SECTION
  2
CLASSES
  0
CLASS
  1
ACDBDICTIONARYWDFLT
  2
AcDbDictionaryWithDefault
  3
ObjectDBX Classes
 90
        0
280
     0
281
     0
  0
CLASS
  1
VISUALSTYLE
  2
AcDbVisualStyle
  3
ObjectDBX Classes
 90
     4095
280
     0
281
     0
  0
CLASS
  1
MATERIAL
  2
AcDbMaterial
  3
ObjectDBX Classes
 90
     1153
280
     0
281
     0
  0
CLASS
  1
SCALE
  2
AcDbScale
  3
ObjectDBX Classes
 90
     1153
280
     0
281
     0
  0
CLASS
  1
DICTIONARYVAR
  2
AcDbDictionaryVar
  3
ObjectDBX Classes
 90
        0
280
     0
281
     0
  0
CLASS
  1
ACDBPLACEHOLDER
  2
AcDbPlaceHolder
  3
ObjectDBX Classes
 90
        0
280
     0
281
     0
  0
CLASS
  1
LAYOUT
  2
AcDbLayout
  3
ObjectDBX Classes
 90
        0
280
     0
281
     0
  0
ENDSEC
  0
SECTION
  2
TABLES
  0
TABLE
  2
VPORT
  5
8
330
0
100
AcDbSymbolTable
 70
     1
  0
VPORT
  5
29
330
8
100
AcDbSymbolTableRecord
100
AcDbViewportTableRecord
  2
*Active
 70
     0
 10
0.0
 20
0.0
 11
1.0
 21
1.0
 12
11.26
 22
4.5
 13
0.0
 23
0.0
 14
10.0
 24
10.0
 15
10.0
 25
10.0
 16
0.0
 26
0.0
 36
1.0
 17
0.0
 27
0.0
 37
0.0
 40
9.0
 41
2.503333333333333
 42
50.0
 43
0.0
 44
0.0
 50
0.0
 51
0.0
 71
     0
 72
   100
 73
     1
 74
     3
 75
     0
 76
     0
 77
     0
 78
     0
281
     0
 65
     1
110
0.0
120
0.0
130
0.0
111
1.0
121
0.0
131
0.0
112
0.0
122
1.0
132
0.0
 79
     0
146
0.0
  0
ENDTAB
  0
TABLE
  2
LTYPE
  5
5
330
0
100
AcDbSymbolTable
 70
    10
  0
LTYPE
  5
14
330
5
100
AcDbSymbolTableRecord
100
AcDbLinetypeTableRecord
  2
ByBlock
 70
     0
  3

 72
    65
 73
     0
 40
0.0
  0
LTYPE
  5
15
330
5
100
AcDbSymbolTableRecord
100
AcDbLinetypeTableRecord
  2
ByLayer
 70
     0
  3

 72
    65
 73
     0
 40
0.0
  0
LTYPE
  5
16
330
5
100
AcDbSymbolTableRecord
100
AcDbLinetypeTableRecord
  2
Continuous
 70
     0
  3
Solid line
 72
    65
 73
     0
 40
0.0
  0
LTYPE
  5
45
330
5
100
AcDbSymbolTableRecord
100
AcDbLinetypeTableRecord
  2
phl_thick
 70
     0
  3
THICK
 72
    65
 73
     0
 40
0.0
  0
LTYPE
  5
310
330
5
100
AcDbSymbolTableRecord
100
AcDbLinetypeTableRecord
  2
CUT
 70
     0
  3
THICK
 72
    65
 73
     0
 40
0.0
  0
LTYPE
  5
318
330
5
100
AcDbSymbolTableRecord
100
AcDbLinetypeTableRecord
  2
NOCUT
 70
     0
  3
THICK
 72
    65
 73
     0
 40
0.0
  0
LTYPE
  5
320
330
5
100
AcDbSymbolTableRecord
100
AcDbLinetypeTableRecord
  2
SK1
 70
     0
  3
THICK
 72
    65
 73
     0
 40
0.0
  0
LTYPE
  5
328
330
5
100
AcDbSymbolTableRecord
100
AcDbLinetypeTableRecord
  2
ls_SK2
 70
     0
  3
THIN
 72
    65
 73
     0
 40
0.0
  0
LTYPE
  5
3D4
330
5
100
AcDbSymbolTableRecord
100
AcDbLinetypeTableRecord
  2
ls_2
 70
     0
  3
THIN
 72
    65
 73
     0
 40
0.0
  0
LTYPE
  5
523
330
5
100
AcDbSymbolTableRecord
100
AcDbLinetypeTableRecord
  2
ls_SK1
 70
     0
  3
THICK
 72
    65
 73
     0
 40
0.0
  0
LTYPE
  5
55D
330
5
100
AcDbSymbolTableRecord
100
AcDbLinetypeTableRecord
  2
LONGDASH_DASH
 70
     0
  3
THIN_DASHDOT
 72
    65
 73
     4
 40
0.85
 49
0.4
 74
     0
 49
-0.2
 74
     0
 49
0.05
 74
     0
 49
-0.2
 74
     0
  0
LTYPE
  5
562
330
5
100
AcDbSymbolTableRecord
100
AcDbLinetypeTableRecord
  2
ls1
 70
     0
  3
THICK
 72
    65
 73
     0
 40
0.0
  0
ENDTAB
  0
TABLE
  2
LAYER
  5
2
330
0
100
AcDbSymbolTable
 70
    10
  0
LAYER
  5
10
330
2
100
AcDbSymbolTableRecord
100
AcDbLayerTableRecord
  2
0
 70
     0
 62
     7
  6
Continuous
370
    -3
390
F
  0
LAYER
  5
44
330
2
100
AcDbSymbolTableRecord
100
AcDbLayerTableRecord
  2
1
 70
     0
 62
4
  6
CONTINUOUS
370
50
370
    -3
390
F
  0
LAYER
  5
30F
330
2
100
AcDbSymbolTableRecord
100
AcDbLayerTableRecord
  2
CUT
 70
     0
 62
1
  6
CONTINUOUS
370
25
370
    -3
390
F
  0
LAYER
  5
317
330
2
100
AcDbSymbolTableRecord
100
AcDbLayerTableRecord
  2
NOCUT
 70
     0
 62
7
  6
CONTINUOUS
370
25
370
    -3
390
F
  0
LAYER
  5
31F
330
2
100
AcDbSymbolTableRecord
100
AcDbLayerTableRecord
  2
SK1
 70
     0
 62
4
  6
CONTINUOUS
370
50
370
    -3
390
F
  0
LAYER
  5
327
330
2
100
AcDbSymbolTableRecord
100
AcDbLayerTableRecord
  2
SK2
 70
     0
 62
7
  6
CONTINUOUS
370
25
370
    -3
390
F
  0
LAYER
  5
3D3
330
2
100
AcDbSymbolTableRecord
100
AcDbLayerTableRecord
  2
2
 70
     0
 62
7
  6
CONTINUOUS
370
25
370
    -3
390
F
  0
LAYER
  5
55C
330
2
100
AcDbSymbolTableRecord
100
AcDbLayerTableRecord
  2
4
 70
     0
 62
2
  6
LONGDASH_DASH
370
25
370
    -3
390
F
  0
LAYER
  5
55F
330
2
100
AcDbSymbolTableRecord
100
AcDbLayerTableRecord
  2
SK4
 70
     0
 62
2
  6
LONGDASH_DASH
370
25
370
    -3
390
F
  0
LAYER
  5
561
330
2
100
AcDbSymbolTableRecord
100
AcDbLayerTableRecord
  2
SK6
 70
     0
 62
5
  6
CONTINUOUS
370
25
370
    -3
390
F
  0
ENDTAB
  0
TABLE
  2
STYLE
  5
3
330
0
100
AcDbSymbolTable
 70
     1
  0
STYLE
  5
11
330
3
100
AcDbSymbolTableRecord
100
AcDbTextStyleTableRecord
  2
Standard
 70
     0
 40
0.0
 41
1.0
 50
0.0
 71
     0
 42
2.5
  3
Monospac821 BT
  4

  0
ENDTAB
  0
TABLE
  2
VIEW
  5
6
330
0
100
AcDbSymbolTable
 70
     0
  0
ENDTAB
  0
TABLE
  2
UCS
  5
7
330
0
100
AcDbSymbolTable
 70
     0
  0
ENDTAB
  0
TABLE
  2
APPID
  5
9
330
0
100
AcDbSymbolTable
 70
     2
  0
APPID
  5
12
330
9
100
AcDbSymbolTableRecord
100
AcDbRegAppTableRecord
  2
ACAD
 70
     0
  0
APPID
  5
3F
330
9
100
AcDbSymbolTableRecord
100
AcDbRegAppTableRecord
  2
ccLab
 70
     0
  0
ENDTAB
  0
TABLE
  2
DIMSTYLE
  5
A
330
0
100
AcDbSymbolTable
 70
     1
100
AcDbDimStyleTable
  0
DIMSTYLE
105
27
330
A
100
AcDbSymbolTableRecord
100
AcDbDimStyleTableRecord
  2
ISO-25
 70
     0
 41
2.5
 42
0.625
 43
3.75
 44
1.25
 73
     0
 74
     0
 77
     1
 78
     8
140
2.5
141
2.5
143
0.03937007874016
147
0.625
171
     3
172
     1
271
     2
272
     2
274
     3
278
    44
283
     0
284
     8
340
11
  0
ENDTAB
  0
TABLE
  2
BLOCK_RECORD
  5
1
330
0
100
AcDbSymbolTable
 70
     2
  0
BLOCK_RECORD
  5
1F
330
1
100
AcDbSymbolTableRecord
100
AcDbBlockTableRecord
  2
*Model_Space
340
22
  0
BLOCK_RECORD
  5
1B
330
1
100
AcDbSymbolTableRecord
100
AcDbBlockTableRecord
  2
*Paper_Space
340
1E
  0
BLOCK_RECORD
  5
23
330
1
100
AcDbSymbolTableRecord
100
AcDbBlockTableRecord
  2
*Paper_Space0
340
26
  0
ENDTAB
  0
ENDSEC
  0
SECTION
  2
BLOCKS
  0
BLOCK
  5
20
330
1F
100
AcDbEntity
  8
0
100
AcDbBlockBegin
  2
*Model_Space
 70
     0
 10
0.0
 20
0.0
 30
0.0
  3
*Model_Space
  1

  0
ENDBLK
  5
21
330
1F
100
AcDbEntity
  8
0
100
AcDbBlockEnd
  0
BLOCK
  5
1C
330
1B
100
AcDbEntity
 67
     1
  8
0
100
AcDbBlockBegin
  2
*Paper_Space
 70
     0
 10
0.0
 20
0.0
 30
0.0
  3
*Paper_Space
  1

  0
ENDBLK
  5
1D
330
1B
100
AcDbEntity
 67
     1
  8
0
100
AcDbBlockEnd
  0
BLOCK
  5
24
330
23
100
AcDbEntity
  8
0
100
AcDbBlockBegin
  2
*Paper_Space0
 70
     0
 10
0.0
 20
0.0
 30
0.0
  3
*Paper_Space0
  1

  0
ENDBLK
  5
25
330
23
100
AcDbEntity
  8
0
100
AcDbBlockEnd
  0
ENDSEC
  0
SECTION
  2
ENTITIES
  0
LINE
  5
56C
330
1F
100
AcDbEntity
  8
1
  6
CONTINUOUS
370
50
 62
4
100
AcDbLine
 10
9.661422
 20
-0.079085
 30
0.0
 11
9.661294999999999
 21
-0.069617
 31
0.0
  0
LINE
  5
56D
330
1F
100
AcDbEntity
  8
1
  6
CONTINUOUS
370
50
 62
4
100
AcDbLine
 10
9.661688999999999
 20
-0.088533
 30
0.0
 11
9.661422
 21
-0.079085
 31
0.0
  0
LINE
  5
56E
330
1F
100
AcDbEntity
  8
1
  6
CONTINUOUS
370
50
 62
4
100
AcDbLine
 10
9.600375
 20
0.107333
 30
0.0
 11
9.600321
 21
0.109169
 31
0.0
  0
LINE
  5
56F
330
1F
100
AcDbEntity
  8
1
  6
CONTINUOUS
370
50
 62
4
100
AcDbLine
 10
9.609513999999999
 20
0.13081
 30
0.0
 11
9.609364
 21
0.134505
 31
0.0
  0
LINE
  5
570
330
1F
100
AcDbEntity
  8
1
  6
CONTINUOUS
370
50
 62
4
100
AcDbLine
 10
9.662099
 20
-0.097946
 30
0.0
 11
9.661688999999999
 21
-0.088533
 31
0.0
  0
LINE
  5
571
330
1F
100
AcDbEntity
  8
1
  6
CONTINUOUS
370
50
 62
4
100
AcDbLine
 10
9.662652
 20
-0.107309
 30
0.0
 11
9.662099
 21
-0.097946
 31
0.0
  0
LINE
  5
572
330
1F
100
AcDbEntity
  8
1
  6
CONTINUOUS
370
50
 62
4
100
AcDbLine
 10
9.600488
 20
0.105436
 30
0.0
 11
9.600375
 21
0.107333
 31
0.0
  0
LINE
  5
573
330
1F
100
AcDbEntity
  8
1
  6
CONTINUOUS
370
50
 62
4
100
AcDbLine
 10
6.863719
 20
0.158781
 30
0.0
 11
6.863612
 21
0.160456
 31
0.0
  0
LINE
  5
574
330
1F
100
AcDbEntity
  8
1
  6
CONTINUOUS
370
50
 62
4
100
AcDbLine
 10
9.663343
 20
-0.116561
 30
0.0
 11
9.662652
 21
-0.107309
 31
0.0
  0
LINE
  5
575
330
1F
100
AcDbEntity
  8
1
  6
CONTINUOUS
370
50
 62
4
100
AcDbLine
 10
9.684194999999999
 20
0.103833
 30
0.0
 11
9.684145
 21
0.104462
 31
0.0
  0
LINE
  5
576
330
1F
100
AcDbEntity
  8
1
  6
CONTINUOUS
370
50
 62
4
100
AcDbLine
 10
9.60066
 20
0.103478
 30
0.0
 11
9.600488
 21
0.105436
 31
0.0
  0
LINE
  5
577
330
1F
100
AcDbEntity
  8
1
  6
CONTINUOUS
370
50
 62
4
100
AcDbLine
 10
9.664171999999999
 20
-0.125672
 30
0.0
 11
9.663343
 21
-0.116561
 31
0.0
  0
LINE
  5
578
330
1F
100
AcDbEntity
  8
1
  6
CONTINUOUS
370
50
 62
4
100
AcDbLine
 10
6.97636
 20
-0.180076
 30
0.0
 11
6.975962
 21
-0.175851
 31
0.0
  0
LINE
  5
579
330
1F
100
AcDbEntity
  8
1
  6
CONTINUOUS
370
50
 62
4
100
AcDbLine
 10
9.609364
 20
0.134505
 30
0.0
 11
9.60896
 21
0.138471
 31
0.0
  0
LINE
  5
57A
330
1F
100
AcDbEntity
  8
1
  6
CONTINUOUS
370
50
 62
4
100
AcDbLine
 10
9.665132999999999
 20
-0.13463
 30
0.0
 11
9.664171999999999
 21
-0.125672
 31
0.0
  0
LINE
  5
57B
330
1F
100
AcDbEntity
  8
1
  6
CONTINUOUS
370
50
 62
4
100
AcDbLine
 10
9.600890999999999
 20
0.101461
 30
0.0
 11
9.60066
 21
0.103478
 31
0.0
  0
LINE
  5
57C
330
1F
100
AcDbEntity
  8
1
  6
CONTINUOUS
370
50
 62
4
100
AcDbLine
 10
9.666226
 20
-0.143422
 30
0.0
 11
9.665132999999999
 21
-0.13463
 31
0.0
  0
LINE
  5
57D
330
1F
100
AcDbEntity
  8
1
  6
CONTINUOUS
370
50
 62
4
100
AcDbLine
 10
6.863949
 20
0.157058
 30
0.0
 11
6.863719
 21
0.158781
 31
0.0
  0
LINE
  5
57E
330
1F
100
AcDbEntity
  8
1
  6
CONTINUOUS
370
50
 62
4
100
AcDbLine
 10
9.667449
 20
-0.152037
 30
0.0
 11
9.666226
 21
-0.143422
 31
0.0
  0
LINE
  5
57F
330
1F
100
AcDbEntity
  8
1
  6
CONTINUOUS
370
50
 62
4
100
AcDbLine
 10
9.60896
 20
0.138471
 30
0.0
 11
9.608317
 21
0.142682
 31
0.0
  0
LINE
  5
580
330
1F
100
AcDbEntity
  8
1
  6
CONTINUOUS
370
50
 62
4
100
AcDbLine
 10
9.668797999999999
 20
-0.160463
 30
0.0
 11
9.667449
 21
-0.152037
 31
0.0
  0
LINE
  5
581
330
1F
100
AcDbEntity
  8
1
  6
CONTINUOUS
370
50
 62
4
100
AcDbLine
 10
9.670273
 20
-0.168688
 30
0.0
 11
9.668797999999999
 21
-0.160463
 31
0.0
  0
LINE
  5
582
330
1F
100
AcDbEntity
  8
1
  6
CONTINUOUS
370
50
 62
4
100
AcDbLine
 10
9.608317
 20
0.142682
 30
0.0
 11
9.607448
 21
0.14711
 31
0.0
  0
LINE
  5
583
330
1F
100
AcDbEntity
  8
1
  6
CONTINUOUS
370
50
 62
4
100
AcDbLine
 10
9.671869
 20
-0.176699
 30
0.0
 11
9.670273
 21
-0.168688
 31
0.0
  0
LINE
  5
584
330
1F
100
AcDbEntity
  8
1
  6
CONTINUOUS
370
50
 62
4
100
AcDbLine
 10
6.864303
 20
0.155293
 30
0.0
 11
6.863949
 21
0.157058
 31
0.0
  0
LINE
  5
585
330
1F
100
AcDbEntity
  8
1
  6
CONTINUOUS
370
50
 62
4
100
AcDbLine
 10
9.673581
 20
-0.184461
 30
0.0
 11
9.671869
 21
-0.176699
 31
0.0
  0
LINE
  5
586
330
1F
100
AcDbEntity
  8
1
  6
CONTINUOUS
370
50
 62
4
100
AcDbLine
 10
6.977293
 20
-0.18416
 30
0.0
 11
6.97636
 21
-0.180076
 31
0.0
  0
LINE
  5
587
330
1F
100
AcDbEntity
  8
1
  6
CONTINUOUS
370
50
 62
4
100
AcDbLine
 10
9.607448
 20
0.14711
 30
0.0
 11
9.606366
 21
0.151725
 31
0.0
  0
LINE
  5
588
330
1F
100
AcDbEntity
  8
1
  6
CONTINUOUS
370
50
 62
4
100
AcDbLine
 10
9.675398999999999
 20
-0.191946
 30
0.0
 11
9.673581
 21
-0.184461
 31
0.0
  0
LINE
  5
589
330
1F
100
AcDbEntity
  8
1
  6
CONTINUOUS
370
50
 62
4
100
AcDbLine
 10
9.7
 20
0.0437
 30
0.0
 11
9.684384
 21
0.103956
 31
0.0
  0
LINE
  5
58A
330
1F
100
AcDbEntity
  8
1
  6
CONTINUOUS
370
50
 62
4
100
AcDbLine
 10
6.86478
 20
0.153494
 30
0.0
 11
6.864303
 21
0.155293
 31
0.0
  0
LINE
  5
58B
330
1F
100
AcDbEntity
  8
1
  6
CONTINUOUS
370
50
 62
4
100
AcDbLine
 10
9.67732
 20
-0.199148
 30
0.0
 11
9.675398999999999
 21
-0.191946
 31
0.0
  0
LINE
  5
58C
330
1F
100
AcDbEntity
  8
1
  6
CONTINUOUS
370
50
 62
4
100
AcDbLine
 10
9.606366
 20
0.151725
 30
0.0
 11
9.605084
 21
0.156506
 31
0.0
  0
LINE
  5
58D
330
1F
100
AcDbEntity
  8
1
  6
CONTINUOUS
370
50
 62
4
100
AcDbLine
 10
9.679338999999999
 20
-0.206058
 30
0.0
 11
9.67732
 21
-0.199148
 31
0.0
  0
LINE
  5
58E
330
1F
100
AcDbEntity
  8
1
  6
CONTINUOUS
370
50
 62
4
100
AcDbLine
 10
9.605084
 20
0.156506
 30
0.0
 11
9.603617
 21
0.161433
 31
0.0
  0
LINE
  5
58F
330
1F
100
AcDbEntity
  8
1
  6
CONTINUOUS
370
50
 62
4
100
AcDbLine
 10
9.681454
 20
-0.21267
 30
0.0
 11
9.679338999999999
 21
-0.206058
 31
0.0
  0
LINE
  5
590
330
1F
100
AcDbEntity
  8
1
  6
CONTINUOUS
370
50
 62
4
100
AcDbLine
 10
9.603617
 20
0.161433
 30
0.0
 11
9.601974
 21
0.166484
 31
0.0
  0
LINE
  5
591
330
1F
100
AcDbEntity
  8
1
  6
CONTINUOUS
370
50
 62
4
100
AcDbLine
 10
6.865381999999999
 20
0.151663
 30
0.0
 11
6.86478
 21
0.153494
 31
0.0
  0
LINE
  5
592
330
1F
100
AcDbEntity
  8
1
  6
CONTINUOUS
370
50
 62
4
100
AcDbLine
 10
9.601974
 20
0.166484
 30
0.0
 11
9.600171
 21
0.17164
 31
0.0
  0
LINE
  5
593
330
1F
100
AcDbEntity
  8
1
  6
CONTINUOUS
370
50
 62
4
100
AcDbLine
 10
9.68366
 20
-0.218977
 30
0.0
 11
9.681454
 21
-0.21267
 31
0.0
  0
LINE
  5
594
330
1F
100
AcDbEntity
  8
1
  6
CONTINUOUS
370
50
 62
4
100
AcDbLine
 10
7.03445
 20
-0.248358
 30
0.0
 11
7.033808
 21
-0.246544
 31
0.0
  0
LINE
  5
595
330
1F
100
AcDbEntity
  8
1
  6
CONTINUOUS
370
50
 62
4
100
AcDbLine
 10
9.600171
 20
0.17164
 30
0.0
 11
9.598215
 21
0.176889
 31
0.0
  0
LINE
  5
596
330
1F
100
AcDbEntity
  8
1
  6
CONTINUOUS
370
50
 62
4
100
AcDbLine
 10
6.978787
 20
-0.188081
 30
0.0
 11
6.977293
 21
-0.18416
 31
0.0
  0
LINE
  5
597
330
1F
100
AcDbEntity
  8
1
  6
CONTINUOUS
370
50
 62
4
100
AcDbLine
 10
9.685953
 20
-0.224972
 30
0.0
 11
9.68366
 21
-0.218977
 31
0.0
  0
LINE
  5
598
330
1F
100
AcDbEntity
  8
1
  6
CONTINUOUS
370
50
 62
4
100
AcDbLine
 10
6.866107
 20
0.149802
 30
0.0
 11
6.865381999999999
 21
0.151663
 31
0.0
  0
LINE
  5
599
330
1F
100
AcDbEntity
  8
1
  6
CONTINUOUS
370
50
 62
4
100
AcDbLine
 10
9.598215
 20
0.176889
 30
0.0
 11
9.596112999999999
 21
0.182223
 31
0.0
  0
LINE
  5
59A
330
1F
100
AcDbEntity
  8
1
  6
CONTINUOUS
370
50
 62
4
100
AcDbLine
 10
9.596112999999999
 20
0.182223
 30
0.0
 11
9.593874999999999
 21
0.187627
 31
0.0
  0
LINE
  5
59B
330
1F
100
AcDbEntity
  8
1
  6
CONTINUOUS
370
50
 62
4
100
AcDbLine
 10
9.688327
 20
-0.230642
 30
0.0
 11
9.685953
 21
-0.224972
 31
0.0
  0
LINE
  5
59C
330
1F
100
AcDbEntity
  8
1
  6
CONTINUOUS
370
50
 62
4
100
AcDbLine
 10
9.593874999999999
 20
0.187627
 30
0.0
 11
9.59151
 21
0.193089
 31
0.0
  0
LINE
  5
59D
330
1F
100
AcDbEntity
  8
1
  6
CONTINUOUS
370
50
 62
4
100
AcDbLine
 10
6.866956999999999
 20
0.147913
 30
0.0
 11
6.866107
 21
0.149802
 31
0.0
  0
LINE
  5
59E
330
1F
100
AcDbEntity
  8
1
  6
CONTINUOUS
370
50
 62
4
100
AcDbLine
 10
9.59151
 20
0.193089
 30
0.0
 11
9.589025
 21
0.198593
 31
0.0
  0
LINE
  5
59F
330
1F
100
AcDbEntity
  8
1
  6
CONTINUOUS
370
50
 62
4
100
AcDbLine
 10
9.570115999999999
 20
0.239186
 30
0.0
 11
9.567489
 21
0.245001
 31
0.0
  0
LINE
  5
5A0
330
1F
100
AcDbEntity
  8
1
  6
CONTINUOUS
370
50
 62
4
100
AcDbLine
 10
9.572769
 20
0.233363
 30
0.0
 11
9.570115999999999
 21
0.239186
 31
0.0
  0
LINE
  5
5A1
330
1F
100
AcDbEntity
  8
1
  6
CONTINUOUS
370
50
 62
4
100
AcDbLine
 10
9.690771999999999
 20
-0.23597
 30
0.0
 11
9.688327
 21
-0.230642
 31
0.0
  0
LINE
  5
5A2
330
1F
100
AcDbEntity
  8
1
  6
CONTINUOUS
370
50
 62
4
100
AcDbLine
 10
9.575448999999999
 20
0.227531
 30
0.0
 11
9.572769
 21
0.233363
 31
0.0
  0
LINE
  5
5A3
330
1F
100
AcDbEntity
  8
1
  6
CONTINUOUS
370
50
 62
4
100
AcDbLine
 10
9.578154999999999
 20
0.221691
 30
0.0
 11
9.575448999999999
 21
0.227531
 31
0.0
  0
LINE
  5
5A4
330
1F
100
AcDbEntity
  8
1
  6
CONTINUOUS
370
50
 62
4
100
AcDbLine
 10
9.580886999999999
 20
0.215844
 30
0.0
 11
9.578154999999999
 21
0.221691
 31
0.0
  0
LINE
  5
5A5
330
1F
100
AcDbEntity
  8
1
  6
CONTINUOUS
370
50
 62
4
100
AcDbLine
 10
9.589025
 20
0.198593
 30
0.0
 11
9.586432
 21
0.204127
 31
0.0
  0
LINE
  5
5A6
330
1F
100
AcDbEntity
  8
1
  6
CONTINUOUS
370
50
 62
4
100
AcDbLine
 10
9.583646
 20
0.209989
 30
0.0
 11
9.580886999999999
 21
0.215844
 31
0.0
  0
LINE
  5
5A7
330
1F
100
AcDbEntity
  8
1
  6
CONTINUOUS
370
50
 62
4
100
AcDbLine
 10
9.586432
 20
0.204127
 30
0.0
 11
9.583646
 21
0.209989
 31
0.0
  0
LINE
  5
5A8
330
1F
100
AcDbEntity
  8
1
  6
CONTINUOUS
370
50
 62
4
100
AcDbLine
 10
9.693283
 20
-0.240951
 30
0.0
 11
9.690771999999999
 21
-0.23597
 31
0.0
  0
LINE
  5
5A9
330
1F
100
AcDbEntity
  8
1
  6
CONTINUOUS
370
50
 62
4
100
AcDbLine
 10
6.867931
 20
0.145997
 30
0.0
 11
6.866956999999999
 21
0.147913
 31
0.0
  0
LINE
  5
5AA
330
1F
100
AcDbEntity
  8
1
  6
CONTINUOUS
370
50
 62
4
100
AcDbLine
 10
7.033808
 20
-0.246544
 30
0.0
 11
7.032508
 21
-0.244052
 31
0.0
  0
LINE
  5
5AB
330
1F
100
AcDbEntity
  8
1
  6
CONTINUOUS
370
50
 62
4
100
AcDbLine
 10
9.645019999999999
 20
0.102925
 30
0.0
 11
9.569552
 21
0.244203
 31
0.0
  0
LINE
  5
5AC
330
1F
100
AcDbEntity
  8
1
  6
CONTINUOUS
370
50
 62
4
100
AcDbLine
 10
6.868380999999999
 20
0.145181
 30
0.0
 11
6.867931
 21
0.145997
 31
0.0
  0
LINE
  5
5AD
330
1F
100
AcDbEntity
  8
1
  6
CONTINUOUS
370
50
 62
4
100
AcDbLine
 10
7.036159
 20
0.246288
 30
0.0
 11
7.034376
 21
0.24951
 31
0.0
  0
LINE
  5
5AE
330
1F
100
AcDbEntity
  8
1
  6
CONTINUOUS
370
50
 62
4
100
AcDbLine
 10
9.695856
 20
-0.245583
 30
0.0
 11
9.693283
 21
-0.240951
 31
0.0
  0
LINE
  5
5AF
330
1F
100
AcDbEntity
  8
1
  6
CONTINUOUS
370
50
 62
4
100
AcDbLine
 10
6.980833
 20
-0.191763
 30
0.0
 11
6.978787
 21
-0.188081
 31
0.0
  0
LINE
  5
5B0
330
1F
100
AcDbEntity
  8
1
  6
CONTINUOUS
370
50
 62
4
100
AcDbLine
 10
6.868852
 20
0.144361
 30
0.0
 11
6.868380999999999
 21
0.145181
 31
0.0
  0
LINE
  5
5B1
330
1F
100
AcDbEntity
  8
1
  6
CONTINUOUS
370
50
 62
4
100
AcDbLine
 10
6.869345999999999
 20
0.143537
 30
0.0
 11
6.868852
 21
0.144361
 31
0.0
  0
LINE
  5
5B2
330
1F
100
AcDbEntity
  8
1
  6
CONTINUOUS
370
50
 62
4
100
AcDbLine
 10
7.032508
 20
-0.244052
 30
0.0
 11
7.030602
 21
-0.240911
 31
0.0
  0
LINE
  5
5B3
330
1F
100
AcDbEntity
  8
1
  6
CONTINUOUS
370
50
 62
4
100
AcDbLine
 10
7.04273
 20
0.235472
 30
0.0
 11
7.036159
 21
0.246288
 31
0.0
  0
LINE
  5
5B4
330
1F
100
AcDbEntity
  8
1
  6
CONTINUOUS
370
50
 62
4
100
AcDbLine
 10
6.869861999999999
 20
0.142709
 30
0.0
 11
6.869345999999999
 21
0.143537
 31
0.0
  0
LINE
  5
5B5
330
1F
100
AcDbEntity
  8
1
  6
CONTINUOUS
370
50
 62
4
100
AcDbLine
 10
6.870400999999999
 20
0.141877
 30
0.0
 11
6.869861999999999
 21
0.142709
 31
0.0
  0
LINE
  5
5B6
330
1F
100
AcDbEntity
  8
1
  6
CONTINUOUS
370
50
 62
4
100
AcDbLine
 10
7.030602
 20
-0.240911
 30
0.0
 11
7.028130999999999
 21
-0.237147
 31
0.0
  0
LINE
  5
5B7
330
1F
100
AcDbEntity
  8
1
  6
CONTINUOUS
370
50
 62
4
100
AcDbLine
 10
6.870962
 20
0.141041
 30
0.0
 11
6.870400999999999
 21
0.141877
 31
0.0
  0
LINE
  5
5B8
330
1F
100
AcDbEntity
  8
1
  6
CONTINUOUS
370
50
 62
4
100
AcDbLine
 10
7.034388
 20
0.249487
 30
0.0
 11
7.034293
 21
0.249626
 31
0.0
  0
LINE
  5
5B9
330
1F
100
AcDbEntity
  8
1
  6
CONTINUOUS
370
50
 62
4
100
AcDbLine
 10
7.028130999999999
 20
-0.237147
 30
0.0
 11
7.025142
 21
-0.232786
 31
0.0
  0
LINE
  5
5BA
330
1F
100
AcDbEntity
  8
1
  6
CONTINUOUS
370
50
 62
4
100
AcDbLine
 10
7.050051
 20
0.224977
 30
0.0
 11
7.04273
 21
0.235472
 31
0.0
  0
LINE
  5
5BB
330
1F
100
AcDbEntity
  8
1
  6
CONTINUOUS
370
50
 62
4
100
AcDbLine
 10
7.025142
 20
-0.232786
 30
0.0
 11
7.021673
 21
-0.227856
 31
0.0
  0
LINE
  5
5BC
330
1F
100
AcDbEntity
  8
1
  6
CONTINUOUS
370
50
 62
4
100
AcDbLine
 10
7.021673
 20
-0.227856
 30
0.0
 11
7.017748999999999
 21
-0.222395
 31
0.0
  0
LINE
  5
5BD
330
1F
100
AcDbEntity
  8
1
  6
CONTINUOUS
370
50
 62
4
100
AcDbLine
 10
7.017748999999999
 20
-0.222395
 30
0.0
 11
7.013390999999999
 21
-0.216444
 31
0.0
  0
LINE
  5
5BE
330
1F
100
AcDbEntity
  8
1
  6
CONTINUOUS
370
50
 62
4
100
AcDbLine
 10
7.013390999999999
 20
-0.216444
 30
0.0
 11
7.008618999999999
 21
-0.210041
 31
0.0
  0
LINE
  5
5BF
330
1F
100
AcDbEntity
  8
1
  6
CONTINUOUS
370
50
 62
4
100
AcDbLine
 10
6.983417999999999
 20
-0.195189
 30
0.0
 11
6.980833
 21
-0.191763
 31
0.0
  0
LINE
  5
5C0
330
1F
100
AcDbEntity
  8
1
  6
CONTINUOUS
370
50
 62
4
100
AcDbLine
 10
7.058088
 20
0.214885
 30
0.0
 11
7.050051
 21
0.224977
 31
0.0
  0
LINE
  5
5C1
330
1F
100
AcDbEntity
  8
1
  6
CONTINUOUS
370
50
 62
4
100
AcDbLine
 10
6.880617
 20
0.129064
 30
0.0
 11
6.870962
 21
0.141041
 31
0.0
  0
LINE
  5
5C2
330
1F
100
AcDbEntity
  8
1
  6
CONTINUOUS
370
50
 62
4
100
AcDbLine
 10
9.669971
 20
0.039773
 30
0.0
 11
9.669870999999999
 21
0.039893
 31
0.0
  0
LINE
  5
5C3
330
1F
100
AcDbEntity
  8
1
  6
CONTINUOUS
370
50
 62
4
100
AcDbLine
 10
9.670271999999999
 20
0.039416
 30
0.0
 11
9.670072
 21
0.039654
 31
0.0
  0
LINE
  5
5C4
330
1F
100
AcDbEntity
  8
1
  6
CONTINUOUS
370
50
 62
4
100
AcDbLine
 10
9.669870999999999
 20
0.039893
 30
0.0
 11
9.669770999999999
 21
0.040012
 31
0.0
  0
LINE
  5
5C5
330
1F
100
AcDbEntity
  8
1
  6
CONTINUOUS
370
50
 62
4
100
AcDbLine
 10
6.890787
 20
0.117031
 30
0.0
 11
6.880617
 21
0.129064
 31
0.0
  0
LINE
  5
5C6
330
1F
100
AcDbEntity
  8
1
  6
CONTINUOUS
370
50
 62
4
100
AcDbLine
 10
9.670372
 20
0.039298
 30
0.0
 11
9.670271999999999
 21
0.039416
 31
0.0
  0
LINE
  5
5C7
330
1F
100
AcDbEntity
  8
1
  6
CONTINUOUS
370
50
 62
4
100
AcDbLine
 10
9.670072
 20
0.039654
 30
0.0
 11
9.669971
 21
0.039773
 31
0.0
  0
LINE
  5
5C8
330
1F
100
AcDbEntity
  8
1
  6
CONTINUOUS
370
50
 62
4
100
AcDbLine
 10
6.901522
 20
0.105073
 30
0.0
 11
6.890787
 21
0.117031
 31
0.0
  0
LINE
  5
5C9
330
1F
100
AcDbEntity
  8
1
  6
CONTINUOUS
370
50
 62
4
100
AcDbLine
 10
7.066796
 20
0.205286
 30
0.0
 11
7.058088
 21
0.214885
 31
0.0
  0
LINE
  5
5CA
330
1F
100
AcDbEntity
  8
1
  6
CONTINUOUS
370
50
 62
4
100
AcDbLine
 10
6.912913
 20
0.09326
 30
0.0
 11
6.901522
 21
0.105073
 31
0.0
  0
LINE
  5
5CB
330
1F
100
AcDbEntity
  8
1
  6
CONTINUOUS
370
50
 62
4
100
AcDbLine
 10
6.986536999999999
 20
-0.198359
 30
0.0
 11
6.983417999999999
 21
-0.195189
 31
0.0
  0
LINE
  5
5CC
330
1F
100
AcDbEntity
  8
1
  6
CONTINUOUS
370
50
 62
4
100
AcDbLine
 10
7.076143
 20
0.19624
 30
0.0
 11
7.066796
 21
0.205286
 31
0.0
  0
LINE
  5
5CD
330
1F
100
AcDbEntity
  8
1
  6
CONTINUOUS
370
50
 62
4
100
AcDbLine
 10
6.924932
 20
0.081766
 30
0.0
 11
6.912913
 21
0.09326
 31
0.0
  0
LINE
  5
5CE
330
1F
100
AcDbEntity
  8
1
  6
CONTINUOUS
370
50
 62
4
100
AcDbLine
 10
7.034293
 20
0.249626
 30
0.0
 11
7.03417
 21
0.24974
 31
0.0
  0
LINE
  5
5CF
330
1F
100
AcDbEntity
  8
1
  6
CONTINUOUS
370
50
 62
4
100
AcDbLine
 10
6.937596999999999
 20
0.07068
 30
0.0
 11
6.924932
 21
0.081766
 31
0.0
  0
LINE
  5
5D0
330
1F
100
AcDbEntity
  8
1
  6
CONTINUOUS
370
50
 62
4
100
AcDbLine
 10
7.086043
 20
0.187847
 30
0.0
 11
7.076143
 21
0.19624
 31
0.0
  0
LINE
  5
5D1
330
1F
100
AcDbEntity
  8
1
  6
CONTINUOUS
370
50
 62
4
100
AcDbLine
 10
6.990175
 20
-0.20127
 30
0.0
 11
6.986536999999999
 21
-0.198359
 31
0.0
  0
LINE
  5
5D2
330
1F
100
AcDbEntity
  8
1
  6
CONTINUOUS
370
50
 62
4
100
AcDbLine
 10
6.950855
 20
0.060127
 30
0.0
 11
6.937596999999999
 21
0.07068
 31
0.0
  0
LINE
  5
5D3
330
1F
100
AcDbEntity
  8
1
  6
CONTINUOUS
370
50
 62
4
100
AcDbLine
 10
7.088346
 20
0.186051
 30
0.0
 11
7.086043
 21
0.187847
 31
0.0
  0
LINE
  5
5D4
330
1F
100
AcDbEntity
  8
1
  6
CONTINUOUS
370
50
 62
4
100
AcDbLine
 10
7.097674
 20
0.179324
 30
0.0
 11
7.088346
 21
0.186051
 31
0.0
  0
LINE
  5
5D5
330
1F
100
AcDbEntity
  8
1
  6
CONTINUOUS
370
50
 62
4
100
AcDbLine
 10
6.964699
 20
0.050158
 30
0.0
 11
6.950855
 21
0.060127
 31
0.0
  0
LINE
  5
5D6
330
1F
100
AcDbEntity
  8
1
  6
CONTINUOUS
370
50
 62
4
100
AcDbLine
 10
6.979044
 20
0.040857
 30
0.0
 11
6.964699
 21
0.050158
 31
0.0
  0
LINE
  5
5D7
330
1F
100
AcDbEntity
  8
1
  6
CONTINUOUS
370
50
 62
4
100
AcDbLine
 10
6.994247
 20
-0.203882
 30
0.0
 11
6.990175
 21
-0.20127
 31
0.0
  0
LINE
  5
5D8
330
1F
100
AcDbEntity
  8
1
  6
CONTINUOUS
370
50
 62
4
100
AcDbLine
 10
7.107314
 20
0.173223
 30
0.0
 11
7.097674
 21
0.179324
 31
0.0
  0
LINE
  5
5D9
330
1F
100
AcDbEntity
  8
1
  6
CONTINUOUS
370
50
 62
4
100
AcDbLine
 10
7.03417
 20
0.24974
 30
0.0
 11
7.034019
 21
0.249829
 31
0.0
  0
LINE
  5
5DA
330
1F
100
AcDbEntity
  8
1
  6
CONTINUOUS
370
50
 62
4
100
AcDbLine
 10
6.993865
 20
0.032244
 30
0.0
 11
6.979044
 21
0.040857
 31
0.0
  0
LINE
  5
5DB
330
1F
100
AcDbEntity
  8
1
  6
CONTINUOUS
370
50
 62
4
100
AcDbLine
 10
7.118554
 20
0.167104
 30
0.0
 11
7.107314
 21
0.173223
 31
0.0
  0
LINE
  5
5DC
330
1F
100
AcDbEntity
  8
1
  6
CONTINUOUS
370
50
 62
4
100
AcDbLine
 10
6.998702
 20
-0.206202
 30
0.0
 11
6.994247
 21
-0.203882
 31
0.0
  0
LINE
  5
5DD
330
1F
100
AcDbEntity
  8
1
  6
CONTINUOUS
370
50
 62
4
100
AcDbLine
 10
7.009138999999999
 20
0.024331
 30
0.0
 11
6.993865
 21
0.032244
 31
0.0
  0
LINE
  5
5DE
330
1F
100
AcDbEntity
  8
1
  6
CONTINUOUS
370
50
 62
4
100
AcDbLine
 10
7.573602999999999
 20
-0.134044
 30
0.0
 11
7.534548
 21
-0.113847
 31
0.0
  0
LINE
  5
5DF
330
1F
100
AcDbEntity
  8
1
  6
CONTINUOUS
370
50
 62
4
100
AcDbLine
 10
7.534548
 20
-0.113847
 30
0.0
 11
7.493958999999999
 21
-0.092924
 31
0.0
  0
LINE
  5
5E0
330
1F
100
AcDbEntity
  8
1
  6
CONTINUOUS
370
50
 62
4
100
AcDbLine
 10
7.493958999999999
 20
-0.092924
 30
0.0
 11
7.450593
 21
-0.071003
 31
0.0
  0
LINE
  5
5E1
330
1F
100
AcDbEntity
  8
1
  6
CONTINUOUS
370
50
 62
4
100
AcDbLine
 10
9.28774
 20
-0.133538
 30
0.0
 11
9.250161
 21
-0.114752
 31
0.0
  0
LINE
  5
5E2
330
1F
100
AcDbEntity
  8
1
  6
CONTINUOUS
370
50
 62
4
100
AcDbLine
 10
9.324081999999999
 20
-0.151554
 30
0.0
 11
9.28774
 21
-0.133538
 31
0.0
  0
LINE
  5
5E3
330
1F
100
AcDbEntity
  8
1
  6
CONTINUOUS
370
50
 62
4
100
AcDbLine
 10
7.450593
 20
-0.071003
 30
0.0
 11
7.404024
 21
-0.048182
 31
0.0
  0
LINE
  5
5E4
330
1F
100
AcDbEntity
  8
1
  6
CONTINUOUS
370
50
 62
4
100
AcDbLine
 10
9.250161
 20
-0.114752
 30
0.0
 11
9.20913
 21
-0.094676
 31
0.0
  0
LINE
  5
5E5
330
1F
100
AcDbEntity
  8
1
  6
CONTINUOUS
370
50
 62
4
100
AcDbLine
 10
7.618690999999999
 20
-0.155707
 30
0.0
 11
7.573602999999999
 21
-0.134044
 31
0.0
  0
LINE
  5
5E6
330
1F
100
AcDbEntity
  8
1
  6
CONTINUOUS
370
50
 62
4
100
AcDbLine
 10
8.595737
 20
0.102995
 30
0.0
 11
8.529850999999999
 21
0.134294
 31
0.0
  0
LINE
  5
5E7
330
1F
100
AcDbEntity
  8
1
  6
CONTINUOUS
370
50
 62
4
100
AcDbLine
 10
8.529850999999999
 20
0.134294
 30
0.0
 11
8.471207999999999
 21
0.162151
 31
0.0
  0
LINE
  5
5E8
330
1F
100
AcDbEntity
  8
1
  6
CONTINUOUS
370
50
 62
4
100
AcDbLine
 10
7.404024
 20
-0.048182
 30
0.0
 11
7.353827
 21
-0.024562
 31
0.0
  0
LINE
  5
5E9
330
1F
100
AcDbEntity
  8
1
  6
CONTINUOUS
370
50
 62
4
100
AcDbLine
 10
9.20913
 20
-0.094676
 30
0.0
 11
9.163243999999999
 21
-0.073099
 31
0.0
  0
LINE
  5
5EA
330
1F
100
AcDbEntity
  8
1
  6
CONTINUOUS
370
50
 62
4
100
AcDbLine
 10
9.360888
 20
-0.168713
 30
0.0
 11
9.324081999999999
 21
-0.151554
 31
0.0
  0
LINE
  5
5EB
330
1F
100
AcDbEntity
  8
1
  6
CONTINUOUS
370
50
 62
4
100
AcDbLine
 10
7.513313999999999
 20
-0.14631
 30
0.0
 11
7.461436
 21
-0.122243
 31
0.0
  0
LINE
  5
5EC
330
1F
100
AcDbEntity
  8
1
  6
CONTINUOUS
370
50
 62
4
100
AcDbLine
 10
7.024786
 20
0.017151
 30
0.0
 11
7.009138999999999
 21
0.024331
 31
0.0
  0
LINE
  5
5ED
330
1F
100
AcDbEntity
  8
1
  6
CONTINUOUS
370
50
 62
4
100
AcDbLine
 10
7.130023
 20
0.161878
 30
0.0
 11
7.118554
 21
0.167104
 31
0.0
  0
LINE
  5
5EE
330
1F
100
AcDbEntity
  8
1
  6
CONTINUOUS
370
50
 62
4
100
AcDbLine
 10
7.353827
 20
-0.024562
 30
0.0
 11
7.299681
 21
0.0
 31
0.0
  0
LINE
  5
5EF
330
1F
100
AcDbEntity
  8
1
  6
CONTINUOUS
370
50
 62
4
100
AcDbLine
 10
7.461436
 20
-0.122243
 30
0.0
 11
7.404115999999999
 21
-0.09627
 31
0.0
  0
LINE
  5
5F0
330
1F
100
AcDbEntity
  8
1
  6
CONTINUOUS
370
50
 62
4
100
AcDbLine
 10
7.561989
 20
-0.168245
 30
0.0
 11
7.513313999999999
 21
-0.14631
 31
0.0
  0
LINE
  5
5F1
330
1F
100
AcDbEntity
  8
1
  6
CONTINUOUS
370
50
 62
4
100
AcDbLine
 10
9.163243999999999
 20
-0.073099
 30
0.0
 11
9.111384
 21
-0.05
 31
0.0
  0
LINE
  5
5F2
330
1F
100
AcDbEntity
  8
1
  6
CONTINUOUS
370
50
 62
4
100
AcDbLine
 10
8.673772
 20
0.068356
 30
0.0
 11
8.595737
 21
0.102995
 31
0.0
  0
LINE
  5
5F3
330
1F
100
AcDbEntity
  8
1
  6
CONTINUOUS
370
50
 62
4
100
AcDbLine
 10
7.404115999999999
 20
-0.09627
 30
0.0
 11
7.341637
 21
-0.068887
 31
0.0
  0
LINE
  5
5F4
330
1F
100
AcDbEntity
  8
1
  6
CONTINUOUS
370
50
 62
4
100
AcDbLine
 10
8.471207999999999
 20
0.162151
 30
0.0
 11
8.414639
 21
0.186573
 31
0.0
  0
LINE
  5
5F5
330
1F
100
AcDbEntity
  8
1
  6
CONTINUOUS
370
50
 62
4
100
AcDbLine
 10
8.471739
 20
-0.07461
 30
0.0
 11
8.422277
 21
-0.053287
 31
0.0
  0
LINE
  5
5F6
330
1F
100
AcDbEntity
  8
1
  6
CONTINUOUS
370
50
 62
4
100
AcDbLine
 10
7.286142
 20
0.005585
 30
0.0
 11
7.272455
 21
0.011444
 31
0.0
  0
LINE
  5
5F7
330
1F
100
AcDbEntity
  8
1
  6
CONTINUOUS
370
50
 62
4
100
AcDbLine
 10
9.264478
 20
-0.163643
 30
0.0
 11
9.205478
 21
-0.138419
 31
0.0
  0
LINE
  5
5F8
330
1F
100
AcDbEntity
  8
1
  6
CONTINUOUS
370
50
 62
4
100
AcDbLine
 10
7.003505
 20
-0.208248
 30
0.0
 11
6.998702
 21
-0.206202
 31
0.0
  0
LINE
  5
5F9
330
1F
100
AcDbEntity
  8
1
  6
CONTINUOUS
370
50
 62
4
100
AcDbLine
 10
7.341637
 20
-0.068887
 30
0.0
 11
7.273727
 21
-0.040131
 31
0.0
  0
LINE
  5
5FA
330
1F
100
AcDbEntity
  8
1
  6
CONTINUOUS
370
50
 62
4
100
AcDbLine
 10
7.272455
 20
0.011444
 30
0.0
 11
7.258507
 21
0.017335
 31
0.0
  0
LINE
  5
5FB
330
1F
100
AcDbEntity
  8
1
  6
CONTINUOUS
370
50
 62
4
100
AcDbLine
 10
8.422277
 20
-0.053287
 30
0.0
 11
8.364336999999999
 21
-0.029045
 31
0.0
  0
LINE
  5
5FC
330
1F
100
AcDbEntity
  8
1
  6
CONTINUOUS
370
50
 62
4
100
AcDbLine
 10
9.111384
 20
-0.05
 30
0.0
 11
9.052431
 21
-0.025362
 31
0.0
  0
LINE
  5
5FD
330
1F
100
AcDbEntity
  8
1
  6
CONTINUOUS
370
50
 62
4
100
AcDbLine
 10
9.205478
 20
-0.138419
 30
0.0
 11
9.1359
 21
-0.10936
 31
0.0
  0
LINE
  5
5FE
330
1F
100
AcDbEntity
  8
1
  6
CONTINUOUS
370
50
 62
4
100
AcDbLine
 10
7.258507
 20
0.017335
 30
0.0
 11
7.244293
 21
0.023254
 31
0.0
  0
LINE
  5
5FF
330
1F
100
AcDbEntity
  8
1
  6
CONTINUOUS
370
50
 62
4
100
AcDbLine
 10
9.316267999999999
 20
-0.185174
 30
0.0
 11
9.264478
 21
-0.163643
 31
0.0
  0
LINE
  5
600
330
1F
100
AcDbEntity
  8
1
  6
CONTINUOUS
370
50
 62
4
100
AcDbLine
 10
9.399808
 20
-0.184891
 30
0.0
 11
9.360888
 21
-0.168713
 31
0.0
  0
LINE
  5
601
330
1F
100
AcDbEntity
  8
1
  6
CONTINUOUS
370
50
 62
4
100
AcDbLine
 10
7.299681
 20
0.0
 30
0.0
 11
7.286142
 21
0.005585
 31
0.0
  0
LINE
  5
602
330
1F
100
AcDbEntity
  8
1
  6
CONTINUOUS
370
50
 62
4
100
AcDbLine
 10
7.244293
 20
0.023254
 30
0.0
 11
7.229807999999999
 21
0.029202
 31
0.0
  0
LINE
  5
603
330
1F
100
AcDbEntity
  8
1
  6
CONTINUOUS
370
50
 62
4
100
AcDbLine
 10
7.273727
 20
-0.040131
 30
0.0
 11
7.199999999999999
 21
-0.010001
 31
0.0
  0
LINE
  5
604
330
1F
100
AcDbEntity
  8
1
  6
CONTINUOUS
370
50
 62
4
100
AcDbLine
 10
7.610278999999999
 20
-0.187951
 30
0.0
 11
7.561989
 21
-0.168245
 31
0.0
  0
LINE
  5
605
330
1F
100
AcDbEntity
  8
1
  6
CONTINUOUS
370
50
 62
4
100
AcDbLine
 10
8.759414
 20
0.033535
 30
0.0
 11
8.673772
 21
0.068356
 31
0.0
  0
LINE
  5
606
330
1F
100
AcDbEntity
  8
1
  6
CONTINUOUS
370
50
 62
4
100
AcDbLine
 10
7.229807999999999
 20
0.029202
 30
0.0
 11
7.215045
 21
0.035176
 31
0.0
  0
LINE
  5
607
330
1F
100
AcDbEntity
  8
1
  6
CONTINUOUS
370
50
 62
4
100
AcDbLine
 10
8.576075
 20
0.153942
 30
0.0
 11
8.511891
 21
0.179869
 31
0.0
  0
LINE
  5
608
330
1F
100
AcDbEntity
  8
1
  6
CONTINUOUS
370
50
 62
4
100
AcDbLine
 10
7.040763999999999
 20
0.010704
 30
0.0
 11
7.024786
 21
0.017151
 31
0.0
  0
LINE
  5
609
330
1F
100
AcDbEntity
  8
1
  6
CONTINUOUS
370
50
 62
4
100
AcDbLine
 10
7.675186
 20
-0.178449
 30
0.0
 11
7.618690999999999
 21
-0.155707
 31
0.0
  0
LINE
  5
60A
330
1F
100
AcDbEntity
  8
1
  6
CONTINUOUS
370
50
 62
4
100
AcDbLine
 10
7.215045
 20
0.035176
 30
0.0
 11
7.199999999999999
 21
0.041176
 31
0.0
  0
LINE
  5
60B
330
1F
100
AcDbEntity
  8
1
  6
CONTINUOUS
370
50
 62
4
100
AcDbLine
 10
9.1359
 20
-0.10936
 30
0.0
 11
9.052425
 21
-0.076341
 31
0.0
  0
LINE
  5
60C
330
1F
100
AcDbEntity
  8
1
  6
CONTINUOUS
370
50
 62
4
100
AcDbLine
 10
8.646201999999999
 20
0.126247
 30
0.0
 11
8.576075
 21
0.153942
 31
0.0
  0
LINE
  5
60D
330
1F
100
AcDbEntity
  8
1
  6
CONTINUOUS
370
50
 62
4
100
AcDbLine
 10
9.052431
 20
-0.025362
 30
0.0
 11
8.987618
 21
0.0
 31
0.0
  0
LINE
  5
60E
330
1F
100
AcDbEntity
  8
1
  6
CONTINUOUS
370
50
 62
4
100
AcDbLine
 10
8.511891
 20
0.179869
 30
0.0
 11
8.454642999999999
 21
0.20219
 31
0.0
  0
LINE
  5
60F
330
1F
100
AcDbEntity
  8
1
  6
CONTINUOUS
370
50
 62
4
100
AcDbLine
 10
8.561069
 20
0.098091
 30
0.0
 11
8.488375
 21
0.126319
 31
0.0
  0
LINE
  5
610
330
1F
100
AcDbEntity
  8
1
  6
CONTINUOUS
370
50
 62
4
100
AcDbLine
 10
8.846876
 20
0.0
 30
0.0
 11
8.759414
 21
0.033535
 31
0.0
  0
LINE
  5
611
330
1F
100
AcDbEntity
  8
1
  6
CONTINUOUS
370
50
 62
4
100
AcDbLine
 10
8.722325
 20
0.097088
 30
0.0
 11
8.646201999999999
 21
0.126247
 31
0.0
  0
LINE
  5
612
330
1F
100
AcDbEntity
  8
1
  6
CONTINUOUS
370
50
 62
4
100
AcDbLine
 10
8.633766
 20
0.070535
 30
0.0
 11
8.561069
 21
0.098091
 31
0.0
  0
LINE
  5
613
330
1F
100
AcDbEntity
  8
1
  6
CONTINUOUS
370
50
 62
4
100
AcDbLine
 10
9.364213
 20
-0.203159
 30
0.0
 11
9.316267999999999
 21
-0.185174
 31
0.0
  0
LINE
  5
614
330
1F
100
AcDbEntity
  8
1
  6
CONTINUOUS
370
50
 62
4
100
AcDbLine
 10
8.848555
 20
-0.000537
 30
0.0
 11
8.847731
 21
-0.000228
 31
0.0
  0
LINE
  5
615
330
1F
100
AcDbEntity
  8
1
  6
CONTINUOUS
370
50
 62
4
100
AcDbLine
 10
8.851849
 20
-0.001769
 30
0.0
 11
8.851026
 21
-0.001461
 31
0.0
  0
LINE
  5
616
330
1F
100
AcDbEntity
  8
1
  6
CONTINUOUS
370
50
 62
4
100
AcDbLine
 10
8.849378
 20
-0.000845
 30
0.0
 11
8.848555
 21
-0.000537
 31
0.0
  0
LINE
  5
617
330
1F
100
AcDbEntity
  8
1
  6
CONTINUOUS
370
50
 62
4
100
AcDbLine
 10
9.052425
 20
-0.076341
 30
0.0
 11
8.955869999999999
 21
-0.04025
 31
0.0
  0
LINE
  5
618
330
1F
100
AcDbEntity
  8
1
  6
CONTINUOUS
370
50
 62
4
100
AcDbLine
 10
8.851026
 20
-0.001461
 30
0.0
 11
8.849378
 21
-0.000845
 31
0.0
  0
LINE
  5
619
330
1F
100
AcDbEntity
  8
1
  6
CONTINUOUS
370
50
 62
4
100
AcDbLine
 10
8.488375
 20
0.126319
 30
0.0
 11
8.415688
 21
0.153402
 31
0.0
  0
LINE
  5
61A
330
1F
100
AcDbEntity
  8
1
  6
CONTINUOUS
370
50
 62
4
100
AcDbLine
 10
7.141741
 20
0.157535
 30
0.0
 11
7.130023
 21
0.161878
 31
0.0
  0
LINE
  5
61B
330
1F
100
AcDbEntity
  8
1
  6
CONTINUOUS
370
50
 62
4
100
AcDbLine
 10
8.955869999999999
 20
-0.04025
 30
0.0
 11
8.851849
 21
-0.001769
 31
0.0
  0
LINE
  5
61C
330
1F
100
AcDbEntity
  8
1
  6
CONTINUOUS
370
50
 62
4
100
AcDbLine
 10
8.805147
 20
0.066471
 30
0.0
 11
8.722325
 21
0.097088
 31
0.0
  0
LINE
  5
61D
330
1F
100
AcDbEntity
  8
1
  6
CONTINUOUS
370
50
 62
4
100
AcDbLine
 10
8.987618
 20
0.0
 30
0.0
 11
8.894859
 21
0.034187
 31
0.0
  0
LINE
  5
61E
330
1F
100
AcDbEntity
  8
1
  6
CONTINUOUS
370
50
 62
4
100
AcDbLine
 10
8.894859
 20
0.034187
 30
0.0
 11
8.805147
 21
0.066471
 31
0.0
  0
LINE
  5
61F
330
1F
100
AcDbEntity
  8
1
  6
CONTINUOUS
370
50
 62
4
100
AcDbLine
 10
7.034019
 20
0.249829
 30
0.0
 11
7.033841
 21
0.249893
 31
0.0
  0
LINE
  5
620
330
1F
100
AcDbEntity
  8
1
  6
CONTINUOUS
370
50
 62
4
100
AcDbLine
 10
8.706464
 20
0.044699
 30
0.0
 11
8.633766
 21
0.070535
 31
0.0
  0
LINE
  5
621
330
1F
100
AcDbEntity
  8
1
  6
CONTINUOUS
370
50
 62
4
100
AcDbLine
 10
9.442491
 20
-0.19996
 30
0.0
 11
9.399808
 21
-0.184891
 31
0.0
  0
LINE
  5
622
330
1F
100
AcDbEntity
  8
1
  6
CONTINUOUS
370
50
 62
4
100
AcDbLine
 10
8.414639
 20
0.186573
 30
0.0
 11
8.354975999999999
 21
0.207565
 31
0.0
  0
LINE
  5
623
330
1F
100
AcDbEntity
  8
1
  6
CONTINUOUS
370
50
 62
4
100
AcDbLine
 10
7.05704
 20
0.004988
 30
0.0
 11
7.040763999999999
 21
0.010704
 31
0.0
  0
LINE
  5
624
330
1F
100
AcDbEntity
  8
1
  6
CONTINUOUS
370
50
 62
4
100
AcDbLine
 10
7.008618999999999
 20
-0.210041
 30
0.0
 11
7.003505
 21
-0.208248
 31
0.0
  0
LINE
  5
625
330
1F
100
AcDbEntity
  8
1
  6
CONTINUOUS
370
50
 62
4
100
AcDbLine
 10
7.660998999999999
 20
-0.205329
 30
0.0
 11
7.610278999999999
 21
-0.187951
 31
0.0
  0
LINE
  5
626
330
1F
100
AcDbEntity
  8
1
  6
CONTINUOUS
370
50
 62
4
100
AcDbLine
 10
8.364336999999999
 20
-0.029045
 30
0.0
 11
8.296393
 21
-0.006085
 31
0.0
  0
LINE
  5
627
330
1F
100
AcDbEntity
  8
1
  6
CONTINUOUS
370
50
 62
4
100
AcDbLine
 10
8.779159
 20
0.020771
 30
0.0
 11
8.706464
 21
0.044699
 31
0.0
  0
LINE
  5
628
330
1F
100
AcDbEntity
  8
1
  6
CONTINUOUS
370
50
 62
4
100
AcDbLine
 10
8.454642999999999
 20
0.20219
 30
0.0
 11
8.398428
 21
0.22057
 31
0.0
  0
LINE
  5
629
330
1F
100
AcDbEntity
  8
1
  6
CONTINUOUS
370
50
 62
4
100
AcDbLine
 10
7.737526
 20
-0.198393
 30
0.0
 11
7.675186
 21
-0.178449
 31
0.0
  0
LINE
  5
62A
330
1F
100
AcDbEntity
  8
1
  6
CONTINUOUS
370
50
 62
4
100
AcDbLine
 10
8.851849999999999
 20
-0.001877
 30
0.0
 11
8.779159
 21
0.020771
 31
0.0
  0
LINE
  5
62B
330
1F
100
AcDbEntity
  8
1
  6
CONTINUOUS
370
50
 62
4
100
AcDbLine
 10
9.415628
 20
-0.218968
 30
0.0
 11
9.364213
 21
-0.203159
 31
0.0
  0
LINE
  5
62C
330
1F
100
AcDbEntity
  8
1
  6
CONTINUOUS
370
50
 62
4
100
AcDbLine
 10
8.585500999999999
 20
-0.03058
 30
0.0
 11
8.441089999999999
 21
0.013068
 31
0.0
  0
LINE
  5
62D
330
1F
100
AcDbEntity
  8
1
  6
CONTINUOUS
370
50
 62
4
100
AcDbLine
 10
7.07358
 20
0.0
 30
0.0
 11
7.05704
 21
0.004988
 31
0.0
  0
LINE
  5
62E
330
1F
100
AcDbEntity
  8
1
  6
CONTINUOUS
370
50
 62
4
100
AcDbLine
 10
7.153500999999999
 20
0.154147
 30
0.0
 11
7.141741
 21
0.157535
 31
0.0
  0
LINE
  5
62F
330
1F
100
AcDbEntity
  8
1
  6
CONTINUOUS
370
50
 62
4
100
AcDbLine
 10
9.490466
 20
-0.213762
 30
0.0
 11
9.442491
 21
-0.19996
 31
0.0
  0
LINE
  5
630
330
1F
100
AcDbEntity
  8
1
  6
CONTINUOUS
370
50
 62
4
100
AcDbLine
 10
8.415688
 20
0.153402
 30
0.0
 11
8.343009
 21
0.174176
 31
0.0
  0
LINE
  5
631
330
1F
100
AcDbEntity
  8
1
  6
CONTINUOUS
370
50
 62
4
100
AcDbLine
 10
8.441089999999999
 20
0.013068
 30
0.0
 11
8.296865
 21
0.054149
 31
0.0
  0
LINE
  5
632
330
1F
100
AcDbEntity
  8
1
  6
CONTINUOUS
370
50
 62
4
100
AcDbLine
 10
7.076544999999999
 20
-0.00081
 30
0.0
 11
7.07358
 21
0.0
 31
0.0
  0
LINE
  5
633
330
1F
100
AcDbEntity
  8
1
  6
CONTINUOUS
370
50
 62
4
100
AcDbLine
 10
6.5
 20
0.24995
 30
0.0
 11
0.0
 21
1.99995
 31
0.0
  0
LINE
  5
634
330
1F
100
AcDbEntity
  8
1
  6
CONTINUOUS
370
50
 62
4
100
AcDbLine
 10
9.386118
 20
0.098782
 30
0.0
 11
9.353724
 21
0.107445
 31
0.0
  0
LINE
  5
635
330
1F
100
AcDbEntity
  8
1
  6
CONTINUOUS
370
50
 62
4
100
AcDbLine
 10
7.716965
 20
-0.220281
 30
0.0
 11
7.660998999999999
 21
-0.205329
 31
0.0
  0
LINE
  5
636
330
1F
100
AcDbEntity
  8
1
  6
CONTINUOUS
370
50
 62
4
100
AcDbLine
 10
8.847731
 20
-0.000228
 30
0.0
 11
8.846876
 21
0.0
 31
0.0
  0
LINE
  5
637
330
1F
100
AcDbEntity
  8
1
  6
CONTINUOUS
370
50
 62
4
100
AcDbLine
 10
7.079517999999999
 20
-0.001598
 30
0.0
 11
7.076544999999999
 21
-0.00081
 31
0.0
  0
LINE
  5
638
330
1F
100
AcDbEntity
  8
1
  6
CONTINUOUS
370
50
 62
4
100
AcDbLine
 10
8.354975999999999
 20
0.207565
 30
0.0
 11
8.289689
 21
0.224549
 31
0.0
  0
LINE
  5
639
330
1F
100
AcDbEntity
  8
1
  6
CONTINUOUS
370
50
 62
4
100
AcDbLine
 10
7.082497999999999
 20
-0.002362
 30
0.0
 11
7.079517999999999
 21
-0.001598
 31
0.0
  0
LINE
  5
63A
330
1F
100
AcDbEntity
  8
1
  6
CONTINUOUS
370
50
 62
4
100
AcDbLine
 10
7.800986
 20
-0.214188
 30
0.0
 11
7.737526
 21
-0.198393
 31
0.0
  0
LINE
  5
63B
330
1F
100
AcDbEntity
  8
1
  6
CONTINUOUS
370
50
 62
4
100
AcDbLine
 10
7.085484
 20
-0.003104
 30
0.0
 11
7.082497999999999
 21
-0.002362
 31
0.0
  0
LINE
  5
63C
330
1F
100
AcDbEntity
  8
1
  6
CONTINUOUS
370
50
 62
4
100
AcDbLine
 10
9.353724
 20
0.107445
 30
0.0
 11
9.324895
 21
0.114405
 31
0.0
  0
LINE
  5
63D
330
1F
100
AcDbEntity
  8
1
  6
CONTINUOUS
370
50
 62
4
100
AcDbLine
 10
8.542403
 20
-0.091667
 30
0.0
 11
8.471739
 21
-0.07461
 31
0.0
  0
LINE
  5
63E
330
1F
100
AcDbEntity
  8
1
  6
CONTINUOUS
370
50
 62
4
100
AcDbLine
 10
7.088476
 20
-0.003823
 30
0.0
 11
7.085484
 21
-0.003104
 31
0.0
  0
LINE
  5
63F
330
1F
100
AcDbEntity
  8
1
  6
CONTINUOUS
370
50
 62
4
100
AcDbLine
 10
8.296393
 20
-0.006085
 30
0.0
 11
8.225995
 21
0.010813
 31
0.0
  0
LINE
  5
640
330
1F
100
AcDbEntity
  8
1
  6
CONTINUOUS
370
50
 62
4
100
AcDbLine
 10
8.398428
 20
0.22057
 30
0.0
 11
8.336406
 21
0.234984
 31
0.0
  0
LINE
  5
641
330
1F
100
AcDbEntity
  8
1
  6
CONTINUOUS
370
50
 62
4
100
AcDbLine
 10
7.091475
 20
-0.004519
 30
0.0
 11
7.088476
 21
-0.003823
 31
0.0
  0
LINE
  5
642
330
1F
100
AcDbEntity
  8
1
  6
CONTINUOUS
370
50
 62
4
100
AcDbLine
 10
8.460975
 20
0.208799
 30
0.0
 11
8.436945999999999
 21
0.214282
 31
0.0
  0
LINE
  5
643
330
1F
100
AcDbEntity
  8
1
  6
CONTINUOUS
370
50
 62
4
100
AcDbLine
 10
9.541103999999999
 20
-0.225263
 30
0.0
 11
9.490466
 21
-0.213762
 31
0.0
  0
LINE
  5
644
330
1F
100
AcDbEntity
  8
1
  6
CONTINUOUS
370
50
 62
4
100
AcDbLine
 10
8.729975
 20
-0.063234
 30
0.0
 11
8.585500999999999
 21
-0.03058
 31
0.0
  0
LINE
  5
645
330
1F
100
AcDbEntity
  8
1
  6
CONTINUOUS
370
50
 62
4
100
AcDbLine
 10
7.09448
 20
-0.005192
 30
0.0
 11
7.091475
 21
-0.004519
 31
0.0
  0
LINE
  5
646
330
1F
100
AcDbEntity
  8
1
  6
CONTINUOUS
370
50
 62
4
100
AcDbLine
 10
9.482194999999999
 20
-0.233807
 30
0.0
 11
9.415628
 21
-0.218968
 31
0.0
  0
LINE
  5
647
330
1F
100
AcDbEntity
  8
1
  6
CONTINUOUS
370
50
 62
4
100
AcDbLine
 10
8.483839
 20
0.203707
 30
0.0
 11
8.460975
 21
0.208799
 31
0.0
  0
LINE
  5
648
330
1F
100
AcDbEntity
  8
1
  6
CONTINUOUS
370
50
 62
4
100
AcDbLine
 10
8.436945999999999
 20
0.214282
 30
0.0
 11
8.412453
 21
0.219699
 31
0.0
  0
LINE
  5
649
330
1F
100
AcDbEntity
  8
1
  6
CONTINUOUS
370
50
 62
4
100
AcDbLine
 10
8.412453
 20
0.219699
 30
0.0
 11
8.399996999999999
 21
0.222365
 31
0.0
  0
LINE
  5
64A
330
1F
100
AcDbEntity
  8
1
  6
CONTINUOUS
370
50
 62
4
100
AcDbLine
 10
9.669770999999999
 20
0.040012
 30
0.0
 11
9.622487
 21
0.050131
 31
0.0
  0
LINE
  5
64B
330
1F
100
AcDbEntity
  8
1
  6
CONTINUOUS
370
50
 62
4
100
AcDbLine
 10
9.527923
 20
0.069873
 30
0.0
 11
9.48064
 21
0.079835
 31
0.0
  0
LINE
  5
64C
330
1F
100
AcDbEntity
  8
1
  6
CONTINUOUS
370
50
 62
4
100
AcDbLine
 10
8.523729
 20
0.195316
 30
0.0
 11
8.483839
 21
0.203707
 31
0.0
  0
LINE
  5
64D
330
1F
100
AcDbEntity
  8
1
  6
CONTINUOUS
370
50
 62
4
100
AcDbLine
 10
9.575206
 20
0.059947
 30
0.0
 11
9.527923
 21
0.069873
 31
0.0
  0
LINE
  5
64E
330
1F
100
AcDbEntity
  8
1
  6
CONTINUOUS
370
50
 62
4
100
AcDbLine
 10
9.479733
 20
0.07916
 30
0.0
 11
9.432542
 21
0.089063
 31
0.0
  0
LINE
  5
64F
330
1F
100
AcDbEntity
  8
1
  6
CONTINUOUS
370
50
 62
4
100
AcDbLine
 10
9.527401
 20
0.06916
 30
0.0
 11
9.479733
 21
0.07916
 31
0.0
  0
LINE
  5
650
330
1F
100
AcDbEntity
  8
1
  6
CONTINUOUS
370
50
 62
4
100
AcDbLine
 10
9.670372
 20
0.039298
 30
0.0
 11
9.623024
 21
0.049218
 31
0.0
  0
LINE
  5
651
330
1F
100
AcDbEntity
  8
1
  6
CONTINUOUS
370
50
 62
4
100
AcDbLine
 10
9.432542
 20
0.089063
 30
0.0
 11
9.386118
 21
0.098782
 31
0.0
  0
LINE
  5
652
330
1F
100
AcDbEntity
  8
1
  6
CONTINUOUS
370
50
 62
4
100
AcDbLine
 10
9.575261
 20
0.05915
 30
0.0
 11
9.527401
 21
0.06916
 31
0.0
  0
LINE
  5
653
330
1F
100
AcDbEntity
  8
1
  6
CONTINUOUS
370
50
 62
4
100
AcDbLine
 10
9.623024
 20
0.049218
 30
0.0
 11
9.575261
 21
0.05915
 31
0.0
  0
LINE
  5
654
330
1F
100
AcDbEntity
  8
1
  6
CONTINUOUS
370
50
 62
4
100
AcDbLine
 10
9.622487
 20
0.050131
 30
0.0
 11
9.575206
 21
0.059947
 31
0.0
  0
LINE
  5
655
330
1F
100
AcDbEntity
  8
1
  6
CONTINUOUS
370
50
 62
4
100
AcDbLine
 10
7.16535
 20
0.151694
 30
0.0
 11
7.153500999999999
 21
0.154147
 31
0.0
  0
LINE
  5
656
330
1F
100
AcDbEntity
  8
1
  6
CONTINUOUS
370
50
 62
4
100
AcDbLine
 10
9.48064
 20
0.079835
 30
0.0
 11
9.43337
 21
0.089578
 31
0.0
  0
LINE
  5
657
330
1F
100
AcDbEntity
  8
1
  6
CONTINUOUS
370
50
 62
4
100
AcDbLine
 10
8.399996999999999
 20
0.222365
 30
0.0
 11
8.371044999999999
 21
0.228318
 31
0.0
  0
LINE
  5
658
330
1F
100
AcDbEntity
  8
1
  6
CONTINUOUS
370
50
 62
4
100
AcDbLine
 10
8.296865
 20
0.054149
 30
0.0
 11
8.152686
 21
0.083536
 31
0.0
  0
LINE
  5
659
330
1F
100
AcDbEntity
  8
1
  6
CONTINUOUS
370
50
 62
4
100
AcDbLine
 10
8.343009
 20
0.174176
 30
0.0
 11
8.270332999999999
 21
0.188834
 31
0.0
  0
LINE
  5
65A
330
1F
100
AcDbEntity
  8
1
  6
CONTINUOUS
370
50
 62
4
100
AcDbLine
 10
7.579206999999999
 20
0.115717
 30
0.0
 11
7.565583999999999
 21
0.118382
 31
0.0
  0
LINE
  5
65B
330
1F
100
AcDbEntity
  8
1
  6
CONTINUOUS
370
50
 62
4
100
AcDbLine
 10
8.555144
 20
0.189193
 30
0.0
 11
8.523729
 21
0.195316
 31
0.0
  0
LINE
  5
65C
330
1F
100
AcDbEntity
  8
1
  6
CONTINUOUS
370
50
 62
4
100
AcDbLine
 10
9.43337
 20
0.089578
 30
0.0
 11
9.386118
 21
0.098782
 31
0.0
  0
LINE
  5
65D
330
1F
100
AcDbEntity
  8
1
  6
CONTINUOUS
370
50
 62
4
100
AcDbLine
 10
9.324895
 20
0.114405
 30
0.0
 11
9.296349
 21
0.119954
 31
0.0
  0
LINE
  5
65E
330
1F
100
AcDbEntity
  8
1
  6
CONTINUOUS
370
50
 62
4
100
AcDbLine
 10
7.780989
 20
-0.232708
 30
0.0
 11
7.716965
 21
-0.220281
 31
0.0
  0
LINE
  5
65F
330
1F
100
AcDbEntity
  8
1
  6
CONTINUOUS
370
50
 62
4
100
AcDbLine
 10
8.371044999999999
 20
0.228318
 30
0.0
 11
8.341042
 21
0.234119
 31
0.0
  0
LINE
  5
660
330
1F
100
AcDbEntity
  8
1
  6
CONTINUOUS
370
50
 62
4
100
AcDbLine
 10
7.033841
 20
0.249893
 30
0.0
 11
7.033633999999999
 21
0.249933
 31
0.0
  0
LINE
  5
661
330
1F
100
AcDbEntity
  8
1
  6
CONTINUOUS
370
50
 62
4
100
AcDbLine
 10
7.993647999999999
 20
0.040693
 30
0.0
 11
7.92462
 21
0.054
 31
0.0
  0
LINE
  5
662
330
1F
100
AcDbEntity
  8
1
  6
CONTINUOUS
370
50
 62
4
100
AcDbLine
 10
7.865056
 20
-0.226436
 30
0.0
 11
7.800986
 21
-0.214188
 31
0.0
  0
LINE
  5
663
330
1F
100
AcDbEntity
  8
1
  6
CONTINUOUS
370
50
 62
4
100
AcDbLine
 10
7.92462
 20
0.054
 30
0.0
 11
7.855556999999999
 21
0.067093
 31
0.0
  0
LINE
  5
664
330
1F
100
AcDbEntity
  8
1
  6
CONTINUOUS
370
50
 62
4
100
AcDbLine
 10
7.993647999999999
 20
0.040693
 30
0.0
 11
7.949261
 21
0.04908
 31
0.0
  0
LINE
  5
665
330
1F
100
AcDbEntity
  8
1
  6
CONTINUOUS
370
50
 62
4
100
AcDbLine
 10
7.855556999999999
 20
0.067093
 30
0.0
 11
7.786466
 21
0.080116
 31
0.0
  0
LINE
  5
666
330
1F
100
AcDbEntity
  8
1
  6
CONTINUOUS
370
50
 62
4
100
AcDbLine
 10
7.949261
 20
0.04908
 30
0.0
 11
7.897176999999999
 21
0.058897
 31
0.0
  0
LINE
  5
667
330
1F
100
AcDbEntity
  8
1
  6
CONTINUOUS
370
50
 62
4
100
AcDbLine
 10
8.613111
 20
-0.104925
 30
0.0
 11
8.542403
 21
-0.091667
 31
0.0
  0
LINE
  5
668
330
1F
100
AcDbEntity
  8
1
  6
CONTINUOUS
370
50
 62
4
100
AcDbLine
 10
7.897176999999999
 20
0.058897
 30
0.0
 11
7.839051
 21
0.069754
 31
0.0
  0
LINE
  5
669
330
1F
100
AcDbEntity
  8
1
  6
CONTINUOUS
370
50
 62
4
100
AcDbLine
 10
7.786466
 20
0.080116
 30
0.0
 11
7.717359999999999
 21
0.092998
 31
0.0
  0
LINE
  5
66A
330
1F
100
AcDbEntity
  8
1
  6
CONTINUOUS
370
50
 62
4
100
AcDbLine
 10
8.341042
 20
0.234119
 30
0.0
 11
8.336406
 21
0.234981
 31
0.0
  0
LINE
  5
66B
330
1F
100
AcDbEntity
  8
1
  6
CONTINUOUS
370
50
 62
4
100
AcDbLine
 10
7.839051
 20
0.069754
 30
0.0
 11
7.776535999999999
 21
0.081257
 31
0.0
  0
LINE
  5
66C
330
1F
100
AcDbEntity
  8
1
  6
CONTINUOUS
370
50
 62
4
100
AcDbLine
 10
7.776535999999999
 20
0.081257
 30
0.0
 11
7.711288
 21
0.093013
 31
0.0
  0
LINE
  5
66D
330
1F
100
AcDbEntity
  8
1
  6
CONTINUOUS
370
50
 62
4
100
AcDbLine
 10
8.592957
 20
0.182413
 30
0.0
 11
8.555144
 21
0.189193
 31
0.0
  0
LINE
  5
66E
330
1F
100
AcDbEntity
  8
1
  6
CONTINUOUS
370
50
 62
4
100
AcDbLine
 10
8.289689
 20
0.224549
 30
0.0
 11
8.222756
 21
0.236521
 31
0.0
  0
LINE
  5
66F
330
1F
100
AcDbEntity
  8
1
  6
CONTINUOUS
370
50
 62
4
100
AcDbLine
 10
7.717359999999999
 20
0.092998
 30
0.0
 11
7.648263999999999
 21
0.105109
 31
0.0
  0
LINE
  5
670
330
1F
100
AcDbEntity
  8
1
  6
CONTINUOUS
370
50
 62
4
100
AcDbLine
 10
7.711288
 20
0.093013
 30
0.0
 11
7.644959999999999
 21
0.104631
 31
0.0
  0
LINE
  5
671
330
1F
100
AcDbEntity
  8
1
  6
CONTINUOUS
370
50
 62
4
100
AcDbLine
 10
9.592462
 20
-0.234218
 30
0.0
 11
9.541103999999999
 21
-0.225263
 31
0.0
  0
LINE
  5
672
330
1F
100
AcDbEntity
  8
1
  6
CONTINUOUS
370
50
 62
4
100
AcDbLine
 10
7.565583999999999
 20
0.118382
 30
0.0
 11
7.550275999999999
 21
0.120999
 31
0.0
  0
LINE
  5
673
330
1F
100
AcDbEntity
  8
1
  6
CONTINUOUS
370
50
 62
4
100
AcDbLine
 10
7.644959999999999
 20
0.104631
 30
0.0
 11
7.579206999999999
 21
0.115717
 31
0.0
  0
LINE
  5
674
330
1F
100
AcDbEntity
  8
1
  6
CONTINUOUS
370
50
 62
4
100
AcDbLine
 10
8.336406
 20
0.234984
 30
0.0
 11
8.306332
 21
0.239937
 31
0.0
  0
LINE
  5
675
330
1F
100
AcDbEntity
  8
1
  6
CONTINUOUS
370
50
 62
4
100
AcDbLine
 10
8.626381
 20
0.176953
 30
0.0
 11
8.592957
 21
0.182413
 31
0.0
  0
LINE
  5
676
330
1F
100
AcDbEntity
  8
1
  6
CONTINUOUS
370
50
 62
4
100
AcDbLine
 10
8.225995
 20
0.010813
 30
0.0
 11
8.151976
 21
0.022837
 31
0.0
  0
LINE
  5
677
330
1F
100
AcDbEntity
  8
1
  6
CONTINUOUS
370
50
 62
4
100
AcDbLine
 10
8.874374999999999
 20
-0.086624
 30
0.0
 11
8.729975
 21
-0.063234
 31
0.0
  0
LINE
  5
678
330
1F
100
AcDbEntity
  8
1
  6
CONTINUOUS
370
50
 62
4
100
AcDbLine
 10
7.098789
 20
-0.005864
 30
0.0
 11
7.09448
 21
-0.005192
 31
0.0
  0
LINE
  5
679
330
1F
100
AcDbEntity
  8
1
  6
CONTINUOUS
370
50
 62
4
100
AcDbLine
 10
7.243205
 20
-0.092686
 30
0.0
 11
7.199999999999999
 21
-0.086038
 31
0.0
  0
LINE
  5
67A
330
1F
100
AcDbEntity
  8
1
  6
CONTINUOUS
370
50
 62
4
100
AcDbLine
 10
7.648263999999999
 20
0.105109
 30
0.0
 11
7.579206999999999
 21
0.115717
 31
0.0
  0
LINE
  5
67B
330
1F
100
AcDbEntity
  8
1
  6
CONTINUOUS
370
50
 62
4
100
AcDbLine
 10
9.600518
 20
0.114295
 30
0.0
 11
9.592027999999999
 21
0.115571
 31
0.0
  0
LINE
  5
67C
330
1F
100
AcDbEntity
  8
1
  6
CONTINUOUS
370
50
 62
4
100
AcDbLine
 10
8.670167
 20
0.170516
 30
0.0
 11
8.626381
 21
0.176953
 31
0.0
  0
LINE
  5
67D
330
1F
100
AcDbEntity
  8
1
  6
CONTINUOUS
370
50
 62
4
100
AcDbLine
 10
7.286404
 20
-0.098983
 30
0.0
 11
7.243205
 21
-0.092686
 31
0.0
  0
LINE
  5
67E
330
1F
100
AcDbEntity
  8
1
  6
CONTINUOUS
370
50
 62
4
100
AcDbLine
 10
7.550275999999999
 20
0.120999
 30
0.0
 11
7.53323
 21
0.123477
 31
0.0
  0
LINE
  5
67F
330
1F
100
AcDbEntity
  8
1
  6
CONTINUOUS
370
50
 62
4
100
AcDbLine
 10
8.152686
 20
0.083536
 30
0.0
 11
8.008431999999999
 21
0.10442
 31
0.0
  0
LINE
  5
680
330
1F
100
AcDbEntity
  8
1
  6
CONTINUOUS
370
50
 62
4
100
AcDbLine
 10
7.929606
 20
-0.235777
 30
0.0
 11
7.865056
 21
-0.226436
 31
0.0
  0
LINE
  5
681
330
1F
100
AcDbEntity
  8
1
  6
CONTINUOUS
370
50
 62
4
100
AcDbLine
 10
9.683888
 20
0.104495
 30
0.0
 11
9.683845999999999
 21
0.104501
 31
0.0
  0
LINE
  5
682
330
1F
100
AcDbEntity
  8
1
  6
CONTINUOUS
370
50
 62
4
100
AcDbLine
 10
9.682817
 20
0.104636
 30
0.0
 11
9.682775
 21
0.104642
 31
0.0
  0
LINE
  5
683
330
1F
100
AcDbEntity
  8
1
  6
CONTINUOUS
370
50
 62
4
100
AcDbLine
 10
9.296349
 20
0.119954
 30
0.0
 11
9.265357999999999
 21
0.124306
 31
0.0
  0
LINE
  5
684
330
1F
100
AcDbEntity
  8
1
  6
CONTINUOUS
370
50
 62
4
100
AcDbLine
 10
8.683826
 20
-0.114823
 30
0.0
 11
8.613111
 21
-0.104925
 31
0.0
  0
LINE
  5
685
330
1F
100
AcDbEntity
  8
1
  6
CONTINUOUS
370
50
 62
4
100
AcDbLine
 10
9.684103
 20
0.104467
 30
0.0
 11
9.684016999999999
 21
0.104479
 31
0.0
  0
LINE
  5
686
330
1F
100
AcDbEntity
  8
1
  6
CONTINUOUS
370
50
 62
4
100
AcDbLine
 10
9.683974
 20
0.104484
 30
0.0
 11
9.683931
 21
0.10449
 31
0.0
  0
LINE
  5
687
330
1F
100
AcDbEntity
  8
1
  6
CONTINUOUS
370
50
 62
4
100
AcDbLine
 10
9.683845999999999
 20
0.104501
 30
0.0
 11
9.683803
 21
0.104507
 31
0.0
  0
LINE
  5
688
330
1F
100
AcDbEntity
  8
1
  6
CONTINUOUS
370
50
 62
4
100
AcDbLine
 10
9.68376
 20
0.104512
 30
0.0
 11
9.683674
 21
0.104524
 31
0.0
  0
LINE
  5
689
330
1F
100
AcDbEntity
  8
1
  6
CONTINUOUS
370
50
 62
4
100
AcDbLine
 10
9.683632
 20
0.104529
 30
0.0
 11
9.683546
 21
0.104541
 31
0.0
  0
LINE
  5
68A
330
1F
100
AcDbEntity
  8
1
  6
CONTINUOUS
370
50
 62
4
100
AcDbLine
 10
9.683503
 20
0.104546
 30
0.0
 11
9.68346
 21
0.104552
 31
0.0
  0
LINE
  5
68B
330
1F
100
AcDbEntity
  8
1
  6
CONTINUOUS
370
50
 62
4
100
AcDbLine
 10
9.683417
 20
0.104557
 30
0.0
 11
9.683330999999999
 21
0.104569
 31
0.0
  0
LINE
  5
68C
330
1F
100
AcDbEntity
  8
1
  6
CONTINUOUS
370
50
 62
4
100
AcDbLine
 10
9.683289
 20
0.104574
 30
0.0
 11
9.683202999999999
 21
0.104586
 31
0.0
  0
LINE
  5
68D
330
1F
100
AcDbEntity
  8
1
  6
CONTINUOUS
370
50
 62
4
100
AcDbLine
 10
9.683161
 20
0.104591
 30
0.0
 11
9.683074999999999
 21
0.104603
 31
0.0
  0
LINE
  5
68E
330
1F
100
AcDbEntity
  8
1
  6
CONTINUOUS
370
50
 62
4
100
AcDbLine
 10
9.683031999999999
 20
0.104608
 30
0.0
 11
9.682989
 21
0.104614
 31
0.0
  0
LINE
  5
68F
330
1F
100
AcDbEntity
  8
1
  6
CONTINUOUS
370
50
 62
4
100
AcDbLine
 10
9.682946
 20
0.104619
 30
0.0
 11
9.68286
 21
0.104631
 31
0.0
  0
LINE
  5
690
330
1F
100
AcDbEntity
  8
1
  6
CONTINUOUS
370
50
 62
4
100
AcDbLine
 10
9.682775
 20
0.104642
 30
0.0
 11
9.682732
 21
0.104648
 31
0.0
  0
LINE
  5
691
330
1F
100
AcDbEntity
  8
1
  6
CONTINUOUS
370
50
 62
4
100
AcDbLine
 10
9.68269
 20
0.104653
 30
0.0
 11
9.682647
 21
0.104659
 31
0.0
  0
LINE
  5
692
330
1F
100
AcDbEntity
  8
1
  6
CONTINUOUS
370
50
 62
4
100
AcDbLine
 10
9.682604
 20
0.104664
 30
0.0
 11
9.682518
 21
0.104676
 31
0.0
  0
LINE
  5
693
330
1F
100
AcDbEntity
  8
1
  6
CONTINUOUS
370
50
 62
4
100
AcDbLine
 10
9.682475
 20
0.104681
 30
0.0
 11
9.682388999999999
 21
0.104693
 31
0.0
  0
LINE
  5
694
330
1F
100
AcDbEntity
  8
1
  6
CONTINUOUS
370
50
 62
4
100
AcDbLine
 10
9.682345999999999
 20
0.104698
 30
0.0
 11
9.682303
 21
0.104704
 31
0.0
  0
LINE
  5
695
330
1F
100
AcDbEntity
  8
1
  6
CONTINUOUS
370
50
 62
4
100
AcDbLine
 10
7.329598
 20
-0.105007
 30
0.0
 11
7.286404
 21
-0.098983
 31
0.0
  0
LINE
  5
696
330
1F
100
AcDbEntity
  8
1
  6
CONTINUOUS
370
50
 62
4
100
AcDbLine
 10
8.270332999999999
 20
0.188834
 30
0.0
 11
8.197659
 21
0.198588
 31
0.0
  0
LINE
  5
697
330
1F
100
AcDbEntity
  8
1
  6
CONTINUOUS
370
50
 62
4
100
AcDbLine
 10
7.372789999999999
 20
-0.11078
 30
0.0
 11
7.329598
 21
-0.105007
 31
0.0
  0
LINE
  5
698
330
1F
100
AcDbEntity
  8
1
  6
CONTINUOUS
370
50
 62
4
100
AcDbLine
 10
8.697587
 20
0.166869
 30
0.0
 11
8.670167
 21
0.170516
 31
0.0
  0
LINE
  5
699
330
1F
100
AcDbEntity
  8
1
  6
CONTINUOUS
370
50
 62
4
100
AcDbLine
 10
9.567489
 20
-0.245001
 30
0.0
 11
9.482194999999999
 21
-0.233807
 31
0.0
  0
LINE
  5
69A
330
1F
100
AcDbEntity
  8
1
  6
CONTINUOUS
370
50
 62
4
100
AcDbLine
 10
7.852156
 20
-0.242044
 30
0.0
 11
7.780989
 21
-0.232708
 31
0.0
  0
LINE
  5
69B
330
1F
100
AcDbEntity
  8
1
  6
CONTINUOUS
370
50
 62
4
100
AcDbLine
 10
9.644169
 20
-0.240901
 30
0.0
 11
9.592462
 21
-0.234218
 31
0.0
  0
LINE
  5
69C
330
1F
100
AcDbEntity
  8
1
  6
CONTINUOUS
370
50
 62
4
100
AcDbLine
 10
9.018653
 20
-0.10505
 30
0.0
 11
8.874374999999999
 21
-0.086624
 31
0.0
  0
LINE
  5
69D
330
1F
100
AcDbEntity
  8
1
  6
CONTINUOUS
370
50
 62
4
100
AcDbLine
 10
8.306332
 20
0.239937
 30
0.0
 11
8.275784
 21
0.243815
 31
0.0
  0
LINE
  5
69E
330
1F
100
AcDbEntity
  8
1
  6
CONTINUOUS
370
50
 62
4
100
AcDbLine
 10
7.177053
 20
0.150214
 30
0.0
 11
7.16535
 21
0.151694
 31
0.0
  0
LINE
  5
69F
330
1F
100
AcDbEntity
  8
1
  6
CONTINUOUS
370
50
 62
4
100
AcDbLine
 10
7.415979999999999
 20
-0.116238
 30
0.0
 11
7.372789999999999
 21
-0.11078
 31
0.0
  0
LINE
  5
6A0
330
1F
100
AcDbEntity
  8
1
  6
CONTINUOUS
370
50
 62
4
100
AcDbLine
 10
8.72642
 20
0.163325
 30
0.0
 11
8.697587
 21
0.166869
 31
0.0
  0
LINE
  5
6A1
330
1F
100
AcDbEntity
  8
1
  6
CONTINUOUS
370
50
 62
4
100
AcDbLine
 10
7.103122
 20
-0.006395
 30
0.0
 11
7.098789
 21
-0.005864
 31
0.0
  0
LINE
  5
6A2
330
1F
100
AcDbEntity
  8
1
  6
CONTINUOUS
370
50
 62
4
100
AcDbLine
 10
7.53323
 20
0.123477
 30
0.0
 11
7.514391
 21
0.125729
 31
0.0
  0
LINE
  5
6A3
330
1F
100
AcDbEntity
  8
1
  6
CONTINUOUS
370
50
 62
4
100
AcDbLine
 10
8.151976
 20
0.022837
 30
0.0
 11
8.07437
 21
0.032104
 31
0.0
  0
LINE
  5
6A4
330
1F
100
AcDbEntity
  8
1
  6
CONTINUOUS
370
50
 62
4
100
AcDbLine
 10
9.684145
 20
0.104462
 30
0.0
 11
9.684103
 21
0.104467
 31
0.0
  0
LINE
  5
6A5
330
1F
100
AcDbEntity
  8
1
  6
CONTINUOUS
370
50
 62
4
100
AcDbLine
 10
9.683674
 20
0.104524
 30
0.0
 11
9.683632
 21
0.104529
 31
0.0
  0
LINE
  5
6A6
330
1F
100
AcDbEntity
  8
1
  6
CONTINUOUS
370
50
 62
4
100
AcDbLine
 10
9.683330999999999
 20
0.104569
 30
0.0
 11
9.683289
 21
0.104574
 31
0.0
  0
LINE
  5
6A7
330
1F
100
AcDbEntity
  8
1
  6
CONTINUOUS
370
50
 62
4
100
AcDbLine
 10
9.683202999999999
 20
0.104586
 30
0.0
 11
9.683161
 21
0.104591
 31
0.0
  0
LINE
  5
6A8
330
1F
100
AcDbEntity
  8
1
  6
CONTINUOUS
370
50
 62
4
100
AcDbLine
 10
9.682732
 20
0.104648
 30
0.0
 11
9.68269
 21
0.104653
 31
0.0
  0
LINE
  5
6A9
330
1F
100
AcDbEntity
  8
1
  6
CONTINUOUS
370
50
 62
4
100
AcDbLine
 10
9.682303
 20
0.104704
 30
0.0
 11
9.682260999999999
 21
0.104709
 31
0.0
  0
LINE
  5
6AA
330
1F
100
AcDbEntity
  8
1
  6
CONTINUOUS
370
50
 62
4
100
AcDbLine
 10
9.684016999999999
 20
0.104479
 30
0.0
 11
9.683974
 21
0.104484
 31
0.0
  0
LINE
  5
6AB
330
1F
100
AcDbEntity
  8
1
  6
CONTINUOUS
370
50
 62
4
100
AcDbLine
 10
9.683931
 20
0.10449
 30
0.0
 11
9.683888
 21
0.104495
 31
0.0
  0
LINE
  5
6AC
330
1F
100
AcDbEntity
  8
1
  6
CONTINUOUS
370
50
 62
4
100
AcDbLine
 10
9.683803
 20
0.104507
 30
0.0
 11
9.68376
 21
0.104512
 31
0.0
  0
LINE
  5
6AD
330
1F
100
AcDbEntity
  8
1
  6
CONTINUOUS
370
50
 62
4
100
AcDbLine
 10
9.683546
 20
0.104541
 30
0.0
 11
9.683503
 21
0.104546
 31
0.0
  0
LINE
  5
6AE
330
1F
100
AcDbEntity
  8
1
  6
CONTINUOUS
370
50
 62
4
100
AcDbLine
 10
9.68346
 20
0.104552
 30
0.0
 11
9.683417
 21
0.104557
 31
0.0
  0
LINE
  5
6AF
330
1F
100
AcDbEntity
  8
1
  6
CONTINUOUS
370
50
 62
4
100
AcDbLine
 10
9.683074999999999
 20
0.104603
 30
0.0
 11
9.683031999999999
 21
0.104608
 31
0.0
  0
LINE
  5
6B0
330
1F
100
AcDbEntity
  8
1
  6
CONTINUOUS
370
50
 62
4
100
AcDbLine
 10
9.682989
 20
0.104614
 30
0.0
 11
9.682946
 21
0.104619
 31
0.0
  0
LINE
  5
6B1
330
1F
100
AcDbEntity
  8
1
  6
CONTINUOUS
370
50
 62
4
100
AcDbLine
 10
9.68286
 20
0.104631
 30
0.0
 11
9.682817
 21
0.104636
 31
0.0
  0
LINE
  5
6B2
330
1F
100
AcDbEntity
  8
1
  6
CONTINUOUS
370
50
 62
4
100
AcDbLine
 10
9.682647
 20
0.104659
 30
0.0
 11
9.682604
 21
0.104664
 31
0.0
  0
LINE
  5
6B3
330
1F
100
AcDbEntity
  8
1
  6
CONTINUOUS
370
50
 62
4
100
AcDbLine
 10
9.682518
 20
0.104676
 30
0.0
 11
9.682475
 21
0.104681
 31
0.0
  0
LINE
  5
6B4
330
1F
100
AcDbEntity
  8
1
  6
CONTINUOUS
370
50
 62
4
100
AcDbLine
 10
9.682388999999999
 20
0.104693
 30
0.0
 11
9.682345999999999
 21
0.104698
 31
0.0
  0
LINE
  5
6B5
330
1F
100
AcDbEntity
  8
1
  6
CONTINUOUS
370
50
 62
4
100
AcDbLine
 10
7.459174
 20
-0.121206
 30
0.0
 11
7.415979999999999
 21
-0.116238
 31
0.0
  0
LINE
  5
6B6
330
1F
100
AcDbEntity
  8
1
  6
CONTINUOUS
370
50
 62
4
100
AcDbLine
 10
8.222756
 20
0.236521
 30
0.0
 11
8.152752999999999
 21
0.24452
 31
0.0
  0
LINE
  5
6B7
330
1F
100
AcDbEntity
  8
1
  6
CONTINUOUS
370
50
 62
4
100
AcDbLine
 10
8.755957
 20
0.159975
 30
0.0
 11
8.72642
 21
0.163325
 31
0.0
  0
LINE
  5
6B8
330
1F
100
AcDbEntity
  8
1
  6
CONTINUOUS
370
50
 62
4
100
AcDbLine
 10
8.008431999999999
 20
0.10442
 30
0.0
 11
7.864062
 21
0.120183
 31
0.0
  0
LINE
  5
6B9
330
1F
100
AcDbEntity
  8
1
  6
CONTINUOUS
370
50
 62
4
100
AcDbLine
 10
9.592027999999999
 20
0.115571
 30
0.0
 11
9.583539
 21
0.11649
 31
0.0
  0
LINE
  5
6BA
330
1F
100
AcDbEntity
  8
1
  6
CONTINUOUS
370
50
 62
4
100
AcDbLine
 10
8.768799999999999
 20
0.1586
 30
0.0
 11
8.755957
 21
0.159975
 31
0.0
  0
LINE
  5
6BB
330
1F
100
AcDbEntity
  8
1
  6
CONTINUOUS
370
50
 62
4
100
AcDbLine
 10
9.162830999999999
 20
-0.120474
 30
0.0
 11
9.018653
 21
-0.10505
 31
0.0
  0
LINE
  5
6BC
330
1F
100
AcDbEntity
  8
1
  6
CONTINUOUS
370
50
 62
4
100
AcDbLine
 10
8.07437
 20
0.032104
 30
0.0
 11
7.993647999999999
 21
0.040693
 31
0.0
  0
LINE
  5
6BD
330
1F
100
AcDbEntity
  8
1
  6
CONTINUOUS
370
50
 62
4
100
AcDbLine
 10
7.994384999999999
 20
-0.242664
 30
0.0
 11
7.929606
 21
-0.235777
 31
0.0
  0
LINE
  5
6BE
330
1F
100
AcDbEntity
  8
1
  6
CONTINUOUS
370
50
 62
4
100
AcDbLine
 10
9.583539
 20
0.11649
 30
0.0
 11
9.57505
 21
0.117392
 31
0.0
  0
LINE
  5
6BF
330
1F
100
AcDbEntity
  8
1
  6
CONTINUOUS
370
50
 62
4
100
AcDbLine
 10
9.57505
 20
0.117392
 30
0.0
 11
9.566562
 21
0.118276
 31
0.0
  0
LINE
  5
6C0
330
1F
100
AcDbEntity
  8
1
  6
CONTINUOUS
370
50
 62
4
100
AcDbLine
 10
9.566562
 20
0.118276
 30
0.0
 11
9.558073
 21
0.119142
 31
0.0
  0
LINE
  5
6C1
330
1F
100
AcDbEntity
  8
1
  6
CONTINUOUS
370
50
 62
4
100
AcDbLine
 10
8.804115
 20
0.155049
 30
0.0
 11
8.768799999999999
 21
0.1586
 31
0.0
  0
LINE
  5
6C2
330
1F
100
AcDbEntity
  8
1
  6
CONTINUOUS
370
50
 62
4
100
AcDbLine
 10
9.558073
 20
0.119142
 30
0.0
 11
9.549584
 21
0.11999
 31
0.0
  0
LINE
  5
6C3
330
1F
100
AcDbEntity
  8
1
  6
CONTINUOUS
370
50
 62
4
100
AcDbLine
 10
8.754522999999999
 20
-0.121841
 30
0.0
 11
8.683826
 21
-0.114823
 31
0.0
  0
LINE
  5
6C4
330
1F
100
AcDbEntity
  8
1
  6
CONTINUOUS
370
50
 62
4
100
AcDbLine
 10
9.549584
 20
0.11999
 30
0.0
 11
9.515367
 21
0.123215
 31
0.0
  0
LINE
  5
6C5
330
1F
100
AcDbEntity
  8
1
  6
CONTINUOUS
370
50
 62
4
100
AcDbLine
 10
7.514391
 20
0.125729
 30
0.0
 11
7.493708
 21
0.127666
 31
0.0
  0
LINE
  5
6C6
330
1F
100
AcDbEntity
  8
1
  6
CONTINUOUS
370
50
 62
4
100
AcDbLine
 10
8.275784
 20
0.243815
 30
0.0
 11
8.244964
 21
0.246669
 31
0.0
  0
LINE
  5
6C7
330
1F
100
AcDbEntity
  8
1
  6
CONTINUOUS
370
50
 62
4
100
AcDbLine
 10
8.840046
 20
0.151745
 30
0.0
 11
8.804115
 21
0.155049
 31
0.0
  0
LINE
  5
6C8
330
1F
100
AcDbEntity
  8
1
  6
CONTINUOUS
370
50
 62
4
100
AcDbLine
 10
9.265357999999999
 20
0.124306
 30
0.0
 11
9.233478999999999
 21
0.127228
 31
0.0
  0
LINE
  5
6C9
330
1F
100
AcDbEntity
  8
1
  6
CONTINUOUS
370
50
 62
4
100
AcDbLine
 10
9.695856
 20
-0.245583
 30
0.0
 11
9.644169
 21
-0.240901
 31
0.0
  0
LINE
  5
6CA
330
1F
100
AcDbEntity
  8
1
  6
CONTINUOUS
370
50
 62
4
100
AcDbLine
 10
7.107474
 20
-0.006785
 30
0.0
 11
7.103122
 21
-0.006395
 31
0.0
  0
LINE
  5
6CB
330
1F
100
AcDbEntity
  8
1
  6
CONTINUOUS
370
50
 62
4
100
AcDbLine
 10
7.231815
 20
0.146637
 30
0.0
 11
7.199992
 21
0.149484
 31
0.0
  0
LINE
  5
6CC
330
1F
100
AcDbEntity
  8
1
  6
CONTINUOUS
370
50
 62
4
100
AcDbLine
 10
8.84891
 20
0.150973
 30
0.0
 11
8.840046
 21
0.151745
 31
0.0
  0
LINE
  5
6CD
330
1F
100
AcDbEntity
  8
1
  6
CONTINUOUS
370
50
 62
4
100
AcDbLine
 10
7.864062
 20
0.120183
 30
0.0
 11
7.825761999999999
 21
0.123511
 31
0.0
  0
LINE
  5
6CE
330
1F
100
AcDbEntity
  8
1
  6
CONTINUOUS
370
50
 62
4
100
AcDbLine
 10
7.263252
 20
0.143941
 30
0.0
 11
7.231815
 21
0.146637
 31
0.0
  0
LINE
  5
6CF
330
1F
100
AcDbEntity
  8
1
  6
CONTINUOUS
370
50
 62
4
100
AcDbLine
 10
7.271368
 20
0.143262
 30
0.0
 11
7.263252
 21
0.143941
 31
0.0
  0
LINE
  5
6D0
330
1F
100
AcDbEntity
  8
1
  6
CONTINUOUS
370
50
 62
4
100
AcDbLine
 10
8.880063999999999
 20
0.148377
 30
0.0
 11
8.84891
 21
0.150973
 31
0.0
  0
LINE
  5
6D1
330
1F
100
AcDbEntity
  8
1
  6
CONTINUOUS
370
50
 62
4
100
AcDbLine
 10
9.515367
 20
0.123215
 30
0.0
 11
9.481149
 21
0.126054
 31
0.0
  0
LINE
  5
6D2
330
1F
100
AcDbEntity
  8
1
  6
CONTINUOUS
370
50
 62
4
100
AcDbLine
 10
7.307503
 20
0.140329
 30
0.0
 11
7.271368
 21
0.143262
 31
0.0
  0
LINE
  5
6D3
330
1F
100
AcDbEntity
  8
1
  6
CONTINUOUS
370
50
 62
4
100
AcDbLine
 10
8.197659
 20
0.198588
 30
0.0
 11
8.124982
 21
0.204405
 31
0.0
  0
LINE
  5
6D4
330
1F
100
AcDbEntity
  8
1
  6
CONTINUOUS
370
50
 62
4
100
AcDbLine
 10
7.926889999999999
 20
-0.247875
 30
0.0
 11
7.852156
 21
-0.242044
 31
0.0
  0
LINE
  5
6D5
330
1F
100
AcDbEntity
  8
1
  6
CONTINUOUS
370
50
 62
4
100
AcDbLine
 10
8.911342
 20
0.145937
 30
0.0
 11
8.880063999999999
 21
0.148377
 31
0.0
  0
LINE
  5
6D6
330
1F
100
AcDbEntity
  8
1
  6
CONTINUOUS
370
50
 62
4
100
AcDbLine
 10
7.342764
 20
0.137609
 30
0.0
 11
7.307503
 21
0.140329
 31
0.0
  0
LINE
  5
6D7
330
1F
100
AcDbEntity
  8
1
  6
CONTINUOUS
370
50
 62
4
100
AcDbLine
 10
7.825761999999999
 20
0.123511
 30
0.0
 11
7.787456
 21
0.126444
 31
0.0
  0
LINE
  5
6D8
330
1F
100
AcDbEntity
  8
1
  6
CONTINUOUS
370
50
 62
4
100
AcDbLine
 10
7.347078
 20
0.137286
 30
0.0
 11
7.342764
 21
0.137609
 31
0.0
  0
LINE
  5
6D9
330
1F
100
AcDbEntity
  8
1
  6
CONTINUOUS
370
50
 62
4
100
AcDbLine
 10
8.944797
 20
0.143487
 30
0.0
 11
8.911342
 21
0.145937
 31
0.0
  0
LINE
  5
6DA
330
1F
100
AcDbEntity
  8
1
  6
CONTINUOUS
370
50
 62
4
100
AcDbLine
 10
7.381116
 20
0.134825
 30
0.0
 11
7.347078
 21
0.137286
 31
0.0
  0
LINE
  5
6DB
330
1F
100
AcDbEntity
  8
1
  6
CONTINUOUS
370
50
 62
4
100
AcDbLine
 10
8.066443
 20
-0.247716
 30
0.0
 11
7.994384999999999
 21
-0.242664
 31
0.0
  0
LINE
  5
6DC
330
1F
100
AcDbEntity
  8
1
  6
CONTINUOUS
370
50
 62
4
100
AcDbLine
 10
8.982690999999999
 20
0.140883
 30
0.0
 11
8.944797
 21
0.143487
 31
0.0
  0
LINE
  5
6DD
330
1F
100
AcDbEntity
  8
1
  6
CONTINUOUS
370
50
 62
4
100
AcDbLine
 10
9.481149
 20
0.126054
 30
0.0
 11
9.446935
 21
0.128397
 31
0.0
  0
LINE
  5
6DE
330
1F
100
AcDbEntity
  8
1
  6
CONTINUOUS
370
50
 62
4
100
AcDbLine
 10
7.493708
 20
0.127666
 30
0.0
 11
7.471125
 21
0.129198
 31
0.0
  0
LINE
  5
6DF
330
1F
100
AcDbEntity
  8
1
  6
CONTINUOUS
370
50
 62
4
100
AcDbLine
 10
7.414155999999999
 20
0.132601
 30
0.0
 11
7.381116
 21
0.134825
 31
0.0
  0
LINE
  5
6E0
330
1F
100
AcDbEntity
  8
1
  6
CONTINUOUS
370
50
 62
4
100
AcDbLine
 10
9.682943
 20
0.104048
 30
0.0
 11
9.682584
 21
0.104072
 31
0.0
  0
LINE
  5
6E1
330
1F
100
AcDbEntity
  8
1
  6
CONTINUOUS
370
50
 62
4
100
AcDbLine
 10
9.682584
 20
0.104072
 30
0.0
 11
9.682224
 21
0.104096
 31
0.0
  0
LINE
  5
6E2
330
1F
100
AcDbEntity
  8
1
  6
CONTINUOUS
370
50
 62
4
100
AcDbLine
 10
8.825189
 20
-0.12651
 30
0.0
 11
8.754522999999999
 21
-0.121841
 31
0.0
  0
LINE
  5
6E3
330
1F
100
AcDbEntity
  8
1
  6
CONTINUOUS
370
50
 62
4
100
AcDbLine
 10
9.010591999999999
 20
0.139068
 30
0.0
 11
8.982690999999999
 21
0.140883
 31
0.0
  0
LINE
  5
6E4
330
1F
100
AcDbEntity
  8
1
  6
CONTINUOUS
370
50
 62
4
100
AcDbLine
 10
7.787456
 20
0.126444
 30
0.0
 11
7.749147
 21
0.12893
 31
0.0
  0
LINE
  5
6E5
330
1F
100
AcDbEntity
  8
1
  6
CONTINUOUS
370
50
 62
4
100
AcDbLine
 10
9.684384
 20
0.103956
 30
0.0
 11
9.684025
 21
0.103979
 31
0.0
  0
LINE
  5
6E6
330
1F
100
AcDbEntity
  8
1
  6
CONTINUOUS
370
50
 62
4
100
AcDbLine
 10
9.683664
 20
0.104002
 30
0.0
 11
9.683304
 21
0.104025
 31
0.0
  0
LINE
  5
6E7
330
1F
100
AcDbEntity
  8
1
  6
CONTINUOUS
370
50
 62
4
100
AcDbLine
 10
7.033633999999999
 20
0.249933
 30
0.0
 11
7.033398999999999
 21
0.249948
 31
0.0
  0
LINE
  5
6E8
330
1F
100
AcDbEntity
  8
1
  6
CONTINUOUS
370
50
 62
4
100
AcDbLine
 10
9.684025
 20
0.103979
 30
0.0
 11
9.683664
 21
0.104002
 31
0.0
  0
LINE
  5
6E9
330
1F
100
AcDbEntity
  8
1
  6
CONTINUOUS
370
50
 62
4
100
AcDbLine
 10
9.683304
 20
0.104025
 30
0.0
 11
9.682943
 21
0.104048
 31
0.0
  0
LINE
  5
6EA
330
1F
100
AcDbEntity
  8
1
  6
CONTINUOUS
370
50
 62
4
100
AcDbLine
 10
7.424388
 20
0.13195
 30
0.0
 11
7.414155999999999
 21
0.132601
 31
0.0
  0
LINE
  5
6EB
330
1F
100
AcDbEntity
  8
1
  6
CONTINUOUS
370
50
 62
4
100
AcDbLine
 10
9.038146
 20
0.137353
 30
0.0
 11
9.010591999999999
 21
0.139068
 31
0.0
  0
LINE
  5
6EC
330
1F
100
AcDbEntity
  8
1
  6
CONTINUOUS
370
50
 62
4
100
AcDbLine
 10
8.152752999999999
 20
0.24452
 30
0.0
 11
8.078987999999999
 21
0.249089
 31
0.0
  0
LINE
  5
6ED
330
1F
100
AcDbEntity
  8
1
  6
CONTINUOUS
370
50
 62
4
100
AcDbLine
 10
8.244964
 20
0.246669
 30
0.0
 11
8.213885
 21
0.248588
 31
0.0
  0
LINE
  5
6EE
330
1F
100
AcDbEntity
  8
1
  6
CONTINUOUS
370
50
 62
4
100
AcDbLine
 10
7.448039
 20
0.130526
 30
0.0
 11
7.424388
 21
0.13195
 31
0.0
  0
LINE
  5
6EF
330
1F
100
AcDbEntity
  8
1
  6
CONTINUOUS
370
50
 62
4
100
AcDbLine
 10
9.054084
 20
0.136395
 30
0.0
 11
9.038146
 21
0.137353
 31
0.0
  0
LINE
  5
6F0
330
1F
100
AcDbEntity
  8
1
  6
CONTINUOUS
370
50
 62
4
100
AcDbLine
 10
9.089941
 20
0.134334
 30
0.0
 11
9.054084
 21
0.136395
 31
0.0
  0
LINE
  5
6F1
330
1F
100
AcDbEntity
  8
1
  6
CONTINUOUS
370
50
 62
4
100
AcDbLine
 10
7.111838
 20
-0.007034
 30
0.0
 11
7.107474
 21
-0.006785
 31
0.0
  0
LINE
  5
6F2
330
1F
100
AcDbEntity
  8
1
  6
CONTINUOUS
370
50
 62
4
100
AcDbLine
 10
7.471125
 20
0.129256
 30
0.0
 11
7.448039
 21
0.130526
 31
0.0
  0
LINE
  5
6F3
330
1F
100
AcDbEntity
  8
1
  6
CONTINUOUS
370
50
 62
4
100
AcDbLine
 10
7.186075
 20
0.149721
 30
0.0
 11
7.177053
 21
0.150214
 31
0.0
  0
LINE
  5
6F4
330
1F
100
AcDbEntity
  8
1
  6
CONTINUOUS
370
50
 62
4
100
AcDbLine
 10
9.233478999999999
 20
0.127228
 30
0.0
 11
9.200759999999999
 21
0.128988
 31
0.0
  0
LINE
  5
6F5
330
1F
100
AcDbEntity
  8
1
  6
CONTINUOUS
370
50
 62
4
100
AcDbLine
 10
9.125501
 20
0.132428
 30
0.0
 11
9.089941
 21
0.134334
 31
0.0
  0
LINE
  5
6F6
330
1F
100
AcDbEntity
  8
1
  6
CONTINUOUS
370
50
 62
4
100
AcDbLine
 10
9.446935
 20
0.128397
 30
0.0
 11
9.412727
 21
0.130133
 31
0.0
  0
LINE
  5
6F7
330
1F
100
AcDbEntity
  8
1
  6
CONTINUOUS
370
50
 62
4
100
AcDbLine
 10
7.749147
 20
0.12893
 30
0.0
 11
7.710837
 21
0.130834
 31
0.0
  0
LINE
  5
6F8
330
1F
100
AcDbEntity
  8
1
  6
CONTINUOUS
370
50
 62
4
100
AcDbLine
 10
9.161546999999999
 20
0.130664
 30
0.0
 11
9.125501
 21
0.132428
 31
0.0
  0
LINE
  5
6F9
330
1F
100
AcDbEntity
  8
1
  6
CONTINUOUS
370
50
 62
4
100
AcDbLine
 10
9.196909
 20
0.129138
 30
0.0
 11
9.161546999999999
 21
0.130664
 31
0.0
  0
LINE
  5
6FA
330
1F
100
AcDbEntity
  8
1
  6
CONTINUOUS
370
50
 62
4
100
AcDbLine
 10
8.895814
 20
-0.129317
 30
0.0
 11
8.825189
 21
-0.12651
 31
0.0
  0
LINE
  5
6FB
330
1F
100
AcDbEntity
  8
1
  6
CONTINUOUS
370
50
 62
4
100
AcDbLine
 10
9.200759999999999
 20
0.128987
 30
0.0
 11
9.196909
 21
0.129138
 31
0.0
  0
LINE
  5
6FC
330
1F
100
AcDbEntity
  8
1
  6
CONTINUOUS
370
50
 62
4
100
AcDbLine
 10
8.124982
 20
0.204405
 30
0.0
 11
8.052301
 21
0.206991
 31
0.0
  0
LINE
  5
6FD
330
1F
100
AcDbEntity
  8
1
  6
CONTINUOUS
370
50
 62
4
100
AcDbLine
 10
8.213885
 20
0.248588
 30
0.0
 11
8.182566999999999
 21
0.249658
 31
0.0
  0
LINE
  5
6FE
330
1F
100
AcDbEntity
  8
1
  6
CONTINUOUS
370
50
 62
4
100
AcDbLine
 10
7.2329
 20
-0.127181
 30
0.0
 11
7.199999999999999
 21
-0.1261
 31
0.0
  0
LINE
  5
6FF
330
1F
100
AcDbEntity
  8
1
  6
CONTINUOUS
370
50
 62
4
100
AcDbLine
 10
7.710837
 20
0.130834
 30
0.0
 11
7.67253
 21
0.132008
 31
0.0
  0
LINE
  5
700
330
1F
100
AcDbEntity
  8
1
  6
CONTINUOUS
370
50
 62
4
100
AcDbLine
 10
8.003326
 20
-0.250209
 30
0.0
 11
7.926889999999999
 21
-0.247875
 31
0.0
  0
LINE
  5
701
330
1F
100
AcDbEntity
  8
1
  6
CONTINUOUS
370
50
 62
4
100
AcDbLine
 10
7.266813
 20
-0.128208
 30
0.0
 11
7.2329
 21
-0.127181
 31
0.0
  0
LINE
  5
702
330
1F
100
AcDbEntity
  8
1
  6
CONTINUOUS
370
50
 62
4
100
AcDbLine
 10
9.412727
 20
0.130133
 30
0.0
 11
9.378529
 21
0.131152
 31
0.0
  0
LINE
  5
703
330
1F
100
AcDbEntity
  8
1
  6
CONTINUOUS
370
50
 62
4
100
AcDbLine
 10
7.199999999999999
 20
-0.150105
 30
0.0
 11
7.186075
 21
-0.149721
 31
0.0
  0
LINE
  5
704
330
1F
100
AcDbEntity
  8
1
  6
CONTINUOUS
370
50
 62
4
100
AcDbLine
 10
7.300688999999999
 20
-0.129141
 30
0.0
 11
7.266813
 21
-0.128208
 31
0.0
  0
LINE
  5
705
330
1F
100
AcDbEntity
  8
1
  6
CONTINUOUS
370
50
 62
4
100
AcDbLine
 10
8.148764
 20
-0.249952
 30
0.0
 11
8.066443
 21
-0.247716
 31
0.0
  0
LINE
  5
706
330
1F
100
AcDbEntity
  8
1
  6
CONTINUOUS
370
50
 62
4
100
AcDbLine
 10
7.116207999999999
 20
-0.007143
 30
0.0
 11
7.111838
 21
-0.007034
 31
0.0
  0
LINE
  5
707
330
1F
100
AcDbEntity
  8
1
  6
CONTINUOUS
370
50
 62
4
100
AcDbLine
 10
7.333848
 20
-0.129944
 30
0.0
 11
7.300688999999999
 21
-0.129141
 31
0.0
  0
LINE
  5
708
330
1F
100
AcDbEntity
  8
1
  6
CONTINUOUS
370
50
 62
4
100
AcDbLine
 10
7.366705
 20
-0.130544
 30
0.0
 11
7.333848
 21
-0.129944
 31
0.0
  0
LINE
  5
709
330
1F
100
AcDbEntity
  8
1
  6
CONTINUOUS
370
50
 62
4
100
AcDbLine
 10
8.078987999999999
 20
0.249089
 30
0.0
 11
8.00326
 21
0.250223
 31
0.0
  0
LINE
  5
70A
330
1F
100
AcDbEntity
  8
1
  6
CONTINUOUS
370
50
 62
4
100
AcDbLine
 10
8.182566999999999
 20
0.249658
 30
0.0
 11
8.151024999999999
 21
0.249966
 31
0.0
  0
LINE
  5
70B
330
1F
100
AcDbEntity
  8
1
  6
CONTINUOUS
370
50
 62
4
100
AcDbLine
 10
8.934075
 20
-0.12967
 30
0.0
 11
8.895814
 21
-0.129317
 31
0.0
  0
LINE
  5
70C
330
1F
100
AcDbEntity
  8
1
  6
CONTINUOUS
370
50
 62
4
100
AcDbLine
 10
7.399375
 20
-0.130818
 30
0.0
 11
7.366705
 21
-0.130544
 31
0.0
  0
LINE
  5
70D
330
1F
100
AcDbEntity
  8
1
  6
CONTINUOUS
370
50
 62
4
100
AcDbLine
 10
7.67253
 20
0.132008
 30
0.0
 11
7.634228999999999
 21
0.132306
 31
0.0
  0
LINE
  5
70E
330
1F
100
AcDbEntity
  8
1
  6
CONTINUOUS
370
50
 62
4
100
AcDbLine
 10
8.971922
 20
-0.129915
 30
0.0
 11
8.934075
 21
-0.12967
 31
0.0
  0
LINE
  5
70F
330
1F
100
AcDbEntity
  8
1
  6
CONTINUOUS
370
50
 62
4
100
AcDbLine
 10
7.482145
 20
-0.131145
 30
0.0
 11
7.461143
 21
-0.131028
 31
0.0
  0
LINE
  5
710
330
1F
100
AcDbEntity
  8
1
  6
CONTINUOUS
370
50
 62
4
100
AcDbLine
 10
9.378529
 20
0.131152
 30
0.0
 11
9.344339999999999
 21
0.131342
 31
0.0
  0
LINE
  5
711
330
1F
100
AcDbEntity
  8
1
  6
CONTINUOUS
370
50
 62
4
100
AcDbLine
 10
9.008965
 20
-0.130093
 30
0.0
 11
8.971922
 21
-0.129915
 31
0.0
  0
LINE
  5
712
330
1F
100
AcDbEntity
  8
1
  6
CONTINUOUS
370
50
 62
4
100
AcDbLine
 10
7.461143
 20
-0.131028
 30
0.0
 11
7.437117
 21
-0.130923
 31
0.0
  0
LINE
  5
713
330
1F
100
AcDbEntity
  8
1
  6
CONTINUOUS
370
50
 62
4
100
AcDbLine
 10
9.045096
 20
-0.130248
 30
0.0
 11
9.008965
 21
-0.130093
 31
0.0
  0
LINE
  5
714
330
1F
100
AcDbEntity
  8
1
  6
CONTINUOUS
370
50
 62
4
100
AcDbLine
 10
7.437117
 20
-0.130923
 30
0.0
 11
7.419461999999999
 21
-0.130862
 31
0.0
  0
LINE
  5
715
330
1F
100
AcDbEntity
  8
1
  6
CONTINUOUS
370
50
 62
4
100
AcDbLine
 10
9.081408999999999
 20
-0.130373
 30
0.0
 11
9.045096
 21
-0.130248
 31
0.0
  0
LINE
  5
716
330
1F
100
AcDbEntity
  8
1
  6
CONTINUOUS
370
50
 62
4
100
AcDbLine
 10
7.419461999999999
 20
-0.130862
 30
0.0
 11
7.414854999999999
 21
-0.13085
 31
0.0
  0
LINE
  5
717
330
1F
100
AcDbEntity
  8
1
  6
CONTINUOUS
370
50
 62
4
100
AcDbLine
 10
9.196436
 20
-0.13036
 30
0.0
 11
9.189577
 21
-0.130343
 31
0.0
  0
LINE
  5
718
330
1F
100
AcDbEntity
  8
1
  6
CONTINUOUS
370
50
 62
4
100
AcDbLine
 10
7.414854999999999
 20
-0.13085
 30
0.0
 11
7.408988
 21
-0.130836
 31
0.0
  0
LINE
  5
719
330
1F
100
AcDbEntity
  8
1
  6
CONTINUOUS
370
50
 62
4
100
AcDbLine
 10
7.408988
 20
-0.130836
 30
0.0
 11
7.399375
 21
-0.130817
 31
0.0
  0
LINE
  5
71A
330
1F
100
AcDbEntity
  8
1
  6
CONTINUOUS
370
50
 62
4
100
AcDbLine
 10
9.189577
 20
-0.130343
 30
0.0
 11
9.180282
 21
-0.130327
 31
0.0
  0
LINE
  5
71B
330
1F
100
AcDbEntity
  8
1
  6
CONTINUOUS
370
50
 62
4
100
AcDbLine
 10
9.180282
 20
-0.130327
 30
0.0
 11
9.164085
 21
-0.130311
 31
0.0
  0
LINE
  5
71C
330
1F
100
AcDbEntity
  8
1
  6
CONTINUOUS
370
50
 62
4
100
AcDbLine
 10
8.052301
 20
0.206991
 30
0.0
 11
7.979616999999999
 21
0.207017
 31
0.0
  0
LINE
  5
71D
330
1F
100
AcDbEntity
  8
1
  6
CONTINUOUS
370
50
 62
4
100
AcDbLine
 10
9.164085
 20
-0.130311
 30
0.0
 11
9.148304
 21
-0.130309
 31
0.0
  0
LINE
  5
71E
330
1F
100
AcDbEntity
  8
1
  6
CONTINUOUS
370
50
 62
4
100
AcDbLine
 10
8.151577999999999
 20
-0.249938
 30
0.0
 11
8.016499999999999
 21
-0.249933
 31
0.0
  0
LINE
  5
71F
330
1F
100
AcDbEntity
  8
1
  6
CONTINUOUS
370
50
 62
4
100
AcDbLine
 10
9.699010999999999
 20
-0.25
 30
0.0
 11
9.7
 21
-0.25
 31
0.0
  0
LINE
  5
720
330
1F
100
AcDbEntity
  8
1
  6
CONTINUOUS
370
50
 62
4
100
AcDbLine
 10
6.5
 20
-0.24995
 30
0.0
 11
7.033367999999999
 21
-0.24995
 31
0.0
  0
LINE
  5
721
330
1F
100
AcDbEntity
  8
1
  6
CONTINUOUS
370
50
 62
4
100
AcDbLine
 10
6.5
 20
0.24995
 30
0.0
 11
7.033367999999999
 21
0.24995
 31
0.0
  0
LINE
  5
722
330
1F
100
AcDbEntity
  8
1
  6
CONTINUOUS
370
50
 62
4
100
AcDbLine
 10
8.016498
 20
0.249933
 30
0.0
 11
8.151586
 21
0.249938
 31
0.0
  0
LINE
  5
723
330
1F
100
AcDbEntity
  8
1
  6
CONTINUOUS
370
50
 62
4
100
AcDbLine
 10
9.081408999999999
 20
-0.130373
 30
0.0
 11
9.117723
 21
-0.130366
 31
0.0
  0
LINE
  5
724
330
1F
100
AcDbEntity
  8
1
  6
CONTINUOUS
370
50
 62
4
100
AcDbLine
 10
9.153758999999999
 20
0.130307
 30
0.0
 11
9.189714
 21
0.130344
 31
0.0
  0
LINE
  5
725
330
1F
100
AcDbEntity
  8
1
  6
CONTINUOUS
370
50
 62
4
100
AcDbLine
 10
9.133084
 20
-0.130325
 30
0.0
 11
9.148304
 21
-0.130309
 31
0.0
  0
LINE
  5
726
330
1F
100
AcDbEntity
  8
1
  6
CONTINUOUS
370
50
 62
4
100
AcDbLine
 10
9.117723
 20
-0.130355
 30
0.0
 11
9.133084
 21
-0.130325
 31
0.0
  0
LINE
  5
727
330
1F
100
AcDbEntity
  8
1
  6
CONTINUOUS
370
50
 62
4
100
AcDbLine
 10
7.399375
 20
0.130817
 30
0.0
 11
7.412719999999999
 21
0.130844
 31
0.0
  0
LINE
  5
728
330
1F
100
AcDbEntity
  8
1
  6
CONTINUOUS
370
50
 62
4
100
AcDbLine
 10
7.412719999999999
 20
0.130844
 30
0.0
 11
7.419836999999999
 21
0.130863
 31
0.0
  0
LINE
  5
729
330
1F
100
AcDbEntity
  8
1
  6
CONTINUOUS
370
50
 62
4
100
AcDbLine
 10
9.189714
 20
0.130344
 30
0.0
 11
9.209788
 21
0.130402
 31
0.0
  0
LINE
  5
72A
330
1F
100
AcDbEntity
  8
1
  6
CONTINUOUS
370
50
 62
4
100
AcDbLine
 10
7.419836999999999
 20
0.130863
 30
0.0
 11
7.452256999999999
 21
0.130984
 31
0.0
  0
LINE
  5
72B
330
1F
100
AcDbEntity
  8
1
  6
CONTINUOUS
370
50
 62
4
100
AcDbLine
 10
9.209788
 20
0.130402
 30
0.0
 11
9.243789
 21
0.130558
 31
0.0
  0
LINE
  5
72C
330
1F
100
AcDbEntity
  8
1
  6
CONTINUOUS
370
50
 62
4
100
AcDbLine
 10
7.625656999999999
 20
0.132245
 30
0.0
 11
7.634234999999999
 21
0.132286
 31
0.0
  0
LINE
  5
72D
330
1F
100
AcDbEntity
  8
1
  6
CONTINUOUS
370
50
 62
4
100
AcDbLine
 10
7.452256999999999
 20
0.130984
 30
0.0
 11
7.483644
 21
0.131154
 31
0.0
  0
LINE
  5
72E
330
1F
100
AcDbEntity
  8
1
  6
CONTINUOUS
370
50
 62
4
100
AcDbLine
 10
7.595143999999999
 20
0.132053
 30
0.0
 11
7.625656999999999
 21
0.132245
 31
0.0
  0
LINE
  5
72F
330
1F
100
AcDbEntity
  8
1
  6
CONTINUOUS
370
50
 62
4
100
AcDbLine
 10
9.243789
 20
0.130558
 30
0.0
 11
9.269191
 21
0.130719
 31
0.0
  0
LINE
  5
730
330
1F
100
AcDbEntity
  8
1
  6
CONTINUOUS
370
50
 62
4
100
AcDbLine
 10
7.483644
 20
0.131154
 30
0.0
 11
7.495937
 21
0.131234
 31
0.0
  0
LINE
  5
731
330
1F
100
AcDbEntity
  8
1
  6
CONTINUOUS
370
50
 62
4
100
AcDbLine
 10
7.116207999999999
 20
-0.007143
 30
0.0
 11
7.120578
 21
-0.007113
 31
0.0
  0
LINE
  5
732
330
1F
100
AcDbEntity
  8
1
  6
CONTINUOUS
370
50
 62
4
100
AcDbLine
 10
7.495937
 20
0.131234
 30
0.0
 11
7.525707
 21
0.131455
 31
0.0
  0
LINE
  5
733
330
1F
100
AcDbEntity
  8
1
  6
CONTINUOUS
370
50
 62
4
100
AcDbLine
 10
9.269191
 20
0.130719
 30
0.0
 11
9.295878
 21
0.130925
 31
0.0
  0
LINE
  5
734
330
1F
100
AcDbEntity
  8
1
  6
CONTINUOUS
370
50
 62
4
100
AcDbLine
 10
7.525707
 20
0.131455
 30
0.0
 11
7.554619
 21
0.131699
 31
0.0
  0
LINE
  5
735
330
1F
100
AcDbEntity
  8
1
  6
CONTINUOUS
370
50
 62
4
100
AcDbLine
 10
9.326532
 20
0.131194
 30
0.0
 11
9.344365999999999
 21
0.131345
 31
0.0
  0
LINE
  5
736
330
1F
100
AcDbEntity
  8
1
  6
CONTINUOUS
370
50
 62
4
100
AcDbLine
 10
7.565547
 20
0.131798
 30
0.0
 11
7.595143999999999
 21
0.132053
 31
0.0
  0
LINE
  5
737
330
1F
100
AcDbEntity
  8
1
  6
CONTINUOUS
370
50
 62
4
100
AcDbLine
 10
9.295878
 20
0.130925
 30
0.0
 11
9.326532
 21
0.131194
 31
0.0
  0
LINE
  5
738
330
1F
100
AcDbEntity
  8
1
  6
CONTINUOUS
370
50
 62
4
100
AcDbLine
 10
7.554619
 20
0.131699
 30
0.0
 11
7.565547
 21
0.131798
 31
0.0
  0
LINE
  5
739
330
1F
100
AcDbEntity
  8
1
  6
CONTINUOUS
370
50
 62
4
100
AcDbLine
 10
8.148764
 20
-0.249952
 30
0.0
 11
8.182741
 21
-0.249605
 31
0.0
  0
LINE
  5
73A
330
1F
100
AcDbEntity
  8
1
  6
CONTINUOUS
370
50
 62
4
100
AcDbLine
 10
7.186075
 20
0.149721
 30
0.0
 11
7.199999999999999
 21
0.150105
 31
0.0
  0
LINE
  5
73B
330
1F
100
AcDbEntity
  8
1
  6
CONTINUOUS
370
50
 62
4
100
AcDbLine
 10
9.670684
 20
0.103738
 30
0.0
 11
9.682224
 21
0.104096
 31
0.0
  0
LINE
  5
73C
330
1F
100
AcDbEntity
  8
1
  6
CONTINUOUS
370
50
 62
4
100
AcDbLine
 10
9.65911
 20
0.103374
 30
0.0
 11
9.670684
 21
0.103738
 31
0.0
  0
LINE
  5
73D
330
1F
100
AcDbEntity
  8
1
  6
CONTINUOUS
370
50
 62
4
100
AcDbLine
 10
9.647507
 20
0.103005
 30
0.0
 11
9.65911
 21
0.103374
 31
0.0
  0
LINE
  5
73E
330
1F
100
AcDbEntity
  8
1
  6
CONTINUOUS
370
50
 62
4
100
AcDbLine
 10
9.635879
 20
0.102629
 30
0.0
 11
9.647507
 21
0.103005
 31
0.0
  0
LINE
  5
73F
330
1F
100
AcDbEntity
  8
1
  6
CONTINUOUS
370
50
 62
4
100
AcDbLine
 10
7.920790999999999
 20
0.247547
 30
0.0
 11
8.00326
 21
0.250223
 31
0.0
  0
LINE
  5
740
330
1F
100
AcDbEntity
  8
1
  6
CONTINUOUS
370
50
 62
4
100
AcDbLine
 10
9.624229
 20
0.102247
 30
0.0
 11
9.635879
 21
0.102629
 31
0.0
  0
LINE
  5
741
330
1F
100
AcDbEntity
  8
1
  6
CONTINUOUS
370
50
 62
4
100
AcDbLine
 10
9.612566
 20
0.101857
 30
0.0
 11
9.624229
 21
0.102247
 31
0.0
  0
LINE
  5
742
330
1F
100
AcDbEntity
  8
1
  6
CONTINUOUS
370
50
 62
4
100
AcDbLine
 10
7.906927
 20
0.20458
 30
0.0
 11
7.979616999999999
 21
0.207017
 31
0.0
  0
LINE
  5
743
330
1F
100
AcDbEntity
  8
1
  6
CONTINUOUS
370
50
 62
4
100
AcDbLine
 10
9.600890999999999
 20
0.101461
 30
0.0
 11
9.612566
 21
0.101857
 31
0.0
  0
LINE
  5
744
330
1F
100
AcDbEntity
  8
1
  6
CONTINUOUS
370
50
 62
4
100
AcDbLine
 10
8.182741
 20
-0.249605
 30
0.0
 11
8.21701
 21
-0.248374
 31
0.0
  0
LINE
  5
745
330
1F
100
AcDbEntity
  8
1
  6
CONTINUOUS
370
50
 62
4
100
AcDbLine
 10
7.120578
 20
-0.007113
 30
0.0
 11
7.127661
 21
-0.006768
 31
0.0
  0
LINE
  5
746
330
1F
100
AcDbEntity
  8
1
  6
CONTINUOUS
370
50
 62
4
100
AcDbLine
 10
9.117039
 20
-0.132868
 30
0.0
 11
9.154005
 21
-0.131017
 31
0.0
  0
LINE
  5
747
330
1F
100
AcDbEntity
  8
1
  6
CONTINUOUS
370
50
 62
4
100
AcDbLine
 10
7.177053
 20
-0.150214
 30
0.0
 11
7.186075
 21
-0.149721
 31
0.0
  0
LINE
  5
748
330
1F
100
AcDbEntity
  8
1
  6
CONTINUOUS
370
50
 62
4
100
AcDbLine
 10
9.079358
 20
-0.134931
 30
0.0
 11
9.117039
 21
-0.132868
 31
0.0
  0
LINE
  5
749
330
1F
100
AcDbEntity
  8
1
  6
CONTINUOUS
370
50
 62
4
100
AcDbLine
 10
9.049356
 20
-0.136676
 30
0.0
 11
9.079358
 21
-0.134931
 31
0.0
  0
LINE
  5
74A
330
1F
100
AcDbEntity
  8
1
  6
CONTINUOUS
370
50
 62
4
100
AcDbLine
 10
9.030858
 20
-0.1378
 30
0.0
 11
9.049356
 21
-0.136676
 31
0.0
  0
LINE
  5
74B
330
1F
100
AcDbEntity
  8
1
  6
CONTINUOUS
370
50
 62
4
100
AcDbLine
 10
7.417386
 20
-0.132394
 30
0.0
 11
7.430863
 21
-0.131552
 31
0.0
  0
LINE
  5
74C
330
1F
100
AcDbEntity
  8
1
  6
CONTINUOUS
370
50
 62
4
100
AcDbLine
 10
9.000824999999999
 20
-0.139694
 30
0.0
 11
9.030858
 21
-0.1378
 31
0.0
  0
LINE
  5
74D
330
1F
100
AcDbEntity
  8
1
  6
CONTINUOUS
370
50
 62
4
100
AcDbLine
 10
7.033398999999999
 20
-0.249948
 30
0.0
 11
7.033633999999999
 21
-0.249933
 31
0.0
  0
LINE
  5
74E
330
1F
100
AcDbEntity
  8
1
  6
CONTINUOUS
370
50
 62
4
100
AcDbLine
 10
8.21701
 20
-0.248374
 30
0.0
 11
8.249825
 21
-0.246235
 31
0.0
  0
LINE
  5
74F
330
1F
100
AcDbEntity
  8
1
  6
CONTINUOUS
370
50
 62
4
100
AcDbLine
 10
7.391404
 20
-0.134119
 30
0.0
 11
7.417386
 21
-0.132394
 31
0.0
  0
LINE
  5
750
330
1F
100
AcDbEntity
  8
1
  6
CONTINUOUS
370
50
 62
4
100
AcDbLine
 10
8.969358
 20
-0.141784
 30
0.0
 11
9.000824999999999
 21
-0.139694
 31
0.0
  0
LINE
  5
751
330
1F
100
AcDbEntity
  8
1
  6
CONTINUOUS
370
50
 62
4
100
AcDbLine
 10
8.930923
 20
-0.144485
 30
0.0
 11
8.969358
 21
-0.141784
 31
0.0
  0
LINE
  5
752
330
1F
100
AcDbEntity
  8
1
  6
CONTINUOUS
370
50
 62
4
100
AcDbLine
 10
7.351105
 20
-0.13699
 30
0.0
 11
7.391404
 21
-0.134119
 31
0.0
  0
LINE
  5
753
330
1F
100
AcDbEntity
  8
1
  6
CONTINUOUS
370
50
 62
4
100
AcDbLine
 10
7.343623
 20
-0.137544
 30
0.0
 11
7.351105
 21
-0.13699
 31
0.0
  0
LINE
  5
754
330
1F
100
AcDbEntity
  8
1
  6
CONTINUOUS
370
50
 62
4
100
AcDbLine
 10
7.834233999999999
 20
0.199133
 30
0.0
 11
7.906927
 21
0.20458
 31
0.0
  0
LINE
  5
755
330
1F
100
AcDbEntity
  8
1
  6
CONTINUOUS
370
50
 62
4
100
AcDbLine
 10
8.897684
 20
-0.146983
 30
0.0
 11
8.930923
 21
-0.144485
 31
0.0
  0
LINE
  5
756
330
1F
100
AcDbEntity
  8
1
  6
CONTINUOUS
370
50
 62
4
100
AcDbLine
 10
7.313622
 20
-0.139849
 30
0.0
 11
7.343623
 21
-0.137544
 31
0.0
  0
LINE
  5
757
330
1F
100
AcDbEntity
  8
1
  6
CONTINUOUS
370
50
 62
4
100
AcDbLine
 10
7.273045
 20
-0.143124
 30
0.0
 11
7.313622
 21
-0.139849
 31
0.0
  0
LINE
  5
758
330
1F
100
AcDbEntity
  8
1
  6
CONTINUOUS
370
50
 62
4
100
AcDbLine
 10
8.862978
 20
-0.149786
 30
0.0
 11
8.897684
 21
-0.146983
 31
0.0
  0
LINE
  5
759
330
1F
100
AcDbEntity
  8
1
  6
CONTINUOUS
370
50
 62
4
100
AcDbLine
 10
9.532301
 20
0.199664
 30
0.0
 11
9.586432
 21
0.204127
 31
0.0
  0
LINE
  5
75A
330
1F
100
AcDbEntity
  8
1
  6
CONTINUOUS
370
50
 62
4
100
AcDbLine
 10
7.26396
 20
-0.143881
 30
0.0
 11
7.273045
 21
-0.143124
 31
0.0
  0
LINE
  5
75B
330
1F
100
AcDbEntity
  8
1
  6
CONTINUOUS
370
50
 62
4
100
AcDbLine
 10
7.840460999999999
 20
0.240788
 30
0.0
 11
7.920790999999999
 21
0.247547
 31
0.0
  0
LINE
  5
75C
330
1F
100
AcDbEntity
  8
1
  6
CONTINUOUS
370
50
 62
4
100
AcDbLine
 10
8.844515
 20
-0.151354
 30
0.0
 11
8.862978
 21
-0.149786
 31
0.0
  0
LINE
  5
75D
330
1F
100
AcDbEntity
  8
1
  6
CONTINUOUS
370
50
 62
4
100
AcDbLine
 10
7.233105999999999
 20
-0.146525
 30
0.0
 11
7.26396
 21
-0.143881
 31
0.0
  0
LINE
  5
75E
330
1F
100
AcDbEntity
  8
1
  6
CONTINUOUS
370
50
 62
4
100
AcDbLine
 10
7.199992
 20
-0.149484
 30
0.0
 11
7.233105999999999
 21
-0.146525
 31
0.0
  0
LINE
  5
75F
330
1F
100
AcDbEntity
  8
1
  6
CONTINUOUS
370
50
 62
4
100
AcDbLine
 10
8.824512
 20
-0.15315
 30
0.0
 11
8.844515
 21
-0.151354
 31
0.0
  0
LINE
  5
760
330
1F
100
AcDbEntity
  8
1
  6
CONTINUOUS
370
50
 62
4
100
AcDbLine
 10
8.781678
 20
-0.157279
 30
0.0
 11
8.824512
 21
-0.15315
 31
0.0
  0
LINE
  5
761
330
1F
100
AcDbEntity
  8
1
  6
CONTINUOUS
370
50
 62
4
100
AcDbLine
 10
8.249825
 20
-0.246235
 30
0.0
 11
8.280558
 21
-0.243252
 31
0.0
  0
LINE
  5
762
330
1F
100
AcDbEntity
  8
1
  6
CONTINUOUS
370
50
 62
4
100
AcDbLine
 10
7.127661
 20
-0.006768
 30
0.0
 11
7.134697
 21
-0.006061
 31
0.0
  0
LINE
  5
763
330
1F
100
AcDbEntity
  8
1
  6
CONTINUOUS
370
50
 62
4
100
AcDbLine
 10
8.761405
 20
-0.159386
 30
0.0
 11
8.781678
 21
-0.157279
 31
0.0
  0
LINE
  5
764
330
1F
100
AcDbEntity
  8
1
  6
CONTINUOUS
370
50
 62
4
100
AcDbLine
 10
8.739586
 20
-0.161807
 30
0.0
 11
8.761405
 21
-0.159386
 31
0.0
  0
LINE
  5
765
330
1F
100
AcDbEntity
  8
1
  6
CONTINUOUS
370
50
 62
4
100
AcDbLine
 10
8.707948
 20
-0.165563
 30
0.0
 11
8.739586
 21
-0.161807
 31
0.0
  0
LINE
  5
766
330
1F
100
AcDbEntity
  8
1
  6
CONTINUOUS
370
50
 62
4
100
AcDbLine
 10
9.500116
 20
0.236844
 30
0.0
 11
9.567489
 21
0.245001
 31
0.0
  0
LINE
  5
767
330
1F
100
AcDbEntity
  8
1
  6
CONTINUOUS
370
50
 62
4
100
AcDbLine
 10
7.761538
 20
0.190083
 30
0.0
 11
7.834233999999999
 21
0.199133
 31
0.0
  0
LINE
  5
768
330
1F
100
AcDbEntity
  8
1
  6
CONTINUOUS
370
50
 62
4
100
AcDbLine
 10
7.16535
 20
-0.151694
 30
0.0
 11
7.177053
 21
-0.150214
 31
0.0
  0
LINE
  5
769
330
1F
100
AcDbEntity
  8
1
  6
CONTINUOUS
370
50
 62
4
100
AcDbLine
 10
8.679485
 20
-0.169245
 30
0.0
 11
8.707948
 21
-0.165563
 31
0.0
  0
LINE
  5
76A
330
1F
100
AcDbEntity
  8
1
  6
CONTINUOUS
370
50
 62
4
100
AcDbLine
 10
8.280558
 20
-0.243252
 30
0.0
 11
8.309376
 21
-0.239479
 31
0.0
  0
LINE
  5
76B
330
1F
100
AcDbEntity
  8
1
  6
CONTINUOUS
370
50
 62
4
100
AcDbLine
 10
9.47817
 20
0.192575
 30
0.0
 11
9.532301
 21
0.199664
 31
0.0
  0
LINE
  5
76C
330
1F
100
AcDbEntity
  8
1
  6
CONTINUOUS
370
50
 62
4
100
AcDbLine
 10
7.76469
 20
0.229952
 30
0.0
 11
7.840460999999999
 21
0.240788
 31
0.0
  0
LINE
  5
76D
330
1F
100
AcDbEntity
  8
1
  6
CONTINUOUS
370
50
 62
4
100
AcDbLine
 10
8.639538
 20
-0.174958
 30
0.0
 11
8.679485
 21
-0.169245
 31
0.0
  0
LINE
  5
76E
330
1F
100
AcDbEntity
  8
1
  6
CONTINUOUS
370
50
 62
4
100
AcDbLine
 10
7.134697
 20
-0.006061
 30
0.0
 11
7.141572999999999
 21
-0.005009
 31
0.0
  0
LINE
  5
76F
330
1F
100
AcDbEntity
  8
1
  6
CONTINUOUS
370
50
 62
4
100
AcDbLine
 10
8.602433
 20
-0.180815
 30
0.0
 11
8.639538
 21
-0.174958
 31
0.0
  0
LINE
  5
770
330
1F
100
AcDbEntity
  8
1
  6
CONTINUOUS
370
50
 62
4
100
AcDbLine
 10
8.309376
 20
-0.239479
 30
0.0
 11
8.336444
 21
-0.234973
 31
0.0
  0
LINE
  5
771
330
1F
100
AcDbEntity
  8
1
  6
CONTINUOUS
370
50
 62
4
100
AcDbLine
 10
7.031864
 20
0.24968
 30
0.0
 11
7.033398999999999
 21
0.249948
 31
0.0
  0
LINE
  5
772
330
1F
100
AcDbEntity
  8
1
  6
CONTINUOUS
370
50
 62
4
100
AcDbLine
 10
8.564060999999999
 20
-0.187542
 30
0.0
 11
8.602433
 21
-0.180815
 31
0.0
  0
LINE
  5
773
330
1F
100
AcDbEntity
  8
1
  6
CONTINUOUS
370
50
 62
4
100
AcDbLine
 10
9.424042
 20
0.182611
 30
0.0
 11
9.47817
 21
0.192575
 31
0.0
  0
LINE
  5
774
330
1F
100
AcDbEntity
  8
1
  6
CONTINUOUS
370
50
 62
4
100
AcDbLine
 10
7.688841
 20
0.176568
 30
0.0
 11
7.761538
 21
0.190083
 31
0.0
  0
LINE
  5
775
330
1F
100
AcDbEntity
  8
1
  6
CONTINUOUS
370
50
 62
4
100
AcDbLine
 10
8.336445
 20
-0.234974
 30
0.0
 11
8.341211999999999
 21
-0.234087
 31
0.0
  0
LINE
  5
776
330
1F
100
AcDbEntity
  8
1
  6
CONTINUOUS
370
50
 62
4
100
AcDbLine
 10
8.530877
 20
-0.193884
 30
0.0
 11
8.564060999999999
 21
-0.187542
 31
0.0
  0
LINE
  5
777
330
1F
100
AcDbEntity
  8
1
  6
CONTINUOUS
370
50
 62
4
100
AcDbLine
 10
7.033633999999999
 20
-0.249933
 30
0.0
 11
7.033841
 21
-0.249893
 31
0.0
  0
LINE
  5
778
330
1F
100
AcDbEntity
  8
1
  6
CONTINUOUS
370
50
 62
4
100
AcDbLine
 10
8.341211999999999
 20
-0.234087
 30
0.0
 11
8.372793999999999
 21
-0.227967
 31
0.0
  0
LINE
  5
779
330
1F
100
AcDbEntity
  8
1
  6
CONTINUOUS
370
50
 62
4
100
AcDbLine
 10
6.882969
 20
0.181547
 30
0.0
 11
6.884849999999999
 21
0.181917
 31
0.0
  0
LINE
  5
77A
330
1F
100
AcDbEntity
  8
1
  6
CONTINUOUS
370
50
 62
4
100
AcDbLine
 10
9.437719999999999
 20
0.224515
 30
0.0
 11
9.500116
 21
0.236844
 31
0.0
  0
LINE
  5
77B
330
1F
100
AcDbEntity
  8
1
  6
CONTINUOUS
370
50
 62
4
100
AcDbLine
 10
8.372793999999999
 20
-0.227967
 30
0.0
 11
8.401152999999999
 21
-0.22212
 31
0.0
  0
LINE
  5
77C
330
1F
100
AcDbEntity
  8
1
  6
CONTINUOUS
370
50
 62
4
100
AcDbLine
 10
7.141572999999999
 20
-0.005009
 30
0.0
 11
7.148231999999999
 21
-0.003635
 31
0.0
  0
LINE
  5
77D
330
1F
100
AcDbEntity
  8
1
  6
CONTINUOUS
370
50
 62
4
100
AcDbLine
 10
7.153500999999999
 20
-0.154147
 30
0.0
 11
7.16535
 21
-0.151694
 31
0.0
  0
LINE
  5
77E
330
1F
100
AcDbEntity
  8
1
  6
CONTINUOUS
370
50
 62
4
100
AcDbLine
 10
8.489823
 20
-0.202416
 30
0.0
 11
8.530877
 21
-0.193884
 31
0.0
  0
LINE
  5
77F
330
1F
100
AcDbEntity
  8
1
  6
CONTINUOUS
370
50
 62
4
100
AcDbLine
 10
7.698225
 20
0.215744
 30
0.0
 11
7.76469
 21
0.229952
 31
0.0
  0
LINE
  5
780
330
1F
100
AcDbEntity
  8
1
  6
CONTINUOUS
370
50
 62
4
100
AcDbLine
 10
8.401152999999999
 20
-0.22212
 30
0.0
 11
8.414145
 21
-0.219331
 31
0.0
  0
LINE
  5
781
330
1F
100
AcDbEntity
  8
1
  6
CONTINUOUS
370
50
 62
4
100
AcDbLine
 10
8.464884
 20
-0.207915
 30
0.0
 11
8.489823
 21
-0.202416
 31
0.0
  0
LINE
  5
782
330
1F
100
AcDbEntity
  8
1
  6
CONTINUOUS
370
50
 62
4
100
AcDbLine
 10
8.414145
 20
-0.219331
 30
0.0
 11
8.440405
 21
-0.213498
 31
0.0
  0
LINE
  5
783
330
1F
100
AcDbEntity
  8
1
  6
CONTINUOUS
370
50
 62
4
100
AcDbLine
 10
8.440405
 20
-0.213498
 30
0.0
 11
8.464884
 21
-0.207915
 31
0.0
  0
LINE
  5
784
330
1F
100
AcDbEntity
  8
1
  6
CONTINUOUS
370
50
 62
4
100
AcDbLine
 10
9.369916
 20
0.169364
 30
0.0
 11
9.424042
 21
0.182611
 31
0.0
  0
LINE
  5
785
330
1F
100
AcDbEntity
  8
1
  6
CONTINUOUS
370
50
 62
4
100
AcDbLine
 10
6.881135
 20
0.181093
 30
0.0
 11
6.882969
 21
0.181547
 31
0.0
  0
LINE
  5
786
330
1F
100
AcDbEntity
  8
1
  6
CONTINUOUS
370
50
 62
4
100
AcDbLine
 10
7.178493
 20
-0.017946
 30
0.0
 11
7.199999999999999
 21
-0.012374
 31
0.0
  0
LINE
  5
787
330
1F
100
AcDbEntity
  8
1
  6
CONTINUOUS
370
50
 62
4
100
AcDbLine
 10
9.600518
 20
0.114295
 30
0.0
 11
9.602656
 21
0.114853
 31
0.0
  0
LINE
  5
788
330
1F
100
AcDbEntity
  8
1
  6
CONTINUOUS
370
50
 62
4
100
AcDbLine
 10
7.148231999999999
 20
-0.003635
 30
0.0
 11
7.154653
 21
-0.001959
 31
0.0
  0
LINE
  5
789
330
1F
100
AcDbEntity
  8
1
  6
CONTINUOUS
370
50
 62
4
100
AcDbLine
 10
7.616147
 20
0.157417
 30
0.0
 11
7.688841
 21
0.176568
 31
0.0
  0
LINE
  5
78A
330
1F
100
AcDbEntity
  8
1
  6
CONTINUOUS
370
50
 62
4
100
AcDbLine
 10
0.0
 20
-1.99995
 30
0.0
 11
6.5
 21
-0.24995
 31
0.0
  0
LINE
  5
78B
330
1F
100
AcDbEntity
  8
1
  6
CONTINUOUS
370
50
 62
4
100
AcDbLine
 10
9.379202
 20
0.20816
 30
0.0
 11
9.437719999999999
 21
0.224515
 31
0.0
  0
LINE
  5
78C
330
1F
100
AcDbEntity
  8
1
  6
CONTINUOUS
370
50
 62
4
100
AcDbLine
 10
6.884849999999999
 20
0.181917
 30
0.0
 11
6.895968
 21
0.185088
 31
0.0
  0
LINE
  5
78D
330
1F
100
AcDbEntity
  8
1
  6
CONTINUOUS
370
50
 62
4
100
AcDbLine
 10
7.141741
 20
-0.157535
 30
0.0
 11
7.153500999999999
 21
-0.154147
 31
0.0
  0
LINE
  5
78E
330
1F
100
AcDbEntity
  8
1
  6
CONTINUOUS
370
50
 62
4
100
AcDbLine
 10
7.640121
 20
0.198624
 30
0.0
 11
7.698225
 21
0.215744
 31
0.0
  0
LINE
  5
78F
330
1F
100
AcDbEntity
  8
1
  6
CONTINUOUS
370
50
 62
4
100
AcDbLine
 10
6.879351
 20
0.180552
 30
0.0
 11
6.881135
 21
0.181093
 31
0.0
  0
LINE
  5
790
330
1F
100
AcDbEntity
  8
1
  6
CONTINUOUS
370
50
 62
4
100
AcDbLine
 10
9.315795
 20
0.152476
 30
0.0
 11
9.369916
 21
0.169364
 31
0.0
  0
LINE
  5
791
330
1F
100
AcDbEntity
  8
1
  6
CONTINUOUS
370
50
 62
4
100
AcDbLine
 10
7.157712999999999
 20
-0.024447
 30
0.0
 11
7.178493
 21
-0.017946
 31
0.0
  0
LINE
  5
792
330
1F
100
AcDbEntity
  8
1
  6
CONTINUOUS
370
50
 62
4
100
AcDbLine
 10
7.154653
 20
-0.001959
 30
0.0
 11
7.160811
 21
0.0
 31
0.0
  0
LINE
  5
793
330
1F
100
AcDbEntity
  8
1
  6
CONTINUOUS
370
50
 62
4
100
AcDbLine
 10
6.895968
 20
0.185088
 30
0.0
 11
6.906784999999999
 21
0.188595
 31
0.0
  0
LINE
  5
794
330
1F
100
AcDbEntity
  8
1
  6
CONTINUOUS
370
50
 62
4
100
AcDbLine
 10
9.261676999999999
 20
0.133879
 30
0.0
 11
9.315795
 21
0.152476
 31
0.0
  0
LINE
  5
795
330
1F
100
AcDbEntity
  8
1
  6
CONTINUOUS
370
50
 62
4
100
AcDbLine
 10
7.543458999999999
 20
0.132039
 30
0.0
 11
7.616147
 21
0.157417
 31
0.0
  0
LINE
  5
796
330
1F
100
AcDbEntity
  8
1
  6
CONTINUOUS
370
50
 62
4
100
AcDbLine
 10
7.033841
 20
-0.249893
 30
0.0
 11
7.034019
 21
-0.249829
 31
0.0
  0
LINE
  5
797
330
1F
100
AcDbEntity
  8
1
  6
CONTINUOUS
370
50
 62
4
100
AcDbLine
 10
6.906784999999999
 20
0.188595
 30
0.0
 11
6.917286
 21
0.192382
 31
0.0
  0
LINE
  5
798
330
1F
100
AcDbEntity
  8
1
  6
CONTINUOUS
370
50
 62
4
100
AcDbLine
 10
9.321844
 20
0.187393
 30
0.0
 11
9.379202
 21
0.20816
 31
0.0
  0
LINE
  5
799
330
1F
100
AcDbEntity
  8
1
  6
CONTINUOUS
370
50
 62
4
100
AcDbLine
 10
6.877624
 20
0.179925
 30
0.0
 11
6.879351
 21
0.180552
 31
0.0
  0
LINE
  5
79A
330
1F
100
AcDbEntity
  8
1
  6
CONTINUOUS
370
50
 62
4
100
AcDbLine
 10
7.160811
 20
0.0
 30
0.0
 11
7.164542
 21
0.001368
 31
0.0
  0
LINE
  5
79B
330
1F
100
AcDbEntity
  8
1
  6
CONTINUOUS
370
50
 62
4
100
AcDbLine
 10
7.137659999999999
 20
-0.031813
 30
0.0
 11
7.157712999999999
 21
-0.024447
 31
0.0
  0
LINE
  5
79C
330
1F
100
AcDbEntity
  8
1
  6
CONTINUOUS
370
50
 62
4
100
AcDbLine
 10
7.029635
 20
0.248854
 30
0.0
 11
7.031864
 21
0.24968
 31
0.0
  0
LINE
  5
79D
330
1F
100
AcDbEntity
  8
1
  6
CONTINUOUS
370
50
 62
4
100
AcDbLine
 10
7.130023
 20
-0.161878
 30
0.0
 11
7.141741
 21
-0.157535
 31
0.0
  0
LINE
  5
79E
330
1F
100
AcDbEntity
  8
1
  6
CONTINUOUS
370
50
 62
4
100
AcDbLine
 10
7.586822
 20
0.178716
 30
0.0
 11
7.640121
 21
0.198624
 31
0.0
  0
LINE
  5
79F
330
1F
100
AcDbEntity
  8
1
  6
CONTINUOUS
370
50
 62
4
100
AcDbLine
 10
6.917286
 20
0.192382
 30
0.0
 11
6.927464
 21
0.196396
 31
0.0
  0
LINE
  5
7A0
330
1F
100
AcDbEntity
  8
1
  6
CONTINUOUS
370
50
 62
4
100
AcDbLine
 10
7.164542
 20
0.001368
 30
0.0
 11
7.168152999999999
 21
0.002836
 31
0.0
  0
LINE
  5
7A1
330
1F
100
AcDbEntity
  8
1
  6
CONTINUOUS
370
50
 62
4
100
AcDbLine
 10
9.259477
 20
0.16151
 30
0.0
 11
9.321844
 21
0.187393
 31
0.0
  0
LINE
  5
7A2
330
1F
100
AcDbEntity
  8
1
  6
CONTINUOUS
370
50
 62
4
100
AcDbLine
 10
9.18494
 20
0.12972
 30
0.0
 11
9.18674
 21
0.130479
 31
0.0
  0
LINE
  5
7A3
330
1F
100
AcDbEntity
  8
1
  6
CONTINUOUS
370
50
 62
4
100
AcDbLine
 10
9.18674
 20
0.130479
 30
0.0
 11
9.188531
 21
0.131235
 31
0.0
  0
LINE
  5
7A4
330
1F
100
AcDbEntity
  8
1
  6
CONTINUOUS
370
50
 62
4
100
AcDbLine
 10
9.188531
 20
0.131235
 30
0.0
 11
9.190313999999999
 21
0.131988
 31
0.0
  0
LINE
  5
7A5
330
1F
100
AcDbEntity
  8
1
  6
CONTINUOUS
370
50
 62
4
100
AcDbLine
 10
7.118331
 20
-0.03998
 30
0.0
 11
7.137659999999999
 21
-0.031813
 31
0.0
  0
LINE
  5
7A6
330
1F
100
AcDbEntity
  8
1
  6
CONTINUOUS
370
50
 62
4
100
AcDbLine
 10
9.192089
 20
0.132739
 30
0.0
 11
9.193856
 21
0.133486
 31
0.0
  0
LINE
  5
7A7
330
1F
100
AcDbEntity
  8
1
  6
CONTINUOUS
370
50
 62
4
100
AcDbLine
 10
9.190313999999999
 20
0.131988
 30
0.0
 11
9.192089
 21
0.132739
 31
0.0
  0
LINE
  5
7A8
330
1F
100
AcDbEntity
  8
1
  6
CONTINUOUS
370
50
 62
4
100
AcDbLine
 10
9.193856
 20
0.133486
 30
0.0
 11
9.195615
 21
0.134231
 31
0.0
  0
LINE
  5
7A9
330
1F
100
AcDbEntity
  8
1
  6
CONTINUOUS
370
50
 62
4
100
AcDbLine
 10
6.927464
 20
0.196396
 30
0.0
 11
6.937307
 21
0.200583
 31
0.0
  0
LINE
  5
7AA
330
1F
100
AcDbEntity
  8
1
  6
CONTINUOUS
370
50
 62
4
100
AcDbLine
 10
9.186211
 20
0.130255
 30
0.0
 11
9.259477
 21
0.16151
 31
0.0
  0
LINE
  5
7AB
330
1F
100
AcDbEntity
  8
1
  6
CONTINUOUS
370
50
 62
4
100
AcDbLine
 10
6.875961999999999
 20
0.17921
 30
0.0
 11
6.877624
 21
0.179925
 31
0.0
  0
LINE
  5
7AC
330
1F
100
AcDbEntity
  8
1
  6
CONTINUOUS
370
50
 62
4
100
AcDbLine
 10
7.534771999999999
 20
0.156144
 30
0.0
 11
7.586822
 21
0.178716
 31
0.0
  0
LINE
  5
7AD
330
1F
100
AcDbEntity
  8
1
  6
CONTINUOUS
370
50
 62
4
100
AcDbLine
 10
7.168152999999999
 20
0.002836
 30
0.0
 11
7.171631
 21
0.004395
 31
0.0
  0
LINE
  5
7AE
330
1F
100
AcDbEntity
  8
1
  6
CONTINUOUS
370
50
 62
4
100
AcDbLine
 10
6.937307
 20
0.200583
 30
0.0
 11
6.946804999999999
 21
0.204887
 31
0.0
  0
LINE
  5
7AF
330
1F
100
AcDbEntity
  8
1
  6
CONTINUOUS
370
50
 62
4
100
AcDbLine
 10
7.118554
 20
-0.167104
 30
0.0
 11
7.130023
 21
-0.161878
 31
0.0
  0
LINE
  5
7B0
330
1F
100
AcDbEntity
  8
1
  6
CONTINUOUS
370
50
 62
4
100
AcDbLine
 10
7.480417
 20
0.131034
 30
0.0
 11
7.534771999999999
 21
0.156144
 31
0.0
  0
LINE
  5
7B1
330
1F
100
AcDbEntity
  8
1
  6
CONTINUOUS
370
50
 62
4
100
AcDbLine
 10
7.026726999999999
 20
0.247501
 30
0.0
 11
7.029635
 21
0.248854
 31
0.0
  0
LINE
  5
7B2
330
1F
100
AcDbEntity
  8
1
  6
CONTINUOUS
370
50
 62
4
100
AcDbLine
 10
6.946804999999999
 20
0.204887
 30
0.0
 11
6.955947999999999
 21
0.209257
 31
0.0
  0
LINE
  5
7B3
330
1F
100
AcDbEntity
  8
1
  6
CONTINUOUS
370
50
 62
4
100
AcDbLine
 10
7.099726
 20
-0.048883
 30
0.0
 11
7.118331
 21
-0.03998
 31
0.0
  0
LINE
  5
7B4
330
1F
100
AcDbEntity
  8
1
  6
CONTINUOUS
370
50
 62
4
100
AcDbLine
 10
7.171631
 20
0.004395
 30
0.0
 11
7.174957999999999
 21
0.006034
 31
0.0
  0
LINE
  5
7B5
330
1F
100
AcDbEntity
  8
1
  6
CONTINUOUS
370
50
 62
4
100
AcDbLine
 10
6.955947999999999
 20
0.209257
 30
0.0
 11
6.964747999999999
 21
0.213646
 31
0.0
  0
LINE
  5
7B6
330
1F
100
AcDbEntity
  8
1
  6
CONTINUOUS
370
50
 62
4
100
AcDbLine
 10
6.874381
 20
0.178411
 30
0.0
 11
6.875961999999999
 21
0.17921
 31
0.0
  0
LINE
  5
7B7
330
1F
100
AcDbEntity
  8
1
  6
CONTINUOUS
370
50
 62
4
100
AcDbLine
 10
7.023159
 20
0.245661
 30
0.0
 11
7.026726999999999
 21
0.247501
 31
0.0
  0
LINE
  5
7B8
330
1F
100
AcDbEntity
  8
1
  6
CONTINUOUS
370
50
 62
4
100
AcDbLine
 10
6.964747999999999
 20
0.213646
 30
0.0
 11
6.973178
 21
0.218006
 31
0.0
  0
LINE
  5
7B9
330
1F
100
AcDbEntity
  8
1
  6
CONTINUOUS
370
50
 62
4
100
AcDbLine
 10
6.973178
 20
0.218006
 30
0.0
 11
6.981204
 21
0.222285
 31
0.0
  0
LINE
  5
7BA
330
1F
100
AcDbEntity
  8
1
  6
CONTINUOUS
370
50
 62
4
100
AcDbLine
 10
7.081843
 20
-0.05846
 30
0.0
 11
7.099726
 21
-0.048883
 31
0.0
  0
LINE
  5
7BB
330
1F
100
AcDbEntity
  8
1
  6
CONTINUOUS
370
50
 62
4
100
AcDbLine
 10
7.174957999999999
 20
0.006034
 30
0.0
 11
7.178128999999999
 21
0.007746
 31
0.0
  0
LINE
  5
7BC
330
1F
100
AcDbEntity
  8
1
  6
CONTINUOUS
370
50
 62
4
100
AcDbLine
 10
7.018942
 20
0.243368
 30
0.0
 11
7.023159
 21
0.245661
 31
0.0
  0
LINE
  5
7BD
330
1F
100
AcDbEntity
  8
1
  6
CONTINUOUS
370
50
 62
4
100
AcDbLine
 10
7.107314
 20
-0.173223
 30
0.0
 11
7.118554
 21
-0.167104
 31
0.0
  0
LINE
  5
7BE
330
1F
100
AcDbEntity
  8
1
  6
CONTINUOUS
370
50
 62
4
100
AcDbLine
 10
6.981204
 20
0.222285
 30
0.0
 11
6.988794
 21
0.226431
 31
0.0
  0
LINE
  5
7BF
330
1F
100
AcDbEntity
  8
1
  6
CONTINUOUS
370
50
 62
4
100
AcDbLine
 10
9.602656
 20
0.114853
 30
0.0
 11
9.604512
 21
0.115876
 31
0.0
  0
LINE
  5
7C0
330
1F
100
AcDbEntity
  8
1
  6
CONTINUOUS
370
50
 62
4
100
AcDbLine
 10
6.988794
 20
0.226431
 30
0.0
 11
6.995914
 21
0.230394
 31
0.0
  0
LINE
  5
7C1
330
1F
100
AcDbEntity
  8
1
  6
CONTINUOUS
370
50
 62
4
100
AcDbLine
 10
7.014088999999999
 20
0.240657
 30
0.0
 11
7.018942
 21
0.243368
 31
0.0
  0
LINE
  5
7C2
330
1F
100
AcDbEntity
  8
1
  6
CONTINUOUS
370
50
 62
4
100
AcDbLine
 10
6.995914
 20
0.230394
 30
0.0
 11
7.002530999999999
 21
0.234121
 31
0.0
  0
LINE
  5
7C3
330
1F
100
AcDbEntity
  8
1
  6
CONTINUOUS
370
50
 62
4
100
AcDbLine
 10
7.00861
 20
0.237561
 30
0.0
 11
7.014088999999999
 21
0.240657
 31
0.0
  0
LINE
  5
7C4
330
1F
100
AcDbEntity
  8
1
  6
CONTINUOUS
370
50
 62
4
100
AcDbLine
 10
7.002530999999999
 20
0.234121
 30
0.0
 11
7.00861
 21
0.237561
 31
0.0
  0
LINE
  5
7C5
330
1F
100
AcDbEntity
  8
1
  6
CONTINUOUS
370
50
 62
4
100
AcDbLine
 10
6.872891
 20
0.177534
 30
0.0
 11
6.874381
 21
0.178411
 31
0.0
  0
LINE
  5
7C6
330
1F
100
AcDbEntity
  8
1
  6
CONTINUOUS
370
50
 62
4
100
AcDbLine
 10
7.034019
 20
-0.249829
 30
0.0
 11
7.03417
 21
-0.24974
 31
0.0
  0
LINE
  5
7C7
330
1F
100
AcDbEntity
  8
1
  6
CONTINUOUS
370
50
 62
4
100
AcDbLine
 10
7.178128999999999
 20
0.007746
 30
0.0
 11
7.181139
 21
0.009524
 31
0.0
  0
LINE
  5
7C8
330
1F
100
AcDbEntity
  8
1
  6
CONTINUOUS
370
50
 62
4
100
AcDbLine
 10
7.06468
 20
-0.068645
 30
0.0
 11
7.081843
 21
-0.05846
 31
0.0
  0
LINE
  5
7C9
330
1F
100
AcDbEntity
  8
1
  6
CONTINUOUS
370
50
 62
4
100
AcDbLine
 10
9.684225999999999
 20
0.103854
 30
0.0
 11
9.684289999999999
 21
0.103894
 31
0.0
  0
LINE
  5
7CA
330
1F
100
AcDbEntity
  8
1
  6
CONTINUOUS
370
50
 62
4
100
AcDbLine
 10
9.684320999999999
 20
0.103915
 30
0.0
 11
9.684353
 21
0.103935
 31
0.0
  0
LINE
  5
7CB
330
1F
100
AcDbEntity
  8
1
  6
CONTINUOUS
370
50
 62
4
100
AcDbLine
 10
7.097674
 20
-0.179324
 30
0.0
 11
7.107314
 21
-0.173223
 31
0.0
  0
LINE
  5
7CC
330
1F
100
AcDbEntity
  8
1
  6
CONTINUOUS
370
50
 62
4
100
AcDbLine
 10
7.058001
 20
-0.07292
 30
0.0
 11
7.06468
 21
-0.068645
 31
0.0
  0
LINE
  5
7CD
330
1F
100
AcDbEntity
  8
1
  6
CONTINUOUS
370
50
 62
4
100
AcDbLine
 10
7.181139
 20
0.009524
 30
0.0
 11
7.183980999999999
 21
0.011362
 31
0.0
  0
LINE
  5
7CE
330
1F
100
AcDbEntity
  8
1
  6
CONTINUOUS
370
50
 62
4
100
AcDbLine
 10
7.051431999999999
 20
-0.077356
 30
0.0
 11
7.058001
 21
-0.07292
 31
0.0
  0
LINE
  5
7CF
330
1F
100
AcDbEntity
  8
1
  6
CONTINUOUS
370
50
 62
4
100
AcDbLine
 10
9.684194999999999
 20
0.103833
 30
0.0
 11
9.684225999999999
 21
0.103854
 31
0.0
  0
LINE
  5
7D0
330
1F
100
AcDbEntity
  8
1
  6
CONTINUOUS
370
50
 62
4
100
AcDbLine
 10
9.684289999999999
 20
0.103894
 30
0.0
 11
9.684320999999999
 21
0.103915
 31
0.0
  0
LINE
  5
7D1
330
1F
100
AcDbEntity
  8
1
  6
CONTINUOUS
370
50
 62
4
100
AcDbLine
 10
9.684353
 20
0.103935
 30
0.0
 11
9.684384
 21
0.103956
 31
0.0
  0
LINE
  5
7D2
330
1F
100
AcDbEntity
  8
1
  6
CONTINUOUS
370
50
 62
4
100
AcDbLine
 10
6.871497
 20
0.176578
 30
0.0
 11
6.872891
 21
0.177534
 31
0.0
  0
LINE
  5
7D3
330
1F
100
AcDbEntity
  8
1
  6
CONTINUOUS
370
50
 62
4
100
AcDbLine
 10
7.183980999999999
 20
0.011362
 30
0.0
 11
7.186650999999999
 21
0.013253
 31
0.0
  0
LINE
  5
7D4
330
1F
100
AcDbEntity
  8
1
  6
CONTINUOUS
370
50
 62
4
100
AcDbLine
 10
7.044989999999999
 20
-0.081946
 30
0.0
 11
7.051431999999999
 21
-0.077356
 31
0.0
  0
LINE
  5
7D5
330
1F
100
AcDbEntity
  8
1
  6
CONTINUOUS
370
50
 62
4
100
AcDbLine
 10
7.088346
 20
-0.186051
 30
0.0
 11
7.097674
 21
-0.179324
 31
0.0
  0
LINE
  5
7D6
330
1F
100
AcDbEntity
  8
1
  6
CONTINUOUS
370
50
 62
4
100
AcDbLine
 10
7.038692999999999
 20
-0.08668
 30
0.0
 11
7.044989999999999
 21
-0.081946
 31
0.0
  0
LINE
  5
7D7
330
1F
100
AcDbEntity
  8
1
  6
CONTINUOUS
370
50
 62
4
100
AcDbLine
 10
7.186650999999999
 20
0.013253
 30
0.0
 11
7.189144
 21
0.015191
 31
0.0
  0
LINE
  5
7D8
330
1F
100
AcDbEntity
  8
1
  6
CONTINUOUS
370
50
 62
4
100
AcDbLine
 10
7.086043
 20
-0.187847
 30
0.0
 11
7.088346
 21
-0.186051
 31
0.0
  0
LINE
  5
7D9
330
1F
100
AcDbEntity
  8
1
  6
CONTINUOUS
370
50
 62
4
100
AcDbLine
 10
7.032559
 20
-0.091551
 30
0.0
 11
7.038692999999999
 21
-0.08668
 31
0.0
  0
LINE
  5
7DA
330
1F
100
AcDbEntity
  8
1
  6
CONTINUOUS
370
50
 62
4
100
AcDbLine
 10
6.870202
 20
0.175544
 30
0.0
 11
6.871497
 21
0.176578
 31
0.0
  0
LINE
  5
7DB
330
1F
100
AcDbEntity
  8
1
  6
CONTINUOUS
370
50
 62
4
100
AcDbLine
 10
7.026605999999999
 20
-0.096551
 30
0.0
 11
7.032559
 21
-0.091551
 31
0.0
  0
LINE
  5
7DC
330
1F
100
AcDbEntity
  8
1
  6
CONTINUOUS
370
50
 62
4
100
AcDbLine
 10
7.076143
 20
-0.19624
 30
0.0
 11
7.086043
 21
-0.187847
 31
0.0
  0
LINE
  5
7DD
330
1F
100
AcDbEntity
  8
1
  6
CONTINUOUS
370
50
 62
4
100
AcDbLine
 10
7.189144
 20
0.015191
 30
0.0
 11
7.191453999999999
 21
0.017169
 31
0.0
  0
LINE
  5
7DE
330
1F
100
AcDbEntity
  8
1
  6
CONTINUOUS
370
50
 62
4
100
AcDbLine
 10
7.021252
 20
-0.101304
 30
0.0
 11
7.026605999999999
 21
-0.096551
 31
0.0
  0
LINE
  5
7DF
330
1F
100
AcDbEntity
  8
1
  6
CONTINUOUS
370
50
 62
4
100
AcDbLine
 10
7.03417
 20
-0.24974
 30
0.0
 11
7.034293
 21
-0.249626
 31
0.0
  0
LINE
  5
7E0
330
1F
100
AcDbEntity
  8
1
  6
CONTINUOUS
370
50
 62
4
100
AcDbLine
 10
6.869012
 20
0.174437
 30
0.0
 11
6.870202
 21
0.175544
 31
0.0
  0
LINE
  5
7E1
330
1F
100
AcDbEntity
  8
1
  6
CONTINUOUS
370
50
 62
4
100
AcDbLine
 10
7.016083
 20
-0.106154
 30
0.0
 11
7.021252
 21
-0.101304
 31
0.0
  0
LINE
  5
7E2
330
1F
100
AcDbEntity
  8
1
  6
CONTINUOUS
370
50
 62
4
100
AcDbLine
 10
9.604512
 20
0.115876
 30
0.0
 11
9.606083
 21
0.117357
 31
0.0
  0
LINE
  5
7E3
330
1F
100
AcDbEntity
  8
1
  6
CONTINUOUS
370
50
 62
4
100
AcDbLine
 10
7.191453999999999
 20
0.017169
 30
0.0
 11
7.193569999999999
 21
0.019174
 31
0.0
  0
LINE
  5
7E4
330
1F
100
AcDbEntity
  8
1
  6
CONTINUOUS
370
50
 62
4
100
AcDbLine
 10
7.066796
 20
-0.205286
 30
0.0
 11
7.076143
 21
-0.19624
 31
0.0
  0
LINE
  5
7E5
330
1F
100
AcDbEntity
  8
1
  6
CONTINUOUS
370
50
 62
4
100
AcDbLine
 10
7.011140999999999
 20
-0.111065
 30
0.0
 11
7.016083
 21
-0.106154
 31
0.0
  0
LINE
  5
7E6
330
1F
100
AcDbEntity
  8
1
  6
CONTINUOUS
370
50
 62
4
100
AcDbLine
 10
7.193569999999999
 20
0.019174
 30
0.0
 11
7.195486
 21
0.021196
 31
0.0
  0
LINE
  5
7E7
330
1F
100
AcDbEntity
  8
1
  6
CONTINUOUS
370
50
 62
4
100
AcDbLine
 10
7.006508999999999
 20
-0.115954
 30
0.0
 11
7.011140999999999
 21
-0.111065
 31
0.0
  0
LINE
  5
7E8
330
1F
100
AcDbEntity
  8
1
  6
CONTINUOUS
370
50
 62
4
100
AcDbLine
 10
6.867941
 20
0.173268
 30
0.0
 11
6.869012
 21
0.174437
 31
0.0
  0
LINE
  5
7E9
330
1F
100
AcDbEntity
  8
1
  6
CONTINUOUS
370
50
 62
4
100
AcDbLine
 10
7.058088
 20
-0.214885
 30
0.0
 11
7.066796
 21
-0.205286
 31
0.0
  0
LINE
  5
7EA
330
1F
100
AcDbEntity
  8
1
  6
CONTINUOUS
370
50
 62
4
100
AcDbLine
 10
7.002192
 20
-0.12081
 30
0.0
 11
7.006508999999999
 21
-0.115954
 31
0.0
  0
LINE
  5
7EB
330
1F
100
AcDbEntity
  8
1
  6
CONTINUOUS
370
50
 62
4
100
AcDbLine
 10
7.195486
 20
0.021196
 30
0.0
 11
7.197197999999999
 21
0.023229
 31
0.0
  0
LINE
  5
7EC
330
1F
100
AcDbEntity
  8
1
  6
CONTINUOUS
370
50
 62
4
100
AcDbLine
 10
6.998190999999999
 20
-0.125623
 30
0.0
 11
7.002192
 21
-0.12081
 31
0.0
  0
LINE
  5
7ED
330
1F
100
AcDbEntity
  8
1
  6
CONTINUOUS
370
50
 62
4
100
AcDbLine
 10
7.050051
 20
-0.224977
 30
0.0
 11
7.058088
 21
-0.214885
 31
0.0
  0
LINE
  5
7EE
330
1F
100
AcDbEntity
  8
1
  6
CONTINUOUS
370
50
 62
4
100
AcDbLine
 10
6.866991
 20
0.172044
 30
0.0
 11
6.867941
 21
0.173268
 31
0.0
  0
LINE
  5
7EF
330
1F
100
AcDbEntity
  8
1
  6
CONTINUOUS
370
50
 62
4
100
AcDbLine
 10
6.99451
 20
-0.130386
 30
0.0
 11
6.998190999999999
 21
-0.125623
 31
0.0
  0
LINE
  5
7F0
330
1F
100
AcDbEntity
  8
1
  6
CONTINUOUS
370
50
 62
4
100
AcDbLine
 10
7.197197999999999
 20
0.023229
 30
0.0
 11
7.198703999999999
 21
0.025266
 31
0.0
  0
LINE
  5
7F1
330
1F
100
AcDbEntity
  8
1
  6
CONTINUOUS
370
50
 62
4
100
AcDbLine
 10
6.991149999999999
 20
-0.135091
 30
0.0
 11
6.99451
 21
-0.130386
 31
0.0
  0
LINE
  5
7F2
330
1F
100
AcDbEntity
  8
1
  6
CONTINUOUS
370
50
 62
4
100
AcDbLine
 10
7.04273
 20
-0.235472
 30
0.0
 11
7.050051
 21
-0.224977
 31
0.0
  0
LINE
  5
7F3
330
1F
100
AcDbEntity
  8
1
  6
CONTINUOUS
370
50
 62
4
100
AcDbLine
 10
7.034293
 20
-0.249626
 30
0.0
 11
7.034388
 21
-0.249487
 31
0.0
  0
LINE
  5
7F4
330
1F
100
AcDbEntity
  8
1
  6
CONTINUOUS
370
50
 62
4
100
AcDbLine
 10
9.606083
 20
0.117357
 30
0.0
 11
9.607355
 21
0.119276
 31
0.0
  0
LINE
  5
7F5
330
1F
100
AcDbEntity
  8
1
  6
CONTINUOUS
370
50
 62
4
100
AcDbLine
 10
6.988112999999999
 20
-0.139731
 30
0.0
 11
6.991149999999999
 21
-0.135091
 31
0.0
  0
LINE
  5
7F6
330
1F
100
AcDbEntity
  8
1
  6
CONTINUOUS
370
50
 62
4
100
AcDbLine
 10
6.866159
 20
0.170768
 30
0.0
 11
6.866991
 21
0.172044
 31
0.0
  0
LINE
  5
7F7
330
1F
100
AcDbEntity
  8
1
  6
CONTINUOUS
370
50
 62
4
100
AcDbLine
 10
7.198703999999999
 20
0.025266
 30
0.0
 11
7.199999999999999
 21
0.027302
 31
0.0
  0
LINE
  5
7F8
330
1F
100
AcDbEntity
  8
1
  6
CONTINUOUS
370
50
 62
4
100
AcDbLine
 10
7.036159
 20
-0.246288
 30
0.0
 11
7.04273
 21
-0.235472
 31
0.0
  0
LINE
  5
7F9
330
1F
100
AcDbEntity
  8
1
  6
CONTINUOUS
370
50
 62
4
100
AcDbLine
 10
6.985401
 20
-0.144296
 30
0.0
 11
6.988112999999999
 21
-0.139731
 31
0.0
  0
LINE
  5
7FA
330
1F
100
AcDbEntity
  8
1
  6
CONTINUOUS
370
50
 62
4
100
AcDbLine
 10
7.034376
 20
-0.24951
 30
0.0
 11
7.036159
 21
-0.246288
 31
0.0
  0
LINE
  5
7FB
330
1F
100
AcDbEntity
  8
1
  6
CONTINUOUS
370
50
 62
4
100
AcDbLine
 10
6.865448
 20
0.169442
 30
0.0
 11
6.866159
 21
0.170768
 31
0.0
  0
LINE
  5
7FC
330
1F
100
AcDbEntity
  8
1
  6
CONTINUOUS
370
50
 62
4
100
AcDbLine
 10
6.982984
 20
-0.148848
 30
0.0
 11
6.985401
 21
-0.144296
 31
0.0
  0
LINE
  5
7FD
330
1F
100
AcDbEntity
  8
1
  6
CONTINUOUS
370
50
 62
4
100
AcDbLine
 10
6.980866
 20
-0.153416
 30
0.0
 11
6.982984
 21
-0.148848
 31
0.0
  0
LINE
  5
7FE
330
1F
100
AcDbEntity
  8
1
  6
CONTINUOUS
370
50
 62
4
100
AcDbLine
 10
6.864853
 20
0.16807
 30
0.0
 11
6.865448
 21
0.169442
 31
0.0
  0
LINE
  5
7FF
330
1F
100
AcDbEntity
  8
1
  6
CONTINUOUS
370
50
 62
4
100
AcDbLine
 10
9.607355
 20
0.119276
 30
0.0
 11
9.608329
 21
0.12161
 31
0.0
  0
LINE
  5
800
330
1F
100
AcDbEntity
  8
1
  6
CONTINUOUS
370
50
 62
4
100
AcDbLine
 10
9.682413
 20
0.099332
 30
0.0
 11
9.684194999999999
 21
0.103833
 31
0.0
  0
LINE
  5
801
330
1F
100
AcDbEntity
  8
1
  6
CONTINUOUS
370
50
 62
4
100
AcDbLine
 10
6.979081
 20
-0.157984
 30
0.0
 11
6.980866
 21
-0.153416
 31
0.0
  0
LINE
  5
802
330
1F
100
AcDbEntity
  8
1
  6
CONTINUOUS
370
50
 62
4
100
AcDbLine
 10
9.680712
 20
0.094532
 30
0.0
 11
9.682413
 21
0.099332
 31
0.0
  0
LINE
  5
803
330
1F
100
AcDbEntity
  8
1
  6
CONTINUOUS
370
50
 62
4
100
AcDbLine
 10
6.864374
 20
0.166652
 30
0.0
 11
6.864853
 21
0.16807
 31
0.0
  0
LINE
  5
804
330
1F
100
AcDbEntity
  8
1
  6
CONTINUOUS
370
50
 62
4
100
AcDbLine
 10
9.679094
 20
0.089444
 30
0.0
 11
9.680712
 21
0.094532
 31
0.0
  0
LINE
  5
805
330
1F
100
AcDbEntity
  8
1
  6
CONTINUOUS
370
50
 62
4
100
AcDbLine
 10
6.977664
 20
-0.162533
 30
0.0
 11
6.979081
 21
-0.157984
 31
0.0
  0
LINE
  5
806
330
1F
100
AcDbEntity
  8
1
  6
CONTINUOUS
370
50
 62
4
100
AcDbLine
 10
9.677567
 20
0.084076
 30
0.0
 11
9.679094
 21
0.089444
 31
0.0
  0
LINE
  5
807
330
1F
100
AcDbEntity
  8
1
  6
CONTINUOUS
370
50
 62
4
100
AcDbLine
 10
9.676129999999999
 20
0.078439
 30
0.0
 11
9.677567
 21
0.084076
 31
0.0
  0
LINE
  5
808
330
1F
100
AcDbEntity
  8
1
  6
CONTINUOUS
370
50
 62
4
100
AcDbLine
 10
9.608329
 20
0.12161
 30
0.0
 11
9.60901
 21
0.124336
 31
0.0
  0
LINE
  5
809
330
1F
100
AcDbEntity
  8
1
  6
CONTINUOUS
370
50
 62
4
100
AcDbLine
 10
6.864008999999999
 20
0.165181
 30
0.0
 11
6.864374
 21
0.166652
 31
0.0
  0
LINE
  5
80A
330
1F
100
AcDbEntity
  8
1
  6
CONTINUOUS
370
50
 62
4
100
AcDbLine
 10
9.674792
 20
0.072545
 30
0.0
 11
9.676129999999999
 21
0.078439
 31
0.0
  0
LINE
  5
80B
330
1F
100
AcDbEntity
  8
1
  6
CONTINUOUS
370
50
 62
4
100
AcDbLine
 10
6.976647
 20
-0.167047
 30
0.0
 11
6.977664
 21
-0.162533
 31
0.0
  0
LINE
  5
80C
330
1F
100
AcDbEntity
  8
1
  6
CONTINUOUS
370
50
 62
4
100
AcDbLine
 10
9.673561
 20
0.066426
 30
0.0
 11
9.674792
 21
0.072545
 31
0.0
  0
LINE
  5
80D
330
1F
100
AcDbEntity
  8
1
  6
CONTINUOUS
370
50
 62
4
100
AcDbLine
 10
9.672441
 20
0.0601
 30
0.0
 11
9.673561
 21
0.066426
 31
0.0
  0
LINE
  5
80E
330
1F
100
AcDbEntity
  8
1
  6
CONTINUOUS
370
50
 62
4
100
AcDbLine
 10
9.668923
 20
0.030993
 30
0.0
 11
9.670372
 21
0.039298
 31
0.0
  0
LINE
  5
80F
330
1F
100
AcDbEntity
  8
1
  6
CONTINUOUS
370
50
 62
4
100
AcDbLine
 10
6.863759
 20
0.163657
 30
0.0
 11
6.864008999999999
 21
0.165181
 31
0.0
  0
LINE
  5
810
330
1F
100
AcDbEntity
  8
1
  6
CONTINUOUS
370
50
 62
4
100
AcDbLine
 10
9.667589
 20
0.022486
 30
0.0
 11
9.668923
 21
0.030993
 31
0.0
  0
LINE
  5
811
330
1F
100
AcDbEntity
  8
1
  6
CONTINUOUS
370
50
 62
4
100
AcDbLine
 10
9.671432
 20
0.05358
 30
0.0
 11
9.672441
 21
0.0601
 31
0.0
  0
LINE
  5
812
330
1F
100
AcDbEntity
  8
1
  6
CONTINUOUS
370
50
 62
4
100
AcDbLine
 10
9.666371999999999
 20
0.013791
 30
0.0
 11
9.667589
 21
0.022486
 31
0.0
  0
LINE
  5
813
330
1F
100
AcDbEntity
  8
1
  6
CONTINUOUS
370
50
 62
4
100
AcDbLine
 10
9.670542
 20
0.046879
 30
0.0
 11
9.671432
 21
0.05358
 31
0.0
  0
LINE
  5
814
330
1F
100
AcDbEntity
  8
1
  6
CONTINUOUS
370
50
 62
4
100
AcDbLine
 10
6.976067
 20
-0.171502
 30
0.0
 11
6.976647
 21
-0.167047
 31
0.0
  0
LINE
  5
815
330
1F
100
AcDbEntity
  8
1
  6
CONTINUOUS
370
50
 62
4
100
AcDbLine
 10
9.60901
 20
0.124336
 30
0.0
 11
9.609401
 21
0.127412
 31
0.0
  0
LINE
  5
816
330
1F
100
AcDbEntity
  8
1
  6
CONTINUOUS
370
50
 62
4
100
AcDbLine
 10
9.665279
 20
0.004936
 30
0.0
 11
9.666371999999999
 21
0.013791
 31
0.0
  0
LINE
  5
817
330
1F
100
AcDbEntity
  8
1
  6
CONTINUOUS
370
50
 62
4
100
AcDbLine
 10
9.669770999999999
 20
0.040012
 30
0.0
 11
9.670542
 21
0.046879
 31
0.0
  0
LINE
  5
818
330
1F
100
AcDbEntity
  8
1
  6
CONTINUOUS
370
50
 62
4
100
AcDbLine
 10
9.664311999999999
 20
-0.004064
 30
0.0
 11
9.665279
 21
0.004936
 31
0.0
  0
LINE
  5
819
330
1F
100
AcDbEntity
  8
1
  6
CONTINUOUS
370
50
 62
4
100
AcDbLine
 10
9.663473999999999
 20
-0.013198
 30
0.0
 11
9.664311999999999
 21
-0.004064
 31
0.0
  0
LINE
  5
81A
330
1F
100
AcDbEntity
  8
1
  6
CONTINUOUS
370
50
 62
4
100
AcDbLine
 10
6.863626
 20
0.162081
 30
0.0
 11
6.863759
 21
0.163657
 31
0.0
  0
LINE
  5
81B
330
1F
100
AcDbEntity
  8
1
  6
CONTINUOUS
370
50
 62
4
100
AcDbLine
 10
9.600392
 20
0.112651
 30
0.0
 11
9.600518
 21
0.114295
 31
0.0
  0
LINE
  5
81C
330
1F
100
AcDbEntity
  8
1
  6
CONTINUOUS
370
50
 62
4
100
AcDbLine
 10
9.662766
 20
-0.022453
 30
0.0
 11
9.663473999999999
 21
-0.013198
 31
0.0
  0
LINE
  5
81D
330
1F
100
AcDbEntity
  8
1
  6
CONTINUOUS
370
50
 62
4
100
AcDbLine
 10
9.662194
 20
-0.031812
 30
0.0
 11
9.662766
 21
-0.022453
 31
0.0
  0
LINE
  5
81E
330
1F
100
AcDbEntity
  8
1
  6
CONTINUOUS
370
50
 62
4
100
AcDbLine
 10
9.682224
 20
0.104096
 30
0.0
 11
9.682260999999999
 21
0.104709
 31
0.0
  0
LINE
  5
81F
330
1F
100
AcDbEntity
  8
1
  6
CONTINUOUS
370
50
 62
4
100
AcDbLine
 10
7.034388
 20
-0.249487
 30
0.0
 11
7.03445
 21
-0.248358
 31
0.0
  0
LINE
  5
820
330
1F
100
AcDbEntity
  8
1
  6
CONTINUOUS
370
50
 62
4
100
AcDbLine
 10
9.66176
 20
-0.041225
 30
0.0
 11
9.662194
 21
-0.031812
 31
0.0
  0
LINE
  5
821
330
1F
100
AcDbEntity
  8
1
  6
CONTINUOUS
370
50
 62
4
100
AcDbLine
 10
9.600327
 20
0.110942
 30
0.0
 11
9.600392
 21
0.112651
 31
0.0
  0
LINE
  5
822
330
1F
100
AcDbEntity
  8
1
  6
CONTINUOUS
370
50
 62
4
100
AcDbLine
 10
9.609401
 20
0.127412
 30
0.0
 11
9.609513999999999
 21
0.13081
 31
0.0
  0
LINE
  5
823
330
1F
100
AcDbEntity
  8
1
  6
CONTINUOUS
370
50
 62
4
100
AcDbLine
 10
9.661465
 20
-0.050673
 30
0.0
 11
9.66176
 21
-0.041225
 31
0.0
  0
LINE
  5
824
330
1F
100
AcDbEntity
  8
1
  6
CONTINUOUS
370
50
 62
4
100
AcDbLine
 10
6.975962
 20
-0.175851
 30
0.0
 11
6.976067
 21
-0.171502
 31
0.0
  0
LINE
  5
825
330
1F
100
AcDbEntity
  8
1
  6
CONTINUOUS
370
50
 62
4
100
AcDbLine
 10
9.66131
 20
-0.060141
 30
0.0
 11
9.661465
 21
-0.050673
 31
0.0
  0
LINE
  5
826
330
1F
100
AcDbEntity
  8
1
  6
CONTINUOUS
370
50
 62
4
100
AcDbLine
 10
6.863612
 20
0.160456
 30
0.0
 11
6.863626
 21
0.162081
 31
0.0
  0
LINE
  5
827
330
1F
100
AcDbEntity
  8
1
  6
CONTINUOUS
370
50
 62
4
100
AcDbLine
 10
9.600321
 20
0.109169
 30
0.0
 11
9.600327
 21
0.110942
 31
0.0
  0
LINE
  5
828
330
1F
100
AcDbEntity
  8
1
  6
CONTINUOUS
370
50
 62
4
100
AcDbLine
 10
9.661294999999999
 20
-0.069617
 30
0.0
 11
9.66131
 21
-0.060141
 31
0.0
  0
LINE
  5
829
330
1F
100
AcDbEntity
  8
1
  6
CONTINUOUS
370
50
 62
4
100
AcDbLine
 10
0.0
 20
-1.99995
 30
0.0
 11
0.0
 21
1.99995
 31
0.0
  0
LINE
  5
82A
330
1F
100
AcDbEntity
  8
1
  6
CONTINUOUS
370
50
 62
4
100
AcDbLine
 10
6.5
 20
-0.24995
 30
0.0
 11
6.5
 21
0.24995
 31
0.0
  0
LINE
  5
82B
330
1F
100
AcDbEntity
  8
1
  6
CONTINUOUS
370
50
 62
4
100
AcDbLine
 10
7.199999999999999
 20
-0.150105
 30
0.0
 11
7.199999999999999
 21
0.150105
 31
0.0
  0
LINE
  5
82C
330
1F
100
AcDbEntity
  8
1
  6
CONTINUOUS
370
50
 62
4
100
AcDbLine
 10
9.7
 20
-0.25
 30
0.0
 11
9.7
 21
0.0437
 31
0.0
  0
LINE
  5
82D
330
1F
100
AcDbEntity
  8
1
  6
CONTINUOUS
370
50
 62
4
100
AcDbLine
 10
9.7
 20
0.043701
 30
0.0
 11
9.7
 21
0.25
 31
0.0
  0
ELLIPSE
  5
82E
330
1F
100
AcDbEntity
  8
1
  6
CONTINUOUS
370
50
 62
4
100
AcDbEllipse
 10
7.104738999999999
 20
0.268493
 30
0.0
 11
-0.1508577729783478
 21
0.209508163468666
 31
0.0
210
0.0
220
0.0
230
0.9999999999999998
 40
0.9106047872357403
 41
1.343283305223427
 42
2.874963735921503
  0
ELLIPSE
  5
82F
330
1F
100
AcDbEntity
  8
1
  6
CONTINUOUS
370
50
 62
4
100
AcDbEllipse
 10
7.214665
 20
-0.347646
 30
0.0
 11
0.1589774843972317
 21
0.2207846512072973
 31
0.0
210
0.0
220
0.0
230
0.9999999999999998
 40
0.9106068324292494
 41
0.7263205202938435
 42
1.602895855608755
  0
ELLIPSE
  5
830
330
1F
100
AcDbEntity
  8
1
  6
CONTINUOUS
370
50
 62
4
100
AcDbEllipse
 10
9.700006
 20
-0.000006
 30
0.0
 11
-0.1737431493438209
 21
0.2449768940820554
 31
0.0
210
0.0
220
0.0
230
1.0
 40
0.2869984521360771
 41
5.866742147417995
 42
5.882189356159302
  0
ELLIPSE
  5
831
330
1F
100
AcDbEntity
  8
1
  6
CONTINUOUS
370
50
 62
4
100
AcDbEllipse
 10
9.700006
 20
0.000006
 30
0.0
 11
0.1737431493438218
 21
0.244976894082055
 31
0.0
210
0.0
220
0.0
230
1.0
 40
0.2869984521360774
 41
3.542588604610082
 42
3.55803581335139
  0
ELLIPSE
  5
832
330
1F
100
AcDbEntity
  8
1
  6
CONTINUOUS
370
50
 62
4
100
AcDbEllipse
 10
9.700059
 20
0.0
 30
0.0
 11
0.6050739999815553
 21
0.0004930226370225872
 31
0.0
210
0.0
220
0.0
230
0.9999999999999999
 40
0.4131726040937675
 41
4.494656915523109
 42
4.71030744066176
  0
ELLIPSE
  5
833
330
1F
100
AcDbEntity
  8
1
  6
CONTINUOUS
370
50
 62
4
100
AcDbEllipse
 10
9.700059
 20
0.0
 30
0.0
 11
-0.6050739999815555
 21
0.0004930226368579313
 31
0.0
210
0.0
220
0.0
230
0.9999999999999999
 40
0.4131726040937675
 41
4.712822451131823
 42
4.930121045246132
  0
ELLIPSE
  5
834
330
1F
100
AcDbEntity
  8
1
  6
CONTINUOUS
370
50
 62
4
100
AcDbEllipse
 10
9.711058999999999
 20
0.0
 30
0.0
 11
1.530757942277972E-17
 21
0.25
 31
0.0
210
0.0
220
0.0
230
1.0
 40
0.3249199999999988
 41
2.953325341256837
 42
3.005020179149251
  0
LINE
  5
835
330
1F
100
AcDbEntity
  8
CUT
  6
CONTINUOUS
370
25
 62
1
100
AcDbLine
 10
7.199999999999999
 20
0.0
 30
0.0
 11
9.7
 21
0.0
 31
0.0
  0
LINE
  5
836
330
1F
100
AcDbEntity
  8
CUT
  6
CONTINUOUS
370
25
 62
1
100
AcDbLine
 10
9.7
 20
0.0
 30
0.0
 11
9.7
 21
0.245
 31
0.0
  0
LINE
  5
837
330
1F
100
AcDbEntity
  8
CUT
  6
CONTINUOUS
370
25
 62
1
100
AcDbLine
 10
9.7
 20
0.245
 30
0.0
 11
9.7
 21
0.25
 31
0.0
  0
LINE
  5
838
330
1F
100
AcDbEntity
  8
CUT
  6
CONTINUOUS
370
25
 62
1
100
AcDbLine
 10
9.7
 20
0.25
 30
0.0
 11
7.199999999999999
 21
0.2499
 31
0.0
  0
LINE
  5
839
330
1F
100
AcDbEntity
  8
CUT
  6
CONTINUOUS
370
25
 62
1
100
AcDbLine
 10
7.199999999999999
 20
0.2499
 30
0.0
 11
7.199999999999999
 21
0.2449
 31
0.0
  0
LINE
  5
83A
330
1F
100
AcDbEntity
  8
CUT
  6
CONTINUOUS
370
25
 62
1
100
AcDbLine
 10
7.199999999999999
 20
0.2449
 30
0.0
 11
7.199999999999999
 21
0.0
 31
0.0
  0
LINE
  5
83B
330
1F
100
AcDbEntity
  8
NOCUT
  6
CONTINUOUS
370
25
 62
7
100
AcDbLine
 10
0.0
 20
0.0
 30
0.0
 11
7.199999999999999
 21
0.0
 31
0.0
  0
LINE
  5
83C
330
1F
100
AcDbEntity
  8
NOCUT
  6
CONTINUOUS
370
25
 62
7
100
AcDbLine
 10
7.199999999999999
 20
0.0
 30
0.0
 11
7.199999999999999
 21
0.24495
 31
0.0
  0
LINE
  5
83D
330
1F
100
AcDbEntity
  8
NOCUT
  6
CONTINUOUS
370
25
 62
7
100
AcDbLine
 10
7.199999999999999
 20
0.24495
 30
0.0
 11
7.199999999999999
 21
0.24995
 31
0.0
  0
LINE
  5
83E
330
1F
100
AcDbEntity
  8
NOCUT
  6
CONTINUOUS
370
25
 62
7
100
AcDbLine
 10
7.199999999999999
 20
0.24995
 30
0.0
 11
6.499999999999999
 21
0.24995
 31
0.0
  0
LINE
  5
83F
330
1F
100
AcDbEntity
  8
NOCUT
  6
CONTINUOUS
370
25
 62
7
100
AcDbLine
 10
6.499999999999999
 20
0.24995
 30
0.0
 11
0.0
 21
1.99995
 31
0.0
  0
LINE
  5
840
330
1F
100
AcDbEntity
  8
NOCUT
  6
CONTINUOUS
370
25
 62
7
100
AcDbLine
 10
0.0
 20
1.99995
 30
0.0
 11
0.0
 21
0.0
 31
0.0
  0
LINE
  5
841
330
1F
100
AcDbEntity
  8
SK1
  6
CONTINUOUS
370
50
 62
4
100
AcDbLine
 10
0.0
 20
2.0
 30
0.0
 11
-35.0
 21
2.0
 31
0.0
  0
LINE
  5
842
330
1F
100
AcDbEntity
  8
SK1
  6
CONTINUOUS
370
50
 62
4
100
AcDbLine
 10
-35.0
 20
2.0
 30
0.0
 11
-35.3
 21
1.7
 31
0.0
  0
LINE
  5
843
330
1F
100
AcDbEntity
  8
SK1
  6
CONTINUOUS
370
50
 62
4
100
AcDbLine
 10
-35.3
 20
1.7
 30
0.0
 11
-35.3
 21
-1.7
 31
0.0
  0
LINE
  5
844
330
1F
100
AcDbEntity
  8
SK1
  6
CONTINUOUS
370
50
 62
4
100
AcDbLine
 10
-35.3
 20
-1.7
 30
0.0
 11
-35.0
 21
-2.0
 31
0.0
  0
LINE
  5
845
330
1F
100
AcDbEntity
  8
SK1
  6
CONTINUOUS
370
50
 62
4
100
AcDbLine
 10
-35.0
 20
-2.0
 30
0.0
 11
0.0
 21
-2.0
 31
0.0
  0
LINE
  5
846
330
1F
100
AcDbEntity
  8
SK1
  6
CONTINUOUS
370
50
 62
4
100
AcDbLine
 10
-35.0
 20
2.0
 30
0.0
 11
-35.0
 21
-2.0
 31
0.0
  0
LINE
  5
847
330
1F
100
AcDbEntity
  8
SK2
  6
CONTINUOUS
370
25
 62
7
100
AcDbLine
 10
-47.3000002
 20
-2.000001
 30
0.0
 11
-48.30000000000008
 21
-2.000001
 31
0.0
  0
LINE
  5
848
330
1F
100
AcDbEntity
  8
SK2
  6
CONTINUOUS
370
25
 62
7
100
AcDbLine
 10
-35.3
 20
-2.000001
 30
0.0
 11
-47.2999998
 21
-2.000001
 31
0.0
  0
LINE
  5
849
330
1F
100
AcDbEntity
  8
SK2
  6
CONTINUOUS
370
25
 62
7
100
AcDbLine
 10
-48.3
 20
2.0
 30
0.0
 11
-35.3
 21
2.0
 31
0.0
  0
LINE
  5
84A
330
1F
100
AcDbEntity
  8
SK2
  6
CONTINUOUS
370
25
 62
7
100
AcDbLine
 10
-47.3
 20
-9.0
 30
0.0
 11
-47.3
 21
15.475
 31
0.0
  0
LINE
  5
84B
330
1F
100
AcDbEntity
  8
SK2
  6
CONTINUOUS
370
25
 62
7
100
AcDbLine
 10
-47.3
 20
-2.0
 30
0.0
 11
-46.3
 21
-7.0
 31
0.0
  0
LINE
  5
84C
330
1F
100
AcDbEntity
  8
SK2
  6
CONTINUOUS
370
25
 62
7
100
AcDbLine
 10
-46.3
 20
-7.0
 30
0.0
 11
-48.3
 21
-7.0
 31
0.0
  0
LINE
  5
84D
330
1F
100
AcDbEntity
  8
SK2
  6
CONTINUOUS
370
25
 62
7
100
AcDbLine
 10
-48.3
 20
-7.0
 30
0.0
 11
-47.3
 21
-2.0
 31
0.0
  0
LINE
  5
84E
330
1F
100
AcDbEntity
  8
SK2
  6
CONTINUOUS
370
25
 62
7
100
AcDbLine
 10
-46.45655839020933
 20
-7.0
 30
0.0
 11
-46.32609306503489
 21
-6.869534674825559
 31
0.0
  0
LINE
  5
84F
330
1F
100
AcDbEntity
  8
SK2
  6
CONTINUOUS
370
25
 62
7
100
AcDbLine
 10
-46.88082245892126
 20
-7.0
 30
0.0
 11
-46.39680374315355
 21
-6.515981284232289
 31
0.0
  0
LINE
  5
850
330
1F
100
AcDbEntity
  8
SK2
  6
CONTINUOUS
370
25
 62
7
100
AcDbLine
 10
-47.30508652763319
 20
-7.0
 30
0.0
 11
-46.4675144212722
 21
-6.162427893639013
 31
0.0
  0
LINE
  5
851
330
1F
100
AcDbEntity
  8
SK2
  6
CONTINUOUS
370
25
 62
7
100
AcDbLine
 10
-47.72935059634512
 20
-7.0
 30
0.0
 11
-46.53822509939086
 21
-5.808874503045743
 31
0.0
  0
LINE
  5
852
330
1F
100
AcDbEntity
  8
SK2
  6
CONTINUOUS
370
25
 62
7
100
AcDbLine
 10
-48.15361466505705
 20
-7.0
 30
0.0
 11
-46.60893577750952
 21
-5.455321112452467
 31
0.0
  0
LINE
  5
853
330
1F
100
AcDbEntity
  8
SK2
  6
CONTINUOUS
370
25
 62
7
100
AcDbLine
 10
-48.23053031655775
 20
-6.652651582788771
 30
0.0
 11
-46.67964645562817
 21
-5.101767721859183
 31
0.0
  0
LINE
  5
854
330
1F
100
AcDbEntity
  8
SK2
  6
CONTINUOUS
370
25
 62
7
100
AcDbLine
 10
-48.12446429937978
 20
-6.12232149689887
 30
0.0
 11
-46.75035713374682
 21
-4.748214331265899
 31
0.0
  0
LINE
  5
855
330
1F
100
AcDbEntity
  8
SK2
  6
CONTINUOUS
370
25
 62
7
100
AcDbLine
 10
-48.01839828220179
 20
-5.591991411008948
 30
0.0
 11
-46.82106781186547
 21
-4.394660940672615
 31
0.0
  0
LINE
  5
856
330
1F
100
AcDbEntity
  8
SK2
  6
CONTINUOUS
370
25
 62
7
100
AcDbLine
 10
-47.91233226502381
 20
-5.061661325119026
 30
0.0
 11
-46.89177848998413
 21
-4.041107550079353
 31
0.0
  0
LINE
  5
857
330
1F
100
AcDbEntity
  8
SK2
  6
CONTINUOUS
370
25
 62
7
100
AcDbLine
 10
-47.80626624784582
 20
-4.531331239229104
 30
0.0
 11
-46.96248916810278
 21
-3.687554159486069
 31
0.0
  0
LINE
  5
858
330
1F
100
AcDbEntity
  8
SK2
  6
CONTINUOUS
370
25
 62
7
100
AcDbLine
 10
-47.70020023066784
 20
-4.001001153339196
 30
0.0
 11
-47.03319984622144
 21
-3.334000768892793
 31
0.0
  0
LINE
  5
859
330
1F
100
AcDbEntity
  8
SK2
  6
CONTINUOUS
370
25
 62
7
100
AcDbLine
 10
-47.59413421348986
 20
-3.470671067449281
 30
0.0
 11
-47.10391052434009
 21
-2.980447378299516
 31
0.0
  0
LINE
  5
85A
330
1F
100
AcDbEntity
  8
SK2
  6
CONTINUOUS
370
25
 62
7
100
AcDbLine
 10
-47.48806819631187
 20
-2.940340981559366
 30
0.0
 11
-47.17462120245875
 21
-2.626893987706239
 31
0.0
  0
LINE
  5
85B
330
1F
100
AcDbEntity
  8
SK2
  6
CONTINUOUS
370
25
 62
7
100
AcDbLine
 10
-47.38200217913389
 20
-2.410010895669451
 30
0.0
 11
-47.24533188057741
 21
-2.27334059711297
 31
0.0
  0
LINE
  5
85C
330
1F
100
AcDbEntity
  8
SK2
  6
CONTINUOUS
370
25
 62
7
100
AcDbLine
 10
-48.27099487554837
 20
-6.854974377741833
 30
0.0
 11
-48.1259692532902
 21
-7.0
 31
0.0
  0
LINE
  5
85D
330
1F
100
AcDbEntity
  8
SK2
  6
CONTINUOUS
370
25
 62
7
100
AcDbLine
 10
-48.20028419742972
 20
-6.501420987148549
 30
0.0
 11
-47.70170518457826
 21
-7.0
 31
0.0
  0
LINE
  5
85E
330
1F
100
AcDbEntity
  8
SK2
  6
CONTINUOUS
370
25
 62
7
100
AcDbLine
 10
-48.12957351931106
 20
-6.147867596555272
 30
0.0
 11
-47.27744111586632
 21
-7.0
 31
0.0
  0
LINE
  5
85F
330
1F
100
AcDbEntity
  8
SK2
  6
CONTINUOUS
370
25
 62
7
100
AcDbLine
 10
-48.0588628411924
 20
-5.794314205962003
 30
0.0
 11
-46.8531770471544
 21
-7.0
 31
0.0
  0
LINE
  5
860
330
1F
100
AcDbEntity
  8
SK2
  6
CONTINUOUS
370
25
 62
7
100
AcDbLine
 10
-47.98815216307374
 20
-5.440760815368726
 30
0.0
 11
-46.42891297844247
 21
-7.0
 31
0.0
  0
LINE
  5
861
330
1F
100
AcDbEntity
  8
SK2
  6
CONTINUOUS
370
25
 62
7
100
AcDbLine
 10
-47.91744148495509
 20
-5.08720742477545
 30
0.0
 11
-46.37383777256736
 21
-6.630811137163178
 31
0.0
  0
LINE
  5
862
330
1F
100
AcDbEntity
  8
SK2
  6
CONTINUOUS
370
25
 62
7
100
AcDbLine
 10
-47.84673080683644
 20
-4.733654034182166
 30
0.0
 11
-46.47990378974534
 21
-6.100481051273263
 31
0.0
  0
LINE
  5
863
330
1F
100
AcDbEntity
  8
SK2
  6
CONTINUOUS
370
25
 62
7
100
AcDbLine
 10
-47.77602012871778
 20
-4.380100643588904
 30
0.0
 11
-46.58596980692334
 21
-5.570150965383341
 31
0.0
  0
LINE
  5
864
330
1F
100
AcDbEntity
  8
SK2
  6
CONTINUOUS
370
25
 62
7
100
AcDbLine
 10
-47.70530945059912
 20
-4.02654725299562
 30
0.0
 11
-46.69203582410132
 21
-5.039820879493426
 31
0.0
  0
LINE
  5
865
330
1F
100
AcDbEntity
  8
SK2
  6
CONTINUOUS
370
25
 62
7
100
AcDbLine
 10
-47.63459877248047
 20
-3.672993862402336
 30
0.0
 11
-46.7981018412793
 21
-4.509490793603504
 31
0.0
  0
LINE
  5
866
330
1F
100
AcDbEntity
  8
SK2
  6
CONTINUOUS
370
25
 62
7
100
AcDbLine
 10
-47.56388809436181
 20
-3.319440471809074
 30
0.0
 11
-46.90416785845728
 21
-3.979160707713596
 31
0.0
  0
LINE
  5
867
330
1F
100
AcDbEntity
  8
SK2
  6
CONTINUOUS
370
25
 62
7
100
AcDbLine
 10
-47.49317741624316
 20
-2.965887081215797
 30
0.0
 11
-47.01023387563527
 21
-3.448830621823689
 31
0.0
  0
LINE
  5
868
330
1F
100
AcDbEntity
  8
SK2
  6
CONTINUOUS
370
25
 62
7
100
AcDbLine
 10
-47.4224667381245
 20
-2.612333690622528
 30
0.0
 11
-47.11629989281325
 21
-2.918500535933774
 31
0.0
  0
LINE
  5
869
330
1F
100
AcDbEntity
  8
SK2
  6
CONTINUOUS
370
25
 62
7
100
AcDbLine
 10
-47.35175606000585
 20
-2.258780300029244
 30
0.0
 11
-47.22236590999123
 21
-2.388170450043859
 31
0.0
  0
LINE
  5
86A
330
1F
100
AcDbEntity
  8
SK2
  6
CONTINUOUS
370
25
 62
7
100
AcDbLine
 10
-47.3
 20
2.0
 30
0.0
 11
-48.3
 21
7.0
 31
0.0
  0
LINE
  5
86B
330
1F
100
AcDbEntity
  8
SK2
  6
CONTINUOUS
370
25
 62
7
100
AcDbLine
 10
-48.3
 20
7.0
 30
0.0
 11
-46.3
 21
7.0
 31
0.0
  0
LINE
  5
86C
330
1F
100
AcDbEntity
  8
SK2
  6
CONTINUOUS
370
25
 62
7
100
AcDbLine
 10
-46.3
 20
7.0
 30
0.0
 11
-47.3
 21
2.0
 31
0.0
  0
LINE
  5
86D
330
1F
100
AcDbEntity
  8
SK2
  6
CONTINUOUS
370
25
 62
7
100
AcDbLine
 10
-47.35648267321594
 20
2.282413366079673
 30
0.0
 11
-47.2152759901761
 21
2.423620049119513
 31
0.0
  0
LINE
  5
86E
330
1F
100
AcDbEntity
  8
SK2
  6
CONTINUOUS
370
25
 62
7
100
AcDbLine
 10
-47.42719335133459
 20
2.63596675667295
 30
0.0
 11
-47.10920997299812
 21
2.953950135009421
 31
0.0
  0
LINE
  5
86F
330
1F
100
AcDbEntity
  8
SK2
  6
CONTINUOUS
370
25
 62
7
100
AcDbLine
 10
-47.49790402945325
 20
2.989520147266234
 30
0.0
 11
-47.00314395582014
 21
3.484280220899343
 31
0.0
  0
LINE
  5
870
330
1F
100
AcDbEntity
  8
SK2
  6
CONTINUOUS
370
25
 62
7
100
AcDbLine
 10
-47.5686147075719
 20
3.34307353785951
 30
0.0
 11
-46.89707793864216
 21
4.014610306789251
 31
0.0
  0
LINE
  5
871
330
1F
100
AcDbEntity
  8
SK2
  6
CONTINUOUS
370
25
 62
7
100
AcDbLine
 10
-47.63932538569056
 20
3.69662692845278
 30
0.0
 11
-46.79101192146417
 21
4.544940392679173
 31
0.0
  0
LINE
  5
872
330
1F
100
AcDbEntity
  8
SK2
  6
CONTINUOUS
370
25
 62
7
100
AcDbLine
 10
-47.71003606380921
 20
4.050180319046063
 30
0.0
 11
-46.68494590428618
 21
5.075270478569095
 31
0.0
  0
LINE
  5
873
330
1F
100
AcDbEntity
  8
SK2
  6
CONTINUOUS
370
25
 62
7
100
AcDbLine
 10
-47.78074674192786
 20
4.40373370963934
 30
0.0
 11
-46.5788798871082
 21
5.605600564459003
 31
0.0
  0
LINE
  5
874
330
1F
100
AcDbEntity
  8
SK2
  6
CONTINUOUS
370
25
 62
7
100
AcDbLine
 10
-47.85145742004653
 20
4.75728710023261
 30
0.0
 11
-46.47281386993021
 21
6.135930650348925
 31
0.0
  0
LINE
  5
875
330
1F
100
AcDbEntity
  8
SK2
  6
CONTINUOUS
370
25
 62
7
100
AcDbLine
 10
-47.92216809816518
 20
5.110840490825886
 30
0.0
 11
-46.36674785275223
 21
6.666260736238833
 31
0.0
  0
LINE
  5
876
330
1F
100
AcDbEntity
  8
SK2
  6
CONTINUOUS
370
25
 62
7
100
AcDbLine
 10
-47.99287877628383
 20
5.46439388141917
 30
0.0
 11
-46.457272657703
 21
7.0
 31
0.0
  0
LINE
  5
877
330
1F
100
AcDbEntity
  8
SK2
  6
CONTINUOUS
370
25
 62
7
100
AcDbLine
 10
-48.06358945440249
 20
5.817947272012439
 30
0.0
 11
-46.88153672641493
 21
7.0
 31
0.0
  0
LINE
  5
878
330
1F
100
AcDbEntity
  8
SK2
  6
CONTINUOUS
370
25
 62
7
100
AcDbLine
 10
-48.13430013252114
 20
6.171500662605716
 30
0.0
 11
-47.30580079512686
 21
7.0
 31
0.0
  0
LINE
  5
879
330
1F
100
AcDbEntity
  8
SK2
  6
CONTINUOUS
370
25
 62
7
100
AcDbLine
 10
-48.20501081063979
 20
6.525054053198993
 30
0.0
 11
-47.73006486383878
 21
7.0
 31
0.0
  0
LINE
  5
87A
330
1F
100
AcDbEntity
  8
SK2
  6
CONTINUOUS
370
25
 62
7
100
AcDbLine
 10
-48.27572148875846
 20
6.878607443792262
 30
0.0
 11
-48.15432893255072
 21
7.0
 31
0.0
  0
LINE
  5
87B
330
1F
100
AcDbEntity
  8
SK2
  6
CONTINUOUS
370
25
 62
7
100
AcDbLine
 10
-47.3282533602958
 20
2.141266801478963
 30
0.0
 11
-47.28116442646947
 21
2.09417786765264
 31
0.0
  0
LINE
  5
87C
330
1F
100
AcDbEntity
  8
SK2
  6
CONTINUOUS
370
25
 62
7
100
AcDbLine
 10
-47.43431937747378
 20
2.671596887368871
 30
0.0
 11
-47.21045374835082
 21
2.447731258245909
 31
0.0
  0
LINE
  5
87D
330
1F
100
AcDbEntity
  8
SK2
  6
CONTINUOUS
370
25
 62
7
100
AcDbLine
 10
-47.54038539465176
 20
3.201926973258779
 30
0.0
 11
-47.13974307023216
 21
2.801284648839186
 31
0.0
  0
LINE
  5
87E
330
1F
100
AcDbEntity
  8
SK2
  6
CONTINUOUS
370
25
 62
7
100
AcDbLine
 10
-47.64645141182974
 20
3.732257059148694
 30
0.0
 11
-47.06903239211351
 21
3.154838039432462
 31
0.0
  0
LINE
  5
87F
330
1F
100
AcDbEntity
  8
SK2
  6
CONTINUOUS
370
25
 62
7
100
AcDbLine
 10
-47.75251742900772
 20
4.262587145038609
 30
0.0
 11
-46.99832171399485
 21
3.508391430025732
 31
0.0
  0
LINE
  5
880
330
1F
100
AcDbEntity
  8
SK2
  6
CONTINUOUS
370
25
 62
7
100
AcDbLine
 10
-47.85858344618571
 20
4.792917230928524
 30
0.0
 11
-46.9276110358762
 21
3.861944820619009
 31
0.0
  0
LINE
  5
881
330
1F
100
AcDbEntity
  8
SK2
  6
CONTINUOUS
370
25
 62
7
100
AcDbLine
 10
-47.96464946336369
 20
5.323247316818446
 30
0.0
 11
-46.85690035775754
 21
4.215498211212292
 31
0.0
  0
LINE
  5
882
330
1F
100
AcDbEntity
  8
SK2
  6
CONTINUOUS
370
25
 62
7
100
AcDbLine
 10
-48.07071548054166
 20
5.853577402708339
 30
0.0
 11
-46.78618967963889
 21
4.569051601805569
 31
0.0
  0
LINE
  5
883
330
1F
100
AcDbEntity
  8
SK2
  6
CONTINUOUS
370
25
 62
7
100
AcDbLine
 10
-48.17678149771965
 20
6.383907488598261
 30
0.0
 11
-46.71547900152022
 21
4.922604992398838
 31
0.0
  0
LINE
  5
884
330
1F
100
AcDbEntity
  8
SK2
  6
CONTINUOUS
370
25
 62
7
100
AcDbLine
 10
-48.28284751489763
 20
6.914237574488176
 30
0.0
 11
-46.64476832340158
 21
5.276158382992122
 31
0.0
  0
LINE
  5
885
330
1F
100
AcDbEntity
  8
SK2
  6
CONTINUOUS
370
25
 62
7
100
AcDbLine
 10
-47.94434587169752
 20
7.0
 30
0.0
 11
-46.57405764528293
 21
5.629711773585406
 31
0.0
  0
LINE
  5
886
330
1F
100
AcDbEntity
  8
SK2
  6
CONTINUOUS
370
25
 62
7
100
AcDbLine
 10
-47.52008180298559
 20
7.0
 30
0.0
 11
-46.50334696716427
 21
5.983265164178675
 31
0.0
  0
LINE
  5
887
330
1F
100
AcDbEntity
  8
SK2
  6
CONTINUOUS
370
25
 62
7
100
AcDbLine
 10
-47.09581773427366
 20
7.0
 30
0.0
 11
-46.43263628904561
 21
6.336818554771952
 31
0.0
  0
LINE
  5
888
330
1F
100
AcDbEntity
  8
SK2
  6
CONTINUOUS
370
25
 62
7
100
AcDbLine
 10
-46.67155366556173
 20
7.0
 30
0.0
 11
-46.36192561092695
 21
6.690371945365222
 31
0.0
  0
TEXT
  5
889
330
1F
100
AcDbEntity
  8
SK2
  6
CONTINUOUS
370
25
 62
7
100
AcDbText
 10
-48.8
 20
12.34583333333333
 30
0.0
 40
3.5
  1
4
 50
90.00000000000001
 72
     1
 11
-48.8
 21
13.5125
 31
0.0
100
AcDbText
  0
CIRCLE
  5
88A
330
1F
100
AcDbEntity
  8
SK2
  6
CONTINUOUS
370
25
 62
7
100
AcDbCircle
 10
-50.55
 20
10.1875
 30
0.0
 40
1.4
  0
LINE
  5
88B
330
1F
100
AcDbEntity
  8
SK2
  6
CONTINUOUS
370
25
 62
7
100
AcDbLine
 10
-49.15
 20
8.787500000000001
 30
0.0
 11
-51.95
 21
11.5875
 31
0.0
  0
LINE
  5
88C
330
1F
100
AcDbEntity
  8
SK2
  6
CONTINUOUS
370
25
 62
7
100
AcDbLine
 10
-35.3
 20
2.0
 30
0.0
 11
-35.3
 21
15.0
 31
0.0
  0
LINE
  5
88D
330
1F
100
AcDbEntity
  8
SK2
  6
CONTINUOUS
370
25
 62
7
100
AcDbLine
 10
0.0000000000000001
 20
15.0
 30
0.0
 11
-0.0000000000000007
 21
2.0
 31
0.0
  0
LINE
  5
88E
330
1F
100
AcDbEntity
  8
SK2
  6
CONTINUOUS
370
25
 62
7
100
AcDbLine
 10
-35.3
 20
14.0
 30
0.0
 11
0.0
 21
14.0
 31
0.0
  0
LINE
  5
88F
330
1F
100
AcDbEntity
  8
SK2
  6
CONTINUOUS
370
25
 62
7
100
AcDbLine
 10
-35.3
 20
14.0
 30
0.0
 11
-30.3
 21
15.0
 31
0.0
  0
LINE
  5
890
330
1F
100
AcDbEntity
  8
SK2
  6
CONTINUOUS
370
25
 62
7
100
AcDbLine
 10
-30.3
 20
15.0
 30
0.0
 11
-30.3
 21
13.0
 31
0.0
  0
LINE
  5
891
330
1F
100
AcDbEntity
  8
SK2
  6
CONTINUOUS
370
25
 62
7
100
AcDbLine
 10
-30.3
 20
13.0
 30
0.0
 11
-35.3
 21
14.0
 31
0.0
  0
LINE
  5
892
330
1F
100
AcDbEntity
  8
SK2
  6
CONTINUOUS
370
25
 62
7
100
AcDbLine
 10
-30.63266589777385
 20
13.06653317955476
 30
0.0
 11
-30.3
 21
13.39919907732862
 31
0.0
  0
LINE
  5
893
330
1F
100
AcDbEntity
  8
SK2
  6
CONTINUOUS
370
25
 62
7
100
AcDbLine
 10
-30.98621928836713
 20
13.13724385767342
 30
0.0
 11
-30.3
 21
13.82346314604055
 31
0.0
  0
LINE
  5
894
330
1F
100
AcDbEntity
  8
SK2
  6
CONTINUOUS
370
25
 62
7
100
AcDbLine
 10
-31.3397726789604
 20
13.20795453579208
 30
0.0
 11
-30.3
 21
14.24772721475248
 31
0.0
  0
LINE
  5
895
330
1F
100
AcDbEntity
  8
SK2
  6
CONTINUOUS
370
25
 62
7
100
AcDbLine
 10
-31.69332606955367
 20
13.27866521391073
 30
0.0
 11
-30.3
 21
14.67199128346441
 31
0.0
  0
LINE
  5
896
330
1F
100
AcDbEntity
  8
SK2
  6
CONTINUOUS
370
25
 62
7
100
AcDbLine
 10
-32.04687946014695
 20
13.34937589202939
 30
0.0
 11
-30.42031919022042
 21
14.97593616195592
 31
0.0
  0
LINE
  5
897
330
1F
100
AcDbEntity
  8
SK2
  6
CONTINUOUS
370
25
 62
7
100
AcDbLine
 10
-32.40043285074022
 20
13.42008657014804
 30
0.0
 11
-30.95064927611033
 21
14.86987014477793
 31
0.0
  0
LINE
  5
898
330
1F
100
AcDbEntity
  8
SK2
  6
CONTINUOUS
370
25
 62
7
100
AcDbLine
 10
-32.7539862413335
 20
13.4907972482667
 30
0.0
 11
-31.48097936200025
 21
14.76380412759994
 31
0.0
  0
LINE
  5
899
330
1F
100
AcDbEntity
  8
SK2
  6
CONTINUOUS
370
25
 62
7
100
AcDbLine
 10
-33.10753963192678
 20
13.56150792638535
 30
0.0
 11
-32.01130944789016
 21
14.65773811042197
 31
0.0
  0
LINE
  5
89A
330
1F
100
AcDbEntity
  8
SK2
  6
CONTINUOUS
370
25
 62
7
100
AcDbLine
 10
-33.46109302252005
 20
13.63221860450401
 30
0.0
 11
-32.54163953378008
 21
14.55167209324398
 31
0.0
  0
LINE
  5
89B
330
1F
100
AcDbEntity
  8
SK2
  6
CONTINUOUS
370
25
 62
7
100
AcDbLine
 10
-33.81464641311332
 20
13.70292928262267
 30
0.0
 11
-33.07196961966999
 21
14.445606076066
 31
0.0
  0
LINE
  5
89C
330
1F
100
AcDbEntity
  8
SK2
  6
CONTINUOUS
370
25
 62
7
100
AcDbLine
 10
-34.1681998037066
 20
13.77363996074132
 30
0.0
 11
-33.6022997055599
 21
14.33954005888802
 31
0.0
  0
LINE
  5
89D
330
1F
100
AcDbEntity
  8
SK2
  6
CONTINUOUS
370
25
 62
7
100
AcDbLine
 10
-34.52175319429988
 20
13.84435063885997
 30
0.0
 11
-34.13262979144981
 21
14.23347404171004
 31
0.0
  0
LINE
  5
89E
330
1F
100
AcDbEntity
  8
SK2
  6
CONTINUOUS
370
25
 62
7
100
AcDbLine
 10
-34.87530658489316
 20
13.91506131697862
 30
0.0
 11
-34.66295987733973
 21
14.12740802453205
 31
0.0
  0
LINE
  5
89F
330
1F
100
AcDbEntity
  8
SK2
  6
CONTINUOUS
370
25
 62
7
100
AcDbLine
 10
-35.22885997548643
 20
13.98577199509728
 30
0.0
 11
-35.19328996322965
 21
14.02134200735406
 31
0.0
  0
LINE
  5
8A0
330
1F
100
AcDbEntity
  8
SK2
  6
CONTINUOUS
370
25
 62
7
100
AcDbLine
 10
-35.00481200557072
 20
14.05903759888585
 30
0.0
 11
-34.85721800835609
 21
13.91144360167122
 31
0.0
  0
LINE
  5
8A1
330
1F
100
AcDbEntity
  8
SK2
  6
CONTINUOUS
370
25
 62
7
100
AcDbLine
 10
-34.65125861497744
 20
14.12974827700451
 30
0.0
 11
-34.32688792246617
 21
13.80537758449323
 31
0.0
  0
LINE
  5
8A2
330
1F
100
AcDbEntity
  8
SK2
  6
CONTINUOUS
370
25
 62
7
100
AcDbLine
 10
-34.29770522438417
 20
14.20045895512317
 30
0.0
 11
-33.79655783657626
 21
13.69931156731525
 31
0.0
  0
LINE
  5
8A3
330
1F
100
AcDbEntity
  8
SK2
  6
CONTINUOUS
370
25
 62
7
100
AcDbLine
 10
-33.9441518337909
 20
14.27116963324182
 30
0.0
 11
-33.26622775068635
 21
13.59324555013727
 31
0.0
  0
LINE
  5
8A4
330
1F
100
AcDbEntity
  8
SK2
  6
CONTINUOUS
370
25
 62
7
100
AcDbLine
 10
-33.59059844319762
 20
14.34188031136048
 30
0.0
 11
-32.73589766479644
 21
13.48717953295929
 31
0.0
  0
LINE
  5
8A5
330
1F
100
AcDbEntity
  8
SK2
  6
CONTINUOUS
370
25
 62
7
100
AcDbLine
 10
-33.23704505260434
 20
14.41259098947913
 30
0.0
 11
-32.20556757890652
 21
13.3811135157813
 31
0.0
  0
LINE
  5
8A6
330
1F
100
AcDbEntity
  8
SK2
  6
CONTINUOUS
370
25
 62
7
100
AcDbLine
 10
-32.88349166201107
 20
14.48330166759779
 30
0.0
 11
-31.67523749301661
 21
13.27504749860332
 31
0.0
  0
LINE
  5
8A7
330
1F
100
AcDbEntity
  8
SK2
  6
CONTINUOUS
370
25
 62
7
100
AcDbLine
 10
-32.52993827141781
 20
14.55401234571644
 30
0.0
 11
-31.14490740712671
 21
13.16898148142534
 31
0.0
  0
LINE
  5
8A8
330
1F
100
AcDbEntity
  8
SK2
  6
CONTINUOUS
370
25
 62
7
100
AcDbLine
 10
-32.17638488082452
 20
14.62472302383509
 30
0.0
 11
-30.6145773212368
 21
13.06291546424736
 31
0.0
  0
LINE
  5
8A9
330
1F
100
AcDbEntity
  8
SK2
  6
CONTINUOUS
370
25
 62
7
100
AcDbLine
 10
-31.82283149023125
 20
14.69543370195375
 30
0.0
 11
-30.3
 21
13.17260221172249
 31
0.0
  0
LINE
  5
8AA
330
1F
100
AcDbEntity
  8
SK2
  6
CONTINUOUS
370
25
 62
7
100
AcDbLine
 10
-31.46927809963798
 20
14.76614438007241
 30
0.0
 11
-30.3
 21
13.59686628043442
 31
0.0
  0
LINE
  5
8AB
330
1F
100
AcDbEntity
  8
SK2
  6
CONTINUOUS
370
25
 62
7
100
AcDbLine
 10
-31.1157247090447
 20
14.83685505819106
 30
0.0
 11
-30.3
 21
14.02113034914635
 31
0.0
  0
LINE
  5
8AC
330
1F
100
AcDbEntity
  8
SK2
  6
CONTINUOUS
370
25
 62
7
100
AcDbLine
 10
-30.76217131845143
 20
14.90756573630972
 30
0.0
 11
-30.3
 21
14.44539441785828
 31
0.0
  0
LINE
  5
8AD
330
1F
100
AcDbEntity
  8
SK2
  6
CONTINUOUS
370
25
 62
7
100
AcDbLine
 10
-30.40861792785816
 20
14.97827641442837
 30
0.0
 11
-30.3
 21
14.86965848657021
 31
0.0
  0
LINE
  5
8AE
330
1F
100
AcDbEntity
  8
SK2
  6
CONTINUOUS
370
25
 62
7
100
AcDbLine
 10
0.0
 20
14.0
 30
0.0
 11
-5.0
 21
13.0
 31
0.0
  0
LINE
  5
8AF
330
1F
100
AcDbEntity
  8
SK2
  6
CONTINUOUS
370
25
 62
7
100
AcDbLine
 10
-5.0
 20
13.0
 30
0.0
 11
-5.0
 21
15.0
 31
0.0
  0
LINE
  5
8B0
330
1F
100
AcDbEntity
  8
SK2
  6
CONTINUOUS
370
25
 62
7
100
AcDbLine
 10
-5.0
 20
15.0
 30
0.0
 11
0.0
 21
14.0
 31
0.0
  0
LINE
  5
8B1
330
1F
100
AcDbEntity
  8
SK2
  6
CONTINUOUS
370
25
 62
7
100
AcDbLine
 10
-0.00089283436705
 20
13.99982143312659
 30
0.0
 11
-0.0005952229113667
 21
14.00011904458227
 31
0.0
  0
LINE
  5
8B2
330
1F
100
AcDbEntity
  8
SK2
  6
CONTINUOUS
370
25
 62
7
100
AcDbLine
 10
-0.5312229202569596
 20
13.89375541594861
 30
0.0
 11
-0.3541486135046398
 21
14.07082972270093
 31
0.0
  0
LINE
  5
8B3
330
1F
100
AcDbEntity
  8
SK2
  6
CONTINUOUS
370
25
 62
7
100
AcDbLine
 10
-1.061553006146869
 20
13.78768939877063
 30
0.0
 11
-0.7077020040979128
 21
14.14154040081958
 31
0.0
  0
LINE
  5
8B4
330
1F
100
AcDbEntity
  8
SK2
  6
CONTINUOUS
370
25
 62
7
100
AcDbLine
 10
-1.591883092036781
 20
13.68162338159264
 30
0.0
 11
-1.061255394691187
 21
14.21225107893824
 31
0.0
  0
LINE
  5
8B5
330
1F
100
AcDbEntity
  8
SK2
  6
CONTINUOUS
370
25
 62
7
100
AcDbLine
 10
-2.12221317792669
 20
13.57555736441466
 30
0.0
 11
-1.41480878528446
 21
14.28296175705689
 31
0.0
  0
LINE
  5
8B6
330
1F
100
AcDbEntity
  8
SK2
  6
CONTINUOUS
370
25
 62
7
100
AcDbLine
 10
-2.652543263816599
 20
13.46949134723668
 30
0.0
 11
-1.768362175877733
 21
14.35367243517555
 31
0.0
  0
LINE
  5
8B7
330
1F
100
AcDbEntity
  8
SK2
  6
CONTINUOUS
370
25
 62
7
100
AcDbLine
 10
-3.182873349706508
 20
13.3634253300587
 30
0.0
 11
-2.121915566471006
 21
14.4243831132942
 31
0.0
  0
LINE
  5
8B8
330
1F
100
AcDbEntity
  8
SK2
  6
CONTINUOUS
370
25
 62
7
100
AcDbLine
 10
-3.713203435596417
 20
13.25735931288072
 30
0.0
 11
-2.475468957064279
 21
14.49509379141286
 31
0.0
  0
LINE
  5
8B9
330
1F
100
AcDbEntity
  8
SK2
  6
CONTINUOUS
370
25
 62
7
100
AcDbLine
 10
-4.243533521486326
 20
13.15129329570274
 30
0.0
 11
-2.829022347657552
 21
14.56580446953151
 31
0.0
  0
LINE
  5
8BA
330
1F
100
AcDbEntity
  8
SK2
  6
CONTINUOUS
370
25
 62
7
100
AcDbLine
 10
-4.773863607376236
 20
13.04522727852475
 30
0.0
 11
-3.182575738250825
 21
14.63651514765017
 31
0.0
  0
LINE
  5
8BB
330
1F
100
AcDbEntity
  8
SK2
  6
CONTINUOUS
370
25
 62
7
100
AcDbLine
 10
-5.0
 20
13.24335495461292
 30
0.0
 11
-3.536129128844097
 21
14.70722582576882
 31
0.0
  0
LINE
  5
8BC
330
1F
100
AcDbEntity
  8
SK2
  6
CONTINUOUS
370
25
 62
7
100
AcDbLine
 10
-5.0
 20
13.66761902332485
 30
0.0
 11
-3.889682519437373
 21
14.77793650388747
 31
0.0
  0
LINE
  5
8BD
330
1F
100
AcDbEntity
  8
SK2
  6
CONTINUOUS
370
25
 62
7
100
AcDbLine
 10
-5.0
 20
14.09188309203677
 30
0.0
 11
-4.243235910030646
 21
14.84864718200613
 31
0.0
  0
LINE
  5
8BE
330
1F
100
AcDbEntity
  8
SK2
  6
CONTINUOUS
370
25
 62
7
100
AcDbLine
 10
-5.0
 20
14.5161471607487
 30
0.0
 11
-4.596789300623919
 21
14.91935786012478
 31
0.0
  0
LINE
  5
8BF
330
1F
100
AcDbEntity
  8
SK2
  6
CONTINUOUS
370
25
 62
7
100
AcDbLine
 10
-5.0
 20
14.94041122946063
 30
0.0
 11
-4.950342691217191
 21
14.99006853824344
 31
0.0
  0
LINE
  5
8C0
330
1F
100
AcDbEntity
  8
SK2
  6
CONTINUOUS
370
25
 62
7
100
AcDbLine
 10
-5.0
 20
13.06101730552664
 30
0.0
 11
-4.949152245394465
 21
13.01016955092111
 31
0.0
  0
LINE
  5
8C1
330
1F
100
AcDbEntity
  8
SK2
  6
CONTINUOUS
370
25
 62
7
100
AcDbLine
 10
-5.0
 20
13.48528137423857
 30
0.0
 11
-4.595598854801191
 21
13.08088022903976
 31
0.0
  0
LINE
  5
8C2
330
1F
100
AcDbEntity
  8
SK2
  6
CONTINUOUS
370
25
 62
7
100
AcDbLine
 10
-5.0
 20
13.9095454429505
 30
0.0
 11
-4.242045464207918
 21
13.15159090715842
 31
0.0
  0
LINE
  5
8C3
330
1F
100
AcDbEntity
  8
SK2
  6
CONTINUOUS
370
25
 62
7
100
AcDbLine
 10
-5.0
 20
14.33380951166242
 30
0.0
 11
-3.888492073614645
 21
13.22230158527707
 31
0.0
  0
LINE
  5
8C4
330
1F
100
AcDbEntity
  8
SK2
  6
CONTINUOUS
370
25
 62
7
100
AcDbLine
 10
-5.0
 20
14.75807358037435
 30
0.0
 11
-3.534938683021372
 21
13.29301226339573
 31
0.0
  0
LINE
  5
8C5
330
1F
100
AcDbEntity
  8
SK2
  6
CONTINUOUS
370
25
 62
7
100
AcDbLine
 10
-4.77207793864215
 20
14.95441558772843
 30
0.0
 11
-3.181385292428098
 21
13.36372294151438
 31
0.0
  0
LINE
  5
8C6
330
1F
100
AcDbEntity
  8
SK2
  6
CONTINUOUS
370
25
 62
7
100
AcDbLine
 10
-4.241747852752241
 20
14.84834957055045
 30
0.0
 11
-2.827831901834826
 21
13.43443361963303
 31
0.0
  0
LINE
  5
8C7
330
1F
100
AcDbEntity
  8
SK2
  6
CONTINUOUS
370
25
 62
7
100
AcDbLine
 10
-3.711417766862331
 20
14.74228355337247
 30
0.0
 11
-2.474278511241553
 21
13.50514429775169
 31
0.0
  0
LINE
  5
8C8
330
1F
100
AcDbEntity
  8
SK2
  6
CONTINUOUS
370
25
 62
7
100
AcDbLine
 10
-3.18108768097242
 20
14.63621753619448
 30
0.0
 11
-2.120725120648279
 21
13.57585497587034
 31
0.0
  0
LINE
  5
8C9
330
1F
100
AcDbEntity
  8
SK2
  6
CONTINUOUS
370
25
 62
7
100
AcDbLine
 10
-2.650757595082508
 20
14.5301515190165
 30
0.0
 11
-1.767171730055004
 21
13.646565653989
 31
0.0
  0
LINE
  5
8CA
330
1F
100
AcDbEntity
  8
SK2
  6
CONTINUOUS
370
25
 62
7
100
AcDbLine
 10
-2.120427509192599
 20
14.42408550183852
 30
0.0
 11
-1.413618339461732
 21
13.71727633210765
 31
0.0
  0
LINE
  5
8CB
330
1F
100
AcDbEntity
  8
SK2
  6
CONTINUOUS
370
25
 62
7
100
AcDbLine
 10
-1.590097423302689
 20
14.31801948466054
 30
0.0
 11
-1.060064948868459
 21
13.78798701022631
 31
0.0
  0
LINE
  5
8CC
330
1F
100
AcDbEntity
  8
SK2
  6
CONTINUOUS
370
25
 62
7
100
AcDbLine
 10
-1.059767337412779
 20
14.21195346748256
 30
0.0
 11
-0.706511558275185
 21
13.85869768834496
 31
0.0
  0
LINE
  5
8CD
330
1F
100
AcDbEntity
  8
SK2
  6
CONTINUOUS
370
25
 62
7
100
AcDbLine
 10
-0.5294372515228676
 20
14.10588745030457
 30
0.0
 11
-0.3529581676819114
 21
13.92940836646362
 31
0.0
  0
TEXT
  5
8CE
330
1F
100
AcDbEntity
  8
SK2
  6
CONTINUOUS
370
25
 62
7
100
AcDbText
 10
-22.9
 20
15.5
 30
0.0
 40
3.5
  1
35.3
 72
     1
 11
-17.65
 21
15.5
 31
0.0
100
AcDbText
  0
LINE
  5
8CF
330
1F
100
AcDbEntity
  8
2
  6
CONTINUOUS
370
25
 62
7
100
AcDbLine
 10
9.7
 20
-0.25
 30
0.0
 11
22.7
 21
-0.2500000000000016
 31
0.0
  0
LINE
  5
8D0
330
1F
100
AcDbEntity
  8
2
  6
CONTINUOUS
370
25
 62
7
100
AcDbLine
 10
22.7
 20
0.2499999999999984
 30
0.0
 11
9.7
 21
0.25
 31
0.0
  0
LINE
  5
8D1
330
1F
100
AcDbEntity
  8
2
  6
CONTINUOUS
370
25
 62
7
100
AcDbLine
 10
21.7
 20
-7.250000000000002
 30
0.0
 11
21.7
 21
19.675
 31
0.0
  0
LINE
  5
8D2
330
1F
100
AcDbEntity
  8
2
  6
CONTINUOUS
370
25
 62
7
100
AcDbLine
 10
21.7
 20
-0.2500000000000015
 30
0.0
 11
22.7
 21
-5.250000000000002
 31
0.0
  0
LINE
  5
8D3
330
1F
100
AcDbEntity
  8
2
  6
CONTINUOUS
370
25
 62
7
100
AcDbLine
 10
22.7
 20
-5.250000000000002
 30
0.0
 11
20.7
 21
-5.250000000000002
 31
0.0
  0
LINE
  5
8D4
330
1F
100
AcDbEntity
  8
2
  6
CONTINUOUS
370
25
 62
7
100
AcDbLine
 10
20.7
 20
-5.250000000000002
 30
0.0
 11
21.7
 21
-0.2500000000000015
 31
0.0
  0
LINE
  5
8D5
330
1F
100
AcDbEntity
  8
2
  6
CONTINUOUS
370
25
 62
7
100
AcDbLine
 10
22.32886965085364
 20
-5.25
 30
0.0
 11
22.63814494180894
 21
-4.940724709044698
 31
0.0
  0
LINE
  5
8D6
330
1F
100
AcDbEntity
  8
2
  6
CONTINUOUS
370
25
 62
7
100
AcDbLine
 10
21.90460558214171
 20
-5.25
 30
0.0
 11
22.56743426369028
 21
-4.587171318451428
 31
0.0
  0
LINE
  5
8D7
330
1F
100
AcDbEntity
  8
2
  6
CONTINUOUS
370
25
 62
7
100
AcDbLine
 10
21.48034151342979
 20
-5.25
 30
0.0
 11
22.49672358557163
 21
-4.233617927858155
 31
0.0
  0
LINE
  5
8D8
330
1F
100
AcDbEntity
  8
2
  6
CONTINUOUS
370
25
 62
7
100
AcDbLine
 10
21.05607744471785
 20
-5.250000000000004
 30
0.0
 11
22.42601290745298
 21
-3.880064537264882
 31
0.0
  0
LINE
  5
8D9
330
1F
100
AcDbEntity
  8
2
  6
CONTINUOUS
370
25
 62
7
100
AcDbLine
 10
20.71704665599852
 20
-5.164766720007414
 30
0.0
 11
22.35530222933432
 21
-3.526511146671606
 31
0.0
  0
LINE
  5
8DA
330
1F
100
AcDbEntity
  8
2
  6
CONTINUOUS
370
25
 62
7
100
AcDbLine
 10
20.8231126731765
 20
-4.634436634117503
 30
0.0
 11
22.28459155121567
 21
-3.172957756078333
 31
0.0
  0
LINE
  5
8DB
330
1F
100
AcDbEntity
  8
2
  6
CONTINUOUS
370
25
 62
7
100
AcDbLine
 10
20.92917869035448
 20
-4.104106548227595
 30
0.0
 11
22.21388087309701
 21
-2.819404365485063
 31
0.0
  0
LINE
  5
8DC
330
1F
100
AcDbEntity
  8
2
  6
CONTINUOUS
370
25
 62
7
100
AcDbLine
 10
21.03524470753247
 20
-3.573776462337676
 30
0.0
 11
22.14317019497836
 21
-2.465850974891787
 31
0.0
  0
LINE
  5
8DD
330
1F
100
AcDbEntity
  8
2
  6
CONTINUOUS
370
25
 62
7
100
AcDbLine
 10
21.14131072471045
 20
-3.043446376447768
 30
0.0
 11
22.07245951685971
 21
-2.11229758429851
 31
0.0
  0
LINE
  5
8DE
330
1F
100
AcDbEntity
  8
2
  6
CONTINUOUS
370
25
 62
7
100
AcDbLine
 10
21.24737674188843
 20
-2.513116290557861
 30
0.0
 11
22.00174883874105
 21
-1.758744193705237
 31
0.0
  0
LINE
  5
8DF
330
1F
100
AcDbEntity
  8
2
  6
CONTINUOUS
370
25
 62
7
100
AcDbLine
 10
21.35344275906641
 20
-1.982786204667949
 30
0.0
 11
21.93103816062239
 21
-1.405190803111967
 31
0.0
  0
LINE
  5
8E0
330
1F
100
AcDbEntity
  8
2
  6
CONTINUOUS
370
25
 62
7
100
AcDbLine
 10
21.45950877624439
 20
-1.452456118778038
 30
0.0
 11
21.86032748250374
 21
-1.051637412518694
 31
0.0
  0
LINE
  5
8E1
330
1F
100
AcDbEntity
  8
2
  6
CONTINUOUS
370
25
 62
7
100
AcDbLine
 10
21.56557479342237
 20
-0.92212603288813
 30
0.0
 11
21.78961680438508
 21
-0.6980840219254212
 31
0.0
  0
LINE
  5
8E2
330
1F
100
AcDbEntity
  8
2
  6
CONTINUOUS
370
25
 62
7
100
AcDbLine
 10
21.67164081060035
 20
-0.3917959469982222
 30
0.0
 11
21.71890612626643
 21
-0.3445306313321481
 31
0.0
  0
LINE
  5
8E3
330
1F
100
AcDbEntity
  8
2
  6
CONTINUOUS
370
25
 62
7
100
AcDbLine
 10
20.74129509039023
 20
-5.043524548048833
 30
0.0
 11
20.94777054234141
 21
-5.250000000000004
 31
0.0
  0
LINE
  5
8E4
330
1F
100
AcDbEntity
  8
2
  6
CONTINUOUS
370
25
 62
7
100
AcDbLine
 10
20.81200576850889
 20
-4.68997115745556
 30
0.0
 11
21.37203461105333
 21
-5.250000000000004
 31
0.0
  0
LINE
  5
8E5
330
1F
100
AcDbEntity
  8
2
  6
CONTINUOUS
370
25
 62
7
100
AcDbLine
 10
20.88271644662754
 20
-4.336417766862287
 30
0.0
 11
21.79629867976526
 21
-5.25
 31
0.0
  0
LINE
  5
8E6
330
1F
100
AcDbEntity
  8
2
  6
CONTINUOUS
370
25
 62
7
100
AcDbLine
 10
20.9534271247462
 20
-3.982864376269013
 30
0.0
 11
22.22056274847719
 21
-5.25
 31
0.0
  0
LINE
  5
8E7
330
1F
100
AcDbEntity
  8
2
  6
CONTINUOUS
370
25
 62
7
100
AcDbLine
 10
21.02413780286485
 20
-3.629310985675737
 30
0.0
 11
22.64482681718911
 21
-5.25
 31
0.0
  0
LINE
  5
8E8
330
1F
100
AcDbEntity
  8
2
  6
CONTINUOUS
370
25
 62
7
100
AcDbLine
 10
21.09484848098351
 20
-3.275757595082467
 30
0.0
 11
22.60772727852474
 21
-4.788636392623701
 31
0.0
  0
LINE
  5
8E9
330
1F
100
AcDbEntity
  8
2
  6
CONTINUOUS
370
25
 62
7
100
AcDbLine
 10
21.16555915910216
 20
-2.922204204489194
 30
0.0
 11
22.50166126134676
 21
-4.25830630673379
 31
0.0
  0
LINE
  5
8EA
330
1F
100
AcDbEntity
  8
2
  6
CONTINUOUS
370
25
 62
7
100
AcDbLine
 10
21.23626983722082
 20
-2.568650813895921
 30
0.0
 11
22.39559524416878
 21
-3.727976220843882
 31
0.0
  0
LINE
  5
8EB
330
1F
100
AcDbEntity
  8
2
  6
CONTINUOUS
370
25
 62
7
100
AcDbLine
 10
21.30698051533947
 20
-2.215097423302641
 30
0.0
 11
22.2895292269908
 21
-3.19764613495397
 31
0.0
  0
LINE
  5
8EC
330
1F
100
AcDbEntity
  8
2
  6
CONTINUOUS
370
25
 62
7
100
AcDbLine
 10
21.37769119345813
 20
-1.861544032709372
 30
0.0
 11
22.18346320981281
 21
-2.667316049064059
 31
0.0
  0
LINE
  5
8ED
330
1F
100
AcDbEntity
  8
2
  6
CONTINUOUS
370
25
 62
7
100
AcDbLine
 10
21.44840187157678
 20
-1.507990642116098
 30
0.0
 11
22.07739719263483
 21
-2.136985963174148
 31
0.0
  0
LINE
  5
8EE
330
1F
100
AcDbEntity
  8
2
  6
CONTINUOUS
370
25
 62
7
100
AcDbLine
 10
21.51911254969544
 20
-1.154437251522825
 30
0.0
 11
21.97133117545685
 21
-1.60665587728424
 31
0.0
  0
LINE
  5
8EF
330
1F
100
AcDbEntity
  8
2
  6
CONTINUOUS
370
25
 62
7
100
AcDbLine
 10
21.58982322781409
 20
-0.8008838609295488
 30
0.0
 11
21.86526515827887
 21
-1.076325791394332
 31
0.0
  0
LINE
  5
8F0
330
1F
100
AcDbEntity
  8
2
  6
CONTINUOUS
370
25
 62
7
100
AcDbLine
 10
21.66053390593274
 20
-0.4473304703362793
 30
0.0
 11
21.75919914110088
 21
-0.5459957055044136
 31
0.0
  0
LINE
  5
8F1
330
1F
100
AcDbEntity
  8
2
  6
CONTINUOUS
370
25
 62
7
100
AcDbLine
 10
21.7
 20
0.2499999999999985
 30
0.0
 11
20.7
 21
5.249999999999998
 31
0.0
  0
LINE
  5
8F2
330
1F
100
AcDbEntity
  8
2
  6
CONTINUOUS
370
25
 62
7
100
AcDbLine
 10
20.7
 20
5.249999999999998
 30
0.0
 11
22.7
 21
5.249999999999998
 31
0.0
  0
LINE
  5
8F3
330
1F
100
AcDbEntity
  8
2
  6
CONTINUOUS
370
25
 62
7
100
AcDbLine
 10
22.7
 20
5.249999999999998
 30
0.0
 11
21.7
 21
0.2499999999999985
 31
0.0
  0
LINE
  5
8F4
330
1F
100
AcDbEntity
  8
2
  6
CONTINUOUS
370
25
 62
7
100
AcDbLine
 10
21.66596240111414
 20
0.4201879944292912
 30
0.0
 11
21.75105639832879
 21
0.5052819916439368
 31
0.0
  0
LINE
  5
8F5
330
1F
100
AcDbEntity
  8
2
  6
CONTINUOUS
370
25
 62
7
100
AcDbLine
 10
21.59525172299549
 20
0.7737413850225607
 30
0.0
 11
21.85712241550677
 21
1.035612077533848
 31
0.0
  0
LINE
  5
8F6
330
1F
100
AcDbEntity
  8
2
  6
CONTINUOUS
370
25
 62
7
100
AcDbLine
 10
21.52454104487683
 20
1.127294775615837
 30
0.0
 11
21.96318843268475
 21
1.56594216342376
 31
0.0
  0
LINE
  5
8F7
330
1F
100
AcDbEntity
  8
2
  6
CONTINUOUS
370
25
 62
7
100
AcDbLine
 10
21.45383036675818
 20
1.480848166209114
 30
0.0
 11
22.06925444986274
 21
2.096272249313671
 31
0.0
  0
LINE
  5
8F8
330
1F
100
AcDbEntity
  8
2
  6
CONTINUOUS
370
25
 62
7
100
AcDbLine
 10
21.38311968863952
 20
1.834401556802387
 30
0.0
 11
22.17532046704072
 21
2.626602335203579
 31
0.0
  0
LINE
  5
8F9
330
1F
100
AcDbEntity
  8
2
  6
CONTINUOUS
370
25
 62
7
100
AcDbLine
 10
21.31240901052087
 20
2.18795494739566
 30
0.0
 11
22.2813864842187
 21
3.156932421093487
 31
0.0
  0
LINE
  5
8FA
330
1F
100
AcDbEntity
  8
2
  6
CONTINUOUS
370
25
 62
7
100
AcDbLine
 10
21.24169833240222
 20
2.541508337988933
 30
0.0
 11
22.38745250139668
 21
3.687262506983394
 31
0.0
  0
LINE
  5
8FB
330
1F
100
AcDbEntity
  8
2
  6
CONTINUOUS
370
25
 62
7
100
AcDbLine
 10
21.17098765428356
 20
2.895061728582203
 30
0.0
 11
22.49351851857466
 21
4.217592592873302
 31
0.0
  0
LINE
  5
8FC
330
1F
100
AcDbEntity
  8
2
  6
CONTINUOUS
370
25
 62
7
100
AcDbLine
 10
21.10027697616491
 20
3.248615119175476
 30
0.0
 11
22.59958453575264
 21
4.747922678763214
 31
0.0
  0
LINE
  5
8FD
330
1F
100
AcDbEntity
  8
2
  6
CONTINUOUS
370
25
 62
7
100
AcDbLine
 10
21.02956629804625
 20
3.602168509768752
 30
0.0
 11
22.6773977882775
 21
5.25
 31
0.0
  0
LINE
  5
8FE
330
1F
100
AcDbEntity
  8
2
  6
CONTINUOUS
370
25
 62
7
100
AcDbLine
 10
20.9588556199276
 20
3.955721900362025
 30
0.0
 11
22.25313371956557
 21
5.25
 31
0.0
  0
LINE
  5
8FF
330
1F
100
AcDbEntity
  8
2
  6
CONTINUOUS
370
25
 62
7
100
AcDbLine
 10
20.88814494180894
 20
4.309275290955295
 30
0.0
 11
21.82886965085364
 21
5.249999999999996
 31
0.0
  0
LINE
  5
900
330
1F
100
AcDbEntity
  8
2
  6
CONTINUOUS
370
25
 62
7
100
AcDbLine
 10
20.81743426369029
 20
4.662828681548568
 30
0.0
 11
21.40460558214172
 21
5.25
 31
0.0
  0
LINE
  5
901
330
1F
100
AcDbEntity
  8
2
  6
CONTINUOUS
370
25
 62
7
100
AcDbLine
 10
20.74672358557163
 20
5.016382072141839
 30
0.0
 11
20.98034151342979
 21
5.249999999999998
 31
0.0
  0
LINE
  5
902
330
1F
100
AcDbEntity
  8
2
  6
CONTINUOUS
370
25
 62
7
100
AcDbLine
 10
21.67206710674492
 20
0.3896644662753985
 30
0.0
 11
21.71862192883672
 21
0.3431096441836026
 31
0.0
  0
LINE
  5
903
330
1F
100
AcDbEntity
  8
2
  6
CONTINUOUS
370
25
 62
7
100
AcDbLine
 10
21.56600108956694
 20
0.9199945521653063
 30
0.0
 11
21.78933260695537
 21
0.6966630347768756
 31
0.0
  0
LINE
  5
904
330
1F
100
AcDbEntity
  8
2
  6
CONTINUOUS
370
25
 62
7
100
AcDbLine
 10
21.45993507238896
 20
1.450324638055214
 30
0.0
 11
21.86004328507403
 21
1.050216425370142
 31
0.0
  0
LINE
  5
905
330
1F
100
AcDbEntity
  8
2
  6
CONTINUOUS
370
25
 62
7
100
AcDbLine
 10
21.35386905521097
 20
1.980654723945129
 30
0.0
 11
21.93075396319269
 21
1.403769815963418
 31
0.0
  0
LINE
  5
906
330
1F
100
AcDbEntity
  8
2
  6
CONTINUOUS
370
25
 62
7
100
AcDbLine
 10
21.24780303803299
 20
2.510984809835037
 30
0.0
 11
22.00146464131134
 21
1.757323206556695
 31
0.0
  0
LINE
  5
907
330
1F
100
AcDbEntity
  8
2
  6
CONTINUOUS
370
25
 62
7
100
AcDbLine
 10
21.14173702085501
 20
3.041314895724948
 30
0.0
 11
22.07217531942999
 21
2.110876597149968
 31
0.0
  0
LINE
  5
908
330
1F
100
AcDbEntity
  8
2
  6
CONTINUOUS
370
25
 62
7
100
AcDbLine
 10
21.03567100367703
 20
3.57164498161486
 30
0.0
 11
22.14288599754865
 21
2.464429987743237
 31
0.0
  0
LINE
  5
909
330
1F
100
AcDbEntity
  8
2
  6
CONTINUOUS
370
25
 62
7
100
AcDbLine
 10
20.92960498649905
 20
4.101975067504771
 30
0.0
 11
22.2135966756673
 21
2.817983378336514
 31
0.0
  0
LINE
  5
90A
330
1F
100
AcDbEntity
  8
2
  6
CONTINUOUS
370
25
 62
7
100
AcDbLine
 10
20.82353896932106
 20
4.632305153394682
 30
0.0
 11
22.28430735378596
 21
3.171536768929791
 31
0.0
  0
LINE
  5
90B
330
1F
100
AcDbEntity
  8
2
  6
CONTINUOUS
370
25
 62
7
100
AcDbLine
 10
20.71747295214308
 20
5.16263523928459
 30
0.0
 11
22.35501803190461
 21
3.52509015952306
 31
0.0
  0
LINE
  5
90C
330
1F
100
AcDbEntity
  8
2
  6
CONTINUOUS
370
25
 62
7
100
AcDbLine
 10
21.0543722601396
 20
5.249999999999996
 30
0.0
 11
22.42572871002327
 21
3.878643550116333
 31
0.0
  0
LINE
  5
90D
330
1F
100
AcDbEntity
  8
2
  6
CONTINUOUS
370
25
 62
7
100
AcDbLine
 10
21.47863632885153
 20
5.25
 30
0.0
 11
22.49643938814192
 21
4.232196940709606
 31
0.0
  0
LINE
  5
90E
330
1F
100
AcDbEntity
  8
2
  6
CONTINUOUS
370
25
 62
7
100
AcDbLine
 10
21.90290039756346
 20
5.25
 30
0.0
 11
22.56715006626057
 21
4.585750331302883
 31
0.0
  0
LINE
  5
90F
330
1F
100
AcDbEntity
  8
2
  6
CONTINUOUS
370
25
 62
7
100
AcDbLine
 10
22.32716446627538
 20
5.25
 30
0.0
 11
22.63786074437923
 21
4.939303721896156
 31
0.0
  0
TEXT
  5
910
330
1F
100
AcDbEntity
  8
2
  6
CONTINUOUS
370
25
 62
7
100
AcDbText
 10
20.2
 20
11.52916666666666
 30
0.0
 40
3.5
  1
0.5
 50
90.00000000000001
 72
     1
 11
20.2
 21
14.7375
 31
0.0
100
AcDbText
  0
CIRCLE
  5
911
330
1F
100
AcDbEntity
  8
2
  6
CONTINUOUS
370
25
 62
7
100
AcDbCircle
 10
18.45
 20
8.262499999999996
 30
0.0
 40
1.4
  0
LINE
  5
912
330
1F
100
AcDbEntity
  8
2
  6
CONTINUOUS
370
25
 62
7
100
AcDbLine
 10
19.85
 20
6.862499999999996
 30
0.0
 11
17.05
 21
9.662499999999996
 31
0.0
  0
LINE
  5
913
330
1F
100
AcDbEntity
  8
2
  6
CONTINUOUS
370
25
 62
7
100
AcDbLine
 10
7.2
 20
-0.25
 30
0.0
 11
7.199999999999998
 21
-23.25
 31
0.0
  0
LINE
  5
914
330
1F
100
AcDbEntity
  8
2
  6
CONTINUOUS
370
25
 62
7
100
AcDbLine
 10
9.7
 20
-23.25
 30
0.0
 11
9.700000000000001
 21
1.749949999999998
 31
0.0
  0
LINE
  5
915
330
1F
100
AcDbEntity
  8
2
  6
CONTINUOUS
370
25
 62
7
100
AcDbLine
 10
0.1999999999999984
 20
-22.25
 30
0.0
 11
25.625
 21
-22.25
 31
0.0
  0
LINE
  5
916
330
1F
100
AcDbEntity
  8
2
  6
CONTINUOUS
370
25
 62
7
100
AcDbLine
 10
7.199999999999998
 20
-22.25
 30
0.0
 11
2.199999999999998
 21
-23.25
 31
0.0
  0
LINE
  5
917
330
1F
100
AcDbEntity
  8
2
  6
CONTINUOUS
370
25
 62
7
100
AcDbLine
 10
2.199999999999998
 20
-23.25
 30
0.0
 11
2.199999999999998
 21
-21.25
 31
0.0
  0
LINE
  5
918
330
1F
100
AcDbEntity
  8
2
  6
CONTINUOUS
370
25
 62
7
100
AcDbLine
 10
2.199999999999998
 20
-21.25
 30
0.0
 11
7.199999999999998
 21
-22.25
 31
0.0
  0
LINE
  5
919
330
1F
100
AcDbEntity
  8
2
  6
CONTINUOUS
370
25
 62
7
100
AcDbLine
 10
6.868446376447771
 20
-22.31631072471045
 30
0.0
 11
6.978964250965182
 21
-22.20579285019303
 31
0.0
  0
LINE
  5
91A
330
1F
100
AcDbEntity
  8
2
  6
CONTINUOUS
370
25
 62
7
100
AcDbLine
 10
6.338116290557859
 20
-22.42237674188843
 30
0.0
 11
6.625410860371908
 21
-22.13508217207438
 31
0.0
  0
LINE
  5
91B
330
1F
100
AcDbEntity
  8
2
  6
CONTINUOUS
370
25
 62
7
100
AcDbLine
 10
5.807786204667948
 20
-22.52844275906641
 30
0.0
 11
6.271857469778634
 21
-22.06437149395573
 31
0.0
  0
LINE
  5
91C
330
1F
100
AcDbEntity
  8
2
  6
CONTINUOUS
370
25
 62
7
100
AcDbLine
 10
5.277456118778039
 20
-22.63450877624439
 30
0.0
 11
5.918304079185361
 21
-21.99366081583707
 31
0.0
  0
LINE
  5
91D
330
1F
100
AcDbEntity
  8
2
  6
CONTINUOUS
370
25
 62
7
100
AcDbLine
 10
4.747126032888128
 20
-22.74057479342238
 30
0.0
 11
5.564750688592087
 21
-21.92295013771842
 31
0.0
  0
LINE
  5
91E
330
1F
100
AcDbEntity
  8
2
  6
CONTINUOUS
370
25
 62
7
100
AcDbLine
 10
4.21679594699822
 20
-22.84664081060036
 30
0.0
 11
5.211197297998815
 21
-21.85223945959976
 31
0.0
  0
LINE
  5
91F
330
1F
100
AcDbEntity
  8
2
  6
CONTINUOUS
370
25
 62
7
100
AcDbLine
 10
3.68646586110831
 20
-22.95270682777834
 30
0.0
 11
4.857643907405542
 21
-21.78152878148111
 31
0.0
  0
LINE
  5
920
330
1F
100
AcDbEntity
  8
2
  6
CONTINUOUS
370
25
 62
7
100
AcDbLine
 10
3.156135775218399
 20
-23.05877284495632
 30
0.0
 11
4.504090516812269
 21
-21.71081810336245
 31
0.0
  0
LINE
  5
921
330
1F
100
AcDbEntity
  8
2
  6
CONTINUOUS
370
25
 62
7
100
AcDbLine
 10
2.625805689328489
 20
-23.1648388621343
 30
0.0
 11
4.150537126218995
 21
-21.6401074252438
 31
0.0
  0
LINE
  5
922
330
1F
100
AcDbEntity
  8
2
  6
CONTINUOUS
370
25
 62
7
100
AcDbLine
 10
2.199999999999998
 20
-23.16638048275087
 30
0.0
 11
3.796983735625723
 21
-21.56939674712514
 31
0.0
  0
LINE
  5
923
330
1F
100
AcDbEntity
  8
2
  6
CONTINUOUS
370
25
 62
7
100
AcDbLine
 10
2.199999999999998
 20
-22.74211641403894
 30
0.0
 11
3.443430345032449
 21
-21.49868606900649
 31
0.0
  0
LINE
  5
924
330
1F
100
AcDbEntity
  8
2
  6
CONTINUOUS
370
25
 62
7
100
AcDbLine
 10
2.199999999999998
 20
-22.31785234532701
 30
0.0
 11
3.089876954439176
 21
-21.42797539088783
 31
0.0
  0
LINE
  5
925
330
1F
100
AcDbEntity
  8
2
  6
CONTINUOUS
370
25
 62
7
100
AcDbLine
 10
2.199999999999998
 20
-21.89358827661508
 30
0.0
 11
2.736323563845903
 21
-21.35726471276918
 31
0.0
  0
LINE
  5
926
330
1F
100
AcDbEntity
  8
2
  6
CONTINUOUS
370
25
 62
7
100
AcDbLine
 10
2.199999999999998
 20
-21.46932420790316
 30
0.0
 11
2.38277017325263
 21
-21.28655403465052
 31
0.0
  0
LINE
  5
927
330
1F
100
AcDbEntity
  8
2
  6
CONTINUOUS
370
25
 62
7
100
AcDbLine
 10
2.199999999999998
 20
-23.19135881895644
 30
0.0
 11
2.248867650869632
 21
-23.24022646982608
 31
0.0
  0
LINE
  5
928
330
1F
100
AcDbEntity
  8
2
  6
CONTINUOUS
370
25
 62
7
100
AcDbLine
 10
2.199999999999998
 20
-22.76709475024451
 30
0.0
 11
2.602421041462906
 21
-23.16951579170742
 31
0.0
  0
LINE
  5
929
330
1F
100
AcDbEntity
  8
2
  6
CONTINUOUS
370
25
 62
7
100
AcDbLine
 10
2.199999999999998
 20
-22.34283068153259
 30
0.0
 11
2.955974432056179
 21
-23.09880511358877
 31
0.0
  0
LINE
  5
92A
330
1F
100
AcDbEntity
  8
2
  6
CONTINUOUS
370
25
 62
7
100
AcDbLine
 10
2.199999999999998
 20
-21.91856661282066
 30
0.0
 11
3.309527822649452
 21
-23.02809443547011
 31
0.0
  0
LINE
  5
92B
330
1F
100
AcDbEntity
  8
2
  6
CONTINUOUS
370
25
 62
7
100
AcDbLine
 10
2.199999999999998
 20
-21.49430254410873
 30
0.0
 11
3.663081213242725
 21
-22.95738375735146
 31
0.0
  0
LINE
  5
92C
330
1F
100
AcDbEntity
  8
2
  6
CONTINUOUS
370
25
 62
7
100
AcDbLine
 10
2.424951905753992
 20
-21.2949903811508
 30
0.0
 11
4.016634603835999
 21
-22.8866730792328
 31
0.0
  0
LINE
  5
92D
330
1F
100
AcDbEntity
  8
2
  6
CONTINUOUS
370
25
 62
7
100
AcDbLine
 10
2.955281991643903
 20
-21.40105639832878
 30
0.0
 11
4.370187994429272
 21
-22.81596240111415
 31
0.0
  0
LINE
  5
92E
330
1F
100
AcDbEntity
  8
2
  6
CONTINUOUS
370
25
 62
7
100
AcDbLine
 10
3.485612077533813
 20
-21.50712241550676
 30
0.0
 11
4.723741385022546
 21
-22.74525172299549
 31
0.0
  0
LINE
  5
92F
330
1F
100
AcDbEntity
  8
2
  6
CONTINUOUS
370
25
 62
7
100
AcDbLine
 10
4.015942163423723
 20
-21.61318843268474
 30
0.0
 11
5.077294775615819
 21
-22.67454104487684
 31
0.0
  0
LINE
  5
930
330
1F
100
AcDbEntity
  8
2
  6
CONTINUOUS
370
25
 62
7
100
AcDbLine
 10
4.546272249313634
 20
-21.71925444986272
 30
0.0
 11
5.430848166209093
 21
-22.60383036675818
 31
0.0
  0
LINE
  5
931
330
1F
100
AcDbEntity
  8
2
  6
CONTINUOUS
370
25
 62
7
100
AcDbLine
 10
5.076602335203544
 20
-21.82532046704071
 30
0.0
 11
5.784401556802365
 21
-22.53311968863953
 31
0.0
  0
LINE
  5
932
330
1F
100
AcDbEntity
  8
2
  6
CONTINUOUS
370
25
 62
7
100
AcDbLine
 10
5.606932421093454
 20
-21.93138648421869
 30
0.0
 11
6.137954947395638
 21
-22.46240901052087
 31
0.0
  0
LINE
  5
933
330
1F
100
AcDbEntity
  8
2
  6
CONTINUOUS
370
25
 62
7
100
AcDbLine
 10
6.137262506983364
 20
-22.03745250139667
 30
0.0
 11
6.491508337988911
 21
-22.39169833240222
 31
0.0
  0
LINE
  5
934
330
1F
100
AcDbEntity
  8
2
  6
CONTINUOUS
370
25
 62
7
100
AcDbLine
 10
6.667592592873275
 20
-22.14351851857465
 30
0.0
 11
6.845061728582185
 21
-22.32098765428356
 31
0.0
  0
LINE
  5
935
330
1F
100
AcDbEntity
  8
2
  6
CONTINUOUS
370
25
 62
7
100
AcDbLine
 10
7.197922678763185
 20
-22.24958453575264
 30
0.0
 11
7.198615119175458
 21
-22.25027697616491
 31
0.0
  0
LINE
  5
936
330
1F
100
AcDbEntity
  8
2
  6
CONTINUOUS
370
25
 62
7
100
AcDbLine
 10
9.7
 20
-22.25
 30
0.0
 11
14.7
 21
-21.25
 31
0.0
  0
LINE
  5
937
330
1F
100
AcDbEntity
  8
2
  6
CONTINUOUS
370
25
 62
7
100
AcDbLine
 10
14.7
 20
-21.25
 30
0.0
 11
14.7
 21
-23.25
 31
0.0
  0
LINE
  5
938
330
1F
100
AcDbEntity
  8
2
  6
CONTINUOUS
370
25
 62
7
100
AcDbLine
 10
14.7
 20
-23.25
 30
0.0
 11
9.7
 21
-22.25
 31
0.0
  0
LINE
  5
939
330
1F
100
AcDbEntity
  8
2
  6
CONTINUOUS
370
25
 62
7
100
AcDbLine
 10
14.59233005873273
 20
-23.22846601174654
 30
0.0
 11
14.7
 21
-23.12079607047927
 31
0.0
  0
LINE
  5
93A
330
1F
100
AcDbEntity
  8
2
  6
CONTINUOUS
370
25
 62
7
100
AcDbLine
 10
14.23877666813945
 20
-23.15775533362789
 30
0.0
 11
14.7
 21
-22.69653200176734
 31
0.0
  0
LINE
  5
93B
330
1F
100
AcDbEntity
  8
2
  6
CONTINUOUS
370
25
 62
7
100
AcDbLine
 10
13.88522327754618
 20
-23.08704465550924
 30
0.0
 11
14.7
 21
-22.27226793305541
 31
0.0
  0
LINE
  5
93C
330
1F
100
AcDbEntity
  8
2
  6
CONTINUOUS
370
25
 62
7
100
AcDbLine
 10
13.53166988695291
 20
-23.01633397739058
 30
0.0
 11
14.7
 21
-21.84800386434349
 31
0.0
  0
LINE
  5
93D
330
1F
100
AcDbEntity
  8
2
  6
CONTINUOUS
370
25
 62
7
100
AcDbLine
 10
13.17811649635963
 20
-22.94562329927193
 30
0.0
 11
14.7
 21
-21.42373979563156
 31
0.0
  0
LINE
  5
93E
330
1F
100
AcDbEntity
  8
2
  6
CONTINUOUS
370
25
 62
7
100
AcDbLine
 10
12.82456310576636
 20
-22.87491262115327
 30
0.0
 11
14.38684465864954
 21
-21.31263106827009
 31
0.0
  0
LINE
  5
93F
330
1F
100
AcDbEntity
  8
2
  6
CONTINUOUS
370
25
 62
7
100
AcDbLine
 10
12.47100971517309
 20
-22.80420194303462
 30
0.0
 11
13.85651457275963
 21
-21.41869708544808
 31
0.0
  0
LINE
  5
940
330
1F
100
AcDbEntity
  8
2
  6
CONTINUOUS
370
25
 62
7
100
AcDbLine
 10
12.11745632457981
 20
-22.73349126491596
 30
0.0
 11
13.32618448686972
 21
-21.52476310262606
 31
0.0
  0
LINE
  5
941
330
1F
100
AcDbEntity
  8
2
  6
CONTINUOUS
370
25
 62
7
100
AcDbLine
 10
11.76390293398654
 20
-22.66278058679731
 30
0.0
 11
12.79585440097981
 21
-21.63082911980404
 31
0.0
  0
LINE
  5
942
330
1F
100
AcDbEntity
  8
2
  6
CONTINUOUS
370
25
 62
7
100
AcDbLine
 10
11.41034954339327
 20
-22.59206990867865
 30
0.0
 11
12.2655243150899
 21
-21.73689513698202
 31
0.0
  0
LINE
  5
943
330
1F
100
AcDbEntity
  8
2
  6
CONTINUOUS
370
25
 62
7
100
AcDbLine
 10
11.0567961528
 20
-22.52135923055999
 30
0.0
 11
11.73519422919999
 21
-21.84296115416
 31
0.0
  0
LINE
  5
944
330
1F
100
AcDbEntity
  8
2
  6
CONTINUOUS
370
25
 62
7
100
AcDbLine
 10
10.70324276220672
 20
-22.45064855244134
 30
0.0
 11
11.20486414331008
 21
-21.94902717133798
 31
0.0
  0
LINE
  5
945
330
1F
100
AcDbEntity
  8
2
  6
CONTINUOUS
370
25
 62
7
100
AcDbLine
 10
10.34968937161345
 20
-22.37993787432269
 30
0.0
 11
10.67453405742017
 21
-22.05509318851597
 31
0.0
  0
LINE
  5
946
330
1F
100
AcDbEntity
  8
2
  6
CONTINUOUS
370
25
 62
7
100
AcDbLine
 10
9.996135981020178
 20
-22.30922719620403
 30
0.0
 11
10.14420397153026
 21
-22.16115920569395
 31
0.0
  0
LINE
  5
947
330
1F
100
AcDbEntity
  8
2
  6
CONTINUOUS
370
25
 62
7
100
AcDbLine
 10
9.862233458637187
 20
-22.21755330827256
 30
0.0
 11
9.943350187955774
 21
-22.29867003759115
 31
0.0
  0
LINE
  5
948
330
1F
100
AcDbEntity
  8
2
  6
CONTINUOUS
370
25
 62
7
100
AcDbLine
 10
10.21578684923046
 20
-22.14684263015391
 30
0.0
 11
10.47368027384569
 21
-22.40473605476913
 31
0.0
  0
LINE
  5
949
330
1F
100
AcDbEntity
  8
2
  6
CONTINUOUS
370
25
 62
7
100
AcDbLine
 10
10.56934023982373
 20
-22.07613195203525
 30
0.0
 11
11.00401035973559
 21
-22.51080207194712
 31
0.0
  0
LINE
  5
94A
330
1F
100
AcDbEntity
  8
2
  6
CONTINUOUS
370
25
 62
7
100
AcDbLine
 10
10.922893630417
 20
-22.0054212739166
 30
0.0
 11
11.5343404456255
 21
-22.6168680891251
 31
0.0
  0
LINE
  5
94B
330
1F
100
AcDbEntity
  8
2
  6
CONTINUOUS
370
25
 62
7
100
AcDbLine
 10
11.27644702101028
 20
-21.93471059579795
 30
0.0
 11
12.06467053151541
 21
-22.72293410630308
 31
0.0
  0
LINE
  5
94C
330
1F
100
AcDbEntity
  8
2
  6
CONTINUOUS
370
25
 62
7
100
AcDbLine
 10
11.63000041160355
 20
-21.86399991767929
 30
0.0
 11
12.59500061740532
 21
-22.82900012348106
 31
0.0
  0
LINE
  5
94D
330
1F
100
AcDbEntity
  8
2
  6
CONTINUOUS
370
25
 62
7
100
AcDbLine
 10
11.98355380219682
 20
-21.79328923956064
 30
0.0
 11
13.12533070329523
 21
-22.93506614065905
 31
0.0
  0
LINE
  5
94E
330
1F
100
AcDbEntity
  8
2
  6
CONTINUOUS
370
25
 62
7
100
AcDbLine
 10
12.3371071927901
 20
-21.72257856144198
 30
0.0
 11
13.65566078918514
 21
-23.04113215783703
 31
0.0
  0
LINE
  5
94F
330
1F
100
AcDbEntity
  8
2
  6
CONTINUOUS
370
25
 62
7
100
AcDbLine
 10
12.69066058338337
 20
-21.65186788332333
 30
0.0
 11
14.18599087507505
 21
-23.14719817501501
 31
0.0
  0
LINE
  5
950
330
1F
100
AcDbEntity
  8
2
  6
CONTINUOUS
370
25
 62
7
100
AcDbLine
 10
13.04421397397665
 20
-21.58115720520468
 30
0.0
 11
14.7
 21
-23.23694323122803
 31
0.0
  0
LINE
  5
951
330
1F
100
AcDbEntity
  8
2
  6
CONTINUOUS
370
25
 62
7
100
AcDbLine
 10
13.39776736456992
 20
-21.51044652708602
 30
0.0
 11
14.7
 21
-22.8126791625161
 31
0.0
  0
LINE
  5
952
330
1F
100
AcDbEntity
  8
2
  6
CONTINUOUS
370
25
 62
7
100
AcDbLine
 10
13.75132075516319
 20
-21.43973584896737
 30
0.0
 11
14.7
 21
-22.38841509380417
 31
0.0
  0
LINE
  5
953
330
1F
100
AcDbEntity
  8
2
  6
CONTINUOUS
370
25
 62
7
100
AcDbLine
 10
14.10487414575646
 20
-21.36902517084871
 30
0.0
 11
14.7
 21
-21.96415102509224
 31
0.0
  0
LINE
  5
954
330
1F
100
AcDbEntity
  8
2
  6
CONTINUOUS
370
25
 62
7
100
AcDbLine
 10
14.45842753634974
 20
-21.29831449273005
 30
0.0
 11
14.7
 21
-21.53988695638031
 31
0.0
  0
TEXT
  5
955
330
1F
100
AcDbEntity
  8
2
  6
CONTINUOUS
370
25
 62
7
100
AcDbText
 10
16.6625
 20
-20.75
 30
0.0
 40
3.5
  1
2.5
 72
     1
 11
20.1625
 21
-20.75
 31
0.0
100
AcDbText
  0
LINE
  5
956
330
1F
100
AcDbEntity
  8
2
  6
CONTINUOUS
370
25
 62
7
100
AcDbLine
 10
-0.0000000000000001
 20
0.0
 30
0.0
 11
0.0000000000000014
 21
24.99995
 31
0.0
  0
LINE
  5
957
330
1F
100
AcDbEntity
  8
2
  6
CONTINUOUS
370
25
 62
7
100
AcDbLine
 10
9.700000000000001
 20
24.99995
 30
0.0
 11
9.7
 21
0.25
 31
0.0
  0
LINE
  5
958
330
1F
100
AcDbEntity
  8
2
  6
CONTINUOUS
370
25
 62
7
100
AcDbLine
 10
-7.0
 20
23.99995
 30
0.0
 11
25.625
 21
23.99995
 31
0.0
  0
LINE
  5
959
330
1F
100
AcDbEntity
  8
2
  6
CONTINUOUS
370
25
 62
7
100
AcDbLine
 10
0.0
 20
23.99995
 30
0.0
 11
-5.0
 21
22.99995
 31
0.0
  0
LINE
  5
95A
330
1F
100
AcDbEntity
  8
2
  6
CONTINUOUS
370
25
 62
7
100
AcDbLine
 10
-5.0
 20
22.99995
 30
0.0
 11
-5.0
 21
24.99995
 31
0.0
  0
LINE
  5
95B
330
1F
100
AcDbEntity
  8
2
  6
CONTINUOUS
370
25
 62
7
100
AcDbLine
 10
-5.0
 20
24.99995
 30
0.0
 11
0.0
 21
23.99995
 31
0.0
  0
LINE
  5
95C
330
1F
100
AcDbEntity
  8
2
  6
CONTINUOUS
370
25
 62
7
100
AcDbLine
 10
-0.2288773957248713
 20
23.95417452085502
 30
0.0
 11
-0.1525849304832476
 21
24.03046698609665
 31
0.0
  0
LINE
  5
95D
330
1F
100
AcDbEntity
  8
2
  6
CONTINUOUS
370
25
 62
7
100
AcDbLine
 10
-0.7592074816147851
 20
23.84810850367704
 30
0.0
 11
-0.5061383210765235
 21
24.1011776642153
 31
0.0
  0
LINE
  5
95E
330
1F
100
AcDbEntity
  8
2
  6
CONTINUOUS
370
25
 62
7
100
AcDbLine
 10
-1.289537567504695
 20
23.74204248649906
 30
0.0
 11
-0.8596917116697965
 21
24.17188834233396
 31
0.0
  0
LINE
  5
95F
330
1F
100
AcDbEntity
  8
2
  6
CONTINUOUS
370
25
 62
7
100
AcDbLine
 10
-1.819867653394604
 20
23.63597646932108
 30
0.0
 11
-1.213245102263069
 21
24.24259902045261
 31
0.0
  0
LINE
  5
960
330
1F
100
AcDbEntity
  8
2
  6
CONTINUOUS
370
25
 62
7
100
AcDbLine
 10
-2.350197739284513
 20
23.5299104521431
 30
0.0
 11
-1.566798492856342
 21
24.31330969857127
 31
0.0
  0
LINE
  5
961
330
1F
100
AcDbEntity
  8
2
  6
CONTINUOUS
370
25
 62
7
100
AcDbLine
 10
-2.880527825174422
 20
23.42384443496512
 30
0.0
 11
-1.920351883449615
 21
24.38402037668992
 31
0.0
  0
LINE
  5
962
330
1F
100
AcDbEntity
  8
2
  6
CONTINUOUS
370
25
 62
7
100
AcDbLine
 10
-3.410857911064331
 20
23.31777841778713
 30
0.0
 11
-2.273905274042888
 21
24.45473105480858
 31
0.0
  0
LINE
  5
963
330
1F
100
AcDbEntity
  8
2
  6
CONTINUOUS
370
25
 62
7
100
AcDbLine
 10
-3.941187996954241
 20
23.21171240060915
 30
0.0
 11
-2.627458664636161
 21
24.52544173292723
 31
0.0
  0
LINE
  5
964
330
1F
100
AcDbEntity
  8
2
  6
CONTINUOUS
370
25
 62
7
100
AcDbLine
 10
-4.47151808284415
 20
23.10564638343117
 30
0.0
 11
-2.981012055229434
 21
24.59615241104589
 31
0.0
  0
LINE
  5
965
330
1F
100
AcDbEntity
  8
2
  6
CONTINUOUS
370
25
 62
7
100
AcDbLine
 10
-5.0
 20
23.00142853498725
 30
0.0
 11
-3.334565445822709
 21
24.66686308916454
 31
0.0
  0
LINE
  5
966
330
1F
100
AcDbEntity
  8
2
  6
CONTINUOUS
370
25
 62
7
100
AcDbLine
 10
-5.0
 20
23.42569260369918
 30
0.0
 11
-3.68811883641598
 21
24.73757376728319
 31
0.0
  0
LINE
  5
967
330
1F
100
AcDbEntity
  8
2
  6
CONTINUOUS
370
25
 62
7
100
AcDbLine
 10
-5.0
 20
23.8499566724111
 30
0.0
 11
-4.041672227009255
 21
24.80828444540185
 31
0.0
  0
LINE
  5
968
330
1F
100
AcDbEntity
  8
2
  6
CONTINUOUS
370
25
 62
7
100
AcDbLine
 10
-5.0
 20
24.27422074112303
 30
0.0
 11
-4.395225617602528
 21
24.8789951235205
 31
0.0
  0
LINE
  5
969
330
1F
100
AcDbEntity
  8
2
  6
CONTINUOUS
370
25
 62
7
100
AcDbLine
 10
-5.0
 20
24.69848480983496
 30
0.0
 11
-4.748779008195801
 21
24.94970580163916
 31
0.0
  0
LINE
  5
96A
330
1F
100
AcDbEntity
  8
2
  6
CONTINUOUS
370
25
 62
7
100
AcDbLine
 10
-5.0
 20
23.24335495461289
 30
0.0
 11
-4.797162537822588
 21
23.04051749243548
 31
0.0
  0
LINE
  5
96B
330
1F
100
AcDbEntity
  8
2
  6
CONTINUOUS
370
25
 62
7
100
AcDbLine
 10
-5.0
 20
23.66761902332482
 30
0.0
 11
-4.443609147229317
 21
23.11122817055413
 31
0.0
  0
LINE
  5
96C
330
1F
100
AcDbEntity
  8
2
  6
CONTINUOUS
370
25
 62
7
100
AcDbLine
 10
-5.0
 20
24.09188309203675
 30
0.0
 11
-4.090055756636043
 21
23.18193884867279
 31
0.0
  0
LINE
  5
96D
330
1F
100
AcDbEntity
  8
2
  6
CONTINUOUS
370
25
 62
7
100
AcDbLine
 10
-5.0
 20
24.51614716074867
 30
0.0
 11
-3.73650236604277
 21
23.25264952679144
 31
0.0
  0
LINE
  5
96E
330
1F
100
AcDbEntity
  8
2
  6
CONTINUOUS
370
25
 62
7
100
AcDbLine
 10
-5.0
 20
24.9404112294606
 30
0.0
 11
-3.382948975449494
 21
23.3233602049101
 31
0.0
  0
LINE
  5
96F
330
1F
100
AcDbEntity
  8
2
  6
CONTINUOUS
370
25
 62
7
100
AcDbLine
 10
-4.544093377284334
 20
24.90876867545687
 30
0.0
 11
-3.02939558485622
 21
23.39407088302875
 31
0.0
  0
LINE
  5
970
330
1F
100
AcDbEntity
  8
2
  6
CONTINUOUS
370
25
 62
7
100
AcDbLine
 10
-4.013763291394423
 20
24.80270265827888
 30
0.0
 11
-2.675842194262947
 21
23.46478156114741
 31
0.0
  0
LINE
  5
971
330
1F
100
AcDbEntity
  8
2
  6
CONTINUOUS
370
25
 62
7
100
AcDbLine
 10
-3.483433205504512
 20
24.6966366411009
 30
0.0
 11
-2.322288803669673
 21
23.53549223926606
 31
0.0
  0
LINE
  5
972
330
1F
100
AcDbEntity
  8
2
  6
CONTINUOUS
370
25
 62
7
100
AcDbLine
 10
-2.953103119614606
 20
24.59057062392292
 30
0.0
 11
-1.968735413076403
 21
23.60620291738472
 31
0.0
  0
LINE
  5
973
330
1F
100
AcDbEntity
  8
2
  6
CONTINUOUS
370
25
 62
7
100
AcDbLine
 10
-2.422773033724691
 20
24.48450460674494
 30
0.0
 11
-1.615182022483126
 21
23.67691359550337
 31
0.0
  0
LINE
  5
974
330
1F
100
AcDbEntity
  8
2
  6
CONTINUOUS
370
25
 62
7
100
AcDbLine
 10
-1.892442947834785
 20
24.37843858956695
 30
0.0
 11
-1.261628631889856
 21
23.74762427362203
 31
0.0
  0
LINE
  5
975
330
1F
100
AcDbEntity
  8
2
  6
CONTINUOUS
370
25
 62
7
100
AcDbLine
 10
-1.362112861944874
 20
24.27237257238897
 30
0.0
 11
-0.9080752412965819
 21
23.81833495174068
 31
0.0
  0
LINE
  5
976
330
1F
100
AcDbEntity
  8
2
  6
CONTINUOUS
370
25
 62
7
100
AcDbLine
 10
-0.8317827760549632
 20
24.16630655521099
 30
0.0
 11
-0.5545218507033083
 21
23.88904562985934
 31
0.0
  0
LINE
  5
977
330
1F
100
AcDbEntity
  8
2
  6
CONTINUOUS
370
25
 62
7
100
AcDbLine
 10
-0.3014526901650523
 20
24.06024053803301
 30
0.0
 11
-0.2009684601100347
 21
23.95975630797799
 31
0.0
  0
LINE
  5
978
330
1F
100
AcDbEntity
  8
2
  6
CONTINUOUS
370
25
 62
7
100
AcDbLine
 10
9.700000000000001
 20
23.99995
 30
0.0
 11
14.7
 21
24.99995
 31
0.0
  0
LINE
  5
979
330
1F
100
AcDbEntity
  8
2
  6
CONTINUOUS
370
25
 62
7
100
AcDbLine
 10
14.7
 20
24.99995
 30
0.0
 11
14.7
 21
22.99995
 31
0.0
  0
LINE
  5
97A
330
1F
100
AcDbEntity
  8
2
  6
CONTINUOUS
370
25
 62
7
100
AcDbLine
 10
14.7
 20
22.99995
 30
0.0
 11
9.700000000000001
 21
23.99995
 31
0.0
  0
LINE
  5
97B
330
1F
100
AcDbEntity
  8
2
  6
CONTINUOUS
370
25
 62
7
100
AcDbLine
 10
14.54555718813457
 20
23.03083856237309
 30
0.0
 11
14.7
 21
23.18528137423852
 31
0.0
  0
LINE
  5
97C
330
1F
100
AcDbEntity
  8
2
  6
CONTINUOUS
370
25
 62
7
100
AcDbLine
 10
14.19200379754129
 20
23.10154924049174
 30
0.0
 11
14.7
 21
23.60954544295045
 31
0.0
  0
LINE
  5
97D
330
1F
100
AcDbEntity
  8
2
  6
CONTINUOUS
370
25
 62
7
100
AcDbLine
 10
13.83845040694802
 20
23.17225991861039
 30
0.0
 11
14.7
 21
24.03380951166238
 31
0.0
  0
LINE
  5
97E
330
1F
100
AcDbEntity
  8
2
  6
CONTINUOUS
370
25
 62
7
100
AcDbLine
 10
13.48489701635475
 20
23.24297059672905
 30
0.0
 11
14.7
 21
24.4580735803743
 31
0.0
  0
LINE
  5
97F
330
1F
100
AcDbEntity
  8
2
  6
CONTINUOUS
370
25
 62
7
100
AcDbLine
 10
13.13134362576147
 20
23.3136812748477
 30
0.0
 11
14.7
 21
24.88233764908623
 31
0.0
  0
LINE
  5
980
330
1F
100
AcDbEntity
  8
2
  6
CONTINUOUS
370
25
 62
7
100
AcDbLine
 10
12.7777902351682
 20
23.38439195296636
 30
0.0
 11
14.3166853527523
 21
24.92328707055046
 31
0.0
  0
LINE
  5
981
330
1F
100
AcDbEntity
  8
2
  6
CONTINUOUS
370
25
 62
7
100
AcDbLine
 10
12.42423684457493
 20
23.45510263108501
 30
0.0
 11
13.78635526686239
 21
24.81722105337247
 31
0.0
  0
LINE
  5
982
330
1F
100
AcDbEntity
  8
2
  6
CONTINUOUS
370
25
 62
7
100
AcDbLine
 10
12.07068345398165
 20
23.52581330920367
 30
0.0
 11
13.25602518097248
 21
24.71115503619449
 31
0.0
  0
LINE
  5
983
330
1F
100
AcDbEntity
  8
2
  6
CONTINUOUS
370
25
 62
7
100
AcDbLine
 10
11.71713006338838
 20
23.59652398732232
 30
0.0
 11
12.72569509508257
 21
24.60508901901651
 31
0.0
  0
LINE
  5
984
330
1F
100
AcDbEntity
  8
2
  6
CONTINUOUS
370
25
 62
7
100
AcDbLine
 10
11.36357667279511
 20
23.66723466544098
 30
0.0
 11
12.19536500919266
 21
24.49902300183853
 31
0.0
  0
LINE
  5
985
330
1F
100
AcDbEntity
  8
2
  6
CONTINUOUS
370
25
 62
7
100
AcDbLine
 10
11.01002328220184
 20
23.73794534355963
 30
0.0
 11
11.66503492330275
 21
24.39295698466055
 31
0.0
  0
LINE
  5
986
330
1F
100
AcDbEntity
  8
2
  6
CONTINUOUS
370
25
 62
7
100
AcDbLine
 10
10.65646989160856
 20
23.80865602167829
 30
0.0
 11
11.13470483741284
 21
24.28689096748256
 31
0.0
  0
LINE
  5
987
330
1F
100
AcDbEntity
  8
2
  6
CONTINUOUS
370
25
 62
7
100
AcDbLine
 10
10.30291650101529
 20
23.87936669979694
 30
0.0
 11
10.60437475152293
 21
24.18082495030458
 31
0.0
  0
LINE
  5
988
330
1F
100
AcDbEntity
  8
2
  6
CONTINUOUS
370
25
 62
7
100
AcDbLine
 10
9.949363110422018
 20
23.9500773779156
 30
0.0
 11
10.07404466563302
 21
24.0747589331266
 31
0.0
  0
LINE
  5
989
330
1F
100
AcDbEntity
  8
2
  6
CONTINUOUS
370
25
 62
7
100
AcDbLine
 10
9.90097958079522
 20
24.04014591615904
 30
0.0
 11
10.00146937119283
 21
23.93965612576143
 31
0.0
  0
LINE
  5
98A
330
1F
100
AcDbEntity
  8
2
  6
CONTINUOUS
370
25
 62
7
100
AcDbLine
 10
10.25453297138849
 20
24.11085659427769
 30
0.0
 11
10.53179945708274
 21
23.83359010858345
 31
0.0
  0
LINE
  5
98B
330
1F
100
AcDbEntity
  8
2
  6
CONTINUOUS
370
25
 62
7
100
AcDbLine
 10
10.60808636198176
 20
24.18156727239635
 30
0.0
 11
11.06212954297264
 21
23.72752409140547
 31
0.0
  0
LINE
  5
98C
330
1F
100
AcDbEntity
  8
2
  6
CONTINUOUS
370
25
 62
7
100
AcDbLine
 10
10.96163975257504
 20
24.252277950515
 30
0.0
 11
11.59245962886256
 21
23.62145807422749
 31
0.0
  0
LINE
  5
98D
330
1F
100
AcDbEntity
  8
2
  6
CONTINUOUS
370
25
 62
7
100
AcDbLine
 10
11.31519314316831
 20
24.32298862863366
 30
0.0
 11
12.12278971475246
 21
23.51539205704951
 31
0.0
  0
LINE
  5
98E
330
1F
100
AcDbEntity
  8
2
  6
CONTINUOUS
370
25
 62
7
100
AcDbLine
 10
11.66874653376159
 20
24.39369930675231
 30
0.0
 11
12.65311980064238
 21
23.40932603987152
 31
0.0
  0
LINE
  5
98F
330
1F
100
AcDbEntity
  8
2
  6
CONTINUOUS
370
25
 62
7
100
AcDbLine
 10
12.02229992435485
 20
24.46440998487097
 30
0.0
 11
13.18344988653228
 21
23.30326002269354
 31
0.0
  0
LINE
  5
990
330
1F
100
AcDbEntity
  8
2
  6
CONTINUOUS
370
25
 62
7
100
AcDbLine
 10
12.37585331494813
 20
24.53512066298962
 30
0.0
 11
13.71377997242219
 21
23.19719400551556
 31
0.0
  0
LINE
  5
991
330
1F
100
AcDbEntity
  8
2
  6
CONTINUOUS
370
25
 62
7
100
AcDbLine
 10
12.7294067055414
 20
24.60583134110828
 30
0.0
 11
14.2441100583121
 21
23.09112798833758
 31
0.0
  0
LINE
  5
992
330
1F
100
AcDbEntity
  8
2
  6
CONTINUOUS
370
25
 62
7
100
AcDbLine
 10
13.08296009613468
 20
24.67654201922693
 30
0.0
 11
14.7
 21
23.05950211536161
 31
0.0
  0
LINE
  5
993
330
1F
100
AcDbEntity
  8
2
  6
CONTINUOUS
370
25
 62
7
100
AcDbLine
 10
13.43651348672795
 20
24.74725269734559
 30
0.0
 11
14.7
 21
23.48376618407353
 31
0.0
  0
LINE
  5
994
330
1F
100
AcDbEntity
  8
2
  6
CONTINUOUS
370
25
 62
7
100
AcDbLine
 10
13.79006687732122
 20
24.81796337546425
 30
0.0
 11
14.7
 21
23.90803025278547
 31
0.0
  0
LINE
  5
995
330
1F
100
AcDbEntity
  8
2
  6
CONTINUOUS
370
25
 62
7
100
AcDbLine
 10
14.14362026791449
 20
24.8886740535829
 30
0.0
 11
14.7
 21
24.33229432149739
 31
0.0
  0
LINE
  5
996
330
1F
100
AcDbEntity
  8
2
  6
CONTINUOUS
370
25
 62
7
100
AcDbLine
 10
14.49717365850777
 20
24.95938473170155
 30
0.0
 11
14.7
 21
24.75655839020932
 31
0.0
  0
TEXT
  5
997
330
1F
100
AcDbEntity
  8
2
  6
CONTINUOUS
370
25
 62
7
100
AcDbText
 10
16.6625
 20
25.49995
 30
0.0
 40
3.5
  1
9.7
 72
     1
 11
20.1625
 21
25.49995
 31
0.0
100
AcDbText
  0
LINE
  5
998
330
1F
100
AcDbEntity
  8
SK2
  6
CONTINUOUS
370
25
 62
7
100
AcDbLine
 10
-35.3
 20
-0.0000500000000001
 30
0.0
 11
-35.3
 21
34.99995
 31
0.0
  0
LINE
  5
999
330
1F
100
AcDbEntity
  8
SK2
  6
CONTINUOUS
370
25
 62
7
100
AcDbLine
 10
9.700000000000003
 20
34.99995
 30
0.0
 11
9.700000000000001
 21
0.0
 31
0.0
  0
LINE
  5
99A
330
1F
100
AcDbEntity
  8
SK2
  6
CONTINUOUS
370
25
 62
7
100
AcDbLine
 10
-35.3
 20
33.99995
 30
0.0
 11
9.700000000000003
 21
33.99995
 31
0.0
  0
LINE
  5
99B
330
1F
100
AcDbEntity
  8
SK2
  6
CONTINUOUS
370
25
 62
7
100
AcDbLine
 10
-35.3
 20
33.99995
 30
0.0
 11
-30.3
 21
34.99995
 31
0.0
  0
LINE
  5
99C
330
1F
100
AcDbEntity
  8
SK2
  6
CONTINUOUS
370
25
 62
7
100
AcDbLine
 10
-30.3
 20
34.99995
 30
0.0
 11
-30.3
 21
32.99995
 31
0.0
  0
LINE
  5
99D
330
1F
100
AcDbEntity
  8
SK2
  6
CONTINUOUS
370
25
 62
7
100
AcDbLine
 10
-30.3
 20
32.99995
 30
0.0
 11
-35.3
 21
33.99995
 31
0.0
  0
LINE
  5
99E
330
1F
100
AcDbEntity
  8
SK2
  6
CONTINUOUS
370
25
 62
7
100
AcDbLine
 10
-30.58305025565775
 20
33.05656005113154
 30
0.0
 11
-30.3
 21
33.3396103067893
 31
0.0
  0
LINE
  5
99F
330
1F
100
AcDbEntity
  8
SK2
  6
CONTINUOUS
370
25
 62
7
100
AcDbLine
 10
-30.93660364625103
 20
33.1272707292502
 30
0.0
 11
-30.3
 21
33.76387437550123
 31
0.0
  0
LINE
  5
9A0
330
1F
100
AcDbEntity
  8
SK2
  6
CONTINUOUS
370
25
 62
7
100
AcDbLine
 10
-31.2901570368443
 20
33.19798140736886
 30
0.0
 11
-30.3
 21
34.18813844421315
 31
0.0
  0
LINE
  5
9A1
330
1F
100
AcDbEntity
  8
SK2
  6
CONTINUOUS
370
25
 62
7
100
AcDbLine
 10
-31.64371042743758
 20
33.26869208548751
 30
0.0
 11
-30.3
 21
34.61240251292509
 31
0.0
  0
LINE
  5
9A2
330
1F
100
AcDbEntity
  8
SK2
  6
CONTINUOUS
370
25
 62
7
100
AcDbLine
 10
-31.99726381803085
 20
33.33940276360617
 30
0.0
 11
-30.34589572704627
 21
34.99077085459075
 31
0.0
  0
LINE
  5
9A3
330
1F
100
AcDbEntity
  8
SK2
  6
CONTINUOUS
370
25
 62
7
100
AcDbLine
 10
-32.35081720862412
 20
33.41011344172482
 30
0.0
 11
-30.87622581293617
 21
34.88470483741277
 31
0.0
  0
LINE
  5
9A4
330
1F
100
AcDbEntity
  8
SK2
  6
CONTINUOUS
370
25
 62
7
100
AcDbLine
 10
-32.7043705992174
 20
33.48082411984348
 30
0.0
 11
-31.40655589882609
 21
34.77863882023478
 31
0.0
  0
LINE
  5
9A5
330
1F
100
AcDbEntity
  8
SK2
  6
CONTINUOUS
370
25
 62
7
100
AcDbLine
 10
-33.05792398981068
 20
33.55153479796213
 30
0.0
 11
-31.93688598471601
 21
34.6725728030568
 31
0.0
  0
LINE
  5
9A6
330
1F
100
AcDbEntity
  8
SK2
  6
CONTINUOUS
370
25
 62
7
100
AcDbLine
 10
-33.41147738040396
 20
33.62224547608078
 30
0.0
 11
-32.46721607060593
 21
34.56650678587881
 31
0.0
  0
LINE
  5
9A7
330
1F
100
AcDbEntity
  8
SK2
  6
CONTINUOUS
370
25
 62
7
100
AcDbLine
 10
-33.76503077099724
 20
33.69295615419944
 30
0.0
 11
-32.99754615649584
 21
34.46044076870083
 31
0.0
  0
LINE
  5
9A8
330
1F
100
AcDbEntity
  8
SK2
  6
CONTINUOUS
370
25
 62
7
100
AcDbLine
 10
-34.1185841615905
 20
33.76366683231809
 30
0.0
 11
-33.52787624238574
 21
34.35437475152285
 31
0.0
  0
LINE
  5
9A9
330
1F
100
AcDbEntity
  8
SK2
  6
CONTINUOUS
370
25
 62
7
100
AcDbLine
 10
-34.47213755218378
 20
33.83437751043675
 30
0.0
 11
-34.05820632827567
 21
34.24830873434487
 31
0.0
  0
LINE
  5
9AA
330
1F
100
AcDbEntity
  8
SK2
  6
CONTINUOUS
370
25
 62
7
100
AcDbLine
 10
-34.82569094277707
 20
33.9050881885554
 30
0.0
 11
-34.58853641416558
 21
34.14224271716689
 31
0.0
  0
LINE
  5
9AB
330
1F
100
AcDbEntity
  8
SK2
  6
CONTINUOUS
370
25
 62
7
100
AcDbLine
 10
-35.17924433337033
 20
33.97579886667406
 30
0.0
 11
-35.11886650005548
 21
34.03617669998891
 31
0.0
  0
LINE
  5
9AC
330
1F
100
AcDbEntity
  8
SK2
  6
CONTINUOUS
370
25
 62
7
100
AcDbLine
 10
-34.95519636345453
 20
34.06891072730909
 30
0.0
 11
-34.7827945451818
 21
33.89650890903636
 31
0.0
  0
LINE
  5
9AD
330
1F
100
AcDbEntity
  8
SK2
  6
CONTINUOUS
370
25
 62
7
100
AcDbLine
 10
-34.60164297286126
 20
34.13962140542775
 30
0.0
 11
-34.25246445929189
 21
33.79044289185838
 31
0.0
  0
LINE
  5
9AE
330
1F
100
AcDbEntity
  8
SK2
  6
CONTINUOUS
370
25
 62
7
100
AcDbLine
 10
-34.24808958226798
 20
34.2103320835464
 30
0.0
 11
-33.72213437340197
 21
33.68437687468039
 31
0.0
  0
LINE
  5
9AF
330
1F
100
AcDbEntity
  8
SK2
  6
CONTINUOUS
370
25
 62
7
100
AcDbLine
 10
-33.89453619167471
 20
34.28104276166506
 30
0.0
 11
-33.19180428751206
 21
33.57831085750241
 31
0.0
  0
LINE
  5
9B0
330
1F
100
AcDbEntity
  8
SK2
  6
CONTINUOUS
370
25
 62
7
100
AcDbLine
 10
-33.54098280108143
 20
34.35175343978371
 30
0.0
 11
-32.66147420162215
 21
33.47224484032443
 31
0.0
  0
LINE
  5
9B1
330
1F
100
AcDbEntity
  8
SK2
  6
CONTINUOUS
370
25
 62
7
100
AcDbLine
 10
-33.18742941048816
 20
34.42246411790236
 30
0.0
 11
-32.13114411573225
 21
33.36617882314645
 31
0.0
  0
LINE
  5
9B2
330
1F
100
AcDbEntity
  8
SK2
  6
CONTINUOUS
370
25
 62
7
100
AcDbLine
 10
-32.83387601989488
 20
34.49317479602102
 30
0.0
 11
-31.60081402984233
 21
33.26011280596846
 31
0.0
  0
LINE
  5
9B3
330
1F
100
AcDbEntity
  8
SK2
  6
CONTINUOUS
370
25
 62
7
100
AcDbLine
 10
-32.4803226293016
 20
34.56388547413968
 30
0.0
 11
-31.07048394395242
 21
33.15404678879048
 31
0.0
  0
LINE
  5
9B4
330
1F
100
AcDbEntity
  8
SK2
  6
CONTINUOUS
370
25
 62
7
100
AcDbLine
 10
-32.12676923870833
 20
34.63459615225833
 30
0.0
 11
-30.54015385806251
 21
33.0479807716125
 31
0.0
  0
LINE
  5
9B5
330
1F
100
AcDbEntity
  8
SK2
  6
CONTINUOUS
370
25
 62
7
100
AcDbLine
 10
-31.77321584811506
 20
34.70530683037699
 30
0.0
 11
-30.3
 21
33.23209098226191
 31
0.0
  0
LINE
  5
9B6
330
1F
100
AcDbEntity
  8
SK2
  6
CONTINUOUS
370
25
 62
7
100
AcDbLine
 10
-31.41966245752178
 20
34.77601750849564
 30
0.0
 11
-30.3
 21
33.65635505097384
 31
0.0
  0
LINE
  5
9B7
330
1F
100
AcDbEntity
  8
SK2
  6
CONTINUOUS
370
25
 62
7
100
AcDbLine
 10
-31.06610906692851
 20
34.8467281866143
 30
0.0
 11
-30.3
 21
34.08061911968578
 31
0.0
  0
LINE
  5
9B8
330
1F
100
AcDbEntity
  8
SK2
  6
CONTINUOUS
370
25
 62
7
100
AcDbLine
 10
-30.71255567633523
 20
34.91743886473296
 30
0.0
 11
-30.3
 21
34.50488318839771
 31
0.0
  0
LINE
  5
9B9
330
1F
100
AcDbEntity
  8
SK2
  6
CONTINUOUS
370
25
 62
7
100
AcDbLine
 10
-30.35900228574196
 20
34.98814954285162
 30
0.0
 11
-30.3
 21
34.92914725710965
 31
0.0
  0
LINE
  5
9BA
330
1F
100
AcDbEntity
  8
SK2
  6
CONTINUOUS
370
25
 62
7
100
AcDbLine
 10
9.700000000000003
 20
33.99995
 30
0.0
 11
4.700000000000003
 21
32.99995
 31
0.0
  0
LINE
  5
9BB
330
1F
100
AcDbEntity
  8
SK2
  6
CONTINUOUS
370
25
 62
7
100
AcDbLine
 10
4.700000000000003
 20
32.99995
 30
0.0
 11
4.700000000000003
 21
34.99995
 31
0.0
  0
LINE
  5
9BC
330
1F
100
AcDbEntity
  8
SK2
  6
CONTINUOUS
370
25
 62
7
100
AcDbLine
 10
4.700000000000003
 20
34.99995
 30
0.0
 11
9.700000000000003
 21
33.99995
 31
0.0
  0
LINE
  5
9BD
330
1F
100
AcDbEntity
  8
SK2
  6
CONTINUOUS
370
25
 62
7
100
AcDbLine
 10
9.315792518385235
 20
33.92310850367705
 30
0.0
 11
9.443861678923486
 21
34.0511776642153
 31
0.0
  0
LINE
  5
9BE
330
1F
100
AcDbEntity
  8
SK2
  6
CONTINUOUS
370
25
 62
7
100
AcDbLine
 10
8.785462432495322
 20
33.81704248649906
 30
0.0
 11
9.090308288330212
 21
34.12188834233395
 31
0.0
  0
LINE
  5
9BF
330
1F
100
AcDbEntity
  8
SK2
  6
CONTINUOUS
370
25
 62
7
100
AcDbLine
 10
8.255132346605414
 20
33.71097646932108
 30
0.0
 11
8.736754897736938
 21
34.1925990204526
 31
0.0
  0
LINE
  5
9C0
330
1F
100
AcDbEntity
  8
SK2
  6
CONTINUOUS
370
25
 62
7
100
AcDbLine
 10
7.7248022607155
 20
33.6049104521431
 30
0.0
 11
8.383201507143662
 21
34.26330969857126
 31
0.0
  0
LINE
  5
9C1
330
1F
100
AcDbEntity
  8
SK2
  6
CONTINUOUS
370
25
 62
7
100
AcDbLine
 10
7.194472174825592
 20
33.49884443496512
 30
0.0
 11
8.029648116550389
 21
34.33402037668992
 31
0.0
  0
LINE
  5
9C2
330
1F
100
AcDbEntity
  8
SK2
  6
CONTINUOUS
370
25
 62
7
100
AcDbLine
 10
6.66414208893568
 20
33.39277841778713
 30
0.0
 11
7.676094725957114
 21
34.40473105480857
 31
0.0
  0
LINE
  5
9C3
330
1F
100
AcDbEntity
  8
SK2
  6
CONTINUOUS
370
25
 62
7
100
AcDbLine
 10
6.133812003045771
 20
33.28671240060915
 30
0.0
 11
7.32254133536384
 21
34.47544173292723
 31
0.0
  0
LINE
  5
9C4
330
1F
100
AcDbEntity
  8
SK2
  6
CONTINUOUS
370
25
 62
7
100
AcDbLine
 10
5.603481917155862
 20
33.18064638343117
 30
0.0
 11
6.968987944770566
 21
34.54615241104588
 31
0.0
  0
LINE
  5
9C5
330
1F
100
AcDbEntity
  8
SK2
  6
CONTINUOUS
370
25
 62
7
100
AcDbLine
 10
5.073151831265952
 20
33.07458036625319
 30
0.0
 11
6.615434554177292
 21
34.61686308916454
 31
0.0
  0
LINE
  5
9C6
330
1F
100
AcDbEntity
  8
SK2
  6
CONTINUOUS
370
25
 62
7
100
AcDbLine
 10
4.700000000000003
 20
33.12569260369916
 30
0.0
 11
6.261881163584019
 21
34.68757376728319
 31
0.0
  0
LINE
  5
9C7
330
1F
100
AcDbEntity
  8
SK2
  6
CONTINUOUS
370
25
 62
7
100
AcDbLine
 10
4.700000000000003
 20
33.5499566724111
 30
0.0
 11
5.908327772990742
 21
34.75828444540185
 31
0.0
  0
LINE
  5
9C8
330
1F
100
AcDbEntity
  8
SK2
  6
CONTINUOUS
370
25
 62
7
100
AcDbLine
 10
4.700000000000003
 20
33.97422074112303
 30
0.0
 11
5.55477438239747
 21
34.8289951235205
 31
0.0
  0
LINE
  5
9C9
330
1F
100
AcDbEntity
  8
SK2
  6
CONTINUOUS
370
25
 62
7
100
AcDbLine
 10
4.700000000000003
 20
34.39848480983496
 30
0.0
 11
5.201220991804196
 21
34.89970580163916
 31
0.0
  0
LINE
  5
9CA
330
1F
100
AcDbEntity
  8
SK2
  6
CONTINUOUS
370
25
 62
7
100
AcDbLine
 10
4.700000000000003
 20
34.82274887854689
 30
0.0
 11
4.847667601210921
 21
34.97041647975781
 31
0.0
  0
LINE
  5
9CB
330
1F
100
AcDbEntity
  8
SK2
  6
CONTINUOUS
370
25
 62
7
100
AcDbLine
 10
4.700000000000003
 20
33.0595021153616
 30
0.0
 11
4.749626762801339
 21
33.00987535256027
 31
0.0
  0
LINE
  5
9CC
330
1F
100
AcDbEntity
  8
SK2
  6
CONTINUOUS
370
25
 62
7
100
AcDbLine
 10
4.700000000000003
 20
33.48376618407354
 30
0.0
 11
5.103180153394616
 21
33.08058603067892
 31
0.0
  0
LINE
  5
9CD
330
1F
100
AcDbEntity
  8
SK2
  6
CONTINUOUS
370
25
 62
7
100
AcDbLine
 10
4.700000000000003
 20
33.90803025278547
 30
0.0
 11
5.456733543987887
 21
33.15129670879758
 31
0.0
  0
LINE
  5
9CE
330
1F
100
AcDbEntity
  8
SK2
  6
CONTINUOUS
370
25
 62
7
100
AcDbLine
 10
4.700000000000003
 20
34.33229432149739
 30
0.0
 11
5.810286934581165
 21
33.22200738691623
 31
0.0
  0
LINE
  5
9CF
330
1F
100
AcDbEntity
  8
SK2
  6
CONTINUOUS
370
25
 62
7
100
AcDbLine
 10
4.700000000000003
 20
34.75655839020933
 30
0.0
 11
6.16384032517444
 21
33.29271806503489
 31
0.0
  0
LINE
  5
9D0
330
1F
100
AcDbEntity
  8
SK2
  6
CONTINUOUS
370
25
 62
7
100
AcDbLine
 10
4.926090573651575
 20
34.95473188526968
 30
0.0
 11
6.51739371576771
 21
33.36342874315354
 31
0.0
  0
LINE
  5
9D1
330
1F
100
AcDbEntity
  8
SK2
  6
CONTINUOUS
370
25
 62
7
100
AcDbLine
 10
5.45642065954149
 20
34.8486658680917
 30
0.0
 11
6.870947106360988
 21
33.4341394212722
 31
0.0
  0
LINE
  5
9D2
330
1F
100
AcDbEntity
  8
SK2
  6
CONTINUOUS
370
25
 62
7
100
AcDbLine
 10
5.986750745431404
 20
34.74259985091371
 30
0.0
 11
7.224500496954263
 21
33.50485009939085
 31
0.0
  0
LINE
  5
9D3
330
1F
100
AcDbEntity
  8
SK2
  6
CONTINUOUS
370
25
 62
7
100
AcDbLine
 10
6.517080831321308
 20
34.63653383373573
 30
0.0
 11
7.578053887547533
 21
33.57556077750951
 31
0.0
  0
LINE
  5
9D4
330
1F
100
AcDbEntity
  8
SK2
  6
CONTINUOUS
370
25
 62
7
100
AcDbLine
 10
7.04741091721122
 20
34.53046781655775
 30
0.0
 11
7.931607278140808
 21
33.64627145562816
 31
0.0
  0
LINE
  5
9D5
330
1F
100
AcDbEntity
  8
SK2
  6
CONTINUOUS
370
25
 62
7
100
AcDbLine
 10
7.577741003101132
 20
34.42440179937977
 30
0.0
 11
8.285160668734083
 21
33.71698213374682
 31
0.0
  0
LINE
  5
9D6
330
1F
100
AcDbEntity
  8
SK2
  6
CONTINUOUS
370
25
 62
7
100
AcDbLine
 10
8.108071088991043
 20
34.31833578220179
 30
0.0
 11
8.638714059327357
 21
33.78769281186547
 31
0.0
  0
LINE
  5
9D7
330
1F
100
AcDbEntity
  8
SK2
  6
CONTINUOUS
370
25
 62
7
100
AcDbLine
 10
8.638401174880954
 20
34.21226976502381
 30
0.0
 11
8.992267449920632
 21
33.85840348998413
 31
0.0
  0
LINE
  5
9D8
330
1F
100
AcDbEntity
  8
SK2
  6
CONTINUOUS
370
25
 62
7
100
AcDbLine
 10
9.168731260770864
 20
34.10620374784583
 30
0.0
 11
9.345820840513905
 21
33.92911416810279
 31
0.0
  0
LINE
  5
9D9
330
1F
100
AcDbEntity
  8
SK2
  6
CONTINUOUS
370
25
 62
7
100
AcDbLine
 10
9.699061346660773
 20
34.00013773066784
 30
0.0
 11
9.69937423110718
 21
33.99982484622144
 31
0.0
  0
TEXT
  5
9DA
330
1F
100
AcDbEntity
  8
SK2
  6
CONTINUOUS
370
25
 62
7
100
AcDbText
 10
-15.71666666666667
 20
35.49995
 30
0.0
 40
3.5
  1
45
 72
     1
 11
-12.8
 21
35.49995
 31
0.0
100
AcDbText
  0
LINE
  5
9DB
330
1F
100
AcDbEntity
  8
2
  6
CONTINUOUS
370
25
 62
7
100
AcDbLine
 10
6.5
 20
-0.24995
 30
0.0
 11
6.499999999999998
 21
-33.25
 31
0.0
  0
LINE
  5
9DC
330
1F
100
AcDbEntity
  8
2
  6
CONTINUOUS
370
25
 62
7
100
AcDbLine
 10
9.7
 20
-33.25
 30
0.0
 11
9.700000000000001
 21
-0.25
 31
0.0
  0
LINE
  5
9DD
330
1F
100
AcDbEntity
  8
2
  6
CONTINUOUS
370
25
 62
7
100
AcDbLine
 10
-0.5000000000000018
 20
-32.25
 30
0.0
 11
25.625
 21
-32.25
 31
0.0
  0
LINE
  5
9DE
330
1F
100
AcDbEntity
  8
2
  6
CONTINUOUS
370
25
 62
7
100
AcDbLine
 10
6.499999999999998
 20
-32.25
 30
0.0
 11
1.499999999999998
 21
-33.25
 31
0.0
  0
LINE
  5
9DF
330
1F
100
AcDbEntity
  8
2
  6
CONTINUOUS
370
25
 62
7
100
AcDbLine
 10
1.499999999999998
 20
-33.25
 30
0.0
 11
1.499999999999998
 21
-31.25
 31
0.0
  0
LINE
  5
9E0
330
1F
100
AcDbEntity
  8
2
  6
CONTINUOUS
370
25
 62
7
100
AcDbLine
 10
1.499999999999998
 20
-31.25
 30
0.0
 11
6.499999999999998
 21
-32.25
 31
0.0
  0
LINE
  5
9E1
330
1F
100
AcDbEntity
  8
2
  6
CONTINUOUS
370
25
 62
7
100
AcDbLine
 10
6.126184486869738
 20
-32.32476310262605
 30
0.0
 11
6.250789657913158
 21
-32.20015793158263
 31
0.0
  0
LINE
  5
9E2
330
1F
100
AcDbEntity
  8
2
  6
CONTINUOUS
370
25
 62
7
100
AcDbLine
 10
5.595854400979822
 20
-32.43082911980403
 30
0.0
 11
5.89723626731988
 21
-32.12944725346397
 31
0.0
  0
LINE
  5
9E3
330
1F
100
AcDbEntity
  8
2
  6
CONTINUOUS
370
25
 62
7
100
AcDbLine
 10
5.065524315089911
 20
-32.53689513698202
 30
0.0
 11
5.543682876726608
 21
-32.05873657534532
 31
0.0
  0
LINE
  5
9E4
330
1F
100
AcDbEntity
  8
2
  6
CONTINUOUS
370
25
 62
7
100
AcDbLine
 10
4.535194229200002
 20
-32.64296115416
 30
0.0
 11
5.190129486133336
 21
-31.98802589722667
 31
0.0
  0
LINE
  5
9E5
330
1F
100
AcDbEntity
  8
2
  6
CONTINUOUS
370
25
 62
7
100
AcDbLine
 10
4.004864143310082
 20
-32.74902717133798
 30
0.0
 11
4.836576095540056
 21
-31.91731521910801
 31
0.0
  0
LINE
  5
9E6
330
1F
100
AcDbEntity
  8
2
  6
CONTINUOUS
370
25
 62
7
100
AcDbLine
 10
3.474534057420173
 20
-32.85509318851597
 30
0.0
 11
4.483022704946785
 21
-31.84660454098935
 31
0.0
  0
LINE
  5
9E7
330
1F
100
AcDbEntity
  8
2
  6
CONTINUOUS
370
25
 62
7
100
AcDbLine
 10
2.944203971530251
 20
-32.96115920569395
 30
0.0
 11
4.129469314353505
 21
-31.7758938628707
 31
0.0
  0
LINE
  5
9E8
330
1F
100
AcDbEntity
  8
2
  6
CONTINUOUS
370
25
 62
7
100
AcDbLine
 10
2.413873885640339
 20
-33.06722522287193
 30
0.0
 11
3.775915923760231
 21
-31.70518318475204
 31
0.0
  0
LINE
  5
9E9
330
1F
100
AcDbEntity
  8
2
  6
CONTINUOUS
370
25
 62
7
100
AcDbLine
 10
1.883543799750427
 20
-33.17329124004991
 30
0.0
 11
3.422362533166957
 21
-31.63447250663339
 31
0.0
  0
LINE
  5
9EA
330
1F
100
AcDbEntity
  8
2
  6
CONTINUOUS
370
25
 62
7
100
AcDbLine
 10
1.499999999999998
 20
-33.13257097108841
 30
0.0
 11
3.068809142573684
 21
-31.56376182851474
 31
0.0
  0
LINE
  5
9EB
330
1F
100
AcDbEntity
  8
2
  6
CONTINUOUS
370
25
 62
7
100
AcDbLine
 10
1.499999999999998
 20
-32.70830690237648
 30
0.0
 11
2.715255751980404
 21
-31.49305115039608
 31
0.0
  0
LINE
  5
9EC
330
1F
100
AcDbEntity
  8
2
  6
CONTINUOUS
370
25
 62
7
100
AcDbLine
 10
1.499999999999998
 20
-32.28404283366455
 30
0.0
 11
2.361702361387129
 21
-31.42234047227743
 31
0.0
  0
LINE
  5
9ED
330
1F
100
AcDbEntity
  8
2
  6
CONTINUOUS
370
25
 62
7
100
AcDbLine
 10
1.499999999999998
 20
-31.85977876495262
 30
0.0
 11
2.008148970793854
 21
-31.35162979415877
 31
0.0
  0
LINE
  5
9EE
330
1F
100
AcDbEntity
  8
2
  6
CONTINUOUS
370
25
 62
7
100
AcDbLine
 10
1.499999999999998
 20
-31.43551469624069
 30
0.0
 11
1.65459558020058
 21
-31.28091911604012
 31
0.0
  0
LINE
  5
9EF
330
1F
100
AcDbEntity
  8
2
  6
CONTINUOUS
370
25
 62
7
100
AcDbLine
 10
1.499999999999998
 20
-32.86049303244631
 30
0.0
 11
1.824589139628073
 21
-33.18508217207438
 31
0.0
  0
LINE
  5
9F0
330
1F
100
AcDbEntity
  8
2
  6
CONTINUOUS
370
25
 62
7
100
AcDbLine
 10
1.499999999999998
 20
-32.43622896373438
 30
0.0
 11
2.178142530221347
 21
-33.11437149395573
 31
0.0
  0
LINE
  5
9F1
330
1F
100
AcDbEntity
  8
2
  6
CONTINUOUS
370
25
 62
7
100
AcDbLine
 10
1.499999999999998
 20
-32.01196489502245
 30
0.0
 11
2.531695920814625
 21
-33.04366081583707
 31
0.0
  0
LINE
  5
9F2
330
1F
100
AcDbEntity
  8
2
  6
CONTINUOUS
370
25
 62
7
100
AcDbLine
 10
1.499999999999998
 20
-31.58770082631052
 30
0.0
 11
2.885249311407899
 21
-32.97295013771841
 31
0.0
  0
LINE
  5
9F3
330
1F
100
AcDbEntity
  8
2
  6
CONTINUOUS
370
25
 62
7
100
AcDbLine
 10
1.608204053001757
 20
-31.27164081060035
 30
0.0
 11
3.238802702001175
 21
-32.90223945959976
 31
0.0
  0
LINE
  5
9F4
330
1F
100
AcDbEntity
  8
2
  6
CONTINUOUS
370
25
 62
7
100
AcDbLine
 10
2.13853413889167
 20
-31.37770682777833
 30
0.0
 11
3.59235609259445
 21
-32.8315287814811
 31
0.0
  0
LINE
  5
9F5
330
1F
100
AcDbEntity
  8
2
  6
CONTINUOUS
370
25
 62
7
100
AcDbLine
 10
2.668864224781584
 20
-31.48377284495632
 30
0.0
 11
3.945909483187726
 21
-32.76081810336245
 31
0.0
  0
LINE
  5
9F6
330
1F
100
AcDbEntity
  8
2
  6
CONTINUOUS
370
25
 62
7
100
AcDbLine
 10
3.199194310671494
 20
-31.5898388621343
 30
0.0
 11
4.299462873780999
 21
-32.6901074252438
 31
0.0
  0
LINE
  5
9F7
330
1F
100
AcDbEntity
  8
2
  6
CONTINUOUS
370
25
 62
7
100
AcDbLine
 10
3.729524396561409
 20
-31.69590487931228
 30
0.0
 11
4.653016264374275
 21
-32.61939674712514
 31
0.0
  0
LINE
  5
9F8
330
1F
100
AcDbEntity
  8
2
  6
CONTINUOUS
370
25
 62
7
100
AcDbLine
 10
4.259854482451323
 20
-31.80197089649026
 30
0.0
 11
5.006569654967551
 21
-32.54868606900649
 31
0.0
  0
LINE
  5
9F9
330
1F
100
AcDbEntity
  8
2
  6
CONTINUOUS
370
25
 62
7
100
AcDbLine
 10
4.79018456834124
 20
-31.90803691366825
 30
0.0
 11
5.360123045560827
 21
-32.47797539088783
 31
0.0
  0
LINE
  5
9FA
330
1F
100
AcDbEntity
  8
2
  6
CONTINUOUS
370
25
 62
7
100
AcDbLine
 10
5.320514654231152
 20
-32.01410293084623
 30
0.0
 11
5.713676436154101
 21
-32.40726471276918
 31
0.0
  0
LINE
  5
9FB
330
1F
100
AcDbEntity
  8
2
  6
CONTINUOUS
370
25
 62
7
100
AcDbLine
 10
5.850844740121067
 20
-32.12016894802422
 30
0.0
 11
6.067229826747377
 21
-32.33655403465052
 31
0.0
  0
LINE
  5
9FC
330
1F
100
AcDbEntity
  8
2
  6
CONTINUOUS
370
25
 62
7
100
AcDbLine
 10
6.381174826010983
 20
-32.2262349652022
 30
0.0
 11
6.420783217340654
 21
-32.26584335653187
 31
0.0
  0
LINE
  5
9FD
330
1F
100
AcDbEntity
  8
2
  6
CONTINUOUS
370
25
 62
7
100
AcDbLine
 10
9.7
 20
-32.25
 30
0.0
 11
14.7
 21
-31.25
 31
0.0
  0
LINE
  5
9FE
330
1F
100
AcDbEntity
  8
2
  6
CONTINUOUS
370
25
 62
7
100
AcDbLine
 10
14.7
 20
-31.25
 30
0.0
 11
14.7
 21
-33.25
 31
0.0
  0
LINE
  5
9FF
330
1F
100
AcDbEntity
  8
2
  6
CONTINUOUS
370
25
 62
7
100
AcDbLine
 10
14.7
 20
-33.25
 30
0.0
 11
9.7
 21
-32.25
 31
0.0
  0
LINE
  5
A00
330
1F
100
AcDbEntity
  8
2
  6
CONTINUOUS
370
25
 62
7
100
AcDbLine
 10
14.44038201782749
 20
-33.19807640356549
 30
0.0
 11
14.7
 21
-32.93845842139299
 31
0.0
  0
LINE
  5
A01
330
1F
100
AcDbEntity
  8
2
  6
CONTINUOUS
370
25
 62
7
100
AcDbLine
 10
14.08682862723422
 20
-33.12736572544684
 30
0.0
 11
14.7
 21
-32.51419435268106
 31
0.0
  0
LINE
  5
A02
330
1F
100
AcDbEntity
  8
2
  6
CONTINUOUS
370
25
 62
7
100
AcDbLine
 10
13.73327523664094
 20
-33.05665504732819
 30
0.0
 11
14.7
 21
-32.08993028396913
 31
0.0
  0
LINE
  5
A03
330
1F
100
AcDbEntity
  8
2
  6
CONTINUOUS
370
25
 62
7
100
AcDbLine
 10
13.37972184604767
 20
-32.98594436920953
 30
0.0
 11
14.7
 21
-31.6656662152572
 31
0.0
  0
LINE
  5
A04
330
1F
100
AcDbEntity
  8
2
  6
CONTINUOUS
370
25
 62
7
100
AcDbLine
 10
13.0261684554544
 20
-32.91523369109088
 30
0.0
 11
14.6892526831816
 21
-31.25214946336368
 31
0.0
  0
LINE
  5
A05
330
1F
100
AcDbEntity
  8
2
  6
CONTINUOUS
370
25
 62
7
100
AcDbLine
 10
12.67261506486112
 20
-32.84452301297222
 30
0.0
 11
14.15892259729169
 21
-31.35821548054166
 31
0.0
  0
LINE
  5
A06
330
1F
100
AcDbEntity
  8
2
  6
CONTINUOUS
370
25
 62
7
100
AcDbLine
 10
12.31906167426784
 20
-32.77381233485357
 30
0.0
 11
13.62859251140177
 21
-31.46428149771964
 31
0.0
  0
LINE
  5
A07
330
1F
100
AcDbEntity
  8
2
  6
CONTINUOUS
370
25
 62
7
100
AcDbLine
 10
11.96550828367457
 20
-32.70310165673492
 30
0.0
 11
13.09826242551186
 21
-31.57034751489763
 31
0.0
  0
LINE
  5
A08
330
1F
100
AcDbEntity
  8
2
  6
CONTINUOUS
370
25
 62
7
100
AcDbLine
 10
11.61195489308129
 20
-32.63239097861626
 30
0.0
 11
12.56793233962195
 21
-31.67641353207561
 31
0.0
  0
LINE
  5
A09
330
1F
100
AcDbEntity
  8
2
  6
CONTINUOUS
370
25
 62
7
100
AcDbLine
 10
11.25840150248801
 20
-32.5616803004976
 30
0.0
 11
12.03760225373203
 21
-31.78247954925359
 31
0.0
  0
LINE
  5
A0A
330
1F
100
AcDbEntity
  8
2
  6
CONTINUOUS
370
25
 62
7
100
AcDbLine
 10
10.90484811189474
 20
-32.49096962237895
 30
0.0
 11
11.50727216784212
 21
-31.88854556643157
 31
0.0
  0
LINE
  5
A0B
330
1F
100
AcDbEntity
  8
2
  6
CONTINUOUS
370
25
 62
7
100
AcDbLine
 10
10.55129472130147
 20
-32.42025894426029
 30
0.0
 11
10.9769420819522
 21
-31.99461158360955
 31
0.0
  0
LINE
  5
A0C
330
1F
100
AcDbEntity
  8
2
  6
CONTINUOUS
370
25
 62
7
100
AcDbLine
 10
10.19774133070819
 20
-32.34954826614164
 30
0.0
 11
10.44661199606229
 21
-32.10067760078754
 31
0.0
  0
LINE
  5
A0D
330
1F
100
AcDbEntity
  8
2
  6
CONTINUOUS
370
25
 62
7
100
AcDbLine
 10
9.844187940114917
 20
-32.27883758802298
 30
0.0
 11
9.916281910172376
 21
-32.20674361796552
 31
0.0
  0
LINE
  5
A0E
330
1F
100
AcDbEntity
  8
2
  6
CONTINUOUS
370
25
 62
7
100
AcDbLine
 10
10.01418149954242
 20
-32.18716370009152
 30
0.0
 11
10.17127224931363
 21
-32.34425444986272
 31
0.0
  0
LINE
  5
A0F
330
1F
100
AcDbEntity
  8
2
  6
CONTINUOUS
370
25
 62
7
100
AcDbLine
 10
10.36773489013569
 20
-32.11645302197286
 30
0.0
 11
10.70160233520354
 21
-32.45032046704071
 31
0.0
  0
LINE
  5
A10
330
1F
100
AcDbEntity
  8
2
  6
CONTINUOUS
370
25
 62
7
100
AcDbLine
 10
10.72128828072897
 20
-32.0457423438542
 30
0.0
 11
11.23193242109346
 21
-32.55638648421869
 31
0.0
  0
LINE
  5
A11
330
1F
100
AcDbEntity
  8
2
  6
CONTINUOUS
370
25
 62
7
100
AcDbLine
 10
11.07484167132224
 20
-31.97503166573555
 30
0.0
 11
11.76226250698337
 21
-32.66245250139667
 31
0.0
  0
LINE
  5
A12
330
1F
100
AcDbEntity
  8
2
  6
CONTINUOUS
370
25
 62
7
100
AcDbLine
 10
11.42839506191552
 20
-31.9043209876169
 30
0.0
 11
12.29259259287328
 21
-32.76851851857465
 31
0.0
  0
LINE
  5
A13
330
1F
100
AcDbEntity
  8
2
  6
CONTINUOUS
370
25
 62
7
100
AcDbLine
 10
11.78194845250879
 20
-31.83361030949824
 30
0.0
 11
12.8229226787632
 21
-32.87458453575264
 31
0.0
  0
LINE
  5
A14
330
1F
100
AcDbEntity
  8
2
  6
CONTINUOUS
370
25
 62
7
100
AcDbLine
 10
12.13550184310207
 20
-31.76289963137958
 30
0.0
 11
13.35325276465312
 21
-32.98065055293063
 31
0.0
  0
LINE
  5
A15
330
1F
100
AcDbEntity
  8
2
  6
CONTINUOUS
370
25
 62
7
100
AcDbLine
 10
12.48905523369534
 20
-31.69218895326093
 30
0.0
 11
13.88358285054303
 21
-33.08671657010861
 31
0.0
  0
LINE
  5
A16
330
1F
100
AcDbEntity
  8
2
  6
CONTINUOUS
370
25
 62
7
100
AcDbLine
 10
12.84260862428862
 20
-31.62147827514227
 30
0.0
 11
14.41391293643295
 21
-33.19278258728659
 31
0.0
  0
LINE
  5
A17
330
1F
100
AcDbEntity
  8
2
  6
CONTINUOUS
370
25
 62
7
100
AcDbLine
 10
13.1961620148819
 20
-31.55076759702361
 30
0.0
 11
14.7
 21
-33.05460558214171
 31
0.0
  0
LINE
  5
A18
330
1F
100
AcDbEntity
  8
2
  6
CONTINUOUS
370
25
 62
7
100
AcDbLine
 10
13.54971540547517
 20
-31.48005691890496
 30
0.0
 11
14.7
 21
-32.63034151342978
 31
0.0
  0
LINE
  5
A19
330
1F
100
AcDbEntity
  8
2
  6
CONTINUOUS
370
25
 62
7
100
AcDbLine
 10
13.90326879606844
 20
-31.40934624078631
 30
0.0
 11
14.7
 21
-32.20607744471786
 31
0.0
  0
LINE
  5
A1A
330
1F
100
AcDbEntity
  8
2
  6
CONTINUOUS
370
25
 62
7
100
AcDbLine
 10
14.25682218666172
 20
-31.33863556266765
 30
0.0
 11
14.7
 21
-31.78181337600593
 31
0.0
  0
LINE
  5
A1B
330
1F
100
AcDbEntity
  8
2
  6
CONTINUOUS
370
25
 62
7
100
AcDbLine
 10
14.610375577255
 20
-31.267924884549
 30
0.0
 11
14.7
 21
-31.357549307294
 31
0.0
  0
TEXT
  5
A1C
330
1F
100
AcDbEntity
  8
2
  6
CONTINUOUS
370
25
 62
7
100
AcDbText
 10
16.66249999999999
 20
-30.75
 30
0.0
 40
3.5
  1
3.2
 72
     1
 11
20.16249999999999
 21
-30.75
 31
0.0
100
AcDbText
  0
LINE
  5
A1D
330
1F
100
AcDbEntity
  8
SK1
  6
CONTINUOUS
370
50
 62
4
100
AcDbLine
 10
0.0
 20
0.0
 30
0.0
 11
2.5
 21
0.0
 31
0.0
  0
LINE
  5
A1E
330
1F
100
AcDbEntity
  8
SK1
  6
CONTINUOUS
370
50
 62
4
100
AcDbLine
 10
0.0
 20
0.0
 30
0.0
 11
0.0
 21
2.5
 31
0.0
  0
ARC
  5
A1F
330
1F
100
AcDbEntity
  8
SK1
  6
CONTINUOUS
370
50
 62
4
100
AcDbCircle
 10
0.0
 20
0.0
 30
0.0
 40
2.5
100
AcDbArc
 50
0.0
 51
90.0
  0
LINE
  5
A20
330
1F
100
AcDbEntity
  8
SK1
  6
CONTINUOUS
370
50
 62
4
100
AcDbLine
 10
0.0
 20
0.0
 30
0.0
 11
-2.5
 21
0.0
 31
0.0
  0
ARC
  5
A21
330
1F
100
AcDbEntity
  8
SK1
  6
CONTINUOUS
370
50
 62
4
100
AcDbCircle
 10
0.0
 20
0.0
 30
0.0
 40
2.5
100
AcDbArc
 50
180.0
 51
270.0
  0
LINE
  5
A22
330
1F
100
AcDbEntity
  8
SK1
  6
CONTINUOUS
370
50
 62
4
100
AcDbLine
 10
0.0
 20
-2.5
 30
0.0
 11
0.0
 21
0.0
 31
0.0
  0
ARC
  5
A23
330
1F
100
AcDbEntity
  8
SK1
  6
CONTINUOUS
370
50
 62
4
100
AcDbCircle
 10
0.0
 20
0.0
 30
0.0
 40
2.5
100
AcDbArc
 50
270.0
 51
0.0
  0
ARC
  5
A24
330
1F
100
AcDbEntity
  8
SK1
  6
CONTINUOUS
370
50
 62
4
100
AcDbCircle
 10
0.0
 20
0.0
 30
0.0
 40
2.5
100
AcDbArc
 50
90.0
 51
180.0
  0
LINE
  5
A25
330
1F
100
AcDbEntity
  8
SK1
  6
CONTINUOUS
370
50
 62
4
100
AcDbLine
 10
-0.31832627443191
 20
-2.479495909600069
 30
0.0
 11
0.0
 21
-2.161169635168159
 31
0.0
  0
LINE
  5
A26
330
1F
100
AcDbEntity
  8
SK1
  6
CONTINUOUS
370
50
 62
4
100
AcDbLine
 10
2.16116963516816
 20
0.0
 30
0.0
 11
2.479495909600069
 21
0.3183262744319091
 31
0.0
  0
LINE
  5
A27
330
1F
100
AcDbEntity
  8
SK1
  6
CONTINUOUS
370
50
 62
4
100
AcDbLine
 10
-0.615281817185723
 20
-2.422898061760609
 30
0.0
 11
0.0
 21
-1.807616244574886
 31
0.0
  0
LINE
  5
A28
330
1F
100
AcDbEntity
  8
SK1
  6
CONTINUOUS
370
50
 62
4
100
AcDbLine
 10
1.807616244574887
 20
0.0
 30
0.0
 11
2.422898061760609
 21
0.6152818171857222
 31
0.0
  0
LINE
  5
A29
330
1F
100
AcDbEntity
  8
SK1
  6
CONTINUOUS
370
50
 62
4
100
AcDbLine
 10
-0.8835965231639721
 20
-2.337659377145585
 30
0.0
 11
0.0
 21
-1.454062853981614
 31
0.0
  0
LINE
  5
A2A
330
1F
100
AcDbEntity
  8
SK1
  6
CONTINUOUS
370
50
 62
4
100
AcDbLine
 10
1.454062853981615
 20
0.0
 30
0.0
 11
2.337659377145586
 21
0.8835965231639715
 31
0.0
  0
LINE
  5
A2B
330
1F
100
AcDbEntity
  8
SK1
  6
CONTINUOUS
370
50
 62
4
100
AcDbLine
 10
-1.128779664263143
 20
-2.229289127651483
 30
0.0
 11
0.0
 21
-1.100509463388341
 31
0.0
  0
LINE
  5
A2C
330
1F
100
AcDbEntity
  8
SK1
  6
CONTINUOUS
370
50
 62
4
100
AcDbLine
 10
1.100509463388341
 20
0.0
 30
0.0
 11
2.229289127651484
 21
1.128779664263142
 31
0.0
  0
LINE
  5
A2D
330
1F
100
AcDbEntity
  8
SK1
  6
CONTINUOUS
370
50
 62
4
100
AcDbLine
 10
-1.354032791010379
 20
-2.100988863805446
 30
0.0
 11
0.0
 21
-0.7469560727950677
 31
0.0
  0
LINE
  5
A2E
330
1F
100
AcDbEntity
  8
SK1
  6
CONTINUOUS
370
50
 62
4
100
AcDbLine
 10
0.746956072795068
 20
0.0
 30
0.0
 11
2.100988863805446
 21
1.354032791010378
 31
0.0
  0
LINE
  5
A2F
330
1F
100
AcDbEntity
  8
SK1
  6
CONTINUOUS
370
50
 62
4
100
AcDbLine
 10
-1.559387394659872
 20
-1.952790076861666
 30
0.0
 11
0.0
 21
-0.3934026822017946
 31
0.0
  0
LINE
  5
A30
330
1F
100
AcDbEntity
  8
SK1
  6
CONTINUOUS
370
50
 62
4
100
AcDbLine
 10
0.3934026822017948
 20
0.0
 30
0.0
 11
1.952790076861667
 21
1.559387394659871
 31
0.0
  0
LINE
  5
A31
330
1F
100
AcDbEntity
  8
SK1
  6
CONTINUOUS
370
50
 62
4
100
AcDbLine
 10
-1.746970020883365
 20
-1.786819312491886
 30
0.0
 11
0.0
 21
-0.0398492916085216
 31
0.0
  0
LINE
  5
A32
330
1F
100
AcDbEntity
  8
SK1
  6
CONTINUOUS
370
50
 62
4
100
AcDbLine
 10
0.0398492916085216
 20
0.0
 30
0.0
 11
1.786819312491887
 21
1.746970020883364
 31
0.0
  0
LINE
  5
A33
330
1F
100
AcDbEntity
  8
SK1
  6
CONTINUOUS
370
50
 62
4
100
AcDbLine
 10
-1.917371878232655
 20
-1.603667779247902
 30
0.0
 11
-0.3137040989847517
 21
0.0
 31
0.0
  0
LINE
  5
A34
330
1F
100
AcDbEntity
  8
SK1
  6
CONTINUOUS
370
50
 62
4
100
AcDbLine
 10
0.0
 20
0.3137040989847515
 30
0.0
 11
1.603667779247903
 21
1.917371878232654
 31
0.0
  0
LINE
  5
A35
330
1F
100
AcDbEntity
  8
SK1
  6
CONTINUOUS
370
50
 62
4
100
AcDbLine
 10
-2.068741231122433
 20
-1.401483741544407
 30
0.0
 11
-0.6672574895780249
 21
0.0
 31
0.0
  0
LINE
  5
A36
330
1F
100
AcDbEntity
  8
SK1
  6
CONTINUOUS
370
50
 62
4
100
AcDbLine
 10
0.0
 20
0.6672574895780246
 30
0.0
 11
1.401483741544409
 21
2.068741231122432
 31
0.0
  0
LINE
  5
A37
330
1F
100
AcDbEntity
  8
SK1
  6
CONTINUOUS
370
50
 62
4
100
AcDbLine
 10
-2.2023876557675
 20
-1.181576775596201
 30
0.0
 11
-1.020810880171298
 21
0.0
 31
0.0
  0
LINE
  5
A38
330
1F
100
AcDbEntity
  8
SK1
  6
CONTINUOUS
370
50
 62
4
100
AcDbLine
 10
0.0
 20
1.020810880171298
 30
0.0
 11
1.181576775596202
 21
2.202387655767499
 31
0.0
  0
LINE
  5
A39
330
1F
100
AcDbEntity
  8
SK1
  6
CONTINUOUS
370
50
 62
4
100
AcDbLine
 10
-2.315450943493525
 20
-0.9410866727289533
 30
0.0
 11
-1.374364270764571
 21
0.0
 31
0.0
  0
LINE
  5
A3A
330
1F
100
AcDbEntity
  8
SK1
  6
CONTINUOUS
370
50
 62
4
100
AcDbLine
 10
0.0
 20
1.374364270764571
 30
0.0
 11
0.9410866727289543
 21
2.315450943493524
 31
0.0
  0
LINE
  5
A3B
330
1F
100
AcDbEntity
  8
SK1
  6
CONTINUOUS
370
50
 62
4
100
AcDbLine
 10
-2.405290600131854
 20
-0.6773729387740097
 30
0.0
 11
-1.727917661357844
 21
0.0
 31
0.0
  0
LINE
  5
A3C
330
1F
100
AcDbEntity
  8
SK1
  6
CONTINUOUS
370
50
 62
4
100
AcDbLine
 10
0.0
 20
1.727917661357844
 30
0.0
 11
0.6773729387740106
 21
2.405290600131854
 31
0.0
  0
LINE
  5
A3D
330
1F
100
AcDbEntity
  8
SK1
  6
CONTINUOUS
370
50
 62
4
100
AcDbLine
 10
-2.468598823056026
 20
-0.3871277711049084
 30
0.0
 11
-2.081471051951118
 21
0.0
 31
0.0
  0
LINE
  5
A3E
330
1F
100
AcDbEntity
  8
SK1
  6
CONTINUOUS
370
50
 62
4
100
AcDbLine
 10
0.0
 20
2.081471051951117
 30
0.0
 11
0.3871277711049085
 21
2.468598823056025
 31
0.0
  0
LINE
  5
A3F
330
1F
100
AcDbEntity
  8
SK1
  6
CONTINUOUS
370
50
 62
4
100
AcDbLine
 10
-2.498020276172772
 20
-0.0629958336283822
 30
0.0
 11
-2.43502444254439
 21
0.0
 31
0.0
  0
LINE
  5
A40
330
1F
100
AcDbEntity
  8
SK1
  6
CONTINUOUS
370
50
 62
4
100
AcDbLine
 10
0.0
 20
2.435024442544389
 30
0.0
 11
0.0629958336283828
 21
2.498020276172772
 31
0.0
  0
LINE
  5
A41
330
1F
100
AcDbEntity
  8
SK1
  6
CONTINUOUS
370
50
 62
4
100
AcDbLine
 10
-2.337336523620827
 20
-0.8844932833271533
 30
0.0
 11
-0.8844932833271509
 21
-2.337336523620827
 31
0.0
  0
LINE
  5
A42
330
1F
100
AcDbEntity
  8
SK1
  6
CONTINUOUS
370
50
 62
4
100
AcDbLine
 10
-2.466237059966593
 20
-0.4020393563881135
 30
0.0
 11
-0.4020393563881111
 21
-2.466237059966594
 31
0.0
  0
LINE
  5
A43
330
1F
100
AcDbEntity
  8
SK1
  6
CONTINUOUS
370
50
 62
4
100
AcDbLine
 10
-2.499522297881596
 20
-0.0152007278798383
 30
0.0
 11
-0.0152007278798351
 21
-2.499522297881596
 31
0.0
  0
LINE
  5
A44
330
1F
100
AcDbEntity
  8
SK1
  6
CONTINUOUS
370
50
 62
4
100
AcDbLine
 10
-2.16116963516816
 20
0.0
 30
0.0
 11
0.0
 21
-2.161169635168158
 31
0.0
  0
LINE
  5
A45
330
1F
100
AcDbEntity
  8
SK1
  6
CONTINUOUS
370
50
 62
4
100
AcDbLine
 10
-1.807616244574888
 20
0.0
 30
0.0
 11
0.0
 21
-1.807616244574886
 31
0.0
  0
LINE
  5
A46
330
1F
100
AcDbEntity
  8
SK1
  6
CONTINUOUS
370
50
 62
4
100
AcDbLine
 10
-1.454062853981615
 20
0.0
 30
0.0
 11
0.0
 21
-1.454062853981613
 31
0.0
  0
LINE
  5
A47
330
1F
100
AcDbEntity
  8
SK1
  6
CONTINUOUS
370
50
 62
4
100
AcDbLine
 10
-1.100509463388341
 20
0.0
 30
0.0
 11
0.0
 21
-1.10050946338834
 31
0.0
  0
LINE
  5
A48
330
1F
100
AcDbEntity
  8
SK1
  6
CONTINUOUS
370
50
 62
4
100
AcDbLine
 10
-0.7469560727950676
 20
0.0
 30
0.0
 11
0.0
 21
-0.7469560727950668
 31
0.0
  0
LINE
  5
A49
330
1F
100
AcDbEntity
  8
SK1
  6
CONTINUOUS
370
50
 62
4
100
AcDbLine
 10
-0.3934026822017942
 20
0.0
 30
0.0
 11
0.0
 21
-0.3934026822017938
 31
0.0
  0
LINE
  5
A4A
330
1F
100
AcDbEntity
  8
SK1
  6
CONTINUOUS
370
50
 62
4
100
AcDbLine
 10
-0.0398492916085216
 20
0.0
 30
0.0
 11
0.0
 21
-0.0398492916085216
 31
0.0
  0
LINE
  5
A4B
330
1F
100
AcDbEntity
  8
SK1
  6
CONTINUOUS
370
50
 62
4
100
AcDbLine
 10
0.0
 20
0.3137040989847515
 30
0.0
 11
0.3137040989847518
 21
0.0
 31
0.0
  0
LINE
  5
A4C
330
1F
100
AcDbEntity
  8
SK1
  6
CONTINUOUS
370
50
 62
4
100
AcDbLine
 10
0.0
 20
0.6672574895780246
 30
0.0
 11
0.6672574895780253
 21
0.0
 31
0.0
  0
LINE
  5
A4D
330
1F
100
AcDbEntity
  8
SK1
  6
CONTINUOUS
370
50
 62
4
100
AcDbLine
 10
0.0
 20
1.020810880171298
 30
0.0
 11
1.020810880171299
 21
0.0
 31
0.0
  0
LINE
  5
A4E
330
1F
100
AcDbEntity
  8
SK1
  6
CONTINUOUS
370
50
 62
4
100
AcDbLine
 10
0.0
 20
1.37436427076457
 30
0.0
 11
1.374364270764571
 21
0.0
 31
0.0
  0
LINE
  5
A4F
330
1F
100
AcDbEntity
  8
SK1
  6
CONTINUOUS
370
50
 62
4
100
AcDbLine
 10
0.0
 20
1.727917661357843
 30
0.0
 11
1.727917661357845
 21
0.0
 31
0.0
  0
LINE
  5
A50
330
1F
100
AcDbEntity
  8
SK1
  6
CONTINUOUS
370
50
 62
4
100
AcDbLine
 10
0.0
 20
2.081471051951116
 30
0.0
 11
2.081471051951118
 21
0.0
 31
0.0
  0
LINE
  5
A51
330
1F
100
AcDbEntity
  8
SK1
  6
CONTINUOUS
370
50
 62
4
100
AcDbLine
 10
0.0
 20
2.435024442544389
 30
0.0
 11
2.435024442544392
 21
0.0
 31
0.0
  0
LINE
  5
A52
330
1F
100
AcDbEntity
  8
SK1
  6
CONTINUOUS
370
50
 62
4
100
AcDbLine
 10
0.3077647139123103
 20
2.480813119225352
 30
0.0
 11
2.480813119225352
 21
0.307764713912313
 31
0.0
  0
LINE
  5
A53
330
1F
100
AcDbEntity
  8
SK1
  6
CONTINUOUS
370
50
 62
4
100
AcDbLine
 10
0.7611924397506667
 20
2.380938783980268
 30
0.0
 11
2.380938783980268
 21
0.7611924397506691
 31
0.0
  0
LINE
  5
A54
330
1F
100
AcDbEntity
  8
SK1
  6
CONTINUOUS
370
50
 62
4
100
AcDbLine
 10
1.48586376213526
 20
2.009820852188948
 30
0.0
 11
2.009820852188946
 21
1.485863762135263
 31
0.0
  0
LINE
  5
A55
330
1F
100
AcDbEntity
  8
4
  6
LONGDASH_DASH
370
25
 62
2
100
AcDbLine
 10
0.0
 20
0.0
 30
0.0
 11
9.7
 21
0.0
 31
0.0
  0
LINE
  5
A56
330
1F
100
AcDbEntity
  8
SK4
  6
LONGDASH_DASH
370
25
 62
2
100
AcDbLine
 10
-41.3
 20
0.0
 30
0.0
 11
15.7
 21
0.0
 31
0.0
  0
ARC
  5
A57
330
1F
100
AcDbEntity
  8
SK6
  6
CONTINUOUS
370
25
 62
5
100
AcDbCircle
 10
51.75858200837651
 20
-33.20884575338786
 30
0.0
 40
2.760489128492204
100
AcDbArc
 50
338.9379403434233
 51
90.44457437511379
  0
LINE
  5
A58
330
1F
100
AcDbEntity
  8
SK6
  6
CONTINUOUS
370
25
 62
5
100
AcDbLine
 10
51.73716279695984
 20
-30.44843972421282
 30
0.0
 11
51.73716279695984
 21
-31.55149835613464
 31
0.0
  0
ARC
  5
A59
330
1F
100
AcDbEntity
  8
SK6
  6
CONTINUOUS
370
25
 62
5
100
AcDbCircle
 10
51.74770902936916
 20
-33.22883924566821
 30
0.0
 40
1.677374043771782
100
AcDbArc
 50
243.4214706017866
 51
90.36024081226083
  0
ARC
  5
A5A
330
1F
100
AcDbEntity
  8
SK6
  6
CONTINUOUS
370
25
 62
5
100
AcDbCircle
 10
54.26995989684958
 20
-32.79743199215561
 30
0.0
 40
3.800217030022756
100
AcDbArc
 50
210.548373128854
 51
236.97801693668
  0
LINE
  5
A5B
330
1F
100
AcDbEntity
  8
SK6
  6
CONTINUOUS
370
25
 62
5
100
AcDbLine
 10
52.19899068512487
 20
-35.98376781867536
 30
0.0
 11
56.34093096742671
 21
-35.98376781867536
 31
0.0
  0
ARC
  5
A5C
330
1F
100
AcDbEntity
  8
SK6
  6
CONTINUOUS
370
25
 62
5
100
AcDbCircle
 10
54.26996183877257
 20
-32.7974320937346
 30
0.0
 40
3.800216899582478
100
AcDbArc
 50
303.0219828477958
 51
326.3732153033476
  0
LINE
  5
A5D
330
1F
100
AcDbEntity
  8
SK6
  6
CONTINUOUS
370
25
 62
5
100
AcDbLine
 10
57.43425975135723
 20
-34.90191949077091
 30
0.0
 11
54.07696170575462
 21
-34.90191949077091
 31
0.0
  0
LINE
  5
A5E
330
1F
100
AcDbEntity
  8
SK6
  6
CONTINUOUS
370
25
 62
5
100
AcDbLine
 10
54.07696170575462
 20
-34.90191949077091
 30
0.0
 11
57.99682109771987
 21
-33.54051829641694
 31
0.0
  0
ARC
  5
A5F
330
1F
100
AcDbEntity
  8
SK6
  6
CONTINUOUS
370
25
 62
5
100
AcDbCircle
 10
54.26996256157211
 20
-32.79743260485941
 30
0.0
 40
3.800217216614723
100
AcDbArc
 50
348.7238644184695
 51
53.46910512608839
  0
LINE
  5
A60
330
1F
100
AcDbEntity
  8
SK6
  6
CONTINUOUS
370
25
 62
5
100
AcDbLine
 10
56.53206524538545
 20
-29.74382124429968
 30
0.0
 11
54.33465047882737
 21
-34.20090973507058
 31
0.0
  0
ENDSEC
  0
SECTION
  2
OBJECTS
  0
DICTIONARY
  5
C
330
0
100
AcDbDictionary
281
     1
  3
ACAD_GROUP
350
D
  3
ACAD_LAYOUT
350
1A
  3
ACAD_MATERIAL
350
3B
  3
ACAD_MLEADERSTYLE
350
A63
  3
ACAD_MLINESTYLE
350
17
  3
ACAD_PLOTSETTINGS
350
19
  3
ACAD_PLOTSTYLENAME
350
E
  3
ACAD_SCALELIST
350
36B
  3
ACAD_VISUALSTYLE
350
2A
  3
AcDbVariableDictionary
350
A61
  0
DICTIONARY
  5
D
102
{ACAD_REACTORS
330
C
102
}
330
C
100
AcDbDictionary
281
     1
  0
DICTIONARY
  5
1A
102
{ACAD_REACTORS
330
C
102
}
330
C
100
AcDbDictionary
281
     1
  3
Layout1
350
1E
  3
Layout2
350
26
  3
Model
350
22
  0
DICTIONARY
  5
3B
102
{ACAD_REACTORS
330
C
102
}
330
C
100
AcDbDictionary
281
     1
  3
ByBlock
350
3D
  3
ByLayer
350
3C
  3
Global
350
3E
  0
DICTIONARY
  5
A63
102
{ACAD_REACTORS
330
C
102
}
330
C
100
AcDbDictionary
281
     1
  0
DICTIONARY
  5
17
102
{ACAD_REACTORS
330
C
102
}
330
C
100
AcDbDictionary
281
     1
  3
Standard
350
18
  0
DICTIONARY
  5
19
102
{ACAD_REACTORS
330
C
102
}
330
C
100
AcDbDictionary
281
     1
  0
ACDBDICTIONARYWDFLT
  5
E
102
{ACAD_REACTORS
330
C
102
}
330
C
100
AcDbDictionary
281
     1
  3
Normal
350
F
100
AcDbDictionaryWithDefault
340
F
  0
DICTIONARY
  5
36B
102
{ACAD_REACTORS
330
C
102
}
330
C
100
AcDbDictionary
281
     1
  3
A0
350
36C
  3
A1
350
36D
  3
A2
350
36E
  3
A3
350
36F
  3
A4
350
370
  3
A5
350
371
  3
A6
350
372
  3
A7
350
373
  3
A8
350
374
  3
A9
350
375
  3
B0
350
376
  3
B1
350
377
  3
B2
350
378
  3
B3
350
379
  3
B4
350
37A
  3
B5
350
37B
  3
B6
350
37C
  3
B7
350
37D
  3
B8
350
37E
  3
B9
350
37F
  3
C0
350
380
  3
C1
350
381
  3
C2
350
382
  3
C3
350
383
  3
C4
350
384
  3
C5
350
385
  3
C6
350
386
  3
C7
350
387
  3
C8
350
388
  3
C9
350
389
  3
D0
350
38A
  3
D1
350
38B
  3
D2
350
38C
  0
DICTIONARY
  5
2A
102
{ACAD_REACTORS
330
C
102
}
330
C
100
AcDbDictionary
281
     1
  3
2dWireframe
350
2F
  3
3D Hidden
350
31
  3
3dWireframe
350
30
  3
Basic
350
32
  3
Brighten
350
36
  3
ColorChange
350
3A
  3
Conceptual
350
34
  3
Dim
350
35
  3
Facepattern
350
39
  3
Flat
350
2B
  3
FlatWithEdges
350
2C
  3
Gouraud
350
2D
  3
GouraudWithEdges
350
2E
  3
Linepattern
350
38
  3
Realistic
350
33
  3
Thicken
350
37
  0
DICTIONARY
  5
A61
102
{ACAD_REACTORS
330
C
102
}
330
C
100
AcDbDictionary
281
     1
  3
CANNOSCALE
350
A66
  3
DIMASSOC
350
A67
  3
HIDETEXT
350
A68
  3
PSOLHEIGHT
350
A65
  3
PSOLWIDTH
350
A64
  0
LAYOUT
  5
1E
102
{ACAD_REACTORS
330
1A
102
}
330
1A
100
AcDbPlotSettings
  1

  2
none_device
  4

  6

 40
0.0
 41
0.0
 42
0.0
 43
0.0
 44
0.0
 45
0.0
 46
0.0
 47
0.0
 48
0.0
 49
0.0
140
0.0
141
0.0
142
1.0
143
1.0
 70
   688
 72
     0
 73
     0
 74
     5
  7

 75
    16
147
1.0
148
0.0
149
0.0
100
AcDbLayout
  1
Layout1
 70
     1
 71
     1
 10
0.0
 20
0.0
 11
420.0
 21
297.0
 12
0.0
 22
0.0
 32
0.0
 14
1.000000000000000E+20
 24
1.000000000000000E+20
 34
1.000000000000000E+20
 15
-1.000000000000000E+20
 25
-1.000000000000000E+20
 35
-1.000000000000000E+20
146
0.0
 13
0.0
 23
0.0
 33
0.0
 16
1.0
 26
0.0
 36
0.0
 17
0.0
 27
1.0
 37
0.0
 76
     0
330
1B
  0
LAYOUT
  5
26
102
{ACAD_REACTORS
330
1A
102
}
330
1A
100
AcDbPlotSettings
  1

  2
none_device
  4

  6

 40
0.0
 41
0.0
 42
0.0
 43
0.0
 44
0.0
 45
0.0
 46
0.0
 47
0.0
 48
0.0
 49
0.0
140
0.0
141
0.0
142
1.0
143
1.0
 70
   688
 72
     0
 73
     0
 74
     5
  7

 75
    16
147
1.0
148
0.0
149
0.0
100
AcDbLayout
  1
Layout2
 70
     1
 71
     2
 10
0.0
 20
0.0
 11
0.0
 21
0.0
 12
0.0
 22
0.0
 32
0.0
 14
0.0
 24
0.0
 34
0.0
 15
0.0
 25
0.0
 35
0.0
146
0.0
 13
0.0
 23
0.0
 33
0.0
 16
1.0
 26
0.0
 36
0.0
 17
0.0
 27
1.0
 37
0.0
 76
     0
330
23
  0
LAYOUT
  5
22
102
{ACAD_REACTORS
330
1A
102
}
330
1A
100
AcDbPlotSettings
  1

  2
none_device
  4

  6

 40
0.0
 41
0.0
 42
0.0
 43
0.0
 44
0.0
 45
0.0
 46
0.0
 47
0.0
 48
0.0
 49
0.0
140
0.0
141
0.0
142
1.0
143
1.0
 70
  1712
 72
     0
 73
     0
 74
     0
  7

 75
     0
147
1.0
148
0.0
149
0.0
100
AcDbLayout
  1
Model
 70
     1
 71
     0
 10
0.0
 20
0.0
 11
420.0
 21
297.0
 12
0.0
 22
0.0
 32
0.0
 14
0.0
 24
0.0
 34
0.0
 15
25.0
 25
35.0
 35
0.0
146
0.0
 13
0.0
 23
0.0
 33
0.0
 16
1.0
 26
0.0
 36
0.0
 17
0.0
 27
1.0
 37
0.0
 76
     0
330
1F
331
29
  0
MATERIAL
  5
3D
102
{ACAD_REACTORS
330
3B
102
}
102
{ACAD_XDICTIONARY
360
A8B
102
}
330
3B
100
AcDbMaterial
  1
ByBlock
  0
MATERIAL
  5
3C
102
{ACAD_REACTORS
330
3B
102
}
102
{ACAD_XDICTIONARY
360
A89
102
}
330
3B
100
AcDbMaterial
  1
ByLayer
  0
MATERIAL
  5
3E
102
{ACAD_REACTORS
330
3B
102
}
102
{ACAD_XDICTIONARY
360
A8D
102
}
330
3B
100
AcDbMaterial
  1
Global
  0
MLINESTYLE
  5
18
102
{ACAD_REACTORS
330
17
102
}
330
17
100
AcDbMlineStyle
  2
Standard
 70
     0
  3

 62
   256
 51
90.0
 52
90.0
 71
     2
 49
0.5
 62
   256
  6
BYLAYER
 49
-0.5
 62
   256
  6
BYLAYER
  0
ACDBPLACEHOLDER
  5
F
102
{ACAD_REACTORS
330
E
102
}
330
E
  0
SCALE
  5
36C
102
{ACAD_REACTORS
330
36B
102
}
330
36B
100
AcDbScale
 70
     0
300
1:1
140
1.0
141
1.0
290
     1
  0
SCALE
  5
36D
102
{ACAD_REACTORS
330
36B
102
}
330
36B
100
AcDbScale
 70
     0
300
1:2
140
1.0
141
2.0
290
     0
  0
SCALE
  5
36E
102
{ACAD_REACTORS
330
36B
102
}
330
36B
100
AcDbScale
 70
     0
300
1:4
140
1.0
141
4.0
290
     0
  0
SCALE
  5
36F
102
{ACAD_REACTORS
330
36B
102
}
330
36B
100
AcDbScale
 70
     0
300
1:5
140
1.0
141
5.0
290
     0
  0
SCALE
  5
370
102
{ACAD_REACTORS
330
36B
102
}
330
36B
100
AcDbScale
 70
     0
300
1:8
140
1.0
141
8.0
290
     0
  0
SCALE
  5
371
102
{ACAD_REACTORS
330
36B
102
}
330
36B
100
AcDbScale
 70
     0
300
1:10
140
1.0
141
10.0
290
     0
  0
SCALE
  5
372
102
{ACAD_REACTORS
330
36B
102
}
330
36B
100
AcDbScale
 70
     0
300
1:16
140
1.0
141
16.0
290
     0
  0
SCALE
  5
373
102
{ACAD_REACTORS
330
36B
102
}
330
36B
100
AcDbScale
 70
     0
300
1:20
140
1.0
141
20.0
290
     0
  0
SCALE
  5
374
102
{ACAD_REACTORS
330
36B
102
}
330
36B
100
AcDbScale
 70
     0
300
1:30
140
1.0
141
30.0
290
     0
  0
SCALE
  5
375
102
{ACAD_REACTORS
330
36B
102
}
330
36B
100
AcDbScale
 70
     0
300
1:40
140
1.0
141
40.0
290
     0
  0
SCALE
  5
376
102
{ACAD_REACTORS
330
36B
102
}
330
36B
100
AcDbScale
 70
     0
300
1:50
140
1.0
141
50.0
290
     0
  0
SCALE
  5
377
102
{ACAD_REACTORS
330
36B
102
}
330
36B
100
AcDbScale
 70
     0
300
1:100
140
1.0
141
100.0
290
     0
  0
SCALE
  5
378
102
{ACAD_REACTORS
330
36B
102
}
330
36B
100
AcDbScale
 70
     0
300
2:1
140
2.0
141
1.0
290
     0
  0
SCALE
  5
379
102
{ACAD_REACTORS
330
36B
102
}
330
36B
100
AcDbScale
 70
     0
300
4:1
140
4.0
141
1.0
290
     0
  0
SCALE
  5
37A
102
{ACAD_REACTORS
330
36B
102
}
330
36B
100
AcDbScale
 70
     0
300
8:1
140
8.0
141
1.0
290
     0
  0
SCALE
  5
37B
102
{ACAD_REACTORS
330
36B
102
}
330
36B
100
AcDbScale
 70
     0
300
10:1
140
10.0
141
1.0
290
     0
  0
SCALE
  5
37C
102
{ACAD_REACTORS
330
36B
102
}
330
36B
100
AcDbScale
 70
     0
300
100:1
140
100.0
141
1.0
290
     0
  0
SCALE
  5
37D
102
{ACAD_REACTORS
330
36B
102
}
330
36B
100
AcDbScale
 70
     0
300
1/128" = 1'-0"
140
0.0078125
141
12.0
290
     0
  0
SCALE
  5
37E
102
{ACAD_REACTORS
330
36B
102
}
330
36B
100
AcDbScale
 70
     0
300
1/64" = 1'-0"
140
0.015625
141
12.0
290
     0
  0
SCALE
  5
37F
102
{ACAD_REACTORS
330
36B
102
}
330
36B
100
AcDbScale
 70
     0
300
1/32" = 1'-0"
140
0.03125
141
12.0
290
     0
  0
SCALE
  5
380
102
{ACAD_REACTORS
330
36B
102
}
330
36B
100
AcDbScale
 70
     0
300
1/16" = 1'-0"
140
0.0625
141
12.0
290
     0
  0
SCALE
  5
381
102
{ACAD_REACTORS
330
36B
102
}
330
36B
100
AcDbScale
 70
     0
300
3/32" = 1'-0"
140
0.09375
141
12.0
290
     0
  0
SCALE
  5
382
102
{ACAD_REACTORS
330
36B
102
}
330
36B
100
AcDbScale
 70
     0
300
1/8" = 1'-0"
140
0.125
141
12.0
290
     0
  0
SCALE
  5
383
102
{ACAD_REACTORS
330
36B
102
}
330
36B
100
AcDbScale
 70
     0
300
3/16" = 1'-0"
140
0.1875
141
12.0
290
     0
  0
SCALE
  5
384
102
{ACAD_REACTORS
330
36B
102
}
330
36B
100
AcDbScale
 70
     0
300
1/4" = 1'-0"
140
0.25
141
12.0
290
     0
  0
SCALE
  5
385
102
{ACAD_REACTORS
330
36B
102
}
330
36B
100
AcDbScale
 70
     0
300
3/8" = 1'-0"
140
0.375
141
12.0
290
     0
  0
SCALE
  5
386
102
{ACAD_REACTORS
330
36B
102
}
330
36B
100
AcDbScale
 70
     0
300
1/2" = 1'-0"
140
0.5
141
12.0
290
     0
  0
SCALE
  5
387
102
{ACAD_REACTORS
330
36B
102
}
330
36B
100
AcDbScale
 70
     0
300
3/4" = 1'-0"
140
0.75
141
12.0
290
     0
  0
SCALE
  5
388
102
{ACAD_REACTORS
330
36B
102
}
330
36B
100
AcDbScale
 70
     0
300
1" = 1'-0"
140
1.0
141
12.0
290
     0
  0
SCALE
  5
389
102
{ACAD_REACTORS
330
36B
102
}
330
36B
100
AcDbScale
 70
     0
300
1-1/2" = 1'-0"
140
1.5
141
12.0
290
     0
  0
SCALE
  5
38A
102
{ACAD_REACTORS
330
36B
102
}
330
36B
100
AcDbScale
 70
     0
300
3" = 1'-0"
140
3.0
141
12.0
290
     0
  0
SCALE
  5
38B
102
{ACAD_REACTORS
330
36B
102
}
330
36B
100
AcDbScale
 70
     0
300
6" = 1'-0"
140
6.0
141
12.0
290
     0
  0
SCALE
  5
38C
102
{ACAD_REACTORS
330
36B
102
}
330
36B
100
AcDbScale
 70
     0
300
1'-0" = 1'-0"
140
12.0
141
12.0
290
     0
  0
VISUALSTYLE
  5
2F
102
{ACAD_REACTORS
330
2A
102
}
102
{ACAD_XDICTIONARY
360
A71
102
}
330
2A
100
AcDbVisualStyle
  2
2dWireframe
 70
     4
 71
     0
 72
     2
 73
     0
 90
        0
 40
-0.6
 41
-30.0
 62
     5
 63
     7
 74
     1
 91
        4
 64
     7
 65
   257
 75
     1
175
     1
 42
1.0
 92
        0
 66
   257
 43
1.0
 76
     1
 77
     6
 78
     2
 67
     7
 79
     5
170
     0
171
     0
290
     0
174
     0
 93
        1
 44
0.0
173
     0
291
     0
 45
0.0
1001
ACAD
1000
AcDbSavedByObjectVersion
1070
     0
  0
VISUALSTYLE
  5
31
102
{ACAD_REACTORS
330
2A
102
}
102
{ACAD_XDICTIONARY
360
A75
102
}
330
2A
100
AcDbVisualStyle
  2
3D Hidden
 70
     6
 71
     1
 72
     2
 73
     2
 90
        0
 40
-0.6
 41
-30.0
 62
     5
 63
     7
 74
     2
 91
        2
 64
     7
 65
   257
 75
     2
175
     1
 42
40.0
 92
        0
 66
   257
 43
1.0
 76
     1
 77
     6
 78
     2
 67
     7
 79
     3
170
     0
171
     0
290
     0
174
     0
 93
        1
 44
0.0
173
     0
291
     0
 45
0.0
1001
ACAD
1000
AcDbSavedByObjectVersion
1070
     0
  0
VISUALSTYLE
  5
30
102
{ACAD_REACTORS
330
2A
102
}
102
{ACAD_XDICTIONARY
360
A73
102
}
330
2A
100
AcDbVisualStyle
  2
3dWireframe
 70
     5
 71
     0
 72
     2
 73
     0
 90
        0
 40
-0.6
 41
-30.0
 62
     5
 63
     7
 74
     1
 91
        4
 64
     7
 65
   257
 75
     1
175
     1
 42
1.0
 92
        0
 66
   257
 43
1.0
 76
     1
 77
     6
 78
     2
 67
     7
 79
     5
170
     0
171
     0
290
     0
174
     0
 93
        1
 44
0.0
173
     0
291
     0
 45
0.0
1001
ACAD
1000
AcDbSavedByObjectVersion
1070
     0
  0
VISUALSTYLE
  5
32
102
{ACAD_REACTORS
330
2A
102
}
102
{ACAD_XDICTIONARY
360
A77
102
}
330
2A
100
AcDbVisualStyle
  2
Basic
 70
     7
 71
     1
 72
     0
 73
     1
 90
        0
 40
-0.6
 41
-30.0
 62
     5
 63
     7
 74
     0
 91
        4
 64
     7
 65
   257
 75
     1
175
     1
 42
1.0
 92
        8
 66
     7
 43
1.0
 76
     1
 77
     6
 78
     2
 67
     7
 79
     5
170
     0
171
     0
290
     0
174
     0
 93
        1
 44
0.0
173
     0
291
     1
 45
0.0
1001
ACAD
1000
AcDbSavedByObjectVersion
1070
     0
  0
VISUALSTYLE
  5
36
102
{ACAD_REACTORS
330
2A
102
}
102
{ACAD_XDICTIONARY
360
A7F
102
}
330
2A
100
AcDbVisualStyle
  2
Brighten
 70
    12
 71
     2
 72
     2
 73
     0
 90
        0
 40
-0.6
 41
-30.0
 62
     5
 63
     7
 74
     1
 91
        4
 64
     7
 65
   257
 75
     1
175
     1
 42
1.0
 92
        8
 66
     7
 43
1.0
 76
     1
 77
     6
 78
     2
 67
     7
 79
     5
170
     0
171
     0
290
     0
174
     0
 93
        1
 44
50.0
173
     0
291
     1
 45
0.0
1001
ACAD
1000
AcDbSavedByObjectVersion
1070
     0
  0
VISUALSTYLE
  5
3A
102
{ACAD_REACTORS
330
2A
102
}
102
{ACAD_XDICTIONARY
360
A87
102
}
330
2A
100
AcDbVisualStyle
  2
ColorChange
 70
    16
 71
     2
 72
     2
 73
     3
 90
        0
 40
-0.6
 41
-30.0
 62
     5
 63
     8
 74
     1
 91
        4
 64
     7
 65
   257
 75
     1
175
     1
 42
1.0
 92
        8
 66
     8
 43
1.0
 76
     1
 77
     6
 78
     2
 67
     7
 79
     5
170
     0
171
     0
290
     0
174
     0
 93
        1
 44
0.0
173
     0
291
     1
 45
0.0
1001
ACAD
1000
AcDbSavedByObjectVersion
1070
     0
  0
VISUALSTYLE
  5
34
102
{ACAD_REACTORS
330
2A
102
}
102
{ACAD_XDICTIONARY
360
A7B
102
}
330
2A
100
AcDbVisualStyle
  2
Conceptual
 70
     9
 71
     3
 72
     2
 73
     0
 90
        0
 40
-0.6
 41
-30.0
 62
     5
 63
     7
 74
     2
 91
        2
 64
     7
 65
   257
 75
     1
175
     1
 42
40.0
 92
        8
 66
     7
 43
1.0
 76
     1
 77
     6
 78
     2
 67
     7
 79
     3
170
     0
171
     0
290
     0
174
     0
 93
        1
 44
0.0
173
     0
291
     0
 45
0.0
1001
ACAD
1000
AcDbSavedByObjectVersion
1070
     0
  0
VISUALSTYLE
  5
35
102
{ACAD_REACTORS
330
2A
102
}
102
{ACAD_XDICTIONARY
360
A7D
102
}
330
2A
100
AcDbVisualStyle
  2
Dim
 70
    11
 71
     2
 72
     2
 73
     0
 90
        0
 40
-0.6
 41
-30.0
 62
     5
 63
     7
 74
     1
 91
        4
 64
     7
 65
   257
 75
     1
175
     1
 42
1.0
 92
        8
 66
     7
 43
1.0
 76
     1
 77
     6
 78
     2
 67
     7
 79
     5
170
     0
171
     0
290
     0
174
     0
 93
        1
 44
-50.0
173
     0
291
     1
 45
0.0
1001
ACAD
1000
AcDbSavedByObjectVersion
1070
     0
  0
VISUALSTYLE
  5
39
102
{ACAD_REACTORS
330
2A
102
}
102
{ACAD_XDICTIONARY
360
A85
102
}
330
2A
100
AcDbVisualStyle
  2
Facepattern
 70
    15
 71
     2
 72
     2
 73
     0
 90
        0
 40
-0.6
 41
-30.0
 62
     5
 63
     7
 74
     1
 91
        4
 64
     7
 65
   257
 75
     1
175
     1
 42
1.0
 92
        8
 66
     7
 43
1.0
 76
     1
 77
     6
 78
     2
 67
     7
 79
     5
170
     0
171
     0
290
     0
174
     0
 93
        1
 44
0.0
173
     0
291
     1
 45
0.0
1001
ACAD
1000
AcDbSavedByObjectVersion
1070
     0
  0
VISUALSTYLE
  5
2B
102
{ACAD_REACTORS
330
2A
102
}
102
{ACAD_XDICTIONARY
360
A69
102
}
330
2A
100
AcDbVisualStyle
  2
Flat
 70
     0
 71
     2
 72
     1
 73
     1
 90
        2
 40
-0.6
 41
30.0
 62
     5
 63
     7
 74
     0
 91
        4
 64
     7
 65
   257
 75
     1
175
     1
 42
1.0
 92
        8
 66
     7
 43
1.0
 76
     1
 77
     6
 78
     2
 67
     7
 79
     5
170
     0
171
     0
290
     0
174
     0
 93
       13
 44
0.0
173
     0
291
     1
 45
0.0
1001
ACAD
1000
AcDbSavedByObjectVersion
1070
     0
  0
VISUALSTYLE
  5
2C
102
{ACAD_REACTORS
330
2A
102
}
102
{ACAD_XDICTIONARY
360
A6B
102
}
330
2A
100
AcDbVisualStyle
  2
FlatWithEdges
 70
     1
 71
     2
 72
     1
 73
     1
 90
        2
 40
-0.6
 41
30.0
 62
     5
 63
     7
 74
     1
 91
        4
 64
     7
 65
   257
 75
     1
175
     1
 42
1.0
 92
        0
 66
   257
 43
1.0
 76
     1
 77
     6
 78
     2
 67
     7
 79
     5
170
     0
171
     0
290
     0
174
     0
 93
       13
 44
0.0
173
     0
291
     1
 45
0.0
1001
ACAD
1000
AcDbSavedByObjectVersion
1070
     0
  0
VISUALSTYLE
  5
2D
102
{ACAD_REACTORS
330
2A
102
}
102
{ACAD_XDICTIONARY
360
A6D
102
}
330
2A
100
AcDbVisualStyle
  2
Gouraud
 70
     2
 71
     2
 72
     2
 73
     1
 90
        2
 40
-0.6
 41
30.0
 62
     5
 63
     7
 74
     0
 91
        4
 64
     7
 65
   257
 75
     1
175
     1
 42
1.0
 92
        0
 66
     7
 43
1.0
 76
     1
 77
     6
 78
     2
 67
     7
 79
     5
170
     0
171
     0
290
     0
174
     0
 93
       13
 44
0.0
173
     0
291
     1
 45
0.0
1001
ACAD
1000
AcDbSavedByObjectVersion
1070
     0
  0
VISUALSTYLE
  5
2E
102
{ACAD_REACTORS
330
2A
102
}
102
{ACAD_XDICTIONARY
360
A6F
102
}
330
2A
100
AcDbVisualStyle
  2
GouraudWithEdges
 70
     3
 71
     2
 72
     2
 73
     1
 90
        2
 40
-0.6
 41
30.0
 62
     5
 63
     7
 74
     1
 91
        4
 64
     7
 65
   257
 75
     1
175
     1
 42
1.0
 92
        0
 66
   257
 43
1.0
 76
     1
 77
     6
 78
     2
 67
     7
 79
     5
170
     0
171
     0
290
     0
174
     0
 93
       13
 44
0.0
173
     0
291
     1
 45
0.0
1001
ACAD
1000
AcDbSavedByObjectVersion
1070
     0
  0
VISUALSTYLE
  5
38
102
{ACAD_REACTORS
330
2A
102
}
102
{ACAD_XDICTIONARY
360
A83
102
}
330
2A
100
AcDbVisualStyle
  2
Linepattern
 70
    14
 71
     2
 72
     2
 73
     0
 90
        0
 40
-0.6
 41
-30.0
 62
     5
 63
     7
 74
     1
 91
        4
 64
     7
 65
   257
 75
     7
175
     7
 42
1.0
 92
        8
 66
     7
 43
1.0
 76
     1
 77
     6
 78
     2
 67
     7
 79
     5
170
     0
171
     0
290
     0
174
     0
 93
        1
 44
0.0
173
     0
291
     1
 45
0.0
1001
ACAD
1000
AcDbSavedByObjectVersion
1070
     0
  0
VISUALSTYLE
  5
33
102
{ACAD_REACTORS
330
2A
102
}
102
{ACAD_XDICTIONARY
360
A79
102
}
330
2A
100
AcDbVisualStyle
  2
Realistic
 70
     8
 71
     2
 72
     2
 73
     0
 90
        0
 40
-0.6
 41
-30.0
 62
     5
 63
     7
 74
     1
 91
        0
 64
     7
 65
   257
 75
     1
175
     1
 42
1.0
 92
        8
 66
     8
 43
1.0
 76
     1
 77
     6
 78
     2
 67
     7
 79
     5
170
     0
171
     0
290
     0
174
     0
 93
       13
 44
0.0
173
     0
291
     0
 45
0.0
1001
ACAD
1000
AcDbSavedByObjectVersion
1070
     0
  0
VISUALSTYLE
  5
37
102
{ACAD_REACTORS
330
2A
102
}
102
{ACAD_XDICTIONARY
360
A81
102
}
330
2A
100
AcDbVisualStyle
  2
Thicken
 70
    13
 71
     2
 72
     2
 73
     0
 90
        0
 40
-0.6
 41
-30.0
 62
     5
 63
     7
 74
     1
 91
        4
 64
     7
 65
   257
 75
     1
175
     1
 42
1.0
 92
       12
 66
     7
 43
1.0
 76
     1
 77
     6
 78
     2
 67
     7
 79
     5
170
     0
171
     0
290
     0
174
     0
 93
        1
 44
0.0
173
     0
291
     1
 45
0.0
1001
ACAD
1000
AcDbSavedByObjectVersion
1070
     0
  0
DICTIONARYVAR
  5
A66
102
{ACAD_REACTORS
330
A61
102
}
330
A61
100
DictionaryVariables
280
     0
  1
1:1
  0
DICTIONARYVAR
  5
A67
102
{ACAD_REACTORS
330
A61
102
}
330
A61
100
DictionaryVariables
280
     0
  1
2
  0
DICTIONARYVAR
  5
A68
102
{ACAD_REACTORS
330
A61
102
}
330
A61
100
DictionaryVariables
280
     0
  1
1
  0
DICTIONARYVAR
  5
A65
102
{ACAD_REACTORS
330
A61
102
}
330
A61
100
DictionaryVariables
280
     0
  1
80.000000
  0
DICTIONARYVAR
  5
A64
102
{ACAD_REACTORS
330
A61
102
}
330
A61
100
DictionaryVariables
280
     0
  1
5.000000
  0
DICTIONARY
  5
A8B
330
3D
100
AcDbDictionary
280
     1
281
     1
  3
ACAD_XREC_ROUNDTRIP
360
A8C
  0
DICTIONARY
  5
A89
330
3C
100
AcDbDictionary
280
     1
281
     1
  3
ACAD_XREC_ROUNDTRIP
360
A8A
  0
DICTIONARY
  5
A8D
330
3E
100
AcDbDictionary
280
     1
281
     1
  3
ACAD_XREC_ROUNDTRIP
360
A8E
  0
DICTIONARY
  5
A71
330
2F
100
AcDbDictionary
280
     1
281
     1
  3
ACAD_XREC_ROUNDTRIP
360
A72
  0
DICTIONARY
  5
A75
330
31
100
AcDbDictionary
280
     1
281
     1
  3
ACAD_XREC_ROUNDTRIP
360
A76
  0
DICTIONARY
  5
A73
330
30
100
AcDbDictionary
280
     1
281
     1
  3
ACAD_XREC_ROUNDTRIP
360
A74
  0
DICTIONARY
  5
A77
330
32
100
AcDbDictionary
280
     1
281
     1
  3
ACAD_XREC_ROUNDTRIP
360
A78
  0
DICTIONARY
  5
A7F
330
36
100
AcDbDictionary
280
     1
281
     1
  3
ACAD_XREC_ROUNDTRIP
360
A80
  0
DICTIONARY
  5
A87
330
3A
100
AcDbDictionary
280
     1
281
     1
  3
ACAD_XREC_ROUNDTRIP
360
A88
  0
DICTIONARY
  5
A7B
330
34
100
AcDbDictionary
280
     1
281
     1
  3
ACAD_XREC_ROUNDTRIP
360
A7C
  0
DICTIONARY
  5
A7D
330
35
100
AcDbDictionary
280
     1
281
     1
  3
ACAD_XREC_ROUNDTRIP
360
A7E
  0
DICTIONARY
  5
A85
330
39
100
AcDbDictionary
280
     1
281
     1
  3
ACAD_XREC_ROUNDTRIP
360
A86
  0
DICTIONARY
  5
A69
330
2B
100
AcDbDictionary
280
     1
281
     1
  3
ACAD_XREC_ROUNDTRIP
360
A6A
  0
DICTIONARY
  5
A6B
330
2C
100
AcDbDictionary
280
     1
281
     1
  3
ACAD_XREC_ROUNDTRIP
360
A6C
  0
DICTIONARY
  5
A6D
330
2D
100
AcDbDictionary
280
     1
281
     1
  3
ACAD_XREC_ROUNDTRIP
360
A6E
  0
DICTIONARY
  5
A6F
330
2E
100
AcDbDictionary
280
     1
281
     1
  3
ACAD_XREC_ROUNDTRIP
360
A70
  0
DICTIONARY
  5
A83
330
38
100
AcDbDictionary
280
     1
281
     1
  3
ACAD_XREC_ROUNDTRIP
360
A84
  0
DICTIONARY
  5
A79
330
33
100
AcDbDictionary
280
     1
281
     1
  3
ACAD_XREC_ROUNDTRIP
360
A7A
  0
DICTIONARY
  5
A81
330
37
100
AcDbDictionary
280
     1
281
     1
  3
ACAD_XREC_ROUNDTRIP
360
A82
  0
XRECORD
  5
A8C
102
{ACAD_REACTORS
330
A8B
102
}
330
A8B
100
AcDbXrecord
280
     1
102
MATERIAL
148
0.0
149
0.0
149
0.0
 93
        0
 94
      127
282
     0
 72
     1
 77
     1
171
     1
175
     1
179
     1
273
     0
  0
XRECORD
  5
A8A
102
{ACAD_REACTORS
330
A89
102
}
330
A89
100
AcDbXrecord
280
     1
102
MATERIAL
148
0.0
149
0.0
149
0.0
 93
        0
 94
      127
282
     0
 72
     1
 77
     1
171
     1
175
     1
179
     1
273
     0
  0
XRECORD
  5
A8E
102
{ACAD_REACTORS
330
A8D
102
}
330
A8D
100
AcDbXrecord
280
     1
102
MATERIAL
148
0.0
149
0.0
149
0.0
 93
        0
 94
      127
282
     0
 72
     1
 77
     1
171
     1
175
     1
179
     1
273
     0
  0
XRECORD
  5
A72
102
{ACAD_REACTORS
330
A71
102
}
330
A71
100
AcDbXrecord
280
     1
102
RTVSPropertyOp0
 70
     1
102
RTVSPropertyOp1
 70
     1
102
RTVSPropertyOp2
 70
     1
102
RTVSPropertyOp3
 70
     1
102
RTVSPropertyOp4
 70
     1
102
RTVSPropertyOp5
 70
     1
102
RTVSPropertyOp6
 70
     1
102
RTVSPropertyOp7
 70
     1
102
RTVSPropertyOp8
 70
     1
102
RTVSPropertyOp9
 70
     1
102
RTVSPropertyOp10
 70
     1
102
RTVSPropertyOp11
 70
     1
102
RTVSPropertyOp12
 70
     1
102
RTVSPropertyOp13
 70
     1
102
RTVSPropertyOp14
 70
     1
102
RTVSPropertyOp15
 70
     1
102
RTVSPropertyOp16
 70
     1
102
RTVSPropertyOp17
 70
     1
102
RTVSPropertyOp18
 70
     1
102
RTVSPropertyOp19
 70
     1
102
RTVSPropertyOp20
 70
     1
102
RTVSPropertyOp21
 70
     1
102
RTVSPropertyOp22
 70
     1
102
RTVSPropertyOp23
 70
     1
102
RTVSPropertyOp24
 70
     1
102
RTVSPropertyOp25
 70
     1
102
RTVSPropertyOp26
 70
     1
102
RTVSPropertyOp27
 70
     1
  0
XRECORD
  5
A76
102
{ACAD_REACTORS
330
A75
102
}
330
A75
100
AcDbXrecord
280
     1
102
RTVSPropertyOp0
 70
     1
102
RTVSPropertyOp1
 70
     1
102
RTVSPropertyOp2
 70
     1
102
RTVSPropertyOp3
 70
     1
102
RTVSPropertyOp4
 70
     1
102
RTVSPropertyOp5
 70
     1
102
RTVSPropertyOp6
 70
     1
102
RTVSPropertyOp7
 70
     1
102
RTVSPropertyOp8
 70
     1
102
RTVSPropertyOp9
 70
     1
102
RTVSPropertyOp10
 70
     1
102
RTVSPropertyOp11
 70
     1
102
RTVSPropertyOp12
 70
     1
102
RTVSPropertyOp13
 70
     1
102
RTVSPropertyOp14
 70
     1
102
RTVSPropertyOp15
 70
     1
102
RTVSPropertyOp16
 70
     1
102
RTVSPropertyOp17
 70
     1
102
RTVSPropertyOp18
 70
     1
102
RTVSPropertyOp19
 70
     1
102
RTVSPropertyOp20
 70
     1
102
RTVSPropertyOp21
 70
     1
102
RTVSPropertyOp22
 70
     1
102
RTVSPropertyOp23
 70
     1
102
RTVSPropertyOp24
 70
     1
102
RTVSPropertyOp25
 70
     1
102
RTVSPropertyOp26
 70
     1
102
RTVSPropertyOp27
 70
     1
  0
XRECORD
  5
A74
102
{ACAD_REACTORS
330
A73
102
}
330
A73
100
AcDbXrecord
280
     1
102
RTVSPropertyOp0
 70
     1
102
RTVSPropertyOp1
 70
     1
102
RTVSPropertyOp2
 70
     1
102
RTVSPropertyOp3
 70
     1
102
RTVSPropertyOp4
 70
     1
102
RTVSPropertyOp5
 70
     1
102
RTVSPropertyOp6
 70
     1
102
RTVSPropertyOp7
 70
     1
102
RTVSPropertyOp8
 70
     1
102
RTVSPropertyOp9
 70
     1
102
RTVSPropertyOp10
 70
     1
102
RTVSPropertyOp11
 70
     1
102
RTVSPropertyOp12
 70
     1
102
RTVSPropertyOp13
 70
     1
102
RTVSPropertyOp14
 70
     1
102
RTVSPropertyOp15
 70
     1
102
RTVSPropertyOp16
 70
     1
102
RTVSPropertyOp17
 70
     1
102
RTVSPropertyOp18
 70
     1
102
RTVSPropertyOp19
 70
     1
102
RTVSPropertyOp20
 70
     1
102
RTVSPropertyOp21
 70
     1
102
RTVSPropertyOp22
 70
     1
102
RTVSPropertyOp23
 70
     1
102
RTVSPropertyOp24
 70
     1
102
RTVSPropertyOp25
 70
     1
102
RTVSPropertyOp26
 70
     1
102
RTVSPropertyOp27
 70
     1
  0
XRECORD
  5
A78
102
{ACAD_REACTORS
330
A77
102
}
330
A77
100
AcDbXrecord
280
     1
102
RTVSPropertyOp0
 70
     1
102
RTVSPropertyOp1
 70
     1
102
RTVSPropertyOp2
 70
     1
102
RTVSPropertyOp3
 70
     1
102
RTVSPropertyOp4
 70
     1
102
RTVSPropertyOp5
 70
     1
102
RTVSPropertyOp6
 70
     1
102
RTVSPropertyOp7
 70
     1
102
RTVSPropertyOp8
 70
     1
102
RTVSPropertyOp9
 70
     1
102
RTVSPropertyOp10
 70
     1
102
RTVSPropertyOp11
 70
     1
102
RTVSPropertyOp12
 70
     1
102
RTVSPropertyOp13
 70
     1
102
RTVSPropertyOp14
 70
     1
102
RTVSPropertyOp15
 70
     1
102
RTVSPropertyOp16
 70
     1
102
RTVSPropertyOp17
 70
     1
102
RTVSPropertyOp18
 70
     1
102
RTVSPropertyOp19
 70
     1
102
RTVSPropertyOp20
 70
     1
102
RTVSPropertyOp21
 70
     1
102
RTVSPropertyOp22
 70
     1
102
RTVSPropertyOp23
 70
     1
102
RTVSPropertyOp24
 70
     1
102
RTVSPropertyOp25
 70
     1
102
RTVSPropertyOp26
 70
     1
102
RTVSPropertyOp27
 70
     1
  0
XRECORD
  5
A80
102
{ACAD_REACTORS
330
A7F
102
}
330
A7F
100
AcDbXrecord
280
     1
102
RTVSPropertyOp0
 70
     1
102
RTVSPropertyOp1
 70
     1
102
RTVSPropertyOp2
 70
     1
102
RTVSPropertyOp3
 70
     1
102
RTVSPropertyOp4
 70
     1
102
RTVSPropertyOp5
 70
     1
102
RTVSPropertyOp6
 70
     1
102
RTVSPropertyOp7
 70
     1
102
RTVSPropertyOp8
 70
     1
102
RTVSPropertyOp9
 70
     1
102
RTVSPropertyOp10
 70
     1
102
RTVSPropertyOp11
 70
     1
102
RTVSPropertyOp12
 70
     1
102
RTVSPropertyOp13
 70
     1
102
RTVSPropertyOp14
 70
     1
102
RTVSPropertyOp15
 70
     1
102
RTVSPropertyOp16
 70
     1
102
RTVSPropertyOp17
 70
     1
102
RTVSPropertyOp18
 70
     1
102
RTVSPropertyOp19
 70
     1
102
RTVSPropertyOp20
 70
     1
102
RTVSPropertyOp21
 70
     1
102
RTVSPropertyOp22
 70
     1
102
RTVSPropertyOp23
 70
     1
102
RTVSPropertyOp24
 70
     1
102
RTVSPropertyOp25
 70
     1
102
RTVSPropertyOp26
 70
     1
102
RTVSPropertyOp27
 70
     1
  0
XRECORD
  5
A88
102
{ACAD_REACTORS
330
A87
102
}
330
A87
100
AcDbXrecord
280
     1
102
RTVSPropertyOp0
 70
     1
102
RTVSPropertyOp1
 70
     1
102
RTVSPropertyOp2
 70
     1
102
RTVSPropertyOp3
 70
     1
102
RTVSPropertyOp4
 70
     1
102
RTVSPropertyOp5
 70
     1
102
RTVSPropertyOp6
 70
     1
102
RTVSPropertyOp7
 70
     1
102
RTVSPropertyOp8
 70
     1
102
RTVSPropertyOp9
 70
     1
102
RTVSPropertyOp10
 70
     1
102
RTVSPropertyOp11
 70
     1
102
RTVSPropertyOp12
 70
     1
102
RTVSPropertyOp13
 70
     1
102
RTVSPropertyOp14
 70
     1
102
RTVSPropertyOp15
 70
     1
102
RTVSPropertyOp16
 70
     1
102
RTVSPropertyOp17
 70
     1
102
RTVSPropertyOp18
 70
     1
102
RTVSPropertyOp19
 70
     1
102
RTVSPropertyOp20
 70
     1
102
RTVSPropertyOp21
 70
     1
102
RTVSPropertyOp22
 70
     1
102
RTVSPropertyOp23
 70
     1
102
RTVSPropertyOp24
 70
     1
102
RTVSPropertyOp25
 70
     1
102
RTVSPropertyOp26
 70
     1
102
RTVSPropertyOp27
 70
     1
  0
XRECORD
  5
A7C
102
{ACAD_REACTORS
330
A7B
102
}
330
A7B
100
AcDbXrecord
280
     1
102
RTVSPropertyOp0
 70
     1
102
RTVSPropertyOp1
 70
     1
102
RTVSPropertyOp2
 70
     1
102
RTVSPropertyOp3
 70
     1
102
RTVSPropertyOp4
 70
     1
102
RTVSPropertyOp5
 70
     1
102
RTVSPropertyOp6
 70
     1
102
RTVSPropertyOp7
 70
     1
102
RTVSPropertyOp8
 70
     1
102
RTVSPropertyOp9
 70
     1
102
RTVSPropertyOp10
 70
     1
102
RTVSPropertyOp11
 70
     1
102
RTVSPropertyOp12
 70
     1
102
RTVSPropertyOp13
 70
     1
102
RTVSPropertyOp14
 70
     1
102
RTVSPropertyOp15
 70
     1
102
RTVSPropertyOp16
 70
     1
102
RTVSPropertyOp17
 70
     1
102
RTVSPropertyOp18
 70
     1
102
RTVSPropertyOp19
 70
     1
102
RTVSPropertyOp20
 70
     1
102
RTVSPropertyOp21
 70
     1
102
RTVSPropertyOp22
 70
     1
102
RTVSPropertyOp23
 70
     1
102
RTVSPropertyOp24
 70
     1
102
RTVSPropertyOp25
 70
     1
102
RTVSPropertyOp26
 70
     1
102
RTVSPropertyOp27
 70
     1
  0
XRECORD
  5
A7E
102
{ACAD_REACTORS
330
A7D
102
}
330
A7D
100
AcDbXrecord
280
     1
102
RTVSPropertyOp0
 70
     1
102
RTVSPropertyOp1
 70
     1
102
RTVSPropertyOp2
 70
     1
102
RTVSPropertyOp3
 70
     1
102
RTVSPropertyOp4
 70
     1
102
RTVSPropertyOp5
 70
     1
102
RTVSPropertyOp6
 70
     1
102
RTVSPropertyOp7
 70
     1
102
RTVSPropertyOp8
 70
     1
102
RTVSPropertyOp9
 70
     1
102
RTVSPropertyOp10
 70
     1
102
RTVSPropertyOp11
 70
     1
102
RTVSPropertyOp12
 70
     1
102
RTVSPropertyOp13
 70
     1
102
RTVSPropertyOp14
 70
     1
102
RTVSPropertyOp15
 70
     1
102
RTVSPropertyOp16
 70
     1
102
RTVSPropertyOp17
 70
     1
102
RTVSPropertyOp18
 70
     1
102
RTVSPropertyOp19
 70
     1
102
RTVSPropertyOp20
 70
     1
102
RTVSPropertyOp21
 70
     1
102
RTVSPropertyOp22
 70
     1
102
RTVSPropertyOp23
 70
     1
102
RTVSPropertyOp24
 70
     1
102
RTVSPropertyOp25
 70
     1
102
RTVSPropertyOp26
 70
     1
102
RTVSPropertyOp27
 70
     1
  0
XRECORD
  5
A86
102
{ACAD_REACTORS
330
A85
102
}
330
A85
100
AcDbXrecord
280
     1
102
RTVSPropertyOp0
 70
     1
102
RTVSPropertyOp1
 70
     1
102
RTVSPropertyOp2
 70
     1
102
RTVSPropertyOp3
 70
     1
102
RTVSPropertyOp4
 70
     1
102
RTVSPropertyOp5
 70
     1
102
RTVSPropertyOp6
 70
     1
102
RTVSPropertyOp7
 70
     1
102
RTVSPropertyOp8
 70
     1
102
RTVSPropertyOp9
 70
     1
102
RTVSPropertyOp10
 70
     1
102
RTVSPropertyOp11
 70
     1
102
RTVSPropertyOp12
 70
     1
102
RTVSPropertyOp13
 70
     1
102
RTVSPropertyOp14
 70
     1
102
RTVSPropertyOp15
 70
     1
102
RTVSPropertyOp16
 70
     1
102
RTVSPropertyOp17
 70
     1
102
RTVSPropertyOp18
 70
     1
102
RTVSPropertyOp19
 70
     1
102
RTVSPropertyOp20
 70
     1
102
RTVSPropertyOp21
 70
     1
102
RTVSPropertyOp22
 70
     1
102
RTVSPropertyOp23
 70
     1
102
RTVSPropertyOp24
 70
     1
102
RTVSPropertyOp25
 70
     1
102
RTVSPropertyOp26
 70
     1
102
RTVSPropertyOp27
 70
     1
  0
XRECORD
  5
A6A
102
{ACAD_REACTORS
330
A69
102
}
330
A69
100
AcDbXrecord
280
     1
102
RTVSPropertyOp0
 70
     1
102
RTVSPropertyOp1
 70
     1
102
RTVSPropertyOp2
 70
     1
102
RTVSPropertyOp3
 70
     1
102
RTVSPropertyOp4
 70
     1
102
RTVSPropertyOp5
 70
     1
102
RTVSPropertyOp6
 70
     1
102
RTVSPropertyOp7
 70
     1
102
RTVSPropertyOp8
 70
     1
102
RTVSPropertyOp9
 70
     1
102
RTVSPropertyOp10
 70
     1
102
RTVSPropertyOp11
 70
     1
102
RTVSPropertyOp12
 70
     1
102
RTVSPropertyOp13
 70
     1
102
RTVSPropertyOp14
 70
     1
102
RTVSPropertyOp15
 70
     1
102
RTVSPropertyOp16
 70
     1
102
RTVSPropertyOp17
 70
     1
102
RTVSPropertyOp18
 70
     1
102
RTVSPropertyOp19
 70
     1
102
RTVSPropertyOp20
 70
     1
102
RTVSPropertyOp21
 70
     1
102
RTVSPropertyOp22
 70
     1
102
RTVSPropertyOp23
 70
     1
102
RTVSPropertyOp24
 70
     1
102
RTVSPropertyOp25
 70
     1
102
RTVSPropertyOp26
 70
     1
102
RTVSPropertyOp27
 70
     1
  0
XRECORD
  5
A6C
102
{ACAD_REACTORS
330
A6B
102
}
330
A6B
100
AcDbXrecord
280
     1
102
RTVSPropertyOp0
 70
     1
102
RTVSPropertyOp1
 70
     1
102
RTVSPropertyOp2
 70
     1
102
RTVSPropertyOp3
 70
     1
102
RTVSPropertyOp4
 70
     1
102
RTVSPropertyOp5
 70
     1
102
RTVSPropertyOp6
 70
     1
102
RTVSPropertyOp7
 70
     1
102
RTVSPropertyOp8
 70
     1
102
RTVSPropertyOp9
 70
     1
102
RTVSPropertyOp10
 70
     1
102
RTVSPropertyOp11
 70
     1
102
RTVSPropertyOp12
 70
     1
102
RTVSPropertyOp13
 70
     1
102
RTVSPropertyOp14
 70
     1
102
RTVSPropertyOp15
 70
     1
102
RTVSPropertyOp16
 70
     1
102
RTVSPropertyOp17
 70
     1
102
RTVSPropertyOp18
 70
     1
102
RTVSPropertyOp19
 70
     1
102
RTVSPropertyOp20
 70
     1
102
RTVSPropertyOp21
 70
     1
102
RTVSPropertyOp22
 70
     1
102
RTVSPropertyOp23
 70
     1
102
RTVSPropertyOp24
 70
     1
102
RTVSPropertyOp25
 70
     1
102
RTVSPropertyOp26
 70
     1
102
RTVSPropertyOp27
 70
     1
  0
XRECORD
  5
A6E
102
{ACAD_REACTORS
330
A6D
102
}
330
A6D
100
AcDbXrecord
280
     1
102
RTVSPropertyOp0
 70
     1
102
RTVSPropertyOp1
 70
     1
102
RTVSPropertyOp2
 70
     1
102
RTVSPropertyOp3
 70
     1
102
RTVSPropertyOp4
 70
     1
102
RTVSPropertyOp5
 70
     1
102
RTVSPropertyOp6
 70
     1
102
RTVSPropertyOp7
 70
     1
102
RTVSPropertyOp8
 70
     1
102
RTVSPropertyOp9
 70
     1
102
RTVSPropertyOp10
 70
     1
102
RTVSPropertyOp11
 70
     1
102
RTVSPropertyOp12
 70
     1
102
RTVSPropertyOp13
 70
     1
102
RTVSPropertyOp14
 70
     1
102
RTVSPropertyOp15
 70
     1
102
RTVSPropertyOp16
 70
     1
102
RTVSPropertyOp17
 70
     1
102
RTVSPropertyOp18
 70
     1
102
RTVSPropertyOp19
 70
     1
102
RTVSPropertyOp20
 70
     1
102
RTVSPropertyOp21
 70
     1
102
RTVSPropertyOp22
 70
     1
102
RTVSPropertyOp23
 70
     1
102
RTVSPropertyOp24
 70
     1
102
RTVSPropertyOp25
 70
     1
102
RTVSPropertyOp26
 70
     1
102
RTVSPropertyOp27
 70
     1
  0
XRECORD
  5
A70
102
{ACAD_REACTORS
330
A6F
102
}
330
A6F
100
AcDbXrecord
280
     1
102
RTVSPropertyOp0
 70
     1
102
RTVSPropertyOp1
 70
     1
102
RTVSPropertyOp2
 70
     1
102
RTVSPropertyOp3
 70
     1
102
RTVSPropertyOp4
 70
     1
102
RTVSPropertyOp5
 70
     1
102
RTVSPropertyOp6
 70
     1
102
RTVSPropertyOp7
 70
     1
102
RTVSPropertyOp8
 70
     1
102
RTVSPropertyOp9
 70
     1
102
RTVSPropertyOp10
 70
     1
102
RTVSPropertyOp11
 70
     1
102
RTVSPropertyOp12
 70
     1
102
RTVSPropertyOp13
 70
     1
102
RTVSPropertyOp14
 70
     1
102
RTVSPropertyOp15
 70
     1
102
RTVSPropertyOp16
 70
     1
102
RTVSPropertyOp17
 70
     1
102
RTVSPropertyOp18
 70
     1
102
RTVSPropertyOp19
 70
     1
102
RTVSPropertyOp20
 70
     1
102
RTVSPropertyOp21
 70
     1
102
RTVSPropertyOp22
 70
     1
102
RTVSPropertyOp23
 70
     1
102
RTVSPropertyOp24
 70
     1
102
RTVSPropertyOp25
 70
     1
102
RTVSPropertyOp26
 70
     1
102
RTVSPropertyOp27
 70
     1
  0
XRECORD
  5
A84
102
{ACAD_REACTORS
330
A83
102
}
330
A83
100
AcDbXrecord
280
     1
102
RTVSPropertyOp0
 70
     1
102
RTVSPropertyOp1
 70
     1
102
RTVSPropertyOp2
 70
     1
102
RTVSPropertyOp3
 70
     1
102
RTVSPropertyOp4
 70
     1
102
RTVSPropertyOp5
 70
     1
102
RTVSPropertyOp6
 70
     1
102
RTVSPropertyOp7
 70
     1
102
RTVSPropertyOp8
 70
     1
102
RTVSPropertyOp9
 70
     1
102
RTVSPropertyOp10
 70
     1
102
RTVSPropertyOp11
 70
     1
102
RTVSPropertyOp12
 70
     1
102
RTVSPropertyOp13
 70
     1
102
RTVSPropertyOp14
 70
     1
102
RTVSPropertyOp15
 70
     1
102
RTVSPropertyOp16
 70
     1
102
RTVSPropertyOp17
 70
     1
102
RTVSPropertyOp18
 70
     1
102
RTVSPropertyOp19
 70
     1
102
RTVSPropertyOp20
 70
     1
102
RTVSPropertyOp21
 70
     1
102
RTVSPropertyOp22
 70
     1
102
RTVSPropertyOp23
 70
     1
102
RTVSPropertyOp24
 70
     1
102
RTVSPropertyOp25
 70
     1
102
RTVSPropertyOp26
 70
     1
102
RTVSPropertyOp27
 70
     1
  0
XRECORD
  5
A7A
102
{ACAD_REACTORS
330
A79
102
}
330
A79
100
AcDbXrecord
280
     1
102
RTVSPropertyOp0
 70
     1
102
RTVSPropertyOp1
 70
     1
102
RTVSPropertyOp2
 70
     1
102
RTVSPropertyOp3
 70
     1
102
RTVSPropertyOp4
 70
     1
102
RTVSPropertyOp5
 70
     1
102
RTVSPropertyOp6
 70
     1
102
RTVSPropertyOp7
 70
     1
102
RTVSPropertyOp8
 70
     1
102
RTVSPropertyOp9
 70
     1
102
RTVSPropertyOp10
 70
     1
102
RTVSPropertyOp11
 70
     1
102
RTVSPropertyOp12
 70
     1
102
RTVSPropertyOp13
 70
     1
102
RTVSPropertyOp14
 70
     1
102
RTVSPropertyOp15
 70
     1
102
RTVSPropertyOp16
 70
     1
102
RTVSPropertyOp17
 70
     1
102
RTVSPropertyOp18
 70
     1
102
RTVSPropertyOp19
 70
     1
102
RTVSPropertyOp20
 70
     1
102
RTVSPropertyOp21
 70
     1
102
RTVSPropertyOp22
 70
     1
102
RTVSPropertyOp23
 70
     1
102
RTVSPropertyOp24
 70
     1
102
RTVSPropertyOp25
 70
     1
102
RTVSPropertyOp26
 70
     1
102
RTVSPropertyOp27
 70
     1
  0
XRECORD
  5
A82
102
{ACAD_REACTORS
330
A81
102
}
330
A81
100
AcDbXrecord
280
     1
102
RTVSPropertyOp0
 70
     1
102
RTVSPropertyOp1
 70
     1
102
RTVSPropertyOp2
 70
     1
102
RTVSPropertyOp3
 70
     1
102
RTVSPropertyOp4
 70
     1
102
RTVSPropertyOp5
 70
     1
102
RTVSPropertyOp6
 70
     1
102
RTVSPropertyOp7
 70
     1
102
RTVSPropertyOp8
 70
     1
102
RTVSPropertyOp9
 70
     1
102
RTVSPropertyOp10
 70
     1
102
RTVSPropertyOp11
 70
     1
102
RTVSPropertyOp12
 70
     1
102
RTVSPropertyOp13
 70
     1
102
RTVSPropertyOp14
 70
     1
102
RTVSPropertyOp15
 70
     1
102
RTVSPropertyOp16
 70
     1
102
RTVSPropertyOp17
 70
     1
102
RTVSPropertyOp18
 70
     1
102
RTVSPropertyOp19
 70
     1
102
RTVSPropertyOp20
 70
     1
102
RTVSPropertyOp21
 70
     1
102
RTVSPropertyOp22
 70
     1
102
RTVSPropertyOp23
 70
     1
102
RTVSPropertyOp24
 70
     1
102
RTVSPropertyOp25
 70
     1
102
RTVSPropertyOp26
 70
     1
102
RTVSPropertyOp27
 70
     1
  0
ENDSEC
  0
EOF
