  0
SECTION
  2
HEADER
  9
$ACADVER
  1
AC1015
  9
$ACADMAINTVER
 70
     6
  9
$DWGCODEPAGE
  3
ANSI_1252
  9
$INSBASE
 10
0.0
 20
0.0
 30
0.0
  9
$EXTMIN
 10
0.0
 20
0.0
 30
0.0
  9
$EXTMAX
 10
25.0
 20
35.0
 30
0.0
  9
$LIMMIN
 10
0.0
 20
0.0
  9
$LIMMAX
 10
420.0
 20
297.0
  9
$ORTHOMODE
 70
     0
  9
$REGENMODE
 70
     1
  9
$FILLMODE
 70
     1
  9
$QTEXTMODE
 70
     0
  9
$MIRRTEXT
 70
     1
  9
$LTSCALE
 40
4.15
  9
$ATTMODE
 70
     1
  9
$TEXTSIZE
 40
2.5
  9
$TRACEWID
 40
1.0
  9
$TEXTSTYLE
  7
Standard
  9
$CLAYER
  8
0
  9
$CELTYPE
  6
ByLayer
  9
$CECOLOR
 62
   256
  9
$CELTSCALE
 40
1.0
  9
$DISPSILH
 70
     0
  9
$DIMSCALE
 40
1.0
  9
$DIMASZ
 40
2.5
  9
$DIMEXO
 40
0.625
  9
$DIMDLI
 40
3.75
  9
$DIMRND
 40
0.0
  9
$DIMDLE
 40
0.0
  9
$DIMEXE
 40
1.25
  9
$DIMTP
 40
0.0
  9
$DIMTM
 40
0.0
  9
$DIMTXT
 40
2.5
  9
$DIMCEN
 40
2.5
  9
$DIMTSZ
 40
0.0
  9
$DIMTOL
 70
     0
  9
$DIMLIM
 70
     0
  9
$DIMTIH
 70
     0
  9
$DIMTOH
 70
     0
  9
$DIMSE1
 70
     0
  9
$DIMSE2
 70
     0
  9
$DIMTAD
 70
     1
  9
$DIMZIN
 70
     8
  9
$DIMBLK
  1

  9
$DIMASO
 70
     1
  9
$DIMSHO
 70
     1
  9
$DIMPOST
  1

  9
$DIMAPOST
  1

  9
$DIMALT
 70
     0
  9
$DIMALTD
 70
     3
  9
$DIMALTF
 40
0.03937007874016
  9
$DIMLFAC
 40
1.0
  9
$DIMTOFL
 70
     1
  9
$DIMTVP
 40
0.0
  9
$DIMTIX
 70
     0
  9
$DIMSOXD
 70
     0
  9
$DIMSAH
 70
     0
  9
$DIMBLK1
  1

  9
$DIMBLK2
  1

  9
$DIMSTYLE
  2
ISO-25
  9
$DIMCLRD
 70
     0
  9
$DIMCLRE
 70
     0
  9
$DIMCLRT
 70
     0
  9
$DIMTFAC
 40
1.0
  9
$DIMGAP
 40
0.625
  9
$DIMJUST
 70
     0
  9
$DIMSD1
 70
     0
  9
$DIMSD2
 70
     0
  9
$DIMTOLJ
 70
     0
  9
$DIMTZIN
 70
     8
  9
$DIMALTZ
 70
     0
  9
$DIMALTTZ
 70
     0
  9
$DIMUPT
 70
     0
  9
$DIMDEC
 70
     2
  9
$DIMTDEC
 70
     2
  9
$DIMALTU
 70
     2
  9
$DIMALTTD
 70
     3
  9
$DIMTXSTY
  7
Standard
  9
$DIMAUNIT
 70
     0
  9
$DIMADEC
 70
     0
  9
$DIMALTRND
 40
0.0
  9
$DIMAZIN
 70
     0
  9
$DIMDSEP
 70
    44
  9
$DIMATFIT
 70
     3
  9
$DIMFRAC
 70
     0
  9
$DIMLDRBLK
  1

  9
$DIMLUNIT
 70
     2
  9
$DIMLWD
 70
    -2
  9
$DIMLWE
 70
    -2
  9
$DIMTMOVE
 70
     0
  9
$LUNITS
 70
     2
  9
$LUPREC
 70
     4
  9
$SKETCHINC
 40
1.0
  9
$FILLETRAD
 40
10.0
  9
$AUNITS
 70
     0
  9
$AUPREC
 70
     0
  9
$MENU
  1
.
  9
$ELEVATION
 40
0.0
  9
$PELEVATION
 40
0.0
  9
$THICKNESS
 40
0.0
  9
$LIMCHECK
 70
     0
  9
$CHAMFERA
 40
10.0
  9
$CHAMFERB
 40
10.0
  9
$CHAMFERC
 40
20.0
  9
$CHAMFERD
 40
0.0
  9
$SKPOLY
 70
     0
  9
$TDCREATE
 40
2458944.583333333
  9
$TDUCREATE
 40
2458944.5
  9
$TDUPDATE
 40
2458944.586805556
  9
$TDUUPDATE
 40
2458944.503472222
  9
$TDINDWG
 40
0.0000000116
  9
$TDUSRTIMER
 40
0.0000000116
  9
$USRTIMER
 70
     1
  9
$ANGBASE
 50
0.0
  9
$ANGDIR
 70
     0
  9
$PDMODE
 70
     0
  9
$PDSIZE
 40
0.0
  9
$PLINEWID
 40
0.0
  9
$SPLFRAME
 70
     0
  9
$SPLINETYPE
 70
     6
  9
$SPLINESEGS
 70
     8
  9
$HANDSEED
  5
851
  9
$SURFTAB1
 70
     6
  9
$SURFTAB2
 70
     6
  9
$SURFTYPE
 70
     6
  9
$SURFU
 70
     6
  9
$SURFV
 70
     6
  9
$UCSBASE
  2

  9
$UCSNAME
  2

  9
$UCSORG
 10
0.0
 20
0.0
 30
0.0
  9
$UCSXDIR
 10
1.0
 20
0.0
 30
0.0
  9
$UCSYDIR
 10
0.0
 20
1.0
 30
0.0
  9
$UCSORTHOREF
  2

  9
$UCSORTHOVIEW
 70
     0
  9
$UCSORGTOP
 10
0.0
 20
0.0
 30
0.0
  9
$UCSORGBOTTOM
 10
0.0
 20
0.0
 30
0.0
  9
$UCSORGLEFT
 10
0.0
 20
0.0
 30
0.0
  9
$UCSORGRIGHT
 10
0.0
 20
0.0
 30
0.0
  9
$UCSORGFRONT
 10
0.0
 20
0.0
 30
0.0
  9
$UCSORGBACK
 10
0.0
 20
0.0
 30
0.0
  9
$PUCSBASE
  2

  9
$PUCSNAME
  2

  9
$PUCSORG
 10
0.0
 20
0.0
 30
0.0
  9
$PUCSXDIR
 10
1.0
 20
0.0
 30
0.0
  9
$PUCSYDIR
 10
0.0
 20
1.0
 30
0.0
  9
$PUCSORTHOREF
  2

  9
$PUCSORTHOVIEW
 70
     0
  9
$PUCSORGTOP
 10
0.0
 20
0.0
 30
0.0
  9
$PUCSORGBOTTOM
 10
0.0
 20
0.0
 30
0.0
  9
$PUCSORGLEFT
 10
0.0
 20
0.0
 30
0.0
  9
$PUCSORGRIGHT
 10
0.0
 20
0.0
 30
0.0
  9
$PUCSORGFRONT
 10
0.0
 20
0.0
 30
0.0
  9
$PUCSORGBACK
 10
0.0
 20
0.0
 30
0.0
  9
$USERI1
 70
     0
  9
$USERI2
 70
     0
  9
$USERI3
 70
     0
  9
$USERI4
 70
     0
  9
$USERI5
 70
     0
  9
$USERR1
 40
0.0
  9
$USERR2
 40
0.0
  9
$USERR3
 40
0.0
  9
$USERR4
 40
0.0
  9
$USERR5
 40
0.0
  9
$WORLDVIEW
 70
     1
  9
$SHADEDGE
 70
     3
  9
$SHADEDIF
 70
    70
  9
$TILEMODE
 70
     1
  9
$MAXACTVP
 70
    64
  9
$PINSBASE
 10
0.0
 20
0.0
 30
0.0
  9
$PLIMCHECK
 70
     0
  9
$PEXTMIN
 10
1.000000000000000E+20
 20
1.000000000000000E+20
 30
1.000000000000000E+20
  9
$PEXTMAX
 10
-1.000000000000000E+20
 20
-1.000000000000000E+20
 30
-1.000000000000000E+20
  9
$PLIMMIN
 10
0.0
 20
0.0
  9
$PLIMMAX
 10
420.0
 20
297.0
  9
$UNITMODE
 70
     0
  9
$VISRETAIN
 70
     1
  9
$PLINEGEN
 70
     0
  9
$PSLTSCALE
 70
     1
  9
$TREEDEPTH
 70
  3020
  9
$CMLSTYLE
  2
Standard
  9
$CMLJUST
 70
     0
  9
$CMLSCALE
 40
20.0
  9
$PROXYGRAPHICS
 70
     1
  9
$MEASUREMENT
 70
     1
  9
$CELWEIGHT
370
    -1
  9
$ENDCAPS
280
     0
  9
$JOINSTYLE
280
     0
  9
$LWDISPLAY
290
     0
  9
$INSUNITS
 70
     4
  9
$HYPERLINKBASE
  1

  9
$STYLESHEET
  1

  9
$XEDIT
290
     1
  9
$CEPSNTYPE
380
     0
  9
$PSTYLEMODE
290
     1
  9
$FINGERPRINTGUID
  2
{1905F470-E05E-4BDB-85E2-4A424C5CDB0F}
  9
$VERSIONGUID
  2
{FAEB1C32-E019-11D5-929B-00C0DF256EC4}
  9
$EXTNAMES
290
     1
  9
$PSVPSCALE
 40
0.0
  9
$OLESTARTUP
290
     0
  0
ENDSEC
  0
SECTION
  2
CLASSES
  0
CLASS
  1
ACDBDICTIONARYWDFLT
  2
AcDbDictionaryWithDefault
  3
ObjectDBX Classes
 90
        0
280
     0
281
     0
  0
CLASS
  1
VISUALSTYLE
  2
AcDbVisualStyle
  3
ObjectDBX Classes
 90
     4095
280
     0
281
     0
  0
CLASS
  1
MATERIAL
  2
AcDbMaterial
  3
ObjectDBX Classes
 90
     1153
280
     0
281
     0
  0
CLASS
  1
SCALE
  2
AcDbScale
  3
ObjectDBX Classes
 90
     1153
280
     0
281
     0
  0
CLASS
  1
DICTIONARYVAR
  2
AcDbDictionaryVar
  3
ObjectDBX Classes
 90
        0
280
     0
281
     0
  0
CLASS
  1
ACDBPLACEHOLDER
  2
AcDbPlaceHolder
  3
ObjectDBX Classes
 90
        0
280
     0
281
     0
  0
CLASS
  1
LAYOUT
  2
AcDbLayout
  3
ObjectDBX Classes
 90
        0
280
     0
281
     0
  0
ENDSEC
  0
SECTION
  2
TABLES
  0
TABLE
  2
VPORT
  5
8
330
0
100
AcDbSymbolTable
 70
     1
  0
VPORT
  5
29
330
8
100
AcDbSymbolTableRecord
100
AcDbViewportTableRecord
  2
*Active
 70
     0
 10
0.0
 20
0.0
 11
1.0
 21
1.0
 12
11.26
 22
4.5
 13
0.0
 23
0.0
 14
10.0
 24
10.0
 15
10.0
 25
10.0
 16
0.0
 26
0.0
 36
1.0
 17
0.0
 27
0.0
 37
0.0
 40
9.0
 41
2.503333333333333
 42
50.0
 43
0.0
 44
0.0
 50
0.0
 51
0.0
 71
     0
 72
   100
 73
     1
 74
     3
 75
     0
 76
     0
 77
     0
 78
     0
281
     0
 65
     1
110
0.0
120
0.0
130
0.0
111
1.0
121
0.0
131
0.0
112
0.0
122
1.0
132
0.0
 79
     0
146
0.0
  0
ENDTAB
  0
TABLE
  2
LTYPE
  5
5
330
0
100
AcDbSymbolTable
 70
     9
  0
LTYPE
  5
14
330
5
100
AcDbSymbolTableRecord
100
AcDbLinetypeTableRecord
  2
ByBlock
 70
     0
  3

 72
    65
 73
     0
 40
0.0
  0
LTYPE
  5
15
330
5
100
AcDbSymbolTableRecord
100
AcDbLinetypeTableRecord
  2
ByLayer
 70
     0
  3

 72
    65
 73
     0
 40
0.0
  0
LTYPE
  5
16
330
5
100
AcDbSymbolTableRecord
100
AcDbLinetypeTableRecord
  2
Continuous
 70
     0
  3
Solid line
 72
    65
 73
     0
 40
0.0
  0
LTYPE
  5
45
330
5
100
AcDbSymbolTableRecord
100
AcDbLinetypeTableRecord
  2
phl_thick
 70
     0
  3
THICK
 72
    65
 73
     0
 40
0.0
  0
LTYPE
  5
16C
330
5
100
AcDbSymbolTableRecord
100
AcDbLinetypeTableRecord
  2
ls_SK2
 70
     0
  3
THIN
 72
    65
 73
     0
 40
0.0
  0
LTYPE
  5
218
330
5
100
AcDbSymbolTableRecord
100
AcDbLinetypeTableRecord
  2
ls_2
 70
     0
  3
THIN
 72
    65
 73
     0
 40
0.0
  0
LTYPE
  5
25C
330
5
100
AcDbSymbolTableRecord
100
AcDbLinetypeTableRecord
  2
SK1
 70
     0
  3
THICK
 72
    65
 73
     0
 40
0.0
  0
LTYPE
  5
26A
330
5
100
AcDbSymbolTableRecord
100
AcDbLinetypeTableRecord
  2
NOCUT
 70
     0
  3
THICK
 72
    65
 73
     0
 40
0.0
  0
LTYPE
  5
26F
330
5
100
AcDbSymbolTableRecord
100
AcDbLinetypeTableRecord
  2
ls1
 70
     0
  3
THICK
 72
    65
 73
     0
 40
0.0
  0
LTYPE
  5
3CD
330
5
100
AcDbSymbolTableRecord
100
AcDbLinetypeTableRecord
  2
LONGDASH_DASH
 70
     0
  3
THIN_DASHDOT
 72
    65
 73
     4
 40
0.85
 49
0.4
 74
     0
 49
-0.2
 74
     0
 49
0.05
 74
     0
 49
-0.2
 74
     0
  0
LTYPE
  5
414
330
5
100
AcDbSymbolTableRecord
100
AcDbLinetypeTableRecord
  2
ls_SK1
 70
     0
  3
THICK
 72
    65
 73
     0
 40
0.0
  0
ENDTAB
  0
TABLE
  2
LAYER
  5
2
330
0
100
AcDbSymbolTable
 70
     9
  0
LAYER
  5
10
330
2
100
AcDbSymbolTableRecord
100
AcDbLayerTableRecord
  2
0
 70
     0
 62
     7
  6
Continuous
370
    -3
390
F
  0
LAYER
  5
44
330
2
100
AcDbSymbolTableRecord
100
AcDbLayerTableRecord
  2
1
 70
     0
 62
4
  6
CONTINUOUS
370
50
370
    -3
390
F
  0
LAYER
  5
16B
330
2
100
AcDbSymbolTableRecord
100
AcDbLayerTableRecord
  2
SK2
 70
     0
 62
7
  6
CONTINUOUS
370
25
370
    -3
390
F
  0
LAYER
  5
217
330
2
100
AcDbSymbolTableRecord
100
AcDbLayerTableRecord
  2
2
 70
     0
 62
7
  6
CONTINUOUS
370
25
370
    -3
390
F
  0
LAYER
  5
25B
330
2
100
AcDbSymbolTableRecord
100
AcDbLayerTableRecord
  2
SK1
 70
     0
 62
4
  6
CONTINUOUS
370
50
370
    -3
390
F
  0
LAYER
  5
269
330
2
100
AcDbSymbolTableRecord
100
AcDbLayerTableRecord
  2
NOCUT
 70
     0
 62
7
  6
CONTINUOUS
370
25
370
    -3
390
F
  0
LAYER
  5
26E
330
2
100
AcDbSymbolTableRecord
100
AcDbLayerTableRecord
  2
CUT
 70
     0
 62
1
  6
CONTINUOUS
370
25
370
    -3
390
F
  0
LAYER
  5
3CC
330
2
100
AcDbSymbolTableRecord
100
AcDbLayerTableRecord
  2
4
 70
     0
 62
2
  6
LONGDASH_DASH
370
25
370
    -3
390
F
  0
LAYER
  5
3CF
330
2
100
AcDbSymbolTableRecord
100
AcDbLayerTableRecord
  2
SK4
 70
     0
 62
2
  6
LONGDASH_DASH
370
25
370
    -3
390
F
  0
ENDTAB
  0
TABLE
  2
STYLE
  5
3
330
0
100
AcDbSymbolTable
 70
     1
  0
STYLE
  5
11
330
3
100
AcDbSymbolTableRecord
100
AcDbTextStyleTableRecord
  2
Standard
 70
     0
 40
0.0
 41
1.0
 50
0.0
 71
     0
 42
2.5
  3
Monospac821 BT
  4

  0
ENDTAB
  0
TABLE
  2
VIEW
  5
6
330
0
100
AcDbSymbolTable
 70
     0
  0
ENDTAB
  0
TABLE
  2
UCS
  5
7
330
0
100
AcDbSymbolTable
 70
     0
  0
ENDTAB
  0
TABLE
  2
APPID
  5
9
330
0
100
AcDbSymbolTable
 70
     2
  0
APPID
  5
12
330
9
100
AcDbSymbolTableRecord
100
AcDbRegAppTableRecord
  2
ACAD
 70
     0
  0
APPID
  5
3F
330
9
100
AcDbSymbolTableRecord
100
AcDbRegAppTableRecord
  2
ccLab
 70
     0
  0
ENDTAB
  0
TABLE
  2
DIMSTYLE
  5
A
330
0
100
AcDbSymbolTable
 70
     1
100
AcDbDimStyleTable
  0
DIMSTYLE
105
27
330
A
100
AcDbSymbolTableRecord
100
AcDbDimStyleTableRecord
  2
ISO-25
 70
     0
 41
2.5
 42
0.625
 43
3.75
 44
1.25
 73
     0
 74
     0
 77
     1
 78
     8
140
2.5
141
2.5
143
0.03937007874016
147
0.625
171
     3
172
     1
271
     2
272
     2
274
     3
278
    44
283
     0
284
     8
340
11
  0
ENDTAB
  0
TABLE
  2
BLOCK_RECORD
  5
1
330
0
100
AcDbSymbolTable
 70
     2
  0
BLOCK_RECORD
  5
1F
330
1
100
AcDbSymbolTableRecord
100
AcDbBlockTableRecord
  2
*Model_Space
340
22
  0
BLOCK_RECORD
  5
1B
330
1
100
AcDbSymbolTableRecord
100
AcDbBlockTableRecord
  2
*Paper_Space
340
1E
  0
BLOCK_RECORD
  5
23
330
1
100
AcDbSymbolTableRecord
100
AcDbBlockTableRecord
  2
*Paper_Space0
340
26
  0
ENDTAB
  0
ENDSEC
  0
SECTION
  2
BLOCKS
  0
BLOCK
  5
20
330
1F
100
AcDbEntity
  8
0
100
AcDbBlockBegin
  2
*Model_Space
 70
     0
 10
0.0
 20
0.0
 30
0.0
  3
*Model_Space
  1

  0
ENDBLK
  5
21
330
1F
100
AcDbEntity
  8
0
100
AcDbBlockEnd
  0
BLOCK
  5
1C
330
1B
100
AcDbEntity
 67
     1
  8
0
100
AcDbBlockBegin
  2
*Paper_Space
 70
     0
 10
0.0
 20
0.0
 30
0.0
  3
*Paper_Space
  1

  0
ENDBLK
  5
1D
330
1B
100
AcDbEntity
 67
     1
  8
0
100
AcDbBlockEnd
  0
BLOCK
  5
24
330
23
100
AcDbEntity
  8
0
100
AcDbBlockBegin
  2
*Paper_Space0
 70
     0
 10
0.0
 20
0.0
 30
0.0
  3
*Paper_Space0
  1

  0
ENDBLK
  5
25
330
23
100
AcDbEntity
  8
0
100
AcDbBlockEnd
  0
ENDSEC
  0
SECTION
  2
ENTITIES
  0
LINE
  5
44C
330
1F
100
AcDbEntity
  8
1
  6
CONTINUOUS
370
50
 62
4
100
AcDbLine
 10
19.998667
 20
0.5670069999999999
 30
0.0
 11
19.996599
 21
0.5705899999999999
 31
0.0
  0
LINE
  5
44D
330
1F
100
AcDbEntity
  8
1
  6
CONTINUOUS
370
50
 62
4
100
AcDbLine
 10
19.275558
 20
-0.69557
 30
0.0
 11
19.171885
 21
-0.516
 31
0.0
  0
LINE
  5
44E
330
1F
100
AcDbEntity
  8
1
  6
CONTINUOUS
370
50
 62
4
100
AcDbLine
 10
16.278116
 20
-0.7
 30
0.0
 11
16.171885
 21
-0.516
 31
0.0
  0
LINE
  5
44F
330
1F
100
AcDbEntity
  8
1
  6
CONTINUOUS
370
50
 62
4
100
AcDbLine
 10
16.578115
 20
-0.7
 30
0.0
 11
16.471884
 21
-0.516
 31
0.0
  0
LINE
  5
450
330
1F
100
AcDbEntity
  8
1
  6
CONTINUOUS
370
50
 62
4
100
AcDbLine
 10
17.778116
 20
-0.7
 30
0.0
 11
17.671885
 21
-0.516
 31
0.0
  0
LINE
  5
451
330
1F
100
AcDbEntity
  8
1
  6
CONTINUOUS
370
50
 62
4
100
AcDbLine
 10
18.078115
 20
-0.7
 30
0.0
 11
17.971884
 21
-0.516
 31
0.0
  0
LINE
  5
452
330
1F
100
AcDbEntity
  8
1
  6
CONTINUOUS
370
50
 62
4
100
AcDbLine
 10
17.028116
 20
0.516
 30
0.0
 11
16.921885
 21
0.7
 31
0.0
  0
LINE
  5
453
330
1F
100
AcDbEntity
  8
1
  6
CONTINUOUS
370
50
 62
4
100
AcDbLine
 10
17.328115
 20
0.516
 30
0.0
 11
17.221884
 21
0.7
 31
0.0
  0
LINE
  5
454
330
1F
100
AcDbEntity
  8
1
  6
CONTINUOUS
370
50
 62
4
100
AcDbLine
 10
18.528116
 20
0.516
 30
0.0
 11
18.421885
 21
0.7
 31
0.0
  0
LINE
  5
455
330
1F
100
AcDbEntity
  8
1
  6
CONTINUOUS
370
50
 62
4
100
AcDbLine
 10
18.828115
 20
0.516
 30
0.0
 11
18.721884
 21
0.7
 31
0.0
  0
LINE
  5
456
330
1F
100
AcDbEntity
  8
1
  6
CONTINUOUS
370
50
 62
4
100
AcDbLine
 10
19.428116
 20
0.516
 30
0.0
 11
19.329878
 21
0.686155
 31
0.0
  0
LINE
  5
457
330
1F
100
AcDbEntity
  8
1
  6
CONTINUOUS
370
50
 62
4
100
AcDbLine
 10
19.548267
 20
-0.6483
 30
0.0
 11
19.471884
 21
-0.516
 31
0.0
  0
LINE
  5
458
330
1F
100
AcDbEntity
  8
1
  6
CONTINUOUS
370
50
 62
4
100
AcDbLine
 10
13.278116
 20
-0.7
 30
0.0
 11
13.171884
 21
-0.516
 31
0.0
  0
LINE
  5
459
330
1F
100
AcDbEntity
  8
1
  6
CONTINUOUS
370
50
 62
4
100
AcDbLine
 10
13.578116
 20
-0.7
 30
0.0
 11
13.471884
 21
-0.516
 31
0.0
  0
LINE
  5
45A
330
1F
100
AcDbEntity
  8
1
  6
CONTINUOUS
370
50
 62
4
100
AcDbLine
 10
14.178116
 20
-0.7
 30
0.0
 11
14.071884
 21
-0.516
 31
0.0
  0
LINE
  5
45B
330
1F
100
AcDbEntity
  8
1
  6
CONTINUOUS
370
50
 62
4
100
AcDbLine
 10
14.778116
 20
-0.7
 30
0.0
 11
14.671884
 21
-0.516
 31
0.0
  0
LINE
  5
45C
330
1F
100
AcDbEntity
  8
1
  6
CONTINUOUS
370
50
 62
4
100
AcDbLine
 10
15.078116
 20
-0.7
 30
0.0
 11
14.971884
 21
-0.516
 31
0.0
  0
LINE
  5
45D
330
1F
100
AcDbEntity
  8
1
  6
CONTINUOUS
370
50
 62
4
100
AcDbLine
 10
15.678116
 20
-0.7
 30
0.0
 11
15.571884
 21
-0.516
 31
0.0
  0
LINE
  5
45E
330
1F
100
AcDbEntity
  8
1
  6
CONTINUOUS
370
50
 62
4
100
AcDbLine
 10
17.178116
 20
-0.7
 30
0.0
 11
17.071884
 21
-0.516
 31
0.0
  0
LINE
  5
45F
330
1F
100
AcDbEntity
  8
1
  6
CONTINUOUS
370
50
 62
4
100
AcDbLine
 10
18.678116
 20
-0.7
 30
0.0
 11
18.571884
 21
-0.516
 31
0.0
  0
LINE
  5
460
330
1F
100
AcDbEntity
  8
1
  6
CONTINUOUS
370
50
 62
4
100
AcDbLine
 10
13.428116
 20
0.516
 30
0.0
 11
13.321884
 21
0.7
 31
0.0
  0
LINE
  5
461
330
1F
100
AcDbEntity
  8
1
  6
CONTINUOUS
370
50
 62
4
100
AcDbLine
 10
14.028116
 20
0.516
 30
0.0
 11
13.921884
 21
0.7
 31
0.0
  0
LINE
  5
462
330
1F
100
AcDbEntity
  8
1
  6
CONTINUOUS
370
50
 62
4
100
AcDbLine
 10
14.328116
 20
0.516
 30
0.0
 11
14.221884
 21
0.7
 31
0.0
  0
LINE
  5
463
330
1F
100
AcDbEntity
  8
1
  6
CONTINUOUS
370
50
 62
4
100
AcDbLine
 10
14.928116
 20
0.516
 30
0.0
 11
14.821884
 21
0.7
 31
0.0
  0
LINE
  5
464
330
1F
100
AcDbEntity
  8
1
  6
CONTINUOUS
370
50
 62
4
100
AcDbLine
 10
15.528116
 20
0.516
 30
0.0
 11
15.421884
 21
0.7
 31
0.0
  0
LINE
  5
465
330
1F
100
AcDbEntity
  8
1
  6
CONTINUOUS
370
50
 62
4
100
AcDbLine
 10
15.828116
 20
0.516
 30
0.0
 11
15.721884
 21
0.7
 31
0.0
  0
LINE
  5
466
330
1F
100
AcDbEntity
  8
1
  6
CONTINUOUS
370
50
 62
4
100
AcDbLine
 10
16.428116
 20
0.516
 30
0.0
 11
16.321884
 21
0.7
 31
0.0
  0
LINE
  5
467
330
1F
100
AcDbEntity
  8
1
  6
CONTINUOUS
370
50
 62
4
100
AcDbLine
 10
17.928116
 20
0.516
 30
0.0
 11
17.821884
 21
0.7
 31
0.0
  0
LINE
  5
468
330
1F
100
AcDbEntity
  8
1
  6
CONTINUOUS
370
50
 62
4
100
AcDbLine
 10
19.728117
 20
0.516
 30
0.0
 11
19.663239
 21
0.6283719999999999
 31
0.0
  0
LINE
  5
469
330
1F
100
AcDbEntity
  8
1
  6
CONTINUOUS
370
50
 62
4
100
AcDbLine
 10
13.878117
 20
-0.7
 30
0.0
 11
13.771884
 21
-0.516
 31
0.0
  0
LINE
  5
46A
330
1F
100
AcDbEntity
  8
1
  6
CONTINUOUS
370
50
 62
4
100
AcDbLine
 10
14.478116
 20
-0.7
 30
0.0
 11
14.371883
 21
-0.516
 31
0.0
  0
LINE
  5
46B
330
1F
100
AcDbEntity
  8
1
  6
CONTINUOUS
370
50
 62
4
100
AcDbLine
 10
15.378117
 20
-0.7
 30
0.0
 11
15.271884
 21
-0.516
 31
0.0
  0
LINE
  5
46C
330
1F
100
AcDbEntity
  8
1
  6
CONTINUOUS
370
50
 62
4
100
AcDbLine
 10
15.978116
 20
-0.7
 30
0.0
 11
15.871883
 21
-0.516
 31
0.0
  0
LINE
  5
46D
330
1F
100
AcDbEntity
  8
1
  6
CONTINUOUS
370
50
 62
4
100
AcDbLine
 10
13.128117
 20
0.516
 30
0.0
 11
13.021884
 21
0.7
 31
0.0
  0
LINE
  5
46E
330
1F
100
AcDbEntity
  8
1
  6
CONTINUOUS
370
50
 62
4
100
AcDbLine
 10
13.728116
 20
0.516
 30
0.0
 11
13.621883
 21
0.7
 31
0.0
  0
LINE
  5
46F
330
1F
100
AcDbEntity
  8
1
  6
CONTINUOUS
370
50
 62
4
100
AcDbLine
 10
14.628117
 20
0.516
 30
0.0
 11
14.521884
 21
0.7
 31
0.0
  0
LINE
  5
470
330
1F
100
AcDbEntity
  8
1
  6
CONTINUOUS
370
50
 62
4
100
AcDbLine
 10
15.228116
 20
0.516
 30
0.0
 11
15.121883
 21
0.7
 31
0.0
  0
LINE
  5
471
330
1F
100
AcDbEntity
  8
1
  6
CONTINUOUS
370
50
 62
4
100
AcDbLine
 10
19.820976
 20
-0.601031
 30
0.0
 11
19.771883
 21
-0.516
 31
0.0
  0
LINE
  5
472
330
1F
100
AcDbEntity
  8
1
  6
CONTINUOUS
370
50
 62
4
100
AcDbLine
 10
16.878117
 20
-0.7
 30
0.0
 11
16.771883
 21
-0.516
 31
0.0
  0
LINE
  5
473
330
1F
100
AcDbEntity
  8
1
  6
CONTINUOUS
370
50
 62
4
100
AcDbLine
 10
17.478117
 20
-0.7
 30
0.0
 11
17.371883
 21
-0.516
 31
0.0
  0
LINE
  5
474
330
1F
100
AcDbEntity
  8
1
  6
CONTINUOUS
370
50
 62
4
100
AcDbLine
 10
18.378117
 20
-0.7
 30
0.0
 11
18.271883
 21
-0.516
 31
0.0
  0
LINE
  5
475
330
1F
100
AcDbEntity
  8
1
  6
CONTINUOUS
370
50
 62
4
100
AcDbLine
 10
18.978117
 20
-0.7
 30
0.0
 11
18.871883
 21
-0.516
 31
0.0
  0
LINE
  5
476
330
1F
100
AcDbEntity
  8
1
  6
CONTINUOUS
370
50
 62
4
100
AcDbLine
 10
16.128117
 20
0.516
 30
0.0
 11
16.021883
 21
0.7
 31
0.0
  0
LINE
  5
477
330
1F
100
AcDbEntity
  8
1
  6
CONTINUOUS
370
50
 62
4
100
AcDbLine
 10
16.728117
 20
0.516
 30
0.0
 11
16.621883
 21
0.7
 31
0.0
  0
LINE
  5
478
330
1F
100
AcDbEntity
  8
1
  6
CONTINUOUS
370
50
 62
4
100
AcDbLine
 10
17.628117
 20
0.516
 30
0.0
 11
17.521883
 21
0.7
 31
0.0
  0
LINE
  5
479
330
1F
100
AcDbEntity
  8
1
  6
CONTINUOUS
370
50
 62
4
100
AcDbLine
 10
18.228117
 20
0.516
 30
0.0
 11
18.121883
 21
0.7
 31
0.0
  0
LINE
  5
47A
330
1F
100
AcDbEntity
  8
1
  6
CONTINUOUS
370
50
 62
4
100
AcDbLine
 10
19.128117
 20
0.516
 30
0.0
 11
19.021883
 21
0.7
 31
0.0
  0
LINE
  5
47B
330
1F
100
AcDbEntity
  8
1
  6
CONTINUOUS
370
50
 62
4
100
AcDbLine
 10
20.0
 20
0.564699
 30
0.0
 11
19.998667
 21
0.5670069999999999
 31
0.0
  0
LINE
  5
47C
330
1F
100
AcDbEntity
  8
1
  6
CONTINUOUS
370
50
 62
4
100
AcDbLine
 10
19.996599
 20
0.5705899999999999
 30
0.0
 11
19.820976
 21
0.601031
 31
0.0
  0
LINE
  5
47D
330
1F
100
AcDbEntity
  8
1
  6
CONTINUOUS
370
50
 62
4
100
AcDbLine
 10
19.663239
 20
0.6283719999999999
 30
0.0
 11
19.548267
 21
0.6483
 31
0.0
  0
LINE
  5
47E
330
1F
100
AcDbEntity
  8
1
  6
CONTINUOUS
370
50
 62
4
100
AcDbLine
 10
19.329878
 20
0.686155
 30
0.0
 11
19.275558
 21
0.69557
 31
0.0
  0
LINE
  5
47F
330
1F
100
AcDbEntity
  8
1
  6
CONTINUOUS
370
50
 62
4
100
AcDbLine
 10
11.0
 20
0.7
 30
0.0
 11
6.0
 21
1.25
 31
0.0
  0
LINE
  5
480
330
1F
100
AcDbEntity
  8
1
  6
CONTINUOUS
370
50
 62
4
100
AcDbLine
 10
0.0
 20
-1.25
 30
0.0
 11
6.0
 21
-1.25
 31
0.0
  0
LINE
  5
481
330
1F
100
AcDbEntity
  8
1
  6
CONTINUOUS
370
50
 62
4
100
AcDbLine
 10
11.0
 20
-0.7
 30
0.0
 11
13.021884
 21
-0.7
 31
0.0
  0
LINE
  5
482
330
1F
100
AcDbEntity
  8
1
  6
CONTINUOUS
370
50
 62
4
100
AcDbLine
 10
13.278116
 20
-0.7
 30
0.0
 11
13.321884
 21
-0.7
 31
0.0
  0
LINE
  5
483
330
1F
100
AcDbEntity
  8
1
  6
CONTINUOUS
370
50
 62
4
100
AcDbLine
 10
13.578116
 20
-0.7
 30
0.0
 11
13.621883
 21
-0.7
 31
0.0
  0
LINE
  5
484
330
1F
100
AcDbEntity
  8
1
  6
CONTINUOUS
370
50
 62
4
100
AcDbLine
 10
13.878117
 20
-0.7
 30
0.0
 11
13.921884
 21
-0.7
 31
0.0
  0
LINE
  5
485
330
1F
100
AcDbEntity
  8
1
  6
CONTINUOUS
370
50
 62
4
100
AcDbLine
 10
14.178116
 20
-0.7
 30
0.0
 11
14.221884
 21
-0.7
 31
0.0
  0
LINE
  5
486
330
1F
100
AcDbEntity
  8
1
  6
CONTINUOUS
370
50
 62
4
100
AcDbLine
 10
14.478116
 20
-0.7
 30
0.0
 11
14.521884
 21
-0.7
 31
0.0
  0
LINE
  5
487
330
1F
100
AcDbEntity
  8
1
  6
CONTINUOUS
370
50
 62
4
100
AcDbLine
 10
14.778116
 20
-0.7
 30
0.0
 11
14.821884
 21
-0.7
 31
0.0
  0
LINE
  5
488
330
1F
100
AcDbEntity
  8
1
  6
CONTINUOUS
370
50
 62
4
100
AcDbLine
 10
15.078116
 20
-0.7
 30
0.0
 11
15.121883
 21
-0.7
 31
0.0
  0
LINE
  5
489
330
1F
100
AcDbEntity
  8
1
  6
CONTINUOUS
370
50
 62
4
100
AcDbLine
 10
15.378117
 20
-0.7
 30
0.0
 11
15.421884
 21
-0.7
 31
0.0
  0
LINE
  5
48A
330
1F
100
AcDbEntity
  8
1
  6
CONTINUOUS
370
50
 62
4
100
AcDbLine
 10
15.678116
 20
-0.7
 30
0.0
 11
15.721884
 21
-0.7
 31
0.0
  0
LINE
  5
48B
330
1F
100
AcDbEntity
  8
1
  6
CONTINUOUS
370
50
 62
4
100
AcDbLine
 10
15.978116
 20
-0.7
 30
0.0
 11
16.021883
 21
-0.7
 31
0.0
  0
LINE
  5
48C
330
1F
100
AcDbEntity
  8
1
  6
CONTINUOUS
370
50
 62
4
100
AcDbLine
 10
16.278116
 20
-0.7
 30
0.0
 11
16.321884
 21
-0.7
 31
0.0
  0
LINE
  5
48D
330
1F
100
AcDbEntity
  8
1
  6
CONTINUOUS
370
50
 62
4
100
AcDbLine
 10
16.578115
 20
-0.7
 30
0.0
 11
16.621883
 21
-0.7
 31
0.0
  0
LINE
  5
48E
330
1F
100
AcDbEntity
  8
1
  6
CONTINUOUS
370
50
 62
4
100
AcDbLine
 10
16.878117
 20
-0.7
 30
0.0
 11
16.921885
 21
-0.7
 31
0.0
  0
LINE
  5
48F
330
1F
100
AcDbEntity
  8
1
  6
CONTINUOUS
370
50
 62
4
100
AcDbLine
 10
17.178116
 20
-0.7
 30
0.0
 11
17.221884
 21
-0.7
 31
0.0
  0
LINE
  5
490
330
1F
100
AcDbEntity
  8
1
  6
CONTINUOUS
370
50
 62
4
100
AcDbLine
 10
17.478117
 20
-0.7
 30
0.0
 11
17.521883
 21
-0.7
 31
0.0
  0
LINE
  5
491
330
1F
100
AcDbEntity
  8
1
  6
CONTINUOUS
370
50
 62
4
100
AcDbLine
 10
17.778116
 20
-0.7
 30
0.0
 11
17.821884
 21
-0.7
 31
0.0
  0
LINE
  5
492
330
1F
100
AcDbEntity
  8
1
  6
CONTINUOUS
370
50
 62
4
100
AcDbLine
 10
18.078115
 20
-0.7
 30
0.0
 11
18.121883
 21
-0.7
 31
0.0
  0
LINE
  5
493
330
1F
100
AcDbEntity
  8
1
  6
CONTINUOUS
370
50
 62
4
100
AcDbLine
 10
18.378117
 20
-0.7
 30
0.0
 11
18.421885
 21
-0.7
 31
0.0
  0
LINE
  5
494
330
1F
100
AcDbEntity
  8
1
  6
CONTINUOUS
370
50
 62
4
100
AcDbLine
 10
18.678116
 20
-0.7
 30
0.0
 11
18.721884
 21
-0.7
 31
0.0
  0
LINE
  5
495
330
1F
100
AcDbEntity
  8
1
  6
CONTINUOUS
370
50
 62
4
100
AcDbLine
 10
18.978117
 20
-0.7
 30
0.0
 11
19.021883
 21
-0.7
 31
0.0
  0
LINE
  5
496
330
1F
100
AcDbEntity
  8
1
  6
CONTINUOUS
370
50
 62
4
100
AcDbLine
 10
13.128117
 20
-0.516
 30
0.0
 11
13.171884
 21
-0.516
 31
0.0
  0
LINE
  5
497
330
1F
100
AcDbEntity
  8
1
  6
CONTINUOUS
370
50
 62
4
100
AcDbLine
 10
13.428116
 20
-0.516
 30
0.0
 11
13.471884
 21
-0.516
 31
0.0
  0
LINE
  5
498
330
1F
100
AcDbEntity
  8
1
  6
CONTINUOUS
370
50
 62
4
100
AcDbLine
 10
13.728116
 20
-0.516
 30
0.0
 11
13.771884
 21
-0.516
 31
0.0
  0
LINE
  5
499
330
1F
100
AcDbEntity
  8
1
  6
CONTINUOUS
370
50
 62
4
100
AcDbLine
 10
14.028116
 20
-0.516
 30
0.0
 11
14.071884
 21
-0.516
 31
0.0
  0
LINE
  5
49A
330
1F
100
AcDbEntity
  8
1
  6
CONTINUOUS
370
50
 62
4
100
AcDbLine
 10
14.328116
 20
-0.516
 30
0.0
 11
14.371883
 21
-0.516
 31
0.0
  0
LINE
  5
49B
330
1F
100
AcDbEntity
  8
1
  6
CONTINUOUS
370
50
 62
4
100
AcDbLine
 10
14.628117
 20
-0.516
 30
0.0
 11
14.671884
 21
-0.516
 31
0.0
  0
LINE
  5
49C
330
1F
100
AcDbEntity
  8
1
  6
CONTINUOUS
370
50
 62
4
100
AcDbLine
 10
14.928116
 20
-0.516
 30
0.0
 11
14.971884
 21
-0.516
 31
0.0
  0
LINE
  5
49D
330
1F
100
AcDbEntity
  8
1
  6
CONTINUOUS
370
50
 62
4
100
AcDbLine
 10
15.228116
 20
-0.516
 30
0.0
 11
15.271884
 21
-0.516
 31
0.0
  0
LINE
  5
49E
330
1F
100
AcDbEntity
  8
1
  6
CONTINUOUS
370
50
 62
4
100
AcDbLine
 10
15.528116
 20
-0.516
 30
0.0
 11
15.571884
 21
-0.516
 31
0.0
  0
LINE
  5
49F
330
1F
100
AcDbEntity
  8
1
  6
CONTINUOUS
370
50
 62
4
100
AcDbLine
 10
15.828116
 20
-0.516
 30
0.0
 11
15.871883
 21
-0.516
 31
0.0
  0
LINE
  5
4A0
330
1F
100
AcDbEntity
  8
1
  6
CONTINUOUS
370
50
 62
4
100
AcDbLine
 10
16.128117
 20
-0.516
 30
0.0
 11
16.171885
 21
-0.516
 31
0.0
  0
LINE
  5
4A1
330
1F
100
AcDbEntity
  8
1
  6
CONTINUOUS
370
50
 62
4
100
AcDbLine
 10
16.428116
 20
-0.516
 30
0.0
 11
16.471884
 21
-0.516
 31
0.0
  0
LINE
  5
4A2
330
1F
100
AcDbEntity
  8
1
  6
CONTINUOUS
370
50
 62
4
100
AcDbLine
 10
16.728117
 20
-0.516
 30
0.0
 11
16.771883
 21
-0.516
 31
0.0
  0
LINE
  5
4A3
330
1F
100
AcDbEntity
  8
1
  6
CONTINUOUS
370
50
 62
4
100
AcDbLine
 10
17.028116
 20
-0.516
 30
0.0
 11
17.071884
 21
-0.516
 31
0.0
  0
LINE
  5
4A4
330
1F
100
AcDbEntity
  8
1
  6
CONTINUOUS
370
50
 62
4
100
AcDbLine
 10
17.328115
 20
-0.516
 30
0.0
 11
17.371883
 21
-0.516
 31
0.0
  0
LINE
  5
4A5
330
1F
100
AcDbEntity
  8
1
  6
CONTINUOUS
370
50
 62
4
100
AcDbLine
 10
17.628117
 20
-0.516
 30
0.0
 11
17.671885
 21
-0.516
 31
0.0
  0
LINE
  5
4A6
330
1F
100
AcDbEntity
  8
1
  6
CONTINUOUS
370
50
 62
4
100
AcDbLine
 10
17.928116
 20
-0.516
 30
0.0
 11
17.971884
 21
-0.516
 31
0.0
  0
LINE
  5
4A7
330
1F
100
AcDbEntity
  8
1
  6
CONTINUOUS
370
50
 62
4
100
AcDbLine
 10
18.228117
 20
-0.516
 30
0.0
 11
18.271883
 21
-0.516
 31
0.0
  0
LINE
  5
4A8
330
1F
100
AcDbEntity
  8
1
  6
CONTINUOUS
370
50
 62
4
100
AcDbLine
 10
18.528116
 20
-0.516
 30
0.0
 11
18.571884
 21
-0.516
 31
0.0
  0
LINE
  5
4A9
330
1F
100
AcDbEntity
  8
1
  6
CONTINUOUS
370
50
 62
4
100
AcDbLine
 10
18.828115
 20
-0.516
 30
0.0
 11
18.871883
 21
-0.516
 31
0.0
  0
LINE
  5
4AA
330
1F
100
AcDbEntity
  8
1
  6
CONTINUOUS
370
50
 62
4
100
AcDbLine
 10
19.128117
 20
-0.516
 30
0.0
 11
19.171885
 21
-0.516
 31
0.0
  0
LINE
  5
4AB
330
1F
100
AcDbEntity
  8
1
  6
CONTINUOUS
370
50
 62
4
100
AcDbLine
 10
19.428116
 20
-0.516
 30
0.0
 11
19.471884
 21
-0.516
 31
0.0
  0
LINE
  5
4AC
330
1F
100
AcDbEntity
  8
1
  6
CONTINUOUS
370
50
 62
4
100
AcDbLine
 10
19.728117
 20
-0.516
 30
0.0
 11
19.771883
 21
-0.516
 31
0.0
  0
LINE
  5
4AD
330
1F
100
AcDbEntity
  8
1
  6
CONTINUOUS
370
50
 62
4
100
AcDbLine
 10
13.128117
 20
0.516
 30
0.0
 11
13.171884
 21
0.516
 31
0.0
  0
LINE
  5
4AE
330
1F
100
AcDbEntity
  8
1
  6
CONTINUOUS
370
50
 62
4
100
AcDbLine
 10
13.428116
 20
0.516
 30
0.0
 11
13.471884
 21
0.516
 31
0.0
  0
LINE
  5
4AF
330
1F
100
AcDbEntity
  8
1
  6
CONTINUOUS
370
50
 62
4
100
AcDbLine
 10
13.728116
 20
0.516
 30
0.0
 11
13.771884
 21
0.516
 31
0.0
  0
LINE
  5
4B0
330
1F
100
AcDbEntity
  8
1
  6
CONTINUOUS
370
50
 62
4
100
AcDbLine
 10
14.028116
 20
0.516
 30
0.0
 11
14.071884
 21
0.516
 31
0.0
  0
LINE
  5
4B1
330
1F
100
AcDbEntity
  8
1
  6
CONTINUOUS
370
50
 62
4
100
AcDbLine
 10
14.328116
 20
0.516
 30
0.0
 11
14.371883
 21
0.516
 31
0.0
  0
LINE
  5
4B2
330
1F
100
AcDbEntity
  8
1
  6
CONTINUOUS
370
50
 62
4
100
AcDbLine
 10
14.628117
 20
0.516
 30
0.0
 11
14.671884
 21
0.516
 31
0.0
  0
LINE
  5
4B3
330
1F
100
AcDbEntity
  8
1
  6
CONTINUOUS
370
50
 62
4
100
AcDbLine
 10
14.928116
 20
0.516
 30
0.0
 11
14.971884
 21
0.516
 31
0.0
  0
LINE
  5
4B4
330
1F
100
AcDbEntity
  8
1
  6
CONTINUOUS
370
50
 62
4
100
AcDbLine
 10
15.228116
 20
0.516
 30
0.0
 11
15.271884
 21
0.516
 31
0.0
  0
LINE
  5
4B5
330
1F
100
AcDbEntity
  8
1
  6
CONTINUOUS
370
50
 62
4
100
AcDbLine
 10
15.528116
 20
0.516
 30
0.0
 11
15.571884
 21
0.516
 31
0.0
  0
LINE
  5
4B6
330
1F
100
AcDbEntity
  8
1
  6
CONTINUOUS
370
50
 62
4
100
AcDbLine
 10
15.828116
 20
0.516
 30
0.0
 11
15.871883
 21
0.516
 31
0.0
  0
LINE
  5
4B7
330
1F
100
AcDbEntity
  8
1
  6
CONTINUOUS
370
50
 62
4
100
AcDbLine
 10
16.128117
 20
0.516
 30
0.0
 11
16.171885
 21
0.516
 31
0.0
  0
LINE
  5
4B8
330
1F
100
AcDbEntity
  8
1
  6
CONTINUOUS
370
50
 62
4
100
AcDbLine
 10
16.428116
 20
0.516
 30
0.0
 11
16.471884
 21
0.516
 31
0.0
  0
LINE
  5
4B9
330
1F
100
AcDbEntity
  8
1
  6
CONTINUOUS
370
50
 62
4
100
AcDbLine
 10
16.728117
 20
0.516
 30
0.0
 11
16.771883
 21
0.516
 31
0.0
  0
LINE
  5
4BA
330
1F
100
AcDbEntity
  8
1
  6
CONTINUOUS
370
50
 62
4
100
AcDbLine
 10
17.028116
 20
0.516
 30
0.0
 11
17.071884
 21
0.516
 31
0.0
  0
LINE
  5
4BB
330
1F
100
AcDbEntity
  8
1
  6
CONTINUOUS
370
50
 62
4
100
AcDbLine
 10
17.328115
 20
0.516
 30
0.0
 11
17.371883
 21
0.516
 31
0.0
  0
LINE
  5
4BC
330
1F
100
AcDbEntity
  8
1
  6
CONTINUOUS
370
50
 62
4
100
AcDbLine
 10
17.628117
 20
0.516
 30
0.0
 11
17.671885
 21
0.516
 31
0.0
  0
LINE
  5
4BD
330
1F
100
AcDbEntity
  8
1
  6
CONTINUOUS
370
50
 62
4
100
AcDbLine
 10
17.928116
 20
0.516
 30
0.0
 11
17.971884
 21
0.516
 31
0.0
  0
LINE
  5
4BE
330
1F
100
AcDbEntity
  8
1
  6
CONTINUOUS
370
50
 62
4
100
AcDbLine
 10
18.228117
 20
0.516
 30
0.0
 11
18.271883
 21
0.516
 31
0.0
  0
LINE
  5
4BF
330
1F
100
AcDbEntity
  8
1
  6
CONTINUOUS
370
50
 62
4
100
AcDbLine
 10
18.528116
 20
0.516
 30
0.0
 11
18.571884
 21
0.516
 31
0.0
  0
LINE
  5
4C0
330
1F
100
AcDbEntity
  8
1
  6
CONTINUOUS
370
50
 62
4
100
AcDbLine
 10
18.828115
 20
0.516
 30
0.0
 11
18.871883
 21
0.516
 31
0.0
  0
LINE
  5
4C1
330
1F
100
AcDbEntity
  8
1
  6
CONTINUOUS
370
50
 62
4
100
AcDbLine
 10
19.128117
 20
0.516
 30
0.0
 11
19.171885
 21
0.516
 31
0.0
  0
LINE
  5
4C2
330
1F
100
AcDbEntity
  8
1
  6
CONTINUOUS
370
50
 62
4
100
AcDbLine
 10
19.428116
 20
0.516
 30
0.0
 11
19.471884
 21
0.516
 31
0.0
  0
LINE
  5
4C3
330
1F
100
AcDbEntity
  8
1
  6
CONTINUOUS
370
50
 62
4
100
AcDbLine
 10
19.728117
 20
0.516
 30
0.0
 11
19.771883
 21
0.516
 31
0.0
  0
LINE
  5
4C4
330
1F
100
AcDbEntity
  8
1
  6
CONTINUOUS
370
50
 62
4
100
AcDbLine
 10
11.0
 20
0.7
 30
0.0
 11
13.021884
 21
0.7
 31
0.0
  0
LINE
  5
4C5
330
1F
100
AcDbEntity
  8
1
  6
CONTINUOUS
370
50
 62
4
100
AcDbLine
 10
18.978117
 20
0.7
 30
0.0
 11
19.021883
 21
0.7
 31
0.0
  0
LINE
  5
4C6
330
1F
100
AcDbEntity
  8
1
  6
CONTINUOUS
370
50
 62
4
100
AcDbLine
 10
18.678116
 20
0.7
 30
0.0
 11
18.721884
 21
0.7
 31
0.0
  0
LINE
  5
4C7
330
1F
100
AcDbEntity
  8
1
  6
CONTINUOUS
370
50
 62
4
100
AcDbLine
 10
18.378117
 20
0.7
 30
0.0
 11
18.421885
 21
0.7
 31
0.0
  0
LINE
  5
4C8
330
1F
100
AcDbEntity
  8
1
  6
CONTINUOUS
370
50
 62
4
100
AcDbLine
 10
18.078115
 20
0.7
 30
0.0
 11
18.121883
 21
0.7
 31
0.0
  0
LINE
  5
4C9
330
1F
100
AcDbEntity
  8
1
  6
CONTINUOUS
370
50
 62
4
100
AcDbLine
 10
17.778116
 20
0.7
 30
0.0
 11
17.821884
 21
0.7
 31
0.0
  0
LINE
  5
4CA
330
1F
100
AcDbEntity
  8
1
  6
CONTINUOUS
370
50
 62
4
100
AcDbLine
 10
17.478117
 20
0.7
 30
0.0
 11
17.521883
 21
0.7
 31
0.0
  0
LINE
  5
4CB
330
1F
100
AcDbEntity
  8
1
  6
CONTINUOUS
370
50
 62
4
100
AcDbLine
 10
17.178116
 20
0.7
 30
0.0
 11
17.221884
 21
0.7
 31
0.0
  0
LINE
  5
4CC
330
1F
100
AcDbEntity
  8
1
  6
CONTINUOUS
370
50
 62
4
100
AcDbLine
 10
16.878117
 20
0.7
 30
0.0
 11
16.921885
 21
0.7
 31
0.0
  0
LINE
  5
4CD
330
1F
100
AcDbEntity
  8
1
  6
CONTINUOUS
370
50
 62
4
100
AcDbLine
 10
16.578115
 20
0.7
 30
0.0
 11
16.621883
 21
0.7
 31
0.0
  0
LINE
  5
4CE
330
1F
100
AcDbEntity
  8
1
  6
CONTINUOUS
370
50
 62
4
100
AcDbLine
 10
16.278116
 20
0.7
 30
0.0
 11
16.321884
 21
0.7
 31
0.0
  0
LINE
  5
4CF
330
1F
100
AcDbEntity
  8
1
  6
CONTINUOUS
370
50
 62
4
100
AcDbLine
 10
15.978116
 20
0.7
 30
0.0
 11
16.021883
 21
0.7
 31
0.0
  0
LINE
  5
4D0
330
1F
100
AcDbEntity
  8
1
  6
CONTINUOUS
370
50
 62
4
100
AcDbLine
 10
15.678116
 20
0.7
 30
0.0
 11
15.721884
 21
0.7
 31
0.0
  0
LINE
  5
4D1
330
1F
100
AcDbEntity
  8
1
  6
CONTINUOUS
370
50
 62
4
100
AcDbLine
 10
15.378117
 20
0.7
 30
0.0
 11
15.421884
 21
0.7
 31
0.0
  0
LINE
  5
4D2
330
1F
100
AcDbEntity
  8
1
  6
CONTINUOUS
370
50
 62
4
100
AcDbLine
 10
15.078116
 20
0.7
 30
0.0
 11
15.121883
 21
0.7
 31
0.0
  0
LINE
  5
4D3
330
1F
100
AcDbEntity
  8
1
  6
CONTINUOUS
370
50
 62
4
100
AcDbLine
 10
14.778116
 20
0.7
 30
0.0
 11
14.821884
 21
0.7
 31
0.0
  0
LINE
  5
4D4
330
1F
100
AcDbEntity
  8
1
  6
CONTINUOUS
370
50
 62
4
100
AcDbLine
 10
14.478116
 20
0.7
 30
0.0
 11
14.521884
 21
0.7
 31
0.0
  0
LINE
  5
4D5
330
1F
100
AcDbEntity
  8
1
  6
CONTINUOUS
370
50
 62
4
100
AcDbLine
 10
14.178116
 20
0.7
 30
0.0
 11
14.221884
 21
0.7
 31
0.0
  0
LINE
  5
4D6
330
1F
100
AcDbEntity
  8
1
  6
CONTINUOUS
370
50
 62
4
100
AcDbLine
 10
13.878117
 20
0.7
 30
0.0
 11
13.921884
 21
0.7
 31
0.0
  0
LINE
  5
4D7
330
1F
100
AcDbEntity
  8
1
  6
CONTINUOUS
370
50
 62
4
100
AcDbLine
 10
13.578116
 20
0.7
 30
0.0
 11
13.621883
 21
0.7
 31
0.0
  0
LINE
  5
4D8
330
1F
100
AcDbEntity
  8
1
  6
CONTINUOUS
370
50
 62
4
100
AcDbLine
 10
13.278116
 20
0.7
 30
0.0
 11
13.321884
 21
0.7
 31
0.0
  0
LINE
  5
4D9
330
1F
100
AcDbEntity
  8
1
  6
CONTINUOUS
370
50
 62
4
100
AcDbLine
 10
0.0
 20
1.25
 30
0.0
 11
6.0
 21
1.25
 31
0.0
  0
LINE
  5
4DA
330
1F
100
AcDbEntity
  8
1
  6
CONTINUOUS
370
50
 62
4
100
AcDbLine
 10
6.0
 20
-1.25
 30
0.0
 11
11.0
 21
-0.7
 31
0.0
  0
LINE
  5
4DB
330
1F
100
AcDbEntity
  8
1
  6
CONTINUOUS
370
50
 62
4
100
AcDbLine
 10
19.275558
 20
-0.69557
 30
0.0
 11
19.329878
 21
-0.686155
 31
0.0
  0
LINE
  5
4DC
330
1F
100
AcDbEntity
  8
1
  6
CONTINUOUS
370
50
 62
4
100
AcDbLine
 10
19.548267
 20
-0.6483
 30
0.0
 11
19.663239
 21
-0.6283719999999999
 31
0.0
  0
LINE
  5
4DD
330
1F
100
AcDbEntity
  8
1
  6
CONTINUOUS
370
50
 62
4
100
AcDbLine
 10
19.820976
 20
-0.601031
 30
0.0
 11
19.996599
 21
-0.5705899999999999
 31
0.0
  0
LINE
  5
4DE
330
1F
100
AcDbEntity
  8
1
  6
CONTINUOUS
370
50
 62
4
100
AcDbLine
 10
19.998667
 20
-0.5670069999999999
 30
0.0
 11
20.0
 21
-0.564699
 31
0.0
  0
LINE
  5
4DF
330
1F
100
AcDbEntity
  8
1
  6
CONTINUOUS
370
50
 62
4
100
AcDbLine
 10
16.021883
 20
-0.7
 30
0.0
 11
16.128117
 21
-0.516
 31
0.0
  0
LINE
  5
4E0
330
1F
100
AcDbEntity
  8
1
  6
CONTINUOUS
370
50
 62
4
100
AcDbLine
 10
16.621883
 20
-0.7
 30
0.0
 11
16.728117
 21
-0.516
 31
0.0
  0
LINE
  5
4E1
330
1F
100
AcDbEntity
  8
1
  6
CONTINUOUS
370
50
 62
4
100
AcDbLine
 10
17.521883
 20
-0.7
 30
0.0
 11
17.628117
 21
-0.516
 31
0.0
  0
LINE
  5
4E2
330
1F
100
AcDbEntity
  8
1
  6
CONTINUOUS
370
50
 62
4
100
AcDbLine
 10
18.121883
 20
-0.7
 30
0.0
 11
18.228117
 21
-0.516
 31
0.0
  0
LINE
  5
4E3
330
1F
100
AcDbEntity
  8
1
  6
CONTINUOUS
370
50
 62
4
100
AcDbLine
 10
19.021883
 20
-0.7
 30
0.0
 11
19.128117
 21
-0.516
 31
0.0
  0
LINE
  5
4E4
330
1F
100
AcDbEntity
  8
1
  6
CONTINUOUS
370
50
 62
4
100
AcDbLine
 10
16.771883
 20
0.516
 30
0.0
 11
16.878117
 21
0.7
 31
0.0
  0
LINE
  5
4E5
330
1F
100
AcDbEntity
  8
1
  6
CONTINUOUS
370
50
 62
4
100
AcDbLine
 10
17.371883
 20
0.516
 30
0.0
 11
17.478117
 21
0.7
 31
0.0
  0
LINE
  5
4E6
330
1F
100
AcDbEntity
  8
1
  6
CONTINUOUS
370
50
 62
4
100
AcDbLine
 10
18.271883
 20
0.516
 30
0.0
 11
18.378117
 21
0.7
 31
0.0
  0
LINE
  5
4E7
330
1F
100
AcDbEntity
  8
1
  6
CONTINUOUS
370
50
 62
4
100
AcDbLine
 10
18.871883
 20
0.516
 30
0.0
 11
18.978117
 21
0.7
 31
0.0
  0
LINE
  5
4E8
330
1F
100
AcDbEntity
  8
1
  6
CONTINUOUS
370
50
 62
4
100
AcDbLine
 10
19.771883
 20
0.516
 30
0.0
 11
19.820976
 21
0.601031
 31
0.0
  0
LINE
  5
4E9
330
1F
100
AcDbEntity
  8
1
  6
CONTINUOUS
370
50
 62
4
100
AcDbLine
 10
13.021884
 20
-0.7
 30
0.0
 11
13.128117
 21
-0.516
 31
0.0
  0
LINE
  5
4EA
330
1F
100
AcDbEntity
  8
1
  6
CONTINUOUS
370
50
 62
4
100
AcDbLine
 10
13.621883
 20
-0.7
 30
0.0
 11
13.728116
 21
-0.516
 31
0.0
  0
LINE
  5
4EB
330
1F
100
AcDbEntity
  8
1
  6
CONTINUOUS
370
50
 62
4
100
AcDbLine
 10
14.521884
 20
-0.7
 30
0.0
 11
14.628117
 21
-0.516
 31
0.0
  0
LINE
  5
4EC
330
1F
100
AcDbEntity
  8
1
  6
CONTINUOUS
370
50
 62
4
100
AcDbLine
 10
15.121883
 20
-0.7
 30
0.0
 11
15.228116
 21
-0.516
 31
0.0
  0
LINE
  5
4ED
330
1F
100
AcDbEntity
  8
1
  6
CONTINUOUS
370
50
 62
4
100
AcDbLine
 10
13.771884
 20
0.516
 30
0.0
 11
13.878117
 21
0.7
 31
0.0
  0
LINE
  5
4EE
330
1F
100
AcDbEntity
  8
1
  6
CONTINUOUS
370
50
 62
4
100
AcDbLine
 10
14.371883
 20
0.516
 30
0.0
 11
14.478116
 21
0.7
 31
0.0
  0
LINE
  5
4EF
330
1F
100
AcDbEntity
  8
1
  6
CONTINUOUS
370
50
 62
4
100
AcDbLine
 10
15.271884
 20
0.516
 30
0.0
 11
15.378117
 21
0.7
 31
0.0
  0
LINE
  5
4F0
330
1F
100
AcDbEntity
  8
1
  6
CONTINUOUS
370
50
 62
4
100
AcDbLine
 10
15.871883
 20
0.516
 30
0.0
 11
15.978116
 21
0.7
 31
0.0
  0
LINE
  5
4F1
330
1F
100
AcDbEntity
  8
1
  6
CONTINUOUS
370
50
 62
4
100
AcDbLine
 10
19.663239
 20
-0.6283719999999999
 30
0.0
 11
19.728117
 21
-0.516
 31
0.0
  0
LINE
  5
4F2
330
1F
100
AcDbEntity
  8
1
  6
CONTINUOUS
370
50
 62
4
100
AcDbLine
 10
13.321884
 20
-0.7
 30
0.0
 11
13.428116
 21
-0.516
 31
0.0
  0
LINE
  5
4F3
330
1F
100
AcDbEntity
  8
1
  6
CONTINUOUS
370
50
 62
4
100
AcDbLine
 10
13.921884
 20
-0.7
 30
0.0
 11
14.028116
 21
-0.516
 31
0.0
  0
LINE
  5
4F4
330
1F
100
AcDbEntity
  8
1
  6
CONTINUOUS
370
50
 62
4
100
AcDbLine
 10
14.221884
 20
-0.7
 30
0.0
 11
14.328116
 21
-0.516
 31
0.0
  0
LINE
  5
4F5
330
1F
100
AcDbEntity
  8
1
  6
CONTINUOUS
370
50
 62
4
100
AcDbLine
 10
14.821884
 20
-0.7
 30
0.0
 11
14.928116
 21
-0.516
 31
0.0
  0
LINE
  5
4F6
330
1F
100
AcDbEntity
  8
1
  6
CONTINUOUS
370
50
 62
4
100
AcDbLine
 10
15.421884
 20
-0.7
 30
0.0
 11
15.528116
 21
-0.516
 31
0.0
  0
LINE
  5
4F7
330
1F
100
AcDbEntity
  8
1
  6
CONTINUOUS
370
50
 62
4
100
AcDbLine
 10
15.721884
 20
-0.7
 30
0.0
 11
15.828116
 21
-0.516
 31
0.0
  0
LINE
  5
4F8
330
1F
100
AcDbEntity
  8
1
  6
CONTINUOUS
370
50
 62
4
100
AcDbLine
 10
16.321884
 20
-0.7
 30
0.0
 11
16.428116
 21
-0.516
 31
0.0
  0
LINE
  5
4F9
330
1F
100
AcDbEntity
  8
1
  6
CONTINUOUS
370
50
 62
4
100
AcDbLine
 10
17.821884
 20
-0.7
 30
0.0
 11
17.928116
 21
-0.516
 31
0.0
  0
LINE
  5
4FA
330
1F
100
AcDbEntity
  8
1
  6
CONTINUOUS
370
50
 62
4
100
AcDbLine
 10
13.171884
 20
0.516
 30
0.0
 11
13.278116
 21
0.7
 31
0.0
  0
LINE
  5
4FB
330
1F
100
AcDbEntity
  8
1
  6
CONTINUOUS
370
50
 62
4
100
AcDbLine
 10
13.471884
 20
0.516
 30
0.0
 11
13.578116
 21
0.7
 31
0.0
  0
LINE
  5
4FC
330
1F
100
AcDbEntity
  8
1
  6
CONTINUOUS
370
50
 62
4
100
AcDbLine
 10
14.071884
 20
0.516
 30
0.0
 11
14.178116
 21
0.7
 31
0.0
  0
LINE
  5
4FD
330
1F
100
AcDbEntity
  8
1
  6
CONTINUOUS
370
50
 62
4
100
AcDbLine
 10
14.671884
 20
0.516
 30
0.0
 11
14.778116
 21
0.7
 31
0.0
  0
LINE
  5
4FE
330
1F
100
AcDbEntity
  8
1
  6
CONTINUOUS
370
50
 62
4
100
AcDbLine
 10
14.971884
 20
0.516
 30
0.0
 11
15.078116
 21
0.7
 31
0.0
  0
LINE
  5
4FF
330
1F
100
AcDbEntity
  8
1
  6
CONTINUOUS
370
50
 62
4
100
AcDbLine
 10
15.571884
 20
0.516
 30
0.0
 11
15.678116
 21
0.7
 31
0.0
  0
LINE
  5
500
330
1F
100
AcDbEntity
  8
1
  6
CONTINUOUS
370
50
 62
4
100
AcDbLine
 10
17.071884
 20
0.516
 30
0.0
 11
17.178116
 21
0.7
 31
0.0
  0
LINE
  5
501
330
1F
100
AcDbEntity
  8
1
  6
CONTINUOUS
370
50
 62
4
100
AcDbLine
 10
18.571884
 20
0.516
 30
0.0
 11
18.678116
 21
0.7
 31
0.0
  0
LINE
  5
502
330
1F
100
AcDbEntity
  8
1
  6
CONTINUOUS
370
50
 62
4
100
AcDbLine
 10
19.471884
 20
0.516
 30
0.0
 11
19.548267
 21
0.6483
 31
0.0
  0
LINE
  5
503
330
1F
100
AcDbEntity
  8
1
  6
CONTINUOUS
370
50
 62
4
100
AcDbLine
 10
19.329878
 20
-0.686155
 30
0.0
 11
19.428116
 21
-0.516
 31
0.0
  0
LINE
  5
504
330
1F
100
AcDbEntity
  8
1
  6
CONTINUOUS
370
50
 62
4
100
AcDbLine
 10
16.921885
 20
-0.7
 30
0.0
 11
17.028116
 21
-0.516
 31
0.0
  0
LINE
  5
505
330
1F
100
AcDbEntity
  8
1
  6
CONTINUOUS
370
50
 62
4
100
AcDbLine
 10
17.221884
 20
-0.7
 30
0.0
 11
17.328115
 21
-0.516
 31
0.0
  0
LINE
  5
506
330
1F
100
AcDbEntity
  8
1
  6
CONTINUOUS
370
50
 62
4
100
AcDbLine
 10
18.421885
 20
-0.7
 30
0.0
 11
18.528116
 21
-0.516
 31
0.0
  0
LINE
  5
507
330
1F
100
AcDbEntity
  8
1
  6
CONTINUOUS
370
50
 62
4
100
AcDbLine
 10
18.721884
 20
-0.7
 30
0.0
 11
18.828115
 21
-0.516
 31
0.0
  0
LINE
  5
508
330
1F
100
AcDbEntity
  8
1
  6
CONTINUOUS
370
50
 62
4
100
AcDbLine
 10
16.171885
 20
0.516
 30
0.0
 11
16.278116
 21
0.7
 31
0.0
  0
LINE
  5
509
330
1F
100
AcDbEntity
  8
1
  6
CONTINUOUS
370
50
 62
4
100
AcDbLine
 10
16.471884
 20
0.516
 30
0.0
 11
16.578115
 21
0.7
 31
0.0
  0
LINE
  5
50A
330
1F
100
AcDbEntity
  8
1
  6
CONTINUOUS
370
50
 62
4
100
AcDbLine
 10
17.671885
 20
0.516
 30
0.0
 11
17.778116
 21
0.7
 31
0.0
  0
LINE
  5
50B
330
1F
100
AcDbEntity
  8
1
  6
CONTINUOUS
370
50
 62
4
100
AcDbLine
 10
17.971884
 20
0.516
 30
0.0
 11
18.078115
 21
0.7
 31
0.0
  0
LINE
  5
50C
330
1F
100
AcDbEntity
  8
1
  6
CONTINUOUS
370
50
 62
4
100
AcDbLine
 10
19.171885
 20
0.516
 30
0.0
 11
19.275558
 21
0.69557
 31
0.0
  0
LINE
  5
50D
330
1F
100
AcDbEntity
  8
1
  6
CONTINUOUS
370
50
 62
4
100
AcDbLine
 10
19.996599
 20
-0.5705899999999999
 30
0.0
 11
19.998667
 21
-0.5670069999999999
 31
0.0
  0
LINE
  5
50E
330
1F
100
AcDbEntity
  8
1
  6
CONTINUOUS
370
50
 62
4
100
AcDbLine
 10
0.0
 20
-1.25
 30
0.0
 11
0.0
 21
1.25
 31
0.0
  0
LINE
  5
50F
330
1F
100
AcDbEntity
  8
1
  6
CONTINUOUS
370
50
 62
4
100
AcDbLine
 10
6.0
 20
-1.25
 30
0.0
 11
6.0
 21
1.25
 31
0.0
  0
LINE
  5
510
330
1F
100
AcDbEntity
  8
1
  6
CONTINUOUS
370
50
 62
4
100
AcDbLine
 10
11.0
 20
-0.7
 30
0.0
 11
11.0
 21
0.7
 31
0.0
  0
LINE
  5
511
330
1F
100
AcDbEntity
  8
1
  6
CONTINUOUS
370
50
 62
4
100
AcDbLine
 10
13.0
 20
-0.7
 30
0.0
 11
13.0
 21
0.7
 31
0.0
  0
LINE
  5
512
330
1F
100
AcDbEntity
  8
1
  6
CONTINUOUS
370
50
 62
4
100
AcDbLine
 10
13.021884
 20
-0.7
 30
0.0
 11
13.021884
 21
0.7
 31
0.0
  0
LINE
  5
513
330
1F
100
AcDbEntity
  8
1
  6
CONTINUOUS
370
50
 62
4
100
AcDbLine
 10
13.128117
 20
-0.516
 30
0.0
 11
13.128117
 21
0.516
 31
0.0
  0
LINE
  5
514
330
1F
100
AcDbEntity
  8
1
  6
CONTINUOUS
370
50
 62
4
100
AcDbLine
 10
13.171884
 20
-0.516
 30
0.0
 11
13.171884
 21
0.516
 31
0.0
  0
LINE
  5
515
330
1F
100
AcDbEntity
  8
1
  6
CONTINUOUS
370
50
 62
4
100
AcDbLine
 10
13.278116
 20
-0.7
 30
0.0
 11
13.278116
 21
0.7
 31
0.0
  0
LINE
  5
516
330
1F
100
AcDbEntity
  8
1
  6
CONTINUOUS
370
50
 62
4
100
AcDbLine
 10
13.321884
 20
-0.7
 30
0.0
 11
13.321884
 21
0.7
 31
0.0
  0
LINE
  5
517
330
1F
100
AcDbEntity
  8
1
  6
CONTINUOUS
370
50
 62
4
100
AcDbLine
 10
13.428116
 20
-0.516
 30
0.0
 11
13.428116
 21
0.516
 31
0.0
  0
LINE
  5
518
330
1F
100
AcDbEntity
  8
1
  6
CONTINUOUS
370
50
 62
4
100
AcDbLine
 10
13.471884
 20
-0.516
 30
0.0
 11
13.471884
 21
0.516
 31
0.0
  0
LINE
  5
519
330
1F
100
AcDbEntity
  8
1
  6
CONTINUOUS
370
50
 62
4
100
AcDbLine
 10
13.578116
 20
-0.7
 30
0.0
 11
13.578116
 21
0.7
 31
0.0
  0
LINE
  5
51A
330
1F
100
AcDbEntity
  8
1
  6
CONTINUOUS
370
50
 62
4
100
AcDbLine
 10
13.621883
 20
-0.7
 30
0.0
 11
13.621883
 21
0.7
 31
0.0
  0
LINE
  5
51B
330
1F
100
AcDbEntity
  8
1
  6
CONTINUOUS
370
50
 62
4
100
AcDbLine
 10
13.728116
 20
-0.516
 30
0.0
 11
13.728116
 21
0.516
 31
0.0
  0
LINE
  5
51C
330
1F
100
AcDbEntity
  8
1
  6
CONTINUOUS
370
50
 62
4
100
AcDbLine
 10
13.771884
 20
-0.516
 30
0.0
 11
13.771884
 21
0.516
 31
0.0
  0
LINE
  5
51D
330
1F
100
AcDbEntity
  8
1
  6
CONTINUOUS
370
50
 62
4
100
AcDbLine
 10
13.878117
 20
-0.7
 30
0.0
 11
13.878117
 21
0.7
 31
0.0
  0
LINE
  5
51E
330
1F
100
AcDbEntity
  8
1
  6
CONTINUOUS
370
50
 62
4
100
AcDbLine
 10
13.921884
 20
-0.7
 30
0.0
 11
13.921884
 21
0.7
 31
0.0
  0
LINE
  5
51F
330
1F
100
AcDbEntity
  8
1
  6
CONTINUOUS
370
50
 62
4
100
AcDbLine
 10
14.028116
 20
-0.516
 30
0.0
 11
14.028116
 21
0.516
 31
0.0
  0
LINE
  5
520
330
1F
100
AcDbEntity
  8
1
  6
CONTINUOUS
370
50
 62
4
100
AcDbLine
 10
14.071884
 20
-0.516
 30
0.0
 11
14.071884
 21
0.516
 31
0.0
  0
LINE
  5
521
330
1F
100
AcDbEntity
  8
1
  6
CONTINUOUS
370
50
 62
4
100
AcDbLine
 10
14.178116
 20
-0.7
 30
0.0
 11
14.178116
 21
0.7
 31
0.0
  0
LINE
  5
522
330
1F
100
AcDbEntity
  8
1
  6
CONTINUOUS
370
50
 62
4
100
AcDbLine
 10
14.221884
 20
-0.7
 30
0.0
 11
14.221884
 21
0.7
 31
0.0
  0
LINE
  5
523
330
1F
100
AcDbEntity
  8
1
  6
CONTINUOUS
370
50
 62
4
100
AcDbLine
 10
14.328116
 20
-0.516
 30
0.0
 11
14.328116
 21
0.516
 31
0.0
  0
LINE
  5
524
330
1F
100
AcDbEntity
  8
1
  6
CONTINUOUS
370
50
 62
4
100
AcDbLine
 10
14.371883
 20
-0.516
 30
0.0
 11
14.371883
 21
0.516
 31
0.0
  0
LINE
  5
525
330
1F
100
AcDbEntity
  8
1
  6
CONTINUOUS
370
50
 62
4
100
AcDbLine
 10
14.478116
 20
-0.7
 30
0.0
 11
14.478116
 21
0.7
 31
0.0
  0
LINE
  5
526
330
1F
100
AcDbEntity
  8
1
  6
CONTINUOUS
370
50
 62
4
100
AcDbLine
 10
14.521884
 20
-0.7
 30
0.0
 11
14.521884
 21
0.7
 31
0.0
  0
LINE
  5
527
330
1F
100
AcDbEntity
  8
1
  6
CONTINUOUS
370
50
 62
4
100
AcDbLine
 10
14.628117
 20
-0.516
 30
0.0
 11
14.628117
 21
0.516
 31
0.0
  0
LINE
  5
528
330
1F
100
AcDbEntity
  8
1
  6
CONTINUOUS
370
50
 62
4
100
AcDbLine
 10
14.671884
 20
-0.516
 30
0.0
 11
14.671884
 21
0.516
 31
0.0
  0
LINE
  5
529
330
1F
100
AcDbEntity
  8
1
  6
CONTINUOUS
370
50
 62
4
100
AcDbLine
 10
14.778116
 20
-0.7
 30
0.0
 11
14.778116
 21
0.7
 31
0.0
  0
LINE
  5
52A
330
1F
100
AcDbEntity
  8
1
  6
CONTINUOUS
370
50
 62
4
100
AcDbLine
 10
14.821884
 20
-0.7
 30
0.0
 11
14.821884
 21
0.7
 31
0.0
  0
LINE
  5
52B
330
1F
100
AcDbEntity
  8
1
  6
CONTINUOUS
370
50
 62
4
100
AcDbLine
 10
14.928116
 20
-0.516
 30
0.0
 11
14.928116
 21
0.516
 31
0.0
  0
LINE
  5
52C
330
1F
100
AcDbEntity
  8
1
  6
CONTINUOUS
370
50
 62
4
100
AcDbLine
 10
14.971884
 20
-0.516
 30
0.0
 11
14.971884
 21
0.516
 31
0.0
  0
LINE
  5
52D
330
1F
100
AcDbEntity
  8
1
  6
CONTINUOUS
370
50
 62
4
100
AcDbLine
 10
15.078116
 20
-0.7
 30
0.0
 11
15.078116
 21
0.7
 31
0.0
  0
LINE
  5
52E
330
1F
100
AcDbEntity
  8
1
  6
CONTINUOUS
370
50
 62
4
100
AcDbLine
 10
15.121883
 20
-0.7
 30
0.0
 11
15.121883
 21
0.7
 31
0.0
  0
LINE
  5
52F
330
1F
100
AcDbEntity
  8
1
  6
CONTINUOUS
370
50
 62
4
100
AcDbLine
 10
15.228116
 20
-0.516
 30
0.0
 11
15.228116
 21
0.516
 31
0.0
  0
LINE
  5
530
330
1F
100
AcDbEntity
  8
1
  6
CONTINUOUS
370
50
 62
4
100
AcDbLine
 10
15.271884
 20
-0.516
 30
0.0
 11
15.271884
 21
0.516
 31
0.0
  0
LINE
  5
531
330
1F
100
AcDbEntity
  8
1
  6
CONTINUOUS
370
50
 62
4
100
AcDbLine
 10
15.378117
 20
-0.7
 30
0.0
 11
15.378117
 21
0.7
 31
0.0
  0
LINE
  5
532
330
1F
100
AcDbEntity
  8
1
  6
CONTINUOUS
370
50
 62
4
100
AcDbLine
 10
15.421884
 20
-0.7
 30
0.0
 11
15.421884
 21
0.7
 31
0.0
  0
LINE
  5
533
330
1F
100
AcDbEntity
  8
1
  6
CONTINUOUS
370
50
 62
4
100
AcDbLine
 10
15.528116
 20
-0.516
 30
0.0
 11
15.528116
 21
0.516
 31
0.0
  0
LINE
  5
534
330
1F
100
AcDbEntity
  8
1
  6
CONTINUOUS
370
50
 62
4
100
AcDbLine
 10
15.571884
 20
-0.516
 30
0.0
 11
15.571884
 21
0.516
 31
0.0
  0
LINE
  5
535
330
1F
100
AcDbEntity
  8
1
  6
CONTINUOUS
370
50
 62
4
100
AcDbLine
 10
15.678116
 20
-0.7
 30
0.0
 11
15.678116
 21
0.7
 31
0.0
  0
LINE
  5
536
330
1F
100
AcDbEntity
  8
1
  6
CONTINUOUS
370
50
 62
4
100
AcDbLine
 10
15.721884
 20
-0.7
 30
0.0
 11
15.721884
 21
0.7
 31
0.0
  0
LINE
  5
537
330
1F
100
AcDbEntity
  8
1
  6
CONTINUOUS
370
50
 62
4
100
AcDbLine
 10
15.828116
 20
-0.516
 30
0.0
 11
15.828116
 21
0.516
 31
0.0
  0
LINE
  5
538
330
1F
100
AcDbEntity
  8
1
  6
CONTINUOUS
370
50
 62
4
100
AcDbLine
 10
15.871883
 20
-0.516
 30
0.0
 11
15.871883
 21
0.516
 31
0.0
  0
LINE
  5
539
330
1F
100
AcDbEntity
  8
1
  6
CONTINUOUS
370
50
 62
4
100
AcDbLine
 10
15.978116
 20
-0.7
 30
0.0
 11
15.978116
 21
0.7
 31
0.0
  0
LINE
  5
53A
330
1F
100
AcDbEntity
  8
1
  6
CONTINUOUS
370
50
 62
4
100
AcDbLine
 10
16.021883
 20
-0.7
 30
0.0
 11
16.021883
 21
0.7
 31
0.0
  0
LINE
  5
53B
330
1F
100
AcDbEntity
  8
1
  6
CONTINUOUS
370
50
 62
4
100
AcDbLine
 10
16.128117
 20
-0.516
 30
0.0
 11
16.128117
 21
0.516
 31
0.0
  0
LINE
  5
53C
330
1F
100
AcDbEntity
  8
1
  6
CONTINUOUS
370
50
 62
4
100
AcDbLine
 10
16.171885
 20
-0.516
 30
0.0
 11
16.171885
 21
0.516
 31
0.0
  0
LINE
  5
53D
330
1F
100
AcDbEntity
  8
1
  6
CONTINUOUS
370
50
 62
4
100
AcDbLine
 10
16.278116
 20
-0.7
 30
0.0
 11
16.278116
 21
0.7
 31
0.0
  0
LINE
  5
53E
330
1F
100
AcDbEntity
  8
1
  6
CONTINUOUS
370
50
 62
4
100
AcDbLine
 10
16.321884
 20
-0.7
 30
0.0
 11
16.321884
 21
0.7
 31
0.0
  0
LINE
  5
53F
330
1F
100
AcDbEntity
  8
1
  6
CONTINUOUS
370
50
 62
4
100
AcDbLine
 10
16.428116
 20
-0.516
 30
0.0
 11
16.428116
 21
0.516
 31
0.0
  0
LINE
  5
540
330
1F
100
AcDbEntity
  8
1
  6
CONTINUOUS
370
50
 62
4
100
AcDbLine
 10
16.471884
 20
-0.516
 30
0.0
 11
16.471884
 21
0.516
 31
0.0
  0
LINE
  5
541
330
1F
100
AcDbEntity
  8
1
  6
CONTINUOUS
370
50
 62
4
100
AcDbLine
 10
16.578115
 20
-0.7
 30
0.0
 11
16.578115
 21
0.7
 31
0.0
  0
LINE
  5
542
330
1F
100
AcDbEntity
  8
1
  6
CONTINUOUS
370
50
 62
4
100
AcDbLine
 10
16.621883
 20
-0.7
 30
0.0
 11
16.621883
 21
0.7
 31
0.0
  0
LINE
  5
543
330
1F
100
AcDbEntity
  8
1
  6
CONTINUOUS
370
50
 62
4
100
AcDbLine
 10
16.728117
 20
-0.516
 30
0.0
 11
16.728117
 21
0.516
 31
0.0
  0
LINE
  5
544
330
1F
100
AcDbEntity
  8
1
  6
CONTINUOUS
370
50
 62
4
100
AcDbLine
 10
16.771883
 20
-0.516
 30
0.0
 11
16.771883
 21
0.516
 31
0.0
  0
LINE
  5
545
330
1F
100
AcDbEntity
  8
1
  6
CONTINUOUS
370
50
 62
4
100
AcDbLine
 10
16.878117
 20
-0.7
 30
0.0
 11
16.878117
 21
0.7
 31
0.0
  0
LINE
  5
546
330
1F
100
AcDbEntity
  8
1
  6
CONTINUOUS
370
50
 62
4
100
AcDbLine
 10
16.921885
 20
-0.7
 30
0.0
 11
16.921885
 21
0.7
 31
0.0
  0
LINE
  5
547
330
1F
100
AcDbEntity
  8
1
  6
CONTINUOUS
370
50
 62
4
100
AcDbLine
 10
17.028116
 20
-0.516
 30
0.0
 11
17.028116
 21
0.516
 31
0.0
  0
LINE
  5
548
330
1F
100
AcDbEntity
  8
1
  6
CONTINUOUS
370
50
 62
4
100
AcDbLine
 10
17.071884
 20
-0.516
 30
0.0
 11
17.071884
 21
0.516
 31
0.0
  0
LINE
  5
549
330
1F
100
AcDbEntity
  8
1
  6
CONTINUOUS
370
50
 62
4
100
AcDbLine
 10
17.178116
 20
-0.7
 30
0.0
 11
17.178116
 21
0.7
 31
0.0
  0
LINE
  5
54A
330
1F
100
AcDbEntity
  8
1
  6
CONTINUOUS
370
50
 62
4
100
AcDbLine
 10
17.221884
 20
-0.7
 30
0.0
 11
17.221884
 21
0.7
 31
0.0
  0
LINE
  5
54B
330
1F
100
AcDbEntity
  8
1
  6
CONTINUOUS
370
50
 62
4
100
AcDbLine
 10
17.328115
 20
-0.516
 30
0.0
 11
17.328115
 21
0.516
 31
0.0
  0
LINE
  5
54C
330
1F
100
AcDbEntity
  8
1
  6
CONTINUOUS
370
50
 62
4
100
AcDbLine
 10
17.371883
 20
-0.516
 30
0.0
 11
17.371883
 21
0.516
 31
0.0
  0
LINE
  5
54D
330
1F
100
AcDbEntity
  8
1
  6
CONTINUOUS
370
50
 62
4
100
AcDbLine
 10
17.478117
 20
-0.7
 30
0.0
 11
17.478117
 21
0.7
 31
0.0
  0
LINE
  5
54E
330
1F
100
AcDbEntity
  8
1
  6
CONTINUOUS
370
50
 62
4
100
AcDbLine
 10
17.521883
 20
-0.7
 30
0.0
 11
17.521883
 21
0.7
 31
0.0
  0
LINE
  5
54F
330
1F
100
AcDbEntity
  8
1
  6
CONTINUOUS
370
50
 62
4
100
AcDbLine
 10
17.628117
 20
-0.516
 30
0.0
 11
17.628117
 21
0.516
 31
0.0
  0
LINE
  5
550
330
1F
100
AcDbEntity
  8
1
  6
CONTINUOUS
370
50
 62
4
100
AcDbLine
 10
17.671885
 20
-0.516
 30
0.0
 11
17.671885
 21
0.516
 31
0.0
  0
LINE
  5
551
330
1F
100
AcDbEntity
  8
1
  6
CONTINUOUS
370
50
 62
4
100
AcDbLine
 10
17.778116
 20
-0.7
 30
0.0
 11
17.778116
 21
0.7
 31
0.0
  0
LINE
  5
552
330
1F
100
AcDbEntity
  8
1
  6
CONTINUOUS
370
50
 62
4
100
AcDbLine
 10
17.821884
 20
-0.7
 30
0.0
 11
17.821884
 21
0.7
 31
0.0
  0
LINE
  5
553
330
1F
100
AcDbEntity
  8
1
  6
CONTINUOUS
370
50
 62
4
100
AcDbLine
 10
17.928116
 20
-0.516
 30
0.0
 11
17.928116
 21
0.516
 31
0.0
  0
LINE
  5
554
330
1F
100
AcDbEntity
  8
1
  6
CONTINUOUS
370
50
 62
4
100
AcDbLine
 10
17.971884
 20
-0.516
 30
0.0
 11
17.971884
 21
0.516
 31
0.0
  0
LINE
  5
555
330
1F
100
AcDbEntity
  8
1
  6
CONTINUOUS
370
50
 62
4
100
AcDbLine
 10
18.078115
 20
-0.7
 30
0.0
 11
18.078115
 21
0.7
 31
0.0
  0
LINE
  5
556
330
1F
100
AcDbEntity
  8
1
  6
CONTINUOUS
370
50
 62
4
100
AcDbLine
 10
18.121883
 20
-0.7
 30
0.0
 11
18.121883
 21
0.7
 31
0.0
  0
LINE
  5
557
330
1F
100
AcDbEntity
  8
1
  6
CONTINUOUS
370
50
 62
4
100
AcDbLine
 10
18.228117
 20
-0.516
 30
0.0
 11
18.228117
 21
0.516
 31
0.0
  0
LINE
  5
558
330
1F
100
AcDbEntity
  8
1
  6
CONTINUOUS
370
50
 62
4
100
AcDbLine
 10
18.271883
 20
-0.516
 30
0.0
 11
18.271883
 21
0.516
 31
0.0
  0
LINE
  5
559
330
1F
100
AcDbEntity
  8
1
  6
CONTINUOUS
370
50
 62
4
100
AcDbLine
 10
18.378117
 20
-0.7
 30
0.0
 11
18.378117
 21
0.7
 31
0.0
  0
LINE
  5
55A
330
1F
100
AcDbEntity
  8
1
  6
CONTINUOUS
370
50
 62
4
100
AcDbLine
 10
18.421885
 20
-0.7
 30
0.0
 11
18.421885
 21
0.7
 31
0.0
  0
LINE
  5
55B
330
1F
100
AcDbEntity
  8
1
  6
CONTINUOUS
370
50
 62
4
100
AcDbLine
 10
18.528116
 20
-0.516
 30
0.0
 11
18.528116
 21
0.516
 31
0.0
  0
LINE
  5
55C
330
1F
100
AcDbEntity
  8
1
  6
CONTINUOUS
370
50
 62
4
100
AcDbLine
 10
18.571884
 20
-0.516
 30
0.0
 11
18.571884
 21
0.516
 31
0.0
  0
LINE
  5
55D
330
1F
100
AcDbEntity
  8
1
  6
CONTINUOUS
370
50
 62
4
100
AcDbLine
 10
18.678116
 20
-0.7
 30
0.0
 11
18.678116
 21
0.7
 31
0.0
  0
LINE
  5
55E
330
1F
100
AcDbEntity
  8
1
  6
CONTINUOUS
370
50
 62
4
100
AcDbLine
 10
18.721884
 20
-0.7
 30
0.0
 11
18.721884
 21
0.7
 31
0.0
  0
LINE
  5
55F
330
1F
100
AcDbEntity
  8
1
  6
CONTINUOUS
370
50
 62
4
100
AcDbLine
 10
18.828115
 20
-0.516
 30
0.0
 11
18.828115
 21
0.516
 31
0.0
  0
LINE
  5
560
330
1F
100
AcDbEntity
  8
1
  6
CONTINUOUS
370
50
 62
4
100
AcDbLine
 10
18.871883
 20
-0.516
 30
0.0
 11
18.871883
 21
0.516
 31
0.0
  0
LINE
  5
561
330
1F
100
AcDbEntity
  8
1
  6
CONTINUOUS
370
50
 62
4
100
AcDbLine
 10
18.978117
 20
-0.7
 30
0.0
 11
18.978117
 21
0.7
 31
0.0
  0
LINE
  5
562
330
1F
100
AcDbEntity
  8
1
  6
CONTINUOUS
370
50
 62
4
100
AcDbLine
 10
19.021883
 20
-0.7
 30
0.0
 11
19.021883
 21
0.7
 31
0.0
  0
LINE
  5
563
330
1F
100
AcDbEntity
  8
1
  6
CONTINUOUS
370
50
 62
4
100
AcDbLine
 10
19.128117
 20
-0.516
 30
0.0
 11
19.128117
 21
0.516
 31
0.0
  0
LINE
  5
564
330
1F
100
AcDbEntity
  8
1
  6
CONTINUOUS
370
50
 62
4
100
AcDbLine
 10
19.171885
 20
-0.516
 30
0.0
 11
19.171885
 21
0.516
 31
0.0
  0
LINE
  5
565
330
1F
100
AcDbEntity
  8
1
  6
CONTINUOUS
370
50
 62
4
100
AcDbLine
 10
19.275558
 20
-0.69557
 30
0.0
 11
19.275558
 21
0.69557
 31
0.0
  0
LINE
  5
566
330
1F
100
AcDbEntity
  8
1
  6
CONTINUOUS
370
50
 62
4
100
AcDbLine
 10
19.329878
 20
-0.686155
 30
0.0
 11
19.329878
 21
0.686155
 31
0.0
  0
LINE
  5
567
330
1F
100
AcDbEntity
  8
1
  6
CONTINUOUS
370
50
 62
4
100
AcDbLine
 10
19.428116
 20
-0.516
 30
0.0
 11
19.428116
 21
0.516
 31
0.0
  0
LINE
  5
568
330
1F
100
AcDbEntity
  8
1
  6
CONTINUOUS
370
50
 62
4
100
AcDbLine
 10
19.471884
 20
-0.516
 30
0.0
 11
19.471884
 21
0.516
 31
0.0
  0
LINE
  5
569
330
1F
100
AcDbEntity
  8
1
  6
CONTINUOUS
370
50
 62
4
100
AcDbLine
 10
19.548267
 20
-0.6483
 30
0.0
 11
19.548267
 21
0.6483
 31
0.0
  0
LINE
  5
56A
330
1F
100
AcDbEntity
  8
1
  6
CONTINUOUS
370
50
 62
4
100
AcDbLine
 10
19.663239
 20
-0.6283719999999999
 30
0.0
 11
19.663239
 21
0.6283719999999999
 31
0.0
  0
LINE
  5
56B
330
1F
100
AcDbEntity
  8
1
  6
CONTINUOUS
370
50
 62
4
100
AcDbLine
 10
19.728117
 20
-0.516
 30
0.0
 11
19.728117
 21
0.516
 31
0.0
  0
LINE
  5
56C
330
1F
100
AcDbEntity
  8
1
  6
CONTINUOUS
370
50
 62
4
100
AcDbLine
 10
19.771883
 20
-0.516
 30
0.0
 11
19.771883
 21
0.516
 31
0.0
  0
LINE
  5
56D
330
1F
100
AcDbEntity
  8
1
  6
CONTINUOUS
370
50
 62
4
100
AcDbLine
 10
19.820976
 20
-0.601031
 30
0.0
 11
19.820976
 21
0.601031
 31
0.0
  0
LINE
  5
56E
330
1F
100
AcDbEntity
  8
1
  6
CONTINUOUS
370
50
 62
4
100
AcDbLine
 10
19.996599
 20
-0.5705899999999999
 30
0.0
 11
19.996599
 21
0.5705899999999999
 31
0.0
  0
LINE
  5
56F
330
1F
100
AcDbEntity
  8
1
  6
CONTINUOUS
370
50
 62
4
100
AcDbLine
 10
19.998667
 20
-0.5670069999999999
 30
0.0
 11
19.998667
 21
0.5670069999999999
 31
0.0
  0
LINE
  5
570
330
1F
100
AcDbEntity
  8
1
  6
CONTINUOUS
370
50
 62
4
100
AcDbLine
 10
20.0
 20
-0.564699
 30
0.0
 11
20.0
 21
0.564699
 31
0.0
  0
LINE
  5
571
330
1F
100
AcDbEntity
  8
SK2
  6
CONTINUOUS
370
25
 62
7
100
AcDbLine
 10
-20.0
 20
1.05
 30
0.0
 11
-20.0
 21
14.25
 31
0.0
  0
LINE
  5
572
330
1F
100
AcDbEntity
  8
SK2
  6
CONTINUOUS
370
25
 62
7
100
AcDbLine
 10
0.0000000000000001
 20
14.25
 30
0.0
 11
-0.0000000000000007
 21
1.25
 31
0.0
  0
LINE
  5
573
330
1F
100
AcDbEntity
  8
SK2
  6
CONTINUOUS
370
25
 62
7
100
AcDbLine
 10
-20.0
 20
13.25
 30
0.0
 11
0.0
 21
13.25
 31
0.0
  0
LINE
  5
574
330
1F
100
AcDbEntity
  8
SK2
  6
CONTINUOUS
370
25
 62
7
100
AcDbLine
 10
-20.0
 20
13.25
 30
0.0
 11
-15.0
 21
14.25
 31
0.0
  0
LINE
  5
575
330
1F
100
AcDbEntity
  8
SK2
  6
CONTINUOUS
370
25
 62
7
100
AcDbLine
 10
-15.0
 20
14.25
 30
0.0
 11
-15.0
 21
12.25
 31
0.0
  0
LINE
  5
576
330
1F
100
AcDbEntity
  8
SK2
  6
CONTINUOUS
370
25
 62
7
100
AcDbLine
 10
-15.0
 20
12.25
 30
0.0
 11
-20.0
 21
13.25
 31
0.0
  0
LINE
  5
577
330
1F
100
AcDbEntity
  8
SK2
  6
CONTINUOUS
370
25
 62
7
100
AcDbLine
 10
-15.27263705522945
 20
12.30452741104589
 30
0.0
 11
-15.0
 21
12.57716446627535
 31
0.0
  0
LINE
  5
578
330
1F
100
AcDbEntity
  8
SK2
  6
CONTINUOUS
370
25
 62
7
100
AcDbLine
 10
-15.62619044582273
 20
12.37523808916455
 30
0.0
 11
-15.0
 21
13.00142853498727
 31
0.0
  0
LINE
  5
579
330
1F
100
AcDbEntity
  8
SK2
  6
CONTINUOUS
370
25
 62
7
100
AcDbLine
 10
-15.979743836416
 20
12.4459487672832
 30
0.0
 11
-15.0
 21
13.4256926036992
 31
0.0
  0
LINE
  5
57A
330
1F
100
AcDbEntity
  8
SK2
  6
CONTINUOUS
370
25
 62
7
100
AcDbLine
 10
-16.33329722700928
 20
12.51665944540186
 30
0.0
 11
-15.0
 21
13.84995667241113
 31
0.0
  0
LINE
  5
57B
330
1F
100
AcDbEntity
  8
SK2
  6
CONTINUOUS
370
25
 62
7
100
AcDbLine
 10
-16.68685061760255
 20
12.58737012352051
 30
0.0
 11
-15.03027592640382
 21
14.24394481471924
 31
0.0
  0
LINE
  5
57C
330
1F
100
AcDbEntity
  8
SK2
  6
CONTINUOUS
370
25
 62
7
100
AcDbLine
 10
-17.04040400819582
 20
12.65808080163917
 30
0.0
 11
-15.56060601229373
 21
14.13787879754125
 31
0.0
  0
LINE
  5
57D
330
1F
100
AcDbEntity
  8
SK2
  6
CONTINUOUS
370
25
 62
7
100
AcDbLine
 10
-17.39395739878909
 20
12.72879147975782
 30
0.0
 11
-16.09093609818364
 21
14.03181278036327
 31
0.0
  0
LINE
  5
57E
330
1F
100
AcDbEntity
  8
SK2
  6
CONTINUOUS
370
25
 62
7
100
AcDbLine
 10
-17.74751078938237
 20
12.79950215787647
 30
0.0
 11
-16.62126618407355
 21
13.92574676318529
 31
0.0
  0
LINE
  5
57F
330
1F
100
AcDbEntity
  8
SK2
  6
CONTINUOUS
370
25
 62
7
100
AcDbLine
 10
-18.10106417997564
 20
12.87021283599513
 30
0.0
 11
-17.15159626996346
 21
13.81968074600731
 31
0.0
  0
LINE
  5
580
330
1F
100
AcDbEntity
  8
SK2
  6
CONTINUOUS
370
25
 62
7
100
AcDbLine
 10
-18.45461757056891
 20
12.94092351411378
 30
0.0
 11
-17.68192635585337
 21
13.71361472882933
 31
0.0
  0
LINE
  5
581
330
1F
100
AcDbEntity
  8
SK2
  6
CONTINUOUS
370
25
 62
7
100
AcDbLine
 10
-18.80817096116219
 20
13.01163419223244
 30
0.0
 11
-18.21225644174328
 21
13.60754871165134
 31
0.0
  0
LINE
  5
582
330
1F
100
AcDbEntity
  8
SK2
  6
CONTINUOUS
370
25
 62
7
100
AcDbLine
 10
-19.16172435175546
 20
13.08234487035109
 30
0.0
 11
-18.74258652763319
 21
13.50148269447336
 31
0.0
  0
LINE
  5
583
330
1F
100
AcDbEntity
  8
SK2
  6
CONTINUOUS
370
25
 62
7
100
AcDbLine
 10
-19.51527774234873
 20
13.15305554846975
 30
0.0
 11
-19.2729166135231
 21
13.39541667729538
 31
0.0
  0
LINE
  5
584
330
1F
100
AcDbEntity
  8
SK2
  6
CONTINUOUS
370
25
 62
7
100
AcDbLine
 10
-19.86883113294201
 20
13.2237662265884
 30
0.0
 11
-19.80324669941301
 21
13.2893506601174
 31
0.0
  0
LINE
  5
585
330
1F
100
AcDbEntity
  8
SK2
  6
CONTINUOUS
370
25
 62
7
100
AcDbLine
 10
-19.95418067633524
 20
13.25916386473295
 30
0.0
 11
-19.93127101450286
 21
13.23625420290057
 31
0.0
  0
LINE
  5
586
330
1F
100
AcDbEntity
  8
SK2
  6
CONTINUOUS
370
25
 62
7
100
AcDbLine
 10
-19.60062728574196
 20
13.32987454285161
 30
0.0
 11
-19.40094092861295
 21
13.13018818572259
 31
0.0
  0
LINE
  5
587
330
1F
100
AcDbEntity
  8
SK2
  6
CONTINUOUS
370
25
 62
7
100
AcDbLine
 10
-19.2470738951487
 20
13.40058522097026
 30
0.0
 11
-18.87061084272304
 21
13.02412216854461
 31
0.0
  0
LINE
  5
588
330
1F
100
AcDbEntity
  8
SK2
  6
CONTINUOUS
370
25
 62
7
100
AcDbLine
 10
-18.89352050455542
 20
13.47129589908891
 30
0.0
 11
-18.34028075683313
 21
12.91805615136663
 31
0.0
  0
LINE
  5
589
330
1F
100
AcDbEntity
  8
SK2
  6
CONTINUOUS
370
25
 62
7
100
AcDbLine
 10
-18.53996711396215
 20
13.54200657720757
 30
0.0
 11
-17.80995067094322
 21
12.81199013418865
 31
0.0
  0
LINE
  5
58A
330
1F
100
AcDbEntity
  8
SK2
  6
CONTINUOUS
370
25
 62
7
100
AcDbLine
 10
-18.18641372336887
 20
13.61271725532622
 30
0.0
 11
-17.27962058505331
 21
12.70592411701066
 31
0.0
  0
LINE
  5
58B
330
1F
100
AcDbEntity
  8
SK2
  6
CONTINUOUS
370
25
 62
7
100
AcDbLine
 10
-17.8328603327756
 20
13.68342793344488
 30
0.0
 11
-16.7492904991634
 21
12.59985809983268
 31
0.0
  0
LINE
  5
58C
330
1F
100
AcDbEntity
  8
SK2
  6
CONTINUOUS
370
25
 62
7
100
AcDbLine
 10
-17.47930694218232
 20
13.75413861156353
 30
0.0
 11
-16.21896041327349
 21
12.4937920826547
 31
0.0
  0
LINE
  5
58D
330
1F
100
AcDbEntity
  8
SK2
  6
CONTINUOUS
370
25
 62
7
100
AcDbLine
 10
-17.12575355158905
 20
13.82484928968219
 30
0.0
 11
-15.68863032738358
 21
12.38772606547672
 31
0.0
  0
LINE
  5
58E
330
1F
100
AcDbEntity
  8
SK2
  6
CONTINUOUS
370
25
 62
7
100
AcDbLine
 10
-16.77220016099578
 20
13.89555996780084
 30
0.0
 11
-15.15830024149367
 21
12.28166004829873
 31
0.0
  0
LINE
  5
58F
330
1F
100
AcDbEntity
  8
SK2
  6
CONTINUOUS
370
25
 62
7
100
AcDbLine
 10
-16.41864677040251
 20
13.9662706459195
 30
0.0
 11
-15.0
 21
12.54762387551699
 31
0.0
  0
LINE
  5
590
330
1F
100
AcDbEntity
  8
SK2
  6
CONTINUOUS
370
25
 62
7
100
AcDbLine
 10
-16.06509337980923
 20
14.03698132403815
 30
0.0
 11
-15.0
 21
12.97188794422892
 31
0.0
  0
LINE
  5
591
330
1F
100
AcDbEntity
  8
SK2
  6
CONTINUOUS
370
25
 62
7
100
AcDbLine
 10
-15.71153998921596
 20
14.10769200215681
 30
0.0
 11
-15.0
 21
13.39615201294085
 31
0.0
  0
LINE
  5
592
330
1F
100
AcDbEntity
  8
SK2
  6
CONTINUOUS
370
25
 62
7
100
AcDbLine
 10
-15.35798659862269
 20
14.17840268027546
 30
0.0
 11
-15.0
 21
13.82041608165278
 31
0.0
  0
LINE
  5
593
330
1F
100
AcDbEntity
  8
SK2
  6
CONTINUOUS
370
25
 62
7
100
AcDbLine
 10
-15.00443320802941
 20
14.24911335839412
 30
0.0
 11
-15.0
 21
14.2446801503647
 31
0.0
  0
LINE
  5
594
330
1F
100
AcDbEntity
  8
SK2
  6
CONTINUOUS
370
25
 62
7
100
AcDbLine
 10
0.0
 20
13.25
 30
0.0
 11
-5.0
 21
12.25
 31
0.0
  0
LINE
  5
595
330
1F
100
AcDbEntity
  8
SK2
  6
CONTINUOUS
370
25
 62
7
100
AcDbLine
 10
-5.0
 20
12.25
 30
0.0
 11
-5.0
 21
14.25
 31
0.0
  0
LINE
  5
596
330
1F
100
AcDbEntity
  8
SK2
  6
CONTINUOUS
370
25
 62
7
100
AcDbLine
 10
-5.0
 20
14.25
 30
0.0
 11
0.0
 21
13.25
 31
0.0
  0
LINE
  5
597
330
1F
100
AcDbEntity
  8
SK2
  6
CONTINUOUS
370
25
 62
7
100
AcDbLine
 10
-0.4080627484771381
 20
13.16838745030457
 30
0.0
 11
-0.2720418323180921
 21
13.30440836646362
 31
0.0
  0
LINE
  5
598
330
1F
100
AcDbEntity
  8
SK2
  6
CONTINUOUS
370
25
 62
7
100
AcDbLine
 10
-0.9383928343670475
 20
13.06232143312659
 30
0.0
 11
-0.625595222911365
 21
13.37511904458227
 31
0.0
  0
LINE
  5
599
330
1F
100
AcDbEntity
  8
SK2
  6
CONTINUOUS
370
25
 62
7
100
AcDbLine
 10
-1.468722920256957
 20
12.95625541594861
 30
0.0
 11
-0.9791486135046381
 21
13.44582972270093
 31
0.0
  0
LINE
  5
59A
330
1F
100
AcDbEntity
  8
SK2
  6
CONTINUOUS
370
25
 62
7
100
AcDbLine
 10
-1.999053006146868
 20
12.85018939877063
 30
0.0
 11
-1.332702004097912
 21
13.51654040081958
 31
0.0
  0
LINE
  5
59B
330
1F
100
AcDbEntity
  8
SK2
  6
CONTINUOUS
370
25
 62
7
100
AcDbLine
 10
-2.529383092036777
 20
12.74412338159264
 30
0.0
 11
-1.686255394691185
 21
13.58725107893824
 31
0.0
  0
LINE
  5
59C
330
1F
100
AcDbEntity
  8
SK2
  6
CONTINUOUS
370
25
 62
7
100
AcDbLine
 10
-3.059713177926689
 20
12.63805736441466
 30
0.0
 11
-2.03980878528446
 21
13.65796175705689
 31
0.0
  0
LINE
  5
59D
330
1F
100
AcDbEntity
  8
SK2
  6
CONTINUOUS
370
25
 62
7
100
AcDbLine
 10
-3.590043263816597
 20
12.53199134723668
 30
0.0
 11
-2.393362175877732
 21
13.72867243517555
 31
0.0
  0
LINE
  5
59E
330
1F
100
AcDbEntity
  8
SK2
  6
CONTINUOUS
370
25
 62
7
100
AcDbLine
 10
-4.120373349706506
 20
12.4259253300587
 30
0.0
 11
-2.746915566471005
 21
13.7993831132942
 31
0.0
  0
LINE
  5
59F
330
1F
100
AcDbEntity
  8
SK2
  6
CONTINUOUS
370
25
 62
7
100
AcDbLine
 10
-4.650703435596415
 20
12.31985931288072
 30
0.0
 11
-3.100468957064278
 21
13.87009379141286
 31
0.0
  0
LINE
  5
5A0
330
1F
100
AcDbEntity
  8
SK2
  6
CONTINUOUS
370
25
 62
7
100
AcDbLine
 10
-5.0
 20
12.39482681718906
 30
0.0
 11
-3.454022347657551
 21
13.94080446953151
 31
0.0
  0
LINE
  5
5A1
330
1F
100
AcDbEntity
  8
SK2
  6
CONTINUOUS
370
25
 62
7
100
AcDbLine
 10
-5.0
 20
12.81909088590099
 30
0.0
 11
-3.807575738250824
 21
14.01151514765017
 31
0.0
  0
LINE
  5
5A2
330
1F
100
AcDbEntity
  8
SK2
  6
CONTINUOUS
370
25
 62
7
100
AcDbLine
 10
-5.0
 20
13.24335495461292
 30
0.0
 11
-4.161129128844097
 21
14.08222582576882
 31
0.0
  0
LINE
  5
5A3
330
1F
100
AcDbEntity
  8
SK2
  6
CONTINUOUS
370
25
 62
7
100
AcDbLine
 10
-5.0
 20
13.66761902332484
 30
0.0
 11
-4.514682519437369
 21
14.15293650388747
 31
0.0
  0
LINE
  5
5A4
330
1F
100
AcDbEntity
  8
SK2
  6
CONTINUOUS
370
25
 62
7
100
AcDbLine
 10
-5.0
 20
14.09188309203677
 30
0.0
 11
-4.868235910030642
 21
14.22364718200613
 31
0.0
  0
LINE
  5
5A5
330
1F
100
AcDbEntity
  8
SK2
  6
CONTINUOUS
370
25
 62
7
100
AcDbLine
 10
-5.0
 20
12.63675323681471
 30
0.0
 11
-4.677705635987738
 21
12.31445887280245
 31
0.0
  0
LINE
  5
5A6
330
1F
100
AcDbEntity
  8
SK2
  6
CONTINUOUS
370
25
 62
7
100
AcDbLine
 10
-5.0
 20
13.06101730552664
 30
0.0
 11
-4.324152245394466
 21
12.38516955092111
 31
0.0
  0
LINE
  5
5A7
330
1F
100
AcDbEntity
  8
SK2
  6
CONTINUOUS
370
25
 62
7
100
AcDbLine
 10
-5.0
 20
13.48528137423857
 30
0.0
 11
-3.970598854801193
 21
12.45588022903976
 31
0.0
  0
LINE
  5
5A8
330
1F
100
AcDbEntity
  8
SK2
  6
CONTINUOUS
370
25
 62
7
100
AcDbLine
 10
-5.0
 20
13.9095454429505
 30
0.0
 11
-3.617045464207918
 21
12.52659090715842
 31
0.0
  0
LINE
  5
5A9
330
1F
100
AcDbEntity
  8
SK2
  6
CONTINUOUS
370
25
 62
7
100
AcDbLine
 10
-4.895238110421971
 20
14.22904762208439
 30
0.0
 11
-3.263492073614644
 21
12.59730158527707
 31
0.0
  0
LINE
  5
5AA
330
1F
100
AcDbEntity
  8
SK2
  6
CONTINUOUS
370
25
 62
7
100
AcDbLine
 10
-4.36490802453206
 20
14.12298160490641
 30
0.0
 11
-2.90993868302137
 21
12.66801226339573
 31
0.0
  0
LINE
  5
5AB
330
1F
100
AcDbEntity
  8
SK2
  6
CONTINUOUS
370
25
 62
7
100
AcDbLine
 10
-3.834577938642149
 20
14.01691558772843
 30
0.0
 11
-2.556385292428097
 21
12.73872294151438
 31
0.0
  0
LINE
  5
5AC
330
1F
100
AcDbEntity
  8
SK2
  6
CONTINUOUS
370
25
 62
7
100
AcDbLine
 10
-3.304247852752238
 20
13.91084957055045
 30
0.0
 11
-2.202831901834823
 21
12.80943361963303
 31
0.0
  0
LINE
  5
5AD
330
1F
100
AcDbEntity
  8
SK2
  6
CONTINUOUS
370
25
 62
7
100
AcDbLine
 10
-2.773917766862327
 20
13.80478355337247
 30
0.0
 11
-1.84927851124155
 21
12.88014429775169
 31
0.0
  0
LINE
  5
5AE
330
1F
100
AcDbEntity
  8
SK2
  6
CONTINUOUS
370
25
 62
7
100
AcDbLine
 10
-2.243587680972416
 20
13.69871753619448
 30
0.0
 11
-1.495725120648276
 21
12.95085497587034
 31
0.0
  0
LINE
  5
5AF
330
1F
100
AcDbEntity
  8
SK2
  6
CONTINUOUS
370
25
 62
7
100
AcDbLine
 10
-1.713257595082505
 20
13.5926515190165
 30
0.0
 11
-1.142171730055002
 21
13.021565653989
 31
0.0
  0
LINE
  5
5B0
330
1F
100
AcDbEntity
  8
SK2
  6
CONTINUOUS
370
25
 62
7
100
AcDbLine
 10
-1.182927509192594
 20
13.48658550183852
 30
0.0
 11
-0.7886183394617285
 21
13.09227633210765
 31
0.0
  0
LINE
  5
5B1
330
1F
100
AcDbEntity
  8
SK2
  6
CONTINUOUS
370
25
 62
7
100
AcDbLine
 10
-0.6525974233026852
 20
13.38051948466054
 30
0.0
 11
-0.4350649488684563
 21
13.16298701022631
 31
0.0
  0
LINE
  5
5B2
330
1F
100
AcDbEntity
  8
SK2
  6
CONTINUOUS
370
25
 62
7
100
AcDbLine
 10
-0.122267337412774
 20
13.27445346748256
 30
0.0
 11
-0.0815115582751826
 21
13.23369768834496
 31
0.0
  0
TEXT
  5
5B3
330
1F
100
AcDbEntity
  8
SK2
  6
CONTINUOUS
370
25
 62
7
100
AcDbText
 10
-12.625
 20
14.75
 30
0.0
 40
3.5
  1
20
 72
     1
 11
-10.0
 21
14.75
 31
0.0
100
AcDbText
  0
LINE
  5
5B4
330
1F
100
AcDbEntity
  8
SK2
  6
CONTINUOUS
370
25
 62
7
100
AcDbLine
 10
-32.0000002
 20
-1.250001
 30
0.0
 11
-33.00000000000006
 21
-1.250001
 31
0.0
  0
LINE
  5
5B5
330
1F
100
AcDbEntity
  8
SK2
  6
CONTINUOUS
370
25
 62
7
100
AcDbLine
 10
-15.0
 20
-1.250001
 30
0.0
 11
-31.9999998
 21
-1.250001
 31
0.0
  0
LINE
  5
5B6
330
1F
100
AcDbEntity
  8
SK2
  6
CONTINUOUS
370
25
 62
7
100
AcDbLine
 10
-33.0
 20
1.25
 30
0.0
 11
-15.0
 21
1.25
 31
0.0
  0
LINE
  5
5B7
330
1F
100
AcDbEntity
  8
SK2
  6
CONTINUOUS
370
25
 62
7
100
AcDbLine
 10
-32.0
 20
-8.25
 30
0.0
 11
-32.0
 21
20.675
 31
0.0
  0
LINE
  5
5B8
330
1F
100
AcDbEntity
  8
SK2
  6
CONTINUOUS
370
25
 62
7
100
AcDbLine
 10
-32.0
 20
-1.25
 30
0.0
 11
-31.0
 21
-6.25
 31
0.0
  0
LINE
  5
5B9
330
1F
100
AcDbEntity
  8
SK2
  6
CONTINUOUS
370
25
 62
7
100
AcDbLine
 10
-31.0
 20
-6.25
 30
0.0
 11
-33.0
 21
-6.25
 31
0.0
  0
LINE
  5
5BA
330
1F
100
AcDbEntity
  8
SK2
  6
CONTINUOUS
370
25
 62
7
100
AcDbLine
 10
-33.0
 20
-6.25
 30
0.0
 11
-32.0
 21
-1.25
 31
0.0
  0
LINE
  5
5BB
330
1F
100
AcDbEntity
  8
SK2
  6
CONTINUOUS
370
25
 62
7
100
AcDbLine
 10
-31.28158005400374
 20
-6.25
 30
0.0
 11
-31.04693000900062
 21
-6.015349954996879
 31
0.0
  0
LINE
  5
5BC
330
1F
100
AcDbEntity
  8
SK2
  6
CONTINUOUS
370
25
 62
7
100
AcDbLine
 10
-31.70584412271567
 20
-6.25
 30
0.0
 11
-31.11764068711928
 21
-5.661796564403605
 31
0.0
  0
LINE
  5
5BD
330
1F
100
AcDbEntity
  8
SK2
  6
CONTINUOUS
370
25
 62
7
100
AcDbLine
 10
-32.13010819142761
 20
-6.250000000000004
 30
0.0
 11
-31.18835136523793
 21
-5.308243173810329
 31
0.0
  0
LINE
  5
5BE
330
1F
100
AcDbEntity
  8
SK2
  6
CONTINUOUS
370
25
 62
7
100
AcDbLine
 10
-32.55437226013954
 20
-6.25
 30
0.0
 11
-31.25906204335659
 21
-4.954689783217059
 31
0.0
  0
LINE
  5
5BF
330
1F
100
AcDbEntity
  8
SK2
  6
CONTINUOUS
370
25
 62
7
100
AcDbLine
 10
-32.97863632885146
 20
-6.249999999999996
 30
0.0
 11
-31.32977272147524
 21
-4.601136392623783
 31
0.0
  0
LINE
  5
5C0
330
1F
100
AcDbEntity
  8
SK2
  6
CONTINUOUS
370
25
 62
7
100
AcDbLine
 10
-32.89927490060915
 20
-5.746374503045757
 30
0.0
 11
-31.4004833995939
 21
-4.24758300203051
 31
0.0
  0
LINE
  5
5C1
330
1F
100
AcDbEntity
  8
SK2
  6
CONTINUOUS
370
25
 62
7
100
AcDbLine
 10
-32.79320888343117
 20
-5.216044417155846
 30
0.0
 11
-31.47119407771255
 21
-3.894029611437237
 31
0.0
  0
LINE
  5
5C2
330
1F
100
AcDbEntity
  8
SK2
  6
CONTINUOUS
370
25
 62
7
100
AcDbLine
 10
-32.68714286625319
 20
-4.685714331265935
 30
0.0
 11
-31.54190475583121
 21
-3.54047622084396
 31
0.0
  0
LINE
  5
5C3
330
1F
100
AcDbEntity
  8
SK2
  6
CONTINUOUS
370
25
 62
7
100
AcDbLine
 10
-32.5810768490752
 20
-4.155384245376023
 30
0.0
 11
-31.61261543394987
 21
-3.186922830250687
 31
0.0
  0
LINE
  5
5C4
330
1F
100
AcDbEntity
  8
SK2
  6
CONTINUOUS
370
25
 62
7
100
AcDbLine
 10
-32.47501083189722
 20
-3.625054159486112
 30
0.0
 11
-31.68332611206852
 21
-2.833369439657407
 31
0.0
  0
LINE
  5
5C5
330
1F
100
AcDbEntity
  8
SK2
  6
CONTINUOUS
370
25
 62
7
100
AcDbLine
 10
-32.36894481471924
 20
-3.0947240735962
 30
0.0
 11
-31.75403679018717
 21
-2.479816049064134
 31
0.0
  0
LINE
  5
5C6
330
1F
100
AcDbEntity
  8
SK2
  6
CONTINUOUS
370
25
 62
7
100
AcDbLine
 10
-32.26287879754125
 20
-2.564393987706282
 30
0.0
 11
-31.82474746830583
 21
-2.126262658470861
 31
0.0
  0
LINE
  5
5C7
330
1F
100
AcDbEntity
  8
SK2
  6
CONTINUOUS
370
25
 62
7
100
AcDbLine
 10
-32.15681278036327
 20
-2.034063901816378
 30
0.0
 11
-31.89545814642448
 21
-1.772709267877588
 31
0.0
  0
LINE
  5
5C8
330
1F
100
AcDbEntity
  8
SK2
  6
CONTINUOUS
370
25
 62
7
100
AcDbLine
 10
-32.0507467631853
 20
-1.503733815926481
 30
0.0
 11
-31.96616882454313
 21
-1.419155877284311
 31
0.0
  0
LINE
  5
5C9
330
1F
100
AcDbEntity
  8
SK2
  6
CONTINUOUS
370
25
 62
7
100
AcDbLine
 10
-32.98300064405725
 20
-6.165003220286238
 30
0.0
 11
-32.89800386434349
 21
-6.25
 31
0.0
  0
LINE
  5
5CA
330
1F
100
AcDbEntity
  8
SK2
  6
CONTINUOUS
370
25
 62
7
100
AcDbLine
 10
-32.91228996593859
 20
-5.811449829692961
 30
0.0
 11
-32.47373979563155
 21
-6.25
 31
0.0
  0
LINE
  5
5CB
330
1F
100
AcDbEntity
  8
SK2
  6
CONTINUOUS
370
25
 62
7
100
AcDbLine
 10
-32.84157928781994
 20
-5.457896439099677
 30
0.0
 11
-32.04947572691962
 21
-6.25
 31
0.0
  0
LINE
  5
5CC
330
1F
100
AcDbEntity
  8
SK2
  6
CONTINUOUS
370
25
 62
7
100
AcDbLine
 10
-32.77086860970128
 20
-5.104343048506415
 30
0.0
 11
-31.6252116582077
 21
-6.25
 31
0.0
  0
LINE
  5
5CD
330
1F
100
AcDbEntity
  8
SK2
  6
CONTINUOUS
370
25
 62
7
100
AcDbLine
 10
-32.70015793158262
 20
-4.750789657913138
 30
0.0
 11
-31.20094758949576
 21
-6.25
 31
0.0
  0
LINE
  5
5CE
330
1F
100
AcDbEntity
  8
SK2
  6
CONTINUOUS
370
25
 62
7
100
AcDbLine
 10
-32.62944725346397
 20
-4.397236267319862
 30
0.0
 11
-31.05582911980404
 21
-5.970854400979793
 31
0.0
  0
LINE
  5
5CF
330
1F
100
AcDbEntity
  8
SK2
  6
CONTINUOUS
370
25
 62
7
100
AcDbLine
 10
-32.55873657534532
 20
-4.043682876726585
 30
0.0
 11
-31.16189513698202
 21
-5.440524315089888
 31
0.0
  0
LINE
  5
5D0
330
1F
100
AcDbEntity
  8
SK2
  6
CONTINUOUS
370
25
 62
7
100
AcDbLine
 10
-32.48802589722666
 20
-3.690129486133316
 30
0.0
 11
-31.26796115416001
 21
-4.910194229199977
 31
0.0
  0
LINE
  5
5D1
330
1F
100
AcDbEntity
  8
SK2
  6
CONTINUOUS
370
25
 62
7
100
AcDbLine
 10
-32.417315219108
 20
-3.336576095540039
 30
0.0
 11
-31.37402717133799
 21
-4.379864143310058
 31
0.0
  0
LINE
  5
5D2
330
1F
100
AcDbEntity
  8
SK2
  6
CONTINUOUS
370
25
 62
7
100
AcDbLine
 10
-32.34660454098935
 20
-2.983022704946755
 30
0.0
 11
-31.48009318851597
 21
-3.84953405742014
 31
0.0
  0
LINE
  5
5D3
330
1F
100
AcDbEntity
  8
SK2
  6
CONTINUOUS
370
25
 62
7
100
AcDbLine
 10
-32.2758938628707
 20
-2.629469314353486
 30
0.0
 11
-31.58615920569395
 21
-3.319203971530229
 31
0.0
  0
LINE
  5
5D4
330
1F
100
AcDbEntity
  8
SK2
  6
CONTINUOUS
370
25
 62
7
100
AcDbLine
 10
-32.20518318475204
 20
-2.275915923760209
 30
0.0
 11
-31.69222522287194
 21
-2.788873885640307
 31
0.0
  0
LINE
  5
5D5
330
1F
100
AcDbEntity
  8
SK2
  6
CONTINUOUS
370
25
 62
7
100
AcDbLine
 10
-32.13447250663339
 20
-1.922362533166933
 30
0.0
 11
-31.79829124004992
 21
-2.258543799750399
 31
0.0
  0
LINE
  5
5D6
330
1F
100
AcDbEntity
  8
SK2
  6
CONTINUOUS
370
25
 62
7
100
AcDbLine
 10
-32.06376182851474
 20
-1.568809142573656
 30
0.0
 11
-31.9043572572279
 21
-1.728213713860487
 31
0.0
  0
LINE
  5
5D7
330
1F
100
AcDbEntity
  8
SK2
  6
CONTINUOUS
370
25
 62
7
100
AcDbLine
 10
-32.0
 20
1.25
 30
0.0
 11
-33.0
 21
6.25
 31
0.0
  0
LINE
  5
5D8
330
1F
100
AcDbEntity
  8
SK2
  6
CONTINUOUS
370
25
 62
7
100
AcDbLine
 10
-33.0
 20
6.25
 30
0.0
 11
-31.0
 21
6.25
 31
0.0
  0
LINE
  5
5D9
330
1F
100
AcDbEntity
  8
SK2
  6
CONTINUOUS
370
25
 62
7
100
AcDbLine
 10
-31.0
 20
6.25
 30
0.0
 11
-32.0
 21
1.25
 31
0.0
  0
LINE
  5
5DA
330
1F
100
AcDbEntity
  8
SK2
  6
CONTINUOUS
370
25
 62
7
100
AcDbLine
 10
-32.04447690470706
 20
1.472384523535275
 30
0.0
 11
-31.93328464293941
 21
1.583576785302924
 31
0.0
  0
LINE
  5
5DB
330
1F
100
AcDbEntity
  8
SK2
  6
CONTINUOUS
370
25
 62
7
100
AcDbLine
 10
-32.11518758282571
 20
1.825937914128566
 30
0.0
 11
-31.82721862576143
 21
2.113906871192842
 31
0.0
  0
LINE
  5
5DC
330
1F
100
AcDbEntity
  8
SK2
  6
CONTINUOUS
370
25
 62
7
100
AcDbLine
 10
-32.18589826094436
 20
2.179491304721836
 30
0.0
 11
-31.72115260858345
 21
2.644236957082743
 31
0.0
  0
LINE
  5
5DD
330
1F
100
AcDbEntity
  8
SK2
  6
CONTINUOUS
370
25
 62
7
100
AcDbLine
 10
-32.25660893906302
 20
2.533044695315112
 30
0.0
 11
-31.61508659140546
 21
3.174567042972669
 31
0.0
  0
LINE
  5
5DE
330
1F
100
AcDbEntity
  8
SK2
  6
CONTINUOUS
370
25
 62
7
100
AcDbLine
 10
-32.32731961718168
 20
2.886598085908375
 30
0.0
 11
-31.50902057422749
 21
3.704897128862562
 31
0.0
  0
LINE
  5
5DF
330
1F
100
AcDbEntity
  8
SK2
  6
CONTINUOUS
370
25
 62
7
100
AcDbLine
 10
-32.39803029530033
 20
3.240151476501659
 30
0.0
 11
-31.4029545570495
 21
4.235227214752477
 31
0.0
  0
LINE
  5
5E0
330
1F
100
AcDbEntity
  8
SK2
  6
CONTINUOUS
370
25
 62
7
100
AcDbLine
 10
-32.46874097341898
 20
3.593704867094928
 30
0.0
 11
-31.29688853987152
 21
4.765557300642381
 31
0.0
  0
LINE
  5
5E1
330
1F
100
AcDbEntity
  8
SK2
  6
CONTINUOUS
370
25
 62
7
100
AcDbLine
 10
-32.53945165153764
 20
3.947258257688205
 30
0.0
 11
-31.19082252269354
 21
5.295887386532304
 31
0.0
  0
LINE
  5
5E2
330
1F
100
AcDbEntity
  8
SK2
  6
CONTINUOUS
370
25
 62
7
100
AcDbLine
 10
-32.6101623296563
 20
4.300811648281481
 30
0.0
 11
-31.08475650551556
 21
5.826217472422211
 31
0.0
  0
LINE
  5
5E3
330
1F
100
AcDbEntity
  8
SK2
  6
CONTINUOUS
370
25
 62
7
100
AcDbLine
 10
-32.68087300777495
 20
4.654365038874758
 30
0.0
 11
-31.08523804664969
 21
6.25
 31
0.0
  0
LINE
  5
5E4
330
1F
100
AcDbEntity
  8
SK2
  6
CONTINUOUS
370
25
 62
7
100
AcDbLine
 10
-32.7515836858936
 20
5.007918429468035
 30
0.0
 11
-31.50950211536162
 21
6.25
 31
0.0
  0
LINE
  5
5E5
330
1F
100
AcDbEntity
  8
SK2
  6
CONTINUOUS
370
25
 62
7
100
AcDbLine
 10
-32.82229436401226
 20
5.361471820061297
 30
0.0
 11
-31.93376618407355
 21
6.25
 31
0.0
  0
LINE
  5
5E6
330
1F
100
AcDbEntity
  8
SK2
  6
CONTINUOUS
370
25
 62
7
100
AcDbLine
 10
-32.89300504213092
 20
5.715025210654581
 30
0.0
 11
-32.35803025278549
 21
6.25
 31
0.0
  0
LINE
  5
5E7
330
1F
100
AcDbEntity
  8
SK2
  6
CONTINUOUS
370
25
 62
7
100
AcDbLine
 10
-32.96371572024957
 20
6.068578601247843
 30
0.0
 11
-32.78229432149741
 21
6.25
 31
0.0
  0
LINE
  5
5E8
330
1F
100
AcDbEntity
  8
SK2
  6
CONTINUOUS
370
25
 62
7
100
AcDbLine
 10
-32.0595087762444
 20
1.547543881221991
 30
0.0
 11
-31.96032748250373
 21
1.448362587481324
 31
0.0
  0
LINE
  5
5E9
330
1F
100
AcDbEntity
  8
SK2
  6
CONTINUOUS
370
25
 62
7
100
AcDbLine
 10
-32.16557479342239
 20
2.077873967111909
 30
0.0
 11
-31.88961680438507
 21
1.801915978074597
 31
0.0
  0
LINE
  5
5EA
330
1F
100
AcDbEntity
  8
SK2
  6
CONTINUOUS
370
25
 62
7
100
AcDbLine
 10
-32.27164081060036
 20
2.608204053001813
 30
0.0
 11
-31.81890612626643
 21
2.15546936866788
 31
0.0
  0
LINE
  5
5EB
330
1F
100
AcDbEntity
  8
SK2
  6
CONTINUOUS
370
25
 62
7
100
AcDbLine
 10
-32.37770682777835
 20
3.138534138891728
 30
0.0
 11
-31.74819544814777
 21
2.509022759261153
 31
0.0
  0
LINE
  5
5EC
330
1F
100
AcDbEntity
  8
SK2
  6
CONTINUOUS
370
25
 62
7
100
AcDbLine
 10
-32.48377284495633
 20
3.66886422478164
 30
0.0
 11
-31.67748477002911
 21
2.862576149854426
 31
0.0
  0
LINE
  5
5ED
330
1F
100
AcDbEntity
  8
SK2
  6
CONTINUOUS
370
25
 62
7
100
AcDbLine
 10
-32.58983886213431
 20
4.199194310671551
 30
0.0
 11
-31.60677409191046
 21
3.216129540447707
 31
0.0
  0
LINE
  5
5EE
330
1F
100
AcDbEntity
  8
SK2
  6
CONTINUOUS
370
25
 62
7
100
AcDbLine
 10
-32.69590487931229
 20
4.72952439656147
 30
0.0
 11
-31.5360634137918
 21
3.56968293104098
 31
0.0
  0
LINE
  5
5EF
330
1F
100
AcDbEntity
  8
SK2
  6
CONTINUOUS
370
25
 62
7
100
AcDbLine
 10
-32.80197089649027
 20
5.259854482451381
 30
0.0
 11
-31.46535273567315
 21
3.923236321634253
 31
0.0
  0
LINE
  5
5F0
330
1F
100
AcDbEntity
  8
SK2
  6
CONTINUOUS
370
25
 62
7
100
AcDbLine
 10
-32.90803691366825
 20
5.790184568341292
 30
0.0
 11
-31.3946420575545
 21
4.276789712227529
 31
0.0
  0
LINE
  5
5F1
330
1F
100
AcDbEntity
  8
SK2
  6
CONTINUOUS
370
25
 62
7
100
AcDbLine
 10
-32.94358827661502
 20
6.25
 30
0.0
 11
-31.32393137943584
 21
4.630343102820802
 31
0.0
  0
LINE
  5
5F2
330
1F
100
AcDbEntity
  8
SK2
  6
CONTINUOUS
370
25
 62
7
100
AcDbLine
 10
-32.5193242079031
 20
6.250000000000004
 30
0.0
 11
-31.25322070131719
 21
4.983896493414083
 31
0.0
  0
LINE
  5
5F3
330
1F
100
AcDbEntity
  8
SK2
  6
CONTINUOUS
370
25
 62
7
100
AcDbLine
 10
-32.09506013919117
 20
6.25
 30
0.0
 11
-31.18251002319853
 21
5.337449884007356
 31
0.0
  0
LINE
  5
5F4
330
1F
100
AcDbEntity
  8
SK2
  6
CONTINUOUS
370
25
 62
7
100
AcDbLine
 10
-31.67079607047924
 20
6.25
 30
0.0
 11
-31.11179934507987
 21
5.691003274600632
 31
0.0
  0
LINE
  5
5F5
330
1F
100
AcDbEntity
  8
SK2
  6
CONTINUOUS
370
25
 62
7
100
AcDbLine
 10
-31.24653200176731
 20
6.25
 30
0.0
 11
-31.04108866696122
 21
6.044556665193912
 31
0.0
  0
TEXT
  5
5F6
330
1F
100
AcDbEntity
  8
SK2
  6
CONTINUOUS
370
25
 62
7
100
AcDbText
 10
-33.5
 20
12.2375
 30
0.0
 40
3.5
  1
2.5
 50
90.00000000000001
 72
     1
 11
-33.5
 21
15.7375
 31
0.0
100
AcDbText
  0
CIRCLE
  5
5F7
330
1F
100
AcDbEntity
  8
SK2
  6
CONTINUOUS
370
25
 62
7
100
AcDbCircle
 10
-35.25
 20
9.262499999999998
 30
0.0
 40
1.4
  0
LINE
  5
5F8
330
1F
100
AcDbEntity
  8
SK2
  6
CONTINUOUS
370
25
 62
7
100
AcDbLine
 10
-33.85
 20
7.862499999999998
 30
0.0
 11
-36.65
 21
10.6625
 31
0.0
  0
LINE
  5
5F9
330
1F
100
AcDbEntity
  8
2
  6
CONTINUOUS
370
25
 62
7
100
AcDbLine
 10
0.0
 20
-1.25
 30
0.0
 11
-0.0000000000000008
 21
-14.25
 31
0.0
  0
LINE
  5
5FA
330
1F
100
AcDbEntity
  8
2
  6
CONTINUOUS
370
25
 62
7
100
AcDbLine
 10
5.999999999999999
 20
-14.25
 30
0.0
 11
6.0
 21
-1.25
 31
0.0
  0
LINE
  5
5FB
330
1F
100
AcDbEntity
  8
2
  6
CONTINUOUS
370
25
 62
7
100
AcDbLine
 10
-7.0
 20
-13.25
 30
0.0
 11
13.0
 21
-13.25
 31
0.0
  0
LINE
  5
5FC
330
1F
100
AcDbEntity
  8
2
  6
CONTINUOUS
370
25
 62
7
100
AcDbLine
 10
0.0
 20
-13.25
 30
0.0
 11
-5.0
 21
-14.25
 31
0.0
  0
LINE
  5
5FD
330
1F
100
AcDbEntity
  8
2
  6
CONTINUOUS
370
25
 62
7
100
AcDbLine
 10
-5.0
 20
-14.25
 30
0.0
 11
-5.0
 21
-12.25
 31
0.0
  0
LINE
  5
5FE
330
1F
100
AcDbEntity
  8
2
  6
CONTINUOUS
370
25
 62
7
100
AcDbLine
 10
-5.0
 20
-12.25
 30
0.0
 11
0.0
 21
-13.25
 31
0.0
  0
LINE
  5
5FF
330
1F
100
AcDbEntity
  8
2
  6
CONTINUOUS
370
25
 62
7
100
AcDbLine
 10
-0.4290103597356622
 20
-13.33580207194713
 30
0.0
 11
-0.2860069064904414
 21
-13.19279861870191
 31
0.0
  0
LINE
  5
600
330
1F
100
AcDbEntity
  8
2
  6
CONTINUOUS
370
25
 62
7
100
AcDbLine
 10
-0.9593404456255719
 20
-13.44186808912511
 30
0.0
 11
-0.6395602970837145
 21
-13.12208794058326
 31
0.0
  0
LINE
  5
601
330
1F
100
AcDbEntity
  8
2
  6
CONTINUOUS
370
25
 62
7
100
AcDbLine
 10
-1.489670531515481
 20
-13.5479341063031
 30
0.0
 11
-0.9931136876769877
 21
-13.0513772624646
 31
0.0
  0
LINE
  5
602
330
1F
100
AcDbEntity
  8
2
  6
CONTINUOUS
370
25
 62
7
100
AcDbLine
 10
-2.020000617405393
 20
-13.65400012348108
 30
0.0
 11
-1.346667078270262
 21
-12.98066658434595
 31
0.0
  0
LINE
  5
603
330
1F
100
AcDbEntity
  8
2
  6
CONTINUOUS
370
25
 62
7
100
AcDbLine
 10
-2.550330703295303
 20
-13.76006614065906
 30
0.0
 11
-1.700220468863535
 21
-12.90995590622729
 31
0.0
  0
LINE
  5
604
330
1F
100
AcDbEntity
  8
2
  6
CONTINUOUS
370
25
 62
7
100
AcDbLine
 10
-3.080660789185212
 20
-13.86613215783704
 30
0.0
 11
-2.053773859456808
 21
-12.83924522810864
 31
0.0
  0
LINE
  5
605
330
1F
100
AcDbEntity
  8
2
  6
CONTINUOUS
370
25
 62
7
100
AcDbLine
 10
-3.610990875075123
 20
-13.97219817501502
 30
0.0
 11
-2.407327250050082
 21
-12.76853454998998
 31
0.0
  0
LINE
  5
606
330
1F
100
AcDbEntity
  8
2
  6
CONTINUOUS
370
25
 62
7
100
AcDbLine
 10
-4.141320960965032
 20
-14.07826419219301
 30
0.0
 11
-2.760880640643355
 21
-12.69782387187133
 31
0.0
  0
LINE
  5
607
330
1F
100
AcDbEntity
  8
2
  6
CONTINUOUS
370
25
 62
7
100
AcDbLine
 10
-4.671651046854942
 20
-14.18433020937099
 30
0.0
 11
-3.114434031236629
 21
-12.62711319375267
 31
0.0
  0
LINE
  5
608
330
1F
100
AcDbEntity
  8
2
  6
CONTINUOUS
370
25
 62
7
100
AcDbLine
 10
-5.0
 20
-14.08841509380412
 30
0.0
 11
-3.467987421829902
 21
-12.55640251563402
 31
0.0
  0
LINE
  5
609
330
1F
100
AcDbEntity
  8
2
  6
CONTINUOUS
370
25
 62
7
100
AcDbLine
 10
-5.0
 20
-13.66415102509219
 30
0.0
 11
-3.821540812423174
 21
-12.48569183751536
 31
0.0
  0
LINE
  5
60A
330
1F
100
AcDbEntity
  8
2
  6
CONTINUOUS
370
25
 62
7
100
AcDbLine
 10
-5.0
 20
-13.23988695638026
 30
0.0
 11
-4.175094203016448
 21
-12.41498115939671
 31
0.0
  0
LINE
  5
60B
330
1F
100
AcDbEntity
  8
2
  6
CONTINUOUS
370
25
 62
7
100
AcDbLine
 10
-5.0
 20
-12.81562288766833
 30
0.0
 11
-4.528647593609721
 21
-12.34427048127806
 31
0.0
  0
LINE
  5
60C
330
1F
100
AcDbEntity
  8
2
  6
CONTINUOUS
370
25
 62
7
100
AcDbLine
 10
-5.0
 20
-12.39135881895641
 30
0.0
 11
-4.882200984202994
 21
-12.2735598031594
 31
0.0
  0
LINE
  5
60D
330
1F
100
AcDbEntity
  8
2
  6
CONTINUOUS
370
25
 62
7
100
AcDbLine
 10
-5.0
 20
-14.08841509380411
 30
0.0
 11
-4.865345911503429
 21
-14.22306918230069
 31
0.0
  0
LINE
  5
60E
330
1F
100
AcDbEntity
  8
2
  6
CONTINUOUS
370
25
 62
7
100
AcDbLine
 10
-5.0
 20
-13.66415102509219
 30
0.0
 11
-4.511792520910156
 21
-14.15235850418203
 31
0.0
  0
LINE
  5
60F
330
1F
100
AcDbEntity
  8
2
  6
CONTINUOUS
370
25
 62
7
100
AcDbLine
 10
-5.0
 20
-13.23988695638026
 30
0.0
 11
-4.158239130316882
 21
-14.08164782606338
 31
0.0
  0
LINE
  5
610
330
1F
100
AcDbEntity
  8
2
  6
CONTINUOUS
370
25
 62
7
100
AcDbLine
 10
-5.0
 20
-12.81562288766833
 30
0.0
 11
-3.804685739723609
 21
-14.01093714794472
 31
0.0
  0
LINE
  5
611
330
1F
100
AcDbEntity
  8
2
  6
CONTINUOUS
370
25
 62
7
100
AcDbLine
 10
-5.0
 20
-12.39135881895641
 30
0.0
 11
-3.451132349130336
 21
-13.94022646982607
 31
0.0
  0
LINE
  5
612
330
1F
100
AcDbEntity
  8
2
  6
CONTINUOUS
370
25
 62
7
100
AcDbLine
 10
-4.646368437805595
 20
-12.32072631243888
 30
0.0
 11
-3.097578958537062
 21
-13.86951579170741
 31
0.0
  0
LINE
  5
613
330
1F
100
AcDbEntity
  8
2
  6
CONTINUOUS
370
25
 62
7
100
AcDbLine
 10
-4.116038351915685
 20
-12.42679232961686
 30
0.0
 11
-2.744025567943789
 21
-13.79880511358876
 31
0.0
  0
LINE
  5
614
330
1F
100
AcDbEntity
  8
2
  6
CONTINUOUS
370
25
 62
7
100
AcDbLine
 10
-3.585708266025775
 20
-12.53285834679485
 30
0.0
 11
-2.390472177350516
 21
-13.7280944354701
 31
0.0
  0
LINE
  5
615
330
1F
100
AcDbEntity
  8
2
  6
CONTINUOUS
370
25
 62
7
100
AcDbLine
 10
-3.055378180135864
 20
-12.63892436397283
 30
0.0
 11
-2.036918786757242
 21
-13.65738375735145
 31
0.0
  0
LINE
  5
616
330
1F
100
AcDbEntity
  8
2
  6
CONTINUOUS
370
25
 62
7
100
AcDbLine
 10
-2.525048094245955
 20
-12.74499038115081
 30
0.0
 11
-1.683365396163969
 21
-13.58667307923279
 31
0.0
  0
LINE
  5
617
330
1F
100
AcDbEntity
  8
2
  6
CONTINUOUS
370
25
 62
7
100
AcDbLine
 10
-1.994718008356044
 20
-12.85105639832879
 30
0.0
 11
-1.329812005570695
 21
-13.51596240111414
 31
0.0
  0
LINE
  5
618
330
1F
100
AcDbEntity
  8
2
  6
CONTINUOUS
370
25
 62
7
100
AcDbLine
 10
-1.464387922466133
 20
-12.95712241550677
 30
0.0
 11
-0.9762586149774216
 21
-13.44525172299548
 31
0.0
  0
LINE
  5
619
330
1F
100
AcDbEntity
  8
2
  6
CONTINUOUS
370
25
 62
7
100
AcDbLine
 10
-0.9340578365762224
 20
-13.06318843268476
 30
0.0
 11
-0.622705224384148
 21
-13.37454104487683
 31
0.0
  0
LINE
  5
61A
330
1F
100
AcDbEntity
  8
2
  6
CONTINUOUS
370
25
 62
7
100
AcDbLine
 10
-0.4037277506863118
 20
-13.16925444986274
 30
0.0
 11
-0.2691518337908744
 21
-13.30383036675818
 31
0.0
  0
LINE
  5
61B
330
1F
100
AcDbEntity
  8
2
  6
CONTINUOUS
370
25
 62
7
100
AcDbLine
 10
5.999999999999999
 20
-13.25
 30
0.0
 11
11.0
 21
-12.25
 31
0.0
  0
LINE
  5
61C
330
1F
100
AcDbEntity
  8
2
  6
CONTINUOUS
370
25
 62
7
100
AcDbLine
 10
11.0
 20
-12.25
 30
0.0
 11
11.0
 21
-14.25
 31
0.0
  0
LINE
  5
61D
330
1F
100
AcDbEntity
  8
2
  6
CONTINUOUS
370
25
 62
7
100
AcDbLine
 10
11.0
 20
-14.25
 30
0.0
 11
5.999999999999999
 21
-13.25
 31
0.0
  0
LINE
  5
61E
330
1F
100
AcDbEntity
  8
2
  6
CONTINUOUS
370
25
 62
7
100
AcDbLine
 10
10.9155984431976
 20
-14.23311968863952
 30
0.0
 11
11.0
 21
-14.14871813183712
 31
0.0
  0
LINE
  5
61F
330
1F
100
AcDbEntity
  8
2
  6
CONTINUOUS
370
25
 62
7
100
AcDbLine
 10
10.56204505260432
 20
-14.16240901052087
 30
0.0
 11
11.0
 21
-13.72445406312519
 31
0.0
  0
LINE
  5
620
330
1F
100
AcDbEntity
  8
2
  6
CONTINUOUS
370
25
 62
7
100
AcDbLine
 10
10.20849166201105
 20
-14.09169833240221
 30
0.0
 11
11.0
 21
-13.30018999441326
 31
0.0
  0
LINE
  5
621
330
1F
100
AcDbEntity
  8
2
  6
CONTINUOUS
370
25
 62
7
100
AcDbLine
 10
9.854938271417778
 20
-14.02098765428356
 30
0.0
 11
11.0
 21
-12.87592592570133
 31
0.0
  0
LINE
  5
622
330
1F
100
AcDbEntity
  8
2
  6
CONTINUOUS
370
25
 62
7
100
AcDbLine
 10
9.501384880824505
 20
-13.9502769761649
 30
0.0
 11
11.0
 21
-12.45166185698941
 31
0.0
  0
LINE
  5
623
330
1F
100
AcDbEntity
  8
2
  6
CONTINUOUS
370
25
 62
7
100
AcDbLine
 10
9.147831490231232
 20
-13.87956629804625
 30
0.0
 11
10.72174723534685
 21
-12.30565055293063
 31
0.0
  0
LINE
  5
624
330
1F
100
AcDbEntity
  8
2
  6
CONTINUOUS
370
25
 62
7
100
AcDbLine
 10
8.794278099637959
 20
-13.80885561992759
 30
0.0
 11
10.19141714945694
 21
-12.41171657010861
 31
0.0
  0
LINE
  5
625
330
1F
100
AcDbEntity
  8
2
  6
CONTINUOUS
370
25
 62
7
100
AcDbLine
 10
8.440724709044686
 20
-13.73814494180894
 30
0.0
 11
9.66108706356703
 21
-12.51778258728659
 31
0.0
  0
LINE
  5
626
330
1F
100
AcDbEntity
  8
2
  6
CONTINUOUS
370
25
 62
7
100
AcDbLine
 10
8.087171318451412
 20
-13.66743426369028
 30
0.0
 11
9.13075697767712
 21
-12.62384860446458
 31
0.0
  0
LINE
  5
627
330
1F
100
AcDbEntity
  8
2
  6
CONTINUOUS
370
25
 62
7
100
AcDbLine
 10
7.733617927858139
 20
-13.59672358557163
 30
0.0
 11
8.60042689178721
 21
-12.72991462164256
 31
0.0
  0
LINE
  5
628
330
1F
100
AcDbEntity
  8
2
  6
CONTINUOUS
370
25
 62
7
100
AcDbLine
 10
7.380064537264865
 20
-13.52601290745297
 30
0.0
 11
8.0700968058973
 21
-12.83598063882054
 31
0.0
  0
LINE
  5
629
330
1F
100
AcDbEntity
  8
2
  6
CONTINUOUS
370
25
 62
7
100
AcDbLine
 10
7.026511146671592
 20
-13.45530222933432
 30
0.0
 11
7.539766720007391
 21
-12.94204665599852
 31
0.0
  0
LINE
  5
62A
330
1F
100
AcDbEntity
  8
2
  6
CONTINUOUS
370
25
 62
7
100
AcDbLine
 10
6.672957756078318
 20
-13.38459155121566
 30
0.0
 11
7.009436634117479
 21
-13.0481126731765
 31
0.0
  0
LINE
  5
62B
330
1F
100
AcDbEntity
  8
2
  6
CONTINUOUS
370
25
 62
7
100
AcDbLine
 10
6.319404365485045
 20
-13.31388087309701
 30
0.0
 11
6.479106548227569
 21
-13.15417869035448
 31
0.0
  0
LINE
  5
62C
330
1F
100
AcDbEntity
  8
2
  6
CONTINUOUS
370
25
 62
7
100
AcDbLine
 10
6.336259438184605
 20
-13.18274811236308
 30
0.0
 11
6.504389157276909
 21
-13.35087783145538
 31
0.0
  0
LINE
  5
62D
330
1F
100
AcDbEntity
  8
2
  6
CONTINUOUS
370
25
 62
7
100
AcDbLine
 10
6.68981282877788
 20
-13.11203743424442
 30
0.0
 11
7.03471924316682
 21
-13.45694384863337
 31
0.0
  0
LINE
  5
62E
330
1F
100
AcDbEntity
  8
2
  6
CONTINUOUS
370
25
 62
7
100
AcDbLine
 10
7.043366219371153
 20
-13.04132675612577
 30
0.0
 11
7.56504932905673
 21
-13.56300986581135
 31
0.0
  0
LINE
  5
62F
330
1F
100
AcDbEntity
  8
2
  6
CONTINUOUS
370
25
 62
7
100
AcDbLine
 10
7.396919609964426
 20
-12.97061607800712
 30
0.0
 11
8.09537941494664
 21
-13.66907588298933
 31
0.0
  0
LINE
  5
630
330
1F
100
AcDbEntity
  8
2
  6
CONTINUOUS
370
25
 62
7
100
AcDbLine
 10
7.7504730005577
 20
-12.89990539988846
 30
0.0
 11
8.625709500836551
 21
-13.77514190016731
 31
0.0
  0
LINE
  5
631
330
1F
100
AcDbEntity
  8
2
  6
CONTINUOUS
370
25
 62
7
100
AcDbLine
 10
8.104026391150974
 20
-12.82919472176981
 30
0.0
 11
9.156039586726461
 21
-13.88120791734529
 31
0.0
  0
LINE
  5
632
330
1F
100
AcDbEntity
  8
2
  6
CONTINUOUS
370
25
 62
7
100
AcDbLine
 10
8.457579781744247
 20
-12.75848404365115
 30
0.0
 11
9.68636967261637
 21
-13.98727393452327
 31
0.0
  0
LINE
  5
633
330
1F
100
AcDbEntity
  8
2
  6
CONTINUOUS
370
25
 62
7
100
AcDbLine
 10
8.81113317233752
 20
-12.6877733655325
 30
0.0
 11
10.21669975850628
 21
-14.09333995170126
 31
0.0
  0
LINE
  5
634
330
1F
100
AcDbEntity
  8
2
  6
CONTINUOUS
370
25
 62
7
100
AcDbLine
 10
9.164686562930791
 20
-12.61706268741384
 30
0.0
 11
10.74702984439619
 21
-14.19940596887924
 31
0.0
  0
LINE
  5
635
330
1F
100
AcDbEntity
  8
2
  6
CONTINUOUS
370
25
 62
7
100
AcDbLine
 10
9.518239953524064
 20
-12.54635200929518
 30
0.0
 11
11.0
 21
-14.02811205577112
 31
0.0
  0
LINE
  5
636
330
1F
100
AcDbEntity
  8
2
  6
CONTINUOUS
370
25
 62
7
100
AcDbLine
 10
9.87179334411734
 20
-12.47564133117653
 30
0.0
 11
11.0
 21
-13.60384798705919
 31
0.0
  0
LINE
  5
637
330
1F
100
AcDbEntity
  8
2
  6
CONTINUOUS
370
25
 62
7
100
AcDbLine
 10
10.22534673471061
 20
-12.40493065305788
 30
0.0
 11
11.0
 21
-13.17958391834726
 31
0.0
  0
LINE
  5
638
330
1F
100
AcDbEntity
  8
2
  6
CONTINUOUS
370
25
 62
7
100
AcDbLine
 10
10.57890012530389
 20
-12.33421997493922
 30
0.0
 11
11.0
 21
-12.75531984963534
 31
0.0
  0
LINE
  5
639
330
1F
100
AcDbEntity
  8
2
  6
CONTINUOUS
370
25
 62
7
100
AcDbLine
 10
10.93245351589716
 20
-12.26350929682057
 30
0.0
 11
11.0
 21
-12.33105578092341
 31
0.0
  0
TEXT
  5
63A
330
1F
100
AcDbEntity
  8
2
  6
CONTINUOUS
370
25
 62
7
100
AcDbText
 10
1.833333333333332
 20
-11.75
 30
0.0
 40
3.5
  1
6
 72
     1
 11
2.999999999999999
 21
-11.75
 31
0.0
100
AcDbText
  0
LINE
  5
63B
330
1F
100
AcDbEntity
  8
SK1
  6
CONTINUOUS
370
50
 62
4
100
AcDbLine
 10
0.0
 20
1.25
 30
0.0
 11
-15.0
 21
1.25
 31
0.0
  0
LINE
  5
63C
330
1F
100
AcDbEntity
  8
SK1
  6
CONTINUOUS
370
50
 62
4
100
AcDbLine
 10
-15.0
 20
1.25
 30
0.0
 11
-15.0
 21
1.05
 31
0.0
  0
LINE
  5
63D
330
1F
100
AcDbEntity
  8
SK1
  6
CONTINUOUS
370
50
 62
4
100
AcDbLine
 10
-15.0
 20
1.05
 30
0.0
 11
-20.0
 21
1.05
 31
0.0
  0
LINE
  5
63E
330
1F
100
AcDbEntity
  8
SK1
  6
CONTINUOUS
370
50
 62
4
100
AcDbLine
 10
-20.0
 20
1.05
 30
0.0
 11
-20.0
 21
-1.05
 31
0.0
  0
LINE
  5
63F
330
1F
100
AcDbEntity
  8
SK1
  6
CONTINUOUS
370
50
 62
4
100
AcDbLine
 10
-20.0
 20
-1.05
 30
0.0
 11
-15.0
 21
-1.05
 31
0.0
  0
LINE
  5
640
330
1F
100
AcDbEntity
  8
SK1
  6
CONTINUOUS
370
50
 62
4
100
AcDbLine
 10
-15.0
 20
-1.05
 30
0.0
 11
-15.0
 21
-1.25
 31
0.0
  0
LINE
  5
641
330
1F
100
AcDbEntity
  8
SK1
  6
CONTINUOUS
370
50
 62
4
100
AcDbLine
 10
-15.0
 20
-1.25
 30
0.0
 11
0.0
 21
-1.25
 31
0.0
  0
LINE
  5
642
330
1F
100
AcDbEntity
  8
SK1
  6
CONTINUOUS
370
50
 62
4
100
AcDbLine
 10
-20.0
 20
0.6782329983125268
 30
0.0
 11
-15.0
 21
0.6782329983125268
 31
0.0
  0
LINE
  5
643
330
1F
100
AcDbEntity
  8
SK1
  6
CONTINUOUS
370
50
 62
4
100
AcDbLine
 10
-15.0
 20
0.6782329983125268
 30
0.0
 11
-15.0
 21
-0.6782329983125268
 31
0.0
  0
LINE
  5
644
330
1F
100
AcDbEntity
  8
SK1
  6
CONTINUOUS
370
50
 62
4
100
AcDbLine
 10
-15.0
 20
-0.6782329983125268
 30
0.0
 11
-20.0
 21
-0.6782329983125268
 31
0.0
  0
LINE
  5
645
330
1F
100
AcDbEntity
  8
SK1
  6
CONTINUOUS
370
50
 62
4
100
AcDbLine
 10
-19.8
 20
1.05
 30
0.0
 11
-19.8
 21
0.6782329983125268
 31
0.0
  0
LINE
  5
646
330
1F
100
AcDbEntity
  8
SK1
  6
CONTINUOUS
370
50
 62
4
100
AcDbLine
 10
-19.8
 20
-1.05
 30
0.0
 11
-19.8
 21
-0.6782329983125268
 31
0.0
  0
LINE
  5
647
330
1F
100
AcDbEntity
  8
NOCUT
  6
CONTINUOUS
370
25
 62
7
100
AcDbLine
 10
0.0
 20
0.0
 30
0.0
 11
0.0
 21
1.25
 31
0.0
  0
LINE
  5
648
330
1F
100
AcDbEntity
  8
NOCUT
  6
CONTINUOUS
370
25
 62
7
100
AcDbLine
 10
0.0
 20
1.25
 30
0.0
 11
6.0
 21
1.25
 31
0.0
  0
LINE
  5
649
330
1F
100
AcDbEntity
  8
NOCUT
  6
CONTINUOUS
370
25
 62
7
100
AcDbLine
 10
6.0
 20
0.0
 30
0.0
 11
0.0
 21
0.0
 31
0.0
  0
LINE
  5
64A
330
1F
100
AcDbEntity
  8
CUT
  6
CONTINUOUS
370
25
 62
1
100
AcDbLine
 10
13.0
 20
0.43009619
 30
0.0
 11
19.93771081060405
 21
0.43009619
 31
0.0
  0
LINE
  5
64B
330
1F
100
AcDbEntity
  8
CUT
  6
CONTINUOUS
370
25
 62
1
100
AcDbLine
 10
19.93771081060405
 20
0.43009619
 30
0.0
 11
20.0
 21
0.57
 31
0.0
  0
LINE
  5
64C
330
1F
100
AcDbEntity
  8
CUT
  6
CONTINUOUS
370
25
 62
1
100
AcDbLine
 10
20.0
 20
0.57
 30
0.0
 11
19.25
 21
0.7
 31
0.0
  0
LINE
  5
64D
330
1F
100
AcDbEntity
  8
CUT
  6
CONTINUOUS
370
25
 62
1
100
AcDbLine
 10
19.25
 20
0.7
 30
0.0
 11
13.0
 21
0.7
 31
0.0
  0
LINE
  5
64E
330
1F
100
AcDbEntity
  8
CUT
  6
CONTINUOUS
370
25
 62
1
100
AcDbLine
 10
13.0
 20
0.7
 30
0.0
 11
13.0
 21
0.43009619
 31
0.0
  0
LINE
  5
64F
330
1F
100
AcDbEntity
  8
NOCUT
  6
CONTINUOUS
370
25
 62
7
100
AcDbLine
 10
6.0
 20
0.0
 30
0.0
 11
20.0
 21
0.0
 31
0.0
  0
LINE
  5
650
330
1F
100
AcDbEntity
  8
NOCUT
  6
CONTINUOUS
370
25
 62
7
100
AcDbLine
 10
20.0
 20
0.0
 30
0.0
 11
20.0
 21
0.57
 31
0.0
  0
LINE
  5
651
330
1F
100
AcDbEntity
  8
NOCUT
  6
CONTINUOUS
370
25
 62
7
100
AcDbLine
 10
20.0
 20
0.57
 30
0.0
 11
19.93771081060405
 21
0.43009619
 31
0.0
  0
LINE
  5
652
330
1F
100
AcDbEntity
  8
NOCUT
  6
CONTINUOUS
370
25
 62
7
100
AcDbLine
 10
19.93771081060405
 20
0.43009619
 30
0.0
 11
13.0
 21
0.43009619
 31
0.0
  0
LINE
  5
653
330
1F
100
AcDbEntity
  8
NOCUT
  6
CONTINUOUS
370
25
 62
7
100
AcDbLine
 10
13.0
 20
0.43009619
 30
0.0
 11
13.0
 21
0.7
 31
0.0
  0
LINE
  5
654
330
1F
100
AcDbEntity
  8
NOCUT
  6
CONTINUOUS
370
25
 62
7
100
AcDbLine
 10
13.0
 20
0.7
 30
0.0
 11
11.0
 21
0.7
 31
0.0
  0
LINE
  5
655
330
1F
100
AcDbEntity
  8
NOCUT
  6
CONTINUOUS
370
25
 62
7
100
AcDbLine
 10
11.0
 20
0.7
 30
0.0
 11
6.0
 21
1.25
 31
0.0
  0
LINE
  5
656
330
1F
100
AcDbEntity
  8
2
  6
CONTINUOUS
370
25
 62
7
100
AcDbLine
 10
19.25
 20
-0.6999999999999998
 30
0.0
 11
43.0
 21
-0.7000000000000027
 31
0.0
  0
LINE
  5
657
330
1F
100
AcDbEntity
  8
2
  6
CONTINUOUS
370
25
 62
7
100
AcDbLine
 10
43.0
 20
0.6999999999999972
 30
0.0
 11
19.25
 21
0.7000000000000001
 31
0.0
  0
LINE
  5
658
330
1F
100
AcDbEntity
  8
2
  6
CONTINUOUS
370
25
 62
7
100
AcDbLine
 10
42.0
 20
-7.700000000000003
 30
0.0
 11
42.0
 21
19.6
 31
0.0
  0
LINE
  5
659
330
1F
100
AcDbEntity
  8
2
  6
CONTINUOUS
370
25
 62
7
100
AcDbLine
 10
42.0
 20
-0.7000000000000026
 30
0.0
 11
43.0
 21
-5.700000000000003
 31
0.0
  0
LINE
  5
65A
330
1F
100
AcDbEntity
  8
2
  6
CONTINUOUS
370
25
 62
7
100
AcDbLine
 10
43.0
 20
-5.700000000000003
 30
0.0
 11
41.0
 21
-5.700000000000003
 31
0.0
  0
LINE
  5
65B
330
1F
100
AcDbEntity
  8
2
  6
CONTINUOUS
370
25
 62
7
100
AcDbLine
 10
41.0
 20
-5.700000000000003
 30
0.0
 11
42.0
 21
-0.7000000000000026
 31
0.0
  0
LINE
  5
65C
330
1F
100
AcDbEntity
  8
2
  6
CONTINUOUS
370
25
 62
7
100
AcDbLine
 10
42.58993028396913
 20
-5.700000000000003
 30
0.0
 11
42.93165504732819
 21
-5.358275236640949
 31
0.0
  0
LINE
  5
65D
330
1F
100
AcDbEntity
  8
2
  6
CONTINUOUS
370
25
 62
7
100
AcDbLine
 10
42.1656662152572
 20
-5.700000000000003
 30
0.0
 11
42.86094436920953
 21
-5.004721846047673
 31
0.0
  0
LINE
  5
65E
330
1F
100
AcDbEntity
  8
2
  6
CONTINUOUS
370
25
 62
7
100
AcDbLine
 10
41.74140214654528
 20
-5.700000000000003
 30
0.0
 11
42.79023369109088
 21
-4.651168455454396
 31
0.0
  0
LINE
  5
65F
330
1F
100
AcDbEntity
  8
2
  6
CONTINUOUS
370
25
 62
7
100
AcDbLine
 10
41.31713807783333
 20
-5.700000000000003
 30
0.0
 11
42.71952301297222
 21
-4.297615064861112
 31
0.0
  0
LINE
  5
660
330
1F
100
AcDbEntity
  8
2
  6
CONTINUOUS
370
25
 62
7
100
AcDbLine
 10
41.02678149771965
 20
-5.566092511401763
 30
0.0
 11
42.64881233485357
 21
-3.944061674267836
 31
0.0
  0
LINE
  5
661
330
1F
100
AcDbEntity
  8
2
  6
CONTINUOUS
370
25
 62
7
100
AcDbLine
 10
41.13284751489763
 20
-5.035762425511848
 30
0.0
 11
42.57810165673492
 21
-3.590508283674552
 31
0.0
  0
LINE
  5
662
330
1F
100
AcDbEntity
  8
2
  6
CONTINUOUS
370
25
 62
7
100
AcDbLine
 10
41.23891353207561
 20
-4.505432339621926
 30
0.0
 11
42.50739097861626
 21
-3.236954893081275
 31
0.0
  0
LINE
  5
663
330
1F
100
AcDbEntity
  8
2
  6
CONTINUOUS
370
25
 62
7
100
AcDbLine
 10
41.34497954925359
 20
-3.975102253732025
 30
0.0
 11
42.4366803004976
 21
-2.88340150248802
 31
0.0
  0
LINE
  5
664
330
1F
100
AcDbEntity
  8
2
  6
CONTINUOUS
370
25
 62
7
100
AcDbLine
 10
41.45104556643158
 20
-3.444772167842096
 30
0.0
 11
42.36596962237894
 21
-2.529848111894736
 31
0.0
  0
LINE
  5
665
330
1F
100
AcDbEntity
  8
2
  6
CONTINUOUS
370
25
 62
7
100
AcDbLine
 10
41.55711158360956
 20
-2.914442081952188
 30
0.0
 11
42.29525894426029
 21
-2.17629472130146
 31
0.0
  0
LINE
  5
666
330
1F
100
AcDbEntity
  8
2
  6
CONTINUOUS
370
25
 62
7
100
AcDbLine
 10
41.66317760078754
 20
-2.384111996062281
 30
0.0
 11
42.22454826614164
 21
-1.822741330708183
 31
0.0
  0
LINE
  5
667
330
1F
100
AcDbEntity
  8
2
  6
CONTINUOUS
370
25
 62
7
100
AcDbLine
 10
41.76924361796552
 20
-1.853781910172366
 30
0.0
 11
42.15383758802298
 21
-1.469187940114907
 31
0.0
  0
LINE
  5
668
330
1F
100
AcDbEntity
  8
2
  6
CONTINUOUS
370
25
 62
7
100
AcDbLine
 10
41.87530963514351
 20
-1.323451824282444
 30
0.0
 11
42.08312690990432
 21
-1.11563454952163
 31
0.0
  0
LINE
  5
669
330
1F
100
AcDbEntity
  8
2
  6
CONTINUOUS
370
25
 62
7
100
AcDbLine
 10
41.98137565232149
 20
-0.7931217383925357
 30
0.0
 11
42.01241623178567
 21
-0.7620811589283534
 31
0.0
  0
LINE
  5
66A
330
1F
100
AcDbEntity
  8
2
  6
CONTINUOUS
370
25
 62
7
100
AcDbLine
 10
41.05636362863366
 20
-5.41818185683168
 30
0.0
 11
41.33818177180198
 21
-5.700000000000003
 31
0.0
  0
LINE
  5
66B
330
1F
100
AcDbEntity
  8
2
  6
CONTINUOUS
370
25
 62
7
100
AcDbLine
 10
41.12707430675232
 20
-5.06462846623841
 30
0.0
 11
41.76244584051392
 21
-5.700000000000003
 31
0.0
  0
LINE
  5
66C
330
1F
100
AcDbEntity
  8
2
  6
CONTINUOUS
370
25
 62
7
100
AcDbLine
 10
41.19778498487097
 20
-4.711075075645127
 30
0.0
 11
42.18670990922585
 21
-5.700000000000003
 31
0.0
  0
LINE
  5
66D
330
1F
100
AcDbEntity
  8
2
  6
CONTINUOUS
370
25
 62
7
100
AcDbLine
 10
41.26849566298963
 20
-4.35752168505185
 30
0.0
 11
42.61097397793778
 21
-5.700000000000003
 31
0.0
  0
LINE
  5
66E
330
1F
100
AcDbEntity
  8
2
  6
CONTINUOUS
370
25
 62
7
100
AcDbLine
 10
41.33920634110829
 20
-4.003968294458573
 30
0.0
 11
42.99119048833757
 21
-5.655952441687859
 31
0.0
  0
LINE
  5
66F
330
1F
100
AcDbEntity
  8
2
  6
CONTINUOUS
370
25
 62
7
100
AcDbLine
 10
41.40991701922694
 20
-3.650414903865304
 30
0.0
 11
42.88512447115959
 21
-5.125622355797958
 31
0.0
  0
LINE
  5
670
330
1F
100
AcDbEntity
  8
2
  6
CONTINUOUS
370
25
 62
7
100
AcDbLine
 10
41.4806276973456
 20
-3.296861513272027
 30
0.0
 11
42.77905845398161
 21
-4.595292269908043
 31
0.0
  0
LINE
  5
671
330
1F
100
AcDbEntity
  8
2
  6
CONTINUOUS
370
25
 62
7
100
AcDbLine
 10
41.55133837546425
 20
-2.943308122678758
 30
0.0
 11
42.67299243680363
 21
-4.064962184018128
 31
0.0
  0
LINE
  5
672
330
1F
100
AcDbEntity
  8
2
  6
CONTINUOUS
370
25
 62
7
100
AcDbLine
 10
41.62204905358291
 20
-2.589754732085467
 30
0.0
 11
42.56692641962564
 21
-3.534632098128206
 31
0.0
  0
LINE
  5
673
330
1F
100
AcDbEntity
  8
2
  6
CONTINUOUS
370
25
 62
7
100
AcDbLine
 10
41.69275973170156
 20
-2.23620134149219
 30
0.0
 11
42.46086040244766
 21
-3.004302012238298
 31
0.0
  0
LINE
  5
674
330
1F
100
AcDbEntity
  8
2
  6
CONTINUOUS
370
25
 62
7
100
AcDbLine
 10
41.76347040982021
 20
-1.882647950898914
 30
0.0
 11
42.35479438526968
 21
-2.473971926348376
 31
0.0
  0
LINE
  5
675
330
1F
100
AcDbEntity
  8
2
  6
CONTINUOUS
370
25
 62
7
100
AcDbLine
 10
41.83418108793887
 20
-1.529094560305637
 30
0.0
 11
42.2487283680917
 21
-1.943641840458461
 31
0.0
  0
LINE
  5
676
330
1F
100
AcDbEntity
  8
2
  6
CONTINUOUS
370
25
 62
7
100
AcDbLine
 10
41.90489176605752
 20
-1.175541169712361
 30
0.0
 11
42.14266235091372
 21
-1.413311754568554
 31
0.0
  0
LINE
  5
677
330
1F
100
AcDbEntity
  8
2
  6
CONTINUOUS
370
25
 62
7
100
AcDbLine
 10
41.97560244417618
 20
-0.8219877791190839
 30
0.0
 11
42.03659633373573
 21
-0.8829816686786316
 31
0.0
  0
LINE
  5
678
330
1F
100
AcDbEntity
  8
2
  6
CONTINUOUS
370
25
 62
7
100
AcDbLine
 10
42.0
 20
0.6999999999999973
 30
0.0
 11
41.0
 21
5.699999999999998
 31
0.0
  0
LINE
  5
679
330
1F
100
AcDbEntity
  8
2
  6
CONTINUOUS
370
25
 62
7
100
AcDbLine
 10
41.0
 20
5.699999999999998
 30
0.0
 11
43.0
 21
5.699999999999998
 31
0.0
  0
LINE
  5
67A
330
1F
100
AcDbEntity
  8
2
  6
CONTINUOUS
370
25
 62
7
100
AcDbLine
 10
43.0
 20
5.699999999999998
 30
0.0
 11
42.0
 21
0.6999999999999973
 31
0.0
  0
LINE
  5
67B
330
1F
100
AcDbEntity
  8
2
  6
CONTINUOUS
370
25
 62
7
100
AcDbLine
 10
41.9508938628707
 20
0.9455306856464816
 30
0.0
 11
42.07365920569395
 21
1.068296028469732
 31
0.0
  0
LINE
  5
67C
330
1F
100
AcDbEntity
  8
2
  6
CONTINUOUS
370
25
 62
7
100
AcDbLine
 10
41.88018318475204
 20
1.299084076239758
 30
0.0
 11
42.17972522287194
 21
1.598626114359654
 31
0.0
  0
LINE
  5
67D
330
1F
100
AcDbEntity
  8
2
  6
CONTINUOUS
370
25
 62
7
100
AcDbLine
 10
41.80947250663339
 20
1.652637466833035
 30
0.0
 11
42.28579124004992
 21
2.128956200249561
 31
0.0
  0
LINE
  5
67E
330
1F
100
AcDbEntity
  8
2
  6
CONTINUOUS
370
25
 62
7
100
AcDbLine
 10
41.73876182851473
 20
2.006190857426311
 30
0.0
 11
42.3918572572279
 21
2.659286286139476
 31
0.0
  0
LINE
  5
67F
330
1F
100
AcDbEntity
  8
2
  6
CONTINUOUS
370
25
 62
7
100
AcDbLine
 10
41.66805115039607
 20
2.359744248019581
 30
0.0
 11
42.49792327440588
 21
3.189616372029391
 31
0.0
  0
LINE
  5
680
330
1F
100
AcDbEntity
  8
2
  6
CONTINUOUS
370
25
 62
7
100
AcDbLine
 10
41.59734047227742
 20
2.713297638612865
 30
0.0
 11
42.60398929158386
 21
3.719946457919306
 31
0.0
  0
LINE
  5
681
330
1F
100
AcDbEntity
  8
2
  6
CONTINUOUS
370
25
 62
7
100
AcDbLine
 10
41.52662979415877
 20
3.066851029206134
 30
0.0
 11
42.71005530876185
 21
4.250276543809221
 31
0.0
  0
LINE
  5
682
330
1F
100
AcDbEntity
  8
2
  6
CONTINUOUS
370
25
 62
7
100
AcDbLine
 10
41.45591911604012
 20
3.420404419799425
 30
0.0
 11
42.81612132593983
 21
4.780606629699129
 31
0.0
  0
LINE
  5
683
330
1F
100
AcDbEntity
  8
2
  6
CONTINUOUS
370
25
 62
7
100
AcDbLine
 10
41.38520843792146
 20
3.773957810392695
 30
0.0
 11
42.92218734311781
 21
5.310936715589037
 31
0.0
  0
LINE
  5
684
330
1F
100
AcDbEntity
  8
2
  6
CONTINUOUS
370
25
 62
7
100
AcDbLine
 10
41.3144977598028
 20
4.127511200985971
 30
0.0
 11
42.88698655881683
 21
5.699999999999996
 31
0.0
  0
LINE
  5
685
330
1F
100
AcDbEntity
  8
2
  6
CONTINUOUS
370
25
 62
7
100
AcDbLine
 10
41.24378708168415
 20
4.481064591579241
 30
0.0
 11
42.4627224901049
 21
5.699999999999996
 31
0.0
  0
LINE
  5
686
330
1F
100
AcDbEntity
  8
2
  6
CONTINUOUS
370
25
 62
7
100
AcDbLine
 10
41.1730764035655
 20
4.834617982172517
 30
0.0
 11
42.03845842139297
 21
5.699999999999996
 31
0.0
  0
LINE
  5
687
330
1F
100
AcDbEntity
  8
2
  6
CONTINUOUS
370
25
 62
7
100
AcDbLine
 10
41.10236572544684
 20
5.188171372765808
 30
0.0
 11
41.61419435268104
 21
5.699999999999996
 31
0.0
  0
LINE
  5
688
330
1F
100
AcDbEntity
  8
2
  6
CONTINUOUS
370
25
 62
7
100
AcDbLine
 10
41.03165504732819
 20
5.541724763359078
 30
0.0
 11
41.18993028396911
 21
5.699999999999996
 31
0.0
  0
LINE
  5
689
330
1F
100
AcDbEntity
  8
2
  6
CONTINUOUS
370
25
 62
7
100
AcDbLine
 10
41.9623322650238
 20
0.8883386748809841
 30
0.0
 11
42.02511182331747
 21
0.8255591165873142
 31
0.0
  0
LINE
  5
68A
330
1F
100
AcDbEntity
  8
2
  6
CONTINUOUS
370
25
 62
7
100
AcDbLine
 10
41.85626624784582
 20
1.418668760770892
 30
0.0
 11
42.09582250143612
 21
1.179112507180591
 31
0.0
  0
LINE
  5
68B
330
1F
100
AcDbEntity
  8
2
  6
CONTINUOUS
370
25
 62
7
100
AcDbLine
 10
41.75020023066783
 20
1.948998846660814
 30
0.0
 11
42.16653317955478
 21
1.532665897773867
 31
0.0
  0
LINE
  5
68C
330
1F
100
AcDbEntity
  8
2
  6
CONTINUOUS
370
25
 62
7
100
AcDbLine
 10
41.64413421348985
 20
2.479328932550722
 30
0.0
 11
42.23724385767343
 21
1.886219288367137
 31
0.0
  0
LINE
  5
68D
330
1F
100
AcDbEntity
  8
2
  6
CONTINUOUS
370
25
 62
7
100
AcDbLine
 10
41.53806819631186
 20
3.009659018440644
 30
0.0
 11
42.30795453579209
 21
2.239772678960414
 31
0.0
  0
LINE
  5
68E
330
1F
100
AcDbEntity
  8
2
  6
CONTINUOUS
370
25
 62
7
100
AcDbLine
 10
41.43200217913388
 20
3.539989104330559
 30
0.0
 11
42.37866521391074
 21
2.593326069553697
 31
0.0
  0
LINE
  5
68F
330
1F
100
AcDbEntity
  8
2
  6
CONTINUOUS
370
25
 62
7
100
AcDbLine
 10
41.3259361619559
 20
4.070319190220467
 30
0.0
 11
42.44937589202939
 21
2.946879460146974
 31
0.0
  0
LINE
  5
690
330
1F
100
AcDbEntity
  8
2
  6
CONTINUOUS
370
25
 62
7
100
AcDbLine
 10
41.21987014477791
 20
4.600649276110389
 30
0.0
 11
42.52008657014805
 21
3.300432850740251
 31
0.0
  0
LINE
  5
691
330
1F
100
AcDbEntity
  8
2
  6
CONTINUOUS
370
25
 62
7
100
AcDbLine
 10
41.11380412759993
 20
5.130979362000311
 30
0.0
 11
42.59079724826671
 21
3.653986241333527
 31
0.0
  0
LINE
  5
692
330
1F
100
AcDbEntity
  8
2
  6
CONTINUOUS
370
25
 62
7
100
AcDbLine
 10
41.00773811042195
 20
5.661309447890218
 30
0.0
 11
42.66150792638537
 21
4.007539631926797
 31
0.0
  0
LINE
  5
693
330
1F
100
AcDbEntity
  8
2
  6
CONTINUOUS
370
25
 62
7
100
AcDbLine
 10
41.3933116270241
 20
5.699999999999996
 30
0.0
 11
42.73221860450402
 21
4.36109302252008
 31
0.0
  0
LINE
  5
694
330
1F
100
AcDbEntity
  8
2
  6
CONTINUOUS
370
25
 62
7
100
AcDbLine
 10
41.81757569573603
 20
5.699999999999996
 30
0.0
 11
42.80292928262267
 21
4.714646413113357
 31
0.0
  0
LINE
  5
695
330
1F
100
AcDbEntity
  8
2
  6
CONTINUOUS
370
25
 62
7
100
AcDbLine
 10
42.24183976444796
 20
5.699999999999996
 30
0.0
 11
42.87363996074133
 21
5.068199803706626
 31
0.0
  0
LINE
  5
696
330
1F
100
AcDbEntity
  8
2
  6
CONTINUOUS
370
25
 62
7
100
AcDbLine
 10
42.66610383315989
 20
5.699999999999996
 30
0.0
 11
42.94435063885998
 21
5.42175319429991
 31
0.0
  0
TEXT
  5
697
330
1F
100
AcDbEntity
  8
2
  6
CONTINUOUS
370
25
 62
7
100
AcDbText
 10
40.5
 20
7.98333333333333
 30
0.0
 40
3.5
  1
M1.4
 50
90.00000000000001
 72
     1
 11
40.5
 21
12.65
 31
0.0
100
AcDbText
  0
LINE
  5
698
330
1F
100
AcDbEntity
  8
2
  6
CONTINUOUS
370
25
 62
7
100
AcDbLine
 10
20.0
 20
-0.57
 30
0.0
 11
33.0
 21
-0.5700000000000015
 31
0.0
  0
LINE
  5
699
330
1F
100
AcDbEntity
  8
2
  6
CONTINUOUS
370
25
 62
7
100
AcDbLine
 10
33.0
 20
0.5699999999999984
 30
0.0
 11
20.0
 21
0.57
 31
0.0
  0
LINE
  5
69A
330
1F
100
AcDbEntity
  8
2
  6
CONTINUOUS
370
25
 62
7
100
AcDbLine
 10
32.0
 20
-7.570000000000001
 30
0.0
 11
32.0
 21
22.97
 31
0.0
  0
LINE
  5
69B
330
1F
100
AcDbEntity
  8
2
  6
CONTINUOUS
370
25
 62
7
100
AcDbLine
 10
32.0
 20
-0.5700000000000014
 30
0.0
 11
33.0
 21
-5.570000000000001
 31
0.0
  0
LINE
  5
69C
330
1F
100
AcDbEntity
  8
2
  6
CONTINUOUS
370
25
 62
7
100
AcDbLine
 10
33.0
 20
-5.570000000000001
 30
0.0
 11
31.0
 21
-5.570000000000001
 31
0.0
  0
LINE
  5
69D
330
1F
100
AcDbEntity
  8
2
  6
CONTINUOUS
370
25
 62
7
100
AcDbLine
 10
31.0
 20
-5.570000000000001
 30
0.0
 11
32.0
 21
-0.5700000000000014
 31
0.0
  0
LINE
  5
69E
330
1F
100
AcDbEntity
  8
2
  6
CONTINUOUS
370
25
 62
7
100
AcDbLine
 10
32.64226793305541
 20
-5.57
 30
0.0
 11
32.94037798884257
 21
-5.271889944212845
 31
0.0
  0
LINE
  5
69F
330
1F
100
AcDbEntity
  8
2
  6
CONTINUOUS
370
25
 62
7
100
AcDbLine
 10
32.21800386434349
 20
-5.57
 30
0.0
 11
32.86966731072392
 21
-4.918336553619568
 31
0.0
  0
LINE
  5
6A0
330
1F
100
AcDbEntity
  8
2
  6
CONTINUOUS
370
25
 62
7
100
AcDbLine
 10
31.79373979563156
 20
-5.57
 30
0.0
 11
32.79895663260526
 21
-4.564783163026298
 31
0.0
  0
LINE
  5
6A1
330
1F
100
AcDbEntity
  8
2
  6
CONTINUOUS
370
25
 62
7
100
AcDbLine
 10
31.36947572691963
 20
-5.57
 30
0.0
 11
32.7282459544866
 21
-4.211229772433022
 31
0.0
  0
LINE
  5
6A2
330
1F
100
AcDbEntity
  8
2
  6
CONTINUOUS
370
25
 62
7
100
AcDbLine
 10
31.01369708544807
 20
-5.501514572759628
 30
0.0
 11
32.65753527636795
 21
-3.857676381839745
 31
0.0
  0
LINE
  5
6A3
330
1F
100
AcDbEntity
  8
2
  6
CONTINUOUS
370
25
 62
7
100
AcDbLine
 10
31.11976310262605
 20
-4.971184486869721
 30
0.0
 11
32.5868245982493
 21
-3.504122991246469
 31
0.0
  0
LINE
  5
6A4
330
1F
100
AcDbEntity
  8
2
  6
CONTINUOUS
370
25
 62
7
100
AcDbLine
 10
31.22582911980404
 20
-4.440854400979806
 30
0.0
 11
32.51611392013064
 21
-3.150569600653199
 31
0.0
  0
LINE
  5
6A5
330
1F
100
AcDbEntity
  8
2
  6
CONTINUOUS
370
25
 62
7
100
AcDbLine
 10
31.33189513698202
 20
-3.910524315089887
 30
0.0
 11
32.44540324201198
 21
-2.797016210059923
 31
0.0
  0
LINE
  5
6A6
330
1F
100
AcDbEntity
  8
2
  6
CONTINUOUS
370
25
 62
7
100
AcDbLine
 10
31.43796115416001
 20
-3.380194229199969
 30
0.0
 11
32.37469256389333
 21
-2.443462819466646
 31
0.0
  0
LINE
  5
6A7
330
1F
100
AcDbEntity
  8
2
  6
CONTINUOUS
370
25
 62
7
100
AcDbLine
 10
31.54402717133799
 20
-2.849864143310061
 30
0.0
 11
32.30398188577468
 21
-2.089909428873369
 31
0.0
  0
LINE
  5
6A8
330
1F
100
AcDbEntity
  8
2
  6
CONTINUOUS
370
25
 62
7
100
AcDbLine
 10
31.65009318851597
 20
-2.31953405742015
 30
0.0
 11
32.23327120765602
 21
-1.7363560382801
 31
0.0
  0
LINE
  5
6A9
330
1F
100
AcDbEntity
  8
2
  6
CONTINUOUS
370
25
 62
7
100
AcDbLine
 10
31.75615920569395
 20
-1.789203971530231
 30
0.0
 11
32.16256052953737
 21
-1.382802647686816
 31
0.0
  0
LINE
  5
6AA
330
1F
100
AcDbEntity
  8
2
  6
CONTINUOUS
370
25
 62
7
100
AcDbLine
 10
31.86222522287194
 20
-1.258873885640309
 30
0.0
 11
32.09184985141871
 21
-1.029249257093539
 31
0.0
  0
LINE
  5
6AB
330
1F
100
AcDbEntity
  8
2
  6
CONTINUOUS
370
25
 62
7
100
AcDbLine
 10
31.96829124004991
 20
-0.7285437997504047
 30
0.0
 11
32.02113917330006
 21
-0.6756958665002628
 31
0.0
  0
LINE
  5
6AC
330
1F
100
AcDbEntity
  8
2
  6
CONTINUOUS
370
25
 62
7
100
AcDbLine
 10
31.00430735378596
 20
-5.548463231070183
 30
0.0
 11
31.02584412271578
 21
-5.57
 31
0.0
  0
LINE
  5
6AD
330
1F
100
AcDbEntity
  8
2
  6
CONTINUOUS
370
25
 62
7
100
AcDbLine
 10
31.07501803190462
 20
-5.19490984047691
 30
0.0
 11
31.45010819142771
 21
-5.57
 31
0.0
  0
LINE
  5
6AE
330
1F
100
AcDbEntity
  8
2
  6
CONTINUOUS
370
25
 62
7
100
AcDbLine
 10
31.14572871002327
 20
-4.841356449883634
 30
0.0
 11
31.87437226013964
 21
-5.57
 31
0.0
  0
LINE
  5
6AF
330
1F
100
AcDbEntity
  8
2
  6
CONTINUOUS
370
25
 62
7
100
AcDbLine
 10
31.21643938814193
 20
-4.487803059290364
 30
0.0
 11
32.29863632885158
 21
-5.570000000000004
 31
0.0
  0
LINE
  5
6B0
330
1F
100
AcDbEntity
  8
2
  6
CONTINUOUS
370
25
 62
7
100
AcDbLine
 10
31.28715006626058
 20
-4.134249668697088
 30
0.0
 11
32.72290039756351
 21
-5.570000000000004
 31
0.0
  0
LINE
  5
6B1
330
1F
100
AcDbEntity
  8
2
  6
CONTINUOUS
370
25
 62
7
100
AcDbLine
 10
31.35786074437923
 20
-3.780696278103807
 30
0.0
 11
32.96320888343115
 21
-5.386044417155716
 31
0.0
  0
LINE
  5
6B2
330
1F
100
AcDbEntity
  8
2
  6
CONTINUOUS
370
25
 62
7
100
AcDbLine
 10
31.42857142249789
 20
-3.427142887510534
 30
0.0
 11
32.85714286625316
 21
-4.855714331265794
 31
0.0
  0
LINE
  5
6B3
330
1F
100
AcDbEntity
  8
2
  6
CONTINUOUS
370
25
 62
7
100
AcDbLine
 10
31.49928210061654
 20
-3.073589496917258
 30
0.0
 11
32.75107684907518
 21
-4.325384245375893
 31
0.0
  0
LINE
  5
6B4
330
1F
100
AcDbEntity
  8
2
  6
CONTINUOUS
370
25
 62
7
100
AcDbLine
 10
31.5699927787352
 20
-2.720036106323985
 30
0.0
 11
32.6450108318972
 21
-3.795054159485971
 31
0.0
  0
LINE
  5
6B5
330
1F
100
AcDbEntity
  8
2
  6
CONTINUOUS
370
25
 62
7
100
AcDbLine
 10
31.64070345685386
 20
-2.366482715730712
 30
0.0
 11
32.53894481471922
 21
-3.264724073596064
 31
0.0
  0
LINE
  5
6B6
330
1F
100
AcDbEntity
  8
2
  6
CONTINUOUS
370
25
 62
7
100
AcDbLine
 10
31.71141413497251
 20
-2.012929325137438
 30
0.0
 11
32.43287879754123
 21
-2.734393987706152
 31
0.0
  0
LINE
  5
6B7
330
1F
100
AcDbEntity
  8
2
  6
CONTINUOUS
370
25
 62
7
100
AcDbLine
 10
31.78212481309117
 20
-1.659375934544165
 30
0.0
 11
32.32681278036325
 21
-2.204063901816241
 31
0.0
  0
LINE
  5
6B8
330
1F
100
AcDbEntity
  8
2
  6
CONTINUOUS
370
25
 62
7
100
AcDbLine
 10
31.85283549120982
 20
-1.305822543950889
 30
0.0
 11
32.22074676318527
 21
-1.673733815926333
 31
0.0
  0
LINE
  5
6B9
330
1F
100
AcDbEntity
  8
2
  6
CONTINUOUS
370
25
 62
7
100
AcDbLine
 10
31.92354616932847
 20
-0.9522691533576122
 30
0.0
 11
32.11468074600729
 21
-1.143403730036425
 31
0.0
  0
LINE
  5
6BA
330
1F
100
AcDbEntity
  8
2
  6
CONTINUOUS
370
25
 62
7
100
AcDbLine
 10
31.99425684744713
 20
-0.5987157627643427
 30
0.0
 11
32.0086147288293
 21
-0.6130736441465068
 31
0.0
  0
LINE
  5
6BB
330
1F
100
AcDbEntity
  8
2
  6
CONTINUOUS
370
25
 62
7
100
AcDbLine
 10
32.0
 20
0.5699999999999985
 30
0.0
 11
31.0
 21
5.569999999999999
 31
0.0
  0
LINE
  5
6BC
330
1F
100
AcDbEntity
  8
2
  6
CONTINUOUS
370
25
 62
7
100
AcDbLine
 10
31.0
 20
5.569999999999999
 30
0.0
 11
33.0
 21
5.569999999999999
 31
0.0
  0
LINE
  5
6BD
330
1F
100
AcDbEntity
  8
2
  6
CONTINUOUS
370
25
 62
7
100
AcDbLine
 10
33.0
 20
5.569999999999999
 30
0.0
 11
32.0
 21
0.5699999999999985
 31
0.0
  0
LINE
  5
6BE
330
1F
100
AcDbEntity
  8
2
  6
CONTINUOUS
370
25
 62
7
100
AcDbLine
 10
31.93223945959976
 20
0.9088027020011857
 30
0.0
 11
32.10164081060036
 21
1.078204053001784
 31
0.0
  0
LINE
  5
6BF
330
1F
100
AcDbEntity
  8
2
  6
CONTINUOUS
370
25
 62
7
100
AcDbLine
 10
31.86152878148111
 20
1.262356092594462
 30
0.0
 11
32.20770682777835
 21
1.608534138891699
 31
0.0
  0
LINE
  5
6C0
330
1F
100
AcDbEntity
  8
2
  6
CONTINUOUS
370
25
 62
7
100
AcDbLine
 10
31.79081810336245
 20
1.615909483187739
 30
0.0
 11
32.31377284495633
 21
2.138864224781614
 31
0.0
  0
LINE
  5
6C1
330
1F
100
AcDbEntity
  8
2
  6
CONTINUOUS
370
25
 62
7
100
AcDbLine
 10
31.72010742524379
 20
1.969462873781012
 30
0.0
 11
32.41983886213431
 21
2.669194310671532
 31
0.0
  0
LINE
  5
6C2
330
1F
100
AcDbEntity
  8
2
  6
CONTINUOUS
370
25
 62
7
100
AcDbLine
 10
31.64939674712514
 20
2.323016264374285
 30
0.0
 11
32.52590487931229
 21
3.19952439656144
 31
0.0
  0
LINE
  5
6C3
330
1F
100
AcDbEntity
  8
2
  6
CONTINUOUS
370
25
 62
7
100
AcDbLine
 10
31.57868606900648
 20
2.676569654967562
 30
0.0
 11
32.63197089649027
 21
3.729854482451351
 31
0.0
  0
LINE
  5
6C4
330
1F
100
AcDbEntity
  8
2
  6
CONTINUOUS
370
25
 62
7
100
AcDbLine
 10
31.50797539088783
 20
3.030123045560835
 30
0.0
 11
32.73803691366826
 21
4.260184568341266
 31
0.0
  0
LINE
  5
6C5
330
1F
100
AcDbEntity
  8
2
  6
CONTINUOUS
370
25
 62
7
100
AcDbLine
 10
31.43726471276917
 20
3.383676436154108
 30
0.0
 11
32.84410293084624
 21
4.790514654231185
 31
0.0
  0
LINE
  5
6C6
330
1F
100
AcDbEntity
  8
2
  6
CONTINUOUS
370
25
 62
7
100
AcDbLine
 10
31.36655403465052
 20
3.737229826747384
 30
0.0
 11
32.95016894802422
 21
5.320844740121096
 31
0.0
  0
LINE
  5
6C7
330
1F
100
AcDbEntity
  8
2
  6
CONTINUOUS
370
25
 62
7
100
AcDbLine
 10
31.29584335653186
 20
4.090783217340661
 30
0.0
 11
32.77506013919119
 21
5.57
 31
0.0
  0
LINE
  5
6C8
330
1F
100
AcDbEntity
  8
2
  6
CONTINUOUS
370
25
 62
7
100
AcDbLine
 10
31.22513267841321
 20
4.444336607933941
 30
0.0
 11
32.35079607047926
 21
5.569999999999997
 31
0.0
  0
LINE
  5
6C9
330
1F
100
AcDbEntity
  8
2
  6
CONTINUOUS
370
25
 62
7
100
AcDbLine
 10
31.15442200029456
 20
4.797889998527218
 30
0.0
 11
31.92653200176733
 21
5.57
 31
0.0
  0
LINE
  5
6CA
330
1F
100
AcDbEntity
  8
2
  6
CONTINUOUS
370
25
 62
7
100
AcDbLine
 10
31.0837113221759
 20
5.151443389120484
 30
0.0
 11
31.50226793305541
 21
5.57
 31
0.0
  0
LINE
  5
6CB
330
1F
100
AcDbEntity
  8
2
  6
CONTINUOUS
370
25
 62
7
100
AcDbLine
 10
31.01300064405725
 20
5.504996779713768
 30
0.0
 11
31.07800386434348
 21
5.569999999999997
 31
0.0
  0
LINE
  5
6CC
330
1F
100
AcDbEntity
  8
2
  6
CONTINUOUS
370
25
 62
7
100
AcDbLine
 10
31.97541667729536
 20
0.6929166135232094
 30
0.0
 11
32.0163888818031
 21
0.6519444090154707
 31
0.0
  0
LINE
  5
6CD
330
1F
100
AcDbEntity
  8
2
  6
CONTINUOUS
370
25
 62
7
100
AcDbLine
 10
31.86935066011737
 20
1.223246699413128
 30
0.0
 11
32.08709955992175
 21
1.005497799608747
 31
0.0
  0
LINE
  5
6CE
330
1F
100
AcDbEntity
  8
2
  6
CONTINUOUS
370
25
 62
7
100
AcDbLine
 10
31.76328464293939
 20
1.753576785303036
 30
0.0
 11
32.1578102380404
 21
1.359051190202024
 31
0.0
  0
LINE
  5
6CF
330
1F
100
AcDbEntity
  8
2
  6
CONTINUOUS
370
25
 62
7
100
AcDbLine
 10
31.65721862576141
 20
2.28390687119294
 30
0.0
 11
32.22852091615906
 21
1.712604580795301
 31
0.0
  0
LINE
  5
6D0
330
1F
100
AcDbEntity
  8
2
  6
CONTINUOUS
370
25
 62
7
100
AcDbLine
 10
31.55115260858343
 20
2.814236957082855
 30
0.0
 11
32.29923159427771
 21
2.06615797138857
 31
0.0
  0
LINE
  5
6D1
330
1F
100
AcDbEntity
  8
2
  6
CONTINUOUS
370
25
 62
7
100
AcDbLine
 10
31.44508659140545
 20
3.344567042972759
 30
0.0
 11
32.36994227239637
 21
2.419711361981847
 31
0.0
  0
LINE
  5
6D2
330
1F
100
AcDbEntity
  8
2
  6
CONTINUOUS
370
25
 62
7
100
AcDbLine
 10
31.33902057422746
 20
3.874897128862678
 30
0.0
 11
32.44065295051502
 21
2.773264752575123
 31
0.0
  0
LINE
  5
6D3
330
1F
100
AcDbEntity
  8
2
  6
CONTINUOUS
370
25
 62
7
100
AcDbLine
 10
31.23295455704948
 20
4.405227214752585
 30
0.0
 11
32.51136362863368
 21
3.126818143168393
 31
0.0
  0
LINE
  5
6D4
330
1F
100
AcDbEntity
  8
2
  6
CONTINUOUS
370
25
 62
7
100
AcDbLine
 10
31.1268885398715
 20
4.935557300642497
 30
0.0
 11
32.58207430675233
 21
3.480371533761669
 31
0.0
  0
LINE
  5
6D5
330
1F
100
AcDbEntity
  8
2
  6
CONTINUOUS
370
25
 62
7
100
AcDbLine
 10
31.02082252269351
 20
5.465887386532412
 30
0.0
 11
32.65278498487099
 21
3.833924924354946
 31
0.0
  0
LINE
  5
6D6
330
1F
100
AcDbEntity
  8
2
  6
CONTINUOUS
370
25
 62
7
100
AcDbLine
 10
31.34097397793785
 20
5.57
 30
0.0
 11
32.72349566298964
 21
4.187478314948216
 31
0.0
  0
LINE
  5
6D7
330
1F
100
AcDbEntity
  8
2
  6
CONTINUOUS
370
25
 62
7
100
AcDbLine
 10
31.76523804664978
 20
5.57
 30
0.0
 11
32.7942063411083
 21
4.541031705541492
 31
0.0
  0
LINE
  5
6D8
330
1F
100
AcDbEntity
  8
2
  6
CONTINUOUS
370
25
 62
7
100
AcDbLine
 10
32.18950211536171
 20
5.57
 30
0.0
 11
32.86491701922695
 21
4.894585096134769
 31
0.0
  0
LINE
  5
6D9
330
1F
100
AcDbEntity
  8
2
  6
CONTINUOUS
370
25
 62
7
100
AcDbLine
 10
32.61376618407365
 20
5.57
 30
0.0
 11
32.93562769734561
 21
5.248138486728045
 31
0.0
  0
TEXT
  5
6DA
330
1F
100
AcDbEntity
  8
2
  6
CONTINUOUS
370
25
 62
7
100
AcDbText
 10
30.5
 20
12.46166666666666
 30
0.0
 40
3.5
  1
1.14
 50
90.00000000000001
 72
     1
 11
30.5
 21
16.545
 31
0.0
100
AcDbText
  0
CIRCLE
  5
6DB
330
1F
100
AcDbEntity
  8
2
  6
CONTINUOUS
370
25
 62
7
100
AcDbCircle
 10
28.75
 20
8.494999999999997
 30
0.0
 40
1.4
  0
LINE
  5
6DC
330
1F
100
AcDbEntity
  8
2
  6
CONTINUOUS
370
25
 62
7
100
AcDbLine
 10
30.15
 20
7.094999999999999
 30
0.0
 11
27.35
 21
9.895
 31
0.0
  0
LINE
  5
6DD
330
1F
100
AcDbEntity
  8
2
  6
CONTINUOUS
370
25
 62
7
100
AcDbLine
 10
13.0
 20
-0.68
 30
0.0
 11
13.0
 21
-14.25
 31
0.0
  0
LINE
  5
6DE
330
1F
100
AcDbEntity
  8
2
  6
CONTINUOUS
370
25
 62
7
100
AcDbLine
 10
20.0
 20
-14.25
 30
0.0
 11
20.0
 21
-0.6799999999999997
 31
0.0
  0
LINE
  5
6DF
330
1F
100
AcDbEntity
  8
2
  6
CONTINUOUS
370
25
 62
7
100
AcDbLine
 10
6.0
 20
-13.25
 30
0.0
 11
27.0
 21
-13.25
 31
0.0
  0
LINE
  5
6E0
330
1F
100
AcDbEntity
  8
2
  6
CONTINUOUS
370
25
 62
7
100
AcDbLine
 10
13.0
 20
-13.25
 30
0.0
 11
8.0
 21
-14.25
 31
0.0
  0
LINE
  5
6E1
330
1F
100
AcDbEntity
  8
2
  6
CONTINUOUS
370
25
 62
7
100
AcDbLine
 10
8.0
 20
-14.25
 30
0.0
 11
8.0
 21
-12.25
 31
0.0
  0
LINE
  5
6E2
330
1F
100
AcDbEntity
  8
2
  6
CONTINUOUS
370
25
 62
7
100
AcDbLine
 10
8.0
 20
-12.25
 30
0.0
 11
13.0
 21
-13.25
 31
0.0
  0
LINE
  5
6E3
330
1F
100
AcDbEntity
  8
2
  6
CONTINUOUS
370
25
 62
7
100
AcDbLine
 10
12.91108706356702
 20
-13.26778258728659
 30
0.0
 11
12.94072470904468
 21
-13.23814494180894
 31
0.0
  0
LINE
  5
6E4
330
1F
100
AcDbEntity
  8
2
  6
CONTINUOUS
370
25
 62
7
100
AcDbLine
 10
12.38075697767711
 20
-13.37384860446458
 30
0.0
 11
12.5871713184514
 21
-13.16743426369028
 31
0.0
  0
LINE
  5
6E5
330
1F
100
AcDbEntity
  8
2
  6
CONTINUOUS
370
25
 62
7
100
AcDbLine
 10
11.8504268917872
 20
-13.47991462164256
 30
0.0
 11
12.23361792785813
 21
-13.09672358557163
 31
0.0
  0
LINE
  5
6E6
330
1F
100
AcDbEntity
  8
2
  6
CONTINUOUS
370
25
 62
7
100
AcDbLine
 10
11.32009680589729
 20
-13.58598063882054
 30
0.0
 11
11.88006453726486
 21
-13.02601290745297
 31
0.0
  0
LINE
  5
6E7
330
1F
100
AcDbEntity
  8
2
  6
CONTINUOUS
370
25
 62
7
100
AcDbLine
 10
10.78976672000738
 20
-13.69204665599852
 30
0.0
 11
11.52651114667159
 21
-12.95530222933432
 31
0.0
  0
LINE
  5
6E8
330
1F
100
AcDbEntity
  8
2
  6
CONTINUOUS
370
25
 62
7
100
AcDbLine
 10
10.25943663411747
 20
-13.7981126731765
 30
0.0
 11
11.17295775607831
 21
-12.88459155121566
 31
0.0
  0
LINE
  5
6E9
330
1F
100
AcDbEntity
  8
2
  6
CONTINUOUS
370
25
 62
7
100
AcDbLine
 10
9.729106548227564
 20
-13.90417869035449
 30
0.0
 11
10.81940436548504
 21
-12.81388087309701
 31
0.0
  0
LINE
  5
6EA
330
1F
100
AcDbEntity
  8
2
  6
CONTINUOUS
370
25
 62
7
100
AcDbLine
 10
9.198776462337655
 20
-14.01024470753247
 30
0.0
 11
10.46585097489177
 21
-12.74317019497835
 31
0.0
  0
LINE
  5
6EB
330
1F
100
AcDbEntity
  8
2
  6
CONTINUOUS
370
25
 62
7
100
AcDbLine
 10
8.668446376447745
 20
-14.11631072471045
 30
0.0
 11
10.1122975842985
 21
-12.6724595168597
 31
0.0
  0
LINE
  5
6EC
330
1F
100
AcDbEntity
  8
2
  6
CONTINUOUS
370
25
 62
7
100
AcDbLine
 10
8.138116290557836
 20
-14.22237674188843
 30
0.0
 11
9.758744193705223
 21
-12.60174883874105
 31
0.0
  0
LINE
  5
6ED
330
1F
100
AcDbEntity
  8
2
  6
CONTINUOUS
370
25
 62
7
100
AcDbLine
 10
8.0
 20
-13.93622896373434
 30
0.0
 11
9.40519080311195
 21
-12.53103816062239
 31
0.0
  0
LINE
  5
6EE
330
1F
100
AcDbEntity
  8
2
  6
CONTINUOUS
370
25
 62
7
100
AcDbLine
 10
8.0
 20
-13.51196489502241
 30
0.0
 11
9.051637412518676
 21
-12.46032748250374
 31
0.0
  0
LINE
  5
6EF
330
1F
100
AcDbEntity
  8
2
  6
CONTINUOUS
370
25
 62
7
100
AcDbLine
 10
8.0
 20
-13.08770082631048
 30
0.0
 11
8.698084021925403
 21
-12.38961680438508
 31
0.0
  0
LINE
  5
6F0
330
1F
100
AcDbEntity
  8
2
  6
CONTINUOUS
370
25
 62
7
100
AcDbLine
 10
8.0
 20
-12.66343675759856
 30
0.0
 11
8.34453063133213
 21
-12.31890612626643
 31
0.0
  0
LINE
  5
6F1
330
1F
100
AcDbEntity
  8
2
  6
CONTINUOUS
370
25
 62
7
100
AcDbLine
 10
8.0
 20
-14.2406012238739
 30
0.0
 11
8.007832313438419
 21
-14.24843353731232
 31
0.0
  0
LINE
  5
6F2
330
1F
100
AcDbEntity
  8
2
  6
CONTINUOUS
370
25
 62
7
100
AcDbLine
 10
8.0
 20
-13.81633715516197
 30
0.0
 11
8.361385704031692
 21
-14.17772285919366
 31
0.0
  0
LINE
  5
6F3
330
1F
100
AcDbEntity
  8
2
  6
CONTINUOUS
370
25
 62
7
100
AcDbLine
 10
8.0
 20
-13.39207308645004
 30
0.0
 11
8.714939094624965
 21
-14.10701218107501
 31
0.0
  0
LINE
  5
6F4
330
1F
100
AcDbEntity
  8
2
  6
CONTINUOUS
370
25
 62
7
100
AcDbLine
 10
8.0
 20
-12.96780901773812
 30
0.0
 11
9.068492485218238
 21
-14.03630150295635
 31
0.0
  0
LINE
  5
6F5
330
1F
100
AcDbEntity
  8
2
  6
CONTINUOUS
370
25
 62
7
100
AcDbLine
 10
8.0
 20
-12.54354494902619
 30
0.0
 11
9.422045875811511
 21
-13.9655908248377
 31
0.0
  0
LINE
  5
6F6
330
1F
100
AcDbEntity
  8
2
  6
CONTINUOUS
370
25
 62
7
100
AcDbLine
 10
8.163398899607175
 20
-12.28267977992144
 30
0.0
 11
9.775599266404784
 21
-13.89488014671904
 31
0.0
  0
LINE
  5
6F7
330
1F
100
AcDbEntity
  8
2
  6
CONTINUOUS
370
25
 62
7
100
AcDbLine
 10
8.693728985497085
 20
-12.38874579709942
 30
0.0
 11
10.12915265699806
 21
-13.82416946860039
 31
0.0
  0
LINE
  5
6F8
330
1F
100
AcDbEntity
  8
2
  6
CONTINUOUS
370
25
 62
7
100
AcDbLine
 10
9.224059071386995
 20
-12.4948118142774
 30
0.0
 11
10.48270604759133
 21
-13.75345879048173
 31
0.0
  0
LINE
  5
6F9
330
1F
100
AcDbEntity
  8
2
  6
CONTINUOUS
370
25
 62
7
100
AcDbLine
 10
9.754389157276906
 20
-12.60087783145538
 30
0.0
 11
10.83625943818461
 21
-13.68274811236308
 31
0.0
  0
LINE
  5
6FA
330
1F
100
AcDbEntity
  8
2
  6
CONTINUOUS
370
25
 62
7
100
AcDbLine
 10
10.28471924316682
 20
-12.70694384863337
 30
0.0
 11
11.18981282877788
 21
-13.61203743424442
 31
0.0
  0
LINE
  5
6FB
330
1F
100
AcDbEntity
  8
2
  6
CONTINUOUS
370
25
 62
7
100
AcDbLine
 10
10.81504932905673
 20
-12.81300986581135
 30
0.0
 11
11.54336621937115
 21
-13.54132675612577
 31
0.0
  0
LINE
  5
6FC
330
1F
100
AcDbEntity
  8
2
  6
CONTINUOUS
370
25
 62
7
100
AcDbLine
 10
11.34537941494664
 20
-12.91907588298933
 30
0.0
 11
11.89691960996442
 21
-13.47061607800712
 31
0.0
  0
LINE
  5
6FD
330
1F
100
AcDbEntity
  8
2
  6
CONTINUOUS
370
25
 62
7
100
AcDbLine
 10
11.87570950083655
 20
-13.02514190016731
 30
0.0
 11
12.2504730005577
 21
-13.39990539988846
 31
0.0
  0
LINE
  5
6FE
330
1F
100
AcDbEntity
  8
2
  6
CONTINUOUS
370
25
 62
7
100
AcDbLine
 10
12.40603958672646
 20
-13.13120791734529
 30
0.0
 11
12.60402639115097
 21
-13.32919472176981
 31
0.0
  0
LINE
  5
6FF
330
1F
100
AcDbEntity
  8
2
  6
CONTINUOUS
370
25
 62
7
100
AcDbLine
 10
12.93636967261637
 20
-13.23727393452327
 30
0.0
 11
12.95757978174424
 21
-13.25848404365115
 31
0.0
  0
LINE
  5
700
330
1F
100
AcDbEntity
  8
2
  6
CONTINUOUS
370
25
 62
7
100
AcDbLine
 10
20.0
 20
-13.25
 30
0.0
 11
25.0
 21
-12.25
 31
0.0
  0
LINE
  5
701
330
1F
100
AcDbEntity
  8
2
  6
CONTINUOUS
370
25
 62
7
100
AcDbLine
 10
25.0
 20
-12.25
 30
0.0
 11
25.0
 21
-14.25
 31
0.0
  0
LINE
  5
702
330
1F
100
AcDbEntity
  8
2
  6
CONTINUOUS
370
25
 62
7
100
AcDbLine
 10
25.0
 20
-14.25
 30
0.0
 11
20.0
 21
-13.25
 31
0.0
  0
LINE
  5
703
330
1F
100
AcDbEntity
  8
2
  6
CONTINUOUS
370
25
 62
7
100
AcDbLine
 10
24.91500322028624
 20
-14.23300064405725
 30
0.0
 11
25.0
 21
-14.14800386434349
 31
0.0
  0
LINE
  5
704
330
1F
100
AcDbEntity
  8
2
  6
CONTINUOUS
370
25
 62
7
100
AcDbLine
 10
24.56144982969297
 20
-14.16228996593859
 30
0.0
 11
25.0
 21
-13.72373979563157
 31
0.0
  0
LINE
  5
705
330
1F
100
AcDbEntity
  8
2
  6
CONTINUOUS
370
25
 62
7
100
AcDbLine
 10
24.20789643909969
 20
-14.09157928781994
 30
0.0
 11
25.0
 21
-13.29947572691963
 31
0.0
  0
LINE
  5
706
330
1F
100
AcDbEntity
  8
2
  6
CONTINUOUS
370
25
 62
7
100
AcDbLine
 10
23.85434304850643
 20
-14.02086860970128
 30
0.0
 11
25.0
 21
-12.87521165820771
 31
0.0
  0
LINE
  5
707
330
1F
100
AcDbEntity
  8
2
  6
CONTINUOUS
370
25
 62
7
100
AcDbLine
 10
23.50078965791315
 20
-13.95015793158263
 30
0.0
 11
25.0
 21
-12.45094758949578
 31
0.0
  0
LINE
  5
708
330
1F
100
AcDbEntity
  8
2
  6
CONTINUOUS
370
25
 62
7
100
AcDbLine
 10
23.14723626731988
 20
-13.87944725346397
 30
0.0
 11
24.72085440097982
 21
-12.30582911980404
 31
0.0
  0
LINE
  5
709
330
1F
100
AcDbEntity
  8
2
  6
CONTINUOUS
370
25
 62
7
100
AcDbLine
 10
22.7936828767266
 20
-13.80873657534532
 30
0.0
 11
24.1905243150899
 21
-12.41189513698202
 31
0.0
  0
LINE
  5
70A
330
1F
100
AcDbEntity
  8
2
  6
CONTINUOUS
370
25
 62
7
100
AcDbLine
 10
22.44012948613333
 20
-13.73802589722666
 30
0.0
 11
23.66019422919999
 21
-12.51796115416
 31
0.0
  0
LINE
  5
70B
330
1F
100
AcDbEntity
  8
2
  6
CONTINUOUS
370
25
 62
7
100
AcDbLine
 10
22.08657609554005
 20
-13.66731521910801
 30
0.0
 11
23.12986414331008
 21
-12.62402717133799
 31
0.0
  0
LINE
  5
70C
330
1F
100
AcDbEntity
  8
2
  6
CONTINUOUS
370
25
 62
7
100
AcDbLine
 10
21.73302270494679
 20
-13.59660454098935
 30
0.0
 11
22.59953405742018
 21
-12.73009318851597
 31
0.0
  0
LINE
  5
70D
330
1F
100
AcDbEntity
  8
2
  6
CONTINUOUS
370
25
 62
7
100
AcDbLine
 10
21.37946931435351
 20
-13.5258938628707
 30
0.0
 11
22.06920397153026
 21
-12.83615920569395
 31
0.0
  0
LINE
  5
70E
330
1F
100
AcDbEntity
  8
2
  6
CONTINUOUS
370
25
 62
7
100
AcDbLine
 10
21.02591592376024
 20
-13.45518318475204
 30
0.0
 11
21.53887388564036
 21
-12.94222522287193
 31
0.0
  0
LINE
  5
70F
330
1F
100
AcDbEntity
  8
2
  6
CONTINUOUS
370
25
 62
7
100
AcDbLine
 10
20.67236253316696
 20
-13.38447250663339
 30
0.0
 11
21.00854379975044
 21
-13.04829124004991
 31
0.0
  0
LINE
  5
710
330
1F
100
AcDbEntity
  8
2
  6
CONTINUOUS
370
25
 62
7
100
AcDbLine
 10
20.31880914257369
 20
-13.31376182851474
 30
0.0
 11
20.47821371386054
 21
-13.15435725722789
 31
0.0
  0
LINE
  5
711
330
1F
100
AcDbEntity
  8
2
  6
CONTINUOUS
370
25
 62
7
100
AcDbLine
 10
20.03185424949245
 20
-13.24362915010151
 30
0.0
 11
20.04778137423867
 21
-13.25955627484773
 31
0.0
  0
LINE
  5
712
330
1F
100
AcDbEntity
  8
2
  6
CONTINUOUS
370
25
 62
7
100
AcDbLine
 10
20.38540764008572
 20
-13.17291847198286
 30
0.0
 11
20.57811146012858
 21
-13.36562229202572
 31
0.0
  0
LINE
  5
713
330
1F
100
AcDbEntity
  8
2
  6
CONTINUOUS
370
25
 62
7
100
AcDbLine
 10
20.738961030679
 20
-13.1022077938642
 30
0.0
 11
21.10844154601849
 21
-13.4716883092037
 31
0.0
  0
LINE
  5
714
330
1F
100
AcDbEntity
  8
2
  6
CONTINUOUS
370
25
 62
7
100
AcDbLine
 10
21.09251442127227
 20
-13.03149711574555
 30
0.0
 11
21.6387716319084
 21
-13.57775432638168
 31
0.0
  0
LINE
  5
715
330
1F
100
AcDbEntity
  8
2
  6
CONTINUOUS
370
25
 62
7
100
AcDbLine
 10
21.44606781186554
 20
-12.96078643762689
 30
0.0
 11
22.16910171779831
 21
-13.68382034355966
 31
0.0
  0
LINE
  5
716
330
1F
100
AcDbEntity
  8
2
  6
CONTINUOUS
370
25
 62
7
100
AcDbLine
 10
21.79962120245881
 20
-12.89007575950824
 30
0.0
 11
22.69943180368822
 21
-13.78988636073764
 31
0.0
  0
LINE
  5
717
330
1F
100
AcDbEntity
  8
2
  6
CONTINUOUS
370
25
 62
7
100
AcDbLine
 10
22.15317459305209
 20
-12.81936508138958
 30
0.0
 11
23.22976188957813
 21
-13.89595237791563
 31
0.0
  0
LINE
  5
718
330
1F
100
AcDbEntity
  8
2
  6
CONTINUOUS
370
25
 62
7
100
AcDbLine
 10
22.50672798364536
 20
-12.74865440327093
 30
0.0
 11
23.76009197546804
 21
-14.00201839509361
 31
0.0
  0
LINE
  5
719
330
1F
100
AcDbEntity
  8
2
  6
CONTINUOUS
370
25
 62
7
100
AcDbLine
 10
22.86028137423864
 20
-12.67794372515228
 30
0.0
 11
24.29042206135795
 21
-14.10808441227159
 31
0.0
  0
LINE
  5
71A
330
1F
100
AcDbEntity
  8
2
  6
CONTINUOUS
370
25
 62
7
100
AcDbLine
 10
23.21383476483191
 20
-12.60723304703362
 30
0.0
 11
24.82075214724786
 21
-14.21415042944957
 31
0.0
  0
LINE
  5
71B
330
1F
100
AcDbEntity
  8
2
  6
CONTINUOUS
370
25
 62
7
100
AcDbLine
 10
23.56738815542518
 20
-12.53652236891496
 30
0.0
 11
25.0
 21
-13.96913421348978
 31
0.0
  0
LINE
  5
71C
330
1F
100
AcDbEntity
  8
2
  6
CONTINUOUS
370
25
 62
7
100
AcDbLine
 10
23.92094154601845
 20
-12.46581169079631
 30
0.0
 11
25.0
 21
-13.54487014477785
 31
0.0
  0
LINE
  5
71D
330
1F
100
AcDbEntity
  8
2
  6
CONTINUOUS
370
25
 62
7
100
AcDbLine
 10
24.27449493661173
 20
-12.39510101267765
 30
0.0
 11
25.0
 21
-13.12060607606593
 31
0.0
  0
LINE
  5
71E
330
1F
100
AcDbEntity
  8
2
  6
CONTINUOUS
370
25
 62
7
100
AcDbLine
 10
24.628048327205
 20
-12.324390334559
 30
0.0
 11
25.0
 21
-12.696342007354
 31
0.0
  0
LINE
  5
71F
330
1F
100
AcDbEntity
  8
2
  6
CONTINUOUS
370
25
 62
7
100
AcDbLine
 10
24.98160171779827
 20
-12.25367965644034
 30
0.0
 11
25.0
 21
-12.27207793864207
 31
0.0
  0
TEXT
  5
720
330
1F
100
AcDbEntity
  8
2
  6
CONTINUOUS
370
25
 62
7
100
AcDbText
 10
15.33333333333333
 20
-11.75
 30
0.0
 40
3.5
  1
7
 72
     1
 11
16.5
 21
-11.75
 31
0.0
100
AcDbText
  0
LINE
  5
721
330
1F
100
AcDbEntity
  8
2
  6
CONTINUOUS
370
25
 62
7
100
AcDbLine
 10
11.0
 20
-0.68
 30
0.0
 11
11.0
 21
-34.25
 31
0.0
  0
LINE
  5
722
330
1F
100
AcDbEntity
  8
2
  6
CONTINUOUS
370
25
 62
7
100
AcDbLine
 10
20.0
 20
-34.25
 30
0.0
 11
20.0
 21
-0.6799999999999997
 31
0.0
  0
LINE
  5
723
330
1F
100
AcDbEntity
  8
2
  6
CONTINUOUS
370
25
 62
7
100
AcDbLine
 10
3.999999999999998
 20
-33.25
 30
0.0
 11
27.0
 21
-33.25
 31
0.0
  0
LINE
  5
724
330
1F
100
AcDbEntity
  8
2
  6
CONTINUOUS
370
25
 62
7
100
AcDbLine
 10
11.0
 20
-33.25
 30
0.0
 11
5.999999999999998
 21
-34.25
 31
0.0
  0
LINE
  5
725
330
1F
100
AcDbEntity
  8
2
  6
CONTINUOUS
370
25
 62
7
100
AcDbLine
 10
5.999999999999998
 20
-34.25
 30
0.0
 11
5.999999999999998
 21
-32.25
 31
0.0
  0
LINE
  5
726
330
1F
100
AcDbEntity
  8
2
  6
CONTINUOUS
370
25
 62
7
100
AcDbLine
 10
5.999999999999998
 20
-32.25
 30
0.0
 11
11.0
 21
-33.25
 31
0.0
  0
LINE
  5
727
330
1F
100
AcDbEntity
  8
2
  6
CONTINUOUS
370
25
 62
7
100
AcDbLine
 10
10.60689337030088
 20
-33.32862132593983
 30
0.0
 11
10.73792891353392
 21
-33.19758578270678
 31
0.0
  0
LINE
  5
728
330
1F
100
AcDbEntity
  8
2
  6
CONTINUOUS
370
25
 62
7
100
AcDbLine
 10
10.07656328441098
 20
-33.43468734311781
 30
0.0
 11
10.38437552294065
 21
-33.12687510458813
 31
0.0
  0
LINE
  5
729
330
1F
100
AcDbEntity
  8
2
  6
CONTINUOUS
370
25
 62
7
100
AcDbLine
 10
9.546233198521062
 20
-33.54075336029579
 30
0.0
 11
10.03082213234738
 21
-33.05616442646948
 31
0.0
  0
LINE
  5
72A
330
1F
100
AcDbEntity
  8
2
  6
CONTINUOUS
370
25
 62
7
100
AcDbLine
 10
9.015903112631145
 20
-33.64681937747378
 30
0.0
 11
9.6772687417541
 21
-32.98545374835082
 31
0.0
  0
LINE
  5
72B
330
1F
100
AcDbEntity
  8
2
  6
CONTINUOUS
370
25
 62
7
100
AcDbLine
 10
8.485573026741235
 20
-33.75288539465176
 30
0.0
 11
9.323715351160828
 21
-32.91474307023216
 31
0.0
  0
LINE
  5
72C
330
1F
100
AcDbEntity
  8
2
  6
CONTINUOUS
370
25
 62
7
100
AcDbLine
 10
7.955242940851319
 20
-33.85895141182974
 30
0.0
 11
8.970161960567552
 21
-32.84403239211351
 31
0.0
  0
LINE
  5
72D
330
1F
100
AcDbEntity
  8
2
  6
CONTINUOUS
370
25
 62
7
100
AcDbLine
 10
7.424912854961401
 20
-33.96501742900772
 30
0.0
 11
8.616608569974273
 21
-32.77332171399485
 31
0.0
  0
LINE
  5
72E
330
1F
100
AcDbEntity
  8
2
  6
CONTINUOUS
370
25
 62
7
100
AcDbLine
 10
6.894582769071492
 20
-34.0710834461857
 30
0.0
 11
8.263055179381002
 21
-32.7026110358762
 31
0.0
  0
LINE
  5
72F
330
1F
100
AcDbEntity
  8
2
  6
CONTINUOUS
370
25
 62
7
100
AcDbLine
 10
6.364252683181571
 20
-34.17714946336369
 30
0.0
 11
7.909501788787725
 21
-32.63190035775754
 31
0.0
  0
LINE
  5
730
330
1F
100
AcDbEntity
  8
2
  6
CONTINUOUS
370
25
 62
7
100
AcDbLine
 10
5.999999999999998
 20
-34.11713807783334
 30
0.0
 11
7.555948398194452
 21
-32.56118967963889
 31
0.0
  0
LINE
  5
731
330
1F
100
AcDbEntity
  8
2
  6
CONTINUOUS
370
25
 62
7
100
AcDbLine
 10
5.999999999999998
 20
-33.6928740091214
 30
0.0
 11
7.202395007601174
 21
-32.49047900152024
 31
0.0
  0
LINE
  5
732
330
1F
100
AcDbEntity
  8
2
  6
CONTINUOUS
370
25
 62
7
100
AcDbLine
 10
5.999999999999998
 20
-33.26860994040948
 30
0.0
 11
6.848841617007902
 21
-32.41976832340158
 31
0.0
  0
LINE
  5
733
330
1F
100
AcDbEntity
  8
2
  6
CONTINUOUS
370
25
 62
7
100
AcDbLine
 10
5.999999999999998
 20
-32.84434587169755
 30
0.0
 11
6.495288226414623
 21
-32.34905764528293
 31
0.0
  0
LINE
  5
734
330
1F
100
AcDbEntity
  8
2
  6
CONTINUOUS
370
25
 62
7
100
AcDbLine
 10
5.999999999999998
 20
-32.42008180298561
 30
0.0
 11
6.141734835821344
 21
-32.27834696716427
 31
0.0
  0
LINE
  5
735
330
1F
100
AcDbEntity
  8
2
  6
CONTINUOUS
370
25
 62
7
100
AcDbLine
 10
5.999999999999998
 20
-34.17886965085366
 30
0.0
 11
6.059275290955283
 21
-34.23814494180895
 31
0.0
  0
LINE
  5
736
330
1F
100
AcDbEntity
  8
2
  6
CONTINUOUS
370
25
 62
7
100
AcDbLine
 10
5.999999999999998
 20
-33.75460558214174
 30
0.0
 11
6.412828681548558
 21
-34.16743426369029
 31
0.0
  0
LINE
  5
737
330
1F
100
AcDbEntity
  8
2
  6
CONTINUOUS
370
25
 62
7
100
AcDbLine
 10
5.999999999999998
 20
-33.3303415134298
 30
0.0
 11
6.766382072141834
 21
-34.09672358557164
 31
0.0
  0
LINE
  5
738
330
1F
100
AcDbEntity
  8
2
  6
CONTINUOUS
370
25
 62
7
100
AcDbLine
 10
5.999999999999998
 20
-32.90607744471787
 30
0.0
 11
7.119935462735108
 21
-34.02601290745298
 31
0.0
  0
LINE
  5
739
330
1F
100
AcDbEntity
  8
2
  6
CONTINUOUS
370
25
 62
7
100
AcDbLine
 10
5.999999999999998
 20
-32.48181337600595
 30
0.0
 11
7.473488853328383
 21
-33.95530222933433
 31
0.0
  0
LINE
  5
73A
330
1F
100
AcDbEntity
  8
2
  6
CONTINUOUS
370
25
 62
7
100
AcDbLine
 10
6.24056336588248
 20
-32.2981126731765
 30
0.0
 11
7.827042243921658
 21
-33.88459155121567
 31
0.0
  0
LINE
  5
73B
330
1F
100
AcDbEntity
  8
2
  6
CONTINUOUS
370
25
 62
7
100
AcDbLine
 10
6.770893451772391
 20
-32.40417869035448
 30
0.0
 11
8.180595634514933
 21
-33.81388087309702
 31
0.0
  0
LINE
  5
73C
330
1F
100
AcDbEntity
  8
2
  6
CONTINUOUS
370
25
 62
7
100
AcDbLine
 10
7.301223537662305
 20
-32.51024470753246
 30
0.0
 11
8.53414902510821
 21
-33.74317019497836
 31
0.0
  0
LINE
  5
73D
330
1F
100
AcDbEntity
  8
2
  6
CONTINUOUS
370
25
 62
7
100
AcDbLine
 10
7.831553623552217
 20
-32.61631072471044
 30
0.0
 11
8.887702415701485
 21
-33.6724595168597
 31
0.0
  0
LINE
  5
73E
330
1F
100
AcDbEntity
  8
2
  6
CONTINUOUS
370
25
 62
7
100
AcDbLine
 10
8.361883709442134
 20
-32.72237674188843
 30
0.0
 11
9.241255806294761
 21
-33.60174883874105
 31
0.0
  0
LINE
  5
73F
330
1F
100
AcDbEntity
  8
2
  6
CONTINUOUS
370
25
 62
7
100
AcDbLine
 10
8.892213795332047
 20
-32.82844275906641
 30
0.0
 11
9.594809196888036
 21
-33.53103816062239
 31
0.0
  0
LINE
  5
740
330
1F
100
AcDbEntity
  8
2
  6
CONTINUOUS
370
25
 62
7
100
AcDbLine
 10
9.422543881221959
 20
-32.93450877624439
 30
0.0
 11
9.948362587481311
 21
-33.46032748250374
 31
0.0
  0
LINE
  5
741
330
1F
100
AcDbEntity
  8
2
  6
CONTINUOUS
370
25
 62
7
100
AcDbLine
 10
9.952873967111874
 20
-33.04057479342238
 30
0.0
 11
10.30191597807459
 21
-33.38961680438508
 31
0.0
  0
LINE
  5
742
330
1F
100
AcDbEntity
  8
2
  6
CONTINUOUS
370
25
 62
7
100
AcDbLine
 10
10.48320405300179
 20
-33.14664081060036
 30
0.0
 11
10.65546936866786
 21
-33.31890612626643
 31
0.0
  0
LINE
  5
743
330
1F
100
AcDbEntity
  8
2
  6
CONTINUOUS
370
25
 62
7
100
AcDbLine
 10
20.0
 20
-33.25
 30
0.0
 11
25.0
 21
-32.25
 31
0.0
  0
LINE
  5
744
330
1F
100
AcDbEntity
  8
2
  6
CONTINUOUS
370
25
 62
7
100
AcDbLine
 10
25.0
 20
-32.25
 30
0.0
 11
25.0
 21
-34.25
 31
0.0
  0
LINE
  5
745
330
1F
100
AcDbEntity
  8
2
  6
CONTINUOUS
370
25
 62
7
100
AcDbLine
 10
25.0
 20
-34.25
 30
0.0
 11
20.0
 21
-33.25
 31
0.0
  0
LINE
  5
746
330
1F
100
AcDbEntity
  8
2
  6
CONTINUOUS
370
25
 62
7
100
AcDbLine
 10
24.96466052906901
 20
-34.24293210581381
 30
0.0
 11
25.0
 21
-34.20759263488281
 31
0.0
  0
LINE
  5
747
330
1F
100
AcDbEntity
  8
2
  6
CONTINUOUS
370
25
 62
7
100
AcDbLine
 10
24.61110713847574
 20
-34.17222142769515
 30
0.0
 11
25.0
 21
-33.78332856617089
 31
0.0
  0
LINE
  5
748
330
1F
100
AcDbEntity
  8
2
  6
CONTINUOUS
370
25
 62
7
100
AcDbLine
 10
24.25755374788246
 20
-34.10151074957649
 30
0.0
 11
25.0
 21
-33.35906449745896
 31
0.0
  0
LINE
  5
749
330
1F
100
AcDbEntity
  8
2
  6
CONTINUOUS
370
25
 62
7
100
AcDbLine
 10
23.9040003572892
 20
-34.03080007145783
 30
0.0
 11
25.0
 21
-32.93480042874704
 31
0.0
  0
LINE
  5
74A
330
1F
100
AcDbEntity
  8
2
  6
CONTINUOUS
370
25
 62
7
100
AcDbLine
 10
23.55044696669592
 20
-33.96008939333919
 30
0.0
 11
25.0
 21
-32.51053636003511
 31
0.0
  0
LINE
  5
74B
330
1F
100
AcDbEntity
  8
2
  6
CONTINUOUS
370
25
 62
7
100
AcDbLine
 10
23.19689357610264
 20
-33.88937871522053
 30
0.0
 11
24.79534036415397
 21
-32.2909319271692
 31
0.0
  0
LINE
  5
74C
330
1F
100
AcDbEntity
  8
2
  6
CONTINUOUS
370
25
 62
7
100
AcDbLine
 10
22.84334018550936
 20
-33.81866803710187
 30
0.0
 11
24.26501027826406
 21
-32.39699794434719
 31
0.0
  0
LINE
  5
74D
330
1F
100
AcDbEntity
  8
2
  6
CONTINUOUS
370
25
 62
7
100
AcDbLine
 10
22.48978679491609
 20
-33.74795735898321
 30
0.0
 11
23.73468019237414
 21
-32.50306396152517
 31
0.0
  0
LINE
  5
74E
330
1F
100
AcDbEntity
  8
2
  6
CONTINUOUS
370
25
 62
7
100
AcDbLine
 10
22.13623340432282
 20
-33.67724668086456
 30
0.0
 11
23.20435010648423
 21
-32.60912997870315
 31
0.0
  0
LINE
  5
74F
330
1F
100
AcDbEntity
  8
2
  6
CONTINUOUS
370
25
 62
7
100
AcDbLine
 10
21.78268001372954
 20
-33.60653600274591
 30
0.0
 11
22.67402002059432
 21
-32.71519599588113
 31
0.0
  0
LINE
  5
750
330
1F
100
AcDbEntity
  8
2
  6
CONTINUOUS
370
25
 62
7
100
AcDbLine
 10
21.42912662313627
 20
-33.53582532462725
 30
0.0
 11
22.1436899347044
 21
-32.82126201305912
 31
0.0
  0
LINE
  5
751
330
1F
100
AcDbEntity
  8
2
  6
CONTINUOUS
370
25
 62
7
100
AcDbLine
 10
21.07557323254299
 20
-33.4651146465086
 30
0.0
 11
21.61335984881449
 21
-32.92732803023711
 31
0.0
  0
LINE
  5
752
330
1F
100
AcDbEntity
  8
2
  6
CONTINUOUS
370
25
 62
7
100
AcDbLine
 10
20.72201984194972
 20
-33.39440396838994
 30
0.0
 11
21.08302976292458
 21
-33.03339404741509
 31
0.0
  0
LINE
  5
753
330
1F
100
AcDbEntity
  8
2
  6
CONTINUOUS
370
25
 62
7
100
AcDbLine
 10
20.36846645135644
 20
-33.32369329027129
 30
0.0
 11
20.55269967703466
 21
-33.13946006459307
 31
0.0
  0
LINE
  5
754
330
1F
100
AcDbEntity
  8
2
  6
CONTINUOUS
370
25
 62
7
100
AcDbLine
 10
20.01491306076316
 20
-33.25298261215264
 30
0.0
 11
20.02236959114474
 21
-33.24552608177105
 31
0.0
  0
LINE
  5
755
330
1F
100
AcDbEntity
  8
2
  6
CONTINUOUS
370
25
 62
7
100
AcDbLine
 10
20.28600690649033
 20
-33.19279861870193
 30
0.0
 11
20.4290103597355
 21
-33.3358020719471
 31
0.0
  0
LINE
  5
756
330
1F
100
AcDbEntity
  8
2
  6
CONTINUOUS
370
25
 62
7
100
AcDbLine
 10
20.63956029708361
 20
-33.12208794058328
 30
0.0
 11
20.95934044562541
 21
-33.44186808912508
 31
0.0
  0
LINE
  5
757
330
1F
100
AcDbEntity
  8
2
  6
CONTINUOUS
370
25
 62
7
100
AcDbLine
 10
20.99311368767688
 20
-33.05137726246463
 30
0.0
 11
21.48967053151533
 21
-33.54793410630306
 31
0.0
  0
LINE
  5
758
330
1F
100
AcDbEntity
  8
2
  6
CONTINUOUS
370
25
 62
7
100
AcDbLine
 10
21.34666707827015
 20
-32.98066658434597
 30
0.0
 11
22.02000061740524
 21
-33.65400012348105
 31
0.0
  0
LINE
  5
759
330
1F
100
AcDbEntity
  8
2
  6
CONTINUOUS
370
25
 62
7
100
AcDbLine
 10
21.70022046886343
 20
-32.90995590622731
 30
0.0
 11
22.55033070329515
 21
-33.76006614065903
 31
0.0
  0
LINE
  5
75A
330
1F
100
AcDbEntity
  8
2
  6
CONTINUOUS
370
25
 62
7
100
AcDbLine
 10
22.0537738594567
 20
-32.83924522810865
 30
0.0
 11
23.08066078918507
 21
-33.86613215783701
 31
0.0
  0
LINE
  5
75B
330
1F
100
AcDbEntity
  8
2
  6
CONTINUOUS
370
25
 62
7
100
AcDbLine
 10
22.40732725004998
 20
-32.76853454999001
 30
0.0
 11
23.61099087507498
 21
-33.972198175015
 31
0.0
  0
LINE
  5
75C
330
1F
100
AcDbEntity
  8
2
  6
CONTINUOUS
370
25
 62
7
100
AcDbLine
 10
22.76088064064325
 20
-32.69782387187135
 30
0.0
 11
24.1413209609649
 21
-34.07826419219298
 31
0.0
  0
LINE
  5
75D
330
1F
100
AcDbEntity
  8
2
  6
CONTINUOUS
370
25
 62
7
100
AcDbLine
 10
23.11443403123653
 20
-32.62711319375269
 30
0.0
 11
24.67165104685481
 21
-34.18433020937097
 31
0.0
  0
LINE
  5
75E
330
1F
100
AcDbEntity
  8
2
  6
CONTINUOUS
370
25
 62
7
100
AcDbLine
 10
23.46798742182981
 20
-32.55640251563404
 30
0.0
 11
25.0
 21
-34.08841509380422
 31
0.0
  0
LINE
  5
75F
330
1F
100
AcDbEntity
  8
2
  6
CONTINUOUS
370
25
 62
7
100
AcDbLine
 10
23.82154081242308
 20
-32.48569183751539
 30
0.0
 11
25.0
 21
-33.66415102509229
 31
0.0
  0
LINE
  5
760
330
1F
100
AcDbEntity
  8
2
  6
CONTINUOUS
370
25
 62
7
100
AcDbLine
 10
24.17509420301636
 20
-32.41498115939673
 30
0.0
 11
25.0
 21
-33.23988695638036
 31
0.0
  0
LINE
  5
761
330
1F
100
AcDbEntity
  8
2
  6
CONTINUOUS
370
25
 62
7
100
AcDbLine
 10
24.52864759360963
 20
-32.34427048127807
 30
0.0
 11
25.0
 21
-32.81562288766844
 31
0.0
  0
LINE
  5
762
330
1F
100
AcDbEntity
  8
2
  6
CONTINUOUS
370
25
 62
7
100
AcDbLine
 10
24.88220098420291
 20
-32.27355980315942
 30
0.0
 11
25.0
 21
-32.3913588189565
 31
0.0
  0
TEXT
  5
763
330
1F
100
AcDbEntity
  8
2
  6
CONTINUOUS
370
25
 62
7
100
AcDbText
 10
14.33333333333333
 20
-31.75
 30
0.0
 40
3.5
  1
9
 72
     1
 11
15.5
 21
-31.75
 31
0.0
100
AcDbText
  0
LINE
  5
764
330
1F
100
AcDbEntity
  8
SK2
  6
CONTINUOUS
370
25
 62
7
100
AcDbLine
 10
-20.0
 20
0.57
 30
0.0
 11
-20.0
 21
32.25
 31
0.0
  0
LINE
  5
765
330
1F
100
AcDbEntity
  8
SK2
  6
CONTINUOUS
370
25
 62
7
100
AcDbLine
 10
20.0
 20
32.25
 30
0.0
 11
20.0
 21
1.25
 31
0.0
  0
LINE
  5
766
330
1F
100
AcDbEntity
  8
SK2
  6
CONTINUOUS
370
25
 62
7
100
AcDbLine
 10
-20.0
 20
31.25
 30
0.0
 11
20.0
 21
31.25
 31
0.0
  0
LINE
  5
767
330
1F
100
AcDbEntity
  8
SK2
  6
CONTINUOUS
370
25
 62
7
100
AcDbLine
 10
-20.0
 20
31.25
 30
0.0
 11
-15.0
 21
32.25
 31
0.0
  0
LINE
  5
768
330
1F
100
AcDbEntity
  8
SK2
  6
CONTINUOUS
370
25
 62
7
100
AcDbLine
 10
-15.0
 20
32.25
 30
0.0
 11
-15.0
 21
30.25
 31
0.0
  0
LINE
  5
769
330
1F
100
AcDbEntity
  8
SK2
  6
CONTINUOUS
370
25
 62
7
100
AcDbLine
 10
-15.0
 20
30.25
 30
0.0
 11
-20.0
 21
31.25
 31
0.0
  0
LINE
  5
76A
330
1F
100
AcDbEntity
  8
SK2
  6
CONTINUOUS
370
25
 62
7
100
AcDbLine
 10
-15.12187946014694
 20
30.27437589202939
 30
0.0
 11
-15.0
 21
30.39625535217634
 31
0.0
  0
LINE
  5
76B
330
1F
100
AcDbEntity
  8
SK2
  6
CONTINUOUS
370
25
 62
7
100
AcDbLine
 10
-15.47543285074022
 20
30.34508657014804
 30
0.0
 11
-15.0
 21
30.82051942088827
 31
0.0
  0
LINE
  5
76C
330
1F
100
AcDbEntity
  8
SK2
  6
CONTINUOUS
370
25
 62
7
100
AcDbLine
 10
-15.82898624133349
 20
30.4157972482667
 30
0.0
 11
-15.0
 21
31.2447834896002
 31
0.0
  0
LINE
  5
76D
330
1F
100
AcDbEntity
  8
SK2
  6
CONTINUOUS
370
25
 62
7
100
AcDbLine
 10
-16.18253963192677
 20
30.48650792638535
 30
0.0
 11
-15.0
 21
31.66904755831212
 31
0.0
  0
LINE
  5
76E
330
1F
100
AcDbEntity
  8
SK2
  6
CONTINUOUS
370
25
 62
7
100
AcDbLine
 10
-16.53609302252005
 20
30.55721860450401
 30
0.0
 11
-15.0
 21
32.09331162702406
 31
0.0
  0
LINE
  5
76F
330
1F
100
AcDbEntity
  8
SK2
  6
CONTINUOUS
370
25
 62
7
100
AcDbLine
 10
-16.88964641311332
 20
30.62792928262266
 30
0.0
 11
-15.33446961966997
 21
32.183106076066
 31
0.0
  0
LINE
  5
770
330
1F
100
AcDbEntity
  8
SK2
  6
CONTINUOUS
370
25
 62
7
100
AcDbLine
 10
-17.24319980370659
 20
30.69863996074132
 30
0.0
 11
-15.86479970555989
 21
32.07704005888802
 31
0.0
  0
LINE
  5
771
330
1F
100
AcDbEntity
  8
SK2
  6
CONTINUOUS
370
25
 62
7
100
AcDbLine
 10
-17.59675319429987
 20
30.76935063885998
 30
0.0
 11
-16.39512979144981
 21
31.97097404171004
 31
0.0
  0
LINE
  5
772
330
1F
100
AcDbEntity
  8
SK2
  6
CONTINUOUS
370
25
 62
7
100
AcDbLine
 10
-17.95030658489314
 20
30.84006131697863
 30
0.0
 11
-16.92545987733972
 21
31.86490802453206
 31
0.0
  0
LINE
  5
773
330
1F
100
AcDbEntity
  8
SK2
  6
CONTINUOUS
370
25
 62
7
100
AcDbLine
 10
-18.30385997548641
 20
30.91077199509729
 30
0.0
 11
-17.45578996322963
 21
31.75884200735407
 31
0.0
  0
LINE
  5
774
330
1F
100
AcDbEntity
  8
SK2
  6
CONTINUOUS
370
25
 62
7
100
AcDbLine
 10
-18.65741336607969
 20
30.98148267321594
 30
0.0
 11
-17.98612004911953
 21
31.6527759901761
 31
0.0
  0
LINE
  5
775
330
1F
100
AcDbEntity
  8
SK2
  6
CONTINUOUS
370
25
 62
7
100
AcDbLine
 10
-19.01096675667296
 20
31.05219335133459
 30
0.0
 11
-18.51645013500945
 21
31.54670997299811
 31
0.0
  0
LINE
  5
776
330
1F
100
AcDbEntity
  8
SK2
  6
CONTINUOUS
370
25
 62
7
100
AcDbLine
 10
-19.36452014726624
 20
31.12290402945325
 30
0.0
 11
-19.04678022089936
 21
31.44064395582013
 31
0.0
  0
LINE
  5
777
330
1F
100
AcDbEntity
  8
SK2
  6
CONTINUOUS
370
25
 62
7
100
AcDbLine
 10
-19.71807353785951
 20
31.1936147075719
 30
0.0
 11
-19.57711030678927
 21
31.33457793864215
 31
0.0
  0
LINE
  5
778
330
1F
100
AcDbEntity
  8
SK2
  6
CONTINUOUS
370
25
 62
7
100
AcDbLine
 10
-19.82905845398171
 20
31.28418830920366
 30
0.0
 11
-19.74358768097256
 21
31.19871753619451
 31
0.0
  0
LINE
  5
779
330
1F
100
AcDbEntity
  8
SK2
  6
CONTINUOUS
370
25
 62
7
100
AcDbLine
 10
-19.47550506338843
 20
31.35489898732231
 30
0.0
 11
-19.21325759508265
 21
31.09265151901653
 31
0.0
  0
LINE
  5
77A
330
1F
100
AcDbEntity
  8
SK2
  6
CONTINUOUS
370
25
 62
7
100
AcDbLine
 10
-19.12195167279516
 20
31.42560966544097
 30
0.0
 11
-18.68292750919273
 21
30.98658550183854
 31
0.0
  0
LINE
  5
77B
330
1F
100
AcDbEntity
  8
SK2
  6
CONTINUOUS
370
25
 62
7
100
AcDbLine
 10
-18.76839828220188
 20
31.49632034355962
 30
0.0
 11
-18.15259742330283
 21
30.88051948466056
 31
0.0
  0
LINE
  5
77C
330
1F
100
AcDbEntity
  8
SK2
  6
CONTINUOUS
370
25
 62
7
100
AcDbLine
 10
-18.41484489160861
 20
31.56703102167828
 30
0.0
 11
-17.62226733741291
 21
30.77445346748258
 31
0.0
  0
LINE
  5
77D
330
1F
100
AcDbEntity
  8
SK2
  6
CONTINUOUS
370
25
 62
7
100
AcDbLine
 10
-18.06129150101533
 20
31.63774169979693
 30
0.0
 11
-17.091937251523
 21
30.6683874503046
 31
0.0
  0
LINE
  5
77E
330
1F
100
AcDbEntity
  8
SK2
  6
CONTINUOUS
370
25
 62
7
100
AcDbLine
 10
-17.70773811042206
 20
31.70845237791559
 30
0.0
 11
-16.5616071656331
 21
30.56232143312662
 31
0.0
  0
LINE
  5
77F
330
1F
100
AcDbEntity
  8
SK2
  6
CONTINUOUS
370
25
 62
7
100
AcDbLine
 10
-17.35418471982879
 20
31.77916305603424
 30
0.0
 11
-16.03127707974318
 21
30.45625541594864
 31
0.0
  0
LINE
  5
780
330
1F
100
AcDbEntity
  8
SK2
  6
CONTINUOUS
370
25
 62
7
100
AcDbLine
 10
-17.00063132923551
 20
31.8498737341529
 30
0.0
 11
-15.50094699385327
 21
30.35018939877065
 31
0.0
  0
LINE
  5
781
330
1F
100
AcDbEntity
  8
SK2
  6
CONTINUOUS
370
25
 62
7
100
AcDbLine
 10
-16.64707793864224
 20
31.92058441227155
 30
0.0
 11
-15.0
 21
30.2735064736293
 31
0.0
  0
LINE
  5
782
330
1F
100
AcDbEntity
  8
SK2
  6
CONTINUOUS
370
25
 62
7
100
AcDbLine
 10
-16.29352454804896
 20
31.99129509039021
 30
0.0
 11
-15.0
 21
30.69777054234123
 31
0.0
  0
LINE
  5
783
330
1F
100
AcDbEntity
  8
SK2
  6
CONTINUOUS
370
25
 62
7
100
AcDbLine
 10
-15.93997115745569
 20
32.06200576850886
 30
0.0
 11
-15.0
 21
31.12203461105317
 31
0.0
  0
LINE
  5
784
330
1F
100
AcDbEntity
  8
SK2
  6
CONTINUOUS
370
25
 62
7
100
AcDbLine
 10
-15.58641776686241
 20
32.13271644662752
 30
0.0
 11
-15.0
 21
31.54629867976509
 31
0.0
  0
LINE
  5
785
330
1F
100
AcDbEntity
  8
SK2
  6
CONTINUOUS
370
25
 62
7
100
AcDbLine
 10
-15.23286437626914
 20
32.20342712474617
 30
0.0
 11
-15.0
 21
31.97056274847702
 31
0.0
  0
LINE
  5
786
330
1F
100
AcDbEntity
  8
SK2
  6
CONTINUOUS
370
25
 62
7
100
AcDbLine
 10
20.0
 20
31.25
 30
0.0
 11
15.0
 21
30.25
 31
0.0
  0
LINE
  5
787
330
1F
100
AcDbEntity
  8
SK2
  6
CONTINUOUS
370
25
 62
7
100
AcDbLine
 10
15.0
 20
30.25
 30
0.0
 11
15.0
 21
32.25
 31
0.0
  0
LINE
  5
788
330
1F
100
AcDbEntity
  8
SK2
  6
CONTINUOUS
370
25
 62
7
100
AcDbLine
 10
15.0
 20
32.25
 30
0.0
 11
20.0
 21
31.25
 31
0.0
  0
LINE
  5
789
330
1F
100
AcDbEntity
  8
SK2
  6
CONTINUOUS
370
25
 62
7
100
AcDbLine
 10
19.7435876809724
 20
31.19871753619448
 30
0.0
 11
19.8290584539816
 21
31.28418830920368
 31
0.0
  0
LINE
  5
78A
330
1F
100
AcDbEntity
  8
SK2
  6
CONTINUOUS
370
25
 62
7
100
AcDbLine
 10
19.21325759508249
 20
31.0926515190165
 30
0.0
 11
19.47550506338833
 21
31.35489898732234
 31
0.0
  0
LINE
  5
78B
330
1F
100
AcDbEntity
  8
SK2
  6
CONTINUOUS
370
25
 62
7
100
AcDbLine
 10
18.68292750919258
 20
30.98658550183852
 30
0.0
 11
19.12195167279505
 21
31.42560966544099
 31
0.0
  0
LINE
  5
78C
330
1F
100
AcDbEntity
  8
SK2
  6
CONTINUOUS
370
25
 62
7
100
AcDbLine
 10
18.15259742330267
 20
30.88051948466054
 30
0.0
 11
18.76839828220178
 21
31.49632034355965
 31
0.0
  0
LINE
  5
78D
330
1F
100
AcDbEntity
  8
SK2
  6
CONTINUOUS
370
25
 62
7
100
AcDbLine
 10
17.62226733741276
 20
30.77445346748255
 30
0.0
 11
18.41484489160851
 21
31.5670310216783
 31
0.0
  0
LINE
  5
78E
330
1F
100
AcDbEntity
  8
SK2
  6
CONTINUOUS
370
25
 62
7
100
AcDbLine
 10
17.09193725152285
 20
30.66838745030457
 30
0.0
 11
18.06129150101523
 21
31.63774169979695
 31
0.0
  0
LINE
  5
78F
330
1F
100
AcDbEntity
  8
SK2
  6
CONTINUOUS
370
25
 62
7
100
AcDbLine
 10
16.56160716563294
 20
30.56232143312659
 30
0.0
 11
17.70773811042196
 21
31.70845237791561
 31
0.0
  0
LINE
  5
790
330
1F
100
AcDbEntity
  8
SK2
  6
CONTINUOUS
370
25
 62
7
100
AcDbLine
 10
16.03127707974303
 20
30.4562554159486
 30
0.0
 11
17.35418471982868
 21
31.77916305603427
 31
0.0
  0
LINE
  5
791
330
1F
100
AcDbEntity
  8
SK2
  6
CONTINUOUS
370
25
 62
7
100
AcDbLine
 10
15.50094699385312
 20
30.35018939877062
 30
0.0
 11
17.00063132923541
 21
31.84987373415292
 31
0.0
  0
LINE
  5
792
330
1F
100
AcDbEntity
  8
SK2
  6
CONTINUOUS
370
25
 62
7
100
AcDbLine
 10
15.0
 20
30.27350647362944
 30
0.0
 11
16.64707793864213
 21
31.92058441227157
 31
0.0
  0
LINE
  5
793
330
1F
100
AcDbEntity
  8
SK2
  6
CONTINUOUS
370
25
 62
7
100
AcDbLine
 10
15.0
 20
30.69777054234137
 30
0.0
 11
16.29352454804886
 21
31.99129509039023
 31
0.0
  0
LINE
  5
794
330
1F
100
AcDbEntity
  8
SK2
  6
CONTINUOUS
370
25
 62
7
100
AcDbLine
 10
15.0
 20
31.12203461105329
 30
0.0
 11
15.93997115745559
 21
32.06200576850888
 31
0.0
  0
LINE
  5
795
330
1F
100
AcDbEntity
  8
SK2
  6
CONTINUOUS
370
25
 62
7
100
AcDbLine
 10
15.0
 20
31.54629867976523
 30
0.0
 11
15.58641776686231
 21
32.13271644662754
 31
0.0
  0
LINE
  5
796
330
1F
100
AcDbEntity
  8
SK2
  6
CONTINUOUS
370
25
 62
7
100
AcDbLine
 10
15.0
 20
31.97056274847716
 30
0.0
 11
15.23286437626904
 21
32.20342712474619
 31
0.0
  0
LINE
  5
797
330
1F
100
AcDbEntity
  8
SK2
  6
CONTINUOUS
370
25
 62
7
100
AcDbLine
 10
15.0
 20
30.39625535217634
 30
0.0
 11
15.12187946014695
 21
30.27437589202939
 31
0.0
  0
LINE
  5
798
330
1F
100
AcDbEntity
  8
SK2
  6
CONTINUOUS
370
25
 62
7
100
AcDbLine
 10
15.0
 20
30.82051942088826
 30
0.0
 11
15.47543285074022
 21
30.34508657014804
 31
0.0
  0
LINE
  5
799
330
1F
100
AcDbEntity
  8
SK2
  6
CONTINUOUS
370
25
 62
7
100
AcDbLine
 10
15.0
 20
31.2447834896002
 30
0.0
 11
15.8289862413335
 21
30.4157972482667
 31
0.0
  0
LINE
  5
79A
330
1F
100
AcDbEntity
  8
SK2
  6
CONTINUOUS
370
25
 62
7
100
AcDbLine
 10
15.0
 20
31.66904755831212
 30
0.0
 11
16.18253963192677
 21
30.48650792638535
 31
0.0
  0
LINE
  5
79B
330
1F
100
AcDbEntity
  8
SK2
  6
CONTINUOUS
370
25
 62
7
100
AcDbLine
 10
15.0
 20
32.09331162702405
 30
0.0
 11
16.53609302252005
 21
30.55721860450401
 31
0.0
  0
LINE
  5
79C
330
1F
100
AcDbEntity
  8
SK2
  6
CONTINUOUS
370
25
 62
7
100
AcDbLine
 10
15.33446961966998
 20
32.183106076066
 30
0.0
 11
16.88964641311332
 21
30.62792928262266
 31
0.0
  0
LINE
  5
79D
330
1F
100
AcDbEntity
  8
SK2
  6
CONTINUOUS
370
25
 62
7
100
AcDbLine
 10
15.86479970555989
 20
32.07704005888802
 30
0.0
 11
17.24319980370659
 21
30.69863996074132
 31
0.0
  0
LINE
  5
79E
330
1F
100
AcDbEntity
  8
SK2
  6
CONTINUOUS
370
25
 62
7
100
AcDbLine
 10
16.39512979144981
 20
31.97097404171004
 30
0.0
 11
17.59675319429987
 21
30.76935063885997
 31
0.0
  0
LINE
  5
79F
330
1F
100
AcDbEntity
  8
SK2
  6
CONTINUOUS
370
25
 62
7
100
AcDbLine
 10
16.92545987733972
 20
31.86490802453206
 30
0.0
 11
17.95030658489314
 21
30.84006131697863
 31
0.0
  0
LINE
  5
7A0
330
1F
100
AcDbEntity
  8
SK2
  6
CONTINUOUS
370
25
 62
7
100
AcDbLine
 10
17.45578996322963
 20
31.75884200735408
 30
0.0
 11
18.30385997548642
 21
30.91077199509729
 31
0.0
  0
LINE
  5
7A1
330
1F
100
AcDbEntity
  8
SK2
  6
CONTINUOUS
370
25
 62
7
100
AcDbLine
 10
17.98612004911954
 20
31.65277599017609
 30
0.0
 11
18.65741336607969
 21
30.98148267321594
 31
0.0
  0
LINE
  5
7A2
330
1F
100
AcDbEntity
  8
SK2
  6
CONTINUOUS
370
25
 62
7
100
AcDbLine
 10
18.51645013500945
 20
31.54670997299811
 30
0.0
 11
19.01096675667296
 21
31.05219335133459
 31
0.0
  0
LINE
  5
7A3
330
1F
100
AcDbEntity
  8
SK2
  6
CONTINUOUS
370
25
 62
7
100
AcDbLine
 10
19.04678022089935
 20
31.44064395582013
 30
0.0
 11
19.36452014726623
 21
31.12290402945325
 31
0.0
  0
LINE
  5
7A4
330
1F
100
AcDbEntity
  8
SK2
  6
CONTINUOUS
370
25
 62
7
100
AcDbLine
 10
19.57711030678927
 20
31.33457793864215
 30
0.0
 11
19.71807353785951
 21
31.1936147075719
 31
0.0
  0
TEXT
  5
7A5
330
1F
100
AcDbEntity
  8
SK2
  6
CONTINUOUS
370
25
 62
7
100
AcDbText
 10
-2.625
 20
32.75
 30
0.0
 40
3.5
  1
40
 72
     1
 11
0.0
 21
32.75
 31
0.0
100
AcDbText
  0
LINE
  5
7A6
330
1F
100
AcDbEntity
  8
4
  6
LONGDASH_DASH
370
25
 62
2
100
AcDbLine
 10
0.0
 20
0.0
 30
0.0
 11
20.0
 21
0.0
 31
0.0
  0
LINE
  5
7A7
330
1F
100
AcDbEntity
  8
SK4
  6
LONGDASH_DASH
370
25
 62
2
100
AcDbLine
 10
-26.0
 20
0.0
 30
0.0
 11
26.0
 21
0.0
 31
0.0
  0
LINE
  5
7A8
330
1F
100
AcDbEntity
  8
2
  6
CONTINUOUS
370
25
 62
7
100
AcDbLine
 10
0.0
 20
1.25
 30
0.0
 11
0.0000000000000008
 21
14.25
 31
0.0
  0
LINE
  5
7A9
330
1F
100
AcDbEntity
  8
2
  6
CONTINUOUS
370
25
 62
7
100
AcDbLine
 10
20.0
 20
14.25
 30
0.0
 11
20.0
 21
0.5700000000000003
 31
0.0
  0
LINE
  5
7AA
330
1F
100
AcDbEntity
  8
2
  6
CONTINUOUS
370
25
 62
7
100
AcDbLine
 10
0.0
 20
13.25
 30
0.0
 11
20.0
 21
13.25
 31
0.0
  0
LINE
  5
7AB
330
1F
100
AcDbEntity
  8
2
  6
CONTINUOUS
370
25
 62
7
100
AcDbLine
 10
0.0
 20
13.25
 30
0.0
 11
5.0
 21
14.25
 31
0.0
  0
LINE
  5
7AC
330
1F
100
AcDbEntity
  8
2
  6
CONTINUOUS
370
25
 62
7
100
AcDbLine
 10
5.0
 20
14.25
 30
0.0
 11
5.0
 21
12.25
 31
0.0
  0
LINE
  5
7AD
330
1F
100
AcDbEntity
  8
2
  6
CONTINUOUS
370
25
 62
7
100
AcDbLine
 10
5.0
 20
12.25
 30
0.0
 11
0.0
 21
13.25
 31
0.0
  0
LINE
  5
7AE
330
1F
100
AcDbEntity
  8
2
  6
CONTINUOUS
370
25
 62
7
100
AcDbLine
 10
4.677705635987741
 20
12.31445887280245
 30
0.0
 11
5.0
 21
12.63675323681471
 31
0.0
  0
LINE
  5
7AF
330
1F
100
AcDbEntity
  8
2
  6
CONTINUOUS
370
25
 62
7
100
AcDbLine
 10
4.324152245394467
 20
12.38516955092111
 30
0.0
 11
5.0
 21
13.06101730552664
 31
0.0
  0
LINE
  5
7B0
330
1F
100
AcDbEntity
  8
2
  6
CONTINUOUS
370
25
 62
7
100
AcDbLine
 10
3.970598854801195
 20
12.45588022903976
 30
0.0
 11
5.0
 21
13.48528137423857
 31
0.0
  0
LINE
  5
7B1
330
1F
100
AcDbEntity
  8
2
  6
CONTINUOUS
370
25
 62
7
100
AcDbLine
 10
3.617045464207922
 20
12.52659090715841
 30
0.0
 11
5.0
 21
13.90954544295049
 31
0.0
  0
LINE
  5
7B2
330
1F
100
AcDbEntity
  8
2
  6
CONTINUOUS
370
25
 62
7
100
AcDbLine
 10
3.263492073614649
 20
12.59730158527707
 30
0.0
 11
4.895238110421975
 21
14.22904762208439
 31
0.0
  0
LINE
  5
7B3
330
1F
100
AcDbEntity
  8
2
  6
CONTINUOUS
370
25
 62
7
100
AcDbLine
 10
2.909938683021374
 20
12.66801226339572
 30
0.0
 11
4.364908024532062
 21
14.12298160490641
 31
0.0
  0
LINE
  5
7B4
330
1F
100
AcDbEntity
  8
2
  6
CONTINUOUS
370
25
 62
7
100
AcDbLine
 10
2.556385292428101
 20
12.73872294151438
 30
0.0
 11
3.834577938642153
 21
14.01691558772843
 31
0.0
  0
LINE
  5
7B5
330
1F
100
AcDbEntity
  8
2
  6
CONTINUOUS
370
25
 62
7
100
AcDbLine
 10
2.20283190183483
 20
12.80943361963303
 30
0.0
 11
3.304247852752246
 21
13.91084957055045
 31
0.0
  0
LINE
  5
7B6
330
1F
100
AcDbEntity
  8
2
  6
CONTINUOUS
370
25
 62
7
100
AcDbLine
 10
1.849278511241555
 20
12.88014429775169
 30
0.0
 11
2.773917766862334
 21
13.80478355337247
 31
0.0
  0
LINE
  5
7B7
330
1F
100
AcDbEntity
  8
2
  6
CONTINUOUS
370
25
 62
7
100
AcDbLine
 10
1.495725120648282
 20
12.95085497587034
 30
0.0
 11
2.243587680972423
 21
13.69871753619448
 31
0.0
  0
LINE
  5
7B8
330
1F
100
AcDbEntity
  8
2
  6
CONTINUOUS
370
25
 62
7
100
AcDbLine
 10
1.142171730055008
 20
13.021565653989
 30
0.0
 11
1.713257595082513
 21
13.5926515190165
 31
0.0
  0
LINE
  5
7B9
330
1F
100
AcDbEntity
  8
2
  6
CONTINUOUS
370
25
 62
7
100
AcDbLine
 10
0.788618339461735
 20
13.09227633210765
 30
0.0
 11
1.182927509192603
 21
13.48658550183852
 31
0.0
  0
LINE
  5
7BA
330
1F
100
AcDbEntity
  8
2
  6
CONTINUOUS
370
25
 62
7
100
AcDbLine
 10
0.4350649488684618
 20
13.16298701022631
 30
0.0
 11
0.652597423302693
 21
13.38051948466054
 31
0.0
  0
LINE
  5
7BB
330
1F
100
AcDbEntity
  8
2
  6
CONTINUOUS
370
25
 62
7
100
AcDbLine
 10
0.0815115582751884
 20
13.23369768834496
 30
0.0
 11
0.1222673374127827
 21
13.27445346748256
 31
0.0
  0
LINE
  5
7BC
330
1F
100
AcDbEntity
  8
2
  6
CONTINUOUS
370
25
 62
7
100
AcDbLine
 10
0.2720418323180909
 20
13.30440836646362
 30
0.0
 11
0.4080627484771365
 21
13.16838745030457
 31
0.0
  0
LINE
  5
7BD
330
1F
100
AcDbEntity
  8
2
  6
CONTINUOUS
370
25
 62
7
100
AcDbLine
 10
0.6255952229113659
 20
13.37511904458227
 30
0.0
 11
0.9383928343670493
 21
13.06232143312659
 31
0.0
  0
LINE
  5
7BE
330
1F
100
AcDbEntity
  8
2
  6
CONTINUOUS
370
25
 62
7
100
AcDbLine
 10
0.9791486135046396
 20
13.44582972270093
 30
0.0
 11
1.46872292025696
 21
12.95625541594861
 31
0.0
  0
LINE
  5
7BF
330
1F
100
AcDbEntity
  8
2
  6
CONTINUOUS
370
25
 62
7
100
AcDbLine
 10
1.332702004097913
 20
13.51654040081958
 30
0.0
 11
1.999053006146871
 21
12.85018939877063
 31
0.0
  0
LINE
  5
7C0
330
1F
100
AcDbEntity
  8
2
  6
CONTINUOUS
370
25
 62
7
100
AcDbLine
 10
1.686255394691187
 20
13.58725107893824
 30
0.0
 11
2.529383092036781
 21
12.74412338159264
 31
0.0
  0
LINE
  5
7C1
330
1F
100
AcDbEntity
  8
2
  6
CONTINUOUS
370
25
 62
7
100
AcDbLine
 10
2.03980878528446
 20
13.65796175705689
 30
0.0
 11
3.059713177926691
 21
12.63805736441466
 31
0.0
  0
LINE
  5
7C2
330
1F
100
AcDbEntity
  8
2
  6
CONTINUOUS
370
25
 62
7
100
AcDbLine
 10
2.393362175877733
 20
13.72867243517555
 30
0.0
 11
3.590043263816602
 21
12.53199134723668
 31
0.0
  0
LINE
  5
7C3
330
1F
100
AcDbEntity
  8
2
  6
CONTINUOUS
370
25
 62
7
100
AcDbLine
 10
2.746915566471007
 20
13.7993831132942
 30
0.0
 11
4.120373349706512
 21
12.4259253300587
 31
0.0
  0
LINE
  5
7C4
330
1F
100
AcDbEntity
  8
2
  6
CONTINUOUS
370
25
 62
7
100
AcDbLine
 10
3.10046895706428
 20
13.87009379141286
 30
0.0
 11
4.650703435596422
 21
12.31985931288072
 31
0.0
  0
LINE
  5
7C5
330
1F
100
AcDbEntity
  8
2
  6
CONTINUOUS
370
25
 62
7
100
AcDbLine
 10
3.454022347657554
 20
13.94080446953151
 30
0.0
 11
5.0
 21
12.39482681718907
 31
0.0
  0
LINE
  5
7C6
330
1F
100
AcDbEntity
  8
2
  6
CONTINUOUS
370
25
 62
7
100
AcDbLine
 10
3.807575738250827
 20
14.01151514765017
 30
0.0
 11
5.0
 21
12.81909088590099
 31
0.0
  0
LINE
  5
7C7
330
1F
100
AcDbEntity
  8
2
  6
CONTINUOUS
370
25
 62
7
100
AcDbLine
 10
4.161129128844101
 20
14.08222582576882
 30
0.0
 11
5.0
 21
13.24335495461292
 31
0.0
  0
LINE
  5
7C8
330
1F
100
AcDbEntity
  8
2
  6
CONTINUOUS
370
25
 62
7
100
AcDbLine
 10
4.514682519437374
 20
14.15293650388747
 30
0.0
 11
5.0
 21
13.66761902332485
 31
0.0
  0
LINE
  5
7C9
330
1F
100
AcDbEntity
  8
2
  6
CONTINUOUS
370
25
 62
7
100
AcDbLine
 10
4.868235910030648
 20
14.22364718200613
 30
0.0
 11
5.0
 21
14.09188309203678
 31
0.0
  0
LINE
  5
7CA
330
1F
100
AcDbEntity
  8
2
  6
CONTINUOUS
370
25
 62
7
100
AcDbLine
 10
20.0
 20
13.25
 30
0.0
 11
15.0
 21
12.25
 31
0.0
  0
LINE
  5
7CB
330
1F
100
AcDbEntity
  8
2
  6
CONTINUOUS
370
25
 62
7
100
AcDbLine
 10
15.0
 20
12.25
 30
0.0
 11
15.0
 21
14.25
 31
0.0
  0
LINE
  5
7CC
330
1F
100
AcDbEntity
  8
2
  6
CONTINUOUS
370
25
 62
7
100
AcDbLine
 10
15.0
 20
14.25
 30
0.0
 11
20.0
 21
13.25
 31
0.0
  0
LINE
  5
7CD
330
1F
100
AcDbEntity
  8
2
  6
CONTINUOUS
370
25
 62
7
100
AcDbLine
 10
19.93127101450296
 20
13.23625420290059
 30
0.0
 11
19.95418067633531
 21
13.25916386473294
 31
0.0
  0
LINE
  5
7CE
330
1F
100
AcDbEntity
  8
2
  6
CONTINUOUS
370
25
 62
7
100
AcDbLine
 10
19.40094092861305
 20
13.13018818572261
 30
0.0
 11
19.60062728574204
 21
13.3298745428516
 31
0.0
  0
LINE
  5
7CF
330
1F
100
AcDbEntity
  8
2
  6
CONTINUOUS
370
25
 62
7
100
AcDbLine
 10
18.87061084272314
 20
13.02412216854463
 30
0.0
 11
19.24707389514876
 21
13.40058522097025
 31
0.0
  0
LINE
  5
7D0
330
1F
100
AcDbEntity
  8
2
  6
CONTINUOUS
370
25
 62
7
100
AcDbLine
 10
18.34028075683323
 20
12.91805615136665
 30
0.0
 11
18.89352050455549
 21
13.47129589908891
 31
0.0
  0
LINE
  5
7D1
330
1F
100
AcDbEntity
  8
2
  6
CONTINUOUS
370
25
 62
7
100
AcDbLine
 10
17.80995067094332
 20
12.81199013418866
 30
0.0
 11
18.53996711396222
 21
13.54200657720756
 31
0.0
  0
LINE
  5
7D2
330
1F
100
AcDbEntity
  8
2
  6
CONTINUOUS
370
25
 62
7
100
AcDbLine
 10
17.27962058505341
 20
12.70592411701068
 30
0.0
 11
18.18641372336894
 21
13.61271725532622
 31
0.0
  0
LINE
  5
7D3
330
1F
100
AcDbEntity
  8
2
  6
CONTINUOUS
370
25
 62
7
100
AcDbLine
 10
16.7492904991635
 20
12.5998580998327
 30
0.0
 11
17.83286033277567
 21
13.68342793344487
 31
0.0
  0
LINE
  5
7D4
330
1F
100
AcDbEntity
  8
2
  6
CONTINUOUS
370
25
 62
7
100
AcDbLine
 10
16.21896041327359
 20
12.49379208265472
 30
0.0
 11
17.4793069421824
 21
13.75413861156352
 31
0.0
  0
LINE
  5
7D5
330
1F
100
AcDbEntity
  8
2
  6
CONTINUOUS
370
25
 62
7
100
AcDbLine
 10
15.68863032738368
 20
12.38772606547674
 30
0.0
 11
17.12575355158912
 21
13.82484928968218
 31
0.0
  0
LINE
  5
7D6
330
1F
100
AcDbEntity
  8
2
  6
CONTINUOUS
370
25
 62
7
100
AcDbLine
 10
15.15830024149377
 20
12.28166004829875
 30
0.0
 11
16.77220016099585
 21
13.89555996780083
 31
0.0
  0
LINE
  5
7D7
330
1F
100
AcDbEntity
  8
2
  6
CONTINUOUS
370
25
 62
7
100
AcDbLine
 10
15.0
 20
12.54762387551691
 30
0.0
 11
16.41864677040258
 21
13.96627064591949
 31
0.0
  0
LINE
  5
7D8
330
1F
100
AcDbEntity
  8
2
  6
CONTINUOUS
370
25
 62
7
100
AcDbLine
 10
15.0
 20
12.97188794422884
 30
0.0
 11
16.0650933798093
 21
14.03698132403814
 31
0.0
  0
LINE
  5
7D9
330
1F
100
AcDbEntity
  8
2
  6
CONTINUOUS
370
25
 62
7
100
AcDbLine
 10
15.0
 20
13.39615201294076
 30
0.0
 11
15.71153998921603
 21
14.10769200215679
 31
0.0
  0
LINE
  5
7DA
330
1F
100
AcDbEntity
  8
2
  6
CONTINUOUS
370
25
 62
7
100
AcDbLine
 10
15.0
 20
13.82041608165269
 30
0.0
 11
15.35798659862276
 21
14.17840268027545
 31
0.0
  0
LINE
  5
7DB
330
1F
100
AcDbEntity
  8
2
  6
CONTINUOUS
370
25
 62
7
100
AcDbLine
 10
15.0
 20
14.24468015036462
 30
0.0
 11
15.00443320802948
 21
14.2491133583941
 31
0.0
  0
LINE
  5
7DC
330
1F
100
AcDbEntity
  8
2
  6
CONTINUOUS
370
25
 62
7
100
AcDbLine
 10
15.0
 20
12.57716446627535
 30
0.0
 11
15.27263705522946
 21
12.30452741104589
 31
0.0
  0
LINE
  5
7DD
330
1F
100
AcDbEntity
  8
2
  6
CONTINUOUS
370
25
 62
7
100
AcDbLine
 10
15.0
 20
13.00142853498728
 30
0.0
 11
15.62619044582273
 21
12.37523808916455
 31
0.0
  0
LINE
  5
7DE
330
1F
100
AcDbEntity
  8
2
  6
CONTINUOUS
370
25
 62
7
100
AcDbLine
 10
15.0
 20
13.42569260369921
 30
0.0
 11
15.97974383641601
 21
12.4459487672832
 31
0.0
  0
LINE
  5
7DF
330
1F
100
AcDbEntity
  8
2
  6
CONTINUOUS
370
25
 62
7
100
AcDbLine
 10
15.0
 20
13.84995667241113
 30
0.0
 11
16.33329722700928
 21
12.51665944540186
 31
0.0
  0
LINE
  5
7E0
330
1F
100
AcDbEntity
  8
2
  6
CONTINUOUS
370
25
 62
7
100
AcDbLine
 10
15.03027592640383
 20
14.24394481471923
 30
0.0
 11
16.68685061760255
 21
12.58737012352051
 31
0.0
  0
LINE
  5
7E1
330
1F
100
AcDbEntity
  8
2
  6
CONTINUOUS
370
25
 62
7
100
AcDbLine
 10
15.56060601229374
 20
14.13787879754125
 30
0.0
 11
17.04040400819583
 21
12.65808080163917
 31
0.0
  0
LINE
  5
7E2
330
1F
100
AcDbEntity
  8
2
  6
CONTINUOUS
370
25
 62
7
100
AcDbLine
 10
16.09093609818365
 20
14.03181278036327
 30
0.0
 11
17.3939573987891
 21
12.72879147975782
 31
0.0
  0
LINE
  5
7E3
330
1F
100
AcDbEntity
  8
2
  6
CONTINUOUS
370
25
 62
7
100
AcDbLine
 10
16.62126618407356
 20
13.92574676318529
 30
0.0
 11
17.74751078938237
 21
12.79950215787647
 31
0.0
  0
LINE
  5
7E4
330
1F
100
AcDbEntity
  8
2
  6
CONTINUOUS
370
25
 62
7
100
AcDbLine
 10
17.15159626996347
 20
13.8196807460073
 30
0.0
 11
18.10106417997564
 21
12.87021283599513
 31
0.0
  0
LINE
  5
7E5
330
1F
100
AcDbEntity
  8
2
  6
CONTINUOUS
370
25
 62
7
100
AcDbLine
 10
17.68192635585338
 20
13.71361472882932
 30
0.0
 11
18.45461757056892
 21
12.94092351411378
 31
0.0
  0
LINE
  5
7E6
330
1F
100
AcDbEntity
  8
2
  6
CONTINUOUS
370
25
 62
7
100
AcDbLine
 10
18.21225644174329
 20
13.60754871165134
 30
0.0
 11
18.80817096116219
 21
13.01163419223244
 31
0.0
  0
LINE
  5
7E7
330
1F
100
AcDbEntity
  8
2
  6
CONTINUOUS
370
25
 62
7
100
AcDbLine
 10
18.7425865276332
 20
13.50148269447336
 30
0.0
 11
19.16172435175547
 21
13.08234487035109
 31
0.0
  0
LINE
  5
7E8
330
1F
100
AcDbEntity
  8
2
  6
CONTINUOUS
370
25
 62
7
100
AcDbLine
 10
19.27291661352311
 20
13.39541667729538
 30
0.0
 11
19.51527774234874
 21
13.15305554846975
 31
0.0
  0
LINE
  5
7E9
330
1F
100
AcDbEntity
  8
2
  6
CONTINUOUS
370
25
 62
7
100
AcDbLine
 10
19.80324669941302
 20
13.2893506601174
 30
0.0
 11
19.86883113294201
 21
13.22376622658841
 31
0.0
  0
TEXT
  5
7EA
330
1F
100
AcDbEntity
  8
2
  6
CONTINUOUS
370
25
 62
7
100
AcDbText
 10
7.375
 20
14.75
 30
0.0
 40
3.5
  1
20
 72
     1
 11
10.0
 21
14.75
 31
0.0
100
AcDbText
  0
LINE
  5
7EB
330
1F
100
AcDbEntity
  8
SK1
  6
CONTINUOUS
370
50
 62
4
100
AcDbLine
 10
0.0
 20
0.0
 30
0.0
 11
2.5
 21
0.0
 31
0.0
  0
LINE
  5
7EC
330
1F
100
AcDbEntity
  8
SK1
  6
CONTINUOUS
370
50
 62
4
100
AcDbLine
 10
0.0
 20
0.0
 30
0.0
 11
0.0
 21
2.5
 31
0.0
  0
ARC
  5
7ED
330
1F
100
AcDbEntity
  8
SK1
  6
CONTINUOUS
370
50
 62
4
100
AcDbCircle
 10
0.0
 20
0.0
 30
0.0
 40
2.5
100
AcDbArc
 50
0.0
 51
90.0
  0
LINE
  5
7EE
330
1F
100
AcDbEntity
  8
SK1
  6
CONTINUOUS
370
50
 62
4
100
AcDbLine
 10
0.0
 20
0.0
 30
0.0
 11
-2.5
 21
0.0
 31
0.0
  0
ARC
  5
7EF
330
1F
100
AcDbEntity
  8
SK1
  6
CONTINUOUS
370
50
 62
4
100
AcDbCircle
 10
0.0
 20
0.0
 30
0.0
 40
2.5
100
AcDbArc
 50
180.0
 51
270.0
  0
LINE
  5
7F0
330
1F
100
AcDbEntity
  8
SK1
  6
CONTINUOUS
370
50
 62
4
100
AcDbLine
 10
0.0
 20
-2.5
 30
0.0
 11
0.0
 21
0.0
 31
0.0
  0
ARC
  5
7F1
330
1F
100
AcDbEntity
  8
SK1
  6
CONTINUOUS
370
50
 62
4
100
AcDbCircle
 10
0.0
 20
0.0
 30
0.0
 40
2.5
100
AcDbArc
 50
270.0
 51
0.0
  0
ARC
  5
7F2
330
1F
100
AcDbEntity
  8
SK1
  6
CONTINUOUS
370
50
 62
4
100
AcDbCircle
 10
0.0
 20
0.0
 30
0.0
 40
2.5
100
AcDbArc
 50
90.0
 51
180.0
  0
LINE
  5
7F3
330
1F
100
AcDbEntity
  8
SK1
  6
CONTINUOUS
370
50
 62
4
100
AcDbLine
 10
-0.31832627443191
 20
-2.479495909600069
 30
0.0
 11
0.0
 21
-2.161169635168159
 31
0.0
  0
LINE
  5
7F4
330
1F
100
AcDbEntity
  8
SK1
  6
CONTINUOUS
370
50
 62
4
100
AcDbLine
 10
2.16116963516816
 20
0.0
 30
0.0
 11
2.479495909600069
 21
0.3183262744319091
 31
0.0
  0
LINE
  5
7F5
330
1F
100
AcDbEntity
  8
SK1
  6
CONTINUOUS
370
50
 62
4
100
AcDbLine
 10
-0.615281817185723
 20
-2.422898061760609
 30
0.0
 11
0.0
 21
-1.807616244574886
 31
0.0
  0
LINE
  5
7F6
330
1F
100
AcDbEntity
  8
SK1
  6
CONTINUOUS
370
50
 62
4
100
AcDbLine
 10
1.807616244574887
 20
0.0
 30
0.0
 11
2.422898061760609
 21
0.6152818171857222
 31
0.0
  0
LINE
  5
7F7
330
1F
100
AcDbEntity
  8
SK1
  6
CONTINUOUS
370
50
 62
4
100
AcDbLine
 10
-0.8835965231639721
 20
-2.337659377145585
 30
0.0
 11
0.0
 21
-1.454062853981614
 31
0.0
  0
LINE
  5
7F8
330
1F
100
AcDbEntity
  8
SK1
  6
CONTINUOUS
370
50
 62
4
100
AcDbLine
 10
1.454062853981615
 20
0.0
 30
0.0
 11
2.337659377145586
 21
0.8835965231639715
 31
0.0
  0
LINE
  5
7F9
330
1F
100
AcDbEntity
  8
SK1
  6
CONTINUOUS
370
50
 62
4
100
AcDbLine
 10
-1.128779664263143
 20
-2.229289127651483
 30
0.0
 11
0.0
 21
-1.100509463388341
 31
0.0
  0
LINE
  5
7FA
330
1F
100
AcDbEntity
  8
SK1
  6
CONTINUOUS
370
50
 62
4
100
AcDbLine
 10
1.100509463388341
 20
0.0
 30
0.0
 11
2.229289127651484
 21
1.128779664263142
 31
0.0
  0
LINE
  5
7FB
330
1F
100
AcDbEntity
  8
SK1
  6
CONTINUOUS
370
50
 62
4
100
AcDbLine
 10
-1.354032791010379
 20
-2.100988863805446
 30
0.0
 11
0.0
 21
-0.7469560727950677
 31
0.0
  0
LINE
  5
7FC
330
1F
100
AcDbEntity
  8
SK1
  6
CONTINUOUS
370
50
 62
4
100
AcDbLine
 10
0.746956072795068
 20
0.0
 30
0.0
 11
2.100988863805446
 21
1.354032791010378
 31
0.0
  0
LINE
  5
7FD
330
1F
100
AcDbEntity
  8
SK1
  6
CONTINUOUS
370
50
 62
4
100
AcDbLine
 10
-1.559387394659872
 20
-1.952790076861666
 30
0.0
 11
0.0
 21
-0.3934026822017946
 31
0.0
  0
LINE
  5
7FE
330
1F
100
AcDbEntity
  8
SK1
  6
CONTINUOUS
370
50
 62
4
100
AcDbLine
 10
0.3934026822017948
 20
0.0
 30
0.0
 11
1.952790076861667
 21
1.559387394659871
 31
0.0
  0
LINE
  5
7FF
330
1F
100
AcDbEntity
  8
SK1
  6
CONTINUOUS
370
50
 62
4
100
AcDbLine
 10
-1.746970020883365
 20
-1.786819312491886
 30
0.0
 11
0.0
 21
-0.0398492916085216
 31
0.0
  0
LINE
  5
800
330
1F
100
AcDbEntity
  8
SK1
  6
CONTINUOUS
370
50
 62
4
100
AcDbLine
 10
0.0398492916085216
 20
0.0
 30
0.0
 11
1.786819312491887
 21
1.746970020883364
 31
0.0
  0
LINE
  5
801
330
1F
100
AcDbEntity
  8
SK1
  6
CONTINUOUS
370
50
 62
4
100
AcDbLine
 10
-1.917371878232655
 20
-1.603667779247902
 30
0.0
 11
-0.3137040989847517
 21
0.0
 31
0.0
  0
LINE
  5
802
330
1F
100
AcDbEntity
  8
SK1
  6
CONTINUOUS
370
50
 62
4
100
AcDbLine
 10
0.0
 20
0.3137040989847515
 30
0.0
 11
1.603667779247903
 21
1.917371878232654
 31
0.0
  0
LINE
  5
803
330
1F
100
AcDbEntity
  8
SK1
  6
CONTINUOUS
370
50
 62
4
100
AcDbLine
 10
-2.068741231122433
 20
-1.401483741544407
 30
0.0
 11
-0.6672574895780249
 21
0.0
 31
0.0
  0
LINE
  5
804
330
1F
100
AcDbEntity
  8
SK1
  6
CONTINUOUS
370
50
 62
4
100
AcDbLine
 10
0.0
 20
0.6672574895780246
 30
0.0
 11
1.401483741544409
 21
2.068741231122432
 31
0.0
  0
LINE
  5
805
330
1F
100
AcDbEntity
  8
SK1
  6
CONTINUOUS
370
50
 62
4
100
AcDbLine
 10
-2.2023876557675
 20
-1.181576775596201
 30
0.0
 11
-1.020810880171298
 21
0.0
 31
0.0
  0
LINE
  5
806
330
1F
100
AcDbEntity
  8
SK1
  6
CONTINUOUS
370
50
 62
4
100
AcDbLine
 10
0.0
 20
1.020810880171298
 30
0.0
 11
1.181576775596202
 21
2.202387655767499
 31
0.0
  0
LINE
  5
807
330
1F
100
AcDbEntity
  8
SK1
  6
CONTINUOUS
370
50
 62
4
100
AcDbLine
 10
-2.315450943493525
 20
-0.9410866727289533
 30
0.0
 11
-1.374364270764571
 21
0.0
 31
0.0
  0
LINE
  5
808
330
1F
100
AcDbEntity
  8
SK1
  6
CONTINUOUS
370
50
 62
4
100
AcDbLine
 10
0.0
 20
1.374364270764571
 30
0.0
 11
0.9410866727289543
 21
2.315450943493524
 31
0.0
  0
LINE
  5
809
330
1F
100
AcDbEntity
  8
SK1
  6
CONTINUOUS
370
50
 62
4
100
AcDbLine
 10
-2.405290600131854
 20
-0.6773729387740097
 30
0.0
 11
-1.727917661357844
 21
0.0
 31
0.0
  0
LINE
  5
80A
330
1F
100
AcDbEntity
  8
SK1
  6
CONTINUOUS
370
50
 62
4
100
AcDbLine
 10
0.0
 20
1.727917661357844
 30
0.0
 11
0.6773729387740106
 21
2.405290600131854
 31
0.0
  0
LINE
  5
80B
330
1F
100
AcDbEntity
  8
SK1
  6
CONTINUOUS
370
50
 62
4
100
AcDbLine
 10
-2.468598823056026
 20
-0.3871277711049084
 30
0.0
 11
-2.081471051951118
 21
0.0
 31
0.0
  0
LINE
  5
80C
330
1F
100
AcDbEntity
  8
SK1
  6
CONTINUOUS
370
50
 62
4
100
AcDbLine
 10
0.0
 20
2.081471051951117
 30
0.0
 11
0.3871277711049085
 21
2.468598823056025
 31
0.0
  0
LINE
  5
80D
330
1F
100
AcDbEntity
  8
SK1
  6
CONTINUOUS
370
50
 62
4
100
AcDbLine
 10
-2.498020276172772
 20
-0.0629958336283822
 30
0.0
 11
-2.43502444254439
 21
0.0
 31
0.0
  0
LINE
  5
80E
330
1F
100
AcDbEntity
  8
SK1
  6
CONTINUOUS
370
50
 62
4
100
AcDbLine
 10
0.0
 20
2.435024442544389
 30
0.0
 11
0.0629958336283828
 21
2.498020276172772
 31
0.0
  0
LINE
  5
80F
330
1F
100
AcDbEntity
  8
SK1
  6
CONTINUOUS
370
50
 62
4
100
AcDbLine
 10
-2.337336523620827
 20
-0.8844932833271533
 30
0.0
 11
-0.8844932833271509
 21
-2.337336523620827
 31
0.0
  0
LINE
  5
810
330
1F
100
AcDbEntity
  8
SK1
  6
CONTINUOUS
370
50
 62
4
100
AcDbLine
 10
-2.466237059966593
 20
-0.4020393563881135
 30
0.0
 11
-0.4020393563881111
 21
-2.466237059966594
 31
0.0
  0
LINE
  5
811
330
1F
100
AcDbEntity
  8
SK1
  6
CONTINUOUS
370
50
 62
4
100
AcDbLine
 10
-2.499522297881596
 20
-0.0152007278798383
 30
0.0
 11
-0.0152007278798351
 21
-2.499522297881596
 31
0.0
  0
LINE
  5
812
330
1F
100
AcDbEntity
  8
SK1
  6
CONTINUOUS
370
50
 62
4
100
AcDbLine
 10
-2.16116963516816
 20
0.0
 30
0.0
 11
0.0
 21
-2.161169635168158
 31
0.0
  0
LINE
  5
813
330
1F
100
AcDbEntity
  8
SK1
  6
CONTINUOUS
370
50
 62
4
100
AcDbLine
 10
-1.807616244574888
 20
0.0
 30
0.0
 11
0.0
 21
-1.807616244574886
 31
0.0
  0
LINE
  5
814
330
1F
100
AcDbEntity
  8
SK1
  6
CONTINUOUS
370
50
 62
4
100
AcDbLine
 10
-1.454062853981615
 20
0.0
 30
0.0
 11
0.0
 21
-1.454062853981613
 31
0.0
  0
LINE
  5
815
330
1F
100
AcDbEntity
  8
SK1
  6
CONTINUOUS
370
50
 62
4
100
AcDbLine
 10
-1.100509463388341
 20
0.0
 30
0.0
 11
0.0
 21
-1.10050946338834
 31
0.0
  0
LINE
  5
816
330
1F
100
AcDbEntity
  8
SK1
  6
CONTINUOUS
370
50
 62
4
100
AcDbLine
 10
-0.7469560727950676
 20
0.0
 30
0.0
 11
0.0
 21
-0.7469560727950668
 31
0.0
  0
LINE
  5
817
330
1F
100
AcDbEntity
  8
SK1
  6
CONTINUOUS
370
50
 62
4
100
AcDbLine
 10
-0.3934026822017942
 20
0.0
 30
0.0
 11
0.0
 21
-0.3934026822017938
 31
0.0
  0
LINE
  5
818
330
1F
100
AcDbEntity
  8
SK1
  6
CONTINUOUS
370
50
 62
4
100
AcDbLine
 10
-0.0398492916085216
 20
0.0
 30
0.0
 11
0.0
 21
-0.0398492916085216
 31
0.0
  0
LINE
  5
819
330
1F
100
AcDbEntity
  8
SK1
  6
CONTINUOUS
370
50
 62
4
100
AcDbLine
 10
0.0
 20
0.3137040989847515
 30
0.0
 11
0.3137040989847518
 21
0.0
 31
0.0
  0
LINE
  5
81A
330
1F
100
AcDbEntity
  8
SK1
  6
CONTINUOUS
370
50
 62
4
100
AcDbLine
 10
0.0
 20
0.6672574895780246
 30
0.0
 11
0.6672574895780253
 21
0.0
 31
0.0
  0
LINE
  5
81B
330
1F
100
AcDbEntity
  8
SK1
  6
CONTINUOUS
370
50
 62
4
100
AcDbLine
 10
0.0
 20
1.020810880171298
 30
0.0
 11
1.020810880171299
 21
0.0
 31
0.0
  0
LINE
  5
81C
330
1F
100
AcDbEntity
  8
SK1
  6
CONTINUOUS
370
50
 62
4
100
AcDbLine
 10
0.0
 20
1.37436427076457
 30
0.0
 11
1.374364270764571
 21
0.0
 31
0.0
  0
LINE
  5
81D
330
1F
100
AcDbEntity
  8
SK1
  6
CONTINUOUS
370
50
 62
4
100
AcDbLine
 10
0.0
 20
1.727917661357843
 30
0.0
 11
1.727917661357845
 21
0.0
 31
0.0
  0
LINE
  5
81E
330
1F
100
AcDbEntity
  8
SK1
  6
CONTINUOUS
370
50
 62
4
100
AcDbLine
 10
0.0
 20
2.081471051951116
 30
0.0
 11
2.081471051951118
 21
0.0
 31
0.0
  0
LINE
  5
81F
330
1F
100
AcDbEntity
  8
SK1
  6
CONTINUOUS
370
50
 62
4
100
AcDbLine
 10
0.0
 20
2.435024442544389
 30
0.0
 11
2.435024442544392
 21
0.0
 31
0.0
  0
LINE
  5
820
330
1F
100
AcDbEntity
  8
SK1
  6
CONTINUOUS
370
50
 62
4
100
AcDbLine
 10
0.3077647139123103
 20
2.480813119225352
 30
0.0
 11
2.480813119225352
 21
0.307764713912313
 31
0.0
  0
LINE
  5
821
330
1F
100
AcDbEntity
  8
SK1
  6
CONTINUOUS
370
50
 62
4
100
AcDbLine
 10
0.7611924397506667
 20
2.380938783980268
 30
0.0
 11
2.380938783980268
 21
0.7611924397506691
 31
0.0
  0
LINE
  5
822
330
1F
100
AcDbEntity
  8
SK1
  6
CONTINUOUS
370
50
 62
4
100
AcDbLine
 10
1.48586376213526
 20
2.009820852188948
 30
0.0
 11
2.009820852188946
 21
1.485863762135263
 31
0.0
  0
ENDSEC
  0
SECTION
  2
OBJECTS
  0
DICTIONARY
  5
C
330
0
100
AcDbDictionary
281
     1
  3
ACAD_GROUP
350
D
  3
ACAD_LAYOUT
350
1A
  3
ACAD_MATERIAL
350
3B
  3
ACAD_MLEADERSTYLE
350
825
  3
ACAD_MLINESTYLE
350
17
  3
ACAD_PLOTSETTINGS
350
19
  3
ACAD_PLOTSTYLENAME
350
E
  3
ACAD_SCALELIST
350
1AF
  3
ACAD_VISUALSTYLE
350
2A
  3
AcDbVariableDictionary
350
823
  0
DICTIONARY
  5
D
102
{ACAD_REACTORS
330
C
102
}
330
C
100
AcDbDictionary
281
     1
  0
DICTIONARY
  5
1A
102
{ACAD_REACTORS
330
C
102
}
330
C
100
AcDbDictionary
281
     1
  3
Layout1
350
1E
  3
Layout2
350
26
  3
Model
350
22
  0
DICTIONARY
  5
3B
102
{ACAD_REACTORS
330
C
102
}
330
C
100
AcDbDictionary
281
     1
  3
ByBlock
350
3D
  3
ByLayer
350
3C
  3
Global
350
3E
  0
DICTIONARY
  5
825
102
{ACAD_REACTORS
330
C
102
}
330
C
100
AcDbDictionary
281
     1
  0
DICTIONARY
  5
17
102
{ACAD_REACTORS
330
C
102
}
330
C
100
AcDbDictionary
281
     1
  3
Standard
350
18
  0
DICTIONARY
  5
19
102
{ACAD_REACTORS
330
C
102
}
330
C
100
AcDbDictionary
281
     1
  0
ACDBDICTIONARYWDFLT
  5
E
102
{ACAD_REACTORS
330
C
102
}
330
C
100
AcDbDictionary
281
     1
  3
Normal
350
F
100
AcDbDictionaryWithDefault
340
F
  0
DICTIONARY
  5
1AF
102
{ACAD_REACTORS
330
C
102
}
330
C
100
AcDbDictionary
281
     1
  3
A0
350
1B0
  3
A1
350
1B1
  3
A2
350
1B2
  3
A3
350
1B3
  3
A4
350
1B4
  3
A5
350
1B5
  3
A6
350
1B6
  3
A7
350
1B7
  3
A8
350
1B8
  3
A9
350
1B9
  3
B0
350
1BA
  3
B1
350
1BB
  3
B2
350
1BC
  3
B3
350
1BD
  3
B4
350
1BE
  3
B5
350
1BF
  3
B6
350
1C0
  3
B7
350
1C1
  3
B8
350
1C2
  3
B9
350
1C3
  3
C0
350
1C4
  3
C1
350
1C5
  3
C2
350
1C6
  3
C3
350
1C7
  3
C4
350
1C8
  3
C5
350
1C9
  3
C6
350
1CA
  3
C7
350
1CB
  3
C8
350
1CC
  3
C9
350
1CD
  3
D0
350
1CE
  3
D1
350
1CF
  3
D2
350
1D0
  0
DICTIONARY
  5
2A
102
{ACAD_REACTORS
330
C
102
}
330
C
100
AcDbDictionary
281
     1
  3
2dWireframe
350
2F
  3
3D Hidden
350
31
  3
3dWireframe
350
30
  3
Basic
350
32
  3
Brighten
350
36
  3
ColorChange
350
3A
  3
Conceptual
350
34
  3
Dim
350
35
  3
Facepattern
350
39
  3
Flat
350
2B
  3
FlatWithEdges
350
2C
  3
Gouraud
350
2D
  3
GouraudWithEdges
350
2E
  3
Linepattern
350
38
  3
Realistic
350
33
  3
Thicken
350
37
  0
DICTIONARY
  5
823
102
{ACAD_REACTORS
330
C
102
}
330
C
100
AcDbDictionary
281
     1
  3
CANNOSCALE
350
828
  3
DIMASSOC
350
829
  3
HIDETEXT
350
82A
  3
PSOLHEIGHT
350
827
  3
PSOLWIDTH
350
826
  0
LAYOUT
  5
1E
102
{ACAD_REACTORS
330
1A
102
}
330
1A
100
AcDbPlotSettings
  1

  2
none_device
  4

  6

 40
0.0
 41
0.0
 42
0.0
 43
0.0
 44
0.0
 45
0.0
 46
0.0
 47
0.0
 48
0.0
 49
0.0
140
0.0
141
0.0
142
1.0
143
1.0
 70
   688
 72
     0
 73
     0
 74
     5
  7

 75
    16
147
1.0
148
0.0
149
0.0
100
AcDbLayout
  1
Layout1
 70
     1
 71
     1
 10
0.0
 20
0.0
 11
420.0
 21
297.0
 12
0.0
 22
0.0
 32
0.0
 14
1.000000000000000E+20
 24
1.000000000000000E+20
 34
1.000000000000000E+20
 15
-1.000000000000000E+20
 25
-1.000000000000000E+20
 35
-1.000000000000000E+20
146
0.0
 13
0.0
 23
0.0
 33
0.0
 16
1.0
 26
0.0
 36
0.0
 17
0.0
 27
1.0
 37
0.0
 76
     0
330
1B
  0
LAYOUT
  5
26
102
{ACAD_REACTORS
330
1A
102
}
330
1A
100
AcDbPlotSettings
  1

  2
none_device
  4

  6

 40
0.0
 41
0.0
 42
0.0
 43
0.0
 44
0.0
 45
0.0
 46
0.0
 47
0.0
 48
0.0
 49
0.0
140
0.0
141
0.0
142
1.0
143
1.0
 70
   688
 72
     0
 73
     0
 74
     5
  7

 75
    16
147
1.0
148
0.0
149
0.0
100
AcDbLayout
  1
Layout2
 70
     1
 71
     2
 10
0.0
 20
0.0
 11
0.0
 21
0.0
 12
0.0
 22
0.0
 32
0.0
 14
0.0
 24
0.0
 34
0.0
 15
0.0
 25
0.0
 35
0.0
146
0.0
 13
0.0
 23
0.0
 33
0.0
 16
1.0
 26
0.0
 36
0.0
 17
0.0
 27
1.0
 37
0.0
 76
     0
330
23
  0
LAYOUT
  5
22
102
{ACAD_REACTORS
330
1A
102
}
330
1A
100
AcDbPlotSettings
  1

  2
none_device
  4

  6

 40
0.0
 41
0.0
 42
0.0
 43
0.0
 44
0.0
 45
0.0
 46
0.0
 47
0.0
 48
0.0
 49
0.0
140
0.0
141
0.0
142
1.0
143
1.0
 70
  1712
 72
     0
 73
     0
 74
     0
  7

 75
     0
147
1.0
148
0.0
149
0.0
100
AcDbLayout
  1
Model
 70
     1
 71
     0
 10
0.0
 20
0.0
 11
420.0
 21
297.0
 12
0.0
 22
0.0
 32
0.0
 14
0.0
 24
0.0
 34
0.0
 15
25.0
 25
35.0
 35
0.0
146
0.0
 13
0.0
 23
0.0
 33
0.0
 16
1.0
 26
0.0
 36
0.0
 17
0.0
 27
1.0
 37
0.0
 76
     0
330
1F
331
29
  0
MATERIAL
  5
3D
102
{ACAD_REACTORS
330
3B
102
}
102
{ACAD_XDICTIONARY
360
84D
102
}
330
3B
100
AcDbMaterial
  1
ByBlock
  0
MATERIAL
  5
3C
102
{ACAD_REACTORS
330
3B
102
}
102
{ACAD_XDICTIONARY
360
84B
102
}
330
3B
100
AcDbMaterial
  1
ByLayer
  0
MATERIAL
  5
3E
102
{ACAD_REACTORS
330
3B
102
}
102
{ACAD_XDICTIONARY
360
84F
102
}
330
3B
100
AcDbMaterial
  1
Global
  0
MLINESTYLE
  5
18
102
{ACAD_REACTORS
330
17
102
}
330
17
100
AcDbMlineStyle
  2
Standard
 70
     0
  3

 62
   256
 51
90.0
 52
90.0
 71
     2
 49
0.5
 62
   256
  6
BYLAYER
 49
-0.5
 62
   256
  6
BYLAYER
  0
ACDBPLACEHOLDER
  5
F
102
{ACAD_REACTORS
330
E
102
}
330
E
  0
SCALE
  5
1B0
102
{ACAD_REACTORS
330
1AF
102
}
330
1AF
100
AcDbScale
 70
     0
300
1:1
140
1.0
141
1.0
290
     1
  0
SCALE
  5
1B1
102
{ACAD_REACTORS
330
1AF
102
}
330
1AF
100
AcDbScale
 70
     0
300
1:2
140
1.0
141
2.0
290
     0
  0
SCALE
  5
1B2
102
{ACAD_REACTORS
330
1AF
102
}
330
1AF
100
AcDbScale
 70
     0
300
1:4
140
1.0
141
4.0
290
     0
  0
SCALE
  5
1B3
102
{ACAD_REACTORS
330
1AF
102
}
330
1AF
100
AcDbScale
 70
     0
300
1:5
140
1.0
141
5.0
290
     0
  0
SCALE
  5
1B4
102
{ACAD_REACTORS
330
1AF
102
}
330
1AF
100
AcDbScale
 70
     0
300
1:8
140
1.0
141
8.0
290
     0
  0
SCALE
  5
1B5
102
{ACAD_REACTORS
330
1AF
102
}
330
1AF
100
AcDbScale
 70
     0
300
1:10
140
1.0
141
10.0
290
     0
  0
SCALE
  5
1B6
102
{ACAD_REACTORS
330
1AF
102
}
330
1AF
100
AcDbScale
 70
     0
300
1:16
140
1.0
141
16.0
290
     0
  0
SCALE
  5
1B7
102
{ACAD_REACTORS
330
1AF
102
}
330
1AF
100
AcDbScale
 70
     0
300
1:20
140
1.0
141
20.0
290
     0
  0
SCALE
  5
1B8
102
{ACAD_REACTORS
330
1AF
102
}
330
1AF
100
AcDbScale
 70
     0
300
1:30
140
1.0
141
30.0
290
     0
  0
SCALE
  5
1B9
102
{ACAD_REACTORS
330
1AF
102
}
330
1AF
100
AcDbScale
 70
     0
300
1:40
140
1.0
141
40.0
290
     0
  0
SCALE
  5
1BA
102
{ACAD_REACTORS
330
1AF
102
}
330
1AF
100
AcDbScale
 70
     0
300
1:50
140
1.0
141
50.0
290
     0
  0
SCALE
  5
1BB
102
{ACAD_REACTORS
330
1AF
102
}
330
1AF
100
AcDbScale
 70
     0
300
1:100
140
1.0
141
100.0
290
     0
  0
SCALE
  5
1BC
102
{ACAD_REACTORS
330
1AF
102
}
330
1AF
100
AcDbScale
 70
     0
300
2:1
140
2.0
141
1.0
290
     0
  0
SCALE
  5
1BD
102
{ACAD_REACTORS
330
1AF
102
}
330
1AF
100
AcDbScale
 70
     0
300
4:1
140
4.0
141
1.0
290
     0
  0
SCALE
  5
1BE
102
{ACAD_REACTORS
330
1AF
102
}
330
1AF
100
AcDbScale
 70
     0
300
8:1
140
8.0
141
1.0
290
     0
  0
SCALE
  5
1BF
102
{ACAD_REACTORS
330
1AF
102
}
330
1AF
100
AcDbScale
 70
     0
300
10:1
140
10.0
141
1.0
290
     0
  0
SCALE
  5
1C0
102
{ACAD_REACTORS
330
1AF
102
}
330
1AF
100
AcDbScale
 70
     0
300
100:1
140
100.0
141
1.0
290
     0
  0
SCALE
  5
1C1
102
{ACAD_REACTORS
330
1AF
102
}
330
1AF
100
AcDbScale
 70
     0
300
1/128" = 1'-0"
140
0.0078125
141
12.0
290
     0
  0
SCALE
  5
1C2
102
{ACAD_REACTORS
330
1AF
102
}
330
1AF
100
AcDbScale
 70
     0
300
1/64" = 1'-0"
140
0.015625
141
12.0
290
     0
  0
SCALE
  5
1C3
102
{ACAD_REACTORS
330
1AF
102
}
330
1AF
100
AcDbScale
 70
     0
300
1/32" = 1'-0"
140
0.03125
141
12.0
290
     0
  0
SCALE
  5
1C4
102
{ACAD_REACTORS
330
1AF
102
}
330
1AF
100
AcDbScale
 70
     0
300
1/16" = 1'-0"
140
0.0625
141
12.0
290
     0
  0
SCALE
  5
1C5
102
{ACAD_REACTORS
330
1AF
102
}
330
1AF
100
AcDbScale
 70
     0
300
3/32" = 1'-0"
140
0.09375
141
12.0
290
     0
  0
SCALE
  5
1C6
102
{ACAD_REACTORS
330
1AF
102
}
330
1AF
100
AcDbScale
 70
     0
300
1/8" = 1'-0"
140
0.125
141
12.0
290
     0
  0
SCALE
  5
1C7
102
{ACAD_REACTORS
330
1AF
102
}
330
1AF
100
AcDbScale
 70
     0
300
3/16" = 1'-0"
140
0.1875
141
12.0
290
     0
  0
SCALE
  5
1C8
102
{ACAD_REACTORS
330
1AF
102
}
330
1AF
100
AcDbScale
 70
     0
300
1/4" = 1'-0"
140
0.25
141
12.0
290
     0
  0
SCALE
  5
1C9
102
{ACAD_REACTORS
330
1AF
102
}
330
1AF
100
AcDbScale
 70
     0
300
3/8" = 1'-0"
140
0.375
141
12.0
290
     0
  0
SCALE
  5
1CA
102
{ACAD_REACTORS
330
1AF
102
}
330
1AF
100
AcDbScale
 70
     0
300
1/2" = 1'-0"
140
0.5
141
12.0
290
     0
  0
SCALE
  5
1CB
102
{ACAD_REACTORS
330
1AF
102
}
330
1AF
100
AcDbScale
 70
     0
300
3/4" = 1'-0"
140
0.75
141
12.0
290
     0
  0
SCALE
  5
1CC
102
{ACAD_REACTORS
330
1AF
102
}
330
1AF
100
AcDbScale
 70
     0
300
1" = 1'-0"
140
1.0
141
12.0
290
     0
  0
SCALE
  5
1CD
102
{ACAD_REACTORS
330
1AF
102
}
330
1AF
100
AcDbScale
 70
     0
300
1-1/2" = 1'-0"
140
1.5
141
12.0
290
     0
  0
SCALE
  5
1CE
102
{ACAD_REACTORS
330
1AF
102
}
330
1AF
100
AcDbScale
 70
     0
300
3" = 1'-0"
140
3.0
141
12.0
290
     0
  0
SCALE
  5
1CF
102
{ACAD_REACTORS
330
1AF
102
}
330
1AF
100
AcDbScale
 70
     0
300
6" = 1'-0"
140
6.0
141
12.0
290
     0
  0
SCALE
  5
1D0
102
{ACAD_REACTORS
330
1AF
102
}
330
1AF
100
AcDbScale
 70
     0
300
1'-0" = 1'-0"
140
12.0
141
12.0
290
     0
  0
VISUALSTYLE
  5
2F
102
{ACAD_REACTORS
330
2A
102
}
102
{ACAD_XDICTIONARY
360
833
102
}
330
2A
100
AcDbVisualStyle
  2
2dWireframe
 70
     4
 71
     0
 72
     2
 73
     0
 90
        0
 40
-0.6
 41
-30.0
 62
     5
 63
     7
 74
     1
 91
        4
 64
     7
 65
   257
 75
     1
175
     1
 42
1.0
 92
        0
 66
   257
 43
1.0
 76
     1
 77
     6
 78
     2
 67
     7
 79
     5
170
     0
171
     0
290
     0
174
     0
 93
        1
 44
0.0
173
     0
291
     0
 45
0.0
1001
ACAD
1000
AcDbSavedByObjectVersion
1070
     0
  0
VISUALSTYLE
  5
31
102
{ACAD_REACTORS
330
2A
102
}
102
{ACAD_XDICTIONARY
360
837
102
}
330
2A
100
AcDbVisualStyle
  2
3D Hidden
 70
     6
 71
     1
 72
     2
 73
     2
 90
        0
 40
-0.6
 41
-30.0
 62
     5
 63
     7
 74
     2
 91
        2
 64
     7
 65
   257
 75
     2
175
     1
 42
40.0
 92
        0
 66
   257
 43
1.0
 76
     1
 77
     6
 78
     2
 67
     7
 79
     3
170
     0
171
     0
290
     0
174
     0
 93
        1
 44
0.0
173
     0
291
     0
 45
0.0
1001
ACAD
1000
AcDbSavedByObjectVersion
1070
     0
  0
VISUALSTYLE
  5
30
102
{ACAD_REACTORS
330
2A
102
}
102
{ACAD_XDICTIONARY
360
835
102
}
330
2A
100
AcDbVisualStyle
  2
3dWireframe
 70
     5
 71
     0
 72
     2
 73
     0
 90
        0
 40
-0.6
 41
-30.0
 62
     5
 63
     7
 74
     1
 91
        4
 64
     7
 65
   257
 75
     1
175
     1
 42
1.0
 92
        0
 66
   257
 43
1.0
 76
     1
 77
     6
 78
     2
 67
     7
 79
     5
170
     0
171
     0
290
     0
174
     0
 93
        1
 44
0.0
173
     0
291
     0
 45
0.0
1001
ACAD
1000
AcDbSavedByObjectVersion
1070
     0
  0
VISUALSTYLE
  5
32
102
{ACAD_REACTORS
330
2A
102
}
102
{ACAD_XDICTIONARY
360
839
102
}
330
2A
100
AcDbVisualStyle
  2
Basic
 70
     7
 71
     1
 72
     0
 73
     1
 90
        0
 40
-0.6
 41
-30.0
 62
     5
 63
     7
 74
     0
 91
        4
 64
     7
 65
   257
 75
     1
175
     1
 42
1.0
 92
        8
 66
     7
 43
1.0
 76
     1
 77
     6
 78
     2
 67
     7
 79
     5
170
     0
171
     0
290
     0
174
     0
 93
        1
 44
0.0
173
     0
291
     1
 45
0.0
1001
ACAD
1000
AcDbSavedByObjectVersion
1070
     0
  0
VISUALSTYLE
  5
36
102
{ACAD_REACTORS
330
2A
102
}
102
{ACAD_XDICTIONARY
360
841
102
}
330
2A
100
AcDbVisualStyle
  2
Brighten
 70
    12
 71
     2
 72
     2
 73
     0
 90
        0
 40
-0.6
 41
-30.0
 62
     5
 63
     7
 74
     1
 91
        4
 64
     7
 65
   257
 75
     1
175
     1
 42
1.0
 92
        8
 66
     7
 43
1.0
 76
     1
 77
     6
 78
     2
 67
     7
 79
     5
170
     0
171
     0
290
     0
174
     0
 93
        1
 44
50.0
173
     0
291
     1
 45
0.0
1001
ACAD
1000
AcDbSavedByObjectVersion
1070
     0
  0
VISUALSTYLE
  5
3A
102
{ACAD_REACTORS
330
2A
102
}
102
{ACAD_XDICTIONARY
360
849
102
}
330
2A
100
AcDbVisualStyle
  2
ColorChange
 70
    16
 71
     2
 72
     2
 73
     3
 90
        0
 40
-0.6
 41
-30.0
 62
     5
 63
     8
 74
     1
 91
        4
 64
     7
 65
   257
 75
     1
175
     1
 42
1.0
 92
        8
 66
     8
 43
1.0
 76
     1
 77
     6
 78
     2
 67
     7
 79
     5
170
     0
171
     0
290
     0
174
     0
 93
        1
 44
0.0
173
     0
291
     1
 45
0.0
1001
ACAD
1000
AcDbSavedByObjectVersion
1070
     0
  0
VISUALSTYLE
  5
34
102
{ACAD_REACTORS
330
2A
102
}
102
{ACAD_XDICTIONARY
360
83D
102
}
330
2A
100
AcDbVisualStyle
  2
Conceptual
 70
     9
 71
     3
 72
     2
 73
     0
 90
        0
 40
-0.6
 41
-30.0
 62
     5
 63
     7
 74
     2
 91
        2
 64
     7
 65
   257
 75
     1
175
     1
 42
40.0
 92
        8
 66
     7
 43
1.0
 76
     1
 77
     6
 78
     2
 67
     7
 79
     3
170
     0
171
     0
290
     0
174
     0
 93
        1
 44
0.0
173
     0
291
     0
 45
0.0
1001
ACAD
1000
AcDbSavedByObjectVersion
1070
     0
  0
VISUALSTYLE
  5
35
102
{ACAD_REACTORS
330
2A
102
}
102
{ACAD_XDICTIONARY
360
83F
102
}
330
2A
100
AcDbVisualStyle
  2
Dim
 70
    11
 71
     2
 72
     2
 73
     0
 90
        0
 40
-0.6
 41
-30.0
 62
     5
 63
     7
 74
     1
 91
        4
 64
     7
 65
   257
 75
     1
175
     1
 42
1.0
 92
        8
 66
     7
 43
1.0
 76
     1
 77
     6
 78
     2
 67
     7
 79
     5
170
     0
171
     0
290
     0
174
     0
 93
        1
 44
-50.0
173
     0
291
     1
 45
0.0
1001
ACAD
1000
AcDbSavedByObjectVersion
1070
     0
  0
VISUALSTYLE
  5
39
102
{ACAD_REACTORS
330
2A
102
}
102
{ACAD_XDICTIONARY
360
847
102
}
330
2A
100
AcDbVisualStyle
  2
Facepattern
 70
    15
 71
     2
 72
     2
 73
     0
 90
        0
 40
-0.6
 41
-30.0
 62
     5
 63
     7
 74
     1
 91
        4
 64
     7
 65
   257
 75
     1
175
     1
 42
1.0
 92
        8
 66
     7
 43
1.0
 76
     1
 77
     6
 78
     2
 67
     7
 79
     5
170
     0
171
     0
290
     0
174
     0
 93
        1
 44
0.0
173
     0
291
     1
 45
0.0
1001
ACAD
1000
AcDbSavedByObjectVersion
1070
     0
  0
VISUALSTYLE
  5
2B
102
{ACAD_REACTORS
330
2A
102
}
102
{ACAD_XDICTIONARY
360
82B
102
}
330
2A
100
AcDbVisualStyle
  2
Flat
 70
     0
 71
     2
 72
     1
 73
     1
 90
        2
 40
-0.6
 41
30.0
 62
     5
 63
     7
 74
     0
 91
        4
 64
     7
 65
   257
 75
     1
175
     1
 42
1.0
 92
        8
 66
     7
 43
1.0
 76
     1
 77
     6
 78
     2
 67
     7
 79
     5
170
     0
171
     0
290
     0
174
     0
 93
       13
 44
0.0
173
     0
291
     1
 45
0.0
1001
ACAD
1000
AcDbSavedByObjectVersion
1070
     0
  0
VISUALSTYLE
  5
2C
102
{ACAD_REACTORS
330
2A
102
}
102
{ACAD_XDICTIONARY
360
82D
102
}
330
2A
100
AcDbVisualStyle
  2
FlatWithEdges
 70
     1
 71
     2
 72
     1
 73
     1
 90
        2
 40
-0.6
 41
30.0
 62
     5
 63
     7
 74
     1
 91
        4
 64
     7
 65
   257
 75
     1
175
     1
 42
1.0
 92
        0
 66
   257
 43
1.0
 76
     1
 77
     6
 78
     2
 67
     7
 79
     5
170
     0
171
     0
290
     0
174
     0
 93
       13
 44
0.0
173
     0
291
     1
 45
0.0
1001
ACAD
1000
AcDbSavedByObjectVersion
1070
     0
  0
VISUALSTYLE
  5
2D
102
{ACAD_REACTORS
330
2A
102
}
102
{ACAD_XDICTIONARY
360
82F
102
}
330
2A
100
AcDbVisualStyle
  2
Gouraud
 70
     2
 71
     2
 72
     2
 73
     1
 90
        2
 40
-0.6
 41
30.0
 62
     5
 63
     7
 74
     0
 91
        4
 64
     7
 65
   257
 75
     1
175
     1
 42
1.0
 92
        0
 66
     7
 43
1.0
 76
     1
 77
     6
 78
     2
 67
     7
 79
     5
170
     0
171
     0
290
     0
174
     0
 93
       13
 44
0.0
173
     0
291
     1
 45
0.0
1001
ACAD
1000
AcDbSavedByObjectVersion
1070
     0
  0
VISUALSTYLE
  5
2E
102
{ACAD_REACTORS
330
2A
102
}
102
{ACAD_XDICTIONARY
360
831
102
}
330
2A
100
AcDbVisualStyle
  2
GouraudWithEdges
 70
     3
 71
     2
 72
     2
 73
     1
 90
        2
 40
-0.6
 41
30.0
 62
     5
 63
     7
 74
     1
 91
        4
 64
     7
 65
   257
 75
     1
175
     1
 42
1.0
 92
        0
 66
   257
 43
1.0
 76
     1
 77
     6
 78
     2
 67
     7
 79
     5
170
     0
171
     0
290
     0
174
     0
 93
       13
 44
0.0
173
     0
291
     1
 45
0.0
1001
ACAD
1000
AcDbSavedByObjectVersion
1070
     0
  0
VISUALSTYLE
  5
38
102
{ACAD_REACTORS
330
2A
102
}
102
{ACAD_XDICTIONARY
360
845
102
}
330
2A
100
AcDbVisualStyle
  2
Linepattern
 70
    14
 71
     2
 72
     2
 73
     0
 90
        0
 40
-0.6
 41
-30.0
 62
     5
 63
     7
 74
     1
 91
        4
 64
     7
 65
   257
 75
     7
175
     7
 42
1.0
 92
        8
 66
     7
 43
1.0
 76
     1
 77
     6
 78
     2
 67
     7
 79
     5
170
     0
171
     0
290
     0
174
     0
 93
        1
 44
0.0
173
     0
291
     1
 45
0.0
1001
ACAD
1000
AcDbSavedByObjectVersion
1070
     0
  0
VISUALSTYLE
  5
33
102
{ACAD_REACTORS
330
2A
102
}
102
{ACAD_XDICTIONARY
360
83B
102
}
330
2A
100
AcDbVisualStyle
  2
Realistic
 70
     8
 71
     2
 72
     2
 73
     0
 90
        0
 40
-0.6
 41
-30.0
 62
     5
 63
     7
 74
     1
 91
        0
 64
     7
 65
   257
 75
     1
175
     1
 42
1.0
 92
        8
 66
     8
 43
1.0
 76
     1
 77
     6
 78
     2
 67
     7
 79
     5
170
     0
171
     0
290
     0
174
     0
 93
       13
 44
0.0
173
     0
291
     0
 45
0.0
1001
ACAD
1000
AcDbSavedByObjectVersion
1070
     0
  0
VISUALSTYLE
  5
37
102
{ACAD_REACTORS
330
2A
102
}
102
{ACAD_XDICTIONARY
360
843
102
}
330
2A
100
AcDbVisualStyle
  2
Thicken
 70
    13
 71
     2
 72
     2
 73
     0
 90
        0
 40
-0.6
 41
-30.0
 62
     5
 63
     7
 74
     1
 91
        4
 64
     7
 65
   257
 75
     1
175
     1
 42
1.0
 92
       12
 66
     7
 43
1.0
 76
     1
 77
     6
 78
     2
 67
     7
 79
     5
170
     0
171
     0
290
     0
174
     0
 93
        1
 44
0.0
173
     0
291
     1
 45
0.0
1001
ACAD
1000
AcDbSavedByObjectVersion
1070
     0
  0
DICTIONARYVAR
  5
828
102
{ACAD_REACTORS
330
823
102
}
330
823
100
DictionaryVariables
280
     0
  1
1:1
  0
DICTIONARYVAR
  5
829
102
{ACAD_REACTORS
330
823
102
}
330
823
100
DictionaryVariables
280
     0
  1
2
  0
DICTIONARYVAR
  5
82A
102
{ACAD_REACTORS
330
823
102
}
330
823
100
DictionaryVariables
280
     0
  1
1
  0
DICTIONARYVAR
  5
827
102
{ACAD_REACTORS
330
823
102
}
330
823
100
DictionaryVariables
280
     0
  1
80.000000
  0
DICTIONARYVAR
  5
826
102
{ACAD_REACTORS
330
823
102
}
330
823
100
DictionaryVariables
280
     0
  1
5.000000
  0
DICTIONARY
  5
84D
330
3D
100
AcDbDictionary
280
     1
281
     1
  3
ACAD_XREC_ROUNDTRIP
360
84E
  0
DICTIONARY
  5
84B
330
3C
100
AcDbDictionary
280
     1
281
     1
  3
ACAD_XREC_ROUNDTRIP
360
84C
  0
DICTIONARY
  5
84F
330
3E
100
AcDbDictionary
280
     1
281
     1
  3
ACAD_XREC_ROUNDTRIP
360
850
  0
DICTIONARY
  5
833
330
2F
100
AcDbDictionary
280
     1
281
     1
  3
ACAD_XREC_ROUNDTRIP
360
834
  0
DICTIONARY
  5
837
330
31
100
AcDbDictionary
280
     1
281
     1
  3
ACAD_XREC_ROUNDTRIP
360
838
  0
DICTIONARY
  5
835
330
30
100
AcDbDictionary
280
     1
281
     1
  3
ACAD_XREC_ROUNDTRIP
360
836
  0
DICTIONARY
  5
839
330
32
100
AcDbDictionary
280
     1
281
     1
  3
ACAD_XREC_ROUNDTRIP
360
83A
  0
DICTIONARY
  5
841
330
36
100
AcDbDictionary
280
     1
281
     1
  3
ACAD_XREC_ROUNDTRIP
360
842
  0
DICTIONARY
  5
849
330
3A
100
AcDbDictionary
280
     1
281
     1
  3
ACAD_XREC_ROUNDTRIP
360
84A
  0
DICTIONARY
  5
83D
330
34
100
AcDbDictionary
280
     1
281
     1
  3
ACAD_XREC_ROUNDTRIP
360
83E
  0
DICTIONARY
  5
83F
330
35
100
AcDbDictionary
280
     1
281
     1
  3
ACAD_XREC_ROUNDTRIP
360
840
  0
DICTIONARY
  5
847
330
39
100
AcDbDictionary
280
     1
281
     1
  3
ACAD_XREC_ROUNDTRIP
360
848
  0
DICTIONARY
  5
82B
330
2B
100
AcDbDictionary
280
     1
281
     1
  3
ACAD_XREC_ROUNDTRIP
360
82C
  0
DICTIONARY
  5
82D
330
2C
100
AcDbDictionary
280
     1
281
     1
  3
ACAD_XREC_ROUNDTRIP
360
82E
  0
DICTIONARY
  5
82F
330
2D
100
AcDbDictionary
280
     1
281
     1
  3
ACAD_XREC_ROUNDTRIP
360
830
  0
DICTIONARY
  5
831
330
2E
100
AcDbDictionary
280
     1
281
     1
  3
ACAD_XREC_ROUNDTRIP
360
832
  0
DICTIONARY
  5
845
330
38
100
AcDbDictionary
280
     1
281
     1
  3
ACAD_XREC_ROUNDTRIP
360
846
  0
DICTIONARY
  5
83B
330
33
100
AcDbDictionary
280
     1
281
     1
  3
ACAD_XREC_ROUNDTRIP
360
83C
  0
DICTIONARY
  5
843
330
37
100
AcDbDictionary
280
     1
281
     1
  3
ACAD_XREC_ROUNDTRIP
360
844
  0
XRECORD
  5
84E
102
{ACAD_REACTORS
330
84D
102
}
330
84D
100
AcDbXrecord
280
     1
102
MATERIAL
148
0.0
149
0.0
149
0.0
 93
        0
 94
      127
282
     0
 72
     1
 77
     1
171
     1
175
     1
179
     1
273
     0
  0
XRECORD
  5
84C
102
{ACAD_REACTORS
330
84B
102
}
330
84B
100
AcDbXrecord
280
     1
102
MATERIAL
148
0.0
149
0.0
149
0.0
 93
        0
 94
      127
282
     0
 72
     1
 77
     1
171
     1
175
     1
179
     1
273
     0
  0
XRECORD
  5
850
102
{ACAD_REACTORS
330
84F
102
}
330
84F
100
AcDbXrecord
280
     1
102
MATERIAL
148
0.0
149
0.0
149
0.0
 93
        0
 94
      127
282
     0
 72
     1
 77
     1
171
     1
175
     1
179
     1
273
     0
  0
XRECORD
  5
834
102
{ACAD_REACTORS
330
833
102
}
330
833
100
AcDbXrecord
280
     1
102
RTVSPropertyOp0
 70
     1
102
RTVSPropertyOp1
 70
     1
102
RTVSPropertyOp2
 70
     1
102
RTVSPropertyOp3
 70
     1
102
RTVSPropertyOp4
 70
     1
102
RTVSPropertyOp5
 70
     1
102
RTVSPropertyOp6
 70
     1
102
RTVSPropertyOp7
 70
     1
102
RTVSPropertyOp8
 70
     1
102
RTVSPropertyOp9
 70
     1
102
RTVSPropertyOp10
 70
     1
102
RTVSPropertyOp11
 70
     1
102
RTVSPropertyOp12
 70
     1
102
RTVSPropertyOp13
 70
     1
102
RTVSPropertyOp14
 70
     1
102
RTVSPropertyOp15
 70
     1
102
RTVSPropertyOp16
 70
     1
102
RTVSPropertyOp17
 70
     1
102
RTVSPropertyOp18
 70
     1
102
RTVSPropertyOp19
 70
     1
102
RTVSPropertyOp20
 70
     1
102
RTVSPropertyOp21
 70
     1
102
RTVSPropertyOp22
 70
     1
102
RTVSPropertyOp23
 70
     1
102
RTVSPropertyOp24
 70
     1
102
RTVSPropertyOp25
 70
     1
102
RTVSPropertyOp26
 70
     1
102
RTVSPropertyOp27
 70
     1
  0
XRECORD
  5
838
102
{ACAD_REACTORS
330
837
102
}
330
837
100
AcDbXrecord
280
     1
102
RTVSPropertyOp0
 70
     1
102
RTVSPropertyOp1
 70
     1
102
RTVSPropertyOp2
 70
     1
102
RTVSPropertyOp3
 70
     1
102
RTVSPropertyOp4
 70
     1
102
RTVSPropertyOp5
 70
     1
102
RTVSPropertyOp6
 70
     1
102
RTVSPropertyOp7
 70
     1
102
RTVSPropertyOp8
 70
     1
102
RTVSPropertyOp9
 70
     1
102
RTVSPropertyOp10
 70
     1
102
RTVSPropertyOp11
 70
     1
102
RTVSPropertyOp12
 70
     1
102
RTVSPropertyOp13
 70
     1
102
RTVSPropertyOp14
 70
     1
102
RTVSPropertyOp15
 70
     1
102
RTVSPropertyOp16
 70
     1
102
RTVSPropertyOp17
 70
     1
102
RTVSPropertyOp18
 70
     1
102
RTVSPropertyOp19
 70
     1
102
RTVSPropertyOp20
 70
     1
102
RTVSPropertyOp21
 70
     1
102
RTVSPropertyOp22
 70
     1
102
RTVSPropertyOp23
 70
     1
102
RTVSPropertyOp24
 70
     1
102
RTVSPropertyOp25
 70
     1
102
RTVSPropertyOp26
 70
     1
102
RTVSPropertyOp27
 70
     1
  0
XRECORD
  5
836
102
{ACAD_REACTORS
330
835
102
}
330
835
100
AcDbXrecord
280
     1
102
RTVSPropertyOp0
 70
     1
102
RTVSPropertyOp1
 70
     1
102
RTVSPropertyOp2
 70
     1
102
RTVSPropertyOp3
 70
     1
102
RTVSPropertyOp4
 70
     1
102
RTVSPropertyOp5
 70
     1
102
RTVSPropertyOp6
 70
     1
102
RTVSPropertyOp7
 70
     1
102
RTVSPropertyOp8
 70
     1
102
RTVSPropertyOp9
 70
     1
102
RTVSPropertyOp10
 70
     1
102
RTVSPropertyOp11
 70
     1
102
RTVSPropertyOp12
 70
     1
102
RTVSPropertyOp13
 70
     1
102
RTVSPropertyOp14
 70
     1
102
RTVSPropertyOp15
 70
     1
102
RTVSPropertyOp16
 70
     1
102
RTVSPropertyOp17
 70
     1
102
RTVSPropertyOp18
 70
     1
102
RTVSPropertyOp19
 70
     1
102
RTVSPropertyOp20
 70
     1
102
RTVSPropertyOp21
 70
     1
102
RTVSPropertyOp22
 70
     1
102
RTVSPropertyOp23
 70
     1
102
RTVSPropertyOp24
 70
     1
102
RTVSPropertyOp25
 70
     1
102
RTVSPropertyOp26
 70
     1
102
RTVSPropertyOp27
 70
     1
  0
XRECORD
  5
83A
102
{ACAD_REACTORS
330
839
102
}
330
839
100
AcDbXrecord
280
     1
102
RTVSPropertyOp0
 70
     1
102
RTVSPropertyOp1
 70
     1
102
RTVSPropertyOp2
 70
     1
102
RTVSPropertyOp3
 70
     1
102
RTVSPropertyOp4
 70
     1
102
RTVSPropertyOp5
 70
     1
102
RTVSPropertyOp6
 70
     1
102
RTVSPropertyOp7
 70
     1
102
RTVSPropertyOp8
 70
     1
102
RTVSPropertyOp9
 70
     1
102
RTVSPropertyOp10
 70
     1
102
RTVSPropertyOp11
 70
     1
102
RTVSPropertyOp12
 70
     1
102
RTVSPropertyOp13
 70
     1
102
RTVSPropertyOp14
 70
     1
102
RTVSPropertyOp15
 70
     1
102
RTVSPropertyOp16
 70
     1
102
RTVSPropertyOp17
 70
     1
102
RTVSPropertyOp18
 70
     1
102
RTVSPropertyOp19
 70
     1
102
RTVSPropertyOp20
 70
     1
102
RTVSPropertyOp21
 70
     1
102
RTVSPropertyOp22
 70
     1
102
RTVSPropertyOp23
 70
     1
102
RTVSPropertyOp24
 70
     1
102
RTVSPropertyOp25
 70
     1
102
RTVSPropertyOp26
 70
     1
102
RTVSPropertyOp27
 70
     1
  0
XRECORD
  5
842
102
{ACAD_REACTORS
330
841
102
}
330
841
100
AcDbXrecord
280
     1
102
RTVSPropertyOp0
 70
     1
102
RTVSPropertyOp1
 70
     1
102
RTVSPropertyOp2
 70
     1
102
RTVSPropertyOp3
 70
     1
102
RTVSPropertyOp4
 70
     1
102
RTVSPropertyOp5
 70
     1
102
RTVSPropertyOp6
 70
     1
102
RTVSPropertyOp7
 70
     1
102
RTVSPropertyOp8
 70
     1
102
RTVSPropertyOp9
 70
     1
102
RTVSPropertyOp10
 70
     1
102
RTVSPropertyOp11
 70
     1
102
RTVSPropertyOp12
 70
     1
102
RTVSPropertyOp13
 70
     1
102
RTVSPropertyOp14
 70
     1
102
RTVSPropertyOp15
 70
     1
102
RTVSPropertyOp16
 70
     1
102
RTVSPropertyOp17
 70
     1
102
RTVSPropertyOp18
 70
     1
102
RTVSPropertyOp19
 70
     1
102
RTVSPropertyOp20
 70
     1
102
RTVSPropertyOp21
 70
     1
102
RTVSPropertyOp22
 70
     1
102
RTVSPropertyOp23
 70
     1
102
RTVSPropertyOp24
 70
     1
102
RTVSPropertyOp25
 70
     1
102
RTVSPropertyOp26
 70
     1
102
RTVSPropertyOp27
 70
     1
  0
XRECORD
  5
84A
102
{ACAD_REACTORS
330
849
102
}
330
849
100
AcDbXrecord
280
     1
102
RTVSPropertyOp0
 70
     1
102
RTVSPropertyOp1
 70
     1
102
RTVSPropertyOp2
 70
     1
102
RTVSPropertyOp3
 70
     1
102
RTVSPropertyOp4
 70
     1
102
RTVSPropertyOp5
 70
     1
102
RTVSPropertyOp6
 70
     1
102
RTVSPropertyOp7
 70
     1
102
RTVSPropertyOp8
 70
     1
102
RTVSPropertyOp9
 70
     1
102
RTVSPropertyOp10
 70
     1
102
RTVSPropertyOp11
 70
     1
102
RTVSPropertyOp12
 70
     1
102
RTVSPropertyOp13
 70
     1
102
RTVSPropertyOp14
 70
     1
102
RTVSPropertyOp15
 70
     1
102
RTVSPropertyOp16
 70
     1
102
RTVSPropertyOp17
 70
     1
102
RTVSPropertyOp18
 70
     1
102
RTVSPropertyOp19
 70
     1
102
RTVSPropertyOp20
 70
     1
102
RTVSPropertyOp21
 70
     1
102
RTVSPropertyOp22
 70
     1
102
RTVSPropertyOp23
 70
     1
102
RTVSPropertyOp24
 70
     1
102
RTVSPropertyOp25
 70
     1
102
RTVSPropertyOp26
 70
     1
102
RTVSPropertyOp27
 70
     1
  0
XRECORD
  5
83E
102
{ACAD_REACTORS
330
83D
102
}
330
83D
100
AcDbXrecord
280
     1
102
RTVSPropertyOp0
 70
     1
102
RTVSPropertyOp1
 70
     1
102
RTVSPropertyOp2
 70
     1
102
RTVSPropertyOp3
 70
     1
102
RTVSPropertyOp4
 70
     1
102
RTVSPropertyOp5
 70
     1
102
RTVSPropertyOp6
 70
     1
102
RTVSPropertyOp7
 70
     1
102
RTVSPropertyOp8
 70
     1
102
RTVSPropertyOp9
 70
     1
102
RTVSPropertyOp10
 70
     1
102
RTVSPropertyOp11
 70
     1
102
RTVSPropertyOp12
 70
     1
102
RTVSPropertyOp13
 70
     1
102
RTVSPropertyOp14
 70
     1
102
RTVSPropertyOp15
 70
     1
102
RTVSPropertyOp16
 70
     1
102
RTVSPropertyOp17
 70
     1
102
RTVSPropertyOp18
 70
     1
102
RTVSPropertyOp19
 70
     1
102
RTVSPropertyOp20
 70
     1
102
RTVSPropertyOp21
 70
     1
102
RTVSPropertyOp22
 70
     1
102
RTVSPropertyOp23
 70
     1
102
RTVSPropertyOp24
 70
     1
102
RTVSPropertyOp25
 70
     1
102
RTVSPropertyOp26
 70
     1
102
RTVSPropertyOp27
 70
     1
  0
XRECORD
  5
840
102
{ACAD_REACTORS
330
83F
102
}
330
83F
100
AcDbXrecord
280
     1
102
RTVSPropertyOp0
 70
     1
102
RTVSPropertyOp1
 70
     1
102
RTVSPropertyOp2
 70
     1
102
RTVSPropertyOp3
 70
     1
102
RTVSPropertyOp4
 70
     1
102
RTVSPropertyOp5
 70
     1
102
RTVSPropertyOp6
 70
     1
102
RTVSPropertyOp7
 70
     1
102
RTVSPropertyOp8
 70
     1
102
RTVSPropertyOp9
 70
     1
102
RTVSPropertyOp10
 70
     1
102
RTVSPropertyOp11
 70
     1
102
RTVSPropertyOp12
 70
     1
102
RTVSPropertyOp13
 70
     1
102
RTVSPropertyOp14
 70
     1
102
RTVSPropertyOp15
 70
     1
102
RTVSPropertyOp16
 70
     1
102
RTVSPropertyOp17
 70
     1
102
RTVSPropertyOp18
 70
     1
102
RTVSPropertyOp19
 70
     1
102
RTVSPropertyOp20
 70
     1
102
RTVSPropertyOp21
 70
     1
102
RTVSPropertyOp22
 70
     1
102
RTVSPropertyOp23
 70
     1
102
RTVSPropertyOp24
 70
     1
102
RTVSPropertyOp25
 70
     1
102
RTVSPropertyOp26
 70
     1
102
RTVSPropertyOp27
 70
     1
  0
XRECORD
  5
848
102
{ACAD_REACTORS
330
847
102
}
330
847
100
AcDbXrecord
280
     1
102
RTVSPropertyOp0
 70
     1
102
RTVSPropertyOp1
 70
     1
102
RTVSPropertyOp2
 70
     1
102
RTVSPropertyOp3
 70
     1
102
RTVSPropertyOp4
 70
     1
102
RTVSPropertyOp5
 70
     1
102
RTVSPropertyOp6
 70
     1
102
RTVSPropertyOp7
 70
     1
102
RTVSPropertyOp8
 70
     1
102
RTVSPropertyOp9
 70
     1
102
RTVSPropertyOp10
 70
     1
102
RTVSPropertyOp11
 70
     1
102
RTVSPropertyOp12
 70
     1
102
RTVSPropertyOp13
 70
     1
102
RTVSPropertyOp14
 70
     1
102
RTVSPropertyOp15
 70
     1
102
RTVSPropertyOp16
 70
     1
102
RTVSPropertyOp17
 70
     1
102
RTVSPropertyOp18
 70
     1
102
RTVSPropertyOp19
 70
     1
102
RTVSPropertyOp20
 70
     1
102
RTVSPropertyOp21
 70
     1
102
RTVSPropertyOp22
 70
     1
102
RTVSPropertyOp23
 70
     1
102
RTVSPropertyOp24
 70
     1
102
RTVSPropertyOp25
 70
     1
102
RTVSPropertyOp26
 70
     1
102
RTVSPropertyOp27
 70
     1
  0
XRECORD
  5
82C
102
{ACAD_REACTORS
330
82B
102
}
330
82B
100
AcDbXrecord
280
     1
102
RTVSPropertyOp0
 70
     1
102
RTVSPropertyOp1
 70
     1
102
RTVSPropertyOp2
 70
     1
102
RTVSPropertyOp3
 70
     1
102
RTVSPropertyOp4
 70
     1
102
RTVSPropertyOp5
 70
     1
102
RTVSPropertyOp6
 70
     1
102
RTVSPropertyOp7
 70
     1
102
RTVSPropertyOp8
 70
     1
102
RTVSPropertyOp9
 70
     1
102
RTVSPropertyOp10
 70
     1
102
RTVSPropertyOp11
 70
     1
102
RTVSPropertyOp12
 70
     1
102
RTVSPropertyOp13
 70
     1
102
RTVSPropertyOp14
 70
     1
102
RTVSPropertyOp15
 70
     1
102
RTVSPropertyOp16
 70
     1
102
RTVSPropertyOp17
 70
     1
102
RTVSPropertyOp18
 70
     1
102
RTVSPropertyOp19
 70
     1
102
RTVSPropertyOp20
 70
     1
102
RTVSPropertyOp21
 70
     1
102
RTVSPropertyOp22
 70
     1
102
RTVSPropertyOp23
 70
     1
102
RTVSPropertyOp24
 70
     1
102
RTVSPropertyOp25
 70
     1
102
RTVSPropertyOp26
 70
     1
102
RTVSPropertyOp27
 70
     1
  0
XRECORD
  5
82E
102
{ACAD_REACTORS
330
82D
102
}
330
82D
100
AcDbXrecord
280
     1
102
RTVSPropertyOp0
 70
     1
102
RTVSPropertyOp1
 70
     1
102
RTVSPropertyOp2
 70
     1
102
RTVSPropertyOp3
 70
     1
102
RTVSPropertyOp4
 70
     1
102
RTVSPropertyOp5
 70
     1
102
RTVSPropertyOp6
 70
     1
102
RTVSPropertyOp7
 70
     1
102
RTVSPropertyOp8
 70
     1
102
RTVSPropertyOp9
 70
     1
102
RTVSPropertyOp10
 70
     1
102
RTVSPropertyOp11
 70
     1
102
RTVSPropertyOp12
 70
     1
102
RTVSPropertyOp13
 70
     1
102
RTVSPropertyOp14
 70
     1
102
RTVSPropertyOp15
 70
     1
102
RTVSPropertyOp16
 70
     1
102
RTVSPropertyOp17
 70
     1
102
RTVSPropertyOp18
 70
     1
102
RTVSPropertyOp19
 70
     1
102
RTVSPropertyOp20
 70
     1
102
RTVSPropertyOp21
 70
     1
102
RTVSPropertyOp22
 70
     1
102
RTVSPropertyOp23
 70
     1
102
RTVSPropertyOp24
 70
     1
102
RTVSPropertyOp25
 70
     1
102
RTVSPropertyOp26
 70
     1
102
RTVSPropertyOp27
 70
     1
  0
XRECORD
  5
830
102
{ACAD_REACTORS
330
82F
102
}
330
82F
100
AcDbXrecord
280
     1
102
RTVSPropertyOp0
 70
     1
102
RTVSPropertyOp1
 70
     1
102
RTVSPropertyOp2
 70
     1
102
RTVSPropertyOp3
 70
     1
102
RTVSPropertyOp4
 70
     1
102
RTVSPropertyOp5
 70
     1
102
RTVSPropertyOp6
 70
     1
102
RTVSPropertyOp7
 70
     1
102
RTVSPropertyOp8
 70
     1
102
RTVSPropertyOp9
 70
     1
102
RTVSPropertyOp10
 70
     1
102
RTVSPropertyOp11
 70
     1
102
RTVSPropertyOp12
 70
     1
102
RTVSPropertyOp13
 70
     1
102
RTVSPropertyOp14
 70
     1
102
RTVSPropertyOp15
 70
     1
102
RTVSPropertyOp16
 70
     1
102
RTVSPropertyOp17
 70
     1
102
RTVSPropertyOp18
 70
     1
102
RTVSPropertyOp19
 70
     1
102
RTVSPropertyOp20
 70
     1
102
RTVSPropertyOp21
 70
     1
102
RTVSPropertyOp22
 70
     1
102
RTVSPropertyOp23
 70
     1
102
RTVSPropertyOp24
 70
     1
102
RTVSPropertyOp25
 70
     1
102
RTVSPropertyOp26
 70
     1
102
RTVSPropertyOp27
 70
     1
  0
XRECORD
  5
832
102
{ACAD_REACTORS
330
831
102
}
330
831
100
AcDbXrecord
280
     1
102
RTVSPropertyOp0
 70
     1
102
RTVSPropertyOp1
 70
     1
102
RTVSPropertyOp2
 70
     1
102
RTVSPropertyOp3
 70
     1
102
RTVSPropertyOp4
 70
     1
102
RTVSPropertyOp5
 70
     1
102
RTVSPropertyOp6
 70
     1
102
RTVSPropertyOp7
 70
     1
102
RTVSPropertyOp8
 70
     1
102
RTVSPropertyOp9
 70
     1
102
RTVSPropertyOp10
 70
     1
102
RTVSPropertyOp11
 70
     1
102
RTVSPropertyOp12
 70
     1
102
RTVSPropertyOp13
 70
     1
102
RTVSPropertyOp14
 70
     1
102
RTVSPropertyOp15
 70
     1
102
RTVSPropertyOp16
 70
     1
102
RTVSPropertyOp17
 70
     1
102
RTVSPropertyOp18
 70
     1
102
RTVSPropertyOp19
 70
     1
102
RTVSPropertyOp20
 70
     1
102
RTVSPropertyOp21
 70
     1
102
RTVSPropertyOp22
 70
     1
102
RTVSPropertyOp23
 70
     1
102
RTVSPropertyOp24
 70
     1
102
RTVSPropertyOp25
 70
     1
102
RTVSPropertyOp26
 70
     1
102
RTVSPropertyOp27
 70
     1
  0
XRECORD
  5
846
102
{ACAD_REACTORS
330
845
102
}
330
845
100
AcDbXrecord
280
     1
102
RTVSPropertyOp0
 70
     1
102
RTVSPropertyOp1
 70
     1
102
RTVSPropertyOp2
 70
     1
102
RTVSPropertyOp3
 70
     1
102
RTVSPropertyOp4
 70
     1
102
RTVSPropertyOp5
 70
     1
102
RTVSPropertyOp6
 70
     1
102
RTVSPropertyOp7
 70
     1
102
RTVSPropertyOp8
 70
     1
102
RTVSPropertyOp9
 70
     1
102
RTVSPropertyOp10
 70
     1
102
RTVSPropertyOp11
 70
     1
102
RTVSPropertyOp12
 70
     1
102
RTVSPropertyOp13
 70
     1
102
RTVSPropertyOp14
 70
     1
102
RTVSPropertyOp15
 70
     1
102
RTVSPropertyOp16
 70
     1
102
RTVSPropertyOp17
 70
     1
102
RTVSPropertyOp18
 70
     1
102
RTVSPropertyOp19
 70
     1
102
RTVSPropertyOp20
 70
     1
102
RTVSPropertyOp21
 70
     1
102
RTVSPropertyOp22
 70
     1
102
RTVSPropertyOp23
 70
     1
102
RTVSPropertyOp24
 70
     1
102
RTVSPropertyOp25
 70
     1
102
RTVSPropertyOp26
 70
     1
102
RTVSPropertyOp27
 70
     1
  0
XRECORD
  5
83C
102
{ACAD_REACTORS
330
83B
102
}
330
83B
100
AcDbXrecord
280
     1
102
RTVSPropertyOp0
 70
     1
102
RTVSPropertyOp1
 70
     1
102
RTVSPropertyOp2
 70
     1
102
RTVSPropertyOp3
 70
     1
102
RTVSPropertyOp4
 70
     1
102
RTVSPropertyOp5
 70
     1
102
RTVSPropertyOp6
 70
     1
102
RTVSPropertyOp7
 70
     1
102
RTVSPropertyOp8
 70
     1
102
RTVSPropertyOp9
 70
     1
102
RTVSPropertyOp10
 70
     1
102
RTVSPropertyOp11
 70
     1
102
RTVSPropertyOp12
 70
     1
102
RTVSPropertyOp13
 70
     1
102
RTVSPropertyOp14
 70
     1
102
RTVSPropertyOp15
 70
     1
102
RTVSPropertyOp16
 70
     1
102
RTVSPropertyOp17
 70
     1
102
RTVSPropertyOp18
 70
     1
102
RTVSPropertyOp19
 70
     1
102
RTVSPropertyOp20
 70
     1
102
RTVSPropertyOp21
 70
     1
102
RTVSPropertyOp22
 70
     1
102
RTVSPropertyOp23
 70
     1
102
RTVSPropertyOp24
 70
     1
102
RTVSPropertyOp25
 70
     1
102
RTVSPropertyOp26
 70
     1
102
RTVSPropertyOp27
 70
     1
  0
XRECORD
  5
844
102
{ACAD_REACTORS
330
843
102
}
330
843
100
AcDbXrecord
280
     1
102
RTVSPropertyOp0
 70
     1
102
RTVSPropertyOp1
 70
     1
102
RTVSPropertyOp2
 70
     1
102
RTVSPropertyOp3
 70
     1
102
RTVSPropertyOp4
 70
     1
102
RTVSPropertyOp5
 70
     1
102
RTVSPropertyOp6
 70
     1
102
RTVSPropertyOp7
 70
     1
102
RTVSPropertyOp8
 70
     1
102
RTVSPropertyOp9
 70
     1
102
RTVSPropertyOp10
 70
     1
102
RTVSPropertyOp11
 70
     1
102
RTVSPropertyOp12
 70
     1
102
RTVSPropertyOp13
 70
     1
102
RTVSPropertyOp14
 70
     1
102
RTVSPropertyOp15
 70
     1
102
RTVSPropertyOp16
 70
     1
102
RTVSPropertyOp17
 70
     1
102
RTVSPropertyOp18
 70
     1
102
RTVSPropertyOp19
 70
     1
102
RTVSPropertyOp20
 70
     1
102
RTVSPropertyOp21
 70
     1
102
RTVSPropertyOp22
 70
     1
102
RTVSPropertyOp23
 70
     1
102
RTVSPropertyOp24
 70
     1
102
RTVSPropertyOp25
 70
     1
102
RTVSPropertyOp26
 70
     1
102
RTVSPropertyOp27
 70
     1
  0
ENDSEC
  0
EOF
