  0
SECTION
  2
HEADER
  9
$ACADVER
  1
AC1015
  9
$ACADMAINTVER
 70
     6
  9
$DWGCODEPAGE
  3
ANSI_1252
  9
$INSBASE
 10
0.0
 20
0.0
 30
0.0
  9
$EXTMIN
 10
0.0
 20
0.0
 30
0.0
  9
$EXTMAX
 10
25.0
 20
35.0
 30
0.0
  9
$LIMMIN
 10
0.0
 20
0.0
  9
$LIMMAX
 10
420.0
 20
297.0
  9
$ORTHOMODE
 70
     0
  9
$REGENMODE
 70
     1
  9
$FILLMODE
 70
     1
  9
$QTEXTMODE
 70
     0
  9
$MIRRTEXT
 70
     1
  9
$LTSCALE
 40
4.9
  9
$ATTMODE
 70
     1
  9
$TEXTSIZE
 40
2.5
  9
$TRACEWID
 40
1.0
  9
$TEXTSTYLE
  7
Standard
  9
$CLAYER
  8
0
  9
$CELTYPE
  6
ByLayer
  9
$CECOLOR
 62
   256
  9
$CELTSCALE
 40
1.0
  9
$DISPSILH
 70
     0
  9
$DIMSCALE
 40
1.0
  9
$DIMASZ
 40
2.5
  9
$DIMEXO
 40
0.625
  9
$DIMDLI
 40
3.75
  9
$DIMRND
 40
0.0
  9
$DIMDLE
 40
0.0
  9
$DIMEXE
 40
1.25
  9
$DIMTP
 40
0.0
  9
$DIMTM
 40
0.0
  9
$DIMTXT
 40
2.5
  9
$DIMCEN
 40
2.5
  9
$DIMTSZ
 40
0.0
  9
$DIMTOL
 70
     0
  9
$DIMLIM
 70
     0
  9
$DIMTIH
 70
     0
  9
$DIMTOH
 70
     0
  9
$DIMSE1
 70
     0
  9
$DIMSE2
 70
     0
  9
$DIMTAD
 70
     1
  9
$DIMZIN
 70
     8
  9
$DIMBLK
  1

  9
$DIMASO
 70
     1
  9
$DIMSHO
 70
     1
  9
$DIMPOST
  1

  9
$DIMAPOST
  1

  9
$DIMALT
 70
     0
  9
$DIMALTD
 70
     3
  9
$DIMALTF
 40
0.03937007874016
  9
$DIMLFAC
 40
1.0
  9
$DIMTOFL
 70
     1
  9
$DIMTVP
 40
0.0
  9
$DIMTIX
 70
     0
  9
$DIMSOXD
 70
     0
  9
$DIMSAH
 70
     0
  9
$DIMBLK1
  1

  9
$DIMBLK2
  1

  9
$DIMSTYLE
  2
ISO-25
  9
$DIMCLRD
 70
     0
  9
$DIMCLRE
 70
     0
  9
$DIMCLRT
 70
     0
  9
$DIMTFAC
 40
1.0
  9
$DIMGAP
 40
0.625
  9
$DIMJUST
 70
     0
  9
$DIMSD1
 70
     0
  9
$DIMSD2
 70
     0
  9
$DIMTOLJ
 70
     0
  9
$DIMTZIN
 70
     8
  9
$DIMALTZ
 70
     0
  9
$DIMALTTZ
 70
     0
  9
$DIMUPT
 70
     0
  9
$DIMDEC
 70
     2
  9
$DIMTDEC
 70
     2
  9
$DIMALTU
 70
     2
  9
$DIMALTTD
 70
     3
  9
$DIMTXSTY
  7
Standard
  9
$DIMAUNIT
 70
     0
  9
$DIMADEC
 70
     0
  9
$DIMALTRND
 40
0.0
  9
$DIMAZIN
 70
     0
  9
$DIMDSEP
 70
    44
  9
$DIMATFIT
 70
     3
  9
$DIMFRAC
 70
     0
  9
$DIMLDRBLK
  1

  9
$DIMLUNIT
 70
     2
  9
$DIMLWD
 70
    -2
  9
$DIMLWE
 70
    -2
  9
$DIMTMOVE
 70
     0
  9
$LUNITS
 70
     2
  9
$LUPREC
 70
     4
  9
$SKETCHINC
 40
1.0
  9
$FILLETRAD
 40
10.0
  9
$AUNITS
 70
     0
  9
$AUPREC
 70
     0
  9
$MENU
  1
.
  9
$ELEVATION
 40
0.0
  9
$PELEVATION
 40
0.0
  9
$THICKNESS
 40
0.0
  9
$LIMCHECK
 70
     0
  9
$CHAMFERA
 40
10.0
  9
$CHAMFERB
 40
10.0
  9
$CHAMFERC
 40
20.0
  9
$CHAMFERD
 40
0.0
  9
$SKPOLY
 70
     0
  9
$TDCREATE
 40
2458577.9375
  9
$TDUCREATE
 40
2458577.854166667
  9
$TDUPDATE
 40
2458577.940972222
  9
$TDUUPDATE
 40
2458577.857638889
  9
$TDINDWG
 40
0.0000000116
  9
$TDUSRTIMER
 40
0.0000000116
  9
$USRTIMER
 70
     1
  9
$ANGBASE
 50
0.0
  9
$ANGDIR
 70
     0
  9
$PDMODE
 70
     0
  9
$PDSIZE
 40
0.0
  9
$PLINEWID
 40
0.0
  9
$SPLFRAME
 70
     0
  9
$SPLINETYPE
 70
     6
  9
$SPLINESEGS
 70
     8
  9
$HANDSEED
  5
8F1
  9
$SURFTAB1
 70
     6
  9
$SURFTAB2
 70
     6
  9
$SURFTYPE
 70
     6
  9
$SURFU
 70
     6
  9
$SURFV
 70
     6
  9
$UCSBASE
  2

  9
$UCSNAME
  2

  9
$UCSORG
 10
0.0
 20
0.0
 30
0.0
  9
$UCSXDIR
 10
1.0
 20
0.0
 30
0.0
  9
$UCSYDIR
 10
0.0
 20
1.0
 30
0.0
  9
$UCSORTHOREF
  2

  9
$UCSORTHOVIEW
 70
     0
  9
$UCSORGTOP
 10
0.0
 20
0.0
 30
0.0
  9
$UCSORGBOTTOM
 10
0.0
 20
0.0
 30
0.0
  9
$UCSORGLEFT
 10
0.0
 20
0.0
 30
0.0
  9
$UCSORGRIGHT
 10
0.0
 20
0.0
 30
0.0
  9
$UCSORGFRONT
 10
0.0
 20
0.0
 30
0.0
  9
$UCSORGBACK
 10
0.0
 20
0.0
 30
0.0
  9
$PUCSBASE
  2

  9
$PUCSNAME
  2

  9
$PUCSORG
 10
0.0
 20
0.0
 30
0.0
  9
$PUCSXDIR
 10
1.0
 20
0.0
 30
0.0
  9
$PUCSYDIR
 10
0.0
 20
1.0
 30
0.0
  9
$PUCSORTHOREF
  2

  9
$PUCSORTHOVIEW
 70
     0
  9
$PUCSORGTOP
 10
0.0
 20
0.0
 30
0.0
  9
$PUCSORGBOTTOM
 10
0.0
 20
0.0
 30
0.0
  9
$PUCSORGLEFT
 10
0.0
 20
0.0
 30
0.0
  9
$PUCSORGRIGHT
 10
0.0
 20
0.0
 30
0.0
  9
$PUCSORGFRONT
 10
0.0
 20
0.0
 30
0.0
  9
$PUCSORGBACK
 10
0.0
 20
0.0
 30
0.0
  9
$USERI1
 70
     0
  9
$USERI2
 70
     0
  9
$USERI3
 70
     0
  9
$USERI4
 70
     0
  9
$USERI5
 70
     0
  9
$USERR1
 40
0.0
  9
$USERR2
 40
0.0
  9
$USERR3
 40
0.0
  9
$USERR4
 40
0.0
  9
$USERR5
 40
0.0
  9
$WORLDVIEW
 70
     1
  9
$SHADEDGE
 70
     3
  9
$SHADEDIF
 70
    70
  9
$TILEMODE
 70
     1
  9
$MAXACTVP
 70
    64
  9
$PINSBASE
 10
0.0
 20
0.0
 30
0.0
  9
$PLIMCHECK
 70
     0
  9
$PEXTMIN
 10
1.000000000000000E+20
 20
1.000000000000000E+20
 30
1.000000000000000E+20
  9
$PEXTMAX
 10
-1.000000000000000E+20
 20
-1.000000000000000E+20
 30
-1.000000000000000E+20
  9
$PLIMMIN
 10
0.0
 20
0.0
  9
$PLIMMAX
 10
420.0
 20
297.0
  9
$UNITMODE
 70
     0
  9
$VISRETAIN
 70
     1
  9
$PLINEGEN
 70
     0
  9
$PSLTSCALE
 70
     1
  9
$TREEDEPTH
 70
  3020
  9
$CMLSTYLE
  2
Standard
  9
$CMLJUST
 70
     0
  9
$CMLSCALE
 40
20.0
  9
$PROXYGRAPHICS
 70
     1
  9
$MEASUREMENT
 70
     1
  9
$CELWEIGHT
370
    -1
  9
$ENDCAPS
280
     0
  9
$JOINSTYLE
280
     0
  9
$LWDISPLAY
290
     0
  9
$INSUNITS
 70
     4
  9
$HYPERLINKBASE
  1

  9
$STYLESHEET
  1

  9
$XEDIT
290
     1
  9
$CEPSNTYPE
380
     0
  9
$PSTYLEMODE
290
     1
  9
$FINGERPRINTGUID
  2
{09B8B5B5-FF79-45F8-BF7B-30F6C36ED587}
  9
$VERSIONGUID
  2
{FAEB1C32-E019-11D5-929B-00C0DF256EC4}
  9
$EXTNAMES
290
     1
  9
$PSVPSCALE
 40
0.0
  9
$OLESTARTUP
290
     0
  0
ENDSEC
  0
SECTION
  2
CLASSES
  0
CLASS
  1
ACDBDICTIONARYWDFLT
  2
AcDbDictionaryWithDefault
  3
ObjectDBX Classes
 90
        0
280
     0
281
     0
  0
CLASS
  1
VISUALSTYLE
  2
AcDbVisualStyle
  3
ObjectDBX Classes
 90
     4095
280
     0
281
     0
  0
CLASS
  1
MATERIAL
  2
AcDbMaterial
  3
ObjectDBX Classes
 90
     1153
280
     0
281
     0
  0
CLASS
  1
SCALE
  2
AcDbScale
  3
ObjectDBX Classes
 90
     1153
280
     0
281
     0
  0
CLASS
  1
DICTIONARYVAR
  2
AcDbDictionaryVar
  3
ObjectDBX Classes
 90
        0
280
     0
281
     0
  0
CLASS
  1
ACDBPLACEHOLDER
  2
AcDbPlaceHolder
  3
ObjectDBX Classes
 90
        0
280
     0
281
     0
  0
CLASS
  1
LAYOUT
  2
AcDbLayout
  3
ObjectDBX Classes
 90
        0
280
     0
281
     0
  0
ENDSEC
  0
SECTION
  2
TABLES
  0
TABLE
  2
VPORT
  5
8
330
0
100
AcDbSymbolTable
 70
     1
  0
VPORT
  5
29
330
8
100
AcDbSymbolTableRecord
100
AcDbViewportTableRecord
  2
*Active
 70
     0
 10
0.0
 20
0.0
 11
1.0
 21
1.0
 12
11.26
 22
4.5
 13
0.0
 23
0.0
 14
10.0
 24
10.0
 15
10.0
 25
10.0
 16
0.0
 26
0.0
 36
1.0
 17
0.0
 27
0.0
 37
0.0
 40
9.0
 41
2.503333333333333
 42
50.0
 43
0.0
 44
0.0
 50
0.0
 51
0.0
 71
     0
 72
   100
 73
     1
 74
     3
 75
     0
 76
     0
 77
     0
 78
     0
281
     0
 65
     1
110
0.0
120
0.0
130
0.0
111
1.0
121
0.0
131
0.0
112
0.0
122
1.0
132
0.0
 79
     0
146
0.0
  0
ENDTAB
  0
TABLE
  2
LTYPE
  5
5
330
0
100
AcDbSymbolTable
 70
    10
  0
LTYPE
  5
14
330
5
100
AcDbSymbolTableRecord
100
AcDbLinetypeTableRecord
  2
ByBlock
 70
     0
  3

 72
    65
 73
     0
 40
0.0
  0
LTYPE
  5
15
330
5
100
AcDbSymbolTableRecord
100
AcDbLinetypeTableRecord
  2
ByLayer
 70
     0
  3

 72
    65
 73
     0
 40
0.0
  0
LTYPE
  5
16
330
5
100
AcDbSymbolTableRecord
100
AcDbLinetypeTableRecord
  2
Continuous
 70
     0
  3
Solid line
 72
    65
 73
     0
 40
0.0
  0
LTYPE
  5
45
330
5
100
AcDbSymbolTableRecord
100
AcDbLinetypeTableRecord
  2
phl_thick
 70
     0
  3
THICK
 72
    65
 73
     0
 40
0.0
  0
LTYPE
  5
209
330
5
100
AcDbSymbolTableRecord
100
AcDbLinetypeTableRecord
  2
ls_CUT
 70
     0
  3
THICK
 72
    65
 73
     0
 40
0.0
  0
LTYPE
  5
20F
330
5
100
AcDbSymbolTableRecord
100
AcDbLinetypeTableRecord
  2
ls1
 70
     0
  3
THICK
 72
    65
 73
     0
 40
0.0
  0
LTYPE
  5
216
330
5
100
AcDbSymbolTableRecord
100
AcDbLinetypeTableRecord
  2
NOCUT
 70
     0
  3
THICK
 72
    65
 73
     0
 40
0.0
  0
LTYPE
  5
21A
330
5
100
AcDbSymbolTableRecord
100
AcDbLinetypeTableRecord
  2
SK1
 70
     0
  3
THICK
 72
    65
 73
     0
 40
0.0
  0
LTYPE
  5
222
330
5
100
AcDbSymbolTableRecord
100
AcDbLinetypeTableRecord
  2
ls_SK2
 70
     0
  3
THIN
 72
    65
 73
     0
 40
0.0
  0
LTYPE
  5
2CD
330
5
100
AcDbSymbolTableRecord
100
AcDbLinetypeTableRecord
  2
ls_2
 70
     0
  3
THIN
 72
    65
 73
     0
 40
0.0
  0
LTYPE
  5
41D
330
5
100
AcDbSymbolTableRecord
100
AcDbLinetypeTableRecord
  2
LONGDASH_DASH
 70
     0
  3
THIN_DASHDOT
 72
    65
 73
     4
 40
0.85
 49
0.4
 74
     0
 49
-0.2
 74
     0
 49
0.05
 74
     0
 49
-0.2
 74
     0
  0
LTYPE
  5
45A
330
5
100
AcDbSymbolTableRecord
100
AcDbLinetypeTableRecord
  2
ls_SK1
 70
     0
  3
THICK
 72
    65
 73
     0
 40
0.0
  0
ENDTAB
  0
TABLE
  2
LAYER
  5
2
330
0
100
AcDbSymbolTable
 70
    10
  0
LAYER
  5
10
330
2
100
AcDbSymbolTableRecord
100
AcDbLayerTableRecord
  2
0
 70
     0
 62
     7
  6
Continuous
370
    -3
390
F
  0
LAYER
  5
44
330
2
100
AcDbSymbolTableRecord
100
AcDbLayerTableRecord
  2
1
 70
     0
 62
4
  6
CONTINUOUS
370
50
370
    -3
390
F
  0
LAYER
  5
208
330
2
100
AcDbSymbolTableRecord
100
AcDbLayerTableRecord
  2
CUT
 70
     0
 62
1
  6
CONTINUOUS
370
25
370
    -3
390
F
  0
LAYER
  5
20E
330
2
100
AcDbSymbolTableRecord
100
AcDbLayerTableRecord
  2
NOCUT
 70
     0
 62
7
  6
CONTINUOUS
370
25
370
    -3
390
F
  0
LAYER
  5
219
330
2
100
AcDbSymbolTableRecord
100
AcDbLayerTableRecord
  2
SK1
 70
     0
 62
4
  6
CONTINUOUS
370
50
370
    -3
390
F
  0
LAYER
  5
221
330
2
100
AcDbSymbolTableRecord
100
AcDbLayerTableRecord
  2
SK2
 70
     0
 62
7
  6
CONTINUOUS
370
25
370
    -3
390
F
  0
LAYER
  5
2CC
330
2
100
AcDbSymbolTableRecord
100
AcDbLayerTableRecord
  2
2
 70
     0
 62
7
  6
CONTINUOUS
370
25
370
    -3
390
F
  0
LAYER
  5
41C
330
2
100
AcDbSymbolTableRecord
100
AcDbLayerTableRecord
  2
4
 70
     0
 62
2
  6
LONGDASH_DASH
370
25
370
    -3
390
F
  0
LAYER
  5
41F
330
2
100
AcDbSymbolTableRecord
100
AcDbLayerTableRecord
  2
SK4
 70
     0
 62
2
  6
LONGDASH_DASH
370
25
370
    -3
390
F
  0
LAYER
  5
493
330
2
100
AcDbSymbolTableRecord
100
AcDbLayerTableRecord
  2
SK6
 70
     0
 62
5
  6
CONTINUOUS
370
25
370
    -3
390
F
  0
ENDTAB
  0
TABLE
  2
STYLE
  5
3
330
0
100
AcDbSymbolTable
 70
     1
  0
STYLE
  5
11
330
3
100
AcDbSymbolTableRecord
100
AcDbTextStyleTableRecord
  2
Standard
 70
     0
 40
0.0
 41
1.0
 50
0.0
 71
     0
 42
2.5
  3
Monospac821 BT
  4

  0
ENDTAB
  0
TABLE
  2
VIEW
  5
6
330
0
100
AcDbSymbolTable
 70
     0
  0
ENDTAB
  0
TABLE
  2
UCS
  5
7
330
0
100
AcDbSymbolTable
 70
     0
  0
ENDTAB
  0
TABLE
  2
APPID
  5
9
330
0
100
AcDbSymbolTable
 70
     2
  0
APPID
  5
12
330
9
100
AcDbSymbolTableRecord
100
AcDbRegAppTableRecord
  2
ACAD
 70
     0
  0
APPID
  5
3F
330
9
100
AcDbSymbolTableRecord
100
AcDbRegAppTableRecord
  2
ccLab
 70
     0
  0
ENDTAB
  0
TABLE
  2
DIMSTYLE
  5
A
330
0
100
AcDbSymbolTable
 70
     1
100
AcDbDimStyleTable
  0
DIMSTYLE
105
27
330
A
100
AcDbSymbolTableRecord
100
AcDbDimStyleTableRecord
  2
ISO-25
 70
     0
 41
2.5
 42
0.625
 43
3.75
 44
1.25
 73
     0
 74
     0
 77
     1
 78
     8
140
2.5
141
2.5
143
0.03937007874016
147
0.625
171
     3
172
     1
271
     2
272
     2
274
     3
278
    44
283
     0
284
     8
340
11
  0
ENDTAB
  0
TABLE
  2
BLOCK_RECORD
  5
1
330
0
100
AcDbSymbolTable
 70
     2
  0
BLOCK_RECORD
  5
1F
330
1
100
AcDbSymbolTableRecord
100
AcDbBlockTableRecord
  2
*Model_Space
340
22
  0
BLOCK_RECORD
  5
1B
330
1
100
AcDbSymbolTableRecord
100
AcDbBlockTableRecord
  2
*Paper_Space
340
1E
  0
BLOCK_RECORD
  5
23
330
1
100
AcDbSymbolTableRecord
100
AcDbBlockTableRecord
  2
*Paper_Space0
340
26
  0
ENDTAB
  0
ENDSEC
  0
SECTION
  2
BLOCKS
  0
BLOCK
  5
20
330
1F
100
AcDbEntity
  8
0
100
AcDbBlockBegin
  2
*Model_Space
 70
     0
 10
0.0
 20
0.0
 30
0.0
  3
*Model_Space
  1

  0
ENDBLK
  5
21
330
1F
100
AcDbEntity
  8
0
100
AcDbBlockEnd
  0
BLOCK
  5
1C
330
1B
100
AcDbEntity
 67
     1
  8
0
100
AcDbBlockBegin
  2
*Paper_Space
 70
     0
 10
0.0
 20
0.0
 30
0.0
  3
*Paper_Space
  1

  0
ENDBLK
  5
1D
330
1B
100
AcDbEntity
 67
     1
  8
0
100
AcDbBlockEnd
  0
BLOCK
  5
24
330
23
100
AcDbEntity
  8
0
100
AcDbBlockBegin
  2
*Paper_Space0
 70
     0
 10
0.0
 20
0.0
 30
0.0
  3
*Paper_Space0
  1

  0
ENDBLK
  5
25
330
23
100
AcDbEntity
  8
0
100
AcDbBlockEnd
  0
ENDSEC
  0
SECTION
  2
ENTITIES
  0
LINE
  5
49D
330
1F
100
AcDbEntity
  8
1
  6
CONTINUOUS
370
50
 62
4
100
AcDbLine
 10
47.341652
 20
-0.6679039999999999
 30
0.0
 11
47.34156
 21
-0.580575
 31
0.0
  0
LINE
  5
49E
330
1F
100
AcDbEntity
  8
1
  6
CONTINUOUS
370
50
 62
4
100
AcDbLine
 10
47.341904
 20
-0.753219
 30
0.0
 11
47.341652
 21
-0.6679039999999999
 31
0.0
  0
LINE
  5
49F
330
1F
100
AcDbEntity
  8
1
  6
CONTINUOUS
370
50
 62
4
100
AcDbLine
 10
47.342316
 20
-0.8355309999999999
 30
0.0
 11
47.341904
 21
-0.753219
 31
0.0
  0
LINE
  5
4A0
330
1F
100
AcDbEntity
  8
1
  6
CONTINUOUS
370
50
 62
4
100
AcDbLine
 10
47.34288799999999
 20
-0.913848
 30
0.0
 11
47.342316
 21
-0.8355309999999999
 31
0.0
  0
LINE
  5
4A1
330
1F
100
AcDbEntity
  8
1
  6
CONTINUOUS
370
50
 62
4
100
AcDbLine
 10
47.343628
 20
-0.987181
 30
0.0
 11
47.34288799999999
 21
-0.913848
 31
0.0
  0
LINE
  5
4A2
330
1F
100
AcDbEntity
  8
1
  6
CONTINUOUS
370
50
 62
4
100
AcDbLine
 10
47.344528
 20
-1.0546
 30
0.0
 11
47.343628
 21
-0.987181
 31
0.0
  0
LINE
  5
4A3
330
1F
100
AcDbEntity
  8
1
  6
CONTINUOUS
370
50
 62
4
100
AcDbLine
 10
47.345581
 20
-1.115596
 30
0.0
 11
47.344528
 21
-1.0546
 31
0.0
  0
LINE
  5
4A4
330
1F
100
AcDbEntity
  8
1
  6
CONTINUOUS
370
50
 62
4
100
AcDbLine
 10
47.424248
 20
1.028597
 30
0.0
 11
47.42383599999999
 21
1.052449
 31
0.0
  0
LINE
  5
4A5
330
1F
100
AcDbEntity
  8
1
  6
CONTINUOUS
370
50
 62
4
100
AcDbLine
 10
47.346764
 20
-1.169854
 30
0.0
 11
47.345581
 21
-1.115596
 31
0.0
  0
LINE
  5
4A6
330
1F
100
AcDbEntity
  8
1
  6
CONTINUOUS
370
50
 62
4
100
AcDbLine
 10
47.348064
 20
-1.217058
 30
0.0
 11
47.346764
 21
-1.169854
 31
0.0
  0
LINE
  5
4A7
330
1F
100
AcDbEntity
  8
1
  6
CONTINUOUS
370
50
 62
4
100
AcDbLine
 10
47.349464
 20
-1.25689
 30
0.0
 11
47.348064
 21
-1.217058
 31
0.0
  0
LINE
  5
4A8
330
1F
100
AcDbEntity
  8
1
  6
CONTINUOUS
370
50
 62
4
100
AcDbLine
 10
47.350956
 20
-1.28927
 30
0.0
 11
47.349464
 21
-1.25689
 31
0.0
  0
LINE
  5
4A9
330
1F
100
AcDbEntity
  8
1
  6
CONTINUOUS
370
50
 62
4
100
AcDbLine
 10
47.370483
 20
1.219258
 30
0.0
 11
47.36924699999999
 21
1.243058
 31
0.0
  0
LINE
  5
4AA
330
1F
100
AcDbEntity
  8
1
  6
CONTINUOUS
370
50
 62
4
100
AcDbLine
 10
47.36924699999999
 20
1.243058
 30
0.0
 11
47.367996
 21
1.264755
 31
0.0
  0
LINE
  5
4AB
330
1F
100
AcDbEntity
  8
1
  6
CONTINUOUS
370
50
 62
4
100
AcDbLine
 10
47.352581
 20
-1.31506
 30
0.0
 11
47.350956
 21
-1.28927
 31
0.0
  0
LINE
  5
4AC
330
1F
100
AcDbEntity
  8
1
  6
CONTINUOUS
370
50
 62
4
100
AcDbLine
 10
47.367996
 20
1.264755
 30
0.0
 11
47.366734
 21
1.284242
 31
0.0
  0
LINE
  5
4AD
330
1F
100
AcDbEntity
  8
1
  6
CONTINUOUS
370
50
 62
4
100
AcDbLine
 10
31.999176
 20
-0.573456
 30
0.0
 11
31.996346
 21
-0.53122
 31
0.0
  0
LINE
  5
4AE
330
1F
100
AcDbEntity
  8
1
  6
CONTINUOUS
370
50
 62
4
100
AcDbLine
 10
47.366734
 20
1.284242
 30
0.0
 11
47.365467
 21
1.301414
 31
0.0
  0
LINE
  5
4AF
330
1F
100
AcDbEntity
  8
1
  6
CONTINUOUS
370
50
 62
4
100
AcDbLine
 10
47.365467
 20
1.301414
 30
0.0
 11
47.364204
 21
1.316163
 31
0.0
  0
LINE
  5
4B0
330
1F
100
AcDbEntity
  8
1
  6
CONTINUOUS
370
50
 62
4
100
AcDbLine
 10
47.354328
 20
-1.334035
 30
0.0
 11
47.352581
 21
-1.31506
 31
0.0
  0
LINE
  5
4B1
330
1F
100
AcDbEntity
  8
1
  6
CONTINUOUS
370
50
 62
4
100
AcDbLine
 10
47.364204
 20
1.316163
 30
0.0
 11
47.362942
 21
1.328383
 31
0.0
  0
LINE
  5
4B2
330
1F
100
AcDbEntity
  8
1
  6
CONTINUOUS
370
50
 62
4
100
AcDbLine
 10
47.362942
 20
1.328383
 30
0.0
 11
47.361691
 21
1.337967
 31
0.0
  0
LINE
  5
4B3
330
1F
100
AcDbEntity
  8
1
  6
CONTINUOUS
370
50
 62
4
100
AcDbLine
 10
47.356186
 20
-1.34579
 30
0.0
 11
47.354328
 21
-1.334035
 31
0.0
  0
LINE
  5
4B4
330
1F
100
AcDbEntity
  8
1
  6
CONTINUOUS
370
50
 62
4
100
AcDbLine
 10
47.912212
 20
-0.024234
 30
0.0
 11
47.910885
 21
-0.016288
 31
0.0
  0
LINE
  5
4B5
330
1F
100
AcDbEntity
  8
1
  6
CONTINUOUS
370
50
 62
4
100
AcDbLine
 10
47.361691
 20
1.337967
 30
0.0
 11
47.36045499999999
 21
1.34481
 31
0.0
  0
LINE
  5
4B6
330
1F
100
AcDbEntity
  8
1
  6
CONTINUOUS
370
50
 62
4
100
AcDbLine
 10
47.910885
 20
-0.016288
 30
0.0
 11
47.909355
 21
-0.00814
 31
0.0
  0
LINE
  5
4B7
330
1F
100
AcDbEntity
  8
1
  6
CONTINUOUS
370
50
 62
4
100
AcDbLine
 10
32.007458
 20
-0.617323
 30
0.0
 11
31.999176
 21
-0.573456
 31
0.0
  0
LINE
  5
4B8
330
1F
100
AcDbEntity
  8
1
  6
CONTINUOUS
370
50
 62
4
100
AcDbLine
 10
47.909355
 20
-0.00814
 30
0.0
 11
47.907612
 21
0.000242
 31
0.0
  0
LINE
  5
4B9
330
1F
100
AcDbEntity
  8
1
  6
CONTINUOUS
370
50
 62
4
100
AcDbLine
 10
47.907612
 20
0.000242
 30
0.0
 11
47.905643
 21
0.00889
 31
0.0
  0
LINE
  5
4BA
330
1F
100
AcDbEntity
  8
1
  6
CONTINUOUS
370
50
 62
4
100
AcDbLine
 10
47.905643
 20
0.00889
 30
0.0
 11
47.90343499999999
 21
0.017842
 31
0.0
  0
LINE
  5
4BB
330
1F
100
AcDbEntity
  8
1
  6
CONTINUOUS
370
50
 62
4
100
AcDbLine
 10
47.90343499999999
 20
0.017842
 30
0.0
 11
47.900974
 21
0.027138
 31
0.0
  0
LINE
  5
4BC
330
1F
100
AcDbEntity
  8
1
  6
CONTINUOUS
370
50
 62
4
100
AcDbLine
 10
47.900974
 20
0.027138
 30
0.0
 11
47.898239
 21
0.036823
 31
0.0
  0
LINE
  5
4BD
330
1F
100
AcDbEntity
  8
1
  6
CONTINUOUS
370
50
 62
4
100
AcDbLine
 10
47.36045499999999
 20
1.34481
 30
0.0
 11
47.359241
 21
1.348804
 31
0.0
  0
LINE
  5
4BE
330
1F
100
AcDbEntity
  8
1
  6
CONTINUOUS
370
50
 62
4
100
AcDbLine
 10
32.02129
 20
-0.662659
 30
0.0
 11
32.007458
 21
-0.617323
 31
0.0
  0
LINE
  5
4BF
330
1F
100
AcDbEntity
  8
1
  6
CONTINUOUS
370
50
 62
4
100
AcDbLine
 10
47.901695
 20
0.03687
 30
0.0
 11
47.889454
 21
0.075089
 31
0.0
  0
LINE
  5
4C0
330
1F
100
AcDbEntity
  8
1
  6
CONTINUOUS
370
50
 62
4
100
AcDbLine
 10
47.889454
 20
0.075089
 30
0.0
 11
47.872089
 21
0.121891
 31
0.0
  0
LINE
  5
4C1
330
1F
100
AcDbEntity
  8
1
  6
CONTINUOUS
370
50
 62
4
100
AcDbLine
 10
47.872089
 20
0.121891
 30
0.0
 11
47.847191
 21
0.182263
 31
0.0
  0
LINE
  5
4C2
330
1F
100
AcDbEntity
  8
1
  6
CONTINUOUS
370
50
 62
4
100
AcDbLine
 10
32.040558
 20
-0.708855
 30
0.0
 11
32.02129
 21
-0.662659
 31
0.0
  0
LINE
  5
4C3
330
1F
100
AcDbEntity
  8
1
  6
CONTINUOUS
370
50
 62
4
100
AcDbLine
 10
47.42383599999999
 20
1.052449
 30
0.0
 11
47.416374
 21
1.069363
 31
0.0
  0
LINE
  5
4C4
330
1F
100
AcDbEntity
  8
1
  6
CONTINUOUS
370
50
 62
4
100
AcDbLine
 10
47.847191
 20
0.182263
 30
0.0
 11
47.810242
 21
0.265293
 31
0.0
  0
LINE
  5
4C5
330
1F
100
AcDbEntity
  8
1
  6
CONTINUOUS
370
50
 62
4
100
AcDbLine
 10
47.416374
 20
1.069363
 30
0.0
 11
47.408829
 21
1.086266
 31
0.0
  0
LINE
  5
4C6
330
1F
100
AcDbEntity
  8
1
  6
CONTINUOUS
370
50
 62
4
100
AcDbLine
 10
47.408829
 20
1.086266
 30
0.0
 11
47.401241
 21
1.103166
 31
0.0
  0
LINE
  5
4C7
330
1F
100
AcDbEntity
  8
1
  6
CONTINUOUS
370
50
 62
4
100
AcDbLine
 10
47.401241
 20
1.103166
 30
0.0
 11
47.393608
 21
1.120056
 31
0.0
  0
LINE
  5
4C8
330
1F
100
AcDbEntity
  8
1
  6
CONTINUOUS
370
50
 62
4
100
AcDbLine
 10
47.393608
 20
1.120056
 30
0.0
 11
47.385937
 21
1.136932
 31
0.0
  0
LINE
  5
4C9
330
1F
100
AcDbEntity
  8
1
  6
CONTINUOUS
370
50
 62
4
100
AcDbLine
 10
47.385937
 20
1.136932
 30
0.0
 11
47.378231
 21
1.153788
 31
0.0
  0
LINE
  5
4CA
330
1F
100
AcDbEntity
  8
1
  6
CONTINUOUS
370
50
 62
4
100
AcDbLine
 10
47.378231
 20
1.153788
 30
0.0
 11
47.370483
 21
1.170614
 31
0.0
  0
LINE
  5
4CB
330
1F
100
AcDbEntity
  8
1
  6
CONTINUOUS
370
50
 62
4
100
AcDbLine
 10
47.358135
 20
-1.350001
 30
0.0
 11
47.356186
 21
-1.34579
 31
0.0
  0
LINE
  5
4CC
330
1F
100
AcDbEntity
  8
1
  6
CONTINUOUS
370
50
 62
4
100
AcDbLine
 10
47.810242
 20
0.265293
 30
0.0
 11
47.751835
 21
0.389692
 31
0.0
  0
LINE
  5
4CD
330
1F
100
AcDbEntity
  8
1
  6
CONTINUOUS
370
50
 62
4
100
AcDbLine
 10
48.0
 20
0.0
 30
0.0
 11
47.359222
 21
1.348845
 31
0.0
  0
LINE
  5
4CE
330
1F
100
AcDbEntity
  8
1
  6
CONTINUOUS
370
50
 62
4
100
AcDbLine
 10
47.751835
 20
0.389692
 30
0.0
 11
47.648705
 21
0.601433
 31
0.0
  0
LINE
  5
4CF
330
1F
100
AcDbEntity
  8
1
  6
CONTINUOUS
370
50
 62
4
100
AcDbLine
 10
47.648705
 20
0.601433
 30
0.0
 11
47.42383599999999
 21
1.052449
 31
0.0
  0
LINE
  5
4D0
330
1F
100
AcDbEntity
  8
1
  6
CONTINUOUS
370
50
 62
4
100
AcDbLine
 10
48.0
 20
0.0
 30
0.0
 11
47.370483
 21
1.219258
 31
0.0
  0
LINE
  5
4D1
330
1F
100
AcDbEntity
  8
1
  6
CONTINUOUS
370
50
 62
4
100
AcDbLine
 10
47.359241
 20
1.348804
 30
0.0
 11
47.359055
 21
1.349162
 31
0.0
  0
LINE
  5
4D2
330
1F
100
AcDbEntity
  8
1
  6
CONTINUOUS
370
50
 62
4
100
AcDbLine
 10
32.063839
 20
-0.753374
 30
0.0
 11
32.040558
 21
-0.708855
 31
0.0
  0
LINE
  5
4D3
330
1F
100
AcDbEntity
  8
1
  6
CONTINUOUS
370
50
 62
4
100
AcDbLine
 10
47.587513
 20
-0.113868
 30
0.0
 11
47.548119
 21
-0.050232
 31
0.0
  0
LINE
  5
4D4
330
1F
100
AcDbEntity
  8
1
  6
CONTINUOUS
370
50
 62
4
100
AcDbLine
 10
32.090092
 20
-0.7956329999999999
 30
0.0
 11
32.063839
 21
-0.753374
 31
0.0
  0
LINE
  5
4D5
330
1F
100
AcDbEntity
  8
1
  6
CONTINUOUS
370
50
 62
4
100
AcDbLine
 10
47.548119
 20
-0.050232
 30
0.0
 11
47.501316
 21
0.023047
 31
0.0
  0
LINE
  5
4D6
330
1F
100
AcDbEntity
  8
1
  6
CONTINUOUS
370
50
 62
4
100
AcDbLine
 10
47.359055
 20
1.349162
 30
0.0
 11
47.358868
 21
1.34945
 31
0.0
  0
LINE
  5
4D7
330
1F
100
AcDbEntity
  8
1
  6
CONTINUOUS
370
50
 62
4
100
AcDbLine
 10
47.501316
 20
0.023047
 30
0.0
 11
47.446548
 21
0.106809
 31
0.0
  0
LINE
  5
4D8
330
1F
100
AcDbEntity
  8
1
  6
CONTINUOUS
370
50
 62
4
100
AcDbLine
 10
47.446548
 20
0.106809
 30
0.0
 11
47.383251
 21
0.201896
 31
0.0
  0
LINE
  5
4D9
330
1F
100
AcDbEntity
  8
1
  6
CONTINUOUS
370
50
 62
4
100
AcDbLine
 10
47.383251
 20
0.201896
 30
0.0
 11
47.310863
 21
0.309151
 31
0.0
  0
LINE
  5
4DA
330
1F
100
AcDbEntity
  8
1
  6
CONTINUOUS
370
50
 62
4
100
AcDbLine
 10
47.310863
 20
0.309151
 30
0.0
 11
47.211052
 21
0.455376
 31
0.0
  0
LINE
  5
4DB
330
1F
100
AcDbEntity
  8
1
  6
CONTINUOUS
370
50
 62
4
100
AcDbLine
 10
47.211052
 20
0.455376
 30
0.0
 11
47.054581
 21
0.681626
 31
0.0
  0
LINE
  5
4DC
330
1F
100
AcDbEntity
  8
1
  6
CONTINUOUS
370
50
 62
4
100
AcDbLine
 10
32.118729
 20
-0.835819
 30
0.0
 11
32.090092
 21
-0.7956329999999999
 31
0.0
  0
LINE
  5
4DD
330
1F
100
AcDbEntity
  8
1
  6
CONTINUOUS
370
50
 62
4
100
AcDbLine
 10
32.150314
 20
-0.875296
 30
0.0
 11
32.118729
 21
-0.835819
 31
0.0
  0
LINE
  5
4DE
330
1F
100
AcDbEntity
  8
1
  6
CONTINUOUS
370
50
 62
4
100
AcDbLine
 10
47.358868
 20
1.34945
 30
0.0
 11
47.358685
 21
1.349671
 31
0.0
  0
LINE
  5
4DF
330
1F
100
AcDbEntity
  8
1
  6
CONTINUOUS
370
50
 62
4
100
AcDbLine
 10
32.184742
 20
-0.914099
 30
0.0
 11
32.150314
 21
-0.875296
 31
0.0
  0
LINE
  5
4E0
330
1F
100
AcDbEntity
  8
1
  6
CONTINUOUS
370
50
 62
4
100
AcDbLine
 10
32.221798
 20
-0.9521339999999999
 30
0.0
 11
32.184742
 21
-0.914099
 31
0.0
  0
LINE
  5
4E1
330
1F
100
AcDbEntity
  8
1
  6
CONTINUOUS
370
50
 62
4
100
AcDbLine
 10
32.261288
 20
-0.9893059999999999
 30
0.0
 11
32.221798
 21
-0.9521339999999999
 31
0.0
  0
LINE
  5
4E2
330
1F
100
AcDbEntity
  8
1
  6
CONTINUOUS
370
50
 62
4
100
AcDbLine
 10
37.399277
 20
-1.052793
 30
0.0
 11
37.399136
 21
-1.052663
 31
0.0
  0
LINE
  5
4E3
330
1F
100
AcDbEntity
  8
1
  6
CONTINUOUS
370
50
 62
4
100
AcDbLine
 10
37.400002
 20
-1.053443
 30
0.0
 11
37.399277
 21
-1.052793
 31
0.0
  0
LINE
  5
4E4
330
1F
100
AcDbEntity
  8
1
  6
CONTINUOUS
370
50
 62
4
100
AcDbLine
 10
32.302986
 20
-1.025503
 30
0.0
 11
32.261288
 21
-0.9893059999999999
 31
0.0
  0
LINE
  5
4E5
330
1F
100
AcDbEntity
  8
1
  6
CONTINUOUS
370
50
 62
4
100
AcDbLine
 10
47.358685
 20
1.349671
 30
0.0
 11
47.358501
 21
1.349823
 31
0.0
  0
LINE
  5
4E6
330
1F
100
AcDbEntity
  8
1
  6
CONTINUOUS
370
50
 62
4
100
AcDbLine
 10
47.912212
 20
-0.024234
 30
0.0
 11
47.054581
 21
0.681626
 31
0.0
  0
LINE
  5
4E7
330
1F
100
AcDbEntity
  8
1
  6
CONTINUOUS
370
50
 62
4
100
AcDbLine
 10
32.345985
 20
-1.060067
 30
0.0
 11
32.302986
 21
-1.025503
 31
0.0
  0
LINE
  5
4E8
330
1F
100
AcDbEntity
  8
1
  6
CONTINUOUS
370
50
 62
4
100
AcDbLine
 10
33.250988
 20
-0.624405
 30
0.0
 11
33.187046
 21
-0.5735129999999999
 31
0.0
  0
LINE
  5
4E9
330
1F
100
AcDbEntity
  8
1
  6
CONTINUOUS
370
50
 62
4
100
AcDbLine
 10
33.187046
 20
-0.5735129999999999
 30
0.0
 11
33.122978
 21
-0.524698
 31
0.0
  0
LINE
  5
4EA
330
1F
100
AcDbEntity
  8
1
  6
CONTINUOUS
370
50
 62
4
100
AcDbLine
 10
47.186417
 20
-0.079417
 30
0.0
 11
47.01420599999999
 21
0.050259
 31
0.0
  0
LINE
  5
4EB
330
1F
100
AcDbEntity
  8
1
  6
CONTINUOUS
370
50
 62
4
100
AcDbLine
 10
38.043118
 20
-0.057144
 30
0.0
 11
37.859768
 21
0.080865
 31
0.0
  0
LINE
  5
4EC
330
1F
100
AcDbEntity
  8
1
  6
CONTINUOUS
370
50
 62
4
100
AcDbLine
 10
35.792412
 20
0.0
 30
0.0
 11
35.658718
 21
0.100576
 31
0.0
  0
LINE
  5
4ED
330
1F
100
AcDbEntity
  8
1
  6
CONTINUOUS
370
50
 62
4
100
AcDbLine
 10
47.212452
 20
-0.098988
 30
0.0
 11
47.186417
 21
-0.079417
 31
0.0
  0
LINE
  5
4EE
330
1F
100
AcDbEntity
  8
1
  6
CONTINUOUS
370
50
 62
4
100
AcDbLine
 10
35.809628
 20
-0.01294
 30
0.0
 11
35.792412
 21
0.0
 31
0.0
  0
LINE
  5
4EF
330
1F
100
AcDbEntity
  8
1
  6
CONTINUOUS
370
50
 62
4
100
AcDbLine
 10
37.859768
 20
0.080865
 30
0.0
 11
37.783409
 21
0.138228
 31
0.0
  0
LINE
  5
4F0
330
1F
100
AcDbEntity
  8
1
  6
CONTINUOUS
370
50
 62
4
100
AcDbLine
 10
35.826859
 20
-0.02588
 30
0.0
 11
35.809628
 21
-0.01294
 31
0.0
  0
LINE
  5
4F1
330
1F
100
AcDbEntity
  8
1
  6
CONTINUOUS
370
50
 62
4
100
AcDbLine
 10
47.238495
 20
-0.118531
 30
0.0
 11
47.212452
 21
-0.098988
 31
0.0
  0
LINE
  5
4F2
330
1F
100
AcDbEntity
  8
1
  6
CONTINUOUS
370
50
 62
4
100
AcDbLine
 10
35.84410099999999
 20
-0.038816
 30
0.0
 11
35.826859
 21
-0.02588
 31
0.0
  0
LINE
  5
4F3
330
1F
100
AcDbEntity
  8
1
  6
CONTINUOUS
370
50
 62
4
100
AcDbLine
 10
41.543541
 20
-0.080186
 30
0.0
 11
41.370506
 21
0.049519
 31
0.0
  0
LINE
  5
4F4
330
1F
100
AcDbEntity
  8
1
  6
CONTINUOUS
370
50
 62
4
100
AcDbLine
 10
35.861355
 20
-0.051747
 30
0.0
 11
35.84410099999999
 21
-0.038816
 31
0.0
  0
LINE
  5
4F5
330
1F
100
AcDbEntity
  8
1
  6
CONTINUOUS
370
50
 62
4
100
AcDbLine
 10
43.678017
 20
-0.049675
 30
0.0
 11
43.504959
 21
0.079992
 31
0.0
  0
LINE
  5
4F6
330
1F
100
AcDbEntity
  8
1
  6
CONTINUOUS
370
50
 62
4
100
AcDbLine
 10
41.712471
 20
-0.206731
 30
0.0
 11
41.543541
 21
-0.080186
 31
0.0
  0
LINE
  5
4F7
330
1F
100
AcDbEntity
  8
1
  6
CONTINUOUS
370
50
 62
4
100
AcDbLine
 10
47.264545
 20
-0.138043
 30
0.0
 11
47.238495
 21
-0.118531
 31
0.0
  0
LINE
  5
4F8
330
1F
100
AcDbEntity
  8
1
  6
CONTINUOUS
370
50
 62
4
100
AcDbLine
 10
43.850765
 20
-0.179062
 30
0.0
 11
43.678017
 21
-0.049675
 31
0.0
  0
LINE
  5
4F9
330
1F
100
AcDbEntity
  8
1
  6
CONTINUOUS
370
50
 62
4
100
AcDbLine
 10
35.878616
 20
-0.064672
 30
0.0
 11
35.861355
 21
-0.051747
 31
0.0
  0
LINE
  5
4FA
330
1F
100
AcDbEntity
  8
1
  6
CONTINUOUS
370
50
 62
4
100
AcDbLine
 10
41.370506
 20
0.049519
 30
0.0
 11
41.197887
 21
0.178718
 31
0.0
  0
LINE
  5
4FB
330
1F
100
AcDbEntity
  8
1
  6
CONTINUOUS
370
50
 62
4
100
AcDbLine
 10
35.658718
 20
0.100576
 30
0.0
 11
35.524952
 21
0.200668
 31
0.0
  0
LINE
  5
4FC
330
1F
100
AcDbEntity
  8
1
  6
CONTINUOUS
370
50
 62
4
100
AcDbLine
 10
43.504959
 20
0.079992
 30
0.0
 11
43.336193
 21
0.206271
 31
0.0
  0
LINE
  5
4FD
330
1F
100
AcDbEntity
  8
1
  6
CONTINUOUS
370
50
 62
4
100
AcDbLine
 10
35.895889
 20
-0.077591
 30
0.0
 11
35.878616
 21
-0.064672
 31
0.0
  0
LINE
  5
4FE
330
1F
100
AcDbEntity
  8
1
  6
CONTINUOUS
370
50
 62
4
100
AcDbLine
 10
47.290607
 20
-0.157522
 30
0.0
 11
47.264545
 21
-0.138043
 31
0.0
  0
LINE
  5
4FF
330
1F
100
AcDbEntity
  8
1
  6
CONTINUOUS
370
50
 62
4
100
AcDbLine
 10
37.783409
 20
0.138228
 30
0.0
 11
37.706947
 21
0.195346
 31
0.0
  0
LINE
  5
500
330
1F
100
AcDbEntity
  8
1
  6
CONTINUOUS
370
50
 62
4
100
AcDbLine
 10
47.01420599999999
 20
0.050259
 30
0.0
 11
46.841522
 21
0.179189
 31
0.0
  0
LINE
  5
501
330
1F
100
AcDbEntity
  8
1
  6
CONTINUOUS
370
50
 62
4
100
AcDbLine
 10
32.389702
 20
-1.092692
 30
0.0
 11
32.345985
 21
-1.060067
 31
0.0
  0
LINE
  5
502
330
1F
100
AcDbEntity
  8
1
  6
CONTINUOUS
370
50
 62
4
100
AcDbLine
 10
38.226933
 20
-0.194297
 30
0.0
 11
38.043118
 21
-0.057144
 31
0.0
  0
LINE
  5
503
330
1F
100
AcDbEntity
  8
1
  6
CONTINUOUS
370
50
 62
4
100
AcDbLine
 10
47.316689
 20
-0.176964
 30
0.0
 11
47.290607
 21
-0.157522
 31
0.0
  0
LINE
  5
504
330
1F
100
AcDbEntity
  8
1
  6
CONTINUOUS
370
50
 62
4
100
AcDbLine
 10
36.046455
 20
-0.189795
 30
0.0
 11
35.895889
 21
-0.077591
 31
0.0
  0
LINE
  5
505
330
1F
100
AcDbEntity
  8
1
  6
CONTINUOUS
370
50
 62
4
100
AcDbLine
 10
47.342796
 20
-0.196367
 30
0.0
 11
47.316689
 21
-0.176964
 31
0.0
  0
LINE
  5
506
330
1F
100
AcDbEntity
  8
1
  6
CONTINUOUS
370
50
 62
4
100
AcDbLine
 10
41.197887
 20
0.178718
 30
0.0
 11
41.025826
 21
0.30626
 31
0.0
  0
LINE
  5
507
330
1F
100
AcDbEntity
  8
1
  6
CONTINUOUS
370
50
 62
4
100
AcDbLine
 10
37.706947
 20
0.195346
 30
0.0
 11
37.630283
 21
0.252124
 31
0.0
  0
LINE
  5
508
330
1F
100
AcDbEntity
  8
1
  6
CONTINUOUS
370
50
 62
4
100
AcDbLine
 10
44.02309
 20
-0.306675
 30
0.0
 11
43.850765
 21
-0.179062
 31
0.0
  0
LINE
  5
509
330
1F
100
AcDbEntity
  8
1
  6
CONTINUOUS
370
50
 62
4
100
AcDbLine
 10
36.196495
 20
-0.30083
 30
0.0
 11
36.046455
 21
-0.189795
 31
0.0
  0
LINE
  5
50A
330
1F
100
AcDbEntity
  8
1
  6
CONTINUOUS
370
50
 62
4
100
AcDbLine
 10
38.410019
 20
-0.32949
 30
0.0
 11
38.226933
 21
-0.194297
 31
0.0
  0
LINE
  5
50B
330
1F
100
AcDbEntity
  8
1
  6
CONTINUOUS
370
50
 62
4
100
AcDbLine
 10
46.841522
 20
0.179189
 30
0.0
 11
46.669044
 21
0.306541
 31
0.0
  0
LINE
  5
50C
330
1F
100
AcDbEntity
  8
1
  6
CONTINUOUS
370
50
 62
4
100
AcDbLine
 10
43.336193
 20
0.206271
 30
0.0
 11
43.167641
 21
0.330603
 31
0.0
  0
LINE
  5
50D
330
1F
100
AcDbEntity
  8
1
  6
CONTINUOUS
370
50
 62
4
100
AcDbLine
 10
41.881664
 20
-0.331386
 30
0.0
 11
41.712471
 21
-0.206731
 31
0.0
  0
LINE
  5
50E
330
1F
100
AcDbEntity
  8
1
  6
CONTINUOUS
370
50
 62
4
100
AcDbLine
 10
35.524952
 20
0.200668
 30
0.0
 11
35.390697
 21
0.299551
 31
0.0
  0
LINE
  5
50F
330
1F
100
AcDbEntity
  8
1
  6
CONTINUOUS
370
50
 62
4
100
AcDbLine
 10
37.630283
 20
0.252124
 30
0.0
 11
37.553497
 21
0.308444
 31
0.0
  0
LINE
  5
510
330
1F
100
AcDbEntity
  8
1
  6
CONTINUOUS
370
50
 62
4
100
AcDbLine
 10
37.553497
 20
0.308444
 30
0.0
 11
37.476696
 21
0.364234
 31
0.0
  0
LINE
  5
511
330
1F
100
AcDbEntity
  8
1
  6
CONTINUOUS
370
50
 62
4
100
AcDbLine
 10
36.346386
 20
-0.409685
 30
0.0
 11
36.196495
 21
-0.30083
 31
0.0
  0
LINE
  5
512
330
1F
100
AcDbEntity
  8
1
  6
CONTINUOUS
370
50
 62
4
100
AcDbLine
 10
46.669044
 20
0.306541
 30
0.0
 11
46.496918
 21
0.431243
 31
0.0
  0
LINE
  5
513
330
1F
100
AcDbEntity
  8
1
  6
CONTINUOUS
370
50
 62
4
100
AcDbLine
 10
35.390697
 20
0.299551
 30
0.0
 11
35.25655
 21
0.396708
 31
0.0
  0
LINE
  5
514
330
1F
100
AcDbEntity
  8
1
  6
CONTINUOUS
370
50
 62
4
100
AcDbLine
 10
41.025826
 20
0.30626
 30
0.0
 11
40.853046
 21
0.430986
 31
0.0
  0
LINE
  5
515
330
1F
100
AcDbEntity
  8
1
  6
CONTINUOUS
370
50
 62
4
100
AcDbLine
 10
33.122978
 20
-0.524698
 30
0.0
 11
33.058636
 21
-0.478262
 31
0.0
  0
LINE
  5
516
330
1F
100
AcDbEntity
  8
1
  6
CONTINUOUS
370
50
 62
4
100
AcDbLine
 10
44.196033
 20
-0.431308
 30
0.0
 11
44.02309
 21
-0.306675
 31
0.0
  0
LINE
  5
517
330
1F
100
AcDbEntity
  8
1
  6
CONTINUOUS
370
50
 62
4
100
AcDbLine
 10
37.476696
 20
0.364234
 30
0.0
 11
37.400002
 21
0.419424
 31
0.0
  0
LINE
  5
518
330
1F
100
AcDbEntity
  8
1
  6
CONTINUOUS
370
50
 62
4
100
AcDbLine
 10
38.593472
 20
-0.461404
 30
0.0
 11
38.410019
 21
-0.32949
 31
0.0
  0
LINE
  5
519
330
1F
100
AcDbEntity
  8
1
  6
CONTINUOUS
370
50
 62
4
100
AcDbLine
 10
43.167641
 20
0.330603
 30
0.0
 11
42.998436
 21
0.451944
 31
0.0
  0
LINE
  5
51A
330
1F
100
AcDbEntity
  8
1
  6
CONTINUOUS
370
50
 62
4
100
AcDbLine
 10
42.051479
 20
-0.453092
 30
0.0
 11
41.881664
 21
-0.331386
 31
0.0
  0
LINE
  5
51B
330
1F
100
AcDbEntity
  8
1
  6
CONTINUOUS
370
50
 62
4
100
AcDbLine
 10
35.25655
 20
0.396708
 30
0.0
 11
35.122936
 21
0.491685
 31
0.0
  0
LINE
  5
51C
330
1F
100
AcDbEntity
  8
1
  6
CONTINUOUS
370
50
 62
4
100
AcDbLine
 10
36.496925
 20
-0.5156299999999999
 30
0.0
 11
36.346386
 21
-0.409685
 31
0.0
  0
LINE
  5
51D
330
1F
100
AcDbEntity
  8
1
  6
CONTINUOUS
370
50
 62
4
100
AcDbLine
 10
44.368359
 20
-0.5519109999999999
 30
0.0
 11
44.196033
 21
-0.431308
 31
0.0
  0
LINE
  5
51E
330
1F
100
AcDbEntity
  8
1
  6
CONTINUOUS
370
50
 62
4
100
AcDbLine
 10
40.853046
 20
0.430986
 30
0.0
 11
40.680225
 21
0.551725
 31
0.0
  0
LINE
  5
51F
330
1F
100
AcDbEntity
  8
1
  6
CONTINUOUS
370
50
 62
4
100
AcDbLine
 10
46.496918
 20
0.431243
 30
0.0
 11
46.32409699999999
 21
0.551936
 31
0.0
  0
LINE
  5
520
330
1F
100
AcDbEntity
  8
1
  6
CONTINUOUS
370
50
 62
4
100
AcDbLine
 10
37.399136
 20
0.419218
 30
0.0
 11
37.148602
 21
0.593839
 31
0.0
  0
LINE
  5
521
330
1F
100
AcDbEntity
  8
1
  6
CONTINUOUS
370
50
 62
4
100
AcDbLine
 10
42.220692
 20
-0.570928
 30
0.0
 11
42.051479
 21
-0.453092
 31
0.0
  0
LINE
  5
522
330
1F
100
AcDbEntity
  8
1
  6
CONTINUOUS
370
50
 62
4
100
AcDbLine
 10
42.998436
 20
0.451944
 30
0.0
 11
42.829124
 21
0.569739
 31
0.0
  0
LINE
  5
523
330
1F
100
AcDbEntity
  8
1
  6
CONTINUOUS
370
50
 62
4
100
AcDbLine
 10
32.43388
 20
-1.123358
 30
0.0
 11
32.389702
 21
-1.092692
 31
0.0
  0
LINE
  5
524
330
1F
100
AcDbEntity
  8
1
  6
CONTINUOUS
370
50
 62
4
100
AcDbLine
 10
35.122936
 20
0.491685
 30
0.0
 11
34.989273
 21
0.584011
 31
0.0
  0
LINE
  5
525
330
1F
100
AcDbEntity
  8
1
  6
CONTINUOUS
370
50
 62
4
100
AcDbLine
 10
38.777199
 20
-0.588291
 30
0.0
 11
38.593472
 21
-0.461404
 31
0.0
  0
LINE
  5
526
330
1F
100
AcDbEntity
  8
1
  6
CONTINUOUS
370
50
 62
4
100
AcDbLine
 10
36.647362
 20
-0.618055
 30
0.0
 11
36.496925
 21
-0.5156299999999999
 31
0.0
  0
LINE
  5
527
330
1F
100
AcDbEntity
  8
1
  6
CONTINUOUS
370
50
 62
4
100
AcDbLine
 10
33.058636
 20
-0.478262
 30
0.0
 11
32.993851
 21
-0.434506
 31
0.0
  0
LINE
  5
528
330
1F
100
AcDbEntity
  8
1
  6
CONTINUOUS
370
50
 62
4
100
AcDbLine
 10
40.680225
 20
0.551725
 30
0.0
 11
40.50818599999999
 21
0.667379
 31
0.0
  0
LINE
  5
529
330
1F
100
AcDbEntity
  8
1
  6
CONTINUOUS
370
50
 62
4
100
AcDbLine
 10
44.540657
 20
-0.667603
 30
0.0
 11
44.368359
 21
-0.5519109999999999
 31
0.0
  0
LINE
  5
52A
330
1F
100
AcDbEntity
  8
1
  6
CONTINUOUS
370
50
 62
4
100
AcDbLine
 10
46.32409699999999
 20
0.551936
 30
0.0
 11
46.151535
 21
0.6674289999999999
 31
0.0
  0
LINE
  5
52B
330
1F
100
AcDbEntity
  8
1
  6
CONTINUOUS
370
50
 62
4
100
AcDbLine
 10
42.829124
 20
0.569739
 30
0.0
 11
42.660091
 21
0.6824979999999999
 31
0.0
  0
LINE
  5
52C
330
1F
100
AcDbEntity
  8
1
  6
CONTINUOUS
370
50
 62
4
100
AcDbLine
 10
42.389835
 20
-0.683634
 30
0.0
 11
42.220692
 21
-0.570928
 31
0.0
  0
LINE
  5
52D
330
1F
100
AcDbEntity
  8
1
  6
CONTINUOUS
370
50
 62
4
100
AcDbLine
 10
34.989273
 20
0.584011
 30
0.0
 11
34.855247
 21
0.6730149999999999
 31
0.0
  0
LINE
  5
52E
330
1F
100
AcDbEntity
  8
1
  6
CONTINUOUS
370
50
 62
4
100
AcDbLine
 10
38.960144
 20
-0.709024
 30
0.0
 11
38.777199
 21
-0.588291
 31
0.0
  0
LINE
  5
52F
330
1F
100
AcDbEntity
  8
1
  6
CONTINUOUS
370
50
 62
4
100
AcDbLine
 10
36.797447
 20
-0.7163069999999999
 30
0.0
 11
36.647362
 21
-0.618055
 31
0.0
  0
LINE
  5
530
330
1F
100
AcDbEntity
  8
1
  6
CONTINUOUS
370
50
 62
4
100
AcDbLine
 10
37.148602
 20
0.593839
 30
0.0
 11
36.897396
 21
0.7566569999999999
 31
0.0
  0
LINE
  5
531
330
1F
100
AcDbEntity
  8
1
  6
CONTINUOUS
370
50
 62
4
100
AcDbLine
 10
32.478302
 20
-1.152065
 30
0.0
 11
32.43388
 21
-1.123358
 31
0.0
  0
LINE
  5
532
330
1F
100
AcDbEntity
  8
1
  6
CONTINUOUS
370
50
 62
4
100
AcDbLine
 10
46.151535
 20
0.6674289999999999
 30
0.0
 11
45.979675
 21
0.7767649999999999
 31
0.0
  0
LINE
  5
533
330
1F
100
AcDbEntity
  8
1
  6
CONTINUOUS
370
50
 62
4
100
AcDbLine
 10
33.487244
 20
-0.8156329999999999
 30
0.0
 11
33.250988
 21
-0.6654059999999999
 31
0.0
  0
LINE
  5
534
330
1F
100
AcDbEntity
  8
1
  6
CONTINUOUS
370
50
 62
4
100
AcDbLine
 10
34.855247
 20
0.6730149999999999
 30
0.0
 11
34.721127
 21
0.758226
 31
0.0
  0
LINE
  5
535
330
1F
100
AcDbEntity
  8
1
  6
CONTINUOUS
370
50
 62
4
100
AcDbLine
 10
40.50818599999999
 20
0.667379
 30
0.0
 11
40.335701
 21
0.776884
 31
0.0
  0
LINE
  5
536
330
1F
100
AcDbEntity
  8
1
  6
CONTINUOUS
370
50
 62
4
100
AcDbLine
 10
44.713486
 20
-0.7770039999999999
 30
0.0
 11
44.540657
 21
-0.667603
 31
0.0
  0
LINE
  5
537
330
1F
100
AcDbEntity
  8
1
  6
CONTINUOUS
370
50
 62
4
100
AcDbLine
 10
42.660091
 20
0.6824979999999999
 30
0.0
 11
42.49065
 21
0.789032
 31
0.0
  0
LINE
  5
538
330
1F
100
AcDbEntity
  8
1
  6
CONTINUOUS
370
50
 62
4
100
AcDbLine
 10
42.559742
 20
-0.790254
 30
0.0
 11
42.389835
 21
-0.683634
 31
0.0
  0
LINE
  5
539
330
1F
100
AcDbEntity
  8
1
  6
CONTINUOUS
370
50
 62
4
100
AcDbLine
 10
32.993851
 20
-0.434506
 30
0.0
 11
32.928471
 21
-0.393733
 31
0.0
  0
LINE
  5
53A
330
1F
100
AcDbEntity
  8
1
  6
CONTINUOUS
370
50
 62
4
100
AcDbLine
 10
36.947582
 20
-0.809395
 30
0.0
 11
36.797447
 21
-0.7163069999999999
 31
0.0
  0
LINE
  5
53B
330
1F
100
AcDbEntity
  8
1
  6
CONTINUOUS
370
50
 62
4
100
AcDbLine
 10
39.143353
 20
-0.822473
 30
0.0
 11
38.960144
 21
-0.709024
 31
0.0
  0
LINE
  5
53C
330
1F
100
AcDbEntity
  8
1
  6
CONTINUOUS
370
50
 62
4
100
AcDbLine
 10
34.721127
 20
0.758226
 30
0.0
 11
34.587185
 21
0.839309
 31
0.0
  0
LINE
  5
53D
330
1F
100
AcDbEntity
  8
1
  6
CONTINUOUS
370
50
 62
4
100
AcDbLine
 10
32.522957
 20
-1.178904
 30
0.0
 11
32.478302
 21
-1.152065
 31
0.0
  0
LINE
  5
53E
330
1F
100
AcDbEntity
  8
1
  6
CONTINUOUS
370
50
 62
4
100
AcDbLine
 10
45.979675
 20
0.7767649999999999
 30
0.0
 11
45.807323
 21
0.87896
 31
0.0
  0
LINE
  5
53F
330
1F
100
AcDbEntity
  8
1
  6
CONTINUOUS
370
50
 62
4
100
AcDbLine
 10
44.885818
 20
-0.8791319999999999
 30
0.0
 11
44.713486
 21
-0.7770039999999999
 31
0.0
  0
LINE
  5
540
330
1F
100
AcDbEntity
  8
1
  6
CONTINUOUS
370
50
 62
4
100
AcDbLine
 10
36.897396
 20
0.7566569999999999
 30
0.0
 11
36.64743
 21
0.9046919999999999
 31
0.0
  0
LINE
  5
541
330
1F
100
AcDbEntity
  8
1
  6
CONTINUOUS
370
50
 62
4
100
AcDbLine
 10
40.335701
 20
0.776884
 30
0.0
 11
40.162689
 21
0.879281
 31
0.0
  0
LINE
  5
542
330
1F
100
AcDbEntity
  8
1
  6
CONTINUOUS
370
50
 62
4
100
AcDbLine
 10
42.729321
 20
-0.889983
 30
0.0
 11
42.559742
 21
-0.790254
 31
0.0
  0
LINE
  5
543
330
1F
100
AcDbEntity
  8
1
  6
CONTINUOUS
370
50
 62
4
100
AcDbLine
 10
42.49065
 20
0.789032
 30
0.0
 11
42.320816
 21
0.8888739999999999
 31
0.0
  0
LINE
  5
544
330
1F
100
AcDbEntity
  8
1
  6
CONTINUOUS
370
50
 62
4
100
AcDbLine
 10
37.399277
 20
0.419136
 30
0.0
 11
37.399136
 21
0.419218
 31
0.0
  0
LINE
  5
545
330
1F
100
AcDbEntity
  8
1
  6
CONTINUOUS
370
50
 62
4
100
AcDbLine
 10
37.09837
 20
-0.896836
 30
0.0
 11
36.947582
 21
-0.809395
 31
0.0
  0
LINE
  5
546
330
1F
100
AcDbEntity
  8
1
  6
CONTINUOUS
370
50
 62
4
100
AcDbLine
 10
37.400002
 20
-1.3505
 30
0.0
 11
37.399136
 21
-1.35
 31
0.0
  0
LINE
  5
547
330
1F
100
AcDbEntity
  8
1
  6
CONTINUOUS
370
50
 62
4
100
AcDbLine
 10
34.587185
 20
0.839309
 30
0.0
 11
34.453529
 21
0.915779
 31
0.0
  0
LINE
  5
548
330
1F
100
AcDbEntity
  8
1
  6
CONTINUOUS
370
50
 62
4
100
AcDbLine
 10
39.326866
 20
-0.9272009999999999
 30
0.0
 11
39.143353
 21
-0.822473
 31
0.0
  0
LINE
  5
549
330
1F
100
AcDbEntity
  8
1
  6
CONTINUOUS
370
50
 62
4
100
AcDbLine
 10
33.725201
 20
-0.950656
 30
0.0
 11
33.487244
 21
-0.8156329999999999
 31
0.0
  0
LINE
  5
54A
330
1F
100
AcDbEntity
  8
1
  6
CONTINUOUS
370
50
 62
4
100
AcDbLine
 10
32.928471
 20
-0.393733
 30
0.0
 11
32.862469
 21
-0.356318
 31
0.0
  0
LINE
  5
54B
330
1F
100
AcDbEntity
  8
1
  6
CONTINUOUS
370
50
 62
4
100
AcDbLine
 10
37.400002
 20
0.418726
 30
0.0
 11
37.399277
 21
0.419136
 31
0.0
  0
LINE
  5
54C
330
1F
100
AcDbEntity
  8
1
  6
CONTINUOUS
370
50
 62
4
100
AcDbLine
 10
32.567753
 20
-1.203867
 30
0.0
 11
32.522957
 21
-1.178904
 31
0.0
  0
LINE
  5
54D
330
1F
100
AcDbEntity
  8
1
  6
CONTINUOUS
370
50
 62
4
100
AcDbLine
 10
40.162689
 20
0.879281
 30
0.0
 11
39.99036
 21
0.973661
 31
0.0
  0
LINE
  5
54E
330
1F
100
AcDbEntity
  8
1
  6
CONTINUOUS
370
50
 62
4
100
AcDbLine
 10
45.057713
 20
-0.9732149999999999
 30
0.0
 11
44.885818
 21
-0.8791319999999999
 31
0.0
  0
LINE
  5
54F
330
1F
100
AcDbEntity
  8
1
  6
CONTINUOUS
370
50
 62
4
100
AcDbLine
 10
45.807323
 20
0.87896
 30
0.0
 11
45.634834
 21
0.972911
 31
0.0
  0
LINE
  5
550
330
1F
100
AcDbEntity
  8
1
  6
CONTINUOUS
370
50
 62
4
100
AcDbLine
 10
42.320816
 20
0.8888739999999999
 30
0.0
 11
42.151318
 21
0.980923
 31
0.0
  0
LINE
  5
551
330
1F
100
AcDbEntity
  8
1
  6
CONTINUOUS
370
50
 62
4
100
AcDbLine
 10
42.898426
 20
-0.981703
 30
0.0
 11
42.729321
 21
-0.889983
 31
0.0
  0
LINE
  5
552
330
1F
100
AcDbEntity
  8
1
  6
CONTINUOUS
370
50
 62
4
100
AcDbLine
 10
37.248875
 20
-0.9781709999999999
 30
0.0
 11
37.09837
 21
-0.896836
 31
0.0
  0
LINE
  5
553
330
1F
100
AcDbEntity
  8
1
  6
CONTINUOUS
370
50
 62
4
100
AcDbLine
 10
34.453529
 20
0.915779
 30
0.0
 11
34.319626
 21
0.9870909999999999
 31
0.0
  0
LINE
  5
554
330
1F
100
AcDbEntity
  8
1
  6
CONTINUOUS
370
50
 62
4
100
AcDbLine
 10
39.50959
 20
-1.022284
 30
0.0
 11
39.326866
 21
-0.9272009999999999
 31
0.0
  0
LINE
  5
555
330
1F
100
AcDbEntity
  8
1
  6
CONTINUOUS
370
50
 62
4
100
AcDbLine
 10
36.64743
 20
0.9046919999999999
 30
0.0
 11
36.396423
 21
1.035162
 31
0.0
  0
LINE
  5
556
330
1F
100
AcDbEntity
  8
1
  6
CONTINUOUS
370
50
 62
4
100
AcDbLine
 10
32.612579
 20
-1.22694
 30
0.0
 11
32.567753
 21
-1.203867
 31
0.0
  0
LINE
  5
557
330
1F
100
AcDbEntity
  8
1
  6
CONTINUOUS
370
50
 62
4
100
AcDbLine
 10
47.358521
 20
-0.204338
 30
0.0
 11
47.342796
 21
-0.196367
 31
0.0
  0
LINE
  5
558
330
1F
100
AcDbEntity
  8
1
  6
CONTINUOUS
370
50
 62
4
100
AcDbLine
 10
32.862469
 20
-0.356318
 30
0.0
 11
32.796886
 21
-0.323123
 31
0.0
  0
LINE
  5
559
330
1F
100
AcDbEntity
  8
1
  6
CONTINUOUS
370
50
 62
4
100
AcDbLine
 10
37.399136
 20
-1.052663
 30
0.0
 11
37.248875
 21
-0.9781709999999999
 31
0.0
  0
LINE
  5
55A
330
1F
100
AcDbEntity
  8
1
  6
CONTINUOUS
370
50
 62
4
100
AcDbLine
 10
45.634834
 20
0.972911
 30
0.0
 11
45.46303899999999
 21
1.058045
 31
0.0
  0
LINE
  5
55B
330
1F
100
AcDbEntity
  8
1
  6
CONTINUOUS
370
50
 62
4
100
AcDbLine
 10
33.962646
 20
-1.068204
 30
0.0
 11
33.725201
 21
-0.950656
 31
0.0
  0
LINE
  5
55C
330
1F
100
AcDbEntity
  8
1
  6
CONTINUOUS
370
50
 62
4
100
AcDbLine
 10
39.99036
 20
0.973661
 30
0.0
 11
39.818008
 21
1.058932
 31
0.0
  0
LINE
  5
55D
330
1F
100
AcDbEntity
  8
1
  6
CONTINUOUS
370
50
 62
4
100
AcDbLine
 10
45.230244
 20
-1.058363
 30
0.0
 11
45.057713
 21
-0.9732149999999999
 31
0.0
  0
LINE
  5
55E
330
1F
100
AcDbEntity
  8
1
  6
CONTINUOUS
370
50
 62
4
100
AcDbLine
 10
34.319626
 20
0.9870909999999999
 30
0.0
 11
34.185509
 21
1.0529
 31
0.0
  0
LINE
  5
55F
330
1F
100
AcDbEntity
  8
1
  6
CONTINUOUS
370
50
 62
4
100
AcDbLine
 10
42.151318
 20
0.980923
 30
0.0
 11
41.981647
 21
1.064054
 31
0.0
  0
LINE
  5
560
330
1F
100
AcDbEntity
  8
1
  6
CONTINUOUS
370
50
 62
4
100
AcDbLine
 10
43.068279
 20
-1.064707
 30
0.0
 11
42.898426
 21
-0.981703
 31
0.0
  0
LINE
  5
561
330
1F
100
AcDbEntity
  8
1
  6
CONTINUOUS
370
50
 62
4
100
AcDbLine
 10
32.65741
 20
-1.24812
 30
0.0
 11
32.612579
 21
-1.22694
 31
0.0
  0
LINE
  5
562
330
1F
100
AcDbEntity
  8
1
  6
CONTINUOUS
370
50
 62
4
100
AcDbLine
 10
39.692623
 20
-1.106817
 30
0.0
 11
39.50959
 21
-1.022284
 31
0.0
  0
LINE
  5
563
330
1F
100
AcDbEntity
  8
1
  6
CONTINUOUS
370
50
 62
4
100
AcDbLine
 10
47.358501
 20
1.349823
 30
0.0
 11
47.358318
 21
1.349907
 31
0.0
  0
LINE
  5
564
330
1F
100
AcDbEntity
  8
1
  6
CONTINUOUS
370
50
 62
4
100
AcDbLine
 10
37.510342
 20
-1.103942
 30
0.0
 11
37.400002
 21
-1.054087
 31
0.0
  0
LINE
  5
565
330
1F
100
AcDbEntity
  8
1
  6
CONTINUOUS
370
50
 62
4
100
AcDbLine
 10
34.185509
 20
1.0529
 30
0.0
 11
34.051716
 21
1.112921
 31
0.0
  0
LINE
  5
566
330
1F
100
AcDbEntity
  8
1
  6
CONTINUOUS
370
50
 62
4
100
AcDbLine
 10
32.796886
 20
-0.323123
 30
0.0
 11
32.731995
 21
-0.294396
 31
0.0
  0
LINE
  5
567
330
1F
100
AcDbEntity
  8
1
  6
CONTINUOUS
370
50
 62
4
100
AcDbLine
 10
36.396423
 20
1.035162
 30
0.0
 11
36.146503
 21
1.145503
 31
0.0
  0
LINE
  5
568
330
1F
100
AcDbEntity
  8
1
  6
CONTINUOUS
370
50
 62
4
100
AcDbLine
 10
45.46303899999999
 20
1.058045
 30
0.0
 11
45.290718
 21
1.133542
 31
0.0
  0
LINE
  5
569
330
1F
100
AcDbEntity
  8
1
  6
CONTINUOUS
370
50
 62
4
100
AcDbLine
 10
45.402695
 20
-1.133736
 30
0.0
 11
45.230244
 21
-1.058363
 31
0.0
  0
LINE
  5
56A
330
1F
100
AcDbEntity
  8
1
  6
CONTINUOUS
370
50
 62
4
100
AcDbLine
 10
39.818008
 20
1.058932
 30
0.0
 11
39.645172
 21
1.134354
 31
0.0
  0
LINE
  5
56B
330
1F
100
AcDbEntity
  8
1
  6
CONTINUOUS
370
50
 62
4
100
AcDbLine
 10
41.981647
 20
1.064054
 30
0.0
 11
41.811356
 21
1.137852
 31
0.0
  0
LINE
  5
56C
330
1F
100
AcDbEntity
  8
1
  6
CONTINUOUS
370
50
 62
4
100
AcDbLine
 10
43.238388
 20
-1.138382
 30
0.0
 11
43.068279
 21
-1.064707
 31
0.0
  0
LINE
  5
56D
330
1F
100
AcDbEntity
  8
1
  6
CONTINUOUS
370
50
 62
4
100
AcDbLine
 10
32.702213
 20
-1.267384
 30
0.0
 11
32.65741
 21
-1.24812
 31
0.0
  0
LINE
  5
56E
330
1F
100
AcDbEntity
  8
1
  6
CONTINUOUS
370
50
 62
4
100
AcDbLine
 10
34.198723
 20
-1.167253
 30
0.0
 11
33.962646
 21
-1.068204
 31
0.0
  0
LINE
  5
56F
330
1F
100
AcDbEntity
  8
1
  6
CONTINUOUS
370
50
 62
4
100
AcDbLine
 10
37.620922
 20
-1.149556
 30
0.0
 11
37.510342
 21
-1.103942
 31
0.0
  0
LINE
  5
570
330
1F
100
AcDbEntity
  8
1
  6
CONTINUOUS
370
50
 62
4
100
AcDbLine
 10
34.051716
 20
1.112921
 30
0.0
 11
33.918072
 21
1.166696
 31
0.0
  0
LINE
  5
571
330
1F
100
AcDbEntity
  8
1
  6
CONTINUOUS
370
50
 62
4
100
AcDbLine
 10
39.875931
 20
-1.179737
 30
0.0
 11
39.692623
 21
-1.106817
 31
0.0
  0
LINE
  5
572
330
1F
100
AcDbEntity
  8
1
  6
CONTINUOUS
370
50
 62
4
100
AcDbLine
 10
47.374435
 20
-0.210623
 30
0.0
 11
47.358521
 21
-0.204338
 31
0.0
  0
LINE
  5
573
330
1F
100
AcDbEntity
  8
1
  6
CONTINUOUS
370
50
 62
4
100
AcDbLine
 10
32.746937
 20
-1.2847
 30
0.0
 11
32.702213
 21
-1.267384
 31
0.0
  0
LINE
  5
574
330
1F
100
AcDbEntity
  8
1
  6
CONTINUOUS
370
50
 62
4
100
AcDbLine
 10
45.574558
 20
-1.198715
 30
0.0
 11
45.402695
 21
-1.133736
 31
0.0
  0
LINE
  5
575
330
1F
100
AcDbEntity
  8
1
  6
CONTINUOUS
370
50
 62
4
100
AcDbLine
 10
39.645172
 20
1.134354
 30
0.0
 11
39.473053
 21
1.199429
 31
0.0
  0
LINE
  5
576
330
1F
100
AcDbEntity
  8
1
  6
CONTINUOUS
370
50
 62
4
100
AcDbLine
 10
45.290718
 20
1.133542
 30
0.0
 11
45.118237
 21
1.198512
 31
0.0
  0
LINE
  5
577
330
1F
100
AcDbEntity
  8
1
  6
CONTINUOUS
370
50
 62
4
100
AcDbLine
 10
32.731995
 20
-0.294396
 30
0.0
 11
32.667812
 21
-0.270225
 31
0.0
  0
LINE
  5
578
330
1F
100
AcDbEntity
  8
1
  6
CONTINUOUS
370
50
 62
4
100
AcDbLine
 10
41.811356
 20
1.137852
 30
0.0
 11
41.641418
 21
1.201626
 31
0.0
  0
LINE
  5
579
330
1F
100
AcDbEntity
  8
1
  6
CONTINUOUS
370
50
 62
4
100
AcDbLine
 10
48.0
 20
0.0
 30
0.0
 11
47.901695
 21
0.03687
 31
0.0
  0
LINE
  5
57A
330
1F
100
AcDbEntity
  8
1
  6
CONTINUOUS
370
50
 62
4
100
AcDbLine
 10
37.731274
 20
-1.190922
 30
0.0
 11
37.620922
 21
-1.149556
 31
0.0
  0
LINE
  5
57B
330
1F
100
AcDbEntity
  8
1
  6
CONTINUOUS
370
50
 62
4
100
AcDbLine
 10
43.407875
 20
-1.201887
 30
0.0
 11
43.238388
 21
-1.138382
 31
0.0
  0
LINE
  5
57C
330
1F
100
AcDbEntity
  8
1
  6
CONTINUOUS
370
50
 62
4
100
AcDbLine
 10
48.0
 20
0.0
 30
0.0
 11
47.898239
 21
0.036823
 31
0.0
  0
LINE
  5
57D
330
1F
100
AcDbEntity
  8
1
  6
CONTINUOUS
370
50
 62
4
100
AcDbLine
 10
33.918072
 20
1.166696
 30
0.0
 11
33.783718
 21
1.213944
 31
0.0
  0
LINE
  5
57E
330
1F
100
AcDbEntity
  8
1
  6
CONTINUOUS
370
50
 62
4
100
AcDbLine
 10
36.146503
 20
1.145503
 30
0.0
 11
35.895653
 21
1.233707
 31
0.0
  0
LINE
  5
57F
330
1F
100
AcDbEntity
  8
1
  6
CONTINUOUS
370
50
 62
4
100
AcDbLine
 10
47.370483
 20
1.170614
 30
0.0
 11
47.236897
 21
1.21735
 31
0.0
  0
LINE
  5
580
330
1F
100
AcDbEntity
  8
1
  6
CONTINUOUS
370
50
 62
4
100
AcDbLine
 10
32.791542
 20
-1.300027
 30
0.0
 11
32.746937
 21
-1.2847
 31
0.0
  0
LINE
  5
581
330
1F
100
AcDbEntity
  8
1
  6
CONTINUOUS
370
50
 62
4
100
AcDbLine
 10
37.841442
 20
-1.227851
 30
0.0
 11
37.731274
 21
-1.190922
 31
0.0
  0
LINE
  5
582
330
1F
100
AcDbEntity
  8
1
  6
CONTINUOUS
370
50
 62
4
100
AcDbLine
 10
34.4356
 20
-1.246199
 30
0.0
 11
34.198723
 21
-1.167253
 31
0.0
  0
LINE
  5
583
330
1F
100
AcDbEntity
  8
1
  6
CONTINUOUS
370
50
 62
4
100
AcDbLine
 10
40.058399
 20
-1.240423
 30
0.0
 11
39.875931
 21
-1.179737
 31
0.0
  0
LINE
  5
584
330
1F
100
AcDbEntity
  8
1
  6
CONTINUOUS
370
50
 62
4
100
AcDbLine
 10
45.118237
 20
1.198512
 30
0.0
 11
44.946587
 21
1.252476
 31
0.0
  0
LINE
  5
585
330
1F
100
AcDbEntity
  8
1
  6
CONTINUOUS
370
50
 62
4
100
AcDbLine
 10
39.473053
 20
1.199429
 30
0.0
 11
39.30071299999999
 21
1.253521
 31
0.0
  0
LINE
  5
586
330
1F
100
AcDbEntity
  8
1
  6
CONTINUOUS
370
50
 62
4
100
AcDbLine
 10
45.746765
 20
-1.25266
 30
0.0
 11
45.574558
 21
-1.198715
 31
0.0
  0
LINE
  5
587
330
1F
100
AcDbEntity
  8
1
  6
CONTINUOUS
370
50
 62
4
100
AcDbLine
 10
41.641418
 20
1.201626
 30
0.0
 11
41.471504
 21
1.254524
 31
0.0
  0
LINE
  5
588
330
1F
100
AcDbEntity
  8
1
  6
CONTINUOUS
370
50
 62
4
100
AcDbLine
 10
43.577766
 20
-1.254572
 30
0.0
 11
43.407875
 21
-1.201887
 31
0.0
  0
LINE
  5
589
330
1F
100
AcDbEntity
  8
1
  6
CONTINUOUS
370
50
 62
4
100
AcDbLine
 10
32.667812
 20
-0.270225
 30
0.0
 11
32.604351
 21
-0.250698
 31
0.0
  0
LINE
  5
58A
330
1F
100
AcDbEntity
  8
1
  6
CONTINUOUS
370
50
 62
4
100
AcDbLine
 10
33.783718
 20
1.213944
 30
0.0
 11
33.648983
 21
1.254477
 31
0.0
  0
LINE
  5
58B
330
1F
100
AcDbEntity
  8
1
  6
CONTINUOUS
370
50
 62
4
100
AcDbLine
 10
47.236897
 20
1.21735
 30
0.0
 11
47.103527
 21
1.257387
 31
0.0
  0
LINE
  5
58C
330
1F
100
AcDbEntity
  8
1
  6
CONTINUOUS
370
50
 62
4
100
AcDbLine
 10
32.836075
 20
-1.313345
 30
0.0
 11
32.791542
 21
-1.300027
 31
0.0
  0
LINE
  5
58D
330
1F
100
AcDbEntity
  8
1
  6
CONTINUOUS
370
50
 62
4
100
AcDbLine
 10
37.951813
 20
-1.26017
 30
0.0
 11
37.841442
 21
-1.227851
 31
0.0
  0
LINE
  5
58E
330
1F
100
AcDbEntity
  8
1
  6
CONTINUOUS
370
50
 62
4
100
AcDbLine
 10
47.390533
 20
-0.215175
 30
0.0
 11
47.374435
 21
-0.210623
 31
0.0
  0
LINE
  5
58F
330
1F
100
AcDbEntity
  8
1
  6
CONTINUOUS
370
50
 62
4
100
AcDbLine
 10
40.241142
 20
-1.28832
 30
0.0
 11
40.058399
 21
-1.240423
 31
0.0
  0
LINE
  5
590
330
1F
100
AcDbEntity
  8
1
  6
CONTINUOUS
370
50
 62
4
100
AcDbLine
 10
35.895653
 20
1.233707
 30
0.0
 11
35.645012
 21
1.297961
 31
0.0
  0
LINE
  5
591
330
1F
100
AcDbEntity
  8
1
  6
CONTINUOUS
370
50
 62
4
100
AcDbLine
 10
32.880592
 20
-1.324637
 30
0.0
 11
32.836075
 21
-1.313345
 31
0.0
  0
LINE
  5
592
330
1F
100
AcDbEntity
  8
1
  6
CONTINUOUS
370
50
 62
4
100
AcDbLine
 10
33.648983
 20
1.254477
 30
0.0
 11
33.514961
 21
1.288192
 31
0.0
  0
LINE
  5
593
330
1F
100
AcDbEntity
  8
1
  6
CONTINUOUS
370
50
 62
4
100
AcDbLine
 10
30.5
 20
1.35
 30
0.0
 11
29.9
 21
1.5
 31
0.0
  0
LINE
  5
594
330
1F
100
AcDbEntity
  8
1
  6
CONTINUOUS
370
50
 62
4
100
AcDbLine
 10
38.062363
 20
-1.287686
 30
0.0
 11
37.951813
 21
-1.26017
 31
0.0
  0
LINE
  5
595
330
1F
100
AcDbEntity
  8
1
  6
CONTINUOUS
370
50
 62
4
100
AcDbLine
 10
47.103527
 20
1.257387
 30
0.0
 11
46.969719
 21
1.290502
 31
0.0
  0
LINE
  5
596
330
1F
100
AcDbEntity
  8
1
  6
CONTINUOUS
370
50
 62
4
100
AcDbLine
 10
44.946587
 20
1.252476
 30
0.0
 11
44.774734
 21
1.294999
 31
0.0
  0
LINE
  5
597
330
1F
100
AcDbEntity
  8
1
  6
CONTINUOUS
370
50
 62
4
100
AcDbLine
 10
45.91888
 20
-1.29499
 30
0.0
 11
45.746765
 21
-1.25266
 31
0.0
  0
LINE
  5
598
330
1F
100
AcDbEntity
  8
1
  6
CONTINUOUS
370
50
 62
4
100
AcDbLine
 10
39.30071299999999
 20
1.253521
 30
0.0
 11
39.128372
 21
1.295864
 31
0.0
  0
LINE
  5
599
330
1F
100
AcDbEntity
  8
1
  6
CONTINUOUS
370
50
 62
4
100
AcDbLine
 10
41.471504
 20
1.254524
 30
0.0
 11
41.300831
 21
1.296232
 31
0.0
  0
LINE
  5
59A
330
1F
100
AcDbEntity
  8
1
  6
CONTINUOUS
370
50
 62
4
100
AcDbLine
 10
43.748135
 20
-1.296149
 30
0.0
 11
43.577766
 21
-1.254572
 31
0.0
  0
LINE
  5
59B
330
1F
100
AcDbEntity
  8
1
  6
CONTINUOUS
370
50
 62
4
100
AcDbLine
 10
34.671677
 20
-1.303578
 30
0.0
 11
34.4356
 21
-1.246199
 31
0.0
  0
LINE
  5
59C
330
1F
100
AcDbEntity
  8
1
  6
CONTINUOUS
370
50
 62
4
100
AcDbLine
 10
32.604351
 20
-0.250698
 30
0.0
 11
32.549171
 21
-0.237441
 31
0.0
  0
LINE
  5
59D
330
1F
100
AcDbEntity
  8
1
  6
CONTINUOUS
370
50
 62
4
100
AcDbLine
 10
33.249649
 20
-0.630827
 30
0.0
 11
33.248985
 21
-0.6306729999999999
 31
0.0
  0
LINE
  5
59E
330
1F
100
AcDbEntity
  8
1
  6
CONTINUOUS
370
50
 62
4
100
AcDbLine
 10
33.249981
 20
-0.630903
 30
0.0
 11
33.249649
 21
-0.630827
 31
0.0
  0
LINE
  5
59F
330
1F
100
AcDbEntity
  8
1
  6
CONTINUOUS
370
50
 62
4
100
AcDbLine
 10
33.250317
 20
-0.6309779999999999
 30
0.0
 11
33.249981
 21
-0.630903
 31
0.0
  0
LINE
  5
5A0
330
1F
100
AcDbEntity
  8
1
  6
CONTINUOUS
370
50
 62
4
100
AcDbLine
 10
33.250652
 20
-0.631052
 30
0.0
 11
33.250317
 21
-0.6309779999999999
 31
0.0
  0
LINE
  5
5A1
330
1F
100
AcDbEntity
  8
1
  6
CONTINUOUS
370
50
 62
4
100
AcDbLine
 10
33.250988
 20
-0.631126
 30
0.0
 11
33.250652
 21
-0.631052
 31
0.0
  0
LINE
  5
5A2
330
1F
100
AcDbEntity
  8
1
  6
CONTINUOUS
370
50
 62
4
100
AcDbLine
 10
32.924885
 20
-1.333833
 30
0.0
 11
32.880592
 21
-1.324637
 31
0.0
  0
LINE
  5
5A3
330
1F
100
AcDbEntity
  8
1
  6
CONTINUOUS
370
50
 62
4
100
AcDbLine
 10
38.172966
 20
-1.310328
 30
0.0
 11
38.062363
 21
-1.287686
 31
0.0
  0
LINE
  5
5A4
330
1F
100
AcDbEntity
  8
1
  6
CONTINUOUS
370
50
 62
4
100
AcDbLine
 10
33.514961
 20
1.288192
 30
0.0
 11
33.38184
 21
1.314822
 31
0.0
  0
LINE
  5
5A5
330
1F
100
AcDbEntity
  8
1
  6
CONTINUOUS
370
50
 62
4
100
AcDbLine
 10
46.969719
 20
1.290502
 30
0.0
 11
46.835567
 21
1.316436
 31
0.0
  0
LINE
  5
5A6
330
1F
100
AcDbEntity
  8
1
  6
CONTINUOUS
370
50
 62
4
100
AcDbLine
 10
40.42432
 20
-1.322844
 30
0.0
 11
40.241142
 21
-1.28832
 31
0.0
  0
LINE
  5
5A7
330
1F
100
AcDbEntity
  8
1
  6
CONTINUOUS
370
50
 62
4
100
AcDbLine
 10
46.09012999999999
 20
-1.325496
 30
0.0
 11
45.91888
 21
-1.29499
 31
0.0
  0
LINE
  5
5A8
330
1F
100
AcDbEntity
  8
1
  6
CONTINUOUS
370
50
 62
4
100
AcDbLine
 10
39.128372
 20
1.295864
 30
0.0
 11
38.957272
 21
1.326314
 31
0.0
  0
LINE
  5
5A9
330
1F
100
AcDbEntity
  8
1
  6
CONTINUOUS
370
50
 62
4
100
AcDbLine
 10
44.774734
 20
1.294999
 30
0.0
 11
44.60228
 21
1.325619
 31
0.0
  0
LINE
  5
5AA
330
1F
100
AcDbEntity
  8
1
  6
CONTINUOUS
370
50
 62
4
100
AcDbLine
 10
41.300831
 20
1.296232
 30
0.0
 11
41.130661
 21
1.326362
 31
0.0
  0
LINE
  5
5AB
330
1F
100
AcDbEntity
  8
1
  6
CONTINUOUS
370
50
 62
4
100
AcDbLine
 10
43.917927
 20
-1.326158
 30
0.0
 11
43.748135
 21
-1.296149
 31
0.0
  0
LINE
  5
5AC
330
1F
100
AcDbEntity
  8
1
  6
CONTINUOUS
370
50
 62
4
100
AcDbLine
 10
32.549171
 20
-0.237441
 30
0.0
 11
32.495693
 21
-0.228082
 31
0.0
  0
LINE
  5
5AD
330
1F
100
AcDbEntity
  8
1
  6
CONTINUOUS
370
50
 62
4
100
AcDbLine
 10
47.406807
 20
-0.217935
 30
0.0
 11
47.390533
 21
-0.215175
 31
0.0
  0
LINE
  5
5AE
330
1F
100
AcDbEntity
  8
1
  6
CONTINUOUS
370
50
 62
4
100
AcDbLine
 10
32.968361
 20
-1.340854
 30
0.0
 11
32.924885
 21
-1.333833
 31
0.0
  0
LINE
  5
5AF
330
1F
100
AcDbEntity
  8
1
  6
CONTINUOUS
370
50
 62
4
100
AcDbLine
 10
38.283489
 20
-1.328035
 30
0.0
 11
38.172966
 21
-1.310328
 31
0.0
  0
LINE
  5
5B0
330
1F
100
AcDbEntity
  8
1
  6
CONTINUOUS
370
50
 62
4
100
AcDbLine
 10
35.645012
 20
1.297961
 30
0.0
 11
35.394558
 21
1.336943
 31
0.0
  0
LINE
  5
5B1
330
1F
100
AcDbEntity
  8
1
  6
CONTINUOUS
370
50
 62
4
100
AcDbLine
 10
34.908333
 20
-1.338333
 30
0.0
 11
34.671677
 21
-1.303578
 31
0.0
  0
LINE
  5
5B2
330
1F
100
AcDbEntity
  8
1
  6
CONTINUOUS
370
50
 62
4
100
AcDbLine
 10
33.38184
 20
1.314822
 30
0.0
 11
33.248985
 21
1.334144
 31
0.0
  0
LINE
  5
5B3
330
1F
100
AcDbEntity
  8
1
  6
CONTINUOUS
370
50
 62
4
100
AcDbLine
 10
46.835567
 20
1.316436
 30
0.0
 11
46.701591
 21
1.335085
 31
0.0
  0
LINE
  5
5B4
330
1F
100
AcDbEntity
  8
1
  6
CONTINUOUS
370
50
 62
4
100
AcDbLine
 10
33.248985
 20
1.340055
 30
0.0
 11
33.223331
 21
1.343118
 31
0.0
  0
LINE
  5
5B5
330
1F
100
AcDbEntity
  8
1
  6
CONTINUOUS
370
50
 62
4
100
AcDbLine
 10
33.01112
 20
-1.345808
 30
0.0
 11
32.968361
 21
-1.340854
 31
0.0
  0
LINE
  5
5B6
330
1F
100
AcDbEntity
  8
1
  6
CONTINUOUS
370
50
 62
4
100
AcDbLine
 10
38.393803
 20
-1.340736
 30
0.0
 11
38.283489
 21
-1.328035
 31
0.0
  0
LINE
  5
5B7
330
1F
100
AcDbEntity
  8
1
  6
CONTINUOUS
370
50
 62
4
100
AcDbLine
 10
40.606739
 20
-1.343697
 30
0.0
 11
40.42432
 21
-1.322844
 31
0.0
  0
LINE
  5
5B8
330
1F
100
AcDbEntity
  8
1
  6
CONTINUOUS
370
50
 62
4
100
AcDbLine
 10
32.495693
 20
-0.228082
 30
0.0
 11
32.44434
 21
-0.22253
 31
0.0
  0
LINE
  5
5B9
330
1F
100
AcDbEntity
  8
1
  6
CONTINUOUS
370
50
 62
4
100
AcDbLine
 10
44.60228
 20
1.325619
 30
0.0
 11
44.430473
 21
1.344117
 31
0.0
  0
LINE
  5
5BA
330
1F
100
AcDbEntity
  8
1
  6
CONTINUOUS
370
50
 62
4
100
AcDbLine
 10
38.957272
 20
1.326314
 30
0.0
 11
38.786282
 21
1.344707
 31
0.0
  0
LINE
  5
5BB
330
1F
100
AcDbEntity
  8
1
  6
CONTINUOUS
370
50
 62
4
100
AcDbLine
 10
46.261826
 20
-1.343939
 30
0.0
 11
46.09012999999999
 21
-1.325496
 31
0.0
  0
LINE
  5
5BC
330
1F
100
AcDbEntity
  8
1
  6
CONTINUOUS
370
50
 62
4
100
AcDbLine
 10
41.130661
 20
1.326362
 30
0.0
 11
40.960239
 21
1.34457
 31
0.0
  0
LINE
  5
5BD
330
1F
100
AcDbEntity
  8
1
  6
CONTINUOUS
370
50
 62
4
100
AcDbLine
 10
44.088348
 20
-1.344275
 30
0.0
 11
43.917927
 21
-1.326158
 31
0.0
  0
LINE
  5
5BE
330
1F
100
AcDbEntity
  8
1
  6
CONTINUOUS
370
50
 62
4
100
AcDbLine
 10
33.223331
 20
1.343118
 30
0.0
 11
33.19772
 21
1.345653
 31
0.0
  0
LINE
  5
5BF
330
1F
100
AcDbEntity
  8
1
  6
CONTINUOUS
370
50
 62
4
100
AcDbLine
 10
47.358318
 20
1.349907
 30
0.0
 11
47.358135
 21
1.349923
 31
0.0
  0
LINE
  5
5C0
330
1F
100
AcDbEntity
  8
1
  6
CONTINUOUS
370
50
 62
4
100
AcDbLine
 10
46.701591
 20
1.335085
 30
0.0
 11
46.567986
 21
1.346329
 31
0.0
  0
LINE
  5
5C1
330
1F
100
AcDbEntity
  8
1
  6
CONTINUOUS
370
50
 62
4
100
AcDbLine
 10
33.19772
 20
1.345653
 30
0.0
 11
33.172112
 21
1.347635
 31
0.0
  0
LINE
  5
5C2
330
1F
100
AcDbEntity
  8
1
  6
CONTINUOUS
370
50
 62
4
100
AcDbLine
 10
33.053291
 20
-1.348809
 30
0.0
 11
33.01112
 21
-1.345808
 31
0.0
  0
LINE
  5
5C3
330
1F
100
AcDbEntity
  8
1
  6
CONTINUOUS
370
50
 62
4
100
AcDbLine
 10
38.503902
 20
-1.34835
 30
0.0
 11
38.393803
 21
-1.340736
 31
0.0
  0
LINE
  5
5C4
330
1F
100
AcDbEntity
  8
1
  6
CONTINUOUS
370
50
 62
4
100
AcDbLine
 10
47.423252
 20
-0.218847
 30
0.0
 11
47.406807
 21
-0.217935
 31
0.0
  0
LINE
  5
5C5
330
1F
100
AcDbEntity
  8
1
  6
CONTINUOUS
370
50
 62
4
100
AcDbLine
 10
33.172112
 20
1.347635
 30
0.0
 11
33.146481
 21
1.349034
 31
0.0
  0
LINE
  5
5C6
330
1F
100
AcDbEntity
  8
1
  6
CONTINUOUS
370
50
 62
4
100
AcDbLine
 10
35.394558
 20
1.336943
 30
0.0
 11
35.144112
 21
1.35
 31
0.0
  0
LINE
  5
5C7
330
1F
100
AcDbEntity
  8
1
  6
CONTINUOUS
370
50
 62
4
100
AcDbLine
 10
35.144112
 20
-1.35
 30
0.0
 11
34.908333
 21
-1.338333
 31
0.0
  0
LINE
  5
5C8
330
1F
100
AcDbEntity
  8
1
  6
CONTINUOUS
370
50
 62
4
100
AcDbLine
 10
32.44434
 20
-0.22253
 30
0.0
 11
32.395222
 21
-0.220608
 31
0.0
  0
LINE
  5
5C9
330
1F
100
AcDbEntity
  8
1
  6
CONTINUOUS
370
50
 62
4
100
AcDbLine
 10
40.78928
 20
-1.35066
 30
0.0
 11
40.606739
 21
-1.343697
 31
0.0
  0
LINE
  5
5CA
330
1F
100
AcDbEntity
  8
1
  6
CONTINUOUS
370
50
 62
4
100
AcDbLine
 10
44.430473
 20
1.344117
 30
0.0
 11
44.258957
 21
1.350312
 31
0.0
  0
LINE
  5
5CB
330
1F
100
AcDbEntity
  8
1
  6
CONTINUOUS
370
50
 62
4
100
AcDbLine
 10
38.786282
 20
1.344707
 30
0.0
 11
38.614162
 21
1.350878
 31
0.0
  0
LINE
  5
5CC
330
1F
100
AcDbEntity
  8
1
  6
CONTINUOUS
370
50
 62
4
100
AcDbLine
 10
46.434189
 20
-1.350094
 30
0.0
 11
46.261826
 21
-1.343939
 31
0.0
  0
LINE
  5
5CD
330
1F
100
AcDbEntity
  8
1
  6
CONTINUOUS
370
50
 62
4
100
AcDbLine
 10
40.960239
 20
1.34457
 30
0.0
 11
40.78928
 21
1.35066
 31
0.0
  0
LINE
  5
5CE
330
1F
100
AcDbEntity
  8
1
  6
CONTINUOUS
370
50
 62
4
100
AcDbLine
 10
44.258957
 20
-1.350312
 30
0.0
 11
44.088348
 21
-1.344275
 31
0.0
  0
LINE
  5
5CF
330
1F
100
AcDbEntity
  8
1
  6
CONTINUOUS
370
50
 62
4
100
AcDbLine
 10
33.146481
 20
1.349034
 30
0.0
 11
33.120792
 21
1.349822
 31
0.0
  0
LINE
  5
5D0
330
1F
100
AcDbEntity
  8
1
  6
CONTINUOUS
370
50
 62
4
100
AcDbLine
 10
46.567986
 20
1.346329
 30
0.0
 11
46.434189
 21
1.350094
 31
0.0
  0
LINE
  5
5D1
330
1F
100
AcDbEntity
  8
1
  6
CONTINUOUS
370
50
 62
4
100
AcDbLine
 10
33.095016
 20
-1.349974
 30
0.0
 11
33.053291
 21
-1.348809
 31
0.0
  0
LINE
  5
5D2
330
1F
100
AcDbEntity
  8
1
  6
CONTINUOUS
370
50
 62
4
100
AcDbLine
 10
38.614162
 20
-1.350878
 30
0.0
 11
38.503902
 21
-1.34835
 31
0.0
  0
LINE
  5
5D3
330
1F
100
AcDbEntity
  8
1
  6
CONTINUOUS
370
50
 62
4
100
AcDbLine
 10
33.120792
 20
1.349822
 30
0.0
 11
33.095016
 21
1.349974
 31
0.0
  0
LINE
  5
5D4
330
1F
100
AcDbEntity
  8
1
  6
CONTINUOUS
370
50
 62
4
100
AcDbLine
 10
44.258957
 20
1.350312
 30
0.0
 11
40.78928
 21
1.35066
 31
0.0
  0
LINE
  5
5D5
330
1F
100
AcDbEntity
  8
1
  6
CONTINUOUS
370
50
 62
4
100
AcDbLine
 10
38.614162
 20
1.350878
 30
0.0
 11
37.400002
 21
1.351
 31
0.0
  0
LINE
  5
5D6
330
1F
100
AcDbEntity
  8
1
  6
CONTINUOUS
370
50
 62
4
100
AcDbLine
 10
47.358135
 20
1.350001
 30
0.0
 11
46.434189
 21
1.350094
 31
0.0
  0
LINE
  5
5D7
330
1F
100
AcDbEntity
  8
1
  6
CONTINUOUS
370
50
 62
4
100
AcDbLine
 10
35.144547
 20
-1.35
 30
0.0
 11
37.399136
 21
-1.35
 31
0.0
  0
LINE
  5
5D8
330
1F
100
AcDbEntity
  8
1
  6
CONTINUOUS
370
50
 62
4
100
AcDbLine
 10
30.5
 20
-1.35
 30
0.0
 11
33.102097
 21
-1.35
 31
0.0
  0
LINE
  5
5D9
330
1F
100
AcDbEntity
  8
1
  6
CONTINUOUS
370
50
 62
4
100
AcDbLine
 10
35.144547
 20
1.35
 30
0.0
 11
37.399136
 21
1.35
 31
0.0
  0
LINE
  5
5DA
330
1F
100
AcDbEntity
  8
1
  6
CONTINUOUS
370
50
 62
4
100
AcDbLine
 10
30.5
 20
1.35
 30
0.0
 11
33.102097
 21
1.35
 31
0.0
  0
LINE
  5
5DB
330
1F
100
AcDbEntity
  8
1
  6
CONTINUOUS
370
50
 62
4
100
AcDbLine
 10
46.434189
 20
-1.350094
 30
0.0
 11
47.358135
 21
-1.350001
 31
0.0
  0
LINE
  5
5DC
330
1F
100
AcDbEntity
  8
1
  6
CONTINUOUS
370
50
 62
4
100
AcDbLine
 10
37.400002
 20
-1.351
 30
0.0
 11
38.614162
 21
-1.350878
 31
0.0
  0
LINE
  5
5DD
330
1F
100
AcDbEntity
  8
1
  6
CONTINUOUS
370
50
 62
4
100
AcDbLine
 10
40.78928
 20
-1.35066
 30
0.0
 11
44.258957
 21
-1.350312
 31
0.0
  0
LINE
  5
5DE
330
1F
100
AcDbEntity
  8
1
  6
CONTINUOUS
370
50
 62
4
100
AcDbLine
 10
33.095016
 20
-1.349974
 30
0.0
 11
33.120792
 21
-1.349822
 31
0.0
  0
LINE
  5
5DF
330
1F
100
AcDbEntity
  8
1
  6
CONTINUOUS
370
50
 62
4
100
AcDbLine
 10
47.898239
 20
0.036823
 30
0.0
 11
47.901695
 21
0.03687
 31
0.0
  0
LINE
  5
5E0
330
1F
100
AcDbEntity
  8
1
  6
CONTINUOUS
370
50
 62
4
100
AcDbLine
 10
33.120792
 20
-1.349822
 30
0.0
 11
33.146481
 21
-1.349034
 31
0.0
  0
LINE
  5
5E1
330
1F
100
AcDbEntity
  8
1
  6
CONTINUOUS
370
50
 62
4
100
AcDbLine
 10
32.348446
 20
-0.222137
 30
0.0
 11
32.395222
 21
-0.220608
 31
0.0
  0
LINE
  5
5E2
330
1F
100
AcDbEntity
  8
1
  6
CONTINUOUS
370
50
 62
4
100
AcDbLine
 10
46.25246
 20
1.343251
 30
0.0
 11
46.434189
 21
1.350094
 31
0.0
  0
LINE
  5
5E3
330
1F
100
AcDbEntity
  8
1
  6
CONTINUOUS
370
50
 62
4
100
AcDbLine
 10
40.608253
 20
1.343812
 30
0.0
 11
40.78928
 21
1.35066
 31
0.0
  0
LINE
  5
5E4
330
1F
100
AcDbEntity
  8
1
  6
CONTINUOUS
370
50
 62
4
100
AcDbLine
 10
38.614162
 20
-1.350878
 30
0.0
 11
38.795982
 21
-1.34399
 31
0.0
  0
LINE
  5
5E5
330
1F
100
AcDbEntity
  8
1
  6
CONTINUOUS
370
50
 62
4
100
AcDbLine
 10
34.96355399999999
 20
1.343138
 30
0.0
 11
35.144112
 21
1.35
 31
0.0
  0
LINE
  5
5E6
330
1F
100
AcDbEntity
  8
1
  6
CONTINUOUS
370
50
 62
4
100
AcDbLine
 10
44.258957
 20
-1.350312
 30
0.0
 11
44.439713
 21
-1.343433
 31
0.0
  0
LINE
  5
5E7
330
1F
100
AcDbEntity
  8
1
  6
CONTINUOUS
370
50
 62
4
100
AcDbLine
 10
33.146481
 20
-1.349034
 30
0.0
 11
33.172112
 21
-1.347635
 31
0.0
  0
LINE
  5
5E8
330
1F
100
AcDbEntity
  8
1
  6
CONTINUOUS
370
50
 62
4
100
AcDbLine
 10
47.423252
 20
-0.218847
 30
0.0
 11
47.439877
 21
-0.217848
 31
0.0
  0
LINE
  5
5E9
330
1F
100
AcDbEntity
  8
1
  6
CONTINUOUS
370
50
 62
4
100
AcDbLine
 10
33.172112
 20
-1.347635
 30
0.0
 11
33.19772
 21
-1.345653
 31
0.0
  0
LINE
  5
5EA
330
1F
100
AcDbEntity
  8
1
  6
CONTINUOUS
370
50
 62
4
100
AcDbLine
 10
33.19772
 20
-1.345653
 30
0.0
 11
33.223331
 21
-1.343118
 31
0.0
  0
LINE
  5
5EB
330
1F
100
AcDbEntity
  8
1
  6
CONTINUOUS
370
50
 62
4
100
AcDbLine
 10
32.303814
 20
-0.226986
 30
0.0
 11
32.348446
 21
-0.222137
 31
0.0
  0
LINE
  5
5EC
330
1F
100
AcDbEntity
  8
1
  6
CONTINUOUS
370
50
 62
4
100
AcDbLine
 10
34.782207
 20
1.322688
 30
0.0
 11
34.96355399999999
 21
1.343138
 31
0.0
  0
LINE
  5
5ED
330
1F
100
AcDbEntity
  8
1
  6
CONTINUOUS
370
50
 62
4
100
AcDbLine
 10
46.071507
 20
1.322758
 30
0.0
 11
46.25246
 21
1.343251
 31
0.0
  0
LINE
  5
5EE
330
1F
100
AcDbEntity
  8
1
  6
CONTINUOUS
370
50
 62
4
100
AcDbLine
 10
44.439713
 20
-1.343433
 30
0.0
 11
44.620861
 21
-1.322898
 31
0.0
  0
LINE
  5
5EF
330
1F
100
AcDbEntity
  8
1
  6
CONTINUOUS
370
50
 62
4
100
AcDbLine
 10
40.427357
 20
1.323303
 30
0.0
 11
40.608253
 21
1.343812
 31
0.0
  0
LINE
  5
5F0
330
1F
100
AcDbEntity
  8
1
  6
CONTINUOUS
370
50
 62
4
100
AcDbLine
 10
38.795982
 20
-1.34399
 30
0.0
 11
38.976357
 21
-1.323502
 31
0.0
  0
LINE
  5
5F1
330
1F
100
AcDbEntity
  8
1
  6
CONTINUOUS
370
50
 62
4
100
AcDbLine
 10
33.223331
 20
-1.343118
 30
0.0
 11
33.248985
 21
-1.340055
 31
0.0
  0
LINE
  5
5F2
330
1F
100
AcDbEntity
  8
1
  6
CONTINUOUS
370
50
 62
4
100
AcDbLine
 10
33.248985
 20
-1.334144
 30
0.0
 11
33.382561
 21
-1.3147
 31
0.0
  0
LINE
  5
5F3
330
1F
100
AcDbEntity
  8
1
  6
CONTINUOUS
370
50
 62
4
100
AcDbLine
 10
47.439877
 20
-0.217848
 30
0.0
 11
47.45663099999999
 21
-0.214878
 31
0.0
  0
LINE
  5
5F4
330
1F
100
AcDbEntity
  8
1
  6
CONTINUOUS
370
50
 62
4
100
AcDbLine
 10
40.245705
 20
1.289344
 30
0.0
 11
40.427357
 21
1.323303
 31
0.0
  0
LINE
  5
5F5
330
1F
100
AcDbEntity
  8
1
  6
CONTINUOUS
370
50
 62
4
100
AcDbLine
 10
44.620861
 20
-1.322898
 30
0.0
 11
44.802589
 21
-1.288921
 31
0.0
  0
LINE
  5
5F6
330
1F
100
AcDbEntity
  8
1
  6
CONTINUOUS
370
50
 62
4
100
AcDbLine
 10
34.601223
 20
1.28878
 30
0.0
 11
34.782207
 21
1.322688
 31
0.0
  0
LINE
  5
5F7
330
1F
100
AcDbEntity
  8
1
  6
CONTINUOUS
370
50
 62
4
100
AcDbLine
 10
45.890884
 20
1.288884
 30
0.0
 11
46.071507
 21
1.322758
 31
0.0
  0
LINE
  5
5F8
330
1F
100
AcDbEntity
  8
1
  6
CONTINUOUS
370
50
 62
4
100
AcDbLine
 10
38.976357
 20
-1.323502
 30
0.0
 11
39.157539
 21
-1.289519
 31
0.0
  0
LINE
  5
5F9
330
1F
100
AcDbEntity
  8
1
  6
CONTINUOUS
370
50
 62
4
100
AcDbLine
 10
32.259953
 20
-0.235402
 30
0.0
 11
32.303814
 21
-0.226986
 31
0.0
  0
LINE
  5
5FA
330
1F
100
AcDbEntity
  8
1
  6
CONTINUOUS
370
50
 62
4
100
AcDbLine
 10
33.382561
 20
-1.3147
 30
0.0
 11
33.516335
 21
-1.287884
 31
0.0
  0
LINE
  5
5FB
330
1F
100
AcDbEntity
  8
1
  6
CONTINUOUS
370
50
 62
4
100
AcDbLine
 10
29.9
 20
-1.5
 30
0.0
 11
30.5
 21
-1.35
 31
0.0
  0
LINE
  5
5FC
330
1F
100
AcDbEntity
  8
1
  6
CONTINUOUS
370
50
 62
4
100
AcDbLine
 10
33.516335
 20
-1.287884
 30
0.0
 11
33.650948
 21
-1.253909
 31
0.0
  0
LINE
  5
5FD
330
1F
100
AcDbEntity
  8
1
  6
CONTINUOUS
370
50
 62
4
100
AcDbLine
 10
47.054581
 20
0.681626
 30
0.0
 11
47.082745
 21
0.688836
 31
0.0
  0
LINE
  5
5FE
330
1F
100
AcDbEntity
  8
1
  6
CONTINUOUS
370
50
 62
4
100
AcDbLine
 10
45.709259
 20
1.241905
 30
0.0
 11
45.890884
 21
1.288884
 31
0.0
  0
LINE
  5
5FF
330
1F
100
AcDbEntity
  8
1
  6
CONTINUOUS
370
50
 62
4
100
AcDbLine
 10
39.157539
 20
-1.289519
 30
0.0
 11
39.339355
 21
-1.242401
 31
0.0
  0
LINE
  5
600
330
1F
100
AcDbEntity
  8
1
  6
CONTINUOUS
370
50
 62
4
100
AcDbLine
 10
40.064453
 20
1.242223
 30
0.0
 11
40.245705
 21
1.289344
 31
0.0
  0
LINE
  5
601
330
1F
100
AcDbEntity
  8
1
  6
CONTINUOUS
370
50
 62
4
100
AcDbLine
 10
34.420238
 20
1.241714
 30
0.0
 11
34.601223
 21
1.28878
 31
0.0
  0
LINE
  5
602
330
1F
100
AcDbEntity
  8
1
  6
CONTINUOUS
370
50
 62
4
100
AcDbLine
 10
44.802589
 20
-1.288921
 30
0.0
 11
44.983555
 21
-1.241796
 31
0.0
  0
LINE
  5
603
330
1F
100
AcDbEntity
  8
1
  6
CONTINUOUS
370
50
 62
4
100
AcDbLine
 10
47.587513
 20
-0.113868
 30
0.0
 11
47.912212
 21
-0.024234
 31
0.0
  0
LINE
  5
604
330
1F
100
AcDbEntity
  8
1
  6
CONTINUOUS
370
50
 62
4
100
AcDbLine
 10
47.082745
 20
0.688836
 30
0.0
 11
47.110214
 21
0.696634
 31
0.0
  0
LINE
  5
605
330
1F
100
AcDbEntity
  8
1
  6
CONTINUOUS
370
50
 62
4
100
AcDbLine
 10
32.217152
 20
-0.247685
 30
0.0
 11
32.259953
 21
-0.235402
 31
0.0
  0
LINE
  5
606
330
1F
100
AcDbEntity
  8
1
  6
CONTINUOUS
370
50
 62
4
100
AcDbLine
 10
47.45663099999999
 20
-0.214878
 30
0.0
 11
47.473457
 21
-0.209877
 31
0.0
  0
LINE
  5
607
330
1F
100
AcDbEntity
  8
1
  6
CONTINUOUS
370
50
 62
4
100
AcDbLine
 10
33.650948
 20
-1.253909
 30
0.0
 11
33.78651
 21
-1.21293
 31
0.0
  0
LINE
  5
608
330
1F
100
AcDbEntity
  8
1
  6
CONTINUOUS
370
50
 62
4
100
AcDbLine
 10
47.110214
 20
0.696634
 30
0.0
 11
47.13692899999999
 21
0.705048
 31
0.0
  0
LINE
  5
609
330
1F
100
AcDbEntity
  8
1
  6
CONTINUOUS
370
50
 62
4
100
AcDbLine
 10
34.238705
 20
1.182047
 30
0.0
 11
34.420238
 21
1.241714
 31
0.0
  0
LINE
  5
60A
330
1F
100
AcDbEntity
  8
1
  6
CONTINUOUS
370
50
 62
4
100
AcDbLine
 10
45.527828
 20
1.182111
 30
0.0
 11
45.709259
 21
1.241905
 31
0.0
  0
LINE
  5
60B
330
1F
100
AcDbEntity
  8
1
  6
CONTINUOUS
370
50
 62
4
100
AcDbLine
 10
44.983555
 20
-1.241796
 30
0.0
 11
45.164654
 21
-1.182065
 31
0.0
  0
LINE
  5
60C
330
1F
100
AcDbEntity
  8
1
  6
CONTINUOUS
370
50
 62
4
100
AcDbLine
 10
39.883522
 20
1.182504
 30
0.0
 11
40.064453
 21
1.242223
 31
0.0
  0
LINE
  5
60D
330
1F
100
AcDbEntity
  8
1
  6
CONTINUOUS
370
50
 62
4
100
AcDbLine
 10
39.339355
 20
-1.242401
 30
0.0
 11
39.520359
 21
-1.182603
 31
0.0
  0
LINE
  5
60E
330
1F
100
AcDbEntity
  8
1
  6
CONTINUOUS
370
50
 62
4
100
AcDbLine
 10
47.13692899999999
 20
0.705048
 30
0.0
 11
47.16283
 21
0.714109
 31
0.0
  0
LINE
  5
60F
330
1F
100
AcDbEntity
  8
1
  6
CONTINUOUS
370
50
 62
4
100
AcDbLine
 10
33.78651
 20
-1.21293
 30
0.0
 11
33.922321
 21
-1.165039
 31
0.0
  0
LINE
  5
610
330
1F
100
AcDbEntity
  8
1
  6
CONTINUOUS
370
50
 62
4
100
AcDbLine
 10
47.16283
 20
0.714109
 30
0.0
 11
47.187866
 21
0.723849
 31
0.0
  0
LINE
  5
611
330
1F
100
AcDbEntity
  8
1
  6
CONTINUOUS
370
50
 62
4
100
AcDbLine
 10
45.164654
 20
-1.182065
 30
0.0
 11
45.34652699999999
 21
-1.110255
 31
0.0
  0
LINE
  5
612
330
1F
100
AcDbEntity
  8
1
  6
CONTINUOUS
370
50
 62
4
100
AcDbLine
 10
39.701759
 20
1.11073
 30
0.0
 11
39.883522
 21
1.182504
 31
0.0
  0
LINE
  5
613
330
1F
100
AcDbEntity
  8
1
  6
CONTINUOUS
370
50
 62
4
100
AcDbLine
 10
34.057659
 20
1.11038
 30
0.0
 11
34.238705
 21
1.182047
 31
0.0
  0
LINE
  5
614
330
1F
100
AcDbEntity
  8
1
  6
CONTINUOUS
370
50
 62
4
100
AcDbLine
 10
39.520359
 20
-1.182603
 30
0.0
 11
39.701778
 21
-1.110737
 31
0.0
  0
LINE
  5
615
330
1F
100
AcDbEntity
  8
1
  6
CONTINUOUS
370
50
 62
4
100
AcDbLine
 10
45.346519
 20
1.110251
 30
0.0
 11
45.527828
 21
1.182111
 31
0.0
  0
LINE
  5
616
330
1F
100
AcDbEntity
  8
1
  6
CONTINUOUS
370
50
 62
4
100
AcDbLine
 10
32.175957
 20
-0.264114
 30
0.0
 11
32.217152
 21
-0.247685
 31
0.0
  0
LINE
  5
617
330
1F
100
AcDbEntity
  8
1
  6
CONTINUOUS
370
50
 62
4
100
AcDbLine
 10
33.922321
 20
-1.165039
 30
0.0
 11
34.057659
 21
-1.11038
 31
0.0
  0
LINE
  5
618
330
1F
100
AcDbEntity
  8
1
  6
CONTINUOUS
370
50
 62
4
100
AcDbLine
 10
47.473457
 20
-0.209877
 30
0.0
 11
47.490299
 21
-0.202786
 31
0.0
  0
LINE
  5
619
330
1F
100
AcDbEntity
  8
1
  6
CONTINUOUS
370
50
 62
4
100
AcDbLine
 10
47.187866
 20
0.723849
 30
0.0
 11
47.211971
 21
0.734298
 31
0.0
  0
LINE
  5
61A
330
1F
100
AcDbEntity
  8
1
  6
CONTINUOUS
370
50
 62
4
100
AcDbLine
 10
47.211971
 20
0.734298
 30
0.0
 11
47.23509199999999
 21
0.745489
 31
0.0
  0
LINE
  5
61B
330
1F
100
AcDbEntity
  8
1
  6
CONTINUOUS
370
50
 62
4
100
AcDbLine
 10
47.358135
 20
-1.350001
 30
0.0
 11
47.358345
 21
-1.349898
 31
0.0
  0
LINE
  5
61C
330
1F
100
AcDbEntity
  8
1
  6
CONTINUOUS
370
50
 62
4
100
AcDbLine
 10
32.137062
 20
-0.284905
 30
0.0
 11
32.175957
 21
-0.264114
 31
0.0
  0
LINE
  5
61D
330
1F
100
AcDbEntity
  8
1
  6
CONTINUOUS
370
50
 62
4
100
AcDbLine
 10
47.358345
 20
-1.349898
 30
0.0
 11
47.358559
 21
-1.349783
 31
0.0
  0
LINE
  5
61E
330
1F
100
AcDbEntity
  8
1
  6
CONTINUOUS
370
50
 62
4
100
AcDbLine
 10
47.23509199999999
 20
0.745489
 30
0.0
 11
47.25721
 21
0.757474
 31
0.0
  0
LINE
  5
61F
330
1F
100
AcDbEntity
  8
1
  6
CONTINUOUS
370
50
 62
4
100
AcDbLine
 10
47.490299
 20
-0.202786
 30
0.0
 11
47.507103
 21
-0.193546
 31
0.0
  0
LINE
  5
620
330
1F
100
AcDbEntity
  8
1
  6
CONTINUOUS
370
50
 62
4
100
AcDbLine
 10
37.399136
 20
1.35
 30
0.0
 11
37.400002
 21
1.3505
 31
0.0
  0
LINE
  5
621
330
1F
100
AcDbEntity
  8
1
  6
CONTINUOUS
370
50
 62
4
100
AcDbLine
 10
47.25721
 20
0.757474
 30
0.0
 11
47.278461
 21
0.77043
 31
0.0
  0
LINE
  5
622
330
1F
100
AcDbEntity
  8
1
  6
CONTINUOUS
370
50
 62
4
100
AcDbLine
 10
47.507103
 20
-0.193546
 30
0.0
 11
47.523808
 21
-0.182097
 31
0.0
  0
LINE
  5
623
330
1F
100
AcDbEntity
  8
1
  6
CONTINUOUS
370
50
 62
4
100
AcDbLine
 10
47.278461
 20
0.77043
 30
0.0
 11
47.298771
 21
0.7844369999999999
 31
0.0
  0
LINE
  5
624
330
1F
100
AcDbEntity
  8
1
  6
CONTINUOUS
370
50
 62
4
100
AcDbLine
 10
32.101299
 20
-0.310158
 30
0.0
 11
32.137062
 21
-0.284905
 31
0.0
  0
LINE
  5
625
330
1F
100
AcDbEntity
  8
1
  6
CONTINUOUS
370
50
 62
4
100
AcDbLine
 10
47.298771
 20
0.7844369999999999
 30
0.0
 11
47.318001
 21
0.799551
 31
0.0
  0
LINE
  5
626
330
1F
100
AcDbEntity
  8
1
  6
CONTINUOUS
370
50
 62
4
100
AcDbLine
 10
47.523808
 20
-0.182097
 30
0.0
 11
47.540333
 21
-0.168408
 31
0.0
  0
LINE
  5
627
330
1F
100
AcDbEntity
  8
1
  6
CONTINUOUS
370
50
 62
4
100
AcDbLine
 10
47.318001
 20
0.799551
 30
0.0
 11
47.336029
 21
0.8158299999999999
 31
0.0
  0
LINE
  5
628
330
1F
100
AcDbEntity
  8
1
  6
CONTINUOUS
370
50
 62
4
100
AcDbLine
 10
32.069466
 20
-0.339941
 30
0.0
 11
32.101299
 21
-0.310158
 31
0.0
  0
LINE
  5
629
330
1F
100
AcDbEntity
  8
1
  6
CONTINUOUS
370
50
 62
4
100
AcDbLine
 10
47.540333
 20
-0.168408
 30
0.0
 11
47.556541
 21
-0.152489
 31
0.0
  0
LINE
  5
62A
330
1F
100
AcDbEntity
  8
1
  6
CONTINUOUS
370
50
 62
4
100
AcDbLine
 10
47.358559
 20
-1.349783
 30
0.0
 11
47.358768
 21
-1.349577
 31
0.0
  0
LINE
  5
62B
330
1F
100
AcDbEntity
  8
1
  6
CONTINUOUS
370
50
 62
4
100
AcDbLine
 10
47.336029
 20
0.8158299999999999
 30
0.0
 11
47.352726
 21
0.833332
 31
0.0
  0
LINE
  5
62C
330
1F
100
AcDbEntity
  8
1
  6
CONTINUOUS
370
50
 62
4
100
AcDbLine
 10
47.556541
 20
-0.152489
 30
0.0
 11
47.572315
 21
-0.134317
 31
0.0
  0
LINE
  5
62D
330
1F
100
AcDbEntity
  8
1
  6
CONTINUOUS
370
50
 62
4
100
AcDbLine
 10
47.352726
 20
0.833332
 30
0.0
 11
47.367878
 21
0.851996
 31
0.0
  0
LINE
  5
62E
330
1F
100
AcDbEntity
  8
1
  6
CONTINUOUS
370
50
 62
4
100
AcDbLine
 10
32.042828
 20
-0.37356
 30
0.0
 11
32.069466
 21
-0.339941
 31
0.0
  0
LINE
  5
62F
330
1F
100
AcDbEntity
  8
1
  6
CONTINUOUS
370
50
 62
4
100
AcDbLine
 10
47.572315
 20
-0.134317
 30
0.0
 11
47.587513
 21
-0.113868
 31
0.0
  0
LINE
  5
630
330
1F
100
AcDbEntity
  8
1
  6
CONTINUOUS
370
50
 62
4
100
AcDbLine
 10
47.358768
 20
-1.349577
 30
0.0
 11
47.358982
 21
-1.34928
 31
0.0
  0
LINE
  5
631
330
1F
100
AcDbEntity
  8
1
  6
CONTINUOUS
370
50
 62
4
100
AcDbLine
 10
47.367878
 20
0.851996
 30
0.0
 11
47.381191
 21
0.871524
 31
0.0
  0
LINE
  5
632
330
1F
100
AcDbEntity
  8
1
  6
CONTINUOUS
370
50
 62
4
100
AcDbLine
 10
32.021927
 20
-0.410573
 30
0.0
 11
32.042828
 21
-0.37356
 31
0.0
  0
LINE
  5
633
330
1F
100
AcDbEntity
  8
1
  6
CONTINUOUS
370
50
 62
4
100
AcDbLine
 10
47.381191
 20
0.871524
 30
0.0
 11
47.39267
 21
0.8918969999999999
 31
0.0
  0
LINE
  5
634
330
1F
100
AcDbEntity
  8
1
  6
CONTINUOUS
370
50
 62
4
100
AcDbLine
 10
47.358982
 20
-1.34928
 30
0.0
 11
47.359196
 21
-1.348892
 31
0.0
  0
LINE
  5
635
330
1F
100
AcDbEntity
  8
1
  6
CONTINUOUS
370
50
 62
4
100
AcDbLine
 10
47.359219
 20
-1.348854
 30
0.0
 11
48.0
 21
0.0
 31
0.0
  0
LINE
  5
636
330
1F
100
AcDbEntity
  8
1
  6
CONTINUOUS
370
50
 62
4
100
AcDbLine
 10
47.39267
 20
0.8918969999999999
 30
0.0
 11
47.402336
 21
0.9131159999999999
 31
0.0
  0
LINE
  5
637
330
1F
100
AcDbEntity
  8
1
  6
CONTINUOUS
370
50
 62
4
100
AcDbLine
 10
47.359196
 20
-1.348892
 30
0.0
 11
47.359413
 21
-1.348412
 31
0.0
  0
LINE
  5
638
330
1F
100
AcDbEntity
  8
1
  6
CONTINUOUS
370
50
 62
4
100
AcDbLine
 10
32.007275
 20
-0.449932
 30
0.0
 11
32.021927
 21
-0.410573
 31
0.0
  0
LINE
  5
639
330
1F
100
AcDbEntity
  8
1
  6
CONTINUOUS
370
50
 62
4
100
AcDbLine
 10
47.402336
 20
0.9131159999999999
 30
0.0
 11
47.410213
 21
0.935183
 31
0.0
  0
LINE
  5
63A
330
1F
100
AcDbEntity
  8
1
  6
CONTINUOUS
370
50
 62
4
100
AcDbLine
 10
47.410213
 20
0.935183
 30
0.0
 11
47.416313
 21
0.958038
 31
0.0
  0
LINE
  5
63B
330
1F
100
AcDbEntity
  8
1
  6
CONTINUOUS
370
50
 62
4
100
AcDbLine
 10
31.998924
 20
-0.490285
 30
0.0
 11
32.007275
 21
-0.449932
 31
0.0
  0
LINE
  5
63C
330
1F
100
AcDbEntity
  8
1
  6
CONTINUOUS
370
50
 62
4
100
AcDbLine
 10
47.416313
 20
0.958038
 30
0.0
 11
47.420609
 21
0.9813059999999999
 31
0.0
  0
LINE
  5
63D
330
1F
100
AcDbEntity
  8
1
  6
CONTINUOUS
370
50
 62
4
100
AcDbLine
 10
47.420609
 20
0.9813059999999999
 30
0.0
 11
47.42321399999999
 21
1.004854
 31
0.0
  0
LINE
  5
63E
330
1F
100
AcDbEntity
  8
1
  6
CONTINUOUS
370
50
 62
4
100
AcDbLine
 10
31.996346
 20
-0.53122
 30
0.0
 11
31.998924
 21
-0.490285
 31
0.0
  0
LINE
  5
63F
330
1F
100
AcDbEntity
  8
1
  6
CONTINUOUS
370
50
 62
4
100
AcDbLine
 10
47.42321399999999
 20
1.004854
 30
0.0
 11
47.424248
 21
1.028597
 31
0.0
  0
LINE
  5
640
330
1F
100
AcDbEntity
  8
1
  6
CONTINUOUS
370
50
 62
4
100
AcDbLine
 10
47.342251
 20
-0.297227
 30
0.0
 11
47.342796
 21
-0.196367
 31
0.0
  0
LINE
  5
641
330
1F
100
AcDbEntity
  8
1
  6
CONTINUOUS
370
50
 62
4
100
AcDbLine
 10
47.34185799999999
 20
-0.39553
 30
0.0
 11
47.342251
 21
-0.297227
 31
0.0
  0
LINE
  5
642
330
1F
100
AcDbEntity
  8
1
  6
CONTINUOUS
370
50
 62
4
100
AcDbLine
 10
47.341629
 20
-0.490294
 30
0.0
 11
47.34185799999999
 21
-0.39553
 31
0.0
  0
LINE
  5
643
330
1F
100
AcDbEntity
  8
1
  6
CONTINUOUS
370
50
 62
4
100
AcDbLine
 10
47.34156
 20
-0.580575
 30
0.0
 11
47.341629
 21
-0.490294
 31
0.0
  0
LINE
  5
644
330
1F
100
AcDbEntity
  8
1
  6
CONTINUOUS
370
50
 62
4
100
AcDbLine
 10
29.9
 20
-1.5
 30
0.0
 11
29.9
 21
1.5
 31
0.0
  0
LINE
  5
645
330
1F
100
AcDbEntity
  8
1
  6
CONTINUOUS
370
50
 62
4
100
AcDbLine
 10
30.5
 20
-1.35
 30
0.0
 11
30.5
 21
1.35
 31
0.0
  0
LINE
  5
646
330
1F
100
AcDbEntity
  8
1
  6
CONTINUOUS
370
50
 62
4
100
AcDbLine
 10
33.248985
 20
1.334144
 30
0.0
 11
33.248985
 21
1.340055
 31
0.0
  0
LINE
  5
647
330
1F
100
AcDbEntity
  8
1
  6
CONTINUOUS
370
50
 62
4
100
AcDbLine
 10
33.248985
 20
-1.340055
 30
0.0
 11
33.248985
 21
-1.295184
 31
0.0
  0
LINE
  5
648
330
1F
100
AcDbEntity
  8
1
  6
CONTINUOUS
370
50
 62
4
100
AcDbLine
 10
33.248985
 20
-1.295184
 30
0.0
 11
33.248985
 21
-1.250554
 31
0.0
  0
LINE
  5
649
330
1F
100
AcDbEntity
  8
1
  6
CONTINUOUS
370
50
 62
4
100
AcDbLine
 10
33.248985
 20
-1.250554
 30
0.0
 11
33.248985
 21
-1.206252
 31
0.0
  0
LINE
  5
64A
330
1F
100
AcDbEntity
  8
1
  6
CONTINUOUS
370
50
 62
4
100
AcDbLine
 10
33.248985
 20
-1.206252
 30
0.0
 11
33.248985
 21
-1.162362
 31
0.0
  0
LINE
  5
64B
330
1F
100
AcDbEntity
  8
1
  6
CONTINUOUS
370
50
 62
4
100
AcDbLine
 10
33.248985
 20
-1.162362
 30
0.0
 11
33.248985
 21
-1.118978
 31
0.0
  0
LINE
  5
64C
330
1F
100
AcDbEntity
  8
1
  6
CONTINUOUS
370
50
 62
4
100
AcDbLine
 10
33.248985
 20
-1.118978
 30
0.0
 11
33.248985
 21
-1.076334
 31
0.0
  0
LINE
  5
64D
330
1F
100
AcDbEntity
  8
1
  6
CONTINUOUS
370
50
 62
4
100
AcDbLine
 10
33.248985
 20
-1.076334
 30
0.0
 11
33.248985
 21
-1.034557
 31
0.0
  0
LINE
  5
64E
330
1F
100
AcDbEntity
  8
1
  6
CONTINUOUS
370
50
 62
4
100
AcDbLine
 10
33.248985
 20
-1.034557
 30
0.0
 11
33.248985
 21
-0.9937229999999999
 31
0.0
  0
LINE
  5
64F
330
1F
100
AcDbEntity
  8
1
  6
CONTINUOUS
370
50
 62
4
100
AcDbLine
 10
33.248985
 20
-0.9937229999999999
 30
0.0
 11
33.248985
 21
-0.953907
 31
0.0
  0
LINE
  5
650
330
1F
100
AcDbEntity
  8
1
  6
CONTINUOUS
370
50
 62
4
100
AcDbLine
 10
33.248985
 20
-0.953907
 30
0.0
 11
33.248985
 21
-0.915184
 31
0.0
  0
LINE
  5
651
330
1F
100
AcDbEntity
  8
1
  6
CONTINUOUS
370
50
 62
4
100
AcDbLine
 10
33.248985
 20
-0.915184
 30
0.0
 11
33.248985
 21
-0.877629
 31
0.0
  0
LINE
  5
652
330
1F
100
AcDbEntity
  8
1
  6
CONTINUOUS
370
50
 62
4
100
AcDbLine
 10
33.248985
 20
-0.877629
 30
0.0
 11
33.248985
 21
-0.841318
 31
0.0
  0
LINE
  5
653
330
1F
100
AcDbEntity
  8
1
  6
CONTINUOUS
370
50
 62
4
100
AcDbLine
 10
33.248985
 20
-0.841318
 30
0.0
 11
33.248985
 21
-0.806344
 31
0.0
  0
LINE
  5
654
330
1F
100
AcDbEntity
  8
1
  6
CONTINUOUS
370
50
 62
4
100
AcDbLine
 10
33.248985
 20
-0.806344
 30
0.0
 11
33.248985
 21
-0.772874
 31
0.0
  0
LINE
  5
655
330
1F
100
AcDbEntity
  8
1
  6
CONTINUOUS
370
50
 62
4
100
AcDbLine
 10
33.248985
 20
-0.772874
 30
0.0
 11
33.248985
 21
-0.74098
 31
0.0
  0
LINE
  5
656
330
1F
100
AcDbEntity
  8
1
  6
CONTINUOUS
370
50
 62
4
100
AcDbLine
 10
33.248985
 20
-0.74098
 30
0.0
 11
33.248985
 21
-0.710726
 31
0.0
  0
LINE
  5
657
330
1F
100
AcDbEntity
  8
1
  6
CONTINUOUS
370
50
 62
4
100
AcDbLine
 10
33.248985
 20
-0.710726
 30
0.0
 11
33.248985
 21
-0.682183
 31
0.0
  0
LINE
  5
658
330
1F
100
AcDbEntity
  8
1
  6
CONTINUOUS
370
50
 62
4
100
AcDbLine
 10
33.248985
 20
-0.682183
 30
0.0
 11
33.248985
 21
-0.655481
 31
0.0
  0
LINE
  5
659
330
1F
100
AcDbEntity
  8
1
  6
CONTINUOUS
370
50
 62
4
100
AcDbLine
 10
33.248985
 20
-0.655481
 30
0.0
 11
33.248985
 21
-0.6306729999999999
 31
0.0
  0
LINE
  5
65A
330
1F
100
AcDbEntity
  8
1
  6
CONTINUOUS
370
50
 62
4
100
AcDbLine
 10
33.250988
 20
-0.6654059999999999
 30
0.0
 11
33.250988
 21
-0.624405
 31
0.0
  0
LINE
  5
65B
330
1F
100
AcDbEntity
  8
1
  6
CONTINUOUS
370
50
 62
4
100
AcDbLine
 10
37.399136
 20
0.419218
 30
0.0
 11
37.399136
 21
1.35
 31
0.0
  0
LINE
  5
65C
330
1F
100
AcDbEntity
  8
1
  6
CONTINUOUS
370
50
 62
4
100
AcDbLine
 10
37.399136
 20
-1.35
 30
0.0
 11
37.399136
 21
-1.052663
 31
0.0
  0
LINE
  5
65D
330
1F
100
AcDbEntity
  8
1
  6
CONTINUOUS
370
50
 62
4
100
AcDbLine
 10
37.400002
 20
-1.351
 30
0.0
 11
37.400002
 21
1.351
 31
0.0
  0
LINE
  5
65E
330
1F
100
AcDbEntity
  8
1
  6
CONTINUOUS
370
50
 62
4
100
AcDbLine
 10
47.370483
 20
1.170614
 30
0.0
 11
47.370483
 21
1.219258
 31
0.0
  0
LINE
  5
65F
330
1F
100
AcDbEntity
  8
CUT
  6
CONTINUOUS
370
25
 62
1
100
AcDbLine
 10
37.4
 20
0.0
 30
0.0
 11
48.0
 21
0.0
 31
0.0
  0
LINE
  5
660
330
1F
100
AcDbEntity
  8
CUT
  6
CONTINUOUS
370
25
 62
1
100
AcDbLine
 10
48.0
 20
0.0
 30
0.0
 11
47.37048466
 21
1.35
 31
0.0
  0
LINE
  5
661
330
1F
100
AcDbEntity
  8
CUT
  6
CONTINUOUS
370
25
 62
1
100
AcDbLine
 10
47.37048466
 20
1.35
 30
0.0
 11
37.4
 21
1.35
 31
0.0
  0
LINE
  5
662
330
1F
100
AcDbEntity
  8
CUT
  6
CONTINUOUS
370
25
 62
1
100
AcDbLine
 10
37.4
 20
1.35
 30
0.0
 11
37.4
 21
0.0
 31
0.0
  0
LINE
  5
663
330
1F
100
AcDbEntity
  8
NOCUT
  6
CONTINUOUS
370
25
 62
7
100
AcDbLine
 10
29.9
 20
0.0
 30
0.0
 11
37.4
 21
0.0
 31
0.0
  0
LINE
  5
664
330
1F
100
AcDbEntity
  8
NOCUT
  6
CONTINUOUS
370
25
 62
7
100
AcDbLine
 10
37.4
 20
0.0
 30
0.0
 11
37.4
 21
1.3505
 31
0.0
  0
LINE
  5
665
330
1F
100
AcDbEntity
  8
NOCUT
  6
CONTINUOUS
370
25
 62
7
100
AcDbLine
 10
37.4
 20
1.3505
 30
0.0
 11
37.39913397459622
 21
1.35
 31
0.0
  0
LINE
  5
666
330
1F
100
AcDbEntity
  8
NOCUT
  6
CONTINUOUS
370
25
 62
7
100
AcDbLine
 10
37.39913397459622
 20
1.35
 30
0.0
 11
30.5
 21
1.35
 31
0.0
  0
LINE
  5
667
330
1F
100
AcDbEntity
  8
NOCUT
  6
CONTINUOUS
370
25
 62
7
100
AcDbLine
 10
30.5
 20
1.35
 30
0.0
 11
29.9
 21
1.5
 31
0.0
  0
LINE
  5
668
330
1F
100
AcDbEntity
  8
NOCUT
  6
CONTINUOUS
370
25
 62
7
100
AcDbLine
 10
29.9
 20
1.5
 30
0.0
 11
29.9
 21
0.0
 31
0.0
  0
LINE
  5
669
330
1F
100
AcDbEntity
  8
NOCUT
  6
CONTINUOUS
370
25
 62
7
100
AcDbLine
 10
37.4
 20
1.35
 30
0.0
 11
37.4
 21
0.0
 31
0.0
  0
LINE
  5
66A
330
1F
100
AcDbEntity
  8
NOCUT
  6
CONTINUOUS
370
25
 62
7
100
AcDbLine
 10
37.4
 20
1.35
 30
0.0
 11
37.4
 21
0.0
 31
0.0
  0
LINE
  5
66B
330
1F
100
AcDbEntity
  8
SK1
  6
CONTINUOUS
370
50
 62
4
100
AcDbLine
 10
29.9
 20
1.5
 30
0.0
 11
0.3000000000000007
 21
1.5
 31
0.0
  0
LINE
  5
66C
330
1F
100
AcDbEntity
  8
SK1
  6
CONTINUOUS
370
50
 62
4
100
AcDbLine
 10
0.3000000000000007
 20
1.5
 30
0.0
 11
0.0
 21
1.2
 31
0.0
  0
LINE
  5
66D
330
1F
100
AcDbEntity
  8
SK1
  6
CONTINUOUS
370
50
 62
4
100
AcDbLine
 10
0.0
 20
1.2
 30
0.0
 11
0.0
 21
-1.2
 31
0.0
  0
LINE
  5
66E
330
1F
100
AcDbEntity
  8
SK1
  6
CONTINUOUS
370
50
 62
4
100
AcDbLine
 10
0.0
 20
-1.2
 30
0.0
 11
0.3000000000000007
 21
-1.5
 31
0.0
  0
LINE
  5
66F
330
1F
100
AcDbEntity
  8
SK1
  6
CONTINUOUS
370
50
 62
4
100
AcDbLine
 10
0.3000000000000007
 20
-1.5
 30
0.0
 11
29.9
 21
-1.5
 31
0.0
  0
LINE
  5
670
330
1F
100
AcDbEntity
  8
SK1
  6
CONTINUOUS
370
50
 62
4
100
AcDbLine
 10
0.3000000000000007
 20
1.5
 30
0.0
 11
0.3000000000000007
 21
-1.5
 31
0.0
  0
LINE
  5
671
330
1F
100
AcDbEntity
  8
SK2
  6
CONTINUOUS
370
25
 62
7
100
AcDbLine
 10
-12.0000002
 20
-1.500001
 30
0.0
 11
-13.00000000000008
 21
-1.500001
 31
0.0
  0
LINE
  5
672
330
1F
100
AcDbEntity
  8
SK2
  6
CONTINUOUS
370
25
 62
7
100
AcDbLine
 10
0.0
 20
-1.500001
 30
0.0
 11
-11.9999998
 21
-1.500001
 31
0.0
  0
LINE
  5
673
330
1F
100
AcDbEntity
  8
SK2
  6
CONTINUOUS
370
25
 62
7
100
AcDbLine
 10
-13.0
 20
1.5
 30
0.0
 11
0.0
 21
1.5
 31
0.0
  0
LINE
  5
674
330
1F
100
AcDbEntity
  8
SK2
  6
CONTINUOUS
370
25
 62
7
100
AcDbLine
 10
-12.0
 20
-8.5
 30
0.0
 11
-12.0
 21
14.975
 31
0.0
  0
LINE
  5
675
330
1F
100
AcDbEntity
  8
SK2
  6
CONTINUOUS
370
25
 62
7
100
AcDbLine
 10
-12.0
 20
-1.5
 30
0.0
 11
-11.0
 21
-6.5
 31
0.0
  0
LINE
  5
676
330
1F
100
AcDbEntity
  8
SK2
  6
CONTINUOUS
370
25
 62
7
100
AcDbLine
 10
-11.0
 20
-6.5
 30
0.0
 11
-13.0
 21
-6.5
 31
0.0
  0
LINE
  5
677
330
1F
100
AcDbEntity
  8
SK2
  6
CONTINUOUS
370
25
 62
7
100
AcDbLine
 10
-13.0
 20
-6.5
 30
0.0
 11
-12.0
 21
-1.5
 31
0.0
  0
LINE
  5
678
330
1F
100
AcDbEntity
  8
SK2
  6
CONTINUOUS
370
25
 62
7
100
AcDbLine
 10
-11.38965363437812
 20
-6.5
 30
0.0
 11
-11.06494227239636
 21
-6.175288638018237
 31
0.0
  0
LINE
  5
679
330
1F
100
AcDbEntity
  8
SK2
  6
CONTINUOUS
370
25
 62
7
100
AcDbLine
 10
-11.81391770309005
 20
-6.5
 30
0.0
 11
-11.13565295051501
 21
-5.821735247424961
 31
0.0
  0
LINE
  5
67A
330
1F
100
AcDbEntity
  8
SK2
  6
CONTINUOUS
370
25
 62
7
100
AcDbLine
 10
-12.23818177180198
 20
-6.5
 30
0.0
 11
-11.20636362863367
 21
-5.468181856831684
 31
0.0
  0
LINE
  5
67B
330
1F
100
AcDbEntity
  8
SK2
  6
CONTINUOUS
370
25
 62
7
100
AcDbLine
 10
-12.66244584051391
 20
-6.5
 30
0.0
 11
-11.27707430675233
 21
-5.114628466238415
 31
0.0
  0
LINE
  5
67C
330
1F
100
AcDbEntity
  8
SK2
  6
CONTINUOUS
370
25
 62
7
100
AcDbLine
 10
-12.97832252269355
 20
-6.3916126134677
 30
0.0
 11
-11.34778498487098
 21
-4.761075075645131
 31
0.0
  0
LINE
  5
67D
330
1F
100
AcDbEntity
  8
SK2
  6
CONTINUOUS
370
25
 62
7
100
AcDbLine
 10
-12.87225650551556
 20
-5.861282527577785
 30
0.0
 11
-11.41849566298963
 21
-4.407521685051854
 31
0.0
  0
LINE
  5
67E
330
1F
100
AcDbEntity
  8
SK2
  6
CONTINUOUS
370
25
 62
7
100
AcDbLine
 10
-12.76619048833757
 20
-5.330952441687863
 30
0.0
 11
-11.48920634110829
 21
-4.053968294458578
 31
0.0
  0
LINE
  5
67F
330
1F
100
AcDbEntity
  8
SK2
  6
CONTINUOUS
370
25
 62
7
100
AcDbLine
 10
-12.66012447115959
 20
-4.800622355797955
 30
0.0
 11
-11.55991701922694
 21
-3.700414903865301
 31
0.0
  0
LINE
  5
680
330
1F
100
AcDbEntity
  8
SK2
  6
CONTINUOUS
370
25
 62
7
100
AcDbLine
 10
-12.55405845398161
 20
-4.27029226990804
 30
0.0
 11
-11.6306276973456
 21
-3.346861513272025
 31
0.0
  0
LINE
  5
681
330
1F
100
AcDbEntity
  8
SK2
  6
CONTINUOUS
370
25
 62
7
100
AcDbLine
 10
-12.44799243680363
 20
-3.739962184018133
 30
0.0
 11
-11.70133837546425
 21
-2.993308122678748
 31
0.0
  0
LINE
  5
682
330
1F
100
AcDbEntity
  8
SK2
  6
CONTINUOUS
370
25
 62
7
100
AcDbLine
 10
-12.34192641962564
 20
-3.20963209812821
 30
0.0
 11
-11.7720490535829
 21
-2.639754732085471
 31
0.0
  0
LINE
  5
683
330
1F
100
AcDbEntity
  8
SK2
  6
CONTINUOUS
370
25
 62
7
100
AcDbLine
 10
-12.23586040244766
 20
-2.679302012238303
 30
0.0
 11
-11.84275973170156
 21
-2.286201341492195
 31
0.0
  0
LINE
  5
684
330
1F
100
AcDbEntity
  8
SK2
  6
CONTINUOUS
370
25
 62
7
100
AcDbLine
 10
-12.12979438526968
 20
-2.148971926348381
 30
0.0
 11
-11.91347040982021
 21
-1.932647950898918
 31
0.0
  0
LINE
  5
685
330
1F
100
AcDbEntity
  8
SK2
  6
CONTINUOUS
370
25
 62
7
100
AcDbLine
 10
-12.0237283680917
 20
-1.618641840458466
 30
0.0
 11
-11.98418108793887
 21
-1.579094560305641
 31
0.0
  0
LINE
  5
686
330
1F
100
AcDbEntity
  8
SK2
  6
CONTINUOUS
370
25
 62
7
100
AcDbLine
 10
-12.9776110358762
 20
-6.388055179380999
 30
0.0
 11
-12.8656662152572
 21
-6.5
 31
0.0
  0
LINE
  5
687
330
1F
100
AcDbEntity
  8
SK2
  6
CONTINUOUS
370
25
 62
7
100
AcDbLine
 10
-12.90690035775754
 20
-6.034501788787722
 30
0.0
 11
-12.44140214654526
 21
-6.5
 31
0.0
  0
LINE
  5
688
330
1F
100
AcDbEntity
  8
SK2
  6
CONTINUOUS
370
25
 62
7
100
AcDbLine
 10
-12.83618967963888
 20
-5.680948398194445
 30
0.0
 11
-12.01713807783333
 21
-6.5
 31
0.0
  0
LINE
  5
689
330
1F
100
AcDbEntity
  8
SK2
  6
CONTINUOUS
370
25
 62
7
100
AcDbLine
 10
-12.76547900152024
 20
-5.327395007601169
 30
0.0
 11
-11.59287400912141
 21
-6.5
 31
0.0
  0
LINE
  5
68A
330
1F
100
AcDbEntity
  8
SK2
  6
CONTINUOUS
370
25
 62
7
100
AcDbLine
 10
-12.69476832340158
 20
-4.973841617007892
 30
0.0
 11
-11.16860994040947
 21
-6.5
 31
0.0
  0
LINE
  5
68B
330
1F
100
AcDbEntity
  8
SK2
  6
CONTINUOUS
370
25
 62
7
100
AcDbLine
 10
-12.62405764528292
 20
-4.620288226414623
 30
0.0
 11
-11.06391353207562
 21
-6.180432339621923
 31
0.0
  0
LINE
  5
68C
330
1F
100
AcDbEntity
  8
SK2
  6
CONTINUOUS
370
25
 62
7
100
AcDbLine
 10
-12.55334696716427
 20
-4.266734835821332
 30
0.0
 11
-11.1699795492536
 21
-5.650102253732008
 31
0.0
  0
LINE
  5
68D
330
1F
100
AcDbEntity
  8
SK2
  6
CONTINUOUS
370
25
 62
7
100
AcDbLine
 10
-12.48263628904562
 20
-3.913181445228055
 30
0.0
 11
-11.27604556643158
 21
-5.1197721678421
 31
0.0
  0
LINE
  5
68E
330
1F
100
AcDbEntity
  8
SK2
  6
CONTINUOUS
370
25
 62
7
100
AcDbLine
 10
-12.41192561092696
 20
-3.559628054634778
 30
0.0
 11
-11.38211158360956
 21
-4.589442081952178
 31
0.0
  0
LINE
  5
68F
330
1F
100
AcDbEntity
  8
SK2
  6
CONTINUOUS
370
25
 62
7
100
AcDbLine
 10
-12.3412149328083
 20
-3.206074664041516
 30
0.0
 11
-11.48817760078755
 21
-4.059111996062263
 31
0.0
  0
LINE
  5
690
330
1F
100
AcDbEntity
  8
SK2
  6
CONTINUOUS
370
25
 62
7
100
AcDbLine
 10
-12.27050425468965
 20
-2.852521273448239
 30
0.0
 11
-11.59424361796553
 21
-3.528781910172356
 31
0.0
  0
LINE
  5
691
330
1F
100
AcDbEntity
  8
SK2
  6
CONTINUOUS
370
25
 62
7
100
AcDbLine
 10
-12.19979357657099
 20
-2.498967882854963
 30
0.0
 11
-11.70030963514352
 21
-2.998451824282434
 31
0.0
  0
LINE
  5
692
330
1F
100
AcDbEntity
  8
SK2
  6
CONTINUOUS
370
25
 62
7
100
AcDbLine
 10
-12.12908289845235
 20
-2.145414492261672
 30
0.0
 11
-11.80637565232149
 21
-2.468121738392526
 31
0.0
  0
LINE
  5
693
330
1F
100
AcDbEntity
  8
SK2
  6
CONTINUOUS
370
25
 62
7
100
AcDbLine
 10
-12.05837222033369
 20
-1.791861101668395
 30
0.0
 11
-11.91244166949948
 21
-1.937791652502604
 31
0.0
  0
LINE
  5
694
330
1F
100
AcDbEntity
  8
SK2
  6
CONTINUOUS
370
25
 62
7
100
AcDbLine
 10
-12.0
 20
1.5
 30
0.0
 11
-13.0
 21
6.5
 31
0.0
  0
LINE
  5
695
330
1F
100
AcDbEntity
  8
SK2
  6
CONTINUOUS
370
25
 62
7
100
AcDbLine
 10
-13.0
 20
6.5
 30
0.0
 11
-11.0
 21
6.5
 31
0.0
  0
LINE
  5
696
330
1F
100
AcDbEntity
  8
SK2
  6
CONTINUOUS
370
25
 62
7
100
AcDbLine
 10
-11.0
 20
6.5
 30
0.0
 11
-12.0
 21
1.5
 31
0.0
  0
LINE
  5
697
330
1F
100
AcDbEntity
  8
SK2
  6
CONTINUOUS
370
25
 62
7
100
AcDbLine
 10
-12.0498665128881
 20
1.749332564440515
 30
0.0
 11
-11.92520023066785
 21
1.873998846660768
 31
0.0
  0
LINE
  5
698
330
1F
100
AcDbEntity
  8
SK2
  6
CONTINUOUS
370
25
 62
7
100
AcDbLine
 10
-12.12057719100676
 20
2.102885955033791
 30
0.0
 11
-11.81913421348987
 21
2.404328932550683
 31
0.0
  0
LINE
  5
699
330
1F
100
AcDbEntity
  8
SK2
  6
CONTINUOUS
370
25
 62
7
100
AcDbLine
 10
-12.19128786912541
 20
2.456439345627075
 30
0.0
 11
-11.71306819631189
 21
2.934659018440598
 31
0.0
  0
LINE
  5
69A
330
1F
100
AcDbEntity
  8
SK2
  6
CONTINUOUS
370
25
 62
7
100
AcDbLine
 10
-12.26199854724407
 20
2.809992736220345
 30
0.0
 11
-11.6070021791339
 21
3.464989104330513
 31
0.0
  0
LINE
  5
69B
330
1F
100
AcDbEntity
  8
SK2
  6
CONTINUOUS
370
25
 62
7
100
AcDbLine
 10
-12.33270922536272
 20
3.163546126813628
 30
0.0
 11
-11.50093616195592
 21
3.995319190220428
 31
0.0
  0
LINE
  5
69C
330
1F
100
AcDbEntity
  8
SK2
  6
CONTINUOUS
370
25
 62
7
100
AcDbLine
 10
-12.40341990348138
 20
3.517099517406898
 30
0.0
 11
-11.39487014477793
 21
4.525649276110343
 31
0.0
  0
LINE
  5
69D
330
1F
100
AcDbEntity
  8
SK2
  6
CONTINUOUS
370
25
 62
7
100
AcDbLine
 10
-12.47413058160004
 20
3.870652908000174
 30
0.0
 11
-11.28880412759995
 21
5.055979362000258
 31
0.0
  0
LINE
  5
69E
330
1F
100
AcDbEntity
  8
SK2
  6
CONTINUOUS
370
25
 62
7
100
AcDbLine
 10
-12.54484125971869
 20
4.224206298593451
 30
0.0
 11
-11.18273811042197
 21
5.586309447890166
 31
0.0
  0
LINE
  5
69F
330
1F
100
AcDbEntity
  8
SK2
  6
CONTINUOUS
370
25
 62
7
100
AcDbLine
 10
-12.61555193783735
 20
4.577759689186728
 30
0.0
 11
-11.07667209324399
 21
6.116639533780088
 31
0.0
  0
LINE
  5
6A0
330
1F
100
AcDbEntity
  8
SK2
  6
CONTINUOUS
370
25
 62
7
100
AcDbLine
 10
-12.686262615956
 20
4.93131307977999
 30
0.0
 11
-11.11757569573599
 21
6.5
 31
0.0
  0
LINE
  5
6A1
330
1F
100
AcDbEntity
  8
SK2
  6
CONTINUOUS
370
25
 62
7
100
AcDbLine
 10
-12.75697329407466
 20
5.284866470373267
 30
0.0
 11
-11.54183976444793
 21
6.5
 31
0.0
  0
LINE
  5
6A2
330
1F
100
AcDbEntity
  8
SK2
  6
CONTINUOUS
370
25
 62
7
100
AcDbLine
 10
-12.82768397219332
 20
5.638419860966543
 30
0.0
 11
-11.96610383315986
 21
6.5
 31
0.0
  0
LINE
  5
6A3
330
1F
100
AcDbEntity
  8
SK2
  6
CONTINUOUS
370
25
 62
7
100
AcDbLine
 10
-12.89839465031197
 20
5.99197325155982
 30
0.0
 11
-12.39036790187179
 21
6.5
 31
0.0
  0
LINE
  5
6A4
330
1F
100
AcDbEntity
  8
SK2
  6
CONTINUOUS
370
25
 62
7
100
AcDbLine
 10
-12.96910532843062
 20
6.345526642153111
 30
0.0
 11
-12.81463197058373
 21
6.5
 31
0.0
  0
LINE
  5
6A5
330
1F
100
AcDbEntity
  8
SK2
  6
CONTINUOUS
370
25
 62
7
100
AcDbLine
 10
-12.08652717133799
 20
1.932635856689949
 30
0.0
 11
-11.94231521910801
 21
1.788423904459968
 31
0.0
  0
LINE
  5
6A6
330
1F
100
AcDbEntity
  8
SK2
  6
CONTINUOUS
370
25
 62
7
100
AcDbLine
 10
-12.19259318851597
 20
2.462965942579856
 30
0.0
 11
-11.87160454098936
 21
2.141977295053245
 31
0.0
  0
LINE
  5
6A7
330
1F
100
AcDbEntity
  8
SK2
  6
CONTINUOUS
370
25
 62
7
100
AcDbLine
 10
-12.29865920569396
 20
2.993296028469778
 30
0.0
 11
-11.8008938628707
 21
2.495530685646521
 31
0.0
  0
LINE
  5
6A8
330
1F
100
AcDbEntity
  8
SK2
  6
CONTINUOUS
370
25
 62
7
100
AcDbLine
 10
-12.40472522287195
 20
3.523626114359701
 30
0.0
 11
-11.73018318475204
 21
2.849084076239798
 31
0.0
  0
LINE
  5
6A9
330
1F
100
AcDbEntity
  8
SK2
  6
CONTINUOUS
370
25
 62
7
100
AcDbLine
 10
-12.51079124004993
 20
4.053956200249608
 30
0.0
 11
-11.65947250663339
 21
3.202637466833067
 31
0.0
  0
LINE
  5
6AA
330
1F
100
AcDbEntity
  8
SK2
  6
CONTINUOUS
370
25
 62
7
100
AcDbLine
 10
-12.61685725722791
 20
4.584286286139523
 30
0.0
 11
-11.58876182851473
 21
3.556190857426351
 31
0.0
  0
LINE
  5
6AB
330
1F
100
AcDbEntity
  8
SK2
  6
CONTINUOUS
370
25
 62
7
100
AcDbLine
 10
-12.72292327440589
 20
5.114616372029445
 30
0.0
 11
-11.51805115039608
 21
3.909744248019628
 31
0.0
  0
LINE
  5
6AC
330
1F
100
AcDbEntity
  8
SK2
  6
CONTINUOUS
370
25
 62
7
100
AcDbLine
 10
-12.82898929158387
 20
5.644946457919353
 30
0.0
 11
-11.44734047227742
 21
4.263297638612904
 31
0.0
  0
LINE
  5
6AD
330
1F
100
AcDbEntity
  8
SK2
  6
CONTINUOUS
370
25
 62
7
100
AcDbLine
 10
-12.93505530876186
 20
6.175276543809268
 30
0.0
 11
-11.37662979415877
 21
4.616851029206174
 31
0.0
  0
LINE
  5
6AE
330
1F
100
AcDbEntity
  8
SK2
  6
CONTINUOUS
370
25
 62
7
100
AcDbLine
 10
-12.83551469624066
 20
6.5
 30
0.0
 11
-11.30591911604011
 21
4.970404419799458
 31
0.0
  0
LINE
  5
6AF
330
1F
100
AcDbEntity
  8
SK2
  6
CONTINUOUS
370
25
 62
7
100
AcDbLine
 10
-12.41125062752873
 20
6.5
 30
0.0
 11
-11.23520843792146
 21
5.323957810392734
 31
0.0
  0
LINE
  5
6B0
330
1F
100
AcDbEntity
  8
SK2
  6
CONTINUOUS
370
25
 62
7
100
AcDbLine
 10
-11.9869865588168
 20
6.5
 30
0.0
 11
-11.1644977598028
 21
5.677511200986011
 31
0.0
  0
LINE
  5
6B1
330
1F
100
AcDbEntity
  8
SK2
  6
CONTINUOUS
370
25
 62
7
100
AcDbLine
 10
-11.56272249010486
 20
6.5
 30
0.0
 11
-11.09378708168415
 21
6.031064591579288
 31
0.0
  0
LINE
  5
6B2
330
1F
100
AcDbEntity
  8
SK2
  6
CONTINUOUS
370
25
 62
7
100
AcDbLine
 10
-11.13845842139293
 20
6.5
 30
0.0
 11
-11.02307640356549
 21
6.384617982172557
 31
0.0
  0
TEXT
  5
6B3
330
1F
100
AcDbEntity
  8
SK2
  6
CONTINUOUS
370
25
 62
7
100
AcDbText
 10
-13.5
 20
11.84583333333333
 30
0.0
 40
3.5
  1
3
 50
90.00000000000001
 72
     1
 11
-13.5
 21
13.0125
 31
0.0
100
AcDbText
  0
CIRCLE
  5
6B4
330
1F
100
AcDbEntity
  8
SK2
  6
CONTINUOUS
370
25
 62
7
100
AcDbCircle
 10
-15.25
 20
9.6875
 30
0.0
 40
1.4
  0
LINE
  5
6B5
330
1F
100
AcDbEntity
  8
SK2
  6
CONTINUOUS
370
25
 62
7
100
AcDbLine
 10
-13.85
 20
8.287500000000001
 30
0.0
 11
-16.65
 21
11.0875
 31
0.0
  0
LINE
  5
6B6
330
1F
100
AcDbEntity
  8
SK2
  6
CONTINUOUS
370
25
 62
7
100
AcDbLine
 10
0.0
 20
1.5
 30
0.0
 11
0.0
 21
14.50001
 31
0.0
  0
LINE
  5
6B7
330
1F
100
AcDbEntity
  8
SK2
  6
CONTINUOUS
370
25
 62
7
100
AcDbLine
 10
29.9
 20
14.50001
 30
0.0
 11
29.9
 21
1.5
 31
0.0
  0
LINE
  5
6B8
330
1F
100
AcDbEntity
  8
SK2
  6
CONTINUOUS
370
25
 62
7
100
AcDbLine
 10
0.0
 20
13.50001
 30
0.0
 11
29.9
 21
13.50001
 31
0.0
  0
LINE
  5
6B9
330
1F
100
AcDbEntity
  8
SK2
  6
CONTINUOUS
370
25
 62
7
100
AcDbLine
 10
0.0
 20
13.50001
 30
0.0
 11
5.0
 21
14.50001
 31
0.0
  0
LINE
  5
6BA
330
1F
100
AcDbEntity
  8
SK2
  6
CONTINUOUS
370
25
 62
7
100
AcDbLine
 10
5.0
 20
14.50001
 30
0.0
 11
5.0
 21
12.50001
 31
0.0
  0
LINE
  5
6BB
330
1F
100
AcDbEntity
  8
SK2
  6
CONTINUOUS
370
25
 62
7
100
AcDbLine
 10
5.0
 20
12.50001
 30
0.0
 11
0.0
 21
13.50001
 31
0.0
  0
LINE
  5
6BC
330
1F
100
AcDbEntity
  8
SK2
  6
CONTINUOUS
370
25
 62
7
100
AcDbLine
 10
4.700423237198653
 20
12.55992535256027
 30
0.0
 11
5.0
 21
12.85950211536161
 31
0.0
  0
LINE
  5
6BD
330
1F
100
AcDbEntity
  8
SK2
  6
CONTINUOUS
370
25
 62
7
100
AcDbLine
 10
4.346869846605379
 20
12.63063603067892
 30
0.0
 11
5.0
 21
13.28376618407354
 31
0.0
  0
LINE
  5
6BE
330
1F
100
AcDbEntity
  8
SK2
  6
CONTINUOUS
370
25
 62
7
100
AcDbLine
 10
3.993316456012106
 20
12.70134670879758
 30
0.0
 11
5.0
 21
13.70803025278547
 31
0.0
  0
LINE
  5
6BF
330
1F
100
AcDbEntity
  8
SK2
  6
CONTINUOUS
370
25
 62
7
100
AcDbLine
 10
3.639763065418833
 20
12.77205738691623
 30
0.0
 11
5.0
 21
14.1322943214974
 31
0.0
  0
LINE
  5
6C0
330
1F
100
AcDbEntity
  8
SK2
  6
CONTINUOUS
370
25
 62
7
100
AcDbLine
 10
3.28620967482556
 20
12.84276806503489
 30
0.0
 11
4.929314512238346
 21
14.48587290244767
 31
0.0
  0
LINE
  5
6C1
330
1F
100
AcDbEntity
  8
SK2
  6
CONTINUOUS
370
25
 62
7
100
AcDbLine
 10
2.93265628423228
 20
12.91347874315354
 30
0.0
 11
4.398984426348427
 21
14.37980688526969
 31
0.0
  0
LINE
  5
6C2
330
1F
100
AcDbEntity
  8
SK2
  6
CONTINUOUS
370
25
 62
7
100
AcDbLine
 10
2.579102893639014
 20
12.98418942127219
 30
0.0
 11
3.868654340458527
 21
14.27374086809171
 31
0.0
  0
LINE
  5
6C3
330
1F
100
AcDbEntity
  8
SK2
  6
CONTINUOUS
370
25
 62
7
100
AcDbLine
 10
2.225549503045734
 20
13.05490009939085
 30
0.0
 11
3.338324254568608
 21
14.16767485091372
 31
0.0
  0
LINE
  5
6C4
330
1F
100
AcDbEntity
  8
SK2
  6
CONTINUOUS
370
25
 62
7
100
AcDbLine
 10
1.871996112452468
 20
13.12561077750951
 30
0.0
 11
2.8079941686787
 21
14.06160883373574
 31
0.0
  0
LINE
  5
6C5
330
1F
100
AcDbEntity
  8
SK2
  6
CONTINUOUS
370
25
 62
7
100
AcDbLine
 10
1.518442721859198
 20
13.19632145562816
 30
0.0
 11
2.277664082788792
 21
13.95554281655776
 31
0.0
  0
LINE
  5
6C6
330
1F
100
AcDbEntity
  8
SK2
  6
CONTINUOUS
370
25
 62
7
100
AcDbLine
 10
1.164889331265915
 20
13.26703213374682
 30
0.0
 11
1.747333996898874
 21
13.84947679937978
 31
0.0
  0
LINE
  5
6C7
330
1F
100
AcDbEntity
  8
SK2
  6
CONTINUOUS
370
25
 62
7
100
AcDbLine
 10
0.8113359406726417
 20
13.33774281186547
 30
0.0
 11
1.217003911008966
 21
13.7434107822018
 31
0.0
  0
LINE
  5
6C8
330
1F
100
AcDbEntity
  8
SK2
  6
CONTINUOUS
370
25
 62
7
100
AcDbLine
 10
0.4577825500793686
 20
13.40845348998413
 30
0.0
 11
0.6866738251190476
 21
13.63734476502381
 31
0.0
  0
LINE
  5
6C9
330
1F
100
AcDbEntity
  8
SK2
  6
CONTINUOUS
370
25
 62
7
100
AcDbLine
 10
0.1042291594860885
 20
13.47916416810278
 30
0.0
 11
0.1563437392291291
 21
13.53127874784582
 31
0.0
  0
LINE
  5
6CA
330
1F
100
AcDbEntity
  8
SK2
  6
CONTINUOUS
370
25
 62
7
100
AcDbLine
 10
0.1358889739767832
 20
13.52718779479536
 30
0.0
 11
0.2038334609651749
 21
13.45924330780696
 31
0.0
  0
LINE
  5
6CB
330
1F
100
AcDbEntity
  8
SK2
  6
CONTINUOUS
370
25
 62
7
100
AcDbLine
 10
0.4894423645700563
 20
13.59789847291401
 30
0.0
 11
0.7341635468550898
 21
13.35317729062898
 31
0.0
  0
LINE
  5
6CC
330
1F
100
AcDbEntity
  8
SK2
  6
CONTINUOUS
370
25
 62
7
100
AcDbLine
 10
0.8429957551633329
 20
13.66860915103267
 30
0.0
 11
1.264493632745001
 21
13.247111273451
 31
0.0
  0
LINE
  5
6CD
330
1F
100
AcDbEntity
  8
SK2
  6
CONTINUOUS
370
25
 62
7
100
AcDbLine
 10
1.196549145756606
 20
13.73931982915132
 30
0.0
 11
1.794823718634913
 21
13.14104525627301
 31
0.0
  0
LINE
  5
6CE
330
1F
100
AcDbEntity
  8
SK2
  6
CONTINUOUS
370
25
 62
7
100
AcDbLine
 10
1.550102536349875
 20
13.81003050726998
 30
0.0
 11
2.325153804524824
 21
13.03497923909503
 31
0.0
  0
LINE
  5
6CF
330
1F
100
AcDbEntity
  8
SK2
  6
CONTINUOUS
370
25
 62
7
100
AcDbLine
 10
1.903655926943156
 20
13.88074118538863
 30
0.0
 11
2.855483890414735
 21
12.92891322191705
 31
0.0
  0
LINE
  5
6D0
330
1F
100
AcDbEntity
  8
SK2
  6
CONTINUOUS
370
25
 62
7
100
AcDbLine
 10
2.257209317536425
 20
13.95145186350729
 30
0.0
 11
3.385813976304643
 21
12.82284720473907
 31
0.0
  0
LINE
  5
6D1
330
1F
100
AcDbEntity
  8
SK2
  6
CONTINUOUS
370
25
 62
7
100
AcDbLine
 10
2.610762708129698
 20
14.02216254162594
 30
0.0
 11
3.916144062194551
 21
12.71678118756109
 31
0.0
  0
LINE
  5
6D2
330
1F
100
AcDbEntity
  8
SK2
  6
CONTINUOUS
370
25
 62
7
100
AcDbLine
 10
2.964316098722971
 20
14.0928732197446
 30
0.0
 11
4.446474148084459
 21
12.61071517038311
 31
0.0
  0
LINE
  5
6D3
330
1F
100
AcDbEntity
  8
SK2
  6
CONTINUOUS
370
25
 62
7
100
AcDbLine
 10
3.317869489316244
 20
14.16358389786325
 30
0.0
 11
4.976804233974367
 21
12.50464915320513
 31
0.0
  0
LINE
  5
6D4
330
1F
100
AcDbEntity
  8
SK2
  6
CONTINUOUS
370
25
 62
7
100
AcDbLine
 10
3.671422879909521
 20
14.2342945759819
 30
0.0
 11
5.0
 21
12.90571745589142
 31
0.0
  0
LINE
  5
6D5
330
1F
100
AcDbEntity
  8
SK2
  6
CONTINUOUS
370
25
 62
7
100
AcDbLine
 10
4.02497627050279
 20
14.30500525410056
 30
0.0
 11
5.0
 21
13.32998152460335
 31
0.0
  0
LINE
  5
6D6
330
1F
100
AcDbEntity
  8
SK2
  6
CONTINUOUS
370
25
 62
7
100
AcDbLine
 10
4.378529661096064
 20
14.37571593221922
 30
0.0
 11
5.0
 21
13.75424559331528
 31
0.0
  0
LINE
  5
6D7
330
1F
100
AcDbEntity
  8
SK2
  6
CONTINUOUS
370
25
 62
7
100
AcDbLine
 10
4.732083051689337
 20
14.44642661033787
 30
0.0
 11
5.0
 21
14.17850966202721
 31
0.0
  0
LINE
  5
6D8
330
1F
100
AcDbEntity
  8
SK2
  6
CONTINUOUS
370
25
 62
7
100
AcDbLine
 10
29.9
 20
13.50001
 30
0.0
 11
24.9
 21
12.50001
 31
0.0
  0
LINE
  5
6D9
330
1F
100
AcDbEntity
  8
SK2
  6
CONTINUOUS
370
25
 62
7
100
AcDbLine
 10
24.9
 20
12.50001
 30
0.0
 11
24.9
 21
14.50001
 31
0.0
  0
LINE
  5
6DA
330
1F
100
AcDbEntity
  8
SK2
  6
CONTINUOUS
370
25
 62
7
100
AcDbLine
 10
24.9
 20
14.50001
 30
0.0
 11
29.9
 21
13.50001
 31
0.0
  0
LINE
  5
6DB
330
1F
100
AcDbEntity
  8
SK2
  6
CONTINUOUS
370
25
 62
7
100
AcDbLine
 10
29.80444975152286
 20
13.48089995030457
 30
0.0
 11
29.83629983434857
 21
13.51275003313028
 31
0.0
  0
LINE
  5
6DC
330
1F
100
AcDbEntity
  8
SK2
  6
CONTINUOUS
370
25
 62
7
100
AcDbLine
 10
29.27411966563295
 20
13.37483393312659
 30
0.0
 11
29.4827464437553
 21
13.58346071124894
 31
0.0
  0
LINE
  5
6DD
330
1F
100
AcDbEntity
  8
SK2
  6
CONTINUOUS
370
25
 62
7
100
AcDbLine
 10
28.74378957974304
 20
13.26876791594861
 30
0.0
 11
29.12919305316203
 21
13.65417138936759
 31
0.0
  0
LINE
  5
6DE
330
1F
100
AcDbEntity
  8
SK2
  6
CONTINUOUS
370
25
 62
7
100
AcDbLine
 10
28.21345949385313
 20
13.16270189877063
 30
0.0
 11
28.77563966256875
 21
13.72488206748625
 31
0.0
  0
LINE
  5
6DF
330
1F
100
AcDbEntity
  8
SK2
  6
CONTINUOUS
370
25
 62
7
100
AcDbLine
 10
27.68312940796322
 20
13.05663588159264
 30
0.0
 11
28.42208627197548
 21
13.7955927456049
 31
0.0
  0
LINE
  5
6E0
330
1F
100
AcDbEntity
  8
SK2
  6
CONTINUOUS
370
25
 62
7
100
AcDbLine
 10
27.15279932207331
 20
12.95056986441466
 30
0.0
 11
28.06853288138221
 21
13.86630342372356
 31
0.0
  0
LINE
  5
6E1
330
1F
100
AcDbEntity
  8
SK2
  6
CONTINUOUS
370
25
 62
7
100
AcDbLine
 10
26.6224692361834
 20
12.84450384723668
 30
0.0
 11
27.71497949078893
 21
13.93701410184221
 31
0.0
  0
LINE
  5
6E2
330
1F
100
AcDbEntity
  8
SK2
  6
CONTINUOUS
370
25
 62
7
100
AcDbLine
 10
26.09213915029349
 20
12.7384378300587
 30
0.0
 11
27.36142610019566
 21
14.00772477996087
 31
0.0
  0
LINE
  5
6E3
330
1F
100
AcDbEntity
  8
SK2
  6
CONTINUOUS
370
25
 62
7
100
AcDbLine
 10
25.56180906440358
 20
12.63237181288072
 30
0.0
 11
27.00787270960239
 21
14.07843545807952
 31
0.0
  0
LINE
  5
6E4
330
1F
100
AcDbEntity
  8
SK2
  6
CONTINUOUS
370
25
 62
7
100
AcDbLine
 10
25.03147897851367
 20
12.52630579570273
 30
0.0
 11
26.65431931900911
 21
14.14914613619818
 31
0.0
  0
LINE
  5
6E5
330
1F
100
AcDbEntity
  8
SK2
  6
CONTINUOUS
370
25
 62
7
100
AcDbLine
 10
24.9
 20
12.81909088590099
 30
0.0
 11
26.30076592841584
 21
14.21985681431683
 31
0.0
  0
LINE
  5
6E6
330
1F
100
AcDbEntity
  8
SK2
  6
CONTINUOUS
370
25
 62
7
100
AcDbLine
 10
24.9
 20
13.24335495461292
 30
0.0
 11
25.94721253782257
 21
14.29056749243549
 31
0.0
  0
LINE
  5
6E7
330
1F
100
AcDbEntity
  8
SK2
  6
CONTINUOUS
370
25
 62
7
100
AcDbLine
 10
24.9
 20
13.66761902332484
 30
0.0
 11
25.5936591472293
 21
14.36127817055414
 31
0.0
  0
LINE
  5
6E8
330
1F
100
AcDbEntity
  8
SK2
  6
CONTINUOUS
370
25
 62
7
100
AcDbLine
 10
24.9
 20
14.09188309203677
 30
0.0
 11
25.24010575663602
 21
14.43198884867279
 31
0.0
  0
LINE
  5
6E9
330
1F
100
AcDbEntity
  8
SK2
  6
CONTINUOUS
370
25
 62
7
100
AcDbLine
 10
24.9
 20
12.63675323681471
 30
0.0
 11
25.01395269734559
 21
12.52280053946912
 31
0.0
  0
LINE
  5
6EA
330
1F
100
AcDbEntity
  8
SK2
  6
CONTINUOUS
370
25
 62
7
100
AcDbLine
 10
24.9
 20
13.06101730552664
 30
0.0
 11
25.36750608793887
 21
12.59351121758777
 31
0.0
  0
LINE
  5
6EB
330
1F
100
AcDbEntity
  8
SK2
  6
CONTINUOUS
370
25
 62
7
100
AcDbLine
 10
24.9
 20
13.48528137423857
 30
0.0
 11
25.72105947853214
 21
12.66422189570643
 31
0.0
  0
LINE
  5
6EC
330
1F
100
AcDbEntity
  8
SK2
  6
CONTINUOUS
370
25
 62
7
100
AcDbLine
 10
24.9
 20
13.9095454429505
 30
0.0
 11
26.07461286912541
 21
12.73493257382508
 31
0.0
  0
LINE
  5
6ED
330
1F
100
AcDbEntity
  8
SK2
  6
CONTINUOUS
370
25
 62
7
100
AcDbLine
 10
24.9
 20
14.33380951166242
 30
0.0
 11
26.42816625971869
 21
12.80564325194374
 31
0.0
  0
LINE
  5
6EE
330
1F
100
AcDbEntity
  8
SK2
  6
CONTINUOUS
370
25
 62
7
100
AcDbLine
 10
25.22257947546793
 20
14.43549410490641
 30
0.0
 11
26.78171965031196
 21
12.87635393006239
 31
0.0
  0
LINE
  5
6EF
330
1F
100
AcDbEntity
  8
SK2
  6
CONTINUOUS
370
25
 62
7
100
AcDbLine
 10
25.75290956135785
 20
14.32942808772843
 30
0.0
 11
27.13527304090523
 21
12.94706460818105
 31
0.0
  0
LINE
  5
6F0
330
1F
100
AcDbEntity
  8
SK2
  6
CONTINUOUS
370
25
 62
7
100
AcDbLine
 10
26.28323964724775
 20
14.22336207055045
 30
0.0
 11
27.48882643149851
 21
13.0177752862997
 31
0.0
  0
LINE
  5
6F1
330
1F
100
AcDbEntity
  8
SK2
  6
CONTINUOUS
370
25
 62
7
100
AcDbLine
 10
26.81356973313767
 20
14.11729605337247
 30
0.0
 11
27.84237982209178
 21
13.08848596441836
 31
0.0
  0
LINE
  5
6F2
330
1F
100
AcDbEntity
  8
SK2
  6
CONTINUOUS
370
25
 62
7
100
AcDbLine
 10
27.34389981902758
 20
14.01123003619448
 30
0.0
 11
28.19593321268506
 21
13.15919664253701
 31
0.0
  0
LINE
  5
6F3
330
1F
100
AcDbEntity
  8
SK2
  6
CONTINUOUS
370
25
 62
7
100
AcDbLine
 10
27.87422990491749
 20
13.9051640190165
 30
0.0
 11
28.54948660327833
 21
13.22990732065567
 31
0.0
  0
LINE
  5
6F4
330
1F
100
AcDbEntity
  8
SK2
  6
CONTINUOUS
370
25
 62
7
100
AcDbLine
 10
28.4045599908074
 20
13.79909800183852
 30
0.0
 11
28.9030399938716
 21
13.30061799877432
 31
0.0
  0
LINE
  5
6F5
330
1F
100
AcDbEntity
  8
SK2
  6
CONTINUOUS
370
25
 62
7
100
AcDbLine
 10
28.93489007669731
 20
13.69303198466054
 30
0.0
 11
29.25659338446487
 21
13.37132867689298
 31
0.0
  0
LINE
  5
6F6
330
1F
100
AcDbEntity
  8
SK2
  6
CONTINUOUS
370
25
 62
7
100
AcDbLine
 10
29.46522016258722
 20
13.58696596748256
 30
0.0
 11
29.61014677505815
 21
13.44203935501163
 31
0.0
  0
TEXT
  5
6F7
330
1F
100
AcDbEntity
  8
SK2
  6
CONTINUOUS
370
25
 62
7
100
AcDbText
 10
9.7
 20
15.00001
 30
0.0
 40
3.5
  1
29.9
 72
     1
 11
14.95
 21
15.00001
 31
0.0
100
AcDbText
  0
LINE
  5
6F8
330
1F
100
AcDbEntity
  8
2
  6
CONTINUOUS
370
25
 62
7
100
AcDbLine
 10
47.37048466
 20
-1.35
 30
0.0
 11
81.0
 21
-1.350000000000004
 31
0.0
  0
LINE
  5
6F9
330
1F
100
AcDbEntity
  8
2
  6
CONTINUOUS
370
25
 62
7
100
AcDbLine
 10
81.0
 20
1.349999999999996
 30
0.0
 11
47.37048466
 21
1.35
 31
0.0
  0
LINE
  5
6FA
330
1F
100
AcDbEntity
  8
2
  6
CONTINUOUS
370
25
 62
7
100
AcDbLine
 10
80.0
 20
-8.350000000000005
 30
0.0
 11
80.0
 21
20.775
 31
0.0
  0
LINE
  5
6FB
330
1F
100
AcDbEntity
  8
2
  6
CONTINUOUS
370
25
 62
7
100
AcDbLine
 10
80.0
 20
-1.350000000000004
 30
0.0
 11
81.0
 21
-6.350000000000004
 31
0.0
  0
LINE
  5
6FC
330
1F
100
AcDbEntity
  8
2
  6
CONTINUOUS
370
25
 62
7
100
AcDbLine
 10
81.0
 20
-6.350000000000004
 30
0.0
 11
79.0
 21
-6.350000000000004
 31
0.0
  0
LINE
  5
6FD
330
1F
100
AcDbEntity
  8
2
  6
CONTINUOUS
370
25
 62
7
100
AcDbLine
 10
79.0
 20
-6.350000000000004
 30
0.0
 11
80.0
 21
-1.350000000000004
 31
0.0
  0
LINE
  5
6FE
330
1F
100
AcDbEntity
  8
2
  6
CONTINUOUS
370
25
 62
7
100
AcDbLine
 10
80.85464890973059
 20
-6.350000000000001
 30
0.0
 11
80.97577481828843
 21
-6.228874091442158
 31
0.0
  0
LINE
  5
6FF
330
1F
100
AcDbEntity
  8
2
  6
CONTINUOUS
370
25
 62
7
100
AcDbLine
 10
80.43038484101865
 20
-6.350000000000001
 30
0.0
 11
80.90506414016977
 21
-5.875320700848889
 31
0.0
  0
LINE
  5
700
330
1F
100
AcDbEntity
  8
2
  6
CONTINUOUS
370
25
 62
7
100
AcDbLine
 10
80.00612077230673
 20
-6.350000000000001
 30
0.0
 11
80.83435346205113
 21
-5.521767310255612
 31
0.0
  0
LINE
  5
701
330
1F
100
AcDbEntity
  8
2
  6
CONTINUOUS
370
25
 62
7
100
AcDbLine
 10
79.58185670359481
 20
-6.350000000000001
 30
0.0
 11
80.76364278393247
 21
-5.168213919662335
 31
0.0
  0
LINE
  5
702
330
1F
100
AcDbEntity
  8
2
  6
CONTINUOUS
370
25
 62
7
100
AcDbLine
 10
79.15759263488286
 20
-6.350000000000001
 30
0.0
 11
80.69293210581381
 21
-4.814660529069059
 31
0.0
  0
LINE
  5
703
330
1F
100
AcDbEntity
  8
2
  6
CONTINUOUS
370
25
 62
7
100
AcDbLine
 10
79.06666785845727
 20
-6.016660707713676
 30
0.0
 11
80.62222142769517
 21
-4.461107138475775
 31
0.0
  0
LINE
  5
704
330
1F
100
AcDbEntity
  8
2
  6
CONTINUOUS
370
25
 62
7
100
AcDbLine
 10
79.17273387563525
 20
-5.486330621823754
 30
0.0
 11
80.5515107495765
 21
-4.107553747882513
 31
0.0
  0
LINE
  5
705
330
1F
100
AcDbEntity
  8
2
  6
CONTINUOUS
370
25
 62
7
100
AcDbLine
 10
79.27879989281323
 20
-4.956000535933832
 30
0.0
 11
80.48080007145784
 21
-3.754000357289229
 31
0.0
  0
LINE
  5
706
330
1F
100
AcDbEntity
  8
2
  6
CONTINUOUS
370
25
 62
7
100
AcDbLine
 10
79.38486590999122
 20
-4.425670450043924
 30
0.0
 11
80.41008939333918
 21
-3.400446966695952
 31
0.0
  0
LINE
  5
707
330
1F
100
AcDbEntity
  8
2
  6
CONTINUOUS
370
25
 62
7
100
AcDbLine
 10
79.49093192716919
 20
-3.895340364154016
 30
0.0
 11
80.33937871522053
 21
-3.046893576102683
 31
0.0
  0
LINE
  5
708
330
1F
100
AcDbEntity
  8
2
  6
CONTINUOUS
370
25
 62
7
100
AcDbLine
 10
79.59699794434718
 20
-3.365010278264101
 30
0.0
 11
80.26866803710188
 21
-2.693340185509399
 31
0.0
  0
LINE
  5
709
330
1F
100
AcDbEntity
  8
2
  6
CONTINUOUS
370
25
 62
7
100
AcDbLine
 10
79.70306396152516
 20
-2.834680192374179
 30
0.0
 11
80.19795735898322
 21
-2.33978679491613
 31
0.0
  0
LINE
  5
70A
330
1F
100
AcDbEntity
  8
2
  6
CONTINUOUS
370
25
 62
7
100
AcDbLine
 10
79.80912997870314
 20
-2.304350106484272
 30
0.0
 11
80.12724668086456
 21
-1.986233404322853
 31
0.0
  0
LINE
  5
70B
330
1F
100
AcDbEntity
  8
2
  6
CONTINUOUS
370
25
 62
7
100
AcDbLine
 10
79.91519599588113
 20
-1.774020020594357
 30
0.0
 11
80.0565360027459
 21
-1.632680013729576
 31
0.0
  0
LINE
  5
70C
330
1F
100
AcDbEntity
  8
2
  6
CONTINUOUS
370
25
 62
7
100
AcDbLine
 10
79.01677848998412
 20
-6.266107550079369
 30
0.0
 11
79.10067093990475
 21
-6.350000000000001
 31
0.0
  0
LINE
  5
70D
330
1F
100
AcDbEntity
  8
2
  6
CONTINUOUS
370
25
 62
7
100
AcDbLine
 10
79.08748916810276
 20
-5.912554159486085
 30
0.0
 11
79.5249350086167
 21
-6.350000000000001
 31
0.0
  0
LINE
  5
70E
330
1F
100
AcDbEntity
  8
2
  6
CONTINUOUS
370
25
 62
7
100
AcDbLine
 10
79.15819984622142
 20
-5.559000768892808
 30
0.0
 11
79.94919907732861
 21
-6.350000000000001
 31
0.0
  0
LINE
  5
70F
330
1F
100
AcDbEntity
  8
2
  6
CONTINUOUS
370
25
 62
7
100
AcDbLine
 10
79.22891052434008
 20
-5.205447378299539
 30
0.0
 11
80.37346314604056
 21
-6.350000000000001
 31
0.0
  0
LINE
  5
710
330
1F
100
AcDbEntity
  8
2
  6
CONTINUOUS
370
25
 62
7
100
AcDbLine
 10
79.29962120245874
 20
-4.851893987706262
 30
0.0
 11
80.79772721475248
 21
-6.350000000000001
 31
0.0
  0
LINE
  5
711
330
1F
100
AcDbEntity
  8
2
  6
CONTINUOUS
370
25
 62
7
100
AcDbLine
 10
79.3703318805774
 20
-4.498340597112986
 30
0.0
 11
80.94450217913389
 21
-6.072510895669481
 31
0.0
  0
LINE
  5
712
330
1F
100
AcDbEntity
  8
2
  6
CONTINUOUS
370
25
 62
7
100
AcDbLine
 10
79.44104255869605
 20
-4.144787206519709
 30
0.0
 11
80.83843616195591
 21
-5.542180809779559
 31
0.0
  0
LINE
  5
713
330
1F
100
AcDbEntity
  8
2
  6
CONTINUOUS
370
25
 62
7
100
AcDbLine
 10
79.51175323681471
 20
-3.791233815926439
 30
0.0
 11
80.73237014477792
 21
-5.011850723889651
 31
0.0
  0
LINE
  5
714
330
1F
100
AcDbEntity
  8
2
  6
CONTINUOUS
370
25
 62
7
100
AcDbLine
 10
79.58246391493336
 20
-3.437680425333163
 30
0.0
 11
80.62630412759994
 21
-4.481520637999729
 31
0.0
  0
LINE
  5
715
330
1F
100
AcDbEntity
  8
2
  6
CONTINUOUS
370
25
 62
7
100
AcDbLine
 10
79.65317459305201
 20
-3.084127034739886
 30
0.0
 11
80.52023811042196
 21
-3.951190552109829
 31
0.0
  0
LINE
  5
716
330
1F
100
AcDbEntity
  8
2
  6
CONTINUOUS
370
25
 62
7
100
AcDbLine
 10
79.72388527117067
 20
-2.73057364414661
 30
0.0
 11
80.41417209324396
 21
-3.420860466219906
 31
0.0
  0
LINE
  5
717
330
1F
100
AcDbEntity
  8
2
  6
CONTINUOUS
370
25
 62
7
100
AcDbLine
 10
79.79459594928933
 20
-2.37702025355334
 30
0.0
 11
80.308106076066
 21
-2.890530380329999
 31
0.0
  0
LINE
  5
718
330
1F
100
AcDbEntity
  8
2
  6
CONTINUOUS
370
25
 62
7
100
AcDbLine
 10
79.86530662740799
 20
-2.023466862960063
 30
0.0
 11
80.202040058888
 21
-2.360200294440077
 31
0.0
  0
LINE
  5
719
330
1F
100
AcDbEntity
  8
2
  6
CONTINUOUS
370
25
 62
7
100
AcDbLine
 10
79.93601730552663
 20
-1.66991347236678
 30
0.0
 11
80.09597404171002
 21
-1.829870208550162
 31
0.0
  0
LINE
  5
71A
330
1F
100
AcDbEntity
  8
2
  6
CONTINUOUS
370
25
 62
7
100
AcDbLine
 10
80.0
 20
1.349999999999996
 30
0.0
 11
79.0
 21
6.349999999999996
 31
0.0
  0
LINE
  5
71B
330
1F
100
AcDbEntity
  8
2
  6
CONTINUOUS
370
25
 62
7
100
AcDbLine
 10
79.0
 20
6.349999999999996
 30
0.0
 11
81.0
 21
6.349999999999996
 31
0.0
  0
LINE
  5
71C
330
1F
100
AcDbEntity
  8
2
  6
CONTINUOUS
370
25
 62
7
100
AcDbLine
 10
81.0
 20
6.349999999999996
 30
0.0
 11
80.0
 21
1.349999999999996
 31
0.0
  0
LINE
  5
71D
330
1F
100
AcDbEntity
  8
2
  6
CONTINUOUS
370
25
 62
7
100
AcDbLine
 10
79.99047900152024
 20
1.397604992398797
 30
0.0
 11
80.01428149771964
 21
1.421407488598199
 31
0.0
  0
LINE
  5
71E
330
1F
100
AcDbEntity
  8
2
  6
CONTINUOUS
370
25
 62
7
100
AcDbLine
 10
79.91976832340157
 20
1.751158382992067
 30
0.0
 11
80.12034751489762
 21
1.951737574488121
 31
0.0
  0
LINE
  5
71F
330
1F
100
AcDbEntity
  8
2
  6
CONTINUOUS
370
25
 62
7
100
AcDbLine
 10
79.84905764528293
 20
2.10471177358535
 30
0.0
 11
80.22641353207561
 21
2.482067660378036
 31
0.0
  0
LINE
  5
720
330
1F
100
AcDbEntity
  8
2
  6
CONTINUOUS
370
25
 62
7
100
AcDbLine
 10
79.77834696716427
 20
2.458265164178634
 30
0.0
 11
80.33247954925358
 21
3.012397746267951
 31
0.0
  0
LINE
  5
721
330
1F
100
AcDbEntity
  8
2
  6
CONTINUOUS
370
25
 62
7
100
AcDbLine
 10
79.70763628904561
 20
2.811818554771904
 30
0.0
 11
80.43854556643157
 21
3.542727832157873
 31
0.0
  0
LINE
  5
722
330
1F
100
AcDbEntity
  8
2
  6
CONTINUOUS
370
25
 62
7
100
AcDbLine
 10
79.63692561092695
 20
3.16537194536518
 30
0.0
 11
80.54461158360955
 21
4.07305791804778
 31
0.0
  0
LINE
  5
723
330
1F
100
AcDbEntity
  8
2
  6
CONTINUOUS
370
25
 62
7
100
AcDbLine
 10
79.5662149328083
 20
3.518925335958457
 30
0.0
 11
80.65067760078753
 21
4.603388003937702
 31
0.0
  0
LINE
  5
724
330
1F
100
AcDbEntity
  8
2
  6
CONTINUOUS
370
25
 62
7
100
AcDbLine
 10
79.49550425468965
 20
3.872478726551734
 30
0.0
 11
80.75674361796553
 21
5.13371808982761
 31
0.0
  0
LINE
  5
725
330
1F
100
AcDbEntity
  8
2
  6
CONTINUOUS
370
25
 62
7
100
AcDbLine
 10
79.424793576571
 20
4.226032117145024
 30
0.0
 11
80.86280963514349
 21
5.664048175717518
 31
0.0
  0
LINE
  5
726
330
1F
100
AcDbEntity
  8
2
  6
CONTINUOUS
370
25
 62
7
100
AcDbLine
 10
79.35408289845233
 20
4.57958550773828
 30
0.0
 11
80.96887565232147
 21
6.194378261607419
 31
0.0
  0
LINE
  5
727
330
1F
100
AcDbEntity
  8
2
  6
CONTINUOUS
370
25
 62
7
100
AcDbLine
 10
79.28337222033369
 20
4.933138898331563
 30
0.0
 11
80.7002333220021
 21
6.349999999999994
 31
0.0
  0
LINE
  5
728
330
1F
100
AcDbEntity
  8
2
  6
CONTINUOUS
370
25
 62
7
100
AcDbLine
 10
79.21266154221502
 20
5.28669228892484
 30
0.0
 11
80.27596925329019
 21
6.349999999999994
 31
0.0
  0
LINE
  5
729
330
1F
100
AcDbEntity
  8
2
  6
CONTINUOUS
370
25
 62
7
100
AcDbLine
 10
79.14195086409637
 20
5.640245679518124
 30
0.0
 11
79.85170518457824
 21
6.349999999999994
 31
0.0
  0
LINE
  5
72A
330
1F
100
AcDbEntity
  8
2
  6
CONTINUOUS
370
25
 62
7
100
AcDbLine
 10
79.0712401859777
 20
5.993799070111393
 30
0.0
 11
79.42744111586632
 21
6.349999999999994
 31
0.0
  0
LINE
  5
72B
330
1F
100
AcDbEntity
  8
2
  6
CONTINUOUS
370
25
 62
7
100
AcDbLine
 10
79.00052950785906
 20
6.34735246070467
 30
0.0
 11
79.00317704715438
 21
6.349999999999994
 31
0.0
  0
LINE
  5
72C
330
1F
100
AcDbEntity
  8
2
  6
CONTINUOUS
370
25
 62
7
100
AcDbLine
 10
79.92244590428618
 20
1.73777047856909
 30
0.0
 11
80.05170273047588
 21
1.608513652379386
 31
0.0
  0
LINE
  5
72D
330
1F
100
AcDbEntity
  8
2
  6
CONTINUOUS
370
25
 62
7
100
AcDbLine
 10
79.81637988710818
 20
2.268100564458997
 30
0.0
 11
80.12241340859453
 21
1.962067042972663
 31
0.0
  0
LINE
  5
72E
330
1F
100
AcDbEntity
  8
2
  6
CONTINUOUS
370
25
 62
7
100
AcDbLine
 10
79.7103138699302
 20
2.798430650348919
 30
0.0
 11
80.19312408671317
 21
2.315620433565954
 31
0.0
  0
LINE
  5
72F
330
1F
100
AcDbEntity
  8
2
  6
CONTINUOUS
370
25
 62
7
100
AcDbLine
 10
79.60424785275222
 20
3.328760736238841
 30
0.0
 11
80.26383476483184
 21
2.669173824159223
 31
0.0
  0
LINE
  5
730
330
1F
100
AcDbEntity
  8
2
  6
CONTINUOUS
370
25
 62
7
100
AcDbLine
 10
79.49818183557423
 20
3.859090822128749
 30
0.0
 11
80.33454544295049
 21
3.0227272147525
 31
0.0
  0
LINE
  5
731
330
1F
100
AcDbEntity
  8
2
  6
CONTINUOUS
370
25
 62
7
100
AcDbLine
 10
79.39211581839626
 20
4.389420908018657
 30
0.0
 11
80.40525612106916
 21
3.376280605345769
 31
0.0
  0
LINE
  5
732
330
1F
100
AcDbEntity
  8
2
  6
CONTINUOUS
370
25
 62
7
100
AcDbLine
 10
79.28604980121827
 20
4.919750993908579
 30
0.0
 11
80.4759667991878
 21
3.729833995939053
 31
0.0
  0
LINE
  5
733
330
1F
100
AcDbEntity
  8
2
  6
CONTINUOUS
370
25
 62
7
100
AcDbLine
 10
79.1799837840403
 20
5.450081079798487
 30
0.0
 11
80.54667747730645
 21
4.08338738653233
 31
0.0
  0
LINE
  5
734
330
1F
100
AcDbEntity
  8
2
  6
CONTINUOUS
370
25
 62
7
100
AcDbLine
 10
79.07391776686231
 20
5.980411165688409
 30
0.0
 11
80.61738815542512
 21
4.436940777125599
 31
0.0
  0
LINE
  5
735
330
1F
100
AcDbEntity
  8
2
  6
CONTINUOUS
370
25
 62
7
100
AcDbLine
 10
79.12859300126266
 20
6.349999999999994
 30
0.0
 11
80.68809883354376
 21
4.790494167718883
 31
0.0
  0
LINE
  5
736
330
1F
100
AcDbEntity
  8
2
  6
CONTINUOUS
370
25
 62
7
100
AcDbLine
 10
79.55285706997458
 20
6.349999999999994
 30
0.0
 11
80.75880951166243
 21
5.144047558312153
 31
0.0
  0
LINE
  5
737
330
1F
100
AcDbEntity
  8
2
  6
CONTINUOUS
370
25
 62
7
100
AcDbLine
 10
79.97712113868653
 20
6.349999999999994
 30
0.0
 11
80.82952018978108
 21
5.497600948905436
 31
0.0
  0
LINE
  5
738
330
1F
100
AcDbEntity
  8
2
  6
CONTINUOUS
370
25
 62
7
100
AcDbLine
 10
80.40138520739845
 20
6.349999999999994
 30
0.0
 11
80.90023086789972
 21
5.851154339498713
 31
0.0
  0
LINE
  5
739
330
1F
100
AcDbEntity
  8
2
  6
CONTINUOUS
370
25
 62
7
100
AcDbLine
 10
80.82564927611037
 20
6.349999999999994
 30
0.0
 11
80.9709415460184
 21
6.204707730091975
 31
0.0
  0
TEXT
  5
73A
330
1F
100
AcDbEntity
  8
2
  6
CONTINUOUS
370
25
 62
7
100
AcDbText
 10
78.5
 20
12.33749999999999
 30
0.0
 40
3.5
  1
2.7
 50
90.00000000000001
 72
     1
 11
78.5
 21
15.83749999999999
 31
0.0
100
AcDbText
  0
CIRCLE
  5
73B
330
1F
100
AcDbEntity
  8
2
  6
CONTINUOUS
370
25
 62
7
100
AcDbCircle
 10
76.75
 20
9.362499999999992
 30
0.0
 40
1.4
  0
LINE
  5
73C
330
1F
100
AcDbEntity
  8
2
  6
CONTINUOUS
370
25
 62
7
100
AcDbLine
 10
78.14999999999999
 20
7.962499999999992
 30
0.0
 11
75.35
 21
10.76249999999999
 31
0.0
  0
LINE
  5
73D
330
1F
100
AcDbEntity
  8
2
  6
CONTINUOUS
370
25
 62
7
100
AcDbLine
 10
29.9
 20
1.5
 30
0.0
 11
29.9
 21
24.5
 31
0.0
  0
LINE
  5
73E
330
1F
100
AcDbEntity
  8
2
  6
CONTINUOUS
370
25
 62
7
100
AcDbLine
 10
48.0
 20
24.5
 30
0.0
 11
48.0
 21
0.0
 31
0.0
  0
LINE
  5
73F
330
1F
100
AcDbEntity
  8
2
  6
CONTINUOUS
370
25
 62
7
100
AcDbLine
 10
22.9
 20
23.5
 30
0.0
 11
55.0
 21
23.5
 31
0.0
  0
LINE
  5
740
330
1F
100
AcDbEntity
  8
2
  6
CONTINUOUS
370
25
 62
7
100
AcDbLine
 10
29.9
 20
23.5
 30
0.0
 11
24.9
 21
22.5
 31
0.0
  0
LINE
  5
741
330
1F
100
AcDbEntity
  8
2
  6
CONTINUOUS
370
25
 62
7
100
AcDbLine
 10
24.9
 20
22.5
 30
0.0
 11
24.9
 21
24.5
 31
0.0
  0
LINE
  5
742
330
1F
100
AcDbEntity
  8
2
  6
CONTINUOUS
370
25
 62
7
100
AcDbLine
 10
24.9
 20
24.5
 30
0.0
 11
29.9
 21
23.5
 31
0.0
  0
LINE
  5
743
330
1F
100
AcDbEntity
  8
2
  6
CONTINUOUS
370
25
 62
7
100
AcDbLine
 10
29.57651519016504
 20
23.43530303803301
 30
0.0
 11
29.68434346011002
 21
23.54313130797799
 31
0.0
  0
LINE
  5
744
330
1F
100
AcDbEntity
  8
2
  6
CONTINUOUS
370
25
 62
7
100
AcDbLine
 10
29.04618510427512
 20
23.32923702085503
 30
0.0
 11
29.33079006951675
 21
23.61384198609665
 31
0.0
  0
LINE
  5
745
330
1F
100
AcDbEntity
  8
2
  6
CONTINUOUS
370
25
 62
7
100
AcDbLine
 10
28.51585501838522
 20
23.22317100367705
 30
0.0
 11
28.97723667892348
 21
23.6845526642153
 31
0.0
  0
LINE
  5
746
330
1F
100
AcDbEntity
  8
2
  6
CONTINUOUS
370
25
 62
7
100
AcDbLine
 10
27.98552493249531
 20
23.11710498649906
 30
0.0
 11
28.6236832883302
 21
23.75526334233396
 31
0.0
  0
LINE
  5
747
330
1F
100
AcDbEntity
  8
2
  6
CONTINUOUS
370
25
 62
7
100
AcDbLine
 10
27.4551948466054
 20
23.01103896932108
 30
0.0
 11
28.27012989773693
 21
23.82597402045261
 31
0.0
  0
LINE
  5
748
330
1F
100
AcDbEntity
  8
2
  6
CONTINUOUS
370
25
 62
7
100
AcDbLine
 10
26.92486476071549
 20
22.9049729521431
 30
0.0
 11
27.91657650714366
 21
23.89668469857127
 31
0.0
  0
LINE
  5
749
330
1F
100
AcDbEntity
  8
2
  6
CONTINUOUS
370
25
 62
7
100
AcDbLine
 10
26.39453467482558
 20
22.79890693496512
 30
0.0
 11
27.56302311655038
 21
23.96739537668992
 31
0.0
  0
LINE
  5
74A
330
1F
100
AcDbEntity
  8
2
  6
CONTINUOUS
370
25
 62
7
100
AcDbLine
 10
25.86420458893567
 20
22.69284091778713
 30
0.0
 11
27.20946972595711
 21
24.03810605480858
 31
0.0
  0
LINE
  5
74B
330
1F
100
AcDbEntity
  8
2
  6
CONTINUOUS
370
25
 62
7
100
AcDbLine
 10
25.33387450304576
 20
22.58677490060915
 30
0.0
 11
26.85591633536384
 21
24.10881673292723
 31
0.0
  0
LINE
  5
74C
330
1F
100
AcDbEntity
  8
2
  6
CONTINUOUS
370
25
 62
7
100
AcDbLine
 10
24.9
 20
22.57716446627532
 30
0.0
 11
26.50236294477056
 21
24.17952741104589
 31
0.0
  0
LINE
  5
74D
330
1F
100
AcDbEntity
  8
2
  6
CONTINUOUS
370
25
 62
7
100
AcDbLine
 10
24.9
 20
23.00142853498725
 30
0.0
 11
26.14880955417729
 21
24.25023808916454
 31
0.0
  0
LINE
  5
74E
330
1F
100
AcDbEntity
  8
2
  6
CONTINUOUS
370
25
 62
7
100
AcDbLine
 10
24.9
 20
23.42569260369918
 30
0.0
 11
25.79525616358402
 21
24.32094876728319
 31
0.0
  0
LINE
  5
74F
330
1F
100
AcDbEntity
  8
2
  6
CONTINUOUS
370
25
 62
7
100
AcDbLine
 10
24.9
 20
23.8499566724111
 30
0.0
 11
25.44170277299074
 21
24.39165944540185
 31
0.0
  0
LINE
  5
750
330
1F
100
AcDbEntity
  8
2
  6
CONTINUOUS
370
25
 62
7
100
AcDbLine
 10
24.9
 20
24.27422074112303
 30
0.0
 11
25.08814938239747
 21
24.4623701235205
 31
0.0
  0
LINE
  5
751
330
1F
100
AcDbEntity
  8
2
  6
CONTINUOUS
370
25
 62
7
100
AcDbLine
 10
24.9
 20
22.81909088590096
 30
0.0
 11
25.16590907158413
 21
22.55318181431683
 31
0.0
  0
LINE
  5
752
330
1F
100
AcDbEntity
  8
2
  6
CONTINUOUS
370
25
 62
7
100
AcDbLine
 10
24.9
 20
23.24335495461289
 30
0.0
 11
25.5194624621774
 21
22.62389249243548
 31
0.0
  0
LINE
  5
753
330
1F
100
AcDbEntity
  8
2
  6
CONTINUOUS
370
25
 62
7
100
AcDbLine
 10
24.9
 20
23.66761902332481
 30
0.0
 11
25.87301585277068
 21
22.69460317055414
 31
0.0
  0
LINE
  5
754
330
1F
100
AcDbEntity
  8
2
  6
CONTINUOUS
370
25
 62
7
100
AcDbLine
 10
24.9
 20
24.09188309203674
 30
0.0
 11
26.22656924336395
 21
22.76531384867279
 31
0.0
  0
LINE
  5
755
330
1F
100
AcDbEntity
  8
2
  6
CONTINUOUS
370
25
 62
7
100
AcDbLine
 10
24.92018395093584
 20
24.49596320981283
 30
0.0
 11
26.58012263395723
 21
22.83602452679145
 31
0.0
  0
LINE
  5
756
330
1F
100
AcDbEntity
  8
2
  6
CONTINUOUS
370
25
 62
7
100
AcDbLine
 10
25.45051403682574
 20
24.38989719263485
 30
0.0
 11
26.9336760245505
 21
22.9067352049101
 31
0.0
  0
LINE
  5
757
330
1F
100
AcDbEntity
  8
2
  6
CONTINUOUS
370
25
 62
7
100
AcDbLine
 10
25.98084412271566
 20
24.28383117545687
 30
0.0
 11
27.28722941514377
 21
22.97744588302875
 31
0.0
  0
LINE
  5
758
330
1F
100
AcDbEntity
  8
2
  6
CONTINUOUS
370
25
 62
7
100
AcDbLine
 10
26.51117420860557
 20
24.17776515827889
 30
0.0
 11
27.64078280573705
 21
23.04815656114741
 31
0.0
  0
LINE
  5
759
330
1F
100
AcDbEntity
  8
2
  6
CONTINUOUS
370
25
 62
7
100
AcDbLine
 10
27.04150429449547
 20
24.0716991411009
 30
0.0
 11
27.99433619633032
 21
23.11886723926606
 31
0.0
  0
LINE
  5
75A
330
1F
100
AcDbEntity
  8
2
  6
CONTINUOUS
370
25
 62
7
100
AcDbLine
 10
27.57183438038539
 20
23.96563312392292
 30
0.0
 11
28.34788958692359
 21
23.18957791738472
 31
0.0
  0
LINE
  5
75B
330
1F
100
AcDbEntity
  8
2
  6
CONTINUOUS
370
25
 62
7
100
AcDbLine
 10
28.1021644662753
 20
23.85956710674494
 30
0.0
 11
28.70144297751687
 21
23.26028859550337
 31
0.0
  0
LINE
  5
75C
330
1F
100
AcDbEntity
  8
2
  6
CONTINUOUS
370
25
 62
7
100
AcDbLine
 10
28.63249455216521
 20
23.75350108956696
 30
0.0
 11
29.05499636811014
 21
23.33099927362203
 31
0.0
  0
LINE
  5
75D
330
1F
100
AcDbEntity
  8
2
  6
CONTINUOUS
370
25
 62
7
100
AcDbLine
 10
29.16282463805512
 20
23.64743507238898
 30
0.0
 11
29.40854975870341
 21
23.40170995174068
 31
0.0
  0
LINE
  5
75E
330
1F
100
AcDbEntity
  8
2
  6
CONTINUOUS
370
25
 62
7
100
AcDbLine
 10
29.69315472394503
 20
23.54136905521099
 30
0.0
 11
29.76210314929668
 21
23.47242062985934
 31
0.0
  0
LINE
  5
75F
330
1F
100
AcDbEntity
  8
2
  6
CONTINUOUS
370
25
 62
7
100
AcDbLine
 10
48.0
 20
23.5
 30
0.0
 11
53.0
 21
24.5
 31
0.0
  0
LINE
  5
760
330
1F
100
AcDbEntity
  8
2
  6
CONTINUOUS
370
25
 62
7
100
AcDbLine
 10
53.0
 20
24.5
 30
0.0
 11
53.0
 21
22.5
 31
0.0
  0
LINE
  5
761
330
1F
100
AcDbEntity
  8
2
  6
CONTINUOUS
370
25
 62
7
100
AcDbLine
 10
53.0
 20
22.5
 30
0.0
 11
48.0
 21
23.5
 31
0.0
  0
LINE
  5
762
330
1F
100
AcDbEntity
  8
2
  6
CONTINUOUS
370
25
 62
7
100
AcDbLine
 10
52.88002843094081
 20
22.52399431381184
 30
0.0
 11
53.0
 21
22.64396588287103
 31
0.0
  0
LINE
  5
763
330
1F
100
AcDbEntity
  8
2
  6
CONTINUOUS
370
25
 62
7
100
AcDbLine
 10
52.52647504034754
 20
22.5947049919305
 30
0.0
 11
53.0
 21
23.06822995158295
 31
0.0
  0
LINE
  5
764
330
1F
100
AcDbEntity
  8
2
  6
CONTINUOUS
370
25
 62
7
100
AcDbLine
 10
52.17292164975427
 20
22.66541567004915
 30
0.0
 11
53.0
 21
23.49249402029488
 31
0.0
  0
LINE
  5
765
330
1F
100
AcDbEntity
  8
2
  6
CONTINUOUS
370
25
 62
7
100
AcDbLine
 10
51.819368259161
 20
22.7361263481678
 30
0.0
 11
53.0
 21
23.91675808900681
 31
0.0
  0
LINE
  5
766
330
1F
100
AcDbEntity
  8
2
  6
CONTINUOUS
370
25
 62
7
100
AcDbLine
 10
51.46581486856772
 20
22.80683702628646
 30
0.0
 11
53.0
 21
24.34102215771874
 31
0.0
  0
LINE
  5
767
330
1F
100
AcDbEntity
  8
2
  6
CONTINUOUS
370
25
 62
7
100
AcDbLine
 10
51.11226147797445
 20
22.87754770440511
 30
0.0
 11
52.66839221696166
 21
24.43367844339233
 31
0.0
  0
LINE
  5
768
330
1F
100
AcDbEntity
  8
2
  6
CONTINUOUS
370
25
 62
7
100
AcDbLine
 10
50.75870808738118
 20
22.94825838252377
 30
0.0
 11
52.13806213107176
 21
24.32761242621435
 31
0.0
  0
LINE
  5
769
330
1F
100
AcDbEntity
  8
2
  6
CONTINUOUS
370
25
 62
7
100
AcDbLine
 10
50.4051546967879
 20
23.01896906064242
 30
0.0
 11
51.60773204518185
 21
24.22154640903637
 31
0.0
  0
LINE
  5
76A
330
1F
100
AcDbEntity
  8
2
  6
CONTINUOUS
370
25
 62
7
100
AcDbLine
 10
50.05160130619463
 20
23.08967973876108
 30
0.0
 11
51.07740195929194
 21
24.11548039185839
 31
0.0
  0
LINE
  5
76B
330
1F
100
AcDbEntity
  8
2
  6
CONTINUOUS
370
25
 62
7
100
AcDbLine
 10
49.69804791560136
 20
23.16039041687973
 30
0.0
 11
50.54707187340203
 21
24.0094143746804
 31
0.0
  0
LINE
  5
76C
330
1F
100
AcDbEntity
  8
2
  6
CONTINUOUS
370
25
 62
7
100
AcDbLine
 10
49.34449452500809
 20
23.23110109499839
 30
0.0
 11
50.01674178751212
 21
23.90334835750242
 31
0.0
  0
LINE
  5
76D
330
1F
100
AcDbEntity
  8
2
  6
CONTINUOUS
370
25
 62
7
100
AcDbLine
 10
48.99094113441481
 20
23.30181177311704
 30
0.0
 11
49.48641170162221
 21
23.79728234032444
 31
0.0
  0
LINE
  5
76E
330
1F
100
AcDbEntity
  8
2
  6
CONTINUOUS
370
25
 62
7
100
AcDbLine
 10
48.63738774382153
 20
23.3725224512357
 30
0.0
 11
48.9560816157323
 21
23.69121632314646
 31
0.0
  0
LINE
  5
76F
330
1F
100
AcDbEntity
  8
2
  6
CONTINUOUS
370
25
 62
7
100
AcDbLine
 10
48.28383435322827
 20
23.44323312935435
 30
0.0
 11
48.42575152984239
 21
23.58515030596848
 31
0.0
  0
LINE
  5
770
330
1F
100
AcDbEntity
  8
2
  6
CONTINUOUS
370
25
 62
7
100
AcDbLine
 10
48.33511900206742
 20
23.56702380041348
 30
0.0
 11
48.50267850310113
 21
23.39946429937977
 31
0.0
  0
LINE
  5
771
330
1F
100
AcDbEntity
  8
2
  6
CONTINUOUS
370
25
 62
7
100
AcDbLine
 10
48.68867239266069
 20
23.63773447853214
 30
0.0
 11
49.03300858899104
 21
23.29339828220179
 31
0.0
  0
LINE
  5
772
330
1F
100
AcDbEntity
  8
2
  6
CONTINUOUS
370
25
 62
7
100
AcDbLine
 10
49.04222578325397
 20
23.70844515665079
 30
0.0
 11
49.56333867488095
 21
23.18733226502381
 31
0.0
  0
LINE
  5
773
330
1F
100
AcDbEntity
  8
2
  6
CONTINUOUS
370
25
 62
7
100
AcDbLine
 10
49.39577917384724
 20
23.77915583476945
 30
0.0
 11
50.09366876077086
 21
23.08126624784583
 31
0.0
  0
LINE
  5
774
330
1F
100
AcDbEntity
  8
2
  6
CONTINUOUS
370
25
 62
7
100
AcDbLine
 10
49.74933256444051
 20
23.8498665128881
 30
0.0
 11
50.62399884666077
 21
22.97520023066785
 31
0.0
  0
LINE
  5
775
330
1F
100
AcDbEntity
  8
2
  6
CONTINUOUS
370
25
 62
7
100
AcDbLine
 10
50.10288595503378
 20
23.92057719100676
 30
0.0
 11
51.15432893255068
 21
22.86913421348986
 31
0.0
  0
LINE
  5
776
330
1F
100
AcDbEntity
  8
2
  6
CONTINUOUS
370
25
 62
7
100
AcDbLine
 10
50.45643934562706
 20
23.99128786912541
 30
0.0
 11
51.68465901844059
 21
22.76306819631188
 31
0.0
  0
LINE
  5
777
330
1F
100
AcDbEntity
  8
2
  6
CONTINUOUS
370
25
 62
7
100
AcDbLine
 10
50.80999273622033
 20
24.06199854724407
 30
0.0
 11
52.2149891043305
 21
22.6570021791339
 31
0.0
  0
LINE
  5
778
330
1F
100
AcDbEntity
  8
2
  6
CONTINUOUS
370
25
 62
7
100
AcDbLine
 10
51.1635461268136
 20
24.13270922536272
 30
0.0
 11
52.74531919022041
 21
22.55093616195592
 31
0.0
  0
LINE
  5
779
330
1F
100
AcDbEntity
  8
2
  6
CONTINUOUS
370
25
 62
7
100
AcDbLine
 10
51.51709951740688
 20
24.20341990348138
 30
0.0
 11
53.0
 21
22.72051942088826
 31
0.0
  0
LINE
  5
77A
330
1F
100
AcDbEntity
  8
2
  6
CONTINUOUS
370
25
 62
7
100
AcDbLine
 10
51.87065290800015
 20
24.27413058160003
 30
0.0
 11
53.0
 21
23.14478348960018
 31
0.0
  0
LINE
  5
77B
330
1F
100
AcDbEntity
  8
2
  6
CONTINUOUS
370
25
 62
7
100
AcDbLine
 10
52.22420629859343
 20
24.34484125971868
 30
0.0
 11
53.0
 21
23.56904755831211
 31
0.0
  0
LINE
  5
77C
330
1F
100
AcDbEntity
  8
2
  6
CONTINUOUS
370
25
 62
7
100
AcDbLine
 10
52.5777596891867
 20
24.41555193783734
 30
0.0
 11
53.0
 21
23.99331162702404
 31
0.0
  0
LINE
  5
77D
330
1F
100
AcDbEntity
  8
2
  6
CONTINUOUS
370
25
 62
7
100
AcDbLine
 10
52.93131307977997
 20
24.48626261595599
 30
0.0
 11
53.0
 21
24.41757569573597
 31
0.0
  0
TEXT
  5
77E
330
1F
100
AcDbEntity
  8
2
  6
CONTINUOUS
370
25
 62
7
100
AcDbText
 10
34.86666666666667
 20
25.0
 30
0.0
 40
3.5
  1
18.1
 72
     1
 11
38.95
 21
25.0
 31
0.0
100
AcDbText
  0
LINE
  5
77F
330
1F
100
AcDbEntity
  8
2
  6
CONTINUOUS
370
25
 62
7
100
AcDbLine
 10
37.4
 20
-1.35
 30
0.0
 11
37.4
 21
-34.5
 31
0.0
  0
LINE
  5
780
330
1F
100
AcDbEntity
  8
2
  6
CONTINUOUS
370
25
 62
7
100
AcDbLine
 10
48.0
 20
-34.5
 30
0.0
 11
48.0
 21
0.0
 31
0.0
  0
LINE
  5
781
330
1F
100
AcDbEntity
  8
2
  6
CONTINUOUS
370
25
 62
7
100
AcDbLine
 10
18.5
 20
-33.5
 30
0.0
 11
55.0
 21
-33.5
 31
0.0
  0
LINE
  5
782
330
1F
100
AcDbEntity
  8
2
  6
CONTINUOUS
370
25
 62
7
100
AcDbLine
 10
37.4
 20
-33.5
 30
0.0
 11
32.4
 21
-34.5
 31
0.0
  0
LINE
  5
783
330
1F
100
AcDbEntity
  8
2
  6
CONTINUOUS
370
25
 62
7
100
AcDbLine
 10
32.4
 20
-34.5
 30
0.0
 11
32.4
 21
-32.5
 31
0.0
  0
LINE
  5
784
330
1F
100
AcDbEntity
  8
2
  6
CONTINUOUS
370
25
 62
7
100
AcDbLine
 10
32.4
 20
-32.5
 30
0.0
 11
37.4
 21
-33.5
 31
0.0
  0
LINE
  5
785
330
1F
100
AcDbEntity
  8
2
  6
CONTINUOUS
370
25
 62
7
100
AcDbLine
 10
37.18703405742017
 20
-33.54259318851597
 30
0.0
 11
37.25802270494678
 21
-33.47160454098935
 31
0.0
  0
LINE
  5
786
330
1F
100
AcDbEntity
  8
2
  6
CONTINUOUS
370
25
 62
7
100
AcDbLine
 10
36.65670397153026
 20
-33.64865920569395
 30
0.0
 11
36.90446931435351
 21
-33.4008938628707
 31
0.0
  0
LINE
  5
787
330
1F
100
AcDbEntity
  8
2
  6
CONTINUOUS
370
25
 62
7
100
AcDbLine
 10
36.12637388564035
 20
-33.75472522287193
 30
0.0
 11
36.55091592376023
 21
-33.33018318475204
 31
0.0
  0
LINE
  5
788
330
1F
100
AcDbEntity
  8
2
  6
CONTINUOUS
370
25
 62
7
100
AcDbLine
 10
35.59604379975043
 20
-33.86079124004991
 30
0.0
 11
36.19736253316696
 21
-33.25947250663339
 31
0.0
  0
LINE
  5
789
330
1F
100
AcDbEntity
  8
2
  6
CONTINUOUS
370
25
 62
7
100
AcDbLine
 10
35.06571371386052
 20
-33.96685725722789
 30
0.0
 11
35.84380914257368
 21
-33.18876182851474
 31
0.0
  0
LINE
  5
78A
330
1F
100
AcDbEntity
  8
2
  6
CONTINUOUS
370
25
 62
7
100
AcDbLine
 10
34.53538362797061
 20
-34.07292327440588
 30
0.0
 11
35.49025575198041
 21
-33.11805115039608
 31
0.0
  0
LINE
  5
78B
330
1F
100
AcDbEntity
  8
2
  6
CONTINUOUS
370
25
 62
7
100
AcDbLine
 10
34.00505354208069
 20
-34.17898929158386
 30
0.0
 11
35.13670236138713
 21
-33.04734047227743
 31
0.0
  0
LINE
  5
78C
330
1F
100
AcDbEntity
  8
2
  6
CONTINUOUS
370
25
 62
7
100
AcDbLine
 10
33.47472345619077
 20
-34.28505530876184
 30
0.0
 11
34.78314897079386
 21
-32.97662979415877
 31
0.0
  0
LINE
  5
78D
330
1F
100
AcDbEntity
  8
2
  6
CONTINUOUS
370
25
 62
7
100
AcDbLine
 10
32.94439337030087
 20
-34.39112132593983
 30
0.0
 11
34.42959558020058
 21
-32.90591911604012
 31
0.0
  0
LINE
  5
78E
330
1F
100
AcDbEntity
  8
2
  6
CONTINUOUS
370
25
 62
7
100
AcDbLine
 10
32.41406328441094
 20
-34.49718734311781
 30
0.0
 11
34.07604218960731
 21
-32.83520843792146
 31
0.0
  0
LINE
  5
78F
330
1F
100
AcDbEntity
  8
2
  6
CONTINUOUS
370
25
 62
7
100
AcDbLine
 10
32.4
 20
-34.08698655881683
 30
0.0
 11
33.72248879901403
 21
-32.76449775980281
 31
0.0
  0
LINE
  5
790
330
1F
100
AcDbEntity
  8
2
  6
CONTINUOUS
370
25
 62
7
100
AcDbLine
 10
32.4
 20
-33.6627224901049
 30
0.0
 11
33.36893540842075
 21
-32.69378708168415
 31
0.0
  0
LINE
  5
791
330
1F
100
AcDbEntity
  8
2
  6
CONTINUOUS
370
25
 62
7
100
AcDbLine
 10
32.4
 20
-33.23845842139297
 30
0.0
 11
33.01538201782748
 21
-32.6230764035655
 31
0.0
  0
LINE
  5
792
330
1F
100
AcDbEntity
  8
2
  6
CONTINUOUS
370
25
 62
7
100
AcDbLine
 10
32.4
 20
-32.81419435268104
 30
0.0
 11
32.6618286272342
 21
-32.55236572544684
 31
0.0
  0
LINE
  5
793
330
1F
100
AcDbEntity
  8
2
  6
CONTINUOUS
370
25
 62
7
100
AcDbLine
 10
32.4
 20
-34.3604930324463
 30
0.0
 11
32.51625580629474
 21
-34.47674883874105
 31
0.0
  0
LINE
  5
794
330
1F
100
AcDbEntity
  8
2
  6
CONTINUOUS
370
25
 62
7
100
AcDbLine
 10
32.4
 20
-33.93622896373437
 30
0.0
 11
32.86980919688802
 21
-34.40603816062239
 31
0.0
  0
LINE
  5
795
330
1F
100
AcDbEntity
  8
2
  6
CONTINUOUS
370
25
 62
7
100
AcDbLine
 10
32.4
 20
-33.51196489502244
 30
0.0
 11
33.2233625874813
 21
-34.33532748250374
 31
0.0
  0
LINE
  5
796
330
1F
100
AcDbEntity
  8
2
  6
CONTINUOUS
370
25
 62
7
100
AcDbLine
 10
32.4
 20
-33.08770082631052
 30
0.0
 11
33.57691597807457
 21
-34.26461680438508
 31
0.0
  0
LINE
  5
797
330
1F
100
AcDbEntity
  8
2
  6
CONTINUOUS
370
25
 62
7
100
AcDbLine
 10
32.4
 20
-32.66343675759859
 30
0.0
 11
33.93046936866784
 21
-34.19390612626643
 31
0.0
  0
LINE
  5
798
330
1F
100
AcDbEntity
  8
2
  6
CONTINUOUS
370
25
 62
7
100
AcDbLine
 10
32.72603413889168
 20
-32.56520682777833
 30
0.0
 11
34.28402275926112
 21
-34.12319544814778
 31
0.0
  0
LINE
  5
799
330
1F
100
AcDbEntity
  8
2
  6
CONTINUOUS
370
25
 62
7
100
AcDbLine
 10
33.25636422478159
 20
-32.67127284495632
 30
0.0
 11
34.6375761498544
 21
-34.05248477002912
 31
0.0
  0
LINE
  5
79A
330
1F
100
AcDbEntity
  8
2
  6
CONTINUOUS
370
25
 62
7
100
AcDbLine
 10
33.78669431067151
 20
-32.7773388621343
 30
0.0
 11
34.99112954044767
 21
-33.98177409191047
 31
0.0
  0
LINE
  5
79B
330
1F
100
AcDbEntity
  8
2
  6
CONTINUOUS
370
25
 62
7
100
AcDbLine
 10
34.31702439656141
 20
-32.88340487931228
 30
0.0
 11
35.34468293104094
 21
-33.91106341379181
 31
0.0
  0
LINE
  5
79C
330
1F
100
AcDbEntity
  8
2
  6
CONTINUOUS
370
25
 62
7
100
AcDbLine
 10
34.84735448245133
 20
-32.98947089649027
 30
0.0
 11
35.69823632163422
 21
-33.84035273567316
 31
0.0
  0
LINE
  5
79D
330
1F
100
AcDbEntity
  8
2
  6
CONTINUOUS
370
25
 62
7
100
AcDbLine
 10
35.37768456834124
 20
-33.09553691366825
 30
0.0
 11
36.0517897122275
 21
-33.7696420575545
 31
0.0
  0
LINE
  5
79E
330
1F
100
AcDbEntity
  8
2
  6
CONTINUOUS
370
25
 62
7
100
AcDbLine
 10
35.90801465423115
 20
-33.20160293084623
 30
0.0
 11
36.40534310282077
 21
-33.69893137943585
 31
0.0
  0
LINE
  5
79F
330
1F
100
AcDbEntity
  8
2
  6
CONTINUOUS
370
25
 62
7
100
AcDbLine
 10
36.43834474012107
 20
-33.30766894802422
 30
0.0
 11
36.75889649341405
 21
-33.62822070131719
 31
0.0
  0
LINE
  5
7A0
330
1F
100
AcDbEntity
  8
2
  6
CONTINUOUS
370
25
 62
7
100
AcDbLine
 10
36.96867482601099
 20
-33.4137349652022
 30
0.0
 11
37.11244988400733
 21
-33.55751002319853
 31
0.0
  0
LINE
  5
7A1
330
1F
100
AcDbEntity
  8
2
  6
CONTINUOUS
370
25
 62
7
100
AcDbLine
 10
48.0
 20
-33.5
 30
0.0
 11
53.0
 21
-32.5
 31
0.0
  0
LINE
  5
7A2
330
1F
100
AcDbEntity
  8
2
  6
CONTINUOUS
370
25
 62
7
100
AcDbLine
 10
53.0
 20
-32.5
 30
0.0
 11
53.0
 21
-34.5
 31
0.0
  0
LINE
  5
7A3
330
1F
100
AcDbEntity
  8
2
  6
CONTINUOUS
370
25
 62
7
100
AcDbLine
 10
53.0
 20
-34.5
 30
0.0
 11
48.0
 21
-33.5
 31
0.0
  0
LINE
  5
7A4
330
1F
100
AcDbEntity
  8
2
  6
CONTINUOUS
370
25
 62
7
100
AcDbLine
 10
52.65032070084884
 20
-34.43006414016977
 30
0.0
 11
53.0
 21
-34.08038484101861
 31
0.0
  0
LINE
  5
7A5
330
1F
100
AcDbEntity
  8
2
  6
CONTINUOUS
370
25
 62
7
100
AcDbLine
 10
52.29676731025556
 20
-34.35935346205112
 30
0.0
 11
53.0
 21
-33.65612077230668
 31
0.0
  0
LINE
  5
7A6
330
1F
100
AcDbEntity
  8
2
  6
CONTINUOUS
370
25
 62
7
100
AcDbLine
 10
51.94321391966228
 20
-34.28864278393246
 30
0.0
 11
53.0
 21
-33.23185670359474
 31
0.0
  0
LINE
  5
7A7
330
1F
100
AcDbEntity
  8
2
  6
CONTINUOUS
370
25
 62
7
100
AcDbLine
 10
51.58966052906901
 20
-34.2179321058138
 30
0.0
 11
53.0
 21
-32.80759263488282
 31
0.0
  0
LINE
  5
7A8
330
1F
100
AcDbEntity
  8
2
  6
CONTINUOUS
370
25
 62
7
100
AcDbLine
 10
51.23610713847573
 20
-34.14722142769515
 30
0.0
 11
52.85416070771362
 21
-32.52916785845727
 31
0.0
  0
LINE
  5
7A9
330
1F
100
AcDbEntity
  8
2
  6
CONTINUOUS
370
25
 62
7
100
AcDbLine
 10
50.88255374788247
 20
-34.07651074957649
 30
0.0
 11
52.32383062182371
 21
-32.63523387563525
 31
0.0
  0
LINE
  5
7AA
330
1F
100
AcDbEntity
  8
2
  6
CONTINUOUS
370
25
 62
7
100
AcDbLine
 10
50.52900035728919
 20
-34.00580007145783
 30
0.0
 11
51.79350053593379
 21
-32.74129989281324
 31
0.0
  0
LINE
  5
7AB
330
1F
100
AcDbEntity
  8
2
  6
CONTINUOUS
370
25
 62
7
100
AcDbLine
 10
50.17544696669592
 20
-33.93508939333918
 30
0.0
 11
51.26317045004387
 21
-32.84736590999123
 31
0.0
  0
LINE
  5
7AC
330
1F
100
AcDbEntity
  8
2
  6
CONTINUOUS
370
25
 62
7
100
AcDbLine
 10
49.82189357610264
 20
-33.86437871522052
 30
0.0
 11
50.73284036415397
 21
-32.95343192716921
 31
0.0
  0
LINE
  5
7AD
330
1F
100
AcDbEntity
  8
2
  6
CONTINUOUS
370
25
 62
7
100
AcDbLine
 10
49.46834018550935
 20
-33.79366803710187
 30
0.0
 11
50.20251027826404
 21
-33.05949794434719
 31
0.0
  0
LINE
  5
7AE
330
1F
100
AcDbEntity
  8
2
  6
CONTINUOUS
370
25
 62
7
100
AcDbLine
 10
49.11478679491609
 20
-33.72295735898322
 30
0.0
 11
49.67218019237413
 21
-33.16556396152517
 31
0.0
  0
LINE
  5
7AF
330
1F
100
AcDbEntity
  8
2
  6
CONTINUOUS
370
25
 62
7
100
AcDbLine
 10
48.76123340432281
 20
-33.65224668086456
 30
0.0
 11
49.14185010648421
 21
-33.27162997870315
 31
0.0
  0
LINE
  5
7B0
330
1F
100
AcDbEntity
  8
2
  6
CONTINUOUS
370
25
 62
7
100
AcDbLine
 10
48.40768001372953
 20
-33.58153600274591
 30
0.0
 11
48.61152002059431
 21
-33.37769599588113
 31
0.0
  0
LINE
  5
7B1
330
1F
100
AcDbEntity
  8
2
  6
CONTINUOUS
370
25
 62
7
100
AcDbLine
 10
48.05412662313626
 20
-33.51082532462725
 30
0.0
 11
48.08118993470438
 21
-33.48376201305912
 31
0.0
  0
LINE
  5
7B2
330
1F
100
AcDbEntity
  8
2
  6
CONTINUOUS
370
25
 62
7
100
AcDbLine
 10
48.26210719279003
 20
-33.44757856144199
 30
0.0
 11
48.39316078918505
 21
-33.57863215783701
 31
0.0
  0
LINE
  5
7B3
330
1F
100
AcDbEntity
  8
2
  6
CONTINUOUS
370
25
 62
7
100
AcDbLine
 10
48.6156605833833
 20
-33.37686788332334
 30
0.0
 11
48.92349087507495
 21
-33.68469817501499
 31
0.0
  0
LINE
  5
7B4
330
1F
100
AcDbEntity
  8
2
  6
CONTINUOUS
370
25
 62
7
100
AcDbLine
 10
48.96921397397658
 20
-33.30615720520468
 30
0.0
 11
49.45382096096486
 21
-33.79076419219297
 31
0.0
  0
LINE
  5
7B5
330
1F
100
AcDbEntity
  8
2
  6
CONTINUOUS
370
25
 62
7
100
AcDbLine
 10
49.32276736456985
 20
-33.23544652708603
 30
0.0
 11
49.98415104685478
 21
-33.89683020937095
 31
0.0
  0
LINE
  5
7B6
330
1F
100
AcDbEntity
  8
2
  6
CONTINUOUS
370
25
 62
7
100
AcDbLine
 10
49.67632075516313
 20
-33.16473584896737
 30
0.0
 11
50.51448113274469
 21
-34.00289622654894
 31
0.0
  0
LINE
  5
7B7
330
1F
100
AcDbEntity
  8
2
  6
CONTINUOUS
370
25
 62
7
100
AcDbLine
 10
50.0298741457564
 20
-33.09402517084872
 30
0.0
 11
51.04481121863461
 21
-34.10896224372691
 31
0.0
  0
LINE
  5
7B8
330
1F
100
AcDbEntity
  8
2
  6
CONTINUOUS
370
25
 62
7
100
AcDbLine
 10
50.38342753634967
 20
-33.02331449273007
 30
0.0
 11
51.57514130452452
 21
-34.2150282609049
 31
0.0
  0
LINE
  5
7B9
330
1F
100
AcDbEntity
  8
2
  6
CONTINUOUS
370
25
 62
7
100
AcDbLine
 10
50.73698092694295
 20
-32.95260381461141
 30
0.0
 11
52.10547139041444
 21
-34.32109427808289
 31
0.0
  0
LINE
  5
7BA
330
1F
100
AcDbEntity
  8
2
  6
CONTINUOUS
370
25
 62
7
100
AcDbLine
 10
51.09053431753622
 20
-32.88189313649275
 30
0.0
 11
52.63580147630435
 21
-34.42716029526088
 31
0.0
  0
LINE
  5
7BB
330
1F
100
AcDbEntity
  8
2
  6
CONTINUOUS
370
25
 62
7
100
AcDbLine
 10
51.4440877081295
 20
-32.8111824583741
 30
0.0
 11
53.0
 21
-34.36709475024458
 31
0.0
  0
LINE
  5
7BC
330
1F
100
AcDbEntity
  8
2
  6
CONTINUOUS
370
25
 62
7
100
AcDbLine
 10
51.79764109872278
 20
-32.74047178025545
 30
0.0
 11
53.0
 21
-33.94283068153266
 31
0.0
  0
LINE
  5
7BD
330
1F
100
AcDbEntity
  8
2
  6
CONTINUOUS
370
25
 62
7
100
AcDbLine
 10
52.15119448931605
 20
-32.66976110213679
 30
0.0
 11
53.0
 21
-33.51856661282072
 31
0.0
  0
LINE
  5
7BE
330
1F
100
AcDbEntity
  8
2
  6
CONTINUOUS
370
25
 62
7
100
AcDbLine
 10
52.50474787990932
 20
-32.59905042401813
 30
0.0
 11
53.0
 21
-33.0943025441088
 31
0.0
  0
LINE
  5
7BF
330
1F
100
AcDbEntity
  8
2
  6
CONTINUOUS
370
25
 62
7
100
AcDbLine
 10
52.85830127050261
 20
-32.52833974589947
 30
0.0
 11
53.0
 21
-32.67003847539686
 31
0.0
  0
TEXT
  5
7C0
330
1F
100
AcDbEntity
  8
2
  6
CONTINUOUS
370
25
 62
7
100
AcDbText
 10
21.075
 20
-32.0
 30
0.0
 40
3.5
  1
10.6
 72
     1
 11
25.45
 21
-32.0
 31
0.0
100
AcDbText
  0
LINE
  5
7C1
330
1F
100
AcDbEntity
  8
SK2
  6
CONTINUOUS
370
25
 62
7
100
AcDbLine
 10
0.0
 20
3.0
 30
0.0
 11
0.0000000000000036
 21
34.5
 31
0.0
  0
LINE
  5
7C2
330
1F
100
AcDbEntity
  8
SK2
  6
CONTINUOUS
370
25
 62
7
100
AcDbLine
 10
48.0
 20
34.5
 30
0.0
 11
48.0
 21
0.0
 31
0.0
  0
LINE
  5
7C3
330
1F
100
AcDbEntity
  8
SK2
  6
CONTINUOUS
370
25
 62
7
100
AcDbLine
 10
0.0000000000000036
 20
33.5
 30
0.0
 11
48.0
 21
33.5
 31
0.0
  0
LINE
  5
7C4
330
1F
100
AcDbEntity
  8
SK2
  6
CONTINUOUS
370
25
 62
7
100
AcDbLine
 10
0.0000000000000036
 20
33.5
 30
0.0
 11
5.000000000000004
 21
34.5
 31
0.0
  0
LINE
  5
7C5
330
1F
100
AcDbEntity
  8
SK2
  6
CONTINUOUS
370
25
 62
7
100
AcDbLine
 10
5.000000000000004
 20
34.5
 30
0.0
 11
5.000000000000004
 21
32.5
 31
0.0
  0
LINE
  5
7C6
330
1F
100
AcDbEntity
  8
SK2
  6
CONTINUOUS
370
25
 62
7
100
AcDbLine
 10
5.000000000000004
 20
32.5
 30
0.0
 11
0.0000000000000036
 21
33.5
 31
0.0
  0
LINE
  5
7C7
330
1F
100
AcDbEntity
  8
SK2
  6
CONTINUOUS
370
25
 62
7
100
AcDbLine
 10
4.750072212648085
 20
32.54998555747038
 30
0.0
 11
5.000000000000004
 21
32.7999133448223
 31
0.0
  0
LINE
  5
7C8
330
1F
100
AcDbEntity
  8
SK2
  6
CONTINUOUS
370
25
 62
7
100
AcDbLine
 10
4.396518822054819
 20
32.62069623558904
 30
0.0
 11
5.000000000000004
 21
33.22417741353422
 31
0.0
  0
LINE
  5
7C9
330
1F
100
AcDbEntity
  8
SK2
  6
CONTINUOUS
370
25
 62
7
100
AcDbLine
 10
4.042965431461543
 20
32.69140691370769
 30
0.0
 11
5.000000000000004
 21
33.64844148224616
 31
0.0
  0
LINE
  5
7CA
330
1F
100
AcDbEntity
  8
SK2
  6
CONTINUOUS
370
25
 62
7
100
AcDbLine
 10
3.68941204086827
 20
32.76211759182635
 30
0.0
 11
5.000000000000004
 21
34.07270555095808
 31
0.0
  0
LINE
  5
7CB
330
1F
100
AcDbEntity
  8
SK2
  6
CONTINUOUS
370
25
 62
7
100
AcDbLine
 10
3.335858650274993
 20
32.832828269945
 30
0.0
 11
5.000000000000004
 21
34.49696961967001
 31
0.0
  0
LINE
  5
7CC
330
1F
100
AcDbEntity
  8
SK2
  6
CONTINUOUS
370
25
 62
7
100
AcDbLine
 10
2.982305259681713
 20
32.90353894806366
 30
0.0
 11
4.473457889522567
 21
34.39469157790451
 31
0.0
  0
LINE
  5
7CD
330
1F
100
AcDbEntity
  8
SK2
  6
CONTINUOUS
370
25
 62
7
100
AcDbLine
 10
2.628751869088443
 20
32.97424962618231
 30
0.0
 11
3.943127803632663
 21
34.28862556072653
 31
0.0
  0
LINE
  5
7CE
330
1F
100
AcDbEntity
  8
SK2
  6
CONTINUOUS
370
25
 62
7
100
AcDbLine
 10
2.27519847849517
 20
33.04496030430096
 30
0.0
 11
3.412797717742755
 21
34.18255954354855
 31
0.0
  0
LINE
  5
7CF
330
1F
100
AcDbEntity
  8
SK2
  6
CONTINUOUS
370
25
 62
7
100
AcDbLine
 10
1.92164508790189
 20
33.11567098241962
 30
0.0
 11
2.882467631852837
 21
34.07649352637057
 31
0.0
  0
LINE
  5
7D0
330
1F
100
AcDbEntity
  8
SK2
  6
CONTINUOUS
370
25
 62
7
100
AcDbLine
 10
1.568091697308624
 20
33.18638166053827
 30
0.0
 11
2.352137545962929
 21
33.97042750919258
 31
0.0
  0
LINE
  5
7D1
330
1F
100
AcDbEntity
  8
SK2
  6
CONTINUOUS
370
25
 62
7
100
AcDbLine
 10
1.214538306715347
 20
33.25709233865692
 30
0.0
 11
1.821807460073025
 21
33.86436149201461
 31
0.0
  0
LINE
  5
7D2
330
1F
100
AcDbEntity
  8
SK2
  6
CONTINUOUS
370
25
 62
7
100
AcDbLine
 10
0.8609849161220708
 20
33.32780301677558
 30
0.0
 11
1.291477374183106
 21
33.75829547483661
 31
0.0
  0
LINE
  5
7D3
330
1F
100
AcDbEntity
  8
SK2
  6
CONTINUOUS
370
25
 62
7
100
AcDbLine
 10
0.5074315255287907
 20
33.39851369489423
 30
0.0
 11
0.7611472882931913
 21
33.65222945765863
 31
0.0
  0
LINE
  5
7D4
330
1F
100
AcDbEntity
  8
SK2
  6
CONTINUOUS
370
25
 62
7
100
AcDbLine
 10
0.1538781349355141
 20
33.46922437301289
 30
0.0
 11
0.2308172024032764
 21
33.54616344048065
 31
0.0
  0
LINE
  5
7D5
330
1F
100
AcDbEntity
  8
SK2
  6
CONTINUOUS
370
25
 62
7
100
AcDbLine
 10
0.181980515339351
 20
33.53639610306787
 30
0.0
 11
0.2729707730090283
 21
33.44540584539819
 31
0.0
  0
LINE
  5
7D6
330
1F
100
AcDbEntity
  8
SK2
  6
CONTINUOUS
370
25
 62
7
100
AcDbLine
 10
0.5355339059326276
 20
33.60710678118652
 30
0.0
 11
0.8033008588989397
 21
33.33933982822021
 31
0.0
  0
LINE
  5
7D7
330
1F
100
AcDbEntity
  8
SK2
  6
CONTINUOUS
370
25
 62
7
100
AcDbLine
 10
0.8890872965259078
 20
33.67781745930518
 30
0.0
 11
1.333630944788862
 21
33.23327381104222
 31
0.0
  0
LINE
  5
7D8
330
1F
100
AcDbEntity
  8
SK2
  6
CONTINUOUS
370
25
 62
7
100
AcDbLine
 10
1.242640687119184
 20
33.74852813742383
 30
0.0
 11
1.863961030678773
 21
33.12720779386424
 31
0.0
  0
LINE
  5
7D9
330
1F
100
AcDbEntity
  8
SK2
  6
CONTINUOUS
370
25
 62
7
100
AcDbLine
 10
1.596194077712461
 20
33.81923881554249
 30
0.0
 11
2.394291116568684
 21
33.02114177668626
 31
0.0
  0
LINE
  5
7DA
330
1F
100
AcDbEntity
  8
SK2
  6
CONTINUOUS
370
25
 62
7
100
AcDbLine
 10
1.949747468305734
 20
33.88994949366115
 30
0.0
 11
2.924621202458596
 21
32.91507575950828
 31
0.0
  0
LINE
  5
7DB
330
1F
100
AcDbEntity
  8
SK2
  6
CONTINUOUS
370
25
 62
7
100
AcDbLine
 10
2.303300858899004
 20
33.96066017177981
 30
0.0
 11
3.4549512883485
 21
32.8090097423303
 31
0.0
  0
LINE
  5
7DC
330
1F
100
AcDbEntity
  8
SK2
  6
CONTINUOUS
370
25
 62
7
100
AcDbLine
 10
2.65685424949228
 20
34.03137084989846
 30
0.0
 11
3.985281374238411
 21
32.70294372515232
 31
0.0
  0
LINE
  5
7DD
330
1F
100
AcDbEntity
  8
SK2
  6
CONTINUOUS
370
25
 62
7
100
AcDbLine
 10
3.010407640085553
 20
34.10208152801711
 30
0.0
 11
4.515611460128319
 21
32.59687770797433
 31
0.0
  0
LINE
  5
7DE
330
1F
100
AcDbEntity
  8
SK2
  6
CONTINUOUS
370
25
 62
7
100
AcDbLine
 10
3.36396103067883
 20
34.17279220613577
 30
0.0
 11
5.000000000000004
 21
32.53675323681458
 31
0.0
  0
LINE
  5
7DF
330
1F
100
AcDbEntity
  8
SK2
  6
CONTINUOUS
370
25
 62
7
100
AcDbLine
 10
3.717514421272099
 20
34.24350288425442
 30
0.0
 11
5.000000000000004
 21
32.9610173055265
 31
0.0
  0
LINE
  5
7E0
330
1F
100
AcDbEntity
  8
SK2
  6
CONTINUOUS
370
25
 62
7
100
AcDbLine
 10
4.071067811865376
 20
34.31421356237307
 30
0.0
 11
5.000000000000004
 21
33.38528137423843
 31
0.0
  0
LINE
  5
7E1
330
1F
100
AcDbEntity
  8
SK2
  6
CONTINUOUS
370
25
 62
7
100
AcDbLine
 10
4.424621202458649
 20
34.38492424049173
 30
0.0
 11
5.000000000000004
 21
33.80954544295037
 31
0.0
  0
LINE
  5
7E2
330
1F
100
AcDbEntity
  8
SK2
  6
CONTINUOUS
370
25
 62
7
100
AcDbLine
 10
4.778174593051922
 20
34.45563491861039
 30
0.0
 11
5.000000000000004
 21
34.2338095116623
 31
0.0
  0
LINE
  5
7E3
330
1F
100
AcDbEntity
  8
SK2
  6
CONTINUOUS
370
25
 62
7
100
AcDbLine
 10
48.0
 20
33.5
 30
0.0
 11
43.0
 21
32.5
 31
0.0
  0
LINE
  5
7E4
330
1F
100
AcDbEntity
  8
SK2
  6
CONTINUOUS
370
25
 62
7
100
AcDbLine
 10
43.0
 20
32.5
 30
0.0
 11
43.0
 21
34.5
 31
0.0
  0
LINE
  5
7E5
330
1F
100
AcDbEntity
  8
SK2
  6
CONTINUOUS
370
25
 62
7
100
AcDbLine
 10
43.0
 20
34.5
 30
0.0
 11
48.0
 21
33.5
 31
0.0
  0
LINE
  5
7E6
330
1F
100
AcDbEntity
  8
SK2
  6
CONTINUOUS
370
25
 62
7
100
AcDbLine
 10
47.62778682207329
 20
33.42555736441466
 30
0.0
 11
47.7518578813822
 21
33.54962842372356
 31
0.0
  0
LINE
  5
7E7
330
1F
100
AcDbEntity
  8
SK2
  6
CONTINUOUS
370
25
 62
7
100
AcDbLine
 10
47.09745673618337
 20
33.31949134723668
 30
0.0
 11
47.39830449078892
 21
33.62033910184222
 31
0.0
  0
LINE
  5
7E8
330
1F
100
AcDbEntity
  8
SK2
  6
CONTINUOUS
370
25
 62
7
100
AcDbLine
 10
46.56712665029347
 20
33.2134253300587
 30
0.0
 11
47.04475110019565
 21
33.69104977996088
 31
0.0
  0
LINE
  5
7E9
330
1F
100
AcDbEntity
  8
SK2
  6
CONTINUOUS
370
25
 62
7
100
AcDbLine
 10
46.03679656440356
 20
33.10735931288071
 30
0.0
 11
46.69119770960238
 21
33.76176045807954
 31
0.0
  0
LINE
  5
7EA
330
1F
100
AcDbEntity
  8
SK2
  6
CONTINUOUS
370
25
 62
7
100
AcDbLine
 10
45.50646647851365
 20
33.00129329570273
 30
0.0
 11
46.3376443190091
 21
33.83247113619818
 31
0.0
  0
LINE
  5
7EB
330
1F
100
AcDbEntity
  8
SK2
  6
CONTINUOUS
370
25
 62
7
100
AcDbLine
 10
44.97613639262374
 20
32.89522727852474
 30
0.0
 11
45.98409092841582
 21
33.90318181431684
 31
0.0
  0
LINE
  5
7EC
330
1F
100
AcDbEntity
  8
SK2
  6
CONTINUOUS
370
25
 62
7
100
AcDbLine
 10
44.44580630673383
 20
32.78916126134676
 30
0.0
 11
45.63053753782255
 21
33.9738924924355
 31
0.0
  0
LINE
  5
7ED
330
1F
100
AcDbEntity
  8
SK2
  6
CONTINUOUS
370
25
 62
7
100
AcDbLine
 10
43.91547622084392
 20
32.68309524416878
 30
0.0
 11
45.27698414722928
 21
34.04460317055415
 31
0.0
  0
LINE
  5
7EE
330
1F
100
AcDbEntity
  8
SK2
  6
CONTINUOUS
370
25
 62
7
100
AcDbLine
 10
43.38514613495401
 20
32.5770292269908
 30
0.0
 11
44.92343075663601
 21
34.11531384867281
 31
0.0
  0
LINE
  5
7EF
330
1F
100
AcDbEntity
  8
SK2
  6
CONTINUOUS
370
25
 62
7
100
AcDbLine
 10
43.0
 20
32.61614716074872
 30
0.0
 11
44.56987736604273
 21
34.18602452679146
 31
0.0
  0
LINE
  5
7F0
330
1F
100
AcDbEntity
  8
SK2
  6
CONTINUOUS
370
25
 62
7
100
AcDbLine
 10
43.0
 20
33.04041122946064
 30
0.0
 11
44.21632397544946
 21
34.25673520491011
 31
0.0
  0
LINE
  5
7F1
330
1F
100
AcDbEntity
  8
SK2
  6
CONTINUOUS
370
25
 62
7
100
AcDbLine
 10
43.0
 20
33.46467529817258
 30
0.0
 11
43.86277058485619
 21
34.32744588302877
 31
0.0
  0
LINE
  5
7F2
330
1F
100
AcDbEntity
  8
SK2
  6
CONTINUOUS
370
25
 62
7
100
AcDbLine
 10
43.0
 20
33.88893936688451
 30
0.0
 11
43.50921719426291
 21
34.39815656114742
 31
0.0
  0
LINE
  5
7F3
330
1F
100
AcDbEntity
  8
SK2
  6
CONTINUOUS
370
25
 62
7
100
AcDbLine
 10
43.0
 20
34.31320343559644
 30
0.0
 11
43.15566380366964
 21
34.46886723926607
 31
0.0
  0
LINE
  5
7F4
330
1F
100
AcDbEntity
  8
SK2
  6
CONTINUOUS
370
25
 62
7
100
AcDbLine
 10
43.0
 20
32.72051942088825
 30
0.0
 11
43.18376618407355
 21
32.53675323681471
 31
0.0
  0
LINE
  5
7F5
330
1F
100
AcDbEntity
  8
SK2
  6
CONTINUOUS
370
25
 62
7
100
AcDbLine
 10
43.0
 20
33.14478348960018
 30
0.0
 11
43.53731957466682
 21
32.60746391493336
 31
0.0
  0
LINE
  5
7F6
330
1F
100
AcDbEntity
  8
SK2
  6
CONTINUOUS
370
25
 62
7
100
AcDbLine
 10
43.0
 20
33.56904755831211
 30
0.0
 11
43.89087296526009
 21
32.67817459305202
 31
0.0
  0
LINE
  5
7F7
330
1F
100
AcDbEntity
  8
SK2
  6
CONTINUOUS
370
25
 62
7
100
AcDbLine
 10
43.0
 20
33.99331162702404
 30
0.0
 11
44.24442635585337
 21
32.74888527117067
 31
0.0
  0
LINE
  5
7F8
330
1F
100
AcDbEntity
  8
SK2
  6
CONTINUOUS
370
25
 62
7
100
AcDbLine
 10
43.0
 20
34.41757569573597
 30
0.0
 11
44.59797974644664
 21
32.81959594928933
 31
0.0
  0
LINE
  5
7F9
330
1F
100
AcDbEntity
  8
SK2
  6
CONTINUOUS
370
25
 62
7
100
AcDbLine
 10
43.42729970555988
 20
34.41454005888803
 30
0.0
 11
44.95153313703992
 21
32.89030662740798
 31
0.0
  0
LINE
  5
7FA
330
1F
100
AcDbEntity
  8
SK2
  6
CONTINUOUS
370
25
 62
7
100
AcDbLine
 10
43.95762979144979
 20
34.30847404171004
 30
0.0
 11
45.30508652763319
 21
32.96101730552664
 31
0.0
  0
LINE
  5
7FB
330
1F
100
AcDbEntity
  8
SK2
  6
CONTINUOUS
370
25
 62
7
100
AcDbLine
 10
44.4879598773397
 20
34.20240802453206
 30
0.0
 11
45.65863991822647
 21
33.03172798364529
 31
0.0
  0
LINE
  5
7FC
330
1F
100
AcDbEntity
  8
SK2
  6
CONTINUOUS
370
25
 62
7
100
AcDbLine
 10
45.01828996322961
 20
34.09634200735408
 30
0.0
 11
46.01219330881975
 21
33.10243866176395
 31
0.0
  0
LINE
  5
7FD
330
1F
100
AcDbEntity
  8
SK2
  6
CONTINUOUS
370
25
 62
7
100
AcDbLine
 10
45.54862004911952
 20
33.9902759901761
 30
0.0
 11
46.36574669941302
 21
33.1731493398826
 31
0.0
  0
LINE
  5
7FE
330
1F
100
AcDbEntity
  8
SK2
  6
CONTINUOUS
370
25
 62
7
100
AcDbLine
 10
46.07895013500944
 20
33.88420997299812
 30
0.0
 11
46.71930009000629
 21
33.24386001800126
 31
0.0
  0
LINE
  5
7FF
330
1F
100
AcDbEntity
  8
SK2
  6
CONTINUOUS
370
25
 62
7
100
AcDbLine
 10
46.60928022089934
 20
33.77814395582014
 30
0.0
 11
47.07285348059956
 21
33.31457069611992
 31
0.0
  0
LINE
  5
800
330
1F
100
AcDbEntity
  8
SK2
  6
CONTINUOUS
370
25
 62
7
100
AcDbLine
 10
47.13961030678925
 20
33.67207793864215
 30
0.0
 11
47.42640687119284
 21
33.38528137423857
 31
0.0
  0
LINE
  5
801
330
1F
100
AcDbEntity
  8
SK2
  6
CONTINUOUS
370
25
 62
7
100
AcDbLine
 10
47.66994039267916
 20
33.56601192146417
 30
0.0
 11
47.77996026178612
 21
33.45599205235722
 31
0.0
  0
TEXT
  5
802
330
1F
100
AcDbEntity
  8
SK2
  6
CONTINUOUS
370
25
 62
7
100
AcDbText
 10
21.08333333333334
 20
35.0
 30
0.0
 40
3.5
  1
48
 72
     1
 11
24.0
 21
35.0
 31
0.0
100
AcDbText
  0
LINE
  5
803
330
1F
100
AcDbEntity
  8
2
  6
CONTINUOUS
370
25
 62
7
100
AcDbLine
 10
30.5
 20
-1.35
 30
0.0
 11
30.5
 21
-44.5
 31
0.0
  0
LINE
  5
804
330
1F
100
AcDbEntity
  8
2
  6
CONTINUOUS
370
25
 62
7
100
AcDbLine
 10
48.0
 20
-44.5
 30
0.0
 11
48.0
 21
0.0
 31
0.0
  0
LINE
  5
805
330
1F
100
AcDbEntity
  8
2
  6
CONTINUOUS
370
25
 62
7
100
AcDbLine
 10
23.5
 20
-43.5
 30
0.0
 11
55.0
 21
-43.5
 31
0.0
  0
LINE
  5
806
330
1F
100
AcDbEntity
  8
2
  6
CONTINUOUS
370
25
 62
7
100
AcDbLine
 10
30.5
 20
-43.5
 30
0.0
 11
25.5
 21
-44.5
 31
0.0
  0
LINE
  5
807
330
1F
100
AcDbEntity
  8
2
  6
CONTINUOUS
370
25
 62
7
100
AcDbLine
 10
25.5
 20
-44.5
 30
0.0
 11
25.5
 21
-42.5
 31
0.0
  0
LINE
  5
808
330
1F
100
AcDbEntity
  8
2
  6
CONTINUOUS
370
25
 62
7
100
AcDbLine
 10
25.5
 20
-42.5
 30
0.0
 11
30.5
 21
-43.5
 31
0.0
  0
LINE
  5
809
330
1F
100
AcDbEntity
  8
2
  6
CONTINUOUS
370
25
 62
7
100
AcDbLine
 10
30.4497234561908
 20
-43.51005530876184
 30
0.0
 11
30.4664823041272
 21
-43.49329646082544
 31
0.0
  0
LINE
  5
80A
330
1F
100
AcDbEntity
  8
2
  6
CONTINUOUS
370
25
 62
7
100
AcDbLine
 10
29.91939337030088
 20
-43.61612132593982
 30
0.0
 11
30.11292891353392
 21
-43.42258578270679
 31
0.0
  0
LINE
  5
80B
330
1F
100
AcDbEntity
  8
2
  6
CONTINUOUS
370
25
 62
7
100
AcDbLine
 10
29.38906328441097
 20
-43.7221873431178
 30
0.0
 11
29.75937552294064
 21
-43.35187510458813
 31
0.0
  0
LINE
  5
80C
330
1F
100
AcDbEntity
  8
2
  6
CONTINUOUS
370
25
 62
7
100
AcDbLine
 10
28.85873319852105
 20
-43.82825336029579
 30
0.0
 11
29.40582213234736
 21
-43.28116442646947
 31
0.0
  0
LINE
  5
80D
330
1F
100
AcDbEntity
  8
2
  6
CONTINUOUS
370
25
 62
7
100
AcDbLine
 10
28.32840311263114
 20
-43.93431937747377
 30
0.0
 11
29.05226874175409
 21
-43.21045374835082
 31
0.0
  0
LINE
  5
80E
330
1F
100
AcDbEntity
  8
2
  6
CONTINUOUS
370
25
 62
7
100
AcDbLine
 10
27.79807302674123
 20
-44.04038539465175
 30
0.0
 11
28.69871535116081
 21
-43.13974307023216
 31
0.0
  0
LINE
  5
80F
330
1F
100
AcDbEntity
  8
2
  6
CONTINUOUS
370
25
 62
7
100
AcDbLine
 10
27.26774294085131
 20
-44.14645141182974
 30
0.0
 11
28.34516196056753
 21
-43.06903239211351
 31
0.0
  0
LINE
  5
810
330
1F
100
AcDbEntity
  8
2
  6
CONTINUOUS
370
25
 62
7
100
AcDbLine
 10
26.7374128549614
 20
-44.25251742900772
 30
0.0
 11
27.99160856997426
 21
-42.99832171399486
 31
0.0
  0
LINE
  5
811
330
1F
100
AcDbEntity
  8
2
  6
CONTINUOUS
370
25
 62
7
100
AcDbLine
 10
26.20708276907148
 20
-44.3585834461857
 30
0.0
 11
27.63805517938098
 21
-42.9276110358762
 31
0.0
  0
LINE
  5
812
330
1F
100
AcDbEntity
  8
2
  6
CONTINUOUS
370
25
 62
7
100
AcDbLine
 10
25.67675268318157
 20
-44.46464946336368
 30
0.0
 11
27.28450178878771
 21
-42.85690035775755
 31
0.0
  0
LINE
  5
813
330
1F
100
AcDbEntity
  8
2
  6
CONTINUOUS
370
25
 62
7
100
AcDbLine
 10
25.5
 20
-44.21713807783333
 30
0.0
 11
26.93094839819443
 21
-42.78618967963889
 31
0.0
  0
LINE
  5
814
330
1F
100
AcDbEntity
  8
2
  6
CONTINUOUS
370
25
 62
7
100
AcDbLine
 10
25.5
 20
-43.7928740091214
 30
0.0
 11
26.57739500760116
 21
-42.71547900152024
 31
0.0
  0
LINE
  5
815
330
1F
100
AcDbEntity
  8
2
  6
CONTINUOUS
370
25
 62
7
100
AcDbLine
 10
25.5
 20
-43.36860994040946
 30
0.0
 11
26.22384161700788
 21
-42.64476832340158
 31
0.0
  0
LINE
  5
816
330
1F
100
AcDbEntity
  8
2
  6
CONTINUOUS
370
25
 62
7
100
AcDbLine
 10
25.5
 20
-42.94434587169754
 30
0.0
 11
25.87028822641461
 21
-42.57405764528292
 31
0.0
  0
LINE
  5
817
330
1F
100
AcDbEntity
  8
2
  6
CONTINUOUS
370
25
 62
7
100
AcDbLine
 10
25.5
 20
-42.5200818029856
 30
0.0
 11
25.51673483582133
 21
-42.50334696716427
 31
0.0
  0
LINE
  5
818
330
1F
100
AcDbEntity
  8
2
  6
CONTINUOUS
370
25
 62
7
100
AcDbLine
 10
25.5
 20
-44.28993028396916
 30
0.0
 11
25.67505809669236
 21
-44.46498838066152
 31
0.0
  0
LINE
  5
819
330
1F
100
AcDbEntity
  8
2
  6
CONTINUOUS
370
25
 62
7
100
AcDbLine
 10
25.5
 20
-43.86566621525723
 30
0.0
 11
26.02861148728564
 21
-44.39427770254287
 31
0.0
  0
LINE
  5
81A
330
1F
100
AcDbEntity
  8
2
  6
CONTINUOUS
370
25
 62
7
100
AcDbLine
 10
25.5
 20
-43.44140214654529
 30
0.0
 11
26.38216487787892
 21
-44.32356702442421
 31
0.0
  0
LINE
  5
81B
330
1F
100
AcDbEntity
  8
2
  6
CONTINUOUS
370
25
 62
7
100
AcDbLine
 10
25.5
 20
-43.01713807783337
 30
0.0
 11
26.73571826847219
 21
-44.25285634630556
 31
0.0
  0
LINE
  5
81C
330
1F
100
AcDbEntity
  8
2
  6
CONTINUOUS
370
25
 62
7
100
AcDbLine
 10
25.5
 20
-42.59287400912143
 30
0.0
 11
27.08927165906547
 21
-44.18214566818691
 31
0.0
  0
LINE
  5
81D
330
1F
100
AcDbEntity
  8
2
  6
CONTINUOUS
370
25
 62
7
100
AcDbLine
 10
25.91423757448812
 20
-42.58284751489763
 30
0.0
 11
27.44282504965874
 21
-44.11143499006825
 31
0.0
  0
LINE
  5
81E
330
1F
100
AcDbEntity
  8
2
  6
CONTINUOUS
370
25
 62
7
100
AcDbLine
 10
26.44456766037804
 20
-42.68891353207561
 30
0.0
 11
27.79637844025202
 21
-44.0407243119496
 31
0.0
  0
LINE
  5
81F
330
1F
100
AcDbEntity
  8
2
  6
CONTINUOUS
370
25
 62
7
100
AcDbLine
 10
26.97489774626796
 20
-42.7949795492536
 30
0.0
 11
28.1499318308453
 21
-43.97001363383094
 31
0.0
  0
LINE
  5
820
330
1F
100
AcDbEntity
  8
2
  6
CONTINUOUS
370
25
 62
7
100
AcDbLine
 10
27.50522783215787
 20
-42.90104556643158
 30
0.0
 11
28.50348522143857
 21
-43.89930295571228
 31
0.0
  0
LINE
  5
821
330
1F
100
AcDbEntity
  8
2
  6
CONTINUOUS
370
25
 62
7
100
AcDbLine
 10
28.03555791804778
 20
-43.00711158360956
 30
0.0
 11
28.85703861203185
 21
-43.82859227759363
 31
0.0
  0
LINE
  5
822
330
1F
100
AcDbEntity
  8
2
  6
CONTINUOUS
370
25
 62
7
100
AcDbLine
 10
28.5658880039377
 20
-43.11317760078754
 30
0.0
 11
29.21059200262513
 21
-43.75788159947497
 31
0.0
  0
LINE
  5
823
330
1F
100
AcDbEntity
  8
2
  6
CONTINUOUS
370
25
 62
7
100
AcDbLine
 10
29.09621808982761
 20
-43.21924361796552
 30
0.0
 11
29.5641453932184
 21
-43.68717092135632
 31
0.0
  0
LINE
  5
824
330
1F
100
AcDbEntity
  8
2
  6
CONTINUOUS
370
25
 62
7
100
AcDbLine
 10
29.62654817571753
 20
-43.3253096351435
 30
0.0
 11
29.91769878381168
 21
-43.61646024323766
 31
0.0
  0
LINE
  5
825
330
1F
100
AcDbEntity
  8
2
  6
CONTINUOUS
370
25
 62
7
100
AcDbLine
 10
30.15687826160744
 20
-43.43137565232149
 30
0.0
 11
30.27125217440495
 21
-43.545749565119
 31
0.0
  0
LINE
  5
826
330
1F
100
AcDbEntity
  8
2
  6
CONTINUOUS
370
25
 62
7
100
AcDbLine
 10
48.0
 20
-43.5
 30
0.0
 11
53.0
 21
-42.5
 31
0.0
  0
LINE
  5
827
330
1F
100
AcDbEntity
  8
2
  6
CONTINUOUS
370
25
 62
7
100
AcDbLine
 10
53.0
 20
-42.5
 30
0.0
 11
53.0
 21
-44.5
 31
0.0
  0
LINE
  5
828
330
1F
100
AcDbEntity
  8
2
  6
CONTINUOUS
370
25
 62
7
100
AcDbLine
 10
53.0
 20
-44.5
 30
0.0
 11
48.0
 21
-43.5
 31
0.0
  0
LINE
  5
829
330
1F
100
AcDbEntity
  8
2
  6
CONTINUOUS
370
25
 62
7
100
AcDbLine
 10
52.85192605053686
 20
-44.47038521010738
 30
0.0
 11
53.0
 21
-44.32231126064424
 31
0.0
  0
LINE
  5
82A
330
1F
100
AcDbEntity
  8
2
  6
CONTINUOUS
370
25
 62
7
100
AcDbLine
 10
52.4983726599436
 20
-44.39967453198872
 30
0.0
 11
53.0
 21
-43.89804719193232
 31
0.0
  0
LINE
  5
82B
330
1F
100
AcDbEntity
  8
2
  6
CONTINUOUS
370
25
 62
7
100
AcDbLine
 10
52.14481926935031
 20
-44.32896385387006
 30
0.0
 11
53.0
 21
-43.47378312322039
 31
0.0
  0
LINE
  5
82C
330
1F
100
AcDbEntity
  8
2
  6
CONTINUOUS
370
25
 62
7
100
AcDbLine
 10
51.79126587875703
 20
-44.25825317575141
 30
0.0
 11
53.0
 21
-43.04951905450845
 31
0.0
  0
LINE
  5
82D
330
1F
100
AcDbEntity
  8
2
  6
CONTINUOUS
370
25
 62
7
100
AcDbLine
 10
51.43771248816375
 20
-44.18754249763276
 30
0.0
 11
53.0
 21
-42.62525498579652
 31
0.0
  0
LINE
  5
82E
330
1F
100
AcDbEntity
  8
2
  6
CONTINUOUS
370
25
 62
7
100
AcDbLine
 10
51.08415909757048
 20
-44.1168318195141
 30
0.0
 11
52.62623864635573
 21
-42.57475227072885
 31
0.0
  0
LINE
  5
82F
330
1F
100
AcDbEntity
  8
2
  6
CONTINUOUS
370
25
 62
7
100
AcDbLine
 10
50.73060570697721
 20
-44.04612114139545
 30
0.0
 11
52.09590856046583
 21
-42.68081828790683
 31
0.0
  0
LINE
  5
830
330
1F
100
AcDbEntity
  8
2
  6
CONTINUOUS
370
25
 62
7
100
AcDbLine
 10
50.37705231638393
 20
-43.97541046327679
 30
0.0
 11
51.56557847457591
 21
-42.78688430508481
 31
0.0
  0
LINE
  5
831
330
1F
100
AcDbEntity
  8
2
  6
CONTINUOUS
370
25
 62
7
100
AcDbLine
 10
50.02349892579065
 20
-43.90469978515813
 30
0.0
 11
51.03524838868599
 21
-42.8929503222628
 31
0.0
  0
LINE
  5
832
330
1F
100
AcDbEntity
  8
2
  6
CONTINUOUS
370
25
 62
7
100
AcDbLine
 10
49.66994553519738
 20
-43.83398910703948
 30
0.0
 11
50.50491830279608
 21
-42.99901633944079
 31
0.0
  0
LINE
  5
833
330
1F
100
AcDbEntity
  8
2
  6
CONTINUOUS
370
25
 62
7
100
AcDbLine
 10
49.31639214460411
 20
-43.76327842892083
 30
0.0
 11
49.97458821690617
 21
-43.10508235661877
 31
0.0
  0
LINE
  5
834
330
1F
100
AcDbEntity
  8
2
  6
CONTINUOUS
370
25
 62
7
100
AcDbLine
 10
48.96283875401082
 20
-43.69256775080217
 30
0.0
 11
49.44425813101625
 21
-43.21114837379675
 31
0.0
  0
LINE
  5
835
330
1F
100
AcDbEntity
  8
2
  6
CONTINUOUS
370
25
 62
7
100
AcDbLine
 10
48.60928536341756
 20
-43.62185707268351
 30
0.0
 11
48.91392804512634
 21
-43.31721439097473
 31
0.0
  0
LINE
  5
836
330
1F
100
AcDbEntity
  8
2
  6
CONTINUOUS
370
25
 62
7
100
AcDbLine
 10
48.25573197282427
 20
-43.55114639456486
 30
0.0
 11
48.38359795923642
 21
-43.42328040815271
 31
0.0
  0
LINE
  5
837
330
1F
100
AcDbEntity
  8
2
  6
CONTINUOUS
370
25
 62
7
100
AcDbLine
 10
48.06050184310199
 20
-43.48789963137961
 30
0.0
 11
48.09075276465298
 21
-43.51815055293059
 31
0.0
  0
LINE
  5
838
330
1F
100
AcDbEntity
  8
2
  6
CONTINUOUS
370
25
 62
7
100
AcDbLine
 10
48.41405523369527
 20
-43.41718895326095
 30
0.0
 11
48.62108285054289
 21
-43.62421657010858
 31
0.0
  0
LINE
  5
839
330
1F
100
AcDbEntity
  8
2
  6
CONTINUOUS
370
25
 62
7
100
AcDbLine
 10
48.76760862428854
 20
-43.34647827514229
 30
0.0
 11
49.15141293643281
 21
-43.73028258728657
 31
0.0
  0
LINE
  5
83A
330
1F
100
AcDbEntity
  8
2
  6
CONTINUOUS
370
25
 62
7
100
AcDbLine
 10
49.12116201488182
 20
-43.27576759702364
 30
0.0
 11
49.68174302232272
 21
-43.83634860446455
 31
0.0
  0
LINE
  5
83B
330
1F
100
AcDbEntity
  8
2
  6
CONTINUOUS
370
25
 62
7
100
AcDbLine
 10
49.47471540547509
 20
-43.20505691890499
 30
0.0
 11
50.21207310821264
 21
-43.94241462164253
 31
0.0
  0
LINE
  5
83C
330
1F
100
AcDbEntity
  8
2
  6
CONTINUOUS
370
25
 62
7
100
AcDbLine
 10
49.82826879606836
 20
-43.13434624078633
 30
0.0
 11
50.74240319410255
 21
-44.04848063882051
 31
0.0
  0
LINE
  5
83D
330
1F
100
AcDbEntity
  8
2
  6
CONTINUOUS
370
25
 62
7
100
AcDbLine
 10
50.18182218666164
 20
-43.06363556266767
 30
0.0
 11
51.27273327999247
 21
-44.15454665599849
 31
0.0
  0
LINE
  5
83E
330
1F
100
AcDbEntity
  8
2
  6
CONTINUOUS
370
25
 62
7
100
AcDbLine
 10
50.53537557725492
 20
-42.99292488454901
 30
0.0
 11
51.80306336588238
 21
-44.26061267317648
 31
0.0
  0
LINE
  5
83F
330
1F
100
AcDbEntity
  8
2
  6
CONTINUOUS
370
25
 62
7
100
AcDbLine
 10
50.88892896784819
 20
-42.92221420643035
 30
0.0
 11
52.3333934517723
 21
-44.36667869035446
 31
0.0
  0
LINE
  5
840
330
1F
100
AcDbEntity
  8
2
  6
CONTINUOUS
370
25
 62
7
100
AcDbLine
 10
51.24248235844147
 20
-42.8515035283117
 30
0.0
 11
52.86372353766221
 21
-44.47274470753244
 31
0.0
  0
LINE
  5
841
330
1F
100
AcDbEntity
  8
2
  6
CONTINUOUS
370
25
 62
7
100
AcDbLine
 10
51.59603574903475
 20
-42.78079285019305
 30
0.0
 11
53.0
 21
-44.1847571011583
 31
0.0
  0
LINE
  5
842
330
1F
100
AcDbEntity
  8
2
  6
CONTINUOUS
370
25
 62
7
100
AcDbLine
 10
51.94958913962802
 20
-42.71008217207439
 30
0.0
 11
53.0
 21
-43.76049303244636
 31
0.0
  0
LINE
  5
843
330
1F
100
AcDbEntity
  8
2
  6
CONTINUOUS
370
25
 62
7
100
AcDbLine
 10
52.3031425302213
 20
-42.63937149395574
 30
0.0
 11
53.0
 21
-43.33622896373443
 31
0.0
  0
LINE
  5
844
330
1F
100
AcDbEntity
  8
2
  6
CONTINUOUS
370
25
 62
7
100
AcDbLine
 10
52.65669592081458
 20
-42.56866081583708
 30
0.0
 11
53.0
 21
-42.91196489502251
 31
0.0
  0
TEXT
  5
845
330
1F
100
AcDbEntity
  8
2
  6
CONTINUOUS
370
25
 62
7
100
AcDbText
 10
34.58333333333334
 20
-42.0
 30
0.0
 40
3.5
  1
17.5
 72
     1
 11
39.25
 21
-42.0
 31
0.0
100
AcDbText
  0
LINE
  5
846
330
1F
100
AcDbEntity
  8
4
  6
LONGDASH_DASH
370
25
 62
2
100
AcDbLine
 10
29.9
 20
0.0
 30
0.0
 11
48.0
 21
0.0
 31
0.0
  0
LINE
  5
847
330
1F
100
AcDbEntity
  8
SK4
  6
LONGDASH_DASH
370
25
 62
2
100
AcDbLine
 10
-6.0
 20
0.0
 30
0.0
 11
54.0
 21
0.0
 31
0.0
  0
LINE
  5
848
330
1F
100
AcDbEntity
  8
2
  6
CONTINUOUS
370
25
 62
7
100
AcDbLine
 10
48.0
 20
0.0
 30
0.0
 11
56.87498349655469
 21
19.03246352776965
 31
0.0
  0
LINE
  5
849
330
1F
100
AcDbEntity
  8
2
  6
CONTINUOUS
370
25
 62
7
100
AcDbLine
 10
48.0
 20
0.0
 30
0.0
 11
56.87498349655469
 21
-19.03246352776965
 31
0.0
  0
ARC
  5
84A
330
1F
100
AcDbEntity
  8
2
  6
CONTINUOUS
370
25
 62
7
100
AcDbCircle
 10
48.00000000000001
 20
-0.0000000000000017
 30
0.0
 40
19.99999999999999
100
AcDbArc
 50
295.0000000000001
 51
65.00000000000001
  0
LINE
  5
84B
330
1F
100
AcDbEntity
  8
2
  6
CONTINUOUS
370
25
 62
7
100
AcDbLine
 10
56.452365234814
 20
18.12615574073299
 30
0.0
 11
61.21681775672375
 21
16.30956768438455
 31
0.0
  0
LINE
  5
84C
330
1F
100
AcDbEntity
  8
2
  6
CONTINUOUS
370
25
 62
7
100
AcDbLine
 10
61.21681775672375
 20
16.30956768438455
 30
0.0
 11
60.15163369490437
 21
14.61682348798453
 31
0.0
  0
LINE
  5
84D
330
1F
100
AcDbEntity
  8
2
  6
CONTINUOUS
370
25
 62
7
100
AcDbLine
 10
60.15163369490437
 20
14.61682348798453
 30
0.0
 11
56.452365234814
 21
18.12615574073299
 31
0.0
  0
LINE
  5
84E
330
1F
100
AcDbEntity
  8
2
  6
CONTINUOUS
370
25
 62
7
100
AcDbLine
 10
59.9488284114835
 20
14.80921588389063
 30
0.0
 11
60.82241924371618
 21
15.6828067161233
 31
0.0
  0
LINE
  5
84F
330
1F
100
AcDbEntity
  8
2
  6
CONTINUOUS
370
25
 62
7
100
AcDbLine
 10
59.73110700470058
 20
15.01575854581963
 30
0.0
 11
61.07788742871143
 21
16.36253896983049
 31
0.0
  0
LINE
  5
850
330
1F
100
AcDbEntity
  8
2
  6
CONTINUOUS
370
25
 62
7
100
AcDbLine
 10
59.51338559791766
 20
15.22230120774864
 30
0.0
 11
60.77073448107451
 21
16.4796500909055
 31
0.0
  0
LINE
  5
851
330
1F
100
AcDbEntity
  8
2
  6
CONTINUOUS
370
25
 62
7
100
AcDbLine
 10
59.29566419113473
 20
15.42884386967765
 30
0.0
 11
60.46358153343758
 21
16.5967612119805
 31
0.0
  0
LINE
  5
852
330
1F
100
AcDbEntity
  8
2
  6
CONTINUOUS
370
25
 62
7
100
AcDbLine
 10
59.07794278435181
 20
15.63538653160665
 30
0.0
 11
60.15642858580065
 21
16.71387233305549
 31
0.0
  0
LINE
  5
853
330
1F
100
AcDbEntity
  8
2
  6
CONTINUOUS
370
25
 62
7
100
AcDbLine
 10
58.86022137756889
 20
15.84192919353566
 30
0.0
 11
59.84927563816372
 21
16.83098345413049
 31
0.0
  0
LINE
  5
854
330
1F
100
AcDbEntity
  8
2
  6
CONTINUOUS
370
25
 62
7
100
AcDbLine
 10
58.64249997078596
 20
16.04847185546466
 30
0.0
 11
59.5421226905268
 21
16.94809457520549
 31
0.0
  0
LINE
  5
855
330
1F
100
AcDbEntity
  8
2
  6
CONTINUOUS
370
25
 62
7
100
AcDbLine
 10
58.42477856400304
 20
16.25501451739367
 30
0.0
 11
59.23496974288987
 21
17.0652056962805
 31
0.0
  0
LINE
  5
856
330
1F
100
AcDbEntity
  8
2
  6
CONTINUOUS
370
25
 62
7
100
AcDbLine
 10
58.20705715722012
 20
16.46155717932267
 30
0.0
 11
58.92781679525294
 21
17.1823168173555
 31
0.0
  0
LINE
  5
857
330
1F
100
AcDbEntity
  8
2
  6
CONTINUOUS
370
25
 62
7
100
AcDbLine
 10
57.98933575043719
 20
16.66809984125168
 30
0.0
 11
58.620663847616
 21
17.29942793843049
 31
0.0
  0
LINE
  5
858
330
1F
100
AcDbEntity
  8
2
  6
CONTINUOUS
370
25
 62
7
100
AcDbLine
 10
57.77161434365428
 20
16.87464250318069
 30
0.0
 11
58.31351089997908
 21
17.4165390595055
 31
0.0
  0
LINE
  5
859
330
1F
100
AcDbEntity
  8
2
  6
CONTINUOUS
370
25
 62
7
100
AcDbLine
 10
57.55389293687135
 20
17.08118516510969
 30
0.0
 11
58.00635795234216
 21
17.5336501805805
 31
0.0
  0
LINE
  5
85A
330
1F
100
AcDbEntity
  8
2
  6
CONTINUOUS
370
25
 62
7
100
AcDbLine
 10
57.33617153008843
 20
17.2877278270387
 30
0.0
 11
57.69920500470522
 21
17.6507613016555
 31
0.0
  0
LINE
  5
85B
330
1F
100
AcDbEntity
  8
2
  6
CONTINUOUS
370
25
 62
7
100
AcDbLine
 10
57.11845012330551
 20
17.4942704889677
 30
0.0
 11
57.3920520570683
 21
17.7678724227305
 31
0.0
  0
LINE
  5
85C
330
1F
100
AcDbEntity
  8
2
  6
CONTINUOUS
370
25
 62
7
100
AcDbLine
 10
56.90072871652258
 20
17.70081315089671
 30
0.0
 11
57.08489910943136
 21
17.88498354380549
 31
0.0
  0
LINE
  5
85D
330
1F
100
AcDbEntity
  8
2
  6
CONTINUOUS
370
25
 62
7
100
AcDbLine
 10
56.68300730973966
 20
17.90735581282572
 30
0.0
 11
56.77774616179443
 21
18.0020946648805
 31
0.0
  0
LINE
  5
85E
330
1F
100
AcDbEntity
  8
2
  6
CONTINUOUS
370
25
 62
7
100
AcDbLine
 10
56.46528590295674
 20
18.11389847475472
 30
0.0
 11
56.47059321415752
 21
18.1192057859555
 31
0.0
  0
LINE
  5
85F
330
1F
100
AcDbEntity
  8
2
  6
CONTINUOUS
370
25
 62
7
100
AcDbLine
 10
56.92668329285155
 20
17.9453079906129
 30
0.0
 11
60.19162127379052
 21
14.68037000967394
 31
0.0
  0
LINE
  5
860
330
1F
100
AcDbEntity
  8
2
  6
CONTINUOUS
370
25
 62
7
100
AcDbLine
 10
57.61239528393706
 20
17.68386006823932
 30
0.0
 11
60.35548315911976
 21
14.94077219305664
 31
0.0
  0
LINE
  5
861
330
1F
100
AcDbEntity
  8
2
  6
CONTINUOUS
370
25
 62
7
100
AcDbLine
 10
58.29810727502257
 20
17.42241214586575
 30
0.0
 11
60.51934504444898
 21
15.20117437643934
 31
0.0
  0
LINE
  5
862
330
1F
100
AcDbEntity
  8
2
  6
CONTINUOUS
370
25
 62
7
100
AcDbLine
 10
58.98381926610807
 20
17.16096422349218
 30
0.0
 11
60.68320692977822
 21
15.46157655982203
 31
0.0
  0
LINE
  5
863
330
1F
100
AcDbEntity
  8
2
  6
CONTINUOUS
370
25
 62
7
100
AcDbLine
 10
59.66953125719358
 20
16.8995163011186
 30
0.0
 11
60.84706881510745
 21
15.72197874320474
 31
0.0
  0
LINE
  5
864
330
1F
100
AcDbEntity
  8
2
  6
CONTINUOUS
370
25
 62
7
100
AcDbLine
 10
60.35524324827908
 20
16.63806837874503
 30
0.0
 11
61.01093070043667
 21
15.98238092658744
 31
0.0
  0
LINE
  5
865
330
1F
100
AcDbEntity
  8
2
  6
CONTINUOUS
370
25
 62
7
100
AcDbLine
 10
61.04095523936459
 20
16.37662045637145
 30
0.0
 11
61.1747925857659
 21
16.24278310997014
 31
0.0
  0
LINE
  5
866
330
1F
100
AcDbEntity
  8
2
  6
CONTINUOUS
370
25
 62
7
100
AcDbLine
 10
56.45236523481398
 20
-18.126155740733
 30
0.0
 11
60.15163369490435
 21
-14.61682348798453
 31
0.0
  0
LINE
  5
867
330
1F
100
AcDbEntity
  8
2
  6
CONTINUOUS
370
25
 62
7
100
AcDbLine
 10
60.15163369490435
 20
-14.61682348798453
 30
0.0
 11
61.21681775672374
 21
-16.30956768438455
 31
0.0
  0
LINE
  5
868
330
1F
100
AcDbEntity
  8
2
  6
CONTINUOUS
370
25
 62
7
100
AcDbLine
 10
61.21681775672374
 20
-16.30956768438455
 30
0.0
 11
56.45236523481398
 21
-18.126155740733
 31
0.0
  0
LINE
  5
869
330
1F
100
AcDbEntity
  8
2
  6
CONTINUOUS
370
25
 62
7
100
AcDbLine
 10
60.54175384396555
 20
-16.56695571281994
 30
0.0
 11
61.05550040060288
 21
-16.05320915618261
 31
0.0
  0
LINE
  5
86A
330
1F
100
AcDbEntity
  8
2
  6
CONTINUOUS
370
25
 62
7
100
AcDbLine
 10
59.85604185288006
 20
-16.82840363519351
 30
0.0
 11
60.89163851527365
 21
-15.79280697279992
 31
0.0
  0
LINE
  5
86B
330
1F
100
AcDbEntity
  8
2
  6
CONTINUOUS
370
25
 62
7
100
AcDbLine
 10
59.17032986179456
 20
-17.08985155756709
 30
0.0
 11
60.72777662994442
 21
-15.53240478941721
 31
0.0
  0
LINE
  5
86C
330
1F
100
AcDbEntity
  8
2
  6
CONTINUOUS
370
25
 62
7
100
AcDbLine
 10
58.48461787070906
 20
-17.35129947994066
 30
0.0
 11
60.56391474461519
 21
-15.27200260603452
 31
0.0
  0
LINE
  5
86D
330
1F
100
AcDbEntity
  8
2
  6
CONTINUOUS
370
25
 62
7
100
AcDbLine
 10
57.79890587962356
 20
-17.61274740231423
 30
0.0
 11
60.40005285928596
 21
-15.01160042265182
 31
0.0
  0
LINE
  5
86E
330
1F
100
AcDbEntity
  8
2
  6
CONTINUOUS
370
25
 62
7
100
AcDbLine
 10
57.11319388853806
 20
-17.8741953246878
 30
0.0
 11
60.23619097395673
 21
-14.75119823926912
 31
0.0
  0
LINE
  5
86F
330
1F
100
AcDbEntity
  8
2
  6
CONTINUOUS
370
25
 62
7
100
AcDbLine
 10
56.48267940421394
 20
-18.09739802997526
 30
0.0
 11
56.49513129362255
 21
-18.10984991938387
 31
0.0
  0
LINE
  5
870
330
1F
100
AcDbEntity
  8
2
  6
CONTINUOUS
370
25
 62
7
100
AcDbLine
 10
56.70040081099685
 20
-17.89085536804625
 30
0.0
 11
56.80228424125947
 21
-17.99273879830886
 31
0.0
  0
LINE
  5
871
330
1F
100
AcDbEntity
  8
2
  6
CONTINUOUS
370
25
 62
7
100
AcDbLine
 10
56.91812221777978
 20
-17.68431270611724
 30
0.0
 11
57.1094371888964
 21
-17.87562767723386
 31
0.0
  0
LINE
  5
872
330
1F
100
AcDbEntity
  8
2
  6
CONTINUOUS
370
25
 62
7
100
AcDbLine
 10
57.13584362456271
 20
-17.47777004418824
 30
0.0
 11
57.41659013653333
 21
-17.75851655615886
 31
0.0
  0
LINE
  5
873
330
1F
100
AcDbEntity
  8
2
  6
CONTINUOUS
370
25
 62
7
100
AcDbLine
 10
57.35356503134562
 20
-17.27122738225923
 30
0.0
 11
57.72374308417025
 21
-17.64140543508386
 31
0.0
  0
LINE
  5
874
330
1F
100
AcDbEntity
  8
2
  6
CONTINUOUS
370
25
 62
7
100
AcDbLine
 10
57.57128643812855
 20
-17.06468472033022
 30
0.0
 11
58.03089603180719
 21
-17.52429431400886
 31
0.0
  0
LINE
  5
875
330
1F
100
AcDbEntity
  8
2
  6
CONTINUOUS
370
25
 62
7
100
AcDbLine
 10
57.78900784491147
 20
-16.85814205840122
 30
0.0
 11
58.33804897944411
 21
-17.40718319293385
 31
0.0
  0
LINE
  5
876
330
1F
100
AcDbEntity
  8
2
  6
CONTINUOUS
370
25
 62
7
100
AcDbLine
 10
58.0067292516944
 20
-16.65159939647221
 30
0.0
 11
58.64520192708105
 21
-17.29007207185885
 31
0.0
  0
LINE
  5
877
330
1F
100
AcDbEntity
  8
2
  6
CONTINUOUS
370
25
 62
7
100
AcDbLine
 10
58.22445065847732
 20
-16.4450567345432
 30
0.0
 11
58.95235487471798
 21
-17.17296095078386
 31
0.0
  0
LINE
  5
878
330
1F
100
AcDbEntity
  8
2
  6
CONTINUOUS
370
25
 62
7
100
AcDbLine
 10
58.44217206526024
 20
-16.23851407261419
 30
0.0
 11
59.25950782235491
 21
-17.05584982970885
 31
0.0
  0
LINE
  5
879
330
1F
100
AcDbEntity
  8
2
  6
CONTINUOUS
370
25
 62
7
100
AcDbLine
 10
58.65989347204317
 20
-16.03197141068519
 30
0.0
 11
59.56666076999183
 21
-16.93873870863386
 31
0.0
  0
LINE
  5
87A
330
1F
100
AcDbEntity
  8
2
  6
CONTINUOUS
370
25
 62
7
100
AcDbLine
 10
58.87761487882609
 20
-15.82542874875618
 30
0.0
 11
59.87381371762876
 21
-16.82162758755885
 31
0.0
  0
LINE
  5
87B
330
1F
100
AcDbEntity
  8
2
  6
CONTINUOUS
370
25
 62
7
100
AcDbLine
 10
59.09533628560901
 20
-15.61888608682718
 30
0.0
 11
60.18096666526569
 21
-16.70451646648385
 31
0.0
  0
LINE
  5
87C
330
1F
100
AcDbEntity
  8
2
  6
CONTINUOUS
370
25
 62
7
100
AcDbLine
 10
59.31305769239194
 20
-15.41234342489817
 30
0.0
 11
60.48811961290262
 21
-16.58740534540885
 31
0.0
  0
LINE
  5
87D
330
1F
100
AcDbEntity
  8
2
  6
CONTINUOUS
370
25
 62
7
100
AcDbLine
 10
59.53077909917486
 20
-15.20580076296917
 30
0.0
 11
60.79527256053954
 21
-16.47029422433385
 31
0.0
  0
LINE
  5
87E
330
1F
100
AcDbEntity
  8
2
  6
CONTINUOUS
370
25
 62
7
100
AcDbLine
 10
59.74850050595778
 20
-14.99925810104016
 30
0.0
 11
61.10242550817648
 21
-16.35318310325885
 31
0.0
  0
LINE
  5
87F
330
1F
100
AcDbEntity
  8
2
  6
CONTINUOUS
370
25
 62
7
100
AcDbLine
 10
59.96622191274071
 20
-14.79271543911116
 30
0.0
 11
60.76488963161838
 21
-15.59138315798882
 31
0.0
  0
TEXT
  5
880
330
1F
100
AcDbEntity
  8
2
  6
CONTINUOUS
370
25
 62
7
100
AcDbText
 10
65.5
 20
-4.958333333333333
 30
0.0
 40
3.5
  1
130°
 50
90.0
 72
     1
 11
65.5
 21
0.0
 31
0.0
100
AcDbText
  0
LINE
  5
881
330
1F
100
AcDbEntity
  8
SK1
  6
CONTINUOUS
370
50
 62
4
100
AcDbLine
 10
29.9
 20
0.0
 30
0.0
 11
32.525
 21
0.0
 31
0.0
  0
LINE
  5
882
330
1F
100
AcDbEntity
  8
SK1
  6
CONTINUOUS
370
50
 62
4
100
AcDbLine
 10
29.9
 20
0.0
 30
0.0
 11
29.9
 21
2.625
 31
0.0
  0
ARC
  5
883
330
1F
100
AcDbEntity
  8
SK1
  6
CONTINUOUS
370
50
 62
4
100
AcDbCircle
 10
29.9
 20
0.0
 30
0.0
 40
2.625
100
AcDbArc
 50
0.0
 51
90.0
  0
LINE
  5
884
330
1F
100
AcDbEntity
  8
SK1
  6
CONTINUOUS
370
50
 62
4
100
AcDbLine
 10
29.9
 20
0.0
 30
0.0
 11
27.275
 21
0.0
 31
0.0
  0
ARC
  5
885
330
1F
100
AcDbEntity
  8
SK1
  6
CONTINUOUS
370
50
 62
4
100
AcDbCircle
 10
29.9
 20
0.0
 30
0.0
 40
2.625
100
AcDbArc
 50
180.0
 51
270.0
  0
LINE
  5
886
330
1F
100
AcDbEntity
  8
SK1
  6
CONTINUOUS
370
50
 62
4
100
AcDbLine
 10
29.9
 20
-2.625
 30
0.0
 11
29.9
 21
0.0
 31
0.0
  0
ARC
  5
887
330
1F
100
AcDbEntity
  8
SK1
  6
CONTINUOUS
370
50
 62
4
100
AcDbCircle
 10
29.9
 20
0.0
 30
0.0
 40
2.625
100
AcDbArc
 50
270.0
 51
0.0
  0
ARC
  5
888
330
1F
100
AcDbEntity
  8
SK1
  6
CONTINUOUS
370
50
 62
4
100
AcDbCircle
 10
29.9
 20
0.0
 30
0.0
 40
2.625
100
AcDbArc
 50
90.0
 51
180.0
  0
LINE
  5
889
330
1F
100
AcDbEntity
  8
SK1
  6
CONTINUOUS
370
50
 62
4
100
AcDbLine
 10
29.56575722192681
 20
-2.60347067499975
 30
0.0
 11
29.9
 21
-2.269227896926564
 31
0.0
  0
LINE
  5
88A
330
1F
100
AcDbEntity
  8
SK1
  6
CONTINUOUS
370
50
 62
4
100
AcDbLine
 10
32.16922789692656
 20
0.0
 30
0.0
 11
32.50347067499975
 21
0.3342427780731851
 31
0.0
  0
LINE
  5
88B
330
1F
100
AcDbEntity
  8
SK1
  6
CONTINUOUS
370
50
 62
4
100
AcDbLine
 10
29.25395391214687
 20
-2.544042924656761
 30
0.0
 11
29.9
 21
-1.897996836803626
 31
0.0
  0
LINE
  5
88C
330
1F
100
AcDbEntity
  8
SK1
  6
CONTINUOUS
370
50
 62
4
100
AcDbLine
 10
31.79799683680363
 20
0.0
 30
0.0
 11
32.44404292465676
 21
0.6460460878531347
 31
0.0
  0
LINE
  5
88D
330
1F
100
AcDbEntity
  8
SK1
  6
CONTINUOUS
370
50
 62
4
100
AcDbLine
 10
28.97222348891575
 20
-2.454542287764935
 30
0.0
 11
29.9
 21
-1.526765776680689
 31
0.0
  0
LINE
  5
88E
330
1F
100
AcDbEntity
  8
SK1
  6
CONTINUOUS
370
50
 62
4
100
AcDbLine
 10
31.42676577668069
 20
0.0
 30
0.0
 11
32.35454228776494
 21
0.9277765110842457
 31
0.0
  0
LINE
  5
88F
330
1F
100
AcDbEntity
  8
SK1
  6
CONTINUOUS
370
50
 62
4
100
AcDbLine
 10
28.71478120678253
 20
-2.340753509775221
 30
0.0
 11
29.9
 21
-1.155534716557751
 31
0.0
  0
LINE
  5
890
330
1F
100
AcDbEntity
  8
SK1
  6
CONTINUOUS
370
50
 62
4
100
AcDbLine
 10
31.05553471655775
 20
0.0
 30
0.0
 11
32.24075350977522
 21
1.185218793217471
 31
0.0
  0
LINE
  5
891
330
1F
100
AcDbEntity
  8
SK1
  6
CONTINUOUS
370
50
 62
4
100
AcDbLine
 10
28.47826543845547
 20
-2.206038217979337
 30
0.0
 11
29.9
 21
-0.7843036564348136
 31
0.0
  0
LINE
  5
892
330
1F
100
AcDbEntity
  8
SK1
  6
CONTINUOUS
370
50
 62
4
100
AcDbLine
 10
30.68430365643481
 20
0.0
 30
0.0
 11
32.10603821797933
 21
1.421734561544524
 31
0.0
  0
LINE
  5
893
330
1F
100
AcDbEntity
  8
SK1
  6
CONTINUOUS
370
50
 62
4
100
AcDbLine
 10
28.2626431117109
 20
-2.050429484600978
 30
0.0
 11
29.9
 21
-0.413072596311876
 31
0.0
  0
LINE
  5
894
330
1F
100
AcDbEntity
  8
SK1
  6
CONTINUOUS
370
50
 62
4
100
AcDbLine
 10
30.31307259631188
 20
0.0
 30
0.0
 11
31.95042948460097
 21
1.637356888289101
 31
0.0
  0
LINE
  5
895
330
1F
100
AcDbEntity
  8
SK1
  6
CONTINUOUS
370
50
 62
4
100
AcDbLine
 10
28.06568136807246
 20
-1.876160168116476
 30
0.0
 11
29.9
 21
-0.0418415361889384
 31
0.0
  0
LINE
  5
896
330
1F
100
AcDbEntity
  8
SK1
  6
CONTINUOUS
370
50
 62
4
100
AcDbLine
 10
29.94184153618894
 20
0.0
 30
0.0
 11
31.77616016811647
 21
1.834318631927537
 31
0.0
  0
LINE
  5
897
330
1F
100
AcDbEntity
  8
SK1
  6
CONTINUOUS
370
50
 62
4
100
AcDbLine
 10
27.88675942477632
 20
-1.683851051289679
 30
0.0
 11
29.570610476066
 21
0.0
 31
0.0
  0
LINE
  5
898
330
1F
100
AcDbEntity
  8
SK1
  6
CONTINUOUS
370
50
 62
4
100
AcDbLine
 10
29.9
 20
0.3293895239339992
 30
0.0
 11
31.58385105128968
 21
2.013240575223679
 31
0.0
  0
LINE
  5
899
330
1F
100
AcDbEntity
  8
SK1
  6
CONTINUOUS
370
50
 62
4
100
AcDbLine
 10
27.72782161830506
 20
-1.471557797638
 30
0.0
 11
29.19937941594306
 21
0.0
 31
0.0
  0
LINE
  5
89A
330
1F
100
AcDbEntity
  8
SK1
  6
CONTINUOUS
370
50
 62
4
100
AcDbLine
 10
29.9
 20
0.7006205840569368
 30
0.0
 11
31.371557797638
 21
2.172178381694937
 31
0.0
  0
LINE
  5
89B
330
1F
100
AcDbEntity
  8
SK1
  6
CONTINUOUS
370
50
 62
4
100
AcDbLine
 10
27.58749288718529
 20
-1.240655468634837
 30
0.0
 11
28.82814835582013
 21
0.0
 31
0.0
  0
LINE
  5
89C
330
1F
100
AcDbEntity
  8
SK1
  6
CONTINUOUS
370
50
 62
4
100
AcDbLine
 10
29.9
 20
1.071851644179874
 30
0.0
 11
31.14065546863484
 21
2.312507112814711
 31
0.0
  0
LINE
  5
89D
330
1F
100
AcDbEntity
  8
SK1
  6
CONTINUOUS
370
50
 62
4
100
AcDbLine
 10
27.46877644288388
 20
-0.9881408528133115
 30
0.0
 11
28.45691729569719
 21
0.0
 31
0.0
  0
LINE
  5
89E
330
1F
100
AcDbEntity
  8
SK1
  6
CONTINUOUS
370
50
 62
4
100
AcDbLine
 10
29.9
 20
1.443082704302812
 30
0.0
 11
30.88814085281331
 21
2.431223557116124
 31
0.0
  0
LINE
  5
89F
330
1F
100
AcDbEntity
  8
SK1
  6
CONTINUOUS
370
50
 62
4
100
AcDbLine
 10
27.37444482033456
 20
-0.7112414152396886
 30
0.0
 11
28.08568623557425
 21
0.0
 31
0.0
  0
LINE
  5
8A0
330
1F
100
AcDbEntity
  8
SK1
  6
CONTINUOUS
370
50
 62
4
100
AcDbLine
 10
29.9
 20
1.81431376442575
 30
0.0
 11
30.61124141523969
 21
2.525555179665439
 31
0.0
  0
LINE
  5
8A1
330
1F
100
AcDbEntity
  8
SK1
  6
CONTINUOUS
370
50
 62
4
100
AcDbLine
 10
27.30797120571085
 20
-0.4064839697404632
 30
0.0
 11
27.71445517545131
 21
0.0
 31
0.0
  0
LINE
  5
8A2
330
1F
100
AcDbEntity
  8
SK1
  6
CONTINUOUS
370
50
 62
4
100
AcDbLine
 10
29.9
 20
2.185544824548687
 30
0.0
 11
30.30648396974046
 21
2.59202879428915
 31
0.0
  0
LINE
  5
8A3
330
1F
100
AcDbEntity
  8
SK1
  6
CONTINUOUS
370
50
 62
4
100
AcDbLine
 10
27.27707870331546
 20
-0.0661454120129097
 30
0.0
 11
27.34322411532838
 21
0.0
 31
0.0
  0
LINE
  5
8A4
330
1F
100
AcDbEntity
  8
SK1
  6
CONTINUOUS
370
50
 62
4
100
AcDbLine
 10
29.9
 20
2.556775884671625
 30
0.0
 11
29.96614541201291
 21
2.622921296684535
 31
0.0
  0
LINE
  5
8A5
330
1F
100
AcDbEntity
  8
SK1
  6
CONTINUOUS
370
50
 62
4
100
AcDbLine
 10
27.44579652643623
 20
-0.9287176037316112
 30
0.0
 11
28.97128239626839
 21
-2.454203473563768
 31
0.0
  0
LINE
  5
8A6
330
1F
100
AcDbEntity
  8
SK1
  6
CONTINUOUS
370
50
 62
4
100
AcDbLine
 10
27.31045104563307
 20
-0.4221410628055069
 30
0.0
 11
29.47785893719449
 21
-2.589548954366935
 31
0.0
  0
LINE
  5
8A7
330
1F
100
AcDbEntity
  8
SK1
  6
CONTINUOUS
370
50
 62
4
100
AcDbLine
 10
27.27550158008622
 20
-0.0159605371357268
 30
0.0
 11
29.88403946286428
 21
-2.624498419913778
 31
0.0
  0
LINE
  5
8A8
330
1F
100
AcDbEntity
  8
SK1
  6
CONTINUOUS
370
50
 62
4
100
AcDbLine
 10
27.63077210307343
 20
0.0
 30
0.0
 11
29.9
 21
-2.269227896926564
 31
0.0
  0
LINE
  5
8A9
330
1F
100
AcDbEntity
  8
SK1
  6
CONTINUOUS
370
50
 62
4
100
AcDbLine
 10
28.00200316319637
 20
0.0
 30
0.0
 11
29.9
 21
-1.897996836803626
 31
0.0
  0
LINE
  5
8AA
330
1F
100
AcDbEntity
  8
SK1
  6
CONTINUOUS
370
50
 62
4
100
AcDbLine
 10
28.37323422331931
 20
0.0
 30
0.0
 11
29.9
 21
-1.526765776680689
 31
0.0
  0
LINE
  5
8AB
330
1F
100
AcDbEntity
  8
SK1
  6
CONTINUOUS
370
50
 62
4
100
AcDbLine
 10
28.74446528344225
 20
0.0
 30
0.0
 11
29.9
 21
-1.155534716557752
 31
0.0
  0
LINE
  5
8AC
330
1F
100
AcDbEntity
  8
SK1
  6
CONTINUOUS
370
50
 62
4
100
AcDbLine
 10
29.11569634356518
 20
0.0
 30
0.0
 11
29.9
 21
-0.7843036564348145
 31
0.0
  0
LINE
  5
8AD
330
1F
100
AcDbEntity
  8
SK1
  6
CONTINUOUS
370
50
 62
4
100
AcDbLine
 10
29.48692740368812
 20
0.0
 30
0.0
 11
29.9
 21
-0.4130725963118769
 31
0.0
  0
LINE
  5
8AE
330
1F
100
AcDbEntity
  8
SK1
  6
CONTINUOUS
370
50
 62
4
100
AcDbLine
 10
29.85815846381106
 20
0.0
 30
0.0
 11
29.9
 21
-0.0418415361889393
 31
0.0
  0
LINE
  5
8AF
330
1F
100
AcDbEntity
  8
SK1
  6
CONTINUOUS
370
50
 62
4
100
AcDbLine
 10
29.9
 20
0.3293895239339975
 30
0.0
 11
30.229389523934
 21
0.0
 31
0.0
  0
LINE
  5
8B0
330
1F
100
AcDbEntity
  8
SK1
  6
CONTINUOUS
370
50
 62
4
100
AcDbLine
 10
29.9
 20
0.7006205840569351
 30
0.0
 11
30.60062058405693
 21
0.0
 31
0.0
  0
LINE
  5
8B1
330
1F
100
AcDbEntity
  8
SK1
  6
CONTINUOUS
370
50
 62
4
100
AcDbLine
 10
29.9
 20
1.071851644179873
 30
0.0
 11
30.97185164417987
 21
0.0
 31
0.0
  0
LINE
  5
8B2
330
1F
100
AcDbEntity
  8
SK1
  6
CONTINUOUS
370
50
 62
4
100
AcDbLine
 10
29.9
 20
1.44308270430281
 30
0.0
 11
31.34308270430281
 21
0.0
 31
0.0
  0
LINE
  5
8B3
330
1F
100
AcDbEntity
  8
SK1
  6
CONTINUOUS
370
50
 62
4
100
AcDbLine
 10
29.9
 20
1.814313764425748
 30
0.0
 11
31.71431376442575
 21
0.0
 31
0.0
  0
LINE
  5
8B4
330
1F
100
AcDbEntity
  8
SK1
  6
CONTINUOUS
370
50
 62
4
100
AcDbLine
 10
29.9
 20
2.185544824548685
 30
0.0
 11
32.08554482454868
 21
0.0
 31
0.0
  0
LINE
  5
8B5
330
1F
100
AcDbEntity
  8
SK1
  6
CONTINUOUS
370
50
 62
4
100
AcDbLine
 10
29.9
 20
2.556775884671622
 30
0.0
 11
32.45677588467162
 21
0.0
 31
0.0
  0
LINE
  5
8B6
330
1F
100
AcDbEntity
  8
SK1
  6
CONTINUOUS
370
50
 62
4
100
AcDbLine
 10
30.2231531925751
 20
2.604853752219459
 30
0.0
 11
32.50485375221946
 21
0.3231531925751043
 31
0.0
  0
LINE
  5
8B7
330
1F
100
AcDbEntity
  8
SK1
  6
CONTINUOUS
370
50
 62
4
100
AcDbLine
 10
30.69925237182748
 20
2.499985633090018
 30
0.0
 11
32.39998563309002
 21
0.7992523718274818
 31
0.0
  0
LINE
  5
8B8
330
1F
100
AcDbEntity
  8
SK1
  6
CONTINUOUS
370
50
 62
4
100
AcDbLine
 10
31.46015793098175
 20
2.11031113405868
 30
0.0
 11
32.01031113405868
 21
1.560157930981759
 31
0.0
  0
ARC
  5
8B9
330
1F
100
AcDbEntity
  8
SK6
  6
CONTINUOUS
370
25
 62
5
100
AcDbCircle
 10
72.2613820083765
 20
-26.19524575338786
 30
0.0
 40
2.76048912849221
100
AcDbArc
 50
338.9379403434233
 51
90.44457437511365
  0
LINE
  5
8BA
330
1F
100
AcDbEntity
  8
SK6
  6
CONTINUOUS
370
25
 62
5
100
AcDbLine
 10
72.23996279695983
 20
-23.43483972421281
 30
0.0
 11
72.23996279695983
 21
-24.53789835613463
 31
0.0
  0
ARC
  5
8BB
330
1F
100
AcDbEntity
  8
SK6
  6
CONTINUOUS
370
25
 62
5
100
AcDbCircle
 10
72.25050902936916
 20
-26.2152392456682
 30
0.0
 40
1.677374043771779
100
AcDbArc
 50
243.4214706017868
 51
90.36024081226083
  0
ARC
  5
8BC
330
1F
100
AcDbEntity
  8
SK6
  6
CONTINUOUS
370
25
 62
5
100
AcDbCircle
 10
74.77275989684958
 20
-25.7838319921556
 30
0.0
 40
3.80021703002276
100
AcDbArc
 50
210.5483731288539
 51
236.97801693668
  0
LINE
  5
8BD
330
1F
100
AcDbEntity
  8
SK6
  6
CONTINUOUS
370
25
 62
5
100
AcDbLine
 10
72.70179068512486
 20
-28.97016781867535
 30
0.0
 11
76.84373096742671
 21
-28.97016781867535
 31
0.0
  0
ARC
  5
8BE
330
1F
100
AcDbEntity
  8
SK6
  6
CONTINUOUS
370
25
 62
5
100
AcDbCircle
 10
74.77276183877257
 20
-25.7838320937346
 30
0.0
 40
3.800216899582472
100
AcDbArc
 50
303.0219828477959
 51
326.3732153033476
  0
LINE
  5
8BF
330
1F
100
AcDbEntity
  8
SK6
  6
CONTINUOUS
370
25
 62
5
100
AcDbLine
 10
77.93705975135722
 20
-27.8883194907709
 30
0.0
 11
74.57976170575462
 21
-27.8883194907709
 31
0.0
  0
LINE
  5
8C0
330
1F
100
AcDbEntity
  8
SK6
  6
CONTINUOUS
370
25
 62
5
100
AcDbLine
 10
74.57976170575462
 20
-27.8883194907709
 30
0.0
 11
78.49962109771987
 21
-26.52691829641694
 31
0.0
  0
ARC
  5
8C1
330
1F
100
AcDbEntity
  8
SK6
  6
CONTINUOUS
370
25
 62
5
100
AcDbCircle
 10
74.77276256157211
 20
-25.7838326048594
 30
0.0
 40
3.800217216614723
100
AcDbArc
 50
348.7238644184696
 51
53.4691051260885
  0
LINE
  5
8C2
330
1F
100
AcDbEntity
  8
SK6
  6
CONTINUOUS
370
25
 62
5
100
AcDbLine
 10
77.03486524538545
 20
-22.73022124429967
 30
0.0
 11
74.83745047882736
 21
-27.18730973507057
 31
0.0
  0
ENDSEC
  0
SECTION
  2
OBJECTS
  0
DICTIONARY
  5
C
330
0
100
AcDbDictionary
281
     1
  3
ACAD_GROUP
350
D
  3
ACAD_LAYOUT
350
1A
  3
ACAD_MATERIAL
350
3B
  3
ACAD_MLEADERSTYLE
350
8C5
  3
ACAD_MLINESTYLE
350
17
  3
ACAD_PLOTSETTINGS
350
19
  3
ACAD_PLOTSTYLENAME
350
E
  3
ACAD_SCALELIST
350
265
  3
ACAD_VISUALSTYLE
350
2A
  3
AcDbVariableDictionary
350
8C3
  0
DICTIONARY
  5
D
102
{ACAD_REACTORS
330
C
102
}
330
C
100
AcDbDictionary
281
     1
  0
DICTIONARY
  5
1A
102
{ACAD_REACTORS
330
C
102
}
330
C
100
AcDbDictionary
281
     1
  3
Layout1
350
1E
  3
Layout2
350
26
  3
Model
350
22
  0
DICTIONARY
  5
3B
102
{ACAD_REACTORS
330
C
102
}
330
C
100
AcDbDictionary
281
     1
  3
ByBlock
350
3D
  3
ByLayer
350
3C
  3
Global
350
3E
  0
DICTIONARY
  5
8C5
102
{ACAD_REACTORS
330
C
102
}
330
C
100
AcDbDictionary
281
     1
  0
DICTIONARY
  5
17
102
{ACAD_REACTORS
330
C
102
}
330
C
100
AcDbDictionary
281
     1
  3
Standard
350
18
  0
DICTIONARY
  5
19
102
{ACAD_REACTORS
330
C
102
}
330
C
100
AcDbDictionary
281
     1
  0
ACDBDICTIONARYWDFLT
  5
E
102
{ACAD_REACTORS
330
C
102
}
330
C
100
AcDbDictionary
281
     1
  3
Normal
350
F
100
AcDbDictionaryWithDefault
340
F
  0
DICTIONARY
  5
265
102
{ACAD_REACTORS
330
C
102
}
330
C
100
AcDbDictionary
281
     1
  3
A0
350
266
  3
A1
350
267
  3
A2
350
268
  3
A3
350
269
  3
A4
350
26A
  3
A5
350
26B
  3
A6
350
26C
  3
A7
350
26D
  3
A8
350
26E
  3
A9
350
26F
  3
B0
350
270
  3
B1
350
271
  3
B2
350
272
  3
B3
350
273
  3
B4
350
274
  3
B5
350
275
  3
B6
350
276
  3
B7
350
277
  3
B8
350
278
  3
B9
350
279
  3
C0
350
27A
  3
C1
350
27B
  3
C2
350
27C
  3
C3
350
27D
  3
C4
350
27E
  3
C5
350
27F
  3
C6
350
280
  3
C7
350
281
  3
C8
350
282
  3
C9
350
283
  3
D0
350
284
  3
D1
350
285
  3
D2
350
286
  0
DICTIONARY
  5
2A
102
{ACAD_REACTORS
330
C
102
}
330
C
100
AcDbDictionary
281
     1
  3
2dWireframe
350
2F
  3
3D Hidden
350
31
  3
3dWireframe
350
30
  3
Basic
350
32
  3
Brighten
350
36
  3
ColorChange
350
3A
  3
Conceptual
350
34
  3
Dim
350
35
  3
Facepattern
350
39
  3
Flat
350
2B
  3
FlatWithEdges
350
2C
  3
Gouraud
350
2D
  3
GouraudWithEdges
350
2E
  3
Linepattern
350
38
  3
Realistic
350
33
  3
Thicken
350
37
  0
DICTIONARY
  5
8C3
102
{ACAD_REACTORS
330
C
102
}
330
C
100
AcDbDictionary
281
     1
  3
CANNOSCALE
350
8C8
  3
DIMASSOC
350
8C9
  3
HIDETEXT
350
8CA
  3
PSOLHEIGHT
350
8C7
  3
PSOLWIDTH
350
8C6
  0
LAYOUT
  5
1E
102
{ACAD_REACTORS
330
1A
102
}
330
1A
100
AcDbPlotSettings
  1

  2
none_device
  4

  6

 40
0.0
 41
0.0
 42
0.0
 43
0.0
 44
0.0
 45
0.0
 46
0.0
 47
0.0
 48
0.0
 49
0.0
140
0.0
141
0.0
142
1.0
143
1.0
 70
   688
 72
     0
 73
     0
 74
     5
  7

 75
    16
147
1.0
148
0.0
149
0.0
100
AcDbLayout
  1
Layout1
 70
     1
 71
     1
 10
0.0
 20
0.0
 11
420.0
 21
297.0
 12
0.0
 22
0.0
 32
0.0
 14
1.000000000000000E+20
 24
1.000000000000000E+20
 34
1.000000000000000E+20
 15
-1.000000000000000E+20
 25
-1.000000000000000E+20
 35
-1.000000000000000E+20
146
0.0
 13
0.0
 23
0.0
 33
0.0
 16
1.0
 26
0.0
 36
0.0
 17
0.0
 27
1.0
 37
0.0
 76
     0
330
1B
  0
LAYOUT
  5
26
102
{ACAD_REACTORS
330
1A
102
}
330
1A
100
AcDbPlotSettings
  1

  2
none_device
  4

  6

 40
0.0
 41
0.0
 42
0.0
 43
0.0
 44
0.0
 45
0.0
 46
0.0
 47
0.0
 48
0.0
 49
0.0
140
0.0
141
0.0
142
1.0
143
1.0
 70
   688
 72
     0
 73
     0
 74
     5
  7

 75
    16
147
1.0
148
0.0
149
0.0
100
AcDbLayout
  1
Layout2
 70
     1
 71
     2
 10
0.0
 20
0.0
 11
0.0
 21
0.0
 12
0.0
 22
0.0
 32
0.0
 14
0.0
 24
0.0
 34
0.0
 15
0.0
 25
0.0
 35
0.0
146
0.0
 13
0.0
 23
0.0
 33
0.0
 16
1.0
 26
0.0
 36
0.0
 17
0.0
 27
1.0
 37
0.0
 76
     0
330
23
  0
LAYOUT
  5
22
102
{ACAD_REACTORS
330
1A
102
}
330
1A
100
AcDbPlotSettings
  1

  2
none_device
  4

  6

 40
0.0
 41
0.0
 42
0.0
 43
0.0
 44
0.0
 45
0.0
 46
0.0
 47
0.0
 48
0.0
 49
0.0
140
0.0
141
0.0
142
1.0
143
1.0
 70
  1712
 72
     0
 73
     0
 74
     0
  7

 75
     0
147
1.0
148
0.0
149
0.0
100
AcDbLayout
  1
Model
 70
     1
 71
     0
 10
0.0
 20
0.0
 11
420.0
 21
297.0
 12
0.0
 22
0.0
 32
0.0
 14
0.0
 24
0.0
 34
0.0
 15
25.0
 25
35.0
 35
0.0
146
0.0
 13
0.0
 23
0.0
 33
0.0
 16
1.0
 26
0.0
 36
0.0
 17
0.0
 27
1.0
 37
0.0
 76
     0
330
1F
331
29
  0
MATERIAL
  5
3D
102
{ACAD_REACTORS
330
3B
102
}
102
{ACAD_XDICTIONARY
360
8ED
102
}
330
3B
100
AcDbMaterial
  1
ByBlock
  0
MATERIAL
  5
3C
102
{ACAD_REACTORS
330
3B
102
}
102
{ACAD_XDICTIONARY
360
8EB
102
}
330
3B
100
AcDbMaterial
  1
ByLayer
  0
MATERIAL
  5
3E
102
{ACAD_REACTORS
330
3B
102
}
102
{ACAD_XDICTIONARY
360
8EF
102
}
330
3B
100
AcDbMaterial
  1
Global
  0
MLINESTYLE
  5
18
102
{ACAD_REACTORS
330
17
102
}
330
17
100
AcDbMlineStyle
  2
Standard
 70
     0
  3

 62
   256
 51
90.0
 52
90.0
 71
     2
 49
0.5
 62
   256
  6
BYLAYER
 49
-0.5
 62
   256
  6
BYLAYER
  0
ACDBPLACEHOLDER
  5
F
102
{ACAD_REACTORS
330
E
102
}
330
E
  0
SCALE
  5
266
102
{ACAD_REACTORS
330
265
102
}
330
265
100
AcDbScale
 70
     0
300
1:1
140
1.0
141
1.0
290
     1
  0
SCALE
  5
267
102
{ACAD_REACTORS
330
265
102
}
330
265
100
AcDbScale
 70
     0
300
1:2
140
1.0
141
2.0
290
     0
  0
SCALE
  5
268
102
{ACAD_REACTORS
330
265
102
}
330
265
100
AcDbScale
 70
     0
300
1:4
140
1.0
141
4.0
290
     0
  0
SCALE
  5
269
102
{ACAD_REACTORS
330
265
102
}
330
265
100
AcDbScale
 70
     0
300
1:5
140
1.0
141
5.0
290
     0
  0
SCALE
  5
26A
102
{ACAD_REACTORS
330
265
102
}
330
265
100
AcDbScale
 70
     0
300
1:8
140
1.0
141
8.0
290
     0
  0
SCALE
  5
26B
102
{ACAD_REACTORS
330
265
102
}
330
265
100
AcDbScale
 70
     0
300
1:10
140
1.0
141
10.0
290
     0
  0
SCALE
  5
26C
102
{ACAD_REACTORS
330
265
102
}
330
265
100
AcDbScale
 70
     0
300
1:16
140
1.0
141
16.0
290
     0
  0
SCALE
  5
26D
102
{ACAD_REACTORS
330
265
102
}
330
265
100
AcDbScale
 70
     0
300
1:20
140
1.0
141
20.0
290
     0
  0
SCALE
  5
26E
102
{ACAD_REACTORS
330
265
102
}
330
265
100
AcDbScale
 70
     0
300
1:30
140
1.0
141
30.0
290
     0
  0
SCALE
  5
26F
102
{ACAD_REACTORS
330
265
102
}
330
265
100
AcDbScale
 70
     0
300
1:40
140
1.0
141
40.0
290
     0
  0
SCALE
  5
270
102
{ACAD_REACTORS
330
265
102
}
330
265
100
AcDbScale
 70
     0
300
1:50
140
1.0
141
50.0
290
     0
  0
SCALE
  5
271
102
{ACAD_REACTORS
330
265
102
}
330
265
100
AcDbScale
 70
     0
300
1:100
140
1.0
141
100.0
290
     0
  0
SCALE
  5
272
102
{ACAD_REACTORS
330
265
102
}
330
265
100
AcDbScale
 70
     0
300
2:1
140
2.0
141
1.0
290
     0
  0
SCALE
  5
273
102
{ACAD_REACTORS
330
265
102
}
330
265
100
AcDbScale
 70
     0
300
4:1
140
4.0
141
1.0
290
     0
  0
SCALE
  5
274
102
{ACAD_REACTORS
330
265
102
}
330
265
100
AcDbScale
 70
     0
300
8:1
140
8.0
141
1.0
290
     0
  0
SCALE
  5
275
102
{ACAD_REACTORS
330
265
102
}
330
265
100
AcDbScale
 70
     0
300
10:1
140
10.0
141
1.0
290
     0
  0
SCALE
  5
276
102
{ACAD_REACTORS
330
265
102
}
330
265
100
AcDbScale
 70
     0
300
100:1
140
100.0
141
1.0
290
     0
  0
SCALE
  5
277
102
{ACAD_REACTORS
330
265
102
}
330
265
100
AcDbScale
 70
     0
300
1/128" = 1'-0"
140
0.0078125
141
12.0
290
     0
  0
SCALE
  5
278
102
{ACAD_REACTORS
330
265
102
}
330
265
100
AcDbScale
 70
     0
300
1/64" = 1'-0"
140
0.015625
141
12.0
290
     0
  0
SCALE
  5
279
102
{ACAD_REACTORS
330
265
102
}
330
265
100
AcDbScale
 70
     0
300
1/32" = 1'-0"
140
0.03125
141
12.0
290
     0
  0
SCALE
  5
27A
102
{ACAD_REACTORS
330
265
102
}
330
265
100
AcDbScale
 70
     0
300
1/16" = 1'-0"
140
0.0625
141
12.0
290
     0
  0
SCALE
  5
27B
102
{ACAD_REACTORS
330
265
102
}
330
265
100
AcDbScale
 70
     0
300
3/32" = 1'-0"
140
0.09375
141
12.0
290
     0
  0
SCALE
  5
27C
102
{ACAD_REACTORS
330
265
102
}
330
265
100
AcDbScale
 70
     0
300
1/8" = 1'-0"
140
0.125
141
12.0
290
     0
  0
SCALE
  5
27D
102
{ACAD_REACTORS
330
265
102
}
330
265
100
AcDbScale
 70
     0
300
3/16" = 1'-0"
140
0.1875
141
12.0
290
     0
  0
SCALE
  5
27E
102
{ACAD_REACTORS
330
265
102
}
330
265
100
AcDbScale
 70
     0
300
1/4" = 1'-0"
140
0.25
141
12.0
290
     0
  0
SCALE
  5
27F
102
{ACAD_REACTORS
330
265
102
}
330
265
100
AcDbScale
 70
     0
300
3/8" = 1'-0"
140
0.375
141
12.0
290
     0
  0
SCALE
  5
280
102
{ACAD_REACTORS
330
265
102
}
330
265
100
AcDbScale
 70
     0
300
1/2" = 1'-0"
140
0.5
141
12.0
290
     0
  0
SCALE
  5
281
102
{ACAD_REACTORS
330
265
102
}
330
265
100
AcDbScale
 70
     0
300
3/4" = 1'-0"
140
0.75
141
12.0
290
     0
  0
SCALE
  5
282
102
{ACAD_REACTORS
330
265
102
}
330
265
100
AcDbScale
 70
     0
300
1" = 1'-0"
140
1.0
141
12.0
290
     0
  0
SCALE
  5
283
102
{ACAD_REACTORS
330
265
102
}
330
265
100
AcDbScale
 70
     0
300
1-1/2" = 1'-0"
140
1.5
141
12.0
290
     0
  0
SCALE
  5
284
102
{ACAD_REACTORS
330
265
102
}
330
265
100
AcDbScale
 70
     0
300
3" = 1'-0"
140
3.0
141
12.0
290
     0
  0
SCALE
  5
285
102
{ACAD_REACTORS
330
265
102
}
330
265
100
AcDbScale
 70
     0
300
6" = 1'-0"
140
6.0
141
12.0
290
     0
  0
SCALE
  5
286
102
{ACAD_REACTORS
330
265
102
}
330
265
100
AcDbScale
 70
     0
300
1'-0" = 1'-0"
140
12.0
141
12.0
290
     0
  0
VISUALSTYLE
  5
2F
102
{ACAD_REACTORS
330
2A
102
}
102
{ACAD_XDICTIONARY
360
8D3
102
}
330
2A
100
AcDbVisualStyle
  2
2dWireframe
 70
     4
 71
     0
 72
     2
 73
     0
 90
        0
 40
-0.6
 41
-30.0
 62
     5
 63
     7
 74
     1
 91
        4
 64
     7
 65
   257
 75
     1
175
     1
 42
1.0
 92
        0
 66
   257
 43
1.0
 76
     1
 77
     6
 78
     2
 67
     7
 79
     5
170
     0
171
     0
290
     0
174
     0
 93
        1
 44
0.0
173
     0
291
     0
 45
0.0
1001
ACAD
1000
AcDbSavedByObjectVersion
1070
     0
  0
VISUALSTYLE
  5
31
102
{ACAD_REACTORS
330
2A
102
}
102
{ACAD_XDICTIONARY
360
8D7
102
}
330
2A
100
AcDbVisualStyle
  2
3D Hidden
 70
     6
 71
     1
 72
     2
 73
     2
 90
        0
 40
-0.6
 41
-30.0
 62
     5
 63
     7
 74
     2
 91
        2
 64
     7
 65
   257
 75
     2
175
     1
 42
40.0
 92
        0
 66
   257
 43
1.0
 76
     1
 77
     6
 78
     2
 67
     7
 79
     3
170
     0
171
     0
290
     0
174
     0
 93
        1
 44
0.0
173
     0
291
     0
 45
0.0
1001
ACAD
1000
AcDbSavedByObjectVersion
1070
     0
  0
VISUALSTYLE
  5
30
102
{ACAD_REACTORS
330
2A
102
}
102
{ACAD_XDICTIONARY
360
8D5
102
}
330
2A
100
AcDbVisualStyle
  2
3dWireframe
 70
     5
 71
     0
 72
     2
 73
     0
 90
        0
 40
-0.6
 41
-30.0
 62
     5
 63
     7
 74
     1
 91
        4
 64
     7
 65
   257
 75
     1
175
     1
 42
1.0
 92
        0
 66
   257
 43
1.0
 76
     1
 77
     6
 78
     2
 67
     7
 79
     5
170
     0
171
     0
290
     0
174
     0
 93
        1
 44
0.0
173
     0
291
     0
 45
0.0
1001
ACAD
1000
AcDbSavedByObjectVersion
1070
     0
  0
VISUALSTYLE
  5
32
102
{ACAD_REACTORS
330
2A
102
}
102
{ACAD_XDICTIONARY
360
8D9
102
}
330
2A
100
AcDbVisualStyle
  2
Basic
 70
     7
 71
     1
 72
     0
 73
     1
 90
        0
 40
-0.6
 41
-30.0
 62
     5
 63
     7
 74
     0
 91
        4
 64
     7
 65
   257
 75
     1
175
     1
 42
1.0
 92
        8
 66
     7
 43
1.0
 76
     1
 77
     6
 78
     2
 67
     7
 79
     5
170
     0
171
     0
290
     0
174
     0
 93
        1
 44
0.0
173
     0
291
     1
 45
0.0
1001
ACAD
1000
AcDbSavedByObjectVersion
1070
     0
  0
VISUALSTYLE
  5
36
102
{ACAD_REACTORS
330
2A
102
}
102
{ACAD_XDICTIONARY
360
8E1
102
}
330
2A
100
AcDbVisualStyle
  2
Brighten
 70
    12
 71
     2
 72
     2
 73
     0
 90
        0
 40
-0.6
 41
-30.0
 62
     5
 63
     7
 74
     1
 91
        4
 64
     7
 65
   257
 75
     1
175
     1
 42
1.0
 92
        8
 66
     7
 43
1.0
 76
     1
 77
     6
 78
     2
 67
     7
 79
     5
170
     0
171
     0
290
     0
174
     0
 93
        1
 44
50.0
173
     0
291
     1
 45
0.0
1001
ACAD
1000
AcDbSavedByObjectVersion
1070
     0
  0
VISUALSTYLE
  5
3A
102
{ACAD_REACTORS
330
2A
102
}
102
{ACAD_XDICTIONARY
360
8E9
102
}
330
2A
100
AcDbVisualStyle
  2
ColorChange
 70
    16
 71
     2
 72
     2
 73
     3
 90
        0
 40
-0.6
 41
-30.0
 62
     5
 63
     8
 74
     1
 91
        4
 64
     7
 65
   257
 75
     1
175
     1
 42
1.0
 92
        8
 66
     8
 43
1.0
 76
     1
 77
     6
 78
     2
 67
     7
 79
     5
170
     0
171
     0
290
     0
174
     0
 93
        1
 44
0.0
173
     0
291
     1
 45
0.0
1001
ACAD
1000
AcDbSavedByObjectVersion
1070
     0
  0
VISUALSTYLE
  5
34
102
{ACAD_REACTORS
330
2A
102
}
102
{ACAD_XDICTIONARY
360
8DD
102
}
330
2A
100
AcDbVisualStyle
  2
Conceptual
 70
     9
 71
     3
 72
     2
 73
     0
 90
        0
 40
-0.6
 41
-30.0
 62
     5
 63
     7
 74
     2
 91
        2
 64
     7
 65
   257
 75
     1
175
     1
 42
40.0
 92
        8
 66
     7
 43
1.0
 76
     1
 77
     6
 78
     2
 67
     7
 79
     3
170
     0
171
     0
290
     0
174
     0
 93
        1
 44
0.0
173
     0
291
     0
 45
0.0
1001
ACAD
1000
AcDbSavedByObjectVersion
1070
     0
  0
VISUALSTYLE
  5
35
102
{ACAD_REACTORS
330
2A
102
}
102
{ACAD_XDICTIONARY
360
8DF
102
}
330
2A
100
AcDbVisualStyle
  2
Dim
 70
    11
 71
     2
 72
     2
 73
     0
 90
        0
 40
-0.6
 41
-30.0
 62
     5
 63
     7
 74
     1
 91
        4
 64
     7
 65
   257
 75
     1
175
     1
 42
1.0
 92
        8
 66
     7
 43
1.0
 76
     1
 77
     6
 78
     2
 67
     7
 79
     5
170
     0
171
     0
290
     0
174
     0
 93
        1
 44
-50.0
173
     0
291
     1
 45
0.0
1001
ACAD
1000
AcDbSavedByObjectVersion
1070
     0
  0
VISUALSTYLE
  5
39
102
{ACAD_REACTORS
330
2A
102
}
102
{ACAD_XDICTIONARY
360
8E7
102
}
330
2A
100
AcDbVisualStyle
  2
Facepattern
 70
    15
 71
     2
 72
     2
 73
     0
 90
        0
 40
-0.6
 41
-30.0
 62
     5
 63
     7
 74
     1
 91
        4
 64
     7
 65
   257
 75
     1
175
     1
 42
1.0
 92
        8
 66
     7
 43
1.0
 76
     1
 77
     6
 78
     2
 67
     7
 79
     5
170
     0
171
     0
290
     0
174
     0
 93
        1
 44
0.0
173
     0
291
     1
 45
0.0
1001
ACAD
1000
AcDbSavedByObjectVersion
1070
     0
  0
VISUALSTYLE
  5
2B
102
{ACAD_REACTORS
330
2A
102
}
102
{ACAD_XDICTIONARY
360
8CB
102
}
330
2A
100
AcDbVisualStyle
  2
Flat
 70
     0
 71
     2
 72
     1
 73
     1
 90
        2
 40
-0.6
 41
30.0
 62
     5
 63
     7
 74
     0
 91
        4
 64
     7
 65
   257
 75
     1
175
     1
 42
1.0
 92
        8
 66
     7
 43
1.0
 76
     1
 77
     6
 78
     2
 67
     7
 79
     5
170
     0
171
     0
290
     0
174
     0
 93
       13
 44
0.0
173
     0
291
     1
 45
0.0
1001
ACAD
1000
AcDbSavedByObjectVersion
1070
     0
  0
VISUALSTYLE
  5
2C
102
{ACAD_REACTORS
330
2A
102
}
102
{ACAD_XDICTIONARY
360
8CD
102
}
330
2A
100
AcDbVisualStyle
  2
FlatWithEdges
 70
     1
 71
     2
 72
     1
 73
     1
 90
        2
 40
-0.6
 41
30.0
 62
     5
 63
     7
 74
     1
 91
        4
 64
     7
 65
   257
 75
     1
175
     1
 42
1.0
 92
        0
 66
   257
 43
1.0
 76
     1
 77
     6
 78
     2
 67
     7
 79
     5
170
     0
171
     0
290
     0
174
     0
 93
       13
 44
0.0
173
     0
291
     1
 45
0.0
1001
ACAD
1000
AcDbSavedByObjectVersion
1070
     0
  0
VISUALSTYLE
  5
2D
102
{ACAD_REACTORS
330
2A
102
}
102
{ACAD_XDICTIONARY
360
8CF
102
}
330
2A
100
AcDbVisualStyle
  2
Gouraud
 70
     2
 71
     2
 72
     2
 73
     1
 90
        2
 40
-0.6
 41
30.0
 62
     5
 63
     7
 74
     0
 91
        4
 64
     7
 65
   257
 75
     1
175
     1
 42
1.0
 92
        0
 66
     7
 43
1.0
 76
     1
 77
     6
 78
     2
 67
     7
 79
     5
170
     0
171
     0
290
     0
174
     0
 93
       13
 44
0.0
173
     0
291
     1
 45
0.0
1001
ACAD
1000
AcDbSavedByObjectVersion
1070
     0
  0
VISUALSTYLE
  5
2E
102
{ACAD_REACTORS
330
2A
102
}
102
{ACAD_XDICTIONARY
360
8D1
102
}
330
2A
100
AcDbVisualStyle
  2
GouraudWithEdges
 70
     3
 71
     2
 72
     2
 73
     1
 90
        2
 40
-0.6
 41
30.0
 62
     5
 63
     7
 74
     1
 91
        4
 64
     7
 65
   257
 75
     1
175
     1
 42
1.0
 92
        0
 66
   257
 43
1.0
 76
     1
 77
     6
 78
     2
 67
     7
 79
     5
170
     0
171
     0
290
     0
174
     0
 93
       13
 44
0.0
173
     0
291
     1
 45
0.0
1001
ACAD
1000
AcDbSavedByObjectVersion
1070
     0
  0
VISUALSTYLE
  5
38
102
{ACAD_REACTORS
330
2A
102
}
102
{ACAD_XDICTIONARY
360
8E5
102
}
330
2A
100
AcDbVisualStyle
  2
Linepattern
 70
    14
 71
     2
 72
     2
 73
     0
 90
        0
 40
-0.6
 41
-30.0
 62
     5
 63
     7
 74
     1
 91
        4
 64
     7
 65
   257
 75
     7
175
     7
 42
1.0
 92
        8
 66
     7
 43
1.0
 76
     1
 77
     6
 78
     2
 67
     7
 79
     5
170
     0
171
     0
290
     0
174
     0
 93
        1
 44
0.0
173
     0
291
     1
 45
0.0
1001
ACAD
1000
AcDbSavedByObjectVersion
1070
     0
  0
VISUALSTYLE
  5
33
102
{ACAD_REACTORS
330
2A
102
}
102
{ACAD_XDICTIONARY
360
8DB
102
}
330
2A
100
AcDbVisualStyle
  2
Realistic
 70
     8
 71
     2
 72
     2
 73
     0
 90
        0
 40
-0.6
 41
-30.0
 62
     5
 63
     7
 74
     1
 91
        0
 64
     7
 65
   257
 75
     1
175
     1
 42
1.0
 92
        8
 66
     8
 43
1.0
 76
     1
 77
     6
 78
     2
 67
     7
 79
     5
170
     0
171
     0
290
     0
174
     0
 93
       13
 44
0.0
173
     0
291
     0
 45
0.0
1001
ACAD
1000
AcDbSavedByObjectVersion
1070
     0
  0
VISUALSTYLE
  5
37
102
{ACAD_REACTORS
330
2A
102
}
102
{ACAD_XDICTIONARY
360
8E3
102
}
330
2A
100
AcDbVisualStyle
  2
Thicken
 70
    13
 71
     2
 72
     2
 73
     0
 90
        0
 40
-0.6
 41
-30.0
 62
     5
 63
     7
 74
     1
 91
        4
 64
     7
 65
   257
 75
     1
175
     1
 42
1.0
 92
       12
 66
     7
 43
1.0
 76
     1
 77
     6
 78
     2
 67
     7
 79
     5
170
     0
171
     0
290
     0
174
     0
 93
        1
 44
0.0
173
     0
291
     1
 45
0.0
1001
ACAD
1000
AcDbSavedByObjectVersion
1070
     0
  0
DICTIONARYVAR
  5
8C8
102
{ACAD_REACTORS
330
8C3
102
}
330
8C3
100
DictionaryVariables
280
     0
  1
1:1
  0
DICTIONARYVAR
  5
8C9
102
{ACAD_REACTORS
330
8C3
102
}
330
8C3
100
DictionaryVariables
280
     0
  1
2
  0
DICTIONARYVAR
  5
8CA
102
{ACAD_REACTORS
330
8C3
102
}
330
8C3
100
DictionaryVariables
280
     0
  1
1
  0
DICTIONARYVAR
  5
8C7
102
{ACAD_REACTORS
330
8C3
102
}
330
8C3
100
DictionaryVariables
280
     0
  1
80.000000
  0
DICTIONARYVAR
  5
8C6
102
{ACAD_REACTORS
330
8C3
102
}
330
8C3
100
DictionaryVariables
280
     0
  1
5.000000
  0
DICTIONARY
  5
8ED
330
3D
100
AcDbDictionary
280
     1
281
     1
  3
ACAD_XREC_ROUNDTRIP
360
8EE
  0
DICTIONARY
  5
8EB
330
3C
100
AcDbDictionary
280
     1
281
     1
  3
ACAD_XREC_ROUNDTRIP
360
8EC
  0
DICTIONARY
  5
8EF
330
3E
100
AcDbDictionary
280
     1
281
     1
  3
ACAD_XREC_ROUNDTRIP
360
8F0
  0
DICTIONARY
  5
8D3
330
2F
100
AcDbDictionary
280
     1
281
     1
  3
ACAD_XREC_ROUNDTRIP
360
8D4
  0
DICTIONARY
  5
8D7
330
31
100
AcDbDictionary
280
     1
281
     1
  3
ACAD_XREC_ROUNDTRIP
360
8D8
  0
DICTIONARY
  5
8D5
330
30
100
AcDbDictionary
280
     1
281
     1
  3
ACAD_XREC_ROUNDTRIP
360
8D6
  0
DICTIONARY
  5
8D9
330
32
100
AcDbDictionary
280
     1
281
     1
  3
ACAD_XREC_ROUNDTRIP
360
8DA
  0
DICTIONARY
  5
8E1
330
36
100
AcDbDictionary
280
     1
281
     1
  3
ACAD_XREC_ROUNDTRIP
360
8E2
  0
DICTIONARY
  5
8E9
330
3A
100
AcDbDictionary
280
     1
281
     1
  3
ACAD_XREC_ROUNDTRIP
360
8EA
  0
DICTIONARY
  5
8DD
330
34
100
AcDbDictionary
280
     1
281
     1
  3
ACAD_XREC_ROUNDTRIP
360
8DE
  0
DICTIONARY
  5
8DF
330
35
100
AcDbDictionary
280
     1
281
     1
  3
ACAD_XREC_ROUNDTRIP
360
8E0
  0
DICTIONARY
  5
8E7
330
39
100
AcDbDictionary
280
     1
281
     1
  3
ACAD_XREC_ROUNDTRIP
360
8E8
  0
DICTIONARY
  5
8CB
330
2B
100
AcDbDictionary
280
     1
281
     1
  3
ACAD_XREC_ROUNDTRIP
360
8CC
  0
DICTIONARY
  5
8CD
330
2C
100
AcDbDictionary
280
     1
281
     1
  3
ACAD_XREC_ROUNDTRIP
360
8CE
  0
DICTIONARY
  5
8CF
330
2D
100
AcDbDictionary
280
     1
281
     1
  3
ACAD_XREC_ROUNDTRIP
360
8D0
  0
DICTIONARY
  5
8D1
330
2E
100
AcDbDictionary
280
     1
281
     1
  3
ACAD_XREC_ROUNDTRIP
360
8D2
  0
DICTIONARY
  5
8E5
330
38
100
AcDbDictionary
280
     1
281
     1
  3
ACAD_XREC_ROUNDTRIP
360
8E6
  0
DICTIONARY
  5
8DB
330
33
100
AcDbDictionary
280
     1
281
     1
  3
ACAD_XREC_ROUNDTRIP
360
8DC
  0
DICTIONARY
  5
8E3
330
37
100
AcDbDictionary
280
     1
281
     1
  3
ACAD_XREC_ROUNDTRIP
360
8E4
  0
XRECORD
  5
8EE
102
{ACAD_REACTORS
330
8ED
102
}
330
8ED
100
AcDbXrecord
280
     1
102
MATERIAL
148
0.0
149
0.0
149
0.0
 93
        0
 94
      127
282
     0
 72
     1
 77
     1
171
     1
175
     1
179
     1
273
     0
  0
XRECORD
  5
8EC
102
{ACAD_REACTORS
330
8EB
102
}
330
8EB
100
AcDbXrecord
280
     1
102
MATERIAL
148
0.0
149
0.0
149
0.0
 93
        0
 94
      127
282
     0
 72
     1
 77
     1
171
     1
175
     1
179
     1
273
     0
  0
XRECORD
  5
8F0
102
{ACAD_REACTORS
330
8EF
102
}
330
8EF
100
AcDbXrecord
280
     1
102
MATERIAL
148
0.0
149
0.0
149
0.0
 93
        0
 94
      127
282
     0
 72
     1
 77
     1
171
     1
175
     1
179
     1
273
     0
  0
XRECORD
  5
8D4
102
{ACAD_REACTORS
330
8D3
102
}
330
8D3
100
AcDbXrecord
280
     1
102
RTVSPropertyOp0
 70
     1
102
RTVSPropertyOp1
 70
     1
102
RTVSPropertyOp2
 70
     1
102
RTVSPropertyOp3
 70
     1
102
RTVSPropertyOp4
 70
     1
102
RTVSPropertyOp5
 70
     1
102
RTVSPropertyOp6
 70
     1
102
RTVSPropertyOp7
 70
     1
102
RTVSPropertyOp8
 70
     1
102
RTVSPropertyOp9
 70
     1
102
RTVSPropertyOp10
 70
     1
102
RTVSPropertyOp11
 70
     1
102
RTVSPropertyOp12
 70
     1
102
RTVSPropertyOp13
 70
     1
102
RTVSPropertyOp14
 70
     1
102
RTVSPropertyOp15
 70
     1
102
RTVSPropertyOp16
 70
     1
102
RTVSPropertyOp17
 70
     1
102
RTVSPropertyOp18
 70
     1
102
RTVSPropertyOp19
 70
     1
102
RTVSPropertyOp20
 70
     1
102
RTVSPropertyOp21
 70
     1
102
RTVSPropertyOp22
 70
     1
102
RTVSPropertyOp23
 70
     1
102
RTVSPropertyOp24
 70
     1
102
RTVSPropertyOp25
 70
     1
102
RTVSPropertyOp26
 70
     1
102
RTVSPropertyOp27
 70
     1
  0
XRECORD
  5
8D8
102
{ACAD_REACTORS
330
8D7
102
}
330
8D7
100
AcDbXrecord
280
     1
102
RTVSPropertyOp0
 70
     1
102
RTVSPropertyOp1
 70
     1
102
RTVSPropertyOp2
 70
     1
102
RTVSPropertyOp3
 70
     1
102
RTVSPropertyOp4
 70
     1
102
RTVSPropertyOp5
 70
     1
102
RTVSPropertyOp6
 70
     1
102
RTVSPropertyOp7
 70
     1
102
RTVSPropertyOp8
 70
     1
102
RTVSPropertyOp9
 70
     1
102
RTVSPropertyOp10
 70
     1
102
RTVSPropertyOp11
 70
     1
102
RTVSPropertyOp12
 70
     1
102
RTVSPropertyOp13
 70
     1
102
RTVSPropertyOp14
 70
     1
102
RTVSPropertyOp15
 70
     1
102
RTVSPropertyOp16
 70
     1
102
RTVSPropertyOp17
 70
     1
102
RTVSPropertyOp18
 70
     1
102
RTVSPropertyOp19
 70
     1
102
RTVSPropertyOp20
 70
     1
102
RTVSPropertyOp21
 70
     1
102
RTVSPropertyOp22
 70
     1
102
RTVSPropertyOp23
 70
     1
102
RTVSPropertyOp24
 70
     1
102
RTVSPropertyOp25
 70
     1
102
RTVSPropertyOp26
 70
     1
102
RTVSPropertyOp27
 70
     1
  0
XRECORD
  5
8D6
102
{ACAD_REACTORS
330
8D5
102
}
330
8D5
100
AcDbXrecord
280
     1
102
RTVSPropertyOp0
 70
     1
102
RTVSPropertyOp1
 70
     1
102
RTVSPropertyOp2
 70
     1
102
RTVSPropertyOp3
 70
     1
102
RTVSPropertyOp4
 70
     1
102
RTVSPropertyOp5
 70
     1
102
RTVSPropertyOp6
 70
     1
102
RTVSPropertyOp7
 70
     1
102
RTVSPropertyOp8
 70
     1
102
RTVSPropertyOp9
 70
     1
102
RTVSPropertyOp10
 70
     1
102
RTVSPropertyOp11
 70
     1
102
RTVSPropertyOp12
 70
     1
102
RTVSPropertyOp13
 70
     1
102
RTVSPropertyOp14
 70
     1
102
RTVSPropertyOp15
 70
     1
102
RTVSPropertyOp16
 70
     1
102
RTVSPropertyOp17
 70
     1
102
RTVSPropertyOp18
 70
     1
102
RTVSPropertyOp19
 70
     1
102
RTVSPropertyOp20
 70
     1
102
RTVSPropertyOp21
 70
     1
102
RTVSPropertyOp22
 70
     1
102
RTVSPropertyOp23
 70
     1
102
RTVSPropertyOp24
 70
     1
102
RTVSPropertyOp25
 70
     1
102
RTVSPropertyOp26
 70
     1
102
RTVSPropertyOp27
 70
     1
  0
XRECORD
  5
8DA
102
{ACAD_REACTORS
330
8D9
102
}
330
8D9
100
AcDbXrecord
280
     1
102
RTVSPropertyOp0
 70
     1
102
RTVSPropertyOp1
 70
     1
102
RTVSPropertyOp2
 70
     1
102
RTVSPropertyOp3
 70
     1
102
RTVSPropertyOp4
 70
     1
102
RTVSPropertyOp5
 70
     1
102
RTVSPropertyOp6
 70
     1
102
RTVSPropertyOp7
 70
     1
102
RTVSPropertyOp8
 70
     1
102
RTVSPropertyOp9
 70
     1
102
RTVSPropertyOp10
 70
     1
102
RTVSPropertyOp11
 70
     1
102
RTVSPropertyOp12
 70
     1
102
RTVSPropertyOp13
 70
     1
102
RTVSPropertyOp14
 70
     1
102
RTVSPropertyOp15
 70
     1
102
RTVSPropertyOp16
 70
     1
102
RTVSPropertyOp17
 70
     1
102
RTVSPropertyOp18
 70
     1
102
RTVSPropertyOp19
 70
     1
102
RTVSPropertyOp20
 70
     1
102
RTVSPropertyOp21
 70
     1
102
RTVSPropertyOp22
 70
     1
102
RTVSPropertyOp23
 70
     1
102
RTVSPropertyOp24
 70
     1
102
RTVSPropertyOp25
 70
     1
102
RTVSPropertyOp26
 70
     1
102
RTVSPropertyOp27
 70
     1
  0
XRECORD
  5
8E2
102
{ACAD_REACTORS
330
8E1
102
}
330
8E1
100
AcDbXrecord
280
     1
102
RTVSPropertyOp0
 70
     1
102
RTVSPropertyOp1
 70
     1
102
RTVSPropertyOp2
 70
     1
102
RTVSPropertyOp3
 70
     1
102
RTVSPropertyOp4
 70
     1
102
RTVSPropertyOp5
 70
     1
102
RTVSPropertyOp6
 70
     1
102
RTVSPropertyOp7
 70
     1
102
RTVSPropertyOp8
 70
     1
102
RTVSPropertyOp9
 70
     1
102
RTVSPropertyOp10
 70
     1
102
RTVSPropertyOp11
 70
     1
102
RTVSPropertyOp12
 70
     1
102
RTVSPropertyOp13
 70
     1
102
RTVSPropertyOp14
 70
     1
102
RTVSPropertyOp15
 70
     1
102
RTVSPropertyOp16
 70
     1
102
RTVSPropertyOp17
 70
     1
102
RTVSPropertyOp18
 70
     1
102
RTVSPropertyOp19
 70
     1
102
RTVSPropertyOp20
 70
     1
102
RTVSPropertyOp21
 70
     1
102
RTVSPropertyOp22
 70
     1
102
RTVSPropertyOp23
 70
     1
102
RTVSPropertyOp24
 70
     1
102
RTVSPropertyOp25
 70
     1
102
RTVSPropertyOp26
 70
     1
102
RTVSPropertyOp27
 70
     1
  0
XRECORD
  5
8EA
102
{ACAD_REACTORS
330
8E9
102
}
330
8E9
100
AcDbXrecord
280
     1
102
RTVSPropertyOp0
 70
     1
102
RTVSPropertyOp1
 70
     1
102
RTVSPropertyOp2
 70
     1
102
RTVSPropertyOp3
 70
     1
102
RTVSPropertyOp4
 70
     1
102
RTVSPropertyOp5
 70
     1
102
RTVSPropertyOp6
 70
     1
102
RTVSPropertyOp7
 70
     1
102
RTVSPropertyOp8
 70
     1
102
RTVSPropertyOp9
 70
     1
102
RTVSPropertyOp10
 70
     1
102
RTVSPropertyOp11
 70
     1
102
RTVSPropertyOp12
 70
     1
102
RTVSPropertyOp13
 70
     1
102
RTVSPropertyOp14
 70
     1
102
RTVSPropertyOp15
 70
     1
102
RTVSPropertyOp16
 70
     1
102
RTVSPropertyOp17
 70
     1
102
RTVSPropertyOp18
 70
     1
102
RTVSPropertyOp19
 70
     1
102
RTVSPropertyOp20
 70
     1
102
RTVSPropertyOp21
 70
     1
102
RTVSPropertyOp22
 70
     1
102
RTVSPropertyOp23
 70
     1
102
RTVSPropertyOp24
 70
     1
102
RTVSPropertyOp25
 70
     1
102
RTVSPropertyOp26
 70
     1
102
RTVSPropertyOp27
 70
     1
  0
XRECORD
  5
8DE
102
{ACAD_REACTORS
330
8DD
102
}
330
8DD
100
AcDbXrecord
280
     1
102
RTVSPropertyOp0
 70
     1
102
RTVSPropertyOp1
 70
     1
102
RTVSPropertyOp2
 70
     1
102
RTVSPropertyOp3
 70
     1
102
RTVSPropertyOp4
 70
     1
102
RTVSPropertyOp5
 70
     1
102
RTVSPropertyOp6
 70
     1
102
RTVSPropertyOp7
 70
     1
102
RTVSPropertyOp8
 70
     1
102
RTVSPropertyOp9
 70
     1
102
RTVSPropertyOp10
 70
     1
102
RTVSPropertyOp11
 70
     1
102
RTVSPropertyOp12
 70
     1
102
RTVSPropertyOp13
 70
     1
102
RTVSPropertyOp14
 70
     1
102
RTVSPropertyOp15
 70
     1
102
RTVSPropertyOp16
 70
     1
102
RTVSPropertyOp17
 70
     1
102
RTVSPropertyOp18
 70
     1
102
RTVSPropertyOp19
 70
     1
102
RTVSPropertyOp20
 70
     1
102
RTVSPropertyOp21
 70
     1
102
RTVSPropertyOp22
 70
     1
102
RTVSPropertyOp23
 70
     1
102
RTVSPropertyOp24
 70
     1
102
RTVSPropertyOp25
 70
     1
102
RTVSPropertyOp26
 70
     1
102
RTVSPropertyOp27
 70
     1
  0
XRECORD
  5
8E0
102
{ACAD_REACTORS
330
8DF
102
}
330
8DF
100
AcDbXrecord
280
     1
102
RTVSPropertyOp0
 70
     1
102
RTVSPropertyOp1
 70
     1
102
RTVSPropertyOp2
 70
     1
102
RTVSPropertyOp3
 70
     1
102
RTVSPropertyOp4
 70
     1
102
RTVSPropertyOp5
 70
     1
102
RTVSPropertyOp6
 70
     1
102
RTVSPropertyOp7
 70
     1
102
RTVSPropertyOp8
 70
     1
102
RTVSPropertyOp9
 70
     1
102
RTVSPropertyOp10
 70
     1
102
RTVSPropertyOp11
 70
     1
102
RTVSPropertyOp12
 70
     1
102
RTVSPropertyOp13
 70
     1
102
RTVSPropertyOp14
 70
     1
102
RTVSPropertyOp15
 70
     1
102
RTVSPropertyOp16
 70
     1
102
RTVSPropertyOp17
 70
     1
102
RTVSPropertyOp18
 70
     1
102
RTVSPropertyOp19
 70
     1
102
RTVSPropertyOp20
 70
     1
102
RTVSPropertyOp21
 70
     1
102
RTVSPropertyOp22
 70
     1
102
RTVSPropertyOp23
 70
     1
102
RTVSPropertyOp24
 70
     1
102
RTVSPropertyOp25
 70
     1
102
RTVSPropertyOp26
 70
     1
102
RTVSPropertyOp27
 70
     1
  0
XRECORD
  5
8E8
102
{ACAD_REACTORS
330
8E7
102
}
330
8E7
100
AcDbXrecord
280
     1
102
RTVSPropertyOp0
 70
     1
102
RTVSPropertyOp1
 70
     1
102
RTVSPropertyOp2
 70
     1
102
RTVSPropertyOp3
 70
     1
102
RTVSPropertyOp4
 70
     1
102
RTVSPropertyOp5
 70
     1
102
RTVSPropertyOp6
 70
     1
102
RTVSPropertyOp7
 70
     1
102
RTVSPropertyOp8
 70
     1
102
RTVSPropertyOp9
 70
     1
102
RTVSPropertyOp10
 70
     1
102
RTVSPropertyOp11
 70
     1
102
RTVSPropertyOp12
 70
     1
102
RTVSPropertyOp13
 70
     1
102
RTVSPropertyOp14
 70
     1
102
RTVSPropertyOp15
 70
     1
102
RTVSPropertyOp16
 70
     1
102
RTVSPropertyOp17
 70
     1
102
RTVSPropertyOp18
 70
     1
102
RTVSPropertyOp19
 70
     1
102
RTVSPropertyOp20
 70
     1
102
RTVSPropertyOp21
 70
     1
102
RTVSPropertyOp22
 70
     1
102
RTVSPropertyOp23
 70
     1
102
RTVSPropertyOp24
 70
     1
102
RTVSPropertyOp25
 70
     1
102
RTVSPropertyOp26
 70
     1
102
RTVSPropertyOp27
 70
     1
  0
XRECORD
  5
8CC
102
{ACAD_REACTORS
330
8CB
102
}
330
8CB
100
AcDbXrecord
280
     1
102
RTVSPropertyOp0
 70
     1
102
RTVSPropertyOp1
 70
     1
102
RTVSPropertyOp2
 70
     1
102
RTVSPropertyOp3
 70
     1
102
RTVSPropertyOp4
 70
     1
102
RTVSPropertyOp5
 70
     1
102
RTVSPropertyOp6
 70
     1
102
RTVSPropertyOp7
 70
     1
102
RTVSPropertyOp8
 70
     1
102
RTVSPropertyOp9
 70
     1
102
RTVSPropertyOp10
 70
     1
102
RTVSPropertyOp11
 70
     1
102
RTVSPropertyOp12
 70
     1
102
RTVSPropertyOp13
 70
     1
102
RTVSPropertyOp14
 70
     1
102
RTVSPropertyOp15
 70
     1
102
RTVSPropertyOp16
 70
     1
102
RTVSPropertyOp17
 70
     1
102
RTVSPropertyOp18
 70
     1
102
RTVSPropertyOp19
 70
     1
102
RTVSPropertyOp20
 70
     1
102
RTVSPropertyOp21
 70
     1
102
RTVSPropertyOp22
 70
     1
102
RTVSPropertyOp23
 70
     1
102
RTVSPropertyOp24
 70
     1
102
RTVSPropertyOp25
 70
     1
102
RTVSPropertyOp26
 70
     1
102
RTVSPropertyOp27
 70
     1
  0
XRECORD
  5
8CE
102
{ACAD_REACTORS
330
8CD
102
}
330
8CD
100
AcDbXrecord
280
     1
102
RTVSPropertyOp0
 70
     1
102
RTVSPropertyOp1
 70
     1
102
RTVSPropertyOp2
 70
     1
102
RTVSPropertyOp3
 70
     1
102
RTVSPropertyOp4
 70
     1
102
RTVSPropertyOp5
 70
     1
102
RTVSPropertyOp6
 70
     1
102
RTVSPropertyOp7
 70
     1
102
RTVSPropertyOp8
 70
     1
102
RTVSPropertyOp9
 70
     1
102
RTVSPropertyOp10
 70
     1
102
RTVSPropertyOp11
 70
     1
102
RTVSPropertyOp12
 70
     1
102
RTVSPropertyOp13
 70
     1
102
RTVSPropertyOp14
 70
     1
102
RTVSPropertyOp15
 70
     1
102
RTVSPropertyOp16
 70
     1
102
RTVSPropertyOp17
 70
     1
102
RTVSPropertyOp18
 70
     1
102
RTVSPropertyOp19
 70
     1
102
RTVSPropertyOp20
 70
     1
102
RTVSPropertyOp21
 70
     1
102
RTVSPropertyOp22
 70
     1
102
RTVSPropertyOp23
 70
     1
102
RTVSPropertyOp24
 70
     1
102
RTVSPropertyOp25
 70
     1
102
RTVSPropertyOp26
 70
     1
102
RTVSPropertyOp27
 70
     1
  0
XRECORD
  5
8D0
102
{ACAD_REACTORS
330
8CF
102
}
330
8CF
100
AcDbXrecord
280
     1
102
RTVSPropertyOp0
 70
     1
102
RTVSPropertyOp1
 70
     1
102
RTVSPropertyOp2
 70
     1
102
RTVSPropertyOp3
 70
     1
102
RTVSPropertyOp4
 70
     1
102
RTVSPropertyOp5
 70
     1
102
RTVSPropertyOp6
 70
     1
102
RTVSPropertyOp7
 70
     1
102
RTVSPropertyOp8
 70
     1
102
RTVSPropertyOp9
 70
     1
102
RTVSPropertyOp10
 70
     1
102
RTVSPropertyOp11
 70
     1
102
RTVSPropertyOp12
 70
     1
102
RTVSPropertyOp13
 70
     1
102
RTVSPropertyOp14
 70
     1
102
RTVSPropertyOp15
 70
     1
102
RTVSPropertyOp16
 70
     1
102
RTVSPropertyOp17
 70
     1
102
RTVSPropertyOp18
 70
     1
102
RTVSPropertyOp19
 70
     1
102
RTVSPropertyOp20
 70
     1
102
RTVSPropertyOp21
 70
     1
102
RTVSPropertyOp22
 70
     1
102
RTVSPropertyOp23
 70
     1
102
RTVSPropertyOp24
 70
     1
102
RTVSPropertyOp25
 70
     1
102
RTVSPropertyOp26
 70
     1
102
RTVSPropertyOp27
 70
     1
  0
XRECORD
  5
8D2
102
{ACAD_REACTORS
330
8D1
102
}
330
8D1
100
AcDbXrecord
280
     1
102
RTVSPropertyOp0
 70
     1
102
RTVSPropertyOp1
 70
     1
102
RTVSPropertyOp2
 70
     1
102
RTVSPropertyOp3
 70
     1
102
RTVSPropertyOp4
 70
     1
102
RTVSPropertyOp5
 70
     1
102
RTVSPropertyOp6
 70
     1
102
RTVSPropertyOp7
 70
     1
102
RTVSPropertyOp8
 70
     1
102
RTVSPropertyOp9
 70
     1
102
RTVSPropertyOp10
 70
     1
102
RTVSPropertyOp11
 70
     1
102
RTVSPropertyOp12
 70
     1
102
RTVSPropertyOp13
 70
     1
102
RTVSPropertyOp14
 70
     1
102
RTVSPropertyOp15
 70
     1
102
RTVSPropertyOp16
 70
     1
102
RTVSPropertyOp17
 70
     1
102
RTVSPropertyOp18
 70
     1
102
RTVSPropertyOp19
 70
     1
102
RTVSPropertyOp20
 70
     1
102
RTVSPropertyOp21
 70
     1
102
RTVSPropertyOp22
 70
     1
102
RTVSPropertyOp23
 70
     1
102
RTVSPropertyOp24
 70
     1
102
RTVSPropertyOp25
 70
     1
102
RTVSPropertyOp26
 70
     1
102
RTVSPropertyOp27
 70
     1
  0
XRECORD
  5
8E6
102
{ACAD_REACTORS
330
8E5
102
}
330
8E5
100
AcDbXrecord
280
     1
102
RTVSPropertyOp0
 70
     1
102
RTVSPropertyOp1
 70
     1
102
RTVSPropertyOp2
 70
     1
102
RTVSPropertyOp3
 70
     1
102
RTVSPropertyOp4
 70
     1
102
RTVSPropertyOp5
 70
     1
102
RTVSPropertyOp6
 70
     1
102
RTVSPropertyOp7
 70
     1
102
RTVSPropertyOp8
 70
     1
102
RTVSPropertyOp9
 70
     1
102
RTVSPropertyOp10
 70
     1
102
RTVSPropertyOp11
 70
     1
102
RTVSPropertyOp12
 70
     1
102
RTVSPropertyOp13
 70
     1
102
RTVSPropertyOp14
 70
     1
102
RTVSPropertyOp15
 70
     1
102
RTVSPropertyOp16
 70
     1
102
RTVSPropertyOp17
 70
     1
102
RTVSPropertyOp18
 70
     1
102
RTVSPropertyOp19
 70
     1
102
RTVSPropertyOp20
 70
     1
102
RTVSPropertyOp21
 70
     1
102
RTVSPropertyOp22
 70
     1
102
RTVSPropertyOp23
 70
     1
102
RTVSPropertyOp24
 70
     1
102
RTVSPropertyOp25
 70
     1
102
RTVSPropertyOp26
 70
     1
102
RTVSPropertyOp27
 70
     1
  0
XRECORD
  5
8DC
102
{ACAD_REACTORS
330
8DB
102
}
330
8DB
100
AcDbXrecord
280
     1
102
RTVSPropertyOp0
 70
     1
102
RTVSPropertyOp1
 70
     1
102
RTVSPropertyOp2
 70
     1
102
RTVSPropertyOp3
 70
     1
102
RTVSPropertyOp4
 70
     1
102
RTVSPropertyOp5
 70
     1
102
RTVSPropertyOp6
 70
     1
102
RTVSPropertyOp7
 70
     1
102
RTVSPropertyOp8
 70
     1
102
RTVSPropertyOp9
 70
     1
102
RTVSPropertyOp10
 70
     1
102
RTVSPropertyOp11
 70
     1
102
RTVSPropertyOp12
 70
     1
102
RTVSPropertyOp13
 70
     1
102
RTVSPropertyOp14
 70
     1
102
RTVSPropertyOp15
 70
     1
102
RTVSPropertyOp16
 70
     1
102
RTVSPropertyOp17
 70
     1
102
RTVSPropertyOp18
 70
     1
102
RTVSPropertyOp19
 70
     1
102
RTVSPropertyOp20
 70
     1
102
RTVSPropertyOp21
 70
     1
102
RTVSPropertyOp22
 70
     1
102
RTVSPropertyOp23
 70
     1
102
RTVSPropertyOp24
 70
     1
102
RTVSPropertyOp25
 70
     1
102
RTVSPropertyOp26
 70
     1
102
RTVSPropertyOp27
 70
     1
  0
XRECORD
  5
8E4
102
{ACAD_REACTORS
330
8E3
102
}
330
8E3
100
AcDbXrecord
280
     1
102
RTVSPropertyOp0
 70
     1
102
RTVSPropertyOp1
 70
     1
102
RTVSPropertyOp2
 70
     1
102
RTVSPropertyOp3
 70
     1
102
RTVSPropertyOp4
 70
     1
102
RTVSPropertyOp5
 70
     1
102
RTVSPropertyOp6
 70
     1
102
RTVSPropertyOp7
 70
     1
102
RTVSPropertyOp8
 70
     1
102
RTVSPropertyOp9
 70
     1
102
RTVSPropertyOp10
 70
     1
102
RTVSPropertyOp11
 70
     1
102
RTVSPropertyOp12
 70
     1
102
RTVSPropertyOp13
 70
     1
102
RTVSPropertyOp14
 70
     1
102
RTVSPropertyOp15
 70
     1
102
RTVSPropertyOp16
 70
     1
102
RTVSPropertyOp17
 70
     1
102
RTVSPropertyOp18
 70
     1
102
RTVSPropertyOp19
 70
     1
102
RTVSPropertyOp20
 70
     1
102
RTVSPropertyOp21
 70
     1
102
RTVSPropertyOp22
 70
     1
102
RTVSPropertyOp23
 70
     1
102
RTVSPropertyOp24
 70
     1
102
RTVSPropertyOp25
 70
     1
102
RTVSPropertyOp26
 70
     1
102
RTVSPropertyOp27
 70
     1
  0
ENDSEC
  0
EOF
