  0
SECTION
  2
HEADER
  9
$ACADVER
  1
AC1015
  9
$ACADMAINTVER
 70
     6
  9
$DWGCODEPAGE
  3
ANSI_1252
  9
$INSBASE
 10
0.0
 20
0.0
 30
0.0
  9
$EXTMIN
 10
0.0
 20
0.0
 30
0.0
  9
$EXTMAX
 10
25.0
 20
35.0
 30
0.0
  9
$LIMMIN
 10
0.0
 20
0.0
  9
$LIMMAX
 10
420.0
 20
297.0
  9
$ORTHOMODE
 70
     0
  9
$REGENMODE
 70
     1
  9
$FILLMODE
 70
     1
  9
$QTEXTMODE
 70
     0
  9
$MIRRTEXT
 70
     1
  9
$LTSCALE
 40
4.95
  9
$ATTMODE
 70
     1
  9
$TEXTSIZE
 40
2.5
  9
$TRACEWID
 40
1.0
  9
$TEXTSTYLE
  7
Standard
  9
$CLAYER
  8
0
  9
$CELTYPE
  6
ByLayer
  9
$CECOLOR
 62
   256
  9
$CELTSCALE
 40
1.0
  9
$DISPSILH
 70
     0
  9
$DIMSCALE
 40
1.0
  9
$DIMASZ
 40
2.5
  9
$DIMEXO
 40
0.625
  9
$DIMDLI
 40
3.75
  9
$DIMRND
 40
0.0
  9
$DIMDLE
 40
0.0
  9
$DIMEXE
 40
1.25
  9
$DIMTP
 40
0.0
  9
$DIMTM
 40
0.0
  9
$DIMTXT
 40
2.5
  9
$DIMCEN
 40
2.5
  9
$DIMTSZ
 40
0.0
  9
$DIMTOL
 70
     0
  9
$DIMLIM
 70
     0
  9
$DIMTIH
 70
     0
  9
$DIMTOH
 70
     0
  9
$DIMSE1
 70
     0
  9
$DIMSE2
 70
     0
  9
$DIMTAD
 70
     1
  9
$DIMZIN
 70
     8
  9
$DIMBLK
  1

  9
$DIMASO
 70
     1
  9
$DIMSHO
 70
     1
  9
$DIMPOST
  1

  9
$DIMAPOST
  1

  9
$DIMALT
 70
     0
  9
$DIMALTD
 70
     3
  9
$DIMALTF
 40
0.03937007874016
  9
$DIMLFAC
 40
1.0
  9
$DIMTOFL
 70
     1
  9
$DIMTVP
 40
0.0
  9
$DIMTIX
 70
     0
  9
$DIMSOXD
 70
     0
  9
$DIMSAH
 70
     0
  9
$DIMBLK1
  1

  9
$DIMBLK2
  1

  9
$DIMSTYLE
  2
ISO-25
  9
$DIMCLRD
 70
     0
  9
$DIMCLRE
 70
     0
  9
$DIMCLRT
 70
     0
  9
$DIMTFAC
 40
1.0
  9
$DIMGAP
 40
0.625
  9
$DIMJUST
 70
     0
  9
$DIMSD1
 70
     0
  9
$DIMSD2
 70
     0
  9
$DIMTOLJ
 70
     0
  9
$DIMTZIN
 70
     8
  9
$DIMALTZ
 70
     0
  9
$DIMALTTZ
 70
     0
  9
$DIMUPT
 70
     0
  9
$DIMDEC
 70
     2
  9
$DIMTDEC
 70
     2
  9
$DIMALTU
 70
     2
  9
$DIMALTTD
 70
     3
  9
$DIMTXSTY
  7
Standard
  9
$DIMAUNIT
 70
     0
  9
$DIMADEC
 70
     0
  9
$DIMALTRND
 40
0.0
  9
$DIMAZIN
 70
     0
  9
$DIMDSEP
 70
    44
  9
$DIMATFIT
 70
     3
  9
$DIMFRAC
 70
     0
  9
$DIMLDRBLK
  1

  9
$DIMLUNIT
 70
     2
  9
$DIMLWD
 70
    -2
  9
$DIMLWE
 70
    -2
  9
$DIMTMOVE
 70
     0
  9
$LUNITS
 70
     2
  9
$LUPREC
 70
     4
  9
$SKETCHINC
 40
1.0
  9
$FILLETRAD
 40
10.0
  9
$AUNITS
 70
     0
  9
$AUPREC
 70
     0
  9
$MENU
  1
.
  9
$ELEVATION
 40
0.0
  9
$PELEVATION
 40
0.0
  9
$THICKNESS
 40
0.0
  9
$LIMCHECK
 70
     0
  9
$CHAMFERA
 40
10.0
  9
$CHAMFERB
 40
10.0
  9
$CHAMFERC
 40
20.0
  9
$CHAMFERD
 40
0.0
  9
$SKPOLY
 70
     0
  9
$TDCREATE
 40
2458578.097916667
  9
$TDUCREATE
 40
2458578.014583333
  9
$TDUPDATE
 40
2458578.101388889
  9
$TDUUPDATE
 40
2458578.018055555
  9
$TDINDWG
 40
0.0000000116
  9
$TDUSRTIMER
 40
0.0000000116
  9
$USRTIMER
 70
     1
  9
$ANGBASE
 50
0.0
  9
$ANGDIR
 70
     0
  9
$PDMODE
 70
     0
  9
$PDSIZE
 40
0.0
  9
$PLINEWID
 40
0.0
  9
$SPLFRAME
 70
     0
  9
$SPLINETYPE
 70
     6
  9
$SPLINESEGS
 70
     8
  9
$HANDSEED
  5
81F
  9
$SURFTAB1
 70
     6
  9
$SURFTAB2
 70
     6
  9
$SURFTYPE
 70
     6
  9
$SURFU
 70
     6
  9
$SURFV
 70
     6
  9
$UCSBASE
  2

  9
$UCSNAME
  2

  9
$UCSORG
 10
0.0
 20
0.0
 30
0.0
  9
$UCSXDIR
 10
1.0
 20
0.0
 30
0.0
  9
$UCSYDIR
 10
0.0
 20
1.0
 30
0.0
  9
$UCSORTHOREF
  2

  9
$UCSORTHOVIEW
 70
     0
  9
$UCSORGTOP
 10
0.0
 20
0.0
 30
0.0
  9
$UCSORGBOTTOM
 10
0.0
 20
0.0
 30
0.0
  9
$UCSORGLEFT
 10
0.0
 20
0.0
 30
0.0
  9
$UCSORGRIGHT
 10
0.0
 20
0.0
 30
0.0
  9
$UCSORGFRONT
 10
0.0
 20
0.0
 30
0.0
  9
$UCSORGBACK
 10
0.0
 20
0.0
 30
0.0
  9
$PUCSBASE
  2

  9
$PUCSNAME
  2

  9
$PUCSORG
 10
0.0
 20
0.0
 30
0.0
  9
$PUCSXDIR
 10
1.0
 20
0.0
 30
0.0
  9
$PUCSYDIR
 10
0.0
 20
1.0
 30
0.0
  9
$PUCSORTHOREF
  2

  9
$PUCSORTHOVIEW
 70
     0
  9
$PUCSORGTOP
 10
0.0
 20
0.0
 30
0.0
  9
$PUCSORGBOTTOM
 10
0.0
 20
0.0
 30
0.0
  9
$PUCSORGLEFT
 10
0.0
 20
0.0
 30
0.0
  9
$PUCSORGRIGHT
 10
0.0
 20
0.0
 30
0.0
  9
$PUCSORGFRONT
 10
0.0
 20
0.0
 30
0.0
  9
$PUCSORGBACK
 10
0.0
 20
0.0
 30
0.0
  9
$USERI1
 70
     0
  9
$USERI2
 70
     0
  9
$USERI3
 70
     0
  9
$USERI4
 70
     0
  9
$USERI5
 70
     0
  9
$USERR1
 40
0.0
  9
$USERR2
 40
0.0
  9
$USERR3
 40
0.0
  9
$USERR4
 40
0.0
  9
$USERR5
 40
0.0
  9
$WORLDVIEW
 70
     1
  9
$SHADEDGE
 70
     3
  9
$SHADEDIF
 70
    70
  9
$TILEMODE
 70
     1
  9
$MAXACTVP
 70
    64
  9
$PINSBASE
 10
0.0
 20
0.0
 30
0.0
  9
$PLIMCHECK
 70
     0
  9
$PEXTMIN
 10
1.000000000000000E+20
 20
1.000000000000000E+20
 30
1.000000000000000E+20
  9
$PEXTMAX
 10
-1.000000000000000E+20
 20
-1.000000000000000E+20
 30
-1.000000000000000E+20
  9
$PLIMMIN
 10
0.0
 20
0.0
  9
$PLIMMAX
 10
420.0
 20
297.0
  9
$UNITMODE
 70
     0
  9
$VISRETAIN
 70
     1
  9
$PLINEGEN
 70
     0
  9
$PSLTSCALE
 70
     1
  9
$TREEDEPTH
 70
  3020
  9
$CMLSTYLE
  2
Standard
  9
$CMLJUST
 70
     0
  9
$CMLSCALE
 40
20.0
  9
$PROXYGRAPHICS
 70
     1
  9
$MEASUREMENT
 70
     1
  9
$CELWEIGHT
370
    -1
  9
$ENDCAPS
280
     0
  9
$JOINSTYLE
280
     0
  9
$LWDISPLAY
290
     0
  9
$INSUNITS
 70
     4
  9
$HYPERLINKBASE
  1

  9
$STYLESHEET
  1

  9
$XEDIT
290
     1
  9
$CEPSNTYPE
380
     0
  9
$PSTYLEMODE
290
     1
  9
$FINGERPRINTGUID
  2
{0B6839D2-A4B3-4EF7-BED1-596F89877F63}
  9
$VERSIONGUID
  2
{FAEB1C32-E019-11D5-929B-00C0DF256EC4}
  9
$EXTNAMES
290
     1
  9
$PSVPSCALE
 40
0.0
  9
$OLESTARTUP
290
     0
  0
ENDSEC
  0
SECTION
  2
CLASSES
  0
CLASS
  1
ACDBDICTIONARYWDFLT
  2
AcDbDictionaryWithDefault
  3
ObjectDBX Classes
 90
        0
280
     0
281
     0
  0
CLASS
  1
VISUALSTYLE
  2
AcDbVisualStyle
  3
ObjectDBX Classes
 90
     4095
280
     0
281
     0
  0
CLASS
  1
MATERIAL
  2
AcDbMaterial
  3
ObjectDBX Classes
 90
     1153
280
     0
281
     0
  0
CLASS
  1
SCALE
  2
AcDbScale
  3
ObjectDBX Classes
 90
     1153
280
     0
281
     0
  0
CLASS
  1
DICTIONARYVAR
  2
AcDbDictionaryVar
  3
ObjectDBX Classes
 90
        0
280
     0
281
     0
  0
CLASS
  1
ACDBPLACEHOLDER
  2
AcDbPlaceHolder
  3
ObjectDBX Classes
 90
        0
280
     0
281
     0
  0
CLASS
  1
LAYOUT
  2
AcDbLayout
  3
ObjectDBX Classes
 90
        0
280
     0
281
     0
  0
ENDSEC
  0
SECTION
  2
TABLES
  0
TABLE
  2
VPORT
  5
8
330
0
100
AcDbSymbolTable
 70
     1
  0
VPORT
  5
29
330
8
100
AcDbSymbolTableRecord
100
AcDbViewportTableRecord
  2
*Active
 70
     0
 10
0.0
 20
0.0
 11
1.0
 21
1.0
 12
11.26
 22
4.5
 13
0.0
 23
0.0
 14
10.0
 24
10.0
 15
10.0
 25
10.0
 16
0.0
 26
0.0
 36
1.0
 17
0.0
 27
0.0
 37
0.0
 40
9.0
 41
2.503333333333333
 42
50.0
 43
0.0
 44
0.0
 50
0.0
 51
0.0
 71
     0
 72
   100
 73
     1
 74
     3
 75
     0
 76
     0
 77
     0
 78
     0
281
     0
 65
     1
110
0.0
120
0.0
130
0.0
111
1.0
121
0.0
131
0.0
112
0.0
122
1.0
132
0.0
 79
     0
146
0.0
  0
ENDTAB
  0
TABLE
  2
LTYPE
  5
5
330
0
100
AcDbSymbolTable
 70
    10
  0
LTYPE
  5
14
330
5
100
AcDbSymbolTableRecord
100
AcDbLinetypeTableRecord
  2
ByBlock
 70
     0
  3

 72
    65
 73
     0
 40
0.0
  0
LTYPE
  5
15
330
5
100
AcDbSymbolTableRecord
100
AcDbLinetypeTableRecord
  2
ByLayer
 70
     0
  3

 72
    65
 73
     0
 40
0.0
  0
LTYPE
  5
16
330
5
100
AcDbSymbolTableRecord
100
AcDbLinetypeTableRecord
  2
Continuous
 70
     0
  3
Solid line
 72
    65
 73
     0
 40
0.0
  0
LTYPE
  5
45
330
5
100
AcDbSymbolTableRecord
100
AcDbLinetypeTableRecord
  2
phl_thick
 70
     0
  3
THICK
 72
    65
 73
     0
 40
0.0
  0
LTYPE
  5
19E
330
5
100
AcDbSymbolTableRecord
100
AcDbLinetypeTableRecord
  2
ls_CUT
 70
     0
  3
THICK
 72
    65
 73
     0
 40
0.0
  0
LTYPE
  5
1A4
330
5
100
AcDbSymbolTableRecord
100
AcDbLinetypeTableRecord
  2
ls1
 70
     0
  3
THICK
 72
    65
 73
     0
 40
0.0
  0
LTYPE
  5
1AB
330
5
100
AcDbSymbolTableRecord
100
AcDbLinetypeTableRecord
  2
NOCUT
 70
     0
  3
THICK
 72
    65
 73
     0
 40
0.0
  0
LTYPE
  5
1AF
330
5
100
AcDbSymbolTableRecord
100
AcDbLinetypeTableRecord
  2
SK1
 70
     0
  3
THICK
 72
    65
 73
     0
 40
0.0
  0
LTYPE
  5
1B7
330
5
100
AcDbSymbolTableRecord
100
AcDbLinetypeTableRecord
  2
ls_SK2
 70
     0
  3
THIN
 72
    65
 73
     0
 40
0.0
  0
LTYPE
  5
263
330
5
100
AcDbSymbolTableRecord
100
AcDbLinetypeTableRecord
  2
ls_2
 70
     0
  3
THIN
 72
    65
 73
     0
 40
0.0
  0
LTYPE
  5
3B3
330
5
100
AcDbSymbolTableRecord
100
AcDbLinetypeTableRecord
  2
LONGDASH_DASH
 70
     0
  3
THIN_DASHDOT
 72
    65
 73
     4
 40
0.85
 49
0.4
 74
     0
 49
-0.2
 74
     0
 49
0.05
 74
     0
 49
-0.2
 74
     0
  0
LTYPE
  5
3F1
330
5
100
AcDbSymbolTableRecord
100
AcDbLinetypeTableRecord
  2
ls_SK1
 70
     0
  3
THICK
 72
    65
 73
     0
 40
0.0
  0
ENDTAB
  0
TABLE
  2
LAYER
  5
2
330
0
100
AcDbSymbolTable
 70
    10
  0
LAYER
  5
10
330
2
100
AcDbSymbolTableRecord
100
AcDbLayerTableRecord
  2
0
 70
     0
 62
     7
  6
Continuous
370
    -3
390
F
  0
LAYER
  5
44
330
2
100
AcDbSymbolTableRecord
100
AcDbLayerTableRecord
  2
1
 70
     0
 62
4
  6
CONTINUOUS
370
50
370
    -3
390
F
  0
LAYER
  5
19D
330
2
100
AcDbSymbolTableRecord
100
AcDbLayerTableRecord
  2
CUT
 70
     0
 62
1
  6
CONTINUOUS
370
25
370
    -3
390
F
  0
LAYER
  5
1A3
330
2
100
AcDbSymbolTableRecord
100
AcDbLayerTableRecord
  2
NOCUT
 70
     0
 62
7
  6
CONTINUOUS
370
25
370
    -3
390
F
  0
LAYER
  5
1AE
330
2
100
AcDbSymbolTableRecord
100
AcDbLayerTableRecord
  2
SK1
 70
     0
 62
4
  6
CONTINUOUS
370
50
370
    -3
390
F
  0
LAYER
  5
1B6
330
2
100
AcDbSymbolTableRecord
100
AcDbLayerTableRecord
  2
SK2
 70
     0
 62
7
  6
CONTINUOUS
370
25
370
    -3
390
F
  0
LAYER
  5
262
330
2
100
AcDbSymbolTableRecord
100
AcDbLayerTableRecord
  2
2
 70
     0
 62
7
  6
CONTINUOUS
370
25
370
    -3
390
F
  0
LAYER
  5
3B2
330
2
100
AcDbSymbolTableRecord
100
AcDbLayerTableRecord
  2
4
 70
     0
 62
2
  6
LONGDASH_DASH
370
25
370
    -3
390
F
  0
LAYER
  5
3B5
330
2
100
AcDbSymbolTableRecord
100
AcDbLayerTableRecord
  2
SK4
 70
     0
 62
2
  6
LONGDASH_DASH
370
25
370
    -3
390
F
  0
LAYER
  5
42A
330
2
100
AcDbSymbolTableRecord
100
AcDbLayerTableRecord
  2
SK6
 70
     0
 62
5
  6
CONTINUOUS
370
25
370
    -3
390
F
  0
ENDTAB
  0
TABLE
  2
STYLE
  5
3
330
0
100
AcDbSymbolTable
 70
     1
  0
STYLE
  5
11
330
3
100
AcDbSymbolTableRecord
100
AcDbTextStyleTableRecord
  2
Standard
 70
     0
 40
0.0
 41
1.0
 50
0.0
 71
     0
 42
2.5
  3
Monospac821 BT
  4

  0
ENDTAB
  0
TABLE
  2
VIEW
  5
6
330
0
100
AcDbSymbolTable
 70
     0
  0
ENDTAB
  0
TABLE
  2
UCS
  5
7
330
0
100
AcDbSymbolTable
 70
     0
  0
ENDTAB
  0
TABLE
  2
APPID
  5
9
330
0
100
AcDbSymbolTable
 70
     2
  0
APPID
  5
12
330
9
100
AcDbSymbolTableRecord
100
AcDbRegAppTableRecord
  2
ACAD
 70
     0
  0
APPID
  5
3F
330
9
100
AcDbSymbolTableRecord
100
AcDbRegAppTableRecord
  2
ccLab
 70
     0
  0
ENDTAB
  0
TABLE
  2
DIMSTYLE
  5
A
330
0
100
AcDbSymbolTable
 70
     1
100
AcDbDimStyleTable
  0
DIMSTYLE
105
27
330
A
100
AcDbSymbolTableRecord
100
AcDbDimStyleTableRecord
  2
ISO-25
 70
     0
 41
2.5
 42
0.625
 43
3.75
 44
1.25
 73
     0
 74
     0
 77
     1
 78
     8
140
2.5
141
2.5
143
0.03937007874016
147
0.625
171
     3
172
     1
271
     2
272
     2
274
     3
278
    44
283
     0
284
     8
340
11
  0
ENDTAB
  0
TABLE
  2
BLOCK_RECORD
  5
1
330
0
100
AcDbSymbolTable
 70
     2
  0
BLOCK_RECORD
  5
1F
330
1
100
AcDbSymbolTableRecord
100
AcDbBlockTableRecord
  2
*Model_Space
340
22
  0
BLOCK_RECORD
  5
1B
330
1
100
AcDbSymbolTableRecord
100
AcDbBlockTableRecord
  2
*Paper_Space
340
1E
  0
BLOCK_RECORD
  5
23
330
1
100
AcDbSymbolTableRecord
100
AcDbBlockTableRecord
  2
*Paper_Space0
340
26
  0
ENDTAB
  0
ENDSEC
  0
SECTION
  2
BLOCKS
  0
BLOCK
  5
20
330
1F
100
AcDbEntity
  8
0
100
AcDbBlockBegin
  2
*Model_Space
 70
     0
 10
0.0
 20
0.0
 30
0.0
  3
*Model_Space
  1

  0
ENDBLK
  5
21
330
1F
100
AcDbEntity
  8
0
100
AcDbBlockEnd
  0
BLOCK
  5
1C
330
1B
100
AcDbEntity
 67
     1
  8
0
100
AcDbBlockBegin
  2
*Paper_Space
 70
     0
 10
0.0
 20
0.0
 30
0.0
  3
*Paper_Space
  1

  0
ENDBLK
  5
1D
330
1B
100
AcDbEntity
 67
     1
  8
0
100
AcDbBlockEnd
  0
BLOCK
  5
24
330
23
100
AcDbEntity
  8
0
100
AcDbBlockBegin
  2
*Paper_Space0
 70
     0
 10
0.0
 20
0.0
 30
0.0
  3
*Paper_Space0
  1

  0
ENDBLK
  5
25
330
23
100
AcDbEntity
  8
0
100
AcDbBlockEnd
  0
ENDSEC
  0
SECTION
  2
ENTITIES
  0
LINE
  5
434
330
1F
100
AcDbEntity
  8
1
  6
CONTINUOUS
370
50
 62
4
100
AcDbLine
 10
51.08570899999999
 20
-0.965783
 30
0.0
 11
51.085522
 21
-0.8557739999999999
 31
0.0
  0
LINE
  5
435
330
1F
100
AcDbEntity
  8
1
  6
CONTINUOUS
370
50
 62
4
100
AcDbLine
 10
51.086075
 20
-1.073089
 30
0.0
 11
51.08570899999999
 21
-0.965783
 31
0.0
  0
LINE
  5
436
330
1F
100
AcDbEntity
  8
1
  6
CONTINUOUS
370
50
 62
4
100
AcDbLine
 10
51.086639
 20
-1.17651
 30
0.0
 11
51.086075
 21
-1.073089
 31
0.0
  0
LINE
  5
437
330
1F
100
AcDbEntity
  8
1
  6
CONTINUOUS
370
50
 62
4
100
AcDbLine
 10
51.087391
 20
-1.275033
 30
0.0
 11
51.086639
 21
-1.17651
 31
0.0
  0
LINE
  5
438
330
1F
100
AcDbEntity
  8
1
  6
CONTINUOUS
370
50
 62
4
100
AcDbLine
 10
51.088333
 20
-1.367765
 30
0.0
 11
51.087391
 21
-1.275033
 31
0.0
  0
LINE
  5
439
330
1F
100
AcDbEntity
  8
1
  6
CONTINUOUS
370
50
 62
4
100
AcDbLine
 10
51.089458
 20
-1.453863
 30
0.0
 11
51.088333
 21
-1.367765
 31
0.0
  0
LINE
  5
43A
330
1F
100
AcDbEntity
  8
1
  6
CONTINUOUS
370
50
 62
4
100
AcDbLine
 10
51.09075499999999
 20
-1.532734
 30
0.0
 11
51.089458
 21
-1.453863
 31
0.0
  0
LINE
  5
43B
330
1F
100
AcDbEntity
  8
1
  6
CONTINUOUS
370
50
 62
4
100
AcDbLine
 10
51.092213
 20
-1.603829
 30
0.0
 11
51.09075499999999
 21
-1.532734
 31
0.0
  0
LINE
  5
43C
330
1F
100
AcDbEntity
  8
1
  6
CONTINUOUS
370
50
 62
4
100
AcDbLine
 10
51.093815
 20
-1.66664
 30
0.0
 11
51.092213
 21
-1.603829
 31
0.0
  0
LINE
  5
43D
330
1F
100
AcDbEntity
  8
1
  6
CONTINUOUS
370
50
 62
4
100
AcDbLine
 10
51.095539
 20
-1.720945
 30
0.0
 11
51.093815
 21
-1.66664
 31
0.0
  0
LINE
  5
43E
330
1F
100
AcDbEntity
  8
1
  6
CONTINUOUS
370
50
 62
4
100
AcDbLine
 10
51.097366
 20
-1.76663
 30
0.0
 11
51.095539
 21
-1.720945
 31
0.0
  0
LINE
  5
43F
330
1F
100
AcDbEntity
  8
1
  6
CONTINUOUS
370
50
 62
4
100
AcDbLine
 10
51.09931899999999
 20
-1.804417
 30
0.0
 11
51.097366
 21
-1.76663
 31
0.0
  0
LINE
  5
440
330
1F
100
AcDbEntity
  8
1
  6
CONTINUOUS
370
50
 62
4
100
AcDbLine
 10
51.125671
 20
1.693414
 30
0.0
 11
51.123955
 21
1.726545
 31
0.0
  0
LINE
  5
441
330
1F
100
AcDbEntity
  8
1
  6
CONTINUOUS
370
50
 62
4
100
AcDbLine
 10
51.123955
 20
1.726545
 30
0.0
 11
51.122215
 21
1.756832
 31
0.0
  0
LINE
  5
442
330
1F
100
AcDbEntity
  8
1
  6
CONTINUOUS
370
50
 62
4
100
AcDbLine
 10
51.122215
 20
1.756832
 30
0.0
 11
51.120461
 21
1.784057
 31
0.0
  0
LINE
  5
443
330
1F
100
AcDbEntity
  8
1
  6
CONTINUOUS
370
50
 62
4
100
AcDbLine
 10
51.101425
 20
-1.834746
 30
0.0
 11
51.09931899999999
 21
-1.804417
 31
0.0
  0
LINE
  5
444
330
1F
100
AcDbEntity
  8
1
  6
CONTINUOUS
370
50
 62
4
100
AcDbLine
 10
51.120461
 20
1.784057
 30
0.0
 11
51.118706
 21
1.808004
 31
0.0
  0
LINE
  5
445
330
1F
100
AcDbEntity
  8
1
  6
CONTINUOUS
370
50
 62
4
100
AcDbLine
 10
51.118706
 20
1.808004
 30
0.0
 11
51.116947
 21
1.828463
 31
0.0
  0
LINE
  5
446
330
1F
100
AcDbEntity
  8
1
  6
CONTINUOUS
370
50
 62
4
100
AcDbLine
 10
51.103672
 20
-1.856937
 30
0.0
 11
51.101425
 21
-1.834746
 31
0.0
  0
LINE
  5
447
330
1F
100
AcDbEntity
  8
1
  6
CONTINUOUS
370
50
 62
4
100
AcDbLine
 10
51.116947
 20
1.828463
 30
0.0
 11
51.115196
 21
1.845307
 31
0.0
  0
LINE
  5
448
330
1F
100
AcDbEntity
  8
1
  6
CONTINUOUS
370
50
 62
4
100
AcDbLine
 10
51.115196
 20
1.845307
 30
0.0
 11
51.113461
 21
1.858455
 31
0.0
  0
LINE
  5
449
330
1F
100
AcDbEntity
  8
1
  6
CONTINUOUS
370
50
 62
4
100
AcDbLine
 10
51.873707
 20
-0.06057
 30
0.0
 11
51.871159
 21
-0.045956
 31
0.0
  0
LINE
  5
44A
330
1F
100
AcDbEntity
  8
1
  6
CONTINUOUS
370
50
 62
4
100
AcDbLine
 10
51.106041
 20
-1.870427
 30
0.0
 11
51.103672
 21
-1.856937
 31
0.0
  0
LINE
  5
44B
330
1F
100
AcDbEntity
  8
1
  6
CONTINUOUS
370
50
 62
4
100
AcDbLine
 10
51.113461
 20
1.858455
 30
0.0
 11
51.11174399999999
 21
1.867827
 31
0.0
  0
LINE
  5
44C
330
1F
100
AcDbEntity
  8
1
  6
CONTINUOUS
370
50
 62
4
100
AcDbLine
 10
51.871159
 20
-0.045956
 30
0.0
 11
51.868057
 21
-0.030833
 31
0.0
  0
LINE
  5
44D
330
1F
100
AcDbEntity
  8
1
  6
CONTINUOUS
370
50
 62
4
100
AcDbLine
 10
51.868057
 20
-0.030833
 30
0.0
 11
51.864361
 21
-0.015086
 31
0.0
  0
LINE
  5
44E
330
1F
100
AcDbEntity
  8
1
  6
CONTINUOUS
370
50
 62
4
100
AcDbLine
 10
51.864361
 20
-0.015086
 30
0.0
 11
51.860023
 21
0.001413
 31
0.0
  0
LINE
  5
44F
330
1F
100
AcDbEntity
  8
1
  6
CONTINUOUS
370
50
 62
4
100
AcDbLine
 10
51.860023
 20
0.001413
 30
0.0
 11
51.85498
 21
0.01881
 31
0.0
  0
LINE
  5
450
330
1F
100
AcDbEntity
  8
1
  6
CONTINUOUS
370
50
 62
4
100
AcDbLine
 10
51.11174399999999
 20
1.867827
 30
0.0
 11
51.110054
 21
1.873344
 31
0.0
  0
LINE
  5
451
330
1F
100
AcDbEntity
  8
1
  6
CONTINUOUS
370
50
 62
4
100
AcDbLine
 10
51.85498
 20
0.01881
 30
0.0
 11
51.849155
 21
0.037275
 31
0.0
  0
LINE
  5
452
330
1F
100
AcDbEntity
  8
1
  6
CONTINUOUS
370
50
 62
4
100
AcDbLine
 10
31.902145
 20
-1.592409
 30
0.0
 11
31.888622
 21
-1.551389
 31
0.0
  0
LINE
  5
453
330
1F
100
AcDbEntity
  8
1
  6
CONTINUOUS
370
50
 62
4
100
AcDbLine
 10
51.849155
 20
0.037275
 30
0.0
 11
51.842457
 21
0.057007
 31
0.0
  0
LINE
  5
454
330
1F
100
AcDbEntity
  8
1
  6
CONTINUOUS
370
50
 62
4
100
AcDbLine
 10
51.848118
 20
0.056964
 30
0.0
 11
51.829384
 21
0.107126
 31
0.0
  0
LINE
  5
455
330
1F
100
AcDbEntity
  8
1
  6
CONTINUOUS
370
50
 62
4
100
AcDbLine
 10
51.829384
 20
0.107126
 30
0.0
 11
51.803757
 21
0.168651
 31
0.0
  0
LINE
  5
456
330
1F
100
AcDbEntity
  8
1
  6
CONTINUOUS
370
50
 62
4
100
AcDbLine
 10
51.803757
 20
0.168651
 30
0.0
 11
51.768063
 21
0.247632
 31
0.0
  0
LINE
  5
457
330
1F
100
AcDbEntity
  8
1
  6
CONTINUOUS
370
50
 62
4
100
AcDbLine
 10
51.239052
 20
1.271028
 30
0.0
 11
51.22356
 21
1.304262
 31
0.0
  0
LINE
  5
458
330
1F
100
AcDbEntity
  8
1
  6
CONTINUOUS
370
50
 62
4
100
AcDbLine
 10
52.0
 20
0.0
 30
0.0
 11
51.110031
 21
1.873396
 31
0.0
  0
LINE
  5
459
330
1F
100
AcDbEntity
  8
1
  6
CONTINUOUS
370
50
 62
4
100
AcDbLine
 10
51.22356
 20
1.304262
 30
0.0
 11
51.207676
 21
1.337364
 31
0.0
  0
LINE
  5
45A
330
1F
100
AcDbEntity
  8
1
  6
CONTINUOUS
370
50
 62
4
100
AcDbLine
 10
51.768063
 20
0.247632
 30
0.0
 11
51.716545
 21
0.354906
 31
0.0
  0
LINE
  5
45B
330
1F
100
AcDbEntity
  8
1
  6
CONTINUOUS
370
50
 62
4
100
AcDbLine
 10
51.207676
 20
1.337364
 30
0.0
 11
51.191608
 21
1.37038
 31
0.0
  0
LINE
  5
45C
330
1F
100
AcDbEntity
  8
1
  6
CONTINUOUS
370
50
 62
4
100
AcDbLine
 10
51.191608
 20
1.37038
 30
0.0
 11
51.175369
 21
1.403281
 31
0.0
  0
LINE
  5
45D
330
1F
100
AcDbEntity
  8
1
  6
CONTINUOUS
370
50
 62
4
100
AcDbLine
 10
51.175369
 20
1.403281
 30
0.0
 11
51.158974
 21
1.436039
 31
0.0
  0
LINE
  5
45E
330
1F
100
AcDbEntity
  8
1
  6
CONTINUOUS
370
50
 62
4
100
AcDbLine
 10
51.716545
 20
0.354906
 30
0.0
 11
51.637711
 21
0.511946
 31
0.0
  0
LINE
  5
45F
330
1F
100
AcDbEntity
  8
1
  6
CONTINUOUS
370
50
 62
4
100
AcDbLine
 10
51.158974
 20
1.436039
 30
0.0
 11
51.142433
 21
1.468627
 31
0.0
  0
LINE
  5
460
330
1F
100
AcDbEntity
  8
1
  6
CONTINUOUS
370
50
 62
4
100
AcDbLine
 10
51.110054
 20
1.873344
 30
0.0
 11
51.109798
 21
1.873848
 31
0.0
  0
LINE
  5
461
330
1F
100
AcDbEntity
  8
1
  6
CONTINUOUS
370
50
 62
4
100
AcDbLine
 10
52.0
 20
0.0
 30
0.0
 11
51.125671
 21
1.693414
 31
0.0
  0
LINE
  5
462
330
1F
100
AcDbEntity
  8
1
  6
CONTINUOUS
370
50
 62
4
100
AcDbLine
 10
51.637711
 20
0.511946
 30
0.0
 11
51.504887
 21
0.768382
 31
0.0
  0
LINE
  5
463
330
1F
100
AcDbEntity
  8
1
  6
CONTINUOUS
370
50
 62
4
100
AcDbLine
 10
51.142433
 20
1.468627
 30
0.0
 11
51.125671
 21
1.500975
 31
0.0
  0
LINE
  5
464
330
1F
100
AcDbEntity
  8
1
  6
CONTINUOUS
370
50
 62
4
100
AcDbLine
 10
51.504887
 20
0.768382
 30
0.0
 11
51.239052
 21
1.271028
 31
0.0
  0
LINE
  5
465
330
1F
100
AcDbEntity
  8
1
  6
CONTINUOUS
370
50
 62
4
100
AcDbLine
 10
51.108521
 20
-1.875001
 30
0.0
 11
51.106041
 21
-1.870427
 31
0.0
  0
LINE
  5
466
330
1F
100
AcDbEntity
  8
1
  6
CONTINUOUS
370
50
 62
4
100
AcDbLine
 10
51.109798
 20
1.873848
 30
0.0
 11
51.109539
 21
1.874259
 31
0.0
  0
LINE
  5
467
330
1F
100
AcDbEntity
  8
1
  6
CONTINUOUS
370
50
 62
4
100
AcDbLine
 10
31.926922
 20
-1.629774
 30
0.0
 11
31.902145
 21
-1.592409
 31
0.0
  0
LINE
  5
468
330
1F
100
AcDbEntity
  8
1
  6
CONTINUOUS
370
50
 62
4
100
AcDbLine
 10
51.109539
 20
1.874259
 30
0.0
 11
51.109283
 21
1.874578
 31
0.0
  0
LINE
  5
469
330
1F
100
AcDbEntity
  8
1
  6
CONTINUOUS
370
50
 62
4
100
AcDbLine
 10
51.405293
 20
-0.285222
 30
0.0
 11
51.287643
 21
-0.15846
 31
0.0
  0
LINE
  5
46A
330
1F
100
AcDbEntity
  8
1
  6
CONTINUOUS
370
50
 62
4
100
AcDbLine
 10
51.287643
 20
-0.15846
 30
0.0
 11
51.155655
 21
-0.021048
 31
0.0
  0
LINE
  5
46B
330
1F
100
AcDbEntity
  8
1
  6
CONTINUOUS
370
50
 62
4
100
AcDbLine
 10
51.155655
 20
-0.021048
 30
0.0
 11
51.01099
 21
0.126257
 31
0.0
  0
LINE
  5
46C
330
1F
100
AcDbEntity
  8
1
  6
CONTINUOUS
370
50
 62
4
100
AcDbLine
 10
31.960236
 20
-1.663242
 30
0.0
 11
31.926922
 21
-1.629774
 31
0.0
  0
LINE
  5
46D
330
1F
100
AcDbEntity
  8
1
  6
CONTINUOUS
370
50
 62
4
100
AcDbLine
 10
51.01099
 20
0.126257
 30
0.0
 11
50.855999
 21
0.281673
 31
0.0
  0
LINE
  5
46E
330
1F
100
AcDbEntity
  8
1
  6
CONTINUOUS
370
50
 62
4
100
AcDbLine
 10
50.855999
 20
0.281673
 30
0.0
 11
50.695583
 21
0.44068
 31
0.0
  0
LINE
  5
46F
330
1F
100
AcDbEntity
  8
1
  6
CONTINUOUS
370
50
 62
4
100
AcDbLine
 10
50.695583
 20
0.44068
 30
0.0
 11
50.53466
 21
0.598748
 31
0.0
  0
LINE
  5
470
330
1F
100
AcDbEntity
  8
1
  6
CONTINUOUS
370
50
 62
4
100
AcDbLine
 10
50.53466
 20
0.598748
 30
0.0
 11
50.378159
 21
0.751344
 31
0.0
  0
LINE
  5
471
330
1F
100
AcDbEntity
  8
1
  6
CONTINUOUS
370
50
 62
4
100
AcDbLine
 10
51.109283
 20
1.874578
 30
0.0
 11
51.109028
 21
1.874805
 31
0.0
  0
LINE
  5
472
330
1F
100
AcDbEntity
  8
1
  6
CONTINUOUS
370
50
 62
4
100
AcDbLine
 10
31.999781
 20
-1.692951
 30
0.0
 11
31.960236
 21
-1.663242
 31
0.0
  0
LINE
  5
473
330
1F
100
AcDbEntity
  8
1
  6
CONTINUOUS
370
50
 62
4
100
AcDbLine
 10
39.499565
 20
-0.742455
 30
0.0
 11
39.499424
 21
-0.742363
 31
0.0
  0
LINE
  5
474
330
1F
100
AcDbEntity
  8
1
  6
CONTINUOUS
370
50
 62
4
100
AcDbLine
 10
39.5
 20
-0.742734
 30
0.0
 11
39.499565
 21
-0.742455
 31
0.0
  0
LINE
  5
475
330
1F
100
AcDbEntity
  8
1
  6
CONTINUOUS
370
50
 62
4
100
AcDbLine
 10
39.499424
 20
-0.742363
 30
0.0
 11
39.499134
 21
-0.742177
 31
0.0
  0
LINE
  5
476
330
1F
100
AcDbEntity
  8
1
  6
CONTINUOUS
370
50
 62
4
100
AcDbLine
 10
32.0462
 20
-1.720521
 30
0.0
 11
31.999781
 21
-1.692951
 31
0.0
  0
LINE
  5
477
330
1F
100
AcDbEntity
  8
1
  6
CONTINUOUS
370
50
 62
4
100
AcDbLine
 10
39.5
 20
-1.8755
 30
0.0
 11
39.499134
 21
-1.875
 31
0.0
  0
LINE
  5
478
330
1F
100
AcDbEntity
  8
1
  6
CONTINUOUS
370
50
 62
4
100
AcDbLine
 10
51.873707
 20
-0.06057
 30
0.0
 11
50.378159
 21
0.751344
 31
0.0
  0
LINE
  5
479
330
1F
100
AcDbEntity
  8
1
  6
CONTINUOUS
370
50
 62
4
100
AcDbLine
 10
51.109028
 20
1.874805
 30
0.0
 11
51.108776
 21
1.87494
 31
0.0
  0
LINE
  5
47A
330
1F
100
AcDbEntity
  8
1
  6
CONTINUOUS
370
50
 62
4
100
AcDbLine
 10
37.930519
 20
0.0
 30
0.0
 11
37.596832
 21
0.16257
 31
0.0
  0
LINE
  5
47B
330
1F
100
AcDbEntity
  8
1
  6
CONTINUOUS
370
50
 62
4
100
AcDbLine
 10
42.892059
 20
-0.143453
 30
0.0
 11
42.36866
 21
0.111135
 31
0.0
  0
LINE
  5
47C
330
1F
100
AcDbEntity
  8
1
  6
CONTINUOUS
370
50
 62
4
100
AcDbLine
 10
50.262074
 20
-0.110177
 30
0.0
 11
49.869854
 21
0.080568
 31
0.0
  0
LINE
  5
47D
330
1F
100
AcDbEntity
  8
1
  6
CONTINUOUS
370
50
 62
4
100
AcDbLine
 10
37.967686
 20
-0.018073
 30
0.0
 11
37.930519
 21
0.0
 31
0.0
  0
LINE
  5
47E
330
1F
100
AcDbEntity
  8
1
  6
CONTINUOUS
370
50
 62
4
100
AcDbLine
 10
38.00486
 20
-0.036144
 30
0.0
 11
37.967686
 21
-0.018073
 31
0.0
  0
LINE
  5
47F
330
1F
100
AcDbEntity
  8
1
  6
CONTINUOUS
370
50
 62
4
100
AcDbLine
 10
49.869854
 20
0.080568
 30
0.0
 11
49.479973
 21
0.270087
 31
0.0
  0
LINE
  5
480
330
1F
100
AcDbEntity
  8
1
  6
CONTINUOUS
370
50
 62
4
100
AcDbLine
 10
38.042046
 20
-0.054204
 30
0.0
 11
38.00486
 21
-0.036144
 31
0.0
  0
LINE
  5
481
330
1F
100
AcDbEntity
  8
1
  6
CONTINUOUS
370
50
 62
4
100
AcDbLine
 10
38.07925
 20
-0.072253
 30
0.0
 11
38.042046
 21
-0.054204
 31
0.0
  0
LINE
  5
482
330
1F
100
AcDbEntity
  8
1
  6
CONTINUOUS
370
50
 62
4
100
AcDbLine
 10
38.116478
 20
-0.090289
 30
0.0
 11
38.07925
 21
-0.072253
 31
0.0
  0
LINE
  5
483
330
1F
100
AcDbEntity
  8
1
  6
CONTINUOUS
370
50
 62
4
100
AcDbLine
 10
37.596832
 20
0.16257
 30
0.0
 11
37.26281
 21
0.324223
 31
0.0
  0
LINE
  5
484
330
1F
100
AcDbEntity
  8
1
  6
CONTINUOUS
370
50
 62
4
100
AcDbLine
 10
38.153728
 20
-0.108311
 30
0.0
 11
38.116478
 21
-0.090289
 31
0.0
  0
LINE
  5
485
330
1F
100
AcDbEntity
  8
1
  6
CONTINUOUS
370
50
 62
4
100
AcDbLine
 10
43.415127
 20
-0.39583
 30
0.0
 11
42.892059
 21
-0.143453
 31
0.0
  0
LINE
  5
486
330
1F
100
AcDbEntity
  8
1
  6
CONTINUOUS
370
50
 62
4
100
AcDbLine
 10
32.099361
 20
-1.746166
 30
0.0
 11
32.0462
 21
-1.720521
 31
0.0
  0
LINE
  5
487
330
1F
100
AcDbEntity
  8
1
  6
CONTINUOUS
370
50
 62
4
100
AcDbLine
 10
50.400177
 20
-0.176729
 30
0.0
 11
50.262074
 21
-0.110177
 31
0.0
  0
LINE
  5
488
330
1F
100
AcDbEntity
  8
1
  6
CONTINUOUS
370
50
 62
4
100
AcDbLine
 10
42.36866
 20
0.111135
 30
0.0
 11
41.889374
 21
0.342042
 31
0.0
  0
LINE
  5
489
330
1F
100
AcDbEntity
  8
1
  6
CONTINUOUS
370
50
 62
4
100
AcDbLine
 10
38.380608
 20
-0.217601
 30
0.0
 11
38.153728
 21
-0.108311
 31
0.0
  0
LINE
  5
48A
330
1F
100
AcDbEntity
  8
1
  6
CONTINUOUS
370
50
 62
4
100
AcDbLine
 10
50.53769699999999
 20
-0.242911
 30
0.0
 11
50.400177
 21
-0.176729
 31
0.0
  0
LINE
  5
48B
330
1F
100
AcDbEntity
  8
1
  6
CONTINUOUS
370
50
 62
4
100
AcDbLine
 10
50.674858
 20
-0.308865
 30
0.0
 11
50.53769699999999
 21
-0.242911
 31
0.0
  0
LINE
  5
48C
330
1F
100
AcDbEntity
  8
1
  6
CONTINUOUS
370
50
 62
4
100
AcDbLine
 10
38.604641
 20
-0.325326
 30
0.0
 11
38.380608
 21
-0.217601
 31
0.0
  0
LINE
  5
48D
330
1F
100
AcDbEntity
  8
1
  6
CONTINUOUS
370
50
 62
4
100
AcDbLine
 10
50.811844
 20
-0.374525
 30
0.0
 11
50.674858
 21
-0.308865
 31
0.0
  0
LINE
  5
48E
330
1F
100
AcDbEntity
  8
1
  6
CONTINUOUS
370
50
 62
4
100
AcDbLine
 10
38.827686
 20
-0.431909
 30
0.0
 11
38.604641
 21
-0.325326
 31
0.0
  0
LINE
  5
48F
330
1F
100
AcDbEntity
  8
1
  6
CONTINUOUS
370
50
 62
4
100
AcDbLine
 10
49.479973
 20
0.270087
 30
0.0
 11
49.088051
 21
0.456969
 31
0.0
  0
LINE
  5
490
330
1F
100
AcDbEntity
  8
1
  6
CONTINUOUS
370
50
 62
4
100
AcDbLine
 10
50.948849
 20
-0.439827
 30
0.0
 11
50.811844
 21
-0.374525
 31
0.0
  0
LINE
  5
491
330
1F
100
AcDbEntity
  8
1
  6
CONTINUOUS
370
50
 62
4
100
AcDbLine
 10
37.26281
 20
0.324223
 30
0.0
 11
36.928146
 21
0.482869
 31
0.0
  0
LINE
  5
492
330
1F
100
AcDbEntity
  8
1
  6
CONTINUOUS
370
50
 62
4
100
AcDbLine
 10
41.889374
 20
0.342042
 30
0.0
 11
41.411972
 21
0.568052
 31
0.0
  0
LINE
  5
493
330
1F
100
AcDbEntity
  8
1
  6
CONTINUOUS
370
50
 62
4
100
AcDbLine
 10
51.08606
 20
-0.504705
 30
0.0
 11
50.948849
 21
-0.439827
 31
0.0
  0
LINE
  5
494
330
1F
100
AcDbEntity
  8
1
  6
CONTINUOUS
370
50
 62
4
100
AcDbLine
 10
39.050568
 20
-0.537087
 30
0.0
 11
38.827686
 21
-0.431909
 31
0.0
  0
LINE
  5
495
330
1F
100
AcDbEntity
  8
1
  6
CONTINUOUS
370
50
 62
4
100
AcDbLine
 10
43.939796
 20
-0.6401709999999999
 30
0.0
 11
43.415127
 21
-0.39583
 31
0.0
  0
LINE
  5
496
330
1F
100
AcDbEntity
  8
1
  6
CONTINUOUS
370
50
 62
4
100
AcDbLine
 10
49.088051
 20
0.456969
 30
0.0
 11
48.694691
 21
0.6392599999999999
 31
0.0
  0
LINE
  5
497
330
1F
100
AcDbEntity
  8
1
  6
CONTINUOUS
370
50
 62
4
100
AcDbLine
 10
39.274109
 20
-0.640597
 30
0.0
 11
39.050568
 21
-0.537087
 31
0.0
  0
LINE
  5
498
330
1F
100
AcDbEntity
  8
1
  6
CONTINUOUS
370
50
 62
4
100
AcDbLine
 10
36.928146
 20
0.482869
 30
0.0
 11
36.595196
 21
0.637039
 31
0.0
  0
LINE
  5
499
330
1F
100
AcDbEntity
  8
1
  6
CONTINUOUS
370
50
 62
4
100
AcDbLine
 10
41.411972
 20
0.568052
 30
0.0
 11
40.933029
 21
0.784874
 31
0.0
  0
LINE
  5
49A
330
1F
100
AcDbEntity
  8
1
  6
CONTINUOUS
370
50
 62
4
100
AcDbLine
 10
39.499134
 20
-0.742177
 30
0.0
 11
39.274109
 21
-0.640597
 31
0.0
  0
LINE
  5
49B
330
1F
100
AcDbEntity
  8
1
  6
CONTINUOUS
370
50
 62
4
100
AcDbLine
 10
36.595196
 20
0.637039
 30
0.0
 11
36.263515
 21
0.786673
 31
0.0
  0
LINE
  5
49C
330
1F
100
AcDbEntity
  8
1
  6
CONTINUOUS
370
50
 62
4
100
AcDbLine
 10
48.694691
 20
0.6392599999999999
 30
0.0
 11
48.30450099999999
 21
0.8147129999999999
 31
0.0
  0
LINE
  5
49D
330
1F
100
AcDbEntity
  8
1
  6
CONTINUOUS
370
50
 62
4
100
AcDbLine
 10
44.46299
 20
-0.873463
 30
0.0
 11
43.939796
 21
-0.6401709999999999
 31
0.0
  0
LINE
  5
49E
330
1F
100
AcDbEntity
  8
1
  6
CONTINUOUS
370
50
 62
4
100
AcDbLine
 10
39.907906
 20
-0.920443
 30
0.0
 11
39.5
 21
-0.743305
 31
0.0
  0
LINE
  5
49F
330
1F
100
AcDbEntity
  8
1
  6
CONTINUOUS
370
50
 62
4
100
AcDbLine
 10
36.263515
 20
0.786673
 30
0.0
 11
35.930397
 21
0.9306949999999999
 31
0.0
  0
LINE
  5
4A0
330
1F
100
AcDbEntity
  8
1
  6
CONTINUOUS
370
50
 62
4
100
AcDbLine
 10
40.933029
 20
0.784874
 30
0.0
 11
40.454975
 21
0.989609
 31
0.0
  0
LINE
  5
4A1
330
1F
100
AcDbEntity
  8
1
  6
CONTINUOUS
370
50
 62
4
100
AcDbLine
 10
48.30450099999999
 20
0.8147129999999999
 30
0.0
 11
47.913494
 21
0.981981
 31
0.0
  0
LINE
  5
4A2
330
1F
100
AcDbEntity
  8
1
  6
CONTINUOUS
370
50
 62
4
100
AcDbLine
 10
34.273319
 20
1.544471
 30
0.0
 11
34.199482
 21
1.575532
 31
0.0
  0
LINE
  5
4A3
330
1F
100
AcDbEntity
  8
1
  6
CONTINUOUS
370
50
 62
4
100
AcDbLine
 10
44.987358
 20
-1.090402
 30
0.0
 11
44.46299
 21
-0.873463
 31
0.0
  0
LINE
  5
4A4
330
1F
100
AcDbEntity
  8
1
  6
CONTINUOUS
370
50
 62
4
100
AcDbLine
 10
40.315075
 20
-1.088203
 30
0.0
 11
39.907906
 21
-0.920443
 31
0.0
  0
LINE
  5
4A5
330
1F
100
AcDbEntity
  8
1
  6
CONTINUOUS
370
50
 62
4
100
AcDbLine
 10
34.199482
 20
1.575532
 30
0.0
 11
34.125454
 21
1.605943
 31
0.0
  0
LINE
  5
4A6
330
1F
100
AcDbEntity
  8
1
  6
CONTINUOUS
370
50
 62
4
100
AcDbLine
 10
35.930397
 20
0.9306949999999999
 30
0.0
 11
35.595886
 21
1.067415
 31
0.0
  0
LINE
  5
4A7
330
1F
100
AcDbEntity
  8
1
  6
CONTINUOUS
370
50
 62
4
100
AcDbLine
 10
47.913494
 20
0.981981
 30
0.0
 11
47.518764
 21
1.139563
 31
0.0
  0
LINE
  5
4A8
330
1F
100
AcDbEntity
  8
1
  6
CONTINUOUS
370
50
 62
4
100
AcDbLine
 10
40.454975
 20
0.989609
 30
0.0
 11
39.978134
 21
1.179294
 31
0.0
  0
LINE
  5
4A9
330
1F
100
AcDbEntity
  8
1
  6
CONTINUOUS
370
50
 62
4
100
AcDbLine
 10
32.158764
 20
-1.76979
 30
0.0
 11
32.099361
 21
-1.746166
 31
0.0
  0
LINE
  5
4AA
330
1F
100
AcDbEntity
  8
1
  6
CONTINUOUS
370
50
 62
4
100
AcDbLine
 10
34.125454
 20
1.605943
 30
0.0
 11
34.051003
 21
1.635549
 31
0.0
  0
LINE
  5
4AB
330
1F
100
AcDbEntity
  8
1
  6
CONTINUOUS
370
50
 62
4
100
AcDbLine
 10
35.595886
 20
1.067415
 30
0.0
 11
35.262291
 21
1.196059
 31
0.0
  0
LINE
  5
4AC
330
1F
100
AcDbEntity
  8
1
  6
CONTINUOUS
370
50
 62
4
100
AcDbLine
 10
34.051003
 20
1.635549
 30
0.0
 11
33.975903
 21
1.664193
 31
0.0
  0
LINE
  5
4AD
330
1F
100
AcDbEntity
  8
1
  6
CONTINUOUS
370
50
 62
4
100
AcDbLine
 10
40.723297
 20
-1.243746
 30
0.0
 11
40.315075
 21
-1.088203
 31
0.0
  0
LINE
  5
4AE
330
1F
100
AcDbEntity
  8
1
  6
CONTINUOUS
370
50
 62
4
100
AcDbLine
 10
45.510391
 20
-1.286596
 30
0.0
 11
44.987358
 21
-1.090402
 31
0.0
  0
LINE
  5
4AF
330
1F
100
AcDbEntity
  8
1
  6
CONTINUOUS
370
50
 62
4
100
AcDbLine
 10
52.0
 20
0.0
 30
0.0
 11
51.848118
 21
0.056964
 31
0.0
  0
LINE
  5
4B0
330
1F
100
AcDbEntity
  8
1
  6
CONTINUOUS
370
50
 62
4
100
AcDbLine
 10
47.518764
 20
1.139563
 30
0.0
 11
47.124001
 21
1.285983
 31
0.0
  0
LINE
  5
4B1
330
1F
100
AcDbEntity
  8
1
  6
CONTINUOUS
370
50
 62
4
100
AcDbLine
 10
34.275318
 20
-1.537323
 30
0.0
 11
34.15036
 21
-1.491624
 31
0.0
  0
LINE
  5
4B2
330
1F
100
AcDbEntity
  8
1
  6
CONTINUOUS
370
50
 62
4
100
AcDbLine
 10
35.262291
 20
1.196059
 30
0.0
 11
34.931599
 21
1.315904
 31
0.0
  0
LINE
  5
4B3
330
1F
100
AcDbEntity
  8
1
  6
CONTINUOUS
370
50
 62
4
100
AcDbLine
 10
33.975903
 20
1.664193
 30
0.0
 11
33.899921
 21
1.691718
 31
0.0
  0
LINE
  5
4B4
330
1F
100
AcDbEntity
  8
1
  6
CONTINUOUS
370
50
 62
4
100
AcDbLine
 10
52.0
 20
0.0
 30
0.0
 11
51.842457
 21
0.057007
 31
0.0
  0
LINE
  5
4B5
330
1F
100
AcDbEntity
  8
1
  6
CONTINUOUS
370
50
 62
4
100
AcDbLine
 10
39.978134
 20
1.179294
 30
0.0
 11
39.5
 21
1.350301
 31
0.0
  0
LINE
  5
4B6
330
1F
100
AcDbEntity
  8
1
  6
CONTINUOUS
370
50
 62
4
100
AcDbLine
 10
34.15036
 20
-1.491624
 30
0.0
 11
34.025162
 21
-1.446856
 31
0.0
  0
LINE
  5
4B7
330
1F
100
AcDbEntity
  8
1
  6
CONTINUOUS
370
50
 62
4
100
AcDbLine
 10
41.132404
 20
-1.385085
 30
0.0
 11
40.723297
 21
-1.243746
 31
0.0
  0
LINE
  5
4B8
330
1F
100
AcDbEntity
  8
1
  6
CONTINUOUS
370
50
 62
4
100
AcDbLine
 10
34.025162
 20
-1.446856
 30
0.0
 11
33.89949
 21
-1.403635
 31
0.0
  0
LINE
  5
4B9
330
1F
100
AcDbEntity
  8
1
  6
CONTINUOUS
370
50
 62
4
100
AcDbLine
 10
33.899921
 20
1.691718
 30
0.0
 11
33.822826
 21
1.717967
 31
0.0
  0
LINE
  5
4BA
330
1F
100
AcDbEntity
  8
1
  6
CONTINUOUS
370
50
 62
4
100
AcDbLine
 10
47.124001
 20
1.285983
 30
0.0
 11
46.730919
 21
1.418784
 31
0.0
  0
LINE
  5
4BB
330
1F
100
AcDbEntity
  8
1
  6
CONTINUOUS
370
50
 62
4
100
AcDbLine
 10
34.931599
 20
1.315904
 30
0.0
 11
34.602749
 21
1.426248
 31
0.0
  0
LINE
  5
4BC
330
1F
100
AcDbEntity
  8
1
  6
CONTINUOUS
370
50
 62
4
100
AcDbLine
 10
46.032867
 20
-1.459676
 30
0.0
 11
45.510391
 21
-1.286596
 31
0.0
  0
LINE
  5
4BD
330
1F
100
AcDbEntity
  8
1
  6
CONTINUOUS
370
50
 62
4
100
AcDbLine
 10
32.223927
 20
-1.791297
 30
0.0
 11
32.158764
 21
-1.76979
 31
0.0
  0
LINE
  5
4BE
330
1F
100
AcDbEntity
  8
1
  6
CONTINUOUS
370
50
 62
4
100
AcDbLine
 10
33.89949
 20
-1.403635
 30
0.0
 11
33.773106
 21
-1.362576
 31
0.0
  0
LINE
  5
4BF
330
1F
100
AcDbEntity
  8
1
  6
CONTINUOUS
370
50
 62
4
100
AcDbLine
 10
39.499134
 20
1.349497
 30
0.0
 11
39.202454
 21
1.445594
 31
0.0
  0
LINE
  5
4C0
330
1F
100
AcDbEntity
  8
1
  6
CONTINUOUS
370
50
 62
4
100
AcDbLine
 10
33.822826
 20
1.717967
 30
0.0
 11
33.744392
 21
1.742785
 31
0.0
  0
LINE
  5
4C1
330
1F
100
AcDbEntity
  8
1
  6
CONTINUOUS
370
50
 62
4
100
AcDbLine
 10
41.539909
 20
-1.511054
 30
0.0
 11
41.132404
 21
-1.385085
 31
0.0
  0
LINE
  5
4C2
330
1F
100
AcDbEntity
  8
1
  6
CONTINUOUS
370
50
 62
4
100
AcDbLine
 10
34.602749
 20
1.426248
 30
0.0
 11
34.273319
 21
1.526405
 31
0.0
  0
LINE
  5
4C3
330
1F
100
AcDbEntity
  8
1
  6
CONTINUOUS
370
50
 62
4
100
AcDbLine
 10
33.773106
 20
-1.362576
 30
0.0
 11
33.645763
 21
-1.324295
 31
0.0
  0
LINE
  5
4C4
330
1F
100
AcDbEntity
  8
1
  6
CONTINUOUS
370
50
 62
4
100
AcDbLine
 10
46.730919
 20
1.418784
 30
0.0
 11
46.33626899999999
 21
1.536542
 31
0.0
  0
LINE
  5
4C5
330
1F
100
AcDbEntity
  8
1
  6
CONTINUOUS
370
50
 62
4
100
AcDbLine
 10
39.202454
 20
1.445594
 30
0.0
 11
38.90667
 21
1.533185
 31
0.0
  0
LINE
  5
4C6
330
1F
100
AcDbEntity
  8
1
  6
CONTINUOUS
370
50
 62
4
100
AcDbLine
 10
33.744392
 20
1.742785
 30
0.0
 11
33.664383
 21
1.766014
 31
0.0
  0
LINE
  5
4C7
330
1F
100
AcDbEntity
  8
1
  6
CONTINUOUS
370
50
 62
4
100
AcDbLine
 10
46.55744199999999
 20
-1.605541
 30
0.0
 11
46.032867
 21
-1.459676
 31
0.0
  0
LINE
  5
4C8
330
1F
100
AcDbEntity
  8
1
  6
CONTINUOUS
370
50
 62
4
100
AcDbLine
 10
51.125671
 20
1.500975
 30
0.0
 11
50.77169
 21
1.598006
 31
0.0
  0
LINE
  5
4C9
330
1F
100
AcDbEntity
  8
1
  6
CONTINUOUS
370
50
 62
4
100
AcDbLine
 10
32.29435
 20
-1.810591
 30
0.0
 11
32.223927
 21
-1.791297
 31
0.0
  0
LINE
  5
4CA
330
1F
100
AcDbEntity
  8
1
  6
CONTINUOUS
370
50
 62
4
100
AcDbLine
 10
33.645763
 20
-1.324295
 30
0.0
 11
33.517227
 21
-1.289407
 31
0.0
  0
LINE
  5
4CB
330
1F
100
AcDbEntity
  8
1
  6
CONTINUOUS
370
50
 62
4
100
AcDbLine
 10
41.946789
 20
-1.620065
 30
0.0
 11
41.539909
 21
-1.511054
 31
0.0
  0
LINE
  5
4CC
330
1F
100
AcDbEntity
  8
1
  6
CONTINUOUS
370
50
 62
4
100
AcDbLine
 10
38.90667
 20
1.533185
 30
0.0
 11
38.610046
 21
1.61183
 31
0.0
  0
LINE
  5
4CD
330
1F
100
AcDbEntity
  8
1
  6
CONTINUOUS
370
50
 62
4
100
AcDbLine
 10
33.664383
 20
1.766014
 30
0.0
 11
33.583035
 21
1.787381
 31
0.0
  0
LINE
  5
4CE
330
1F
100
AcDbEntity
  8
1
  6
CONTINUOUS
370
50
 62
4
100
AcDbLine
 10
46.33626899999999
 20
1.536542
 30
0.0
 11
45.943779
 21
1.637709
 31
0.0
  0
LINE
  5
4CF
330
1F
100
AcDbEntity
  8
1
  6
CONTINUOUS
370
50
 62
4
100
AcDbLine
 10
34.596233
 20
-1.640146
 30
0.0
 11
34.275318
 21
-1.557951
 31
0.0
  0
LINE
  5
4D0
330
1F
100
AcDbEntity
  8
1
  6
CONTINUOUS
370
50
 62
4
100
AcDbLine
 10
30.5
 20
1.875
 30
0.0
 11
30.0
 21
2.0
 31
0.0
  0
LINE
  5
4D1
330
1F
100
AcDbEntity
  8
1
  6
CONTINUOUS
370
50
 62
4
100
AcDbLine
 10
33.517227
 20
-1.289407
 30
0.0
 11
33.387623
 21
-1.258619
 31
0.0
  0
LINE
  5
4D2
330
1F
100
AcDbEntity
  8
1
  6
CONTINUOUS
370
50
 62
4
100
AcDbLine
 10
50.77169
 20
1.598006
 30
0.0
 11
50.416946
 21
1.681257
 31
0.0
  0
LINE
  5
4D3
330
1F
100
AcDbEntity
  8
1
  6
CONTINUOUS
370
50
 62
4
100
AcDbLine
 10
33.583035
 20
1.787381
 30
0.0
 11
33.50161
 21
1.806441
 31
0.0
  0
LINE
  5
4D4
330
1F
100
AcDbEntity
  8
1
  6
CONTINUOUS
370
50
 62
4
100
AcDbLine
 10
38.610046
 20
1.61183
 30
0.0
 11
38.311916
 21
1.68094
 31
0.0
  0
LINE
  5
4D5
330
1F
100
AcDbEntity
  8
1
  6
CONTINUOUS
370
50
 62
4
100
AcDbLine
 10
32.369179
 20
-1.827502
 30
0.0
 11
32.29435
 21
-1.810591
 31
0.0
  0
LINE
  5
4D6
330
1F
100
AcDbEntity
  8
1
  6
CONTINUOUS
370
50
 62
4
100
AcDbLine
 10
47.080685
 20
-1.722088
 30
0.0
 11
46.55744199999999
 21
-1.605541
 31
0.0
  0
LINE
  5
4D7
330
1F
100
AcDbEntity
  8
1
  6
CONTINUOUS
370
50
 62
4
100
AcDbLine
 10
42.355751
 20
-1.710789
 30
0.0
 11
41.946789
 21
-1.620065
 31
0.0
  0
LINE
  5
4D8
330
1F
100
AcDbEntity
  8
1
  6
CONTINUOUS
370
50
 62
4
100
AcDbLine
 10
34.915722
 20
-1.710485
 30
0.0
 11
34.596233
 21
-1.640146
 31
0.0
  0
LINE
  5
4D9
330
1F
100
AcDbEntity
  8
1
  6
CONTINUOUS
370
50
 62
4
100
AcDbLine
 10
45.943779
 20
1.637709
 30
0.0
 11
45.55349
 21
1.722006
 31
0.0
  0
LINE
  5
4DA
330
1F
100
AcDbEntity
  8
1
  6
CONTINUOUS
370
50
 62
4
100
AcDbLine
 10
33.50161
 20
1.806441
 30
0.0
 11
33.420094
 21
1.823167
 31
0.0
  0
LINE
  5
4DB
330
1F
100
AcDbEntity
  8
1
  6
CONTINUOUS
370
50
 62
4
100
AcDbLine
 10
33.387623
 20
-1.258619
 30
0.0
 11
33.260509
 21
-1.23321
 31
0.0
  0
LINE
  5
4DC
330
1F
100
AcDbEntity
  8
1
  6
CONTINUOUS
370
50
 62
4
100
AcDbLine
 10
38.311916
 20
1.68094
 30
0.0
 11
38.013371
 21
1.740028
 31
0.0
  0
LINE
  5
4DD
330
1F
100
AcDbEntity
  8
1
  6
CONTINUOUS
370
50
 62
4
100
AcDbLine
 10
50.416946
 20
1.681257
 30
0.0
 11
50.062843
 21
1.7502
 31
0.0
  0
LINE
  5
4DE
330
1F
100
AcDbEntity
  8
1
  6
CONTINUOUS
370
50
 62
4
100
AcDbLine
 10
32.446445
 20
-1.841723
 30
0.0
 11
32.369179
 21
-1.827502
 31
0.0
  0
LINE
  5
4DF
330
1F
100
AcDbEntity
  8
1
  6
CONTINUOUS
370
50
 62
4
100
AcDbLine
 10
35.23608
 20
-1.768697
 30
0.0
 11
34.915722
 21
-1.710485
 31
0.0
  0
LINE
  5
4E0
330
1F
100
AcDbEntity
  8
1
  6
CONTINUOUS
370
50
 62
4
100
AcDbLine
 10
33.420094
 20
1.823167
 30
0.0
 11
33.338371
 21
1.837563
 31
0.0
  0
LINE
  5
4E1
330
1F
100
AcDbEntity
  8
1
  6
CONTINUOUS
370
50
 62
4
100
AcDbLine
 10
42.763763
 20
-1.782433
 30
0.0
 11
42.355751
 21
-1.710789
 31
0.0
  0
LINE
  5
4E2
330
1F
100
AcDbEntity
  8
1
  6
CONTINUOUS
370
50
 62
4
100
AcDbLine
 10
45.55349
 20
1.722006
 30
0.0
 11
45.16143
 21
1.788679
 31
0.0
  0
LINE
  5
4E3
330
1F
100
AcDbEntity
  8
1
  6
CONTINUOUS
370
50
 62
4
100
AcDbLine
 10
51.108776
 20
1.87494
 30
0.0
 11
51.108521
 21
1.874982
 31
0.0
  0
LINE
  5
4E4
330
1F
100
AcDbEntity
  8
1
  6
CONTINUOUS
370
50
 62
4
100
AcDbLine
 10
38.013371
 20
1.740028
 30
0.0
 11
37.715279
 21
1.788816
 31
0.0
  0
LINE
  5
4E5
330
1F
100
AcDbEntity
  8
1
  6
CONTINUOUS
370
50
 62
4
100
AcDbLine
 10
47.604736
 20
-1.806815
 30
0.0
 11
47.080685
 21
-1.722088
 31
0.0
  0
LINE
  5
4E6
330
1F
100
AcDbEntity
  8
1
  6
CONTINUOUS
370
50
 62
4
100
AcDbLine
 10
33.260509
 20
-1.23321
 30
0.0
 11
33.137024
 21
-1.213333
 31
0.0
  0
LINE
  5
4E7
330
1F
100
AcDbEntity
  8
1
  6
CONTINUOUS
370
50
 62
4
100
AcDbLine
 10
50.062843
 20
1.7502
 30
0.0
 11
49.710918
 21
1.804432
 31
0.0
  0
LINE
  5
4E8
330
1F
100
AcDbEntity
  8
1
  6
CONTINUOUS
370
50
 62
4
100
AcDbLine
 10
33.338371
 20
1.837563
 30
0.0
 11
33.256344
 21
1.849628
 31
0.0
  0
LINE
  5
4E9
330
1F
100
AcDbEntity
  8
1
  6
CONTINUOUS
370
50
 62
4
100
AcDbLine
 10
32.525322
 20
-1.853301
 30
0.0
 11
32.446445
 21
-1.841723
 31
0.0
  0
LINE
  5
4EA
330
1F
100
AcDbEntity
  8
1
  6
CONTINUOUS
370
50
 62
4
100
AcDbLine
 10
35.559174
 20
-1.81447
 30
0.0
 11
35.23608
 21
-1.768697
 31
0.0
  0
LINE
  5
4EB
330
1F
100
AcDbEntity
  8
1
  6
CONTINUOUS
370
50
 62
4
100
AcDbLine
 10
37.715279
 20
1.788816
 30
0.0
 11
37.418137
 21
1.8269
 31
0.0
  0
LINE
  5
4EC
330
1F
100
AcDbEntity
  8
1
  6
CONTINUOUS
370
50
 62
4
100
AcDbLine
 10
43.170715
 20
-1.834199
 30
0.0
 11
42.763763
 21
-1.782433
 31
0.0
  0
LINE
  5
4ED
330
1F
100
AcDbEntity
  8
1
  6
CONTINUOUS
370
50
 62
4
100
AcDbLine
 10
45.16143
 20
1.788679
 30
0.0
 11
44.767647
 21
1.83675
 31
0.0
  0
LINE
  5
4EE
330
1F
100
AcDbEntity
  8
1
  6
CONTINUOUS
370
50
 62
4
100
AcDbLine
 10
33.137024
 20
-1.213333
 30
0.0
 11
33.017391
 21
-1.198856
 31
0.0
  0
LINE
  5
4EF
330
1F
100
AcDbEntity
  8
1
  6
CONTINUOUS
370
50
 62
4
100
AcDbLine
 10
33.256344
 20
1.849628
 30
0.0
 11
33.174107
 21
1.85935
 31
0.0
  0
LINE
  5
4F0
330
1F
100
AcDbEntity
  8
1
  6
CONTINUOUS
370
50
 62
4
100
AcDbLine
 10
32.605103
 20
-1.862314
 30
0.0
 11
32.525322
 21
-1.853301
 31
0.0
  0
LINE
  5
4F1
330
1F
100
AcDbEntity
  8
1
  6
CONTINUOUS
370
50
 62
4
100
AcDbLine
 10
49.710918
 20
1.804432
 30
0.0
 11
49.358669
 21
1.843566
 31
0.0
  0
LINE
  5
4F2
330
1F
100
AcDbEntity
  8
1
  6
CONTINUOUS
370
50
 62
4
100
AcDbLine
 10
35.883171
 20
-1.847546
 30
0.0
 11
35.559174
 21
-1.81447
 31
0.0
  0
LINE
  5
4F3
330
1F
100
AcDbEntity
  8
1
  6
CONTINUOUS
370
50
 62
4
100
AcDbLine
 10
48.12793
 20
-1.858058
 30
0.0
 11
47.604736
 21
-1.806815
 31
0.0
  0
LINE
  5
4F4
330
1F
100
AcDbEntity
  8
1
  6
CONTINUOUS
370
50
 62
4
100
AcDbLine
 10
37.418137
 20
1.8269
 30
0.0
 11
37.120811
 21
1.854013
 31
0.0
  0
LINE
  5
4F5
330
1F
100
AcDbEntity
  8
1
  6
CONTINUOUS
370
50
 62
4
100
AcDbLine
 10
33.174107
 20
1.85935
 30
0.0
 11
33.091766
 21
1.866728
 31
0.0
  0
LINE
  5
4F6
330
1F
100
AcDbEntity
  8
1
  6
CONTINUOUS
370
50
 62
4
100
AcDbLine
 10
32.685089
 20
-1.868841
 30
0.0
 11
32.605103
 21
-1.862314
 31
0.0
  0
LINE
  5
4F7
330
1F
100
AcDbEntity
  8
1
  6
CONTINUOUS
370
50
 62
4
100
AcDbLine
 10
33.017391
 20
-1.198856
 30
0.0
 11
32.901829
 21
-1.18965
 31
0.0
  0
LINE
  5
4F8
330
1F
100
AcDbEntity
  8
1
  6
CONTINUOUS
370
50
 62
4
100
AcDbLine
 10
43.577682
 20
-1.865277
 30
0.0
 11
43.170715
 21
-1.834199
 31
0.0
  0
LINE
  5
4F9
330
1F
100
AcDbEntity
  8
1
  6
CONTINUOUS
370
50
 62
4
100
AcDbLine
 10
44.767647
 20
1.83675
 30
0.0
 11
44.375912
 21
1.865845
 31
0.0
  0
LINE
  5
4FA
330
1F
100
AcDbEntity
  8
1
  6
CONTINUOUS
370
50
 62
4
100
AcDbLine
 10
49.358669
 20
1.843566
 30
0.0
 11
49.00391
 21
1.867256
 31
0.0
  0
LINE
  5
4FB
330
1F
100
AcDbEntity
  8
1
  6
CONTINUOUS
370
50
 62
4
100
AcDbLine
 10
36.205158
 20
-1.867786
 30
0.0
 11
35.883171
 21
-1.847546
 31
0.0
  0
LINE
  5
4FC
330
1F
100
AcDbEntity
  8
1
  6
CONTINUOUS
370
50
 62
4
100
AcDbLine
 10
33.091766
 20
1.866728
 30
0.0
 11
33.009415
 21
1.87177
 31
0.0
  0
LINE
  5
4FD
330
1F
100
AcDbEntity
  8
1
  6
CONTINUOUS
370
50
 62
4
100
AcDbLine
 10
37.120811
 20
1.854013
 30
0.0
 11
36.8228
 21
1.870044
 31
0.0
  0
LINE
  5
4FE
330
1F
100
AcDbEntity
  8
1
  6
CONTINUOUS
370
50
 62
4
100
AcDbLine
 10
32.765327
 20
-1.873005
 30
0.0
 11
32.685089
 21
-1.868841
 31
0.0
  0
LINE
  5
4FF
330
1F
100
AcDbEntity
  8
1
  6
CONTINUOUS
370
50
 62
4
100
AcDbLine
 10
32.901829
 20
-1.18965
 30
0.0
 11
32.790558
 21
-1.185583
 31
0.0
  0
LINE
  5
500
330
1F
100
AcDbEntity
  8
1
  6
CONTINUOUS
370
50
 62
4
100
AcDbLine
 10
33.009415
 20
1.87177
 30
0.0
 11
32.927044
 21
1.874485
 31
0.0
  0
LINE
  5
501
330
1F
100
AcDbEntity
  8
1
  6
CONTINUOUS
370
50
 62
4
100
AcDbLine
 10
48.64865899999999
 20
-1.875213
 30
0.0
 11
48.12793
 21
-1.858058
 31
0.0
  0
LINE
  5
502
330
1F
100
AcDbEntity
  8
1
  6
CONTINUOUS
370
50
 62
4
100
AcDbLine
 10
43.984444
 20
-1.875614
 30
0.0
 11
43.577682
 21
-1.865277
 31
0.0
  0
LINE
  5
503
330
1F
100
AcDbEntity
  8
1
  6
CONTINUOUS
370
50
 62
4
100
AcDbLine
 10
44.375912
 20
1.865845
 30
0.0
 11
43.984444
 21
1.875614
 31
0.0
  0
LINE
  5
504
330
1F
100
AcDbEntity
  8
1
  6
CONTINUOUS
370
50
 62
4
100
AcDbLine
 10
32.846062
 20
-1.87488
 30
0.0
 11
32.765327
 21
-1.873005
 31
0.0
  0
LINE
  5
505
330
1F
100
AcDbEntity
  8
1
  6
CONTINUOUS
370
50
 62
4
100
AcDbLine
 10
36.52608499999999
 20
-1.874984
 30
0.0
 11
36.205158
 21
-1.867786
 31
0.0
  0
LINE
  5
506
330
1F
100
AcDbEntity
  8
1
  6
CONTINUOUS
370
50
 62
4
100
AcDbLine
 10
49.00391
 20
1.867256
 30
0.0
 11
48.64865899999999
 21
1.875213
 31
0.0
  0
LINE
  5
507
330
1F
100
AcDbEntity
  8
1
  6
CONTINUOUS
370
50
 62
4
100
AcDbLine
 10
36.8228
 20
1.870044
 30
0.0
 11
36.52608499999999
 21
1.874984
 31
0.0
  0
LINE
  5
508
330
1F
100
AcDbEntity
  8
1
  6
CONTINUOUS
370
50
 62
4
100
AcDbLine
 10
51.848118
 20
0.056964
 30
0.0
 11
51.842457
 21
0.057007
 31
0.0
  0
LINE
  5
509
330
1F
100
AcDbEntity
  8
1
  6
CONTINUOUS
370
50
 62
4
100
AcDbLine
 10
43.984444
 20
1.875614
 30
0.0
 11
39.5
 21
1.876
 31
0.0
  0
LINE
  5
50A
330
1F
100
AcDbEntity
  8
1
  6
CONTINUOUS
370
50
 62
4
100
AcDbLine
 10
51.108521
 20
1.875001
 30
0.0
 11
48.64865899999999
 21
1.875213
 31
0.0
  0
LINE
  5
50B
330
1F
100
AcDbEntity
  8
1
  6
CONTINUOUS
370
50
 62
4
100
AcDbLine
 10
36.542522
 20
-1.875
 30
0.0
 11
39.499134
 21
-1.875
 31
0.0
  0
LINE
  5
50C
330
1F
100
AcDbEntity
  8
1
  6
CONTINUOUS
370
50
 62
4
100
AcDbLine
 10
30.5
 20
-1.875
 30
0.0
 11
32.872547
 21
-1.875
 31
0.0
  0
LINE
  5
50D
330
1F
100
AcDbEntity
  8
1
  6
CONTINUOUS
370
50
 62
4
100
AcDbLine
 10
36.542522
 20
1.875
 30
0.0
 11
39.499134
 21
1.875
 31
0.0
  0
LINE
  5
50E
330
1F
100
AcDbEntity
  8
1
  6
CONTINUOUS
370
50
 62
4
100
AcDbLine
 10
30.5
 20
1.875
 30
0.0
 11
32.872547
 21
1.875
 31
0.0
  0
LINE
  5
50F
330
1F
100
AcDbEntity
  8
1
  6
CONTINUOUS
370
50
 62
4
100
AcDbLine
 10
48.64865899999999
 20
-1.875213
 30
0.0
 11
51.108521
 21
-1.875001
 31
0.0
  0
LINE
  5
510
330
1F
100
AcDbEntity
  8
1
  6
CONTINUOUS
370
50
 62
4
100
AcDbLine
 10
39.5
 20
-1.876
 30
0.0
 11
43.984444
 21
-1.875614
 31
0.0
  0
LINE
  5
511
330
1F
100
AcDbEntity
  8
1
  6
CONTINUOUS
370
50
 62
4
100
AcDbLine
 10
32.846062
 20
-1.87488
 30
0.0
 11
32.927044
 21
-1.874485
 31
0.0
  0
LINE
  5
512
330
1F
100
AcDbEntity
  8
1
  6
CONTINUOUS
370
50
 62
4
100
AcDbLine
 10
32.6838
 20
-1.186523
 30
0.0
 11
32.790558
 21
-1.185583
 31
0.0
  0
LINE
  5
513
330
1F
100
AcDbEntity
  8
1
  6
CONTINUOUS
370
50
 62
4
100
AcDbLine
 10
36.205158
 20
1.867785
 30
0.0
 11
36.52608499999999
 21
1.874984
 31
0.0
  0
LINE
  5
514
330
1F
100
AcDbEntity
  8
1
  6
CONTINUOUS
370
50
 62
4
100
AcDbLine
 10
48.26159999999999
 20
1.865735
 30
0.0
 11
48.64865899999999
 21
1.875213
 31
0.0
  0
LINE
  5
515
330
1F
100
AcDbEntity
  8
1
  6
CONTINUOUS
370
50
 62
4
100
AcDbLine
 10
43.984444
 20
-1.875614
 30
0.0
 11
44.372723
 21
-1.866016
 31
0.0
  0
LINE
  5
516
330
1F
100
AcDbEntity
  8
1
  6
CONTINUOUS
370
50
 62
4
100
AcDbLine
 10
51.08606
 20
-0.504705
 30
0.0
 11
51.114914
 21
-0.503888
 31
0.0
  0
LINE
  5
517
330
1F
100
AcDbEntity
  8
1
  6
CONTINUOUS
370
50
 62
4
100
AcDbLine
 10
32.927044
 20
-1.874485
 30
0.0
 11
33.009415
 21
-1.87177
 31
0.0
  0
LINE
  5
518
330
1F
100
AcDbEntity
  8
1
  6
CONTINUOUS
370
50
 62
4
100
AcDbLine
 10
39.499134
 20
1.349497
 30
0.0
 11
39.499424
 21
1.349513
 31
0.0
  0
LINE
  5
519
330
1F
100
AcDbEntity
  8
1
  6
CONTINUOUS
370
50
 62
4
100
AcDbLine
 10
39.499565
 20
1.349521
 30
0.0
 11
39.5
 21
1.349545
 31
0.0
  0
LINE
  5
51A
330
1F
100
AcDbEntity
  8
1
  6
CONTINUOUS
370
50
 62
4
100
AcDbLine
 10
32.582085
 20
-1.192206
 30
0.0
 11
32.6838
 21
-1.186523
 31
0.0
  0
LINE
  5
51B
330
1F
100
AcDbEntity
  8
1
  6
CONTINUOUS
370
50
 62
4
100
AcDbLine
 10
39.499424
 20
1.349513
 30
0.0
 11
39.499565
 21
1.349521
 31
0.0
  0
LINE
  5
51C
330
1F
100
AcDbEntity
  8
1
  6
CONTINUOUS
370
50
 62
4
100
AcDbLine
 10
33.009415
 20
-1.87177
 30
0.0
 11
33.091766
 21
-1.866728
 31
0.0
  0
LINE
  5
51D
330
1F
100
AcDbEntity
  8
1
  6
CONTINUOUS
370
50
 62
4
100
AcDbLine
 10
35.883167
 20
1.847546
 30
0.0
 11
36.205158
 21
1.867785
 31
0.0
  0
LINE
  5
51E
330
1F
100
AcDbEntity
  8
1
  6
CONTINUOUS
370
50
 62
4
100
AcDbLine
 10
47.874016
 20
1.837358
 30
0.0
 11
48.26159999999999
 21
1.865735
 31
0.0
  0
LINE
  5
51F
330
1F
100
AcDbEntity
  8
1
  6
CONTINUOUS
370
50
 62
4
100
AcDbLine
 10
44.372723
 20
-1.866016
 30
0.0
 11
44.76189
 21
-1.837316
 31
0.0
  0
LINE
  5
520
330
1F
100
AcDbEntity
  8
1
  6
CONTINUOUS
370
50
 62
4
100
AcDbLine
 10
33.091766
 20
-1.866728
 30
0.0
 11
33.174107
 21
-1.85935
 31
0.0
  0
LINE
  5
521
330
1F
100
AcDbEntity
  8
1
  6
CONTINUOUS
370
50
 62
4
100
AcDbLine
 10
35.559174
 20
1.814469
 30
0.0
 11
35.883167
 21
1.847546
 31
0.0
  0
LINE
  5
522
330
1F
100
AcDbEntity
  8
1
  6
CONTINUOUS
370
50
 62
4
100
AcDbLine
 10
32.485939
 20
-1.202239
 30
0.0
 11
32.582085
 21
-1.192206
 31
0.0
  0
LINE
  5
523
330
1F
100
AcDbEntity
  8
1
  6
CONTINUOUS
370
50
 62
4
100
AcDbLine
 10
33.174107
 20
-1.85935
 30
0.0
 11
33.256344
 21
-1.849628
 31
0.0
  0
LINE
  5
524
330
1F
100
AcDbEntity
  8
1
  6
CONTINUOUS
370
50
 62
4
100
AcDbLine
 10
47.484207
 20
1.790294
 30
0.0
 11
47.874016
 21
1.837358
 31
0.0
  0
LINE
  5
525
330
1F
100
AcDbEntity
  8
1
  6
CONTINUOUS
370
50
 62
4
100
AcDbLine
 10
44.76189
 20
-1.837316
 30
0.0
 11
45.153206
 21
-1.789892
 31
0.0
  0
LINE
  5
526
330
1F
100
AcDbEntity
  8
1
  6
CONTINUOUS
370
50
 62
4
100
AcDbLine
 10
35.236076
 20
1.768696
 30
0.0
 11
35.559174
 21
1.814469
 31
0.0
  0
LINE
  5
527
330
1F
100
AcDbEntity
  8
1
  6
CONTINUOUS
370
50
 62
4
100
AcDbLine
 10
33.256344
 20
-1.849628
 30
0.0
 11
33.338371
 21
-1.837563
 31
0.0
  0
LINE
  5
528
330
1F
100
AcDbEntity
  8
1
  6
CONTINUOUS
370
50
 62
4
100
AcDbLine
 10
50.378159
 20
0.751344
 30
0.0
 11
50.427589
 21
0.7587849999999999
 31
0.0
  0
LINE
  5
529
330
1F
100
AcDbEntity
  8
1
  6
CONTINUOUS
370
50
 62
4
100
AcDbLine
 10
51.114914
 20
-0.503888
 30
0.0
 11
51.144047
 21
-0.49941
 31
0.0
  0
LINE
  5
52A
330
1F
100
AcDbEntity
  8
1
  6
CONTINUOUS
370
50
 62
4
100
AcDbLine
 10
32.395744
 20
-1.216254
 30
0.0
 11
32.485939
 21
-1.202239
 31
0.0
  0
LINE
  5
52B
330
1F
100
AcDbEntity
  8
1
  6
CONTINUOUS
370
50
 62
4
100
AcDbLine
 10
50.427589
 20
0.7587849999999999
 30
0.0
 11
50.477627
 21
0.766994
 31
0.0
  0
LINE
  5
52C
330
1F
100
AcDbEntity
  8
1
  6
CONTINUOUS
370
50
 62
4
100
AcDbLine
 10
47.094887
 20
1.724821
 30
0.0
 11
47.484207
 21
1.790294
 31
0.0
  0
LINE
  5
52D
330
1F
100
AcDbEntity
  8
1
  6
CONTINUOUS
370
50
 62
4
100
AcDbLine
 10
45.153206
 20
-1.789892
 30
0.0
 11
45.54026
 21
-1.724576
 31
0.0
  0
LINE
  5
52E
330
1F
100
AcDbEntity
  8
1
  6
CONTINUOUS
370
50
 62
4
100
AcDbLine
 10
33.338371
 20
-1.837563
 30
0.0
 11
33.420094
 21
-1.823167
 31
0.0
  0
LINE
  5
52F
330
1F
100
AcDbEntity
  8
1
  6
CONTINUOUS
370
50
 62
4
100
AcDbLine
 10
50.477627
 20
0.766994
 30
0.0
 11
50.528015
 21
0.776026
 31
0.0
  0
LINE
  5
530
330
1F
100
AcDbEntity
  8
1
  6
CONTINUOUS
370
50
 62
4
100
AcDbLine
 10
34.915722
 20
1.710485
 30
0.0
 11
35.236076
 21
1.768696
 31
0.0
  0
LINE
  5
531
330
1F
100
AcDbEntity
  8
1
  6
CONTINUOUS
370
50
 62
4
100
AcDbLine
 10
50.528015
 20
0.776026
 30
0.0
 11
50.578506
 21
0.785937
 31
0.0
  0
LINE
  5
532
330
1F
100
AcDbEntity
  8
1
  6
CONTINUOUS
370
50
 62
4
100
AcDbLine
 10
33.420094
 20
-1.823167
 30
0.0
 11
33.50161
 21
-1.806441
 31
0.0
  0
LINE
  5
533
330
1F
100
AcDbEntity
  8
1
  6
CONTINUOUS
370
50
 62
4
100
AcDbLine
 10
32.311878
 20
-1.233882
 30
0.0
 11
32.395744
 21
-1.216254
 31
0.0
  0
LINE
  5
534
330
1F
100
AcDbEntity
  8
1
  6
CONTINUOUS
370
50
 62
4
100
AcDbLine
 10
46.70636
 20
1.64173
 30
0.0
 11
47.094887
 21
1.724821
 31
0.0
  0
LINE
  5
535
330
1F
100
AcDbEntity
  8
1
  6
CONTINUOUS
370
50
 62
4
100
AcDbLine
 10
45.54026
 20
-1.724576
 30
0.0
 11
45.926579
 21
-1.641787
 31
0.0
  0
LINE
  5
536
330
1F
100
AcDbEntity
  8
1
  6
CONTINUOUS
370
50
 62
4
100
AcDbLine
 10
50.578506
 20
0.785937
 30
0.0
 11
50.628845
 21
0.796781
 31
0.0
  0
LINE
  5
537
330
1F
100
AcDbEntity
  8
1
  6
CONTINUOUS
370
50
 62
4
100
AcDbLine
 10
34.596233
 20
1.640146
 30
0.0
 11
34.915722
 21
1.710485
 31
0.0
  0
LINE
  5
538
330
1F
100
AcDbEntity
  8
1
  6
CONTINUOUS
370
50
 62
4
100
AcDbLine
 10
33.50161
 20
-1.806441
 30
0.0
 11
33.583035
 21
-1.787381
 31
0.0
  0
LINE
  5
539
330
1F
100
AcDbEntity
  8
1
  6
CONTINUOUS
370
50
 62
4
100
AcDbLine
 10
50.628845
 20
0.796781
 30
0.0
 11
50.678783
 21
0.808616
 31
0.0
  0
LINE
  5
53A
330
1F
100
AcDbEntity
  8
1
  6
CONTINUOUS
370
50
 62
4
100
AcDbLine
 10
51.108521
 20
-1.875001
 30
0.0
 11
51.108776
 21
-1.87494
 31
0.0
  0
LINE
  5
53B
330
1F
100
AcDbEntity
  8
1
  6
CONTINUOUS
370
50
 62
4
100
AcDbLine
 10
30.0
 20
-2.0
 30
0.0
 11
30.5
 21
-1.875
 31
0.0
  0
LINE
  5
53C
330
1F
100
AcDbEntity
  8
1
  6
CONTINUOUS
370
50
 62
4
100
AcDbLine
 10
46.316273
 20
1.542071
 30
0.0
 11
46.70636
 21
1.64173
 31
0.0
  0
LINE
  5
53D
330
1F
100
AcDbEntity
  8
1
  6
CONTINUOUS
370
50
 62
4
100
AcDbLine
 10
45.926579
 20
-1.641787
 30
0.0
 11
46.31628
 21
-1.542066
 31
0.0
  0
LINE
  5
53E
330
1F
100
AcDbEntity
  8
1
  6
CONTINUOUS
370
50
 62
4
100
AcDbLine
 10
34.275318
 20
1.557951
 30
0.0
 11
34.596233
 21
1.640146
 31
0.0
  0
LINE
  5
53F
330
1F
100
AcDbEntity
  8
1
  6
CONTINUOUS
370
50
 62
4
100
AcDbLine
 10
50.678783
 20
0.808616
 30
0.0
 11
50.728065
 21
0.821495
 31
0.0
  0
LINE
  5
540
330
1F
100
AcDbEntity
  8
1
  6
CONTINUOUS
370
50
 62
4
100
AcDbLine
 10
33.583035
 20
-1.787381
 30
0.0
 11
33.664383
 21
-1.766014
 31
0.0
  0
LINE
  5
541
330
1F
100
AcDbEntity
  8
1
  6
CONTINUOUS
370
50
 62
4
100
AcDbLine
 10
32.234127
 20
-1.254937
 30
0.0
 11
32.311878
 21
-1.233882
 31
0.0
  0
LINE
  5
542
330
1F
100
AcDbEntity
  8
1
  6
CONTINUOUS
370
50
 62
4
100
AcDbLine
 10
51.144047
 20
-0.49941
 30
0.0
 11
51.173443
 21
-0.491201
 31
0.0
  0
LINE
  5
543
330
1F
100
AcDbEntity
  8
1
  6
CONTINUOUS
370
50
 62
4
100
AcDbLine
 10
50.728065
 20
0.821495
 30
0.0
 11
50.776447
 21
0.835476
 31
0.0
  0
LINE
  5
544
330
1F
100
AcDbEntity
  8
1
  6
CONTINUOUS
370
50
 62
4
100
AcDbLine
 10
33.664383
 20
-1.766014
 30
0.0
 11
33.744392
 21
-1.742785
 31
0.0
  0
LINE
  5
545
330
1F
100
AcDbEntity
  8
1
  6
CONTINUOUS
370
50
 62
4
100
AcDbLine
 10
33.744392
 20
-1.742785
 30
0.0
 11
33.822826
 21
-1.717967
 31
0.0
  0
LINE
  5
546
330
1F
100
AcDbEntity
  8
1
  6
CONTINUOUS
370
50
 62
4
100
AcDbLine
 10
50.776447
 20
0.835476
 30
0.0
 11
50.823673
 21
0.850613
 31
0.0
  0
LINE
  5
547
330
1F
100
AcDbEntity
  8
1
  6
CONTINUOUS
370
50
 62
4
100
AcDbLine
 10
32.16349
 20
-1.278897
 30
0.0
 11
32.234127
 21
-1.254937
 31
0.0
  0
LINE
  5
548
330
1F
100
AcDbEntity
  8
1
  6
CONTINUOUS
370
50
 62
4
100
AcDbLine
 10
33.822826
 20
-1.717967
 30
0.0
 11
33.899921
 21
-1.691718
 31
0.0
  0
LINE
  5
549
330
1F
100
AcDbEntity
  8
1
  6
CONTINUOUS
370
50
 62
4
100
AcDbLine
 10
50.823673
 20
0.850613
 30
0.0
 11
50.869492
 21
0.866962
 31
0.0
  0
LINE
  5
54A
330
1F
100
AcDbEntity
  8
1
  6
CONTINUOUS
370
50
 62
4
100
AcDbLine
 10
33.899921
 20
-1.691718
 30
0.0
 11
33.975903
 21
-1.664193
 31
0.0
  0
LINE
  5
54B
330
1F
100
AcDbEntity
  8
1
  6
CONTINUOUS
370
50
 62
4
100
AcDbLine
 10
34.274651
 20
1.537078
 30
0.0
 11
34.274986
 21
1.5372
 31
0.0
  0
LINE
  5
54C
330
1F
100
AcDbEntity
  8
1
  6
CONTINUOUS
370
50
 62
4
100
AcDbLine
 10
34.273651
 20
1.53671
 30
0.0
 11
34.273987
 21
1.536833
 31
0.0
  0
LINE
  5
54D
330
1F
100
AcDbEntity
  8
1
  6
CONTINUOUS
370
50
 62
4
100
AcDbLine
 10
34.273987
 20
1.536833
 30
0.0
 11
34.274319
 21
1.536955
 31
0.0
  0
LINE
  5
54E
330
1F
100
AcDbEntity
  8
1
  6
CONTINUOUS
370
50
 62
4
100
AcDbLine
 10
34.273319
 20
1.536587
 30
0.0
 11
34.273651
 21
1.53671
 31
0.0
  0
LINE
  5
54F
330
1F
100
AcDbEntity
  8
1
  6
CONTINUOUS
370
50
 62
4
100
AcDbLine
 10
34.274319
 20
1.536955
 30
0.0
 11
34.274651
 21
1.537078
 31
0.0
  0
LINE
  5
550
330
1F
100
AcDbEntity
  8
1
  6
CONTINUOUS
370
50
 62
4
100
AcDbLine
 10
34.274986
 20
1.5372
 30
0.0
 11
34.275318
 21
1.537323
 31
0.0
  0
LINE
  5
551
330
1F
100
AcDbEntity
  8
1
  6
CONTINUOUS
370
50
 62
4
100
AcDbLine
 10
33.975903
 20
-1.664193
 30
0.0
 11
34.051003
 21
-1.635549
 31
0.0
  0
LINE
  5
552
330
1F
100
AcDbEntity
  8
1
  6
CONTINUOUS
370
50
 62
4
100
AcDbLine
 10
34.051003
 20
-1.635549
 30
0.0
 11
34.125454
 21
-1.605943
 31
0.0
  0
LINE
  5
553
330
1F
100
AcDbEntity
  8
1
  6
CONTINUOUS
370
50
 62
4
100
AcDbLine
 10
50.869492
 20
0.866962
 30
0.0
 11
50.914131
 21
0.88478
 31
0.0
  0
LINE
  5
554
330
1F
100
AcDbEntity
  8
1
  6
CONTINUOUS
370
50
 62
4
100
AcDbLine
 10
51.173443
 20
-0.491201
 30
0.0
 11
51.203064
 21
-0.479181
 31
0.0
  0
LINE
  5
555
330
1F
100
AcDbEntity
  8
1
  6
CONTINUOUS
370
50
 62
4
100
AcDbLine
 10
34.125454
 20
-1.605943
 30
0.0
 11
34.199482
 21
-1.575532
 31
0.0
  0
LINE
  5
556
330
1F
100
AcDbEntity
  8
1
  6
CONTINUOUS
370
50
 62
4
100
AcDbLine
 10
34.199482
 20
-1.575532
 30
0.0
 11
34.273319
 21
-1.544471
 31
0.0
  0
LINE
  5
557
330
1F
100
AcDbEntity
  8
1
  6
CONTINUOUS
370
50
 62
4
100
AcDbLine
 10
32.096443
 20
-1.307135
 30
0.0
 11
32.16349
 21
-1.278897
 31
0.0
  0
LINE
  5
558
330
1F
100
AcDbEntity
  8
1
  6
CONTINUOUS
370
50
 62
4
100
AcDbLine
 10
50.914131
 20
0.88478
 30
0.0
 11
50.958107
 21
0.904559
 31
0.0
  0
LINE
  5
559
330
1F
100
AcDbEntity
  8
1
  6
CONTINUOUS
370
50
 62
4
100
AcDbLine
 10
51.405293
 20
-0.285222
 30
0.0
 11
51.873707
 21
-0.06057
 31
0.0
  0
LINE
  5
55A
330
1F
100
AcDbEntity
  8
1
  6
CONTINUOUS
370
50
 62
4
100
AcDbLine
 10
50.958107
 20
0.904559
 30
0.0
 11
51.000862
 21
0.926438
 31
0.0
  0
LINE
  5
55B
330
1F
100
AcDbEntity
  8
1
  6
CONTINUOUS
370
50
 62
4
100
AcDbLine
 10
32.034855
 20
-1.339727
 30
0.0
 11
32.096443
 21
-1.307135
 31
0.0
  0
LINE
  5
55C
330
1F
100
AcDbEntity
  8
1
  6
CONTINUOUS
370
50
 62
4
100
AcDbLine
 10
51.203064
 20
-0.479181
 30
0.0
 11
51.23278
 21
-0.463312
 31
0.0
  0
LINE
  5
55D
330
1F
100
AcDbEntity
  8
1
  6
CONTINUOUS
370
50
 62
4
100
AcDbLine
 10
51.108776
 20
-1.87494
 30
0.0
 11
51.109028
 21
-1.874805
 31
0.0
  0
LINE
  5
55E
330
1F
100
AcDbEntity
  8
1
  6
CONTINUOUS
370
50
 62
4
100
AcDbLine
 10
39.499134
 20
1.875
 30
0.0
 11
39.5
 21
1.8755
 31
0.0
  0
LINE
  5
55F
330
1F
100
AcDbEntity
  8
1
  6
CONTINUOUS
370
50
 62
4
100
AcDbLine
 10
51.000862
 20
0.926438
 30
0.0
 11
51.041813
 21
0.950542
 31
0.0
  0
LINE
  5
560
330
1F
100
AcDbEntity
  8
1
  6
CONTINUOUS
370
50
 62
4
100
AcDbLine
 10
51.23278
 20
-0.463312
 30
0.0
 11
51.262459
 21
-0.443553
 31
0.0
  0
LINE
  5
561
330
1F
100
AcDbEntity
  8
1
  6
CONTINUOUS
370
50
 62
4
100
AcDbLine
 10
31.98049
 20
-1.376858
 30
0.0
 11
32.034855
 21
-1.339727
 31
0.0
  0
LINE
  5
562
330
1F
100
AcDbEntity
  8
1
  6
CONTINUOUS
370
50
 62
4
100
AcDbLine
 10
51.041813
 20
0.950542
 30
0.0
 11
51.08038699999999
 21
0.977
 31
0.0
  0
LINE
  5
563
330
1F
100
AcDbEntity
  8
1
  6
CONTINUOUS
370
50
 62
4
100
AcDbLine
 10
51.262459
 20
-0.443553
 30
0.0
 11
51.291965
 21
-0.419861
 31
0.0
  0
LINE
  5
564
330
1F
100
AcDbEntity
  8
1
  6
CONTINUOUS
370
50
 62
4
100
AcDbLine
 10
51.08038699999999
 20
0.977
 30
0.0
 11
51.11597399999999
 21
1.005915
 31
0.0
  0
LINE
  5
565
330
1F
100
AcDbEntity
  8
1
  6
CONTINUOUS
370
50
 62
4
100
AcDbLine
 10
51.109028
 20
-1.874805
 30
0.0
 11
51.109283
 21
-1.874578
 31
0.0
  0
LINE
  5
566
330
1F
100
AcDbEntity
  8
1
  6
CONTINUOUS
370
50
 62
4
100
AcDbLine
 10
31.936022
 20
-1.418253
 30
0.0
 11
31.98049
 21
-1.376858
 31
0.0
  0
LINE
  5
567
330
1F
100
AcDbEntity
  8
1
  6
CONTINUOUS
370
50
 62
4
100
AcDbLine
 10
51.291965
 20
-0.419861
 30
0.0
 11
51.321175
 21
-0.392194
 31
0.0
  0
LINE
  5
568
330
1F
100
AcDbEntity
  8
1
  6
CONTINUOUS
370
50
 62
4
100
AcDbLine
 10
51.11597399999999
 20
1.005915
 30
0.0
 11
51.14798
 21
1.037349
 31
0.0
  0
LINE
  5
569
330
1F
100
AcDbEntity
  8
1
  6
CONTINUOUS
370
50
 62
4
100
AcDbLine
 10
51.321175
 20
-0.392194
 30
0.0
 11
51.349953
 21
-0.360508
 31
0.0
  0
LINE
  5
56A
330
1F
100
AcDbEntity
  8
1
  6
CONTINUOUS
370
50
 62
4
100
AcDbLine
 10
51.14798
 20
1.037349
 30
0.0
 11
51.175934
 21
1.071437
 31
0.0
  0
LINE
  5
56B
330
1F
100
AcDbEntity
  8
1
  6
CONTINUOUS
370
50
 62
4
100
AcDbLine
 10
51.109283
 20
-1.874578
 30
0.0
 11
51.109539
 21
-1.874259
 31
0.0
  0
LINE
  5
56C
330
1F
100
AcDbEntity
  8
1
  6
CONTINUOUS
370
50
 62
4
100
AcDbLine
 10
51.349953
 20
-0.360508
 30
0.0
 11
51.378132
 21
-0.324804
 31
0.0
  0
LINE
  5
56D
330
1F
100
AcDbEntity
  8
1
  6
CONTINUOUS
370
50
 62
4
100
AcDbLine
 10
31.904877
 20
-1.462359
 30
0.0
 11
31.936022
 21
-1.418253
 31
0.0
  0
LINE
  5
56E
330
1F
100
AcDbEntity
  8
1
  6
CONTINUOUS
370
50
 62
4
100
AcDbLine
 10
51.378132
 20
-0.324804
 30
0.0
 11
51.405293
 21
-0.285222
 31
0.0
  0
LINE
  5
56F
330
1F
100
AcDbEntity
  8
1
  6
CONTINUOUS
370
50
 62
4
100
AcDbLine
 10
51.175934
 20
1.071437
 30
0.0
 11
51.19936
 21
1.108311
 31
0.0
  0
LINE
  5
570
330
1F
100
AcDbEntity
  8
1
  6
CONTINUOUS
370
50
 62
4
100
AcDbLine
 10
51.109539
 20
-1.874259
 30
0.0
 11
51.109798
 21
-1.873848
 31
0.0
  0
LINE
  5
571
330
1F
100
AcDbEntity
  8
1
  6
CONTINUOUS
370
50
 62
4
100
AcDbLine
 10
51.109798
 20
-1.873848
 30
0.0
 11
51.110054
 21
-1.873344
 31
0.0
  0
LINE
  5
572
330
1F
100
AcDbEntity
  8
1
  6
CONTINUOUS
370
50
 62
4
100
AcDbLine
 10
51.110031
 20
-1.873396
 30
0.0
 11
52.0
 21
0.0
 31
0.0
  0
LINE
  5
573
330
1F
100
AcDbEntity
  8
1
  6
CONTINUOUS
370
50
 62
4
100
AcDbLine
 10
51.19936
 20
1.108311
 30
0.0
 11
51.217422
 21
1.147143
 31
0.0
  0
LINE
  5
574
330
1F
100
AcDbEntity
  8
1
  6
CONTINUOUS
370
50
 62
4
100
AcDbLine
 10
31.888929
 20
-1.507707
 30
0.0
 11
31.904877
 21
-1.462359
 31
0.0
  0
LINE
  5
575
330
1F
100
AcDbEntity
  8
1
  6
CONTINUOUS
370
50
 62
4
100
AcDbLine
 10
51.217422
 20
1.147143
 30
0.0
 11
51.229916
 21
1.187296
 31
0.0
  0
LINE
  5
576
330
1F
100
AcDbEntity
  8
1
  6
CONTINUOUS
370
50
 62
4
100
AcDbLine
 10
51.229916
 20
1.187296
 30
0.0
 11
51.237057
 21
1.228697
 31
0.0
  0
LINE
  5
577
330
1F
100
AcDbEntity
  8
1
  6
CONTINUOUS
370
50
 62
4
100
AcDbLine
 10
51.237057
 20
1.228697
 30
0.0
 11
51.239052
 21
1.271028
 31
0.0
  0
LINE
  5
578
330
1F
100
AcDbEntity
  8
1
  6
CONTINUOUS
370
50
 62
4
100
AcDbLine
 10
31.888622
 20
-1.551389
 30
0.0
 11
31.888929
 21
-1.507707
 31
0.0
  0
LINE
  5
579
330
1F
100
AcDbEntity
  8
1
  6
CONTINUOUS
370
50
 62
4
100
AcDbLine
 10
51.085697
 20
-0.62654
 30
0.0
 11
51.08606
 21
-0.504703
 31
0.0
  0
LINE
  5
57A
330
1F
100
AcDbEntity
  8
1
  6
CONTINUOUS
370
50
 62
4
100
AcDbLine
 10
51.085522
 20
-0.743645
 30
0.0
 11
51.085697
 21
-0.62654
 31
0.0
  0
LINE
  5
57B
330
1F
100
AcDbEntity
  8
1
  6
CONTINUOUS
370
50
 62
4
100
AcDbLine
 10
30.0
 20
-2.0
 30
0.0
 11
30.0
 21
2.0
 31
0.0
  0
LINE
  5
57C
330
1F
100
AcDbEntity
  8
1
  6
CONTINUOUS
370
50
 62
4
100
AcDbLine
 10
30.5
 20
-1.875
 30
0.0
 11
30.5
 21
1.875
 31
0.0
  0
LINE
  5
57D
330
1F
100
AcDbEntity
  8
1
  6
CONTINUOUS
370
50
 62
4
100
AcDbLine
 10
34.273319
 20
1.526405
 30
0.0
 11
34.273319
 21
1.544471
 31
0.0
  0
LINE
  5
57E
330
1F
100
AcDbEntity
  8
1
  6
CONTINUOUS
370
50
 62
4
100
AcDbLine
 10
34.273319
 20
-1.544471
 30
0.0
 11
34.273319
 21
-1.543153
 31
0.0
  0
LINE
  5
57F
330
1F
100
AcDbEntity
  8
1
  6
CONTINUOUS
370
50
 62
4
100
AcDbLine
 10
34.273319
 20
-1.543153
 30
0.0
 11
34.273319
 21
-1.541836
 31
0.0
  0
LINE
  5
580
330
1F
100
AcDbEntity
  8
1
  6
CONTINUOUS
370
50
 62
4
100
AcDbLine
 10
34.273319
 20
-1.541836
 30
0.0
 11
34.273319
 21
-1.54052
 31
0.0
  0
LINE
  5
581
330
1F
100
AcDbEntity
  8
1
  6
CONTINUOUS
370
50
 62
4
100
AcDbLine
 10
34.273319
 20
-1.54052
 30
0.0
 11
34.273319
 21
-1.539205
 31
0.0
  0
LINE
  5
582
330
1F
100
AcDbEntity
  8
1
  6
CONTINUOUS
370
50
 62
4
100
AcDbLine
 10
34.273319
 20
-1.539205
 30
0.0
 11
34.273319
 21
-1.537891
 31
0.0
  0
LINE
  5
583
330
1F
100
AcDbEntity
  8
1
  6
CONTINUOUS
370
50
 62
4
100
AcDbLine
 10
34.273319
 20
-1.537891
 30
0.0
 11
34.273319
 21
-1.536577
 31
0.0
  0
LINE
  5
584
330
1F
100
AcDbEntity
  8
1
  6
CONTINUOUS
370
50
 62
4
100
AcDbLine
 10
34.275318
 20
1.525831
 30
0.0
 11
34.275318
 21
1.557951
 31
0.0
  0
LINE
  5
585
330
1F
100
AcDbEntity
  8
1
  6
CONTINUOUS
370
50
 62
4
100
AcDbLine
 10
34.275318
 20
-1.557951
 30
0.0
 11
34.275318
 21
-1.537323
 31
0.0
  0
LINE
  5
586
330
1F
100
AcDbEntity
  8
1
  6
CONTINUOUS
370
50
 62
4
100
AcDbLine
 10
39.499134
 20
1.349497
 30
0.0
 11
39.499134
 21
1.875
 31
0.0
  0
LINE
  5
587
330
1F
100
AcDbEntity
  8
1
  6
CONTINUOUS
370
50
 62
4
100
AcDbLine
 10
39.499134
 20
-1.875
 30
0.0
 11
39.499134
 21
-0.742177
 31
0.0
  0
LINE
  5
588
330
1F
100
AcDbEntity
  8
1
  6
CONTINUOUS
370
50
 62
4
100
AcDbLine
 10
39.5
 20
-1.876
 30
0.0
 11
39.5
 21
1.876
 31
0.0
  0
LINE
  5
589
330
1F
100
AcDbEntity
  8
1
  6
CONTINUOUS
370
50
 62
4
100
AcDbLine
 10
51.085522
 20
-0.8557739999999999
 30
0.0
 11
51.085522
 21
-0.743645
 31
0.0
  0
LINE
  5
58A
330
1F
100
AcDbEntity
  8
1
  6
CONTINUOUS
370
50
 62
4
100
AcDbLine
 10
51.125671
 20
1.500975
 30
0.0
 11
51.125671
 21
1.693414
 31
0.0
  0
LINE
  5
58B
330
1F
100
AcDbEntity
  8
CUT
  6
CONTINUOUS
370
25
 62
1
100
AcDbLine
 10
39.5
 20
0.0
 30
0.0
 11
52.0
 21
0.0
 31
0.0
  0
LINE
  5
58C
330
1F
100
AcDbEntity
  8
CUT
  6
CONTINUOUS
370
25
 62
1
100
AcDbLine
 10
52.0
 20
0.0
 30
0.0
 11
51.12567314
 21
1.875
 31
0.0
  0
LINE
  5
58D
330
1F
100
AcDbEntity
  8
CUT
  6
CONTINUOUS
370
25
 62
1
100
AcDbLine
 10
51.12567314
 20
1.875
 30
0.0
 11
39.5
 21
1.875
 31
0.0
  0
LINE
  5
58E
330
1F
100
AcDbEntity
  8
CUT
  6
CONTINUOUS
370
25
 62
1
100
AcDbLine
 10
39.5
 20
1.875
 30
0.0
 11
39.5
 21
0.0
 31
0.0
  0
LINE
  5
58F
330
1F
100
AcDbEntity
  8
NOCUT
  6
CONTINUOUS
370
25
 62
7
100
AcDbLine
 10
30.0
 20
0.0
 30
0.0
 11
39.5
 21
0.0
 31
0.0
  0
LINE
  5
590
330
1F
100
AcDbEntity
  8
NOCUT
  6
CONTINUOUS
370
25
 62
7
100
AcDbLine
 10
39.5
 20
0.0
 30
0.0
 11
39.5
 21
1.8755
 31
0.0
  0
LINE
  5
591
330
1F
100
AcDbEntity
  8
NOCUT
  6
CONTINUOUS
370
25
 62
7
100
AcDbLine
 10
39.5
 20
1.8755
 30
0.0
 11
39.49913397459622
 21
1.875
 31
0.0
  0
LINE
  5
592
330
1F
100
AcDbEntity
  8
NOCUT
  6
CONTINUOUS
370
25
 62
7
100
AcDbLine
 10
39.49913397459622
 20
1.875
 30
0.0
 11
30.5
 21
1.875
 31
0.0
  0
LINE
  5
593
330
1F
100
AcDbEntity
  8
NOCUT
  6
CONTINUOUS
370
25
 62
7
100
AcDbLine
 10
30.5
 20
1.875
 30
0.0
 11
30.0
 21
2.0
 31
0.0
  0
LINE
  5
594
330
1F
100
AcDbEntity
  8
NOCUT
  6
CONTINUOUS
370
25
 62
7
100
AcDbLine
 10
30.0
 20
2.0
 30
0.0
 11
30.0
 21
0.0
 31
0.0
  0
LINE
  5
595
330
1F
100
AcDbEntity
  8
NOCUT
  6
CONTINUOUS
370
25
 62
7
100
AcDbLine
 10
39.5
 20
1.875
 30
0.0
 11
39.5
 21
0.0
 31
0.0
  0
LINE
  5
596
330
1F
100
AcDbEntity
  8
NOCUT
  6
CONTINUOUS
370
25
 62
7
100
AcDbLine
 10
39.5
 20
1.875
 30
0.0
 11
39.5
 21
0.0
 31
0.0
  0
LINE
  5
597
330
1F
100
AcDbEntity
  8
SK1
  6
CONTINUOUS
370
50
 62
4
100
AcDbLine
 10
30.0
 20
2.0
 30
0.0
 11
0.3000000000000007
 21
2.0
 31
0.0
  0
LINE
  5
598
330
1F
100
AcDbEntity
  8
SK1
  6
CONTINUOUS
370
50
 62
4
100
AcDbLine
 10
0.3000000000000007
 20
2.0
 30
0.0
 11
0.0
 21
1.7
 31
0.0
  0
LINE
  5
599
330
1F
100
AcDbEntity
  8
SK1
  6
CONTINUOUS
370
50
 62
4
100
AcDbLine
 10
0.0
 20
1.7
 30
0.0
 11
0.0
 21
-1.7
 31
0.0
  0
LINE
  5
59A
330
1F
100
AcDbEntity
  8
SK1
  6
CONTINUOUS
370
50
 62
4
100
AcDbLine
 10
0.0
 20
-1.7
 30
0.0
 11
0.3000000000000007
 21
-2.0
 31
0.0
  0
LINE
  5
59B
330
1F
100
AcDbEntity
  8
SK1
  6
CONTINUOUS
370
50
 62
4
100
AcDbLine
 10
0.3000000000000007
 20
-2.0
 30
0.0
 11
30.0
 21
-2.0
 31
0.0
  0
LINE
  5
59C
330
1F
100
AcDbEntity
  8
SK1
  6
CONTINUOUS
370
50
 62
4
100
AcDbLine
 10
0.3000000000000007
 20
2.0
 30
0.0
 11
0.3000000000000007
 21
-2.0
 31
0.0
  0
LINE
  5
59D
330
1F
100
AcDbEntity
  8
SK2
  6
CONTINUOUS
370
25
 62
7
100
AcDbLine
 10
-12.0000002
 20
-2.000001
 30
0.0
 11
-13.00000000000008
 21
-2.000001
 31
0.0
  0
LINE
  5
59E
330
1F
100
AcDbEntity
  8
SK2
  6
CONTINUOUS
370
25
 62
7
100
AcDbLine
 10
0.0
 20
-2.000001
 30
0.0
 11
-11.9999998
 21
-2.000001
 31
0.0
  0
LINE
  5
59F
330
1F
100
AcDbEntity
  8
SK2
  6
CONTINUOUS
370
25
 62
7
100
AcDbLine
 10
-13.0
 20
2.0
 30
0.0
 11
0.0
 21
2.0
 31
0.0
  0
LINE
  5
5A0
330
1F
100
AcDbEntity
  8
SK2
  6
CONTINUOUS
370
25
 62
7
100
AcDbLine
 10
-12.0
 20
-9.0
 30
0.0
 11
-12.0
 21
15.475
 31
0.0
  0
LINE
  5
5A1
330
1F
100
AcDbEntity
  8
SK2
  6
CONTINUOUS
370
25
 62
7
100
AcDbLine
 10
-12.0
 20
-2.0
 30
0.0
 11
-11.0
 21
-7.0
 31
0.0
  0
LINE
  5
5A2
330
1F
100
AcDbEntity
  8
SK2
  6
CONTINUOUS
370
25
 62
7
100
AcDbLine
 10
-11.0
 20
-7.0
 30
0.0
 11
-13.0
 21
-7.0
 31
0.0
  0
LINE
  5
5A3
330
1F
100
AcDbEntity
  8
SK2
  6
CONTINUOUS
370
25
 62
7
100
AcDbLine
 10
-13.0
 20
-7.0
 30
0.0
 11
-12.0
 21
-2.0
 31
0.0
  0
LINE
  5
5A4
330
1F
100
AcDbEntity
  8
SK2
  6
CONTINUOUS
370
25
 62
7
100
AcDbLine
 10
-11.36538956566619
 20
-7.0
 30
0.0
 11
-11.06089826094437
 21
-6.695508695278178
 31
0.0
  0
LINE
  5
5A5
330
1F
100
AcDbEntity
  8
SK2
  6
CONTINUOUS
370
25
 62
7
100
AcDbLine
 10
-11.78965363437812
 20
-7.0
 30
0.0
 11
-11.13160893906302
 21
-6.341955304684902
 31
0.0
  0
LINE
  5
5A6
330
1F
100
AcDbEntity
  8
SK2
  6
CONTINUOUS
370
25
 62
7
100
AcDbLine
 10
-12.21391770309005
 20
-7.0
 30
0.0
 11
-11.20231961718168
 21
-5.988401914091625
 31
0.0
  0
LINE
  5
5A7
330
1F
100
AcDbEntity
  8
SK2
  6
CONTINUOUS
370
25
 62
7
100
AcDbLine
 10
-12.63818177180198
 20
-7.0
 30
0.0
 11
-11.27303029530034
 21
-5.634848523498356
 31
0.0
  0
LINE
  5
5A8
330
1F
100
AcDbEntity
  8
SK2
  6
CONTINUOUS
370
25
 62
7
100
AcDbLine
 10
-12.98438853987152
 20
-6.921942699357608
 30
0.0
 11
-11.34374097341899
 21
-5.281295132905072
 31
0.0
  0
LINE
  5
5A9
330
1F
100
AcDbEntity
  8
SK2
  6
CONTINUOUS
370
25
 62
7
100
AcDbLine
 10
-12.87832252269354
 20
-6.391612613467693
 30
0.0
 11
-11.41445165153764
 21
-4.927741742311795
 31
0.0
  0
LINE
  5
5AA
330
1F
100
AcDbEntity
  8
SK2
  6
CONTINUOUS
370
25
 62
7
100
AcDbLine
 10
-12.77225650551556
 20
-5.861282527577778
 30
0.0
 11
-11.48516232965629
 21
-4.574188351718512
 31
0.0
  0
LINE
  5
5AB
330
1F
100
AcDbEntity
  8
SK2
  6
CONTINUOUS
370
25
 62
7
100
AcDbLine
 10
-12.66619048833757
 20
-5.330952441687863
 30
0.0
 11
-11.55587300777495
 21
-4.220634961125242
 31
0.0
  0
LINE
  5
5AC
330
1F
100
AcDbEntity
  8
SK2
  6
CONTINUOUS
370
25
 62
7
100
AcDbLine
 10
-12.56012447115959
 20
-4.800622355797948
 30
0.0
 11
-11.62658368589361
 21
-3.867081570531965
 31
0.0
  0
LINE
  5
5AD
330
1F
100
AcDbEntity
  8
SK2
  6
CONTINUOUS
370
25
 62
7
100
AcDbLine
 10
-12.45405845398161
 20
-4.27029226990804
 30
0.0
 11
-11.69729436401226
 21
-3.513528179938689
 31
0.0
  0
LINE
  5
5AE
330
1F
100
AcDbEntity
  8
SK2
  6
CONTINUOUS
370
25
 62
7
100
AcDbLine
 10
-12.34799243680362
 20
-3.739962184018118
 30
0.0
 11
-11.76800504213092
 21
-3.159974789345412
 31
0.0
  0
LINE
  5
5AF
330
1F
100
AcDbEntity
  8
SK2
  6
CONTINUOUS
370
25
 62
7
100
AcDbLine
 10
-12.24192641962564
 20
-3.20963209812821
 30
0.0
 11
-11.83871572024957
 21
-2.806421398752136
 31
0.0
  0
LINE
  5
5B0
330
1F
100
AcDbEntity
  8
SK2
  6
CONTINUOUS
370
25
 62
7
100
AcDbLine
 10
-12.13586040244765
 20
-2.679302012238288
 30
0.0
 11
-11.90942639836823
 21
-2.452868008158859
 31
0.0
  0
LINE
  5
5B1
330
1F
100
AcDbEntity
  8
SK2
  6
CONTINUOUS
370
25
 62
7
100
AcDbLine
 10
-12.02979438526967
 20
-2.148971926348374
 30
0.0
 11
-11.98013707648688
 21
-2.099314617565582
 31
0.0
  0
LINE
  5
5B2
330
1F
100
AcDbEntity
  8
SK2
  6
CONTINUOUS
370
25
 62
7
100
AcDbLine
 10
-12.93618967963889
 20
-6.680948398194445
 30
0.0
 11
-12.61713807783333
 21
-7.0
 31
0.0
  0
LINE
  5
5B3
330
1F
100
AcDbEntity
  8
SK2
  6
CONTINUOUS
370
25
 62
7
100
AcDbLine
 10
-12.86547900152023
 20
-6.327395007601169
 30
0.0
 11
-12.1928740091214
 21
-7.0
 31
0.0
  0
LINE
  5
5B4
330
1F
100
AcDbEntity
  8
SK2
  6
CONTINUOUS
370
25
 62
7
100
AcDbLine
 10
-12.79476832340158
 20
-5.973841617007899
 30
0.0
 11
-11.76860994040948
 21
-7.0
 31
0.0
  0
LINE
  5
5B5
330
1F
100
AcDbEntity
  8
SK2
  6
CONTINUOUS
370
25
 62
7
100
AcDbLine
 10
-12.72405764528293
 20
-5.620288226414615
 30
0.0
 11
-11.34434587169754
 21
-7.0
 31
0.0
  0
LINE
  5
5B6
330
1F
100
AcDbEntity
  8
SK2
  6
CONTINUOUS
370
25
 62
7
100
AcDbLine
 10
-12.65334696716427
 20
-5.266734835821339
 30
0.0
 11
-11.0199795492536
 21
-6.900102253732001
 31
0.0
  0
LINE
  5
5B7
330
1F
100
AcDbEntity
  8
SK2
  6
CONTINUOUS
370
25
 62
7
100
AcDbLine
 10
-12.58263628904562
 20
-4.913181445228062
 30
0.0
 11
-11.12604556643158
 21
-6.369772167842093
 31
0.0
  0
LINE
  5
5B8
330
1F
100
AcDbEntity
  8
SK2
  6
CONTINUOUS
370
25
 62
7
100
AcDbLine
 10
-12.51192561092696
 20
-4.559628054634778
 30
0.0
 11
-11.23211158360957
 21
-5.839442081952171
 31
0.0
  0
LINE
  5
5B9
330
1F
100
AcDbEntity
  8
SK2
  6
CONTINUOUS
370
25
 62
7
100
AcDbLine
 10
-12.44121493280831
 20
-4.206074664041502
 30
0.0
 11
-11.33817760078755
 21
-5.309111996062263
 31
0.0
  0
LINE
  5
5BA
330
1F
100
AcDbEntity
  8
SK2
  6
CONTINUOUS
370
25
 62
7
100
AcDbLine
 10
-12.37050425468965
 20
-3.852521273448225
 30
0.0
 11
-11.44424361796553
 21
-4.778781910172341
 31
0.0
  0
LINE
  5
5BB
330
1F
100
AcDbEntity
  8
SK2
  6
CONTINUOUS
370
25
 62
7
100
AcDbLine
 10
-12.29979357657099
 20
-3.498967882854963
 30
0.0
 11
-11.55030963514351
 21
-4.248451824282441
 31
0.0
  0
LINE
  5
5BC
330
1F
100
AcDbEntity
  8
SK2
  6
CONTINUOUS
370
25
 62
7
100
AcDbLine
 10
-12.22908289845233
 20
-3.145414492261686
 30
0.0
 11
-11.6563756523215
 21
-3.718121738392519
 31
0.0
  0
LINE
  5
5BD
330
1F
100
AcDbEntity
  8
SK2
  6
CONTINUOUS
370
25
 62
7
100
AcDbLine
 10
-12.15837222033368
 20
-2.791861101668403
 30
0.0
 11
-11.76244166949948
 21
-3.187791652502604
 31
0.0
  0
LINE
  5
5BE
330
1F
100
AcDbEntity
  8
SK2
  6
CONTINUOUS
370
25
 62
7
100
AcDbLine
 10
-12.08766154221502
 20
-2.438307711075133
 30
0.0
 11
-11.86850768667746
 21
-2.657461566612696
 31
0.0
  0
LINE
  5
5BF
330
1F
100
AcDbEntity
  8
SK2
  6
CONTINUOUS
370
25
 62
7
100
AcDbLine
 10
-12.01695086409637
 20
-2.084754320481856
 30
0.0
 11
-11.97457370385545
 21
-2.127131480722774
 31
0.0
  0
LINE
  5
5C0
330
1F
100
AcDbEntity
  8
SK2
  6
CONTINUOUS
370
25
 62
7
100
AcDbLine
 10
-12.0
 20
2.0
 30
0.0
 11
-13.0
 21
7.0
 31
0.0
  0
LINE
  5
5C1
330
1F
100
AcDbEntity
  8
SK2
  6
CONTINUOUS
370
25
 62
7
100
AcDbLine
 10
-13.0
 20
7.0
 30
0.0
 11
-11.0
 21
7.0
 31
0.0
  0
LINE
  5
5C2
330
1F
100
AcDbEntity
  8
SK2
  6
CONTINUOUS
370
25
 62
7
100
AcDbLine
 10
-11.0
 20
7.0
 30
0.0
 11
-12.0
 21
2.0
 31
0.0
  0
LINE
  5
5C3
330
1F
100
AcDbEntity
  8
SK2
  6
CONTINUOUS
370
25
 62
7
100
AcDbLine
 10
-12.02057719100676
 20
2.102885955033784
 30
0.0
 11
-11.96913421348987
 21
2.154328932550676
 31
0.0
  0
LINE
  5
5C4
330
1F
100
AcDbEntity
  8
SK2
  6
CONTINUOUS
370
25
 62
7
100
AcDbLine
 10
-12.09128786912541
 20
2.456439345627068
 30
0.0
 11
-11.86306819631189
 21
2.684659018440591
 31
0.0
  0
LINE
  5
5C5
330
1F
100
AcDbEntity
  8
SK2
  6
CONTINUOUS
370
25
 62
7
100
AcDbLine
 10
-12.16199854724406
 20
2.809992736220345
 30
0.0
 11
-11.75700217913391
 21
3.214989104330499
 31
0.0
  0
LINE
  5
5C6
330
1F
100
AcDbEntity
  8
SK2
  6
CONTINUOUS
370
25
 62
7
100
AcDbLine
 10
-12.23270922536272
 20
3.163546126813621
 30
0.0
 11
-11.65093616195592
 21
3.745319190220421
 31
0.0
  0
LINE
  5
5C7
330
1F
100
AcDbEntity
  8
SK2
  6
CONTINUOUS
370
25
 62
7
100
AcDbLine
 10
-12.30341990348138
 20
3.517099517406898
 30
0.0
 11
-11.54487014477793
 21
4.275649276110343
 31
0.0
  0
LINE
  5
5C8
330
1F
100
AcDbEntity
  8
SK2
  6
CONTINUOUS
370
25
 62
7
100
AcDbLine
 10
-12.37413058160003
 20
3.870652908000167
 30
0.0
 11
-11.43880412759995
 21
4.805979362000251
 31
0.0
  0
LINE
  5
5C9
330
1F
100
AcDbEntity
  8
SK2
  6
CONTINUOUS
370
25
 62
7
100
AcDbLine
 10
-12.44484125971869
 20
4.224206298593437
 30
0.0
 11
-11.33273811042196
 21
5.336309447890166
 31
0.0
  0
LINE
  5
5CA
330
1F
100
AcDbEntity
  8
SK2
  6
CONTINUOUS
370
25
 62
7
100
AcDbLine
 10
-12.51555193783734
 20
4.577759689186713
 30
0.0
 11
-11.22667209324398
 21
5.866639533780074
 31
0.0
  0
LINE
  5
5CB
330
1F
100
AcDbEntity
  8
SK2
  6
CONTINUOUS
370
25
 62
7
100
AcDbLine
 10
-12.586262615956
 20
4.93131307977999
 30
0.0
 11
-11.120606076066
 21
6.396969619669989
 31
0.0
  0
LINE
  5
5CC
330
1F
100
AcDbEntity
  8
SK2
  6
CONTINUOUS
370
25
 62
7
100
AcDbLine
 10
-12.65697329407466
 20
5.28486647037326
 30
0.0
 11
-11.01454005888802
 21
6.927299705559903
 31
0.0
  0
LINE
  5
5CD
330
1F
100
AcDbEntity
  8
SK2
  6
CONTINUOUS
370
25
 62
7
100
AcDbLine
 10
-12.72768397219332
 20
5.638419860966543
 30
0.0
 11
-11.36610383315986
 21
7.0
 31
0.0
  0
LINE
  5
5CE
330
1F
100
AcDbEntity
  8
SK2
  6
CONTINUOUS
370
25
 62
7
100
AcDbLine
 10
-12.79839465031197
 20
5.99197325155982
 30
0.0
 11
-11.79036790187179
 21
7.0
 31
0.0
  0
LINE
  5
5CF
330
1F
100
AcDbEntity
  8
SK2
  6
CONTINUOUS
370
25
 62
7
100
AcDbLine
 10
-12.86910532843062
 20
6.345526642153104
 30
0.0
 11
-12.21463197058372
 21
7.0
 31
0.0
  0
LINE
  5
5D0
330
1F
100
AcDbEntity
  8
SK2
  6
CONTINUOUS
370
25
 62
7
100
AcDbLine
 10
-12.93981600654928
 20
6.69908003274638
 30
0.0
 11
-12.63889603929566
 21
7.0
 31
0.0
  0
LINE
  5
5D1
330
1F
100
AcDbEntity
  8
SK2
  6
CONTINUOUS
370
25
 62
7
100
AcDbLine
 10
-12.08046115416
 20
2.402305770800012
 30
0.0
 11
-11.94635923056
 21
2.268203847200013
 31
0.0
  0
LINE
  5
5D2
330
1F
100
AcDbEntity
  8
SK2
  6
CONTINUOUS
370
25
 62
7
100
AcDbLine
 10
-12.18652717133799
 20
2.932635856689934
 30
0.0
 11
-11.87564855244134
 21
2.621757237793297
 31
0.0
  0
LINE
  5
5D3
330
1F
100
AcDbEntity
  8
SK2
  6
CONTINUOUS
370
25
 62
7
100
AcDbLine
 10
-12.29259318851597
 20
3.462965942579856
 30
0.0
 11
-11.80493787432268
 21
2.975310628386573
 31
0.0
  0
LINE
  5
5D4
330
1F
100
AcDbEntity
  8
SK2
  6
CONTINUOUS
370
25
 62
7
100
AcDbLine
 10
-12.39865920569395
 20
3.993296028469764
 30
0.0
 11
-11.73422719620403
 21
3.32886401897985
 31
0.0
  0
LINE
  5
5D5
330
1F
100
AcDbEntity
  8
SK2
  6
CONTINUOUS
370
25
 62
7
100
AcDbLine
 10
-12.50472522287193
 20
4.523626114359672
 30
0.0
 11
-11.66351651808537
 21
3.682417409573112
 31
0.0
  0
LINE
  5
5D6
330
1F
100
AcDbEntity
  8
SK2
  6
CONTINUOUS
370
25
 62
7
100
AcDbLine
 10
-12.61079124004991
 20
5.053956200249587
 30
0.0
 11
-11.59280583996672
 21
4.035970800166396
 31
0.0
  0
LINE
  5
5D7
330
1F
100
AcDbEntity
  8
SK2
  6
CONTINUOUS
370
25
 62
7
100
AcDbLine
 10
-12.7168572572279
 20
5.584286286139509
 30
0.0
 11
-11.52209516184806
 21
4.389524190759673
 31
0.0
  0
LINE
  5
5D8
330
1F
100
AcDbEntity
  8
SK2
  6
CONTINUOUS
370
25
 62
7
100
AcDbLine
 10
-12.82292327440589
 20
6.114616372029424
 30
0.0
 11
-11.45138448372941
 21
4.743077581352949
 31
0.0
  0
LINE
  5
5D9
330
1F
100
AcDbEntity
  8
SK2
  6
CONTINUOUS
370
25
 62
7
100
AcDbLine
 10
-12.92898929158387
 20
6.644946457919332
 30
0.0
 11
-11.38067380561075
 21
5.096630971946226
 31
0.0
  0
LINE
  5
5DA
330
1F
100
AcDbEntity
  8
SK2
  6
CONTINUOUS
370
25
 62
7
100
AcDbLine
 10
-12.8597787649526
 20
7.0
 30
0.0
 11
-11.3099631274921
 21
5.450184362539503
 31
0.0
  0
LINE
  5
5DB
330
1F
100
AcDbEntity
  8
SK2
  6
CONTINUOUS
370
25
 62
7
100
AcDbLine
 10
-12.43551469624067
 20
7.0
 30
0.0
 11
-11.23925244937345
 21
5.803737753132772
 31
0.0
  0
LINE
  5
5DC
330
1F
100
AcDbEntity
  8
SK2
  6
CONTINUOUS
370
25
 62
7
100
AcDbLine
 10
-12.01125062752874
 20
7.0
 30
0.0
 11
-11.16854177125479
 21
6.157291143726049
 31
0.0
  0
LINE
  5
5DD
330
1F
100
AcDbEntity
  8
SK2
  6
CONTINUOUS
370
25
 62
7
100
AcDbLine
 10
-11.5869865588168
 20
7.0
 30
0.0
 11
-11.09783109313614
 21
6.51084453431934
 31
0.0
  0
LINE
  5
5DE
330
1F
100
AcDbEntity
  8
SK2
  6
CONTINUOUS
370
25
 62
7
100
AcDbLine
 10
-11.16272249010488
 20
7.0
 30
0.0
 11
-11.02712041501749
 21
6.864397924912616
 31
0.0
  0
TEXT
  5
5DF
330
1F
100
AcDbEntity
  8
SK2
  6
CONTINUOUS
370
25
 62
7
100
AcDbText
 10
-13.5
 20
12.34583333333333
 30
0.0
 40
3.5
  1
4
 50
90.00000000000001
 72
     1
 11
-13.5
 21
13.5125
 31
0.0
100
AcDbText
  0
CIRCLE
  5
5E0
330
1F
100
AcDbEntity
  8
SK2
  6
CONTINUOUS
370
25
 62
7
100
AcDbCircle
 10
-15.25
 20
10.1875
 30
0.0
 40
1.4
  0
LINE
  5
5E1
330
1F
100
AcDbEntity
  8
SK2
  6
CONTINUOUS
370
25
 62
7
100
AcDbLine
 10
-13.85
 20
8.787500000000001
 30
0.0
 11
-16.65
 21
11.5875
 31
0.0
  0
LINE
  5
5E2
330
1F
100
AcDbEntity
  8
SK2
  6
CONTINUOUS
370
25
 62
7
100
AcDbLine
 10
0.0
 20
2.0
 30
0.0
 11
0.0
 21
15.00001
 31
0.0
  0
LINE
  5
5E3
330
1F
100
AcDbEntity
  8
SK2
  6
CONTINUOUS
370
25
 62
7
100
AcDbLine
 10
30.0
 20
15.00001
 30
0.0
 11
30.0
 21
2.0
 31
0.0
  0
LINE
  5
5E4
330
1F
100
AcDbEntity
  8
SK2
  6
CONTINUOUS
370
25
 62
7
100
AcDbLine
 10
0.0
 20
14.00001
 30
0.0
 11
30.0
 21
14.00001
 31
0.0
  0
LINE
  5
5E5
330
1F
100
AcDbEntity
  8
SK2
  6
CONTINUOUS
370
25
 62
7
100
AcDbLine
 10
0.0
 20
14.00001
 30
0.0
 11
5.0
 21
15.00001
 31
0.0
  0
LINE
  5
5E6
330
1F
100
AcDbEntity
  8
SK2
  6
CONTINUOUS
370
25
 62
7
100
AcDbLine
 10
5.0
 20
15.00001
 30
0.0
 11
5.0
 21
13.00001
 31
0.0
  0
LINE
  5
5E7
330
1F
100
AcDbEntity
  8
SK2
  6
CONTINUOUS
370
25
 62
7
100
AcDbLine
 10
5.0
 20
13.00001
 30
0.0
 11
0.0
 21
14.00001
 31
0.0
  0
LINE
  5
5E8
330
1F
100
AcDbEntity
  8
SK2
  6
CONTINUOUS
370
25
 62
7
100
AcDbLine
 10
4.846869846605376
 20
13.03063603067892
 30
0.0
 11
5.0
 21
13.18376618407355
 31
0.0
  0
LINE
  5
5E9
330
1F
100
AcDbEntity
  8
SK2
  6
CONTINUOUS
370
25
 62
7
100
AcDbLine
 10
4.493316456012103
 20
13.10134670879758
 30
0.0
 11
5.0
 21
13.60803025278548
 31
0.0
  0
LINE
  5
5EA
330
1F
100
AcDbEntity
  8
SK2
  6
CONTINUOUS
370
25
 62
7
100
AcDbLine
 10
4.13976306541883
 20
13.17205738691623
 30
0.0
 11
5.0
 21
14.0322943214974
 31
0.0
  0
LINE
  5
5EB
330
1F
100
AcDbEntity
  8
SK2
  6
CONTINUOUS
370
25
 62
7
100
AcDbLine
 10
3.786209674825557
 20
13.24276806503489
 30
0.0
 11
5.0
 21
14.45655839020933
 31
0.0
  0
LINE
  5
5EC
330
1F
100
AcDbEntity
  8
SK2
  6
CONTINUOUS
370
25
 62
7
100
AcDbLine
 10
3.432656284232284
 20
13.31347874315354
 30
0.0
 11
5.0
 21
14.88082245892126
 31
0.0
  0
LINE
  5
5ED
330
1F
100
AcDbEntity
  8
SK2
  6
CONTINUOUS
370
25
 62
7
100
AcDbLine
 10
3.079102893639014
 20
13.3841894212722
 30
0.0
 11
4.618654340458519
 21
14.92374086809171
 31
0.0
  0
LINE
  5
5EE
330
1F
100
AcDbEntity
  8
SK2
  6
CONTINUOUS
370
25
 62
7
100
AcDbLine
 10
2.725549503045734
 20
13.45490009939085
 30
0.0
 11
4.088324254568612
 21
14.81767485091373
 31
0.0
  0
LINE
  5
5EF
330
1F
100
AcDbEntity
  8
SK2
  6
CONTINUOUS
370
25
 62
7
100
AcDbLine
 10
2.371996112452468
 20
13.52561077750951
 30
0.0
 11
3.5579941686787
 21
14.71160883373574
 31
0.0
  0
LINE
  5
5F0
330
1F
100
AcDbEntity
  8
SK2
  6
CONTINUOUS
370
25
 62
7
100
AcDbLine
 10
2.018442721859195
 20
13.59632145562816
 30
0.0
 11
3.027664082788792
 21
14.60554281655775
 31
0.0
  0
LINE
  5
5F1
330
1F
100
AcDbEntity
  8
SK2
  6
CONTINUOUS
370
25
 62
7
100
AcDbLine
 10
1.664889331265918
 20
13.66703213374682
 30
0.0
 11
2.497333996898877
 21
14.49947679937977
 31
0.0
  0
LINE
  5
5F2
330
1F
100
AcDbEntity
  8
SK2
  6
CONTINUOUS
370
25
 62
7
100
AcDbLine
 10
1.311335940672638
 20
13.73774281186547
 30
0.0
 11
1.96700391100897
 21
14.3934107822018
 31
0.0
  0
LINE
  5
5F3
330
1F
100
AcDbEntity
  8
SK2
  6
CONTINUOUS
370
25
 62
7
100
AcDbLine
 10
0.9577825500793615
 20
13.80845348998412
 30
0.0
 11
1.436673825119051
 21
14.28734476502381
 31
0.0
  0
LINE
  5
5F4
330
1F
100
AcDbEntity
  8
SK2
  6
CONTINUOUS
370
25
 62
7
100
AcDbLine
 10
0.6042291594860991
 20
13.87916416810278
 30
0.0
 11
0.9063437392291398
 21
14.18127874784582
 31
0.0
  0
LINE
  5
5F5
330
1F
100
AcDbEntity
  8
SK2
  6
CONTINUOUS
370
25
 62
7
100
AcDbLine
 10
0.2506757688928225
 20
13.94987484622144
 30
0.0
 11
0.3760136533392213
 21
14.07521273066784
 31
0.0
  0
LINE
  5
5F6
330
1F
100
AcDbEntity
  8
SK2
  6
CONTINUOUS
370
25
 62
7
100
AcDbLine
 10
0.1156689167168459
 20
14.02314378334337
 30
0.0
 11
0.1735033750752706
 21
13.96530932498494
 31
0.0
  0
LINE
  5
5F7
330
1F
100
AcDbEntity
  8
SK2
  6
CONTINUOUS
370
25
 62
7
100
AcDbLine
 10
0.4692223073101189
 20
14.09385446146203
 30
0.0
 11
0.703833460965182
 21
13.85924330780696
 31
0.0
  0
LINE
  5
5F8
330
1F
100
AcDbEntity
  8
SK2
  6
CONTINUOUS
370
25
 62
7
100
AcDbLine
 10
0.8227756979033956
 20
14.16456513958068
 30
0.0
 11
1.234163546855093
 21
13.75317729062898
 31
0.0
  0
LINE
  5
5F9
330
1F
100
AcDbEntity
  8
SK2
  6
CONTINUOUS
370
25
 62
7
100
AcDbLine
 10
1.176329088496672
 20
14.23527581769933
 30
0.0
 11
1.764493632745005
 21
13.647111273451
 31
0.0
  0
LINE
  5
5FA
330
1F
100
AcDbEntity
  8
SK2
  6
CONTINUOUS
370
25
 62
7
100
AcDbLine
 10
1.529882479089945
 20
14.30598649581799
 30
0.0
 11
2.294823718634916
 21
13.54104525627302
 31
0.0
  0
LINE
  5
5FB
330
1F
100
AcDbEntity
  8
SK2
  6
CONTINUOUS
370
25
 62
7
100
AcDbLine
 10
1.883435869683222
 20
14.37669717393664
 30
0.0
 11
2.825153804524827
 21
13.43497923909503
 31
0.0
  0
LINE
  5
5FC
330
1F
100
AcDbEntity
  8
SK2
  6
CONTINUOUS
370
25
 62
7
100
AcDbLine
 10
2.236989260276491
 20
14.4474078520553
 30
0.0
 11
3.355483890414735
 21
13.32891322191705
 31
0.0
  0
LINE
  5
5FD
330
1F
100
AcDbEntity
  8
SK2
  6
CONTINUOUS
370
25
 62
7
100
AcDbLine
 10
2.590542650869764
 20
14.51811853017395
 30
0.0
 11
3.885813976304643
 21
13.22284720473907
 31
0.0
  0
LINE
  5
5FE
330
1F
100
AcDbEntity
  8
SK2
  6
CONTINUOUS
370
25
 62
7
100
AcDbLine
 10
2.944096041463037
 20
14.5888292082926
 30
0.0
 11
4.416144062194551
 21
13.11678118756109
 31
0.0
  0
LINE
  5
5FF
330
1F
100
AcDbEntity
  8
SK2
  6
CONTINUOUS
370
25
 62
7
100
AcDbLine
 10
3.297649432056307
 20
14.65953988641127
 30
0.0
 11
4.946474148084462
 21
13.0107151703831
 31
0.0
  0
LINE
  5
600
330
1F
100
AcDbEntity
  8
SK2
  6
CONTINUOUS
370
25
 62
7
100
AcDbLine
 10
3.651202822649584
 20
14.73025056452992
 30
0.0
 11
5.0
 21
13.38145338717949
 31
0.0
  0
LINE
  5
601
330
1F
100
AcDbEntity
  8
SK2
  6
CONTINUOUS
370
25
 62
7
100
AcDbLine
 10
4.004756213242857
 20
14.80096124264857
 30
0.0
 11
5.0
 21
13.80571745589142
 31
0.0
  0
LINE
  5
602
330
1F
100
AcDbEntity
  8
SK2
  6
CONTINUOUS
370
25
 62
7
100
AcDbLine
 10
4.358309603836126
 20
14.87167192076723
 30
0.0
 11
5.0
 21
14.22998152460335
 31
0.0
  0
LINE
  5
603
330
1F
100
AcDbEntity
  8
SK2
  6
CONTINUOUS
370
25
 62
7
100
AcDbLine
 10
4.711862994429399
 20
14.94238259888588
 30
0.0
 11
5.0
 21
14.65424559331528
 31
0.0
  0
LINE
  5
604
330
1F
100
AcDbEntity
  8
SK2
  6
CONTINUOUS
370
25
 62
7
100
AcDbLine
 10
30.0
 20
14.00001
 30
0.0
 11
25.0
 21
13.00001
 31
0.0
  0
LINE
  5
605
330
1F
100
AcDbEntity
  8
SK2
  6
CONTINUOUS
370
25
 62
7
100
AcDbLine
 10
25.0
 20
13.00001
 30
0.0
 11
25.0
 21
15.00001
 31
0.0
  0
LINE
  5
606
330
1F
100
AcDbEntity
  8
SK2
  6
CONTINUOUS
370
25
 62
7
100
AcDbLine
 10
25.0
 20
15.00001
 30
0.0
 11
30.0
 21
14.00001
 31
0.0
  0
LINE
  5
607
330
1F
100
AcDbEntity
  8
SK2
  6
CONTINUOUS
370
25
 62
7
100
AcDbLine
 10
29.99911966563295
 20
13.99983393312659
 30
0.0
 11
29.99941311042197
 21
14.00012737791561
 31
0.0
  0
LINE
  5
608
330
1F
100
AcDbEntity
  8
SK2
  6
CONTINUOUS
370
25
 62
7
100
AcDbLine
 10
29.46878957974304
 20
13.89376791594861
 30
0.0
 11
29.64585971982869
 21
14.07083805603426
 31
0.0
  0
LINE
  5
609
330
1F
100
AcDbEntity
  8
SK2
  6
CONTINUOUS
370
25
 62
7
100
AcDbLine
 10
28.93845949385313
 20
13.78770189877063
 30
0.0
 11
29.29230632923542
 21
14.14154873415292
 31
0.0
  0
LINE
  5
60A
330
1F
100
AcDbEntity
  8
SK2
  6
CONTINUOUS
370
25
 62
7
100
AcDbLine
 10
28.40812940796322
 20
13.68163588159264
 30
0.0
 11
28.93875293864215
 21
14.21225941227157
 31
0.0
  0
LINE
  5
60B
330
1F
100
AcDbEntity
  8
SK2
  6
CONTINUOUS
370
25
 62
7
100
AcDbLine
 10
27.87779932207331
 20
13.57556986441466
 30
0.0
 11
28.58519954804887
 21
14.28297009039023
 31
0.0
  0
LINE
  5
60C
330
1F
100
AcDbEntity
  8
SK2
  6
CONTINUOUS
370
25
 62
7
100
AcDbLine
 10
27.3474692361834
 20
13.46950384723668
 30
0.0
 11
28.2316461574556
 21
14.35368076850888
 31
0.0
  0
LINE
  5
60D
330
1F
100
AcDbEntity
  8
SK2
  6
CONTINUOUS
370
25
 62
7
100
AcDbLine
 10
26.81713915029349
 20
13.3634378300587
 30
0.0
 11
27.87809276686232
 21
14.42439144662753
 31
0.0
  0
LINE
  5
60E
330
1F
100
AcDbEntity
  8
SK2
  6
CONTINUOUS
370
25
 62
7
100
AcDbLine
 10
26.28680906440358
 20
13.25737181288071
 30
0.0
 11
27.52453937626905
 21
14.49510212474619
 31
0.0
  0
LINE
  5
60F
330
1F
100
AcDbEntity
  8
SK2
  6
CONTINUOUS
370
25
 62
7
100
AcDbLine
 10
25.75647897851367
 20
13.15130579570273
 30
0.0
 11
27.17098598567578
 21
14.56581280286484
 31
0.0
  0
LINE
  5
610
330
1F
100
AcDbEntity
  8
SK2
  6
CONTINUOUS
370
25
 62
7
100
AcDbLine
 10
25.22614889262376
 20
13.04523977852475
 30
0.0
 11
26.81743259508251
 21
14.6365234809835
 31
0.0
  0
LINE
  5
611
330
1F
100
AcDbEntity
  8
SK2
  6
CONTINUOUS
370
25
 62
7
100
AcDbLine
 10
25.0
 20
13.24335495461292
 30
0.0
 11
26.46387920448923
 21
14.70723415910215
 31
0.0
  0
LINE
  5
612
330
1F
100
AcDbEntity
  8
SK2
  6
CONTINUOUS
370
25
 62
7
100
AcDbLine
 10
25.0
 20
13.66761902332485
 30
0.0
 11
26.11032581389596
 21
14.77794483722081
 31
0.0
  0
LINE
  5
613
330
1F
100
AcDbEntity
  8
SK2
  6
CONTINUOUS
370
25
 62
7
100
AcDbLine
 10
25.0
 20
14.09188309203677
 30
0.0
 11
25.75677242330269
 21
14.84865551533946
 31
0.0
  0
LINE
  5
614
330
1F
100
AcDbEntity
  8
SK2
  6
CONTINUOUS
370
25
 62
7
100
AcDbLine
 10
25.0
 20
14.5161471607487
 30
0.0
 11
25.40321903270942
 21
14.91936619345812
 31
0.0
  0
LINE
  5
615
330
1F
100
AcDbEntity
  8
SK2
  6
CONTINUOUS
370
25
 62
7
100
AcDbLine
 10
25.0
 20
14.94041122946063
 30
0.0
 11
25.04966564211614
 21
14.99007687157677
 31
0.0
  0
LINE
  5
616
330
1F
100
AcDbEntity
  8
SK2
  6
CONTINUOUS
370
25
 62
7
100
AcDbLine
 10
25.0
 20
13.06101730552664
 30
0.0
 11
25.0508394212722
 21
13.01017788425444
 31
0.0
  0
LINE
  5
617
330
1F
100
AcDbEntity
  8
SK2
  6
CONTINUOUS
370
25
 62
7
100
AcDbLine
 10
25.0
 20
13.48528137423857
 30
0.0
 11
25.40439281186547
 21
13.08088856237309
 31
0.0
  0
LINE
  5
618
330
1F
100
AcDbEntity
  8
SK2
  6
CONTINUOUS
370
25
 62
7
100
AcDbLine
 10
25.0
 20
13.9095454429505
 30
0.0
 11
25.75794620245875
 21
13.15159924049175
 31
0.0
  0
LINE
  5
619
330
1F
100
AcDbEntity
  8
SK2
  6
CONTINUOUS
370
25
 62
7
100
AcDbLine
 10
25.0
 20
14.33380951166242
 30
0.0
 11
26.11149959305202
 21
13.2223099186104
 31
0.0
  0
LINE
  5
61A
330
1F
100
AcDbEntity
  8
SK2
  6
CONTINUOUS
370
25
 62
7
100
AcDbLine
 10
25.0
 20
14.75807358037435
 30
0.0
 11
26.46505298364529
 21
13.29302059672906
 31
0.0
  0
LINE
  5
61B
330
1F
100
AcDbEntity
  8
SK2
  6
CONTINUOUS
370
25
 62
7
100
AcDbLine
 10
25.22790956135785
 20
14.95442808772843
 30
0.0
 11
26.81860637423857
 21
13.36373127484771
 31
0.0
  0
LINE
  5
61C
330
1F
100
AcDbEntity
  8
SK2
  6
CONTINUOUS
370
25
 62
7
100
AcDbLine
 10
25.75823964724776
 20
14.84836207055045
 30
0.0
 11
27.17215976483184
 21
13.43444195296637
 31
0.0
  0
LINE
  5
61D
330
1F
100
AcDbEntity
  8
SK2
  6
CONTINUOUS
370
25
 62
7
100
AcDbLine
 10
26.28856973313767
 20
14.74229605337247
 30
0.0
 11
27.52571315542512
 21
13.50515263108502
 31
0.0
  0
LINE
  5
61E
330
1F
100
AcDbEntity
  8
SK2
  6
CONTINUOUS
370
25
 62
7
100
AcDbLine
 10
26.81889981902758
 20
14.63623003619448
 30
0.0
 11
27.87926654601839
 21
13.57586330920368
 31
0.0
  0
LINE
  5
61F
330
1F
100
AcDbEntity
  8
SK2
  6
CONTINUOUS
370
25
 62
7
100
AcDbLine
 10
27.34922990491749
 20
14.5301640190165
 30
0.0
 11
28.23281993661166
 21
13.64657398732233
 31
0.0
  0
LINE
  5
620
330
1F
100
AcDbEntity
  8
SK2
  6
CONTINUOUS
370
25
 62
7
100
AcDbLine
 10
27.8795599908074
 20
14.42409800183852
 30
0.0
 11
28.58637332720494
 21
13.71728466544099
 31
0.0
  0
LINE
  5
621
330
1F
100
AcDbEntity
  8
SK2
  6
CONTINUOUS
370
25
 62
7
100
AcDbLine
 10
28.40989007669731
 20
14.31803198466054
 30
0.0
 11
28.93992671779821
 21
13.78799534355964
 31
0.0
  0
LINE
  5
622
330
1F
100
AcDbEntity
  8
SK2
  6
CONTINUOUS
370
25
 62
7
100
AcDbLine
 10
28.94022016258722
 20
14.21196596748256
 30
0.0
 11
29.29348010839148
 21
13.8587060216783
 31
0.0
  0
LINE
  5
623
330
1F
100
AcDbEntity
  8
SK2
  6
CONTINUOUS
370
25
 62
7
100
AcDbLine
 10
29.47055024847713
 20
14.10589995030457
 30
0.0
 11
29.64703349898475
 21
13.92941669979695
 31
0.0
  0
TEXT
  5
624
330
1F
100
AcDbEntity
  8
SK2
  6
CONTINUOUS
370
25
 62
7
100
AcDbText
 10
12.375
 20
15.50001
 30
0.0
 40
3.5
  1
30
 72
     1
 11
15.0
 21
15.50001
 31
0.0
100
AcDbText
  0
LINE
  5
625
330
1F
100
AcDbEntity
  8
2
  6
CONTINUOUS
370
25
 62
7
100
AcDbLine
 10
51.12567314
 20
-1.875
 30
0.0
 11
85.0
 21
-1.875000000000004
 31
0.0
  0
LINE
  5
626
330
1F
100
AcDbEntity
  8
2
  6
CONTINUOUS
370
25
 62
7
100
AcDbLine
 10
85.0
 20
1.874999999999996
 30
0.0
 11
51.12567314
 21
1.875
 31
0.0
  0
LINE
  5
627
330
1F
100
AcDbEntity
  8
2
  6
CONTINUOUS
370
25
 62
7
100
AcDbLine
 10
84.0
 20
-8.875000000000004
 30
0.0
 11
84.0
 21
24.275
 31
0.0
  0
LINE
  5
628
330
1F
100
AcDbEntity
  8
2
  6
CONTINUOUS
370
25
 62
7
100
AcDbLine
 10
84.0
 20
-1.875000000000004
 30
0.0
 11
85.0
 21
-6.875000000000004
 31
0.0
  0
LINE
  5
629
330
1F
100
AcDbEntity
  8
2
  6
CONTINUOUS
370
25
 62
7
100
AcDbLine
 10
85.0
 20
-6.875000000000004
 30
0.0
 11
83.0
 21
-6.875000000000004
 31
0.0
  0
LINE
  5
62A
330
1F
100
AcDbEntity
  8
2
  6
CONTINUOUS
370
25
 62
7
100
AcDbLine
 10
83.0
 20
-6.875000000000004
 30
0.0
 11
84.0
 21
-1.875000000000004
 31
0.0
  0
LINE
  5
62B
330
1F
100
AcDbEntity
  8
2
  6
CONTINUOUS
370
25
 62
7
100
AcDbLine
 10
84.61274415389937
 20
-6.875
 30
0.0
 11
84.93545735898323
 21
-6.552286794916149
 31
0.0
  0
LINE
  5
62C
330
1F
100
AcDbEntity
  8
2
  6
CONTINUOUS
370
25
 62
7
100
AcDbLine
 10
84.18848008518745
 20
-6.875
 30
0.0
 11
84.86474668086458
 21
-6.198733404322866
 31
0.0
  0
LINE
  5
62D
330
1F
100
AcDbEntity
  8
2
  6
CONTINUOUS
370
25
 62
7
100
AcDbLine
 10
83.7642160164755
 20
-6.875
 30
0.0
 11
84.79403600274591
 21
-5.845180013729589
 31
0.0
  0
LINE
  5
62E
330
1F
100
AcDbEntity
  8
2
  6
CONTINUOUS
370
25
 62
7
100
AcDbLine
 10
83.33995194776358
 20
-6.875000000000007
 30
0.0
 11
84.72332532462727
 21
-5.491626623136312
 31
0.0
  0
LINE
  5
62F
330
1F
100
AcDbEntity
  8
2
  6
CONTINUOUS
370
25
 62
7
100
AcDbLine
 10
83.02107803023708
 20
-6.769609848814568
 30
0.0
 11
84.65261464650862
 21
-5.138073232543036
 31
0.0
  0
LINE
  5
630
330
1F
100
AcDbEntity
  8
2
  6
CONTINUOUS
370
25
 62
7
100
AcDbLine
 10
83.12714404741507
 20
-6.239279762924646
 30
0.0
 11
84.58190396838995
 21
-4.784519841949766
 31
0.0
  0
LINE
  5
631
330
1F
100
AcDbEntity
  8
2
  6
CONTINUOUS
370
25
 62
7
100
AcDbLine
 10
83.23321006459307
 20
-5.708949677034724
 30
0.0
 11
84.51119329027131
 21
-4.430966451356483
 31
0.0
  0
LINE
  5
632
330
1F
100
AcDbEntity
  8
2
  6
CONTINUOUS
370
25
 62
7
100
AcDbLine
 10
83.33927608177103
 20
-5.178619591144816
 30
0.0
 11
84.44048261215264
 21
-4.07741306076322
 31
0.0
  0
LINE
  5
633
330
1F
100
AcDbEntity
  8
2
  6
CONTINUOUS
370
25
 62
7
100
AcDbLine
 10
83.44534209894903
 20
-4.648289505254901
 30
0.0
 11
84.36977193403399
 21
-3.723859670169944
 31
0.0
  0
LINE
  5
634
330
1F
100
AcDbEntity
  8
2
  6
CONTINUOUS
370
25
 62
7
100
AcDbLine
 10
83.551408116127
 20
-4.117959419364986
 30
0.0
 11
84.29906125591533
 21
-3.37030627957666
 31
0.0
  0
LINE
  5
635
330
1F
100
AcDbEntity
  8
2
  6
CONTINUOUS
370
25
 62
7
100
AcDbLine
 10
83.65747413330499
 20
-3.587629333475071
 30
0.0
 11
84.22835057779668
 21
-3.016752888983383
 31
0.0
  0
LINE
  5
636
330
1F
100
AcDbEntity
  8
2
  6
CONTINUOUS
370
25
 62
7
100
AcDbLine
 10
83.76354015048298
 20
-3.057299247585156
 30
0.0
 11
84.15763989967803
 21
-2.663199498390107
 31
0.0
  0
LINE
  5
637
330
1F
100
AcDbEntity
  8
2
  6
CONTINUOUS
370
25
 62
7
100
AcDbLine
 10
83.86960616766095
 20
-2.526969161695249
 30
0.0
 11
84.08692922155936
 21
-2.309646107796844
 31
0.0
  0
LINE
  5
638
330
1F
100
AcDbEntity
  8
2
  6
CONTINUOUS
370
25
 62
7
100
AcDbLine
 10
83.97567218483894
 20
-1.996639075805327
 30
0.0
 11
84.01621854344071
 21
-1.956092717203553
 31
0.0
  0
LINE
  5
639
330
1F
100
AcDbEntity
  8
2
  6
CONTINUOUS
370
25
 62
7
100
AcDbLine
 10
83.01996391493336
 20
-6.775180425333183
 30
0.0
 11
83.11978348960018
 21
-6.875000000000007
 31
0.0
  0
LINE
  5
63A
330
1F
100
AcDbEntity
  8
2
  6
CONTINUOUS
370
25
 62
7
100
AcDbLine
 10
83.09067459305203
 20
-6.421627034739913
 30
0.0
 11
83.54404755831212
 21
-6.875000000000007
 31
0.0
  0
LINE
  5
63B
330
1F
100
AcDbEntity
  8
2
  6
CONTINUOUS
370
25
 62
7
100
AcDbLine
 10
83.16138527117067
 20
-6.068073644146644
 30
0.0
 11
83.96831162702404
 21
-6.875000000000007
 31
0.0
  0
LINE
  5
63C
330
1F
100
AcDbEntity
  8
2
  6
CONTINUOUS
370
25
 62
7
100
AcDbLine
 10
83.23209594928932
 20
-5.71452025355336
 30
0.0
 11
84.39257569573597
 21
-6.875000000000007
 31
0.0
  0
LINE
  5
63D
330
1F
100
AcDbEntity
  8
2
  6
CONTINUOUS
370
25
 62
7
100
AcDbLine
 10
83.30280662740799
 20
-5.36096686296009
 30
0.0
 11
84.81683976444789
 21
-6.875
 31
0.0
  0
LINE
  5
63E
330
1F
100
AcDbEntity
  8
2
  6
CONTINUOUS
370
25
 62
7
100
AcDbLine
 10
83.37351730552663
 20
-5.007413472366814
 30
0.0
 11
84.93972404171004
 21
-6.573620208550217
 31
0.0
  0
LINE
  5
63F
330
1F
100
AcDbEntity
  8
2
  6
CONTINUOUS
370
25
 62
7
100
AcDbLine
 10
83.4442279836453
 20
-4.653860081773537
 30
0.0
 11
84.83365802453206
 21
-6.043290122660295
 31
0.0
  0
LINE
  5
640
330
1F
100
AcDbEntity
  8
2
  6
CONTINUOUS
370
25
 62
7
100
AcDbLine
 10
83.51493866176395
 20
-4.300306691180261
 30
0.0
 11
84.72759200735408
 21
-5.512960036770387
 31
0.0
  0
LINE
  5
641
330
1F
100
AcDbEntity
  8
2
  6
CONTINUOUS
370
25
 62
7
100
AcDbLine
 10
83.5856493398826
 20
-3.946753300586977
 30
0.0
 11
84.62152599017608
 21
-4.982629950880465
 31
0.0
  0
LINE
  5
642
330
1F
100
AcDbEntity
  8
2
  6
CONTINUOUS
370
25
 62
7
100
AcDbLine
 10
83.65636001800127
 20
-3.593199909993707
 30
0.0
 11
84.51545997299812
 21
-4.452299864990557
 31
0.0
  0
LINE
  5
643
330
1F
100
AcDbEntity
  8
2
  6
CONTINUOUS
370
25
 62
7
100
AcDbLine
 10
83.72707069611991
 20
-3.239646519400431
 30
0.0
 11
84.40939395582012
 21
-3.921969779100642
 31
0.0
  0
LINE
  5
644
330
1F
100
AcDbEntity
  8
2
  6
CONTINUOUS
370
25
 62
7
100
AcDbLine
 10
83.79778137423858
 20
-2.886093128807161
 30
0.0
 11
84.30332793864216
 21
-3.391639693210735
 31
0.0
  0
LINE
  5
645
330
1F
100
AcDbEntity
  8
2
  6
CONTINUOUS
370
25
 62
7
100
AcDbLine
 10
83.86849205235723
 20
-2.532539738213877
 30
0.0
 11
84.19726192146416
 21
-2.86130960732082
 31
0.0
  0
LINE
  5
646
330
1F
100
AcDbEntity
  8
2
  6
CONTINUOUS
370
25
 62
7
100
AcDbLine
 10
83.9392027304759
 20
-2.178986347620608
 30
0.0
 11
84.09119590428618
 21
-2.330979521430898
 31
0.0
  0
LINE
  5
647
330
1F
100
AcDbEntity
  8
2
  6
CONTINUOUS
370
25
 62
7
100
AcDbLine
 10
84.0
 20
1.874999999999996
 30
0.0
 11
83.0
 21
6.874999999999996
 31
0.0
  0
LINE
  5
648
330
1F
100
AcDbEntity
  8
2
  6
CONTINUOUS
370
25
 62
7
100
AcDbLine
 10
83.0
 20
6.874999999999996
 30
0.0
 11
85.0
 21
6.874999999999996
 31
0.0
  0
LINE
  5
649
330
1F
100
AcDbEntity
  8
2
  6
CONTINUOUS
370
25
 62
7
100
AcDbLine
 10
85.0
 20
6.874999999999996
 30
0.0
 11
84.0
 21
1.874999999999996
 31
0.0
  0
LINE
  5
64A
330
1F
100
AcDbEntity
  8
2
  6
CONTINUOUS
370
25
 62
7
100
AcDbLine
 10
83.987293576571
 20
1.938532117144987
 30
0.0
 11
84.01905963514349
 21
1.970298175717488
 31
0.0
  0
LINE
  5
64B
330
1F
100
AcDbEntity
  8
2
  6
CONTINUOUS
370
25
 62
7
100
AcDbLine
 10
83.91658289845233
 20
2.292085507738257
 30
0.0
 11
84.12512565232149
 21
2.500628261607403
 31
0.0
  0
LINE
  5
64C
330
1F
100
AcDbEntity
  8
2
  6
CONTINUOUS
370
25
 62
7
100
AcDbLine
 10
83.84587222033369
 20
2.645638898331541
 30
0.0
 11
84.23119166949947
 21
3.030958347497318
 31
0.0
  0
LINE
  5
64D
330
1F
100
AcDbEntity
  8
2
  6
CONTINUOUS
370
25
 62
7
100
AcDbLine
 10
83.77516154221505
 20
2.999192288924817
 30
0.0
 11
84.33725768667745
 21
3.561288433387226
 31
0.0
  0
LINE
  5
64E
330
1F
100
AcDbEntity
  8
2
  6
CONTINUOUS
370
25
 62
7
100
AcDbLine
 10
83.70445086409637
 20
3.352745679518087
 30
0.0
 11
84.44332370385544
 21
4.091618519277141
 31
0.0
  0
LINE
  5
64F
330
1F
100
AcDbEntity
  8
2
  6
CONTINUOUS
370
25
 62
7
100
AcDbLine
 10
83.63374018597773
 20
3.706299070111363
 30
0.0
 11
84.5493897210334
 21
4.621948605167049
 31
0.0
  0
LINE
  5
650
330
1F
100
AcDbEntity
  8
2
  6
CONTINUOUS
370
25
 62
7
100
AcDbLine
 10
83.56302950785906
 20
4.059852460704633
 30
0.0
 11
84.6554557382114
 21
5.152278691056971
 31
0.0
  0
LINE
  5
651
330
1F
100
AcDbEntity
  8
2
  6
CONTINUOUS
370
25
 62
7
100
AcDbLine
 10
83.49231882974041
 20
4.413405851297917
 30
0.0
 11
84.76152175538938
 21
5.682608776946886
 31
0.0
  0
LINE
  5
652
330
1F
100
AcDbEntity
  8
2
  6
CONTINUOUS
370
25
 62
7
100
AcDbLine
 10
83.42160815162177
 20
4.766959241891193
 30
0.0
 11
84.86758777256736
 21
6.212938862836793
 31
0.0
  0
LINE
  5
653
330
1F
100
AcDbEntity
  8
2
  6
CONTINUOUS
370
25
 62
7
100
AcDbLine
 10
83.3508974735031
 20
5.120512632484477
 30
0.0
 11
84.97365378974533
 21
6.743268948726708
 31
0.0
  0
LINE
  5
654
330
1F
100
AcDbEntity
  8
2
  6
CONTINUOUS
370
25
 62
7
100
AcDbLine
 10
83.28018679538445
 20
5.474066023077754
 30
0.0
 11
84.6811207723067
 21
6.875
 31
0.0
  0
LINE
  5
655
330
1F
100
AcDbEntity
  8
2
  6
CONTINUOUS
370
25
 62
7
100
AcDbLine
 10
83.2094761172658
 20
5.82761941367103
 30
0.0
 11
84.25685670359476
 21
6.875
 31
0.0
  0
LINE
  5
656
330
1F
100
AcDbEntity
  8
2
  6
CONTINUOUS
370
25
 62
7
100
AcDbLine
 10
83.13876543914714
 20
6.181172804264307
 30
0.0
 11
83.83259263488283
 21
6.874999999999993
 31
0.0
  0
LINE
  5
657
330
1F
100
AcDbEntity
  8
2
  6
CONTINUOUS
370
25
 62
7
100
AcDbLine
 10
83.06805476102849
 20
6.534726194857583
 30
0.0
 11
83.40832856617091
 21
6.875
 31
0.0
  0
LINE
  5
658
330
1F
100
AcDbEntity
  8
2
  6
CONTINUOUS
370
25
 62
7
100
AcDbLine
 10
83.96803573250637
 20
2.034821337468195
 30
0.0
 11
84.02130951166242
 21
1.981547558312123
 31
0.0
  0
LINE
  5
659
330
1F
100
AcDbEntity
  8
2
  6
CONTINUOUS
370
25
 62
7
100
AcDbLine
 10
83.86196971532837
 20
2.565151423358103
 30
0.0
 11
84.09202018978107
 21
2.335100948905406
 31
0.0
  0
LINE
  5
65A
330
1F
100
AcDbEntity
  8
2
  6
CONTINUOUS
370
25
 62
7
100
AcDbLine
 10
83.7559036981504
 20
3.095481509248017
 30
0.0
 11
84.16273086789974
 21
2.688654339498676
 31
0.0
  0
LINE
  5
65B
330
1F
100
AcDbEntity
  8
2
  6
CONTINUOUS
370
25
 62
7
100
AcDbLine
 10
83.64983768097241
 20
3.625811595137932
 30
0.0
 11
84.23344154601838
 21
3.042207730091953
 31
0.0
  0
LINE
  5
65C
330
1F
100
AcDbEntity
  8
2
  6
CONTINUOUS
370
25
 62
7
100
AcDbLine
 10
83.54377166379443
 20
4.15614168102784
 30
0.0
 11
84.30415222413704
 21
3.395761120685229
 31
0.0
  0
LINE
  5
65D
330
1F
100
AcDbEntity
  8
2
  6
CONTINUOUS
370
25
 62
7
100
AcDbLine
 10
83.43770564661645
 20
4.686471766917748
 30
0.0
 11
84.3748629022557
 21
3.749314511278499
 31
0.0
  0
LINE
  5
65E
330
1F
100
AcDbEntity
  8
2
  6
CONTINUOUS
370
25
 62
7
100
AcDbLine
 10
83.33163962943847
 20
5.216801852807663
 30
0.0
 11
84.44557358037434
 21
4.10286790187179
 31
0.0
  0
LINE
  5
65F
330
1F
100
AcDbEntity
  8
2
  6
CONTINUOUS
370
25
 62
7
100
AcDbLine
 10
83.22557361226049
 20
5.747131938697585
 30
0.0
 11
84.51628425849302
 21
4.456421292465052
 31
0.0
  0
LINE
  5
660
330
1F
100
AcDbEntity
  8
2
  6
CONTINUOUS
370
25
 62
7
100
AcDbLine
 10
83.1195075950825
 20
6.277462024587507
 30
0.0
 11
84.58699493661166
 21
4.809974683058336
 31
0.0
  0
LINE
  5
661
330
1F
100
AcDbEntity
  8
2
  6
CONTINUOUS
370
25
 62
7
100
AcDbLine
 10
83.01344157790452
 20
6.807792110477415
 30
0.0
 11
84.65770561473033
 21
5.163528073651598
 31
0.0
  0
LINE
  5
662
330
1F
100
AcDbEntity
  8
2
  6
CONTINUOUS
370
25
 62
7
100
AcDbLine
 10
83.37049775709387
 20
6.874999999999993
 30
0.0
 11
84.72841629284898
 21
5.517081464244882
 31
0.0
  0
LINE
  5
663
330
1F
100
AcDbEntity
  8
2
  6
CONTINUOUS
370
25
 62
7
100
AcDbLine
 10
83.7947618258058
 20
6.875
 30
0.0
 11
84.79912697096763
 21
5.870634854838158
 31
0.0
  0
LINE
  5
664
330
1F
100
AcDbEntity
  8
2
  6
CONTINUOUS
370
25
 62
7
100
AcDbLine
 10
84.21902589451773
 20
6.875
 30
0.0
 11
84.86983764908629
 21
6.224188245431435
 31
0.0
  0
LINE
  5
665
330
1F
100
AcDbEntity
  8
2
  6
CONTINUOUS
370
25
 62
7
100
AcDbLine
 10
84.64328996322966
 20
6.874999999999993
 30
0.0
 11
84.94054832720494
 21
6.577741636024712
 31
0.0
  0
TEXT
  5
666
330
1F
100
AcDbEntity
  8
2
  6
CONTINUOUS
370
25
 62
7
100
AcDbText
 10
82.5
 20
12.59999999999999
 30
0.0
 40
3.5
  1
3.75
 50
90.00000000000001
 72
     1
 11
82.5
 21
17.84999999999999
 31
0.0
100
AcDbText
  0
CIRCLE
  5
667
330
1F
100
AcDbEntity
  8
2
  6
CONTINUOUS
370
25
 62
7
100
AcDbCircle
 10
80.75
 20
9.799999999999995
 30
0.0
 40
1.4
  0
LINE
  5
668
330
1F
100
AcDbEntity
  8
2
  6
CONTINUOUS
370
25
 62
7
100
AcDbLine
 10
82.15
 20
8.399999999999997
 30
0.0
 11
79.35
 21
11.2
 31
0.0
  0
LINE
  5
669
330
1F
100
AcDbEntity
  8
2
  6
CONTINUOUS
370
25
 62
7
100
AcDbLine
 10
30.0
 20
2.0
 30
0.0
 11
30.0
 21
25.0
 31
0.0
  0
LINE
  5
66A
330
1F
100
AcDbEntity
  8
2
  6
CONTINUOUS
370
25
 62
7
100
AcDbLine
 10
52.0
 20
25.0
 30
0.0
 11
52.0
 21
0.0
 31
0.0
  0
LINE
  5
66B
330
1F
100
AcDbEntity
  8
2
  6
CONTINUOUS
370
25
 62
7
100
AcDbLine
 10
30.0
 20
24.0
 30
0.0
 11
52.0
 21
24.0
 31
0.0
  0
LINE
  5
66C
330
1F
100
AcDbEntity
  8
2
  6
CONTINUOUS
370
25
 62
7
100
AcDbLine
 10
30.0
 20
24.0
 30
0.0
 11
35.0
 21
25.0
 31
0.0
  0
LINE
  5
66D
330
1F
100
AcDbEntity
  8
2
  6
CONTINUOUS
370
25
 62
7
100
AcDbLine
 10
35.0
 20
25.0
 30
0.0
 11
35.0
 21
23.0
 31
0.0
  0
LINE
  5
66E
330
1F
100
AcDbEntity
  8
2
  6
CONTINUOUS
370
25
 62
7
100
AcDbLine
 10
35.0
 20
23.0
 30
0.0
 11
30.0
 21
24.0
 31
0.0
  0
LINE
  5
66F
330
1F
100
AcDbEntity
  8
2
  6
CONTINUOUS
370
25
 62
7
100
AcDbLine
 10
34.79720420448926
 20
23.04055915910215
 30
0.0
 11
35.0
 21
23.24335495461289
 31
0.0
  0
LINE
  5
670
330
1F
100
AcDbEntity
  8
2
  6
CONTINUOUS
370
25
 62
7
100
AcDbLine
 10
34.44365081389599
 20
23.1112698372208
 30
0.0
 11
35.0
 21
23.66761902332482
 31
0.0
  0
LINE
  5
671
330
1F
100
AcDbEntity
  8
2
  6
CONTINUOUS
370
25
 62
7
100
AcDbLine
 10
34.09009742330272
 20
23.18198051533946
 30
0.0
 11
35.0
 21
24.09188309203675
 31
0.0
  0
LINE
  5
672
330
1F
100
AcDbEntity
  8
2
  6
CONTINUOUS
370
25
 62
7
100
AcDbLine
 10
33.73654403270944
 20
23.25269119345811
 30
0.0
 11
35.0
 21
24.51614716074867
 31
0.0
  0
LINE
  5
673
330
1F
100
AcDbEntity
  8
2
  6
CONTINUOUS
370
25
 62
7
100
AcDbLine
 10
33.38299064211617
 20
23.32340187157677
 30
0.0
 11
35.0
 21
24.9404112294606
 31
0.0
  0
LINE
  5
674
330
1F
100
AcDbEntity
  8
2
  6
CONTINUOUS
370
25
 62
7
100
AcDbLine
 10
33.02943725152289
 20
23.39411254969542
 30
0.0
 11
34.54415587728434
 21
24.90883117545687
 31
0.0
  0
LINE
  5
675
330
1F
100
AcDbEntity
  8
2
  6
CONTINUOUS
370
25
 62
7
100
AcDbLine
 10
32.67588386092962
 20
23.46482322781408
 30
0.0
 11
34.01382579139443
 21
24.80276515827889
 31
0.0
  0
LINE
  5
676
330
1F
100
AcDbEntity
  8
2
  6
CONTINUOUS
370
25
 62
7
100
AcDbLine
 10
32.32233047033635
 20
23.53553390593273
 30
0.0
 11
33.48349570550452
 21
24.6966991411009
 31
0.0
  0
LINE
  5
677
330
1F
100
AcDbEntity
  8
2
  6
CONTINUOUS
370
25
 62
7
100
AcDbLine
 10
31.96877707974307
 20
23.60624458405139
 30
0.0
 11
32.95316561961462
 21
24.59063312392292
 31
0.0
  0
LINE
  5
678
330
1F
100
AcDbEntity
  8
2
  6
CONTINUOUS
370
25
 62
7
100
AcDbLine
 10
31.6152236891498
 20
23.67695526217004
 30
0.0
 11
32.4228355337247
 21
24.48456710674494
 31
0.0
  0
LINE
  5
679
330
1F
100
AcDbEntity
  8
2
  6
CONTINUOUS
370
25
 62
7
100
AcDbLine
 10
31.26167029855653
 20
23.74766594028869
 30
0.0
 11
31.89250544783479
 21
24.37850108956696
 31
0.0
  0
LINE
  5
67A
330
1F
100
AcDbEntity
  8
2
  6
CONTINUOUS
370
25
 62
7
100
AcDbLine
 10
30.90811690796325
 20
23.81837661840735
 30
0.0
 11
31.36217536194488
 21
24.27243507238898
 31
0.0
  0
LINE
  5
67B
330
1F
100
AcDbEntity
  8
2
  6
CONTINUOUS
370
25
 62
7
100
AcDbLine
 10
30.55456351736998
 20
23.889087296526
 30
0.0
 11
30.83184527605497
 21
24.166369055211
 31
0.0
  0
LINE
  5
67C
330
1F
100
AcDbEntity
  8
2
  6
CONTINUOUS
370
25
 62
7
100
AcDbLine
 10
30.20101012677671
 20
23.95979797464466
 30
0.0
 11
30.30151519016506
 21
24.06030303803301
 31
0.0
  0
LINE
  5
67D
330
1F
100
AcDbEntity
  8
2
  6
CONTINUOUS
370
25
 62
7
100
AcDbLine
 10
30.15254326381658
 20
24.03050865276332
 30
0.0
 11
30.22881489572486
 21
23.95423702085503
 31
0.0
  0
LINE
  5
67E
330
1F
100
AcDbEntity
  8
2
  6
CONTINUOUS
370
25
 62
7
100
AcDbLine
 10
30.50609665440985
 20
24.10121933088197
 30
0.0
 11
30.75914498161477
 21
23.84817100367705
 31
0.0
  0
LINE
  5
67F
330
1F
100
AcDbEntity
  8
2
  6
CONTINUOUS
370
25
 62
7
100
AcDbLine
 10
30.85965004500312
 20
24.17193000900063
 30
0.0
 11
31.28947506750468
 21
23.74210498649906
 31
0.0
  0
LINE
  5
680
330
1F
100
AcDbEntity
  8
2
  6
CONTINUOUS
370
25
 62
7
100
AcDbLine
 10
31.21320343559639
 20
24.24264068711928
 30
0.0
 11
31.81980515339459
 21
23.63603896932108
 31
0.0
  0
LINE
  5
681
330
1F
100
AcDbEntity
  8
2
  6
CONTINUOUS
370
25
 62
7
100
AcDbLine
 10
31.56675682618967
 20
24.31335136523793
 30
0.0
 11
32.3501352392845
 21
23.5299729521431
 31
0.0
  0
LINE
  5
682
330
1F
100
AcDbEntity
  8
2
  6
CONTINUOUS
370
25
 62
7
100
AcDbLine
 10
31.92031021678294
 20
24.38406204335659
 30
0.0
 11
32.88046532517441
 21
23.42390693496512
 31
0.0
  0
LINE
  5
683
330
1F
100
AcDbEntity
  8
2
  6
CONTINUOUS
370
25
 62
7
100
AcDbLine
 10
32.27386360737621
 20
24.45477272147524
 30
0.0
 11
33.41079541106432
 21
23.31784091778714
 31
0.0
  0
LINE
  5
684
330
1F
100
AcDbEntity
  8
2
  6
CONTINUOUS
370
25
 62
7
100
AcDbLine
 10
32.62741699796949
 20
24.5254833995939
 30
0.0
 11
33.94112549695424
 21
23.21177490060915
 31
0.0
  0
LINE
  5
685
330
1F
100
AcDbEntity
  8
2
  6
CONTINUOUS
370
25
 62
7
100
AcDbLine
 10
32.98097038856276
 20
24.59619407771255
 30
0.0
 11
34.47145558284414
 21
23.10570888343117
 31
0.0
  0
LINE
  5
686
330
1F
100
AcDbEntity
  8
2
  6
CONTINUOUS
370
25
 62
7
100
AcDbLine
 10
33.33452377915604
 20
24.66690475583121
 30
0.0
 11
35.0
 21
23.00142853498724
 31
0.0
  0
LINE
  5
687
330
1F
100
AcDbEntity
  8
2
  6
CONTINUOUS
370
25
 62
7
100
AcDbLine
 10
33.68807716974931
 20
24.73761543394986
 30
0.0
 11
35.0
 21
23.42569260369917
 31
0.0
  0
LINE
  5
688
330
1F
100
AcDbEntity
  8
2
  6
CONTINUOUS
370
25
 62
7
100
AcDbLine
 10
34.04163056034258
 20
24.80832611206852
 30
0.0
 11
35.0
 21
23.8499566724111
 31
0.0
  0
LINE
  5
689
330
1F
100
AcDbEntity
  8
2
  6
CONTINUOUS
370
25
 62
7
100
AcDbLine
 10
34.39518395093585
 20
24.87903679018717
 30
0.0
 11
35.0
 21
24.27422074112302
 31
0.0
  0
LINE
  5
68A
330
1F
100
AcDbEntity
  8
2
  6
CONTINUOUS
370
25
 62
7
100
AcDbLine
 10
34.74873734152913
 20
24.94974746830583
 30
0.0
 11
35.0
 21
24.69848480983495
 31
0.0
  0
LINE
  5
68B
330
1F
100
AcDbEntity
  8
2
  6
CONTINUOUS
370
25
 62
7
100
AcDbLine
 10
52.0
 20
24.0
 30
0.0
 11
47.0
 21
23.0
 31
0.0
  0
LINE
  5
68C
330
1F
100
AcDbEntity
  8
2
  6
CONTINUOUS
370
25
 62
7
100
AcDbLine
 10
47.0
 20
23.0
 30
0.0
 11
47.0
 21
25.0
 31
0.0
  0
LINE
  5
68D
330
1F
100
AcDbEntity
  8
2
  6
CONTINUOUS
370
25
 62
7
100
AcDbLine
 10
47.0
 20
25.0
 30
0.0
 11
52.0
 21
24.0
 31
0.0
  0
LINE
  5
68E
330
1F
100
AcDbEntity
  8
2
  6
CONTINUOUS
370
25
 62
7
100
AcDbLine
 10
51.60037273230114
 20
23.92007454646023
 30
0.0
 11
51.73358182153409
 21
24.05328363569318
 31
0.0
  0
LINE
  5
68F
330
1F
100
AcDbEntity
  8
2
  6
CONTINUOUS
370
25
 62
7
100
AcDbLine
 10
51.07004264641122
 20
23.81400852928225
 30
0.0
 11
51.38002843094081
 21
24.12399431381183
 31
0.0
  0
LINE
  5
690
330
1F
100
AcDbEntity
  8
2
  6
CONTINUOUS
370
25
 62
7
100
AcDbLine
 10
50.53971256052132
 20
23.70794251210427
 30
0.0
 11
51.02647504034754
 21
24.19470499193049
 31
0.0
  0
LINE
  5
691
330
1F
100
AcDbEntity
  8
2
  6
CONTINUOUS
370
25
 62
7
100
AcDbLine
 10
50.00938247463141
 20
23.60187649492629
 30
0.0
 11
50.67292164975427
 21
24.26541567004914
 31
0.0
  0
LINE
  5
692
330
1F
100
AcDbEntity
  8
2
  6
CONTINUOUS
370
25
 62
7
100
AcDbLine
 10
49.47905238874149
 20
23.4958104777483
 30
0.0
 11
50.319368259161
 21
24.3361263481678
 31
0.0
  0
LINE
  5
693
330
1F
100
AcDbEntity
  8
2
  6
CONTINUOUS
370
25
 62
7
100
AcDbLine
 10
48.94872230285159
 20
23.38974446057032
 30
0.0
 11
49.96581486856772
 21
24.40683702628645
 31
0.0
  0
LINE
  5
694
330
1F
100
AcDbEntity
  8
2
  6
CONTINUOUS
370
25
 62
7
100
AcDbLine
 10
48.41839221696168
 20
23.28367844339234
 30
0.0
 11
49.61226147797444
 21
24.47754770440511
 31
0.0
  0
LINE
  5
695
330
1F
100
AcDbEntity
  8
2
  6
CONTINUOUS
370
25
 62
7
100
AcDbLine
 10
47.88806213107176
 20
23.17761242621436
 30
0.0
 11
49.25870808738117
 21
24.54825838252376
 31
0.0
  0
LINE
  5
696
330
1F
100
AcDbEntity
  8
2
  6
CONTINUOUS
370
25
 62
7
100
AcDbLine
 10
47.35773204518186
 20
23.07154640903637
 30
0.0
 11
48.9051546967879
 21
24.61896906064242
 31
0.0
  0
LINE
  5
697
330
1F
100
AcDbEntity
  8
2
  6
CONTINUOUS
370
25
 62
7
100
AcDbLine
 10
47.0
 20
23.13807843256645
 30
0.0
 11
48.55160130619463
 21
24.68967973876107
 31
0.0
  0
LINE
  5
698
330
1F
100
AcDbEntity
  8
2
  6
CONTINUOUS
370
25
 62
7
100
AcDbLine
 10
47.0
 20
23.56234250127837
 30
0.0
 11
48.19804791560135
 21
24.76039041687973
 31
0.0
  0
LINE
  5
699
330
1F
100
AcDbEntity
  8
2
  6
CONTINUOUS
370
25
 62
7
100
AcDbLine
 10
47.0
 20
23.9866065699903
 30
0.0
 11
47.84449452500808
 21
24.83110109499838
 31
0.0
  0
LINE
  5
69A
330
1F
100
AcDbEntity
  8
2
  6
CONTINUOUS
370
25
 62
7
100
AcDbLine
 10
47.0
 20
24.41087063870223
 30
0.0
 11
47.49094113441481
 21
24.90181177311704
 31
0.0
  0
LINE
  5
69B
330
1F
100
AcDbEntity
  8
2
  6
CONTINUOUS
370
25
 62
7
100
AcDbLine
 10
47.0
 20
24.83513470741416
 30
0.0
 11
47.13738774382153
 21
24.97252245123569
 31
0.0
  0
LINE
  5
69C
330
1F
100
AcDbEntity
  8
2
  6
CONTINUOUS
370
25
 62
7
100
AcDbLine
 10
47.0
 20
23.30508652763319
 30
0.0
 11
47.25423877302766
 21
23.05084775460553
 31
0.0
  0
LINE
  5
69D
330
1F
100
AcDbEntity
  8
2
  6
CONTINUOUS
370
25
 62
7
100
AcDbLine
 10
47.0
 20
23.72935059634511
 30
0.0
 11
47.60779216362093
 21
23.12155843272419
 31
0.0
  0
LINE
  5
69E
330
1F
100
AcDbEntity
  8
2
  6
CONTINUOUS
370
25
 62
7
100
AcDbLine
 10
47.0
 20
24.15361466505705
 30
0.0
 11
47.9613455542142
 21
23.19226911084284
 31
0.0
  0
LINE
  5
69F
330
1F
100
AcDbEntity
  8
2
  6
CONTINUOUS
370
25
 62
7
100
AcDbLine
 10
47.0
 20
24.57787873376897
 30
0.0
 11
48.31489894480747
 21
23.2629797889615
 31
0.0
  0
LINE
  5
6A0
330
1F
100
AcDbEntity
  8
2
  6
CONTINUOUS
370
25
 62
7
100
AcDbLine
 10
47.00267850310114
 20
24.99946429937977
 30
0.0
 11
48.66845233540075
 21
23.33369046708015
 31
0.0
  0
LINE
  5
6A1
330
1F
100
AcDbEntity
  8
2
  6
CONTINUOUS
370
25
 62
7
100
AcDbLine
 10
47.53300858899104
 20
24.89339828220179
 30
0.0
 11
49.02200572599402
 21
23.4044011451988
 31
0.0
  0
LINE
  5
6A2
330
1F
100
AcDbEntity
  8
2
  6
CONTINUOUS
370
25
 62
7
100
AcDbLine
 10
48.06333867488095
 20
24.78733226502381
 30
0.0
 11
49.3755591165873
 21
23.47511182331746
 31
0.0
  0
LINE
  5
6A3
330
1F
100
AcDbEntity
  8
2
  6
CONTINUOUS
370
25
 62
7
100
AcDbLine
 10
48.59366876077085
 20
24.68126624784583
 30
0.0
 11
49.72911250718057
 21
23.54582250143611
 31
0.0
  0
LINE
  5
6A4
330
1F
100
AcDbEntity
  8
2
  6
CONTINUOUS
370
25
 62
7
100
AcDbLine
 10
49.12399884666077
 20
24.57520023066784
 30
0.0
 11
50.08266589777384
 21
23.61653317955477
 31
0.0
  0
LINE
  5
6A5
330
1F
100
AcDbEntity
  8
2
  6
CONTINUOUS
370
25
 62
7
100
AcDbLine
 10
49.65432893255067
 20
24.46913421348986
 30
0.0
 11
50.43621928836711
 21
23.68724385767342
 31
0.0
  0
LINE
  5
6A6
330
1F
100
AcDbEntity
  8
2
  6
CONTINUOUS
370
25
 62
7
100
AcDbLine
 10
50.18465901844058
 20
24.36306819631188
 30
0.0
 11
50.78977267896039
 21
23.75795453579208
 31
0.0
  0
LINE
  5
6A7
330
1F
100
AcDbEntity
  8
2
  6
CONTINUOUS
370
25
 62
7
100
AcDbLine
 10
50.7149891043305
 20
24.2570021791339
 30
0.0
 11
51.14332606955366
 21
23.82866521391074
 31
0.0
  0
LINE
  5
6A8
330
1F
100
AcDbEntity
  8
2
  6
CONTINUOUS
370
25
 62
7
100
AcDbLine
 10
51.2453191902204
 20
24.15093616195592
 30
0.0
 11
51.49687946014693
 21
23.89937589202939
 31
0.0
  0
LINE
  5
6A9
330
1F
100
AcDbEntity
  8
2
  6
CONTINUOUS
370
25
 62
7
100
AcDbLine
 10
51.77564927611031
 20
24.04487014477793
 30
0.0
 11
51.85043285074021
 21
23.97008657014804
 31
0.0
  0
TEXT
  5
6AA
330
1F
100
AcDbEntity
  8
2
  6
CONTINUOUS
370
25
 62
7
100
AcDbText
 10
38.08333333333334
 20
25.5
 30
0.0
 40
3.5
  1
22
 72
     1
 11
41.0
 21
25.5
 31
0.0
100
AcDbText
  0
LINE
  5
6AB
330
1F
100
AcDbEntity
  8
2
  6
CONTINUOUS
370
25
 62
7
100
AcDbLine
 10
39.5
 20
-1.875
 30
0.0
 11
39.5
 21
-35.0
 31
0.0
  0
LINE
  5
6AC
330
1F
100
AcDbEntity
  8
2
  6
CONTINUOUS
370
25
 62
7
100
AcDbLine
 10
52.0
 20
-35.0
 30
0.0
 11
52.0
 21
0.0
 31
0.0
  0
LINE
  5
6AD
330
1F
100
AcDbEntity
  8
2
  6
CONTINUOUS
370
25
 62
7
100
AcDbLine
 10
20.6
 20
-34.0
 30
0.0
 11
59.0
 21
-34.0
 31
0.0
  0
LINE
  5
6AE
330
1F
100
AcDbEntity
  8
2
  6
CONTINUOUS
370
25
 62
7
100
AcDbLine
 10
39.5
 20
-34.0
 30
0.0
 11
34.5
 21
-35.0
 31
0.0
  0
LINE
  5
6AF
330
1F
100
AcDbEntity
  8
2
  6
CONTINUOUS
370
25
 62
7
100
AcDbLine
 10
34.5
 20
-35.0
 30
0.0
 11
34.5
 21
-33.0
 31
0.0
  0
LINE
  5
6B0
330
1F
100
AcDbEntity
  8
2
  6
CONTINUOUS
370
25
 62
7
100
AcDbLine
 10
34.5
 20
-33.0
 30
0.0
 11
39.5
 21
-34.0
 31
0.0
  0
LINE
  5
6B1
330
1F
100
AcDbEntity
  8
2
  6
CONTINUOUS
370
25
 62
7
100
AcDbLine
 10
39.2300535420807
 20
-34.05398929158386
 30
0.0
 11
39.32003569472047
 21
-33.9640071389441
 31
0.0
  0
LINE
  5
6B2
330
1F
100
AcDbEntity
  8
2
  6
CONTINUOUS
370
25
 62
7
100
AcDbLine
 10
38.6997234561908
 20
-34.16005530876184
 30
0.0
 11
38.9664823041272
 21
-33.89329646082544
 31
0.0
  0
LINE
  5
6B3
330
1F
100
AcDbEntity
  8
2
  6
CONTINUOUS
370
25
 62
7
100
AcDbLine
 10
38.16939337030088
 20
-34.26612132593982
 30
0.0
 11
38.61292891353392
 21
-33.82258578270679
 31
0.0
  0
LINE
  5
6B4
330
1F
100
AcDbEntity
  8
2
  6
CONTINUOUS
370
25
 62
7
100
AcDbLine
 10
37.63906328441097
 20
-34.37218734311781
 30
0.0
 11
38.25937552294064
 21
-33.75187510458813
 31
0.0
  0
LINE
  5
6B5
330
1F
100
AcDbEntity
  8
2
  6
CONTINUOUS
370
25
 62
7
100
AcDbLine
 10
37.10873319852105
 20
-34.47825336029579
 30
0.0
 11
37.90582213234737
 21
-33.68116442646948
 31
0.0
  0
LINE
  5
6B6
330
1F
100
AcDbEntity
  8
2
  6
CONTINUOUS
370
25
 62
7
100
AcDbLine
 10
36.57840311263114
 20
-34.58431937747378
 30
0.0
 11
37.55226874175409
 21
-33.61045374835082
 31
0.0
  0
LINE
  5
6B7
330
1F
100
AcDbEntity
  8
2
  6
CONTINUOUS
370
25
 62
7
100
AcDbLine
 10
36.04807302674123
 20
-34.69038539465176
 30
0.0
 11
37.19871535116082
 21
-33.53974307023216
 31
0.0
  0
LINE
  5
6B8
330
1F
100
AcDbEntity
  8
2
  6
CONTINUOUS
370
25
 62
7
100
AcDbLine
 10
35.51774294085131
 20
-34.79645141182974
 30
0.0
 11
36.84516196056754
 21
-33.46903239211351
 31
0.0
  0
LINE
  5
6B9
330
1F
100
AcDbEntity
  8
2
  6
CONTINUOUS
370
25
 62
7
100
AcDbLine
 10
34.9874128549614
 20
-34.90251742900772
 30
0.0
 11
36.49160856997427
 21
-33.39832171399485
 31
0.0
  0
LINE
  5
6BA
330
1F
100
AcDbEntity
  8
2
  6
CONTINUOUS
370
25
 62
7
100
AcDbLine
 10
34.5
 20
-34.96566621525718
 30
0.0
 11
36.13805517938099
 21
-33.3276110358762
 31
0.0
  0
LINE
  5
6BB
330
1F
100
AcDbEntity
  8
2
  6
CONTINUOUS
370
25
 62
7
100
AcDbLine
 10
34.5
 20
-34.54140214654526
 30
0.0
 11
35.78450178878772
 21
-33.25690035775754
 31
0.0
  0
LINE
  5
6BC
330
1F
100
AcDbEntity
  8
2
  6
CONTINUOUS
370
25
 62
7
100
AcDbLine
 10
34.5
 20
-34.11713807783332
 30
0.0
 11
35.43094839819444
 21
-33.18618967963889
 31
0.0
  0
LINE
  5
6BD
330
1F
100
AcDbEntity
  8
2
  6
CONTINUOUS
370
25
 62
7
100
AcDbLine
 10
34.5
 20
-33.6928740091214
 30
0.0
 11
35.07739500760117
 21
-33.11547900152024
 31
0.0
  0
LINE
  5
6BE
330
1F
100
AcDbEntity
  8
2
  6
CONTINUOUS
370
25
 62
7
100
AcDbLine
 10
34.5
 20
-33.26860994040947
 30
0.0
 11
34.72384161700789
 21
-33.04476832340158
 31
0.0
  0
LINE
  5
6BF
330
1F
100
AcDbEntity
  8
2
  6
CONTINUOUS
370
25
 62
7
100
AcDbLine
 10
34.5
 20
-34.63328523858209
 30
0.0
 11
34.80559563451492
 21
-34.93888087309701
 31
0.0
  0
LINE
  5
6C0
330
1F
100
AcDbEntity
  8
2
  6
CONTINUOUS
370
25
 62
7
100
AcDbLine
 10
34.5
 20
-34.20902116987016
 30
0.0
 11
35.15914902510819
 21
-34.86817019497836
 31
0.0
  0
LINE
  5
6C1
330
1F
100
AcDbEntity
  8
2
  6
CONTINUOUS
370
25
 62
7
100
AcDbLine
 10
34.5
 20
-33.78475710115823
 30
0.0
 11
35.51270241570147
 21
-34.7974595168597
 31
0.0
  0
LINE
  5
6C2
330
1F
100
AcDbEntity
  8
2
  6
CONTINUOUS
370
25
 62
7
100
AcDbLine
 10
34.5
 20
-33.36049303244631
 30
0.0
 11
35.86625580629475
 21
-34.72674883874105
 31
0.0
  0
LINE
  5
6C3
330
1F
100
AcDbEntity
  8
2
  6
CONTINUOUS
370
25
 62
7
100
AcDbLine
 10
34.57971379533203
 20
-33.01594275906641
 30
0.0
 11
36.21980919688802
 21
-34.65603816062239
 31
0.0
  0
LINE
  5
6C4
330
1F
100
AcDbEntity
  8
2
  6
CONTINUOUS
370
25
 62
7
100
AcDbLine
 10
35.11004388122193
 20
-33.12200877624439
 30
0.0
 11
36.57336258748129
 21
-34.58532748250374
 31
0.0
  0
LINE
  5
6C5
330
1F
100
AcDbEntity
  8
2
  6
CONTINUOUS
370
25
 62
7
100
AcDbLine
 10
35.64037396711185
 20
-33.22807479342237
 30
0.0
 11
36.92691597807457
 21
-34.51461680438508
 31
0.0
  0
LINE
  5
6C6
330
1F
100
AcDbEntity
  8
2
  6
CONTINUOUS
370
25
 62
7
100
AcDbLine
 10
36.17070405300176
 20
-33.33414081060035
 30
0.0
 11
37.28046936866784
 21
-34.44390612626643
 31
0.0
  0
LINE
  5
6C7
330
1F
100
AcDbEntity
  8
2
  6
CONTINUOUS
370
25
 62
7
100
AcDbLine
 10
36.70103413889169
 20
-33.44020682777834
 30
0.0
 11
37.63402275926112
 21
-34.37319544814778
 31
0.0
  0
LINE
  5
6C8
330
1F
100
AcDbEntity
  8
2
  6
CONTINUOUS
370
25
 62
7
100
AcDbLine
 10
37.23136422478159
 20
-33.54627284495632
 30
0.0
 11
37.9875761498544
 21
-34.30248477002912
 31
0.0
  0
LINE
  5
6C9
330
1F
100
AcDbEntity
  8
2
  6
CONTINUOUS
370
25
 62
7
100
AcDbLine
 10
37.76169431067151
 20
-33.6523388621343
 30
0.0
 11
38.34112954044767
 21
-34.23177409191047
 31
0.0
  0
LINE
  5
6CA
330
1F
100
AcDbEntity
  8
2
  6
CONTINUOUS
370
25
 62
7
100
AcDbLine
 10
38.29202439656142
 20
-33.75840487931229
 30
0.0
 11
38.69468293104094
 21
-34.16106341379181
 31
0.0
  0
LINE
  5
6CB
330
1F
100
AcDbEntity
  8
2
  6
CONTINUOUS
370
25
 62
7
100
AcDbLine
 10
38.82235448245134
 20
-33.86447089649027
 30
0.0
 11
39.04823632163422
 21
-34.09035273567315
 31
0.0
  0
LINE
  5
6CC
330
1F
100
AcDbEntity
  8
2
  6
CONTINUOUS
370
25
 62
7
100
AcDbLine
 10
39.35268456834125
 20
-33.97053691366825
 30
0.0
 11
39.4017897122275
 21
-34.0196420575545
 31
0.0
  0
LINE
  5
6CD
330
1F
100
AcDbEntity
  8
2
  6
CONTINUOUS
370
25
 62
7
100
AcDbLine
 10
52.0
 20
-34.0
 30
0.0
 11
57.0
 21
-33.0
 31
0.0
  0
LINE
  5
6CE
330
1F
100
AcDbEntity
  8
2
  6
CONTINUOUS
370
25
 62
7
100
AcDbLine
 10
57.0
 20
-33.0
 30
0.0
 11
57.0
 21
-35.0
 31
0.0
  0
LINE
  5
6CF
330
1F
100
AcDbEntity
  8
2
  6
CONTINUOUS
370
25
 62
7
100
AcDbLine
 10
57.0
 20
-35.0
 30
0.0
 11
52.0
 21
-34.0
 31
0.0
  0
LINE
  5
6D0
330
1F
100
AcDbEntity
  8
2
  6
CONTINUOUS
370
25
 62
7
100
AcDbLine
 10
56.78145346158276
 20
-34.95629069231656
 30
0.0
 11
57.0
 21
-34.73774415389932
 31
0.0
  0
LINE
  5
6D1
330
1F
100
AcDbEntity
  8
2
  6
CONTINUOUS
370
25
 62
7
100
AcDbLine
 10
56.42790007098949
 20
-34.8855800141979
 30
0.0
 11
57.0
 21
-34.31348008518739
 31
0.0
  0
LINE
  5
6D2
330
1F
100
AcDbEntity
  8
2
  6
CONTINUOUS
370
25
 62
7
100
AcDbLine
 10
56.07434668039622
 20
-34.81486933607924
 30
0.0
 11
57.0
 21
-33.88921601647546
 31
0.0
  0
LINE
  5
6D3
330
1F
100
AcDbEntity
  8
2
  6
CONTINUOUS
370
25
 62
7
100
AcDbLine
 10
55.72079328980294
 20
-34.74415865796059
 30
0.0
 11
57.0
 21
-33.46495194776354
 31
0.0
  0
LINE
  5
6D4
330
1F
100
AcDbEntity
  8
2
  6
CONTINUOUS
370
25
 62
7
100
AcDbLine
 10
55.36723989920966
 20
-34.67344797984194
 30
0.0
 11
57.0
 21
-33.04068787905161
 31
0.0
  0
LINE
  5
6D5
330
1F
100
AcDbEntity
  8
2
  6
CONTINUOUS
370
25
 62
7
100
AcDbLine
 10
55.01368650861639
 20
-34.60273730172328
 30
0.0
 11
56.5205297629246
 21
-33.09589404741507
 31
0.0
  0
LINE
  5
6D6
330
1F
100
AcDbEntity
  8
2
  6
CONTINUOUS
370
25
 62
7
100
AcDbLine
 10
54.66013311802311
 20
-34.53202662360462
 30
0.0
 11
55.99019967703468
 21
-33.20196006459307
 31
0.0
  0
LINE
  5
6D7
330
1F
100
AcDbEntity
  8
2
  6
CONTINUOUS
370
25
 62
7
100
AcDbLine
 10
54.30657972742985
 20
-34.46131594548596
 30
0.0
 11
55.45986959114477
 21
-33.30802608177105
 31
0.0
  0
LINE
  5
6D8
330
1F
100
AcDbEntity
  8
2
  6
CONTINUOUS
370
25
 62
7
100
AcDbLine
 10
53.95302633683657
 20
-34.39060526736732
 30
0.0
 11
54.92953950525487
 21
-33.41409209894903
 31
0.0
  0
LINE
  5
6D9
330
1F
100
AcDbEntity
  8
2
  6
CONTINUOUS
370
25
 62
7
100
AcDbLine
 10
53.59947294624329
 20
-34.31989458924866
 30
0.0
 11
54.39920941936495
 21
-33.52015811612701
 31
0.0
  0
LINE
  5
6DA
330
1F
100
AcDbEntity
  8
2
  6
CONTINUOUS
370
25
 62
7
100
AcDbLine
 10
53.24591955565002
 20
-34.24918391113
 30
0.0
 11
53.86887933347504
 21
-33.62622413330499
 31
0.0
  0
LINE
  5
6DB
330
1F
100
AcDbEntity
  8
2
  6
CONTINUOUS
370
25
 62
7
100
AcDbLine
 10
52.89236616505674
 20
-34.17847323301135
 30
0.0
 11
53.33854924758511
 21
-33.73229015048297
 31
0.0
  0
LINE
  5
6DC
330
1F
100
AcDbEntity
  8
2
  6
CONTINUOUS
370
25
 62
7
100
AcDbLine
 10
52.53881277446347
 20
-34.1077625548927
 30
0.0
 11
52.80821916169521
 21
-33.83835616766095
 31
0.0
  0
LINE
  5
6DD
330
1F
100
AcDbEntity
  8
2
  6
CONTINUOUS
370
25
 62
7
100
AcDbLine
 10
52.18525938387019
 20
-34.03705187677404
 30
0.0
 11
52.27788907580529
 21
-33.94442218483894
 31
0.0
  0
LINE
  5
6DE
330
1F
100
AcDbEntity
  8
2
  6
CONTINUOUS
370
25
 62
7
100
AcDbLine
 10
52.26701340137716
 20
-33.94659731972456
 30
0.0
 11
52.40052010206576
 21
-34.08010402041315
 31
0.0
  0
LINE
  5
6DF
330
1F
100
AcDbEntity
  8
2
  6
CONTINUOUS
370
25
 62
7
100
AcDbLine
 10
52.62056679197044
 20
-33.87588664160591
 30
0.0
 11
52.93085018795566
 21
-34.18617003759113
 31
0.0
  0
LINE
  5
6E0
330
1F
100
AcDbEntity
  8
2
  6
CONTINUOUS
370
25
 62
7
100
AcDbLine
 10
52.97412018256372
 20
-33.80517596348726
 30
0.0
 11
53.46118027384559
 21
-34.29223605476912
 31
0.0
  0
LINE
  5
6E1
330
1F
100
AcDbEntity
  8
2
  6
CONTINUOUS
370
25
 62
7
100
AcDbLine
 10
53.32767357315699
 20
-33.7344652853686
 30
0.0
 11
53.9915103597355
 21
-34.3983020719471
 31
0.0
  0
LINE
  5
6E2
330
1F
100
AcDbEntity
  8
2
  6
CONTINUOUS
370
25
 62
7
100
AcDbLine
 10
53.68122696375026
 20
-33.66375460724994
 30
0.0
 11
54.52184044562541
 21
-34.50436808912508
 31
0.0
  0
LINE
  5
6E3
330
1F
100
AcDbEntity
  8
2
  6
CONTINUOUS
370
25
 62
7
100
AcDbLine
 10
54.03478035434354
 20
-33.59304392913129
 30
0.0
 11
55.05217053151532
 21
-34.61043410630306
 31
0.0
  0
LINE
  5
6E4
330
1F
100
AcDbEntity
  8
2
  6
CONTINUOUS
370
25
 62
7
100
AcDbLine
 10
54.38833374493682
 20
-33.52233325101263
 30
0.0
 11
55.58250061740524
 21
-34.71650012348105
 31
0.0
  0
LINE
  5
6E5
330
1F
100
AcDbEntity
  8
2
  6
CONTINUOUS
370
25
 62
7
100
AcDbLine
 10
54.74188713553009
 20
-33.45162257289398
 30
0.0
 11
56.11283070329516
 21
-34.82256614065903
 31
0.0
  0
LINE
  5
6E6
330
1F
100
AcDbEntity
  8
2
  6
CONTINUOUS
370
25
 62
7
100
AcDbLine
 10
55.09544052612337
 20
-33.38091189477532
 30
0.0
 11
56.64316078918506
 21
-34.92863215783701
 31
0.0
  0
LINE
  5
6E7
330
1F
100
AcDbEntity
  8
2
  6
CONTINUOUS
370
25
 62
7
100
AcDbLine
 10
55.44899391671665
 20
-33.31020121665667
 30
0.0
 11
57.0
 21
-34.86120729994002
 31
0.0
  0
LINE
  5
6E8
330
1F
100
AcDbEntity
  8
2
  6
CONTINUOUS
370
25
 62
7
100
AcDbLine
 10
55.80254730730991
 20
-33.23949053853801
 30
0.0
 11
57.0
 21
-34.43694323122808
 31
0.0
  0
LINE
  5
6E9
330
1F
100
AcDbEntity
  8
2
  6
CONTINUOUS
370
25
 62
7
100
AcDbLine
 10
56.15610069790319
 20
-33.16877986041936
 30
0.0
 11
57.0
 21
-34.01267916251616
 31
0.0
  0
LINE
  5
6EA
330
1F
100
AcDbEntity
  8
2
  6
CONTINUOUS
370
25
 62
7
100
AcDbLine
 10
56.50965408849647
 20
-33.0980691823007
 30
0.0
 11
57.0
 21
-33.58841509380423
 31
0.0
  0
LINE
  5
6EB
330
1F
100
AcDbEntity
  8
2
  6
CONTINUOUS
370
25
 62
7
100
AcDbLine
 10
56.86320747908974
 20
-33.02735850418205
 30
0.0
 11
57.0
 21
-33.1641510250923
 31
0.0
  0
TEXT
  5
6EC
330
1F
100
AcDbEntity
  8
2
  6
CONTINUOUS
370
25
 62
7
100
AcDbText
 10
22.88333333333333
 20
-32.5
 30
0.0
 40
3.5
  1
12.5
 72
     1
 11
27.55
 21
-32.5
 31
0.0
100
AcDbText
  0
LINE
  5
6ED
330
1F
100
AcDbEntity
  8
SK2
  6
CONTINUOUS
370
25
 62
7
100
AcDbLine
 10
0.0
 20
4.0
 30
0.0
 11
0.0000000000000036
 21
35.0
 31
0.0
  0
LINE
  5
6EE
330
1F
100
AcDbEntity
  8
SK2
  6
CONTINUOUS
370
25
 62
7
100
AcDbLine
 10
52.0
 20
35.0
 30
0.0
 11
52.0
 21
0.0
 31
0.0
  0
LINE
  5
6EF
330
1F
100
AcDbEntity
  8
SK2
  6
CONTINUOUS
370
25
 62
7
100
AcDbLine
 10
0.0000000000000036
 20
34.0
 30
0.0
 11
52.0
 21
34.0
 31
0.0
  0
LINE
  5
6F0
330
1F
100
AcDbEntity
  8
SK2
  6
CONTINUOUS
370
25
 62
7
100
AcDbLine
 10
0.0000000000000036
 20
34.0
 30
0.0
 11
5.000000000000004
 21
35.0
 31
0.0
  0
LINE
  5
6F1
330
1F
100
AcDbEntity
  8
SK2
  6
CONTINUOUS
370
25
 62
7
100
AcDbLine
 10
5.000000000000004
 20
35.0
 30
0.0
 11
5.000000000000004
 21
33.0
 31
0.0
  0
LINE
  5
6F2
330
1F
100
AcDbEntity
  8
SK2
  6
CONTINUOUS
370
25
 62
7
100
AcDbLine
 10
5.000000000000004
 20
33.0
 30
0.0
 11
0.0000000000000036
 21
34.0
 31
0.0
  0
LINE
  5
6F3
330
1F
100
AcDbEntity
  8
SK2
  6
CONTINUOUS
370
25
 62
7
100
AcDbLine
 10
4.896518822054823
 20
33.02069623558903
 30
0.0
 11
5.000000000000004
 21
33.12417741353421
 31
0.0
  0
LINE
  5
6F4
330
1F
100
AcDbEntity
  8
SK2
  6
CONTINUOUS
370
25
 62
7
100
AcDbLine
 10
4.542965431461553
 20
33.09140691370769
 30
0.0
 11
5.000000000000004
 21
33.54844148224613
 31
0.0
  0
LINE
  5
6F5
330
1F
100
AcDbEntity
  8
SK2
  6
CONTINUOUS
370
25
 62
7
100
AcDbLine
 10
4.18941204086828
 20
33.16211759182634
 30
0.0
 11
5.000000000000004
 21
33.97270555095807
 31
0.0
  0
LINE
  5
6F6
330
1F
100
AcDbEntity
  8
SK2
  6
CONTINUOUS
370
25
 62
7
100
AcDbLine
 10
3.835858650275004
 20
33.232828269945
 30
0.0
 11
5.000000000000004
 21
34.39696961967
 31
0.0
  0
LINE
  5
6F7
330
1F
100
AcDbEntity
  8
SK2
  6
CONTINUOUS
370
25
 62
7
100
AcDbLine
 10
3.482305259681731
 20
33.30353894806365
 30
0.0
 11
5.000000000000004
 21
34.82123368838192
 31
0.0
  0
LINE
  5
6F8
330
1F
100
AcDbEntity
  8
SK2
  6
CONTINUOUS
370
25
 62
7
100
AcDbLine
 10
3.12875186908845
 20
33.3742496261823
 30
0.0
 11
4.693127803632674
 21
34.93862556072654
 31
0.0
  0
LINE
  5
6F9
330
1F
100
AcDbEntity
  8
SK2
  6
CONTINUOUS
370
25
 62
7
100
AcDbLine
 10
2.775198478495184
 20
33.44496030430096
 30
0.0
 11
4.162797717742773
 21
34.83255954354856
 31
0.0
  0
LINE
  5
6FA
330
1F
100
AcDbEntity
  8
SK2
  6
CONTINUOUS
370
25
 62
7
100
AcDbLine
 10
2.421645087901904
 20
33.51567098241962
 30
0.0
 11
3.632467631852851
 21
34.72649352637058
 31
0.0
  0
LINE
  5
6FB
330
1F
100
AcDbEntity
  8
SK2
  6
CONTINUOUS
370
25
 62
7
100
AcDbLine
 10
2.068091697308631
 20
33.58638166053827
 30
0.0
 11
3.102137545962947
 21
34.6204275091926
 31
0.0
  0
LINE
  5
6FC
330
1F
100
AcDbEntity
  8
SK2
  6
CONTINUOUS
370
25
 62
7
100
AcDbLine
 10
1.714538306715358
 20
33.65709233865692
 30
0.0
 11
2.571807460073039
 21
34.51436149201461
 31
0.0
  0
LINE
  5
6FD
330
1F
100
AcDbEntity
  8
SK2
  6
CONTINUOUS
370
25
 62
7
100
AcDbLine
 10
1.360984916122082
 20
33.72780301677558
 30
0.0
 11
2.04147737418312
 21
34.40829547483662
 31
0.0
  0
LINE
  5
6FE
330
1F
100
AcDbEntity
  8
SK2
  6
CONTINUOUS
370
25
 62
7
100
AcDbLine
 10
1.007431525528805
 20
33.79851369489424
 30
0.0
 11
1.511147288293206
 21
34.30222945765864
 31
0.0
  0
LINE
  5
6FF
330
1F
100
AcDbEntity
  8
SK2
  6
CONTINUOUS
370
25
 62
7
100
AcDbLine
 10
0.6538781349355318
 20
33.8692243730129
 30
0.0
 11
0.9808172024032977
 21
34.19616344048066
 31
0.0
  0
LINE
  5
700
330
1F
100
AcDbEntity
  8
SK2
  6
CONTINUOUS
370
25
 62
7
100
AcDbLine
 10
0.3003247443422481
 20
33.93993505113155
 30
0.0
 11
0.4504871165133721
 21
34.09009742330267
 31
0.0
  0
LINE
  5
701
330
1F
100
AcDbEntity
  8
SK2
  6
CONTINUOUS
370
25
 62
7
100
AcDbLine
 10
0.2022005725992884
 20
34.04044011451986
 30
0.0
 11
0.3033008588989361
 21
33.93933982822021
 31
0.0
  0
LINE
  5
702
330
1F
100
AcDbEntity
  8
SK2
  6
CONTINUOUS
370
25
 62
7
100
AcDbLine
 10
0.555753963192565
 20
34.11115079263851
 30
0.0
 11
0.833630944788851
 21
33.83327381104223
 31
0.0
  0
LINE
  5
703
330
1F
100
AcDbEntity
  8
SK2
  6
CONTINUOUS
370
25
 62
7
100
AcDbLine
 10
0.9093073537858416
 20
34.18186147075717
 30
0.0
 11
1.363961030678762
 21
33.72720779386425
 31
0.0
  0
LINE
  5
704
330
1F
100
AcDbEntity
  8
SK2
  6
CONTINUOUS
370
25
 62
7
100
AcDbLine
 10
1.262860744379125
 20
34.25257214887583
 30
0.0
 11
1.894291116568684
 21
33.62114177668626
 31
0.0
  0
LINE
  5
705
330
1F
100
AcDbEntity
  8
SK2
  6
CONTINUOUS
370
25
 62
7
100
AcDbLine
 10
1.616414134972398
 20
34.32328282699449
 30
0.0
 11
2.424621202458596
 21
33.51507575950828
 31
0.0
  0
LINE
  5
706
330
1F
100
AcDbEntity
  8
SK2
  6
CONTINUOUS
370
25
 62
7
100
AcDbLine
 10
1.969967525565675
 20
34.39399350511313
 30
0.0
 11
2.954951288348504
 21
33.4090097423303
 31
0.0
  0
LINE
  5
707
330
1F
100
AcDbEntity
  8
SK2
  6
CONTINUOUS
370
25
 62
7
100
AcDbLine
 10
2.323520916158945
 20
34.46470418323179
 30
0.0
 11
3.485281374238411
 21
33.30294372515232
 31
0.0
  0
LINE
  5
708
330
1F
100
AcDbEntity
  8
SK2
  6
CONTINUOUS
370
25
 62
7
100
AcDbLine
 10
2.677074306752218
 20
34.53541486135045
 30
0.0
 11
4.015611460128323
 21
33.19687770797434
 31
0.0
  0
LINE
  5
709
330
1F
100
AcDbEntity
  8
SK2
  6
CONTINUOUS
370
25
 62
7
100
AcDbLine
 10
3.030627697345494
 20
34.6061255394691
 30
0.0
 11
4.545941546018227
 21
33.09081169079636
 31
0.0
  0
LINE
  5
70A
330
1F
100
AcDbEntity
  8
SK2
  6
CONTINUOUS
370
25
 62
7
100
AcDbLine
 10
3.384181087938767
 20
34.67683621758776
 30
0.0
 11
5.000000000000004
 21
33.06101730552651
 31
0.0
  0
LINE
  5
70B
330
1F
100
AcDbEntity
  8
SK2
  6
CONTINUOUS
370
25
 62
7
100
AcDbLine
 10
3.73773447853204
 20
34.74754689570641
 30
0.0
 11
5.000000000000004
 21
33.48528137423843
 31
0.0
  0
LINE
  5
70C
330
1F
100
AcDbEntity
  8
SK2
  6
CONTINUOUS
370
25
 62
7
100
AcDbLine
 10
4.091287869125313
 20
34.81825757382506
 30
0.0
 11
5.000000000000004
 21
33.90954544295037
 31
0.0
  0
LINE
  5
70D
330
1F
100
AcDbEntity
  8
SK2
  6
CONTINUOUS
370
25
 62
7
100
AcDbLine
 10
4.44484125971859
 20
34.88896825194372
 30
0.0
 11
5.000000000000004
 21
34.3338095116623
 31
0.0
  0
LINE
  5
70E
330
1F
100
AcDbEntity
  8
SK2
  6
CONTINUOUS
370
25
 62
7
100
AcDbLine
 10
4.79839465031186
 20
34.95967893006237
 30
0.0
 11
5.000000000000004
 21
34.75807358037423
 31
0.0
  0
LINE
  5
70F
330
1F
100
AcDbEntity
  8
SK2
  6
CONTINUOUS
370
25
 62
7
100
AcDbLine
 10
52.0
 20
34.0
 30
0.0
 11
47.0
 21
33.0
 31
0.0
  0
LINE
  5
710
330
1F
100
AcDbEntity
  8
SK2
  6
CONTINUOUS
370
25
 62
7
100
AcDbLine
 10
47.0
 20
33.0
 30
0.0
 11
47.0
 21
35.0
 31
0.0
  0
LINE
  5
711
330
1F
100
AcDbEntity
  8
SK2
  6
CONTINUOUS
370
25
 62
7
100
AcDbLine
 10
47.0
 20
35.0
 30
0.0
 11
52.0
 21
34.0
 31
0.0
  0
LINE
  5
712
330
1F
100
AcDbEntity
  8
SK2
  6
CONTINUOUS
370
25
 62
7
100
AcDbLine
 10
51.62042750919258
 20
33.92408550183851
 30
0.0
 11
51.74695167279506
 21
34.05060966544099
 31
0.0
  0
LINE
  5
713
330
1F
100
AcDbEntity
  8
SK2
  6
CONTINUOUS
370
25
 62
7
100
AcDbLine
 10
51.09009742330267
 20
33.81801948466053
 30
0.0
 11
51.39339828220179
 21
34.12132034355965
 31
0.0
  0
LINE
  5
714
330
1F
100
AcDbEntity
  8
SK2
  6
CONTINUOUS
370
25
 62
7
100
AcDbLine
 10
50.55976733741277
 20
33.71195346748255
 30
0.0
 11
51.03984489160851
 21
34.1920310216783
 31
0.0
  0
LINE
  5
715
330
1F
100
AcDbEntity
  8
SK2
  6
CONTINUOUS
370
25
 62
7
100
AcDbLine
 10
50.02943725152285
 20
33.60588745030457
 30
0.0
 11
50.68629150101523
 21
34.26274169979695
 31
0.0
  0
LINE
  5
716
330
1F
100
AcDbEntity
  8
SK2
  6
CONTINUOUS
370
25
 62
7
100
AcDbLine
 10
49.49910716563294
 20
33.49982143312658
 30
0.0
 11
50.33273811042196
 21
34.33345237791561
 31
0.0
  0
LINE
  5
717
330
1F
100
AcDbEntity
  8
SK2
  6
CONTINUOUS
370
25
 62
7
100
AcDbLine
 10
48.96877707974303
 20
33.3937554159486
 30
0.0
 11
49.97918471982868
 21
34.40416305603426
 31
0.0
  0
LINE
  5
718
330
1F
100
AcDbEntity
  8
SK2
  6
CONTINUOUS
370
25
 62
7
100
AcDbLine
 10
48.43844699385312
 20
33.28768939877062
 30
0.0
 11
49.6256313292354
 21
34.47487373415292
 31
0.0
  0
LINE
  5
719
330
1F
100
AcDbEntity
  8
SK2
  6
CONTINUOUS
370
25
 62
7
100
AcDbLine
 10
47.9081169079632
 20
33.18162338159264
 30
0.0
 11
49.27207793864213
 21
34.54558441227157
 31
0.0
  0
LINE
  5
71A
330
1F
100
AcDbEntity
  8
SK2
  6
CONTINUOUS
370
25
 62
7
100
AcDbLine
 10
47.3777868220733
 20
33.07555736441466
 30
0.0
 11
48.91852454804886
 21
34.61629509039023
 31
0.0
  0
LINE
  5
71B
330
1F
100
AcDbEntity
  8
SK2
  6
CONTINUOUS
370
25
 62
7
100
AcDbLine
 10
47.0
 20
33.12203461105329
 30
0.0
 11
48.56497115745559
 21
34.68700576850888
 31
0.0
  0
LINE
  5
71C
330
1F
100
AcDbEntity
  8
SK2
  6
CONTINUOUS
370
25
 62
7
100
AcDbLine
 10
47.0
 20
33.54629867976521
 30
0.0
 11
48.21141776686231
 21
34.75771644662754
 31
0.0
  0
LINE
  5
71D
330
1F
100
AcDbEntity
  8
SK2
  6
CONTINUOUS
370
25
 62
7
100
AcDbLine
 10
47.0
 20
33.97056274847715
 30
0.0
 11
47.85786437626904
 21
34.82842712474619
 31
0.0
  0
LINE
  5
71E
330
1F
100
AcDbEntity
  8
SK2
  6
CONTINUOUS
370
25
 62
7
100
AcDbLine
 10
47.0
 20
34.39482681718908
 30
0.0
 11
47.50431098567577
 21
34.89913780286484
 31
0.0
  0
LINE
  5
71F
330
1F
100
AcDbEntity
  8
SK2
  6
CONTINUOUS
370
25
 62
7
100
AcDbLine
 10
47.0
 20
34.81909088590101
 30
0.0
 11
47.1507575950825
 21
34.9698484809835
 31
0.0
  0
LINE
  5
720
330
1F
100
AcDbEntity
  8
SK2
  6
CONTINUOUS
370
25
 62
7
100
AcDbLine
 10
47.0
 20
33.06316010800754
 30
0.0
 11
47.05263342333961
 21
33.01052668466792
 31
0.0
  0
LINE
  5
721
330
1F
100
AcDbEntity
  8
SK2
  6
CONTINUOUS
370
25
 62
7
100
AcDbLine
 10
47.0
 20
33.48742417671946
 30
0.0
 11
47.40618681393289
 21
33.08123736278658
 31
0.0
  0
LINE
  5
722
330
1F
100
AcDbEntity
  8
SK2
  6
CONTINUOUS
370
25
 62
7
100
AcDbLine
 10
47.0
 20
33.91168824543139
 30
0.0
 11
47.75974020452617
 21
33.15194804090523
 31
0.0
  0
LINE
  5
723
330
1F
100
AcDbEntity
  8
SK2
  6
CONTINUOUS
370
25
 62
7
100
AcDbLine
 10
47.0
 20
34.33595231414333
 30
0.0
 11
48.11329359511944
 21
33.22265871902388
 31
0.0
  0
LINE
  5
724
330
1F
100
AcDbEntity
  8
SK2
  6
CONTINUOUS
370
25
 62
7
100
AcDbLine
 10
47.0
 20
34.76021638285525
 30
0.0
 11
48.46684698571272
 21
33.29336939714254
 31
0.0
  0
LINE
  5
725
330
1F
100
AcDbEntity
  8
SK2
  6
CONTINUOUS
370
25
 62
7
100
AcDbLine
 10
47.23060056445898
 20
34.9538798871082
 30
0.0
 11
48.82040037630599
 21
33.36408007526119
 31
0.0
  0
LINE
  5
726
330
1F
100
AcDbEntity
  8
SK2
  6
CONTINUOUS
370
25
 62
7
100
AcDbLine
 10
47.7609306503489
 20
34.84781386993022
 30
0.0
 11
49.17395376689926
 21
33.43479075337985
 31
0.0
  0
LINE
  5
727
330
1F
100
AcDbEntity
  8
SK2
  6
CONTINUOUS
370
25
 62
7
100
AcDbLine
 10
48.29126073623881
 20
34.74174785275224
 30
0.0
 11
49.52750715749254
 21
33.5055014314985
 31
0.0
  0
LINE
  5
728
330
1F
100
AcDbEntity
  8
SK2
  6
CONTINUOUS
370
25
 62
7
100
AcDbLine
 10
48.82159082212872
 20
34.63568183557425
 30
0.0
 11
49.88106054808581
 21
33.57621210961716
 31
0.0
  0
LINE
  5
729
330
1F
100
AcDbEntity
  8
SK2
  6
CONTINUOUS
370
25
 62
7
100
AcDbLine
 10
49.35192090801863
 20
34.52961581839627
 30
0.0
 11
50.23461393867909
 21
33.64692278773582
 31
0.0
  0
LINE
  5
72A
330
1F
100
AcDbEntity
  8
SK2
  6
CONTINUOUS
370
25
 62
7
100
AcDbLine
 10
49.88225099390854
 20
34.42354980121829
 30
0.0
 11
50.58816732927237
 21
33.71763346585447
 31
0.0
  0
LINE
  5
72B
330
1F
100
AcDbEntity
  8
SK2
  6
CONTINUOUS
370
25
 62
7
100
AcDbLine
 10
50.41258107979844
 20
34.31748378404031
 30
0.0
 11
50.94172071986563
 21
33.78834414397312
 31
0.0
  0
LINE
  5
72C
330
1F
100
AcDbEntity
  8
SK2
  6
CONTINUOUS
370
25
 62
7
100
AcDbLine
 10
50.94291116568836
 20
34.21141776686233
 30
0.0
 11
51.29527411045891
 21
33.85905482209178
 31
0.0
  0
LINE
  5
72D
330
1F
100
AcDbEntity
  8
SK2
  6
CONTINUOUS
370
25
 62
7
100
AcDbLine
 10
51.47324125157827
 20
34.10535174968435
 30
0.0
 11
51.64882750105218
 21
33.92976550021044
 31
0.0
  0
TEXT
  5
72E
330
1F
100
AcDbEntity
  8
SK2
  6
CONTINUOUS
370
25
 62
7
100
AcDbText
 10
23.08333333333334
 20
35.5
 30
0.0
 40
3.5
  1
52
 72
     1
 11
26.0
 21
35.5
 31
0.0
100
AcDbText
  0
LINE
  5
72F
330
1F
100
AcDbEntity
  8
2
  6
CONTINUOUS
370
25
 62
7
100
AcDbLine
 10
30.5
 20
-1.875
 30
0.0
 11
30.5
 21
-45.0
 31
0.0
  0
LINE
  5
730
330
1F
100
AcDbEntity
  8
2
  6
CONTINUOUS
370
25
 62
7
100
AcDbLine
 10
52.0
 20
-45.0
 30
0.0
 11
52.0
 21
0.0
 31
0.0
  0
LINE
  5
731
330
1F
100
AcDbEntity
  8
2
  6
CONTINUOUS
370
25
 62
7
100
AcDbLine
 10
23.5
 20
-44.0
 30
0.0
 11
59.0
 21
-44.0
 31
0.0
  0
LINE
  5
732
330
1F
100
AcDbEntity
  8
2
  6
CONTINUOUS
370
25
 62
7
100
AcDbLine
 10
30.5
 20
-44.0
 30
0.0
 11
25.5
 21
-45.0
 31
0.0
  0
LINE
  5
733
330
1F
100
AcDbEntity
  8
2
  6
CONTINUOUS
370
25
 62
7
100
AcDbLine
 10
25.5
 20
-45.0
 30
0.0
 11
25.5
 21
-43.0
 31
0.0
  0
LINE
  5
734
330
1F
100
AcDbEntity
  8
2
  6
CONTINUOUS
370
25
 62
7
100
AcDbLine
 10
25.5
 20
-43.0
 30
0.0
 11
30.5
 21
-44.0
 31
0.0
  0
LINE
  5
735
330
1F
100
AcDbEntity
  8
2
  6
CONTINUOUS
370
25
 62
7
100
AcDbLine
 10
30.41939337030088
 20
-44.01612132593982
 30
0.0
 11
30.44626224686726
 21
-43.98925244937345
 31
0.0
  0
LINE
  5
736
330
1F
100
AcDbEntity
  8
2
  6
CONTINUOUS
370
25
 62
7
100
AcDbLine
 10
29.88906328441097
 20
-44.12218734311781
 30
0.0
 11
30.09270885627398
 21
-43.91854177125479
 31
0.0
  0
LINE
  5
737
330
1F
100
AcDbEntity
  8
2
  6
CONTINUOUS
370
25
 62
7
100
AcDbLine
 10
29.35873319852105
 20
-44.22825336029579
 30
0.0
 11
29.73915546568071
 21
-43.84783109313614
 31
0.0
  0
LINE
  5
738
330
1F
100
AcDbEntity
  8
2
  6
CONTINUOUS
370
25
 62
7
100
AcDbLine
 10
28.82840311263114
 20
-44.33431937747378
 30
0.0
 11
29.38560207508743
 21
-43.77712041501749
 31
0.0
  0
LINE
  5
739
330
1F
100
AcDbEntity
  8
2
  6
CONTINUOUS
370
25
 62
7
100
AcDbLine
 10
28.29807302674123
 20
-44.44038539465176
 30
0.0
 11
29.03204868449415
 21
-43.70640973689883
 31
0.0
  0
LINE
  5
73A
330
1F
100
AcDbEntity
  8
2
  6
CONTINUOUS
370
25
 62
7
100
AcDbLine
 10
27.76774294085131
 20
-44.54645141182974
 30
0.0
 11
28.67849529390088
 21
-43.63569905878018
 31
0.0
  0
LINE
  5
73B
330
1F
100
AcDbEntity
  8
2
  6
CONTINUOUS
370
25
 62
7
100
AcDbLine
 10
27.2374128549614
 20
-44.65251742900772
 30
0.0
 11
28.3249419033076
 21
-43.56498838066152
 31
0.0
  0
LINE
  5
73C
330
1F
100
AcDbEntity
  8
2
  6
CONTINUOUS
370
25
 62
7
100
AcDbLine
 10
26.70708276907148
 20
-44.7585834461857
 30
0.0
 11
27.97138851271432
 21
-43.49427770254286
 31
0.0
  0
LINE
  5
73D
330
1F
100
AcDbEntity
  8
2
  6
CONTINUOUS
370
25
 62
7
100
AcDbLine
 10
26.17675268318157
 20
-44.86464946336369
 30
0.0
 11
27.61783512212104
 21
-43.42356702442421
 31
0.0
  0
LINE
  5
73E
330
1F
100
AcDbEntity
  8
2
  6
CONTINUOUS
370
25
 62
7
100
AcDbLine
 10
25.64642259729165
 20
-44.97071548054167
 30
0.0
 11
27.26428173152777
 21
-43.35285634630555
 31
0.0
  0
LINE
  5
73F
330
1F
100
AcDbEntity
  8
2
  6
CONTINUOUS
370
25
 62
7
100
AcDbLine
 10
25.5
 20
-44.6928740091214
 30
0.0
 11
26.9107283409345
 21
-43.2821456681869
 31
0.0
  0
LINE
  5
740
330
1F
100
AcDbEntity
  8
2
  6
CONTINUOUS
370
25
 62
7
100
AcDbLine
 10
25.5
 20
-44.26860994040947
 30
0.0
 11
26.55717495034122
 21
-43.21143499006824
 31
0.0
  0
LINE
  5
741
330
1F
100
AcDbEntity
  8
2
  6
CONTINUOUS
370
25
 62
7
100
AcDbLine
 10
25.5
 20
-43.84434587169753
 30
0.0
 11
26.20362155974794
 21
-43.14072431194959
 31
0.0
  0
LINE
  5
742
330
1F
100
AcDbEntity
  8
2
  6
CONTINUOUS
370
25
 62
7
100
AcDbLine
 10
25.5
 20
-43.42008180298561
 30
0.0
 11
25.85006816915467
 21
-43.07001363383093
 31
0.0
  0
LINE
  5
743
330
1F
100
AcDbEntity
  8
2
  6
CONTINUOUS
370
25
 62
7
100
AcDbLine
 10
25.5
 20
-44.96566621525724
 30
0.0
 11
25.52861148728563
 21
-44.99427770254287
 31
0.0
  0
LINE
  5
744
330
1F
100
AcDbEntity
  8
2
  6
CONTINUOUS
370
25
 62
7
100
AcDbLine
 10
25.5
 20
-44.5414021465453
 30
0.0
 11
25.88216487787891
 21
-44.92356702442422
 31
0.0
  0
LINE
  5
745
330
1F
100
AcDbEntity
  8
2
  6
CONTINUOUS
370
25
 62
7
100
AcDbLine
 10
25.5
 20
-44.11713807783337
 30
0.0
 11
26.23571826847219
 21
-44.85285634630556
 31
0.0
  0
LINE
  5
746
330
1F
100
AcDbEntity
  8
2
  6
CONTINUOUS
370
25
 62
7
100
AcDbLine
 10
25.5
 20
-43.69287400912144
 30
0.0
 11
26.58927165906546
 21
-44.78214566818691
 31
0.0
  0
LINE
  5
747
330
1F
100
AcDbEntity
  8
2
  6
CONTINUOUS
370
25
 62
7
100
AcDbLine
 10
25.5
 20
-43.26860994040951
 30
0.0
 11
26.94282504965874
 21
-44.71143499006826
 31
0.0
  0
LINE
  5
748
330
1F
100
AcDbEntity
  8
2
  6
CONTINUOUS
370
25
 62
7
100
AcDbLine
 10
25.69456766037802
 20
-43.0389135320756
 30
0.0
 11
27.29637844025202
 21
-44.6407243119496
 31
0.0
  0
LINE
  5
749
330
1F
100
AcDbEntity
  8
2
  6
CONTINUOUS
370
25
 62
7
100
AcDbLine
 10
26.22489774626793
 20
-43.14497954925358
 30
0.0
 11
27.64993183084529
 21
-44.57001363383095
 31
0.0
  0
LINE
  5
74A
330
1F
100
AcDbEntity
  8
2
  6
CONTINUOUS
370
25
 62
7
100
AcDbLine
 10
26.75522783215785
 20
-43.25104556643157
 30
0.0
 11
28.00348522143857
 21
-44.49930295571229
 31
0.0
  0
LINE
  5
74B
330
1F
100
AcDbEntity
  8
2
  6
CONTINUOUS
370
25
 62
7
100
AcDbLine
 10
27.28555791804776
 20
-43.35711158360955
 30
0.0
 11
28.35703861203184
 21
-44.42859227759363
 31
0.0
  0
LINE
  5
74C
330
1F
100
AcDbEntity
  8
2
  6
CONTINUOUS
370
25
 62
7
100
AcDbLine
 10
27.81588800393768
 20
-43.46317760078753
 30
0.0
 11
28.71059200262512
 21
-44.35788159947498
 31
0.0
  0
LINE
  5
74D
330
1F
100
AcDbEntity
  8
2
  6
CONTINUOUS
370
25
 62
7
100
AcDbLine
 10
28.34621808982759
 20
-43.56924361796552
 30
0.0
 11
29.0641453932184
 21
-44.28717092135632
 31
0.0
  0
LINE
  5
74E
330
1F
100
AcDbEntity
  8
2
  6
CONTINUOUS
370
25
 62
7
100
AcDbLine
 10
28.87654817571751
 20
-43.6753096351435
 30
0.0
 11
29.41769878381168
 21
-44.21646024323767
 31
0.0
  0
LINE
  5
74F
330
1F
100
AcDbEntity
  8
2
  6
CONTINUOUS
370
25
 62
7
100
AcDbLine
 10
29.40687826160742
 20
-43.78137565232148
 30
0.0
 11
29.77125217440495
 21
-44.14574956511901
 31
0.0
  0
LINE
  5
750
330
1F
100
AcDbEntity
  8
2
  6
CONTINUOUS
370
25
 62
7
100
AcDbLine
 10
29.93720834749734
 20
-43.88744166949947
 30
0.0
 11
30.12480556499823
 21
-44.07503888700035
 31
0.0
  0
LINE
  5
751
330
1F
100
AcDbEntity
  8
2
  6
CONTINUOUS
370
25
 62
7
100
AcDbLine
 10
30.46753843338725
 20
-43.99350768667745
 30
0.0
 11
30.4783589555915
 21
-44.0043282088817
 31
0.0
  0
LINE
  5
752
330
1F
100
AcDbEntity
  8
2
  6
CONTINUOUS
370
25
 62
7
100
AcDbLine
 10
52.0
 20
-44.0
 30
0.0
 11
57.0
 21
-43.0
 31
0.0
  0
LINE
  5
753
330
1F
100
AcDbEntity
  8
2
  6
CONTINUOUS
370
25
 62
7
100
AcDbLine
 10
57.0
 20
-43.0
 30
0.0
 11
57.0
 21
-45.0
 31
0.0
  0
LINE
  5
754
330
1F
100
AcDbEntity
  8
2
  6
CONTINUOUS
370
25
 62
7
100
AcDbLine
 10
57.0
 20
-45.0
 30
0.0
 11
52.0
 21
-44.0
 31
0.0
  0
LINE
  5
755
330
1F
100
AcDbEntity
  8
2
  6
CONTINUOUS
370
25
 62
7
100
AcDbLine
 10
56.98305881127079
 20
-44.99661176225416
 30
0.0
 11
57.0
 21
-44.97967057352497
 31
0.0
  0
LINE
  5
756
330
1F
100
AcDbEntity
  8
2
  6
CONTINUOUS
370
25
 62
7
100
AcDbLine
 10
56.62950542067752
 20
-44.9259010841355
 30
0.0
 11
57.0
 21
-44.55540650481304
 31
0.0
  0
LINE
  5
757
330
1F
100
AcDbEntity
  8
2
  6
CONTINUOUS
370
25
 62
7
100
AcDbLine
 10
56.27595203008424
 20
-44.85519040601685
 30
0.0
 11
57.0
 21
-44.1311424361011
 31
0.0
  0
LINE
  5
758
330
1F
100
AcDbEntity
  8
2
  6
CONTINUOUS
370
25
 62
7
100
AcDbLine
 10
55.92239863949098
 20
-44.7844797278982
 30
0.0
 11
57.0
 21
-43.70687836738918
 31
0.0
  0
LINE
  5
759
330
1F
100
AcDbEntity
  8
2
  6
CONTINUOUS
370
25
 62
7
100
AcDbLine
 10
55.56884524889769
 20
-44.71376904977954
 30
0.0
 11
57.0
 21
-43.28261429867725
 31
0.0
  0
LINE
  5
75A
330
1F
100
AcDbEntity
  8
2
  6
CONTINUOUS
370
25
 62
7
100
AcDbLine
 10
55.21529185830441
 20
-44.64305837166089
 30
0.0
 11
56.82293778745663
 21
-43.03541244250867
 31
0.0
  0
LINE
  5
75B
330
1F
100
AcDbEntity
  8
2
  6
CONTINUOUS
370
25
 62
7
100
AcDbLine
 10
54.86173846771115
 20
-44.57234769354223
 30
0.0
 11
56.29260770156673
 21
-43.14147845968665
 31
0.0
  0
LINE
  5
75C
330
1F
100
AcDbEntity
  8
2
  6
CONTINUOUS
370
25
 62
7
100
AcDbLine
 10
54.50818507711787
 20
-44.50163701542358
 30
0.0
 11
55.76227761567681
 21
-43.24754447686463
 31
0.0
  0
LINE
  5
75D
330
1F
100
AcDbEntity
  8
2
  6
CONTINUOUS
370
25
 62
7
100
AcDbLine
 10
54.15463168652459
 20
-44.43092633730492
 30
0.0
 11
55.23194752978689
 21
-43.35361049404262
 31
0.0
  0
LINE
  5
75E
330
1F
100
AcDbEntity
  8
2
  6
CONTINUOUS
370
25
 62
7
100
AcDbLine
 10
53.80107829593132
 20
-44.36021565918627
 30
0.0
 11
54.70161744389699
 21
-43.45967651122059
 31
0.0
  0
LINE
  5
75F
330
1F
100
AcDbEntity
  8
2
  6
CONTINUOUS
370
25
 62
7
100
AcDbLine
 10
53.44752490533804
 20
-44.28950498106761
 30
0.0
 11
54.17128735800708
 21
-43.56574252839858
 31
0.0
  0
LINE
  5
760
330
1F
100
AcDbEntity
  8
2
  6
CONTINUOUS
370
25
 62
7
100
AcDbLine
 10
53.09397151474477
 20
-44.21879430294895
 30
0.0
 11
53.64095727211716
 21
-43.67180854557657
 31
0.0
  0
LINE
  5
761
330
1F
100
AcDbEntity
  8
2
  6
CONTINUOUS
370
25
 62
7
100
AcDbLine
 10
52.74041812415149
 20
-44.1480836248303
 30
0.0
 11
53.11062718622723
 21
-43.77787456275455
 31
0.0
  0
LINE
  5
762
330
1F
100
AcDbEntity
  8
2
  6
CONTINUOUS
370
25
 62
7
100
AcDbLine
 10
52.38686473355821
 20
-44.07737294671165
 30
0.0
 11
52.58029710033732
 21
-43.88394057993253
 31
0.0
  0
LINE
  5
763
330
1F
100
AcDbEntity
  8
2
  6
CONTINUOUS
370
25
 62
7
100
AcDbLine
 10
52.03331134296494
 20
-44.00666226859299
 30
0.0
 11
52.04996701444742
 21
-43.99000659711051
 31
0.0
  0
LINE
  5
764
330
1F
100
AcDbEntity
  8
2
  6
CONTINUOUS
370
25
 62
7
100
AcDbLine
 10
52.06540805168912
 20
-43.98691838966218
 30
0.0
 11
52.09811207753368
 21
-44.01962241550673
 31
0.0
  0
LINE
  5
765
330
1F
100
AcDbEntity
  8
2
  6
CONTINUOUS
370
25
 62
7
100
AcDbLine
 10
52.4189614422824
 20
-43.91620771154352
 30
0.0
 11
52.62844216342359
 21
-44.12568843268472
 31
0.0
  0
LINE
  5
766
330
1F
100
AcDbEntity
  8
2
  6
CONTINUOUS
370
25
 62
7
100
AcDbLine
 10
52.77251483287567
 20
-43.84549703342486
 30
0.0
 11
53.15877224931351
 21
-44.23175444986271
 31
0.0
  0
LINE
  5
767
330
1F
100
AcDbEntity
  8
2
  6
CONTINUOUS
370
25
 62
7
100
AcDbLine
 10
53.12606822346895
 20
-43.77478635530621
 30
0.0
 11
53.68910233520342
 21
-44.33782046704069
 31
0.0
  0
LINE
  5
768
330
1F
100
AcDbEntity
  8
2
  6
CONTINUOUS
370
25
 62
7
100
AcDbLine
 10
53.47962161406222
 20
-43.70407567718756
 30
0.0
 11
54.21943242109334
 21
-44.44388648421867
 31
0.0
  0
LINE
  5
769
330
1F
100
AcDbEntity
  8
2
  6
CONTINUOUS
370
25
 62
7
100
AcDbLine
 10
53.8331750046555
 20
-43.6333649990689
 30
0.0
 11
54.74976250698325
 21
-44.54995250139665
 31
0.0
  0
LINE
  5
76A
330
1F
100
AcDbEntity
  8
2
  6
CONTINUOUS
370
25
 62
7
100
AcDbLine
 10
54.18672839524878
 20
-43.56265432095024
 30
0.0
 11
55.28009259287317
 21
-44.65601851857463
 31
0.0
  0
LINE
  5
76B
330
1F
100
AcDbEntity
  8
2
  6
CONTINUOUS
370
25
 62
7
100
AcDbLine
 10
54.54028178584205
 20
-43.49194364283159
 30
0.0
 11
55.81042267876308
 21
-44.76208453575262
 31
0.0
  0
LINE
  5
76C
330
1F
100
AcDbEntity
  8
2
  6
CONTINUOUS
370
25
 62
7
100
AcDbLine
 10
54.89383517643533
 20
-43.42123296471293
 30
0.0
 11
56.340752764653
 21
-44.8681505529306
 31
0.0
  0
LINE
  5
76D
330
1F
100
AcDbEntity
  8
2
  6
CONTINUOUS
370
25
 62
7
100
AcDbLine
 10
55.24738856702861
 20
-43.35052228659428
 30
0.0
 11
56.87108285054291
 21
-44.97421657010858
 31
0.0
  0
LINE
  5
76E
330
1F
100
AcDbEntity
  8
2
  6
CONTINUOUS
370
25
 62
7
100
AcDbLine
 10
55.60094195762188
 20
-43.27981160847563
 30
0.0
 11
57.0
 21
-44.67886965085374
 31
0.0
  0
LINE
  5
76F
330
1F
100
AcDbEntity
  8
2
  6
CONTINUOUS
370
25
 62
7
100
AcDbLine
 10
55.95449534821515
 20
-43.20910093035697
 30
0.0
 11
57.0
 21
-44.25460558214181
 31
0.0
  0
LINE
  5
770
330
1F
100
AcDbEntity
  8
2
  6
CONTINUOUS
370
25
 62
7
100
AcDbLine
 10
56.30804873880843
 20
-43.13839025223831
 30
0.0
 11
57.0
 21
-43.83034151342988
 31
0.0
  0
LINE
  5
771
330
1F
100
AcDbEntity
  8
2
  6
CONTINUOUS
370
25
 62
7
100
AcDbLine
 10
56.66160212940171
 20
-43.06767957411966
 30
0.0
 11
57.0
 21
-43.40607744471795
 31
0.0
  0
TEXT
  5
772
330
1F
100
AcDbEntity
  8
2
  6
CONTINUOUS
370
25
 62
7
100
AcDbText
 10
36.58333333333334
 20
-42.5
 30
0.0
 40
3.5
  1
21.5
 72
     1
 11
41.25
 21
-42.5
 31
0.0
100
AcDbText
  0
LINE
  5
773
330
1F
100
AcDbEntity
  8
4
  6
LONGDASH_DASH
370
25
 62
2
100
AcDbLine
 10
30.0
 20
0.0
 30
0.0
 11
52.0
 21
0.0
 31
0.0
  0
LINE
  5
774
330
1F
100
AcDbEntity
  8
SK4
  6
LONGDASH_DASH
370
25
 62
2
100
AcDbLine
 10
-6.0
 20
0.0
 30
0.0
 11
58.0
 21
0.0
 31
0.0
  0
LINE
  5
775
330
1F
100
AcDbEntity
  8
2
  6
CONTINUOUS
370
25
 62
7
100
AcDbLine
 10
52.0
 20
0.0
 30
0.0
 11
60.87498349655469
 21
19.03246352776965
 31
0.0
  0
LINE
  5
776
330
1F
100
AcDbEntity
  8
2
  6
CONTINUOUS
370
25
 62
7
100
AcDbLine
 10
52.0
 20
0.0
 30
0.0
 11
60.87498349655469
 21
-19.03246352776965
 31
0.0
  0
ARC
  5
777
330
1F
100
AcDbEntity
  8
2
  6
CONTINUOUS
370
25
 62
7
100
AcDbCircle
 10
52.00000000000001
 20
-0.0000000000000017
 30
0.0
 40
19.99999999999999
100
AcDbArc
 50
295.0000000000001
 51
65.00000000000001
  0
LINE
  5
778
330
1F
100
AcDbEntity
  8
2
  6
CONTINUOUS
370
25
 62
7
100
AcDbLine
 10
60.452365234814
 20
18.12615574073299
 30
0.0
 11
65.21681775672374
 21
16.30956768438455
 31
0.0
  0
LINE
  5
779
330
1F
100
AcDbEntity
  8
2
  6
CONTINUOUS
370
25
 62
7
100
AcDbLine
 10
65.21681775672374
 20
16.30956768438455
 30
0.0
 11
64.15163369490438
 21
14.61682348798453
 31
0.0
  0
LINE
  5
77A
330
1F
100
AcDbEntity
  8
2
  6
CONTINUOUS
370
25
 62
7
100
AcDbLine
 10
64.15163369490438
 20
14.61682348798453
 30
0.0
 11
60.452365234814
 21
18.12615574073299
 31
0.0
  0
LINE
  5
77B
330
1F
100
AcDbEntity
  8
2
  6
CONTINUOUS
370
25
 62
7
100
AcDbLine
 10
63.99071543133103
 20
14.76947952214551
 30
0.0
 11
64.68387646454113
 21
15.46264055535562
 31
0.0
  0
LINE
  5
77C
330
1F
100
AcDbEntity
  8
2
  6
CONTINUOUS
370
25
 62
7
100
AcDbLine
 10
63.7729940245481
 20
14.97602218407452
 30
0.0
 11
65.13698001774068
 21
16.34000817726711
 31
0.0
  0
LINE
  5
77D
330
1F
100
AcDbEntity
  8
2
  6
CONTINUOUS
370
25
 62
7
100
AcDbLine
 10
63.55527261776518
 20
15.18256484600352
 30
0.0
 11
64.82982707010376
 21
16.45711929834211
 31
0.0
  0
LINE
  5
77E
330
1F
100
AcDbEntity
  8
2
  6
CONTINUOUS
370
25
 62
7
100
AcDbLine
 10
63.33755121098226
 20
15.38910750793253
 30
0.0
 11
64.52267412246684
 21
16.57423041941711
 31
0.0
  0
LINE
  5
77F
330
1F
100
AcDbEntity
  8
2
  6
CONTINUOUS
370
25
 62
7
100
AcDbLine
 10
63.11982980419933
 20
15.59565016986154
 30
0.0
 11
64.2155211748299
 21
16.69134154049211
 31
0.0
  0
LINE
  5
780
330
1F
100
AcDbEntity
  8
2
  6
CONTINUOUS
370
25
 62
7
100
AcDbLine
 10
62.90210839741641
 20
15.80219283179054
 30
0.0
 11
63.90836822719297
 21
16.80845266156711
 31
0.0
  0
LINE
  5
781
330
1F
100
AcDbEntity
  8
2
  6
CONTINUOUS
370
25
 62
7
100
AcDbLine
 10
62.68438699063348
 20
16.00873549371954
 30
0.0
 11
63.60121527955605
 21
16.92556378264212
 31
0.0
  0
LINE
  5
782
330
1F
100
AcDbEntity
  8
2
  6
CONTINUOUS
370
25
 62
7
100
AcDbLine
 10
62.46666558385056
 20
16.21527815564855
 30
0.0
 11
63.29406233191911
 21
17.04267490371711
 31
0.0
  0
LINE
  5
783
330
1F
100
AcDbEntity
  8
2
  6
CONTINUOUS
370
25
 62
7
100
AcDbLine
 10
62.24894417706764
 20
16.42182081757756
 30
0.0
 11
62.98690938428219
 21
17.15978602479211
 31
0.0
  0
LINE
  5
784
330
1F
100
AcDbEntity
  8
2
  6
CONTINUOUS
370
25
 62
7
100
AcDbLine
 10
62.03122277028472
 20
16.62836347950657
 30
0.0
 11
62.67975643664526
 21
17.27689714586712
 31
0.0
  0
LINE
  5
785
330
1F
100
AcDbEntity
  8
2
  6
CONTINUOUS
370
25
 62
7
100
AcDbLine
 10
61.8135013635018
 20
16.83490614143557
 30
0.0
 11
62.37260348900833
 21
17.39400826694211
 31
0.0
  0
LINE
  5
786
330
1F
100
AcDbEntity
  8
2
  6
CONTINUOUS
370
25
 62
7
100
AcDbLine
 10
61.59577995671887
 20
17.04144880336458
 30
0.0
 11
62.0654505413714
 21
17.51111938801711
 31
0.0
  0
LINE
  5
787
330
1F
100
AcDbEntity
  8
2
  6
CONTINUOUS
370
25
 62
7
100
AcDbLine
 10
61.37805854993595
 20
17.24799146529359
 30
0.0
 11
61.75829759373447
 21
17.62823050909211
 31
0.0
  0
LINE
  5
788
330
1F
100
AcDbEntity
  8
2
  6
CONTINUOUS
370
25
 62
7
100
AcDbLine
 10
61.16033714315303
 20
17.45453412722259
 30
0.0
 11
61.45114464609755
 21
17.74534163016711
 31
0.0
  0
LINE
  5
789
330
1F
100
AcDbEntity
  8
2
  6
CONTINUOUS
370
25
 62
7
100
AcDbLine
 10
60.9426157363701
 20
17.6610767891516
 30
0.0
 11
61.14399169846062
 21
17.86245275124211
 31
0.0
  0
LINE
  5
78A
330
1F
100
AcDbEntity
  8
2
  6
CONTINUOUS
370
25
 62
7
100
AcDbLine
 10
60.72489432958718
 20
17.8676194510806
 30
0.0
 11
60.83683875082369
 21
17.97956387231712
 31
0.0
  0
LINE
  5
78B
330
1F
100
AcDbEntity
  8
2
  6
CONTINUOUS
370
25
 62
7
100
AcDbLine
 10
60.50717292280426
 20
18.07416211300961
 30
0.0
 11
60.52968580318677
 21
18.09667499339212
 31
0.0
  0
LINE
  5
78C
330
1F
100
AcDbEntity
  8
2
  6
CONTINUOUS
370
25
 62
7
100
AcDbLine
 10
60.79476042773376
 20
17.99560747413806
 30
0.0
 11
64.16009618792756
 21
14.63027171394428
 31
0.0
  0
LINE
  5
78D
330
1F
100
AcDbEntity
  8
2
  6
CONTINUOUS
370
25
 62
7
100
AcDbLine
 10
61.48047241881928
 20
17.73415955176448
 30
0.0
 11
64.32395807325679
 21
14.89067389732698
 31
0.0
  0
LINE
  5
78E
330
1F
100
AcDbEntity
  8
2
  6
CONTINUOUS
370
25
 62
7
100
AcDbLine
 10
62.16618440990477
 20
17.47271162939091
 30
0.0
 11
64.48781995858602
 21
15.15107608070968
 31
0.0
  0
LINE
  5
78F
330
1F
100
AcDbEntity
  8
2
  6
CONTINUOUS
370
25
 62
7
100
AcDbLine
 10
62.85189640099028
 20
17.21126370701734
 30
0.0
 11
64.65168184391524
 21
15.41147826409238
 31
0.0
  0
LINE
  5
790
330
1F
100
AcDbEntity
  8
2
  6
CONTINUOUS
370
25
 62
7
100
AcDbLine
 10
63.53760839207579
 20
16.94981578464376
 30
0.0
 11
64.81554372924448
 21
15.67188044747508
 31
0.0
  0
LINE
  5
791
330
1F
100
AcDbEntity
  8
2
  6
CONTINUOUS
370
25
 62
7
100
AcDbLine
 10
64.22332038316128
 20
16.6883678622702
 30
0.0
 11
64.97940561457371
 21
15.93228263085778
 31
0.0
  0
LINE
  5
792
330
1F
100
AcDbEntity
  8
2
  6
CONTINUOUS
370
25
 62
7
100
AcDbLine
 10
64.90903237424679
 20
16.42691993989662
 30
0.0
 11
65.14326749990293
 21
16.19268481424048
 31
0.0
  0
LINE
  5
793
330
1F
100
AcDbEntity
  8
2
  6
CONTINUOUS
370
25
 62
7
100
AcDbLine
 10
60.45236523481398
 20
-18.126155740733
 30
0.0
 11
64.15163369490435
 21
-14.61682348798453
 31
0.0
  0
LINE
  5
794
330
1F
100
AcDbEntity
  8
2
  6
CONTINUOUS
370
25
 62
7
100
AcDbLine
 10
64.15163369490435
 20
-14.61682348798453
 30
0.0
 11
65.21681775672374
 21
-16.30956768438455
 31
0.0
  0
LINE
  5
795
330
1F
100
AcDbEntity
  8
2
  6
CONTINUOUS
370
25
 62
7
100
AcDbLine
 10
65.21681775672374
 20
-16.30956768438455
 30
0.0
 11
60.45236523481398
 21
-18.126155740733
 31
0.0
  0
LINE
  5
796
330
1F
100
AcDbEntity
  8
2
  6
CONTINUOUS
370
25
 62
7
100
AcDbLine
 10
64.67367670908337
 20
-16.51665622929476
 30
0.0
 11
65.08702548646585
 21
-16.10330745191229
 31
0.0
  0
LINE
  5
797
330
1F
100
AcDbEntity
  8
2
  6
CONTINUOUS
370
25
 62
7
100
AcDbLine
 10
63.98796471799787
 20
-16.77810415166833
 30
0.0
 11
64.92316360113662
 21
-15.84290526852958
 31
0.0
  0
LINE
  5
798
330
1F
100
AcDbEntity
  8
2
  6
CONTINUOUS
370
25
 62
7
100
AcDbLine
 10
63.30225272691236
 20
-17.03955207404191
 30
0.0
 11
64.7593017158074
 21
-15.58250308514688
 31
0.0
  0
LINE
  5
799
330
1F
100
AcDbEntity
  8
2
  6
CONTINUOUS
370
25
 62
7
100
AcDbLine
 10
62.61654073582687
 20
-17.30099999641548
 30
0.0
 11
64.59543983047816
 21
-15.32210090176419
 31
0.0
  0
LINE
  5
79A
330
1F
100
AcDbEntity
  8
2
  6
CONTINUOUS
370
25
 62
7
100
AcDbLine
 10
61.93082874474138
 20
-17.56244791878905
 30
0.0
 11
64.43157794514894
 21
-15.06169871838148
 31
0.0
  0
LINE
  5
79B
330
1F
100
AcDbEntity
  8
2
  6
CONTINUOUS
370
25
 62
7
100
AcDbLine
 10
61.24511675365586
 20
-17.82389584116263
 30
0.0
 11
64.26771605981969
 21
-14.80129653499878
 31
0.0
  0
LINE
  5
79C
330
1F
100
AcDbEntity
  8
2
  6
CONTINUOUS
370
25
 62
7
100
AcDbLine
 10
60.55940476257037
 20
-18.0853437635362
 30
0.0
 11
61.74223772622924
 21
-16.90251079987732
 31
0.0
  0
LINE
  5
79D
330
1F
100
AcDbEntity
  8
2
  6
CONTINUOUS
370
25
 62
7
100
AcDbLine
 10
60.65851379114935
 20
-17.93059172979136
 30
0.0
 11
60.74319165223022
 21
-18.01526959087224
 31
0.0
  0
LINE
  5
79E
330
1F
100
AcDbEntity
  8
2
  6
CONTINUOUS
370
25
 62
7
100
AcDbLine
 10
60.87623519793226
 20
-17.72404906786235
 30
0.0
 11
61.05034459986716
 21
-17.89815846979725
 31
0.0
  0
LINE
  5
79F
330
1F
100
AcDbEntity
  8
2
  6
CONTINUOUS
370
25
 62
7
100
AcDbLine
 10
61.09395660471519
 20
-17.51750640593334
 30
0.0
 11
61.35749754750409
 21
-17.78104734872225
 31
0.0
  0
LINE
  5
7A0
330
1F
100
AcDbEntity
  8
2
  6
CONTINUOUS
370
25
 62
7
100
AcDbLine
 10
61.31167801149811
 20
-17.31096374400434
 30
0.0
 11
61.66465049514102
 21
-17.66393622764724
 31
0.0
  0
LINE
  5
7A1
330
1F
100
AcDbEntity
  8
2
  6
CONTINUOUS
370
25
 62
7
100
AcDbLine
 10
61.52939941828103
 20
-17.10442108207533
 30
0.0
 11
61.97180344277794
 21
-17.54682510657224
 31
0.0
  0
LINE
  5
7A2
330
1F
100
AcDbEntity
  8
2
  6
CONTINUOUS
370
25
 62
7
100
AcDbLine
 10
61.74712082506396
 20
-16.89787842014633
 30
0.0
 11
62.27895639041488
 21
-17.42971398549724
 31
0.0
  0
LINE
  5
7A3
330
1F
100
AcDbEntity
  8
2
  6
CONTINUOUS
370
25
 62
7
100
AcDbLine
 10
61.96484223184688
 20
-16.69133575821732
 30
0.0
 11
62.58610933805181
 21
-17.31260286442225
 31
0.0
  0
LINE
  5
7A4
330
1F
100
AcDbEntity
  8
2
  6
CONTINUOUS
370
25
 62
7
100
AcDbLine
 10
62.1825636386298
 20
-16.48479309628831
 30
0.0
 11
62.89326228568873
 21
-17.19549174334723
 31
0.0
  0
LINE
  5
7A5
330
1F
100
AcDbEntity
  8
2
  6
CONTINUOUS
370
25
 62
7
100
AcDbLine
 10
62.40028504541272
 20
-16.2782504343593
 30
0.0
 11
63.20041523332566
 21
-17.07838062227224
 31
0.0
  0
LINE
  5
7A6
330
1F
100
AcDbEntity
  8
2
  6
CONTINUOUS
370
25
 62
7
100
AcDbLine
 10
62.61800645219565
 20
-16.0717077724303
 30
0.0
 11
63.50756818096259
 21
-16.96126950119724
 31
0.0
  0
LINE
  5
7A7
330
1F
100
AcDbEntity
  8
2
  6
CONTINUOUS
370
25
 62
7
100
AcDbLine
 10
62.83572785897857
 20
-15.86516511050129
 30
0.0
 11
63.81472112859952
 21
-16.84415838012223
 31
0.0
  0
LINE
  5
7A8
330
1F
100
AcDbEntity
  8
2
  6
CONTINUOUS
370
25
 62
7
100
AcDbLine
 10
63.0534492657615
 20
-15.6586224485723
 30
0.0
 11
64.12187407623645
 21
-16.72704725904723
 31
0.0
  0
LINE
  5
7A9
330
1F
100
AcDbEntity
  8
2
  6
CONTINUOUS
370
25
 62
7
100
AcDbLine
 10
63.27117067254442
 20
-15.45207978664328
 30
0.0
 11
64.42902702387337
 21
-16.60993613797223
 31
0.0
  0
LINE
  5
7AA
330
1F
100
AcDbEntity
  8
2
  6
CONTINUOUS
370
25
 62
7
100
AcDbLine
 10
63.48889207932734
 20
-15.24553712471428
 30
0.0
 11
64.7361799715103
 21
-16.49282501689723
 31
0.0
  0
LINE
  5
7AB
330
1F
100
AcDbEntity
  8
2
  6
CONTINUOUS
370
25
 62
7
100
AcDbLine
 10
63.70661348611026
 20
-15.03899446278527
 30
0.0
 11
65.04333291914725
 21
-16.37571389582224
 31
0.0
  0
LINE
  5
7AC
330
1F
100
AcDbEntity
  8
2
  6
CONTINUOUS
370
25
 62
7
100
AcDbLine
 10
63.92433489289319
 20
-14.83245180085625
 30
0.0
 11
64.90343241079341
 21
-15.81154931875648
 31
0.0
  0
LINE
  5
7AD
330
1F
100
AcDbEntity
  8
2
  6
CONTINUOUS
370
25
 62
7
100
AcDbLine
 10
64.14205629967611
 20
-14.62590913892726
 30
0.0
 11
64.18331126368363
 21
-14.66716410293478
 31
0.0
  0
TEXT
  5
7AE
330
1F
100
AcDbEntity
  8
2
  6
CONTINUOUS
370
25
 62
7
100
AcDbText
 10
69.5
 20
-4.958333333333333
 30
0.0
 40
3.5
  1
130°
 50
90.0
 72
     1
 11
69.5
 21
0.0
 31
0.0
100
AcDbText
  0
LINE
  5
7AF
330
1F
100
AcDbEntity
  8
SK1
  6
CONTINUOUS
370
50
 62
4
100
AcDbLine
 10
30.0
 20
0.0
 30
0.0
 11
32.625
 21
0.0
 31
0.0
  0
LINE
  5
7B0
330
1F
100
AcDbEntity
  8
SK1
  6
CONTINUOUS
370
50
 62
4
100
AcDbLine
 10
30.0
 20
0.0
 30
0.0
 11
30.0
 21
2.625
 31
0.0
  0
ARC
  5
7B1
330
1F
100
AcDbEntity
  8
SK1
  6
CONTINUOUS
370
50
 62
4
100
AcDbCircle
 10
30.0
 20
0.0
 30
0.0
 40
2.625
100
AcDbArc
 50
0.0
 51
90.0
  0
LINE
  5
7B2
330
1F
100
AcDbEntity
  8
SK1
  6
CONTINUOUS
370
50
 62
4
100
AcDbLine
 10
30.0
 20
0.0
 30
0.0
 11
27.375
 21
0.0
 31
0.0
  0
ARC
  5
7B3
330
1F
100
AcDbEntity
  8
SK1
  6
CONTINUOUS
370
50
 62
4
100
AcDbCircle
 10
30.0
 20
0.0
 30
0.0
 40
2.625
100
AcDbArc
 50
180.0
 51
270.0
  0
LINE
  5
7B4
330
1F
100
AcDbEntity
  8
SK1
  6
CONTINUOUS
370
50
 62
4
100
AcDbLine
 10
30.0
 20
-2.625
 30
0.0
 11
30.0
 21
0.0
 31
0.0
  0
ARC
  5
7B5
330
1F
100
AcDbEntity
  8
SK1
  6
CONTINUOUS
370
50
 62
4
100
AcDbCircle
 10
30.0
 20
0.0
 30
0.0
 40
2.625
100
AcDbArc
 50
270.0
 51
0.0
  0
ARC
  5
7B6
330
1F
100
AcDbEntity
  8
SK1
  6
CONTINUOUS
370
50
 62
4
100
AcDbCircle
 10
30.0
 20
0.0
 30
0.0
 40
2.625
100
AcDbArc
 50
90.0
 51
180.0
  0
LINE
  5
7B7
330
1F
100
AcDbEntity
  8
SK1
  6
CONTINUOUS
370
50
 62
4
100
AcDbLine
 10
29.66575722192681
 20
-2.60347067499975
 30
0.0
 11
30.0
 21
-2.269227896926564
 31
0.0
  0
LINE
  5
7B8
330
1F
100
AcDbEntity
  8
SK1
  6
CONTINUOUS
370
50
 62
4
100
AcDbLine
 10
32.26922789692657
 20
0.0
 30
0.0
 11
32.60347067499975
 21
0.3342427780731851
 31
0.0
  0
LINE
  5
7B9
330
1F
100
AcDbEntity
  8
SK1
  6
CONTINUOUS
370
50
 62
4
100
AcDbLine
 10
29.35395391214687
 20
-2.544042924656761
 30
0.0
 11
30.0
 21
-1.897996836803626
 31
0.0
  0
LINE
  5
7BA
330
1F
100
AcDbEntity
  8
SK1
  6
CONTINUOUS
370
50
 62
4
100
AcDbLine
 10
31.89799683680363
 20
0.0
 30
0.0
 11
32.54404292465676
 21
0.6460460878531347
 31
0.0
  0
LINE
  5
7BB
330
1F
100
AcDbEntity
  8
SK1
  6
CONTINUOUS
370
50
 62
4
100
AcDbLine
 10
29.07222348891575
 20
-2.454542287764935
 30
0.0
 11
30.0
 21
-1.526765776680689
 31
0.0
  0
LINE
  5
7BC
330
1F
100
AcDbEntity
  8
SK1
  6
CONTINUOUS
370
50
 62
4
100
AcDbLine
 10
31.52676577668069
 20
0.0
 30
0.0
 11
32.45454228776494
 21
0.9277765110842457
 31
0.0
  0
LINE
  5
7BD
330
1F
100
AcDbEntity
  8
SK1
  6
CONTINUOUS
370
50
 62
4
100
AcDbLine
 10
28.81478120678253
 20
-2.340753509775221
 30
0.0
 11
30.0
 21
-1.155534716557751
 31
0.0
  0
LINE
  5
7BE
330
1F
100
AcDbEntity
  8
SK1
  6
CONTINUOUS
370
50
 62
4
100
AcDbLine
 10
31.15553471655775
 20
0.0
 30
0.0
 11
32.34075350977522
 21
1.185218793217471
 31
0.0
  0
LINE
  5
7BF
330
1F
100
AcDbEntity
  8
SK1
  6
CONTINUOUS
370
50
 62
4
100
AcDbLine
 10
28.57826543845547
 20
-2.206038217979337
 30
0.0
 11
30.0
 21
-0.7843036564348136
 31
0.0
  0
LINE
  5
7C0
330
1F
100
AcDbEntity
  8
SK1
  6
CONTINUOUS
370
50
 62
4
100
AcDbLine
 10
30.78430365643482
 20
0.0
 30
0.0
 11
32.20603821797934
 21
1.421734561544524
 31
0.0
  0
LINE
  5
7C1
330
1F
100
AcDbEntity
  8
SK1
  6
CONTINUOUS
370
50
 62
4
100
AcDbLine
 10
28.3626431117109
 20
-2.050429484600978
 30
0.0
 11
30.0
 21
-0.413072596311876
 31
0.0
  0
LINE
  5
7C2
330
1F
100
AcDbEntity
  8
SK1
  6
CONTINUOUS
370
50
 62
4
100
AcDbLine
 10
30.41307259631188
 20
0.0
 30
0.0
 11
32.05042948460098
 21
1.637356888289101
 31
0.0
  0
LINE
  5
7C3
330
1F
100
AcDbEntity
  8
SK1
  6
CONTINUOUS
370
50
 62
4
100
AcDbLine
 10
28.16568136807246
 20
-1.876160168116476
 30
0.0
 11
30.0
 21
-0.0418415361889384
 31
0.0
  0
LINE
  5
7C4
330
1F
100
AcDbEntity
  8
SK1
  6
CONTINUOUS
370
50
 62
4
100
AcDbLine
 10
30.04184153618894
 20
0.0
 30
0.0
 11
31.87616016811647
 21
1.834318631927537
 31
0.0
  0
LINE
  5
7C5
330
1F
100
AcDbEntity
  8
SK1
  6
CONTINUOUS
370
50
 62
4
100
AcDbLine
 10
27.98675942477632
 20
-1.683851051289679
 30
0.0
 11
29.670610476066
 21
0.0
 31
0.0
  0
LINE
  5
7C6
330
1F
100
AcDbEntity
  8
SK1
  6
CONTINUOUS
370
50
 62
4
100
AcDbLine
 10
30.0
 20
0.3293895239339992
 30
0.0
 11
31.68385105128968
 21
2.013240575223679
 31
0.0
  0
LINE
  5
7C7
330
1F
100
AcDbEntity
  8
SK1
  6
CONTINUOUS
370
50
 62
4
100
AcDbLine
 10
27.82782161830506
 20
-1.471557797638
 30
0.0
 11
29.29937941594306
 21
0.0
 31
0.0
  0
LINE
  5
7C8
330
1F
100
AcDbEntity
  8
SK1
  6
CONTINUOUS
370
50
 62
4
100
AcDbLine
 10
30.0
 20
0.7006205840569368
 30
0.0
 11
31.471557797638
 21
2.172178381694937
 31
0.0
  0
LINE
  5
7C9
330
1F
100
AcDbEntity
  8
SK1
  6
CONTINUOUS
370
50
 62
4
100
AcDbLine
 10
27.68749288718529
 20
-1.240655468634837
 30
0.0
 11
28.92814835582013
 21
0.0
 31
0.0
  0
LINE
  5
7CA
330
1F
100
AcDbEntity
  8
SK1
  6
CONTINUOUS
370
50
 62
4
100
AcDbLine
 10
30.0
 20
1.071851644179874
 30
0.0
 11
31.24065546863484
 21
2.312507112814711
 31
0.0
  0
LINE
  5
7CB
330
1F
100
AcDbEntity
  8
SK1
  6
CONTINUOUS
370
50
 62
4
100
AcDbLine
 10
27.56877644288388
 20
-0.9881408528133115
 30
0.0
 11
28.55691729569719
 21
0.0
 31
0.0
  0
LINE
  5
7CC
330
1F
100
AcDbEntity
  8
SK1
  6
CONTINUOUS
370
50
 62
4
100
AcDbLine
 10
30.0
 20
1.443082704302812
 30
0.0
 11
30.98814085281331
 21
2.431223557116124
 31
0.0
  0
LINE
  5
7CD
330
1F
100
AcDbEntity
  8
SK1
  6
CONTINUOUS
370
50
 62
4
100
AcDbLine
 10
27.47444482033456
 20
-0.7112414152396886
 30
0.0
 11
28.18568623557425
 21
0.0
 31
0.0
  0
LINE
  5
7CE
330
1F
100
AcDbEntity
  8
SK1
  6
CONTINUOUS
370
50
 62
4
100
AcDbLine
 10
30.0
 20
1.81431376442575
 30
0.0
 11
30.71124141523969
 21
2.525555179665439
 31
0.0
  0
LINE
  5
7CF
330
1F
100
AcDbEntity
  8
SK1
  6
CONTINUOUS
370
50
 62
4
100
AcDbLine
 10
27.40797120571085
 20
-0.4064839697404632
 30
0.0
 11
27.81445517545131
 21
0.0
 31
0.0
  0
LINE
  5
7D0
330
1F
100
AcDbEntity
  8
SK1
  6
CONTINUOUS
370
50
 62
4
100
AcDbLine
 10
30.0
 20
2.185544824548687
 30
0.0
 11
30.40648396974046
 21
2.59202879428915
 31
0.0
  0
LINE
  5
7D1
330
1F
100
AcDbEntity
  8
SK1
  6
CONTINUOUS
370
50
 62
4
100
AcDbLine
 10
27.37707870331547
 20
-0.0661454120129097
 30
0.0
 11
27.44322411532838
 21
0.0
 31
0.0
  0
LINE
  5
7D2
330
1F
100
AcDbEntity
  8
SK1
  6
CONTINUOUS
370
50
 62
4
100
AcDbLine
 10
30.0
 20
2.556775884671625
 30
0.0
 11
30.06614541201291
 21
2.622921296684535
 31
0.0
  0
LINE
  5
7D3
330
1F
100
AcDbEntity
  8
SK1
  6
CONTINUOUS
370
50
 62
4
100
AcDbLine
 10
27.54579652643623
 20
-0.9287176037316112
 30
0.0
 11
29.07128239626839
 21
-2.454203473563768
 31
0.0
  0
LINE
  5
7D4
330
1F
100
AcDbEntity
  8
SK1
  6
CONTINUOUS
370
50
 62
4
100
AcDbLine
 10
27.41045104563307
 20
-0.4221410628055069
 30
0.0
 11
29.5778589371945
 21
-2.589548954366935
 31
0.0
  0
LINE
  5
7D5
330
1F
100
AcDbEntity
  8
SK1
  6
CONTINUOUS
370
50
 62
4
100
AcDbLine
 10
27.37550158008622
 20
-0.0159605371357268
 30
0.0
 11
29.98403946286428
 21
-2.624498419913778
 31
0.0
  0
LINE
  5
7D6
330
1F
100
AcDbEntity
  8
SK1
  6
CONTINUOUS
370
50
 62
4
100
AcDbLine
 10
27.73077210307343
 20
0.0
 30
0.0
 11
30.0
 21
-2.269227896926564
 31
0.0
  0
LINE
  5
7D7
330
1F
100
AcDbEntity
  8
SK1
  6
CONTINUOUS
370
50
 62
4
100
AcDbLine
 10
28.10200316319637
 20
0.0
 30
0.0
 11
30.0
 21
-1.897996836803626
 31
0.0
  0
LINE
  5
7D8
330
1F
100
AcDbEntity
  8
SK1
  6
CONTINUOUS
370
50
 62
4
100
AcDbLine
 10
28.47323422331931
 20
0.0
 30
0.0
 11
30.0
 21
-1.526765776680689
 31
0.0
  0
LINE
  5
7D9
330
1F
100
AcDbEntity
  8
SK1
  6
CONTINUOUS
370
50
 62
4
100
AcDbLine
 10
28.84446528344225
 20
0.0
 30
0.0
 11
30.0
 21
-1.155534716557752
 31
0.0
  0
LINE
  5
7DA
330
1F
100
AcDbEntity
  8
SK1
  6
CONTINUOUS
370
50
 62
4
100
AcDbLine
 10
29.21569634356518
 20
0.0
 30
0.0
 11
30.0
 21
-0.7843036564348145
 31
0.0
  0
LINE
  5
7DB
330
1F
100
AcDbEntity
  8
SK1
  6
CONTINUOUS
370
50
 62
4
100
AcDbLine
 10
29.58692740368812
 20
0.0
 30
0.0
 11
30.0
 21
-0.4130725963118769
 31
0.0
  0
LINE
  5
7DC
330
1F
100
AcDbEntity
  8
SK1
  6
CONTINUOUS
370
50
 62
4
100
AcDbLine
 10
29.95815846381106
 20
0.0
 30
0.0
 11
30.0
 21
-0.0418415361889393
 31
0.0
  0
LINE
  5
7DD
330
1F
100
AcDbEntity
  8
SK1
  6
CONTINUOUS
370
50
 62
4
100
AcDbLine
 10
30.0
 20
0.3293895239339975
 30
0.0
 11
30.329389523934
 21
0.0
 31
0.0
  0
LINE
  5
7DE
330
1F
100
AcDbEntity
  8
SK1
  6
CONTINUOUS
370
50
 62
4
100
AcDbLine
 10
30.0
 20
0.7006205840569351
 30
0.0
 11
30.70062058405694
 21
0.0
 31
0.0
  0
LINE
  5
7DF
330
1F
100
AcDbEntity
  8
SK1
  6
CONTINUOUS
370
50
 62
4
100
AcDbLine
 10
30.0
 20
1.071851644179873
 30
0.0
 11
31.07185164417987
 21
0.0
 31
0.0
  0
LINE
  5
7E0
330
1F
100
AcDbEntity
  8
SK1
  6
CONTINUOUS
370
50
 62
4
100
AcDbLine
 10
30.0
 20
1.44308270430281
 30
0.0
 11
31.44308270430281
 21
0.0
 31
0.0
  0
LINE
  5
7E1
330
1F
100
AcDbEntity
  8
SK1
  6
CONTINUOUS
370
50
 62
4
100
AcDbLine
 10
30.0
 20
1.814313764425748
 30
0.0
 11
31.81431376442575
 21
0.0
 31
0.0
  0
LINE
  5
7E2
330
1F
100
AcDbEntity
  8
SK1
  6
CONTINUOUS
370
50
 62
4
100
AcDbLine
 10
30.0
 20
2.185544824548685
 30
0.0
 11
32.18554482454869
 21
0.0
 31
0.0
  0
LINE
  5
7E3
330
1F
100
AcDbEntity
  8
SK1
  6
CONTINUOUS
370
50
 62
4
100
AcDbLine
 10
30.0
 20
2.556775884671622
 30
0.0
 11
32.55677588467162
 21
0.0
 31
0.0
  0
LINE
  5
7E4
330
1F
100
AcDbEntity
  8
SK1
  6
CONTINUOUS
370
50
 62
4
100
AcDbLine
 10
30.3231531925751
 20
2.604853752219459
 30
0.0
 11
32.60485375221946
 21
0.3231531925751043
 31
0.0
  0
LINE
  5
7E5
330
1F
100
AcDbEntity
  8
SK1
  6
CONTINUOUS
370
50
 62
4
100
AcDbLine
 10
30.79925237182748
 20
2.499985633090018
 30
0.0
 11
32.49998563309002
 21
0.7992523718274818
 31
0.0
  0
LINE
  5
7E6
330
1F
100
AcDbEntity
  8
SK1
  6
CONTINUOUS
370
50
 62
4
100
AcDbLine
 10
31.56015793098176
 20
2.11031113405868
 30
0.0
 11
32.11031113405868
 21
1.560157930981759
 31
0.0
  0
ARC
  5
7E7
330
1F
100
AcDbEntity
  8
SK6
  6
CONTINUOUS
370
25
 62
5
100
AcDbCircle
 10
76.6613820083765
 20
-26.74524575338786
 30
0.0
 40
2.76048912849221
100
AcDbArc
 50
338.9379403434233
 51
90.44457437511365
  0
LINE
  5
7E8
330
1F
100
AcDbEntity
  8
SK6
  6
CONTINUOUS
370
25
 62
5
100
AcDbLine
 10
76.63996279695984
 20
-23.98483972421281
 30
0.0
 11
76.63996279695984
 21
-25.08789835613463
 31
0.0
  0
ARC
  5
7E9
330
1F
100
AcDbEntity
  8
SK6
  6
CONTINUOUS
370
25
 62
5
100
AcDbCircle
 10
76.65050902936916
 20
-26.76523924566821
 30
0.0
 40
1.677374043771779
100
AcDbArc
 50
243.4214706017868
 51
90.36024081226083
  0
ARC
  5
7EA
330
1F
100
AcDbEntity
  8
SK6
  6
CONTINUOUS
370
25
 62
5
100
AcDbCircle
 10
79.17275989684958
 20
-26.33383199215561
 30
0.0
 40
3.80021703002276
100
AcDbArc
 50
210.5483731288539
 51
236.97801693668
  0
LINE
  5
7EB
330
1F
100
AcDbEntity
  8
SK6
  6
CONTINUOUS
370
25
 62
5
100
AcDbLine
 10
77.10179068512487
 20
-29.52016781867535
 30
0.0
 11
81.24373096742671
 21
-29.52016781867535
 31
0.0
  0
ARC
  5
7EC
330
1F
100
AcDbEntity
  8
SK6
  6
CONTINUOUS
370
25
 62
5
100
AcDbCircle
 10
79.17276183877257
 20
-26.3338320937346
 30
0.0
 40
3.800216899582472
100
AcDbArc
 50
303.0219828477959
 51
326.3732153033476
  0
LINE
  5
7ED
330
1F
100
AcDbEntity
  8
SK6
  6
CONTINUOUS
370
25
 62
5
100
AcDbLine
 10
82.33705975135723
 20
-28.4383194907709
 30
0.0
 11
78.97976170575463
 21
-28.4383194907709
 31
0.0
  0
LINE
  5
7EE
330
1F
100
AcDbEntity
  8
SK6
  6
CONTINUOUS
370
25
 62
5
100
AcDbLine
 10
78.97976170575463
 20
-28.4383194907709
 30
0.0
 11
82.89962109771987
 21
-27.07691829641694
 31
0.0
  0
ARC
  5
7EF
330
1F
100
AcDbEntity
  8
SK6
  6
CONTINUOUS
370
25
 62
5
100
AcDbCircle
 10
79.17276256157211
 20
-26.3338326048594
 30
0.0
 40
3.800217216614723
100
AcDbArc
 50
348.7238644184696
 51
53.4691051260885
  0
LINE
  5
7F0
330
1F
100
AcDbEntity
  8
SK6
  6
CONTINUOUS
370
25
 62
5
100
AcDbLine
 10
81.43486524538545
 20
-23.28022124429967
 30
0.0
 11
79.23745047882737
 21
-27.73730973507057
 31
0.0
  0
ENDSEC
  0
SECTION
  2
OBJECTS
  0
DICTIONARY
  5
C
330
0
100
AcDbDictionary
281
     1
  3
ACAD_GROUP
350
D
  3
ACAD_LAYOUT
350
1A
  3
ACAD_MATERIAL
350
3B
  3
ACAD_MLEADERSTYLE
350
7F3
  3
ACAD_MLINESTYLE
350
17
  3
ACAD_PLOTSETTINGS
350
19
  3
ACAD_PLOTSTYLENAME
350
E
  3
ACAD_SCALELIST
350
1FA
  3
ACAD_VISUALSTYLE
350
2A
  3
AcDbVariableDictionary
350
7F1
  0
DICTIONARY
  5
D
102
{ACAD_REACTORS
330
C
102
}
330
C
100
AcDbDictionary
281
     1
  0
DICTIONARY
  5
1A
102
{ACAD_REACTORS
330
C
102
}
330
C
100
AcDbDictionary
281
     1
  3
Layout1
350
1E
  3
Layout2
350
26
  3
Model
350
22
  0
DICTIONARY
  5
3B
102
{ACAD_REACTORS
330
C
102
}
330
C
100
AcDbDictionary
281
     1
  3
ByBlock
350
3D
  3
ByLayer
350
3C
  3
Global
350
3E
  0
DICTIONARY
  5
7F3
102
{ACAD_REACTORS
330
C
102
}
330
C
100
AcDbDictionary
281
     1
  0
DICTIONARY
  5
17
102
{ACAD_REACTORS
330
C
102
}
330
C
100
AcDbDictionary
281
     1
  3
Standard
350
18
  0
DICTIONARY
  5
19
102
{ACAD_REACTORS
330
C
102
}
330
C
100
AcDbDictionary
281
     1
  0
ACDBDICTIONARYWDFLT
  5
E
102
{ACAD_REACTORS
330
C
102
}
330
C
100
AcDbDictionary
281
     1
  3
Normal
350
F
100
AcDbDictionaryWithDefault
340
F
  0
DICTIONARY
  5
1FA
102
{ACAD_REACTORS
330
C
102
}
330
C
100
AcDbDictionary
281
     1
  3
A0
350
1FB
  3
A1
350
1FC
  3
A2
350
1FD
  3
A3
350
1FE
  3
A4
350
1FF
  3
A5
350
200
  3
A6
350
201
  3
A7
350
202
  3
A8
350
203
  3
A9
350
204
  3
B0
350
205
  3
B1
350
206
  3
B2
350
207
  3
B3
350
208
  3
B4
350
209
  3
B5
350
20A
  3
B6
350
20B
  3
B7
350
20C
  3
B8
350
20D
  3
B9
350
20E
  3
C0
350
20F
  3
C1
350
210
  3
C2
350
211
  3
C3
350
212
  3
C4
350
213
  3
C5
350
214
  3
C6
350
215
  3
C7
350
216
  3
C8
350
217
  3
C9
350
218
  3
D0
350
219
  3
D1
350
21A
  3
D2
350
21B
  0
DICTIONARY
  5
2A
102
{ACAD_REACTORS
330
C
102
}
330
C
100
AcDbDictionary
281
     1
  3
2dWireframe
350
2F
  3
3D Hidden
350
31
  3
3dWireframe
350
30
  3
Basic
350
32
  3
Brighten
350
36
  3
ColorChange
350
3A
  3
Conceptual
350
34
  3
Dim
350
35
  3
Facepattern
350
39
  3
Flat
350
2B
  3
FlatWithEdges
350
2C
  3
Gouraud
350
2D
  3
GouraudWithEdges
350
2E
  3
Linepattern
350
38
  3
Realistic
350
33
  3
Thicken
350
37
  0
DICTIONARY
  5
7F1
102
{ACAD_REACTORS
330
C
102
}
330
C
100
AcDbDictionary
281
     1
  3
CANNOSCALE
350
7F6
  3
DIMASSOC
350
7F7
  3
HIDETEXT
350
7F8
  3
PSOLHEIGHT
350
7F5
  3
PSOLWIDTH
350
7F4
  0
LAYOUT
  5
1E
102
{ACAD_REACTORS
330
1A
102
}
330
1A
100
AcDbPlotSettings
  1

  2
none_device
  4

  6

 40
0.0
 41
0.0
 42
0.0
 43
0.0
 44
0.0
 45
0.0
 46
0.0
 47
0.0
 48
0.0
 49
0.0
140
0.0
141
0.0
142
1.0
143
1.0
 70
   688
 72
     0
 73
     0
 74
     5
  7

 75
    16
147
1.0
148
0.0
149
0.0
100
AcDbLayout
  1
Layout1
 70
     1
 71
     1
 10
0.0
 20
0.0
 11
420.0
 21
297.0
 12
0.0
 22
0.0
 32
0.0
 14
1.000000000000000E+20
 24
1.000000000000000E+20
 34
1.000000000000000E+20
 15
-1.000000000000000E+20
 25
-1.000000000000000E+20
 35
-1.000000000000000E+20
146
0.0
 13
0.0
 23
0.0
 33
0.0
 16
1.0
 26
0.0
 36
0.0
 17
0.0
 27
1.0
 37
0.0
 76
     0
330
1B
  0
LAYOUT
  5
26
102
{ACAD_REACTORS
330
1A
102
}
330
1A
100
AcDbPlotSettings
  1

  2
none_device
  4

  6

 40
0.0
 41
0.0
 42
0.0
 43
0.0
 44
0.0
 45
0.0
 46
0.0
 47
0.0
 48
0.0
 49
0.0
140
0.0
141
0.0
142
1.0
143
1.0
 70
   688
 72
     0
 73
     0
 74
     5
  7

 75
    16
147
1.0
148
0.0
149
0.0
100
AcDbLayout
  1
Layout2
 70
     1
 71
     2
 10
0.0
 20
0.0
 11
0.0
 21
0.0
 12
0.0
 22
0.0
 32
0.0
 14
0.0
 24
0.0
 34
0.0
 15
0.0
 25
0.0
 35
0.0
146
0.0
 13
0.0
 23
0.0
 33
0.0
 16
1.0
 26
0.0
 36
0.0
 17
0.0
 27
1.0
 37
0.0
 76
     0
330
23
  0
LAYOUT
  5
22
102
{ACAD_REACTORS
330
1A
102
}
330
1A
100
AcDbPlotSettings
  1

  2
none_device
  4

  6

 40
0.0
 41
0.0
 42
0.0
 43
0.0
 44
0.0
 45
0.0
 46
0.0
 47
0.0
 48
0.0
 49
0.0
140
0.0
141
0.0
142
1.0
143
1.0
 70
  1712
 72
     0
 73
     0
 74
     0
  7

 75
     0
147
1.0
148
0.0
149
0.0
100
AcDbLayout
  1
Model
 70
     1
 71
     0
 10
0.0
 20
0.0
 11
420.0
 21
297.0
 12
0.0
 22
0.0
 32
0.0
 14
0.0
 24
0.0
 34
0.0
 15
25.0
 25
35.0
 35
0.0
146
0.0
 13
0.0
 23
0.0
 33
0.0
 16
1.0
 26
0.0
 36
0.0
 17
0.0
 27
1.0
 37
0.0
 76
     0
330
1F
331
29
  0
MATERIAL
  5
3D
102
{ACAD_REACTORS
330
3B
102
}
102
{ACAD_XDICTIONARY
360
81B
102
}
330
3B
100
AcDbMaterial
  1
ByBlock
  0
MATERIAL
  5
3C
102
{ACAD_REACTORS
330
3B
102
}
102
{ACAD_XDICTIONARY
360
819
102
}
330
3B
100
AcDbMaterial
  1
ByLayer
  0
MATERIAL
  5
3E
102
{ACAD_REACTORS
330
3B
102
}
102
{ACAD_XDICTIONARY
360
81D
102
}
330
3B
100
AcDbMaterial
  1
Global
  0
MLINESTYLE
  5
18
102
{ACAD_REACTORS
330
17
102
}
330
17
100
AcDbMlineStyle
  2
Standard
 70
     0
  3

 62
   256
 51
90.0
 52
90.0
 71
     2
 49
0.5
 62
   256
  6
BYLAYER
 49
-0.5
 62
   256
  6
BYLAYER
  0
ACDBPLACEHOLDER
  5
F
102
{ACAD_REACTORS
330
E
102
}
330
E
  0
SCALE
  5
1FB
102
{ACAD_REACTORS
330
1FA
102
}
330
1FA
100
AcDbScale
 70
     0
300
1:1
140
1.0
141
1.0
290
     1
  0
SCALE
  5
1FC
102
{ACAD_REACTORS
330
1FA
102
}
330
1FA
100
AcDbScale
 70
     0
300
1:2
140
1.0
141
2.0
290
     0
  0
SCALE
  5
1FD
102
{ACAD_REACTORS
330
1FA
102
}
330
1FA
100
AcDbScale
 70
     0
300
1:4
140
1.0
141
4.0
290
     0
  0
SCALE
  5
1FE
102
{ACAD_REACTORS
330
1FA
102
}
330
1FA
100
AcDbScale
 70
     0
300
1:5
140
1.0
141
5.0
290
     0
  0
SCALE
  5
1FF
102
{ACAD_REACTORS
330
1FA
102
}
330
1FA
100
AcDbScale
 70
     0
300
1:8
140
1.0
141
8.0
290
     0
  0
SCALE
  5
200
102
{ACAD_REACTORS
330
1FA
102
}
330
1FA
100
AcDbScale
 70
     0
300
1:10
140
1.0
141
10.0
290
     0
  0
SCALE
  5
201
102
{ACAD_REACTORS
330
1FA
102
}
330
1FA
100
AcDbScale
 70
     0
300
1:16
140
1.0
141
16.0
290
     0
  0
SCALE
  5
202
102
{ACAD_REACTORS
330
1FA
102
}
330
1FA
100
AcDbScale
 70
     0
300
1:20
140
1.0
141
20.0
290
     0
  0
SCALE
  5
203
102
{ACAD_REACTORS
330
1FA
102
}
330
1FA
100
AcDbScale
 70
     0
300
1:30
140
1.0
141
30.0
290
     0
  0
SCALE
  5
204
102
{ACAD_REACTORS
330
1FA
102
}
330
1FA
100
AcDbScale
 70
     0
300
1:40
140
1.0
141
40.0
290
     0
  0
SCALE
  5
205
102
{ACAD_REACTORS
330
1FA
102
}
330
1FA
100
AcDbScale
 70
     0
300
1:50
140
1.0
141
50.0
290
     0
  0
SCALE
  5
206
102
{ACAD_REACTORS
330
1FA
102
}
330
1FA
100
AcDbScale
 70
     0
300
1:100
140
1.0
141
100.0
290
     0
  0
SCALE
  5
207
102
{ACAD_REACTORS
330
1FA
102
}
330
1FA
100
AcDbScale
 70
     0
300
2:1
140
2.0
141
1.0
290
     0
  0
SCALE
  5
208
102
{ACAD_REACTORS
330
1FA
102
}
330
1FA
100
AcDbScale
 70
     0
300
4:1
140
4.0
141
1.0
290
     0
  0
SCALE
  5
209
102
{ACAD_REACTORS
330
1FA
102
}
330
1FA
100
AcDbScale
 70
     0
300
8:1
140
8.0
141
1.0
290
     0
  0
SCALE
  5
20A
102
{ACAD_REACTORS
330
1FA
102
}
330
1FA
100
AcDbScale
 70
     0
300
10:1
140
10.0
141
1.0
290
     0
  0
SCALE
  5
20B
102
{ACAD_REACTORS
330
1FA
102
}
330
1FA
100
AcDbScale
 70
     0
300
100:1
140
100.0
141
1.0
290
     0
  0
SCALE
  5
20C
102
{ACAD_REACTORS
330
1FA
102
}
330
1FA
100
AcDbScale
 70
     0
300
1/128" = 1'-0"
140
0.0078125
141
12.0
290
     0
  0
SCALE
  5
20D
102
{ACAD_REACTORS
330
1FA
102
}
330
1FA
100
AcDbScale
 70
     0
300
1/64" = 1'-0"
140
0.015625
141
12.0
290
     0
  0
SCALE
  5
20E
102
{ACAD_REACTORS
330
1FA
102
}
330
1FA
100
AcDbScale
 70
     0
300
1/32" = 1'-0"
140
0.03125
141
12.0
290
     0
  0
SCALE
  5
20F
102
{ACAD_REACTORS
330
1FA
102
}
330
1FA
100
AcDbScale
 70
     0
300
1/16" = 1'-0"
140
0.0625
141
12.0
290
     0
  0
SCALE
  5
210
102
{ACAD_REACTORS
330
1FA
102
}
330
1FA
100
AcDbScale
 70
     0
300
3/32" = 1'-0"
140
0.09375
141
12.0
290
     0
  0
SCALE
  5
211
102
{ACAD_REACTORS
330
1FA
102
}
330
1FA
100
AcDbScale
 70
     0
300
1/8" = 1'-0"
140
0.125
141
12.0
290
     0
  0
SCALE
  5
212
102
{ACAD_REACTORS
330
1FA
102
}
330
1FA
100
AcDbScale
 70
     0
300
3/16" = 1'-0"
140
0.1875
141
12.0
290
     0
  0
SCALE
  5
213
102
{ACAD_REACTORS
330
1FA
102
}
330
1FA
100
AcDbScale
 70
     0
300
1/4" = 1'-0"
140
0.25
141
12.0
290
     0
  0
SCALE
  5
214
102
{ACAD_REACTORS
330
1FA
102
}
330
1FA
100
AcDbScale
 70
     0
300
3/8" = 1'-0"
140
0.375
141
12.0
290
     0
  0
SCALE
  5
215
102
{ACAD_REACTORS
330
1FA
102
}
330
1FA
100
AcDbScale
 70
     0
300
1/2" = 1'-0"
140
0.5
141
12.0
290
     0
  0
SCALE
  5
216
102
{ACAD_REACTORS
330
1FA
102
}
330
1FA
100
AcDbScale
 70
     0
300
3/4" = 1'-0"
140
0.75
141
12.0
290
     0
  0
SCALE
  5
217
102
{ACAD_REACTORS
330
1FA
102
}
330
1FA
100
AcDbScale
 70
     0
300
1" = 1'-0"
140
1.0
141
12.0
290
     0
  0
SCALE
  5
218
102
{ACAD_REACTORS
330
1FA
102
}
330
1FA
100
AcDbScale
 70
     0
300
1-1/2" = 1'-0"
140
1.5
141
12.0
290
     0
  0
SCALE
  5
219
102
{ACAD_REACTORS
330
1FA
102
}
330
1FA
100
AcDbScale
 70
     0
300
3" = 1'-0"
140
3.0
141
12.0
290
     0
  0
SCALE
  5
21A
102
{ACAD_REACTORS
330
1FA
102
}
330
1FA
100
AcDbScale
 70
     0
300
6" = 1'-0"
140
6.0
141
12.0
290
     0
  0
SCALE
  5
21B
102
{ACAD_REACTORS
330
1FA
102
}
330
1FA
100
AcDbScale
 70
     0
300
1'-0" = 1'-0"
140
12.0
141
12.0
290
     0
  0
VISUALSTYLE
  5
2F
102
{ACAD_REACTORS
330
2A
102
}
102
{ACAD_XDICTIONARY
360
801
102
}
330
2A
100
AcDbVisualStyle
  2
2dWireframe
 70
     4
 71
     0
 72
     2
 73
     0
 90
        0
 40
-0.6
 41
-30.0
 62
     5
 63
     7
 74
     1
 91
        4
 64
     7
 65
   257
 75
     1
175
     1
 42
1.0
 92
        0
 66
   257
 43
1.0
 76
     1
 77
     6
 78
     2
 67
     7
 79
     5
170
     0
171
     0
290
     0
174
     0
 93
        1
 44
0.0
173
     0
291
     0
 45
0.0
1001
ACAD
1000
AcDbSavedByObjectVersion
1070
     0
  0
VISUALSTYLE
  5
31
102
{ACAD_REACTORS
330
2A
102
}
102
{ACAD_XDICTIONARY
360
805
102
}
330
2A
100
AcDbVisualStyle
  2
3D Hidden
 70
     6
 71
     1
 72
     2
 73
     2
 90
        0
 40
-0.6
 41
-30.0
 62
     5
 63
     7
 74
     2
 91
        2
 64
     7
 65
   257
 75
     2
175
     1
 42
40.0
 92
        0
 66
   257
 43
1.0
 76
     1
 77
     6
 78
     2
 67
     7
 79
     3
170
     0
171
     0
290
     0
174
     0
 93
        1
 44
0.0
173
     0
291
     0
 45
0.0
1001
ACAD
1000
AcDbSavedByObjectVersion
1070
     0
  0
VISUALSTYLE
  5
30
102
{ACAD_REACTORS
330
2A
102
}
102
{ACAD_XDICTIONARY
360
803
102
}
330
2A
100
AcDbVisualStyle
  2
3dWireframe
 70
     5
 71
     0
 72
     2
 73
     0
 90
        0
 40
-0.6
 41
-30.0
 62
     5
 63
     7
 74
     1
 91
        4
 64
     7
 65
   257
 75
     1
175
     1
 42
1.0
 92
        0
 66
   257
 43
1.0
 76
     1
 77
     6
 78
     2
 67
     7
 79
     5
170
     0
171
     0
290
     0
174
     0
 93
        1
 44
0.0
173
     0
291
     0
 45
0.0
1001
ACAD
1000
AcDbSavedByObjectVersion
1070
     0
  0
VISUALSTYLE
  5
32
102
{ACAD_REACTORS
330
2A
102
}
102
{ACAD_XDICTIONARY
360
807
102
}
330
2A
100
AcDbVisualStyle
  2
Basic
 70
     7
 71
     1
 72
     0
 73
     1
 90
        0
 40
-0.6
 41
-30.0
 62
     5
 63
     7
 74
     0
 91
        4
 64
     7
 65
   257
 75
     1
175
     1
 42
1.0
 92
        8
 66
     7
 43
1.0
 76
     1
 77
     6
 78
     2
 67
     7
 79
     5
170
     0
171
     0
290
     0
174
     0
 93
        1
 44
0.0
173
     0
291
     1
 45
0.0
1001
ACAD
1000
AcDbSavedByObjectVersion
1070
     0
  0
VISUALSTYLE
  5
36
102
{ACAD_REACTORS
330
2A
102
}
102
{ACAD_XDICTIONARY
360
80F
102
}
330
2A
100
AcDbVisualStyle
  2
Brighten
 70
    12
 71
     2
 72
     2
 73
     0
 90
        0
 40
-0.6
 41
-30.0
 62
     5
 63
     7
 74
     1
 91
        4
 64
     7
 65
   257
 75
     1
175
     1
 42
1.0
 92
        8
 66
     7
 43
1.0
 76
     1
 77
     6
 78
     2
 67
     7
 79
     5
170
     0
171
     0
290
     0
174
     0
 93
        1
 44
50.0
173
     0
291
     1
 45
0.0
1001
ACAD
1000
AcDbSavedByObjectVersion
1070
     0
  0
VISUALSTYLE
  5
3A
102
{ACAD_REACTORS
330
2A
102
}
102
{ACAD_XDICTIONARY
360
817
102
}
330
2A
100
AcDbVisualStyle
  2
ColorChange
 70
    16
 71
     2
 72
     2
 73
     3
 90
        0
 40
-0.6
 41
-30.0
 62
     5
 63
     8
 74
     1
 91
        4
 64
     7
 65
   257
 75
     1
175
     1
 42
1.0
 92
        8
 66
     8
 43
1.0
 76
     1
 77
     6
 78
     2
 67
     7
 79
     5
170
     0
171
     0
290
     0
174
     0
 93
        1
 44
0.0
173
     0
291
     1
 45
0.0
1001
ACAD
1000
AcDbSavedByObjectVersion
1070
     0
  0
VISUALSTYLE
  5
34
102
{ACAD_REACTORS
330
2A
102
}
102
{ACAD_XDICTIONARY
360
80B
102
}
330
2A
100
AcDbVisualStyle
  2
Conceptual
 70
     9
 71
     3
 72
     2
 73
     0
 90
        0
 40
-0.6
 41
-30.0
 62
     5
 63
     7
 74
     2
 91
        2
 64
     7
 65
   257
 75
     1
175
     1
 42
40.0
 92
        8
 66
     7
 43
1.0
 76
     1
 77
     6
 78
     2
 67
     7
 79
     3
170
     0
171
     0
290
     0
174
     0
 93
        1
 44
0.0
173
     0
291
     0
 45
0.0
1001
ACAD
1000
AcDbSavedByObjectVersion
1070
     0
  0
VISUALSTYLE
  5
35
102
{ACAD_REACTORS
330
2A
102
}
102
{ACAD_XDICTIONARY
360
80D
102
}
330
2A
100
AcDbVisualStyle
  2
Dim
 70
    11
 71
     2
 72
     2
 73
     0
 90
        0
 40
-0.6
 41
-30.0
 62
     5
 63
     7
 74
     1
 91
        4
 64
     7
 65
   257
 75
     1
175
     1
 42
1.0
 92
        8
 66
     7
 43
1.0
 76
     1
 77
     6
 78
     2
 67
     7
 79
     5
170
     0
171
     0
290
     0
174
     0
 93
        1
 44
-50.0
173
     0
291
     1
 45
0.0
1001
ACAD
1000
AcDbSavedByObjectVersion
1070
     0
  0
VISUALSTYLE
  5
39
102
{ACAD_REACTORS
330
2A
102
}
102
{ACAD_XDICTIONARY
360
815
102
}
330
2A
100
AcDbVisualStyle
  2
Facepattern
 70
    15
 71
     2
 72
     2
 73
     0
 90
        0
 40
-0.6
 41
-30.0
 62
     5
 63
     7
 74
     1
 91
        4
 64
     7
 65
   257
 75
     1
175
     1
 42
1.0
 92
        8
 66
     7
 43
1.0
 76
     1
 77
     6
 78
     2
 67
     7
 79
     5
170
     0
171
     0
290
     0
174
     0
 93
        1
 44
0.0
173
     0
291
     1
 45
0.0
1001
ACAD
1000
AcDbSavedByObjectVersion
1070
     0
  0
VISUALSTYLE
  5
2B
102
{ACAD_REACTORS
330
2A
102
}
102
{ACAD_XDICTIONARY
360
7F9
102
}
330
2A
100
AcDbVisualStyle
  2
Flat
 70
     0
 71
     2
 72
     1
 73
     1
 90
        2
 40
-0.6
 41
30.0
 62
     5
 63
     7
 74
     0
 91
        4
 64
     7
 65
   257
 75
     1
175
     1
 42
1.0
 92
        8
 66
     7
 43
1.0
 76
     1
 77
     6
 78
     2
 67
     7
 79
     5
170
     0
171
     0
290
     0
174
     0
 93
       13
 44
0.0
173
     0
291
     1
 45
0.0
1001
ACAD
1000
AcDbSavedByObjectVersion
1070
     0
  0
VISUALSTYLE
  5
2C
102
{ACAD_REACTORS
330
2A
102
}
102
{ACAD_XDICTIONARY
360
7FB
102
}
330
2A
100
AcDbVisualStyle
  2
FlatWithEdges
 70
     1
 71
     2
 72
     1
 73
     1
 90
        2
 40
-0.6
 41
30.0
 62
     5
 63
     7
 74
     1
 91
        4
 64
     7
 65
   257
 75
     1
175
     1
 42
1.0
 92
        0
 66
   257
 43
1.0
 76
     1
 77
     6
 78
     2
 67
     7
 79
     5
170
     0
171
     0
290
     0
174
     0
 93
       13
 44
0.0
173
     0
291
     1
 45
0.0
1001
ACAD
1000
AcDbSavedByObjectVersion
1070
     0
  0
VISUALSTYLE
  5
2D
102
{ACAD_REACTORS
330
2A
102
}
102
{ACAD_XDICTIONARY
360
7FD
102
}
330
2A
100
AcDbVisualStyle
  2
Gouraud
 70
     2
 71
     2
 72
     2
 73
     1
 90
        2
 40
-0.6
 41
30.0
 62
     5
 63
     7
 74
     0
 91
        4
 64
     7
 65
   257
 75
     1
175
     1
 42
1.0
 92
        0
 66
     7
 43
1.0
 76
     1
 77
     6
 78
     2
 67
     7
 79
     5
170
     0
171
     0
290
     0
174
     0
 93
       13
 44
0.0
173
     0
291
     1
 45
0.0
1001
ACAD
1000
AcDbSavedByObjectVersion
1070
     0
  0
VISUALSTYLE
  5
2E
102
{ACAD_REACTORS
330
2A
102
}
102
{ACAD_XDICTIONARY
360
7FF
102
}
330
2A
100
AcDbVisualStyle
  2
GouraudWithEdges
 70
     3
 71
     2
 72
     2
 73
     1
 90
        2
 40
-0.6
 41
30.0
 62
     5
 63
     7
 74
     1
 91
        4
 64
     7
 65
   257
 75
     1
175
     1
 42
1.0
 92
        0
 66
   257
 43
1.0
 76
     1
 77
     6
 78
     2
 67
     7
 79
     5
170
     0
171
     0
290
     0
174
     0
 93
       13
 44
0.0
173
     0
291
     1
 45
0.0
1001
ACAD
1000
AcDbSavedByObjectVersion
1070
     0
  0
VISUALSTYLE
  5
38
102
{ACAD_REACTORS
330
2A
102
}
102
{ACAD_XDICTIONARY
360
813
102
}
330
2A
100
AcDbVisualStyle
  2
Linepattern
 70
    14
 71
     2
 72
     2
 73
     0
 90
        0
 40
-0.6
 41
-30.0
 62
     5
 63
     7
 74
     1
 91
        4
 64
     7
 65
   257
 75
     7
175
     7
 42
1.0
 92
        8
 66
     7
 43
1.0
 76
     1
 77
     6
 78
     2
 67
     7
 79
     5
170
     0
171
     0
290
     0
174
     0
 93
        1
 44
0.0
173
     0
291
     1
 45
0.0
1001
ACAD
1000
AcDbSavedByObjectVersion
1070
     0
  0
VISUALSTYLE
  5
33
102
{ACAD_REACTORS
330
2A
102
}
102
{ACAD_XDICTIONARY
360
809
102
}
330
2A
100
AcDbVisualStyle
  2
Realistic
 70
     8
 71
     2
 72
     2
 73
     0
 90
        0
 40
-0.6
 41
-30.0
 62
     5
 63
     7
 74
     1
 91
        0
 64
     7
 65
   257
 75
     1
175
     1
 42
1.0
 92
        8
 66
     8
 43
1.0
 76
     1
 77
     6
 78
     2
 67
     7
 79
     5
170
     0
171
     0
290
     0
174
     0
 93
       13
 44
0.0
173
     0
291
     0
 45
0.0
1001
ACAD
1000
AcDbSavedByObjectVersion
1070
     0
  0
VISUALSTYLE
  5
37
102
{ACAD_REACTORS
330
2A
102
}
102
{ACAD_XDICTIONARY
360
811
102
}
330
2A
100
AcDbVisualStyle
  2
Thicken
 70
    13
 71
     2
 72
     2
 73
     0
 90
        0
 40
-0.6
 41
-30.0
 62
     5
 63
     7
 74
     1
 91
        4
 64
     7
 65
   257
 75
     1
175
     1
 42
1.0
 92
       12
 66
     7
 43
1.0
 76
     1
 77
     6
 78
     2
 67
     7
 79
     5
170
     0
171
     0
290
     0
174
     0
 93
        1
 44
0.0
173
     0
291
     1
 45
0.0
1001
ACAD
1000
AcDbSavedByObjectVersion
1070
     0
  0
DICTIONARYVAR
  5
7F6
102
{ACAD_REACTORS
330
7F1
102
}
330
7F1
100
DictionaryVariables
280
     0
  1
1:1
  0
DICTIONARYVAR
  5
7F7
102
{ACAD_REACTORS
330
7F1
102
}
330
7F1
100
DictionaryVariables
280
     0
  1
2
  0
DICTIONARYVAR
  5
7F8
102
{ACAD_REACTORS
330
7F1
102
}
330
7F1
100
DictionaryVariables
280
     0
  1
1
  0
DICTIONARYVAR
  5
7F5
102
{ACAD_REACTORS
330
7F1
102
}
330
7F1
100
DictionaryVariables
280
     0
  1
80.000000
  0
DICTIONARYVAR
  5
7F4
102
{ACAD_REACTORS
330
7F1
102
}
330
7F1
100
DictionaryVariables
280
     0
  1
5.000000
  0
DICTIONARY
  5
81B
330
3D
100
AcDbDictionary
280
     1
281
     1
  3
ACAD_XREC_ROUNDTRIP
360
81C
  0
DICTIONARY
  5
819
330
3C
100
AcDbDictionary
280
     1
281
     1
  3
ACAD_XREC_ROUNDTRIP
360
81A
  0
DICTIONARY
  5
81D
330
3E
100
AcDbDictionary
280
     1
281
     1
  3
ACAD_XREC_ROUNDTRIP
360
81E
  0
DICTIONARY
  5
801
330
2F
100
AcDbDictionary
280
     1
281
     1
  3
ACAD_XREC_ROUNDTRIP
360
802
  0
DICTIONARY
  5
805
330
31
100
AcDbDictionary
280
     1
281
     1
  3
ACAD_XREC_ROUNDTRIP
360
806
  0
DICTIONARY
  5
803
330
30
100
AcDbDictionary
280
     1
281
     1
  3
ACAD_XREC_ROUNDTRIP
360
804
  0
DICTIONARY
  5
807
330
32
100
AcDbDictionary
280
     1
281
     1
  3
ACAD_XREC_ROUNDTRIP
360
808
  0
DICTIONARY
  5
80F
330
36
100
AcDbDictionary
280
     1
281
     1
  3
ACAD_XREC_ROUNDTRIP
360
810
  0
DICTIONARY
  5
817
330
3A
100
AcDbDictionary
280
     1
281
     1
  3
ACAD_XREC_ROUNDTRIP
360
818
  0
DICTIONARY
  5
80B
330
34
100
AcDbDictionary
280
     1
281
     1
  3
ACAD_XREC_ROUNDTRIP
360
80C
  0
DICTIONARY
  5
80D
330
35
100
AcDbDictionary
280
     1
281
     1
  3
ACAD_XREC_ROUNDTRIP
360
80E
  0
DICTIONARY
  5
815
330
39
100
AcDbDictionary
280
     1
281
     1
  3
ACAD_XREC_ROUNDTRIP
360
816
  0
DICTIONARY
  5
7F9
330
2B
100
AcDbDictionary
280
     1
281
     1
  3
ACAD_XREC_ROUNDTRIP
360
7FA
  0
DICTIONARY
  5
7FB
330
2C
100
AcDbDictionary
280
     1
281
     1
  3
ACAD_XREC_ROUNDTRIP
360
7FC
  0
DICTIONARY
  5
7FD
330
2D
100
AcDbDictionary
280
     1
281
     1
  3
ACAD_XREC_ROUNDTRIP
360
7FE
  0
DICTIONARY
  5
7FF
330
2E
100
AcDbDictionary
280
     1
281
     1
  3
ACAD_XREC_ROUNDTRIP
360
800
  0
DICTIONARY
  5
813
330
38
100
AcDbDictionary
280
     1
281
     1
  3
ACAD_XREC_ROUNDTRIP
360
814
  0
DICTIONARY
  5
809
330
33
100
AcDbDictionary
280
     1
281
     1
  3
ACAD_XREC_ROUNDTRIP
360
80A
  0
DICTIONARY
  5
811
330
37
100
AcDbDictionary
280
     1
281
     1
  3
ACAD_XREC_ROUNDTRIP
360
812
  0
XRECORD
  5
81C
102
{ACAD_REACTORS
330
81B
102
}
330
81B
100
AcDbXrecord
280
     1
102
MATERIAL
148
0.0
149
0.0
149
0.0
 93
        0
 94
      127
282
     0
 72
     1
 77
     1
171
     1
175
     1
179
     1
273
     0
  0
XRECORD
  5
81A
102
{ACAD_REACTORS
330
819
102
}
330
819
100
AcDbXrecord
280
     1
102
MATERIAL
148
0.0
149
0.0
149
0.0
 93
        0
 94
      127
282
     0
 72
     1
 77
     1
171
     1
175
     1
179
     1
273
     0
  0
XRECORD
  5
81E
102
{ACAD_REACTORS
330
81D
102
}
330
81D
100
AcDbXrecord
280
     1
102
MATERIAL
148
0.0
149
0.0
149
0.0
 93
        0
 94
      127
282
     0
 72
     1
 77
     1
171
     1
175
     1
179
     1
273
     0
  0
XRECORD
  5
802
102
{ACAD_REACTORS
330
801
102
}
330
801
100
AcDbXrecord
280
     1
102
RTVSPropertyOp0
 70
     1
102
RTVSPropertyOp1
 70
     1
102
RTVSPropertyOp2
 70
     1
102
RTVSPropertyOp3
 70
     1
102
RTVSPropertyOp4
 70
     1
102
RTVSPropertyOp5
 70
     1
102
RTVSPropertyOp6
 70
     1
102
RTVSPropertyOp7
 70
     1
102
RTVSPropertyOp8
 70
     1
102
RTVSPropertyOp9
 70
     1
102
RTVSPropertyOp10
 70
     1
102
RTVSPropertyOp11
 70
     1
102
RTVSPropertyOp12
 70
     1
102
RTVSPropertyOp13
 70
     1
102
RTVSPropertyOp14
 70
     1
102
RTVSPropertyOp15
 70
     1
102
RTVSPropertyOp16
 70
     1
102
RTVSPropertyOp17
 70
     1
102
RTVSPropertyOp18
 70
     1
102
RTVSPropertyOp19
 70
     1
102
RTVSPropertyOp20
 70
     1
102
RTVSPropertyOp21
 70
     1
102
RTVSPropertyOp22
 70
     1
102
RTVSPropertyOp23
 70
     1
102
RTVSPropertyOp24
 70
     1
102
RTVSPropertyOp25
 70
     1
102
RTVSPropertyOp26
 70
     1
102
RTVSPropertyOp27
 70
     1
  0
XRECORD
  5
806
102
{ACAD_REACTORS
330
805
102
}
330
805
100
AcDbXrecord
280
     1
102
RTVSPropertyOp0
 70
     1
102
RTVSPropertyOp1
 70
     1
102
RTVSPropertyOp2
 70
     1
102
RTVSPropertyOp3
 70
     1
102
RTVSPropertyOp4
 70
     1
102
RTVSPropertyOp5
 70
     1
102
RTVSPropertyOp6
 70
     1
102
RTVSPropertyOp7
 70
     1
102
RTVSPropertyOp8
 70
     1
102
RTVSPropertyOp9
 70
     1
102
RTVSPropertyOp10
 70
     1
102
RTVSPropertyOp11
 70
     1
102
RTVSPropertyOp12
 70
     1
102
RTVSPropertyOp13
 70
     1
102
RTVSPropertyOp14
 70
     1
102
RTVSPropertyOp15
 70
     1
102
RTVSPropertyOp16
 70
     1
102
RTVSPropertyOp17
 70
     1
102
RTVSPropertyOp18
 70
     1
102
RTVSPropertyOp19
 70
     1
102
RTVSPropertyOp20
 70
     1
102
RTVSPropertyOp21
 70
     1
102
RTVSPropertyOp22
 70
     1
102
RTVSPropertyOp23
 70
     1
102
RTVSPropertyOp24
 70
     1
102
RTVSPropertyOp25
 70
     1
102
RTVSPropertyOp26
 70
     1
102
RTVSPropertyOp27
 70
     1
  0
XRECORD
  5
804
102
{ACAD_REACTORS
330
803
102
}
330
803
100
AcDbXrecord
280
     1
102
RTVSPropertyOp0
 70
     1
102
RTVSPropertyOp1
 70
     1
102
RTVSPropertyOp2
 70
     1
102
RTVSPropertyOp3
 70
     1
102
RTVSPropertyOp4
 70
     1
102
RTVSPropertyOp5
 70
     1
102
RTVSPropertyOp6
 70
     1
102
RTVSPropertyOp7
 70
     1
102
RTVSPropertyOp8
 70
     1
102
RTVSPropertyOp9
 70
     1
102
RTVSPropertyOp10
 70
     1
102
RTVSPropertyOp11
 70
     1
102
RTVSPropertyOp12
 70
     1
102
RTVSPropertyOp13
 70
     1
102
RTVSPropertyOp14
 70
     1
102
RTVSPropertyOp15
 70
     1
102
RTVSPropertyOp16
 70
     1
102
RTVSPropertyOp17
 70
     1
102
RTVSPropertyOp18
 70
     1
102
RTVSPropertyOp19
 70
     1
102
RTVSPropertyOp20
 70
     1
102
RTVSPropertyOp21
 70
     1
102
RTVSPropertyOp22
 70
     1
102
RTVSPropertyOp23
 70
     1
102
RTVSPropertyOp24
 70
     1
102
RTVSPropertyOp25
 70
     1
102
RTVSPropertyOp26
 70
     1
102
RTVSPropertyOp27
 70
     1
  0
XRECORD
  5
808
102
{ACAD_REACTORS
330
807
102
}
330
807
100
AcDbXrecord
280
     1
102
RTVSPropertyOp0
 70
     1
102
RTVSPropertyOp1
 70
     1
102
RTVSPropertyOp2
 70
     1
102
RTVSPropertyOp3
 70
     1
102
RTVSPropertyOp4
 70
     1
102
RTVSPropertyOp5
 70
     1
102
RTVSPropertyOp6
 70
     1
102
RTVSPropertyOp7
 70
     1
102
RTVSPropertyOp8
 70
     1
102
RTVSPropertyOp9
 70
     1
102
RTVSPropertyOp10
 70
     1
102
RTVSPropertyOp11
 70
     1
102
RTVSPropertyOp12
 70
     1
102
RTVSPropertyOp13
 70
     1
102
RTVSPropertyOp14
 70
     1
102
RTVSPropertyOp15
 70
     1
102
RTVSPropertyOp16
 70
     1
102
RTVSPropertyOp17
 70
     1
102
RTVSPropertyOp18
 70
     1
102
RTVSPropertyOp19
 70
     1
102
RTVSPropertyOp20
 70
     1
102
RTVSPropertyOp21
 70
     1
102
RTVSPropertyOp22
 70
     1
102
RTVSPropertyOp23
 70
     1
102
RTVSPropertyOp24
 70
     1
102
RTVSPropertyOp25
 70
     1
102
RTVSPropertyOp26
 70
     1
102
RTVSPropertyOp27
 70
     1
  0
XRECORD
  5
810
102
{ACAD_REACTORS
330
80F
102
}
330
80F
100
AcDbXrecord
280
     1
102
RTVSPropertyOp0
 70
     1
102
RTVSPropertyOp1
 70
     1
102
RTVSPropertyOp2
 70
     1
102
RTVSPropertyOp3
 70
     1
102
RTVSPropertyOp4
 70
     1
102
RTVSPropertyOp5
 70
     1
102
RTVSPropertyOp6
 70
     1
102
RTVSPropertyOp7
 70
     1
102
RTVSPropertyOp8
 70
     1
102
RTVSPropertyOp9
 70
     1
102
RTVSPropertyOp10
 70
     1
102
RTVSPropertyOp11
 70
     1
102
RTVSPropertyOp12
 70
     1
102
RTVSPropertyOp13
 70
     1
102
RTVSPropertyOp14
 70
     1
102
RTVSPropertyOp15
 70
     1
102
RTVSPropertyOp16
 70
     1
102
RTVSPropertyOp17
 70
     1
102
RTVSPropertyOp18
 70
     1
102
RTVSPropertyOp19
 70
     1
102
RTVSPropertyOp20
 70
     1
102
RTVSPropertyOp21
 70
     1
102
RTVSPropertyOp22
 70
     1
102
RTVSPropertyOp23
 70
     1
102
RTVSPropertyOp24
 70
     1
102
RTVSPropertyOp25
 70
     1
102
RTVSPropertyOp26
 70
     1
102
RTVSPropertyOp27
 70
     1
  0
XRECORD
  5
818
102
{ACAD_REACTORS
330
817
102
}
330
817
100
AcDbXrecord
280
     1
102
RTVSPropertyOp0
 70
     1
102
RTVSPropertyOp1
 70
     1
102
RTVSPropertyOp2
 70
     1
102
RTVSPropertyOp3
 70
     1
102
RTVSPropertyOp4
 70
     1
102
RTVSPropertyOp5
 70
     1
102
RTVSPropertyOp6
 70
     1
102
RTVSPropertyOp7
 70
     1
102
RTVSPropertyOp8
 70
     1
102
RTVSPropertyOp9
 70
     1
102
RTVSPropertyOp10
 70
     1
102
RTVSPropertyOp11
 70
     1
102
RTVSPropertyOp12
 70
     1
102
RTVSPropertyOp13
 70
     1
102
RTVSPropertyOp14
 70
     1
102
RTVSPropertyOp15
 70
     1
102
RTVSPropertyOp16
 70
     1
102
RTVSPropertyOp17
 70
     1
102
RTVSPropertyOp18
 70
     1
102
RTVSPropertyOp19
 70
     1
102
RTVSPropertyOp20
 70
     1
102
RTVSPropertyOp21
 70
     1
102
RTVSPropertyOp22
 70
     1
102
RTVSPropertyOp23
 70
     1
102
RTVSPropertyOp24
 70
     1
102
RTVSPropertyOp25
 70
     1
102
RTVSPropertyOp26
 70
     1
102
RTVSPropertyOp27
 70
     1
  0
XRECORD
  5
80C
102
{ACAD_REACTORS
330
80B
102
}
330
80B
100
AcDbXrecord
280
     1
102
RTVSPropertyOp0
 70
     1
102
RTVSPropertyOp1
 70
     1
102
RTVSPropertyOp2
 70
     1
102
RTVSPropertyOp3
 70
     1
102
RTVSPropertyOp4
 70
     1
102
RTVSPropertyOp5
 70
     1
102
RTVSPropertyOp6
 70
     1
102
RTVSPropertyOp7
 70
     1
102
RTVSPropertyOp8
 70
     1
102
RTVSPropertyOp9
 70
     1
102
RTVSPropertyOp10
 70
     1
102
RTVSPropertyOp11
 70
     1
102
RTVSPropertyOp12
 70
     1
102
RTVSPropertyOp13
 70
     1
102
RTVSPropertyOp14
 70
     1
102
RTVSPropertyOp15
 70
     1
102
RTVSPropertyOp16
 70
     1
102
RTVSPropertyOp17
 70
     1
102
RTVSPropertyOp18
 70
     1
102
RTVSPropertyOp19
 70
     1
102
RTVSPropertyOp20
 70
     1
102
RTVSPropertyOp21
 70
     1
102
RTVSPropertyOp22
 70
     1
102
RTVSPropertyOp23
 70
     1
102
RTVSPropertyOp24
 70
     1
102
RTVSPropertyOp25
 70
     1
102
RTVSPropertyOp26
 70
     1
102
RTVSPropertyOp27
 70
     1
  0
XRECORD
  5
80E
102
{ACAD_REACTORS
330
80D
102
}
330
80D
100
AcDbXrecord
280
     1
102
RTVSPropertyOp0
 70
     1
102
RTVSPropertyOp1
 70
     1
102
RTVSPropertyOp2
 70
     1
102
RTVSPropertyOp3
 70
     1
102
RTVSPropertyOp4
 70
     1
102
RTVSPropertyOp5
 70
     1
102
RTVSPropertyOp6
 70
     1
102
RTVSPropertyOp7
 70
     1
102
RTVSPropertyOp8
 70
     1
102
RTVSPropertyOp9
 70
     1
102
RTVSPropertyOp10
 70
     1
102
RTVSPropertyOp11
 70
     1
102
RTVSPropertyOp12
 70
     1
102
RTVSPropertyOp13
 70
     1
102
RTVSPropertyOp14
 70
     1
102
RTVSPropertyOp15
 70
     1
102
RTVSPropertyOp16
 70
     1
102
RTVSPropertyOp17
 70
     1
102
RTVSPropertyOp18
 70
     1
102
RTVSPropertyOp19
 70
     1
102
RTVSPropertyOp20
 70
     1
102
RTVSPropertyOp21
 70
     1
102
RTVSPropertyOp22
 70
     1
102
RTVSPropertyOp23
 70
     1
102
RTVSPropertyOp24
 70
     1
102
RTVSPropertyOp25
 70
     1
102
RTVSPropertyOp26
 70
     1
102
RTVSPropertyOp27
 70
     1
  0
XRECORD
  5
816
102
{ACAD_REACTORS
330
815
102
}
330
815
100
AcDbXrecord
280
     1
102
RTVSPropertyOp0
 70
     1
102
RTVSPropertyOp1
 70
     1
102
RTVSPropertyOp2
 70
     1
102
RTVSPropertyOp3
 70
     1
102
RTVSPropertyOp4
 70
     1
102
RTVSPropertyOp5
 70
     1
102
RTVSPropertyOp6
 70
     1
102
RTVSPropertyOp7
 70
     1
102
RTVSPropertyOp8
 70
     1
102
RTVSPropertyOp9
 70
     1
102
RTVSPropertyOp10
 70
     1
102
RTVSPropertyOp11
 70
     1
102
RTVSPropertyOp12
 70
     1
102
RTVSPropertyOp13
 70
     1
102
RTVSPropertyOp14
 70
     1
102
RTVSPropertyOp15
 70
     1
102
RTVSPropertyOp16
 70
     1
102
RTVSPropertyOp17
 70
     1
102
RTVSPropertyOp18
 70
     1
102
RTVSPropertyOp19
 70
     1
102
RTVSPropertyOp20
 70
     1
102
RTVSPropertyOp21
 70
     1
102
RTVSPropertyOp22
 70
     1
102
RTVSPropertyOp23
 70
     1
102
RTVSPropertyOp24
 70
     1
102
RTVSPropertyOp25
 70
     1
102
RTVSPropertyOp26
 70
     1
102
RTVSPropertyOp27
 70
     1
  0
XRECORD
  5
7FA
102
{ACAD_REACTORS
330
7F9
102
}
330
7F9
100
AcDbXrecord
280
     1
102
RTVSPropertyOp0
 70
     1
102
RTVSPropertyOp1
 70
     1
102
RTVSPropertyOp2
 70
     1
102
RTVSPropertyOp3
 70
     1
102
RTVSPropertyOp4
 70
     1
102
RTVSPropertyOp5
 70
     1
102
RTVSPropertyOp6
 70
     1
102
RTVSPropertyOp7
 70
     1
102
RTVSPropertyOp8
 70
     1
102
RTVSPropertyOp9
 70
     1
102
RTVSPropertyOp10
 70
     1
102
RTVSPropertyOp11
 70
     1
102
RTVSPropertyOp12
 70
     1
102
RTVSPropertyOp13
 70
     1
102
RTVSPropertyOp14
 70
     1
102
RTVSPropertyOp15
 70
     1
102
RTVSPropertyOp16
 70
     1
102
RTVSPropertyOp17
 70
     1
102
RTVSPropertyOp18
 70
     1
102
RTVSPropertyOp19
 70
     1
102
RTVSPropertyOp20
 70
     1
102
RTVSPropertyOp21
 70
     1
102
RTVSPropertyOp22
 70
     1
102
RTVSPropertyOp23
 70
     1
102
RTVSPropertyOp24
 70
     1
102
RTVSPropertyOp25
 70
     1
102
RTVSPropertyOp26
 70
     1
102
RTVSPropertyOp27
 70
     1
  0
XRECORD
  5
7FC
102
{ACAD_REACTORS
330
7FB
102
}
330
7FB
100
AcDbXrecord
280
     1
102
RTVSPropertyOp0
 70
     1
102
RTVSPropertyOp1
 70
     1
102
RTVSPropertyOp2
 70
     1
102
RTVSPropertyOp3
 70
     1
102
RTVSPropertyOp4
 70
     1
102
RTVSPropertyOp5
 70
     1
102
RTVSPropertyOp6
 70
     1
102
RTVSPropertyOp7
 70
     1
102
RTVSPropertyOp8
 70
     1
102
RTVSPropertyOp9
 70
     1
102
RTVSPropertyOp10
 70
     1
102
RTVSPropertyOp11
 70
     1
102
RTVSPropertyOp12
 70
     1
102
RTVSPropertyOp13
 70
     1
102
RTVSPropertyOp14
 70
     1
102
RTVSPropertyOp15
 70
     1
102
RTVSPropertyOp16
 70
     1
102
RTVSPropertyOp17
 70
     1
102
RTVSPropertyOp18
 70
     1
102
RTVSPropertyOp19
 70
     1
102
RTVSPropertyOp20
 70
     1
102
RTVSPropertyOp21
 70
     1
102
RTVSPropertyOp22
 70
     1
102
RTVSPropertyOp23
 70
     1
102
RTVSPropertyOp24
 70
     1
102
RTVSPropertyOp25
 70
     1
102
RTVSPropertyOp26
 70
     1
102
RTVSPropertyOp27
 70
     1
  0
XRECORD
  5
7FE
102
{ACAD_REACTORS
330
7FD
102
}
330
7FD
100
AcDbXrecord
280
     1
102
RTVSPropertyOp0
 70
     1
102
RTVSPropertyOp1
 70
     1
102
RTVSPropertyOp2
 70
     1
102
RTVSPropertyOp3
 70
     1
102
RTVSPropertyOp4
 70
     1
102
RTVSPropertyOp5
 70
     1
102
RTVSPropertyOp6
 70
     1
102
RTVSPropertyOp7
 70
     1
102
RTVSPropertyOp8
 70
     1
102
RTVSPropertyOp9
 70
     1
102
RTVSPropertyOp10
 70
     1
102
RTVSPropertyOp11
 70
     1
102
RTVSPropertyOp12
 70
     1
102
RTVSPropertyOp13
 70
     1
102
RTVSPropertyOp14
 70
     1
102
RTVSPropertyOp15
 70
     1
102
RTVSPropertyOp16
 70
     1
102
RTVSPropertyOp17
 70
     1
102
RTVSPropertyOp18
 70
     1
102
RTVSPropertyOp19
 70
     1
102
RTVSPropertyOp20
 70
     1
102
RTVSPropertyOp21
 70
     1
102
RTVSPropertyOp22
 70
     1
102
RTVSPropertyOp23
 70
     1
102
RTVSPropertyOp24
 70
     1
102
RTVSPropertyOp25
 70
     1
102
RTVSPropertyOp26
 70
     1
102
RTVSPropertyOp27
 70
     1
  0
XRECORD
  5
800
102
{ACAD_REACTORS
330
7FF
102
}
330
7FF
100
AcDbXrecord
280
     1
102
RTVSPropertyOp0
 70
     1
102
RTVSPropertyOp1
 70
     1
102
RTVSPropertyOp2
 70
     1
102
RTVSPropertyOp3
 70
     1
102
RTVSPropertyOp4
 70
     1
102
RTVSPropertyOp5
 70
     1
102
RTVSPropertyOp6
 70
     1
102
RTVSPropertyOp7
 70
     1
102
RTVSPropertyOp8
 70
     1
102
RTVSPropertyOp9
 70
     1
102
RTVSPropertyOp10
 70
     1
102
RTVSPropertyOp11
 70
     1
102
RTVSPropertyOp12
 70
     1
102
RTVSPropertyOp13
 70
     1
102
RTVSPropertyOp14
 70
     1
102
RTVSPropertyOp15
 70
     1
102
RTVSPropertyOp16
 70
     1
102
RTVSPropertyOp17
 70
     1
102
RTVSPropertyOp18
 70
     1
102
RTVSPropertyOp19
 70
     1
102
RTVSPropertyOp20
 70
     1
102
RTVSPropertyOp21
 70
     1
102
RTVSPropertyOp22
 70
     1
102
RTVSPropertyOp23
 70
     1
102
RTVSPropertyOp24
 70
     1
102
RTVSPropertyOp25
 70
     1
102
RTVSPropertyOp26
 70
     1
102
RTVSPropertyOp27
 70
     1
  0
XRECORD
  5
814
102
{ACAD_REACTORS
330
813
102
}
330
813
100
AcDbXrecord
280
     1
102
RTVSPropertyOp0
 70
     1
102
RTVSPropertyOp1
 70
     1
102
RTVSPropertyOp2
 70
     1
102
RTVSPropertyOp3
 70
     1
102
RTVSPropertyOp4
 70
     1
102
RTVSPropertyOp5
 70
     1
102
RTVSPropertyOp6
 70
     1
102
RTVSPropertyOp7
 70
     1
102
RTVSPropertyOp8
 70
     1
102
RTVSPropertyOp9
 70
     1
102
RTVSPropertyOp10
 70
     1
102
RTVSPropertyOp11
 70
     1
102
RTVSPropertyOp12
 70
     1
102
RTVSPropertyOp13
 70
     1
102
RTVSPropertyOp14
 70
     1
102
RTVSPropertyOp15
 70
     1
102
RTVSPropertyOp16
 70
     1
102
RTVSPropertyOp17
 70
     1
102
RTVSPropertyOp18
 70
     1
102
RTVSPropertyOp19
 70
     1
102
RTVSPropertyOp20
 70
     1
102
RTVSPropertyOp21
 70
     1
102
RTVSPropertyOp22
 70
     1
102
RTVSPropertyOp23
 70
     1
102
RTVSPropertyOp24
 70
     1
102
RTVSPropertyOp25
 70
     1
102
RTVSPropertyOp26
 70
     1
102
RTVSPropertyOp27
 70
     1
  0
XRECORD
  5
80A
102
{ACAD_REACTORS
330
809
102
}
330
809
100
AcDbXrecord
280
     1
102
RTVSPropertyOp0
 70
     1
102
RTVSPropertyOp1
 70
     1
102
RTVSPropertyOp2
 70
     1
102
RTVSPropertyOp3
 70
     1
102
RTVSPropertyOp4
 70
     1
102
RTVSPropertyOp5
 70
     1
102
RTVSPropertyOp6
 70
     1
102
RTVSPropertyOp7
 70
     1
102
RTVSPropertyOp8
 70
     1
102
RTVSPropertyOp9
 70
     1
102
RTVSPropertyOp10
 70
     1
102
RTVSPropertyOp11
 70
     1
102
RTVSPropertyOp12
 70
     1
102
RTVSPropertyOp13
 70
     1
102
RTVSPropertyOp14
 70
     1
102
RTVSPropertyOp15
 70
     1
102
RTVSPropertyOp16
 70
     1
102
RTVSPropertyOp17
 70
     1
102
RTVSPropertyOp18
 70
     1
102
RTVSPropertyOp19
 70
     1
102
RTVSPropertyOp20
 70
     1
102
RTVSPropertyOp21
 70
     1
102
RTVSPropertyOp22
 70
     1
102
RTVSPropertyOp23
 70
     1
102
RTVSPropertyOp24
 70
     1
102
RTVSPropertyOp25
 70
     1
102
RTVSPropertyOp26
 70
     1
102
RTVSPropertyOp27
 70
     1
  0
XRECORD
  5
812
102
{ACAD_REACTORS
330
811
102
}
330
811
100
AcDbXrecord
280
     1
102
RTVSPropertyOp0
 70
     1
102
RTVSPropertyOp1
 70
     1
102
RTVSPropertyOp2
 70
     1
102
RTVSPropertyOp3
 70
     1
102
RTVSPropertyOp4
 70
     1
102
RTVSPropertyOp5
 70
     1
102
RTVSPropertyOp6
 70
     1
102
RTVSPropertyOp7
 70
     1
102
RTVSPropertyOp8
 70
     1
102
RTVSPropertyOp9
 70
     1
102
RTVSPropertyOp10
 70
     1
102
RTVSPropertyOp11
 70
     1
102
RTVSPropertyOp12
 70
     1
102
RTVSPropertyOp13
 70
     1
102
RTVSPropertyOp14
 70
     1
102
RTVSPropertyOp15
 70
     1
102
RTVSPropertyOp16
 70
     1
102
RTVSPropertyOp17
 70
     1
102
RTVSPropertyOp18
 70
     1
102
RTVSPropertyOp19
 70
     1
102
RTVSPropertyOp20
 70
     1
102
RTVSPropertyOp21
 70
     1
102
RTVSPropertyOp22
 70
     1
102
RTVSPropertyOp23
 70
     1
102
RTVSPropertyOp24
 70
     1
102
RTVSPropertyOp25
 70
     1
102
RTVSPropertyOp26
 70
     1
102
RTVSPropertyOp27
 70
     1
  0
ENDSEC
  0
EOF
