  0
SECTION
  2
HEADER
  9
$ACADVER
  1
AC1015
  9
$ACADMAINTVER
 70
     6
  9
$DWGCODEPAGE
  3
ANSI_1252
  9
$INSBASE
 10
0.0
 20
0.0
 30
0.0
  9
$EXTMIN
 10
0.0
 20
0.0
 30
0.0
  9
$EXTMAX
 10
25.0
 20
35.0
 30
0.0
  9
$LIMMIN
 10
0.0
 20
0.0
  9
$LIMMAX
 10
420.0
 20
297.0
  9
$ORTHOMODE
 70
     0
  9
$REGENMODE
 70
     1
  9
$FILLMODE
 70
     1
  9
$QTEXTMODE
 70
     0
  9
$MIRRTEXT
 70
     1
  9
$LTSCALE
 40
4.9
  9
$ATTMODE
 70
     1
  9
$TEXTSIZE
 40
2.5
  9
$TRACEWID
 40
1.0
  9
$TEXTSTYLE
  7
Standard
  9
$CLAYER
  8
0
  9
$CELTYPE
  6
ByLayer
  9
$CECOLOR
 62
   256
  9
$CELTSCALE
 40
1.0
  9
$DISPSILH
 70
     0
  9
$DIMSCALE
 40
1.0
  9
$DIMASZ
 40
2.5
  9
$DIMEXO
 40
0.625
  9
$DIMDLI
 40
3.75
  9
$DIMRND
 40
0.0
  9
$DIMDLE
 40
0.0
  9
$DIMEXE
 40
1.25
  9
$DIMTP
 40
0.0
  9
$DIMTM
 40
0.0
  9
$DIMTXT
 40
2.5
  9
$DIMCEN
 40
2.5
  9
$DIMTSZ
 40
0.0
  9
$DIMTOL
 70
     0
  9
$DIMLIM
 70
     0
  9
$DIMTIH
 70
     0
  9
$DIMTOH
 70
     0
  9
$DIMSE1
 70
     0
  9
$DIMSE2
 70
     0
  9
$DIMTAD
 70
     1
  9
$DIMZIN
 70
     8
  9
$DIMBLK
  1

  9
$DIMASO
 70
     1
  9
$DIMSHO
 70
     1
  9
$DIMPOST
  1

  9
$DIMAPOST
  1

  9
$DIMALT
 70
     0
  9
$DIMALTD
 70
     3
  9
$DIMALTF
 40
0.03937007874016
  9
$DIMLFAC
 40
1.0
  9
$DIMTOFL
 70
     1
  9
$DIMTVP
 40
0.0
  9
$DIMTIX
 70
     0
  9
$DIMSOXD
 70
     0
  9
$DIMSAH
 70
     0
  9
$DIMBLK1
  1

  9
$DIMBLK2
  1

  9
$DIMSTYLE
  2
ISO-25
  9
$DIMCLRD
 70
     0
  9
$DIMCLRE
 70
     0
  9
$DIMCLRT
 70
     0
  9
$DIMTFAC
 40
1.0
  9
$DIMGAP
 40
0.625
  9
$DIMJUST
 70
     0
  9
$DIMSD1
 70
     0
  9
$DIMSD2
 70
     0
  9
$DIMTOLJ
 70
     0
  9
$DIMTZIN
 70
     8
  9
$DIMALTZ
 70
     0
  9
$DIMALTTZ
 70
     0
  9
$DIMUPT
 70
     0
  9
$DIMDEC
 70
     2
  9
$DIMTDEC
 70
     2
  9
$DIMALTU
 70
     2
  9
$DIMALTTD
 70
     3
  9
$DIMTXSTY
  7
Standard
  9
$DIMAUNIT
 70
     0
  9
$DIMADEC
 70
     0
  9
$DIMALTRND
 40
0.0
  9
$DIMAZIN
 70
     0
  9
$DIMDSEP
 70
    44
  9
$DIMATFIT
 70
     3
  9
$DIMFRAC
 70
     0
  9
$DIMLDRBLK
  1

  9
$DIMLUNIT
 70
     2
  9
$DIMLWD
 70
    -2
  9
$DIMLWE
 70
    -2
  9
$DIMTMOVE
 70
     0
  9
$LUNITS
 70
     2
  9
$LUPREC
 70
     4
  9
$SKETCHINC
 40
1.0
  9
$FILLETRAD
 40
10.0
  9
$AUNITS
 70
     0
  9
$AUPREC
 70
     0
  9
$MENU
  1
.
  9
$ELEVATION
 40
0.0
  9
$PELEVATION
 40
0.0
  9
$THICKNESS
 40
0.0
  9
$LIMCHECK
 70
     0
  9
$CHAMFERA
 40
10.0
  9
$CHAMFERB
 40
10.0
  9
$CHAMFERC
 40
20.0
  9
$CHAMFERD
 40
0.0
  9
$SKPOLY
 70
     0
  9
$TDCREATE
 40
2458577.258333333
  9
$TDUCREATE
 40
2458577.175
  9
$TDUPDATE
 40
2458577.261805556
  9
$TDUUPDATE
 40
2458577.178472222
  9
$TDINDWG
 40
0.0000000116
  9
$TDUSRTIMER
 40
0.0000000116
  9
$USRTIMER
 70
     1
  9
$ANGBASE
 50
0.0
  9
$ANGDIR
 70
     0
  9
$PDMODE
 70
     0
  9
$PDSIZE
 40
0.0
  9
$PLINEWID
 40
0.0
  9
$SPLFRAME
 70
     0
  9
$SPLINETYPE
 70
     6
  9
$SPLINESEGS
 70
     8
  9
$HANDSEED
  5
85B
  9
$SURFTAB1
 70
     6
  9
$SURFTAB2
 70
     6
  9
$SURFTYPE
 70
     6
  9
$SURFU
 70
     6
  9
$SURFV
 70
     6
  9
$UCSBASE
  2

  9
$UCSNAME
  2

  9
$UCSORG
 10
0.0
 20
0.0
 30
0.0
  9
$UCSXDIR
 10
1.0
 20
0.0
 30
0.0
  9
$UCSYDIR
 10
0.0
 20
1.0
 30
0.0
  9
$UCSORTHOREF
  2

  9
$UCSORTHOVIEW
 70
     0
  9
$UCSORGTOP
 10
0.0
 20
0.0
 30
0.0
  9
$UCSORGBOTTOM
 10
0.0
 20
0.0
 30
0.0
  9
$UCSORGLEFT
 10
0.0
 20
0.0
 30
0.0
  9
$UCSORGRIGHT
 10
0.0
 20
0.0
 30
0.0
  9
$UCSORGFRONT
 10
0.0
 20
0.0
 30
0.0
  9
$UCSORGBACK
 10
0.0
 20
0.0
 30
0.0
  9
$PUCSBASE
  2

  9
$PUCSNAME
  2

  9
$PUCSORG
 10
0.0
 20
0.0
 30
0.0
  9
$PUCSXDIR
 10
1.0
 20
0.0
 30
0.0
  9
$PUCSYDIR
 10
0.0
 20
1.0
 30
0.0
  9
$PUCSORTHOREF
  2

  9
$PUCSORTHOVIEW
 70
     0
  9
$PUCSORGTOP
 10
0.0
 20
0.0
 30
0.0
  9
$PUCSORGBOTTOM
 10
0.0
 20
0.0
 30
0.0
  9
$PUCSORGLEFT
 10
0.0
 20
0.0
 30
0.0
  9
$PUCSORGRIGHT
 10
0.0
 20
0.0
 30
0.0
  9
$PUCSORGFRONT
 10
0.0
 20
0.0
 30
0.0
  9
$PUCSORGBACK
 10
0.0
 20
0.0
 30
0.0
  9
$USERI1
 70
     0
  9
$USERI2
 70
     0
  9
$USERI3
 70
     0
  9
$USERI4
 70
     0
  9
$USERI5
 70
     0
  9
$USERR1
 40
0.0
  9
$USERR2
 40
0.0
  9
$USERR3
 40
0.0
  9
$USERR4
 40
0.0
  9
$USERR5
 40
0.0
  9
$WORLDVIEW
 70
     1
  9
$SHADEDGE
 70
     3
  9
$SHADEDIF
 70
    70
  9
$TILEMODE
 70
     1
  9
$MAXACTVP
 70
    64
  9
$PINSBASE
 10
0.0
 20
0.0
 30
0.0
  9
$PLIMCHECK
 70
     0
  9
$PEXTMIN
 10
1.000000000000000E+20
 20
1.000000000000000E+20
 30
1.000000000000000E+20
  9
$PEXTMAX
 10
-1.000000000000000E+20
 20
-1.000000000000000E+20
 30
-1.000000000000000E+20
  9
$PLIMMIN
 10
0.0
 20
0.0
  9
$PLIMMAX
 10
420.0
 20
297.0
  9
$UNITMODE
 70
     0
  9
$VISRETAIN
 70
     1
  9
$PLINEGEN
 70
     0
  9
$PSLTSCALE
 70
     1
  9
$TREEDEPTH
 70
  3020
  9
$CMLSTYLE
  2
Standard
  9
$CMLJUST
 70
     0
  9
$CMLSCALE
 40
20.0
  9
$PROXYGRAPHICS
 70
     1
  9
$MEASUREMENT
 70
     1
  9
$CELWEIGHT
370
    -1
  9
$ENDCAPS
280
     0
  9
$JOINSTYLE
280
     0
  9
$LWDISPLAY
290
     0
  9
$INSUNITS
 70
     4
  9
$HYPERLINKBASE
  1

  9
$STYLESHEET
  1

  9
$XEDIT
290
     1
  9
$CEPSNTYPE
380
     0
  9
$PSTYLEMODE
290
     1
  9
$FINGERPRINTGUID
  2
{B398E880-2049-4ACF-A831-188746445E08}
  9
$VERSIONGUID
  2
{FAEB1C32-E019-11D5-929B-00C0DF256EC4}
  9
$EXTNAMES
290
     1
  9
$PSVPSCALE
 40
0.0
  9
$OLESTARTUP
290
     0
  0
ENDSEC
  0
SECTION
  2
CLASSES
  0
CLASS
  1
ACDBDICTIONARYWDFLT
  2
AcDbDictionaryWithDefault
  3
ObjectDBX Classes
 90
        0
280
     0
281
     0
  0
CLASS
  1
VISUALSTYLE
  2
AcDbVisualStyle
  3
ObjectDBX Classes
 90
     4095
280
     0
281
     0
  0
CLASS
  1
MATERIAL
  2
AcDbMaterial
  3
ObjectDBX Classes
 90
     1153
280
     0
281
     0
  0
CLASS
  1
SCALE
  2
AcDbScale
  3
ObjectDBX Classes
 90
     1153
280
     0
281
     0
  0
CLASS
  1
DICTIONARYVAR
  2
AcDbDictionaryVar
  3
ObjectDBX Classes
 90
        0
280
     0
281
     0
  0
CLASS
  1
ACDBPLACEHOLDER
  2
AcDbPlaceHolder
  3
ObjectDBX Classes
 90
        0
280
     0
281
     0
  0
CLASS
  1
LAYOUT
  2
AcDbLayout
  3
ObjectDBX Classes
 90
        0
280
     0
281
     0
  0
ENDSEC
  0
SECTION
  2
TABLES
  0
TABLE
  2
VPORT
  5
8
330
0
100
AcDbSymbolTable
 70
     1
  0
VPORT
  5
29
330
8
100
AcDbSymbolTableRecord
100
AcDbViewportTableRecord
  2
*Active
 70
     0
 10
0.0
 20
0.0
 11
1.0
 21
1.0
 12
11.26
 22
4.5
 13
0.0
 23
0.0
 14
10.0
 24
10.0
 15
10.0
 25
10.0
 16
0.0
 26
0.0
 36
1.0
 17
0.0
 27
0.0
 37
0.0
 40
9.0
 41
2.503333333333333
 42
50.0
 43
0.0
 44
0.0
 50
0.0
 51
0.0
 71
     0
 72
   100
 73
     1
 74
     3
 75
     0
 76
     0
 77
     0
 78
     0
281
     0
 65
     1
110
0.0
120
0.0
130
0.0
111
1.0
121
0.0
131
0.0
112
0.0
122
1.0
132
0.0
 79
     0
146
0.0
  0
ENDTAB
  0
TABLE
  2
LTYPE
  5
5
330
0
100
AcDbSymbolTable
 70
    10
  0
LTYPE
  5
14
330
5
100
AcDbSymbolTableRecord
100
AcDbLinetypeTableRecord
  2
ByBlock
 70
     0
  3

 72
    65
 73
     0
 40
0.0
  0
LTYPE
  5
15
330
5
100
AcDbSymbolTableRecord
100
AcDbLinetypeTableRecord
  2
ByLayer
 70
     0
  3

 72
    65
 73
     0
 40
0.0
  0
LTYPE
  5
16
330
5
100
AcDbSymbolTableRecord
100
AcDbLinetypeTableRecord
  2
Continuous
 70
     0
  3
Solid line
 72
    65
 73
     0
 40
0.0
  0
LTYPE
  5
45
330
5
100
AcDbSymbolTableRecord
100
AcDbLinetypeTableRecord
  2
phl_thick
 70
     0
  3
THICK
 72
    65
 73
     0
 40
0.0
  0
LTYPE
  5
1BC
330
5
100
AcDbSymbolTableRecord
100
AcDbLinetypeTableRecord
  2
ls_CUT
 70
     0
  3
THICK
 72
    65
 73
     0
 40
0.0
  0
LTYPE
  5
1C2
330
5
100
AcDbSymbolTableRecord
100
AcDbLinetypeTableRecord
  2
ls1
 70
     0
  3
THICK
 72
    65
 73
     0
 40
0.0
  0
LTYPE
  5
1C9
330
5
100
AcDbSymbolTableRecord
100
AcDbLinetypeTableRecord
  2
NOCUT
 70
     0
  3
THICK
 72
    65
 73
     0
 40
0.0
  0
LTYPE
  5
1CD
330
5
100
AcDbSymbolTableRecord
100
AcDbLinetypeTableRecord
  2
SK1
 70
     0
  3
THICK
 72
    65
 73
     0
 40
0.0
  0
LTYPE
  5
1D5
330
5
100
AcDbSymbolTableRecord
100
AcDbLinetypeTableRecord
  2
ls_SK2
 70
     0
  3
THIN
 72
    65
 73
     0
 40
0.0
  0
LTYPE
  5
282
330
5
100
AcDbSymbolTableRecord
100
AcDbLinetypeTableRecord
  2
ls_2
 70
     0
  3
THIN
 72
    65
 73
     0
 40
0.0
  0
LTYPE
  5
3D2
330
5
100
AcDbSymbolTableRecord
100
AcDbLinetypeTableRecord
  2
LONGDASH_DASH
 70
     0
  3
THIN_DASHDOT
 72
    65
 73
     4
 40
0.85
 49
0.4
 74
     0
 49
-0.2
 74
     0
 49
0.05
 74
     0
 49
-0.2
 74
     0
  0
LTYPE
  5
40F
330
5
100
AcDbSymbolTableRecord
100
AcDbLinetypeTableRecord
  2
ls_SK1
 70
     0
  3
THICK
 72
    65
 73
     0
 40
0.0
  0
ENDTAB
  0
TABLE
  2
LAYER
  5
2
330
0
100
AcDbSymbolTable
 70
    10
  0
LAYER
  5
10
330
2
100
AcDbSymbolTableRecord
100
AcDbLayerTableRecord
  2
0
 70
     0
 62
     7
  6
Continuous
370
    -3
390
F
  0
LAYER
  5
44
330
2
100
AcDbSymbolTableRecord
100
AcDbLayerTableRecord
  2
1
 70
     0
 62
4
  6
CONTINUOUS
370
50
370
    -3
390
F
  0
LAYER
  5
1BB
330
2
100
AcDbSymbolTableRecord
100
AcDbLayerTableRecord
  2
CUT
 70
     0
 62
1
  6
CONTINUOUS
370
25
370
    -3
390
F
  0
LAYER
  5
1C1
330
2
100
AcDbSymbolTableRecord
100
AcDbLayerTableRecord
  2
NOCUT
 70
     0
 62
7
  6
CONTINUOUS
370
25
370
    -3
390
F
  0
LAYER
  5
1CC
330
2
100
AcDbSymbolTableRecord
100
AcDbLayerTableRecord
  2
SK1
 70
     0
 62
4
  6
CONTINUOUS
370
50
370
    -3
390
F
  0
LAYER
  5
1D4
330
2
100
AcDbSymbolTableRecord
100
AcDbLayerTableRecord
  2
SK2
 70
     0
 62
7
  6
CONTINUOUS
370
25
370
    -3
390
F
  0
LAYER
  5
281
330
2
100
AcDbSymbolTableRecord
100
AcDbLayerTableRecord
  2
2
 70
     0
 62
7
  6
CONTINUOUS
370
25
370
    -3
390
F
  0
LAYER
  5
3D1
330
2
100
AcDbSymbolTableRecord
100
AcDbLayerTableRecord
  2
4
 70
     0
 62
2
  6
LONGDASH_DASH
370
25
370
    -3
390
F
  0
LAYER
  5
3D4
330
2
100
AcDbSymbolTableRecord
100
AcDbLayerTableRecord
  2
SK4
 70
     0
 62
2
  6
LONGDASH_DASH
370
25
370
    -3
390
F
  0
LAYER
  5
448
330
2
100
AcDbSymbolTableRecord
100
AcDbLayerTableRecord
  2
SK6
 70
     0
 62
5
  6
CONTINUOUS
370
25
370
    -3
390
F
  0
ENDTAB
  0
TABLE
  2
STYLE
  5
3
330
0
100
AcDbSymbolTable
 70
     1
  0
STYLE
  5
11
330
3
100
AcDbSymbolTableRecord
100
AcDbTextStyleTableRecord
  2
Standard
 70
     0
 40
0.0
 41
1.0
 50
0.0
 71
     0
 42
2.5
  3
Monospac821 BT
  4

  0
ENDTAB
  0
TABLE
  2
VIEW
  5
6
330
0
100
AcDbSymbolTable
 70
     0
  0
ENDTAB
  0
TABLE
  2
UCS
  5
7
330
0
100
AcDbSymbolTable
 70
     0
  0
ENDTAB
  0
TABLE
  2
APPID
  5
9
330
0
100
AcDbSymbolTable
 70
     2
  0
APPID
  5
12
330
9
100
AcDbSymbolTableRecord
100
AcDbRegAppTableRecord
  2
ACAD
 70
     0
  0
APPID
  5
3F
330
9
100
AcDbSymbolTableRecord
100
AcDbRegAppTableRecord
  2
ccLab
 70
     0
  0
ENDTAB
  0
TABLE
  2
DIMSTYLE
  5
A
330
0
100
AcDbSymbolTable
 70
     1
100
AcDbDimStyleTable
  0
DIMSTYLE
105
27
330
A
100
AcDbSymbolTableRecord
100
AcDbDimStyleTableRecord
  2
ISO-25
 70
     0
 41
2.5
 42
0.625
 43
3.75
 44
1.25
 73
     0
 74
     0
 77
     1
 78
     8
140
2.5
141
2.5
143
0.03937007874016
147
0.625
171
     3
172
     1
271
     2
272
     2
274
     3
278
    44
283
     0
284
     8
340
11
  0
ENDTAB
  0
TABLE
  2
BLOCK_RECORD
  5
1
330
0
100
AcDbSymbolTable
 70
     2
  0
BLOCK_RECORD
  5
1F
330
1
100
AcDbSymbolTableRecord
100
AcDbBlockTableRecord
  2
*Model_Space
340
22
  0
BLOCK_RECORD
  5
1B
330
1
100
AcDbSymbolTableRecord
100
AcDbBlockTableRecord
  2
*Paper_Space
340
1E
  0
BLOCK_RECORD
  5
23
330
1
100
AcDbSymbolTableRecord
100
AcDbBlockTableRecord
  2
*Paper_Space0
340
26
  0
ENDTAB
  0
ENDSEC
  0
SECTION
  2
BLOCKS
  0
BLOCK
  5
20
330
1F
100
AcDbEntity
  8
0
100
AcDbBlockBegin
  2
*Model_Space
 70
     0
 10
0.0
 20
0.0
 30
0.0
  3
*Model_Space
  1

  0
ENDBLK
  5
21
330
1F
100
AcDbEntity
  8
0
100
AcDbBlockEnd
  0
BLOCK
  5
1C
330
1B
100
AcDbEntity
 67
     1
  8
0
100
AcDbBlockBegin
  2
*Paper_Space
 70
     0
 10
0.0
 20
0.0
 30
0.0
  3
*Paper_Space
  1

  0
ENDBLK
  5
1D
330
1B
100
AcDbEntity
 67
     1
  8
0
100
AcDbBlockEnd
  0
BLOCK
  5
24
330
23
100
AcDbEntity
  8
0
100
AcDbBlockBegin
  2
*Paper_Space0
 70
     0
 10
0.0
 20
0.0
 30
0.0
  3
*Paper_Space0
  1

  0
ENDBLK
  5
25
330
23
100
AcDbEntity
  8
0
100
AcDbBlockEnd
  0
ENDSEC
  0
SECTION
  2
ENTITIES
  0
LINE
  5
452
330
1F
100
AcDbEntity
  8
1
  6
CONTINUOUS
370
50
 62
4
100
AcDbLine
 10
37.756145
 20
-0.234298
 30
0.0
 11
37.756134
 21
-0.204966
 31
0.0
  0
LINE
  5
453
330
1F
100
AcDbEntity
  8
1
  6
CONTINUOUS
370
50
 62
4
100
AcDbLine
 10
37.756203
 20
-0.263099
 30
0.0
 11
37.756145
 21
-0.234298
 31
0.0
  0
LINE
  5
454
330
1F
100
AcDbEntity
  8
1
  6
CONTINUOUS
370
50
 62
4
100
AcDbLine
 10
37.756313
 20
-0.291148
 30
0.0
 11
37.756203
 21
-0.263099
 31
0.0
  0
LINE
  5
455
330
1F
100
AcDbEntity
  8
1
  6
CONTINUOUS
370
50
 62
4
100
AcDbLine
 10
37.75647
 20
-0.318178
 30
0.0
 11
37.756313
 21
-0.291148
 31
0.0
  0
LINE
  5
456
330
1F
100
AcDbEntity
  8
1
  6
CONTINUOUS
370
50
 62
4
100
AcDbLine
 10
37.756672
 20
-0.343921
 30
0.0
 11
37.75647
 21
-0.318178
 31
0.0
  0
LINE
  5
457
330
1F
100
AcDbEntity
  8
1
  6
CONTINUOUS
370
50
 62
4
100
AcDbLine
 10
37.756927
 20
-0.36811
 30
0.0
 11
37.756672
 21
-0.343921
 31
0.0
  0
LINE
  5
458
330
1F
100
AcDbEntity
  8
1
  6
CONTINUOUS
370
50
 62
4
100
AcDbLine
 10
37.757229
 20
-0.390498
 30
0.0
 11
37.756927
 21
-0.36811
 31
0.0
  0
LINE
  5
459
330
1F
100
AcDbEntity
  8
1
  6
CONTINUOUS
370
50
 62
4
100
AcDbLine
 10
37.75758
 20
-0.410958
 30
0.0
 11
37.757229
 21
-0.390498
 31
0.0
  0
LINE
  5
45A
330
1F
100
AcDbEntity
  8
1
  6
CONTINUOUS
370
50
 62
4
100
AcDbLine
 10
37.757969
 20
-0.429405
 30
0.0
 11
37.75758
 21
-0.410958
 31
0.0
  0
LINE
  5
45B
330
1F
100
AcDbEntity
  8
1
  6
CONTINUOUS
370
50
 62
4
100
AcDbLine
 10
37.758392
 20
-0.445752
 30
0.0
 11
37.757969
 21
-0.429405
 31
0.0
  0
LINE
  5
45C
330
1F
100
AcDbEntity
  8
1
  6
CONTINUOUS
370
50
 62
4
100
AcDbLine
 10
37.758846
 20
-0.459915
 30
0.0
 11
37.758392
 21
-0.445752
 31
0.0
  0
LINE
  5
45D
330
1F
100
AcDbEntity
  8
1
  6
CONTINUOUS
370
50
 62
4
100
AcDbLine
 10
37.759331
 20
-0.471809
 30
0.0
 11
37.758846
 21
-0.459915
 31
0.0
  0
LINE
  5
45E
330
1F
100
AcDbEntity
  8
1
  6
CONTINUOUS
370
50
 62
4
100
AcDbLine
 10
37.766846
 20
0.451577
 30
0.0
 11
37.766388
 21
0.460392
 31
0.0
  0
LINE
  5
45F
330
1F
100
AcDbEntity
  8
1
  6
CONTINUOUS
370
50
 62
4
100
AcDbLine
 10
37.759846
 20
-0.481607
 30
0.0
 11
37.759331
 21
-0.471809
 31
0.0
  0
LINE
  5
460
330
1F
100
AcDbEntity
  8
1
  6
CONTINUOUS
370
50
 62
4
100
AcDbLine
 10
37.766388
 20
0.460392
 30
0.0
 11
37.765923
 21
0.468428
 31
0.0
  0
LINE
  5
461
330
1F
100
AcDbEntity
  8
1
  6
CONTINUOUS
370
50
 62
4
100
AcDbLine
 10
37.765923
 20
0.468428
 30
0.0
 11
37.765457
 21
0.475646
 31
0.0
  0
LINE
  5
462
330
1F
100
AcDbEntity
  8
1
  6
CONTINUOUS
370
50
 62
4
100
AcDbLine
 10
37.760403
 20
-0.489431
 30
0.0
 11
37.759846
 21
-0.481607
 31
0.0
  0
LINE
  5
463
330
1F
100
AcDbEntity
  8
1
  6
CONTINUOUS
370
50
 62
4
100
AcDbLine
 10
37.765457
 20
0.475646
 30
0.0
 11
37.764988
 21
0.482005
 31
0.0
  0
LINE
  5
464
330
1F
100
AcDbEntity
  8
1
  6
CONTINUOUS
370
50
 62
4
100
AcDbLine
 10
37.792366
 20
0.336437
 30
0.0
 11
37.791611
 21
0.346308
 31
0.0
  0
LINE
  5
465
330
1F
100
AcDbEntity
  8
1
  6
CONTINUOUS
370
50
 62
4
100
AcDbLine
 10
37.764988
 20
0.482005
 30
0.0
 11
37.764519
 21
0.487468
 31
0.0
  0
LINE
  5
466
330
1F
100
AcDbEntity
  8
1
  6
CONTINUOUS
370
50
 62
4
100
AcDbLine
 10
37.764519
 20
0.487468
 30
0.0
 11
37.764053
 21
0.491994
 31
0.0
  0
LINE
  5
467
330
1F
100
AcDbEntity
  8
1
  6
CONTINUOUS
370
50
 62
4
100
AcDbLine
 10
37.760998
 20
-0.495173
 30
0.0
 11
37.760403
 21
-0.489431
 31
0.0
  0
LINE
  5
468
330
1F
100
AcDbEntity
  8
1
  6
CONTINUOUS
370
50
 62
4
100
AcDbLine
 10
37.764053
 20
0.491994
 30
0.0
 11
37.763588
 21
0.495544
 31
0.0
  0
LINE
  5
469
330
1F
100
AcDbEntity
  8
1
  6
CONTINUOUS
370
50
 62
4
100
AcDbLine
 10
31.932602
 20
-0.273703
 30
0.0
 11
31.929537
 21
-0.25175
 31
0.0
  0
LINE
  5
46A
330
1F
100
AcDbEntity
  8
1
  6
CONTINUOUS
370
50
 62
4
100
AcDbLine
 10
37.966194
 20
-0.016827
 30
0.0
 11
37.965496
 21
-0.012843
 31
0.0
  0
LINE
  5
46B
330
1F
100
AcDbEntity
  8
1
  6
CONTINUOUS
370
50
 62
4
100
AcDbLine
 10
37.76162
 20
-0.498723
 30
0.0
 11
37.760998
 21
-0.495173
 31
0.0
  0
LINE
  5
46C
330
1F
100
AcDbEntity
  8
1
  6
CONTINUOUS
370
50
 62
4
100
AcDbLine
 10
37.763588
 20
0.495544
 30
0.0
 11
37.76313
 21
0.498078
 31
0.0
  0
LINE
  5
46D
330
1F
100
AcDbEntity
  8
1
  6
CONTINUOUS
370
50
 62
4
100
AcDbLine
 10
37.965496
 20
-0.012843
 30
0.0
 11
37.964645
 21
-0.008717
 31
0.0
  0
LINE
  5
46E
330
1F
100
AcDbEntity
  8
1
  6
CONTINUOUS
370
50
 62
4
100
AcDbLine
 10
37.964645
 20
-0.008717
 30
0.0
 11
37.963627
 21
-0.004416
 31
0.0
  0
LINE
  5
46F
330
1F
100
AcDbEntity
  8
1
  6
CONTINUOUS
370
50
 62
4
100
AcDbLine
 10
37.963627
 20
-0.004416
 30
0.0
 11
37.962425
 21
0.000097
 31
0.0
  0
LINE
  5
470
330
1F
100
AcDbEntity
  8
1
  6
CONTINUOUS
370
50
 62
4
100
AcDbLine
 10
37.962425
 20
0.000097
 30
0.0
 11
37.961025
 21
0.004865
 31
0.0
  0
LINE
  5
471
330
1F
100
AcDbEntity
  8
1
  6
CONTINUOUS
370
50
 62
4
100
AcDbLine
 10
37.76313
 20
0.498078
 30
0.0
 11
37.76268
 21
0.499558
 31
0.0
  0
LINE
  5
472
330
1F
100
AcDbEntity
  8
1
  6
CONTINUOUS
370
50
 62
4
100
AcDbLine
 10
37.961025
 20
0.004865
 30
0.0
 11
37.9594
 21
0.009936
 31
0.0
  0
LINE
  5
473
330
1F
100
AcDbEntity
  8
1
  6
CONTINUOUS
370
50
 62
4
100
AcDbLine
 10
37.9594
 20
0.009936
 30
0.0
 11
37.957527
 21
0.015369
 31
0.0
  0
LINE
  5
474
330
1F
100
AcDbEntity
  8
1
  6
CONTINUOUS
370
50
 62
4
100
AcDbLine
 10
37.959061
 20
0.015354
 30
0.0
 11
37.953976
 21
0.028789
 31
0.0
  0
LINE
  5
475
330
1F
100
AcDbEntity
  8
1
  6
CONTINUOUS
370
50
 62
4
100
AcDbLine
 10
31.941011
 20
-0.294229
 30
0.0
 11
31.932602
 21
-0.273703
 31
0.0
  0
LINE
  5
476
330
1F
100
AcDbEntity
  8
1
  6
CONTINUOUS
370
50
 62
4
100
AcDbLine
 10
37.953976
 20
0.028789
 30
0.0
 11
37.947018
 21
0.045299
 31
0.0
  0
LINE
  5
477
330
1F
100
AcDbEntity
  8
1
  6
CONTINUOUS
370
50
 62
4
100
AcDbLine
 10
37.947018
 20
0.045299
 30
0.0
 11
37.937317
 21
0.066544
 31
0.0
  0
LINE
  5
478
330
1F
100
AcDbEntity
  8
1
  6
CONTINUOUS
370
50
 62
4
100
AcDbLine
 10
38.0
 20
0.0
 30
0.0
 11
37.762676
 21
0.499573
 31
0.0
  0
LINE
  5
479
330
1F
100
AcDbEntity
  8
1
  6
CONTINUOUS
370
50
 62
4
100
AcDbLine
 10
37.791611
 20
0.346308
 30
0.0
 11
37.7882
 21
0.353433
 31
0.0
  0
LINE
  5
47A
330
1F
100
AcDbEntity
  8
1
  6
CONTINUOUS
370
50
 62
4
100
AcDbLine
 10
37.937317
 20
0.066544
 30
0.0
 11
37.923298
 21
0.095481
 31
0.0
  0
LINE
  5
47B
330
1F
100
AcDbEntity
  8
1
  6
CONTINUOUS
370
50
 62
4
100
AcDbLine
 10
37.7882
 20
0.353433
 30
0.0
 11
37.784706
 21
0.360511
 31
0.0
  0
LINE
  5
47C
330
1F
100
AcDbEntity
  8
1
  6
CONTINUOUS
370
50
 62
4
100
AcDbLine
 10
37.784706
 20
0.360511
 30
0.0
 11
37.781185
 21
0.367557
 31
0.0
  0
LINE
  5
47D
330
1F
100
AcDbEntity
  8
1
  6
CONTINUOUS
370
50
 62
4
100
AcDbLine
 10
37.781185
 20
0.367557
 30
0.0
 11
37.777641
 21
0.374567
 31
0.0
  0
LINE
  5
47E
330
1F
100
AcDbEntity
  8
1
  6
CONTINUOUS
370
50
 62
4
100
AcDbLine
 10
37.923298
 20
0.095481
 30
0.0
 11
37.901779
 21
0.138009
 31
0.0
  0
LINE
  5
47F
330
1F
100
AcDbEntity
  8
1
  6
CONTINUOUS
370
50
 62
4
100
AcDbLine
 10
37.762272
 20
-0.500001
 30
0.0
 11
37.76162
 21
-0.498723
 31
0.0
  0
LINE
  5
480
330
1F
100
AcDbEntity
  8
1
  6
CONTINUOUS
370
50
 62
4
100
AcDbLine
 10
37.777641
 20
0.374567
 30
0.0
 11
37.774071
 21
0.381537
 31
0.0
  0
LINE
  5
481
330
1F
100
AcDbEntity
  8
1
  6
CONTINUOUS
370
50
 62
4
100
AcDbLine
 10
38.0
 20
0.0
 30
0.0
 11
37.766846
 21
0.451577
 31
0.0
  0
LINE
  5
482
330
1F
100
AcDbEntity
  8
1
  6
CONTINUOUS
370
50
 62
4
100
AcDbLine
 10
37.774071
 20
0.381537
 30
0.0
 11
37.770485
 21
0.388465
 31
0.0
  0
LINE
  5
483
330
1F
100
AcDbEntity
  8
1
  6
CONTINUOUS
370
50
 62
4
100
AcDbLine
 10
37.901779
 20
0.138009
 30
0.0
 11
37.865326
 21
0.207871
 31
0.0
  0
LINE
  5
484
330
1F
100
AcDbEntity
  8
1
  6
CONTINUOUS
370
50
 62
4
100
AcDbLine
 10
37.76268
 20
0.499558
 30
0.0
 11
37.762611
 21
0.49969
 31
0.0
  0
LINE
  5
485
330
1F
100
AcDbEntity
  8
1
  6
CONTINUOUS
370
50
 62
4
100
AcDbLine
 10
37.770485
 20
0.388465
 30
0.0
 11
37.766846
 21
0.395334
 31
0.0
  0
LINE
  5
486
330
1F
100
AcDbEntity
  8
1
  6
CONTINUOUS
370
50
 62
4
100
AcDbLine
 10
37.865326
 20
0.207871
 30
0.0
 11
37.791611
 21
0.346308
 31
0.0
  0
LINE
  5
487
330
1F
100
AcDbEntity
  8
1
  6
CONTINUOUS
370
50
 62
4
100
AcDbLine
 10
37.762611
 20
0.49969
 30
0.0
 11
37.762543
 21
0.499797
 31
0.0
  0
LINE
  5
488
330
1F
100
AcDbEntity
  8
1
  6
CONTINUOUS
370
50
 62
4
100
AcDbLine
 10
31.95314
 20
-0.31284
 30
0.0
 11
31.941011
 21
-0.294229
 31
0.0
  0
LINE
  5
489
330
1F
100
AcDbEntity
  8
1
  6
CONTINUOUS
370
50
 62
4
100
AcDbLine
 10
37.762543
 20
0.499797
 30
0.0
 11
37.762474
 21
0.499879
 31
0.0
  0
LINE
  5
48A
330
1F
100
AcDbEntity
  8
1
  6
CONTINUOUS
370
50
 62
4
100
AcDbLine
 10
31.967907
 20
-0.329795
 30
0.0
 11
31.95314
 21
-0.31284
 31
0.0
  0
LINE
  5
48B
330
1F
100
AcDbEntity
  8
1
  6
CONTINUOUS
370
50
 62
4
100
AcDbLine
 10
37.84222
 20
-0.078532
 30
0.0
 11
37.810333
 21
-0.046461
 31
0.0
  0
LINE
  5
48C
330
1F
100
AcDbEntity
  8
1
  6
CONTINUOUS
370
50
 62
4
100
AcDbLine
 10
37.810333
 20
-0.046461
 30
0.0
 11
37.774883
 21
-0.011091
 31
0.0
  0
LINE
  5
48D
330
1F
100
AcDbEntity
  8
1
  6
CONTINUOUS
370
50
 62
4
100
AcDbLine
 10
37.774883
 20
-0.011091
 30
0.0
 11
37.735989
 21
0.026967
 31
0.0
  0
LINE
  5
48E
330
1F
100
AcDbEntity
  8
1
  6
CONTINUOUS
370
50
 62
4
100
AcDbLine
 10
37.735989
 20
0.026967
 30
0.0
 11
37.694248
 21
0.067187
 31
0.0
  0
LINE
  5
48F
330
1F
100
AcDbEntity
  8
1
  6
CONTINUOUS
370
50
 62
4
100
AcDbLine
 10
37.694248
 20
0.067187
 30
0.0
 11
37.650265
 21
0.109042
 31
0.0
  0
LINE
  5
490
330
1F
100
AcDbEntity
  8
1
  6
CONTINUOUS
370
50
 62
4
100
AcDbLine
 10
37.650265
 20
0.109042
 30
0.0
 11
37.604633
 21
0.152008
 31
0.0
  0
LINE
  5
491
330
1F
100
AcDbEntity
  8
1
  6
CONTINUOUS
370
50
 62
4
100
AcDbLine
 10
37.604633
 20
0.152008
 30
0.0
 11
37.557983
 21
0.195567
 31
0.0
  0
LINE
  5
492
330
1F
100
AcDbEntity
  8
1
  6
CONTINUOUS
370
50
 62
4
100
AcDbLine
 10
31.984642
 20
-0.345383
 30
0.0
 11
31.967907
 21
-0.329795
 31
0.0
  0
LINE
  5
493
330
1F
100
AcDbEntity
  8
1
  6
CONTINUOUS
370
50
 62
4
100
AcDbLine
 10
37.762474
 20
0.499879
 30
0.0
 11
37.762409
 21
0.499935
 31
0.0
  0
LINE
  5
494
330
1F
100
AcDbEntity
  8
1
  6
CONTINUOUS
370
50
 62
4
100
AcDbLine
 10
32.002464
 20
-0.3595
 30
0.0
 11
31.984642
 21
-0.345383
 31
0.0
  0
LINE
  5
495
330
1F
100
AcDbEntity
  8
1
  6
CONTINUOUS
370
50
 62
4
100
AcDbLine
 10
32.020496
 20
-0.372045
 30
0.0
 11
32.002464
 21
-0.3595
 31
0.0
  0
LINE
  5
496
330
1F
100
AcDbEntity
  8
1
  6
CONTINUOUS
370
50
 62
4
100
AcDbLine
 10
32.037857
 20
-0.382913
 30
0.0
 11
32.020496
 21
-0.372045
 31
0.0
  0
LINE
  5
497
330
1F
100
AcDbEntity
  8
1
  6
CONTINUOUS
370
50
 62
4
100
AcDbLine
 10
34.0
 20
-0.5005
 30
0.0
 11
33.999134
 21
-0.5
 31
0.0
  0
LINE
  5
498
330
1F
100
AcDbEntity
  8
1
  6
CONTINUOUS
370
50
 62
4
100
AcDbLine
 10
32.054096
 20
-0.392238
 30
0.0
 11
32.037857
 21
-0.382913
 31
0.0
  0
LINE
  5
499
330
1F
100
AcDbEntity
  8
1
  6
CONTINUOUS
370
50
 62
4
100
AcDbLine
 10
32.07056
 20
-0.401016
 30
0.0
 11
32.054096
 21
-0.392238
 31
0.0
  0
LINE
  5
49A
330
1F
100
AcDbEntity
  8
1
  6
CONTINUOUS
370
50
 62
4
100
AcDbLine
 10
37.966194
 20
-0.016827
 30
0.0
 11
37.557983
 21
0.195567
 31
0.0
  0
LINE
  5
49B
330
1F
100
AcDbEntity
  8
1
  6
CONTINUOUS
370
50
 62
4
100
AcDbLine
 10
32.58667
 20
-0.250206
 30
0.0
 11
32.539772
 21
-0.225966
 31
0.0
  0
LINE
  5
49C
330
1F
100
AcDbEntity
  8
1
  6
CONTINUOUS
370
50
 62
4
100
AcDbLine
 10
32.087364
 20
-0.409369
 30
0.0
 11
32.07056
 21
-0.401016
 31
0.0
  0
LINE
  5
49D
330
1F
100
AcDbEntity
  8
1
  6
CONTINUOUS
370
50
 62
4
100
AcDbLine
 10
32.539772
 20
-0.225966
 30
0.0
 11
32.492699
 21
-0.203545
 31
0.0
  0
LINE
  5
49E
330
1F
100
AcDbEntity
  8
1
  6
CONTINUOUS
370
50
 62
4
100
AcDbLine
 10
32.104401
 20
-0.417296
 30
0.0
 11
32.087364
 21
-0.409369
 31
0.0
  0
LINE
  5
49F
330
1F
100
AcDbEntity
  8
1
  6
CONTINUOUS
370
50
 62
4
100
AcDbLine
 10
34.019226
 20
0.013738
 30
0.0
 11
34.0
 21
0.022667
 31
0.0
  0
LINE
  5
4A0
330
1F
100
AcDbEntity
  8
1
  6
CONTINUOUS
370
50
 62
4
100
AcDbLine
 10
34.038471
 20
0.004813
 30
0.0
 11
34.019226
 21
0.013738
 31
0.0
  0
LINE
  5
4A1
330
1F
100
AcDbEntity
  8
1
  6
CONTINUOUS
370
50
 62
4
100
AcDbLine
 10
37.549335
 20
-0.04863
 30
0.0
 11
37.507946
 21
-0.029469
 31
0.0
  0
LINE
  5
4A2
330
1F
100
AcDbEntity
  8
1
  6
CONTINUOUS
370
50
 62
4
100
AcDbLine
 10
34.057739
 20
-0.004106
 30
0.0
 11
34.038471
 21
0.004813
 31
0.0
  0
LINE
  5
4A3
330
1F
100
AcDbEntity
  8
1
  6
CONTINUOUS
370
50
 62
4
100
AcDbLine
 10
34.077019
 20
-0.013018
 30
0.0
 11
34.057739
 21
-0.004106
 31
0.0
  0
LINE
  5
4A4
330
1F
100
AcDbEntity
  8
1
  6
CONTINUOUS
370
50
 62
4
100
AcDbLine
 10
33.999134
 20
0.023399
 30
0.0
 11
33.871021
 21
0.082559
 31
0.0
  0
LINE
  5
4A5
330
1F
100
AcDbEntity
  8
1
  6
CONTINUOUS
370
50
 62
4
100
AcDbLine
 10
37.590637
 20
-0.067699
 30
0.0
 11
37.549335
 21
-0.04863
 31
0.0
  0
LINE
  5
4A6
330
1F
100
AcDbEntity
  8
1
  6
CONTINUOUS
370
50
 62
4
100
AcDbLine
 10
37.507946
 20
-0.029469
 30
0.0
 11
37.397034
 21
0.021737
 31
0.0
  0
LINE
  5
4A7
330
1F
100
AcDbEntity
  8
1
  6
CONTINUOUS
370
50
 62
4
100
AcDbLine
 10
34.09631
 20
-0.021922
 30
0.0
 11
34.077019
 21
-0.013018
 31
0.0
  0
LINE
  5
4A8
330
1F
100
AcDbEntity
  8
1
  6
CONTINUOUS
370
50
 62
4
100
AcDbLine
 10
35.468727
 20
-0.051268
 30
0.0
 11
35.291672
 21
0.030353
 31
0.0
  0
LINE
  5
4A9
330
1F
100
AcDbEntity
  8
1
  6
CONTINUOUS
370
50
 62
4
100
AcDbLine
 10
34.115604
 20
-0.030814
 30
0.0
 11
34.09631
 21
-0.021922
 31
0.0
  0
LINE
  5
4AA
330
1F
100
AcDbEntity
  8
1
  6
CONTINUOUS
370
50
 62
4
100
AcDbLine
 10
37.631916
 20
-0.086657
 30
0.0
 11
37.590637
 21
-0.067699
 31
0.0
  0
LINE
  5
4AB
330
1F
100
AcDbEntity
  8
1
  6
CONTINUOUS
370
50
 62
4
100
AcDbLine
 10
35.291672
 20
0.030353
 30
0.0
 11
35.105904
 21
0.115655
 31
0.0
  0
LINE
  5
4AC
330
1F
100
AcDbEntity
  8
1
  6
CONTINUOUS
370
50
 62
4
100
AcDbLine
 10
37.397034
 20
0.021737
 30
0.0
 11
37.285957
 21
0.072667
 31
0.0
  0
LINE
  5
4AD
330
1F
100
AcDbEntity
  8
1
  6
CONTINUOUS
370
50
 62
4
100
AcDbLine
 10
34.278759
 20
-0.105511
 30
0.0
 11
34.115604
 21
-0.030814
 31
0.0
  0
LINE
  5
4AE
330
1F
100
AcDbEntity
  8
1
  6
CONTINUOUS
370
50
 62
4
100
AcDbLine
 10
35.645058
 20
-0.131723
 30
0.0
 11
35.468727
 21
-0.051268
 31
0.0
  0
LINE
  5
4AF
330
1F
100
AcDbEntity
  8
1
  6
CONTINUOUS
370
50
 62
4
100
AcDbLine
 10
37.762409
 20
0.499935
 30
0.0
 11
37.762341
 21
0.499966
 31
0.0
  0
LINE
  5
4B0
330
1F
100
AcDbEntity
  8
1
  6
CONTINUOUS
370
50
 62
4
100
AcDbLine
 10
37.673237
 20
-0.105484
 30
0.0
 11
37.631916
 21
-0.086657
 31
0.0
  0
LINE
  5
4B1
330
1F
100
AcDbEntity
  8
1
  6
CONTINUOUS
370
50
 62
4
100
AcDbLine
 10
37.285957
 20
0.072667
 30
0.0
 11
37.175739
 21
0.122839
 31
0.0
  0
LINE
  5
4B2
330
1F
100
AcDbEntity
  8
1
  6
CONTINUOUS
370
50
 62
4
100
AcDbLine
 10
37.714664
 20
-0.124161
 30
0.0
 11
37.673237
 21
-0.105484
 31
0.0
  0
LINE
  5
4B3
330
1F
100
AcDbEntity
  8
1
  6
CONTINUOUS
370
50
 62
4
100
AcDbLine
 10
33.871021
 20
0.082559
 30
0.0
 11
33.742405
 21
0.140389
 31
0.0
  0
LINE
  5
4B4
330
1F
100
AcDbEntity
  8
1
  6
CONTINUOUS
370
50
 62
4
100
AcDbLine
 10
34.440708
 20
-0.177696
 30
0.0
 11
34.278759
 21
-0.105511
 31
0.0
  0
LINE
  5
4B5
330
1F
100
AcDbEntity
  8
1
  6
CONTINUOUS
370
50
 62
4
100
AcDbLine
 10
37.756252
 20
-0.142668
 30
0.0
 11
37.714664
 21
-0.124161
 31
0.0
  0
LINE
  5
4B6
330
1F
100
AcDbEntity
  8
1
  6
CONTINUOUS
370
50
 62
4
100
AcDbLine
 10
37.175739
 20
0.122839
 30
0.0
 11
37.065495
 21
0.171748
 31
0.0
  0
LINE
  5
4B7
330
1F
100
AcDbEntity
  8
1
  6
CONTINUOUS
370
50
 62
4
100
AcDbLine
 10
35.105904
 20
0.115655
 30
0.0
 11
34.919201
 21
0.197543
 31
0.0
  0
LINE
  5
4B8
330
1F
100
AcDbEntity
  8
1
  6
CONTINUOUS
370
50
 62
4
100
AcDbLine
 10
32.121574
 20
-0.424796
 30
0.0
 11
32.104401
 21
-0.417296
 31
0.0
  0
LINE
  5
4B9
330
1F
100
AcDbEntity
  8
1
  6
CONTINUOUS
370
50
 62
4
100
AcDbLine
 10
33.742405
 20
0.140389
 30
0.0
 11
33.614109
 21
0.196117
 31
0.0
  0
LINE
  5
4BA
330
1F
100
AcDbEntity
  8
1
  6
CONTINUOUS
370
50
 62
4
100
AcDbLine
 10
35.821911
 20
-0.208408
 30
0.0
 11
35.645058
 21
-0.131723
 31
0.0
  0
LINE
  5
4BB
330
1F
100
AcDbEntity
  8
1
  6
CONTINUOUS
370
50
 62
4
100
AcDbLine
 10
32.492699
 20
-0.203545
 30
0.0
 11
32.445282
 21
-0.183271
 31
0.0
  0
LINE
  5
4BC
330
1F
100
AcDbEntity
  8
1
  6
CONTINUOUS
370
50
 62
4
100
AcDbLine
 10
37.065495
 20
0.171748
 30
0.0
 11
36.954624
 21
0.21876
 31
0.0
  0
LINE
  5
4BD
330
1F
100
AcDbEntity
  8
1
  6
CONTINUOUS
370
50
 62
4
100
AcDbLine
 10
34.604008
 20
-0.24591
 30
0.0
 11
34.440708
 21
-0.177696
 31
0.0
  0
LINE
  5
4BE
330
1F
100
AcDbEntity
  8
1
  6
CONTINUOUS
370
50
 62
4
100
AcDbLine
 10
33.614109
 20
0.196117
 30
0.0
 11
33.486835
 21
0.249013
 31
0.0
  0
LINE
  5
4BF
330
1F
100
AcDbEntity
  8
1
  6
CONTINUOUS
370
50
 62
4
100
AcDbLine
 10
33.999565
 20
0.023224
 30
0.0
 11
33.999424
 21
0.023282
 31
0.0
  0
LINE
  5
4C0
330
1F
100
AcDbEntity
  8
1
  6
CONTINUOUS
370
50
 62
4
100
AcDbLine
 10
32.138786
 20
-0.431869
 30
0.0
 11
32.121574
 21
-0.424796
 31
0.0
  0
LINE
  5
4C1
330
1F
100
AcDbEntity
  8
1
  6
CONTINUOUS
370
50
 62
4
100
AcDbLine
 10
34.919201
 20
0.197543
 30
0.0
 11
34.73283
 21
0.273707
 31
0.0
  0
LINE
  5
4C2
330
1F
100
AcDbEntity
  8
1
  6
CONTINUOUS
370
50
 62
4
100
AcDbLine
 10
33.99971
 20
0.023165
 30
0.0
 11
33.999565
 21
0.023224
 31
0.0
  0
LINE
  5
4C3
330
1F
100
AcDbEntity
  8
1
  6
CONTINUOUS
370
50
 62
4
100
AcDbLine
 10
33.999424
 20
0.023282
 30
0.0
 11
33.999279
 21
0.023341
 31
0.0
  0
LINE
  5
4C4
330
1F
100
AcDbEntity
  8
1
  6
CONTINUOUS
370
50
 62
4
100
AcDbLine
 10
36.954624
 20
0.21876
 30
0.0
 11
36.84461599999999
 21
0.263311
 31
0.0
  0
LINE
  5
4C5
330
1F
100
AcDbEntity
  8
1
  6
CONTINUOUS
370
50
 62
4
100
AcDbLine
 10
35.99794
 20
-0.279548
 30
0.0
 11
35.821911
 21
-0.208408
 31
0.0
  0
LINE
  5
4C6
330
1F
100
AcDbEntity
  8
1
  6
CONTINUOUS
370
50
 62
4
100
AcDbLine
 10
34.0
 20
0.023049
 30
0.0
 11
33.99971
 21
0.023165
 31
0.0
  0
LINE
  5
4C7
330
1F
100
AcDbEntity
  8
1
  6
CONTINUOUS
370
50
 62
4
100
AcDbLine
 10
33.999279
 20
0.023341
 30
0.0
 11
33.999134
 21
0.023399
 31
0.0
  0
LINE
  5
4C8
330
1F
100
AcDbEntity
  8
1
  6
CONTINUOUS
370
50
 62
4
100
AcDbLine
 10
32.155983
 20
-0.438531
 30
0.0
 11
32.138786
 21
-0.431869
 31
0.0
  0
LINE
  5
4C9
330
1F
100
AcDbEntity
  8
1
  6
CONTINUOUS
370
50
 62
4
100
AcDbLine
 10
33.486835
 20
0.249013
 30
0.0
 11
33.358959
 21
0.298442
 31
0.0
  0
LINE
  5
4CA
330
1F
100
AcDbEntity
  8
1
  6
CONTINUOUS
370
50
 62
4
100
AcDbLine
 10
34.766998
 20
-0.308778
 30
0.0
 11
34.604008
 21
-0.24591
 31
0.0
  0
LINE
  5
4CB
330
1F
100
AcDbEntity
  8
1
  6
CONTINUOUS
370
50
 62
4
100
AcDbLine
 10
36.84461599999999
 20
0.263311
 30
0.0
 11
36.735092
 21
0.305179
 31
0.0
  0
LINE
  5
4CC
330
1F
100
AcDbEntity
  8
1
  6
CONTINUOUS
370
50
 62
4
100
AcDbLine
 10
38.0
 20
0.0
 30
0.0
 11
37.959061
 21
0.015354
 31
0.0
  0
LINE
  5
4CD
330
1F
100
AcDbEntity
  8
1
  6
CONTINUOUS
370
50
 62
4
100
AcDbLine
 10
32.734528
 20
-0.328005
 30
0.0
 11
32.58667
 21
-0.272836
 31
0.0
  0
LINE
  5
4CE
330
1F
100
AcDbEntity
  8
1
  6
CONTINUOUS
370
50
 62
4
100
AcDbLine
 10
32.445282
 20
-0.183271
 30
0.0
 11
32.397358
 21
-0.16547
 31
0.0
  0
LINE
  5
4CF
330
1F
100
AcDbEntity
  8
1
  6
CONTINUOUS
370
50
 62
4
100
AcDbLine
 10
32.173275
 20
-0.44485
 30
0.0
 11
32.155983
 21
-0.438531
 31
0.0
  0
LINE
  5
4D0
330
1F
100
AcDbEntity
  8
1
  6
CONTINUOUS
370
50
 62
4
100
AcDbLine
 10
34.73283
 20
0.273707
 30
0.0
 11
34.547211
 21
0.341315
 31
0.0
  0
LINE
  5
4D1
330
1F
100
AcDbEntity
  8
1
  6
CONTINUOUS
370
50
 62
4
100
AcDbLine
 10
38.0
 20
0.0
 30
0.0
 11
37.957527
 21
0.015369
 31
0.0
  0
LINE
  5
4D2
330
1F
100
AcDbEntity
  8
1
  6
CONTINUOUS
370
50
 62
4
100
AcDbLine
 10
36.174389
 20
-0.34326
 30
0.0
 11
35.99794
 21
-0.279548
 31
0.0
  0
LINE
  5
4D3
330
1F
100
AcDbEntity
  8
1
  6
CONTINUOUS
370
50
 62
4
100
AcDbLine
 10
33.358959
 20
0.298442
 30
0.0
 11
33.231182
 21
0.343561
 31
0.0
  0
LINE
  5
4D4
330
1F
100
AcDbEntity
  8
1
  6
CONTINUOUS
370
50
 62
4
100
AcDbLine
 10
36.735092
 20
0.305179
 30
0.0
 11
36.624966
 21
0.343986
 31
0.0
  0
LINE
  5
4D5
330
1F
100
AcDbEntity
  8
1
  6
CONTINUOUS
370
50
 62
4
100
AcDbLine
 10
32.190651
 20
-0.45083
 30
0.0
 11
32.173275
 21
-0.44485
 31
0.0
  0
LINE
  5
4D6
330
1F
100
AcDbEntity
  8
1
  6
CONTINUOUS
370
50
 62
4
100
AcDbLine
 10
34.93029
 20
-0.3646
 30
0.0
 11
34.766998
 21
-0.308778
 31
0.0
  0
LINE
  5
4D7
330
1F
100
AcDbEntity
  8
1
  6
CONTINUOUS
370
50
 62
4
100
AcDbLine
 10
32.882095
 20
-0.376555
 30
0.0
 11
32.734528
 21
-0.328005
 31
0.0
  0
LINE
  5
4D8
330
1F
100
AcDbEntity
  8
1
  6
CONTINUOUS
370
50
 62
4
100
AcDbLine
 10
32.208069
 20
-0.456471
 30
0.0
 11
32.190651
 21
-0.45083
 31
0.0
  0
LINE
  5
4D9
330
1F
100
AcDbEntity
  8
1
  6
CONTINUOUS
370
50
 62
4
100
AcDbLine
 10
36.624966
 20
0.343986
 30
0.0
 11
36.514359
 21
0.37918
 31
0.0
  0
LINE
  5
4DA
330
1F
100
AcDbEntity
  8
1
  6
CONTINUOUS
370
50
 62
4
100
AcDbLine
 10
33.231182
 20
0.343561
 30
0.0
 11
33.104897
 21
0.383712
 31
0.0
  0
LINE
  5
4DB
330
1F
100
AcDbEntity
  8
1
  6
CONTINUOUS
370
50
 62
4
100
AcDbLine
 10
34.547211
 20
0.341315
 30
0.0
 11
34.365604
 21
0.397881
 31
0.0
  0
LINE
  5
4DC
330
1F
100
AcDbEntity
  8
1
  6
CONTINUOUS
370
50
 62
4
100
AcDbLine
 10
36.350311
 20
-0.397658
 30
0.0
 11
36.174389
 21
-0.34326
 31
0.0
  0
LINE
  5
4DD
330
1F
100
AcDbEntity
  8
1
  6
CONTINUOUS
370
50
 62
4
100
AcDbLine
 10
32.397358
 20
-0.16547
 30
0.0
 11
32.348808
 21
-0.150484
 31
0.0
  0
LINE
  5
4DE
330
1F
100
AcDbEntity
  8
1
  6
CONTINUOUS
370
50
 62
4
100
AcDbLine
 10
32.225498
 20
-0.461772
 30
0.0
 11
32.208069
 21
-0.456471
 31
0.0
  0
LINE
  5
4DF
330
1F
100
AcDbEntity
  8
1
  6
CONTINUOUS
370
50
 62
4
100
AcDbLine
 10
35.093952
 20
-0.412076
 30
0.0
 11
34.93029
 21
-0.3646
 31
0.0
  0
LINE
  5
4E0
330
1F
100
AcDbEntity
  8
1
  6
CONTINUOUS
370
50
 62
4
100
AcDbLine
 10
32.242912
 20
-0.466734
 30
0.0
 11
32.225498
 21
-0.461772
 31
0.0
  0
LINE
  5
4E1
330
1F
100
AcDbEntity
  8
1
  6
CONTINUOUS
370
50
 62
4
100
AcDbLine
 10
36.514359
 20
0.37918
 30
0.0
 11
36.404087
 21
0.410495
 31
0.0
  0
LINE
  5
4E2
330
1F
100
AcDbEntity
  8
1
  6
CONTINUOUS
370
50
 62
4
100
AcDbLine
 10
33.033218
 20
-0.418455
 30
0.0
 11
32.882095
 21
-0.376555
 31
0.0
  0
LINE
  5
4E3
330
1F
100
AcDbEntity
  8
1
  6
CONTINUOUS
370
50
 62
4
100
AcDbLine
 10
33.104897
 20
0.383712
 30
0.0
 11
32.978359
 21
0.418482
 31
0.0
  0
LINE
  5
4E4
330
1F
100
AcDbEntity
  8
1
  6
CONTINUOUS
370
50
 62
4
100
AcDbLine
 10
30.5
 20
0.5
 30
0.0
 11
26.799999
 21
1.5
 31
0.0
  0
LINE
  5
4E5
330
1F
100
AcDbEntity
  8
1
  6
CONTINUOUS
370
50
 62
4
100
AcDbLine
 10
32.26033
 20
-0.471367
 30
0.0
 11
32.242912
 21
-0.466734
 31
0.0
  0
LINE
  5
4E6
330
1F
100
AcDbEntity
  8
1
  6
CONTINUOUS
370
50
 62
4
100
AcDbLine
 10
37.766846
 20
0.395334
 30
0.0
 11
37.665466
 21
0.422292
 31
0.0
  0
LINE
  5
4E7
330
1F
100
AcDbEntity
  8
1
  6
CONTINUOUS
370
50
 62
4
100
AcDbLine
 10
36.526352
 20
-0.441682
 30
0.0
 11
36.350311
 21
-0.397658
 31
0.0
  0
LINE
  5
4E8
330
1F
100
AcDbEntity
  8
1
  6
CONTINUOUS
370
50
 62
4
100
AcDbLine
 10
34.365604
 20
0.397881
 30
0.0
 11
34.183125
 21
0.443443
 31
0.0
  0
LINE
  5
4E9
330
1F
100
AcDbEntity
  8
1
  6
CONTINUOUS
370
50
 62
4
100
AcDbLine
 10
32.277748
 20
-0.475668
 30
0.0
 11
32.26033
 21
-0.471367
 31
0.0
  0
LINE
  5
4EA
330
1F
100
AcDbEntity
  8
1
  6
CONTINUOUS
370
50
 62
4
100
AcDbLine
 10
36.404087
 20
0.410495
 30
0.0
 11
36.29438
 21
0.437509
 31
0.0
  0
LINE
  5
4EB
330
1F
100
AcDbEntity
  8
1
  6
CONTINUOUS
370
50
 62
4
100
AcDbLine
 10
32.348808
 20
-0.150484
 30
0.0
 11
32.30122
 21
-0.139
 31
0.0
  0
LINE
  5
4EC
330
1F
100
AcDbEntity
  8
1
  6
CONTINUOUS
370
50
 62
4
100
AcDbLine
 10
35.256767
 20
-0.450188
 30
0.0
 11
35.093952
 21
-0.412076
 31
0.0
  0
LINE
  5
4ED
330
1F
100
AcDbEntity
  8
1
  6
CONTINUOUS
370
50
 62
4
100
AcDbLine
 10
37.665466
 20
0.422292
 30
0.0
 11
37.564312
 21
0.445578
 31
0.0
  0
LINE
  5
4EE
330
1F
100
AcDbEntity
  8
1
  6
CONTINUOUS
370
50
 62
4
100
AcDbLine
 10
32.295151
 20
-0.479634
 30
0.0
 11
32.277748
 21
-0.475668
 31
0.0
  0
LINE
  5
4EF
330
1F
100
AcDbEntity
  8
1
  6
CONTINUOUS
370
50
 62
4
100
AcDbLine
 10
32.978359
 20
0.418482
 30
0.0
 11
32.84758
 21
0.448225
 31
0.0
  0
LINE
  5
4F0
330
1F
100
AcDbEntity
  8
1
  6
CONTINUOUS
370
50
 62
4
100
AcDbLine
 10
33.185238
 20
-0.452733
 30
0.0
 11
33.033218
 21
-0.418455
 31
0.0
  0
LINE
  5
4F1
330
1F
100
AcDbEntity
  8
1
  6
CONTINUOUS
370
50
 62
4
100
AcDbLine
 10
32.312534
 20
-0.48326
 30
0.0
 11
32.295151
 21
-0.479634
 31
0.0
  0
LINE
  5
4F2
330
1F
100
AcDbEntity
  8
1
  6
CONTINUOUS
370
50
 62
4
100
AcDbLine
 10
36.29438
 20
0.437509
 30
0.0
 11
36.18428
 21
0.459933
 31
0.0
  0
LINE
  5
4F3
330
1F
100
AcDbEntity
  8
1
  6
CONTINUOUS
370
50
 62
4
100
AcDbLine
 10
37.564312
 20
0.445578
 30
0.0
 11
37.462605
 21
0.46498
 31
0.0
  0
LINE
  5
4F4
330
1F
100
AcDbEntity
  8
1
  6
CONTINUOUS
370
50
 62
4
100
AcDbLine
 10
32.329876
 20
-0.486541
 30
0.0
 11
32.312534
 21
-0.48326
 31
0.0
  0
LINE
  5
4F5
330
1F
100
AcDbEntity
  8
1
  6
CONTINUOUS
370
50
 62
4
100
AcDbLine
 10
36.702881
 20
-0.473921
 30
0.0
 11
36.526352
 21
-0.441682
 31
0.0
  0
LINE
  5
4F6
330
1F
100
AcDbEntity
  8
1
  6
CONTINUOUS
370
50
 62
4
100
AcDbLine
 10
32.84758
 20
0.448225
 30
0.0
 11
32.716183
 21
0.471912
 31
0.0
  0
LINE
  5
4F7
330
1F
100
AcDbEntity
  8
1
  6
CONTINUOUS
370
50
 62
4
100
AcDbLine
 10
34.183125
 20
0.443443
 30
0.0
 11
34.0
 21
0.476394
 31
0.0
  0
LINE
  5
4F8
330
1F
100
AcDbEntity
  8
1
  6
CONTINUOUS
370
50
 62
4
100
AcDbLine
 10
32.30122
 20
-0.139
 30
0.0
 11
32.255543
 21
-0.131118
 31
0.0
  0
LINE
  5
4F9
330
1F
100
AcDbEntity
  8
1
  6
CONTINUOUS
370
50
 62
4
100
AcDbLine
 10
35.42057
 20
-0.477973
 30
0.0
 11
35.256767
 21
-0.450188
 31
0.0
  0
LINE
  5
4FA
330
1F
100
AcDbEntity
  8
1
  6
CONTINUOUS
370
50
 62
4
100
AcDbLine
 10
32.347164
 20
-0.489472
 30
0.0
 11
32.329876
 21
-0.486541
 31
0.0
  0
LINE
  5
4FB
330
1F
100
AcDbEntity
  8
1
  6
CONTINUOUS
370
50
 62
4
100
AcDbLine
 10
33.33815
 20
-0.478123
 30
0.0
 11
33.185238
 21
-0.452733
 31
0.0
  0
LINE
  5
4FC
330
1F
100
AcDbEntity
  8
1
  6
CONTINUOUS
370
50
 62
4
100
AcDbLine
 10
36.18428
 20
0.459933
 30
0.0
 11
36.074547
 21
0.477518
 31
0.0
  0
LINE
  5
4FD
330
1F
100
AcDbEntity
  8
1
  6
CONTINUOUS
370
50
 62
4
100
AcDbLine
 10
37.462605
 20
0.46498
 30
0.0
 11
37.360497
 21
0.480243
 31
0.0
  0
LINE
  5
4FE
330
1F
100
AcDbEntity
  8
1
  6
CONTINUOUS
370
50
 62
4
100
AcDbLine
 10
32.364418
 20
-0.492049
 30
0.0
 11
32.347164
 21
-0.489472
 31
0.0
  0
LINE
  5
4FF
330
1F
100
AcDbEntity
  8
1
  6
CONTINUOUS
370
50
 62
4
100
AcDbLine
 10
33.999134
 20
0.4754
 30
0.0
 11
33.939674
 21
0.483228
 31
0.0
  0
LINE
  5
500
330
1F
100
AcDbEntity
  8
1
  6
CONTINUOUS
370
50
 62
4
100
AcDbLine
 10
32.381645
 20
-0.494271
 30
0.0
 11
32.364418
 21
-0.492049
 31
0.0
  0
LINE
  5
501
330
1F
100
AcDbEntity
  8
1
  6
CONTINUOUS
370
50
 62
4
100
AcDbLine
 10
32.716183
 20
0.471912
 30
0.0
 11
32.584671
 21
0.488654
 31
0.0
  0
LINE
  5
502
330
1F
100
AcDbEntity
  8
1
  6
CONTINUOUS
370
50
 62
4
100
AcDbLine
 10
36.074547
 20
0.477518
 30
0.0
 11
35.965385
 21
0.490246
 31
0.0
  0
LINE
  5
503
330
1F
100
AcDbEntity
  8
1
  6
CONTINUOUS
370
50
 62
4
100
AcDbLine
 10
36.878788
 20
-0.49362
 30
0.0
 11
36.702881
 21
-0.473921
 31
0.0
  0
LINE
  5
504
330
1F
100
AcDbEntity
  8
1
  6
CONTINUOUS
370
50
 62
4
100
AcDbLine
 10
32.398865
 20
-0.496135
 30
0.0
 11
32.381645
 21
-0.494271
 31
0.0
  0
LINE
  5
505
330
1F
100
AcDbEntity
  8
1
  6
CONTINUOUS
370
50
 62
4
100
AcDbLine
 10
37.360497
 20
0.480243
 30
0.0
 11
37.258572
 21
0.491267
 31
0.0
  0
LINE
  5
506
330
1F
100
AcDbEntity
  8
1
  6
CONTINUOUS
370
50
 62
4
100
AcDbLine
 10
32.584671
 20
0.493447
 30
0.0
 11
32.565285
 21
0.49553
 31
0.0
  0
LINE
  5
507
330
1F
100
AcDbEntity
  8
1
  6
CONTINUOUS
370
50
 62
4
100
AcDbLine
 10
33.939674
 20
0.483228
 30
0.0
 11
33.880318
 21
0.489567
 31
0.0
  0
LINE
  5
508
330
1F
100
AcDbEntity
  8
1
  6
CONTINUOUS
370
50
 62
4
100
AcDbLine
 10
35.583542
 20
-0.494905
 30
0.0
 11
35.42057
 21
-0.477973
 31
0.0
  0
LINE
  5
509
330
1F
100
AcDbEntity
  8
1
  6
CONTINUOUS
370
50
 62
4
100
AcDbLine
 10
33.490482
 20
-0.493924
 30
0.0
 11
33.33815
 21
-0.478123
 31
0.0
  0
LINE
  5
50A
330
1F
100
AcDbEntity
  8
1
  6
CONTINUOUS
370
50
 62
4
100
AcDbLine
 10
32.255543
 20
-0.131118
 30
0.0
 11
32.211926
 21
-0.126638
 31
0.0
  0
LINE
  5
50B
330
1F
100
AcDbEntity
  8
1
  6
CONTINUOUS
370
50
 62
4
100
AcDbLine
 10
32.565285
 20
0.49553
 30
0.0
 11
32.545841
 21
0.497254
 31
0.0
  0
LINE
  5
50C
330
1F
100
AcDbEntity
  8
1
  6
CONTINUOUS
370
50
 62
4
100
AcDbLine
 10
32.416084
 20
-0.497636
 30
0.0
 11
32.398865
 21
-0.496135
 31
0.0
  0
LINE
  5
50D
330
1F
100
AcDbEntity
  8
1
  6
CONTINUOUS
370
50
 62
4
100
AcDbLine
 10
37.762341
 20
0.499966
 30
0.0
 11
37.762272
 21
0.499972
 31
0.0
  0
LINE
  5
50E
330
1F
100
AcDbEntity
  8
1
  6
CONTINUOUS
370
50
 62
4
100
AcDbLine
 10
33.880318
 20
0.489567
 30
0.0
 11
33.8209
 21
0.494413
 31
0.0
  0
LINE
  5
50F
330
1F
100
AcDbEntity
  8
1
  6
CONTINUOUS
370
50
 62
4
100
AcDbLine
 10
35.965385
 20
0.490246
 30
0.0
 11
35.855984
 21
0.497958
 31
0.0
  0
LINE
  5
510
330
1F
100
AcDbEntity
  8
1
  6
CONTINUOUS
370
50
 62
4
100
AcDbLine
 10
32.545841
 20
0.497254
 30
0.0
 11
32.526283
 21
0.498588
 31
0.0
  0
LINE
  5
511
330
1F
100
AcDbEntity
  8
1
  6
CONTINUOUS
370
50
 62
4
100
AcDbLine
 10
32.433109
 20
-0.498762
 30
0.0
 11
32.416084
 21
-0.497636
 31
0.0
  0
LINE
  5
512
330
1F
100
AcDbEntity
  8
1
  6
CONTINUOUS
370
50
 62
4
100
AcDbLine
 10
37.258572
 20
0.491267
 30
0.0
 11
37.157082
 21
0.497939
 31
0.0
  0
LINE
  5
513
330
1F
100
AcDbEntity
  8
1
  6
CONTINUOUS
370
50
 62
4
100
AcDbLine
 10
33.8209
 20
0.494413
 30
0.0
 11
33.761253
 21
0.497762
 31
0.0
  0
LINE
  5
514
330
1F
100
AcDbEntity
  8
1
  6
CONTINUOUS
370
50
 62
4
100
AcDbLine
 10
32.526283
 20
0.498588
 30
0.0
 11
32.506557
 21
0.499498
 31
0.0
  0
LINE
  5
515
330
1F
100
AcDbEntity
  8
1
  6
CONTINUOUS
370
50
 62
4
100
AcDbLine
 10
32.449863
 20
-0.499518
 30
0.0
 11
32.433109
 21
-0.498762
 31
0.0
  0
LINE
  5
516
330
1F
100
AcDbEntity
  8
1
  6
CONTINUOUS
370
50
 62
4
100
AcDbLine
 10
33.641674
 20
-0.499939
 30
0.0
 11
33.490482
 21
-0.493924
 31
0.0
  0
LINE
  5
517
330
1F
100
AcDbEntity
  8
1
  6
CONTINUOUS
370
50
 62
4
100
AcDbLine
 10
37.055344
 20
-0.500189
 30
0.0
 11
36.878788
 21
-0.49362
 31
0.0
  0
LINE
  5
518
330
1F
100
AcDbEntity
  8
1
  6
CONTINUOUS
370
50
 62
4
100
AcDbLine
 10
32.211926
 20
-0.126638
 30
0.0
 11
32.175961
 21
-0.12535
 31
0.0
  0
LINE
  5
519
330
1F
100
AcDbEntity
  8
1
  6
CONTINUOUS
370
50
 62
4
100
AcDbLine
 10
35.746384
 20
-0.500536
 30
0.0
 11
35.583542
 21
-0.494905
 31
0.0
  0
LINE
  5
51A
330
1F
100
AcDbEntity
  8
1
  6
CONTINUOUS
370
50
 62
4
100
AcDbLine
 10
33.761253
 20
0.497762
 30
0.0
 11
33.701359
 21
0.499609
 31
0.0
  0
LINE
  5
51B
330
1F
100
AcDbEntity
  8
1
  6
CONTINUOUS
370
50
 62
4
100
AcDbLine
 10
32.466373
 20
-0.49992
 30
0.0
 11
32.449863
 21
-0.499518
 31
0.0
  0
LINE
  5
51C
330
1F
100
AcDbEntity
  8
1
  6
CONTINUOUS
370
50
 62
4
100
AcDbLine
 10
35.855984
 20
0.497958
 30
0.0
 11
35.746384
 21
0.500536
 31
0.0
  0
LINE
  5
51D
330
1F
100
AcDbEntity
  8
1
  6
CONTINUOUS
370
50
 62
4
100
AcDbLine
 10
32.506557
 20
0.499498
 30
0.0
 11
32.486603
 21
0.499953
 31
0.0
  0
LINE
  5
51E
330
1F
100
AcDbEntity
  8
1
  6
CONTINUOUS
370
50
 62
4
100
AcDbLine
 10
37.157082
 20
0.497939
 30
0.0
 11
37.055344
 21
0.500189
 31
0.0
  0
LINE
  5
51F
330
1F
100
AcDbEntity
  8
1
  6
CONTINUOUS
370
50
 62
4
100
AcDbLine
 10
37.959061
 20
0.015354
 30
0.0
 11
37.957527
 21
0.015369
 31
0.0
  0
LINE
  5
520
330
1F
100
AcDbEntity
  8
1
  6
CONTINUOUS
370
50
 62
4
100
AcDbLine
 10
33.701359
 20
0.499609
 30
0.0
 11
33.64167
 21
0.499939
 31
0.0
  0
LINE
  5
521
330
1F
100
AcDbEntity
  8
1
  6
CONTINUOUS
370
50
 62
4
100
AcDbLine
 10
32.486603
 20
-0.499953
 30
0.0
 11
32.466373
 21
-0.49992
 31
0.0
  0
LINE
  5
522
330
1F
100
AcDbEntity
  8
1
  6
CONTINUOUS
370
50
 62
4
100
AcDbLine
 10
35.746384
 20
0.500536
 30
0.0
 11
34.0
 21
0.501
 31
0.0
  0
LINE
  5
523
330
1F
100
AcDbEntity
  8
1
  6
CONTINUOUS
370
50
 62
4
100
AcDbLine
 10
37.762272
 20
0.500001
 30
0.0
 11
37.055344
 21
0.500189
 31
0.0
  0
LINE
  5
524
330
1F
100
AcDbEntity
  8
1
  6
CONTINUOUS
370
50
 62
4
100
AcDbLine
 10
33.658714
 20
-0.5
 30
0.0
 11
33.999134
 21
-0.5
 31
0.0
  0
LINE
  5
525
330
1F
100
AcDbEntity
  8
1
  6
CONTINUOUS
370
50
 62
4
100
AcDbLine
 10
30.5
 20
-0.5
 30
0.0
 11
32.478024
 21
-0.5
 31
0.0
  0
LINE
  5
526
330
1F
100
AcDbEntity
  8
1
  6
CONTINUOUS
370
50
 62
4
100
AcDbLine
 10
33.658714
 20
0.5
 30
0.0
 11
33.999134
 21
0.5
 31
0.0
  0
LINE
  5
527
330
1F
100
AcDbEntity
  8
1
  6
CONTINUOUS
370
50
 62
4
100
AcDbLine
 10
30.5
 20
0.5
 30
0.0
 11
32.478024
 21
0.5
 31
0.0
  0
LINE
  5
528
330
1F
100
AcDbEntity
  8
1
  6
CONTINUOUS
370
50
 62
4
100
AcDbLine
 10
37.055344
 20
-0.500189
 30
0.0
 11
37.762272
 21
-0.500001
 31
0.0
  0
LINE
  5
529
330
1F
100
AcDbEntity
  8
1
  6
CONTINUOUS
370
50
 62
4
100
AcDbLine
 10
34.0
 20
-0.501
 30
0.0
 11
35.746384
 21
-0.500536
 31
0.0
  0
LINE
  5
52A
330
1F
100
AcDbEntity
  8
1
  6
CONTINUOUS
370
50
 62
4
100
AcDbLine
 10
32.466373
 20
0.49992
 30
0.0
 11
32.486603
 21
0.499953
 31
0.0
  0
LINE
  5
52B
330
1F
100
AcDbEntity
  8
1
  6
CONTINUOUS
370
50
 62
4
100
AcDbLine
 10
32.486603
 20
-0.499953
 30
0.0
 11
32.506557
 21
-0.499498
 31
0.0
  0
LINE
  5
52C
330
1F
100
AcDbEntity
  8
1
  6
CONTINUOUS
370
50
 62
4
100
AcDbLine
 10
36.945995
 20
0.497685
 30
0.0
 11
37.055344
 21
0.500189
 31
0.0
  0
LINE
  5
52D
330
1F
100
AcDbEntity
  8
1
  6
CONTINUOUS
370
50
 62
4
100
AcDbLine
 10
35.746384
 20
-0.500536
 30
0.0
 11
35.855408
 21
-0.497985
 31
0.0
  0
LINE
  5
52E
330
1F
100
AcDbEntity
  8
1
  6
CONTINUOUS
370
50
 62
4
100
AcDbLine
 10
32.141754
 20
-0.126326
 30
0.0
 11
32.175961
 21
-0.12535
 31
0.0
  0
LINE
  5
52F
330
1F
100
AcDbEntity
  8
1
  6
CONTINUOUS
370
50
 62
4
100
AcDbLine
 10
33.536381
 20
0.496788
 30
0.0
 11
33.64167
 21
0.499939
 31
0.0
  0
LINE
  5
530
330
1F
100
AcDbEntity
  8
1
  6
CONTINUOUS
370
50
 62
4
100
AcDbLine
 10
32.506557
 20
-0.499498
 30
0.0
 11
32.526283
 21
-0.498588
 31
0.0
  0
LINE
  5
531
330
1F
100
AcDbEntity
  8
1
  6
CONTINUOUS
370
50
 62
4
100
AcDbLine
 10
32.526283
 20
-0.498588
 30
0.0
 11
32.545841
 21
-0.497254
 31
0.0
  0
LINE
  5
532
330
1F
100
AcDbEntity
  8
1
  6
CONTINUOUS
370
50
 62
4
100
AcDbLine
 10
36.836983
 20
0.490116
 30
0.0
 11
36.945995
 21
0.497685
 31
0.0
  0
LINE
  5
533
330
1F
100
AcDbEntity
  8
1
  6
CONTINUOUS
370
50
 62
4
100
AcDbLine
 10
35.855408
 20
-0.497985
 30
0.0
 11
35.964237
 21
-0.490354
 31
0.0
  0
LINE
  5
534
330
1F
100
AcDbEntity
  8
1
  6
CONTINUOUS
370
50
 62
4
100
AcDbLine
 10
33.430862
 20
0.488876
 30
0.0
 11
33.536381
 21
0.496788
 31
0.0
  0
LINE
  5
535
330
1F
100
AcDbEntity
  8
1
  6
CONTINUOUS
370
50
 62
4
100
AcDbLine
 10
32.545841
 20
-0.497254
 30
0.0
 11
32.565285
 21
-0.49553
 31
0.0
  0
LINE
  5
536
330
1F
100
AcDbEntity
  8
1
  6
CONTINUOUS
370
50
 62
4
100
AcDbLine
 10
37.756252
 20
-0.142668
 30
0.0
 11
37.764042
 21
-0.141961
 31
0.0
  0
LINE
  5
537
330
1F
100
AcDbEntity
  8
1
  6
CONTINUOUS
370
50
 62
4
100
AcDbLine
 10
32.109524
 20
-0.129408
 30
0.0
 11
32.141754
 21
-0.126326
 31
0.0
  0
LINE
  5
538
330
1F
100
AcDbEntity
  8
1
  6
CONTINUOUS
370
50
 62
4
100
AcDbLine
 10
32.565285
 20
-0.49553
 30
0.0
 11
32.584671
 21
-0.493447
 31
0.0
  0
LINE
  5
539
330
1F
100
AcDbEntity
  8
1
  6
CONTINUOUS
370
50
 62
4
100
AcDbLine
 10
32.584671
 20
-0.488654
 30
0.0
 11
32.655304
 21
-0.480565
 31
0.0
  0
LINE
  5
53A
330
1F
100
AcDbEntity
  8
1
  6
CONTINUOUS
370
50
 62
4
100
AcDbLine
 10
36.728153
 20
0.477535
 30
0.0
 11
36.836983
 21
0.490116
 31
0.0
  0
LINE
  5
53B
330
1F
100
AcDbEntity
  8
1
  6
CONTINUOUS
370
50
 62
4
100
AcDbLine
 10
35.964237
 20
-0.490354
 30
0.0
 11
36.072826
 21
-0.477757
 31
0.0
  0
LINE
  5
53C
330
1F
100
AcDbEntity
  8
1
  6
CONTINUOUS
370
50
 62
4
100
AcDbLine
 10
33.324467
 20
0.476239
 30
0.0
 11
33.430862
 21
0.488876
 31
0.0
  0
LINE
  5
53D
330
1F
100
AcDbEntity
  8
1
  6
CONTINUOUS
370
50
 62
4
100
AcDbLine
 10
32.655304
 20
-0.480565
 30
0.0
 11
32.725655
 21
-0.47043
 31
0.0
  0
LINE
  5
53E
330
1F
100
AcDbEntity
  8
1
  6
CONTINUOUS
370
50
 62
4
100
AcDbLine
 10
37.557983
 20
0.195567
 30
0.0
 11
37.57111
 21
0.197577
 31
0.0
  0
LINE
  5
53F
330
1F
100
AcDbEntity
  8
1
  6
CONTINUOUS
370
50
 62
4
100
AcDbLine
 10
36.072826
 20
-0.477757
 30
0.0
 11
36.181961
 21
-0.460353
 31
0.0
  0
LINE
  5
540
330
1F
100
AcDbEntity
  8
1
  6
CONTINUOUS
370
50
 62
4
100
AcDbLine
 10
36.618973
 20
0.460111
 30
0.0
 11
36.728153
 21
0.477535
 31
0.0
  0
LINE
  5
541
330
1F
100
AcDbEntity
  8
1
  6
CONTINUOUS
370
50
 62
4
100
AcDbLine
 10
33.217903
 20
0.458958
 30
0.0
 11
33.324467
 21
0.476239
 31
0.0
  0
LINE
  5
542
330
1F
100
AcDbEntity
  8
1
  6
CONTINUOUS
370
50
 62
4
100
AcDbLine
 10
37.57111
 20
0.197577
 30
0.0
 11
37.584114
 21
0.199739
 31
0.0
  0
LINE
  5
543
330
1F
100
AcDbEntity
  8
1
  6
CONTINUOUS
370
50
 62
4
100
AcDbLine
 10
32.07946
 20
-0.134424
 30
0.0
 11
32.109524
 21
-0.129408
 31
0.0
  0
LINE
  5
544
330
1F
100
AcDbEntity
  8
1
  6
CONTINUOUS
370
50
 62
4
100
AcDbLine
 10
32.725655
 20
-0.47043
 30
0.0
 11
32.79601299999999
 21
-0.458306
 31
0.0
  0
LINE
  5
545
330
1F
100
AcDbEntity
  8
1
  6
CONTINUOUS
370
50
 62
4
100
AcDbLine
 10
37.584114
 20
0.199739
 30
0.0
 11
37.597012
 21
0.202066
 31
0.0
  0
LINE
  5
546
330
1F
100
AcDbEntity
  8
1
  6
CONTINUOUS
370
50
 62
4
100
AcDbLine
 10
37.597012
 20
0.202066
 30
0.0
 11
37.609772
 21
0.204566
 31
0.0
  0
LINE
  5
547
330
1F
100
AcDbEntity
  8
1
  6
CONTINUOUS
370
50
 62
4
100
AcDbLine
 10
32.79601299999999
 20
-0.458306
 30
0.0
 11
32.866661
 21
-0.444251
 31
0.0
  0
LINE
  5
548
330
1F
100
AcDbEntity
  8
1
  6
CONTINUOUS
370
50
 62
4
100
AcDbLine
 10
36.509701
 20
0.438018
 30
0.0
 11
36.618973
 21
0.460111
 31
0.0
  0
LINE
  5
549
330
1F
100
AcDbEntity
  8
1
  6
CONTINUOUS
370
50
 62
4
100
AcDbLine
 10
36.181961
 20
-0.460353
 30
0.0
 11
36.291496
 21
-0.438159
 31
0.0
  0
LINE
  5
54A
330
1F
100
AcDbEntity
  8
1
  6
CONTINUOUS
370
50
 62
4
100
AcDbLine
 10
33.111904
 20
0.437255
 30
0.0
 11
33.217903
 21
0.458958
 31
0.0
  0
LINE
  5
54B
330
1F
100
AcDbEntity
  8
1
  6
CONTINUOUS
370
50
 62
4
100
AcDbLine
 10
37.609772
 20
0.204566
 30
0.0
 11
37.62236
 21
0.207249
 31
0.0
  0
LINE
  5
54C
330
1F
100
AcDbEntity
  8
1
  6
CONTINUOUS
370
50
 62
4
100
AcDbLine
 10
37.764042
 20
-0.141961
 30
0.0
 11
37.771908
 21
-0.140265
 31
0.0
  0
LINE
  5
54D
330
1F
100
AcDbEntity
  8
1
  6
CONTINUOUS
370
50
 62
4
100
AcDbLine
 10
32.866661
 20
-0.444251
 30
0.0
 11
32.93755
 21
-0.428401
 31
0.0
  0
LINE
  5
54E
330
1F
100
AcDbEntity
  8
1
  6
CONTINUOUS
370
50
 62
4
100
AcDbLine
 10
37.62236
 20
0.207249
 30
0.0
 11
37.634743
 21
0.210121
 31
0.0
  0
LINE
  5
54F
330
1F
100
AcDbEntity
  8
1
  6
CONTINUOUS
370
50
 62
4
100
AcDbLine
 10
33.005993
 20
0.411455
 30
0.0
 11
33.111904
 21
0.437255
 31
0.0
  0
LINE
  5
550
330
1F
100
AcDbEntity
  8
1
  6
CONTINUOUS
370
50
 62
4
100
AcDbLine
 10
36.400665
 20
0.411416
 30
0.0
 11
36.509701
 21
0.438018
 31
0.0
  0
LINE
  5
551
330
1F
100
AcDbEntity
  8
1
  6
CONTINUOUS
370
50
 62
4
100
AcDbLine
 10
32.051735
 20
-0.141203
 30
0.0
 11
32.07946
 21
-0.134424
 31
0.0
  0
LINE
  5
552
330
1F
100
AcDbEntity
  8
1
  6
CONTINUOUS
370
50
 62
4
100
AcDbLine
 10
36.291496
 20
-0.438159
 30
0.0
 11
36.40062
 21
-0.411416
 31
0.0
  0
LINE
  5
553
330
1F
100
AcDbEntity
  8
1
  6
CONTINUOUS
370
50
 62
4
100
AcDbLine
 10
32.93755
 20
-0.428401
 30
0.0
 11
33.005886
 21
-0.411425
 31
0.0
  0
LINE
  5
554
330
1F
100
AcDbEntity
  8
1
  6
CONTINUOUS
370
50
 62
4
100
AcDbLine
 10
37.634743
 20
0.210121
 30
0.0
 11
37.646896
 21
0.213191
 31
0.0
  0
LINE
  5
555
330
1F
100
AcDbEntity
  8
1
  6
CONTINUOUS
370
50
 62
4
100
AcDbLine
 10
26.799999
 20
-1.5
 30
0.0
 11
30.5
 21
-0.5
 31
0.0
  0
LINE
  5
556
330
1F
100
AcDbEntity
  8
1
  6
CONTINUOUS
370
50
 62
4
100
AcDbLine
 10
37.646896
 20
0.213191
 30
0.0
 11
37.658783
 21
0.216466
 31
0.0
  0
LINE
  5
557
330
1F
100
AcDbEntity
  8
1
  6
CONTINUOUS
370
50
 62
4
100
AcDbLine
 10
37.658783
 20
0.216466
 30
0.0
 11
37.670372
 21
0.219956
 31
0.0
  0
LINE
  5
558
330
1F
100
AcDbEntity
  8
1
  6
CONTINUOUS
370
50
 62
4
100
AcDbLine
 10
37.670372
 20
0.219956
 30
0.0
 11
37.681633
 21
0.223666
 31
0.0
  0
LINE
  5
559
330
1F
100
AcDbEntity
  8
1
  6
CONTINUOUS
370
50
 62
4
100
AcDbLine
 10
32.026398
 20
-0.14962
 30
0.0
 11
32.051735
 21
-0.141203
 31
0.0
  0
LINE
  5
55A
330
1F
100
AcDbEntity
  8
1
  6
CONTINUOUS
370
50
 62
4
100
AcDbLine
 10
37.771908
 20
-0.140265
 30
0.0
 11
37.779839
 21
-0.137565
 31
0.0
  0
LINE
  5
55B
330
1F
100
AcDbEntity
  8
1
  6
CONTINUOUS
370
50
 62
4
100
AcDbLine
 10
37.681633
 20
0.223666
 30
0.0
 11
37.692535
 21
0.227607
 31
0.0
  0
LINE
  5
55C
330
1F
100
AcDbEntity
  8
1
  6
CONTINUOUS
370
50
 62
4
100
AcDbLine
 10
33.999134
 20
0.4754
 30
0.0
 11
33.999424
 21
0.475514
 31
0.0
  0
LINE
  5
55D
330
1F
100
AcDbEntity
  8
1
  6
CONTINUOUS
370
50
 62
4
100
AcDbLine
 10
33.999565
 20
0.475571
 30
0.0
 11
34.0
 21
0.475742
 31
0.0
  0
LINE
  5
55E
330
1F
100
AcDbEntity
  8
1
  6
CONTINUOUS
370
50
 62
4
100
AcDbLine
 10
37.692535
 20
0.227607
 30
0.0
 11
37.703045
 21
0.231786
 31
0.0
  0
LINE
  5
55F
330
1F
100
AcDbEntity
  8
1
  6
CONTINUOUS
370
50
 62
4
100
AcDbLine
 10
33.999424
 20
0.475514
 30
0.0
 11
33.999565
 21
0.475571
 31
0.0
  0
LINE
  5
560
330
1F
100
AcDbEntity
  8
1
  6
CONTINUOUS
370
50
 62
4
100
AcDbLine
 10
32.002235
 20
-0.160221
 30
0.0
 11
32.026398
 21
-0.14962
 31
0.0
  0
LINE
  5
561
330
1F
100
AcDbEntity
  8
1
  6
CONTINUOUS
370
50
 62
4
100
AcDbLine
 10
37.703045
 20
0.231786
 30
0.0
 11
37.713329
 21
0.236304
 31
0.0
  0
LINE
  5
562
330
1F
100
AcDbEntity
  8
1
  6
CONTINUOUS
370
50
 62
4
100
AcDbLine
 10
37.762341
 20
-0.499966
 30
0.0
 11
37.762409
 21
-0.499935
 31
0.0
  0
LINE
  5
563
330
1F
100
AcDbEntity
  8
1
  6
CONTINUOUS
370
50
 62
4
100
AcDbLine
 10
37.779839
 20
-0.137565
 30
0.0
 11
37.787827
 21
-0.133841
 31
0.0
  0
LINE
  5
564
330
1F
100
AcDbEntity
  8
1
  6
CONTINUOUS
370
50
 62
4
100
AcDbLine
 10
37.713329
 20
0.236304
 30
0.0
 11
37.723438
 21
0.241243
 31
0.0
  0
LINE
  5
565
330
1F
100
AcDbEntity
  8
1
  6
CONTINUOUS
370
50
 62
4
100
AcDbLine
 10
37.84222
 20
-0.078532
 30
0.0
 11
37.966194
 21
-0.016827
 31
0.0
  0
LINE
  5
566
330
1F
100
AcDbEntity
  8
1
  6
CONTINUOUS
370
50
 62
4
100
AcDbLine
 10
37.762272
 20
-0.500001
 30
0.0
 11
37.762341
 21
-0.499966
 31
0.0
  0
LINE
  5
567
330
1F
100
AcDbEntity
  8
1
  6
CONTINUOUS
370
50
 62
4
100
AcDbLine
 10
37.723438
 20
0.241243
 30
0.0
 11
37.733257
 21
0.246622
 31
0.0
  0
LINE
  5
568
330
1F
100
AcDbEntity
  8
1
  6
CONTINUOUS
370
50
 62
4
100
AcDbLine
 10
33.999134
 20
0.5
 30
0.0
 11
34.0
 21
0.5005
 31
0.0
  0
LINE
  5
569
330
1F
100
AcDbEntity
  8
1
  6
CONTINUOUS
370
50
 62
4
100
AcDbLine
 10
31.979696
 20
-0.173336
 30
0.0
 11
32.002235
 21
-0.160221
 31
0.0
  0
LINE
  5
56A
330
1F
100
AcDbEntity
  8
1
  6
CONTINUOUS
370
50
 62
4
100
AcDbLine
 10
37.787827
 20
-0.133841
 30
0.0
 11
37.795841
 21
-0.129086
 31
0.0
  0
LINE
  5
56B
330
1F
100
AcDbEntity
  8
1
  6
CONTINUOUS
370
50
 62
4
100
AcDbLine
 10
37.733257
 20
0.246622
 30
0.0
 11
37.74268
 21
0.252465
 31
0.0
  0
LINE
  5
56C
330
1F
100
AcDbEntity
  8
1
  6
CONTINUOUS
370
50
 62
4
100
AcDbLine
 10
37.74268
 20
0.252465
 30
0.0
 11
37.751598
 21
0.258793
 31
0.0
  0
LINE
  5
56D
330
1F
100
AcDbEntity
  8
1
  6
CONTINUOUS
370
50
 62
4
100
AcDbLine
 10
37.795841
 20
-0.129086
 30
0.0
 11
37.803844
 21
-0.123291
 31
0.0
  0
LINE
  5
56E
330
1F
100
AcDbEntity
  8
1
  6
CONTINUOUS
370
50
 62
4
100
AcDbLine
 10
31.959759
 20
-0.189195
 30
0.0
 11
31.979696
 21
-0.173336
 31
0.0
  0
LINE
  5
56F
330
1F
100
AcDbEntity
  8
1
  6
CONTINUOUS
370
50
 62
4
100
AcDbLine
 10
37.751598
 20
0.258793
 30
0.0
 11
37.759895
 21
0.265624
 31
0.0
  0
LINE
  5
570
330
1F
100
AcDbEntity
  8
1
  6
CONTINUOUS
370
50
 62
4
100
AcDbLine
 10
37.803844
 20
-0.123291
 30
0.0
 11
37.811794
 21
-0.116448
 31
0.0
  0
LINE
  5
571
330
1F
100
AcDbEntity
  8
1
  6
CONTINUOUS
370
50
 62
4
100
AcDbLine
 10
37.762409
 20
-0.499935
 30
0.0
 11
37.762474
 21
-0.499879
 31
0.0
  0
LINE
  5
572
330
1F
100
AcDbEntity
  8
1
  6
CONTINUOUS
370
50
 62
4
100
AcDbLine
 10
37.759895
 20
0.265624
 30
0.0
 11
37.767452
 21
0.272958
 31
0.0
  0
LINE
  5
573
330
1F
100
AcDbEntity
  8
1
  6
CONTINUOUS
370
50
 62
4
100
AcDbLine
 10
37.811794
 20
-0.116448
 30
0.0
 11
37.81965599999999
 21
-0.108549
 31
0.0
  0
LINE
  5
574
330
1F
100
AcDbEntity
  8
1
  6
CONTINUOUS
370
50
 62
4
100
AcDbLine
 10
37.81965599999999
 20
-0.108549
 30
0.0
 11
37.827393
 21
-0.099587
 31
0.0
  0
LINE
  5
575
330
1F
100
AcDbEntity
  8
1
  6
CONTINUOUS
370
50
 62
4
100
AcDbLine
 10
31.94363
 20
-0.208046
 30
0.0
 11
31.959759
 21
-0.189195
 31
0.0
  0
LINE
  5
576
330
1F
100
AcDbEntity
  8
1
  6
CONTINUOUS
370
50
 62
4
100
AcDbLine
 10
37.767452
 20
0.272958
 30
0.0
 11
37.774174
 21
0.280815
 31
0.0
  0
LINE
  5
577
330
1F
100
AcDbEntity
  8
1
  6
CONTINUOUS
370
50
 62
4
100
AcDbLine
 10
37.762474
 20
-0.499879
 30
0.0
 11
37.762543
 21
-0.499797
 31
0.0
  0
LINE
  5
578
330
1F
100
AcDbEntity
  8
1
  6
CONTINUOUS
370
50
 62
4
100
AcDbLine
 10
37.827393
 20
-0.099587
 30
0.0
 11
37.834953
 21
-0.08957
 31
0.0
  0
LINE
  5
579
330
1F
100
AcDbEntity
  8
1
  6
CONTINUOUS
370
50
 62
4
100
AcDbLine
 10
37.774174
 20
0.280815
 30
0.0
 11
37.779976
 21
0.289216
 31
0.0
  0
LINE
  5
57A
330
1F
100
AcDbEntity
  8
1
  6
CONTINUOUS
370
50
 62
4
100
AcDbLine
 10
37.834953
 20
-0.08957
 30
0.0
 11
37.84222
 21
-0.078532
 31
0.0
  0
LINE
  5
57B
330
1F
100
AcDbEntity
  8
1
  6
CONTINUOUS
370
50
 62
4
100
AcDbLine
 10
37.762543
 20
-0.499797
 30
0.0
 11
37.762611
 21
-0.49969
 31
0.0
  0
LINE
  5
57C
330
1F
100
AcDbEntity
  8
1
  6
CONTINUOUS
370
50
 62
4
100
AcDbLine
 10
37.779976
 20
0.289216
 30
0.0
 11
37.784756
 21
0.298154
 31
0.0
  0
LINE
  5
57D
330
1F
100
AcDbEntity
  8
1
  6
CONTINUOUS
370
50
 62
4
100
AcDbLine
 10
37.762611
 20
-0.49969
 30
0.0
 11
37.76268
 21
-0.499558
 31
0.0
  0
LINE
  5
57E
330
1F
100
AcDbEntity
  8
1
  6
CONTINUOUS
370
50
 62
4
100
AcDbLine
 10
31.933159
 20
-0.229293
 30
0.0
 11
31.94363
 21
-0.208046
 31
0.0
  0
LINE
  5
57F
330
1F
100
AcDbEntity
  8
1
  6
CONTINUOUS
370
50
 62
4
100
AcDbLine
 10
37.762676
 20
-0.499573
 30
0.0
 11
38.0
 21
0.0
 31
0.0
  0
LINE
  5
580
330
1F
100
AcDbEntity
  8
1
  6
CONTINUOUS
370
50
 62
4
100
AcDbLine
 10
37.784756
 20
0.298154
 30
0.0
 11
37.78836099999999
 21
0.307392
 31
0.0
  0
LINE
  5
581
330
1F
100
AcDbEntity
  8
1
  6
CONTINUOUS
370
50
 62
4
100
AcDbLine
 10
37.78836099999999
 20
0.307392
 30
0.0
 11
37.790802
 21
0.316867
 31
0.0
  0
LINE
  5
582
330
1F
100
AcDbEntity
  8
1
  6
CONTINUOUS
370
50
 62
4
100
AcDbLine
 10
31.929537
 20
-0.25175
 30
0.0
 11
31.933159
 21
-0.229293
 31
0.0
  0
LINE
  5
583
330
1F
100
AcDbEntity
  8
1
  6
CONTINUOUS
370
50
 62
4
100
AcDbLine
 10
37.790802
 20
0.316867
 30
0.0
 11
37.792122
 21
0.326566
 31
0.0
  0
LINE
  5
584
330
1F
100
AcDbEntity
  8
1
  6
CONTINUOUS
370
50
 62
4
100
AcDbLine
 10
37.792122
 20
0.326566
 30
0.0
 11
37.792366
 21
0.336437
 31
0.0
  0
LINE
  5
585
330
1F
100
AcDbEntity
  8
1
  6
CONTINUOUS
370
50
 62
4
100
AcDbLine
 10
37.756172
 20
-0.174444
 30
0.0
 11
37.756256
 21
-0.142633
 31
0.0
  0
LINE
  5
586
330
1F
100
AcDbEntity
  8
1
  6
CONTINUOUS
370
50
 62
4
100
AcDbLine
 10
37.756134
 20
-0.204966
 30
0.0
 11
37.756172
 21
-0.174444
 31
0.0
  0
LINE
  5
587
330
1F
100
AcDbEntity
  8
1
  6
CONTINUOUS
370
50
 62
4
100
AcDbLine
 10
26.799999
 20
-1.5
 30
0.0
 11
26.799999
 21
1.5
 31
0.0
  0
LINE
  5
588
330
1F
100
AcDbEntity
  8
1
  6
CONTINUOUS
370
50
 62
4
100
AcDbLine
 10
30.5
 20
-0.5
 30
0.0
 11
30.5
 21
0.5
 31
0.0
  0
LINE
  5
589
330
1F
100
AcDbEntity
  8
1
  6
CONTINUOUS
370
50
 62
4
100
AcDbLine
 10
32.584671
 20
0.488654
 30
0.0
 11
32.584671
 21
0.493447
 31
0.0
  0
LINE
  5
58A
330
1F
100
AcDbEntity
  8
1
  6
CONTINUOUS
370
50
 62
4
100
AcDbLine
 10
32.584671
 20
-0.493447
 30
0.0
 11
32.584671
 21
-0.476232
 31
0.0
  0
LINE
  5
58B
330
1F
100
AcDbEntity
  8
1
  6
CONTINUOUS
370
50
 62
4
100
AcDbLine
 10
32.584671
 20
-0.476232
 30
0.0
 11
32.584671
 21
-0.459154
 31
0.0
  0
LINE
  5
58C
330
1F
100
AcDbEntity
  8
1
  6
CONTINUOUS
370
50
 62
4
100
AcDbLine
 10
32.584671
 20
-0.459154
 30
0.0
 11
32.584671
 21
-0.442247
 31
0.0
  0
LINE
  5
58D
330
1F
100
AcDbEntity
  8
1
  6
CONTINUOUS
370
50
 62
4
100
AcDbLine
 10
32.584671
 20
-0.442247
 30
0.0
 11
32.584671
 21
-0.425548
 31
0.0
  0
LINE
  5
58E
330
1F
100
AcDbEntity
  8
1
  6
CONTINUOUS
370
50
 62
4
100
AcDbLine
 10
32.584671
 20
-0.425548
 30
0.0
 11
32.584671
 21
-0.409102
 31
0.0
  0
LINE
  5
58F
330
1F
100
AcDbEntity
  8
1
  6
CONTINUOUS
370
50
 62
4
100
AcDbLine
 10
32.584671
 20
-0.409102
 30
0.0
 11
32.584671
 21
-0.393004
 31
0.0
  0
LINE
  5
590
330
1F
100
AcDbEntity
  8
1
  6
CONTINUOUS
370
50
 62
4
100
AcDbLine
 10
32.584671
 20
-0.393004
 30
0.0
 11
32.584671
 21
-0.377297
 31
0.0
  0
LINE
  5
591
330
1F
100
AcDbEntity
  8
1
  6
CONTINUOUS
370
50
 62
4
100
AcDbLine
 10
32.584671
 20
-0.377297
 30
0.0
 11
32.584671
 21
-0.362012
 31
0.0
  0
LINE
  5
592
330
1F
100
AcDbEntity
  8
1
  6
CONTINUOUS
370
50
 62
4
100
AcDbLine
 10
32.584671
 20
-0.362012
 30
0.0
 11
32.584671
 21
-0.34718
 31
0.0
  0
LINE
  5
593
330
1F
100
AcDbEntity
  8
1
  6
CONTINUOUS
370
50
 62
4
100
AcDbLine
 10
32.584671
 20
-0.34718
 30
0.0
 11
32.584671
 21
-0.332831
 31
0.0
  0
LINE
  5
594
330
1F
100
AcDbEntity
  8
1
  6
CONTINUOUS
370
50
 62
4
100
AcDbLine
 10
32.584671
 20
-0.332831
 30
0.0
 11
32.584671
 21
-0.318995
 31
0.0
  0
LINE
  5
595
330
1F
100
AcDbEntity
  8
1
  6
CONTINUOUS
370
50
 62
4
100
AcDbLine
 10
32.584671
 20
-0.318995
 30
0.0
 11
32.584671
 21
-0.305704
 31
0.0
  0
LINE
  5
596
330
1F
100
AcDbEntity
  8
1
  6
CONTINUOUS
370
50
 62
4
100
AcDbLine
 10
32.584671
 20
-0.305704
 30
0.0
 11
32.584671
 21
-0.293021
 31
0.0
  0
LINE
  5
597
330
1F
100
AcDbEntity
  8
1
  6
CONTINUOUS
370
50
 62
4
100
AcDbLine
 10
32.584671
 20
-0.293021
 30
0.0
 11
32.584671
 21
-0.281002
 31
0.0
  0
LINE
  5
598
330
1F
100
AcDbEntity
  8
1
  6
CONTINUOUS
370
50
 62
4
100
AcDbLine
 10
32.584671
 20
-0.281002
 30
0.0
 11
32.584671
 21
-0.269667
 31
0.0
  0
LINE
  5
599
330
1F
100
AcDbEntity
  8
1
  6
CONTINUOUS
370
50
 62
4
100
AcDbLine
 10
32.584671
 20
-0.269667
 30
0.0
 11
32.584671
 21
-0.259039
 31
0.0
  0
LINE
  5
59A
330
1F
100
AcDbEntity
  8
1
  6
CONTINUOUS
370
50
 62
4
100
AcDbLine
 10
32.584671
 20
-0.259039
 30
0.0
 11
32.584671
 21
-0.249138
 31
0.0
  0
LINE
  5
59B
330
1F
100
AcDbEntity
  8
1
  6
CONTINUOUS
370
50
 62
4
100
AcDbLine
 10
32.58667
 20
-0.272836
 30
0.0
 11
32.58667
 21
-0.250206
 31
0.0
  0
LINE
  5
59C
330
1F
100
AcDbEntity
  8
1
  6
CONTINUOUS
370
50
 62
4
100
AcDbLine
 10
33.999134
 20
-0.5
 30
0.0
 11
33.999134
 21
0.023399
 31
0.0
  0
LINE
  5
59D
330
1F
100
AcDbEntity
  8
1
  6
CONTINUOUS
370
50
 62
4
100
AcDbLine
 10
33.999134
 20
0.4754
 30
0.0
 11
33.999134
 21
0.5
 31
0.0
  0
LINE
  5
59E
330
1F
100
AcDbEntity
  8
1
  6
CONTINUOUS
370
50
 62
4
100
AcDbLine
 10
34.0
 20
-0.501
 30
0.0
 11
34.0
 21
0.023049
 31
0.0
  0
LINE
  5
59F
330
1F
100
AcDbEntity
  8
1
  6
CONTINUOUS
370
50
 62
4
100
AcDbLine
 10
34.0
 20
0.475742
 30
0.0
 11
34.0
 21
0.475908
 31
0.0
  0
LINE
  5
5A0
330
1F
100
AcDbEntity
  8
1
  6
CONTINUOUS
370
50
 62
4
100
AcDbLine
 10
34.0
 20
0.457129
 30
0.0
 11
34.0
 21
0.475742
 31
0.0
  0
LINE
  5
5A1
330
1F
100
AcDbEntity
  8
1
  6
CONTINUOUS
370
50
 62
4
100
AcDbLine
 10
34.0
 20
0.438122
 30
0.0
 11
34.0
 21
0.457129
 31
0.0
  0
LINE
  5
5A2
330
1F
100
AcDbEntity
  8
1
  6
CONTINUOUS
370
50
 62
4
100
AcDbLine
 10
34.0
 20
0.418799
 30
0.0
 11
34.0
 21
0.438122
 31
0.0
  0
LINE
  5
5A3
330
1F
100
AcDbEntity
  8
1
  6
CONTINUOUS
370
50
 62
4
100
AcDbLine
 10
34.0
 20
0.399288
 30
0.0
 11
34.0
 21
0.418799
 31
0.0
  0
LINE
  5
5A4
330
1F
100
AcDbEntity
  8
1
  6
CONTINUOUS
370
50
 62
4
100
AcDbLine
 10
34.0
 20
0.379646
 30
0.0
 11
34.0
 21
0.399288
 31
0.0
  0
LINE
  5
5A5
330
1F
100
AcDbEntity
  8
1
  6
CONTINUOUS
370
50
 62
4
100
AcDbLine
 10
34.0
 20
0.359924
 30
0.0
 11
34.0
 21
0.379646
 31
0.0
  0
LINE
  5
5A6
330
1F
100
AcDbEntity
  8
1
  6
CONTINUOUS
370
50
 62
4
100
AcDbLine
 10
34.0
 20
0.340174
 30
0.0
 11
34.0
 21
0.359924
 31
0.0
  0
LINE
  5
5A7
330
1F
100
AcDbEntity
  8
1
  6
CONTINUOUS
370
50
 62
4
100
AcDbLine
 10
34.0
 20
0.320449
 30
0.0
 11
34.0
 21
0.340174
 31
0.0
  0
LINE
  5
5A8
330
1F
100
AcDbEntity
  8
1
  6
CONTINUOUS
370
50
 62
4
100
AcDbLine
 10
34.0
 20
0.300803
 30
0.0
 11
34.0
 21
0.320449
 31
0.0
  0
LINE
  5
5A9
330
1F
100
AcDbEntity
  8
1
  6
CONTINUOUS
370
50
 62
4
100
AcDbLine
 10
34.0
 20
0.281363
 30
0.0
 11
34.0
 21
0.300803
 31
0.0
  0
LINE
  5
5AA
330
1F
100
AcDbEntity
  8
1
  6
CONTINUOUS
370
50
 62
4
100
AcDbLine
 10
34.0
 20
0.262217
 30
0.0
 11
34.0
 21
0.281363
 31
0.0
  0
LINE
  5
5AB
330
1F
100
AcDbEntity
  8
1
  6
CONTINUOUS
370
50
 62
4
100
AcDbLine
 10
34.0
 20
0.243412
 30
0.0
 11
34.0
 21
0.262217
 31
0.0
  0
LINE
  5
5AC
330
1F
100
AcDbEntity
  8
1
  6
CONTINUOUS
370
50
 62
4
100
AcDbLine
 10
34.0
 20
0.224998
 30
0.0
 11
34.0
 21
0.243412
 31
0.0
  0
LINE
  5
5AD
330
1F
100
AcDbEntity
  8
1
  6
CONTINUOUS
370
50
 62
4
100
AcDbLine
 10
34.0
 20
0.207025
 30
0.0
 11
34.0
 21
0.224998
 31
0.0
  0
LINE
  5
5AE
330
1F
100
AcDbEntity
  8
1
  6
CONTINUOUS
370
50
 62
4
100
AcDbLine
 10
34.0
 20
0.189542
 30
0.0
 11
34.0
 21
0.207025
 31
0.0
  0
LINE
  5
5AF
330
1F
100
AcDbEntity
  8
1
  6
CONTINUOUS
370
50
 62
4
100
AcDbLine
 10
34.0
 20
0.172617
 30
0.0
 11
34.0
 21
0.189542
 31
0.0
  0
LINE
  5
5B0
330
1F
100
AcDbEntity
  8
1
  6
CONTINUOUS
370
50
 62
4
100
AcDbLine
 10
34.0
 20
0.156368
 30
0.0
 11
34.0
 21
0.172617
 31
0.0
  0
LINE
  5
5B1
330
1F
100
AcDbEntity
  8
1
  6
CONTINUOUS
370
50
 62
4
100
AcDbLine
 10
34.0
 20
0.140838
 30
0.0
 11
34.0
 21
0.156368
 31
0.0
  0
LINE
  5
5B2
330
1F
100
AcDbEntity
  8
1
  6
CONTINUOUS
370
50
 62
4
100
AcDbLine
 10
34.0
 20
0.126068
 30
0.0
 11
34.0
 21
0.140838
 31
0.0
  0
LINE
  5
5B3
330
1F
100
AcDbEntity
  8
1
  6
CONTINUOUS
370
50
 62
4
100
AcDbLine
 10
34.0
 20
0.112096
 30
0.0
 11
34.0
 21
0.126068
 31
0.0
  0
LINE
  5
5B4
330
1F
100
AcDbEntity
  8
1
  6
CONTINUOUS
370
50
 62
4
100
AcDbLine
 10
34.0
 20
0.098961
 30
0.0
 11
34.0
 21
0.112096
 31
0.0
  0
LINE
  5
5B5
330
1F
100
AcDbEntity
  8
1
  6
CONTINUOUS
370
50
 62
4
100
AcDbLine
 10
34.0
 20
0.086702
 30
0.0
 11
34.0
 21
0.098961
 31
0.0
  0
LINE
  5
5B6
330
1F
100
AcDbEntity
  8
1
  6
CONTINUOUS
370
50
 62
4
100
AcDbLine
 10
34.0
 20
0.075393
 30
0.0
 11
34.0
 21
0.086702
 31
0.0
  0
LINE
  5
5B7
330
1F
100
AcDbEntity
  8
1
  6
CONTINUOUS
370
50
 62
4
100
AcDbLine
 10
34.0
 20
0.06509
 30
0.0
 11
34.0
 21
0.075393
 31
0.0
  0
LINE
  5
5B8
330
1F
100
AcDbEntity
  8
1
  6
CONTINUOUS
370
50
 62
4
100
AcDbLine
 10
34.0
 20
0.055816
 30
0.0
 11
34.0
 21
0.06509
 31
0.0
  0
LINE
  5
5B9
330
1F
100
AcDbEntity
  8
1
  6
CONTINUOUS
370
50
 62
4
100
AcDbLine
 10
34.0
 20
0.047591
 30
0.0
 11
34.0
 21
0.055816
 31
0.0
  0
LINE
  5
5BA
330
1F
100
AcDbEntity
  8
1
  6
CONTINUOUS
370
50
 62
4
100
AcDbLine
 10
34.0
 20
0.04044
 30
0.0
 11
34.0
 21
0.047591
 31
0.0
  0
LINE
  5
5BB
330
1F
100
AcDbEntity
  8
1
  6
CONTINUOUS
370
50
 62
4
100
AcDbLine
 10
34.0
 20
0.034384
 30
0.0
 11
34.0
 21
0.04044
 31
0.0
  0
LINE
  5
5BC
330
1F
100
AcDbEntity
  8
1
  6
CONTINUOUS
370
50
 62
4
100
AcDbLine
 10
34.0
 20
0.02945
 30
0.0
 11
34.0
 21
0.034384
 31
0.0
  0
LINE
  5
5BD
330
1F
100
AcDbEntity
  8
1
  6
CONTINUOUS
370
50
 62
4
100
AcDbLine
 10
34.0
 20
0.025669
 30
0.0
 11
34.0
 21
0.02945
 31
0.0
  0
LINE
  5
5BE
330
1F
100
AcDbEntity
  8
1
  6
CONTINUOUS
370
50
 62
4
100
AcDbLine
 10
34.0
 20
0.023051
 30
0.0
 11
34.0
 21
0.025669
 31
0.0
  0
LINE
  5
5BF
330
1F
100
AcDbEntity
  8
1
  6
CONTINUOUS
370
50
 62
4
100
AcDbLine
 10
34.0
 20
0.475912
 30
0.0
 11
34.0
 21
0.475992
 31
0.0
  0
LINE
  5
5C0
330
1F
100
AcDbEntity
  8
1
  6
CONTINUOUS
370
50
 62
4
100
AcDbLine
 10
34.0
 20
0.475992
 30
0.0
 11
34.0
 21
0.476073
 31
0.0
  0
LINE
  5
5C1
330
1F
100
AcDbEntity
  8
1
  6
CONTINUOUS
370
50
 62
4
100
AcDbLine
 10
34.0
 20
0.476073
 30
0.0
 11
34.0
 21
0.476153
 31
0.0
  0
LINE
  5
5C2
330
1F
100
AcDbEntity
  8
1
  6
CONTINUOUS
370
50
 62
4
100
AcDbLine
 10
34.0
 20
0.476153
 30
0.0
 11
34.0
 21
0.476233
 31
0.0
  0
LINE
  5
5C3
330
1F
100
AcDbEntity
  8
1
  6
CONTINUOUS
370
50
 62
4
100
AcDbLine
 10
34.0
 20
0.476233
 30
0.0
 11
34.0
 21
0.476314
 31
0.0
  0
LINE
  5
5C4
330
1F
100
AcDbEntity
  8
1
  6
CONTINUOUS
370
50
 62
4
100
AcDbLine
 10
34.0
 20
0.476314
 30
0.0
 11
34.0
 21
0.476394
 31
0.0
  0
LINE
  5
5C5
330
1F
100
AcDbEntity
  8
1
  6
CONTINUOUS
370
50
 62
4
100
AcDbLine
 10
34.0
 20
0.476394
 30
0.0
 11
34.0
 21
0.501
 31
0.0
  0
LINE
  5
5C6
330
1F
100
AcDbEntity
  8
1
  6
CONTINUOUS
370
50
 62
4
100
AcDbLine
 10
37.766846
 20
0.395334
 30
0.0
 11
37.766846
 21
0.451577
 31
0.0
  0
LINE
  5
5C7
330
1F
100
AcDbEntity
  8
CUT
  6
CONTINUOUS
370
25
 62
1
100
AcDbLine
 10
34.0
 20
0.0
 30
0.0
 11
38.0
 21
0.0
 31
0.0
  0
LINE
  5
5C8
330
1F
100
AcDbEntity
  8
CUT
  6
CONTINUOUS
370
25
 62
1
100
AcDbLine
 10
38.0
 20
0.0
 30
0.0
 11
37.76684617
 21
0.5
 31
0.0
  0
LINE
  5
5C9
330
1F
100
AcDbEntity
  8
CUT
  6
CONTINUOUS
370
25
 62
1
100
AcDbLine
 10
37.76684617
 20
0.5
 30
0.0
 11
34.0
 21
0.5
 31
0.0
  0
LINE
  5
5CA
330
1F
100
AcDbEntity
  8
CUT
  6
CONTINUOUS
370
25
 62
1
100
AcDbLine
 10
34.0
 20
0.5
 30
0.0
 11
34.0
 21
0.0
 31
0.0
  0
LINE
  5
5CB
330
1F
100
AcDbEntity
  8
NOCUT
  6
CONTINUOUS
370
25
 62
7
100
AcDbLine
 10
26.8
 20
0.0
 30
0.0
 11
34.0
 21
0.0
 31
0.0
  0
LINE
  5
5CC
330
1F
100
AcDbEntity
  8
NOCUT
  6
CONTINUOUS
370
25
 62
7
100
AcDbLine
 10
34.0
 20
0.0
 30
0.0
 11
34.0
 21
0.5005
 31
0.0
  0
LINE
  5
5CD
330
1F
100
AcDbEntity
  8
NOCUT
  6
CONTINUOUS
370
25
 62
7
100
AcDbLine
 10
34.0
 20
0.5005
 30
0.0
 11
33.99913397459622
 21
0.5
 31
0.0
  0
LINE
  5
5CE
330
1F
100
AcDbEntity
  8
NOCUT
  6
CONTINUOUS
370
25
 62
7
100
AcDbLine
 10
33.99913397459622
 20
0.5
 30
0.0
 11
30.5
 21
0.5
 31
0.0
  0
LINE
  5
5CF
330
1F
100
AcDbEntity
  8
NOCUT
  6
CONTINUOUS
370
25
 62
7
100
AcDbLine
 10
30.5
 20
0.5
 30
0.0
 11
26.8
 21
1.5
 31
0.0
  0
LINE
  5
5D0
330
1F
100
AcDbEntity
  8
NOCUT
  6
CONTINUOUS
370
25
 62
7
100
AcDbLine
 10
26.8
 20
1.5
 30
0.0
 11
26.8
 21
0.0
 31
0.0
  0
LINE
  5
5D1
330
1F
100
AcDbEntity
  8
NOCUT
  6
CONTINUOUS
370
25
 62
7
100
AcDbLine
 10
34.0
 20
0.5
 30
0.0
 11
34.0
 21
0.0
 31
0.0
  0
LINE
  5
5D2
330
1F
100
AcDbEntity
  8
NOCUT
  6
CONTINUOUS
370
25
 62
7
100
AcDbLine
 10
34.0
 20
0.5
 30
0.0
 11
34.0
 21
0.0
 31
0.0
  0
LINE
  5
5D3
330
1F
100
AcDbEntity
  8
SK1
  6
CONTINUOUS
370
50
 62
4
100
AcDbLine
 10
26.8
 20
1.5
 30
0.0
 11
0.3000000000000007
 21
1.5
 31
0.0
  0
LINE
  5
5D4
330
1F
100
AcDbEntity
  8
SK1
  6
CONTINUOUS
370
50
 62
4
100
AcDbLine
 10
0.3000000000000007
 20
1.5
 30
0.0
 11
0.0
 21
1.2
 31
0.0
  0
LINE
  5
5D5
330
1F
100
AcDbEntity
  8
SK1
  6
CONTINUOUS
370
50
 62
4
100
AcDbLine
 10
0.0
 20
1.2
 30
0.0
 11
0.0
 21
-1.2
 31
0.0
  0
LINE
  5
5D6
330
1F
100
AcDbEntity
  8
SK1
  6
CONTINUOUS
370
50
 62
4
100
AcDbLine
 10
0.0
 20
-1.2
 30
0.0
 11
0.3000000000000007
 21
-1.5
 31
0.0
  0
LINE
  5
5D7
330
1F
100
AcDbEntity
  8
SK1
  6
CONTINUOUS
370
50
 62
4
100
AcDbLine
 10
0.3000000000000007
 20
-1.5
 30
0.0
 11
26.8
 21
-1.5
 31
0.0
  0
LINE
  5
5D8
330
1F
100
AcDbEntity
  8
SK1
  6
CONTINUOUS
370
50
 62
4
100
AcDbLine
 10
0.3000000000000007
 20
1.5
 30
0.0
 11
0.3000000000000007
 21
-1.5
 31
0.0
  0
LINE
  5
5D9
330
1F
100
AcDbEntity
  8
SK2
  6
CONTINUOUS
370
25
 62
7
100
AcDbLine
 10
-12.0000002
 20
-1.500001
 30
0.0
 11
-13.00000000000007
 21
-1.500001
 31
0.0
  0
LINE
  5
5DA
330
1F
100
AcDbEntity
  8
SK2
  6
CONTINUOUS
370
25
 62
7
100
AcDbLine
 10
0.0
 20
-1.500001
 30
0.0
 11
-11.9999998
 21
-1.500001
 31
0.0
  0
LINE
  5
5DB
330
1F
100
AcDbEntity
  8
SK2
  6
CONTINUOUS
370
25
 62
7
100
AcDbLine
 10
-13.0
 20
1.5
 30
0.0
 11
0.0000000000000036
 21
1.5
 31
0.0
  0
LINE
  5
5DC
330
1F
100
AcDbEntity
  8
SK2
  6
CONTINUOUS
370
25
 62
7
100
AcDbLine
 10
-12.0
 20
-8.5
 30
0.0
 11
-12.0
 21
14.975
 31
0.0
  0
LINE
  5
5DD
330
1F
100
AcDbEntity
  8
SK2
  6
CONTINUOUS
370
25
 62
7
100
AcDbLine
 10
-12.0
 20
-1.5
 30
0.0
 11
-11.0
 21
-6.5
 31
0.0
  0
LINE
  5
5DE
330
1F
100
AcDbEntity
  8
SK2
  6
CONTINUOUS
370
25
 62
7
100
AcDbLine
 10
-11.0
 20
-6.5
 30
0.0
 11
-13.0
 21
-6.5
 31
0.0
  0
LINE
  5
5DF
330
1F
100
AcDbEntity
  8
SK2
  6
CONTINUOUS
370
25
 62
7
100
AcDbLine
 10
-13.0
 20
-6.5
 30
0.0
 11
-12.0
 21
-1.5
 31
0.0
  0
LINE
  5
5E0
330
1F
100
AcDbEntity
  8
SK2
  6
CONTINUOUS
370
25
 62
7
100
AcDbLine
 10
-11.09554108468269
 20
-6.5
 30
0.0
 11
-11.01592351411378
 21
-6.420382429431093
 31
0.0
  0
LINE
  5
5E1
330
1F
100
AcDbEntity
  8
SK2
  6
CONTINUOUS
370
25
 62
7
100
AcDbLine
 10
-11.51980515339462
 20
-6.499999999999996
 30
0.0
 11
-11.08663419223244
 21
-6.066829038837813
 31
0.0
  0
LINE
  5
5E2
330
1F
100
AcDbEntity
  8
SK2
  6
CONTINUOUS
370
25
 62
7
100
AcDbLine
 10
-11.94406922210656
 20
-6.5
 30
0.0
 11
-11.1573448703511
 21
-5.71327564824454
 31
0.0
  0
LINE
  5
5E3
330
1F
100
AcDbEntity
  8
SK2
  6
CONTINUOUS
370
25
 62
7
100
AcDbLine
 10
-12.36833329081849
 20
-6.5
 30
0.0
 11
-11.22805554846975
 21
-5.359722257651256
 31
0.0
  0
LINE
  5
5E4
330
1F
100
AcDbEntity
  8
SK2
  6
CONTINUOUS
370
25
 62
7
100
AcDbLine
 10
-12.79259735953042
 20
-6.5
 30
0.0
 11
-11.2987662265884
 21
-5.00616886705798
 31
0.0
  0
LINE
  5
5E5
330
1F
100
AcDbEntity
  8
SK2
  6
CONTINUOUS
370
25
 62
7
100
AcDbLine
 10
-12.94578464293942
 20
-6.228923214697069
 30
0.0
 11
-11.36947690470706
 21
-4.65261547646471
 31
0.0
  0
LINE
  5
5E6
330
1F
100
AcDbEntity
  8
SK2
  6
CONTINUOUS
370
25
 62
7
100
AcDbLine
 10
-12.83971862576143
 20
-5.698593128807154
 30
0.0
 11
-11.44018758282571
 21
-4.299062085871434
 31
0.0
  0
LINE
  5
5E7
330
1F
100
AcDbEntity
  8
SK2
  6
CONTINUOUS
370
25
 62
7
100
AcDbLine
 10
-12.73365260858344
 20
-5.168263042917239
 30
0.0
 11
-11.51089826094437
 21
-3.945508695278164
 31
0.0
  0
LINE
  5
5E8
330
1F
100
AcDbEntity
  8
SK2
  6
CONTINUOUS
370
25
 62
7
100
AcDbLine
 10
-12.62758659140546
 20
-4.637932957027324
 30
0.0
 11
-11.58160893906302
 21
-3.59195530468488
 31
0.0
  0
LINE
  5
5E9
330
1F
100
AcDbEntity
  8
SK2
  6
CONTINUOUS
370
25
 62
7
100
AcDbLine
 10
-12.52152057422748
 20
-4.107602871137409
 30
0.0
 11
-11.65231961718168
 21
-3.238401914091604
 31
0.0
  0
LINE
  5
5EA
330
1F
100
AcDbEntity
  8
SK2
  6
CONTINUOUS
370
25
 62
7
100
AcDbLine
 10
-12.4154545570495
 20
-3.577272785247494
 30
0.0
 11
-11.72303029530034
 21
-2.884848523498334
 31
0.0
  0
LINE
  5
5EB
330
1F
100
AcDbEntity
  8
SK2
  6
CONTINUOUS
370
25
 62
7
100
AcDbLine
 10
-12.30938853987152
 20
-3.046942699357587
 30
0.0
 11
-11.79374097341899
 21
-2.531295132905058
 31
0.0
  0
LINE
  5
5EC
330
1F
100
AcDbEntity
  8
SK2
  6
CONTINUOUS
370
25
 62
7
100
AcDbLine
 10
-12.20332252269353
 20
-2.516612613467665
 30
0.0
 11
-11.86445165153765
 21
-2.177741742311781
 31
0.0
  0
LINE
  5
5ED
330
1F
100
AcDbEntity
  8
SK2
  6
CONTINUOUS
370
25
 62
7
100
AcDbLine
 10
-12.09725650551555
 20
-1.98628252757775
 30
0.0
 11
-11.9351623296563
 21
-1.824188351718497
 31
0.0
  0
LINE
  5
5EE
330
1F
100
AcDbEntity
  8
SK2
  6
CONTINUOUS
370
25
 62
7
100
AcDbLine
 10
-12.95591911604012
 20
-6.279595580200578
 30
0.0
 11
-12.7355146962407
 21
-6.5
 31
0.0
  0
LINE
  5
5EF
330
1F
100
AcDbEntity
  8
SK2
  6
CONTINUOUS
370
25
 62
7
100
AcDbLine
 10
-12.88520843792146
 20
-5.926042189607308
 30
0.0
 11
-12.31125062752877
 21
-6.5
 31
0.0
  0
LINE
  5
5F0
330
1F
100
AcDbEntity
  8
SK2
  6
CONTINUOUS
370
25
 62
7
100
AcDbLine
 10
-12.81449775980281
 20
-5.572488799014025
 30
0.0
 11
-11.88698655881683
 21
-6.5
 31
0.0
  0
LINE
  5
5F1
330
1F
100
AcDbEntity
  8
SK2
  6
CONTINUOUS
370
25
 62
7
100
AcDbLine
 10
-12.74378708168415
 20
-5.218935408420748
 30
0.0
 11
-11.46272249010489
 21
-6.5
 31
0.0
  0
LINE
  5
5F2
330
1F
100
AcDbEntity
  8
SK2
  6
CONTINUOUS
370
25
 62
7
100
AcDbLine
 10
-12.6730764035655
 20
-4.865382017827471
 30
0.0
 11
-11.03845842139297
 21
-6.5
 31
0.0
  0
LINE
  5
5F3
330
1F
100
AcDbEntity
  8
SK2
  6
CONTINUOUS
370
25
 62
7
100
AcDbLine
 10
-12.60236572544684
 20
-4.511828627234195
 30
0.0
 11
-11.09645141182974
 21
-6.017742940851299
 31
0.0
  0
LINE
  5
5F4
330
1F
100
AcDbEntity
  8
SK2
  6
CONTINUOUS
370
25
 62
7
100
AcDbLine
 10
-12.53165504732818
 20
-4.158275236640925
 30
0.0
 11
-11.20251742900772
 21
-5.487412854961384
 31
0.0
  0
LINE
  5
5F5
330
1F
100
AcDbEntity
  8
SK2
  6
CONTINUOUS
370
25
 62
7
100
AcDbLine
 10
-12.46094436920952
 20
-3.804721846047649
 30
0.0
 11
-11.30858344618571
 21
-4.957082769071462
 31
0.0
  0
LINE
  5
5F6
330
1F
100
AcDbEntity
  8
SK2
  6
CONTINUOUS
370
25
 62
7
100
AcDbLine
 10
-12.39023369109087
 20
-3.451168455454372
 30
0.0
 11
-11.41464946336369
 21
-4.426752683181554
 31
0.0
  0
LINE
  5
5F7
330
1F
100
AcDbEntity
  8
SK2
  6
CONTINUOUS
370
25
 62
7
100
AcDbLine
 10
-12.31952301297222
 20
-3.097615064861095
 30
0.0
 11
-11.52071548054167
 21
-3.89642259729164
 31
0.0
  0
LINE
  5
5F8
330
1F
100
AcDbEntity
  8
SK2
  6
CONTINUOUS
370
25
 62
7
100
AcDbLine
 10
-12.24881233485356
 20
-2.744061674267819
 30
0.0
 11
-11.62678149771966
 21
-3.366092511401718
 31
0.0
  0
LINE
  5
5F9
330
1F
100
AcDbEntity
  8
SK2
  6
CONTINUOUS
370
25
 62
7
100
AcDbLine
 10
-12.17810165673491
 20
-2.390508283674542
 30
0.0
 11
-11.73284751489764
 21
-2.83576242551181
 31
0.0
  0
LINE
  5
5FA
330
1F
100
AcDbEntity
  8
SK2
  6
CONTINUOUS
370
25
 62
7
100
AcDbLine
 10
-12.10739097861625
 20
-2.036954893081266
 30
0.0
 11
-11.83891353207563
 21
-2.305432339621888
 31
0.0
  0
LINE
  5
5FB
330
1F
100
AcDbEntity
  8
SK2
  6
CONTINUOUS
370
25
 62
7
100
AcDbLine
 10
-12.0366803004976
 20
-1.683401502487989
 30
0.0
 11
-11.94497954925361
 21
-1.77510225373198
 31
0.0
  0
LINE
  5
5FC
330
1F
100
AcDbEntity
  8
SK2
  6
CONTINUOUS
370
25
 62
7
100
AcDbLine
 10
-12.0
 20
1.5
 30
0.0
 11
-13.0
 21
6.5
 31
0.0
  0
LINE
  5
5FD
330
1F
100
AcDbEntity
  8
SK2
  6
CONTINUOUS
370
25
 62
7
100
AcDbLine
 10
-13.0
 20
6.5
 30
0.0
 11
-11.0
 21
6.5
 31
0.0
  0
LINE
  5
5FE
330
1F
100
AcDbEntity
  8
SK2
  6
CONTINUOUS
370
25
 62
7
100
AcDbLine
 10
-11.0
 20
6.5
 30
0.0
 11
-12.0
 21
1.5
 31
0.0
  0
LINE
  5
5FF
330
1F
100
AcDbEntity
  8
SK2
  6
CONTINUOUS
370
25
 62
7
100
AcDbLine
 10
-12.00084775460553
 20
1.504238773027659
 30
0.0
 11
-11.9987283680917
 21
1.506358159541492
 31
0.0
  0
LINE
  5
600
330
1F
100
AcDbEntity
  8
SK2
  6
CONTINUOUS
370
25
 62
7
100
AcDbLine
 10
-12.07155843272418
 20
1.857792163620935
 30
0.0
 11
-11.89266235091372
 21
2.036688245431399
 31
0.0
  0
LINE
  5
601
330
1F
100
AcDbEntity
  8
SK2
  6
CONTINUOUS
370
25
 62
7
100
AcDbLine
 10
-12.14226911084284
 20
2.211345554214219
 30
0.0
 11
-11.78659633373574
 21
2.567018331321314
 31
0.0
  0
LINE
  5
602
330
1F
100
AcDbEntity
  8
SK2
  6
CONTINUOUS
370
25
 62
7
100
AcDbLine
 10
-12.21297978896149
 20
2.564898944807489
 30
0.0
 11
-11.68053031655775
 21
3.097348417211229
 31
0.0
  0
LINE
  5
603
330
1F
100
AcDbEntity
  8
SK2
  6
CONTINUOUS
370
25
 62
7
100
AcDbLine
 10
-12.28369046708015
 20
2.918452335400765
 30
0.0
 11
-11.57446429937977
 21
3.627678503101144
 31
0.0
  0
LINE
  5
604
330
1F
100
AcDbEntity
  8
SK2
  6
CONTINUOUS
370
25
 62
7
100
AcDbLine
 10
-12.3544011451988
 20
3.272005725994042
 30
0.0
 11
-11.46839828220179
 21
4.158008588991052
 31
0.0
  0
LINE
  5
605
330
1F
100
AcDbEntity
  8
SK2
  6
CONTINUOUS
370
25
 62
7
100
AcDbLine
 10
-12.42511182331746
 20
3.625559116587318
 30
0.0
 11
-11.36233226502381
 21
4.688338674880974
 31
0.0
  0
LINE
  5
606
330
1F
100
AcDbEntity
  8
SK2
  6
CONTINUOUS
370
25
 62
7
100
AcDbLine
 10
-12.49582250143611
 20
3.979112507180602
 30
0.0
 11
-11.25626624784583
 21
5.218668760770889
 31
0.0
  0
LINE
  5
607
330
1F
100
AcDbEntity
  8
SK2
  6
CONTINUOUS
370
25
 62
7
100
AcDbLine
 10
-12.56653317955477
 20
4.332665897773872
 30
0.0
 11
-11.15020023066785
 21
5.748998846660797
 31
0.0
  0
LINE
  5
608
330
1F
100
AcDbEntity
  8
SK2
  6
CONTINUOUS
370
25
 62
7
100
AcDbLine
 10
-12.63724385767343
 20
4.686219288367148
 30
0.0
 11
-11.04413421348985
 21
6.279328932550726
 31
0.0
  0
LINE
  5
609
330
1F
100
AcDbEntity
  8
SK2
  6
CONTINUOUS
370
25
 62
7
100
AcDbLine
 10
-12.70795453579209
 20
5.039772678960418
 30
0.0
 11
-11.2477272147525
 21
6.5
 31
0.0
  0
LINE
  5
60A
330
1F
100
AcDbEntity
  8
SK2
  6
CONTINUOUS
370
25
 62
7
100
AcDbLine
 10
-12.77866521391075
 20
5.393326069553694
 30
0.0
 11
-11.67199128346444
 21
6.5
 31
0.0
  0
LINE
  5
60B
330
1F
100
AcDbEntity
  8
SK2
  6
CONTINUOUS
370
25
 62
7
100
AcDbLine
 10
-12.8493758920294
 20
5.746879460146971
 30
0.0
 11
-12.09625535217637
 21
6.5
 31
0.0
  0
LINE
  5
60C
330
1F
100
AcDbEntity
  8
SK2
  6
CONTINUOUS
370
25
 62
7
100
AcDbLine
 10
-12.92008657014805
 20
6.100432850740248
 30
0.0
 11
-12.5205194208883
 21
6.5
 31
0.0
  0
LINE
  5
60D
330
1F
100
AcDbEntity
  8
SK2
  6
CONTINUOUS
370
25
 62
7
100
AcDbLine
 10
-12.99079724826671
 20
6.453986241333517
 30
0.0
 11
-12.94478348960022
 21
6.5
 31
0.0
  0
LINE
  5
60E
330
1F
100
AcDbEntity
  8
SK2
  6
CONTINUOUS
370
25
 62
7
100
AcDbLine
 10
-12.01299903391413
 20
1.564995169570658
 30
0.0
 11
-11.99133397739058
 21
1.543330113047105
 31
0.0
  0
LINE
  5
60F
330
1F
100
AcDbEntity
  8
SK2
  6
CONTINUOUS
370
25
 62
7
100
AcDbLine
 10
-12.11906505109211
 20
2.095325255460573
 30
0.0
 11
-11.92062329927193
 21
1.896883503640389
 31
0.0
  0
LINE
  5
610
330
1F
100
AcDbEntity
  8
SK2
  6
CONTINUOUS
370
25
 62
7
100
AcDbLine
 10
-12.2251310682701
 20
2.625655341350495
 30
0.0
 11
-11.84991262115327
 21
2.250436894233665
 31
0.0
  0
LINE
  5
611
330
1F
100
AcDbEntity
  8
SK2
  6
CONTINUOUS
370
25
 62
7
100
AcDbLine
 10
-12.33119708544808
 20
3.155985427240402
 30
0.0
 11
-11.77920194303461
 21
2.603990284826935
 31
0.0
  0
LINE
  5
612
330
1F
100
AcDbEntity
  8
SK2
  6
CONTINUOUS
370
25
 62
7
100
AcDbLine
 10
-12.43726310262607
 20
3.686315513130324
 30
0.0
 11
-11.70849126491595
 21
2.957543675420212
 31
0.0
  0
LINE
  5
613
330
1F
100
AcDbEntity
  8
SK2
  6
CONTINUOUS
370
25
 62
7
100
AcDbLine
 10
-12.54332911980405
 20
4.216645599020232
 30
0.0
 11
-11.6377805867973
 21
3.311097066013488
 31
0.0
  0
LINE
  5
614
330
1F
100
AcDbEntity
  8
SK2
  6
CONTINUOUS
370
25
 62
7
100
AcDbLine
 10
-12.64939513698203
 20
4.746975684910147
 30
0.0
 11
-11.56706990867864
 21
3.664650456606765
 31
0.0
  0
LINE
  5
615
330
1F
100
AcDbEntity
  8
SK2
  6
CONTINUOUS
370
25
 62
7
100
AcDbLine
 10
-12.75546115416001
 20
5.277305770800055
 30
0.0
 11
-11.49635923055999
 21
4.018203847200041
 31
0.0
  0
LINE
  5
616
330
1F
100
AcDbEntity
  8
SK2
  6
CONTINUOUS
370
25
 62
7
100
AcDbLine
 10
-12.861527171338
 20
5.807635856689977
 30
0.0
 11
-11.42564855244133
 21
4.371757237793318
 31
0.0
  0
LINE
  5
617
330
1F
100
AcDbEntity
  8
SK2
  6
CONTINUOUS
370
25
 62
7
100
AcDbLine
 10
-12.96759318851598
 20
6.337965942579892
 30
0.0
 11
-11.35493787432268
 21
4.725310628386588
 31
0.0
  0
LINE
  5
618
330
1F
100
AcDbEntity
  8
SK2
  6
CONTINUOUS
370
25
 62
7
100
AcDbLine
 10
-12.70536317722415
 20
6.5
 30
0.0
 11
-11.28422719620403
 21
5.078864018979871
 31
0.0
  0
LINE
  5
619
330
1F
100
AcDbEntity
  8
SK2
  6
CONTINUOUS
370
25
 62
7
100
AcDbLine
 10
-12.28109910851223
 20
6.5
 30
0.0
 11
-11.21351651808537
 21
5.432417409573141
 31
0.0
  0
LINE
  5
61A
330
1F
100
AcDbEntity
  8
SK2
  6
CONTINUOUS
370
25
 62
7
100
AcDbLine
 10
-11.85683503980029
 20
6.5
 30
0.0
 11
-11.14280583996672
 21
5.785970800166425
 31
0.0
  0
LINE
  5
61B
330
1F
100
AcDbEntity
  8
SK2
  6
CONTINUOUS
370
25
 62
7
100
AcDbLine
 10
-11.43257097108836
 20
6.5
 30
0.0
 11
-11.07209516184806
 21
6.139524190759701
 31
0.0
  0
LINE
  5
61C
330
1F
100
AcDbEntity
  8
SK2
  6
CONTINUOUS
370
25
 62
7
100
AcDbLine
 10
-11.00830690237643
 20
6.5
 30
0.0
 11
-11.00138448372941
 21
6.493077581352978
 31
0.0
  0
TEXT
  5
61D
330
1F
100
AcDbEntity
  8
SK2
  6
CONTINUOUS
370
25
 62
7
100
AcDbText
 10
-13.5
 20
11.84583333333333
 30
0.0
 40
3.5
  1
3
 50
90.00000000000001
 72
     1
 11
-13.5
 21
13.0125
 31
0.0
100
AcDbText
  0
CIRCLE
  5
61E
330
1F
100
AcDbEntity
  8
SK2
  6
CONTINUOUS
370
25
 62
7
100
AcDbCircle
 10
-15.25
 20
9.6875
 30
0.0
 40
1.4
  0
LINE
  5
61F
330
1F
100
AcDbEntity
  8
SK2
  6
CONTINUOUS
370
25
 62
7
100
AcDbLine
 10
-13.85
 20
8.287500000000001
 30
0.0
 11
-16.65
 21
11.0875
 31
0.0
  0
LINE
  5
620
330
1F
100
AcDbEntity
  8
SK2
  6
CONTINUOUS
370
25
 62
7
100
AcDbLine
 10
0.0
 20
1.5
 30
0.0
 11
0.0
 21
14.50001
 31
0.0
  0
LINE
  5
621
330
1F
100
AcDbEntity
  8
SK2
  6
CONTINUOUS
370
25
 62
7
100
AcDbLine
 10
26.8
 20
14.50001
 30
0.0
 11
26.8
 21
1.5
 31
0.0
  0
LINE
  5
622
330
1F
100
AcDbEntity
  8
SK2
  6
CONTINUOUS
370
25
 62
7
100
AcDbLine
 10
0.0
 20
13.50001
 30
0.0
 11
26.8
 21
13.50001
 31
0.0
  0
LINE
  5
623
330
1F
100
AcDbEntity
  8
SK2
  6
CONTINUOUS
370
25
 62
7
100
AcDbLine
 10
0.0
 20
13.50001
 30
0.0
 11
5.0
 21
14.50001
 31
0.0
  0
LINE
  5
624
330
1F
100
AcDbEntity
  8
SK2
  6
CONTINUOUS
370
25
 62
7
100
AcDbLine
 10
5.0
 20
14.50001
 30
0.0
 11
5.0
 21
12.50001
 31
0.0
  0
LINE
  5
625
330
1F
100
AcDbEntity
  8
SK2
  6
CONTINUOUS
370
25
 62
7
100
AcDbLine
 10
5.0
 20
12.50001
 30
0.0
 11
0.0
 21
13.50001
 31
0.0
  0
LINE
  5
626
330
1F
100
AcDbEntity
  8
SK2
  6
CONTINUOUS
370
25
 62
7
100
AcDbLine
 10
4.945517028611501
 20
12.5109065942777
 30
0.0
 11
5.0
 21
12.5653895656662
 31
0.0
  0
LINE
  5
627
330
1F
100
AcDbEntity
  8
SK2
  6
CONTINUOUS
370
25
 62
7
100
AcDbLine
 10
4.591963638018228
 20
12.58161727239635
 30
0.0
 11
5.0
 21
12.98965363437813
 31
0.0
  0
LINE
  5
628
330
1F
100
AcDbEntity
  8
SK2
  6
CONTINUOUS
370
25
 62
7
100
AcDbLine
 10
4.238410247424955
 20
12.65232795051501
 30
0.0
 11
5.0
 21
13.41391770309005
 31
0.0
  0
LINE
  5
629
330
1F
100
AcDbEntity
  8
SK2
  6
CONTINUOUS
370
25
 62
7
100
AcDbLine
 10
3.884856856831682
 20
12.72303862863366
 30
0.0
 11
5.0
 21
13.83818177180198
 31
0.0
  0
LINE
  5
62A
330
1F
100
AcDbEntity
  8
SK2
  6
CONTINUOUS
370
25
 62
7
100
AcDbLine
 10
3.531303466238409
 20
12.79374930675231
 30
0.0
 11
5.0
 21
14.26244584051391
 31
0.0
  0
LINE
  5
62B
330
1F
100
AcDbEntity
  8
SK2
  6
CONTINUOUS
370
25
 62
7
100
AcDbLine
 10
3.177750075645136
 20
12.86445998487097
 30
0.0
 11
4.766625113467708
 21
14.45333502269354
 31
0.0
  0
LINE
  5
62C
330
1F
100
AcDbEntity
  8
SK2
  6
CONTINUOUS
370
25
 62
7
100
AcDbLine
 10
2.824196685051863
 20
12.93517066298962
 30
0.0
 11
4.236295027577796
 21
14.34726900551556
 31
0.0
  0
LINE
  5
62D
330
1F
100
AcDbEntity
  8
SK2
  6
CONTINUOUS
370
25
 62
7
100
AcDbLine
 10
2.47064329445859
 20
13.00588134110828
 30
0.0
 11
3.705964941687888
 21
14.24120298833758
 31
0.0
  0
LINE
  5
62E
330
1F
100
AcDbEntity
  8
SK2
  6
CONTINUOUS
370
25
 62
7
100
AcDbLine
 10
2.117089903865317
 20
13.07659201922694
 30
0.0
 11
3.175634855797977
 21
14.13513697115959
 31
0.0
  0
LINE
  5
62F
330
1F
100
AcDbEntity
  8
SK2
  6
CONTINUOUS
370
25
 62
7
100
AcDbLine
 10
1.763536513272044
 20
13.14730269734559
 30
0.0
 11
2.645304769908069
 21
14.02907095398162
 31
0.0
  0
LINE
  5
630
330
1F
100
AcDbEntity
  8
SK2
  6
CONTINUOUS
370
25
 62
7
100
AcDbLine
 10
1.409983122678771
 20
13.21801337546425
 30
0.0
 11
2.114974684018158
 21
13.92300493680363
 31
0.0
  0
LINE
  5
631
330
1F
100
AcDbEntity
  8
SK2
  6
CONTINUOUS
370
25
 62
7
100
AcDbLine
 10
1.056429732085498
 20
13.2887240535829
 30
0.0
 11
1.58464459812825
 21
13.81693891962565
 31
0.0
  0
LINE
  5
632
330
1F
100
AcDbEntity
  8
SK2
  6
CONTINUOUS
370
25
 62
7
100
AcDbLine
 10
0.7028763414922246
 20
13.35943473170155
 30
0.0
 11
1.054314512238339
 21
13.71087290244767
 31
0.0
  0
LINE
  5
633
330
1F
100
AcDbEntity
  8
SK2
  6
CONTINUOUS
370
25
 62
7
100
AcDbLine
 10
0.3493229508989515
 20
13.43014540982021
 30
0.0
 11
0.5239844263484308
 21
13.60480688526969
 31
0.0
  0
LINE
  5
634
330
1F
100
AcDbEntity
  8
SK2
  6
CONTINUOUS
370
25
 62
7
100
AcDbLine
 10
0.2443485731571826
 20
13.54887971463143
 30
0.0
 11
0.3665228597357668
 21
13.42670542805285
 31
0.0
  0
LINE
  5
635
330
1F
100
AcDbEntity
  8
SK2
  6
CONTINUOUS
370
25
 62
7
100
AcDbLine
 10
0.5979019637504557
 20
13.61959039275009
 30
0.0
 11
0.8968529456256782
 21
13.32063941087487
 31
0.0
  0
LINE
  5
636
330
1F
100
AcDbEntity
  8
SK2
  6
CONTINUOUS
370
25
 62
7
100
AcDbLine
 10
0.9514553543437287
 20
13.69030107086875
 30
0.0
 11
1.42718303151559
 21
13.21457339369688
 31
0.0
  0
LINE
  5
637
330
1F
100
AcDbEntity
  8
SK2
  6
CONTINUOUS
370
25
 62
7
100
AcDbLine
 10
1.305008744937002
 20
13.7610117489874
 30
0.0
 11
1.957513117405497
 21
13.1085073765189
 31
0.0
  0
LINE
  5
638
330
1F
100
AcDbEntity
  8
SK2
  6
CONTINUOUS
370
25
 62
7
100
AcDbLine
 10
1.658562135530275
 20
13.83172242710605
 30
0.0
 11
2.487843203295409
 21
13.00244135934092
 31
0.0
  0
LINE
  5
639
330
1F
100
AcDbEntity
  8
SK2
  6
CONTINUOUS
370
25
 62
7
100
AcDbLine
 10
2.012115526123548
 20
13.90243310522471
 30
0.0
 11
3.01817328918532
 21
12.89637534216294
 31
0.0
  0
LINE
  5
63A
330
1F
100
AcDbEntity
  8
SK2
  6
CONTINUOUS
370
25
 62
7
100
AcDbLine
 10
2.365668916716821
 20
13.97314378334336
 30
0.0
 11
3.548503375075228
 21
12.79030932498496
 31
0.0
  0
LINE
  5
63B
330
1F
100
AcDbEntity
  8
SK2
  6
CONTINUOUS
370
25
 62
7
100
AcDbLine
 10
2.719222307310094
 20
14.04385446146202
 30
0.0
 11
4.078833460965139
 21
12.68424330780698
 31
0.0
  0
LINE
  5
63C
330
1F
100
AcDbEntity
  8
SK2
  6
CONTINUOUS
370
25
 62
7
100
AcDbLine
 10
3.072775697903367
 20
14.11456513958067
 30
0.0
 11
4.609163546855051
 21
12.57817729062899
 31
0.0
  0
LINE
  5
63D
330
1F
100
AcDbEntity
  8
SK2
  6
CONTINUOUS
370
25
 62
7
100
AcDbLine
 10
3.426329088496644
 20
14.18527581769932
 30
0.0
 11
5.0
 21
12.61160490619597
 31
0.0
  0
LINE
  5
63E
330
1F
100
AcDbEntity
  8
SK2
  6
CONTINUOUS
370
25
 62
7
100
AcDbLine
 10
3.779882479089917
 20
14.25598649581798
 30
0.0
 11
5.0
 21
13.0358689749079
 31
0.0
  0
LINE
  5
63F
330
1F
100
AcDbEntity
  8
SK2
  6
CONTINUOUS
370
25
 62
7
100
AcDbLine
 10
4.133435869683186
 20
14.32669717393664
 30
0.0
 11
5.0
 21
13.46013304361982
 31
0.0
  0
LINE
  5
640
330
1F
100
AcDbEntity
  8
SK2
  6
CONTINUOUS
370
25
 62
7
100
AcDbLine
 10
4.486989260276459
 20
14.39740785205529
 30
0.0
 11
5.0
 21
13.88439711233175
 31
0.0
  0
LINE
  5
641
330
1F
100
AcDbEntity
  8
SK2
  6
CONTINUOUS
370
25
 62
7
100
AcDbLine
 10
4.840542650869732
 20
14.46811853017395
 30
0.0
 11
5.0
 21
14.30866118104368
 31
0.0
  0
LINE
  5
642
330
1F
100
AcDbEntity
  8
SK2
  6
CONTINUOUS
370
25
 62
7
100
AcDbLine
 10
26.8
 20
13.50001
 30
0.0
 11
21.8
 21
12.50001
 31
0.0
  0
LINE
  5
643
330
1F
100
AcDbEntity
  8
SK2
  6
CONTINUOUS
370
25
 62
7
100
AcDbLine
 10
21.8
 20
12.50001
 30
0.0
 11
21.8
 21
14.50001
 31
0.0
  0
LINE
  5
644
330
1F
100
AcDbEntity
  8
SK2
  6
CONTINUOUS
370
25
 62
7
100
AcDbLine
 10
21.8
 20
14.50001
 30
0.0
 11
26.8
 21
13.50001
 31
0.0
  0
LINE
  5
645
330
1F
100
AcDbEntity
  8
SK2
  6
CONTINUOUS
370
25
 62
7
100
AcDbLine
 10
26.70444975152286
 20
13.48089995030457
 30
0.0
 11
26.73629983434857
 21
13.51275003313028
 31
0.0
  0
LINE
  5
646
330
1F
100
AcDbEntity
  8
SK2
  6
CONTINUOUS
370
25
 62
7
100
AcDbLine
 10
26.17411966563295
 20
13.37483393312659
 30
0.0
 11
26.3827464437553
 21
13.58346071124894
 31
0.0
  0
LINE
  5
647
330
1F
100
AcDbEntity
  8
SK2
  6
CONTINUOUS
370
25
 62
7
100
AcDbLine
 10
25.64378957974304
 20
13.26876791594861
 30
0.0
 11
26.02919305316203
 21
13.65417138936759
 31
0.0
  0
LINE
  5
648
330
1F
100
AcDbEntity
  8
SK2
  6
CONTINUOUS
370
25
 62
7
100
AcDbLine
 10
25.11345949385314
 20
13.16270189877063
 30
0.0
 11
25.67563966256876
 21
13.72488206748625
 31
0.0
  0
LINE
  5
649
330
1F
100
AcDbEntity
  8
SK2
  6
CONTINUOUS
370
25
 62
7
100
AcDbLine
 10
24.58312940796322
 20
13.05663588159264
 30
0.0
 11
25.32208627197548
 21
13.7955927456049
 31
0.0
  0
LINE
  5
64A
330
1F
100
AcDbEntity
  8
SK2
  6
CONTINUOUS
370
25
 62
7
100
AcDbLine
 10
24.05279932207332
 20
12.95056986441466
 30
0.0
 11
24.96853288138221
 21
13.86630342372356
 31
0.0
  0
LINE
  5
64B
330
1F
100
AcDbEntity
  8
SK2
  6
CONTINUOUS
370
25
 62
7
100
AcDbLine
 10
23.5224692361834
 20
12.84450384723668
 30
0.0
 11
24.61497949078893
 21
13.93701410184221
 31
0.0
  0
LINE
  5
64C
330
1F
100
AcDbEntity
  8
SK2
  6
CONTINUOUS
370
25
 62
7
100
AcDbLine
 10
22.99213915029349
 20
12.7384378300587
 30
0.0
 11
24.26142610019566
 21
14.00772477996087
 31
0.0
  0
LINE
  5
64D
330
1F
100
AcDbEntity
  8
SK2
  6
CONTINUOUS
370
25
 62
7
100
AcDbLine
 10
22.46180906440358
 20
12.63237181288072
 30
0.0
 11
23.90787270960239
 21
14.07843545807952
 31
0.0
  0
LINE
  5
64E
330
1F
100
AcDbEntity
  8
SK2
  6
CONTINUOUS
370
25
 62
7
100
AcDbLine
 10
21.93147897851367
 20
12.52630579570273
 30
0.0
 11
23.55431931900912
 21
14.14914613619818
 31
0.0
  0
LINE
  5
64F
330
1F
100
AcDbEntity
  8
SK2
  6
CONTINUOUS
370
25
 62
7
100
AcDbLine
 10
21.8
 20
12.81909088590099
 30
0.0
 11
23.20076592841584
 21
14.21985681431683
 31
0.0
  0
LINE
  5
650
330
1F
100
AcDbEntity
  8
SK2
  6
CONTINUOUS
370
25
 62
7
100
AcDbLine
 10
21.8
 20
13.24335495461292
 30
0.0
 11
22.84721253782257
 21
14.29056749243549
 31
0.0
  0
LINE
  5
651
330
1F
100
AcDbEntity
  8
SK2
  6
CONTINUOUS
370
25
 62
7
100
AcDbLine
 10
21.8
 20
13.66761902332484
 30
0.0
 11
22.49365914722929
 21
14.36127817055414
 31
0.0
  0
LINE
  5
652
330
1F
100
AcDbEntity
  8
SK2
  6
CONTINUOUS
370
25
 62
7
100
AcDbLine
 10
21.8
 20
14.09188309203677
 30
0.0
 11
22.14010575663603
 21
14.43198884867279
 31
0.0
  0
LINE
  5
653
330
1F
100
AcDbEntity
  8
SK2
  6
CONTINUOUS
370
25
 62
7
100
AcDbLine
 10
21.8
 20
12.63675323681471
 30
0.0
 11
21.91395269734559
 21
12.52280053946912
 31
0.0
  0
LINE
  5
654
330
1F
100
AcDbEntity
  8
SK2
  6
CONTINUOUS
370
25
 62
7
100
AcDbLine
 10
21.8
 20
13.06101730552664
 30
0.0
 11
22.26750608793887
 21
12.59351121758777
 31
0.0
  0
LINE
  5
655
330
1F
100
AcDbEntity
  8
SK2
  6
CONTINUOUS
370
25
 62
7
100
AcDbLine
 10
21.8
 20
13.48528137423857
 30
0.0
 11
22.62105947853214
 21
12.66422189570643
 31
0.0
  0
LINE
  5
656
330
1F
100
AcDbEntity
  8
SK2
  6
CONTINUOUS
370
25
 62
7
100
AcDbLine
 10
21.8
 20
13.9095454429505
 30
0.0
 11
22.97461286912542
 21
12.73493257382508
 31
0.0
  0
LINE
  5
657
330
1F
100
AcDbEntity
  8
SK2
  6
CONTINUOUS
370
25
 62
7
100
AcDbLine
 10
21.8
 20
14.33380951166242
 30
0.0
 11
23.32816625971869
 21
12.80564325194374
 31
0.0
  0
LINE
  5
658
330
1F
100
AcDbEntity
  8
SK2
  6
CONTINUOUS
370
25
 62
7
100
AcDbLine
 10
22.12257947546794
 20
14.43549410490641
 30
0.0
 11
23.68171965031196
 21
12.87635393006239
 31
0.0
  0
LINE
  5
659
330
1F
100
AcDbEntity
  8
SK2
  6
CONTINUOUS
370
25
 62
7
100
AcDbLine
 10
22.65290956135785
 20
14.32942808772843
 30
0.0
 11
24.03527304090523
 21
12.94706460818105
 31
0.0
  0
LINE
  5
65A
330
1F
100
AcDbEntity
  8
SK2
  6
CONTINUOUS
370
25
 62
7
100
AcDbLine
 10
23.18323964724776
 20
14.22336207055045
 30
0.0
 11
24.38882643149851
 21
13.0177752862997
 31
0.0
  0
LINE
  5
65B
330
1F
100
AcDbEntity
  8
SK2
  6
CONTINUOUS
370
25
 62
7
100
AcDbLine
 10
23.71356973313767
 20
14.11729605337247
 30
0.0
 11
24.74237982209178
 21
13.08848596441836
 31
0.0
  0
LINE
  5
65C
330
1F
100
AcDbEntity
  8
SK2
  6
CONTINUOUS
370
25
 62
7
100
AcDbLine
 10
24.24389981902758
 20
14.01123003619448
 30
0.0
 11
25.09593321268506
 21
13.15919664253701
 31
0.0
  0
LINE
  5
65D
330
1F
100
AcDbEntity
  8
SK2
  6
CONTINUOUS
370
25
 62
7
100
AcDbLine
 10
24.77422990491749
 20
13.9051640190165
 30
0.0
 11
25.44948660327833
 21
13.22990732065567
 31
0.0
  0
LINE
  5
65E
330
1F
100
AcDbEntity
  8
SK2
  6
CONTINUOUS
370
25
 62
7
100
AcDbLine
 10
25.3045599908074
 20
13.79909800183852
 30
0.0
 11
25.8030399938716
 21
13.30061799877432
 31
0.0
  0
LINE
  5
65F
330
1F
100
AcDbEntity
  8
SK2
  6
CONTINUOUS
370
25
 62
7
100
AcDbLine
 10
25.83489007669731
 20
13.69303198466054
 30
0.0
 11
26.15659338446488
 21
13.37132867689298
 31
0.0
  0
LINE
  5
660
330
1F
100
AcDbEntity
  8
SK2
  6
CONTINUOUS
370
25
 62
7
100
AcDbLine
 10
26.36522016258722
 20
13.58696596748256
 30
0.0
 11
26.51014677505815
 21
13.44203935501163
 31
0.0
  0
TEXT
  5
661
330
1F
100
AcDbEntity
  8
SK2
  6
CONTINUOUS
370
25
 62
7
100
AcDbText
 10
8.15
 20
15.00001
 30
0.0
 40
3.5
  1
26.8
 72
     1
 11
13.4
 21
15.00001
 31
0.0
100
AcDbText
  0
LINE
  5
662
330
1F
100
AcDbEntity
  8
2
  6
CONTINUOUS
370
25
 62
7
100
AcDbLine
 10
37.76684617
 20
-0.4999999999999999
 30
0.0
 11
71.0
 21
-0.500000000000004
 31
0.0
  0
LINE
  5
663
330
1F
100
AcDbEntity
  8
2
  6
CONTINUOUS
370
25
 62
7
100
AcDbLine
 10
71.0
 20
0.499999999999996
 30
0.0
 11
37.76684617000001
 21
0.5000000000000001
 31
0.0
  0
LINE
  5
664
330
1F
100
AcDbEntity
  8
2
  6
CONTINUOUS
370
25
 62
7
100
AcDbLine
 10
70.0
 20
-7.500000000000004
 30
0.0
 11
70.0
 21
13.975
 31
0.0
  0
LINE
  5
665
330
1F
100
AcDbEntity
  8
2
  6
CONTINUOUS
370
25
 62
7
100
AcDbLine
 10
70.0
 20
-0.5000000000000039
 30
0.0
 11
71.0
 21
-5.500000000000004
 31
0.0
  0
LINE
  5
666
330
1F
100
AcDbEntity
  8
2
  6
CONTINUOUS
370
25
 62
7
100
AcDbLine
 10
71.0
 20
-5.500000000000004
 30
0.0
 11
69.0
 21
-5.500000000000004
 31
0.0
  0
LINE
  5
667
330
1F
100
AcDbEntity
  8
2
  6
CONTINUOUS
370
25
 62
7
100
AcDbLine
 10
69.0
 20
-5.500000000000004
 30
0.0
 11
70.0
 21
-0.5000000000000039
 31
0.0
  0
LINE
  5
668
330
1F
100
AcDbEntity
  8
2
  6
CONTINUOUS
370
25
 62
7
100
AcDbLine
 10
70.74140214654533
 20
-5.5
 30
0.0
 11
70.95690035775756
 21
-5.284501788787765
 31
0.0
  0
LINE
  5
669
330
1F
100
AcDbEntity
  8
2
  6
CONTINUOUS
370
25
 62
7
100
AcDbLine
 10
70.31713807783339
 20
-5.5
 30
0.0
 11
70.8861896796389
 21
-4.930948398194488
 31
0.0
  0
LINE
  5
66A
330
1F
100
AcDbEntity
  8
2
  6
CONTINUOUS
370
25
 62
7
100
AcDbLine
 10
69.89287400912146
 20
-5.5
 30
0.0
 11
70.81547900152025
 21
-4.577395007601204
 31
0.0
  0
LINE
  5
66B
330
1F
100
AcDbEntity
  8
2
  6
CONTINUOUS
370
25
 62
7
100
AcDbLine
 10
69.46860994040952
 20
-5.5
 30
0.0
 11
70.74476832340159
 21
-4.223841617007935
 31
0.0
  0
LINE
  5
66C
330
1F
100
AcDbEntity
  8
2
  6
CONTINUOUS
370
25
 62
7
100
AcDbLine
 10
69.04434587169759
 20
-5.500000000000007
 30
0.0
 11
70.67405764528293
 21
-3.870288226414658
 31
0.0
  0
LINE
  5
66D
330
1F
100
AcDbEntity
  8
2
  6
CONTINUOUS
370
25
 62
7
100
AcDbLine
 10
69.09497954925358
 20
-5.025102253732086
 30
0.0
 11
70.60334696716427
 21
-3.516734835821396
 31
0.0
  0
LINE
  5
66E
330
1F
100
AcDbEntity
  8
2
  6
CONTINUOUS
370
25
 62
7
100
AcDbLine
 10
69.20104556643157
 20
-4.494772167842164
 30
0.0
 11
70.53263628904561
 21
-3.163181445228119
 31
0.0
  0
LINE
  5
66F
330
1F
100
AcDbEntity
  8
2
  6
CONTINUOUS
370
25
 62
7
100
AcDbLine
 10
69.30711158360955
 20
-3.964442081952249
 30
0.0
 11
70.46192561092697
 21
-2.809628054634835
 31
0.0
  0
LINE
  5
670
330
1F
100
AcDbEntity
  8
2
  6
CONTINUOUS
370
25
 62
7
100
AcDbLine
 10
69.41317760078753
 20
-3.434111996062342
 30
0.0
 11
70.39121493280831
 21
-2.456074664041559
 31
0.0
  0
LINE
  5
671
330
1F
100
AcDbEntity
  8
2
  6
CONTINUOUS
370
25
 62
7
100
AcDbLine
 10
69.51924361796551
 20
-2.903781910172434
 30
0.0
 11
70.32050425468965
 21
-2.102521273448289
 31
0.0
  0
LINE
  5
672
330
1F
100
AcDbEntity
  8
2
  6
CONTINUOUS
370
25
 62
7
100
AcDbLine
 10
69.6253096351435
 20
-2.373451824282512
 30
0.0
 11
70.249793576571
 21
-1.748967882855013
 31
0.0
  0
LINE
  5
673
330
1F
100
AcDbEntity
  8
2
  6
CONTINUOUS
370
25
 62
7
100
AcDbLine
 10
69.73137565232149
 20
-1.84312173839259
 30
0.0
 11
70.17908289845234
 21
-1.395414492261736
 31
0.0
  0
LINE
  5
674
330
1F
100
AcDbEntity
  8
2
  6
CONTINUOUS
370
25
 62
7
100
AcDbLine
 10
69.83744166949947
 20
-1.312791652502682
 30
0.0
 11
70.10837222033369
 21
-1.041861101668459
 31
0.0
  0
LINE
  5
675
330
1F
100
AcDbEntity
  8
2
  6
CONTINUOUS
370
25
 62
7
100
AcDbLine
 10
69.94350768667745
 20
-0.7824615666127741
 30
0.0
 11
70.03766154221503
 21
-0.6883077110751827
 31
0.0
  0
LINE
  5
676
330
1F
100
AcDbEntity
  8
2
  6
CONTINUOUS
370
25
 62
7
100
AcDbLine
 10
69.03516232965629
 20
-5.324188351718526
 30
0.0
 11
69.21097397793777
 21
-5.500000000000007
 31
0.0
  0
LINE
  5
677
330
1F
100
AcDbEntity
  8
2
  6
CONTINUOUS
370
25
 62
7
100
AcDbLine
 10
69.10587300777495
 20
-4.970634961125256
 30
0.0
 11
69.63523804664969
 21
-5.5
 31
0.0
  0
LINE
  5
678
330
1F
100
AcDbEntity
  8
2
  6
CONTINUOUS
370
25
 62
7
100
AcDbLine
 10
69.1765836858936
 20
-4.61708157053198
 30
0.0
 11
70.05950211536162
 21
-5.5
 31
0.0
  0
LINE
  5
679
330
1F
100
AcDbEntity
  8
2
  6
CONTINUOUS
370
25
 62
7
100
AcDbLine
 10
69.24729436401226
 20
-4.26352817993871
 30
0.0
 11
70.48376618407356
 21
-5.5
 31
0.0
  0
LINE
  5
67A
330
1F
100
AcDbEntity
  8
2
  6
CONTINUOUS
370
25
 62
7
100
AcDbLine
 10
69.31800504213092
 20
-3.909974789345426
 30
0.0
 11
70.9080302527855
 21
-5.5
 31
0.0
  0
LINE
  5
67B
330
1F
100
AcDbEntity
  8
2
  6
CONTINUOUS
370
25
 62
7
100
AcDbLine
 10
69.38871572024956
 20
-3.556421398752143
 30
0.0
 11
70.91692641962565
 21
-5.084632098128225
 31
0.0
  0
LINE
  5
67C
330
1F
100
AcDbEntity
  8
2
  6
CONTINUOUS
370
25
 62
7
100
AcDbLine
 10
69.45942639836822
 20
-3.202868008158873
 30
0.0
 11
70.81086040244766
 21
-4.55430201223831
 31
0.0
  0
LINE
  5
67D
330
1F
100
AcDbEntity
  8
2
  6
CONTINUOUS
370
25
 62
7
100
AcDbLine
 10
69.53013707648688
 20
-2.849314617565597
 30
0.0
 11
70.70479438526968
 21
-4.023971926348395
 31
0.0
  0
LINE
  5
67E
330
1F
100
AcDbEntity
  8
2
  6
CONTINUOUS
370
25
 62
7
100
AcDbLine
 10
69.60084775460554
 20
-2.495761226972327
 30
0.0
 11
70.5987283680917
 21
-3.49364184045848
 31
0.0
  0
LINE
  5
67F
330
1F
100
AcDbEntity
  8
2
  6
CONTINUOUS
370
25
 62
7
100
AcDbLine
 10
69.6715584327242
 20
-2.142207836379043
 30
0.0
 11
70.49266235091372
 21
-2.963311754568565
 31
0.0
  0
LINE
  5
680
330
1F
100
AcDbEntity
  8
2
  6
CONTINUOUS
370
25
 62
7
100
AcDbLine
 10
69.74226911084284
 20
-1.788654445785767
 30
0.0
 11
70.38659633373574
 21
-2.432981668678657
 31
0.0
  0
LINE
  5
681
330
1F
100
AcDbEntity
  8
2
  6
CONTINUOUS
370
25
 62
7
100
AcDbLine
 10
69.8129797889615
 20
-1.435101055192497
 30
0.0
 11
70.28053031655776
 21
-1.902651582788749
 31
0.0
  0
LINE
  5
682
330
1F
100
AcDbEntity
  8
2
  6
CONTINUOUS
370
25
 62
7
100
AcDbLine
 10
69.88369046708016
 20
-1.081547664599213
 30
0.0
 11
70.17446429937978
 21
-1.372321496898834
 31
0.0
  0
LINE
  5
683
330
1F
100
AcDbEntity
  8
2
  6
CONTINUOUS
370
25
 62
7
100
AcDbLine
 10
69.95440114519882
 20
-0.727994274005944
 30
0.0
 11
70.06839828220178
 21
-0.8419914110089124
 31
0.0
  0
LINE
  5
684
330
1F
100
AcDbEntity
  8
2
  6
CONTINUOUS
370
25
 62
7
100
AcDbLine
 10
70.0
 20
0.4999999999999961
 30
0.0
 11
69.0
 21
5.499999999999996
 31
0.0
  0
LINE
  5
685
330
1F
100
AcDbEntity
  8
2
  6
CONTINUOUS
370
25
 62
7
100
AcDbLine
 10
69.0
 20
5.499999999999996
 30
0.0
 11
71.0
 21
5.499999999999996
 31
0.0
  0
LINE
  5
686
330
1F
100
AcDbEntity
  8
2
  6
CONTINUOUS
370
25
 62
7
100
AcDbLine
 10
71.0
 20
5.499999999999996
 30
0.0
 11
70.0
 21
0.4999999999999961
 31
0.0
  0
LINE
  5
687
330
1F
100
AcDbEntity
  8
2
  6
CONTINUOUS
370
25
 62
7
100
AcDbLine
 10
69.97209516184807
 20
0.6395241907596301
 30
0.0
 11
70.04185725722789
 21
0.7092862861394522
 31
0.0
  0
LINE
  5
688
330
1F
100
AcDbEntity
  8
2
  6
CONTINUOUS
370
25
 62
7
100
AcDbLine
 10
69.90138448372942
 20
0.9930775813529138
 30
0.0
 11
70.14792327440587
 21
1.239616372029367
 31
0.0
  0
LINE
  5
689
330
1F
100
AcDbEntity
  8
2
  6
CONTINUOUS
370
25
 62
7
100
AcDbLine
 10
69.83067380561076
 20
1.346630971946176
 30
0.0
 11
70.25398929158386
 21
1.769946457919282
 31
0.0
  0
LINE
  5
68A
330
1F
100
AcDbEntity
  8
2
  6
CONTINUOUS
370
25
 62
7
100
AcDbLine
 10
69.7599631274921
 20
1.70018436253946
 30
0.0
 11
70.36005530876184
 21
2.300276543809204
 31
0.0
  0
LINE
  5
68B
330
1F
100
AcDbEntity
  8
2
  6
CONTINUOUS
370
25
 62
7
100
AcDbLine
 10
69.68925244937346
 20
2.053737753132737
 30
0.0
 11
70.46612132593982
 21
2.830606629699112
 31
0.0
  0
LINE
  5
68C
330
1F
100
AcDbEntity
  8
2
  6
CONTINUOUS
370
25
 62
7
100
AcDbLine
 10
69.6185417712548
 20
2.407291143726013
 30
0.0
 11
70.5721873431178
 21
3.360936715589027
 31
0.0
  0
LINE
  5
68D
330
1F
100
AcDbEntity
  8
2
  6
CONTINUOUS
370
25
 62
7
100
AcDbLine
 10
69.54783109313614
 20
2.76084453431929
 30
0.0
 11
70.67825336029578
 21
3.891266801478935
 31
0.0
  0
LINE
  5
68E
330
1F
100
AcDbEntity
  8
2
  6
CONTINUOUS
370
25
 62
7
100
AcDbLine
 10
69.47712041501748
 20
3.114397924912566
 30
0.0
 11
70.78431937747376
 21
4.42159688736885
 31
0.0
  0
LINE
  5
68F
330
1F
100
AcDbEntity
  8
2
  6
CONTINUOUS
370
25
 62
7
100
AcDbLine
 10
69.40640973689882
 20
3.467951315505843
 30
0.0
 11
70.89038539465176
 21
4.951926973258779
 31
0.0
  0
LINE
  5
690
330
1F
100
AcDbEntity
  8
2
  6
CONTINUOUS
370
25
 62
7
100
AcDbLine
 10
69.33569905878018
 20
3.821504706099127
 30
0.0
 11
70.99645141182974
 21
5.482257059148679
 31
0.0
  0
LINE
  5
691
330
1F
100
AcDbEntity
  8
2
  6
CONTINUOUS
370
25
 62
7
100
AcDbLine
 10
69.26498838066152
 20
4.175058096692403
 30
0.0
 11
70.58993028396912
 21
5.5
 31
0.0
  0
LINE
  5
692
330
1F
100
AcDbEntity
  8
2
  6
CONTINUOUS
370
25
 62
7
100
AcDbLine
 10
69.19427770254286
 20
4.528611487285673
 30
0.0
 11
70.16566621525719
 21
5.499999999999993
 31
0.0
  0
LINE
  5
693
330
1F
100
AcDbEntity
  8
2
  6
CONTINUOUS
370
25
 62
7
100
AcDbLine
 10
69.12356702442422
 20
4.882164877878957
 30
0.0
 11
69.74140214654525
 21
5.499999999999993
 31
0.0
  0
LINE
  5
694
330
1F
100
AcDbEntity
  8
2
  6
CONTINUOUS
370
25
 62
7
100
AcDbLine
 10
69.05285634630556
 20
5.235718268472219
 30
0.0
 11
69.31713807783333
 21
5.499999999999993
 31
0.0
  0
LINE
  5
695
330
1F
100
AcDbEntity
  8
2
  6
CONTINUOUS
370
25
 62
7
100
AcDbLine
 10
69.89413421348986
 20
1.029328932550705
 30
0.0
 11
70.07057719100676
 21
0.8528859550337984
 31
0.0
  0
LINE
  5
696
330
1F
100
AcDbEntity
  8
2
  6
CONTINUOUS
370
25
 62
7
100
AcDbLine
 10
69.78806819631188
 20
1.55965901844062
 30
0.0
 11
70.14128786912542
 21
1.206439345627082
 31
0.0
  0
LINE
  5
697
330
1F
100
AcDbEntity
  8
2
  6
CONTINUOUS
370
25
 62
7
100
AcDbLine
 10
69.6820021791339
 20
2.089989104330527
 30
0.0
 11
70.21199854724406
 21
1.559992736220359
 31
0.0
  0
LINE
  5
698
330
1F
100
AcDbEntity
  8
2
  6
CONTINUOUS
370
25
 62
7
100
AcDbLine
 10
69.57593616195591
 20
2.620319190220449
 30
0.0
 11
70.28270922536274
 21
1.913546126813628
 31
0.0
  0
LINE
  5
699
330
1F
100
AcDbEntity
  8
2
  6
CONTINUOUS
370
25
 62
7
100
AcDbLine
 10
69.46987014477793
 20
3.150649276110371
 30
0.0
 11
70.35341990348138
 21
2.267099517406912
 31
0.0
  0
LINE
  5
69A
330
1F
100
AcDbEntity
  8
2
  6
CONTINUOUS
370
25
 62
7
100
AcDbLine
 10
69.36380412759995
 20
3.680979362000272
 30
0.0
 11
70.42413058160004
 21
2.620652908000174
 31
0.0
  0
LINE
  5
69B
330
1F
100
AcDbEntity
  8
2
  6
CONTINUOUS
370
25
 62
7
100
AcDbLine
 10
69.25773811042197
 20
4.211309447890187
 30
0.0
 11
70.4948412597187
 21
2.974206298593458
 31
0.0
  0
LINE
  5
69C
330
1F
100
AcDbEntity
  8
2
  6
CONTINUOUS
370
25
 62
7
100
AcDbLine
 10
69.15167209324397
 20
4.741639533780102
 30
0.0
 11
70.56555193783734
 21
3.327759689186735
 31
0.0
  0
LINE
  5
69D
330
1F
100
AcDbEntity
  8
2
  6
CONTINUOUS
370
25
 62
7
100
AcDbLine
 10
69.045606076066
 20
5.271969619670024
 30
0.0
 11
70.63626261595601
 21
3.681313079780011
 31
0.0
  0
LINE
  5
69E
330
1F
100
AcDbEntity
  8
2
  6
CONTINUOUS
370
25
 62
7
100
AcDbLine
 10
69.24183976444796
 20
5.499999999999993
 30
0.0
 11
70.70697329407466
 21
4.034866470373288
 31
0.0
  0
LINE
  5
69F
330
1F
100
AcDbEntity
  8
2
  6
CONTINUOUS
370
25
 62
7
100
AcDbLine
 10
69.6661038331599
 20
5.499999999999993
 30
0.0
 11
70.77768397219332
 21
4.388419860966565
 31
0.0
  0
LINE
  5
6A0
330
1F
100
AcDbEntity
  8
2
  6
CONTINUOUS
370
25
 62
7
100
AcDbLine
 10
70.09036790187182
 20
5.5
 30
0.0
 11
70.84839465031197
 21
4.741973251559841
 31
0.0
  0
LINE
  5
6A1
330
1F
100
AcDbEntity
  8
2
  6
CONTINUOUS
370
25
 62
7
100
AcDbLine
 10
70.51463197058374
 20
5.5
 30
0.0
 11
70.91910532843062
 21
5.095526642153118
 31
0.0
  0
LINE
  5
6A2
330
1F
100
AcDbEntity
  8
2
  6
CONTINUOUS
370
25
 62
7
100
AcDbLine
 10
70.93889603929567
 20
5.499999999999993
 30
0.0
 11
70.98981600654928
 21
5.449080032746387
 31
0.0
  0
TEXT
  5
6A3
330
1F
100
AcDbEntity
  8
2
  6
CONTINUOUS
370
25
 62
7
100
AcDbText
 10
68.5
 20
11.42916666666666
 30
0.0
 40
3.5
  1
1
 50
90.00000000000001
 72
     1
 11
68.5
 21
12.0125
 31
0.0
100
AcDbText
  0
CIRCLE
  5
6A4
330
1F
100
AcDbEntity
  8
2
  6
CONTINUOUS
370
25
 62
7
100
AcDbCircle
 10
66.75
 20
8.687499999999996
 30
0.0
 40
1.4
  0
LINE
  5
6A5
330
1F
100
AcDbEntity
  8
2
  6
CONTINUOUS
370
25
 62
7
100
AcDbLine
 10
68.15
 20
7.287499999999998
 30
0.0
 11
65.35000000000001
 21
10.0875
 31
0.0
  0
LINE
  5
6A6
330
1F
100
AcDbEntity
  8
2
  6
CONTINUOUS
370
25
 62
7
100
AcDbLine
 10
26.8
 20
1.5
 30
0.0
 11
26.8
 21
24.5
 31
0.0
  0
LINE
  5
6A7
330
1F
100
AcDbEntity
  8
2
  6
CONTINUOUS
370
25
 62
7
100
AcDbLine
 10
38.0
 20
24.5
 30
0.0
 11
38.0
 21
0.0
 31
0.0
  0
LINE
  5
6A8
330
1F
100
AcDbEntity
  8
2
  6
CONTINUOUS
370
25
 62
7
100
AcDbLine
 10
19.8
 20
23.5
 30
0.0
 11
56.90000000000001
 21
23.5
 31
0.0
  0
LINE
  5
6A9
330
1F
100
AcDbEntity
  8
2
  6
CONTINUOUS
370
25
 62
7
100
AcDbLine
 10
26.8
 20
23.5
 30
0.0
 11
21.8
 21
22.5
 31
0.0
  0
LINE
  5
6AA
330
1F
100
AcDbEntity
  8
2
  6
CONTINUOUS
370
25
 62
7
100
AcDbLine
 10
21.8
 20
22.5
 30
0.0
 11
21.8
 21
24.5
 31
0.0
  0
LINE
  5
6AB
330
1F
100
AcDbEntity
  8
2
  6
CONTINUOUS
370
25
 62
7
100
AcDbLine
 10
21.8
 20
24.5
 30
0.0
 11
26.8
 21
23.5
 31
0.0
  0
LINE
  5
6AC
330
1F
100
AcDbEntity
  8
2
  6
CONTINUOUS
370
25
 62
7
100
AcDbLine
 10
26.47651519016504
 20
23.43530303803301
 30
0.0
 11
26.58434346011003
 21
23.54313130797799
 31
0.0
  0
LINE
  5
6AD
330
1F
100
AcDbEntity
  8
2
  6
CONTINUOUS
370
25
 62
7
100
AcDbLine
 10
25.94618510427513
 20
23.32923702085503
 30
0.0
 11
26.23079006951675
 21
23.61384198609665
 31
0.0
  0
LINE
  5
6AE
330
1F
100
AcDbEntity
  8
2
  6
CONTINUOUS
370
25
 62
7
100
AcDbLine
 10
25.41585501838522
 20
23.22317100367705
 30
0.0
 11
25.87723667892348
 21
23.6845526642153
 31
0.0
  0
LINE
  5
6AF
330
1F
100
AcDbEntity
  8
2
  6
CONTINUOUS
370
25
 62
7
100
AcDbLine
 10
24.88552493249531
 20
23.11710498649906
 30
0.0
 11
25.5236832883302
 21
23.75526334233396
 31
0.0
  0
LINE
  5
6B0
330
1F
100
AcDbEntity
  8
2
  6
CONTINUOUS
370
25
 62
7
100
AcDbLine
 10
24.3551948466054
 20
23.01103896932108
 30
0.0
 11
25.17012989773693
 21
23.82597402045261
 31
0.0
  0
LINE
  5
6B1
330
1F
100
AcDbEntity
  8
2
  6
CONTINUOUS
370
25
 62
7
100
AcDbLine
 10
23.82486476071549
 20
22.9049729521431
 30
0.0
 11
24.81657650714366
 21
23.89668469857127
 31
0.0
  0
LINE
  5
6B2
330
1F
100
AcDbEntity
  8
2
  6
CONTINUOUS
370
25
 62
7
100
AcDbLine
 10
23.29453467482558
 20
22.79890693496512
 30
0.0
 11
24.46302311655039
 21
23.96739537668992
 31
0.0
  0
LINE
  5
6B3
330
1F
100
AcDbEntity
  8
2
  6
CONTINUOUS
370
25
 62
7
100
AcDbLine
 10
22.76420458893567
 20
22.69284091778713
 30
0.0
 11
24.10946972595712
 21
24.03810605480858
 31
0.0
  0
LINE
  5
6B4
330
1F
100
AcDbEntity
  8
2
  6
CONTINUOUS
370
25
 62
7
100
AcDbLine
 10
22.23387450304576
 20
22.58677490060915
 30
0.0
 11
23.75591633536384
 21
24.10881673292723
 31
0.0
  0
LINE
  5
6B5
330
1F
100
AcDbEntity
  8
2
  6
CONTINUOUS
370
25
 62
7
100
AcDbLine
 10
21.8
 20
22.57716446627532
 30
0.0
 11
23.40236294477057
 21
24.17952741104589
 31
0.0
  0
LINE
  5
6B6
330
1F
100
AcDbEntity
  8
2
  6
CONTINUOUS
370
25
 62
7
100
AcDbLine
 10
21.8
 20
23.00142853498725
 30
0.0
 11
23.0488095541773
 21
24.25023808916454
 31
0.0
  0
LINE
  5
6B7
330
1F
100
AcDbEntity
  8
2
  6
CONTINUOUS
370
25
 62
7
100
AcDbLine
 10
21.8
 20
23.42569260369918
 30
0.0
 11
22.69525616358402
 21
24.32094876728319
 31
0.0
  0
LINE
  5
6B8
330
1F
100
AcDbEntity
  8
2
  6
CONTINUOUS
370
25
 62
7
100
AcDbLine
 10
21.8
 20
23.8499566724111
 30
0.0
 11
22.34170277299075
 21
24.39165944540185
 31
0.0
  0
LINE
  5
6B9
330
1F
100
AcDbEntity
  8
2
  6
CONTINUOUS
370
25
 62
7
100
AcDbLine
 10
21.8
 20
24.27422074112303
 30
0.0
 11
21.98814938239747
 21
24.4623701235205
 31
0.0
  0
LINE
  5
6BA
330
1F
100
AcDbEntity
  8
2
  6
CONTINUOUS
370
25
 62
7
100
AcDbLine
 10
21.8
 20
22.81909088590096
 30
0.0
 11
22.06590907158414
 21
22.55318181431683
 31
0.0
  0
LINE
  5
6BB
330
1F
100
AcDbEntity
  8
2
  6
CONTINUOUS
370
25
 62
7
100
AcDbLine
 10
21.8
 20
23.24335495461289
 30
0.0
 11
22.41946246217741
 21
22.62389249243548
 31
0.0
  0
LINE
  5
6BC
330
1F
100
AcDbEntity
  8
2
  6
CONTINUOUS
370
25
 62
7
100
AcDbLine
 10
21.8
 20
23.66761902332481
 30
0.0
 11
22.77301585277068
 21
22.69460317055414
 31
0.0
  0
LINE
  5
6BD
330
1F
100
AcDbEntity
  8
2
  6
CONTINUOUS
370
25
 62
7
100
AcDbLine
 10
21.8
 20
24.09188309203674
 30
0.0
 11
23.12656924336395
 21
22.76531384867279
 31
0.0
  0
LINE
  5
6BE
330
1F
100
AcDbEntity
  8
2
  6
CONTINUOUS
370
25
 62
7
100
AcDbLine
 10
21.82018395093584
 20
24.49596320981283
 30
0.0
 11
23.48012263395723
 21
22.83602452679145
 31
0.0
  0
LINE
  5
6BF
330
1F
100
AcDbEntity
  8
2
  6
CONTINUOUS
370
25
 62
7
100
AcDbLine
 10
22.35051403682575
 20
24.38989719263485
 30
0.0
 11
23.8336760245505
 21
22.9067352049101
 31
0.0
  0
LINE
  5
6C0
330
1F
100
AcDbEntity
  8
2
  6
CONTINUOUS
370
25
 62
7
100
AcDbLine
 10
22.88084412271566
 20
24.28383117545687
 30
0.0
 11
24.18722941514377
 21
22.97744588302875
 31
0.0
  0
LINE
  5
6C1
330
1F
100
AcDbEntity
  8
2
  6
CONTINUOUS
370
25
 62
7
100
AcDbLine
 10
23.41117420860557
 20
24.17776515827889
 30
0.0
 11
24.54078280573705
 21
23.04815656114741
 31
0.0
  0
LINE
  5
6C2
330
1F
100
AcDbEntity
  8
2
  6
CONTINUOUS
370
25
 62
7
100
AcDbLine
 10
23.94150429449548
 20
24.0716991411009
 30
0.0
 11
24.89433619633032
 21
23.11886723926606
 31
0.0
  0
LINE
  5
6C3
330
1F
100
AcDbEntity
  8
2
  6
CONTINUOUS
370
25
 62
7
100
AcDbLine
 10
24.47183438038539
 20
23.96563312392292
 30
0.0
 11
25.24788958692359
 21
23.18957791738472
 31
0.0
  0
LINE
  5
6C4
330
1F
100
AcDbEntity
  8
2
  6
CONTINUOUS
370
25
 62
7
100
AcDbLine
 10
25.0021644662753
 20
23.85956710674494
 30
0.0
 11
25.60144297751687
 21
23.26028859550337
 31
0.0
  0
LINE
  5
6C5
330
1F
100
AcDbEntity
  8
2
  6
CONTINUOUS
370
25
 62
7
100
AcDbLine
 10
25.53249455216521
 20
23.75350108956696
 30
0.0
 11
25.95499636811014
 21
23.33099927362203
 31
0.0
  0
LINE
  5
6C6
330
1F
100
AcDbEntity
  8
2
  6
CONTINUOUS
370
25
 62
7
100
AcDbLine
 10
26.06282463805512
 20
23.64743507238898
 30
0.0
 11
26.30854975870341
 21
23.40170995174068
 31
0.0
  0
LINE
  5
6C7
330
1F
100
AcDbEntity
  8
2
  6
CONTINUOUS
370
25
 62
7
100
AcDbLine
 10
26.59315472394503
 20
23.54136905521099
 30
0.0
 11
26.66210314929669
 21
23.47242062985934
 31
0.0
  0
LINE
  5
6C8
330
1F
100
AcDbEntity
  8
2
  6
CONTINUOUS
370
25
 62
7
100
AcDbLine
 10
38.0
 20
23.5
 30
0.0
 11
43.0
 21
24.5
 31
0.0
  0
LINE
  5
6C9
330
1F
100
AcDbEntity
  8
2
  6
CONTINUOUS
370
25
 62
7
100
AcDbLine
 10
43.0
 20
24.5
 30
0.0
 11
43.0
 21
22.5
 31
0.0
  0
LINE
  5
6CA
330
1F
100
AcDbEntity
  8
2
  6
CONTINUOUS
370
25
 62
7
100
AcDbLine
 10
43.0
 20
22.5
 30
0.0
 11
38.0
 21
23.5
 31
0.0
  0
LINE
  5
6CB
330
1F
100
AcDbEntity
  8
2
  6
CONTINUOUS
370
25
 62
7
100
AcDbLine
 10
42.94669914110089
 20
22.51066017177982
 30
0.0
 11
43.0
 21
22.56396103067893
 31
0.0
  0
LINE
  5
6CC
330
1F
100
AcDbEntity
  8
2
  6
CONTINUOUS
370
25
 62
7
100
AcDbLine
 10
42.59314575050762
 20
22.58137084989848
 30
0.0
 11
43.0
 21
22.98822509939085
 31
0.0
  0
LINE
  5
6CD
330
1F
100
AcDbEntity
  8
2
  6
CONTINUOUS
370
25
 62
7
100
AcDbLine
 10
42.23959235991435
 20
22.65208152801713
 30
0.0
 11
43.0
 21
23.41248916810278
 31
0.0
  0
LINE
  5
6CE
330
1F
100
AcDbEntity
  8
2
  6
CONTINUOUS
370
25
 62
7
100
AcDbLine
 10
41.88603896932108
 20
22.72279220613579
 30
0.0
 11
43.0
 21
23.83675323681471
 31
0.0
  0
LINE
  5
6CF
330
1F
100
AcDbEntity
  8
2
  6
CONTINUOUS
370
25
 62
7
100
AcDbLine
 10
41.5324855787278
 20
22.79350288425444
 30
0.0
 11
43.0
 21
24.26101730552664
 31
0.0
  0
LINE
  5
6D0
330
1F
100
AcDbEntity
  8
2
  6
CONTINUOUS
370
25
 62
7
100
AcDbLine
 10
41.17893218813453
 20
22.8642135623731
 30
0.0
 11
42.7683982822018
 21
24.45367965644036
 31
0.0
  0
LINE
  5
6D1
330
1F
100
AcDbEntity
  8
2
  6
CONTINUOUS
370
25
 62
7
100
AcDbLine
 10
40.82537879754126
 20
22.93492424049175
 30
0.0
 11
42.23806819631189
 21
24.34761363926238
 31
0.0
  0
LINE
  5
6D2
330
1F
100
AcDbEntity
  8
2
  6
CONTINUOUS
370
25
 62
7
100
AcDbLine
 10
40.47182540694799
 20
23.0056349186104
 30
0.0
 11
41.70773811042198
 21
24.2415476220844
 31
0.0
  0
LINE
  5
6D3
330
1F
100
AcDbEntity
  8
2
  6
CONTINUOUS
370
25
 62
7
100
AcDbLine
 10
40.11827201635471
 20
23.07634559672906
 30
0.0
 11
41.17740802453207
 21
24.13548160490642
 31
0.0
  0
LINE
  5
6D4
330
1F
100
AcDbEntity
  8
2
  6
CONTINUOUS
370
25
 62
7
100
AcDbLine
 10
39.76471862576144
 20
23.14705627484771
 30
0.0
 11
40.64707793864216
 21
24.02941558772843
 31
0.0
  0
LINE
  5
6D5
330
1F
100
AcDbEntity
  8
2
  6
CONTINUOUS
370
25
 62
7
100
AcDbLine
 10
39.41116523516817
 20
23.21776695296637
 30
0.0
 11
40.11674785275225
 21
23.92334957055045
 31
0.0
  0
LINE
  5
6D6
330
1F
100
AcDbEntity
  8
2
  6
CONTINUOUS
370
25
 62
7
100
AcDbLine
 10
39.05761184457489
 20
23.28847763108502
 30
0.0
 11
39.58641776686234
 21
23.81728355337247
 31
0.0
  0
LINE
  5
6D7
330
1F
100
AcDbEntity
  8
2
  6
CONTINUOUS
370
25
 62
7
100
AcDbLine
 10
38.70405845398162
 20
23.35918830920367
 30
0.0
 11
39.05608768097242
 21
23.71121753619449
 31
0.0
  0
LINE
  5
6D8
330
1F
100
AcDbEntity
  8
2
  6
CONTINUOUS
370
25
 62
7
100
AcDbLine
 10
38.35050506338835
 20
23.42989898732233
 30
0.0
 11
38.52575759508252
 21
23.6051515190165
 31
0.0
  0
LINE
  5
6D9
330
1F
100
AcDbEntity
  8
2
  6
CONTINUOUS
370
25
 62
7
100
AcDbLine
 10
38.07471136198177
 20
23.51494227239635
 30
0.0
 11
38.11206704297265
 21
23.47758659140547
 31
0.0
  0
LINE
  5
6DA
330
1F
100
AcDbEntity
  8
2
  6
CONTINUOUS
370
25
 62
7
100
AcDbLine
 10
38.42826475257503
 20
23.585652950515
 30
0.0
 11
38.64239712886256
 21
23.37152057422749
 31
0.0
  0
LINE
  5
6DB
330
1F
100
AcDbEntity
  8
2
  6
CONTINUOUS
370
25
 62
7
100
AcDbLine
 10
38.78181814316832
 20
23.65636362863366
 30
0.0
 11
39.17272721475247
 21
23.2654545570495
 31
0.0
  0
LINE
  5
6DC
330
1F
100
AcDbEntity
  8
2
  6
CONTINUOUS
370
25
 62
7
100
AcDbLine
 10
39.13537153376159
 20
23.72707430675231
 30
0.0
 11
39.70305730064237
 21
23.15938853987153
 31
0.0
  0
LINE
  5
6DD
330
1F
100
AcDbEntity
  8
2
  6
CONTINUOUS
370
25
 62
7
100
AcDbLine
 10
39.48892492435486
 20
23.79778498487097
 30
0.0
 11
40.23338738653229
 21
23.05332252269354
 31
0.0
  0
LINE
  5
6DE
330
1F
100
AcDbEntity
  8
2
  6
CONTINUOUS
370
25
 62
7
100
AcDbLine
 10
39.84247831494813
 20
23.86849566298962
 30
0.0
 11
40.76371747242219
 21
22.94725650551556
 31
0.0
  0
LINE
  5
6DF
330
1F
100
AcDbEntity
  8
2
  6
CONTINUOUS
370
25
 62
7
100
AcDbLine
 10
40.19603170554141
 20
23.93920634110828
 30
0.0
 11
41.29404755831212
 21
22.84119048833757
 31
0.0
  0
LINE
  5
6E0
330
1F
100
AcDbEntity
  8
2
  6
CONTINUOUS
370
25
 62
7
100
AcDbLine
 10
40.54958509613468
 20
24.00991701922693
 30
0.0
 11
41.82437764420202
 21
22.7351244711596
 31
0.0
  0
LINE
  5
6E1
330
1F
100
AcDbEntity
  8
2
  6
CONTINUOUS
370
25
 62
7
100
AcDbLine
 10
40.90313848672795
 20
24.08062769734559
 30
0.0
 11
42.35470773009193
 21
22.62905845398161
 31
0.0
  0
LINE
  5
6E2
330
1F
100
AcDbEntity
  8
2
  6
CONTINUOUS
370
25
 62
7
100
AcDbLine
 10
41.25669187732122
 20
24.15133837546424
 30
0.0
 11
42.88503781598183
 21
22.52299243680363
 31
0.0
  0
LINE
  5
6E3
330
1F
100
AcDbEntity
  8
2
  6
CONTINUOUS
370
25
 62
7
100
AcDbLine
 10
41.6102452679145
 20
24.2220490535829
 30
0.0
 11
43.0
 21
22.8322943214974
 31
0.0
  0
LINE
  5
6E4
330
1F
100
AcDbEntity
  8
2
  6
CONTINUOUS
370
25
 62
7
100
AcDbLine
 10
41.96379865850777
 20
24.29275973170155
 30
0.0
 11
43.0
 21
23.25655839020932
 31
0.0
  0
LINE
  5
6E5
330
1F
100
AcDbEntity
  8
2
  6
CONTINUOUS
370
25
 62
7
100
AcDbLine
 10
42.31735204910105
 20
24.36347040982021
 30
0.0
 11
43.0
 21
23.68082245892125
 31
0.0
  0
LINE
  5
6E6
330
1F
100
AcDbEntity
  8
2
  6
CONTINUOUS
370
25
 62
7
100
AcDbLine
 10
42.67090543969432
 20
24.43418108793886
 30
0.0
 11
43.0
 21
24.10508652763318
 31
0.0
  0
TEXT
  5
6E7
330
1F
100
AcDbEntity
  8
2
  6
CONTINUOUS
370
25
 62
7
100
AcDbText
 10
45.86666666666667
 20
25.0
 30
0.0
 40
3.5
  1
11.2
 72
     1
 11
49.95
 21
25.0
 31
0.0
100
AcDbText
  0
LINE
  5
6E8
330
1F
100
AcDbEntity
  8
2
  6
CONTINUOUS
370
25
 62
7
100
AcDbLine
 10
34.0
 20
-0.5
 30
0.0
 11
34.0
 21
-34.5
 31
0.0
  0
LINE
  5
6E9
330
1F
100
AcDbEntity
  8
2
  6
CONTINUOUS
370
25
 62
7
100
AcDbLine
 10
38.0
 20
-34.5
 30
0.0
 11
38.0
 21
0.0
 31
0.0
  0
LINE
  5
6EA
330
1F
100
AcDbEntity
  8
2
  6
CONTINUOUS
370
25
 62
7
100
AcDbLine
 10
27.0
 20
-33.5
 30
0.0
 11
45.0
 21
-33.5
 31
0.0
  0
LINE
  5
6EB
330
1F
100
AcDbEntity
  8
2
  6
CONTINUOUS
370
25
 62
7
100
AcDbLine
 10
34.0
 20
-33.5
 30
0.0
 11
29.0
 21
-34.5
 31
0.0
  0
LINE
  5
6EC
330
1F
100
AcDbEntity
  8
2
  6
CONTINUOUS
370
25
 62
7
100
AcDbLine
 10
29.0
 20
-34.5
 30
0.0
 11
29.0
 21
-32.5
 31
0.0
  0
LINE
  5
6ED
330
1F
100
AcDbEntity
  8
2
  6
CONTINUOUS
370
25
 62
7
100
AcDbLine
 10
29.0
 20
-32.5
 30
0.0
 11
34.0
 21
-33.5
 31
0.0
  0
LINE
  5
6EE
330
1F
100
AcDbEntity
  8
2
  6
CONTINUOUS
370
25
 62
7
100
AcDbLine
 10
33.9423641433101
 20
-33.51152717133798
 30
0.0
 11
33.96157609554006
 21
-33.49231521910801
 31
0.0
  0
LINE
  5
6EF
330
1F
100
AcDbEntity
  8
2
  6
CONTINUOUS
370
25
 62
7
100
AcDbLine
 10
33.41203405742019
 20
-33.61759318851596
 30
0.0
 11
33.60802270494678
 21
-33.42160454098936
 31
0.0
  0
LINE
  5
6F0
330
1F
100
AcDbEntity
  8
2
  6
CONTINUOUS
370
25
 62
7
100
AcDbLine
 10
32.88170397153027
 20
-33.72365920569394
 30
0.0
 11
33.25446931435351
 21
-33.35089386287071
 31
0.0
  0
LINE
  5
6F1
330
1F
100
AcDbEntity
  8
2
  6
CONTINUOUS
370
25
 62
7
100
AcDbLine
 10
32.35137388564036
 20
-33.82972522287193
 30
0.0
 11
32.90091592376024
 21
-33.28018318475205
 31
0.0
  0
LINE
  5
6F2
330
1F
100
AcDbEntity
  8
2
  6
CONTINUOUS
370
25
 62
7
100
AcDbLine
 10
31.82104379975044
 20
-33.93579124004991
 30
0.0
 11
32.54736253316696
 21
-33.2094725066334
 31
0.0
  0
LINE
  5
6F3
330
1F
100
AcDbEntity
  8
2
  6
CONTINUOUS
370
25
 62
7
100
AcDbLine
 10
31.29071371386053
 20
-34.04185725722789
 30
0.0
 11
32.19380914257368
 21
-33.13876182851474
 31
0.0
  0
LINE
  5
6F4
330
1F
100
AcDbEntity
  8
2
  6
CONTINUOUS
370
25
 62
7
100
AcDbLine
 10
30.76038362797062
 20
-34.14792327440588
 30
0.0
 11
31.84025575198041
 21
-33.06805115039609
 31
0.0
  0
LINE
  5
6F5
330
1F
100
AcDbEntity
  8
2
  6
CONTINUOUS
370
25
 62
7
100
AcDbLine
 10
30.2300535420807
 20
-34.25398929158386
 30
0.0
 11
31.48670236138714
 21
-32.99734047227743
 31
0.0
  0
LINE
  5
6F6
330
1F
100
AcDbEntity
  8
2
  6
CONTINUOUS
370
25
 62
7
100
AcDbLine
 10
29.69972345619079
 20
-34.36005530876184
 30
0.0
 11
31.13314897079386
 21
-32.92662979415877
 31
0.0
  0
LINE
  5
6F7
330
1F
100
AcDbEntity
  8
2
  6
CONTINUOUS
370
25
 62
7
100
AcDbLine
 10
29.16939337030087
 20
-34.46612132593982
 30
0.0
 11
30.77959558020059
 21
-32.85591911604012
 31
0.0
  0
LINE
  5
6F8
330
1F
100
AcDbEntity
  8
2
  6
CONTINUOUS
370
25
 62
7
100
AcDbLine
 10
29.0
 20
-34.21125062752877
 30
0.0
 11
30.42604218960731
 21
-32.78520843792146
 31
0.0
  0
LINE
  5
6F9
330
1F
100
AcDbEntity
  8
2
  6
CONTINUOUS
370
25
 62
7
100
AcDbLine
 10
29.0
 20
-33.78698655881684
 30
0.0
 11
30.07248879901403
 21
-32.71449775980281
 31
0.0
  0
LINE
  5
6FA
330
1F
100
AcDbEntity
  8
2
  6
CONTINUOUS
370
25
 62
7
100
AcDbLine
 10
29.0
 20
-33.36272249010491
 30
0.0
 11
29.71893540842076
 21
-32.64378708168415
 31
0.0
  0
LINE
  5
6FB
330
1F
100
AcDbEntity
  8
2
  6
CONTINUOUS
370
25
 62
7
100
AcDbLine
 10
29.0
 20
-32.93845842139298
 30
0.0
 11
29.36538201782749
 21
-32.5730764035655
 31
0.0
  0
LINE
  5
6FC
330
1F
100
AcDbEntity
  8
2
  6
CONTINUOUS
370
25
 62
7
100
AcDbLine
 10
29.0
 20
-32.51419435268105
 30
0.0
 11
29.01182862723421
 21
-32.50236572544684
 31
0.0
  0
LINE
  5
6FD
330
1F
100
AcDbEntity
  8
2
  6
CONTINUOUS
370
25
 62
7
100
AcDbLine
 10
29.0
 20
-34.23622896373437
 30
0.0
 11
29.21980919688803
 21
-34.45603816062239
 31
0.0
  0
LINE
  5
6FE
330
1F
100
AcDbEntity
  8
2
  6
CONTINUOUS
370
25
 62
7
100
AcDbLine
 10
29.0
 20
-33.81196489502244
 30
0.0
 11
29.5733625874813
 21
-34.38532748250374
 31
0.0
  0
LINE
  5
6FF
330
1F
100
AcDbEntity
  8
2
  6
CONTINUOUS
370
25
 62
7
100
AcDbLine
 10
29.0
 20
-33.38770082631051
 30
0.0
 11
29.92691597807458
 21
-34.31461680438508
 31
0.0
  0
LINE
  5
700
330
1F
100
AcDbEntity
  8
2
  6
CONTINUOUS
370
25
 62
7
100
AcDbLine
 10
29.0
 20
-32.96343675759858
 30
0.0
 11
30.28046936866785
 21
-34.24390612626642
 31
0.0
  0
LINE
  5
701
330
1F
100
AcDbEntity
  8
2
  6
CONTINUOUS
370
25
 62
7
100
AcDbLine
 10
29.0
 20
-32.53917268888666
 30
0.0
 11
30.63402275926112
 21
-34.17319544814777
 31
0.0
  0
LINE
  5
702
330
1F
100
AcDbEntity
  8
2
  6
CONTINUOUS
370
25
 62
7
100
AcDbLine
 10
29.48136422478159
 20
-32.59627284495632
 30
0.0
 11
30.9875761498544
 21
-34.10248477002912
 31
0.0
  0
LINE
  5
703
330
1F
100
AcDbEntity
  8
2
  6
CONTINUOUS
370
25
 62
7
100
AcDbLine
 10
30.01169431067151
 20
-32.7023388621343
 30
0.0
 11
31.34112954044767
 21
-34.03177409191046
 31
0.0
  0
LINE
  5
704
330
1F
100
AcDbEntity
  8
2
  6
CONTINUOUS
370
25
 62
7
100
AcDbLine
 10
30.54202439656142
 20
-32.80840487931228
 30
0.0
 11
31.69468293104095
 21
-33.96106341379181
 31
0.0
  0
LINE
  5
705
330
1F
100
AcDbEntity
  8
2
  6
CONTINUOUS
370
25
 62
7
100
AcDbLine
 10
31.07235448245134
 20
-32.91447089649027
 30
0.0
 11
32.04823632163423
 21
-33.89035273567315
 31
0.0
  0
LINE
  5
706
330
1F
100
AcDbEntity
  8
2
  6
CONTINUOUS
370
25
 62
7
100
AcDbLine
 10
31.60268456834125
 20
-33.02053691366825
 30
0.0
 11
32.4017897122275
 21
-33.8196420575545
 31
0.0
  0
LINE
  5
707
330
1F
100
AcDbEntity
  8
2
  6
CONTINUOUS
370
25
 62
7
100
AcDbLine
 10
32.13301465423116
 20
-33.12660293084623
 30
0.0
 11
32.75534310282077
 21
-33.74893137943585
 31
0.0
  0
LINE
  5
708
330
1F
100
AcDbEntity
  8
2
  6
CONTINUOUS
370
25
 62
7
100
AcDbLine
 10
32.66334474012108
 20
-33.23266894802422
 30
0.0
 11
33.10889649341405
 21
-33.67822070131719
 31
0.0
  0
LINE
  5
709
330
1F
100
AcDbEntity
  8
2
  6
CONTINUOUS
370
25
 62
7
100
AcDbLine
 10
33.19367482601099
 20
-33.3387349652022
 30
0.0
 11
33.46244988400733
 21
-33.60751002319853
 31
0.0
  0
LINE
  5
70A
330
1F
100
AcDbEntity
  8
2
  6
CONTINUOUS
370
25
 62
7
100
AcDbLine
 10
33.72400491190091
 20
-33.44480098238019
 30
0.0
 11
33.8160032746006
 21
-33.53679934507988
 31
0.0
  0
LINE
  5
70B
330
1F
100
AcDbEntity
  8
2
  6
CONTINUOUS
370
25
 62
7
100
AcDbLine
 10
38.0
 20
-33.5
 30
0.0
 11
43.0
 21
-32.5
 31
0.0
  0
LINE
  5
70C
330
1F
100
AcDbEntity
  8
2
  6
CONTINUOUS
370
25
 62
7
100
AcDbLine
 10
43.0
 20
-32.5
 30
0.0
 11
43.0
 21
-34.5
 31
0.0
  0
LINE
  5
70D
330
1F
100
AcDbEntity
  8
2
  6
CONTINUOUS
370
25
 62
7
100
AcDbLine
 10
43.0
 20
-34.5
 30
0.0
 11
38.0
 21
-33.5
 31
0.0
  0
LINE
  5
70E
330
1F
100
AcDbEntity
  8
2
  6
CONTINUOUS
370
25
 62
7
100
AcDbLine
 10
42.9107283409345
 20
-34.4821456681869
 30
0.0
 11
43.0
 21
-34.3928740091214
 31
0.0
  0
LINE
  5
70F
330
1F
100
AcDbEntity
  8
2
  6
CONTINUOUS
370
25
 62
7
100
AcDbLine
 10
42.55717495034123
 20
-34.41143499006824
 30
0.0
 11
43.0
 21
-33.96860994040946
 31
0.0
  0
LINE
  5
710
330
1F
100
AcDbEntity
  8
2
  6
CONTINUOUS
370
25
 62
7
100
AcDbLine
 10
42.20362155974796
 20
-34.34072431194959
 30
0.0
 11
43.0
 21
-33.54434587169754
 31
0.0
  0
LINE
  5
711
330
1F
100
AcDbEntity
  8
2
  6
CONTINUOUS
370
25
 62
7
100
AcDbLine
 10
41.85006816915467
 20
-34.27001363383093
 30
0.0
 11
43.0
 21
-33.12008180298561
 31
0.0
  0
LINE
  5
712
330
1F
100
AcDbEntity
  8
2
  6
CONTINUOUS
370
25
 62
7
100
AcDbLine
 10
41.49651477856141
 20
-34.19930295571228
 30
0.0
 11
43.0
 21
-32.69581773427369
 31
0.0
  0
LINE
  5
713
330
1F
100
AcDbEntity
  8
2
  6
CONTINUOUS
370
25
 62
7
100
AcDbLine
 10
41.14296138796813
 20
-34.12859227759363
 30
0.0
 11
42.7144420819522
 21
-32.55711158360956
 31
0.0
  0
LINE
  5
714
330
1F
100
AcDbEntity
  8
2
  6
CONTINUOUS
370
25
 62
7
100
AcDbLine
 10
40.78940799737485
 20
-34.05788159947497
 30
0.0
 11
42.18411199606228
 21
-32.66317760078755
 31
0.0
  0
LINE
  5
715
330
1F
100
AcDbEntity
  8
2
  6
CONTINUOUS
370
25
 62
7
100
AcDbLine
 10
40.43585460678158
 20
-33.98717092135631
 30
0.0
 11
41.65378191017237
 21
-32.76924361796553
 31
0.0
  0
LINE
  5
716
330
1F
100
AcDbEntity
  8
2
  6
CONTINUOUS
370
25
 62
7
100
AcDbLine
 10
40.08230121618831
 20
-33.91646024323766
 30
0.0
 11
41.12345182428245
 21
-32.87530963514351
 31
0.0
  0
LINE
  5
717
330
1F
100
AcDbEntity
  8
2
  6
CONTINUOUS
370
25
 62
7
100
AcDbLine
 10
39.72874782559503
 20
-33.84574956511901
 30
0.0
 11
40.59312173839254
 21
-32.98137565232149
 31
0.0
  0
LINE
  5
718
330
1F
100
AcDbEntity
  8
2
  6
CONTINUOUS
370
25
 62
7
100
AcDbLine
 10
39.37519443500176
 20
-33.77503888700035
 30
0.0
 11
40.06279165250264
 21
-33.08744166949948
 31
0.0
  0
LINE
  5
719
330
1F
100
AcDbEntity
  8
2
  6
CONTINUOUS
370
25
 62
7
100
AcDbLine
 10
39.02164104440848
 20
-33.70432820888169
 30
0.0
 11
39.53246156661272
 21
-33.19350768667746
 31
0.0
  0
LINE
  5
71A
330
1F
100
AcDbEntity
  8
2
  6
CONTINUOUS
370
25
 62
7
100
AcDbLine
 10
38.66808765381521
 20
-33.63361753076304
 30
0.0
 11
39.0021314807228
 21
-33.29957370385544
 31
0.0
  0
LINE
  5
71B
330
1F
100
AcDbEntity
  8
2
  6
CONTINUOUS
370
25
 62
7
100
AcDbLine
 10
38.31453426322193
 20
-33.56290685264438
 30
0.0
 11
38.47180139483289
 21
-33.40563972103342
 31
0.0
  0
LINE
  5
71C
330
1F
100
AcDbEntity
  8
2
  6
CONTINUOUS
370
25
 62
7
100
AcDbLine
 10
38.16896144228248
 20
-33.4662077115435
 30
0.0
 11
38.25344216342371
 21
-33.55068843268474
 31
0.0
  0
LINE
  5
71D
330
1F
100
AcDbEntity
  8
2
  6
CONTINUOUS
370
25
 62
7
100
AcDbLine
 10
38.52251483287575
 20
-33.39549703342485
 30
0.0
 11
38.78377224931363
 21
-33.65675444986272
 31
0.0
  0
LINE
  5
71E
330
1F
100
AcDbEntity
  8
2
  6
CONTINUOUS
370
25
 62
7
100
AcDbLine
 10
38.87606822346903
 20
-33.3247863553062
 30
0.0
 11
39.31410233520354
 21
-33.7628204670407
 31
0.0
  0
LINE
  5
71F
330
1F
100
AcDbEntity
  8
2
  6
CONTINUOUS
370
25
 62
7
100
AcDbLine
 10
39.2296216140623
 20
-33.25407567718754
 30
0.0
 11
39.84443242109345
 21
-33.86888648421868
 31
0.0
  0
LINE
  5
720
330
1F
100
AcDbEntity
  8
2
  6
CONTINUOUS
370
25
 62
7
100
AcDbLine
 10
39.58317500465557
 20
-33.18336499906889
 30
0.0
 11
40.37476250698336
 21
-33.97495250139667
 31
0.0
  0
LINE
  5
721
330
1F
100
AcDbEntity
  8
2
  6
CONTINUOUS
370
25
 62
7
100
AcDbLine
 10
39.93672839524885
 20
-33.11265432095023
 30
0.0
 11
40.90509259287328
 21
-34.08101851857465
 31
0.0
  0
LINE
  5
722
330
1F
100
AcDbEntity
  8
2
  6
CONTINUOUS
370
25
 62
7
100
AcDbLine
 10
40.29028178584213
 20
-33.04194364283158
 30
0.0
 11
41.43542267876319
 21
-34.18708453575263
 31
0.0
  0
LINE
  5
723
330
1F
100
AcDbEntity
  8
2
  6
CONTINUOUS
370
25
 62
7
100
AcDbLine
 10
40.6438351764354
 20
-32.97123296471293
 30
0.0
 11
41.9657527646531
 21
-34.29315055293062
 31
0.0
  0
LINE
  5
724
330
1F
100
AcDbEntity
  8
2
  6
CONTINUOUS
370
25
 62
7
100
AcDbLine
 10
40.99738856702868
 20
-32.90052228659427
 30
0.0
 11
42.49608285054303
 21
-34.39921657010861
 31
0.0
  0
LINE
  5
725
330
1F
100
AcDbEntity
  8
2
  6
CONTINUOUS
370
25
 62
7
100
AcDbLine
 10
41.35094195762196
 20
-32.82981160847561
 30
0.0
 11
43.0
 21
-34.47886965085365
 31
0.0
  0
LINE
  5
726
330
1F
100
AcDbEntity
  8
2
  6
CONTINUOUS
370
25
 62
7
100
AcDbLine
 10
41.70449534821523
 20
-32.75910093035696
 30
0.0
 11
43.0
 21
-34.05460558214172
 31
0.0
  0
LINE
  5
727
330
1F
100
AcDbEntity
  8
2
  6
CONTINUOUS
370
25
 62
7
100
AcDbLine
 10
42.0580487388085
 20
-32.6883902522383
 30
0.0
 11
43.0
 21
-33.6303415134298
 31
0.0
  0
LINE
  5
728
330
1F
100
AcDbEntity
  8
2
  6
CONTINUOUS
370
25
 62
7
100
AcDbLine
 10
42.41160212940178
 20
-32.61767957411965
 30
0.0
 11
43.0
 21
-33.20607744471786
 31
0.0
  0
LINE
  5
729
330
1F
100
AcDbEntity
  8
2
  6
CONTINUOUS
370
25
 62
7
100
AcDbLine
 10
42.76515551999506
 20
-32.54696889600099
 30
0.0
 11
43.0
 21
-32.78181337600593
 31
0.0
  0
TEXT
  5
72A
330
1F
100
AcDbEntity
  8
2
  6
CONTINUOUS
370
25
 62
7
100
AcDbText
 10
34.83333333333334
 20
-32.0
 30
0.0
 40
3.5
  1
4
 72
     1
 11
36.0
 21
-32.0
 31
0.0
100
AcDbText
  0
LINE
  5
72B
330
1F
100
AcDbEntity
  8
SK2
  6
CONTINUOUS
370
25
 62
7
100
AcDbLine
 10
0.0
 20
3.0
 30
0.0
 11
0.0000000000000036
 21
34.5
 31
0.0
  0
LINE
  5
72C
330
1F
100
AcDbEntity
  8
SK2
  6
CONTINUOUS
370
25
 62
7
100
AcDbLine
 10
38.0
 20
34.5
 30
0.0
 11
38.0
 21
0.0
 31
0.0
  0
LINE
  5
72D
330
1F
100
AcDbEntity
  8
SK2
  6
CONTINUOUS
370
25
 62
7
100
AcDbLine
 10
0.0000000000000036
 20
33.5
 30
0.0
 11
38.0
 21
33.5
 31
0.0
  0
LINE
  5
72E
330
1F
100
AcDbEntity
  8
SK2
  6
CONTINUOUS
370
25
 62
7
100
AcDbLine
 10
0.0000000000000036
 20
33.5
 30
0.0
 11
5.000000000000004
 21
34.5
 31
0.0
  0
LINE
  5
72F
330
1F
100
AcDbEntity
  8
SK2
  6
CONTINUOUS
370
25
 62
7
100
AcDbLine
 10
5.000000000000004
 20
34.5
 30
0.0
 11
5.000000000000004
 21
32.5
 31
0.0
  0
LINE
  5
730
330
1F
100
AcDbEntity
  8
SK2
  6
CONTINUOUS
370
25
 62
7
100
AcDbLine
 10
5.000000000000004
 20
32.5
 30
0.0
 11
0.0000000000000036
 21
33.5
 31
0.0
  0
LINE
  5
731
330
1F
100
AcDbEntity
  8
SK2
  6
CONTINUOUS
370
25
 62
7
100
AcDbLine
 10
4.995166004060962
 20
32.50096679918781
 30
0.0
 11
5.000000000000004
 21
32.50580079512685
 31
0.0
  0
LINE
  5
732
330
1F
100
AcDbEntity
  8
SK2
  6
CONTINUOUS
370
25
 62
7
100
AcDbLine
 10
4.641612613467686
 20
32.57167747730647
 30
0.0
 11
5.000000000000004
 21
32.93006486383878
 31
0.0
  0
LINE
  5
733
330
1F
100
AcDbEntity
  8
SK2
  6
CONTINUOUS
370
25
 62
7
100
AcDbLine
 10
4.288059222874409
 20
32.64238815542512
 30
0.0
 11
5.000000000000004
 21
33.35432893255071
 31
0.0
  0
LINE
  5
734
330
1F
100
AcDbEntity
  8
SK2
  6
CONTINUOUS
370
25
 62
7
100
AcDbLine
 10
3.934505832281136
 20
32.71309883354377
 30
0.0
 11
5.000000000000004
 21
33.77859300126264
 31
0.0
  0
LINE
  5
735
330
1F
100
AcDbEntity
  8
SK2
  6
CONTINUOUS
370
25
 62
7
100
AcDbLine
 10
3.580952441687867
 20
32.78380951166243
 30
0.0
 11
5.000000000000004
 21
34.20285706997457
 31
0.0
  0
LINE
  5
736
330
1F
100
AcDbEntity
  8
SK2
  6
CONTINUOUS
370
25
 62
7
100
AcDbLine
 10
3.227399051094583
 20
32.85452018978108
 30
0.0
 11
4.841098576641869
 21
34.46821971532837
 31
0.0
  0
LINE
  5
737
330
1F
100
AcDbEntity
  8
SK2
  6
CONTINUOUS
370
25
 62
7
100
AcDbLine
 10
2.873845660501313
 20
32.92523086789974
 30
0.0
 11
4.310768490751965
 21
34.36215369815039
 31
0.0
  0
LINE
  5
738
330
1F
100
AcDbEntity
  8
SK2
  6
CONTINUOUS
370
25
 62
7
100
AcDbLine
 10
2.52029226990804
 20
32.99594154601839
 30
0.0
 11
3.780438404862057
 21
34.25608768097241
 31
0.0
  0
LINE
  5
739
330
1F
100
AcDbEntity
  8
SK2
  6
CONTINUOUS
370
25
 62
7
100
AcDbLine
 10
2.166738879314767
 20
33.06665222413704
 30
0.0
 11
3.250108318972146
 21
34.15002166379443
 31
0.0
  0
LINE
  5
73A
330
1F
100
AcDbEntity
  8
SK2
  6
CONTINUOUS
370
25
 62
7
100
AcDbLine
 10
1.813185488721491
 20
33.1373629022557
 30
0.0
 11
2.719778233082234
 21
34.04395564661645
 31
0.0
  0
LINE
  5
73B
330
1F
100
AcDbEntity
  8
SK2
  6
CONTINUOUS
370
25
 62
7
100
AcDbLine
 10
1.459632098128218
 20
33.20807358037436
 30
0.0
 11
2.189448147192323
 21
33.93788962943847
 31
0.0
  0
LINE
  5
73C
330
1F
100
AcDbEntity
  8
SK2
  6
CONTINUOUS
370
25
 62
7
100
AcDbLine
 10
1.106078707534945
 20
33.278784258493
 30
0.0
 11
1.659118061302415
 21
33.83182361226048
 31
0.0
  0
LINE
  5
73D
330
1F
100
AcDbEntity
  8
SK2
  6
CONTINUOUS
370
25
 62
7
100
AcDbLine
 10
0.7525253169416715
 20
33.34949493661166
 30
0.0
 11
1.128787975412507
 21
33.7257575950825
 31
0.0
  0
LINE
  5
73E
330
1F
100
AcDbEntity
  8
SK2
  6
CONTINUOUS
370
25
 62
7
100
AcDbLine
 10
0.3989719263483984
 20
33.42020561473032
 30
0.0
 11
0.5984578895225958
 21
33.61969157790452
 31
0.0
  0
LINE
  5
73F
330
1F
100
AcDbEntity
  8
SK2
  6
CONTINUOUS
370
25
 62
7
100
AcDbLine
 10
0.0454185357551182
 20
33.49091629284898
 30
0.0
 11
0.0681278036326809
 21
33.51362556072654
 31
0.0
  0
LINE
  5
740
330
1F
100
AcDbEntity
  8
SK2
  6
CONTINUOUS
370
25
 62
7
100
AcDbLine
 10
0.0735209161589339
 20
33.51470418323179
 30
0.0
 11
0.1102813742384008
 21
33.47794372515231
 31
0.0
  0
LINE
  5
741
330
1F
100
AcDbEntity
  8
SK2
  6
CONTINUOUS
370
25
 62
7
100
AcDbLine
 10
0.4270743067522069
 20
33.58541486135044
 30
0.0
 11
0.6406114601283122
 21
33.37187770797433
 31
0.0
  0
LINE
  5
742
330
1F
100
AcDbEntity
  8
SK2
  6
CONTINUOUS
370
25
 62
7
100
AcDbLine
 10
0.7806276973454835
 20
33.6561255394691
 30
0.0
 11
1.170941546018227
 21
33.26581169079635
 31
0.0
  0
LINE
  5
743
330
1F
100
AcDbEntity
  8
SK2
  6
CONTINUOUS
370
25
 62
7
100
AcDbLine
 10
1.134181087938757
 20
33.72683621758775
 30
0.0
 11
1.701271631908138
 21
33.15974567361837
 31
0.0
  0
LINE
  5
744
330
1F
100
AcDbEntity
  8
SK2
  6
CONTINUOUS
370
25
 62
7
100
AcDbLine
 10
1.487734478532033
 20
33.7975468957064
 30
0.0
 11
2.23160171779805
 21
33.05367965644039
 31
0.0
  0
LINE
  5
745
330
1F
100
AcDbEntity
  8
SK2
  6
CONTINUOUS
370
25
 62
7
100
AcDbLine
 10
1.84128786912531
 20
33.86825757382506
 30
0.0
 11
2.761931803687961
 21
32.94761363926241
 31
0.0
  0
LINE
  5
746
330
1F
100
AcDbEntity
  8
SK2
  6
CONTINUOUS
370
25
 62
7
100
AcDbLine
 10
2.194841259718579
 20
33.93896825194372
 30
0.0
 11
3.292261889577869
 21
32.84154762208443
 31
0.0
  0
LINE
  5
747
330
1F
100
AcDbEntity
  8
SK2
  6
CONTINUOUS
370
25
 62
7
100
AcDbLine
 10
2.548394650311856
 20
34.00967893006237
 30
0.0
 11
3.82259197546778
 21
32.73548160490644
 31
0.0
  0
LINE
  5
748
330
1F
100
AcDbEntity
  8
SK2
  6
CONTINUOUS
370
25
 62
7
100
AcDbLine
 10
2.901948040905133
 20
34.08038960818102
 30
0.0
 11
4.352922061357692
 21
32.62941558772846
 31
0.0
  0
LINE
  5
749
330
1F
100
AcDbEntity
  8
SK2
  6
CONTINUOUS
370
25
 62
7
100
AcDbLine
 10
3.255501431498406
 20
34.15110028629968
 30
0.0
 11
4.8832521472476
 21
32.52334957055048
 31
0.0
  0
LINE
  5
74A
330
1F
100
AcDbEntity
  8
SK2
  6
CONTINUOUS
370
25
 62
7
100
AcDbLine
 10
3.609054822091679
 20
34.22181096441834
 30
0.0
 11
5.000000000000004
 21
32.83086578651
 31
0.0
  0
LINE
  5
74B
330
1F
100
AcDbEntity
  8
SK2
  6
CONTINUOUS
370
25
 62
7
100
AcDbLine
 10
3.962608212684955
 20
34.29252164253699
 30
0.0
 11
5.000000000000004
 21
33.25512985522194
 31
0.0
  0
LINE
  5
74C
330
1F
100
AcDbEntity
  8
SK2
  6
CONTINUOUS
370
25
 62
7
100
AcDbLine
 10
4.316161603278225
 20
34.36323232065564
 30
0.0
 11
5.000000000000004
 21
33.67939392393386
 31
0.0
  0
LINE
  5
74D
330
1F
100
AcDbEntity
  8
SK2
  6
CONTINUOUS
370
25
 62
7
100
AcDbLine
 10
4.669714993871501
 20
34.4339429987743
 30
0.0
 11
5.000000000000004
 21
34.10365799264579
 31
0.0
  0
LINE
  5
74E
330
1F
100
AcDbEntity
  8
SK2
  6
CONTINUOUS
370
25
 62
7
100
AcDbLine
 10
38.0
 20
33.5
 30
0.0
 11
33.0
 21
32.5
 31
0.0
  0
LINE
  5
74F
330
1F
100
AcDbEntity
  8
SK2
  6
CONTINUOUS
370
25
 62
7
100
AcDbLine
 10
33.0
 20
32.5
 30
0.0
 11
33.0
 21
34.5
 31
0.0
  0
LINE
  5
750
330
1F
100
AcDbEntity
  8
SK2
  6
CONTINUOUS
370
25
 62
7
100
AcDbLine
 10
33.0
 20
34.5
 30
0.0
 11
38.0
 21
33.5
 31
0.0
  0
LINE
  5
751
330
1F
100
AcDbEntity
  8
SK2
  6
CONTINUOUS
370
25
 62
7
100
AcDbLine
 10
37.76750544783479
 20
33.45350108956696
 30
0.0
 11
37.84500363188987
 21
33.53099927362203
 31
0.0
  0
LINE
  5
752
330
1F
100
AcDbEntity
  8
SK2
  6
CONTINUOUS
370
25
 62
7
100
AcDbLine
 10
37.23717536194488
 20
33.34743507238898
 30
0.0
 11
37.49145024129659
 21
33.60170995174069
 31
0.0
  0
LINE
  5
753
330
1F
100
AcDbEntity
  8
SK2
  6
CONTINUOUS
370
25
 62
7
100
AcDbLine
 10
36.70684527605496
 20
33.24136905521099
 30
0.0
 11
37.13789685070331
 21
33.67242062985934
 31
0.0
  0
LINE
  5
754
330
1F
100
AcDbEntity
  8
SK2
  6
CONTINUOUS
370
25
 62
7
100
AcDbLine
 10
36.17651519016506
 20
33.13530303803301
 30
0.0
 11
36.78434346011004
 21
33.743131307978
 31
0.0
  0
LINE
  5
755
330
1F
100
AcDbEntity
  8
SK2
  6
CONTINUOUS
370
25
 62
7
100
AcDbLine
 10
35.64618510427515
 20
33.02923702085503
 30
0.0
 11
36.43079006951677
 21
33.81384198609665
 31
0.0
  0
LINE
  5
756
330
1F
100
AcDbEntity
  8
SK2
  6
CONTINUOUS
370
25
 62
7
100
AcDbLine
 10
35.11585501838524
 20
32.92317100367705
 30
0.0
 11
36.07723667892349
 21
33.88455266421531
 31
0.0
  0
LINE
  5
757
330
1F
100
AcDbEntity
  8
SK2
  6
CONTINUOUS
370
25
 62
7
100
AcDbLine
 10
34.58552493249532
 20
32.81710498649906
 30
0.0
 11
35.72368328833022
 21
33.95526334233396
 31
0.0
  0
LINE
  5
758
330
1F
100
AcDbEntity
  8
SK2
  6
CONTINUOUS
370
25
 62
7
100
AcDbLine
 10
34.05519484660542
 20
32.71103896932108
 30
0.0
 11
35.37012989773694
 21
34.02597402045262
 31
0.0
  0
LINE
  5
759
330
1F
100
AcDbEntity
  8
SK2
  6
CONTINUOUS
370
25
 62
7
100
AcDbLine
 10
33.52486476071551
 20
32.6049729521431
 30
0.0
 11
35.01657650714367
 21
34.09668469857127
 31
0.0
  0
LINE
  5
75A
330
1F
100
AcDbEntity
  8
SK2
  6
CONTINUOUS
370
25
 62
7
100
AcDbLine
 10
33.0
 20
32.50437226013952
 30
0.0
 11
34.66302311655039
 21
34.16739537668992
 31
0.0
  0
LINE
  5
75B
330
1F
100
AcDbEntity
  8
SK2
  6
CONTINUOUS
370
25
 62
7
100
AcDbLine
 10
33.0
 20
32.92863632885145
 30
0.0
 11
34.30946972595712
 21
34.23810605480858
 31
0.0
  0
LINE
  5
75C
330
1F
100
AcDbEntity
  8
SK2
  6
CONTINUOUS
370
25
 62
7
100
AcDbLine
 10
33.0
 20
33.35290039756338
 30
0.0
 11
33.95591633536385
 21
34.30881673292723
 31
0.0
  0
LINE
  5
75D
330
1F
100
AcDbEntity
  8
SK2
  6
CONTINUOUS
370
25
 62
7
100
AcDbLine
 10
33.0
 20
33.77716446627532
 30
0.0
 11
33.60236294477058
 21
34.37952741104588
 31
0.0
  0
LINE
  5
75E
330
1F
100
AcDbEntity
  8
SK2
  6
CONTINUOUS
370
25
 62
7
100
AcDbLine
 10
33.0
 20
34.20142853498724
 30
0.0
 11
33.2488095541773
 21
34.45023808916454
 31
0.0
  0
LINE
  5
75F
330
1F
100
AcDbEntity
  8
SK2
  6
CONTINUOUS
370
25
 62
7
100
AcDbLine
 10
33.0
 20
32.83229432149739
 30
0.0
 11
33.27691193458116
 21
32.55538238691623
 31
0.0
  0
LINE
  5
760
330
1F
100
AcDbEntity
  8
SK2
  6
CONTINUOUS
370
25
 62
7
100
AcDbLine
 10
33.0
 20
33.25655839020931
 30
0.0
 11
33.63046532517443
 21
32.62609306503489
 31
0.0
  0
LINE
  5
761
330
1F
100
AcDbEntity
  8
SK2
  6
CONTINUOUS
370
25
 62
7
100
AcDbLine
 10
33.0
 20
33.68082245892125
 30
0.0
 11
33.98401871576771
 21
32.69680374315354
 31
0.0
  0
LINE
  5
762
330
1F
100
AcDbEntity
  8
SK2
  6
CONTINUOUS
370
25
 62
7
100
AcDbLine
 10
33.0
 20
34.10508652763318
 30
0.0
 11
34.33757210636099
 21
32.7675144212722
 31
0.0
  0
LINE
  5
763
330
1F
100
AcDbEntity
  8
SK2
  6
CONTINUOUS
370
25
 62
7
100
AcDbLine
 10
33.03668824543139
 20
34.49266235091373
 30
0.0
 11
34.69112549695426
 21
32.83822509939085
 31
0.0
  0
LINE
  5
764
330
1F
100
AcDbEntity
  8
SK2
  6
CONTINUOUS
370
25
 62
7
100
AcDbLine
 10
33.5670183313213
 20
34.38659633373575
 30
0.0
 11
35.04467888754753
 21
32.90893577750951
 31
0.0
  0
LINE
  5
765
330
1F
100
AcDbEntity
  8
SK2
  6
CONTINUOUS
370
25
 62
7
100
AcDbLine
 10
34.09734841721121
 20
34.28053031655776
 30
0.0
 11
35.39823227814081
 21
32.97964645562816
 31
0.0
  0
LINE
  5
766
330
1F
100
AcDbEntity
  8
SK2
  6
CONTINUOUS
370
25
 62
7
100
AcDbLine
 10
34.62767850310112
 20
34.17446429937978
 30
0.0
 11
35.75178566873409
 21
33.05035713374681
 31
0.0
  0
LINE
  5
767
330
1F
100
AcDbEntity
  8
SK2
  6
CONTINUOUS
370
25
 62
7
100
AcDbLine
 10
35.15800858899104
 20
34.0683982822018
 30
0.0
 11
36.10533905932736
 21
33.12106781186547
 31
0.0
  0
LINE
  5
768
330
1F
100
AcDbEntity
  8
SK2
  6
CONTINUOUS
370
25
 62
7
100
AcDbLine
 10
35.68833867488095
 20
33.96233226502381
 30
0.0
 11
36.45889244992063
 21
33.19177848998412
 31
0.0
  0
LINE
  5
769
330
1F
100
AcDbEntity
  8
SK2
  6
CONTINUOUS
370
25
 62
7
100
AcDbLine
 10
36.21866876077085
 20
33.85626624784583
 30
0.0
 11
36.81244584051391
 21
33.26248916810277
 31
0.0
  0
LINE
  5
76A
330
1F
100
AcDbEntity
  8
SK2
  6
CONTINUOUS
370
25
 62
7
100
AcDbLine
 10
36.74899884666077
 20
33.75020023066785
 30
0.0
 11
37.16599923110718
 21
33.33319984622143
 31
0.0
  0
LINE
  5
76B
330
1F
100
AcDbEntity
  8
SK2
  6
CONTINUOUS
370
25
 62
7
100
AcDbLine
 10
37.27932893255067
 20
33.64413421348987
 30
0.0
 11
37.51955262170045
 21
33.40391052434009
 31
0.0
  0
LINE
  5
76C
330
1F
100
AcDbEntity
  8
SK2
  6
CONTINUOUS
370
25
 62
7
100
AcDbLine
 10
37.80965901844058
 20
33.53806819631188
 30
0.0
 11
37.87310601229373
 21
33.47462120245874
 31
0.0
  0
TEXT
  5
76D
330
1F
100
AcDbEntity
  8
SK2
  6
CONTINUOUS
370
25
 62
7
100
AcDbText
 10
16.08333333333334
 20
35.0
 30
0.0
 40
3.5
  1
38
 72
     1
 11
19.0
 21
35.0
 31
0.0
100
AcDbText
  0
LINE
  5
76E
330
1F
100
AcDbEntity
  8
2
  6
CONTINUOUS
370
25
 62
7
100
AcDbLine
 10
30.5
 20
-0.5
 30
0.0
 11
30.5
 21
-44.5
 31
0.0
  0
LINE
  5
76F
330
1F
100
AcDbEntity
  8
2
  6
CONTINUOUS
370
25
 62
7
100
AcDbLine
 10
38.0
 20
-44.5
 30
0.0
 11
38.0
 21
0.0
 31
0.0
  0
LINE
  5
770
330
1F
100
AcDbEntity
  8
2
  6
CONTINUOUS
370
25
 62
7
100
AcDbLine
 10
14.575
 20
-43.5
 30
0.0
 11
45.0
 21
-43.5
 31
0.0
  0
LINE
  5
771
330
1F
100
AcDbEntity
  8
2
  6
CONTINUOUS
370
25
 62
7
100
AcDbLine
 10
30.5
 20
-43.5
 30
0.0
 11
25.5
 21
-44.5
 31
0.0
  0
LINE
  5
772
330
1F
100
AcDbEntity
  8
2
  6
CONTINUOUS
370
25
 62
7
100
AcDbLine
 10
25.5
 20
-44.5
 30
0.0
 11
25.5
 21
-42.5
 31
0.0
  0
LINE
  5
773
330
1F
100
AcDbEntity
  8
2
  6
CONTINUOUS
370
25
 62
7
100
AcDbLine
 10
25.5
 20
-42.5
 30
0.0
 11
30.5
 21
-43.5
 31
0.0
  0
LINE
  5
774
330
1F
100
AcDbEntity
  8
2
  6
CONTINUOUS
370
25
 62
7
100
AcDbLine
 10
30.08208276907153
 20
-43.5835834461857
 30
0.0
 11
30.22138851271436
 21
-43.44427770254287
 31
0.0
  0
LINE
  5
775
330
1F
100
AcDbEntity
  8
2
  6
CONTINUOUS
370
25
 62
7
100
AcDbLine
 10
29.55175268318161
 20
-43.68964946336368
 30
0.0
 11
29.86783512212108
 21
-43.37356702442421
 31
0.0
  0
LINE
  5
776
330
1F
100
AcDbEntity
  8
2
  6
CONTINUOUS
370
25
 62
7
100
AcDbLine
 10
29.0214225972917
 20
-43.79571548054166
 30
0.0
 11
29.5142817315278
 21
-43.30285634630556
 31
0.0
  0
LINE
  5
777
330
1F
100
AcDbEntity
  8
2
  6
CONTINUOUS
370
25
 62
7
100
AcDbLine
 10
28.49109251140178
 20
-43.90178149771965
 30
0.0
 11
29.16072834093452
 21
-43.2321456681869
 31
0.0
  0
LINE
  5
778
330
1F
100
AcDbEntity
  8
2
  6
CONTINUOUS
370
25
 62
7
100
AcDbLine
 10
27.96076242551187
 20
-44.00784751489763
 30
0.0
 11
28.80717495034125
 21
-43.16143499006825
 31
0.0
  0
LINE
  5
779
330
1F
100
AcDbEntity
  8
2
  6
CONTINUOUS
370
25
 62
7
100
AcDbLine
 10
27.43043233962195
 20
-44.11391353207561
 30
0.0
 11
28.45362155974797
 21
-43.09072431194959
 31
0.0
  0
LINE
  5
77A
330
1F
100
AcDbEntity
  8
2
  6
CONTINUOUS
370
25
 62
7
100
AcDbLine
 10
26.90010225373204
 20
-44.21997954925359
 30
0.0
 11
28.1000681691547
 21
-43.02001363383093
 31
0.0
  0
LINE
  5
77B
330
1F
100
AcDbEntity
  8
2
  6
CONTINUOUS
370
25
 62
7
100
AcDbLine
 10
26.36977216784212
 20
-44.32604556643158
 30
0.0
 11
27.74651477856142
 21
-42.94930295571228
 31
0.0
  0
LINE
  5
77C
330
1F
100
AcDbEntity
  8
2
  6
CONTINUOUS
370
25
 62
7
100
AcDbLine
 10
25.83944208195221
 20
-44.43211158360956
 30
0.0
 11
27.39296138796815
 21
-42.87859227759363
 31
0.0
  0
LINE
  5
77D
330
1F
100
AcDbEntity
  8
2
  6
CONTINUOUS
370
25
 62
7
100
AcDbLine
 10
25.5
 20
-44.34728959684984
 30
0.0
 11
27.03940799737487
 21
-42.80788159947497
 31
0.0
  0
LINE
  5
77E
330
1F
100
AcDbEntity
  8
2
  6
CONTINUOUS
370
25
 62
7
100
AcDbLine
 10
25.5
 20
-43.92302552813791
 30
0.0
 11
26.68585460678159
 21
-42.73717092135632
 31
0.0
  0
LINE
  5
77F
330
1F
100
AcDbEntity
  8
2
  6
CONTINUOUS
370
25
 62
7
100
AcDbLine
 10
25.5
 20
-43.49876145942598
 30
0.0
 11
26.33230121618831
 21
-42.66646024323766
 31
0.0
  0
LINE
  5
780
330
1F
100
AcDbEntity
  8
2
  6
CONTINUOUS
370
25
 62
7
100
AcDbLine
 10
25.5
 20
-43.07449739071405
 30
0.0
 11
25.97874782559504
 21
-42.59574956511901
 31
0.0
  0
LINE
  5
781
330
1F
100
AcDbEntity
  8
2
  6
CONTINUOUS
370
25
 62
7
100
AcDbLine
 10
25.5
 20
-42.65023332200212
 30
0.0
 11
25.62519443500176
 21
-42.52503888700035
 31
0.0
  0
LINE
  5
782
330
1F
100
AcDbEntity
  8
2
  6
CONTINUOUS
370
25
 62
7
100
AcDbLine
 10
25.5
 20
-44.15977876495266
 30
0.0
 11
25.78351769587278
 21
-44.44329646082544
 31
0.0
  0
LINE
  5
783
330
1F
100
AcDbEntity
  8
2
  6
CONTINUOUS
370
25
 62
7
100
AcDbLine
 10
25.5
 20
-43.73551469624073
 30
0.0
 11
26.13707108646606
 21
-44.37258578270679
 31
0.0
  0
LINE
  5
784
330
1F
100
AcDbEntity
  8
2
  6
CONTINUOUS
370
25
 62
7
100
AcDbLine
 10
25.5
 20
-43.3112506275288
 30
0.0
 11
26.49062447705933
 21
-44.30187510458813
 31
0.0
  0
LINE
  5
785
330
1F
100
AcDbEntity
  8
2
  6
CONTINUOUS
370
25
 62
7
100
AcDbLine
 10
25.5
 20
-42.88698655881687
 30
0.0
 11
26.84417786765261
 21
-44.23116442646948
 31
0.0
  0
LINE
  5
786
330
1F
100
AcDbEntity
  8
2
  6
CONTINUOUS
370
25
 62
7
100
AcDbLine
 10
25.54659688736883
 20
-42.50931937747377
 30
0.0
 11
27.19773125824589
 21
-44.16045374835083
 31
0.0
  0
LINE
  5
787
330
1F
100
AcDbEntity
  8
2
  6
CONTINUOUS
370
25
 62
7
100
AcDbLine
 10
26.07692697325874
 20
-42.61538539465175
 30
0.0
 11
27.55128464883916
 21
-44.08974307023217
 31
0.0
  0
LINE
  5
788
330
1F
100
AcDbEntity
  8
2
  6
CONTINUOUS
370
25
 62
7
100
AcDbLine
 10
26.60725705914865
 20
-42.72145141182973
 30
0.0
 11
27.90483803943244
 21
-44.01903239211352
 31
0.0
  0
LINE
  5
789
330
1F
100
AcDbEntity
  8
2
  6
CONTINUOUS
370
25
 62
7
100
AcDbLine
 10
27.13758714503857
 20
-42.82751742900771
 30
0.0
 11
28.25839143002572
 21
-43.94832171399486
 31
0.0
  0
LINE
  5
78A
330
1F
100
AcDbEntity
  8
2
  6
CONTINUOUS
370
25
 62
7
100
AcDbLine
 10
27.66791723092849
 20
-42.93358344618569
 30
0.0
 11
28.61194482061899
 21
-43.8776110358762
 31
0.0
  0
LINE
  5
78B
330
1F
100
AcDbEntity
  8
2
  6
CONTINUOUS
370
25
 62
7
100
AcDbLine
 10
28.1982473168184
 20
-43.03964946336368
 30
0.0
 11
28.96549821121227
 21
-43.80690035775755
 31
0.0
  0
LINE
  5
78C
330
1F
100
AcDbEntity
  8
2
  6
CONTINUOUS
370
25
 62
7
100
AcDbLine
 10
28.72857740270832
 20
-43.14571548054166
 30
0.0
 11
29.31905160180555
 21
-43.73618967963889
 31
0.0
  0
LINE
  5
78D
330
1F
100
AcDbEntity
  8
2
  6
CONTINUOUS
370
25
 62
7
100
AcDbLine
 10
29.25890748859823
 20
-43.25178149771964
 30
0.0
 11
29.67260499239882
 21
-43.66547900152024
 31
0.0
  0
LINE
  5
78E
330
1F
100
AcDbEntity
  8
2
  6
CONTINUOUS
370
25
 62
7
100
AcDbLine
 10
29.78923757448814
 20
-43.35784751489763
 30
0.0
 11
30.0261583829921
 21
-43.59476832340158
 31
0.0
  0
LINE
  5
78F
330
1F
100
AcDbEntity
  8
2
  6
CONTINUOUS
370
25
 62
7
100
AcDbLine
 10
30.31956766037806
 20
-43.46391353207561
 30
0.0
 11
30.37971177358537
 21
-43.52405764528293
 31
0.0
  0
LINE
  5
790
330
1F
100
AcDbEntity
  8
2
  6
CONTINUOUS
370
25
 62
7
100
AcDbLine
 10
38.0
 20
-43.5
 30
0.0
 11
43.0
 21
-42.5
 31
0.0
  0
LINE
  5
791
330
1F
100
AcDbEntity
  8
2
  6
CONTINUOUS
370
25
 62
7
100
AcDbLine
 10
43.0
 20
-42.5
 30
0.0
 11
43.0
 21
-44.5
 31
0.0
  0
LINE
  5
792
330
1F
100
AcDbEntity
  8
2
  6
CONTINUOUS
370
25
 62
7
100
AcDbLine
 10
43.0
 20
-44.5
 30
0.0
 11
38.0
 21
-43.5
 31
0.0
  0
LINE
  5
793
330
1F
100
AcDbEntity
  8
2
  6
CONTINUOUS
370
25
 62
7
100
AcDbLine
 10
42.75878030002924
 20
-44.45175606000585
 30
0.0
 11
43.0
 21
-44.2105363600351
 31
0.0
  0
LINE
  5
794
330
1F
100
AcDbEntity
  8
2
  6
CONTINUOUS
370
25
 62
7
100
AcDbLine
 10
42.40522690943597
 20
-44.3810453818872
 30
0.0
 11
43.0
 21
-43.78627229132317
 31
0.0
  0
LINE
  5
795
330
1F
100
AcDbEntity
  8
2
  6
CONTINUOUS
370
25
 62
7
100
AcDbLine
 10
42.0516735188427
 20
-44.31033470376854
 30
0.0
 11
43.0
 21
-43.36200822261124
 31
0.0
  0
LINE
  5
796
330
1F
100
AcDbEntity
  8
2
  6
CONTINUOUS
370
25
 62
7
100
AcDbLine
 10
41.69812012824942
 20
-44.23962402564989
 30
0.0
 11
43.0
 21
-42.93774415389931
 31
0.0
  0
LINE
  5
797
330
1F
100
AcDbEntity
  8
2
  6
CONTINUOUS
370
25
 62
7
100
AcDbLine
 10
41.34456673765614
 20
-44.16891334753123
 30
0.0
 11
43.0
 21
-42.51348008518737
 31
0.0
  0
LINE
  5
798
330
1F
100
AcDbEntity
  8
2
  6
CONTINUOUS
370
25
 62
7
100
AcDbLine
 10
40.99101334706287
 20
-44.09820266941257
 30
0.0
 11
42.48652002059431
 21
-42.60269599588114
 31
0.0
  0
LINE
  5
799
330
1F
100
AcDbEntity
  8
2
  6
CONTINUOUS
370
25
 62
7
100
AcDbLine
 10
40.6374599564696
 20
-44.02749199129392
 30
0.0
 11
41.9561899347044
 21
-42.70876201305912
 31
0.0
  0
LINE
  5
79A
330
1F
100
AcDbEntity
  8
2
  6
CONTINUOUS
370
25
 62
7
100
AcDbLine
 10
40.28390656587632
 20
-43.95678131317526
 30
0.0
 11
41.42585984881448
 21
-42.81482803023711
 31
0.0
  0
LINE
  5
79B
330
1F
100
AcDbEntity
  8
2
  6
CONTINUOUS
370
25
 62
7
100
AcDbLine
 10
39.93035317528304
 20
-43.88607063505661
 30
0.0
 11
40.89552976292455
 21
-42.92089404741509
 31
0.0
  0
LINE
  5
79C
330
1F
100
AcDbEntity
  8
2
  6
CONTINUOUS
370
25
 62
7
100
AcDbLine
 10
39.57679978468977
 20
-43.81535995693795
 30
0.0
 11
40.36519967703465
 21
-43.02696006459307
 31
0.0
  0
LINE
  5
79D
330
1F
100
AcDbEntity
  8
2
  6
CONTINUOUS
370
25
 62
7
100
AcDbLine
 10
39.22324639409649
 20
-43.7446492788193
 30
0.0
 11
39.83486959114474
 21
-43.13302608177105
 31
0.0
  0
LINE
  5
79E
330
1F
100
AcDbEntity
  8
2
  6
CONTINUOUS
370
25
 62
7
100
AcDbLine
 10
38.86969300350322
 20
-43.67393860070064
 30
0.0
 11
39.30453950525482
 21
-43.23909209894904
 31
0.0
  0
LINE
  5
79F
330
1F
100
AcDbEntity
  8
2
  6
CONTINUOUS
370
25
 62
7
100
AcDbLine
 10
38.51613961290994
 20
-43.60322792258199
 30
0.0
 11
38.7742094193649
 21
-43.34515811612702
 31
0.0
  0
LINE
  5
7A0
330
1F
100
AcDbEntity
  8
2
  6
CONTINUOUS
370
25
 62
7
100
AcDbLine
 10
38.16258622231666
 20
-43.53251724446334
 30
0.0
 11
38.24387933347499
 21
-43.451224133305
 31
0.0
  0
LINE
  5
7A1
330
1F
100
AcDbEntity
  8
2
  6
CONTINUOUS
370
25
 62
7
100
AcDbLine
 10
38.32090948318772
 20
-43.43581810336246
 30
0.0
 11
38.48136422478158
 21
-43.59627284495632
 31
0.0
  0
LINE
  5
7A2
330
1F
100
AcDbEntity
  8
2
  6
CONTINUOUS
370
25
 62
7
100
AcDbLine
 10
38.674462873781
 20
-43.36510742524381
 30
0.0
 11
39.0116943106715
 21
-43.7023388621343
 31
0.0
  0
LINE
  5
7A3
330
1F
100
AcDbEntity
  8
2
  6
CONTINUOUS
370
25
 62
7
100
AcDbLine
 10
39.02801626437427
 20
-43.29439674712515
 30
0.0
 11
39.54202439656141
 21
-43.80840487931228
 31
0.0
  0
LINE
  5
7A4
330
1F
100
AcDbEntity
  8
2
  6
CONTINUOUS
370
25
 62
7
100
AcDbLine
 10
39.38156965496756
 20
-43.22368606900649
 30
0.0
 11
40.07235448245133
 21
-43.91447089649026
 31
0.0
  0
LINE
  5
7A5
330
1F
100
AcDbEntity
  8
2
  6
CONTINUOUS
370
25
 62
7
100
AcDbLine
 10
39.73512304556083
 20
-43.15297539088784
 30
0.0
 11
40.60268456834124
 21
-44.02053691366824
 31
0.0
  0
LINE
  5
7A6
330
1F
100
AcDbEntity
  8
2
  6
CONTINUOUS
370
25
 62
7
100
AcDbLine
 10
40.0886764361541
 20
-43.08226471276918
 30
0.0
 11
41.13301465423115
 21
-44.12660293084623
 31
0.0
  0
LINE
  5
7A7
330
1F
100
AcDbEntity
  8
2
  6
CONTINUOUS
370
25
 62
7
100
AcDbLine
 10
40.44222982674738
 20
-43.01155403465053
 30
0.0
 11
41.66334474012107
 21
-44.23266894802421
 31
0.0
  0
LINE
  5
7A8
330
1F
100
AcDbEntity
  8
2
  6
CONTINUOUS
370
25
 62
7
100
AcDbLine
 10
40.79578321734066
 20
-42.94084335653187
 30
0.0
 11
42.19367482601098
 21
-44.33873496520219
 31
0.0
  0
LINE
  5
7A9
330
1F
100
AcDbEntity
  8
2
  6
CONTINUOUS
370
25
 62
7
100
AcDbLine
 10
41.14933660793393
 20
-42.87013267841321
 30
0.0
 11
42.7240049119009
 21
-44.44480098238018
 31
0.0
  0
LINE
  5
7AA
330
1F
100
AcDbEntity
  8
2
  6
CONTINUOUS
370
25
 62
7
100
AcDbLine
 10
41.50288999852721
 20
-42.79942200029456
 30
0.0
 11
43.0
 21
-44.29653200176735
 31
0.0
  0
LINE
  5
7AB
330
1F
100
AcDbEntity
  8
2
  6
CONTINUOUS
370
25
 62
7
100
AcDbLine
 10
41.85644338912049
 20
-42.7287113221759
 30
0.0
 11
43.0
 21
-43.87226793305541
 31
0.0
  0
LINE
  5
7AC
330
1F
100
AcDbEntity
  8
2
  6
CONTINUOUS
370
25
 62
7
100
AcDbLine
 10
42.20999677971376
 20
-42.65800064405725
 30
0.0
 11
43.0
 21
-43.44800386434348
 31
0.0
  0
LINE
  5
7AD
330
1F
100
AcDbEntity
  8
2
  6
CONTINUOUS
370
25
 62
7
100
AcDbLine
 10
42.56355017030704
 20
-42.5872899659386
 30
0.0
 11
43.0
 21
-43.02373979563156
 31
0.0
  0
LINE
  5
7AE
330
1F
100
AcDbEntity
  8
2
  6
CONTINUOUS
370
25
 62
7
100
AcDbLine
 10
42.91710356090032
 20
-42.51657928781994
 30
0.0
 11
43.0
 21
-42.59947572691962
 31
0.0
  0
TEXT
  5
7AF
330
1F
100
AcDbEntity
  8
2
  6
CONTINUOUS
370
25
 62
7
100
AcDbText
 10
16.5375
 20
-42.0
 30
0.0
 40
3.5
  1
7.5
 72
     1
 11
20.0375
 21
-42.0
 31
0.0
100
AcDbText
  0
LINE
  5
7B0
330
1F
100
AcDbEntity
  8
4
  6
LONGDASH_DASH
370
25
 62
2
100
AcDbLine
 10
26.8
 20
0.0
 30
0.0
 11
38.0
 21
0.0
 31
0.0
  0
LINE
  5
7B1
330
1F
100
AcDbEntity
  8
SK4
  6
LONGDASH_DASH
370
25
 62
2
100
AcDbLine
 10
-5.999999999999996
 20
0.0
 30
0.0
 11
44.0
 21
0.0
 31
0.0
  0
LINE
  5
7B2
330
1F
100
AcDbEntity
  8
2
  6
CONTINUOUS
370
25
 62
7
100
AcDbLine
 10
38.0
 20
0.0
 30
0.0
 11
46.87498349655469
 21
19.03246352776965
 31
0.0
  0
LINE
  5
7B3
330
1F
100
AcDbEntity
  8
2
  6
CONTINUOUS
370
25
 62
7
100
AcDbLine
 10
38.0
 20
0.0
 30
0.0
 11
46.87498349655469
 21
-19.03246352776965
 31
0.0
  0
ARC
  5
7B4
330
1F
100
AcDbEntity
  8
2
  6
CONTINUOUS
370
25
 62
7
100
AcDbCircle
 10
38.00000000000001
 20
-0.0000000000000017
 30
0.0
 40
19.99999999999999
100
AcDbArc
 50
295.0000000000001
 51
65.00000000000001
  0
LINE
  5
7B5
330
1F
100
AcDbEntity
  8
2
  6
CONTINUOUS
370
25
 62
7
100
AcDbLine
 10
46.452365234814
 20
18.12615574073299
 30
0.0
 11
51.21681775672375
 21
16.30956768438455
 31
0.0
  0
LINE
  5
7B6
330
1F
100
AcDbEntity
  8
2
  6
CONTINUOUS
370
25
 62
7
100
AcDbLine
 10
51.21681775672375
 20
16.30956768438455
 30
0.0
 11
50.15163369490437
 21
14.61682348798453
 31
0.0
  0
LINE
  5
7B7
330
1F
100
AcDbEntity
  8
2
  6
CONTINUOUS
370
25
 62
7
100
AcDbLine
 10
50.15163369490437
 20
14.61682348798453
 30
0.0
 11
46.452365234814
 21
18.12615574073299
 31
0.0
  0
LINE
  5
7B8
330
1F
100
AcDbEntity
  8
2
  6
CONTINUOUS
370
25
 62
7
100
AcDbLine
 10
50.10918981444256
 20
14.6570881187469
 30
0.0
 11
50.29201830998462
 21
14.83991661428897
 31
0.0
  0
LINE
  5
7B9
330
1F
100
AcDbEntity
  8
2
  6
CONTINUOUS
370
25
 62
7
100
AcDbLine
 10
49.89146840765963
 20
14.86363078067591
 30
0.0
 11
51.01213945709441
 21
15.98430183011068
 31
0.0
  0
LINE
  5
7BA
330
1F
100
AcDbEntity
  8
2
  6
CONTINUOUS
370
25
 62
7
100
AcDbLine
 10
49.67374700087671
 20
15.07017344260491
 30
0.0
 11
50.9969661517856
 21
16.39339259351379
 31
0.0
  0
LINE
  5
7BB
330
1F
100
AcDbEntity
  8
2
  6
CONTINUOUS
370
25
 62
7
100
AcDbLine
 10
49.45602559409379
 20
15.27671610453392
 30
0.0
 11
50.68981320414868
 21
16.5105037145888
 31
0.0
  0
LINE
  5
7BC
330
1F
100
AcDbEntity
  8
2
  6
CONTINUOUS
370
25
 62
7
100
AcDbLine
 10
49.23830418731086
 20
15.48325876646292
 30
0.0
 11
50.38266025651174
 21
16.6276148356638
 31
0.0
  0
LINE
  5
7BD
330
1F
100
AcDbEntity
  8
2
  6
CONTINUOUS
370
25
 62
7
100
AcDbLine
 10
49.02058278052795
 20
15.68980142839193
 30
0.0
 11
50.07550730887482
 21
16.7447259567388
 31
0.0
  0
LINE
  5
7BE
330
1F
100
AcDbEntity
  8
2
  6
CONTINUOUS
370
25
 62
7
100
AcDbLine
 10
48.80286137374502
 20
15.89634409032093
 30
0.0
 11
49.76835436123788
 21
16.8618370778138
 31
0.0
  0
LINE
  5
7BF
330
1F
100
AcDbEntity
  8
2
  6
CONTINUOUS
370
25
 62
7
100
AcDbLine
 10
48.5851399669621
 20
16.10288675224994
 30
0.0
 11
49.46120141360096
 21
16.9789481988888
 31
0.0
  0
LINE
  5
7C0
330
1F
100
AcDbEntity
  8
2
  6
CONTINUOUS
370
25
 62
7
100
AcDbLine
 10
48.36741856017917
 20
16.30942941417894
 30
0.0
 11
49.15404846596403
 21
17.0960593199638
 31
0.0
  0
LINE
  5
7C1
330
1F
100
AcDbEntity
  8
2
  6
CONTINUOUS
370
25
 62
7
100
AcDbLine
 10
48.14969715339626
 20
16.51597207610795
 30
0.0
 11
48.8468955183271
 21
17.2131704410388
 31
0.0
  0
LINE
  5
7C2
330
1F
100
AcDbEntity
  8
2
  6
CONTINUOUS
370
25
 62
7
100
AcDbLine
 10
47.93197574661333
 20
16.72251473803695
 30
0.0
 11
48.53974257069018
 21
17.3302815621138
 31
0.0
  0
LINE
  5
7C3
330
1F
100
AcDbEntity
  8
2
  6
CONTINUOUS
370
25
 62
7
100
AcDbLine
 10
47.71425433983041
 20
16.92905739996596
 30
0.0
 11
48.23258962305324
 21
17.4473926831888
 31
0.0
  0
LINE
  5
7C4
330
1F
100
AcDbEntity
  8
2
  6
CONTINUOUS
370
25
 62
7
100
AcDbLine
 10
47.49653293304749
 20
17.13560006189497
 30
0.0
 11
47.92543667541632
 21
17.5645038042638
 31
0.0
  0
LINE
  5
7C5
330
1F
100
AcDbEntity
  8
2
  6
CONTINUOUS
370
25
 62
7
100
AcDbLine
 10
47.27881152626457
 20
17.34214272382398
 30
0.0
 11
47.61828372777939
 21
17.6816149253388
 31
0.0
  0
LINE
  5
7C6
330
1F
100
AcDbEntity
  8
2
  6
CONTINUOUS
370
25
 62
7
100
AcDbLine
 10
47.06109011948164
 20
17.54868538575298
 30
0.0
 11
47.31113078014246
 21
17.7987260464138
 31
0.0
  0
LINE
  5
7C7
330
1F
100
AcDbEntity
  8
2
  6
CONTINUOUS
370
25
 62
7
100
AcDbLine
 10
46.84336871269872
 20
17.75522804768199
 30
0.0
 11
47.00397783250554
 21
17.9158371674888
 31
0.0
  0
LINE
  5
7C8
330
1F
100
AcDbEntity
  8
2
  6
CONTINUOUS
370
25
 62
7
100
AcDbLine
 10
46.6256473059158
 20
17.96177070961099
 30
0.0
 11
46.6968248848686
 21
18.0329482885638
 31
0.0
  0
LINE
  5
7C9
330
1F
100
AcDbEntity
  8
2
  6
CONTINUOUS
370
25
 62
7
100
AcDbLine
 10
47.1073382087457
 20
17.87642797532786
 30
0.0
 11
50.23479166529198
 21
14.74897451878159
 31
0.0
  0
LINE
  5
7CA
330
1F
100
AcDbEntity
  8
2
  6
CONTINUOUS
370
25
 62
7
100
AcDbLine
 10
47.79305019983121
 20
17.61498005295429
 30
0.0
 11
50.39865355062121
 21
15.0093767021643
 31
0.0
  0
LINE
  5
7CB
330
1F
100
AcDbEntity
  8
2
  6
CONTINUOUS
370
25
 62
7
100
AcDbLine
 10
48.47876219091671
 20
17.35353213058072
 30
0.0
 11
50.56251543595044
 21
15.26977888554699
 31
0.0
  0
LINE
  5
7CC
330
1F
100
AcDbEntity
  8
2
  6
CONTINUOUS
370
25
 62
7
100
AcDbLine
 10
49.16447418200222
 20
17.09208420820714
 30
0.0
 11
50.72637732127967
 21
15.53018106892969
 31
0.0
  0
LINE
  5
7CD
330
1F
100
AcDbEntity
  8
2
  6
CONTINUOUS
370
25
 62
7
100
AcDbLine
 10
49.85018617308771
 20
16.83063628583358
 30
0.0
 11
50.8902392066089
 21
15.79058325231239
 31
0.0
  0
LINE
  5
7CE
330
1F
100
AcDbEntity
  8
2
  6
CONTINUOUS
370
25
 62
7
100
AcDbLine
 10
50.5358981641732
 20
16.56918836346
 30
0.0
 11
51.05410109193812
 21
16.05098543569509
 31
0.0
  0
LINE
  5
7CF
330
1F
100
AcDbEntity
  8
2
  6
CONTINUOUS
370
25
 62
7
100
AcDbLine
 10
46.45236523481398
 20
-18.126155740733
 30
0.0
 11
50.15163369490435
 21
-14.61682348798453
 31
0.0
  0
LINE
  5
7D0
330
1F
100
AcDbEntity
  8
2
  6
CONTINUOUS
370
25
 62
7
100
AcDbLine
 10
50.15163369490435
 20
-14.61682348798453
 30
0.0
 11
51.21681775672374
 21
-16.30956768438455
 31
0.0
  0
LINE
  5
7D1
330
1F
100
AcDbEntity
  8
2
  6
CONTINUOUS
370
25
 62
7
100
AcDbLine
 10
51.21681775672374
 20
-16.30956768438455
 30
0.0
 11
46.45236523481398
 21
-18.126155740733
 31
0.0
  0
LINE
  5
7D2
330
1F
100
AcDbEntity
  8
2
  6
CONTINUOUS
370
25
 62
7
100
AcDbLine
 10
51.04681091915687
 20
-16.37438780573142
 30
0.0
 11
51.17619189443063
 21
-16.24500683045765
 31
0.0
  0
LINE
  5
7D3
330
1F
100
AcDbEntity
  8
2
  6
CONTINUOUS
370
25
 62
7
100
AcDbLine
 10
50.36109892807136
 20
-16.63583572810499
 30
0.0
 11
51.0123300091014
 21
-15.98460464707494
 31
0.0
  0
LINE
  5
7D4
330
1F
100
AcDbEntity
  8
2
  6
CONTINUOUS
370
25
 62
7
100
AcDbLine
 10
49.67538693698587
 20
-16.89728365047856
 30
0.0
 11
50.84846812377218
 21
-15.72420246369225
 31
0.0
  0
LINE
  5
7D5
330
1F
100
AcDbEntity
  8
2
  6
CONTINUOUS
370
25
 62
7
100
AcDbLine
 10
48.98967494590035
 20
-17.15873157285214
 30
0.0
 11
50.68460623844295
 21
-15.46380028030955
 31
0.0
  0
LINE
  5
7D6
330
1F
100
AcDbEntity
  8
2
  6
CONTINUOUS
370
25
 62
7
100
AcDbLine
 10
48.30396295481486
 20
-17.42017949522571
 30
0.0
 11
50.52074435311372
 21
-15.20339809692685
 31
0.0
  0
LINE
  5
7D7
330
1F
100
AcDbEntity
  8
2
  6
CONTINUOUS
370
25
 62
7
100
AcDbLine
 10
47.61825096372935
 20
-17.68162741759928
 30
0.0
 11
50.35688246778449
 21
-14.94299591354415
 31
0.0
  0
LINE
  5
7D8
330
1F
100
AcDbEntity
  8
2
  6
CONTINUOUS
370
25
 62
7
100
AcDbLine
 10
46.93253897264386
 20
-17.94307533997285
 30
0.0
 11
50.19302058245526
 21
-14.68259373016145
 31
0.0
  0
LINE
  5
7D9
330
1F
100
AcDbEntity
  8
2
  6
CONTINUOUS
370
25
 62
7
100
AcDbLine
 10
46.54003940803779
 20
-18.04298313318998
 30
0.0
 11
46.57605257054837
 21
-18.07899629570057
 31
0.0
  0
LINE
  5
7DA
330
1F
100
AcDbEntity
  8
2
  6
CONTINUOUS
370
25
 62
7
100
AcDbLine
 10
46.75776081482071
 20
-17.83644047126098
 30
0.0
 11
46.88320551818531
 21
-17.96188517462557
 31
0.0
  0
LINE
  5
7DB
330
1F
100
AcDbEntity
  8
2
  6
CONTINUOUS
370
25
 62
7
100
AcDbLine
 10
46.97548222160363
 20
-17.62989780933198
 30
0.0
 11
47.19035846582223
 21
-17.84477405355057
 31
0.0
  0
LINE
  5
7DC
330
1F
100
AcDbEntity
  8
2
  6
CONTINUOUS
370
25
 62
7
100
AcDbLine
 10
47.19320362838656
 20
-17.42335514740297
 30
0.0
 11
47.49751141345915
 21
-17.72766293247557
 31
0.0
  0
LINE
  5
7DD
330
1F
100
AcDbEntity
  8
2
  6
CONTINUOUS
370
25
 62
7
100
AcDbLine
 10
47.41092503516948
 20
-17.21681248547397
 30
0.0
 11
47.80466436109609
 21
-17.61055181140057
 31
0.0
  0
LINE
  5
7DE
330
1F
100
AcDbEntity
  8
2
  6
CONTINUOUS
370
25
 62
7
100
AcDbLine
 10
47.6286464419524
 20
-17.01026982354495
 30
0.0
 11
48.11181730873301
 21
-17.49344069032556
 31
0.0
  0
LINE
  5
7DF
330
1F
100
AcDbEntity
  8
2
  6
CONTINUOUS
370
25
 62
7
100
AcDbLine
 10
47.84636784873533
 20
-16.80372716161595
 30
0.0
 11
48.41897025636994
 21
-17.37632956925057
 31
0.0
  0
LINE
  5
7E0
330
1F
100
AcDbEntity
  8
2
  6
CONTINUOUS
370
25
 62
7
100
AcDbLine
 10
48.06408925551824
 20
-16.59718449968694
 30
0.0
 11
48.72612320400687
 21
-17.25921844817556
 31
0.0
  0
LINE
  5
7E1
330
1F
100
AcDbEntity
  8
2
  6
CONTINUOUS
370
25
 62
7
100
AcDbLine
 10
48.28181066230117
 20
-16.39064183775794
 30
0.0
 11
49.03327615164379
 21
-17.14210732710056
 31
0.0
  0
LINE
  5
7E2
330
1F
100
AcDbEntity
  8
2
  6
CONTINUOUS
370
25
 62
7
100
AcDbLine
 10
48.49953206908408
 20
-16.18409917582893
 30
0.0
 11
49.34042909928072
 21
-17.02499620602556
 31
0.0
  0
LINE
  5
7E3
330
1F
100
AcDbEntity
  8
2
  6
CONTINUOUS
370
25
 62
7
100
AcDbLine
 10
48.71725347586701
 20
-15.97755651389993
 30
0.0
 11
49.64758204691765
 21
-16.90788508495056
 31
0.0
  0
LINE
  5
7E4
330
1F
100
AcDbEntity
  8
2
  6
CONTINUOUS
370
25
 62
7
100
AcDbLine
 10
48.93497488264993
 20
-15.77101385197092
 30
0.0
 11
49.95473499455458
 21
-16.79077396387557
 31
0.0
  0
LINE
  5
7E5
330
1F
100
AcDbEntity
  8
2
  6
CONTINUOUS
370
25
 62
7
100
AcDbLine
 10
49.15269628943285
 20
-15.56447119004191
 30
0.0
 11
50.26188794219151
 21
-16.67366284280056
 31
0.0
  0
LINE
  5
7E6
330
1F
100
AcDbEntity
  8
2
  6
CONTINUOUS
370
25
 62
7
100
AcDbLine
 10
49.37041769621577
 20
-15.35792852811291
 30
0.0
 11
50.56904088982843
 21
-16.55655172172556
 31
0.0
  0
LINE
  5
7E7
330
1F
100
AcDbEntity
  8
2
  6
CONTINUOUS
370
25
 62
7
100
AcDbLine
 10
49.5881391029987
 20
-15.15138586618391
 30
0.0
 11
50.87619383746536
 21
-16.43944060065056
 31
0.0
  0
LINE
  5
7E8
330
1F
100
AcDbEntity
  8
2
  6
CONTINUOUS
370
25
 62
7
100
AcDbLine
 10
49.80586050978162
 20
-14.9448432042549
 30
0.0
 11
51.18334678510228
 21
-16.32232947957556
 31
0.0
  0
LINE
  5
7E9
330
1F
100
AcDbEntity
  8
2
  6
CONTINUOUS
370
25
 62
7
100
AcDbLine
 10
50.02358191656455
 20
-14.7383005423259
 30
0.0
 11
50.57516941824025
 21
-15.2898880440016
 31
0.0
  0
TEXT
  5
7EA
330
1F
100
AcDbEntity
  8
2
  6
CONTINUOUS
370
25
 62
7
100
AcDbText
 10
55.5
 20
-4.958333333333333
 30
0.0
 40
3.5
  1
130°
 50
90.0
 72
     1
 11
55.5
 21
0.0
 31
0.0
100
AcDbText
  0
LINE
  5
7EB
330
1F
100
AcDbEntity
  8
SK1
  6
CONTINUOUS
370
50
 62
4
100
AcDbLine
 10
26.8
 20
0.0
 30
0.0
 11
29.425
 21
0.0
 31
0.0
  0
LINE
  5
7EC
330
1F
100
AcDbEntity
  8
SK1
  6
CONTINUOUS
370
50
 62
4
100
AcDbLine
 10
26.8
 20
0.0
 30
0.0
 11
26.8
 21
2.625
 31
0.0
  0
ARC
  5
7ED
330
1F
100
AcDbEntity
  8
SK1
  6
CONTINUOUS
370
50
 62
4
100
AcDbCircle
 10
26.8
 20
0.0
 30
0.0
 40
2.625
100
AcDbArc
 50
0.0
 51
90.0
  0
LINE
  5
7EE
330
1F
100
AcDbEntity
  8
SK1
  6
CONTINUOUS
370
50
 62
4
100
AcDbLine
 10
26.8
 20
0.0
 30
0.0
 11
24.175
 21
0.0
 31
0.0
  0
ARC
  5
7EF
330
1F
100
AcDbEntity
  8
SK1
  6
CONTINUOUS
370
50
 62
4
100
AcDbCircle
 10
26.8
 20
0.0
 30
0.0
 40
2.625
100
AcDbArc
 50
180.0
 51
270.0
  0
LINE
  5
7F0
330
1F
100
AcDbEntity
  8
SK1
  6
CONTINUOUS
370
50
 62
4
100
AcDbLine
 10
26.8
 20
-2.625
 30
0.0
 11
26.8
 21
0.0
 31
0.0
  0
ARC
  5
7F1
330
1F
100
AcDbEntity
  8
SK1
  6
CONTINUOUS
370
50
 62
4
100
AcDbCircle
 10
26.8
 20
0.0
 30
0.0
 40
2.625
100
AcDbArc
 50
270.0
 51
0.0
  0
ARC
  5
7F2
330
1F
100
AcDbEntity
  8
SK1
  6
CONTINUOUS
370
50
 62
4
100
AcDbCircle
 10
26.8
 20
0.0
 30
0.0
 40
2.625
100
AcDbArc
 50
90.0
 51
180.0
  0
LINE
  5
7F3
330
1F
100
AcDbEntity
  8
SK1
  6
CONTINUOUS
370
50
 62
4
100
AcDbLine
 10
26.46575722192681
 20
-2.60347067499975
 30
0.0
 11
26.8
 21
-2.269227896926564
 31
0.0
  0
LINE
  5
7F4
330
1F
100
AcDbEntity
  8
SK1
  6
CONTINUOUS
370
50
 62
4
100
AcDbLine
 10
29.06922789692656
 20
0.0
 30
0.0
 11
29.40347067499975
 21
0.3342427780731851
 31
0.0
  0
LINE
  5
7F5
330
1F
100
AcDbEntity
  8
SK1
  6
CONTINUOUS
370
50
 62
4
100
AcDbLine
 10
26.15395391214687
 20
-2.544042924656761
 30
0.0
 11
26.8
 21
-1.897996836803626
 31
0.0
  0
LINE
  5
7F6
330
1F
100
AcDbEntity
  8
SK1
  6
CONTINUOUS
370
50
 62
4
100
AcDbLine
 10
28.69799683680363
 20
0.0
 30
0.0
 11
29.34404292465676
 21
0.6460460878531347
 31
0.0
  0
LINE
  5
7F7
330
1F
100
AcDbEntity
  8
SK1
  6
CONTINUOUS
370
50
 62
4
100
AcDbLine
 10
25.87222348891575
 20
-2.454542287764935
 30
0.0
 11
26.8
 21
-1.526765776680689
 31
0.0
  0
LINE
  5
7F8
330
1F
100
AcDbEntity
  8
SK1
  6
CONTINUOUS
370
50
 62
4
100
AcDbLine
 10
28.32676577668069
 20
0.0
 30
0.0
 11
29.25454228776493
 21
0.9277765110842457
 31
0.0
  0
LINE
  5
7F9
330
1F
100
AcDbEntity
  8
SK1
  6
CONTINUOUS
370
50
 62
4
100
AcDbLine
 10
25.61478120678253
 20
-2.340753509775221
 30
0.0
 11
26.8
 21
-1.155534716557751
 31
0.0
  0
LINE
  5
7FA
330
1F
100
AcDbEntity
  8
SK1
  6
CONTINUOUS
370
50
 62
4
100
AcDbLine
 10
27.95553471655775
 20
0.0
 30
0.0
 11
29.14075350977522
 21
1.185218793217471
 31
0.0
  0
LINE
  5
7FB
330
1F
100
AcDbEntity
  8
SK1
  6
CONTINUOUS
370
50
 62
4
100
AcDbLine
 10
25.37826543845548
 20
-2.206038217979337
 30
0.0
 11
26.8
 21
-0.7843036564348136
 31
0.0
  0
LINE
  5
7FC
330
1F
100
AcDbEntity
  8
SK1
  6
CONTINUOUS
370
50
 62
4
100
AcDbLine
 10
27.58430365643481
 20
0.0
 30
0.0
 11
29.00603821797934
 21
1.421734561544524
 31
0.0
  0
LINE
  5
7FD
330
1F
100
AcDbEntity
  8
SK1
  6
CONTINUOUS
370
50
 62
4
100
AcDbLine
 10
25.1626431117109
 20
-2.050429484600978
 30
0.0
 11
26.8
 21
-0.413072596311876
 31
0.0
  0
LINE
  5
7FE
330
1F
100
AcDbEntity
  8
SK1
  6
CONTINUOUS
370
50
 62
4
100
AcDbLine
 10
27.21307259631187
 20
0.0
 30
0.0
 11
28.85042948460098
 21
1.637356888289101
 31
0.0
  0
LINE
  5
7FF
330
1F
100
AcDbEntity
  8
SK1
  6
CONTINUOUS
370
50
 62
4
100
AcDbLine
 10
24.96568136807246
 20
-1.876160168116476
 30
0.0
 11
26.8
 21
-0.0418415361889384
 31
0.0
  0
LINE
  5
800
330
1F
100
AcDbEntity
  8
SK1
  6
CONTINUOUS
370
50
 62
4
100
AcDbLine
 10
26.84184153618894
 20
0.0
 30
0.0
 11
28.67616016811647
 21
1.834318631927537
 31
0.0
  0
LINE
  5
801
330
1F
100
AcDbEntity
  8
SK1
  6
CONTINUOUS
370
50
 62
4
100
AcDbLine
 10
24.78675942477632
 20
-1.683851051289679
 30
0.0
 11
26.470610476066
 21
0.0
 31
0.0
  0
LINE
  5
802
330
1F
100
AcDbEntity
  8
SK1
  6
CONTINUOUS
370
50
 62
4
100
AcDbLine
 10
26.8
 20
0.3293895239339992
 30
0.0
 11
28.48385105128968
 21
2.013240575223679
 31
0.0
  0
LINE
  5
803
330
1F
100
AcDbEntity
  8
SK1
  6
CONTINUOUS
370
50
 62
4
100
AcDbLine
 10
24.62782161830506
 20
-1.471557797638
 30
0.0
 11
26.09937941594306
 21
0.0
 31
0.0
  0
LINE
  5
804
330
1F
100
AcDbEntity
  8
SK1
  6
CONTINUOUS
370
50
 62
4
100
AcDbLine
 10
26.8
 20
0.7006205840569368
 30
0.0
 11
28.271557797638
 21
2.172178381694937
 31
0.0
  0
LINE
  5
805
330
1F
100
AcDbEntity
  8
SK1
  6
CONTINUOUS
370
50
 62
4
100
AcDbLine
 10
24.48749288718529
 20
-1.240655468634837
 30
0.0
 11
25.72814835582012
 21
0.0
 31
0.0
  0
LINE
  5
806
330
1F
100
AcDbEntity
  8
SK1
  6
CONTINUOUS
370
50
 62
4
100
AcDbLine
 10
26.8
 20
1.071851644179874
 30
0.0
 11
28.04065546863484
 21
2.312507112814711
 31
0.0
  0
LINE
  5
807
330
1F
100
AcDbEntity
  8
SK1
  6
CONTINUOUS
370
50
 62
4
100
AcDbLine
 10
24.36877644288388
 20
-0.9881408528133115
 30
0.0
 11
25.35691729569719
 21
0.0
 31
0.0
  0
LINE
  5
808
330
1F
100
AcDbEntity
  8
SK1
  6
CONTINUOUS
370
50
 62
4
100
AcDbLine
 10
26.8
 20
1.443082704302812
 30
0.0
 11
27.78814085281331
 21
2.431223557116124
 31
0.0
  0
LINE
  5
809
330
1F
100
AcDbEntity
  8
SK1
  6
CONTINUOUS
370
50
 62
4
100
AcDbLine
 10
24.27444482033456
 20
-0.7112414152396886
 30
0.0
 11
24.98568623557425
 21
0.0
 31
0.0
  0
LINE
  5
80A
330
1F
100
AcDbEntity
  8
SK1
  6
CONTINUOUS
370
50
 62
4
100
AcDbLine
 10
26.8
 20
1.81431376442575
 30
0.0
 11
27.51124141523969
 21
2.525555179665439
 31
0.0
  0
LINE
  5
80B
330
1F
100
AcDbEntity
  8
SK1
  6
CONTINUOUS
370
50
 62
4
100
AcDbLine
 10
24.20797120571085
 20
-0.4064839697404632
 30
0.0
 11
24.61445517545131
 21
0.0
 31
0.0
  0
LINE
  5
80C
330
1F
100
AcDbEntity
  8
SK1
  6
CONTINUOUS
370
50
 62
4
100
AcDbLine
 10
26.8
 20
2.185544824548687
 30
0.0
 11
27.20648396974046
 21
2.59202879428915
 31
0.0
  0
LINE
  5
80D
330
1F
100
AcDbEntity
  8
SK1
  6
CONTINUOUS
370
50
 62
4
100
AcDbLine
 10
24.17707870331547
 20
-0.0661454120129097
 30
0.0
 11
24.24322411532837
 21
0.0
 31
0.0
  0
LINE
  5
80E
330
1F
100
AcDbEntity
  8
SK1
  6
CONTINUOUS
370
50
 62
4
100
AcDbLine
 10
26.8
 20
2.556775884671625
 30
0.0
 11
26.86614541201291
 21
2.622921296684535
 31
0.0
  0
LINE
  5
80F
330
1F
100
AcDbEntity
  8
SK1
  6
CONTINUOUS
370
50
 62
4
100
AcDbLine
 10
24.34579652643623
 20
-0.9287176037316112
 30
0.0
 11
25.87128239626839
 21
-2.454203473563768
 31
0.0
  0
LINE
  5
810
330
1F
100
AcDbEntity
  8
SK1
  6
CONTINUOUS
370
50
 62
4
100
AcDbLine
 10
24.21045104563307
 20
-0.4221410628055069
 30
0.0
 11
26.3778589371945
 21
-2.589548954366935
 31
0.0
  0
LINE
  5
811
330
1F
100
AcDbEntity
  8
SK1
  6
CONTINUOUS
370
50
 62
4
100
AcDbLine
 10
24.17550158008622
 20
-0.0159605371357268
 30
0.0
 11
26.78403946286428
 21
-2.624498419913778
 31
0.0
  0
LINE
  5
812
330
1F
100
AcDbEntity
  8
SK1
  6
CONTINUOUS
370
50
 62
4
100
AcDbLine
 10
24.53077210307343
 20
0.0
 30
0.0
 11
26.8
 21
-2.269227896926564
 31
0.0
  0
LINE
  5
813
330
1F
100
AcDbEntity
  8
SK1
  6
CONTINUOUS
370
50
 62
4
100
AcDbLine
 10
24.90200316319637
 20
0.0
 30
0.0
 11
26.8
 21
-1.897996836803626
 31
0.0
  0
LINE
  5
814
330
1F
100
AcDbEntity
  8
SK1
  6
CONTINUOUS
370
50
 62
4
100
AcDbLine
 10
25.27323422331931
 20
0.0
 30
0.0
 11
26.8
 21
-1.526765776680689
 31
0.0
  0
LINE
  5
815
330
1F
100
AcDbEntity
  8
SK1
  6
CONTINUOUS
370
50
 62
4
100
AcDbLine
 10
25.64446528344225
 20
0.0
 30
0.0
 11
26.8
 21
-1.155534716557752
 31
0.0
  0
LINE
  5
816
330
1F
100
AcDbEntity
  8
SK1
  6
CONTINUOUS
370
50
 62
4
100
AcDbLine
 10
26.01569634356519
 20
0.0
 30
0.0
 11
26.8
 21
-0.7843036564348145
 31
0.0
  0
LINE
  5
817
330
1F
100
AcDbEntity
  8
SK1
  6
CONTINUOUS
370
50
 62
4
100
AcDbLine
 10
26.38692740368812
 20
0.0
 30
0.0
 11
26.8
 21
-0.4130725963118769
 31
0.0
  0
LINE
  5
818
330
1F
100
AcDbEntity
  8
SK1
  6
CONTINUOUS
370
50
 62
4
100
AcDbLine
 10
26.75815846381106
 20
0.0
 30
0.0
 11
26.8
 21
-0.0418415361889393
 31
0.0
  0
LINE
  5
819
330
1F
100
AcDbEntity
  8
SK1
  6
CONTINUOUS
370
50
 62
4
100
AcDbLine
 10
26.8
 20
0.3293895239339975
 30
0.0
 11
27.129389523934
 21
0.0
 31
0.0
  0
LINE
  5
81A
330
1F
100
AcDbEntity
  8
SK1
  6
CONTINUOUS
370
50
 62
4
100
AcDbLine
 10
26.8
 20
0.7006205840569351
 30
0.0
 11
27.50062058405694
 21
0.0
 31
0.0
  0
LINE
  5
81B
330
1F
100
AcDbEntity
  8
SK1
  6
CONTINUOUS
370
50
 62
4
100
AcDbLine
 10
26.8
 20
1.071851644179873
 30
0.0
 11
27.87185164417987
 21
0.0
 31
0.0
  0
LINE
  5
81C
330
1F
100
AcDbEntity
  8
SK1
  6
CONTINUOUS
370
50
 62
4
100
AcDbLine
 10
26.8
 20
1.44308270430281
 30
0.0
 11
28.24308270430281
 21
0.0
 31
0.0
  0
LINE
  5
81D
330
1F
100
AcDbEntity
  8
SK1
  6
CONTINUOUS
370
50
 62
4
100
AcDbLine
 10
26.8
 20
1.814313764425748
 30
0.0
 11
28.61431376442575
 21
0.0
 31
0.0
  0
LINE
  5
81E
330
1F
100
AcDbEntity
  8
SK1
  6
CONTINUOUS
370
50
 62
4
100
AcDbLine
 10
26.8
 20
2.185544824548685
 30
0.0
 11
28.98554482454869
 21
0.0
 31
0.0
  0
LINE
  5
81F
330
1F
100
AcDbEntity
  8
SK1
  6
CONTINUOUS
370
50
 62
4
100
AcDbLine
 10
26.8
 20
2.556775884671622
 30
0.0
 11
29.35677588467163
 21
0.0
 31
0.0
  0
LINE
  5
820
330
1F
100
AcDbEntity
  8
SK1
  6
CONTINUOUS
370
50
 62
4
100
AcDbLine
 10
27.1231531925751
 20
2.604853752219459
 30
0.0
 11
29.40485375221946
 21
0.3231531925751043
 31
0.0
  0
LINE
  5
821
330
1F
100
AcDbEntity
  8
SK1
  6
CONTINUOUS
370
50
 62
4
100
AcDbLine
 10
27.59925237182748
 20
2.499985633090018
 30
0.0
 11
29.29998563309002
 21
0.7992523718274818
 31
0.0
  0
LINE
  5
822
330
1F
100
AcDbEntity
  8
SK1
  6
CONTINUOUS
370
50
 62
4
100
AcDbLine
 10
28.36015793098176
 20
2.11031113405868
 30
0.0
 11
28.91031113405868
 21
1.560157930981759
 31
0.0
  0
ARC
  5
823
330
1F
100
AcDbEntity
  8
SK6
  6
CONTINUOUS
370
25
 62
5
100
AcDbCircle
 10
61.26138200837651
 20
-26.19524575338786
 30
0.0
 40
2.760489128492204
100
AcDbArc
 50
338.9379403434233
 51
90.44457437511392
  0
LINE
  5
824
330
1F
100
AcDbEntity
  8
SK6
  6
CONTINUOUS
370
25
 62
5
100
AcDbLine
 10
61.23996279695983
 20
-23.43483972421281
 30
0.0
 11
61.23996279695983
 21
-24.53789835613463
 31
0.0
  0
ARC
  5
825
330
1F
100
AcDbEntity
  8
SK6
  6
CONTINUOUS
370
25
 62
5
100
AcDbCircle
 10
61.25050902936916
 20
-26.2152392456682
 30
0.0
 40
1.677374043771785
100
AcDbArc
 50
243.4214706017864
 51
90.36024081226107
  0
ARC
  5
826
330
1F
100
AcDbEntity
  8
SK6
  6
CONTINUOUS
370
25
 62
5
100
AcDbCircle
 10
63.77275989684958
 20
-25.7838319921556
 30
0.0
 40
3.800217030022754
100
AcDbArc
 50
210.5483731288539
 51
236.97801693668
  0
LINE
  5
827
330
1F
100
AcDbEntity
  8
SK6
  6
CONTINUOUS
370
25
 62
5
100
AcDbLine
 10
61.70179068512486
 20
-28.97016781867535
 30
0.0
 11
65.84373096742671
 21
-28.97016781867535
 31
0.0
  0
ARC
  5
828
330
1F
100
AcDbEntity
  8
SK6
  6
CONTINUOUS
370
25
 62
5
100
AcDbCircle
 10
63.77276183877257
 20
-25.7838320937346
 30
0.0
 40
3.800216899582472
100
AcDbArc
 50
303.0219828477959
 51
326.3732153033476
  0
LINE
  5
829
330
1F
100
AcDbEntity
  8
SK6
  6
CONTINUOUS
370
25
 62
5
100
AcDbLine
 10
66.93705975135722
 20
-27.8883194907709
 30
0.0
 11
63.57976170575461
 21
-27.8883194907709
 31
0.0
  0
LINE
  5
82A
330
1F
100
AcDbEntity
  8
SK6
  6
CONTINUOUS
370
25
 62
5
100
AcDbLine
 10
63.57976170575461
 20
-27.8883194907709
 30
0.0
 11
67.49962109771987
 21
-26.52691829641694
 31
0.0
  0
ARC
  5
82B
330
1F
100
AcDbEntity
  8
SK6
  6
CONTINUOUS
370
25
 62
5
100
AcDbCircle
 10
63.7727625615721
 20
-25.7838326048594
 30
0.0
 40
3.80021721661473
100
AcDbArc
 50
348.7238644184695
 51
53.46910512608842
  0
LINE
  5
82C
330
1F
100
AcDbEntity
  8
SK6
  6
CONTINUOUS
370
25
 62
5
100
AcDbLine
 10
66.03486524538545
 20
-22.73022124429967
 30
0.0
 11
63.83745047882736
 21
-27.18730973507057
 31
0.0
  0
ENDSEC
  0
SECTION
  2
OBJECTS
  0
DICTIONARY
  5
C
330
0
100
AcDbDictionary
281
     1
  3
ACAD_GROUP
350
D
  3
ACAD_LAYOUT
350
1A
  3
ACAD_MATERIAL
350
3B
  3
ACAD_MLEADERSTYLE
350
82F
  3
ACAD_MLINESTYLE
350
17
  3
ACAD_PLOTSETTINGS
350
19
  3
ACAD_PLOTSTYLENAME
350
E
  3
ACAD_SCALELIST
350
21A
  3
ACAD_VISUALSTYLE
350
2A
  3
AcDbVariableDictionary
350
82D
  0
DICTIONARY
  5
D
102
{ACAD_REACTORS
330
C
102
}
330
C
100
AcDbDictionary
281
     1
  0
DICTIONARY
  5
1A
102
{ACAD_REACTORS
330
C
102
}
330
C
100
AcDbDictionary
281
     1
  3
Layout1
350
1E
  3
Layout2
350
26
  3
Model
350
22
  0
DICTIONARY
  5
3B
102
{ACAD_REACTORS
330
C
102
}
330
C
100
AcDbDictionary
281
     1
  3
ByBlock
350
3D
  3
ByLayer
350
3C
  3
Global
350
3E
  0
DICTIONARY
  5
82F
102
{ACAD_REACTORS
330
C
102
}
330
C
100
AcDbDictionary
281
     1
  0
DICTIONARY
  5
17
102
{ACAD_REACTORS
330
C
102
}
330
C
100
AcDbDictionary
281
     1
  3
Standard
350
18
  0
DICTIONARY
  5
19
102
{ACAD_REACTORS
330
C
102
}
330
C
100
AcDbDictionary
281
     1
  0
ACDBDICTIONARYWDFLT
  5
E
102
{ACAD_REACTORS
330
C
102
}
330
C
100
AcDbDictionary
281
     1
  3
Normal
350
F
100
AcDbDictionaryWithDefault
340
F
  0
DICTIONARY
  5
21A
102
{ACAD_REACTORS
330
C
102
}
330
C
100
AcDbDictionary
281
     1
  3
A0
350
21B
  3
A1
350
21C
  3
A2
350
21D
  3
A3
350
21E
  3
A4
350
21F
  3
A5
350
220
  3
A6
350
221
  3
A7
350
222
  3
A8
350
223
  3
A9
350
224
  3
B0
350
225
  3
B1
350
226
  3
B2
350
227
  3
B3
350
228
  3
B4
350
229
  3
B5
350
22A
  3
B6
350
22B
  3
B7
350
22C
  3
B8
350
22D
  3
B9
350
22E
  3
C0
350
22F
  3
C1
350
230
  3
C2
350
231
  3
C3
350
232
  3
C4
350
233
  3
C5
350
234
  3
C6
350
235
  3
C7
350
236
  3
C8
350
237
  3
C9
350
238
  3
D0
350
239
  3
D1
350
23A
  3
D2
350
23B
  0
DICTIONARY
  5
2A
102
{ACAD_REACTORS
330
C
102
}
330
C
100
AcDbDictionary
281
     1
  3
2dWireframe
350
2F
  3
3D Hidden
350
31
  3
3dWireframe
350
30
  3
Basic
350
32
  3
Brighten
350
36
  3
ColorChange
350
3A
  3
Conceptual
350
34
  3
Dim
350
35
  3
Facepattern
350
39
  3
Flat
350
2B
  3
FlatWithEdges
350
2C
  3
Gouraud
350
2D
  3
GouraudWithEdges
350
2E
  3
Linepattern
350
38
  3
Realistic
350
33
  3
Thicken
350
37
  0
DICTIONARY
  5
82D
102
{ACAD_REACTORS
330
C
102
}
330
C
100
AcDbDictionary
281
     1
  3
CANNOSCALE
350
832
  3
DIMASSOC
350
833
  3
HIDETEXT
350
834
  3
PSOLHEIGHT
350
831
  3
PSOLWIDTH
350
830
  0
LAYOUT
  5
1E
102
{ACAD_REACTORS
330
1A
102
}
330
1A
100
AcDbPlotSettings
  1

  2
none_device
  4

  6

 40
0.0
 41
0.0
 42
0.0
 43
0.0
 44
0.0
 45
0.0
 46
0.0
 47
0.0
 48
0.0
 49
0.0
140
0.0
141
0.0
142
1.0
143
1.0
 70
   688
 72
     0
 73
     0
 74
     5
  7

 75
    16
147
1.0
148
0.0
149
0.0
100
AcDbLayout
  1
Layout1
 70
     1
 71
     1
 10
0.0
 20
0.0
 11
420.0
 21
297.0
 12
0.0
 22
0.0
 32
0.0
 14
1.000000000000000E+20
 24
1.000000000000000E+20
 34
1.000000000000000E+20
 15
-1.000000000000000E+20
 25
-1.000000000000000E+20
 35
-1.000000000000000E+20
146
0.0
 13
0.0
 23
0.0
 33
0.0
 16
1.0
 26
0.0
 36
0.0
 17
0.0
 27
1.0
 37
0.0
 76
     0
330
1B
  0
LAYOUT
  5
26
102
{ACAD_REACTORS
330
1A
102
}
330
1A
100
AcDbPlotSettings
  1

  2
none_device
  4

  6

 40
0.0
 41
0.0
 42
0.0
 43
0.0
 44
0.0
 45
0.0
 46
0.0
 47
0.0
 48
0.0
 49
0.0
140
0.0
141
0.0
142
1.0
143
1.0
 70
   688
 72
     0
 73
     0
 74
     5
  7

 75
    16
147
1.0
148
0.0
149
0.0
100
AcDbLayout
  1
Layout2
 70
     1
 71
     2
 10
0.0
 20
0.0
 11
0.0
 21
0.0
 12
0.0
 22
0.0
 32
0.0
 14
0.0
 24
0.0
 34
0.0
 15
0.0
 25
0.0
 35
0.0
146
0.0
 13
0.0
 23
0.0
 33
0.0
 16
1.0
 26
0.0
 36
0.0
 17
0.0
 27
1.0
 37
0.0
 76
     0
330
23
  0
LAYOUT
  5
22
102
{ACAD_REACTORS
330
1A
102
}
330
1A
100
AcDbPlotSettings
  1

  2
none_device
  4

  6

 40
0.0
 41
0.0
 42
0.0
 43
0.0
 44
0.0
 45
0.0
 46
0.0
 47
0.0
 48
0.0
 49
0.0
140
0.0
141
0.0
142
1.0
143
1.0
 70
  1712
 72
     0
 73
     0
 74
     0
  7

 75
     0
147
1.0
148
0.0
149
0.0
100
AcDbLayout
  1
Model
 70
     1
 71
     0
 10
0.0
 20
0.0
 11
420.0
 21
297.0
 12
0.0
 22
0.0
 32
0.0
 14
0.0
 24
0.0
 34
0.0
 15
25.0
 25
35.0
 35
0.0
146
0.0
 13
0.0
 23
0.0
 33
0.0
 16
1.0
 26
0.0
 36
0.0
 17
0.0
 27
1.0
 37
0.0
 76
     0
330
1F
331
29
  0
MATERIAL
  5
3D
102
{ACAD_REACTORS
330
3B
102
}
102
{ACAD_XDICTIONARY
360
857
102
}
330
3B
100
AcDbMaterial
  1
ByBlock
  0
MATERIAL
  5
3C
102
{ACAD_REACTORS
330
3B
102
}
102
{ACAD_XDICTIONARY
360
855
102
}
330
3B
100
AcDbMaterial
  1
ByLayer
  0
MATERIAL
  5
3E
102
{ACAD_REACTORS
330
3B
102
}
102
{ACAD_XDICTIONARY
360
859
102
}
330
3B
100
AcDbMaterial
  1
Global
  0
MLINESTYLE
  5
18
102
{ACAD_REACTORS
330
17
102
}
330
17
100
AcDbMlineStyle
  2
Standard
 70
     0
  3

 62
   256
 51
90.0
 52
90.0
 71
     2
 49
0.5
 62
   256
  6
BYLAYER
 49
-0.5
 62
   256
  6
BYLAYER
  0
ACDBPLACEHOLDER
  5
F
102
{ACAD_REACTORS
330
E
102
}
330
E
  0
SCALE
  5
21B
102
{ACAD_REACTORS
330
21A
102
}
330
21A
100
AcDbScale
 70
     0
300
1:1
140
1.0
141
1.0
290
     1
  0
SCALE
  5
21C
102
{ACAD_REACTORS
330
21A
102
}
330
21A
100
AcDbScale
 70
     0
300
1:2
140
1.0
141
2.0
290
     0
  0
SCALE
  5
21D
102
{ACAD_REACTORS
330
21A
102
}
330
21A
100
AcDbScale
 70
     0
300
1:4
140
1.0
141
4.0
290
     0
  0
SCALE
  5
21E
102
{ACAD_REACTORS
330
21A
102
}
330
21A
100
AcDbScale
 70
     0
300
1:5
140
1.0
141
5.0
290
     0
  0
SCALE
  5
21F
102
{ACAD_REACTORS
330
21A
102
}
330
21A
100
AcDbScale
 70
     0
300
1:8
140
1.0
141
8.0
290
     0
  0
SCALE
  5
220
102
{ACAD_REACTORS
330
21A
102
}
330
21A
100
AcDbScale
 70
     0
300
1:10
140
1.0
141
10.0
290
     0
  0
SCALE
  5
221
102
{ACAD_REACTORS
330
21A
102
}
330
21A
100
AcDbScale
 70
     0
300
1:16
140
1.0
141
16.0
290
     0
  0
SCALE
  5
222
102
{ACAD_REACTORS
330
21A
102
}
330
21A
100
AcDbScale
 70
     0
300
1:20
140
1.0
141
20.0
290
     0
  0
SCALE
  5
223
102
{ACAD_REACTORS
330
21A
102
}
330
21A
100
AcDbScale
 70
     0
300
1:30
140
1.0
141
30.0
290
     0
  0
SCALE
  5
224
102
{ACAD_REACTORS
330
21A
102
}
330
21A
100
AcDbScale
 70
     0
300
1:40
140
1.0
141
40.0
290
     0
  0
SCALE
  5
225
102
{ACAD_REACTORS
330
21A
102
}
330
21A
100
AcDbScale
 70
     0
300
1:50
140
1.0
141
50.0
290
     0
  0
SCALE
  5
226
102
{ACAD_REACTORS
330
21A
102
}
330
21A
100
AcDbScale
 70
     0
300
1:100
140
1.0
141
100.0
290
     0
  0
SCALE
  5
227
102
{ACAD_REACTORS
330
21A
102
}
330
21A
100
AcDbScale
 70
     0
300
2:1
140
2.0
141
1.0
290
     0
  0
SCALE
  5
228
102
{ACAD_REACTORS
330
21A
102
}
330
21A
100
AcDbScale
 70
     0
300
4:1
140
4.0
141
1.0
290
     0
  0
SCALE
  5
229
102
{ACAD_REACTORS
330
21A
102
}
330
21A
100
AcDbScale
 70
     0
300
8:1
140
8.0
141
1.0
290
     0
  0
SCALE
  5
22A
102
{ACAD_REACTORS
330
21A
102
}
330
21A
100
AcDbScale
 70
     0
300
10:1
140
10.0
141
1.0
290
     0
  0
SCALE
  5
22B
102
{ACAD_REACTORS
330
21A
102
}
330
21A
100
AcDbScale
 70
     0
300
100:1
140
100.0
141
1.0
290
     0
  0
SCALE
  5
22C
102
{ACAD_REACTORS
330
21A
102
}
330
21A
100
AcDbScale
 70
     0
300
1/128" = 1'-0"
140
0.0078125
141
12.0
290
     0
  0
SCALE
  5
22D
102
{ACAD_REACTORS
330
21A
102
}
330
21A
100
AcDbScale
 70
     0
300
1/64" = 1'-0"
140
0.015625
141
12.0
290
     0
  0
SCALE
  5
22E
102
{ACAD_REACTORS
330
21A
102
}
330
21A
100
AcDbScale
 70
     0
300
1/32" = 1'-0"
140
0.03125
141
12.0
290
     0
  0
SCALE
  5
22F
102
{ACAD_REACTORS
330
21A
102
}
330
21A
100
AcDbScale
 70
     0
300
1/16" = 1'-0"
140
0.0625
141
12.0
290
     0
  0
SCALE
  5
230
102
{ACAD_REACTORS
330
21A
102
}
330
21A
100
AcDbScale
 70
     0
300
3/32" = 1'-0"
140
0.09375
141
12.0
290
     0
  0
SCALE
  5
231
102
{ACAD_REACTORS
330
21A
102
}
330
21A
100
AcDbScale
 70
     0
300
1/8" = 1'-0"
140
0.125
141
12.0
290
     0
  0
SCALE
  5
232
102
{ACAD_REACTORS
330
21A
102
}
330
21A
100
AcDbScale
 70
     0
300
3/16" = 1'-0"
140
0.1875
141
12.0
290
     0
  0
SCALE
  5
233
102
{ACAD_REACTORS
330
21A
102
}
330
21A
100
AcDbScale
 70
     0
300
1/4" = 1'-0"
140
0.25
141
12.0
290
     0
  0
SCALE
  5
234
102
{ACAD_REACTORS
330
21A
102
}
330
21A
100
AcDbScale
 70
     0
300
3/8" = 1'-0"
140
0.375
141
12.0
290
     0
  0
SCALE
  5
235
102
{ACAD_REACTORS
330
21A
102
}
330
21A
100
AcDbScale
 70
     0
300
1/2" = 1'-0"
140
0.5
141
12.0
290
     0
  0
SCALE
  5
236
102
{ACAD_REACTORS
330
21A
102
}
330
21A
100
AcDbScale
 70
     0
300
3/4" = 1'-0"
140
0.75
141
12.0
290
     0
  0
SCALE
  5
237
102
{ACAD_REACTORS
330
21A
102
}
330
21A
100
AcDbScale
 70
     0
300
1" = 1'-0"
140
1.0
141
12.0
290
     0
  0
SCALE
  5
238
102
{ACAD_REACTORS
330
21A
102
}
330
21A
100
AcDbScale
 70
     0
300
1-1/2" = 1'-0"
140
1.5
141
12.0
290
     0
  0
SCALE
  5
239
102
{ACAD_REACTORS
330
21A
102
}
330
21A
100
AcDbScale
 70
     0
300
3" = 1'-0"
140
3.0
141
12.0
290
     0
  0
SCALE
  5
23A
102
{ACAD_REACTORS
330
21A
102
}
330
21A
100
AcDbScale
 70
     0
300
6" = 1'-0"
140
6.0
141
12.0
290
     0
  0
SCALE
  5
23B
102
{ACAD_REACTORS
330
21A
102
}
330
21A
100
AcDbScale
 70
     0
300
1'-0" = 1'-0"
140
12.0
141
12.0
290
     0
  0
VISUALSTYLE
  5
2F
102
{ACAD_REACTORS
330
2A
102
}
102
{ACAD_XDICTIONARY
360
83D
102
}
330
2A
100
AcDbVisualStyle
  2
2dWireframe
 70
     4
 71
     0
 72
     2
 73
     0
 90
        0
 40
-0.6
 41
-30.0
 62
     5
 63
     7
 74
     1
 91
        4
 64
     7
 65
   257
 75
     1
175
     1
 42
1.0
 92
        0
 66
   257
 43
1.0
 76
     1
 77
     6
 78
     2
 67
     7
 79
     5
170
     0
171
     0
290
     0
174
     0
 93
        1
 44
0.0
173
     0
291
     0
 45
0.0
1001
ACAD
1000
AcDbSavedByObjectVersion
1070
     0
  0
VISUALSTYLE
  5
31
102
{ACAD_REACTORS
330
2A
102
}
102
{ACAD_XDICTIONARY
360
841
102
}
330
2A
100
AcDbVisualStyle
  2
3D Hidden
 70
     6
 71
     1
 72
     2
 73
     2
 90
        0
 40
-0.6
 41
-30.0
 62
     5
 63
     7
 74
     2
 91
        2
 64
     7
 65
   257
 75
     2
175
     1
 42
40.0
 92
        0
 66
   257
 43
1.0
 76
     1
 77
     6
 78
     2
 67
     7
 79
     3
170
     0
171
     0
290
     0
174
     0
 93
        1
 44
0.0
173
     0
291
     0
 45
0.0
1001
ACAD
1000
AcDbSavedByObjectVersion
1070
     0
  0
VISUALSTYLE
  5
30
102
{ACAD_REACTORS
330
2A
102
}
102
{ACAD_XDICTIONARY
360
83F
102
}
330
2A
100
AcDbVisualStyle
  2
3dWireframe
 70
     5
 71
     0
 72
     2
 73
     0
 90
        0
 40
-0.6
 41
-30.0
 62
     5
 63
     7
 74
     1
 91
        4
 64
     7
 65
   257
 75
     1
175
     1
 42
1.0
 92
        0
 66
   257
 43
1.0
 76
     1
 77
     6
 78
     2
 67
     7
 79
     5
170
     0
171
     0
290
     0
174
     0
 93
        1
 44
0.0
173
     0
291
     0
 45
0.0
1001
ACAD
1000
AcDbSavedByObjectVersion
1070
     0
  0
VISUALSTYLE
  5
32
102
{ACAD_REACTORS
330
2A
102
}
102
{ACAD_XDICTIONARY
360
843
102
}
330
2A
100
AcDbVisualStyle
  2
Basic
 70
     7
 71
     1
 72
     0
 73
     1
 90
        0
 40
-0.6
 41
-30.0
 62
     5
 63
     7
 74
     0
 91
        4
 64
     7
 65
   257
 75
     1
175
     1
 42
1.0
 92
        8
 66
     7
 43
1.0
 76
     1
 77
     6
 78
     2
 67
     7
 79
     5
170
     0
171
     0
290
     0
174
     0
 93
        1
 44
0.0
173
     0
291
     1
 45
0.0
1001
ACAD
1000
AcDbSavedByObjectVersion
1070
     0
  0
VISUALSTYLE
  5
36
102
{ACAD_REACTORS
330
2A
102
}
102
{ACAD_XDICTIONARY
360
84B
102
}
330
2A
100
AcDbVisualStyle
  2
Brighten
 70
    12
 71
     2
 72
     2
 73
     0
 90
        0
 40
-0.6
 41
-30.0
 62
     5
 63
     7
 74
     1
 91
        4
 64
     7
 65
   257
 75
     1
175
     1
 42
1.0
 92
        8
 66
     7
 43
1.0
 76
     1
 77
     6
 78
     2
 67
     7
 79
     5
170
     0
171
     0
290
     0
174
     0
 93
        1
 44
50.0
173
     0
291
     1
 45
0.0
1001
ACAD
1000
AcDbSavedByObjectVersion
1070
     0
  0
VISUALSTYLE
  5
3A
102
{ACAD_REACTORS
330
2A
102
}
102
{ACAD_XDICTIONARY
360
853
102
}
330
2A
100
AcDbVisualStyle
  2
ColorChange
 70
    16
 71
     2
 72
     2
 73
     3
 90
        0
 40
-0.6
 41
-30.0
 62
     5
 63
     8
 74
     1
 91
        4
 64
     7
 65
   257
 75
     1
175
     1
 42
1.0
 92
        8
 66
     8
 43
1.0
 76
     1
 77
     6
 78
     2
 67
     7
 79
     5
170
     0
171
     0
290
     0
174
     0
 93
        1
 44
0.0
173
     0
291
     1
 45
0.0
1001
ACAD
1000
AcDbSavedByObjectVersion
1070
     0
  0
VISUALSTYLE
  5
34
102
{ACAD_REACTORS
330
2A
102
}
102
{ACAD_XDICTIONARY
360
847
102
}
330
2A
100
AcDbVisualStyle
  2
Conceptual
 70
     9
 71
     3
 72
     2
 73
     0
 90
        0
 40
-0.6
 41
-30.0
 62
     5
 63
     7
 74
     2
 91
        2
 64
     7
 65
   257
 75
     1
175
     1
 42
40.0
 92
        8
 66
     7
 43
1.0
 76
     1
 77
     6
 78
     2
 67
     7
 79
     3
170
     0
171
     0
290
     0
174
     0
 93
        1
 44
0.0
173
     0
291
     0
 45
0.0
1001
ACAD
1000
AcDbSavedByObjectVersion
1070
     0
  0
VISUALSTYLE
  5
35
102
{ACAD_REACTORS
330
2A
102
}
102
{ACAD_XDICTIONARY
360
849
102
}
330
2A
100
AcDbVisualStyle
  2
Dim
 70
    11
 71
     2
 72
     2
 73
     0
 90
        0
 40
-0.6
 41
-30.0
 62
     5
 63
     7
 74
     1
 91
        4
 64
     7
 65
   257
 75
     1
175
     1
 42
1.0
 92
        8
 66
     7
 43
1.0
 76
     1
 77
     6
 78
     2
 67
     7
 79
     5
170
     0
171
     0
290
     0
174
     0
 93
        1
 44
-50.0
173
     0
291
     1
 45
0.0
1001
ACAD
1000
AcDbSavedByObjectVersion
1070
     0
  0
VISUALSTYLE
  5
39
102
{ACAD_REACTORS
330
2A
102
}
102
{ACAD_XDICTIONARY
360
851
102
}
330
2A
100
AcDbVisualStyle
  2
Facepattern
 70
    15
 71
     2
 72
     2
 73
     0
 90
        0
 40
-0.6
 41
-30.0
 62
     5
 63
     7
 74
     1
 91
        4
 64
     7
 65
   257
 75
     1
175
     1
 42
1.0
 92
        8
 66
     7
 43
1.0
 76
     1
 77
     6
 78
     2
 67
     7
 79
     5
170
     0
171
     0
290
     0
174
     0
 93
        1
 44
0.0
173
     0
291
     1
 45
0.0
1001
ACAD
1000
AcDbSavedByObjectVersion
1070
     0
  0
VISUALSTYLE
  5
2B
102
{ACAD_REACTORS
330
2A
102
}
102
{ACAD_XDICTIONARY
360
835
102
}
330
2A
100
AcDbVisualStyle
  2
Flat
 70
     0
 71
     2
 72
     1
 73
     1
 90
        2
 40
-0.6
 41
30.0
 62
     5
 63
     7
 74
     0
 91
        4
 64
     7
 65
   257
 75
     1
175
     1
 42
1.0
 92
        8
 66
     7
 43
1.0
 76
     1
 77
     6
 78
     2
 67
     7
 79
     5
170
     0
171
     0
290
     0
174
     0
 93
       13
 44
0.0
173
     0
291
     1
 45
0.0
1001
ACAD
1000
AcDbSavedByObjectVersion
1070
     0
  0
VISUALSTYLE
  5
2C
102
{ACAD_REACTORS
330
2A
102
}
102
{ACAD_XDICTIONARY
360
837
102
}
330
2A
100
AcDbVisualStyle
  2
FlatWithEdges
 70
     1
 71
     2
 72
     1
 73
     1
 90
        2
 40
-0.6
 41
30.0
 62
     5
 63
     7
 74
     1
 91
        4
 64
     7
 65
   257
 75
     1
175
     1
 42
1.0
 92
        0
 66
   257
 43
1.0
 76
     1
 77
     6
 78
     2
 67
     7
 79
     5
170
     0
171
     0
290
     0
174
     0
 93
       13
 44
0.0
173
     0
291
     1
 45
0.0
1001
ACAD
1000
AcDbSavedByObjectVersion
1070
     0
  0
VISUALSTYLE
  5
2D
102
{ACAD_REACTORS
330
2A
102
}
102
{ACAD_XDICTIONARY
360
839
102
}
330
2A
100
AcDbVisualStyle
  2
Gouraud
 70
     2
 71
     2
 72
     2
 73
     1
 90
        2
 40
-0.6
 41
30.0
 62
     5
 63
     7
 74
     0
 91
        4
 64
     7
 65
   257
 75
     1
175
     1
 42
1.0
 92
        0
 66
     7
 43
1.0
 76
     1
 77
     6
 78
     2
 67
     7
 79
     5
170
     0
171
     0
290
     0
174
     0
 93
       13
 44
0.0
173
     0
291
     1
 45
0.0
1001
ACAD
1000
AcDbSavedByObjectVersion
1070
     0
  0
VISUALSTYLE
  5
2E
102
{ACAD_REACTORS
330
2A
102
}
102
{ACAD_XDICTIONARY
360
83B
102
}
330
2A
100
AcDbVisualStyle
  2
GouraudWithEdges
 70
     3
 71
     2
 72
     2
 73
     1
 90
        2
 40
-0.6
 41
30.0
 62
     5
 63
     7
 74
     1
 91
        4
 64
     7
 65
   257
 75
     1
175
     1
 42
1.0
 92
        0
 66
   257
 43
1.0
 76
     1
 77
     6
 78
     2
 67
     7
 79
     5
170
     0
171
     0
290
     0
174
     0
 93
       13
 44
0.0
173
     0
291
     1
 45
0.0
1001
ACAD
1000
AcDbSavedByObjectVersion
1070
     0
  0
VISUALSTYLE
  5
38
102
{ACAD_REACTORS
330
2A
102
}
102
{ACAD_XDICTIONARY
360
84F
102
}
330
2A
100
AcDbVisualStyle
  2
Linepattern
 70
    14
 71
     2
 72
     2
 73
     0
 90
        0
 40
-0.6
 41
-30.0
 62
     5
 63
     7
 74
     1
 91
        4
 64
     7
 65
   257
 75
     7
175
     7
 42
1.0
 92
        8
 66
     7
 43
1.0
 76
     1
 77
     6
 78
     2
 67
     7
 79
     5
170
     0
171
     0
290
     0
174
     0
 93
        1
 44
0.0
173
     0
291
     1
 45
0.0
1001
ACAD
1000
AcDbSavedByObjectVersion
1070
     0
  0
VISUALSTYLE
  5
33
102
{ACAD_REACTORS
330
2A
102
}
102
{ACAD_XDICTIONARY
360
845
102
}
330
2A
100
AcDbVisualStyle
  2
Realistic
 70
     8
 71
     2
 72
     2
 73
     0
 90
        0
 40
-0.6
 41
-30.0
 62
     5
 63
     7
 74
     1
 91
        0
 64
     7
 65
   257
 75
     1
175
     1
 42
1.0
 92
        8
 66
     8
 43
1.0
 76
     1
 77
     6
 78
     2
 67
     7
 79
     5
170
     0
171
     0
290
     0
174
     0
 93
       13
 44
0.0
173
     0
291
     0
 45
0.0
1001
ACAD
1000
AcDbSavedByObjectVersion
1070
     0
  0
VISUALSTYLE
  5
37
102
{ACAD_REACTORS
330
2A
102
}
102
{ACAD_XDICTIONARY
360
84D
102
}
330
2A
100
AcDbVisualStyle
  2
Thicken
 70
    13
 71
     2
 72
     2
 73
     0
 90
        0
 40
-0.6
 41
-30.0
 62
     5
 63
     7
 74
     1
 91
        4
 64
     7
 65
   257
 75
     1
175
     1
 42
1.0
 92
       12
 66
     7
 43
1.0
 76
     1
 77
     6
 78
     2
 67
     7
 79
     5
170
     0
171
     0
290
     0
174
     0
 93
        1
 44
0.0
173
     0
291
     1
 45
0.0
1001
ACAD
1000
AcDbSavedByObjectVersion
1070
     0
  0
DICTIONARYVAR
  5
832
102
{ACAD_REACTORS
330
82D
102
}
330
82D
100
DictionaryVariables
280
     0
  1
1:1
  0
DICTIONARYVAR
  5
833
102
{ACAD_REACTORS
330
82D
102
}
330
82D
100
DictionaryVariables
280
     0
  1
2
  0
DICTIONARYVAR
  5
834
102
{ACAD_REACTORS
330
82D
102
}
330
82D
100
DictionaryVariables
280
     0
  1
1
  0
DICTIONARYVAR
  5
831
102
{ACAD_REACTORS
330
82D
102
}
330
82D
100
DictionaryVariables
280
     0
  1
80.000000
  0
DICTIONARYVAR
  5
830
102
{ACAD_REACTORS
330
82D
102
}
330
82D
100
DictionaryVariables
280
     0
  1
5.000000
  0
DICTIONARY
  5
857
330
3D
100
AcDbDictionary
280
     1
281
     1
  3
ACAD_XREC_ROUNDTRIP
360
858
  0
DICTIONARY
  5
855
330
3C
100
AcDbDictionary
280
     1
281
     1
  3
ACAD_XREC_ROUNDTRIP
360
856
  0
DICTIONARY
  5
859
330
3E
100
AcDbDictionary
280
     1
281
     1
  3
ACAD_XREC_ROUNDTRIP
360
85A
  0
DICTIONARY
  5
83D
330
2F
100
AcDbDictionary
280
     1
281
     1
  3
ACAD_XREC_ROUNDTRIP
360
83E
  0
DICTIONARY
  5
841
330
31
100
AcDbDictionary
280
     1
281
     1
  3
ACAD_XREC_ROUNDTRIP
360
842
  0
DICTIONARY
  5
83F
330
30
100
AcDbDictionary
280
     1
281
     1
  3
ACAD_XREC_ROUNDTRIP
360
840
  0
DICTIONARY
  5
843
330
32
100
AcDbDictionary
280
     1
281
     1
  3
ACAD_XREC_ROUNDTRIP
360
844
  0
DICTIONARY
  5
84B
330
36
100
AcDbDictionary
280
     1
281
     1
  3
ACAD_XREC_ROUNDTRIP
360
84C
  0
DICTIONARY
  5
853
330
3A
100
AcDbDictionary
280
     1
281
     1
  3
ACAD_XREC_ROUNDTRIP
360
854
  0
DICTIONARY
  5
847
330
34
100
AcDbDictionary
280
     1
281
     1
  3
ACAD_XREC_ROUNDTRIP
360
848
  0
DICTIONARY
  5
849
330
35
100
AcDbDictionary
280
     1
281
     1
  3
ACAD_XREC_ROUNDTRIP
360
84A
  0
DICTIONARY
  5
851
330
39
100
AcDbDictionary
280
     1
281
     1
  3
ACAD_XREC_ROUNDTRIP
360
852
  0
DICTIONARY
  5
835
330
2B
100
AcDbDictionary
280
     1
281
     1
  3
ACAD_XREC_ROUNDTRIP
360
836
  0
DICTIONARY
  5
837
330
2C
100
AcDbDictionary
280
     1
281
     1
  3
ACAD_XREC_ROUNDTRIP
360
838
  0
DICTIONARY
  5
839
330
2D
100
AcDbDictionary
280
     1
281
     1
  3
ACAD_XREC_ROUNDTRIP
360
83A
  0
DICTIONARY
  5
83B
330
2E
100
AcDbDictionary
280
     1
281
     1
  3
ACAD_XREC_ROUNDTRIP
360
83C
  0
DICTIONARY
  5
84F
330
38
100
AcDbDictionary
280
     1
281
     1
  3
ACAD_XREC_ROUNDTRIP
360
850
  0
DICTIONARY
  5
845
330
33
100
AcDbDictionary
280
     1
281
     1
  3
ACAD_XREC_ROUNDTRIP
360
846
  0
DICTIONARY
  5
84D
330
37
100
AcDbDictionary
280
     1
281
     1
  3
ACAD_XREC_ROUNDTRIP
360
84E
  0
XRECORD
  5
858
102
{ACAD_REACTORS
330
857
102
}
330
857
100
AcDbXrecord
280
     1
102
MATERIAL
148
0.0
149
0.0
149
0.0
 93
        0
 94
      127
282
     0
 72
     1
 77
     1
171
     1
175
     1
179
     1
273
     0
  0
XRECORD
  5
856
102
{ACAD_REACTORS
330
855
102
}
330
855
100
AcDbXrecord
280
     1
102
MATERIAL
148
0.0
149
0.0
149
0.0
 93
        0
 94
      127
282
     0
 72
     1
 77
     1
171
     1
175
     1
179
     1
273
     0
  0
XRECORD
  5
85A
102
{ACAD_REACTORS
330
859
102
}
330
859
100
AcDbXrecord
280
     1
102
MATERIAL
148
0.0
149
0.0
149
0.0
 93
        0
 94
      127
282
     0
 72
     1
 77
     1
171
     1
175
     1
179
     1
273
     0
  0
XRECORD
  5
83E
102
{ACAD_REACTORS
330
83D
102
}
330
83D
100
AcDbXrecord
280
     1
102
RTVSPropertyOp0
 70
     1
102
RTVSPropertyOp1
 70
     1
102
RTVSPropertyOp2
 70
     1
102
RTVSPropertyOp3
 70
     1
102
RTVSPropertyOp4
 70
     1
102
RTVSPropertyOp5
 70
     1
102
RTVSPropertyOp6
 70
     1
102
RTVSPropertyOp7
 70
     1
102
RTVSPropertyOp8
 70
     1
102
RTVSPropertyOp9
 70
     1
102
RTVSPropertyOp10
 70
     1
102
RTVSPropertyOp11
 70
     1
102
RTVSPropertyOp12
 70
     1
102
RTVSPropertyOp13
 70
     1
102
RTVSPropertyOp14
 70
     1
102
RTVSPropertyOp15
 70
     1
102
RTVSPropertyOp16
 70
     1
102
RTVSPropertyOp17
 70
     1
102
RTVSPropertyOp18
 70
     1
102
RTVSPropertyOp19
 70
     1
102
RTVSPropertyOp20
 70
     1
102
RTVSPropertyOp21
 70
     1
102
RTVSPropertyOp22
 70
     1
102
RTVSPropertyOp23
 70
     1
102
RTVSPropertyOp24
 70
     1
102
RTVSPropertyOp25
 70
     1
102
RTVSPropertyOp26
 70
     1
102
RTVSPropertyOp27
 70
     1
  0
XRECORD
  5
842
102
{ACAD_REACTORS
330
841
102
}
330
841
100
AcDbXrecord
280
     1
102
RTVSPropertyOp0
 70
     1
102
RTVSPropertyOp1
 70
     1
102
RTVSPropertyOp2
 70
     1
102
RTVSPropertyOp3
 70
     1
102
RTVSPropertyOp4
 70
     1
102
RTVSPropertyOp5
 70
     1
102
RTVSPropertyOp6
 70
     1
102
RTVSPropertyOp7
 70
     1
102
RTVSPropertyOp8
 70
     1
102
RTVSPropertyOp9
 70
     1
102
RTVSPropertyOp10
 70
     1
102
RTVSPropertyOp11
 70
     1
102
RTVSPropertyOp12
 70
     1
102
RTVSPropertyOp13
 70
     1
102
RTVSPropertyOp14
 70
     1
102
RTVSPropertyOp15
 70
     1
102
RTVSPropertyOp16
 70
     1
102
RTVSPropertyOp17
 70
     1
102
RTVSPropertyOp18
 70
     1
102
RTVSPropertyOp19
 70
     1
102
RTVSPropertyOp20
 70
     1
102
RTVSPropertyOp21
 70
     1
102
RTVSPropertyOp22
 70
     1
102
RTVSPropertyOp23
 70
     1
102
RTVSPropertyOp24
 70
     1
102
RTVSPropertyOp25
 70
     1
102
RTVSPropertyOp26
 70
     1
102
RTVSPropertyOp27
 70
     1
  0
XRECORD
  5
840
102
{ACAD_REACTORS
330
83F
102
}
330
83F
100
AcDbXrecord
280
     1
102
RTVSPropertyOp0
 70
     1
102
RTVSPropertyOp1
 70
     1
102
RTVSPropertyOp2
 70
     1
102
RTVSPropertyOp3
 70
     1
102
RTVSPropertyOp4
 70
     1
102
RTVSPropertyOp5
 70
     1
102
RTVSPropertyOp6
 70
     1
102
RTVSPropertyOp7
 70
     1
102
RTVSPropertyOp8
 70
     1
102
RTVSPropertyOp9
 70
     1
102
RTVSPropertyOp10
 70
     1
102
RTVSPropertyOp11
 70
     1
102
RTVSPropertyOp12
 70
     1
102
RTVSPropertyOp13
 70
     1
102
RTVSPropertyOp14
 70
     1
102
RTVSPropertyOp15
 70
     1
102
RTVSPropertyOp16
 70
     1
102
RTVSPropertyOp17
 70
     1
102
RTVSPropertyOp18
 70
     1
102
RTVSPropertyOp19
 70
     1
102
RTVSPropertyOp20
 70
     1
102
RTVSPropertyOp21
 70
     1
102
RTVSPropertyOp22
 70
     1
102
RTVSPropertyOp23
 70
     1
102
RTVSPropertyOp24
 70
     1
102
RTVSPropertyOp25
 70
     1
102
RTVSPropertyOp26
 70
     1
102
RTVSPropertyOp27
 70
     1
  0
XRECORD
  5
844
102
{ACAD_REACTORS
330
843
102
}
330
843
100
AcDbXrecord
280
     1
102
RTVSPropertyOp0
 70
     1
102
RTVSPropertyOp1
 70
     1
102
RTVSPropertyOp2
 70
     1
102
RTVSPropertyOp3
 70
     1
102
RTVSPropertyOp4
 70
     1
102
RTVSPropertyOp5
 70
     1
102
RTVSPropertyOp6
 70
     1
102
RTVSPropertyOp7
 70
     1
102
RTVSPropertyOp8
 70
     1
102
RTVSPropertyOp9
 70
     1
102
RTVSPropertyOp10
 70
     1
102
RTVSPropertyOp11
 70
     1
102
RTVSPropertyOp12
 70
     1
102
RTVSPropertyOp13
 70
     1
102
RTVSPropertyOp14
 70
     1
102
RTVSPropertyOp15
 70
     1
102
RTVSPropertyOp16
 70
     1
102
RTVSPropertyOp17
 70
     1
102
RTVSPropertyOp18
 70
     1
102
RTVSPropertyOp19
 70
     1
102
RTVSPropertyOp20
 70
     1
102
RTVSPropertyOp21
 70
     1
102
RTVSPropertyOp22
 70
     1
102
RTVSPropertyOp23
 70
     1
102
RTVSPropertyOp24
 70
     1
102
RTVSPropertyOp25
 70
     1
102
RTVSPropertyOp26
 70
     1
102
RTVSPropertyOp27
 70
     1
  0
XRECORD
  5
84C
102
{ACAD_REACTORS
330
84B
102
}
330
84B
100
AcDbXrecord
280
     1
102
RTVSPropertyOp0
 70
     1
102
RTVSPropertyOp1
 70
     1
102
RTVSPropertyOp2
 70
     1
102
RTVSPropertyOp3
 70
     1
102
RTVSPropertyOp4
 70
     1
102
RTVSPropertyOp5
 70
     1
102
RTVSPropertyOp6
 70
     1
102
RTVSPropertyOp7
 70
     1
102
RTVSPropertyOp8
 70
     1
102
RTVSPropertyOp9
 70
     1
102
RTVSPropertyOp10
 70
     1
102
RTVSPropertyOp11
 70
     1
102
RTVSPropertyOp12
 70
     1
102
RTVSPropertyOp13
 70
     1
102
RTVSPropertyOp14
 70
     1
102
RTVSPropertyOp15
 70
     1
102
RTVSPropertyOp16
 70
     1
102
RTVSPropertyOp17
 70
     1
102
RTVSPropertyOp18
 70
     1
102
RTVSPropertyOp19
 70
     1
102
RTVSPropertyOp20
 70
     1
102
RTVSPropertyOp21
 70
     1
102
RTVSPropertyOp22
 70
     1
102
RTVSPropertyOp23
 70
     1
102
RTVSPropertyOp24
 70
     1
102
RTVSPropertyOp25
 70
     1
102
RTVSPropertyOp26
 70
     1
102
RTVSPropertyOp27
 70
     1
  0
XRECORD
  5
854
102
{ACAD_REACTORS
330
853
102
}
330
853
100
AcDbXrecord
280
     1
102
RTVSPropertyOp0
 70
     1
102
RTVSPropertyOp1
 70
     1
102
RTVSPropertyOp2
 70
     1
102
RTVSPropertyOp3
 70
     1
102
RTVSPropertyOp4
 70
     1
102
RTVSPropertyOp5
 70
     1
102
RTVSPropertyOp6
 70
     1
102
RTVSPropertyOp7
 70
     1
102
RTVSPropertyOp8
 70
     1
102
RTVSPropertyOp9
 70
     1
102
RTVSPropertyOp10
 70
     1
102
RTVSPropertyOp11
 70
     1
102
RTVSPropertyOp12
 70
     1
102
RTVSPropertyOp13
 70
     1
102
RTVSPropertyOp14
 70
     1
102
RTVSPropertyOp15
 70
     1
102
RTVSPropertyOp16
 70
     1
102
RTVSPropertyOp17
 70
     1
102
RTVSPropertyOp18
 70
     1
102
RTVSPropertyOp19
 70
     1
102
RTVSPropertyOp20
 70
     1
102
RTVSPropertyOp21
 70
     1
102
RTVSPropertyOp22
 70
     1
102
RTVSPropertyOp23
 70
     1
102
RTVSPropertyOp24
 70
     1
102
RTVSPropertyOp25
 70
     1
102
RTVSPropertyOp26
 70
     1
102
RTVSPropertyOp27
 70
     1
  0
XRECORD
  5
848
102
{ACAD_REACTORS
330
847
102
}
330
847
100
AcDbXrecord
280
     1
102
RTVSPropertyOp0
 70
     1
102
RTVSPropertyOp1
 70
     1
102
RTVSPropertyOp2
 70
     1
102
RTVSPropertyOp3
 70
     1
102
RTVSPropertyOp4
 70
     1
102
RTVSPropertyOp5
 70
     1
102
RTVSPropertyOp6
 70
     1
102
RTVSPropertyOp7
 70
     1
102
RTVSPropertyOp8
 70
     1
102
RTVSPropertyOp9
 70
     1
102
RTVSPropertyOp10
 70
     1
102
RTVSPropertyOp11
 70
     1
102
RTVSPropertyOp12
 70
     1
102
RTVSPropertyOp13
 70
     1
102
RTVSPropertyOp14
 70
     1
102
RTVSPropertyOp15
 70
     1
102
RTVSPropertyOp16
 70
     1
102
RTVSPropertyOp17
 70
     1
102
RTVSPropertyOp18
 70
     1
102
RTVSPropertyOp19
 70
     1
102
RTVSPropertyOp20
 70
     1
102
RTVSPropertyOp21
 70
     1
102
RTVSPropertyOp22
 70
     1
102
RTVSPropertyOp23
 70
     1
102
RTVSPropertyOp24
 70
     1
102
RTVSPropertyOp25
 70
     1
102
RTVSPropertyOp26
 70
     1
102
RTVSPropertyOp27
 70
     1
  0
XRECORD
  5
84A
102
{ACAD_REACTORS
330
849
102
}
330
849
100
AcDbXrecord
280
     1
102
RTVSPropertyOp0
 70
     1
102
RTVSPropertyOp1
 70
     1
102
RTVSPropertyOp2
 70
     1
102
RTVSPropertyOp3
 70
     1
102
RTVSPropertyOp4
 70
     1
102
RTVSPropertyOp5
 70
     1
102
RTVSPropertyOp6
 70
     1
102
RTVSPropertyOp7
 70
     1
102
RTVSPropertyOp8
 70
     1
102
RTVSPropertyOp9
 70
     1
102
RTVSPropertyOp10
 70
     1
102
RTVSPropertyOp11
 70
     1
102
RTVSPropertyOp12
 70
     1
102
RTVSPropertyOp13
 70
     1
102
RTVSPropertyOp14
 70
     1
102
RTVSPropertyOp15
 70
     1
102
RTVSPropertyOp16
 70
     1
102
RTVSPropertyOp17
 70
     1
102
RTVSPropertyOp18
 70
     1
102
RTVSPropertyOp19
 70
     1
102
RTVSPropertyOp20
 70
     1
102
RTVSPropertyOp21
 70
     1
102
RTVSPropertyOp22
 70
     1
102
RTVSPropertyOp23
 70
     1
102
RTVSPropertyOp24
 70
     1
102
RTVSPropertyOp25
 70
     1
102
RTVSPropertyOp26
 70
     1
102
RTVSPropertyOp27
 70
     1
  0
XRECORD
  5
852
102
{ACAD_REACTORS
330
851
102
}
330
851
100
AcDbXrecord
280
     1
102
RTVSPropertyOp0
 70
     1
102
RTVSPropertyOp1
 70
     1
102
RTVSPropertyOp2
 70
     1
102
RTVSPropertyOp3
 70
     1
102
RTVSPropertyOp4
 70
     1
102
RTVSPropertyOp5
 70
     1
102
RTVSPropertyOp6
 70
     1
102
RTVSPropertyOp7
 70
     1
102
RTVSPropertyOp8
 70
     1
102
RTVSPropertyOp9
 70
     1
102
RTVSPropertyOp10
 70
     1
102
RTVSPropertyOp11
 70
     1
102
RTVSPropertyOp12
 70
     1
102
RTVSPropertyOp13
 70
     1
102
RTVSPropertyOp14
 70
     1
102
RTVSPropertyOp15
 70
     1
102
RTVSPropertyOp16
 70
     1
102
RTVSPropertyOp17
 70
     1
102
RTVSPropertyOp18
 70
     1
102
RTVSPropertyOp19
 70
     1
102
RTVSPropertyOp20
 70
     1
102
RTVSPropertyOp21
 70
     1
102
RTVSPropertyOp22
 70
     1
102
RTVSPropertyOp23
 70
     1
102
RTVSPropertyOp24
 70
     1
102
RTVSPropertyOp25
 70
     1
102
RTVSPropertyOp26
 70
     1
102
RTVSPropertyOp27
 70
     1
  0
XRECORD
  5
836
102
{ACAD_REACTORS
330
835
102
}
330
835
100
AcDbXrecord
280
     1
102
RTVSPropertyOp0
 70
     1
102
RTVSPropertyOp1
 70
     1
102
RTVSPropertyOp2
 70
     1
102
RTVSPropertyOp3
 70
     1
102
RTVSPropertyOp4
 70
     1
102
RTVSPropertyOp5
 70
     1
102
RTVSPropertyOp6
 70
     1
102
RTVSPropertyOp7
 70
     1
102
RTVSPropertyOp8
 70
     1
102
RTVSPropertyOp9
 70
     1
102
RTVSPropertyOp10
 70
     1
102
RTVSPropertyOp11
 70
     1
102
RTVSPropertyOp12
 70
     1
102
RTVSPropertyOp13
 70
     1
102
RTVSPropertyOp14
 70
     1
102
RTVSPropertyOp15
 70
     1
102
RTVSPropertyOp16
 70
     1
102
RTVSPropertyOp17
 70
     1
102
RTVSPropertyOp18
 70
     1
102
RTVSPropertyOp19
 70
     1
102
RTVSPropertyOp20
 70
     1
102
RTVSPropertyOp21
 70
     1
102
RTVSPropertyOp22
 70
     1
102
RTVSPropertyOp23
 70
     1
102
RTVSPropertyOp24
 70
     1
102
RTVSPropertyOp25
 70
     1
102
RTVSPropertyOp26
 70
     1
102
RTVSPropertyOp27
 70
     1
  0
XRECORD
  5
838
102
{ACAD_REACTORS
330
837
102
}
330
837
100
AcDbXrecord
280
     1
102
RTVSPropertyOp0
 70
     1
102
RTVSPropertyOp1
 70
     1
102
RTVSPropertyOp2
 70
     1
102
RTVSPropertyOp3
 70
     1
102
RTVSPropertyOp4
 70
     1
102
RTVSPropertyOp5
 70
     1
102
RTVSPropertyOp6
 70
     1
102
RTVSPropertyOp7
 70
     1
102
RTVSPropertyOp8
 70
     1
102
RTVSPropertyOp9
 70
     1
102
RTVSPropertyOp10
 70
     1
102
RTVSPropertyOp11
 70
     1
102
RTVSPropertyOp12
 70
     1
102
RTVSPropertyOp13
 70
     1
102
RTVSPropertyOp14
 70
     1
102
RTVSPropertyOp15
 70
     1
102
RTVSPropertyOp16
 70
     1
102
RTVSPropertyOp17
 70
     1
102
RTVSPropertyOp18
 70
     1
102
RTVSPropertyOp19
 70
     1
102
RTVSPropertyOp20
 70
     1
102
RTVSPropertyOp21
 70
     1
102
RTVSPropertyOp22
 70
     1
102
RTVSPropertyOp23
 70
     1
102
RTVSPropertyOp24
 70
     1
102
RTVSPropertyOp25
 70
     1
102
RTVSPropertyOp26
 70
     1
102
RTVSPropertyOp27
 70
     1
  0
XRECORD
  5
83A
102
{ACAD_REACTORS
330
839
102
}
330
839
100
AcDbXrecord
280
     1
102
RTVSPropertyOp0
 70
     1
102
RTVSPropertyOp1
 70
     1
102
RTVSPropertyOp2
 70
     1
102
RTVSPropertyOp3
 70
     1
102
RTVSPropertyOp4
 70
     1
102
RTVSPropertyOp5
 70
     1
102
RTVSPropertyOp6
 70
     1
102
RTVSPropertyOp7
 70
     1
102
RTVSPropertyOp8
 70
     1
102
RTVSPropertyOp9
 70
     1
102
RTVSPropertyOp10
 70
     1
102
RTVSPropertyOp11
 70
     1
102
RTVSPropertyOp12
 70
     1
102
RTVSPropertyOp13
 70
     1
102
RTVSPropertyOp14
 70
     1
102
RTVSPropertyOp15
 70
     1
102
RTVSPropertyOp16
 70
     1
102
RTVSPropertyOp17
 70
     1
102
RTVSPropertyOp18
 70
     1
102
RTVSPropertyOp19
 70
     1
102
RTVSPropertyOp20
 70
     1
102
RTVSPropertyOp21
 70
     1
102
RTVSPropertyOp22
 70
     1
102
RTVSPropertyOp23
 70
     1
102
RTVSPropertyOp24
 70
     1
102
RTVSPropertyOp25
 70
     1
102
RTVSPropertyOp26
 70
     1
102
RTVSPropertyOp27
 70
     1
  0
XRECORD
  5
83C
102
{ACAD_REACTORS
330
83B
102
}
330
83B
100
AcDbXrecord
280
     1
102
RTVSPropertyOp0
 70
     1
102
RTVSPropertyOp1
 70
     1
102
RTVSPropertyOp2
 70
     1
102
RTVSPropertyOp3
 70
     1
102
RTVSPropertyOp4
 70
     1
102
RTVSPropertyOp5
 70
     1
102
RTVSPropertyOp6
 70
     1
102
RTVSPropertyOp7
 70
     1
102
RTVSPropertyOp8
 70
     1
102
RTVSPropertyOp9
 70
     1
102
RTVSPropertyOp10
 70
     1
102
RTVSPropertyOp11
 70
     1
102
RTVSPropertyOp12
 70
     1
102
RTVSPropertyOp13
 70
     1
102
RTVSPropertyOp14
 70
     1
102
RTVSPropertyOp15
 70
     1
102
RTVSPropertyOp16
 70
     1
102
RTVSPropertyOp17
 70
     1
102
RTVSPropertyOp18
 70
     1
102
RTVSPropertyOp19
 70
     1
102
RTVSPropertyOp20
 70
     1
102
RTVSPropertyOp21
 70
     1
102
RTVSPropertyOp22
 70
     1
102
RTVSPropertyOp23
 70
     1
102
RTVSPropertyOp24
 70
     1
102
RTVSPropertyOp25
 70
     1
102
RTVSPropertyOp26
 70
     1
102
RTVSPropertyOp27
 70
     1
  0
XRECORD
  5
850
102
{ACAD_REACTORS
330
84F
102
}
330
84F
100
AcDbXrecord
280
     1
102
RTVSPropertyOp0
 70
     1
102
RTVSPropertyOp1
 70
     1
102
RTVSPropertyOp2
 70
     1
102
RTVSPropertyOp3
 70
     1
102
RTVSPropertyOp4
 70
     1
102
RTVSPropertyOp5
 70
     1
102
RTVSPropertyOp6
 70
     1
102
RTVSPropertyOp7
 70
     1
102
RTVSPropertyOp8
 70
     1
102
RTVSPropertyOp9
 70
     1
102
RTVSPropertyOp10
 70
     1
102
RTVSPropertyOp11
 70
     1
102
RTVSPropertyOp12
 70
     1
102
RTVSPropertyOp13
 70
     1
102
RTVSPropertyOp14
 70
     1
102
RTVSPropertyOp15
 70
     1
102
RTVSPropertyOp16
 70
     1
102
RTVSPropertyOp17
 70
     1
102
RTVSPropertyOp18
 70
     1
102
RTVSPropertyOp19
 70
     1
102
RTVSPropertyOp20
 70
     1
102
RTVSPropertyOp21
 70
     1
102
RTVSPropertyOp22
 70
     1
102
RTVSPropertyOp23
 70
     1
102
RTVSPropertyOp24
 70
     1
102
RTVSPropertyOp25
 70
     1
102
RTVSPropertyOp26
 70
     1
102
RTVSPropertyOp27
 70
     1
  0
XRECORD
  5
846
102
{ACAD_REACTORS
330
845
102
}
330
845
100
AcDbXrecord
280
     1
102
RTVSPropertyOp0
 70
     1
102
RTVSPropertyOp1
 70
     1
102
RTVSPropertyOp2
 70
     1
102
RTVSPropertyOp3
 70
     1
102
RTVSPropertyOp4
 70
     1
102
RTVSPropertyOp5
 70
     1
102
RTVSPropertyOp6
 70
     1
102
RTVSPropertyOp7
 70
     1
102
RTVSPropertyOp8
 70
     1
102
RTVSPropertyOp9
 70
     1
102
RTVSPropertyOp10
 70
     1
102
RTVSPropertyOp11
 70
     1
102
RTVSPropertyOp12
 70
     1
102
RTVSPropertyOp13
 70
     1
102
RTVSPropertyOp14
 70
     1
102
RTVSPropertyOp15
 70
     1
102
RTVSPropertyOp16
 70
     1
102
RTVSPropertyOp17
 70
     1
102
RTVSPropertyOp18
 70
     1
102
RTVSPropertyOp19
 70
     1
102
RTVSPropertyOp20
 70
     1
102
RTVSPropertyOp21
 70
     1
102
RTVSPropertyOp22
 70
     1
102
RTVSPropertyOp23
 70
     1
102
RTVSPropertyOp24
 70
     1
102
RTVSPropertyOp25
 70
     1
102
RTVSPropertyOp26
 70
     1
102
RTVSPropertyOp27
 70
     1
  0
XRECORD
  5
84E
102
{ACAD_REACTORS
330
84D
102
}
330
84D
100
AcDbXrecord
280
     1
102
RTVSPropertyOp0
 70
     1
102
RTVSPropertyOp1
 70
     1
102
RTVSPropertyOp2
 70
     1
102
RTVSPropertyOp3
 70
     1
102
RTVSPropertyOp4
 70
     1
102
RTVSPropertyOp5
 70
     1
102
RTVSPropertyOp6
 70
     1
102
RTVSPropertyOp7
 70
     1
102
RTVSPropertyOp8
 70
     1
102
RTVSPropertyOp9
 70
     1
102
RTVSPropertyOp10
 70
     1
102
RTVSPropertyOp11
 70
     1
102
RTVSPropertyOp12
 70
     1
102
RTVSPropertyOp13
 70
     1
102
RTVSPropertyOp14
 70
     1
102
RTVSPropertyOp15
 70
     1
102
RTVSPropertyOp16
 70
     1
102
RTVSPropertyOp17
 70
     1
102
RTVSPropertyOp18
 70
     1
102
RTVSPropertyOp19
 70
     1
102
RTVSPropertyOp20
 70
     1
102
RTVSPropertyOp21
 70
     1
102
RTVSPropertyOp22
 70
     1
102
RTVSPropertyOp23
 70
     1
102
RTVSPropertyOp24
 70
     1
102
RTVSPropertyOp25
 70
     1
102
RTVSPropertyOp26
 70
     1
102
RTVSPropertyOp27
 70
     1
  0
ENDSEC
  0
EOF
