  0
SECTION
  2
HEADER
  9
$ACADVER
  1
AC1015
  9
$ACADMAINTVER
 70
     6
  9
$DWGCODEPAGE
  3
ANSI_1252
  9
$INSBASE
 10
0.0
 20
0.0
 30
0.0
  9
$EXTMIN
 10
0.0
 20
0.0
 30
0.0
  9
$EXTMAX
 10
25.0
 20
35.0
 30
0.0
  9
$LIMMIN
 10
0.0
 20
0.0
  9
$LIMMAX
 10
420.0
 20
297.0
  9
$ORTHOMODE
 70
     0
  9
$REGENMODE
 70
     1
  9
$FILLMODE
 70
     1
  9
$QTEXTMODE
 70
     0
  9
$MIRRTEXT
 70
     1
  9
$LTSCALE
 40
5.0
  9
$ATTMODE
 70
     1
  9
$TEXTSIZE
 40
2.5
  9
$TRACEWID
 40
1.0
  9
$TEXTSTYLE
  7
Standard
  9
$CLAYER
  8
0
  9
$CELTYPE
  6
ByLayer
  9
$CECOLOR
 62
   256
  9
$CELTSCALE
 40
1.0
  9
$DISPSILH
 70
     0
  9
$DIMSCALE
 40
1.0
  9
$DIMASZ
 40
2.5
  9
$DIMEXO
 40
0.625
  9
$DIMDLI
 40
3.75
  9
$DIMRND
 40
0.0
  9
$DIMDLE
 40
0.0
  9
$DIMEXE
 40
1.25
  9
$DIMTP
 40
0.0
  9
$DIMTM
 40
0.0
  9
$DIMTXT
 40
2.5
  9
$DIMCEN
 40
2.5
  9
$DIMTSZ
 40
0.0
  9
$DIMTOL
 70
     0
  9
$DIMLIM
 70
     0
  9
$DIMTIH
 70
     0
  9
$DIMTOH
 70
     0
  9
$DIMSE1
 70
     0
  9
$DIMSE2
 70
     0
  9
$DIMTAD
 70
     1
  9
$DIMZIN
 70
     8
  9
$DIMBLK
  1

  9
$DIMASO
 70
     1
  9
$DIMSHO
 70
     1
  9
$DIMPOST
  1

  9
$DIMAPOST
  1

  9
$DIMALT
 70
     0
  9
$DIMALTD
 70
     3
  9
$DIMALTF
 40
0.03937007874016
  9
$DIMLFAC
 40
1.0
  9
$DIMTOFL
 70
     1
  9
$DIMTVP
 40
0.0
  9
$DIMTIX
 70
     0
  9
$DIMSOXD
 70
     0
  9
$DIMSAH
 70
     0
  9
$DIMBLK1
  1

  9
$DIMBLK2
  1

  9
$DIMSTYLE
  2
ISO-25
  9
$DIMCLRD
 70
     0
  9
$DIMCLRE
 70
     0
  9
$DIMCLRT
 70
     0
  9
$DIMTFAC
 40
1.0
  9
$DIMGAP
 40
0.625
  9
$DIMJUST
 70
     0
  9
$DIMSD1
 70
     0
  9
$DIMSD2
 70
     0
  9
$DIMTOLJ
 70
     0
  9
$DIMTZIN
 70
     8
  9
$DIMALTZ
 70
     0
  9
$DIMALTTZ
 70
     0
  9
$DIMUPT
 70
     0
  9
$DIMDEC
 70
     2
  9
$DIMTDEC
 70
     2
  9
$DIMALTU
 70
     2
  9
$DIMALTTD
 70
     3
  9
$DIMTXSTY
  7
Standard
  9
$DIMAUNIT
 70
     0
  9
$DIMADEC
 70
     0
  9
$DIMALTRND
 40
0.0
  9
$DIMAZIN
 70
     0
  9
$DIMDSEP
 70
    44
  9
$DIMATFIT
 70
     3
  9
$DIMFRAC
 70
     0
  9
$DIMLDRBLK
  1

  9
$DIMLUNIT
 70
     2
  9
$DIMLWD
 70
    -2
  9
$DIMLWE
 70
    -2
  9
$DIMTMOVE
 70
     0
  9
$LUNITS
 70
     2
  9
$LUPREC
 70
     4
  9
$SKETCHINC
 40
1.0
  9
$FILLETRAD
 40
10.0
  9
$AUNITS
 70
     0
  9
$AUPREC
 70
     0
  9
$MENU
  1
.
  9
$ELEVATION
 40
0.0
  9
$PELEVATION
 40
0.0
  9
$THICKNESS
 40
0.0
  9
$LIMCHECK
 70
     0
  9
$CHAMFERA
 40
10.0
  9
$CHAMFERB
 40
10.0
  9
$CHAMFERC
 40
20.0
  9
$CHAMFERD
 40
0.0
  9
$SKPOLY
 70
     0
  9
$TDCREATE
 40
2458993.65625
  9
$TDUCREATE
 40
2458993.572916667
  9
$TDUPDATE
 40
2458993.659722222
  9
$TDUUPDATE
 40
2458993.576388889
  9
$TDINDWG
 40
0.0000000116
  9
$TDUSRTIMER
 40
0.0000000116
  9
$USRTIMER
 70
     1
  9
$ANGBASE
 50
0.0
  9
$ANGDIR
 70
     0
  9
$PDMODE
 70
     0
  9
$PDSIZE
 40
0.0
  9
$PLINEWID
 40
0.0
  9
$SPLFRAME
 70
     0
  9
$SPLINETYPE
 70
     6
  9
$SPLINESEGS
 70
     8
  9
$HANDSEED
  5
61C
  9
$SURFTAB1
 70
     6
  9
$SURFTAB2
 70
     6
  9
$SURFTYPE
 70
     6
  9
$SURFU
 70
     6
  9
$SURFV
 70
     6
  9
$UCSBASE
  2

  9
$UCSNAME
  2

  9
$UCSORG
 10
0.0
 20
0.0
 30
0.0
  9
$UCSXDIR
 10
1.0
 20
0.0
 30
0.0
  9
$UCSYDIR
 10
0.0
 20
1.0
 30
0.0
  9
$UCSORTHOREF
  2

  9
$UCSORTHOVIEW
 70
     0
  9
$UCSORGTOP
 10
0.0
 20
0.0
 30
0.0
  9
$UCSORGBOTTOM
 10
0.0
 20
0.0
 30
0.0
  9
$UCSORGLEFT
 10
0.0
 20
0.0
 30
0.0
  9
$UCSORGRIGHT
 10
0.0
 20
0.0
 30
0.0
  9
$UCSORGFRONT
 10
0.0
 20
0.0
 30
0.0
  9
$UCSORGBACK
 10
0.0
 20
0.0
 30
0.0
  9
$PUCSBASE
  2

  9
$PUCSNAME
  2

  9
$PUCSORG
 10
0.0
 20
0.0
 30
0.0
  9
$PUCSXDIR
 10
1.0
 20
0.0
 30
0.0
  9
$PUCSYDIR
 10
0.0
 20
1.0
 30
0.0
  9
$PUCSORTHOREF
  2

  9
$PUCSORTHOVIEW
 70
     0
  9
$PUCSORGTOP
 10
0.0
 20
0.0
 30
0.0
  9
$PUCSORGBOTTOM
 10
0.0
 20
0.0
 30
0.0
  9
$PUCSORGLEFT
 10
0.0
 20
0.0
 30
0.0
  9
$PUCSORGRIGHT
 10
0.0
 20
0.0
 30
0.0
  9
$PUCSORGFRONT
 10
0.0
 20
0.0
 30
0.0
  9
$PUCSORGBACK
 10
0.0
 20
0.0
 30
0.0
  9
$USERI1
 70
     0
  9
$USERI2
 70
     0
  9
$USERI3
 70
     0
  9
$USERI4
 70
     0
  9
$USERI5
 70
     0
  9
$USERR1
 40
0.0
  9
$USERR2
 40
0.0
  9
$USERR3
 40
0.0
  9
$USERR4
 40
0.0
  9
$USERR5
 40
0.0
  9
$WORLDVIEW
 70
     1
  9
$SHADEDGE
 70
     3
  9
$SHADEDIF
 70
    70
  9
$TILEMODE
 70
     1
  9
$MAXACTVP
 70
    64
  9
$PINSBASE
 10
0.0
 20
0.0
 30
0.0
  9
$PLIMCHECK
 70
     0
  9
$PEXTMIN
 10
1.000000000000000E+20
 20
1.000000000000000E+20
 30
1.000000000000000E+20
  9
$PEXTMAX
 10
-1.000000000000000E+20
 20
-1.000000000000000E+20
 30
-1.000000000000000E+20
  9
$PLIMMIN
 10
0.0
 20
0.0
  9
$PLIMMAX
 10
420.0
 20
297.0
  9
$UNITMODE
 70
     0
  9
$VISRETAIN
 70
     1
  9
$PLINEGEN
 70
     0
  9
$PSLTSCALE
 70
     1
  9
$TREEDEPTH
 70
  3020
  9
$CMLSTYLE
  2
Standard
  9
$CMLJUST
 70
     0
  9
$CMLSCALE
 40
20.0
  9
$PROXYGRAPHICS
 70
     1
  9
$MEASUREMENT
 70
     1
  9
$CELWEIGHT
370
    -1
  9
$ENDCAPS
280
     0
  9
$JOINSTYLE
280
     0
  9
$LWDISPLAY
290
     0
  9
$INSUNITS
 70
     4
  9
$HYPERLINKBASE
  1

  9
$STYLESHEET
  1

  9
$XEDIT
290
     1
  9
$CEPSNTYPE
380
     0
  9
$PSTYLEMODE
290
     1
  9
$FINGERPRINTGUID
  2
{CD4277C3-EC7A-4834-9A58-A1BAB587981B}
  9
$VERSIONGUID
  2
{FAEB1C32-E019-11D5-929B-00C0DF256EC4}
  9
$EXTNAMES
290
     1
  9
$PSVPSCALE
 40
0.0
  9
$OLESTARTUP
290
     0
  0
ENDSEC
  0
SECTION
  2
CLASSES
  0
CLASS
  1
ACDBDICTIONARYWDFLT
  2
AcDbDictionaryWithDefault
  3
ObjectDBX Classes
 90
        0
280
     0
281
     0
  0
CLASS
  1
VISUALSTYLE
  2
AcDbVisualStyle
  3
ObjectDBX Classes
 90
     4095
280
     0
281
     0
  0
CLASS
  1
MATERIAL
  2
AcDbMaterial
  3
ObjectDBX Classes
 90
     1153
280
     0
281
     0
  0
CLASS
  1
SCALE
  2
AcDbScale
  3
ObjectDBX Classes
 90
     1153
280
     0
281
     0
  0
CLASS
  1
DICTIONARYVAR
  2
AcDbDictionaryVar
  3
ObjectDBX Classes
 90
        0
280
     0
281
     0
  0
CLASS
  1
ACDBPLACEHOLDER
  2
AcDbPlaceHolder
  3
ObjectDBX Classes
 90
        0
280
     0
281
     0
  0
CLASS
  1
LAYOUT
  2
AcDbLayout
  3
ObjectDBX Classes
 90
        0
280
     0
281
     0
  0
ENDSEC
  0
SECTION
  2
TABLES
  0
TABLE
  2
VPORT
  5
8
330
0
100
AcDbSymbolTable
 70
     1
  0
VPORT
  5
29
330
8
100
AcDbSymbolTableRecord
100
AcDbViewportTableRecord
  2
*Active
 70
     0
 10
0.0
 20
0.0
 11
1.0
 21
1.0
 12
11.26
 22
4.5
 13
0.0
 23
0.0
 14
10.0
 24
10.0
 15
10.0
 25
10.0
 16
0.0
 26
0.0
 36
1.0
 17
0.0
 27
0.0
 37
0.0
 40
9.0
 41
2.503333333333333
 42
50.0
 43
0.0
 44
0.0
 50
0.0
 51
0.0
 71
     0
 72
   100
 73
     1
 74
     3
 75
     0
 76
     0
 77
     0
 78
     0
281
     0
 65
     1
110
0.0
120
0.0
130
0.0
111
1.0
121
0.0
131
0.0
112
0.0
122
1.0
132
0.0
 79
     0
146
0.0
  0
ENDTAB
  0
TABLE
  2
LTYPE
  5
5
330
0
100
AcDbSymbolTable
 70
     8
  0
LTYPE
  5
14
330
5
100
AcDbSymbolTableRecord
100
AcDbLinetypeTableRecord
  2
ByBlock
 70
     0
  3

 72
    65
 73
     0
 40
0.0
  0
LTYPE
  5
15
330
5
100
AcDbSymbolTableRecord
100
AcDbLinetypeTableRecord
  2
ByLayer
 70
     0
  3

 72
    65
 73
     0
 40
0.0
  0
LTYPE
  5
16
330
5
100
AcDbSymbolTableRecord
100
AcDbLinetypeTableRecord
  2
Continuous
 70
     0
  3
Solid line
 72
    65
 73
     0
 40
0.0
  0
LTYPE
  5
45
330
5
100
AcDbSymbolTableRecord
100
AcDbLinetypeTableRecord
  2
phl_thick
 70
     0
  3
THICK
 72
    65
 73
     0
 40
0.0
  0
LTYPE
  5
57
330
5
100
AcDbSymbolTableRecord
100
AcDbLinetypeTableRecord
  2
ls1
 70
     0
  3
THICK
 72
    65
 73
     0
 40
0.0
  0
LTYPE
  5
68
330
5
100
AcDbSymbolTableRecord
100
AcDbLinetypeTableRecord
  2
SK1
 70
     0
  3
THICK
 72
    65
 73
     0
 40
0.0
  0
LTYPE
  5
72
330
5
100
AcDbSymbolTableRecord
100
AcDbLinetypeTableRecord
  2
ls_SK2
 70
     0
  3
THIN
 72
    65
 73
     0
 40
0.0
  0
LTYPE
  5
11E
330
5
100
AcDbSymbolTableRecord
100
AcDbLinetypeTableRecord
  2
ls_2
 70
     0
  3
THIN
 72
    65
 73
     0
 40
0.0
  0
LTYPE
  5
2F4
330
5
100
AcDbSymbolTableRecord
100
AcDbLinetypeTableRecord
  2
ls_SK1
 70
     0
  3
THICK
 72
    65
 73
     0
 40
0.0
  0
LTYPE
  5
32E
330
5
100
AcDbSymbolTableRecord
100
AcDbLinetypeTableRecord
  2
LONGDASH_DASH
 70
     0
  3
THIN_DASHDOT
 72
    65
 73
     4
 40
0.85
 49
0.4
 74
     0
 49
-0.2
 74
     0
 49
0.05
 74
     0
 49
-0.2
 74
     0
  0
ENDTAB
  0
TABLE
  2
LAYER
  5
2
330
0
100
AcDbSymbolTable
 70
     9
  0
LAYER
  5
10
330
2
100
AcDbSymbolTableRecord
100
AcDbLayerTableRecord
  2
0
 70
     0
 62
     7
  6
Continuous
370
    -3
390
F
  0
LAYER
  5
44
330
2
100
AcDbSymbolTableRecord
100
AcDbLayerTableRecord
  2
1
 70
     0
 62
4
  6
CONTINUOUS
370
50
370
    -3
390
F
  0
LAYER
  5
56
330
2
100
AcDbSymbolTableRecord
100
AcDbLayerTableRecord
  2
CUT
 70
     0
 62
1
  6
CONTINUOUS
370
25
370
    -3
390
F
  0
LAYER
  5
5D
330
2
100
AcDbSymbolTableRecord
100
AcDbLayerTableRecord
  2
NOCUT
 70
     0
 62
7
  6
CONTINUOUS
370
25
370
    -3
390
F
  0
LAYER
  5
67
330
2
100
AcDbSymbolTableRecord
100
AcDbLayerTableRecord
  2
SK1
 70
     0
 62
4
  6
CONTINUOUS
370
50
370
    -3
390
F
  0
LAYER
  5
71
330
2
100
AcDbSymbolTableRecord
100
AcDbLayerTableRecord
  2
SK2
 70
     0
 62
7
  6
CONTINUOUS
370
25
370
    -3
390
F
  0
LAYER
  5
11D
330
2
100
AcDbSymbolTableRecord
100
AcDbLayerTableRecord
  2
2
 70
     0
 62
7
  6
CONTINUOUS
370
25
370
    -3
390
F
  0
LAYER
  5
32D
330
2
100
AcDbSymbolTableRecord
100
AcDbLayerTableRecord
  2
4
 70
     0
 62
2
  6
LONGDASH_DASH
370
25
370
    -3
390
F
  0
LAYER
  5
330
330
2
100
AcDbSymbolTableRecord
100
AcDbLayerTableRecord
  2
SK4
 70
     0
 62
2
  6
LONGDASH_DASH
370
25
370
    -3
390
F
  0
ENDTAB
  0
TABLE
  2
STYLE
  5
3
330
0
100
AcDbSymbolTable
 70
     1
  0
STYLE
  5
11
330
3
100
AcDbSymbolTableRecord
100
AcDbTextStyleTableRecord
  2
Standard
 70
     0
 40
0.0
 41
1.0
 50
0.0
 71
     0
 42
2.5
  3
Monospac821 BT
  4

  0
ENDTAB
  0
TABLE
  2
VIEW
  5
6
330
0
100
AcDbSymbolTable
 70
     0
  0
ENDTAB
  0
TABLE
  2
UCS
  5
7
330
0
100
AcDbSymbolTable
 70
     0
  0
ENDTAB
  0
TABLE
  2
APPID
  5
9
330
0
100
AcDbSymbolTable
 70
     2
  0
APPID
  5
12
330
9
100
AcDbSymbolTableRecord
100
AcDbRegAppTableRecord
  2
ACAD
 70
     0
  0
APPID
  5
3F
330
9
100
AcDbSymbolTableRecord
100
AcDbRegAppTableRecord
  2
ccLab
 70
     0
  0
ENDTAB
  0
TABLE
  2
DIMSTYLE
  5
A
330
0
100
AcDbSymbolTable
 70
     1
100
AcDbDimStyleTable
  0
DIMSTYLE
105
27
330
A
100
AcDbSymbolTableRecord
100
AcDbDimStyleTableRecord
  2
ISO-25
 70
     0
 41
2.5
 42
0.625
 43
3.75
 44
1.25
 73
     0
 74
     0
 77
     1
 78
     8
140
2.5
141
2.5
143
0.03937007874016
147
0.625
171
     3
172
     1
271
     2
272
     2
274
     3
278
    44
283
     0
284
     8
340
11
  0
ENDTAB
  0
TABLE
  2
BLOCK_RECORD
  5
1
330
0
100
AcDbSymbolTable
 70
     2
  0
BLOCK_RECORD
  5
1F
330
1
100
AcDbSymbolTableRecord
100
AcDbBlockTableRecord
  2
*Model_Space
340
22
  0
BLOCK_RECORD
  5
1B
330
1
100
AcDbSymbolTableRecord
100
AcDbBlockTableRecord
  2
*Paper_Space
340
1E
  0
BLOCK_RECORD
  5
23
330
1
100
AcDbSymbolTableRecord
100
AcDbBlockTableRecord
  2
*Paper_Space0
340
26
  0
ENDTAB
  0
ENDSEC
  0
SECTION
  2
BLOCKS
  0
BLOCK
  5
20
330
1F
100
AcDbEntity
  8
0
100
AcDbBlockBegin
  2
*Model_Space
 70
     0
 10
0.0
 20
0.0
 30
0.0
  3
*Model_Space
  1

  0
ENDBLK
  5
21
330
1F
100
AcDbEntity
  8
0
100
AcDbBlockEnd
  0
BLOCK
  5
1C
330
1B
100
AcDbEntity
 67
     1
  8
0
100
AcDbBlockBegin
  2
*Paper_Space
 70
     0
 10
0.0
 20
0.0
 30
0.0
  3
*Paper_Space
  1

  0
ENDBLK
  5
1D
330
1B
100
AcDbEntity
 67
     1
  8
0
100
AcDbBlockEnd
  0
BLOCK
  5
24
330
23
100
AcDbEntity
  8
0
100
AcDbBlockBegin
  2
*Paper_Space0
 70
     0
 10
0.0
 20
0.0
 30
0.0
  3
*Paper_Space0
  1

  0
ENDBLK
  5
25
330
23
100
AcDbEntity
  8
0
100
AcDbBlockEnd
  0
ENDSEC
  0
SECTION
  2
ENTITIES
  0
LINE
  5
331
330
1F
100
AcDbEntity
  8
1
  6
CONTINUOUS
370
50
 62
4
100
AcDbLine
 10
12.3
 20
0.893427
 30
0.0
 11
12.123
 21
1.2
 31
0.0
  0
LINE
  5
332
330
1F
100
AcDbEntity
  8
1
  6
CONTINUOUS
370
50
 62
4
100
AcDbLine
 10
10.5
 20
-0.893427
 30
0.0
 11
10.456573
 21
-0.85
 31
0.0
  0
LINE
  5
333
330
1F
100
AcDbEntity
  8
1
  6
CONTINUOUS
370
50
 62
4
100
AcDbLine
 10
4.8
 20
0.85
 30
0.0
 11
0.0
 21
2.99995
 31
0.0
  0
LINE
  5
334
330
1F
100
AcDbEntity
  8
1
  6
CONTINUOUS
370
50
 62
4
100
AcDbLine
 10
10.5
 20
-1.2
 30
0.0
 11
12.123
 21
-1.2
 31
0.0
  0
LINE
  5
335
330
1F
100
AcDbEntity
  8
1
  6
CONTINUOUS
370
50
 62
4
100
AcDbLine
 10
4.8
 20
-0.85
 30
0.0
 11
10.456573
 21
-0.85
 31
0.0
  0
LINE
  5
336
330
1F
100
AcDbEntity
  8
1
  6
CONTINUOUS
370
50
 62
4
100
AcDbLine
 10
4.8
 20
0.85
 30
0.0
 11
10.456573
 21
0.85
 31
0.0
  0
LINE
  5
337
330
1F
100
AcDbEntity
  8
1
  6
CONTINUOUS
370
50
 62
4
100
AcDbLine
 10
10.5
 20
1.2
 30
0.0
 11
12.123
 21
1.2
 31
0.0
  0
LINE
  5
338
330
1F
100
AcDbEntity
  8
1
  6
CONTINUOUS
370
50
 62
4
100
AcDbLine
 10
0.0
 20
-2.99995
 30
0.0
 11
4.8
 21
-0.85
 31
0.0
  0
LINE
  5
339
330
1F
100
AcDbEntity
  8
1
  6
CONTINUOUS
370
50
 62
4
100
AcDbLine
 10
10.456573
 20
0.85
 30
0.0
 11
10.5
 21
0.893427
 31
0.0
  0
LINE
  5
33A
330
1F
100
AcDbEntity
  8
1
  6
CONTINUOUS
370
50
 62
4
100
AcDbLine
 10
12.123
 20
-1.2
 30
0.0
 11
12.3
 21
-0.893427
 31
0.0
  0
LINE
  5
33B
330
1F
100
AcDbEntity
  8
1
  6
CONTINUOUS
370
50
 62
4
100
AcDbLine
 10
0.0
 20
-2.99995
 30
0.0
 11
0.0
 21
2.99995
 31
0.0
  0
LINE
  5
33C
330
1F
100
AcDbEntity
  8
1
  6
CONTINUOUS
370
50
 62
4
100
AcDbLine
 10
4.8
 20
-0.85
 30
0.0
 11
4.8
 21
0.85
 31
0.0
  0
LINE
  5
33D
330
1F
100
AcDbEntity
  8
1
  6
CONTINUOUS
370
50
 62
4
100
AcDbLine
 10
10.456573
 20
-0.85
 30
0.0
 11
10.456573
 21
0.85
 31
0.0
  0
LINE
  5
33E
330
1F
100
AcDbEntity
  8
1
  6
CONTINUOUS
370
50
 62
4
100
AcDbLine
 10
10.5
 20
-1.2
 30
0.0
 11
10.5
 21
1.2
 31
0.0
  0
LINE
  5
33F
330
1F
100
AcDbEntity
  8
1
  6
CONTINUOUS
370
50
 62
4
100
AcDbLine
 10
12.123
 20
-1.2
 30
0.0
 11
12.123
 21
1.2
 31
0.0
  0
LINE
  5
340
330
1F
100
AcDbEntity
  8
1
  6
CONTINUOUS
370
50
 62
4
100
AcDbLine
 10
12.3
 20
-0.893427
 30
0.0
 11
12.3
 21
0.893427
 31
0.0
  0
LINE
  5
341
330
1F
100
AcDbEntity
  8
CUT
  6
CONTINUOUS
370
25
 62
1
100
AcDbLine
 10
10.5
 20
0.54
 30
0.0
 11
12.29
 21
0.54
 31
0.0
  0
LINE
  5
342
330
1F
100
AcDbEntity
  8
CUT
  6
CONTINUOUS
370
25
 62
1
100
AcDbLine
 10
12.29
 20
0.54
 30
0.0
 11
12.3
 21
0.8934270099999999
 31
0.0
  0
LINE
  5
343
330
1F
100
AcDbEntity
  8
CUT
  6
CONTINUOUS
370
25
 62
1
100
AcDbLine
 10
12.3
 20
0.8934270099999999
 30
0.0
 11
12.12300000169723
 21
1.2
 31
0.0
  0
LINE
  5
344
330
1F
100
AcDbEntity
  8
CUT
  6
CONTINUOUS
370
25
 62
1
100
AcDbLine
 10
12.12300000169723
 20
1.2
 30
0.0
 11
10.5
 21
1.2
 31
0.0
  0
LINE
  5
345
330
1F
100
AcDbEntity
  8
CUT
  6
CONTINUOUS
370
25
 62
1
100
AcDbLine
 10
10.5
 20
1.2
 30
0.0
 11
10.5
 21
0.54
 31
0.0
  0
LINE
  5
346
330
1F
100
AcDbEntity
  8
NOCUT
  6
CONTINUOUS
370
25
 62
7
100
AcDbLine
 10
0.0
 20
0.0
 30
0.0
 11
12.3
 21
0.0
 31
0.0
  0
LINE
  5
347
330
1F
100
AcDbEntity
  8
NOCUT
  6
CONTINUOUS
370
25
 62
7
100
AcDbLine
 10
12.3
 20
0.0
 30
0.0
 11
12.3
 21
0.8934270099999999
 31
0.0
  0
LINE
  5
348
330
1F
100
AcDbEntity
  8
NOCUT
  6
CONTINUOUS
370
25
 62
7
100
AcDbLine
 10
12.3
 20
0.8934270099999999
 30
0.0
 11
12.29
 21
0.54
 31
0.0
  0
LINE
  5
349
330
1F
100
AcDbEntity
  8
NOCUT
  6
CONTINUOUS
370
25
 62
7
100
AcDbLine
 10
12.29
 20
0.54
 30
0.0
 11
10.5
 21
0.54
 31
0.0
  0
LINE
  5
34A
330
1F
100
AcDbEntity
  8
NOCUT
  6
CONTINUOUS
370
25
 62
7
100
AcDbLine
 10
10.5
 20
0.54
 30
0.0
 11
10.5
 21
0.893427005
 31
0.0
  0
LINE
  5
34B
330
1F
100
AcDbEntity
  8
NOCUT
  6
CONTINUOUS
370
25
 62
7
100
AcDbLine
 10
10.5
 20
0.893427005
 30
0.0
 11
10.456572995
 21
0.85
 31
0.0
  0
LINE
  5
34C
330
1F
100
AcDbEntity
  8
NOCUT
  6
CONTINUOUS
370
25
 62
7
100
AcDbLine
 10
10.456572995
 20
0.85
 30
0.0
 11
4.800000000000001
 21
0.85
 31
0.0
  0
LINE
  5
34D
330
1F
100
AcDbEntity
  8
NOCUT
  6
CONTINUOUS
370
25
 62
7
100
AcDbLine
 10
4.800000000000001
 20
0.85
 30
0.0
 11
0.0
 21
2.99995
 31
0.0
  0
LINE
  5
34E
330
1F
100
AcDbEntity
  8
NOCUT
  6
CONTINUOUS
370
25
 62
7
100
AcDbLine
 10
0.0
 20
2.99995
 30
0.0
 11
0.0
 21
0.0
 31
0.0
  0
LINE
  5
34F
330
1F
100
AcDbEntity
  8
SK1
  6
CONTINUOUS
370
50
 62
4
100
AcDbLine
 10
0.0
 20
3.0
 30
0.0
 11
-4.570000000000001
 21
3.0
 31
0.0
  0
LINE
  5
350
330
1F
100
AcDbEntity
  8
SK1
  6
CONTINUOUS
370
50
 62
4
100
AcDbLine
 10
-5.430000000000001
 20
3.0
 30
0.0
 11
-37.3
 21
3.0
 31
0.0
  0
LINE
  5
351
330
1F
100
AcDbEntity
  8
SK1
  6
CONTINUOUS
370
50
 62
4
100
AcDbLine
 10
-37.3
 20
3.0
 30
0.0
 11
-37.7
 21
2.6
 31
0.0
  0
LINE
  5
352
330
1F
100
AcDbEntity
  8
SK1
  6
CONTINUOUS
370
50
 62
4
100
AcDbLine
 10
-37.7
 20
2.6
 30
0.0
 11
-37.7
 21
-2.6
 31
0.0
  0
LINE
  5
353
330
1F
100
AcDbEntity
  8
SK1
  6
CONTINUOUS
370
50
 62
4
100
AcDbLine
 10
-37.7
 20
-2.6
 30
0.0
 11
-37.3
 21
-3.0
 31
0.0
  0
LINE
  5
354
330
1F
100
AcDbEntity
  8
SK1
  6
CONTINUOUS
370
50
 62
4
100
AcDbLine
 10
-4.57
 20
-3.0
 30
0.0
 11
0.0
 21
-3.0
 31
0.0
  0
LINE
  5
355
330
1F
100
AcDbEntity
  8
SK1
  6
CONTINUOUS
370
50
 62
4
100
AcDbLine
 10
-37.3
 20
-3.0
 30
0.0
 11
-5.430000000000001
 21
-3.0
 31
0.0
  0
LINE
  5
356
330
1F
100
AcDbEntity
  8
SK1
  6
CONTINUOUS
370
50
 62
4
100
AcDbLine
 10
-37.3
 20
3.0
 30
0.0
 11
-37.3
 21
-3.0
 31
0.0
  0
LINE
  5
357
330
1F
100
AcDbEntity
  8
SK2
  6
CONTINUOUS
370
25
 62
7
100
AcDbLine
 10
-49.7000002
 20
-3.000001
 30
0.0
 11
-50.70000000000008
 21
-3.000001
 31
0.0
  0
LINE
  5
358
330
1F
100
AcDbEntity
  8
SK2
  6
CONTINUOUS
370
25
 62
7
100
AcDbLine
 10
-37.7
 20
-3.000001
 30
0.0
 11
-49.6999998
 21
-3.000001
 31
0.0
  0
LINE
  5
359
330
1F
100
AcDbEntity
  8
SK2
  6
CONTINUOUS
370
25
 62
7
100
AcDbLine
 10
-50.7
 20
3.0
 30
0.0
 11
-37.7
 21
3.0
 31
0.0
  0
LINE
  5
35A
330
1F
100
AcDbEntity
  8
SK2
  6
CONTINUOUS
370
25
 62
7
100
AcDbLine
 10
-49.7
 20
-10.0
 30
0.0
 11
-49.7
 21
16.475
 31
0.0
  0
LINE
  5
35B
330
1F
100
AcDbEntity
  8
SK2
  6
CONTINUOUS
370
25
 62
7
100
AcDbLine
 10
-49.7
 20
-3.0
 30
0.0
 11
-48.7
 21
-8.0
 31
0.0
  0
LINE
  5
35C
330
1F
100
AcDbEntity
  8
SK2
  6
CONTINUOUS
370
25
 62
7
100
AcDbLine
 10
-48.7
 20
-8.0
 30
0.0
 11
-50.7
 21
-8.0
 31
0.0
  0
LINE
  5
35D
330
1F
100
AcDbEntity
  8
SK2
  6
CONTINUOUS
370
25
 62
7
100
AcDbLine
 10
-50.7
 20
-8.0
 30
0.0
 11
-49.7
 21
-3.0
 31
0.0
  0
LINE
  5
35E
330
1F
100
AcDbEntity
  8
SK2
  6
CONTINUOUS
370
25
 62
7
100
AcDbLine
 10
-48.7293505963451
 20
-8.0
 30
0.0
 11
-48.70489176605752
 21
-7.975541169712422
 31
0.0
  0
LINE
  5
35F
330
1F
100
AcDbEntity
  8
SK2
  6
CONTINUOUS
370
25
 62
7
100
AcDbLine
 10
-49.15361466505703
 20
-8.0
 30
0.0
 11
-48.77560244417617
 21
-7.621987779119138
 31
0.0
  0
LINE
  5
360
330
1F
100
AcDbEntity
  8
SK2
  6
CONTINUOUS
370
25
 62
7
100
AcDbLine
 10
-49.57787873376897
 20
-8.0
 30
0.0
 11
-48.84631312229484
 21
-7.268434388525868
 31
0.0
  0
LINE
  5
361
330
1F
100
AcDbEntity
  8
SK2
  6
CONTINUOUS
370
25
 62
7
100
AcDbLine
 10
-50.0021428024809
 20
-8.0
 30
0.0
 11
-48.91702380041349
 21
-6.914880997932592
 31
0.0
  0
LINE
  5
362
330
1F
100
AcDbEntity
  8
SK2
  6
CONTINUOUS
370
25
 62
7
100
AcDbLine
 10
-50.42640687119283
 20
-8.0
 30
0.0
 11
-48.98773447853214
 21
-6.561327607339308
 31
0.0
  0
LINE
  5
363
330
1F
100
AcDbEntity
  8
SK2
  6
CONTINUOUS
370
25
 62
7
100
AcDbLine
 10
-50.66233226502381
 20
-7.811661325119054
 30
0.0
 11
-49.0584451566508
 21
-6.207774216746039
 31
0.0
  0
LINE
  5
364
330
1F
100
AcDbEntity
  8
SK2
  6
CONTINUOUS
370
25
 62
7
100
AcDbLine
 10
-50.55626624784583
 20
-7.281331239229146
 30
0.0
 11
-49.12915583476945
 21
-5.854220826152762
 31
0.0
  0
LINE
  5
365
330
1F
100
AcDbEntity
  8
SK2
  6
CONTINUOUS
370
25
 62
7
100
AcDbLine
 10
-50.45020023066785
 20
-6.751001153339224
 30
0.0
 11
-49.19986651288811
 21
-5.500667435559492
 31
0.0
  0
LINE
  5
366
330
1F
100
AcDbEntity
  8
SK2
  6
CONTINUOUS
370
25
 62
7
100
AcDbLine
 10
-50.34413421348987
 20
-6.22067106744931
 30
0.0
 11
-49.27057719100676
 21
-5.147114044966202
 31
0.0
  0
LINE
  5
367
330
1F
100
AcDbEntity
  8
SK2
  6
CONTINUOUS
370
25
 62
7
100
AcDbLine
 10
-50.23806819631189
 20
-5.690340981559402
 30
0.0
 11
-49.34128786912541
 21
-4.793560654372925
 31
0.0
  0
LINE
  5
368
330
1F
100
AcDbEntity
  8
SK2
  6
CONTINUOUS
370
25
 62
7
100
AcDbLine
 10
-50.13200217913391
 20
-5.160010895669494
 30
0.0
 11
-49.41199854724407
 21
-4.440007263779655
 31
0.0
  0
LINE
  5
369
330
1F
100
AcDbEntity
  8
SK2
  6
CONTINUOUS
370
25
 62
7
100
AcDbLine
 10
-50.02593616195592
 20
-4.629680809779572
 30
0.0
 11
-49.48270922536272
 21
-4.086453873186372
 31
0.0
  0
LINE
  5
36A
330
1F
100
AcDbEntity
  8
SK2
  6
CONTINUOUS
370
25
 62
7
100
AcDbLine
 10
-49.91987014477793
 20
-4.09935072388965
 30
0.0
 11
-49.55341990348138
 21
-3.732900482593102
 31
0.0
  0
LINE
  5
36B
330
1F
100
AcDbEntity
  8
SK2
  6
CONTINUOUS
370
25
 62
7
100
AcDbLine
 10
-49.81380412759995
 20
-3.569020637999742
 30
0.0
 11
-49.62413058160003
 21
-3.379347091999826
 31
0.0
  0
LINE
  5
36C
330
1F
100
AcDbEntity
  8
SK2
  6
CONTINUOUS
370
25
 62
7
100
AcDbLine
 10
-49.70773811042197
 20
-3.038690552109834
 30
0.0
 11
-49.69484125971869
 21
-3.025793701406549
 31
0.0
  0
LINE
  5
36D
330
1F
100
AcDbEntity
  8
SK2
  6
CONTINUOUS
370
25
 62
7
100
AcDbLine
 10
-50.6719761172658
 20
-7.859880586329005
 30
0.0
 11
-50.5318567035948
 21
-8.0
 31
0.0
  0
LINE
  5
36E
330
1F
100
AcDbEntity
  8
SK2
  6
CONTINUOUS
370
25
 62
7
100
AcDbLine
 10
-50.60126543914714
 20
-7.506327195735729
 30
0.0
 11
-50.10759263488287
 21
-8.0
 31
0.0
  0
LINE
  5
36F
330
1F
100
AcDbEntity
  8
SK2
  6
CONTINUOUS
370
25
 62
7
100
AcDbLine
 10
-50.53055476102848
 20
-7.152773805142459
 30
0.0
 11
-49.68332856617094
 21
-8.0
 31
0.0
  0
LINE
  5
370
330
1F
100
AcDbEntity
  8
SK2
  6
CONTINUOUS
370
25
 62
7
100
AcDbLine
 10
-50.45984408290983
 20
-6.799220414549175
 30
0.0
 11
-49.25906449745901
 21
-8.0
 31
0.0
  0
LINE
  5
371
330
1F
100
AcDbEntity
  8
SK2
  6
CONTINUOUS
370
25
 62
7
100
AcDbLine
 10
-50.38913340479118
 20
-6.445667023955899
 30
0.0
 11
-48.83480042874708
 21
-8.0
 31
0.0
  0
LINE
  5
372
330
1F
100
AcDbEntity
  8
SK2
  6
CONTINUOUS
370
25
 62
7
100
AcDbLine
 10
-50.31842272667252
 20
-6.092113633362622
 30
0.0
 11
-48.77236590999121
 21
-7.638170450043937
 31
0.0
  0
LINE
  5
373
330
1F
100
AcDbEntity
  8
SK2
  6
CONTINUOUS
370
25
 62
7
100
AcDbLine
 10
-50.24771204855387
 20
-5.738560242769346
 30
0.0
 11
-48.87843192716919
 21
-7.107840364154029
 31
0.0
  0
LINE
  5
374
330
1F
100
AcDbEntity
  8
SK2
  6
CONTINUOUS
370
25
 62
7
100
AcDbLine
 10
-50.17700137043522
 20
-5.385006852176062
 30
0.0
 11
-48.98449794434718
 21
-6.577510278264107
 31
0.0
  0
LINE
  5
375
330
1F
100
AcDbEntity
  8
SK2
  6
CONTINUOUS
370
25
 62
7
100
AcDbLine
 10
-50.10629069231656
 20
-5.031453461582792
 30
0.0
 11
-49.09056396152516
 21
-6.047180192374192
 31
0.0
  0
LINE
  5
376
330
1F
100
AcDbEntity
  8
SK2
  6
CONTINUOUS
370
25
 62
7
100
AcDbLine
 10
-50.0355800141979
 20
-4.677900070989516
 30
0.0
 11
-49.19662997870314
 21
-5.516850106484277
 31
0.0
  0
LINE
  5
377
330
1F
100
AcDbEntity
  8
SK2
  6
CONTINUOUS
370
25
 62
7
100
AcDbLine
 10
-49.96486933607925
 20
-4.324346680396246
 30
0.0
 11
-49.30269599588112
 21
-4.986520020594369
 31
0.0
  0
LINE
  5
378
330
1F
100
AcDbEntity
  8
SK2
  6
CONTINUOUS
370
25
 62
7
100
AcDbLine
 10
-49.8941586579606
 20
-3.97079328980297
 30
0.0
 11
-49.4087620130591
 21
-4.456189934704462
 31
0.0
  0
LINE
  5
379
330
1F
100
AcDbEntity
  8
SK2
  6
CONTINUOUS
370
25
 62
7
100
AcDbLine
 10
-49.82344797984194
 20
-3.617239899209686
 30
0.0
 11
-49.51482803023708
 21
-3.925859848814547
 31
0.0
  0
LINE
  5
37A
330
1F
100
AcDbEntity
  8
SK2
  6
CONTINUOUS
370
25
 62
7
100
AcDbLine
 10
-49.75273730172328
 20
-3.263686508616424
 30
0.0
 11
-49.62089404741508
 21
-3.395529762924625
 31
0.0
  0
LINE
  5
37B
330
1F
100
AcDbEntity
  8
SK2
  6
CONTINUOUS
370
25
 62
7
100
AcDbLine
 10
-49.7
 20
3.0
 30
0.0
 11
-50.7
 21
8.0
 31
0.0
  0
LINE
  5
37C
330
1F
100
AcDbEntity
  8
SK2
  6
CONTINUOUS
370
25
 62
7
100
AcDbLine
 10
-50.7
 20
8.0
 30
0.0
 11
-48.7
 21
8.0
 31
0.0
  0
LINE
  5
37D
330
1F
100
AcDbEntity
  8
SK2
  6
CONTINUOUS
370
25
 62
7
100
AcDbLine
 10
-48.7
 20
8.0
 30
0.0
 11
-49.7
 21
3.0
 31
0.0
  0
LINE
  5
37E
330
1F
100
AcDbEntity
  8
SK2
  6
CONTINUOUS
370
25
 62
7
100
AcDbLine
 10
-49.75550143149851
 20
3.277507157492529
 30
0.0
 11
-49.61674785275224
 21
3.416260736238797
 31
0.0
  0
LINE
  5
37F
330
1F
100
AcDbEntity
  8
SK2
  6
CONTINUOUS
370
25
 62
7
100
AcDbLine
 10
-49.82621210961716
 20
3.631060548085799
 30
0.0
 11
-49.51068183557426
 21
3.946590822128698
 31
0.0
  0
LINE
  5
380
330
1F
100
AcDbEntity
  8
SK2
  6
CONTINUOUS
370
25
 62
7
100
AcDbLine
 10
-49.89692278773581
 20
3.984613938679082
 30
0.0
 11
-49.40461581839628
 21
4.476920908018613
 31
0.0
  0
LINE
  5
381
330
1F
100
AcDbEntity
  8
SK2
  6
CONTINUOUS
370
25
 62
7
100
AcDbLine
 10
-49.96763346585447
 20
4.338167329272352
 30
0.0
 11
-49.2985498012183
 21
5.007250993908521
 31
0.0
  0
LINE
  5
382
330
1F
100
AcDbEntity
  8
SK2
  6
CONTINUOUS
370
25
 62
7
100
AcDbLine
 10
-50.03834414397312
 20
4.691720719865636
 30
0.0
 11
-49.19248378404031
 21
5.537581079798443
 31
0.0
  0
LINE
  5
383
330
1F
100
AcDbEntity
  8
SK2
  6
CONTINUOUS
370
25
 62
7
100
AcDbLine
 10
-50.10905482209178
 20
5.045274110458912
 30
0.0
 11
-49.08641776686232
 21
6.067911165688372
 31
0.0
  0
LINE
  5
384
330
1F
100
AcDbEntity
  8
SK2
  6
CONTINUOUS
370
25
 62
7
100
AcDbLine
 10
-50.17976550021044
 20
5.398827501052182
 30
0.0
 11
-48.98035174968434
 21
6.598241251578287
 31
0.0
  0
LINE
  5
385
330
1F
100
AcDbEntity
  8
SK2
  6
CONTINUOUS
370
25
 62
7
100
AcDbLine
 10
-50.25047617832909
 20
5.752380891645466
 30
0.0
 11
-48.87428573250635
 21
7.128571337468209
 31
0.0
  0
LINE
  5
386
330
1F
100
AcDbEntity
  8
SK2
  6
CONTINUOUS
370
25
 62
7
100
AcDbLine
 10
-50.32118685644775
 20
6.105934282238735
 30
0.0
 11
-48.76821971532837
 21
7.658901423358117
 31
0.0
  0
LINE
  5
387
330
1F
100
AcDbEntity
  8
SK2
  6
CONTINUOUS
370
25
 62
7
100
AcDbLine
 10
-50.3918975345664
 20
6.459487672832019
 30
0.0
 11
-48.85138520739842
 21
8.0
 31
0.0
  0
LINE
  5
388
330
1F
100
AcDbEntity
  8
SK2
  6
CONTINUOUS
370
25
 62
7
100
AcDbLine
 10
-50.46260821268505
 20
6.813041063425295
 30
0.0
 11
-49.27564927611034
 21
8.0
 31
0.0
  0
LINE
  5
389
330
1F
100
AcDbEntity
  8
SK2
  6
CONTINUOUS
370
25
 62
7
100
AcDbLine
 10
-50.53331889080371
 20
7.166594454018572
 30
0.0
 11
-49.69991334482228
 21
8.0
 31
0.0
  0
LINE
  5
38A
330
1F
100
AcDbEntity
  8
SK2
  6
CONTINUOUS
370
25
 62
7
100
AcDbLine
 10
-50.60402956892237
 20
7.520147844611841
 30
0.0
 11
-50.12417741353421
 21
8.0
 31
0.0
  0
LINE
  5
38B
330
1F
100
AcDbEntity
  8
SK2
  6
CONTINUOUS
370
25
 62
7
100
AcDbLine
 10
-50.67474024704103
 20
7.873701235205118
 30
0.0
 11
-50.54844148224615
 21
8.0
 31
0.0
  0
LINE
  5
38C
330
1F
100
AcDbEntity
  8
SK2
  6
CONTINUOUS
370
25
 62
7
100
AcDbLine
 10
-49.80251742900771
 20
3.51258714503858
 30
0.0
 11
-49.63165504732819
 21
3.341724763359053
 31
0.0
  0
LINE
  5
38D
330
1F
100
AcDbEntity
  8
SK2
  6
CONTINUOUS
370
25
 62
7
100
AcDbLine
 10
-49.9085834461857
 20
4.042917230928509
 30
0.0
 11
-49.56094436920953
 21
3.695278153952337
 31
0.0
  0
LINE
  5
38E
330
1F
100
AcDbEntity
  8
SK2
  6
CONTINUOUS
370
25
 62
7
100
AcDbLine
 10
-50.01464946336368
 20
4.57324731681841
 30
0.0
 11
-49.49023369109087
 21
4.048831544545607
 31
0.0
  0
LINE
  5
38F
330
1F
100
AcDbEntity
  8
SK2
  6
CONTINUOUS
370
25
 62
7
100
AcDbLine
 10
-50.12071548054167
 20
5.103577402708325
 30
0.0
 11
-49.41952301297222
 21
4.402384935138883
 31
0.0
  0
LINE
  5
390
330
1F
100
AcDbEntity
  8
SK2
  6
CONTINUOUS
370
25
 62
7
100
AcDbLine
 10
-50.22678149771965
 20
5.63390748859824
 30
0.0
 11
-49.34881233485357
 21
4.75593832573216
 31
0.0
  0
LINE
  5
391
330
1F
100
AcDbEntity
  8
SK2
  6
CONTINUOUS
370
25
 62
7
100
AcDbLine
 10
-50.33284751489763
 20
6.164237574488155
 30
0.0
 11
-49.27810165673491
 21
5.109491716325437
 31
0.0
  0
LINE
  5
392
330
1F
100
AcDbEntity
  8
SK2
  6
CONTINUOUS
370
25
 62
7
100
AcDbLine
 10
-50.43891353207562
 20
6.69456766037807
 30
0.0
 11
-49.20739097861626
 21
5.463045106918713
 31
0.0
  0
LINE
  5
393
330
1F
100
AcDbEntity
  8
SK2
  6
CONTINUOUS
370
25
 62
7
100
AcDbLine
 10
-50.5449795492536
 20
7.224897746267978
 30
0.0
 11
-49.13668030049761
 21
5.81659849751199
 31
0.0
  0
LINE
  5
394
330
1F
100
AcDbEntity
  8
SK2
  6
CONTINUOUS
370
25
 62
7
100
AcDbLine
 10
-50.65104556643158
 20
7.7552278321579
 30
0.0
 11
-49.06596962237894
 21
6.170151888105259
 31
0.0
  0
LINE
  5
395
330
1F
100
AcDbEntity
  8
SK2
  6
CONTINUOUS
370
25
 62
7
100
AcDbLine
 10
-50.47155366556175
 20
8.0
 30
0.0
 11
-48.99525894426029
 21
6.523705278698543
 31
0.0
  0
LINE
  5
396
330
1F
100
AcDbEntity
  8
SK2
  6
CONTINUOUS
370
25
 62
7
100
AcDbLine
 10
-50.04728959684982
 20
8.0
 30
0.0
 11
-48.92454826614163
 21
6.877258669291813
 31
0.0
  0
LINE
  5
397
330
1F
100
AcDbEntity
  8
SK2
  6
CONTINUOUS
370
25
 62
7
100
AcDbLine
 10
-49.62302552813789
 20
8.0
 30
0.0
 11
-48.85383758802298
 21
7.230812059885096
 31
0.0
  0
LINE
  5
398
330
1F
100
AcDbEntity
  8
SK2
  6
CONTINUOUS
370
25
 62
7
100
AcDbLine
 10
-49.19876145942596
 20
8.0
 30
0.0
 11
-48.78312690990433
 21
7.584365450478366
 31
0.0
  0
LINE
  5
399
330
1F
100
AcDbEntity
  8
SK2
  6
CONTINUOUS
370
25
 62
7
100
AcDbLine
 10
-48.77449739071403
 20
8.0
 30
0.0
 11
-48.71241623178567
 21
7.937918841071642
 31
0.0
  0
TEXT
  5
39A
330
1F
100
AcDbEntity
  8
SK2
  6
CONTINUOUS
370
25
 62
7
100
AcDbText
 10
-51.2
 20
13.34583333333333
 30
0.0
 40
3.5
  1
6
 50
90.00000000000001
 72
     1
 11
-51.2
 21
14.5125
 31
0.0
100
AcDbText
  0
CIRCLE
  5
39B
330
1F
100
AcDbEntity
  8
SK2
  6
CONTINUOUS
370
25
 62
7
100
AcDbCircle
 10
-52.95
 20
11.1875
 30
0.0
 40
1.4
  0
LINE
  5
39C
330
1F
100
AcDbEntity
  8
SK2
  6
CONTINUOUS
370
25
 62
7
100
AcDbLine
 10
-51.55
 20
9.787500000000001
 30
0.0
 11
-54.35
 21
12.5875
 31
0.0
  0
LINE
  5
39D
330
1F
100
AcDbEntity
  8
SK2
  6
CONTINUOUS
370
25
 62
7
100
AcDbLine
 10
-37.7
 20
3.0
 30
0.0
 11
-37.7
 21
15.0
 31
0.0
  0
LINE
  5
39E
330
1F
100
AcDbEntity
  8
SK2
  6
CONTINUOUS
370
25
 62
7
100
AcDbLine
 10
0.0000000000000001
 20
16.0
 30
0.0
 11
-0.0000000000000007
 21
3.0
 31
0.0
  0
LINE
  5
39F
330
1F
100
AcDbEntity
  8
SK2
  6
CONTINUOUS
370
25
 62
7
100
AcDbLine
 10
-37.7
 20
15.0
 30
0.0
 11
0.0
 21
15.0
 31
0.0
  0
LINE
  5
3A0
330
1F
100
AcDbEntity
  8
SK2
  6
CONTINUOUS
370
25
 62
7
100
AcDbLine
 10
-37.7
 20
15.0
 30
0.0
 11
-32.7
 21
16.0
 31
0.0
  0
LINE
  5
3A1
330
1F
100
AcDbEntity
  8
SK2
  6
CONTINUOUS
370
25
 62
7
100
AcDbLine
 10
-32.7
 20
16.0
 30
0.0
 11
-32.7
 21
14.0
 31
0.0
  0
LINE
  5
3A2
330
1F
100
AcDbEntity
  8
SK2
  6
CONTINUOUS
370
25
 62
7
100
AcDbLine
 10
-32.7
 20
14.0
 30
0.0
 11
-37.7
 21
15.0
 31
0.0
  0
LINE
  5
3A3
330
1F
100
AcDbEntity
  8
SK2
  6
CONTINUOUS
370
25
 62
7
100
AcDbLine
 10
-33.0277596891867
 20
14.06555193783734
 30
0.0
 11
-32.7
 21
14.39331162702404
 31
0.0
  0
LINE
  5
3A4
330
1F
100
AcDbEntity
  8
SK2
  6
CONTINUOUS
370
25
 62
7
100
AcDbLine
 10
-33.38131307977997
 20
14.136262615956
 30
0.0
 11
-32.7
 21
14.81757569573597
 31
0.0
  0
LINE
  5
3A5
330
1F
100
AcDbEntity
  8
SK2
  6
CONTINUOUS
370
25
 62
7
100
AcDbLine
 10
-33.73486647037325
 20
14.20697329407465
 30
0.0
 11
-32.7
 21
15.24183976444789
 31
0.0
  0
LINE
  5
3A6
330
1F
100
AcDbEntity
  8
SK2
  6
CONTINUOUS
370
25
 62
7
100
AcDbLine
 10
-34.08841986096652
 20
14.27768397219331
 30
0.0
 11
-32.7
 21
15.66610383315982
 31
0.0
  0
LINE
  5
3A7
330
1F
100
AcDbEntity
  8
SK2
  6
CONTINUOUS
370
25
 62
7
100
AcDbLine
 10
-34.4419732515598
 20
14.34839465031197
 30
0.0
 11
-32.81295987733971
 21
15.97740802453205
 31
0.0
  0
LINE
  5
3A8
330
1F
100
AcDbEntity
  8
SK2
  6
CONTINUOUS
370
25
 62
7
100
AcDbLine
 10
-34.79552664215307
 20
14.41910532843062
 30
0.0
 11
-33.34328996322961
 21
15.87134200735407
 31
0.0
  0
LINE
  5
3A9
330
1F
100
AcDbEntity
  8
SK2
  6
CONTINUOUS
370
25
 62
7
100
AcDbLine
 10
-35.14908003274635
 20
14.48981600654927
 30
0.0
 11
-33.87362004911952
 21
15.76527599017609
 31
0.0
  0
LINE
  5
3AA
330
1F
100
AcDbEntity
  8
SK2
  6
CONTINUOUS
370
25
 62
7
100
AcDbLine
 10
-35.50263342333963
 20
14.56052668466792
 30
0.0
 11
-34.40395013500943
 21
15.65920997299812
 31
0.0
  0
LINE
  5
3AB
330
1F
100
AcDbEntity
  8
SK2
  6
CONTINUOUS
370
25
 62
7
100
AcDbLine
 10
-35.8561868139329
 20
14.63123736278658
 30
0.0
 11
-34.93428022089935
 21
15.55314395582013
 31
0.0
  0
LINE
  5
3AC
330
1F
100
AcDbEntity
  8
SK2
  6
CONTINUOUS
370
25
 62
7
100
AcDbLine
 10
-36.20974020452617
 20
14.70194804090524
 30
0.0
 11
-35.46461030678926
 21
15.44707793864215
 31
0.0
  0
LINE
  5
3AD
330
1F
100
AcDbEntity
  8
SK2
  6
CONTINUOUS
370
25
 62
7
100
AcDbLine
 10
-36.56329359511945
 20
14.77265871902389
 30
0.0
 11
-35.99494039267917
 21
15.34101192146417
 31
0.0
  0
LINE
  5
3AE
330
1F
100
AcDbEntity
  8
SK2
  6
CONTINUOUS
370
25
 62
7
100
AcDbLine
 10
-36.91684698571272
 20
14.84336939714255
 30
0.0
 11
-36.52527047856909
 21
15.23494590428618
 31
0.0
  0
LINE
  5
3AF
330
1F
100
AcDbEntity
  8
SK2
  6
CONTINUOUS
370
25
 62
7
100
AcDbLine
 10
-37.270400376306
 20
14.9140800752612
 30
0.0
 11
-37.055600564459
 21
15.1288798871082
 31
0.0
  0
LINE
  5
3B0
330
1F
100
AcDbEntity
  8
SK2
  6
CONTINUOUS
370
25
 62
7
100
AcDbLine
 10
-37.62395376689928
 20
14.98479075337985
 30
0.0
 11
-37.58593065034891
 21
15.02281386993022
 31
0.0
  0
LINE
  5
3B1
330
1F
100
AcDbEntity
  8
SK2
  6
CONTINUOUS
370
25
 62
7
100
AcDbLine
 10
-37.51081850045753
 20
15.0378362999085
 30
0.0
 11
-37.41622775068629
 21
14.94324555013726
 31
0.0
  0
LINE
  5
3B2
330
1F
100
AcDbEntity
  8
SK2
  6
CONTINUOUS
370
25
 62
7
100
AcDbLine
 10
-37.15726510986426
 20
15.10854697802715
 30
0.0
 11
-36.88589766479637
 21
14.83717953295927
 31
0.0
  0
LINE
  5
3B3
330
1F
100
AcDbEntity
  8
SK2
  6
CONTINUOUS
370
25
 62
7
100
AcDbLine
 10
-36.80371171927098
 20
15.1792576561458
 30
0.0
 11
-36.35556757890647
 21
14.73111351578129
 31
0.0
  0
LINE
  5
3B4
330
1F
100
AcDbEntity
  8
SK2
  6
CONTINUOUS
370
25
 62
7
100
AcDbLine
 10
-36.4501583286777
 20
15.24996833426446
 30
0.0
 11
-35.82523749301655
 21
14.6250474986033
 31
0.0
  0
LINE
  5
3B5
330
1F
100
AcDbEntity
  8
SK2
  6
CONTINUOUS
370
25
 62
7
100
AcDbLine
 10
-36.09660493808443
 20
15.32067901238312
 30
0.0
 11
-35.29490740712664
 21
14.51898148142533
 31
0.0
  0
LINE
  5
3B6
330
1F
100
AcDbEntity
  8
SK2
  6
CONTINUOUS
370
25
 62
7
100
AcDbLine
 10
-35.74305154749115
 20
15.39138969050176
 30
0.0
 11
-34.76457732123673
 21
14.41291546424734
 31
0.0
  0
LINE
  5
3B7
330
1F
100
AcDbEntity
  8
SK2
  6
CONTINUOUS
370
25
 62
7
100
AcDbLine
 10
-35.38949815689788
 20
15.46210036862043
 30
0.0
 11
-34.23424723534682
 21
14.30684944706937
 31
0.0
  0
LINE
  5
3B8
330
1F
100
AcDbEntity
  8
SK2
  6
CONTINUOUS
370
25
 62
7
100
AcDbLine
 10
-35.03594476630461
 20
15.53281104673908
 30
0.0
 11
-33.70391714945691
 21
14.20078342989138
 31
0.0
  0
LINE
  5
3B9
330
1F
100
AcDbEntity
  8
SK2
  6
CONTINUOUS
370
25
 62
7
100
AcDbLine
 10
-34.68239137571133
 20
15.60352172485774
 30
0.0
 11
-33.173587063567
 21
14.09471741271339
 31
0.0
  0
LINE
  5
3BA
330
1F
100
AcDbEntity
  8
SK2
  6
CONTINUOUS
370
25
 62
7
100
AcDbLine
 10
-34.32883798511805
 20
15.67423240297638
 30
0.0
 11
-32.7
 21
14.04539441785833
 31
0.0
  0
LINE
  5
3BB
330
1F
100
AcDbEntity
  8
SK2
  6
CONTINUOUS
370
25
 62
7
100
AcDbLine
 10
-33.97528459452478
 20
15.74494308109504
 30
0.0
 11
-32.7
 21
14.46965848657026
 31
0.0
  0
LINE
  5
3BC
330
1F
100
AcDbEntity
  8
SK2
  6
CONTINUOUS
370
25
 62
7
100
AcDbLine
 10
-33.62173120393151
 20
15.8156537592137
 30
0.0
 11
-32.7
 21
14.89392255528218
 31
0.0
  0
LINE
  5
3BD
330
1F
100
AcDbEntity
  8
SK2
  6
CONTINUOUS
370
25
 62
7
100
AcDbLine
 10
-33.26817781333823
 20
15.88636443733235
 30
0.0
 11
-32.7
 21
15.31818662399412
 31
0.0
  0
LINE
  5
3BE
330
1F
100
AcDbEntity
  8
SK2
  6
CONTINUOUS
370
25
 62
7
100
AcDbLine
 10
-32.91462442274496
 20
15.95707511545101
 30
0.0
 11
-32.7
 21
15.74245069270605
 31
0.0
  0
LINE
  5
3BF
330
1F
100
AcDbEntity
  8
SK2
  6
CONTINUOUS
370
25
 62
7
100
AcDbLine
 10
0.0
 20
15.0
 30
0.0
 11
-5.0
 21
14.0
 31
0.0
  0
LINE
  5
3C0
330
1F
100
AcDbEntity
  8
SK2
  6
CONTINUOUS
370
25
 62
7
100
AcDbLine
 10
-5.0
 20
14.0
 30
0.0
 11
-5.0
 21
16.0
 31
0.0
  0
LINE
  5
3C1
330
1F
100
AcDbEntity
  8
SK2
  6
CONTINUOUS
370
25
 62
7
100
AcDbLine
 10
-5.0
 20
16.0
 30
0.0
 11
0.0
 21
15.0
 31
0.0
  0
LINE
  5
3C2
330
1F
100
AcDbEntity
  8
SK2
  6
CONTINUOUS
370
25
 62
7
100
AcDbLine
 10
-0.341883092036781
 20
14.93162338159264
 30
0.0
 11
-0.227922061357854
 21
15.04558441227157
 31
0.0
  0
LINE
  5
3C3
330
1F
100
AcDbEntity
  8
SK2
  6
CONTINUOUS
370
25
 62
7
100
AcDbLine
 10
-0.8722131779266906
 20
14.82555736441466
 30
0.0
 11
-0.5814754519511272
 21
15.11629509039023
 31
0.0
  0
LINE
  5
3C4
330
1F
100
AcDbEntity
  8
SK2
  6
CONTINUOUS
370
25
 62
7
100
AcDbLine
 10
-1.4025432638166
 20
14.71949134723668
 30
0.0
 11
-0.9350288425444002
 21
15.18700576850888
 31
0.0
  0
LINE
  5
3C5
330
1F
100
AcDbEntity
  8
SK2
  6
CONTINUOUS
370
25
 62
7
100
AcDbLine
 10
-1.93287334970651
 20
14.6134253300587
 30
0.0
 11
-1.288582233137673
 21
15.25771644662754
 31
0.0
  0
LINE
  5
3C6
330
1F
100
AcDbEntity
  8
SK2
  6
CONTINUOUS
370
25
 62
7
100
AcDbLine
 10
-2.463203435596419
 20
14.50735931288072
 30
0.0
 11
-1.642135623730946
 21
15.32842712474619
 31
0.0
  0
LINE
  5
3C7
330
1F
100
AcDbEntity
  8
SK2
  6
CONTINUOUS
370
25
 62
7
100
AcDbLine
 10
-2.993533521486328
 20
14.40129329570273
 30
0.0
 11
-1.995689014324219
 21
15.39913780286484
 31
0.0
  0
LINE
  5
3C8
330
1F
100
AcDbEntity
  8
SK2
  6
CONTINUOUS
370
25
 62
7
100
AcDbLine
 10
-3.523863607376237
 20
14.29522727852475
 30
0.0
 11
-2.349242404917492
 21
15.4698484809835
 31
0.0
  0
LINE
  5
3C9
330
1F
100
AcDbEntity
  8
SK2
  6
CONTINUOUS
370
25
 62
7
100
AcDbLine
 10
-4.054193693266146
 20
14.18916126134677
 30
0.0
 11
-2.702795795510765
 21
15.54055915910215
 31
0.0
  0
LINE
  5
3CA
330
1F
100
AcDbEntity
  8
SK2
  6
CONTINUOUS
370
25
 62
7
100
AcDbLine
 10
-4.58452377915606
 20
14.08309524416879
 30
0.0
 11
-3.056349186104041
 21
15.61126983722081
 31
0.0
  0
LINE
  5
3CB
330
1F
100
AcDbEntity
  8
SK2
  6
CONTINUOUS
370
25
 62
7
100
AcDbLine
 10
-5.0
 20
14.09188309203678
 30
0.0
 11
-3.409902576697313
 21
15.68198051533946
 31
0.0
  0
LINE
  5
3CC
330
1F
100
AcDbEntity
  8
SK2
  6
CONTINUOUS
370
25
 62
7
100
AcDbLine
 10
-5.0
 20
14.5161471607487
 30
0.0
 11
-3.763455967290586
 21
15.75269119345812
 31
0.0
  0
LINE
  5
3CD
330
1F
100
AcDbEntity
  8
SK2
  6
CONTINUOUS
370
25
 62
7
100
AcDbLine
 10
-5.0
 20
14.94041122946063
 30
0.0
 11
-4.117009357883859
 21
15.82340187157677
 31
0.0
  0
LINE
  5
3CE
330
1F
100
AcDbEntity
  8
SK2
  6
CONTINUOUS
370
25
 62
7
100
AcDbLine
 10
-5.0
 20
15.36467529817256
 30
0.0
 11
-4.470562748477132
 21
15.89411254969543
 31
0.0
  0
LINE
  5
3CF
330
1F
100
AcDbEntity
  8
SK2
  6
CONTINUOUS
370
25
 62
7
100
AcDbLine
 10
-5.0
 20
15.78893936688449
 30
0.0
 11
-4.824116139070405
 21
15.96482322781408
 31
0.0
  0
LINE
  5
3D0
330
1F
100
AcDbEntity
  8
SK2
  6
CONTINUOUS
370
25
 62
7
100
AcDbLine
 10
-5.0
 20
14.3338095116624
 30
0.0
 11
-4.721825406947999
 21
14.0556349186104
 31
0.0
  0
LINE
  5
3D1
330
1F
100
AcDbEntity
  8
SK2
  6
CONTINUOUS
370
25
 62
7
100
AcDbLine
 10
-5.0
 20
14.75807358037433
 30
0.0
 11
-4.368272016354727
 21
14.12634559672905
 31
0.0
  0
LINE
  5
3D2
330
1F
100
AcDbEntity
  8
SK2
  6
CONTINUOUS
370
25
 62
7
100
AcDbLine
 10
-5.0
 20
15.18233764908625
 30
0.0
 11
-4.014718625761454
 21
14.19705627484771
 31
0.0
  0
LINE
  5
3D3
330
1F
100
AcDbEntity
  8
SK2
  6
CONTINUOUS
370
25
 62
7
100
AcDbLine
 10
-5.0
 20
15.60660171779818
 30
0.0
 11
-3.661165235168179
 21
14.26776695296637
 31
0.0
  0
LINE
  5
3D4
330
1F
100
AcDbEntity
  8
SK2
  6
CONTINUOUS
370
25
 62
7
100
AcDbLine
 10
-4.961417766862361
 20
15.99228355337247
 30
0.0
 11
-3.307611844574905
 21
14.33847763108502
 31
0.0
  0
LINE
  5
3D5
330
1F
100
AcDbEntity
  8
SK2
  6
CONTINUOUS
370
25
 62
7
100
AcDbLine
 10
-4.431087680972451
 20
15.88621753619449
 30
0.0
 11
-2.954058453981632
 21
14.40918830920367
 31
0.0
  0
LINE
  5
3D6
330
1F
100
AcDbEntity
  8
SK2
  6
CONTINUOUS
370
25
 62
7
100
AcDbLine
 10
-3.90075759508254
 20
15.78015151901651
 30
0.0
 11
-2.600505063388358
 21
14.47989898732233
 31
0.0
  0
LINE
  5
3D7
330
1F
100
AcDbEntity
  8
SK2
  6
CONTINUOUS
370
25
 62
7
100
AcDbLine
 10
-3.370427509192631
 20
15.67408550183853
 30
0.0
 11
-2.246951672795086
 21
14.55060966544098
 31
0.0
  0
LINE
  5
3D8
330
1F
100
AcDbEntity
  8
SK2
  6
CONTINUOUS
370
25
 62
7
100
AcDbLine
 10
-2.840097423302721
 20
15.56801948466054
 30
0.0
 11
-1.893398282201812
 21
14.62132034355964
 31
0.0
  0
LINE
  5
3D9
330
1F
100
AcDbEntity
  8
SK2
  6
CONTINUOUS
370
25
 62
7
100
AcDbLine
 10
-2.30976733741281
 20
15.46195346748256
 30
0.0
 11
-1.539844891608539
 21
14.69203102167829
 31
0.0
  0
LINE
  5
3DA
330
1F
100
AcDbEntity
  8
SK2
  6
CONTINUOUS
370
25
 62
7
100
AcDbLine
 10
-1.7794372515229
 20
15.35588745030458
 30
0.0
 11
-1.186291501015265
 21
14.76274169979695
 31
0.0
  0
LINE
  5
3DB
330
1F
100
AcDbEntity
  8
SK2
  6
CONTINUOUS
370
25
 62
7
100
AcDbLine
 10
-1.249107165632989
 20
15.2498214331266
 30
0.0
 11
-0.8327381104219916
 21
14.8334523779156
 31
0.0
  0
LINE
  5
3DC
330
1F
100
AcDbEntity
  8
SK2
  6
CONTINUOUS
370
25
 62
7
100
AcDbLine
 10
-0.7187770797430799
 20
15.14375541594862
 30
0.0
 11
-0.4791847198287195
 21
14.90416305603426
 31
0.0
  0
LINE
  5
3DD
330
1F
100
AcDbEntity
  8
SK2
  6
CONTINUOUS
370
25
 62
7
100
AcDbLine
 10
-0.1884469938531668
 20
15.03768939877063
 30
0.0
 11
-0.1256313292354444
 21
14.97487373415291
 31
0.0
  0
TEXT
  5
3DE
330
1F
100
AcDbEntity
  8
SK2
  6
CONTINUOUS
370
25
 62
7
100
AcDbText
 10
-24.1
 20
16.5
 30
0.0
 40
3.5
  1
37.7
 72
     1
 11
-18.85
 21
16.5
 31
0.0
100
AcDbText
  0
LINE
  5
3DF
330
1F
100
AcDbEntity
  8
2
  6
CONTINUOUS
370
25
 62
7
100
AcDbLine
 10
12.3
 20
-1.2
 30
0.0
 11
42.2
 21
-1.200000000000004
 31
0.0
  0
LINE
  5
3E0
330
1F
100
AcDbEntity
  8
2
  6
CONTINUOUS
370
25
 62
7
100
AcDbLine
 10
42.2
 20
1.199999999999996
 30
0.0
 11
12.3
 21
1.2
 31
0.0
  0
LINE
  5
3E1
330
1F
100
AcDbEntity
  8
2
  6
CONTINUOUS
370
25
 62
7
100
AcDbLine
 10
41.2
 20
-8.200000000000003
 30
0.0
 11
41.2
 21
20.62499999999999
 31
0.0
  0
LINE
  5
3E2
330
1F
100
AcDbEntity
  8
2
  6
CONTINUOUS
370
25
 62
7
100
AcDbLine
 10
41.2
 20
-1.200000000000003
 30
0.0
 11
42.2
 21
-6.200000000000003
 31
0.0
  0
LINE
  5
3E3
330
1F
100
AcDbEntity
  8
2
  6
CONTINUOUS
370
25
 62
7
100
AcDbLine
 10
42.2
 20
-6.200000000000003
 30
0.0
 11
40.2
 21
-6.200000000000003
 31
0.0
  0
LINE
  5
3E4
330
1F
100
AcDbEntity
  8
2
  6
CONTINUOUS
370
25
 62
7
100
AcDbLine
 10
40.2
 20
-6.200000000000003
 30
0.0
 11
41.2
 21
-1.200000000000003
 31
0.0
  0
LINE
  5
3E5
330
1F
100
AcDbEntity
  8
2
  6
CONTINUOUS
370
25
 62
7
100
AcDbLine
 10
41.91419435268109
 20
-6.200000000000003
 30
0.0
 11
42.15236572544685
 21
-5.96182862723424
 31
0.0
  0
LINE
  5
3E6
330
1F
100
AcDbEntity
  8
2
  6
CONTINUOUS
370
25
 62
7
100
AcDbLine
 10
41.48993028396915
 20
-6.200000000000003
 30
0.0
 11
42.08165504732819
 21
-5.608275236640964
 31
0.0
  0
LINE
  5
3E7
330
1F
100
AcDbEntity
  8
2
  6
CONTINUOUS
370
25
 62
7
100
AcDbLine
 10
41.06566621525722
 20
-6.200000000000003
 30
0.0
 11
42.01094436920954
 21
-5.254721846047687
 31
0.0
  0
LINE
  5
3E8
330
1F
100
AcDbEntity
  8
2
  6
CONTINUOUS
370
25
 62
7
100
AcDbLine
 10
40.6414021465453
 20
-6.200000000000003
 30
0.0
 11
41.94023369109089
 21
-4.90116845545441
 31
0.0
  0
LINE
  5
3E9
330
1F
100
AcDbEntity
  8
2
  6
CONTINUOUS
370
25
 62
7
100
AcDbLine
 10
40.21713807783336
 20
-6.200000000000003
 30
0.0
 11
41.86952301297223
 21
-4.547615064861134
 31
0.0
  0
LINE
  5
3EA
330
1F
100
AcDbEntity
  8
2
  6
CONTINUOUS
370
25
 62
7
100
AcDbLine
 10
40.30178149771964
 20
-5.691092511401799
 30
0.0
 11
41.79881233485357
 21
-4.194061674267871
 31
0.0
  0
LINE
  5
3EB
330
1F
100
AcDbEntity
  8
2
  6
CONTINUOUS
370
25
 62
7
100
AcDbLine
 10
40.40784751489762
 20
-5.160762425511884
 30
0.0
 11
41.72810165673491
 21
-3.840508283674595
 31
0.0
  0
LINE
  5
3EC
330
1F
100
AcDbEntity
  8
2
  6
CONTINUOUS
370
25
 62
7
100
AcDbLine
 10
40.51391353207561
 20
-4.630432339621962
 30
0.0
 11
41.65739097861626
 21
-3.486954893081311
 31
0.0
  0
LINE
  5
3ED
330
1F
100
AcDbEntity
  8
2
  6
CONTINUOUS
370
25
 62
7
100
AcDbLine
 10
40.61997954925359
 20
-4.100102253732054
 30
0.0
 11
41.5866803004976
 21
-3.133401502488034
 31
0.0
  0
LINE
  5
3EE
330
1F
100
AcDbEntity
  8
2
  6
CONTINUOUS
370
25
 62
7
100
AcDbLine
 10
40.72604556643157
 20
-3.569772167842139
 30
0.0
 11
41.51596962237895
 21
-2.779848111894765
 31
0.0
  0
LINE
  5
3EF
330
1F
100
AcDbEntity
  8
2
  6
CONTINUOUS
370
25
 62
7
100
AcDbLine
 10
40.83211158360955
 20
-3.039442081952224
 30
0.0
 11
41.44525894426029
 21
-2.426294721301488
 31
0.0
  0
LINE
  5
3F0
330
1F
100
AcDbEntity
  8
2
  6
CONTINUOUS
370
25
 62
7
100
AcDbLine
 10
40.93817760078753
 20
-2.509111996062309
 30
0.0
 11
41.37454826614163
 21
-2.072741330708212
 31
0.0
  0
LINE
  5
3F1
330
1F
100
AcDbEntity
  8
2
  6
CONTINUOUS
370
25
 62
7
100
AcDbLine
 10
41.04424361796552
 20
-1.978781910172394
 30
0.0
 11
41.30383758802298
 21
-1.719187940114935
 31
0.0
  0
LINE
  5
3F2
330
1F
100
AcDbEntity
  8
2
  6
CONTINUOUS
370
25
 62
7
100
AcDbLine
 10
41.1503096351435
 20
-1.448451824282486
 30
0.0
 11
41.23312690990433
 21
-1.365634549521658
 31
0.0
  0
LINE
  5
3F3
330
1F
100
AcDbEntity
  8
2
  6
CONTINUOUS
370
25
 62
7
100
AcDbLine
 10
40.26089826094437
 20
-5.895508695278167
 30
0.0
 11
40.5653895656662
 21
-6.200000000000003
 31
0.0
  0
LINE
  5
3F4
330
1F
100
AcDbEntity
  8
2
  6
CONTINUOUS
370
25
 62
7
100
AcDbLine
 10
40.33160893906302
 20
-5.54195530468489
 30
0.0
 11
40.98965363437813
 21
-6.200000000000003
 31
0.0
  0
LINE
  5
3F5
330
1F
100
AcDbEntity
  8
2
  6
CONTINUOUS
370
25
 62
7
100
AcDbLine
 10
40.40231961718167
 20
-5.188401914091614
 30
0.0
 11
41.41391770309006
 21
-6.200000000000003
 31
0.0
  0
LINE
  5
3F6
330
1F
100
AcDbEntity
  8
2
  6
CONTINUOUS
370
25
 62
7
100
AcDbLine
 10
40.47303029530033
 20
-4.834848523498351
 30
0.0
 11
41.83818177180199
 21
-6.200000000000003
 31
0.0
  0
LINE
  5
3F7
330
1F
100
AcDbEntity
  8
2
  6
CONTINUOUS
370
25
 62
7
100
AcDbLine
 10
40.54374097341898
 20
-4.481295132905068
 30
0.0
 11
42.18438853987151
 21
-6.121942699357589
 31
0.0
  0
LINE
  5
3F8
330
1F
100
AcDbEntity
  8
2
  6
CONTINUOUS
370
25
 62
7
100
AcDbLine
 10
40.61445165153764
 20
-4.127741742311791
 30
0.0
 11
42.07832252269353
 21
-5.591612613467674
 31
0.0
  0
LINE
  5
3F9
330
1F
100
AcDbEntity
  8
2
  6
CONTINUOUS
370
25
 62
7
100
AcDbLine
 10
40.68516232965629
 20
-3.774188351718514
 30
0.0
 11
41.97225650551555
 21
-5.061282527577767
 31
0.0
  0
LINE
  5
3FA
330
1F
100
AcDbEntity
  8
2
  6
CONTINUOUS
370
25
 62
7
100
AcDbLine
 10
40.75587300777495
 20
-3.420634961125238
 30
0.0
 11
41.86619048833757
 21
-4.530952441687852
 31
0.0
  0
LINE
  5
3FB
330
1F
100
AcDbEntity
  8
2
  6
CONTINUOUS
370
25
 62
7
100
AcDbLine
 10
40.82658368589361
 20
-3.067081570531968
 30
0.0
 11
41.76012447115959
 21
-4.000622355797944
 31
0.0
  0
LINE
  5
3FC
330
1F
100
AcDbEntity
  8
2
  6
CONTINUOUS
370
25
 62
7
100
AcDbLine
 10
40.89729436401227
 20
-2.713528179938692
 30
0.0
 11
41.6540584539816
 21
-3.470292269908022
 31
0.0
  0
LINE
  5
3FD
330
1F
100
AcDbEntity
  8
2
  6
CONTINUOUS
370
25
 62
7
100
AcDbLine
 10
40.96800504213092
 20
-2.359974789345415
 30
0.0
 11
41.54799243680362
 21
-2.939962184018107
 31
0.0
  0
LINE
  5
3FE
330
1F
100
AcDbEntity
  8
2
  6
CONTINUOUS
370
25
 62
7
100
AcDbLine
 10
41.03871572024957
 20
-2.006421398752131
 30
0.0
 11
41.44192641962564
 21
-2.409632098128192
 31
0.0
  0
LINE
  5
3FF
330
1F
100
AcDbEntity
  8
2
  6
CONTINUOUS
370
25
 62
7
100
AcDbLine
 10
41.10942639836823
 20
-1.652868008158862
 30
0.0
 11
41.33586040244766
 21
-1.879302012238284
 31
0.0
  0
LINE
  5
400
330
1F
100
AcDbEntity
  8
2
  6
CONTINUOUS
370
25
 62
7
100
AcDbLine
 10
41.18013707648689
 20
-1.299314617565578
 30
0.0
 11
41.22979438526967
 21
-1.348971926348362
 31
0.0
  0
LINE
  5
401
330
1F
100
AcDbEntity
  8
2
  6
CONTINUOUS
370
25
 62
7
100
AcDbLine
 10
41.2
 20
1.199999999999997
 30
0.0
 11
40.2
 21
6.199999999999997
 31
0.0
  0
LINE
  5
402
330
1F
100
AcDbEntity
  8
2
  6
CONTINUOUS
370
25
 62
7
100
AcDbLine
 10
40.2
 20
6.199999999999997
 30
0.0
 11
42.2
 21
6.199999999999997
 31
0.0
  0
LINE
  5
403
330
1F
100
AcDbEntity
  8
2
  6
CONTINUOUS
370
25
 62
7
100
AcDbLine
 10
42.2
 20
6.199999999999997
 30
0.0
 11
41.2
 21
1.199999999999997
 31
0.0
  0
LINE
  5
404
330
1F
100
AcDbEntity
  8
2
  6
CONTINUOUS
370
25
 62
7
100
AcDbLine
 10
41.14635923056
 20
1.468203847199995
 30
0.0
 11
41.28046115416
 21
1.602305770799994
 31
0.0
  0
LINE
  5
405
330
1F
100
AcDbEntity
  8
2
  6
CONTINUOUS
370
25
 62
7
100
AcDbLine
 10
41.07564855244134
 20
1.821757237793271
 30
0.0
 11
41.38652717133799
 21
2.132635856689916
 31
0.0
  0
LINE
  5
406
330
1F
100
AcDbEntity
  8
2
  6
CONTINUOUS
370
25
 62
7
100
AcDbLine
 10
41.00493787432269
 20
2.175310628386541
 30
0.0
 11
41.49259318851597
 21
2.662965942579824
 31
0.0
  0
LINE
  5
407
330
1F
100
AcDbEntity
  8
2
  6
CONTINUOUS
370
25
 62
7
100
AcDbLine
 10
40.93422719620403
 20
2.528864018979817
 30
0.0
 11
41.59865920569396
 21
3.193296028469746
 31
0.0
  0
LINE
  5
408
330
1F
100
AcDbEntity
  8
2
  6
CONTINUOUS
370
25
 62
7
100
AcDbLine
 10
40.86351651808538
 20
2.882417409573094
 30
0.0
 11
41.70472522287194
 21
3.723626114359654
 31
0.0
  0
LINE
  5
409
330
1F
100
AcDbEntity
  8
2
  6
CONTINUOUS
370
25
 62
7
100
AcDbLine
 10
40.79280583996672
 20
3.235970800166371
 30
0.0
 11
41.81079124004992
 21
4.253956200249576
 31
0.0
  0
LINE
  5
40A
330
1F
100
AcDbEntity
  8
2
  6
CONTINUOUS
370
25
 62
7
100
AcDbLine
 10
40.72209516184807
 20
3.589524190759654
 30
0.0
 11
41.9168572572279
 21
4.784286286139491
 31
0.0
  0
LINE
  5
40B
330
1F
100
AcDbEntity
  8
2
  6
CONTINUOUS
370
25
 62
7
100
AcDbLine
 10
40.65138448372941
 20
3.943077581352924
 30
0.0
 11
42.02292327440588
 21
5.314616372029398
 31
0.0
  0
LINE
  5
40C
330
1F
100
AcDbEntity
  8
2
  6
CONTINUOUS
370
25
 62
7
100
AcDbLine
 10
40.58067380561076
 20
4.296630971946207
 30
0.0
 11
42.12898929158386
 21
5.844946457919313
 31
0.0
  0
LINE
  5
40D
330
1F
100
AcDbEntity
  8
2
  6
CONTINUOUS
370
25
 62
7
100
AcDbLine
 10
40.50996312749211
 20
4.650184362539484
 30
0.0
 11
42.05977876495262
 21
6.199999999999996
 31
0.0
  0
LINE
  5
40E
330
1F
100
AcDbEntity
  8
2
  6
CONTINUOUS
370
25
 62
7
100
AcDbLine
 10
40.43925244937345
 20
5.003737753132761
 30
0.0
 11
41.63551469624068
 21
6.199999999999996
 31
0.0
  0
LINE
  5
40F
330
1F
100
AcDbEntity
  8
2
  6
CONTINUOUS
370
25
 62
7
100
AcDbLine
 10
40.3685417712548
 20
5.357291143726037
 30
0.0
 11
41.21125062752876
 21
6.199999999999996
 31
0.0
  0
LINE
  5
410
330
1F
100
AcDbEntity
  8
2
  6
CONTINUOUS
370
25
 62
7
100
AcDbLine
 10
40.29783109313614
 20
5.710844534319314
 30
0.0
 11
40.78698655881682
 21
6.199999999999996
 31
0.0
  0
LINE
  5
411
330
1F
100
AcDbEntity
  8
2
  6
CONTINUOUS
370
25
 62
7
100
AcDbLine
 10
40.22712041501748
 20
6.064397924912583
 30
0.0
 11
40.36272249010489
 21
6.199999999999996
 31
0.0
  0
LINE
  5
412
330
1F
100
AcDbEntity
  8
2
  6
CONTINUOUS
370
25
 62
7
100
AcDbLine
 10
41.19339828220178
 20
1.233008588991069
 30
0.0
 11
41.20440114519882
 21
1.22200572599403
 31
0.0
  0
LINE
  5
413
330
1F
100
AcDbEntity
  8
2
  6
CONTINUOUS
370
25
 62
7
100
AcDbLine
 10
41.0873322650238
 20
1.763338674880977
 30
0.0
 11
41.27511182331747
 21
1.575559116587307
 31
0.0
  0
LINE
  5
414
330
1F
100
AcDbEntity
  8
2
  6
CONTINUOUS
370
25
 62
7
100
AcDbLine
 10
40.98126624784582
 20
2.293668760770892
 30
0.0
 11
41.34582250143612
 21
1.929112507180591
 31
0.0
  0
LINE
  5
415
330
1F
100
AcDbEntity
  8
2
  6
CONTINUOUS
370
25
 62
7
100
AcDbLine
 10
40.87520023066783
 20
2.823998846660814
 30
0.0
 11
41.41653317955478
 21
2.282665897773867
 31
0.0
  0
LINE
  5
416
330
1F
100
AcDbEntity
  8
2
  6
CONTINUOUS
370
25
 62
7
100
AcDbLine
 10
40.76913421348985
 20
3.354328932550722
 30
0.0
 11
41.48724385767343
 21
2.636219288367137
 31
0.0
  0
LINE
  5
417
330
1F
100
AcDbEntity
  8
2
  6
CONTINUOUS
370
25
 62
7
100
AcDbLine
 10
40.66306819631186
 20
3.884659018440644
 30
0.0
 11
41.55795453579209
 21
2.989772678960414
 31
0.0
  0
LINE
  5
418
330
1F
100
AcDbEntity
  8
2
  6
CONTINUOUS
370
25
 62
7
100
AcDbLine
 10
40.55700217913388
 20
4.414989104330552
 30
0.0
 11
41.62866521391074
 21
3.34332606955369
 31
0.0
  0
LINE
  5
419
330
1F
100
AcDbEntity
  8
2
  6
CONTINUOUS
370
25
 62
7
100
AcDbLine
 10
40.4509361619559
 20
4.945319190220467
 30
0.0
 11
41.69937589202939
 21
3.696879460146974
 31
0.0
  0
LINE
  5
41A
330
1F
100
AcDbEntity
  8
2
  6
CONTINUOUS
370
25
 62
7
100
AcDbLine
 10
40.34487014477792
 20
5.475649276110374
 30
0.0
 11
41.77008657014805
 21
4.050432850740243
 31
0.0
  0
LINE
  5
41B
330
1F
100
AcDbEntity
  8
2
  6
CONTINUOUS
370
25
 62
7
100
AcDbLine
 10
40.23880412759993
 20
6.005979362000296
 30
0.0
 11
41.84079724826671
 21
4.40398624133352
 31
0.0
  0
LINE
  5
41C
330
1F
100
AcDbEntity
  8
2
  6
CONTINUOUS
370
25
 62
7
100
AcDbLine
 10
40.46904755831216
 20
6.199999999999996
 30
0.0
 11
41.91150792638536
 21
4.757539631926797
 31
0.0
  0
LINE
  5
41D
330
1F
100
AcDbEntity
  8
2
  6
CONTINUOUS
370
25
 62
7
100
AcDbLine
 10
40.8933116270241
 20
6.199999999999996
 30
0.0
 11
41.98221860450401
 21
5.11109302252008
 31
0.0
  0
LINE
  5
41E
330
1F
100
AcDbEntity
  8
2
  6
CONTINUOUS
370
25
 62
7
100
AcDbLine
 10
41.31757569573602
 20
6.199999999999996
 30
0.0
 11
42.05292928262267
 21
5.46464641311335
 31
0.0
  0
LINE
  5
41F
330
1F
100
AcDbEntity
  8
2
  6
CONTINUOUS
370
25
 62
7
100
AcDbLine
 10
41.74183976444796
 20
6.199999999999996
 30
0.0
 11
42.12363996074133
 21
5.818199803706626
 31
0.0
  0
LINE
  5
420
330
1F
100
AcDbEntity
  8
2
  6
CONTINUOUS
370
25
 62
7
100
AcDbLine
 10
42.16610383315989
 20
6.199999999999996
 30
0.0
 11
42.19435063885998
 21
6.171753194299903
 31
0.0
  0
TEXT
  5
421
330
1F
100
AcDbEntity
  8
2
  6
CONTINUOUS
370
25
 62
7
100
AcDbText
 10
39.7
 20
12.1875
 30
0.0
 40
3.5
  1
2.4
 50
90.00000000000001
 72
     1
 11
39.7
 21
15.6875
 31
0.0
100
AcDbText
  0
CIRCLE
  5
422
330
1F
100
AcDbEntity
  8
2
  6
CONTINUOUS
370
25
 62
7
100
AcDbCircle
 10
37.95
 20
9.212499999999995
 30
0.0
 40
1.4
  0
LINE
  5
423
330
1F
100
AcDbEntity
  8
2
  6
CONTINUOUS
370
25
 62
7
100
AcDbLine
 10
39.35
 20
7.812499999999996
 30
0.0
 11
36.55
 21
10.6125
 31
0.0
  0
LINE
  5
424
330
1F
100
AcDbEntity
  8
SK2
  6
CONTINUOUS
370
25
 62
7
100
AcDbLine
 10
-5.000000200000001
 20
-0.8500009999999988
 30
0.0
 11
-6.000000000000093
 21
-0.8500009999999987
 31
0.0
  0
LINE
  5
425
330
1F
100
AcDbEntity
  8
SK2
  6
CONTINUOUS
370
25
 62
7
100
AcDbLine
 10
4.8
 20
-0.850001
 30
0.0
 11
-4.9999998
 21
-0.8500009999999988
 31
0.0
  0
LINE
  5
426
330
1F
100
AcDbEntity
  8
SK2
  6
CONTINUOUS
370
25
 62
7
100
AcDbLine
 10
-6.000000000000001
 20
0.8500000000000013
 30
0.0
 11
4.8
 21
0.85
 31
0.0
  0
LINE
  5
427
330
1F
100
AcDbEntity
  8
SK2
  6
CONTINUOUS
370
25
 62
7
100
AcDbLine
 10
-5.000000000000001
 20
-20.275
 30
0.0
 11
-5.000000000000001
 21
7.850000000000004
 31
0.0
  0
LINE
  5
428
330
1F
100
AcDbEntity
  8
SK2
  6
CONTINUOUS
370
25
 62
7
100
AcDbLine
 10
-5.000000000000001
 20
-0.8499999999999988
 30
0.0
 11
-4.000000000000001
 21
-5.849999999999999
 31
0.0
  0
LINE
  5
429
330
1F
100
AcDbEntity
  8
SK2
  6
CONTINUOUS
370
25
 62
7
100
AcDbLine
 10
-4.000000000000001
 20
-5.849999999999999
 30
0.0
 11
-6.000000000000001
 21
-5.849999999999999
 31
0.0
  0
LINE
  5
42A
330
1F
100
AcDbEntity
  8
SK2
  6
CONTINUOUS
370
25
 62
7
100
AcDbLine
 10
-6.000000000000001
 20
-5.849999999999999
 30
0.0
 11
-5.000000000000001
 21
-0.8499999999999988
 31
0.0
  0
LINE
  5
42B
330
1F
100
AcDbEntity
  8
SK2
  6
CONTINUOUS
370
25
 62
7
100
AcDbLine
 10
-4.166758089006817
 20
-5.849999999999999
 30
0.0
 11
-4.02779301483447
 21
-5.711034925827652
 31
0.0
  0
LINE
  5
42C
330
1F
100
AcDbEntity
  8
SK2
  6
CONTINUOUS
370
25
 62
7
100
AcDbLine
 10
-4.591022157718744
 20
-5.849999999999999
 30
0.0
 11
-4.098503692953124
 21
-5.357481535234379
 31
0.0
  0
LINE
  5
42D
330
1F
100
AcDbEntity
  8
SK2
  6
CONTINUOUS
370
25
 62
7
100
AcDbLine
 10
-5.015286226430671
 20
-5.849999999999999
 30
0.0
 11
-4.169214371071779
 21
-5.003928144641105
 31
0.0
  0
LINE
  5
42E
330
1F
100
AcDbEntity
  8
SK2
  6
CONTINUOUS
370
25
 62
7
100
AcDbLine
 10
-5.4395502951426
 20
-5.849999999999999
 30
0.0
 11
-4.239925049190433
 21
-4.650374754047832
 31
0.0
  0
LINE
  5
42F
330
1F
100
AcDbEntity
  8
SK2
  6
CONTINUOUS
370
25
 62
7
100
AcDbLine
 10
-5.863814363854527
 20
-5.849999999999999
 30
0.0
 11
-4.310635727309088
 21
-4.296821363454558
 31
0.0
  0
LINE
  5
430
330
1F
100
AcDbEntity
  8
SK2
  6
CONTINUOUS
370
25
 62
7
100
AcDbLine
 10
-5.927980391858387
 20
-5.489901959291931
 30
0.0
 11
-4.381346405427743
 21
-3.943267972861285
 31
0.0
  0
LINE
  5
431
330
1F
100
AcDbEntity
  8
SK2
  6
CONTINUOUS
370
25
 62
7
100
AcDbLine
 10
-5.821914374680405
 20
-4.959571873402021
 30
0.0
 11
-4.452057083546397
 21
-3.589714582268012
 31
0.0
  0
LINE
  5
432
330
1F
100
AcDbEntity
  8
SK2
  6
CONTINUOUS
370
25
 62
7
100
AcDbLine
 10
-5.715848357502423
 20
-4.429241787512109
 30
0.0
 11
-4.522767761665053
 21
-3.236161191674738
 31
0.0
  0
LINE
  5
433
330
1F
100
AcDbEntity
  8
SK2
  6
CONTINUOUS
370
25
 62
7
100
AcDbLine
 10
-5.609782340324441
 20
-3.898911701622199
 30
0.0
 11
-4.593478439783707
 21
-2.882607801081465
 31
0.0
  0
LINE
  5
434
330
1F
100
AcDbEntity
  8
SK2
  6
CONTINUOUS
370
25
 62
7
100
AcDbLine
 10
-5.503716323146459
 20
-3.368581615732289
 30
0.0
 11
-4.664189117902362
 21
-2.529054410488191
 31
0.0
  0
LINE
  5
435
330
1F
100
AcDbEntity
  8
SK2
  6
CONTINUOUS
370
25
 62
7
100
AcDbLine
 10
-5.397650305968477
 20
-2.838251529842379
 30
0.0
 11
-4.734899796021017
 21
-2.175501019894918
 31
0.0
  0
LINE
  5
436
330
1F
100
AcDbEntity
  8
SK2
  6
CONTINUOUS
370
25
 62
7
100
AcDbLine
 10
-5.291584288790494
 20
-2.307921443952466
 30
0.0
 11
-4.805610474139671
 21
-1.821947629301643
 31
0.0
  0
LINE
  5
437
330
1F
100
AcDbEntity
  8
SK2
  6
CONTINUOUS
370
25
 62
7
100
AcDbLine
 10
-5.185518271612512
 20
-1.777591358062557
 30
0.0
 11
-4.876321152258326
 21
-1.468394238708369
 31
0.0
  0
LINE
  5
438
330
1F
100
AcDbEntity
  8
SK2
  6
CONTINUOUS
370
25
 62
7
100
AcDbLine
 10
-5.07945225443453
 20
-1.247261272172647
 30
0.0
 11
-4.94703183037698
 21
-1.114840848115096
 31
0.0
  0
LINE
  5
439
330
1F
100
AcDbEntity
  8
SK2
  6
CONTINUOUS
370
25
 62
7
100
AcDbLine
 10
-5.941817376984485
 20
-5.559086884922416
 30
0.0
 11
-5.650904261906902
 21
-5.849999999999999
 31
0.0
  0
LINE
  5
43A
330
1F
100
AcDbEntity
  8
SK2
  6
CONTINUOUS
370
25
 62
7
100
AcDbLine
 10
-5.87110669886583
 20
-5.205533494329143
 30
0.0
 11
-5.226640193194974
 21
-5.849999999999999
 31
0.0
  0
LINE
  5
43B
330
1F
100
AcDbEntity
  8
SK2
  6
CONTINUOUS
370
25
 62
7
100
AcDbLine
 10
-5.800396020747176
 20
-4.85198010373587
 30
0.0
 11
-4.802376124483046
 21
-5.849999999999999
 31
0.0
  0
LINE
  5
43C
330
1F
100
AcDbEntity
  8
SK2
  6
CONTINUOUS
370
25
 62
7
100
AcDbLine
 10
-5.729685342628521
 20
-4.498426713142596
 30
0.0
 11
-4.378112055771117
 21
-5.849999999999999
 31
0.0
  0
LINE
  5
43D
330
1F
100
AcDbEntity
  8
SK2
  6
CONTINUOUS
370
25
 62
7
100
AcDbLine
 10
-5.658974664509866
 20
-4.144873322549323
 30
0.0
 11
-4.011538003235203
 21
-5.792309983823985
 31
0.0
  0
LINE
  5
43E
330
1F
100
AcDbEntity
  8
SK2
  6
CONTINUOUS
370
25
 62
7
100
AcDbLine
 10
-5.588263986391212
 20
-3.79131993195605
 30
0.0
 11
-4.117604020413185
 21
-5.261979897934076
 31
0.0
  0
LINE
  5
43F
330
1F
100
AcDbEntity
  8
SK2
  6
CONTINUOUS
370
25
 62
7
100
AcDbLine
 10
-5.517553308272557
 20
-3.437766541362775
 30
0.0
 11
-4.223670037591168
 21
-4.731649812044163
 31
0.0
  0
LINE
  5
440
330
1F
100
AcDbEntity
  8
SK2
  6
CONTINUOUS
370
25
 62
7
100
AcDbLine
 10
-5.446842630153903
 20
-3.084213150769504
 30
0.0
 11
-4.329736054769149
 21
-4.201319726154257
 31
0.0
  0
LINE
  5
441
330
1F
100
AcDbEntity
  8
SK2
  6
CONTINUOUS
370
25
 62
7
100
AcDbLine
 10
-5.376131952035248
 20
-2.730659760176231
 30
0.0
 11
-4.435802071947131
 21
-3.670989640264347
 31
0.0
  0
LINE
  5
442
330
1F
100
AcDbEntity
  8
SK2
  6
CONTINUOUS
370
25
 62
7
100
AcDbLine
 10
-5.305421273916592
 20
-2.377106369582957
 30
0.0
 11
-4.541868089125114
 21
-3.140659554374435
 31
0.0
  0
LINE
  5
443
330
1F
100
AcDbEntity
  8
SK2
  6
CONTINUOUS
370
25
 62
7
100
AcDbLine
 10
-5.234710595797938
 20
-2.023552978989684
 30
0.0
 11
-4.647934106303095
 21
-2.610329468484525
 31
0.0
  0
LINE
  5
444
330
1F
100
AcDbEntity
  8
SK2
  6
CONTINUOUS
370
25
 62
7
100
AcDbLine
 10
-5.163999917679282
 20
-1.66999958839641
 30
0.0
 11
-4.754000123481078
 21
-2.079999382594614
 31
0.0
  0
LINE
  5
445
330
1F
100
AcDbEntity
  8
SK2
  6
CONTINUOUS
370
25
 62
7
100
AcDbLine
 10
-5.093289239560629
 20
-1.316446197803137
 30
0.0
 11
-4.860066140659059
 21
-1.549669296704706
 31
0.0
  0
LINE
  5
446
330
1F
100
AcDbEntity
  8
SK2
  6
CONTINUOUS
370
25
 62
7
100
AcDbLine
 10
-5.022578561441974
 20
-0.9628928072098626
 30
0.0
 11
-4.966132157837041
 21
-1.019339210814795
 31
0.0
  0
LINE
  5
447
330
1F
100
AcDbEntity
  8
SK2
  6
CONTINUOUS
370
25
 62
7
100
AcDbLine
 10
-5.000000000000001
 20
0.8500000000000012
 30
0.0
 11
-6.000000000000001
 21
5.850000000000001
 31
0.0
  0
LINE
  5
448
330
1F
100
AcDbEntity
  8
SK2
  6
CONTINUOUS
370
25
 62
7
100
AcDbLine
 10
-6.000000000000001
 20
5.850000000000001
 30
0.0
 11
-4.000000000000001
 21
5.850000000000001
 31
0.0
  0
LINE
  5
449
330
1F
100
AcDbEntity
  8
SK2
  6
CONTINUOUS
370
25
 62
7
100
AcDbLine
 10
-4.000000000000001
 20
5.850000000000001
 30
0.0
 11
-5.000000000000001
 21
0.8500000000000012
 31
0.0
  0
LINE
  5
44A
330
1F
100
AcDbEntity
  8
SK2
  6
CONTINUOUS
370
25
 62
7
100
AcDbLine
 10
-5.014949493661166
 20
0.9247474683058297
 30
0.0
 11
-4.977575759508253
 21
0.9621212024587429
 31
0.0
  0
LINE
  5
44B
330
1F
100
AcDbEntity
  8
SK2
  6
CONTINUOUS
370
25
 62
7
100
AcDbLine
 10
-5.08566017177982
 20
1.278300858899104
 30
0.0
 11
-4.871509742330271
 21
1.492451288348653
 31
0.0
  0
LINE
  5
44C
330
1F
100
AcDbEntity
  8
SK2
  6
CONTINUOUS
370
25
 62
7
100
AcDbLine
 10
-5.156370849898476
 20
1.631854249492378
 30
0.0
 11
-4.765443725152288
 21
2.022781374238566
 31
0.0
  0
LINE
  5
44D
330
1F
100
AcDbEntity
  8
SK2
  6
CONTINUOUS
370
25
 62
7
100
AcDbLine
 10
-5.227081528017131
 20
1.98540764008565
 30
0.0
 11
-4.659377707974306
 21
2.553111460128474
 31
0.0
  0
LINE
  5
44E
330
1F
100
AcDbEntity
  8
SK2
  6
CONTINUOUS
370
25
 62
7
100
AcDbLine
 10
-5.297792206135785
 20
2.338961030678923
 30
0.0
 11
-4.553311690796324
 21
3.083441546018384
 31
0.0
  0
LINE
  5
44F
330
1F
100
AcDbEntity
  8
SK2
  6
CONTINUOUS
370
25
 62
7
100
AcDbLine
 10
-5.36850288425444
 20
2.692514421272198
 30
0.0
 11
-4.447245673618342
 21
3.613771631908295
 31
0.0
  0
LINE
  5
450
330
1F
100
AcDbEntity
  8
SK2
  6
CONTINUOUS
370
25
 62
7
100
AcDbLine
 10
-5.439213562373094
 20
3.046067811865472
 30
0.0
 11
-4.34117965644036
 21
4.144101717798206
 31
0.0
  0
LINE
  5
451
330
1F
100
AcDbEntity
  8
SK2
  6
CONTINUOUS
370
25
 62
7
100
AcDbLine
 10
-5.509924240491749
 20
3.399621202458745
 30
0.0
 11
-4.235113639262378
 21
4.674431803688115
 31
0.0
  0
LINE
  5
452
330
1F
100
AcDbEntity
  8
SK2
  6
CONTINUOUS
370
25
 62
7
100
AcDbLine
 10
-5.580634918610404
 20
3.753174593052018
 30
0.0
 11
-4.129047622084396
 21
5.204761889578025
 31
0.0
  0
LINE
  5
453
330
1F
100
AcDbEntity
  8
SK2
  6
CONTINUOUS
370
25
 62
7
100
AcDbLine
 10
-5.651345596729058
 20
4.106727983645293
 30
0.0
 11
-4.022981604906414
 21
5.735091975467937
 31
0.0
  0
LINE
  5
454
330
1F
100
AcDbEntity
  8
SK2
  6
CONTINUOUS
370
25
 62
7
100
AcDbLine
 10
-5.722056274847713
 20
4.460281374238565
 30
0.0
 11
-4.332337649086276
 21
5.850000000000001
 31
0.0
  0
LINE
  5
455
330
1F
100
AcDbEntity
  8
SK2
  6
CONTINUOUS
370
25
 62
7
100
AcDbLine
 10
-5.792766952966367
 20
4.813834764831839
 30
0.0
 11
-4.756601717798205
 21
5.850000000000001
 31
0.0
  0
LINE
  5
456
330
1F
100
AcDbEntity
  8
SK2
  6
CONTINUOUS
370
25
 62
7
100
AcDbLine
 10
-5.863477631085023
 20
5.167388155425111
 30
0.0
 11
-5.180865786510132
 21
5.850000000000001
 31
0.0
  0
LINE
  5
457
330
1F
100
AcDbEntity
  8
SK2
  6
CONTINUOUS
370
25
 62
7
100
AcDbLine
 10
-5.934188309203677
 20
5.520941546018385
 30
0.0
 11
-5.60512985522206
 21
5.850000000000001
 31
0.0
  0
LINE
  5
458
330
1F
100
AcDbEntity
  8
SK2
  6
CONTINUOUS
370
25
 62
7
100
AcDbLine
 10
-5.027349694031527
 20
0.986748470157635
 30
0.0
 11
-4.981766870645649
 21
0.9411656467717568
 31
0.0
  0
LINE
  5
459
330
1F
100
AcDbEntity
  8
SK2
  6
CONTINUOUS
370
25
 62
7
100
AcDbLine
 10
-5.13341571120951
 20
1.517078556047546
 30
0.0
 11
-4.911056192526995
 21
1.294719037365031
 31
0.0
  0
LINE
  5
45A
330
1F
100
AcDbEntity
  8
SK2
  6
CONTINUOUS
370
25
 62
7
100
AcDbLine
 10
-5.239481728387492
 20
2.047408641937456
 30
0.0
 11
-4.84034551440834
 21
1.648272427958305
 31
0.0
  0
LINE
  5
45B
330
1F
100
AcDbEntity
  8
SK2
  6
CONTINUOUS
370
25
 62
7
100
AcDbLine
 10
-5.345547745565474
 20
2.577738727827366
 30
0.0
 11
-4.769634836289685
 21
2.001825818551579
 31
0.0
  0
LINE
  5
45C
330
1F
100
AcDbEntity
  8
SK2
  6
CONTINUOUS
370
25
 62
7
100
AcDbLine
 10
-5.451613762743457
 20
3.108068813717279
 30
0.0
 11
-4.69892415817103
 21
2.355379209144853
 31
0.0
  0
LINE
  5
45D
330
1F
100
AcDbEntity
  8
SK2
  6
CONTINUOUS
370
25
 62
7
100
AcDbLine
 10
-5.557679779921438
 20
3.638398899607187
 30
0.0
 11
-4.628213480052376
 21
2.708932599738126
 31
0.0
  0
LINE
  5
45E
330
1F
100
AcDbEntity
  8
SK2
  6
CONTINUOUS
370
25
 62
7
100
AcDbLine
 10
-5.663745797099421
 20
4.168728985497098
 30
0.0
 11
-4.557502801933721
 21
3.062485990331399
 31
0.0
  0
LINE
  5
45F
330
1F
100
AcDbEntity
  8
SK2
  6
CONTINUOUS
370
25
 62
7
100
AcDbLine
 10
-5.769811814277403
 20
4.699059071387008
 30
0.0
 11
-4.486792123815066
 21
3.416039380924672
 31
0.0
  0
LINE
  5
460
330
1F
100
AcDbEntity
  8
SK2
  6
CONTINUOUS
370
25
 62
7
100
AcDbLine
 10
-5.875877831455385
 20
5.229389157276916
 30
0.0
 11
-4.416081445696411
 21
3.769592771517945
 31
0.0
  0
LINE
  5
461
330
1F
100
AcDbEntity
  8
SK2
  6
CONTINUOUS
370
25
 62
7
100
AcDbLine
 10
-5.981943848633366
 20
5.759719243166828
 30
0.0
 11
-4.345370767577757
 21
4.12314616211122
 31
0.0
  0
LINE
  5
462
330
1F
100
AcDbEntity
  8
SK2
  6
CONTINUOUS
370
25
 62
7
100
AcDbLine
 10
-5.647960536754612
 20
5.850000000000001
 30
0.0
 11
-4.274660089459103
 21
4.476699552704495
 31
0.0
  0
LINE
  5
463
330
1F
100
AcDbEntity
  8
SK2
  6
CONTINUOUS
370
25
 62
7
100
AcDbLine
 10
-5.223696468042686
 20
5.850000000000001
 30
0.0
 11
-4.203949411340449
 21
4.830252943297766
 31
0.0
  0
LINE
  5
464
330
1F
100
AcDbEntity
  8
SK2
  6
CONTINUOUS
370
25
 62
7
100
AcDbLine
 10
-4.799432399330756
 20
5.850000000000001
 30
0.0
 11
-4.133238733221794
 21
5.18380633389104
 31
0.0
  0
LINE
  5
465
330
1F
100
AcDbEntity
  8
SK2
  6
CONTINUOUS
370
25
 62
7
100
AcDbLine
 10
-4.375168330618829
 20
5.850000000000001
 30
0.0
 11
-4.062528055103139
 21
5.537359724484313
 31
0.0
  0
TEXT
  5
466
330
1F
100
AcDbEntity
  8
SK2
  6
CONTINUOUS
370
25
 62
7
100
AcDbText
 10
-6.500000000000001
 20
-13.70416666666666
 30
0.0
 40
3.5
  1
1.7
 50
90.00000000000001
 72
     1
 11
-6.500000000000002
 21
-10.7875
 31
0.0
100
AcDbText
  0
CIRCLE
  5
467
330
1F
100
AcDbEntity
  8
SK2
  6
CONTINUOUS
370
25
 62
7
100
AcDbCircle
 10
-8.250000000000002
 20
-17.2625
 30
0.0
 40
1.399999999999999
  0
LINE
  5
468
330
1F
100
AcDbEntity
  8
SK2
  6
CONTINUOUS
370
25
 62
7
100
AcDbLine
 10
-6.850000000000001
 20
-18.6625
 30
0.0
 11
-9.650000000000002
 21
-15.8625
 31
0.0
  0
LINE
  5
469
330
1F
100
AcDbEntity
  8
2
  6
CONTINUOUS
370
25
 62
7
100
AcDbLine
 10
10.5
 20
-1.2
 30
0.0
 11
10.5
 21
-24.2
 31
0.0
  0
LINE
  5
46A
330
1F
100
AcDbEntity
  8
2
  6
CONTINUOUS
370
25
 62
7
100
AcDbLine
 10
12.3
 20
-24.2
 30
0.0
 11
12.3
 21
-1.199999999999999
 31
0.0
  0
LINE
  5
46B
330
1F
100
AcDbEntity
  8
2
  6
CONTINUOUS
370
25
 62
7
100
AcDbLine
 10
3.499999999999998
 20
-23.2
 30
0.0
 11
28.225
 21
-23.2
 31
0.0
  0
LINE
  5
46C
330
1F
100
AcDbEntity
  8
2
  6
CONTINUOUS
370
25
 62
7
100
AcDbLine
 10
10.5
 20
-23.2
 30
0.0
 11
5.499999999999998
 21
-24.2
 31
0.0
  0
LINE
  5
46D
330
1F
100
AcDbEntity
  8
2
  6
CONTINUOUS
370
25
 62
7
100
AcDbLine
 10
5.499999999999998
 20
-24.2
 30
0.0
 11
5.499999999999998
 21
-22.2
 31
0.0
  0
LINE
  5
46E
330
1F
100
AcDbEntity
  8
2
  6
CONTINUOUS
370
25
 62
7
100
AcDbLine
 10
5.499999999999998
 20
-22.2
 30
0.0
 11
10.5
 21
-23.2
 31
0.0
  0
LINE
  5
46F
330
1F
100
AcDbEntity
  8
2
  6
CONTINUOUS
370
25
 62
7
100
AcDbLine
 10
10.17764551754866
 20
-23.26447089649027
 30
0.0
 11
10.28509701169911
 21
-23.15701940233982
 31
0.0
  0
LINE
  5
470
330
1F
100
AcDbEntity
  8
2
  6
CONTINUOUS
370
25
 62
7
100
AcDbLine
 10
9.647315431658754
 20
-23.37053691366825
 30
0.0
 11
9.931543621105833
 21
-23.08630872422117
 31
0.0
  0
LINE
  5
471
330
1F
100
AcDbEntity
  8
2
  6
CONTINUOUS
370
25
 62
7
100
AcDbLine
 10
9.116985345768844
 20
-23.47660293084623
 30
0.0
 11
9.57799023051256
 21
-23.01559804610251
 31
0.0
  0
LINE
  5
472
330
1F
100
AcDbEntity
  8
2
  6
CONTINUOUS
370
25
 62
7
100
AcDbLine
 10
8.586655259878935
 20
-23.58266894802421
 30
0.0
 11
9.224436839919287
 21
-22.94488736798386
 31
0.0
  0
LINE
  5
473
330
1F
100
AcDbEntity
  8
2
  6
CONTINUOUS
370
25
 62
7
100
AcDbLine
 10
8.056325173989025
 20
-23.68873496520219
 30
0.0
 11
8.870883449326014
 21
-22.8741766898652
 31
0.0
  0
LINE
  5
474
330
1F
100
AcDbEntity
  8
2
  6
CONTINUOUS
370
25
 62
7
100
AcDbLine
 10
7.525995088099113
 20
-23.79480098238017
 30
0.0
 11
8.517330058732739
 21
-22.80346601174655
 31
0.0
  0
LINE
  5
475
330
1F
100
AcDbEntity
  8
2
  6
CONTINUOUS
370
25
 62
7
100
AcDbLine
 10
6.995665002209203
 20
-23.90086699955816
 30
0.0
 11
8.163776668139466
 21
-22.73275533362789
 31
0.0
  0
LINE
  5
476
330
1F
100
AcDbEntity
  8
2
  6
CONTINUOUS
370
25
 62
7
100
AcDbLine
 10
6.465334916319294
 20
-24.00693301673614
 30
0.0
 11
7.810223277546193
 21
-22.66204465550924
 31
0.0
  0
LINE
  5
477
330
1F
100
AcDbEntity
  8
2
  6
CONTINUOUS
370
25
 62
7
100
AcDbLine
 10
5.935004830429385
 20
-24.11299903391412
 30
0.0
 11
7.45666988695292
 21
-22.59133397739059
 31
0.0
  0
LINE
  5
478
330
1F
100
AcDbEntity
  8
2
  6
CONTINUOUS
370
25
 62
7
100
AcDbLine
 10
5.499999999999998
 20
-24.12373979563158
 30
0.0
 11
7.103116496359647
 21
-22.52062329927193
 31
0.0
  0
LINE
  5
479
330
1F
100
AcDbEntity
  8
2
  6
CONTINUOUS
370
25
 62
7
100
AcDbLine
 10
5.499999999999998
 20
-23.69947572691965
 30
0.0
 11
6.749563105766374
 21
-22.44991262115328
 31
0.0
  0
LINE
  5
47A
330
1F
100
AcDbEntity
  8
2
  6
CONTINUOUS
370
25
 62
7
100
AcDbLine
 10
5.499999999999998
 20
-23.27521165820772
 30
0.0
 11
6.396009715173101
 21
-22.37920194303462
 31
0.0
  0
LINE
  5
47B
330
1F
100
AcDbEntity
  8
2
  6
CONTINUOUS
370
25
 62
7
100
AcDbLine
 10
5.499999999999998
 20
-22.8509475894958
 30
0.0
 11
6.042456324579828
 21
-22.30849126491596
 31
0.0
  0
LINE
  5
47C
330
1F
100
AcDbEntity
  8
2
  6
CONTINUOUS
370
25
 62
7
100
AcDbLine
 10
5.499999999999998
 20
-22.42668352078386
 30
0.0
 11
5.688902933986552
 21
-22.23778058679731
 31
0.0
  0
LINE
  5
47D
330
1F
100
AcDbEntity
  8
2
  6
CONTINUOUS
370
25
 62
7
100
AcDbLine
 10
5.499999999999998
 20
-23.91267916251609
 30
0.0
 11
5.73943403123659
 21
-24.15211319375268
 31
0.0
  0
LINE
  5
47E
330
1F
100
AcDbEntity
  8
2
  6
CONTINUOUS
370
25
 62
7
100
AcDbLine
 10
5.499999999999998
 20
-23.48841509380416
 30
0.0
 11
6.092987421829863
 21
-24.08140251563403
 31
0.0
  0
LINE
  5
47F
330
1F
100
AcDbEntity
  8
2
  6
CONTINUOUS
370
25
 62
7
100
AcDbLine
 10
5.499999999999998
 20
-23.06415102509223
 30
0.0
 11
6.446540812423137
 21
-24.01069183751537
 31
0.0
  0
LINE
  5
480
330
1F
100
AcDbEntity
  8
2
  6
CONTINUOUS
370
25
 62
7
100
AcDbLine
 10
5.499999999999998
 20
-22.6398869563803
 30
0.0
 11
6.800094203016413
 21
-23.93998115939672
 31
0.0
  0
LINE
  5
481
330
1F
100
AcDbEntity
  8
2
  6
CONTINUOUS
370
25
 62
7
100
AcDbLine
 10
5.499999999999998
 20
-22.21562288766837
 30
0.0
 11
7.153647593609685
 21
-23.86927048127806
 31
0.0
  0
LINE
  5
482
330
1F
100
AcDbEntity
  8
2
  6
CONTINUOUS
370
25
 62
7
100
AcDbLine
 10
6.010801476304443
 20
-22.30216029526089
 30
0.0
 11
7.507200984202959
 21
-23.79855980315941
 31
0.0
  0
LINE
  5
483
330
1F
100
AcDbEntity
  8
2
  6
CONTINUOUS
370
25
 62
7
100
AcDbLine
 10
6.541131562194353
 20
-22.40822631243887
 30
0.0
 11
7.860754374796232
 21
-23.72784912504075
 31
0.0
  0
LINE
  5
484
330
1F
100
AcDbEntity
  8
2
  6
CONTINUOUS
370
25
 62
7
100
AcDbLine
 10
7.071461648084261
 20
-22.51429232961685
 30
0.0
 11
8.214307765389504
 21
-23.6571384469221
 31
0.0
  0
LINE
  5
485
330
1F
100
AcDbEntity
  8
2
  6
CONTINUOUS
370
25
 62
7
100
AcDbLine
 10
7.601791733974172
 20
-22.62035834679484
 30
0.0
 11
8.567861155982778
 21
-23.58642776880344
 31
0.0
  0
LINE
  5
486
330
1F
100
AcDbEntity
  8
2
  6
CONTINUOUS
370
25
 62
7
100
AcDbLine
 10
8.132121819864082
 20
-22.72642436397282
 30
0.0
 11
8.92141454657605
 21
-23.51571709068479
 31
0.0
  0
LINE
  5
487
330
1F
100
AcDbEntity
  8
2
  6
CONTINUOUS
370
25
 62
7
100
AcDbLine
 10
8.662451905753992
 20
-22.8324903811508
 30
0.0
 11
9.274967937169324
 21
-23.44500641256613
 31
0.0
  0
LINE
  5
488
330
1F
100
AcDbEntity
  8
2
  6
CONTINUOUS
370
25
 62
7
100
AcDbLine
 10
9.192781991643901
 20
-22.93855639832878
 30
0.0
 11
9.628521327762597
 21
-23.37429573444748
 31
0.0
  0
LINE
  5
489
330
1F
100
AcDbEntity
  8
2
  6
CONTINUOUS
370
25
 62
7
100
AcDbLine
 10
9.723112077533813
 20
-23.04462241550677
 30
0.0
 11
9.98207471835587
 21
-23.30358505632882
 31
0.0
  0
LINE
  5
48A
330
1F
100
AcDbEntity
  8
2
  6
CONTINUOUS
370
25
 62
7
100
AcDbLine
 10
10.25344216342372
 20
-23.15068843268475
 30
0.0
 11
10.33562810894914
 21
-23.23287437821017
 31
0.0
  0
LINE
  5
48B
330
1F
100
AcDbEntity
  8
2
  6
CONTINUOUS
370
25
 62
7
100
AcDbLine
 10
12.3
 20
-23.2
 30
0.0
 11
17.3
 21
-22.2
 31
0.0
  0
LINE
  5
48C
330
1F
100
AcDbEntity
  8
2
  6
CONTINUOUS
370
25
 62
7
100
AcDbLine
 10
17.3
 20
-22.2
 30
0.0
 11
17.3
 21
-24.2
 31
0.0
  0
LINE
  5
48D
330
1F
100
AcDbEntity
  8
2
  6
CONTINUOUS
370
25
 62
7
100
AcDbLine
 10
17.3
 20
-24.2
 30
0.0
 11
12.3
 21
-23.2
 31
0.0
  0
LINE
  5
48E
330
1F
100
AcDbEntity
  8
2
  6
CONTINUOUS
370
25
 62
7
100
AcDbLine
 10
16.96868287672659
 20
-24.13373657534532
 30
0.0
 11
17.3
 21
-23.80241945207191
 31
0.0
  0
LINE
  5
48F
330
1F
100
AcDbEntity
  8
2
  6
CONTINUOUS
370
25
 62
7
100
AcDbLine
 10
16.61512948613332
 20
-24.06302589722666
 30
0.0
 11
17.3
 21
-23.37815538335998
 31
0.0
  0
LINE
  5
490
330
1F
100
AcDbEntity
  8
2
  6
CONTINUOUS
370
25
 62
7
100
AcDbLine
 10
16.26157609554004
 20
-23.99231521910801
 30
0.0
 11
17.3
 21
-22.95389131464805
 31
0.0
  0
LINE
  5
491
330
1F
100
AcDbEntity
  8
2
  6
CONTINUOUS
370
25
 62
7
100
AcDbLine
 10
15.90802270494677
 20
-23.92160454098935
 30
0.0
 11
17.3
 21
-22.52962724593613
 31
0.0
  0
LINE
  5
492
330
1F
100
AcDbEntity
  8
2
  6
CONTINUOUS
370
25
 62
7
100
AcDbLine
 10
15.5544693143535
 20
-23.8508938628707
 30
0.0
 11
17.18170397153024
 21
-22.22365920569395
 31
0.0
  0
LINE
  5
493
330
1F
100
AcDbEntity
  8
2
  6
CONTINUOUS
370
25
 62
7
100
AcDbLine
 10
15.20091592376022
 20
-23.78018318475204
 30
0.0
 11
16.65137388564034
 21
-22.32972522287193
 31
0.0
  0
LINE
  5
494
330
1F
100
AcDbEntity
  8
2
  6
CONTINUOUS
370
25
 62
7
100
AcDbLine
 10
14.84736253316695
 20
-23.70947250663339
 30
0.0
 11
16.12104379975042
 21
-22.43579124004992
 31
0.0
  0
LINE
  5
495
330
1F
100
AcDbEntity
  8
2
  6
CONTINUOUS
370
25
 62
7
100
AcDbLine
 10
14.49380914257367
 20
-23.63876182851473
 30
0.0
 11
15.59071371386051
 21
-22.5418572572279
 31
0.0
  0
LINE
  5
496
330
1F
100
AcDbEntity
  8
2
  6
CONTINUOUS
370
25
 62
7
100
AcDbLine
 10
14.1402557519804
 20
-23.56805115039608
 30
0.0
 11
15.0603836279706
 21
-22.64792327440588
 31
0.0
  0
LINE
  5
497
330
1F
100
AcDbEntity
  8
2
  6
CONTINUOUS
370
25
 62
7
100
AcDbLine
 10
13.78670236138713
 20
-23.49734047227743
 30
0.0
 11
14.53005354208069
 21
-22.75398929158386
 31
0.0
  0
LINE
  5
498
330
1F
100
AcDbEntity
  8
2
  6
CONTINUOUS
370
25
 62
7
100
AcDbLine
 10
13.43314897079386
 20
-23.42662979415877
 30
0.0
 11
13.99972345619078
 21
-22.86005530876184
 31
0.0
  0
LINE
  5
499
330
1F
100
AcDbEntity
  8
2
  6
CONTINUOUS
370
25
 62
7
100
AcDbLine
 10
13.07959558020058
 20
-23.35591911604012
 30
0.0
 11
13.46939337030087
 21
-22.96612132593982
 31
0.0
  0
LINE
  5
49A
330
1F
100
AcDbEntity
  8
2
  6
CONTINUOUS
370
25
 62
7
100
AcDbLine
 10
12.72604218960731
 20
-23.28520843792146
 30
0.0
 11
12.93906328441096
 21
-23.07218734311781
 31
0.0
  0
LINE
  5
49B
330
1F
100
AcDbEntity
  8
2
  6
CONTINUOUS
370
25
 62
7
100
AcDbLine
 10
12.37248879901404
 20
-23.2144977598028
 30
0.0
 11
12.40873319852105
 21
-23.17825336029579
 31
0.0
  0
LINE
  5
49C
330
1F
100
AcDbEntity
  8
2
  6
CONTINUOUS
370
25
 62
7
100
AcDbLine
 10
12.42301989626409
 20
-23.17539602074718
 30
0.0
 11
12.48452984439613
 21
-23.23690596887922
 31
0.0
  0
LINE
  5
49D
330
1F
100
AcDbEntity
  8
2
  6
CONTINUOUS
370
25
 62
7
100
AcDbLine
 10
12.77657328685736
 20
-23.10468534262853
 30
0.0
 11
13.01485993028604
 21
-23.34297198605721
 31
0.0
  0
LINE
  5
49E
330
1F
100
AcDbEntity
  8
2
  6
CONTINUOUS
370
25
 62
7
100
AcDbLine
 10
13.13012667745063
 20
-23.03397466450987
 30
0.0
 11
13.54519001617595
 21
-23.44903800323519
 31
0.0
  0
LINE
  5
49F
330
1F
100
AcDbEntity
  8
2
  6
CONTINUOUS
370
25
 62
7
100
AcDbLine
 10
13.4836800680439
 20
-22.96326398639122
 30
0.0
 11
14.07552010206586
 21
-23.55510402041317
 31
0.0
  0
LINE
  5
4A0
330
1F
100
AcDbEntity
  8
2
  6
CONTINUOUS
370
25
 62
7
100
AcDbLine
 10
13.83723345863718
 20
-22.89255330827256
 30
0.0
 11
14.60585018795577
 21
-23.66117003759116
 31
0.0
  0
LINE
  5
4A1
330
1F
100
AcDbEntity
  8
2
  6
CONTINUOUS
370
25
 62
7
100
AcDbLine
 10
14.19078684923045
 20
-22.82184263015391
 30
0.0
 11
15.13618027384568
 21
-23.76723605476914
 31
0.0
  0
LINE
  5
4A2
330
1F
100
AcDbEntity
  8
2
  6
CONTINUOUS
370
25
 62
7
100
AcDbLine
 10
14.54434023982373
 20
-22.75113195203526
 30
0.0
 11
15.66651035973559
 21
-23.87330207194712
 31
0.0
  0
LINE
  5
4A3
330
1F
100
AcDbEntity
  8
2
  6
CONTINUOUS
370
25
 62
7
100
AcDbLine
 10
14.897893630417
 20
-22.6804212739166
 30
0.0
 11
16.1968404456255
 21
-23.9793680891251
 31
0.0
  0
LINE
  5
4A4
330
1F
100
AcDbEntity
  8
2
  6
CONTINUOUS
370
25
 62
7
100
AcDbLine
 10
15.25144702101027
 20
-22.60971059579795
 30
0.0
 11
16.72717053151541
 21
-24.08543410630308
 31
0.0
  0
LINE
  5
4A5
330
1F
100
AcDbEntity
  8
2
  6
CONTINUOUS
370
25
 62
7
100
AcDbLine
 10
15.60500041160354
 20
-22.53899991767929
 30
0.0
 11
17.25750061740532
 21
-24.19150012348106
 31
0.0
  0
LINE
  5
4A6
330
1F
100
AcDbEntity
  8
2
  6
CONTINUOUS
370
25
 62
7
100
AcDbLine
 10
15.95855380219682
 20
-22.46828923956064
 30
0.0
 11
17.3
 21
-23.80973543736381
 31
0.0
  0
LINE
  5
4A7
330
1F
100
AcDbEntity
  8
2
  6
CONTINUOUS
370
25
 62
7
100
AcDbLine
 10
16.31210719279009
 20
-22.39757856144198
 30
0.0
 11
17.3
 21
-23.38547136865188
 31
0.0
  0
LINE
  5
4A8
330
1F
100
AcDbEntity
  8
2
  6
CONTINUOUS
370
25
 62
7
100
AcDbLine
 10
16.66566058338336
 20
-22.32686788332332
 30
0.0
 11
17.3
 21
-22.96120729993996
 31
0.0
  0
LINE
  5
4A9
330
1F
100
AcDbEntity
  8
2
  6
CONTINUOUS
370
25
 62
7
100
AcDbLine
 10
17.01921397397664
 20
-22.25615720520467
 30
0.0
 11
17.3
 21
-22.53694323122803
 31
0.0
  0
TEXT
  5
4AA
330
1F
100
AcDbEntity
  8
2
  6
CONTINUOUS
370
25
 62
7
100
AcDbText
 10
19.84583333333333
 20
-21.7
 30
0.0
 40
3.5
  1
1.8
 72
     1
 11
22.7625
 21
-21.7
 31
0.0
100
AcDbText
  0
LINE
  5
4AB
330
1F
100
AcDbEntity
  8
2
  6
CONTINUOUS
370
25
 62
7
100
AcDbLine
 10
-0.0000000000000002
 20
0.0
 30
0.0
 11
0.000000000000002
 21
35.99995
 31
0.0
  0
LINE
  5
4AC
330
1F
100
AcDbEntity
  8
2
  6
CONTINUOUS
370
25
 62
7
100
AcDbLine
 10
12.3
 20
35.99995
 30
0.0
 11
12.3
 21
1.199999999999996
 31
0.0
  0
LINE
  5
4AD
330
1F
100
AcDbEntity
  8
2
  6
CONTINUOUS
370
25
 62
7
100
AcDbLine
 10
-7.0
 20
34.99995
 30
0.0
 11
31.2
 21
34.99995
 31
0.0
  0
LINE
  5
4AE
330
1F
100
AcDbEntity
  8
2
  6
CONTINUOUS
370
25
 62
7
100
AcDbLine
 10
0.0
 20
34.99995
 30
0.0
 11
-5.0
 21
33.99995
 31
0.0
  0
LINE
  5
4AF
330
1F
100
AcDbEntity
  8
2
  6
CONTINUOUS
370
25
 62
7
100
AcDbLine
 10
-5.0
 20
33.99995
 30
0.0
 11
-5.0
 21
35.99995
 31
0.0
  0
LINE
  5
4B0
330
1F
100
AcDbEntity
  8
2
  6
CONTINUOUS
370
25
 62
7
100
AcDbLine
 10
-5.0
 20
35.99995
 30
0.0
 11
0.0
 21
34.99995
 31
0.0
  0
LINE
  5
4B1
330
1F
100
AcDbEntity
  8
2
  6
CONTINUOUS
370
25
 62
7
100
AcDbLine
 10
-0.26745962886256
 20
34.94645807422749
 30
0.0
 11
-0.1783064192417069
 21
35.03561128384834
 31
0.0
  0
LINE
  5
4B2
330
1F
100
AcDbEntity
  8
2
  6
CONTINUOUS
370
25
 62
7
100
AcDbLine
 10
-0.7977897147524677
 20
34.84039205704951
 30
0.0
 11
-0.5318598098349792
 21
35.10632196196699
 31
0.0
  0
LINE
  5
4B3
330
1F
100
AcDbEntity
  8
2
  6
CONTINUOUS
370
25
 62
7
100
AcDbLine
 10
-1.328119800642384
 20
34.73432603987152
 30
0.0
 11
-0.885413200428257
 21
35.17703264008565
 31
0.0
  0
LINE
  5
4B4
330
1F
100
AcDbEntity
  8
2
  6
CONTINUOUS
370
25
 62
7
100
AcDbLine
 10
-1.85844988653229
 20
34.62826002269354
 30
0.0
 11
-1.238966591021529
 21
35.24774331820431
 31
0.0
  0
LINE
  5
4B5
330
1F
100
AcDbEntity
  8
2
  6
CONTINUOUS
370
25
 62
7
100
AcDbLine
 10
-2.388779972422205
 20
34.52219400551556
 30
0.0
 11
-1.592519981614806
 21
35.31845399632296
 31
0.0
  0
LINE
  5
4B6
330
1F
100
AcDbEntity
  8
2
  6
CONTINUOUS
370
25
 62
7
100
AcDbLine
 10
-2.91911005831211
 20
34.41612798833758
 30
0.0
 11
-1.946073372208077
 21
35.38916467444162
 31
0.0
  0
LINE
  5
4B7
330
1F
100
AcDbEntity
  8
2
  6
CONTINUOUS
370
25
 62
7
100
AcDbLine
 10
-3.449440144202024
 20
34.31006197115959
 30
0.0
 11
-2.299626762801354
 21
35.45987535256027
 31
0.0
  0
LINE
  5
4B8
330
1F
100
AcDbEntity
  8
2
  6
CONTINUOUS
370
25
 62
7
100
AcDbLine
 10
-3.979770230091929
 20
34.20399595398161
 30
0.0
 11
-2.653180153394625
 21
35.53058603067893
 31
0.0
  0
LINE
  5
4B9
330
1F
100
AcDbEntity
  8
2
  6
CONTINUOUS
370
25
 62
7
100
AcDbLine
 10
-4.51010031598184
 20
34.09792993680363
 30
0.0
 11
-3.006733543987901
 21
35.60129670879758
 31
0.0
  0
LINE
  5
4BA
330
1F
100
AcDbEntity
  8
2
  6
CONTINUOUS
370
25
 62
7
100
AcDbLine
 10
-5.0
 20
34.0322943214974
 30
0.0
 11
-3.360286934581177
 21
35.67200738691623
 31
0.0
  0
LINE
  5
4BB
330
1F
100
AcDbEntity
  8
2
  6
CONTINUOUS
370
25
 62
7
100
AcDbLine
 10
-5.0
 20
34.45655839020932
 30
0.0
 11
-3.713840325174448
 21
35.74271806503489
 31
0.0
  0
LINE
  5
4BC
330
1F
100
AcDbEntity
  8
2
  6
CONTINUOUS
370
25
 62
7
100
AcDbLine
 10
-5.0
 20
34.88082245892126
 30
0.0
 11
-4.067393715767723
 21
35.81342874315354
 31
0.0
  0
LINE
  5
4BD
330
1F
100
AcDbEntity
  8
2
  6
CONTINUOUS
370
25
 62
7
100
AcDbLine
 10
-5.0
 20
35.30508652763319
 30
0.0
 11
-4.420947106360998
 21
35.8841394212722
 31
0.0
  0
LINE
  5
4BE
330
1F
100
AcDbEntity
  8
2
  6
CONTINUOUS
370
25
 62
7
100
AcDbLine
 10
-5.0
 20
35.72935059634512
 30
0.0
 11
-4.774500496954269
 21
35.95485009939085
 31
0.0
  0
LINE
  5
4BF
330
1F
100
AcDbEntity
  8
2
  6
CONTINUOUS
370
25
 62
7
100
AcDbLine
 10
-5.0
 20
34.27422074112303
 30
0.0
 11
-4.771441049064143
 21
34.04566179018717
 31
0.0
  0
LINE
  5
4C0
330
1F
100
AcDbEntity
  8
2
  6
CONTINUOUS
370
25
 62
7
100
AcDbLine
 10
-5.0
 20
34.69848480983496
 30
0.0
 11
-4.417887658470869
 21
34.11637246830583
 31
0.0
  0
LINE
  5
4C1
330
1F
100
AcDbEntity
  8
2
  6
CONTINUOUS
370
25
 62
7
100
AcDbLine
 10
-5.0
 20
35.12274887854689
 30
0.0
 11
-4.064334267877594
 21
34.18708314642448
 31
0.0
  0
LINE
  5
4C2
330
1F
100
AcDbEntity
  8
2
  6
CONTINUOUS
370
25
 62
7
100
AcDbLine
 10
-5.0
 20
35.54701294725881
 30
0.0
 11
-3.710780877284321
 21
34.25779382454314
 31
0.0
  0
LINE
  5
4C3
330
1F
100
AcDbEntity
  8
2
  6
CONTINUOUS
370
25
 62
7
100
AcDbLine
 10
-5.0
 20
35.97127701597074
 30
0.0
 11
-3.357227486691047
 21
34.32850450266179
 31
0.0
  0
LINE
  5
4C4
330
1F
100
AcDbEntity
  8
2
  6
CONTINUOUS
370
25
 62
7
100
AcDbLine
 10
-4.505511144146651
 20
35.90105222882933
 30
0.0
 11
-3.003674096097771
 21
34.39921518078044
 31
0.0
  0
LINE
  5
4C5
330
1F
100
AcDbEntity
  8
2
  6
CONTINUOUS
370
25
 62
7
100
AcDbLine
 10
-3.975181058256741
 20
35.79498621165135
 30
0.0
 11
-2.650120705504498
 21
34.4699258588991
 31
0.0
  0
LINE
  5
4C6
330
1F
100
AcDbEntity
  8
2
  6
CONTINUOUS
370
25
 62
7
100
AcDbLine
 10
-3.444850972366828
 20
35.68892019447336
 30
0.0
 11
-2.296567314911222
 21
34.54063653701775
 31
0.0
  0
LINE
  5
4C7
330
1F
100
AcDbEntity
  8
2
  6
CONTINUOUS
370
25
 62
7
100
AcDbLine
 10
-2.914520886476919
 20
35.58285417729538
 30
0.0
 11
-1.943013924317949
 21
34.6113472151364
 31
0.0
  0
LINE
  5
4C8
330
1F
100
AcDbEntity
  8
2
  6
CONTINUOUS
370
25
 62
7
100
AcDbLine
 10
-2.384190800587011
 20
35.4767881601174
 30
0.0
 11
-1.589460533724677
 21
34.68205789325506
 31
0.0
  0
LINE
  5
4C9
330
1F
100
AcDbEntity
  8
2
  6
CONTINUOUS
370
25
 62
7
100
AcDbLine
 10
-1.853860714697094
 20
35.37072214293941
 30
0.0
 11
-1.235907143131399
 21
34.75276857137372
 31
0.0
  0
LINE
  5
4CA
330
1F
100
AcDbEntity
  8
2
  6
CONTINUOUS
370
25
 62
7
100
AcDbLine
 10
-1.323530628807187
 20
35.26465612576143
 30
0.0
 11
-0.8823537525381263
 21
34.82347924949237
 31
0.0
  0
LINE
  5
4CB
330
1F
100
AcDbEntity
  8
2
  6
CONTINUOUS
370
25
 62
7
100
AcDbLine
 10
-0.7932005429172801
 20
35.15859010858345
 30
0.0
 11
-0.5288003619448546
 21
34.89418992761103
 31
0.0
  0
LINE
  5
4CC
330
1F
100
AcDbEntity
  8
2
  6
CONTINUOUS
370
25
 62
7
100
AcDbLine
 10
-0.2628704570273649
 20
35.05252409140547
 30
0.0
 11
-0.175246971351577
 21
34.96490060572968
 31
0.0
  0
LINE
  5
4CD
330
1F
100
AcDbEntity
  8
2
  6
CONTINUOUS
370
25
 62
7
100
AcDbLine
 10
12.3
 20
34.99995
 30
0.0
 11
17.3
 21
35.99995
 31
0.0
  0
LINE
  5
4CE
330
1F
100
AcDbEntity
  8
2
  6
CONTINUOUS
370
25
 62
7
100
AcDbLine
 10
17.3
 20
35.99995
 30
0.0
 11
17.3
 21
33.99995
 31
0.0
  0
LINE
  5
4CF
330
1F
100
AcDbEntity
  8
2
  6
CONTINUOUS
370
25
 62
7
100
AcDbLine
 10
17.3
 20
33.99995
 30
0.0
 11
12.3
 21
34.99995
 31
0.0
  0
LINE
  5
4D0
330
1F
100
AcDbEntity
  8
2
  6
CONTINUOUS
370
25
 62
7
100
AcDbLine
 10
17.07448937626905
 20
34.04505212474619
 30
0.0
 11
17.3
 21
34.27056274847715
 31
0.0
  0
LINE
  5
4D1
330
1F
100
AcDbEntity
  8
2
  6
CONTINUOUS
370
25
 62
7
100
AcDbLine
 10
16.72093598567578
 20
34.11576280286484
 30
0.0
 11
17.3
 21
34.69482681718907
 31
0.0
  0
LINE
  5
4D2
330
1F
100
AcDbEntity
  8
2
  6
CONTINUOUS
370
25
 62
7
100
AcDbLine
 10
16.3673825950825
 20
34.18647348098349
 30
0.0
 11
17.3
 21
35.119090885901
 31
0.0
  0
LINE
  5
4D3
330
1F
100
AcDbEntity
  8
2
  6
CONTINUOUS
370
25
 62
7
100
AcDbLine
 10
16.01382920448923
 20
34.25718415910215
 30
0.0
 11
17.3
 21
35.54335495461294
 31
0.0
  0
LINE
  5
4D4
330
1F
100
AcDbEntity
  8
2
  6
CONTINUOUS
370
25
 62
7
100
AcDbLine
 10
15.66027581389595
 20
34.32789483722081
 30
0.0
 11
17.3
 21
35.96761902332486
 31
0.0
  0
LINE
  5
4D5
330
1F
100
AcDbEntity
  8
2
  6
CONTINUOUS
370
25
 62
7
100
AcDbLine
 10
15.30672242330268
 20
34.39860551533947
 30
0.0
 11
16.81008363495401
 21
35.9019667269908
 31
0.0
  0
LINE
  5
4D6
330
1F
100
AcDbEntity
  8
2
  6
CONTINUOUS
370
25
 62
7
100
AcDbLine
 10
14.95316903270941
 20
34.46931619345812
 30
0.0
 11
16.2797535490641
 21
35.79590070981281
 31
0.0
  0
LINE
  5
4D7
330
1F
100
AcDbEntity
  8
2
  6
CONTINUOUS
370
25
 62
7
100
AcDbLine
 10
14.59961564211613
 20
34.54002687157677
 30
0.0
 11
15.74942346317419
 21
35.68983469263483
 31
0.0
  0
LINE
  5
4D8
330
1F
100
AcDbEntity
  8
2
  6
CONTINUOUS
370
25
 62
7
100
AcDbLine
 10
14.24606225152286
 20
34.61073754969543
 30
0.0
 11
15.21909337728428
 21
35.58376867545685
 31
0.0
  0
LINE
  5
4D9
330
1F
100
AcDbEntity
  8
2
  6
CONTINUOUS
370
25
 62
7
100
AcDbLine
 10
13.89250886092958
 20
34.68144822781408
 30
0.0
 11
14.68876329139437
 21
35.47770265827887
 31
0.0
  0
LINE
  5
4DA
330
1F
100
AcDbEntity
  8
2
  6
CONTINUOUS
370
25
 62
7
100
AcDbLine
 10
13.53895547033631
 20
34.75215890593274
 30
0.0
 11
14.15843320550446
 21
35.37163664110089
 31
0.0
  0
LINE
  5
4DB
330
1F
100
AcDbEntity
  8
2
  6
CONTINUOUS
370
25
 62
7
100
AcDbLine
 10
13.18540207974304
 20
34.82286958405139
 30
0.0
 11
13.62810311961455
 21
35.2655706239229
 31
0.0
  0
LINE
  5
4DC
330
1F
100
AcDbEntity
  8
2
  6
CONTINUOUS
370
25
 62
7
100
AcDbLine
 10
12.83184868914976
 20
34.89358026217005
 30
0.0
 11
13.09777303372464
 21
35.15950460674492
 31
0.0
  0
LINE
  5
4DD
330
1F
100
AcDbEntity
  8
2
  6
CONTINUOUS
370
25
 62
7
100
AcDbLine
 10
12.47829529855649
 20
34.96429094028871
 30
0.0
 11
12.56744294783473
 21
35.05343858956694
 31
0.0
  0
LINE
  5
4DE
330
1F
100
AcDbEntity
  8
2
  6
CONTINUOUS
370
25
 62
7
100
AcDbLine
 10
12.48135474644665
 20
35.03622094928933
 30
0.0
 11
12.57203211966997
 21
34.945543576066
 31
0.0
  0
LINE
  5
4DF
330
1F
100
AcDbEntity
  8
2
  6
CONTINUOUS
370
25
 62
7
100
AcDbLine
 10
12.83490813703992
 20
35.10693162740798
 30
0.0
 11
13.10236220555988
 21
34.83947755888802
 31
0.0
  0
LINE
  5
4E0
330
1F
100
AcDbEntity
  8
2
  6
CONTINUOUS
370
25
 62
7
100
AcDbLine
 10
13.1884615276332
 20
35.17764230552663
 30
0.0
 11
13.63269229144979
 21
34.73341154171004
 31
0.0
  0
LINE
  5
4E1
330
1F
100
AcDbEntity
  8
2
  6
CONTINUOUS
370
25
 62
7
100
AcDbLine
 10
13.54201491822647
 20
35.24835298364529
 30
0.0
 11
14.16302237733971
 21
34.62734552453206
 31
0.0
  0
LINE
  5
4E2
330
1F
100
AcDbEntity
  8
2
  6
CONTINUOUS
370
25
 62
7
100
AcDbLine
 10
13.89556830881975
 20
35.31906366176395
 30
0.0
 11
14.69335246322962
 21
34.52127950735408
 31
0.0
  0
LINE
  5
4E3
330
1F
100
AcDbEntity
  8
2
  6
CONTINUOUS
370
25
 62
7
100
AcDbLine
 10
14.24912169941303
 20
35.3897743398826
 30
0.0
 11
15.22368254911953
 21
34.41521349017609
 31
0.0
  0
LINE
  5
4E4
330
1F
100
AcDbEntity
  8
2
  6
CONTINUOUS
370
25
 62
7
100
AcDbLine
 10
14.6026750900063
 20
35.46048501800126
 30
0.0
 11
15.75401263500944
 21
34.30914747299811
 31
0.0
  0
LINE
  5
4E5
330
1F
100
AcDbEntity
  8
2
  6
CONTINUOUS
370
25
 62
7
100
AcDbLine
 10
14.95622848059957
 20
35.53119569611991
 30
0.0
 11
16.28434272089935
 21
34.20308145582013
 31
0.0
  0
LINE
  5
4E6
330
1F
100
AcDbEntity
  8
2
  6
CONTINUOUS
370
25
 62
7
100
AcDbLine
 10
15.30978187119285
 20
35.60190637423857
 30
0.0
 11
16.81467280678926
 21
34.09701543864215
 31
0.0
  0
LINE
  5
4E7
330
1F
100
AcDbEntity
  8
2
  6
CONTINUOUS
370
25
 62
7
100
AcDbLine
 10
15.66333526178612
 20
35.67261705235723
 30
0.0
 11
17.3
 21
34.03595231414333
 31
0.0
  0
LINE
  5
4E8
330
1F
100
AcDbEntity
  8
2
  6
CONTINUOUS
370
25
 62
7
100
AcDbLine
 10
16.01688865237939
 20
35.74332773047588
 30
0.0
 11
17.3
 21
34.46021638285525
 31
0.0
  0
LINE
  5
4E9
330
1F
100
AcDbEntity
  8
2
  6
CONTINUOUS
370
25
 62
7
100
AcDbLine
 10
16.37044204297267
 20
35.81403840859453
 30
0.0
 11
17.3
 21
34.88448045156719
 31
0.0
  0
LINE
  5
4EA
330
1F
100
AcDbEntity
  8
2
  6
CONTINUOUS
370
25
 62
7
100
AcDbLine
 10
16.72399543356594
 20
35.88474908671319
 30
0.0
 11
17.3
 21
35.30874452027912
 31
0.0
  0
LINE
  5
4EB
330
1F
100
AcDbEntity
  8
2
  6
CONTINUOUS
370
25
 62
7
100
AcDbLine
 10
17.07754882415921
 20
35.95545976483184
 30
0.0
 11
17.3
 21
35.73300858899105
 31
0.0
  0
TEXT
  5
4EC
330
1F
100
AcDbEntity
  8
2
  6
CONTINUOUS
370
25
 62
7
100
AcDbText
 10
19.58333333333334
 20
36.49995
 30
0.0
 40
3.5
  1
12.3
 72
     1
 11
24.25
 21
36.49995
 31
0.0
100
AcDbText
  0
LINE
  5
4ED
330
1F
100
AcDbEntity
  8
SK2
  6
CONTINUOUS
370
25
 62
7
100
AcDbLine
 10
-37.7
 20
0.9999500000000001
 30
0.0
 11
-37.7
 21
45.99995
 31
0.0
  0
LINE
  5
4EE
330
1F
100
AcDbEntity
  8
SK2
  6
CONTINUOUS
370
25
 62
7
100
AcDbLine
 10
12.3
 20
45.99995
 30
0.0
 11
12.29999999999999
 21
1.199999999999996
 31
0.0
  0
LINE
  5
4EF
330
1F
100
AcDbEntity
  8
SK2
  6
CONTINUOUS
370
25
 62
7
100
AcDbLine
 10
-37.7
 20
44.99995
 30
0.0
 11
12.3
 21
44.99995
 31
0.0
  0
LINE
  5
4F0
330
1F
100
AcDbEntity
  8
SK2
  6
CONTINUOUS
370
25
 62
7
100
AcDbLine
 10
-37.7
 20
44.99995
 30
0.0
 11
-32.7
 21
45.99995
 31
0.0
  0
LINE
  5
4F1
330
1F
100
AcDbEntity
  8
SK2
  6
CONTINUOUS
370
25
 62
7
100
AcDbLine
 10
-32.7
 20
45.99995
 30
0.0
 11
-32.7
 21
43.99995
 31
0.0
  0
LINE
  5
4F2
330
1F
100
AcDbEntity
  8
SK2
  6
CONTINUOUS
370
25
 62
7
100
AcDbLine
 10
-32.7
 20
43.99995
 30
0.0
 11
-37.7
 21
44.99995
 31
0.0
  0
LINE
  5
4F3
330
1F
100
AcDbEntity
  8
SK2
  6
CONTINUOUS
370
25
 62
7
100
AcDbLine
 10
-32.77653869738257
 20
44.01525773947652
 30
0.0
 11
-32.7
 21
44.09179643685908
 31
0.0
  0
LINE
  5
4F4
330
1F
100
AcDbEntity
  8
SK2
  6
CONTINUOUS
370
25
 62
7
100
AcDbLine
 10
-33.13009208797585
 20
44.08596841759517
 30
0.0
 11
-32.7
 21
44.51606050557101
 31
0.0
  0
LINE
  5
4F5
330
1F
100
AcDbEntity
  8
SK2
  6
CONTINUOUS
370
25
 62
7
100
AcDbLine
 10
-33.48364547856913
 20
44.15667909571382
 30
0.0
 11
-32.7
 21
44.94032457428295
 31
0.0
  0
LINE
  5
4F6
330
1F
100
AcDbEntity
  8
SK2
  6
CONTINUOUS
370
25
 62
7
100
AcDbLine
 10
-33.8371988691624
 20
44.22738977383248
 30
0.0
 11
-32.7
 21
45.36458864299488
 31
0.0
  0
LINE
  5
4F7
330
1F
100
AcDbEntity
  8
SK2
  6
CONTINUOUS
370
25
 62
7
100
AcDbLine
 10
-34.19075225975567
 20
44.29810045195114
 30
0.0
 11
-32.7
 21
45.7888527117068
 31
0.0
  0
LINE
  5
4F8
330
1F
100
AcDbEntity
  8
SK2
  6
CONTINUOUS
370
25
 62
7
100
AcDbLine
 10
-34.54430565034895
 20
44.36881113006979
 30
0.0
 11
-32.96645847552342
 21
45.94665830489532
 31
0.0
  0
LINE
  5
4F9
330
1F
100
AcDbEntity
  8
SK2
  6
CONTINUOUS
370
25
 62
7
100
AcDbLine
 10
-34.89785904094223
 20
44.43952180818845
 30
0.0
 11
-33.49678856141334
 21
45.84059228771734
 31
0.0
  0
LINE
  5
4FA
330
1F
100
AcDbEntity
  8
SK2
  6
CONTINUOUS
370
25
 62
7
100
AcDbLine
 10
-35.25141243153551
 20
44.5102324863071
 30
0.0
 11
-34.02711864730326
 21
45.73452627053934
 31
0.0
  0
LINE
  5
4FB
330
1F
100
AcDbEntity
  8
SK2
  6
CONTINUOUS
370
25
 62
7
100
AcDbLine
 10
-35.60496582212879
 20
44.58094316442575
 30
0.0
 11
-34.55744873319318
 21
45.62846025336136
 31
0.0
  0
LINE
  5
4FC
330
1F
100
AcDbEntity
  8
SK2
  6
CONTINUOUS
370
25
 62
7
100
AcDbLine
 10
-35.95851921272207
 20
44.65165384254441
 30
0.0
 11
-35.0877788190831
 21
45.52239423618338
 31
0.0
  0
LINE
  5
4FD
330
1F
100
AcDbEntity
  8
SK2
  6
CONTINUOUS
370
25
 62
7
100
AcDbLine
 10
-36.31207260331535
 20
44.72236452066307
 30
0.0
 11
-35.61810890497302
 21
45.41632821900539
 31
0.0
  0
LINE
  5
4FE
330
1F
100
AcDbEntity
  8
SK2
  6
CONTINUOUS
370
25
 62
7
100
AcDbLine
 10
-36.66562599390863
 20
44.79307519878173
 30
0.0
 11
-36.14843899086294
 21
45.31026220182741
 31
0.0
  0
LINE
  5
4FF
330
1F
100
AcDbEntity
  8
SK2
  6
CONTINUOUS
370
25
 62
7
100
AcDbLine
 10
-37.01917938450191
 20
44.86378587690038
 30
0.0
 11
-36.67876907675287
 21
45.20419618464942
 31
0.0
  0
LINE
  5
500
330
1F
100
AcDbEntity
  8
SK2
  6
CONTINUOUS
370
25
 62
7
100
AcDbLine
 10
-37.37273277509519
 20
44.93449655501903
 30
0.0
 11
-37.20909916264279
 21
45.09813016747144
 31
0.0
  0
LINE
  5
501
330
1F
100
AcDbEntity
  8
SK2
  6
CONTINUOUS
370
25
 62
7
100
AcDbLine
 10
-37.41933063598771
 20
45.05608387280245
 30
0.0
 11
-37.27899595398157
 21
44.91574919079632
 31
0.0
  0
LINE
  5
502
330
1F
100
AcDbEntity
  8
SK2
  6
CONTINUOUS
370
25
 62
7
100
AcDbLine
 10
-37.06577724539442
 20
45.1267945509211
 30
0.0
 11
-36.74866586809165
 21
44.80968317361833
 31
0.0
  0
LINE
  5
503
330
1F
100
AcDbEntity
  8
SK2
  6
CONTINUOUS
370
25
 62
7
100
AcDbLine
 10
-36.71222385480115
 20
45.19750522903977
 30
0.0
 11
-36.21833578220173
 21
44.70361715644034
 31
0.0
  0
LINE
  5
504
330
1F
100
AcDbEntity
  8
SK2
  6
CONTINUOUS
370
25
 62
7
100
AcDbLine
 10
-36.35867046420788
 20
45.26821590715842
 30
0.0
 11
-35.68800569631181
 21
44.59755113926236
 31
0.0
  0
LINE
  5
505
330
1F
100
AcDbEntity
  8
SK2
  6
CONTINUOUS
370
25
 62
7
100
AcDbLine
 10
-36.0051170736146
 20
45.33892658527708
 30
0.0
 11
-35.1576756104219
 21
44.49148512208438
 31
0.0
  0
LINE
  5
506
330
1F
100
AcDbEntity
  8
SK2
  6
CONTINUOUS
370
25
 62
7
100
AcDbLine
 10
-35.65156368302132
 20
45.40963726339574
 30
0.0
 11
-34.62734552453198
 21
44.38541910490639
 31
0.0
  0
LINE
  5
507
330
1F
100
AcDbEntity
  8
SK2
  6
CONTINUOUS
370
25
 62
7
100
AcDbLine
 10
-35.29801029242805
 20
45.4803479415144
 30
0.0
 11
-34.09701543864207
 21
44.27935308772841
 31
0.0
  0
LINE
  5
508
330
1F
100
AcDbEntity
  8
SK2
  6
CONTINUOUS
370
25
 62
7
100
AcDbLine
 10
-34.94445690183476
 20
45.55105861963305
 30
0.0
 11
-33.56668535275215
 21
44.17328707055042
 31
0.0
  0
LINE
  5
509
330
1F
100
AcDbEntity
  8
SK2
  6
CONTINUOUS
370
25
 62
7
100
AcDbLine
 10
-34.59090351124149
 20
45.6217692977517
 30
0.0
 11
-33.03635526686223
 21
44.06722105337244
 31
0.0
  0
LINE
  5
50A
330
1F
100
AcDbEntity
  8
SK2
  6
CONTINUOUS
370
25
 62
7
100
AcDbLine
 10
-34.23735012064821
 20
45.69247997587036
 30
0.0
 11
-32.7
 21
44.15512985522214
 31
0.0
  0
LINE
  5
50B
330
1F
100
AcDbEntity
  8
SK2
  6
CONTINUOUS
370
25
 62
7
100
AcDbLine
 10
-33.88379673005493
 20
45.76319065398901
 30
0.0
 11
-32.7
 21
44.57939392393408
 31
0.0
  0
LINE
  5
50C
330
1F
100
AcDbEntity
  8
SK2
  6
CONTINUOUS
370
25
 62
7
100
AcDbLine
 10
-33.53024333946166
 20
45.83390133210767
 30
0.0
 11
-32.7
 21
45.00365799264601
 31
0.0
  0
LINE
  5
50D
330
1F
100
AcDbEntity
  8
SK2
  6
CONTINUOUS
370
25
 62
7
100
AcDbLine
 10
-33.17668994886837
 20
45.90461201022632
 30
0.0
 11
-32.7
 21
45.42792206135795
 31
0.0
  0
LINE
  5
50E
330
1F
100
AcDbEntity
  8
SK2
  6
CONTINUOUS
370
25
 62
7
100
AcDbLine
 10
-32.8231365582751
 20
45.97532268834497
 30
0.0
 11
-32.7
 21
45.85218613006987
 31
0.0
  0
LINE
  5
50F
330
1F
100
AcDbEntity
  8
SK2
  6
CONTINUOUS
370
25
 62
7
100
AcDbLine
 10
12.3
 20
44.99995
 30
0.0
 11
7.299999999999997
 21
43.99995
 31
0.0
  0
LINE
  5
510
330
1F
100
AcDbEntity
  8
SK2
  6
CONTINUOUS
370
25
 62
7
100
AcDbLine
 10
7.299999999999997
 20
43.99995
 30
0.0
 11
7.299999999999997
 21
45.99995
 31
0.0
  0
LINE
  5
511
330
1F
100
AcDbEntity
  8
SK2
  6
CONTINUOUS
370
25
 62
7
100
AcDbLine
 10
7.299999999999997
 20
45.99995
 30
0.0
 11
12.3
 21
44.99995
 31
0.0
  0
LINE
  5
512
330
1F
100
AcDbEntity
  8
SK2
  6
CONTINUOUS
370
25
 62
7
100
AcDbLine
 10
11.80919080058704
 20
44.90178816011741
 30
0.0
 11
11.97279386705802
 21
45.0653912265884
 31
0.0
  0
LINE
  5
513
330
1F
100
AcDbEntity
  8
SK2
  6
CONTINUOUS
370
25
 62
7
100
AcDbLine
 10
11.27886071469713
 20
44.79572214293943
 30
0.0
 11
11.61924047646475
 21
45.13610190470705
 31
0.0
  0
LINE
  5
514
330
1F
100
AcDbEntity
  8
SK2
  6
CONTINUOUS
370
25
 62
7
100
AcDbLine
 10
10.74853062880721
 20
44.68965612576144
 30
0.0
 11
11.26568708587147
 21
45.20681258282571
 31
0.0
  0
LINE
  5
515
330
1F
100
AcDbEntity
  8
SK2
  6
CONTINUOUS
370
25
 62
7
100
AcDbLine
 10
10.2182005429173
 20
44.58359010858346
 30
0.0
 11
10.9121336952782
 21
45.27752326094436
 31
0.0
  0
LINE
  5
516
330
1F
100
AcDbEntity
  8
SK2
  6
CONTINUOUS
370
25
 62
7
100
AcDbLine
 10
9.68787045702738
 20
44.47752409140547
 30
0.0
 11
10.55858030468492
 21
45.34823393906301
 31
0.0
  0
LINE
  5
517
330
1F
100
AcDbEntity
  8
SK2
  6
CONTINUOUS
370
25
 62
7
100
AcDbLine
 10
9.15754037113747
 20
44.37145807422749
 30
0.0
 11
10.20502691409165
 21
45.41894461718167
 31
0.0
  0
LINE
  5
518
330
1F
100
AcDbEntity
  8
SK2
  6
CONTINUOUS
370
25
 62
7
100
AcDbLine
 10
8.62721028524755
 20
44.26539205704951
 30
0.0
 11
9.851473523498369
 21
45.48965529530032
 31
0.0
  0
LINE
  5
519
330
1F
100
AcDbEntity
  8
SK2
  6
CONTINUOUS
370
25
 62
7
100
AcDbLine
 10
8.09688019935764
 20
44.15932603987152
 30
0.0
 11
9.497920132905096
 21
45.56036597341898
 31
0.0
  0
LINE
  5
51A
330
1F
100
AcDbEntity
  8
SK2
  6
CONTINUOUS
370
25
 62
7
100
AcDbLine
 10
7.566550113467722
 20
44.05326002269354
 30
0.0
 11
9.144366742311815
 21
45.63107665153763
 31
0.0
  0
LINE
  5
51B
330
1F
100
AcDbEntity
  8
SK2
  6
CONTINUOUS
370
25
 62
7
100
AcDbLine
 10
7.299999999999997
 20
44.21097397793775
 30
0.0
 11
8.790813351718542
 21
45.70178732965629
 31
0.0
  0
LINE
  5
51C
330
1F
100
AcDbEntity
  8
SK2
  6
CONTINUOUS
370
25
 62
7
100
AcDbLine
 10
7.299999999999997
 20
44.63523804664968
 30
0.0
 11
8.437259961125264
 21
45.77249800777494
 31
0.0
  0
LINE
  5
51D
330
1F
100
AcDbEntity
  8
SK2
  6
CONTINUOUS
370
25
 62
7
100
AcDbLine
 10
7.299999999999997
 20
45.05950211536161
 30
0.0
 11
8.08370657053199
 21
45.8432086858936
 31
0.0
  0
LINE
  5
51E
330
1F
100
AcDbEntity
  8
SK2
  6
CONTINUOUS
370
25
 62
7
100
AcDbLine
 10
7.299999999999997
 20
45.48376618407354
 30
0.0
 11
7.730153179938712
 21
45.91391936401226
 31
0.0
  0
LINE
  5
51F
330
1F
100
AcDbEntity
  8
SK2
  6
CONTINUOUS
370
25
 62
7
100
AcDbLine
 10
7.299999999999997
 20
45.90803025278547
 30
0.0
 11
7.376599789345438
 21
45.98463004213091
 31
0.0
  0
LINE
  5
520
330
1F
100
AcDbEntity
  8
SK2
  6
CONTINUOUS
370
25
 62
7
100
AcDbLine
 10
7.299999999999997
 20
44.03595231414329
 30
0.0
 11
7.330001928452742
 21
44.00595038569055
 31
0.0
  0
LINE
  5
521
330
1F
100
AcDbEntity
  8
SK2
  6
CONTINUOUS
370
25
 62
7
100
AcDbLine
 10
7.299999999999997
 20
44.46021638285522
 30
0.0
 11
7.683555319046016
 21
44.0766610638092
 31
0.0
  0
LINE
  5
522
330
1F
100
AcDbEntity
  8
SK2
  6
CONTINUOUS
370
25
 62
7
100
AcDbLine
 10
7.299999999999997
 20
44.88448045156716
 30
0.0
 11
8.037108709639295
 21
44.14737174192786
 31
0.0
  0
LINE
  5
523
330
1F
100
AcDbEntity
  8
SK2
  6
CONTINUOUS
370
25
 62
7
100
AcDbLine
 10
7.299999999999997
 20
45.30874452027908
 30
0.0
 11
8.390662100232571
 21
44.21808242004651
 31
0.0
  0
LINE
  5
524
330
1F
100
AcDbEntity
  8
SK2
  6
CONTINUOUS
370
25
 62
7
100
AcDbLine
 10
7.299999999999997
 20
45.73300858899101
 30
0.0
 11
8.744215490825844
 21
44.28879309816517
 31
0.0
  0
LINE
  5
525
330
1F
100
AcDbEntity
  8
SK2
  6
CONTINUOUS
370
25
 62
7
100
AcDbLine
 10
7.496653322128685
 20
45.96061933557426
 30
0.0
 11
9.097768881419125
 21
44.35950377628382
 31
0.0
  0
LINE
  5
526
330
1F
100
AcDbEntity
  8
SK2
  6
CONTINUOUS
370
25
 62
7
100
AcDbLine
 10
8.026983408018594
 20
45.85455331839628
 30
0.0
 11
9.451322272012398
 21
44.43021445440247
 31
0.0
  0
LINE
  5
527
330
1F
100
AcDbEntity
  8
SK2
  6
CONTINUOUS
370
25
 62
7
100
AcDbLine
 10
8.557313493908513
 20
45.7484873012183
 30
0.0
 11
9.804875662605676
 21
44.50092513252113
 31
0.0
  0
LINE
  5
528
330
1F
100
AcDbEntity
  8
SK2
  6
CONTINUOUS
370
25
 62
7
100
AcDbLine
 10
9.087643579798424
 20
45.64242128404031
 30
0.0
 11
10.15842905319895
 21
44.57163581063979
 31
0.0
  0
LINE
  5
529
330
1F
100
AcDbEntity
  8
SK2
  6
CONTINUOUS
370
25
 62
7
100
AcDbLine
 10
9.617973665688343
 20
45.53635526686233
 30
0.0
 11
10.51198244379223
 21
44.64234648875844
 31
0.0
  0
LINE
  5
52A
330
1F
100
AcDbEntity
  8
SK2
  6
CONTINUOUS
370
25
 62
7
100
AcDbLine
 10
10.14830375157825
 20
45.43028924968435
 30
0.0
 11
10.8655358343855
 21
44.7130571668771
 31
0.0
  0
LINE
  5
52B
330
1F
100
AcDbEntity
  8
SK2
  6
CONTINUOUS
370
25
 62
7
100
AcDbLine
 10
10.67863383746817
 20
45.32422323250636
 30
0.0
 11
11.21908922497878
 21
44.78376784499575
 31
0.0
  0
LINE
  5
52C
330
1F
100
AcDbEntity
  8
SK2
  6
CONTINUOUS
370
25
 62
7
100
AcDbLine
 10
11.20896392335808
 20
45.21815721532838
 30
0.0
 11
11.57264261557205
 21
44.85447852311441
 31
0.0
  0
LINE
  5
52D
330
1F
100
AcDbEntity
  8
SK2
  6
CONTINUOUS
370
25
 62
7
100
AcDbLine
 10
11.739294009248
 20
45.1120911981504
 30
0.0
 11
11.92619600616533
 21
44.92518920123307
 31
0.0
  0
LINE
  5
52E
330
1F
100
AcDbEntity
  8
SK2
  6
CONTINUOUS
370
25
 62
7
100
AcDbLine
 10
12.26962409513791
 20
45.00602518097242
 30
0.0
 11
12.27974939675861
 21
44.99589987935172
 31
0.0
  0
TEXT
  5
52F
330
1F
100
AcDbEntity
  8
SK2
  6
CONTINUOUS
370
25
 62
7
100
AcDbText
 10
-15.325
 20
46.49995
 30
0.0
 40
3.5
  1
50
 72
     1
 11
-12.7
 21
46.49995
 31
0.0
100
AcDbText
  0
LINE
  5
530
330
1F
100
AcDbEntity
  8
2
  6
CONTINUOUS
370
25
 62
7
100
AcDbLine
 10
4.8
 20
-0.85
 30
0.0
 11
4.799999999999998
 21
-34.2
 31
0.0
  0
LINE
  5
531
330
1F
100
AcDbEntity
  8
2
  6
CONTINUOUS
370
25
 62
7
100
AcDbLine
 10
12.3
 20
-34.2
 30
0.0
 11
12.3
 21
-1.200000000000003
 31
0.0
  0
LINE
  5
532
330
1F
100
AcDbEntity
  8
2
  6
CONTINUOUS
370
25
 62
7
100
AcDbLine
 10
-2.200000000000002
 20
-33.2
 30
0.0
 11
28.22499999999999
 21
-33.2
 31
0.0
  0
LINE
  5
533
330
1F
100
AcDbEntity
  8
2
  6
CONTINUOUS
370
25
 62
7
100
AcDbLine
 10
4.799999999999998
 20
-33.2
 30
0.0
 11
-0.200000000000002
 21
-34.2
 31
0.0
  0
LINE
  5
534
330
1F
100
AcDbEntity
  8
2
  6
CONTINUOUS
370
25
 62
7
100
AcDbLine
 10
-0.200000000000002
 20
-34.2
 30
0.0
 11
-0.200000000000002
 21
-32.2
 31
0.0
  0
LINE
  5
535
330
1F
100
AcDbEntity
  8
2
  6
CONTINUOUS
370
25
 62
7
100
AcDbLine
 10
-0.200000000000002
 20
-32.2
 30
0.0
 11
4.799999999999998
 21
-33.2
 31
0.0
  0
LINE
  5
536
330
1F
100
AcDbEntity
  8
2
  6
CONTINUOUS
370
25
 62
7
100
AcDbLine
 10
4.549344658649551
 20
-33.25013106827009
 30
0.0
 11
4.632896439099702
 21
-33.16657928781994
 31
0.0
  0
LINE
  5
537
330
1F
100
AcDbEntity
  8
2
  6
CONTINUOUS
370
25
 62
7
100
AcDbLine
 10
4.019014572759643
 20
-33.35619708544807
 30
0.0
 11
4.27934304850643
 21
-33.09586860970129
 31
0.0
  0
LINE
  5
538
330
1F
100
AcDbEntity
  8
2
  6
CONTINUOUS
370
25
 62
7
100
AcDbLine
 10
3.488684486869724
 20
-33.46226310262606
 30
0.0
 11
3.925789657913151
 21
-33.02515793158263
 31
0.0
  0
LINE
  5
539
330
1F
100
AcDbEntity
  8
2
  6
CONTINUOUS
370
25
 62
7
100
AcDbLine
 10
2.958354400979812
 20
-33.56832911980404
 30
0.0
 11
3.572236267319879
 21
-32.95444725346398
 31
0.0
  0
LINE
  5
53A
330
1F
100
AcDbEntity
  8
2
  6
CONTINUOUS
370
25
 62
7
100
AcDbLine
 10
2.428024315089901
 20
-33.67439513698202
 30
0.0
 11
3.218682876726605
 21
-32.88373657534532
 31
0.0
  0
LINE
  5
53B
330
1F
100
AcDbEntity
  8
2
  6
CONTINUOUS
370
25
 62
7
100
AcDbLine
 10
1.897694229199981
 20
-33.78046115416001
 30
0.0
 11
2.865129486133326
 21
-32.81302589722667
 31
0.0
  0
LINE
  5
53C
330
1F
100
AcDbEntity
  8
2
  6
CONTINUOUS
370
25
 62
7
100
AcDbLine
 10
1.367364143310069
 20
-33.88652717133799
 30
0.0
 11
2.511576095540053
 21
-32.74231521910801
 31
0.0
  0
LINE
  5
53D
330
1F
100
AcDbEntity
  8
2
  6
CONTINUOUS
370
25
 62
7
100
AcDbLine
 10
0.8370340574201558
 20
-33.99259318851598
 30
0.0
 11
2.158022704946779
 21
-32.67160454098936
 31
0.0
  0
LINE
  5
53E
330
1F
100
AcDbEntity
  8
2
  6
CONTINUOUS
370
25
 62
7
100
AcDbLine
 10
0.3067039715302424
 20
-34.09865920569396
 30
0.0
 11
1.804469314353504
 21
-32.60089386287071
 31
0.0
  0
LINE
  5
53F
330
1F
100
AcDbEntity
  8
2
  6
CONTINUOUS
370
25
 62
7
100
AcDbLine
 10
-0.200000000000002
 20
-34.18109910851227
 30
0.0
 11
1.45091592376023
 21
-32.53018318475205
 31
0.0
  0
LINE
  5
540
330
1F
100
AcDbEntity
  8
2
  6
CONTINUOUS
370
25
 62
7
100
AcDbLine
 10
-0.200000000000002
 20
-33.75683503980034
 30
0.0
 11
1.097362533166949
 21
-32.45947250663339
 31
0.0
  0
LINE
  5
541
330
1F
100
AcDbEntity
  8
2
  6
CONTINUOUS
370
25
 62
7
100
AcDbLine
 10
-0.200000000000002
 20
-33.33257097108841
 30
0.0
 11
0.7438091425736744
 21
-32.38876182851474
 31
0.0
  0
LINE
  5
542
330
1F
100
AcDbEntity
  8
2
  6
CONTINUOUS
370
25
 62
7
100
AcDbLine
 10
-0.200000000000002
 20
-32.90830690237648
 30
0.0
 11
0.3902557519803992
 21
-32.31805115039608
 31
0.0
  0
LINE
  5
543
330
1F
100
AcDbEntity
  8
2
  6
CONTINUOUS
370
25
 62
7
100
AcDbLine
 10
-0.200000000000002
 20
-32.48404283366455
 30
0.0
 11
0.0367023613871238
 21
-32.24734047227743
 31
0.0
  0
LINE
  5
544
330
1F
100
AcDbEntity
  8
2
  6
CONTINUOUS
370
25
 62
7
100
AcDbLine
 10
-0.200000000000002
 20
-33.91490862017474
 30
0.0
 11
0.0375761498543881
 21
-34.15248477002913
 31
0.0
  0
LINE
  5
545
330
1F
100
AcDbEntity
  8
2
  6
CONTINUOUS
370
25
 62
7
100
AcDbLine
 10
-0.200000000000002
 20
-33.49064455146281
 30
0.0
 11
0.391129540447662
 21
-34.08177409191047
 31
0.0
  0
LINE
  5
546
330
1F
100
AcDbEntity
  8
2
  6
CONTINUOUS
370
25
 62
7
100
AcDbLine
 10
-0.200000000000002
 20
-33.06638048275088
 30
0.0
 11
0.7446829310409362
 21
-34.01106341379182
 31
0.0
  0
LINE
  5
547
330
1F
100
AcDbEntity
  8
2
  6
CONTINUOUS
370
25
 62
7
100
AcDbLine
 10
-0.200000000000002
 20
-32.64211641403895
 30
0.0
 11
1.09823632163421
 21
-33.94035273567316
 31
0.0
  0
LINE
  5
548
330
1F
100
AcDbEntity
  8
2
  6
CONTINUOUS
370
25
 62
7
100
AcDbLine
 10
-0.200000000000002
 20
-32.21785234532702
 30
0.0
 11
1.451789712227485
 21
-33.86964205755451
 31
0.0
  0
LINE
  5
549
330
1F
100
AcDbEntity
  8
2
  6
CONTINUOUS
370
25
 62
7
100
AcDbLine
 10
0.3080146542311339
 20
-32.30160293084623
 30
0.0
 11
1.805343102820762
 21
-33.79893137943585
 31
0.0
  0
LINE
  5
54A
330
1F
100
AcDbEntity
  8
2
  6
CONTINUOUS
370
25
 62
7
100
AcDbLine
 10
0.8383447401210465
 20
-32.40766894802421
 30
0.0
 11
2.158896493414038
 21
-33.7282207013172
 31
0.0
  0
LINE
  5
54B
330
1F
100
AcDbEntity
  8
2
  6
CONTINUOUS
370
25
 62
7
100
AcDbLine
 10
1.36867482601096
 20
-32.5137349652022
 30
0.0
 11
2.512449884007312
 21
-33.65751002319854
 31
0.0
  0
LINE
  5
54C
330
1F
100
AcDbEntity
  8
2
  6
CONTINUOUS
370
25
 62
7
100
AcDbLine
 10
1.899004911900873
 20
-32.61980098238018
 30
0.0
 11
2.866003274600587
 21
-33.58679934507989
 31
0.0
  0
LINE
  5
54D
330
1F
100
AcDbEntity
  8
2
  6
CONTINUOUS
370
25
 62
7
100
AcDbLine
 10
2.429334997790788
 20
-32.72586699955816
 30
0.0
 11
3.219556665193863
 21
-33.51608866696123
 31
0.0
  0
LINE
  5
54E
330
1F
100
AcDbEntity
  8
2
  6
CONTINUOUS
370
25
 62
7
100
AcDbLine
 10
2.959665083680702
 20
-32.83193301673614
 30
0.0
 11
3.573110055787139
 21
-33.44537798884258
 31
0.0
  0
LINE
  5
54F
330
1F
100
AcDbEntity
  8
2
  6
CONTINUOUS
370
25
 62
7
100
AcDbLine
 10
3.489995169570617
 20
-32.93799903391412
 30
0.0
 11
3.926663446380414
 21
-33.37466731072392
 31
0.0
  0
LINE
  5
550
330
1F
100
AcDbEntity
  8
2
  6
CONTINUOUS
370
25
 62
7
100
AcDbLine
 10
4.020325255460532
 20
-33.0440650510921
 30
0.0
 11
4.280216836973691
 21
-33.30395663260526
 31
0.0
  0
LINE
  5
551
330
1F
100
AcDbEntity
  8
2
  6
CONTINUOUS
370
25
 62
7
100
AcDbLine
 10
4.550655341350444
 20
-33.15013106827009
 30
0.0
 11
4.633770227566965
 21
-33.23324595448661
 31
0.0
  0
LINE
  5
552
330
1F
100
AcDbEntity
  8
2
  6
CONTINUOUS
370
25
 62
7
100
AcDbLine
 10
12.3
 20
-33.2
 30
0.0
 11
17.3
 21
-32.2
 31
0.0
  0
LINE
  5
553
330
1F
100
AcDbEntity
  8
2
  6
CONTINUOUS
370
25
 62
7
100
AcDbLine
 10
17.3
 20
-32.2
 30
0.0
 11
17.3
 21
-34.2
 31
0.0
  0
LINE
  5
554
330
1F
100
AcDbEntity
  8
2
  6
CONTINUOUS
370
25
 62
7
100
AcDbLine
 10
17.3
 20
-34.2
 30
0.0
 11
12.3
 21
-33.2
 31
0.0
  0
LINE
  5
555
330
1F
100
AcDbEntity
  8
2
  6
CONTINUOUS
370
25
 62
7
100
AcDbLine
 10
17.17028822641462
 20
-34.17405764528292
 30
0.0
 11
17.3
 21
-34.04434587169754
 31
0.0
  0
LINE
  5
556
330
1F
100
AcDbEntity
  8
2
  6
CONTINUOUS
370
25
 62
7
100
AcDbLine
 10
16.81673483582135
 20
-34.10334696716427
 30
0.0
 11
17.3
 21
-33.62008180298562
 31
0.0
  0
LINE
  5
557
330
1F
100
AcDbEntity
  8
2
  6
CONTINUOUS
370
25
 62
7
100
AcDbLine
 10
16.46318144522807
 20
-34.03263628904561
 30
0.0
 11
17.3
 21
-33.19581773427369
 31
0.0
  0
LINE
  5
558
330
1F
100
AcDbEntity
  8
2
  6
CONTINUOUS
370
25
 62
7
100
AcDbLine
 10
16.10962805463479
 20
-33.96192561092697
 30
0.0
 11
17.3
 21
-32.77155366556176
 31
0.0
  0
LINE
  5
559
330
1F
100
AcDbEntity
  8
2
  6
CONTINUOUS
370
25
 62
7
100
AcDbLine
 10
15.75607466404152
 20
-33.89121493280831
 30
0.0
 11
17.3
 21
-32.34728959684983
 31
0.0
  0
LINE
  5
55A
330
1F
100
AcDbEntity
  8
2
  6
CONTINUOUS
370
25
 62
7
100
AcDbLine
 10
15.40252127344824
 20
-33.82050425468965
 30
0.0
 11
16.95378191017237
 21
-32.26924361796553
 31
0.0
  0
LINE
  5
55B
330
1F
100
AcDbEntity
  8
2
  6
CONTINUOUS
370
25
 62
7
100
AcDbLine
 10
15.04896788285497
 20
-33.74979357657099
 30
0.0
 11
16.42345182428246
 21
-32.37530963514351
 31
0.0
  0
LINE
  5
55C
330
1F
100
AcDbEntity
  8
2
  6
CONTINUOUS
370
25
 62
7
100
AcDbLine
 10
14.6954144922617
 20
-33.67908289845234
 30
0.0
 11
15.89312173839254
 21
-32.4813756523215
 31
0.0
  0
LINE
  5
55D
330
1F
100
AcDbEntity
  8
2
  6
CONTINUOUS
370
25
 62
7
100
AcDbLine
 10
14.34186110166842
 20
-33.60837222033368
 30
0.0
 11
15.36279165250263
 21
-32.58744166949948
 31
0.0
  0
LINE
  5
55E
330
1F
100
AcDbEntity
  8
2
  6
CONTINUOUS
370
25
 62
7
100
AcDbLine
 10
13.98830771107514
 20
-33.53766154221503
 30
0.0
 11
14.83246156661272
 21
-32.69350768667746
 31
0.0
  0
LINE
  5
55F
330
1F
100
AcDbEntity
  8
2
  6
CONTINUOUS
370
25
 62
7
100
AcDbLine
 10
13.63475432048187
 20
-33.46695086409638
 30
0.0
 11
14.3021314807228
 21
-32.79957370385544
 31
0.0
  0
LINE
  5
560
330
1F
100
AcDbEntity
  8
2
  6
CONTINUOUS
370
25
 62
7
100
AcDbLine
 10
13.28120092988859
 20
-33.39624018597772
 30
0.0
 11
13.77180139483289
 21
-32.90563972103342
 31
0.0
  0
LINE
  5
561
330
1F
100
AcDbEntity
  8
2
  6
CONTINUOUS
370
25
 62
7
100
AcDbLine
 10
12.92764753929532
 20
-33.32552950785907
 30
0.0
 11
13.24147130894298
 21
-33.01170573821141
 31
0.0
  0
LINE
  5
562
330
1F
100
AcDbEntity
  8
2
  6
CONTINUOUS
370
25
 62
7
100
AcDbLine
 10
12.57409414870204
 20
-33.25481882974042
 30
0.0
 11
12.71114122305307
 21
-33.11777175538939
 31
0.0
  0
LINE
  5
563
330
1F
100
AcDbEntity
  8
2
  6
CONTINUOUS
370
25
 62
7
100
AcDbLine
 10
12.57496793716932
 20
-33.14500641256614
 30
0.0
 11
12.71245190575398
 21
-33.28249038115079
 31
0.0
  0
LINE
  5
564
330
1F
100
AcDbEntity
  8
2
  6
CONTINUOUS
370
25
 62
7
100
AcDbLine
 10
12.92852132776259
 20
-33.07429573444748
 30
0.0
 11
13.24278199164389
 21
-33.38855639832878
 31
0.0
  0
LINE
  5
565
330
1F
100
AcDbEntity
  8
2
  6
CONTINUOUS
370
25
 62
7
100
AcDbLine
 10
13.28207471835587
 20
-33.00358505632883
 30
0.0
 11
13.7731120775338
 21
-33.49462241550676
 31
0.0
  0
LINE
  5
566
330
1F
100
AcDbEntity
  8
2
  6
CONTINUOUS
370
25
 62
7
100
AcDbLine
 10
13.63562810894915
 20
-32.93287437821017
 30
0.0
 11
14.30344216342372
 21
-33.60068843268475
 31
0.0
  0
LINE
  5
567
330
1F
100
AcDbEntity
  8
2
  6
CONTINUOUS
370
25
 62
7
100
AcDbLine
 10
13.98918149954242
 20
-32.86216370009152
 30
0.0
 11
14.83377224931363
 21
-33.70675444986273
 31
0.0
  0
LINE
  5
568
330
1F
100
AcDbEntity
  8
2
  6
CONTINUOUS
370
25
 62
7
100
AcDbLine
 10
14.34273489013569
 20
-32.79145302197286
 30
0.0
 11
15.36410233520354
 21
-33.81282046704071
 31
0.0
  0
LINE
  5
569
330
1F
100
AcDbEntity
  8
2
  6
CONTINUOUS
370
25
 62
7
100
AcDbLine
 10
14.69628828072897
 20
-32.72074234385421
 30
0.0
 11
15.89443242109346
 21
-33.9188864842187
 31
0.0
  0
LINE
  5
56A
330
1F
100
AcDbEntity
  8
2
  6
CONTINUOUS
370
25
 62
7
100
AcDbLine
 10
15.04984167132224
 20
-32.65003166573555
 30
0.0
 11
16.42476250698337
 21
-34.02495250139668
 31
0.0
  0
LINE
  5
56B
330
1F
100
AcDbEntity
  8
2
  6
CONTINUOUS
370
25
 62
7
100
AcDbLine
 10
15.40339506191552
 20
-32.5793209876169
 30
0.0
 11
16.95509259287329
 21
-34.13101851857466
 31
0.0
  0
LINE
  5
56C
330
1F
100
AcDbEntity
  8
2
  6
CONTINUOUS
370
25
 62
7
100
AcDbLine
 10
15.75694845250879
 20
-32.50861030949824
 30
0.0
 11
17.3
 21
-34.05166185698944
 31
0.0
  0
LINE
  5
56D
330
1F
100
AcDbEntity
  8
2
  6
CONTINUOUS
370
25
 62
7
100
AcDbLine
 10
16.11050184310207
 20
-32.43789963137959
 30
0.0
 11
17.3
 21
-33.62739778827751
 31
0.0
  0
LINE
  5
56E
330
1F
100
AcDbEntity
  8
2
  6
CONTINUOUS
370
25
 62
7
100
AcDbLine
 10
16.46405523369535
 20
-32.36718895326094
 30
0.0
 11
17.3
 21
-33.20313371956558
 31
0.0
  0
LINE
  5
56F
330
1F
100
AcDbEntity
  8
2
  6
CONTINUOUS
370
25
 62
7
100
AcDbLine
 10
16.81760862428862
 20
-32.29647827514228
 30
0.0
 11
17.3
 21
-32.77886965085365
 31
0.0
  0
LINE
  5
570
330
1F
100
AcDbEntity
  8
2
  6
CONTINUOUS
370
25
 62
7
100
AcDbLine
 10
17.17116201488189
 20
-32.22576759702362
 30
0.0
 11
17.3
 21
-32.35460558214173
 31
0.0
  0
TEXT
  5
571
330
1F
100
AcDbEntity
  8
2
  6
CONTINUOUS
370
25
 62
7
100
AcDbText
 10
19.2625
 20
-31.7
 30
0.0
 40
3.5
  1
7.5
 72
     1
 11
22.7625
 21
-31.7
 31
0.0
100
AcDbText
  0
LINE
  5
572
330
1F
100
AcDbEntity
  8
2
  6
CONTINUOUS
370
25
 62
7
100
AcDbLine
 10
11.623
 20
-1.2
 30
0.0
 11
11.623
 21
-14.2
 31
0.0
  0
LINE
  5
573
330
1F
100
AcDbEntity
  8
2
  6
CONTINUOUS
370
25
 62
7
100
AcDbLine
 10
12.123
 20
-14.2
 30
0.0
 11
12.123
 21
-1.199999999999999
 31
0.0
  0
LINE
  5
574
330
1F
100
AcDbEntity
  8
2
  6
CONTINUOUS
370
25
 62
7
100
AcDbLine
 10
4.622999999999999
 20
-13.2
 30
0.0
 11
28.04799999999999
 21
-13.2
 31
0.0
  0
LINE
  5
575
330
1F
100
AcDbEntity
  8
2
  6
CONTINUOUS
370
25
 62
7
100
AcDbLine
 10
11.623
 20
-13.2
 30
0.0
 11
6.622999999999999
 21
-14.2
 31
0.0
  0
LINE
  5
576
330
1F
100
AcDbEntity
  8
2
  6
CONTINUOUS
370
25
 62
7
100
AcDbLine
 10
6.622999999999999
 20
-14.2
 30
0.0
 11
6.622999999999999
 21
-12.2
 31
0.0
  0
LINE
  5
577
330
1F
100
AcDbEntity
  8
2
  6
CONTINUOUS
370
25
 62
7
100
AcDbLine
 10
6.622999999999999
 20
-12.2
 30
0.0
 11
11.623
 21
-13.2
 31
0.0
  0
LINE
  5
578
330
1F
100
AcDbEntity
  8
2
  6
CONTINUOUS
370
25
 62
7
100
AcDbLine
 10
11.34132732123675
 20
-13.25633453575265
 30
0.0
 11
11.43521821415783
 21
-13.16244364283157
 31
0.0
  0
LINE
  5
579
330
1F
100
AcDbEntity
  8
2
  6
CONTINUOUS
370
25
 62
7
100
AcDbLine
 10
10.81099723534684
 20
-13.36240055293063
 30
0.0
 11
11.08166482356456
 21
-13.09173296471291
 31
0.0
  0
LINE
  5
57A
330
1F
100
AcDbEntity
  8
2
  6
CONTINUOUS
370
25
 62
7
100
AcDbLine
 10
10.28066714945693
 20
-13.46846657010861
 30
0.0
 11
10.72811143297129
 21
-13.02102228659426
 31
0.0
  0
LINE
  5
57B
330
1F
100
AcDbEntity
  8
2
  6
CONTINUOUS
370
25
 62
7
100
AcDbLine
 10
9.750337063567024
 20
-13.57453258728659
 30
0.0
 11
10.37455804237801
 21
-12.9503116084756
 31
0.0
  0
LINE
  5
57C
330
1F
100
AcDbEntity
  8
2
  6
CONTINUOUS
370
25
 62
7
100
AcDbLine
 10
9.220006977677114
 20
-13.68059860446458
 30
0.0
 11
10.02100465178474
 21
-12.87960093035695
 31
0.0
  0
LINE
  5
57D
330
1F
100
AcDbEntity
  8
2
  6
CONTINUOUS
370
25
 62
7
100
AcDbLine
 10
8.689676891787203
 20
-13.78666462164256
 30
0.0
 11
9.667451261191468
 21
-12.80889025223829
 31
0.0
  0
LINE
  5
57E
330
1F
100
AcDbEntity
  8
2
  6
CONTINUOUS
370
25
 62
7
100
AcDbLine
 10
8.159346805897293
 20
-13.89273063882054
 30
0.0
 11
9.313897870598195
 21
-12.73817957411964
 31
0.0
  0
LINE
  5
57F
330
1F
100
AcDbEntity
  8
2
  6
CONTINUOUS
370
25
 62
7
100
AcDbLine
 10
7.629016720007384
 20
-13.99879665599852
 30
0.0
 11
8.960344480004922
 21
-12.66746889600098
 31
0.0
  0
LINE
  5
580
330
1F
100
AcDbEntity
  8
2
  6
CONTINUOUS
370
25
 62
7
100
AcDbLine
 10
7.098686634117474
 20
-14.10486267317651
 30
0.0
 11
8.606791089411649
 21
-12.59675821788233
 31
0.0
  0
LINE
  5
581
330
1F
100
AcDbEntity
  8
2
  6
CONTINUOUS
370
25
 62
7
100
AcDbLine
 10
6.622999999999999
 20
-14.15628523858205
 30
0.0
 11
8.253237698818376
 21
-12.52604753976368
 31
0.0
  0
LINE
  5
582
330
1F
100
AcDbEntity
  8
2
  6
CONTINUOUS
370
25
 62
7
100
AcDbLine
 10
6.622999999999999
 20
-13.73202116987012
 30
0.0
 11
7.899684308225105
 21
-12.45533686164502
 31
0.0
  0
LINE
  5
583
330
1F
100
AcDbEntity
  8
2
  6
CONTINUOUS
370
25
 62
7
100
AcDbLine
 10
6.622999999999999
 20
-13.3077571011582
 30
0.0
 11
7.546130917631831
 21
-12.38462618352637
 31
0.0
  0
LINE
  5
584
330
1F
100
AcDbEntity
  8
2
  6
CONTINUOUS
370
25
 62
7
100
AcDbLine
 10
6.622999999999999
 20
-12.88349303244627
 30
0.0
 11
7.192577527038558
 21
-12.31391550540771
 31
0.0
  0
LINE
  5
585
330
1F
100
AcDbEntity
  8
2
  6
CONTINUOUS
370
25
 62
7
100
AcDbLine
 10
6.622999999999999
 20
-12.45922896373434
 30
0.0
 11
6.839024136445286
 21
-12.24320482728906
 31
0.0
  0
LINE
  5
586
330
1F
100
AcDbEntity
  8
2
  6
CONTINUOUS
370
25
 62
7
100
AcDbLine
 10
6.622999999999999
 20
-13.82054494902618
 30
0.0
 11
6.93921254247818
 21
-14.13675749150436
 31
0.0
  0
LINE
  5
587
330
1F
100
AcDbEntity
  8
2
  6
CONTINUOUS
370
25
 62
7
100
AcDbLine
 10
6.622999999999999
 20
-13.39628088031426
 30
0.0
 11
7.292765933071452
 21
-14.06604681338571
 31
0.0
  0
LINE
  5
588
330
1F
100
AcDbEntity
  8
2
  6
CONTINUOUS
370
25
 62
7
100
AcDbLine
 10
6.622999999999999
 20
-12.97201681160233
 30
0.0
 11
7.646319323664725
 21
-13.99533613526705
 31
0.0
  0
LINE
  5
589
330
1F
100
AcDbEntity
  8
2
  6
CONTINUOUS
370
25
 62
7
100
AcDbLine
 10
6.622999999999999
 20
-12.5477527428904
 30
0.0
 11
7.999872714257998
 21
-13.9246254571484
 31
0.0
  0
LINE
  5
58A
330
1F
100
AcDbEntity
  8
2
  6
CONTINUOUS
370
25
 62
7
100
AcDbLine
 10
6.718639157276907
 20
-12.21912783145538
 30
0.0
 11
8.353426104851271
 21
-13.85391477902974
 31
0.0
  0
LINE
  5
58B
330
1F
100
AcDbEntity
  8
2
  6
CONTINUOUS
370
25
 62
7
100
AcDbLine
 10
7.248969243166816
 20
-12.32519384863336
 30
0.0
 11
8.706979495444545
 21
-13.78320410091109
 31
0.0
  0
LINE
  5
58C
330
1F
100
AcDbEntity
  8
2
  6
CONTINUOUS
370
25
 62
7
100
AcDbLine
 10
7.779299329056726
 20
-12.43125986581135
 30
0.0
 11
9.060532886037818
 21
-13.71249342279243
 31
0.0
  0
LINE
  5
58D
330
1F
100
AcDbEntity
  8
2
  6
CONTINUOUS
370
25
 62
7
100
AcDbLine
 10
8.309629414946636
 20
-12.53732588298933
 30
0.0
 11
9.41408627663109
 21
-13.64178274467378
 31
0.0
  0
LINE
  5
58E
330
1F
100
AcDbEntity
  8
2
  6
CONTINUOUS
370
25
 62
7
100
AcDbLine
 10
8.839959500836546
 20
-12.64339190016731
 30
0.0
 11
9.767639667224364
 21
-13.57107206655512
 31
0.0
  0
LINE
  5
58F
330
1F
100
AcDbEntity
  8
2
  6
CONTINUOUS
370
25
 62
7
100
AcDbLine
 10
9.370289586726457
 20
-12.74945791734529
 30
0.0
 11
10.12119305781764
 21
-13.50036138843647
 31
0.0
  0
LINE
  5
590
330
1F
100
AcDbEntity
  8
2
  6
CONTINUOUS
370
25
 62
7
100
AcDbLine
 10
9.900619672616367
 20
-12.85552393452327
 30
0.0
 11
10.47474644841091
 21
-13.42965071031782
 31
0.0
  0
LINE
  5
591
330
1F
100
AcDbEntity
  8
2
  6
CONTINUOUS
370
25
 62
7
100
AcDbLine
 10
10.43094975850628
 20
-12.96158995170125
 30
0.0
 11
10.82829983900418
 21
-13.35894003219916
 31
0.0
  0
LINE
  5
592
330
1F
100
AcDbEntity
  8
2
  6
CONTINUOUS
370
25
 62
7
100
AcDbLine
 10
10.96127984439619
 20
-13.06765596887924
 30
0.0
 11
11.18185322959746
 21
-13.28822935408051
 31
0.0
  0
LINE
  5
593
330
1F
100
AcDbEntity
  8
2
  6
CONTINUOUS
370
25
 62
7
100
AcDbLine
 10
11.4916099302861
 20
-13.17372198605722
 30
0.0
 11
11.53540662019073
 21
-13.21751867596185
 31
0.0
  0
LINE
  5
594
330
1F
100
AcDbEntity
  8
2
  6
CONTINUOUS
370
25
 62
7
100
AcDbLine
 10
12.123
 20
-13.2
 30
0.0
 11
17.123
 21
-12.2
 31
0.0
  0
LINE
  5
595
330
1F
100
AcDbEntity
  8
2
  6
CONTINUOUS
370
25
 62
7
100
AcDbLine
 10
17.123
 20
-12.2
 30
0.0
 11
17.123
 21
-14.2
 31
0.0
  0
LINE
  5
596
330
1F
100
AcDbEntity
  8
2
  6
CONTINUOUS
370
25
 62
7
100
AcDbLine
 10
17.123
 20
-14.2
 30
0.0
 11
12.123
 21
-13.2
 31
0.0
  0
LINE
  5
597
330
1F
100
AcDbEntity
  8
2
  6
CONTINUOUS
370
25
 62
7
100
AcDbLine
 10
16.79613091763182
 20
-14.13462618352636
 30
0.0
 11
17.123
 21
-13.80775710115818
 31
0.0
  0
LINE
  5
598
330
1F
100
AcDbEntity
  8
2
  6
CONTINUOUS
370
25
 62
7
100
AcDbLine
 10
16.44257752703854
 20
-14.06391550540771
 30
0.0
 11
17.123
 21
-13.38349303244626
 31
0.0
  0
LINE
  5
599
330
1F
100
AcDbEntity
  8
2
  6
CONTINUOUS
370
25
 62
7
100
AcDbLine
 10
16.08902413644527
 20
-13.99320482728906
 30
0.0
 11
17.123
 21
-12.95922896373433
 31
0.0
  0
LINE
  5
59A
330
1F
100
AcDbEntity
  8
2
  6
CONTINUOUS
370
25
 62
7
100
AcDbLine
 10
15.735470745852
 20
-13.9224941491704
 30
0.0
 11
17.123
 21
-12.5349648950224
 31
0.0
  0
LINE
  5
59B
330
1F
100
AcDbEntity
  8
2
  6
CONTINUOUS
370
25
 62
7
100
AcDbLine
 10
15.38191735525873
 20
-13.85178347105175
 30
0.0
 11
17.01137603288809
 21
-12.22232479342238
 31
0.0
  0
LINE
  5
59C
330
1F
100
AcDbEntity
  8
2
  6
CONTINUOUS
370
25
 62
7
100
AcDbLine
 10
15.02836396466545
 20
-13.78107279293309
 30
0.0
 11
16.48104594699818
 21
-12.32839081060036
 31
0.0
  0
LINE
  5
59D
330
1F
100
AcDbEntity
  8
2
  6
CONTINUOUS
370
25
 62
7
100
AcDbLine
 10
14.67481057407218
 20
-13.71036211481444
 30
0.0
 11
15.95071586110827
 21
-12.43445682777835
 31
0.0
  0
LINE
  5
59E
330
1F
100
AcDbEntity
  8
2
  6
CONTINUOUS
370
25
 62
7
100
AcDbLine
 10
14.32125718347891
 20
-13.63965143669578
 30
0.0
 11
15.42038577521836
 21
-12.54052284495633
 31
0.0
  0
LINE
  5
59F
330
1F
100
AcDbEntity
  8
2
  6
CONTINUOUS
370
25
 62
7
100
AcDbLine
 10
13.96770379288563
 20
-13.56894075857713
 30
0.0
 11
14.89005568932845
 21
-12.64658886213431
 31
0.0
  0
LINE
  5
5A0
330
1F
100
AcDbEntity
  8
2
  6
CONTINUOUS
370
25
 62
7
100
AcDbLine
 10
13.61415040229236
 20
-13.49823008045847
 30
0.0
 11
14.35972560343854
 21
-12.75265487931229
 31
0.0
  0
LINE
  5
5A1
330
1F
100
AcDbEntity
  8
2
  6
CONTINUOUS
370
25
 62
7
100
AcDbLine
 10
13.26059701169909
 20
-13.42751940233982
 30
0.0
 11
13.82939551754863
 21
-12.85872089649027
 31
0.0
  0
LINE
  5
5A2
330
1F
100
AcDbEntity
  8
2
  6
CONTINUOUS
370
25
 62
7
100
AcDbLine
 10
12.90704362110582
 20
-13.35680872422116
 30
0.0
 11
13.29906543165872
 21
-12.96478691366826
 31
0.0
  0
LINE
  5
5A3
330
1F
100
AcDbEntity
  8
2
  6
CONTINUOUS
370
25
 62
7
100
AcDbLine
 10
12.55349023051254
 20
-13.28609804610251
 30
0.0
 11
12.76873534576881
 21
-13.07085293084624
 31
0.0
  0
LINE
  5
5A4
330
1F
100
AcDbEntity
  8
2
  6
CONTINUOUS
370
25
 62
7
100
AcDbLine
 10
12.19993683991927
 20
-13.21538736798385
 30
0.0
 11
12.2384052598789
 21
-13.17691894802422
 31
0.0
  0
LINE
  5
5A5
330
1F
100
AcDbEntity
  8
2
  6
CONTINUOUS
370
25
 62
7
100
AcDbLine
 10
12.30012524595217
 20
-13.16457495080957
 30
0.0
 11
12.38868786892825
 21
-13.25313757378565
 31
0.0
  0
LINE
  5
5A6
330
1F
100
AcDbEntity
  8
2
  6
CONTINUOUS
370
25
 62
7
100
AcDbLine
 10
12.65367863654544
 20
-13.09386427269091
 30
0.0
 11
12.91901795481816
 21
-13.35920359096363
 31
0.0
  0
LINE
  5
5A7
330
1F
100
AcDbEntity
  8
2
  6
CONTINUOUS
370
25
 62
7
100
AcDbLine
 10
13.00723202713871
 20
-13.02315359457226
 30
0.0
 11
13.44934804070807
 21
-13.46526960814161
 31
0.0
  0
LINE
  5
5A8
330
1F
100
AcDbEntity
  8
2
  6
CONTINUOUS
370
25
 62
7
100
AcDbLine
 10
13.36078541773199
 20
-12.9524429164536
 30
0.0
 11
13.97967812659798
 21
-13.5713356253196
 31
0.0
  0
LINE
  5
5A9
330
1F
100
AcDbEntity
  8
2
  6
CONTINUOUS
370
25
 62
7
100
AcDbLine
 10
13.71433880832526
 20
-12.88173223833495
 30
0.0
 11
14.51000821248789
 21
-13.67740164249758
 31
0.0
  0
LINE
  5
5AA
330
1F
100
AcDbEntity
  8
2
  6
CONTINUOUS
370
25
 62
7
100
AcDbLine
 10
14.06789219891854
 20
-12.81102156021629
 30
0.0
 11
15.0403382983778
 21
-13.78346765967556
 31
0.0
  0
LINE
  5
5AB
330
1F
100
AcDbEntity
  8
2
  6
CONTINUOUS
370
25
 62
7
100
AcDbLine
 10
14.42144558951181
 20
-12.74031088209764
 30
0.0
 11
15.57066838426771
 21
-13.88953367685354
 31
0.0
  0
LINE
  5
5AC
330
1F
100
AcDbEntity
  8
2
  6
CONTINUOUS
370
25
 62
7
100
AcDbLine
 10
14.77499898010508
 20
-12.66960020397898
 30
0.0
 11
16.10099847015762
 21
-13.99559969403152
 31
0.0
  0
LINE
  5
5AD
330
1F
100
AcDbEntity
  8
2
  6
CONTINUOUS
370
25
 62
7
100
AcDbLine
 10
15.12855237069835
 20
-12.59888952586033
 30
0.0
 11
16.63132855604754
 21
-14.10166571120951
 31
0.0
  0
LINE
  5
5AE
330
1F
100
AcDbEntity
  8
2
  6
CONTINUOUS
370
25
 62
7
100
AcDbLine
 10
15.48210576129163
 20
-12.52817884774167
 30
0.0
 11
17.123
 21
-14.16907308645004
 31
0.0
  0
LINE
  5
5AF
330
1F
100
AcDbEntity
  8
2
  6
CONTINUOUS
370
25
 62
7
100
AcDbLine
 10
15.8356591518849
 20
-12.45746816962302
 30
0.0
 11
17.123
 21
-13.74480901773812
 31
0.0
  0
LINE
  5
5B0
330
1F
100
AcDbEntity
  8
2
  6
CONTINUOUS
370
25
 62
7
100
AcDbLine
 10
16.18921254247818
 20
-12.38675749150437
 30
0.0
 11
17.123
 21
-13.32054494902619
 31
0.0
  0
LINE
  5
5B1
330
1F
100
AcDbEntity
  8
2
  6
CONTINUOUS
370
25
 62
7
100
AcDbLine
 10
16.54276593307145
 20
-12.31604681338571
 30
0.0
 11
17.123
 21
-12.89628088031426
 31
0.0
  0
LINE
  5
5B2
330
1F
100
AcDbEntity
  8
2
  6
CONTINUOUS
370
25
 62
7
100
AcDbLine
 10
16.89631932366472
 20
-12.24533613526705
 30
0.0
 11
17.123
 21
-12.47201681160233
 31
0.0
  0
TEXT
  5
5B3
330
1F
100
AcDbEntity
  8
2
  6
CONTINUOUS
370
25
 62
7
100
AcDbText
 10
19.37716666666666
 20
-11.7
 30
0.0
 40
3.5
  1
0.5
 72
     1
 11
22.5855
 21
-11.7
 31
0.0
100
AcDbText
  0
LINE
  5
5B4
330
1F
100
AcDbEntity
  8
SK1
  6
CONTINUOUS
370
50
 62
4
100
AcDbLine
 10
0.0
 20
0.0
 30
0.0
 11
2.5
 21
0.0
 31
0.0
  0
LINE
  5
5B5
330
1F
100
AcDbEntity
  8
SK1
  6
CONTINUOUS
370
50
 62
4
100
AcDbLine
 10
0.0
 20
0.0
 30
0.0
 11
0.0
 21
2.5
 31
0.0
  0
ARC
  5
5B6
330
1F
100
AcDbEntity
  8
SK1
  6
CONTINUOUS
370
50
 62
4
100
AcDbCircle
 10
0.0
 20
0.0
 30
0.0
 40
2.5
100
AcDbArc
 50
0.0
 51
90.0
  0
LINE
  5
5B7
330
1F
100
AcDbEntity
  8
SK1
  6
CONTINUOUS
370
50
 62
4
100
AcDbLine
 10
0.0
 20
0.0
 30
0.0
 11
-2.5
 21
0.0
 31
0.0
  0
ARC
  5
5B8
330
1F
100
AcDbEntity
  8
SK1
  6
CONTINUOUS
370
50
 62
4
100
AcDbCircle
 10
0.0
 20
0.0
 30
0.0
 40
2.5
100
AcDbArc
 50
180.0
 51
270.0
  0
LINE
  5
5B9
330
1F
100
AcDbEntity
  8
SK1
  6
CONTINUOUS
370
50
 62
4
100
AcDbLine
 10
0.0
 20
-2.5
 30
0.0
 11
0.0
 21
0.0
 31
0.0
  0
ARC
  5
5BA
330
1F
100
AcDbEntity
  8
SK1
  6
CONTINUOUS
370
50
 62
4
100
AcDbCircle
 10
0.0
 20
0.0
 30
0.0
 40
2.5
100
AcDbArc
 50
270.0
 51
0.0
  0
ARC
  5
5BB
330
1F
100
AcDbEntity
  8
SK1
  6
CONTINUOUS
370
50
 62
4
100
AcDbCircle
 10
0.0
 20
0.0
 30
0.0
 40
2.5
100
AcDbArc
 50
90.0
 51
180.0
  0
LINE
  5
5BC
330
1F
100
AcDbEntity
  8
SK1
  6
CONTINUOUS
370
50
 62
4
100
AcDbLine
 10
-0.31832627443191
 20
-2.479495909600069
 30
0.0
 11
0.0
 21
-2.161169635168159
 31
0.0
  0
LINE
  5
5BD
330
1F
100
AcDbEntity
  8
SK1
  6
CONTINUOUS
370
50
 62
4
100
AcDbLine
 10
2.16116963516816
 20
0.0
 30
0.0
 11
2.479495909600069
 21
0.3183262744319091
 31
0.0
  0
LINE
  5
5BE
330
1F
100
AcDbEntity
  8
SK1
  6
CONTINUOUS
370
50
 62
4
100
AcDbLine
 10
-0.615281817185723
 20
-2.422898061760609
 30
0.0
 11
0.0
 21
-1.807616244574886
 31
0.0
  0
LINE
  5
5BF
330
1F
100
AcDbEntity
  8
SK1
  6
CONTINUOUS
370
50
 62
4
100
AcDbLine
 10
1.807616244574887
 20
0.0
 30
0.0
 11
2.422898061760609
 21
0.6152818171857222
 31
0.0
  0
LINE
  5
5C0
330
1F
100
AcDbEntity
  8
SK1
  6
CONTINUOUS
370
50
 62
4
100
AcDbLine
 10
-0.8835965231639721
 20
-2.337659377145585
 30
0.0
 11
0.0
 21
-1.454062853981614
 31
0.0
  0
LINE
  5
5C1
330
1F
100
AcDbEntity
  8
SK1
  6
CONTINUOUS
370
50
 62
4
100
AcDbLine
 10
1.454062853981615
 20
0.0
 30
0.0
 11
2.337659377145586
 21
0.8835965231639715
 31
0.0
  0
LINE
  5
5C2
330
1F
100
AcDbEntity
  8
SK1
  6
CONTINUOUS
370
50
 62
4
100
AcDbLine
 10
-1.128779664263143
 20
-2.229289127651483
 30
0.0
 11
0.0
 21
-1.100509463388341
 31
0.0
  0
LINE
  5
5C3
330
1F
100
AcDbEntity
  8
SK1
  6
CONTINUOUS
370
50
 62
4
100
AcDbLine
 10
1.100509463388341
 20
0.0
 30
0.0
 11
2.229289127651484
 21
1.128779664263142
 31
0.0
  0
LINE
  5
5C4
330
1F
100
AcDbEntity
  8
SK1
  6
CONTINUOUS
370
50
 62
4
100
AcDbLine
 10
-1.354032791010379
 20
-2.100988863805446
 30
0.0
 11
0.0
 21
-0.7469560727950677
 31
0.0
  0
LINE
  5
5C5
330
1F
100
AcDbEntity
  8
SK1
  6
CONTINUOUS
370
50
 62
4
100
AcDbLine
 10
0.746956072795068
 20
0.0
 30
0.0
 11
2.100988863805446
 21
1.354032791010378
 31
0.0
  0
LINE
  5
5C6
330
1F
100
AcDbEntity
  8
SK1
  6
CONTINUOUS
370
50
 62
4
100
AcDbLine
 10
-1.559387394659872
 20
-1.952790076861666
 30
0.0
 11
0.0
 21
-0.3934026822017946
 31
0.0
  0
LINE
  5
5C7
330
1F
100
AcDbEntity
  8
SK1
  6
CONTINUOUS
370
50
 62
4
100
AcDbLine
 10
0.3934026822017948
 20
0.0
 30
0.0
 11
1.952790076861667
 21
1.559387394659871
 31
0.0
  0
LINE
  5
5C8
330
1F
100
AcDbEntity
  8
SK1
  6
CONTINUOUS
370
50
 62
4
100
AcDbLine
 10
-1.746970020883365
 20
-1.786819312491886
 30
0.0
 11
0.0
 21
-0.0398492916085216
 31
0.0
  0
LINE
  5
5C9
330
1F
100
AcDbEntity
  8
SK1
  6
CONTINUOUS
370
50
 62
4
100
AcDbLine
 10
0.0398492916085216
 20
0.0
 30
0.0
 11
1.786819312491887
 21
1.746970020883364
 31
0.0
  0
LINE
  5
5CA
330
1F
100
AcDbEntity
  8
SK1
  6
CONTINUOUS
370
50
 62
4
100
AcDbLine
 10
-1.917371878232655
 20
-1.603667779247902
 30
0.0
 11
-0.3137040989847517
 21
0.0
 31
0.0
  0
LINE
  5
5CB
330
1F
100
AcDbEntity
  8
SK1
  6
CONTINUOUS
370
50
 62
4
100
AcDbLine
 10
0.0
 20
0.3137040989847515
 30
0.0
 11
1.603667779247903
 21
1.917371878232654
 31
0.0
  0
LINE
  5
5CC
330
1F
100
AcDbEntity
  8
SK1
  6
CONTINUOUS
370
50
 62
4
100
AcDbLine
 10
-2.068741231122433
 20
-1.401483741544407
 30
0.0
 11
-0.6672574895780249
 21
0.0
 31
0.0
  0
LINE
  5
5CD
330
1F
100
AcDbEntity
  8
SK1
  6
CONTINUOUS
370
50
 62
4
100
AcDbLine
 10
0.0
 20
0.6672574895780246
 30
0.0
 11
1.401483741544409
 21
2.068741231122432
 31
0.0
  0
LINE
  5
5CE
330
1F
100
AcDbEntity
  8
SK1
  6
CONTINUOUS
370
50
 62
4
100
AcDbLine
 10
-2.2023876557675
 20
-1.181576775596201
 30
0.0
 11
-1.020810880171298
 21
0.0
 31
0.0
  0
LINE
  5
5CF
330
1F
100
AcDbEntity
  8
SK1
  6
CONTINUOUS
370
50
 62
4
100
AcDbLine
 10
0.0
 20
1.020810880171298
 30
0.0
 11
1.181576775596202
 21
2.202387655767499
 31
0.0
  0
LINE
  5
5D0
330
1F
100
AcDbEntity
  8
SK1
  6
CONTINUOUS
370
50
 62
4
100
AcDbLine
 10
-2.315450943493525
 20
-0.9410866727289533
 30
0.0
 11
-1.374364270764571
 21
0.0
 31
0.0
  0
LINE
  5
5D1
330
1F
100
AcDbEntity
  8
SK1
  6
CONTINUOUS
370
50
 62
4
100
AcDbLine
 10
0.0
 20
1.374364270764571
 30
0.0
 11
0.9410866727289543
 21
2.315450943493524
 31
0.0
  0
LINE
  5
5D2
330
1F
100
AcDbEntity
  8
SK1
  6
CONTINUOUS
370
50
 62
4
100
AcDbLine
 10
-2.405290600131854
 20
-0.6773729387740097
 30
0.0
 11
-1.727917661357844
 21
0.0
 31
0.0
  0
LINE
  5
5D3
330
1F
100
AcDbEntity
  8
SK1
  6
CONTINUOUS
370
50
 62
4
100
AcDbLine
 10
0.0
 20
1.727917661357844
 30
0.0
 11
0.6773729387740106
 21
2.405290600131854
 31
0.0
  0
LINE
  5
5D4
330
1F
100
AcDbEntity
  8
SK1
  6
CONTINUOUS
370
50
 62
4
100
AcDbLine
 10
-2.468598823056026
 20
-0.3871277711049084
 30
0.0
 11
-2.081471051951118
 21
0.0
 31
0.0
  0
LINE
  5
5D5
330
1F
100
AcDbEntity
  8
SK1
  6
CONTINUOUS
370
50
 62
4
100
AcDbLine
 10
0.0
 20
2.081471051951117
 30
0.0
 11
0.3871277711049085
 21
2.468598823056025
 31
0.0
  0
LINE
  5
5D6
330
1F
100
AcDbEntity
  8
SK1
  6
CONTINUOUS
370
50
 62
4
100
AcDbLine
 10
-2.498020276172772
 20
-0.0629958336283822
 30
0.0
 11
-2.43502444254439
 21
0.0
 31
0.0
  0
LINE
  5
5D7
330
1F
100
AcDbEntity
  8
SK1
  6
CONTINUOUS
370
50
 62
4
100
AcDbLine
 10
0.0
 20
2.435024442544389
 30
0.0
 11
0.0629958336283828
 21
2.498020276172772
 31
0.0
  0
LINE
  5
5D8
330
1F
100
AcDbEntity
  8
SK1
  6
CONTINUOUS
370
50
 62
4
100
AcDbLine
 10
-2.337336523620827
 20
-0.8844932833271533
 30
0.0
 11
-0.8844932833271509
 21
-2.337336523620827
 31
0.0
  0
LINE
  5
5D9
330
1F
100
AcDbEntity
  8
SK1
  6
CONTINUOUS
370
50
 62
4
100
AcDbLine
 10
-2.466237059966593
 20
-0.4020393563881135
 30
0.0
 11
-0.4020393563881111
 21
-2.466237059966594
 31
0.0
  0
LINE
  5
5DA
330
1F
100
AcDbEntity
  8
SK1
  6
CONTINUOUS
370
50
 62
4
100
AcDbLine
 10
-2.499522297881596
 20
-0.0152007278798383
 30
0.0
 11
-0.0152007278798351
 21
-2.499522297881596
 31
0.0
  0
LINE
  5
5DB
330
1F
100
AcDbEntity
  8
SK1
  6
CONTINUOUS
370
50
 62
4
100
AcDbLine
 10
-2.16116963516816
 20
0.0
 30
0.0
 11
0.0
 21
-2.161169635168158
 31
0.0
  0
LINE
  5
5DC
330
1F
100
AcDbEntity
  8
SK1
  6
CONTINUOUS
370
50
 62
4
100
AcDbLine
 10
-1.807616244574888
 20
0.0
 30
0.0
 11
0.0
 21
-1.807616244574886
 31
0.0
  0
LINE
  5
5DD
330
1F
100
AcDbEntity
  8
SK1
  6
CONTINUOUS
370
50
 62
4
100
AcDbLine
 10
-1.454062853981615
 20
0.0
 30
0.0
 11
0.0
 21
-1.454062853981613
 31
0.0
  0
LINE
  5
5DE
330
1F
100
AcDbEntity
  8
SK1
  6
CONTINUOUS
370
50
 62
4
100
AcDbLine
 10
-1.100509463388341
 20
0.0
 30
0.0
 11
0.0
 21
-1.10050946338834
 31
0.0
  0
LINE
  5
5DF
330
1F
100
AcDbEntity
  8
SK1
  6
CONTINUOUS
370
50
 62
4
100
AcDbLine
 10
-0.7469560727950676
 20
0.0
 30
0.0
 11
0.0
 21
-0.7469560727950668
 31
0.0
  0
LINE
  5
5E0
330
1F
100
AcDbEntity
  8
SK1
  6
CONTINUOUS
370
50
 62
4
100
AcDbLine
 10
-0.3934026822017942
 20
0.0
 30
0.0
 11
0.0
 21
-0.3934026822017938
 31
0.0
  0
LINE
  5
5E1
330
1F
100
AcDbEntity
  8
SK1
  6
CONTINUOUS
370
50
 62
4
100
AcDbLine
 10
-0.0398492916085216
 20
0.0
 30
0.0
 11
0.0
 21
-0.0398492916085216
 31
0.0
  0
LINE
  5
5E2
330
1F
100
AcDbEntity
  8
SK1
  6
CONTINUOUS
370
50
 62
4
100
AcDbLine
 10
0.0
 20
0.3137040989847515
 30
0.0
 11
0.3137040989847518
 21
0.0
 31
0.0
  0
LINE
  5
5E3
330
1F
100
AcDbEntity
  8
SK1
  6
CONTINUOUS
370
50
 62
4
100
AcDbLine
 10
0.0
 20
0.6672574895780246
 30
0.0
 11
0.6672574895780253
 21
0.0
 31
0.0
  0
LINE
  5
5E4
330
1F
100
AcDbEntity
  8
SK1
  6
CONTINUOUS
370
50
 62
4
100
AcDbLine
 10
0.0
 20
1.020810880171298
 30
0.0
 11
1.020810880171299
 21
0.0
 31
0.0
  0
LINE
  5
5E5
330
1F
100
AcDbEntity
  8
SK1
  6
CONTINUOUS
370
50
 62
4
100
AcDbLine
 10
0.0
 20
1.37436427076457
 30
0.0
 11
1.374364270764571
 21
0.0
 31
0.0
  0
LINE
  5
5E6
330
1F
100
AcDbEntity
  8
SK1
  6
CONTINUOUS
370
50
 62
4
100
AcDbLine
 10
0.0
 20
1.727917661357843
 30
0.0
 11
1.727917661357845
 21
0.0
 31
0.0
  0
LINE
  5
5E7
330
1F
100
AcDbEntity
  8
SK1
  6
CONTINUOUS
370
50
 62
4
100
AcDbLine
 10
0.0
 20
2.081471051951116
 30
0.0
 11
2.081471051951118
 21
0.0
 31
0.0
  0
LINE
  5
5E8
330
1F
100
AcDbEntity
  8
SK1
  6
CONTINUOUS
370
50
 62
4
100
AcDbLine
 10
0.0
 20
2.435024442544389
 30
0.0
 11
2.435024442544392
 21
0.0
 31
0.0
  0
LINE
  5
5E9
330
1F
100
AcDbEntity
  8
SK1
  6
CONTINUOUS
370
50
 62
4
100
AcDbLine
 10
0.3077647139123103
 20
2.480813119225352
 30
0.0
 11
2.480813119225352
 21
0.307764713912313
 31
0.0
  0
LINE
  5
5EA
330
1F
100
AcDbEntity
  8
SK1
  6
CONTINUOUS
370
50
 62
4
100
AcDbLine
 10
0.7611924397506667
 20
2.380938783980268
 30
0.0
 11
2.380938783980268
 21
0.7611924397506691
 31
0.0
  0
LINE
  5
5EB
330
1F
100
AcDbEntity
  8
SK1
  6
CONTINUOUS
370
50
 62
4
100
AcDbLine
 10
1.48586376213526
 20
2.009820852188948
 30
0.0
 11
2.009820852188946
 21
1.485863762135263
 31
0.0
  0
LINE
  5
5EC
330
1F
100
AcDbEntity
  8
4
  6
LONGDASH_DASH
370
25
 62
2
100
AcDbLine
 10
0.0
 20
0.0
 30
0.0
 11
12.3
 21
0.0
 31
0.0
  0
LINE
  5
5ED
330
1F
100
AcDbEntity
  8
SK4
  6
LONGDASH_DASH
370
25
 62
2
100
AcDbLine
 10
-43.7
 20
0.0
 30
0.0
 11
18.3
 21
0.0
 31
0.0
  0
ENDSEC
  0
SECTION
  2
OBJECTS
  0
DICTIONARY
  5
C
330
0
100
AcDbDictionary
281
     1
  3
ACAD_GROUP
350
D
  3
ACAD_LAYOUT
350
1A
  3
ACAD_MATERIAL
350
3B
  3
ACAD_MLEADERSTYLE
350
5F0
  3
ACAD_MLINESTYLE
350
17
  3
ACAD_PLOTSETTINGS
350
19
  3
ACAD_PLOTSTYLENAME
350
E
  3
ACAD_SCALELIST
350
B6
  3
ACAD_VISUALSTYLE
350
2A
  3
AcDbVariableDictionary
350
5EE
  0
DICTIONARY
  5
D
102
{ACAD_REACTORS
330
C
102
}
330
C
100
AcDbDictionary
281
     1
  0
DICTIONARY
  5
1A
102
{ACAD_REACTORS
330
C
102
}
330
C
100
AcDbDictionary
281
     1
  3
Layout1
350
1E
  3
Layout2
350
26
  3
Model
350
22
  0
DICTIONARY
  5
3B
102
{ACAD_REACTORS
330
C
102
}
330
C
100
AcDbDictionary
281
     1
  3
ByBlock
350
3D
  3
ByLayer
350
3C
  3
Global
350
3E
  0
DICTIONARY
  5
5F0
102
{ACAD_REACTORS
330
C
102
}
330
C
100
AcDbDictionary
281
     1
  0
DICTIONARY
  5
17
102
{ACAD_REACTORS
330
C
102
}
330
C
100
AcDbDictionary
281
     1
  3
Standard
350
18
  0
DICTIONARY
  5
19
102
{ACAD_REACTORS
330
C
102
}
330
C
100
AcDbDictionary
281
     1
  0
ACDBDICTIONARYWDFLT
  5
E
102
{ACAD_REACTORS
330
C
102
}
330
C
100
AcDbDictionary
281
     1
  3
Normal
350
F
100
AcDbDictionaryWithDefault
340
F
  0
DICTIONARY
  5
B6
102
{ACAD_REACTORS
330
C
102
}
330
C
100
AcDbDictionary
281
     1
  3
A0
350
B7
  3
A1
350
B8
  3
A2
350
B9
  3
A3
350
BA
  3
A4
350
BB
  3
A5
350
BC
  3
A6
350
BD
  3
A7
350
BE
  3
A8
350
BF
  3
A9
350
C0
  3
B0
350
C1
  3
B1
350
C2
  3
B2
350
C3
  3
B3
350
C4
  3
B4
350
C5
  3
B5
350
C6
  3
B6
350
C7
  3
B7
350
C8
  3
B8
350
C9
  3
B9
350
CA
  3
C0
350
CB
  3
C1
350
CC
  3
C2
350
CD
  3
C3
350
CE
  3
C4
350
CF
  3
C5
350
D0
  3
C6
350
D1
  3
C7
350
D2
  3
C8
350
D3
  3
C9
350
D4
  3
D0
350
D5
  3
D1
350
D6
  3
D2
350
D7
  0
DICTIONARY
  5
2A
102
{ACAD_REACTORS
330
C
102
}
330
C
100
AcDbDictionary
281
     1
  3
2dWireframe
350
2F
  3
3D Hidden
350
31
  3
3dWireframe
350
30
  3
Basic
350
32
  3
Brighten
350
36
  3
ColorChange
350
3A
  3
Conceptual
350
34
  3
Dim
350
35
  3
Facepattern
350
39
  3
Flat
350
2B
  3
FlatWithEdges
350
2C
  3
Gouraud
350
2D
  3
GouraudWithEdges
350
2E
  3
Linepattern
350
38
  3
Realistic
350
33
  3
Thicken
350
37
  0
DICTIONARY
  5
5EE
102
{ACAD_REACTORS
330
C
102
}
330
C
100
AcDbDictionary
281
     1
  3
CANNOSCALE
350
5F3
  3
DIMASSOC
350
5F4
  3
HIDETEXT
350
5F5
  3
PSOLHEIGHT
350
5F2
  3
PSOLWIDTH
350
5F1
  0
LAYOUT
  5
1E
102
{ACAD_REACTORS
330
1A
102
}
330
1A
100
AcDbPlotSettings
  1

  2
none_device
  4

  6

 40
0.0
 41
0.0
 42
0.0
 43
0.0
 44
0.0
 45
0.0
 46
0.0
 47
0.0
 48
0.0
 49
0.0
140
0.0
141
0.0
142
1.0
143
1.0
 70
   688
 72
     0
 73
     0
 74
     5
  7

 75
    16
147
1.0
148
0.0
149
0.0
100
AcDbLayout
  1
Layout1
 70
     1
 71
     1
 10
0.0
 20
0.0
 11
420.0
 21
297.0
 12
0.0
 22
0.0
 32
0.0
 14
1.000000000000000E+20
 24
1.000000000000000E+20
 34
1.000000000000000E+20
 15
-1.000000000000000E+20
 25
-1.000000000000000E+20
 35
-1.000000000000000E+20
146
0.0
 13
0.0
 23
0.0
 33
0.0
 16
1.0
 26
0.0
 36
0.0
 17
0.0
 27
1.0
 37
0.0
 76
     0
330
1B
  0
LAYOUT
  5
26
102
{ACAD_REACTORS
330
1A
102
}
330
1A
100
AcDbPlotSettings
  1

  2
none_device
  4

  6

 40
0.0
 41
0.0
 42
0.0
 43
0.0
 44
0.0
 45
0.0
 46
0.0
 47
0.0
 48
0.0
 49
0.0
140
0.0
141
0.0
142
1.0
143
1.0
 70
   688
 72
     0
 73
     0
 74
     5
  7

 75
    16
147
1.0
148
0.0
149
0.0
100
AcDbLayout
  1
Layout2
 70
     1
 71
     2
 10
0.0
 20
0.0
 11
0.0
 21
0.0
 12
0.0
 22
0.0
 32
0.0
 14
0.0
 24
0.0
 34
0.0
 15
0.0
 25
0.0
 35
0.0
146
0.0
 13
0.0
 23
0.0
 33
0.0
 16
1.0
 26
0.0
 36
0.0
 17
0.0
 27
1.0
 37
0.0
 76
     0
330
23
  0
LAYOUT
  5
22
102
{ACAD_REACTORS
330
1A
102
}
330
1A
100
AcDbPlotSettings
  1

  2
none_device
  4

  6

 40
0.0
 41
0.0
 42
0.0
 43
0.0
 44
0.0
 45
0.0
 46
0.0
 47
0.0
 48
0.0
 49
0.0
140
0.0
141
0.0
142
1.0
143
1.0
 70
  1712
 72
     0
 73
     0
 74
     0
  7

 75
     0
147
1.0
148
0.0
149
0.0
100
AcDbLayout
  1
Model
 70
     1
 71
     0
 10
0.0
 20
0.0
 11
420.0
 21
297.0
 12
0.0
 22
0.0
 32
0.0
 14
0.0
 24
0.0
 34
0.0
 15
25.0
 25
35.0
 35
0.0
146
0.0
 13
0.0
 23
0.0
 33
0.0
 16
1.0
 26
0.0
 36
0.0
 17
0.0
 27
1.0
 37
0.0
 76
     0
330
1F
331
29
  0
MATERIAL
  5
3D
102
{ACAD_REACTORS
330
3B
102
}
102
{ACAD_XDICTIONARY
360
618
102
}
330
3B
100
AcDbMaterial
  1
ByBlock
  0
MATERIAL
  5
3C
102
{ACAD_REACTORS
330
3B
102
}
102
{ACAD_XDICTIONARY
360
616
102
}
330
3B
100
AcDbMaterial
  1
ByLayer
  0
MATERIAL
  5
3E
102
{ACAD_REACTORS
330
3B
102
}
102
{ACAD_XDICTIONARY
360
61A
102
}
330
3B
100
AcDbMaterial
  1
Global
  0
MLINESTYLE
  5
18
102
{ACAD_REACTORS
330
17
102
}
330
17
100
AcDbMlineStyle
  2
Standard
 70
     0
  3

 62
   256
 51
90.0
 52
90.0
 71
     2
 49
0.5
 62
   256
  6
BYLAYER
 49
-0.5
 62
   256
  6
BYLAYER
  0
ACDBPLACEHOLDER
  5
F
102
{ACAD_REACTORS
330
E
102
}
330
E
  0
SCALE
  5
B7
102
{ACAD_REACTORS
330
B6
102
}
330
B6
100
AcDbScale
 70
     0
300
1:1
140
1.0
141
1.0
290
     1
  0
SCALE
  5
B8
102
{ACAD_REACTORS
330
B6
102
}
330
B6
100
AcDbScale
 70
     0
300
1:2
140
1.0
141
2.0
290
     0
  0
SCALE
  5
B9
102
{ACAD_REACTORS
330
B6
102
}
330
B6
100
AcDbScale
 70
     0
300
1:4
140
1.0
141
4.0
290
     0
  0
SCALE
  5
BA
102
{ACAD_REACTORS
330
B6
102
}
330
B6
100
AcDbScale
 70
     0
300
1:5
140
1.0
141
5.0
290
     0
  0
SCALE
  5
BB
102
{ACAD_REACTORS
330
B6
102
}
330
B6
100
AcDbScale
 70
     0
300
1:8
140
1.0
141
8.0
290
     0
  0
SCALE
  5
BC
102
{ACAD_REACTORS
330
B6
102
}
330
B6
100
AcDbScale
 70
     0
300
1:10
140
1.0
141
10.0
290
     0
  0
SCALE
  5
BD
102
{ACAD_REACTORS
330
B6
102
}
330
B6
100
AcDbScale
 70
     0
300
1:16
140
1.0
141
16.0
290
     0
  0
SCALE
  5
BE
102
{ACAD_REACTORS
330
B6
102
}
330
B6
100
AcDbScale
 70
     0
300
1:20
140
1.0
141
20.0
290
     0
  0
SCALE
  5
BF
102
{ACAD_REACTORS
330
B6
102
}
330
B6
100
AcDbScale
 70
     0
300
1:30
140
1.0
141
30.0
290
     0
  0
SCALE
  5
C0
102
{ACAD_REACTORS
330
B6
102
}
330
B6
100
AcDbScale
 70
     0
300
1:40
140
1.0
141
40.0
290
     0
  0
SCALE
  5
C1
102
{ACAD_REACTORS
330
B6
102
}
330
B6
100
AcDbScale
 70
     0
300
1:50
140
1.0
141
50.0
290
     0
  0
SCALE
  5
C2
102
{ACAD_REACTORS
330
B6
102
}
330
B6
100
AcDbScale
 70
     0
300
1:100
140
1.0
141
100.0
290
     0
  0
SCALE
  5
C3
102
{ACAD_REACTORS
330
B6
102
}
330
B6
100
AcDbScale
 70
     0
300
2:1
140
2.0
141
1.0
290
     0
  0
SCALE
  5
C4
102
{ACAD_REACTORS
330
B6
102
}
330
B6
100
AcDbScale
 70
     0
300
4:1
140
4.0
141
1.0
290
     0
  0
SCALE
  5
C5
102
{ACAD_REACTORS
330
B6
102
}
330
B6
100
AcDbScale
 70
     0
300
8:1
140
8.0
141
1.0
290
     0
  0
SCALE
  5
C6
102
{ACAD_REACTORS
330
B6
102
}
330
B6
100
AcDbScale
 70
     0
300
10:1
140
10.0
141
1.0
290
     0
  0
SCALE
  5
C7
102
{ACAD_REACTORS
330
B6
102
}
330
B6
100
AcDbScale
 70
     0
300
100:1
140
100.0
141
1.0
290
     0
  0
SCALE
  5
C8
102
{ACAD_REACTORS
330
B6
102
}
330
B6
100
AcDbScale
 70
     0
300
1/128" = 1'-0"
140
0.0078125
141
12.0
290
     0
  0
SCALE
  5
C9
102
{ACAD_REACTORS
330
B6
102
}
330
B6
100
AcDbScale
 70
     0
300
1/64" = 1'-0"
140
0.015625
141
12.0
290
     0
  0
SCALE
  5
CA
102
{ACAD_REACTORS
330
B6
102
}
330
B6
100
AcDbScale
 70
     0
300
1/32" = 1'-0"
140
0.03125
141
12.0
290
     0
  0
SCALE
  5
CB
102
{ACAD_REACTORS
330
B6
102
}
330
B6
100
AcDbScale
 70
     0
300
1/16" = 1'-0"
140
0.0625
141
12.0
290
     0
  0
SCALE
  5
CC
102
{ACAD_REACTORS
330
B6
102
}
330
B6
100
AcDbScale
 70
     0
300
3/32" = 1'-0"
140
0.09375
141
12.0
290
     0
  0
SCALE
  5
CD
102
{ACAD_REACTORS
330
B6
102
}
330
B6
100
AcDbScale
 70
     0
300
1/8" = 1'-0"
140
0.125
141
12.0
290
     0
  0
SCALE
  5
CE
102
{ACAD_REACTORS
330
B6
102
}
330
B6
100
AcDbScale
 70
     0
300
3/16" = 1'-0"
140
0.1875
141
12.0
290
     0
  0
SCALE
  5
CF
102
{ACAD_REACTORS
330
B6
102
}
330
B6
100
AcDbScale
 70
     0
300
1/4" = 1'-0"
140
0.25
141
12.0
290
     0
  0
SCALE
  5
D0
102
{ACAD_REACTORS
330
B6
102
}
330
B6
100
AcDbScale
 70
     0
300
3/8" = 1'-0"
140
0.375
141
12.0
290
     0
  0
SCALE
  5
D1
102
{ACAD_REACTORS
330
B6
102
}
330
B6
100
AcDbScale
 70
     0
300
1/2" = 1'-0"
140
0.5
141
12.0
290
     0
  0
SCALE
  5
D2
102
{ACAD_REACTORS
330
B6
102
}
330
B6
100
AcDbScale
 70
     0
300
3/4" = 1'-0"
140
0.75
141
12.0
290
     0
  0
SCALE
  5
D3
102
{ACAD_REACTORS
330
B6
102
}
330
B6
100
AcDbScale
 70
     0
300
1" = 1'-0"
140
1.0
141
12.0
290
     0
  0
SCALE
  5
D4
102
{ACAD_REACTORS
330
B6
102
}
330
B6
100
AcDbScale
 70
     0
300
1-1/2" = 1'-0"
140
1.5
141
12.0
290
     0
  0
SCALE
  5
D5
102
{ACAD_REACTORS
330
B6
102
}
330
B6
100
AcDbScale
 70
     0
300
3" = 1'-0"
140
3.0
141
12.0
290
     0
  0
SCALE
  5
D6
102
{ACAD_REACTORS
330
B6
102
}
330
B6
100
AcDbScale
 70
     0
300
6" = 1'-0"
140
6.0
141
12.0
290
     0
  0
SCALE
  5
D7
102
{ACAD_REACTORS
330
B6
102
}
330
B6
100
AcDbScale
 70
     0
300
1'-0" = 1'-0"
140
12.0
141
12.0
290
     0
  0
VISUALSTYLE
  5
2F
102
{ACAD_REACTORS
330
2A
102
}
102
{ACAD_XDICTIONARY
360
5FE
102
}
330
2A
100
AcDbVisualStyle
  2
2dWireframe
 70
     4
 71
     0
 72
     2
 73
     0
 90
        0
 40
-0.6
 41
-30.0
 62
     5
 63
     7
 74
     1
 91
        4
 64
     7
 65
   257
 75
     1
175
     1
 42
1.0
 92
        0
 66
   257
 43
1.0
 76
     1
 77
     6
 78
     2
 67
     7
 79
     5
170
     0
171
     0
290
     0
174
     0
 93
        1
 44
0.0
173
     0
291
     0
 45
0.0
1001
ACAD
1000
AcDbSavedByObjectVersion
1070
     0
  0
VISUALSTYLE
  5
31
102
{ACAD_REACTORS
330
2A
102
}
102
{ACAD_XDICTIONARY
360
602
102
}
330
2A
100
AcDbVisualStyle
  2
3D Hidden
 70
     6
 71
     1
 72
     2
 73
     2
 90
        0
 40
-0.6
 41
-30.0
 62
     5
 63
     7
 74
     2
 91
        2
 64
     7
 65
   257
 75
     2
175
     1
 42
40.0
 92
        0
 66
   257
 43
1.0
 76
     1
 77
     6
 78
     2
 67
     7
 79
     3
170
     0
171
     0
290
     0
174
     0
 93
        1
 44
0.0
173
     0
291
     0
 45
0.0
1001
ACAD
1000
AcDbSavedByObjectVersion
1070
     0
  0
VISUALSTYLE
  5
30
102
{ACAD_REACTORS
330
2A
102
}
102
{ACAD_XDICTIONARY
360
600
102
}
330
2A
100
AcDbVisualStyle
  2
3dWireframe
 70
     5
 71
     0
 72
     2
 73
     0
 90
        0
 40
-0.6
 41
-30.0
 62
     5
 63
     7
 74
     1
 91
        4
 64
     7
 65
   257
 75
     1
175
     1
 42
1.0
 92
        0
 66
   257
 43
1.0
 76
     1
 77
     6
 78
     2
 67
     7
 79
     5
170
     0
171
     0
290
     0
174
     0
 93
        1
 44
0.0
173
     0
291
     0
 45
0.0
1001
ACAD
1000
AcDbSavedByObjectVersion
1070
     0
  0
VISUALSTYLE
  5
32
102
{ACAD_REACTORS
330
2A
102
}
102
{ACAD_XDICTIONARY
360
604
102
}
330
2A
100
AcDbVisualStyle
  2
Basic
 70
     7
 71
     1
 72
     0
 73
     1
 90
        0
 40
-0.6
 41
-30.0
 62
     5
 63
     7
 74
     0
 91
        4
 64
     7
 65
   257
 75
     1
175
     1
 42
1.0
 92
        8
 66
     7
 43
1.0
 76
     1
 77
     6
 78
     2
 67
     7
 79
     5
170
     0
171
     0
290
     0
174
     0
 93
        1
 44
0.0
173
     0
291
     1
 45
0.0
1001
ACAD
1000
AcDbSavedByObjectVersion
1070
     0
  0
VISUALSTYLE
  5
36
102
{ACAD_REACTORS
330
2A
102
}
102
{ACAD_XDICTIONARY
360
60C
102
}
330
2A
100
AcDbVisualStyle
  2
Brighten
 70
    12
 71
     2
 72
     2
 73
     0
 90
        0
 40
-0.6
 41
-30.0
 62
     5
 63
     7
 74
     1
 91
        4
 64
     7
 65
   257
 75
     1
175
     1
 42
1.0
 92
        8
 66
     7
 43
1.0
 76
     1
 77
     6
 78
     2
 67
     7
 79
     5
170
     0
171
     0
290
     0
174
     0
 93
        1
 44
50.0
173
     0
291
     1
 45
0.0
1001
ACAD
1000
AcDbSavedByObjectVersion
1070
     0
  0
VISUALSTYLE
  5
3A
102
{ACAD_REACTORS
330
2A
102
}
102
{ACAD_XDICTIONARY
360
614
102
}
330
2A
100
AcDbVisualStyle
  2
ColorChange
 70
    16
 71
     2
 72
     2
 73
     3
 90
        0
 40
-0.6
 41
-30.0
 62
     5
 63
     8
 74
     1
 91
        4
 64
     7
 65
   257
 75
     1
175
     1
 42
1.0
 92
        8
 66
     8
 43
1.0
 76
     1
 77
     6
 78
     2
 67
     7
 79
     5
170
     0
171
     0
290
     0
174
     0
 93
        1
 44
0.0
173
     0
291
     1
 45
0.0
1001
ACAD
1000
AcDbSavedByObjectVersion
1070
     0
  0
VISUALSTYLE
  5
34
102
{ACAD_REACTORS
330
2A
102
}
102
{ACAD_XDICTIONARY
360
608
102
}
330
2A
100
AcDbVisualStyle
  2
Conceptual
 70
     9
 71
     3
 72
     2
 73
     0
 90
        0
 40
-0.6
 41
-30.0
 62
     5
 63
     7
 74
     2
 91
        2
 64
     7
 65
   257
 75
     1
175
     1
 42
40.0
 92
        8
 66
     7
 43
1.0
 76
     1
 77
     6
 78
     2
 67
     7
 79
     3
170
     0
171
     0
290
     0
174
     0
 93
        1
 44
0.0
173
     0
291
     0
 45
0.0
1001
ACAD
1000
AcDbSavedByObjectVersion
1070
     0
  0
VISUALSTYLE
  5
35
102
{ACAD_REACTORS
330
2A
102
}
102
{ACAD_XDICTIONARY
360
60A
102
}
330
2A
100
AcDbVisualStyle
  2
Dim
 70
    11
 71
     2
 72
     2
 73
     0
 90
        0
 40
-0.6
 41
-30.0
 62
     5
 63
     7
 74
     1
 91
        4
 64
     7
 65
   257
 75
     1
175
     1
 42
1.0
 92
        8
 66
     7
 43
1.0
 76
     1
 77
     6
 78
     2
 67
     7
 79
     5
170
     0
171
     0
290
     0
174
     0
 93
        1
 44
-50.0
173
     0
291
     1
 45
0.0
1001
ACAD
1000
AcDbSavedByObjectVersion
1070
     0
  0
VISUALSTYLE
  5
39
102
{ACAD_REACTORS
330
2A
102
}
102
{ACAD_XDICTIONARY
360
612
102
}
330
2A
100
AcDbVisualStyle
  2
Facepattern
 70
    15
 71
     2
 72
     2
 73
     0
 90
        0
 40
-0.6
 41
-30.0
 62
     5
 63
     7
 74
     1
 91
        4
 64
     7
 65
   257
 75
     1
175
     1
 42
1.0
 92
        8
 66
     7
 43
1.0
 76
     1
 77
     6
 78
     2
 67
     7
 79
     5
170
     0
171
     0
290
     0
174
     0
 93
        1
 44
0.0
173
     0
291
     1
 45
0.0
1001
ACAD
1000
AcDbSavedByObjectVersion
1070
     0
  0
VISUALSTYLE
  5
2B
102
{ACAD_REACTORS
330
2A
102
}
102
{ACAD_XDICTIONARY
360
5F6
102
}
330
2A
100
AcDbVisualStyle
  2
Flat
 70
     0
 71
     2
 72
     1
 73
     1
 90
        2
 40
-0.6
 41
30.0
 62
     5
 63
     7
 74
     0
 91
        4
 64
     7
 65
   257
 75
     1
175
     1
 42
1.0
 92
        8
 66
     7
 43
1.0
 76
     1
 77
     6
 78
     2
 67
     7
 79
     5
170
     0
171
     0
290
     0
174
     0
 93
       13
 44
0.0
173
     0
291
     1
 45
0.0
1001
ACAD
1000
AcDbSavedByObjectVersion
1070
     0
  0
VISUALSTYLE
  5
2C
102
{ACAD_REACTORS
330
2A
102
}
102
{ACAD_XDICTIONARY
360
5F8
102
}
330
2A
100
AcDbVisualStyle
  2
FlatWithEdges
 70
     1
 71
     2
 72
     1
 73
     1
 90
        2
 40
-0.6
 41
30.0
 62
     5
 63
     7
 74
     1
 91
        4
 64
     7
 65
   257
 75
     1
175
     1
 42
1.0
 92
        0
 66
   257
 43
1.0
 76
     1
 77
     6
 78
     2
 67
     7
 79
     5
170
     0
171
     0
290
     0
174
     0
 93
       13
 44
0.0
173
     0
291
     1
 45
0.0
1001
ACAD
1000
AcDbSavedByObjectVersion
1070
     0
  0
VISUALSTYLE
  5
2D
102
{ACAD_REACTORS
330
2A
102
}
102
{ACAD_XDICTIONARY
360
5FA
102
}
330
2A
100
AcDbVisualStyle
  2
Gouraud
 70
     2
 71
     2
 72
     2
 73
     1
 90
        2
 40
-0.6
 41
30.0
 62
     5
 63
     7
 74
     0
 91
        4
 64
     7
 65
   257
 75
     1
175
     1
 42
1.0
 92
        0
 66
     7
 43
1.0
 76
     1
 77
     6
 78
     2
 67
     7
 79
     5
170
     0
171
     0
290
     0
174
     0
 93
       13
 44
0.0
173
     0
291
     1
 45
0.0
1001
ACAD
1000
AcDbSavedByObjectVersion
1070
     0
  0
VISUALSTYLE
  5
2E
102
{ACAD_REACTORS
330
2A
102
}
102
{ACAD_XDICTIONARY
360
5FC
102
}
330
2A
100
AcDbVisualStyle
  2
GouraudWithEdges
 70
     3
 71
     2
 72
     2
 73
     1
 90
        2
 40
-0.6
 41
30.0
 62
     5
 63
     7
 74
     1
 91
        4
 64
     7
 65
   257
 75
     1
175
     1
 42
1.0
 92
        0
 66
   257
 43
1.0
 76
     1
 77
     6
 78
     2
 67
     7
 79
     5
170
     0
171
     0
290
     0
174
     0
 93
       13
 44
0.0
173
     0
291
     1
 45
0.0
1001
ACAD
1000
AcDbSavedByObjectVersion
1070
     0
  0
VISUALSTYLE
  5
38
102
{ACAD_REACTORS
330
2A
102
}
102
{ACAD_XDICTIONARY
360
610
102
}
330
2A
100
AcDbVisualStyle
  2
Linepattern
 70
    14
 71
     2
 72
     2
 73
     0
 90
        0
 40
-0.6
 41
-30.0
 62
     5
 63
     7
 74
     1
 91
        4
 64
     7
 65
   257
 75
     7
175
     7
 42
1.0
 92
        8
 66
     7
 43
1.0
 76
     1
 77
     6
 78
     2
 67
     7
 79
     5
170
     0
171
     0
290
     0
174
     0
 93
        1
 44
0.0
173
     0
291
     1
 45
0.0
1001
ACAD
1000
AcDbSavedByObjectVersion
1070
     0
  0
VISUALSTYLE
  5
33
102
{ACAD_REACTORS
330
2A
102
}
102
{ACAD_XDICTIONARY
360
606
102
}
330
2A
100
AcDbVisualStyle
  2
Realistic
 70
     8
 71
     2
 72
     2
 73
     0
 90
        0
 40
-0.6
 41
-30.0
 62
     5
 63
     7
 74
     1
 91
        0
 64
     7
 65
   257
 75
     1
175
     1
 42
1.0
 92
        8
 66
     8
 43
1.0
 76
     1
 77
     6
 78
     2
 67
     7
 79
     5
170
     0
171
     0
290
     0
174
     0
 93
       13
 44
0.0
173
     0
291
     0
 45
0.0
1001
ACAD
1000
AcDbSavedByObjectVersion
1070
     0
  0
VISUALSTYLE
  5
37
102
{ACAD_REACTORS
330
2A
102
}
102
{ACAD_XDICTIONARY
360
60E
102
}
330
2A
100
AcDbVisualStyle
  2
Thicken
 70
    13
 71
     2
 72
     2
 73
     0
 90
        0
 40
-0.6
 41
-30.0
 62
     5
 63
     7
 74
     1
 91
        4
 64
     7
 65
   257
 75
     1
175
     1
 42
1.0
 92
       12
 66
     7
 43
1.0
 76
     1
 77
     6
 78
     2
 67
     7
 79
     5
170
     0
171
     0
290
     0
174
     0
 93
        1
 44
0.0
173
     0
291
     1
 45
0.0
1001
ACAD
1000
AcDbSavedByObjectVersion
1070
     0
  0
DICTIONARYVAR
  5
5F3
102
{ACAD_REACTORS
330
5EE
102
}
330
5EE
100
DictionaryVariables
280
     0
  1
1:1
  0
DICTIONARYVAR
  5
5F4
102
{ACAD_REACTORS
330
5EE
102
}
330
5EE
100
DictionaryVariables
280
     0
  1
2
  0
DICTIONARYVAR
  5
5F5
102
{ACAD_REACTORS
330
5EE
102
}
330
5EE
100
DictionaryVariables
280
     0
  1
1
  0
DICTIONARYVAR
  5
5F2
102
{ACAD_REACTORS
330
5EE
102
}
330
5EE
100
DictionaryVariables
280
     0
  1
80.000000
  0
DICTIONARYVAR
  5
5F1
102
{ACAD_REACTORS
330
5EE
102
}
330
5EE
100
DictionaryVariables
280
     0
  1
5.000000
  0
DICTIONARY
  5
618
330
3D
100
AcDbDictionary
280
     1
281
     1
  3
ACAD_XREC_ROUNDTRIP
360
619
  0
DICTIONARY
  5
616
330
3C
100
AcDbDictionary
280
     1
281
     1
  3
ACAD_XREC_ROUNDTRIP
360
617
  0
DICTIONARY
  5
61A
330
3E
100
AcDbDictionary
280
     1
281
     1
  3
ACAD_XREC_ROUNDTRIP
360
61B
  0
DICTIONARY
  5
5FE
330
2F
100
AcDbDictionary
280
     1
281
     1
  3
ACAD_XREC_ROUNDTRIP
360
5FF
  0
DICTIONARY
  5
602
330
31
100
AcDbDictionary
280
     1
281
     1
  3
ACAD_XREC_ROUNDTRIP
360
603
  0
DICTIONARY
  5
600
330
30
100
AcDbDictionary
280
     1
281
     1
  3
ACAD_XREC_ROUNDTRIP
360
601
  0
DICTIONARY
  5
604
330
32
100
AcDbDictionary
280
     1
281
     1
  3
ACAD_XREC_ROUNDTRIP
360
605
  0
DICTIONARY
  5
60C
330
36
100
AcDbDictionary
280
     1
281
     1
  3
ACAD_XREC_ROUNDTRIP
360
60D
  0
DICTIONARY
  5
614
330
3A
100
AcDbDictionary
280
     1
281
     1
  3
ACAD_XREC_ROUNDTRIP
360
615
  0
DICTIONARY
  5
608
330
34
100
AcDbDictionary
280
     1
281
     1
  3
ACAD_XREC_ROUNDTRIP
360
609
  0
DICTIONARY
  5
60A
330
35
100
AcDbDictionary
280
     1
281
     1
  3
ACAD_XREC_ROUNDTRIP
360
60B
  0
DICTIONARY
  5
612
330
39
100
AcDbDictionary
280
     1
281
     1
  3
ACAD_XREC_ROUNDTRIP
360
613
  0
DICTIONARY
  5
5F6
330
2B
100
AcDbDictionary
280
     1
281
     1
  3
ACAD_XREC_ROUNDTRIP
360
5F7
  0
DICTIONARY
  5
5F8
330
2C
100
AcDbDictionary
280
     1
281
     1
  3
ACAD_XREC_ROUNDTRIP
360
5F9
  0
DICTIONARY
  5
5FA
330
2D
100
AcDbDictionary
280
     1
281
     1
  3
ACAD_XREC_ROUNDTRIP
360
5FB
  0
DICTIONARY
  5
5FC
330
2E
100
AcDbDictionary
280
     1
281
     1
  3
ACAD_XREC_ROUNDTRIP
360
5FD
  0
DICTIONARY
  5
610
330
38
100
AcDbDictionary
280
     1
281
     1
  3
ACAD_XREC_ROUNDTRIP
360
611
  0
DICTIONARY
  5
606
330
33
100
AcDbDictionary
280
     1
281
     1
  3
ACAD_XREC_ROUNDTRIP
360
607
  0
DICTIONARY
  5
60E
330
37
100
AcDbDictionary
280
     1
281
     1
  3
ACAD_XREC_ROUNDTRIP
360
60F
  0
XRECORD
  5
619
102
{ACAD_REACTORS
330
618
102
}
330
618
100
AcDbXrecord
280
     1
102
MATERIAL
148
0.0
149
0.0
149
0.0
 93
        0
 94
      127
282
     0
 72
     1
 77
     1
171
     1
175
     1
179
     1
273
     0
  0
XRECORD
  5
617
102
{ACAD_REACTORS
330
616
102
}
330
616
100
AcDbXrecord
280
     1
102
MATERIAL
148
0.0
149
0.0
149
0.0
 93
        0
 94
      127
282
     0
 72
     1
 77
     1
171
     1
175
     1
179
     1
273
     0
  0
XRECORD
  5
61B
102
{ACAD_REACTORS
330
61A
102
}
330
61A
100
AcDbXrecord
280
     1
102
MATERIAL
148
0.0
149
0.0
149
0.0
 93
        0
 94
      127
282
     0
 72
     1
 77
     1
171
     1
175
     1
179
     1
273
     0
  0
XRECORD
  5
5FF
102
{ACAD_REACTORS
330
5FE
102
}
330
5FE
100
AcDbXrecord
280
     1
102
RTVSPropertyOp0
 70
     1
102
RTVSPropertyOp1
 70
     1
102
RTVSPropertyOp2
 70
     1
102
RTVSPropertyOp3
 70
     1
102
RTVSPropertyOp4
 70
     1
102
RTVSPropertyOp5
 70
     1
102
RTVSPropertyOp6
 70
     1
102
RTVSPropertyOp7
 70
     1
102
RTVSPropertyOp8
 70
     1
102
RTVSPropertyOp9
 70
     1
102
RTVSPropertyOp10
 70
     1
102
RTVSPropertyOp11
 70
     1
102
RTVSPropertyOp12
 70
     1
102
RTVSPropertyOp13
 70
     1
102
RTVSPropertyOp14
 70
     1
102
RTVSPropertyOp15
 70
     1
102
RTVSPropertyOp16
 70
     1
102
RTVSPropertyOp17
 70
     1
102
RTVSPropertyOp18
 70
     1
102
RTVSPropertyOp19
 70
     1
102
RTVSPropertyOp20
 70
     1
102
RTVSPropertyOp21
 70
     1
102
RTVSPropertyOp22
 70
     1
102
RTVSPropertyOp23
 70
     1
102
RTVSPropertyOp24
 70
     1
102
RTVSPropertyOp25
 70
     1
102
RTVSPropertyOp26
 70
     1
102
RTVSPropertyOp27
 70
     1
  0
XRECORD
  5
603
102
{ACAD_REACTORS
330
602
102
}
330
602
100
AcDbXrecord
280
     1
102
RTVSPropertyOp0
 70
     1
102
RTVSPropertyOp1
 70
     1
102
RTVSPropertyOp2
 70
     1
102
RTVSPropertyOp3
 70
     1
102
RTVSPropertyOp4
 70
     1
102
RTVSPropertyOp5
 70
     1
102
RTVSPropertyOp6
 70
     1
102
RTVSPropertyOp7
 70
     1
102
RTVSPropertyOp8
 70
     1
102
RTVSPropertyOp9
 70
     1
102
RTVSPropertyOp10
 70
     1
102
RTVSPropertyOp11
 70
     1
102
RTVSPropertyOp12
 70
     1
102
RTVSPropertyOp13
 70
     1
102
RTVSPropertyOp14
 70
     1
102
RTVSPropertyOp15
 70
     1
102
RTVSPropertyOp16
 70
     1
102
RTVSPropertyOp17
 70
     1
102
RTVSPropertyOp18
 70
     1
102
RTVSPropertyOp19
 70
     1
102
RTVSPropertyOp20
 70
     1
102
RTVSPropertyOp21
 70
     1
102
RTVSPropertyOp22
 70
     1
102
RTVSPropertyOp23
 70
     1
102
RTVSPropertyOp24
 70
     1
102
RTVSPropertyOp25
 70
     1
102
RTVSPropertyOp26
 70
     1
102
RTVSPropertyOp27
 70
     1
  0
XRECORD
  5
601
102
{ACAD_REACTORS
330
600
102
}
330
600
100
AcDbXrecord
280
     1
102
RTVSPropertyOp0
 70
     1
102
RTVSPropertyOp1
 70
     1
102
RTVSPropertyOp2
 70
     1
102
RTVSPropertyOp3
 70
     1
102
RTVSPropertyOp4
 70
     1
102
RTVSPropertyOp5
 70
     1
102
RTVSPropertyOp6
 70
     1
102
RTVSPropertyOp7
 70
     1
102
RTVSPropertyOp8
 70
     1
102
RTVSPropertyOp9
 70
     1
102
RTVSPropertyOp10
 70
     1
102
RTVSPropertyOp11
 70
     1
102
RTVSPropertyOp12
 70
     1
102
RTVSPropertyOp13
 70
     1
102
RTVSPropertyOp14
 70
     1
102
RTVSPropertyOp15
 70
     1
102
RTVSPropertyOp16
 70
     1
102
RTVSPropertyOp17
 70
     1
102
RTVSPropertyOp18
 70
     1
102
RTVSPropertyOp19
 70
     1
102
RTVSPropertyOp20
 70
     1
102
RTVSPropertyOp21
 70
     1
102
RTVSPropertyOp22
 70
     1
102
RTVSPropertyOp23
 70
     1
102
RTVSPropertyOp24
 70
     1
102
RTVSPropertyOp25
 70
     1
102
RTVSPropertyOp26
 70
     1
102
RTVSPropertyOp27
 70
     1
  0
XRECORD
  5
605
102
{ACAD_REACTORS
330
604
102
}
330
604
100
AcDbXrecord
280
     1
102
RTVSPropertyOp0
 70
     1
102
RTVSPropertyOp1
 70
     1
102
RTVSPropertyOp2
 70
     1
102
RTVSPropertyOp3
 70
     1
102
RTVSPropertyOp4
 70
     1
102
RTVSPropertyOp5
 70
     1
102
RTVSPropertyOp6
 70
     1
102
RTVSPropertyOp7
 70
     1
102
RTVSPropertyOp8
 70
     1
102
RTVSPropertyOp9
 70
     1
102
RTVSPropertyOp10
 70
     1
102
RTVSPropertyOp11
 70
     1
102
RTVSPropertyOp12
 70
     1
102
RTVSPropertyOp13
 70
     1
102
RTVSPropertyOp14
 70
     1
102
RTVSPropertyOp15
 70
     1
102
RTVSPropertyOp16
 70
     1
102
RTVSPropertyOp17
 70
     1
102
RTVSPropertyOp18
 70
     1
102
RTVSPropertyOp19
 70
     1
102
RTVSPropertyOp20
 70
     1
102
RTVSPropertyOp21
 70
     1
102
RTVSPropertyOp22
 70
     1
102
RTVSPropertyOp23
 70
     1
102
RTVSPropertyOp24
 70
     1
102
RTVSPropertyOp25
 70
     1
102
RTVSPropertyOp26
 70
     1
102
RTVSPropertyOp27
 70
     1
  0
XRECORD
  5
60D
102
{ACAD_REACTORS
330
60C
102
}
330
60C
100
AcDbXrecord
280
     1
102
RTVSPropertyOp0
 70
     1
102
RTVSPropertyOp1
 70
     1
102
RTVSPropertyOp2
 70
     1
102
RTVSPropertyOp3
 70
     1
102
RTVSPropertyOp4
 70
     1
102
RTVSPropertyOp5
 70
     1
102
RTVSPropertyOp6
 70
     1
102
RTVSPropertyOp7
 70
     1
102
RTVSPropertyOp8
 70
     1
102
RTVSPropertyOp9
 70
     1
102
RTVSPropertyOp10
 70
     1
102
RTVSPropertyOp11
 70
     1
102
RTVSPropertyOp12
 70
     1
102
RTVSPropertyOp13
 70
     1
102
RTVSPropertyOp14
 70
     1
102
RTVSPropertyOp15
 70
     1
102
RTVSPropertyOp16
 70
     1
102
RTVSPropertyOp17
 70
     1
102
RTVSPropertyOp18
 70
     1
102
RTVSPropertyOp19
 70
     1
102
RTVSPropertyOp20
 70
     1
102
RTVSPropertyOp21
 70
     1
102
RTVSPropertyOp22
 70
     1
102
RTVSPropertyOp23
 70
     1
102
RTVSPropertyOp24
 70
     1
102
RTVSPropertyOp25
 70
     1
102
RTVSPropertyOp26
 70
     1
102
RTVSPropertyOp27
 70
     1
  0
XRECORD
  5
615
102
{ACAD_REACTORS
330
614
102
}
330
614
100
AcDbXrecord
280
     1
102
RTVSPropertyOp0
 70
     1
102
RTVSPropertyOp1
 70
     1
102
RTVSPropertyOp2
 70
     1
102
RTVSPropertyOp3
 70
     1
102
RTVSPropertyOp4
 70
     1
102
RTVSPropertyOp5
 70
     1
102
RTVSPropertyOp6
 70
     1
102
RTVSPropertyOp7
 70
     1
102
RTVSPropertyOp8
 70
     1
102
RTVSPropertyOp9
 70
     1
102
RTVSPropertyOp10
 70
     1
102
RTVSPropertyOp11
 70
     1
102
RTVSPropertyOp12
 70
     1
102
RTVSPropertyOp13
 70
     1
102
RTVSPropertyOp14
 70
     1
102
RTVSPropertyOp15
 70
     1
102
RTVSPropertyOp16
 70
     1
102
RTVSPropertyOp17
 70
     1
102
RTVSPropertyOp18
 70
     1
102
RTVSPropertyOp19
 70
     1
102
RTVSPropertyOp20
 70
     1
102
RTVSPropertyOp21
 70
     1
102
RTVSPropertyOp22
 70
     1
102
RTVSPropertyOp23
 70
     1
102
RTVSPropertyOp24
 70
     1
102
RTVSPropertyOp25
 70
     1
102
RTVSPropertyOp26
 70
     1
102
RTVSPropertyOp27
 70
     1
  0
XRECORD
  5
609
102
{ACAD_REACTORS
330
608
102
}
330
608
100
AcDbXrecord
280
     1
102
RTVSPropertyOp0
 70
     1
102
RTVSPropertyOp1
 70
     1
102
RTVSPropertyOp2
 70
     1
102
RTVSPropertyOp3
 70
     1
102
RTVSPropertyOp4
 70
     1
102
RTVSPropertyOp5
 70
     1
102
RTVSPropertyOp6
 70
     1
102
RTVSPropertyOp7
 70
     1
102
RTVSPropertyOp8
 70
     1
102
RTVSPropertyOp9
 70
     1
102
RTVSPropertyOp10
 70
     1
102
RTVSPropertyOp11
 70
     1
102
RTVSPropertyOp12
 70
     1
102
RTVSPropertyOp13
 70
     1
102
RTVSPropertyOp14
 70
     1
102
RTVSPropertyOp15
 70
     1
102
RTVSPropertyOp16
 70
     1
102
RTVSPropertyOp17
 70
     1
102
RTVSPropertyOp18
 70
     1
102
RTVSPropertyOp19
 70
     1
102
RTVSPropertyOp20
 70
     1
102
RTVSPropertyOp21
 70
     1
102
RTVSPropertyOp22
 70
     1
102
RTVSPropertyOp23
 70
     1
102
RTVSPropertyOp24
 70
     1
102
RTVSPropertyOp25
 70
     1
102
RTVSPropertyOp26
 70
     1
102
RTVSPropertyOp27
 70
     1
  0
XRECORD
  5
60B
102
{ACAD_REACTORS
330
60A
102
}
330
60A
100
AcDbXrecord
280
     1
102
RTVSPropertyOp0
 70
     1
102
RTVSPropertyOp1
 70
     1
102
RTVSPropertyOp2
 70
     1
102
RTVSPropertyOp3
 70
     1
102
RTVSPropertyOp4
 70
     1
102
RTVSPropertyOp5
 70
     1
102
RTVSPropertyOp6
 70
     1
102
RTVSPropertyOp7
 70
     1
102
RTVSPropertyOp8
 70
     1
102
RTVSPropertyOp9
 70
     1
102
RTVSPropertyOp10
 70
     1
102
RTVSPropertyOp11
 70
     1
102
RTVSPropertyOp12
 70
     1
102
RTVSPropertyOp13
 70
     1
102
RTVSPropertyOp14
 70
     1
102
RTVSPropertyOp15
 70
     1
102
RTVSPropertyOp16
 70
     1
102
RTVSPropertyOp17
 70
     1
102
RTVSPropertyOp18
 70
     1
102
RTVSPropertyOp19
 70
     1
102
RTVSPropertyOp20
 70
     1
102
RTVSPropertyOp21
 70
     1
102
RTVSPropertyOp22
 70
     1
102
RTVSPropertyOp23
 70
     1
102
RTVSPropertyOp24
 70
     1
102
RTVSPropertyOp25
 70
     1
102
RTVSPropertyOp26
 70
     1
102
RTVSPropertyOp27
 70
     1
  0
XRECORD
  5
613
102
{ACAD_REACTORS
330
612
102
}
330
612
100
AcDbXrecord
280
     1
102
RTVSPropertyOp0
 70
     1
102
RTVSPropertyOp1
 70
     1
102
RTVSPropertyOp2
 70
     1
102
RTVSPropertyOp3
 70
     1
102
RTVSPropertyOp4
 70
     1
102
RTVSPropertyOp5
 70
     1
102
RTVSPropertyOp6
 70
     1
102
RTVSPropertyOp7
 70
     1
102
RTVSPropertyOp8
 70
     1
102
RTVSPropertyOp9
 70
     1
102
RTVSPropertyOp10
 70
     1
102
RTVSPropertyOp11
 70
     1
102
RTVSPropertyOp12
 70
     1
102
RTVSPropertyOp13
 70
     1
102
RTVSPropertyOp14
 70
     1
102
RTVSPropertyOp15
 70
     1
102
RTVSPropertyOp16
 70
     1
102
RTVSPropertyOp17
 70
     1
102
RTVSPropertyOp18
 70
     1
102
RTVSPropertyOp19
 70
     1
102
RTVSPropertyOp20
 70
     1
102
RTVSPropertyOp21
 70
     1
102
RTVSPropertyOp22
 70
     1
102
RTVSPropertyOp23
 70
     1
102
RTVSPropertyOp24
 70
     1
102
RTVSPropertyOp25
 70
     1
102
RTVSPropertyOp26
 70
     1
102
RTVSPropertyOp27
 70
     1
  0
XRECORD
  5
5F7
102
{ACAD_REACTORS
330
5F6
102
}
330
5F6
100
AcDbXrecord
280
     1
102
RTVSPropertyOp0
 70
     1
102
RTVSPropertyOp1
 70
     1
102
RTVSPropertyOp2
 70
     1
102
RTVSPropertyOp3
 70
     1
102
RTVSPropertyOp4
 70
     1
102
RTVSPropertyOp5
 70
     1
102
RTVSPropertyOp6
 70
     1
102
RTVSPropertyOp7
 70
     1
102
RTVSPropertyOp8
 70
     1
102
RTVSPropertyOp9
 70
     1
102
RTVSPropertyOp10
 70
     1
102
RTVSPropertyOp11
 70
     1
102
RTVSPropertyOp12
 70
     1
102
RTVSPropertyOp13
 70
     1
102
RTVSPropertyOp14
 70
     1
102
RTVSPropertyOp15
 70
     1
102
RTVSPropertyOp16
 70
     1
102
RTVSPropertyOp17
 70
     1
102
RTVSPropertyOp18
 70
     1
102
RTVSPropertyOp19
 70
     1
102
RTVSPropertyOp20
 70
     1
102
RTVSPropertyOp21
 70
     1
102
RTVSPropertyOp22
 70
     1
102
RTVSPropertyOp23
 70
     1
102
RTVSPropertyOp24
 70
     1
102
RTVSPropertyOp25
 70
     1
102
RTVSPropertyOp26
 70
     1
102
RTVSPropertyOp27
 70
     1
  0
XRECORD
  5
5F9
102
{ACAD_REACTORS
330
5F8
102
}
330
5F8
100
AcDbXrecord
280
     1
102
RTVSPropertyOp0
 70
     1
102
RTVSPropertyOp1
 70
     1
102
RTVSPropertyOp2
 70
     1
102
RTVSPropertyOp3
 70
     1
102
RTVSPropertyOp4
 70
     1
102
RTVSPropertyOp5
 70
     1
102
RTVSPropertyOp6
 70
     1
102
RTVSPropertyOp7
 70
     1
102
RTVSPropertyOp8
 70
     1
102
RTVSPropertyOp9
 70
     1
102
RTVSPropertyOp10
 70
     1
102
RTVSPropertyOp11
 70
     1
102
RTVSPropertyOp12
 70
     1
102
RTVSPropertyOp13
 70
     1
102
RTVSPropertyOp14
 70
     1
102
RTVSPropertyOp15
 70
     1
102
RTVSPropertyOp16
 70
     1
102
RTVSPropertyOp17
 70
     1
102
RTVSPropertyOp18
 70
     1
102
RTVSPropertyOp19
 70
     1
102
RTVSPropertyOp20
 70
     1
102
RTVSPropertyOp21
 70
     1
102
RTVSPropertyOp22
 70
     1
102
RTVSPropertyOp23
 70
     1
102
RTVSPropertyOp24
 70
     1
102
RTVSPropertyOp25
 70
     1
102
RTVSPropertyOp26
 70
     1
102
RTVSPropertyOp27
 70
     1
  0
XRECORD
  5
5FB
102
{ACAD_REACTORS
330
5FA
102
}
330
5FA
100
AcDbXrecord
280
     1
102
RTVSPropertyOp0
 70
     1
102
RTVSPropertyOp1
 70
     1
102
RTVSPropertyOp2
 70
     1
102
RTVSPropertyOp3
 70
     1
102
RTVSPropertyOp4
 70
     1
102
RTVSPropertyOp5
 70
     1
102
RTVSPropertyOp6
 70
     1
102
RTVSPropertyOp7
 70
     1
102
RTVSPropertyOp8
 70
     1
102
RTVSPropertyOp9
 70
     1
102
RTVSPropertyOp10
 70
     1
102
RTVSPropertyOp11
 70
     1
102
RTVSPropertyOp12
 70
     1
102
RTVSPropertyOp13
 70
     1
102
RTVSPropertyOp14
 70
     1
102
RTVSPropertyOp15
 70
     1
102
RTVSPropertyOp16
 70
     1
102
RTVSPropertyOp17
 70
     1
102
RTVSPropertyOp18
 70
     1
102
RTVSPropertyOp19
 70
     1
102
RTVSPropertyOp20
 70
     1
102
RTVSPropertyOp21
 70
     1
102
RTVSPropertyOp22
 70
     1
102
RTVSPropertyOp23
 70
     1
102
RTVSPropertyOp24
 70
     1
102
RTVSPropertyOp25
 70
     1
102
RTVSPropertyOp26
 70
     1
102
RTVSPropertyOp27
 70
     1
  0
XRECORD
  5
5FD
102
{ACAD_REACTORS
330
5FC
102
}
330
5FC
100
AcDbXrecord
280
     1
102
RTVSPropertyOp0
 70
     1
102
RTVSPropertyOp1
 70
     1
102
RTVSPropertyOp2
 70
     1
102
RTVSPropertyOp3
 70
     1
102
RTVSPropertyOp4
 70
     1
102
RTVSPropertyOp5
 70
     1
102
RTVSPropertyOp6
 70
     1
102
RTVSPropertyOp7
 70
     1
102
RTVSPropertyOp8
 70
     1
102
RTVSPropertyOp9
 70
     1
102
RTVSPropertyOp10
 70
     1
102
RTVSPropertyOp11
 70
     1
102
RTVSPropertyOp12
 70
     1
102
RTVSPropertyOp13
 70
     1
102
RTVSPropertyOp14
 70
     1
102
RTVSPropertyOp15
 70
     1
102
RTVSPropertyOp16
 70
     1
102
RTVSPropertyOp17
 70
     1
102
RTVSPropertyOp18
 70
     1
102
RTVSPropertyOp19
 70
     1
102
RTVSPropertyOp20
 70
     1
102
RTVSPropertyOp21
 70
     1
102
RTVSPropertyOp22
 70
     1
102
RTVSPropertyOp23
 70
     1
102
RTVSPropertyOp24
 70
     1
102
RTVSPropertyOp25
 70
     1
102
RTVSPropertyOp26
 70
     1
102
RTVSPropertyOp27
 70
     1
  0
XRECORD
  5
611
102
{ACAD_REACTORS
330
610
102
}
330
610
100
AcDbXrecord
280
     1
102
RTVSPropertyOp0
 70
     1
102
RTVSPropertyOp1
 70
     1
102
RTVSPropertyOp2
 70
     1
102
RTVSPropertyOp3
 70
     1
102
RTVSPropertyOp4
 70
     1
102
RTVSPropertyOp5
 70
     1
102
RTVSPropertyOp6
 70
     1
102
RTVSPropertyOp7
 70
     1
102
RTVSPropertyOp8
 70
     1
102
RTVSPropertyOp9
 70
     1
102
RTVSPropertyOp10
 70
     1
102
RTVSPropertyOp11
 70
     1
102
RTVSPropertyOp12
 70
     1
102
RTVSPropertyOp13
 70
     1
102
RTVSPropertyOp14
 70
     1
102
RTVSPropertyOp15
 70
     1
102
RTVSPropertyOp16
 70
     1
102
RTVSPropertyOp17
 70
     1
102
RTVSPropertyOp18
 70
     1
102
RTVSPropertyOp19
 70
     1
102
RTVSPropertyOp20
 70
     1
102
RTVSPropertyOp21
 70
     1
102
RTVSPropertyOp22
 70
     1
102
RTVSPropertyOp23
 70
     1
102
RTVSPropertyOp24
 70
     1
102
RTVSPropertyOp25
 70
     1
102
RTVSPropertyOp26
 70
     1
102
RTVSPropertyOp27
 70
     1
  0
XRECORD
  5
607
102
{ACAD_REACTORS
330
606
102
}
330
606
100
AcDbXrecord
280
     1
102
RTVSPropertyOp0
 70
     1
102
RTVSPropertyOp1
 70
     1
102
RTVSPropertyOp2
 70
     1
102
RTVSPropertyOp3
 70
     1
102
RTVSPropertyOp4
 70
     1
102
RTVSPropertyOp5
 70
     1
102
RTVSPropertyOp6
 70
     1
102
RTVSPropertyOp7
 70
     1
102
RTVSPropertyOp8
 70
     1
102
RTVSPropertyOp9
 70
     1
102
RTVSPropertyOp10
 70
     1
102
RTVSPropertyOp11
 70
     1
102
RTVSPropertyOp12
 70
     1
102
RTVSPropertyOp13
 70
     1
102
RTVSPropertyOp14
 70
     1
102
RTVSPropertyOp15
 70
     1
102
RTVSPropertyOp16
 70
     1
102
RTVSPropertyOp17
 70
     1
102
RTVSPropertyOp18
 70
     1
102
RTVSPropertyOp19
 70
     1
102
RTVSPropertyOp20
 70
     1
102
RTVSPropertyOp21
 70
     1
102
RTVSPropertyOp22
 70
     1
102
RTVSPropertyOp23
 70
     1
102
RTVSPropertyOp24
 70
     1
102
RTVSPropertyOp25
 70
     1
102
RTVSPropertyOp26
 70
     1
102
RTVSPropertyOp27
 70
     1
  0
XRECORD
  5
60F
102
{ACAD_REACTORS
330
60E
102
}
330
60E
100
AcDbXrecord
280
     1
102
RTVSPropertyOp0
 70
     1
102
RTVSPropertyOp1
 70
     1
102
RTVSPropertyOp2
 70
     1
102
RTVSPropertyOp3
 70
     1
102
RTVSPropertyOp4
 70
     1
102
RTVSPropertyOp5
 70
     1
102
RTVSPropertyOp6
 70
     1
102
RTVSPropertyOp7
 70
     1
102
RTVSPropertyOp8
 70
     1
102
RTVSPropertyOp9
 70
     1
102
RTVSPropertyOp10
 70
     1
102
RTVSPropertyOp11
 70
     1
102
RTVSPropertyOp12
 70
     1
102
RTVSPropertyOp13
 70
     1
102
RTVSPropertyOp14
 70
     1
102
RTVSPropertyOp15
 70
     1
102
RTVSPropertyOp16
 70
     1
102
RTVSPropertyOp17
 70
     1
102
RTVSPropertyOp18
 70
     1
102
RTVSPropertyOp19
 70
     1
102
RTVSPropertyOp20
 70
     1
102
RTVSPropertyOp21
 70
     1
102
RTVSPropertyOp22
 70
     1
102
RTVSPropertyOp23
 70
     1
102
RTVSPropertyOp24
 70
     1
102
RTVSPropertyOp25
 70
     1
102
RTVSPropertyOp26
 70
     1
102
RTVSPropertyOp27
 70
     1
  0
ENDSEC
  0
EOF
