  0
SECTION
  2
HEADER
  9
$ACADVER
  1
AC1015
  9
$ACADMAINTVER
 70
     6
  9
$DWGCODEPAGE
  3
ANSI_1252
  9
$INSBASE
 10
0.0
 20
0.0
 30
0.0
  9
$EXTMIN
 10
0.0
 20
0.0
 30
0.0
  9
$EXTMAX
 10
25.0
 20
35.0
 30
0.0
  9
$LIMMIN
 10
0.0
 20
0.0
  9
$LIMMAX
 10
420.0
 20
297.0
  9
$ORTHOMODE
 70
     0
  9
$REGENMODE
 70
     1
  9
$FILLMODE
 70
     1
  9
$QTEXTMODE
 70
     0
  9
$MIRRTEXT
 70
     1
  9
$LTSCALE
 40
4.5
  9
$ATTMODE
 70
     1
  9
$TEXTSIZE
 40
2.5
  9
$TRACEWID
 40
1.0
  9
$TEXTSTYLE
  7
Standard
  9
$CLAYER
  8
0
  9
$CELTYPE
  6
ByLayer
  9
$CECOLOR
 62
   256
  9
$CELTSCALE
 40
1.0
  9
$DISPSILH
 70
     0
  9
$DIMSCALE
 40
1.0
  9
$DIMASZ
 40
2.5
  9
$DIMEXO
 40
0.625
  9
$DIMDLI
 40
3.75
  9
$DIMRND
 40
0.0
  9
$DIMDLE
 40
0.0
  9
$DIMEXE
 40
1.25
  9
$DIMTP
 40
0.0
  9
$DIMTM
 40
0.0
  9
$DIMTXT
 40
2.5
  9
$DIMCEN
 40
2.5
  9
$DIMTSZ
 40
0.0
  9
$DIMTOL
 70
     0
  9
$DIMLIM
 70
     0
  9
$DIMTIH
 70
     0
  9
$DIMTOH
 70
     0
  9
$DIMSE1
 70
     0
  9
$DIMSE2
 70
     0
  9
$DIMTAD
 70
     1
  9
$DIMZIN
 70
     8
  9
$DIMBLK
  1

  9
$DIMASO
 70
     1
  9
$DIMSHO
 70
     1
  9
$DIMPOST
  1

  9
$DIMAPOST
  1

  9
$DIMALT
 70
     0
  9
$DIMALTD
 70
     3
  9
$DIMALTF
 40
0.03937007874016
  9
$DIMLFAC
 40
1.0
  9
$DIMTOFL
 70
     1
  9
$DIMTVP
 40
0.0
  9
$DIMTIX
 70
     0
  9
$DIMSOXD
 70
     0
  9
$DIMSAH
 70
     0
  9
$DIMBLK1
  1

  9
$DIMBLK2
  1

  9
$DIMSTYLE
  2
ISO-25
  9
$DIMCLRD
 70
     0
  9
$DIMCLRE
 70
     0
  9
$DIMCLRT
 70
     0
  9
$DIMTFAC
 40
1.0
  9
$DIMGAP
 40
0.625
  9
$DIMJUST
 70
     0
  9
$DIMSD1
 70
     0
  9
$DIMSD2
 70
     0
  9
$DIMTOLJ
 70
     0
  9
$DIMTZIN
 70
     8
  9
$DIMALTZ
 70
     0
  9
$DIMALTTZ
 70
     0
  9
$DIMUPT
 70
     0
  9
$DIMDEC
 70
     2
  9
$DIMTDEC
 70
     2
  9
$DIMALTU
 70
     2
  9
$DIMALTTD
 70
     3
  9
$DIMTXSTY
  7
Standard
  9
$DIMAUNIT
 70
     0
  9
$DIMADEC
 70
     0
  9
$DIMALTRND
 40
0.0
  9
$DIMAZIN
 70
     0
  9
$DIMDSEP
 70
    44
  9
$DIMATFIT
 70
     3
  9
$DIMFRAC
 70
     0
  9
$DIMLDRBLK
  1

  9
$DIMLUNIT
 70
     2
  9
$DIMLWD
 70
    -2
  9
$DIMLWE
 70
    -2
  9
$DIMTMOVE
 70
     0
  9
$LUNITS
 70
     2
  9
$LUPREC
 70
     4
  9
$SKETCHINC
 40
1.0
  9
$FILLETRAD
 40
10.0
  9
$AUNITS
 70
     0
  9
$AUPREC
 70
     0
  9
$MENU
  1
.
  9
$ELEVATION
 40
0.0
  9
$PELEVATION
 40
0.0
  9
$THICKNESS
 40
0.0
  9
$LIMCHECK
 70
     0
  9
$CHAMFERA
 40
10.0
  9
$CHAMFERB
 40
10.0
  9
$CHAMFERC
 40
20.0
  9
$CHAMFERD
 40
0.0
  9
$SKPOLY
 70
     0
  9
$TDCREATE
 40
2459320.569444444
  9
$TDUCREATE
 40
2459320.486111111
  9
$TDUPDATE
 40
2459320.572916667
  9
$TDUUPDATE
 40
2459320.489583333
  9
$TDINDWG
 40
0.0000000116
  9
$TDUSRTIMER
 40
0.0000000116
  9
$USRTIMER
 70
     1
  9
$ANGBASE
 50
0.0
  9
$ANGDIR
 70
     0
  9
$PDMODE
 70
     0
  9
$PDSIZE
 40
0.0
  9
$PLINEWID
 40
0.0
  9
$SPLFRAME
 70
     0
  9
$SPLINETYPE
 70
     6
  9
$SPLINESEGS
 70
     8
  9
$HANDSEED
  5
B66
  9
$SURFTAB1
 70
     6
  9
$SURFTAB2
 70
     6
  9
$SURFTYPE
 70
     6
  9
$SURFU
 70
     6
  9
$SURFV
 70
     6
  9
$UCSBASE
  2

  9
$UCSNAME
  2

  9
$UCSORG
 10
0.0
 20
0.0
 30
0.0
  9
$UCSXDIR
 10
1.0
 20
0.0
 30
0.0
  9
$UCSYDIR
 10
0.0
 20
1.0
 30
0.0
  9
$UCSORTHOREF
  2

  9
$UCSORTHOVIEW
 70
     0
  9
$UCSORGTOP
 10
0.0
 20
0.0
 30
0.0
  9
$UCSORGBOTTOM
 10
0.0
 20
0.0
 30
0.0
  9
$UCSORGLEFT
 10
0.0
 20
0.0
 30
0.0
  9
$UCSORGRIGHT
 10
0.0
 20
0.0
 30
0.0
  9
$UCSORGFRONT
 10
0.0
 20
0.0
 30
0.0
  9
$UCSORGBACK
 10
0.0
 20
0.0
 30
0.0
  9
$PUCSBASE
  2

  9
$PUCSNAME
  2

  9
$PUCSORG
 10
0.0
 20
0.0
 30
0.0
  9
$PUCSXDIR
 10
1.0
 20
0.0
 30
0.0
  9
$PUCSYDIR
 10
0.0
 20
1.0
 30
0.0
  9
$PUCSORTHOREF
  2

  9
$PUCSORTHOVIEW
 70
     0
  9
$PUCSORGTOP
 10
0.0
 20
0.0
 30
0.0
  9
$PUCSORGBOTTOM
 10
0.0
 20
0.0
 30
0.0
  9
$PUCSORGLEFT
 10
0.0
 20
0.0
 30
0.0
  9
$PUCSORGRIGHT
 10
0.0
 20
0.0
 30
0.0
  9
$PUCSORGFRONT
 10
0.0
 20
0.0
 30
0.0
  9
$PUCSORGBACK
 10
0.0
 20
0.0
 30
0.0
  9
$USERI1
 70
     0
  9
$USERI2
 70
     0
  9
$USERI3
 70
     0
  9
$USERI4
 70
     0
  9
$USERI5
 70
     0
  9
$USERR1
 40
0.0
  9
$USERR2
 40
0.0
  9
$USERR3
 40
0.0
  9
$USERR4
 40
0.0
  9
$USERR5
 40
0.0
  9
$WORLDVIEW
 70
     1
  9
$SHADEDGE
 70
     3
  9
$SHADEDIF
 70
    70
  9
$TILEMODE
 70
     1
  9
$MAXACTVP
 70
    64
  9
$PINSBASE
 10
0.0
 20
0.0
 30
0.0
  9
$PLIMCHECK
 70
     0
  9
$PEXTMIN
 10
1.000000000000000E+20
 20
1.000000000000000E+20
 30
1.000000000000000E+20
  9
$PEXTMAX
 10
-1.000000000000000E+20
 20
-1.000000000000000E+20
 30
-1.000000000000000E+20
  9
$PLIMMIN
 10
0.0
 20
0.0
  9
$PLIMMAX
 10
420.0
 20
297.0
  9
$UNITMODE
 70
     0
  9
$VISRETAIN
 70
     1
  9
$PLINEGEN
 70
     0
  9
$PSLTSCALE
 70
     1
  9
$TREEDEPTH
 70
  3020
  9
$CMLSTYLE
  2
Standard
  9
$CMLJUST
 70
     0
  9
$CMLSCALE
 40
20.0
  9
$PROXYGRAPHICS
 70
     1
  9
$MEASUREMENT
 70
     1
  9
$CELWEIGHT
370
    -1
  9
$ENDCAPS
280
     0
  9
$JOINSTYLE
280
     0
  9
$LWDISPLAY
290
     0
  9
$INSUNITS
 70
     4
  9
$HYPERLINKBASE
  1

  9
$STYLESHEET
  1

  9
$XEDIT
290
     1
  9
$CEPSNTYPE
380
     0
  9
$PSTYLEMODE
290
     1
  9
$FINGERPRINTGUID
  2
{93B1BD69-3A9D-4582-94EA-1D1EB58828FF}
  9
$VERSIONGUID
  2
{FAEB1C32-E019-11D5-929B-00C0DF256EC4}
  9
$EXTNAMES
290
     1
  9
$PSVPSCALE
 40
0.0
  9
$OLESTARTUP
290
     0
  0
ENDSEC
  0
SECTION
  2
CLASSES
  0
CLASS
  1
ACDBDICTIONARYWDFLT
  2
AcDbDictionaryWithDefault
  3
ObjectDBX Classes
 90
        0
280
     0
281
     0
  0
CLASS
  1
VISUALSTYLE
  2
AcDbVisualStyle
  3
ObjectDBX Classes
 90
     4095
280
     0
281
     0
  0
CLASS
  1
MATERIAL
  2
AcDbMaterial
  3
ObjectDBX Classes
 90
     1153
280
     0
281
     0
  0
CLASS
  1
SCALE
  2
AcDbScale
  3
ObjectDBX Classes
 90
     1153
280
     0
281
     0
  0
CLASS
  1
DICTIONARYVAR
  2
AcDbDictionaryVar
  3
ObjectDBX Classes
 90
        0
280
     0
281
     0
  0
CLASS
  1
ACDBPLACEHOLDER
  2
AcDbPlaceHolder
  3
ObjectDBX Classes
 90
        0
280
     0
281
     0
  0
CLASS
  1
LAYOUT
  2
AcDbLayout
  3
ObjectDBX Classes
 90
        0
280
     0
281
     0
  0
ENDSEC
  0
SECTION
  2
TABLES
  0
TABLE
  2
VPORT
  5
8
330
0
100
AcDbSymbolTable
 70
     1
  0
VPORT
  5
29
330
8
100
AcDbSymbolTableRecord
100
AcDbViewportTableRecord
  2
*Active
 70
     0
 10
0.0
 20
0.0
 11
1.0
 21
1.0
 12
11.26
 22
4.5
 13
0.0
 23
0.0
 14
10.0
 24
10.0
 15
10.0
 25
10.0
 16
0.0
 26
0.0
 36
1.0
 17
0.0
 27
0.0
 37
0.0
 40
9.0
 41
2.503333333333333
 42
50.0
 43
0.0
 44
0.0
 50
0.0
 51
0.0
 71
     0
 72
   100
 73
     1
 74
     3
 75
     0
 76
     0
 77
     0
 78
     0
281
     0
 65
     1
110
0.0
120
0.0
130
0.0
111
1.0
121
0.0
131
0.0
112
0.0
122
1.0
132
0.0
 79
     0
146
0.0
  0
ENDTAB
  0
TABLE
  2
LTYPE
  5
5
330
0
100
AcDbSymbolTable
 70
    11
  0
LTYPE
  5
14
330
5
100
AcDbSymbolTableRecord
100
AcDbLinetypeTableRecord
  2
ByBlock
 70
     0
  3

 72
    65
 73
     0
 40
0.0
  0
LTYPE
  5
15
330
5
100
AcDbSymbolTableRecord
100
AcDbLinetypeTableRecord
  2
ByLayer
 70
     0
  3

 72
    65
 73
     0
 40
0.0
  0
LTYPE
  5
16
330
5
100
AcDbSymbolTableRecord
100
AcDbLinetypeTableRecord
  2
Continuous
 70
     0
  3
Solid line
 72
    65
 73
     0
 40
0.0
  0
LTYPE
  5
45
330
5
100
AcDbSymbolTableRecord
100
AcDbLinetypeTableRecord
  2
phl_thick
 70
     0
  3
THICK
 72
    65
 73
     0
 40
0.0
  0
LTYPE
  5
348
330
5
100
AcDbSymbolTableRecord
100
AcDbLinetypeTableRecord
  2
ls_CUT
 70
     0
  3
THICK
 72
    65
 73
     0
 40
0.0
  0
LTYPE
  5
34E
330
5
100
AcDbSymbolTableRecord
100
AcDbLinetypeTableRecord
  2
ls1
 70
     0
  3
THICK
 72
    65
 73
     0
 40
0.0
  0
LTYPE
  5
355
330
5
100
AcDbSymbolTableRecord
100
AcDbLinetypeTableRecord
  2
NOCUT
 70
     0
  3
THICK
 72
    65
 73
     0
 40
0.0
  0
LTYPE
  5
359
330
5
100
AcDbSymbolTableRecord
100
AcDbLinetypeTableRecord
  2
SK1
 70
     0
  3
THICK
 72
    65
 73
     0
 40
0.0
  0
LTYPE
  5
361
330
5
100
AcDbSymbolTableRecord
100
AcDbLinetypeTableRecord
  2
ls_SK2
 70
     0
  3
THIN
 72
    65
 73
     0
 40
0.0
  0
LTYPE
  5
40D
330
5
100
AcDbSymbolTableRecord
100
AcDbLinetypeTableRecord
  2
ls_2
 70
     0
  3
THIN
 72
    65
 73
     0
 40
0.0
  0
LTYPE
  5
55C
330
5
100
AcDbSymbolTableRecord
100
AcDbLinetypeTableRecord
  2
LONGDASH_DASH
 70
     0
  3
THIN_DASHDOT
 72
    65
 73
     4
 40
0.85
 49
0.4
 74
     0
 49
-0.2
 74
     0
 49
0.05
 74
     0
 49
-0.2
 74
     0
  0
LTYPE
  5
59A
330
5
100
AcDbSymbolTableRecord
100
AcDbLinetypeTableRecord
  2
ls_SK1
 70
     0
  3
THICK
 72
    65
 73
     0
 40
0.0
  0
LTYPE
  5
5D4
330
5
100
AcDbSymbolTableRecord
100
AcDbLinetypeTableRecord
  2
INFTOTAL
 70
     0
  3
THIN
 72
    65
 73
     0
 40
0.0
  0
ENDTAB
  0
TABLE
  2
LAYER
  5
2
330
0
100
AcDbSymbolTable
 70
    10
  0
LAYER
  5
10
330
2
100
AcDbSymbolTableRecord
100
AcDbLayerTableRecord
  2
0
 70
     0
 62
     7
  6
Continuous
370
    -3
390
F
  0
LAYER
  5
44
330
2
100
AcDbSymbolTableRecord
100
AcDbLayerTableRecord
  2
1
 70
     0
 62
4
  6
CONTINUOUS
370
50
370
    -3
390
F
  0
LAYER
  5
347
330
2
100
AcDbSymbolTableRecord
100
AcDbLayerTableRecord
  2
CUT
 70
     0
 62
1
  6
CONTINUOUS
370
25
370
    -3
390
F
  0
LAYER
  5
34D
330
2
100
AcDbSymbolTableRecord
100
AcDbLayerTableRecord
  2
NOCUT
 70
     0
 62
7
  6
CONTINUOUS
370
25
370
    -3
390
F
  0
LAYER
  5
358
330
2
100
AcDbSymbolTableRecord
100
AcDbLayerTableRecord
  2
SK1
 70
     0
 62
4
  6
CONTINUOUS
370
50
370
    -3
390
F
  0
LAYER
  5
360
330
2
100
AcDbSymbolTableRecord
100
AcDbLayerTableRecord
  2
SK2
 70
     0
 62
7
  6
CONTINUOUS
370
25
370
    -3
390
F
  0
LAYER
  5
40C
330
2
100
AcDbSymbolTableRecord
100
AcDbLayerTableRecord
  2
2
 70
     0
 62
7
  6
CONTINUOUS
370
25
370
    -3
390
F
  0
LAYER
  5
55B
330
2
100
AcDbSymbolTableRecord
100
AcDbLayerTableRecord
  2
4
 70
     0
 62
2
  6
LONGDASH_DASH
370
25
370
    -3
390
F
  0
LAYER
  5
55E
330
2
100
AcDbSymbolTableRecord
100
AcDbLayerTableRecord
  2
SK4
 70
     0
 62
2
  6
LONGDASH_DASH
370
25
370
    -3
390
F
  0
LAYER
  5
5D3
330
2
100
AcDbSymbolTableRecord
100
AcDbLayerTableRecord
  2
INFTOTAL
 70
     0
 62
9
  6
CONTINUOUS
370
18
370
    -3
390
F
  0
ENDTAB
  0
TABLE
  2
STYLE
  5
3
330
0
100
AcDbSymbolTable
 70
     1
  0
STYLE
  5
11
330
3
100
AcDbSymbolTableRecord
100
AcDbTextStyleTableRecord
  2
Standard
 70
     0
 40
0.0
 41
1.0
 50
0.0
 71
     0
 42
2.5
  3
Monospac821 BT
  4

  0
ENDTAB
  0
TABLE
  2
VIEW
  5
6
330
0
100
AcDbSymbolTable
 70
     0
  0
ENDTAB
  0
TABLE
  2
UCS
  5
7
330
0
100
AcDbSymbolTable
 70
     0
  0
ENDTAB
  0
TABLE
  2
APPID
  5
9
330
0
100
AcDbSymbolTable
 70
     2
  0
APPID
  5
12
330
9
100
AcDbSymbolTableRecord
100
AcDbRegAppTableRecord
  2
ACAD
 70
     0
  0
APPID
  5
3F
330
9
100
AcDbSymbolTableRecord
100
AcDbRegAppTableRecord
  2
ccLab
 70
     0
  0
ENDTAB
  0
TABLE
  2
DIMSTYLE
  5
A
330
0
100
AcDbSymbolTable
 70
     1
100
AcDbDimStyleTable
  0
DIMSTYLE
105
27
330
A
100
AcDbSymbolTableRecord
100
AcDbDimStyleTableRecord
  2
ISO-25
 70
     0
 41
2.5
 42
0.625
 43
3.75
 44
1.25
 73
     0
 74
     0
 77
     1
 78
     8
140
2.5
141
2.5
143
0.03937007874016
147
0.625
171
     3
172
     1
271
     2
272
     2
274
     3
278
    44
283
     0
284
     8
340
11
  0
ENDTAB
  0
TABLE
  2
BLOCK_RECORD
  5
1
330
0
100
AcDbSymbolTable
 70
     2
  0
BLOCK_RECORD
  5
1F
330
1
100
AcDbSymbolTableRecord
100
AcDbBlockTableRecord
  2
*Model_Space
340
22
  0
BLOCK_RECORD
  5
1B
330
1
100
AcDbSymbolTableRecord
100
AcDbBlockTableRecord
  2
*Paper_Space
340
1E
  0
BLOCK_RECORD
  5
23
330
1
100
AcDbSymbolTableRecord
100
AcDbBlockTableRecord
  2
*Paper_Space0
340
26
  0
ENDTAB
  0
ENDSEC
  0
SECTION
  2
BLOCKS
  0
BLOCK
  5
20
330
1F
100
AcDbEntity
  8
0
100
AcDbBlockBegin
  2
*Model_Space
 70
     0
 10
0.0
 20
0.0
 30
0.0
  3
*Model_Space
  1

  0
ENDBLK
  5
21
330
1F
100
AcDbEntity
  8
0
100
AcDbBlockEnd
  0
BLOCK
  5
1C
330
1B
100
AcDbEntity
 67
     1
  8
0
100
AcDbBlockBegin
  2
*Paper_Space
 70
     0
 10
0.0
 20
0.0
 30
0.0
  3
*Paper_Space
  1

  0
ENDBLK
  5
1D
330
1B
100
AcDbEntity
 67
     1
  8
0
100
AcDbBlockEnd
  0
BLOCK
  5
24
330
23
100
AcDbEntity
  8
0
100
AcDbBlockBegin
  2
*Paper_Space0
 70
     0
 10
0.0
 20
0.0
 30
0.0
  3
*Paper_Space0
  1

  0
ENDBLK
  5
25
330
23
100
AcDbEntity
  8
0
100
AcDbBlockEnd
  0
ENDSEC
  0
SECTION
  2
ENTITIES
  0
LINE
  5
5D8
330
1F
100
AcDbEntity
  8
1
  6
CONTINUOUS
370
50
 62
4
100
AcDbLine
 10
59.965252
 20
-0.511693
 30
0.0
 11
59.965187
 21
-0.453084
 31
0.0
  0
LINE
  5
5D9
330
1F
100
AcDbEntity
  8
1
  6
CONTINUOUS
370
50
 62
4
100
AcDbLine
 10
59.965412
 20
-0.56896
 30
0.0
 11
59.965252
 21
-0.511693
 31
0.0
  0
LINE
  5
5DA
330
1F
100
AcDbEntity
  8
1
  6
CONTINUOUS
370
50
 62
4
100
AcDbLine
 10
59.96566799999999
 20
-0.6243259999999999
 30
0.0
 11
59.965412
 21
-0.56896
 31
0.0
  0
LINE
  5
5DB
330
1F
100
AcDbEntity
  8
1
  6
CONTINUOUS
370
50
 62
4
100
AcDbLine
 10
59.966022
 20
-0.6772309999999999
 30
0.0
 11
59.96566799999999
 21
-0.6243259999999999
 31
0.0
  0
LINE
  5
5DC
330
1F
100
AcDbEntity
  8
1
  6
CONTINUOUS
370
50
 62
4
100
AcDbLine
 10
59.966473
 20
-0.7271139999999999
 30
0.0
 11
59.966022
 21
-0.6772309999999999
 31
0.0
  0
LINE
  5
5DD
330
1F
100
AcDbEntity
  8
1
  6
CONTINUOUS
370
50
 62
4
100
AcDbLine
 10
2.361173
 20
0.743325
 30
0.0
 11
2.360946
 21
0.766616
 31
0.0
  0
LINE
  5
5DE
330
1F
100
AcDbEntity
  8
1
  6
CONTINUOUS
370
50
 62
4
100
AcDbLine
 10
59.967022
 20
-0.7734219999999999
 30
0.0
 11
59.966473
 21
-0.7271139999999999
 31
0.0
  0
LINE
  5
5DF
330
1F
100
AcDbEntity
  8
1
  6
CONTINUOUS
370
50
 62
4
100
AcDbLine
 10
59.967667
 20
-0.8157679999999999
 30
0.0
 11
59.967022
 21
-0.7734219999999999
 31
0.0
  0
LINE
  5
5E0
330
1F
100
AcDbEntity
  8
1
  6
CONTINUOUS
370
50
 62
4
100
AcDbLine
 10
59.968391
 20
-0.853972
 30
0.0
 11
59.967667
 21
-0.8157679999999999
 31
0.0
  0
LINE
  5
5E1
330
1F
100
AcDbEntity
  8
1
  6
CONTINUOUS
370
50
 62
4
100
AcDbLine
 10
59.969196
 20
-0.887864
 30
0.0
 11
59.968391
 21
-0.853972
 31
0.0
  0
LINE
  5
5E2
330
1F
100
AcDbEntity
  8
1
  6
CONTINUOUS
370
50
 62
4
100
AcDbLine
 10
59.970062
 20
-0.9172739999999999
 30
0.0
 11
59.969196
 21
-0.887864
 31
0.0
  0
LINE
  5
5E3
330
1F
100
AcDbEntity
  8
1
  6
CONTINUOUS
370
50
 62
4
100
AcDbLine
 10
59.970989
 20
-0.942035
 30
0.0
 11
59.970062
 21
-0.9172739999999999
 31
0.0
  0
LINE
  5
5E4
330
1F
100
AcDbEntity
  8
1
  6
CONTINUOUS
370
50
 62
4
100
AcDbLine
 10
59.985786
 20
0.894921
 30
0.0
 11
59.984871
 21
0.913966
 31
0.0
  0
LINE
  5
5E5
330
1F
100
AcDbEntity
  8
1
  6
CONTINUOUS
370
50
 62
4
100
AcDbLine
 10
59.971973
 20
-0.962201
 30
0.0
 11
59.970989
 21
-0.942035
 31
0.0
  0
LINE
  5
5E6
330
1F
100
AcDbEntity
  8
1
  6
CONTINUOUS
370
50
 62
4
100
AcDbLine
 10
60.028671
 20
0.69029
 30
0.0
 11
60.027725
 21
0.7082569999999999
 31
0.0
  0
LINE
  5
5E7
330
1F
100
AcDbEntity
  8
1
  6
CONTINUOUS
370
50
 62
4
100
AcDbLine
 10
59.984871
 20
0.913966
 30
0.0
 11
59.98394399999999
 21
0.931352
 31
0.0
  0
LINE
  5
5E8
330
1F
100
AcDbEntity
  8
1
  6
CONTINUOUS
370
50
 62
4
100
AcDbLine
 10
59.98394399999999
 20
0.931352
 30
0.0
 11
59.983009
 21
0.94699
 31
0.0
  0
LINE
  5
5E9
330
1F
100
AcDbEntity
  8
1
  6
CONTINUOUS
370
50
 62
4
100
AcDbLine
 10
59.973038
 20
-0.978262
 30
0.0
 11
59.971973
 21
-0.962201
 31
0.0
  0
LINE
  5
5EA
330
1F
100
AcDbEntity
  8
1
  6
CONTINUOUS
370
50
 62
4
100
AcDbLine
 10
59.983009
 20
0.94699
 30
0.0
 11
59.982071
 21
0.960787
 31
0.0
  0
LINE
  5
5EB
330
1F
100
AcDbEntity
  8
1
  6
CONTINUOUS
370
50
 62
4
100
AcDbLine
 10
59.982071
 20
0.960787
 30
0.0
 11
59.981136
 21
0.972652
 31
0.0
  0
LINE
  5
5EC
330
1F
100
AcDbEntity
  8
1
  6
CONTINUOUS
370
50
 62
4
100
AcDbLine
 10
59.981136
 20
0.972652
 30
0.0
 11
59.980206
 21
0.982493
 31
0.0
  0
LINE
  5
5ED
330
1F
100
AcDbEntity
  8
1
  6
CONTINUOUS
370
50
 62
4
100
AcDbLine
 10
59.974174
 20
-0.990046
 30
0.0
 11
59.973038
 21
-0.978262
 31
0.0
  0
LINE
  5
5EE
330
1F
100
AcDbEntity
  8
1
  6
CONTINUOUS
370
50
 62
4
100
AcDbLine
 10
59.980206
 20
0.982493
 30
0.0
 11
59.979282
 21
0.99022
 31
0.0
  0
LINE
  5
5EF
330
1F
100
AcDbEntity
  8
1
  6
CONTINUOUS
370
50
 62
4
100
AcDbLine
 10
60.34107599999999
 20
-0.035569
 30
0.0
 11
60.339989
 21
-0.027826
 31
0.0
  0
LINE
  5
5F0
330
1F
100
AcDbEntity
  8
1
  6
CONTINUOUS
370
50
 62
4
100
AcDbLine
 10
59.979282
 20
0.99022
 30
0.0
 11
59.978371
 21
0.99574
 31
0.0
  0
LINE
  5
5F1
330
1F
100
AcDbEntity
  8
1
  6
CONTINUOUS
370
50
 62
4
100
AcDbLine
 10
59.97537999999999
 20
-0.9973339999999999
 30
0.0
 11
59.974174
 21
-0.990046
 31
0.0
  0
LINE
  5
5F2
330
1F
100
AcDbEntity
  8
1
  6
CONTINUOUS
370
50
 62
4
100
AcDbLine
 10
60.339989
 20
-0.027826
 30
0.0
 11
60.338646
 21
-0.019833
 31
0.0
  0
LINE
  5
5F3
330
1F
100
AcDbEntity
  8
1
  6
CONTINUOUS
370
50
 62
4
100
AcDbLine
 10
60.338646
 20
-0.019833
 30
0.0
 11
60.33702899999999
 21
-0.011531
 31
0.0
  0
LINE
  5
5F4
330
1F
100
AcDbEntity
  8
1
  6
CONTINUOUS
370
50
 62
4
100
AcDbLine
 10
60.33702899999999
 20
-0.011531
 30
0.0
 11
60.335114
 21
-0.002854
 31
0.0
  0
LINE
  5
5F5
330
1F
100
AcDbEntity
  8
1
  6
CONTINUOUS
370
50
 62
4
100
AcDbLine
 10
2.36661
 20
0.7191649999999999
 30
0.0
 11
2.361173
 21
0.743325
 31
0.0
  0
LINE
  5
5F6
330
1F
100
AcDbEntity
  8
1
  6
CONTINUOUS
370
50
 62
4
100
AcDbLine
 10
60.335114
 20
-0.002854
 30
0.0
 11
60.33287799999999
 21
0.006274
 31
0.0
  0
LINE
  5
5F7
330
1F
100
AcDbEntity
  8
1
  6
CONTINUOUS
370
50
 62
4
100
AcDbLine
 10
60.33287799999999
 20
0.006274
 30
0.0
 11
60.330284
 21
0.015937
 31
0.0
  0
LINE
  5
5F8
330
1F
100
AcDbEntity
  8
1
  6
CONTINUOUS
370
50
 62
4
100
AcDbLine
 10
59.978371
 20
0.99574
 30
0.0
 11
59.977478
 21
0.998968
 31
0.0
  0
LINE
  5
5F9
330
1F
100
AcDbEntity
  8
1
  6
CONTINUOUS
370
50
 62
4
100
AcDbLine
 10
60.330284
 20
0.015937
 30
0.0
 11
60.32729
 21
0.026238
 31
0.0
  0
LINE
  5
5FA
330
1F
100
AcDbEntity
  8
1
  6
CONTINUOUS
370
50
 62
4
100
AcDbLine
 10
60.33007
 20
0.026232
 30
0.0
 11
60.321362
 21
0.053221
 31
0.0
  0
LINE
  5
5FB
330
1F
100
AcDbEntity
  8
1
  6
CONTINUOUS
370
50
 62
4
100
AcDbLine
 10
60.321362
 20
0.053221
 30
0.0
 11
60.30932199999999
 21
0.086367
 31
0.0
  0
LINE
  5
5FC
330
1F
100
AcDbEntity
  8
1
  6
CONTINUOUS
370
50
 62
4
100
AcDbLine
 10
60.30932199999999
 20
0.086367
 30
0.0
 11
60.292389
 21
0.129065
 31
0.0
  0
LINE
  5
5FD
330
1F
100
AcDbEntity
  8
1
  6
CONTINUOUS
370
50
 62
4
100
AcDbLine
 10
2.376437
 20
0.6945009999999999
 30
0.0
 11
2.36661
 21
0.7191649999999999
 31
0.0
  0
LINE
  5
5FE
330
1F
100
AcDbEntity
  8
1
  6
CONTINUOUS
370
50
 62
4
100
AcDbLine
 10
60.027725
 20
0.7082569999999999
 30
0.0
 11
60.02195399999999
 21
0.722
 31
0.0
  0
LINE
  5
5FF
330
1F
100
AcDbEntity
  8
1
  6
CONTINUOUS
370
50
 62
4
100
AcDbLine
 10
60.292389
 20
0.129065
 30
0.0
 11
60.267708
 21
0.187425
 31
0.0
  0
LINE
  5
600
330
1F
100
AcDbEntity
  8
1
  6
CONTINUOUS
370
50
 62
4
100
AcDbLine
 10
60.400002
 20
0.0
 30
0.0
 11
59.977463
 21
0.999014
 31
0.0
  0
LINE
  5
601
330
1F
100
AcDbEntity
  8
1
  6
CONTINUOUS
370
50
 62
4
100
AcDbLine
 10
60.02195399999999
 20
0.722
 30
0.0
 11
60.01604099999999
 21
0.7356769999999999
 31
0.0
  0
LINE
  5
602
330
1F
100
AcDbEntity
  8
1
  6
CONTINUOUS
370
50
 62
4
100
AcDbLine
 10
60.01604099999999
 20
0.7356769999999999
 30
0.0
 11
60.010078
 21
0.749316
 31
0.0
  0
LINE
  5
603
330
1F
100
AcDbEntity
  8
1
  6
CONTINUOUS
370
50
 62
4
100
AcDbLine
 10
60.010078
 20
0.749316
 30
0.0
 11
60.00407
 21
0.7629079999999999
 31
0.0
  0
LINE
  5
604
330
1F
100
AcDbEntity
  8
1
  6
CONTINUOUS
370
50
 62
4
100
AcDbLine
 10
60.267708
 20
0.187425
 30
0.0
 11
60.22945799999999
 21
0.273755
 31
0.0
  0
LINE
  5
605
330
1F
100
AcDbEntity
  8
1
  6
CONTINUOUS
370
50
 62
4
100
AcDbLine
 10
60.00407
 20
0.7629079999999999
 30
0.0
 11
59.99802399999999
 21
0.776449
 31
0.0
  0
LINE
  5
606
330
1F
100
AcDbEntity
  8
1
  6
CONTINUOUS
370
50
 62
4
100
AcDbLine
 10
59.99802399999999
 20
0.776449
 30
0.0
 11
59.991943
 21
0.7899299999999999
 31
0.0
  0
LINE
  5
607
330
1F
100
AcDbEntity
  8
1
  6
CONTINUOUS
370
50
 62
4
100
AcDbLine
 10
60.22945799999999
 20
0.273755
 30
0.0
 11
60.163788
 21
0.417242
 31
0.0
  0
LINE
  5
608
330
1F
100
AcDbEntity
  8
1
  6
CONTINUOUS
370
50
 62
4
100
AcDbLine
 10
59.991943
 20
0.7899299999999999
 30
0.0
 11
59.985786
 21
0.803329
 31
0.0
  0
LINE
  5
609
330
1F
100
AcDbEntity
  8
1
  6
CONTINUOUS
370
50
 62
4
100
AcDbLine
 10
60.400002
 20
0.0
 30
0.0
 11
59.985786
 21
0.894922
 31
0.0
  0
LINE
  5
60A
330
1F
100
AcDbEntity
  8
1
  6
CONTINUOUS
370
50
 62
4
100
AcDbLine
 10
60.163788
 20
0.417242
 30
0.0
 11
60.027725
 21
0.7082569999999999
 31
0.0
  0
LINE
  5
60B
330
1F
100
AcDbEntity
  8
1
  6
CONTINUOUS
370
50
 62
4
100
AcDbLine
 10
59.977478
 20
0.998968
 30
0.0
 11
59.977337
 21
0.999269
 31
0.0
  0
LINE
  5
60C
330
1F
100
AcDbEntity
  8
1
  6
CONTINUOUS
370
50
 62
4
100
AcDbLine
 10
59.976639
 20
-1.0
 30
0.0
 11
59.97537999999999
 21
-0.9973339999999999
 31
0.0
  0
LINE
  5
60D
330
1F
100
AcDbEntity
  8
1
  6
CONTINUOUS
370
50
 62
4
100
AcDbLine
 10
2.389833
 20
0.669673
 30
0.0
 11
2.376437
 21
0.6945009999999999
 31
0.0
  0
LINE
  5
60E
330
1F
100
AcDbEntity
  8
1
  6
CONTINUOUS
370
50
 62
4
100
AcDbLine
 10
59.977337
 20
0.999269
 30
0.0
 11
59.977196
 21
0.9995109999999999
 31
0.0
  0
LINE
  5
60F
330
1F
100
AcDbEntity
  8
1
  6
CONTINUOUS
370
50
 62
4
100
AcDbLine
 10
2.405994
 20
0.644976
 30
0.0
 11
2.389833
 21
0.669673
 31
0.0
  0
LINE
  5
610
330
1F
100
AcDbEntity
  8
1
  6
CONTINUOUS
370
50
 62
4
100
AcDbLine
 10
60.095367
 20
-0.183895
 30
0.0
 11
60.046135
 21
-0.114402
 31
0.0
  0
LINE
  5
611
330
1F
100
AcDbEntity
  8
1
  6
CONTINUOUS
370
50
 62
4
100
AcDbLine
 10
2.424157
 20
0.620655
 30
0.0
 11
2.405994
 21
0.644976
 31
0.0
  0
LINE
  5
612
330
1F
100
AcDbEntity
  8
1
  6
CONTINUOUS
370
50
 62
4
100
AcDbLine
 10
59.977196
 20
0.9995109999999999
 30
0.0
 11
59.977055
 21
0.9996959999999999
 31
0.0
  0
LINE
  5
613
330
1F
100
AcDbEntity
  8
1
  6
CONTINUOUS
370
50
 62
4
100
AcDbLine
 10
60.046135
 20
-0.114402
 30
0.0
 11
59.981087
 21
-0.031142
 31
0.0
  0
LINE
  5
614
330
1F
100
AcDbEntity
  8
1
  6
CONTINUOUS
370
50
 62
4
100
AcDbLine
 10
2.444539
 20
0.5958829999999999
 30
0.0
 11
2.424157
 21
0.620655
 31
0.0
  0
LINE
  5
615
330
1F
100
AcDbEntity
  8
1
  6
CONTINUOUS
370
50
 62
4
100
AcDbLine
 10
59.981087
 20
-0.031142
 30
0.0
 11
59.908375
 21
0.057075
 31
0.0
  0
LINE
  5
616
330
1F
100
AcDbEntity
  8
1
  6
CONTINUOUS
370
50
 62
4
100
AcDbLine
 10
59.908375
 20
0.057075
 30
0.0
 11
59.83736
 21
0.140631
 31
0.0
  0
LINE
  5
617
330
1F
100
AcDbEntity
  8
1
  6
CONTINUOUS
370
50
 62
4
100
AcDbLine
 10
59.83736
 20
0.140631
 30
0.0
 11
59.763096
 21
0.226327
 31
0.0
  0
LINE
  5
618
330
1F
100
AcDbEntity
  8
1
  6
CONTINUOUS
370
50
 62
4
100
AcDbLine
 10
59.763096
 20
0.226327
 30
0.0
 11
59.680859
 21
0.319844
 31
0.0
  0
LINE
  5
619
330
1F
100
AcDbEntity
  8
1
  6
CONTINUOUS
370
50
 62
4
100
AcDbLine
 10
2.467274
 20
0.570269
 30
0.0
 11
2.444539
 21
0.5958829999999999
 31
0.0
  0
LINE
  5
61A
330
1F
100
AcDbEntity
  8
1
  6
CONTINUOUS
370
50
 62
4
100
AcDbLine
 10
59.680859
 20
0.319844
 30
0.0
 11
59.592094
 21
0.41927
 31
0.0
  0
LINE
  5
61B
330
1F
100
AcDbEntity
  8
1
  6
CONTINUOUS
370
50
 62
4
100
AcDbLine
 10
2.492214
 20
0.543817
 30
0.0
 11
2.467274
 21
0.570269
 31
0.0
  0
LINE
  5
61C
330
1F
100
AcDbEntity
  8
1
  6
CONTINUOUS
370
50
 62
4
100
AcDbLine
 10
2.519208
 20
0.5165299999999999
 30
0.0
 11
2.492214
 21
0.543817
 31
0.0
  0
LINE
  5
61D
330
1F
100
AcDbEntity
  8
1
  6
CONTINUOUS
370
50
 62
4
100
AcDbLine
 10
2.548108
 20
0.48841
 30
0.0
 11
2.519208
 21
0.5165299999999999
 31
0.0
  0
LINE
  5
61E
330
1F
100
AcDbEntity
  8
1
  6
CONTINUOUS
370
50
 62
4
100
AcDbLine
 10
2.578765
 20
0.459462
 30
0.0
 11
2.548108
 21
0.48841
 31
0.0
  0
LINE
  5
61F
330
1F
100
AcDbEntity
  8
1
  6
CONTINUOUS
370
50
 62
4
100
AcDbLine
 10
2.610919
 20
0.429785
 30
0.0
 11
2.578765
 21
0.459462
 31
0.0
  0
LINE
  5
620
330
1F
100
AcDbEntity
  8
1
  6
CONTINUOUS
370
50
 62
4
100
AcDbLine
 10
3.218113
 20
-0.11768
 30
0.0
 11
3.154257
 21
-0.058894
 31
0.0
  0
LINE
  5
621
330
1F
100
AcDbEntity
  8
1
  6
CONTINUOUS
370
50
 62
4
100
AcDbLine
 10
3.154257
 20
-0.058894
 30
0.0
 11
3.090281
 21
0.0
 31
0.0
  0
LINE
  5
622
330
1F
100
AcDbEntity
  8
1
  6
CONTINUOUS
370
50
 62
4
100
AcDbLine
 10
59.977055
 20
0.9996959999999999
 30
0.0
 11
59.976917
 21
0.9998229999999999
 31
0.0
  0
LINE
  5
623
330
1F
100
AcDbEntity
  8
1
  6
CONTINUOUS
370
50
 62
4
100
AcDbLine
 10
3.090281
 20
0.0
 30
0.0
 11
3.055925
 21
0.031491
 31
0.0
  0
LINE
  5
624
330
1F
100
AcDbEntity
  8
1
  6
CONTINUOUS
370
50
 62
4
100
AcDbLine
 10
3.280467
 20
-0.174683
 30
0.0
 11
3.218113
 21
-0.11768
 31
0.0
  0
LINE
  5
625
330
1F
100
AcDbEntity
  8
1
  6
CONTINUOUS
370
50
 62
4
100
AcDbLine
 10
3.055925
 20
0.031491
 30
0.0
 11
3.021474
 21
0.062937
 31
0.0
  0
LINE
  5
626
330
1F
100
AcDbEntity
  8
1
  6
CONTINUOUS
370
50
 62
4
100
AcDbLine
 10
3.021474
 20
0.062937
 30
0.0
 11
2.986953
 21
0.09428
 31
0.0
  0
LINE
  5
627
330
1F
100
AcDbEntity
  8
1
  6
CONTINUOUS
370
50
 62
4
100
AcDbLine
 10
2.643902
 20
0.39985
 30
0.0
 11
2.610919
 21
0.429785
 31
0.0
  0
LINE
  5
628
330
1F
100
AcDbEntity
  8
1
  6
CONTINUOUS
370
50
 62
4
100
AcDbLine
 10
2.986953
 20
0.09428
 30
0.0
 11
2.952394
 21
0.12549
 31
0.0
  0
LINE
  5
629
330
1F
100
AcDbEntity
  8
1
  6
CONTINUOUS
370
50
 62
4
100
AcDbLine
 10
3.341118
 20
-0.229203
 30
0.0
 11
3.280467
 21
-0.174683
 31
0.0
  0
LINE
  5
62A
330
1F
100
AcDbEntity
  8
1
  6
CONTINUOUS
370
50
 62
4
100
AcDbLine
 10
2.952394
 20
0.12549
 30
0.0
 11
2.917825
 21
0.156542
 31
0.0
  0
LINE
  5
62B
330
1F
100
AcDbEntity
  8
1
  6
CONTINUOUS
370
50
 62
4
100
AcDbLine
 10
2.677464
 20
0.369766
 30
0.0
 11
2.643902
 21
0.39985
 31
0.0
  0
LINE
  5
62C
330
1F
100
AcDbEntity
  8
1
  6
CONTINUOUS
370
50
 62
4
100
AcDbLine
 10
2.917825
 20
0.156542
 30
0.0
 11
2.883259
 21
0.187423
 31
0.0
  0
LINE
  5
62D
330
1F
100
AcDbEntity
  8
1
  6
CONTINUOUS
370
50
 62
4
100
AcDbLine
 10
2.883259
 20
0.187423
 30
0.0
 11
2.848682
 21
0.218164
 31
0.0
  0
LINE
  5
62E
330
1F
100
AcDbEntity
  8
1
  6
CONTINUOUS
370
50
 62
4
100
AcDbLine
 10
2.711412
 20
0.339592
 30
0.0
 11
2.677464
 21
0.369766
 31
0.0
  0
LINE
  5
62F
330
1F
100
AcDbEntity
  8
1
  6
CONTINUOUS
370
50
 62
4
100
AcDbLine
 10
2.848682
 20
0.218164
 30
0.0
 11
2.814159
 21
0.248752
 31
0.0
  0
LINE
  5
630
330
1F
100
AcDbEntity
  8
1
  6
CONTINUOUS
370
50
 62
4
100
AcDbLine
 10
2.745555
 20
0.309388
 30
0.0
 11
2.711412
 21
0.339592
 31
0.0
  0
LINE
  5
631
330
1F
100
AcDbEntity
  8
1
  6
CONTINUOUS
370
50
 62
4
100
AcDbLine
 10
2.814159
 20
0.248752
 30
0.0
 11
2.779765
 21
0.279162
 31
0.0
  0
LINE
  5
632
330
1F
100
AcDbEntity
  8
1
  6
CONTINUOUS
370
50
 62
4
100
AcDbLine
 10
2.779765
 20
0.279162
 30
0.0
 11
2.745555
 21
0.309388
 31
0.0
  0
LINE
  5
633
330
1F
100
AcDbEntity
  8
1
  6
CONTINUOUS
370
50
 62
4
100
AcDbLine
 10
3.400532
 20
-0.281151
 30
0.0
 11
3.341118
 21
-0.229203
 31
0.0
  0
LINE
  5
634
330
1F
100
AcDbEntity
  8
1
  6
CONTINUOUS
370
50
 62
4
100
AcDbLine
 10
3.459175
 20
-0.330438
 30
0.0
 11
3.400532
 21
-0.281151
 31
0.0
  0
LINE
  5
635
330
1F
100
AcDbEntity
  8
1
  6
CONTINUOUS
370
50
 62
4
100
AcDbLine
 10
3.517514
 20
-0.376976
 30
0.0
 11
3.459175
 21
-0.330438
 31
0.0
  0
LINE
  5
636
330
1F
100
AcDbEntity
  8
1
  6
CONTINUOUS
370
50
 62
4
100
AcDbLine
 10
10.4
 20
-0.8873289999999999
 30
0.0
 11
10.399712
 21
-0.887111
 31
0.0
  0
LINE
  5
637
330
1F
100
AcDbEntity
  8
1
  6
CONTINUOUS
370
50
 62
4
100
AcDbLine
 10
10.399567
 20
-0.887002
 30
0.0
 11
10.399279
 21
-0.8867839999999999
 31
0.0
  0
LINE
  5
638
330
1F
100
AcDbEntity
  8
1
  6
CONTINUOUS
370
50
 62
4
100
AcDbLine
 10
10.399712
 20
-0.887111
 30
0.0
 11
10.399567
 21
-0.887002
 31
0.0
  0
LINE
  5
639
330
1F
100
AcDbEntity
  8
1
  6
CONTINUOUS
370
50
 62
4
100
AcDbLine
 10
10.399279
 20
-0.8867839999999999
 30
0.0
 11
10.399134
 21
-0.886675
 31
0.0
  0
LINE
  5
63A
330
1F
100
AcDbEntity
  8
1
  6
CONTINUOUS
370
50
 62
4
100
AcDbLine
 10
60.34107599999999
 20
-0.035569
 30
0.0
 11
59.592094
 21
0.41927
 31
0.0
  0
LINE
  5
63B
330
1F
100
AcDbEntity
  8
1
  6
CONTINUOUS
370
50
 62
4
100
AcDbLine
 10
10.4
 20
-1.0005
 30
0.0
 11
10.399134
 21
-1.0
 31
0.0
  0
LINE
  5
63C
330
1F
100
AcDbEntity
  8
1
  6
CONTINUOUS
370
50
 62
4
100
AcDbLine
 10
8.466382
 20
-0.019215
 30
0.0
 11
8.449183999999999
 21
-0.009606
 31
0.0
  0
LINE
  5
63D
330
1F
100
AcDbEntity
  8
1
  6
CONTINUOUS
370
50
 62
4
100
AcDbLine
 10
8.483566
 20
-0.028816
 30
0.0
 11
8.466382
 21
-0.019215
 31
0.0
  0
LINE
  5
63E
330
1F
100
AcDbEntity
  8
1
  6
CONTINUOUS
370
50
 62
4
100
AcDbLine
 10
8.449183999999999
 20
-0.009606
 30
0.0
 11
8.431991
 21
0.0
 31
0.0
  0
LINE
  5
63F
330
1F
100
AcDbEntity
  8
1
  6
CONTINUOUS
370
50
 62
4
100
AcDbLine
 10
8.500738
 20
-0.038408
 30
0.0
 11
8.483566
 21
-0.028816
 31
0.0
  0
LINE
  5
640
330
1F
100
AcDbEntity
  8
1
  6
CONTINUOUS
370
50
 62
4
100
AcDbLine
 10
8.517897999999999
 20
-0.047989
 30
0.0
 11
8.500738
 21
-0.038408
 31
0.0
  0
LINE
  5
641
330
1F
100
AcDbEntity
  8
1
  6
CONTINUOUS
370
50
 62
4
100
AcDbLine
 10
14.211148
 20
-0.060675
 30
0.0
 11
13.940466
 21
0.090436
 31
0.0
  0
LINE
  5
642
330
1F
100
AcDbEntity
  8
1
  6
CONTINUOUS
370
50
 62
4
100
AcDbLine
 10
48.243908
 20
-0.059669
 30
0.0
 11
47.973389
 21
0.091286
 31
0.0
  0
LINE
  5
643
330
1F
100
AcDbEntity
  8
1
  6
CONTINUOUS
370
50
 62
4
100
AcDbLine
 10
8.535048
 20
-0.057559
 30
0.0
 11
8.517897999999999
 21
-0.047989
 31
0.0
  0
LINE
  5
644
330
1F
100
AcDbEntity
  8
1
  6
CONTINUOUS
370
50
 62
4
100
AcDbLine
 10
4.90903
 20
0.019015
 30
0.0
 11
4.891915
 21
0.028557
 31
0.0
  0
LINE
  5
645
330
1F
100
AcDbEntity
  8
1
  6
CONTINUOUS
370
50
 62
4
100
AcDbLine
 10
4.926153999999999
 20
0.009468
 30
0.0
 11
4.90903
 21
0.019015
 31
0.0
  0
LINE
  5
646
330
1F
100
AcDbEntity
  8
1
  6
CONTINUOUS
370
50
 62
4
100
AcDbLine
 10
4.891915
 20
0.028557
 30
0.0
 11
4.874806
 21
0.038094
 31
0.0
  0
LINE
  5
647
330
1F
100
AcDbEntity
  8
1
  6
CONTINUOUS
370
50
 62
4
100
AcDbLine
 10
10.506394
 20
0.060846
 30
0.0
 11
10.488674
 21
0.070722
 31
0.0
  0
LINE
  5
648
330
1F
100
AcDbEntity
  8
1
  6
CONTINUOUS
370
50
 62
4
100
AcDbLine
 10
10.488674
 20
0.070722
 30
0.0
 11
10.470951
 21
0.080596
 31
0.0
  0
LINE
  5
649
330
1F
100
AcDbEntity
  8
1
  6
CONTINUOUS
370
50
 62
4
100
AcDbLine
 10
33.47002
 20
-0.090614
 30
0.0
 11
33.200027
 21
0.059806
 31
0.0
  0
LINE
  5
64A
330
1F
100
AcDbEntity
  8
1
  6
CONTINUOUS
370
50
 62
4
100
AcDbLine
 10
4.874806
 20
0.038094
 30
0.0
 11
4.857701
 21
0.047623
 31
0.0
  0
LINE
  5
64B
330
1F
100
AcDbEntity
  8
1
  6
CONTINUOUS
370
50
 62
4
100
AcDbLine
 10
4.857701
 20
0.047623
 30
0.0
 11
4.840599999999999
 21
0.057146
 31
0.0
  0
LINE
  5
64C
330
1F
100
AcDbEntity
  8
1
  6
CONTINUOUS
370
50
 62
4
100
AcDbLine
 10
10.470951
 20
0.080596
 30
0.0
 11
10.453224
 21
0.090467
 31
0.0
  0
LINE
  5
64D
330
1F
100
AcDbEntity
  8
1
  6
CONTINUOUS
370
50
 62
4
100
AcDbLine
 10
39.197559
 20
-0.121596
 30
0.0
 11
38.871502
 21
0.059897
 31
0.0
  0
LINE
  5
64E
330
1F
100
AcDbEntity
  8
1
  6
CONTINUOUS
370
50
 62
4
100
AcDbLine
 10
10.453224
 20
0.090467
 30
0.0
 11
10.435492
 21
0.100334
 31
0.0
  0
LINE
  5
64F
330
1F
100
AcDbEntity
  8
1
  6
CONTINUOUS
370
50
 62
4
100
AcDbLine
 10
10.671164
 20
-0.030828
 30
0.0
 11
10.506394
 21
0.060846
 31
0.0
  0
LINE
  5
650
330
1F
100
AcDbEntity
  8
1
  6
CONTINUOUS
370
50
 62
4
100
AcDbLine
 10
42.572952
 20
-0.059781
 30
0.0
 11
42.301472
 21
0.09125
 31
0.0
  0
LINE
  5
651
330
1F
100
AcDbEntity
  8
1
  6
CONTINUOUS
370
50
 62
4
100
AcDbLine
 10
53.915298
 20
-0.059325
 30
0.0
 11
53.590778
 21
0.121156
 31
0.0
  0
LINE
  5
652
330
1F
100
AcDbEntity
  8
1
  6
CONTINUOUS
370
50
 62
4
100
AcDbLine
 10
10.435492
 20
0.100334
 30
0.0
 11
10.41775
 21
0.110197
 31
0.0
  0
LINE
  5
653
330
1F
100
AcDbEntity
  8
1
  6
CONTINUOUS
370
50
 62
4
100
AcDbLine
 10
19.882748
 20
-0.06028
 30
0.0
 11
19.611835
 21
0.090271
 31
0.0
  0
LINE
  5
654
330
1F
100
AcDbEntity
  8
1
  6
CONTINUOUS
370
50
 62
4
100
AcDbLine
 10
10.41775
 20
0.110197
 30
0.0
 11
10.4
 21
0.120054
 31
0.0
  0
LINE
  5
655
330
1F
100
AcDbEntity
  8
1
  6
CONTINUOUS
370
50
 62
4
100
AcDbLine
 10
8.719771
 20
-0.159898
 30
0.0
 11
8.535048
 21
-0.057559
 31
0.0
  0
LINE
  5
656
330
1F
100
AcDbEntity
  8
1
  6
CONTINUOUS
370
50
 62
4
100
AcDbLine
 10
59.40375899999999
 20
0.042511
 30
0.0
 11
59.22020699999999
 21
0.144151
 31
0.0
  0
LINE
  5
657
330
1F
100
AcDbEntity
  8
1
  6
CONTINUOUS
370
50
 62
4
100
AcDbLine
 10
27.946579
 20
-0.172471
 30
0.0
 11
27.52603
 21
0.060258
 31
0.0
  0
LINE
  5
658
330
1F
100
AcDbEntity
  8
1
  6
CONTINUOUS
370
50
 62
4
100
AcDbLine
 10
44.871475
 20
-0.121977
 30
0.0
 11
44.542915
 21
0.059787
 31
0.0
  0
LINE
  5
659
330
1F
100
AcDbEntity
  8
1
  6
CONTINUOUS
370
50
 62
4
100
AcDbLine
 10
37.169422
 20
-0.207857
 30
0.0
 11
36.901588
 21
-0.059692
 31
0.0
  0
LINE
  5
65A
330
1F
100
AcDbEntity
  8
1
  6
CONTINUOUS
370
50
 62
4
100
AcDbLine
 10
8.431991
 20
0.0
 30
0.0
 11
8.144993
 21
0.158494
 31
0.0
  0
LINE
  5
65B
330
1F
100
AcDbEntity
  8
1
  6
CONTINUOUS
370
50
 62
4
100
AcDbLine
 10
5.255001
 20
-0.172015
 30
0.0
 11
4.943334999999999
 21
0.0
 31
0.0
  0
LINE
  5
65C
330
1F
100
AcDbEntity
  8
1
  6
CONTINUOUS
370
50
 62
4
100
AcDbLine
 10
42.840885
 20
-0.207648
 30
0.0
 11
42.572952
 21
-0.059781
 31
0.0
  0
LINE
  5
65D
330
1F
100
AcDbEntity
  8
1
  6
CONTINUOUS
370
50
 62
4
100
AcDbLine
 10
4.840599999999999
 20
0.057146
 30
0.0
 11
4.622287
 21
0.177623
 31
0.0
  0
LINE
  5
65E
330
1F
100
AcDbEntity
  8
1
  6
CONTINUOUS
370
50
 62
4
100
AcDbLine
 10
36.901588
 20
-0.059692
 30
0.0
 11
36.628338
 21
0.090916
 31
0.0
  0
LINE
  5
65F
330
1F
100
AcDbEntity
  8
1
  6
CONTINUOUS
370
50
 62
4
100
AcDbLine
 10
4.943334999999999
 20
0.0
 30
0.0
 11
4.926153999999999
 21
0.009468
 31
0.0
  0
LINE
  5
660
330
1F
100
AcDbEntity
  8
1
  6
CONTINUOUS
370
50
 62
4
100
AcDbLine
 10
25.5553
 20
-0.059653
 30
0.0
 11
25.283709
 21
0.08999
 31
0.0
  0
LINE
  5
661
330
1F
100
AcDbEntity
  8
1
  6
CONTINUOUS
370
50
 62
4
100
AcDbLine
 10
31.498075
 20
-0.207748
 30
0.0
 11
31.228893
 21
-0.059491
 31
0.0
  0
LINE
  5
662
330
1F
100
AcDbEntity
  8
1
  6
CONTINUOUS
370
50
 62
4
100
AcDbLine
 10
25.283709
 20
0.08999
 30
0.0
 11
25.013868
 21
0.238507
 31
0.0
  0
LINE
  5
663
330
1F
100
AcDbEntity
  8
1
  6
CONTINUOUS
370
50
 62
4
100
AcDbLine
 10
16.178978
 20
0.060358
 30
0.0
 11
15.838562
 21
0.247718
 31
0.0
  0
LINE
  5
664
330
1F
100
AcDbEntity
  8
1
  6
CONTINUOUS
370
50
 62
4
100
AcDbLine
 10
50.214993
 20
0.059481
 30
0.0
 11
49.874435
 21
0.246909
 31
0.0
  0
LINE
  5
665
330
1F
100
AcDbEntity
  8
1
  6
CONTINUOUS
370
50
 62
4
100
AcDbLine
 10
19.611835
 20
0.090271
 30
0.0
 11
19.341614
 21
0.238978
 31
0.0
  0
LINE
  5
666
330
1F
100
AcDbEntity
  8
1
  6
CONTINUOUS
370
50
 62
4
100
AcDbLine
 10
59.588062
 20
-0.058833
 30
0.0
 11
59.40375899999999
 21
0.042511
 31
0.0
  0
LINE
  5
667
330
1F
100
AcDbEntity
  8
1
  6
CONTINUOUS
370
50
 62
4
100
AcDbLine
 10
22.180889
 20
-0.120411
 30
0.0
 11
21.852806
 21
0.059993
 31
0.0
  0
LINE
  5
668
330
1F
100
AcDbEntity
  8
1
  6
CONTINUOUS
370
50
 62
4
100
AcDbLine
 10
44.542915
 20
0.059787
 30
0.0
 11
44.203156
 21
0.24658
 31
0.0
  0
LINE
  5
669
330
1F
100
AcDbEntity
  8
1
  6
CONTINUOUS
370
50
 62
4
100
AcDbLine
 10
50.542042
 20
-0.120021
 30
0.0
 11
50.214993
 21
0.059481
 31
0.0
  0
LINE
  5
66A
330
1F
100
AcDbEntity
  8
1
  6
CONTINUOUS
370
50
 62
4
100
AcDbLine
 10
16.509293
 20
-0.12091
 30
0.0
 11
16.178978
 21
0.060358
 31
0.0
  0
LINE
  5
66B
330
1F
100
AcDbEntity
  8
1
  6
CONTINUOUS
370
50
 62
4
100
AcDbLine
 10
56.215405
 20
-0.120314
 30
0.0
 11
55.888599
 21
0.05902
 31
0.0
  0
LINE
  5
66C
330
1F
100
AcDbEntity
  8
1
  6
CONTINUOUS
370
50
 62
4
100
AcDbLine
 10
31.228893
 20
-0.059491
 30
0.0
 11
30.955645
 21
0.090299
 31
0.0
  0
LINE
  5
66D
330
1F
100
AcDbEntity
  8
1
  6
CONTINUOUS
370
50
 62
4
100
AcDbLine
 10
10.836697
 20
-0.121561
 30
0.0
 11
10.671164
 21
-0.030828
 31
0.0
  0
LINE
  5
66E
330
1F
100
AcDbEntity
  8
1
  6
CONTINUOUS
370
50
 62
4
100
AcDbLine
 10
33.739132
 20
-0.238106
 30
0.0
 11
33.47002
 21
-0.090614
 31
0.0
  0
LINE
  5
66F
330
1F
100
AcDbEntity
  8
1
  6
CONTINUOUS
370
50
 62
4
100
AcDbLine
 10
55.888599
 20
0.05902
 30
0.0
 11
55.547459
 21
0.245937
 31
0.0
  0
LINE
  5
670
330
1F
100
AcDbEntity
  8
1
  6
CONTINUOUS
370
50
 62
4
100
AcDbLine
 10
48.51268
 20
-0.206916
 30
0.0
 11
48.243908
 21
-0.059669
 31
0.0
  0
LINE
  5
671
330
1F
100
AcDbEntity
  8
1
  6
CONTINUOUS
370
50
 62
4
100
AcDbLine
 10
59.22020699999999
 20
0.144151
 30
0.0
 11
59.036598
 21
0.24472
 31
0.0
  0
LINE
  5
672
330
1F
100
AcDbEntity
  8
1
  6
CONTINUOUS
370
50
 62
4
100
AcDbLine
 10
30.955645
 20
0.090299
 30
0.0
 11
30.685646
 21
0.238105
 31
0.0
  0
LINE
  5
673
330
1F
100
AcDbEntity
  8
1
  6
CONTINUOUS
370
50
 62
4
100
AcDbLine
 10
21.852806
 20
0.059993
 30
0.0
 11
21.511568
 21
0.24673
 31
0.0
  0
LINE
  5
674
330
1F
100
AcDbEntity
  8
1
  6
CONTINUOUS
370
50
 62
4
100
AcDbLine
 10
14.479493
 20
-0.207448
 30
0.0
 11
14.211148
 21
-0.060675
 31
0.0
  0
LINE
  5
675
330
1F
100
AcDbEntity
  8
1
  6
CONTINUOUS
370
50
 62
4
100
AcDbLine
 10
38.871502
 20
0.059897
 30
0.0
 11
38.528526
 21
0.24734
 31
0.0
  0
LINE
  5
676
330
1F
100
AcDbEntity
  8
1
  6
CONTINUOUS
370
50
 62
4
100
AcDbLine
 10
13.940466
 20
0.090436
 30
0.0
 11
13.668492
 21
0.238961
 31
0.0
  0
LINE
  5
677
330
1F
100
AcDbEntity
  8
1
  6
CONTINUOUS
370
50
 62
4
100
AcDbLine
 10
25.826078
 20
-0.207366
 30
0.0
 11
25.5553
 21
-0.059653
 31
0.0
  0
LINE
  5
678
330
1F
100
AcDbEntity
  8
1
  6
CONTINUOUS
370
50
 62
4
100
AcDbLine
 10
33.200027
 20
0.059806
 30
0.0
 11
32.927307
 21
0.208438
 31
0.0
  0
LINE
  5
679
330
1F
100
AcDbEntity
  8
1
  6
CONTINUOUS
370
50
 62
4
100
AcDbLine
 10
22.507095
 20
-0.29819
 30
0.0
 11
22.180889
 21
-0.120411
 31
0.0
  0
LINE
  5
67A
330
1F
100
AcDbEntity
  8
1
  6
CONTINUOUS
370
50
 62
4
100
AcDbLine
 10
59.840202
 20
-0.195946
 30
0.0
 11
59.77748099999999
 21
-0.161796
 31
0.0
  0
LINE
  5
67B
330
1F
100
AcDbEntity
  8
1
  6
CONTINUOUS
370
50
 62
4
100
AcDbLine
 10
59.77748099999999
 20
-0.161796
 30
0.0
 11
59.71460699999999
 21
-0.127564
 31
0.0
  0
LINE
  5
67C
330
1F
100
AcDbEntity
  8
1
  6
CONTINUOUS
370
50
 62
4
100
AcDbLine
 10
56.540203
 20
-0.29714
 30
0.0
 11
56.215405
 21
-0.120314
 31
0.0
  0
LINE
  5
67D
330
1F
100
AcDbEntity
  8
1
  6
CONTINUOUS
370
50
 62
4
100
AcDbLine
 10
47.973389
 20
0.091286
 30
0.0
 11
47.70115999999999
 21
0.239429
 31
0.0
  0
LINE
  5
67E
330
1F
100
AcDbEntity
  8
1
  6
CONTINUOUS
370
50
 62
4
100
AcDbLine
 10
20.152847
 20
-0.207096
 30
0.0
 11
19.882748
 21
-0.06028
 31
0.0
  0
LINE
  5
67F
330
1F
100
AcDbEntity
  8
1
  6
CONTINUOUS
370
50
 62
4
100
AcDbLine
 10
59.902866
 20
-0.229983
 30
0.0
 11
59.840202
 21
-0.195946
 31
0.0
  0
LINE
  5
680
330
1F
100
AcDbEntity
  8
1
  6
CONTINUOUS
370
50
 62
4
100
AcDbLine
 10
59.71460699999999
 20
-0.127564
 30
0.0
 11
59.65149299999999
 21
-0.093283
 31
0.0
  0
LINE
  5
681
330
1F
100
AcDbEntity
  8
1
  6
CONTINUOUS
370
50
 62
4
100
AcDbLine
 10
59.65149299999999
 20
-0.093283
 30
0.0
 11
59.588062
 21
-0.058833
 31
0.0
  0
LINE
  5
682
330
1F
100
AcDbEntity
  8
1
  6
CONTINUOUS
370
50
 62
4
100
AcDbLine
 10
16.836042
 20
-0.298344
 30
0.0
 11
16.509293
 21
-0.12091
 31
0.0
  0
LINE
  5
683
330
1F
100
AcDbEntity
  8
1
  6
CONTINUOUS
370
50
 62
4
100
AcDbLine
 10
10.399134
 20
0.119877
 30
0.0
 11
10.07448
 21
0.296127
 31
0.0
  0
LINE
  5
684
330
1F
100
AcDbEntity
  8
1
  6
CONTINUOUS
370
50
 62
4
100
AcDbLine
 10
36.628338
 20
0.090916
 30
0.0
 11
36.357498
 21
0.237904
 31
0.0
  0
LINE
  5
685
330
1F
100
AcDbEntity
  8
1
  6
CONTINUOUS
370
50
 62
4
100
AcDbLine
 10
53.590778
 20
0.121156
 30
0.0
 11
53.267216
 21
0.29663
 31
0.0
  0
LINE
  5
686
330
1F
100
AcDbEntity
  8
1
  6
CONTINUOUS
370
50
 62
4
100
AcDbLine
 10
54.25853
 20
-0.245451
 30
0.0
 11
53.915298
 21
-0.059325
 31
0.0
  0
LINE
  5
687
330
1F
100
AcDbEntity
  8
1
  6
CONTINUOUS
370
50
 62
4
100
AcDbLine
 10
50.86898
 20
-0.297173
 30
0.0
 11
50.542042
 21
-0.120021
 31
0.0
  0
LINE
  5
688
330
1F
100
AcDbEntity
  8
1
  6
CONTINUOUS
370
50
 62
4
100
AcDbLine
 10
11.00075
 20
-0.210445
 30
0.0
 11
10.836697
 21
-0.121561
 31
0.0
  0
LINE
  5
689
330
1F
100
AcDbEntity
  8
1
  6
CONTINUOUS
370
50
 62
4
100
AcDbLine
 10
27.52603
 20
0.060258
 30
0.0
 11
27.069815
 21
0.307346
 31
0.0
  0
LINE
  5
68A
330
1F
100
AcDbEntity
  8
1
  6
CONTINUOUS
370
50
 62
4
100
AcDbLine
 10
42.301472
 20
0.09125
 30
0.0
 11
42.028923
 21
0.238583
 31
0.0
  0
LINE
  5
68B
330
1F
100
AcDbEntity
  8
1
  6
CONTINUOUS
370
50
 62
4
100
AcDbLine
 10
59.965565
 20
-0.263872
 30
0.0
 11
59.902866
 21
-0.229983
 31
0.0
  0
LINE
  5
68C
330
1F
100
AcDbEntity
  8
1
  6
CONTINUOUS
370
50
 62
4
100
AcDbLine
 10
8.905600999999999
 20
-0.260186
 30
0.0
 11
8.719771
 21
-0.159898
 31
0.0
  0
LINE
  5
68D
330
1F
100
AcDbEntity
  8
1
  6
CONTINUOUS
370
50
 62
4
100
AcDbLine
 10
45.202122
 20
-0.299684
 30
0.0
 11
44.871475
 21
-0.121977
 31
0.0
  0
LINE
  5
68E
330
1F
100
AcDbEntity
  8
1
  6
CONTINUOUS
370
50
 62
4
100
AcDbLine
 10
11.163695
 20
-0.297862
 30
0.0
 11
11.00075
 21
-0.210445
 31
0.0
  0
LINE
  5
68F
330
1F
100
AcDbEntity
  8
1
  6
CONTINUOUS
370
50
 62
4
100
AcDbLine
 10
39.527229
 20
-0.298438
 30
0.0
 11
39.197559
 21
-0.121596
 31
0.0
  0
LINE
  5
690
330
1F
100
AcDbEntity
  8
1
  6
CONTINUOUS
370
50
 62
4
100
AcDbLine
 10
26.094837
 20
-0.3514
 30
0.0
 11
25.826078
 21
-0.207366
 31
0.0
  0
LINE
  5
691
330
1F
100
AcDbEntity
  8
1
  6
CONTINUOUS
370
50
 62
4
100
AcDbLine
 10
31.766861
 20
-0.351574
 30
0.0
 11
31.498075
 21
-0.207748
 31
0.0
  0
LINE
  5
692
330
1F
100
AcDbEntity
  8
1
  6
CONTINUOUS
370
50
 62
4
100
AcDbLine
 10
4.622287
 20
0.177623
 30
0.0
 11
4.401007
 21
0.295631
 31
0.0
  0
LINE
  5
693
330
1F
100
AcDbEntity
  8
1
  6
CONTINUOUS
370
50
 62
4
100
AcDbLine
 10
20.423014
 20
-0.351058
 30
0.0
 11
20.152847
 21
-0.207096
 31
0.0
  0
LINE
  5
694
330
1F
100
AcDbEntity
  8
1
  6
CONTINUOUS
370
50
 62
4
100
AcDbLine
 10
8.144993
 20
0.158494
 30
0.0
 11
7.857621
 21
0.311588
 31
0.0
  0
LINE
  5
695
330
1F
100
AcDbEntity
  8
1
  6
CONTINUOUS
370
50
 62
4
100
AcDbLine
 10
37.43844199999999
 20
-0.350863
 30
0.0
 11
37.169422
 21
-0.207857
 31
0.0
  0
LINE
  5
696
330
1F
100
AcDbEntity
  8
1
  6
CONTINUOUS
370
50
 62
4
100
AcDbLine
 10
5.569421
 20
-0.338977
 30
0.0
 11
5.255001
 21
-0.172015
 31
0.0
  0
LINE
  5
697
330
1F
100
AcDbEntity
  8
1
  6
CONTINUOUS
370
50
 62
4
100
AcDbLine
 10
59.036598
 20
0.24472
 30
0.0
 11
58.85284
 21
0.342269
 31
0.0
  0
LINE
  5
698
330
1F
100
AcDbEntity
  8
1
  6
CONTINUOUS
370
50
 62
4
100
AcDbLine
 10
30.685646
 20
0.238105
 30
0.0
 11
30.416574
 21
0.380871
 31
0.0
  0
LINE
  5
699
330
1F
100
AcDbEntity
  8
1
  6
CONTINUOUS
370
50
 62
4
100
AcDbLine
 10
36.357498
 20
0.237904
 30
0.0
 11
36.088638
 21
0.380439
 31
0.0
  0
LINE
  5
69A
330
1F
100
AcDbEntity
  8
1
  6
CONTINUOUS
370
50
 62
4
100
AcDbLine
 10
32.927307
 20
0.208438
 30
0.0
 11
32.655869
 21
0.352269
 31
0.0
  0
LINE
  5
69B
330
1F
100
AcDbEntity
  8
1
  6
CONTINUOUS
370
50
 62
4
100
AcDbLine
 10
28.36562
 20
-0.394222
 30
0.0
 11
27.946579
 21
-0.172471
 31
0.0
  0
LINE
  5
69C
330
1F
100
AcDbEntity
  8
1
  6
CONTINUOUS
370
50
 62
4
100
AcDbLine
 10
14.75108
 20
-0.350795
 30
0.0
 11
14.479493
 21
-0.207448
 31
0.0
  0
LINE
  5
69D
330
1F
100
AcDbEntity
  8
1
  6
CONTINUOUS
370
50
 62
4
100
AcDbLine
 10
43.111179
 20
-0.350179
 30
0.0
 11
42.840885
 21
-0.207648
 31
0.0
  0
LINE
  5
69E
330
1F
100
AcDbEntity
  8
1
  6
CONTINUOUS
370
50
 62
4
100
AcDbLine
 10
25.013868
 20
0.238507
 30
0.0
 11
24.743063
 21
0.38124
 31
0.0
  0
LINE
  5
69F
330
1F
100
AcDbEntity
  8
1
  6
CONTINUOUS
370
50
 62
4
100
AcDbLine
 10
42.028923
 20
0.238583
 30
0.0
 11
41.759785
 21
0.380362
 31
0.0
  0
LINE
  5
6A0
330
1F
100
AcDbEntity
  8
1
  6
CONTINUOUS
370
50
 62
4
100
AcDbLine
 10
48.784912
 20
-0.350324
 30
0.0
 11
48.51268
 21
-0.206916
 31
0.0
  0
LINE
  5
6A1
330
1F
100
AcDbEntity
  8
1
  6
CONTINUOUS
370
50
 62
4
100
AcDbLine
 10
11.32656
 20
-0.383321
 30
0.0
 11
11.163695
 21
-0.297862
 31
0.0
  0
LINE
  5
6A2
330
1F
100
AcDbEntity
  8
1
  6
CONTINUOUS
370
50
 62
4
100
AcDbLine
 10
21.511568
 20
0.24673
 30
0.0
 11
21.169964
 21
0.425672
 31
0.0
  0
LINE
  5
6A3
330
1F
100
AcDbEntity
  8
1
  6
CONTINUOUS
370
50
 62
4
100
AcDbLine
 10
54.601273
 20
-0.424793
 30
0.0
 11
54.25853
 21
-0.245451
 31
0.0
  0
LINE
  5
6A4
330
1F
100
AcDbEntity
  8
1
  6
CONTINUOUS
370
50
 62
4
100
AcDbLine
 10
55.547459
 20
0.245937
 30
0.0
 11
55.206486
 21
0.424302
 31
0.0
  0
LINE
  5
6A5
330
1F
100
AcDbEntity
  8
1
  6
CONTINUOUS
370
50
 62
4
100
AcDbLine
 10
47.70115999999999
 20
0.239429
 30
0.0
 11
47.430859
 21
0.380645
 31
0.0
  0
LINE
  5
6A6
330
1F
100
AcDbEntity
  8
1
  6
CONTINUOUS
370
50
 62
4
100
AcDbLine
 10
19.341614
 20
0.238978
 30
0.0
 11
19.069485
 21
0.381071
 31
0.0
  0
LINE
  5
6A7
330
1F
100
AcDbEntity
  8
1
  6
CONTINUOUS
370
50
 62
4
100
AcDbLine
 10
13.668492
 20
0.238961
 30
0.0
 11
13.39756
 21
0.380392
 31
0.0
  0
LINE
  5
6A8
330
1F
100
AcDbEntity
  8
1
  6
CONTINUOUS
370
50
 62
4
100
AcDbLine
 10
34.009056
 20
-0.378849
 30
0.0
 11
33.739132
 21
-0.238106
 31
0.0
  0
LINE
  5
6A9
330
1F
100
AcDbEntity
  8
1
  6
CONTINUOUS
370
50
 62
4
100
AcDbLine
 10
10.399856
 20
0.119502
 30
0.0
 11
10.399712
 21
0.119577
 31
0.0
  0
LINE
  5
6AA
330
1F
100
AcDbEntity
  8
1
  6
CONTINUOUS
370
50
 62
4
100
AcDbLine
 10
10.399567
 20
0.119652
 30
0.0
 11
10.399279
 21
0.119802
 31
0.0
  0
LINE
  5
6AB
330
1F
100
AcDbEntity
  8
1
  6
CONTINUOUS
370
50
 62
4
100
AcDbLine
 10
15.838562
 20
0.247718
 30
0.0
 11
15.497151
 21
0.425474
 31
0.0
  0
LINE
  5
6AC
330
1F
100
AcDbEntity
  8
1
  6
CONTINUOUS
370
50
 62
4
100
AcDbLine
 10
9.093361
 20
-0.357869
 30
0.0
 11
8.905600999999999
 21
-0.260186
 31
0.0
  0
LINE
  5
6AD
330
1F
100
AcDbEntity
  8
1
  6
CONTINUOUS
370
50
 62
4
100
AcDbLine
 10
49.874435
 20
0.246909
 30
0.0
 11
49.531422
 21
0.425004
 31
0.0
  0
LINE
  5
6AE
330
1F
100
AcDbEntity
  8
1
  6
CONTINUOUS
370
50
 62
4
100
AcDbLine
 10
38.528526
 20
0.24734
 30
0.0
 11
38.186264
 21
0.424701
 31
0.0
  0
LINE
  5
6AF
330
1F
100
AcDbEntity
  8
1
  6
CONTINUOUS
370
50
 62
4
100
AcDbLine
 10
3.517846
 20
0.061578
 30
0.0
 11
3.517514
 21
0.06175
 31
0.0
  0
LINE
  5
6B0
330
1F
100
AcDbEntity
  8
1
  6
CONTINUOUS
370
50
 62
4
100
AcDbLine
 10
10.399712
 20
0.119577
 30
0.0
 11
10.399567
 21
0.119652
 31
0.0
  0
LINE
  5
6B1
330
1F
100
AcDbEntity
  8
1
  6
CONTINUOUS
370
50
 62
4
100
AcDbLine
 10
10.399279
 20
0.119802
 30
0.0
 11
10.399134
 21
0.119877
 31
0.0
  0
LINE
  5
6B2
330
1F
100
AcDbEntity
  8
1
  6
CONTINUOUS
370
50
 62
4
100
AcDbLine
 10
44.203156
 20
0.24658
 30
0.0
 11
43.861595
 21
0.423066
 31
0.0
  0
LINE
  5
6B3
330
1F
100
AcDbEntity
  8
1
  6
CONTINUOUS
370
50
 62
4
100
AcDbLine
 10
3.518178
 20
0.061407
 30
0.0
 11
3.517846
 21
0.061578
 31
0.0
  0
LINE
  5
6B4
330
1F
100
AcDbEntity
  8
1
  6
CONTINUOUS
370
50
 62
4
100
AcDbLine
 10
51.19391599999999
 20
-0.464241
 30
0.0
 11
50.86898
 21
-0.297173
 31
0.0
  0
LINE
  5
6B5
330
1F
100
AcDbEntity
  8
1
  6
CONTINUOUS
370
50
 62
4
100
AcDbLine
 10
45.530148
 20
-0.468322
 30
0.0
 11
45.202122
 21
-0.299684
 31
0.0
  0
LINE
  5
6B6
330
1F
100
AcDbEntity
  8
1
  6
CONTINUOUS
370
50
 62
4
100
AcDbLine
 10
10.4
 20
0.119428
 30
0.0
 11
10.399856
 21
0.119502
 31
0.0
  0
LINE
  5
6B7
330
1F
100
AcDbEntity
  8
1
  6
CONTINUOUS
370
50
 62
4
100
AcDbLine
 10
7.857621
 20
0.311588
 30
0.0
 11
7.575556
 21
0.456507
 31
0.0
  0
LINE
  5
6B8
330
1F
100
AcDbEntity
  8
1
  6
CONTINUOUS
370
50
 62
4
100
AcDbLine
 10
17.160542
 20
-0.465047
 30
0.0
 11
16.836042
 21
-0.298344
 31
0.0
  0
LINE
  5
6B9
330
1F
100
AcDbEntity
  8
1
  6
CONTINUOUS
370
50
 62
4
100
AcDbLine
 10
4.401007
 20
0.295631
 30
0.0
 11
4.178716
 21
0.409813
 31
0.0
  0
LINE
  5
6BA
330
1F
100
AcDbEntity
  8
1
  6
CONTINUOUS
370
50
 62
4
100
AcDbLine
 10
39.856785
 20
-0.467329
 30
0.0
 11
39.527229
 21
-0.298438
 31
0.0
  0
LINE
  5
6BB
330
1F
100
AcDbEntity
  8
1
  6
CONTINUOUS
370
50
 62
4
100
AcDbLine
 10
56.865402
 20
-0.46323
 30
0.0
 11
56.540203
 21
-0.29714
 31
0.0
  0
LINE
  5
6BC
330
1F
100
AcDbEntity
  8
1
  6
CONTINUOUS
370
50
 62
4
100
AcDbLine
 10
3.518511
 20
0.061237
 30
0.0
 11
3.518178
 21
0.061407
 31
0.0
  0
LINE
  5
6BD
330
1F
100
AcDbEntity
  8
1
  6
CONTINUOUS
370
50
 62
4
100
AcDbLine
 10
22.834661
 20
-0.465108
 30
0.0
 11
22.507095
 21
-0.29819
 31
0.0
  0
LINE
  5
6BE
330
1F
100
AcDbEntity
  8
1
  6
CONTINUOUS
370
50
 62
4
100
AcDbLine
 10
10.07448
 20
0.296127
 30
0.0
 11
9.747638
 21
0.461888
 31
0.0
  0
LINE
  5
6BF
330
1F
100
AcDbEntity
  8
1
  6
CONTINUOUS
370
50
 62
4
100
AcDbLine
 10
53.267216
 20
0.29663
 30
0.0
 11
52.938766
 21
0.463166
 31
0.0
  0
LINE
  5
6C0
330
1F
100
AcDbEntity
  8
1
  6
CONTINUOUS
370
50
 62
4
100
AcDbLine
 10
15.020684
 20
-0.487371
 30
0.0
 11
14.75108
 21
-0.350795
 31
0.0
  0
LINE
  5
6C1
330
1F
100
AcDbEntity
  8
1
  6
CONTINUOUS
370
50
 62
4
100
AcDbLine
 10
20.692406
 20
-0.487445
 30
0.0
 11
20.423014
 21
-0.351058
 31
0.0
  0
LINE
  5
6C2
330
1F
100
AcDbEntity
  8
1
  6
CONTINUOUS
370
50
 62
4
100
AcDbLine
 10
3.518845
 20
0.061068
 30
0.0
 11
3.518511
 21
0.061237
 31
0.0
  0
LINE
  5
6C3
330
1F
100
AcDbEntity
  8
1
  6
CONTINUOUS
370
50
 62
4
100
AcDbLine
 10
9.280146
 20
-0.452379
 30
0.0
 11
9.093361
 21
-0.357869
 31
0.0
  0
LINE
  5
6C4
330
1F
100
AcDbEntity
  8
1
  6
CONTINUOUS
370
50
 62
4
100
AcDbLine
 10
32.655869
 20
0.352269
 30
0.0
 11
32.385139
 21
0.489203
 31
0.0
  0
LINE
  5
6C5
330
1F
100
AcDbEntity
  8
1
  6
CONTINUOUS
370
50
 62
4
100
AcDbLine
 10
49.055267
 20
-0.487017
 30
0.0
 11
48.784912
 21
-0.350324
 31
0.0
  0
LINE
  5
6C6
330
1F
100
AcDbEntity
  8
1
  6
CONTINUOUS
370
50
 62
4
100
AcDbLine
 10
11.488779
 20
-0.46533
 30
0.0
 11
11.32656
 21
-0.383321
 31
0.0
  0
LINE
  5
6C7
330
1F
100
AcDbEntity
  8
1
  6
CONTINUOUS
370
50
 62
4
100
AcDbLine
 10
5.881123
 20
-0.496526
 30
0.0
 11
5.569421
 21
-0.338977
 31
0.0
  0
LINE
  5
6C8
330
1F
100
AcDbEntity
  8
1
  6
CONTINUOUS
370
50
 62
4
100
AcDbLine
 10
58.85284
 20
0.342269
 30
0.0
 11
58.667873
 21
0.435569
 31
0.0
  0
LINE
  5
6C9
330
1F
100
AcDbEntity
  8
1
  6
CONTINUOUS
370
50
 62
4
100
AcDbLine
 10
26.364618
 20
-0.487184
 30
0.0
 11
26.094837
 21
-0.3514
 31
0.0
  0
LINE
  5
6CA
330
1F
100
AcDbEntity
  8
1
  6
CONTINUOUS
370
50
 62
4
100
AcDbLine
 10
27.069815
 20
0.307346
 30
0.0
 11
26.616013
 21
0.5353899999999999
 31
0.0
  0
LINE
  5
6CB
330
1F
100
AcDbEntity
  8
1
  6
CONTINUOUS
370
50
 62
4
100
AcDbLine
 10
43.383049
 20
-0.486542
 30
0.0
 11
43.111179
 21
-0.350179
 31
0.0
  0
LINE
  5
6CC
330
1F
100
AcDbEntity
  8
1
  6
CONTINUOUS
370
50
 62
4
100
AcDbLine
 10
3.519179
 20
0.060901
 30
0.0
 11
3.518845
 21
0.061068
 31
0.0
  0
LINE
  5
6CD
330
1F
100
AcDbEntity
  8
1
  6
CONTINUOUS
370
50
 62
4
100
AcDbLine
 10
32.037758
 20
-0.486761
 30
0.0
 11
31.766861
 21
-0.351574
 31
0.0
  0
LINE
  5
6CE
330
1F
100
AcDbEntity
  8
1
  6
CONTINUOUS
370
50
 62
4
100
AcDbLine
 10
41.759785
 20
0.380362
 30
0.0
 11
41.491734
 21
0.514099
 31
0.0
  0
LINE
  5
6CF
330
1F
100
AcDbEntity
  8
1
  6
CONTINUOUS
370
50
 62
4
100
AcDbLine
 10
47.430859
 20
0.380645
 30
0.0
 11
47.162766
 21
0.514138
 31
0.0
  0
LINE
  5
6D0
330
1F
100
AcDbEntity
  8
1
  6
CONTINUOUS
370
50
 62
4
100
AcDbLine
 10
13.39756
 20
0.380392
 30
0.0
 11
13.129237
 21
0.51396
 31
0.0
  0
LINE
  5
6D1
330
1F
100
AcDbEntity
  8
1
  6
CONTINUOUS
370
50
 62
4
100
AcDbLine
 10
37.710941
 20
-0.486474
 30
0.0
 11
37.43844199999999
 21
-0.350863
 31
0.0
  0
LINE
  5
6D2
330
1F
100
AcDbEntity
  8
1
  6
CONTINUOUS
370
50
 62
4
100
AcDbLine
 10
34.276554
 20
-0.5117189999999999
 30
0.0
 11
34.009056
 21
-0.378849
 31
0.0
  0
LINE
  5
6D3
330
1F
100
AcDbEntity
  8
1
  6
CONTINUOUS
370
50
 62
4
100
AcDbLine
 10
59.976917
 20
0.9998229999999999
 30
0.0
 11
59.97677599999999
 21
0.9998929999999999
 31
0.0
  0
LINE
  5
6D4
330
1F
100
AcDbEntity
  8
1
  6
CONTINUOUS
370
50
 62
4
100
AcDbLine
 10
36.088638
 20
0.380439
 30
0.0
 11
35.819202
 21
0.514176
 31
0.0
  0
LINE
  5
6D5
330
1F
100
AcDbEntity
  8
1
  6
CONTINUOUS
370
50
 62
4
100
AcDbLine
 10
3.519514
 20
0.060735
 30
0.0
 11
3.519179
 21
0.060901
 31
0.0
  0
LINE
  5
6D6
330
1F
100
AcDbEntity
  8
1
  6
CONTINUOUS
370
50
 62
4
100
AcDbLine
 10
4.178716
 20
0.409813
 30
0.0
 11
3.95999
 21
0.517871
 31
0.0
  0
LINE
  5
6D7
330
1F
100
AcDbEntity
  8
1
  6
CONTINUOUS
370
50
 62
4
100
AcDbLine
 10
19.069485
 20
0.381071
 30
0.0
 11
18.800737
 21
0.5137729999999999
 31
0.0
  0
LINE
  5
6D8
330
1F
100
AcDbEntity
  8
1
  6
CONTINUOUS
370
50
 62
4
100
AcDbLine
 10
30.416574
 20
0.380871
 30
0.0
 11
30.145483
 21
0.514129
 31
0.0
  0
LINE
  5
6D9
330
1F
100
AcDbEntity
  8
1
  6
CONTINUOUS
370
50
 62
4
100
AcDbLine
 10
24.743063
 20
0.38124
 30
0.0
 11
24.472666
 21
0.513832
 31
0.0
  0
LINE
  5
6DA
330
1F
100
AcDbEntity
  8
1
  6
CONTINUOUS
370
50
 62
4
100
AcDbLine
 10
3.810342
 20
-0.549755
 30
0.0
 11
3.517514
 21
-0.406309
 31
0.0
  0
LINE
  5
6DB
330
1F
100
AcDbEntity
  8
1
  6
CONTINUOUS
370
50
 62
4
100
AcDbLine
 10
9.4651
 20
-0.541916
 30
0.0
 11
9.280146
 21
-0.452379
 31
0.0
  0
LINE
  5
6DC
330
1F
100
AcDbEntity
  8
1
  6
CONTINUOUS
370
50
 62
4
100
AcDbLine
 10
58.667873
 20
0.435569
 30
0.0
 11
58.484131
 21
0.524268
 31
0.0
  0
LINE
  5
6DD
330
1F
100
AcDbEntity
  8
1
  6
CONTINUOUS
370
50
 62
4
100
AcDbLine
 10
38.186264
 20
0.424701
 30
0.0
 11
37.845913
 21
0.588008
 31
0.0
  0
LINE
  5
6DE
330
1F
100
AcDbEntity
  8
1
  6
CONTINUOUS
370
50
 62
4
100
AcDbLine
 10
28.786133
 20
-0.5958
 30
0.0
 11
28.36562
 21
-0.394222
 31
0.0
  0
LINE
  5
6DF
330
1F
100
AcDbEntity
  8
1
  6
CONTINUOUS
370
50
 62
4
100
AcDbLine
 10
43.861595
 20
0.423066
 30
0.0
 11
43.522411
 21
0.585653
 31
0.0
  0
LINE
  5
6E0
330
1F
100
AcDbEntity
  8
1
  6
CONTINUOUS
370
50
 62
4
100
AcDbLine
 10
11.651459
 20
-0.543234
 30
0.0
 11
11.488779
 21
-0.46533
 31
0.0
  0
LINE
  5
6E1
330
1F
100
AcDbEntity
  8
1
  6
CONTINUOUS
370
50
 62
4
100
AcDbLine
 10
54.94379
 20
-0.588081
 30
0.0
 11
54.601273
 21
-0.424793
 31
0.0
  0
LINE
  5
6E2
330
1F
100
AcDbEntity
  8
1
  6
CONTINUOUS
370
50
 62
4
100
AcDbLine
 10
49.531422
 20
0.425004
 30
0.0
 11
49.189644
 21
0.5874079999999999
 31
0.0
  0
LINE
  5
6E3
330
1F
100
AcDbEntity
  8
1
  6
CONTINUOUS
370
50
 62
4
100
AcDbLine
 10
15.497151
 20
0.425474
 30
0.0
 11
15.157216
 21
0.5867979999999999
 31
0.0
  0
LINE
  5
6E4
330
1F
100
AcDbEntity
  8
1
  6
CONTINUOUS
370
50
 62
4
100
AcDbLine
 10
7.575556
 20
0.456507
 30
0.0
 11
7.292749
 21
0.5903109999999999
 31
0.0
  0
LINE
  5
6E5
330
1F
100
AcDbEntity
  8
1
  6
CONTINUOUS
370
50
 62
4
100
AcDbLine
 10
55.206486
 20
0.424302
 30
0.0
 11
54.863358
 21
0.586477
 31
0.0
  0
LINE
  5
6E6
330
1F
100
AcDbEntity
  8
1
  6
CONTINUOUS
370
50
 62
4
100
AcDbLine
 10
21.169964
 20
0.425672
 30
0.0
 11
20.826849
 21
0.587818
 31
0.0
  0
LINE
  5
6E7
330
1F
100
AcDbEntity
  8
1
  6
CONTINUOUS
370
50
 62
4
100
AcDbLine
 10
9.747638
 20
0.461888
 30
0.0
 11
9.425393999999999
 21
0.612826
 31
0.0
  0
LINE
  5
6E8
330
1F
100
AcDbEntity
  8
1
  6
CONTINUOUS
370
50
 62
4
100
AcDbLine
 10
52.938766
 20
0.463166
 30
0.0
 11
52.61063799999999
 21
0.616796
 31
0.0
  0
LINE
  5
6E9
330
1F
100
AcDbEntity
  8
1
  6
CONTINUOUS
370
50
 62
4
100
AcDbLine
 10
43.653351
 20
-0.612445
 30
0.0
 11
43.383049
 21
-0.486542
 31
0.0
  0
LINE
  5
6EA
330
1F
100
AcDbEntity
  8
1
  6
CONTINUOUS
370
50
 62
4
100
AcDbLine
 10
40.184597
 20
-0.620006
 30
0.0
 11
39.856785
 21
-0.467329
 31
0.0
  0
LINE
  5
6EB
330
1F
100
AcDbEntity
  8
1
  6
CONTINUOUS
370
50
 62
4
100
AcDbLine
 10
37.982113
 20
-0.612493
 30
0.0
 11
37.710941
 21
-0.486474
 31
0.0
  0
LINE
  5
6EC
330
1F
100
AcDbEntity
  8
1
  6
CONTINUOUS
370
50
 62
4
100
AcDbLine
 10
49.325806
 20
-0.612526
 30
0.0
 11
49.055267
 21
-0.487017
 31
0.0
  0
LINE
  5
6ED
330
1F
100
AcDbEntity
  8
1
  6
CONTINUOUS
370
50
 62
4
100
AcDbLine
 10
23.162142
 20
-0.61691
 30
0.0
 11
22.834661
 21
-0.465108
 31
0.0
  0
LINE
  5
6EE
330
1F
100
AcDbEntity
  8
1
  6
CONTINUOUS
370
50
 62
4
100
AcDbLine
 10
15.291103
 20
-0.612714
 30
0.0
 11
15.020684
 21
-0.487371
 31
0.0
  0
LINE
  5
6EF
330
1F
100
AcDbEntity
  8
1
  6
CONTINUOUS
370
50
 62
4
100
AcDbLine
 10
3.519514
 20
0.734223
 30
0.0
 11
3.466352
 21
0.758857
 31
0.0
  0
LINE
  5
6F0
330
1F
100
AcDbEntity
  8
1
  6
CONTINUOUS
370
50
 62
4
100
AcDbLine
 10
57.193298
 20
-0.6149629999999999
 30
0.0
 11
56.865402
 21
-0.46323
 31
0.0
  0
LINE
  5
6F1
330
1F
100
AcDbEntity
  8
1
  6
CONTINUOUS
370
50
 62
4
100
AcDbLine
 10
45.858444
 20
-0.619881
 30
0.0
 11
45.530148
 21
-0.468322
 31
0.0
  0
LINE
  5
6F2
330
1F
100
AcDbEntity
  8
1
  6
CONTINUOUS
370
50
 62
4
100
AcDbLine
 10
32.385139
 20
0.489203
 30
0.0
 11
32.113762
 21
0.614379
 31
0.0
  0
LINE
  5
6F3
330
1F
100
AcDbEntity
  8
1
  6
CONTINUOUS
370
50
 62
4
100
AcDbLine
 10
17.488997
 20
-0.616481
 30
0.0
 11
17.160542
 21
-0.465047
 31
0.0
  0
LINE
  5
6F4
330
1F
100
AcDbEntity
  8
1
  6
CONTINUOUS
370
50
 62
4
100
AcDbLine
 10
51.52208299999999
 20
-0.615498
 30
0.0
 11
51.19391599999999
 21
-0.464241
 31
0.0
  0
LINE
  5
6F5
330
1F
100
AcDbEntity
  8
1
  6
CONTINUOUS
370
50
 62
4
100
AcDbLine
 10
3.95999
 20
0.517871
 30
0.0
 11
3.741429
 21
0.618517
 31
0.0
  0
LINE
  5
6F6
330
1F
100
AcDbEntity
  8
1
  6
CONTINUOUS
370
50
 62
4
100
AcDbLine
 10
32.310795
 20
-0.612491
 30
0.0
 11
32.037758
 21
-0.486761
 31
0.0
  0
LINE
  5
6F7
330
1F
100
AcDbEntity
  8
1
  6
CONTINUOUS
370
50
 62
4
100
AcDbLine
 10
20.963663
 20
-0.6121179999999999
 30
0.0
 11
20.692406
 21
-0.487445
 31
0.0
  0
LINE
  5
6F8
330
1F
100
AcDbEntity
  8
1
  6
CONTINUOUS
370
50
 62
4
100
AcDbLine
 10
58.484131
 20
0.524268
 30
0.0
 11
58.30118599999999
 21
0.6081449999999999
 31
0.0
  0
LINE
  5
6F9
330
1F
100
AcDbEntity
  8
1
  6
CONTINUOUS
370
50
 62
4
100
AcDbLine
 10
26.637741
 20
-0.612158
 30
0.0
 11
26.364618
 21
-0.487184
 31
0.0
  0
LINE
  5
6FA
330
1F
100
AcDbEntity
  8
1
  6
CONTINUOUS
370
50
 62
4
100
AcDbLine
 10
34.541718
 20
-0.632844
 30
0.0
 11
34.276554
 21
-0.5117189999999999
 31
0.0
  0
LINE
  5
6FB
330
1F
100
AcDbEntity
  8
1
  6
CONTINUOUS
370
50
 62
4
100
AcDbLine
 10
18.800737
 20
0.5137729999999999
 30
0.0
 11
18.533392
 21
0.6358119999999999
 31
0.0
  0
LINE
  5
6FC
330
1F
100
AcDbEntity
  8
1
  6
CONTINUOUS
370
50
 62
4
100
AcDbLine
 10
13.129237
 20
0.51396
 30
0.0
 11
12.861206
 21
0.636076
 31
0.0
  0
LINE
  5
6FD
330
1F
100
AcDbEntity
  8
1
  6
CONTINUOUS
370
50
 62
4
100
AcDbLine
 10
6.19334
 20
-0.6385149999999999
 30
0.0
 11
5.881123
 21
-0.496526
 31
0.0
  0
LINE
  5
6FE
330
1F
100
AcDbEntity
  8
1
  6
CONTINUOUS
370
50
 62
4
100
AcDbLine
 10
24.472666
 20
0.513832
 30
0.0
 11
24.205124
 21
0.635466
 31
0.0
  0
LINE
  5
6FF
330
1F
100
AcDbEntity
  8
1
  6
CONTINUOUS
370
50
 62
4
100
AcDbLine
 10
47.162766
 20
0.514138
 30
0.0
 11
46.894547
 21
0.6360049999999999
 31
0.0
  0
LINE
  5
700
330
1F
100
AcDbEntity
  8
1
  6
CONTINUOUS
370
50
 62
4
100
AcDbLine
 10
9.65033
 20
-0.625668
 30
0.0
 11
9.4651
 21
-0.541916
 31
0.0
  0
LINE
  5
701
330
1F
100
AcDbEntity
  8
1
  6
CONTINUOUS
370
50
 62
4
100
AcDbLine
 10
30.145483
 20
0.514129
 30
0.0
 11
29.877462
 21
0.634961
 31
0.0
  0
LINE
  5
702
330
1F
100
AcDbEntity
  8
1
  6
CONTINUOUS
370
50
 62
4
100
AcDbLine
 10
41.491734
 20
0.514099
 30
0.0
 11
41.221695
 21
0.635644
 31
0.0
  0
LINE
  5
703
330
1F
100
AcDbEntity
  8
1
  6
CONTINUOUS
370
50
 62
4
100
AcDbLine
 10
35.819202
 20
0.514176
 30
0.0
 11
35.549515
 21
0.635046
 31
0.0
  0
LINE
  5
704
330
1F
100
AcDbEntity
  8
1
  6
CONTINUOUS
370
50
 62
4
100
AcDbLine
 10
11.815474
 20
-0.616493
 30
0.0
 11
11.651459
 21
-0.543234
 31
0.0
  0
LINE
  5
705
330
1F
100
AcDbEntity
  8
1
  6
CONTINUOUS
370
50
 62
4
100
AcDbLine
 10
4.102717
 20
-0.678493
 30
0.0
 11
3.810342
 21
-0.549755
 31
0.0
  0
LINE
  5
706
330
1F
100
AcDbEntity
  8
1
  6
CONTINUOUS
370
50
 62
4
100
AcDbLine
 10
58.30118599999999
 20
0.6081449999999999
 30
0.0
 11
58.119366
 21
0.6855249999999999
 31
0.0
  0
LINE
  5
707
330
1F
100
AcDbEntity
  8
1
  6
CONTINUOUS
370
50
 62
4
100
AcDbLine
 10
26.616013
 20
0.5353899999999999
 30
0.0
 11
26.16021
 21
0.7288519999999999
 31
0.0
  0
LINE
  5
708
330
1F
100
AcDbEntity
  8
1
  6
CONTINUOUS
370
50
 62
4
100
AcDbLine
 10
15.157216
 20
0.5867979999999999
 30
0.0
 11
14.818518
 21
0.728629
 31
0.0
  0
LINE
  5
709
330
1F
100
AcDbEntity
  8
1
  6
CONTINUOUS
370
50
 62
4
100
AcDbLine
 10
11.979467
 20
-0.685078
 30
0.0
 11
11.815474
 21
-0.616493
 31
0.0
  0
LINE
  5
70A
330
1F
100
AcDbEntity
  8
1
  6
CONTINUOUS
370
50
 62
4
100
AcDbLine
 10
3.466352
 20
0.758857
 30
0.0
 11
3.413152
 21
0.781106
 31
0.0
  0
LINE
  5
70B
330
1F
100
AcDbEntity
  8
1
  6
CONTINUOUS
370
50
 62
4
100
AcDbLine
 10
54.863358
 20
0.586477
 30
0.0
 11
54.523033
 21
0.728691
 31
0.0
  0
LINE
  5
70C
330
1F
100
AcDbEntity
  8
1
  6
CONTINUOUS
370
50
 62
4
100
AcDbLine
 10
49.189644
 20
0.5874079999999999
 30
0.0
 11
48.849174
 21
0.729606
 31
0.0
  0
LINE
  5
70D
330
1F
100
AcDbEntity
  8
1
  6
CONTINUOUS
370
50
 62
4
100
AcDbLine
 10
20.826849
 20
0.587818
 30
0.0
 11
20.487583
 21
0.729468
 31
0.0
  0
LINE
  5
70E
330
1F
100
AcDbEntity
  8
1
  6
CONTINUOUS
370
50
 62
4
100
AcDbLine
 10
43.522411
 20
0.585653
 30
0.0
 11
43.182858
 21
0.72725
 31
0.0
  0
LINE
  5
70F
330
1F
100
AcDbEntity
  8
1
  6
CONTINUOUS
370
50
 62
4
100
AcDbLine
 10
7.292749
 20
0.5903109999999999
 30
0.0
 11
7.006505
 21
0.709171
 31
0.0
  0
LINE
  5
710
330
1F
100
AcDbEntity
  8
1
  6
CONTINUOUS
370
50
 62
4
100
AcDbLine
 10
3.741429
 20
0.618517
 30
0.0
 11
3.519514
 21
0.710521
 31
0.0
  0
LINE
  5
711
330
1F
100
AcDbEntity
  8
1
  6
CONTINUOUS
370
50
 62
4
100
AcDbLine
 10
32.582016
 20
-0.7248629999999999
 30
0.0
 11
32.310795
 21
-0.612491
 31
0.0
  0
LINE
  5
712
330
1F
100
AcDbEntity
  8
1
  6
CONTINUOUS
370
50
 62
4
100
AcDbLine
 10
38.253448
 20
-0.72459
 30
0.0
 11
37.982113
 21
-0.612493
 31
0.0
  0
LINE
  5
713
330
1F
100
AcDbEntity
  8
1
  6
CONTINUOUS
370
50
 62
4
100
AcDbLine
 10
26.91
 20
-0.724607
 30
0.0
 11
26.637741
 21
-0.612158
 31
0.0
  0
LINE
  5
714
330
1F
100
AcDbEntity
  8
1
  6
CONTINUOUS
370
50
 62
4
100
AcDbLine
 10
37.845913
 20
0.588008
 30
0.0
 11
37.503151
 21
0.7294229999999999
 31
0.0
  0
LINE
  5
715
330
1F
100
AcDbEntity
  8
1
  6
CONTINUOUS
370
50
 62
4
100
AcDbLine
 10
55.283409
 20
-0.728067
 30
0.0
 11
54.94379
 21
-0.588081
 31
0.0
  0
LINE
  5
716
330
1F
100
AcDbEntity
  8
1
  6
CONTINUOUS
370
50
 62
4
100
AcDbLine
 10
9.837776
 20
-0.702827
 30
0.0
 11
9.65033
 21
-0.625668
 31
0.0
  0
LINE
  5
717
330
1F
100
AcDbEntity
  8
1
  6
CONTINUOUS
370
50
 62
4
100
AcDbLine
 10
43.925049
 20
-0.723868
 30
0.0
 11
43.653351
 21
-0.612445
 31
0.0
  0
LINE
  5
718
330
1F
100
AcDbEntity
  8
1
  6
CONTINUOUS
370
50
 62
4
100
AcDbLine
 10
21.237595
 20
-0.724225
 30
0.0
 11
20.963663
 21
-0.6121179999999999
 31
0.0
  0
LINE
  5
719
330
1F
100
AcDbEntity
  8
1
  6
CONTINUOUS
370
50
 62
4
100
AcDbLine
 10
15.56468
 20
-0.72414
 30
0.0
 11
15.291103
 21
-0.612714
 31
0.0
  0
LINE
  5
71A
330
1F
100
AcDbEntity
  8
1
  6
CONTINUOUS
370
50
 62
4
100
AcDbLine
 10
32.113762
 20
0.614379
 30
0.0
 11
31.840067
 21
0.725677
 31
0.0
  0
LINE
  5
71B
330
1F
100
AcDbEntity
  8
1
  6
CONTINUOUS
370
50
 62
4
100
AcDbLine
 10
49.598885
 20
-0.723571
 30
0.0
 11
49.325806
 21
-0.612526
 31
0.0
  0
LINE
  5
71C
330
1F
100
AcDbEntity
  8
1
  6
CONTINUOUS
370
50
 62
4
100
AcDbLine
 10
57.519016
 20
-0.747348
 30
0.0
 11
57.193298
 21
-0.6149629999999999
 31
0.0
  0
LINE
  5
71D
330
1F
100
AcDbEntity
  8
1
  6
CONTINUOUS
370
50
 62
4
100
AcDbLine
 10
23.488071
 20
-0.7492099999999999
 30
0.0
 11
23.162142
 21
-0.61691
 31
0.0
  0
LINE
  5
71E
330
1F
100
AcDbEntity
  8
1
  6
CONTINUOUS
370
50
 62
4
100
AcDbLine
 10
9.425393999999999
 20
0.612826
 30
0.0
 11
9.101265
 21
0.7442869999999999
 31
0.0
  0
LINE
  5
71F
330
1F
100
AcDbEntity
  8
1
  6
CONTINUOUS
370
50
 62
4
100
AcDbLine
 10
17.815905
 20
-0.7490249999999999
 30
0.0
 11
17.488997
 21
-0.616481
 31
0.0
  0
LINE
  5
720
330
1F
100
AcDbEntity
  8
1
  6
CONTINUOUS
370
50
 62
4
100
AcDbLine
 10
51.848549
 20
-0.7477349999999999
 30
0.0
 11
51.52208299999999
 21
-0.615498
 31
0.0
  0
LINE
  5
721
330
1F
100
AcDbEntity
  8
1
  6
CONTINUOUS
370
50
 62
4
100
AcDbLine
 10
29.205025
 20
-0.765089
 30
0.0
 11
28.786133
 21
-0.5958
 31
0.0
  0
LINE
  5
722
330
1F
100
AcDbEntity
  8
1
  6
CONTINUOUS
370
50
 62
4
100
AcDbLine
 10
29.877462
 20
0.634961
 30
0.0
 11
29.61105
 21
0.742541
 31
0.0
  0
LINE
  5
723
330
1F
100
AcDbEntity
  8
1
  6
CONTINUOUS
370
50
 62
4
100
AcDbLine
 10
24.205124
 20
0.635466
 30
0.0
 11
23.938162
 21
0.743149
 31
0.0
  0
LINE
  5
724
330
1F
100
AcDbEntity
  8
1
  6
CONTINUOUS
370
50
 62
4
100
AcDbLine
 10
35.549515
 20
0.635046
 30
0.0
 11
35.282925
 21
0.742161
 31
0.0
  0
LINE
  5
725
330
1F
100
AcDbEntity
  8
1
  6
CONTINUOUS
370
50
 62
4
100
AcDbLine
 10
52.61063799999999
 20
0.616796
 30
0.0
 11
52.280628
 21
0.749288
 31
0.0
  0
LINE
  5
726
330
1F
100
AcDbEntity
  8
1
  6
CONTINUOUS
370
50
 62
4
100
AcDbLine
 10
46.184155
 20
-0.750378
 30
0.0
 11
45.858444
 21
-0.619881
 31
0.0
  0
LINE
  5
727
330
1F
100
AcDbEntity
  8
1
  6
CONTINUOUS
370
50
 62
4
100
AcDbLine
 10
18.533392
 20
0.6358119999999999
 30
0.0
 11
18.264629
 21
0.74332
 31
0.0
  0
LINE
  5
728
330
1F
100
AcDbEntity
  8
1
  6
CONTINUOUS
370
50
 62
4
100
AcDbLine
 10
34.809063
 20
-0.7396499999999999
 30
0.0
 11
34.541718
 21
-0.632844
 31
0.0
  0
LINE
  5
729
330
1F
100
AcDbEntity
  8
1
  6
CONTINUOUS
370
50
 62
4
100
AcDbLine
 10
40.511925
 20
-0.750378
 30
0.0
 11
40.184597
 21
-0.620006
 31
0.0
  0
LINE
  5
72A
330
1F
100
AcDbEntity
  8
1
  6
CONTINUOUS
370
50
 62
4
100
AcDbLine
 10
41.221695
 20
0.635644
 30
0.0
 11
40.954269
 21
0.74213
 31
0.0
  0
LINE
  5
72B
330
1F
100
AcDbEntity
  8
1
  6
CONTINUOUS
370
50
 62
4
100
AcDbLine
 10
12.861206
 20
0.636076
 30
0.0
 11
12.591643
 21
0.7430329999999999
 31
0.0
  0
LINE
  5
72C
330
1F
100
AcDbEntity
  8
1
  6
CONTINUOUS
370
50
 62
4
100
AcDbLine
 10
46.894547
 20
0.6360049999999999
 30
0.0
 11
46.625431
 21
0.742603
 31
0.0
  0
LINE
  5
72D
330
1F
100
AcDbEntity
  8
1
  6
CONTINUOUS
370
50
 62
4
100
AcDbLine
 10
6.509098
 20
-0.761968
 30
0.0
 11
6.19334
 21
-0.6385149999999999
 31
0.0
  0
LINE
  5
72E
330
1F
100
AcDbEntity
  8
1
  6
CONTINUOUS
370
50
 62
4
100
AcDbLine
 10
12.142976
 20
-0.7484839999999999
 30
0.0
 11
11.979467
 21
-0.685078
 31
0.0
  0
LINE
  5
72F
330
1F
100
AcDbEntity
  8
1
  6
CONTINUOUS
370
50
 62
4
100
AcDbLine
 10
58.119366
 20
0.6855249999999999
 30
0.0
 11
57.937408
 21
0.755512
 31
0.0
  0
LINE
  5
730
330
1F
100
AcDbEntity
  8
1
  6
CONTINUOUS
370
50
 62
4
100
AcDbLine
 10
60.400002
 20
0.0
 30
0.0
 11
60.33007
 21
0.026232
 31
0.0
  0
LINE
  5
731
330
1F
100
AcDbEntity
  8
1
  6
CONTINUOUS
370
50
 62
4
100
AcDbLine
 10
3.413152
 20
0.781106
 30
0.0
 11
3.359841
 21
0.8010809999999999
 31
0.0
  0
LINE
  5
732
330
1F
100
AcDbEntity
  8
1
  6
CONTINUOUS
370
50
 62
4
100
AcDbLine
 10
4.400748
 20
-0.78947
 30
0.0
 11
4.102717
 21
-0.678493
 31
0.0
  0
LINE
  5
733
330
1F
100
AcDbEntity
  8
1
  6
CONTINUOUS
370
50
 62
4
100
AcDbLine
 10
10.026057
 20
-0.772284
 30
0.0
 11
9.837776
 21
-0.702827
 31
0.0
  0
LINE
  5
734
330
1F
100
AcDbEntity
  8
1
  6
CONTINUOUS
370
50
 62
4
100
AcDbLine
 10
60.400002
 20
0.0
 30
0.0
 11
60.32729
 21
0.026238
 31
0.0
  0
LINE
  5
735
330
1F
100
AcDbEntity
  8
1
  6
CONTINUOUS
370
50
 62
4
100
AcDbLine
 10
7.006505
 20
0.709171
 30
0.0
 11
6.723527
 21
0.810817
 31
0.0
  0
LINE
  5
736
330
1F
100
AcDbEntity
  8
1
  6
CONTINUOUS
370
50
 62
4
100
AcDbLine
 10
21.509544
 20
-0.8203809999999999
 30
0.0
 11
21.237595
 21
-0.724225
 31
0.0
  0
LINE
  5
737
330
1F
100
AcDbEntity
  8
1
  6
CONTINUOUS
370
50
 62
4
100
AcDbLine
 10
27.182112
 20
-0.82055
 30
0.0
 11
26.91
 21
-0.724607
 31
0.0
  0
LINE
  5
738
330
1F
100
AcDbEntity
  8
1
  6
CONTINUOUS
370
50
 62
4
100
AcDbLine
 10
15.837953
 20
-0.820322
 30
0.0
 11
15.56468
 21
-0.72414
 31
0.0
  0
LINE
  5
739
330
1F
100
AcDbEntity
  8
1
  6
CONTINUOUS
370
50
 62
4
100
AcDbLine
 10
31.840067
 20
0.725677
 30
0.0
 11
31.567028
 21
0.821687
 31
0.0
  0
LINE
  5
73A
330
1F
100
AcDbEntity
  8
1
  6
CONTINUOUS
370
50
 62
4
100
AcDbLine
 10
49.871368
 20
-0.819373
 30
0.0
 11
49.598885
 21
-0.723571
 31
0.0
  0
LINE
  5
73B
330
1F
100
AcDbEntity
  8
1
  6
CONTINUOUS
370
50
 62
4
100
AcDbLine
 10
12.305621
 20
-0.805663
 30
0.0
 11
12.142976
 21
-0.7484839999999999
 31
0.0
  0
LINE
  5
73C
330
1F
100
AcDbEntity
  8
1
  6
CONTINUOUS
370
50
 62
4
100
AcDbLine
 10
32.85453
 20
-0.820247
 30
0.0
 11
32.582016
 21
-0.7248629999999999
 31
0.0
  0
LINE
  5
73D
330
1F
100
AcDbEntity
  8
1
  6
CONTINUOUS
370
50
 62
4
100
AcDbLine
 10
44.200207
 20
-0.819565
 30
0.0
 11
43.925049
 21
-0.723868
 31
0.0
  0
LINE
  5
73E
330
1F
100
AcDbEntity
  8
1
  6
CONTINUOUS
370
50
 62
4
100
AcDbLine
 10
38.52739
 20
-0.8197869999999999
 30
0.0
 11
38.253448
 21
-0.72459
 31
0.0
  0
LINE
  5
73F
330
1F
100
AcDbEntity
  8
1
  6
CONTINUOUS
370
50
 62
4
100
AcDbLine
 10
35.282925
 20
0.742161
 30
0.0
 11
35.017197
 21
0.833186
 31
0.0
  0
LINE
  5
740
330
1F
100
AcDbEntity
  8
1
  6
CONTINUOUS
370
50
 62
4
100
AcDbLine
 10
55.620541
 20
-0.8434849999999999
 30
0.0
 11
55.283409
 21
-0.728067
 31
0.0
  0
LINE
  5
741
330
1F
100
AcDbEntity
  8
1
  6
CONTINUOUS
370
50
 62
4
100
AcDbLine
 10
40.954269
 20
0.74213
 30
0.0
 11
40.68869
 21
0.833038
 31
0.0
  0
LINE
  5
742
330
1F
100
AcDbEntity
  8
1
  6
CONTINUOUS
370
50
 62
4
100
AcDbLine
 10
35.076256
 20
-0.830565
 30
0.0
 11
34.809063
 21
-0.7396499999999999
 31
0.0
  0
LINE
  5
743
330
1F
100
AcDbEntity
  8
1
  6
CONTINUOUS
370
50
 62
4
100
AcDbLine
 10
29.61105
 20
0.742541
 30
0.0
 11
29.343611
 21
0.8334849999999999
 31
0.0
  0
LINE
  5
744
330
1F
100
AcDbEntity
  8
1
  6
CONTINUOUS
370
50
 62
4
100
AcDbLine
 10
46.625431
 20
0.742603
 30
0.0
 11
46.359596
 21
0.832996
 31
0.0
  0
LINE
  5
745
330
1F
100
AcDbEntity
  8
1
  6
CONTINUOUS
370
50
 62
4
100
AcDbLine
 10
12.591643
 20
0.7430329999999999
 30
0.0
 11
12.325524
 21
0.833422
 31
0.0
  0
LINE
  5
746
330
1F
100
AcDbEntity
  8
1
  6
CONTINUOUS
370
50
 62
4
100
AcDbLine
 10
20.487583
 20
0.729468
 30
0.0
 11
20.146168
 21
0.84542
 31
0.0
  0
LINE
  5
747
330
1F
100
AcDbEntity
  8
1
  6
CONTINUOUS
370
50
 62
4
100
AcDbLine
 10
37.503151
 20
0.7294229999999999
 30
0.0
 11
37.163292
 21
0.84475
 31
0.0
  0
LINE
  5
748
330
1F
100
AcDbEntity
  8
1
  6
CONTINUOUS
370
50
 62
4
100
AcDbLine
 10
54.523033
 20
0.728691
 30
0.0
 11
54.180656
 21
0.844718
 31
0.0
  0
LINE
  5
749
330
1F
100
AcDbEntity
  8
1
  6
CONTINUOUS
370
50
 62
4
100
AcDbLine
 10
14.818518
 20
0.728629
 30
0.0
 11
14.478029
 21
0.843738
 31
0.0
  0
LINE
  5
74A
330
1F
100
AcDbEntity
  8
1
  6
CONTINUOUS
370
50
 62
4
100
AcDbLine
 10
43.182858
 20
0.72725
 30
0.0
 11
42.840988
 21
0.8428019999999999
 31
0.0
  0
LINE
  5
74B
330
1F
100
AcDbEntity
  8
1
  6
CONTINUOUS
370
50
 62
4
100
AcDbLine
 10
57.937408
 20
0.755512
 30
0.0
 11
57.75346399999999
 21
0.81763
 31
0.0
  0
LINE
  5
74C
330
1F
100
AcDbEntity
  8
1
  6
CONTINUOUS
370
50
 62
4
100
AcDbLine
 10
18.264629
 20
0.74332
 30
0.0
 11
17.997087
 21
0.833436
 31
0.0
  0
LINE
  5
74D
330
1F
100
AcDbEntity
  8
1
  6
CONTINUOUS
370
50
 62
4
100
AcDbLine
 10
23.938162
 20
0.743149
 30
0.0
 11
23.669363
 21
0.833654
 31
0.0
  0
LINE
  5
74E
330
1F
100
AcDbEntity
  8
1
  6
CONTINUOUS
370
50
 62
4
100
AcDbLine
 10
48.849174
 20
0.729606
 30
0.0
 11
48.506943
 21
0.844692
 31
0.0
  0
LINE
  5
74F
330
1F
100
AcDbEntity
  8
1
  6
CONTINUOUS
370
50
 62
4
100
AcDbLine
 10
3.359841
 20
0.8010809999999999
 30
0.0
 11
3.306347
 21
0.81889
 31
0.0
  0
LINE
  5
750
330
1F
100
AcDbEntity
  8
1
  6
CONTINUOUS
370
50
 62
4
100
AcDbLine
 10
52.173569
 20
-0.854923
 30
0.0
 11
51.848549
 21
-0.7477349999999999
 31
0.0
  0
LINE
  5
751
330
1F
100
AcDbEntity
  8
1
  6
CONTINUOUS
370
50
 62
4
100
AcDbLine
 10
10.212806
 20
-0.833832
 30
0.0
 11
10.026057
 21
-0.772284
 31
0.0
  0
LINE
  5
752
330
1F
100
AcDbEntity
  8
1
  6
CONTINUOUS
370
50
 62
4
100
AcDbLine
 10
46.50882
 20
-0.8572339999999999
 30
0.0
 11
46.184155
 21
-0.750378
 31
0.0
  0
LINE
  5
753
330
1F
100
AcDbEntity
  8
1
  6
CONTINUOUS
370
50
 62
4
100
AcDbLine
 10
40.83700899999999
 20
-0.857225
 30
0.0
 11
40.511925
 21
-0.750378
 31
0.0
  0
LINE
  5
754
330
1F
100
AcDbEntity
  8
1
  6
CONTINUOUS
370
50
 62
4
100
AcDbLine
 10
18.143282
 20
-0.8566229999999999
 30
0.0
 11
17.815905
 21
-0.7490249999999999
 31
0.0
  0
LINE
  5
755
330
1F
100
AcDbEntity
  8
1
  6
CONTINUOUS
370
50
 62
4
100
AcDbLine
 10
9.101265
 20
0.7442869999999999
 30
0.0
 11
8.772221
 21
0.852325
 31
0.0
  0
LINE
  5
756
330
1F
100
AcDbEntity
  8
1
  6
CONTINUOUS
370
50
 62
4
100
AcDbLine
 10
57.846413
 20
-0.854501
 30
0.0
 11
57.519016
 21
-0.747348
 31
0.0
  0
LINE
  5
757
330
1F
100
AcDbEntity
  8
1
  6
CONTINUOUS
370
50
 62
4
100
AcDbLine
 10
26.16021
 20
0.7288519999999999
 30
0.0
 11
25.70557
 21
0.877236
 31
0.0
  0
LINE
  5
758
330
1F
100
AcDbEntity
  8
1
  6
CONTINUOUS
370
50
 62
4
100
AcDbLine
 10
52.280628
 20
0.749288
 30
0.0
 11
51.953148
 21
0.856151
 31
0.0
  0
LINE
  5
759
330
1F
100
AcDbEntity
  8
1
  6
CONTINUOUS
370
50
 62
4
100
AcDbLine
 10
23.816004
 20
-0.856112
 30
0.0
 11
23.488071
 21
-0.7492099999999999
 31
0.0
  0
LINE
  5
75A
330
1F
100
AcDbEntity
  8
1
  6
CONTINUOUS
370
50
 62
4
100
AcDbLine
 10
6.823214
 20
-0.86313
 30
0.0
 11
6.509098
 21
-0.761968
 31
0.0
  0
LINE
  5
75B
330
1F
100
AcDbEntity
  8
1
  6
CONTINUOUS
370
50
 62
4
100
AcDbLine
 10
12.467932
 20
-0.856004
 30
0.0
 11
12.305621
 21
-0.805663
 31
0.0
  0
LINE
  5
75C
330
1F
100
AcDbEntity
  8
1
  6
CONTINUOUS
370
50
 62
4
100
AcDbLine
 10
59.985786
 20
0.803329
 30
0.0
 11
59.821777
 21
0.854103
 31
0.0
  0
LINE
  5
75D
330
1F
100
AcDbEntity
  8
1
  6
CONTINUOUS
370
50
 62
4
100
AcDbLine
 10
29.627949
 20
-0.893432
 30
0.0
 11
29.205025
 21
-0.765089
 31
0.0
  0
LINE
  5
75E
330
1F
100
AcDbEntity
  8
1
  6
CONTINUOUS
370
50
 62
4
100
AcDbLine
 10
4.700184
 20
-0.8794299999999999
 30
0.0
 11
4.400748
 21
-0.78947
 31
0.0
  0
LINE
  5
75F
330
1F
100
AcDbEntity
  8
1
  6
CONTINUOUS
370
50
 62
4
100
AcDbLine
 10
57.75346399999999
 20
0.81763
 30
0.0
 11
57.568459
 21
0.8718849999999999
 31
0.0
  0
LINE
  5
760
330
1F
100
AcDbEntity
  8
1
  6
CONTINUOUS
370
50
 62
4
100
AcDbLine
 10
3.306347
 20
0.81889
 30
0.0
 11
3.252599
 21
0.834642
 31
0.0
  0
LINE
  5
761
330
1F
100
AcDbEntity
  8
1
  6
CONTINUOUS
370
50
 62
4
100
AcDbLine
 10
6.723527
 20
0.810817
 30
0.0
 11
6.440363
 21
0.8928079999999999
 31
0.0
  0
LINE
  5
762
330
1F
100
AcDbEntity
  8
1
  6
CONTINUOUS
370
50
 62
4
100
AcDbLine
 10
50.144386
 20
-0.8969469999999999
 30
0.0
 11
49.871368
 21
-0.819373
 31
0.0
  0
LINE
  5
763
330
1F
100
AcDbEntity
  8
1
  6
CONTINUOUS
370
50
 62
4
100
AcDbLine
 10
44.473457
 20
-0.8971629999999999
 30
0.0
 11
44.200207
 21
-0.819565
 31
0.0
  0
LINE
  5
764
330
1F
100
AcDbEntity
  8
1
  6
CONTINUOUS
370
50
 62
4
100
AcDbLine
 10
16.110708
 20
-0.89774
 30
0.0
 11
15.837953
 21
-0.820322
 31
0.0
  0
LINE
  5
765
330
1F
100
AcDbEntity
  8
1
  6
CONTINUOUS
370
50
 62
4
100
AcDbLine
 10
10.399134
 20
-0.886675
 30
0.0
 11
10.212806
 21
-0.833832
 31
0.0
  0
LINE
  5
766
330
1F
100
AcDbEntity
  8
1
  6
CONTINUOUS
370
50
 62
4
100
AcDbLine
 10
21.78265
 20
-0.8974129999999999
 30
0.0
 11
21.509544
 21
-0.8203809999999999
 31
0.0
  0
LINE
  5
767
330
1F
100
AcDbEntity
  8
1
  6
CONTINUOUS
370
50
 62
4
100
AcDbLine
 10
38.802433
 20
-0.8972819999999999
 30
0.0
 11
38.52739
 21
-0.8197869999999999
 31
0.0
  0
LINE
  5
768
330
1F
100
AcDbEntity
  8
1
  6
CONTINUOUS
370
50
 62
4
100
AcDbLine
 10
31.567028
 20
0.821687
 30
0.0
 11
31.292439
 21
0.899007
 31
0.0
  0
LINE
  5
769
330
1F
100
AcDbEntity
  8
1
  6
CONTINUOUS
370
50
 62
4
100
AcDbLine
 10
27.456612
 20
-0.8973049999999999
 30
0.0
 11
27.182112
 21
-0.82055
 31
0.0
  0
LINE
  5
76A
330
1F
100
AcDbEntity
  8
1
  6
CONTINUOUS
370
50
 62
4
100
AcDbLine
 10
33.130589
 20
-0.89733
 30
0.0
 11
32.85453
 21
-0.820247
 31
0.0
  0
LINE
  5
76B
330
1F
100
AcDbEntity
  8
1
  6
CONTINUOUS
370
50
 62
4
100
AcDbLine
 10
35.342201
 20
-0.9038809999999999
 30
0.0
 11
35.076256
 21
-0.830565
 31
0.0
  0
LINE
  5
76C
330
1F
100
AcDbEntity
  8
1
  6
CONTINUOUS
370
50
 62
4
100
AcDbLine
 10
12.325524
 20
0.833422
 30
0.0
 11
12.060628
 21
0.906044
 31
0.0
  0
LINE
  5
76D
330
1F
100
AcDbEntity
  8
1
  6
CONTINUOUS
370
50
 62
4
100
AcDbLine
 10
46.359596
 20
0.832996
 30
0.0
 11
46.094822
 21
0.9054979999999999
 31
0.0
  0
LINE
  5
76E
330
1F
100
AcDbEntity
  8
1
  6
CONTINUOUS
370
50
 62
4
100
AcDbLine
 10
17.997087
 20
0.833436
 30
0.0
 11
17.732038
 21
0.90587
 31
0.0
  0
LINE
  5
76F
330
1F
100
AcDbEntity
  8
1
  6
CONTINUOUS
370
50
 62
4
100
AcDbLine
 10
40.68869
 20
0.833038
 30
0.0
 11
40.422512
 21
0.9055559999999999
 31
0.0
  0
LINE
  5
770
330
1F
100
AcDbEntity
  8
1
  6
CONTINUOUS
370
50
 62
4
100
AcDbLine
 10
23.669363
 20
0.833654
 30
0.0
 11
23.403931
 21
0.905609
 31
0.0
  0
LINE
  5
771
330
1F
100
AcDbEntity
  8
1
  6
CONTINUOUS
370
50
 62
4
100
AcDbLine
 10
35.017197
 20
0.833186
 30
0.0
 11
34.749466
 21
0.9054479999999999
 31
0.0
  0
LINE
  5
772
330
1F
100
AcDbEntity
  8
1
  6
CONTINUOUS
370
50
 62
4
100
AcDbLine
 10
29.343611
 20
0.8334849999999999
 30
0.0
 11
29.076635
 21
0.90538
 31
0.0
  0
LINE
  5
773
330
1F
100
AcDbEntity
  8
1
  6
CONTINUOUS
370
50
 62
4
100
AcDbLine
 10
12.631352
 20
-0.8992519999999999
 30
0.0
 11
12.467932
 21
-0.856004
 31
0.0
  0
LINE
  5
774
330
1F
100
AcDbEntity
  8
1
  6
CONTINUOUS
370
50
 62
4
100
AcDbLine
 10
59.821777
 20
0.854103
 30
0.0
 11
59.657017
 21
0.8975789999999999
 31
0.0
  0
LINE
  5
775
330
1F
100
AcDbEntity
  8
1
  6
CONTINUOUS
370
50
 62
4
100
AcDbLine
 10
1.9
 20
1.0
 30
0.0
 11
0.0
 21
1.5
 31
0.0
  0
LINE
  5
776
330
1F
100
AcDbEntity
  8
1
  6
CONTINUOUS
370
50
 62
4
100
AcDbLine
 10
3.252599
 20
0.834642
 30
0.0
 11
3.198522
 21
0.8484459999999999
 31
0.0
  0
LINE
  5
777
330
1F
100
AcDbEntity
  8
1
  6
CONTINUOUS
370
50
 62
4
100
AcDbLine
 10
42.840988
 20
0.8428019999999999
 30
0.0
 11
42.50087
 21
0.929302
 31
0.0
  0
LINE
  5
778
330
1F
100
AcDbEntity
  8
1
  6
CONTINUOUS
370
50
 62
4
100
AcDbLine
 10
14.478029
 20
0.843738
 30
0.0
 11
14.137349
 21
0.9298409999999999
 31
0.0
  0
LINE
  5
779
330
1F
100
AcDbEntity
  8
1
  6
CONTINUOUS
370
50
 62
4
100
AcDbLine
 10
37.163292
 20
0.84475
 30
0.0
 11
36.823097
 21
0.9305829999999999
 31
0.0
  0
LINE
  5
77A
330
1F
100
AcDbEntity
  8
1
  6
CONTINUOUS
370
50
 62
4
100
AcDbLine
 10
48.506943
 20
0.844692
 30
0.0
 11
48.167385
 21
0.9301769999999999
 31
0.0
  0
LINE
  5
77B
330
1F
100
AcDbEntity
  8
1
  6
CONTINUOUS
370
50
 62
4
100
AcDbLine
 10
55.960617
 20
-0.928933
 30
0.0
 11
55.620541
 21
-0.8434849999999999
 31
0.0
  0
LINE
  5
77C
330
1F
100
AcDbEntity
  8
1
  6
CONTINUOUS
370
50
 62
4
100
AcDbLine
 10
54.180656
 20
0.844718
 30
0.0
 11
53.839771
 21
0.9298529999999999
 31
0.0
  0
LINE
  5
77D
330
1F
100
AcDbEntity
  8
1
  6
CONTINUOUS
370
50
 62
4
100
AcDbLine
 10
20.146168
 20
0.84542
 30
0.0
 11
19.80488
 21
0.93055
 31
0.0
  0
LINE
  5
77E
330
1F
100
AcDbEntity
  8
1
  6
CONTINUOUS
370
50
 62
4
100
AcDbLine
 10
57.568459
 20
0.8718849999999999
 30
0.0
 11
57.383995
 21
0.917499
 31
0.0
  0
LINE
  5
77F
330
1F
100
AcDbEntity
  8
1
  6
CONTINUOUS
370
50
 62
4
100
AcDbLine
 10
8.772221
 20
0.852325
 30
0.0
 11
8.447022
 21
0.9326629999999999
 31
0.0
  0
LINE
  5
780
330
1F
100
AcDbEntity
  8
1
  6
CONTINUOUS
370
50
 62
4
100
AcDbLine
 10
51.953148
 20
0.856151
 30
0.0
 11
51.628471
 21
0.93534
 31
0.0
  0
LINE
  5
781
330
1F
100
AcDbEntity
  8
1
  6
CONTINUOUS
370
50
 62
4
100
AcDbLine
 10
58.175468
 20
-0.9343849999999999
 30
0.0
 11
57.846413
 21
-0.854501
 31
0.0
  0
LINE
  5
782
330
1F
100
AcDbEntity
  8
1
  6
CONTINUOUS
370
50
 62
4
100
AcDbLine
 10
24.144119
 20
-0.9356909999999999
 30
0.0
 11
23.816004
 21
-0.856112
 31
0.0
  0
LINE
  5
783
330
1F
100
AcDbEntity
  8
1
  6
CONTINUOUS
370
50
 62
4
100
AcDbLine
 10
41.162083
 20
-0.9358299999999999
 30
0.0
 11
40.83700899999999
 21
-0.857225
 31
0.0
  0
LINE
  5
784
330
1F
100
AcDbEntity
  8
1
  6
CONTINUOUS
370
50
 62
4
100
AcDbLine
 10
52.502708
 20
-0.934319
 30
0.0
 11
52.173569
 21
-0.854923
 31
0.0
  0
LINE
  5
785
330
1F
100
AcDbEntity
  8
1
  6
CONTINUOUS
370
50
 62
4
100
AcDbLine
 10
18.471699
 20
-0.9356479999999999
 30
0.0
 11
18.143282
 21
-0.8566229999999999
 31
0.0
  0
LINE
  5
786
330
1F
100
AcDbEntity
  8
1
  6
CONTINUOUS
370
50
 62
4
100
AcDbLine
 10
10.523795
 20
-0.917725
 30
0.0
 11
10.4
 21
-0.88796
 31
0.0
  0
LINE
  5
787
330
1F
100
AcDbEntity
  8
1
  6
CONTINUOUS
370
50
 62
4
100
AcDbLine
 10
46.83512899999999
 20
-0.9355049999999999
 30
0.0
 11
46.50882
 21
-0.8572339999999999
 31
0.0
  0
LINE
  5
788
330
1F
100
AcDbEntity
  8
1
  6
CONTINUOUS
370
50
 62
4
100
AcDbLine
 10
7.141119
 20
-0.938151
 30
0.0
 11
6.823214
 21
-0.86313
 31
0.0
  0
LINE
  5
789
330
1F
100
AcDbEntity
  8
1
  6
CONTINUOUS
370
50
 62
4
100
AcDbLine
 10
4.99658
 20
-0.9457589999999999
 30
0.0
 11
4.700184
 21
-0.8794299999999999
 31
0.0
  0
LINE
  5
78A
330
1F
100
AcDbEntity
  8
1
  6
CONTINUOUS
370
50
 62
4
100
AcDbLine
 10
3.198522
 20
0.8484459999999999
 30
0.0
 11
3.144047
 21
0.8604109999999999
 31
0.0
  0
LINE
  5
78B
330
1F
100
AcDbEntity
  8
1
  6
CONTINUOUS
370
50
 62
4
100
AcDbLine
 10
59.657017
 20
0.8975789999999999
 30
0.0
 11
59.491524
 21
0.933843
 31
0.0
  0
LINE
  5
78C
330
1F
100
AcDbEntity
  8
1
  6
CONTINUOUS
370
50
 62
4
100
AcDbLine
 10
12.796083
 20
-0.9351849999999999
 30
0.0
 11
12.631352
 21
-0.8992519999999999
 31
0.0
  0
LINE
  5
78D
330
1F
100
AcDbEntity
  8
1
  6
CONTINUOUS
370
50
 62
4
100
AcDbLine
 10
6.440363
 20
0.8928079999999999
 30
0.0
 11
6.155262
 21
0.9521409999999999
 31
0.0
  0
LINE
  5
78E
330
1F
100
AcDbEntity
  8
1
  6
CONTINUOUS
370
50
 62
4
100
AcDbLine
 10
39.076187
 20
-0.954175
 30
0.0
 11
38.802433
 21
-0.8972819999999999
 31
0.0
  0
LINE
  5
78F
330
1F
100
AcDbEntity
  8
1
  6
CONTINUOUS
370
50
 62
4
100
AcDbLine
 10
33.404957
 20
-0.954294
 30
0.0
 11
33.130589
 21
-0.89733
 31
0.0
  0
LINE
  5
790
330
1F
100
AcDbEntity
  8
1
  6
CONTINUOUS
370
50
 62
4
100
AcDbLine
 10
44.747421
 20
-0.953882
 30
0.0
 11
44.473457
 21
-0.8971629999999999
 31
0.0
  0
LINE
  5
791
330
1F
100
AcDbEntity
  8
1
  6
CONTINUOUS
370
50
 62
4
100
AcDbLine
 10
27.732775
 20
-0.9542229999999999
 30
0.0
 11
27.456612
 21
-0.8973049999999999
 31
0.0
  0
LINE
  5
792
330
1F
100
AcDbEntity
  8
1
  6
CONTINUOUS
370
50
 62
4
100
AcDbLine
 10
50.41943
 20
-0.9535119999999999
 30
0.0
 11
50.144386
 21
-0.8969469999999999
 31
0.0
  0
LINE
  5
793
330
1F
100
AcDbEntity
  8
1
  6
CONTINUOUS
370
50
 62
4
100
AcDbLine
 10
16.385626
 20
-0.954159
 30
0.0
 11
16.110708
 21
-0.89774
 31
0.0
  0
LINE
  5
794
330
1F
100
AcDbEntity
  8
1
  6
CONTINUOUS
370
50
 62
4
100
AcDbLine
 10
22.059273
 20
-0.954052
 30
0.0
 11
21.78265
 21
-0.8974129999999999
 31
0.0
  0
LINE
  5
795
330
1F
100
AcDbEntity
  8
1
  6
CONTINUOUS
370
50
 62
4
100
AcDbLine
 10
10.647662
 20
-0.943004
 30
0.0
 11
10.523795
 21
-0.917725
 31
0.0
  0
LINE
  5
796
330
1F
100
AcDbEntity
  8
1
  6
CONTINUOUS
370
50
 62
4
100
AcDbLine
 10
31.292439
 20
0.899007
 30
0.0
 11
31.016933
 21
0.9549139999999999
 31
0.0
  0
LINE
  5
797
330
1F
100
AcDbEntity
  8
1
  6
CONTINUOUS
370
50
 62
4
100
AcDbLine
 10
25.70557
 20
0.877236
 30
0.0
 11
25.251577
 21
0.969167
 31
0.0
  0
LINE
  5
798
330
1F
100
AcDbEntity
  8
1
  6
CONTINUOUS
370
50
 62
4
100
AcDbLine
 10
35.60799799999999
 20
-0.9571149999999999
 30
0.0
 11
35.342201
 21
-0.9038809999999999
 31
0.0
  0
LINE
  5
799
330
1F
100
AcDbEntity
  8
1
  6
CONTINUOUS
370
50
 62
4
100
AcDbLine
 10
23.403931
 20
0.905609
 30
0.0
 11
23.139851
 21
0.9583579999999999
 31
0.0
  0
LINE
  5
79A
330
1F
100
AcDbEntity
  8
1
  6
CONTINUOUS
370
50
 62
4
100
AcDbLine
 10
29.076635
 20
0.90538
 30
0.0
 11
28.812447
 21
0.9580059999999999
 31
0.0
  0
LINE
  5
79B
330
1F
100
AcDbEntity
  8
1
  6
CONTINUOUS
370
50
 62
4
100
AcDbLine
 10
17.732038
 20
0.90587
 30
0.0
 11
17.467279
 21
0.958603
 31
0.0
  0
LINE
  5
79C
330
1F
100
AcDbEntity
  8
1
  6
CONTINUOUS
370
50
 62
4
100
AcDbLine
 10
34.749466
 20
0.9054479999999999
 30
0.0
 11
34.484776
 21
0.957739
 31
0.0
  0
LINE
  5
79D
330
1F
100
AcDbEntity
  8
1
  6
CONTINUOUS
370
50
 62
4
100
AcDbLine
 10
12.060628
 20
0.906044
 30
0.0
 11
11.794021
 21
0.9586669999999999
 31
0.0
  0
LINE
  5
79E
330
1F
100
AcDbEntity
  8
1
  6
CONTINUOUS
370
50
 62
4
100
AcDbLine
 10
46.094822
 20
0.9054979999999999
 30
0.0
 11
45.828064
 21
0.957986
 31
0.0
  0
LINE
  5
79F
330
1F
100
AcDbEntity
  8
1
  6
CONTINUOUS
370
50
 62
4
100
AcDbLine
 10
40.422512
 20
0.9055559999999999
 30
0.0
 11
40.156075
 21
0.9578139999999999
 31
0.0
  0
LINE
  5
7A0
330
1F
100
AcDbEntity
  8
1
  6
CONTINUOUS
370
50
 62
4
100
AcDbLine
 10
57.383995
 20
0.917499
 30
0.0
 11
57.20027899999999
 21
0.953444
 31
0.0
  0
LINE
  5
7A1
330
1F
100
AcDbEntity
  8
1
  6
CONTINUOUS
370
50
 62
4
100
AcDbLine
 10
30.048269
 20
-0.973559
 30
0.0
 11
29.627949
 21
-0.893432
 31
0.0
  0
LINE
  5
7A2
330
1F
100
AcDbEntity
  8
1
  6
CONTINUOUS
370
50
 62
4
100
AcDbLine
 10
3.144047
 20
0.8604109999999999
 30
0.0
 11
3.089099
 21
0.870647
 31
0.0
  0
LINE
  5
7A3
330
1F
100
AcDbEntity
  8
1
  6
CONTINUOUS
370
50
 62
4
100
AcDbLine
 10
59.491524
 20
0.933843
 30
0.0
 11
59.32724
 21
0.9625499999999999
 31
0.0
  0
LINE
  5
7A4
330
1F
100
AcDbEntity
  8
1
  6
CONTINUOUS
370
50
 62
4
100
AcDbLine
 10
12.960633
 20
-0.9637319999999999
 30
0.0
 11
12.796083
 21
-0.9351849999999999
 31
0.0
  0
LINE
  5
7A5
330
1F
100
AcDbEntity
  8
1
  6
CONTINUOUS
370
50
 62
4
100
AcDbLine
 10
10.772111
 20
-0.963753
 30
0.0
 11
10.647662
 21
-0.943004
 31
0.0
  0
LINE
  5
7A6
330
1F
100
AcDbEntity
  8
1
  6
CONTINUOUS
370
50
 62
4
100
AcDbLine
 10
14.137349
 20
0.9298409999999999
 30
0.0
 11
13.795935
 21
0.9830979999999999
 31
0.0
  0
LINE
  5
7A7
330
1F
100
AcDbEntity
  8
1
  6
CONTINUOUS
370
50
 62
4
100
AcDbLine
 10
3.089099
 20
0.870647
 30
0.0
 11
3.03416
 21
0.879191
 31
0.0
  0
LINE
  5
7A8
330
1F
100
AcDbEntity
  8
1
  6
CONTINUOUS
370
50
 62
4
100
AcDbLine
 10
53.839771
 20
0.9298529999999999
 30
0.0
 11
53.50082399999999
 21
0.9825029999999999
 31
0.0
  0
LINE
  5
7A9
330
1F
100
AcDbEntity
  8
1
  6
CONTINUOUS
370
50
 62
4
100
AcDbLine
 10
19.80488
 20
0.93055
 30
0.0
 11
19.465801
 21
0.98322
 31
0.0
  0
LINE
  5
7AA
330
1F
100
AcDbEntity
  8
1
  6
CONTINUOUS
370
50
 62
4
100
AcDbLine
 10
56.303406
 20
-0.9820559999999999
 30
0.0
 11
55.960617
 21
-0.928933
 31
0.0
  0
LINE
  5
7AB
330
1F
100
AcDbEntity
  8
1
  6
CONTINUOUS
370
50
 62
4
100
AcDbLine
 10
42.50087
 20
0.929302
 30
0.0
 11
42.157463
 21
0.9824419999999999
 31
0.0
  0
LINE
  5
7AC
330
1F
100
AcDbEntity
  8
1
  6
CONTINUOUS
370
50
 62
4
100
AcDbLine
 10
48.167385
 20
0.9301769999999999
 30
0.0
 11
47.827347
 21
0.9827279999999999
 31
0.0
  0
LINE
  5
7AD
330
1F
100
AcDbEntity
  8
1
  6
CONTINUOUS
370
50
 62
4
100
AcDbLine
 10
36.823097
 20
0.9305829999999999
 30
0.0
 11
36.481289
 21
0.9828
 31
0.0
  0
LINE
  5
7AE
330
1F
100
AcDbEntity
  8
1
  6
CONTINUOUS
370
50
 62
4
100
AcDbLine
 10
8.447022
 20
0.9326629999999999
 30
0.0
 11
8.120852
 21
0.9822569999999999
 31
0.0
  0
LINE
  5
7AF
330
1F
100
AcDbEntity
  8
1
  6
CONTINUOUS
370
50
 62
4
100
AcDbLine
 10
52.830727
 20
-0.9836109999999999
 30
0.0
 11
52.502708
 21
-0.934319
 31
0.0
  0
LINE
  5
7B0
330
1F
100
AcDbEntity
  8
1
  6
CONTINUOUS
370
50
 62
4
100
AcDbLine
 10
58.503407
 20
-0.983606
 30
0.0
 11
58.175468
 21
-0.9343849999999999
 31
0.0
  0
LINE
  5
7B1
330
1F
100
AcDbEntity
  8
1
  6
CONTINUOUS
370
50
 62
4
100
AcDbLine
 10
18.797802
 20
-0.984467
 30
0.0
 11
18.471699
 21
-0.9356479999999999
 31
0.0
  0
LINE
  5
7B2
330
1F
100
AcDbEntity
  8
1
  6
CONTINUOUS
370
50
 62
4
100
AcDbLine
 10
24.469893
 20
-0.984383
 30
0.0
 11
24.144119
 21
-0.9356909999999999
 31
0.0
  0
LINE
  5
7B3
330
1F
100
AcDbEntity
  8
1
  6
CONTINUOUS
370
50
 62
4
100
AcDbLine
 10
47.161835
 20
-0.9839549999999999
 30
0.0
 11
46.83512899999999
 21
-0.9355049999999999
 31
0.0
  0
LINE
  5
7B4
330
1F
100
AcDbEntity
  8
1
  6
CONTINUOUS
370
50
 62
4
100
AcDbLine
 10
51.628471
 20
0.93534
 30
0.0
 11
51.302166
 21
0.9836199999999999
 31
0.0
  0
LINE
  5
7B5
330
1F
100
AcDbEntity
  8
1
  6
CONTINUOUS
370
50
 62
4
100
AcDbLine
 10
41.489296
 20
-0.983981
 30
0.0
 11
41.162083
 21
-0.9358299999999999
 31
0.0
  0
LINE
  5
7B6
330
1F
100
AcDbEntity
  8
1
  6
CONTINUOUS
370
50
 62
4
100
AcDbLine
 10
7.459530999999999
 20
-0.984186
 30
0.0
 11
7.141119
 21
-0.938151
 31
0.0
  0
LINE
  5
7B7
330
1F
100
AcDbEntity
  8
1
  6
CONTINUOUS
370
50
 62
4
100
AcDbLine
 10
57.20027899999999
 20
0.953444
 30
0.0
 11
57.01667399999999
 21
0.9792249999999999
 31
0.0
  0
LINE
  5
7B8
330
1F
100
AcDbEntity
  8
1
  6
CONTINUOUS
370
50
 62
4
100
AcDbLine
 10
5.293896999999999
 20
-0.986127
 30
0.0
 11
4.99658
 21
-0.9457589999999999
 31
0.0
  0
LINE
  5
7B9
330
1F
100
AcDbEntity
  8
1
  6
CONTINUOUS
370
50
 62
4
100
AcDbLine
 10
10.896786
 20
-0.979926
 30
0.0
 11
10.772111
 21
-0.963753
 31
0.0
  0
LINE
  5
7BA
330
1F
100
AcDbEntity
  8
1
  6
CONTINUOUS
370
50
 62
4
100
AcDbLine
 10
6.155262
 20
0.9521409999999999
 30
0.0
 11
5.873196
 21
0.988081
 31
0.0
  0
LINE
  5
7BB
330
1F
100
AcDbEntity
  8
1
  6
CONTINUOUS
370
50
 62
4
100
AcDbLine
 10
22.334524
 20
-0.989011
 30
0.0
 11
22.059273
 21
-0.954052
 31
0.0
  0
LINE
  5
7BC
330
1F
100
AcDbEntity
  8
1
  6
CONTINUOUS
370
50
 62
4
100
AcDbLine
 10
3.03416
 20
0.879191
 30
0.0
 11
2.980527
 21
0.885992
 31
0.0
  0
LINE
  5
7BD
330
1F
100
AcDbEntity
  8
1
  6
CONTINUOUS
370
50
 62
4
100
AcDbLine
 10
28.00737
 20
-0.9890359999999999
 30
0.0
 11
27.732775
 21
-0.9542229999999999
 31
0.0
  0
LINE
  5
7BE
330
1F
100
AcDbEntity
  8
1
  6
CONTINUOUS
370
50
 62
4
100
AcDbLine
 10
59.32724
 20
0.9625499999999999
 30
0.0
 11
59.16328799999999
 21
0.9833069999999999
 31
0.0
  0
LINE
  5
7BF
330
1F
100
AcDbEntity
  8
1
  6
CONTINUOUS
370
50
 62
4
100
AcDbLine
 10
33.679821
 20
-0.9889469999999999
 30
0.0
 11
33.404957
 21
-0.954294
 31
0.0
  0
LINE
  5
7C0
330
1F
100
AcDbEntity
  8
1
  6
CONTINUOUS
370
50
 62
4
100
AcDbLine
 10
16.662718
 20
-0.989065
 30
0.0
 11
16.385626
 21
-0.954159
 31
0.0
  0
LINE
  5
7C1
330
1F
100
AcDbEntity
  8
1
  6
CONTINUOUS
370
50
 62
4
100
AcDbLine
 10
13.124795
 20
-0.984397
 30
0.0
 11
12.960633
 21
-0.9637319999999999
 31
0.0
  0
LINE
  5
7C2
330
1F
100
AcDbEntity
  8
1
  6
CONTINUOUS
370
50
 62
4
100
AcDbLine
 10
50.696926
 20
-0.988363
 30
0.0
 11
50.41943
 21
-0.9535119999999999
 31
0.0
  0
LINE
  5
7C3
330
1F
100
AcDbEntity
  8
1
  6
CONTINUOUS
370
50
 62
4
100
AcDbLine
 10
39.351593
 20
-0.988683
 30
0.0
 11
39.076187
 21
-0.954175
 31
0.0
  0
LINE
  5
7C4
330
1F
100
AcDbEntity
  8
1
  6
CONTINUOUS
370
50
 62
4
100
AcDbLine
 10
31.016933
 20
0.9549139999999999
 30
0.0
 11
30.744427
 21
0.989035
 31
0.0
  0
LINE
  5
7C5
330
1F
100
AcDbEntity
  8
1
  6
CONTINUOUS
370
50
 62
4
100
AcDbLine
 10
45.024532
 20
-0.9884839999999999
 30
0.0
 11
44.747421
 21
-0.953882
 31
0.0
  0
LINE
  5
7C6
330
1F
100
AcDbEntity
  8
1
  6
CONTINUOUS
370
50
 62
4
100
AcDbLine
 10
34.484776
 20
0.957739
 30
0.0
 11
34.221672
 21
0.989787
 31
0.0
  0
LINE
  5
7C7
330
1F
100
AcDbEntity
  8
1
  6
CONTINUOUS
370
50
 62
4
100
AcDbLine
 10
28.812447
 20
0.9580059999999999
 30
0.0
 11
28.548903
 21
0.990008
 31
0.0
  0
LINE
  5
7C8
330
1F
100
AcDbEntity
  8
1
  6
CONTINUOUS
370
50
 62
4
100
AcDbLine
 10
40.156075
 20
0.9578139999999999
 30
0.0
 11
39.892693
 21
0.989679
 31
0.0
  0
LINE
  5
7C9
330
1F
100
AcDbEntity
  8
1
  6
CONTINUOUS
370
50
 62
4
100
AcDbLine
 10
35.876213
 20
-0.9894879999999999
 30
0.0
 11
35.60799799999999
 21
-0.9571149999999999
 31
0.0
  0
LINE
  5
7CA
330
1F
100
AcDbEntity
  8
1
  6
CONTINUOUS
370
50
 62
4
100
AcDbLine
 10
23.139851
 20
0.9583579999999999
 30
0.0
 11
22.874401
 21
0.9902209999999999
 31
0.0
  0
LINE
  5
7CB
330
1F
100
AcDbEntity
  8
1
  6
CONTINUOUS
370
50
 62
4
100
AcDbLine
 10
45.828064
 20
0.957986
 30
0.0
 11
45.563843
 21
0.9895959999999999
 31
0.0
  0
LINE
  5
7CC
330
1F
100
AcDbEntity
  8
1
  6
CONTINUOUS
370
50
 62
4
100
AcDbLine
 10
11.794021
 20
0.9586669999999999
 30
0.0
 11
11.529222
 21
0.990297
 31
0.0
  0
LINE
  5
7CD
330
1F
100
AcDbEntity
  8
1
  6
CONTINUOUS
370
50
 62
4
100
AcDbLine
 10
17.467279
 20
0.958603
 30
0.0
 11
17.200956
 21
0.990292
 31
0.0
  0
LINE
  5
7CE
330
1F
100
AcDbEntity
  8
1
  6
CONTINUOUS
370
50
 62
4
100
AcDbLine
 10
2.980527
 20
0.885992
 30
0.0
 11
2.928329
 21
0.891166
 31
0.0
  0
LINE
  5
7CF
330
1F
100
AcDbEntity
  8
1
  6
CONTINUOUS
370
50
 62
4
100
AcDbLine
 10
59.97677599999999
 20
0.9998929999999999
 30
0.0
 11
59.976639
 21
0.999906
 31
0.0
  0
LINE
  5
7D0
330
1F
100
AcDbEntity
  8
1
  6
CONTINUOUS
370
50
 62
4
100
AcDbLine
 10
11.020802
 20
-0.991587
 30
0.0
 11
10.896786
 21
-0.979926
 31
0.0
  0
LINE
  5
7D1
330
1F
100
AcDbEntity
  8
1
  6
CONTINUOUS
370
50
 62
4
100
AcDbLine
 10
57.01667399999999
 20
0.9792249999999999
 30
0.0
 11
56.83115
 21
0.994792
 31
0.0
  0
LINE
  5
7D2
330
1F
100
AcDbEntity
  8
1
  6
CONTINUOUS
370
50
 62
4
100
AcDbLine
 10
59.16328799999999
 20
0.9833069999999999
 30
0.0
 11
58.998577
 21
0.995856
 31
0.0
  0
LINE
  5
7D3
330
1F
100
AcDbEntity
  8
1
  6
CONTINUOUS
370
50
 62
4
100
AcDbLine
 10
13.288131
 20
-0.9968079999999999
 30
0.0
 11
13.124795
 21
-0.984397
 31
0.0
  0
LINE
  5
7D4
330
1F
100
AcDbEntity
  8
1
  6
CONTINUOUS
370
50
 62
4
100
AcDbLine
 10
2.928329
 20
0.891166
 30
0.0
 11
2.877642
 21
0.8948339999999999
 31
0.0
  0
LINE
  5
7D5
330
1F
100
AcDbEntity
  8
1
  6
CONTINUOUS
370
50
 62
4
100
AcDbLine
 10
25.251577
 20
0.969167
 30
0.0
 11
24.799267
 21
1.00071
 31
0.0
  0
LINE
  5
7D6
330
1F
100
AcDbEntity
  8
1
  6
CONTINUOUS
370
50
 62
4
100
AcDbLine
 10
30.47172
 20
-1.000595
 30
0.0
 11
30.048269
 21
-0.973559
 31
0.0
  0
LINE
  5
7D7
330
1F
100
AcDbEntity
  8
1
  6
CONTINUOUS
370
50
 62
4
100
AcDbLine
 10
11.143939
 20
-0.998625
 30
0.0
 11
11.020802
 21
-0.991587
 31
0.0
  0
LINE
  5
7D8
330
1F
100
AcDbEntity
  8
1
  6
CONTINUOUS
370
50
 62
4
100
AcDbLine
 10
8.120852
 20
0.9822569999999999
 30
0.0
 11
7.790445999999999
 21
0.9999819999999999
 31
0.0
  0
LINE
  5
7D9
330
1F
100
AcDbEntity
  8
1
  6
CONTINUOUS
370
50
 62
4
100
AcDbLine
 10
56.644306
 20
-1.000067
 30
0.0
 11
56.303406
 21
-0.9820559999999999
 31
0.0
  0
LINE
  5
7DA
330
1F
100
AcDbEntity
  8
1
  6
CONTINUOUS
370
50
 62
4
100
AcDbLine
 10
36.481289
 20
0.9828
 30
0.0
 11
36.143215
 21
1.000481
 31
0.0
  0
LINE
  5
7DB
330
1F
100
AcDbEntity
  8
1
  6
CONTINUOUS
370
50
 62
4
100
AcDbLine
 10
42.157463
 20
0.9824419999999999
 30
0.0
 11
41.814434
 21
1.000366
 31
0.0
  0
LINE
  5
7DC
330
1F
100
AcDbEntity
  8
1
  6
CONTINUOUS
370
50
 62
4
100
AcDbLine
 10
13.795935
 20
0.9830979999999999
 30
0.0
 11
13.451755
 21
1.000938
 31
0.0
  0
LINE
  5
7DD
330
1F
100
AcDbEntity
  8
1
  6
CONTINUOUS
370
50
 62
4
100
AcDbLine
 10
19.465801
 20
0.98322
 30
0.0
 11
19.125393
 21
1.000824
 31
0.0
  0
LINE
  5
7DE
330
1F
100
AcDbEntity
  8
1
  6
CONTINUOUS
370
50
 62
4
100
AcDbLine
 10
53.50082399999999
 20
0.9825029999999999
 30
0.0
 11
53.15934799999999
 21
1.000138
 31
0.0
  0
LINE
  5
7DF
330
1F
100
AcDbEntity
  8
1
  6
CONTINUOUS
370
50
 62
4
100
AcDbLine
 10
47.827347
 20
0.9827279999999999
 30
0.0
 11
47.486195
 21
1.000252
 31
0.0
  0
LINE
  5
7E0
330
1F
100
AcDbEntity
  8
1
  6
CONTINUOUS
370
50
 62
4
100
AcDbLine
 10
41.814434
 20
-1.000366
 30
0.0
 11
41.489296
 21
-0.983981
 31
0.0
  0
LINE
  5
7E1
330
1F
100
AcDbEntity
  8
1
  6
CONTINUOUS
370
50
 62
4
100
AcDbLine
 10
53.15934799999999
 20
-1.000138
 30
0.0
 11
52.830727
 21
-0.9836109999999999
 31
0.0
  0
LINE
  5
7E2
330
1F
100
AcDbEntity
  8
1
  6
CONTINUOUS
370
50
 62
4
100
AcDbLine
 10
51.302166
 20
0.9836199999999999
 30
0.0
 11
50.972565
 21
1.000182
 31
0.0
  0
LINE
  5
7E3
330
1F
100
AcDbEntity
  8
1
  6
CONTINUOUS
370
50
 62
4
100
AcDbLine
 10
47.486195
 20
-1.000252
 30
0.0
 11
47.161835
 21
-0.9839549999999999
 31
0.0
  0
LINE
  5
7E4
330
1F
100
AcDbEntity
  8
1
  6
CONTINUOUS
370
50
 62
4
100
AcDbLine
 10
7.774813999999999
 20
-0.9999979999999999
 30
0.0
 11
7.459530999999999
 21
-0.984186
 31
0.0
  0
LINE
  5
7E5
330
1F
100
AcDbEntity
  8
1
  6
CONTINUOUS
370
50
 62
4
100
AcDbLine
 10
19.125393
 20
-1.000824
 30
0.0
 11
18.797802
 21
-0.984467
 31
0.0
  0
LINE
  5
7E6
330
1F
100
AcDbEntity
  8
1
  6
CONTINUOUS
370
50
 62
4
100
AcDbLine
 10
58.833496
 20
-1.000023
 30
0.0
 11
58.503407
 21
-0.983606
 31
0.0
  0
LINE
  5
7E7
330
1F
100
AcDbEntity
  8
1
  6
CONTINUOUS
370
50
 62
4
100
AcDbLine
 10
24.799267
 20
-1.00071
 30
0.0
 11
24.469893
 21
-0.984383
 31
0.0
  0
LINE
  5
7E8
330
1F
100
AcDbEntity
  8
1
  6
CONTINUOUS
370
50
 62
4
100
AcDbLine
 10
2.877642
 20
0.8948339999999999
 30
0.0
 11
2.828543
 21
0.897119
 31
0.0
  0
LINE
  5
7E9
330
1F
100
AcDbEntity
  8
1
  6
CONTINUOUS
370
50
 62
4
100
AcDbLine
 10
5.595679
 20
-1.000002
 30
0.0
 11
5.293896999999999
 21
-0.986127
 31
0.0
  0
LINE
  5
7EA
330
1F
100
AcDbEntity
  8
1
  6
CONTINUOUS
370
50
 62
4
100
AcDbLine
 10
5.873196
 20
0.988081
 30
0.0
 11
5.595496
 21
1.000004
 31
0.0
  0
LINE
  5
7EB
330
1F
100
AcDbEntity
  8
1
  6
CONTINUOUS
370
50
 62
4
100
AcDbLine
 10
50.972565
 20
-1.000182
 30
0.0
 11
50.696926
 21
-0.988363
 31
0.0
  0
LINE
  5
7EC
330
1F
100
AcDbEntity
  8
1
  6
CONTINUOUS
370
50
 62
4
100
AcDbLine
 10
16.938032
 20
-1.000868
 30
0.0
 11
16.662718
 21
-0.989065
 31
0.0
  0
LINE
  5
7ED
330
1F
100
AcDbEntity
  8
1
  6
CONTINUOUS
370
50
 62
4
100
AcDbLine
 10
45.301464
 20
-1.000296
 30
0.0
 11
45.024532
 21
-0.9884839999999999
 31
0.0
  0
LINE
  5
7EE
330
1F
100
AcDbEntity
  8
1
  6
CONTINUOUS
370
50
 62
4
100
AcDbLine
 10
22.610012
 20
-1.000754
 30
0.0
 11
22.334524
 21
-0.989011
 31
0.0
  0
LINE
  5
7EF
330
1F
100
AcDbEntity
  8
1
  6
CONTINUOUS
370
50
 62
4
100
AcDbLine
 10
30.744427
 20
0.989035
 30
0.0
 11
30.47172
 21
1.000595
 31
0.0
  0
LINE
  5
7F0
330
1F
100
AcDbEntity
  8
1
  6
CONTINUOUS
370
50
 62
4
100
AcDbLine
 10
39.630192
 20
-1.000411
 30
0.0
 11
39.351593
 21
-0.988683
 31
0.0
  0
LINE
  5
7F1
330
1F
100
AcDbEntity
  8
1
  6
CONTINUOUS
370
50
 62
4
100
AcDbLine
 10
28.283474
 20
-1.000639
 30
0.0
 11
28.00737
 21
-0.9890359999999999
 31
0.0
  0
LINE
  5
7F2
330
1F
100
AcDbEntity
  8
1
  6
CONTINUOUS
370
50
 62
4
100
AcDbLine
 10
33.957756
 20
-1.000525
 30
0.0
 11
33.679821
 21
-0.9889469999999999
 31
0.0
  0
LINE
  5
7F3
330
1F
100
AcDbEntity
  8
1
  6
CONTINUOUS
370
50
 62
4
100
AcDbLine
 10
36.143215
 20
-1.000481
 30
0.0
 11
35.876213
 21
-0.9894879999999999
 31
0.0
  0
LINE
  5
7F4
330
1F
100
AcDbEntity
  8
1
  6
CONTINUOUS
370
50
 62
4
100
AcDbLine
 10
39.892693
 20
0.989679
 30
0.0
 11
39.630192
 21
1.000411
 31
0.0
  0
LINE
  5
7F5
330
1F
100
AcDbEntity
  8
1
  6
CONTINUOUS
370
50
 62
4
100
AcDbLine
 10
45.563843
 20
0.9895959999999999
 30
0.0
 11
45.301464
 21
1.000296
 31
0.0
  0
LINE
  5
7F6
330
1F
100
AcDbEntity
  8
1
  6
CONTINUOUS
370
50
 62
4
100
AcDbLine
 10
11.529222
 20
0.990297
 30
0.0
 11
11.266836
 21
1.000983
 31
0.0
  0
LINE
  5
7F7
330
1F
100
AcDbEntity
  8
1
  6
CONTINUOUS
370
50
 62
4
100
AcDbLine
 10
34.221672
 20
0.989787
 30
0.0
 11
33.957756
 21
1.000525
 31
0.0
  0
LINE
  5
7F8
330
1F
100
AcDbEntity
  8
1
  6
CONTINUOUS
370
50
 62
4
100
AcDbLine
 10
17.200956
 20
0.990292
 30
0.0
 11
16.938032
 21
1.000868
 31
0.0
  0
LINE
  5
7F9
330
1F
100
AcDbEntity
  8
1
  6
CONTINUOUS
370
50
 62
4
100
AcDbLine
 10
28.548903
 20
0.990008
 30
0.0
 11
28.283474
 21
1.000639
 31
0.0
  0
LINE
  5
7FA
330
1F
100
AcDbEntity
  8
1
  6
CONTINUOUS
370
50
 62
4
100
AcDbLine
 10
22.874401
 20
0.9902209999999999
 30
0.0
 11
22.610012
 21
1.000754
 31
0.0
  0
LINE
  5
7FB
330
1F
100
AcDbEntity
  8
1
  6
CONTINUOUS
370
50
 62
4
100
AcDbLine
 10
56.83115
 20
0.994792
 30
0.0
 11
56.644306
 21
1.000067
 31
0.0
  0
LINE
  5
7FC
330
1F
100
AcDbEntity
  8
1
  6
CONTINUOUS
370
50
 62
4
100
AcDbLine
 10
58.998577
 20
0.995856
 30
0.0
 11
58.833496
 21
1.000023
 31
0.0
  0
LINE
  5
7FD
330
1F
100
AcDbEntity
  8
1
  6
CONTINUOUS
370
50
 62
4
100
AcDbLine
 10
13.451755
 20
-1.000938
 30
0.0
 11
13.288131
 21
-0.9968079999999999
 31
0.0
  0
LINE
  5
7FE
330
1F
100
AcDbEntity
  8
1
  6
CONTINUOUS
370
50
 62
4
100
AcDbLine
 10
2.828543
 20
0.897119
 30
0.0
 11
2.781109
 21
0.898141
 31
0.0
  0
LINE
  5
7FF
330
1F
100
AcDbEntity
  8
1
  6
CONTINUOUS
370
50
 62
4
100
AcDbLine
 10
11.266836
 20
-1.000983
 30
0.0
 11
11.143939
 21
-0.998625
 31
0.0
  0
LINE
  5
800
330
1F
100
AcDbEntity
  8
1
  6
CONTINUOUS
370
50
 62
4
100
AcDbLine
 10
59.977158
 20
-0.263901
 30
0.0
 11
59.965565
 21
-0.263872
 31
0.0
  0
LINE
  5
801
330
1F
100
AcDbEntity
  8
1
  6
CONTINUOUS
370
50
 62
4
100
AcDbLine
 10
60.33007
 20
0.026232
 30
0.0
 11
60.32729
 21
0.026238
 31
0.0
  0
LINE
  5
802
330
1F
100
AcDbEntity
  8
1
  6
CONTINUOUS
370
50
 62
4
100
AcDbLine
 10
56.644306
 20
1.000067
 30
0.0
 11
53.15934799999999
 21
1.000138
 31
0.0
  0
LINE
  5
803
330
1F
100
AcDbEntity
  8
1
  6
CONTINUOUS
370
50
 62
4
100
AcDbLine
 10
11.266836
 20
1.000983
 30
0.0
 11
10.4
 21
1.001
 31
0.0
  0
LINE
  5
804
330
1F
100
AcDbEntity
  8
1
  6
CONTINUOUS
370
50
 62
4
100
AcDbLine
 10
22.610012
 20
1.000754
 30
0.0
 11
19.125393
 21
1.000824
 31
0.0
  0
LINE
  5
805
330
1F
100
AcDbEntity
  8
1
  6
CONTINUOUS
370
50
 62
4
100
AcDbLine
 10
33.957756
 20
1.000525
 30
0.0
 11
30.47172
 21
1.000595
 31
0.0
  0
LINE
  5
806
330
1F
100
AcDbEntity
  8
1
  6
CONTINUOUS
370
50
 62
4
100
AcDbLine
 10
45.301464
 20
1.000296
 30
0.0
 11
41.814434
 21
1.000366
 31
0.0
  0
LINE
  5
807
330
1F
100
AcDbEntity
  8
1
  6
CONTINUOUS
370
50
 62
4
100
AcDbLine
 10
16.938032
 20
1.000868
 30
0.0
 11
13.451755
 21
1.000938
 31
0.0
  0
LINE
  5
808
330
1F
100
AcDbEntity
  8
1
  6
CONTINUOUS
370
50
 62
4
100
AcDbLine
 10
28.283474
 20
1.000639
 30
0.0
 11
24.799267
 21
1.00071
 31
0.0
  0
LINE
  5
809
330
1F
100
AcDbEntity
  8
1
  6
CONTINUOUS
370
50
 62
4
100
AcDbLine
 10
39.630192
 20
1.000411
 30
0.0
 11
36.143215
 21
1.000481
 31
0.0
  0
LINE
  5
80A
330
1F
100
AcDbEntity
  8
1
  6
CONTINUOUS
370
50
 62
4
100
AcDbLine
 10
50.972565
 20
1.000182
 30
0.0
 11
47.486195
 21
1.000252
 31
0.0
  0
LINE
  5
80B
330
1F
100
AcDbEntity
  8
1
  6
CONTINUOUS
370
50
 62
4
100
AcDbLine
 10
59.976639
 20
1.0
 30
0.0
 11
58.833496
 21
1.000023
 31
0.0
  0
LINE
  5
80C
330
1F
100
AcDbEntity
  8
1
  6
CONTINUOUS
370
50
 62
4
100
AcDbLine
 10
1.9
 20
-1.0
 30
0.0
 11
5.596196
 21
-1.0
 31
0.0
  0
LINE
  5
80D
330
1F
100
AcDbEntity
  8
1
  6
CONTINUOUS
370
50
 62
4
100
AcDbLine
 10
7.779121
 20
-1.0
 30
0.0
 11
10.399134
 21
-1.0
 31
0.0
  0
LINE
  5
80E
330
1F
100
AcDbEntity
  8
1
  6
CONTINUOUS
370
50
 62
4
100
AcDbLine
 10
7.778923
 20
1.0
 30
0.0
 11
10.399134
 21
1.0
 31
0.0
  0
LINE
  5
80F
330
1F
100
AcDbEntity
  8
1
  6
CONTINUOUS
370
50
 62
4
100
AcDbLine
 10
1.9
 20
1.0
 30
0.0
 11
5.596191999999999
 21
1.0
 31
0.0
  0
LINE
  5
810
330
1F
100
AcDbEntity
  8
1
  6
CONTINUOUS
370
50
 62
4
100
AcDbLine
 10
58.833496
 20
-1.000023
 30
0.0
 11
59.976639
 21
-1.0
 31
0.0
  0
LINE
  5
811
330
1F
100
AcDbEntity
  8
1
  6
CONTINUOUS
370
50
 62
4
100
AcDbLine
 10
13.451755
 20
-1.000938
 30
0.0
 11
16.938032
 21
-1.000868
 31
0.0
  0
LINE
  5
812
330
1F
100
AcDbEntity
  8
1
  6
CONTINUOUS
370
50
 62
4
100
AcDbLine
 10
24.799267
 20
-1.00071
 30
0.0
 11
28.283474
 21
-1.000639
 31
0.0
  0
LINE
  5
813
330
1F
100
AcDbEntity
  8
1
  6
CONTINUOUS
370
50
 62
4
100
AcDbLine
 10
36.143215
 20
-1.000481
 30
0.0
 11
39.630192
 21
-1.000411
 31
0.0
  0
LINE
  5
814
330
1F
100
AcDbEntity
  8
1
  6
CONTINUOUS
370
50
 62
4
100
AcDbLine
 10
47.486195
 20
-1.000252
 30
0.0
 11
50.972565
 21
-1.000182
 31
0.0
  0
LINE
  5
815
330
1F
100
AcDbEntity
  8
1
  6
CONTINUOUS
370
50
 62
4
100
AcDbLine
 10
10.4
 20
-1.001
 30
0.0
 11
11.266836
 21
-1.000983
 31
0.0
  0
LINE
  5
816
330
1F
100
AcDbEntity
  8
1
  6
CONTINUOUS
370
50
 62
4
100
AcDbLine
 10
19.125393
 20
-1.000824
 30
0.0
 11
22.610012
 21
-1.000754
 31
0.0
  0
LINE
  5
817
330
1F
100
AcDbEntity
  8
1
  6
CONTINUOUS
370
50
 62
4
100
AcDbLine
 10
30.47172
 20
-1.000595
 30
0.0
 11
33.957756
 21
-1.000525
 31
0.0
  0
LINE
  5
818
330
1F
100
AcDbEntity
  8
1
  6
CONTINUOUS
370
50
 62
4
100
AcDbLine
 10
41.814434
 20
-1.000366
 30
0.0
 11
45.301464
 21
-1.000296
 31
0.0
  0
LINE
  5
819
330
1F
100
AcDbEntity
  8
1
  6
CONTINUOUS
370
50
 62
4
100
AcDbLine
 10
53.15934799999999
 20
-1.000138
 30
0.0
 11
56.644306
 21
-1.000067
 31
0.0
  0
LINE
  5
81A
330
1F
100
AcDbEntity
  8
1
  6
CONTINUOUS
370
50
 62
4
100
AcDbLine
 10
2.735426
 20
0.8980199999999999
 30
0.0
 11
2.781109
 21
0.898141
 31
0.0
  0
LINE
  5
81B
330
1F
100
AcDbEntity
  8
1
  6
CONTINUOUS
370
50
 62
4
100
AcDbLine
 10
7.608417999999999
 20
0.995493
 30
0.0
 11
7.790445999999999
 21
0.9999819999999999
 31
0.0
  0
LINE
  5
81C
330
1F
100
AcDbEntity
  8
1
  6
CONTINUOUS
370
50
 62
4
100
AcDbLine
 10
22.610012
 20
-1.000754
 30
0.0
 11
22.791517
 21
-0.995772
 31
0.0
  0
LINE
  5
81D
330
1F
100
AcDbEntity
  8
1
  6
CONTINUOUS
370
50
 62
4
100
AcDbLine
 10
28.283474
 20
-1.000639
 30
0.0
 11
28.466166
 21
-0.995618
 31
0.0
  0
LINE
  5
81E
330
1F
100
AcDbEntity
  8
1
  6
CONTINUOUS
370
50
 62
4
100
AcDbLine
 10
58.64968099999999
 20
0.994965
 30
0.0
 11
58.833496
 21
1.000023
 31
0.0
  0
LINE
  5
81F
330
1F
100
AcDbEntity
  8
1
  6
CONTINUOUS
370
50
 62
4
100
AcDbLine
 10
24.615494
 20
0.9956459999999999
 30
0.0
 11
24.799267
 21
1.00071
 31
0.0
  0
LINE
  5
820
330
1F
100
AcDbEntity
  8
1
  6
CONTINUOUS
370
50
 62
4
100
AcDbLine
 10
18.942635
 20
0.995776
 30
0.0
 11
19.125393
 21
1.000824
 31
0.0
  0
LINE
  5
821
330
1F
100
AcDbEntity
  8
1
  6
CONTINUOUS
370
50
 62
4
100
AcDbLine
 10
52.976738
 20
0.99507
 30
0.0
 11
53.15934799999999
 21
1.000138
 31
0.0
  0
LINE
  5
822
330
1F
100
AcDbEntity
  8
1
  6
CONTINUOUS
370
50
 62
4
100
AcDbLine
 10
16.938032
 20
-1.000868
 30
0.0
 11
17.118683
 21
-0.9958429999999999
 31
0.0
  0
LINE
  5
823
330
1F
100
AcDbEntity
  8
1
  6
CONTINUOUS
370
50
 62
4
100
AcDbLine
 10
5.595679
 20
-1.000002
 30
0.0
 11
5.775994
 21
-0.9949859999999999
 31
0.0
  0
LINE
  5
824
330
1F
100
AcDbEntity
  8
1
  6
CONTINUOUS
370
50
 62
4
100
AcDbLine
 10
56.644306
 20
-1.000067
 30
0.0
 11
56.828625
 21
-0.994933
 31
0.0
  0
LINE
  5
825
330
1F
100
AcDbEntity
  8
1
  6
CONTINUOUS
370
50
 62
4
100
AcDbLine
 10
47.306126
 20
0.995235
 30
0.0
 11
47.486195
 21
1.000252
 31
0.0
  0
LINE
  5
826
330
1F
100
AcDbEntity
  8
1
  6
CONTINUOUS
370
50
 62
4
100
AcDbLine
 10
30.289299
 20
0.9955109999999999
 30
0.0
 11
30.47172
 21
1.000595
 31
0.0
  0
LINE
  5
827
330
1F
100
AcDbEntity
  8
1
  6
CONTINUOUS
370
50
 62
4
100
AcDbLine
 10
33.957756
 20
-1.000525
 30
0.0
 11
34.139587
 21
-0.995443
 31
0.0
  0
LINE
  5
828
330
1F
100
AcDbEntity
  8
1
  6
CONTINUOUS
370
50
 62
4
100
AcDbLine
 10
2.691737
 20
0.896794
 30
0.0
 11
2.735426
 21
0.8980199999999999
 31
0.0
  0
LINE
  5
829
330
1F
100
AcDbEntity
  8
1
  6
CONTINUOUS
370
50
 62
4
100
AcDbLine
 10
13.269834
 20
0.99583
 30
0.0
 11
13.451755
 21
1.000938
 31
0.0
  0
LINE
  5
82A
330
1F
100
AcDbEntity
  8
1
  6
CONTINUOUS
370
50
 62
4
100
AcDbLine
 10
11.266836
 20
-1.000983
 30
0.0
 11
11.447082
 21
-0.995918
 31
0.0
  0
LINE
  5
82B
330
1F
100
AcDbEntity
  8
1
  6
CONTINUOUS
370
50
 62
4
100
AcDbLine
 10
45.301464
 20
-1.000296
 30
0.0
 11
45.48181899999999
 21
-0.9952219999999999
 31
0.0
  0
LINE
  5
82C
330
1F
100
AcDbEntity
  8
1
  6
CONTINUOUS
370
50
 62
4
100
AcDbLine
 10
39.630192
 20
-1.000411
 30
0.0
 11
39.810772
 21
-0.9953299999999999
 31
0.0
  0
LINE
  5
82D
330
1F
100
AcDbEntity
  8
1
  6
CONTINUOUS
370
50
 62
4
100
AcDbLine
 10
35.960941
 20
0.995335
 30
0.0
 11
36.143215
 21
1.000481
 31
0.0
  0
LINE
  5
82E
330
1F
100
AcDbEntity
  8
1
  6
CONTINUOUS
370
50
 62
4
100
AcDbLine
 10
41.632587
 20
0.995219
 30
0.0
 11
41.814434
 21
1.000366
 31
0.0
  0
LINE
  5
82F
330
1F
100
AcDbEntity
  8
1
  6
CONTINUOUS
370
50
 62
4
100
AcDbLine
 10
50.972565
 20
-1.000182
 30
0.0
 11
51.156048
 21
-0.994983
 31
0.0
  0
LINE
  5
830
330
1F
100
AcDbEntity
  8
1
  6
CONTINUOUS
370
50
 62
4
100
AcDbLine
 10
2.650211
 20
0.894467
 30
0.0
 11
2.691737
 21
0.896794
 31
0.0
  0
LINE
  5
831
330
1F
100
AcDbEntity
  8
1
  6
CONTINUOUS
370
50
 62
4
100
AcDbLine
 10
7.425786
 20
0.9806959999999999
 30
0.0
 11
7.608417999999999
 21
0.995493
 31
0.0
  0
LINE
  5
832
330
1F
100
AcDbEntity
  8
1
  6
CONTINUOUS
370
50
 62
4
100
AcDbLine
 10
22.791517
 20
-0.995772
 30
0.0
 11
22.974783
 21
-0.98073
 31
0.0
  0
LINE
  5
833
330
1F
100
AcDbEntity
  8
1
  6
CONTINUOUS
370
50
 62
4
100
AcDbLine
 10
17.118683
 20
-0.9958429999999999
 30
0.0
 11
17.300777
 21
-0.98088
 31
0.0
  0
LINE
  5
834
330
1F
100
AcDbEntity
  8
1
  6
CONTINUOUS
370
50
 62
4
100
AcDbLine
 10
30.106014
 20
0.98041
 30
0.0
 11
30.289299
 21
0.9955109999999999
 31
0.0
  0
LINE
  5
835
330
1F
100
AcDbEntity
  8
1
  6
CONTINUOUS
370
50
 62
4
100
AcDbLine
 10
56.828625
 20
-0.994933
 30
0.0
 11
57.011677
 21
-0.9797809999999999
 31
0.0
  0
LINE
  5
836
330
1F
100
AcDbEntity
  8
1
  6
CONTINUOUS
370
50
 62
4
100
AcDbLine
 10
24.433035
 20
0.980497
 30
0.0
 11
24.615494
 21
0.9956459999999999
 31
0.0
  0
LINE
  5
837
330
1F
100
AcDbEntity
  8
1
  6
CONTINUOUS
370
50
 62
4
100
AcDbLine
 10
58.467659
 20
0.979827
 30
0.0
 11
58.64968099999999
 21
0.994965
 31
0.0
  0
LINE
  5
838
330
1F
100
AcDbEntity
  8
1
  6
CONTINUOUS
370
50
 62
4
100
AcDbLine
 10
11.447082
 20
-0.995918
 30
0.0
 11
11.628035
 21
-0.980868
 31
0.0
  0
LINE
  5
839
330
1F
100
AcDbEntity
  8
1
  6
CONTINUOUS
370
50
 62
4
100
AcDbLine
 10
51.156048
 20
-0.994983
 30
0.0
 11
51.339924
 21
-0.9796729999999999
 31
0.0
  0
LINE
  5
83A
330
1F
100
AcDbEntity
  8
1
  6
CONTINUOUS
370
50
 62
4
100
AcDbLine
 10
28.466166
 20
-0.995618
 30
0.0
 11
28.648304
 21
-0.980445
 31
0.0
  0
LINE
  5
83B
330
1F
100
AcDbEntity
  8
1
  6
CONTINUOUS
370
50
 62
4
100
AcDbLine
 10
45.48181899999999
 20
-0.9952219999999999
 30
0.0
 11
45.662735
 21
-0.980131
 31
0.0
  0
LINE
  5
83C
330
1F
100
AcDbEntity
  8
1
  6
CONTINUOUS
370
50
 62
4
100
AcDbLine
 10
35.778095
 20
0.980069
 30
0.0
 11
35.960941
 21
0.995335
 31
0.0
  0
LINE
  5
83D
330
1F
100
AcDbEntity
  8
1
  6
CONTINUOUS
370
50
 62
4
100
AcDbLine
 10
5.775994
 20
-0.9949859999999999
 30
0.0
 11
5.95589
 21
-0.9799599999999999
 31
0.0
  0
LINE
  5
83E
330
1F
100
AcDbEntity
  8
1
  6
CONTINUOUS
370
50
 62
4
100
AcDbLine
 10
47.12589999999999
 20
0.980154
 30
0.0
 11
47.306126
 21
0.995235
 31
0.0
  0
LINE
  5
83F
330
1F
100
AcDbEntity
  8
1
  6
CONTINUOUS
370
50
 62
4
100
AcDbLine
 10
18.760437
 20
0.980494
 30
0.0
 11
18.942635
 21
0.995776
 31
0.0
  0
LINE
  5
840
330
1F
100
AcDbEntity
  8
1
  6
CONTINUOUS
370
50
 62
4
100
AcDbLine
 10
52.795448
 20
0.979854
 30
0.0
 11
52.976738
 21
0.99507
 31
0.0
  0
LINE
  5
841
330
1F
100
AcDbEntity
  8
1
  6
CONTINUOUS
370
50
 62
4
100
AcDbLine
 10
39.810772
 20
-0.9953299999999999
 30
0.0
 11
39.991558
 21
-0.980124
 31
0.0
  0
LINE
  5
842
330
1F
100
AcDbEntity
  8
1
  6
CONTINUOUS
370
50
 62
4
100
AcDbLine
 10
34.139587
 20
-0.995443
 30
0.0
 11
34.32029
 21
-0.9802299999999999
 31
0.0
  0
LINE
  5
843
330
1F
100
AcDbEntity
  8
1
  6
CONTINUOUS
370
50
 62
4
100
AcDbLine
 10
41.449833
 20
0.9798
 30
0.0
 11
41.632587
 21
0.995219
 31
0.0
  0
LINE
  5
844
330
1F
100
AcDbEntity
  8
1
  6
CONTINUOUS
370
50
 62
4
100
AcDbLine
 10
13.088095
 20
0.980479
 30
0.0
 11
13.269834
 21
0.99583
 31
0.0
  0
LINE
  5
845
330
1F
100
AcDbEntity
  8
1
  6
CONTINUOUS
370
50
 62
4
100
AcDbLine
 10
2.610969
 20
0.891056
 30
0.0
 11
2.650211
 21
0.894467
 31
0.0
  0
LINE
  5
846
330
1F
100
AcDbEntity
  8
1
  6
CONTINUOUS
370
50
 62
4
100
AcDbLine
 10
59.977158
 20
-0.263901
 30
0.0
 11
59.988861
 21
-0.262534
 31
0.0
  0
LINE
  5
847
330
1F
100
AcDbEntity
  8
1
  6
CONTINUOUS
370
50
 62
4
100
AcDbLine
 10
2.574132
 20
0.886575
 30
0.0
 11
2.610969
 21
0.891056
 31
0.0
  0
LINE
  5
848
330
1F
100
AcDbEntity
  8
1
  6
CONTINUOUS
370
50
 62
4
100
AcDbLine
 10
7.240772
 20
0.9556549999999999
 30
0.0
 11
7.425786
 21
0.9806959999999999
 31
0.0
  0
LINE
  5
849
330
1F
100
AcDbEntity
  8
1
  6
CONTINUOUS
370
50
 62
4
100
AcDbLine
 10
11.628035
 20
-0.980868
 30
0.0
 11
11.810796
 21
-0.955981
 31
0.0
  0
LINE
  5
84A
330
1F
100
AcDbEntity
  8
1
  6
CONTINUOUS
370
50
 62
4
100
AcDbLine
 10
17.300777
 20
-0.98088
 30
0.0
 11
17.484228
 21
-0.9558629999999999
 31
0.0
  0
LINE
  5
84B
330
1F
100
AcDbEntity
  8
1
  6
CONTINUOUS
370
50
 62
4
100
AcDbLine
 10
45.662735
 20
-0.980131
 30
0.0
 11
45.8451
 21
-0.955259
 31
0.0
  0
LINE
  5
84C
330
1F
100
AcDbEntity
  8
1
  6
CONTINUOUS
370
50
 62
4
100
AcDbLine
 10
35.595081
 20
0.955019
 30
0.0
 11
35.778095
 21
0.980069
 31
0.0
  0
LINE
  5
84D
330
1F
100
AcDbEntity
  8
1
  6
CONTINUOUS
370
50
 62
4
100
AcDbLine
 10
5.95589
 20
-0.9799599999999999
 30
0.0
 11
6.137321
 21
-0.955085
 31
0.0
  0
LINE
  5
84E
330
1F
100
AcDbEntity
  8
1
  6
CONTINUOUS
370
50
 62
4
100
AcDbLine
 10
51.339924
 20
-0.9796729999999999
 30
0.0
 11
51.52214799999999
 21
-0.954623
 31
0.0
  0
LINE
  5
84F
330
1F
100
AcDbEntity
  8
1
  6
CONTINUOUS
370
50
 62
4
100
AcDbLine
 10
29.924046
 20
0.955359
 30
0.0
 11
30.106014
 21
0.98041
 31
0.0
  0
LINE
  5
850
330
1F
100
AcDbEntity
  8
1
  6
CONTINUOUS
370
50
 62
4
100
AcDbLine
 10
39.991558
 20
-0.980124
 30
0.0
 11
40.17284
 21
-0.9551069999999999
 31
0.0
  0
LINE
  5
851
330
1F
100
AcDbEntity
  8
1
  6
CONTINUOUS
370
50
 62
4
100
AcDbLine
 10
41.266552
 20
0.9545049999999999
 30
0.0
 11
41.449833
 21
0.9798
 31
0.0
  0
LINE
  5
852
330
1F
100
AcDbEntity
  8
1
  6
CONTINUOUS
370
50
 62
4
100
AcDbLine
 10
46.94413
 20
0.955055
 30
0.0
 11
47.12589999999999
 21
0.980154
 31
0.0
  0
LINE
  5
853
330
1F
100
AcDbEntity
  8
1
  6
CONTINUOUS
370
50
 62
4
100
AcDbLine
 10
22.974783
 20
-0.98073
 30
0.0
 11
23.157087
 21
-0.9555389999999999
 31
0.0
  0
LINE
  5
854
330
1F
100
AcDbEntity
  8
1
  6
CONTINUOUS
370
50
 62
4
100
AcDbLine
 10
57.011677
 20
-0.9797809999999999
 30
0.0
 11
57.192829
 21
-0.954691
 31
0.0
  0
LINE
  5
855
330
1F
100
AcDbEntity
  8
1
  6
CONTINUOUS
370
50
 62
4
100
AcDbLine
 10
24.251881
 20
0.9553349999999999
 30
0.0
 11
24.433035
 21
0.980497
 31
0.0
  0
LINE
  5
856
330
1F
100
AcDbEntity
  8
1
  6
CONTINUOUS
370
50
 62
4
100
AcDbLine
 10
58.28661
 20
0.954676
 30
0.0
 11
58.467659
 21
0.979827
 31
0.0
  0
LINE
  5
857
330
1F
100
AcDbEntity
  8
1
  6
CONTINUOUS
370
50
 62
4
100
AcDbLine
 10
34.32029
 20
-0.9802299999999999
 30
0.0
 11
34.501465
 21
-0.955013
 31
0.0
  0
LINE
  5
858
330
1F
100
AcDbEntity
  8
1
  6
CONTINUOUS
370
50
 62
4
100
AcDbLine
 10
28.648304
 20
-0.980445
 30
0.0
 11
28.829489
 21
-0.955212
 31
0.0
  0
LINE
  5
859
330
1F
100
AcDbEntity
  8
1
  6
CONTINUOUS
370
50
 62
4
100
AcDbLine
 10
52.613525
 20
0.9545009999999999
 30
0.0
 11
52.795448
 21
0.979854
 31
0.0
  0
LINE
  5
85A
330
1F
100
AcDbEntity
  8
1
  6
CONTINUOUS
370
50
 62
4
100
AcDbLine
 10
12.905447
 20
0.9550059999999999
 30
0.0
 11
13.088095
 21
0.980479
 31
0.0
  0
LINE
  5
85B
330
1F
100
AcDbEntity
  8
1
  6
CONTINUOUS
370
50
 62
4
100
AcDbLine
 10
18.578678
 20
0.9551259999999999
 30
0.0
 11
18.760437
 21
0.980494
 31
0.0
  0
LINE
  5
85C
330
1F
100
AcDbEntity
  8
1
  6
CONTINUOUS
370
50
 62
4
100
AcDbLine
 10
59.592094
 20
0.41927
 30
0.0
 11
59.62082299999999
 21
0.423418
 31
0.0
  0
LINE
  5
85D
330
1F
100
AcDbEntity
  8
1
  6
CONTINUOUS
370
50
 62
4
100
AcDbLine
 10
59.62082299999999
 20
0.423418
 30
0.0
 11
59.648796
 21
0.42786
 31
0.0
  0
LINE
  5
85E
330
1F
100
AcDbEntity
  8
1
  6
CONTINUOUS
370
50
 62
4
100
AcDbLine
 10
2.539661
 20
0.881011
 30
0.0
 11
2.574132
 21
0.886575
 31
0.0
  0
LINE
  5
85F
330
1F
100
AcDbEntity
  8
1
  6
CONTINUOUS
370
50
 62
4
100
AcDbLine
 10
59.648796
 20
0.42786
 30
0.0
 11
59.675964
 21
0.432637
 31
0.0
  0
LINE
  5
860
330
1F
100
AcDbEntity
  8
1
  6
CONTINUOUS
370
50
 62
4
100
AcDbLine
 10
7.054714
 20
0.920715
 30
0.0
 11
7.240772
 21
0.9556549999999999
 31
0.0
  0
LINE
  5
861
330
1F
100
AcDbEntity
  8
1
  6
CONTINUOUS
370
50
 62
4
100
AcDbLine
 10
6.137321
 20
-0.955085
 30
0.0
 11
6.321755
 21
-0.920396
 31
0.0
  0
LINE
  5
862
330
1F
100
AcDbEntity
  8
1
  6
CONTINUOUS
370
50
 62
4
100
AcDbLine
 10
40.17284
 20
-0.9551069999999999
 30
0.0
 11
40.35593799999999
 21
-0.9204779999999999
 31
0.0
  0
LINE
  5
863
330
1F
100
AcDbEntity
  8
1
  6
CONTINUOUS
370
50
 62
4
100
AcDbLine
 10
45.8451
 20
-0.955259
 30
0.0
 11
46.028831
 21
-0.9204709999999999
 31
0.0
  0
LINE
  5
864
330
1F
100
AcDbEntity
  8
1
  6
CONTINUOUS
370
50
 62
4
100
AcDbLine
 10
46.761703
 20
0.9205089999999999
 30
0.0
 11
46.94413
 21
0.955055
 31
0.0
  0
LINE
  5
865
330
1F
100
AcDbEntity
  8
1
  6
CONTINUOUS
370
50
 62
4
100
AcDbLine
 10
11.810796
 20
-0.955981
 30
0.0
 11
11.994368
 21
-0.921126
 31
0.0
  0
LINE
  5
866
330
1F
100
AcDbEntity
  8
1
  6
CONTINUOUS
370
50
 62
4
100
AcDbLine
 10
41.083889
 20
0.919746
 30
0.0
 11
41.266552
 21
0.9545049999999999
 31
0.0
  0
LINE
  5
867
330
1F
100
AcDbEntity
  8
1
  6
CONTINUOUS
370
50
 62
4
100
AcDbLine
 10
34.501465
 20
-0.955013
 30
0.0
 11
34.683182
 21
-0.920314
 31
0.0
  0
LINE
  5
868
330
1F
100
AcDbEntity
  8
1
  6
CONTINUOUS
370
50
 62
4
100
AcDbLine
 10
12.722275
 20
0.9199999999999999
 30
0.0
 11
12.905447
 21
0.9550059999999999
 31
0.0
  0
LINE
  5
869
330
1F
100
AcDbEntity
  8
1
  6
CONTINUOUS
370
50
 62
4
100
AcDbLine
 10
35.413662
 20
0.920252
 30
0.0
 11
35.595081
 21
0.955019
 31
0.0
  0
LINE
  5
86A
330
1F
100
AcDbEntity
  8
1
  6
CONTINUOUS
370
50
 62
4
100
AcDbLine
 10
17.484228
 20
-0.9558629999999999
 30
0.0
 11
17.66641
 21
-0.9208689999999999
 31
0.0
  0
LINE
  5
86B
330
1F
100
AcDbEntity
  8
1
  6
CONTINUOUS
370
50
 62
4
100
AcDbLine
 10
52.43086599999999
 20
0.919415
 30
0.0
 11
52.613525
 21
0.9545009999999999
 31
0.0
  0
LINE
  5
86C
330
1F
100
AcDbEntity
  8
1
  6
CONTINUOUS
370
50
 62
4
100
AcDbLine
 10
51.52214799999999
 20
-0.954623
 30
0.0
 11
51.702717
 21
-0.919867
 31
0.0
  0
LINE
  5
86D
330
1F
100
AcDbEntity
  8
1
  6
CONTINUOUS
370
50
 62
4
100
AcDbLine
 10
29.74316
 20
0.9205399999999999
 30
0.0
 11
29.924046
 21
0.955359
 31
0.0
  0
LINE
  5
86E
330
1F
100
AcDbEntity
  8
1
  6
CONTINUOUS
370
50
 62
4
100
AcDbLine
 10
18.396311
 20
0.9199999999999999
 30
0.0
 11
18.578678
 21
0.9551259999999999
 31
0.0
  0
LINE
  5
86F
330
1F
100
AcDbEntity
  8
1
  6
CONTINUOUS
370
50
 62
4
100
AcDbLine
 10
28.829489
 20
-0.955212
 30
0.0
 11
29.011282
 21
-0.920195
 31
0.0
  0
LINE
  5
870
330
1F
100
AcDbEntity
  8
1
  6
CONTINUOUS
370
50
 62
4
100
AcDbLine
 10
58.10461799999999
 20
0.9196059999999999
 30
0.0
 11
58.28661
 21
0.954676
 31
0.0
  0
LINE
  5
871
330
1F
100
AcDbEntity
  8
1
  6
CONTINUOUS
370
50
 62
4
100
AcDbLine
 10
23.157087
 20
-0.9555389999999999
 30
0.0
 11
23.338741
 21
-0.9204869999999999
 31
0.0
  0
LINE
  5
872
330
1F
100
AcDbEntity
  8
1
  6
CONTINUOUS
370
50
 62
4
100
AcDbLine
 10
24.07007
 20
0.9202509999999999
 30
0.0
 11
24.251881
 21
0.9553349999999999
 31
0.0
  0
LINE
  5
873
330
1F
100
AcDbEntity
  8
1
  6
CONTINUOUS
370
50
 62
4
100
AcDbLine
 10
57.192829
 20
-0.954691
 30
0.0
 11
57.373997
 21
-0.9197059999999999
 31
0.0
  0
LINE
  5
874
330
1F
100
AcDbEntity
  8
1
  6
CONTINUOUS
370
50
 62
4
100
AcDbLine
 10
59.675964
 20
0.432637
 30
0.0
 11
59.70229699999999
 21
0.437756
 31
0.0
  0
LINE
  5
875
330
1F
100
AcDbEntity
  8
1
  6
CONTINUOUS
370
50
 62
4
100
AcDbLine
 10
2.50642
 20
0.87403
 30
0.0
 11
2.539661
 21
0.881011
 31
0.0
  0
LINE
  5
876
330
1F
100
AcDbEntity
  8
1
  6
CONTINUOUS
370
50
 62
4
100
AcDbLine
 10
59.70229699999999
 20
0.437756
 30
0.0
 11
59.727783
 21
0.443234
 31
0.0
  0
LINE
  5
877
330
1F
100
AcDbEntity
  8
1
  6
CONTINUOUS
370
50
 62
4
100
AcDbLine
 10
59.988861
 20
-0.262534
 30
0.0
 11
60.00067499999999
 21
-0.259744
 31
0.0
  0
LINE
  5
878
330
1F
100
AcDbEntity
  8
1
  6
CONTINUOUS
370
50
 62
4
100
AcDbLine
 10
59.727783
 20
0.443234
 30
0.0
 11
59.75240299999999
 21
0.449084
 31
0.0
  0
LINE
  5
879
330
1F
100
AcDbEntity
  8
1
  6
CONTINUOUS
370
50
 62
4
100
AcDbLine
 10
34.683182
 20
-0.920314
 30
0.0
 11
34.866974
 21
-0.876195
 31
0.0
  0
LINE
  5
87A
330
1F
100
AcDbEntity
  8
1
  6
CONTINUOUS
370
50
 62
4
100
AcDbLine
 10
46.577305
 20
0.876199
 30
0.0
 11
46.761703
 21
0.9205089999999999
 31
0.0
  0
LINE
  5
87B
330
1F
100
AcDbEntity
  8
1
  6
CONTINUOUS
370
50
 62
4
100
AcDbLine
 10
52.247566
 20
0.8752939999999999
 30
0.0
 11
52.43086599999999
 21
0.919415
 31
0.0
  0
LINE
  5
87C
330
1F
100
AcDbEntity
  8
1
  6
CONTINUOUS
370
50
 62
4
100
AcDbLine
 10
40.35593799999999
 20
-0.9204779999999999
 30
0.0
 11
40.539818
 21
-0.876114
 31
0.0
  0
LINE
  5
87D
330
1F
100
AcDbEntity
  8
1
  6
CONTINUOUS
370
50
 62
4
100
AcDbLine
 10
12.539694
 20
0.8759429999999999
 30
0.0
 11
12.722275
 21
0.9199999999999999
 31
0.0
  0
LINE
  5
87E
330
1F
100
AcDbEntity
  8
1
  6
CONTINUOUS
370
50
 62
4
100
AcDbLine
 10
18.213297
 20
0.875802
 30
0.0
 11
18.396311
 21
0.9199999999999999
 31
0.0
  0
LINE
  5
87F
330
1F
100
AcDbEntity
  8
1
  6
CONTINUOUS
370
50
 62
4
100
AcDbLine
 10
29.011282
 20
-0.920195
 30
0.0
 11
29.193789
 21
-0.876072
 31
0.0
  0
LINE
  5
880
330
1F
100
AcDbEntity
  8
1
  6
CONTINUOUS
370
50
 62
4
100
AcDbLine
 10
6.870305999999999
 20
0.876103
 30
0.0
 11
7.054714
 21
0.920715
 31
0.0
  0
LINE
  5
881
330
1F
100
AcDbEntity
  8
1
  6
CONTINUOUS
370
50
 62
4
100
AcDbLine
 10
6.321755
 20
-0.920396
 30
0.0
 11
6.505356
 21
-0.875961
 31
0.0
  0
LINE
  5
882
330
1F
100
AcDbEntity
  8
1
  6
CONTINUOUS
370
50
 62
4
100
AcDbLine
 10
57.921913
 20
0.875255
 30
0.0
 11
58.10461799999999
 21
0.9196059999999999
 31
0.0
  0
LINE
  5
883
330
1F
100
AcDbEntity
  8
1
  6
CONTINUOUS
370
50
 62
4
100
AcDbLine
 10
23.887522
 20
0.875819
 30
0.0
 11
24.07007
 21
0.9202509999999999
 31
0.0
  0
LINE
  5
884
330
1F
100
AcDbEntity
  8
1
  6
CONTINUOUS
370
50
 62
4
100
AcDbLine
 10
40.903027
 20
0.875643
 30
0.0
 11
41.083889
 21
0.919746
 31
0.0
  0
LINE
  5
885
330
1F
100
AcDbEntity
  8
1
  6
CONTINUOUS
370
50
 62
4
100
AcDbLine
 10
46.028831
 20
-0.9204709999999999
 30
0.0
 11
46.211308
 21
-0.8759739999999999
 31
0.0
  0
LINE
  5
886
330
1F
100
AcDbEntity
  8
1
  6
CONTINUOUS
370
50
 62
4
100
AcDbLine
 10
23.338741
 20
-0.9204869999999999
 30
0.0
 11
23.521048
 21
-0.8760249999999999
 31
0.0
  0
LINE
  5
887
330
1F
100
AcDbEntity
  8
1
  6
CONTINUOUS
370
50
 62
4
100
AcDbLine
 10
57.373997
 20
-0.9197059999999999
 30
0.0
 11
57.555954
 21
-0.8752599999999999
 31
0.0
  0
LINE
  5
888
330
1F
100
AcDbEntity
  8
1
  6
CONTINUOUS
370
50
 62
4
100
AcDbLine
 10
11.994368
 20
-0.921126
 30
0.0
 11
12.176574
 21
-0.876609
 31
0.0
  0
LINE
  5
889
330
1F
100
AcDbEntity
  8
1
  6
CONTINUOUS
370
50
 62
4
100
AcDbLine
 10
29.561363
 20
0.876118
 30
0.0
 11
29.74316
 21
0.9205399999999999
 31
0.0
  0
LINE
  5
88A
330
1F
100
AcDbEntity
  8
1
  6
CONTINUOUS
370
50
 62
4
100
AcDbLine
 10
35.232651
 20
0.8759669999999999
 30
0.0
 11
35.413662
 21
0.920252
 31
0.0
  0
LINE
  5
88B
330
1F
100
AcDbEntity
  8
1
  6
CONTINUOUS
370
50
 62
4
100
AcDbLine
 10
17.66641
 20
-0.9208689999999999
 30
0.0
 11
17.848362
 21
-0.8763329999999999
 31
0.0
  0
LINE
  5
88C
330
1F
100
AcDbEntity
  8
1
  6
CONTINUOUS
370
50
 62
4
100
AcDbLine
 10
51.702717
 20
-0.919867
 30
0.0
 11
51.883686
 21
-0.8755269999999999
 31
0.0
  0
LINE
  5
88D
330
1F
100
AcDbEntity
  8
1
  6
CONTINUOUS
370
50
 62
4
100
AcDbLine
 10
59.75240299999999
 20
0.449084
 30
0.0
 11
59.776134
 21
0.45532
 31
0.0
  0
LINE
  5
88E
330
1F
100
AcDbEntity
  8
1
  6
CONTINUOUS
370
50
 62
4
100
AcDbLine
 10
0.0
 20
-1.5
 30
0.0
 11
1.9
 21
-1.0
 31
0.0
  0
LINE
  5
88F
330
1F
100
AcDbEntity
  8
1
  6
CONTINUOUS
370
50
 62
4
100
AcDbLine
 10
2.474724
 20
0.865351
 30
0.0
 11
2.50642
 21
0.87403
 31
0.0
  0
LINE
  5
890
330
1F
100
AcDbEntity
  8
1
  6
CONTINUOUS
370
50
 62
4
100
AcDbLine
 10
57.738438
 20
0.822328
 30
0.0
 11
57.921913
 21
0.875255
 31
0.0
  0
LINE
  5
891
330
1F
100
AcDbEntity
  8
1
  6
CONTINUOUS
370
50
 62
4
100
AcDbLine
 10
29.193789
 20
-0.876072
 30
0.0
 11
29.378366
 21
-0.8227639999999999
 31
0.0
  0
LINE
  5
892
330
1F
100
AcDbEntity
  8
1
  6
CONTINUOUS
370
50
 62
4
100
AcDbLine
 10
23.704365
 20
0.8228909999999999
 30
0.0
 11
23.887522
 21
0.875819
 31
0.0
  0
LINE
  5
893
330
1F
100
AcDbEntity
  8
1
  6
CONTINUOUS
370
50
 62
4
100
AcDbLine
 10
23.521048
 20
-0.8760249999999999
 30
0.0
 11
23.704355
 21
-0.822889
 31
0.0
  0
LINE
  5
894
330
1F
100
AcDbEntity
  8
1
  6
CONTINUOUS
370
50
 62
4
100
AcDbLine
 10
18.030926
 20
0.8229329999999999
 30
0.0
 11
18.213297
 21
0.875802
 31
0.0
  0
LINE
  5
895
330
1F
100
AcDbEntity
  8
1
  6
CONTINUOUS
370
50
 62
4
100
AcDbLine
 10
57.555954
 20
-0.8752599999999999
 30
0.0
 11
57.73842999999999
 21
-0.82233
 31
0.0
  0
LINE
  5
896
330
1F
100
AcDbEntity
  8
1
  6
CONTINUOUS
370
50
 62
4
100
AcDbLine
 10
52.065289
 20
0.8223269999999999
 30
0.0
 11
52.247566
 21
0.8752939999999999
 31
0.0
  0
LINE
  5
897
330
1F
100
AcDbEntity
  8
1
  6
CONTINUOUS
370
50
 62
4
100
AcDbLine
 10
59.776134
 20
0.45532
 30
0.0
 11
59.79895399999999
 21
0.461958
 31
0.0
  0
LINE
  5
898
330
1F
100
AcDbEntity
  8
1
  6
CONTINUOUS
370
50
 62
4
100
AcDbLine
 10
34.866974
 20
-0.876195
 30
0.0
 11
35.050922
 21
-0.8226399999999999
 31
0.0
  0
LINE
  5
899
330
1F
100
AcDbEntity
  8
1
  6
CONTINUOUS
370
50
 62
4
100
AcDbLine
 10
29.378374
 20
0.8227639999999999
 30
0.0
 11
29.561363
 21
0.876118
 31
0.0
  0
LINE
  5
89A
330
1F
100
AcDbEntity
  8
1
  6
CONTINUOUS
370
50
 62
4
100
AcDbLine
 10
17.848362
 20
-0.8763329999999999
 30
0.0
 11
18.030912
 21
-0.822932
 31
0.0
  0
LINE
  5
89B
330
1F
100
AcDbEntity
  8
1
  6
CONTINUOUS
370
50
 62
4
100
AcDbLine
 10
46.393517
 20
0.8223739999999999
 30
0.0
 11
46.577305
 21
0.876199
 31
0.0
  0
LINE
  5
89C
330
1F
100
AcDbEntity
  8
1
  6
CONTINUOUS
370
50
 62
4
100
AcDbLine
 10
51.883686
 20
-0.8755269999999999
 30
0.0
 11
52.065273
 21
-0.8223269999999999
 31
0.0
  0
LINE
  5
89D
330
1F
100
AcDbEntity
  8
1
  6
CONTINUOUS
370
50
 62
4
100
AcDbLine
 10
12.358913
 20
0.822969
 30
0.0
 11
12.539694
 21
0.8759429999999999
 31
0.0
  0
LINE
  5
89E
330
1F
100
AcDbEntity
  8
1
  6
CONTINUOUS
370
50
 62
4
100
AcDbLine
 10
35.05093
 20
0.8226399999999999
 30
0.0
 11
35.232651
 21
0.8759669999999999
 31
0.0
  0
LINE
  5
89F
330
1F
100
AcDbEntity
  8
1
  6
CONTINUOUS
370
50
 62
4
100
AcDbLine
 10
6.687468
 20
0.822445
 30
0.0
 11
6.870305999999999
 21
0.876103
 31
0.0
  0
LINE
  5
8A0
330
1F
100
AcDbEntity
  8
1
  6
CONTINUOUS
370
50
 62
4
100
AcDbLine
 10
6.505356
 20
-0.875961
 30
0.0
 11
6.687491
 21
-0.8224549999999999
 31
0.0
  0
LINE
  5
8A1
330
1F
100
AcDbEntity
  8
1
  6
CONTINUOUS
370
50
 62
4
100
AcDbLine
 10
40.539818
 20
-0.876114
 30
0.0
 11
40.722328
 21
-0.822476
 31
0.0
  0
LINE
  5
8A2
330
1F
100
AcDbEntity
  8
1
  6
CONTINUOUS
370
50
 62
4
100
AcDbLine
 10
46.211308
 20
-0.8759739999999999
 30
0.0
 11
46.393513
 21
-0.8223699999999999
 31
0.0
  0
LINE
  5
8A3
330
1F
100
AcDbEntity
  8
1
  6
CONTINUOUS
370
50
 62
4
100
AcDbLine
 10
12.176574
 20
-0.876609
 30
0.0
 11
12.358904
 21
-0.8229679999999999
 31
0.0
  0
LINE
  5
8A4
330
1F
100
AcDbEntity
  8
1
  6
CONTINUOUS
370
50
 62
4
100
AcDbLine
 10
40.72234
 20
0.822476
 30
0.0
 11
40.903027
 21
0.875643
 31
0.0
  0
LINE
  5
8A5
330
1F
100
AcDbEntity
  8
1
  6
CONTINUOUS
370
50
 62
4
100
AcDbLine
 10
59.79895399999999
 20
0.461958
 30
0.0
 11
59.820843
 21
0.469011
 31
0.0
  0
LINE
  5
8A6
330
1F
100
AcDbEntity
  8
1
  6
CONTINUOUS
370
50
 62
4
100
AcDbLine
 10
60.00067499999999
 20
-0.259744
 30
0.0
 11
60.012566
 21
-0.25551
 31
0.0
  0
LINE
  5
8A7
330
1F
100
AcDbEntity
  8
1
  6
CONTINUOUS
370
50
 62
4
100
AcDbLine
 10
59.820843
 20
0.469011
 30
0.0
 11
59.84177399999999
 21
0.476493
 31
0.0
  0
LINE
  5
8A8
330
1F
100
AcDbEntity
  8
1
  6
CONTINUOUS
370
50
 62
4
100
AcDbLine
 10
2.44527
 20
0.854745
 30
0.0
 11
2.474724
 21
0.865351
 31
0.0
  0
LINE
  5
8A9
330
1F
100
AcDbEntity
  8
1
  6
CONTINUOUS
370
50
 62
4
100
AcDbLine
 10
59.84177399999999
 20
0.476493
 30
0.0
 11
59.861732
 21
0.484419
 31
0.0
  0
LINE
  5
8AA
330
1F
100
AcDbEntity
  8
1
  6
CONTINUOUS
370
50
 62
4
100
AcDbLine
 10
59.861732
 20
0.484419
 30
0.0
 11
59.880692
 21
0.492803
 31
0.0
  0
LINE
  5
8AB
330
1F
100
AcDbEntity
  8
1
  6
CONTINUOUS
370
50
 62
4
100
AcDbLine
 10
60.012566
 20
-0.25551
 30
0.0
 11
60.024502
 21
-0.249813
 31
0.0
  0
LINE
  5
8AC
330
1F
100
AcDbEntity
  8
1
  6
CONTINUOUS
370
50
 62
4
100
AcDbLine
 10
2.418802
 20
0.841953
 30
0.0
 11
2.44527
 21
0.854745
 31
0.0
  0
LINE
  5
8AD
330
1F
100
AcDbEntity
  8
1
  6
CONTINUOUS
370
50
 62
4
100
AcDbLine
 10
59.880692
 20
0.492803
 30
0.0
 11
59.898701
 21
0.501696
 31
0.0
  0
LINE
  5
8AE
330
1F
100
AcDbEntity
  8
1
  6
CONTINUOUS
370
50
 62
4
100
AcDbLine
 10
59.898701
 20
0.501696
 30
0.0
 11
59.916103
 21
0.511344
 31
0.0
  0
LINE
  5
8AF
330
1F
100
AcDbEntity
  8
1
  6
CONTINUOUS
370
50
 62
4
100
AcDbLine
 10
10.399134
 20
1.0
 30
0.0
 11
10.4
 21
1.0005
 31
0.0
  0
LINE
  5
8B0
330
1F
100
AcDbEntity
  8
1
  6
CONTINUOUS
370
50
 62
4
100
AcDbLine
 10
60.024502
 20
-0.249813
 30
0.0
 11
60.03645299999999
 21
-0.242633
 31
0.0
  0
LINE
  5
8B1
330
1F
100
AcDbEntity
  8
1
  6
CONTINUOUS
370
50
 62
4
100
AcDbLine
 10
60.095364
 20
-0.183895
 30
0.0
 11
60.34107599999999
 21
-0.035569
 31
0.0
  0
LINE
  5
8B2
330
1F
100
AcDbEntity
  8
1
  6
CONTINUOUS
370
50
 62
4
100
AcDbLine
 10
59.976803
 20
-0.9998849999999999
 30
0.0
 11
59.97696699999999
 21
-0.9997849999999999
 31
0.0
  0
LINE
  5
8B3
330
1F
100
AcDbEntity
  8
1
  6
CONTINUOUS
370
50
 62
4
100
AcDbLine
 10
59.916103
 20
0.511344
 30
0.0
 11
59.93281899999999
 21
0.5218309999999999
 31
0.0
  0
LINE
  5
8B4
330
1F
100
AcDbEntity
  8
1
  6
CONTINUOUS
370
50
 62
4
100
AcDbLine
 10
2.396188
 20
0.8266819999999999
 30
0.0
 11
2.418802
 21
0.841953
 31
0.0
  0
LINE
  5
8B5
330
1F
100
AcDbEntity
  8
1
  6
CONTINUOUS
370
50
 62
4
100
AcDbLine
 10
59.976639
 20
-1.0
 30
0.0
 11
59.976803
 21
-0.9998849999999999
 31
0.0
  0
LINE
  5
8B6
330
1F
100
AcDbEntity
  8
1
  6
CONTINUOUS
370
50
 62
4
100
AcDbLine
 10
59.93281899999999
 20
0.5218309999999999
 30
0.0
 11
59.94869199999999
 21
0.533203
 31
0.0
  0
LINE
  5
8B7
330
1F
100
AcDbEntity
  8
1
  6
CONTINUOUS
370
50
 62
4
100
AcDbLine
 10
60.03645299999999
 20
-0.242633
 30
0.0
 11
60.048389
 21
-0.233952
 31
0.0
  0
LINE
  5
8B8
330
1F
100
AcDbEntity
  8
1
  6
CONTINUOUS
370
50
 62
4
100
AcDbLine
 10
59.94869199999999
 20
0.533203
 30
0.0
 11
59.96357
 21
0.545508
 31
0.0
  0
LINE
  5
8B9
330
1F
100
AcDbEntity
  8
1
  6
CONTINUOUS
370
50
 62
4
100
AcDbLine
 10
60.048389
 20
-0.233952
 30
0.0
 11
60.060291
 21
-0.223748
 31
0.0
  0
LINE
  5
8BA
330
1F
100
AcDbEntity
  8
1
  6
CONTINUOUS
370
50
 62
4
100
AcDbLine
 10
59.96357
 20
0.545508
 30
0.0
 11
59.977295
 21
0.558793
 31
0.0
  0
LINE
  5
8BB
330
1F
100
AcDbEntity
  8
1
  6
CONTINUOUS
370
50
 62
4
100
AcDbLine
 10
60.060291
 20
-0.223748
 30
0.0
 11
60.072121
 21
-0.212003
 31
0.0
  0
LINE
  5
8BC
330
1F
100
AcDbEntity
  8
1
  6
CONTINUOUS
370
50
 62
4
100
AcDbLine
 10
2.378504
 20
0.8088639999999999
 30
0.0
 11
2.396188
 21
0.8266819999999999
 31
0.0
  0
LINE
  5
8BD
330
1F
100
AcDbEntity
  8
1
  6
CONTINUOUS
370
50
 62
4
100
AcDbLine
 10
59.97696699999999
 20
-0.9997849999999999
 30
0.0
 11
59.977131
 21
-0.999606
 31
0.0
  0
LINE
  5
8BE
330
1F
100
AcDbEntity
  8
1
  6
CONTINUOUS
370
50
 62
4
100
AcDbLine
 10
60.072121
 20
-0.212003
 30
0.0
 11
60.083847
 21
-0.198705
 31
0.0
  0
LINE
  5
8BF
330
1F
100
AcDbEntity
  8
1
  6
CONTINUOUS
370
50
 62
4
100
AcDbLine
 10
59.977295
 20
0.558793
 30
0.0
 11
59.98957799999999
 21
0.572939
 31
0.0
  0
LINE
  5
8C0
330
1F
100
AcDbEntity
  8
1
  6
CONTINUOUS
370
50
 62
4
100
AcDbLine
 10
60.083847
 20
-0.198705
 30
0.0
 11
60.095364
 21
-0.183895
 31
0.0
  0
LINE
  5
8C1
330
1F
100
AcDbEntity
  8
1
  6
CONTINUOUS
370
50
 62
4
100
AcDbLine
 10
59.98957799999999
 20
0.572939
 30
0.0
 11
60.000252
 21
0.5878439999999999
 31
0.0
  0
LINE
  5
8C2
330
1F
100
AcDbEntity
  8
1
  6
CONTINUOUS
370
50
 62
4
100
AcDbLine
 10
59.977131
 20
-0.999606
 30
0.0
 11
59.977295
 21
-0.999346
 31
0.0
  0
LINE
  5
8C3
330
1F
100
AcDbEntity
  8
1
  6
CONTINUOUS
370
50
 62
4
100
AcDbLine
 10
2.366667
 20
0.7887689999999999
 30
0.0
 11
2.378504
 21
0.8088639999999999
 31
0.0
  0
LINE
  5
8C4
330
1F
100
AcDbEntity
  8
1
  6
CONTINUOUS
370
50
 62
4
100
AcDbLine
 10
60.000252
 20
0.5878439999999999
 30
0.0
 11
60.009285
 21
0.6035269999999999
 31
0.0
  0
LINE
  5
8C5
330
1F
100
AcDbEntity
  8
1
  6
CONTINUOUS
370
50
 62
4
100
AcDbLine
 10
59.977295
 20
-0.999346
 30
0.0
 11
59.977459
 21
-0.999007
 31
0.0
  0
LINE
  5
8C6
330
1F
100
AcDbEntity
  8
1
  6
CONTINUOUS
370
50
 62
4
100
AcDbLine
 10
60.009285
 20
0.6035269999999999
 30
0.0
 11
60.01664
 21
0.620008
 31
0.0
  0
LINE
  5
8C7
330
1F
100
AcDbEntity
  8
1
  6
CONTINUOUS
370
50
 62
4
100
AcDbLine
 10
59.977463
 20
-0.9990199999999999
 30
0.0
 11
60.400002
 21
0.0
 31
0.0
  0
LINE
  5
8C8
330
1F
100
AcDbEntity
  8
1
  6
CONTINUOUS
370
50
 62
4
100
AcDbLine
 10
59.977459
 20
-0.999007
 30
0.0
 11
59.977627
 21
-0.998587
 31
0.0
  0
LINE
  5
8C9
330
1F
100
AcDbEntity
  8
1
  6
CONTINUOUS
370
50
 62
4
100
AcDbLine
 10
60.01664
 20
0.620008
 30
0.0
 11
60.02225499999999
 21
0.637201
 31
0.0
  0
LINE
  5
8CA
330
1F
100
AcDbEntity
  8
1
  6
CONTINUOUS
370
50
 62
4
100
AcDbLine
 10
2.360946
 20
0.766616
 30
0.0
 11
2.366667
 21
0.7887689999999999
 31
0.0
  0
LINE
  5
8CB
330
1F
100
AcDbEntity
  8
1
  6
CONTINUOUS
370
50
 62
4
100
AcDbLine
 10
60.02225499999999
 20
0.637201
 30
0.0
 11
60.026058
 21
0.6547029999999999
 31
0.0
  0
LINE
  5
8CC
330
1F
100
AcDbEntity
  8
1
  6
CONTINUOUS
370
50
 62
4
100
AcDbLine
 10
60.026058
 20
0.6547029999999999
 30
0.0
 11
60.028156
 21
0.672419
 31
0.0
  0
LINE
  5
8CD
330
1F
100
AcDbEntity
  8
1
  6
CONTINUOUS
370
50
 62
4
100
AcDbLine
 10
60.028156
 20
0.672419
 30
0.0
 11
60.028671
 21
0.69029
 31
0.0
  0
LINE
  5
8CE
330
1F
100
AcDbEntity
  8
1
  6
CONTINUOUS
370
50
 62
4
100
AcDbLine
 10
59.96534699999999
 20
-0.329493
 30
0.0
 11
59.965565
 21
-0.263872
 31
0.0
  0
LINE
  5
8CF
330
1F
100
AcDbEntity
  8
1
  6
CONTINUOUS
370
50
 62
4
100
AcDbLine
 10
59.965221
 20
-0.392753
 30
0.0
 11
59.96534699999999
 21
-0.329493
 31
0.0
  0
LINE
  5
8D0
330
1F
100
AcDbEntity
  8
1
  6
CONTINUOUS
370
50
 62
4
100
AcDbLine
 10
59.965187
 20
-0.453084
 30
0.0
 11
59.965221
 21
-0.392753
 31
0.0
  0
LINE
  5
8D1
330
1F
100
AcDbEntity
  8
1
  6
CONTINUOUS
370
50
 62
4
100
AcDbLine
 10
0.0
 20
-1.5
 30
0.0
 11
0.0
 21
1.5
 31
0.0
  0
LINE
  5
8D2
330
1F
100
AcDbEntity
  8
1
  6
CONTINUOUS
370
50
 62
4
100
AcDbLine
 10
1.9
 20
-1.0
 30
0.0
 11
1.9
 21
1.0
 31
0.0
  0
LINE
  5
8D3
330
1F
100
AcDbEntity
  8
1
  6
CONTINUOUS
370
50
 62
4
100
AcDbLine
 10
3.517514
 20
-0.406309
 30
0.0
 11
3.517514
 21
0.06175
 31
0.0
  0
LINE
  5
8D4
330
1F
100
AcDbEntity
  8
1
  6
CONTINUOUS
370
50
 62
4
100
AcDbLine
 10
3.519514
 20
0.060735
 30
0.0
 11
3.519514
 21
0.734223
 31
0.0
  0
LINE
  5
8D5
330
1F
100
AcDbEntity
  8
1
  6
CONTINUOUS
370
50
 62
4
100
AcDbLine
 10
10.399134
 20
0.119877
 30
0.0
 11
10.399134
 21
1.0
 31
0.0
  0
LINE
  5
8D6
330
1F
100
AcDbEntity
  8
1
  6
CONTINUOUS
370
50
 62
4
100
AcDbLine
 10
10.399134
 20
-1.0
 30
0.0
 11
10.399134
 21
-0.886675
 31
0.0
  0
LINE
  5
8D7
330
1F
100
AcDbEntity
  8
1
  6
CONTINUOUS
370
50
 62
4
100
AcDbLine
 10
10.4
 20
-1.001
 30
0.0
 11
10.4
 21
1.001
 31
0.0
  0
LINE
  5
8D8
330
1F
100
AcDbEntity
  8
1
  6
CONTINUOUS
370
50
 62
4
100
AcDbLine
 10
59.985786
 20
0.803329
 30
0.0
 11
59.985786
 21
0.894922
 31
0.0
  0
LINE
  5
8D9
330
1F
100
AcDbEntity
  8
CUT
  6
CONTINUOUS
370
25
 62
1
100
AcDbLine
 10
10.4
 20
0.0
 30
0.0
 11
60.4
 21
0.0
 31
0.0
  0
LINE
  5
8DA
330
1F
100
AcDbEntity
  8
CUT
  6
CONTINUOUS
370
25
 62
1
100
AcDbLine
 10
60.4
 20
0.0
 30
0.0
 11
59.98578644
 21
1.0
 31
0.0
  0
LINE
  5
8DB
330
1F
100
AcDbEntity
  8
CUT
  6
CONTINUOUS
370
25
 62
1
100
AcDbLine
 10
59.98578644
 20
1.0
 30
0.0
 11
10.4
 21
1.0
 31
0.0
  0
LINE
  5
8DC
330
1F
100
AcDbEntity
  8
CUT
  6
CONTINUOUS
370
25
 62
1
100
AcDbLine
 10
10.4
 20
1.0
 30
0.0
 11
10.4
 21
0.0
 31
0.0
  0
LINE
  5
8DD
330
1F
100
AcDbEntity
  8
NOCUT
  6
CONTINUOUS
370
25
 62
7
100
AcDbLine
 10
0.0
 20
0.0
 30
0.0
 11
10.4
 21
0.0
 31
0.0
  0
LINE
  5
8DE
330
1F
100
AcDbEntity
  8
NOCUT
  6
CONTINUOUS
370
25
 62
7
100
AcDbLine
 10
10.4
 20
0.0
 30
0.0
 11
10.4
 21
1.0005
 31
0.0
  0
LINE
  5
8DF
330
1F
100
AcDbEntity
  8
NOCUT
  6
CONTINUOUS
370
25
 62
7
100
AcDbLine
 10
10.4
 20
1.0005
 30
0.0
 11
10.39913397459621
 21
1.0
 31
0.0
  0
LINE
  5
8E0
330
1F
100
AcDbEntity
  8
NOCUT
  6
CONTINUOUS
370
25
 62
7
100
AcDbLine
 10
10.39913397459621
 20
1.0
 30
0.0
 11
1.899999999999999
 21
1.0
 31
0.0
  0
LINE
  5
8E1
330
1F
100
AcDbEntity
  8
NOCUT
  6
CONTINUOUS
370
25
 62
7
100
AcDbLine
 10
1.899999999999999
 20
1.0
 30
0.0
 11
0.0
 21
1.5
 31
0.0
  0
LINE
  5
8E2
330
1F
100
AcDbEntity
  8
NOCUT
  6
CONTINUOUS
370
25
 62
7
100
AcDbLine
 10
0.0
 20
1.5
 30
0.0
 11
0.0
 21
0.0
 31
0.0
  0
LINE
  5
8E3
330
1F
100
AcDbEntity
  8
NOCUT
  6
CONTINUOUS
370
25
 62
7
100
AcDbLine
 10
10.4
 20
1.0
 30
0.0
 11
10.4
 21
0.0
 31
0.0
  0
LINE
  5
8E4
330
1F
100
AcDbEntity
  8
NOCUT
  6
CONTINUOUS
370
25
 62
7
100
AcDbLine
 10
10.4
 20
1.0
 30
0.0
 11
10.4
 21
0.0
 31
0.0
  0
LINE
  5
8E5
330
1F
100
AcDbEntity
  8
SK1
  6
CONTINUOUS
370
50
 62
4
100
AcDbLine
 10
0.0
 20
1.5
 30
0.0
 11
-44.3
 21
1.5
 31
0.0
  0
LINE
  5
8E6
330
1F
100
AcDbEntity
  8
SK1
  6
CONTINUOUS
370
50
 62
4
100
AcDbLine
 10
-44.3
 20
1.5
 30
0.0
 11
-44.6
 21
1.2
 31
0.0
  0
LINE
  5
8E7
330
1F
100
AcDbEntity
  8
SK1
  6
CONTINUOUS
370
50
 62
4
100
AcDbLine
 10
-44.6
 20
1.2
 30
0.0
 11
-44.6
 21
-1.2
 31
0.0
  0
LINE
  5
8E8
330
1F
100
AcDbEntity
  8
SK1
  6
CONTINUOUS
370
50
 62
4
100
AcDbLine
 10
-44.6
 20
-1.2
 30
0.0
 11
-44.3
 21
-1.5
 31
0.0
  0
LINE
  5
8E9
330
1F
100
AcDbEntity
  8
SK1
  6
CONTINUOUS
370
50
 62
4
100
AcDbLine
 10
-44.3
 20
-1.5
 30
0.0
 11
0.0
 21
-1.5
 31
0.0
  0
LINE
  5
8EA
330
1F
100
AcDbEntity
  8
SK1
  6
CONTINUOUS
370
50
 62
4
100
AcDbLine
 10
-44.3
 20
1.5
 30
0.0
 11
-44.3
 21
-1.5
 31
0.0
  0
LINE
  5
8EB
330
1F
100
AcDbEntity
  8
SK2
  6
CONTINUOUS
370
25
 62
7
100
AcDbLine
 10
-56.6000002
 20
-1.500001
 30
0.0
 11
-57.60000000000008
 21
-1.500001
 31
0.0
  0
LINE
  5
8EC
330
1F
100
AcDbEntity
  8
SK2
  6
CONTINUOUS
370
25
 62
7
100
AcDbLine
 10
-44.6
 20
-1.500001
 30
0.0
 11
-56.5999998
 21
-1.500001
 31
0.0
  0
LINE
  5
8ED
330
1F
100
AcDbEntity
  8
SK2
  6
CONTINUOUS
370
25
 62
7
100
AcDbLine
 10
-57.6
 20
1.5
 30
0.0
 11
-44.6
 21
1.5
 31
0.0
  0
LINE
  5
8EE
330
1F
100
AcDbEntity
  8
SK2
  6
CONTINUOUS
370
25
 62
7
100
AcDbLine
 10
-56.6
 20
-8.5
 30
0.0
 11
-56.6
 21
14.975
 31
0.0
  0
LINE
  5
8EF
330
1F
100
AcDbEntity
  8
SK2
  6
CONTINUOUS
370
25
 62
7
100
AcDbLine
 10
-56.6
 20
-1.5
 30
0.0
 11
-55.6
 21
-6.5
 31
0.0
  0
LINE
  5
8F0
330
1F
100
AcDbEntity
  8
SK2
  6
CONTINUOUS
370
25
 62
7
100
AcDbLine
 10
-55.6
 20
-6.5
 30
0.0
 11
-57.6
 21
-6.5
 31
0.0
  0
LINE
  5
8F1
330
1F
100
AcDbEntity
  8
SK2
  6
CONTINUOUS
370
25
 62
7
100
AcDbLine
 10
-57.6
 20
-6.5
 30
0.0
 11
-56.6
 21
-1.5
 31
0.0
  0
LINE
  5
8F2
330
1F
100
AcDbEntity
  8
SK2
  6
CONTINUOUS
370
25
 62
7
100
AcDbLine
 10
-55.71463197058368
 20
-6.5
 30
0.0
 11
-55.61910532843061
 21
-6.404473357846932
 31
0.0
  0
LINE
  5
8F3
330
1F
100
AcDbEntity
  8
SK2
  6
CONTINUOUS
370
25
 62
7
100
AcDbLine
 10
-56.1388960392956
 20
-6.5
 30
0.0
 11
-55.68981600654927
 21
-6.050919967253662
 31
0.0
  0
LINE
  5
8F4
330
1F
100
AcDbEntity
  8
SK2
  6
CONTINUOUS
370
25
 62
7
100
AcDbLine
 10
-56.56316010800754
 20
-6.5
 30
0.0
 11
-55.76052668466792
 21
-5.697366576660379
 31
0.0
  0
LINE
  5
8F5
330
1F
100
AcDbEntity
  8
SK2
  6
CONTINUOUS
370
25
 62
7
100
AcDbLine
 10
-56.98742417671947
 20
-6.5
 30
0.0
 11
-55.83123736278659
 21
-5.343813186067109
 31
0.0
  0
LINE
  5
8F6
330
1F
100
AcDbEntity
  8
SK2
  6
CONTINUOUS
370
25
 62
7
100
AcDbLine
 10
-57.41168824543141
 20
-6.5
 30
0.0
 11
-55.90194804090523
 21
-4.990259795473825
 31
0.0
  0
LINE
  5
8F7
330
1F
100
AcDbEntity
  8
SK2
  6
CONTINUOUS
370
25
 62
7
100
AcDbLine
 10
-57.54101192146418
 20
-6.205059607320841
 30
0.0
 11
-55.97265871902388
 21
-4.636706404880549
 31
0.0
  0
LINE
  5
8F8
330
1F
100
AcDbEntity
  8
SK2
  6
CONTINUOUS
370
25
 62
7
100
AcDbLine
 10
-57.43494590428619
 20
-5.674729521430919
 30
0.0
 11
-56.04336939714255
 21
-4.283153014287279
 31
0.0
  0
LINE
  5
8F9
330
1F
100
AcDbEntity
  8
SK2
  6
CONTINUOUS
370
25
 62
7
100
AcDbLine
 10
-57.3288798871082
 20
-5.144399435540997
 30
0.0
 11
-56.1140800752612
 21
-3.929599623693996
 31
0.0
  0
LINE
  5
8FA
330
1F
100
AcDbEntity
  8
SK2
  6
CONTINUOUS
370
25
 62
7
100
AcDbLine
 10
-57.22281386993022
 20
-4.614069349651089
 30
0.0
 11
-56.18479075337985
 21
-3.576046233100719
 31
0.0
  0
LINE
  5
8FB
330
1F
100
AcDbEntity
  8
SK2
  6
CONTINUOUS
370
25
 62
7
100
AcDbLine
 10
-57.11674785275224
 20
-4.083739263761181
 30
0.0
 11
-56.25550143149851
 21
-3.222492842507449
 31
0.0
  0
LINE
  5
8FC
330
1F
100
AcDbEntity
  8
SK2
  6
CONTINUOUS
370
25
 62
7
100
AcDbLine
 10
-57.01068183557426
 20
-3.553409177871266
 30
0.0
 11
-56.32621210961716
 21
-2.868939451914166
 31
0.0
  0
LINE
  5
8FD
330
1F
100
AcDbEntity
  8
SK2
  6
CONTINUOUS
370
25
 62
7
100
AcDbLine
 10
-56.90461581839627
 20
-3.023079091981344
 30
0.0
 11
-56.39692278773583
 21
-2.515386061320896
 31
0.0
  0
LINE
  5
8FE
330
1F
100
AcDbEntity
  8
SK2
  6
CONTINUOUS
370
25
 62
7
100
AcDbLine
 10
-56.79854980121829
 20
-2.492749006091429
 30
0.0
 11
-56.46763346585448
 21
-2.16183267072762
 31
0.0
  0
LINE
  5
8FF
330
1F
100
AcDbEntity
  8
SK2
  6
CONTINUOUS
370
25
 62
7
100
AcDbLine
 10
-56.69248378404031
 20
-1.962418920201522
 30
0.0
 11
-56.53834414397313
 21
-1.808279280134343
 31
0.0
  0
LINE
  5
900
330
1F
100
AcDbEntity
  8
SK2
  6
CONTINUOUS
370
25
 62
7
100
AcDbLine
 10
-57.55273730172329
 20
-6.263686508616424
 30
0.0
 11
-57.31642381033971
 21
-6.5
 31
0.0
  0
LINE
  5
901
330
1F
100
AcDbEntity
  8
SK2
  6
CONTINUOUS
370
25
 62
7
100
AcDbLine
 10
-57.48202662360463
 20
-5.910133118023154
 30
0.0
 11
-56.89215974162778
 21
-6.5
 31
0.0
  0
LINE
  5
902
330
1F
100
AcDbEntity
  8
SK2
  6
CONTINUOUS
370
25
 62
7
100
AcDbLine
 10
-57.41131594548597
 20
-5.556579727429884
 30
0.0
 11
-56.46789567291585
 21
-6.5
 31
0.0
  0
LINE
  5
903
330
1F
100
AcDbEntity
  8
SK2
  6
CONTINUOUS
370
25
 62
7
100
AcDbLine
 10
-57.34060526736732
 20
-5.203026336836601
 30
0.0
 11
-56.04363160420392
 21
-6.5
 31
0.0
  0
LINE
  5
904
330
1F
100
AcDbEntity
  8
SK2
  6
CONTINUOUS
370
25
 62
7
100
AcDbLine
 10
-57.26989458924866
 20
-4.849472946243331
 30
0.0
 11
-55.61936753549199
 21
-6.5
 31
0.0
  0
LINE
  5
905
330
1F
100
AcDbEntity
  8
SK2
  6
CONTINUOUS
370
25
 62
7
100
AcDbLine
 10
-57.19918391113001
 20
-4.495919555650048
 30
0.0
 11
-55.70122413330498
 21
-5.993879333475071
 31
0.0
  0
LINE
  5
906
330
1F
100
AcDbEntity
  8
SK2
  6
CONTINUOUS
370
25
 62
7
100
AcDbLine
 10
-57.12847323301136
 20
-4.142366165056771
 30
0.0
 11
-55.80729015048296
 21
-5.463549247585163
 31
0.0
  0
LINE
  5
907
330
1F
100
AcDbEntity
  8
SK2
  6
CONTINUOUS
370
25
 62
7
100
AcDbLine
 10
-57.0577625548927
 20
-3.788812774463494
 30
0.0
 11
-55.91335616766095
 21
-4.933219161695241
 31
0.0
  0
LINE
  5
908
330
1F
100
AcDbEntity
  8
SK2
  6
CONTINUOUS
370
25
 62
7
100
AcDbLine
 10
-56.98705187677405
 20
-3.435259383870218
 30
0.0
 11
-56.01942218483894
 21
-4.402889075805327
 31
0.0
  0
LINE
  5
909
330
1F
100
AcDbEntity
  8
SK2
  6
CONTINUOUS
370
25
 62
7
100
AcDbLine
 10
-56.9163411986554
 20
-3.081705993276941
 30
0.0
 11
-56.12548820201692
 21
-3.872558989915419
 31
0.0
  0
LINE
  5
90A
330
1F
100
AcDbEntity
  8
SK2
  6
CONTINUOUS
370
25
 62
7
100
AcDbLine
 10
-56.84563052053673
 20
-2.728152602683679
 30
0.0
 11
-56.2315542191949
 21
-3.342228904025511
 31
0.0
  0
LINE
  5
90B
330
1F
100
AcDbEntity
  8
SK2
  6
CONTINUOUS
370
25
 62
7
100
AcDbLine
 10
-56.77491984241808
 20
-2.374599212090402
 30
0.0
 11
-56.33762023637289
 21
-2.811898818135596
 31
0.0
  0
LINE
  5
90C
330
1F
100
AcDbEntity
  8
SK2
  6
CONTINUOUS
370
25
 62
7
100
AcDbLine
 10
-56.70420916429942
 20
-2.021045821497125
 30
0.0
 11
-56.44368625355087
 21
-2.281568732245681
 31
0.0
  0
LINE
  5
90D
330
1F
100
AcDbEntity
  8
SK2
  6
CONTINUOUS
370
25
 62
7
100
AcDbLine
 10
-56.63349848618078
 20
-1.667492430903842
 30
0.0
 11
-56.54975227072884
 21
-1.75123864635578
 31
0.0
  0
LINE
  5
90E
330
1F
100
AcDbEntity
  8
SK2
  6
CONTINUOUS
370
25
 62
7
100
AcDbLine
 10
-56.6
 20
1.5
 30
0.0
 11
-57.6
 21
6.5
 31
0.0
  0
LINE
  5
90F
330
1F
100
AcDbEntity
  8
SK2
  6
CONTINUOUS
370
25
 62
7
100
AcDbLine
 10
-57.6
 20
6.5
 30
0.0
 11
-55.6
 21
6.5
 31
0.0
  0
LINE
  5
910
330
1F
100
AcDbEntity
  8
SK2
  6
CONTINUOUS
370
25
 62
7
100
AcDbLine
 10
-55.6
 20
6.5
 30
0.0
 11
-56.6
 21
1.5
 31
0.0
  0
LINE
  5
911
330
1F
100
AcDbEntity
  8
SK2
  6
CONTINUOUS
370
25
 62
7
100
AcDbLine
 10
-56.60402956892236
 20
1.520147844611813
 30
0.0
 11
-56.59395564661646
 21
1.530221766917705
 31
0.0
  0
LINE
  5
912
330
1F
100
AcDbEntity
  8
SK2
  6
CONTINUOUS
370
25
 62
7
100
AcDbLine
 10
-56.67474024704101
 20
1.873701235205097
 30
0.0
 11
-56.48788962943848
 21
2.060551852807627
 31
0.0
  0
LINE
  5
913
330
1F
100
AcDbEntity
  8
SK2
  6
CONTINUOUS
370
25
 62
7
100
AcDbLine
 10
-56.74545092515967
 20
2.227254625798359
 30
0.0
 11
-56.3818236122605
 21
2.590881938697535
 31
0.0
  0
LINE
  5
914
330
1F
100
AcDbEntity
  8
SK2
  6
CONTINUOUS
370
25
 62
7
100
AcDbLine
 10
-56.81616160327832
 20
2.580808016391643
 30
0.0
 11
-56.27575759508251
 21
3.121212024587457
 31
0.0
  0
LINE
  5
915
330
1F
100
AcDbEntity
  8
SK2
  6
CONTINUOUS
370
25
 62
7
100
AcDbLine
 10
-56.88687228139698
 20
2.934361406984912
 30
0.0
 11
-56.16969157790453
 21
3.651542110477365
 31
0.0
  0
LINE
  5
916
330
1F
100
AcDbEntity
  8
SK2
  6
CONTINUOUS
370
25
 62
7
100
AcDbLine
 10
-56.95758295951563
 20
3.287914797578196
 30
0.0
 11
-56.06362556072655
 21
4.18187219636728
 31
0.0
  0
LINE
  5
917
330
1F
100
AcDbEntity
  8
SK2
  6
CONTINUOUS
370
25
 62
7
100
AcDbLine
 10
-57.0282936376343
 20
3.641468188171451
 30
0.0
 11
-55.95755954354856
 21
4.712202282257195
 31
0.0
  0
LINE
  5
918
330
1F
100
AcDbEntity
  8
SK2
  6
CONTINUOUS
370
25
 62
7
100
AcDbLine
 10
-57.09900431575295
 20
3.995021578764735
 30
0.0
 11
-55.85149352637058
 21
5.24253236814711
 31
0.0
  0
LINE
  5
919
330
1F
100
AcDbEntity
  8
SK2
  6
CONTINUOUS
370
25
 62
7
100
AcDbLine
 10
-57.1697149938716
 20
4.348574969358019
 30
0.0
 11
-55.74542750919259
 21
5.772862454037032
 31
0.0
  0
LINE
  5
91A
330
1F
100
AcDbEntity
  8
SK2
  6
CONTINUOUS
370
25
 62
7
100
AcDbLine
 10
-57.24042567199027
 20
4.702128359951281
 30
0.0
 11
-55.63936149201461
 21
6.30319253992694
 31
0.0
  0
LINE
  5
91B
330
1F
100
AcDbEntity
  8
SK2
  6
CONTINUOUS
370
25
 62
7
100
AcDbLine
 10
-57.31113635010892
 20
5.055681750544565
 30
0.0
 11
-55.86681810065348
 21
6.5
 31
0.0
  0
LINE
  5
91C
330
1F
100
AcDbEntity
  8
SK2
  6
CONTINUOUS
370
25
 62
7
100
AcDbLine
 10
-57.38184702822758
 20
5.409235141137835
 30
0.0
 11
-56.29108216936541
 21
6.5
 31
0.0
  0
LINE
  5
91D
330
1F
100
AcDbEntity
  8
SK2
  6
CONTINUOUS
370
25
 62
7
100
AcDbLine
 10
-57.45255770634623
 20
5.762788531731118
 30
0.0
 11
-56.71534623807734
 21
6.5
 31
0.0
  0
LINE
  5
91E
330
1F
100
AcDbEntity
  8
SK2
  6
CONTINUOUS
370
25
 62
7
100
AcDbLine
 10
-57.52326838446488
 20
6.116341922324395
 30
0.0
 11
-57.13961030678927
 21
6.5
 31
0.0
  0
LINE
  5
91F
330
1F
100
AcDbEntity
  8
SK2
  6
CONTINUOUS
370
25
 62
7
100
AcDbLine
 10
-57.59397906258354
 20
6.469895312917664
 30
0.0
 11
-57.5638743755012
 21
6.5
 31
0.0
  0
LINE
  5
920
330
1F
100
AcDbEntity
  8
SK2
  6
CONTINUOUS
370
25
 62
7
100
AcDbLine
 10
-56.61777175538937
 20
1.588858776946878
 30
0.0
 11
-56.58815216307375
 21
1.559239184631259
 31
0.0
  0
LINE
  5
921
330
1F
100
AcDbEntity
  8
SK2
  6
CONTINUOUS
370
25
 62
7
100
AcDbLine
 10
-56.72383777256736
 20
2.119188862836793
 30
0.0
 11
-56.5174414849551
 21
1.912792575224536
 31
0.0
  0
LINE
  5
922
330
1F
100
AcDbEntity
  8
SK2
  6
CONTINUOUS
370
25
 62
7
100
AcDbLine
 10
-56.82990378974534
 20
2.649518948726708
 30
0.0
 11
-56.44673080683643
 21
2.266345965817806
 31
0.0
  0
LINE
  5
923
330
1F
100
AcDbEntity
  8
SK2
  6
CONTINUOUS
370
25
 62
7
100
AcDbLine
 10
-56.93596980692332
 20
3.179849034616623
 30
0.0
 11
-56.37602012871778
 21
2.619899356411082
 31
0.0
  0
LINE
  5
924
330
1F
100
AcDbEntity
  8
SK2
  6
CONTINUOUS
370
25
 62
7
100
AcDbLine
 10
-57.0420358241013
 20
3.710179120506538
 30
0.0
 11
-56.30530945059913
 21
2.973452747004366
 31
0.0
  0
LINE
  5
925
330
1F
100
AcDbEntity
  8
SK2
  6
CONTINUOUS
370
25
 62
7
100
AcDbLine
 10
-57.14810184127929
 20
4.240509206396453
 30
0.0
 11
-56.23459877248047
 21
3.327006137597635
 31
0.0
  0
LINE
  5
926
330
1F
100
AcDbEntity
  8
SK2
  6
CONTINUOUS
370
25
 62
7
100
AcDbLine
 10
-57.25416785845727
 20
4.770839292286368
 30
0.0
 11
-56.16388809436182
 21
3.680559528190912
 31
0.0
  0
LINE
  5
927
330
1F
100
AcDbEntity
  8
SK2
  6
CONTINUOUS
370
25
 62
7
100
AcDbLine
 10
-57.36023387563526
 20
5.301169378176283
 30
0.0
 11
-56.09317741624316
 21
4.034112918784182
 31
0.0
  0
LINE
  5
928
330
1F
100
AcDbEntity
  8
SK2
  6
CONTINUOUS
370
25
 62
7
100
AcDbLine
 10
-57.46629989281324
 20
5.831499464066191
 30
0.0
 11
-56.02246673812451
 21
4.387666309377458
 31
0.0
  0
LINE
  5
929
330
1F
100
AcDbEntity
  8
SK2
  6
CONTINUOUS
370
25
 62
7
100
AcDbLine
 10
-57.57236590999122
 20
6.361829549956099
 30
0.0
 11
-55.95175606000585
 21
4.741219699970728
 31
0.0
  0
LINE
  5
92A
330
1F
100
AcDbEntity
  8
SK2
  6
CONTINUOUS
370
25
 62
7
100
AcDbLine
 10
-57.28627229132319
 20
6.5
 30
0.0
 11
-55.8810453818872
 21
5.094773090564011
 31
0.0
  0
LINE
  5
92B
330
1F
100
AcDbEntity
  8
SK2
  6
CONTINUOUS
370
25
 62
7
100
AcDbLine
 10
-56.86200822261126
 20
6.5
 30
0.0
 11
-55.81033470376855
 21
5.448326481157295
 31
0.0
  0
LINE
  5
92C
330
1F
100
AcDbEntity
  8
SK2
  6
CONTINUOUS
370
25
 62
7
100
AcDbLine
 10
-56.43774415389932
 20
6.5
 30
0.0
 11
-55.73962402564989
 21
5.801879871750572
 31
0.0
  0
LINE
  5
92D
330
1F
100
AcDbEntity
  8
SK2
  6
CONTINUOUS
370
25
 62
7
100
AcDbLine
 10
-56.0134800851874
 20
6.5
 30
0.0
 11
-55.66891334753124
 21
6.155433262343848
 31
0.0
  0
TEXT
  5
92E
330
1F
100
AcDbEntity
  8
SK2
  6
CONTINUOUS
370
25
 62
7
100
AcDbText
 10
-58.1
 20
11.84583333333333
 30
0.0
 40
3.499999999999996
  1
3
 50
90.00000000000001
 72
     1
 11
-58.1
 21
13.0125
 31
0.0
100
AcDbText
  0
CIRCLE
  5
92F
330
1F
100
AcDbEntity
  8
SK2
  6
CONTINUOUS
370
25
 62
7
100
AcDbCircle
 10
-59.85
 20
9.6875
 30
0.0
 40
1.4
  0
LINE
  5
930
330
1F
100
AcDbEntity
  8
SK2
  6
CONTINUOUS
370
25
 62
7
100
AcDbLine
 10
-58.45
 20
8.287500000000001
 30
0.0
 11
-61.25
 21
11.0875
 31
0.0
  0
LINE
  5
931
330
1F
100
AcDbEntity
  8
SK2
  6
CONTINUOUS
370
25
 62
7
100
AcDbLine
 10
-44.6
 20
1.5
 30
0.0
 11
-44.6
 21
14.5
 31
0.0
  0
LINE
  5
932
330
1F
100
AcDbEntity
  8
SK2
  6
CONTINUOUS
370
25
 62
7
100
AcDbLine
 10
0.0000000000000001
 20
14.5
 30
0.0
 11
-0.0000000000000007
 21
1.5
 31
0.0
  0
LINE
  5
933
330
1F
100
AcDbEntity
  8
SK2
  6
CONTINUOUS
370
25
 62
7
100
AcDbLine
 10
-44.6
 20
13.5
 30
0.0
 11
0.0
 21
13.5
 31
0.0
  0
LINE
  5
934
330
1F
100
AcDbEntity
  8
SK2
  6
CONTINUOUS
370
25
 62
7
100
AcDbLine
 10
-44.6
 20
13.5
 30
0.0
 11
-39.6
 21
14.5
 31
0.0
  0
LINE
  5
935
330
1F
100
AcDbEntity
  8
SK2
  6
CONTINUOUS
370
25
 62
7
100
AcDbLine
 10
-39.6
 20
14.5
 30
0.0
 11
-39.6
 21
12.5
 31
0.0
  0
LINE
  5
936
330
1F
100
AcDbEntity
  8
SK2
  6
CONTINUOUS
370
25
 62
7
100
AcDbLine
 10
-39.6
 20
12.5
 30
0.0
 11
-44.6
 21
13.5
 31
0.0
  0
LINE
  5
937
330
1F
100
AcDbEntity
  8
SK2
  6
CONTINUOUS
370
25
 62
7
100
AcDbLine
 10
-39.67040037630599
 20
12.51408007526119
 30
0.0
 11
-39.6
 21
12.58448045156718
 31
0.0
  0
LINE
  5
938
330
1F
100
AcDbEntity
  8
SK2
  6
CONTINUOUS
370
25
 62
7
100
AcDbLine
 10
-40.02395376689926
 20
12.58479075337985
 30
0.0
 11
-39.6
 21
13.00874452027911
 31
0.0
  0
LINE
  5
939
330
1F
100
AcDbEntity
  8
SK2
  6
CONTINUOUS
370
25
 62
7
100
AcDbLine
 10
-40.37750715749254
 20
12.6555014314985
 30
0.0
 11
-39.6
 21
13.43300858899104
 31
0.0
  0
LINE
  5
93A
330
1F
100
AcDbEntity
  8
SK2
  6
CONTINUOUS
370
25
 62
7
100
AcDbLine
 10
-40.73106054808581
 20
12.72621210961716
 30
0.0
 11
-39.6
 21
13.85727265770297
 31
0.0
  0
LINE
  5
93B
330
1F
100
AcDbEntity
  8
SK2
  6
CONTINUOUS
370
25
 62
7
100
AcDbLine
 10
-41.08461393867909
 20
12.79692278773582
 30
0.0
 11
-39.6
 21
14.28153672641491
 31
0.0
  0
LINE
  5
93C
330
1F
100
AcDbEntity
  8
SK2
  6
CONTINUOUS
370
25
 62
7
100
AcDbLine
 10
-41.43816732927237
 20
12.86763346585447
 30
0.0
 11
-39.85725099390854
 21
14.44854980121829
 31
0.0
  0
LINE
  5
93D
330
1F
100
AcDbEntity
  8
SK2
  6
CONTINUOUS
370
25
 62
7
100
AcDbLine
 10
-41.79172071986564
 20
12.93834414397313
 30
0.0
 11
-40.38758107979846
 21
14.34248378404031
 31
0.0
  0
LINE
  5
93E
330
1F
100
AcDbEntity
  8
SK2
  6
CONTINUOUS
370
25
 62
7
100
AcDbLine
 10
-42.14527411045892
 20
13.00905482209178
 30
0.0
 11
-40.91791116568837
 21
14.23641776686232
 31
0.0
  0
LINE
  5
93F
330
1F
100
AcDbEntity
  8
SK2
  6
CONTINUOUS
370
25
 62
7
100
AcDbLine
 10
-42.4988275010522
 20
13.07976550021043
 30
0.0
 11
-41.44824125157829
 21
14.13035174968434
 31
0.0
  0
LINE
  5
940
330
1F
100
AcDbEntity
  8
SK2
  6
CONTINUOUS
370
25
 62
7
100
AcDbLine
 10
-42.85238089164547
 20
13.15047617832909
 30
0.0
 11
-41.9785713374682
 21
14.02428573250636
 31
0.0
  0
LINE
  5
941
330
1F
100
AcDbEntity
  8
SK2
  6
CONTINUOUS
370
25
 62
7
100
AcDbLine
 10
-43.20593428223875
 20
13.22118685644774
 30
0.0
 11
-42.50890142335812
 21
13.91821971532838
 31
0.0
  0
LINE
  5
942
330
1F
100
AcDbEntity
  8
SK2
  6
CONTINUOUS
370
25
 62
7
100
AcDbLine
 10
-43.55948767283203
 20
13.2918975345664
 30
0.0
 11
-43.03923150924803
 21
13.8121536981504
 31
0.0
  0
LINE
  5
943
330
1F
100
AcDbEntity
  8
SK2
  6
CONTINUOUS
370
25
 62
7
100
AcDbLine
 10
-43.9130410634253
 20
13.36260821268505
 30
0.0
 11
-43.56956159513795
 21
13.70608768097241
 31
0.0
  0
LINE
  5
944
330
1F
100
AcDbEntity
  8
SK2
  6
CONTINUOUS
370
25
 62
7
100
AcDbLine
 10
-44.26659445401857
 20
13.43331889080371
 30
0.0
 11
-44.09989168102786
 21
13.60002166379443
 31
0.0
  0
LINE
  5
945
330
1F
100
AcDbEntity
  8
SK2
  6
CONTINUOUS
370
25
 62
7
100
AcDbLine
 10
-44.33975068859205
 20
13.55204986228159
 30
0.0
 11
-44.20962603288807
 21
13.42192520657761
 31
0.0
  0
LINE
  5
946
330
1F
100
AcDbEntity
  8
SK2
  6
CONTINUOUS
370
25
 62
7
100
AcDbLine
 10
-43.98619729799877
 20
13.62276054040024
 30
0.0
 11
-43.67929594699815
 21
13.31585918939962
 31
0.0
  0
LINE
  5
947
330
1F
100
AcDbEntity
  8
SK2
  6
CONTINUOUS
370
25
 62
7
100
AcDbLine
 10
-43.6326439074055
 20
13.6934712185189
 30
0.0
 11
-43.14896586110824
 21
13.20979317222165
 31
0.0
  0
LINE
  5
948
330
1F
100
AcDbEntity
  8
SK2
  6
CONTINUOUS
370
25
 62
7
100
AcDbLine
 10
-43.27909051681222
 20
13.76418189663756
 30
0.0
 11
-42.61863577521832
 21
13.10372715504366
 31
0.0
  0
LINE
  5
949
330
1F
100
AcDbEntity
  8
SK2
  6
CONTINUOUS
370
25
 62
7
100
AcDbLine
 10
-42.92553712621894
 20
13.83489257475621
 30
0.0
 11
-42.08830568932841
 21
12.99766113786568
 31
0.0
  0
LINE
  5
94A
330
1F
100
AcDbEntity
  8
SK2
  6
CONTINUOUS
370
25
 62
7
100
AcDbLine
 10
-42.57198373562566
 20
13.90560325287487
 30
0.0
 11
-41.55797560343849
 21
12.8915951206877
 31
0.0
  0
LINE
  5
94B
330
1F
100
AcDbEntity
  8
SK2
  6
CONTINUOUS
370
25
 62
7
100
AcDbLine
 10
-42.2184303450324
 20
13.97631393099353
 30
0.0
 11
-41.02764551754858
 21
12.78552910350971
 31
0.0
  0
LINE
  5
94C
330
1F
100
AcDbEntity
  8
SK2
  6
CONTINUOUS
370
25
 62
7
100
AcDbLine
 10
-41.86487695443912
 20
14.04702460911219
 30
0.0
 11
-40.49731543165866
 21
12.67946308633173
 31
0.0
  0
LINE
  5
94D
330
1F
100
AcDbEntity
  8
SK2
  6
CONTINUOUS
370
25
 62
7
100
AcDbLine
 10
-41.51132356384583
 20
14.11773528723083
 30
0.0
 11
-39.96698534576875
 21
12.57339706915375
 31
0.0
  0
LINE
  5
94E
330
1F
100
AcDbEntity
  8
SK2
  6
CONTINUOUS
370
25
 62
7
100
AcDbLine
 10
-41.15777017325257
 20
14.18844596534949
 30
0.0
 11
-39.6
 21
12.63067579209693
 31
0.0
  0
LINE
  5
94F
330
1F
100
AcDbEntity
  8
SK2
  6
CONTINUOUS
370
25
 62
7
100
AcDbLine
 10
-40.80421678265929
 20
14.25915664346815
 30
0.0
 11
-39.6
 21
13.05493986080886
 31
0.0
  0
LINE
  5
950
330
1F
100
AcDbEntity
  8
SK2
  6
CONTINUOUS
370
25
 62
7
100
AcDbLine
 10
-40.45066339206601
 20
14.3298673215868
 30
0.0
 11
-39.6
 21
13.47920392952079
 31
0.0
  0
LINE
  5
951
330
1F
100
AcDbEntity
  8
SK2
  6
CONTINUOUS
370
25
 62
7
100
AcDbLine
 10
-40.09711000147273
 20
14.40057799970545
 30
0.0
 11
-39.6
 21
13.90346799823272
 31
0.0
  0
LINE
  5
952
330
1F
100
AcDbEntity
  8
SK2
  6
CONTINUOUS
370
25
 62
7
100
AcDbLine
 10
-39.74355661087946
 20
14.47128867782411
 30
0.0
 11
-39.6
 21
14.32773206694466
 31
0.0
  0
LINE
  5
953
330
1F
100
AcDbEntity
  8
SK2
  6
CONTINUOUS
370
25
 62
7
100
AcDbLine
 10
0.0
 20
13.5
 30
0.0
 11
-5.0
 21
12.5
 31
0.0
  0
LINE
  5
954
330
1F
100
AcDbEntity
  8
SK2
  6
CONTINUOUS
370
25
 62
7
100
AcDbLine
 10
-5.0
 20
12.5
 30
0.0
 11
-5.0
 21
14.5
 31
0.0
  0
LINE
  5
955
330
1F
100
AcDbEntity
  8
SK2
  6
CONTINUOUS
370
25
 62
7
100
AcDbLine
 10
-5.0
 20
14.5
 30
0.0
 11
0.0
 21
13.5
 31
0.0
  0
LINE
  5
956
330
1F
100
AcDbEntity
  8
SK2
  6
CONTINUOUS
370
25
 62
7
100
AcDbLine
 10
-0.0955627484771404
 20
13.48088745030457
 30
0.0
 11
-0.0637084989847603
 21
13.51274169979695
 31
0.0
  0
LINE
  5
957
330
1F
100
AcDbEntity
  8
SK2
  6
CONTINUOUS
370
25
 62
7
100
AcDbLine
 10
-0.62589283436705
 20
13.37482143312659
 30
0.0
 11
-0.4172618895780333
 21
13.58345237791561
 31
0.0
  0
LINE
  5
958
330
1F
100
AcDbEntity
  8
SK2
  6
CONTINUOUS
370
25
 62
7
100
AcDbLine
 10
-1.15622292025696
 20
13.26875541594861
 30
0.0
 11
-0.7708152801713064
 21
13.65416305603426
 31
0.0
  0
LINE
  5
959
330
1F
100
AcDbEntity
  8
SK2
  6
CONTINUOUS
370
25
 62
7
100
AcDbLine
 10
-1.686553006146871
 20
13.16268939877063
 30
0.0
 11
-1.124368670764581
 21
13.72487373415292
 31
0.0
  0
LINE
  5
95A
330
1F
100
AcDbEntity
  8
SK2
  6
CONTINUOUS
370
25
 62
7
100
AcDbLine
 10
-2.21688309203678
 20
13.05662338159264
 30
0.0
 11
-1.477922061357854
 21
13.79558441227157
 31
0.0
  0
LINE
  5
95B
330
1F
100
AcDbEntity
  8
SK2
  6
CONTINUOUS
370
25
 62
7
100
AcDbLine
 10
-2.74721317792669
 20
12.95055736441466
 30
0.0
 11
-1.831475451951127
 21
13.86629509039023
 31
0.0
  0
LINE
  5
95C
330
1F
100
AcDbEntity
  8
SK2
  6
CONTINUOUS
370
25
 62
7
100
AcDbLine
 10
-3.277543263816598
 20
12.84449134723668
 30
0.0
 11
-2.1850288425444
 21
13.93700576850888
 31
0.0
  0
LINE
  5
95D
330
1F
100
AcDbEntity
  8
SK2
  6
CONTINUOUS
370
25
 62
7
100
AcDbLine
 10
-3.807873349706508
 20
12.7384253300587
 30
0.0
 11
-2.538582233137672
 21
14.00771644662753
 31
0.0
  0
LINE
  5
95E
330
1F
100
AcDbEntity
  8
SK2
  6
CONTINUOUS
370
25
 62
7
100
AcDbLine
 10
-4.338203435596417
 20
12.63235931288072
 30
0.0
 11
-2.892135623730945
 21
14.07842712474619
 31
0.0
  0
LINE
  5
95F
330
1F
100
AcDbEntity
  8
SK2
  6
CONTINUOUS
370
25
 62
7
100
AcDbLine
 10
-4.868533521486326
 20
12.52629329570274
 30
0.0
 11
-3.245689014324218
 21
14.14913780286484
 31
0.0
  0
LINE
  5
960
330
1F
100
AcDbEntity
  8
SK2
  6
CONTINUOUS
370
25
 62
7
100
AcDbLine
 10
-5.0
 20
12.81909088590099
 30
0.0
 11
-3.599242404917491
 21
14.2198484809835
 31
0.0
  0
LINE
  5
961
330
1F
100
AcDbEntity
  8
SK2
  6
CONTINUOUS
370
25
 62
7
100
AcDbLine
 10
-5.0
 20
13.24335495461292
 30
0.0
 11
-3.952795795510766
 21
14.29055915910215
 31
0.0
  0
LINE
  5
962
330
1F
100
AcDbEntity
  8
SK2
  6
CONTINUOUS
370
25
 62
7
100
AcDbLine
 10
-5.0
 20
13.66761902332485
 30
0.0
 11
-4.306349186104039
 21
14.36126983722081
 31
0.0
  0
LINE
  5
963
330
1F
100
AcDbEntity
  8
SK2
  6
CONTINUOUS
370
25
 62
7
100
AcDbLine
 10
-5.0
 20
14.09188309203677
 30
0.0
 11
-4.659902576697312
 21
14.43198051533946
 31
0.0
  0
LINE
  5
964
330
1F
100
AcDbEntity
  8
SK2
  6
CONTINUOUS
370
25
 62
7
100
AcDbLine
 10
-5.0
 20
12.63675323681471
 30
0.0
 11
-4.886038969321073
 21
12.52279220613579
 31
0.0
  0
LINE
  5
965
330
1F
100
AcDbEntity
  8
SK2
  6
CONTINUOUS
370
25
 62
7
100
AcDbLine
 10
-5.0
 20
13.06101730552664
 30
0.0
 11
-4.532485578727797
 21
12.59350288425444
 31
0.0
  0
LINE
  5
966
330
1F
100
AcDbEntity
  8
SK2
  6
CONTINUOUS
370
25
 62
7
100
AcDbLine
 10
-5.0
 20
13.48528137423857
 30
0.0
 11
-4.178932188134525
 21
12.6642135623731
 31
0.0
  0
LINE
  5
967
330
1F
100
AcDbEntity
  8
SK2
  6
CONTINUOUS
370
25
 62
7
100
AcDbLine
 10
-5.0
 20
13.9095454429505
 30
0.0
 11
-3.825378797541251
 21
12.73492424049175
 31
0.0
  0
LINE
  5
968
330
1F
100
AcDbEntity
  8
SK2
  6
CONTINUOUS
370
25
 62
7
100
AcDbLine
 10
-5.0
 20
14.33380951166242
 30
0.0
 11
-3.471825406947977
 21
12.80563491861041
 31
0.0
  0
LINE
  5
969
330
1F
100
AcDbEntity
  8
SK2
  6
CONTINUOUS
370
25
 62
7
100
AcDbLine
 10
-4.677408024532058
 20
14.43548160490641
 30
0.0
 11
-3.118272016354704
 21
12.87634559672906
 31
0.0
  0
LINE
  5
96A
330
1F
100
AcDbEntity
  8
SK2
  6
CONTINUOUS
370
25
 62
7
100
AcDbLine
 10
-4.147077938642147
 20
14.32941558772843
 30
0.0
 11
-2.76471862576143
 21
12.94705627484771
 31
0.0
  0
LINE
  5
96B
330
1F
100
AcDbEntity
  8
SK2
  6
CONTINUOUS
370
25
 62
7
100
AcDbLine
 10
-3.616747852752237
 20
14.22334957055045
 30
0.0
 11
-2.411165235168157
 21
13.01776695296637
 31
0.0
  0
LINE
  5
96C
330
1F
100
AcDbEntity
  8
SK2
  6
CONTINUOUS
370
25
 62
7
100
AcDbLine
 10
-3.086417766862328
 20
14.11728355337247
 30
0.0
 11
-2.057611844574884
 21
13.08847763108502
 31
0.0
  0
LINE
  5
96D
330
1F
100
AcDbEntity
  8
SK2
  6
CONTINUOUS
370
25
 62
7
100
AcDbLine
 10
-2.556087680972416
 20
14.01121753619448
 30
0.0
 11
-1.704058453981609
 21
13.15918830920368
 31
0.0
  0
LINE
  5
96E
330
1F
100
AcDbEntity
  8
SK2
  6
CONTINUOUS
370
25
 62
7
100
AcDbLine
 10
-2.025757595082507
 20
13.9051515190165
 30
0.0
 11
-1.350505063388337
 21
13.22989898732233
 31
0.0
  0
LINE
  5
96F
330
1F
100
AcDbEntity
  8
SK2
  6
CONTINUOUS
370
25
 62
7
100
AcDbLine
 10
-1.495427509192596
 20
13.79908550183852
 30
0.0
 11
-0.9969516727950634
 21
13.30060966544099
 31
0.0
  0
LINE
  5
970
330
1F
100
AcDbEntity
  8
SK2
  6
CONTINUOUS
370
25
 62
7
100
AcDbLine
 10
-0.9650974233026837
 20
13.69301948466054
 30
0.0
 11
-0.6433982822017884
 21
13.37132034355964
 31
0.0
  0
LINE
  5
971
330
1F
100
AcDbEntity
  8
SK2
  6
CONTINUOUS
370
25
 62
7
100
AcDbLine
 10
-0.4347673374127748
 20
13.58695346748256
 30
0.0
 11
-0.2898448916085162
 21
13.4420310216783
 31
0.0
  0
TEXT
  5
972
330
1F
100
AcDbEntity
  8
SK2
  6
CONTINUOUS
370
25
 62
7
100
AcDbText
 10
-27.55
 20
15.0
 30
0.0
 40
3.5
  1
44.6
 72
     1
 11
-22.3
 21
15.0
 31
0.0
100
AcDbText
  0
LINE
  5
973
330
1F
100
AcDbEntity
  8
2
  6
CONTINUOUS
370
25
 62
7
100
AcDbLine
 10
59.98578644
 20
-1.0
 30
0.0
 11
87.4
 21
-1.000000000000003
 31
0.0
  0
LINE
  5
974
330
1F
100
AcDbEntity
  8
2
  6
CONTINUOUS
370
25
 62
7
100
AcDbLine
 10
87.4
 20
0.9999999999999968
 30
0.0
 11
59.98578644000001
 21
1.0
 31
0.0
  0
LINE
  5
975
330
1F
100
AcDbEntity
  8
2
  6
CONTINUOUS
370
25
 62
7
100
AcDbLine
 10
86.4
 20
-8.000000000000004
 30
0.0
 11
86.4
 21
14.475
 31
0.0
  0
LINE
  5
976
330
1F
100
AcDbEntity
  8
2
  6
CONTINUOUS
370
25
 62
7
100
AcDbLine
 10
86.4
 20
-1.000000000000003
 30
0.0
 11
87.4
 21
-6.000000000000004
 31
0.0
  0
LINE
  5
977
330
1F
100
AcDbEntity
  8
2
  6
CONTINUOUS
370
25
 62
7
100
AcDbLine
 10
87.4
 20
-6.000000000000004
 30
0.0
 11
85.4
 21
-6.000000000000004
 31
0.0
  0
LINE
  5
978
330
1F
100
AcDbEntity
  8
2
  6
CONTINUOUS
370
25
 62
7
100
AcDbLine
 10
85.4
 20
-6.000000000000004
 30
0.0
 11
86.4
 21
-1.000000000000003
 31
0.0
  0
LINE
  5
979
330
1F
100
AcDbEntity
  8
2
  6
CONTINUOUS
370
25
 62
7
100
AcDbLine
 10
87.14220306921627
 20
-6.0
 30
0.0
 11
87.35703384486938
 21
-5.785169224346888
 31
0.0
  0
LINE
  5
97A
330
1F
100
AcDbEntity
  8
2
  6
CONTINUOUS
370
25
 62
7
100
AcDbLine
 10
86.71793900050434
 20
-6.0
 30
0.0
 11
87.28632316675072
 21
-5.431615833753625
 31
0.0
  0
LINE
  5
97B
330
1F
100
AcDbEntity
  8
2
  6
CONTINUOUS
370
25
 62
7
100
AcDbLine
 10
86.29367493179242
 20
-6.0
 30
0.0
 11
87.21561248863208
 21
-5.078062443160348
 31
0.0
  0
LINE
  5
97C
330
1F
100
AcDbEntity
  8
2
  6
CONTINUOUS
370
25
 62
7
100
AcDbLine
 10
85.86941086308049
 20
-6.0
 30
0.0
 11
87.14490181051342
 21
-4.724509052567072
 31
0.0
  0
LINE
  5
97D
330
1F
100
AcDbEntity
  8
2
  6
CONTINUOUS
370
25
 62
7
100
AcDbLine
 10
85.44514679436857
 20
-6.0
 30
0.0
 11
87.07419113239477
 21
-4.370955661973795
 31
0.0
  0
LINE
  5
97E
330
1F
100
AcDbEntity
  8
2
  6
CONTINUOUS
370
25
 62
7
100
AcDbLine
 10
85.49477931858584
 20
-5.526103407070806
 30
0.0
 11
87.00348045427613
 21
-4.017402271380519
 31
0.0
  0
LINE
  5
97F
330
1F
100
AcDbEntity
  8
2
  6
CONTINUOUS
370
25
 62
7
100
AcDbLine
 10
85.60084533576382
 20
-4.995773321180906
 30
0.0
 11
86.93276977615746
 21
-3.66384888078727
 31
0.0
  0
LINE
  5
980
330
1F
100
AcDbEntity
  8
2
  6
CONTINUOUS
370
25
 62
7
100
AcDbLine
 10
85.7069113529418
 20
-4.465443235290991
 30
0.0
 11
86.86205909803878
 21
-3.310295490194008
 31
0.0
  0
LINE
  5
981
330
1F
100
AcDbEntity
  8
2
  6
CONTINUOUS
370
25
 62
7
100
AcDbLine
 10
85.81297737011978
 20
-3.93511314940109
 30
0.0
 11
86.79134841992014
 21
-2.956742099600731
 31
0.0
  0
LINE
  5
982
330
1F
100
AcDbEntity
  8
2
  6
CONTINUOUS
370
25
 62
7
100
AcDbLine
 10
85.91904338729776
 20
-3.404783063511189
 30
0.0
 11
86.7206377418015
 21
-2.603188709007455
 31
0.0
  0
LINE
  5
983
330
1F
100
AcDbEntity
  8
2
  6
CONTINUOUS
370
25
 62
7
100
AcDbLine
 10
86.02510940447574
 20
-2.874452977621289
 30
0.0
 11
86.64992706368284
 21
-2.249635318414192
 31
0.0
  0
LINE
  5
984
330
1F
100
AcDbEntity
  8
2
  6
CONTINUOUS
370
25
 62
7
100
AcDbLine
 10
86.13117542165372
 20
-2.344122891731388
 30
0.0
 11
86.57921638556417
 21
-1.896081927820944
 31
0.0
  0
LINE
  5
985
330
1F
100
AcDbEntity
  8
2
  6
CONTINUOUS
370
25
 62
7
100
AcDbLine
 10
86.2372414388317
 20
-1.813792805841473
 30
0.0
 11
86.50850570744552
 21
-1.542528537227653
 31
0.0
  0
LINE
  5
986
330
1F
100
AcDbEntity
  8
2
  6
CONTINUOUS
370
25
 62
7
100
AcDbLine
 10
86.34330745600968
 20
-1.283462719951572
 30
0.0
 11
86.43779502932686
 21
-1.188975146634391
 31
0.0
  0
LINE
  5
987
330
1F
100
AcDbEntity
  8
2
  6
CONTINUOUS
370
25
 62
7
100
AcDbLine
 10
85.46027415297381
 20
-5.698629235130866
 30
0.0
 11
85.76164491784294
 21
-6.0
 31
0.0
  0
LINE
  5
988
330
1F
100
AcDbEntity
  8
2
  6
CONTINUOUS
370
25
 62
7
100
AcDbLine
 10
85.53098483109248
 20
-5.345075844537618
 30
0.0
 11
86.18590898655486
 21
-6.0
 31
0.0
  0
LINE
  5
989
330
1F
100
AcDbEntity
  8
2
  6
CONTINUOUS
370
25
 62
7
100
AcDbLine
 10
85.60169550921114
 20
-4.991522453944356
 30
0.0
 11
86.61017305526678
 21
-6.0
 31
0.0
  0
LINE
  5
98A
330
1F
100
AcDbEntity
  8
2
  6
CONTINUOUS
370
25
 62
7
100
AcDbLine
 10
85.67240618732978
 20
-4.637969063351065
 30
0.0
 11
87.03443712397872
 21
-6.0
 31
0.0
  0
LINE
  5
98B
330
1F
100
AcDbEntity
  8
2
  6
CONTINUOUS
370
25
 62
7
100
AcDbLine
 10
85.74311686544844
 20
-4.284415672757802
 30
0.0
 11
87.38532470182734
 21
-5.926623509136704
 31
0.0
  0
LINE
  5
98C
330
1F
100
AcDbEntity
  8
2
  6
CONTINUOUS
370
25
 62
7
100
AcDbLine
 10
85.81382754356709
 20
-3.930862282164526
 30
0.0
 11
87.27925868464936
 21
-5.396293423246803
 31
0.0
  0
LINE
  5
98D
330
1F
100
AcDbEntity
  8
2
  6
CONTINUOUS
370
25
 62
7
100
AcDbLine
 10
85.88453822168576
 20
-3.577308891571278
 30
0.0
 11
87.17319266747137
 21
-4.865963337356888
 31
0.0
  0
LINE
  5
98E
330
1F
100
AcDbEntity
  8
2
  6
CONTINUOUS
370
25
 62
7
100
AcDbLine
 10
85.9552488998044
 20
-3.223755500977987
 30
0.0
 11
87.06712665029339
 21
-4.335633251466973
 31
0.0
  0
LINE
  5
98F
330
1F
100
AcDbEntity
  8
2
  6
CONTINUOUS
370
25
 62
7
100
AcDbLine
 10
86.02595957792306
 20
-2.870202110384724
 30
0.0
 11
86.96106063311541
 21
-3.805303165577072
 31
0.0
  0
LINE
  5
990
330
1F
100
AcDbEntity
  8
2
  6
CONTINUOUS
370
25
 62
7
100
AcDbLine
 10
86.0966702560417
 20
-2.516648719791448
 30
0.0
 11
86.85499461593743
 21
-3.274973079687172
 31
0.0
  0
LINE
  5
991
330
1F
100
AcDbEntity
  8
2
  6
CONTINUOUS
370
25
 62
7
100
AcDbLine
 10
86.16738093416036
 20
-2.163095329198171
 30
0.0
 11
86.74892859875945
 21
-2.744642993797257
 31
0.0
  0
LINE
  5
992
330
1F
100
AcDbEntity
  8
2
  6
CONTINUOUS
370
25
 62
7
100
AcDbLine
 10
86.238091612279
 20
-1.809541938604895
 30
0.0
 11
86.64286258158147
 21
-2.214312907907356
 31
0.0
  0
LINE
  5
993
330
1F
100
AcDbEntity
  8
2
  6
CONTINUOUS
370
25
 62
7
100
AcDbLine
 10
86.30880229039768
 20
-1.455988548011646
 30
0.0
 11
86.53679656440349
 21
-1.683982822017455
 31
0.0
  0
LINE
  5
994
330
1F
100
AcDbEntity
  8
2
  6
CONTINUOUS
370
25
 62
7
100
AcDbLine
 10
86.37951296851632
 20
-1.10243515741837
 30
0.0
 11
86.43073054722551
 21
-1.153652736127555
 31
0.0
  0
LINE
  5
995
330
1F
100
AcDbEntity
  8
2
  6
CONTINUOUS
370
25
 62
7
100
AcDbLine
 10
86.4
 20
0.9999999999999969
 30
0.0
 11
85.4
 21
5.999999999999996
 31
0.0
  0
LINE
  5
996
330
1F
100
AcDbEntity
  8
2
  6
CONTINUOUS
370
25
 62
7
100
AcDbLine
 10
85.4
 20
5.999999999999996
 30
0.0
 11
87.4
 21
5.999999999999996
 31
0.0
  0
LINE
  5
997
330
1F
100
AcDbEntity
  8
2
  6
CONTINUOUS
370
25
 62
7
100
AcDbLine
 10
87.4
 20
5.999999999999996
 30
0.0
 11
86.4
 21
0.9999999999999969
 31
0.0
  0
LINE
  5
998
330
1F
100
AcDbEntity
  8
2
  6
CONTINUOUS
370
25
 62
7
100
AcDbLine
 10
86.34698333853055
 20
1.265083307347268
 30
0.0
 11
86.47952499220419
 21
1.397624961020909
 31
0.0
  0
LINE
  5
999
330
1F
100
AcDbEntity
  8
2
  6
CONTINUOUS
370
25
 62
7
100
AcDbLine
 10
86.27627266041189
 20
1.618636697940531
 30
0.0
 11
86.58559100938217
 21
1.92795504691081
 31
0.0
  0
LINE
  5
99A
330
1F
100
AcDbEntity
  8
2
  6
CONTINUOUS
370
25
 62
7
100
AcDbLine
 10
86.20556198229325
 20
1.972190088533807
 30
0.0
 11
86.69165702656015
 21
2.458285132800711
 31
0.0
  0
LINE
  5
99B
330
1F
100
AcDbEntity
  8
2
  6
CONTINUOUS
370
25
 62
7
100
AcDbLine
 10
86.13485130417457
 20
2.32574347912707
 30
0.0
 11
86.79772304373813
 21
2.988615218690626
 31
0.0
  0
LINE
  5
99C
330
1F
100
AcDbEntity
  8
2
  6
CONTINUOUS
370
25
 62
7
100
AcDbLine
 10
86.06414062605593
 20
2.679296869720346
 30
0.0
 11
86.90378906091611
 21
3.518945304580527
 31
0.0
  0
LINE
  5
99D
330
1F
100
AcDbEntity
  8
2
  6
CONTINUOUS
370
25
 62
7
100
AcDbLine
 10
85.99342994793729
 20
3.032850260313623
 30
0.0
 11
87.00985507809408
 21
4.049275390470413
 31
0.0
  0
LINE
  5
99E
330
1F
100
AcDbEntity
  8
2
  6
CONTINUOUS
370
25
 62
7
100
AcDbLine
 10
85.92271926981863
 20
3.3864036509069
 30
0.0
 11
87.11592109527207
 21
4.579605476360342
 31
0.0
  0
LINE
  5
99F
330
1F
100
AcDbEntity
  8
2
  6
CONTINUOUS
370
25
 62
7
100
AcDbLine
 10
85.85200859169998
 20
3.739957041500176
 30
0.0
 11
87.22198711245004
 21
5.109935562250229
 31
0.0
  0
LINE
  5
9A0
330
1F
100
AcDbEntity
  8
2
  6
CONTINUOUS
370
25
 62
7
100
AcDbLine
 10
85.78129791358131
 20
4.09351043209341
 30
0.0
 11
87.32805312962803
 21
5.640265648140129
 31
0.0
  0
LINE
  5
9A1
330
1F
100
AcDbEntity
  8
2
  6
CONTINUOUS
370
25
 62
7
100
AcDbLine
 10
85.71058723546267
 20
4.447063822686687
 30
0.0
 11
87.26352341277598
 21
6.0
 31
0.0
  0
LINE
  5
9A2
330
1F
100
AcDbEntity
  8
2
  6
CONTINUOUS
370
25
 62
7
100
AcDbLine
 10
85.63987655734401
 20
4.800617213279963
 30
0.0
 11
86.83925934406405
 21
6.0
 31
0.0
  0
LINE
  5
9A3
330
1F
100
AcDbEntity
  8
2
  6
CONTINUOUS
370
25
 62
7
100
AcDbLine
 10
85.56916587922537
 20
5.15417060387324
 30
0.0
 11
86.41499527535213
 21
6.0
 31
0.0
  0
LINE
  5
9A4
330
1F
100
AcDbEntity
  8
2
  6
CONTINUOUS
370
25
 62
7
100
AcDbLine
 10
85.49845520110671
 20
5.507723994466502
 30
0.0
 11
85.9907312066402
 21
6.0
 31
0.0
  0
LINE
  5
9A5
330
1F
100
AcDbEntity
  8
2
  6
CONTINUOUS
370
25
 62
7
100
AcDbLine
 10
85.42774452298804
 20
5.861277385059765
 30
0.0
 11
85.56646713792827
 21
6.0
 31
0.0
  0
LINE
  5
9A6
330
1F
100
AcDbEntity
  8
2
  6
CONTINUOUS
370
25
 62
7
100
AcDbLine
 10
86.29433444415761
 20
1.528327779211921
 30
0.0
 11
86.47044370389493
 21
1.352218519474604
 31
0.0
  0
LINE
  5
9A7
330
1F
100
AcDbEntity
  8
2
  6
CONTINUOUS
370
25
 62
7
100
AcDbLine
 10
86.18826842697965
 20
2.058657865101807
 30
0.0
 11
86.54115438201357
 21
1.705771910067881
 31
0.0
  0
LINE
  5
9A8
330
1F
100
AcDbEntity
  8
2
  6
CONTINUOUS
370
25
 62
7
100
AcDbLine
 10
86.08220240980165
 20
2.588987950991736
 30
0.0
 11
86.61186506013223
 21
2.059325300661158
 31
0.0
  0
LINE
  5
9A9
330
1F
100
AcDbEntity
  8
2
  6
CONTINUOUS
370
25
 62
7
100
AcDbLine
 10
85.97613639262367
 20
3.119318036881637
 30
0.0
 11
86.68257573825088
 21
2.412878691254434
 31
0.0
  0
LINE
  5
9AA
330
1F
100
AcDbEntity
  8
2
  6
CONTINUOUS
370
25
 62
7
100
AcDbLine
 10
85.87007037544569
 20
3.649648122771538
 30
0.0
 11
86.75328641636953
 21
2.766432081847697
 31
0.0
  0
LINE
  5
9AB
330
1F
100
AcDbEntity
  8
2
  6
CONTINUOUS
370
25
 62
7
100
AcDbLine
 10
85.76400435826771
 20
4.179978208661439
 30
0.0
 11
86.8239970944882
 21
3.119985472440945
 31
0.0
  0
LINE
  5
9AC
330
1F
100
AcDbEntity
  8
2
  6
CONTINUOUS
370
25
 62
7
100
AcDbLine
 10
85.65793834108973
 20
4.710308294551353
 30
0.0
 11
86.89470777260685
 21
3.473538863034236
 31
0.0
  0
LINE
  5
9AD
330
1F
100
AcDbEntity
  8
2
  6
CONTINUOUS
370
25
 62
7
100
AcDbLine
 10
85.55187232391175
 20
5.240638380441254
 30
0.0
 11
86.9654184507255
 21
3.827092253627512
 31
0.0
  0
LINE
  5
9AE
330
1F
100
AcDbEntity
  8
2
  6
CONTINUOUS
370
25
 62
7
100
AcDbLine
 10
85.44580630673377
 20
5.770968466331155
 30
0.0
 11
87.03612912884415
 21
4.180645644220775
 31
0.0
  0
LINE
  5
9AF
330
1F
100
AcDbEntity
  8
2
  6
CONTINUOUS
370
25
 62
7
100
AcDbLine
 10
85.64103884177685
 20
6.0
 30
0.0
 11
87.10683980696281
 21
4.534199034814037
 31
0.0
  0
LINE
  5
9B0
330
1F
100
AcDbEntity
  8
2
  6
CONTINUOUS
370
25
 62
7
100
AcDbLine
 10
86.06530291048878
 20
6.0
 30
0.0
 11
87.17755048508145
 21
4.887752425407328
 31
0.0
  0
LINE
  5
9B1
330
1F
100
AcDbEntity
  8
2
  6
CONTINUOUS
370
25
 62
7
100
AcDbLine
 10
86.4895669792007
 20
6.0
 30
0.0
 11
87.2482611632001
 21
5.241305816000605
 31
0.0
  0
LINE
  5
9B2
330
1F
100
AcDbEntity
  8
2
  6
CONTINUOUS
370
25
 62
7
100
AcDbLine
 10
86.91383104791262
 20
6.0
 30
0.0
 11
87.31897184131877
 21
5.594859206593853
 31
0.0
  0
LINE
  5
9B3
330
1F
100
AcDbEntity
  8
2
  6
CONTINUOUS
370
25
 62
7
100
AcDbLine
 10
87.33809511662456
 20
6.0
 30
0.0
 11
87.38968251943744
 21
5.948412597187115
 31
0.0
  0
TEXT
  5
9B4
330
1F
100
AcDbEntity
  8
2
  6
CONTINUOUS
370
25
 62
7
100
AcDbText
 10
84.9
 20
11.34583333333333
 30
0.0
 40
3.5
  1
2
 50
90.00000000000001
 72
     1
 11
84.9
 21
12.5125
 31
0.0
100
AcDbText
  0
CIRCLE
  5
9B5
330
1F
100
AcDbEntity
  8
2
  6
CONTINUOUS
370
25
 62
7
100
AcDbCircle
 10
83.15
 20
9.187499999999996
 30
0.0
 40
1.4
  0
LINE
  5
9B6
330
1F
100
AcDbEntity
  8
2
  6
CONTINUOUS
370
25
 62
7
100
AcDbLine
 10
84.55000000000001
 20
7.787499999999998
 30
0.0
 11
81.75
 21
10.5875
 31
0.0
  0
LINE
  5
9B7
330
1F
100
AcDbEntity
  8
2
  6
CONTINUOUS
370
25
 62
7
100
AcDbLine
 10
0.0
 20
1.5
 30
0.0
 11
0.0000000000000012
 21
21.5
 31
0.0
  0
LINE
  5
9B8
330
1F
100
AcDbEntity
  8
2
  6
CONTINUOUS
370
25
 62
7
100
AcDbLine
 10
60.4
 20
21.5
 30
0.0
 11
60.4
 21
0.0
 31
0.0
  0
LINE
  5
9B9
330
1F
100
AcDbEntity
  8
2
  6
CONTINUOUS
370
25
 62
7
100
AcDbLine
 10
0.0
 20
20.5
 30
0.0
 11
60.4
 21
20.5
 31
0.0
  0
LINE
  5
9BA
330
1F
100
AcDbEntity
  8
2
  6
CONTINUOUS
370
25
 62
7
100
AcDbLine
 10
0.0
 20
20.5
 30
0.0
 11
5.0
 21
21.5
 31
0.0
  0
LINE
  5
9BB
330
1F
100
AcDbEntity
  8
2
  6
CONTINUOUS
370
25
 62
7
100
AcDbLine
 10
5.0
 20
21.5
 30
0.0
 11
5.0
 21
19.5
 31
0.0
  0
LINE
  5
9BC
330
1F
100
AcDbEntity
  8
2
  6
CONTINUOUS
370
25
 62
7
100
AcDbLine
 10
5.0
 20
19.5
 30
0.0
 11
0.0
 21
20.5
 31
0.0
  0
LINE
  5
9BD
330
1F
100
AcDbEntity
  8
2
  6
CONTINUOUS
370
25
 62
7
100
AcDbLine
 10
4.708964662568778
 20
19.55820706748624
 30
0.0
 11
5.0
 21
19.84924240491747
 31
0.0
  0
LINE
  5
9BE
330
1F
100
AcDbEntity
  8
2
  6
CONTINUOUS
370
25
 62
7
100
AcDbLine
 10
4.355411271975505
 20
19.6289177456049
 30
0.0
 11
5.0
 21
20.27350647362939
 31
0.0
  0
LINE
  5
9BF
330
1F
100
AcDbEntity
  8
2
  6
CONTINUOUS
370
25
 62
7
100
AcDbLine
 10
4.001857881382232
 20
19.69962842372355
 30
0.0
 11
5.0
 21
20.69777054234132
 31
0.0
  0
LINE
  5
9C0
330
1F
100
AcDbEntity
  8
2
  6
CONTINUOUS
370
25
 62
7
100
AcDbLine
 10
3.648304490788957
 20
19.77033910184221
 30
0.0
 11
5.0
 21
21.12203461105325
 31
0.0
  0
LINE
  5
9C1
330
1F
100
AcDbEntity
  8
2
  6
CONTINUOUS
370
25
 62
7
100
AcDbLine
 10
3.294751100195684
 20
19.84104977996086
 30
0.0
 11
4.942126650293528
 21
21.48842533005871
 31
0.0
  0
LINE
  5
9C2
330
1F
100
AcDbEntity
  8
2
  6
CONTINUOUS
370
25
 62
7
100
AcDbLine
 10
2.941197709602411
 20
19.91176045807952
 30
0.0
 11
4.411796564403618
 21
21.38235931288072
 31
0.0
  0
LINE
  5
9C3
330
1F
100
AcDbEntity
  8
2
  6
CONTINUOUS
370
25
 62
7
100
AcDbLine
 10
2.587644319009138
 20
19.98247113619817
 30
0.0
 11
3.881466478513708
 21
21.27629329570274
 31
0.0
  0
LINE
  5
9C4
330
1F
100
AcDbEntity
  8
2
  6
CONTINUOUS
370
25
 62
7
100
AcDbLine
 10
2.234090928415865
 20
20.05318181431683
 30
0.0
 11
3.351136392623799
 21
21.17022727852476
 31
0.0
  0
LINE
  5
9C5
330
1F
100
AcDbEntity
  8
2
  6
CONTINUOUS
370
25
 62
7
100
AcDbLine
 10
1.880537537822592
 20
20.12389249243548
 30
0.0
 11
2.82080630673389
 21
21.06416126134678
 31
0.0
  0
LINE
  5
9C6
330
1F
100
AcDbEntity
  8
2
  6
CONTINUOUS
370
25
 62
7
100
AcDbLine
 10
1.526984147229319
 20
20.19460317055414
 30
0.0
 11
2.29047622084398
 21
20.9580952441688
 31
0.0
  0
LINE
  5
9C7
330
1F
100
AcDbEntity
  8
2
  6
CONTINUOUS
370
25
 62
7
100
AcDbLine
 10
1.173430756636046
 20
20.26531384867279
 30
0.0
 11
1.760146134954069
 21
20.85202922699082
 31
0.0
  0
LINE
  5
9C8
330
1F
100
AcDbEntity
  8
2
  6
CONTINUOUS
370
25
 62
7
100
AcDbLine
 10
0.8198773660427728
 20
20.33602452679144
 30
0.0
 11
1.22981604906416
 21
20.74596320981283
 31
0.0
  0
LINE
  5
9C9
330
1F
100
AcDbEntity
  8
2
  6
CONTINUOUS
370
25
 62
7
100
AcDbLine
 10
0.4663239754494996
 20
20.4067352049101
 30
0.0
 11
0.6994859631742497
 21
20.63989719263485
 31
0.0
  0
LINE
  5
9CA
330
1F
100
AcDbEntity
  8
2
  6
CONTINUOUS
370
25
 62
7
100
AcDbLine
 10
0.1127705848562263
 20
20.47744588302875
 30
0.0
 11
0.1691558772843395
 21
20.53383117545687
 31
0.0
  0
LINE
  5
9CB
330
1F
100
AcDbEntity
  8
2
  6
CONTINUOUS
370
25
 62
7
100
AcDbLine
 10
0.240782805737056
 20
20.54815656114741
 30
0.0
 11
0.3611742086055841
 21
20.42776515827888
 31
0.0
  0
LINE
  5
9CC
330
1F
100
AcDbEntity
  8
2
  6
CONTINUOUS
370
25
 62
7
100
AcDbLine
 10
0.5943361963303293
 20
20.61886723926607
 30
0.0
 11
0.8915042944954944
 21
20.3216991411009
 31
0.0
  0
LINE
  5
9CD
330
1F
100
AcDbEntity
  8
2
  6
CONTINUOUS
370
25
 62
7
100
AcDbLine
 10
0.9478895869236028
 20
20.68957791738472
 30
0.0
 11
1.421834380385405
 21
20.21563312392292
 31
0.0
  0
LINE
  5
9CE
330
1F
100
AcDbEntity
  8
2
  6
CONTINUOUS
370
25
 62
7
100
AcDbLine
 10
1.301442977516876
 20
20.76028859550338
 30
0.0
 11
1.952164466275315
 21
20.10956710674494
 31
0.0
  0
LINE
  5
9CF
330
1F
100
AcDbEntity
  8
2
  6
CONTINUOUS
370
25
 62
7
100
AcDbLine
 10
1.65499636811015
 20
20.83099927362203
 30
0.0
 11
2.482494552165225
 21
20.00350108956696
 31
0.0
  0
LINE
  5
9D0
330
1F
100
AcDbEntity
  8
2
  6
CONTINUOUS
370
25
 62
7
100
AcDbLine
 10
2.008549758703423
 20
20.90170995174068
 30
0.0
 11
3.012824638055136
 21
19.89743507238897
 31
0.0
  0
LINE
  5
9D1
330
1F
100
AcDbEntity
  8
2
  6
CONTINUOUS
370
25
 62
7
100
AcDbLine
 10
2.362103149296696
 20
20.97242062985934
 30
0.0
 11
3.543154723945046
 21
19.79136905521099
 31
0.0
  0
LINE
  5
9D2
330
1F
100
AcDbEntity
  8
2
  6
CONTINUOUS
370
25
 62
7
100
AcDbLine
 10
2.715656539889969
 20
21.04313130797799
 30
0.0
 11
4.073484809834956
 21
19.68530303803301
 31
0.0
  0
LINE
  5
9D3
330
1F
100
AcDbEntity
  8
2
  6
CONTINUOUS
370
25
 62
7
100
AcDbLine
 10
3.069209930483243
 20
21.11384198609665
 30
0.0
 11
4.603814895724867
 21
19.57923702085503
 31
0.0
  0
LINE
  5
9D4
330
1F
100
AcDbEntity
  8
2
  6
CONTINUOUS
370
25
 62
7
100
AcDbLine
 10
3.422763321076516
 20
21.1845526642153
 30
0.0
 11
5.0
 21
19.60731598529182
 31
0.0
  0
LINE
  5
9D5
330
1F
100
AcDbEntity
  8
2
  6
CONTINUOUS
370
25
 62
7
100
AcDbLine
 10
3.776316711669789
 20
21.25526334233396
 30
0.0
 11
5.0
 21
20.03158005400375
 31
0.0
  0
LINE
  5
9D6
330
1F
100
AcDbEntity
  8
2
  6
CONTINUOUS
370
25
 62
7
100
AcDbLine
 10
4.129870102263062
 20
21.32597402045261
 30
0.0
 11
5.0
 21
20.45584412271567
 31
0.0
  0
LINE
  5
9D7
330
1F
100
AcDbEntity
  8
2
  6
CONTINUOUS
370
25
 62
7
100
AcDbLine
 10
4.483423492856335
 20
21.39668469857127
 30
0.0
 11
5.0
 21
20.8801081914276
 31
0.0
  0
LINE
  5
9D8
330
1F
100
AcDbEntity
  8
2
  6
CONTINUOUS
370
25
 62
7
100
AcDbLine
 10
4.836976883449609
 20
21.46739537668992
 30
0.0
 11
5.0
 21
21.30437226013953
 31
0.0
  0
LINE
  5
9D9
330
1F
100
AcDbEntity
  8
2
  6
CONTINUOUS
370
25
 62
7
100
AcDbLine
 10
60.4
 20
20.5
 30
0.0
 11
55.4
 21
19.5
 31
0.0
  0
LINE
  5
9DA
330
1F
100
AcDbEntity
  8
2
  6
CONTINUOUS
370
25
 62
7
100
AcDbLine
 10
55.4
 20
19.5
 30
0.0
 11
55.4
 21
21.5
 31
0.0
  0
LINE
  5
9DB
330
1F
100
AcDbEntity
  8
2
  6
CONTINUOUS
370
25
 62
7
100
AcDbLine
 10
55.4
 20
21.5
 30
0.0
 11
60.4
 21
20.5
 31
0.0
  0
LINE
  5
9DC
330
1F
100
AcDbEntity
  8
2
  6
CONTINUOUS
370
25
 62
7
100
AcDbLine
 10
59.87269422919994
 20
20.39453884583999
 30
0.0
 11
60.04846281946663
 21
20.57030743610667
 31
0.0
  0
LINE
  5
9DD
330
1F
100
AcDbEntity
  8
2
  6
CONTINUOUS
370
25
 62
7
100
AcDbLine
 10
59.34236414331003
 20
20.288472828662
 30
0.0
 11
59.69490942887335
 21
20.64101811422533
 31
0.0
  0
LINE
  5
9DE
330
1F
100
AcDbEntity
  8
2
  6
CONTINUOUS
370
25
 62
7
100
AcDbLine
 10
58.81203405742012
 20
20.18240681148402
 30
0.0
 11
59.34135603828008
 21
20.71172879234398
 31
0.0
  0
LINE
  5
9DF
330
1F
100
AcDbEntity
  8
2
  6
CONTINUOUS
370
25
 62
7
100
AcDbLine
 10
58.28170397153021
 20
20.07634079430604
 30
0.0
 11
58.98780264768681
 21
20.78243947046264
 31
0.0
  0
LINE
  5
9E0
330
1F
100
AcDbEntity
  8
2
  6
CONTINUOUS
370
25
 62
7
100
AcDbLine
 10
57.75137388564029
 20
19.97027477712806
 30
0.0
 11
58.63424925709352
 21
20.85315014858129
 31
0.0
  0
LINE
  5
9E1
330
1F
100
AcDbEntity
  8
2
  6
CONTINUOUS
370
25
 62
7
100
AcDbLine
 10
57.22104379975038
 20
19.86420875995007
 30
0.0
 11
58.28069586650025
 21
20.92386082669994
 31
0.0
  0
LINE
  5
9E2
330
1F
100
AcDbEntity
  8
2
  6
CONTINUOUS
370
25
 62
7
100
AcDbLine
 10
56.69071371386047
 20
19.7581427427721
 30
0.0
 11
57.92714247590696
 21
20.99457150481859
 31
0.0
  0
LINE
  5
9E3
330
1F
100
AcDbEntity
  8
2
  6
CONTINUOUS
370
25
 62
7
100
AcDbLine
 10
56.16038362797055
 20
19.65207672559411
 30
0.0
 11
57.5735890853137
 21
21.06528218293726
 31
0.0
  0
LINE
  5
9E4
330
1F
100
AcDbEntity
  8
2
  6
CONTINUOUS
370
25
 62
7
100
AcDbLine
 10
55.63005354208064
 20
19.54601070841613
 30
0.0
 11
57.22003569472042
 21
21.13599286105591
 31
0.0
  0
LINE
  5
9E5
330
1F
100
AcDbEntity
  8
2
  6
CONTINUOUS
370
25
 62
7
100
AcDbLine
 10
55.4
 20
19.74022123504743
 30
0.0
 11
56.86648230412714
 21
21.20670353917457
 31
0.0
  0
LINE
  5
9E6
330
1F
100
AcDbEntity
  8
2
  6
CONTINUOUS
370
25
 62
7
100
AcDbLine
 10
55.4
 20
20.16448530375936
 30
0.0
 11
56.51292891353387
 21
21.27741421729323
 31
0.0
  0
LINE
  5
9E7
330
1F
100
AcDbEntity
  8
2
  6
CONTINUOUS
370
25
 62
7
100
AcDbLine
 10
55.4
 20
20.58874937247128
 30
0.0
 11
56.15937552294059
 21
21.34812489541188
 31
0.0
  0
LINE
  5
9E8
330
1F
100
AcDbEntity
  8
2
  6
CONTINUOUS
370
25
 62
7
100
AcDbLine
 10
55.4
 20
21.01301344118322
 30
0.0
 11
55.80582213234731
 21
21.41883557353053
 31
0.0
  0
LINE
  5
9E9
330
1F
100
AcDbEntity
  8
2
  6
CONTINUOUS
370
25
 62
7
100
AcDbLine
 10
55.4
 20
21.43727750989515
 30
0.0
 11
55.45226874175403
 21
21.48954625164919
 31
0.0
  0
LINE
  5
9EA
330
1F
100
AcDbEntity
  8
2
  6
CONTINUOUS
370
25
 62
7
100
AcDbLine
 10
55.4
 20
19.69474016201136
 30
0.0
 11
55.5622834683428
 21
19.53245669366856
 31
0.0
  0
LINE
  5
9EB
330
1F
100
AcDbEntity
  8
2
  6
CONTINUOUS
370
25
 62
7
100
AcDbLine
 10
55.4
 20
20.1190042307233
 30
0.0
 11
55.91583685893607
 21
19.60316737178722
 31
0.0
  0
LINE
  5
9EC
330
1F
100
AcDbEntity
  8
2
  6
CONTINUOUS
370
25
 62
7
100
AcDbLine
 10
55.4
 20
20.54326829943522
 30
0.0
 11
56.26939024952934
 21
19.67387804990587
 31
0.0
  0
LINE
  5
9ED
330
1F
100
AcDbEntity
  8
2
  6
CONTINUOUS
370
25
 62
7
100
AcDbLine
 10
55.4
 20
20.96753236814715
 30
0.0
 11
56.62294364012262
 21
19.74458872802453
 31
0.0
  0
LINE
  5
9EE
330
1F
100
AcDbEntity
  8
2
  6
CONTINUOUS
370
25
 62
7
100
AcDbLine
 10
55.4
 20
21.39179643685909
 30
0.0
 11
56.9764970307159
 21
19.81529940614318
 31
0.0
  0
LINE
  5
9EF
330
1F
100
AcDbEntity
  8
2
  6
CONTINUOUS
370
25
 62
7
100
AcDbLine
 10
55.79507563196378
 20
21.42098487360724
 30
0.0
 11
57.33005042130918
 21
19.88601008426184
 31
0.0
  0
LINE
  5
9F0
330
1F
100
AcDbEntity
  8
2
  6
CONTINUOUS
370
25
 62
7
100
AcDbLine
 10
56.32540571785371
 20
21.31491885642925
 30
0.0
 11
57.68360381190246
 21
19.9567207623805
 31
0.0
  0
LINE
  5
9F1
330
1F
100
AcDbEntity
  8
2
  6
CONTINUOUS
370
25
 62
7
100
AcDbLine
 10
56.85573580374361
 20
21.20885283925127
 30
0.0
 11
58.03715720249573
 21
20.02743144049915
 31
0.0
  0
LINE
  5
9F2
330
1F
100
AcDbEntity
  8
2
  6
CONTINUOUS
370
25
 62
7
100
AcDbLine
 10
57.38606588963353
 20
21.10278682207328
 30
0.0
 11
58.39071059308901
 21
20.0981421186178
 31
0.0
  0
LINE
  5
9F3
330
1F
100
AcDbEntity
  8
2
  6
CONTINUOUS
370
25
 62
7
100
AcDbLine
 10
57.91639597552344
 20
20.9967208048953
 30
0.0
 11
58.74426398368229
 21
20.16885279673646
 31
0.0
  0
LINE
  5
9F4
330
1F
100
AcDbEntity
  8
2
  6
CONTINUOUS
370
25
 62
7
100
AcDbLine
 10
58.44672606141334
 20
20.89065478771732
 30
0.0
 11
59.09781737427556
 21
20.23956347485511
 31
0.0
  0
LINE
  5
9F5
330
1F
100
AcDbEntity
  8
2
  6
CONTINUOUS
370
25
 62
7
100
AcDbLine
 10
58.97705614730327
 20
20.78458877053934
 30
0.0
 11
59.45137076486883
 21
20.31027415297378
 31
0.0
  0
LINE
  5
9F6
330
1F
100
AcDbEntity
  8
2
  6
CONTINUOUS
370
25
 62
7
100
AcDbLine
 10
59.50738623319318
 20
20.67852275336136
 30
0.0
 11
59.80492415546211
 21
20.38098483109243
 31
0.0
  0
LINE
  5
9F7
330
1F
100
AcDbEntity
  8
2
  6
CONTINUOUS
370
25
 62
7
100
AcDbLine
 10
60.0377163190831
 20
20.57245673618338
 30
0.0
 11
60.15847754605539
 21
20.45169550921108
 31
0.0
  0
TEXT
  5
9F8
330
1F
100
AcDbEntity
  8
2
  6
CONTINUOUS
370
25
 62
7
100
AcDbText
 10
25.24166666666667
 20
22.0
 30
0.0
 40
3.5
  1
60.4
 72
     1
 11
30.2
 21
22.0
 31
0.0
100
AcDbText
  0
LINE
  5
9F9
330
1F
100
AcDbEntity
  8
2
  6
CONTINUOUS
370
25
 62
7
100
AcDbLine
 10
10.4
 20
-1.0
 30
0.0
 11
10.4
 21
-28.5
 31
0.0
  0
LINE
  5
9FA
330
1F
100
AcDbEntity
  8
2
  6
CONTINUOUS
370
25
 62
7
100
AcDbLine
 10
60.4
 20
-28.5
 30
0.0
 11
60.4
 21
0.0
 31
0.0
  0
LINE
  5
9FB
330
1F
100
AcDbEntity
  8
2
  6
CONTINUOUS
370
25
 62
7
100
AcDbLine
 10
10.4
 20
-27.5
 30
0.0
 11
60.4
 21
-27.5
 31
0.0
  0
LINE
  5
9FC
330
1F
100
AcDbEntity
  8
2
  6
CONTINUOUS
370
25
 62
7
100
AcDbLine
 10
10.4
 20
-27.5
 30
0.0
 11
15.4
 21
-26.5
 31
0.0
  0
LINE
  5
9FD
330
1F
100
AcDbEntity
  8
2
  6
CONTINUOUS
370
25
 62
7
100
AcDbLine
 10
15.4
 20
-26.5
 30
0.0
 11
15.4
 21
-28.5
 31
0.0
  0
LINE
  5
9FE
330
1F
100
AcDbEntity
  8
2
  6
CONTINUOUS
370
25
 62
7
100
AcDbLine
 10
15.4
 20
-28.5
 30
0.0
 11
10.4
 21
-27.5
 31
0.0
  0
LINE
  5
9FF
330
1F
100
AcDbEntity
  8
2
  6
CONTINUOUS
370
25
 62
7
100
AcDbLine
 10
15.30091592376023
 20
-28.48018318475205
 30
0.0
 11
15.4
 21
-28.38109910851227
 31
0.0
  0
LINE
  5
A00
330
1F
100
AcDbEntity
  8
2
  6
CONTINUOUS
370
25
 62
7
100
AcDbLine
 10
14.94736253316695
 20
-28.40947250663339
 30
0.0
 11
15.4
 21
-27.95683503980035
 31
0.0
  0
LINE
  5
A01
330
1F
100
AcDbEntity
  8
2
  6
CONTINUOUS
370
25
 62
7
100
AcDbLine
 10
14.59380914257368
 20
-28.33876182851474
 30
0.0
 11
15.4
 21
-27.53257097108843
 31
0.0
  0
LINE
  5
A02
330
1F
100
AcDbEntity
  8
2
  6
CONTINUOUS
370
25
 62
7
100
AcDbLine
 10
14.24025575198041
 20
-28.26805115039608
 30
0.0
 11
15.4
 21
-27.1083069023765
 31
0.0
  0
LINE
  5
A03
330
1F
100
AcDbEntity
  8
2
  6
CONTINUOUS
370
25
 62
7
100
AcDbLine
 10
13.88670236138713
 20
-28.19734047227743
 30
0.0
 11
15.4
 21
-26.68404283366457
 31
0.0
  0
LINE
  5
A04
330
1F
100
AcDbEntity
  8
2
  6
CONTINUOUS
370
25
 62
7
100
AcDbLine
 10
13.53314897079386
 20
-28.12662979415877
 30
0.0
 11
15.0997234561908
 21
-26.56005530876184
 31
0.0
  0
LINE
  5
A05
330
1F
100
AcDbEntity
  8
2
  6
CONTINUOUS
370
25
 62
7
100
AcDbLine
 10
13.17959558020058
 20
-28.05591911604012
 30
0.0
 11
14.56939337030088
 21
-26.66612132593982
 31
0.0
  0
LINE
  5
A06
330
1F
100
AcDbEntity
  8
2
  6
CONTINUOUS
370
25
 62
7
100
AcDbLine
 10
12.82604218960731
 20
-27.98520843792146
 30
0.0
 11
14.03906328441097
 21
-26.77218734311781
 31
0.0
  0
LINE
  5
A07
330
1F
100
AcDbEntity
  8
2
  6
CONTINUOUS
370
25
 62
7
100
AcDbLine
 10
12.47248879901403
 20
-27.91449775980281
 30
0.0
 11
13.50873319852105
 21
-26.87825336029579
 31
0.0
  0
LINE
  5
A08
330
1F
100
AcDbEntity
  8
2
  6
CONTINUOUS
370
25
 62
7
100
AcDbLine
 10
12.11893540842075
 20
-27.84378708168416
 30
0.0
 11
12.97840311263114
 21
-26.98431937747377
 31
0.0
  0
LINE
  5
A09
330
1F
100
AcDbEntity
  8
2
  6
CONTINUOUS
370
25
 62
7
100
AcDbLine
 10
11.76538201782748
 20
-27.7730764035655
 30
0.0
 11
12.44807302674123
 21
-27.09038539465175
 31
0.0
  0
LINE
  5
A0A
330
1F
100
AcDbEntity
  8
2
  6
CONTINUOUS
370
25
 62
7
100
AcDbLine
 10
11.41182862723421
 20
-27.70236572544685
 30
0.0
 11
11.91774294085132
 21
-27.19645141182973
 31
0.0
  0
LINE
  5
A0B
330
1F
100
AcDbEntity
  8
2
  6
CONTINUOUS
370
25
 62
7
100
AcDbLine
 10
11.05827523664093
 20
-27.63165504732819
 30
0.0
 11
11.38741285496141
 21
-27.30251742900771
 31
0.0
  0
LINE
  5
A0C
330
1F
100
AcDbEntity
  8
2
  6
CONTINUOUS
370
25
 62
7
100
AcDbLine
 10
10.70472184604766
 20
-27.56094436920954
 30
0.0
 11
10.8570827690715
 21
-27.4085834461857
 31
0.0
  0
LINE
  5
A0D
330
1F
100
AcDbEntity
  8
2
  6
CONTINUOUS
370
25
 62
7
100
AcDbLine
 10
10.65965408849653
 20
-27.44806918230069
 30
0.0
 11
10.7894811327448
 21
-27.57789622654896
 31
0.0
  0
LINE
  5
A0E
330
1F
100
AcDbEntity
  8
2
  6
CONTINUOUS
370
25
 62
7
100
AcDbLine
 10
11.0132074790898
 20
-27.37735850418204
 30
0.0
 11
11.31981121863471
 21
-27.68396224372694
 31
0.0
  0
LINE
  5
A0F
330
1F
100
AcDbEntity
  8
2
  6
CONTINUOUS
370
25
 62
7
100
AcDbLine
 10
11.36676086968308
 20
-27.30664782606338
 30
0.0
 11
11.85014130452462
 21
-27.79002826090493
 31
0.0
  0
LINE
  5
A10
330
1F
100
AcDbEntity
  8
2
  6
CONTINUOUS
370
25
 62
7
100
AcDbLine
 10
11.72031426027635
 20
-27.23593714794472
 30
0.0
 11
12.38047139041454
 21
-27.89609427808291
 31
0.0
  0
LINE
  5
A11
330
1F
100
AcDbEntity
  8
2
  6
CONTINUOUS
370
25
 62
7
100
AcDbLine
 10
12.07386765086963
 20
-27.16522646982607
 30
0.0
 11
12.91080147630445
 21
-28.00216029526089
 31
0.0
  0
LINE
  5
A12
330
1F
100
AcDbEntity
  8
2
  6
CONTINUOUS
370
25
 62
7
100
AcDbLine
 10
12.4274210414629
 20
-27.09451579170742
 30
0.0
 11
13.44113156219436
 21
-28.10822631243887
 31
0.0
  0
LINE
  5
A13
330
1F
100
AcDbEntity
  8
2
  6
CONTINUOUS
370
25
 62
7
100
AcDbLine
 10
12.78097443205618
 20
-27.02380511358876
 30
0.0
 11
13.97146164808428
 21
-28.21429232961685
 31
0.0
  0
LINE
  5
A14
330
1F
100
AcDbEntity
  8
2
  6
CONTINUOUS
370
25
 62
7
100
AcDbLine
 10
13.13452782264945
 20
-26.95309443547011
 30
0.0
 11
14.50179173397419
 21
-28.32035834679484
 31
0.0
  0
LINE
  5
A15
330
1F
100
AcDbEntity
  8
2
  6
CONTINUOUS
370
25
 62
7
100
AcDbLine
 10
13.48808121324272
 20
-26.88238375735146
 30
0.0
 11
15.0321218198641
 21
-28.42642436397282
 31
0.0
  0
LINE
  5
A16
330
1F
100
AcDbEntity
  8
2
  6
CONTINUOUS
370
25
 62
7
100
AcDbLine
 10
13.841634603836
 20
-26.8116730792328
 30
0.0
 11
15.4
 21
-28.37003847539679
 31
0.0
  0
LINE
  5
A17
330
1F
100
AcDbEntity
  8
2
  6
CONTINUOUS
370
25
 62
7
100
AcDbLine
 10
14.19518799442927
 20
-26.74096240111415
 30
0.0
 11
15.4
 21
-27.94577440668487
 31
0.0
  0
LINE
  5
A18
330
1F
100
AcDbEntity
  8
2
  6
CONTINUOUS
370
25
 62
7
100
AcDbLine
 10
14.54874138502254
 20
-26.67025172299549
 30
0.0
 11
15.4
 21
-27.52151033797294
 31
0.0
  0
LINE
  5
A19
330
1F
100
AcDbEntity
  8
2
  6
CONTINUOUS
370
25
 62
7
100
AcDbLine
 10
14.90229477561582
 20
-26.59954104487683
 30
0.0
 11
15.4
 21
-27.09724626926101
 31
0.0
  0
LINE
  5
A1A
330
1F
100
AcDbEntity
  8
2
  6
CONTINUOUS
370
25
 62
7
100
AcDbLine
 10
15.25584816620909
 20
-26.52883036675818
 30
0.0
 11
15.4
 21
-26.67298220054909
 31
0.0
  0
LINE
  5
A1B
330
1F
100
AcDbEntity
  8
2
  6
CONTINUOUS
370
25
 62
7
100
AcDbLine
 10
60.4
 20
-27.5
 30
0.0
 11
55.4
 21
-28.5
 31
0.0
  0
LINE
  5
A1C
330
1F
100
AcDbEntity
  8
2
  6
CONTINUOUS
370
25
 62
7
100
AcDbLine
 10
55.4
 20
-28.5
 30
0.0
 11
55.4
 21
-26.5
 31
0.0
  0
LINE
  5
A1D
330
1F
100
AcDbEntity
  8
2
  6
CONTINUOUS
370
25
 62
7
100
AcDbLine
 10
55.4
 20
-26.5
 30
0.0
 11
60.4
 21
-27.5
 31
0.0
  0
LINE
  5
A1E
330
1F
100
AcDbEntity
  8
2
  6
CONTINUOUS
370
25
 62
7
100
AcDbLine
 10
59.94539452364004
 20
-27.59092109527199
 30
0.0
 11
60.0969296824267
 21
-27.43938593648534
 31
0.0
  0
LINE
  5
A1F
330
1F
100
AcDbEntity
  8
2
  6
CONTINUOUS
370
25
 62
7
100
AcDbLine
 10
59.41506443775013
 20
-27.69698711244997
 30
0.0
 11
59.74337629183341
 21
-27.36867525836669
 31
0.0
  0
LINE
  5
A20
330
1F
100
AcDbEntity
  8
2
  6
CONTINUOUS
370
25
 62
7
100
AcDbLine
 10
58.88473435186021
 20
-27.80305312962795
 30
0.0
 11
59.38982290124013
 21
-27.29796458024803
 31
0.0
  0
LINE
  5
A21
330
1F
100
AcDbEntity
  8
2
  6
CONTINUOUS
370
25
 62
7
100
AcDbLine
 10
58.35440426597028
 20
-27.90911914680595
 30
0.0
 11
59.03626951064686
 21
-27.22725390212937
 31
0.0
  0
LINE
  5
A22
330
1F
100
AcDbEntity
  8
2
  6
CONTINUOUS
370
25
 62
7
100
AcDbLine
 10
57.82407418008036
 20
-28.01518516398393
 30
0.0
 11
58.68271612005358
 21
-27.15654322401072
 31
0.0
  0
LINE
  5
A23
330
1F
100
AcDbEntity
  8
2
  6
CONTINUOUS
370
25
 62
7
100
AcDbLine
 10
57.29374409419044
 20
-28.12125118116191
 30
0.0
 11
58.32916272946029
 21
-27.08583254589207
 31
0.0
  0
LINE
  5
A24
330
1F
100
AcDbEntity
  8
2
  6
CONTINUOUS
370
25
 62
7
100
AcDbLine
 10
56.76341400830054
 20
-28.22731719833988
 30
0.0
 11
57.97560933886702
 21
-27.01512186777342
 31
0.0
  0
LINE
  5
A25
330
1F
100
AcDbEntity
  8
2
  6
CONTINUOUS
370
25
 62
7
100
AcDbLine
 10
56.23308392241061
 20
-28.33338321551788
 30
0.0
 11
57.62205594827375
 21
-26.94441118965475
 31
0.0
  0
LINE
  5
A26
330
1F
100
AcDbEntity
  8
2
  6
CONTINUOUS
370
25
 62
7
100
AcDbLine
 10
55.70275383652069
 20
-28.43944923269586
 30
0.0
 11
57.26850255768046
 21
-26.8737005115361
 31
0.0
  0
LINE
  5
A27
330
1F
100
AcDbEntity
  8
2
  6
CONTINUOUS
370
25
 62
7
100
AcDbLine
 10
55.4
 20
-28.31793900050463
 30
0.0
 11
56.91494916708719
 21
-26.80298983341744
 31
0.0
  0
LINE
  5
A28
330
1F
100
AcDbEntity
  8
2
  6
CONTINUOUS
370
25
 62
7
100
AcDbLine
 10
55.4
 20
-27.8936749317927
 30
0.0
 11
56.56139577649391
 21
-26.73227915529879
 31
0.0
  0
LINE
  5
A29
330
1F
100
AcDbEntity
  8
2
  6
CONTINUOUS
370
25
 62
7
100
AcDbLine
 10
55.4
 20
-27.46941086308076
 30
0.0
 11
56.20784238590063
 21
-26.66156847718013
 31
0.0
  0
LINE
  5
A2A
330
1F
100
AcDbEntity
  8
2
  6
CONTINUOUS
370
25
 62
7
100
AcDbLine
 10
55.4
 20
-27.04514679436884
 30
0.0
 11
55.85428899530736
 21
-26.59085779906147
 31
0.0
  0
LINE
  5
A2B
330
1F
100
AcDbEntity
  8
2
  6
CONTINUOUS
370
25
 62
7
100
AcDbLine
 10
55.4
 20
-26.62088272565691
 30
0.0
 11
55.50073560471408
 21
-26.52014712094282
 31
0.0
  0
LINE
  5
A2C
330
1F
100
AcDbEntity
  8
2
  6
CONTINUOUS
370
25
 62
7
100
AcDbLine
 10
55.4
 20
-28.24709960243656
 30
0.0
 11
55.61075033130286
 21
-28.45784993373942
 31
0.0
  0
LINE
  5
A2D
330
1F
100
AcDbEntity
  8
2
  6
CONTINUOUS
370
25
 62
7
100
AcDbLine
 10
55.4
 20
-27.82283553372463
 30
0.0
 11
55.96430372189614
 21
-28.38713925562077
 31
0.0
  0
LINE
  5
A2E
330
1F
100
AcDbEntity
  8
2
  6
CONTINUOUS
370
25
 62
7
100
AcDbLine
 10
55.4
 20
-27.3985714650127
 30
0.0
 11
56.31785711248942
 21
-28.31642857750212
 31
0.0
  0
LINE
  5
A2F
330
1F
100
AcDbEntity
  8
2
  6
CONTINUOUS
370
25
 62
7
100
AcDbLine
 10
55.4
 20
-26.97430739630077
 30
0.0
 11
56.6714105030827
 21
-28.24571789938346
 31
0.0
  0
LINE
  5
A30
330
1F
100
AcDbEntity
  8
2
  6
CONTINUOUS
370
25
 62
7
100
AcDbLine
 10
55.4
 20
-26.55004332758883
 30
0.0
 11
57.02496389367598
 21
-28.1750072212648
 31
0.0
  0
LINE
  5
A31
330
1F
100
AcDbEntity
  8
2
  6
CONTINUOUS
370
25
 62
7
100
AcDbLine
 10
55.86777592640388
 20
-26.59355518528078
 30
0.0
 11
57.37851728426924
 21
-28.10429654314614
 31
0.0
  0
LINE
  5
A32
330
1F
100
AcDbEntity
  8
2
  6
CONTINUOUS
370
25
 62
7
100
AcDbLine
 10
56.39810601229379
 20
-26.69962120245875
 30
0.0
 11
57.73207067486253
 21
-28.03358586502749
 31
0.0
  0
LINE
  5
A33
330
1F
100
AcDbEntity
  8
2
  6
CONTINUOUS
370
25
 62
7
100
AcDbLine
 10
56.92843609818371
 20
-26.80568721963675
 30
0.0
 11
58.08562406545581
 21
-27.96287518690884
 31
0.0
  0
LINE
  5
A34
330
1F
100
AcDbEntity
  8
2
  6
CONTINUOUS
370
25
 62
7
100
AcDbLine
 10
57.45876618407362
 20
-26.91175323681473
 30
0.0
 11
58.43917745604908
 21
-27.89216450879018
 31
0.0
  0
LINE
  5
A35
330
1F
100
AcDbEntity
  8
2
  6
CONTINUOUS
370
25
 62
7
100
AcDbLine
 10
57.98909626996355
 20
-27.01781925399271
 30
0.0
 11
58.79273084664236
 21
-27.82145383067152
 31
0.0
  0
LINE
  5
A36
330
1F
100
AcDbEntity
  8
2
  6
CONTINUOUS
370
25
 62
7
100
AcDbLine
 10
58.51942635585346
 20
-27.1238852711707
 30
0.0
 11
59.14628423723564
 21
-27.75074315255287
 31
0.0
  0
LINE
  5
A37
330
1F
100
AcDbEntity
  8
2
  6
CONTINUOUS
370
25
 62
7
100
AcDbLine
 10
59.04975644174338
 20
-27.22995128834868
 30
0.0
 11
59.49983762782891
 21
-27.68003247443421
 31
0.0
  0
LINE
  5
A38
330
1F
100
AcDbEntity
  8
2
  6
CONTINUOUS
370
25
 62
7
100
AcDbLine
 10
59.5800865276333
 20
-27.33601730552667
 30
0.0
 11
59.85339101842219
 21
-27.60932179631556
 31
0.0
  0
LINE
  5
A39
330
1F
100
AcDbEntity
  8
2
  6
CONTINUOUS
370
25
 62
7
100
AcDbLine
 10
60.11041661352322
 20
-27.44208332270465
 30
0.0
 11
60.20694440901547
 21
-27.5386111181969
 31
0.0
  0
TEXT
  5
A3A
330
1F
100
AcDbEntity
  8
2
  6
CONTINUOUS
370
25
 62
7
100
AcDbText
 10
32.775
 20
-26.0
 30
0.0
 40
3.5
  1
50
 72
     1
 11
35.4
 21
-26.0
 31
0.0
100
AcDbText
  0
LINE
  5
A3B
330
1F
100
AcDbEntity
  8
SK2
  6
CONTINUOUS
370
25
 62
7
100
AcDbLine
 10
-44.6
 20
3.0
 30
0.0
 11
-44.6
 21
28.5
 31
0.0
  0
LINE
  5
A3C
330
1F
100
AcDbEntity
  8
SK2
  6
CONTINUOUS
370
25
 62
7
100
AcDbLine
 10
60.4
 20
28.5
 30
0.0
 11
60.4
 21
0.0
 31
0.0
  0
LINE
  5
A3D
330
1F
100
AcDbEntity
  8
SK2
  6
CONTINUOUS
370
25
 62
7
100
AcDbLine
 10
-44.6
 20
27.5
 30
0.0
 11
60.4
 21
27.5
 31
0.0
  0
LINE
  5
A3E
330
1F
100
AcDbEntity
  8
SK2
  6
CONTINUOUS
370
25
 62
7
100
AcDbLine
 10
-44.6
 20
27.5
 30
0.0
 11
-39.6
 21
28.5
 31
0.0
  0
LINE
  5
A3F
330
1F
100
AcDbEntity
  8
SK2
  6
CONTINUOUS
370
25
 62
7
100
AcDbLine
 10
-39.6
 20
28.5
 30
0.0
 11
-39.6
 21
26.5
 31
0.0
  0
LINE
  5
A40
330
1F
100
AcDbEntity
  8
SK2
  6
CONTINUOUS
370
25
 62
7
100
AcDbLine
 10
-39.6
 20
26.5
 30
0.0
 11
-44.6
 21
27.5
 31
0.0
  0
LINE
  5
A41
330
1F
100
AcDbEntity
  8
SK2
  6
CONTINUOUS
370
25
 62
7
100
AcDbLine
 10
-39.67099559921737
 20
26.51419911984348
 30
0.0
 11
-39.6
 21
26.58519471906084
 31
0.0
  0
LINE
  5
A42
330
1F
100
AcDbEntity
  8
SK2
  6
CONTINUOUS
370
25
 62
7
100
AcDbLine
 10
-40.02454898981065
 20
26.58490979796213
 30
0.0
 11
-39.6
 21
27.00945878777278
 31
0.0
  0
LINE
  5
A43
330
1F
100
AcDbEntity
  8
SK2
  6
CONTINUOUS
370
25
 62
7
100
AcDbLine
 10
-40.37810238040393
 20
26.65562047608078
 30
0.0
 11
-39.6
 21
27.43372285648471
 31
0.0
  0
LINE
  5
A44
330
1F
100
AcDbEntity
  8
SK2
  6
CONTINUOUS
370
25
 62
7
100
AcDbLine
 10
-40.73165577099719
 20
26.72633115419944
 30
0.0
 11
-39.6
 21
27.85798692519663
 31
0.0
  0
LINE
  5
A45
330
1F
100
AcDbEntity
  8
SK2
  6
CONTINUOUS
370
25
 62
7
100
AcDbLine
 10
-41.08520916159048
 20
26.79704183231809
 30
0.0
 11
-39.6
 21
28.28225099390857
 31
0.0
  0
LINE
  5
A46
330
1F
100
AcDbEntity
  8
SK2
  6
CONTINUOUS
370
25
 62
7
100
AcDbLine
 10
-41.43876255218375
 20
26.86775251043675
 30
0.0
 11
-39.85814382827563
 21
28.44837123434488
 31
0.0
  0
LINE
  5
A47
330
1F
100
AcDbEntity
  8
SK2
  6
CONTINUOUS
370
25
 62
7
100
AcDbLine
 10
-41.79231594277703
 20
26.93846318855541
 30
0.0
 11
-40.38847391416555
 21
28.34230521716689
 31
0.0
  0
LINE
  5
A48
330
1F
100
AcDbEntity
  8
SK2
  6
CONTINUOUS
370
25
 62
7
100
AcDbLine
 10
-42.14586933337031
 20
27.00917386667406
 30
0.0
 11
-40.91880400005547
 21
28.23623919998891
 31
0.0
  0
LINE
  5
A49
330
1F
100
AcDbEntity
  8
SK2
  6
CONTINUOUS
370
25
 62
7
100
AcDbLine
 10
-42.49942272396358
 20
27.07988454479272
 30
0.0
 11
-41.44913408594537
 21
28.13017318281093
 31
0.0
  0
LINE
  5
A4A
330
1F
100
AcDbEntity
  8
SK2
  6
CONTINUOUS
370
25
 62
7
100
AcDbLine
 10
-42.85297611455686
 20
27.15059522291137
 30
0.0
 11
-41.97946417183528
 21
28.02410716563295
 31
0.0
  0
LINE
  5
A4B
330
1F
100
AcDbEntity
  8
SK2
  6
CONTINUOUS
370
25
 62
7
100
AcDbLine
 10
-43.20652950515014
 20
27.22130590103002
 30
0.0
 11
-42.5097942577252
 21
27.91804114845496
 31
0.0
  0
LINE
  5
A4C
330
1F
100
AcDbEntity
  8
SK2
  6
CONTINUOUS
370
25
 62
7
100
AcDbLine
 10
-43.56008289574342
 20
27.29201657914868
 30
0.0
 11
-43.04012434361512
 21
27.81197513127698
 31
0.0
  0
LINE
  5
A4D
330
1F
100
AcDbEntity
  8
SK2
  6
CONTINUOUS
370
25
 62
7
100
AcDbLine
 10
-43.9136362863367
 20
27.36272725726733
 30
0.0
 11
-43.57045442950503
 21
27.70590911409899
 31
0.0
  0
LINE
  5
A4E
330
1F
100
AcDbEntity
  8
SK2
  6
CONTINUOUS
370
25
 62
7
100
AcDbLine
 10
-44.26718967692997
 20
27.43343793538599
 30
0.0
 11
-44.10078451539494
 21
27.59984309692101
 31
0.0
  0
LINE
  5
A4F
330
1F
100
AcDbEntity
  8
SK2
  6
CONTINUOUS
370
25
 62
7
100
AcDbLine
 10
-44.34034591150341
 20
27.55193081769931
 30
0.0
 11
-44.21051886725513
 21
27.42210377345103
 31
0.0
  0
LINE
  5
A50
330
1F
100
AcDbEntity
  8
SK2
  6
CONTINUOUS
370
25
 62
7
100
AcDbLine
 10
-43.98679252091014
 20
27.62264149581797
 30
0.0
 11
-43.6801887813652
 21
27.31603775627304
 31
0.0
  0
LINE
  5
A51
330
1F
100
AcDbEntity
  8
SK2
  6
CONTINUOUS
370
25
 62
7
100
AcDbLine
 10
-43.63323913031686
 20
27.69335217393662
 30
0.0
 11
-43.1498586954753
 21
27.20997173909506
 31
0.0
  0
LINE
  5
A52
330
1F
100
AcDbEntity
  8
SK2
  6
CONTINUOUS
370
25
 62
7
100
AcDbLine
 10
-43.27968573972359
 20
27.76406285205529
 30
0.0
 11
-42.61952860958538
 21
27.10390572191708
 31
0.0
  0
LINE
  5
A53
330
1F
100
AcDbEntity
  8
SK2
  6
CONTINUOUS
370
25
 62
7
100
AcDbLine
 10
-42.92613234913031
 20
27.83477353017393
 30
0.0
 11
-42.08919852369547
 21
26.99783970473909
 31
0.0
  0
LINE
  5
A54
330
1F
100
AcDbEntity
  8
SK2
  6
CONTINUOUS
370
25
 62
7
100
AcDbLine
 10
-42.57257895853703
 20
27.90548420829259
 30
0.0
 11
-41.55886843780555
 21
26.89177368756111
 31
0.0
  0
LINE
  5
A55
330
1F
100
AcDbEntity
  8
SK2
  6
CONTINUOUS
370
25
 62
7
100
AcDbLine
 10
-42.21902556794375
 20
27.97619488641125
 30
0.0
 11
-41.02853835191562
 21
26.78570767038312
 31
0.0
  0
LINE
  5
A56
330
1F
100
AcDbEntity
  8
SK2
  6
CONTINUOUS
370
25
 62
7
100
AcDbLine
 10
-41.86547217735048
 20
28.04690556452991
 30
0.0
 11
-40.49820826602571
 21
26.67964165320515
 31
0.0
  0
LINE
  5
A57
330
1F
100
AcDbEntity
  8
SK2
  6
CONTINUOUS
370
25
 62
7
100
AcDbLine
 10
-41.5119187867572
 20
28.11761624264857
 30
0.0
 11
-39.96787818013579
 21
26.57357563602716
 31
0.0
  0
LINE
  5
A58
330
1F
100
AcDbEntity
  8
SK2
  6
CONTINUOUS
370
25
 62
7
100
AcDbLine
 10
-41.15836539616392
 20
28.18832692076722
 30
0.0
 11
-39.6
 21
26.6299615246033
 31
0.0
  0
LINE
  5
A59
330
1F
100
AcDbEntity
  8
SK2
  6
CONTINUOUS
370
25
 62
7
100
AcDbLine
 10
-40.80481200557065
 20
28.25903759888588
 30
0.0
 11
-39.6
 21
27.05422559331523
 31
0.0
  0
LINE
  5
A5A
330
1F
100
AcDbEntity
  8
SK2
  6
CONTINUOUS
370
25
 62
7
100
AcDbLine
 10
-40.45125861497737
 20
28.32974827700453
 30
0.0
 11
-39.6
 21
27.47848966202716
 31
0.0
  0
LINE
  5
A5B
330
1F
100
AcDbEntity
  8
SK2
  6
CONTINUOUS
370
25
 62
7
100
AcDbLine
 10
-40.09770522438409
 20
28.40045895512319
 30
0.0
 11
-39.6
 21
27.90275373073909
 31
0.0
  0
LINE
  5
A5C
330
1F
100
AcDbEntity
  8
SK2
  6
CONTINUOUS
370
25
 62
7
100
AcDbLine
 10
-39.74415183379082
 20
28.47116963324184
 30
0.0
 11
-39.6
 21
28.32701779945103
 31
0.0
  0
LINE
  5
A5D
330
1F
100
AcDbEntity
  8
SK2
  6
CONTINUOUS
370
25
 62
7
100
AcDbLine
 10
60.4
 20
27.5
 30
0.0
 11
55.4
 21
26.5
 31
0.0
  0
LINE
  5
A5E
330
1F
100
AcDbEntity
  8
SK2
  6
CONTINUOUS
370
25
 62
7
100
AcDbLine
 10
55.4
 20
26.5
 30
0.0
 11
55.4
 21
28.5
 31
0.0
  0
LINE
  5
A5F
330
1F
100
AcDbEntity
  8
SK2
  6
CONTINUOUS
370
25
 62
7
100
AcDbLine
 10
55.4
 20
28.5
 30
0.0
 11
60.4
 21
27.5
 31
0.0
  0
LINE
  5
A60
330
1F
100
AcDbEntity
  8
SK2
  6
CONTINUOUS
370
25
 62
7
100
AcDbLine
 10
60.13830568932843
 20
27.44766113786568
 30
0.0
 11
60.22553712621897
 21
27.53489257475621
 31
0.0
  0
LINE
  5
A61
330
1F
100
AcDbEntity
  8
SK2
  6
CONTINUOUS
370
25
 62
7
100
AcDbLine
 10
59.60797560343853
 20
27.34159512068771
 30
0.0
 11
59.87198373562568
 21
27.60560325287486
 31
0.0
  0
LINE
  5
A62
330
1F
100
AcDbEntity
  8
SK2
  6
CONTINUOUS
370
25
 62
7
100
AcDbLine
 10
59.0776455175486
 20
27.23552910350972
 30
0.0
 11
59.51843034503241
 21
27.67631393099352
 31
0.0
  0
LINE
  5
A63
330
1F
100
AcDbEntity
  8
SK2
  6
CONTINUOUS
370
25
 62
7
100
AcDbLine
 10
58.54731543165868
 20
27.12946308633173
 30
0.0
 11
59.16487695443912
 21
27.74702460911217
 31
0.0
  0
LINE
  5
A64
330
1F
100
AcDbEntity
  8
SK2
  6
CONTINUOUS
370
25
 62
7
100
AcDbLine
 10
58.01698534576877
 20
27.02339706915375
 30
0.0
 11
58.81132356384585
 21
27.81773528723082
 31
0.0
  0
LINE
  5
A65
330
1F
100
AcDbEntity
  8
SK2
  6
CONTINUOUS
370
25
 62
7
100
AcDbLine
 10
57.48665525987885
 20
26.91733105197576
 30
0.0
 11
58.45777017325258
 21
27.88844596534949
 31
0.0
  0
LINE
  5
A66
330
1F
100
AcDbEntity
  8
SK2
  6
CONTINUOUS
370
25
 62
7
100
AcDbLine
 10
56.95632517398895
 20
26.81126503479779
 30
0.0
 11
58.10421678265929
 21
27.95915664346813
 31
0.0
  0
LINE
  5
A67
330
1F
100
AcDbEntity
  8
SK2
  6
CONTINUOUS
370
25
 62
7
100
AcDbLine
 10
56.42599508809903
 20
26.70519901761981
 30
0.0
 11
57.75066339206601
 21
28.02986732158679
 31
0.0
  0
LINE
  5
A68
330
1F
100
AcDbEntity
  8
SK2
  6
CONTINUOUS
370
25
 62
7
100
AcDbLine
 10
55.89566500220911
 20
26.59913300044182
 30
0.0
 11
57.39711000147275
 21
28.10057799970546
 31
0.0
  0
LINE
  5
A69
330
1F
100
AcDbEntity
  8
SK2
  6
CONTINUOUS
370
25
 62
7
100
AcDbLine
 10
55.4
 20
26.52773206694464
 30
0.0
 11
57.04355661087947
 21
28.17128867782411
 31
0.0
  0
LINE
  5
A6A
330
1F
100
AcDbEntity
  8
SK2
  6
CONTINUOUS
370
25
 62
7
100
AcDbLine
 10
55.4
 20
26.95199613565658
 30
0.0
 11
56.69000322028618
 21
28.24199935594276
 31
0.0
  0
LINE
  5
A6B
330
1F
100
AcDbEntity
  8
SK2
  6
CONTINUOUS
370
25
 62
7
100
AcDbLine
 10
55.4
 20
27.3762602043685
 30
0.0
 11
56.3364498296929
 21
28.31271003406141
 31
0.0
  0
LINE
  5
A6C
330
1F
100
AcDbEntity
  8
SK2
  6
CONTINUOUS
370
25
 62
7
100
AcDbLine
 10
55.4
 20
27.80052427308044
 30
0.0
 11
55.98289643909963
 21
28.38342071218007
 31
0.0
  0
LINE
  5
A6D
330
1F
100
AcDbEntity
  8
SK2
  6
CONTINUOUS
370
25
 62
7
100
AcDbLine
 10
55.4
 20
28.22478834179237
 30
0.0
 11
55.62934304850635
 21
28.45413139029872
 31
0.0
  0
LINE
  5
A6E
330
1F
100
AcDbEntity
  8
SK2
  6
CONTINUOUS
370
25
 62
7
100
AcDbLine
 10
55.4
 20
26.90722933011414
 30
0.0
 11
55.73935777509512
 21
26.56787155501902
 31
0.0
  0
LINE
  5
A6F
330
1F
100
AcDbEntity
  8
SK2
  6
CONTINUOUS
370
25
 62
7
100
AcDbLine
 10
55.4
 20
27.33149339882608
 30
0.0
 11
56.09291116568839
 21
26.63858223313768
 31
0.0
  0
LINE
  5
A70
330
1F
100
AcDbEntity
  8
SK2
  6
CONTINUOUS
370
25
 62
7
100
AcDbLine
 10
55.4
 20
27.75575746753801
 30
0.0
 11
56.44646455628167
 21
26.70929291125634
 31
0.0
  0
LINE
  5
A71
330
1F
100
AcDbEntity
  8
SK2
  6
CONTINUOUS
370
25
 62
7
100
AcDbLine
 10
55.4
 20
28.18002153624993
 30
0.0
 11
56.80001794687494
 21
26.78000358937499
 31
0.0
  0
LINE
  5
A72
330
1F
100
AcDbEntity
  8
SK2
  6
CONTINUOUS
370
25
 62
7
100
AcDbLine
 10
55.53035700620234
 20
28.47392859875953
 30
0.0
 11
57.15357133746821
 21
26.85071426749365
 31
0.0
  0
LINE
  5
A73
330
1F
100
AcDbEntity
  8
SK2
  6
CONTINUOUS
370
25
 62
7
100
AcDbLine
 10
56.06068709209226
 20
28.36786258158154
 30
0.0
 11
57.5071247280615
 21
26.9214249456123
 31
0.0
  0
LINE
  5
A74
330
1F
100
AcDbEntity
  8
SK2
  6
CONTINUOUS
370
25
 62
7
100
AcDbLine
 10
56.59101717798216
 20
28.26179656440356
 30
0.0
 11
57.86067811865476
 21
26.99213562373096
 31
0.0
  0
LINE
  5
A75
330
1F
100
AcDbEntity
  8
SK2
  6
CONTINUOUS
370
25
 62
7
100
AcDbLine
 10
57.1213472638721
 20
28.15573054722557
 30
0.0
 11
58.21423150924806
 21
27.06284630184962
 31
0.0
  0
LINE
  5
A76
330
1F
100
AcDbEntity
  8
SK2
  6
CONTINUOUS
370
25
 62
7
100
AcDbLine
 10
57.651677349762
 20
28.0496645300476
 30
0.0
 11
58.56778489984134
 21
27.13355697996827
 31
0.0
  0
LINE
  5
A77
330
1F
100
AcDbEntity
  8
SK2
  6
CONTINUOUS
370
25
 62
7
100
AcDbLine
 10
58.1820074356519
 20
27.94359851286962
 30
0.0
 11
58.9213382904346
 21
27.20426765808692
 31
0.0
  0
LINE
  5
A78
330
1F
100
AcDbEntity
  8
SK2
  6
CONTINUOUS
370
25
 62
7
100
AcDbLine
 10
58.71233752154183
 20
27.83753249569163
 30
0.0
 11
59.27489168102789
 21
27.27497833620557
 31
0.0
  0
LINE
  5
A79
330
1F
100
AcDbEntity
  8
SK2
  6
CONTINUOUS
370
25
 62
7
100
AcDbLine
 10
59.24266760743173
 20
27.73146647851366
 30
0.0
 11
59.62844507162116
 21
27.34568901432423
 31
0.0
  0
LINE
  5
A7A
330
1F
100
AcDbEntity
  8
SK2
  6
CONTINUOUS
370
25
 62
7
100
AcDbLine
 10
59.77299769332167
 20
27.62540046133567
 30
0.0
 11
59.98199846221445
 21
27.41639969244289
 31
0.0
  0
LINE
  5
A7B
330
1F
100
AcDbEntity
  8
SK2
  6
CONTINUOUS
370
25
 62
7
100
AcDbLine
 10
60.30332777921157
 20
27.51933444415769
 30
0.0
 11
60.33555185280772
 21
27.48711037056154
 31
0.0
  0
TEXT
  5
A7C
330
1F
100
AcDbEntity
  8
SK2
  6
CONTINUOUS
370
25
 62
7
100
AcDbText
 10
4.108333333333332
 20
29.0
 30
0.0
 40
3.5
  1
105
 72
     1
 11
7.899999999999999
 21
29.0
 31
0.0
100
AcDbText
  0
LINE
  5
A7D
330
1F
100
AcDbEntity
  8
2
  6
CONTINUOUS
370
25
 62
7
100
AcDbLine
 10
1.9
 20
-1.0
 30
0.0
 11
1.899999999999998
 21
-35.5
 31
0.0
  0
LINE
  5
A7E
330
1F
100
AcDbEntity
  8
2
  6
CONTINUOUS
370
25
 62
7
100
AcDbLine
 10
60.4
 20
-35.5
 30
0.0
 11
60.4
 21
0.0
 31
0.0
  0
LINE
  5
A7F
330
1F
100
AcDbEntity
  8
2
  6
CONTINUOUS
370
25
 62
7
100
AcDbLine
 10
1.899999999999998
 20
-34.5
 30
0.0
 11
60.4
 21
-34.5
 31
0.0
  0
LINE
  5
A80
330
1F
100
AcDbEntity
  8
2
  6
CONTINUOUS
370
25
 62
7
100
AcDbLine
 10
1.899999999999998
 20
-34.5
 30
0.0
 11
6.899999999999998
 21
-33.5
 31
0.0
  0
LINE
  5
A81
330
1F
100
AcDbEntity
  8
2
  6
CONTINUOUS
370
25
 62
7
100
AcDbLine
 10
6.899999999999998
 20
-33.5
 30
0.0
 11
6.899999999999998
 21
-35.5
 31
0.0
  0
LINE
  5
A82
330
1F
100
AcDbEntity
  8
2
  6
CONTINUOUS
370
25
 62
7
100
AcDbLine
 10
6.899999999999998
 20
-35.5
 30
0.0
 11
1.899999999999998
 21
-34.5
 31
0.0
  0
LINE
  5
A83
330
1F
100
AcDbEntity
  8
2
  6
CONTINUOUS
370
25
 62
7
100
AcDbLine
 10
6.611576095540058
 20
-35.44231521910801
 30
0.0
 11
6.899999999999998
 21
-35.15389131464807
 31
0.0
  0
LINE
  5
A84
330
1F
100
AcDbEntity
  8
2
  6
CONTINUOUS
370
25
 62
7
100
AcDbLine
 10
6.25802270494678
 20
-35.37160454098935
 30
0.0
 11
6.899999999999998
 21
-34.72962724593614
 31
0.0
  0
LINE
  5
A85
330
1F
100
AcDbEntity
  8
2
  6
CONTINUOUS
370
25
 62
7
100
AcDbLine
 10
5.904469314353509
 20
-35.3008938628707
 30
0.0
 11
6.899999999999998
 21
-34.30536317722422
 31
0.0
  0
LINE
  5
A86
330
1F
100
AcDbEntity
  8
2
  6
CONTINUOUS
370
25
 62
7
100
AcDbLine
 10
5.550915923760232
 20
-35.23018318475204
 30
0.0
 11
6.899999999999998
 21
-33.88109910851228
 31
0.0
  0
LINE
  5
A87
330
1F
100
AcDbEntity
  8
2
  6
CONTINUOUS
370
25
 62
7
100
AcDbLine
 10
5.197362533166959
 20
-35.15947250663339
 30
0.0
 11
6.84604379975044
 21
-33.51079124004991
 31
0.0
  0
LINE
  5
A88
330
1F
100
AcDbEntity
  8
2
  6
CONTINUOUS
370
25
 62
7
100
AcDbLine
 10
4.84380914257368
 20
-35.08876182851473
 30
0.0
 11
6.315713713860522
 21
-33.6168572572279
 31
0.0
  0
LINE
  5
A89
330
1F
100
AcDbEntity
  8
2
  6
CONTINUOUS
370
25
 62
7
100
AcDbLine
 10
4.490255751980408
 20
-35.01805115039608
 30
0.0
 11
5.785383627970612
 21
-33.72292327440588
 31
0.0
  0
LINE
  5
A8A
330
1F
100
AcDbEntity
  8
2
  6
CONTINUOUS
370
25
 62
7
100
AcDbLine
 10
4.13670236138713
 20
-34.94734047227742
 30
0.0
 11
5.255053542080695
 21
-33.82898929158387
 31
0.0
  0
LINE
  5
A8B
330
1F
100
AcDbEntity
  8
2
  6
CONTINUOUS
370
25
 62
7
100
AcDbLine
 10
3.783148970793856
 20
-34.87662979415877
 30
0.0
 11
4.724723456190785
 21
-33.93505530876185
 31
0.0
  0
LINE
  5
A8C
330
1F
100
AcDbEntity
  8
2
  6
CONTINUOUS
370
25
 62
7
100
AcDbLine
 10
3.429595580200583
 20
-34.80591911604012
 30
0.0
 11
4.194393370300873
 21
-34.04112132593983
 31
0.0
  0
LINE
  5
A8D
330
1F
100
AcDbEntity
  8
2
  6
CONTINUOUS
370
25
 62
7
100
AcDbLine
 10
3.076042189607303
 20
-34.73520843792146
 30
0.0
 11
3.664063284410953
 21
-34.14718734311781
 31
0.0
  0
LINE
  5
A8E
330
1F
100
AcDbEntity
  8
2
  6
CONTINUOUS
370
25
 62
7
100
AcDbLine
 10
2.722488799014029
 20
-34.66449775980281
 30
0.0
 11
3.133733198521042
 21
-34.25325336029579
 31
0.0
  0
LINE
  5
A8F
330
1F
100
AcDbEntity
  8
2
  6
CONTINUOUS
370
25
 62
7
100
AcDbLine
 10
2.368935408420755
 20
-34.59378708168415
 30
0.0
 11
2.603403112631129
 21
-34.35931937747377
 31
0.0
  0
LINE
  5
A90
330
1F
100
AcDbEntity
  8
2
  6
CONTINUOUS
370
25
 62
7
100
AcDbLine
 10
2.015382017827475
 20
-34.52307640356549
 30
0.0
 11
2.073073026741207
 21
-34.46538539465176
 31
0.0
  0
LINE
  5
A91
330
1F
100
AcDbEntity
  8
2
  6
CONTINUOUS
370
25
 62
7
100
AcDbLine
 10
1.970909483187726
 20
-34.48581810336245
 30
0.0
 11
2.006364224781583
 21
-34.52127284495631
 31
0.0
  0
LINE
  5
A92
330
1F
100
AcDbEntity
  8
2
  6
CONTINUOUS
370
25
 62
7
100
AcDbLine
 10
2.324462873781
 20
-34.4151074252438
 30
0.0
 11
2.536694310671495
 21
-34.62733886213429
 31
0.0
  0
LINE
  5
A93
330
1F
100
AcDbEntity
  8
2
  6
CONTINUOUS
370
25
 62
7
100
AcDbLine
 10
2.678016264374275
 20
-34.34439674712515
 30
0.0
 11
3.067024396561408
 21
-34.73340487931228
 31
0.0
  0
LINE
  5
A94
330
1F
100
AcDbEntity
  8
2
  6
CONTINUOUS
370
25
 62
7
100
AcDbLine
 10
3.03156965496755
 20
-34.27368606900649
 30
0.0
 11
3.597354482451322
 21
-34.83947089649026
 31
0.0
  0
LINE
  5
A95
330
1F
100
AcDbEntity
  8
2
  6
CONTINUOUS
370
25
 62
7
100
AcDbLine
 10
3.385123045560825
 20
-34.20297539088784
 30
0.0
 11
4.127684568341235
 21
-34.94553691366824
 31
0.0
  0
LINE
  5
A96
330
1F
100
AcDbEntity
  8
2
  6
CONTINUOUS
370
25
 62
7
100
AcDbLine
 10
3.738676436154101
 20
-34.13226471276919
 30
0.0
 11
4.65801465423115
 21
-35.05160293084623
 31
0.0
  0
LINE
  5
A97
330
1F
100
AcDbEntity
  8
2
  6
CONTINUOUS
370
25
 62
7
100
AcDbLine
 10
4.092229826747376
 20
-34.06155403465053
 30
0.0
 11
5.188344740121065
 21
-35.15766894802421
 31
0.0
  0
LINE
  5
A98
330
1F
100
AcDbEntity
  8
2
  6
CONTINUOUS
370
25
 62
7
100
AcDbLine
 10
4.445783217340652
 20
-33.99084335653187
 30
0.0
 11
5.71867482601098
 21
-35.2637349652022
 31
0.0
  0
LINE
  5
A99
330
1F
100
AcDbEntity
  8
2
  6
CONTINUOUS
370
25
 62
7
100
AcDbLine
 10
4.799336607933925
 20
-33.92013267841322
 30
0.0
 11
6.249004911900891
 21
-35.36980098238018
 31
0.0
  0
LINE
  5
A9A
330
1F
100
AcDbEntity
  8
2
  6
CONTINUOUS
370
25
 62
7
100
AcDbLine
 10
5.152889998527201
 20
-33.84942200029457
 30
0.0
 11
6.779334997790807
 21
-35.47586699955816
 31
0.0
  0
LINE
  5
A9B
330
1F
100
AcDbEntity
  8
2
  6
CONTINUOUS
370
25
 62
7
100
AcDbLine
 10
5.506443389120477
 20
-33.77871132217591
 30
0.0
 11
6.899999999999998
 21
-35.17226793305542
 31
0.0
  0
LINE
  5
A9C
330
1F
100
AcDbEntity
  8
2
  6
CONTINUOUS
370
25
 62
7
100
AcDbLine
 10
5.859996779713751
 20
-33.70800064405725
 30
0.0
 11
6.899999999999998
 21
-34.74800386434349
 31
0.0
  0
LINE
  5
A9D
330
1F
100
AcDbEntity
  8
2
  6
CONTINUOUS
370
25
 62
7
100
AcDbLine
 10
6.213550170307029
 20
-33.6372899659386
 30
0.0
 11
6.899999999999998
 21
-34.32373979563156
 31
0.0
  0
LINE
  5
A9E
330
1F
100
AcDbEntity
  8
2
  6
CONTINUOUS
370
25
 62
7
100
AcDbLine
 10
6.567103560900306
 20
-33.56657928781994
 30
0.0
 11
6.899999999999998
 21
-33.89947572691963
 31
0.0
  0
LINE
  5
A9F
330
1F
100
AcDbEntity
  8
2
  6
CONTINUOUS
370
25
 62
7
100
AcDbLine
 10
60.4
 20
-34.5
 30
0.0
 11
55.4
 21
-35.5
 31
0.0
  0
LINE
  5
AA0
330
1F
100
AcDbEntity
  8
2
  6
CONTINUOUS
370
25
 62
7
100
AcDbLine
 10
55.4
 20
-35.5
 30
0.0
 11
55.4
 21
-33.5
 31
0.0
  0
LINE
  5
AA1
330
1F
100
AcDbEntity
  8
2
  6
CONTINUOUS
370
25
 62
7
100
AcDbLine
 10
55.4
 20
-33.5
 30
0.0
 11
60.4
 21
-34.5
 31
0.0
  0
LINE
  5
AA2
330
1F
100
AcDbEntity
  8
2
  6
CONTINUOUS
370
25
 62
7
100
AcDbLine
 10
60.21011314940148
 20
-34.53797737011971
 30
0.0
 11
60.27340876626765
 21
-34.47468175325353
 31
0.0
  0
LINE
  5
AA3
330
1F
100
AcDbEntity
  8
2
  6
CONTINUOUS
370
25
 62
7
100
AcDbLine
 10
59.67978306351154
 20
-34.64404338729769
 30
0.0
 11
59.91985537567436
 21
-34.40397107513487
 31
0.0
  0
LINE
  5
AA4
330
1F
100
AcDbEntity
  8
2
  6
CONTINUOUS
370
25
 62
7
100
AcDbLine
 10
59.14945297762163
 20
-34.75010940447567
 30
0.0
 11
59.56630198508108
 21
-34.33326039701623
 31
0.0
  0
LINE
  5
AA5
330
1F
100
AcDbEntity
  8
2
  6
CONTINUOUS
370
25
 62
7
100
AcDbLine
 10
58.61912289173172
 20
-34.85617542165365
 30
0.0
 11
59.21274859448781
 21
-34.26254971889757
 31
0.0
  0
LINE
  5
AA6
330
1F
100
AcDbEntity
  8
2
  6
CONTINUOUS
370
25
 62
7
100
AcDbLine
 10
58.0887928058418
 20
-34.96224143883164
 30
0.0
 11
58.85919520389454
 21
-34.19183904077891
 31
0.0
  0
LINE
  5
AA7
330
1F
100
AcDbEntity
  8
2
  6
CONTINUOUS
370
25
 62
7
100
AcDbLine
 10
57.55846271995189
 20
-35.06830745600961
 30
0.0
 11
58.50564181330125
 21
-34.12112836266026
 31
0.0
  0
LINE
  5
AA8
330
1F
100
AcDbEntity
  8
2
  6
CONTINUOUS
370
25
 62
7
100
AcDbLine
 10
57.02813263406196
 20
-35.17437347318761
 30
0.0
 11
58.15208842270798
 21
-34.0504176845416
 31
0.0
  0
LINE
  5
AA9
330
1F
100
AcDbEntity
  8
2
  6
CONTINUOUS
370
25
 62
7
100
AcDbLine
 10
56.49780254817204
 20
-35.28043949036559
 30
0.0
 11
57.7985350321147
 21
-33.97970700642294
 31
0.0
  0
LINE
  5
AAA
330
1F
100
AcDbEntity
  8
2
  6
CONTINUOUS
370
25
 62
7
100
AcDbLine
 10
55.96747246228211
 20
-35.38650550754358
 30
0.0
 11
57.44498164152142
 21
-33.90899632830428
 31
0.0
  0
LINE
  5
AAB
330
1F
100
AcDbEntity
  8
2
  6
CONTINUOUS
370
25
 62
7
100
AcDbLine
 10
55.4371423763922
 20
-35.49257152472155
 30
0.0
 11
57.09142825092814
 21
-33.83828565018563
 31
0.0
  0
LINE
  5
AAC
330
1F
100
AcDbEntity
  8
2
  6
CONTINUOUS
370
25
 62
7
100
AcDbLine
 10
55.4
 20
-35.10544983240183
 30
0.0
 11
56.73787486033486
 21
-33.76757497206698
 31
0.0
  0
LINE
  5
AAD
330
1F
100
AcDbEntity
  8
2
  6
CONTINUOUS
370
25
 62
7
100
AcDbLine
 10
55.4
 20
-34.6811857636899
 30
0.0
 11
56.38432146974159
 21
-33.69686429394832
 31
0.0
  0
LINE
  5
AAE
330
1F
100
AcDbEntity
  8
2
  6
CONTINUOUS
370
25
 62
7
100
AcDbLine
 10
55.4
 20
-34.25692169497796
 30
0.0
 11
56.03076807914831
 21
-33.62615361582966
 31
0.0
  0
LINE
  5
AAF
330
1F
100
AcDbEntity
  8
2
  6
CONTINUOUS
370
25
 62
7
100
AcDbLine
 10
55.4
 20
-33.83265762626603
 30
0.0
 11
55.67721468855503
 21
-33.55544293771101
 31
0.0
  0
LINE
  5
AB0
330
1F
100
AcDbEntity
  8
2
  6
CONTINUOUS
370
25
 62
7
100
AcDbLine
 10
55.4
 20
-35.45958877053935
 30
0.0
 11
55.43367602455054
 21
-35.49326479508989
 31
0.0
  0
LINE
  5
AB1
330
1F
100
AcDbEntity
  8
2
  6
CONTINUOUS
370
25
 62
7
100
AcDbLine
 10
55.4
 20
-35.03532470182741
 30
0.0
 11
55.78722941514383
 21
-35.42255411697124
 31
0.0
  0
LINE
  5
AB2
330
1F
100
AcDbEntity
  8
2
  6
CONTINUOUS
370
25
 62
7
100
AcDbLine
 10
55.4
 20
-34.61106063311549
 30
0.0
 11
56.1407828057371
 21
-35.35184343885258
 31
0.0
  0
LINE
  5
AB3
330
1F
100
AcDbEntity
  8
2
  6
CONTINUOUS
370
25
 62
7
100
AcDbLine
 10
55.4
 20
-34.18679656440355
 30
0.0
 11
56.49433619633037
 21
-35.28113276073393
 31
0.0
  0
LINE
  5
AB4
330
1F
100
AcDbEntity
  8
2
  6
CONTINUOUS
370
25
 62
7
100
AcDbLine
 10
55.4
 20
-33.76253249569162
 30
0.0
 11
56.84788958692365
 21
-35.21042208261527
 31
0.0
  0
LINE
  5
AB5
330
1F
100
AcDbEntity
  8
2
  6
CONTINUOUS
370
25
 62
7
100
AcDbLine
 10
55.6021644662754
 20
-33.54043289325509
 30
0.0
 11
57.20144297751694
 21
-35.13971140449662
 31
0.0
  0
LINE
  5
AB6
330
1F
100
AcDbEntity
  8
2
  6
CONTINUOUS
370
25
 62
7
100
AcDbLine
 10
56.1324945521653
 20
-33.64649891043306
 30
0.0
 11
57.5549963681102
 21
-35.06900072637795
 31
0.0
  0
LINE
  5
AB7
330
1F
100
AcDbEntity
  8
2
  6
CONTINUOUS
370
25
 62
7
100
AcDbLine
 10
56.66282463805523
 20
-33.75256492761105
 30
0.0
 11
57.90854975870348
 21
-34.99829004825929
 31
0.0
  0
LINE
  5
AB8
330
1F
100
AcDbEntity
  8
2
  6
CONTINUOUS
370
25
 62
7
100
AcDbLine
 10
57.19315472394515
 20
-33.85863094478903
 30
0.0
 11
58.26210314929676
 21
-34.92757937014064
 31
0.0
  0
LINE
  5
AB9
330
1F
100
AcDbEntity
  8
2
  6
CONTINUOUS
370
25
 62
7
100
AcDbLine
 10
57.72348480983507
 20
-33.96469696196702
 30
0.0
 11
58.61565653989005
 21
-34.85686869202199
 31
0.0
  0
LINE
  5
ABA
330
1F
100
AcDbEntity
  8
2
  6
CONTINUOUS
370
25
 62
7
100
AcDbLine
 10
58.25381489572499
 20
-34.070762979145
 30
0.0
 11
58.96920993048332
 21
-34.78615801390333
 31
0.0
  0
LINE
  5
ABB
330
1F
100
AcDbEntity
  8
2
  6
CONTINUOUS
370
25
 62
7
100
AcDbLine
 10
58.78414498161491
 20
-34.176828996323
 30
0.0
 11
59.3227633210766
 21
-34.71544733578467
 31
0.0
  0
LINE
  5
ABC
330
1F
100
AcDbEntity
  8
2
  6
CONTINUOUS
370
25
 62
7
100
AcDbLine
 10
59.31447506750482
 20
-34.28289501350097
 30
0.0
 11
59.67631671166988
 21
-34.64473665766602
 31
0.0
  0
LINE
  5
ABD
330
1F
100
AcDbEntity
  8
2
  6
CONTINUOUS
370
25
 62
7
100
AcDbLine
 10
59.84480515339473
 20
-34.38896103067894
 30
0.0
 11
60.02987010226316
 21
-34.57402597954737
 31
0.0
  0
LINE
  5
ABE
330
1F
100
AcDbEntity
  8
2
  6
CONTINUOUS
370
25
 62
7
100
AcDbLine
 10
60.37513523928466
 20
-34.49502704785694
 30
0.0
 11
60.38342349285642
 21
-34.5033153014287
 31
0.0
  0
TEXT
  5
ABF
330
1F
100
AcDbEntity
  8
2
  6
CONTINUOUS
370
25
 62
7
100
AcDbText
 10
25.9
 20
-33.0
 30
0.0
 40
3.5
  1
58.5
 72
     1
 11
31.15
 21
-33.0
 31
0.0
100
AcDbText
  0
LINE
  5
AC0
330
1F
100
AcDbEntity
  8
4
  6
LONGDASH_DASH
370
25
 62
2
100
AcDbLine
 10
0.0
 20
0.0
 30
0.0
 11
60.4
 21
0.0
 31
0.0
  0
LINE
  5
AC1
330
1F
100
AcDbEntity
  8
SK4
  6
LONGDASH_DASH
370
25
 62
2
100
AcDbLine
 10
-50.6
 20
0.0
 30
0.0
 11
66.4
 21
0.0
 31
0.0
  0
LINE
  5
AC2
330
1F
100
AcDbEntity
  8
2
  6
CONTINUOUS
370
25
 62
7
100
AcDbLine
 10
60.4
 20
0.0
 30
0.0
 11
66.14025148547634
 21
13.8581929876693
 31
0.0
  0
LINE
  5
AC3
330
1F
100
AcDbEntity
  8
2
  6
CONTINUOUS
370
25
 62
7
100
AcDbLine
 10
60.4
 20
0.0
 30
0.0
 11
66.14025148547634
 21
-13.8581929876693
 31
0.0
  0
ARC
  5
AC4
330
1F
100
AcDbEntity
  8
2
  6
CONTINUOUS
370
25
 62
7
100
AcDbCircle
 10
60.40000000000007
 20
0.0
 30
0.0
 40
13.99999999999998
100
AcDbArc
 50
292.4999999999997
 51
67.50000000000027
  0
LINE
  5
AC5
330
1F
100
AcDbEntity
  8
2
  6
CONTINUOUS
370
25
 62
7
100
AcDbLine
 10
65.75756805311126
 20
12.93431345515802
 30
0.0
 11
70.50254730538455
 21
11.06745194570001
 31
0.0
  0
LINE
  5
AC6
330
1F
100
AcDbEntity
  8
2
  6
CONTINUOUS
370
25
 62
7
100
AcDbLine
 10
70.50254730538455
 20
11.06745194570001
 30
0.0
 11
69.41952524387969
 21
9.386064657091657
 31
0.0
  0
LINE
  5
AC7
330
1F
100
AcDbEntity
  8
2
  6
CONTINUOUS
370
25
 62
7
100
AcDbLine
 10
69.41952524387969
 20
9.386064657091657
 30
0.0
 11
65.75756805311126
 21
12.93431345515802
 31
0.0
  0
LINE
  5
AC8
330
1F
100
AcDbEntity
  8
2
  6
CONTINUOUS
370
25
 62
7
100
AcDbLine
 10
69.37278770531076
 20
9.43135093609839
 30
0.0
 11
69.58608543171147
 21
9.644648662499101
 31
0.0
  0
LINE
  5
AC9
330
1F
100
AcDbEntity
  8
2
  6
CONTINUOUS
370
25
 62
7
100
AcDbLine
 10
69.1573102474392
 20
9.64013754693876
 30
0.0
 11
70.35398992466317
 21
10.83681722416273
 31
0.0
  0
LINE
  5
ACA
330
1F
100
AcDbEntity
  8
2
  6
CONTINUOUS
370
25
 62
7
100
AcDbLine
 10
68.94183278956766
 20
9.848924157779138
 30
0.0
 11
70.25697742813227
 21
11.16406879634376
 31
0.0
  0
LINE
  5
ACB
330
1F
100
AcDbEntity
  8
2
  6
CONTINUOUS
370
25
 62
7
100
AcDbLine
 10
68.7263553316961
 20
10.05771076861951
 30
0.0
 11
69.95250484990945
 21
11.28386028683286
 31
0.0
  0
LINE
  5
ACC
330
1F
100
AcDbEntity
  8
2
  6
CONTINUOUS
370
25
 62
7
100
AcDbLine
 10
68.51087787382457
 20
10.2664973794599
 30
0.0
 11
69.6480322716866
 21
11.40365177732193
 31
0.0
  0
LINE
  5
ACD
330
1F
100
AcDbEntity
  8
2
  6
CONTINUOUS
370
25
 62
7
100
AcDbLine
 10
68.29540041595303
 20
10.47528399030029
 30
0.0
 11
69.34355969346377
 21
11.52344326781104
 31
0.0
  0
LINE
  5
ACE
330
1F
100
AcDbEntity
  8
2
  6
CONTINUOUS
370
25
 62
7
100
AcDbLine
 10
68.07992295808147
 20
10.68407060114067
 30
0.0
 11
69.03908711524093
 21
11.64323475830012
 31
0.0
  0
LINE
  5
ACF
330
1F
100
AcDbEntity
  8
2
  6
CONTINUOUS
370
25
 62
7
100
AcDbLine
 10
67.86444550020994
 20
10.89285721198106
 30
0.0
 11
68.73461453701812
 21
11.76302624878924
 31
0.0
  0
LINE
  5
AD0
330
1F
100
AcDbEntity
  8
2
  6
CONTINUOUS
370
25
 62
7
100
AcDbLine
 10
67.64896804233838
 20
11.10164382282142
 30
0.0
 11
68.43014195879529
 21
11.88281773927833
 31
0.0
  0
LINE
  5
AD1
330
1F
100
AcDbEntity
  8
2
  6
CONTINUOUS
370
25
 62
7
100
AcDbLine
 10
67.43349058446684
 20
11.31043043366182
 30
0.0
 11
68.12566938057245
 21
12.00260922976742
 31
0.0
  0
LINE
  5
AD2
330
1F
100
AcDbEntity
  8
2
  6
CONTINUOUS
370
25
 62
7
100
AcDbLine
 10
67.21801312659528
 20
11.51921704450219
 30
0.0
 11
67.82119680234962
 21
12.12240072025651
 31
0.0
  0
LINE
  5
AD3
330
1F
100
AcDbEntity
  8
2
  6
CONTINUOUS
370
25
 62
7
100
AcDbLine
 10
67.00253566872375
 20
11.72800365534259
 30
0.0
 11
67.51672422412679
 21
12.24219221074561
 31
0.0
  0
LINE
  5
AD4
330
1F
100
AcDbEntity
  8
2
  6
CONTINUOUS
370
25
 62
7
100
AcDbLine
 10
66.78705821085221
 20
11.93679026618297
 30
0.0
 11
67.21225164590396
 21
12.36198370123472
 31
0.0
  0
LINE
  5
AD5
330
1F
100
AcDbEntity
  8
2
  6
CONTINUOUS
370
25
 62
7
100
AcDbLine
 10
66.57158075298065
 20
12.14557687702334
 30
0.0
 11
66.9077790676811
 21
12.4817751917238
 31
0.0
  0
LINE
  5
AD6
330
1F
100
AcDbEntity
  8
2
  6
CONTINUOUS
370
25
 62
7
100
AcDbLine
 10
66.35610329510911
 20
12.35436348786372
 30
0.0
 11
66.60330648945829
 21
12.6015666822129
 31
0.0
  0
LINE
  5
AD7
330
1F
100
AcDbEntity
  8
2
  6
CONTINUOUS
370
25
 62
7
100
AcDbLine
 10
66.14062583723756
 20
12.56315009870412
 30
0.0
 11
66.29883391123545
 21
12.72135817270199
 31
0.0
  0
LINE
  5
AD8
330
1F
100
AcDbEntity
  8
2
  6
CONTINUOUS
370
25
 62
7
100
AcDbLine
 10
65.92514837936602
 20
12.7719367095445
 30
0.0
 11
65.99436133301262
 21
12.8411496631911
 31
0.0
  0
LINE
  5
AD9
330
1F
100
AcDbEntity
  8
2
  6
CONTINUOUS
370
25
 62
7
100
AcDbLine
 10
66.12230531198185
 20
12.7908114684371
 30
0.0
 11
69.46165141547644
 21
9.451465364942493
 31
0.0
  0
LINE
  5
ADA
330
1F
100
AcDbEntity
  8
2
  6
CONTINUOUS
370
25
 62
7
100
AcDbLine
 10
66.82176391076523
 20
12.51561693836565
 30
0.0
 11
69.62786679392609
 21
9.709514055204764
 31
0.0
  0
LINE
  5
ADB
330
1F
100
AcDbEntity
  8
2
  6
CONTINUOUS
370
25
 62
7
100
AcDbLine
 10
67.5212225095486
 20
12.24042240829421
 30
0.0
 11
69.79408217237575
 21
9.967562745467035
 31
0.0
  0
LINE
  5
ADC
330
1F
100
AcDbEntity
  8
2
  6
CONTINUOUS
370
25
 62
7
100
AcDbLine
 10
68.22068110833197
 20
11.96522787822276
 30
0.0
 11
69.9602975508254
 21
10.22561143572932
 31
0.0
  0
LINE
  5
ADD
330
1F
100
AcDbEntity
  8
2
  6
CONTINUOUS
370
25
 62
7
100
AcDbLine
 10
68.92013970711534
 20
11.69003334815132
 30
0.0
 11
70.12651292927507
 21
10.48366012599158
 31
0.0
  0
LINE
  5
ADE
330
1F
100
AcDbEntity
  8
2
  6
CONTINUOUS
370
25
 62
7
100
AcDbLine
 10
69.61959830589869
 20
11.41483881807987
 30
0.0
 11
70.2927283077247
 21
10.74170881625386
 31
0.0
  0
LINE
  5
ADF
330
1F
100
AcDbEntity
  8
2
  6
CONTINUOUS
370
25
 62
7
100
AcDbLine
 10
70.31905690468206
 20
11.13964428800844
 30
0.0
 11
70.45894368617436
 21
10.99975750651613
 31
0.0
  0
LINE
  5
AE0
330
1F
100
AcDbEntity
  8
2
  6
CONTINUOUS
370
25
 62
7
100
AcDbLine
 10
65.75756805311126
 20
-12.93431345515802
 30
0.0
 11
69.4195252438797
 21
-9.386064657091662
 31
0.0
  0
LINE
  5
AE1
330
1F
100
AcDbEntity
  8
2
  6
CONTINUOUS
370
25
 62
7
100
AcDbLine
 10
69.4195252438797
 20
-9.386064657091662
 30
0.0
 11
70.50254730538457
 21
-11.06745194570001
 31
0.0
  0
LINE
  5
AE2
330
1F
100
AcDbEntity
  8
2
  6
CONTINUOUS
370
25
 62
7
100
AcDbLine
 10
70.50254730538457
 20
-11.06745194570001
 30
0.0
 11
65.75756805311126
 21
-12.93431345515802
 31
0.0
  0
LINE
  5
AE3
330
1F
100
AcDbEntity
  8
2
  6
CONTINUOUS
370
25
 62
7
100
AcDbLine
 10
69.97114120167961
 20
-11.27652801287617
 30
0.0
 11
70.37626696972008
 21
-10.87140224483571
 31
0.0
  0
LINE
  5
AE4
330
1F
100
AcDbEntity
  8
2
  6
CONTINUOUS
370
25
 62
7
100
AcDbLine
 10
69.27168260289623
 20
-11.55172254294762
 30
0.0
 11
70.21005159127041
 21
-10.61335355457344
 31
0.0
  0
LINE
  5
AE5
330
1F
100
AcDbEntity
  8
2
  6
CONTINUOUS
370
25
 62
7
100
AcDbLine
 10
68.57222400411285
 20
-11.82691707301908
 30
0.0
 11
70.04383621282076
 21
-10.35530486431117
 31
0.0
  0
LINE
  5
AE6
330
1F
100
AcDbEntity
  8
2
  6
CONTINUOUS
370
25
 62
7
100
AcDbLine
 10
67.87276540532947
 20
-12.10211160309052
 30
0.0
 11
69.87762083437111
 21
-10.09725617404888
 31
0.0
  0
LINE
  5
AE7
330
1F
100
AcDbEntity
  8
2
  6
CONTINUOUS
370
25
 62
7
100
AcDbLine
 10
67.1733068065461
 20
-12.37730613316197
 30
0.0
 11
69.71140545592145
 21
-9.839207483786623
 31
0.0
  0
LINE
  5
AE8
330
1F
100
AcDbEntity
  8
2
  6
CONTINUOUS
370
25
 62
7
100
AcDbLine
 10
66.47384820776273
 20
-12.65250066323341
 30
0.0
 11
69.54519007747182
 21
-9.581158793524338
 31
0.0
  0
LINE
  5
AE9
330
1F
100
AcDbEntity
  8
2
  6
CONTINUOUS
370
25
 62
7
100
AcDbLine
 10
65.77438960897936
 20
-12.92769519330486
 30
0.0
 11
66.0861631989897
 21
-12.61592160329452
 31
0.0
  0
LINE
  5
AEA
330
1F
100
AcDbEntity
  8
2
  6
CONTINUOUS
370
25
 62
7
100
AcDbLine
 10
65.86409900894861
 20
-12.83109041995714
 30
0.0
 11
65.90809774241026
 21
-12.87508915341879
 31
0.0
  0
LINE
  5
AEB
330
1F
100
AcDbEntity
  8
2
  6
CONTINUOUS
370
25
 62
7
100
AcDbLine
 10
66.07957646682017
 20
-12.62230380911677
 30
0.0
 11
66.21257032063309
 21
-12.75529766292969
 31
0.0
  0
LINE
  5
AEC
330
1F
100
AcDbEntity
  8
2
  6
CONTINUOUS
370
25
 62
7
100
AcDbLine
 10
66.29505392469171
 20
-12.41351719827639
 30
0.0
 11
66.51704289885592
 21
-12.63550617244059
 31
0.0
  0
LINE
  5
AED
330
1F
100
AcDbEntity
  8
2
  6
CONTINUOUS
370
25
 62
7
100
AcDbLine
 10
66.51053138256326
 20
-12.20473058743601
 30
0.0
 11
66.82151547707876
 21
-12.51571468195151
 31
0.0
  0
LINE
  5
AEE
330
1F
100
AcDbEntity
  8
2
  6
CONTINUOUS
370
25
 62
7
100
AcDbLine
 10
66.7260088404348
 20
-11.99594397659563
 30
0.0
 11
67.12598805530158
 21
-12.3959231914624
 31
0.0
  0
LINE
  5
AEF
330
1F
100
AcDbEntity
  8
2
  6
CONTINUOUS
370
25
 62
7
100
AcDbLine
 10
66.94148629830634
 20
-11.78715736575523
 30
0.0
 11
67.43046063352442
 21
-12.27613170097331
 31
0.0
  0
LINE
  5
AF0
330
1F
100
AcDbEntity
  8
2
  6
CONTINUOUS
370
25
 62
7
100
AcDbLine
 10
67.15696375617789
 20
-11.57837075491484
 30
0.0
 11
67.73493321174726
 21
-12.15634021048423
 31
0.0
  0
LINE
  5
AF1
330
1F
100
AcDbEntity
  8
2
  6
CONTINUOUS
370
25
 62
7
100
AcDbLine
 10
67.37244121404945
 20
-11.36958414407449
 30
0.0
 11
68.03940578997009
 21
-12.03654871999513
 31
0.0
  0
LINE
  5
AF2
330
1F
100
AcDbEntity
  8
2
  6
CONTINUOUS
370
25
 62
7
100
AcDbLine
 10
67.58791867192099
 20
-11.1607975332341
 30
0.0
 11
68.34387836819292
 21
-11.91675722950603
 31
0.0
  0
LINE
  5
AF3
330
1F
100
AcDbEntity
  8
2
  6
CONTINUOUS
370
25
 62
7
100
AcDbLine
 10
67.80339612979253
 20
-10.9520109223937
 30
0.0
 11
68.64835094641576
 21
-11.79696573901695
 31
0.0
  0
LINE
  5
AF4
330
1F
100
AcDbEntity
  8
2
  6
CONTINUOUS
370
25
 62
7
100
AcDbLine
 10
68.01887358766409
 20
-10.74322431155335
 30
0.0
 11
68.95282352463859
 21
-11.67717424852785
 31
0.0
  0
LINE
  5
AF5
330
1F
100
AcDbEntity
  8
2
  6
CONTINUOUS
370
25
 62
7
100
AcDbLine
 10
68.23435104553562
 20
-10.53443770071294
 30
0.0
 11
69.25729610286142
 21
-11.55738275803876
 31
0.0
  0
LINE
  5
AF6
330
1F
100
AcDbEntity
  8
2
  6
CONTINUOUS
370
25
 62
7
100
AcDbLine
 10
68.44982850340718
 20
-10.32565108987257
 30
0.0
 11
69.56176868108425
 21
-11.43759126754965
 31
0.0
  0
LINE
  5
AF7
330
1F
100
AcDbEntity
  8
2
  6
CONTINUOUS
370
25
 62
7
100
AcDbLine
 10
68.66530596127872
 20
-10.11686447903219
 30
0.0
 11
69.86624125930707
 21
-11.31779977706056
 31
0.0
  0
LINE
  5
AF8
330
1F
100
AcDbEntity
  8
2
  6
CONTINUOUS
370
25
 62
7
100
AcDbLine
 10
68.88078341915028
 20
-9.908077868191818
 30
0.0
 11
70.17071383752992
 21
-11.19800828657147
 31
0.0
  0
LINE
  5
AF9
330
1F
100
AcDbEntity
  8
2
  6
CONTINUOUS
370
25
 62
7
100
AcDbLine
 10
69.09626087702182
 20
-9.69929125735144
 30
0.0
 11
70.47518641575275
 21
-11.07821679608238
 31
0.0
  0
LINE
  5
AFA
330
1F
100
AcDbEntity
  8
2
  6
CONTINUOUS
370
25
 62
7
100
AcDbLine
 10
69.31173833489335
 20
-9.490504646511042
 30
0.0
 11
69.80364919127348
 21
-9.982415502891186
 31
0.0
  0
TEXT
  5
AFB
330
1F
100
AcDbEntity
  8
2
  6
CONTINUOUS
370
25
 62
7
100
AcDbText
 10
71.9
 20
-5.25
 30
0.0
 40
3.5
  1
135°
 50
90.0
 72
     1
 11
71.9
 21
0.0
 31
0.0
100
AcDbText
  0
LINE
  5
AFC
330
1F
100
AcDbEntity
  8
SK1
  6
CONTINUOUS
370
50
 62
4
100
AcDbLine
 10
0.0
 20
0.0
 30
0.0
 11
2.5
 21
0.0
 31
0.0
  0
LINE
  5
AFD
330
1F
100
AcDbEntity
  8
SK1
  6
CONTINUOUS
370
50
 62
4
100
AcDbLine
 10
0.0
 20
0.0
 30
0.0
 11
0.0
 21
2.5
 31
0.0
  0
ARC
  5
AFE
330
1F
100
AcDbEntity
  8
SK1
  6
CONTINUOUS
370
50
 62
4
100
AcDbCircle
 10
0.0
 20
0.0
 30
0.0
 40
2.5
100
AcDbArc
 50
0.0
 51
90.0
  0
LINE
  5
AFF
330
1F
100
AcDbEntity
  8
SK1
  6
CONTINUOUS
370
50
 62
4
100
AcDbLine
 10
0.0
 20
0.0
 30
0.0
 11
-2.5
 21
0.0
 31
0.0
  0
ARC
  5
B00
330
1F
100
AcDbEntity
  8
SK1
  6
CONTINUOUS
370
50
 62
4
100
AcDbCircle
 10
0.0
 20
0.0
 30
0.0
 40
2.5
100
AcDbArc
 50
180.0
 51
270.0
  0
LINE
  5
B01
330
1F
100
AcDbEntity
  8
SK1
  6
CONTINUOUS
370
50
 62
4
100
AcDbLine
 10
0.0
 20
-2.5
 30
0.0
 11
0.0
 21
0.0
 31
0.0
  0
ARC
  5
B02
330
1F
100
AcDbEntity
  8
SK1
  6
CONTINUOUS
370
50
 62
4
100
AcDbCircle
 10
0.0
 20
0.0
 30
0.0
 40
2.5
100
AcDbArc
 50
270.0
 51
0.0
  0
ARC
  5
B03
330
1F
100
AcDbEntity
  8
SK1
  6
CONTINUOUS
370
50
 62
4
100
AcDbCircle
 10
0.0
 20
0.0
 30
0.0
 40
2.5
100
AcDbArc
 50
90.0
 51
180.0
  0
LINE
  5
B04
330
1F
100
AcDbEntity
  8
SK1
  6
CONTINUOUS
370
50
 62
4
100
AcDbLine
 10
-0.31832627443191
 20
-2.479495909600069
 30
0.0
 11
0.0
 21
-2.161169635168159
 31
0.0
  0
LINE
  5
B05
330
1F
100
AcDbEntity
  8
SK1
  6
CONTINUOUS
370
50
 62
4
100
AcDbLine
 10
2.16116963516816
 20
0.0
 30
0.0
 11
2.479495909600069
 21
0.3183262744319091
 31
0.0
  0
LINE
  5
B06
330
1F
100
AcDbEntity
  8
SK1
  6
CONTINUOUS
370
50
 62
4
100
AcDbLine
 10
-0.615281817185723
 20
-2.422898061760609
 30
0.0
 11
0.0
 21
-1.807616244574886
 31
0.0
  0
LINE
  5
B07
330
1F
100
AcDbEntity
  8
SK1
  6
CONTINUOUS
370
50
 62
4
100
AcDbLine
 10
1.807616244574887
 20
0.0
 30
0.0
 11
2.422898061760609
 21
0.6152818171857222
 31
0.0
  0
LINE
  5
B08
330
1F
100
AcDbEntity
  8
SK1
  6
CONTINUOUS
370
50
 62
4
100
AcDbLine
 10
-0.8835965231639721
 20
-2.337659377145585
 30
0.0
 11
0.0
 21
-1.454062853981614
 31
0.0
  0
LINE
  5
B09
330
1F
100
AcDbEntity
  8
SK1
  6
CONTINUOUS
370
50
 62
4
100
AcDbLine
 10
1.454062853981615
 20
0.0
 30
0.0
 11
2.337659377145586
 21
0.8835965231639715
 31
0.0
  0
LINE
  5
B0A
330
1F
100
AcDbEntity
  8
SK1
  6
CONTINUOUS
370
50
 62
4
100
AcDbLine
 10
-1.128779664263143
 20
-2.229289127651483
 30
0.0
 11
0.0
 21
-1.100509463388341
 31
0.0
  0
LINE
  5
B0B
330
1F
100
AcDbEntity
  8
SK1
  6
CONTINUOUS
370
50
 62
4
100
AcDbLine
 10
1.100509463388341
 20
0.0
 30
0.0
 11
2.229289127651484
 21
1.128779664263142
 31
0.0
  0
LINE
  5
B0C
330
1F
100
AcDbEntity
  8
SK1
  6
CONTINUOUS
370
50
 62
4
100
AcDbLine
 10
-1.354032791010379
 20
-2.100988863805446
 30
0.0
 11
0.0
 21
-0.7469560727950677
 31
0.0
  0
LINE
  5
B0D
330
1F
100
AcDbEntity
  8
SK1
  6
CONTINUOUS
370
50
 62
4
100
AcDbLine
 10
0.746956072795068
 20
0.0
 30
0.0
 11
2.100988863805446
 21
1.354032791010378
 31
0.0
  0
LINE
  5
B0E
330
1F
100
AcDbEntity
  8
SK1
  6
CONTINUOUS
370
50
 62
4
100
AcDbLine
 10
-1.559387394659872
 20
-1.952790076861666
 30
0.0
 11
0.0
 21
-0.3934026822017946
 31
0.0
  0
LINE
  5
B0F
330
1F
100
AcDbEntity
  8
SK1
  6
CONTINUOUS
370
50
 62
4
100
AcDbLine
 10
0.3934026822017948
 20
0.0
 30
0.0
 11
1.952790076861667
 21
1.559387394659871
 31
0.0
  0
LINE
  5
B10
330
1F
100
AcDbEntity
  8
SK1
  6
CONTINUOUS
370
50
 62
4
100
AcDbLine
 10
-1.746970020883365
 20
-1.786819312491886
 30
0.0
 11
0.0
 21
-0.0398492916085216
 31
0.0
  0
LINE
  5
B11
330
1F
100
AcDbEntity
  8
SK1
  6
CONTINUOUS
370
50
 62
4
100
AcDbLine
 10
0.0398492916085216
 20
0.0
 30
0.0
 11
1.786819312491887
 21
1.746970020883364
 31
0.0
  0
LINE
  5
B12
330
1F
100
AcDbEntity
  8
SK1
  6
CONTINUOUS
370
50
 62
4
100
AcDbLine
 10
-1.917371878232655
 20
-1.603667779247902
 30
0.0
 11
-0.3137040989847517
 21
0.0
 31
0.0
  0
LINE
  5
B13
330
1F
100
AcDbEntity
  8
SK1
  6
CONTINUOUS
370
50
 62
4
100
AcDbLine
 10
0.0
 20
0.3137040989847515
 30
0.0
 11
1.603667779247903
 21
1.917371878232654
 31
0.0
  0
LINE
  5
B14
330
1F
100
AcDbEntity
  8
SK1
  6
CONTINUOUS
370
50
 62
4
100
AcDbLine
 10
-2.068741231122433
 20
-1.401483741544407
 30
0.0
 11
-0.6672574895780249
 21
0.0
 31
0.0
  0
LINE
  5
B15
330
1F
100
AcDbEntity
  8
SK1
  6
CONTINUOUS
370
50
 62
4
100
AcDbLine
 10
0.0
 20
0.6672574895780246
 30
0.0
 11
1.401483741544409
 21
2.068741231122432
 31
0.0
  0
LINE
  5
B16
330
1F
100
AcDbEntity
  8
SK1
  6
CONTINUOUS
370
50
 62
4
100
AcDbLine
 10
-2.2023876557675
 20
-1.181576775596201
 30
0.0
 11
-1.020810880171298
 21
0.0
 31
0.0
  0
LINE
  5
B17
330
1F
100
AcDbEntity
  8
SK1
  6
CONTINUOUS
370
50
 62
4
100
AcDbLine
 10
0.0
 20
1.020810880171298
 30
0.0
 11
1.181576775596202
 21
2.202387655767499
 31
0.0
  0
LINE
  5
B18
330
1F
100
AcDbEntity
  8
SK1
  6
CONTINUOUS
370
50
 62
4
100
AcDbLine
 10
-2.315450943493525
 20
-0.9410866727289533
 30
0.0
 11
-1.374364270764571
 21
0.0
 31
0.0
  0
LINE
  5
B19
330
1F
100
AcDbEntity
  8
SK1
  6
CONTINUOUS
370
50
 62
4
100
AcDbLine
 10
0.0
 20
1.374364270764571
 30
0.0
 11
0.9410866727289543
 21
2.315450943493524
 31
0.0
  0
LINE
  5
B1A
330
1F
100
AcDbEntity
  8
SK1
  6
CONTINUOUS
370
50
 62
4
100
AcDbLine
 10
-2.405290600131854
 20
-0.6773729387740097
 30
0.0
 11
-1.727917661357844
 21
0.0
 31
0.0
  0
LINE
  5
B1B
330
1F
100
AcDbEntity
  8
SK1
  6
CONTINUOUS
370
50
 62
4
100
AcDbLine
 10
0.0
 20
1.727917661357844
 30
0.0
 11
0.6773729387740106
 21
2.405290600131854
 31
0.0
  0
LINE
  5
B1C
330
1F
100
AcDbEntity
  8
SK1
  6
CONTINUOUS
370
50
 62
4
100
AcDbLine
 10
-2.468598823056026
 20
-0.3871277711049084
 30
0.0
 11
-2.081471051951118
 21
0.0
 31
0.0
  0
LINE
  5
B1D
330
1F
100
AcDbEntity
  8
SK1
  6
CONTINUOUS
370
50
 62
4
100
AcDbLine
 10
0.0
 20
2.081471051951117
 30
0.0
 11
0.3871277711049085
 21
2.468598823056025
 31
0.0
  0
LINE
  5
B1E
330
1F
100
AcDbEntity
  8
SK1
  6
CONTINUOUS
370
50
 62
4
100
AcDbLine
 10
-2.498020276172772
 20
-0.0629958336283822
 30
0.0
 11
-2.43502444254439
 21
0.0
 31
0.0
  0
LINE
  5
B1F
330
1F
100
AcDbEntity
  8
SK1
  6
CONTINUOUS
370
50
 62
4
100
AcDbLine
 10
0.0
 20
2.435024442544389
 30
0.0
 11
0.0629958336283828
 21
2.498020276172772
 31
0.0
  0
LINE
  5
B20
330
1F
100
AcDbEntity
  8
SK1
  6
CONTINUOUS
370
50
 62
4
100
AcDbLine
 10
-2.337336523620827
 20
-0.8844932833271533
 30
0.0
 11
-0.8844932833271509
 21
-2.337336523620827
 31
0.0
  0
LINE
  5
B21
330
1F
100
AcDbEntity
  8
SK1
  6
CONTINUOUS
370
50
 62
4
100
AcDbLine
 10
-2.466237059966593
 20
-0.4020393563881135
 30
0.0
 11
-0.4020393563881111
 21
-2.466237059966594
 31
0.0
  0
LINE
  5
B22
330
1F
100
AcDbEntity
  8
SK1
  6
CONTINUOUS
370
50
 62
4
100
AcDbLine
 10
-2.499522297881596
 20
-0.0152007278798383
 30
0.0
 11
-0.0152007278798351
 21
-2.499522297881596
 31
0.0
  0
LINE
  5
B23
330
1F
100
AcDbEntity
  8
SK1
  6
CONTINUOUS
370
50
 62
4
100
AcDbLine
 10
-2.16116963516816
 20
0.0
 30
0.0
 11
0.0
 21
-2.161169635168158
 31
0.0
  0
LINE
  5
B24
330
1F
100
AcDbEntity
  8
SK1
  6
CONTINUOUS
370
50
 62
4
100
AcDbLine
 10
-1.807616244574888
 20
0.0
 30
0.0
 11
0.0
 21
-1.807616244574886
 31
0.0
  0
LINE
  5
B25
330
1F
100
AcDbEntity
  8
SK1
  6
CONTINUOUS
370
50
 62
4
100
AcDbLine
 10
-1.454062853981615
 20
0.0
 30
0.0
 11
0.0
 21
-1.454062853981613
 31
0.0
  0
LINE
  5
B26
330
1F
100
AcDbEntity
  8
SK1
  6
CONTINUOUS
370
50
 62
4
100
AcDbLine
 10
-1.100509463388341
 20
0.0
 30
0.0
 11
0.0
 21
-1.10050946338834
 31
0.0
  0
LINE
  5
B27
330
1F
100
AcDbEntity
  8
SK1
  6
CONTINUOUS
370
50
 62
4
100
AcDbLine
 10
-0.7469560727950676
 20
0.0
 30
0.0
 11
0.0
 21
-0.7469560727950668
 31
0.0
  0
LINE
  5
B28
330
1F
100
AcDbEntity
  8
SK1
  6
CONTINUOUS
370
50
 62
4
100
AcDbLine
 10
-0.3934026822017942
 20
0.0
 30
0.0
 11
0.0
 21
-0.3934026822017938
 31
0.0
  0
LINE
  5
B29
330
1F
100
AcDbEntity
  8
SK1
  6
CONTINUOUS
370
50
 62
4
100
AcDbLine
 10
-0.0398492916085216
 20
0.0
 30
0.0
 11
0.0
 21
-0.0398492916085216
 31
0.0
  0
LINE
  5
B2A
330
1F
100
AcDbEntity
  8
SK1
  6
CONTINUOUS
370
50
 62
4
100
AcDbLine
 10
0.0
 20
0.3137040989847515
 30
0.0
 11
0.3137040989847518
 21
0.0
 31
0.0
  0
LINE
  5
B2B
330
1F
100
AcDbEntity
  8
SK1
  6
CONTINUOUS
370
50
 62
4
100
AcDbLine
 10
0.0
 20
0.6672574895780246
 30
0.0
 11
0.6672574895780253
 21
0.0
 31
0.0
  0
LINE
  5
B2C
330
1F
100
AcDbEntity
  8
SK1
  6
CONTINUOUS
370
50
 62
4
100
AcDbLine
 10
0.0
 20
1.020810880171298
 30
0.0
 11
1.020810880171299
 21
0.0
 31
0.0
  0
LINE
  5
B2D
330
1F
100
AcDbEntity
  8
SK1
  6
CONTINUOUS
370
50
 62
4
100
AcDbLine
 10
0.0
 20
1.37436427076457
 30
0.0
 11
1.374364270764571
 21
0.0
 31
0.0
  0
LINE
  5
B2E
330
1F
100
AcDbEntity
  8
SK1
  6
CONTINUOUS
370
50
 62
4
100
AcDbLine
 10
0.0
 20
1.727917661357843
 30
0.0
 11
1.727917661357845
 21
0.0
 31
0.0
  0
LINE
  5
B2F
330
1F
100
AcDbEntity
  8
SK1
  6
CONTINUOUS
370
50
 62
4
100
AcDbLine
 10
0.0
 20
2.081471051951116
 30
0.0
 11
2.081471051951118
 21
0.0
 31
0.0
  0
LINE
  5
B30
330
1F
100
AcDbEntity
  8
SK1
  6
CONTINUOUS
370
50
 62
4
100
AcDbLine
 10
0.0
 20
2.435024442544389
 30
0.0
 11
2.435024442544392
 21
0.0
 31
0.0
  0
LINE
  5
B31
330
1F
100
AcDbEntity
  8
SK1
  6
CONTINUOUS
370
50
 62
4
100
AcDbLine
 10
0.3077647139123103
 20
2.480813119225352
 30
0.0
 11
2.480813119225352
 21
0.307764713912313
 31
0.0
  0
LINE
  5
B32
330
1F
100
AcDbEntity
  8
SK1
  6
CONTINUOUS
370
50
 62
4
100
AcDbLine
 10
0.7611924397506667
 20
2.380938783980268
 30
0.0
 11
2.380938783980268
 21
0.7611924397506691
 31
0.0
  0
LINE
  5
B33
330
1F
100
AcDbEntity
  8
SK1
  6
CONTINUOUS
370
50
 62
4
100
AcDbLine
 10
1.48586376213526
 20
2.009820852188948
 30
0.0
 11
2.009820852188946
 21
1.485863762135263
 31
0.0
  0
LINE
  5
B34
330
1F
100
AcDbEntity
  8
INFTOTAL
  6
CONTINUOUS
370
18
 62
9
100
AcDbLine
 10
-81.510011
 20
-37.950011
 30
0.0
 11
102.740011
 21
-37.950011
 31
0.0
  0
LINE
  5
B35
330
1F
100
AcDbEntity
  8
INFTOTAL
  6
CONTINUOUS
370
18
 62
9
100
AcDbLine
 10
102.740011
 20
-37.950011
 30
0.0
 11
102.740011
 21
37.950011
 31
0.0
  0
LINE
  5
B36
330
1F
100
AcDbEntity
  8
INFTOTAL
  6
CONTINUOUS
370
18
 62
9
100
AcDbLine
 10
102.740011
 20
37.950011
 30
0.0
 11
-81.510011
 21
37.950011
 31
0.0
  0
LINE
  5
B37
330
1F
100
AcDbEntity
  8
INFTOTAL
  6
CONTINUOUS
370
18
 62
9
100
AcDbLine
 10
-81.510011
 20
37.950011
 30
0.0
 11
-81.510011
 21
-37.950011
 31
0.0
  0
ENDSEC
  0
SECTION
  2
OBJECTS
  0
DICTIONARY
  5
C
330
0
100
AcDbDictionary
281
     1
  3
ACAD_GROUP
350
D
  3
ACAD_LAYOUT
350
1A
  3
ACAD_MATERIAL
350
3B
  3
ACAD_MLEADERSTYLE
350
B3A
  3
ACAD_MLINESTYLE
350
17
  3
ACAD_PLOTSETTINGS
350
19
  3
ACAD_PLOTSTYLENAME
350
E
  3
ACAD_SCALELIST
350
3A5
  3
ACAD_VISUALSTYLE
350
2A
  3
AcDbVariableDictionary
350
B38
  0
DICTIONARY
  5
D
102
{ACAD_REACTORS
330
C
102
}
330
C
100
AcDbDictionary
281
     1
  0
DICTIONARY
  5
1A
102
{ACAD_REACTORS
330
C
102
}
330
C
100
AcDbDictionary
281
     1
  3
Layout1
350
1E
  3
Layout2
350
26
  3
Model
350
22
  0
DICTIONARY
  5
3B
102
{ACAD_REACTORS
330
C
102
}
330
C
100
AcDbDictionary
281
     1
  3
ByBlock
350
3D
  3
ByLayer
350
3C
  3
Global
350
3E
  0
DICTIONARY
  5
B3A
102
{ACAD_REACTORS
330
C
102
}
330
C
100
AcDbDictionary
281
     1
  0
DICTIONARY
  5
17
102
{ACAD_REACTORS
330
C
102
}
330
C
100
AcDbDictionary
281
     1
  3
Standard
350
18
  0
DICTIONARY
  5
19
102
{ACAD_REACTORS
330
C
102
}
330
C
100
AcDbDictionary
281
     1
  0
ACDBDICTIONARYWDFLT
  5
E
102
{ACAD_REACTORS
330
C
102
}
330
C
100
AcDbDictionary
281
     1
  3
Normal
350
F
100
AcDbDictionaryWithDefault
340
F
  0
DICTIONARY
  5
3A5
102
{ACAD_REACTORS
330
C
102
}
330
C
100
AcDbDictionary
281
     1
  3
A0
350
3A6
  3
A1
350
3A7
  3
A2
350
3A8
  3
A3
350
3A9
  3
A4
350
3AA
  3
A5
350
3AB
  3
A6
350
3AC
  3
A7
350
3AD
  3
A8
350
3AE
  3
A9
350
3AF
  3
B0
350
3B0
  3
B1
350
3B1
  3
B2
350
3B2
  3
B3
350
3B3
  3
B4
350
3B4
  3
B5
350
3B5
  3
B6
350
3B6
  3
B7
350
3B7
  3
B8
350
3B8
  3
B9
350
3B9
  3
C0
350
3BA
  3
C1
350
3BB
  3
C2
350
3BC
  3
C3
350
3BD
  3
C4
350
3BE
  3
C5
350
3BF
  3
C6
350
3C0
  3
C7
350
3C1
  3
C8
350
3C2
  3
C9
350
3C3
  3
D0
350
3C4
  3
D1
350
3C5
  3
D2
350
3C6
  0
DICTIONARY
  5
2A
102
{ACAD_REACTORS
330
C
102
}
330
C
100
AcDbDictionary
281
     1
  3
2dWireframe
350
2F
  3
3D Hidden
350
31
  3
3dWireframe
350
30
  3
Basic
350
32
  3
Brighten
350
36
  3
ColorChange
350
3A
  3
Conceptual
350
34
  3
Dim
350
35
  3
Facepattern
350
39
  3
Flat
350
2B
  3
FlatWithEdges
350
2C
  3
Gouraud
350
2D
  3
GouraudWithEdges
350
2E
  3
Linepattern
350
38
  3
Realistic
350
33
  3
Thicken
350
37
  0
DICTIONARY
  5
B38
102
{ACAD_REACTORS
330
C
102
}
330
C
100
AcDbDictionary
281
     1
  3
CANNOSCALE
350
B3D
  3
DIMASSOC
350
B3E
  3
HIDETEXT
350
B3F
  3
PSOLHEIGHT
350
B3C
  3
PSOLWIDTH
350
B3B
  0
LAYOUT
  5
1E
102
{ACAD_REACTORS
330
1A
102
}
330
1A
100
AcDbPlotSettings
  1

  2
none_device
  4

  6

 40
0.0
 41
0.0
 42
0.0
 43
0.0
 44
0.0
 45
0.0
 46
0.0
 47
0.0
 48
0.0
 49
0.0
140
0.0
141
0.0
142
1.0
143
1.0
 70
   688
 72
     0
 73
     0
 74
     5
  7

 75
    16
147
1.0
148
0.0
149
0.0
100
AcDbLayout
  1
Layout1
 70
     1
 71
     1
 10
0.0
 20
0.0
 11
420.0
 21
297.0
 12
0.0
 22
0.0
 32
0.0
 14
1.000000000000000E+20
 24
1.000000000000000E+20
 34
1.000000000000000E+20
 15
-1.000000000000000E+20
 25
-1.000000000000000E+20
 35
-1.000000000000000E+20
146
0.0
 13
0.0
 23
0.0
 33
0.0
 16
1.0
 26
0.0
 36
0.0
 17
0.0
 27
1.0
 37
0.0
 76
     0
330
1B
  0
LAYOUT
  5
26
102
{ACAD_REACTORS
330
1A
102
}
330
1A
100
AcDbPlotSettings
  1

  2
none_device
  4

  6

 40
0.0
 41
0.0
 42
0.0
 43
0.0
 44
0.0
 45
0.0
 46
0.0
 47
0.0
 48
0.0
 49
0.0
140
0.0
141
0.0
142
1.0
143
1.0
 70
   688
 72
     0
 73
     0
 74
     5
  7

 75
    16
147
1.0
148
0.0
149
0.0
100
AcDbLayout
  1
Layout2
 70
     1
 71
     2
 10
0.0
 20
0.0
 11
0.0
 21
0.0
 12
0.0
 22
0.0
 32
0.0
 14
0.0
 24
0.0
 34
0.0
 15
0.0
 25
0.0
 35
0.0
146
0.0
 13
0.0
 23
0.0
 33
0.0
 16
1.0
 26
0.0
 36
0.0
 17
0.0
 27
1.0
 37
0.0
 76
     0
330
23
  0
LAYOUT
  5
22
102
{ACAD_REACTORS
330
1A
102
}
330
1A
100
AcDbPlotSettings
  1

  2
none_device
  4

  6

 40
0.0
 41
0.0
 42
0.0
 43
0.0
 44
0.0
 45
0.0
 46
0.0
 47
0.0
 48
0.0
 49
0.0
140
0.0
141
0.0
142
1.0
143
1.0
 70
  1712
 72
     0
 73
     0
 74
     0
  7

 75
     0
147
1.0
148
0.0
149
0.0
100
AcDbLayout
  1
Model
 70
     1
 71
     0
 10
0.0
 20
0.0
 11
420.0
 21
297.0
 12
0.0
 22
0.0
 32
0.0
 14
0.0
 24
0.0
 34
0.0
 15
25.0
 25
35.0
 35
0.0
146
0.0
 13
0.0
 23
0.0
 33
0.0
 16
1.0
 26
0.0
 36
0.0
 17
0.0
 27
1.0
 37
0.0
 76
     0
330
1F
331
29
  0
MATERIAL
  5
3D
102
{ACAD_REACTORS
330
3B
102
}
102
{ACAD_XDICTIONARY
360
B62
102
}
330
3B
100
AcDbMaterial
  1
ByBlock
  0
MATERIAL
  5
3C
102
{ACAD_REACTORS
330
3B
102
}
102
{ACAD_XDICTIONARY
360
B60
102
}
330
3B
100
AcDbMaterial
  1
ByLayer
  0
MATERIAL
  5
3E
102
{ACAD_REACTORS
330
3B
102
}
102
{ACAD_XDICTIONARY
360
B64
102
}
330
3B
100
AcDbMaterial
  1
Global
  0
MLINESTYLE
  5
18
102
{ACAD_REACTORS
330
17
102
}
330
17
100
AcDbMlineStyle
  2
Standard
 70
     0
  3

 62
   256
 51
90.0
 52
90.0
 71
     2
 49
0.5
 62
   256
  6
BYLAYER
 49
-0.5
 62
   256
  6
BYLAYER
  0
ACDBPLACEHOLDER
  5
F
102
{ACAD_REACTORS
330
E
102
}
330
E
  0
SCALE
  5
3A6
102
{ACAD_REACTORS
330
3A5
102
}
330
3A5
100
AcDbScale
 70
     0
300
1:1
140
1.0
141
1.0
290
     1
  0
SCALE
  5
3A7
102
{ACAD_REACTORS
330
3A5
102
}
330
3A5
100
AcDbScale
 70
     0
300
1:2
140
1.0
141
2.0
290
     0
  0
SCALE
  5
3A8
102
{ACAD_REACTORS
330
3A5
102
}
330
3A5
100
AcDbScale
 70
     0
300
1:4
140
1.0
141
4.0
290
     0
  0
SCALE
  5
3A9
102
{ACAD_REACTORS
330
3A5
102
}
330
3A5
100
AcDbScale
 70
     0
300
1:5
140
1.0
141
5.0
290
     0
  0
SCALE
  5
3AA
102
{ACAD_REACTORS
330
3A5
102
}
330
3A5
100
AcDbScale
 70
     0
300
1:8
140
1.0
141
8.0
290
     0
  0
SCALE
  5
3AB
102
{ACAD_REACTORS
330
3A5
102
}
330
3A5
100
AcDbScale
 70
     0
300
1:10
140
1.0
141
10.0
290
     0
  0
SCALE
  5
3AC
102
{ACAD_REACTORS
330
3A5
102
}
330
3A5
100
AcDbScale
 70
     0
300
1:16
140
1.0
141
16.0
290
     0
  0
SCALE
  5
3AD
102
{ACAD_REACTORS
330
3A5
102
}
330
3A5
100
AcDbScale
 70
     0
300
1:20
140
1.0
141
20.0
290
     0
  0
SCALE
  5
3AE
102
{ACAD_REACTORS
330
3A5
102
}
330
3A5
100
AcDbScale
 70
     0
300
1:30
140
1.0
141
30.0
290
     0
  0
SCALE
  5
3AF
102
{ACAD_REACTORS
330
3A5
102
}
330
3A5
100
AcDbScale
 70
     0
300
1:40
140
1.0
141
40.0
290
     0
  0
SCALE
  5
3B0
102
{ACAD_REACTORS
330
3A5
102
}
330
3A5
100
AcDbScale
 70
     0
300
1:50
140
1.0
141
50.0
290
     0
  0
SCALE
  5
3B1
102
{ACAD_REACTORS
330
3A5
102
}
330
3A5
100
AcDbScale
 70
     0
300
1:100
140
1.0
141
100.0
290
     0
  0
SCALE
  5
3B2
102
{ACAD_REACTORS
330
3A5
102
}
330
3A5
100
AcDbScale
 70
     0
300
2:1
140
2.0
141
1.0
290
     0
  0
SCALE
  5
3B3
102
{ACAD_REACTORS
330
3A5
102
}
330
3A5
100
AcDbScale
 70
     0
300
4:1
140
4.0
141
1.0
290
     0
  0
SCALE
  5
3B4
102
{ACAD_REACTORS
330
3A5
102
}
330
3A5
100
AcDbScale
 70
     0
300
8:1
140
8.0
141
1.0
290
     0
  0
SCALE
  5
3B5
102
{ACAD_REACTORS
330
3A5
102
}
330
3A5
100
AcDbScale
 70
     0
300
10:1
140
10.0
141
1.0
290
     0
  0
SCALE
  5
3B6
102
{ACAD_REACTORS
330
3A5
102
}
330
3A5
100
AcDbScale
 70
     0
300
100:1
140
100.0
141
1.0
290
     0
  0
SCALE
  5
3B7
102
{ACAD_REACTORS
330
3A5
102
}
330
3A5
100
AcDbScale
 70
     0
300
1/128" = 1'-0"
140
0.0078125
141
12.0
290
     0
  0
SCALE
  5
3B8
102
{ACAD_REACTORS
330
3A5
102
}
330
3A5
100
AcDbScale
 70
     0
300
1/64" = 1'-0"
140
0.015625
141
12.0
290
     0
  0
SCALE
  5
3B9
102
{ACAD_REACTORS
330
3A5
102
}
330
3A5
100
AcDbScale
 70
     0
300
1/32" = 1'-0"
140
0.03125
141
12.0
290
     0
  0
SCALE
  5
3BA
102
{ACAD_REACTORS
330
3A5
102
}
330
3A5
100
AcDbScale
 70
     0
300
1/16" = 1'-0"
140
0.0625
141
12.0
290
     0
  0
SCALE
  5
3BB
102
{ACAD_REACTORS
330
3A5
102
}
330
3A5
100
AcDbScale
 70
     0
300
3/32" = 1'-0"
140
0.09375
141
12.0
290
     0
  0
SCALE
  5
3BC
102
{ACAD_REACTORS
330
3A5
102
}
330
3A5
100
AcDbScale
 70
     0
300
1/8" = 1'-0"
140
0.125
141
12.0
290
     0
  0
SCALE
  5
3BD
102
{ACAD_REACTORS
330
3A5
102
}
330
3A5
100
AcDbScale
 70
     0
300
3/16" = 1'-0"
140
0.1875
141
12.0
290
     0
  0
SCALE
  5
3BE
102
{ACAD_REACTORS
330
3A5
102
}
330
3A5
100
AcDbScale
 70
     0
300
1/4" = 1'-0"
140
0.25
141
12.0
290
     0
  0
SCALE
  5
3BF
102
{ACAD_REACTORS
330
3A5
102
}
330
3A5
100
AcDbScale
 70
     0
300
3/8" = 1'-0"
140
0.375
141
12.0
290
     0
  0
SCALE
  5
3C0
102
{ACAD_REACTORS
330
3A5
102
}
330
3A5
100
AcDbScale
 70
     0
300
1/2" = 1'-0"
140
0.5
141
12.0
290
     0
  0
SCALE
  5
3C1
102
{ACAD_REACTORS
330
3A5
102
}
330
3A5
100
AcDbScale
 70
     0
300
3/4" = 1'-0"
140
0.75
141
12.0
290
     0
  0
SCALE
  5
3C2
102
{ACAD_REACTORS
330
3A5
102
}
330
3A5
100
AcDbScale
 70
     0
300
1" = 1'-0"
140
1.0
141
12.0
290
     0
  0
SCALE
  5
3C3
102
{ACAD_REACTORS
330
3A5
102
}
330
3A5
100
AcDbScale
 70
     0
300
1-1/2" = 1'-0"
140
1.5
141
12.0
290
     0
  0
SCALE
  5
3C4
102
{ACAD_REACTORS
330
3A5
102
}
330
3A5
100
AcDbScale
 70
     0
300
3" = 1'-0"
140
3.0
141
12.0
290
     0
  0
SCALE
  5
3C5
102
{ACAD_REACTORS
330
3A5
102
}
330
3A5
100
AcDbScale
 70
     0
300
6" = 1'-0"
140
6.0
141
12.0
290
     0
  0
SCALE
  5
3C6
102
{ACAD_REACTORS
330
3A5
102
}
330
3A5
100
AcDbScale
 70
     0
300
1'-0" = 1'-0"
140
12.0
141
12.0
290
     0
  0
VISUALSTYLE
  5
2F
102
{ACAD_REACTORS
330
2A
102
}
102
{ACAD_XDICTIONARY
360
B48
102
}
330
2A
100
AcDbVisualStyle
  2
2dWireframe
 70
     4
 71
     0
 72
     2
 73
     0
 90
        0
 40
-0.6
 41
-30.0
 62
     5
 63
     7
 74
     1
 91
        4
 64
     7
 65
   257
 75
     1
175
     1
 42
1.0
 92
        0
 66
   257
 43
1.0
 76
     1
 77
     6
 78
     2
 67
     7
 79
     5
170
     0
171
     0
290
     0
174
     0
 93
        1
 44
0.0
173
     0
291
     0
 45
0.0
1001
ACAD
1000
AcDbSavedByObjectVersion
1070
     0
  0
VISUALSTYLE
  5
31
102
{ACAD_REACTORS
330
2A
102
}
102
{ACAD_XDICTIONARY
360
B4C
102
}
330
2A
100
AcDbVisualStyle
  2
3D Hidden
 70
     6
 71
     1
 72
     2
 73
     2
 90
        0
 40
-0.6
 41
-30.0
 62
     5
 63
     7
 74
     2
 91
        2
 64
     7
 65
   257
 75
     2
175
     1
 42
40.0
 92
        0
 66
   257
 43
1.0
 76
     1
 77
     6
 78
     2
 67
     7
 79
     3
170
     0
171
     0
290
     0
174
     0
 93
        1
 44
0.0
173
     0
291
     0
 45
0.0
1001
ACAD
1000
AcDbSavedByObjectVersion
1070
     0
  0
VISUALSTYLE
  5
30
102
{ACAD_REACTORS
330
2A
102
}
102
{ACAD_XDICTIONARY
360
B4A
102
}
330
2A
100
AcDbVisualStyle
  2
3dWireframe
 70
     5
 71
     0
 72
     2
 73
     0
 90
        0
 40
-0.6
 41
-30.0
 62
     5
 63
     7
 74
     1
 91
        4
 64
     7
 65
   257
 75
     1
175
     1
 42
1.0
 92
        0
 66
   257
 43
1.0
 76
     1
 77
     6
 78
     2
 67
     7
 79
     5
170
     0
171
     0
290
     0
174
     0
 93
        1
 44
0.0
173
     0
291
     0
 45
0.0
1001
ACAD
1000
AcDbSavedByObjectVersion
1070
     0
  0
VISUALSTYLE
  5
32
102
{ACAD_REACTORS
330
2A
102
}
102
{ACAD_XDICTIONARY
360
B4E
102
}
330
2A
100
AcDbVisualStyle
  2
Basic
 70
     7
 71
     1
 72
     0
 73
     1
 90
        0
 40
-0.6
 41
-30.0
 62
     5
 63
     7
 74
     0
 91
        4
 64
     7
 65
   257
 75
     1
175
     1
 42
1.0
 92
        8
 66
     7
 43
1.0
 76
     1
 77
     6
 78
     2
 67
     7
 79
     5
170
     0
171
     0
290
     0
174
     0
 93
        1
 44
0.0
173
     0
291
     1
 45
0.0
1001
ACAD
1000
AcDbSavedByObjectVersion
1070
     0
  0
VISUALSTYLE
  5
36
102
{ACAD_REACTORS
330
2A
102
}
102
{ACAD_XDICTIONARY
360
B56
102
}
330
2A
100
AcDbVisualStyle
  2
Brighten
 70
    12
 71
     2
 72
     2
 73
     0
 90
        0
 40
-0.6
 41
-30.0
 62
     5
 63
     7
 74
     1
 91
        4
 64
     7
 65
   257
 75
     1
175
     1
 42
1.0
 92
        8
 66
     7
 43
1.0
 76
     1
 77
     6
 78
     2
 67
     7
 79
     5
170
     0
171
     0
290
     0
174
     0
 93
        1
 44
50.0
173
     0
291
     1
 45
0.0
1001
ACAD
1000
AcDbSavedByObjectVersion
1070
     0
  0
VISUALSTYLE
  5
3A
102
{ACAD_REACTORS
330
2A
102
}
102
{ACAD_XDICTIONARY
360
B5E
102
}
330
2A
100
AcDbVisualStyle
  2
ColorChange
 70
    16
 71
     2
 72
     2
 73
     3
 90
        0
 40
-0.6
 41
-30.0
 62
     5
 63
     8
 74
     1
 91
        4
 64
     7
 65
   257
 75
     1
175
     1
 42
1.0
 92
        8
 66
     8
 43
1.0
 76
     1
 77
     6
 78
     2
 67
     7
 79
     5
170
     0
171
     0
290
     0
174
     0
 93
        1
 44
0.0
173
     0
291
     1
 45
0.0
1001
ACAD
1000
AcDbSavedByObjectVersion
1070
     0
  0
VISUALSTYLE
  5
34
102
{ACAD_REACTORS
330
2A
102
}
102
{ACAD_XDICTIONARY
360
B52
102
}
330
2A
100
AcDbVisualStyle
  2
Conceptual
 70
     9
 71
     3
 72
     2
 73
     0
 90
        0
 40
-0.6
 41
-30.0
 62
     5
 63
     7
 74
     2
 91
        2
 64
     7
 65
   257
 75
     1
175
     1
 42
40.0
 92
        8
 66
     7
 43
1.0
 76
     1
 77
     6
 78
     2
 67
     7
 79
     3
170
     0
171
     0
290
     0
174
     0
 93
        1
 44
0.0
173
     0
291
     0
 45
0.0
1001
ACAD
1000
AcDbSavedByObjectVersion
1070
     0
  0
VISUALSTYLE
  5
35
102
{ACAD_REACTORS
330
2A
102
}
102
{ACAD_XDICTIONARY
360
B54
102
}
330
2A
100
AcDbVisualStyle
  2
Dim
 70
    11
 71
     2
 72
     2
 73
     0
 90
        0
 40
-0.6
 41
-30.0
 62
     5
 63
     7
 74
     1
 91
        4
 64
     7
 65
   257
 75
     1
175
     1
 42
1.0
 92
        8
 66
     7
 43
1.0
 76
     1
 77
     6
 78
     2
 67
     7
 79
     5
170
     0
171
     0
290
     0
174
     0
 93
        1
 44
-50.0
173
     0
291
     1
 45
0.0
1001
ACAD
1000
AcDbSavedByObjectVersion
1070
     0
  0
VISUALSTYLE
  5
39
102
{ACAD_REACTORS
330
2A
102
}
102
{ACAD_XDICTIONARY
360
B5C
102
}
330
2A
100
AcDbVisualStyle
  2
Facepattern
 70
    15
 71
     2
 72
     2
 73
     0
 90
        0
 40
-0.6
 41
-30.0
 62
     5
 63
     7
 74
     1
 91
        4
 64
     7
 65
   257
 75
     1
175
     1
 42
1.0
 92
        8
 66
     7
 43
1.0
 76
     1
 77
     6
 78
     2
 67
     7
 79
     5
170
     0
171
     0
290
     0
174
     0
 93
        1
 44
0.0
173
     0
291
     1
 45
0.0
1001
ACAD
1000
AcDbSavedByObjectVersion
1070
     0
  0
VISUALSTYLE
  5
2B
102
{ACAD_REACTORS
330
2A
102
}
102
{ACAD_XDICTIONARY
360
B40
102
}
330
2A
100
AcDbVisualStyle
  2
Flat
 70
     0
 71
     2
 72
     1
 73
     1
 90
        2
 40
-0.6
 41
30.0
 62
     5
 63
     7
 74
     0
 91
        4
 64
     7
 65
   257
 75
     1
175
     1
 42
1.0
 92
        8
 66
     7
 43
1.0
 76
     1
 77
     6
 78
     2
 67
     7
 79
     5
170
     0
171
     0
290
     0
174
     0
 93
       13
 44
0.0
173
     0
291
     1
 45
0.0
1001
ACAD
1000
AcDbSavedByObjectVersion
1070
     0
  0
VISUALSTYLE
  5
2C
102
{ACAD_REACTORS
330
2A
102
}
102
{ACAD_XDICTIONARY
360
B42
102
}
330
2A
100
AcDbVisualStyle
  2
FlatWithEdges
 70
     1
 71
     2
 72
     1
 73
     1
 90
        2
 40
-0.6
 41
30.0
 62
     5
 63
     7
 74
     1
 91
        4
 64
     7
 65
   257
 75
     1
175
     1
 42
1.0
 92
        0
 66
   257
 43
1.0
 76
     1
 77
     6
 78
     2
 67
     7
 79
     5
170
     0
171
     0
290
     0
174
     0
 93
       13
 44
0.0
173
     0
291
     1
 45
0.0
1001
ACAD
1000
AcDbSavedByObjectVersion
1070
     0
  0
VISUALSTYLE
  5
2D
102
{ACAD_REACTORS
330
2A
102
}
102
{ACAD_XDICTIONARY
360
B44
102
}
330
2A
100
AcDbVisualStyle
  2
Gouraud
 70
     2
 71
     2
 72
     2
 73
     1
 90
        2
 40
-0.6
 41
30.0
 62
     5
 63
     7
 74
     0
 91
        4
 64
     7
 65
   257
 75
     1
175
     1
 42
1.0
 92
        0
 66
     7
 43
1.0
 76
     1
 77
     6
 78
     2
 67
     7
 79
     5
170
     0
171
     0
290
     0
174
     0
 93
       13
 44
0.0
173
     0
291
     1
 45
0.0
1001
ACAD
1000
AcDbSavedByObjectVersion
1070
     0
  0
VISUALSTYLE
  5
2E
102
{ACAD_REACTORS
330
2A
102
}
102
{ACAD_XDICTIONARY
360
B46
102
}
330
2A
100
AcDbVisualStyle
  2
GouraudWithEdges
 70
     3
 71
     2
 72
     2
 73
     1
 90
        2
 40
-0.6
 41
30.0
 62
     5
 63
     7
 74
     1
 91
        4
 64
     7
 65
   257
 75
     1
175
     1
 42
1.0
 92
        0
 66
   257
 43
1.0
 76
     1
 77
     6
 78
     2
 67
     7
 79
     5
170
     0
171
     0
290
     0
174
     0
 93
       13
 44
0.0
173
     0
291
     1
 45
0.0
1001
ACAD
1000
AcDbSavedByObjectVersion
1070
     0
  0
VISUALSTYLE
  5
38
102
{ACAD_REACTORS
330
2A
102
}
102
{ACAD_XDICTIONARY
360
B5A
102
}
330
2A
100
AcDbVisualStyle
  2
Linepattern
 70
    14
 71
     2
 72
     2
 73
     0
 90
        0
 40
-0.6
 41
-30.0
 62
     5
 63
     7
 74
     1
 91
        4
 64
     7
 65
   257
 75
     7
175
     7
 42
1.0
 92
        8
 66
     7
 43
1.0
 76
     1
 77
     6
 78
     2
 67
     7
 79
     5
170
     0
171
     0
290
     0
174
     0
 93
        1
 44
0.0
173
     0
291
     1
 45
0.0
1001
ACAD
1000
AcDbSavedByObjectVersion
1070
     0
  0
VISUALSTYLE
  5
33
102
{ACAD_REACTORS
330
2A
102
}
102
{ACAD_XDICTIONARY
360
B50
102
}
330
2A
100
AcDbVisualStyle
  2
Realistic
 70
     8
 71
     2
 72
     2
 73
     0
 90
        0
 40
-0.6
 41
-30.0
 62
     5
 63
     7
 74
     1
 91
        0
 64
     7
 65
   257
 75
     1
175
     1
 42
1.0
 92
        8
 66
     8
 43
1.0
 76
     1
 77
     6
 78
     2
 67
     7
 79
     5
170
     0
171
     0
290
     0
174
     0
 93
       13
 44
0.0
173
     0
291
     0
 45
0.0
1001
ACAD
1000
AcDbSavedByObjectVersion
1070
     0
  0
VISUALSTYLE
  5
37
102
{ACAD_REACTORS
330
2A
102
}
102
{ACAD_XDICTIONARY
360
B58
102
}
330
2A
100
AcDbVisualStyle
  2
Thicken
 70
    13
 71
     2
 72
     2
 73
     0
 90
        0
 40
-0.6
 41
-30.0
 62
     5
 63
     7
 74
     1
 91
        4
 64
     7
 65
   257
 75
     1
175
     1
 42
1.0
 92
       12
 66
     7
 43
1.0
 76
     1
 77
     6
 78
     2
 67
     7
 79
     5
170
     0
171
     0
290
     0
174
     0
 93
        1
 44
0.0
173
     0
291
     1
 45
0.0
1001
ACAD
1000
AcDbSavedByObjectVersion
1070
     0
  0
DICTIONARYVAR
  5
B3D
102
{ACAD_REACTORS
330
B38
102
}
330
B38
100
DictionaryVariables
280
     0
  1
1:1
  0
DICTIONARYVAR
  5
B3E
102
{ACAD_REACTORS
330
B38
102
}
330
B38
100
DictionaryVariables
280
     0
  1
2
  0
DICTIONARYVAR
  5
B3F
102
{ACAD_REACTORS
330
B38
102
}
330
B38
100
DictionaryVariables
280
     0
  1
1
  0
DICTIONARYVAR
  5
B3C
102
{ACAD_REACTORS
330
B38
102
}
330
B38
100
DictionaryVariables
280
     0
  1
80.000000
  0
DICTIONARYVAR
  5
B3B
102
{ACAD_REACTORS
330
B38
102
}
330
B38
100
DictionaryVariables
280
     0
  1
5.000000
  0
DICTIONARY
  5
B62
330
3D
100
AcDbDictionary
280
     1
281
     1
  3
ACAD_XREC_ROUNDTRIP
360
B63
  0
DICTIONARY
  5
B60
330
3C
100
AcDbDictionary
280
     1
281
     1
  3
ACAD_XREC_ROUNDTRIP
360
B61
  0
DICTIONARY
  5
B64
330
3E
100
AcDbDictionary
280
     1
281
     1
  3
ACAD_XREC_ROUNDTRIP
360
B65
  0
DICTIONARY
  5
B48
330
2F
100
AcDbDictionary
280
     1
281
     1
  3
ACAD_XREC_ROUNDTRIP
360
B49
  0
DICTIONARY
  5
B4C
330
31
100
AcDbDictionary
280
     1
281
     1
  3
ACAD_XREC_ROUNDTRIP
360
B4D
  0
DICTIONARY
  5
B4A
330
30
100
AcDbDictionary
280
     1
281
     1
  3
ACAD_XREC_ROUNDTRIP
360
B4B
  0
DICTIONARY
  5
B4E
330
32
100
AcDbDictionary
280
     1
281
     1
  3
ACAD_XREC_ROUNDTRIP
360
B4F
  0
DICTIONARY
  5
B56
330
36
100
AcDbDictionary
280
     1
281
     1
  3
ACAD_XREC_ROUNDTRIP
360
B57
  0
DICTIONARY
  5
B5E
330
3A
100
AcDbDictionary
280
     1
281
     1
  3
ACAD_XREC_ROUNDTRIP
360
B5F
  0
DICTIONARY
  5
B52
330
34
100
AcDbDictionary
280
     1
281
     1
  3
ACAD_XREC_ROUNDTRIP
360
B53
  0
DICTIONARY
  5
B54
330
35
100
AcDbDictionary
280
     1
281
     1
  3
ACAD_XREC_ROUNDTRIP
360
B55
  0
DICTIONARY
  5
B5C
330
39
100
AcDbDictionary
280
     1
281
     1
  3
ACAD_XREC_ROUNDTRIP
360
B5D
  0
DICTIONARY
  5
B40
330
2B
100
AcDbDictionary
280
     1
281
     1
  3
ACAD_XREC_ROUNDTRIP
360
B41
  0
DICTIONARY
  5
B42
330
2C
100
AcDbDictionary
280
     1
281
     1
  3
ACAD_XREC_ROUNDTRIP
360
B43
  0
DICTIONARY
  5
B44
330
2D
100
AcDbDictionary
280
     1
281
     1
  3
ACAD_XREC_ROUNDTRIP
360
B45
  0
DICTIONARY
  5
B46
330
2E
100
AcDbDictionary
280
     1
281
     1
  3
ACAD_XREC_ROUNDTRIP
360
B47
  0
DICTIONARY
  5
B5A
330
38
100
AcDbDictionary
280
     1
281
     1
  3
ACAD_XREC_ROUNDTRIP
360
B5B
  0
DICTIONARY
  5
B50
330
33
100
AcDbDictionary
280
     1
281
     1
  3
ACAD_XREC_ROUNDTRIP
360
B51
  0
DICTIONARY
  5
B58
330
37
100
AcDbDictionary
280
     1
281
     1
  3
ACAD_XREC_ROUNDTRIP
360
B59
  0
XRECORD
  5
B63
102
{ACAD_REACTORS
330
B62
102
}
330
B62
100
AcDbXrecord
280
     1
102
MATERIAL
148
0.0
149
0.0
149
0.0
 93
        0
 94
      127
282
     0
 72
     1
 77
     1
171
     1
175
     1
179
     1
273
     0
  0
XRECORD
  5
B61
102
{ACAD_REACTORS
330
B60
102
}
330
B60
100
AcDbXrecord
280
     1
102
MATERIAL
148
0.0
149
0.0
149
0.0
 93
        0
 94
      127
282
     0
 72
     1
 77
     1
171
     1
175
     1
179
     1
273
     0
  0
XRECORD
  5
B65
102
{ACAD_REACTORS
330
B64
102
}
330
B64
100
AcDbXrecord
280
     1
102
MATERIAL
148
0.0
149
0.0
149
0.0
 93
        0
 94
      127
282
     0
 72
     1
 77
     1
171
     1
175
     1
179
     1
273
     0
  0
XRECORD
  5
B49
102
{ACAD_REACTORS
330
B48
102
}
330
B48
100
AcDbXrecord
280
     1
102
RTVSPropertyOp0
 70
     1
102
RTVSPropertyOp1
 70
     1
102
RTVSPropertyOp2
 70
     1
102
RTVSPropertyOp3
 70
     1
102
RTVSPropertyOp4
 70
     1
102
RTVSPropertyOp5
 70
     1
102
RTVSPropertyOp6
 70
     1
102
RTVSPropertyOp7
 70
     1
102
RTVSPropertyOp8
 70
     1
102
RTVSPropertyOp9
 70
     1
102
RTVSPropertyOp10
 70
     1
102
RTVSPropertyOp11
 70
     1
102
RTVSPropertyOp12
 70
     1
102
RTVSPropertyOp13
 70
     1
102
RTVSPropertyOp14
 70
     1
102
RTVSPropertyOp15
 70
     1
102
RTVSPropertyOp16
 70
     1
102
RTVSPropertyOp17
 70
     1
102
RTVSPropertyOp18
 70
     1
102
RTVSPropertyOp19
 70
     1
102
RTVSPropertyOp20
 70
     1
102
RTVSPropertyOp21
 70
     1
102
RTVSPropertyOp22
 70
     1
102
RTVSPropertyOp23
 70
     1
102
RTVSPropertyOp24
 70
     1
102
RTVSPropertyOp25
 70
     1
102
RTVSPropertyOp26
 70
     1
102
RTVSPropertyOp27
 70
     1
  0
XRECORD
  5
B4D
102
{ACAD_REACTORS
330
B4C
102
}
330
B4C
100
AcDbXrecord
280
     1
102
RTVSPropertyOp0
 70
     1
102
RTVSPropertyOp1
 70
     1
102
RTVSPropertyOp2
 70
     1
102
RTVSPropertyOp3
 70
     1
102
RTVSPropertyOp4
 70
     1
102
RTVSPropertyOp5
 70
     1
102
RTVSPropertyOp6
 70
     1
102
RTVSPropertyOp7
 70
     1
102
RTVSPropertyOp8
 70
     1
102
RTVSPropertyOp9
 70
     1
102
RTVSPropertyOp10
 70
     1
102
RTVSPropertyOp11
 70
     1
102
RTVSPropertyOp12
 70
     1
102
RTVSPropertyOp13
 70
     1
102
RTVSPropertyOp14
 70
     1
102
RTVSPropertyOp15
 70
     1
102
RTVSPropertyOp16
 70
     1
102
RTVSPropertyOp17
 70
     1
102
RTVSPropertyOp18
 70
     1
102
RTVSPropertyOp19
 70
     1
102
RTVSPropertyOp20
 70
     1
102
RTVSPropertyOp21
 70
     1
102
RTVSPropertyOp22
 70
     1
102
RTVSPropertyOp23
 70
     1
102
RTVSPropertyOp24
 70
     1
102
RTVSPropertyOp25
 70
     1
102
RTVSPropertyOp26
 70
     1
102
RTVSPropertyOp27
 70
     1
  0
XRECORD
  5
B4B
102
{ACAD_REACTORS
330
B4A
102
}
330
B4A
100
AcDbXrecord
280
     1
102
RTVSPropertyOp0
 70
     1
102
RTVSPropertyOp1
 70
     1
102
RTVSPropertyOp2
 70
     1
102
RTVSPropertyOp3
 70
     1
102
RTVSPropertyOp4
 70
     1
102
RTVSPropertyOp5
 70
     1
102
RTVSPropertyOp6
 70
     1
102
RTVSPropertyOp7
 70
     1
102
RTVSPropertyOp8
 70
     1
102
RTVSPropertyOp9
 70
     1
102
RTVSPropertyOp10
 70
     1
102
RTVSPropertyOp11
 70
     1
102
RTVSPropertyOp12
 70
     1
102
RTVSPropertyOp13
 70
     1
102
RTVSPropertyOp14
 70
     1
102
RTVSPropertyOp15
 70
     1
102
RTVSPropertyOp16
 70
     1
102
RTVSPropertyOp17
 70
     1
102
RTVSPropertyOp18
 70
     1
102
RTVSPropertyOp19
 70
     1
102
RTVSPropertyOp20
 70
     1
102
RTVSPropertyOp21
 70
     1
102
RTVSPropertyOp22
 70
     1
102
RTVSPropertyOp23
 70
     1
102
RTVSPropertyOp24
 70
     1
102
RTVSPropertyOp25
 70
     1
102
RTVSPropertyOp26
 70
     1
102
RTVSPropertyOp27
 70
     1
  0
XRECORD
  5
B4F
102
{ACAD_REACTORS
330
B4E
102
}
330
B4E
100
AcDbXrecord
280
     1
102
RTVSPropertyOp0
 70
     1
102
RTVSPropertyOp1
 70
     1
102
RTVSPropertyOp2
 70
     1
102
RTVSPropertyOp3
 70
     1
102
RTVSPropertyOp4
 70
     1
102
RTVSPropertyOp5
 70
     1
102
RTVSPropertyOp6
 70
     1
102
RTVSPropertyOp7
 70
     1
102
RTVSPropertyOp8
 70
     1
102
RTVSPropertyOp9
 70
     1
102
RTVSPropertyOp10
 70
     1
102
RTVSPropertyOp11
 70
     1
102
RTVSPropertyOp12
 70
     1
102
RTVSPropertyOp13
 70
     1
102
RTVSPropertyOp14
 70
     1
102
RTVSPropertyOp15
 70
     1
102
RTVSPropertyOp16
 70
     1
102
RTVSPropertyOp17
 70
     1
102
RTVSPropertyOp18
 70
     1
102
RTVSPropertyOp19
 70
     1
102
RTVSPropertyOp20
 70
     1
102
RTVSPropertyOp21
 70
     1
102
RTVSPropertyOp22
 70
     1
102
RTVSPropertyOp23
 70
     1
102
RTVSPropertyOp24
 70
     1
102
RTVSPropertyOp25
 70
     1
102
RTVSPropertyOp26
 70
     1
102
RTVSPropertyOp27
 70
     1
  0
XRECORD
  5
B57
102
{ACAD_REACTORS
330
B56
102
}
330
B56
100
AcDbXrecord
280
     1
102
RTVSPropertyOp0
 70
     1
102
RTVSPropertyOp1
 70
     1
102
RTVSPropertyOp2
 70
     1
102
RTVSPropertyOp3
 70
     1
102
RTVSPropertyOp4
 70
     1
102
RTVSPropertyOp5
 70
     1
102
RTVSPropertyOp6
 70
     1
102
RTVSPropertyOp7
 70
     1
102
RTVSPropertyOp8
 70
     1
102
RTVSPropertyOp9
 70
     1
102
RTVSPropertyOp10
 70
     1
102
RTVSPropertyOp11
 70
     1
102
RTVSPropertyOp12
 70
     1
102
RTVSPropertyOp13
 70
     1
102
RTVSPropertyOp14
 70
     1
102
RTVSPropertyOp15
 70
     1
102
RTVSPropertyOp16
 70
     1
102
RTVSPropertyOp17
 70
     1
102
RTVSPropertyOp18
 70
     1
102
RTVSPropertyOp19
 70
     1
102
RTVSPropertyOp20
 70
     1
102
RTVSPropertyOp21
 70
     1
102
RTVSPropertyOp22
 70
     1
102
RTVSPropertyOp23
 70
     1
102
RTVSPropertyOp24
 70
     1
102
RTVSPropertyOp25
 70
     1
102
RTVSPropertyOp26
 70
     1
102
RTVSPropertyOp27
 70
     1
  0
XRECORD
  5
B5F
102
{ACAD_REACTORS
330
B5E
102
}
330
B5E
100
AcDbXrecord
280
     1
102
RTVSPropertyOp0
 70
     1
102
RTVSPropertyOp1
 70
     1
102
RTVSPropertyOp2
 70
     1
102
RTVSPropertyOp3
 70
     1
102
RTVSPropertyOp4
 70
     1
102
RTVSPropertyOp5
 70
     1
102
RTVSPropertyOp6
 70
     1
102
RTVSPropertyOp7
 70
     1
102
RTVSPropertyOp8
 70
     1
102
RTVSPropertyOp9
 70
     1
102
RTVSPropertyOp10
 70
     1
102
RTVSPropertyOp11
 70
     1
102
RTVSPropertyOp12
 70
     1
102
RTVSPropertyOp13
 70
     1
102
RTVSPropertyOp14
 70
     1
102
RTVSPropertyOp15
 70
     1
102
RTVSPropertyOp16
 70
     1
102
RTVSPropertyOp17
 70
     1
102
RTVSPropertyOp18
 70
     1
102
RTVSPropertyOp19
 70
     1
102
RTVSPropertyOp20
 70
     1
102
RTVSPropertyOp21
 70
     1
102
RTVSPropertyOp22
 70
     1
102
RTVSPropertyOp23
 70
     1
102
RTVSPropertyOp24
 70
     1
102
RTVSPropertyOp25
 70
     1
102
RTVSPropertyOp26
 70
     1
102
RTVSPropertyOp27
 70
     1
  0
XRECORD
  5
B53
102
{ACAD_REACTORS
330
B52
102
}
330
B52
100
AcDbXrecord
280
     1
102
RTVSPropertyOp0
 70
     1
102
RTVSPropertyOp1
 70
     1
102
RTVSPropertyOp2
 70
     1
102
RTVSPropertyOp3
 70
     1
102
RTVSPropertyOp4
 70
     1
102
RTVSPropertyOp5
 70
     1
102
RTVSPropertyOp6
 70
     1
102
RTVSPropertyOp7
 70
     1
102
RTVSPropertyOp8
 70
     1
102
RTVSPropertyOp9
 70
     1
102
RTVSPropertyOp10
 70
     1
102
RTVSPropertyOp11
 70
     1
102
RTVSPropertyOp12
 70
     1
102
RTVSPropertyOp13
 70
     1
102
RTVSPropertyOp14
 70
     1
102
RTVSPropertyOp15
 70
     1
102
RTVSPropertyOp16
 70
     1
102
RTVSPropertyOp17
 70
     1
102
RTVSPropertyOp18
 70
     1
102
RTVSPropertyOp19
 70
     1
102
RTVSPropertyOp20
 70
     1
102
RTVSPropertyOp21
 70
     1
102
RTVSPropertyOp22
 70
     1
102
RTVSPropertyOp23
 70
     1
102
RTVSPropertyOp24
 70
     1
102
RTVSPropertyOp25
 70
     1
102
RTVSPropertyOp26
 70
     1
102
RTVSPropertyOp27
 70
     1
  0
XRECORD
  5
B55
102
{ACAD_REACTORS
330
B54
102
}
330
B54
100
AcDbXrecord
280
     1
102
RTVSPropertyOp0
 70
     1
102
RTVSPropertyOp1
 70
     1
102
RTVSPropertyOp2
 70
     1
102
RTVSPropertyOp3
 70
     1
102
RTVSPropertyOp4
 70
     1
102
RTVSPropertyOp5
 70
     1
102
RTVSPropertyOp6
 70
     1
102
RTVSPropertyOp7
 70
     1
102
RTVSPropertyOp8
 70
     1
102
RTVSPropertyOp9
 70
     1
102
RTVSPropertyOp10
 70
     1
102
RTVSPropertyOp11
 70
     1
102
RTVSPropertyOp12
 70
     1
102
RTVSPropertyOp13
 70
     1
102
RTVSPropertyOp14
 70
     1
102
RTVSPropertyOp15
 70
     1
102
RTVSPropertyOp16
 70
     1
102
RTVSPropertyOp17
 70
     1
102
RTVSPropertyOp18
 70
     1
102
RTVSPropertyOp19
 70
     1
102
RTVSPropertyOp20
 70
     1
102
RTVSPropertyOp21
 70
     1
102
RTVSPropertyOp22
 70
     1
102
RTVSPropertyOp23
 70
     1
102
RTVSPropertyOp24
 70
     1
102
RTVSPropertyOp25
 70
     1
102
RTVSPropertyOp26
 70
     1
102
RTVSPropertyOp27
 70
     1
  0
XRECORD
  5
B5D
102
{ACAD_REACTORS
330
B5C
102
}
330
B5C
100
AcDbXrecord
280
     1
102
RTVSPropertyOp0
 70
     1
102
RTVSPropertyOp1
 70
     1
102
RTVSPropertyOp2
 70
     1
102
RTVSPropertyOp3
 70
     1
102
RTVSPropertyOp4
 70
     1
102
RTVSPropertyOp5
 70
     1
102
RTVSPropertyOp6
 70
     1
102
RTVSPropertyOp7
 70
     1
102
RTVSPropertyOp8
 70
     1
102
RTVSPropertyOp9
 70
     1
102
RTVSPropertyOp10
 70
     1
102
RTVSPropertyOp11
 70
     1
102
RTVSPropertyOp12
 70
     1
102
RTVSPropertyOp13
 70
     1
102
RTVSPropertyOp14
 70
     1
102
RTVSPropertyOp15
 70
     1
102
RTVSPropertyOp16
 70
     1
102
RTVSPropertyOp17
 70
     1
102
RTVSPropertyOp18
 70
     1
102
RTVSPropertyOp19
 70
     1
102
RTVSPropertyOp20
 70
     1
102
RTVSPropertyOp21
 70
     1
102
RTVSPropertyOp22
 70
     1
102
RTVSPropertyOp23
 70
     1
102
RTVSPropertyOp24
 70
     1
102
RTVSPropertyOp25
 70
     1
102
RTVSPropertyOp26
 70
     1
102
RTVSPropertyOp27
 70
     1
  0
XRECORD
  5
B41
102
{ACAD_REACTORS
330
B40
102
}
330
B40
100
AcDbXrecord
280
     1
102
RTVSPropertyOp0
 70
     1
102
RTVSPropertyOp1
 70
     1
102
RTVSPropertyOp2
 70
     1
102
RTVSPropertyOp3
 70
     1
102
RTVSPropertyOp4
 70
     1
102
RTVSPropertyOp5
 70
     1
102
RTVSPropertyOp6
 70
     1
102
RTVSPropertyOp7
 70
     1
102
RTVSPropertyOp8
 70
     1
102
RTVSPropertyOp9
 70
     1
102
RTVSPropertyOp10
 70
     1
102
RTVSPropertyOp11
 70
     1
102
RTVSPropertyOp12
 70
     1
102
RTVSPropertyOp13
 70
     1
102
RTVSPropertyOp14
 70
     1
102
RTVSPropertyOp15
 70
     1
102
RTVSPropertyOp16
 70
     1
102
RTVSPropertyOp17
 70
     1
102
RTVSPropertyOp18
 70
     1
102
RTVSPropertyOp19
 70
     1
102
RTVSPropertyOp20
 70
     1
102
RTVSPropertyOp21
 70
     1
102
RTVSPropertyOp22
 70
     1
102
RTVSPropertyOp23
 70
     1
102
RTVSPropertyOp24
 70
     1
102
RTVSPropertyOp25
 70
     1
102
RTVSPropertyOp26
 70
     1
102
RTVSPropertyOp27
 70
     1
  0
XRECORD
  5
B43
102
{ACAD_REACTORS
330
B42
102
}
330
B42
100
AcDbXrecord
280
     1
102
RTVSPropertyOp0
 70
     1
102
RTVSPropertyOp1
 70
     1
102
RTVSPropertyOp2
 70
     1
102
RTVSPropertyOp3
 70
     1
102
RTVSPropertyOp4
 70
     1
102
RTVSPropertyOp5
 70
     1
102
RTVSPropertyOp6
 70
     1
102
RTVSPropertyOp7
 70
     1
102
RTVSPropertyOp8
 70
     1
102
RTVSPropertyOp9
 70
     1
102
RTVSPropertyOp10
 70
     1
102
RTVSPropertyOp11
 70
     1
102
RTVSPropertyOp12
 70
     1
102
RTVSPropertyOp13
 70
     1
102
RTVSPropertyOp14
 70
     1
102
RTVSPropertyOp15
 70
     1
102
RTVSPropertyOp16
 70
     1
102
RTVSPropertyOp17
 70
     1
102
RTVSPropertyOp18
 70
     1
102
RTVSPropertyOp19
 70
     1
102
RTVSPropertyOp20
 70
     1
102
RTVSPropertyOp21
 70
     1
102
RTVSPropertyOp22
 70
     1
102
RTVSPropertyOp23
 70
     1
102
RTVSPropertyOp24
 70
     1
102
RTVSPropertyOp25
 70
     1
102
RTVSPropertyOp26
 70
     1
102
RTVSPropertyOp27
 70
     1
  0
XRECORD
  5
B45
102
{ACAD_REACTORS
330
B44
102
}
330
B44
100
AcDbXrecord
280
     1
102
RTVSPropertyOp0
 70
     1
102
RTVSPropertyOp1
 70
     1
102
RTVSPropertyOp2
 70
     1
102
RTVSPropertyOp3
 70
     1
102
RTVSPropertyOp4
 70
     1
102
RTVSPropertyOp5
 70
     1
102
RTVSPropertyOp6
 70
     1
102
RTVSPropertyOp7
 70
     1
102
RTVSPropertyOp8
 70
     1
102
RTVSPropertyOp9
 70
     1
102
RTVSPropertyOp10
 70
     1
102
RTVSPropertyOp11
 70
     1
102
RTVSPropertyOp12
 70
     1
102
RTVSPropertyOp13
 70
     1
102
RTVSPropertyOp14
 70
     1
102
RTVSPropertyOp15
 70
     1
102
RTVSPropertyOp16
 70
     1
102
RTVSPropertyOp17
 70
     1
102
RTVSPropertyOp18
 70
     1
102
RTVSPropertyOp19
 70
     1
102
RTVSPropertyOp20
 70
     1
102
RTVSPropertyOp21
 70
     1
102
RTVSPropertyOp22
 70
     1
102
RTVSPropertyOp23
 70
     1
102
RTVSPropertyOp24
 70
     1
102
RTVSPropertyOp25
 70
     1
102
RTVSPropertyOp26
 70
     1
102
RTVSPropertyOp27
 70
     1
  0
XRECORD
  5
B47
102
{ACAD_REACTORS
330
B46
102
}
330
B46
100
AcDbXrecord
280
     1
102
RTVSPropertyOp0
 70
     1
102
RTVSPropertyOp1
 70
     1
102
RTVSPropertyOp2
 70
     1
102
RTVSPropertyOp3
 70
     1
102
RTVSPropertyOp4
 70
     1
102
RTVSPropertyOp5
 70
     1
102
RTVSPropertyOp6
 70
     1
102
RTVSPropertyOp7
 70
     1
102
RTVSPropertyOp8
 70
     1
102
RTVSPropertyOp9
 70
     1
102
RTVSPropertyOp10
 70
     1
102
RTVSPropertyOp11
 70
     1
102
RTVSPropertyOp12
 70
     1
102
RTVSPropertyOp13
 70
     1
102
RTVSPropertyOp14
 70
     1
102
RTVSPropertyOp15
 70
     1
102
RTVSPropertyOp16
 70
     1
102
RTVSPropertyOp17
 70
     1
102
RTVSPropertyOp18
 70
     1
102
RTVSPropertyOp19
 70
     1
102
RTVSPropertyOp20
 70
     1
102
RTVSPropertyOp21
 70
     1
102
RTVSPropertyOp22
 70
     1
102
RTVSPropertyOp23
 70
     1
102
RTVSPropertyOp24
 70
     1
102
RTVSPropertyOp25
 70
     1
102
RTVSPropertyOp26
 70
     1
102
RTVSPropertyOp27
 70
     1
  0
XRECORD
  5
B5B
102
{ACAD_REACTORS
330
B5A
102
}
330
B5A
100
AcDbXrecord
280
     1
102
RTVSPropertyOp0
 70
     1
102
RTVSPropertyOp1
 70
     1
102
RTVSPropertyOp2
 70
     1
102
RTVSPropertyOp3
 70
     1
102
RTVSPropertyOp4
 70
     1
102
RTVSPropertyOp5
 70
     1
102
RTVSPropertyOp6
 70
     1
102
RTVSPropertyOp7
 70
     1
102
RTVSPropertyOp8
 70
     1
102
RTVSPropertyOp9
 70
     1
102
RTVSPropertyOp10
 70
     1
102
RTVSPropertyOp11
 70
     1
102
RTVSPropertyOp12
 70
     1
102
RTVSPropertyOp13
 70
     1
102
RTVSPropertyOp14
 70
     1
102
RTVSPropertyOp15
 70
     1
102
RTVSPropertyOp16
 70
     1
102
RTVSPropertyOp17
 70
     1
102
RTVSPropertyOp18
 70
     1
102
RTVSPropertyOp19
 70
     1
102
RTVSPropertyOp20
 70
     1
102
RTVSPropertyOp21
 70
     1
102
RTVSPropertyOp22
 70
     1
102
RTVSPropertyOp23
 70
     1
102
RTVSPropertyOp24
 70
     1
102
RTVSPropertyOp25
 70
     1
102
RTVSPropertyOp26
 70
     1
102
RTVSPropertyOp27
 70
     1
  0
XRECORD
  5
B51
102
{ACAD_REACTORS
330
B50
102
}
330
B50
100
AcDbXrecord
280
     1
102
RTVSPropertyOp0
 70
     1
102
RTVSPropertyOp1
 70
     1
102
RTVSPropertyOp2
 70
     1
102
RTVSPropertyOp3
 70
     1
102
RTVSPropertyOp4
 70
     1
102
RTVSPropertyOp5
 70
     1
102
RTVSPropertyOp6
 70
     1
102
RTVSPropertyOp7
 70
     1
102
RTVSPropertyOp8
 70
     1
102
RTVSPropertyOp9
 70
     1
102
RTVSPropertyOp10
 70
     1
102
RTVSPropertyOp11
 70
     1
102
RTVSPropertyOp12
 70
     1
102
RTVSPropertyOp13
 70
     1
102
RTVSPropertyOp14
 70
     1
102
RTVSPropertyOp15
 70
     1
102
RTVSPropertyOp16
 70
     1
102
RTVSPropertyOp17
 70
     1
102
RTVSPropertyOp18
 70
     1
102
RTVSPropertyOp19
 70
     1
102
RTVSPropertyOp20
 70
     1
102
RTVSPropertyOp21
 70
     1
102
RTVSPropertyOp22
 70
     1
102
RTVSPropertyOp23
 70
     1
102
RTVSPropertyOp24
 70
     1
102
RTVSPropertyOp25
 70
     1
102
RTVSPropertyOp26
 70
     1
102
RTVSPropertyOp27
 70
     1
  0
XRECORD
  5
B59
102
{ACAD_REACTORS
330
B58
102
}
330
B58
100
AcDbXrecord
280
     1
102
RTVSPropertyOp0
 70
     1
102
RTVSPropertyOp1
 70
     1
102
RTVSPropertyOp2
 70
     1
102
RTVSPropertyOp3
 70
     1
102
RTVSPropertyOp4
 70
     1
102
RTVSPropertyOp5
 70
     1
102
RTVSPropertyOp6
 70
     1
102
RTVSPropertyOp7
 70
     1
102
RTVSPropertyOp8
 70
     1
102
RTVSPropertyOp9
 70
     1
102
RTVSPropertyOp10
 70
     1
102
RTVSPropertyOp11
 70
     1
102
RTVSPropertyOp12
 70
     1
102
RTVSPropertyOp13
 70
     1
102
RTVSPropertyOp14
 70
     1
102
RTVSPropertyOp15
 70
     1
102
RTVSPropertyOp16
 70
     1
102
RTVSPropertyOp17
 70
     1
102
RTVSPropertyOp18
 70
     1
102
RTVSPropertyOp19
 70
     1
102
RTVSPropertyOp20
 70
     1
102
RTVSPropertyOp21
 70
     1
102
RTVSPropertyOp22
 70
     1
102
RTVSPropertyOp23
 70
     1
102
RTVSPropertyOp24
 70
     1
102
RTVSPropertyOp25
 70
     1
102
RTVSPropertyOp26
 70
     1
102
RTVSPropertyOp27
 70
     1
  0
ENDSEC
  0
EOF
