  0
SECTION
  2
HEADER
  9
$ACADVER
  1
AC1015
  9
$ACADMAINTVER
 70
     6
  9
$DWGCODEPAGE
  3
ANSI_1252
  9
$INSBASE
 10
0.0
 20
0.0
 30
0.0
  9
$EXTMIN
 10
0.0
 20
0.0
 30
0.0
  9
$EXTMAX
 10
25.0
 20
35.0
 30
0.0
  9
$LIMMIN
 10
0.0
 20
0.0
  9
$LIMMAX
 10
420.0
 20
297.0
  9
$ORTHOMODE
 70
     0
  9
$REGENMODE
 70
     1
  9
$FILLMODE
 70
     1
  9
$QTEXTMODE
 70
     0
  9
$MIRRTEXT
 70
     1
  9
$LTSCALE
 40
4.45
  9
$ATTMODE
 70
     1
  9
$TEXTSIZE
 40
2.5
  9
$TRACEWID
 40
1.0
  9
$TEXTSTYLE
  7
Standard
  9
$CLAYER
  8
0
  9
$CELTYPE
  6
ByLayer
  9
$CECOLOR
 62
   256
  9
$CELTSCALE
 40
1.0
  9
$DISPSILH
 70
     0
  9
$DIMSCALE
 40
1.0
  9
$DIMASZ
 40
2.5
  9
$DIMEXO
 40
0.625
  9
$DIMDLI
 40
3.75
  9
$DIMRND
 40
0.0
  9
$DIMDLE
 40
0.0
  9
$DIMEXE
 40
1.25
  9
$DIMTP
 40
0.0
  9
$DIMTM
 40
0.0
  9
$DIMTXT
 40
2.5
  9
$DIMCEN
 40
2.5
  9
$DIMTSZ
 40
0.0
  9
$DIMTOL
 70
     0
  9
$DIMLIM
 70
     0
  9
$DIMTIH
 70
     0
  9
$DIMTOH
 70
     0
  9
$DIMSE1
 70
     0
  9
$DIMSE2
 70
     0
  9
$DIMTAD
 70
     1
  9
$DIMZIN
 70
     8
  9
$DIMBLK
  1

  9
$DIMASO
 70
     1
  9
$DIMSHO
 70
     1
  9
$DIMPOST
  1

  9
$DIMAPOST
  1

  9
$DIMALT
 70
     0
  9
$DIMALTD
 70
     3
  9
$DIMALTF
 40
0.03937007874016
  9
$DIMLFAC
 40
1.0
  9
$DIMTOFL
 70
     1
  9
$DIMTVP
 40
0.0
  9
$DIMTIX
 70
     0
  9
$DIMSOXD
 70
     0
  9
$DIMSAH
 70
     0
  9
$DIMBLK1
  1

  9
$DIMBLK2
  1

  9
$DIMSTYLE
  2
ISO-25
  9
$DIMCLRD
 70
     0
  9
$DIMCLRE
 70
     0
  9
$DIMCLRT
 70
     0
  9
$DIMTFAC
 40
1.0
  9
$DIMGAP
 40
0.625
  9
$DIMJUST
 70
     0
  9
$DIMSD1
 70
     0
  9
$DIMSD2
 70
     0
  9
$DIMTOLJ
 70
     0
  9
$DIMTZIN
 70
     8
  9
$DIMALTZ
 70
     0
  9
$DIMALTTZ
 70
     0
  9
$DIMUPT
 70
     0
  9
$DIMDEC
 70
     2
  9
$DIMTDEC
 70
     2
  9
$DIMALTU
 70
     2
  9
$DIMALTTD
 70
     3
  9
$DIMTXSTY
  7
Standard
  9
$DIMAUNIT
 70
     0
  9
$DIMADEC
 70
     0
  9
$DIMALTRND
 40
0.0
  9
$DIMAZIN
 70
     0
  9
$DIMDSEP
 70
    44
  9
$DIMATFIT
 70
     3
  9
$DIMFRAC
 70
     0
  9
$DIMLDRBLK
  1

  9
$DIMLUNIT
 70
     2
  9
$DIMLWD
 70
    -2
  9
$DIMLWE
 70
    -2
  9
$DIMTMOVE
 70
     0
  9
$LUNITS
 70
     2
  9
$LUPREC
 70
     4
  9
$SKETCHINC
 40
1.0
  9
$FILLETRAD
 40
10.0
  9
$AUNITS
 70
     0
  9
$AUPREC
 70
     0
  9
$MENU
  1
.
  9
$ELEVATION
 40
0.0
  9
$PELEVATION
 40
0.0
  9
$THICKNESS
 40
0.0
  9
$LIMCHECK
 70
     0
  9
$CHAMFERA
 40
10.0
  9
$CHAMFERB
 40
10.0
  9
$CHAMFERC
 40
20.0
  9
$CHAMFERD
 40
0.0
  9
$SKPOLY
 70
     0
  9
$TDCREATE
 40
2458995.583333333
  9
$TDUCREATE
 40
2458995.5
  9
$TDUPDATE
 40
2458995.586805556
  9
$TDUUPDATE
 40
2458995.503472222
  9
$TDINDWG
 40
0.0000000116
  9
$TDUSRTIMER
 40
0.0000000116
  9
$USRTIMER
 70
     1
  9
$ANGBASE
 50
0.0
  9
$ANGDIR
 70
     0
  9
$PDMODE
 70
     0
  9
$PDSIZE
 40
0.0
  9
$PLINEWID
 40
0.0
  9
$SPLFRAME
 70
     0
  9
$SPLINETYPE
 70
     6
  9
$SPLINESEGS
 70
     8
  9
$HANDSEED
  5
C45
  9
$SURFTAB1
 70
     6
  9
$SURFTAB2
 70
     6
  9
$SURFTYPE
 70
     6
  9
$SURFU
 70
     6
  9
$SURFV
 70
     6
  9
$UCSBASE
  2

  9
$UCSNAME
  2

  9
$UCSORG
 10
0.0
 20
0.0
 30
0.0
  9
$UCSXDIR
 10
1.0
 20
0.0
 30
0.0
  9
$UCSYDIR
 10
0.0
 20
1.0
 30
0.0
  9
$UCSORTHOREF
  2

  9
$UCSORTHOVIEW
 70
     0
  9
$UCSORGTOP
 10
0.0
 20
0.0
 30
0.0
  9
$UCSORGBOTTOM
 10
0.0
 20
0.0
 30
0.0
  9
$UCSORGLEFT
 10
0.0
 20
0.0
 30
0.0
  9
$UCSORGRIGHT
 10
0.0
 20
0.0
 30
0.0
  9
$UCSORGFRONT
 10
0.0
 20
0.0
 30
0.0
  9
$UCSORGBACK
 10
0.0
 20
0.0
 30
0.0
  9
$PUCSBASE
  2

  9
$PUCSNAME
  2

  9
$PUCSORG
 10
0.0
 20
0.0
 30
0.0
  9
$PUCSXDIR
 10
1.0
 20
0.0
 30
0.0
  9
$PUCSYDIR
 10
0.0
 20
1.0
 30
0.0
  9
$PUCSORTHOREF
  2

  9
$PUCSORTHOVIEW
 70
     0
  9
$PUCSORGTOP
 10
0.0
 20
0.0
 30
0.0
  9
$PUCSORGBOTTOM
 10
0.0
 20
0.0
 30
0.0
  9
$PUCSORGLEFT
 10
0.0
 20
0.0
 30
0.0
  9
$PUCSORGRIGHT
 10
0.0
 20
0.0
 30
0.0
  9
$PUCSORGFRONT
 10
0.0
 20
0.0
 30
0.0
  9
$PUCSORGBACK
 10
0.0
 20
0.0
 30
0.0
  9
$USERI1
 70
     0
  9
$USERI2
 70
     0
  9
$USERI3
 70
     0
  9
$USERI4
 70
     0
  9
$USERI5
 70
     0
  9
$USERR1
 40
0.0
  9
$USERR2
 40
0.0
  9
$USERR3
 40
0.0
  9
$USERR4
 40
0.0
  9
$USERR5
 40
0.0
  9
$WORLDVIEW
 70
     1
  9
$SHADEDGE
 70
     3
  9
$SHADEDIF
 70
    70
  9
$TILEMODE
 70
     1
  9
$MAXACTVP
 70
    64
  9
$PINSBASE
 10
0.0
 20
0.0
 30
0.0
  9
$PLIMCHECK
 70
     0
  9
$PEXTMIN
 10
1.000000000000000E+20
 20
1.000000000000000E+20
 30
1.000000000000000E+20
  9
$PEXTMAX
 10
-1.000000000000000E+20
 20
-1.000000000000000E+20
 30
-1.000000000000000E+20
  9
$PLIMMIN
 10
0.0
 20
0.0
  9
$PLIMMAX
 10
420.0
 20
297.0
  9
$UNITMODE
 70
     0
  9
$VISRETAIN
 70
     1
  9
$PLINEGEN
 70
     0
  9
$PSLTSCALE
 70
     1
  9
$TREEDEPTH
 70
  3020
  9
$CMLSTYLE
  2
Standard
  9
$CMLJUST
 70
     0
  9
$CMLSCALE
 40
20.0
  9
$PROXYGRAPHICS
 70
     1
  9
$MEASUREMENT
 70
     1
  9
$CELWEIGHT
370
    -1
  9
$ENDCAPS
280
     0
  9
$JOINSTYLE
280
     0
  9
$LWDISPLAY
290
     0
  9
$INSUNITS
 70
     4
  9
$HYPERLINKBASE
  1

  9
$STYLESHEET
  1

  9
$XEDIT
290
     1
  9
$CEPSNTYPE
380
     0
  9
$PSTYLEMODE
290
     1
  9
$FINGERPRINTGUID
  2
{EEF39C28-2A63-4C71-BEE5-220CF09BCB4C}
  9
$VERSIONGUID
  2
{FAEB1C32-E019-11D5-929B-00C0DF256EC4}
  9
$EXTNAMES
290
     1
  9
$PSVPSCALE
 40
0.0
  9
$OLESTARTUP
290
     0
  0
ENDSEC
  0
SECTION
  2
CLASSES
  0
CLASS
  1
ACDBDICTIONARYWDFLT
  2
AcDbDictionaryWithDefault
  3
ObjectDBX Classes
 90
        0
280
     0
281
     0
  0
CLASS
  1
VISUALSTYLE
  2
AcDbVisualStyle
  3
ObjectDBX Classes
 90
     4095
280
     0
281
     0
  0
CLASS
  1
MATERIAL
  2
AcDbMaterial
  3
ObjectDBX Classes
 90
     1153
280
     0
281
     0
  0
CLASS
  1
SCALE
  2
AcDbScale
  3
ObjectDBX Classes
 90
     1153
280
     0
281
     0
  0
CLASS
  1
DICTIONARYVAR
  2
AcDbDictionaryVar
  3
ObjectDBX Classes
 90
        0
280
     0
281
     0
  0
CLASS
  1
ACDBPLACEHOLDER
  2
AcDbPlaceHolder
  3
ObjectDBX Classes
 90
        0
280
     0
281
     0
  0
CLASS
  1
LAYOUT
  2
AcDbLayout
  3
ObjectDBX Classes
 90
        0
280
     0
281
     0
  0
ENDSEC
  0
SECTION
  2
TABLES
  0
TABLE
  2
VPORT
  5
8
330
0
100
AcDbSymbolTable
 70
     1
  0
VPORT
  5
29
330
8
100
AcDbSymbolTableRecord
100
AcDbViewportTableRecord
  2
*Active
 70
     0
 10
0.0
 20
0.0
 11
1.0
 21
1.0
 12
11.26
 22
4.5
 13
0.0
 23
0.0
 14
10.0
 24
10.0
 15
10.0
 25
10.0
 16
0.0
 26
0.0
 36
1.0
 17
0.0
 27
0.0
 37
0.0
 40
9.0
 41
2.503333333333333
 42
50.0
 43
0.0
 44
0.0
 50
0.0
 51
0.0
 71
     0
 72
   100
 73
     1
 74
     3
 75
     0
 76
     0
 77
     0
 78
     0
281
     0
 65
     1
110
0.0
120
0.0
130
0.0
111
1.0
121
0.0
131
0.0
112
0.0
122
1.0
132
0.0
 79
     0
146
0.0
  0
ENDTAB
  0
TABLE
  2
LTYPE
  5
5
330
0
100
AcDbSymbolTable
 70
     9
  0
LTYPE
  5
14
330
5
100
AcDbSymbolTableRecord
100
AcDbLinetypeTableRecord
  2
ByBlock
 70
     0
  3

 72
    65
 73
     0
 40
0.0
  0
LTYPE
  5
15
330
5
100
AcDbSymbolTableRecord
100
AcDbLinetypeTableRecord
  2
ByLayer
 70
     0
  3

 72
    65
 73
     0
 40
0.0
  0
LTYPE
  5
16
330
5
100
AcDbSymbolTableRecord
100
AcDbLinetypeTableRecord
  2
Continuous
 70
     0
  3
Solid line
 72
    65
 73
     0
 40
0.0
  0
LTYPE
  5
45
330
5
100
AcDbSymbolTableRecord
100
AcDbLinetypeTableRecord
  2
phl_thick
 70
     0
  3
THICK
 72
    65
 73
     0
 40
0.0
  0
LTYPE
  5
3EF
330
5
100
AcDbSymbolTableRecord
100
AcDbLinetypeTableRecord
  2
CUT
 70
     0
  3
THICK
 72
    65
 73
     0
 40
0.0
  0
LTYPE
  5
3F8
330
5
100
AcDbSymbolTableRecord
100
AcDbLinetypeTableRecord
  2
NOCUT
 70
     0
  3
THICK
 72
    65
 73
     0
 40
0.0
  0
LTYPE
  5
400
330
5
100
AcDbSymbolTableRecord
100
AcDbLinetypeTableRecord
  2
SK1
 70
     0
  3
THICK
 72
    65
 73
     0
 40
0.0
  0
LTYPE
  5
40E
330
5
100
AcDbSymbolTableRecord
100
AcDbLinetypeTableRecord
  2
ls_SK2
 70
     0
  3
THIN
 72
    65
 73
     0
 40
0.0
  0
LTYPE
  5
4BA
330
5
100
AcDbSymbolTableRecord
100
AcDbLinetypeTableRecord
  2
ls_2
 70
     0
  3
THIN
 72
    65
 73
     0
 40
0.0
  0
LTYPE
  5
609
330
5
100
AcDbSymbolTableRecord
100
AcDbLinetypeTableRecord
  2
ls_SK1
 70
     0
  3
THICK
 72
    65
 73
     0
 40
0.0
  0
LTYPE
  5
643
330
5
100
AcDbSymbolTableRecord
100
AcDbLinetypeTableRecord
  2
LONGDASH_DASH
 70
     0
  3
THIN_DASHDOT
 72
    65
 73
     4
 40
0.85
 49
0.4
 74
     0
 49
-0.2
 74
     0
 49
0.05
 74
     0
 49
-0.2
 74
     0
  0
ENDTAB
  0
TABLE
  2
LAYER
  5
2
330
0
100
AcDbSymbolTable
 70
     9
  0
LAYER
  5
10
330
2
100
AcDbSymbolTableRecord
100
AcDbLayerTableRecord
  2
0
 70
     0
 62
     7
  6
Continuous
370
    -3
390
F
  0
LAYER
  5
44
330
2
100
AcDbSymbolTableRecord
100
AcDbLayerTableRecord
  2
1
 70
     0
 62
4
  6
CONTINUOUS
370
50
370
    -3
390
F
  0
LAYER
  5
3EE
330
2
100
AcDbSymbolTableRecord
100
AcDbLayerTableRecord
  2
CUT
 70
     0
 62
1
  6
CONTINUOUS
370
25
370
    -3
390
F
  0
LAYER
  5
3F7
330
2
100
AcDbSymbolTableRecord
100
AcDbLayerTableRecord
  2
NOCUT
 70
     0
 62
7
  6
CONTINUOUS
370
25
370
    -3
390
F
  0
LAYER
  5
3FF
330
2
100
AcDbSymbolTableRecord
100
AcDbLayerTableRecord
  2
SK1
 70
     0
 62
4
  6
CONTINUOUS
370
50
370
    -3
390
F
  0
LAYER
  5
40D
330
2
100
AcDbSymbolTableRecord
100
AcDbLayerTableRecord
  2
SK2
 70
     0
 62
7
  6
CONTINUOUS
370
25
370
    -3
390
F
  0
LAYER
  5
4B9
330
2
100
AcDbSymbolTableRecord
100
AcDbLayerTableRecord
  2
2
 70
     0
 62
7
  6
CONTINUOUS
370
25
370
    -3
390
F
  0
LAYER
  5
642
330
2
100
AcDbSymbolTableRecord
100
AcDbLayerTableRecord
  2
4
 70
     0
 62
2
  6
LONGDASH_DASH
370
25
370
    -3
390
F
  0
LAYER
  5
645
330
2
100
AcDbSymbolTableRecord
100
AcDbLayerTableRecord
  2
SK4
 70
     0
 62
2
  6
LONGDASH_DASH
370
25
370
    -3
390
F
  0
ENDTAB
  0
TABLE
  2
STYLE
  5
3
330
0
100
AcDbSymbolTable
 70
     1
  0
STYLE
  5
11
330
3
100
AcDbSymbolTableRecord
100
AcDbTextStyleTableRecord
  2
Standard
 70
     0
 40
0.0
 41
1.0
 50
0.0
 71
     0
 42
2.5
  3
Monospac821 BT
  4

  0
ENDTAB
  0
TABLE
  2
VIEW
  5
6
330
0
100
AcDbSymbolTable
 70
     0
  0
ENDTAB
  0
TABLE
  2
UCS
  5
7
330
0
100
AcDbSymbolTable
 70
     0
  0
ENDTAB
  0
TABLE
  2
APPID
  5
9
330
0
100
AcDbSymbolTable
 70
     2
  0
APPID
  5
12
330
9
100
AcDbSymbolTableRecord
100
AcDbRegAppTableRecord
  2
ACAD
 70
     0
  0
APPID
  5
3F
330
9
100
AcDbSymbolTableRecord
100
AcDbRegAppTableRecord
  2
ccLab
 70
     0
  0
ENDTAB
  0
TABLE
  2
DIMSTYLE
  5
A
330
0
100
AcDbSymbolTable
 70
     1
100
AcDbDimStyleTable
  0
DIMSTYLE
105
27
330
A
100
AcDbSymbolTableRecord
100
AcDbDimStyleTableRecord
  2
ISO-25
 70
     0
 41
2.5
 42
0.625
 43
3.75
 44
1.25
 73
     0
 74
     0
 77
     1
 78
     8
140
2.5
141
2.5
143
0.03937007874016
147
0.625
171
     3
172
     1
271
     2
272
     2
274
     3
278
    44
283
     0
284
     8
340
11
  0
ENDTAB
  0
TABLE
  2
BLOCK_RECORD
  5
1
330
0
100
AcDbSymbolTable
 70
     2
  0
BLOCK_RECORD
  5
1F
330
1
100
AcDbSymbolTableRecord
100
AcDbBlockTableRecord
  2
*Model_Space
340
22
  0
BLOCK_RECORD
  5
1B
330
1
100
AcDbSymbolTableRecord
100
AcDbBlockTableRecord
  2
*Paper_Space
340
1E
  0
BLOCK_RECORD
  5
23
330
1
100
AcDbSymbolTableRecord
100
AcDbBlockTableRecord
  2
*Paper_Space0
340
26
  0
ENDTAB
  0
ENDSEC
  0
SECTION
  2
BLOCKS
  0
BLOCK
  5
20
330
1F
100
AcDbEntity
  8
0
100
AcDbBlockBegin
  2
*Model_Space
 70
     0
 10
0.0
 20
0.0
 30
0.0
  3
*Model_Space
  1

  0
ENDBLK
  5
21
330
1F
100
AcDbEntity
  8
0
100
AcDbBlockEnd
  0
BLOCK
  5
1C
330
1B
100
AcDbEntity
 67
     1
  8
0
100
AcDbBlockBegin
  2
*Paper_Space
 70
     0
 10
0.0
 20
0.0
 30
0.0
  3
*Paper_Space
  1

  0
ENDBLK
  5
1D
330
1B
100
AcDbEntity
 67
     1
  8
0
100
AcDbBlockEnd
  0
BLOCK
  5
24
330
23
100
AcDbEntity
  8
0
100
AcDbBlockBegin
  2
*Paper_Space0
 70
     0
 10
0.0
 20
0.0
 30
0.0
  3
*Paper_Space0
  1

  0
ENDBLK
  5
25
330
23
100
AcDbEntity
  8
0
100
AcDbBlockEnd
  0
ENDSEC
  0
SECTION
  2
ENTITIES
  0
LINE
  5
646
330
1F
100
AcDbEntity
  8
1
  6
CONTINUOUS
370
50
 62
4
100
AcDbLine
 10
16.037584
 20
0.172435
 30
0.0
 11
16.037563
 21
0.19507
 31
0.0
  0
LINE
  5
647
330
1F
100
AcDbEntity
  8
1
  6
CONTINUOUS
370
50
 62
4
100
AcDbLine
 10
16.494175
 20
-0.4674
 30
0.0
 11
16.493984
 21
-0.437406
 31
0.0
  0
LINE
  5
648
330
1F
100
AcDbEntity
  8
1
  6
CONTINUOUS
370
50
 62
4
100
AcDbLine
 10
16.486534
 20
-0.84132
 30
0.0
 11
16.485867
 21
-0.7552059999999999
 31
0.0
  0
LINE
  5
649
330
1F
100
AcDbEntity
  8
1
  6
CONTINUOUS
370
50
 62
4
100
AcDbLine
 10
16.037691
 20
1.172422
 30
0.0
 11
16.0373
 21
1.194588
 31
0.0
  0
LINE
  5
64A
330
1F
100
AcDbEntity
  8
1
  6
CONTINUOUS
370
50
 62
4
100
AcDbLine
 10
16.493984
 20
-0.437406
 30
0.0
 11
16.493271
 21
-0.40748
 31
0.0
  0
LINE
  5
64B
330
1F
100
AcDbEntity
  8
1
  6
CONTINUOUS
370
50
 62
4
100
AcDbLine
 10
16.48888
 20
-0.9272239999999999
 30
0.0
 11
16.486534
 21
-0.84132
 31
0.0
  0
LINE
  5
64C
330
1F
100
AcDbEntity
  8
1
  6
CONTINUOUS
370
50
 62
4
100
AcDbLine
 10
16.493271
 20
-0.40748
 30
0.0
 11
16.49205
 21
-0.37769
 31
0.0
  0
LINE
  5
64D
330
1F
100
AcDbEntity
  8
1
  6
CONTINUOUS
370
50
 62
4
100
AcDbLine
 10
16.492922
 20
-1.012729
 30
0.0
 11
16.48888
 21
-0.9272239999999999
 31
0.0
  0
LINE
  5
64E
330
1F
100
AcDbEntity
  8
1
  6
CONTINUOUS
370
50
 62
4
100
AcDbLine
 10
16.037563
 20
0.19507
 30
0.0
 11
16.036448
 21
0.216896
 31
0.0
  0
LINE
  5
64F
330
1F
100
AcDbEntity
  8
1
  6
CONTINUOUS
370
50
 62
4
100
AcDbLine
 10
16.49205
 20
-0.37769
 30
0.0
 11
16.490343
 21
-0.348155
 31
0.0
  0
LINE
  5
650
330
1F
100
AcDbEntity
  8
1
  6
CONTINUOUS
370
50
 62
4
100
AcDbLine
 10
16.498659
 20
-1.097437
 30
0.0
 11
16.492922
 21
-1.012729
 31
0.0
  0
LINE
  5
651
330
1F
100
AcDbEntity
  8
1
  6
CONTINUOUS
370
50
 62
4
100
AcDbLine
 10
4.412373
 20
-1.795434
 30
0.0
 11
4.411233
 21
-1.778928
 31
0.0
  0
LINE
  5
652
330
1F
100
AcDbEntity
  8
1
  6
CONTINUOUS
370
50
 62
4
100
AcDbLine
 10
16.0373
 20
1.194588
 30
0.0
 11
16.035688
 21
1.217716
 31
0.0
  0
LINE
  5
653
330
1F
100
AcDbEntity
  8
1
  6
CONTINUOUS
370
50
 62
4
100
AcDbLine
 10
16.490343
 20
-0.348155
 30
0.0
 11
16.488169
 21
-0.318944
 31
0.0
  0
LINE
  5
654
330
1F
100
AcDbEntity
  8
1
  6
CONTINUOUS
370
50
 62
4
100
AcDbLine
 10
4.413552
 20
0.8705729999999999
 30
0.0
 11
4.411233
 21
0.899913
 31
0.0
  0
LINE
  5
655
330
1F
100
AcDbEntity
  8
1
  6
CONTINUOUS
370
50
 62
4
100
AcDbLine
 10
16.506037
 20
-1.180473
 30
0.0
 11
16.498659
 21
-1.097437
 31
0.0
  0
LINE
  5
656
330
1F
100
AcDbEntity
  8
1
  6
CONTINUOUS
370
50
 62
4
100
AcDbLine
 10
16.488169
 20
-0.318944
 30
0.0
 11
16.485544
 21
-0.290111
 31
0.0
  0
LINE
  5
657
330
1F
100
AcDbEntity
  8
1
  6
CONTINUOUS
370
50
 62
4
100
AcDbLine
 10
16.036448
 20
0.216896
 30
0.0
 11
16.034292
 21
0.237889
 31
0.0
  0
LINE
  5
658
330
1F
100
AcDbEntity
  8
1
  6
CONTINUOUS
370
50
 62
4
100
AcDbLine
 10
16.515011
 20
-1.261619
 30
0.0
 11
16.506037
 21
-1.180473
 31
0.0
  0
LINE
  5
659
330
1F
100
AcDbEntity
  8
1
  6
CONTINUOUS
370
50
 62
4
100
AcDbLine
 10
16.035688
 20
1.217716
 30
0.0
 11
16.032919
 21
1.241703
 31
0.0
  0
LINE
  5
65A
330
1F
100
AcDbEntity
  8
1
  6
CONTINUOUS
370
50
 62
4
100
AcDbLine
 10
16.525549
 20
-1.340713
 30
0.0
 11
16.515011
 21
-1.261619
 31
0.0
  0
LINE
  5
65B
330
1F
100
AcDbEntity
  8
1
  6
CONTINUOUS
370
50
 62
4
100
AcDbLine
 10
16.034292
 20
0.237889
 30
0.0
 11
16.031143
 21
0.258069
 31
0.0
  0
LINE
  5
65C
330
1F
100
AcDbEntity
  8
1
  6
CONTINUOUS
370
50
 62
4
100
AcDbLine
 10
16.032919
 20
1.241703
 30
0.0
 11
16.029045
 21
1.266487
 31
0.0
  0
LINE
  5
65D
330
1F
100
AcDbEntity
  8
1
  6
CONTINUOUS
370
50
 62
4
100
AcDbLine
 10
16.537611
 20
-1.417592
 30
0.0
 11
16.525549
 21
-1.340713
 31
0.0
  0
LINE
  5
65E
330
1F
100
AcDbEntity
  8
1
  6
CONTINUOUS
370
50
 62
4
100
AcDbLine
 10
4.418848
 20
0.8413919999999999
 30
0.0
 11
4.413552
 21
0.8705729999999999
 31
0.0
  0
LINE
  5
65F
330
1F
100
AcDbEntity
  8
1
  6
CONTINUOUS
370
50
 62
4
100
AcDbLine
 10
16.551165
 20
-1.492092
 30
0.0
 11
16.537611
 21
-1.417592
 31
0.0
  0
LINE
  5
660
330
1F
100
AcDbEntity
  8
1
  6
CONTINUOUS
370
50
 62
4
100
AcDbLine
 10
16.029045
 20
1.266487
 30
0.0
 11
16.024124
 21
1.291971
 31
0.0
  0
LINE
  5
661
330
1F
100
AcDbEntity
  8
1
  6
CONTINUOUS
370
50
 62
4
100
AcDbLine
 10
16.566166
 20
-1.564021
 30
0.0
 11
16.551165
 21
-1.492092
 31
0.0
  0
LINE
  5
662
330
1F
100
AcDbEntity
  8
1
  6
CONTINUOUS
370
50
 62
4
100
AcDbLine
 10
16.031143
 20
0.258069
 30
0.0
 11
16.027048
 21
0.277434
 31
0.0
  0
LINE
  5
663
330
1F
100
AcDbEntity
  8
1
  6
CONTINUOUS
370
50
 62
4
100
AcDbLine
 10
16.024124
 20
1.291971
 30
0.0
 11
16.018213
 21
1.31806
 31
0.0
  0
LINE
  5
664
330
1F
100
AcDbEntity
  8
1
  6
CONTINUOUS
370
50
 62
4
100
AcDbLine
 10
16.582485
 20
-1.632861
 30
0.0
 11
16.566166
 21
-1.564021
 31
0.0
  0
LINE
  5
665
330
1F
100
AcDbEntity
  8
1
  6
CONTINUOUS
370
50
 62
4
100
AcDbLine
 10
16.018213
 20
1.31806
 30
0.0
 11
16.01137
 21
1.344657
 31
0.0
  0
LINE
  5
666
330
1F
100
AcDbEntity
  8
1
  6
CONTINUOUS
370
50
 62
4
100
AcDbLine
 10
16.600037
 20
-1.698402
 30
0.0
 11
16.582485
 21
-1.632861
 31
0.0
  0
LINE
  5
667
330
1F
100
AcDbEntity
  8
1
  6
CONTINUOUS
370
50
 62
4
100
AcDbLine
 10
16.027048
 20
0.277434
 30
0.0
 11
16.022053
 21
0.29597
 31
0.0
  0
LINE
  5
668
330
1F
100
AcDbEntity
  8
1
  6
CONTINUOUS
370
50
 62
4
100
AcDbLine
 10
4.426921
 20
0.812448
 30
0.0
 11
4.418848
 21
0.8413919999999999
 31
0.0
  0
LINE
  5
669
330
1F
100
AcDbEntity
  8
1
  6
CONTINUOUS
370
50
 62
4
100
AcDbLine
 10
16.01137
 20
1.344657
 30
0.0
 11
16.003647
 21
1.371666
 31
0.0
  0
LINE
  5
66A
330
1F
100
AcDbEntity
  8
1
  6
CONTINUOUS
370
50
 62
4
100
AcDbLine
 10
16.618755
 20
-1.76055
 30
0.0
 11
16.600037
 21
-1.698402
 31
0.0
  0
LINE
  5
66B
330
1F
100
AcDbEntity
  8
1
  6
CONTINUOUS
370
50
 62
4
100
AcDbLine
 10
16.003647
 20
1.371666
 30
0.0
 11
15.995102
 21
1.39899
 31
0.0
  0
LINE
  5
66C
330
1F
100
AcDbEntity
  8
1
  6
CONTINUOUS
370
50
 62
4
100
AcDbLine
 10
16.485809
 20
0.9991909999999999
 30
0.0
 11
16.485758
 21
0.9993529999999999
 31
0.0
  0
LINE
  5
66D
330
1F
100
AcDbEntity
  8
1
  6
CONTINUOUS
370
50
 62
4
100
AcDbLine
 10
4.417329
 20
-1.811118
 30
0.0
 11
4.412373
 21
-1.795434
 31
0.0
  0
LINE
  5
66E
330
1F
100
AcDbEntity
  8
1
  6
CONTINUOUS
370
50
 62
4
100
AcDbLine
 10
16.486795
 20
0.9961549999999999
 30
0.0
 11
16.485859
 21
0.9990389999999999
 31
0.0
  0
LINE
  5
66F
330
1F
100
AcDbEntity
  8
1
  6
CONTINUOUS
370
50
 62
4
100
AcDbLine
 10
16.494356
 20
0.9728859999999999
 30
0.0
 11
16.489622
 21
0.987459
 31
0.0
  0
LINE
  5
670
330
1F
100
AcDbEntity
  8
1
  6
CONTINUOUS
370
50
 62
4
100
AcDbLine
 10
16.500982
 20
0.952491
 30
0.0
 11
16.494356
 21
0.9728859999999999
 31
0.0
  0
LINE
  5
671
330
1F
100
AcDbEntity
  8
1
  6
CONTINUOUS
370
50
 62
4
100
AcDbLine
 10
16.681026
 20
0.398374
 30
0.0
 11
16.658072
 21
0.469025
 31
0.0
  0
LINE
  5
672
330
1F
100
AcDbEntity
  8
1
  6
CONTINUOUS
370
50
 62
4
100
AcDbLine
 10
16.5606
 20
0.769007
 30
0.0
 11
16.54529
 21
0.8161299999999999
 31
0.0
  0
LINE
  5
673
330
1F
100
AcDbEntity
  8
1
  6
CONTINUOUS
370
50
 62
4
100
AcDbLine
 10
16.615299
 20
0.600661
 30
0.0
 11
16.595713
 21
0.660945
 31
0.0
  0
LINE
  5
674
330
1F
100
AcDbEntity
  8
1
  6
CONTINUOUS
370
50
 62
4
100
AcDbLine
 10
16.54529
 20
0.8161299999999999
 30
0.0
 11
16.53163
 21
0.858173
 31
0.0
  0
LINE
  5
675
330
1F
100
AcDbEntity
  8
1
  6
CONTINUOUS
370
50
 62
4
100
AcDbLine
 10
16.519663
 20
0.895002
 30
0.0
 11
16.509434
 21
0.926485
 31
0.0
  0
LINE
  5
676
330
1F
100
AcDbEntity
  8
1
  6
CONTINUOUS
370
50
 62
4
100
AcDbLine
 10
16.636131
 20
0.536547
 30
0.0
 11
16.615299
 21
0.600661
 31
0.0
  0
LINE
  5
677
330
1F
100
AcDbEntity
  8
1
  6
CONTINUOUS
370
50
 62
4
100
AcDbLine
 10
16.722
 20
0.272271
 30
0.0
 11
16.681026
 21
0.398374
 31
0.0
  0
LINE
  5
678
330
1F
100
AcDbEntity
  8
1
  6
CONTINUOUS
370
50
 62
4
100
AcDbLine
 10
16.595713
 20
0.660945
 30
0.0
 11
16.577454
 21
0.717139
 31
0.0
  0
LINE
  5
679
330
1F
100
AcDbEntity
  8
1
  6
CONTINUOUS
370
50
 62
4
100
AcDbLine
 10
16.53163
 20
0.858173
 30
0.0
 11
16.519663
 21
0.895002
 31
0.0
  0
LINE
  5
67A
330
1F
100
AcDbEntity
  8
1
  6
CONTINUOUS
370
50
 62
4
100
AcDbLine
 10
16.577454
 20
0.717139
 30
0.0
 11
16.5606
 21
0.769007
 31
0.0
  0
LINE
  5
67B
330
1F
100
AcDbEntity
  8
1
  6
CONTINUOUS
370
50
 62
4
100
AcDbLine
 10
16.658072
 20
0.469025
 30
0.0
 11
16.636131
 21
0.536547
 31
0.0
  0
LINE
  5
67C
330
1F
100
AcDbEntity
  8
1
  6
CONTINUOUS
370
50
 62
4
100
AcDbLine
 10
16.509434
 20
0.926485
 30
0.0
 11
16.500982
 21
0.952491
 31
0.0
  0
LINE
  5
67D
330
1F
100
AcDbEntity
  8
1
  6
CONTINUOUS
370
50
 62
4
100
AcDbLine
 10
16.489622
 20
0.987459
 30
0.0
 11
16.486795
 21
0.9961549999999999
 31
0.0
  0
LINE
  5
67E
330
1F
100
AcDbEntity
  8
1
  6
CONTINUOUS
370
50
 62
4
100
AcDbLine
 10
16.485704
 20
0.9995149999999999
 30
0.0
 11
16.485598
 21
0.999841
 31
0.0
  0
LINE
  5
67F
330
1F
100
AcDbEntity
  8
1
  6
CONTINUOUS
370
50
 62
4
100
AcDbLine
 10
16.485598
 20
0.999841
 30
0.0
 11
16.485544
 21
1.000005
 31
0.0
  0
LINE
  5
680
330
1F
100
AcDbEntity
  8
1
  6
CONTINUOUS
370
50
 62
4
100
AcDbLine
 10
16.022053
 20
0.29597
 30
0.0
 11
16.016203
 21
0.313666
 31
0.0
  0
LINE
  5
681
330
1F
100
AcDbEntity
  8
1
  6
CONTINUOUS
370
50
 62
4
100
AcDbLine
 10
16.485863
 20
0.999029
 30
0.0
 11
16.485809
 21
0.9991909999999999
 31
0.0
  0
LINE
  5
682
330
1F
100
AcDbEntity
  8
1
  6
CONTINUOUS
370
50
 62
4
100
AcDbLine
 10
16.485758
 20
0.9993529999999999
 30
0.0
 11
16.485704
 21
0.9995149999999999
 31
0.0
  0
LINE
  5
683
330
1F
100
AcDbEntity
  8
1
  6
CONTINUOUS
370
50
 62
4
100
AcDbLine
 10
16.638563
 20
-1.819178
 30
0.0
 11
16.618755
 21
-1.76055
 31
0.0
  0
LINE
  5
684
330
1F
100
AcDbEntity
  8
1
  6
CONTINUOUS
370
50
 62
4
100
AcDbLine
 10
15.995102
 20
1.39899
 30
0.0
 11
15.985793
 21
1.426534
 31
0.0
  0
LINE
  5
685
330
1F
100
AcDbEntity
  8
1
  6
CONTINUOUS
370
50
 62
4
100
AcDbLine
 10
15.908948
 20
1.639044
 30
0.0
 11
15.898288
 21
1.6697
 31
0.0
  0
LINE
  5
686
330
1F
100
AcDbEntity
  8
1
  6
CONTINUOUS
370
50
 62
4
100
AcDbLine
 10
15.919743
 20
1.60834
 30
0.0
 11
15.908948
 21
1.639044
 31
0.0
  0
LINE
  5
687
330
1F
100
AcDbEntity
  8
1
  6
CONTINUOUS
370
50
 62
4
100
AcDbLine
 10
15.930673
 20
1.57759
 30
0.0
 11
15.919743
 21
1.60834
 31
0.0
  0
LINE
  5
688
330
1F
100
AcDbEntity
  8
1
  6
CONTINUOUS
370
50
 62
4
100
AcDbLine
 10
15.941741
 20
1.546798
 30
0.0
 11
15.930673
 21
1.57759
 31
0.0
  0
LINE
  5
689
330
1F
100
AcDbEntity
  8
1
  6
CONTINUOUS
370
50
 62
4
100
AcDbLine
 10
15.985793
 20
1.426534
 30
0.0
 11
15.975776
 21
1.454201
 31
0.0
  0
LINE
  5
68A
330
1F
100
AcDbEntity
  8
1
  6
CONTINUOUS
370
50
 62
4
100
AcDbLine
 10
15.952946
 20
1.515967
 30
0.0
 11
15.941741
 21
1.546798
 31
0.0
  0
LINE
  5
68B
330
1F
100
AcDbEntity
  8
1
  6
CONTINUOUS
370
50
 62
4
100
AcDbLine
 10
15.964291
 20
1.4851
 30
0.0
 11
15.952946
 21
1.515967
 31
0.0
  0
LINE
  5
68C
330
1F
100
AcDbEntity
  8
1
  6
CONTINUOUS
370
50
 62
4
100
AcDbLine
 10
15.975776
 20
1.454201
 30
0.0
 11
15.964291
 21
1.4851
 31
0.0
  0
LINE
  5
68D
330
1F
100
AcDbEntity
  8
1
  6
CONTINUOUS
370
50
 62
4
100
AcDbLine
 10
4.437571999999999
 20
0.78382
 30
0.0
 11
4.426921
 21
0.812448
 31
0.0
  0
LINE
  5
68E
330
1F
100
AcDbEntity
  8
1
  6
CONTINUOUS
370
50
 62
4
100
AcDbLine
 10
16.659346
 20
-1.874075
 30
0.0
 11
16.638563
 21
-1.819178
 31
0.0
  0
LINE
  5
68F
330
1F
100
AcDbEntity
  8
1
  6
CONTINUOUS
370
50
 62
4
100
AcDbLine
 10
16.016203
 20
0.313666
 30
0.0
 11
16.009546
 21
0.330511
 31
0.0
  0
LINE
  5
690
330
1F
100
AcDbEntity
  8
1
  6
CONTINUOUS
370
50
 62
4
100
AcDbLine
 10
16.681026
 20
-1.925188
 30
0.0
 11
16.659346
 21
-1.874075
 31
0.0
  0
LINE
  5
691
330
1F
100
AcDbEntity
  8
1
  6
CONTINUOUS
370
50
 62
4
100
AcDbLine
 10
4.757768
 20
0.114985
 30
0.0
 11
4.705756
 21
0.230118
 31
0.0
  0
LINE
  5
692
330
1F
100
AcDbEntity
  8
1
  6
CONTINUOUS
370
50
 62
4
100
AcDbLine
 10
4.809988
 20
-0.000017
 30
0.0
 11
4.757768
 21
0.114985
 31
0.0
  0
LINE
  5
693
330
1F
100
AcDbEntity
  8
1
  6
CONTINUOUS
370
50
 62
4
100
AcDbLine
 10
4.705756
 20
0.230118
 30
0.0
 11
4.653508
 21
0.344907
 31
0.0
  0
LINE
  5
694
330
1F
100
AcDbEntity
  8
1
  6
CONTINUOUS
370
50
 62
4
100
AcDbLine
 10
4.871432
 20
-0.132661
 30
0.0
 11
4.809988
 21
-0.000017
 31
0.0
  0
LINE
  5
695
330
1F
100
AcDbEntity
  8
1
  6
CONTINUOUS
370
50
 62
4
100
AcDbLine
 10
4.653508
 20
0.344907
 30
0.0
 11
4.601023
 21
0.458027
 31
0.0
  0
LINE
  5
696
330
1F
100
AcDbEntity
  8
1
  6
CONTINUOUS
370
50
 62
4
100
AcDbLine
 10
16.009546
 20
0.330511
 30
0.0
 11
16.002127
 21
0.346492
 31
0.0
  0
LINE
  5
697
330
1F
100
AcDbEntity
  8
1
  6
CONTINUOUS
370
50
 62
4
100
AcDbLine
 10
4.601023
 20
0.458027
 30
0.0
 11
4.547876
 21
0.5690569999999999
 31
0.0
  0
LINE
  5
698
330
1F
100
AcDbEntity
  8
1
  6
CONTINUOUS
370
50
 62
4
100
AcDbLine
 10
4.934711
 20
-0.264295
 30
0.0
 11
4.871432
 21
-0.132661
 31
0.0
  0
LINE
  5
699
330
1F
100
AcDbEntity
  8
1
  6
CONTINUOUS
370
50
 62
4
100
AcDbLine
 10
16.187128
 20
1.084207
 30
0.0
 11
15.898288
 21
1.6697
 31
0.0
  0
LINE
  5
69A
330
1F
100
AcDbEntity
  8
1
  6
CONTINUOUS
370
50
 62
4
100
AcDbLine
 10
4.547876
 20
0.5690569999999999
 30
0.0
 11
4.493561
 21
0.67774
 31
0.0
  0
LINE
  5
69B
330
1F
100
AcDbEntity
  8
1
  6
CONTINUOUS
370
50
 62
4
100
AcDbLine
 10
5.000344
 20
-0.393801
 30
0.0
 11
4.934711
 21
-0.264295
 31
0.0
  0
LINE
  5
69C
330
1F
100
AcDbEntity
  8
1
  6
CONTINUOUS
370
50
 62
4
100
AcDbLine
 10
4.493561
 20
0.67774
 30
0.0
 11
4.437571999999999
 21
0.78382
 31
0.0
  0
LINE
  5
69D
330
1F
100
AcDbEntity
  8
1
  6
CONTINUOUS
370
50
 62
4
100
AcDbLine
 10
16.002127
 20
0.346492
 30
0.0
 11
15.993996
 21
0.361597
 31
0.0
  0
LINE
  5
69E
330
1F
100
AcDbEntity
  8
1
  6
CONTINUOUS
370
50
 62
4
100
AcDbLine
 10
5.068524
 20
-0.519301
 30
0.0
 11
5.000344
 21
-0.393801
 31
0.0
  0
LINE
  5
69F
330
1F
100
AcDbEntity
  8
1
  6
CONTINUOUS
370
50
 62
4
100
AcDbLine
 10
4.425822999999999
 20
-1.825963
 30
0.0
 11
4.417329
 21
-1.811118
 31
0.0
  0
LINE
  5
6A0
330
1F
100
AcDbEntity
  8
1
  6
CONTINUOUS
370
50
 62
4
100
AcDbLine
 10
5.14018
 20
-0.6404219999999999
 30
0.0
 11
5.068524
 21
-0.519301
 31
0.0
  0
LINE
  5
6A1
330
1F
100
AcDbEntity
  8
1
  6
CONTINUOUS
370
50
 62
4
100
AcDbLine
 10
15.993996
 20
0.361597
 30
0.0
 11
15.985196
 21
0.375815
 31
0.0
  0
LINE
  5
6A2
330
1F
100
AcDbEntity
  8
1
  6
CONTINUOUS
370
50
 62
4
100
AcDbLine
 10
15.908948
 20
0.484329
 30
0.0
 11
15.898288
 21
0.500807
 31
0.0
  0
LINE
  5
6A3
330
1F
100
AcDbEntity
  8
1
  6
CONTINUOUS
370
50
 62
4
100
AcDbLine
 10
5.216265
 20
-0.7568429999999999
 30
0.0
 11
5.14018
 21
-0.6404219999999999
 31
0.0
  0
LINE
  5
6A4
330
1F
100
AcDbEntity
  8
1
  6
CONTINUOUS
370
50
 62
4
100
AcDbLine
 10
15.919743
 20
0.468017
 30
0.0
 11
15.908948
 21
0.484329
 31
0.0
  0
LINE
  5
6A5
330
1F
100
AcDbEntity
  8
1
  6
CONTINUOUS
370
50
 62
4
100
AcDbLine
 10
15.930673
 20
0.451875
 30
0.0
 11
15.919743
 21
0.468017
 31
0.0
  0
LINE
  5
6A6
330
1F
100
AcDbEntity
  8
1
  6
CONTINUOUS
370
50
 62
4
100
AcDbLine
 10
15.941741
 20
0.435911
 30
0.0
 11
15.930673
 21
0.451875
 31
0.0
  0
LINE
  5
6A7
330
1F
100
AcDbEntity
  8
1
  6
CONTINUOUS
370
50
 62
4
100
AcDbLine
 10
15.985196
 20
0.375815
 30
0.0
 11
15.975776
 21
0.389134
 31
0.0
  0
LINE
  5
6A8
330
1F
100
AcDbEntity
  8
1
  6
CONTINUOUS
370
50
 62
4
100
AcDbLine
 10
15.952946
 20
0.420129
 30
0.0
 11
15.941741
 21
0.435911
 31
0.0
  0
LINE
  5
6A9
330
1F
100
AcDbEntity
  8
1
  6
CONTINUOUS
370
50
 62
4
100
AcDbLine
 10
15.964291
 20
0.404535
 30
0.0
 11
15.952946
 21
0.420129
 31
0.0
  0
LINE
  5
6AA
330
1F
100
AcDbEntity
  8
1
  6
CONTINUOUS
370
50
 62
4
100
AcDbLine
 10
5.297731
 20
-0.86824
 30
0.0
 11
5.216265
 21
-0.7568429999999999
 31
0.0
  0
LINE
  5
6AB
330
1F
100
AcDbEntity
  8
1
  6
CONTINUOUS
370
50
 62
4
100
AcDbLine
 10
15.975776
 20
0.389134
 30
0.0
 11
15.964291
 21
0.404535
 31
0.0
  0
LINE
  5
6AC
330
1F
100
AcDbEntity
  8
1
  6
CONTINUOUS
370
50
 62
4
100
AcDbLine
 10
5.384291999999999
 20
-0.9728559999999999
 30
0.0
 11
5.297731
 21
-0.86824
 31
0.0
  0
LINE
  5
6AD
330
1F
100
AcDbEntity
  8
1
  6
CONTINUOUS
370
50
 62
4
100
AcDbLine
 10
4.437571999999999
 20
-1.839953
 30
0.0
 11
4.425822999999999
 21
-1.825963
 31
0.0
  0
LINE
  5
6AE
330
1F
100
AcDbEntity
  8
1
  6
CONTINUOUS
370
50
 62
4
100
AcDbLine
 10
5.475749
 20
-1.069855
 30
0.0
 11
5.384291999999999
 21
-0.9728559999999999
 31
0.0
  0
LINE
  5
6AF
330
1F
100
AcDbEntity
  8
1
  6
CONTINUOUS
370
50
 62
4
100
AcDbLine
 10
5.682276
 20
-1.249521
 30
0.0
 11
5.676279
 21
-1.243338
 31
0.0
  0
LINE
  5
6B0
330
1F
100
AcDbEntity
  8
1
  6
CONTINUOUS
370
50
 62
4
100
AcDbLine
 10
16.722
 20
1.924997
 30
0.0
 11
16.713684
 21
1.933316
 31
0.0
  0
LINE
  5
6B1
330
1F
100
AcDbEntity
  8
1
  6
CONTINUOUS
370
50
 62
4
100
AcDbLine
 10
16.713684
 20
1.933316
 30
0.0
 11
16.705332
 21
1.941656
 31
0.0
  0
LINE
  5
6B2
330
1F
100
AcDbEntity
  8
1
  6
CONTINUOUS
370
50
 62
4
100
AcDbLine
 10
16.705332
 20
1.941656
 30
0.0
 11
16.696943
 21
1.95002
 31
0.0
  0
LINE
  5
6B3
330
1F
100
AcDbEntity
  8
1
  6
CONTINUOUS
370
50
 62
4
100
AcDbLine
 10
16.696943
 20
1.95002
 30
0.0
 11
16.68852
 21
1.958406
 31
0.0
  0
LINE
  5
6B4
330
1F
100
AcDbEntity
  8
1
  6
CONTINUOUS
370
50
 62
4
100
AcDbLine
 10
16.68852
 20
1.958406
 30
0.0
 11
16.680061
 21
1.966815
 31
0.0
  0
LINE
  5
6B5
330
1F
100
AcDbEntity
  8
1
  6
CONTINUOUS
370
50
 62
4
100
AcDbLine
 10
16.680061
 20
1.966815
 30
0.0
 11
16.671564
 21
1.975246
 31
0.0
  0
LINE
  5
6B6
330
1F
100
AcDbEntity
  8
1
  6
CONTINUOUS
370
50
 62
4
100
AcDbLine
 10
16.671564
 20
1.975246
 30
0.0
 11
16.663033
 21
1.983701
 31
0.0
  0
LINE
  5
6B7
330
1F
100
AcDbEntity
  8
1
  6
CONTINUOUS
370
50
 62
4
100
AcDbLine
 10
16.663033
 20
1.983701
 30
0.0
 11
16.66074
 21
1.985966
 31
0.0
  0
LINE
  5
6B8
330
1F
100
AcDbEntity
  8
1
  6
CONTINUOUS
370
50
 62
4
100
AcDbLine
 10
16.66074
 20
1.985966
 30
0.0
 11
16.658449
 21
1.988229
 31
0.0
  0
LINE
  5
6B9
330
1F
100
AcDbEntity
  8
1
  6
CONTINUOUS
370
50
 62
4
100
AcDbLine
 10
16.658449
 20
1.988229
 30
0.0
 11
16.656157
 21
1.990491
 31
0.0
  0
LINE
  5
6BA
330
1F
100
AcDbEntity
  8
1
  6
CONTINUOUS
370
50
 62
4
100
AcDbLine
 10
16.656157
 20
1.990491
 30
0.0
 11
16.653868
 21
1.99275
 31
0.0
  0
LINE
  5
6BB
330
1F
100
AcDbEntity
  8
1
  6
CONTINUOUS
370
50
 62
4
100
AcDbLine
 10
16.651577
 20
1.995007
 30
0.0
 11
16.649288
 21
1.997263
 31
0.0
  0
LINE
  5
6BC
330
1F
100
AcDbEntity
  8
1
  6
CONTINUOUS
370
50
 62
4
100
AcDbLine
 10
16.653868
 20
1.99275
 30
0.0
 11
16.651577
 21
1.995007
 31
0.0
  0
LINE
  5
6BD
330
1F
100
AcDbEntity
  8
1
  6
CONTINUOUS
370
50
 62
4
100
AcDbLine
 10
16.649288
 20
1.997263
 30
0.0
 11
16.646999
 21
1.999516
 31
0.0
  0
LINE
  5
6BE
330
1F
100
AcDbEntity
  8
1
  6
CONTINUOUS
370
50
 62
4
100
AcDbLine
 10
5.688543
 20
-1.255664
 30
0.0
 11
5.682276
 21
-1.249521
 31
0.0
  0
LINE
  5
6BF
330
1F
100
AcDbEntity
  8
1
  6
CONTINUOUS
370
50
 62
4
100
AcDbLine
 10
5.695024
 20
-1.261742
 30
0.0
 11
5.688543
 21
-1.255664
 31
0.0
  0
LINE
  5
6C0
330
1F
100
AcDbEntity
  8
1
  6
CONTINUOUS
370
50
 62
4
100
AcDbLine
 10
5.572835
 20
-1.159821
 30
0.0
 11
5.475749
 21
-1.069855
 31
0.0
  0
LINE
  5
6C1
330
1F
100
AcDbEntity
  8
1
  6
CONTINUOUS
370
50
 62
4
100
AcDbLine
 10
5.701664999999999
 20
-1.267732
 30
0.0
 11
5.695024
 21
-1.261742
 31
0.0
  0
LINE
  5
6C2
330
1F
100
AcDbEntity
  8
1
  6
CONTINUOUS
370
50
 62
4
100
AcDbLine
 10
5.708411
 20
-1.273607
 30
0.0
 11
5.701664999999999
 21
-1.267732
 31
0.0
  0
LINE
  5
6C3
330
1F
100
AcDbEntity
  8
1
  6
CONTINUOUS
370
50
 62
4
100
AcDbLine
 10
5.715208
 20
-1.279342
 30
0.0
 11
5.708411
 21
-1.273607
 31
0.0
  0
LINE
  5
6C4
330
1F
100
AcDbEntity
  8
1
  6
CONTINUOUS
370
50
 62
4
100
AcDbLine
 10
5.682276
 20
1.561568
 30
0.0
 11
5.676279
 21
1.566496
 31
0.0
  0
LINE
  5
6C5
330
1F
100
AcDbEntity
  8
1
  6
CONTINUOUS
370
50
 62
4
100
AcDbLine
 10
5.722
 20
-1.284914
 30
0.0
 11
5.715208
 21
-1.279342
 31
0.0
  0
LINE
  5
6C6
330
1F
100
AcDbEntity
  8
1
  6
CONTINUOUS
370
50
 62
4
100
AcDbLine
 10
5.723418
 20
-1.285912
 30
0.0
 11
5.722
 21
-1.284766
 31
0.0
  0
LINE
  5
6C7
330
1F
100
AcDbEntity
  8
1
  6
CONTINUOUS
370
50
 62
4
100
AcDbLine
 10
5.676279
 20
-1.243338
 30
0.0
 11
5.572835
 21
-1.159821
 31
0.0
  0
LINE
  5
6C8
330
1F
100
AcDbEntity
  8
1
  6
CONTINUOUS
370
50
 62
4
100
AcDbLine
 10
5.724839999999999
 20
-1.287054
 30
0.0
 11
5.723418
 21
-1.285912
 31
0.0
  0
LINE
  5
6C9
330
1F
100
AcDbEntity
  8
1
  6
CONTINUOUS
370
50
 62
4
100
AcDbLine
 10
5.726265
 20
-1.288194
 30
0.0
 11
5.724839999999999
 21
-1.287054
 31
0.0
  0
LINE
  5
6CA
330
1F
100
AcDbEntity
  8
1
  6
CONTINUOUS
370
50
 62
4
100
AcDbLine
 10
5.727695
 20
-1.289331
 30
0.0
 11
5.726265
 21
-1.288194
 31
0.0
  0
LINE
  5
6CB
330
1F
100
AcDbEntity
  8
1
  6
CONTINUOUS
370
50
 62
4
100
AcDbLine
 10
5.729127
 20
-1.290465
 30
0.0
 11
5.727695
 21
-1.289331
 31
0.0
  0
LINE
  5
6CC
330
1F
100
AcDbEntity
  8
1
  6
CONTINUOUS
370
50
 62
4
100
AcDbLine
 10
5.688543
 20
1.556631
 30
0.0
 11
5.682276
 21
1.561568
 31
0.0
  0
LINE
  5
6CD
330
1F
100
AcDbEntity
  8
1
  6
CONTINUOUS
370
50
 62
4
100
AcDbLine
 10
5.730562
 20
-1.291595
 30
0.0
 11
5.729127
 21
-1.290465
 31
0.0
  0
LINE
  5
6CE
330
1F
100
AcDbEntity
  8
1
  6
CONTINUOUS
370
50
 62
4
100
AcDbLine
 10
5.731999999999999
 20
-1.292722
 30
0.0
 11
5.730562
 21
-1.291595
 31
0.0
  0
LINE
  5
6CF
330
1F
100
AcDbEntity
  8
1
  6
CONTINUOUS
370
50
 62
4
100
AcDbLine
 10
5.695024
 20
1.551707
 30
0.0
 11
5.688543
 21
1.556631
 31
0.0
  0
LINE
  5
6D0
330
1F
100
AcDbEntity
  8
1
  6
CONTINUOUS
370
50
 62
4
100
AcDbLine
 10
4.502167
 20
-1.8876
 30
0.0
 11
4.437571999999999
 21
-1.839953
 31
0.0
  0
LINE
  5
6D1
330
1F
100
AcDbEntity
  8
1
  6
CONTINUOUS
370
50
 62
4
100
AcDbLine
 10
5.701664999999999
 20
1.546818
 30
0.0
 11
5.695024
 21
1.551707
 31
0.0
  0
LINE
  5
6D2
330
1F
100
AcDbEntity
  8
1
  6
CONTINUOUS
370
50
 62
4
100
AcDbLine
 10
16.649288
 20
0.04235
 30
0.0
 11
16.646999
 21
0.043995
 31
0.0
  0
LINE
  5
6D3
330
1F
100
AcDbEntity
  8
1
  6
CONTINUOUS
370
50
 62
4
100
AcDbLine
 10
16.651577
 20
0.040707
 30
0.0
 11
16.649288
 21
0.04235
 31
0.0
  0
LINE
  5
6D4
330
1F
100
AcDbEntity
  8
1
  6
CONTINUOUS
370
50
 62
4
100
AcDbLine
 10
5.708411
 20
1.541985
 30
0.0
 11
5.701664999999999
 21
1.546818
 31
0.0
  0
LINE
  5
6D5
330
1F
100
AcDbEntity
  8
1
  6
CONTINUOUS
370
50
 62
4
100
AcDbLine
 10
16.653868
 20
0.039069
 30
0.0
 11
16.651577
 21
0.040707
 31
0.0
  0
LINE
  5
6D6
330
1F
100
AcDbEntity
  8
1
  6
CONTINUOUS
370
50
 62
4
100
AcDbLine
 10
16.656157
 20
0.037434
 30
0.0
 11
16.653868
 21
0.039069
 31
0.0
  0
LINE
  5
6D7
330
1F
100
AcDbEntity
  8
1
  6
CONTINUOUS
370
50
 62
4
100
AcDbLine
 10
16.658449
 20
0.035802
 30
0.0
 11
16.656157
 21
0.037434
 31
0.0
  0
LINE
  5
6D8
330
1F
100
AcDbEntity
  8
1
  6
CONTINUOUS
370
50
 62
4
100
AcDbLine
 10
16.66074
 20
0.034174
 30
0.0
 11
16.658449
 21
0.035802
 31
0.0
  0
LINE
  5
6D9
330
1F
100
AcDbEntity
  8
1
  6
CONTINUOUS
370
50
 62
4
100
AcDbLine
 10
16.663033
 20
0.032549
 30
0.0
 11
16.66074
 21
0.034174
 31
0.0
  0
LINE
  5
6DA
330
1F
100
AcDbEntity
  8
1
  6
CONTINUOUS
370
50
 62
4
100
AcDbLine
 10
9.33732
 20
-0.773428
 30
0.0
 11
8.234477
 21
0.0
 31
0.0
  0
LINE
  5
6DB
330
1F
100
AcDbEntity
  8
1
  6
CONTINUOUS
370
50
 62
4
100
AcDbLine
 10
16.646999
 20
0.043995
 30
0.0
 11
15.541955
 21
0.817114
 31
0.0
  0
LINE
  5
6DC
330
1F
100
AcDbEntity
  8
1
  6
CONTINUOUS
370
50
 62
4
100
AcDbLine
 10
5.715208
 20
1.537231
 30
0.0
 11
5.708411
 21
1.541985
 31
0.0
  0
LINE
  5
6DD
330
1F
100
AcDbEntity
  8
1
  6
CONTINUOUS
370
50
 62
4
100
AcDbLine
 10
13.840604
 20
-0.782781
 30
0.0
 11
13.459043
 21
-0.517069
 31
0.0
  0
LINE
  5
6DE
330
1F
100
AcDbEntity
  8
1
  6
CONTINUOUS
370
50
 62
4
100
AcDbLine
 10
13.459043
 20
-0.517069
 30
0.0
 11
12.715993
 21
-0.000008
 31
0.0
  0
LINE
  5
6DF
330
1F
100
AcDbEntity
  8
1
  6
CONTINUOUS
370
50
 62
4
100
AcDbLine
 10
8.727542999999999
 20
-0.6635719999999999
 30
0.0
 11
8.609777
 21
-0.5821189999999999
 31
0.0
  0
LINE
  5
6E0
330
1F
100
AcDbEntity
  8
1
  6
CONTINUOUS
370
50
 62
4
100
AcDbLine
 10
8.609777
 20
-0.5821189999999999
 30
0.0
 11
8.491804
 21
-0.500742
 31
0.0
  0
LINE
  5
6E1
330
1F
100
AcDbEntity
  8
1
  6
CONTINUOUS
370
50
 62
4
100
AcDbLine
 10
8.856095999999999
 20
-0.7521749999999999
 30
0.0
 11
8.727542999999999
 21
-0.6635719999999999
 31
0.0
  0
LINE
  5
6E2
330
1F
100
AcDbEntity
  8
1
  6
CONTINUOUS
370
50
 62
4
100
AcDbLine
 10
12.235266
 20
0.0
 30
0.0
 11
11.438672
 21
0.548692
 31
0.0
  0
LINE
  5
6E3
330
1F
100
AcDbEntity
  8
1
  6
CONTINUOUS
370
50
 62
4
100
AcDbLine
 10
8.491804
 20
-0.500742
 30
0.0
 11
8.373263
 21
-0.419219
 31
0.0
  0
LINE
  5
6E4
330
1F
100
AcDbEntity
  8
1
  6
CONTINUOUS
370
50
 62
4
100
AcDbLine
 10
16.105621
 20
0.737142
 30
0.0
 11
16.027624
 21
0.7906409999999999
 31
0.0
  0
LINE
  5
6E5
330
1F
100
AcDbEntity
  8
1
  6
CONTINUOUS
370
50
 62
4
100
AcDbLine
 10
16.182199
 20
0.6846209999999999
 30
0.0
 11
16.105621
 21
0.737142
 31
0.0
  0
LINE
  5
6E6
330
1F
100
AcDbEntity
  8
1
  6
CONTINUOUS
370
50
 62
4
100
AcDbLine
 10
16.259058
 20
0.6319319999999999
 30
0.0
 11
16.182199
 21
0.6846209999999999
 31
0.0
  0
LINE
  5
6E7
330
1F
100
AcDbEntity
  8
1
  6
CONTINUOUS
370
50
 62
4
100
AcDbLine
 10
8.373263
 20
-0.419219
 30
0.0
 11
8.254271
 21
-0.337656
 31
0.0
  0
LINE
  5
6E8
330
1F
100
AcDbEntity
  8
1
  6
CONTINUOUS
370
50
 62
4
100
AcDbLine
 10
8.234477
 20
0.0
 30
0.0
 11
8.033685
 21
0.137599
 31
0.0
  0
LINE
  5
6E9
330
1F
100
AcDbEntity
  8
1
  6
CONTINUOUS
370
50
 62
4
100
AcDbLine
 10
5.722
 20
1.532578
 30
0.0
 11
5.715208
 21
1.537231
 31
0.0
  0
LINE
  5
6EA
330
1F
100
AcDbEntity
  8
1
  6
CONTINUOUS
370
50
 62
4
100
AcDbLine
 10
16.336182
 20
0.579104
 30
0.0
 11
16.259058
 21
0.6319319999999999
 31
0.0
  0
LINE
  5
6EB
330
1F
100
AcDbEntity
  8
1
  6
CONTINUOUS
370
50
 62
4
100
AcDbLine
 10
16.413555
 20
0.526169
 30
0.0
 11
16.336182
 21
0.579104
 31
0.0
  0
LINE
  5
6EC
330
1F
100
AcDbEntity
  8
1
  6
CONTINUOUS
370
50
 62
4
100
AcDbLine
 10
16.491159
 20
0.473158
 30
0.0
 11
16.413555
 21
0.526169
 31
0.0
  0
LINE
  5
6ED
330
1F
100
AcDbEntity
  8
1
  6
CONTINUOUS
370
50
 62
4
100
AcDbLine
 10
8.254271
 20
-0.337656
 30
0.0
 11
8.134945
 21
-0.256163
 31
0.0
  0
LINE
  5
6EE
330
1F
100
AcDbEntity
  8
1
  6
CONTINUOUS
370
50
 62
4
100
AcDbLine
 10
16.568979
 20
0.420103
 30
0.0
 11
16.491159
 21
0.473158
 31
0.0
  0
LINE
  5
6EF
330
1F
100
AcDbEntity
  8
1
  6
CONTINUOUS
370
50
 62
4
100
AcDbLine
 10
11.438672
 20
0.548692
 30
0.0
 11
10.933232
 21
0.892894
 31
0.0
  0
LINE
  5
6F0
330
1F
100
AcDbEntity
  8
1
  6
CONTINUOUS
370
50
 62
4
100
AcDbLine
 10
8.134945
 20
-0.256163
 30
0.0
 11
8.015158
 21
-0.17466
 31
0.0
  0
LINE
  5
6F1
330
1F
100
AcDbEntity
  8
1
  6
CONTINUOUS
370
50
 62
4
100
AcDbLine
 10
7.034173
 20
0.488329
 30
0.0
 11
6.819001999999999
 21
0.634697
 31
0.0
  0
LINE
  5
6F2
330
1F
100
AcDbEntity
  8
1
  6
CONTINUOUS
370
50
 62
4
100
AcDbLine
 10
16.646999
 20
0.367035
 30
0.0
 11
16.568979
 21
0.420103
 31
0.0
  0
LINE
  5
6F3
330
1F
100
AcDbEntity
  8
1
  6
CONTINUOUS
370
50
 62
4
100
AcDbLine
 10
16.027624
 20
0.7906409999999999
 30
0.0
 11
15.931507
 21
0.855961
 31
0.0
  0
LINE
  5
6F4
330
1F
100
AcDbEntity
  8
1
  6
CONTINUOUS
370
50
 62
4
100
AcDbLine
 10
6.819001999999999
 20
0.634697
 30
0.0
 11
6.627257999999999
 21
0.7649889999999999
 31
0.0
  0
LINE
  5
6F5
330
1F
100
AcDbEntity
  8
1
  6
CONTINUOUS
370
50
 62
4
100
AcDbLine
 10
8.015158
 20
-0.17466
 30
0.0
 11
7.894682
 21
-0.092936
 31
0.0
  0
LINE
  5
6F6
330
1F
100
AcDbEntity
  8
1
  6
CONTINUOUS
370
50
 62
4
100
AcDbLine
 10
12.715993
 20
-0.000008
 30
0.0
 11
12.554677
 21
0.109397
 31
0.0
  0
LINE
  5
6F7
330
1F
100
AcDbEntity
  8
1
  6
CONTINUOUS
370
50
 62
4
100
AcDbLine
 10
12.243907
 20
-0.005855
 30
0.0
 11
12.241027
 21
-0.003903
 31
0.0
  0
LINE
  5
6F8
330
1F
100
AcDbEntity
  8
1
  6
CONTINUOUS
370
50
 62
4
100
AcDbLine
 10
12.238146
 20
-0.001952
 30
0.0
 11
12.235266
 21
0.0
 31
0.0
  0
LINE
  5
6F9
330
1F
100
AcDbEntity
  8
1
  6
CONTINUOUS
370
50
 62
4
100
AcDbLine
 10
12.249669
 20
-0.009758
 30
0.0
 11
12.246788
 21
-0.007806
 31
0.0
  0
LINE
  5
6FA
330
1F
100
AcDbEntity
  8
1
  6
CONTINUOUS
370
50
 62
4
100
AcDbLine
 10
5.723655
 20
1.531516
 30
0.0
 11
5.722
 21
1.532637
 31
0.0
  0
LINE
  5
6FB
330
1F
100
AcDbEntity
  8
1
  6
CONTINUOUS
370
50
 62
4
100
AcDbLine
 10
12.25255
 20
-0.011709
 30
0.0
 11
12.249669
 21
-0.009758
 31
0.0
  0
LINE
  5
6FC
330
1F
100
AcDbEntity
  8
1
  6
CONTINUOUS
370
50
 62
4
100
AcDbLine
 10
12.246788
 20
-0.007806
 30
0.0
 11
12.243907
 21
-0.005855
 31
0.0
  0
LINE
  5
6FD
330
1F
100
AcDbEntity
  8
1
  6
CONTINUOUS
370
50
 62
4
100
AcDbLine
 10
12.241027
 20
-0.003903
 30
0.0
 11
12.238146
 21
-0.001952
 31
0.0
  0
LINE
  5
6FE
330
1F
100
AcDbEntity
  8
1
  6
CONTINUOUS
370
50
 62
4
100
AcDbLine
 10
7.894682
 20
-0.092936
 30
0.0
 11
7.773736
 21
-0.011088
 31
0.0
  0
LINE
  5
6FF
330
1F
100
AcDbEntity
  8
1
  6
CONTINUOUS
370
50
 62
4
100
AcDbLine
 10
8.033685
 20
0.137599
 30
0.0
 11
7.814134999999999
 21
0.286146
 31
0.0
  0
LINE
  5
700
330
1F
100
AcDbEntity
  8
1
  6
CONTINUOUS
370
50
 62
4
100
AcDbLine
 10
7.771001
 20
-0.00924
 30
0.0
 11
7.768267
 21
-0.007391
 31
0.0
  0
LINE
  5
701
330
1F
100
AcDbEntity
  8
1
  6
CONTINUOUS
370
50
 62
4
100
AcDbLine
 10
7.762797
 20
-0.003694
 30
0.0
 11
7.760063
 21
-0.001845
 31
0.0
  0
LINE
  5
702
330
1F
100
AcDbEntity
  8
1
  6
CONTINUOUS
370
50
 62
4
100
AcDbLine
 10
7.271408
 20
0.327914
 30
0.0
 11
7.034173
 21
0.488329
 31
0.0
  0
LINE
  5
703
330
1F
100
AcDbEntity
  8
1
  6
CONTINUOUS
370
50
 62
4
100
AcDbLine
 10
7.765531999999999
 20
-0.005543
 30
0.0
 11
7.762797
 21
-0.003694
 31
0.0
  0
LINE
  5
704
330
1F
100
AcDbEntity
  8
1
  6
CONTINUOUS
370
50
 62
4
100
AcDbLine
 10
12.443508
 20
-0.140737
 30
0.0
 11
12.25255
 21
-0.011709
 31
0.0
  0
LINE
  5
705
330
1F
100
AcDbEntity
  8
1
  6
CONTINUOUS
370
50
 62
4
100
AcDbLine
 10
7.773736
 20
-0.011088
 30
0.0
 11
7.771001
 21
-0.00924
 31
0.0
  0
LINE
  5
706
330
1F
100
AcDbEntity
  8
1
  6
CONTINUOUS
370
50
 62
4
100
AcDbLine
 10
7.768267
 20
-0.007391
 30
0.0
 11
7.765531999999999
 21
-0.005543
 31
0.0
  0
LINE
  5
707
330
1F
100
AcDbEntity
  8
1
  6
CONTINUOUS
370
50
 62
4
100
AcDbLine
 10
7.757327999999999
 20
0.000003
 30
0.0
 11
7.513883
 21
0.164349
 31
0.0
  0
LINE
  5
708
330
1F
100
AcDbEntity
  8
1
  6
CONTINUOUS
370
50
 62
4
100
AcDbLine
 10
5.725315
 20
1.530396
 30
0.0
 11
5.723655
 21
1.531516
 31
0.0
  0
LINE
  5
709
330
1F
100
AcDbEntity
  8
1
  6
CONTINUOUS
370
50
 62
4
100
AcDbLine
 10
7.513883
 20
0.164349
 30
0.0
 11
7.271408
 21
0.327914
 31
0.0
  0
LINE
  5
70A
330
1F
100
AcDbEntity
  8
1
  6
CONTINUOUS
370
50
 62
4
100
AcDbLine
 10
7.760063
 20
-0.001845
 30
0.0
 11
7.757325
 21
0.0
 31
0.0
  0
LINE
  5
70B
330
1F
100
AcDbEntity
  8
1
  6
CONTINUOUS
370
50
 62
4
100
AcDbLine
 10
9.00071
 20
-0.849592
 30
0.0
 11
8.856095999999999
 21
-0.7521749999999999
 31
0.0
  0
LINE
  5
70C
330
1F
100
AcDbEntity
  8
1
  6
CONTINUOUS
370
50
 62
4
100
AcDbLine
 10
12.554677
 20
0.109397
 30
0.0
 11
12.392888
 21
0.218361
 31
0.0
  0
LINE
  5
70D
330
1F
100
AcDbEntity
  8
1
  6
CONTINUOUS
370
50
 62
4
100
AcDbLine
 10
12.634476
 20
-0.269305
 30
0.0
 11
12.443508
 21
-0.140737
 31
0.0
  0
LINE
  5
70E
330
1F
100
AcDbEntity
  8
1
  6
CONTINUOUS
370
50
 62
4
100
AcDbLine
 10
12.824575
 20
-0.397014
 30
0.0
 11
12.634476
 21
-0.269305
 31
0.0
  0
LINE
  5
70F
330
1F
100
AcDbEntity
  8
1
  6
CONTINUOUS
370
50
 62
4
100
AcDbLine
 10
5.72698
 20
1.529278
 30
0.0
 11
5.725315
 21
1.530396
 31
0.0
  0
LINE
  5
710
330
1F
100
AcDbEntity
  8
1
  6
CONTINUOUS
370
50
 62
4
100
AcDbLine
 10
13.013009
 20
-0.523523
 30
0.0
 11
12.824575
 21
-0.397014
 31
0.0
  0
LINE
  5
711
330
1F
100
AcDbEntity
  8
1
  6
CONTINUOUS
370
50
 62
4
100
AcDbLine
 10
13.200188
 20
-0.649177
 30
0.0
 11
13.013009
 21
-0.523523
 31
0.0
  0
LINE
  5
712
330
1F
100
AcDbEntity
  8
1
  6
CONTINUOUS
370
50
 62
4
100
AcDbLine
 10
6.627257999999999
 20
0.7649889999999999
 30
0.0
 11
6.457127
 21
0.8791249999999999
 31
0.0
  0
LINE
  5
713
330
1F
100
AcDbEntity
  8
1
  6
CONTINUOUS
370
50
 62
4
100
AcDbLine
 10
13.386097
 20
-0.7737689999999999
 30
0.0
 11
13.200188
 21
-0.649177
 31
0.0
  0
LINE
  5
714
330
1F
100
AcDbEntity
  8
1
  6
CONTINUOUS
370
50
 62
4
100
AcDbLine
 10
12.392888
 20
0.218361
 30
0.0
 11
12.231181
 21
0.326644
 31
0.0
  0
LINE
  5
715
330
1F
100
AcDbEntity
  8
1
  6
CONTINUOUS
370
50
 62
4
100
AcDbLine
 10
5.728649
 20
1.528161
 30
0.0
 11
5.72698
 21
1.529278
 31
0.0
  0
LINE
  5
716
330
1F
100
AcDbEntity
  8
1
  6
CONTINUOUS
370
50
 62
4
100
AcDbLine
 10
13.572986
 20
-0.8985569999999999
 30
0.0
 11
13.386097
 21
-0.7737689999999999
 31
0.0
  0
LINE
  5
717
330
1F
100
AcDbEntity
  8
1
  6
CONTINUOUS
370
50
 62
4
100
AcDbLine
 10
12.231181
 20
0.326644
 30
0.0
 11
12.070109
 21
0.434008
 31
0.0
  0
LINE
  5
718
330
1F
100
AcDbEntity
  8
1
  6
CONTINUOUS
370
50
 62
4
100
AcDbLine
 10
5.730322999999999
 20
1.527046
 30
0.0
 11
5.728649
 21
1.528161
 31
0.0
  0
LINE
  5
719
330
1F
100
AcDbEntity
  8
1
  6
CONTINUOUS
370
50
 62
4
100
AcDbLine
 10
12.070109
 20
0.434008
 30
0.0
 11
11.910126
 21
0.5402819999999999
 31
0.0
  0
LINE
  5
71A
330
1F
100
AcDbEntity
  8
1
  6
CONTINUOUS
370
50
 62
4
100
AcDbLine
 10
7.814134999999999
 20
0.286146
 30
0.0
 11
7.579914
 21
0.441712
 31
0.0
  0
LINE
  5
71B
330
1F
100
AcDbEntity
  8
1
  6
CONTINUOUS
370
50
 62
4
100
AcDbLine
 10
5.731999999999999
 20
1.525933
 30
0.0
 11
5.730322999999999
 21
1.527046
 31
0.0
  0
LINE
  5
71C
330
1F
100
AcDbEntity
  8
1
  6
CONTINUOUS
370
50
 62
4
100
AcDbLine
 10
11.910126
 20
0.5402819999999999
 30
0.0
 11
11.750788
 21
0.645848
 31
0.0
  0
LINE
  5
71D
330
1F
100
AcDbEntity
  8
1
  6
CONTINUOUS
370
50
 62
4
100
AcDbLine
 10
11.750788
 20
0.645848
 30
0.0
 11
11.592216
 21
0.75059
 31
0.0
  0
LINE
  5
71E
330
1F
100
AcDbEntity
  8
1
  6
CONTINUOUS
370
50
 62
4
100
AcDbLine
 10
15.931507
 20
0.855961
 30
0.0
 11
15.813345
 21
0.933977
 31
0.0
  0
LINE
  5
71F
330
1F
100
AcDbEntity
  8
1
  6
CONTINUOUS
370
50
 62
4
100
AcDbLine
 10
11.592216
 20
0.75059
 30
0.0
 11
11.434707
 21
0.854258
 31
0.0
  0
LINE
  5
720
330
1F
100
AcDbEntity
  8
1
  6
CONTINUOUS
370
50
 62
4
100
AcDbLine
 10
7.773736
 20
-0.011092
 30
0.0
 11
7.773707
 21
-0.011073
 31
0.0
  0
LINE
  5
721
330
1F
100
AcDbEntity
  8
1
  6
CONTINUOUS
370
50
 62
4
100
AcDbLine
 10
7.579914
 20
0.441712
 30
0.0
 11
7.343556
 21
0.5964389999999999
 31
0.0
  0
LINE
  5
722
330
1F
100
AcDbEntity
  8
1
  6
CONTINUOUS
370
50
 62
4
100
AcDbLine
 10
11.434707
 20
0.854258
 30
0.0
 11
11.274241
 21
0.959204
 31
0.0
  0
LINE
  5
723
330
1F
100
AcDbEntity
  8
1
  6
CONTINUOUS
370
50
 62
4
100
AcDbLine
 10
6.457127
 20
0.8791249999999999
 30
0.0
 11
6.306769
 21
0.9770409999999999
 31
0.0
  0
LINE
  5
724
330
1F
100
AcDbEntity
  8
1
  6
CONTINUOUS
370
50
 62
4
100
AcDbLine
 10
9.16222
 20
-0.954194
 30
0.0
 11
9.00071
 21
-0.849592
 31
0.0
  0
LINE
  5
725
330
1F
100
AcDbEntity
  8
1
  6
CONTINUOUS
370
50
 62
4
100
AcDbLine
 10
7.343556
 20
0.5964389999999999
 30
0.0
 11
7.107404
 21
0.74895
 31
0.0
  0
LINE
  5
726
330
1F
100
AcDbEntity
  8
1
  6
CONTINUOUS
370
50
 62
4
100
AcDbLine
 10
13.848707
 20
-1.07495
 30
0.0
 11
13.572986
 21
-0.8985569999999999
 31
0.0
  0
LINE
  5
727
330
1F
100
AcDbEntity
  8
1
  6
CONTINUOUS
370
50
 62
4
100
AcDbLine
 10
7.107404
 20
0.74895
 30
0.0
 11
6.873038999999999
 21
0.898334
 31
0.0
  0
LINE
  5
728
330
1F
100
AcDbEntity
  8
1
  6
CONTINUOUS
370
50
 62
4
100
AcDbLine
 10
11.274241
 20
0.959204
 30
0.0
 11
11.105261
 21
1.06663
 31
0.0
  0
LINE
  5
729
330
1F
100
AcDbEntity
  8
1
  6
CONTINUOUS
370
50
 62
4
100
AcDbLine
 10
14.158287
 20
-0.984405
 30
0.0
 11
13.840604
 21
-0.782781
 31
0.0
  0
LINE
  5
72A
330
1F
100
AcDbEntity
  8
1
  6
CONTINUOUS
370
50
 62
4
100
AcDbLine
 10
4.564629
 20
-1.927198
 30
0.0
 11
4.502167
 21
-1.8876
 31
0.0
  0
LINE
  5
72B
330
1F
100
AcDbEntity
  8
1
  6
CONTINUOUS
370
50
 62
4
100
AcDbLine
 10
7.773707
 20
-0.011073
 30
0.0
 11
7.773676999999999
 21
-0.011054
 31
0.0
  0
LINE
  5
72C
330
1F
100
AcDbEntity
  8
1
  6
CONTINUOUS
370
50
 62
4
100
AcDbLine
 10
15.813345
 20
0.933977
 30
0.0
 11
15.673512
 21
1.022496
 31
0.0
  0
LINE
  5
72D
330
1F
100
AcDbEntity
  8
1
  6
CONTINUOUS
370
50
 62
4
100
AcDbLine
 10
6.873038999999999
 20
0.898334
 30
0.0
 11
6.643084
 21
1.043134
 31
0.0
  0
LINE
  5
72E
330
1F
100
AcDbEntity
  8
1
  6
CONTINUOUS
370
50
 62
4
100
AcDbLine
 10
5.492413
 20
1.679396
 30
0.0
 11
5.407938
 21
1.73255
 31
0.0
  0
LINE
  5
72F
330
1F
100
AcDbEntity
  8
1
  6
CONTINUOUS
370
50
 62
4
100
AcDbLine
 10
5.407938
 20
1.73255
 30
0.0
 11
5.327698
 21
1.782989
 31
0.0
  0
LINE
  5
730
330
1F
100
AcDbEntity
  8
1
  6
CONTINUOUS
370
50
 62
4
100
AcDbLine
 10
5.581676
 20
1.623915
 30
0.0
 11
5.492413
 21
1.679396
 31
0.0
  0
LINE
  5
731
330
1F
100
AcDbEntity
  8
1
  6
CONTINUOUS
370
50
 62
4
100
AcDbLine
 10
6.306769
 20
0.9770409999999999
 30
0.0
 11
6.16426
 21
1.065522
 31
0.0
  0
LINE
  5
732
330
1F
100
AcDbEntity
  8
1
  6
CONTINUOUS
370
50
 62
4
100
AcDbLine
 10
7.773676999999999
 20
-0.011054
 30
0.0
 11
7.773648
 21
-0.011036
 31
0.0
  0
LINE
  5
733
330
1F
100
AcDbEntity
  8
1
  6
CONTINUOUS
370
50
 62
4
100
AcDbLine
 10
5.327698
 20
1.782989
 30
0.0
 11
5.251404
 21
1.830115
 31
0.0
  0
LINE
  5
734
330
1F
100
AcDbEntity
  8
1
  6
CONTINUOUS
370
50
 62
4
100
AcDbLine
 10
16.663033
 20
0.032548
 30
0.0
 11
16.653633
 21
0.038342
 31
0.0
  0
LINE
  5
735
330
1F
100
AcDbEntity
  8
1
  6
CONTINUOUS
370
50
 62
4
100
AcDbLine
 10
16.653633
 20
0.038342
 30
0.0
 11
16.642925
 21
0.04493
 31
0.0
  0
LINE
  5
736
330
1F
100
AcDbEntity
  8
1
  6
CONTINUOUS
370
50
 62
4
100
AcDbLine
 10
6.643084
 20
1.043134
 30
0.0
 11
6.422136999999999
 21
1.179066
 31
0.0
  0
LINE
  5
737
330
1F
100
AcDbEntity
  8
1
  6
CONTINUOUS
370
50
 62
4
100
AcDbLine
 10
9.341467
 20
-1.064349
 30
0.0
 11
9.16222
 21
-0.954194
 31
0.0
  0
LINE
  5
738
330
1F
100
AcDbEntity
  8
1
  6
CONTINUOUS
370
50
 62
4
100
AcDbLine
 10
16.642925
 20
0.04493
 30
0.0
 11
16.630444
 21
0.0526
 31
0.0
  0
LINE
  5
739
330
1F
100
AcDbEntity
  8
1
  6
CONTINUOUS
370
50
 62
4
100
AcDbLine
 10
16.630444
 20
0.0526
 30
0.0
 11
16.615919
 21
0.061516
 31
0.0
  0
LINE
  5
73A
330
1F
100
AcDbEntity
  8
1
  6
CONTINUOUS
370
50
 62
4
100
AcDbLine
 10
16.615919
 20
0.061516
 30
0.0
 11
16.599117
 21
0.071823
 31
0.0
  0
LINE
  5
73B
330
1F
100
AcDbEntity
  8
1
  6
CONTINUOUS
370
50
 62
4
100
AcDbLine
 10
16.599117
 20
0.071823
 30
0.0
 11
16.579912
 21
0.083596
 31
0.0
  0
LINE
  5
73C
330
1F
100
AcDbEntity
  8
1
  6
CONTINUOUS
370
50
 62
4
100
AcDbLine
 10
16.579912
 20
0.083596
 30
0.0
 11
16.558064
 21
0.096983
 31
0.0
  0
LINE
  5
73D
330
1F
100
AcDbEntity
  8
1
  6
CONTINUOUS
370
50
 62
4
100
AcDbLine
 10
16.558064
 20
0.096983
 30
0.0
 11
16.533319
 21
0.11214
 31
0.0
  0
LINE
  5
73E
330
1F
100
AcDbEntity
  8
1
  6
CONTINUOUS
370
50
 62
4
100
AcDbLine
 10
16.533319
 20
0.11214
 30
0.0
 11
16.505438
 21
0.129213
 31
0.0
  0
LINE
  5
73F
330
1F
100
AcDbEntity
  8
1
  6
CONTINUOUS
370
50
 62
4
100
AcDbLine
 10
16.505438
 20
0.129213
 30
0.0
 11
16.474367
 21
0.148235
 31
0.0
  0
LINE
  5
740
330
1F
100
AcDbEntity
  8
1
  6
CONTINUOUS
370
50
 62
4
100
AcDbLine
 10
16.474367
 20
0.148235
 30
0.0
 11
16.440071
 21
0.16923
 31
0.0
  0
LINE
  5
741
330
1F
100
AcDbEntity
  8
1
  6
CONTINUOUS
370
50
 62
4
100
AcDbLine
 10
16.440071
 20
0.16923
 30
0.0
 11
16.402494
 21
0.19223
 31
0.0
  0
LINE
  5
742
330
1F
100
AcDbEntity
  8
1
  6
CONTINUOUS
370
50
 62
4
100
AcDbLine
 10
16.402494
 20
0.19223
 30
0.0
 11
16.361591
 21
0.217265
 31
0.0
  0
LINE
  5
743
330
1F
100
AcDbEntity
  8
1
  6
CONTINUOUS
370
50
 62
4
100
AcDbLine
 10
16.31769
 20
0.244133
 30
0.0
 11
16.274546
 21
0.270538
 31
0.0
  0
LINE
  5
744
330
1F
100
AcDbEntity
  8
1
  6
CONTINUOUS
370
50
 62
4
100
AcDbLine
 10
16.361591
 20
0.217265
 30
0.0
 11
16.31769
 21
0.244133
 31
0.0
  0
LINE
  5
745
330
1F
100
AcDbEntity
  8
1
  6
CONTINUOUS
370
50
 62
4
100
AcDbLine
 10
16.067202
 20
0.397432
 30
0.0
 11
16.017891
 21
0.427611
 31
0.0
  0
LINE
  5
746
330
1F
100
AcDbEntity
  8
1
  6
CONTINUOUS
370
50
 62
4
100
AcDbLine
 10
16.017891
 20
0.427611
 30
0.0
 11
15.973895
 21
0.454537
 31
0.0
  0
LINE
  5
747
330
1F
100
AcDbEntity
  8
1
  6
CONTINUOUS
370
50
 62
4
100
AcDbLine
 10
16.117399
 20
0.366711
 30
0.0
 11
16.067202
 21
0.397432
 31
0.0
  0
LINE
  5
748
330
1F
100
AcDbEntity
  8
1
  6
CONTINUOUS
370
50
 62
4
100
AcDbLine
 10
16.228172
 20
0.298918
 30
0.0
 11
16.172543
 21
0.332963
 31
0.0
  0
LINE
  5
749
330
1F
100
AcDbEntity
  8
1
  6
CONTINUOUS
370
50
 62
4
100
AcDbLine
 10
16.172543
 20
0.332963
 30
0.0
 11
16.117399
 21
0.366711
 31
0.0
  0
LINE
  5
74A
330
1F
100
AcDbEntity
  8
1
  6
CONTINUOUS
370
50
 62
4
100
AcDbLine
 10
15.973895
 20
0.454537
 30
0.0
 11
15.936125
 21
0.477652
 31
0.0
  0
LINE
  5
74B
330
1F
100
AcDbEntity
  8
1
  6
CONTINUOUS
370
50
 62
4
100
AcDbLine
 10
16.274546
 20
0.270538
 30
0.0
 11
16.228172
 21
0.298918
 31
0.0
  0
LINE
  5
74C
330
1F
100
AcDbEntity
  8
1
  6
CONTINUOUS
370
50
 62
4
100
AcDbLine
 10
15.936125
 20
0.477652
 30
0.0
 11
15.898288
 21
0.500807
 31
0.0
  0
LINE
  5
74D
330
1F
100
AcDbEntity
  8
1
  6
CONTINUOUS
370
50
 62
4
100
AcDbLine
 10
16.71734
 20
-0.000569
 30
0.0
 11
16.716408
 21
0.0
 31
0.0
  0
LINE
  5
74E
330
1F
100
AcDbEntity
  8
1
  6
CONTINUOUS
370
50
 62
4
100
AcDbLine
 10
16.722
 20
-0.003411
 30
0.0
 11
16.721069
 21
-0.002843
 31
0.0
  0
LINE
  5
74F
330
1F
100
AcDbEntity
  8
1
  6
CONTINUOUS
370
50
 62
4
100
AcDbLine
 10
16.720137
 20
-0.002275
 30
0.0
 11
16.719206
 21
-0.001707
 31
0.0
  0
LINE
  5
750
330
1F
100
AcDbEntity
  8
1
  6
CONTINUOUS
370
50
 62
4
100
AcDbLine
 10
16.670746
 20
0.027845
 30
0.0
 11
16.663033
 21
0.032549
 31
0.0
  0
LINE
  5
751
330
1F
100
AcDbEntity
  8
1
  6
CONTINUOUS
370
50
 62
4
100
AcDbLine
 10
16.686085
 20
0.018491
 30
0.0
 11
16.678431
 21
0.023159
 31
0.0
  0
LINE
  5
752
330
1F
100
AcDbEntity
  8
1
  6
CONTINUOUS
370
50
 62
4
100
AcDbLine
 10
16.701303
 20
0.00921
 30
0.0
 11
16.693708
 21
0.013842
 31
0.0
  0
LINE
  5
753
330
1F
100
AcDbEntity
  8
1
  6
CONTINUOUS
370
50
 62
4
100
AcDbLine
 10
16.693708
 20
0.013842
 30
0.0
 11
16.686085
 21
0.018491
 31
0.0
  0
LINE
  5
754
330
1F
100
AcDbEntity
  8
1
  6
CONTINUOUS
370
50
 62
4
100
AcDbLine
 10
16.719206
 20
-0.001707
 30
0.0
 11
16.71734
 21
-0.000569
 31
0.0
  0
LINE
  5
755
330
1F
100
AcDbEntity
  8
1
  6
CONTINUOUS
370
50
 62
4
100
AcDbLine
 10
16.678431
 20
0.023159
 30
0.0
 11
16.670746
 21
0.027845
 31
0.0
  0
LINE
  5
756
330
1F
100
AcDbEntity
  8
1
  6
CONTINUOUS
370
50
 62
4
100
AcDbLine
 10
16.70887
 20
0.004596
 30
0.0
 11
16.701303
 21
0.00921
 31
0.0
  0
LINE
  5
757
330
1F
100
AcDbEntity
  8
1
  6
CONTINUOUS
370
50
 62
4
100
AcDbLine
 10
16.716408
 20
0.0
 30
0.0
 11
16.70887
 21
0.004596
 31
0.0
  0
LINE
  5
758
330
1F
100
AcDbEntity
  8
1
  6
CONTINUOUS
370
50
 62
4
100
AcDbLine
 10
16.721069
 20
-0.002843
 30
0.0
 11
16.720137
 21
-0.002275
 31
0.0
  0
LINE
  5
759
330
1F
100
AcDbEntity
  8
1
  6
CONTINUOUS
370
50
 62
4
100
AcDbLine
 10
5.676279
 20
1.566496
 30
0.0
 11
5.581676
 21
1.623915
 31
0.0
  0
LINE
  5
75A
330
1F
100
AcDbEntity
  8
1
  6
CONTINUOUS
370
50
 62
4
100
AcDbLine
 10
11.105261
 20
1.06663
 30
0.0
 11
10.923959
 21
1.175927
 31
0.0
  0
LINE
  5
75B
330
1F
100
AcDbEntity
  8
1
  6
CONTINUOUS
370
50
 62
4
100
AcDbLine
 10
15.673512
 20
1.022496
 30
0.0
 11
15.512383
 21
1.119322
 31
0.0
  0
LINE
  5
75C
330
1F
100
AcDbEntity
  8
1
  6
CONTINUOUS
370
50
 62
4
100
AcDbLine
 10
7.773648
 20
-0.011036
 30
0.0
 11
7.773618
 21
-0.011018
 31
0.0
  0
LINE
  5
75D
330
1F
100
AcDbEntity
  8
1
  6
CONTINUOUS
370
50
 62
4
100
AcDbLine
 10
10.933232
 20
0.892894
 30
0.0
 11
10.479414
 21
1.164533
 31
0.0
  0
LINE
  5
75E
330
1F
100
AcDbEntity
  8
1
  6
CONTINUOUS
370
50
 62
4
100
AcDbLine
 10
5.251404
 20
1.830115
 30
0.0
 11
5.179753
 21
1.872486
 31
0.0
  0
LINE
  5
75F
330
1F
100
AcDbEntity
  8
1
  6
CONTINUOUS
370
50
 62
4
100
AcDbLine
 10
6.16426
 20
1.065522
 30
0.0
 11
6.020816
 21
1.150212
 31
0.0
  0
LINE
  5
760
330
1F
100
AcDbEntity
  8
1
  6
CONTINUOUS
370
50
 62
4
100
AcDbLine
 10
10.165916
 20
-1.257313
 30
0.0
 11
9.33732
 21
-0.773428
 31
0.0
  0
LINE
  5
761
330
1F
100
AcDbEntity
  8
1
  6
CONTINUOUS
370
50
 62
4
100
AcDbLine
 10
14.478999
 20
-1.169763
 30
0.0
 11
14.158287
 21
-0.984405
 31
0.0
  0
LINE
  5
762
330
1F
100
AcDbEntity
  8
1
  6
CONTINUOUS
370
50
 62
4
100
AcDbLine
 10
1.722051
 20
1.99995
 30
0.0
 11
-0.01
 21
2.99995
 31
0.0
  0
LINE
  5
763
330
1F
100
AcDbEntity
  8
1
  6
CONTINUOUS
370
50
 62
4
100
AcDbLine
 10
9.539287
 20
-1.178425
 30
0.0
 11
9.341467
 21
-1.064349
 31
0.0
  0
LINE
  5
764
330
1F
100
AcDbEntity
  8
1
  6
CONTINUOUS
370
50
 62
4
100
AcDbLine
 10
6.422136999999999
 20
1.179066
 30
0.0
 11
6.196955
 21
1.307961
 31
0.0
  0
LINE
  5
765
330
1F
100
AcDbEntity
  8
1
  6
CONTINUOUS
370
50
 62
4
100
AcDbLine
 10
5.216737
 20
1.851363
 30
0.0
 11
5.179753
 21
1.872517
 31
0.0
  0
LINE
  5
766
330
1F
100
AcDbEntity
  8
1
  6
CONTINUOUS
370
50
 62
4
100
AcDbLine
 10
5.253756999999999
 20
1.830262
 30
0.0
 11
5.216737
 21
1.851363
 31
0.0
  0
LINE
  5
767
330
1F
100
AcDbEntity
  8
1
  6
CONTINUOUS
370
50
 62
4
100
AcDbLine
 10
5.29081
 20
1.809214
 30
0.0
 11
5.253756999999999
 21
1.830262
 31
0.0
  0
LINE
  5
768
330
1F
100
AcDbEntity
  8
1
  6
CONTINUOUS
370
50
 62
4
100
AcDbLine
 10
14.252175
 20
-1.303413
 30
0.0
 11
13.848707
 21
-1.07495
 31
0.0
  0
LINE
  5
769
330
1F
100
AcDbEntity
  8
1
  6
CONTINUOUS
370
50
 62
4
100
AcDbLine
 10
15.512383
 20
1.119322
 30
0.0
 11
15.330331
 21
1.22226
 31
0.0
  0
LINE
  5
76A
330
1F
100
AcDbEntity
  8
1
  6
CONTINUOUS
370
50
 62
4
100
AcDbLine
 10
5.38697
 20
1.755222
 30
0.0
 11
5.29081
 21
1.809214
 31
0.0
  0
LINE
  5
76B
330
1F
100
AcDbEntity
  8
1
  6
CONTINUOUS
370
50
 62
4
100
AcDbLine
 10
6.020816
 20
1.150212
 30
0.0
 11
5.876657
 21
1.231076
 31
0.0
  0
LINE
  5
76C
330
1F
100
AcDbEntity
  8
1
  6
CONTINUOUS
370
50
 62
4
100
AcDbLine
 10
10.923959
 20
1.175927
 30
0.0
 11
10.726533
 21
1.286485
 31
0.0
  0
LINE
  5
76D
330
1F
100
AcDbEntity
  8
1
  6
CONTINUOUS
370
50
 62
4
100
AcDbLine
 10
5.554236
 20
1.661983
 30
0.0
 11
5.38697
 21
1.755222
 31
0.0
  0
LINE
  5
76E
330
1F
100
AcDbEntity
  8
1
  6
CONTINUOUS
370
50
 62
4
100
AcDbLine
 10
15.541955
 20
0.817114
 30
0.0
 11
14.407127
 21
1.44553
 31
0.0
  0
LINE
  5
76F
330
1F
100
AcDbEntity
  8
1
  6
CONTINUOUS
370
50
 62
4
100
AcDbLine
 10
5.722
 20
1.569536
 30
0.0
 11
5.554236
 21
1.661983
 31
0.0
  0
LINE
  5
770
330
1F
100
AcDbEntity
  8
1
  6
CONTINUOUS
370
50
 62
4
100
AcDbLine
 10
5.179753
 20
1.872486
 30
0.0
 11
5.110907
 21
1.910211
 31
0.0
  0
LINE
  5
771
330
1F
100
AcDbEntity
  8
1
  6
CONTINUOUS
370
50
 62
4
100
AcDbLine
 10
5.728657
 20
1.565911
 30
0.0
 11
5.726980999999999
 21
1.566824
 31
0.0
  0
LINE
  5
772
330
1F
100
AcDbEntity
  8
1
  6
CONTINUOUS
370
50
 62
4
100
AcDbLine
 10
5.725314
 20
1.567731
 30
0.0
 11
5.723657999999999
 21
1.568633
 31
0.0
  0
LINE
  5
773
330
1F
100
AcDbEntity
  8
1
  6
CONTINUOUS
370
50
 62
4
100
AcDbLine
 10
5.723657999999999
 20
1.568633
 30
0.0
 11
5.722
 21
1.569536
 31
0.0
  0
LINE
  5
774
330
1F
100
AcDbEntity
  8
1
  6
CONTINUOUS
370
50
 62
4
100
AcDbLine
 10
5.731999999999999
 20
1.564091
 30
0.0
 11
5.730328999999999
 21
1.565001
 31
0.0
  0
LINE
  5
775
330
1F
100
AcDbEntity
  8
1
  6
CONTINUOUS
370
50
 62
4
100
AcDbLine
 10
5.730328999999999
 20
1.565001
 30
0.0
 11
5.728657
 21
1.565911
 31
0.0
  0
LINE
  5
776
330
1F
100
AcDbEntity
  8
1
  6
CONTINUOUS
370
50
 62
4
100
AcDbLine
 10
5.726980999999999
 20
1.566824
 30
0.0
 11
5.725314
 21
1.567731
 31
0.0
  0
LINE
  5
777
330
1F
100
AcDbEntity
  8
1
  6
CONTINUOUS
370
50
 62
4
100
AcDbLine
 10
9.749596
 20
-1.29148
 30
0.0
 11
9.539287
 21
-1.178425
 31
0.0
  0
LINE
  5
778
330
1F
100
AcDbEntity
  8
1
  6
CONTINUOUS
370
50
 62
4
100
AcDbLine
 10
5.876657
 20
1.231076
 30
0.0
 11
5.731999999999999
 21
1.308077
 31
0.0
  0
LINE
  5
779
330
1F
100
AcDbEntity
  8
1
  6
CONTINUOUS
370
50
 62
4
100
AcDbLine
 10
15.330331
 20
1.22226
 30
0.0
 11
15.129603
 21
1.328175
 31
0.0
  0
LINE
  5
77A
330
1F
100
AcDbEntity
  8
1
  6
CONTINUOUS
370
50
 62
4
100
AcDbLine
 10
11.602752
 20
0.32339
 30
0.0
 11
11.277851
 21
0.494263
 31
0.0
  0
LINE
  5
77B
330
1F
100
AcDbEntity
  8
1
  6
CONTINUOUS
370
50
 62
4
100
AcDbLine
 10
14.79925
 20
-1.338028
 30
0.0
 11
14.478999
 21
-1.169763
 31
0.0
  0
LINE
  5
77C
330
1F
100
AcDbEntity
  8
1
  6
CONTINUOUS
370
50
 62
4
100
AcDbLine
 10
15.975776
 20
0.389134
 30
0.0
 11
15.658613
 21
0.555203
 31
0.0
  0
LINE
  5
77D
330
1F
100
AcDbEntity
  8
1
  6
CONTINUOUS
370
50
 62
4
100
AcDbLine
 10
7.773618
 20
-0.011018
 30
0.0
 11
7.773594999999999
 21
-0.011006
 31
0.0
  0
LINE
  5
77E
330
1F
100
AcDbEntity
  8
1
  6
CONTINUOUS
370
50
 62
4
100
AcDbLine
 10
11.927655
 20
0.154734
 30
0.0
 11
11.602752
 21
0.32339
 31
0.0
  0
LINE
  5
77F
330
1F
100
AcDbEntity
  8
1
  6
CONTINUOUS
370
50
 62
4
100
AcDbLine
 10
10.479414
 20
1.164533
 30
0.0
 11
10.018157
 21
1.403562
 31
0.0
  0
LINE
  5
780
330
1F
100
AcDbEntity
  8
1
  6
CONTINUOUS
370
50
 62
4
100
AcDbLine
 10
6.196955
 20
1.307961
 30
0.0
 11
5.965358999999999
 21
1.427671
 31
0.0
  0
LINE
  5
781
330
1F
100
AcDbEntity
  8
1
  6
CONTINUOUS
370
50
 62
4
100
AcDbLine
 10
10.726533
 20
1.286485
 30
0.0
 11
10.515287
 21
1.395141
 31
0.0
  0
LINE
  5
782
330
1F
100
AcDbEntity
  8
1
  6
CONTINUOUS
370
50
 62
4
100
AcDbLine
 10
4.62574
 20
-1.95849
 30
0.0
 11
4.564629
 21
-1.927198
 31
0.0
  0
LINE
  5
783
330
1F
100
AcDbEntity
  8
1
  6
CONTINUOUS
370
50
 62
4
100
AcDbLine
 10
12.252555
 20
-0.011574
 30
0.0
 11
11.927655
 21
0.154734
 31
0.0
  0
LINE
  5
784
330
1F
100
AcDbEntity
  8
1
  6
CONTINUOUS
370
50
 62
4
100
AcDbLine
 10
11.277851
 20
0.494263
 30
0.0
 11
10.952962
 21
0.660192
 31
0.0
  0
LINE
  5
785
330
1F
100
AcDbEntity
  8
1
  6
CONTINUOUS
370
50
 62
4
100
AcDbLine
 10
7.093153
 20
0.33474
 30
0.0
 11
6.752852
 21
0.508271
 31
0.0
  0
LINE
  5
786
330
1F
100
AcDbEntity
  8
1
  6
CONTINUOUS
370
50
 62
4
100
AcDbLine
 10
7.433451
 20
0.161578
 30
0.0
 11
7.093153
 21
0.33474
 31
0.0
  0
LINE
  5
787
330
1F
100
AcDbEntity
  8
1
  6
CONTINUOUS
370
50
 62
4
100
AcDbLine
 10
6.752852
 20
0.508271
 30
0.0
 11
6.41256
 21
0.68138
 31
0.0
  0
LINE
  5
788
330
1F
100
AcDbEntity
  8
1
  6
CONTINUOUS
370
50
 62
4
100
AcDbLine
 10
7.773741999999999
 20
-0.011245
 30
0.0
 11
7.433451
 21
0.161578
 31
0.0
  0
LINE
  5
789
330
1F
100
AcDbEntity
  8
1
  6
CONTINUOUS
370
50
 62
4
100
AcDbLine
 10
6.156193
 20
-1.493608
 30
0.0
 11
5.731999999999999
 21
-1.280725
 31
0.0
  0
LINE
  5
78A
330
1F
100
AcDbEntity
  8
1
  6
CONTINUOUS
370
50
 62
4
100
AcDbLine
 10
9.961720999999999
 20
-1.397715
 30
0.0
 11
9.749596
 21
-1.29148
 31
0.0
  0
LINE
  5
78B
330
1F
100
AcDbEntity
  8
1
  6
CONTINUOUS
370
50
 62
4
100
AcDbLine
 10
15.129603
 20
1.328175
 30
0.0
 11
14.924772
 21
1.428584
 31
0.0
  0
LINE
  5
78C
330
1F
100
AcDbEntity
  8
1
  6
CONTINUOUS
370
50
 62
4
100
AcDbLine
 10
5.110907
 20
1.910211
 30
0.0
 11
5.04556
 21
1.941945
 31
0.0
  0
LINE
  5
78D
330
1F
100
AcDbEntity
  8
1
  6
CONTINUOUS
370
50
 62
4
100
AcDbLine
 10
15.658613
 20
0.555203
 30
0.0
 11
15.341453
 21
0.707506
 31
0.0
  0
LINE
  5
78E
330
1F
100
AcDbEntity
  8
1
  6
CONTINUOUS
370
50
 62
4
100
AcDbLine
 10
14.735967
 20
-1.534177
 30
0.0
 11
14.252175
 21
-1.303413
 31
0.0
  0
LINE
  5
78F
330
1F
100
AcDbEntity
  8
1
  6
CONTINUOUS
370
50
 62
4
100
AcDbLine
 10
15.119186
 20
-1.490576
 30
0.0
 11
14.79925
 21
-1.338028
 31
0.0
  0
LINE
  5
790
330
1F
100
AcDbEntity
  8
1
  6
CONTINUOUS
370
50
 62
4
100
AcDbLine
 10
10.933268
 20
-1.621807
 30
0.0
 11
10.165916
 21
-1.257313
 31
0.0
  0
LINE
  5
791
330
1F
100
AcDbEntity
  8
1
  6
CONTINUOUS
370
50
 62
4
100
AcDbLine
 10
10.515287
 20
1.395141
 30
0.0
 11
10.297812
 21
1.497685
 31
0.0
  0
LINE
  5
792
330
1F
100
AcDbEntity
  8
1
  6
CONTINUOUS
370
50
 62
4
100
AcDbLine
 10
6.41256
 20
0.68138
 30
0.0
 11
6.072278
 21
0.841125
 31
0.0
  0
LINE
  5
793
330
1F
100
AcDbEntity
  8
1
  6
CONTINUOUS
370
50
 62
4
100
AcDbLine
 10
10.174356
 20
-1.496704
 30
0.0
 11
9.961720999999999
 21
-1.397715
 31
0.0
  0
LINE
  5
794
330
1F
100
AcDbEntity
  8
1
  6
CONTINUOUS
370
50
 62
4
100
AcDbLine
 10
5.965358999999999
 20
1.427671
 30
0.0
 11
5.731999999999999
 21
1.536016
 31
0.0
  0
LINE
  5
795
330
1F
100
AcDbEntity
  8
1
  6
CONTINUOUS
370
50
 62
4
100
AcDbLine
 10
10.952962
 20
0.660192
 30
0.0
 11
10.62808
 21
0.810657
 31
0.0
  0
LINE
  5
796
330
1F
100
AcDbEntity
  8
1
  6
CONTINUOUS
370
50
 62
4
100
AcDbLine
 10
14.924772
 20
1.428584
 30
0.0
 11
14.719834
 21
1.521714
 31
0.0
  0
LINE
  5
797
330
1F
100
AcDbEntity
  8
1
  6
CONTINUOUS
370
50
 62
4
100
AcDbLine
 10
6.564452999999999
 20
-1.675445
 30
0.0
 11
6.156193
 21
-1.493608
 31
0.0
  0
LINE
  5
798
330
1F
100
AcDbEntity
  8
1
  6
CONTINUOUS
370
50
 62
4
100
AcDbLine
 10
10.018157
 20
1.403562
 30
0.0
 11
9.557786
 21
1.608338
 31
0.0
  0
LINE
  5
799
330
1F
100
AcDbEntity
  8
1
  6
CONTINUOUS
370
50
 62
4
100
AcDbLine
 10
15.341453
 20
0.707506
 30
0.0
 11
15.024289
 21
0.8470639999999999
 31
0.0
  0
LINE
  5
79A
330
1F
100
AcDbEntity
  8
1
  6
CONTINUOUS
370
50
 62
4
100
AcDbLine
 10
5.892284999999999
 20
-1.582748
 30
0.0
 11
5.731999999999999
 21
-1.51279
 31
0.0
  0
LINE
  5
79B
330
1F
100
AcDbEntity
  8
1
  6
CONTINUOUS
370
50
 62
4
100
AcDbLine
 10
10.386285
 20
-1.588071
 30
0.0
 11
10.174356
 21
-1.496704
 31
0.0
  0
LINE
  5
79C
330
1F
100
AcDbEntity
  8
1
  6
CONTINUOUS
370
50
 62
4
100
AcDbLine
 10
15.425816
 20
-1.622766
 30
0.0
 11
15.119186
 21
-1.490576
 31
0.0
  0
LINE
  5
79D
330
1F
100
AcDbEntity
  8
1
  6
CONTINUOUS
370
50
 62
4
100
AcDbLine
 10
10.297812
 20
1.497685
 30
0.0
 11
10.075462
 21
1.59324
 31
0.0
  0
LINE
  5
79E
330
1F
100
AcDbEntity
  8
1
  6
CONTINUOUS
370
50
 62
4
100
AcDbLine
 10
14.719834
 20
1.521714
 30
0.0
 11
14.514647
 21
1.607946
 31
0.0
  0
LINE
  5
79F
330
1F
100
AcDbEntity
  8
1
  6
CONTINUOUS
370
50
 62
4
100
AcDbLine
 10
10.62808
 20
0.810657
 30
0.0
 11
10.303196
 21
0.946529
 31
0.0
  0
LINE
  5
7A0
330
1F
100
AcDbEntity
  8
1
  6
CONTINUOUS
370
50
 62
4
100
AcDbLine
 10
6.072278
 20
0.841125
 30
0.0
 11
5.731999999999999
 21
0.982738
 31
0.0
  0
LINE
  5
7A1
330
1F
100
AcDbEntity
  8
1
  6
CONTINUOUS
370
50
 62
4
100
AcDbLine
 10
6.051931
 20
-1.64856
 30
0.0
 11
5.892284999999999
 21
-1.582748
 31
0.0
  0
LINE
  5
7A2
330
1F
100
AcDbEntity
  8
1
  6
CONTINUOUS
370
50
 62
4
100
AcDbLine
 10
14.407127
 20
1.44553
 30
0.0
 11
13.569845
 21
1.787824
 31
0.0
  0
LINE
  5
7A3
330
1F
100
AcDbEntity
  8
1
  6
CONTINUOUS
370
50
 62
4
100
AcDbLine
 10
5.04556
 20
1.941945
 30
0.0
 11
4.982945
 21
1.967234
 31
0.0
  0
LINE
  5
7A4
330
1F
100
AcDbEntity
  8
1
  6
CONTINUOUS
370
50
 62
4
100
AcDbLine
 10
15.024289
 20
0.8470639999999999
 30
0.0
 11
14.707118
 21
0.9749789999999999
 31
0.0
  0
LINE
  5
7A5
330
1F
100
AcDbEntity
  8
1
  6
CONTINUOUS
370
50
 62
4
100
AcDbLine
 10
6.585285
 20
-0.152672
 30
0.0
 11
6.219898
 21
-0.005929
 31
0.0
  0
LINE
  5
7A6
330
1F
100
AcDbEntity
  8
1
  6
CONTINUOUS
370
50
 62
4
100
AcDbLine
 10
10.596358
 20
-1.671463
 30
0.0
 11
10.386285
 21
-1.588071
 31
0.0
  0
LINE
  5
7A7
330
1F
100
AcDbEntity
  8
1
  6
CONTINUOUS
370
50
 62
4
100
AcDbLine
 10
11.386924
 20
-0.271333
 30
0.0
 11
11.04901
 21
-0.137599
 31
0.0
  0
LINE
  5
7A8
330
1F
100
AcDbEntity
  8
1
  6
CONTINUOUS
370
50
 62
4
100
AcDbLine
 10
11.441529
 20
-0.292921
 30
0.0
 11
11.075324
 21
-0.148383
 31
0.0
  0
LINE
  5
7A9
330
1F
100
AcDbEntity
  8
1
  6
CONTINUOUS
370
50
 62
4
100
AcDbLine
 10
6.219898
 20
-0.005929
 30
0.0
 11
6.138585
 21
0.025963
 31
0.0
  0
LINE
  5
7AA
330
1F
100
AcDbEntity
  8
1
  6
CONTINUOUS
370
50
 62
4
100
AcDbLine
 10
16.063814
 20
-0.340489
 30
0.0
 11
15.854611
 21
-0.258592
 31
0.0
  0
LINE
  5
7AB
330
1F
100
AcDbEntity
  8
1
  6
CONTINUOUS
370
50
 62
4
100
AcDbLine
 10
16.060108
 20
-0.339569
 30
0.0
 11
15.843198
 21
-0.254754
 31
0.0
  0
LINE
  5
7AC
330
1F
100
AcDbEntity
  8
1
  6
CONTINUOUS
370
50
 62
4
100
AcDbLine
 10
15.221705
 20
-1.723564
 30
0.0
 11
14.735967
 21
-1.534177
 31
0.0
  0
LINE
  5
7AD
330
1F
100
AcDbEntity
  8
1
  6
CONTINUOUS
370
50
 62
4
100
AcDbLine
 10
11.075324
 20
-0.148383
 30
0.0
 11
10.709007
 21
-0.005691
 31
0.0
  0
LINE
  5
7AE
330
1F
100
AcDbEntity
  8
1
  6
CONTINUOUS
370
50
 62
4
100
AcDbLine
 10
10.075462
 20
1.59324
 30
0.0
 11
9.849559
 21
1.680947
 31
0.0
  0
LINE
  5
7AF
330
1F
100
AcDbEntity
  8
1
  6
CONTINUOUS
370
50
 62
4
100
AcDbLine
 10
6.138585
 20
0.025963
 30
0.0
 11
6.057269
 21
0.057528
 31
0.0
  0
LINE
  5
7B0
330
1F
100
AcDbEntity
  8
1
  6
CONTINUOUS
370
50
 62
4
100
AcDbLine
 10
15.843198
 20
-0.254754
 30
0.0
 11
15.626245
 21
-0.170574
 31
0.0
  0
LINE
  5
7B1
330
1F
100
AcDbEntity
  8
1
  6
CONTINUOUS
370
50
 62
4
100
AcDbLine
 10
15.854611
 20
-0.258592
 30
0.0
 11
15.635845
 21
-0.173728
 31
0.0
  0
LINE
  5
7B2
330
1F
100
AcDbEntity
  8
1
  6
CONTINUOUS
370
50
 62
4
100
AcDbLine
 10
11.04901
 20
-0.137599
 30
0.0
 11
10.709125
 21
-0.005758
 31
0.0
  0
LINE
  5
7B3
330
1F
100
AcDbEntity
  8
1
  6
CONTINUOUS
370
50
 62
4
100
AcDbLine
 10
15.684218
 20
-1.722998
 30
0.0
 11
15.425816
 21
-1.622766
 31
0.0
  0
LINE
  5
7B4
330
1F
100
AcDbEntity
  8
1
  6
CONTINUOUS
370
50
 62
4
100
AcDbLine
 10
6.21064
 20
-1.709919
 30
0.0
 11
6.051931
 21
-1.64856
 31
0.0
  0
LINE
  5
7B5
330
1F
100
AcDbEntity
  8
1
  6
CONTINUOUS
370
50
 62
4
100
AcDbLine
 10
14.514647
 20
1.607946
 30
0.0
 11
14.30904
 21
1.687342
 31
0.0
  0
LINE
  5
7B6
330
1F
100
AcDbEntity
  8
1
  6
CONTINUOUS
370
50
 62
4
100
AcDbLine
 10
6.950553999999999
 20
-0.293371
 30
0.0
 11
6.585285
 21
-0.152672
 31
0.0
  0
LINE
  5
7B7
330
1F
100
AcDbEntity
  8
1
  6
CONTINUOUS
370
50
 62
4
100
AcDbLine
 10
6.057269
 20
0.057528
 30
0.0
 11
5.975950999999999
 21
0.088767
 31
0.0
  0
LINE
  5
7B8
330
1F
100
AcDbEntity
  8
1
  6
CONTINUOUS
370
50
 62
4
100
AcDbLine
 10
15.626245
 20
-0.170574
 30
0.0
 11
15.409284
 21
-0.087572
 31
0.0
  0
LINE
  5
7B9
330
1F
100
AcDbEntity
  8
1
  6
CONTINUOUS
370
50
 62
4
100
AcDbLine
 10
15.635845
 20
-0.173728
 30
0.0
 11
15.41561
 21
-0.089691
 31
0.0
  0
LINE
  5
7BA
330
1F
100
AcDbEntity
  8
1
  6
CONTINUOUS
370
50
 62
4
100
AcDbLine
 10
5.975950999999999
 20
0.088767
 30
0.0
 11
5.894633
 21
0.119685
 31
0.0
  0
LINE
  5
7BB
330
1F
100
AcDbEntity
  8
1
  6
CONTINUOUS
370
50
 62
4
100
AcDbLine
 10
10.303196
 20
0.946529
 30
0.0
 11
9.978304999999999
 21
1.069028
 31
0.0
  0
LINE
  5
7BC
330
1F
100
AcDbEntity
  8
1
  6
CONTINUOUS
370
50
 62
4
100
AcDbLine
 10
15.409284
 20
-0.087572
 30
0.0
 11
15.192337
 21
-0.005883
 31
0.0
  0
LINE
  5
7BD
330
1F
100
AcDbEntity
  8
1
  6
CONTINUOUS
370
50
 62
4
100
AcDbLine
 10
9.557786
 20
1.608338
 30
0.0
 11
9.147351
 21
1.762811
 31
0.0
  0
LINE
  5
7BE
330
1F
100
AcDbEntity
  8
1
  6
CONTINUOUS
370
50
 62
4
100
AcDbLine
 10
5.894633
 20
0.119685
 30
0.0
 11
5.813315999999999
 21
0.150282
 31
0.0
  0
LINE
  5
7BF
330
1F
100
AcDbEntity
  8
1
  6
CONTINUOUS
370
50
 62
4
100
AcDbLine
 10
15.41561
 20
-0.089691
 30
0.0
 11
15.192569
 21
-0.005835
 31
0.0
  0
LINE
  5
7C0
330
1F
100
AcDbEntity
  8
1
  6
CONTINUOUS
370
50
 62
4
100
AcDbLine
 10
10.709007
 20
-0.005691
 30
0.0
 11
10.325356
 21
0.138383
 31
0.0
  0
LINE
  5
7C1
330
1F
100
AcDbEntity
  8
1
  6
CONTINUOUS
370
50
 62
4
100
AcDbLine
 10
16.278053
 20
-0.420942
 30
0.0
 11
16.063814
 21
-0.340489
 31
0.0
  0
LINE
  5
7C2
330
1F
100
AcDbEntity
  8
1
  6
CONTINUOUS
370
50
 62
4
100
AcDbLine
 10
4.686279
 20
-1.981218
 30
0.0
 11
4.62574
 21
-1.95849
 31
0.0
  0
LINE
  5
7C3
330
1F
100
AcDbEntity
  8
1
  6
CONTINUOUS
370
50
 62
4
100
AcDbLine
 10
16.276953
 20
-0.42083
 30
0.0
 11
16.060108
 21
-0.339569
 31
0.0
  0
LINE
  5
7C4
330
1F
100
AcDbEntity
  8
1
  6
CONTINUOUS
370
50
 62
4
100
AcDbLine
 10
5.813315999999999
 20
0.150282
 30
0.0
 11
5.732002
 21
0.180562
 31
0.0
  0
LINE
  5
7C5
330
1F
100
AcDbEntity
  8
1
  6
CONTINUOUS
370
50
 62
4
100
AcDbLine
 10
11.753881
 20
-0.407923
 30
0.0
 11
11.386924
 21
-0.271333
 31
0.0
  0
LINE
  5
7C6
330
1F
100
AcDbEntity
  8
1
  6
CONTINUOUS
370
50
 62
4
100
AcDbLine
 10
14.707118
 20
0.9749789999999999
 30
0.0
 11
14.389937
 21
1.092348
 31
0.0
  0
LINE
  5
7C7
330
1F
100
AcDbEntity
  8
1
  6
CONTINUOUS
370
50
 62
4
100
AcDbLine
 10
15.192337
 20
-0.005883
 30
0.0
 11
14.808153
 21
0.136084
 31
0.0
  0
LINE
  5
7C8
330
1F
100
AcDbEntity
  8
1
  6
CONTINUOUS
370
50
 62
4
100
AcDbLine
 10
11.807637
 20
-0.427185
 30
0.0
 11
11.441529
 21
-0.292921
 31
0.0
  0
LINE
  5
7C9
330
1F
100
AcDbEntity
  8
1
  6
CONTINUOUS
370
50
 62
4
100
AcDbLine
 10
14.808153
 20
0.136084
 30
0.0
 11
14.424081
 21
0.275687
 31
0.0
  0
LINE
  5
7CA
330
1F
100
AcDbEntity
  8
1
  6
CONTINUOUS
370
50
 62
4
100
AcDbLine
 10
10.325356
 20
0.138383
 30
0.0
 11
9.941782
 21
0.277552
 31
0.0
  0
LINE
  5
7CB
330
1F
100
AcDbEntity
  8
1
  6
CONTINUOUS
370
50
 62
4
100
AcDbLine
 10
10.804941
 20
-1.746975
 30
0.0
 11
10.596358
 21
-1.671463
 31
0.0
  0
LINE
  5
7CC
330
1F
100
AcDbEntity
  8
1
  6
CONTINUOUS
370
50
 62
4
100
AcDbLine
 10
14.424081
 20
0.275687
 30
0.0
 11
14.040103
 21
0.413817
 31
0.0
  0
LINE
  5
7CD
330
1F
100
AcDbEntity
  8
1
  6
CONTINUOUS
370
50
 62
4
100
AcDbLine
 10
6.369555
 20
-1.767019
 30
0.0
 11
6.21064
 21
-1.709919
 31
0.0
  0
LINE
  5
7CE
330
1F
100
AcDbEntity
  8
1
  6
CONTINUOUS
370
50
 62
4
100
AcDbLine
 10
7.315798
 20
-0.424287
 30
0.0
 11
6.950553999999999
 21
-0.293371
 31
0.0
  0
LINE
  5
7CF
330
1F
100
AcDbEntity
  8
1
  6
CONTINUOUS
370
50
 62
4
100
AcDbLine
 10
11.543944
 20
-1.840561
 30
0.0
 11
10.933268
 21
-1.621807
 31
0.0
  0
LINE
  5
7D0
330
1F
100
AcDbEntity
  8
1
  6
CONTINUOUS
370
50
 62
4
100
AcDbLine
 10
14.040103
 20
0.413817
 30
0.0
 11
13.656103
 21
0.550416
 31
0.0
  0
LINE
  5
7D1
330
1F
100
AcDbEntity
  8
1
  6
CONTINUOUS
370
50
 62
4
100
AcDbLine
 10
16.493866
 20
-0.497308
 30
0.0
 11
16.278053
 21
-0.420942
 31
0.0
  0
LINE
  5
7D2
330
1F
100
AcDbEntity
  8
1
  6
CONTINUOUS
370
50
 62
4
100
AcDbLine
 10
16.49375
 20
-0.497468
 30
0.0
 11
16.276953
 21
-0.42083
 31
0.0
  0
LINE
  5
7D3
330
1F
100
AcDbEntity
  8
1
  6
CONTINUOUS
370
50
 62
4
100
AcDbLine
 10
9.941782
 20
0.277552
 30
0.0
 11
9.558304999999999
 21
0.412845
 31
0.0
  0
LINE
  5
7D4
330
1F
100
AcDbEntity
  8
1
  6
CONTINUOUS
370
50
 62
4
100
AcDbLine
 10
14.30904
 20
1.687342
 30
0.0
 11
14.103971
 21
1.759288
 31
0.0
  0
LINE
  5
7D5
330
1F
100
AcDbEntity
  8
1
  6
CONTINUOUS
370
50
 62
4
100
AcDbLine
 10
6.492567999999999
 20
1.309765
 30
0.0
 11
6.441956999999999
 21
1.327349
 31
0.0
  0
LINE
  5
7D6
330
1F
100
AcDbEntity
  8
1
  6
CONTINUOUS
370
50
 62
4
100
AcDbLine
 10
15.890647
 20
-1.794568
 30
0.0
 11
15.684218
 21
-1.722998
 31
0.0
  0
LINE
  5
7D7
330
1F
100
AcDbEntity
  8
1
  6
CONTINUOUS
370
50
 62
4
100
AcDbLine
 10
6.441956999999999
 20
1.327349
 30
0.0
 11
6.391306
 21
1.3449
 31
0.0
  0
LINE
  5
7D8
330
1F
100
AcDbEntity
  8
1
  6
CONTINUOUS
370
50
 62
4
100
AcDbLine
 10
9.849559
 20
1.680947
 30
0.0
 11
9.621418
 21
1.759947
 31
0.0
  0
LINE
  5
7D9
330
1F
100
AcDbEntity
  8
1
  6
CONTINUOUS
370
50
 62
4
100
AcDbLine
 10
6.982821
 20
-1.820188
 30
0.0
 11
6.564452999999999
 21
-1.675445
 31
0.0
  0
LINE
  5
7DA
330
1F
100
AcDbEntity
  8
1
  6
CONTINUOUS
370
50
 62
4
100
AcDbLine
 10
6.391306
 20
1.3449
 30
0.0
 11
6.340653
 21
1.362394
 31
0.0
  0
LINE
  5
7DB
330
1F
100
AcDbEntity
  8
1
  6
CONTINUOUS
370
50
 62
4
100
AcDbLine
 10
9.558304999999999
 20
0.412845
 30
0.0
 11
9.174873999999999
 21
0.545036
 31
0.0
  0
LINE
  5
7DC
330
1F
100
AcDbEntity
  8
1
  6
CONTINUOUS
370
50
 62
4
100
AcDbLine
 10
6.543175
 20
1.292328
 30
0.0
 11
6.492567999999999
 21
1.309765
 31
0.0
  0
LINE
  5
7DD
330
1F
100
AcDbEntity
  8
1
  6
CONTINUOUS
370
50
 62
4
100
AcDbLine
 10
6.340653
 20
1.362394
 30
0.0
 11
6.289921
 21
1.379856
 31
0.0
  0
LINE
  5
7DE
330
1F
100
AcDbEntity
  8
1
  6
CONTINUOUS
370
50
 62
4
100
AcDbLine
 10
16.028532
 20
-0.13794
 30
0.0
 11
15.952798
 21
-0.111928
 31
0.0
  0
LINE
  5
7DF
330
1F
100
AcDbEntity
  8
1
  6
CONTINUOUS
370
50
 62
4
100
AcDbLine
 10
6.289921
 20
1.379856
 30
0.0
 11
6.239188
 21
1.397257
 31
0.0
  0
LINE
  5
7E0
330
1F
100
AcDbEntity
  8
1
  6
CONTINUOUS
370
50
 62
4
100
AcDbLine
 10
6.239188
 20
1.397257
 30
0.0
 11
6.188382
 21
1.41462
 31
0.0
  0
LINE
  5
7E1
330
1F
100
AcDbEntity
  8
1
  6
CONTINUOUS
370
50
 62
4
100
AcDbLine
 10
6.575659
 20
1.281262
 30
0.0
 11
6.543175
 21
1.292328
 31
0.0
  0
LINE
  5
7E2
330
1F
100
AcDbEntity
  8
1
  6
CONTINUOUS
370
50
 62
4
100
AcDbLine
 10
6.188382
 20
1.41462
 30
0.0
 11
6.137576
 21
1.431918
 31
0.0
  0
LINE
  5
7E3
330
1F
100
AcDbEntity
  8
1
  6
CONTINUOUS
370
50
 62
4
100
AcDbLine
 10
16.104477
 20
-0.163796
 30
0.0
 11
16.028532
 21
-0.13794
 31
0.0
  0
LINE
  5
7E4
330
1F
100
AcDbEntity
  8
1
  6
CONTINUOUS
370
50
 62
4
100
AcDbLine
 10
6.137576
 20
1.431918
 30
0.0
 11
6.116562
 21
1.439054
 31
0.0
  0
LINE
  5
7E5
330
1F
100
AcDbEntity
  8
1
  6
CONTINUOUS
370
50
 62
4
100
AcDbLine
 10
12.136082
 20
-0.5375409999999999
 30
0.0
 11
11.753881
 21
-0.407923
 31
0.0
  0
LINE
  5
7E6
330
1F
100
AcDbEntity
  8
1
  6
CONTINUOUS
370
50
 62
4
100
AcDbLine
 10
6.116562
 20
1.439054
 30
0.0
 11
6.068556
 21
1.455315
 31
0.0
  0
LINE
  5
7E7
330
1F
100
AcDbEntity
  8
1
  6
CONTINUOUS
370
50
 62
4
100
AcDbLine
 10
9.978304999999999
 20
1.069028
 30
0.0
 11
9.653406
 21
1.179028
 31
0.0
  0
LINE
  5
7E8
330
1F
100
AcDbEntity
  8
1
  6
CONTINUOUS
370
50
 62
4
100
AcDbLine
 10
6.068556
 20
1.455315
 30
0.0
 11
6.02055
 21
1.471518
 31
0.0
  0
LINE
  5
7E9
330
1F
100
AcDbEntity
  8
1
  6
CONTINUOUS
370
50
 62
4
100
AcDbLine
 10
16.180523
 20
-0.189457
 30
0.0
 11
16.104477
 21
-0.163796
 31
0.0
  0
LINE
  5
7EA
330
1F
100
AcDbEntity
  8
1
  6
CONTINUOUS
370
50
 62
4
100
AcDbLine
 10
14.389937
 20
1.092348
 30
0.0
 11
14.072751
 21
1.199327
 31
0.0
  0
LINE
  5
7EB
330
1F
100
AcDbEntity
  8
1
  6
CONTINUOUS
370
50
 62
4
100
AcDbLine
 10
12.173765
 20
-0.550474
 30
0.0
 11
11.807637
 21
-0.427185
 31
0.0
  0
LINE
  5
7EC
330
1F
100
AcDbEntity
  8
1
  6
CONTINUOUS
370
50
 62
4
100
AcDbLine
 10
6.02055
 20
1.471518
 30
0.0
 11
5.972494999999999
 21
1.487681
 31
0.0
  0
LINE
  5
7ED
330
1F
100
AcDbEntity
  8
1
  6
CONTINUOUS
370
50
 62
4
100
AcDbLine
 10
11.242443
 20
1.226013
 30
0.0
 11
11.15898
 21
1.254083
 31
0.0
  0
LINE
  5
7EE
330
1F
100
AcDbEntity
  8
1
  6
CONTINUOUS
370
50
 62
4
100
AcDbLine
 10
11.15898
 20
1.254083
 30
0.0
 11
11.075429
 21
1.28213
 31
0.0
  0
LINE
  5
7EF
330
1F
100
AcDbEntity
  8
1
  6
CONTINUOUS
370
50
 62
4
100
AcDbLine
 10
5.972494999999999
 20
1.487681
 30
0.0
 11
5.924439
 21
1.503788
 31
0.0
  0
LINE
  5
7F0
330
1F
100
AcDbEntity
  8
1
  6
CONTINUOUS
370
50
 62
4
100
AcDbLine
 10
11.075429
 20
1.28213
 30
0.0
 11
11.003871
 21
1.306094
 31
0.0
  0
LINE
  5
7F1
330
1F
100
AcDbEntity
  8
1
  6
CONTINUOUS
370
50
 62
4
100
AcDbLine
 10
6.668736
 20
1.250103
 30
0.0
 11
6.575659
 21
1.281262
 31
0.0
  0
LINE
  5
7F2
330
1F
100
AcDbEntity
  8
1
  6
CONTINUOUS
370
50
 62
4
100
AcDbLine
 10
9.174873999999999
 20
0.545036
 30
0.0
 11
8.791373
 21
0.673348
 31
0.0
  0
LINE
  5
7F3
330
1F
100
AcDbEntity
  8
1
  6
CONTINUOUS
370
50
 62
4
100
AcDbLine
 10
16.256653
 20
-0.21492
 30
0.0
 11
16.180523
 21
-0.189457
 31
0.0
  0
LINE
  5
7F4
330
1F
100
AcDbEntity
  8
1
  6
CONTINUOUS
370
50
 62
4
100
AcDbLine
 10
11.003871
 20
1.306094
 30
0.0
 11
10.953256
 21
1.323008
 31
0.0
  0
LINE
  5
7F5
330
1F
100
AcDbEntity
  8
1
  6
CONTINUOUS
370
50
 62
4
100
AcDbLine
 10
5.924439
 20
1.503788
 30
0.0
 11
5.876341
 21
1.519854
 31
0.0
  0
LINE
  5
7F6
330
1F
100
AcDbEntity
  8
1
  6
CONTINUOUS
370
50
 62
4
100
AcDbLine
 10
7.681114
 20
-0.546237
 30
0.0
 11
7.315798
 21
-0.424287
 31
0.0
  0
LINE
  5
7F7
330
1F
100
AcDbEntity
  8
1
  6
CONTINUOUS
370
50
 62
4
100
AcDbLine
 10
10.953256
 20
1.323008
 30
0.0
 11
10.902641
 21
1.339891
 31
0.0
  0
LINE
  5
7F8
330
1F
100
AcDbEntity
  8
1
  6
CONTINUOUS
370
50
 62
4
100
AcDbLine
 10
13.656103
 20
0.550416
 30
0.0
 11
13.271974
 21
0.678419
 31
0.0
  0
LINE
  5
7F9
330
1F
100
AcDbEntity
  8
1
  6
CONTINUOUS
370
50
 62
4
100
AcDbLine
 10
10.902641
 20
1.339891
 30
0.0
 11
10.851961
 21
1.356763
 31
0.0
  0
LINE
  5
7FA
330
1F
100
AcDbEntity
  8
1
  6
CONTINUOUS
370
50
 62
4
100
AcDbLine
 10
5.876341
 20
1.519854
 30
0.0
 11
5.828243
 21
1.535866
 31
0.0
  0
LINE
  5
7FB
330
1F
100
AcDbEntity
  8
1
  6
CONTINUOUS
370
50
 62
4
100
AcDbLine
 10
14.17591
 20
1.735216
 30
0.0
 11
14.10397
 21
1.759126
 31
0.0
  0
LINE
  5
7FC
330
1F
100
AcDbEntity
  8
1
  6
CONTINUOUS
370
50
 62
4
100
AcDbLine
 10
10.851961
 20
1.356763
 30
0.0
 11
10.801281
 21
1.373602
 31
0.0
  0
LINE
  5
7FD
330
1F
100
AcDbEntity
  8
1
  6
CONTINUOUS
370
50
 62
4
100
AcDbLine
 10
5.828243
 20
1.535866
 30
0.0
 11
5.780101999999999
 21
1.55184
 31
0.0
  0
LINE
  5
7FE
330
1F
100
AcDbEntity
  8
1
  6
CONTINUOUS
370
50
 62
4
100
AcDbLine
 10
10.801281
 20
1.373602
 30
0.0
 11
10.750544
 21
1.390427
 31
0.0
  0
LINE
  5
7FF
330
1F
100
AcDbEntity
  8
1
  6
CONTINUOUS
370
50
 62
4
100
AcDbLine
 10
16.33288
 20
-0.240187
 30
0.0
 11
16.256653
 21
-0.21492
 31
0.0
  0
LINE
  5
800
330
1F
100
AcDbEntity
  8
1
  6
CONTINUOUS
370
50
 62
4
100
AcDbLine
 10
11.325872
 20
1.198379
 30
0.0
 11
11.242443
 21
1.226013
 31
0.0
  0
LINE
  5
801
330
1F
100
AcDbEntity
  8
1
  6
CONTINUOUS
370
50
 62
4
100
AcDbLine
 10
14.247849
 20
1.711389
 30
0.0
 11
14.17591
 21
1.735216
 31
0.0
  0
LINE
  5
802
330
1F
100
AcDbEntity
  8
1
  6
CONTINUOUS
370
50
 62
4
100
AcDbLine
 10
10.750544
 20
1.390427
 30
0.0
 11
10.699807
 21
1.407218
 31
0.0
  0
LINE
  5
803
330
1F
100
AcDbEntity
  8
1
  6
CONTINUOUS
370
50
 62
4
100
AcDbLine
 10
5.780101999999999
 20
1.55184
 30
0.0
 11
5.731961999999999
 21
1.567762
 31
0.0
  0
LINE
  5
804
330
1F
100
AcDbEntity
  8
1
  6
CONTINUOUS
370
50
 62
4
100
AcDbLine
 10
10.699807
 20
1.407218
 30
0.0
 11
10.649022
 21
1.423992
 31
0.0
  0
LINE
  5
805
330
1F
100
AcDbEntity
  8
1
  6
CONTINUOUS
370
50
 62
4
100
AcDbLine
 10
14.333534
 20
1.683115
 30
0.0
 11
14.247849
 21
1.711389
 31
0.0
  0
LINE
  5
806
330
1F
100
AcDbEntity
  8
1
  6
CONTINUOUS
370
50
 62
4
100
AcDbLine
 10
10.649022
 20
1.423992
 30
0.0
 11
10.598238
 21
1.440734
 31
0.0
  0
LINE
  5
807
330
1F
100
AcDbEntity
  8
1
  6
CONTINUOUS
370
50
 62
4
100
AcDbLine
 10
10.598238
 20
1.440734
 30
0.0
 11
10.547582
 21
1.457404
 31
0.0
  0
LINE
  5
808
330
1F
100
AcDbEntity
  8
1
  6
CONTINUOUS
370
50
 62
4
100
AcDbLine
 10
14.419217
 20
1.654951
 30
0.0
 11
14.333534
 21
1.683115
 31
0.0
  0
LINE
  5
809
330
1F
100
AcDbEntity
  8
1
  6
CONTINUOUS
370
50
 62
4
100
AcDbLine
 10
16.409184
 20
-0.265253
 30
0.0
 11
16.33288
 21
-0.240187
 31
0.0
  0
LINE
  5
80A
330
1F
100
AcDbEntity
  8
1
  6
CONTINUOUS
370
50
 62
4
100
AcDbLine
 10
10.547582
 20
1.457404
 30
0.0
 11
10.496926
 21
1.474044
 31
0.0
  0
LINE
  5
80B
330
1F
100
AcDbEntity
  8
1
  6
CONTINUOUS
370
50
 62
4
100
AcDbLine
 10
10.496926
 20
1.474044
 30
0.0
 11
10.446239
 21
1.490668
 31
0.0
  0
LINE
  5
80C
330
1F
100
AcDbEntity
  8
1
  6
CONTINUOUS
370
50
 62
4
100
AcDbLine
 10
14.504998
 20
1.626859
 30
0.0
 11
14.419217
 21
1.654951
 31
0.0
  0
LINE
  5
80D
330
1F
100
AcDbEntity
  8
1
  6
CONTINUOUS
370
50
 62
4
100
AcDbLine
 10
10.446239
 20
1.490668
 30
0.0
 11
10.395552
 21
1.507266
 31
0.0
  0
LINE
  5
80E
330
1F
100
AcDbEntity
  8
1
  6
CONTINUOUS
370
50
 62
4
100
AcDbLine
 10
10.395552
 20
1.507266
 30
0.0
 11
10.344826
 21
1.523854
 31
0.0
  0
LINE
  5
80F
330
1F
100
AcDbEntity
  8
1
  6
CONTINUOUS
370
50
 62
4
100
AcDbLine
 10
10.344826
 20
1.523854
 30
0.0
 11
10.294102
 21
1.54042
 31
0.0
  0
LINE
  5
810
330
1F
100
AcDbEntity
  8
1
  6
CONTINUOUS
370
50
 62
4
100
AcDbLine
 10
14.59078
 20
1.59886
 30
0.0
 11
14.504998
 21
1.626859
 31
0.0
  0
LINE
  5
811
330
1F
100
AcDbEntity
  8
1
  6
CONTINUOUS
370
50
 62
4
100
AcDbLine
 10
10.294102
 20
1.54042
 30
0.0
 11
10.243378
 21
1.556967
 31
0.0
  0
LINE
  5
812
330
1F
100
AcDbEntity
  8
1
  6
CONTINUOUS
370
50
 62
4
100
AcDbLine
 10
6.76193
 20
1.219715
 30
0.0
 11
6.668736
 21
1.250103
 31
0.0
  0
LINE
  5
813
330
1F
100
AcDbEntity
  8
1
  6
CONTINUOUS
370
50
 62
4
100
AcDbLine
 10
10.243378
 20
1.556967
 30
0.0
 11
10.192656
 21
1.573496
 31
0.0
  0
LINE
  5
814
330
1F
100
AcDbEntity
  8
1
  6
CONTINUOUS
370
50
 62
4
100
AcDbLine
 10
10.192656
 20
1.573496
 30
0.0
 11
10.113149
 21
1.59938
 31
0.0
  0
LINE
  5
815
330
1F
100
AcDbEntity
  8
1
  6
CONTINUOUS
370
50
 62
4
100
AcDbLine
 10
14.653347
 20
1.578492
 30
0.0
 11
14.59078
 21
1.59886
 31
0.0
  0
LINE
  5
816
330
1F
100
AcDbEntity
  8
1
  6
CONTINUOUS
370
50
 62
4
100
AcDbLine
 10
16.485544
 20
-0.290111
 30
0.0
 11
16.409184
 21
-0.265253
 31
0.0
  0
LINE
  5
817
330
1F
100
AcDbEntity
  8
1
  6
CONTINUOUS
370
50
 62
4
100
AcDbLine
 10
9.704267999999999
 20
1.732285
 30
0.0
 11
9.621402
 21
1.759239
 31
0.0
  0
LINE
  5
818
330
1F
100
AcDbEntity
  8
1
  6
CONTINUOUS
370
50
 62
4
100
AcDbLine
 10
10.113149
 20
1.59938
 30
0.0
 11
10.031643
 21
1.625888
 31
0.0
  0
LINE
  5
819
330
1F
100
AcDbEntity
  8
1
  6
CONTINUOUS
370
50
 62
4
100
AcDbLine
 10
9.787134
 20
1.705348
 30
0.0
 11
9.704267999999999
 21
1.732285
 31
0.0
  0
LINE
  5
81A
330
1F
100
AcDbEntity
  8
1
  6
CONTINUOUS
370
50
 62
4
100
AcDbLine
 10
10.031643
 20
1.625888
 30
0.0
 11
9.950137999999999
 21
1.652379
 31
0.0
  0
LINE
  5
81B
330
1F
100
AcDbEntity
  8
1
  6
CONTINUOUS
370
50
 62
4
100
AcDbLine
 10
9.868636
 20
1.678863
 30
0.0
 11
9.787134
 21
1.705348
 31
0.0
  0
LINE
  5
81C
330
1F
100
AcDbEntity
  8
1
  6
CONTINUOUS
370
50
 62
4
100
AcDbLine
 10
14.704037
 20
1.56202
 30
0.0
 11
14.653347
 21
1.578492
 31
0.0
  0
LINE
  5
81D
330
1F
100
AcDbEntity
  8
1
  6
CONTINUOUS
370
50
 62
4
100
AcDbLine
 10
9.950137999999999
 20
1.652379
 30
0.0
 11
9.868636
 21
1.678863
 31
0.0
  0
LINE
  5
81E
330
1F
100
AcDbEntity
  8
1
  6
CONTINUOUS
370
50
 62
4
100
AcDbLine
 10
15.870256
 20
1.184681
 30
0.0
 11
15.794871
 21
1.209152
 31
0.0
  0
LINE
  5
81F
330
1F
100
AcDbEntity
  8
1
  6
CONTINUOUS
370
50
 62
4
100
AcDbLine
 10
15.949487
 20
1.158963
 30
0.0
 11
15.870256
 21
1.184681
 31
0.0
  0
LINE
  5
820
330
1F
100
AcDbEntity
  8
1
  6
CONTINUOUS
370
50
 62
4
100
AcDbLine
 10
11.011996
 20
-1.814178
 30
0.0
 11
10.804941
 21
-1.746975
 31
0.0
  0
LINE
  5
821
330
1F
100
AcDbEntity
  8
1
  6
CONTINUOUS
370
50
 62
4
100
AcDbLine
 10
15.794871
 20
1.209152
 30
0.0
 11
15.719397
 21
1.233644
 31
0.0
  0
LINE
  5
822
330
1F
100
AcDbEntity
  8
1
  6
CONTINUOUS
370
50
 62
4
100
AcDbLine
 10
14.754727
 20
1.545571
 30
0.0
 11
14.704037
 21
1.56202
 31
0.0
  0
LINE
  5
823
330
1F
100
AcDbEntity
  8
1
  6
CONTINUOUS
370
50
 62
4
100
AcDbLine
 10
15.719397
 20
1.233644
 30
0.0
 11
15.643841
 21
1.258146
 31
0.0
  0
LINE
  5
824
330
1F
100
AcDbEntity
  8
1
  6
CONTINUOUS
370
50
 62
4
100
AcDbLine
 10
6.546609999999999
 20
-1.824433
 30
0.0
 11
6.369555
 21
-1.767019
 31
0.0
  0
LINE
  5
825
330
1F
100
AcDbEntity
  8
1
  6
CONTINUOUS
370
50
 62
4
100
AcDbLine
 10
14.805419
 20
1.529142
 30
0.0
 11
14.754727
 21
1.545571
 31
0.0
  0
LINE
  5
826
330
1F
100
AcDbEntity
  8
1
  6
CONTINUOUS
370
50
 62
4
100
AcDbLine
 10
15.643841
 20
1.258146
 30
0.0
 11
15.568208
 21
1.282652
 31
0.0
  0
LINE
  5
827
330
1F
100
AcDbEntity
  8
1
  6
CONTINUOUS
370
50
 62
4
100
AcDbLine
 10
15.568208
 20
1.282652
 30
0.0
 11
15.516379
 21
1.299432
 31
0.0
  0
LINE
  5
828
330
1F
100
AcDbEntity
  8
1
  6
CONTINUOUS
370
50
 62
4
100
AcDbLine
 10
14.856112
 20
1.512731
 30
0.0
 11
14.805419
 21
1.529142
 31
0.0
  0
LINE
  5
829
330
1F
100
AcDbEntity
  8
1
  6
CONTINUOUS
370
50
 62
4
100
AcDbLine
 10
15.516379
 20
1.299432
 30
0.0
 11
15.464553
 21
1.316201
 31
0.0
  0
LINE
  5
82A
330
1F
100
AcDbEntity
  8
1
  6
CONTINUOUS
370
50
 62
4
100
AcDbLine
 10
14.906806
 20
1.496335
 30
0.0
 11
14.856112
 21
1.512731
 31
0.0
  0
LINE
  5
82B
330
1F
100
AcDbEntity
  8
1
  6
CONTINUOUS
370
50
 62
4
100
AcDbLine
 10
15.464553
 20
1.316201
 30
0.0
 11
15.417083
 21
1.331552
 31
0.0
  0
LINE
  5
82C
330
1F
100
AcDbEntity
  8
1
  6
CONTINUOUS
370
50
 62
4
100
AcDbLine
 10
15.417083
 20
1.331552
 30
0.0
 11
15.369614
 21
1.346894
 31
0.0
  0
LINE
  5
82D
330
1F
100
AcDbEntity
  8
1
  6
CONTINUOUS
370
50
 62
4
100
AcDbLine
 10
14.957502
 20
1.47995
 30
0.0
 11
14.906806
 21
1.496335
 31
0.0
  0
LINE
  5
82E
330
1F
100
AcDbEntity
  8
1
  6
CONTINUOUS
370
50
 62
4
100
AcDbLine
 10
15.369614
 20
1.346894
 30
0.0
 11
15.322105
 21
1.362241
 31
0.0
  0
LINE
  5
82F
330
1F
100
AcDbEntity
  8
1
  6
CONTINUOUS
370
50
 62
4
100
AcDbLine
 10
15.0082
 20
1.463575
 30
0.0
 11
14.957502
 21
1.47995
 31
0.0
  0
LINE
  5
830
330
1F
100
AcDbEntity
  8
1
  6
CONTINUOUS
370
50
 62
4
100
AcDbLine
 10
15.322105
 20
1.362241
 30
0.0
 11
15.274598
 21
1.377583
 31
0.0
  0
LINE
  5
831
330
1F
100
AcDbEntity
  8
1
  6
CONTINUOUS
370
50
 62
4
100
AcDbLine
 10
16.028639
 20
1.133402
 30
0.0
 11
15.949487
 21
1.158963
 31
0.0
  0
LINE
  5
832
330
1F
100
AcDbEntity
  8
1
  6
CONTINUOUS
370
50
 62
4
100
AcDbLine
 10
15.058899
 20
1.447206
 30
0.0
 11
15.0082
 21
1.463575
 31
0.0
  0
LINE
  5
833
330
1F
100
AcDbEntity
  8
1
  6
CONTINUOUS
370
50
 62
4
100
AcDbLine
 10
15.274598
 20
1.377583
 30
0.0
 11
15.227058
 21
1.39293
 31
0.0
  0
LINE
  5
834
330
1F
100
AcDbEntity
  8
1
  6
CONTINUOUS
370
50
 62
4
100
AcDbLine
 10
15.084375
 20
1.438982
 30
0.0
 11
15.058899
 21
1.447206
 31
0.0
  0
LINE
  5
835
330
1F
100
AcDbEntity
  8
1
  6
CONTINUOUS
370
50
 62
4
100
AcDbLine
 10
15.227058
 20
1.39293
 30
0.0
 11
15.17952
 21
1.408274
 31
0.0
  0
LINE
  5
836
330
1F
100
AcDbEntity
  8
1
  6
CONTINUOUS
370
50
 62
4
100
AcDbLine
 10
15.131947
 20
1.423628
 30
0.0
 11
15.084375
 21
1.438982
 31
0.0
  0
LINE
  5
837
330
1F
100
AcDbEntity
  8
1
  6
CONTINUOUS
370
50
 62
4
100
AcDbLine
 10
15.17952
 20
1.408274
 30
0.0
 11
15.131947
 21
1.423628
 31
0.0
  0
LINE
  5
838
330
1F
100
AcDbEntity
  8
1
  6
CONTINUOUS
370
50
 62
4
100
AcDbLine
 10
11.409428
 20
1.171422
 30
0.0
 11
11.325872
 21
1.198379
 31
0.0
  0
LINE
  5
839
330
1F
100
AcDbEntity
  8
1
  6
CONTINUOUS
370
50
 62
4
100
AcDbLine
 10
14.103971
 20
1.759288
 30
0.0
 11
13.95323
 21
1.807338
 31
0.0
  0
LINE
  5
83A
330
1F
100
AcDbEntity
  8
1
  6
CONTINUOUS
370
50
 62
4
100
AcDbLine
 10
6.855236
 20
1.190099
 30
0.0
 11
6.76193
 21
1.219715
 31
0.0
  0
LINE
  5
83B
330
1F
100
AcDbEntity
  8
1
  6
CONTINUOUS
370
50
 62
4
100
AcDbLine
 10
16.090391
 20
1.113901
 30
0.0
 11
16.028639
 21
1.133402
 31
0.0
  0
LINE
  5
83C
330
1F
100
AcDbEntity
  8
1
  6
CONTINUOUS
370
50
 62
4
100
AcDbLine
 10
11.471361
 20
1.151904
 30
0.0
 11
11.409428
 21
1.171422
 31
0.0
  0
LINE
  5
83D
330
1F
100
AcDbEntity
  8
1
  6
CONTINUOUS
370
50
 62
4
100
AcDbLine
 10
8.046510999999999
 20
-0.6596609999999999
 30
0.0
 11
7.681114
 21
-0.546237
 31
0.0
  0
LINE
  5
83E
330
1F
100
AcDbEntity
  8
1
  6
CONTINUOUS
370
50
 62
4
100
AcDbLine
 10
12.520066
 20
-0.6563899999999999
 30
0.0
 11
12.136082
 21
-0.5375409999999999
 31
0.0
  0
LINE
  5
83F
330
1F
100
AcDbEntity
  8
1
  6
CONTINUOUS
370
50
 62
4
100
AcDbLine
 10
12.53996
 20
-0.663619
 30
0.0
 11
12.173765
 21
-0.550474
 31
0.0
  0
LINE
  5
840
330
1F
100
AcDbEntity
  8
1
  6
CONTINUOUS
370
50
 62
4
100
AcDbLine
 10
16.152136
 20
1.094827
 30
0.0
 11
16.090391
 21
1.113901
 31
0.0
  0
LINE
  5
841
330
1F
100
AcDbEntity
  8
1
  6
CONTINUOUS
370
50
 62
4
100
AcDbLine
 10
6.948642
 20
1.161247
 30
0.0
 11
6.855236
 21
1.190099
 31
0.0
  0
LINE
  5
842
330
1F
100
AcDbEntity
  8
1
  6
CONTINUOUS
370
50
 62
4
100
AcDbLine
 10
11.533293
 20
1.132777
 30
0.0
 11
11.471361
 21
1.151904
 31
0.0
  0
LINE
  5
843
330
1F
100
AcDbEntity
  8
1
  6
CONTINUOUS
370
50
 62
4
100
AcDbLine
 10
16.04368
 20
-1.841785
 30
0.0
 11
15.890647
 21
-1.794568
 31
0.0
  0
LINE
  5
844
330
1F
100
AcDbEntity
  8
1
  6
CONTINUOUS
370
50
 62
4
100
AcDbLine
 10
9.621418
 20
1.759947
 30
0.0
 11
9.434078
 21
1.817489
 31
0.0
  0
LINE
  5
845
330
1F
100
AcDbEntity
  8
1
  6
CONTINUOUS
370
50
 62
4
100
AcDbLine
 10
9.147351
 20
1.762811
 30
0.0
 11
8.82059
 21
1.86282
 31
0.0
  0
LINE
  5
846
330
1F
100
AcDbEntity
  8
1
  6
CONTINUOUS
370
50
 62
4
100
AcDbLine
 10
4.982945
 20
1.967234
 30
0.0
 11
4.922388
 21
1.985601
 31
0.0
  0
LINE
  5
847
330
1F
100
AcDbEntity
  8
1
  6
CONTINUOUS
370
50
 62
4
100
AcDbLine
 10
15.704121
 20
-1.869582
 30
0.0
 11
15.221705
 21
-1.723564
 31
0.0
  0
LINE
  5
848
330
1F
100
AcDbEntity
  8
1
  6
CONTINUOUS
370
50
 62
4
100
AcDbLine
 10
6.996290999999999
 20
1.146831
 30
0.0
 11
6.948642
 21
1.161247
 31
0.0
  0
LINE
  5
849
330
1F
100
AcDbEntity
  8
1
  6
CONTINUOUS
370
50
 62
4
100
AcDbLine
 10
11.603631
 20
1.111523
 30
0.0
 11
11.533293
 21
1.132777
 31
0.0
  0
LINE
  5
84A
330
1F
100
AcDbEntity
  8
1
  6
CONTINUOUS
370
50
 62
4
100
AcDbLine
 10
16.213987
 20
1.076147
 30
0.0
 11
16.152136
 21
1.094827
 31
0.0
  0
LINE
  5
84B
330
1F
100
AcDbEntity
  8
1
  6
CONTINUOUS
370
50
 62
4
100
AcDbLine
 10
14.072751
 20
1.199327
 30
0.0
 11
13.755566
 21
1.294639
 31
0.0
  0
LINE
  5
84C
330
1F
100
AcDbEntity
  8
1
  6
CONTINUOUS
370
50
 62
4
100
AcDbLine
 10
9.653406
 20
1.179028
 30
0.0
 11
9.328503
 21
1.27653
 31
0.0
  0
LINE
  5
84D
330
1F
100
AcDbEntity
  8
1
  6
CONTINUOUS
370
50
 62
4
100
AcDbLine
 10
7.04394
 20
1.132617
 30
0.0
 11
6.996290999999999
 21
1.146831
 31
0.0
  0
LINE
  5
84E
330
1F
100
AcDbEntity
  8
1
  6
CONTINUOUS
370
50
 62
4
100
AcDbLine
 10
11.673967
 20
1.090761
 30
0.0
 11
11.603631
 21
1.111523
 31
0.0
  0
LINE
  5
84F
330
1F
100
AcDbEntity
  8
1
  6
CONTINUOUS
370
50
 62
4
100
AcDbLine
 10
8.791373
 20
0.673348
 30
0.0
 11
8.407733
 21
0.786586
 31
0.0
  0
LINE
  5
850
330
1F
100
AcDbEntity
  8
1
  6
CONTINUOUS
370
50
 62
4
100
AcDbLine
 10
16.275835
 20
1.057894
 30
0.0
 11
16.213987
 21
1.076147
 31
0.0
  0
LINE
  5
851
330
1F
100
AcDbEntity
  8
1
  6
CONTINUOUS
370
50
 62
4
100
AcDbLine
 10
7.121427
 20
1.109926
 30
0.0
 11
7.04394
 21
1.132617
 31
0.0
  0
LINE
  5
852
330
1F
100
AcDbEntity
  8
1
  6
CONTINUOUS
370
50
 62
4
100
AcDbLine
 10
13.95323
 20
1.807338
 30
0.0
 11
13.803694
 21
1.850728
 31
0.0
  0
LINE
  5
853
330
1F
100
AcDbEntity
  8
1
  6
CONTINUOUS
370
50
 62
4
100
AcDbLine
 10
16.32831
 20
1.042737
 30
0.0
 11
16.275835
 21
1.057894
 31
0.0
  0
LINE
  5
854
330
1F
100
AcDbEntity
  8
1
  6
CONTINUOUS
370
50
 62
4
100
AcDbLine
 10
11.744411
 20
1.070454
 30
0.0
 11
11.673967
 21
1.090761
 31
0.0
  0
LINE
  5
855
330
1F
100
AcDbEntity
  8
1
  6
CONTINUOUS
370
50
 62
4
100
AcDbLine
 10
8.411965
 20
-0.7648199999999999
 30
0.0
 11
8.046510999999999
 21
-0.6596609999999999
 31
0.0
  0
LINE
  5
856
330
1F
100
AcDbEntity
  8
1
  6
CONTINUOUS
370
50
 62
4
100
AcDbLine
 10
7.198913999999999
 20
1.087749
 30
0.0
 11
7.121427
 21
1.109926
 31
0.0
  0
LINE
  5
857
330
1F
100
AcDbEntity
  8
1
  6
CONTINUOUS
370
50
 62
4
100
AcDbLine
 10
13.271974
 20
0.678419
 30
0.0
 11
12.887771
 21
0.7877919999999999
 31
0.0
  0
LINE
  5
858
330
1F
100
AcDbEntity
  8
1
  6
CONTINUOUS
370
50
 62
4
100
AcDbLine
 10
12.906239
 20
-0.76739
 30
0.0
 11
12.53996
 21
-0.663619
 31
0.0
  0
LINE
  5
859
330
1F
100
AcDbEntity
  8
1
  6
CONTINUOUS
370
50
 62
4
100
AcDbLine
 10
16.380785
 20
1.027883
 30
0.0
 11
16.32831
 21
1.042737
 31
0.0
  0
LINE
  5
85A
330
1F
100
AcDbEntity
  8
1
  6
CONTINUOUS
370
50
 62
4
100
AcDbLine
 10
11.226418
 20
-1.874765
 30
0.0
 11
11.011996
 21
-1.814178
 31
0.0
  0
LINE
  5
85B
330
1F
100
AcDbEntity
  8
1
  6
CONTINUOUS
370
50
 62
4
100
AcDbLine
 10
12.899796
 20
-0.763481
 30
0.0
 11
12.520066
 21
-0.6563899999999999
 31
0.0
  0
LINE
  5
85C
330
1F
100
AcDbEntity
  8
1
  6
CONTINUOUS
370
50
 62
4
100
AcDbLine
 10
11.814854
 20
1.050625
 30
0.0
 11
11.744411
 21
1.070454
 31
0.0
  0
LINE
  5
85D
330
1F
100
AcDbEntity
  8
1
  6
CONTINUOUS
370
50
 62
4
100
AcDbLine
 10
7.276489
 20
1.066052
 30
0.0
 11
7.198913999999999
 21
1.087749
 31
0.0
  0
LINE
  5
85E
330
1F
100
AcDbEntity
  8
1
  6
CONTINUOUS
370
50
 62
4
100
AcDbLine
 10
16.433323
 20
1.013311
 30
0.0
 11
16.380785
 21
1.027883
 31
0.0
  0
LINE
  5
85F
330
1F
100
AcDbEntity
  8
1
  6
CONTINUOUS
370
50
 62
4
100
AcDbLine
 10
11.864098
 20
1.037042
 30
0.0
 11
11.814854
 21
1.050625
 31
0.0
  0
LINE
  5
860
330
1F
100
AcDbEntity
  8
1
  6
CONTINUOUS
370
50
 62
4
100
AcDbLine
 10
6.749182999999999
 20
-1.880054
 30
0.0
 11
6.546609999999999
 21
-1.824433
 31
0.0
  0
LINE
  5
861
330
1F
100
AcDbEntity
  8
1
  6
CONTINUOUS
370
50
 62
4
100
AcDbLine
 10
7.354066
 20
1.044846
 30
0.0
 11
7.276489
 21
1.066052
 31
0.0
  0
LINE
  5
862
330
1F
100
AcDbEntity
  8
1
  6
CONTINUOUS
370
50
 62
4
100
AcDbLine
 10
16.163422
 20
-1.874431
 30
0.0
 11
16.04368
 21
-1.841785
 31
0.0
  0
LINE
  5
863
330
1F
100
AcDbEntity
  8
1
  6
CONTINUOUS
370
50
 62
4
100
AcDbLine
 10
13.569845
 20
1.787824
 30
0.0
 11
13.134171
 21
1.906312
 31
0.0
  0
LINE
  5
864
330
1F
100
AcDbEntity
  8
1
  6
CONTINUOUS
370
50
 62
4
100
AcDbLine
 10
16.485859
 20
0.9990359999999999
 30
0.0
 11
16.433323
 21
1.013311
 31
0.0
  0
LINE
  5
865
330
1F
100
AcDbEntity
  8
1
  6
CONTINUOUS
370
50
 62
4
100
AcDbLine
 10
11.913342
 20
1.023685
 30
0.0
 11
11.864098
 21
1.037042
 31
0.0
  0
LINE
  5
866
330
1F
100
AcDbEntity
  8
1
  6
CONTINUOUS
370
50
 62
4
100
AcDbLine
 10
9.434078
 20
1.817489
 30
0.0
 11
9.246845
 21
1.868162
 31
0.0
  0
LINE
  5
867
330
1F
100
AcDbEntity
  8
1
  6
CONTINUOUS
370
50
 62
4
100
AcDbLine
 10
7.442807999999999
 20
1.021178
 30
0.0
 11
7.354066
 21
1.044846
 31
0.0
  0
LINE
  5
868
330
1F
100
AcDbEntity
  8
1
  6
CONTINUOUS
370
50
 62
4
100
AcDbLine
 10
11.962623
 20
1.010542
 30
0.0
 11
11.913342
 21
1.023685
 31
0.0
  0
LINE
  5
869
330
1F
100
AcDbEntity
  8
1
  6
CONTINUOUS
370
50
 62
4
100
AcDbLine
 10
8.777403999999999
 20
-0.860796
 30
0.0
 11
8.411965
 21
-0.7648199999999999
 31
0.0
  0
LINE
  5
86A
330
1F
100
AcDbEntity
  8
1
  6
CONTINUOUS
370
50
 62
4
100
AcDbLine
 10
12.011905
 20
0.997617
 30
0.0
 11
11.962623
 21
1.010542
 31
0.0
  0
LINE
  5
86B
330
1F
100
AcDbEntity
  8
1
  6
CONTINUOUS
370
50
 62
4
100
AcDbLine
 10
7.531555
 20
0.998119
 30
0.0
 11
7.442807999999999
 21
1.021178
 31
0.0
  0
LINE
  5
86C
330
1F
100
AcDbEntity
  8
1
  6
CONTINUOUS
370
50
 62
4
100
AcDbLine
 10
13.803694
 20
1.850728
 30
0.0
 11
13.650028
 21
1.890651
 31
0.0
  0
LINE
  5
86D
330
1F
100
AcDbEntity
  8
1
  6
CONTINUOUS
370
50
 62
4
100
AcDbLine
 10
9.328503
 20
1.27653
 30
0.0
 11
9.003599999999999
 21
1.360544
 31
0.0
  0
LINE
  5
86E
330
1F
100
AcDbEntity
  8
1
  6
CONTINUOUS
370
50
 62
4
100
AcDbLine
 10
12.063997
 20
0.984192
 30
0.0
 11
12.011905
 21
0.997617
 31
0.0
  0
LINE
  5
86F
330
1F
100
AcDbEntity
  8
1
  6
CONTINUOUS
370
50
 62
4
100
AcDbLine
 10
13.272558
 20
-0.861223
 30
0.0
 11
12.906239
 21
-0.76739
 31
0.0
  0
LINE
  5
870
330
1F
100
AcDbEntity
  8
1
  6
CONTINUOUS
370
50
 62
4
100
AcDbLine
 10
13.755566
 20
1.294639
 30
0.0
 11
13.438389
 21
1.375718
 31
0.0
  0
LINE
  5
871
330
1F
100
AcDbEntity
  8
1
  6
CONTINUOUS
370
50
 62
4
100
AcDbLine
 10
13.272854
 20
-0.858721
 30
0.0
 11
12.899796
 21
-0.763481
 31
0.0
  0
LINE
  5
872
330
1F
100
AcDbEntity
  8
1
  6
CONTINUOUS
370
50
 62
4
100
AcDbLine
 10
7.588552
 20
0.9836239999999999
 30
0.0
 11
7.531555
 21
0.998119
 31
0.0
  0
LINE
  5
873
330
1F
100
AcDbEntity
  8
1
  6
CONTINUOUS
370
50
 62
4
100
AcDbLine
 10
12.11609
 20
0.971004
 30
0.0
 11
12.063997
 21
0.984192
 31
0.0
  0
LINE
  5
874
330
1F
100
AcDbEntity
  8
1
  6
CONTINUOUS
370
50
 62
4
100
AcDbLine
 10
7.645551999999999
 20
0.9693689999999999
 30
0.0
 11
7.588552
 21
0.9836239999999999
 31
0.0
  0
LINE
  5
875
330
1F
100
AcDbEntity
  8
1
  6
CONTINUOUS
370
50
 62
4
100
AcDbLine
 10
12.168185
 20
0.95805
 30
0.0
 11
12.11609
 21
0.971004
 31
0.0
  0
LINE
  5
876
330
1F
100
AcDbEntity
  8
1
  6
CONTINUOUS
370
50
 62
4
100
AcDbLine
 10
7.702553999999999
 20
0.955351
 30
0.0
 11
7.645551999999999
 21
0.9693689999999999
 31
0.0
  0
LINE
  5
877
330
1F
100
AcDbEntity
  8
1
  6
CONTINUOUS
370
50
 62
4
100
AcDbLine
 10
8.407733
 20
0.786586
 30
0.0
 11
8.024075999999999
 21
0.880645
 31
0.0
  0
LINE
  5
878
330
1F
100
AcDbEntity
  8
1
  6
CONTINUOUS
370
50
 62
4
100
AcDbLine
 10
12.220281
 20
0.9453269999999999
 30
0.0
 11
12.168185
 21
0.95805
 31
0.0
  0
LINE
  5
879
330
1F
100
AcDbEntity
  8
1
  6
CONTINUOUS
370
50
 62
4
100
AcDbLine
 10
7.759558999999999
 20
0.9415659999999999
 30
0.0
 11
7.702553999999999
 21
0.955351
 31
0.0
  0
LINE
  5
87A
330
1F
100
AcDbEntity
  8
1
  6
CONTINUOUS
370
50
 62
4
100
AcDbLine
 10
12.887771
 20
0.7877919999999999
 30
0.0
 11
12.503614
 21
0.880188
 31
0.0
  0
LINE
  5
87B
330
1F
100
AcDbEntity
  8
1
  6
CONTINUOUS
370
50
 62
4
100
AcDbLine
 10
12.291108
 20
0.928392
 30
0.0
 11
12.220281
 21
0.9453269999999999
 31
0.0
  0
LINE
  5
87C
330
1F
100
AcDbEntity
  8
1
  6
CONTINUOUS
370
50
 62
4
100
AcDbLine
 10
16.283428
 20
-1.903026
 30
0.0
 11
16.163422
 21
-1.874431
 31
0.0
  0
LINE
  5
87D
330
1F
100
AcDbEntity
  8
1
  6
CONTINUOUS
370
50
 62
4
100
AcDbLine
 10
7.412872999999999
 20
-1.922433
 30
0.0
 11
6.982821
 21
-1.820188
 31
0.0
  0
LINE
  5
87E
330
1F
100
AcDbEntity
  8
1
  6
CONTINUOUS
370
50
 62
4
100
AcDbLine
 10
7.825699999999999
 20
0.9258599999999999
 30
0.0
 11
7.759558999999999
 21
0.9415659999999999
 31
0.0
  0
LINE
  5
87F
330
1F
100
AcDbEntity
  8
1
  6
CONTINUOUS
370
50
 62
4
100
AcDbLine
 10
12.361939
 20
0.9118689999999999
 30
0.0
 11
12.291108
 21
0.928392
 31
0.0
  0
LINE
  5
880
330
1F
100
AcDbEntity
  8
1
  6
CONTINUOUS
370
50
 62
4
100
AcDbLine
 10
7.891844
 20
0.9104589999999999
 30
0.0
 11
7.825699999999999
 21
0.9258599999999999
 31
0.0
  0
LINE
  5
881
330
1F
100
AcDbEntity
  8
1
  6
CONTINUOUS
370
50
 62
4
100
AcDbLine
 10
9.246845
 20
1.868162
 30
0.0
 11
9.060440999999999
 21
1.911497
 31
0.0
  0
LINE
  5
882
330
1F
100
AcDbEntity
  8
1
  6
CONTINUOUS
370
50
 62
4
100
AcDbLine
 10
8.82059
 20
1.86282
 30
0.0
 11
8.557839999999999
 21
1.92388
 31
0.0
  0
LINE
  5
883
330
1F
100
AcDbEntity
  8
1
  6
CONTINUOUS
370
50
 62
4
100
AcDbLine
 10
4.746494999999999
 20
-1.995048
 30
0.0
 11
4.686279
 21
-1.981218
 31
0.0
  0
LINE
  5
884
330
1F
100
AcDbEntity
  8
1
  6
CONTINUOUS
370
50
 62
4
100
AcDbLine
 10
7.957991
 20
0.8953599999999999
 30
0.0
 11
7.891844
 21
0.9104589999999999
 31
0.0
  0
LINE
  5
885
330
1F
100
AcDbEntity
  8
1
  6
CONTINUOUS
370
50
 62
4
100
AcDbLine
 10
12.432774
 20
0.8957499999999999
 30
0.0
 11
12.361939
 21
0.9118689999999999
 31
0.0
  0
LINE
  5
886
330
1F
100
AcDbEntity
  8
1
  6
CONTINUOUS
370
50
 62
4
100
AcDbLine
 10
13.635477
 20
-0.9410609999999999
 30
0.0
 11
13.272854
 21
-0.858721
 31
0.0
  0
LINE
  5
887
330
1F
100
AcDbEntity
  8
1
  6
CONTINUOUS
370
50
 62
4
100
AcDbLine
 10
9.142714999999999
 20
-0.9429909999999999
 30
0.0
 11
8.777403999999999
 21
-0.860796
 31
0.0
  0
LINE
  5
888
330
1F
100
AcDbEntity
  8
1
  6
CONTINUOUS
370
50
 62
4
100
AcDbLine
 10
13.638809
 20
-0.943259
 30
0.0
 11
13.272558
 21
-0.861223
 31
0.0
  0
LINE
  5
889
330
1F
100
AcDbEntity
  8
1
  6
CONTINUOUS
370
50
 62
4
100
AcDbLine
 10
8.024139
 20
0.8805609999999999
 30
0.0
 11
7.957991
 21
0.8953599999999999
 31
0.0
  0
LINE
  5
88A
330
1F
100
AcDbEntity
  8
1
  6
CONTINUOUS
370
50
 62
4
100
AcDbLine
 10
12.503611
 20
0.880027
 30
0.0
 11
12.432774
 21
0.8957499999999999
 31
0.0
  0
LINE
  5
88B
330
1F
100
AcDbEntity
  8
1
  6
CONTINUOUS
370
50
 62
4
100
AcDbLine
 10
11.500439
 20
-1.935147
 30
0.0
 11
11.226418
 21
-1.874765
 31
0.0
  0
LINE
  5
88C
330
1F
100
AcDbEntity
  8
1
  6
CONTINUOUS
370
50
 62
4
100
AcDbLine
 10
6.979747
 20
-1.929729
 30
0.0
 11
6.749182999999999
 21
-1.880054
 31
0.0
  0
LINE
  5
88D
330
1F
100
AcDbEntity
  8
1
  6
CONTINUOUS
370
50
 62
4
100
AcDbLine
 10
13.650028
 20
1.890651
 30
0.0
 11
13.422508
 21
1.938886
 31
0.0
  0
LINE
  5
88E
330
1F
100
AcDbEntity
  8
1
  6
CONTINUOUS
370
50
 62
4
100
AcDbLine
 10
9.003599999999999
 20
1.360544
 30
0.0
 11
8.678707
 21
1.427921
 31
0.0
  0
LINE
  5
88F
330
1F
100
AcDbEntity
  8
1
  6
CONTINUOUS
370
50
 62
4
100
AcDbLine
 10
12.124636
 20
-1.960016
 30
0.0
 11
11.543944
 21
-1.840561
 31
0.0
  0
LINE
  5
890
330
1F
100
AcDbEntity
  8
1
  6
CONTINUOUS
370
50
 62
4
100
AcDbLine
 10
16.404068
 20
-1.927771
 30
0.0
 11
16.283428
 21
-1.903026
 31
0.0
  0
LINE
  5
891
330
1F
100
AcDbEntity
  8
1
  6
CONTINUOUS
370
50
 62
4
100
AcDbLine
 10
16.167358
 20
-1.963123
 30
0.0
 11
15.704121
 21
-1.869582
 31
0.0
  0
LINE
  5
892
330
1F
100
AcDbEntity
  8
1
  6
CONTINUOUS
370
50
 62
4
100
AcDbLine
 10
9.060440999999999
 20
1.911497
 30
0.0
 11
8.870735
 21
1.947832
 31
0.0
  0
LINE
  5
893
330
1F
100
AcDbEntity
  8
1
  6
CONTINUOUS
370
50
 62
4
100
AcDbLine
 10
13.438389
 20
1.375718
 30
0.0
 11
13.121221
 21
1.436268
 31
0.0
  0
LINE
  5
894
330
1F
100
AcDbEntity
  8
1
  6
CONTINUOUS
370
50
 62
4
100
AcDbLine
 10
4.922388
 20
1.985601
 30
0.0
 11
4.863861
 21
1.996551
 31
0.0
  0
LINE
  5
895
330
1F
100
AcDbEntity
  8
1
  6
CONTINUOUS
370
50
 62
4
100
AcDbLine
 10
16.52528
 20
-1.948747
 30
0.0
 11
16.404068
 21
-1.927771
 31
0.0
  0
LINE
  5
896
330
1F
100
AcDbEntity
  8
1
  6
CONTINUOUS
370
50
 62
4
100
AcDbLine
 10
8.557839999999999
 20
1.92388
 30
0.0
 11
8.299833999999999
 21
1.965619
 31
0.0
  0
LINE
  5
897
330
1F
100
AcDbEntity
  8
1
  6
CONTINUOUS
370
50
 62
4
100
AcDbLine
 10
13.134171
 20
1.906312
 30
0.0
 11
12.693213
 21
1.975986
 31
0.0
  0
LINE
  5
898
330
1F
100
AcDbEntity
  8
1
  6
CONTINUOUS
370
50
 62
4
100
AcDbLine
 10
7.239018
 20
-1.96909
 30
0.0
 11
6.979747
 21
-1.929729
 31
0.0
  0
LINE
  5
899
330
1F
100
AcDbEntity
  8
1
  6
CONTINUOUS
370
50
 62
4
100
AcDbLine
 10
16.646999
 20
-1.966033
 30
0.0
 11
16.52528
 21
-1.948747
 31
0.0
  0
LINE
  5
89A
330
1F
100
AcDbEntity
  8
1
  6
CONTINUOUS
370
50
 62
4
100
AcDbLine
 10
8.678707
 20
1.427921
 30
0.0
 11
8.353825
 21
1.473579
 31
0.0
  0
LINE
  5
89B
330
1F
100
AcDbEntity
  8
1
  6
CONTINUOUS
370
50
 62
4
100
AcDbLine
 10
7.840637
 20
-1.981843
 30
0.0
 11
7.412872999999999
 21
-1.922433
 31
0.0
  0
LINE
  5
89C
330
1F
100
AcDbEntity
  8
1
  6
CONTINUOUS
370
50
 62
4
100
AcDbLine
 10
11.844889
 20
-1.982164
 30
0.0
 11
11.500439
 21
-1.935147
 31
0.0
  0
LINE
  5
89D
330
1F
100
AcDbEntity
  8
1
  6
CONTINUOUS
370
50
 62
4
100
AcDbLine
 10
13.422508
 20
1.938886
 30
0.0
 11
13.104227
 21
1.982063
 31
0.0
  0
LINE
  5
89E
330
1F
100
AcDbEntity
  8
1
  6
CONTINUOUS
370
50
 62
4
100
AcDbLine
 10
8.870735
 20
1.947832
 30
0.0
 11
8.598911
 21
1.983423
 31
0.0
  0
LINE
  5
89F
330
1F
100
AcDbEntity
  8
1
  6
CONTINUOUS
370
50
 62
4
100
AcDbLine
 10
13.121221
 20
1.436268
 30
0.0
 11
12.804054
 21
1.477162
 31
0.0
  0
LINE
  5
8A0
330
1F
100
AcDbEntity
  8
1
  6
CONTINUOUS
370
50
 62
4
100
AcDbLine
 10
8.299833999999999
 20
1.965619
 30
0.0
 11
8.039890999999999
 21
1.990735
 31
0.0
  0
LINE
  5
8A1
330
1F
100
AcDbEntity
  8
1
  6
CONTINUOUS
370
50
 62
4
100
AcDbLine
 10
16.484821
 20
1.000072
 30
0.0
 11
16.484097
 21
1.00014
 31
0.0
  0
LINE
  5
8A2
330
1F
100
AcDbEntity
  8
1
  6
CONTINUOUS
370
50
 62
4
100
AcDbLine
 10
16.485544
 20
1.000005
 30
0.0
 11
16.484821
 21
1.000072
 31
0.0
  0
LINE
  5
8A3
330
1F
100
AcDbEntity
  8
1
  6
CONTINUOUS
370
50
 62
4
100
AcDbLine
 10
16.481922
 20
1.000341
 30
0.0
 11
16.481199
 21
1.000408
 31
0.0
  0
LINE
  5
8A4
330
1F
100
AcDbEntity
  8
1
  6
CONTINUOUS
370
50
 62
4
100
AcDbLine
 10
16.484097
 20
1.00014
 30
0.0
 11
16.481922
 21
1.000341
 31
0.0
  0
LINE
  5
8A5
330
1F
100
AcDbEntity
  8
1
  6
CONTINUOUS
370
50
 62
4
100
AcDbLine
 10
7.507536
 20
-1.992799
 30
0.0
 11
7.239018
 21
-1.96909
 31
0.0
  0
LINE
  5
8A6
330
1F
100
AcDbEntity
  8
1
  6
CONTINUOUS
370
50
 62
4
100
AcDbLine
 10
4.806833999999999
 20
-1.999937
 30
0.0
 11
4.746494999999999
 21
-1.995048
 31
0.0
  0
LINE
  5
8A7
330
1F
100
AcDbEntity
  8
1
  6
CONTINUOUS
370
50
 62
4
100
AcDbLine
 10
8.353825
 20
1.473579
 30
0.0
 11
8.028941
 21
1.499127
 31
0.0
  0
LINE
  5
8A8
330
1F
100
AcDbEntity
  8
1
  6
CONTINUOUS
370
50
 62
4
100
AcDbLine
 10
16.646999
 20
-1.999516
 30
0.0
 11
16.167358
 21
-1.963123
 31
0.0
  0
LINE
  5
8A9
330
1F
100
AcDbEntity
  8
1
  6
CONTINUOUS
370
50
 62
4
100
AcDbLine
 10
12.804054
 20
1.477162
 30
0.0
 11
12.486882
 21
1.500153
 31
0.0
  0
LINE
  5
8AA
330
1F
100
AcDbEntity
  8
1
  6
CONTINUOUS
370
50
 62
4
100
AcDbLine
 10
12.713428
 20
-1.999964
 30
0.0
 11
12.124636
 21
-1.960016
 31
0.0
  0
LINE
  5
8AB
330
1F
100
AcDbEntity
  8
1
  6
CONTINUOUS
370
50
 62
4
100
AcDbLine
 10
4.863861
 20
1.996551
 30
0.0
 11
4.806833999999999
 21
1.999937
 31
0.0
  0
LINE
  5
8AC
330
1F
100
AcDbEntity
  8
1
  6
CONTINUOUS
370
50
 62
4
100
AcDbLine
 10
12.693213
 20
1.975986
 30
0.0
 11
12.246819
 21
1.999947
 31
0.0
  0
LINE
  5
8AD
330
1F
100
AcDbEntity
  8
1
  6
CONTINUOUS
370
50
 62
4
100
AcDbLine
 10
8.222567999999999
 20
-2.00004
 30
0.0
 11
7.840637
 21
-1.981843
 31
0.0
  0
LINE
  5
8AE
330
1F
100
AcDbEntity
  8
1
  6
CONTINUOUS
370
50
 62
4
100
AcDbLine
 10
13.104227
 20
1.982063
 30
0.0
 11
12.705378
 21
1.999952
 31
0.0
  0
LINE
  5
8AF
330
1F
100
AcDbEntity
  8
1
  6
CONTINUOUS
370
50
 62
4
100
AcDbLine
 10
12.246819
 20
-1.999947
 30
0.0
 11
11.844889
 21
-1.982164
 31
0.0
  0
LINE
  5
8B0
330
1F
100
AcDbEntity
  8
1
  6
CONTINUOUS
370
50
 62
4
100
AcDbLine
 10
8.598911
 20
1.983423
 30
0.0
 11
8.222567999999999
 21
2.00004
 31
0.0
  0
LINE
  5
8B1
330
1F
100
AcDbEntity
  8
1
  6
CONTINUOUS
370
50
 62
4
100
AcDbLine
 10
8.039890999999999
 20
1.990735
 30
0.0
 11
7.777292999999999
 21
1.999877
 31
0.0
  0
LINE
  5
8B2
330
1F
100
AcDbEntity
  8
1
  6
CONTINUOUS
370
50
 62
4
100
AcDbLine
 10
7.777301
 20
-1.999877
 30
0.0
 11
7.507536
 21
-1.992799
 31
0.0
  0
LINE
  5
8B3
330
1F
100
AcDbEntity
  8
1
  6
CONTINUOUS
370
50
 62
4
100
AcDbLine
 10
8.028941
 20
1.499127
 30
0.0
 11
7.704052
 21
1.505714
 31
0.0
  0
LINE
  5
8B4
330
1F
100
AcDbEntity
  8
1
  6
CONTINUOUS
370
50
 62
4
100
AcDbLine
 10
12.486882
 20
1.500153
 30
0.0
 11
12.169703
 21
1.505616
 31
0.0
  0
LINE
  5
8B5
330
1F
100
AcDbEntity
  8
1
  6
CONTINUOUS
370
50
 62
4
100
AcDbLine
 10
8.234435
 20
-1.999923
 30
0.0
 11
7.757204
 21
-1.999919
 31
0.0
  0
LINE
  5
8B6
330
1F
100
AcDbEntity
  8
1
  6
CONTINUOUS
370
50
 62
4
100
AcDbLine
 10
12.716075
 20
-1.999964
 30
0.0
 11
12.235285
 21
-1.99996
 31
0.0
  0
LINE
  5
8B7
330
1F
100
AcDbEntity
  8
1
  6
CONTINUOUS
370
50
 62
4
100
AcDbLine
 10
1.722051
 20
-1.99995
 30
0.0
 11
4.81004
 21
-1.99995
 31
0.0
  0
LINE
  5
8B8
330
1F
100
AcDbEntity
  8
1
  6
CONTINUOUS
370
50
 62
4
100
AcDbLine
 10
1.722051
 20
1.99995
 30
0.0
 11
4.81004
 21
1.99995
 31
0.0
  0
LINE
  5
8B9
330
1F
100
AcDbEntity
  8
1
  6
CONTINUOUS
370
50
 62
4
100
AcDbLine
 10
7.757204
 20
1.999919
 30
0.0
 11
8.234435
 21
1.999923
 31
0.0
  0
LINE
  5
8BA
330
1F
100
AcDbEntity
  8
1
  6
CONTINUOUS
370
50
 62
4
100
AcDbLine
 10
12.235285
 20
1.99996
 30
0.0
 11
12.716088
 21
1.999964
 31
0.0
  0
LINE
  5
8BB
330
1F
100
AcDbEntity
  8
1
  6
CONTINUOUS
370
50
 62
4
100
AcDbLine
 10
5.722
 20
-1.517548
 30
0.0
 11
5.723667
 21
-1.517527
 31
0.0
  0
LINE
  5
8BC
330
1F
100
AcDbEntity
  8
1
  6
CONTINUOUS
370
50
 62
4
100
AcDbLine
 10
5.725333
 20
-1.517506
 30
0.0
 11
5.728667
 21
-1.517464
 31
0.0
  0
LINE
  5
8BD
330
1F
100
AcDbEntity
  8
1
  6
CONTINUOUS
370
50
 62
4
100
AcDbLine
 10
5.730333
 20
-1.517443
 30
0.0
 11
5.731999999999999
 21
-1.517422
 31
0.0
  0
LINE
  5
8BE
330
1F
100
AcDbEntity
  8
1
  6
CONTINUOUS
370
50
 62
4
100
AcDbLine
 10
5.723667
 20
-1.517527
 30
0.0
 11
5.725333
 21
-1.517506
 31
0.0
  0
LINE
  5
8BF
330
1F
100
AcDbEntity
  8
1
  6
CONTINUOUS
370
50
 62
4
100
AcDbLine
 10
5.728667
 20
-1.517464
 30
0.0
 11
5.730333
 21
-1.517443
 31
0.0
  0
LINE
  5
8C0
330
1F
100
AcDbEntity
  8
1
  6
CONTINUOUS
370
50
 62
4
100
AcDbLine
 10
5.629395
 20
-1.518764
 30
0.0
 11
5.722
 21
-1.517586
 31
0.0
  0
LINE
  5
8C1
330
1F
100
AcDbEntity
  8
1
  6
CONTINUOUS
370
50
 62
4
100
AcDbLine
 10
5.536788
 20
-1.519974
 30
0.0
 11
5.629395
 21
-1.518764
 31
0.0
  0
LINE
  5
8C2
330
1F
100
AcDbEntity
  8
1
  6
CONTINUOUS
370
50
 62
4
100
AcDbLine
 10
5.444179999999999
 20
-1.521217
 30
0.0
 11
5.536788
 21
-1.519974
 31
0.0
  0
LINE
  5
8C3
330
1F
100
AcDbEntity
  8
1
  6
CONTINUOUS
370
50
 62
4
100
AcDbLine
 10
5.351573999999999
 20
-1.522491
 30
0.0
 11
5.444179999999999
 21
-1.521217
 31
0.0
  0
LINE
  5
8C4
330
1F
100
AcDbEntity
  8
1
  6
CONTINUOUS
370
50
 62
4
100
AcDbLine
 10
5.726286
 20
1.302618
 30
0.0
 11
5.727714
 21
1.302638
 31
0.0
  0
LINE
  5
8C5
330
1F
100
AcDbEntity
  8
1
  6
CONTINUOUS
370
50
 62
4
100
AcDbLine
 10
5.258969
 20
-1.523797
 30
0.0
 11
5.351573999999999
 21
-1.522491
 31
0.0
  0
LINE
  5
8C6
330
1F
100
AcDbEntity
  8
1
  6
CONTINUOUS
370
50
 62
4
100
AcDbLine
 10
5.166367
 20
-1.525133
 30
0.0
 11
5.258969
 21
-1.523797
 31
0.0
  0
LINE
  5
8C7
330
1F
100
AcDbEntity
  8
1
  6
CONTINUOUS
370
50
 62
4
100
AcDbLine
 10
5.722
 20
1.302555
 30
0.0
 11
5.723428999999999
 21
1.302576
 31
0.0
  0
LINE
  5
8C8
330
1F
100
AcDbEntity
  8
1
  6
CONTINUOUS
370
50
 62
4
100
AcDbLine
 10
5.724857
 20
1.302597
 30
0.0
 11
5.726286
 21
1.302618
 31
0.0
  0
LINE
  5
8C9
330
1F
100
AcDbEntity
  8
1
  6
CONTINUOUS
370
50
 62
4
100
AcDbLine
 10
5.727714
 20
1.302638
 30
0.0
 11
5.729143
 21
1.302659
 31
0.0
  0
LINE
  5
8CA
330
1F
100
AcDbEntity
  8
1
  6
CONTINUOUS
370
50
 62
4
100
AcDbLine
 10
5.730570999999999
 20
1.30268
 30
0.0
 11
5.731999999999999
 21
1.302701
 31
0.0
  0
LINE
  5
8CB
330
1F
100
AcDbEntity
  8
1
  6
CONTINUOUS
370
50
 62
4
100
AcDbLine
 10
5.723428999999999
 20
1.302576
 30
0.0
 11
5.724857
 21
1.302597
 31
0.0
  0
LINE
  5
8CC
330
1F
100
AcDbEntity
  8
1
  6
CONTINUOUS
370
50
 62
4
100
AcDbLine
 10
5.729143
 20
1.302659
 30
0.0
 11
5.730570999999999
 21
1.30268
 31
0.0
  0
LINE
  5
8CD
330
1F
100
AcDbEntity
  8
1
  6
CONTINUOUS
370
50
 62
4
100
AcDbLine
 10
5.073767999999999
 20
-1.5265
 30
0.0
 11
5.166367
 21
-1.525133
 31
0.0
  0
LINE
  5
8CE
330
1F
100
AcDbEntity
  8
1
  6
CONTINUOUS
370
50
 62
4
100
AcDbLine
 10
5.629395
 20
1.301214
 30
0.0
 11
5.722
 21
1.302588
 31
0.0
  0
LINE
  5
8CF
330
1F
100
AcDbEntity
  8
1
  6
CONTINUOUS
370
50
 62
4
100
AcDbLine
 10
5.536788
 20
1.299799
 30
0.0
 11
5.629395
 21
1.301214
 31
0.0
  0
LINE
  5
8D0
330
1F
100
AcDbEntity
  8
1
  6
CONTINUOUS
370
50
 62
4
100
AcDbLine
 10
5.444179999999999
 20
1.298345
 30
0.0
 11
5.536788
 21
1.299799
 31
0.0
  0
LINE
  5
8D1
330
1F
100
AcDbEntity
  8
1
  6
CONTINUOUS
370
50
 62
4
100
AcDbLine
 10
5.351573999999999
 20
1.29685
 30
0.0
 11
5.444179999999999
 21
1.298345
 31
0.0
  0
LINE
  5
8D2
330
1F
100
AcDbEntity
  8
1
  6
CONTINUOUS
370
50
 62
4
100
AcDbLine
 10
5.258969
 20
1.295316
 30
0.0
 11
5.351573999999999
 21
1.29685
 31
0.0
  0
LINE
  5
8D3
330
1F
100
AcDbEntity
  8
1
  6
CONTINUOUS
370
50
 62
4
100
AcDbLine
 10
5.166367
 20
1.293743
 30
0.0
 11
5.258969
 21
1.295316
 31
0.0
  0
LINE
  5
8D4
330
1F
100
AcDbEntity
  8
1
  6
CONTINUOUS
370
50
 62
4
100
AcDbLine
 10
5.073767999999999
 20
1.29213
 30
0.0
 11
5.166367
 21
1.293743
 31
0.0
  0
LINE
  5
8D5
330
1F
100
AcDbEntity
  8
1
  6
CONTINUOUS
370
50
 62
4
100
AcDbLine
 10
7.51946
 20
1.993463
 30
0.0
 11
7.777292999999999
 21
1.999877
 31
0.0
  0
LINE
  5
8D6
330
1F
100
AcDbEntity
  8
1
  6
CONTINUOUS
370
50
 62
4
100
AcDbLine
 10
5.039109
 20
-1.527408
 30
0.0
 11
5.073767999999999
 21
-1.5265
 31
0.0
  0
LINE
  5
8D7
330
1F
100
AcDbEntity
  8
1
  6
CONTINUOUS
370
50
 62
4
100
AcDbLine
 10
5.040392
 20
1.291116
 30
0.0
 11
5.073767999999999
 21
1.29213
 31
0.0
  0
LINE
  5
8D8
330
1F
100
AcDbEntity
  8
1
  6
CONTINUOUS
370
50
 62
4
100
AcDbLine
 10
7.379156999999999
 20
1.493777
 30
0.0
 11
7.704052
 21
1.505714
 31
0.0
  0
LINE
  5
8D9
330
1F
100
AcDbEntity
  8
1
  6
CONTINUOUS
370
50
 62
4
100
AcDbLine
 10
11.85252
 20
1.493158
 30
0.0
 11
12.169703
 21
1.505616
 31
0.0
  0
LINE
  5
8DA
330
1F
100
AcDbEntity
  8
1
  6
CONTINUOUS
370
50
 62
4
100
AcDbLine
 10
8.222567999999999
 20
-2.00004
 30
0.0
 11
8.598911
 21
-1.983423
 31
0.0
  0
LINE
  5
8DB
330
1F
100
AcDbEntity
  8
1
  6
CONTINUOUS
370
50
 62
4
100
AcDbLine
 10
12.713428
 20
-1.999964
 30
0.0
 11
13.110068
 21
-1.981511
 31
0.0
  0
LINE
  5
8DC
330
1F
100
AcDbEntity
  8
1
  6
CONTINUOUS
370
50
 62
4
100
AcDbLine
 10
5.004483
 20
-1.529095
 30
0.0
 11
5.039109
 21
-1.527408
 31
0.0
  0
LINE
  5
8DD
330
1F
100
AcDbEntity
  8
1
  6
CONTINUOUS
370
50
 62
4
100
AcDbLine
 10
16.32983
 20
1.982192
 30
0.0
 11
16.646999
 21
1.999516
 31
0.0
  0
LINE
  5
8DE
330
1F
100
AcDbEntity
  8
1
  6
CONTINUOUS
370
50
 62
4
100
AcDbLine
 10
11.752559
 20
1.972584
 30
0.0
 11
12.246819
 21
1.999947
 31
0.0
  0
LINE
  5
8DF
330
1F
100
AcDbEntity
  8
1
  6
CONTINUOUS
370
50
 62
4
100
AcDbLine
 10
5.007044
 20
1.289246
 30
0.0
 11
5.040392
 21
1.291116
 31
0.0
  0
LINE
  5
8E0
330
1F
100
AcDbEntity
  8
1
  6
CONTINUOUS
370
50
 62
4
100
AcDbLine
 10
4.806833999999999
 20
-1.999937
 30
0.0
 11
4.863861
 21
-1.996551
 31
0.0
  0
LINE
  5
8E1
330
1F
100
AcDbEntity
  8
1
  6
CONTINUOUS
370
50
 62
4
100
AcDbLine
 10
4.969958
 20
-1.531559
 30
0.0
 11
5.004483
 21
-1.529095
 31
0.0
  0
LINE
  5
8E2
330
1F
100
AcDbEntity
  8
1
  6
CONTINUOUS
370
50
 62
4
100
AcDbLine
 10
4.973784999999999
 20
1.286514
 30
0.0
 11
5.007044
 21
1.289246
 31
0.0
  0
LINE
  5
8E3
330
1F
100
AcDbEntity
  8
1
  6
CONTINUOUS
370
50
 62
4
100
AcDbLine
 10
7.262665999999999
 20
1.971859
 30
0.0
 11
7.51946
 21
1.993463
 31
0.0
  0
LINE
  5
8E4
330
1F
100
AcDbEntity
  8
1
  6
CONTINUOUS
370
50
 62
4
100
AcDbLine
 10
7.054253999999999
 20
1.463352
 30
0.0
 11
7.379156999999999
 21
1.493777
 31
0.0
  0
LINE
  5
8E5
330
1F
100
AcDbEntity
  8
1
  6
CONTINUOUS
370
50
 62
4
100
AcDbLine
 10
4.935599
 20
-1.534794
 30
0.0
 11
4.969958
 21
-1.531559
 31
0.0
  0
LINE
  5
8E6
330
1F
100
AcDbEntity
  8
1
  6
CONTINUOUS
370
50
 62
4
100
AcDbLine
 10
11.535334
 20
1.462124
 30
0.0
 11
11.85252
 21
1.493158
 31
0.0
  0
LINE
  5
8E7
330
1F
100
AcDbEntity
  8
1
  6
CONTINUOUS
370
50
 62
4
100
AcDbLine
 10
4.940672999999999
 20
1.282909
 30
0.0
 11
4.973784999999999
 21
1.286514
 31
0.0
  0
LINE
  5
8E8
330
1F
100
AcDbEntity
  8
1
  6
CONTINUOUS
370
50
 62
4
100
AcDbLine
 10
4.901473
 20
-1.538799
 30
0.0
 11
4.935599
 21
-1.534794
 31
0.0
  0
LINE
  5
8E9
330
1F
100
AcDbEntity
  8
1
  6
CONTINUOUS
370
50
 62
4
100
AcDbLine
 10
8.598911
 20
-1.983423
 30
0.0
 11
8.870735
 21
-1.947832
 31
0.0
  0
LINE
  5
8EA
330
1F
100
AcDbEntity
  8
1
  6
CONTINUOUS
370
50
 62
4
100
AcDbLine
 10
4.907769
 20
1.278426
 30
0.0
 11
4.940672999999999
 21
1.282909
 31
0.0
  0
LINE
  5
8EB
330
1F
100
AcDbEntity
  8
1
  6
CONTINUOUS
370
50
 62
4
100
AcDbLine
 10
13.110068
 20
-1.981511
 30
0.0
 11
13.42607
 21
-1.938246
 31
0.0
  0
LINE
  5
8EC
330
1F
100
AcDbEntity
  8
1
  6
CONTINUOUS
370
50
 62
4
100
AcDbLine
 10
16.021004
 20
1.939615
 30
0.0
 11
16.32983
 21
1.982192
 31
0.0
  0
LINE
  5
8ED
330
1F
100
AcDbEntity
  8
1
  6
CONTINUOUS
370
50
 62
4
100
AcDbLine
 10
4.867647
 20
-1.543568
 30
0.0
 11
4.901473
 21
-1.538799
 31
0.0
  0
LINE
  5
8EE
330
1F
100
AcDbEntity
  8
1
  6
CONTINUOUS
370
50
 62
4
100
AcDbLine
 10
7.012592
 20
1.935654
 30
0.0
 11
7.262665999999999
 21
1.971859
 31
0.0
  0
LINE
  5
8EF
330
1F
100
AcDbEntity
  8
1
  6
CONTINUOUS
370
50
 62
4
100
AcDbLine
 10
15.952798
 20
-0.111926
 30
0.0
 11
16.717487
 21
-0.000657
 31
0.0
  0
LINE
  5
8F0
330
1F
100
AcDbEntity
  8
1
  6
CONTINUOUS
370
50
 62
4
100
AcDbLine
 10
15.878049
 20
1.43905
 30
0.0
 11
15.975776
 21
1.454201
 31
0.0
  0
LINE
  5
8F1
330
1F
100
AcDbEntity
  8
1
  6
CONTINUOUS
370
50
 62
4
100
AcDbLine
 10
6.729350999999999
 20
1.412795
 30
0.0
 11
7.054253999999999
 21
1.463352
 31
0.0
  0
LINE
  5
8F2
330
1F
100
AcDbEntity
  8
1
  6
CONTINUOUS
370
50
 62
4
100
AcDbLine
 10
11.218153
 20
1.410537
 30
0.0
 11
11.535334
 21
1.462124
 31
0.0
  0
LINE
  5
8F3
330
1F
100
AcDbEntity
  8
1
  6
CONTINUOUS
370
50
 62
4
100
AcDbLine
 10
4.875131
 20
1.273056
 30
0.0
 11
4.907769
 21
1.278426
 31
0.0
  0
LINE
  5
8F4
330
1F
100
AcDbEntity
  8
1
  6
CONTINUOUS
370
50
 62
4
100
AcDbLine
 10
4.834127
 20
-1.54911
 30
0.0
 11
4.867647
 21
-1.543568
 31
0.0
  0
LINE
  5
8F5
330
1F
100
AcDbEntity
  8
1
  6
CONTINUOUS
370
50
 62
4
100
AcDbLine
 10
11.35568
 20
1.905838
 30
0.0
 11
11.752559
 21
1.972584
 31
0.0
  0
LINE
  5
8F6
330
1F
100
AcDbEntity
  8
1
  6
CONTINUOUS
370
50
 62
4
100
AcDbLine
 10
15.780323
 20
1.422282
 30
0.0
 11
15.878049
 21
1.43905
 31
0.0
  0
LINE
  5
8F7
330
1F
100
AcDbEntity
  8
1
  6
CONTINUOUS
370
50
 62
4
100
AcDbLine
 10
4.863861
 20
-1.996551
 30
0.0
 11
4.922388
 21
-1.985601
 31
0.0
  0
LINE
  5
8F8
330
1F
100
AcDbEntity
  8
1
  6
CONTINUOUS
370
50
 62
4
100
AcDbLine
 10
15.682598
 20
1.403969
 30
0.0
 11
15.780323
 21
1.422282
 31
0.0
  0
LINE
  5
8F9
330
1F
100
AcDbEntity
  8
1
  6
CONTINUOUS
370
50
 62
4
100
AcDbLine
 10
4.800886999999999
 20
-1.555439
 30
0.0
 11
4.834127
 21
-1.54911
 31
0.0
  0
LINE
  5
8FA
330
1F
100
AcDbEntity
  8
1
  6
CONTINUOUS
370
50
 62
4
100
AcDbLine
 10
8.870735
 20
-1.947832
 30
0.0
 11
9.060440999999999
 21
-1.911497
 31
0.0
  0
LINE
  5
8FB
330
1F
100
AcDbEntity
  8
1
  6
CONTINUOUS
370
50
 62
4
100
AcDbLine
 10
4.842791
 20
1.266786
 30
0.0
 11
4.875131
 21
1.273056
 31
0.0
  0
LINE
  5
8FC
330
1F
100
AcDbEntity
  8
1
  6
CONTINUOUS
370
50
 62
4
100
AcDbLine
 10
15.584873
 20
1.384182
 30
0.0
 11
15.682598
 21
1.403969
 31
0.0
  0
LINE
  5
8FD
330
1F
100
AcDbEntity
  8
1
  6
CONTINUOUS
370
50
 62
4
100
AcDbLine
 10
6.787889
 20
1.8894
 30
0.0
 11
7.012592
 21
1.935654
 31
0.0
  0
LINE
  5
8FE
330
1F
100
AcDbEntity
  8
1
  6
CONTINUOUS
370
50
 62
4
100
AcDbLine
 10
13.42607
 20
-1.938246
 30
0.0
 11
13.651813
 21
-1.890215
 31
0.0
  0
LINE
  5
8FF
330
1F
100
AcDbEntity
  8
1
  6
CONTINUOUS
370
50
 62
4
100
AcDbLine
 10
4.768041
 20
-1.562549
 30
0.0
 11
4.800886999999999
 21
-1.555439
 31
0.0
  0
LINE
  5
900
330
1F
100
AcDbEntity
  8
1
  6
CONTINUOUS
370
50
 62
4
100
AcDbLine
 10
15.487148
 20
1.362994
 30
0.0
 11
15.584873
 21
1.384182
 31
0.0
  0
LINE
  5
901
330
1F
100
AcDbEntity
  8
1
  6
CONTINUOUS
370
50
 62
4
100
AcDbLine
 10
15.898288
 20
1.6697
 30
0.0
 11
15.936123
 21
1.677912
 31
0.0
  0
LINE
  5
902
330
1F
100
AcDbEntity
  8
1
  6
CONTINUOUS
370
50
 62
4
100
AcDbLine
 10
15.715483
 20
1.872474
 30
0.0
 11
16.021004
 21
1.939615
 31
0.0
  0
LINE
  5
903
330
1F
100
AcDbEntity
  8
1
  6
CONTINUOUS
370
50
 62
4
100
AcDbLine
 10
10.900983
 20
1.340367
 30
0.0
 11
11.218153
 21
1.410537
 31
0.0
  0
LINE
  5
904
330
1F
100
AcDbEntity
  8
1
  6
CONTINUOUS
370
50
 62
4
100
AcDbLine
 10
6.404456
 20
1.340273
 30
0.0
 11
6.729350999999999
 21
1.412795
 31
0.0
  0
LINE
  5
905
330
1F
100
AcDbEntity
  8
1
  6
CONTINUOUS
370
50
 62
4
100
AcDbLine
 10
4.810696
 20
1.259569
 30
0.0
 11
4.842791
 21
1.266786
 31
0.0
  0
LINE
  5
906
330
1F
100
AcDbEntity
  8
1
  6
CONTINUOUS
370
50
 62
4
100
AcDbLine
 10
15.389423
 20
1.340475
 30
0.0
 11
15.487148
 21
1.362994
 31
0.0
  0
LINE
  5
907
330
1F
100
AcDbEntity
  8
1
  6
CONTINUOUS
370
50
 62
4
100
AcDbLine
 10
9.060440999999999
 20
-1.911497
 30
0.0
 11
9.246845
 21
-1.868162
 31
0.0
  0
LINE
  5
908
330
1F
100
AcDbEntity
  8
1
  6
CONTINUOUS
370
50
 62
4
100
AcDbLine
 10
16.172537
 20
1.734786
 30
0.0
 11
16.228167
 21
1.747784
 31
0.0
  0
LINE
  5
909
330
1F
100
AcDbEntity
  8
1
  6
CONTINUOUS
370
50
 62
4
100
AcDbLine
 10
16.228167
 20
1.747784
 30
0.0
 11
16.274542
 21
1.75867
 31
0.0
  0
LINE
  5
90A
330
1F
100
AcDbEntity
  8
1
  6
CONTINUOUS
370
50
 62
4
100
AcDbLine
 10
16.117393
 20
1.721809
 30
0.0
 11
16.172537
 21
1.734786
 31
0.0
  0
LINE
  5
90B
330
1F
100
AcDbEntity
  8
1
  6
CONTINUOUS
370
50
 62
4
100
AcDbLine
 10
15.936123
 20
1.677912
 30
0.0
 11
15.973891
 21
1.686808
 31
0.0
  0
LINE
  5
90C
330
1F
100
AcDbEntity
  8
1
  6
CONTINUOUS
370
50
 62
4
100
AcDbLine
 10
16.067196
 20
1.70981
 30
0.0
 11
16.117393
 21
1.721809
 31
0.0
  0
LINE
  5
90D
330
1F
100
AcDbEntity
  8
1
  6
CONTINUOUS
370
50
 62
4
100
AcDbLine
 10
16.274542
 20
1.75867
 30
0.0
 11
16.317686
 21
1.769023
 31
0.0
  0
LINE
  5
90E
330
1F
100
AcDbEntity
  8
1
  6
CONTINUOUS
370
50
 62
4
100
AcDbLine
 10
4.735708
 20
-1.570429
 30
0.0
 11
4.768041
 21
-1.562549
 31
0.0
  0
LINE
  5
90F
330
1F
100
AcDbEntity
  8
1
  6
CONTINUOUS
370
50
 62
4
100
AcDbLine
 10
16.017885
 20
1.697764
 30
0.0
 11
16.067196
 21
1.70981
 31
0.0
  0
LINE
  5
910
330
1F
100
AcDbEntity
  8
1
  6
CONTINUOUS
370
50
 62
4
100
AcDbLine
 10
16.317686
 20
1.769023
 30
0.0
 11
16.361588
 21
1.779948
 31
0.0
  0
LINE
  5
911
330
1F
100
AcDbEntity
  8
1
  6
CONTINUOUS
370
50
 62
4
100
AcDbLine
 10
15.973891
 20
1.686808
 30
0.0
 11
16.017885
 21
1.697764
 31
0.0
  0
LINE
  5
912
330
1F
100
AcDbEntity
  8
1
  6
CONTINUOUS
370
50
 62
4
100
AcDbLine
 10
4.778934
 20
1.251377
 30
0.0
 11
4.810696
 21
1.259569
 31
0.0
  0
LINE
  5
913
330
1F
100
AcDbEntity
  8
1
  6
CONTINUOUS
370
50
 62
4
100
AcDbLine
 10
13.651813
 20
-1.890215
 30
0.0
 11
13.804705
 21
-1.85045
 31
0.0
  0
LINE
  5
914
330
1F
100
AcDbEntity
  8
1
  6
CONTINUOUS
370
50
 62
4
100
AcDbLine
 10
11.064414
 20
1.829882
 30
0.0
 11
11.35568
 21
1.905838
 31
0.0
  0
LINE
  5
915
330
1F
100
AcDbEntity
  8
1
  6
CONTINUOUS
370
50
 62
4
100
AcDbLine
 10
6.589154
 20
1.837042
 30
0.0
 11
6.787889
 21
1.8894
 31
0.0
  0
LINE
  5
916
330
1F
100
AcDbEntity
  8
1
  6
CONTINUOUS
370
50
 62
4
100
AcDbLine
 10
16.361588
 20
1.779948
 30
0.0
 11
16.402493
 21
1.790763
 31
0.0
  0
LINE
  5
917
330
1F
100
AcDbEntity
  8
1
  6
CONTINUOUS
370
50
 62
4
100
AcDbLine
 10
9.246845
 20
-1.868162
 30
0.0
 11
9.434078
 21
-1.817489
 31
0.0
  0
LINE
  5
918
330
1F
100
AcDbEntity
  8
1
  6
CONTINUOUS
370
50
 62
4
100
AcDbLine
 10
4.704007
 20
-1.579073
 30
0.0
 11
4.735708
 21
-1.570429
 31
0.0
  0
LINE
  5
919
330
1F
100
AcDbEntity
  8
1
  6
CONTINUOUS
370
50
 62
4
100
AcDbLine
 10
15.398786
 20
1.78226
 30
0.0
 11
15.715483
 21
1.872474
 31
0.0
  0
LINE
  5
91A
330
1F
100
AcDbEntity
  8
1
  6
CONTINUOUS
370
50
 62
4
100
AcDbLine
 10
16.402493
 20
1.790763
 30
0.0
 11
16.440067
 21
1.801601
 31
0.0
  0
LINE
  5
91B
330
1F
100
AcDbEntity
  8
1
  6
CONTINUOUS
370
50
 62
4
100
AcDbLine
 10
13.804705
 20
-1.85045
 30
0.0
 11
13.95378
 21
-1.807171
 31
0.0
  0
LINE
  5
91C
330
1F
100
AcDbEntity
  8
1
  6
CONTINUOUS
370
50
 62
4
100
AcDbLine
 10
4.747611
 20
1.242185
 30
0.0
 11
4.778934
 21
1.251377
 31
0.0
  0
LINE
  5
91D
330
1F
100
AcDbEntity
  8
1
  6
CONTINUOUS
370
50
 62
4
100
AcDbLine
 10
4.922388
 20
-1.985601
 30
0.0
 11
4.982945
 21
-1.967234
 31
0.0
  0
LINE
  5
91E
330
1F
100
AcDbEntity
  8
1
  6
CONTINUOUS
370
50
 62
4
100
AcDbLine
 10
4.673056
 20
-1.588471
 30
0.0
 11
4.704007
 21
-1.579073
 31
0.0
  0
LINE
  5
91F
330
1F
100
AcDbEntity
  8
1
  6
CONTINUOUS
370
50
 62
4
100
AcDbLine
 10
9.434078
 20
-1.817489
 30
0.0
 11
9.621418
 21
-1.759947
 31
0.0
  0
LINE
  5
920
330
1F
100
AcDbEntity
  8
1
  6
CONTINUOUS
370
50
 62
4
100
AcDbLine
 10
6.414226999999999
 20
1.782207
 30
0.0
 11
6.589154
 21
1.837042
 31
0.0
  0
LINE
  5
921
330
1F
100
AcDbEntity
  8
1
  6
CONTINUOUS
370
50
 62
4
100
AcDbLine
 10
13.95378
 20
-1.807171
 30
0.0
 11
14.104053
 21
-1.759261
 31
0.0
  0
LINE
  5
922
330
1F
100
AcDbEntity
  8
1
  6
CONTINUOUS
370
50
 62
4
100
AcDbLine
 10
10.806232
 20
1.747419
 30
0.0
 11
11.064414
 21
1.829882
 31
0.0
  0
LINE
  5
923
330
1F
100
AcDbEntity
  8
1
  6
CONTINUOUS
370
50
 62
4
100
AcDbLine
 10
16.440067
 20
1.801601
 30
0.0
 11
16.474365
 21
1.812681
 31
0.0
  0
LINE
  5
924
330
1F
100
AcDbEntity
  8
1
  6
CONTINUOUS
370
50
 62
4
100
AcDbLine
 10
14.707948
 20
-1.56075
 30
0.0
 11
14.759128
 21
-1.544144
 31
0.0
  0
LINE
  5
925
330
1F
100
AcDbEntity
  8
1
  6
CONTINUOUS
370
50
 62
4
100
AcDbLine
 10
14.65677
 20
-1.577379
 30
0.0
 11
14.707948
 21
-1.56075
 31
0.0
  0
LINE
  5
926
330
1F
100
AcDbEntity
  8
1
  6
CONTINUOUS
370
50
 62
4
100
AcDbLine
 10
9.802832
 20
-1.700246
 30
0.0
 11
9.892185
 21
-1.671211
 31
0.0
  0
LINE
  5
927
330
1F
100
AcDbEntity
  8
1
  6
CONTINUOUS
370
50
 62
4
100
AcDbLine
 10
9.892185
 20
-1.671211
 30
0.0
 11
9.981539
 21
-1.642175
 31
0.0
  0
LINE
  5
928
330
1F
100
AcDbEntity
  8
1
  6
CONTINUOUS
370
50
 62
4
100
AcDbLine
 10
9.712259
 20
-1.729687
 30
0.0
 11
9.802832
 21
-1.700246
 31
0.0
  0
LINE
  5
929
330
1F
100
AcDbEntity
  8
1
  6
CONTINUOUS
370
50
 62
4
100
AcDbLine
 10
9.981539
 20
-1.642175
 30
0.0
 11
10.071135
 21
-1.613047
 31
0.0
  0
LINE
  5
92A
330
1F
100
AcDbEntity
  8
1
  6
CONTINUOUS
370
50
 62
4
100
AcDbLine
 10
9.621402
 20
-1.759239
 30
0.0
 11
9.712259
 21
-1.729687
 31
0.0
  0
LINE
  5
92B
330
1F
100
AcDbEntity
  8
1
  6
CONTINUOUS
370
50
 62
4
100
AcDbLine
 10
10.071135
 20
-1.613047
 30
0.0
 11
10.163154
 21
-1.583104
 31
0.0
  0
LINE
  5
92C
330
1F
100
AcDbEntity
  8
1
  6
CONTINUOUS
370
50
 62
4
100
AcDbLine
 10
14.594629
 20
-1.597606
 30
0.0
 11
14.65677
 21
-1.577379
 31
0.0
  0
LINE
  5
92D
330
1F
100
AcDbEntity
  8
1
  6
CONTINUOUS
370
50
 62
4
100
AcDbLine
 10
10.163154
 20
-1.583104
 30
0.0
 11
10.226854
 21
-1.562353
 31
0.0
  0
LINE
  5
92E
330
1F
100
AcDbEntity
  8
1
  6
CONTINUOUS
370
50
 62
4
100
AcDbLine
 10
10.226854
 20
-1.562353
 30
0.0
 11
10.282462
 21
-1.544218
 31
0.0
  0
LINE
  5
92F
330
1F
100
AcDbEntity
  8
1
  6
CONTINUOUS
370
50
 62
4
100
AcDbLine
 10
14.509342
 20
-1.625439
 30
0.0
 11
14.594629
 21
-1.597606
 31
0.0
  0
LINE
  5
930
330
1F
100
AcDbEntity
  8
1
  6
CONTINUOUS
370
50
 62
4
100
AcDbLine
 10
14.422628
 20
-1.653832
 30
0.0
 11
14.509342
 21
-1.625439
 31
0.0
  0
LINE
  5
931
330
1F
100
AcDbEntity
  8
1
  6
CONTINUOUS
370
50
 62
4
100
AcDbLine
 10
14.336064
 20
-1.682281
 30
0.0
 11
14.422628
 21
-1.653832
 31
0.0
  0
LINE
  5
932
330
1F
100
AcDbEntity
  8
1
  6
CONTINUOUS
370
50
 62
4
100
AcDbLine
 10
14.249247
 20
-1.710927
 30
0.0
 11
14.336064
 21
-1.682281
 31
0.0
  0
LINE
  5
933
330
1F
100
AcDbEntity
  8
1
  6
CONTINUOUS
370
50
 62
4
100
AcDbLine
 10
5.731961999999999
 20
-1.567762
 30
0.0
 11
5.743803
 21
-1.56385
 31
0.0
  0
LINE
  5
934
330
1F
100
AcDbEntity
  8
1
  6
CONTINUOUS
370
50
 62
4
100
AcDbLine
 10
5.743803
 20
-1.56385
 30
0.0
 11
5.755643
 21
-1.559936
 31
0.0
  0
LINE
  5
935
330
1F
100
AcDbEntity
  8
1
  6
CONTINUOUS
370
50
 62
4
100
AcDbLine
 10
5.755643
 20
-1.559936
 30
0.0
 11
5.767482999999999
 21
-1.556018
 31
0.0
  0
LINE
  5
936
330
1F
100
AcDbEntity
  8
1
  6
CONTINUOUS
370
50
 62
4
100
AcDbLine
 10
5.767482999999999
 20
-1.556018
 30
0.0
 11
5.779322
 21
-1.552098
 31
0.0
  0
LINE
  5
937
330
1F
100
AcDbEntity
  8
1
  6
CONTINUOUS
370
50
 62
4
100
AcDbLine
 10
14.176644
 20
-1.734973
 30
0.0
 11
14.249247
 21
-1.710927
 31
0.0
  0
LINE
  5
938
330
1F
100
AcDbEntity
  8
1
  6
CONTINUOUS
370
50
 62
4
100
AcDbLine
 10
5.779322
 20
-1.552098
 30
0.0
 11
5.791162
 21
-1.548174
 31
0.0
  0
LINE
  5
939
330
1F
100
AcDbEntity
  8
1
  6
CONTINUOUS
370
50
 62
4
100
AcDbLine
 10
5.791162
 20
-1.548174
 30
0.0
 11
5.803006
 21
-1.544246
 31
0.0
  0
LINE
  5
93A
330
1F
100
AcDbEntity
  8
1
  6
CONTINUOUS
370
50
 62
4
100
AcDbLine
 10
4.716832999999999
 20
1.231967
 30
0.0
 11
4.747611
 21
1.242185
 31
0.0
  0
LINE
  5
93B
330
1F
100
AcDbEntity
  8
1
  6
CONTINUOUS
370
50
 62
4
100
AcDbLine
 10
14.104052
 20
-1.759099
 30
0.0
 11
14.176644
 21
-1.734973
 31
0.0
  0
LINE
  5
93C
330
1F
100
AcDbEntity
  8
1
  6
CONTINUOUS
370
50
 62
4
100
AcDbLine
 10
4.642882999999999
 20
-1.598649
 30
0.0
 11
4.673056
 21
-1.588471
 31
0.0
  0
LINE
  5
93D
330
1F
100
AcDbEntity
  8
1
  6
CONTINUOUS
370
50
 62
4
100
AcDbLine
 10
15.079006
 20
1.672183
 30
0.0
 11
15.398786
 21
1.78226
 31
0.0
  0
LINE
  5
93E
330
1F
100
AcDbEntity
  8
1
  6
CONTINUOUS
370
50
 62
4
100
AcDbLine
 10
6.25958
 20
1.72798
 30
0.0
 11
6.414226999999999
 21
1.782207
 31
0.0
  0
LINE
  5
93F
330
1F
100
AcDbEntity
  8
1
  6
CONTINUOUS
370
50
 62
4
100
AcDbLine
 10
10.545665
 20
1.651999
 30
0.0
 11
10.806232
 21
1.747419
 31
0.0
  0
LINE
  5
940
330
1F
100
AcDbEntity
  8
1
  6
CONTINUOUS
370
50
 62
4
100
AcDbLine
 10
16.474365
 20
1.812681
 30
0.0
 11
16.505436
 21
1.824227
 31
0.0
  0
LINE
  5
941
330
1F
100
AcDbEntity
  8
1
  6
CONTINUOUS
370
50
 62
4
100
AcDbLine
 10
4.686706
 20
1.220698
 30
0.0
 11
4.716832999999999
 21
1.231967
 31
0.0
  0
LINE
  5
942
330
1F
100
AcDbEntity
  8
1
  6
CONTINUOUS
370
50
 62
4
100
AcDbLine
 10
4.613531
 20
-1.609634
 30
0.0
 11
4.642882999999999
 21
-1.598649
 31
0.0
  0
LINE
  5
943
330
1F
100
AcDbEntity
  8
1
  6
CONTINUOUS
370
50
 62
4
100
AcDbLine
 10
6.108257999999999
 20
1.670815
 30
0.0
 11
6.25958
 21
1.72798
 31
0.0
  0
LINE
  5
944
330
1F
100
AcDbEntity
  8
1
  6
CONTINUOUS
370
50
 62
4
100
AcDbLine
 10
14.759134
 20
1.544146
 30
0.0
 11
15.079006
 21
1.672183
 31
0.0
  0
LINE
  5
945
330
1F
100
AcDbEntity
  8
1
  6
CONTINUOUS
370
50
 62
4
100
AcDbLine
 10
5.955984
 20
1.609482
 30
0.0
 11
6.108257999999999
 21
1.670815
 31
0.0
  0
LINE
  5
946
330
1F
100
AcDbEntity
  8
1
  6
CONTINUOUS
370
50
 62
4
100
AcDbLine
 10
4.982945
 20
-1.967234
 30
0.0
 11
5.04556
 21
-1.941945
 31
0.0
  0
LINE
  5
947
330
1F
100
AcDbEntity
  8
1
  6
CONTINUOUS
370
50
 62
4
100
AcDbLine
 10
10.28246
 20
1.544216
 30
0.0
 11
10.545665
 21
1.651999
 31
0.0
  0
LINE
  5
948
330
1F
100
AcDbEntity
  8
1
  6
CONTINUOUS
370
50
 62
4
100
AcDbLine
 10
4.585217999999999
 20
-1.621398
 30
0.0
 11
4.613531
 21
-1.609634
 31
0.0
  0
LINE
  5
949
330
1F
100
AcDbEntity
  8
1
  6
CONTINUOUS
370
50
 62
4
100
AcDbLine
 10
4.657315
 20
1.208341
 30
0.0
 11
4.686706
 21
1.220698
 31
0.0
  0
LINE
  5
94A
330
1F
100
AcDbEntity
  8
1
  6
CONTINUOUS
370
50
 62
4
100
AcDbLine
 10
5.803018
 20
1.544252
 30
0.0
 11
5.955984
 21
1.609482
 31
0.0
  0
LINE
  5
94B
330
1F
100
AcDbEntity
  8
1
  6
CONTINUOUS
370
50
 62
4
100
AcDbLine
 10
16.505436
 20
1.824227
 30
0.0
 11
16.533318
 21
1.836452
 31
0.0
  0
LINE
  5
94C
330
1F
100
AcDbEntity
  8
1
  6
CONTINUOUS
370
50
 62
4
100
AcDbLine
 10
4.558167
 20
-1.63391
 30
0.0
 11
4.585217999999999
 21
-1.621398
 31
0.0
  0
LINE
  5
94D
330
1F
100
AcDbEntity
  8
1
  6
CONTINUOUS
370
50
 62
4
100
AcDbLine
 10
4.628628
 20
1.194788
 30
0.0
 11
4.657315
 21
1.208341
 31
0.0
  0
LINE
  5
94E
330
1F
100
AcDbEntity
  8
1
  6
CONTINUOUS
370
50
 62
4
100
AcDbLine
 10
5.04556
 20
-1.941945
 30
0.0
 11
5.110907
 21
-1.910211
 31
0.0
  0
LINE
  5
94F
330
1F
100
AcDbEntity
  8
1
  6
CONTINUOUS
370
50
 62
4
100
AcDbLine
 10
4.532598
 20
-1.64714
 30
0.0
 11
4.558167
 21
-1.63391
 31
0.0
  0
LINE
  5
950
330
1F
100
AcDbEntity
  8
1
  6
CONTINUOUS
370
50
 62
4
100
AcDbLine
 10
16.533318
 20
1.836452
 30
0.0
 11
16.558064
 21
1.849548
 31
0.0
  0
LINE
  5
951
330
1F
100
AcDbEntity
  8
1
  6
CONTINUOUS
370
50
 62
4
100
AcDbLine
 10
4.600798999999999
 20
1.179982
 30
0.0
 11
4.628628
 21
1.194788
 31
0.0
  0
LINE
  5
952
330
1F
100
AcDbEntity
  8
1
  6
CONTINUOUS
370
50
 62
4
100
AcDbLine
 10
5.725314
 20
-1.567731
 30
0.0
 11
5.726980999999999
 21
-1.566824
 31
0.0
  0
LINE
  5
953
330
1F
100
AcDbEntity
  8
1
  6
CONTINUOUS
370
50
 62
4
100
AcDbLine
 10
5.728657
 20
-1.565911
 30
0.0
 11
5.730328999999999
 21
-1.565001
 31
0.0
  0
LINE
  5
954
330
1F
100
AcDbEntity
  8
1
  6
CONTINUOUS
370
50
 62
4
100
AcDbLine
 10
5.730328999999999
 20
-1.565001
 30
0.0
 11
5.731999999999999
 21
-1.564091
 31
0.0
  0
LINE
  5
955
330
1F
100
AcDbEntity
  8
1
  6
CONTINUOUS
370
50
 62
4
100
AcDbLine
 10
5.722
 20
-1.569536
 30
0.0
 11
5.723657999999999
 21
-1.568633
 31
0.0
  0
LINE
  5
956
330
1F
100
AcDbEntity
  8
1
  6
CONTINUOUS
370
50
 62
4
100
AcDbLine
 10
5.723657999999999
 20
-1.568633
 30
0.0
 11
5.725314
 21
-1.567731
 31
0.0
  0
LINE
  5
957
330
1F
100
AcDbEntity
  8
1
  6
CONTINUOUS
370
50
 62
4
100
AcDbLine
 10
5.726980999999999
 20
-1.566824
 30
0.0
 11
5.728657
 21
-1.565911
 31
0.0
  0
LINE
  5
958
330
1F
100
AcDbEntity
  8
1
  6
CONTINUOUS
370
50
 62
4
100
AcDbLine
 10
5.110907
 20
-1.910211
 30
0.0
 11
5.179753
 21
-1.872486
 31
0.0
  0
LINE
  5
959
330
1F
100
AcDbEntity
  8
1
  6
CONTINUOUS
370
50
 62
4
100
AcDbLine
 10
5.554236
 20
-1.661983
 30
0.0
 11
5.722
 21
-1.569536
 31
0.0
  0
LINE
  5
95A
330
1F
100
AcDbEntity
  8
1
  6
CONTINUOUS
370
50
 62
4
100
AcDbLine
 10
5.38697
 20
-1.755222
 30
0.0
 11
5.554236
 21
-1.661983
 31
0.0
  0
LINE
  5
95B
330
1F
100
AcDbEntity
  8
1
  6
CONTINUOUS
370
50
 62
4
100
AcDbLine
 10
5.29081
 20
-1.809214
 30
0.0
 11
5.38697
 21
-1.755222
 31
0.0
  0
LINE
  5
95C
330
1F
100
AcDbEntity
  8
1
  6
CONTINUOUS
370
50
 62
4
100
AcDbLine
 10
5.253756999999999
 20
-1.830262
 30
0.0
 11
5.29081
 21
-1.809214
 31
0.0
  0
LINE
  5
95D
330
1F
100
AcDbEntity
  8
1
  6
CONTINUOUS
370
50
 62
4
100
AcDbLine
 10
5.216737
 20
-1.851363
 30
0.0
 11
5.253756999999999
 21
-1.830262
 31
0.0
  0
LINE
  5
95E
330
1F
100
AcDbEntity
  8
1
  6
CONTINUOUS
370
50
 62
4
100
AcDbLine
 10
5.179753
 20
-1.872517
 30
0.0
 11
5.216737
 21
-1.851363
 31
0.0
  0
LINE
  5
95F
330
1F
100
AcDbEntity
  8
1
  6
CONTINUOUS
370
50
 62
4
100
AcDbLine
 10
-0.01
 20
-2.99995
 30
0.0
 11
1.722051
 21
-1.99995
 31
0.0
  0
LINE
  5
960
330
1F
100
AcDbEntity
  8
1
  6
CONTINUOUS
370
50
 62
4
100
AcDbLine
 10
4.508735
 20
-1.661057
 30
0.0
 11
4.532598
 21
-1.64714
 31
0.0
  0
LINE
  5
961
330
1F
100
AcDbEntity
  8
1
  6
CONTINUOUS
370
50
 62
4
100
AcDbLine
 10
4.574025
 20
1.163888
 30
0.0
 11
4.600798999999999
 21
1.179982
 31
0.0
  0
LINE
  5
962
330
1F
100
AcDbEntity
  8
1
  6
CONTINUOUS
370
50
 62
4
100
AcDbLine
 10
16.558064
 20
1.849548
 30
0.0
 11
16.57991
 21
1.863764
 31
0.0
  0
LINE
  5
963
330
1F
100
AcDbEntity
  8
1
  6
CONTINUOUS
370
50
 62
4
100
AcDbLine
 10
4.485231
 20
-1.676755
 30
0.0
 11
4.508735
 21
-1.661057
 31
0.0
  0
LINE
  5
964
330
1F
100
AcDbEntity
  8
1
  6
CONTINUOUS
370
50
 62
4
100
AcDbLine
 10
4.548505
 20
1.146466
 30
0.0
 11
4.574025
 21
1.163888
 31
0.0
  0
LINE
  5
965
330
1F
100
AcDbEntity
  8
1
  6
CONTINUOUS
370
50
 62
4
100
AcDbLine
 10
4.524436
 20
1.12768
 30
0.0
 11
4.548505
 21
1.146466
 31
0.0
  0
LINE
  5
966
330
1F
100
AcDbEntity
  8
1
  6
CONTINUOUS
370
50
 62
4
100
AcDbLine
 10
4.464351
 20
-1.693096
 30
0.0
 11
4.485231
 21
-1.676755
 31
0.0
  0
LINE
  5
967
330
1F
100
AcDbEntity
  8
1
  6
CONTINUOUS
370
50
 62
4
100
AcDbLine
 10
16.485544
 20
-0.290111
 30
0.0
 11
16.722
 21
-0.102093
 31
0.0
  0
LINE
  5
968
330
1F
100
AcDbEntity
  8
1
  6
CONTINUOUS
370
50
 62
4
100
AcDbLine
 10
16.57991
 20
1.863764
 30
0.0
 11
16.599117
 21
1.879359
 31
0.0
  0
LINE
  5
969
330
1F
100
AcDbEntity
  8
1
  6
CONTINUOUS
370
50
 62
4
100
AcDbLine
 10
16.67614
 20
0.394004
 30
0.0
 11
16.681032
 21
0.398374
 31
0.0
  0
LINE
  5
96A
330
1F
100
AcDbEntity
  8
1
  6
CONTINUOUS
370
50
 62
4
100
AcDbLine
 10
4.502022
 20
1.107495
 30
0.0
 11
4.524436
 21
1.12768
 31
0.0
  0
LINE
  5
96B
330
1F
100
AcDbEntity
  8
1
  6
CONTINUOUS
370
50
 62
4
100
AcDbLine
 10
16.671259
 20
0.389599
 30
0.0
 11
16.67614
 21
0.394004
 31
0.0
  0
LINE
  5
96C
330
1F
100
AcDbEntity
  8
1
  6
CONTINUOUS
370
50
 62
4
100
AcDbLine
 10
16.666386
 20
0.385158
 30
0.0
 11
16.671259
 21
0.389599
 31
0.0
  0
LINE
  5
96D
330
1F
100
AcDbEntity
  8
1
  6
CONTINUOUS
370
50
 62
4
100
AcDbLine
 10
16.661526
 20
0.380681
 30
0.0
 11
16.666386
 21
0.385158
 31
0.0
  0
LINE
  5
96E
330
1F
100
AcDbEntity
  8
1
  6
CONTINUOUS
370
50
 62
4
100
AcDbLine
 10
16.656673
 20
0.376168
 30
0.0
 11
16.661526
 21
0.380681
 31
0.0
  0
LINE
  5
96F
330
1F
100
AcDbEntity
  8
1
  6
CONTINUOUS
370
50
 62
4
100
AcDbLine
 10
16.651834
 20
0.37162
 30
0.0
 11
16.656673
 21
0.376168
 31
0.0
  0
LINE
  5
970
330
1F
100
AcDbEntity
  8
1
  6
CONTINUOUS
370
50
 62
4
100
AcDbLine
 10
4.446426
 20
-1.709992
 30
0.0
 11
4.464351
 21
-1.693096
 31
0.0
  0
LINE
  5
971
330
1F
100
AcDbEntity
  8
1
  6
CONTINUOUS
370
50
 62
4
100
AcDbLine
 10
16.647005
 20
0.367035
 30
0.0
 11
16.651834
 21
0.37162
 31
0.0
  0
LINE
  5
972
330
1F
100
AcDbEntity
  8
1
  6
CONTINUOUS
370
50
 62
4
100
AcDbLine
 10
16.646999
 20
-1.999516
 30
0.0
 11
16.649288
 21
-1.997263
 31
0.0
  0
LINE
  5
973
330
1F
100
AcDbEntity
  8
1
  6
CONTINUOUS
370
50
 62
4
100
AcDbLine
 10
16.651577
 20
-1.995007
 30
0.0
 11
16.653868
 21
-1.99275
 31
0.0
  0
LINE
  5
974
330
1F
100
AcDbEntity
  8
1
  6
CONTINUOUS
370
50
 62
4
100
AcDbLine
 10
16.649288
 20
-1.997263
 30
0.0
 11
16.651577
 21
-1.995007
 31
0.0
  0
LINE
  5
975
330
1F
100
AcDbEntity
  8
1
  6
CONTINUOUS
370
50
 62
4
100
AcDbLine
 10
16.653868
 20
-1.99275
 30
0.0
 11
16.656157
 21
-1.990491
 31
0.0
  0
LINE
  5
976
330
1F
100
AcDbEntity
  8
1
  6
CONTINUOUS
370
50
 62
4
100
AcDbLine
 10
16.656157
 20
-1.990491
 30
0.0
 11
16.658449
 21
-1.988229
 31
0.0
  0
LINE
  5
977
330
1F
100
AcDbEntity
  8
1
  6
CONTINUOUS
370
50
 62
4
100
AcDbLine
 10
16.658449
 20
-1.988229
 30
0.0
 11
16.66074
 21
-1.985966
 31
0.0
  0
LINE
  5
978
330
1F
100
AcDbEntity
  8
1
  6
CONTINUOUS
370
50
 62
4
100
AcDbLine
 10
16.66074
 20
-1.985966
 30
0.0
 11
16.663033
 21
-1.983701
 31
0.0
  0
LINE
  5
979
330
1F
100
AcDbEntity
  8
1
  6
CONTINUOUS
370
50
 62
4
100
AcDbLine
 10
16.663033
 20
-1.983701
 30
0.0
 11
16.672014
 21
-1.974799
 31
0.0
  0
LINE
  5
97A
330
1F
100
AcDbEntity
  8
1
  6
CONTINUOUS
370
50
 62
4
100
AcDbLine
 10
16.672014
 20
-1.974799
 30
0.0
 11
16.680958
 21
-1.965923
 31
0.0
  0
LINE
  5
97B
330
1F
100
AcDbEntity
  8
1
  6
CONTINUOUS
370
50
 62
4
100
AcDbLine
 10
16.680958
 20
-1.965923
 30
0.0
 11
16.689861
 21
-1.957072
 31
0.0
  0
LINE
  5
97C
330
1F
100
AcDbEntity
  8
1
  6
CONTINUOUS
370
50
 62
4
100
AcDbLine
 10
16.689861
 20
-1.957072
 30
0.0
 11
16.698725
 21
-1.948246
 31
0.0
  0
LINE
  5
97D
330
1F
100
AcDbEntity
  8
1
  6
CONTINUOUS
370
50
 62
4
100
AcDbLine
 10
16.698725
 20
-1.948246
 30
0.0
 11
16.707546
 21
-1.939446
 31
0.0
  0
LINE
  5
97E
330
1F
100
AcDbEntity
  8
1
  6
CONTINUOUS
370
50
 62
4
100
AcDbLine
 10
16.707546
 20
-1.939446
 30
0.0
 11
16.71633
 21
-1.93067
 31
0.0
  0
LINE
  5
97F
330
1F
100
AcDbEntity
  8
1
  6
CONTINUOUS
370
50
 62
4
100
AcDbLine
 10
16.716253
 20
-1.930748
 30
0.0
 11
16.722
 21
-1.925
 31
0.0
  0
LINE
  5
980
330
1F
100
AcDbEntity
  8
1
  6
CONTINUOUS
370
50
 62
4
100
AcDbLine
 10
16.599117
 20
1.879359
 30
0.0
 11
16.615919
 21
1.896573
 31
0.0
  0
LINE
  5
981
330
1F
100
AcDbEntity
  8
1
  6
CONTINUOUS
370
50
 62
4
100
AcDbLine
 10
4.481509
 20
1.085897
 30
0.0
 11
4.502022
 21
1.107495
 31
0.0
  0
LINE
  5
982
330
1F
100
AcDbEntity
  8
1
  6
CONTINUOUS
370
50
 62
4
100
AcDbLine
 10
16.493774
 20
-0.49745
 30
0.0
 11
16.493788
 21
-0.497435
 31
0.0
  0
LINE
  5
983
330
1F
100
AcDbEntity
  8
1
  6
CONTINUOUS
370
50
 62
4
100
AcDbLine
 10
16.493761
 20
-0.497464
 30
0.0
 11
16.493774
 21
-0.49745
 31
0.0
  0
LINE
  5
984
330
1F
100
AcDbEntity
  8
1
  6
CONTINUOUS
370
50
 62
4
100
AcDbLine
 10
16.493788
 20
-0.497435
 30
0.0
 11
16.493801
 21
-0.497421
 31
0.0
  0
LINE
  5
985
330
1F
100
AcDbEntity
  8
1
  6
CONTINUOUS
370
50
 62
4
100
AcDbLine
 10
16.493813
 20
-0.497406
 30
0.0
 11
16.493826
 21
-0.497392
 31
0.0
  0
LINE
  5
986
330
1F
100
AcDbEntity
  8
1
  6
CONTINUOUS
370
50
 62
4
100
AcDbLine
 10
16.493748
 20
-0.497479
 30
0.0
 11
16.493761
 21
-0.497464
 31
0.0
  0
LINE
  5
987
330
1F
100
AcDbEntity
  8
1
  6
CONTINUOUS
370
50
 62
4
100
AcDbLine
 10
4.431821
 20
-1.727315
 30
0.0
 11
4.446426
 21
-1.709992
 31
0.0
  0
LINE
  5
988
330
1F
100
AcDbEntity
  8
1
  6
CONTINUOUS
370
50
 62
4
100
AcDbLine
 10
16.647005
 20
-1.966037
 30
0.0
 11
16.651834
 21
-1.960261
 31
0.0
  0
LINE
  5
989
330
1F
100
AcDbEntity
  8
1
  6
CONTINUOUS
370
50
 62
4
100
AcDbLine
 10
16.651834
 20
-1.960261
 30
0.0
 11
16.656673
 21
-1.954464
 31
0.0
  0
LINE
  5
98A
330
1F
100
AcDbEntity
  8
1
  6
CONTINUOUS
370
50
 62
4
100
AcDbLine
 10
16.656673
 20
-1.954464
 30
0.0
 11
16.661526
 21
-1.948648
 31
0.0
  0
LINE
  5
98B
330
1F
100
AcDbEntity
  8
1
  6
CONTINUOUS
370
50
 62
4
100
AcDbLine
 10
16.661526
 20
-1.948648
 30
0.0
 11
16.666386
 21
-1.942813
 31
0.0
  0
LINE
  5
98C
330
1F
100
AcDbEntity
  8
1
  6
CONTINUOUS
370
50
 62
4
100
AcDbLine
 10
16.666386
 20
-1.942813
 30
0.0
 11
16.671259
 21
-1.936958
 31
0.0
  0
LINE
  5
98D
330
1F
100
AcDbEntity
  8
1
  6
CONTINUOUS
370
50
 62
4
100
AcDbLine
 10
16.671259
 20
-1.936958
 30
0.0
 11
16.67614
 21
-1.931085
 31
0.0
  0
LINE
  5
98E
330
1F
100
AcDbEntity
  8
1
  6
CONTINUOUS
370
50
 62
4
100
AcDbLine
 10
16.67614
 20
-1.931085
 30
0.0
 11
16.681032
 21
-1.925193
 31
0.0
  0
LINE
  5
98F
330
1F
100
AcDbEntity
  8
1
  6
CONTINUOUS
370
50
 62
4
100
AcDbLine
 10
16.493801
 20
-0.497421
 30
0.0
 11
16.493813
 21
-0.497406
 31
0.0
  0
LINE
  5
990
330
1F
100
AcDbEntity
  8
1
  6
CONTINUOUS
370
50
 62
4
100
AcDbLine
 10
4.463136
 20
1.062872
 30
0.0
 11
4.481509
 21
1.085897
 31
0.0
  0
LINE
  5
991
330
1F
100
AcDbEntity
  8
1
  6
CONTINUOUS
370
50
 62
4
100
AcDbLine
 10
16.615919
 20
1.896573
 30
0.0
 11
16.630444
 21
1.915469
 31
0.0
  0
LINE
  5
992
330
1F
100
AcDbEntity
  8
1
  6
CONTINUOUS
370
50
 62
4
100
AcDbLine
 10
4.447141
 20
1.038404
 30
0.0
 11
4.463136
 21
1.062872
 31
0.0
  0
LINE
  5
993
330
1F
100
AcDbEntity
  8
1
  6
CONTINUOUS
370
50
 62
4
100
AcDbLine
 10
4.421008
 20
-1.744667
 30
0.0
 11
4.431821
 21
-1.727315
 31
0.0
  0
LINE
  5
994
330
1F
100
AcDbEntity
  8
1
  6
CONTINUOUS
370
50
 62
4
100
AcDbLine
 10
16.630444
 20
1.915469
 30
0.0
 11
16.642925
 21
1.936118
 31
0.0
  0
LINE
  5
995
330
1F
100
AcDbEntity
  8
1
  6
CONTINUOUS
370
50
 62
4
100
AcDbLine
 10
15.952798
 20
-0.111926
 30
0.0
 11
15.967175
 21
-0.085492
 31
0.0
  0
LINE
  5
996
330
1F
100
AcDbEntity
  8
1
  6
CONTINUOUS
370
50
 62
4
100
AcDbLine
 10
4.433774
 20
1.012508
 30
0.0
 11
4.447141
 21
1.038404
 31
0.0
  0
LINE
  5
997
330
1F
100
AcDbEntity
  8
1
  6
CONTINUOUS
370
50
 62
4
100
AcDbLine
 10
15.967175
 20
-0.085492
 30
0.0
 11
15.980361
 21
-0.058596
 31
0.0
  0
LINE
  5
998
330
1F
100
AcDbEntity
  8
1
  6
CONTINUOUS
370
50
 62
4
100
AcDbLine
 10
16.642925
 20
1.936118
 30
0.0
 11
16.653633
 21
1.958624
 31
0.0
  0
LINE
  5
999
330
1F
100
AcDbEntity
  8
1
  6
CONTINUOUS
370
50
 62
4
100
AcDbLine
 10
15.980361
 20
-0.058596
 30
0.0
 11
15.992188
 21
-0.031603
 31
0.0
  0
LINE
  5
99A
330
1F
100
AcDbEntity
  8
1
  6
CONTINUOUS
370
50
 62
4
100
AcDbLine
 10
4.414121
 20
-1.761899
 30
0.0
 11
4.421008
 21
-1.744667
 31
0.0
  0
LINE
  5
99B
330
1F
100
AcDbEntity
  8
1
  6
CONTINUOUS
370
50
 62
4
100
AcDbLine
 10
15.992188
 20
-0.031603
 30
0.0
 11
16.002604
 21
-0.004731
 31
0.0
  0
LINE
  5
99C
330
1F
100
AcDbEntity
  8
1
  6
CONTINUOUS
370
50
 62
4
100
AcDbLine
 10
4.423406
 20
0.985591
 30
0.0
 11
4.433774
 21
1.012508
 31
0.0
  0
LINE
  5
99D
330
1F
100
AcDbEntity
  8
1
  6
CONTINUOUS
370
50
 62
4
100
AcDbLine
 10
16.653633
 20
1.958624
 30
0.0
 11
16.663033
 21
1.983701
 31
0.0
  0
LINE
  5
99E
330
1F
100
AcDbEntity
  8
1
  6
CONTINUOUS
370
50
 62
4
100
AcDbLine
 10
16.002604
 20
-0.004731
 30
0.0
 11
16.011623
 21
0.021948
 31
0.0
  0
LINE
  5
99F
330
1F
100
AcDbEntity
  8
1
  6
CONTINUOUS
370
50
 62
4
100
AcDbLine
 10
16.011623
 20
0.021948
 30
0.0
 11
16.01927
 21
0.048365
 31
0.0
  0
LINE
  5
9A0
330
1F
100
AcDbEntity
  8
1
  6
CONTINUOUS
370
50
 62
4
100
AcDbLine
 10
4.416157999999999
 20
0.957811
 30
0.0
 11
4.423406
 21
0.985591
 31
0.0
  0
LINE
  5
9A1
330
1F
100
AcDbEntity
  8
1
  6
CONTINUOUS
370
50
 62
4
100
AcDbLine
 10
16.01927
 20
0.048365
 30
0.0
 11
16.025562
 21
0.074449
 31
0.0
  0
LINE
  5
9A2
330
1F
100
AcDbEntity
  8
1
  6
CONTINUOUS
370
50
 62
4
100
AcDbLine
 10
16.025562
 20
0.074449
 30
0.0
 11
16.030497
 21
0.099998
 31
0.0
  0
LINE
  5
9A3
330
1F
100
AcDbEntity
  8
1
  6
CONTINUOUS
370
50
 62
4
100
AcDbLine
 10
4.411233
 20
-1.778928
 30
0.0
 11
4.414121
 21
-1.761899
 31
0.0
  0
LINE
  5
9A4
330
1F
100
AcDbEntity
  8
1
  6
CONTINUOUS
370
50
 62
4
100
AcDbLine
 10
16.030497
 20
0.099998
 30
0.0
 11
16.034107
 21
0.124867
 31
0.0
  0
LINE
  5
9A5
330
1F
100
AcDbEntity
  8
1
  6
CONTINUOUS
370
50
 62
4
100
AcDbLine
 10
4.412084
 20
0.929211
 30
0.0
 11
4.416157999999999
 21
0.957811
 31
0.0
  0
LINE
  5
9A6
330
1F
100
AcDbEntity
  8
1
  6
CONTINUOUS
370
50
 62
4
100
AcDbLine
 10
16.034529
 20
1.131526
 30
0.0
 11
16.036791
 21
1.151355
 31
0.0
  0
LINE
  5
9A7
330
1F
100
AcDbEntity
  8
1
  6
CONTINUOUS
370
50
 62
4
100
AcDbLine
 10
16.034107
 20
0.124867
 30
0.0
 11
16.036451
 21
0.149023
 31
0.0
  0
LINE
  5
9A8
330
1F
100
AcDbEntity
  8
1
  6
CONTINUOUS
370
50
 62
4
100
AcDbLine
 10
16.489492
 20
-0.583097
 30
0.0
 11
16.493748
 21
-0.497479
 31
0.0
  0
LINE
  5
9A9
330
1F
100
AcDbEntity
  8
1
  6
CONTINUOUS
370
50
 62
4
100
AcDbLine
 10
16.036451
 20
0.149023
 30
0.0
 11
16.037584
 21
0.172435
 31
0.0
  0
LINE
  5
9AA
330
1F
100
AcDbEntity
  8
1
  6
CONTINUOUS
370
50
 62
4
100
AcDbLine
 10
16.036791
 20
1.151355
 30
0.0
 11
16.037691
 21
1.172422
 31
0.0
  0
LINE
  5
9AB
330
1F
100
AcDbEntity
  8
1
  6
CONTINUOUS
370
50
 62
4
100
AcDbLine
 10
16.486858
 20
-0.669069
 30
0.0
 11
16.489492
 21
-0.583097
 31
0.0
  0
LINE
  5
9AC
330
1F
100
AcDbEntity
  8
1
  6
CONTINUOUS
370
50
 62
4
100
AcDbLine
 10
4.411233
 20
0.899913
 30
0.0
 11
4.412084
 21
0.929211
 31
0.0
  0
LINE
  5
9AD
330
1F
100
AcDbEntity
  8
1
  6
CONTINUOUS
370
50
 62
4
100
AcDbLine
 10
16.493826
 20
-0.497392
 30
0.0
 11
16.494175
 21
-0.4674
 31
0.0
  0
LINE
  5
9AE
330
1F
100
AcDbEntity
  8
1
  6
CONTINUOUS
370
50
 62
4
100
AcDbLine
 10
16.485867
 20
-0.7552059999999999
 30
0.0
 11
16.486858
 21
-0.669069
 31
0.0
  0
LINE
  5
9AF
330
1F
100
AcDbEntity
  8
1
  6
CONTINUOUS
370
50
 62
4
100
AcDbLine
 10
-0.01
 20
-2.99995
 30
0.0
 11
-0.01
 21
2.99995
 31
0.0
  0
LINE
  5
9B0
330
1F
100
AcDbEntity
  8
1
  6
CONTINUOUS
370
50
 62
4
100
AcDbLine
 10
1.722051
 20
-1.99995
 30
0.0
 11
1.722051
 21
1.99995
 31
0.0
  0
LINE
  5
9B1
330
1F
100
AcDbEntity
  8
1
  6
CONTINUOUS
370
50
 62
4
100
AcDbLine
 10
5.722
 20
-1.569536
 30
0.0
 11
5.722
 21
1.569536
 31
0.0
  0
LINE
  5
9B2
330
1F
100
AcDbEntity
  8
1
  6
CONTINUOUS
370
50
 62
4
100
AcDbLine
 10
5.731999999999999
 20
1.525933
 30
0.0
 11
5.731999999999999
 21
1.56775
 31
0.0
  0
LINE
  5
9B3
330
1F
100
AcDbEntity
  8
1
  6
CONTINUOUS
370
50
 62
4
100
AcDbLine
 10
5.731999999999999
 20
1.302701
 30
0.0
 11
5.731999999999999
 21
1.308077
 31
0.0
  0
LINE
  5
9B4
330
1F
100
AcDbEntity
  8
1
  6
CONTINUOUS
370
50
 62
4
100
AcDbLine
 10
5.731999999999999
 20
-1.532723
 30
0.0
 11
5.731999999999999
 21
-1.517424
 31
0.0
  0
LINE
  5
9B5
330
1F
100
AcDbEntity
  8
1
  6
CONTINUOUS
370
50
 62
4
100
AcDbLine
 10
5.731999999999999
 20
-1.545284
 30
0.0
 11
5.731999999999999
 21
-1.532723
 31
0.0
  0
LINE
  5
9B6
330
1F
100
AcDbEntity
  8
1
  6
CONTINUOUS
370
50
 62
4
100
AcDbLine
 10
5.731999999999999
 20
-1.555088
 30
0.0
 11
5.731999999999999
 21
-1.545284
 31
0.0
  0
LINE
  5
9B7
330
1F
100
AcDbEntity
  8
1
  6
CONTINUOUS
370
50
 62
4
100
AcDbLine
 10
5.731999999999999
 20
-1.562114
 30
0.0
 11
5.731999999999999
 21
-1.555088
 31
0.0
  0
LINE
  5
9B8
330
1F
100
AcDbEntity
  8
1
  6
CONTINUOUS
370
50
 62
4
100
AcDbLine
 10
5.731999999999999
 20
-1.566341
 30
0.0
 11
5.731999999999999
 21
-1.562114
 31
0.0
  0
LINE
  5
9B9
330
1F
100
AcDbEntity
  8
1
  6
CONTINUOUS
370
50
 62
4
100
AcDbLine
 10
5.731999999999999
 20
-1.56775
 30
0.0
 11
5.731999999999999
 21
-1.566341
 31
0.0
  0
LINE
  5
9BA
330
1F
100
AcDbEntity
  8
1
  6
CONTINUOUS
370
50
 62
4
100
AcDbLine
 10
5.731999999999999
 20
-1.292722
 30
0.0
 11
5.731999999999999
 21
-1.280725
 31
0.0
  0
LINE
  5
9BB
330
1F
100
AcDbEntity
  8
1
  6
CONTINUOUS
370
50
 62
4
100
AcDbLine
 10
5.731999999999999
 20
-1.517422
 30
0.0
 11
5.731999999999999
 21
-1.51279
 31
0.0
  0
LINE
  5
9BC
330
1F
100
AcDbEntity
  8
1
  6
CONTINUOUS
370
50
 62
4
100
AcDbLine
 10
5.731999999999999
 20
0.7689739999999999
 30
0.0
 11
5.731999999999999
 21
0.980331
 31
0.0
  0
LINE
  5
9BD
330
1F
100
AcDbEntity
  8
1
  6
CONTINUOUS
370
50
 62
4
100
AcDbLine
 10
5.731999999999999
 20
0.980331
 30
0.0
 11
5.731999999999999
 21
1.302701
 31
0.0
  0
LINE
  5
9BE
330
1F
100
AcDbEntity
  8
1
  6
CONTINUOUS
370
50
 62
4
100
AcDbLine
 10
5.731999999999999
 20
0.738189
 30
0.0
 11
5.731999999999999
 21
0.7689739999999999
 31
0.0
  0
LINE
  5
9BF
330
1F
100
AcDbEntity
  8
1
  6
CONTINUOUS
370
50
 62
4
100
AcDbLine
 10
5.731999999999999
 20
0.706815
 30
0.0
 11
5.731999999999999
 21
0.738189
 31
0.0
  0
LINE
  5
9C0
330
1F
100
AcDbEntity
  8
1
  6
CONTINUOUS
370
50
 62
4
100
AcDbLine
 10
5.731999999999999
 20
0.6749299999999999
 30
0.0
 11
5.731999999999999
 21
0.706815
 31
0.0
  0
LINE
  5
9C1
330
1F
100
AcDbEntity
  8
1
  6
CONTINUOUS
370
50
 62
4
100
AcDbLine
 10
5.731999999999999
 20
0.642614
 30
0.0
 11
5.731999999999999
 21
0.6749299999999999
 31
0.0
  0
LINE
  5
9C2
330
1F
100
AcDbEntity
  8
1
  6
CONTINUOUS
370
50
 62
4
100
AcDbLine
 10
5.731999999999999
 20
0.6099439999999999
 30
0.0
 11
5.731999999999999
 21
0.642614
 31
0.0
  0
LINE
  5
9C3
330
1F
100
AcDbEntity
  8
1
  6
CONTINUOUS
370
50
 62
4
100
AcDbLine
 10
5.731999999999999
 20
0.577019
 30
0.0
 11
5.731999999999999
 21
0.6099439999999999
 31
0.0
  0
LINE
  5
9C4
330
1F
100
AcDbEntity
  8
1
  6
CONTINUOUS
370
50
 62
4
100
AcDbLine
 10
5.731999999999999
 20
0.544057
 30
0.0
 11
5.731999999999999
 21
0.577019
 31
0.0
  0
LINE
  5
9C5
330
1F
100
AcDbEntity
  8
1
  6
CONTINUOUS
370
50
 62
4
100
AcDbLine
 10
5.731999999999999
 20
0.511166
 30
0.0
 11
5.731999999999999
 21
0.544057
 31
0.0
  0
LINE
  5
9C6
330
1F
100
AcDbEntity
  8
1
  6
CONTINUOUS
370
50
 62
4
100
AcDbLine
 10
5.731999999999999
 20
0.478425
 30
0.0
 11
5.731999999999999
 21
0.511166
 31
0.0
  0
LINE
  5
9C7
330
1F
100
AcDbEntity
  8
1
  6
CONTINUOUS
370
50
 62
4
100
AcDbLine
 10
5.731999999999999
 20
0.445917
 30
0.0
 11
5.731999999999999
 21
0.478425
 31
0.0
  0
LINE
  5
9C8
330
1F
100
AcDbEntity
  8
1
  6
CONTINUOUS
370
50
 62
4
100
AcDbLine
 10
5.731999999999999
 20
0.413721
 30
0.0
 11
5.731999999999999
 21
0.445917
 31
0.0
  0
LINE
  5
9C9
330
1F
100
AcDbEntity
  8
1
  6
CONTINUOUS
370
50
 62
4
100
AcDbLine
 10
5.731999999999999
 20
0.381918
 30
0.0
 11
5.731999999999999
 21
0.413721
 31
0.0
  0
LINE
  5
9CA
330
1F
100
AcDbEntity
  8
1
  6
CONTINUOUS
370
50
 62
4
100
AcDbLine
 10
5.731999999999999
 20
0.350619
 30
0.0
 11
5.731999999999999
 21
0.381918
 31
0.0
  0
LINE
  5
9CB
330
1F
100
AcDbEntity
  8
1
  6
CONTINUOUS
370
50
 62
4
100
AcDbLine
 10
5.731999999999999
 20
0.319996
 30
0.0
 11
5.731999999999999
 21
0.350619
 31
0.0
  0
LINE
  5
9CC
330
1F
100
AcDbEntity
  8
1
  6
CONTINUOUS
370
50
 62
4
100
AcDbLine
 10
5.731999999999999
 20
0.290132
 30
0.0
 11
5.731999999999999
 21
0.319996
 31
0.0
  0
LINE
  5
9CD
330
1F
100
AcDbEntity
  8
1
  6
CONTINUOUS
370
50
 62
4
100
AcDbLine
 10
5.731999999999999
 20
0.261104
 30
0.0
 11
5.731999999999999
 21
0.290132
 31
0.0
  0
LINE
  5
9CE
330
1F
100
AcDbEntity
  8
1
  6
CONTINUOUS
370
50
 62
4
100
AcDbLine
 10
5.731999999999999
 20
0.233036
 30
0.0
 11
5.731999999999999
 21
0.261104
 31
0.0
  0
LINE
  5
9CF
330
1F
100
AcDbEntity
  8
1
  6
CONTINUOUS
370
50
 62
4
100
AcDbLine
 10
5.731999999999999
 20
0.206025
 30
0.0
 11
5.731999999999999
 21
0.233036
 31
0.0
  0
LINE
  5
9D0
330
1F
100
AcDbEntity
  8
1
  6
CONTINUOUS
370
50
 62
4
100
AcDbLine
 10
5.731999999999999
 20
0.180138
 30
0.0
 11
5.731999999999999
 21
0.206025
 31
0.0
  0
LINE
  5
9D1
330
1F
100
AcDbEntity
  8
1
  6
CONTINUOUS
370
50
 62
4
100
AcDbLine
 10
5.731999999999999
 20
0.120613
 30
0.0
 11
5.731999999999999
 21
0.180634
 31
0.0
  0
LINE
  5
9D2
330
1F
100
AcDbEntity
  8
1
  6
CONTINUOUS
370
50
 62
4
100
AcDbLine
 10
5.731999999999999
 20
0.057674
 30
0.0
 11
5.731999999999999
 21
0.120613
 31
0.0
  0
LINE
  5
9D3
330
1F
100
AcDbEntity
  8
1
  6
CONTINUOUS
370
50
 62
4
100
AcDbLine
 10
5.731999999999999
 20
-0.008036
 30
0.0
 11
5.731999999999999
 21
0.057674
 31
0.0
  0
LINE
  5
9D4
330
1F
100
AcDbEntity
  8
1
  6
CONTINUOUS
370
50
 62
4
100
AcDbLine
 10
5.731999999999999
 20
-0.076374
 30
0.0
 11
5.731999999999999
 21
-0.008036
 31
0.0
  0
LINE
  5
9D5
330
1F
100
AcDbEntity
  8
1
  6
CONTINUOUS
370
50
 62
4
100
AcDbLine
 10
5.731999999999999
 20
-0.147196
 30
0.0
 11
5.731999999999999
 21
-0.076374
 31
0.0
  0
LINE
  5
9D6
330
1F
100
AcDbEntity
  8
1
  6
CONTINUOUS
370
50
 62
4
100
AcDbLine
 10
5.731999999999999
 20
-0.220356
 30
0.0
 11
5.731999999999999
 21
-0.147196
 31
0.0
  0
LINE
  5
9D7
330
1F
100
AcDbEntity
  8
1
  6
CONTINUOUS
370
50
 62
4
100
AcDbLine
 10
5.731999999999999
 20
-0.295711
 30
0.0
 11
5.731999999999999
 21
-0.220356
 31
0.0
  0
LINE
  5
9D8
330
1F
100
AcDbEntity
  8
1
  6
CONTINUOUS
370
50
 62
4
100
AcDbLine
 10
5.731999999999999
 20
-0.37304
 30
0.0
 11
5.731999999999999
 21
-0.295711
 31
0.0
  0
LINE
  5
9D9
330
1F
100
AcDbEntity
  8
1
  6
CONTINUOUS
370
50
 62
4
100
AcDbLine
 10
5.731999999999999
 20
-0.451898
 30
0.0
 11
5.731999999999999
 21
-0.37304
 31
0.0
  0
LINE
  5
9DA
330
1F
100
AcDbEntity
  8
1
  6
CONTINUOUS
370
50
 62
4
100
AcDbLine
 10
5.731999999999999
 20
-0.532088
 30
0.0
 11
5.731999999999999
 21
-0.451898
 31
0.0
  0
LINE
  5
9DB
330
1F
100
AcDbEntity
  8
1
  6
CONTINUOUS
370
50
 62
4
100
AcDbLine
 10
5.731999999999999
 20
-0.6134379999999999
 30
0.0
 11
5.731999999999999
 21
-0.532088
 31
0.0
  0
LINE
  5
9DC
330
1F
100
AcDbEntity
  8
1
  6
CONTINUOUS
370
50
 62
4
100
AcDbLine
 10
5.731999999999999
 20
-0.695776
 30
0.0
 11
5.731999999999999
 21
-0.6134379999999999
 31
0.0
  0
LINE
  5
9DD
330
1F
100
AcDbEntity
  8
1
  6
CONTINUOUS
370
50
 62
4
100
AcDbLine
 10
5.731999999999999
 20
-0.7789309999999999
 30
0.0
 11
5.731999999999999
 21
-0.695776
 31
0.0
  0
LINE
  5
9DE
330
1F
100
AcDbEntity
  8
1
  6
CONTINUOUS
370
50
 62
4
100
AcDbLine
 10
5.731999999999999
 20
-0.8627319999999999
 30
0.0
 11
5.731999999999999
 21
-0.7789309999999999
 31
0.0
  0
LINE
  5
9DF
330
1F
100
AcDbEntity
  8
1
  6
CONTINUOUS
370
50
 62
4
100
AcDbLine
 10
5.731999999999999
 20
-0.946882
 30
0.0
 11
5.731999999999999
 21
-0.8627319999999999
 31
0.0
  0
LINE
  5
9E0
330
1F
100
AcDbEntity
  8
1
  6
CONTINUOUS
370
50
 62
4
100
AcDbLine
 10
5.731999999999999
 20
-1.030937
 30
0.0
 11
5.731999999999999
 21
-0.946882
 31
0.0
  0
LINE
  5
9E1
330
1F
100
AcDbEntity
  8
1
  6
CONTINUOUS
370
50
 62
4
100
AcDbLine
 10
5.731999999999999
 20
-1.114712
 30
0.0
 11
5.731999999999999
 21
-1.030937
 31
0.0
  0
LINE
  5
9E2
330
1F
100
AcDbEntity
  8
1
  6
CONTINUOUS
370
50
 62
4
100
AcDbLine
 10
5.731999999999999
 20
-1.198033
 30
0.0
 11
5.731999999999999
 21
-1.114712
 31
0.0
  0
LINE
  5
9E3
330
1F
100
AcDbEntity
  8
1
  6
CONTINUOUS
370
50
 62
4
100
AcDbLine
 10
5.731999999999999
 20
-1.280725
 30
0.0
 11
5.731999999999999
 21
-1.198033
 31
0.0
  0
LINE
  5
9E4
330
1F
100
AcDbEntity
  8
1
  6
CONTINUOUS
370
50
 62
4
100
AcDbLine
 10
16.646999
 20
0.043995
 30
0.0
 11
16.646999
 21
0.367035
 31
0.0
  0
LINE
  5
9E5
330
1F
100
AcDbEntity
  8
1
  6
CONTINUOUS
370
50
 62
4
100
AcDbLine
 10
16.646999
 20
-1.999516
 30
0.0
 11
16.646999
 21
-1.966033
 31
0.0
  0
LINE
  5
9E6
330
1F
100
AcDbEntity
  8
1
  6
CONTINUOUS
370
50
 62
4
100
AcDbLine
 10
16.722
 20
-1.925
 30
0.0
 11
16.722
 21
0.272271
 31
0.0
  0
LINE
  5
9E7
330
1F
100
AcDbEntity
  8
1
  6
CONTINUOUS
370
50
 62
4
100
AcDbLine
 10
16.722
 20
0.272277
 30
0.0
 11
16.722
 21
1.924997
 31
0.0
  0
ELLIPSE
  5
9E8
330
1F
100
AcDbEntity
  8
1
  6
CONTINUOUS
370
50
 62
4
100
AcDbEllipse
 10
16.593693
 20
0.0
 30
0.0
 11
1.189030314637483E-16
 21
1.941898
 31
0.0
210
0.0
220
0.0
230
1.0
 40
0.3435607843460367
 41
3.272873162270074
 42
3.335116648463064
  0
ELLIPSE
  5
9E9
330
1F
100
AcDbEntity
  8
1
  6
CONTINUOUS
370
50
 62
4
100
AcDbEllipse
 10
23.162176
 20
3.302003
 30
0.0
 11
-32.42243388169941
 21
9.066551423048722
 31
0.0
210
0.0
220
0.0
230
0.9999999999999998
 40
0.3046542100679693
 41
1.088470730216111
 42
1.090499897211057
  0
ELLIPSE
  5
9EA
330
1F
100
AcDbEntity
  8
1
  6
CONTINUOUS
370
50
 62
4
100
AcDbEllipse
 10
23.162176
 20
29.974239
 30
0.0
 11
25.75361493998728
 21
21.68335507127793
 31
0.0
210
0.0
220
0.0
230
1.0
 40
0.9172737203549401
 41
3.487453271085609
 42
3.489482438121082
  0
ELLIPSE
  5
9EB
330
1F
100
AcDbEntity
  8
1
  6
CONTINUOUS
370
50
 62
4
100
AcDbEllipse
 10
23.536266
 20
-29.529926
 30
0.0
 11
-25.90028367974416
 21
21.80684338037221
 31
0.0
210
0.0
220
0.0
230
1.0
 40
0.9172737423259727
 41
5.974391885011414
 42
5.99317643198361
  0
ELLIPSE
  5
9EC
330
1F
100
AcDbEntity
  8
1
  6
CONTINUOUS
370
50
 62
4
100
AcDbEllipse
 10
23.536266
 20
4.639768999999999
 30
0.0
 11
-32.60708197598184
 21
9.118186085890137
 31
0.0
210
0.0
220
0.0
230
0.9999999999999998
 40
0.3046542174553146
 41
1.032618984915262
 42
1.080523127765346
  0
ELLIPSE
  5
9ED
330
1F
100
AcDbEntity
  8
1
  6
CONTINUOUS
370
50
 62
4
100
AcDbEllipse
 10
23.722217
 20
5.304738
 30
0.0
 11
-32.45560398557835
 21
9.075827051572528
 31
0.0
210
0.0
220
0.0
230
1.0
 40
0.3046542280014262
 41
1.046220734189794
 42
1.070661338259717
  0
LINE
  5
9EE
330
1F
100
AcDbEntity
  8
CUT
  6
CONTINUOUS
370
25
 62
1
100
AcDbLine
 10
5.722
 20
0.0
 30
0.0
 11
16.722
 21
0.0
 31
0.0
  0
LINE
  5
9EF
330
1F
100
AcDbEntity
  8
CUT
  6
CONTINUOUS
370
25
 62
1
100
AcDbLine
 10
16.722
 20
0.0
 30
0.0
 11
16.722
 21
1.92
 31
0.0
  0
LINE
  5
9F0
330
1F
100
AcDbEntity
  8
CUT
  6
CONTINUOUS
370
25
 62
1
100
AcDbLine
 10
16.722
 20
1.92
 30
0.0
 11
16.722
 21
1.925
 31
0.0
  0
LINE
  5
9F1
330
1F
100
AcDbEntity
  8
CUT
  6
CONTINUOUS
370
25
 62
1
100
AcDbLine
 10
16.722
 20
1.925
 30
0.0
 11
16.647
 21
2.0
 31
0.0
  0
LINE
  5
9F2
330
1F
100
AcDbEntity
  8
CUT
  6
CONTINUOUS
370
25
 62
1
100
AcDbLine
 10
16.647
 20
2.0
 30
0.0
 11
5.722
 21
1.9999
 31
0.0
  0
LINE
  5
9F3
330
1F
100
AcDbEntity
  8
CUT
  6
CONTINUOUS
370
25
 62
1
100
AcDbLine
 10
5.722
 20
1.9999
 30
0.0
 11
5.722
 21
1.9949
 31
0.0
  0
LINE
  5
9F4
330
1F
100
AcDbEntity
  8
CUT
  6
CONTINUOUS
370
25
 62
1
100
AcDbLine
 10
5.722
 20
1.9949
 30
0.0
 11
5.722
 21
0.0
 31
0.0
  0
LINE
  5
9F5
330
1F
100
AcDbEntity
  8
NOCUT
  6
CONTINUOUS
370
25
 62
7
100
AcDbLine
 10
-0.01
 20
0.0
 30
0.0
 11
5.722
 21
0.0
 31
0.0
  0
LINE
  5
9F6
330
1F
100
AcDbEntity
  8
NOCUT
  6
CONTINUOUS
370
25
 62
7
100
AcDbLine
 10
5.722
 20
0.0
 30
0.0
 11
5.722
 21
1.99495
 31
0.0
  0
LINE
  5
9F7
330
1F
100
AcDbEntity
  8
NOCUT
  6
CONTINUOUS
370
25
 62
7
100
AcDbLine
 10
5.722
 20
1.99495
 30
0.0
 11
5.722
 21
1.99995
 31
0.0
  0
LINE
  5
9F8
330
1F
100
AcDbEntity
  8
NOCUT
  6
CONTINUOUS
370
25
 62
7
100
AcDbLine
 10
5.722
 20
1.99995
 30
0.0
 11
1.722050807568878
 21
1.99995
 31
0.0
  0
LINE
  5
9F9
330
1F
100
AcDbEntity
  8
NOCUT
  6
CONTINUOUS
370
25
 62
7
100
AcDbLine
 10
1.722050807568878
 20
1.99995
 30
0.0
 11
-0.01
 21
2.99995
 31
0.0
  0
LINE
  5
9FA
330
1F
100
AcDbEntity
  8
NOCUT
  6
CONTINUOUS
370
25
 62
7
100
AcDbLine
 10
-0.01
 20
2.99995
 30
0.0
 11
-0.01
 21
0.0
 31
0.0
  0
LINE
  5
9FB
330
1F
100
AcDbEntity
  8
SK1
  6
CONTINUOUS
370
50
 62
4
100
AcDbLine
 10
-0.01
 20
3.0
 30
0.0
 11
-39.478
 21
3.0
 31
0.0
  0
LINE
  5
9FC
330
1F
100
AcDbEntity
  8
SK1
  6
CONTINUOUS
370
50
 62
4
100
AcDbLine
 10
-39.478
 20
3.0
 30
0.0
 11
-40.278
 21
2.538119784648299
 31
0.0
  0
LINE
  5
9FD
330
1F
100
AcDbEntity
  8
SK1
  6
CONTINUOUS
370
50
 62
4
100
AcDbLine
 10
-40.278
 20
2.538119784648299
 30
0.0
 11
-40.278
 21
-2.538119784648299
 31
0.0
  0
LINE
  5
9FE
330
1F
100
AcDbEntity
  8
SK1
  6
CONTINUOUS
370
50
 62
4
100
AcDbLine
 10
-40.278
 20
-2.538119784648299
 30
0.0
 11
-39.478
 21
-3.0
 31
0.0
  0
LINE
  5
9FF
330
1F
100
AcDbEntity
  8
SK1
  6
CONTINUOUS
370
50
 62
4
100
AcDbLine
 10
-39.478
 20
-3.0
 30
0.0
 11
-0.01
 21
-3.0
 31
0.0
  0
LINE
  5
A00
330
1F
100
AcDbEntity
  8
SK1
  6
CONTINUOUS
370
50
 62
4
100
AcDbLine
 10
-24.378
 20
-2.4
 30
0.0
 11
-24.378
 21
2.4
 31
0.0
  0
LINE
  5
A01
330
1F
100
AcDbEntity
  8
SK1
  6
CONTINUOUS
370
50
 62
4
100
AcDbLine
 10
-24.378
 20
2.4
 30
0.0
 11
-20.178
 21
2.4
 31
0.0
  0
LINE
  5
A02
330
1F
100
AcDbEntity
  8
SK1
  6
CONTINUOUS
370
50
 62
4
100
AcDbLine
 10
-20.178
 20
2.4
 30
0.0
 11
-20.178
 21
-2.4
 31
0.0
  0
LINE
  5
A03
330
1F
100
AcDbEntity
  8
SK1
  6
CONTINUOUS
370
50
 62
4
100
AcDbLine
 10
-20.178
 20
-2.4
 30
0.0
 11
-24.378
 21
-2.4
 31
0.0
  0
ARC
  5
A04
330
1F
100
AcDbEntity
  8
SK1
  6
CONTINUOUS
370
50
 62
4
100
AcDbCircle
 10
-22.578
 20
0.0
 30
0.0
 40
3.000000000000003
100
AcDbArc
 50
126.8698976458441
 51
233.1301023541558
  0
ARC
  5
A05
330
1F
100
AcDbEntity
  8
SK1
  6
CONTINUOUS
370
50
 62
4
100
AcDbCircle
 10
-21.97800000000001
 20
0.0
 30
0.0
 40
3.000000000000004
100
AcDbArc
 50
306.869897645844
 51
53.13010235415592
  0
LINE
  5
A06
330
1F
100
AcDbEntity
  8
SK1
  6
CONTINUOUS
370
50
 62
4
100
AcDbLine
 10
-39.478
 20
3.0
 30
0.0
 11
-39.478
 21
-3.0
 31
0.0
  0
LINE
  5
A07
330
1F
100
AcDbEntity
  8
SK2
  6
CONTINUOUS
370
25
 62
7
100
AcDbLine
 10
-40.278
 20
2.07623957
 30
0.0
 11
-40.278
 21
15.0
 31
0.0
  0
LINE
  5
A08
330
1F
100
AcDbEntity
  8
SK2
  6
CONTINUOUS
370
25
 62
7
100
AcDbLine
 10
-0.0099999999999999
 20
16.0
 30
0.0
 11
-0.0100000000000007
 21
3.0
 31
0.0
  0
LINE
  5
A09
330
1F
100
AcDbEntity
  8
SK2
  6
CONTINUOUS
370
25
 62
7
100
AcDbLine
 10
-40.278
 20
15.0
 30
0.0
 11
-0.01
 21
15.0
 31
0.0
  0
LINE
  5
A0A
330
1F
100
AcDbEntity
  8
SK2
  6
CONTINUOUS
370
25
 62
7
100
AcDbLine
 10
-40.278
 20
15.0
 30
0.0
 11
-35.278
 21
16.0
 31
0.0
  0
LINE
  5
A0B
330
1F
100
AcDbEntity
  8
SK2
  6
CONTINUOUS
370
25
 62
7
100
AcDbLine
 10
-35.278
 20
16.0
 30
0.0
 11
-35.278
 21
14.0
 31
0.0
  0
LINE
  5
A0C
330
1F
100
AcDbEntity
  8
SK2
  6
CONTINUOUS
370
25
 62
7
100
AcDbLine
 10
-35.278
 20
14.0
 30
0.0
 11
-40.278
 21
15.0
 31
0.0
  0
LINE
  5
A0D
330
1F
100
AcDbEntity
  8
SK2
  6
CONTINUOUS
370
25
 62
7
100
AcDbLine
 10
-35.58708003274634
 20
14.06181600654926
 30
0.0
 11
-35.278
 21
14.37089603929561
 31
0.0
  0
LINE
  5
A0E
330
1F
100
AcDbEntity
  8
SK2
  6
CONTINUOUS
370
25
 62
7
100
AcDbLine
 10
-35.94063342333962
 20
14.13252668466792
 30
0.0
 11
-35.278
 21
14.79516010800754
 31
0.0
  0
LINE
  5
A0F
330
1F
100
AcDbEntity
  8
SK2
  6
CONTINUOUS
370
25
 62
7
100
AcDbLine
 10
-36.29418681393289
 20
14.20323736278657
 30
0.0
 11
-35.278
 21
15.21942417671946
 31
0.0
  0
LINE
  5
A10
330
1F
100
AcDbEntity
  8
SK2
  6
CONTINUOUS
370
25
 62
7
100
AcDbLine
 10
-36.64774020452617
 20
14.27394804090523
 30
0.0
 11
-35.278
 21
15.6436882454314
 31
0.0
  0
LINE
  5
A11
330
1F
100
AcDbEntity
  8
SK2
  6
CONTINUOUS
370
25
 62
7
100
AcDbLine
 10
-37.00129359511944
 20
14.34465871902388
 30
0.0
 11
-35.36294039267916
 21
15.98301192146417
 31
0.0
  0
LINE
  5
A12
330
1F
100
AcDbEntity
  8
SK2
  6
CONTINUOUS
370
25
 62
7
100
AcDbLine
 10
-37.35484698571272
 20
14.41536939714254
 30
0.0
 11
-35.89327047856907
 21
15.87694590428619
 31
0.0
  0
LINE
  5
A13
330
1F
100
AcDbEntity
  8
SK2
  6
CONTINUOUS
370
25
 62
7
100
AcDbLine
 10
-37.708400376306
 20
14.4860800752612
 30
0.0
 11
-36.42360056445899
 21
15.7708798871082
 31
0.0
  0
LINE
  5
A14
330
1F
100
AcDbEntity
  8
SK2
  6
CONTINUOUS
370
25
 62
7
100
AcDbLine
 10
-38.06195376689927
 20
14.55679075337986
 30
0.0
 11
-36.95393065034891
 21
15.66481386993021
 31
0.0
  0
LINE
  5
A15
330
1F
100
AcDbEntity
  8
SK2
  6
CONTINUOUS
370
25
 62
7
100
AcDbLine
 10
-38.41550715749255
 20
14.62750143149851
 30
0.0
 11
-37.48426073623882
 21
15.55874785275223
 31
0.0
  0
LINE
  5
A16
330
1F
100
AcDbEntity
  8
SK2
  6
CONTINUOUS
370
25
 62
7
100
AcDbLine
 10
-38.76906054808583
 20
14.69821210961717
 30
0.0
 11
-38.01459082212874
 21
15.45268183557425
 31
0.0
  0
LINE
  5
A17
330
1F
100
AcDbEntity
  8
SK2
  6
CONTINUOUS
370
25
 62
7
100
AcDbLine
 10
-39.1226139386791
 20
14.76892278773582
 30
0.0
 11
-38.54492090801865
 21
15.34661581839627
 31
0.0
  0
LINE
  5
A18
330
1F
100
AcDbEntity
  8
SK2
  6
CONTINUOUS
370
25
 62
7
100
AcDbLine
 10
-39.47616732927237
 20
14.83963346585448
 30
0.0
 11
-39.07525099390856
 21
15.24054980121829
 31
0.0
  0
LINE
  5
A19
330
1F
100
AcDbEntity
  8
SK2
  6
CONTINUOUS
370
25
 62
7
100
AcDbLine
 10
-39.82972071986565
 20
14.91034414397313
 30
0.0
 11
-39.60558107979847
 21
15.13448378404031
 31
0.0
  0
LINE
  5
A1A
330
1F
100
AcDbEntity
  8
SK2
  6
CONTINUOUS
370
25
 62
7
100
AcDbLine
 10
-40.18327411045892
 20
14.98105482209179
 30
0.0
 11
-40.13591116568839
 21
15.02841776686232
 31
0.0
  0
LINE
  5
A1B
330
1F
100
AcDbEntity
  8
SK2
  6
CONTINUOUS
370
25
 62
7
100
AcDbLine
 10
-40.10749815689788
 20
15.03410036862043
 30
0.0
 11
-40.0222472353468
 21
14.94884944706936
 31
0.0
  0
LINE
  5
A1C
330
1F
100
AcDbEntity
  8
SK2
  6
CONTINUOUS
370
25
 62
7
100
AcDbLine
 10
-39.75394476630461
 20
15.10481104673909
 30
0.0
 11
-39.4919171494569
 21
14.84278342989138
 31
0.0
  0
LINE
  5
A1D
330
1F
100
AcDbEntity
  8
SK2
  6
CONTINUOUS
370
25
 62
7
100
AcDbLine
 10
-39.40039137571132
 20
15.17552172485774
 30
0.0
 11
-38.96158706356698
 21
14.7367174127134
 31
0.0
  0
LINE
  5
A1E
330
1F
100
AcDbEntity
  8
SK2
  6
CONTINUOUS
370
25
 62
7
100
AcDbLine
 10
-39.04683798511805
 20
15.24623240297639
 30
0.0
 11
-38.43125697767707
 21
14.63065139553541
 31
0.0
  0
LINE
  5
A1F
330
1F
100
AcDbEntity
  8
SK2
  6
CONTINUOUS
370
25
 62
7
100
AcDbLine
 10
-38.69328459452477
 20
15.31694308109505
 30
0.0
 11
-37.90092689178715
 21
14.52458537835743
 31
0.0
  0
LINE
  5
A20
330
1F
100
AcDbEntity
  8
SK2
  6
CONTINUOUS
370
25
 62
7
100
AcDbLine
 10
-38.3397312039315
 20
15.38765375921371
 30
0.0
 11
-37.37059680589724
 21
14.41851936117945
 31
0.0
  0
LINE
  5
A21
330
1F
100
AcDbEntity
  8
SK2
  6
CONTINUOUS
370
25
 62
7
100
AcDbLine
 10
-37.98617781333822
 20
15.45836443733236
 30
0.0
 11
-36.84026672000732
 21
14.31245334400146
 31
0.0
  0
LINE
  5
A22
330
1F
100
AcDbEntity
  8
SK2
  6
CONTINUOUS
370
25
 62
7
100
AcDbLine
 10
-37.63262442274494
 20
15.52907511545101
 30
0.0
 11
-36.30993663411741
 21
14.20638732682348
 31
0.0
  0
LINE
  5
A23
330
1F
100
AcDbEntity
  8
SK2
  6
CONTINUOUS
370
25
 62
7
100
AcDbLine
 10
-37.27907103215167
 20
15.59978579356967
 30
0.0
 11
-35.77960654822749
 21
14.10032130964549
 31
0.0
  0
LINE
  5
A24
330
1F
100
AcDbEntity
  8
SK2
  6
CONTINUOUS
370
25
 62
7
100
AcDbLine
 10
-36.92551764155839
 20
15.67049647168833
 30
0.0
 11
-35.278
 21
14.02297883012993
 31
0.0
  0
LINE
  5
A25
330
1F
100
AcDbEntity
  8
SK2
  6
CONTINUOUS
370
25
 62
7
100
AcDbLine
 10
-36.57196425096512
 20
15.74120714980697
 30
0.0
 11
-35.278
 21
14.44724289884186
 31
0.0
  0
LINE
  5
A26
330
1F
100
AcDbEntity
  8
SK2
  6
CONTINUOUS
370
25
 62
7
100
AcDbLine
 10
-36.21841086037183
 20
15.81191782792563
 30
0.0
 11
-35.278
 21
14.8715069675538
 31
0.0
  0
LINE
  5
A27
330
1F
100
AcDbEntity
  8
SK2
  6
CONTINUOUS
370
25
 62
7
100
AcDbLine
 10
-35.86485746977856
 20
15.88262850604428
 30
0.0
 11
-35.278
 21
15.29577103626572
 31
0.0
  0
LINE
  5
A28
330
1F
100
AcDbEntity
  8
SK2
  6
CONTINUOUS
370
25
 62
7
100
AcDbLine
 10
-35.51130407918529
 20
15.95333918416295
 30
0.0
 11
-35.278
 21
15.72003510497765
 31
0.0
  0
LINE
  5
A29
330
1F
100
AcDbEntity
  8
SK2
  6
CONTINUOUS
370
25
 62
7
100
AcDbLine
 10
-0.01
 20
15.0
 30
0.0
 11
-5.01
 21
14.0
 31
0.0
  0
LINE
  5
A2A
330
1F
100
AcDbEntity
  8
SK2
  6
CONTINUOUS
370
25
 62
7
100
AcDbLine
 10
-5.01
 20
14.0
 30
0.0
 11
-5.01
 21
16.0
 31
0.0
  0
LINE
  5
A2B
330
1F
100
AcDbEntity
  8
SK2
  6
CONTINUOUS
370
25
 62
7
100
AcDbLine
 10
-5.01
 20
16.0
 30
0.0
 11
-0.01
 21
15.0
 31
0.0
  0
LINE
  5
A2C
330
1F
100
AcDbEntity
  8
SK2
  6
CONTINUOUS
370
25
 62
7
100
AcDbLine
 10
-0.351883092036781
 20
14.93162338159264
 30
0.0
 11
-0.237922061357854
 21
15.04558441227157
 31
0.0
  0
LINE
  5
A2D
330
1F
100
AcDbEntity
  8
SK2
  6
CONTINUOUS
370
25
 62
7
100
AcDbLine
 10
-0.8822131779266906
 20
14.82555736441466
 30
0.0
 11
-0.5914754519511272
 21
15.11629509039023
 31
0.0
  0
LINE
  5
A2E
330
1F
100
AcDbEntity
  8
SK2
  6
CONTINUOUS
370
25
 62
7
100
AcDbLine
 10
-1.4125432638166
 20
14.71949134723668
 30
0.0
 11
-0.9450288425444002
 21
15.18700576850888
 31
0.0
  0
LINE
  5
A2F
330
1F
100
AcDbEntity
  8
SK2
  6
CONTINUOUS
370
25
 62
7
100
AcDbLine
 10
-1.94287334970651
 20
14.6134253300587
 30
0.0
 11
-1.298582233137673
 21
15.25771644662754
 31
0.0
  0
LINE
  5
A30
330
1F
100
AcDbEntity
  8
SK2
  6
CONTINUOUS
370
25
 62
7
100
AcDbLine
 10
-2.473203435596419
 20
14.50735931288072
 30
0.0
 11
-1.652135623730946
 21
15.32842712474619
 31
0.0
  0
LINE
  5
A31
330
1F
100
AcDbEntity
  8
SK2
  6
CONTINUOUS
370
25
 62
7
100
AcDbLine
 10
-3.003533521486328
 20
14.40129329570273
 30
0.0
 11
-2.005689014324219
 21
15.39913780286484
 31
0.0
  0
LINE
  5
A32
330
1F
100
AcDbEntity
  8
SK2
  6
CONTINUOUS
370
25
 62
7
100
AcDbLine
 10
-3.533863607376237
 20
14.29522727852475
 30
0.0
 11
-2.359242404917492
 21
15.4698484809835
 31
0.0
  0
LINE
  5
A33
330
1F
100
AcDbEntity
  8
SK2
  6
CONTINUOUS
370
25
 62
7
100
AcDbLine
 10
-4.064193693266146
 20
14.18916126134677
 30
0.0
 11
-2.712795795510765
 21
15.54055915910215
 31
0.0
  0
LINE
  5
A34
330
1F
100
AcDbEntity
  8
SK2
  6
CONTINUOUS
370
25
 62
7
100
AcDbLine
 10
-4.594523779156059
 20
14.08309524416879
 30
0.0
 11
-3.06634918610404
 21
15.61126983722081
 31
0.0
  0
LINE
  5
A35
330
1F
100
AcDbEntity
  8
SK2
  6
CONTINUOUS
370
25
 62
7
100
AcDbLine
 10
-5.01
 20
14.09188309203678
 30
0.0
 11
-3.419902576697313
 21
15.68198051533946
 31
0.0
  0
LINE
  5
A36
330
1F
100
AcDbEntity
  8
SK2
  6
CONTINUOUS
370
25
 62
7
100
AcDbLine
 10
-5.01
 20
14.5161471607487
 30
0.0
 11
-3.773455967290586
 21
15.75269119345812
 31
0.0
  0
LINE
  5
A37
330
1F
100
AcDbEntity
  8
SK2
  6
CONTINUOUS
370
25
 62
7
100
AcDbLine
 10
-5.01
 20
14.94041122946063
 30
0.0
 11
-4.127009357883859
 21
15.82340187157677
 31
0.0
  0
LINE
  5
A38
330
1F
100
AcDbEntity
  8
SK2
  6
CONTINUOUS
370
25
 62
7
100
AcDbLine
 10
-5.01
 20
15.36467529817256
 30
0.0
 11
-4.480562748477132
 21
15.89411254969543
 31
0.0
  0
LINE
  5
A39
330
1F
100
AcDbEntity
  8
SK2
  6
CONTINUOUS
370
25
 62
7
100
AcDbLine
 10
-5.01
 20
15.78893936688449
 30
0.0
 11
-4.834116139070405
 21
15.96482322781408
 31
0.0
  0
LINE
  5
A3A
330
1F
100
AcDbEntity
  8
SK2
  6
CONTINUOUS
370
25
 62
7
100
AcDbLine
 10
-5.01
 20
14.3338095116624
 30
0.0
 11
-4.731825406947999
 21
14.0556349186104
 31
0.0
  0
LINE
  5
A3B
330
1F
100
AcDbEntity
  8
SK2
  6
CONTINUOUS
370
25
 62
7
100
AcDbLine
 10
-5.01
 20
14.75807358037433
 30
0.0
 11
-4.378272016354726
 21
14.12634559672905
 31
0.0
  0
LINE
  5
A3C
330
1F
100
AcDbEntity
  8
SK2
  6
CONTINUOUS
370
25
 62
7
100
AcDbLine
 10
-5.01
 20
15.18233764908625
 30
0.0
 11
-4.024718625761453
 21
14.19705627484771
 31
0.0
  0
LINE
  5
A3D
330
1F
100
AcDbEntity
  8
SK2
  6
CONTINUOUS
370
25
 62
7
100
AcDbLine
 10
-5.01
 20
15.60660171779818
 30
0.0
 11
-3.671165235168179
 21
14.26776695296637
 31
0.0
  0
LINE
  5
A3E
330
1F
100
AcDbEntity
  8
SK2
  6
CONTINUOUS
370
25
 62
7
100
AcDbLine
 10
-4.971417766862361
 20
15.99228355337247
 30
0.0
 11
-3.317611844574905
 21
14.33847763108502
 31
0.0
  0
LINE
  5
A3F
330
1F
100
AcDbEntity
  8
SK2
  6
CONTINUOUS
370
25
 62
7
100
AcDbLine
 10
-4.44108768097245
 20
15.88621753619449
 30
0.0
 11
-2.964058453981631
 21
14.40918830920367
 31
0.0
  0
LINE
  5
A40
330
1F
100
AcDbEntity
  8
SK2
  6
CONTINUOUS
370
25
 62
7
100
AcDbLine
 10
-3.91075759508254
 20
15.78015151901651
 30
0.0
 11
-2.610505063388358
 21
14.47989898732233
 31
0.0
  0
LINE
  5
A41
330
1F
100
AcDbEntity
  8
SK2
  6
CONTINUOUS
370
25
 62
7
100
AcDbLine
 10
-3.380427509192631
 20
15.67408550183853
 30
0.0
 11
-2.256951672795086
 21
14.55060966544098
 31
0.0
  0
LINE
  5
A42
330
1F
100
AcDbEntity
  8
SK2
  6
CONTINUOUS
370
25
 62
7
100
AcDbLine
 10
-2.85009742330272
 20
15.56801948466054
 30
0.0
 11
-1.903398282201813
 21
14.62132034355964
 31
0.0
  0
LINE
  5
A43
330
1F
100
AcDbEntity
  8
SK2
  6
CONTINUOUS
370
25
 62
7
100
AcDbLine
 10
-2.319767337412809
 20
15.46195346748256
 30
0.0
 11
-1.549844891608539
 21
14.69203102167829
 31
0.0
  0
LINE
  5
A44
330
1F
100
AcDbEntity
  8
SK2
  6
CONTINUOUS
370
25
 62
7
100
AcDbLine
 10
-1.7894372515229
 20
15.35588745030458
 30
0.0
 11
-1.196291501015265
 21
14.76274169979695
 31
0.0
  0
LINE
  5
A45
330
1F
100
AcDbEntity
  8
SK2
  6
CONTINUOUS
370
25
 62
7
100
AcDbLine
 10
-1.259107165632989
 20
15.2498214331266
 30
0.0
 11
-0.8427381104219916
 21
14.8334523779156
 31
0.0
  0
LINE
  5
A46
330
1F
100
AcDbEntity
  8
SK2
  6
CONTINUOUS
370
25
 62
7
100
AcDbLine
 10
-0.7287770797430799
 20
15.14375541594862
 30
0.0
 11
-0.4891847198287195
 21
14.90416305603426
 31
0.0
  0
LINE
  5
A47
330
1F
100
AcDbEntity
  8
SK2
  6
CONTINUOUS
370
25
 62
7
100
AcDbLine
 10
-0.1984469938531668
 20
15.03768939877063
 30
0.0
 11
-0.1356313292354444
 21
14.97487373415291
 31
0.0
  0
TEXT
  5
A48
330
1F
100
AcDbEntity
  8
SK2
  6
CONTINUOUS
370
25
 62
7
100
AcDbText
 10
-28.60233333333333
 20
16.5
 30
0.0
 40
3.5
  1
40.268
 72
     1
 11
-20.144
 21
16.5
 31
0.0
100
AcDbText
  0
LINE
  5
A49
330
1F
100
AcDbEntity
  8
SK2
  6
CONTINUOUS
370
25
 62
7
100
AcDbLine
 10
-52.27800019999999
 20
-3.000001
 30
0.0
 11
-53.27800000000008
 21
-3.000001
 31
0.0
  0
LINE
  5
A4A
330
1F
100
AcDbEntity
  8
SK2
  6
CONTINUOUS
370
25
 62
7
100
AcDbLine
 10
-40.278
 20
-3.000001
 30
0.0
 11
-52.2779998
 21
-3.000001
 31
0.0
  0
LINE
  5
A4B
330
1F
100
AcDbEntity
  8
SK2
  6
CONTINUOUS
370
25
 62
7
100
AcDbLine
 10
-53.278
 20
3.0
 30
0.0
 11
-40.278
 21
3.0
 31
0.0
  0
LINE
  5
A4C
330
1F
100
AcDbEntity
  8
SK2
  6
CONTINUOUS
370
25
 62
7
100
AcDbLine
 10
-52.278
 20
-10.0
 30
0.0
 11
-52.278
 21
16.475
 31
0.0
  0
LINE
  5
A4D
330
1F
100
AcDbEntity
  8
SK2
  6
CONTINUOUS
370
25
 62
7
100
AcDbLine
 10
-52.278
 20
-3.0
 30
0.0
 11
-51.278
 21
-8.0
 31
0.0
  0
LINE
  5
A4E
330
1F
100
AcDbEntity
  8
SK2
  6
CONTINUOUS
370
25
 62
7
100
AcDbLine
 10
-51.278
 20
-8.0
 30
0.0
 11
-53.278
 21
-8.0
 31
0.0
  0
LINE
  5
A4F
330
1F
100
AcDbEntity
  8
SK2
  6
CONTINUOUS
370
25
 62
7
100
AcDbLine
 10
-53.278
 20
-8.0
 30
0.0
 11
-52.278
 21
-3.0
 31
0.0
  0
LINE
  5
A50
330
1F
100
AcDbEntity
  8
SK2
  6
CONTINUOUS
370
25
 62
7
100
AcDbLine
 10
-51.28493500861668
 20
-8.0
 30
0.0
 11
-51.27915583476945
 21
-7.994220826152777
 31
0.0
  0
LINE
  5
A51
330
1F
100
AcDbEntity
  8
SK2
  6
CONTINUOUS
370
25
 62
7
100
AcDbLine
 10
-51.70919907732861
 20
-8.0
 30
0.0
 11
-51.34986651288811
 21
-7.6406674355595
 31
0.0
  0
LINE
  5
A52
330
1F
100
AcDbEntity
  8
SK2
  6
CONTINUOUS
370
25
 62
7
100
AcDbLine
 10
-52.13346314604054
 20
-8.0
 30
0.0
 11
-51.42057719100676
 21
-7.287114044966216
 31
0.0
  0
LINE
  5
A53
330
1F
100
AcDbEntity
  8
SK2
  6
CONTINUOUS
370
25
 62
7
100
AcDbLine
 10
-52.55772721475248
 20
-8.0
 30
0.0
 11
-51.49128786912542
 21
-6.933560654372947
 31
0.0
  0
LINE
  5
A54
330
1F
100
AcDbEntity
  8
SK2
  6
CONTINUOUS
370
25
 62
7
100
AcDbLine
 10
-52.9819912834644
 20
-8.0
 30
0.0
 11
-51.56199854724407
 21
-6.58000726377967
 31
0.0
  0
LINE
  5
A55
330
1F
100
AcDbEntity
  8
SK2
  6
CONTINUOUS
370
25
 62
7
100
AcDbLine
 10
-53.24593616195592
 20
-7.83968080977958
 30
0.0
 11
-51.63270922536273
 21
-6.226453873186387
 31
0.0
  0
LINE
  5
A56
330
1F
100
AcDbEntity
  8
SK2
  6
CONTINUOUS
370
25
 62
7
100
AcDbLine
 10
-53.13987014477794
 20
-7.309350723889679
 30
0.0
 11
-51.70341990348138
 21
-5.872900482593117
 31
0.0
  0
LINE
  5
A57
330
1F
100
AcDbEntity
  8
SK2
  6
CONTINUOUS
370
25
 62
7
100
AcDbLine
 10
-53.03380412759996
 20
-6.779020637999757
 30
0.0
 11
-51.77413058160004
 21
-5.51934709199984
 31
0.0
  0
LINE
  5
A58
330
1F
100
AcDbEntity
  8
SK2
  6
CONTINUOUS
370
25
 62
7
100
AcDbLine
 10
-52.92773811042198
 20
-6.248690552109849
 30
0.0
 11
-51.84484125971869
 21
-5.165793701406564
 31
0.0
  0
LINE
  5
A59
330
1F
100
AcDbEntity
  8
SK2
  6
CONTINUOUS
370
25
 62
7
100
AcDbLine
 10
-52.821672093244
 20
-5.718360466219941
 30
0.0
 11
-51.91555193783734
 21
-4.812240310813287
 31
0.0
  0
LINE
  5
A5A
330
1F
100
AcDbEntity
  8
SK2
  6
CONTINUOUS
370
25
 62
7
100
AcDbLine
 10
-52.71560607606602
 20
-5.188030380330027
 30
0.0
 11
-51.986262615956
 21
-4.458686920220011
 31
0.0
  0
LINE
  5
A5B
330
1F
100
AcDbEntity
  8
SK2
  6
CONTINUOUS
370
25
 62
7
100
AcDbLine
 10
-52.60954005888803
 20
-4.657700294440104
 30
0.0
 11
-52.05697329407466
 21
-4.105133529626734
 31
0.0
  0
LINE
  5
A5C
330
1F
100
AcDbEntity
  8
SK2
  6
CONTINUOUS
370
25
 62
7
100
AcDbLine
 10
-52.50347404171005
 20
-4.127370208550197
 30
0.0
 11
-52.12768397219332
 21
-3.751580139033464
 31
0.0
  0
LINE
  5
A5D
330
1F
100
AcDbEntity
  8
SK2
  6
CONTINUOUS
370
25
 62
7
100
AcDbLine
 10
-52.39740802453206
 20
-3.597040122660282
 30
0.0
 11
-52.19839465031197
 21
-3.398026748440188
 31
0.0
  0
LINE
  5
A5E
330
1F
100
AcDbEntity
  8
SK2
  6
CONTINUOUS
370
25
 62
7
100
AcDbLine
 10
-52.29134200735408
 20
-3.066710036770367
 30
0.0
 11
-52.26910532843062
 21
-3.044473357846904
 31
0.0
  0
LINE
  5
A5F
330
1F
100
AcDbEntity
  8
SK2
  6
CONTINUOUS
370
25
 62
7
100
AcDbLine
 10
-53.25371204855387
 20
-7.87856024276936
 30
0.0
 11
-53.13227229132323
 21
-8.0
 31
0.0
  0
LINE
  5
A60
330
1F
100
AcDbEntity
  8
SK2
  6
CONTINUOUS
370
25
 62
7
100
AcDbLine
 10
-53.18300137043522
 20
-7.525006852176084
 30
0.0
 11
-52.7080082226113
 21
-8.0
 31
0.0
  0
LINE
  5
A61
330
1F
100
AcDbEntity
  8
SK2
  6
CONTINUOUS
370
25
 62
7
100
AcDbLine
 10
-53.11229069231656
 20
-7.171453461582814
 30
0.0
 11
-52.28374415389938
 21
-8.0
 31
0.0
  0
LINE
  5
A62
330
1F
100
AcDbEntity
  8
SK2
  6
CONTINUOUS
370
25
 62
7
100
AcDbLine
 10
-53.04158001419791
 20
-6.817900070989538
 30
0.0
 11
-51.85948008518745
 21
-8.0
 31
0.0
  0
LINE
  5
A63
330
1F
100
AcDbEntity
  8
SK2
  6
CONTINUOUS
370
25
 62
7
100
AcDbLine
 10
-52.97086933607925
 20
-6.464346680396268
 30
0.0
 11
-51.43521601647551
 21
-8.0
 31
0.0
  0
LINE
  5
A64
330
1F
100
AcDbEntity
  8
SK2
  6
CONTINUOUS
370
25
 62
7
100
AcDbLine
 10
-52.9001586579606
 20
-6.110793289802977
 30
0.0
 11
-51.34476201305911
 21
-7.66618993470447
 31
0.0
  0
LINE
  5
A65
330
1F
100
AcDbEntity
  8
SK2
  6
CONTINUOUS
370
25
 62
7
100
AcDbLine
 10
-52.82944797984194
 20
-5.757239899209708
 30
0.0
 11
-51.45082803023709
 21
-7.135859848814562
 31
0.0
  0
LINE
  5
A66
330
1F
100
AcDbEntity
  8
SK2
  6
CONTINUOUS
370
25
 62
7
100
AcDbLine
 10
-52.75873730172329
 20
-5.403686508616431
 30
0.0
 11
-51.55689404741508
 21
-6.60552976292464
 31
0.0
  0
LINE
  5
A67
330
1F
100
AcDbEntity
  8
SK2
  6
CONTINUOUS
370
25
 62
7
100
AcDbLine
 10
-52.68802662360464
 20
-5.050133118023155
 30
0.0
 11
-51.66296006459306
 21
-6.075199677034732
 31
0.0
  0
LINE
  5
A68
330
1F
100
AcDbEntity
  8
SK2
  6
CONTINUOUS
370
25
 62
7
100
AcDbLine
 10
-52.61731594548598
 20
-4.696579727429871
 30
0.0
 11
-51.76902608177104
 21
-5.544869591144817
 31
0.0
  0
LINE
  5
A69
330
1F
100
AcDbEntity
  8
SK2
  6
CONTINUOUS
370
25
 62
7
100
AcDbLine
 10
-52.54660526736733
 20
-4.343026336836601
 30
0.0
 11
-51.87509209894902
 21
-5.014539505254909
 31
0.0
  0
LINE
  5
A6A
330
1F
100
AcDbEntity
  8
SK2
  6
CONTINUOUS
370
25
 62
7
100
AcDbLine
 10
-52.47589458924868
 20
-3.989472946243318
 30
0.0
 11
-51.98115811612701
 21
-4.484209419364987
 31
0.0
  0
LINE
  5
A6B
330
1F
100
AcDbEntity
  8
SK2
  6
CONTINUOUS
370
25
 62
7
100
AcDbLine
 10
-52.40518391113002
 20
-3.635919555650041
 30
0.0
 11
-52.08722413330499
 21
-3.953879333475072
 31
0.0
  0
LINE
  5
A6C
330
1F
100
AcDbEntity
  8
SK2
  6
CONTINUOUS
370
25
 62
7
100
AcDbLine
 10
-52.33447323301136
 20
-3.282366165056771
 30
0.0
 11
-52.19329015048297
 21
-3.423549247585157
 31
0.0
  0
LINE
  5
A6D
330
1F
100
AcDbEntity
  8
SK2
  6
CONTINUOUS
370
25
 62
7
100
AcDbLine
 10
-52.278
 20
3.0
 30
0.0
 11
-53.278
 21
8.0
 31
0.0
  0
LINE
  5
A6E
330
1F
100
AcDbEntity
  8
SK2
  6
CONTINUOUS
370
25
 62
7
100
AcDbLine
 10
-53.278
 20
8.0
 30
0.0
 11
-51.278
 21
8.0
 31
0.0
  0
LINE
  5
A6F
330
1F
100
AcDbEntity
  8
SK2
  6
CONTINUOUS
370
25
 62
7
100
AcDbLine
 10
-51.278
 20
8.0
 30
0.0
 11
-52.278
 21
3.0
 31
0.0
  0
LINE
  5
A70
330
1F
100
AcDbEntity
  8
SK2
  6
CONTINUOUS
370
25
 62
7
100
AcDbLine
 10
-52.32976550021044
 20
3.258827501052167
 30
0.0
 11
-52.20035174968436
 21
3.388241251578251
 31
0.0
  0
LINE
  5
A71
330
1F
100
AcDbEntity
  8
SK2
  6
CONTINUOUS
370
25
 62
7
100
AcDbLine
 10
-52.40047617832909
 20
3.612380891645451
 30
0.0
 11
-52.09428573250637
 21
3.918571337468173
 31
0.0
  0
LINE
  5
A72
330
1F
100
AcDbEntity
  8
SK2
  6
CONTINUOUS
370
25
 62
7
100
AcDbLine
 10
-52.47118685644774
 20
3.96593428223872
 30
0.0
 11
-51.98821971532839
 21
4.448901423358073
 31
0.0
  0
LINE
  5
A73
330
1F
100
AcDbEntity
  8
SK2
  6
CONTINUOUS
370
25
 62
7
100
AcDbLine
 10
-52.5418975345664
 20
4.319487672831997
 30
0.0
 11
-51.88215369815041
 21
4.979231509247988
 31
0.0
  0
LINE
  5
A74
330
1F
100
AcDbEntity
  8
SK2
  6
CONTINUOUS
370
25
 62
7
100
AcDbLine
 10
-52.61260821268505
 20
4.673041063425281
 30
0.0
 11
-51.77608768097242
 21
5.50956159513791
 31
0.0
  0
LINE
  5
A75
330
1F
100
AcDbEntity
  8
SK2
  6
CONTINUOUS
370
25
 62
7
100
AcDbLine
 10
-52.6833188908037
 20
5.026594454018557
 30
0.0
 11
-51.67002166379444
 21
6.039891681027818
 31
0.0
  0
LINE
  5
A76
330
1F
100
AcDbEntity
  8
SK2
  6
CONTINUOUS
370
25
 62
7
100
AcDbLine
 10
-52.75402956892238
 20
5.380147844611827
 30
0.0
 11
-51.56395564661645
 21
6.570221766917754
 31
0.0
  0
LINE
  5
A77
330
1F
100
AcDbEntity
  8
SK2
  6
CONTINUOUS
370
25
 62
7
100
AcDbLine
 10
-52.82474024704103
 20
5.733701235205103
 30
0.0
 11
-51.45788962943846
 21
7.100551852807669
 31
0.0
  0
LINE
  5
A78
330
1F
100
AcDbEntity
  8
SK2
  6
CONTINUOUS
370
25
 62
7
100
AcDbLine
 10
-52.89545092515969
 20
6.08725462579838
 30
0.0
 11
-51.35182361226048
 21
7.630881938697584
 31
0.0
  0
LINE
  5
A79
330
1F
100
AcDbEntity
  8
SK2
  6
CONTINUOUS
370
25
 62
7
100
AcDbLine
 10
-52.96616160327834
 20
6.440808016391649
 30
0.0
 11
-51.40696961966999
 21
8.0
 31
0.0
  0
LINE
  5
A7A
330
1F
100
AcDbEntity
  8
SK2
  6
CONTINUOUS
370
25
 62
7
100
AcDbLine
 10
-53.03687228139699
 20
6.79436140698494
 30
0.0
 11
-51.83123368838193
 21
8.0
 31
0.0
  0
LINE
  5
A7B
330
1F
100
AcDbEntity
  8
SK2
  6
CONTINUOUS
370
25
 62
7
100
AcDbLine
 10
-53.10758295951565
 20
7.14791479757821
 30
0.0
 11
-52.25549775709386
 21
8.0
 31
0.0
  0
LINE
  5
A7C
330
1F
100
AcDbEntity
  8
SK2
  6
CONTINUOUS
370
25
 62
7
100
AcDbLine
 10
-53.1782936376343
 20
7.501468188171494
 30
0.0
 11
-52.67976182580579
 21
8.0
 31
0.0
  0
LINE
  5
A7D
330
1F
100
AcDbEntity
  8
SK2
  6
CONTINUOUS
370
25
 62
7
100
AcDbLine
 10
-53.24900431575296
 20
7.855021578764763
 30
0.0
 11
-53.10402589451773
 21
8.0
 31
0.0
  0
LINE
  5
A7E
330
1F
100
AcDbEntity
  8
SK2
  6
CONTINUOUS
370
25
 62
7
100
AcDbLine
 10
-52.37491353207561
 20
3.484567660378055
 30
0.0
 11
-52.21339097861627
 21
3.323045106918713
 31
0.0
  0
LINE
  5
A7F
330
1F
100
AcDbEntity
  8
SK2
  6
CONTINUOUS
370
25
 62
7
100
AcDbLine
 10
-52.4809795492536
 20
4.014897746267991
 30
0.0
 11
-52.14268030049761
 21
3.676598497511996
 31
0.0
  0
LINE
  5
A80
330
1F
100
AcDbEntity
  8
SK2
  6
CONTINUOUS
370
25
 62
7
100
AcDbLine
 10
-52.58704556643158
 20
4.545227832157892
 30
0.0
 11
-52.07196962237895
 21
4.030151888105266
 31
0.0
  0
LINE
  5
A81
330
1F
100
AcDbEntity
  8
SK2
  6
CONTINUOUS
370
25
 62
7
100
AcDbLine
 10
-52.69311158360956
 20
5.075557918047799
 30
0.0
 11
-52.0012589442603
 21
4.383705278698542
 31
0.0
  0
LINE
  5
A82
330
1F
100
AcDbEntity
  8
SK2
  6
CONTINUOUS
370
25
 62
7
100
AcDbLine
 10
-52.79917760078754
 20
5.605888003937707
 30
0.0
 11
-51.93054826614164
 21
4.737258669291812
 31
0.0
  0
LINE
  5
A83
330
1F
100
AcDbEntity
  8
SK2
  6
CONTINUOUS
370
25
 62
7
100
AcDbLine
 10
-52.90524361796553
 20
6.136218089827629
 30
0.0
 11
-51.85983758802299
 21
5.090812059885089
 31
0.0
  0
LINE
  5
A84
330
1F
100
AcDbEntity
  8
SK2
  6
CONTINUOUS
370
25
 62
7
100
AcDbLine
 10
-53.01130963514352
 20
6.666548175717551
 30
0.0
 11
-51.78912690990433
 21
5.444365450478358
 31
0.0
  0
LINE
  5
A85
330
1F
100
AcDbEntity
  8
SK2
  6
CONTINUOUS
370
25
 62
7
100
AcDbLine
 10
-53.1173756523215
 20
7.196878261607466
 30
0.0
 11
-51.71841623178567
 21
5.797918841071642
 31
0.0
  0
LINE
  5
A86
330
1F
100
AcDbEntity
  8
SK2
  6
CONTINUOUS
370
25
 62
7
100
AcDbLine
 10
-53.22344166949948
 20
7.727208347497374
 30
0.0
 11
-51.64770555366702
 21
6.151472231664918
 31
0.0
  0
LINE
  5
A87
330
1F
100
AcDbEntity
  8
SK2
  6
CONTINUOUS
370
25
 62
7
100
AcDbLine
 10
-53.07196925329017
 20
8.0
 30
0.0
 11
-51.57699487554836
 21
6.505025622258188
 31
0.0
  0
LINE
  5
A88
330
1F
100
AcDbEntity
  8
SK2
  6
CONTINUOUS
370
25
 62
7
100
AcDbLine
 10
-52.64770518457824
 20
8.0
 30
0.0
 11
-51.50628419742971
 21
6.858579012851465
 31
0.0
  0
LINE
  5
A89
330
1F
100
AcDbEntity
  8
SK2
  6
CONTINUOUS
370
25
 62
7
100
AcDbLine
 10
-52.22344111586631
 20
8.0
 30
0.0
 11
-51.43557351931105
 21
7.212132403444734
 31
0.0
  0
LINE
  5
A8A
330
1F
100
AcDbEntity
  8
SK2
  6
CONTINUOUS
370
25
 62
7
100
AcDbLine
 10
-51.79917704715438
 20
8.0
 30
0.0
 11
-51.3648628411924
 21
7.565685794038018
 31
0.0
  0
LINE
  5
A8B
330
1F
100
AcDbEntity
  8
SK2
  6
CONTINUOUS
370
25
 62
7
100
AcDbLine
 10
-51.37491297844245
 20
8.0
 30
0.0
 11
-51.29415216307375
 21
7.919239184631294
 31
0.0
  0
TEXT
  5
A8C
330
1F
100
AcDbEntity
  8
SK2
  6
CONTINUOUS
370
25
 62
7
100
AcDbText
 10
-53.778
 20
13.34583333333333
 30
0.0
 40
3.5
  1
6
 50
90.00000000000001
 72
     1
 11
-53.778
 21
14.5125
 31
0.0
100
AcDbText
  0
CIRCLE
  5
A8D
330
1F
100
AcDbEntity
  8
SK2
  6
CONTINUOUS
370
25
 62
7
100
AcDbCircle
 10
-55.528
 20
11.1875
 30
0.0
 40
1.4
  0
LINE
  5
A8E
330
1F
100
AcDbEntity
  8
SK2
  6
CONTINUOUS
370
25
 62
7
100
AcDbLine
 10
-54.128
 20
9.787500000000001
 30
0.0
 11
-56.928
 21
12.5875
 31
0.0
  0
LINE
  5
A8F
330
1F
100
AcDbEntity
  8
2
  6
CONTINUOUS
370
25
 62
7
100
AcDbLine
 10
16.722
 20
-2.0
 30
0.0
 11
52.572
 21
-2.000000000000004
 31
0.0
  0
LINE
  5
A90
330
1F
100
AcDbEntity
  8
2
  6
CONTINUOUS
370
25
 62
7
100
AcDbLine
 10
52.572
 20
1.999999999999995
 30
0.0
 11
16.722
 21
2.0
 31
0.0
  0
LINE
  5
A91
330
1F
100
AcDbEntity
  8
2
  6
CONTINUOUS
370
25
 62
7
100
AcDbLine
 10
51.572
 20
-9.000000000000004
 30
0.0
 11
51.572
 21
15.475
 31
0.0
  0
LINE
  5
A92
330
1F
100
AcDbEntity
  8
2
  6
CONTINUOUS
370
25
 62
7
100
AcDbLine
 10
51.572
 20
-2.000000000000004
 30
0.0
 11
52.572
 21
-7.000000000000004
 31
0.0
  0
LINE
  5
A93
330
1F
100
AcDbEntity
  8
2
  6
CONTINUOUS
370
25
 62
7
100
AcDbLine
 10
52.572
 20
-7.000000000000004
 30
0.0
 11
50.572
 21
-7.000000000000004
 31
0.0
  0
LINE
  5
A94
330
1F
100
AcDbEntity
  8
2
  6
CONTINUOUS
370
25
 62
7
100
AcDbLine
 10
50.572
 20
-7.000000000000004
 30
0.0
 11
51.572
 21
-2.000000000000004
 31
0.0
  0
LINE
  5
A95
330
1F
100
AcDbEntity
  8
2
  6
CONTINUOUS
370
25
 62
7
100
AcDbLine
 10
52.43732856617097
 20
-7.000000000000007
 30
0.0
 11
52.5495547610285
 21
-6.887773805142473
 31
0.0
  0
LINE
  5
A96
330
1F
100
AcDbEntity
  8
2
  6
CONTINUOUS
370
25
 62
7
100
AcDbLine
 10
52.01306449745903
 20
-7.000000000000007
 30
0.0
 11
52.47884408290985
 21
-6.534220414549189
 31
0.0
  0
LINE
  5
A97
330
1F
100
AcDbEntity
  8
2
  6
CONTINUOUS
370
25
 62
7
100
AcDbLine
 10
51.58880042874711
 20
-7.000000000000007
 30
0.0
 11
52.4081334047912
 21
-6.180667023955912
 31
0.0
  0
LINE
  5
A98
330
1F
100
AcDbEntity
  8
2
  6
CONTINUOUS
370
25
 62
7
100
AcDbLine
 10
51.16453636003518
 20
-7.000000000000007
 30
0.0
 11
52.33742272667254
 21
-5.827113633362643
 31
0.0
  0
LINE
  5
A99
330
1F
100
AcDbEntity
  8
2
  6
CONTINUOUS
370
25
 62
7
100
AcDbLine
 10
50.74027229132324
 20
-7.000000000000007
 30
0.0
 11
52.26671204855388
 21
-5.473560242769366
 31
0.0
  0
LINE
  5
A9A
330
1F
100
AcDbEntity
  8
2
  6
CONTINUOUS
370
25
 62
7
100
AcDbLine
 10
50.63599794434719
 20
-6.680010278264128
 30
0.0
 11
52.19600137043522
 21
-5.120006852176097
 31
0.0
  0
LINE
  5
A9B
330
1F
100
AcDbEntity
  8
2
  6
CONTINUOUS
370
25
 62
7
100
AcDbLine
 10
50.74206396152517
 20
-6.149680192374213
 30
0.0
 11
52.12529069231657
 21
-4.766453461582813
 31
0.0
  0
LINE
  5
A9C
330
1F
100
AcDbEntity
  8
2
  6
CONTINUOUS
370
25
 62
7
100
AcDbLine
 10
50.84812997870315
 20
-5.619350106484298
 30
0.0
 11
52.05458001419792
 21
-4.412900070989529
 31
0.0
  0
LINE
  5
A9D
330
1F
100
AcDbEntity
  8
2
  6
CONTINUOUS
370
25
 62
7
100
AcDbLine
 10
50.95419599588114
 20
-5.089020020594383
 30
0.0
 11
51.98386933607926
 21
-4.05934668039626
 31
0.0
  0
LINE
  5
A9E
330
1F
100
AcDbEntity
  8
2
  6
CONTINUOUS
370
25
 62
7
100
AcDbLine
 10
51.06026201305912
 20
-4.558689934704475
 30
0.0
 11
51.9131586579606
 21
-3.70579328980299
 31
0.0
  0
LINE
  5
A9F
330
1F
100
AcDbEntity
  8
2
  6
CONTINUOUS
370
25
 62
7
100
AcDbLine
 10
51.1663280302371
 20
-4.028359848814553
 30
0.0
 11
51.84244797984194
 21
-3.352239899209714
 31
0.0
  0
LINE
  5
AA0
330
1F
100
AcDbEntity
  8
2
  6
CONTINUOUS
370
25
 62
7
100
AcDbLine
 10
51.27239404741508
 20
-3.498029762924638
 30
0.0
 11
51.77173730172329
 21
-2.99868650861643
 31
0.0
  0
LINE
  5
AA1
330
1F
100
AcDbEntity
  8
2
  6
CONTINUOUS
370
25
 62
7
100
AcDbLine
 10
51.37846006459306
 20
-2.967699677034737
 30
0.0
 11
51.70102662360464
 21
-2.645133118023161
 31
0.0
  0
LINE
  5
AA2
330
1F
100
AcDbEntity
  8
2
  6
CONTINUOUS
370
25
 62
7
100
AcDbLine
 10
51.48452608177104
 20
-2.437369591144829
 30
0.0
 11
51.63031594548598
 21
-2.291579727429891
 31
0.0
  0
LINE
  5
AA3
330
1F
100
AcDbEntity
  8
2
  6
CONTINUOUS
370
25
 62
7
100
AcDbLine
 10
50.59153317955477
 20
-6.902334102226156
 30
0.0
 11
50.68919907732862
 21
-7.000000000000007
 31
0.0
  0
LINE
  5
AA4
330
1F
100
AcDbEntity
  8
2
  6
CONTINUOUS
370
25
 62
7
100
AcDbLine
 10
50.66224385767342
 20
-6.54878071163288
 30
0.0
 11
51.11346314604055
 21
-7.000000000000007
 31
0.0
  0
LINE
  5
AA5
330
1F
100
AcDbEntity
  8
2
  6
CONTINUOUS
370
25
 62
7
100
AcDbLine
 10
50.73295453579209
 20
-6.19522732103961
 30
0.0
 11
51.53772721475249
 21
-7.000000000000007
 31
0.0
  0
LINE
  5
AA6
330
1F
100
AcDbEntity
  8
2
  6
CONTINUOUS
370
25
 62
7
100
AcDbLine
 10
50.80366521391074
 20
-5.841673930446326
 30
0.0
 11
51.96199128346442
 21
-7.000000000000007
 31
0.0
  0
LINE
  5
AA7
330
1F
100
AcDbEntity
  8
2
  6
CONTINUOUS
370
25
 62
7
100
AcDbLine
 10
50.8743758920294
 20
-5.488120539853057
 30
0.0
 11
52.38625535217635
 21
-7.000000000000007
 31
0.0
  0
LINE
  5
AA8
330
1F
100
AcDbEntity
  8
2
  6
CONTINUOUS
370
25
 62
7
100
AcDbLine
 10
50.94508657014805
 20
-5.13456714925978
 30
0.0
 11
52.51237014477793
 21
-6.701850723889663
 31
0.0
  0
LINE
  5
AA9
330
1F
100
AcDbEntity
  8
2
  6
CONTINUOUS
370
25
 62
7
100
AcDbLine
 10
51.0157972482667
 20
-4.781013758666504
 30
0.0
 11
52.40630412759995
 21
-6.171520637999755
 31
0.0
  0
LINE
  5
AAA
330
1F
100
AcDbEntity
  8
2
  6
CONTINUOUS
370
25
 62
7
100
AcDbLine
 10
51.08650792638537
 20
-4.427460368073234
 30
0.0
 11
52.30023811042197
 21
-5.641190552109833
 31
0.0
  0
LINE
  5
AAB
330
1F
100
AcDbEntity
  8
2
  6
CONTINUOUS
370
25
 62
7
100
AcDbLine
 10
51.15721860450401
 20
-4.07390697747995
 30
0.0
 11
52.194172093244
 21
-5.11086046621994
 31
0.0
  0
LINE
  5
AAC
330
1F
100
AcDbEntity
  8
2
  6
CONTINUOUS
370
25
 62
7
100
AcDbLine
 10
51.22792928262267
 20
-3.720353586886674
 30
0.0
 11
52.08810607606601
 21
-4.580530380330018
 31
0.0
  0
LINE
  5
AAD
330
1F
100
AcDbEntity
  8
2
  6
CONTINUOUS
370
25
 62
7
100
AcDbLine
 10
51.29863996074133
 20
-3.366800196293397
 30
0.0
 11
51.98204005888803
 21
-4.050200294440103
 31
0.0
  0
LINE
  5
AAE
330
1F
100
AcDbEntity
  8
2
  6
CONTINUOUS
370
25
 62
7
100
AcDbLine
 10
51.36935063885998
 20
-3.013246805700128
 30
0.0
 11
51.87597404171004
 21
-3.519870208550188
 31
0.0
  0
LINE
  5
AAF
330
1F
100
AcDbEntity
  8
2
  6
CONTINUOUS
370
25
 62
7
100
AcDbLine
 10
51.44006131697864
 20
-2.659693415106837
 30
0.0
 11
51.76990802453206
 21
-2.989540122660266
 31
0.0
  0
LINE
  5
AB0
330
1F
100
AcDbEntity
  8
2
  6
CONTINUOUS
370
25
 62
7
100
AcDbLine
 10
51.51077199509729
 20
-2.306140024513567
 30
0.0
 11
51.66384200735408
 21
-2.459210036770365
 31
0.0
  0
LINE
  5
AB1
330
1F
100
AcDbEntity
  8
2
  6
CONTINUOUS
370
25
 62
7
100
AcDbLine
 10
51.572
 20
1.999999999999996
 30
0.0
 11
50.572
 21
6.999999999999996
 31
0.0
  0
LINE
  5
AB2
330
1F
100
AcDbEntity
  8
2
  6
CONTINUOUS
370
25
 62
7
100
AcDbLine
 10
50.572
 20
6.999999999999996
 30
0.0
 11
52.572
 21
6.999999999999996
 31
0.0
  0
LINE
  5
AB3
330
1F
100
AcDbEntity
  8
2
  6
CONTINUOUS
370
25
 62
7
100
AcDbLine
 10
52.572
 20
6.999999999999996
 30
0.0
 11
51.572
 21
1.999999999999996
 31
0.0
  0
LINE
  5
AB4
330
1F
100
AcDbEntity
  8
2
  6
CONTINUOUS
370
25
 62
7
100
AcDbLine
 10
51.55972431194961
 20
2.061378440252021
 30
0.0
 11
51.59041353207562
 21
2.092067660378028
 31
0.0
  0
LINE
  5
AB5
330
1F
100
AcDbEntity
  8
2
  6
CONTINUOUS
370
25
 62
7
100
AcDbLine
 10
51.48901363383094
 20
2.414931830845283
 30
0.0
 11
51.6964795492536
 21
2.622397746267936
 31
0.0
  0
LINE
  5
AB6
330
1F
100
AcDbEntity
  8
2
  6
CONTINUOUS
370
25
 62
7
100
AcDbLine
 10
51.41830295571229
 20
2.768485221438567
 30
0.0
 11
51.80254556643158
 21
3.152727832157858
 31
0.0
  0
LINE
  5
AB7
330
1F
100
AcDbEntity
  8
2
  6
CONTINUOUS
370
25
 62
7
100
AcDbLine
 10
51.34759227759363
 20
3.122038612031837
 30
0.0
 11
51.90861158360956
 21
3.683057918047766
 31
0.0
  0
LINE
  5
AB8
330
1F
100
AcDbEntity
  8
2
  6
CONTINUOUS
370
25
 62
7
100
AcDbLine
 10
51.27688159947498
 20
3.47559200262512
 30
0.0
 11
52.01467760078754
 21
4.213388003937681
 31
0.0
  0
LINE
  5
AB9
330
1F
100
AcDbEntity
  8
2
  6
CONTINUOUS
370
25
 62
7
100
AcDbLine
 10
51.20617092135633
 20
3.829145393218397
 30
0.0
 11
52.12074361796553
 21
4.743718089827595
 31
0.0
  0
LINE
  5
ABA
330
1F
100
AcDbEntity
  8
2
  6
CONTINUOUS
370
25
 62
7
100
AcDbLine
 10
51.13546024323767
 20
4.182698783811674
 30
0.0
 11
52.2268096351435
 21
5.274048175717503
 31
0.0
  0
LINE
  5
ABB
330
1F
100
AcDbEntity
  8
2
  6
CONTINUOUS
370
25
 62
7
100
AcDbLine
 10
51.06474956511902
 20
4.53625217440495
 30
0.0
 11
52.33287565232148
 21
5.804378261607411
 31
0.0
  0
LINE
  5
ABC
330
1F
100
AcDbEntity
  8
2
  6
CONTINUOUS
370
25
 62
7
100
AcDbLine
 10
50.99403888700036
 20
4.889805564998227
 30
0.0
 11
52.43894166949946
 21
6.334708347497326
 31
0.0
  0
LINE
  5
ABD
330
1F
100
AcDbEntity
  8
2
  6
CONTINUOUS
370
25
 62
7
100
AcDbLine
 10
50.92332820888171
 20
5.243358955591503
 30
0.0
 11
52.54500768667745
 21
6.865038433387248
 31
0.0
  0
LINE
  5
ABE
330
1F
100
AcDbEntity
  8
2
  6
CONTINUOUS
370
25
 62
7
100
AcDbLine
 10
50.85261753076305
 20
5.596912346184766
 30
0.0
 11
52.25570518457828
 21
6.999999999999993
 31
0.0
  0
LINE
  5
ABF
330
1F
100
AcDbEntity
  8
2
  6
CONTINUOUS
370
25
 62
7
100
AcDbLine
 10
50.7819068526444
 20
5.95046573677805
 30
0.0
 11
51.83144111586634
 21
6.999999999999993
 31
0.0
  0
LINE
  5
AC0
330
1F
100
AcDbEntity
  8
2
  6
CONTINUOUS
370
25
 62
7
100
AcDbLine
 10
50.71119617452575
 20
6.304019127371326
 30
0.0
 11
51.40717704715441
 21
6.999999999999993
 31
0.0
  0
LINE
  5
AC1
330
1F
100
AcDbEntity
  8
2
  6
CONTINUOUS
370
25
 62
7
100
AcDbLine
 10
50.64048549640709
 20
6.657572517964603
 30
0.0
 11
50.98291297844248
 21
6.999999999999993
 31
0.0
  0
LINE
  5
AC2
330
1F
100
AcDbEntity
  8
2
  6
CONTINUOUS
370
25
 62
7
100
AcDbLine
 10
51.49711581839627
 20
2.374420908018642
 30
0.0
 11
51.62192278773583
 21
2.24961393867909
 31
0.0
  0
LINE
  5
AC3
330
1F
100
AcDbEntity
  8
2
  6
CONTINUOUS
370
25
 62
7
100
AcDbLine
 10
51.39104980121829
 20
2.90475099390855
 30
0.0
 11
51.69263346585448
 21
2.603167329272367
 31
0.0
  0
LINE
  5
AC4
330
1F
100
AcDbEntity
  8
2
  6
CONTINUOUS
370
25
 62
7
100
AcDbLine
 10
51.28498378404031
 20
3.435081079798458
 30
0.0
 11
51.76334414397314
 21
2.956720719865636
 31
0.0
  0
LINE
  5
AC5
330
1F
100
AcDbEntity
  8
2
  6
CONTINUOUS
370
25
 62
7
100
AcDbLine
 10
51.17891776686233
 20
3.965411165688366
 30
0.0
 11
51.83405482209179
 21
3.310274110458913
 31
0.0
  0
LINE
  5
AC6
330
1F
100
AcDbEntity
  8
2
  6
CONTINUOUS
370
25
 62
7
100
AcDbLine
 10
51.07285174968435
 20
4.495741251578295
 30
0.0
 11
51.90476550021044
 21
3.663827501052204
 31
0.0
  0
LINE
  5
AC7
330
1F
100
AcDbEntity
  8
2
  6
CONTINUOUS
370
25
 62
7
100
AcDbLine
 10
50.96678573250637
 20
5.026071337468203
 30
0.0
 11
51.9754761783291
 21
4.017380891645473
 31
0.0
  0
LINE
  5
AC8
330
1F
100
AcDbEntity
  8
2
  6
CONTINUOUS
370
25
 62
7
100
AcDbLine
 10
50.86071971532838
 20
5.556401423358125
 30
0.0
 11
52.04618685644775
 21
4.37093428223875
 31
0.0
  0
LINE
  5
AC9
330
1F
100
AcDbEntity
  8
2
  6
CONTINUOUS
370
25
 62
7
100
AcDbLine
 10
50.7546536981504
 20
6.086731509248033
 30
0.0
 11
52.11689753456642
 21
4.724487672832012
 31
0.0
  0
LINE
  5
ACA
330
1F
100
AcDbEntity
  8
2
  6
CONTINUOUS
370
25
 62
7
100
AcDbLine
 10
50.64858768097241
 20
6.617061595137947
 30
0.0
 11
52.18760821268507
 21
5.078041063425296
 31
0.0
  0
LINE
  5
ACB
330
1F
100
AcDbEntity
  8
2
  6
CONTINUOUS
370
25
 62
7
100
AcDbLine
 10
50.6899133448223
 20
6.999999999999993
 30
0.0
 11
52.25831889080373
 21
5.431594454018565
 31
0.0
  0
LINE
  5
ACC
330
1F
100
AcDbEntity
  8
2
  6
CONTINUOUS
370
25
 62
7
100
AcDbLine
 10
51.11417741353424
 20
6.999999999999993
 30
0.0
 11
52.32902956892238
 21
5.785147844611849
 31
0.0
  0
LINE
  5
ACD
330
1F
100
AcDbEntity
  8
2
  6
CONTINUOUS
370
25
 62
7
100
AcDbLine
 10
51.53844148224616
 20
6.999999999999993
 30
0.0
 11
52.39974024704103
 21
6.138701235205119
 31
0.0
  0
LINE
  5
ACE
330
1F
100
AcDbEntity
  8
2
  6
CONTINUOUS
370
25
 62
7
100
AcDbLine
 10
51.96270555095809
 20
6.999999999999993
 30
0.0
 11
52.47045092515969
 21
6.492254625798395
 31
0.0
  0
LINE
  5
ACF
330
1F
100
AcDbEntity
  8
2
  6
CONTINUOUS
370
25
 62
7
100
AcDbLine
 10
52.38696961967002
 20
6.999999999999993
 30
0.0
 11
52.54116160327835
 21
6.845808016391665
 31
0.0
  0
TEXT
  5
AD0
330
1F
100
AcDbEntity
  8
2
  6
CONTINUOUS
370
25
 62
7
100
AcDbText
 10
50.072
 20
12.34583333333333
 30
0.0
 40
3.5
  1
4
 50
90.00000000000001
 72
     1
 11
50.072
 21
13.5125
 31
0.0
100
AcDbText
  0
CIRCLE
  5
AD1
330
1F
100
AcDbEntity
  8
2
  6
CONTINUOUS
370
25
 62
7
100
AcDbCircle
 10
48.322
 20
10.1875
 30
0.0
 40
1.4
  0
LINE
  5
AD2
330
1F
100
AcDbEntity
  8
2
  6
CONTINUOUS
370
25
 62
7
100
AcDbLine
 10
49.722
 20
8.787499999999998
 30
0.0
 11
46.922
 21
11.5875
 31
0.0
  0
LINE
  5
AD3
330
1F
100
AcDbEntity
  8
2
  6
CONTINUOUS
370
25
 62
7
100
AcDbLine
 10
5.722
 20
-2.0
 30
0.0
 11
5.721999999999999
 21
-35.0
 31
0.0
  0
LINE
  5
AD4
330
1F
100
AcDbEntity
  8
2
  6
CONTINUOUS
370
25
 62
7
100
AcDbLine
 10
16.722
 20
-35.0
 30
0.0
 11
16.722
 21
-2.0
 31
0.0
  0
LINE
  5
AD5
330
1F
100
AcDbEntity
  8
2
  6
CONTINUOUS
370
25
 62
7
100
AcDbLine
 10
-1.278000000000002
 20
-34.0
 30
0.0
 11
23.722
 21
-34.0
 31
0.0
  0
LINE
  5
AD6
330
1F
100
AcDbEntity
  8
2
  6
CONTINUOUS
370
25
 62
7
100
AcDbLine
 10
5.721999999999999
 20
-34.0
 30
0.0
 11
0.7219999999999984
 21
-35.0
 31
0.0
  0
LINE
  5
AD7
330
1F
100
AcDbEntity
  8
2
  6
CONTINUOUS
370
25
 62
7
100
AcDbLine
 10
0.7219999999999984
 20
-35.0
 30
0.0
 11
0.7219999999999984
 21
-33.0
 31
0.0
  0
LINE
  5
AD8
330
1F
100
AcDbEntity
  8
2
  6
CONTINUOUS
370
25
 62
7
100
AcDbLine
 10
0.7219999999999984
 20
-33.0
 30
0.0
 11
5.721999999999999
 21
-34.0
 31
0.0
  0
LINE
  5
AD9
330
1F
100
AcDbEntity
  8
2
  6
CONTINUOUS
370
25
 62
7
100
AcDbLine
 10
5.515024315089919
 20
-34.04139513698202
 30
0.0
 11
5.584016210059946
 21
-33.97240324201199
 31
0.0
  0
LINE
  5
ADA
330
1F
100
AcDbEntity
  8
2
  6
CONTINUOUS
370
25
 62
7
100
AcDbLine
 10
4.984694229200001
 20
-34.14746115416
 30
0.0
 11
5.230462819466668
 21
-33.90169256389333
 31
0.0
  0
LINE
  5
ADB
330
1F
100
AcDbEntity
  8
2
  6
CONTINUOUS
370
25
 62
7
100
AcDbLine
 10
4.454364143310092
 20
-34.25352717133798
 30
0.0
 11
4.876909428873395
 21
-33.83098188577468
 31
0.0
  0
LINE
  5
ADC
330
1F
100
AcDbEntity
  8
2
  6
CONTINUOUS
370
25
 62
7
100
AcDbLine
 10
3.924034057420173
 20
-34.35959318851597
 30
0.0
 11
4.523356038280117
 21
-33.76027120765603
 31
0.0
  0
LINE
  5
ADD
330
1F
100
AcDbEntity
  8
2
  6
CONTINUOUS
370
25
 62
7
100
AcDbLine
 10
3.393703971530263
 20
-34.46565920569395
 30
0.0
 11
4.169802647686845
 21
-33.68956052953737
 31
0.0
  0
LINE
  5
ADE
330
1F
100
AcDbEntity
  8
2
  6
CONTINUOUS
370
25
 62
7
100
AcDbLine
 10
2.863373885640352
 20
-34.57172522287193
 30
0.0
 11
3.816249257093571
 21
-33.61884985141872
 31
0.0
  0
LINE
  5
ADF
330
1F
100
AcDbEntity
  8
2
  6
CONTINUOUS
370
25
 62
7
100
AcDbLine
 10
2.333043799750431
 20
-34.67779124004991
 30
0.0
 11
3.462695866500292
 21
-33.54813917330006
 31
0.0
  0
LINE
  5
AE0
330
1F
100
AcDbEntity
  8
2
  6
CONTINUOUS
370
25
 62
7
100
AcDbLine
 10
1.802713713860518
 20
-34.78385725722789
 30
0.0
 11
3.109142475907019
 21
-33.47742849518141
 31
0.0
  0
LINE
  5
AE1
330
1F
100
AcDbEntity
  8
2
  6
CONTINUOUS
370
25
 62
7
100
AcDbLine
 10
1.272383627970606
 20
-34.88992327440588
 30
0.0
 11
2.755589085313745
 21
-33.40671781706275
 31
0.0
  0
LINE
  5
AE2
330
1F
100
AcDbEntity
  8
2
  6
CONTINUOUS
370
25
 62
7
100
AcDbLine
 10
0.7420535420806837
 20
-34.99598929158386
 30
0.0
 11
2.402035694720465
 21
-33.33600713894409
 31
0.0
  0
LINE
  5
AE3
330
1F
100
AcDbEntity
  8
2
  6
CONTINUOUS
370
25
 62
7
100
AcDbLine
 10
0.7219999999999984
 20
-34.59177876495262
 30
0.0
 11
2.048482304127191
 21
-33.26529646082544
 31
0.0
  0
LINE
  5
AE4
330
1F
100
AcDbEntity
  8
2
  6
CONTINUOUS
370
25
 62
7
100
AcDbLine
 10
0.7219999999999984
 20
-34.16751469624069
 30
0.0
 11
1.694928913533916
 21
-33.19458578270678
 31
0.0
  0
LINE
  5
AE5
330
1F
100
AcDbEntity
  8
2
  6
CONTINUOUS
370
25
 62
7
100
AcDbLine
 10
0.7219999999999984
 20
-33.74325062752877
 30
0.0
 11
1.341375522940641
 21
-33.12387510458813
 31
0.0
  0
LINE
  5
AE6
330
1F
100
AcDbEntity
  8
2
  6
CONTINUOUS
370
25
 62
7
100
AcDbLine
 10
0.7219999999999984
 20
-33.31898655881684
 30
0.0
 11
0.9878221323473662
 21
-33.05316442646947
 31
0.0
  0
LINE
  5
AE7
330
1F
100
AcDbEntity
  8
2
  6
CONTINUOUS
370
25
 62
7
100
AcDbLine
 10
0.7219999999999984
 20
-34.58290862017473
 30
0.0
 11
1.069576149854395
 21
-34.93048477002912
 31
0.0
  0
LINE
  5
AE8
330
1F
100
AcDbEntity
  8
2
  6
CONTINUOUS
370
25
 62
7
100
AcDbLine
 10
0.7219999999999984
 20
-34.1586445514628
 30
0.0
 11
1.423129540447669
 21
-34.85977409191047
 31
0.0
  0
LINE
  5
AE9
330
1F
100
AcDbEntity
  8
2
  6
CONTINUOUS
370
25
 62
7
100
AcDbLine
 10
0.7219999999999984
 20
-33.73438048275087
 30
0.0
 11
1.776682931040944
 21
-34.78906341379181
 31
0.0
  0
LINE
  5
AEA
330
1F
100
AcDbEntity
  8
2
  6
CONTINUOUS
370
25
 62
7
100
AcDbLine
 10
0.7219999999999984
 20
-33.31011641403894
 30
0.0
 11
2.130236321634218
 21
-34.71835273567316
 31
0.0
  0
LINE
  5
AEB
330
1F
100
AcDbEntity
  8
2
  6
CONTINUOUS
370
25
 62
7
100
AcDbLine
 10
0.8646845683412324
 20
-33.02853691366825
 30
0.0
 11
2.483789712227493
 21
-34.6476420575545
 31
0.0
  0
LINE
  5
AEC
330
1F
100
AcDbEntity
  8
2
  6
CONTINUOUS
370
25
 62
7
100
AcDbLine
 10
1.395014654231145
 20
-33.13460293084623
 30
0.0
 11
2.837343102820768
 21
-34.57693137943585
 31
0.0
  0
LINE
  5
AED
330
1F
100
AcDbEntity
  8
2
  6
CONTINUOUS
370
25
 62
7
100
AcDbLine
 10
1.925344740121058
 20
-33.24066894802421
 30
0.0
 11
3.190896493414043
 21
-34.50622070131719
 31
0.0
  0
LINE
  5
AEE
330
1F
100
AcDbEntity
  8
2
  6
CONTINUOUS
370
25
 62
7
100
AcDbLine
 10
2.455674826010972
 20
-33.3467349652022
 30
0.0
 11
3.544449884007319
 21
-34.43551002319854
 31
0.0
  0
LINE
  5
AEF
330
1F
100
AcDbEntity
  8
2
  6
CONTINUOUS
370
25
 62
7
100
AcDbLine
 10
2.986004911900886
 20
-33.45280098238018
 30
0.0
 11
3.898003274600594
 21
-34.36479934507988
 31
0.0
  0
LINE
  5
AF0
330
1F
100
AcDbEntity
  8
2
  6
CONTINUOUS
370
25
 62
7
100
AcDbLine
 10
3.516334997790801
 20
-33.55886699955816
 30
0.0
 11
4.25155666519387
 21
-34.29408866696122
 31
0.0
  0
LINE
  5
AF1
330
1F
100
AcDbEntity
  8
2
  6
CONTINUOUS
370
25
 62
7
100
AcDbLine
 10
4.046665083680716
 20
-33.66493301673614
 30
0.0
 11
4.605110055787146
 21
-34.22337798884257
 31
0.0
  0
LINE
  5
AF2
330
1F
100
AcDbEntity
  8
2
  6
CONTINUOUS
370
25
 62
7
100
AcDbLine
 10
4.576995169570631
 20
-33.77099903391412
 30
0.0
 11
4.958663446380422
 21
-34.15266731072391
 31
0.0
  0
LINE
  5
AF3
330
1F
100
AcDbEntity
  8
2
  6
CONTINUOUS
370
25
 62
7
100
AcDbLine
 10
5.107325255460542
 20
-33.87706505109211
 30
0.0
 11
5.312216836973695
 21
-34.08195663260526
 31
0.0
  0
LINE
  5
AF4
330
1F
100
AcDbEntity
  8
2
  6
CONTINUOUS
370
25
 62
7
100
AcDbLine
 10
5.637655341350459
 20
-33.98313106827009
 30
0.0
 11
5.665770227566972
 21
-34.0112459544866
 31
0.0
  0
LINE
  5
AF5
330
1F
100
AcDbEntity
  8
2
  6
CONTINUOUS
370
25
 62
7
100
AcDbLine
 10
16.722
 20
-34.0
 30
0.0
 11
21.722
 21
-33.0
 31
0.0
  0
LINE
  5
AF6
330
1F
100
AcDbEntity
  8
2
  6
CONTINUOUS
370
25
 62
7
100
AcDbLine
 10
21.722
 20
-33.0
 30
0.0
 11
21.722
 21
-35.0
 31
0.0
  0
LINE
  5
AF7
330
1F
100
AcDbEntity
  8
2
  6
CONTINUOUS
370
25
 62
7
100
AcDbLine
 10
21.722
 20
-35.0
 30
0.0
 11
16.722
 21
-34.0
 31
0.0
  0
LINE
  5
AF8
330
1F
100
AcDbEntity
  8
2
  6
CONTINUOUS
370
25
 62
7
100
AcDbLine
 10
21.70964753929533
 20
-34.99752950785907
 30
0.0
 11
21.722
 21
-34.9851770471544
 31
0.0
  0
LINE
  5
AF9
330
1F
100
AcDbEntity
  8
2
  6
CONTINUOUS
370
25
 62
7
100
AcDbLine
 10
21.35609414870206
 20
-34.92681882974041
 30
0.0
 11
21.722
 21
-34.56091297844247
 31
0.0
  0
LINE
  5
AFA
330
1F
100
AcDbEntity
  8
2
  6
CONTINUOUS
370
25
 62
7
100
AcDbLine
 10
21.00254075810878
 20
-34.85610815162175
 30
0.0
 11
21.722
 21
-34.13664890973054
 31
0.0
  0
LINE
  5
AFB
330
1F
100
AcDbEntity
  8
2
  6
CONTINUOUS
370
25
 62
7
100
AcDbLine
 10
20.64898736751551
 20
-34.7853974735031
 30
0.0
 11
21.722
 21
-33.71238484101861
 31
0.0
  0
LINE
  5
AFC
330
1F
100
AcDbEntity
  8
2
  6
CONTINUOUS
370
25
 62
7
100
AcDbLine
 10
20.29543397692223
 20
-34.71468679538445
 30
0.0
 11
21.722
 21
-33.28812077230668
 31
0.0
  0
LINE
  5
AFD
330
1F
100
AcDbEntity
  8
2
  6
CONTINUOUS
370
25
 62
7
100
AcDbLine
 10
19.94188058632895
 20
-34.64397611726579
 30
0.0
 11
21.55182087949344
 21
-33.03403582410131
 31
0.0
  0
LINE
  5
AFE
330
1F
100
AcDbEntity
  8
2
  6
CONTINUOUS
370
25
 62
7
100
AcDbLine
 10
19.58832719573568
 20
-34.57326543914714
 30
0.0
 11
21.02149079360353
 21
-33.1401018412793
 31
0.0
  0
LINE
  5
AFF
330
1F
100
AcDbEntity
  8
2
  6
CONTINUOUS
370
25
 62
7
100
AcDbLine
 10
19.23477380514241
 20
-34.50255476102848
 30
0.0
 11
20.49116070771361
 21
-33.24616785845728
 31
0.0
  0
LINE
  5
B00
330
1F
100
AcDbEntity
  8
2
  6
CONTINUOUS
370
25
 62
7
100
AcDbLine
 10
18.88122041454913
 20
-34.43184408290983
 30
0.0
 11
19.9608306218237
 21
-33.35223387563526
 31
0.0
  0
LINE
  5
B01
330
1F
100
AcDbEntity
  8
2
  6
CONTINUOUS
370
25
 62
7
100
AcDbLine
 10
18.52766702395586
 20
-34.36113340479118
 30
0.0
 11
19.43050053593379
 21
-33.45829989281324
 31
0.0
  0
LINE
  5
B02
330
1F
100
AcDbEntity
  8
2
  6
CONTINUOUS
370
25
 62
7
100
AcDbLine
 10
18.17411363336258
 20
-34.29042272667252
 30
0.0
 11
18.90017045004388
 21
-33.56436590999122
 31
0.0
  0
LINE
  5
B03
330
1F
100
AcDbEntity
  8
2
  6
CONTINUOUS
370
25
 62
7
100
AcDbLine
 10
17.82056024276931
 20
-34.21971204855386
 30
0.0
 11
18.36984036415396
 21
-33.67043192716921
 31
0.0
  0
LINE
  5
B04
330
1F
100
AcDbEntity
  8
2
  6
CONTINUOUS
370
25
 62
7
100
AcDbLine
 10
17.46700685217603
 20
-34.14900137043521
 30
0.0
 11
17.83951027826405
 21
-33.77649794434719
 31
0.0
  0
LINE
  5
B05
330
1F
100
AcDbEntity
  8
2
  6
CONTINUOUS
370
25
 62
7
100
AcDbLine
 10
17.11345346158276
 20
-34.07829069231656
 30
0.0
 11
17.30918019237414
 21
-33.88256396152518
 31
0.0
  0
LINE
  5
B06
330
1F
100
AcDbEntity
  8
2
  6
CONTINUOUS
370
25
 62
7
100
AcDbLine
 10
16.75990007098948
 20
-34.0075800141979
 30
0.0
 11
16.77885010648422
 21
-33.98862997870316
 31
0.0
  0
LINE
  5
B07
330
1F
100
AcDbEntity
  8
2
  6
CONTINUOUS
370
25
 62
7
100
AcDbLine
 10
16.84165408849647
 20
-33.97606918230071
 30
0.0
 11
16.9014811327447
 21
-34.03589622654894
 31
0.0
  0
LINE
  5
B08
330
1F
100
AcDbEntity
  8
2
  6
CONTINUOUS
370
25
 62
7
100
AcDbLine
 10
17.19520747908974
 20
-33.90535850418206
 30
0.0
 11
17.43181121863461
 21
-34.14196224372692
 31
0.0
  0
LINE
  5
B09
330
1F
100
AcDbEntity
  8
2
  6
CONTINUOUS
370
25
 62
7
100
AcDbLine
 10
17.54876086968302
 20
-33.8346478260634
 30
0.0
 11
17.96214130452452
 21
-34.2480282609049
 31
0.0
  0
LINE
  5
B0A
330
1F
100
AcDbEntity
  8
2
  6
CONTINUOUS
370
25
 62
7
100
AcDbLine
 10
17.90231426027629
 20
-33.76393714794474
 30
0.0
 11
18.49247139041444
 21
-34.35409427808289
 31
0.0
  0
LINE
  5
B0B
330
1F
100
AcDbEntity
  8
2
  6
CONTINUOUS
370
25
 62
7
100
AcDbLine
 10
18.25586765086956
 20
-33.69322646982609
 30
0.0
 11
19.02280147630435
 21
-34.46016029526087
 31
0.0
  0
LINE
  5
B0C
330
1F
100
AcDbEntity
  8
2
  6
CONTINUOUS
370
25
 62
7
100
AcDbLine
 10
18.60942104146284
 20
-33.62251579170744
 30
0.0
 11
19.55313156219426
 21
-34.56622631243885
 31
0.0
  0
LINE
  5
B0D
330
1F
100
AcDbEntity
  8
2
  6
CONTINUOUS
370
25
 62
7
100
AcDbLine
 10
18.96297443205611
 20
-33.55180511358878
 30
0.0
 11
20.08346164808418
 21
-34.67229232961684
 31
0.0
  0
LINE
  5
B0E
330
1F
100
AcDbEntity
  8
2
  6
CONTINUOUS
370
25
 62
7
100
AcDbLine
 10
19.31652782264939
 20
-33.48109443547013
 30
0.0
 11
20.6137917339741
 21
-34.77835834679482
 31
0.0
  0
LINE
  5
B0F
330
1F
100
AcDbEntity
  8
2
  6
CONTINUOUS
370
25
 62
7
100
AcDbLine
 10
19.67008121324266
 20
-33.41038375735147
 30
0.0
 11
21.14412181986401
 21
-34.8844243639728
 31
0.0
  0
LINE
  5
B10
330
1F
100
AcDbEntity
  8
2
  6
CONTINUOUS
370
25
 62
7
100
AcDbLine
 10
20.02363460383594
 20
-33.33967307923281
 30
0.0
 11
21.67445190575392
 21
-34.99049038115079
 31
0.0
  0
LINE
  5
B11
330
1F
100
AcDbEntity
  8
2
  6
CONTINUOUS
370
25
 62
7
100
AcDbLine
 10
20.37718799442922
 20
-33.26896240111416
 30
0.0
 11
21.722
 21
-34.61377440668493
 31
0.0
  0
LINE
  5
B12
330
1F
100
AcDbEntity
  8
2
  6
CONTINUOUS
370
25
 62
7
100
AcDbLine
 10
20.73074138502249
 20
-33.1982517229955
 30
0.0
 11
21.722
 21
-34.189510337973
 31
0.0
  0
LINE
  5
B13
330
1F
100
AcDbEntity
  8
2
  6
CONTINUOUS
370
25
 62
7
100
AcDbLine
 10
21.08429477561577
 20
-33.12754104487685
 30
0.0
 11
21.722
 21
-33.76524626926107
 31
0.0
  0
LINE
  5
B14
330
1F
100
AcDbEntity
  8
2
  6
CONTINUOUS
370
25
 62
7
100
AcDbLine
 10
21.43784816620905
 20
-33.05683036675819
 30
0.0
 11
21.722
 21
-33.34098220054914
 31
0.0
  0
TEXT
  5
B15
330
1F
100
AcDbEntity
  8
2
  6
CONTINUOUS
370
25
 62
7
100
AcDbText
 10
9.472
 20
-32.5
 30
0.0
 40
3.5
  1
11
 72
     1
 11
11.222
 21
-32.5
 31
0.0
100
AcDbText
  0
LINE
  5
B16
330
1F
100
AcDbEntity
  8
2
  6
CONTINUOUS
370
25
 62
7
100
AcDbLine
 10
-0.01
 20
2.99995
 30
0.0
 11
-0.0099999999999986
 21
25.99995
 31
0.0
  0
LINE
  5
B17
330
1F
100
AcDbEntity
  8
2
  6
CONTINUOUS
370
25
 62
7
100
AcDbLine
 10
16.722
 20
25.99995
 30
0.0
 11
16.722
 21
2.0
 31
0.0
  0
LINE
  5
B18
330
1F
100
AcDbEntity
  8
2
  6
CONTINUOUS
370
25
 62
7
100
AcDbLine
 10
-7.01
 20
24.99995
 30
0.0
 11
41.572
 21
24.99995
 31
0.0
  0
LINE
  5
B19
330
1F
100
AcDbEntity
  8
2
  6
CONTINUOUS
370
25
 62
7
100
AcDbLine
 10
-0.01
 20
24.99995
 30
0.0
 11
-5.01
 21
23.99995
 31
0.0
  0
LINE
  5
B1A
330
1F
100
AcDbEntity
  8
2
  6
CONTINUOUS
370
25
 62
7
100
AcDbLine
 10
-5.01
 20
23.99995
 30
0.0
 11
-5.01
 21
25.99995
 31
0.0
  0
LINE
  5
B1B
330
1F
100
AcDbEntity
  8
2
  6
CONTINUOUS
370
25
 62
7
100
AcDbLine
 10
-5.01
 20
25.99995
 30
0.0
 11
-0.01
 21
24.99995
 31
0.0
  0
LINE
  5
B1C
330
1F
100
AcDbEntity
  8
2
  6
CONTINUOUS
370
25
 62
7
100
AcDbLine
 10
-0.0495375675046905
 20
24.99204248649906
 30
0.0
 11
-0.0363583783364603
 21
25.00522167566729
 31
0.0
  0
LINE
  5
B1D
330
1F
100
AcDbEntity
  8
2
  6
CONTINUOUS
370
25
 62
7
100
AcDbLine
 10
-0.5798676533945999
 20
24.88597646932108
 30
0.0
 11
-0.3899117689297333
 21
25.07593235378594
 31
0.0
  0
LINE
  5
B1E
330
1F
100
AcDbEntity
  8
2
  6
CONTINUOUS
370
25
 62
7
100
AcDbLine
 10
-1.110197739284509
 20
24.7799104521431
 30
0.0
 11
-0.7434651595230064
 21
25.1466430319046
 31
0.0
  0
LINE
  5
B1F
330
1F
100
AcDbEntity
  8
2
  6
CONTINUOUS
370
25
 62
7
100
AcDbLine
 10
-1.640527825174419
 20
24.67384443496512
 30
0.0
 11
-1.097018550116279
 21
25.21735371002325
 31
0.0
  0
LINE
  5
B20
330
1F
100
AcDbEntity
  8
2
  6
CONTINUOUS
370
25
 62
7
100
AcDbLine
 10
-2.170857911064332
 20
24.56777841778713
 30
0.0
 11
-1.450571940709555
 21
25.28806438814191
 31
0.0
  0
LINE
  5
B21
330
1F
100
AcDbEntity
  8
2
  6
CONTINUOUS
370
25
 62
7
100
AcDbLine
 10
-2.701187996954241
 20
24.46171240060915
 30
0.0
 11
-1.804125331302828
 21
25.35877506626056
 31
0.0
  0
LINE
  5
B22
330
1F
100
AcDbEntity
  8
2
  6
CONTINUOUS
370
25
 62
7
100
AcDbLine
 10
-3.231518082844151
 20
24.35564638343117
 30
0.0
 11
-2.157678721896101
 21
25.42948574437922
 31
0.0
  0
LINE
  5
B23
330
1F
100
AcDbEntity
  8
2
  6
CONTINUOUS
370
25
 62
7
100
AcDbLine
 10
-3.76184816873406
 20
24.24958036625319
 30
0.0
 11
-2.511232112489374
 21
25.50019642249787
 31
0.0
  0
LINE
  5
B24
330
1F
100
AcDbEntity
  8
2
  6
CONTINUOUS
370
25
 62
7
100
AcDbLine
 10
-4.292178254623969
 20
24.1435143490752
 30
0.0
 11
-2.864785503082647
 21
25.57090710061653
 31
0.0
  0
LINE
  5
B25
330
1F
100
AcDbEntity
  8
2
  6
CONTINUOUS
370
25
 62
7
100
AcDbLine
 10
-4.822508340513877
 20
24.03744833189722
 30
0.0
 11
-3.218338893675919
 21
25.64161777873518
 31
0.0
  0
LINE
  5
B26
330
1F
100
AcDbEntity
  8
2
  6
CONTINUOUS
370
25
 62
7
100
AcDbLine
 10
-5.01
 20
24.27422074112303
 30
0.0
 11
-3.571892284269193
 21
25.71232845685384
 31
0.0
  0
LINE
  5
B27
330
1F
100
AcDbEntity
  8
2
  6
CONTINUOUS
370
25
 62
7
100
AcDbLine
 10
-5.01
 20
24.69848480983496
 30
0.0
 11
-3.925445674862465
 21
25.78303913497249
 31
0.0
  0
LINE
  5
B28
330
1F
100
AcDbEntity
  8
2
  6
CONTINUOUS
370
25
 62
7
100
AcDbLine
 10
-5.01
 20
25.12274887854688
 30
0.0
 11
-4.278999065455737
 21
25.85374981309115
 31
0.0
  0
LINE
  5
B29
330
1F
100
AcDbEntity
  8
2
  6
CONTINUOUS
370
25
 62
7
100
AcDbLine
 10
-5.01
 20
25.54701294725881
 30
0.0
 11
-4.632552456049011
 21
25.9244604912098
 31
0.0
  0
LINE
  5
B2A
330
1F
100
AcDbEntity
  8
2
  6
CONTINUOUS
370
25
 62
7
100
AcDbLine
 10
-5.01
 20
25.97127701597074
 30
0.0
 11
-4.986105846642284
 21
25.99517116932845
 31
0.0
  0
LINE
  5
B2B
330
1F
100
AcDbEntity
  8
2
  6
CONTINUOUS
370
25
 62
7
100
AcDbLine
 10
-5.01
 20
24.09188309203675
 30
0.0
 11
-4.933389089969375
 21
24.01527218200612
 31
0.0
  0
LINE
  5
B2C
330
1F
100
AcDbEntity
  8
2
  6
CONTINUOUS
370
25
 62
7
100
AcDbLine
 10
-5.01
 20
24.51614716074868
 30
0.0
 11
-4.579835699376101
 21
24.08598286012478
 31
0.0
  0
LINE
  5
B2D
330
1F
100
AcDbEntity
  8
2
  6
CONTINUOUS
370
25
 62
7
100
AcDbLine
 10
-5.01
 20
24.9404112294606
 30
0.0
 11
-4.226282308782831
 21
24.15669353824343
 31
0.0
  0
LINE
  5
B2E
330
1F
100
AcDbEntity
  8
2
  6
CONTINUOUS
370
25
 62
7
100
AcDbLine
 10
-5.01
 20
25.36467529817253
 30
0.0
 11
-3.872728918189557
 21
24.22740421636209
 31
0.0
  0
LINE
  5
B2F
330
1F
100
AcDbEntity
  8
2
  6
CONTINUOUS
370
25
 62
7
100
AcDbLine
 10
-5.01
 20
25.78893936688446
 30
0.0
 11
-3.519175527596284
 21
24.29811489448074
 31
0.0
  0
LINE
  5
B30
330
1F
100
AcDbEntity
  8
2
  6
CONTINUOUS
370
25
 62
7
100
AcDbLine
 10
-4.743433205504515
 20
25.9466366411009
 30
0.0
 11
-3.165622137003008
 21
24.3688255725994
 31
0.0
  0
LINE
  5
B31
330
1F
100
AcDbEntity
  8
2
  6
CONTINUOUS
370
25
 62
7
100
AcDbLine
 10
-4.213103119614604
 20
25.84057062392292
 30
0.0
 11
-2.812068746409734
 21
24.43953625071805
 31
0.0
  0
LINE
  5
B32
330
1F
100
AcDbEntity
  8
2
  6
CONTINUOUS
370
25
 62
7
100
AcDbLine
 10
-3.682773033724693
 20
25.73450460674494
 30
0.0
 11
-2.458515355816461
 21
24.51024692883671
 31
0.0
  0
LINE
  5
B33
330
1F
100
AcDbEntity
  8
2
  6
CONTINUOUS
370
25
 62
7
100
AcDbLine
 10
-3.152442947834787
 20
25.62843858956695
 30
0.0
 11
-2.10496196522319
 21
24.58095760695536
 31
0.0
  0
LINE
  5
B34
330
1F
100
AcDbEntity
  8
2
  6
CONTINUOUS
370
25
 62
7
100
AcDbLine
 10
-2.622112861944876
 20
25.52237257238897
 30
0.0
 11
-1.751408574629917
 21
24.65166828507402
 31
0.0
  0
LINE
  5
B35
330
1F
100
AcDbEntity
  8
2
  6
CONTINUOUS
370
25
 62
7
100
AcDbLine
 10
-2.091782776054966
 20
25.41630655521099
 30
0.0
 11
-1.397855184036643
 21
24.72237896319267
 31
0.0
  0
LINE
  5
B36
330
1F
100
AcDbEntity
  8
2
  6
CONTINUOUS
370
25
 62
7
100
AcDbLine
 10
-1.561452690165055
 20
25.31024053803301
 30
0.0
 11
-1.044301793443369
 21
24.79308964131133
 31
0.0
  0
LINE
  5
B37
330
1F
100
AcDbEntity
  8
2
  6
CONTINUOUS
370
25
 62
7
100
AcDbLine
 10
-1.031122604275144
 20
25.20417452085503
 30
0.0
 11
-0.6907484028500958
 21
24.86380031942998
 31
0.0
  0
LINE
  5
B38
330
1F
100
AcDbEntity
  8
2
  6
CONTINUOUS
370
25
 62
7
100
AcDbLine
 10
-0.5007925183852335
 20
25.09810850367705
 30
0.0
 11
-0.3371950122568221
 21
24.93451099754864
 31
0.0
  0
LINE
  5
B39
330
1F
100
AcDbEntity
  8
2
  6
CONTINUOUS
370
25
 62
7
100
AcDbLine
 10
16.722
 20
24.99995
 30
0.0
 11
21.722
 21
25.99995
 31
0.0
  0
LINE
  5
B3A
330
1F
100
AcDbEntity
  8
2
  6
CONTINUOUS
370
25
 62
7
100
AcDbLine
 10
21.722
 20
25.99995
 30
0.0
 11
21.722
 21
23.99995
 31
0.0
  0
LINE
  5
B3B
330
1F
100
AcDbEntity
  8
2
  6
CONTINUOUS
370
25
 62
7
100
AcDbLine
 10
21.722
 20
23.99995
 30
0.0
 11
16.722
 21
24.99995
 31
0.0
  0
LINE
  5
B3C
330
1F
100
AcDbEntity
  8
2
  6
CONTINUOUS
370
25
 62
7
100
AcDbLine
 10
21.49063798977369
 20
24.04622240204526
 30
0.0
 11
21.722
 21
24.27758441227157
 31
0.0
  0
LINE
  5
B3D
330
1F
100
AcDbEntity
  8
2
  6
CONTINUOUS
370
25
 62
7
100
AcDbLine
 10
21.13708459918042
 20
24.11693308016391
 30
0.0
 11
21.722
 21
24.7018484809835
 31
0.0
  0
LINE
  5
B3E
330
1F
100
AcDbEntity
  8
2
  6
CONTINUOUS
370
25
 62
7
100
AcDbLine
 10
20.78353120858714
 20
24.18764375828257
 30
0.0
 11
21.722
 21
25.12611254969542
 31
0.0
  0
LINE
  5
B3F
330
1F
100
AcDbEntity
  8
2
  6
CONTINUOUS
370
25
 62
7
100
AcDbLine
 10
20.42997781799387
 20
24.25835443640122
 30
0.0
 11
21.722
 21
25.55037661840735
 31
0.0
  0
LINE
  5
B40
330
1F
100
AcDbEntity
  8
2
  6
CONTINUOUS
370
25
 62
7
100
AcDbLine
 10
20.0764244274006
 20
24.32906511451988
 30
0.0
 11
21.722
 21
25.97464068711928
 31
0.0
  0
LINE
  5
B41
330
1F
100
AcDbEntity
  8
2
  6
CONTINUOUS
370
25
 62
7
100
AcDbLine
 10
19.72287103680732
 20
24.39977579263853
 30
0.0
 11
21.22330655521099
 21
25.9002113110422
 31
0.0
  0
LINE
  5
B42
330
1F
100
AcDbEntity
  8
2
  6
CONTINUOUS
370
25
 62
7
100
AcDbLine
 10
19.36931764621405
 20
24.47048647075719
 30
0.0
 11
20.69297646932108
 21
25.79414529386422
 31
0.0
  0
LINE
  5
B43
330
1F
100
AcDbEntity
  8
2
  6
CONTINUOUS
370
25
 62
7
100
AcDbLine
 10
19.01576425562078
 20
24.54119714887584
 30
0.0
 11
20.16264638343117
 21
25.68807927668623
 31
0.0
  0
LINE
  5
B44
330
1F
100
AcDbEntity
  8
2
  6
CONTINUOUS
370
25
 62
7
100
AcDbLine
 10
18.6622108650275
 20
24.6119078269945
 30
0.0
 11
19.63231629754126
 21
25.58201325950825
 31
0.0
  0
LINE
  5
B45
330
1F
100
AcDbEntity
  8
2
  6
CONTINUOUS
370
25
 62
7
100
AcDbLine
 10
18.30865747443423
 20
24.68261850511315
 30
0.0
 11
19.10198621165135
 21
25.47594724233027
 31
0.0
  0
LINE
  5
B46
330
1F
100
AcDbEntity
  8
2
  6
CONTINUOUS
370
25
 62
7
100
AcDbLine
 10
17.95510408384096
 20
24.75332918323181
 30
0.0
 11
18.57165612576144
 21
25.36988122515229
 31
0.0
  0
LINE
  5
B47
330
1F
100
AcDbEntity
  8
2
  6
CONTINUOUS
370
25
 62
7
100
AcDbLine
 10
17.60155069324768
 20
24.82403986135046
 30
0.0
 11
18.04132603987153
 21
25.2638152079743
 31
0.0
  0
LINE
  5
B48
330
1F
100
AcDbEntity
  8
2
  6
CONTINUOUS
370
25
 62
7
100
AcDbLine
 10
17.24799730265441
 20
24.89475053946911
 30
0.0
 11
17.51099595398162
 21
25.15774919079632
 31
0.0
  0
LINE
  5
B49
330
1F
100
AcDbEntity
  8
2
  6
CONTINUOUS
370
25
 62
7
100
AcDbLine
 10
16.89444391206114
 20
24.96546121758777
 30
0.0
 11
16.98066586809171
 21
25.05168317361834
 31
0.0
  0
LINE
  5
B4A
330
1F
100
AcDbEntity
  8
2
  6
CONTINUOUS
370
25
 62
7
100
AcDbLine
 10
16.94716066873408
 20
25.04498213374681
 30
0.0
 11
17.05974100310112
 21
24.93240179937977
 31
0.0
  0
LINE
  5
B4B
330
1F
100
AcDbEntity
  8
2
  6
CONTINUOUS
370
25
 62
7
100
AcDbLine
 10
17.30071405932735
 20
25.11569281186547
 30
0.0
 11
17.59007108899103
 21
24.8263357822018
 31
0.0
  0
LINE
  5
B4C
330
1F
100
AcDbEntity
  8
2
  6
CONTINUOUS
370
25
 62
7
100
AcDbLine
 10
17.65426744992062
 20
25.18640348998413
 30
0.0
 11
18.12040117488094
 21
24.72026976502381
 31
0.0
  0
LINE
  5
B4D
330
1F
100
AcDbEntity
  8
2
  6
CONTINUOUS
370
25
 62
7
100
AcDbLine
 10
18.0078208405139
 20
25.25711416810278
 30
0.0
 11
18.65073126077085
 21
24.61420374784583
 31
0.0
  0
LINE
  5
B4E
330
1F
100
AcDbEntity
  8
2
  6
CONTINUOUS
370
25
 62
7
100
AcDbLine
 10
18.36137423110717
 20
25.32782484622144
 30
0.0
 11
19.18106134666076
 21
24.50813773066785
 31
0.0
  0
LINE
  5
B4F
330
1F
100
AcDbEntity
  8
2
  6
CONTINUOUS
370
25
 62
7
100
AcDbLine
 10
18.71492762170045
 20
25.39853552434009
 30
0.0
 11
19.71139143255067
 21
24.40207171348986
 31
0.0
  0
LINE
  5
B50
330
1F
100
AcDbEntity
  8
2
  6
CONTINUOUS
370
25
 62
7
100
AcDbLine
 10
19.06848101229372
 20
25.46924620245874
 30
0.0
 11
20.24172151844058
 21
24.29600569631188
 31
0.0
  0
LINE
  5
B51
330
1F
100
AcDbEntity
  8
2
  6
CONTINUOUS
370
25
 62
7
100
AcDbLine
 10
19.42203440288699
 20
25.5399568805774
 30
0.0
 11
20.77205160433049
 21
24.1899396791339
 31
0.0
  0
LINE
  5
B52
330
1F
100
AcDbEntity
  8
2
  6
CONTINUOUS
370
25
 62
7
100
AcDbLine
 10
19.77558779348027
 20
25.61066755869605
 30
0.0
 11
21.3023816902204
 21
24.08387366195592
 31
0.0
  0
LINE
  5
B53
330
1F
100
AcDbEntity
  8
2
  6
CONTINUOUS
370
25
 62
7
100
AcDbLine
 10
20.12914118407353
 20
25.68137823681471
 30
0.0
 11
21.722
 21
24.08851942088824
 31
0.0
  0
LINE
  5
B54
330
1F
100
AcDbEntity
  8
2
  6
CONTINUOUS
370
25
 62
7
100
AcDbLine
 10
20.48269457466681
 20
25.75208891493336
 30
0.0
 11
21.722
 21
24.51278348960018
 31
0.0
  0
LINE
  5
B55
330
1F
100
AcDbEntity
  8
2
  6
CONTINUOUS
370
25
 62
7
100
AcDbLine
 10
20.83624796526008
 20
25.82279959305202
 30
0.0
 11
21.722
 21
24.9370475583121
 31
0.0
  0
LINE
  5
B56
330
1F
100
AcDbEntity
  8
2
  6
CONTINUOUS
370
25
 62
7
100
AcDbLine
 10
21.18980135585336
 20
25.89351027117067
 30
0.0
 11
21.722
 21
25.36131162702403
 31
0.0
  0
LINE
  5
B57
330
1F
100
AcDbEntity
  8
2
  6
CONTINUOUS
370
25
 62
7
100
AcDbLine
 10
21.54335474644663
 20
25.96422094928932
 30
0.0
 11
21.722
 21
25.78557569573595
 31
0.0
  0
TEXT
  5
B58
330
1F
100
AcDbEntity
  8
2
  6
CONTINUOUS
370
25
 62
7
100
AcDbText
 10
23.48033333333333
 20
26.49995
 30
0.0
 40
3.5
  1
16.732
 72
     1
 11
31.64699999999999
 21
26.49995
 31
0.0
100
AcDbText
  0
LINE
  5
B59
330
1F
100
AcDbEntity
  8
SK2
  6
CONTINUOUS
370
25
 62
7
100
AcDbLine
 10
-40.278
 20
0.9999500000000001
 30
0.0
 11
-40.278
 21
35.99995
 31
0.0
  0
LINE
  5
B5A
330
1F
100
AcDbEntity
  8
SK2
  6
CONTINUOUS
370
25
 62
7
100
AcDbLine
 10
16.722
 20
35.99995
 30
0.0
 11
16.72199999999999
 21
2.0
 31
0.0
  0
LINE
  5
B5B
330
1F
100
AcDbEntity
  8
SK2
  6
CONTINUOUS
370
25
 62
7
100
AcDbLine
 10
-40.278
 20
34.99995
 30
0.0
 11
16.722
 21
34.99995
 31
0.0
  0
LINE
  5
B5C
330
1F
100
AcDbEntity
  8
SK2
  6
CONTINUOUS
370
25
 62
7
100
AcDbLine
 10
-40.278
 20
34.99995
 30
0.0
 11
-35.278
 21
35.99995
 31
0.0
  0
LINE
  5
B5D
330
1F
100
AcDbEntity
  8
SK2
  6
CONTINUOUS
370
25
 62
7
100
AcDbLine
 10
-35.278
 20
35.99995
 30
0.0
 11
-35.278
 21
33.99995
 31
0.0
  0
LINE
  5
B5E
330
1F
100
AcDbEntity
  8
SK2
  6
CONTINUOUS
370
25
 62
7
100
AcDbLine
 10
-35.278
 20
33.99995
 30
0.0
 11
-40.278
 21
34.99995
 31
0.0
  0
LINE
  5
B5F
330
1F
100
AcDbEntity
  8
SK2
  6
CONTINUOUS
370
25
 62
7
100
AcDbLine
 10
-35.53746439063024
 20
34.05184287812604
 30
0.0
 11
-35.278
 21
34.31130726875628
 31
0.0
  0
LINE
  5
B60
330
1F
100
AcDbEntity
  8
SK2
  6
CONTINUOUS
370
25
 62
7
100
AcDbLine
 10
-35.89101778122352
 20
34.1225535562447
 30
0.0
 11
-35.278
 21
34.73557133746822
 31
0.0
  0
LINE
  5
B61
330
1F
100
AcDbEntity
  8
SK2
  6
CONTINUOUS
370
25
 62
7
100
AcDbLine
 10
-36.24457117181679
 20
34.19326423436335
 30
0.0
 11
-35.278
 21
35.15983540618015
 31
0.0
  0
LINE
  5
B62
330
1F
100
AcDbEntity
  8
SK2
  6
CONTINUOUS
370
25
 62
7
100
AcDbLine
 10
-36.59812456241006
 20
34.26397491248201
 30
0.0
 11
-35.278
 21
35.58409947489207
 31
0.0
  0
LINE
  5
B63
330
1F
100
AcDbEntity
  8
SK2
  6
CONTINUOUS
370
25
 62
7
100
AcDbLine
 10
-36.95167795300335
 20
34.33468559060066
 30
0.0
 11
-35.28851692950501
 21
35.997846614099
 31
0.0
  0
LINE
  5
B64
330
1F
100
AcDbEntity
  8
SK2
  6
CONTINUOUS
370
25
 62
7
100
AcDbLine
 10
-37.30523134359662
 20
34.40539626871932
 30
0.0
 11
-35.81884701539493
 21
35.89178059692102
 31
0.0
  0
LINE
  5
B65
330
1F
100
AcDbEntity
  8
SK2
  6
CONTINUOUS
370
25
 62
7
100
AcDbLine
 10
-37.6587847341899
 20
34.47610694683797
 30
0.0
 11
-36.34917710128484
 21
35.78571457974303
 31
0.0
  0
LINE
  5
B66
330
1F
100
AcDbEntity
  8
SK2
  6
CONTINUOUS
370
25
 62
7
100
AcDbLine
 10
-38.01233812478318
 20
34.54681762495663
 30
0.0
 11
-36.87950718717476
 21
35.67964856256505
 31
0.0
  0
LINE
  5
B67
330
1F
100
AcDbEntity
  8
SK2
  6
CONTINUOUS
370
25
 62
7
100
AcDbLine
 10
-38.36589151537645
 20
34.61752830307528
 30
0.0
 11
-37.40983727306467
 21
35.57358254538706
 31
0.0
  0
LINE
  5
B68
330
1F
100
AcDbEntity
  8
SK2
  6
CONTINUOUS
370
25
 62
7
100
AcDbLine
 10
-38.71944490596974
 20
34.68823898119394
 30
0.0
 11
-37.9401673589546
 21
35.46751652820908
 31
0.0
  0
LINE
  5
B69
330
1F
100
AcDbEntity
  8
SK2
  6
CONTINUOUS
370
25
 62
7
100
AcDbLine
 10
-39.07299829656301
 20
34.75894965931259
 30
0.0
 11
-38.47049744484451
 21
35.3614505110311
 31
0.0
  0
LINE
  5
B6A
330
1F
100
AcDbEntity
  8
SK2
  6
CONTINUOUS
370
25
 62
7
100
AcDbLine
 10
-39.42655168715629
 20
34.82966033743125
 30
0.0
 11
-39.00082753073442
 21
35.25538449385312
 31
0.0
  0
LINE
  5
B6B
330
1F
100
AcDbEntity
  8
SK2
  6
CONTINUOUS
370
25
 62
7
100
AcDbLine
 10
-39.78010507774956
 20
34.90037101554991
 30
0.0
 11
-39.53115761662433
 21
35.14931847667513
 31
0.0
  0
LINE
  5
B6C
330
1F
100
AcDbEntity
  8
SK2
  6
CONTINUOUS
370
25
 62
7
100
AcDbLine
 10
-40.13365846834284
 20
34.97108169366857
 30
0.0
 11
-40.06148770251426
 21
35.04325245949715
 31
0.0
  0
LINE
  5
B6D
330
1F
100
AcDbEntity
  8
SK2
  6
CONTINUOUS
370
25
 62
7
100
AcDbLine
 10
-40.05788251478175
 20
35.04397349704366
 30
0.0
 11
-39.9478237721726
 21
34.93391475443452
 31
0.0
  0
LINE
  5
B6E
330
1F
100
AcDbEntity
  8
SK2
  6
CONTINUOUS
370
25
 62
7
100
AcDbLine
 10
-39.70432912418847
 20
35.11468417516231
 30
0.0
 11
-39.4174936862827
 21
34.82784873725654
 31
0.0
  0
LINE
  5
B6F
330
1F
100
AcDbEntity
  8
SK2
  6
CONTINUOUS
370
25
 62
7
100
AcDbLine
 10
-39.35077573359519
 20
35.18539485328097
 30
0.0
 11
-38.88716360039277
 21
34.72178272007856
 31
0.0
  0
LINE
  5
B70
330
1F
100
AcDbEntity
  8
SK2
  6
CONTINUOUS
370
25
 62
7
100
AcDbLine
 10
-38.99722234300191
 20
35.25610553139962
 30
0.0
 11
-38.35683351450286
 21
34.61571670290057
 31
0.0
  0
LINE
  5
B71
330
1F
100
AcDbEntity
  8
SK2
  6
CONTINUOUS
370
25
 62
7
100
AcDbLine
 10
-38.64366895240863
 20
35.32681620951828
 30
0.0
 11
-37.82650342861294
 21
34.50965068572259
 31
0.0
  0
LINE
  5
B72
330
1F
100
AcDbEntity
  8
SK2
  6
CONTINUOUS
370
25
 62
7
100
AcDbLine
 10
-38.29011556181536
 20
35.39752688763693
 30
0.0
 11
-37.29617334272303
 21
34.4035846685446
 31
0.0
  0
LINE
  5
B73
330
1F
100
AcDbEntity
  8
SK2
  6
CONTINUOUS
370
25
 62
7
100
AcDbLine
 10
-37.93656217122208
 20
35.46823756575559
 30
0.0
 11
-36.76584325683311
 21
34.29751865136662
 31
0.0
  0
LINE
  5
B74
330
1F
100
AcDbEntity
  8
SK2
  6
CONTINUOUS
370
25
 62
7
100
AcDbLine
 10
-37.5830087806288
 20
35.53894824387424
 30
0.0
 11
-36.2355131709432
 21
34.19145263418864
 31
0.0
  0
LINE
  5
B75
330
1F
100
AcDbEntity
  8
SK2
  6
CONTINUOUS
370
25
 62
7
100
AcDbLine
 10
-37.22945539003553
 20
35.6096589219929
 30
0.0
 11
-35.70518308505329
 21
34.08538661701066
 31
0.0
  0
LINE
  5
B76
330
1F
100
AcDbEntity
  8
SK2
  6
CONTINUOUS
370
25
 62
7
100
AcDbLine
 10
-36.87590199944225
 20
35.68036960011155
 30
0.0
 11
-35.278
 21
34.0824676006693
 31
0.0
  0
LINE
  5
B77
330
1F
100
AcDbEntity
  8
SK2
  6
CONTINUOUS
370
25
 62
7
100
AcDbLine
 10
-36.52234860884897
 20
35.75108027823021
 30
0.0
 11
-35.278
 21
34.50673166938123
 31
0.0
  0
LINE
  5
B78
330
1F
100
AcDbEntity
  8
SK2
  6
CONTINUOUS
370
25
 62
7
100
AcDbLine
 10
-36.1687952182557
 20
35.82179095634886
 30
0.0
 11
-35.278
 21
34.93099573809316
 31
0.0
  0
LINE
  5
B79
330
1F
100
AcDbEntity
  8
SK2
  6
CONTINUOUS
370
25
 62
7
100
AcDbLine
 10
-35.81524182766242
 20
35.89250163446751
 30
0.0
 11
-35.278
 21
35.35525980680509
 31
0.0
  0
LINE
  5
B7A
330
1F
100
AcDbEntity
  8
SK2
  6
CONTINUOUS
370
25
 62
7
100
AcDbLine
 10
-35.46168843706914
 20
35.96321231258617
 30
0.0
 11
-35.278
 21
35.77952387551703
 31
0.0
  0
LINE
  5
B7B
330
1F
100
AcDbEntity
  8
SK2
  6
CONTINUOUS
370
25
 62
7
100
AcDbLine
 10
16.722
 20
34.99995
 30
0.0
 11
11.722
 21
33.99995
 31
0.0
  0
LINE
  5
B7C
330
1F
100
AcDbEntity
  8
SK2
  6
CONTINUOUS
370
25
 62
7
100
AcDbLine
 10
11.722
 20
33.99995
 30
0.0
 11
11.722
 21
35.99995
 31
0.0
  0
LINE
  5
B7D
330
1F
100
AcDbEntity
  8
SK2
  6
CONTINUOUS
370
25
 62
7
100
AcDbLine
 10
11.722
 20
35.99995
 30
0.0
 11
16.722
 21
34.99995
 31
0.0
  0
LINE
  5
B7E
330
1F
100
AcDbEntity
  8
SK2
  6
CONTINUOUS
370
25
 62
7
100
AcDbLine
 10
16.22241372084392
 20
34.90003274416878
 30
0.0
 11
16.38894248056262
 21
35.06656150388748
 31
0.0
  0
LINE
  5
B7F
330
1F
100
AcDbEntity
  8
SK2
  6
CONTINUOUS
370
25
 62
7
100
AcDbLine
 10
15.69208363495401
 20
34.7939667269908
 30
0.0
 11
16.03538908996934
 21
35.13727218200613
 31
0.0
  0
LINE
  5
B80
330
1F
100
AcDbEntity
  8
SK2
  6
CONTINUOUS
370
25
 62
7
100
AcDbLine
 10
15.1617535490641
 20
34.68790070981282
 30
0.0
 11
15.68183569937607
 21
35.20798286012479
 31
0.0
  0
LINE
  5
B81
330
1F
100
AcDbEntity
  8
SK2
  6
CONTINUOUS
370
25
 62
7
100
AcDbLine
 10
14.63142346317419
 20
34.58183469263484
 30
0.0
 11
15.32828230878279
 21
35.27869353824345
 31
0.0
  0
LINE
  5
B82
330
1F
100
AcDbEntity
  8
SK2
  6
CONTINUOUS
370
25
 62
7
100
AcDbLine
 10
14.10109337728428
 20
34.47576867545686
 30
0.0
 11
14.97472891818952
 21
35.3494042163621
 31
0.0
  0
LINE
  5
B83
330
1F
100
AcDbEntity
  8
SK2
  6
CONTINUOUS
370
25
 62
7
100
AcDbLine
 10
13.57076329139437
 20
34.36970265827888
 30
0.0
 11
14.62117552759624
 21
35.42011489448075
 31
0.0
  0
LINE
  5
B84
330
1F
100
AcDbEntity
  8
SK2
  6
CONTINUOUS
370
25
 62
7
100
AcDbLine
 10
13.04043320550446
 20
34.26363664110089
 30
0.0
 11
14.26762213700297
 21
35.49082557259941
 31
0.0
  0
LINE
  5
B85
330
1F
100
AcDbEntity
  8
SK2
  6
CONTINUOUS
370
25
 62
7
100
AcDbLine
 10
12.51010311961455
 20
34.15757062392291
 30
0.0
 11
13.9140687464097
 21
35.56153625071806
 31
0.0
  0
LINE
  5
B86
330
1F
100
AcDbEntity
  8
SK2
  6
CONTINUOUS
370
25
 62
7
100
AcDbLine
 10
11.97977303372464
 20
34.05150460674493
 30
0.0
 11
13.56051535581642
 21
35.63224692883671
 31
0.0
  0
LINE
  5
B87
330
1F
100
AcDbEntity
  8
SK2
  6
CONTINUOUS
370
25
 62
7
100
AcDbLine
 10
11.722
 20
34.21799564173222
 30
0.0
 11
13.20696196522315
 21
35.70295760695537
 31
0.0
  0
LINE
  5
B88
330
1F
100
AcDbEntity
  8
SK2
  6
CONTINUOUS
370
25
 62
7
100
AcDbLine
 10
11.722
 20
34.64225971044414
 30
0.0
 11
12.85340857462988
 21
35.77366828507402
 31
0.0
  0
LINE
  5
B89
330
1F
100
AcDbEntity
  8
SK2
  6
CONTINUOUS
370
25
 62
7
100
AcDbLine
 10
11.722
 20
35.06652377915608
 30
0.0
 11
12.4998551840366
 21
35.84437896319268
 31
0.0
  0
LINE
  5
B8A
330
1F
100
AcDbEntity
  8
SK2
  6
CONTINUOUS
370
25
 62
7
100
AcDbLine
 10
11.722
 20
35.49078784786801
 30
0.0
 11
12.14630179344333
 21
35.91508964131134
 31
0.0
  0
LINE
  5
B8B
330
1F
100
AcDbEntity
  8
SK2
  6
CONTINUOUS
370
25
 62
7
100
AcDbLine
 10
11.722
 20
35.91505191657994
 30
0.0
 11
11.79274840285005
 21
35.98580031942999
 31
0.0
  0
LINE
  5
B8C
330
1F
100
AcDbEntity
  8
SK2
  6
CONTINUOUS
370
25
 62
7
100
AcDbLine
 10
11.722
 20
34.08851942088825
 30
0.0
 11
11.7958078507402
 21
34.01471157014804
 31
0.0
  0
LINE
  5
B8D
330
1F
100
AcDbEntity
  8
SK2
  6
CONTINUOUS
370
25
 62
7
100
AcDbLine
 10
11.722
 20
34.51278348960017
 30
0.0
 11
12.14936124133348
 21
34.0854222482667
 31
0.0
  0
LINE
  5
B8E
330
1F
100
AcDbEntity
  8
SK2
  6
CONTINUOUS
370
25
 62
7
100
AcDbLine
 10
11.722
 20
34.9370475583121
 30
0.0
 11
12.50291463192676
 21
34.15613292638535
 31
0.0
  0
LINE
  5
B8F
330
1F
100
AcDbEntity
  8
SK2
  6
CONTINUOUS
370
25
 62
7
100
AcDbLine
 10
11.722
 20
35.36131162702404
 30
0.0
 11
12.85646802252003
 21
34.226843604504
 31
0.0
  0
LINE
  5
B90
330
1F
100
AcDbEntity
  8
SK2
  6
CONTINUOUS
370
25
 62
7
100
AcDbLine
 10
11.722
 20
35.78557569573596
 30
0.0
 11
13.2100214131133
 21
34.29755428262266
 31
0.0
  0
LINE
  5
B91
330
1F
100
AcDbEntity
  8
SK2
  6
CONTINUOUS
370
25
 62
7
100
AcDbLine
 10
11.98436220555987
 20
35.94747755888802
 30
0.0
 11
13.56357480370658
 21
34.36826496074131
 31
0.0
  0
LINE
  5
B92
330
1F
100
AcDbEntity
  8
SK2
  6
CONTINUOUS
370
25
 62
7
100
AcDbLine
 10
12.51469229144978
 20
35.84141154171004
 30
0.0
 11
13.91712819429985
 21
34.43897563885997
 31
0.0
  0
LINE
  5
B93
330
1F
100
AcDbEntity
  8
SK2
  6
CONTINUOUS
370
25
 62
7
100
AcDbLine
 10
13.04502237733969
 20
35.73534552453206
 30
0.0
 11
14.27068158489313
 21
34.50968631697862
 31
0.0
  0
LINE
  5
B94
330
1F
100
AcDbEntity
  8
SK2
  6
CONTINUOUS
370
25
 62
7
100
AcDbLine
 10
13.57535246322961
 20
35.62927950735408
 30
0.0
 11
14.6242349754864
 21
34.58039699509728
 31
0.0
  0
LINE
  5
B95
330
1F
100
AcDbEntity
  8
SK2
  6
CONTINUOUS
370
25
 62
7
100
AcDbLine
 10
14.10568254911952
 20
35.5232134901761
 30
0.0
 11
14.97778836607968
 21
34.65110767321593
 31
0.0
  0
LINE
  5
B96
330
1F
100
AcDbEntity
  8
SK2
  6
CONTINUOUS
370
25
 62
7
100
AcDbLine
 10
14.63601263500943
 20
35.41714747299812
 30
0.0
 11
15.33134175667295
 21
34.72181835133459
 31
0.0
  0
LINE
  5
B97
330
1F
100
AcDbEntity
  8
SK2
  6
CONTINUOUS
370
25
 62
7
100
AcDbLine
 10
15.16634272089933
 20
35.31108145582014
 30
0.0
 11
15.68489514726622
 21
34.79252902945324
 31
0.0
  0
LINE
  5
B98
330
1F
100
AcDbEntity
  8
SK2
  6
CONTINUOUS
370
25
 62
7
100
AcDbLine
 10
15.69667280678925
 20
35.20501543864215
 30
0.0
 11
16.0384485378595
 21
34.8632397075719
 31
0.0
  0
LINE
  5
B99
330
1F
100
AcDbEntity
  8
SK2
  6
CONTINUOUS
370
25
 62
7
100
AcDbLine
 10
16.22700289267916
 20
35.09894942146417
 30
0.0
 11
16.39200192845277
 21
34.93395038569055
 31
0.0
  0
TEXT
  5
B9A
330
1F
100
AcDbEntity
  8
SK2
  6
CONTINUOUS
370
25
 62
7
100
AcDbText
 10
-14.69466666666667
 20
36.49995
 30
0.0
 40
3.5
  1
57
 72
     1
 11
-11.778
 21
36.49995
 31
0.0
100
AcDbText
  0
LINE
  5
B9B
330
1F
100
AcDbEntity
  8
2
  6
CONTINUOUS
370
25
 62
7
100
AcDbLine
 10
16.647
 20
-2.0
 30
0.0
 11
16.647
 21
-25.0
 31
0.0
  0
LINE
  5
B9C
330
1F
100
AcDbEntity
  8
2
  6
CONTINUOUS
370
25
 62
7
100
AcDbLine
 10
16.722
 20
-25.0
 30
0.0
 11
16.722
 21
-2.0
 31
0.0
  0
LINE
  5
B9D
330
1F
100
AcDbEntity
  8
2
  6
CONTINUOUS
370
25
 62
7
100
AcDbLine
 10
9.647
 20
-24.0
 30
0.0
 11
50.49699999999999
 21
-24.0
 31
0.0
  0
LINE
  5
B9E
330
1F
100
AcDbEntity
  8
2
  6
CONTINUOUS
370
25
 62
7
100
AcDbLine
 10
16.647
 20
-24.0
 30
0.0
 11
11.647
 21
-25.0
 31
0.0
  0
LINE
  5
B9F
330
1F
100
AcDbEntity
  8
2
  6
CONTINUOUS
370
25
 62
7
100
AcDbLine
 10
11.647
 20
-25.0
 30
0.0
 11
11.647
 21
-23.0
 31
0.0
  0
LINE
  5
BA0
330
1F
100
AcDbEntity
  8
2
  6
CONTINUOUS
370
25
 62
7
100
AcDbLine
 10
11.647
 20
-23.0
 30
0.0
 11
16.647
 21
-24.0
 31
0.0
  0
LINE
  5
BA1
330
1F
100
AcDbEntity
  8
2
  6
CONTINUOUS
370
25
 62
7
100
AcDbLine
 10
16.53561414331007
 20
-24.02227717133799
 30
0.0
 11
16.57274276220671
 21
-23.98514855244134
 31
0.0
  0
LINE
  5
BA2
330
1F
100
AcDbEntity
  8
2
  6
CONTINUOUS
370
25
 62
7
100
AcDbLine
 10
16.00528405742016
 20
-24.12834318851597
 30
0.0
 11
16.21918937161344
 21
-23.91443787432269
 31
0.0
  0
LINE
  5
BA3
330
1F
100
AcDbEntity
  8
2
  6
CONTINUOUS
370
25
 62
7
100
AcDbLine
 10
15.47495397153025
 20
-24.23440920569395
 30
0.0
 11
15.86563598102017
 21
-23.84372719620404
 31
0.0
  0
LINE
  5
BA4
330
1F
100
AcDbEntity
  8
2
  6
CONTINUOUS
370
25
 62
7
100
AcDbLine
 10
14.94462388564034
 20
-24.34047522287193
 30
0.0
 11
15.5120825904269
 21
-23.77301651808538
 31
0.0
  0
LINE
  5
BA5
330
1F
100
AcDbEntity
  8
2
  6
CONTINUOUS
370
25
 62
7
100
AcDbLine
 10
14.41429379975043
 20
-24.44654124004992
 30
0.0
 11
15.15852919983362
 21
-23.70230583996673
 31
0.0
  0
LINE
  5
BA6
330
1F
100
AcDbEntity
  8
2
  6
CONTINUOUS
370
25
 62
7
100
AcDbLine
 10
13.88396371386052
 20
-24.5526072572279
 30
0.0
 11
14.80497580924035
 21
-23.63159516184807
 31
0.0
  0
LINE
  5
BA7
330
1F
100
AcDbEntity
  8
2
  6
CONTINUOUS
370
25
 62
7
100
AcDbLine
 10
13.35363362797061
 20
-24.65867327440588
 30
0.0
 11
14.45142241864708
 21
-23.56088448372942
 31
0.0
  0
LINE
  5
BA8
330
1F
100
AcDbEntity
  8
2
  6
CONTINUOUS
370
25
 62
7
100
AcDbLine
 10
12.8233035420807
 20
-24.76473929158386
 30
0.0
 11
14.0978690280538
 21
-23.49017380561076
 31
0.0
  0
LINE
  5
BA9
330
1F
100
AcDbEntity
  8
2
  6
CONTINUOUS
370
25
 62
7
100
AcDbLine
 10
12.29297345619079
 20
-24.87080530876185
 30
0.0
 11
13.74431563746053
 21
-23.41946312749211
 31
0.0
  0
LINE
  5
BAA
330
1F
100
AcDbEntity
  8
2
  6
CONTINUOUS
370
25
 62
7
100
AcDbLine
 10
11.76264337030088
 20
-24.97687132593983
 30
0.0
 11
13.39076224686726
 21
-23.34875244937345
 31
0.0
  0
LINE
  5
BAB
330
1F
100
AcDbEntity
  8
2
  6
CONTINUOUS
370
25
 62
7
100
AcDbLine
 10
11.647
 20
-24.66825062752878
 30
0.0
 11
13.03720885627398
 21
-23.2780417712548
 31
0.0
  0
LINE
  5
BAC
330
1F
100
AcDbEntity
  8
2
  6
CONTINUOUS
370
25
 62
7
100
AcDbLine
 10
11.647
 20
-24.24398655881685
 30
0.0
 11
12.68365546568071
 21
-23.20733109313614
 31
0.0
  0
LINE
  5
BAD
330
1F
100
AcDbEntity
  8
2
  6
CONTINUOUS
370
25
 62
7
100
AcDbLine
 10
11.647
 20
-23.81972249010493
 30
0.0
 11
12.33010207508744
 21
-23.13662041501749
 31
0.0
  0
LINE
  5
BAE
330
1F
100
AcDbEntity
  8
2
  6
CONTINUOUS
370
25
 62
7
100
AcDbLine
 10
11.647
 20
-23.395458421393
 30
0.0
 11
11.97654868449417
 21
-23.06590973689883
 31
0.0
  0
LINE
  5
BAF
330
1F
100
AcDbEntity
  8
2
  6
CONTINUOUS
370
25
 62
7
100
AcDbLine
 10
11.647
 20
-24.87111205577117
 30
0.0
 11
11.7544066201907
 21
-24.97851867596187
 31
0.0
  0
LINE
  5
BB0
330
1F
100
AcDbEntity
  8
2
  6
CONTINUOUS
370
25
 62
7
100
AcDbLine
 10
11.647
 20
-24.44684798705924
 30
0.0
 11
12.10796001078397
 21
-24.90780799784321
 31
0.0
  0
LINE
  5
BB1
330
1F
100
AcDbEntity
  8
2
  6
CONTINUOUS
370
25
 62
7
100
AcDbLine
 10
11.647
 20
-24.02258391834731
 30
0.0
 11
12.46151340137724
 21
-24.83709731972456
 31
0.0
  0
LINE
  5
BB2
330
1F
100
AcDbEntity
  8
2
  6
CONTINUOUS
370
25
 62
7
100
AcDbLine
 10
11.647
 20
-23.59831984963538
 30
0.0
 11
12.81506679197052
 21
-24.7663866416059
 31
0.0
  0
LINE
  5
BB3
330
1F
100
AcDbEntity
  8
2
  6
CONTINUOUS
370
25
 62
7
100
AcDbLine
 10
11.647
 20
-23.17405578092346
 30
0.0
 11
13.16862018256379
 21
-24.69567596348725
 31
0.0
  0
LINE
  5
BB4
330
1F
100
AcDbEntity
  8
2
  6
CONTINUOUS
370
25
 62
7
100
AcDbLine
 10
11.95976035973559
 20
-23.06255207194712
 30
0.0
 11
13.52217357315706
 21
-24.62496528536859
 31
0.0
  0
LINE
  5
BB5
330
1F
100
AcDbEntity
  8
2
  6
CONTINUOUS
370
25
 62
7
100
AcDbLine
 10
12.4900904456255
 20
-23.1686180891251
 30
0.0
 11
13.87572696375033
 21
-24.55425460724994
 31
0.0
  0
LINE
  5
BB6
330
1F
100
AcDbEntity
  8
2
  6
CONTINUOUS
370
25
 62
7
100
AcDbLine
 10
13.02042053151541
 20
-23.27468410630308
 30
0.0
 11
14.22928035434361
 21
-24.48354392913128
 31
0.0
  0
LINE
  5
BB7
330
1F
100
AcDbEntity
  8
2
  6
CONTINUOUS
370
25
 62
7
100
AcDbLine
 10
13.55075061740532
 20
-23.38075012348106
 30
0.0
 11
14.58283374493688
 21
-24.41283325101263
 31
0.0
  0
LINE
  5
BB8
330
1F
100
AcDbEntity
  8
2
  6
CONTINUOUS
370
25
 62
7
100
AcDbLine
 10
14.08108070329523
 20
-23.48681614065904
 30
0.0
 11
14.93638713553016
 21
-24.34212257289397
 31
0.0
  0
LINE
  5
BB9
330
1F
100
AcDbEntity
  8
2
  6
CONTINUOUS
370
25
 62
7
100
AcDbLine
 10
14.61141078918514
 20
-23.59288215783703
 30
0.0
 11
15.28994052612343
 21
-24.27141189477532
 31
0.0
  0
LINE
  5
BBA
330
1F
100
AcDbEntity
  8
2
  6
CONTINUOUS
370
25
 62
7
100
AcDbLine
 10
15.14174087507505
 20
-23.69894817501501
 30
0.0
 11
15.6434939167167
 21
-24.20070121665666
 31
0.0
  0
LINE
  5
BBB
330
1F
100
AcDbEntity
  8
2
  6
CONTINUOUS
370
25
 62
7
100
AcDbLine
 10
15.67207096096496
 20
-23.80501419219299
 30
0.0
 11
15.99704730730998
 21
-24.12999053853801
 31
0.0
  0
LINE
  5
BBC
330
1F
100
AcDbEntity
  8
2
  6
CONTINUOUS
370
25
 62
7
100
AcDbLine
 10
16.20240104685487
 20
-23.91108020937097
 30
0.0
 11
16.35060069790325
 21
-24.05927986041935
 31
0.0
  0
LINE
  5
BBD
330
1F
100
AcDbEntity
  8
2
  6
CONTINUOUS
370
25
 62
7
100
AcDbLine
 10
16.722
 20
-24.0
 30
0.0
 11
21.722
 21
-23.0
 31
0.0
  0
LINE
  5
BBE
330
1F
100
AcDbEntity
  8
2
  6
CONTINUOUS
370
25
 62
7
100
AcDbLine
 10
21.722
 20
-23.0
 30
0.0
 11
21.722
 21
-25.0
 31
0.0
  0
LINE
  5
BBF
330
1F
100
AcDbEntity
  8
2
  6
CONTINUOUS
370
25
 62
7
100
AcDbLine
 10
21.722
 20
-25.0
 30
0.0
 11
16.722
 21
-24.0
 31
0.0
  0
LINE
  5
BC0
330
1F
100
AcDbEntity
  8
2
  6
CONTINUOUS
370
25
 62
7
100
AcDbLine
 10
21.5080421896073
 20
-24.95720843792147
 30
0.0
 11
21.722
 21
-24.74325062752877
 31
0.0
  0
LINE
  5
BC1
330
1F
100
AcDbEntity
  8
2
  6
CONTINUOUS
370
25
 62
7
100
AcDbLine
 10
21.15448879901403
 20
-24.88649775980281
 30
0.0
 11
21.722
 21
-24.31898655881684
 31
0.0
  0
LINE
  5
BC2
330
1F
100
AcDbEntity
  8
2
  6
CONTINUOUS
370
25
 62
7
100
AcDbLine
 10
20.80093540842076
 20
-24.81578708168416
 30
0.0
 11
21.722
 21
-23.89472249010491
 31
0.0
  0
LINE
  5
BC3
330
1F
100
AcDbEntity
  8
2
  6
CONTINUOUS
370
25
 62
7
100
AcDbLine
 10
20.44738201782748
 20
-24.7450764035655
 30
0.0
 11
21.722
 21
-23.47045842139299
 31
0.0
  0
LINE
  5
BC4
330
1F
100
AcDbEntity
  8
2
  6
CONTINUOUS
370
25
 62
7
100
AcDbLine
 10
20.09382862723421
 20
-24.67436572544684
 30
0.0
 11
21.722
 21
-23.04619435268106
 31
0.0
  0
LINE
  5
BC5
330
1F
100
AcDbEntity
  8
2
  6
CONTINUOUS
370
25
 62
7
100
AcDbLine
 10
19.74027523664094
 20
-24.60365504732819
 30
0.0
 11
21.24941285496141
 21
-23.09451742900772
 31
0.0
  0
LINE
  5
BC6
330
1F
100
AcDbEntity
  8
2
  6
CONTINUOUS
370
25
 62
7
100
AcDbLine
 10
19.38672184604766
 20
-24.53294436920953
 30
0.0
 11
20.7190827690715
 21
-23.2005834461857
 31
0.0
  0
LINE
  5
BC7
330
1F
100
AcDbEntity
  8
2
  6
CONTINUOUS
370
25
 62
7
100
AcDbLine
 10
19.0331684554544
 20
-24.46223369109088
 30
0.0
 11
20.1887526831816
 21
-23.30664946336368
 31
0.0
  0
LINE
  5
BC8
330
1F
100
AcDbEntity
  8
2
  6
CONTINUOUS
370
25
 62
7
100
AcDbLine
 10
18.67961506486112
 20
-24.39152301297223
 30
0.0
 11
19.65842259729168
 21
-23.41271548054166
 31
0.0
  0
LINE
  5
BC9
330
1F
100
AcDbEntity
  8
2
  6
CONTINUOUS
370
25
 62
7
100
AcDbLine
 10
18.32606167426785
 20
-24.32081233485357
 30
0.0
 11
19.12809251140178
 21
-23.51878149771964
 31
0.0
  0
LINE
  5
BCA
330
1F
100
AcDbEntity
  8
2
  6
CONTINUOUS
370
25
 62
7
100
AcDbLine
 10
17.97250828367457
 20
-24.25010165673492
 30
0.0
 11
18.59776242551186
 21
-23.62484751489762
 31
0.0
  0
LINE
  5
BCB
330
1F
100
AcDbEntity
  8
2
  6
CONTINUOUS
370
25
 62
7
100
AcDbLine
 10
17.6189548930813
 20
-24.17939097861627
 30
0.0
 11
18.06743233962196
 21
-23.7309135320756
 31
0.0
  0
LINE
  5
BCC
330
1F
100
AcDbEntity
  8
2
  6
CONTINUOUS
370
25
 62
7
100
AcDbLine
 10
17.26540150248803
 20
-24.10868030049761
 30
0.0
 11
17.53710225373204
 21
-23.83697954925359
 31
0.0
  0
LINE
  5
BCD
330
1F
100
AcDbEntity
  8
2
  6
CONTINUOUS
370
25
 62
7
100
AcDbLine
 10
16.91184811189476
 20
-24.03796962237896
 30
0.0
 11
17.00677216784214
 21
-23.94304556643157
 31
0.0
  0
LINE
  5
BCE
330
1F
100
AcDbEntity
  8
2
  6
CONTINUOUS
370
25
 62
7
100
AcDbLine
 10
17.04325943818451
 20
-23.9357481123631
 30
0.0
 11
17.20388915727677
 21
-24.09637783145536
 31
0.0
  0
LINE
  5
BCF
330
1F
100
AcDbEntity
  8
2
  6
CONTINUOUS
370
25
 62
7
100
AcDbLine
 10
17.39681282877778
 20
-23.86503743424444
 30
0.0
 11
17.73421924316668
 21
-24.20244384863334
 31
0.0
  0
LINE
  5
BD0
330
1F
100
AcDbEntity
  8
2
  6
CONTINUOUS
370
25
 62
7
100
AcDbLine
 10
17.75036621937106
 20
-23.79432675612578
 30
0.0
 11
18.26454932905659
 21
-24.30850986581132
 31
0.0
  0
LINE
  5
BD1
330
1F
100
AcDbEntity
  8
2
  6
CONTINUOUS
370
25
 62
7
100
AcDbLine
 10
18.10391960996433
 20
-23.72361607800713
 30
0.0
 11
18.7948794149465
 21
-24.4145758829893
 31
0.0
  0
LINE
  5
BD2
330
1F
100
AcDbEntity
  8
2
  6
CONTINUOUS
370
25
 62
7
100
AcDbLine
 10
18.4574730005576
 20
-23.65290539988847
 30
0.0
 11
19.32520950083641
 21
-24.52064190016728
 31
0.0
  0
LINE
  5
BD3
330
1F
100
AcDbEntity
  8
2
  6
CONTINUOUS
370
25
 62
7
100
AcDbLine
 10
18.81102639115088
 20
-23.58219472176982
 30
0.0
 11
19.85553958672632
 21
-24.62670791734526
 31
0.0
  0
LINE
  5
BD4
330
1F
100
AcDbEntity
  8
2
  6
CONTINUOUS
370
25
 62
7
100
AcDbLine
 10
19.16457978174415
 20
-23.51148404365117
 30
0.0
 11
20.38586967261623
 21
-24.73277393452324
 31
0.0
  0
LINE
  5
BD5
330
1F
100
AcDbEntity
  8
2
  6
CONTINUOUS
370
25
 62
7
100
AcDbLine
 10
19.51813317233742
 20
-23.44077336553251
 30
0.0
 11
20.91619975850613
 21
-24.83883995170122
 31
0.0
  0
LINE
  5
BD6
330
1F
100
AcDbEntity
  8
2
  6
CONTINUOUS
370
25
 62
7
100
AcDbLine
 10
19.87168656293069
 20
-23.37006268741386
 30
0.0
 11
21.44652984439605
 21
-24.94490596887921
 31
0.0
  0
LINE
  5
BD7
330
1F
100
AcDbEntity
  8
2
  6
CONTINUOUS
370
25
 62
7
100
AcDbLine
 10
20.22523995352397
 20
-23.29935200929521
 30
0.0
 11
21.722
 21
-24.79611205577123
 31
0.0
  0
LINE
  5
BD8
330
1F
100
AcDbEntity
  8
2
  6
CONTINUOUS
370
25
 62
7
100
AcDbLine
 10
20.57879334411724
 20
-23.22864133117655
 30
0.0
 11
21.722
 21
-24.3718479870593
 31
0.0
  0
LINE
  5
BD9
330
1F
100
AcDbEntity
  8
2
  6
CONTINUOUS
370
25
 62
7
100
AcDbLine
 10
20.93234673471052
 20
-23.1579306530579
 30
0.0
 11
21.722
 21
-23.94758391834738
 31
0.0
  0
LINE
  5
BDA
330
1F
100
AcDbEntity
  8
2
  6
CONTINUOUS
370
25
 62
7
100
AcDbLine
 10
21.28590012530379
 20
-23.08721997493924
 30
0.0
 11
21.722
 21
-23.52331984963545
 31
0.0
  0
LINE
  5
BDB
330
1F
100
AcDbEntity
  8
2
  6
CONTINUOUS
370
25
 62
7
100
AcDbLine
 10
21.63945351589706
 20
-23.01650929682059
 30
0.0
 11
21.722
 21
-23.09905578092352
 31
0.0
  0
TEXT
  5
BDC
330
1F
100
AcDbEntity
  8
2
  6
CONTINUOUS
370
25
 62
7
100
AcDbText
 10
23.27616666666667
 20
-22.5
 30
0.0
 40
3.5
  1
0.075x45°
 72
     1
 11
36.1095
 21
-22.5
 31
0.0
100
AcDbText
  0
LINE
  5
BDD
330
1F
100
AcDbEntity
  8
SK1
  6
CONTINUOUS
370
50
 62
4
100
AcDbLine
 10
-0.01
 20
0.0
 30
0.0
 11
2.49
 21
0.0
 31
0.0
  0
LINE
  5
BDE
330
1F
100
AcDbEntity
  8
SK1
  6
CONTINUOUS
370
50
 62
4
100
AcDbLine
 10
-0.01
 20
0.0
 30
0.0
 11
-0.01
 21
2.5
 31
0.0
  0
ARC
  5
BDF
330
1F
100
AcDbEntity
  8
SK1
  6
CONTINUOUS
370
50
 62
4
100
AcDbCircle
 10
-0.01
 20
0.0
 30
0.0
 40
2.5
100
AcDbArc
 50
0.0
 51
90.0
  0
LINE
  5
BE0
330
1F
100
AcDbEntity
  8
SK1
  6
CONTINUOUS
370
50
 62
4
100
AcDbLine
 10
-0.01
 20
0.0
 30
0.0
 11
-2.51
 21
0.0
 31
0.0
  0
ARC
  5
BE1
330
1F
100
AcDbEntity
  8
SK1
  6
CONTINUOUS
370
50
 62
4
100
AcDbCircle
 10
-0.01
 20
0.0
 30
0.0
 40
2.5
100
AcDbArc
 50
180.0
 51
270.0
  0
LINE
  5
BE2
330
1F
100
AcDbEntity
  8
SK1
  6
CONTINUOUS
370
50
 62
4
100
AcDbLine
 10
-0.01
 20
-2.5
 30
0.0
 11
-0.01
 21
0.0
 31
0.0
  0
ARC
  5
BE3
330
1F
100
AcDbEntity
  8
SK1
  6
CONTINUOUS
370
50
 62
4
100
AcDbCircle
 10
-0.01
 20
0.0
 30
0.0
 40
2.5
100
AcDbArc
 50
270.0
 51
0.0
  0
ARC
  5
BE4
330
1F
100
AcDbEntity
  8
SK1
  6
CONTINUOUS
370
50
 62
4
100
AcDbCircle
 10
-0.01
 20
0.0
 30
0.0
 40
2.5
100
AcDbArc
 50
90.0
 51
180.0
  0
LINE
  5
BE5
330
1F
100
AcDbEntity
  8
SK1
  6
CONTINUOUS
370
50
 62
4
100
AcDbLine
 10
-0.32832627443191
 20
-2.479495909600069
 30
0.0
 11
-0.01
 21
-2.161169635168159
 31
0.0
  0
LINE
  5
BE6
330
1F
100
AcDbEntity
  8
SK1
  6
CONTINUOUS
370
50
 62
4
100
AcDbLine
 10
2.15116963516816
 20
0.0
 30
0.0
 11
2.469495909600069
 21
0.3183262744319091
 31
0.0
  0
LINE
  5
BE7
330
1F
100
AcDbEntity
  8
SK1
  6
CONTINUOUS
370
50
 62
4
100
AcDbLine
 10
-0.625281817185723
 20
-2.422898061760609
 30
0.0
 11
-0.01
 21
-1.807616244574886
 31
0.0
  0
LINE
  5
BE8
330
1F
100
AcDbEntity
  8
SK1
  6
CONTINUOUS
370
50
 62
4
100
AcDbLine
 10
1.797616244574887
 20
0.0
 30
0.0
 11
2.412898061760609
 21
0.6152818171857222
 31
0.0
  0
LINE
  5
BE9
330
1F
100
AcDbEntity
  8
SK1
  6
CONTINUOUS
370
50
 62
4
100
AcDbLine
 10
-0.8935965231639721
 20
-2.337659377145585
 30
0.0
 11
-0.01
 21
-1.454062853981614
 31
0.0
  0
LINE
  5
BEA
330
1F
100
AcDbEntity
  8
SK1
  6
CONTINUOUS
370
50
 62
4
100
AcDbLine
 10
1.444062853981614
 20
0.0
 30
0.0
 11
2.327659377145586
 21
0.8835965231639715
 31
0.0
  0
LINE
  5
BEB
330
1F
100
AcDbEntity
  8
SK1
  6
CONTINUOUS
370
50
 62
4
100
AcDbLine
 10
-1.138779664263143
 20
-2.229289127651483
 30
0.0
 11
-0.01
 21
-1.100509463388341
 31
0.0
  0
LINE
  5
BEC
330
1F
100
AcDbEntity
  8
SK1
  6
CONTINUOUS
370
50
 62
4
100
AcDbLine
 10
1.090509463388341
 20
0.0
 30
0.0
 11
2.219289127651484
 21
1.128779664263142
 31
0.0
  0
LINE
  5
BED
330
1F
100
AcDbEntity
  8
SK1
  6
CONTINUOUS
370
50
 62
4
100
AcDbLine
 10
-1.364032791010379
 20
-2.100988863805446
 30
0.0
 11
-0.01
 21
-0.7469560727950677
 31
0.0
  0
LINE
  5
BEE
330
1F
100
AcDbEntity
  8
SK1
  6
CONTINUOUS
370
50
 62
4
100
AcDbLine
 10
0.736956072795068
 20
0.0
 30
0.0
 11
2.090988863805447
 21
1.354032791010378
 31
0.0
  0
LINE
  5
BEF
330
1F
100
AcDbEntity
  8
SK1
  6
CONTINUOUS
370
50
 62
4
100
AcDbLine
 10
-1.569387394659872
 20
-1.952790076861666
 30
0.0
 11
-0.01
 21
-0.3934026822017946
 31
0.0
  0
LINE
  5
BF0
330
1F
100
AcDbEntity
  8
SK1
  6
CONTINUOUS
370
50
 62
4
100
AcDbLine
 10
0.3834026822017948
 20
0.0
 30
0.0
 11
1.942790076861667
 21
1.559387394659871
 31
0.0
  0
LINE
  5
BF1
330
1F
100
AcDbEntity
  8
SK1
  6
CONTINUOUS
370
50
 62
4
100
AcDbLine
 10
-1.756970020883365
 20
-1.786819312491886
 30
0.0
 11
-0.01
 21
-0.0398492916085216
 31
0.0
  0
LINE
  5
BF2
330
1F
100
AcDbEntity
  8
SK1
  6
CONTINUOUS
370
50
 62
4
100
AcDbLine
 10
0.0298492916085216
 20
0.0
 30
0.0
 11
1.776819312491887
 21
1.746970020883364
 31
0.0
  0
LINE
  5
BF3
330
1F
100
AcDbEntity
  8
SK1
  6
CONTINUOUS
370
50
 62
4
100
AcDbLine
 10
-1.927371878232655
 20
-1.603667779247902
 30
0.0
 11
-0.3237040989847517
 21
0.0
 31
0.0
  0
LINE
  5
BF4
330
1F
100
AcDbEntity
  8
SK1
  6
CONTINUOUS
370
50
 62
4
100
AcDbLine
 10
-0.01
 20
0.3137040989847515
 30
0.0
 11
1.593667779247903
 21
1.917371878232654
 31
0.0
  0
LINE
  5
BF5
330
1F
100
AcDbEntity
  8
SK1
  6
CONTINUOUS
370
50
 62
4
100
AcDbLine
 10
-2.078741231122433
 20
-1.401483741544407
 30
0.0
 11
-0.6772574895780249
 21
0.0
 31
0.0
  0
LINE
  5
BF6
330
1F
100
AcDbEntity
  8
SK1
  6
CONTINUOUS
370
50
 62
4
100
AcDbLine
 10
-0.01
 20
0.6672574895780246
 30
0.0
 11
1.391483741544409
 21
2.068741231122432
 31
0.0
  0
LINE
  5
BF7
330
1F
100
AcDbEntity
  8
SK1
  6
CONTINUOUS
370
50
 62
4
100
AcDbLine
 10
-2.2123876557675
 20
-1.181576775596201
 30
0.0
 11
-1.030810880171298
 21
0.0
 31
0.0
  0
LINE
  5
BF8
330
1F
100
AcDbEntity
  8
SK1
  6
CONTINUOUS
370
50
 62
4
100
AcDbLine
 10
-0.01
 20
1.020810880171298
 30
0.0
 11
1.171576775596202
 21
2.202387655767499
 31
0.0
  0
LINE
  5
BF9
330
1F
100
AcDbEntity
  8
SK1
  6
CONTINUOUS
370
50
 62
4
100
AcDbLine
 10
-2.325450943493525
 20
-0.9410866727289533
 30
0.0
 11
-1.384364270764571
 21
0.0
 31
0.0
  0
LINE
  5
BFA
330
1F
100
AcDbEntity
  8
SK1
  6
CONTINUOUS
370
50
 62
4
100
AcDbLine
 10
-0.01
 20
1.374364270764571
 30
0.0
 11
0.9310866727289543
 21
2.315450943493524
 31
0.0
  0
LINE
  5
BFB
330
1F
100
AcDbEntity
  8
SK1
  6
CONTINUOUS
370
50
 62
4
100
AcDbLine
 10
-2.415290600131854
 20
-0.6773729387740097
 30
0.0
 11
-1.737917661357844
 21
0.0
 31
0.0
  0
LINE
  5
BFC
330
1F
100
AcDbEntity
  8
SK1
  6
CONTINUOUS
370
50
 62
4
100
AcDbLine
 10
-0.01
 20
1.727917661357844
 30
0.0
 11
0.6673729387740106
 21
2.405290600131854
 31
0.0
  0
LINE
  5
BFD
330
1F
100
AcDbEntity
  8
SK1
  6
CONTINUOUS
370
50
 62
4
100
AcDbLine
 10
-2.478598823056026
 20
-0.3871277711049084
 30
0.0
 11
-2.091471051951117
 21
0.0
 31
0.0
  0
LINE
  5
BFE
330
1F
100
AcDbEntity
  8
SK1
  6
CONTINUOUS
370
50
 62
4
100
AcDbLine
 10
-0.01
 20
2.081471051951117
 30
0.0
 11
0.3771277711049085
 21
2.468598823056025
 31
0.0
  0
LINE
  5
BFF
330
1F
100
AcDbEntity
  8
SK1
  6
CONTINUOUS
370
50
 62
4
100
AcDbLine
 10
-2.508020276172772
 20
-0.0629958336283822
 30
0.0
 11
-2.44502444254439
 21
0.0
 31
0.0
  0
LINE
  5
C00
330
1F
100
AcDbEntity
  8
SK1
  6
CONTINUOUS
370
50
 62
4
100
AcDbLine
 10
-0.01
 20
2.435024442544389
 30
0.0
 11
0.0529958336283828
 21
2.498020276172772
 31
0.0
  0
LINE
  5
C01
330
1F
100
AcDbEntity
  8
SK1
  6
CONTINUOUS
370
50
 62
4
100
AcDbLine
 10
-2.347336523620827
 20
-0.8844932833271533
 30
0.0
 11
-0.894493283327151
 21
-2.337336523620827
 31
0.0
  0
LINE
  5
C02
330
1F
100
AcDbEntity
  8
SK1
  6
CONTINUOUS
370
50
 62
4
100
AcDbLine
 10
-2.476237059966593
 20
-0.4020393563881135
 30
0.0
 11
-0.4120393563881111
 21
-2.466237059966594
 31
0.0
  0
LINE
  5
C03
330
1F
100
AcDbEntity
  8
SK1
  6
CONTINUOUS
370
50
 62
4
100
AcDbLine
 10
-2.509522297881595
 20
-0.0152007278798383
 30
0.0
 11
-0.0252007278798351
 21
-2.499522297881596
 31
0.0
  0
LINE
  5
C04
330
1F
100
AcDbEntity
  8
SK1
  6
CONTINUOUS
370
50
 62
4
100
AcDbLine
 10
-2.17116963516816
 20
0.0
 30
0.0
 11
-0.01
 21
-2.161169635168158
 31
0.0
  0
LINE
  5
C05
330
1F
100
AcDbEntity
  8
SK1
  6
CONTINUOUS
370
50
 62
4
100
AcDbLine
 10
-1.817616244574888
 20
0.0
 30
0.0
 11
-0.01
 21
-1.807616244574886
 31
0.0
  0
LINE
  5
C06
330
1F
100
AcDbEntity
  8
SK1
  6
CONTINUOUS
370
50
 62
4
100
AcDbLine
 10
-1.464062853981615
 20
0.0
 30
0.0
 11
-0.01
 21
-1.454062853981613
 31
0.0
  0
LINE
  5
C07
330
1F
100
AcDbEntity
  8
SK1
  6
CONTINUOUS
370
50
 62
4
100
AcDbLine
 10
-1.110509463388341
 20
0.0
 30
0.0
 11
-0.01
 21
-1.10050946338834
 31
0.0
  0
LINE
  5
C08
330
1F
100
AcDbEntity
  8
SK1
  6
CONTINUOUS
370
50
 62
4
100
AcDbLine
 10
-0.7569560727950676
 20
0.0
 30
0.0
 11
-0.01
 21
-0.7469560727950668
 31
0.0
  0
LINE
  5
C09
330
1F
100
AcDbEntity
  8
SK1
  6
CONTINUOUS
370
50
 62
4
100
AcDbLine
 10
-0.4034026822017942
 20
0.0
 30
0.0
 11
-0.01
 21
-0.3934026822017938
 31
0.0
  0
LINE
  5
C0A
330
1F
100
AcDbEntity
  8
SK1
  6
CONTINUOUS
370
50
 62
4
100
AcDbLine
 10
-0.0498492916085216
 20
0.0
 30
0.0
 11
-0.01
 21
-0.0398492916085216
 31
0.0
  0
LINE
  5
C0B
330
1F
100
AcDbEntity
  8
SK1
  6
CONTINUOUS
370
50
 62
4
100
AcDbLine
 10
-0.01
 20
0.3137040989847515
 30
0.0
 11
0.3037040989847518
 21
0.0
 31
0.0
  0
LINE
  5
C0C
330
1F
100
AcDbEntity
  8
SK1
  6
CONTINUOUS
370
50
 62
4
100
AcDbLine
 10
-0.01
 20
0.6672574895780246
 30
0.0
 11
0.6572574895780253
 21
0.0
 31
0.0
  0
LINE
  5
C0D
330
1F
100
AcDbEntity
  8
SK1
  6
CONTINUOUS
370
50
 62
4
100
AcDbLine
 10
-0.01
 20
1.020810880171298
 30
0.0
 11
1.010810880171299
 21
0.0
 31
0.0
  0
LINE
  5
C0E
330
1F
100
AcDbEntity
  8
SK1
  6
CONTINUOUS
370
50
 62
4
100
AcDbLine
 10
-0.01
 20
1.37436427076457
 30
0.0
 11
1.364364270764571
 21
0.0
 31
0.0
  0
LINE
  5
C0F
330
1F
100
AcDbEntity
  8
SK1
  6
CONTINUOUS
370
50
 62
4
100
AcDbLine
 10
-0.01
 20
1.727917661357843
 30
0.0
 11
1.717917661357845
 21
0.0
 31
0.0
  0
LINE
  5
C10
330
1F
100
AcDbEntity
  8
SK1
  6
CONTINUOUS
370
50
 62
4
100
AcDbLine
 10
-0.01
 20
2.081471051951116
 30
0.0
 11
2.071471051951118
 21
0.0
 31
0.0
  0
LINE
  5
C11
330
1F
100
AcDbEntity
  8
SK1
  6
CONTINUOUS
370
50
 62
4
100
AcDbLine
 10
-0.01
 20
2.435024442544389
 30
0.0
 11
2.425024442544392
 21
0.0
 31
0.0
  0
LINE
  5
C12
330
1F
100
AcDbEntity
  8
SK1
  6
CONTINUOUS
370
50
 62
4
100
AcDbLine
 10
0.2977647139123103
 20
2.480813119225352
 30
0.0
 11
2.470813119225352
 21
0.307764713912313
 31
0.0
  0
LINE
  5
C13
330
1F
100
AcDbEntity
  8
SK1
  6
CONTINUOUS
370
50
 62
4
100
AcDbLine
 10
0.7511924397506667
 20
2.380938783980268
 30
0.0
 11
2.370938783980268
 21
0.7611924397506691
 31
0.0
  0
LINE
  5
C14
330
1F
100
AcDbEntity
  8
SK1
  6
CONTINUOUS
370
50
 62
4
100
AcDbLine
 10
1.47586376213526
 20
2.009820852188948
 30
0.0
 11
1.999820852188946
 21
1.485863762135263
 31
0.0
  0
LINE
  5
C15
330
1F
100
AcDbEntity
  8
4
  6
LONGDASH_DASH
370
25
 62
2
100
AcDbLine
 10
-0.01
 20
0.0
 30
0.0
 11
16.722
 21
0.0
 31
0.0
  0
LINE
  5
C16
330
1F
100
AcDbEntity
  8
SK4
  6
LONGDASH_DASH
370
25
 62
2
100
AcDbLine
 10
-46.278
 20
0.0
 30
0.0
 11
22.722
 21
0.0
 31
0.0
  0
ENDSEC
  0
SECTION
  2
OBJECTS
  0
DICTIONARY
  5
C
330
0
100
AcDbDictionary
281
     1
  3
ACAD_GROUP
350
D
  3
ACAD_LAYOUT
350
1A
  3
ACAD_MATERIAL
350
3B
  3
ACAD_MLEADERSTYLE
350
C19
  3
ACAD_MLINESTYLE
350
17
  3
ACAD_PLOTSETTINGS
350
19
  3
ACAD_PLOTSTYLENAME
350
E
  3
ACAD_SCALELIST
350
450
  3
ACAD_VISUALSTYLE
350
2A
  3
AcDbVariableDictionary
350
C17
  0
DICTIONARY
  5
D
102
{ACAD_REACTORS
330
C
102
}
330
C
100
AcDbDictionary
281
     1
  0
DICTIONARY
  5
1A
102
{ACAD_REACTORS
330
C
102
}
330
C
100
AcDbDictionary
281
     1
  3
Layout1
350
1E
  3
Layout2
350
26
  3
Model
350
22
  0
DICTIONARY
  5
3B
102
{ACAD_REACTORS
330
C
102
}
330
C
100
AcDbDictionary
281
     1
  3
ByBlock
350
3D
  3
ByLayer
350
3C
  3
Global
350
3E
  0
DICTIONARY
  5
C19
102
{ACAD_REACTORS
330
C
102
}
330
C
100
AcDbDictionary
281
     1
  0
DICTIONARY
  5
17
102
{ACAD_REACTORS
330
C
102
}
330
C
100
AcDbDictionary
281
     1
  3
Standard
350
18
  0
DICTIONARY
  5
19
102
{ACAD_REACTORS
330
C
102
}
330
C
100
AcDbDictionary
281
     1
  0
ACDBDICTIONARYWDFLT
  5
E
102
{ACAD_REACTORS
330
C
102
}
330
C
100
AcDbDictionary
281
     1
  3
Normal
350
F
100
AcDbDictionaryWithDefault
340
F
  0
DICTIONARY
  5
450
102
{ACAD_REACTORS
330
C
102
}
330
C
100
AcDbDictionary
281
     1
  3
A0
350
451
  3
A1
350
452
  3
A2
350
453
  3
A3
350
454
  3
A4
350
455
  3
A5
350
456
  3
A6
350
457
  3
A7
350
458
  3
A8
350
459
  3
A9
350
45A
  3
B0
350
45B
  3
B1
350
45C
  3
B2
350
45D
  3
B3
350
45E
  3
B4
350
45F
  3
B5
350
460
  3
B6
350
461
  3
B7
350
462
  3
B8
350
463
  3
B9
350
464
  3
C0
350
465
  3
C1
350
466
  3
C2
350
467
  3
C3
350
468
  3
C4
350
469
  3
C5
350
46A
  3
C6
350
46B
  3
C7
350
46C
  3
C8
350
46D
  3
C9
350
46E
  3
D0
350
46F
  3
D1
350
470
  3
D2
350
471
  0
DICTIONARY
  5
2A
102
{ACAD_REACTORS
330
C
102
}
330
C
100
AcDbDictionary
281
     1
  3
2dWireframe
350
2F
  3
3D Hidden
350
31
  3
3dWireframe
350
30
  3
Basic
350
32
  3
Brighten
350
36
  3
ColorChange
350
3A
  3
Conceptual
350
34
  3
Dim
350
35
  3
Facepattern
350
39
  3
Flat
350
2B
  3
FlatWithEdges
350
2C
  3
Gouraud
350
2D
  3
GouraudWithEdges
350
2E
  3
Linepattern
350
38
  3
Realistic
350
33
  3
Thicken
350
37
  0
DICTIONARY
  5
C17
102
{ACAD_REACTORS
330
C
102
}
330
C
100
AcDbDictionary
281
     1
  3
CANNOSCALE
350
C1C
  3
DIMASSOC
350
C1D
  3
HIDETEXT
350
C1E
  3
PSOLHEIGHT
350
C1B
  3
PSOLWIDTH
350
C1A
  0
LAYOUT
  5
1E
102
{ACAD_REACTORS
330
1A
102
}
330
1A
100
AcDbPlotSettings
  1

  2
none_device
  4

  6

 40
0.0
 41
0.0
 42
0.0
 43
0.0
 44
0.0
 45
0.0
 46
0.0
 47
0.0
 48
0.0
 49
0.0
140
0.0
141
0.0
142
1.0
143
1.0
 70
   688
 72
     0
 73
     0
 74
     5
  7

 75
    16
147
1.0
148
0.0
149
0.0
100
AcDbLayout
  1
Layout1
 70
     1
 71
     1
 10
0.0
 20
0.0
 11
420.0
 21
297.0
 12
0.0
 22
0.0
 32
0.0
 14
1.000000000000000E+20
 24
1.000000000000000E+20
 34
1.000000000000000E+20
 15
-1.000000000000000E+20
 25
-1.000000000000000E+20
 35
-1.000000000000000E+20
146
0.0
 13
0.0
 23
0.0
 33
0.0
 16
1.0
 26
0.0
 36
0.0
 17
0.0
 27
1.0
 37
0.0
 76
     0
330
1B
  0
LAYOUT
  5
26
102
{ACAD_REACTORS
330
1A
102
}
330
1A
100
AcDbPlotSettings
  1

  2
none_device
  4

  6

 40
0.0
 41
0.0
 42
0.0
 43
0.0
 44
0.0
 45
0.0
 46
0.0
 47
0.0
 48
0.0
 49
0.0
140
0.0
141
0.0
142
1.0
143
1.0
 70
   688
 72
     0
 73
     0
 74
     5
  7

 75
    16
147
1.0
148
0.0
149
0.0
100
AcDbLayout
  1
Layout2
 70
     1
 71
     2
 10
0.0
 20
0.0
 11
0.0
 21
0.0
 12
0.0
 22
0.0
 32
0.0
 14
0.0
 24
0.0
 34
0.0
 15
0.0
 25
0.0
 35
0.0
146
0.0
 13
0.0
 23
0.0
 33
0.0
 16
1.0
 26
0.0
 36
0.0
 17
0.0
 27
1.0
 37
0.0
 76
     0
330
23
  0
LAYOUT
  5
22
102
{ACAD_REACTORS
330
1A
102
}
330
1A
100
AcDbPlotSettings
  1

  2
none_device
  4

  6

 40
0.0
 41
0.0
 42
0.0
 43
0.0
 44
0.0
 45
0.0
 46
0.0
 47
0.0
 48
0.0
 49
0.0
140
0.0
141
0.0
142
1.0
143
1.0
 70
  1712
 72
     0
 73
     0
 74
     0
  7

 75
     0
147
1.0
148
0.0
149
0.0
100
AcDbLayout
  1
Model
 70
     1
 71
     0
 10
0.0
 20
0.0
 11
420.0
 21
297.0
 12
0.0
 22
0.0
 32
0.0
 14
0.0
 24
0.0
 34
0.0
 15
25.0
 25
35.0
 35
0.0
146
0.0
 13
0.0
 23
0.0
 33
0.0
 16
1.0
 26
0.0
 36
0.0
 17
0.0
 27
1.0
 37
0.0
 76
     0
330
1F
331
29
  0
MATERIAL
  5
3D
102
{ACAD_REACTORS
330
3B
102
}
102
{ACAD_XDICTIONARY
360
C41
102
}
330
3B
100
AcDbMaterial
  1
ByBlock
  0
MATERIAL
  5
3C
102
{ACAD_REACTORS
330
3B
102
}
102
{ACAD_XDICTIONARY
360
C3F
102
}
330
3B
100
AcDbMaterial
  1
ByLayer
  0
MATERIAL
  5
3E
102
{ACAD_REACTORS
330
3B
102
}
102
{ACAD_XDICTIONARY
360
C43
102
}
330
3B
100
AcDbMaterial
  1
Global
  0
MLINESTYLE
  5
18
102
{ACAD_REACTORS
330
17
102
}
330
17
100
AcDbMlineStyle
  2
Standard
 70
     0
  3

 62
   256
 51
90.0
 52
90.0
 71
     2
 49
0.5
 62
   256
  6
BYLAYER
 49
-0.5
 62
   256
  6
BYLAYER
  0
ACDBPLACEHOLDER
  5
F
102
{ACAD_REACTORS
330
E
102
}
330
E
  0
SCALE
  5
451
102
{ACAD_REACTORS
330
450
102
}
330
450
100
AcDbScale
 70
     0
300
1:1
140
1.0
141
1.0
290
     1
  0
SCALE
  5
452
102
{ACAD_REACTORS
330
450
102
}
330
450
100
AcDbScale
 70
     0
300
1:2
140
1.0
141
2.0
290
     0
  0
SCALE
  5
453
102
{ACAD_REACTORS
330
450
102
}
330
450
100
AcDbScale
 70
     0
300
1:4
140
1.0
141
4.0
290
     0
  0
SCALE
  5
454
102
{ACAD_REACTORS
330
450
102
}
330
450
100
AcDbScale
 70
     0
300
1:5
140
1.0
141
5.0
290
     0
  0
SCALE
  5
455
102
{ACAD_REACTORS
330
450
102
}
330
450
100
AcDbScale
 70
     0
300
1:8
140
1.0
141
8.0
290
     0
  0
SCALE
  5
456
102
{ACAD_REACTORS
330
450
102
}
330
450
100
AcDbScale
 70
     0
300
1:10
140
1.0
141
10.0
290
     0
  0
SCALE
  5
457
102
{ACAD_REACTORS
330
450
102
}
330
450
100
AcDbScale
 70
     0
300
1:16
140
1.0
141
16.0
290
     0
  0
SCALE
  5
458
102
{ACAD_REACTORS
330
450
102
}
330
450
100
AcDbScale
 70
     0
300
1:20
140
1.0
141
20.0
290
     0
  0
SCALE
  5
459
102
{ACAD_REACTORS
330
450
102
}
330
450
100
AcDbScale
 70
     0
300
1:30
140
1.0
141
30.0
290
     0
  0
SCALE
  5
45A
102
{ACAD_REACTORS
330
450
102
}
330
450
100
AcDbScale
 70
     0
300
1:40
140
1.0
141
40.0
290
     0
  0
SCALE
  5
45B
102
{ACAD_REACTORS
330
450
102
}
330
450
100
AcDbScale
 70
     0
300
1:50
140
1.0
141
50.0
290
     0
  0
SCALE
  5
45C
102
{ACAD_REACTORS
330
450
102
}
330
450
100
AcDbScale
 70
     0
300
1:100
140
1.0
141
100.0
290
     0
  0
SCALE
  5
45D
102
{ACAD_REACTORS
330
450
102
}
330
450
100
AcDbScale
 70
     0
300
2:1
140
2.0
141
1.0
290
     0
  0
SCALE
  5
45E
102
{ACAD_REACTORS
330
450
102
}
330
450
100
AcDbScale
 70
     0
300
4:1
140
4.0
141
1.0
290
     0
  0
SCALE
  5
45F
102
{ACAD_REACTORS
330
450
102
}
330
450
100
AcDbScale
 70
     0
300
8:1
140
8.0
141
1.0
290
     0
  0
SCALE
  5
460
102
{ACAD_REACTORS
330
450
102
}
330
450
100
AcDbScale
 70
     0
300
10:1
140
10.0
141
1.0
290
     0
  0
SCALE
  5
461
102
{ACAD_REACTORS
330
450
102
}
330
450
100
AcDbScale
 70
     0
300
100:1
140
100.0
141
1.0
290
     0
  0
SCALE
  5
462
102
{ACAD_REACTORS
330
450
102
}
330
450
100
AcDbScale
 70
     0
300
1/128" = 1'-0"
140
0.0078125
141
12.0
290
     0
  0
SCALE
  5
463
102
{ACAD_REACTORS
330
450
102
}
330
450
100
AcDbScale
 70
     0
300
1/64" = 1'-0"
140
0.015625
141
12.0
290
     0
  0
SCALE
  5
464
102
{ACAD_REACTORS
330
450
102
}
330
450
100
AcDbScale
 70
     0
300
1/32" = 1'-0"
140
0.03125
141
12.0
290
     0
  0
SCALE
  5
465
102
{ACAD_REACTORS
330
450
102
}
330
450
100
AcDbScale
 70
     0
300
1/16" = 1'-0"
140
0.0625
141
12.0
290
     0
  0
SCALE
  5
466
102
{ACAD_REACTORS
330
450
102
}
330
450
100
AcDbScale
 70
     0
300
3/32" = 1'-0"
140
0.09375
141
12.0
290
     0
  0
SCALE
  5
467
102
{ACAD_REACTORS
330
450
102
}
330
450
100
AcDbScale
 70
     0
300
1/8" = 1'-0"
140
0.125
141
12.0
290
     0
  0
SCALE
  5
468
102
{ACAD_REACTORS
330
450
102
}
330
450
100
AcDbScale
 70
     0
300
3/16" = 1'-0"
140
0.1875
141
12.0
290
     0
  0
SCALE
  5
469
102
{ACAD_REACTORS
330
450
102
}
330
450
100
AcDbScale
 70
     0
300
1/4" = 1'-0"
140
0.25
141
12.0
290
     0
  0
SCALE
  5
46A
102
{ACAD_REACTORS
330
450
102
}
330
450
100
AcDbScale
 70
     0
300
3/8" = 1'-0"
140
0.375
141
12.0
290
     0
  0
SCALE
  5
46B
102
{ACAD_REACTORS
330
450
102
}
330
450
100
AcDbScale
 70
     0
300
1/2" = 1'-0"
140
0.5
141
12.0
290
     0
  0
SCALE
  5
46C
102
{ACAD_REACTORS
330
450
102
}
330
450
100
AcDbScale
 70
     0
300
3/4" = 1'-0"
140
0.75
141
12.0
290
     0
  0
SCALE
  5
46D
102
{ACAD_REACTORS
330
450
102
}
330
450
100
AcDbScale
 70
     0
300
1" = 1'-0"
140
1.0
141
12.0
290
     0
  0
SCALE
  5
46E
102
{ACAD_REACTORS
330
450
102
}
330
450
100
AcDbScale
 70
     0
300
1-1/2" = 1'-0"
140
1.5
141
12.0
290
     0
  0
SCALE
  5
46F
102
{ACAD_REACTORS
330
450
102
}
330
450
100
AcDbScale
 70
     0
300
3" = 1'-0"
140
3.0
141
12.0
290
     0
  0
SCALE
  5
470
102
{ACAD_REACTORS
330
450
102
}
330
450
100
AcDbScale
 70
     0
300
6" = 1'-0"
140
6.0
141
12.0
290
     0
  0
SCALE
  5
471
102
{ACAD_REACTORS
330
450
102
}
330
450
100
AcDbScale
 70
     0
300
1'-0" = 1'-0"
140
12.0
141
12.0
290
     0
  0
VISUALSTYLE
  5
2F
102
{ACAD_REACTORS
330
2A
102
}
102
{ACAD_XDICTIONARY
360
C27
102
}
330
2A
100
AcDbVisualStyle
  2
2dWireframe
 70
     4
 71
     0
 72
     2
 73
     0
 90
        0
 40
-0.6
 41
-30.0
 62
     5
 63
     7
 74
     1
 91
        4
 64
     7
 65
   257
 75
     1
175
     1
 42
1.0
 92
        0
 66
   257
 43
1.0
 76
     1
 77
     6
 78
     2
 67
     7
 79
     5
170
     0
171
     0
290
     0
174
     0
 93
        1
 44
0.0
173
     0
291
     0
 45
0.0
1001
ACAD
1000
AcDbSavedByObjectVersion
1070
     0
  0
VISUALSTYLE
  5
31
102
{ACAD_REACTORS
330
2A
102
}
102
{ACAD_XDICTIONARY
360
C2B
102
}
330
2A
100
AcDbVisualStyle
  2
3D Hidden
 70
     6
 71
     1
 72
     2
 73
     2
 90
        0
 40
-0.6
 41
-30.0
 62
     5
 63
     7
 74
     2
 91
        2
 64
     7
 65
   257
 75
     2
175
     1
 42
40.0
 92
        0
 66
   257
 43
1.0
 76
     1
 77
     6
 78
     2
 67
     7
 79
     3
170
     0
171
     0
290
     0
174
     0
 93
        1
 44
0.0
173
     0
291
     0
 45
0.0
1001
ACAD
1000
AcDbSavedByObjectVersion
1070
     0
  0
VISUALSTYLE
  5
30
102
{ACAD_REACTORS
330
2A
102
}
102
{ACAD_XDICTIONARY
360
C29
102
}
330
2A
100
AcDbVisualStyle
  2
3dWireframe
 70
     5
 71
     0
 72
     2
 73
     0
 90
        0
 40
-0.6
 41
-30.0
 62
     5
 63
     7
 74
     1
 91
        4
 64
     7
 65
   257
 75
     1
175
     1
 42
1.0
 92
        0
 66
   257
 43
1.0
 76
     1
 77
     6
 78
     2
 67
     7
 79
     5
170
     0
171
     0
290
     0
174
     0
 93
        1
 44
0.0
173
     0
291
     0
 45
0.0
1001
ACAD
1000
AcDbSavedByObjectVersion
1070
     0
  0
VISUALSTYLE
  5
32
102
{ACAD_REACTORS
330
2A
102
}
102
{ACAD_XDICTIONARY
360
C2D
102
}
330
2A
100
AcDbVisualStyle
  2
Basic
 70
     7
 71
     1
 72
     0
 73
     1
 90
        0
 40
-0.6
 41
-30.0
 62
     5
 63
     7
 74
     0
 91
        4
 64
     7
 65
   257
 75
     1
175
     1
 42
1.0
 92
        8
 66
     7
 43
1.0
 76
     1
 77
     6
 78
     2
 67
     7
 79
     5
170
     0
171
     0
290
     0
174
     0
 93
        1
 44
0.0
173
     0
291
     1
 45
0.0
1001
ACAD
1000
AcDbSavedByObjectVersion
1070
     0
  0
VISUALSTYLE
  5
36
102
{ACAD_REACTORS
330
2A
102
}
102
{ACAD_XDICTIONARY
360
C35
102
}
330
2A
100
AcDbVisualStyle
  2
Brighten
 70
    12
 71
     2
 72
     2
 73
     0
 90
        0
 40
-0.6
 41
-30.0
 62
     5
 63
     7
 74
     1
 91
        4
 64
     7
 65
   257
 75
     1
175
     1
 42
1.0
 92
        8
 66
     7
 43
1.0
 76
     1
 77
     6
 78
     2
 67
     7
 79
     5
170
     0
171
     0
290
     0
174
     0
 93
        1
 44
50.0
173
     0
291
     1
 45
0.0
1001
ACAD
1000
AcDbSavedByObjectVersion
1070
     0
  0
VISUALSTYLE
  5
3A
102
{ACAD_REACTORS
330
2A
102
}
102
{ACAD_XDICTIONARY
360
C3D
102
}
330
2A
100
AcDbVisualStyle
  2
ColorChange
 70
    16
 71
     2
 72
     2
 73
     3
 90
        0
 40
-0.6
 41
-30.0
 62
     5
 63
     8
 74
     1
 91
        4
 64
     7
 65
   257
 75
     1
175
     1
 42
1.0
 92
        8
 66
     8
 43
1.0
 76
     1
 77
     6
 78
     2
 67
     7
 79
     5
170
     0
171
     0
290
     0
174
     0
 93
        1
 44
0.0
173
     0
291
     1
 45
0.0
1001
ACAD
1000
AcDbSavedByObjectVersion
1070
     0
  0
VISUALSTYLE
  5
34
102
{ACAD_REACTORS
330
2A
102
}
102
{ACAD_XDICTIONARY
360
C31
102
}
330
2A
100
AcDbVisualStyle
  2
Conceptual
 70
     9
 71
     3
 72
     2
 73
     0
 90
        0
 40
-0.6
 41
-30.0
 62
     5
 63
     7
 74
     2
 91
        2
 64
     7
 65
   257
 75
     1
175
     1
 42
40.0
 92
        8
 66
     7
 43
1.0
 76
     1
 77
     6
 78
     2
 67
     7
 79
     3
170
     0
171
     0
290
     0
174
     0
 93
        1
 44
0.0
173
     0
291
     0
 45
0.0
1001
ACAD
1000
AcDbSavedByObjectVersion
1070
     0
  0
VISUALSTYLE
  5
35
102
{ACAD_REACTORS
330
2A
102
}
102
{ACAD_XDICTIONARY
360
C33
102
}
330
2A
100
AcDbVisualStyle
  2
Dim
 70
    11
 71
     2
 72
     2
 73
     0
 90
        0
 40
-0.6
 41
-30.0
 62
     5
 63
     7
 74
     1
 91
        4
 64
     7
 65
   257
 75
     1
175
     1
 42
1.0
 92
        8
 66
     7
 43
1.0
 76
     1
 77
     6
 78
     2
 67
     7
 79
     5
170
     0
171
     0
290
     0
174
     0
 93
        1
 44
-50.0
173
     0
291
     1
 45
0.0
1001
ACAD
1000
AcDbSavedByObjectVersion
1070
     0
  0
VISUALSTYLE
  5
39
102
{ACAD_REACTORS
330
2A
102
}
102
{ACAD_XDICTIONARY
360
C3B
102
}
330
2A
100
AcDbVisualStyle
  2
Facepattern
 70
    15
 71
     2
 72
     2
 73
     0
 90
        0
 40
-0.6
 41
-30.0
 62
     5
 63
     7
 74
     1
 91
        4
 64
     7
 65
   257
 75
     1
175
     1
 42
1.0
 92
        8
 66
     7
 43
1.0
 76
     1
 77
     6
 78
     2
 67
     7
 79
     5
170
     0
171
     0
290
     0
174
     0
 93
        1
 44
0.0
173
     0
291
     1
 45
0.0
1001
ACAD
1000
AcDbSavedByObjectVersion
1070
     0
  0
VISUALSTYLE
  5
2B
102
{ACAD_REACTORS
330
2A
102
}
102
{ACAD_XDICTIONARY
360
C1F
102
}
330
2A
100
AcDbVisualStyle
  2
Flat
 70
     0
 71
     2
 72
     1
 73
     1
 90
        2
 40
-0.6
 41
30.0
 62
     5
 63
     7
 74
     0
 91
        4
 64
     7
 65
   257
 75
     1
175
     1
 42
1.0
 92
        8
 66
     7
 43
1.0
 76
     1
 77
     6
 78
     2
 67
     7
 79
     5
170
     0
171
     0
290
     0
174
     0
 93
       13
 44
0.0
173
     0
291
     1
 45
0.0
1001
ACAD
1000
AcDbSavedByObjectVersion
1070
     0
  0
VISUALSTYLE
  5
2C
102
{ACAD_REACTORS
330
2A
102
}
102
{ACAD_XDICTIONARY
360
C21
102
}
330
2A
100
AcDbVisualStyle
  2
FlatWithEdges
 70
     1
 71
     2
 72
     1
 73
     1
 90
        2
 40
-0.6
 41
30.0
 62
     5
 63
     7
 74
     1
 91
        4
 64
     7
 65
   257
 75
     1
175
     1
 42
1.0
 92
        0
 66
   257
 43
1.0
 76
     1
 77
     6
 78
     2
 67
     7
 79
     5
170
     0
171
     0
290
     0
174
     0
 93
       13
 44
0.0
173
     0
291
     1
 45
0.0
1001
ACAD
1000
AcDbSavedByObjectVersion
1070
     0
  0
VISUALSTYLE
  5
2D
102
{ACAD_REACTORS
330
2A
102
}
102
{ACAD_XDICTIONARY
360
C23
102
}
330
2A
100
AcDbVisualStyle
  2
Gouraud
 70
     2
 71
     2
 72
     2
 73
     1
 90
        2
 40
-0.6
 41
30.0
 62
     5
 63
     7
 74
     0
 91
        4
 64
     7
 65
   257
 75
     1
175
     1
 42
1.0
 92
        0
 66
     7
 43
1.0
 76
     1
 77
     6
 78
     2
 67
     7
 79
     5
170
     0
171
     0
290
     0
174
     0
 93
       13
 44
0.0
173
     0
291
     1
 45
0.0
1001
ACAD
1000
AcDbSavedByObjectVersion
1070
     0
  0
VISUALSTYLE
  5
2E
102
{ACAD_REACTORS
330
2A
102
}
102
{ACAD_XDICTIONARY
360
C25
102
}
330
2A
100
AcDbVisualStyle
  2
GouraudWithEdges
 70
     3
 71
     2
 72
     2
 73
     1
 90
        2
 40
-0.6
 41
30.0
 62
     5
 63
     7
 74
     1
 91
        4
 64
     7
 65
   257
 75
     1
175
     1
 42
1.0
 92
        0
 66
   257
 43
1.0
 76
     1
 77
     6
 78
     2
 67
     7
 79
     5
170
     0
171
     0
290
     0
174
     0
 93
       13
 44
0.0
173
     0
291
     1
 45
0.0
1001
ACAD
1000
AcDbSavedByObjectVersion
1070
     0
  0
VISUALSTYLE
  5
38
102
{ACAD_REACTORS
330
2A
102
}
102
{ACAD_XDICTIONARY
360
C39
102
}
330
2A
100
AcDbVisualStyle
  2
Linepattern
 70
    14
 71
     2
 72
     2
 73
     0
 90
        0
 40
-0.6
 41
-30.0
 62
     5
 63
     7
 74
     1
 91
        4
 64
     7
 65
   257
 75
     7
175
     7
 42
1.0
 92
        8
 66
     7
 43
1.0
 76
     1
 77
     6
 78
     2
 67
     7
 79
     5
170
     0
171
     0
290
     0
174
     0
 93
        1
 44
0.0
173
     0
291
     1
 45
0.0
1001
ACAD
1000
AcDbSavedByObjectVersion
1070
     0
  0
VISUALSTYLE
  5
33
102
{ACAD_REACTORS
330
2A
102
}
102
{ACAD_XDICTIONARY
360
C2F
102
}
330
2A
100
AcDbVisualStyle
  2
Realistic
 70
     8
 71
     2
 72
     2
 73
     0
 90
        0
 40
-0.6
 41
-30.0
 62
     5
 63
     7
 74
     1
 91
        0
 64
     7
 65
   257
 75
     1
175
     1
 42
1.0
 92
        8
 66
     8
 43
1.0
 76
     1
 77
     6
 78
     2
 67
     7
 79
     5
170
     0
171
     0
290
     0
174
     0
 93
       13
 44
0.0
173
     0
291
     0
 45
0.0
1001
ACAD
1000
AcDbSavedByObjectVersion
1070
     0
  0
VISUALSTYLE
  5
37
102
{ACAD_REACTORS
330
2A
102
}
102
{ACAD_XDICTIONARY
360
C37
102
}
330
2A
100
AcDbVisualStyle
  2
Thicken
 70
    13
 71
     2
 72
     2
 73
     0
 90
        0
 40
-0.6
 41
-30.0
 62
     5
 63
     7
 74
     1
 91
        4
 64
     7
 65
   257
 75
     1
175
     1
 42
1.0
 92
       12
 66
     7
 43
1.0
 76
     1
 77
     6
 78
     2
 67
     7
 79
     5
170
     0
171
     0
290
     0
174
     0
 93
        1
 44
0.0
173
     0
291
     1
 45
0.0
1001
ACAD
1000
AcDbSavedByObjectVersion
1070
     0
  0
DICTIONARYVAR
  5
C1C
102
{ACAD_REACTORS
330
C17
102
}
330
C17
100
DictionaryVariables
280
     0
  1
1:1
  0
DICTIONARYVAR
  5
C1D
102
{ACAD_REACTORS
330
C17
102
}
330
C17
100
DictionaryVariables
280
     0
  1
2
  0
DICTIONARYVAR
  5
C1E
102
{ACAD_REACTORS
330
C17
102
}
330
C17
100
DictionaryVariables
280
     0
  1
1
  0
DICTIONARYVAR
  5
C1B
102
{ACAD_REACTORS
330
C17
102
}
330
C17
100
DictionaryVariables
280
     0
  1
80.000000
  0
DICTIONARYVAR
  5
C1A
102
{ACAD_REACTORS
330
C17
102
}
330
C17
100
DictionaryVariables
280
     0
  1
5.000000
  0
DICTIONARY
  5
C41
330
3D
100
AcDbDictionary
280
     1
281
     1
  3
ACAD_XREC_ROUNDTRIP
360
C42
  0
DICTIONARY
  5
C3F
330
3C
100
AcDbDictionary
280
     1
281
     1
  3
ACAD_XREC_ROUNDTRIP
360
C40
  0
DICTIONARY
  5
C43
330
3E
100
AcDbDictionary
280
     1
281
     1
  3
ACAD_XREC_ROUNDTRIP
360
C44
  0
DICTIONARY
  5
C27
330
2F
100
AcDbDictionary
280
     1
281
     1
  3
ACAD_XREC_ROUNDTRIP
360
C28
  0
DICTIONARY
  5
C2B
330
31
100
AcDbDictionary
280
     1
281
     1
  3
ACAD_XREC_ROUNDTRIP
360
C2C
  0
DICTIONARY
  5
C29
330
30
100
AcDbDictionary
280
     1
281
     1
  3
ACAD_XREC_ROUNDTRIP
360
C2A
  0
DICTIONARY
  5
C2D
330
32
100
AcDbDictionary
280
     1
281
     1
  3
ACAD_XREC_ROUNDTRIP
360
C2E
  0
DICTIONARY
  5
C35
330
36
100
AcDbDictionary
280
     1
281
     1
  3
ACAD_XREC_ROUNDTRIP
360
C36
  0
DICTIONARY
  5
C3D
330
3A
100
AcDbDictionary
280
     1
281
     1
  3
ACAD_XREC_ROUNDTRIP
360
C3E
  0
DICTIONARY
  5
C31
330
34
100
AcDbDictionary
280
     1
281
     1
  3
ACAD_XREC_ROUNDTRIP
360
C32
  0
DICTIONARY
  5
C33
330
35
100
AcDbDictionary
280
     1
281
     1
  3
ACAD_XREC_ROUNDTRIP
360
C34
  0
DICTIONARY
  5
C3B
330
39
100
AcDbDictionary
280
     1
281
     1
  3
ACAD_XREC_ROUNDTRIP
360
C3C
  0
DICTIONARY
  5
C1F
330
2B
100
AcDbDictionary
280
     1
281
     1
  3
ACAD_XREC_ROUNDTRIP
360
C20
  0
DICTIONARY
  5
C21
330
2C
100
AcDbDictionary
280
     1
281
     1
  3
ACAD_XREC_ROUNDTRIP
360
C22
  0
DICTIONARY
  5
C23
330
2D
100
AcDbDictionary
280
     1
281
     1
  3
ACAD_XREC_ROUNDTRIP
360
C24
  0
DICTIONARY
  5
C25
330
2E
100
AcDbDictionary
280
     1
281
     1
  3
ACAD_XREC_ROUNDTRIP
360
C26
  0
DICTIONARY
  5
C39
330
38
100
AcDbDictionary
280
     1
281
     1
  3
ACAD_XREC_ROUNDTRIP
360
C3A
  0
DICTIONARY
  5
C2F
330
33
100
AcDbDictionary
280
     1
281
     1
  3
ACAD_XREC_ROUNDTRIP
360
C30
  0
DICTIONARY
  5
C37
330
37
100
AcDbDictionary
280
     1
281
     1
  3
ACAD_XREC_ROUNDTRIP
360
C38
  0
XRECORD
  5
C42
102
{ACAD_REACTORS
330
C41
102
}
330
C41
100
AcDbXrecord
280
     1
102
MATERIAL
148
0.0
149
0.0
149
0.0
 93
        0
 94
      127
282
     0
 72
     1
 77
     1
171
     1
175
     1
179
     1
273
     0
  0
XRECORD
  5
C40
102
{ACAD_REACTORS
330
C3F
102
}
330
C3F
100
AcDbXrecord
280
     1
102
MATERIAL
148
0.0
149
0.0
149
0.0
 93
        0
 94
      127
282
     0
 72
     1
 77
     1
171
     1
175
     1
179
     1
273
     0
  0
XRECORD
  5
C44
102
{ACAD_REACTORS
330
C43
102
}
330
C43
100
AcDbXrecord
280
     1
102
MATERIAL
148
0.0
149
0.0
149
0.0
 93
        0
 94
      127
282
     0
 72
     1
 77
     1
171
     1
175
     1
179
     1
273
     0
  0
XRECORD
  5
C28
102
{ACAD_REACTORS
330
C27
102
}
330
C27
100
AcDbXrecord
280
     1
102
RTVSPropertyOp0
 70
     1
102
RTVSPropertyOp1
 70
     1
102
RTVSPropertyOp2
 70
     1
102
RTVSPropertyOp3
 70
     1
102
RTVSPropertyOp4
 70
     1
102
RTVSPropertyOp5
 70
     1
102
RTVSPropertyOp6
 70
     1
102
RTVSPropertyOp7
 70
     1
102
RTVSPropertyOp8
 70
     1
102
RTVSPropertyOp9
 70
     1
102
RTVSPropertyOp10
 70
     1
102
RTVSPropertyOp11
 70
     1
102
RTVSPropertyOp12
 70
     1
102
RTVSPropertyOp13
 70
     1
102
RTVSPropertyOp14
 70
     1
102
RTVSPropertyOp15
 70
     1
102
RTVSPropertyOp16
 70
     1
102
RTVSPropertyOp17
 70
     1
102
RTVSPropertyOp18
 70
     1
102
RTVSPropertyOp19
 70
     1
102
RTVSPropertyOp20
 70
     1
102
RTVSPropertyOp21
 70
     1
102
RTVSPropertyOp22
 70
     1
102
RTVSPropertyOp23
 70
     1
102
RTVSPropertyOp24
 70
     1
102
RTVSPropertyOp25
 70
     1
102
RTVSPropertyOp26
 70
     1
102
RTVSPropertyOp27
 70
     1
  0
XRECORD
  5
C2C
102
{ACAD_REACTORS
330
C2B
102
}
330
C2B
100
AcDbXrecord
280
     1
102
RTVSPropertyOp0
 70
     1
102
RTVSPropertyOp1
 70
     1
102
RTVSPropertyOp2
 70
     1
102
RTVSPropertyOp3
 70
     1
102
RTVSPropertyOp4
 70
     1
102
RTVSPropertyOp5
 70
     1
102
RTVSPropertyOp6
 70
     1
102
RTVSPropertyOp7
 70
     1
102
RTVSPropertyOp8
 70
     1
102
RTVSPropertyOp9
 70
     1
102
RTVSPropertyOp10
 70
     1
102
RTVSPropertyOp11
 70
     1
102
RTVSPropertyOp12
 70
     1
102
RTVSPropertyOp13
 70
     1
102
RTVSPropertyOp14
 70
     1
102
RTVSPropertyOp15
 70
     1
102
RTVSPropertyOp16
 70
     1
102
RTVSPropertyOp17
 70
     1
102
RTVSPropertyOp18
 70
     1
102
RTVSPropertyOp19
 70
     1
102
RTVSPropertyOp20
 70
     1
102
RTVSPropertyOp21
 70
     1
102
RTVSPropertyOp22
 70
     1
102
RTVSPropertyOp23
 70
     1
102
RTVSPropertyOp24
 70
     1
102
RTVSPropertyOp25
 70
     1
102
RTVSPropertyOp26
 70
     1
102
RTVSPropertyOp27
 70
     1
  0
XRECORD
  5
C2A
102
{ACAD_REACTORS
330
C29
102
}
330
C29
100
AcDbXrecord
280
     1
102
RTVSPropertyOp0
 70
     1
102
RTVSPropertyOp1
 70
     1
102
RTVSPropertyOp2
 70
     1
102
RTVSPropertyOp3
 70
     1
102
RTVSPropertyOp4
 70
     1
102
RTVSPropertyOp5
 70
     1
102
RTVSPropertyOp6
 70
     1
102
RTVSPropertyOp7
 70
     1
102
RTVSPropertyOp8
 70
     1
102
RTVSPropertyOp9
 70
     1
102
RTVSPropertyOp10
 70
     1
102
RTVSPropertyOp11
 70
     1
102
RTVSPropertyOp12
 70
     1
102
RTVSPropertyOp13
 70
     1
102
RTVSPropertyOp14
 70
     1
102
RTVSPropertyOp15
 70
     1
102
RTVSPropertyOp16
 70
     1
102
RTVSPropertyOp17
 70
     1
102
RTVSPropertyOp18
 70
     1
102
RTVSPropertyOp19
 70
     1
102
RTVSPropertyOp20
 70
     1
102
RTVSPropertyOp21
 70
     1
102
RTVSPropertyOp22
 70
     1
102
RTVSPropertyOp23
 70
     1
102
RTVSPropertyOp24
 70
     1
102
RTVSPropertyOp25
 70
     1
102
RTVSPropertyOp26
 70
     1
102
RTVSPropertyOp27
 70
     1
  0
XRECORD
  5
C2E
102
{ACAD_REACTORS
330
C2D
102
}
330
C2D
100
AcDbXrecord
280
     1
102
RTVSPropertyOp0
 70
     1
102
RTVSPropertyOp1
 70
     1
102
RTVSPropertyOp2
 70
     1
102
RTVSPropertyOp3
 70
     1
102
RTVSPropertyOp4
 70
     1
102
RTVSPropertyOp5
 70
     1
102
RTVSPropertyOp6
 70
     1
102
RTVSPropertyOp7
 70
     1
102
RTVSPropertyOp8
 70
     1
102
RTVSPropertyOp9
 70
     1
102
RTVSPropertyOp10
 70
     1
102
RTVSPropertyOp11
 70
     1
102
RTVSPropertyOp12
 70
     1
102
RTVSPropertyOp13
 70
     1
102
RTVSPropertyOp14
 70
     1
102
RTVSPropertyOp15
 70
     1
102
RTVSPropertyOp16
 70
     1
102
RTVSPropertyOp17
 70
     1
102
RTVSPropertyOp18
 70
     1
102
RTVSPropertyOp19
 70
     1
102
RTVSPropertyOp20
 70
     1
102
RTVSPropertyOp21
 70
     1
102
RTVSPropertyOp22
 70
     1
102
RTVSPropertyOp23
 70
     1
102
RTVSPropertyOp24
 70
     1
102
RTVSPropertyOp25
 70
     1
102
RTVSPropertyOp26
 70
     1
102
RTVSPropertyOp27
 70
     1
  0
XRECORD
  5
C36
102
{ACAD_REACTORS
330
C35
102
}
330
C35
100
AcDbXrecord
280
     1
102
RTVSPropertyOp0
 70
     1
102
RTVSPropertyOp1
 70
     1
102
RTVSPropertyOp2
 70
     1
102
RTVSPropertyOp3
 70
     1
102
RTVSPropertyOp4
 70
     1
102
RTVSPropertyOp5
 70
     1
102
RTVSPropertyOp6
 70
     1
102
RTVSPropertyOp7
 70
     1
102
RTVSPropertyOp8
 70
     1
102
RTVSPropertyOp9
 70
     1
102
RTVSPropertyOp10
 70
     1
102
RTVSPropertyOp11
 70
     1
102
RTVSPropertyOp12
 70
     1
102
RTVSPropertyOp13
 70
     1
102
RTVSPropertyOp14
 70
     1
102
RTVSPropertyOp15
 70
     1
102
RTVSPropertyOp16
 70
     1
102
RTVSPropertyOp17
 70
     1
102
RTVSPropertyOp18
 70
     1
102
RTVSPropertyOp19
 70
     1
102
RTVSPropertyOp20
 70
     1
102
RTVSPropertyOp21
 70
     1
102
RTVSPropertyOp22
 70
     1
102
RTVSPropertyOp23
 70
     1
102
RTVSPropertyOp24
 70
     1
102
RTVSPropertyOp25
 70
     1
102
RTVSPropertyOp26
 70
     1
102
RTVSPropertyOp27
 70
     1
  0
XRECORD
  5
C3E
102
{ACAD_REACTORS
330
C3D
102
}
330
C3D
100
AcDbXrecord
280
     1
102
RTVSPropertyOp0
 70
     1
102
RTVSPropertyOp1
 70
     1
102
RTVSPropertyOp2
 70
     1
102
RTVSPropertyOp3
 70
     1
102
RTVSPropertyOp4
 70
     1
102
RTVSPropertyOp5
 70
     1
102
RTVSPropertyOp6
 70
     1
102
RTVSPropertyOp7
 70
     1
102
RTVSPropertyOp8
 70
     1
102
RTVSPropertyOp9
 70
     1
102
RTVSPropertyOp10
 70
     1
102
RTVSPropertyOp11
 70
     1
102
RTVSPropertyOp12
 70
     1
102
RTVSPropertyOp13
 70
     1
102
RTVSPropertyOp14
 70
     1
102
RTVSPropertyOp15
 70
     1
102
RTVSPropertyOp16
 70
     1
102
RTVSPropertyOp17
 70
     1
102
RTVSPropertyOp18
 70
     1
102
RTVSPropertyOp19
 70
     1
102
RTVSPropertyOp20
 70
     1
102
RTVSPropertyOp21
 70
     1
102
RTVSPropertyOp22
 70
     1
102
RTVSPropertyOp23
 70
     1
102
RTVSPropertyOp24
 70
     1
102
RTVSPropertyOp25
 70
     1
102
RTVSPropertyOp26
 70
     1
102
RTVSPropertyOp27
 70
     1
  0
XRECORD
  5
C32
102
{ACAD_REACTORS
330
C31
102
}
330
C31
100
AcDbXrecord
280
     1
102
RTVSPropertyOp0
 70
     1
102
RTVSPropertyOp1
 70
     1
102
RTVSPropertyOp2
 70
     1
102
RTVSPropertyOp3
 70
     1
102
RTVSPropertyOp4
 70
     1
102
RTVSPropertyOp5
 70
     1
102
RTVSPropertyOp6
 70
     1
102
RTVSPropertyOp7
 70
     1
102
RTVSPropertyOp8
 70
     1
102
RTVSPropertyOp9
 70
     1
102
RTVSPropertyOp10
 70
     1
102
RTVSPropertyOp11
 70
     1
102
RTVSPropertyOp12
 70
     1
102
RTVSPropertyOp13
 70
     1
102
RTVSPropertyOp14
 70
     1
102
RTVSPropertyOp15
 70
     1
102
RTVSPropertyOp16
 70
     1
102
RTVSPropertyOp17
 70
     1
102
RTVSPropertyOp18
 70
     1
102
RTVSPropertyOp19
 70
     1
102
RTVSPropertyOp20
 70
     1
102
RTVSPropertyOp21
 70
     1
102
RTVSPropertyOp22
 70
     1
102
RTVSPropertyOp23
 70
     1
102
RTVSPropertyOp24
 70
     1
102
RTVSPropertyOp25
 70
     1
102
RTVSPropertyOp26
 70
     1
102
RTVSPropertyOp27
 70
     1
  0
XRECORD
  5
C34
102
{ACAD_REACTORS
330
C33
102
}
330
C33
100
AcDbXrecord
280
     1
102
RTVSPropertyOp0
 70
     1
102
RTVSPropertyOp1
 70
     1
102
RTVSPropertyOp2
 70
     1
102
RTVSPropertyOp3
 70
     1
102
RTVSPropertyOp4
 70
     1
102
RTVSPropertyOp5
 70
     1
102
RTVSPropertyOp6
 70
     1
102
RTVSPropertyOp7
 70
     1
102
RTVSPropertyOp8
 70
     1
102
RTVSPropertyOp9
 70
     1
102
RTVSPropertyOp10
 70
     1
102
RTVSPropertyOp11
 70
     1
102
RTVSPropertyOp12
 70
     1
102
RTVSPropertyOp13
 70
     1
102
RTVSPropertyOp14
 70
     1
102
RTVSPropertyOp15
 70
     1
102
RTVSPropertyOp16
 70
     1
102
RTVSPropertyOp17
 70
     1
102
RTVSPropertyOp18
 70
     1
102
RTVSPropertyOp19
 70
     1
102
RTVSPropertyOp20
 70
     1
102
RTVSPropertyOp21
 70
     1
102
RTVSPropertyOp22
 70
     1
102
RTVSPropertyOp23
 70
     1
102
RTVSPropertyOp24
 70
     1
102
RTVSPropertyOp25
 70
     1
102
RTVSPropertyOp26
 70
     1
102
RTVSPropertyOp27
 70
     1
  0
XRECORD
  5
C3C
102
{ACAD_REACTORS
330
C3B
102
}
330
C3B
100
AcDbXrecord
280
     1
102
RTVSPropertyOp0
 70
     1
102
RTVSPropertyOp1
 70
     1
102
RTVSPropertyOp2
 70
     1
102
RTVSPropertyOp3
 70
     1
102
RTVSPropertyOp4
 70
     1
102
RTVSPropertyOp5
 70
     1
102
RTVSPropertyOp6
 70
     1
102
RTVSPropertyOp7
 70
     1
102
RTVSPropertyOp8
 70
     1
102
RTVSPropertyOp9
 70
     1
102
RTVSPropertyOp10
 70
     1
102
RTVSPropertyOp11
 70
     1
102
RTVSPropertyOp12
 70
     1
102
RTVSPropertyOp13
 70
     1
102
RTVSPropertyOp14
 70
     1
102
RTVSPropertyOp15
 70
     1
102
RTVSPropertyOp16
 70
     1
102
RTVSPropertyOp17
 70
     1
102
RTVSPropertyOp18
 70
     1
102
RTVSPropertyOp19
 70
     1
102
RTVSPropertyOp20
 70
     1
102
RTVSPropertyOp21
 70
     1
102
RTVSPropertyOp22
 70
     1
102
RTVSPropertyOp23
 70
     1
102
RTVSPropertyOp24
 70
     1
102
RTVSPropertyOp25
 70
     1
102
RTVSPropertyOp26
 70
     1
102
RTVSPropertyOp27
 70
     1
  0
XRECORD
  5
C20
102
{ACAD_REACTORS
330
C1F
102
}
330
C1F
100
AcDbXrecord
280
     1
102
RTVSPropertyOp0
 70
     1
102
RTVSPropertyOp1
 70
     1
102
RTVSPropertyOp2
 70
     1
102
RTVSPropertyOp3
 70
     1
102
RTVSPropertyOp4
 70
     1
102
RTVSPropertyOp5
 70
     1
102
RTVSPropertyOp6
 70
     1
102
RTVSPropertyOp7
 70
     1
102
RTVSPropertyOp8
 70
     1
102
RTVSPropertyOp9
 70
     1
102
RTVSPropertyOp10
 70
     1
102
RTVSPropertyOp11
 70
     1
102
RTVSPropertyOp12
 70
     1
102
RTVSPropertyOp13
 70
     1
102
RTVSPropertyOp14
 70
     1
102
RTVSPropertyOp15
 70
     1
102
RTVSPropertyOp16
 70
     1
102
RTVSPropertyOp17
 70
     1
102
RTVSPropertyOp18
 70
     1
102
RTVSPropertyOp19
 70
     1
102
RTVSPropertyOp20
 70
     1
102
RTVSPropertyOp21
 70
     1
102
RTVSPropertyOp22
 70
     1
102
RTVSPropertyOp23
 70
     1
102
RTVSPropertyOp24
 70
     1
102
RTVSPropertyOp25
 70
     1
102
RTVSPropertyOp26
 70
     1
102
RTVSPropertyOp27
 70
     1
  0
XRECORD
  5
C22
102
{ACAD_REACTORS
330
C21
102
}
330
C21
100
AcDbXrecord
280
     1
102
RTVSPropertyOp0
 70
     1
102
RTVSPropertyOp1
 70
     1
102
RTVSPropertyOp2
 70
     1
102
RTVSPropertyOp3
 70
     1
102
RTVSPropertyOp4
 70
     1
102
RTVSPropertyOp5
 70
     1
102
RTVSPropertyOp6
 70
     1
102
RTVSPropertyOp7
 70
     1
102
RTVSPropertyOp8
 70
     1
102
RTVSPropertyOp9
 70
     1
102
RTVSPropertyOp10
 70
     1
102
RTVSPropertyOp11
 70
     1
102
RTVSPropertyOp12
 70
     1
102
RTVSPropertyOp13
 70
     1
102
RTVSPropertyOp14
 70
     1
102
RTVSPropertyOp15
 70
     1
102
RTVSPropertyOp16
 70
     1
102
RTVSPropertyOp17
 70
     1
102
RTVSPropertyOp18
 70
     1
102
RTVSPropertyOp19
 70
     1
102
RTVSPropertyOp20
 70
     1
102
RTVSPropertyOp21
 70
     1
102
RTVSPropertyOp22
 70
     1
102
RTVSPropertyOp23
 70
     1
102
RTVSPropertyOp24
 70
     1
102
RTVSPropertyOp25
 70
     1
102
RTVSPropertyOp26
 70
     1
102
RTVSPropertyOp27
 70
     1
  0
XRECORD
  5
C24
102
{ACAD_REACTORS
330
C23
102
}
330
C23
100
AcDbXrecord
280
     1
102
RTVSPropertyOp0
 70
     1
102
RTVSPropertyOp1
 70
     1
102
RTVSPropertyOp2
 70
     1
102
RTVSPropertyOp3
 70
     1
102
RTVSPropertyOp4
 70
     1
102
RTVSPropertyOp5
 70
     1
102
RTVSPropertyOp6
 70
     1
102
RTVSPropertyOp7
 70
     1
102
RTVSPropertyOp8
 70
     1
102
RTVSPropertyOp9
 70
     1
102
RTVSPropertyOp10
 70
     1
102
RTVSPropertyOp11
 70
     1
102
RTVSPropertyOp12
 70
     1
102
RTVSPropertyOp13
 70
     1
102
RTVSPropertyOp14
 70
     1
102
RTVSPropertyOp15
 70
     1
102
RTVSPropertyOp16
 70
     1
102
RTVSPropertyOp17
 70
     1
102
RTVSPropertyOp18
 70
     1
102
RTVSPropertyOp19
 70
     1
102
RTVSPropertyOp20
 70
     1
102
RTVSPropertyOp21
 70
     1
102
RTVSPropertyOp22
 70
     1
102
RTVSPropertyOp23
 70
     1
102
RTVSPropertyOp24
 70
     1
102
RTVSPropertyOp25
 70
     1
102
RTVSPropertyOp26
 70
     1
102
RTVSPropertyOp27
 70
     1
  0
XRECORD
  5
C26
102
{ACAD_REACTORS
330
C25
102
}
330
C25
100
AcDbXrecord
280
     1
102
RTVSPropertyOp0
 70
     1
102
RTVSPropertyOp1
 70
     1
102
RTVSPropertyOp2
 70
     1
102
RTVSPropertyOp3
 70
     1
102
RTVSPropertyOp4
 70
     1
102
RTVSPropertyOp5
 70
     1
102
RTVSPropertyOp6
 70
     1
102
RTVSPropertyOp7
 70
     1
102
RTVSPropertyOp8
 70
     1
102
RTVSPropertyOp9
 70
     1
102
RTVSPropertyOp10
 70
     1
102
RTVSPropertyOp11
 70
     1
102
RTVSPropertyOp12
 70
     1
102
RTVSPropertyOp13
 70
     1
102
RTVSPropertyOp14
 70
     1
102
RTVSPropertyOp15
 70
     1
102
RTVSPropertyOp16
 70
     1
102
RTVSPropertyOp17
 70
     1
102
RTVSPropertyOp18
 70
     1
102
RTVSPropertyOp19
 70
     1
102
RTVSPropertyOp20
 70
     1
102
RTVSPropertyOp21
 70
     1
102
RTVSPropertyOp22
 70
     1
102
RTVSPropertyOp23
 70
     1
102
RTVSPropertyOp24
 70
     1
102
RTVSPropertyOp25
 70
     1
102
RTVSPropertyOp26
 70
     1
102
RTVSPropertyOp27
 70
     1
  0
XRECORD
  5
C3A
102
{ACAD_REACTORS
330
C39
102
}
330
C39
100
AcDbXrecord
280
     1
102
RTVSPropertyOp0
 70
     1
102
RTVSPropertyOp1
 70
     1
102
RTVSPropertyOp2
 70
     1
102
RTVSPropertyOp3
 70
     1
102
RTVSPropertyOp4
 70
     1
102
RTVSPropertyOp5
 70
     1
102
RTVSPropertyOp6
 70
     1
102
RTVSPropertyOp7
 70
     1
102
RTVSPropertyOp8
 70
     1
102
RTVSPropertyOp9
 70
     1
102
RTVSPropertyOp10
 70
     1
102
RTVSPropertyOp11
 70
     1
102
RTVSPropertyOp12
 70
     1
102
RTVSPropertyOp13
 70
     1
102
RTVSPropertyOp14
 70
     1
102
RTVSPropertyOp15
 70
     1
102
RTVSPropertyOp16
 70
     1
102
RTVSPropertyOp17
 70
     1
102
RTVSPropertyOp18
 70
     1
102
RTVSPropertyOp19
 70
     1
102
RTVSPropertyOp20
 70
     1
102
RTVSPropertyOp21
 70
     1
102
RTVSPropertyOp22
 70
     1
102
RTVSPropertyOp23
 70
     1
102
RTVSPropertyOp24
 70
     1
102
RTVSPropertyOp25
 70
     1
102
RTVSPropertyOp26
 70
     1
102
RTVSPropertyOp27
 70
     1
  0
XRECORD
  5
C30
102
{ACAD_REACTORS
330
C2F
102
}
330
C2F
100
AcDbXrecord
280
     1
102
RTVSPropertyOp0
 70
     1
102
RTVSPropertyOp1
 70
     1
102
RTVSPropertyOp2
 70
     1
102
RTVSPropertyOp3
 70
     1
102
RTVSPropertyOp4
 70
     1
102
RTVSPropertyOp5
 70
     1
102
RTVSPropertyOp6
 70
     1
102
RTVSPropertyOp7
 70
     1
102
RTVSPropertyOp8
 70
     1
102
RTVSPropertyOp9
 70
     1
102
RTVSPropertyOp10
 70
     1
102
RTVSPropertyOp11
 70
     1
102
RTVSPropertyOp12
 70
     1
102
RTVSPropertyOp13
 70
     1
102
RTVSPropertyOp14
 70
     1
102
RTVSPropertyOp15
 70
     1
102
RTVSPropertyOp16
 70
     1
102
RTVSPropertyOp17
 70
     1
102
RTVSPropertyOp18
 70
     1
102
RTVSPropertyOp19
 70
     1
102
RTVSPropertyOp20
 70
     1
102
RTVSPropertyOp21
 70
     1
102
RTVSPropertyOp22
 70
     1
102
RTVSPropertyOp23
 70
     1
102
RTVSPropertyOp24
 70
     1
102
RTVSPropertyOp25
 70
     1
102
RTVSPropertyOp26
 70
     1
102
RTVSPropertyOp27
 70
     1
  0
XRECORD
  5
C38
102
{ACAD_REACTORS
330
C37
102
}
330
C37
100
AcDbXrecord
280
     1
102
RTVSPropertyOp0
 70
     1
102
RTVSPropertyOp1
 70
     1
102
RTVSPropertyOp2
 70
     1
102
RTVSPropertyOp3
 70
     1
102
RTVSPropertyOp4
 70
     1
102
RTVSPropertyOp5
 70
     1
102
RTVSPropertyOp6
 70
     1
102
RTVSPropertyOp7
 70
     1
102
RTVSPropertyOp8
 70
     1
102
RTVSPropertyOp9
 70
     1
102
RTVSPropertyOp10
 70
     1
102
RTVSPropertyOp11
 70
     1
102
RTVSPropertyOp12
 70
     1
102
RTVSPropertyOp13
 70
     1
102
RTVSPropertyOp14
 70
     1
102
RTVSPropertyOp15
 70
     1
102
RTVSPropertyOp16
 70
     1
102
RTVSPropertyOp17
 70
     1
102
RTVSPropertyOp18
 70
     1
102
RTVSPropertyOp19
 70
     1
102
RTVSPropertyOp20
 70
     1
102
RTVSPropertyOp21
 70
     1
102
RTVSPropertyOp22
 70
     1
102
RTVSPropertyOp23
 70
     1
102
RTVSPropertyOp24
 70
     1
102
RTVSPropertyOp25
 70
     1
102
RTVSPropertyOp26
 70
     1
102
RTVSPropertyOp27
 70
     1
  0
ENDSEC
  0
EOF
