  0
SECTION
  2
HEADER
  9
$ACADVER
  1
AC1015
  9
$ACADMAINTVER
 70
     6
  9
$DWGCODEPAGE
  3
ANSI_1252
  9
$INSBASE
 10
0.0
 20
0.0
 30
0.0
  9
$EXTMIN
 10
0.0
 20
0.0
 30
0.0
  9
$EXTMAX
 10
25.0
 20
35.0
 30
0.0
  9
$LIMMIN
 10
0.0
 20
0.0
  9
$LIMMAX
 10
420.0
 20
297.0
  9
$ORTHOMODE
 70
     0
  9
$REGENMODE
 70
     1
  9
$FILLMODE
 70
     1
  9
$QTEXTMODE
 70
     0
  9
$MIRRTEXT
 70
     1
  9
$LTSCALE
 40
4.4
  9
$ATTMODE
 70
     1
  9
$TEXTSIZE
 40
2.5
  9
$TRACEWID
 40
1.0
  9
$TEXTSTYLE
  7
Standard
  9
$CLAYER
  8
0
  9
$CELTYPE
  6
ByLayer
  9
$CECOLOR
 62
   256
  9
$CELTSCALE
 40
1.0
  9
$DISPSILH
 70
     0
  9
$DIMSCALE
 40
1.0
  9
$DIMASZ
 40
2.5
  9
$DIMEXO
 40
0.625
  9
$DIMDLI
 40
3.75
  9
$DIMRND
 40
0.0
  9
$DIMDLE
 40
0.0
  9
$DIMEXE
 40
1.25
  9
$DIMTP
 40
0.0
  9
$DIMTM
 40
0.0
  9
$DIMTXT
 40
2.5
  9
$DIMCEN
 40
2.5
  9
$DIMTSZ
 40
0.0
  9
$DIMTOL
 70
     0
  9
$DIMLIM
 70
     0
  9
$DIMTIH
 70
     0
  9
$DIMTOH
 70
     0
  9
$DIMSE1
 70
     0
  9
$DIMSE2
 70
     0
  9
$DIMTAD
 70
     1
  9
$DIMZIN
 70
     8
  9
$DIMBLK
  1

  9
$DIMASO
 70
     1
  9
$DIMSHO
 70
     1
  9
$DIMPOST
  1

  9
$DIMAPOST
  1

  9
$DIMALT
 70
     0
  9
$DIMALTD
 70
     3
  9
$DIMALTF
 40
0.03937007874016
  9
$DIMLFAC
 40
1.0
  9
$DIMTOFL
 70
     1
  9
$DIMTVP
 40
0.0
  9
$DIMTIX
 70
     0
  9
$DIMSOXD
 70
     0
  9
$DIMSAH
 70
     0
  9
$DIMBLK1
  1

  9
$DIMBLK2
  1

  9
$DIMSTYLE
  2
ISO-25
  9
$DIMCLRD
 70
     0
  9
$DIMCLRE
 70
     0
  9
$DIMCLRT
 70
     0
  9
$DIMTFAC
 40
1.0
  9
$DIMGAP
 40
0.625
  9
$DIMJUST
 70
     0
  9
$DIMSD1
 70
     0
  9
$DIMSD2
 70
     0
  9
$DIMTOLJ
 70
     0
  9
$DIMTZIN
 70
     8
  9
$DIMALTZ
 70
     0
  9
$DIMALTTZ
 70
     0
  9
$DIMUPT
 70
     0
  9
$DIMDEC
 70
     2
  9
$DIMTDEC
 70
     2
  9
$DIMALTU
 70
     2
  9
$DIMALTTD
 70
     3
  9
$DIMTXSTY
  7
Standard
  9
$DIMAUNIT
 70
     0
  9
$DIMADEC
 70
     0
  9
$DIMALTRND
 40
0.0
  9
$DIMAZIN
 70
     0
  9
$DIMDSEP
 70
    44
  9
$DIMATFIT
 70
     3
  9
$DIMFRAC
 70
     0
  9
$DIMLDRBLK
  1

  9
$DIMLUNIT
 70
     2
  9
$DIMLWD
 70
    -2
  9
$DIMLWE
 70
    -2
  9
$DIMTMOVE
 70
     0
  9
$LUNITS
 70
     2
  9
$LUPREC
 70
     4
  9
$SKETCHINC
 40
1.0
  9
$FILLETRAD
 40
10.0
  9
$AUNITS
 70
     0
  9
$AUPREC
 70
     0
  9
$MENU
  1
.
  9
$ELEVATION
 40
0.0
  9
$PELEVATION
 40
0.0
  9
$THICKNESS
 40
0.0
  9
$LIMCHECK
 70
     0
  9
$CHAMFERA
 40
10.0
  9
$CHAMFERB
 40
10.0
  9
$CHAMFERC
 40
20.0
  9
$CHAMFERD
 40
0.0
  9
$SKPOLY
 70
     0
  9
$TDCREATE
 40
2458578.172916667
  9
$TDUCREATE
 40
2458578.089583333
  9
$TDUPDATE
 40
2458578.176388889
  9
$TDUUPDATE
 40
2458578.093055556
  9
$TDINDWG
 40
0.0000000116
  9
$TDUSRTIMER
 40
0.0000000116
  9
$USRTIMER
 70
     1
  9
$ANGBASE
 50
0.0
  9
$ANGDIR
 70
     0
  9
$PDMODE
 70
     0
  9
$PDSIZE
 40
0.0
  9
$PLINEWID
 40
0.0
  9
$SPLFRAME
 70
     0
  9
$SPLINETYPE
 70
     6
  9
$SPLINESEGS
 70
     8
  9
$HANDSEED
  5
71B
  9
$SURFTAB1
 70
     6
  9
$SURFTAB2
 70
     6
  9
$SURFTYPE
 70
     6
  9
$SURFU
 70
     6
  9
$SURFV
 70
     6
  9
$UCSBASE
  2

  9
$UCSNAME
  2

  9
$UCSORG
 10
0.0
 20
0.0
 30
0.0
  9
$UCSXDIR
 10
1.0
 20
0.0
 30
0.0
  9
$UCSYDIR
 10
0.0
 20
1.0
 30
0.0
  9
$UCSORTHOREF
  2

  9
$UCSORTHOVIEW
 70
     0
  9
$UCSORGTOP
 10
0.0
 20
0.0
 30
0.0
  9
$UCSORGBOTTOM
 10
0.0
 20
0.0
 30
0.0
  9
$UCSORGLEFT
 10
0.0
 20
0.0
 30
0.0
  9
$UCSORGRIGHT
 10
0.0
 20
0.0
 30
0.0
  9
$UCSORGFRONT
 10
0.0
 20
0.0
 30
0.0
  9
$UCSORGBACK
 10
0.0
 20
0.0
 30
0.0
  9
$PUCSBASE
  2

  9
$PUCSNAME
  2

  9
$PUCSORG
 10
0.0
 20
0.0
 30
0.0
  9
$PUCSXDIR
 10
1.0
 20
0.0
 30
0.0
  9
$PUCSYDIR
 10
0.0
 20
1.0
 30
0.0
  9
$PUCSORTHOREF
  2

  9
$PUCSORTHOVIEW
 70
     0
  9
$PUCSORGTOP
 10
0.0
 20
0.0
 30
0.0
  9
$PUCSORGBOTTOM
 10
0.0
 20
0.0
 30
0.0
  9
$PUCSORGLEFT
 10
0.0
 20
0.0
 30
0.0
  9
$PUCSORGRIGHT
 10
0.0
 20
0.0
 30
0.0
  9
$PUCSORGFRONT
 10
0.0
 20
0.0
 30
0.0
  9
$PUCSORGBACK
 10
0.0
 20
0.0
 30
0.0
  9
$USERI1
 70
     0
  9
$USERI2
 70
     0
  9
$USERI3
 70
     0
  9
$USERI4
 70
     0
  9
$USERI5
 70
     0
  9
$USERR1
 40
0.0
  9
$USERR2
 40
0.0
  9
$USERR3
 40
0.0
  9
$USERR4
 40
0.0
  9
$USERR5
 40
0.0
  9
$WORLDVIEW
 70
     1
  9
$SHADEDGE
 70
     3
  9
$SHADEDIF
 70
    70
  9
$TILEMODE
 70
     1
  9
$MAXACTVP
 70
    64
  9
$PINSBASE
 10
0.0
 20
0.0
 30
0.0
  9
$PLIMCHECK
 70
     0
  9
$PEXTMIN
 10
1.000000000000000E+20
 20
1.000000000000000E+20
 30
1.000000000000000E+20
  9
$PEXTMAX
 10
-1.000000000000000E+20
 20
-1.000000000000000E+20
 30
-1.000000000000000E+20
  9
$PLIMMIN
 10
0.0
 20
0.0
  9
$PLIMMAX
 10
420.0
 20
297.0
  9
$UNITMODE
 70
     0
  9
$VISRETAIN
 70
     1
  9
$PLINEGEN
 70
     0
  9
$PSLTSCALE
 70
     1
  9
$TREEDEPTH
 70
  3020
  9
$CMLSTYLE
  2
Standard
  9
$CMLJUST
 70
     0
  9
$CMLSCALE
 40
20.0
  9
$PROXYGRAPHICS
 70
     1
  9
$MEASUREMENT
 70
     1
  9
$CELWEIGHT
370
    -1
  9
$ENDCAPS
280
     0
  9
$JOINSTYLE
280
     0
  9
$LWDISPLAY
290
     0
  9
$INSUNITS
 70
     4
  9
$HYPERLINKBASE
  1

  9
$STYLESHEET
  1

  9
$XEDIT
290
     1
  9
$CEPSNTYPE
380
     0
  9
$PSTYLEMODE
290
     1
  9
$FINGERPRINTGUID
  2
{87A7772B-E37A-419A-A857-656F3BBAC55F}
  9
$VERSIONGUID
  2
{FAEB1C32-E019-11D5-929B-00C0DF256EC4}
  9
$EXTNAMES
290
     1
  9
$PSVPSCALE
 40
0.0
  9
$OLESTARTUP
290
     0
  0
ENDSEC
  0
SECTION
  2
CLASSES
  0
CLASS
  1
ACDBDICTIONARYWDFLT
  2
AcDbDictionaryWithDefault
  3
ObjectDBX Classes
 90
        0
280
     0
281
     0
  0
CLASS
  1
VISUALSTYLE
  2
AcDbVisualStyle
  3
ObjectDBX Classes
 90
     4095
280
     0
281
     0
  0
CLASS
  1
MATERIAL
  2
AcDbMaterial
  3
ObjectDBX Classes
 90
     1153
280
     0
281
     0
  0
CLASS
  1
SCALE
  2
AcDbScale
  3
ObjectDBX Classes
 90
     1153
280
     0
281
     0
  0
CLASS
  1
DICTIONARYVAR
  2
AcDbDictionaryVar
  3
ObjectDBX Classes
 90
        0
280
     0
281
     0
  0
CLASS
  1
ACDBPLACEHOLDER
  2
AcDbPlaceHolder
  3
ObjectDBX Classes
 90
        0
280
     0
281
     0
  0
CLASS
  1
LAYOUT
  2
AcDbLayout
  3
ObjectDBX Classes
 90
        0
280
     0
281
     0
  0
ENDSEC
  0
SECTION
  2
TABLES
  0
TABLE
  2
VPORT
  5
8
330
0
100
AcDbSymbolTable
 70
     1
  0
VPORT
  5
29
330
8
100
AcDbSymbolTableRecord
100
AcDbViewportTableRecord
  2
*Active
 70
     0
 10
0.0
 20
0.0
 11
1.0
 21
1.0
 12
11.26
 22
4.5
 13
0.0
 23
0.0
 14
10.0
 24
10.0
 15
10.0
 25
10.0
 16
0.0
 26
0.0
 36
1.0
 17
0.0
 27
0.0
 37
0.0
 40
9.0
 41
2.503333333333333
 42
50.0
 43
0.0
 44
0.0
 50
0.0
 51
0.0
 71
     0
 72
   100
 73
     1
 74
     3
 75
     0
 76
     0
 77
     0
 78
     0
281
     0
 65
     1
110
0.0
120
0.0
130
0.0
111
1.0
121
0.0
131
0.0
112
0.0
122
1.0
132
0.0
 79
     0
146
0.0
  0
ENDTAB
  0
TABLE
  2
LTYPE
  5
5
330
0
100
AcDbSymbolTable
 70
    10
  0
LTYPE
  5
14
330
5
100
AcDbSymbolTableRecord
100
AcDbLinetypeTableRecord
  2
ByBlock
 70
     0
  3

 72
    65
 73
     0
 40
0.0
  0
LTYPE
  5
15
330
5
100
AcDbSymbolTableRecord
100
AcDbLinetypeTableRecord
  2
ByLayer
 70
     0
  3

 72
    65
 73
     0
 40
0.0
  0
LTYPE
  5
16
330
5
100
AcDbSymbolTableRecord
100
AcDbLinetypeTableRecord
  2
Continuous
 70
     0
  3
Solid line
 72
    65
 73
     0
 40
0.0
  0
LTYPE
  5
45
330
5
100
AcDbSymbolTableRecord
100
AcDbLinetypeTableRecord
  2
phl_thick
 70
     0
  3
THICK
 72
    65
 73
     0
 40
0.0
  0
LTYPE
  5
113
330
5
100
AcDbSymbolTableRecord
100
AcDbLinetypeTableRecord
  2
CUT
 70
     0
  3
THICK
 72
    65
 73
     0
 40
0.0
  0
LTYPE
  5
11A
330
5
100
AcDbSymbolTableRecord
100
AcDbLinetypeTableRecord
  2
NOCUT
 70
     0
  3
THICK
 72
    65
 73
     0
 40
0.0
  0
LTYPE
  5
123
330
5
100
AcDbSymbolTableRecord
100
AcDbLinetypeTableRecord
  2
SK1
 70
     0
  3
THICK
 72
    65
 73
     0
 40
0.0
  0
LTYPE
  5
12B
330
5
100
AcDbSymbolTableRecord
100
AcDbLinetypeTableRecord
  2
ls_SK2
 70
     0
  3
THIN
 72
    65
 73
     0
 40
0.0
  0
LTYPE
  5
1D7
330
5
100
AcDbSymbolTableRecord
100
AcDbLinetypeTableRecord
  2
ls_2
 70
     0
  3
THIN
 72
    65
 73
     0
 40
0.0
  0
LTYPE
  5
369
330
5
100
AcDbSymbolTableRecord
100
AcDbLinetypeTableRecord
  2
ls_SK1
 70
     0
  3
THICK
 72
    65
 73
     0
 40
0.0
  0
LTYPE
  5
3A3
330
5
100
AcDbSymbolTableRecord
100
AcDbLinetypeTableRecord
  2
LONGDASH_DASH
 70
     0
  3
THIN_DASHDOT
 72
    65
 73
     4
 40
0.85
 49
0.4
 74
     0
 49
-0.2
 74
     0
 49
0.05
 74
     0
 49
-0.2
 74
     0
  0
LTYPE
  5
3A8
330
5
100
AcDbSymbolTableRecord
100
AcDbLinetypeTableRecord
  2
ls1
 70
     0
  3
THICK
 72
    65
 73
     0
 40
0.0
  0
ENDTAB
  0
TABLE
  2
LAYER
  5
2
330
0
100
AcDbSymbolTable
 70
    10
  0
LAYER
  5
10
330
2
100
AcDbSymbolTableRecord
100
AcDbLayerTableRecord
  2
0
 70
     0
 62
     7
  6
Continuous
370
    -3
390
F
  0
LAYER
  5
44
330
2
100
AcDbSymbolTableRecord
100
AcDbLayerTableRecord
  2
1
 70
     0
 62
4
  6
CONTINUOUS
370
50
370
    -3
390
F
  0
LAYER
  5
112
330
2
100
AcDbSymbolTableRecord
100
AcDbLayerTableRecord
  2
CUT
 70
     0
 62
1
  6
CONTINUOUS
370
25
370
    -3
390
F
  0
LAYER
  5
119
330
2
100
AcDbSymbolTableRecord
100
AcDbLayerTableRecord
  2
NOCUT
 70
     0
 62
7
  6
CONTINUOUS
370
25
370
    -3
390
F
  0
LAYER
  5
122
330
2
100
AcDbSymbolTableRecord
100
AcDbLayerTableRecord
  2
SK1
 70
     0
 62
4
  6
CONTINUOUS
370
50
370
    -3
390
F
  0
LAYER
  5
12A
330
2
100
AcDbSymbolTableRecord
100
AcDbLayerTableRecord
  2
SK2
 70
     0
 62
7
  6
CONTINUOUS
370
25
370
    -3
390
F
  0
LAYER
  5
1D6
330
2
100
AcDbSymbolTableRecord
100
AcDbLayerTableRecord
  2
2
 70
     0
 62
7
  6
CONTINUOUS
370
25
370
    -3
390
F
  0
LAYER
  5
3A2
330
2
100
AcDbSymbolTableRecord
100
AcDbLayerTableRecord
  2
4
 70
     0
 62
2
  6
LONGDASH_DASH
370
25
370
    -3
390
F
  0
LAYER
  5
3A5
330
2
100
AcDbSymbolTableRecord
100
AcDbLayerTableRecord
  2
SK4
 70
     0
 62
2
  6
LONGDASH_DASH
370
25
370
    -3
390
F
  0
LAYER
  5
3A7
330
2
100
AcDbSymbolTableRecord
100
AcDbLayerTableRecord
  2
SK6
 70
     0
 62
5
  6
CONTINUOUS
370
25
370
    -3
390
F
  0
ENDTAB
  0
TABLE
  2
STYLE
  5
3
330
0
100
AcDbSymbolTable
 70
     1
  0
STYLE
  5
11
330
3
100
AcDbSymbolTableRecord
100
AcDbTextStyleTableRecord
  2
Standard
 70
     0
 40
0.0
 41
1.0
 50
0.0
 71
     0
 42
2.5
  3
Monospac821 BT
  4

  0
ENDTAB
  0
TABLE
  2
VIEW
  5
6
330
0
100
AcDbSymbolTable
 70
     0
  0
ENDTAB
  0
TABLE
  2
UCS
  5
7
330
0
100
AcDbSymbolTable
 70
     0
  0
ENDTAB
  0
TABLE
  2
APPID
  5
9
330
0
100
AcDbSymbolTable
 70
     2
  0
APPID
  5
12
330
9
100
AcDbSymbolTableRecord
100
AcDbRegAppTableRecord
  2
ACAD
 70
     0
  0
APPID
  5
3F
330
9
100
AcDbSymbolTableRecord
100
AcDbRegAppTableRecord
  2
ccLab
 70
     0
  0
ENDTAB
  0
TABLE
  2
DIMSTYLE
  5
A
330
0
100
AcDbSymbolTable
 70
     1
100
AcDbDimStyleTable
  0
DIMSTYLE
105
27
330
A
100
AcDbSymbolTableRecord
100
AcDbDimStyleTableRecord
  2
ISO-25
 70
     0
 41
2.5
 42
0.625
 43
3.75
 44
1.25
 73
     0
 74
     0
 77
     1
 78
     8
140
2.5
141
2.5
143
0.03937007874016
147
0.625
171
     3
172
     1
271
     2
272
     2
274
     3
278
    44
283
     0
284
     8
340
11
  0
ENDTAB
  0
TABLE
  2
BLOCK_RECORD
  5
1
330
0
100
AcDbSymbolTable
 70
     2
  0
BLOCK_RECORD
  5
1F
330
1
100
AcDbSymbolTableRecord
100
AcDbBlockTableRecord
  2
*Model_Space
340
22
  0
BLOCK_RECORD
  5
1B
330
1
100
AcDbSymbolTableRecord
100
AcDbBlockTableRecord
  2
*Paper_Space
340
1E
  0
BLOCK_RECORD
  5
23
330
1
100
AcDbSymbolTableRecord
100
AcDbBlockTableRecord
  2
*Paper_Space0
340
26
  0
ENDTAB
  0
ENDSEC
  0
SECTION
  2
BLOCKS
  0
BLOCK
  5
20
330
1F
100
AcDbEntity
  8
0
100
AcDbBlockBegin
  2
*Model_Space
 70
     0
 10
0.0
 20
0.0
 30
0.0
  3
*Model_Space
  1

  0
ENDBLK
  5
21
330
1F
100
AcDbEntity
  8
0
100
AcDbBlockEnd
  0
BLOCK
  5
1C
330
1B
100
AcDbEntity
 67
     1
  8
0
100
AcDbBlockBegin
  2
*Paper_Space
 70
     0
 10
0.0
 20
0.0
 30
0.0
  3
*Paper_Space
  1

  0
ENDBLK
  5
1D
330
1B
100
AcDbEntity
 67
     1
  8
0
100
AcDbBlockEnd
  0
BLOCK
  5
24
330
23
100
AcDbEntity
  8
0
100
AcDbBlockBegin
  2
*Paper_Space0
 70
     0
 10
0.0
 20
0.0
 30
0.0
  3
*Paper_Space0
  1

  0
ENDBLK
  5
25
330
23
100
AcDbEntity
  8
0
100
AcDbBlockEnd
  0
ENDSEC
  0
SECTION
  2
ENTITIES
  0
LINE
  5
3B2
330
1F
100
AcDbEntity
  8
1
  6
CONTINUOUS
370
50
 62
4
100
AcDbLine
 10
58.146351
 20
-0.044519
 30
0.0
 11
58.146336
 21
-0.040225
 31
0.0
  0
LINE
  5
3B3
330
1F
100
AcDbEntity
  8
1
  6
CONTINUOUS
370
50
 62
4
100
AcDbLine
 10
58.146629
 20
-0.048828
 30
0.0
 11
58.146351
 21
-0.044519
 31
0.0
  0
LINE
  5
3B4
330
1F
100
AcDbEntity
  8
1
  6
CONTINUOUS
370
50
 62
4
100
AcDbLine
 10
58.147163
 20
-0.053096
 30
0.0
 11
58.146629
 21
-0.048828
 31
0.0
  0
LINE
  5
3B5
330
1F
100
AcDbEntity
  8
1
  6
CONTINUOUS
370
50
 62
4
100
AcDbLine
 10
58.147938
 20
-0.05731
 30
0.0
 11
58.147163
 21
-0.053096
 31
0.0
  0
LINE
  5
3B6
330
1F
100
AcDbEntity
  8
1
  6
CONTINUOUS
370
50
 62
4
100
AcDbLine
 10
58.148937
 20
-0.061468
 30
0.0
 11
58.147938
 21
-0.05731
 31
0.0
  0
LINE
  5
3B7
330
1F
100
AcDbEntity
  8
1
  6
CONTINUOUS
370
50
 62
4
100
AcDbLine
 10
58.150158
 20
-0.065567
 30
0.0
 11
58.148937
 21
-0.061468
 31
0.0
  0
LINE
  5
3B8
330
1F
100
AcDbEntity
  8
1
  6
CONTINUOUS
370
50
 62
4
100
AcDbLine
 10
60.0
 20
0.068068
 30
0.0
 11
59.94154
 21
0.247995
 31
0.0
  0
LINE
  5
3B9
330
1F
100
AcDbEntity
  8
1
  6
CONTINUOUS
370
50
 62
4
100
AcDbLine
 10
58.151585
 20
-0.069604
 30
0.0
 11
58.150158
 21
-0.065567
 31
0.0
  0
LINE
  5
3BA
330
1F
100
AcDbEntity
  8
1
  6
CONTINUOUS
370
50
 62
4
100
AcDbLine
 10
58.153206
 20
-0.073577
 30
0.0
 11
58.151585
 21
-0.069604
 31
0.0
  0
LINE
  5
3BB
330
1F
100
AcDbEntity
  8
1
  6
CONTINUOUS
370
50
 62
4
100
AcDbLine
 10
58.155006
 20
-0.077481
 30
0.0
 11
58.153206
 21
-0.073577
 31
0.0
  0
LINE
  5
3BC
330
1F
100
AcDbEntity
  8
1
  6
CONTINUOUS
370
50
 62
4
100
AcDbLine
 10
58.187012
 20
-0.12915
 30
0.0
 11
58.17119599999999
 21
-0.103486
 31
0.0
  0
LINE
  5
3BD
330
1F
100
AcDbEntity
  8
1
  6
CONTINUOUS
370
50
 62
4
100
AcDbLine
 10
58.202591
 20
-0.15441
 30
0.0
 11
58.187012
 21
-0.12915
 31
0.0
  0
LINE
  5
3BE
330
1F
100
AcDbEntity
  8
1
  6
CONTINUOUS
370
50
 62
4
100
AcDbLine
 10
58.17119599999999
 20
-0.103486
 30
0.0
 11
58.155006
 21
-0.077481
 31
0.0
  0
LINE
  5
3BF
330
1F
100
AcDbEntity
  8
1
  6
CONTINUOUS
370
50
 62
4
100
AcDbLine
 10
58.218067
 20
-0.179204
 30
0.0
 11
58.202591
 21
-0.15441
 31
0.0
  0
LINE
  5
3C0
330
1F
100
AcDbEntity
  8
1
  6
CONTINUOUS
370
50
 62
4
100
AcDbLine
 10
58.233582
 20
-0.20347
 30
0.0
 11
58.218067
 21
-0.179204
 31
0.0
  0
LINE
  5
3C1
330
1F
100
AcDbEntity
  8
1
  6
CONTINUOUS
370
50
 62
4
100
AcDbLine
 10
58.249271
 20
-0.227146
 30
0.0
 11
58.233582
 21
-0.20347
 31
0.0
  0
LINE
  5
3C2
330
1F
100
AcDbEntity
  8
1
  6
CONTINUOUS
370
50
 62
4
100
AcDbLine
 10
58.26526999999999
 20
-0.25017
 30
0.0
 11
58.249271
 21
-0.227146
 31
0.0
  0
LINE
  5
3C3
330
1F
100
AcDbEntity
  8
1
  6
CONTINUOUS
370
50
 62
4
100
AcDbLine
 10
58.281551
 20
-0.272253
 30
0.0
 11
58.26526999999999
 21
-0.25017
 31
0.0
  0
LINE
  5
3C4
330
1F
100
AcDbEntity
  8
1
  6
CONTINUOUS
370
50
 62
4
100
AcDbLine
 10
58.298115
 20
-0.293168
 30
0.0
 11
58.281551
 21
-0.272253
 31
0.0
  0
LINE
  5
3C5
330
1F
100
AcDbEntity
  8
1
  6
CONTINUOUS
370
50
 62
4
100
AcDbLine
 10
58.315086
 20
-0.31291
 30
0.0
 11
58.298115
 21
-0.293168
 31
0.0
  0
LINE
  5
3C6
330
1F
100
AcDbEntity
  8
1
  6
CONTINUOUS
370
50
 62
4
100
AcDbLine
 10
58.332607
 20
-0.331472
 30
0.0
 11
58.315086
 21
-0.31291
 31
0.0
  0
LINE
  5
3C7
330
1F
100
AcDbEntity
  8
1
  6
CONTINUOUS
370
50
 62
4
100
AcDbLine
 10
58.147388
 20
0.471815
 30
0.0
 11
58.146366
 21
0.472819
 31
0.0
  0
LINE
  5
3C8
330
1F
100
AcDbEntity
  8
1
  6
CONTINUOUS
370
50
 62
4
100
AcDbLine
 10
58.341972
 20
0.33096
 30
0.0
 11
58.32291
 21
0.349658
 31
0.0
  0
LINE
  5
3C9
330
1F
100
AcDbEntity
  8
1
  6
CONTINUOUS
370
50
 62
4
100
AcDbLine
 10
58.36189299999999
 20
0.311523
 30
0.0
 11
58.341972
 21
0.33096
 31
0.0
  0
LINE
  5
3CA
330
1F
100
AcDbEntity
  8
1
  6
CONTINUOUS
370
50
 62
4
100
AcDbLine
 10
58.32291
 20
0.349658
 30
0.0
 11
58.30454599999999
 21
0.36751
 31
0.0
  0
LINE
  5
3CB
330
1F
100
AcDbEntity
  8
1
  6
CONTINUOUS
370
50
 62
4
100
AcDbLine
 10
58.382797
 20
0.291492
 30
0.0
 11
58.36189299999999
 21
0.311523
 31
0.0
  0
LINE
  5
3CC
330
1F
100
AcDbEntity
  8
1
  6
CONTINUOUS
370
50
 62
4
100
AcDbLine
 10
58.350811
 20
-0.348848
 30
0.0
 11
58.332607
 21
-0.331472
 31
0.0
  0
LINE
  5
3CD
330
1F
100
AcDbEntity
  8
1
  6
CONTINUOUS
370
50
 62
4
100
AcDbLine
 10
58.30454599999999
 20
0.36751
 30
0.0
 11
58.28670899999999
 21
0.384411
 31
0.0
  0
LINE
  5
3CE
330
1F
100
AcDbEntity
  8
1
  6
CONTINUOUS
370
50
 62
4
100
AcDbLine
 10
58.404461
 20
0.271354
 30
0.0
 11
58.382797
 21
0.291492
 31
0.0
  0
LINE
  5
3CF
330
1F
100
AcDbEntity
  8
1
  6
CONTINUOUS
370
50
 62
4
100
AcDbLine
 10
58.28670899999999
 20
0.384411
 30
0.0
 11
58.26923799999999
 21
0.400253
 31
0.0
  0
LINE
  5
3D0
330
1F
100
AcDbEntity
  8
1
  6
CONTINUOUS
370
50
 62
4
100
AcDbLine
 10
58.426899
 20
0.251259
 30
0.0
 11
58.404461
 21
0.271354
 31
0.0
  0
LINE
  5
3D1
330
1F
100
AcDbEntity
  8
1
  6
CONTINUOUS
370
50
 62
4
100
AcDbLine
 10
58.450226
 20
0.231255
 30
0.0
 11
58.426899
 21
0.251259
 31
0.0
  0
LINE
  5
3D2
330
1F
100
AcDbEntity
  8
1
  6
CONTINUOUS
370
50
 62
4
100
AcDbLine
 10
58.369831
 20
-0.365032
 30
0.0
 11
58.350811
 21
-0.348848
 31
0.0
  0
LINE
  5
3D3
330
1F
100
AcDbEntity
  8
1
  6
CONTINUOUS
370
50
 62
4
100
AcDbLine
 10
58.26923799999999
 20
0.400253
 30
0.0
 11
58.252064
 21
0.414848
 31
0.0
  0
LINE
  5
3D4
330
1F
100
AcDbEntity
  8
1
  6
CONTINUOUS
370
50
 62
4
100
AcDbLine
 10
58.474556
 20
0.211387
 30
0.0
 11
58.450226
 21
0.231255
 31
0.0
  0
LINE
  5
3D5
330
1F
100
AcDbEntity
  8
1
  6
CONTINUOUS
370
50
 62
4
100
AcDbLine
 10
58.252064
 20
0.414848
 30
0.0
 11
58.23526
 21
0.427925
 31
0.0
  0
LINE
  5
3D6
330
1F
100
AcDbEntity
  8
1
  6
CONTINUOUS
370
50
 62
4
100
AcDbLine
 10
58.5
 20
0.191699
 30
0.0
 11
58.474556
 21
0.211387
 31
0.0
  0
LINE
  5
3D7
330
1F
100
AcDbEntity
  8
1
  6
CONTINUOUS
370
50
 62
4
100
AcDbLine
 10
58.38967899999999
 20
-0.379932
 30
0.0
 11
58.369831
 21
-0.365032
 31
0.0
  0
LINE
  5
3D8
330
1F
100
AcDbEntity
  8
1
  6
CONTINUOUS
370
50
 62
4
100
AcDbLine
 10
58.23526
 20
0.427925
 30
0.0
 11
58.21867
 21
0.43945
 31
0.0
  0
LINE
  5
3D9
330
1F
100
AcDbEntity
  8
1
  6
CONTINUOUS
370
50
 62
4
100
AcDbLine
 10
58.410145
 20
-0.393383
 30
0.0
 11
58.38967899999999
 21
-0.379932
 31
0.0
  0
LINE
  5
3DA
330
1F
100
AcDbEntity
  8
1
  6
CONTINUOUS
370
50
 62
4
100
AcDbLine
 10
58.244339
 20
0.422853
 30
0.0
 11
58.21867
 21
0.439456
 31
0.0
  0
LINE
  5
3DB
330
1F
100
AcDbEntity
  8
1
  6
CONTINUOUS
370
50
 62
4
100
AcDbLine
 10
58.270077
 20
0.406354
 30
0.0
 11
58.244339
 21
0.422853
 31
0.0
  0
LINE
  5
3DC
330
1F
100
AcDbEntity
  8
1
  6
CONTINUOUS
370
50
 62
4
100
AcDbLine
 10
58.319332
 20
0.375267
 30
0.0
 11
58.270077
 21
0.406354
 31
0.0
  0
LINE
  5
3DD
330
1F
100
AcDbEntity
  8
1
  6
CONTINUOUS
370
50
 62
4
100
AcDbLine
 10
58.384441
 20
0.334762
 30
0.0
 11
58.319332
 21
0.375267
 31
0.0
  0
LINE
  5
3DE
330
1F
100
AcDbEntity
  8
1
  6
CONTINUOUS
370
50
 62
4
100
AcDbLine
 10
58.21867
 20
0.43945
 30
0.0
 11
58.208256
 21
0.445903
 31
0.0
  0
LINE
  5
3DF
330
1F
100
AcDbEntity
  8
1
  6
CONTINUOUS
370
50
 62
4
100
AcDbLine
 10
58.442074
 20
0.299736
 30
0.0
 11
58.384441
 21
0.334762
 31
0.0
  0
LINE
  5
3E0
330
1F
100
AcDbEntity
  8
1
  6
CONTINUOUS
370
50
 62
4
100
AcDbLine
 10
58.148186
 20
0.471339
 30
0.0
 11
58.147388
 21
0.471815
 31
0.0
  0
LINE
  5
3E1
330
1F
100
AcDbEntity
  8
1
  6
CONTINUOUS
370
50
 62
4
100
AcDbLine
 10
58.5
 20
0.265227
 30
0.0
 11
58.442074
 21
0.299736
 31
0.0
  0
LINE
  5
3E2
330
1F
100
AcDbEntity
  8
1
  6
CONTINUOUS
370
50
 62
4
100
AcDbLine
 10
58.43132
 20
-0.405474
 30
0.0
 11
58.410145
 21
-0.393383
 31
0.0
  0
LINE
  5
3E3
330
1F
100
AcDbEntity
  8
1
  6
CONTINUOUS
370
50
 62
4
100
AcDbLine
 10
58.208256
 20
0.445903
 30
0.0
 11
58.197819
 21
0.451725
 31
0.0
  0
LINE
  5
3E4
330
1F
100
AcDbEntity
  8
1
  6
CONTINUOUS
370
50
 62
4
100
AcDbLine
 10
58.149185
 20
0.470837
 30
0.0
 11
58.148186
 21
0.471339
 31
0.0
  0
LINE
  5
3E5
330
1F
100
AcDbEntity
  8
1
  6
CONTINUOUS
370
50
 62
4
100
AcDbLine
 10
58.197819
 20
0.451725
 30
0.0
 11
58.187317
 21
0.45691
 31
0.0
  0
LINE
  5
3E6
330
1F
100
AcDbEntity
  8
1
  6
CONTINUOUS
370
50
 62
4
100
AcDbLine
 10
58.453293
 20
-0.4163
 30
0.0
 11
58.43132
 21
-0.405474
 31
0.0
  0
LINE
  5
3E7
330
1F
100
AcDbEntity
  8
1
  6
CONTINUOUS
370
50
 62
4
100
AcDbLine
 10
58.15037899999999
 20
0.470309
 30
0.0
 11
58.149185
 21
0.470837
 31
0.0
  0
LINE
  5
3E8
330
1F
100
AcDbEntity
  8
1
  6
CONTINUOUS
370
50
 62
4
100
AcDbLine
 10
58.187317
 20
0.45691
 30
0.0
 11
58.176708
 21
0.461453
 31
0.0
  0
LINE
  5
3E9
330
1F
100
AcDbEntity
  8
1
  6
CONTINUOUS
370
50
 62
4
100
AcDbLine
 10
58.47615399999999
 20
-0.425958
 30
0.0
 11
58.453293
 21
-0.4163
 31
0.0
  0
LINE
  5
3EA
330
1F
100
AcDbEntity
  8
1
  6
CONTINUOUS
370
50
 62
4
100
AcDbLine
 10
58.15175199999999
 20
0.469757
 30
0.0
 11
58.15037899999999
 21
0.470309
 31
0.0
  0
LINE
  5
3EB
330
1F
100
AcDbEntity
  8
1
  6
CONTINUOUS
370
50
 62
4
100
AcDbLine
 10
58.15329699999999
 20
0.469183
 30
0.0
 11
58.15175199999999
 21
0.469757
 31
0.0
  0
LINE
  5
3EC
330
1F
100
AcDbEntity
  8
1
  6
CONTINUOUS
370
50
 62
4
100
AcDbLine
 10
58.176708
 20
0.461453
 30
0.0
 11
58.165951
 21
0.465347
 31
0.0
  0
LINE
  5
3ED
330
1F
100
AcDbEntity
  8
1
  6
CONTINUOUS
370
50
 62
4
100
AcDbLine
 10
58.5
 20
-0.434544
 30
0.0
 11
58.47615399999999
 21
-0.425958
 31
0.0
  0
LINE
  5
3EE
330
1F
100
AcDbEntity
  8
1
  6
CONTINUOUS
370
50
 62
4
100
AcDbLine
 10
58.155006
 20
0.468587
 30
0.0
 11
58.15329699999999
 21
0.469183
 31
0.0
  0
LINE
  5
3EF
330
1F
100
AcDbEntity
  8
1
  6
CONTINUOUS
370
50
 62
4
100
AcDbLine
 10
58.165951
 20
0.465347
 30
0.0
 11
58.155006
 21
0.468587
 31
0.0
  0
LINE
  5
3F0
330
1F
100
AcDbEntity
  8
1
  6
CONTINUOUS
370
50
 62
4
100
AcDbLine
 10
55.0
 20
0.47495
 30
0.0
 11
45.5
 21
2.99995
 31
0.0
  0
LINE
  5
3F1
330
1F
100
AcDbEntity
  8
1
  6
CONTINUOUS
370
50
 62
4
100
AcDbLine
 10
58.20837
 20
0.473178
 30
0.0
 11
58.20126
 21
0.47351
 31
0.0
  0
LINE
  5
3F2
330
1F
100
AcDbEntity
  8
1
  6
CONTINUOUS
370
50
 62
4
100
AcDbLine
 10
58.215816
 20
0.472831
 30
0.0
 11
58.20837
 21
0.473178
 31
0.0
  0
LINE
  5
3F3
330
1F
100
AcDbEntity
  8
1
  6
CONTINUOUS
370
50
 62
4
100
AcDbLine
 10
58.20126
 20
0.47351
 30
0.0
 11
58.1945
 21
0.473823
 31
0.0
  0
LINE
  5
3F4
330
1F
100
AcDbEntity
  8
1
  6
CONTINUOUS
370
50
 62
4
100
AcDbLine
 10
58.223579
 20
0.472475
 30
0.0
 11
58.215816
 21
0.472831
 31
0.0
  0
LINE
  5
3F5
330
1F
100
AcDbEntity
  8
1
  6
CONTINUOUS
370
50
 62
4
100
AcDbLine
 10
58.1945
 20
0.473823
 30
0.0
 11
58.187973
 21
0.474115
 31
0.0
  0
LINE
  5
3F6
330
1F
100
AcDbEntity
  8
1
  6
CONTINUOUS
370
50
 62
4
100
AcDbLine
 10
58.231644
 20
0.472115
 30
0.0
 11
58.223579
 21
0.472475
 31
0.0
  0
LINE
  5
3F7
330
1F
100
AcDbEntity
  8
1
  6
CONTINUOUS
370
50
 62
4
100
AcDbLine
 10
58.239994
 20
0.471756
 30
0.0
 11
58.231644
 21
0.472115
 31
0.0
  0
LINE
  5
3F8
330
1F
100
AcDbEntity
  8
1
  6
CONTINUOUS
370
50
 62
4
100
AcDbLine
 10
58.187973
 20
0.474115
 30
0.0
 11
58.181675
 21
0.474381
 31
0.0
  0
LINE
  5
3F9
330
1F
100
AcDbEntity
  8
1
  6
CONTINUOUS
370
50
 62
4
100
AcDbLine
 10
58.248611
 20
0.471404
 30
0.0
 11
58.239994
 21
0.471756
 31
0.0
  0
LINE
  5
3FA
330
1F
100
AcDbEntity
  8
1
  6
CONTINUOUS
370
50
 62
4
100
AcDbLine
 10
58.257484
 20
0.471065
 30
0.0
 11
58.248611
 21
0.471404
 31
0.0
  0
LINE
  5
3FB
330
1F
100
AcDbEntity
  8
1
  6
CONTINUOUS
370
50
 62
4
100
AcDbLine
 10
58.181675
 20
0.474381
 30
0.0
 11
58.17567099999999
 21
0.474609
 31
0.0
  0
LINE
  5
3FC
330
1F
100
AcDbEntity
  8
1
  6
CONTINUOUS
370
50
 62
4
100
AcDbLine
 10
58.266575
 20
0.470744
 30
0.0
 11
58.257484
 21
0.471065
 31
0.0
  0
LINE
  5
3FD
330
1F
100
AcDbEntity
  8
1
  6
CONTINUOUS
370
50
 62
4
100
AcDbLine
 10
58.275795
 20
0.470448
 30
0.0
 11
58.266575
 21
0.470744
 31
0.0
  0
LINE
  5
3FE
330
1F
100
AcDbEntity
  8
1
  6
CONTINUOUS
370
50
 62
4
100
AcDbLine
 10
58.17567099999999
 20
0.474609
 30
0.0
 11
58.170021
 21
0.474788
 31
0.0
  0
LINE
  5
3FF
330
1F
100
AcDbEntity
  8
1
  6
CONTINUOUS
370
50
 62
4
100
AcDbLine
 10
58.285107
 20
0.470182
 30
0.0
 11
58.275795
 21
0.470448
 31
0.0
  0
LINE
  5
400
330
1F
100
AcDbEntity
  8
1
  6
CONTINUOUS
370
50
 62
4
100
AcDbLine
 10
58.294491
 20
0.469947
 30
0.0
 11
58.285107
 21
0.470182
 31
0.0
  0
LINE
  5
401
330
1F
100
AcDbEntity
  8
1
  6
CONTINUOUS
370
50
 62
4
100
AcDbLine
 10
58.170021
 20
0.474788
 30
0.0
 11
58.164803
 21
0.474906
 31
0.0
  0
LINE
  5
402
330
1F
100
AcDbEntity
  8
1
  6
CONTINUOUS
370
50
 62
4
100
AcDbLine
 10
58.303936
 20
0.469744
 30
0.0
 11
58.294491
 21
0.469947
 31
0.0
  0
LINE
  5
403
330
1F
100
AcDbEntity
  8
1
  6
CONTINUOUS
370
50
 62
4
100
AcDbLine
 10
58.313416
 20
0.469575
 30
0.0
 11
58.303936
 21
0.469744
 31
0.0
  0
LINE
  5
404
330
1F
100
AcDbEntity
  8
1
  6
CONTINUOUS
370
50
 62
4
100
AcDbLine
 10
58.32291799999999
 20
0.469443
 30
0.0
 11
58.313416
 21
0.469575
 31
0.0
  0
LINE
  5
405
330
1F
100
AcDbEntity
  8
1
  6
CONTINUOUS
370
50
 62
4
100
AcDbLine
 10
58.332428
 20
0.469348
 30
0.0
 11
58.32291799999999
 21
0.469443
 31
0.0
  0
LINE
  5
406
330
1F
100
AcDbEntity
  8
1
  6
CONTINUOUS
370
50
 62
4
100
AcDbLine
 10
58.164803
 20
0.474906
 30
0.0
 11
58.160076
 21
0.47495
 31
0.0
  0
LINE
  5
407
330
1F
100
AcDbEntity
  8
1
  6
CONTINUOUS
370
50
 62
4
100
AcDbLine
 10
58.341927
 20
0.469294
 30
0.0
 11
58.332428
 21
0.469348
 31
0.0
  0
LINE
  5
408
330
1F
100
AcDbEntity
  8
1
  6
CONTINUOUS
370
50
 62
4
100
AcDbLine
 10
58.364506
 20
0.469214
 30
0.0
 11
58.341927
 21
0.469294
 31
0.0
  0
LINE
  5
409
330
1F
100
AcDbEntity
  8
1
  6
CONTINUOUS
370
50
 62
4
100
AcDbLine
 10
58.387089
 20
0.469136
 30
0.0
 11
58.364506
 21
0.469214
 31
0.0
  0
LINE
  5
40A
330
1F
100
AcDbEntity
  8
1
  6
CONTINUOUS
370
50
 62
4
100
AcDbLine
 10
58.409668
 20
0.469061
 30
0.0
 11
58.387089
 21
0.469136
 31
0.0
  0
LINE
  5
40B
330
1F
100
AcDbEntity
  8
1
  6
CONTINUOUS
370
50
 62
4
100
AcDbLine
 10
58.432251
 20
0.468989
 30
0.0
 11
58.409668
 21
0.469061
 31
0.0
  0
LINE
  5
40C
330
1F
100
AcDbEntity
  8
1
  6
CONTINUOUS
370
50
 62
4
100
AcDbLine
 10
58.454834
 20
0.468919
 30
0.0
 11
58.432251
 21
0.468989
 31
0.0
  0
LINE
  5
40D
330
1F
100
AcDbEntity
  8
1
  6
CONTINUOUS
370
50
 62
4
100
AcDbLine
 10
58.477417
 20
0.468852
 30
0.0
 11
58.454834
 21
0.468919
 31
0.0
  0
LINE
  5
40E
330
1F
100
AcDbEntity
  8
1
  6
CONTINUOUS
370
50
 62
4
100
AcDbLine
 10
58.5
 20
0.468788
 30
0.0
 11
58.477417
 21
0.468852
 31
0.0
  0
LINE
  5
40F
330
1F
100
AcDbEntity
  8
1
  6
CONTINUOUS
370
50
 62
4
100
AcDbLine
 10
55.0
 20
-0.47495
 30
0.0
 11
58.15998099999999
 21
-0.47495
 31
0.0
  0
LINE
  5
410
330
1F
100
AcDbEntity
  8
1
  6
CONTINUOUS
370
50
 62
4
100
AcDbLine
 10
59.99913799999999
 20
-0.259026
 30
0.0
 11
60.0
 21
-0.259026
 31
0.0
  0
LINE
  5
411
330
1F
100
AcDbEntity
  8
1
  6
CONTINUOUS
370
50
 62
4
100
AcDbLine
 10
58.5
 20
-0.259026
 30
0.0
 11
59.832157
 21
-0.259026
 31
0.0
  0
LINE
  5
412
330
1F
100
AcDbEntity
  8
1
  6
CONTINUOUS
370
50
 62
4
100
AcDbLine
 10
58.5
 20
0.259026
 30
0.0
 11
59.832157
 21
0.259026
 31
0.0
  0
LINE
  5
413
330
1F
100
AcDbEntity
  8
1
  6
CONTINUOUS
370
50
 62
4
100
AcDbLine
 10
59.99913799999999
 20
0.259026
 30
0.0
 11
60.0
 21
0.259026
 31
0.0
  0
LINE
  5
414
330
1F
100
AcDbEntity
  8
1
  6
CONTINUOUS
370
50
 62
4
100
AcDbLine
 10
55.0
 20
0.47495
 30
0.0
 11
58.15998099999999
 21
0.47495
 31
0.0
  0
LINE
  5
415
330
1F
100
AcDbEntity
  8
1
  6
CONTINUOUS
370
50
 62
4
100
AcDbLine
 10
58.477417
 20
-0.468852
 30
0.0
 11
58.5
 21
-0.468788
 31
0.0
  0
LINE
  5
416
330
1F
100
AcDbEntity
  8
1
  6
CONTINUOUS
370
50
 62
4
100
AcDbLine
 10
58.454834
 20
-0.468919
 30
0.0
 11
58.477417
 21
-0.468852
 31
0.0
  0
LINE
  5
417
330
1F
100
AcDbEntity
  8
1
  6
CONTINUOUS
370
50
 62
4
100
AcDbLine
 10
58.432251
 20
-0.468989
 30
0.0
 11
58.454834
 21
-0.468919
 31
0.0
  0
LINE
  5
418
330
1F
100
AcDbEntity
  8
1
  6
CONTINUOUS
370
50
 62
4
100
AcDbLine
 10
58.409668
 20
-0.469061
 30
0.0
 11
58.432251
 21
-0.468989
 31
0.0
  0
LINE
  5
419
330
1F
100
AcDbEntity
  8
1
  6
CONTINUOUS
370
50
 62
4
100
AcDbLine
 10
58.387089
 20
-0.469136
 30
0.0
 11
58.409668
 21
-0.469061
 31
0.0
  0
LINE
  5
41A
330
1F
100
AcDbEntity
  8
1
  6
CONTINUOUS
370
50
 62
4
100
AcDbLine
 10
58.364506
 20
-0.469214
 30
0.0
 11
58.387089
 21
-0.469136
 31
0.0
  0
LINE
  5
41B
330
1F
100
AcDbEntity
  8
1
  6
CONTINUOUS
370
50
 62
4
100
AcDbLine
 10
58.341927
 20
-0.469294
 30
0.0
 11
58.364506
 21
-0.469214
 31
0.0
  0
LINE
  5
41C
330
1F
100
AcDbEntity
  8
1
  6
CONTINUOUS
370
50
 62
4
100
AcDbLine
 10
58.332428
 20
-0.469348
 30
0.0
 11
58.341927
 21
-0.469294
 31
0.0
  0
LINE
  5
41D
330
1F
100
AcDbEntity
  8
1
  6
CONTINUOUS
370
50
 62
4
100
AcDbLine
 10
58.160076
 20
-0.47495
 30
0.0
 11
58.164803
 21
-0.474906
 31
0.0
  0
LINE
  5
41E
330
1F
100
AcDbEntity
  8
1
  6
CONTINUOUS
370
50
 62
4
100
AcDbLine
 10
58.32291799999999
 20
-0.469443
 30
0.0
 11
58.332428
 21
-0.469348
 31
0.0
  0
LINE
  5
41F
330
1F
100
AcDbEntity
  8
1
  6
CONTINUOUS
370
50
 62
4
100
AcDbLine
 10
58.155067
 20
0.474882
 30
0.0
 11
58.160076
 21
0.47495
 31
0.0
  0
LINE
  5
420
330
1F
100
AcDbEntity
  8
1
  6
CONTINUOUS
370
50
 62
4
100
AcDbLine
 10
58.313416
 20
-0.469575
 30
0.0
 11
58.32291799999999
 21
-0.469443
 31
0.0
  0
LINE
  5
421
330
1F
100
AcDbEntity
  8
1
  6
CONTINUOUS
370
50
 62
4
100
AcDbLine
 10
58.477417
 20
0.075861
 30
0.0
 11
58.5
 21
0.076256
 31
0.0
  0
LINE
  5
422
330
1F
100
AcDbEntity
  8
1
  6
CONTINUOUS
370
50
 62
4
100
AcDbLine
 10
58.303936
 20
-0.469744
 30
0.0
 11
58.313416
 21
-0.469575
 31
0.0
  0
LINE
  5
423
330
1F
100
AcDbEntity
  8
1
  6
CONTINUOUS
370
50
 62
4
100
AcDbLine
 10
58.454834
 20
0.075446
 30
0.0
 11
58.477417
 21
0.075861
 31
0.0
  0
LINE
  5
424
330
1F
100
AcDbEntity
  8
1
  6
CONTINUOUS
370
50
 62
4
100
AcDbLine
 10
58.432251
 20
0.075011
 30
0.0
 11
58.454834
 21
0.075446
 31
0.0
  0
LINE
  5
425
330
1F
100
AcDbEntity
  8
1
  6
CONTINUOUS
370
50
 62
4
100
AcDbLine
 10
58.409668
 20
0.074558
 30
0.0
 11
58.432251
 21
0.075011
 31
0.0
  0
LINE
  5
426
330
1F
100
AcDbEntity
  8
1
  6
CONTINUOUS
370
50
 62
4
100
AcDbLine
 10
58.387089
 20
0.074085
 30
0.0
 11
58.409668
 21
0.074558
 31
0.0
  0
LINE
  5
427
330
1F
100
AcDbEntity
  8
1
  6
CONTINUOUS
370
50
 62
4
100
AcDbLine
 10
58.294491
 20
-0.469947
 30
0.0
 11
58.303936
 21
-0.469744
 31
0.0
  0
LINE
  5
428
330
1F
100
AcDbEntity
  8
1
  6
CONTINUOUS
370
50
 62
4
100
AcDbLine
 10
58.364506
 20
0.073592
 30
0.0
 11
58.387089
 21
0.074085
 31
0.0
  0
LINE
  5
429
330
1F
100
AcDbEntity
  8
1
  6
CONTINUOUS
370
50
 62
4
100
AcDbLine
 10
58.164803
 20
-0.474906
 30
0.0
 11
58.170021
 21
-0.474788
 31
0.0
  0
LINE
  5
42A
330
1F
100
AcDbEntity
  8
1
  6
CONTINUOUS
370
50
 62
4
100
AcDbLine
 10
58.341927
 20
0.073081
 30
0.0
 11
58.364506
 21
0.073592
 31
0.0
  0
LINE
  5
42B
330
1F
100
AcDbEntity
  8
1
  6
CONTINUOUS
370
50
 62
4
100
AcDbLine
 10
58.285107
 20
-0.470182
 30
0.0
 11
58.294491
 21
-0.469947
 31
0.0
  0
LINE
  5
42C
330
1F
100
AcDbEntity
  8
1
  6
CONTINUOUS
370
50
 62
4
100
AcDbLine
 10
58.275795
 20
-0.470448
 30
0.0
 11
58.285107
 21
-0.470182
 31
0.0
  0
LINE
  5
42D
330
1F
100
AcDbEntity
  8
1
  6
CONTINUOUS
370
50
 62
4
100
AcDbLine
 10
58.170021
 20
-0.474788
 30
0.0
 11
58.17567099999999
 21
-0.474609
 31
0.0
  0
LINE
  5
42E
330
1F
100
AcDbEntity
  8
1
  6
CONTINUOUS
370
50
 62
4
100
AcDbLine
 10
58.266575
 20
-0.470744
 30
0.0
 11
58.275795
 21
-0.470448
 31
0.0
  0
LINE
  5
42F
330
1F
100
AcDbEntity
  8
1
  6
CONTINUOUS
370
50
 62
4
100
AcDbLine
 10
58.257484
 20
-0.471065
 30
0.0
 11
58.266575
 21
-0.470744
 31
0.0
  0
LINE
  5
430
330
1F
100
AcDbEntity
  8
1
  6
CONTINUOUS
370
50
 62
4
100
AcDbLine
 10
58.17567099999999
 20
-0.474609
 30
0.0
 11
58.181675
 21
-0.474381
 31
0.0
  0
LINE
  5
431
330
1F
100
AcDbEntity
  8
1
  6
CONTINUOUS
370
50
 62
4
100
AcDbLine
 10
58.248611
 20
-0.471404
 30
0.0
 11
58.257484
 21
-0.471065
 31
0.0
  0
LINE
  5
432
330
1F
100
AcDbEntity
  8
1
  6
CONTINUOUS
370
50
 62
4
100
AcDbLine
 10
58.330414
 20
0.072631
 30
0.0
 11
58.341927
 21
0.073081
 31
0.0
  0
LINE
  5
433
330
1F
100
AcDbEntity
  8
1
  6
CONTINUOUS
370
50
 62
4
100
AcDbLine
 10
58.239994
 20
-0.471756
 30
0.0
 11
58.248611
 21
-0.471404
 31
0.0
  0
LINE
  5
434
330
1F
100
AcDbEntity
  8
1
  6
CONTINUOUS
370
50
 62
4
100
AcDbLine
 10
58.181675
 20
-0.474381
 30
0.0
 11
58.187973
 21
-0.474115
 31
0.0
  0
LINE
  5
435
330
1F
100
AcDbEntity
  8
1
  6
CONTINUOUS
370
50
 62
4
100
AcDbLine
 10
58.231644
 20
-0.472115
 30
0.0
 11
58.239994
 21
-0.471756
 31
0.0
  0
LINE
  5
436
330
1F
100
AcDbEntity
  8
1
  6
CONTINUOUS
370
50
 62
4
100
AcDbLine
 10
58.223579
 20
-0.472475
 30
0.0
 11
58.231644
 21
-0.472115
 31
0.0
  0
LINE
  5
437
330
1F
100
AcDbEntity
  8
1
  6
CONTINUOUS
370
50
 62
4
100
AcDbLine
 10
58.187973
 20
-0.474115
 30
0.0
 11
58.1945
 21
-0.473823
 31
0.0
  0
LINE
  5
438
330
1F
100
AcDbEntity
  8
1
  6
CONTINUOUS
370
50
 62
4
100
AcDbLine
 10
58.215816
 20
-0.472831
 30
0.0
 11
58.223579
 21
-0.472475
 31
0.0
  0
LINE
  5
439
330
1F
100
AcDbEntity
  8
1
  6
CONTINUOUS
370
50
 62
4
100
AcDbLine
 10
58.1945
 20
-0.473823
 30
0.0
 11
58.20126
 21
-0.47351
 31
0.0
  0
LINE
  5
43A
330
1F
100
AcDbEntity
  8
1
  6
CONTINUOUS
370
50
 62
4
100
AcDbLine
 10
58.20837
 20
-0.473178
 30
0.0
 11
58.215816
 21
-0.472831
 31
0.0
  0
LINE
  5
43B
330
1F
100
AcDbEntity
  8
1
  6
CONTINUOUS
370
50
 62
4
100
AcDbLine
 10
58.20126
 20
-0.47351
 30
0.0
 11
58.20837
 21
-0.473178
 31
0.0
  0
LINE
  5
43C
330
1F
100
AcDbEntity
  8
1
  6
CONTINUOUS
370
50
 62
4
100
AcDbLine
 10
58.151058
 20
0.474652
 30
0.0
 11
58.155067
 21
0.474882
 31
0.0
  0
LINE
  5
43D
330
1F
100
AcDbEntity
  8
1
  6
CONTINUOUS
370
50
 62
4
100
AcDbLine
 10
58.31889
 20
0.071809
 30
0.0
 11
58.330414
 21
0.072631
 31
0.0
  0
LINE
  5
43E
330
1F
100
AcDbEntity
  8
1
  6
CONTINUOUS
370
50
 62
4
100
AcDbLine
 10
58.307384
 20
0.070608
 30
0.0
 11
58.31889
 21
0.071809
 31
0.0
  0
LINE
  5
43F
330
1F
100
AcDbEntity
  8
1
  6
CONTINUOUS
370
50
 62
4
100
AcDbLine
 10
58.29592899999999
 20
0.069025
 30
0.0
 11
58.307384
 21
0.070608
 31
0.0
  0
LINE
  5
440
330
1F
100
AcDbEntity
  8
1
  6
CONTINUOUS
370
50
 62
4
100
AcDbLine
 10
58.148205
 20
0.474237
 30
0.0
 11
58.151058
 21
0.474652
 31
0.0
  0
LINE
  5
441
330
1F
100
AcDbEntity
  8
1
  6
CONTINUOUS
370
50
 62
4
100
AcDbLine
 10
58.284554
 20
0.067053
 30
0.0
 11
58.29592899999999
 21
0.069025
 31
0.0
  0
LINE
  5
442
330
1F
100
AcDbEntity
  8
1
  6
CONTINUOUS
370
50
 62
4
100
AcDbLine
 10
58.273289
 20
0.064687
 30
0.0
 11
58.284554
 21
0.067053
 31
0.0
  0
LINE
  5
443
330
1F
100
AcDbEntity
  8
1
  6
CONTINUOUS
370
50
 62
4
100
AcDbLine
 10
59.812794
 20
-0.042456
 30
0.0
 11
59.837387
 21
-0.036879
 31
0.0
  0
LINE
  5
444
330
1F
100
AcDbEntity
  8
1
  6
CONTINUOUS
370
50
 62
4
100
AcDbLine
 10
59.837387
 20
-0.036879
 30
0.0
 11
59.900002
 21
-0.022679
 31
0.0
  0
LINE
  5
445
330
1F
100
AcDbEntity
  8
1
  6
CONTINUOUS
370
50
 62
4
100
AcDbLine
 10
58.262161
 20
0.061923
 30
0.0
 11
58.273289
 21
0.064687
 31
0.0
  0
LINE
  5
446
330
1F
100
AcDbEntity
  8
1
  6
CONTINUOUS
370
50
 62
4
100
AcDbLine
 10
45.5
 20
-2.99995
 30
0.0
 11
55.0
 21
-0.47495
 31
0.0
  0
LINE
  5
447
330
1F
100
AcDbEntity
  8
1
  6
CONTINUOUS
370
50
 62
4
100
AcDbLine
 10
58.25129699999999
 20
0.058779
 30
0.0
 11
58.262161
 21
0.061923
 31
0.0
  0
LINE
  5
448
330
1F
100
AcDbEntity
  8
1
  6
CONTINUOUS
370
50
 62
4
100
AcDbLine
 10
58.24078799999999
 20
0.055282
 30
0.0
 11
58.25129699999999
 21
0.058779
 31
0.0
  0
LINE
  5
449
330
1F
100
AcDbEntity
  8
1
  6
CONTINUOUS
370
50
 62
4
100
AcDbLine
 10
58.230675
 20
0.051442
 30
0.0
 11
58.24078799999999
 21
0.055282
 31
0.0
  0
LINE
  5
44A
330
1F
100
AcDbEntity
  8
1
  6
CONTINUOUS
370
50
 62
4
100
AcDbLine
 10
58.146637
 20
0.473628
 30
0.0
 11
58.148205
 21
0.474237
 31
0.0
  0
LINE
  5
44B
330
1F
100
AcDbEntity
  8
1
  6
CONTINUOUS
370
50
 62
4
100
AcDbLine
 10
58.220982
 20
0.04727
 30
0.0
 11
58.230675
 21
0.051442
 31
0.0
  0
LINE
  5
44C
330
1F
100
AcDbEntity
  8
1
  6
CONTINUOUS
370
50
 62
4
100
AcDbLine
 10
58.21173899999999
 20
0.042775
 30
0.0
 11
58.220982
 21
0.04727
 31
0.0
  0
LINE
  5
44D
330
1F
100
AcDbEntity
  8
1
  6
CONTINUOUS
370
50
 62
4
100
AcDbLine
 10
58.20298
 20
0.037968
 30
0.0
 11
58.21173899999999
 21
0.042775
 31
0.0
  0
LINE
  5
44E
330
1F
100
AcDbEntity
  8
1
  6
CONTINUOUS
370
50
 62
4
100
AcDbLine
 10
58.194729
 20
0.032857
 30
0.0
 11
58.20298
 21
0.037968
 31
0.0
  0
LINE
  5
44F
330
1F
100
AcDbEntity
  8
1
  6
CONTINUOUS
370
50
 62
4
100
AcDbLine
 10
58.186836
 20
0.02732
 30
0.0
 11
58.194729
 21
0.032857
 31
0.0
  0
LINE
  5
450
330
1F
100
AcDbEntity
  8
1
  6
CONTINUOUS
370
50
 62
4
100
AcDbLine
 10
58.179298
 20
0.021273
 30
0.0
 11
58.186836
 21
0.02732
 31
0.0
  0
LINE
  5
451
330
1F
100
AcDbEntity
  8
1
  6
CONTINUOUS
370
50
 62
4
100
AcDbLine
 10
59.94154
 20
-0.074785
 30
0.0
 11
59.952194
 21
-0.065692
 31
0.0
  0
LINE
  5
452
330
1F
100
AcDbEntity
  8
1
  6
CONTINUOUS
370
50
 62
4
100
AcDbLine
 10
58.17222599999999
 20
0.014709
 30
0.0
 11
58.179298
 21
0.021273
 31
0.0
  0
LINE
  5
453
330
1F
100
AcDbEntity
  8
1
  6
CONTINUOUS
370
50
 62
4
100
AcDbLine
 10
58.165741
 20
0.007619
 30
0.0
 11
58.17222599999999
 21
0.014709
 31
0.0
  0
LINE
  5
454
330
1F
100
AcDbEntity
  8
1
  6
CONTINUOUS
370
50
 62
4
100
AcDbLine
 10
58.159966
 20
0.0
 30
0.0
 11
58.165741
 21
0.007619
 31
0.0
  0
LINE
  5
455
330
1F
100
AcDbEntity
  8
1
  6
CONTINUOUS
370
50
 62
4
100
AcDbLine
 10
58.157612
 20
-0.003633
 30
0.0
 11
58.159966
 21
0.0
 31
0.0
  0
LINE
  5
456
330
1F
100
AcDbEntity
  8
1
  6
CONTINUOUS
370
50
 62
4
100
AcDbLine
 10
58.155445
 20
-0.007372
 30
0.0
 11
58.157612
 21
-0.003633
 31
0.0
  0
LINE
  5
457
330
1F
100
AcDbEntity
  8
1
  6
CONTINUOUS
370
50
 62
4
100
AcDbLine
 10
58.153477
 20
-0.011216
 30
0.0
 11
58.155445
 21
-0.007372
 31
0.0
  0
LINE
  5
458
330
1F
100
AcDbEntity
  8
1
  6
CONTINUOUS
370
50
 62
4
100
AcDbLine
 10
58.151718
 20
-0.015165
 30
0.0
 11
58.153477
 21
-0.011216
 31
0.0
  0
LINE
  5
459
330
1F
100
AcDbEntity
  8
1
  6
CONTINUOUS
370
50
 62
4
100
AcDbLine
 10
58.150185
 20
-0.019218
 30
0.0
 11
58.151718
 21
-0.015165
 31
0.0
  0
LINE
  5
45A
330
1F
100
AcDbEntity
  8
1
  6
CONTINUOUS
370
50
 62
4
100
AcDbLine
 10
58.146366
 20
0.472819
 30
0.0
 11
58.146637
 21
0.473628
 31
0.0
  0
LINE
  5
45B
330
1F
100
AcDbEntity
  8
1
  6
CONTINUOUS
370
50
 62
4
100
AcDbLine
 10
59.97042099999999
 20
-0.159106
 30
0.0
 11
60.0
 21
-0.068068
 31
0.0
  0
LINE
  5
45C
330
1F
100
AcDbEntity
  8
1
  6
CONTINUOUS
370
50
 62
4
100
AcDbLine
 10
58.148895
 20
-0.023348
 30
0.0
 11
58.150185
 21
-0.019218
 31
0.0
  0
LINE
  5
45D
330
1F
100
AcDbEntity
  8
1
  6
CONTINUOUS
370
50
 62
4
100
AcDbLine
 10
58.147865
 20
-0.027517
 30
0.0
 11
58.148895
 21
-0.023348
 31
0.0
  0
LINE
  5
45E
330
1F
100
AcDbEntity
  8
1
  6
CONTINUOUS
370
50
 62
4
100
AcDbLine
 10
58.147095
 20
-0.031721
 30
0.0
 11
58.147865
 21
-0.027517
 31
0.0
  0
LINE
  5
45F
330
1F
100
AcDbEntity
  8
1
  6
CONTINUOUS
370
50
 62
4
100
AcDbLine
 10
58.146584
 20
-0.035958
 30
0.0
 11
58.147095
 21
-0.031721
 31
0.0
  0
LINE
  5
460
330
1F
100
AcDbEntity
  8
1
  6
CONTINUOUS
370
50
 62
4
100
AcDbLine
 10
58.146336
 20
-0.040225
 30
0.0
 11
58.146584
 21
-0.035958
 31
0.0
  0
LINE
  5
461
330
1F
100
AcDbEntity
  8
1
  6
CONTINUOUS
370
50
 62
4
100
AcDbLine
 10
45.5
 20
-2.99995
 30
0.0
 11
45.5
 21
2.99995
 31
0.0
  0
LINE
  5
462
330
1F
100
AcDbEntity
  8
1
  6
CONTINUOUS
370
50
 62
4
100
AcDbLine
 10
55.0
 20
-0.47495
 30
0.0
 11
55.0
 21
0.47495
 31
0.0
  0
LINE
  5
463
330
1F
100
AcDbEntity
  8
1
  6
CONTINUOUS
370
50
 62
4
100
AcDbLine
 10
58.5
 20
-0.468788
 30
0.0
 11
58.5
 21
0.468788
 31
0.0
  0
LINE
  5
464
330
1F
100
AcDbEntity
  8
1
  6
CONTINUOUS
370
50
 62
4
100
AcDbLine
 10
59.900002
 20
-0.05276
 30
0.0
 11
59.900002
 21
0.050412
 31
0.0
  0
LINE
  5
465
330
1F
100
AcDbEntity
  8
1
  6
CONTINUOUS
370
50
 62
4
100
AcDbLine
 10
60.0
 20
0.214457
 30
0.0
 11
60.0
 21
0.259025
 31
0.0
  0
LINE
  5
466
330
1F
100
AcDbEntity
  8
1
  6
CONTINUOUS
370
50
 62
4
100
AcDbLine
 10
60.0
 20
-0.068068
 30
0.0
 11
60.0
 21
-0.000439
 31
0.0
  0
LINE
  5
467
330
1F
100
AcDbEntity
  8
1
  6
CONTINUOUS
370
50
 62
4
100
AcDbLine
 10
60.0
 20
-0.259026
 30
0.0
 11
60.0
 21
-0.249922
 31
0.0
  0
LINE
  5
468
330
1F
100
AcDbEntity
  8
1
  6
CONTINUOUS
370
50
 62
4
100
AcDbLine
 10
60.0
 20
-0.000439
 30
0.0
 11
60.0
 21
0.068068
 31
0.0
  0
LINE
  5
469
330
1F
100
AcDbEntity
  8
1
  6
CONTINUOUS
370
50
 62
4
100
AcDbLine
 10
60.0
 20
-0.249922
 30
0.0
 11
60.0
 21
-0.214457
 31
0.0
  0
ELLIPSE
  5
46A
330
1F
100
AcDbEntity
  8
1
  6
CONTINUOUS
370
50
 62
4
100
AcDbEllipse
 10
60.0
 20
0.0
 30
0.0
 11
0.1560202856055817
 21
0.2126267904299766
 31
0.0
210
0.0
220
0.0
230
1.0
 40
0.4716381704845767
 41
1.649308470349634
 42
2.068622465885253
  0
ELLIPSE
  5
46B
330
1F
100
AcDbEntity
  8
1
  6
CONTINUOUS
370
50
 62
4
100
AcDbEllipse
 10
60.0
 20
0.0
 30
0.0
 11
0.1796141626194404
 21
0.2447808806739559
 31
0.0
210
0.0
220
0.0
230
1.0
 40
0.4716410126086265
 41
1.649308941527359
 42
2.068624994161015
  0
ELLIPSE
  5
46C
330
1F
100
AcDbEntity
  8
1
  6
CONTINUOUS
370
50
 62
4
100
AcDbEllipse
 10
60.0
 20
0.0
 30
0.0
 11
0.1960207837041388
 21
0.2504061693189982
 31
0.0
210
0.0
220
0.0
230
1.0
 40
0.3380508189226776
 41
3.400293518590546
 42
3.654957736532832
  0
ELLIPSE
  5
46D
330
1F
100
AcDbEntity
  8
1
  6
CONTINUOUS
370
50
 62
4
100
AcDbEllipse
 10
60.0
 20
0.0
 30
0.0
 11
-0.1960207837041424
 21
0.2504061693189963
 31
0.0
210
0.0
220
0.0
230
0.9999999999999998
 40
0.3380508189226782
 41
5.809051990015045
 42
6.18913609679011
  0
ELLIPSE
  5
46E
330
1F
100
AcDbEntity
  8
1
  6
CONTINUOUS
370
50
 62
4
100
AcDbEllipse
 10
60.0
 20
0.0
 30
0.0
 11
-0.4425420005578786
 21
0.0005145203889100584
 31
0.0
210
0.0
220
0.0
230
1.0
 40
0.5084240596104501
 41
4.712980098321706
 42
4.827424385004147
  0
ELLIPSE
  5
46F
330
1F
100
AcDbEntity
  8
1
  6
CONTINUOUS
370
50
 62
4
100
AcDbEllipse
 10
60.0
 20
0.0
 30
0.0
 11
0.4425421369462618
 21
0.2249997306465888
 31
0.0
210
0.0
220
0.0
230
1.0
 40
0.0006846322398336
 41
1.572142899212746
 42
1.798256111363796
  0
ELLIPSE
  5
470
330
1F
100
AcDbEntity
  8
1
  6
CONTINUOUS
370
50
 62
4
100
AcDbEllipse
 10
60.0
 20
0.0
 30
0.0
 11
0.5094649996184658
 21
0.0005923282522060846
 31
0.0
210
0.0
220
0.0
230
0.9999999999999999
 40
0.5084255052144125
 41
4.45543795502901
 42
4.710102216573791
  0
ELLIPSE
  5
471
330
1F
100
AcDbEntity
  8
1
  6
CONTINUOUS
370
50
 62
4
100
AcDbEllipse
 10
60.0
 20
0.0
 30
0.0
 11
-0.5094649996184658
 21
0.0005923282522058509
 31
0.0
210
0.0
220
0.0
230
0.9999999999999999
 40
0.5084255052144125
 41
4.712980100002385
 42
4.948070036428064
  0
ELLIPSE
  5
472
330
1F
100
AcDbEntity
  8
1
  6
CONTINUOUS
370
50
 62
4
100
AcDbEllipse
 10
60.0
 20
0.0
 30
0.0
 11
0.5094657847842399
 21
0.2590254232989055
 31
0.0
210
0.0
220
0.0
230
0.9999999999999999
 40
0.0006846823069565
 41
1.572160257321592
 42
1.767917463744057
  0
ELLIPSE
  5
473
330
1F
100
AcDbEntity
  8
1
  6
CONTINUOUS
370
50
 62
4
100
AcDbEllipse
 10
60.0
 20
0.0
 30
0.0
 11
-0.5094657847837035
 21
0.259025423299962
 31
0.0
210
0.0
220
0.0
230
1.0
 40
0.0006846823069559
 41
1.314909439125438
 42
1.571144436761293
  0
ELLIPSE
  5
474
330
1F
100
AcDbEntity
  8
1
  6
CONTINUOUS
370
50
 62
4
100
AcDbEllipse
 10
60.0
 20
0.0
 30
0.0
 11
-0.8790249670137947
 21
0.2128181362464206
 31
0.0
210
0.0
220
0.0
230
0.9999999999999998
 40
0.0830806689639004
 41
1.404881795715676
 42
1.536508205716022
  0
ELLIPSE
  5
475
330
1F
100
AcDbEntity
  8
1
  6
CONTINUOUS
370
50
 62
4
100
AcDbEllipse
 10
60.0
 20
0.0
 30
0.0
 11
1.011910001822194
 21
0.09436898046075845
 31
0.0
210
0.0
220
0.0
230
1.0
 40
0.238383844219186
 41
4.555307330003797
 42
4.57255671397045
  0
ELLIPSE
  5
476
330
1F
100
AcDbEntity
  8
1
  6
CONTINUOUS
370
50
 62
4
100
AcDbEllipse
 10
60.0
 20
0.0
 30
0.0
 11
-1.011910001822198
 21
0.09436898046075365
 31
0.0
210
0.0
220
0.0
230
1.0
 40
0.2383838442191854
 41
4.792408108903507
 42
4.920643155434071
  0
ELLIPSE
  5
477
330
1F
100
AcDbEntity
  8
1
  6
CONTINUOUS
370
50
 62
4
100
AcDbEllipse
 10
60.0
 20
0.0
 30
0.0
 11
-1.011955129542734
 21
0.2450014649367304
 31
0.0
210
0.0
220
0.0
230
0.9999999999999999
 40
0.0830807796475341
 41
1.404881578711418
 42
1.533116560984413
  0
ELLIPSE
  5
478
330
1F
100
AcDbEntity
  8
1
  6
CONTINUOUS
370
50
 62
4
100
AcDbEllipse
 10
60.02211699999999
 20
0.0
 30
0.0
 11
1.377682148050175E-17
 21
0.225
 31
0.0
210
0.0
220
0.0
230
1.0
 40
0.3249200000000012
 41
0.3073390803991755
 42
0.7853847451915786
  0
ELLIPSE
  5
479
330
1F
100
AcDbEntity
  8
1
  6
CONTINUOUS
370
50
 62
4
100
AcDbEllipse
 10
60.02211699999999
 20
0.0
 30
0.0
 11
1.377682148050175E-17
 21
0.225
 31
0.0
210
0.0
220
0.0
230
1.0
 40
0.3249200000000012
 41
1.867074806247318
 42
2.834253573190618
  0
ELLIPSE
  5
47A
330
1F
100
AcDbEntity
  8
1
  6
CONTINUOUS
370
50
 62
4
100
AcDbEllipse
 10
60.02211699999999
 20
0.0
 30
0.0
 11
1.586024427025975E-17
 21
0.259026
 31
0.0
210
0.0
220
0.0
230
1.0
 40
0.3249171897801734
 41
1.863680807016148
 42
2.875683909216809
  0
ELLIPSE
  5
47B
330
1F
100
AcDbEntity
  8
1
  6
CONTINUOUS
370
50
 62
4
100
AcDbEllipse
 10
61.88138499999999
 20
-2.439696
 30
0.0
 11
-7.139663050286771
 21
1.689381787478133
 31
0.0
210
0.0
220
0.0
230
0.9999999999999998
 40
0.238667577020167
 41
5.261327332669461
 42
5.316937252125189
  0
ELLIPSE
  5
47C
330
1F
100
AcDbEntity
  8
1
  6
CONTINUOUS
370
50
 62
4
100
AcDbEllipse
 10
61.922584
 20
-2.265581
 30
0.0
 11
-7.095331953579766
 21
1.678892196181134
 31
0.0
210
0.0
220
0.0
230
0.9999999999999998
 40
0.2386676148073262
 41
5.271286297872333
 42
5.296848932361302
  0
ELLIPSE
  5
47D
330
1F
100
AcDbEntity
  8
1
  6
CONTINUOUS
370
50
 62
4
100
AcDbEllipse
 10
61.922584
 20
6.374543
 30
0.0
 11
-5.320844871483897
 21
4.985079137172199
 31
0.0
210
0.0
220
0.0
230
1.0
 40
0.9450068712159553
 41
1.767424756923041
 42
1.792987395627848
  0
LINE
  5
47E
330
1F
100
AcDbEntity
  8
CUT
  6
CONTINUOUS
370
25
 62
1
100
AcDbLine
 10
58.5
 20
0.225
 30
0.0
 11
60.0
 21
0.225
 31
0.0
  0
LINE
  5
47F
330
1F
100
AcDbEntity
  8
CUT
  6
CONTINUOUS
370
25
 62
1
100
AcDbLine
 10
60.0
 20
0.225
 30
0.0
 11
60.0
 21
0.495
 31
0.0
  0
LINE
  5
480
330
1F
100
AcDbEntity
  8
CUT
  6
CONTINUOUS
370
25
 62
1
100
AcDbLine
 10
60.0
 20
0.495
 30
0.0
 11
60.0
 21
0.5
 31
0.0
  0
LINE
  5
481
330
1F
100
AcDbEntity
  8
CUT
  6
CONTINUOUS
370
25
 62
1
100
AcDbLine
 10
60.0
 20
0.5
 30
0.0
 11
58.5
 21
0.4999
 31
0.0
  0
LINE
  5
482
330
1F
100
AcDbEntity
  8
CUT
  6
CONTINUOUS
370
25
 62
1
100
AcDbLine
 10
58.5
 20
0.4999
 30
0.0
 11
58.5
 21
0.225
 31
0.0
  0
LINE
  5
483
330
1F
100
AcDbEntity
  8
NOCUT
  6
CONTINUOUS
370
25
 62
7
100
AcDbLine
 10
45.5
 20
0.0
 30
0.0
 11
59.9
 21
0.0
 31
0.0
  0
LINE
  5
484
330
1F
100
AcDbEntity
  8
NOCUT
  6
CONTINUOUS
370
25
 62
7
100
AcDbLine
 10
59.9
 20
0.0
 30
0.0
 11
59.9
 21
0.225
 31
0.0
  0
LINE
  5
485
330
1F
100
AcDbEntity
  8
NOCUT
  6
CONTINUOUS
370
25
 62
7
100
AcDbLine
 10
59.9
 20
0.225
 30
0.0
 11
58.5
 21
0.225
 31
0.0
  0
LINE
  5
486
330
1F
100
AcDbEntity
  8
NOCUT
  6
CONTINUOUS
370
25
 62
7
100
AcDbLine
 10
58.5
 20
0.225
 30
0.0
 11
58.5
 21
0.47495
 31
0.0
  0
LINE
  5
487
330
1F
100
AcDbEntity
  8
NOCUT
  6
CONTINUOUS
370
25
 62
7
100
AcDbLine
 10
58.5
 20
0.47495
 30
0.0
 11
55.0
 21
0.47495
 31
0.0
  0
LINE
  5
488
330
1F
100
AcDbEntity
  8
NOCUT
  6
CONTINUOUS
370
25
 62
7
100
AcDbLine
 10
55.0
 20
0.47495
 30
0.0
 11
45.5
 21
2.99995
 31
0.0
  0
LINE
  5
489
330
1F
100
AcDbEntity
  8
NOCUT
  6
CONTINUOUS
370
25
 62
7
100
AcDbLine
 10
45.5
 20
2.99995
 30
0.0
 11
45.5
 21
0.0
 31
0.0
  0
LINE
  5
48A
330
1F
100
AcDbEntity
  8
SK1
  6
CONTINUOUS
370
50
 62
4
100
AcDbLine
 10
45.5
 20
3.0
 30
0.0
 11
0.3999999999999986
 21
3.0
 31
0.0
  0
LINE
  5
48B
330
1F
100
AcDbEntity
  8
SK1
  6
CONTINUOUS
370
50
 62
4
100
AcDbLine
 10
0.3999999999999986
 20
3.0
 30
0.0
 11
0.0
 21
2.6
 31
0.0
  0
LINE
  5
48C
330
1F
100
AcDbEntity
  8
SK1
  6
CONTINUOUS
370
50
 62
4
100
AcDbLine
 10
0.0
 20
2.6
 30
0.0
 11
0.0
 21
-2.6
 31
0.0
  0
LINE
  5
48D
330
1F
100
AcDbEntity
  8
SK1
  6
CONTINUOUS
370
50
 62
4
100
AcDbLine
 10
0.0
 20
-2.6
 30
0.0
 11
0.3999999999999986
 21
-3.0
 31
0.0
  0
LINE
  5
48E
330
1F
100
AcDbEntity
  8
SK1
  6
CONTINUOUS
370
50
 62
4
100
AcDbLine
 10
0.3999999999999986
 20
-3.0
 30
0.0
 11
45.5
 21
-3.0
 31
0.0
  0
LINE
  5
48F
330
1F
100
AcDbEntity
  8
SK1
  6
CONTINUOUS
370
50
 62
4
100
AcDbLine
 10
0.3999999999999986
 20
3.0
 30
0.0
 11
0.3999999999999986
 21
-3.0
 31
0.0
  0
LINE
  5
490
330
1F
100
AcDbEntity
  8
SK2
  6
CONTINUOUS
370
25
 62
7
100
AcDbLine
 10
-12.0000002
 20
-3.000001
 30
0.0
 11
-13.00000000000008
 21
-3.000001
 31
0.0
  0
LINE
  5
491
330
1F
100
AcDbEntity
  8
SK2
  6
CONTINUOUS
370
25
 62
7
100
AcDbLine
 10
0.0
 20
-3.000001
 30
0.0
 11
-11.9999998
 21
-3.000001
 31
0.0
  0
LINE
  5
492
330
1F
100
AcDbEntity
  8
SK2
  6
CONTINUOUS
370
25
 62
7
100
AcDbLine
 10
-13.0
 20
3.0
 30
0.0
 11
0.0
 21
3.0
 31
0.0
  0
LINE
  5
493
330
1F
100
AcDbEntity
  8
SK2
  6
CONTINUOUS
370
25
 62
7
100
AcDbLine
 10
-12.0
 20
-10.0
 30
0.0
 11
-12.0
 21
16.475
 31
0.0
  0
LINE
  5
494
330
1F
100
AcDbEntity
  8
SK2
  6
CONTINUOUS
370
25
 62
7
100
AcDbLine
 10
-12.0
 20
-3.0
 30
0.0
 11
-11.0
 21
-8.0
 31
0.0
  0
LINE
  5
495
330
1F
100
AcDbEntity
  8
SK2
  6
CONTINUOUS
370
25
 62
7
100
AcDbLine
 10
-11.0
 20
-8.0
 30
0.0
 11
-13.0
 21
-8.0
 31
0.0
  0
LINE
  5
496
330
1F
100
AcDbEntity
  8
SK2
  6
CONTINUOUS
370
25
 62
7
100
AcDbLine
 10
-13.0
 20
-8.0
 30
0.0
 11
-12.0
 21
-3.0
 31
0.0
  0
LINE
  5
497
330
1F
100
AcDbEntity
  8
SK2
  6
CONTINUOUS
370
25
 62
7
100
AcDbLine
 10
-11.29036790187175
 20
-8.0
 30
0.0
 11
-11.04839465031196
 21
-7.758026748440209
 31
0.0
  0
LINE
  5
498
330
1F
100
AcDbEntity
  8
SK2
  6
CONTINUOUS
370
25
 62
7
100
AcDbLine
 10
-11.71463197058368
 20
-8.0
 30
0.0
 11
-11.11910532843061
 21
-7.404473357846932
 31
0.0
  0
LINE
  5
499
330
1F
100
AcDbEntity
  8
SK2
  6
CONTINUOUS
370
25
 62
7
100
AcDbLine
 10
-12.13889603929561
 20
-8.0
 30
0.0
 11
-11.18981600654927
 21
-7.050919967253662
 31
0.0
  0
LINE
  5
49A
330
1F
100
AcDbEntity
  8
SK2
  6
CONTINUOUS
370
25
 62
7
100
AcDbLine
 10
-12.56316010800754
 20
-8.0
 30
0.0
 11
-11.26052668466792
 21
-6.697366576660386
 31
0.0
  0
LINE
  5
49B
330
1F
100
AcDbEntity
  8
SK2
  6
CONTINUOUS
370
25
 62
7
100
AcDbLine
 10
-12.98742417671947
 20
-8.0
 30
0.0
 11
-11.33123736278659
 21
-6.343813186067116
 31
0.0
  0
LINE
  5
49C
330
1F
100
AcDbEntity
  8
SK2
  6
CONTINUOUS
370
25
 62
7
100
AcDbLine
 10
-12.89707793864215
 20
-7.485389693210742
 30
0.0
 11
-11.40194804090524
 21
-5.990259795473833
 31
0.0
  0
LINE
  5
49D
330
1F
100
AcDbEntity
  8
SK2
  6
CONTINUOUS
370
25
 62
7
100
AcDbLine
 10
-12.79101192146417
 20
-6.955059607320834
 30
0.0
 11
-11.47265871902389
 21
-5.636706404880556
 31
0.0
  0
LINE
  5
49E
330
1F
100
AcDbEntity
  8
SK2
  6
CONTINUOUS
370
25
 62
7
100
AcDbLine
 10
-12.68494590428619
 20
-6.424729521430926
 30
0.0
 11
-11.54336939714255
 21
-5.283153014287286
 31
0.0
  0
LINE
  5
49F
330
1F
100
AcDbEntity
  8
SK2
  6
CONTINUOUS
370
25
 62
7
100
AcDbLine
 10
-12.5788798871082
 20
-5.894399435541004
 30
0.0
 11
-11.6140800752612
 21
-4.929599623694003
 31
0.0
  0
LINE
  5
4A0
330
1F
100
AcDbEntity
  8
SK2
  6
CONTINUOUS
370
25
 62
7
100
AcDbLine
 10
-12.47281386993022
 20
-5.364069349651082
 30
0.0
 11
-11.68479075337985
 21
-4.576046233100712
 31
0.0
  0
LINE
  5
4A1
330
1F
100
AcDbEntity
  8
SK2
  6
CONTINUOUS
370
25
 62
7
100
AcDbLine
 10
-12.36674785275224
 20
-4.833739263761174
 30
0.0
 11
-11.75550143149851
 21
-4.222492842507442
 31
0.0
  0
LINE
  5
4A2
330
1F
100
AcDbEntity
  8
SK2
  6
CONTINUOUS
370
25
 62
7
100
AcDbLine
 10
-12.26068183557426
 20
-4.303409177871266
 30
0.0
 11
-11.82621210961716
 21
-3.868939451914166
 31
0.0
  0
LINE
  5
4A3
330
1F
100
AcDbEntity
  8
SK2
  6
CONTINUOUS
370
25
 62
7
100
AcDbLine
 10
-12.15461581839627
 20
-3.773079091981344
 30
0.0
 11
-11.89692278773583
 21
-3.515386061320896
 31
0.0
  0
LINE
  5
4A4
330
1F
100
AcDbEntity
  8
SK2
  6
CONTINUOUS
370
25
 62
7
100
AcDbLine
 10
-12.04854980121829
 20
-3.242749006091422
 30
0.0
 11
-11.96763346585448
 21
-3.161832670727613
 31
0.0
  0
LINE
  5
4A5
330
1F
100
AcDbEntity
  8
SK2
  6
CONTINUOUS
370
25
 62
7
100
AcDbLine
 10
-12.99918391113002
 20
-7.995919555650097
 30
0.0
 11
-12.99510346678012
 21
-8.0
 31
0.0
  0
LINE
  5
4A6
330
1F
100
AcDbEntity
  8
SK2
  6
CONTINUOUS
370
25
 62
7
100
AcDbLine
 10
-12.92847323301136
 20
-7.642366165056821
 30
0.0
 11
-12.57083939806818
 21
-8.0
 31
0.0
  0
LINE
  5
4A7
330
1F
100
AcDbEntity
  8
SK2
  6
CONTINUOUS
370
25
 62
7
100
AcDbLine
 10
-12.85776255489271
 20
-7.288812774463551
 30
0.0
 11
-12.14657532935625
 21
-8.0
 31
0.0
  0
LINE
  5
4A8
330
1F
100
AcDbEntity
  8
SK2
  6
CONTINUOUS
370
25
 62
7
100
AcDbLine
 10
-12.78705187677406
 20
-6.935259383870267
 30
0.0
 11
-11.72231126064433
 21
-8.0
 31
0.0
  0
LINE
  5
4A9
330
1F
100
AcDbEntity
  8
SK2
  6
CONTINUOUS
370
25
 62
7
100
AcDbLine
 10
-12.7163411986554
 20
-6.581705993276991
 30
0.0
 11
-11.29804719193238
 21
-8.0
 31
0.0
  0
LINE
  5
4AA
330
1F
100
AcDbEntity
  8
SK2
  6
CONTINUOUS
370
25
 62
7
100
AcDbLine
 10
-12.64563052053675
 20
-6.228152602683707
 30
0.0
 11
-11.03155421919488
 21
-7.842228904025568
 31
0.0
  0
LINE
  5
4AB
330
1F
100
AcDbEntity
  8
SK2
  6
CONTINUOUS
370
25
 62
7
100
AcDbLine
 10
-12.57491984241808
 20
-5.874599212090445
 30
0.0
 11
-11.13762023637286
 21
-7.31189881813566
 31
0.0
  0
LINE
  5
4AC
330
1F
100
AcDbEntity
  8
SK2
  6
CONTINUOUS
370
25
 62
7
100
AcDbLine
 10
-12.50420916429943
 20
-5.521045821497161
 30
0.0
 11
-11.24368625355085
 21
-6.781568732245738
 31
0.0
  0
LINE
  5
4AD
330
1F
100
AcDbEntity
  8
SK2
  6
CONTINUOUS
370
25
 62
7
100
AcDbLine
 10
-12.43349848618078
 20
-5.167492430903884
 30
0.0
 11
-11.34975227072883
 21
-6.251238646355837
 31
0.0
  0
LINE
  5
4AE
330
1F
100
AcDbEntity
  8
SK2
  6
CONTINUOUS
370
25
 62
7
100
AcDbLine
 10
-12.36278780806212
 20
-4.813939040310608
 30
0.0
 11
-11.45581828790681
 21
-5.720908560465922
 31
0.0
  0
LINE
  5
4AF
330
1F
100
AcDbEntity
  8
SK2
  6
CONTINUOUS
370
25
 62
7
100
AcDbLine
 10
-12.29207712994347
 20
-4.460385649717331
 30
0.0
 11
-11.56188430508479
 21
-5.190578474576014
 31
0.0
  0
LINE
  5
4B0
330
1F
100
AcDbEntity
  8
SK2
  6
CONTINUOUS
370
25
 62
7
100
AcDbLine
 10
-12.22136645182481
 20
-4.106832259124054
 30
0.0
 11
-11.66795032226278
 21
-4.660248388686085
 31
0.0
  0
LINE
  5
4B1
330
1F
100
AcDbEntity
  8
SK2
  6
CONTINUOUS
370
25
 62
7
100
AcDbLine
 10
-12.15065577370616
 20
-3.753278868530778
 30
0.0
 11
-11.77401633944077
 21
-4.129918302796163
 31
0.0
  0
LINE
  5
4B2
330
1F
100
AcDbEntity
  8
SK2
  6
CONTINUOUS
370
25
 62
7
100
AcDbLine
 10
-12.0799450955875
 20
-3.399725477937508
 30
0.0
 11
-11.88008235661875
 21
-3.599588216906255
 31
0.0
  0
LINE
  5
4B3
330
1F
100
AcDbEntity
  8
SK2
  6
CONTINUOUS
370
25
 62
7
100
AcDbLine
 10
-12.00923441746884
 20
-3.046172087344232
 30
0.0
 11
-11.98614837379673
 21
-3.06925813101634
 31
0.0
  0
LINE
  5
4B4
330
1F
100
AcDbEntity
  8
SK2
  6
CONTINUOUS
370
25
 62
7
100
AcDbLine
 10
-12.0
 20
3.0
 30
0.0
 11
-13.0
 21
8.0
 31
0.0
  0
LINE
  5
4B5
330
1F
100
AcDbEntity
  8
SK2
  6
CONTINUOUS
370
25
 62
7
100
AcDbLine
 10
-13.0
 20
8.0
 30
0.0
 11
-11.0
 21
8.0
 31
0.0
  0
LINE
  5
4B6
330
1F
100
AcDbEntity
  8
SK2
  6
CONTINUOUS
370
25
 62
7
100
AcDbLine
 10
-11.0
 20
8.0
 30
0.0
 11
-12.0
 21
3.0
 31
0.0
  0
LINE
  5
4B7
330
1F
100
AcDbEntity
  8
SK2
  6
CONTINUOUS
370
25
 62
7
100
AcDbLine
 10
-12.02829363763428
 20
3.141468188171459
 30
0.0
 11
-11.95755954354857
 21
3.212202282257174
 31
0.0
  0
LINE
  5
4B8
330
1F
100
AcDbEntity
  8
SK2
  6
CONTINUOUS
370
25
 62
7
100
AcDbLine
 10
-12.09900431575294
 20
3.495021578764735
 30
0.0
 11
-11.85149352637059
 21
3.742532368147089
 31
0.0
  0
LINE
  5
4B9
330
1F
100
AcDbEntity
  8
SK2
  6
CONTINUOUS
370
25
 62
7
100
AcDbLine
 10
-12.16971499387159
 20
3.848574969358012
 30
0.0
 11
-11.7454275091926
 21
4.272862454037003
 31
0.0
  0
LINE
  5
4BA
330
1F
100
AcDbEntity
  8
SK2
  6
CONTINUOUS
370
25
 62
7
100
AcDbLine
 10
-12.24042567199026
 20
4.202128359951281
 30
0.0
 11
-11.63936149201462
 21
4.803192539926918
 31
0.0
  0
LINE
  5
4BB
330
1F
100
AcDbEntity
  8
SK2
  6
CONTINUOUS
370
25
 62
7
100
AcDbLine
 10
-12.31113635010891
 20
4.555681750544558
 30
0.0
 11
-11.53329547483663
 21
5.333522625816833
 31
0.0
  0
LINE
  5
4BC
330
1F
100
AcDbEntity
  8
SK2
  6
CONTINUOUS
370
25
 62
7
100
AcDbLine
 10
-12.38184702822758
 20
4.909235141137827
 30
0.0
 11
-11.42722945765864
 21
5.863852711706755
 31
0.0
  0
LINE
  5
4BD
330
1F
100
AcDbEntity
  8
SK2
  6
CONTINUOUS
370
25
 62
7
100
AcDbLine
 10
-12.45255770634623
 20
5.262788531731104
 30
0.0
 11
-11.32116344048066
 21
6.394182797596663
 31
0.0
  0
LINE
  5
4BE
330
1F
100
AcDbEntity
  8
SK2
  6
CONTINUOUS
370
25
 62
7
100
AcDbLine
 10
-12.52326838446488
 20
5.616341922324388
 30
0.0
 11
-11.21509742330268
 21
6.924512883486578
 31
0.0
  0
LINE
  5
4BF
330
1F
100
AcDbEntity
  8
SK2
  6
CONTINUOUS
370
25
 62
7
100
AcDbLine
 10
-12.59397906258354
 20
5.969895312917657
 30
0.0
 11
-11.1090314061247
 21
7.454842969376486
 31
0.0
  0
LINE
  5
4C0
330
1F
100
AcDbEntity
  8
SK2
  6
CONTINUOUS
370
25
 62
7
100
AcDbLine
 10
-12.66468974070219
 20
6.323448703510934
 30
0.0
 11
-11.00296538894672
 21
7.985173055266401
 31
0.0
  0
LINE
  5
4C1
330
1F
100
AcDbEntity
  8
SK2
  6
CONTINUOUS
370
25
 62
7
100
AcDbLine
 10
-12.73540041882085
 20
6.677002094104203
 30
0.0
 11
-11.41240251292506
 21
8.0
 31
0.0
  0
LINE
  5
4C2
330
1F
100
AcDbEntity
  8
SK2
  6
CONTINUOUS
370
25
 62
7
100
AcDbLine
 10
-12.8061110969395
 20
7.030555484697487
 30
0.0
 11
-11.83666658163699
 21
8.0
 31
0.0
  0
LINE
  5
4C3
330
1F
100
AcDbEntity
  8
SK2
  6
CONTINUOUS
370
25
 62
7
100
AcDbLine
 10
-12.87682177505815
 20
7.384108875290757
 30
0.0
 11
-12.26093065034891
 21
8.0
 31
0.0
  0
LINE
  5
4C4
330
1F
100
AcDbEntity
  8
SK2
  6
CONTINUOUS
370
25
 62
7
100
AcDbLine
 10
-12.94753245317681
 20
7.737662265884033
 30
0.0
 11
-12.68519471906085
 21
8.0
 31
0.0
  0
LINE
  5
4C5
330
1F
100
AcDbEntity
  8
SK2
  6
CONTINUOUS
370
25
 62
7
100
AcDbLine
 10
-12.0617057382114
 20
3.308528691056985
 30
0.0
 11
-11.9588628411924
 21
3.205685794037983
 31
0.0
  0
LINE
  5
4C6
330
1F
100
AcDbEntity
  8
SK2
  6
CONTINUOUS
370
25
 62
7
100
AcDbLine
 10
-12.16777175538937
 20
3.838858776946886
 30
0.0
 11
-11.88815216307376
 21
3.559239184631267
 31
0.0
  0
LINE
  5
4C7
330
1F
100
AcDbEntity
  8
SK2
  6
CONTINUOUS
370
25
 62
7
100
AcDbLine
 10
-12.27383777256735
 20
4.369188862836793
 30
0.0
 11
-11.8174414849551
 21
3.912792575224536
 31
0.0
  0
LINE
  5
4C8
330
1F
100
AcDbEntity
  8
SK2
  6
CONTINUOUS
370
25
 62
7
100
AcDbLine
 10
-12.37990378974534
 20
4.899518948726715
 30
0.0
 11
-11.74673080683644
 21
4.266345965817813
 31
0.0
  0
LINE
  5
4C9
330
1F
100
AcDbEntity
  8
SK2
  6
CONTINUOUS
370
25
 62
7
100
AcDbLine
 10
-12.48596980692333
 20
5.429849034616623
 30
0.0
 11
-11.67602012871778
 21
4.619899356411075
 31
0.0
  0
LINE
  5
4CA
330
1F
100
AcDbEntity
  8
SK2
  6
CONTINUOUS
370
25
 62
7
100
AcDbLine
 10
-12.59203582410131
 20
5.960179120506538
 30
0.0
 11
-11.60530945059913
 21
4.973452747004359
 31
0.0
  0
LINE
  5
4CB
330
1F
100
AcDbEntity
  8
SK2
  6
CONTINUOUS
370
25
 62
7
100
AcDbLine
 10
-12.69810184127929
 20
6.490509206396453
 30
0.0
 11
-11.53459877248048
 21
5.32700613759765
 31
0.0
  0
LINE
  5
4CC
330
1F
100
AcDbEntity
  8
SK2
  6
CONTINUOUS
370
25
 62
7
100
AcDbLine
 10
-12.80416785845728
 20
7.020839292286368
 30
0.0
 11
-11.46388809436182
 21
5.680559528190919
 31
0.0
  0
LINE
  5
4CD
330
1F
100
AcDbEntity
  8
SK2
  6
CONTINUOUS
370
25
 62
7
100
AcDbLine
 10
-12.91023387563526
 20
7.55116937817629
 30
0.0
 11
-11.39317741624316
 21
6.034112918784196
 31
0.0
  0
LINE
  5
4CE
330
1F
100
AcDbEntity
  8
SK2
  6
CONTINUOUS
370
25
 62
7
100
AcDbLine
 10
-12.93480042874705
 20
8.0
 30
0.0
 11
-11.3224667381245
 21
6.387666309377465
 31
0.0
  0
LINE
  5
4CF
330
1F
100
AcDbEntity
  8
SK2
  6
CONTINUOUS
370
25
 62
7
100
AcDbLine
 10
-12.51053636003512
 20
8.0
 30
0.0
 11
-11.25175606000585
 21
6.741219699970742
 31
0.0
  0
LINE
  5
4D0
330
1F
100
AcDbEntity
  8
SK2
  6
CONTINUOUS
370
25
 62
7
100
AcDbLine
 10
-12.08627229132318
 20
8.0
 30
0.0
 11
-11.1810453818872
 21
7.094773090564026
 31
0.0
  0
LINE
  5
4D1
330
1F
100
AcDbEntity
  8
SK2
  6
CONTINUOUS
370
25
 62
7
100
AcDbLine
 10
-11.66200822261124
 20
8.0
 30
0.0
 11
-11.11033470376854
 21
7.448326481157295
 31
0.0
  0
LINE
  5
4D2
330
1F
100
AcDbEntity
  8
SK2
  6
CONTINUOUS
370
25
 62
7
100
AcDbLine
 10
-11.23774415389931
 20
8.0
 30
0.0
 11
-11.03962402564989
 21
7.801879871750572
 31
0.0
  0
TEXT
  5
4D3
330
1F
100
AcDbEntity
  8
SK2
  6
CONTINUOUS
370
25
 62
7
100
AcDbText
 10
-13.5
 20
13.34583333333333
 30
0.0
 40
3.5
  1
6
 50
90.00000000000001
 72
     1
 11
-13.5
 21
14.5125
 31
0.0
100
AcDbText
  0
CIRCLE
  5
4D4
330
1F
100
AcDbEntity
  8
SK2
  6
CONTINUOUS
370
25
 62
7
100
AcDbCircle
 10
-15.25
 20
11.1875
 30
0.0
 40
1.4
  0
LINE
  5
4D5
330
1F
100
AcDbEntity
  8
SK2
  6
CONTINUOUS
370
25
 62
7
100
AcDbLine
 10
-13.85
 20
9.787500000000001
 30
0.0
 11
-16.65
 21
12.5875
 31
0.0
  0
LINE
  5
4D6
330
1F
100
AcDbEntity
  8
SK2
  6
CONTINUOUS
370
25
 62
7
100
AcDbLine
 10
0.0
 20
3.0
 30
0.0
 11
0.0
 21
16.00001
 31
0.0
  0
LINE
  5
4D7
330
1F
100
AcDbEntity
  8
SK2
  6
CONTINUOUS
370
25
 62
7
100
AcDbLine
 10
45.5
 20
16.00001
 30
0.0
 11
45.5
 21
3.0
 31
0.0
  0
LINE
  5
4D8
330
1F
100
AcDbEntity
  8
SK2
  6
CONTINUOUS
370
25
 62
7
100
AcDbLine
 10
0.0
 20
15.00001
 30
0.0
 11
45.5
 21
15.00001
 31
0.0
  0
LINE
  5
4D9
330
1F
100
AcDbEntity
  8
SK2
  6
CONTINUOUS
370
25
 62
7
100
AcDbLine
 10
0.0
 20
15.00001
 30
0.0
 11
5.0
 21
16.00001
 31
0.0
  0
LINE
  5
4DA
330
1F
100
AcDbEntity
  8
SK2
  6
CONTINUOUS
370
25
 62
7
100
AcDbLine
 10
5.0
 20
16.00001
 30
0.0
 11
5.0
 21
14.00001
 31
0.0
  0
LINE
  5
4DB
330
1F
100
AcDbEntity
  8
SK2
  6
CONTINUOUS
370
25
 62
7
100
AcDbLine
 10
5.0
 20
14.00001
 30
0.0
 11
0.0
 21
15.00001
 31
0.0
  0
LINE
  5
4DC
330
1F
100
AcDbEntity
  8
SK2
  6
CONTINUOUS
370
25
 62
7
100
AcDbLine
 10
4.808287613467705
 20
14.03835247730647
 30
0.0
 11
5.0
 21
14.23006486383876
 31
0.0
  0
LINE
  5
4DD
330
1F
100
AcDbEntity
  8
SK2
  6
CONTINUOUS
370
25
 62
7
100
AcDbLine
 10
4.454734222874428
 20
14.10906315542512
 30
0.0
 11
5.0
 21
14.65432893255069
 31
0.0
  0
LINE
  5
4DE
330
1F
100
AcDbEntity
  8
SK2
  6
CONTINUOUS
370
25
 62
7
100
AcDbLine
 10
4.101180832281159
 20
14.17977383354378
 30
0.0
 11
5.0
 21
15.07859300126262
 31
0.0
  0
LINE
  5
4DF
330
1F
100
AcDbEntity
  8
SK2
  6
CONTINUOUS
370
25
 62
7
100
AcDbLine
 10
3.747627441687875
 20
14.25048451166243
 30
0.0
 11
5.0
 21
15.50285706997455
 31
0.0
  0
LINE
  5
4E0
330
1F
100
AcDbEntity
  8
SK2
  6
CONTINUOUS
370
25
 62
7
100
AcDbLine
 10
3.394074051094599
 20
14.32119518978109
 30
0.0
 11
5.0
 21
15.92712113868649
 31
0.0
  0
LINE
  5
4E1
330
1F
100
AcDbEntity
  8
SK2
  6
CONTINUOUS
370
25
 62
7
100
AcDbLine
 10
3.040520660501322
 20
14.39190586789974
 30
0.0
 11
4.560780990751972
 21
15.91216619815039
 31
0.0
  0
LINE
  5
4E2
330
1F
100
AcDbEntity
  8
SK2
  6
CONTINUOUS
370
25
 62
7
100
AcDbLine
 10
2.686967269908052
 20
14.4626165460184
 30
0.0
 11
4.030450904862064
 21
15.80610018097241
 31
0.0
  0
LINE
  5
4E3
330
1F
100
AcDbEntity
  8
SK2
  6
CONTINUOUS
370
25
 62
7
100
AcDbLine
 10
2.333413879314769
 20
14.53332722413705
 30
0.0
 11
3.50012081897215
 21
15.70003416379443
 31
0.0
  0
LINE
  5
4E4
330
1F
100
AcDbEntity
  8
SK2
  6
CONTINUOUS
370
25
 62
7
100
AcDbLine
 10
1.979860488721492
 20
14.6040379022557
 30
0.0
 11
2.969790733082228
 21
15.59396814661644
 31
0.0
  0
LINE
  5
4E5
330
1F
100
AcDbEntity
  8
SK2
  6
CONTINUOUS
370
25
 62
7
100
AcDbLine
 10
1.626307098128223
 20
14.67474858037436
 30
0.0
 11
2.43946064719232
 21
15.48790212943846
 31
0.0
  0
LINE
  5
4E6
330
1F
100
AcDbEntity
  8
SK2
  6
CONTINUOUS
370
25
 62
7
100
AcDbLine
 10
1.272753707534946
 20
14.74545925849301
 30
0.0
 11
1.909130561302405
 21
15.38183611226047
 31
0.0
  0
LINE
  5
4E7
330
1F
100
AcDbEntity
  8
SK2
  6
CONTINUOUS
370
25
 62
7
100
AcDbLine
 10
0.9192003169416694
 20
14.81616993661167
 30
0.0
 11
1.37880047541249
 21
15.27577009508249
 31
0.0
  0
LINE
  5
4E8
330
1F
100
AcDbEntity
  8
SK2
  6
CONTINUOUS
370
25
 62
7
100
AcDbLine
 10
0.5656469263483856
 20
14.88688061473032
 30
0.0
 11
0.8484703895225678
 21
15.16970407790451
 31
0.0
  0
LINE
  5
4E9
330
1F
100
AcDbEntity
  8
SK2
  6
CONTINUOUS
370
25
 62
7
100
AcDbLine
 10
0.2120935357551161
 20
14.95759129284898
 30
0.0
 11
0.31814030363266
 21
15.06363806072653
 31
0.0
  0
LINE
  5
4EA
330
1F
100
AcDbEntity
  8
SK2
  6
CONTINUOUS
370
25
 62
7
100
AcDbLine
 10
0.0531508635547482
 20
15.01064017271095
 30
0.0
 11
0.0797262953321223
 21
14.98406474093358
 31
0.0
  0
LINE
  5
4EB
330
1F
100
AcDbEntity
  8
SK2
  6
CONTINUOUS
370
25
 62
7
100
AcDbLine
 10
0.4067042541480319
 20
15.0813508508296
 30
0.0
 11
0.6100563812220301
 21
14.8779987237556
 31
0.0
  0
LINE
  5
4EC
330
1F
100
AcDbEntity
  8
SK2
  6
CONTINUOUS
370
25
 62
7
100
AcDbLine
 10
0.7602576447413085
 20
15.15206152894826
 30
0.0
 11
1.140386467111952
 21
14.77193270657761
 31
0.0
  0
LINE
  5
4ED
330
1F
100
AcDbEntity
  8
SK2
  6
CONTINUOUS
370
25
 62
7
100
AcDbLine
 10
1.113811035334585
 20
15.22277220706691
 30
0.0
 11
1.67071655300186
 21
14.66586668939964
 31
0.0
  0
LINE
  5
4EE
330
1F
100
AcDbEntity
  8
SK2
  6
CONTINUOUS
370
25
 62
7
100
AcDbLine
 10
1.467364425927855
 20
15.29348288518557
 30
0.0
 11
2.201046638891782
 21
14.55980067222164
 31
0.0
  0
LINE
  5
4EF
330
1F
100
AcDbEntity
  8
SK2
  6
CONTINUOUS
370
25
 62
7
100
AcDbLine
 10
1.820917816521138
 20
15.36419356330422
 30
0.0
 11
2.73137672478169
 21
14.45373465504367
 31
0.0
  0
LINE
  5
4F0
330
1F
100
AcDbEntity
  8
SK2
  6
CONTINUOUS
370
25
 62
7
100
AcDbLine
 10
2.174471207114415
 20
15.43490424142287
 30
0.0
 11
3.261706810671612
 21
14.34766863786568
 31
0.0
  0
LINE
  5
4F1
330
1F
100
AcDbEntity
  8
SK2
  6
CONTINUOUS
370
25
 62
7
100
AcDbLine
 10
2.528024597707685
 20
15.50561491954154
 30
0.0
 11
3.79203689656152
 21
14.2416026206877
 31
0.0
  0
LINE
  5
4F2
330
1F
100
AcDbEntity
  8
SK2
  6
CONTINUOUS
370
25
 62
7
100
AcDbLine
 10
2.881577988300961
 20
15.57632559766019
 30
0.0
 11
4.322366982451442
 21
14.13553660350971
 31
0.0
  0
LINE
  5
4F3
330
1F
100
AcDbEntity
  8
SK2
  6
CONTINUOUS
370
25
 62
7
100
AcDbLine
 10
3.235131378894238
 20
15.64703627577885
 30
0.0
 11
4.85269706834135
 21
14.02947058633173
 31
0.0
  0
LINE
  5
4F4
330
1F
100
AcDbEntity
  8
SK2
  6
CONTINUOUS
370
25
 62
7
100
AcDbLine
 10
3.588684769487521
 20
15.71774695389749
 30
0.0
 11
5.0
 21
14.30643172338501
 31
0.0
  0
LINE
  5
4F5
330
1F
100
AcDbEntity
  8
SK2
  6
CONTINUOUS
370
25
 62
7
100
AcDbLine
 10
3.942238160080791
 20
15.78845763201615
 30
0.0
 11
5.0
 21
14.73069579209695
 31
0.0
  0
LINE
  5
4F6
330
1F
100
AcDbEntity
  8
SK2
  6
CONTINUOUS
370
25
 62
7
100
AcDbLine
 10
4.295791550674068
 20
15.85916831013481
 30
0.0
 11
5.0
 21
15.15495986080888
 31
0.0
  0
LINE
  5
4F7
330
1F
100
AcDbEntity
  8
SK2
  6
CONTINUOUS
370
25
 62
7
100
AcDbLine
 10
4.649344941267337
 20
15.92987898825346
 30
0.0
 11
5.0
 21
15.5792239295208
 31
0.0
  0
LINE
  5
4F8
330
1F
100
AcDbEntity
  8
SK2
  6
CONTINUOUS
370
25
 62
7
100
AcDbLine
 10
45.5
 20
15.00001
 30
0.0
 11
40.5
 21
14.00001
 31
0.0
  0
LINE
  5
4F9
330
1F
100
AcDbEntity
  8
SK2
  6
CONTINUOUS
370
25
 62
7
100
AcDbLine
 10
40.5
 20
14.00001
 30
0.0
 11
40.5
 21
16.00001
 31
0.0
  0
LINE
  5
4FA
330
1F
100
AcDbEntity
  8
SK2
  6
CONTINUOUS
370
25
 62
7
100
AcDbLine
 10
40.5
 20
16.00001
 30
0.0
 11
45.5
 21
15.00001
 31
0.0
  0
LINE
  5
4FB
330
1F
100
AcDbEntity
  8
SK2
  6
CONTINUOUS
370
25
 62
7
100
AcDbLine
 10
45.15812940796322
 20
14.93163588159264
 30
0.0
 11
45.27208627197548
 21
15.0455927456049
 31
0.0
  0
LINE
  5
4FC
330
1F
100
AcDbEntity
  8
SK2
  6
CONTINUOUS
370
25
 62
7
100
AcDbLine
 10
44.62779932207331
 20
14.82556986441466
 30
0.0
 11
44.91853288138221
 21
15.11630342372356
 31
0.0
  0
LINE
  5
4FD
330
1F
100
AcDbEntity
  8
SK2
  6
CONTINUOUS
370
25
 62
7
100
AcDbLine
 10
44.0974692361834
 20
14.71950384723668
 30
0.0
 11
44.56497949078894
 21
15.18701410184221
 31
0.0
  0
LINE
  5
4FE
330
1F
100
AcDbEntity
  8
SK2
  6
CONTINUOUS
370
25
 62
7
100
AcDbLine
 10
43.56713915029349
 20
14.6134378300587
 30
0.0
 11
44.21142610019566
 21
15.25772477996087
 31
0.0
  0
LINE
  5
4FF
330
1F
100
AcDbEntity
  8
SK2
  6
CONTINUOUS
370
25
 62
7
100
AcDbLine
 10
43.03680906440358
 20
14.50737181288072
 30
0.0
 11
43.85787270960239
 21
15.32843545807952
 31
0.0
  0
LINE
  5
500
330
1F
100
AcDbEntity
  8
SK2
  6
CONTINUOUS
370
25
 62
7
100
AcDbLine
 10
42.50647897851367
 20
14.40130579570273
 30
0.0
 11
43.50431931900911
 21
15.39914613619818
 31
0.0
  0
LINE
  5
501
330
1F
100
AcDbEntity
  8
SK2
  6
CONTINUOUS
370
25
 62
7
100
AcDbLine
 10
41.97614889262376
 20
14.29523977852475
 30
0.0
 11
43.15076592841584
 21
15.46985681431683
 31
0.0
  0
LINE
  5
502
330
1F
100
AcDbEntity
  8
SK2
  6
CONTINUOUS
370
25
 62
7
100
AcDbLine
 10
41.44581880673385
 20
14.18917376134677
 30
0.0
 11
42.79721253782257
 21
15.54056749243549
 31
0.0
  0
LINE
  5
503
330
1F
100
AcDbEntity
  8
SK2
  6
CONTINUOUS
370
25
 62
7
100
AcDbLine
 10
40.91548872084394
 20
14.08310774416879
 30
0.0
 11
42.44365914722929
 21
15.61127817055414
 31
0.0
  0
LINE
  5
504
330
1F
100
AcDbEntity
  8
SK2
  6
CONTINUOUS
370
25
 62
7
100
AcDbLine
 10
40.5
 20
14.09188309203677
 30
0.0
 11
42.09010575663602
 21
15.68198884867279
 31
0.0
  0
LINE
  5
505
330
1F
100
AcDbEntity
  8
SK2
  6
CONTINUOUS
370
25
 62
7
100
AcDbLine
 10
40.5
 20
14.5161471607487
 30
0.0
 11
41.73655236604274
 21
15.75269952679145
 31
0.0
  0
LINE
  5
506
330
1F
100
AcDbEntity
  8
SK2
  6
CONTINUOUS
370
25
 62
7
100
AcDbLine
 10
40.5
 20
14.94041122946063
 30
0.0
 11
41.38299897544947
 21
15.8234102049101
 31
0.0
  0
LINE
  5
507
330
1F
100
AcDbEntity
  8
SK2
  6
CONTINUOUS
370
25
 62
7
100
AcDbLine
 10
40.5
 20
15.36467529817256
 30
0.0
 11
41.02944558485621
 21
15.89412088302876
 31
0.0
  0
LINE
  5
508
330
1F
100
AcDbEntity
  8
SK2
  6
CONTINUOUS
370
25
 62
7
100
AcDbLine
 10
40.5
 20
15.78893936688448
 30
0.0
 11
40.67589219426293
 21
15.96483156114741
 31
0.0
  0
LINE
  5
509
330
1F
100
AcDbEntity
  8
SK2
  6
CONTINUOUS
370
25
 62
7
100
AcDbLine
 10
40.5
 20
14.3338095116624
 30
0.0
 11
40.77816625971867
 21
14.05564325194373
 31
0.0
  0
LINE
  5
50A
330
1F
100
AcDbEntity
  8
SK2
  6
CONTINUOUS
370
25
 62
7
100
AcDbLine
 10
40.5
 20
14.75807358037433
 30
0.0
 11
41.13171965031194
 21
14.12635393006239
 31
0.0
  0
LINE
  5
50B
330
1F
100
AcDbEntity
  8
SK2
  6
CONTINUOUS
370
25
 62
7
100
AcDbLine
 10
40.5
 20
15.18233764908626
 30
0.0
 11
41.48527304090521
 21
14.19706460818104
 31
0.0
  0
LINE
  5
50C
330
1F
100
AcDbEntity
  8
SK2
  6
CONTINUOUS
370
25
 62
7
100
AcDbLine
 10
40.5
 20
15.60660171779818
 30
0.0
 11
41.83882643149849
 21
14.2677752862997
 31
0.0
  0
LINE
  5
50D
330
1F
100
AcDbEntity
  8
SK2
  6
CONTINUOUS
370
25
 62
7
100
AcDbLine
 10
40.53856973313764
 20
15.99229605337247
 30
0.0
 11
42.19237982209176
 21
14.33848596441835
 31
0.0
  0
LINE
  5
50E
330
1F
100
AcDbEntity
  8
SK2
  6
CONTINUOUS
370
25
 62
7
100
AcDbLine
 10
41.06889981902755
 20
15.88623003619449
 30
0.0
 11
42.54593321268504
 21
14.40919664253701
 31
0.0
  0
LINE
  5
50F
330
1F
100
AcDbEntity
  8
SK2
  6
CONTINUOUS
370
25
 62
7
100
AcDbLine
 10
41.59922990491746
 20
15.78016401901651
 30
0.0
 11
42.89948660327831
 21
14.47990732065566
 31
0.0
  0
LINE
  5
510
330
1F
100
AcDbEntity
  8
SK2
  6
CONTINUOUS
370
25
 62
7
100
AcDbLine
 10
42.12955999080737
 20
15.67409800183852
 30
0.0
 11
43.25303999387158
 21
14.55061799877432
 31
0.0
  0
LINE
  5
511
330
1F
100
AcDbEntity
  8
SK2
  6
CONTINUOUS
370
25
 62
7
100
AcDbLine
 10
42.65989007669728
 20
15.56803198466054
 30
0.0
 11
43.60659338446486
 21
14.62132867689297
 31
0.0
  0
LINE
  5
512
330
1F
100
AcDbEntity
  8
SK2
  6
CONTINUOUS
370
25
 62
7
100
AcDbLine
 10
43.19022016258719
 20
15.46196596748256
 30
0.0
 11
43.96014677505813
 21
14.69203935501162
 31
0.0
  0
LINE
  5
513
330
1F
100
AcDbEntity
  8
SK2
  6
CONTINUOUS
370
25
 62
7
100
AcDbLine
 10
43.7205502484771
 20
15.35589995030458
 30
0.0
 11
44.3137001656514
 21
14.76275003313028
 31
0.0
  0
LINE
  5
514
330
1F
100
AcDbEntity
  8
SK2
  6
CONTINUOUS
370
25
 62
7
100
AcDbLine
 10
44.25088033436701
 20
15.2498339331266
 30
0.0
 11
44.66725355624467
 21
14.83346071124894
 31
0.0
  0
LINE
  5
515
330
1F
100
AcDbEntity
  8
SK2
  6
CONTINUOUS
370
25
 62
7
100
AcDbLine
 10
44.78121042025693
 20
15.14376791594862
 30
0.0
 11
45.02080694683795
 21
14.90417138936759
 31
0.0
  0
LINE
  5
516
330
1F
100
AcDbEntity
  8
SK2
  6
CONTINUOUS
370
25
 62
7
100
AcDbLine
 10
45.31154050614683
 20
15.03770189877063
 30
0.0
 11
45.37436033743123
 21
14.97488206748625
 31
0.0
  0
TEXT
  5
517
330
1F
100
AcDbEntity
  8
SK2
  6
CONTINUOUS
370
25
 62
7
100
AcDbText
 10
17.5
 20
16.50001
 30
0.0
 40
3.5
  1
45.5
 72
     1
 11
22.75
 21
16.50001
 31
0.0
100
AcDbText
  0
LINE
  5
518
330
1F
100
AcDbEntity
  8
2
  6
CONTINUOUS
370
25
 62
7
100
AcDbLine
 10
60.0
 20
-0.5
 30
0.0
 11
80.0
 21
-0.5000000000000024
 31
0.0
  0
LINE
  5
519
330
1F
100
AcDbEntity
  8
2
  6
CONTINUOUS
370
25
 62
7
100
AcDbLine
 10
80.0
 20
0.4999999999999976
 30
0.0
 11
60.0
 21
0.5
 31
0.0
  0
LINE
  5
51A
330
1F
100
AcDbEntity
  8
2
  6
CONTINUOUS
370
25
 62
7
100
AcDbLine
 10
79.0
 20
-7.500000000000003
 30
0.0
 11
79.0
 21
13.975
 31
0.0
  0
LINE
  5
51B
330
1F
100
AcDbEntity
  8
2
  6
CONTINUOUS
370
25
 62
7
100
AcDbLine
 10
79.0
 20
-0.5000000000000023
 30
0.0
 11
80.0
 21
-5.500000000000003
 31
0.0
  0
LINE
  5
51C
330
1F
100
AcDbEntity
  8
2
  6
CONTINUOUS
370
25
 62
7
100
AcDbLine
 10
80.0
 20
-5.500000000000003
 30
0.0
 11
78.0
 21
-5.500000000000003
 31
0.0
  0
LINE
  5
51D
330
1F
100
AcDbEntity
  8
2
  6
CONTINUOUS
370
25
 62
7
100
AcDbLine
 10
78.0
 20
-5.500000000000003
 30
0.0
 11
79.0
 21
-0.5000000000000023
 31
0.0
  0
LINE
  5
51E
330
1F
100
AcDbEntity
  8
2
  6
CONTINUOUS
370
25
 62
7
100
AcDbLine
 10
79.79947572691964
 20
-5.5
 30
0.0
 11
79.96657928781994
 21
-5.332896439099699
 31
0.0
  0
LINE
  5
51F
330
1F
100
AcDbEntity
  8
2
  6
CONTINUOUS
370
25
 62
7
100
AcDbLine
 10
79.37521165820772
 20
-5.5
 30
0.0
 11
79.8958686097013
 21
-4.979343048506429
 31
0.0
  0
LINE
  5
520
330
1F
100
AcDbEntity
  8
2
  6
CONTINUOUS
370
25
 62
7
100
AcDbLine
 10
78.9509475894958
 20
-5.5
 30
0.0
 11
79.82515793158262
 21
-4.62578965791316
 31
0.0
  0
LINE
  5
521
330
1F
100
AcDbEntity
  8
2
  6
CONTINUOUS
370
25
 62
7
100
AcDbLine
 10
78.52668352078388
 20
-5.5
 30
0.0
 11
79.75444725346398
 21
-4.272236267319883
 31
0.0
  0
LINE
  5
522
330
1F
100
AcDbEntity
  8
2
  6
CONTINUOUS
370
25
 62
7
100
AcDbLine
 10
78.10241945207194
 20
-5.5
 30
0.0
 11
79.68373657534532
 21
-3.918682876726614
 31
0.0
  0
LINE
  5
523
330
1F
100
AcDbEntity
  8
2
  6
CONTINUOUS
370
25
 62
7
100
AcDbLine
 10
78.08046115415999
 20
-5.097694229200009
 30
0.0
 11
79.61302589722666
 21
-3.56512948613333
 31
0.0
  0
LINE
  5
524
330
1F
100
AcDbEntity
  8
2
  6
CONTINUOUS
370
25
 62
7
100
AcDbLine
 10
78.18652717133799
 20
-4.567364143310101
 30
0.0
 11
79.54231521910802
 21
-3.21157609554006
 31
0.0
  0
LINE
  5
525
330
1F
100
AcDbEntity
  8
2
  6
CONTINUOUS
370
25
 62
7
100
AcDbLine
 10
78.29259318851597
 20
-4.037034057420172
 30
0.0
 11
79.47160454098935
 21
-2.858022704946784
 31
0.0
  0
LINE
  5
526
330
1F
100
AcDbEntity
  8
2
  6
CONTINUOUS
370
25
 62
7
100
AcDbLine
 10
78.39865920569395
 20
-3.506703971530264
 30
0.0
 11
79.4008938628707
 21
-2.504469314353507
 31
0.0
  0
LINE
  5
527
330
1F
100
AcDbEntity
  8
2
  6
CONTINUOUS
370
25
 62
7
100
AcDbLine
 10
78.50472522287194
 20
-2.976373885640349
 30
0.0
 11
79.33018318475204
 21
-2.150915923760238
 31
0.0
  0
LINE
  5
528
330
1F
100
AcDbEntity
  8
2
  6
CONTINUOUS
370
25
 62
7
100
AcDbLine
 10
78.6107912400499
 20
-2.446043799750441
 30
0.0
 11
79.25947250663339
 21
-1.797362533166961
 31
0.0
  0
LINE
  5
529
330
1F
100
AcDbEntity
  8
2
  6
CONTINUOUS
370
25
 62
7
100
AcDbLine
 10
78.7168572572279
 20
-1.915713713860526
 30
0.0
 11
79.18876182851474
 21
-1.443809142573677
 31
0.0
  0
LINE
  5
52A
330
1F
100
AcDbEntity
  8
2
  6
CONTINUOUS
370
25
 62
7
100
AcDbLine
 10
78.82292327440588
 20
-1.385383627970604
 30
0.0
 11
79.11805115039607
 21
-1.090255751980401
 31
0.0
  0
LINE
  5
52B
330
1F
100
AcDbEntity
  8
2
  6
CONTINUOUS
370
25
 62
7
100
AcDbLine
 10
78.92898929158386
 20
-0.8550535420806895
 30
0.0
 11
79.04734047227743
 21
-0.736702361387124
 31
0.0
  0
LINE
  5
52C
330
1F
100
AcDbEntity
  8
2
  6
CONTINUOUS
370
25
 62
7
100
AcDbLine
 10
78.02548339959392
 20
-5.372583002030417
 30
0.0
 11
78.1529003975635
 21
-5.5
 31
0.0
  0
LINE
  5
52D
330
1F
100
AcDbEntity
  8
2
  6
CONTINUOUS
370
25
 62
7
100
AcDbLine
 10
78.09619407771257
 20
-5.019029611437148
 30
0.0
 11
78.57716446627543
 21
-5.5
 31
0.0
  0
LINE
  5
52E
330
1F
100
AcDbEntity
  8
2
  6
CONTINUOUS
370
25
 62
7
100
AcDbLine
 10
78.16690475583124
 20
-4.665476220843878
 30
0.0
 11
79.00142853498735
 21
-5.5
 31
0.0
  0
LINE
  5
52F
330
1F
100
AcDbEntity
  8
2
  6
CONTINUOUS
370
25
 62
7
100
AcDbLine
 10
78.23761543394988
 20
-4.311922830250591
 30
0.0
 11
79.42569260369929
 21
-5.500000000000004
 31
0.0
  0
LINE
  5
530
330
1F
100
AcDbEntity
  8
2
  6
CONTINUOUS
370
25
 62
7
100
AcDbLine
 10
78.30832611206853
 20
-3.958369439657318
 30
0.0
 11
79.84995667241122
 21
-5.5
 31
0.0
  0
LINE
  5
531
330
1F
100
AcDbEntity
  8
2
  6
CONTINUOUS
370
25
 62
7
100
AcDbLine
 10
78.3790367901872
 20
-3.604816049064045
 30
0.0
 11
79.93144481471921
 21
-5.157224073596065
 31
0.0
  0
LINE
  5
532
330
1F
100
AcDbEntity
  8
2
  6
CONTINUOUS
370
25
 62
7
100
AcDbLine
 10
78.44974746830584
 20
-3.251262658470768
 30
0.0
 11
79.82537879754123
 21
-4.626893987706158
 31
0.0
  0
LINE
  5
533
330
1F
100
AcDbEntity
  8
2
  6
CONTINUOUS
370
25
 62
7
100
AcDbLine
 10
78.5204581464245
 20
-2.897709267877499
 30
0.0
 11
79.71931278036325
 21
-4.096563901816236
 31
0.0
  0
LINE
  5
534
330
1F
100
AcDbEntity
  8
2
  6
CONTINUOUS
370
25
 62
7
100
AcDbLine
 10
78.59116882454316
 20
-2.544155877284222
 30
0.0
 11
79.61324676318526
 21
-3.566233815926328
 31
0.0
  0
LINE
  5
535
330
1F
100
AcDbEntity
  8
2
  6
CONTINUOUS
370
25
 62
7
100
AcDbLine
 10
78.6618795026618
 20
-2.190602486690942
 30
0.0
 11
79.5071807460073
 21
-3.035903730036424
 31
0.0
  0
LINE
  5
536
330
1F
100
AcDbEntity
  8
2
  6
CONTINUOUS
370
25
 62
7
100
AcDbLine
 10
78.73259018078046
 20
-1.837049096097669
 30
0.0
 11
79.4011147288293
 21
-2.505573644146512
 31
0.0
  0
LINE
  5
537
330
1F
100
AcDbEntity
  8
2
  6
CONTINUOUS
370
25
 62
7
100
AcDbLine
 10
78.80330085889912
 20
-1.483495705504396
 30
0.0
 11
79.29504871165133
 21
-1.975243558256601
 31
0.0
  0
LINE
  5
538
330
1F
100
AcDbEntity
  8
2
  6
CONTINUOUS
370
25
 62
7
100
AcDbLine
 10
78.87401153701778
 20
-1.129942314911133
 30
0.0
 11
79.18898269447334
 21
-1.444913472366686
 31
0.0
  0
LINE
  5
539
330
1F
100
AcDbEntity
  8
2
  6
CONTINUOUS
370
25
 62
7
100
AcDbLine
 10
78.94472221513644
 20
-0.7763889243178497
 30
0.0
 11
79.08291667729536
 21
-0.9145833864767781
 31
0.0
  0
LINE
  5
53A
330
1F
100
AcDbEntity
  8
2
  6
CONTINUOUS
370
25
 62
7
100
AcDbLine
 10
79.0
 20
0.4999999999999977
 30
0.0
 11
78.0
 21
5.499999999999997
 31
0.0
  0
LINE
  5
53B
330
1F
100
AcDbEntity
  8
2
  6
CONTINUOUS
370
25
 62
7
100
AcDbLine
 10
78.0
 20
5.499999999999997
 30
0.0
 11
80.0
 21
5.499999999999997
 31
0.0
  0
LINE
  5
53C
330
1F
100
AcDbEntity
  8
2
  6
CONTINUOUS
370
25
 62
7
100
AcDbLine
 10
80.0
 20
5.499999999999997
 30
0.0
 11
79.0
 21
0.4999999999999977
 31
0.0
  0
LINE
  5
53D
330
1F
100
AcDbEntity
  8
2
  6
CONTINUOUS
370
25
 62
7
100
AcDbLine
 10
78.98177409191047
 20
0.5911295404476746
 30
0.0
 11
79.0273388621343
 21
0.6366943106715084
 31
0.0
  0
LINE
  5
53E
330
1F
100
AcDbEntity
  8
2
  6
CONTINUOUS
370
25
 62
7
100
AcDbLine
 10
78.91106341379182
 20
0.9446829310409512
 30
0.0
 11
79.13340487931228
 21
1.16702439656143
 31
0.0
  0
LINE
  5
53F
330
1F
100
AcDbEntity
  8
2
  6
CONTINUOUS
370
25
 62
7
100
AcDbLine
 10
78.84035273567315
 20
1.298236321634235
 30
0.0
 11
79.23947089649027
 21
1.697354482451345
 31
0.0
  0
LINE
  5
540
330
1F
100
AcDbEntity
  8
2
  6
CONTINUOUS
370
25
 62
7
100
AcDbLine
 10
78.7696420575545
 20
1.651789712227501
 30
0.0
 11
79.34553691366825
 21
2.227684568341257
 31
0.0
  0
LINE
  5
541
330
1F
100
AcDbEntity
  8
2
  6
CONTINUOUS
370
25
 62
7
100
AcDbLine
 10
78.69893137943583
 20
2.005343102820774
 30
0.0
 11
79.45160293084624
 21
2.758014654231168
 31
0.0
  0
LINE
  5
542
330
1F
100
AcDbEntity
  8
2
  6
CONTINUOUS
370
25
 62
7
100
AcDbLine
 10
78.62822070131719
 20
2.358896493414051
 30
0.0
 11
79.55766894802422
 21
3.288344740121076
 31
0.0
  0
LINE
  5
543
330
1F
100
AcDbEntity
  8
2
  6
CONTINUOUS
370
25
 62
7
100
AcDbLine
 10
78.55751002319855
 20
2.712449884007334
 30
0.0
 11
79.6637349652022
 21
3.818674826010998
 31
0.0
  0
LINE
  5
544
330
1F
100
AcDbEntity
  8
2
  6
CONTINUOUS
370
25
 62
7
100
AcDbLine
 10
78.48679934507987
 20
3.066003274600604
 30
0.0
 11
79.76980098238019
 21
4.349004911900906
 31
0.0
  0
LINE
  5
545
330
1F
100
AcDbEntity
  8
2
  6
CONTINUOUS
370
25
 62
7
100
AcDbLine
 10
78.41608866696123
 20
3.419556665193877
 30
0.0
 11
79.87586699955816
 21
4.879334997790824
 31
0.0
  0
LINE
  5
546
330
1F
100
AcDbEntity
  8
2
  6
CONTINUOUS
370
25
 62
7
100
AcDbLine
 10
78.34537798884256
 20
3.77311005578715
 30
0.0
 11
79.98193301673615
 21
5.409665083680743
 31
0.0
  0
LINE
  5
547
330
1F
100
AcDbEntity
  8
2
  6
CONTINUOUS
370
25
 62
7
100
AcDbLine
 10
78.27466731072391
 20
4.126663446380427
 30
0.0
 11
79.64800386434348
 21
5.5
 31
0.0
  0
LINE
  5
548
330
1F
100
AcDbEntity
  8
2
  6
CONTINUOUS
370
25
 62
7
100
AcDbLine
 10
78.20395663260527
 20
4.480216836973707
 30
0.0
 11
79.22373979563156
 21
5.499999999999996
 31
0.0
  0
LINE
  5
549
330
1F
100
AcDbEntity
  8
2
  6
CONTINUOUS
370
25
 62
7
100
AcDbLine
 10
78.1332459544866
 20
4.83377022756698
 30
0.0
 11
78.79947572691962
 21
5.5
 31
0.0
  0
LINE
  5
54A
330
1F
100
AcDbEntity
  8
2
  6
CONTINUOUS
370
25
 62
7
100
AcDbLine
 10
78.06253527636795
 20
5.187323618160256
 30
0.0
 11
78.37521165820769
 21
5.5
 31
0.0
  0
LINE
  5
54B
330
1F
100
AcDbEntity
  8
2
  6
CONTINUOUS
370
25
 62
7
100
AcDbLine
 10
78.90865260858342
 20
0.9567369570828461
 30
0.0
 11
79.06089826094438
 21
0.8044913047218998
 31
0.0
  0
LINE
  5
54C
330
1F
100
AcDbEntity
  8
2
  6
CONTINUOUS
370
25
 62
7
100
AcDbLine
 10
78.80258659140544
 20
1.487067042972761
 30
0.0
 11
79.13160893906303
 21
1.158044695315169
 31
0.0
  0
LINE
  5
54D
330
1F
100
AcDbEntity
  8
2
  6
CONTINUOUS
370
25
 62
7
100
AcDbLine
 10
78.69652057422746
 20
2.017397128862669
 30
0.0
 11
79.2023196171817
 21
1.511598085908439
 31
0.0
  0
LINE
  5
54E
330
1F
100
AcDbEntity
  8
2
  6
CONTINUOUS
370
25
 62
7
100
AcDbLine
 10
78.5904545570495
 20
2.54772721475257
 30
0.0
 11
79.27303029530034
 21
1.865151476501723
 31
0.0
  0
LINE
  5
54F
330
1F
100
AcDbEntity
  8
2
  6
CONTINUOUS
370
25
 62
7
100
AcDbLine
 10
78.4843885398715
 20
3.078057300642492
 30
0.0
 11
79.343740973419
 21
2.218704867094992
 31
0.0
  0
LINE
  5
550
330
1F
100
AcDbEntity
  8
2
  6
CONTINUOUS
370
25
 62
7
100
AcDbLine
 10
78.37832252269352
 20
3.608387386532399
 30
0.0
 11
79.41445165153766
 21
2.572258257688269
 31
0.0
  0
LINE
  5
551
330
1F
100
AcDbEntity
  8
2
  6
CONTINUOUS
370
25
 62
7
100
AcDbLine
 10
78.27225650551554
 20
4.138717472422307
 30
0.0
 11
79.4851623296563
 21
2.925811648281552
 31
0.0
  0
LINE
  5
552
330
1F
100
AcDbEntity
  8
2
  6
CONTINUOUS
370
25
 62
7
100
AcDbLine
 10
78.16619048833755
 20
4.669047558312222
 30
0.0
 11
79.55587300777496
 21
3.279365038874822
 31
0.0
  0
LINE
  5
553
330
1F
100
AcDbEntity
  8
2
  6
CONTINUOUS
370
25
 62
7
100
AcDbLine
 10
78.06012447115958
 20
5.199377644202116
 30
0.0
 11
79.62658368589362
 21
3.632918429468099
 31
0.0
  0
LINE
  5
554
330
1F
100
AcDbEntity
  8
2
  6
CONTINUOUS
370
25
 62
7
100
AcDbLine
 10
78.18376618407363
 20
5.5
 30
0.0
 11
79.69729436401227
 21
3.986471820061368
 31
0.0
  0
LINE
  5
555
330
1F
100
AcDbEntity
  8
2
  6
CONTINUOUS
370
25
 62
7
100
AcDbLine
 10
78.60803025278557
 20
5.5
 30
0.0
 11
79.76800504213092
 21
4.340025210654652
 31
0.0
  0
LINE
  5
556
330
1F
100
AcDbEntity
  8
2
  6
CONTINUOUS
370
25
 62
7
100
AcDbLine
 10
79.03229432149749
 20
5.5
 30
0.0
 11
79.83871572024958
 21
4.693578601247914
 31
0.0
  0
LINE
  5
557
330
1F
100
AcDbEntity
  8
2
  6
CONTINUOUS
370
25
 62
7
100
AcDbLine
 10
79.45655839020942
 20
5.5
 30
0.0
 11
79.90942639836824
 21
5.047131991841191
 31
0.0
  0
LINE
  5
558
330
1F
100
AcDbEntity
  8
2
  6
CONTINUOUS
370
25
 62
7
100
AcDbLine
 10
79.88082245892136
 20
5.5
 30
0.0
 11
79.9801370764869
 21
5.40068538243446
 31
0.0
  0
TEXT
  5
559
330
1F
100
AcDbEntity
  8
2
  6
CONTINUOUS
370
25
 62
7
100
AcDbText
 10
77.5
 20
11.42916666666667
 30
0.0
 40
3.5
  1
1
 50
90.00000000000001
 72
     1
 11
77.5
 21
12.0125
 31
0.0
100
AcDbText
  0
CIRCLE
  5
55A
330
1F
100
AcDbEntity
  8
2
  6
CONTINUOUS
370
25
 62
7
100
AcDbCircle
 10
75.75
 20
8.687499999999998
 30
0.0
 40
1.4
  0
LINE
  5
55B
330
1F
100
AcDbEntity
  8
2
  6
CONTINUOUS
370
25
 62
7
100
AcDbLine
 10
77.15
 20
7.2875
 30
0.0
 11
74.35
 21
10.0875
 31
0.0
  0
LINE
  5
55C
330
1F
100
AcDbEntity
  8
2
  6
CONTINUOUS
370
25
 62
7
100
AcDbLine
 10
58.5
 20
-0.47495
 30
0.0
 11
55.5
 21
-0.4749499999999996
 31
0.0
  0
LINE
  5
55D
330
1F
100
AcDbEntity
  8
2
  6
CONTINUOUS
370
25
 62
7
100
AcDbLine
 10
55.5
 20
0.4749500000000004
 30
0.0
 11
58.5
 21
0.47495
 31
0.0
  0
LINE
  5
55E
330
1F
100
AcDbEntity
  8
2
  6
CONTINUOUS
370
25
 62
7
100
AcDbLine
 10
56.5
 20
-7.47495
 30
0.0
 11
56.5
 21
22.87495
 31
0.0
  0
LINE
  5
55F
330
1F
100
AcDbEntity
  8
2
  6
CONTINUOUS
370
25
 62
7
100
AcDbLine
 10
56.5
 20
-0.4749499999999997
 30
0.0
 11
57.5
 21
-5.47495
 31
0.0
  0
LINE
  5
560
330
1F
100
AcDbEntity
  8
2
  6
CONTINUOUS
370
25
 62
7
100
AcDbLine
 10
57.5
 20
-5.47495
 30
0.0
 11
55.5
 21
-5.47495
 31
0.0
  0
LINE
  5
561
330
1F
100
AcDbEntity
  8
2
  6
CONTINUOUS
370
25
 62
7
100
AcDbLine
 10
55.5
 20
-5.47495
 30
0.0
 11
56.5
 21
-0.4749499999999997
 31
0.0
  0
LINE
  5
562
330
1F
100
AcDbEntity
  8
2
  6
CONTINUOUS
370
25
 62
7
100
AcDbLine
 10
57.26042136865183
 20
-5.47495
 30
0.0
 11
57.46007022810864
 21
-5.275301140543188
 31
0.0
  0
LINE
  5
563
330
1F
100
AcDbEntity
  8
2
  6
CONTINUOUS
370
25
 62
7
100
AcDbLine
 10
56.8361572999399
 20
-5.47495
 30
0.0
 11
57.38935954998998
 21
-4.921747749949917
 31
0.0
  0
LINE
  5
564
330
1F
100
AcDbEntity
  8
2
  6
CONTINUOUS
370
25
 62
7
100
AcDbLine
 10
56.41189323122797
 20
-5.47495
 30
0.0
 11
57.31864887187132
 21
-4.568194359356646
 31
0.0
  0
LINE
  5
565
330
1F
100
AcDbEntity
  8
2
  6
CONTINUOUS
370
25
 62
7
100
AcDbLine
 10
55.98762916251604
 20
-5.47495
 30
0.0
 11
57.24793819375267
 21
-4.214640968763369
 31
0.0
  0
LINE
  5
566
330
1F
100
AcDbEntity
  8
2
  6
CONTINUOUS
370
25
 62
7
100
AcDbLine
 10
55.56336509380412
 20
-5.47495
 30
0.0
 11
57.17722751563402
 21
-3.861087578170094
 31
0.0
  0
LINE
  5
567
330
1F
100
AcDbEntity
  8
2
  6
CONTINUOUS
370
25
 62
7
100
AcDbLine
 10
55.59022474372695
 20
-5.023826281365235
 30
0.0
 11
57.10651683751536
 21
-3.507534187576823
 31
0.0
  0
LINE
  5
568
330
1F
100
AcDbEntity
  8
2
  6
CONTINUOUS
370
25
 62
7
100
AcDbLine
 10
55.69629076090494
 20
-4.493496195475325
 30
0.0
 11
57.03580615939671
 21
-3.153980796983552
 31
0.0
  0
LINE
  5
569
330
1F
100
AcDbEntity
  8
2
  6
CONTINUOUS
370
25
 62
7
100
AcDbLine
 10
55.80235677808292
 20
-3.963166109585416
 30
0.0
 11
56.96509548127806
 21
-2.800427406390277
 31
0.0
  0
LINE
  5
56A
330
1F
100
AcDbEntity
  8
2
  6
CONTINUOUS
370
25
 62
7
100
AcDbLine
 10
55.9084227952609
 20
-3.432836023695506
 30
0.0
 11
56.8943848031594
 21
-2.446874015797002
 31
0.0
  0
LINE
  5
56B
330
1F
100
AcDbEntity
  8
2
  6
CONTINUOUS
370
25
 62
7
100
AcDbLine
 10
56.01448881243888
 20
-2.902505937805596
 30
0.0
 11
56.82367412504075
 21
-2.093320625203731
 31
0.0
  0
LINE
  5
56C
330
1F
100
AcDbEntity
  8
2
  6
CONTINUOUS
370
25
 62
7
100
AcDbLine
 10
56.12055482961686
 20
-2.372175851915685
 30
0.0
 11
56.75296344692209
 21
-1.739767234610458
 31
0.0
  0
LINE
  5
56D
330
1F
100
AcDbEntity
  8
2
  6
CONTINUOUS
370
25
 62
7
100
AcDbLine
 10
56.22662084679484
 20
-1.841845766025774
 30
0.0
 11
56.68225276880344
 21
-1.386213844017183
 31
0.0
  0
LINE
  5
56E
330
1F
100
AcDbEntity
  8
2
  6
CONTINUOUS
370
25
 62
7
100
AcDbLine
 10
56.33268686397282
 20
-1.311515680135866
 30
0.0
 11
56.61154209068479
 21
-1.032660453423908
 31
0.0
  0
LINE
  5
56F
330
1F
100
AcDbEntity
  8
2
  6
CONTINUOUS
370
25
 62
7
100
AcDbLine
 10
56.43875288115081
 20
-0.7811855942459545
 30
0.0
 11
56.54083141256613
 21
-0.6791070628306368
 31
0.0
  0
LINE
  5
570
330
1F
100
AcDbEntity
  8
2
  6
CONTINUOUS
370
25
 62
7
100
AcDbLine
 10
55.52364245930521
 20
-5.35673770347398
 30
0.0
 11
55.64185475583123
 21
-5.47495
 31
0.0
  0
LINE
  5
571
330
1F
100
AcDbEntity
  8
2
  6
CONTINUOUS
370
25
 62
7
100
AcDbLine
 10
55.59435313742386
 20
-5.003184312880708
 30
0.0
 11
56.06611882454315
 21
-5.474949999999999
 31
0.0
  0
LINE
  5
572
330
1F
100
AcDbEntity
  8
2
  6
CONTINUOUS
370
25
 62
7
100
AcDbLine
 10
55.66506381554251
 20
-4.649630922287436
 30
0.0
 11
56.49038289325508
 21
-5.47495
 31
0.0
  0
LINE
  5
573
330
1F
100
AcDbEntity
  8
2
  6
CONTINUOUS
370
25
 62
7
100
AcDbLine
 10
55.73577449366117
 20
-4.296077531694163
 30
0.0
 11
56.91464696196701
 21
-5.47495
 31
0.0
  0
LINE
  5
574
330
1F
100
AcDbEntity
  8
2
  6
CONTINUOUS
370
25
 62
7
100
AcDbLine
 10
55.80648517177983
 20
-3.942524141100888
 30
0.0
 11
57.33891103067894
 21
-5.47495
 31
0.0
  0
LINE
  5
575
330
1F
100
AcDbEntity
  8
2
  6
CONTINUOUS
370
25
 62
7
100
AcDbLine
 10
55.87719584989848
 20
-3.588970750507614
 30
0.0
 11
57.43420622515228
 21
-5.145981125761421
 31
0.0
  0
LINE
  5
576
330
1F
100
AcDbEntity
  8
2
  6
CONTINUOUS
370
25
 62
7
100
AcDbLine
 10
55.94790652801713
 20
-3.235417359914341
 30
0.0
 11
57.3281402079743
 21
-4.615651039871511
 31
0.0
  0
LINE
  5
577
330
1F
100
AcDbEntity
  8
2
  6
CONTINUOUS
370
25
 62
7
100
AcDbLine
 10
56.01861720613579
 20
-2.881863969321067
 30
0.0
 11
57.22207419079632
 21
-4.085320953981601
 31
0.0
  0
LINE
  5
578
330
1F
100
AcDbEntity
  8
2
  6
CONTINUOUS
370
25
 62
7
100
AcDbLine
 10
56.08932788425444
 20
-2.528310578727794
 30
0.0
 11
57.11600817361834
 21
-3.554990868091691
 31
0.0
  0
LINE
  5
579
330
1F
100
AcDbEntity
  8
2
  6
CONTINUOUS
370
25
 62
7
100
AcDbLine
 10
56.1600385623731
 20
-2.174757188134521
 30
0.0
 11
57.00994215644036
 21
-3.024660782201783
 31
0.0
  0
LINE
  5
57A
330
1F
100
AcDbEntity
  8
2
  6
CONTINUOUS
370
25
 62
7
100
AcDbLine
 10
56.23074924049175
 20
-1.821203797541248
 30
0.0
 11
56.90387613926237
 21
-2.494330696311872
 31
0.0
  0
LINE
  5
57B
330
1F
100
AcDbEntity
  8
2
  6
CONTINUOUS
370
25
 62
7
100
AcDbLine
 10
56.3014599186104
 20
-1.467650406947975
 30
0.0
 11
56.79781012208439
 21
-1.964000610421964
 31
0.0
  0
LINE
  5
57C
330
1F
100
AcDbEntity
  8
2
  6
CONTINUOUS
370
25
 62
7
100
AcDbLine
 10
56.37217059672906
 20
-1.1140970163547
 30
0.0
 11
56.69174410490641
 21
-1.433670524532051
 31
0.0
  0
LINE
  5
57D
330
1F
100
AcDbEntity
  8
2
  6
CONTINUOUS
370
25
 62
7
100
AcDbLine
 10
56.44288127484771
 20
-0.7605436257614269
 30
0.0
 11
56.58567808772843
 21
-0.9033404386421431
 31
0.0
  0
LINE
  5
57E
330
1F
100
AcDbEntity
  8
2
  6
CONTINUOUS
370
25
 62
7
100
AcDbLine
 10
56.5
 20
0.4749500000000003
 30
0.0
 11
55.5
 21
5.474950000000001
 31
0.0
  0
LINE
  5
57F
330
1F
100
AcDbEntity
  8
2
  6
CONTINUOUS
370
25
 62
7
100
AcDbLine
 10
55.5
 20
5.474950000000001
 30
0.0
 11
57.5
 21
5.474950000000001
 31
0.0
  0
LINE
  5
580
330
1F
100
AcDbEntity
  8
2
  6
CONTINUOUS
370
25
 62
7
100
AcDbLine
 10
57.5
 20
5.474950000000001
 30
0.0
 11
56.5
 21
0.4749500000000003
 31
0.0
  0
LINE
  5
581
330
1F
100
AcDbEntity
  8
2
  6
CONTINUOUS
370
25
 62
7
100
AcDbLine
 10
56.48361503219916
 20
0.5568748390041929
 30
0.0
 11
56.52457745170126
 21
0.5978372585062903
 31
0.0
  0
LINE
  5
582
330
1F
100
AcDbEntity
  8
2
  6
CONTINUOUS
370
25
 62
7
100
AcDbLine
 10
56.4129043540805
 20
0.9104282295974642
 30
0.0
 11
56.63064346887924
 21
1.1281673443962
 31
0.0
  0
LINE
  5
583
330
1F
100
AcDbEntity
  8
2
  6
CONTINUOUS
370
25
 62
7
100
AcDbLine
 10
56.34219367596185
 20
1.263981620190741
 30
0.0
 11
56.73670948605722
 21
1.658497430286111
 31
0.0
  0
LINE
  5
584
330
1F
100
AcDbEntity
  8
2
  6
CONTINUOUS
370
25
 62
7
100
AcDbLine
 10
56.27148299784319
 20
1.617535010784012
 30
0.0
 11
56.8427755032352
 21
2.188827516176023
 31
0.0
  0
LINE
  5
585
330
1F
100
AcDbEntity
  8
2
  6
CONTINUOUS
370
25
 62
7
100
AcDbLine
 10
56.20077231972454
 20
1.971088401377287
 30
0.0
 11
56.94884152041318
 21
2.71915760206593
 31
0.0
  0
LINE
  5
586
330
1F
100
AcDbEntity
  8
2
  6
CONTINUOUS
370
25
 62
7
100
AcDbLine
 10
56.13006164160589
 20
2.32464179197056
 30
0.0
 11
57.05490753759117
 21
3.249487687955838
 31
0.0
  0
LINE
  5
587
330
1F
100
AcDbEntity
  8
2
  6
CONTINUOUS
370
25
 62
7
100
AcDbLine
 10
56.05935096348723
 20
2.678195182563833
 30
0.0
 11
57.16097355476915
 21
3.779817773845748
 31
0.0
  0
LINE
  5
588
330
1F
100
AcDbEntity
  8
2
  6
CONTINUOUS
370
25
 62
7
100
AcDbLine
 10
55.98864028536858
 20
3.031748573157106
 30
0.0
 11
57.26703957194713
 21
4.310147859735658
 31
0.0
  0
LINE
  5
589
330
1F
100
AcDbEntity
  8
2
  6
CONTINUOUS
370
25
 62
7
100
AcDbLine
 10
55.91792960724992
 20
3.385301963750377
 30
0.0
 11
57.37310558912512
 21
4.840477945625567
 31
0.0
  0
LINE
  5
58A
330
1F
100
AcDbEntity
  8
2
  6
CONTINUOUS
370
25
 62
7
100
AcDbLine
 10
55.84721892913127
 20
3.73885535434365
 30
0.0
 11
57.4791716063031
 21
5.370808031515477
 31
0.0
  0
LINE
  5
58B
330
1F
100
AcDbEntity
  8
2
  6
CONTINUOUS
370
25
 62
7
100
AcDbLine
 10
55.77650825101261
 20
4.092408744936926
 30
0.0
 11
57.15904950607569
 21
5.474950000000001
 31
0.0
  0
LINE
  5
58C
330
1F
100
AcDbEntity
  8
2
  6
CONTINUOUS
370
25
 62
7
100
AcDbLine
 10
55.70579757289396
 20
4.4459621355302
 30
0.0
 11
56.73478543736376
 21
5.474950000000002
 31
0.0
  0
LINE
  5
58D
330
1F
100
AcDbEntity
  8
2
  6
CONTINUOUS
370
25
 62
7
100
AcDbLine
 10
55.63508689477531
 20
4.799515526123472
 30
0.0
 11
56.31052136865183
 21
5.474950000000001
 31
0.0
  0
LINE
  5
58E
330
1F
100
AcDbEntity
  8
2
  6
CONTINUOUS
370
25
 62
7
100
AcDbLine
 10
55.56437621665665
 20
5.153068916716743
 30
0.0
 11
55.88625729993991
 21
5.474950000000002
 31
0.0
  0
LINE
  5
58F
330
1F
100
AcDbEntity
  8
2
  6
CONTINUOUS
370
25
 62
7
100
AcDbLine
 10
56.3988890190165
 20
0.9805049049175061
 30
0.0
 11
56.56740732065567
 21
0.8119866032783367
 31
0.0
  0
LINE
  5
590
330
1F
100
AcDbEntity
  8
2
  6
CONTINUOUS
370
25
 62
7
100
AcDbLine
 10
56.29282300183851
 20
1.510834990807417
 30
0.0
 11
56.63811799877432
 21
1.165539993871613
 31
0.0
  0
LINE
  5
591
330
1F
100
AcDbEntity
  8
2
  6
CONTINUOUS
370
25
 62
7
100
AcDbLine
 10
56.18675698466053
 20
2.041165076697325
 30
0.0
 11
56.70882867689298
 21
1.519093384464883
 31
0.0
  0
LINE
  5
592
330
1F
100
AcDbEntity
  8
2
  6
CONTINUOUS
370
25
 62
7
100
AcDbLine
 10
56.08069096748255
 20
2.571495162587237
 30
0.0
 11
56.77953935501164
 21
1.872646775058158
 31
0.0
  0
LINE
  5
593
330
1F
100
AcDbEntity
  8
2
  6
CONTINUOUS
370
25
 62
7
100
AcDbLine
 10
55.97462495030457
 20
3.101825248477148
 30
0.0
 11
56.85025003313029
 21
2.226200165651433
 31
0.0
  0
LINE
  5
594
330
1F
100
AcDbEntity
  8
2
  6
CONTINUOUS
370
25
 62
7
100
AcDbLine
 10
55.86855893312659
 20
3.632155334367059
 30
0.0
 11
56.92096071124894
 21
2.579753556244706
 31
0.0
  0
LINE
  5
595
330
1F
100
AcDbEntity
  8
2
  6
CONTINUOUS
370
25
 62
7
100
AcDbLine
 10
55.76249291594861
 20
4.162485420256965
 30
0.0
 11
56.9916713893676
 21
2.933306946837979
 31
0.0
  0
LINE
  5
596
330
1F
100
AcDbEntity
  8
2
  6
CONTINUOUS
370
25
 62
7
100
AcDbLine
 10
55.65642689877063
 20
4.692815506146879
 30
0.0
 11
57.06238206748625
 21
3.286860337431253
 31
0.0
  0
LINE
  5
597
330
1F
100
AcDbEntity
  8
2
  6
CONTINUOUS
370
25
 62
7
100
AcDbLine
 10
55.55036088159265
 20
5.223145592036785
 30
0.0
 11
57.13309274560491
 21
3.640413728024525
 31
0.0
  0
LINE
  5
598
330
1F
100
AcDbEntity
  8
2
  6
CONTINUOUS
370
25
 62
7
100
AcDbLine
 10
55.72282054234135
 20
5.47495
 30
0.0
 11
57.20380342372356
 21
3.993967118617798
 31
0.0
  0
LINE
  5
599
330
1F
100
AcDbEntity
  8
2
  6
CONTINUOUS
370
25
 62
7
100
AcDbLine
 10
56.14708461105329
 20
5.47495
 30
0.0
 11
57.27451410184221
 21
4.347520509211071
 31
0.0
  0
LINE
  5
59A
330
1F
100
AcDbEntity
  8
2
  6
CONTINUOUS
370
25
 62
7
100
AcDbLine
 10
56.57134867976522
 20
5.47495
 30
0.0
 11
57.34522477996087
 21
4.701073899804344
 31
0.0
  0
LINE
  5
59B
330
1F
100
AcDbEntity
  8
2
  6
CONTINUOUS
370
25
 62
7
100
AcDbLine
 10
56.99561274847714
 20
5.47495
 30
0.0
 11
57.41593545807952
 21
5.054627290397617
 31
0.0
  0
LINE
  5
59C
330
1F
100
AcDbEntity
  8
2
  6
CONTINUOUS
370
25
 62
7
100
AcDbLine
 10
57.41987681718907
 20
5.47495
 30
0.0
 11
57.48664613619817
 21
5.40818068099089
 31
0.0
  0
TEXT
  5
59D
330
1F
100
AcDbEntity
  8
2
  6
CONTINUOUS
370
25
 62
7
100
AcDbText
 10
55.0
 20
11.49161666666666
 30
0.0
 40
3.5
  1
0.95
 50
89.99999999999997
 72
     1
 11
55.0
 21
16.44995
 31
0.0
100
AcDbText
  0
CIRCLE
  5
59E
330
1F
100
AcDbEntity
  8
2
  6
CONTINUOUS
370
25
 62
7
100
AcDbCircle
 10
53.25
 20
8.399949999999999
 30
0.0
 40
1.4
  0
LINE
  5
59F
330
1F
100
AcDbEntity
  8
2
  6
CONTINUOUS
370
25
 62
7
100
AcDbLine
 10
54.65
 20
6.99995
 30
0.0
 11
51.85
 21
9.79995
 31
0.0
  0
LINE
  5
5A0
330
1F
100
AcDbEntity
  8
2
  6
CONTINUOUS
370
25
 62
7
100
AcDbLine
 10
58.5
 20
-0.5
 30
0.0
 11
58.5
 21
-13.5
 31
0.0
  0
LINE
  5
5A1
330
1F
100
AcDbEntity
  8
2
  6
CONTINUOUS
370
25
 62
7
100
AcDbLine
 10
60.0
 20
-13.5
 30
0.0
 11
60.0
 21
-0.5
 31
0.0
  0
LINE
  5
5A2
330
1F
100
AcDbEntity
  8
2
  6
CONTINUOUS
370
25
 62
7
100
AcDbLine
 10
51.5
 20
-12.5
 30
0.0
 11
75.925
 21
-12.5
 31
0.0
  0
LINE
  5
5A3
330
1F
100
AcDbEntity
  8
2
  6
CONTINUOUS
370
25
 62
7
100
AcDbLine
 10
58.5
 20
-12.5
 30
0.0
 11
53.5
 21
-13.5
 31
0.0
  0
LINE
  5
5A4
330
1F
100
AcDbEntity
  8
2
  6
CONTINUOUS
370
25
 62
7
100
AcDbLine
 10
53.5
 20
-13.5
 30
0.0
 11
53.5
 21
-11.5
 31
0.0
  0
LINE
  5
5A5
330
1F
100
AcDbEntity
  8
2
  6
CONTINUOUS
370
25
 62
7
100
AcDbLine
 10
53.5
 20
-11.5
 30
0.0
 11
58.5
 21
-12.5
 31
0.0
  0
LINE
  5
5A6
330
1F
100
AcDbEntity
  8
2
  6
CONTINUOUS
370
25
 62
7
100
AcDbLine
 10
58.00391714945693
 20
-12.59921657010861
 30
0.0
 11
58.16927809963795
 21
-12.43385561992759
 31
0.0
  0
LINE
  5
5A7
330
1F
100
AcDbEntity
  8
2
  6
CONTINUOUS
370
25
 62
7
100
AcDbLine
 10
57.47358706356702
 20
-12.7052825872866
 30
0.0
 11
57.81572470904468
 21
-12.36314494180894
 31
0.0
  0
LINE
  5
5A8
330
1F
100
AcDbEntity
  8
2
  6
CONTINUOUS
370
25
 62
7
100
AcDbLine
 10
56.94325697767711
 20
-12.81134860446458
 30
0.0
 11
57.46217131845141
 21
-12.29243426369028
 31
0.0
  0
LINE
  5
5A9
330
1F
100
AcDbEntity
  8
2
  6
CONTINUOUS
370
25
 62
7
100
AcDbLine
 10
56.4129268917872
 20
-12.91741462164256
 30
0.0
 11
57.10861792785813
 21
-12.22172358557163
 31
0.0
  0
LINE
  5
5AA
330
1F
100
AcDbEntity
  8
2
  6
CONTINUOUS
370
25
 62
7
100
AcDbLine
 10
55.88259680589729
 20
-13.02348063882054
 30
0.0
 11
56.75506453726486
 21
-12.15101290745297
 31
0.0
  0
LINE
  5
5AB
330
1F
100
AcDbEntity
  8
2
  6
CONTINUOUS
370
25
 62
7
100
AcDbLine
 10
55.35226672000738
 20
-13.12954665599852
 30
0.0
 11
56.40151114667159
 21
-12.08030222933432
 31
0.0
  0
LINE
  5
5AC
330
1F
100
AcDbEntity
  8
2
  6
CONTINUOUS
370
25
 62
7
100
AcDbLine
 10
54.82193663411747
 20
-13.23561267317651
 30
0.0
 11
56.04795775607832
 21
-12.00959155121566
 31
0.0
  0
LINE
  5
5AD
330
1F
100
AcDbEntity
  8
2
  6
CONTINUOUS
370
25
 62
7
100
AcDbLine
 10
54.29160654822756
 20
-13.34167869035449
 30
0.0
 11
55.69440436548504
 21
-11.93888087309701
 31
0.0
  0
LINE
  5
5AE
330
1F
100
AcDbEntity
  8
2
  6
CONTINUOUS
370
25
 62
7
100
AcDbLine
 10
53.76127646233765
 20
-13.44774470753247
 30
0.0
 11
55.34085097489177
 21
-11.86817019497835
 31
0.0
  0
LINE
  5
5AF
330
1F
100
AcDbEntity
  8
2
  6
CONTINUOUS
370
25
 62
7
100
AcDbLine
 10
53.5
 20
-13.2847571011582
 30
0.0
 11
54.9872975842985
 21
-11.7974595168597
 31
0.0
  0
LINE
  5
5B0
330
1F
100
AcDbEntity
  8
2
  6
CONTINUOUS
370
25
 62
7
100
AcDbLine
 10
53.5
 20
-12.86049303244627
 30
0.0
 11
54.63374419370523
 21
-11.72674883874105
 31
0.0
  0
LINE
  5
5B1
330
1F
100
AcDbEntity
  8
2
  6
CONTINUOUS
370
25
 62
7
100
AcDbLine
 10
53.5
 20
-12.43622896373434
 30
0.0
 11
54.28019080311195
 21
-11.65603816062239
 31
0.0
  0
LINE
  5
5B2
330
1F
100
AcDbEntity
  8
2
  6
CONTINUOUS
370
25
 62
7
100
AcDbLine
 10
53.5
 20
-12.01196489502241
 30
0.0
 11
53.92663741251867
 21
-11.58532748250374
 31
0.0
  0
LINE
  5
5B3
330
1F
100
AcDbEntity
  8
2
  6
CONTINUOUS
370
25
 62
7
100
AcDbLine
 10
53.5
 20
-11.58770082631048
 30
0.0
 11
53.5730840219254
 21
-11.51461680438508
 31
0.0
  0
LINE
  5
5B4
330
1F
100
AcDbEntity
  8
2
  6
CONTINUOUS
370
25
 62
7
100
AcDbLine
 10
53.5
 20
-13.16486529258583
 30
0.0
 11
53.77927892284514
 21
-13.44414421543097
 31
0.0
  0
LINE
  5
5B5
330
1F
100
AcDbEntity
  8
2
  6
CONTINUOUS
370
25
 62
7
100
AcDbLine
 10
53.5
 20
-12.7406012238739
 30
0.0
 11
54.13283231343841
 21
-13.37343353731232
 31
0.0
  0
LINE
  5
5B6
330
1F
100
AcDbEntity
  8
2
  6
CONTINUOUS
370
25
 62
7
100
AcDbLine
 10
53.5
 20
-12.31633715516197
 30
0.0
 11
54.48638570403169
 21
-13.30272285919366
 31
0.0
  0
LINE
  5
5B7
330
1F
100
AcDbEntity
  8
2
  6
CONTINUOUS
370
25
 62
7
100
AcDbLine
 10
53.5
 20
-11.89207308645005
 30
0.0
 11
54.83993909462496
 21
-13.23201218107501
 31
0.0
  0
LINE
  5
5B8
330
1F
100
AcDbEntity
  8
2
  6
CONTINUOUS
370
25
 62
7
100
AcDbLine
 10
53.54023872782735
 20
-11.50804774556547
 30
0.0
 11
55.19349248521824
 21
-13.16130150295635
 31
0.0
  0
LINE
  5
5B9
330
1F
100
AcDbEntity
  8
2
  6
CONTINUOUS
370
25
 62
7
100
AcDbLine
 10
54.07056881371726
 20
-11.61411376274345
 30
0.0
 11
55.54704587581151
 21
-13.0905908248377
 31
0.0
  0
LINE
  5
5BA
330
1F
100
AcDbEntity
  8
2
  6
CONTINUOUS
370
25
 62
7
100
AcDbLine
 10
54.60089889960717
 20
-11.72017977992143
 30
0.0
 11
55.90059926640478
 21
-13.01988014671904
 31
0.0
  0
LINE
  5
5BB
330
1F
100
AcDbEntity
  8
2
  6
CONTINUOUS
370
25
 62
7
100
AcDbLine
 10
55.13122898549708
 20
-11.82624579709942
 30
0.0
 11
56.25415265699806
 21
-12.94916946860039
 31
0.0
  0
LINE
  5
5BC
330
1F
100
AcDbEntity
  8
2
  6
CONTINUOUS
370
25
 62
7
100
AcDbLine
 10
55.661559071387
 20
-11.9323118142774
 30
0.0
 11
56.60770604759133
 21
-12.87845879048173
 31
0.0
  0
LINE
  5
5BD
330
1F
100
AcDbEntity
  8
2
  6
CONTINUOUS
370
25
 62
7
100
AcDbLine
 10
56.1918891572769
 20
-12.03837783145538
 30
0.0
 11
56.9612594381846
 21
-12.80774811236308
 31
0.0
  0
LINE
  5
5BE
330
1F
100
AcDbEntity
  8
2
  6
CONTINUOUS
370
25
 62
7
100
AcDbLine
 10
56.72221924316682
 20
-12.14444384863337
 30
0.0
 11
57.31481282877787
 21
-12.73703743424442
 31
0.0
  0
LINE
  5
5BF
330
1F
100
AcDbEntity
  8
2
  6
CONTINUOUS
370
25
 62
7
100
AcDbLine
 10
57.25254932905673
 20
-12.25050986581135
 30
0.0
 11
57.66836621937115
 21
-12.66632675612577
 31
0.0
  0
LINE
  5
5C0
330
1F
100
AcDbEntity
  8
2
  6
CONTINUOUS
370
25
 62
7
100
AcDbLine
 10
57.78287941494663
 20
-12.35657588298933
 30
0.0
 11
58.02191960996442
 21
-12.59561607800712
 31
0.0
  0
LINE
  5
5C1
330
1F
100
AcDbEntity
  8
2
  6
CONTINUOUS
370
25
 62
7
100
AcDbLine
 10
58.31320950083655
 20
-12.46264190016731
 30
0.0
 11
58.3754730005577
 21
-12.52490539988846
 31
0.0
  0
LINE
  5
5C2
330
1F
100
AcDbEntity
  8
2
  6
CONTINUOUS
370
25
 62
7
100
AcDbLine
 10
60.0
 20
-12.5
 30
0.0
 11
65.0
 21
-11.5
 31
0.0
  0
LINE
  5
5C3
330
1F
100
AcDbEntity
  8
2
  6
CONTINUOUS
370
25
 62
7
100
AcDbLine
 10
65.0
 20
-11.5
 30
0.0
 11
65.0
 21
-13.5
 31
0.0
  0
LINE
  5
5C4
330
1F
100
AcDbEntity
  8
2
  6
CONTINUOUS
370
25
 62
7
100
AcDbLine
 10
65.0
 20
-13.5
 30
0.0
 11
60.0
 21
-12.5
 31
0.0
  0
LINE
  5
5C5
330
1F
100
AcDbEntity
  8
2
  6
CONTINUOUS
370
25
 62
7
100
AcDbLine
 10
64.65641735525872
 20
-13.43128347105175
 30
0.0
 11
65.0
 21
-13.08770082631048
 31
0.0
  0
LINE
  5
5C6
330
1F
100
AcDbEntity
  8
2
  6
CONTINUOUS
370
25
 62
7
100
AcDbLine
 10
64.30286396466546
 20
-13.36057279293309
 30
0.0
 11
65.0
 21
-12.66343675759855
 31
0.0
  0
LINE
  5
5C7
330
1F
100
AcDbEntity
  8
2
  6
CONTINUOUS
370
25
 62
7
100
AcDbLine
 10
63.94931057407219
 20
-13.28986211481444
 30
0.0
 11
65.0
 21
-12.23917268888663
 31
0.0
  0
LINE
  5
5C8
330
1F
100
AcDbEntity
  8
2
  6
CONTINUOUS
370
25
 62
7
100
AcDbLine
 10
63.59575718347892
 20
-13.21915143669579
 30
0.0
 11
65.0
 21
-11.8149086201747
 31
0.0
  0
LINE
  5
5C9
330
1F
100
AcDbEntity
  8
2
  6
CONTINUOUS
370
25
 62
7
100
AcDbLine
 10
63.24220379288565
 20
-13.14844075857713
 30
0.0
 11
64.86330568932847
 21
-11.52733886213431
 31
0.0
  0
LINE
  5
5CA
330
1F
100
AcDbEntity
  8
2
  6
CONTINUOUS
370
25
 62
7
100
AcDbLine
 10
62.88865040229237
 20
-13.07773008045848
 30
0.0
 11
64.33297560343856
 21
-11.63340487931229
 31
0.0
  0
LINE
  5
5CB
330
1F
100
AcDbEntity
  8
2
  6
CONTINUOUS
370
25
 62
7
100
AcDbLine
 10
62.53509701169909
 20
-13.00701940233982
 30
0.0
 11
63.80264551754865
 21
-11.73947089649027
 31
0.0
  0
LINE
  5
5CC
330
1F
100
AcDbEntity
  8
2
  6
CONTINUOUS
370
25
 62
7
100
AcDbLine
 10
62.18154362110582
 20
-12.93630872422117
 30
0.0
 11
63.27231543165874
 21
-11.84553691366825
 31
0.0
  0
LINE
  5
5CD
330
1F
100
AcDbEntity
  8
2
  6
CONTINUOUS
370
25
 62
7
100
AcDbLine
 10
61.82799023051255
 20
-12.86559804610251
 30
0.0
 11
62.74198534576882
 21
-11.95160293084624
 31
0.0
  0
LINE
  5
5CE
330
1F
100
AcDbEntity
  8
2
  6
CONTINUOUS
370
25
 62
7
100
AcDbLine
 10
61.47443683991928
 20
-12.79488736798385
 30
0.0
 11
62.21165525987892
 21
-12.05766894802422
 31
0.0
  0
LINE
  5
5CF
330
1F
100
AcDbEntity
  8
2
  6
CONTINUOUS
370
25
 62
7
100
AcDbLine
 10
61.12088344932601
 20
-12.7241766898652
 30
0.0
 11
61.68132517398901
 21
-12.1637349652022
 31
0.0
  0
LINE
  5
5D0
330
1F
100
AcDbEntity
  8
2
  6
CONTINUOUS
370
25
 62
7
100
AcDbLine
 10
60.76733005873273
 20
-12.65346601174654
 30
0.0
 11
61.1509950880991
 21
-12.26980098238018
 31
0.0
  0
LINE
  5
5D1
330
1F
100
AcDbEntity
  8
2
  6
CONTINUOUS
370
25
 62
7
100
AcDbLine
 10
60.41377666813946
 20
-12.58275533362789
 30
0.0
 11
60.62066500220919
 21
-12.37586699955816
 31
0.0
  0
LINE
  5
5D2
330
1F
100
AcDbEntity
  8
2
  6
CONTINUOUS
370
25
 62
7
100
AcDbLine
 10
60.06022327754619
 20
-12.51204465550924
 30
0.0
 11
60.09033491631928
 21
-12.48193301673614
 31
0.0
  0
LINE
  5
5D3
330
1F
100
AcDbEntity
  8
2
  6
CONTINUOUS
370
25
 62
7
100
AcDbLine
 10
60.26641817846592
 20
-12.44671636430682
 30
0.0
 11
60.39962726769888
 21
-12.57992545353977
 31
0.0
  0
LINE
  5
5D4
330
1F
100
AcDbEntity
  8
2
  6
CONTINUOUS
370
25
 62
7
100
AcDbLine
 10
60.61997156905919
 20
-12.37600568618816
 30
0.0
 11
60.92995735358878
 21
-12.68599147071776
 31
0.0
  0
LINE
  5
5D5
330
1F
100
AcDbEntity
  8
2
  6
CONTINUOUS
370
25
 62
7
100
AcDbLine
 10
60.97352495965247
 20
-12.30529500806951
 30
0.0
 11
61.46028743947869
 21
-12.79205748789574
 31
0.0
  0
LINE
  5
5D6
330
1F
100
AcDbEntity
  8
2
  6
CONTINUOUS
370
25
 62
7
100
AcDbLine
 10
61.32707835024574
 20
-12.23458432995085
 30
0.0
 11
61.99061752536861
 21
-12.89812350507372
 31
0.0
  0
LINE
  5
5D7
330
1F
100
AcDbEntity
  8
2
  6
CONTINUOUS
370
25
 62
7
100
AcDbLine
 10
61.680631740839
 20
-12.1638736518322
 30
0.0
 11
62.52094761125851
 21
-13.0041895222517
 31
0.0
  0
LINE
  5
5D8
330
1F
100
AcDbEntity
  8
2
  6
CONTINUOUS
370
25
 62
7
100
AcDbLine
 10
62.03418513143228
 20
-12.09316297371355
 30
0.0
 11
63.05127769714842
 21
-13.11025553942969
 31
0.0
  0
LINE
  5
5D9
330
1F
100
AcDbEntity
  8
2
  6
CONTINUOUS
370
25
 62
7
100
AcDbLine
 10
62.38773852202556
 20
-12.02245229559489
 30
0.0
 11
63.58160778303834
 21
-13.21632155660767
 31
0.0
  0
LINE
  5
5DA
330
1F
100
AcDbEntity
  8
2
  6
CONTINUOUS
370
25
 62
7
100
AcDbLine
 10
62.74129191261883
 20
-11.95174161747623
 30
0.0
 11
64.11193786892824
 21
-13.32238757378565
 31
0.0
  0
LINE
  5
5DB
330
1F
100
AcDbEntity
  8
2
  6
CONTINUOUS
370
25
 62
7
100
AcDbLine
 10
63.0948453032121
 20
-11.88103093935758
 30
0.0
 11
64.64226795481815
 21
-13.42845359096363
 31
0.0
  0
LINE
  5
5DC
330
1F
100
AcDbEntity
  8
2
  6
CONTINUOUS
370
25
 62
7
100
AcDbLine
 10
63.44839869380537
 20
-11.81032026123892
 30
0.0
 11
65.0
 21
-13.36192156743355
 31
0.0
  0
LINE
  5
5DD
330
1F
100
AcDbEntity
  8
2
  6
CONTINUOUS
370
25
 62
7
100
AcDbLine
 10
63.80195208439865
 20
-11.73960958312027
 30
0.0
 11
65.0
 21
-12.93765749872162
 31
0.0
  0
LINE
  5
5DE
330
1F
100
AcDbEntity
  8
2
  6
CONTINUOUS
370
25
 62
7
100
AcDbLine
 10
64.15550547499193
 20
-11.66889890500162
 30
0.0
 11
65.0
 21
-12.51339343000969
 31
0.0
  0
LINE
  5
5DF
330
1F
100
AcDbEntity
  8
2
  6
CONTINUOUS
370
25
 62
7
100
AcDbLine
 10
64.50905886558519
 20
-11.59818822688296
 30
0.0
 11
65.0
 21
-12.08912936129776
 31
0.0
  0
LINE
  5
5E0
330
1F
100
AcDbEntity
  8
2
  6
CONTINUOUS
370
25
 62
7
100
AcDbLine
 10
64.86261225617847
 20
-11.5274775487643
 30
0.0
 11
65.0
 21
-11.66486529258583
 31
0.0
  0
TEXT
  5
5E1
330
1F
100
AcDbEntity
  8
2
  6
CONTINUOUS
370
25
 62
7
100
AcDbText
 10
67.54583333333333
 20
-11.0
 30
0.0
 40
3.5
  1
1.5
 72
     1
 11
70.4625
 21
-11.0
 31
0.0
100
AcDbText
  0
LINE
  5
5E2
330
1F
100
AcDbEntity
  8
2
  6
CONTINUOUS
370
25
 62
7
100
AcDbLine
 10
45.5
 20
0.0
 30
0.0
 11
45.5
 21
29.39995
 31
0.0
  0
LINE
  5
5E3
330
1F
100
AcDbEntity
  8
2
  6
CONTINUOUS
370
25
 62
7
100
AcDbLine
 10
60.0
 20
29.39995
 30
0.0
 11
60.0
 21
0.5
 31
0.0
  0
LINE
  5
5E4
330
1F
100
AcDbEntity
  8
2
  6
CONTINUOUS
370
25
 62
7
100
AcDbLine
 10
38.5
 20
28.39995
 30
0.0
 11
67.0
 21
28.39995
 31
0.0
  0
LINE
  5
5E5
330
1F
100
AcDbEntity
  8
2
  6
CONTINUOUS
370
25
 62
7
100
AcDbLine
 10
45.5
 20
28.39995
 30
0.0
 11
40.5
 21
27.39995
 31
0.0
  0
LINE
  5
5E6
330
1F
100
AcDbEntity
  8
2
  6
CONTINUOUS
370
25
 62
7
100
AcDbLine
 10
40.5
 20
27.39995
 30
0.0
 11
40.5
 21
29.39995
 31
0.0
  0
LINE
  5
5E7
330
1F
100
AcDbEntity
  8
2
  6
CONTINUOUS
370
25
 62
7
100
AcDbLine
 10
40.5
 20
29.39995
 30
0.0
 11
45.5
 21
28.39995
 31
0.0
  0
LINE
  5
5E8
330
1F
100
AcDbEntity
  8
2
  6
CONTINUOUS
370
25
 62
7
100
AcDbLine
 10
45.46782174537602
 20
28.3935143490752
 30
0.0
 11
45.47854783025068
 21
28.40424043394986
 31
0.0
  0
LINE
  5
5E9
330
1F
100
AcDbEntity
  8
2
  6
CONTINUOUS
370
25
 62
7
100
AcDbLine
 10
44.93749165948611
 20
28.28744833189722
 30
0.0
 11
45.12499443965741
 21
28.47495111206851
 31
0.0
  0
LINE
  5
5EA
330
1F
100
AcDbEntity
  8
2
  6
CONTINUOUS
370
25
 62
7
100
AcDbLine
 10
44.40716157359621
 20
28.18138231471924
 30
0.0
 11
44.77144104906414
 21
28.54566179018717
 31
0.0
  0
LINE
  5
5EB
330
1F
100
AcDbEntity
  8
2
  6
CONTINUOUS
370
25
 62
7
100
AcDbLine
 10
43.87683148770629
 20
28.07531629754126
 30
0.0
 11
44.41788765847086
 21
28.61637246830583
 31
0.0
  0
LINE
  5
5EC
330
1F
100
AcDbEntity
  8
2
  6
CONTINUOUS
370
25
 62
7
100
AcDbLine
 10
43.34650140181638
 20
27.96925028036327
 30
0.0
 11
44.06433426787758
 21
28.68708314642448
 31
0.0
  0
LINE
  5
5ED
330
1F
100
AcDbEntity
  8
2
  6
CONTINUOUS
370
25
 62
7
100
AcDbLine
 10
42.81617131592647
 20
27.86318426318529
 30
0.0
 11
43.71078087728431
 21
28.75779382454314
 31
0.0
  0
LINE
  5
5EE
330
1F
100
AcDbEntity
  8
2
  6
CONTINUOUS
370
25
 62
7
100
AcDbLine
 10
42.28584123003655
 20
27.75711824600731
 30
0.0
 11
43.35722748669104
 21
28.82850450266179
 31
0.0
  0
LINE
  5
5EF
330
1F
100
AcDbEntity
  8
2
  6
CONTINUOUS
370
25
 62
7
100
AcDbLine
 10
41.75551114414665
 20
27.65105222882933
 30
0.0
 11
43.00367409609776
 21
28.89921518078044
 31
0.0
  0
LINE
  5
5F0
330
1F
100
AcDbEntity
  8
2
  6
CONTINUOUS
370
25
 62
7
100
AcDbLine
 10
41.22518105825674
 20
27.54498621165135
 30
0.0
 11
42.65012070550449
 21
28.9699258588991
 31
0.0
  0
LINE
  5
5F1
330
1F
100
AcDbEntity
  8
2
  6
CONTINUOUS
370
25
 62
7
100
AcDbLine
 10
40.69485097236682
 20
27.43892019447336
 30
0.0
 11
42.29656731491121
 21
29.04063653701775
 31
0.0
  0
LINE
  5
5F2
330
1F
100
AcDbEntity
  8
2
  6
CONTINUOUS
370
25
 62
7
100
AcDbLine
 10
40.5
 20
27.66833329081846
 30
0.0
 11
41.94301392431794
 21
29.11134721513641
 31
0.0
  0
LINE
  5
5F3
330
1F
100
AcDbEntity
  8
2
  6
CONTINUOUS
370
25
 62
7
100
AcDbLine
 10
40.5
 20
28.09259735953039
 30
0.0
 11
41.58946053372466
 21
29.18205789325506
 31
0.0
  0
LINE
  5
5F4
330
1F
100
AcDbEntity
  8
2
  6
CONTINUOUS
370
25
 62
7
100
AcDbLine
 10
40.5
 20
28.51686142824233
 30
0.0
 11
41.23590714313139
 21
29.25276857137372
 31
0.0
  0
LINE
  5
5F5
330
1F
100
AcDbEntity
  8
2
  6
CONTINUOUS
370
25
 62
7
100
AcDbLine
 10
40.5
 20
28.94112549695426
 30
0.0
 11
40.88235375253811
 21
29.32347924949238
 31
0.0
  0
LINE
  5
5F6
330
1F
100
AcDbEntity
  8
2
  6
CONTINUOUS
370
25
 62
7
100
AcDbLine
 10
40.5
 20
29.36538956566619
 30
0.0
 11
40.52880036194484
 21
29.39418992761103
 31
0.0
  0
LINE
  5
5F7
330
1F
100
AcDbEntity
  8
2
  6
CONTINUOUS
370
25
 62
7
100
AcDbLine
 10
40.5
 20
27.48599564173217
 30
0.0
 11
40.57170470144348
 21
27.41429094028869
 31
0.0
  0
LINE
  5
5F8
330
1F
100
AcDbEntity
  8
2
  6
CONTINUOUS
370
25
 62
7
100
AcDbLine
 10
40.5
 20
27.9102597104441
 30
0.0
 11
40.92525809203676
 21
27.48500161840735
 31
0.0
  0
LINE
  5
5F9
330
1F
100
AcDbEntity
  8
2
  6
CONTINUOUS
370
25
 62
7
100
AcDbLine
 10
40.5
 20
28.33452377915602
 30
0.0
 11
41.27881148263003
 21
27.555712296526
 31
0.0
  0
LINE
  5
5FA
330
1F
100
AcDbEntity
  8
2
  6
CONTINUOUS
370
25
 62
7
100
AcDbLine
 10
40.5
 20
28.75878784786795
 30
0.0
 11
41.6323648732233
 21
27.62642297464466
 31
0.0
  0
LINE
  5
5FB
330
1F
100
AcDbEntity
  8
2
  6
CONTINUOUS
370
25
 62
7
100
AcDbLine
 10
40.5
 20
29.18305191657988
 30
0.0
 11
41.98591826381657
 21
27.69713365276331
 31
0.0
  0
LINE
  5
5FC
330
1F
100
AcDbEntity
  8
2
  6
CONTINUOUS
370
25
 62
7
100
AcDbLine
 10
40.75920748161477
 20
29.34810850367704
 30
0.0
 11
42.33947165440985
 21
27.76784433088197
 31
0.0
  0
LINE
  5
5FD
330
1F
100
AcDbEntity
  8
2
  6
CONTINUOUS
370
25
 62
7
100
AcDbLine
 10
41.28953756750468
 20
29.24204248649906
 30
0.0
 11
42.69302504500312
 21
27.83855500900062
 31
0.0
  0
LINE
  5
5FE
330
1F
100
AcDbEntity
  8
2
  6
CONTINUOUS
370
25
 62
7
100
AcDbLine
 10
41.81986765339459
 20
29.13597646932108
 30
0.0
 11
43.04657843559639
 21
27.90926568711928
 31
0.0
  0
LINE
  5
5FF
330
1F
100
AcDbEntity
  8
2
  6
CONTINUOUS
370
25
 62
7
100
AcDbLine
 10
42.3501977392845
 20
29.0299104521431
 30
0.0
 11
43.40013182618967
 21
27.97997636523793
 31
0.0
  0
LINE
  5
600
330
1F
100
AcDbEntity
  8
2
  6
CONTINUOUS
370
25
 62
7
100
AcDbLine
 10
42.88052782517442
 20
28.92384443496511
 30
0.0
 11
43.75368521678294
 21
28.05068704335659
 31
0.0
  0
LINE
  5
601
330
1F
100
AcDbEntity
  8
2
  6
CONTINUOUS
370
25
 62
7
100
AcDbLine
 10
43.41085791106433
 20
28.81777841778713
 30
0.0
 11
44.10723860737622
 21
28.12139772147524
 31
0.0
  0
LINE
  5
602
330
1F
100
AcDbEntity
  8
2
  6
CONTINUOUS
370
25
 62
7
100
AcDbLine
 10
43.94118799695424
 20
28.71171240060915
 30
0.0
 11
44.46079199796949
 21
28.1921083995939
 31
0.0
  0
LINE
  5
603
330
1F
100
AcDbEntity
  8
2
  6
CONTINUOUS
370
25
 62
7
100
AcDbLine
 10
44.47151808284415
 20
28.60564638343117
 30
0.0
 11
44.81434538856277
 21
28.26281907771255
 31
0.0
  0
LINE
  5
604
330
1F
100
AcDbEntity
  8
2
  6
CONTINUOUS
370
25
 62
7
100
AcDbLine
 10
45.00184816873406
 20
28.49958036625318
 30
0.0
 11
45.16789877915604
 21
28.3335297558312
 31
0.0
  0
LINE
  5
605
330
1F
100
AcDbEntity
  8
2
  6
CONTINUOUS
370
25
 62
7
100
AcDbLine
 10
60.0
 20
28.39995
 30
0.0
 11
65.0
 21
29.39995
 31
0.0
  0
LINE
  5
606
330
1F
100
AcDbEntity
  8
2
  6
CONTINUOUS
370
25
 62
7
100
AcDbLine
 10
65.0
 20
29.39995
 30
0.0
 11
65.0
 21
27.39995
 31
0.0
  0
LINE
  5
607
330
1F
100
AcDbEntity
  8
2
  6
CONTINUOUS
370
25
 62
7
100
AcDbLine
 10
65.0
 20
27.39995
 30
0.0
 11
60.0
 21
28.39995
 31
0.0
  0
LINE
  5
608
330
1F
100
AcDbEntity
  8
2
  6
CONTINUOUS
370
25
 62
7
100
AcDbLine
 10
64.86577724539447
 20
27.42679455092111
 30
0.0
 11
65.0
 21
27.56101730552664
 31
0.0
  0
LINE
  5
609
330
1F
100
AcDbEntity
  8
2
  6
CONTINUOUS
370
25
 62
7
100
AcDbLine
 10
64.51222385480119
 20
27.49750522903976
 30
0.0
 11
65.0
 21
27.98528137423857
 31
0.0
  0
LINE
  5
60A
330
1F
100
AcDbEntity
  8
2
  6
CONTINUOUS
370
25
 62
7
100
AcDbLine
 10
64.15867046420792
 20
27.56821590715841
 30
0.0
 11
65.0
 21
28.4095454429505
 31
0.0
  0
LINE
  5
60B
330
1F
100
AcDbEntity
  8
2
  6
CONTINUOUS
370
25
 62
7
100
AcDbLine
 10
63.80511707361465
 20
27.63892658527707
 30
0.0
 11
65.0
 21
28.83380951166242
 31
0.0
  0
LINE
  5
60C
330
1F
100
AcDbEntity
  8
2
  6
CONTINUOUS
370
25
 62
7
100
AcDbLine
 10
63.45156368302138
 20
27.70963726339572
 30
0.0
 11
65.0
 21
29.25807358037435
 31
0.0
  0
LINE
  5
60D
330
1F
100
AcDbEntity
  8
2
  6
CONTINUOUS
370
25
 62
7
100
AcDbLine
 10
63.0980102924281
 20
27.78034794151438
 30
0.0
 11
64.64701543864214
 21
29.32935308772842
 31
0.0
  0
LINE
  5
60E
330
1F
100
AcDbEntity
  8
2
  6
CONTINUOUS
370
25
 62
7
100
AcDbLine
 10
62.74445690183482
 20
27.85105861963303
 30
0.0
 11
64.11668535275223
 21
29.22328707055044
 31
0.0
  0
LINE
  5
60F
330
1F
100
AcDbEntity
  8
2
  6
CONTINUOUS
370
25
 62
7
100
AcDbLine
 10
62.39090351124155
 20
27.92176929775169
 30
0.0
 11
63.58635526686232
 21
29.11722105337246
 31
0.0
  0
LINE
  5
610
330
1F
100
AcDbEntity
  8
2
  6
CONTINUOUS
370
25
 62
7
100
AcDbLine
 10
62.03735012064828
 20
27.99247997587035
 30
0.0
 11
63.05602518097241
 21
29.01115503619447
 31
0.0
  0
LINE
  5
611
330
1F
100
AcDbEntity
  8
2
  6
CONTINUOUS
370
25
 62
7
100
AcDbLine
 10
61.68379673005501
 20
28.063190653989
 30
0.0
 11
62.5256950950825
 21
28.90508901901649
 31
0.0
  0
LINE
  5
612
330
1F
100
AcDbEntity
  8
2
  6
CONTINUOUS
370
25
 62
7
100
AcDbLine
 10
61.33024333946173
 20
28.13390133210765
 30
0.0
 11
61.99536500919258
 21
28.79902300183851
 31
0.0
  0
LINE
  5
613
330
1F
100
AcDbEntity
  8
2
  6
CONTINUOUS
370
25
 62
7
100
AcDbLine
 10
60.97668994886845
 20
28.20461201022631
 30
0.0
 11
61.46503492330267
 21
28.69295698466053
 31
0.0
  0
LINE
  5
614
330
1F
100
AcDbEntity
  8
2
  6
CONTINUOUS
370
25
 62
7
100
AcDbLine
 10
60.62313655827518
 20
28.27532268834496
 30
0.0
 11
60.93470483741277
 21
28.58689096748255
 31
0.0
  0
LINE
  5
615
330
1F
100
AcDbEntity
  8
2
  6
CONTINUOUS
370
25
 62
7
100
AcDbLine
 10
60.2695831676819
 20
28.34603336646362
 30
0.0
 11
60.40437475152285
 21
28.48082495030457
 31
0.0
  0
LINE
  5
616
330
1F
100
AcDbEntity
  8
2
  6
CONTINUOUS
370
25
 62
7
100
AcDbLine
 10
60.31248750718058
 20
28.46244750143611
 30
0.0
 11
60.46873126077087
 21
28.30620374784583
 31
0.0
  0
LINE
  5
617
330
1F
100
AcDbEntity
  8
2
  6
CONTINUOUS
370
25
 62
7
100
AcDbLine
 10
60.66604089777385
 20
28.53315817955477
 30
0.0
 11
60.99906134666078
 21
28.20013773066784
 31
0.0
  0
LINE
  5
618
330
1F
100
AcDbEntity
  8
2
  6
CONTINUOUS
370
25
 62
7
100
AcDbLine
 10
61.01959428836713
 20
28.60386885767342
 30
0.0
 11
61.52939143255069
 21
28.09407171348986
 31
0.0
  0
LINE
  5
619
330
1F
100
AcDbEntity
  8
2
  6
CONTINUOUS
370
25
 62
7
100
AcDbLine
 10
61.3731476789604
 20
28.67457953579208
 30
0.0
 11
62.0597215184406
 21
27.98800569631188
 31
0.0
  0
LINE
  5
61A
330
1F
100
AcDbEntity
  8
2
  6
CONTINUOUS
370
25
 62
7
100
AcDbLine
 10
61.72670106955368
 20
28.74529021391073
 30
0.0
 11
62.59005160433051
 21
27.8819396791339
 31
0.0
  0
LINE
  5
61B
330
1F
100
AcDbEntity
  8
2
  6
CONTINUOUS
370
25
 62
7
100
AcDbLine
 10
62.08025446014695
 20
28.81600089202939
 30
0.0
 11
63.12038169022042
 21
27.77587366195591
 31
0.0
  0
LINE
  5
61C
330
1F
100
AcDbEntity
  8
2
  6
CONTINUOUS
370
25
 62
7
100
AcDbLine
 10
62.43380785074023
 20
28.88671157014804
 30
0.0
 11
63.65071177611034
 21
27.66980764477793
 31
0.0
  0
LINE
  5
61D
330
1F
100
AcDbEntity
  8
2
  6
CONTINUOUS
370
25
 62
7
100
AcDbLine
 10
62.7873612413335
 20
28.95742224826669
 30
0.0
 11
64.18104186200024
 21
27.56374162759995
 31
0.0
  0
LINE
  5
61E
330
1F
100
AcDbEntity
  8
2
  6
CONTINUOUS
370
25
 62
7
100
AcDbLine
 10
63.14091463192678
 20
29.02813292638535
 30
0.0
 11
64.71137194789016
 21
27.45767561042197
 31
0.0
  0
LINE
  5
61F
330
1F
100
AcDbEntity
  8
2
  6
CONTINUOUS
370
25
 62
7
100
AcDbLine
 10
63.49446802252005
 20
29.09884360450401
 30
0.0
 11
65.0
 21
27.59331162702405
 31
0.0
  0
LINE
  5
620
330
1F
100
AcDbEntity
  8
2
  6
CONTINUOUS
370
25
 62
7
100
AcDbLine
 10
63.84802141311332
 20
29.16955428262266
 30
0.0
 11
65.0
 21
28.01757569573598
 31
0.0
  0
LINE
  5
621
330
1F
100
AcDbEntity
  8
2
  6
CONTINUOUS
370
25
 62
7
100
AcDbLine
 10
64.20157480370659
 20
29.24026496074132
 30
0.0
 11
65.0
 21
28.44183976444791
 31
0.0
  0
LINE
  5
622
330
1F
100
AcDbEntity
  8
2
  6
CONTINUOUS
370
25
 62
7
100
AcDbLine
 10
64.55512819429987
 20
29.31097563885997
 30
0.0
 11
65.0
 21
28.86610383315984
 31
0.0
  0
LINE
  5
623
330
1F
100
AcDbEntity
  8
2
  6
CONTINUOUS
370
25
 62
7
100
AcDbLine
 10
64.90868158489315
 20
29.38168631697862
 30
0.0
 11
65.0
 21
29.29036790187177
 31
0.0
  0
TEXT
  5
624
330
1F
100
AcDbEntity
  8
2
  6
CONTINUOUS
370
25
 62
7
100
AcDbText
 10
48.08333333333334
 20
29.89995
 30
0.0
 40
3.5
  1
14.5
 72
     1
 11
52.75
 21
29.89995
 31
0.0
100
AcDbText
  0
LINE
  5
625
330
1F
100
AcDbEntity
  8
SK2
  6
CONTINUOUS
370
25
 62
7
100
AcDbLine
 10
0.0
 20
0.9999500000000001
 30
0.0
 11
0.0
 21
39.39995
 31
0.0
  0
LINE
  5
626
330
1F
100
AcDbEntity
  8
SK2
  6
CONTINUOUS
370
25
 62
7
100
AcDbLine
 10
60.0
 20
39.39995
 30
0.0
 11
60.0
 21
0.5
 31
0.0
  0
LINE
  5
627
330
1F
100
AcDbEntity
  8
SK2
  6
CONTINUOUS
370
25
 62
7
100
AcDbLine
 10
0.0
 20
38.39995
 30
0.0
 11
60.0
 21
38.39995
 31
0.0
  0
LINE
  5
628
330
1F
100
AcDbEntity
  8
SK2
  6
CONTINUOUS
370
25
 62
7
100
AcDbLine
 10
0.0
 20
38.39995
 30
0.0
 11
5.0
 21
39.39995
 31
0.0
  0
LINE
  5
629
330
1F
100
AcDbEntity
  8
SK2
  6
CONTINUOUS
370
25
 62
7
100
AcDbLine
 10
5.0
 20
39.39995
 30
0.0
 11
5.0
 21
37.39995
 31
0.0
  0
LINE
  5
62A
330
1F
100
AcDbEntity
  8
SK2
  6
CONTINUOUS
370
25
 62
7
100
AcDbLine
 10
5.0
 20
37.39995
 30
0.0
 11
0.0
 21
38.39995
 31
0.0
  0
LINE
  5
62B
330
1F
100
AcDbEntity
  8
SK2
  6
CONTINUOUS
370
25
 62
7
100
AcDbLine
 10
4.862801130837617
 20
37.42738977383247
 30
0.0
 11
5.0
 21
37.56458864299485
 31
0.0
  0
LINE
  5
62C
330
1F
100
AcDbEntity
  8
SK2
  6
CONTINUOUS
370
25
 62
7
100
AcDbLine
 10
4.509247740244341
 20
37.49810045195112
 30
0.0
 11
5.0
 21
37.98885271170678
 31
0.0
  0
LINE
  5
62D
330
1F
100
AcDbEntity
  8
SK2
  6
CONTINUOUS
370
25
 62
7
100
AcDbLine
 10
4.155694349651064
 20
37.56881113006978
 30
0.0
 11
5.0
 21
38.41311678041872
 31
0.0
  0
LINE
  5
62E
330
1F
100
AcDbEntity
  8
SK2
  6
CONTINUOUS
370
25
 62
7
100
AcDbLine
 10
3.80214095905778
 20
37.63952180818843
 30
0.0
 11
5.0
 21
38.83738084913065
 31
0.0
  0
LINE
  5
62F
330
1F
100
AcDbEntity
  8
SK2
  6
CONTINUOUS
370
25
 62
7
100
AcDbLine
 10
3.448587568464504
 20
37.71023248630709
 30
0.0
 11
5.0
 21
39.26164491784259
 31
0.0
  0
LINE
  5
630
330
1F
100
AcDbEntity
  8
SK2
  6
CONTINUOUS
370
25
 62
7
100
AcDbLine
 10
3.095034177871227
 20
37.78094316442575
 30
0.0
 11
4.642551266806848
 21
39.32846025336137
 31
0.0
  0
LINE
  5
631
330
1F
100
AcDbEntity
  8
SK2
  6
CONTINUOUS
370
25
 62
7
100
AcDbLine
 10
2.741480787277943
 20
37.8516538425444
 30
0.0
 11
4.112221180916926
 21
39.22239423618338
 31
0.0
  0
LINE
  5
632
330
1F
100
AcDbEntity
  8
SK2
  6
CONTINUOUS
370
25
 62
7
100
AcDbLine
 10
2.387927396684667
 20
37.92236452066306
 30
0.0
 11
3.581891095027011
 21
39.1163282190054
 31
0.0
  0
LINE
  5
633
330
1F
100
AcDbEntity
  8
SK2
  6
CONTINUOUS
370
25
 62
7
100
AcDbLine
 10
2.03437400609139
 20
37.99307519878172
 30
0.0
 11
3.051561009137089
 21
39.01026220182742
 31
0.0
  0
LINE
  5
634
330
1F
100
AcDbEntity
  8
SK2
  6
CONTINUOUS
370
25
 62
7
100
AcDbLine
 10
1.680820615498114
 20
38.06378587690038
 30
0.0
 11
2.521230923247174
 21
38.90419618464944
 31
0.0
  0
LINE
  5
635
330
1F
100
AcDbEntity
  8
SK2
  6
CONTINUOUS
370
25
 62
7
100
AcDbLine
 10
1.327267224904823
 20
38.13449655501903
 30
0.0
 11
1.990900837357238
 21
38.79813016747145
 31
0.0
  0
LINE
  5
636
330
1F
100
AcDbEntity
  8
SK2
  6
CONTINUOUS
370
25
 62
7
100
AcDbLine
 10
0.9737138343115532
 20
38.20520723313768
 30
0.0
 11
1.460570751467337
 21
38.69206415029347
 31
0.0
  0
LINE
  5
637
330
1F
100
AcDbEntity
  8
SK2
  6
CONTINUOUS
370
25
 62
7
100
AcDbLine
 10
0.6201604437182624
 20
38.27591791125634
 30
0.0
 11
0.9302406655774007
 21
38.58599813311548
 31
0.0
  0
LINE
  5
638
330
1F
100
AcDbEntity
  8
SK2
  6
CONTINUOUS
370
25
 62
7
100
AcDbLine
 10
0.2666070531249929
 20
38.34662858937499
 30
0.0
 11
0.3999105796875
 21
38.4799321159375
 31
0.0
  0
LINE
  5
639
330
1F
100
AcDbEntity
  8
SK2
  6
CONTINUOUS
370
25
 62
7
100
AcDbLine
 10
0.1076643809246889
 20
38.42148287618494
 30
0.0
 11
0.1614965713870404
 21
38.36765068572259
 31
0.0
  0
LINE
  5
63A
330
1F
100
AcDbEntity
  8
SK2
  6
CONTINUOUS
370
25
 62
7
100
AcDbLine
 10
0.4612177715179655
 20
38.4921935543036
 30
0.0
 11
0.6918266572769625
 21
38.2615846685446
 31
0.0
  0
LINE
  5
63B
330
1F
100
AcDbEntity
  8
SK2
  6
CONTINUOUS
370
25
 62
7
100
AcDbLine
 10
0.8147711621112492
 20
38.56290423242225
 30
0.0
 11
1.222156743166877
 21
38.15551865136662
 31
0.0
  0
LINE
  5
63C
330
1F
100
AcDbEntity
  8
SK2
  6
CONTINUOUS
370
25
 62
7
100
AcDbLine
 10
1.168324552704526
 20
38.63361491054091
 30
0.0
 11
1.752486829056799
 21
38.04945263418863
 31
0.0
  0
LINE
  5
63D
330
1F
100
AcDbEntity
  8
SK2
  6
CONTINUOUS
370
25
 62
7
100
AcDbLine
 10
1.521877943297802
 20
38.70432558865956
 30
0.0
 11
2.282816914946714
 21
37.94338661701065
 31
0.0
  0
LINE
  5
63E
330
1F
100
AcDbEntity
  8
SK2
  6
CONTINUOUS
370
25
 62
7
100
AcDbLine
 10
1.875431333891086
 20
38.77503626677822
 30
0.0
 11
2.813147000836636
 21
37.83732059983267
 31
0.0
  0
LINE
  5
63F
330
1F
100
AcDbEntity
  8
SK2
  6
CONTINUOUS
370
25
 62
7
100
AcDbLine
 10
2.228984724484363
 20
38.84574694489687
 30
0.0
 11
3.343477086726551
 21
37.73125458265469
 31
0.0
  0
LINE
  5
640
330
1F
100
AcDbEntity
  8
SK2
  6
CONTINUOUS
370
25
 62
7
100
AcDbLine
 10
2.582538115077639
 20
38.91645762301553
 30
0.0
 11
3.873807172616473
 21
37.6251885654767
 31
0.0
  0
LINE
  5
641
330
1F
100
AcDbEntity
  8
SK2
  6
CONTINUOUS
370
25
 62
7
100
AcDbLine
 10
2.936091505670923
 20
38.98716830113418
 30
0.0
 11
4.404137258506388
 21
37.51912254829872
 31
0.0
  0
LINE
  5
642
330
1F
100
AcDbEntity
  8
SK2
  6
CONTINUOUS
370
25
 62
7
100
AcDbLine
 10
3.2896448962642
 20
39.05787897925284
 30
0.0
 11
4.93446734439631
 21
37.41305653112073
 31
0.0
  0
LINE
  5
643
330
1F
100
AcDbEntity
  8
SK2
  6
CONTINUOUS
370
25
 62
7
100
AcDbLine
 10
3.643198286857476
 20
39.1285896573715
 30
0.0
 11
5.0
 21
37.77178794422898
 31
0.0
  0
LINE
  5
644
330
1F
100
AcDbEntity
  8
SK2
  6
CONTINUOUS
370
25
 62
7
100
AcDbLine
 10
3.99675167745076
 20
39.19930033549015
 30
0.0
 11
5.0
 21
38.19605201294091
 31
0.0
  0
LINE
  5
645
330
1F
100
AcDbEntity
  8
SK2
  6
CONTINUOUS
370
25
 62
7
100
AcDbLine
 10
4.350305068044037
 20
39.27001101360881
 30
0.0
 11
5.0
 21
38.62031608165285
 31
0.0
  0
LINE
  5
646
330
1F
100
AcDbEntity
  8
SK2
  6
CONTINUOUS
370
25
 62
7
100
AcDbLine
 10
4.703858458637313
 20
39.34072169172747
 30
0.0
 11
5.0
 21
39.04458015036478
 31
0.0
  0
LINE
  5
647
330
1F
100
AcDbEntity
  8
SK2
  6
CONTINUOUS
370
25
 62
7
100
AcDbLine
 10
60.0
 20
38.39995
 30
0.0
 11
55.0
 21
37.39995
 31
0.0
  0
LINE
  5
648
330
1F
100
AcDbEntity
  8
SK2
  6
CONTINUOUS
370
25
 62
7
100
AcDbLine
 10
55.0
 20
37.39995
 30
0.0
 11
55.0
 21
39.39995
 31
0.0
  0
LINE
  5
649
330
1F
100
AcDbEntity
  8
SK2
  6
CONTINUOUS
370
25
 62
7
100
AcDbLine
 10
55.0
 20
39.39995
 30
0.0
 11
60.0
 21
38.39995
 31
0.0
  0
LINE
  5
64A
330
1F
100
AcDbEntity
  8
SK2
  6
CONTINUOUS
370
25
 62
7
100
AcDbLine
 10
59.64612260427516
 20
38.32917452085503
 30
0.0
 11
59.76408173618344
 21
38.44713365276331
 31
0.0
  0
LINE
  5
64B
330
1F
100
AcDbEntity
  8
SK2
  6
CONTINUOUS
370
25
 62
7
100
AcDbLine
 10
59.11579251838525
 20
38.22310850367705
 30
0.0
 11
59.41052834559017
 21
38.51784433088196
 31
0.0
  0
LINE
  5
64C
330
1F
100
AcDbEntity
  8
SK2
  6
CONTINUOUS
370
25
 62
7
100
AcDbLine
 10
58.58546243249533
 20
38.11704248649906
 30
0.0
 11
59.05697495499688
 21
38.58855500900061
 31
0.0
  0
LINE
  5
64D
330
1F
100
AcDbEntity
  8
SK2
  6
CONTINUOUS
370
25
 62
7
100
AcDbLine
 10
58.05513234660542
 20
38.01097646932108
 30
0.0
 11
58.70342156440361
 21
38.65926568711927
 31
0.0
  0
LINE
  5
64E
330
1F
100
AcDbEntity
  8
SK2
  6
CONTINUOUS
370
25
 62
7
100
AcDbLine
 10
57.5248022607155
 20
37.9049104521431
 30
0.0
 11
58.34986817381034
 21
38.72997636523793
 31
0.0
  0
LINE
  5
64F
330
1F
100
AcDbEntity
  8
SK2
  6
CONTINUOUS
370
25
 62
7
100
AcDbLine
 10
56.99447217482559
 20
37.79884443496512
 30
0.0
 11
57.99631478321706
 21
38.80068704335658
 31
0.0
  0
LINE
  5
650
330
1F
100
AcDbEntity
  8
SK2
  6
CONTINUOUS
370
25
 62
7
100
AcDbLine
 10
56.46414208893567
 20
37.69277841778713
 30
0.0
 11
57.64276139262378
 21
38.87139772147524
 31
0.0
  0
LINE
  5
651
330
1F
100
AcDbEntity
  8
SK2
  6
CONTINUOUS
370
25
 62
7
100
AcDbLine
 10
55.93381200304576
 20
37.58671240060915
 30
0.0
 11
57.28920800203051
 21
38.94210839959389
 31
0.0
  0
LINE
  5
652
330
1F
100
AcDbEntity
  8
SK2
  6
CONTINUOUS
370
25
 62
7
100
AcDbLine
 10
55.40348191715584
 20
37.48064638343116
 30
0.0
 11
56.93565461143723
 21
39.01281907771255
 31
0.0
  0
LINE
  5
653
330
1F
100
AcDbEntity
  8
SK2
  6
CONTINUOUS
370
25
 62
7
100
AcDbLine
 10
55.0
 20
37.50142853498726
 30
0.0
 11
56.58210122084395
 21
39.08352975583121
 31
0.0
  0
LINE
  5
654
330
1F
100
AcDbEntity
  8
SK2
  6
CONTINUOUS
370
25
 62
7
100
AcDbLine
 10
55.0
 20
37.92569260369918
 30
0.0
 11
56.22854783025068
 21
39.15424043394986
 31
0.0
  0
LINE
  5
655
330
1F
100
AcDbEntity
  8
SK2
  6
CONTINUOUS
370
25
 62
7
100
AcDbLine
 10
55.0
 20
38.34995667241111
 30
0.0
 11
55.8749944396574
 21
39.22495111206852
 31
0.0
  0
LINE
  5
656
330
1F
100
AcDbEntity
  8
SK2
  6
CONTINUOUS
370
25
 62
7
100
AcDbLine
 10
55.0
 20
38.77422074112305
 30
0.0
 11
55.52144104906412
 21
39.29566179018717
 31
0.0
  0
LINE
  5
657
330
1F
100
AcDbEntity
  8
SK2
  6
CONTINUOUS
370
25
 62
7
100
AcDbLine
 10
55.0
 20
39.19848480983498
 30
0.0
 11
55.16788765847085
 21
39.36637246830583
 31
0.0
  0
LINE
  5
658
330
1F
100
AcDbEntity
  8
SK2
  6
CONTINUOUS
370
25
 62
7
100
AcDbLine
 10
55.0
 20
37.59331162702404
 30
0.0
 11
55.1611346891867
 21
37.43217693783734
 31
0.0
  0
LINE
  5
659
330
1F
100
AcDbEntity
  8
SK2
  6
CONTINUOUS
370
25
 62
7
100
AcDbLine
 10
55.0
 20
38.01757569573598
 30
0.0
 11
55.51468807977999
 21
37.502887615956
 31
0.0
  0
LINE
  5
65A
330
1F
100
AcDbEntity
  8
SK2
  6
CONTINUOUS
370
25
 62
7
100
AcDbLine
 10
55.0
 20
38.44183976444791
 30
0.0
 11
55.86824147037326
 21
37.57359829407465
 31
0.0
  0
LINE
  5
65B
330
1F
100
AcDbEntity
  8
SK2
  6
CONTINUOUS
370
25
 62
7
100
AcDbLine
 10
55.0
 20
38.86610383315984
 30
0.0
 11
56.22179486096654
 21
37.6443089721933
 31
0.0
  0
LINE
  5
65C
330
1F
100
AcDbEntity
  8
SK2
  6
CONTINUOUS
370
25
 62
7
100
AcDbLine
 10
55.0
 20
39.29036790187177
 30
0.0
 11
56.57534825155981
 21
37.71501965031196
 31
0.0
  0
LINE
  5
65D
330
1F
100
AcDbEntity
  8
SK2
  6
CONTINUOUS
370
25
 62
7
100
AcDbLine
 10
55.39335246322963
 20
39.32127950735407
 30
0.0
 11
56.92890164215309
 21
37.78573032843062
 31
0.0
  0
LINE
  5
65E
330
1F
100
AcDbEntity
  8
SK2
  6
CONTINUOUS
370
25
 62
7
100
AcDbLine
 10
55.92368254911955
 20
39.21521349017608
 30
0.0
 11
57.28245503274636
 21
37.85644100654927
 31
0.0
  0
LINE
  5
65F
330
1F
100
AcDbEntity
  8
SK2
  6
CONTINUOUS
370
25
 62
7
100
AcDbLine
 10
56.45401263500946
 20
39.1091474729981
 30
0.0
 11
57.63600842333964
 21
37.92715168466793
 31
0.0
  0
LINE
  5
660
330
1F
100
AcDbEntity
  8
SK2
  6
CONTINUOUS
370
25
 62
7
100
AcDbLine
 10
56.98434272089937
 20
39.00308145582012
 30
0.0
 11
57.98956181393291
 21
37.99786236278658
 31
0.0
  0
LINE
  5
661
330
1F
100
AcDbEntity
  8
SK2
  6
CONTINUOUS
370
25
 62
7
100
AcDbLine
 10
57.51467280678929
 20
38.89701543864214
 30
0.0
 11
58.34311520452619
 21
38.06857304090524
 31
0.0
  0
LINE
  5
662
330
1F
100
AcDbEntity
  8
SK2
  6
CONTINUOUS
370
25
 62
7
100
AcDbLine
 10
58.0450028926792
 20
38.79094942146416
 30
0.0
 11
58.69666859511946
 21
38.13928371902389
 31
0.0
  0
LINE
  5
663
330
1F
100
AcDbEntity
  8
SK2
  6
CONTINUOUS
370
25
 62
7
100
AcDbLine
 10
58.57533297856912
 20
38.68488340428617
 30
0.0
 11
59.05022198571274
 21
38.20999439714254
 31
0.0
  0
LINE
  5
664
330
1F
100
AcDbEntity
  8
SK2
  6
CONTINUOUS
370
25
 62
7
100
AcDbLine
 10
59.10566306445903
 20
38.57881738710819
 30
0.0
 11
59.40377537630602
 21
38.2807050752612
 31
0.0
  0
LINE
  5
665
330
1F
100
AcDbEntity
  8
SK2
  6
CONTINUOUS
370
25
 62
7
100
AcDbLine
 10
59.63599315034894
 20
38.47275136993021
 30
0.0
 11
59.75732876689929
 21
38.35141575337985
 31
0.0
  0
TEXT
  5
666
330
1F
100
AcDbEntity
  8
SK2
  6
CONTINUOUS
370
25
 62
7
100
AcDbText
 10
27.375
 20
39.89995
 30
0.0
 40
3.5
  1
60
 72
     1
 11
30.0
 21
39.89995
 31
0.0
100
AcDbText
  0
LINE
  5
667
330
1F
100
AcDbEntity
  8
2
  6
CONTINUOUS
370
25
 62
7
100
AcDbLine
 10
55.0
 20
-0.47495
 30
0.0
 11
55.0
 21
-23.5
 31
0.0
  0
LINE
  5
668
330
1F
100
AcDbEntity
  8
2
  6
CONTINUOUS
370
25
 62
7
100
AcDbLine
 10
60.0
 20
-23.5
 30
0.0
 11
60.0
 21
-0.5
 31
0.0
  0
LINE
  5
669
330
1F
100
AcDbEntity
  8
2
  6
CONTINUOUS
370
25
 62
7
100
AcDbLine
 10
48.0
 20
-22.5
 30
0.0
 11
67.0
 21
-22.5
 31
0.0
  0
LINE
  5
66A
330
1F
100
AcDbEntity
  8
2
  6
CONTINUOUS
370
25
 62
7
100
AcDbLine
 10
55.0
 20
-22.5
 30
0.0
 11
50.0
 21
-23.5
 31
0.0
  0
LINE
  5
66B
330
1F
100
AcDbEntity
  8
2
  6
CONTINUOUS
370
25
 62
7
100
AcDbLine
 10
50.0
 20
-23.5
 30
0.0
 11
50.0
 21
-21.5
 31
0.0
  0
LINE
  5
66C
330
1F
100
AcDbEntity
  8
2
  6
CONTINUOUS
370
25
 62
7
100
AcDbLine
 10
50.0
 20
-21.5
 30
0.0
 11
55.0
 21
-22.5
 31
0.0
  0
LINE
  5
66D
330
1F
100
AcDbEntity
  8
2
  6
CONTINUOUS
370
25
 62
7
100
AcDbLine
 10
54.67396586110829
 20
-22.56520682777834
 30
0.0
 11
54.78264390740553
 21
-22.4565287814811
 31
0.0
  0
LINE
  5
66E
330
1F
100
AcDbEntity
  8
2
  6
CONTINUOUS
370
25
 62
7
100
AcDbLine
 10
54.14363577521839
 20
-22.67127284495632
 30
0.0
 11
54.42909051681225
 21
-22.38581810336245
 31
0.0
  0
LINE
  5
66F
330
1F
100
AcDbEntity
  8
2
  6
CONTINUOUS
370
25
 62
7
100
AcDbLine
 10
53.61330568932847
 20
-22.7773388621343
 30
0.0
 11
54.07553712621898
 21
-22.3151074252438
 31
0.0
  0
LINE
  5
670
330
1F
100
AcDbEntity
  8
2
  6
CONTINUOUS
370
25
 62
7
100
AcDbLine
 10
53.08297560343856
 20
-22.88340487931229
 30
0.0
 11
53.72198373562571
 21
-22.24439674712514
 31
0.0
  0
LINE
  5
671
330
1F
100
AcDbEntity
  8
2
  6
CONTINUOUS
370
25
 62
7
100
AcDbLine
 10
52.55264551754865
 20
-22.98947089649027
 30
0.0
 11
53.36843034503244
 21
-22.17368606900649
 31
0.0
  0
LINE
  5
672
330
1F
100
AcDbEntity
  8
2
  6
CONTINUOUS
370
25
 62
7
100
AcDbLine
 10
52.02231543165874
 20
-23.09553691366825
 30
0.0
 11
53.01487695443916
 21
-22.10297539088783
 31
0.0
  0
LINE
  5
673
330
1F
100
AcDbEntity
  8
2
  6
CONTINUOUS
370
25
 62
7
100
AcDbLine
 10
51.49198534576883
 20
-23.20160293084623
 30
0.0
 11
52.66132356384588
 21
-22.03226471276918
 31
0.0
  0
LINE
  5
674
330
1F
100
AcDbEntity
  8
2
  6
CONTINUOUS
370
25
 62
7
100
AcDbLine
 10
50.96165525987892
 20
-23.30766894802422
 30
0.0
 11
52.30777017325261
 21
-21.96155403465053
 31
0.0
  0
LINE
  5
675
330
1F
100
AcDbEntity
  8
2
  6
CONTINUOUS
370
25
 62
7
100
AcDbLine
 10
50.43132517398902
 20
-23.4137349652022
 30
0.0
 11
51.95421678265934
 21
-21.89084335653187
 31
0.0
  0
LINE
  5
676
330
1F
100
AcDbEntity
  8
2
  6
CONTINUOUS
370
25
 62
7
100
AcDbLine
 10
50.0
 20
-23.42079607047928
 30
0.0
 11
51.60066339206607
 21
-21.82013267841322
 31
0.0
  0
LINE
  5
677
330
1F
100
AcDbEntity
  8
2
  6
CONTINUOUS
370
25
 62
7
100
AcDbLine
 10
50.0
 20
-22.99653200176736
 30
0.0
 11
51.24711000147279
 21
-21.74942200029456
 31
0.0
  0
LINE
  5
678
330
1F
100
AcDbEntity
  8
2
  6
CONTINUOUS
370
25
 62
7
100
AcDbLine
 10
50.0
 20
-22.57226793305543
 30
0.0
 11
50.89355661087952
 21
-21.67871132217591
 31
0.0
  0
LINE
  5
679
330
1F
100
AcDbEntity
  8
2
  6
CONTINUOUS
370
25
 62
7
100
AcDbLine
 10
50.0
 20
-22.1480038643435
 30
0.0
 11
50.54000322028624
 21
-21.60800064405725
 31
0.0
  0
LINE
  5
67A
330
1F
100
AcDbEntity
  8
2
  6
CONTINUOUS
370
25
 62
7
100
AcDbLine
 10
50.0
 20
-21.72373979563157
 30
0.0
 11
50.18644982969298
 21
-21.5372899659386
 31
0.0
  0
LINE
  5
67B
330
1F
100
AcDbEntity
  8
2
  6
CONTINUOUS
370
25
 62
7
100
AcDbLine
 10
50.0
 20
-23.08841509380416
 30
0.0
 11
50.34298742182986
 21
-23.43140251563403
 31
0.0
  0
LINE
  5
67C
330
1F
100
AcDbEntity
  8
2
  6
CONTINUOUS
370
25
 62
7
100
AcDbLine
 10
50.0
 20
-22.66415102509223
 30
0.0
 11
50.69654081242314
 21
-23.36069183751537
 31
0.0
  0
LINE
  5
67D
330
1F
100
AcDbEntity
  8
2
  6
CONTINUOUS
370
25
 62
7
100
AcDbLine
 10
50.0
 20
-22.23988695638031
 30
0.0
 11
51.05009420301641
 21
-23.28998115939672
 31
0.0
  0
LINE
  5
67E
330
1F
100
AcDbEntity
  8
2
  6
CONTINUOUS
370
25
 62
7
100
AcDbLine
 10
50.0
 20
-21.81562288766838
 30
0.0
 11
51.40364759360968
 21
-23.21927048127806
 31
0.0
  0
LINE
  5
67F
330
1F
100
AcDbEntity
  8
2
  6
CONTINUOUS
370
25
 62
7
100
AcDbLine
 10
50.13580147630444
 20
-21.52716029526089
 30
0.0
 11
51.75720098420295
 21
-23.14855980315941
 31
0.0
  0
LINE
  5
680
330
1F
100
AcDbEntity
  8
2
  6
CONTINUOUS
370
25
 62
7
100
AcDbLine
 10
50.66613156219434
 20
-21.63322631243887
 30
0.0
 11
52.11075437479623
 21
-23.07784912504075
 31
0.0
  0
LINE
  5
681
330
1F
100
AcDbEntity
  8
2
  6
CONTINUOUS
370
25
 62
7
100
AcDbLine
 10
51.19646164808425
 20
-21.73929232961685
 30
0.0
 11
52.4643077653895
 21
-23.0071384469221
 31
0.0
  0
LINE
  5
682
330
1F
100
AcDbEntity
  8
2
  6
CONTINUOUS
370
25
 62
7
100
AcDbLine
 10
51.72679173397417
 20
-21.84535834679484
 30
0.0
 11
52.81786115598278
 21
-22.93642776880344
 31
0.0
  0
LINE
  5
683
330
1F
100
AcDbEntity
  8
2
  6
CONTINUOUS
370
25
 62
7
100
AcDbLine
 10
52.25712181986408
 20
-21.95142436397282
 30
0.0
 11
53.17141454657605
 21
-22.86571709068479
 31
0.0
  0
LINE
  5
684
330
1F
100
AcDbEntity
  8
2
  6
CONTINUOUS
370
25
 62
7
100
AcDbLine
 10
52.78745190575399
 20
-22.0574903811508
 30
0.0
 11
53.52496793716932
 21
-22.79500641256613
 31
0.0
  0
LINE
  5
685
330
1F
100
AcDbEntity
  8
2
  6
CONTINUOUS
370
25
 62
7
100
AcDbLine
 10
53.3177819916439
 20
-22.16355639832878
 30
0.0
 11
53.8785213277626
 21
-22.72429573444748
 31
0.0
  0
LINE
  5
686
330
1F
100
AcDbEntity
  8
2
  6
CONTINUOUS
370
25
 62
7
100
AcDbLine
 10
53.84811207753381
 20
-22.26962241550676
 30
0.0
 11
54.23207471835587
 21
-22.65358505632882
 31
0.0
  0
LINE
  5
687
330
1F
100
AcDbEntity
  8
2
  6
CONTINUOUS
370
25
 62
7
100
AcDbLine
 10
54.37844216342372
 20
-22.37568843268475
 30
0.0
 11
54.58562810894914
 21
-22.58287437821017
 31
0.0
  0
LINE
  5
688
330
1F
100
AcDbEntity
  8
2
  6
CONTINUOUS
370
25
 62
7
100
AcDbLine
 10
54.90877224931363
 20
-22.48175444986273
 30
0.0
 11
54.93918149954241
 21
-22.51216370009151
 31
0.0
  0
LINE
  5
689
330
1F
100
AcDbEntity
  8
2
  6
CONTINUOUS
370
25
 62
7
100
AcDbLine
 10
60.0
 20
-22.5
 30
0.0
 11
65.0
 21
-21.5
 31
0.0
  0
LINE
  5
68A
330
1F
100
AcDbEntity
  8
2
  6
CONTINUOUS
370
25
 62
7
100
AcDbLine
 10
65.0
 20
-21.5
 30
0.0
 11
65.0
 21
-23.5
 31
0.0
  0
LINE
  5
68B
330
1F
100
AcDbEntity
  8
2
  6
CONTINUOUS
370
25
 62
7
100
AcDbLine
 10
65.0
 20
-23.5
 30
0.0
 11
60.0
 21
-22.5
 31
0.0
  0
LINE
  5
68C
330
1F
100
AcDbEntity
  8
2
  6
CONTINUOUS
370
25
 62
7
100
AcDbLine
 10
64.85802270494676
 20
-23.47160454098935
 30
0.0
 11
65.0
 21
-23.32962724593612
 31
0.0
  0
LINE
  5
68D
330
1F
100
AcDbEntity
  8
2
  6
CONTINUOUS
370
25
 62
7
100
AcDbLine
 10
64.50446931435349
 20
-23.4008938628707
 30
0.0
 11
65.0
 21
-22.90536317722419
 31
0.0
  0
LINE
  5
68E
330
1F
100
AcDbEntity
  8
2
  6
CONTINUOUS
370
25
 62
7
100
AcDbLine
 10
64.15091592376022
 20
-23.33018318475204
 30
0.0
 11
65.0
 21
-22.48109910851226
 31
0.0
  0
LINE
  5
68F
330
1F
100
AcDbEntity
  8
2
  6
CONTINUOUS
370
25
 62
7
100
AcDbLine
 10
63.79736253316695
 20
-23.25947250663339
 30
0.0
 11
65.0
 21
-22.05683503980034
 31
0.0
  0
LINE
  5
690
330
1F
100
AcDbEntity
  8
2
  6
CONTINUOUS
370
25
 62
7
100
AcDbLine
 10
63.44380914257367
 20
-23.18876182851474
 30
0.0
 11
65.0
 21
-21.63257097108841
 31
0.0
  0
LINE
  5
691
330
1F
100
AcDbEntity
  8
2
  6
CONTINUOUS
370
25
 62
7
100
AcDbLine
 10
63.0902557519804
 20
-23.11805115039608
 30
0.0
 11
64.63538362797061
 21
-21.57292327440588
 31
0.0
  0
LINE
  5
692
330
1F
100
AcDbEntity
  8
2
  6
CONTINUOUS
370
25
 62
7
100
AcDbLine
 10
62.73670236138713
 20
-23.04734047227743
 30
0.0
 11
64.1050535420807
 21
-21.67898929158386
 31
0.0
  0
LINE
  5
693
330
1F
100
AcDbEntity
  8
2
  6
CONTINUOUS
370
25
 62
7
100
AcDbLine
 10
62.38314897079385
 20
-22.97662979415877
 30
0.0
 11
63.57472345619078
 21
-21.78505530876184
 31
0.0
  0
LINE
  5
694
330
1F
100
AcDbEntity
  8
2
  6
CONTINUOUS
370
25
 62
7
100
AcDbLine
 10
62.02959558020058
 20
-22.90591911604012
 30
0.0
 11
63.04439337030087
 21
-21.89112132593982
 31
0.0
  0
LINE
  5
695
330
1F
100
AcDbEntity
  8
2
  6
CONTINUOUS
370
25
 62
7
100
AcDbLine
 10
61.67604218960731
 20
-22.83520843792146
 30
0.0
 11
62.51406328441097
 21
-21.9971873431178
 31
0.0
  0
LINE
  5
696
330
1F
100
AcDbEntity
  8
2
  6
CONTINUOUS
370
25
 62
7
100
AcDbLine
 10
61.32248879901404
 20
-22.76449775980281
 30
0.0
 11
61.98373319852105
 21
-22.10325336029579
 31
0.0
  0
LINE
  5
697
330
1F
100
AcDbEntity
  8
2
  6
CONTINUOUS
370
25
 62
7
100
AcDbLine
 10
60.96893540842076
 20
-22.69378708168415
 30
0.0
 11
61.45340311263114
 21
-22.20931937747377
 31
0.0
  0
LINE
  5
698
330
1F
100
AcDbEntity
  8
2
  6
CONTINUOUS
370
25
 62
7
100
AcDbLine
 10
60.61538201782749
 20
-22.6230764035655
 30
0.0
 11
60.92307302674124
 21
-22.31538539465175
 31
0.0
  0
LINE
  5
699
330
1F
100
AcDbEntity
  8
2
  6
CONTINUOUS
370
25
 62
7
100
AcDbLine
 10
60.26182862723422
 20
-22.55236572544684
 30
0.0
 11
60.39274294085133
 21
-22.42145141182974
 31
0.0
  0
LINE
  5
69A
330
1F
100
AcDbEntity
  8
2
  6
CONTINUOUS
370
25
 62
7
100
AcDbLine
 10
60.06481282877783
 20
-22.48703743424444
 30
0.0
 11
60.09721924316675
 21
-22.51944384863335
 31
0.0
  0
LINE
  5
69B
330
1F
100
AcDbEntity
  8
2
  6
CONTINUOUS
370
25
 62
7
100
AcDbLine
 10
60.41836621937111
 20
-22.41632675612578
 30
0.0
 11
60.62754932905666
 21
-22.62550986581133
 31
0.0
  0
LINE
  5
69C
330
1F
100
AcDbEntity
  8
2
  6
CONTINUOUS
370
25
 62
7
100
AcDbLine
 10
60.77191960996438
 20
-22.34561607800713
 30
0.0
 11
61.15787941494657
 21
-22.73157588298931
 31
0.0
  0
LINE
  5
69D
330
1F
100
AcDbEntity
  8
2
  6
CONTINUOUS
370
25
 62
7
100
AcDbLine
 10
61.12547300055765
 20
-22.27490539988847
 30
0.0
 11
61.68820950083648
 21
-22.8376419001673
 31
0.0
  0
LINE
  5
69E
330
1F
100
AcDbEntity
  8
2
  6
CONTINUOUS
370
25
 62
7
100
AcDbLine
 10
61.47902639115092
 20
-22.20419472176982
 30
0.0
 11
62.21853958672639
 21
-22.94370791734528
 31
0.0
  0
LINE
  5
69F
330
1F
100
AcDbEntity
  8
2
  6
CONTINUOUS
370
25
 62
7
100
AcDbLine
 10
61.8325797817442
 20
-22.13348404365116
 30
0.0
 11
62.74886967261629
 21
-23.04977393452326
 31
0.0
  0
LINE
  5
6A0
330
1F
100
AcDbEntity
  8
2
  6
CONTINUOUS
370
25
 62
7
100
AcDbLine
 10
62.18613317233748
 20
-22.06277336553251
 30
0.0
 11
63.27919975850621
 21
-23.15583995170124
 31
0.0
  0
LINE
  5
6A1
330
1F
100
AcDbEntity
  8
2
  6
CONTINUOUS
370
25
 62
7
100
AcDbLine
 10
62.53968656293075
 20
-21.99206268741385
 30
0.0
 11
63.80952984439612
 21
-23.26190596887923
 31
0.0
  0
LINE
  5
6A2
330
1F
100
AcDbEntity
  8
2
  6
CONTINUOUS
370
25
 62
7
100
AcDbLine
 10
62.89323995352402
 20
-21.9213520092952
 30
0.0
 11
64.33985993028602
 21
-23.36797198605721
 31
0.0
  0
LINE
  5
6A3
330
1F
100
AcDbEntity
  8
2
  6
CONTINUOUS
370
25
 62
7
100
AcDbLine
 10
63.24679334411729
 20
-21.85064133117654
 30
0.0
 11
64.87019001617594
 21
-23.47403800323519
 31
0.0
  0
LINE
  5
6A4
330
1F
100
AcDbEntity
  8
2
  6
CONTINUOUS
370
25
 62
7
100
AcDbLine
 10
63.60034673471057
 20
-21.77993065305789
 30
0.0
 11
65.0
 21
-23.17958391834732
 31
0.0
  0
LINE
  5
6A5
330
1F
100
AcDbEntity
  8
2
  6
CONTINUOUS
370
25
 62
7
100
AcDbLine
 10
63.95390012530384
 20
-21.70921997493924
 30
0.0
 11
65.0
 21
-22.7553198496354
 31
0.0
  0
LINE
  5
6A6
330
1F
100
AcDbEntity
  8
2
  6
CONTINUOUS
370
25
 62
7
100
AcDbLine
 10
64.30745351589711
 20
-21.63850929682058
 30
0.0
 11
65.0
 21
-22.33105578092347
 31
0.0
  0
LINE
  5
6A7
330
1F
100
AcDbEntity
  8
2
  6
CONTINUOUS
370
25
 62
7
100
AcDbLine
 10
64.66100690649039
 20
-21.56779861870193
 30
0.0
 11
65.0
 21
-21.90679171221154
 31
0.0
  0
TEXT
  5
6A8
330
1F
100
AcDbEntity
  8
2
  6
CONTINUOUS
370
25
 62
7
100
AcDbText
 10
56.33333333333334
 20
-21.0
 30
0.0
 40
3.5
  1
5
 72
     1
 11
57.5
 21
-21.0
 31
0.0
100
AcDbText
  0
LINE
  5
6A9
330
1F
100
AcDbEntity
  8
SK1
  6
CONTINUOUS
370
50
 62
4
100
AcDbLine
 10
45.5
 20
0.0
 30
0.0
 11
47.25
 21
0.0
 31
0.0
  0
LINE
  5
6AA
330
1F
100
AcDbEntity
  8
SK1
  6
CONTINUOUS
370
50
 62
4
100
AcDbLine
 10
45.5
 20
0.0
 30
0.0
 11
45.5
 21
1.75
 31
0.0
  0
ARC
  5
6AB
330
1F
100
AcDbEntity
  8
SK1
  6
CONTINUOUS
370
50
 62
4
100
AcDbCircle
 10
45.5
 20
0.0
 30
0.0
 40
1.75
100
AcDbArc
 50
0.0
 51
90.0
  0
LINE
  5
6AC
330
1F
100
AcDbEntity
  8
SK1
  6
CONTINUOUS
370
50
 62
4
100
AcDbLine
 10
45.5
 20
0.0
 30
0.0
 11
43.75
 21
0.0
 31
0.0
  0
ARC
  5
6AD
330
1F
100
AcDbEntity
  8
SK1
  6
CONTINUOUS
370
50
 62
4
100
AcDbCircle
 10
45.5
 20
0.0
 30
0.0
 40
1.75
100
AcDbArc
 50
180.0
 51
270.0
  0
LINE
  5
6AE
330
1F
100
AcDbEntity
  8
SK1
  6
CONTINUOUS
370
50
 62
4
100
AcDbLine
 10
45.5
 20
-1.75
 30
0.0
 11
45.5
 21
0.0
 31
0.0
  0
ARC
  5
6AF
330
1F
100
AcDbEntity
  8
SK1
  6
CONTINUOUS
370
50
 62
4
100
AcDbCircle
 10
45.5
 20
0.0
 30
0.0
 40
1.75
100
AcDbArc
 50
270.0
 51
0.0
  0
ARC
  5
6B0
330
1F
100
AcDbEntity
  8
SK1
  6
CONTINUOUS
370
50
 62
4
100
AcDbCircle
 10
45.5
 20
0.0
 30
0.0
 40
1.75
100
AcDbArc
 50
90.0
 51
180.0
  0
LINE
  5
6B1
330
1F
100
AcDbEntity
  8
SK1
  6
CONTINUOUS
370
50
 62
4
100
AcDbLine
 10
45.27717274741573
 20
-1.73564731720198
 30
0.0
 11
45.5
 21
-1.512820064617713
 31
0.0
  0
LINE
  5
6B2
330
1F
100
AcDbEntity
  8
SK1
  6
CONTINUOUS
370
50
 62
4
100
AcDbLine
 10
47.01282006461771
 20
0.0
 30
0.0
 11
47.23564731720198
 21
0.2228272525842674
 31
0.0
  0
LINE
  5
6B3
330
1F
100
AcDbEntity
  8
SK1
  6
CONTINUOUS
370
50
 62
4
100
AcDbLine
 10
45.06930380681873
 20
-1.69602888438369
 30
0.0
 11
45.5
 21
-1.265332691202421
 31
0.0
  0
LINE
  5
6B4
330
1F
100
AcDbEntity
  8
SK1
  6
CONTINUOUS
370
50
 62
4
100
AcDbLine
 10
46.76533269120242
 20
0.0
 30
0.0
 11
47.19602888438369
 21
0.4306961931812696
 31
0.0
  0
LINE
  5
6B5
330
1F
100
AcDbEntity
  8
SK1
  6
CONTINUOUS
370
50
 62
4
100
AcDbLine
 10
44.88148340435765
 20
-1.636361913429485
 30
0.0
 11
45.5
 21
-1.01784531778713
 31
0.0
  0
LINE
  5
6B6
330
1F
100
AcDbEntity
  8
SK1
  6
CONTINUOUS
370
50
 62
4
100
AcDbLine
 10
46.51784531778713
 20
0.0
 30
0.0
 11
47.13636191342948
 21
0.6185165956423557
 31
0.0
  0
LINE
  5
6B7
330
1F
100
AcDbEntity
  8
SK1
  6
CONTINUOUS
370
50
 62
4
100
AcDbLine
 10
44.7098551094628
 20
-1.560502834909039
 30
0.0
 11
45.5
 21
-0.7703579443718382
 31
0.0
  0
LINE
  5
6B8
330
1F
100
AcDbEntity
  8
SK1
  6
CONTINUOUS
370
50
 62
4
100
AcDbLine
 10
46.27035794437184
 20
0.0
 30
0.0
 11
47.06050283490904
 21
0.7901448905372013
 31
0.0
  0
LINE
  5
6B9
330
1F
100
AcDbEntity
  8
SK1
  6
CONTINUOUS
370
50
 62
4
100
AcDbLine
 10
44.55217783219447
 20
-1.470692738762079
 30
0.0
 11
45.5
 21
-0.5228705709565462
 31
0.0
  0
LINE
  5
6BA
330
1F
100
AcDbEntity
  8
SK1
  6
CONTINUOUS
370
50
 62
4
100
AcDbLine
 10
46.02287057095655
 20
0.0
 30
0.0
 11
46.97069273876208
 21
0.947822167805533
 31
0.0
  0
LINE
  5
6BB
330
1F
100
AcDbEntity
  8
SK1
  6
CONTINUOUS
370
50
 62
4
100
AcDbLine
 10
44.40842956711548
 20
-1.366953630425777
 30
0.0
 11
45.5
 21
-0.2753831975412551
 31
0.0
  0
LINE
  5
6BC
330
1F
100
AcDbEntity
  8
SK1
  6
CONTINUOUS
370
50
 62
4
100
AcDbLine
 10
45.77538319754125
 20
0.0
 30
0.0
 11
46.86695363042578
 21
1.091570432884522
 31
0.0
  0
LINE
  5
6BD
330
1F
100
AcDbEntity
  8
SK1
  6
CONTINUOUS
370
50
 62
4
100
AcDbLine
 10
44.27712164538165
 20
-1.25077417874432
 30
0.0
 11
45.5
 21
-0.0278958241259639
 31
0.0
  0
LINE
  5
6BE
330
1F
100
AcDbEntity
  8
SK1
  6
CONTINUOUS
370
50
 62
4
100
AcDbLine
 10
45.52789582412596
 20
0.0
 30
0.0
 11
46.75077417874432
 21
1.222878354618356
 31
0.0
  0
LINE
  5
6BF
330
1F
100
AcDbEntity
  8
SK1
  6
CONTINUOUS
370
50
 62
4
100
AcDbLine
 10
44.15784030371346
 20
-1.122568146997212
 30
0.0
 11
45.28040845071067
 21
0.0
 31
0.0
  0
LINE
  5
6C0
330
1F
100
AcDbEntity
  8
SK1
  6
CONTINUOUS
370
50
 62
4
100
AcDbLine
 10
45.5
 20
0.2195915492893277
 30
0.0
 11
46.62256814699721
 21
1.34215969628654
 31
0.0
  0
LINE
  5
6C1
330
1F
100
AcDbEntity
  8
SK1
  6
CONTINUOUS
370
50
 62
4
100
AcDbLine
 10
44.05188167231256
 20
-0.9810394049828186
 30
0.0
 11
45.03292107729538
 21
0.0
 31
0.0
  0
LINE
  5
6C2
330
1F
100
AcDbEntity
  8
SK1
  6
CONTINUOUS
370
50
 62
4
100
AcDbLine
 10
45.5
 20
0.4670789227046193
 30
0.0
 11
46.48103940498282
 21
1.448118327687438
 31
0.0
  0
LINE
  5
6C3
330
1F
100
AcDbEntity
  8
SK1
  6
CONTINUOUS
370
50
 62
4
100
AcDbLine
 10
43.95832908651575
 20
-0.8271046173643402
 30
0.0
 11
44.78543370388009
 21
0.0
 31
0.0
  0
LINE
  5
6C4
330
1F
100
AcDbEntity
  8
SK1
  6
CONTINUOUS
370
50
 62
4
100
AcDbLine
 10
45.5
 20
0.71456629611991
 30
0.0
 11
46.32710461736434
 21
1.54167091348425
 31
0.0
  0
LINE
  5
6C5
330
1F
100
AcDbEntity
  8
SK1
  6
CONTINUOUS
370
50
 62
4
100
AcDbLine
 10
43.87918473824205
 20
-0.6587615922227528
 30
0.0
 11
44.5379463304648
 21
0.0
 31
0.0
  0
LINE
  5
6C6
330
1F
100
AcDbEntity
  8
SK1
  6
CONTINUOUS
370
50
 62
4
100
AcDbLine
 10
45.5
 20
0.9620536695352015
 30
0.0
 11
46.15876159222275
 21
1.620815261757954
 31
0.0
  0
LINE
  5
6C7
330
1F
100
AcDbEntity
  8
SK1
  6
CONTINUOUS
370
50
 62
4
100
AcDbLine
 10
43.81629687706963
 20
-0.474162079979876
 30
0.0
 11
44.29045895704951
 21
0.0
 31
0.0
  0
LINE
  5
6C8
330
1F
100
AcDbEntity
  8
SK1
  6
CONTINUOUS
370
50
 62
4
100
AcDbLine
 10
45.5
 20
1.209541042950494
 30
0.0
 11
45.97416207997988
 21
1.683703122930369
 31
0.0
  0
LINE
  5
6C9
330
1F
100
AcDbEntity
  8
SK1
  6
CONTINUOUS
370
50
 62
4
100
AcDbLine
 10
43.77198100434271
 20
-0.2709905792915031
 30
0.0
 11
44.04297158363422
 21
0.0
 31
0.0
  0
LINE
  5
6CA
330
1F
100
AcDbEntity
  8
SK1
  6
CONTINUOUS
370
50
 62
4
100
AcDbLine
 10
45.5
 20
1.457028416365784
 30
0.0
 11
45.7709905792915
 21
1.728018995657286
 31
0.0
  0
LINE
  5
6CB
330
1F
100
AcDbEntity
  8
SK1
  6
CONTINUOUS
370
50
 62
4
100
AcDbLine
 10
43.7513858468978
 20
-0.0440983633211194
 30
0.0
 11
43.79548421021892
 21
0.0
 31
0.0
  0
LINE
  5
6CC
330
1F
100
AcDbEntity
  8
SK1
  6
CONTINUOUS
370
50
 62
4
100
AcDbLine
 10
45.5
 20
1.704515789781075
 30
0.0
 11
45.54409836332112
 21
1.748614153102194
 31
0.0
  0
LINE
  5
6CD
330
1F
100
AcDbEntity
  8
SK1
  6
CONTINUOUS
370
50
 62
4
100
AcDbLine
 10
43.86386517603682
 20
-0.6191473609004006
 30
0.0
 11
44.8808526390996
 21
-1.636134823963186
 31
0.0
  0
LINE
  5
6CE
330
1F
100
AcDbEntity
  8
SK1
  6
CONTINUOUS
370
50
 62
4
100
AcDbLine
 10
43.77363430643545
 20
-0.2814291178837463
 30
0.0
 11
45.21857088211625
 21
-1.726365693564548
 31
0.0
  0
LINE
  5
6CF
330
1F
100
AcDbEntity
  8
SK1
  6
CONTINUOUS
370
50
 62
4
100
AcDbLine
 10
43.7503344343115
 20
-0.0106418723445003
 30
0.0
 11
45.4893581276555
 21
-1.749665565688503
 31
0.0
  0
LINE
  5
6D0
330
1F
100
AcDbEntity
  8
SK1
  6
CONTINUOUS
370
50
 62
4
100
AcDbLine
 10
43.98717993538229
 20
0.0
 30
0.0
 11
45.5
 21
-1.51282006461771
 31
0.0
  0
LINE
  5
6D1
330
1F
100
AcDbEntity
  8
SK1
  6
CONTINUOUS
370
50
 62
4
100
AcDbLine
 10
44.23466730879758
 20
0.0
 30
0.0
 11
45.5
 21
-1.265332691202418
 31
0.0
  0
LINE
  5
6D2
330
1F
100
AcDbEntity
  8
SK1
  6
CONTINUOUS
370
50
 62
4
100
AcDbLine
 10
44.48215468221287
 20
0.0
 30
0.0
 11
45.5
 21
-1.017845317787128
 31
0.0
  0
LINE
  5
6D3
330
1F
100
AcDbEntity
  8
SK1
  6
CONTINUOUS
370
50
 62
4
100
AcDbLine
 10
44.72964205562816
 20
0.0
 30
0.0
 11
45.5
 21
-0.7703579443718369
 31
0.0
  0
LINE
  5
6D4
330
1F
100
AcDbEntity
  8
SK1
  6
CONTINUOUS
370
50
 62
4
100
AcDbLine
 10
44.97712942904345
 20
0.0
 30
0.0
 11
45.5
 21
-0.5228705709565453
 31
0.0
  0
LINE
  5
6D5
330
1F
100
AcDbEntity
  8
SK1
  6
CONTINUOUS
370
50
 62
4
100
AcDbLine
 10
45.22461680245875
 20
0.0
 30
0.0
 11
45.5
 21
-0.2753831975412537
 31
0.0
  0
LINE
  5
6D6
330
1F
100
AcDbEntity
  8
SK1
  6
CONTINUOUS
370
50
 62
4
100
AcDbLine
 10
45.47210417587404
 20
0.0
 30
0.0
 11
45.5
 21
-0.027895824125963
 31
0.0
  0
LINE
  5
6D7
330
1F
100
AcDbEntity
  8
SK1
  6
CONTINUOUS
370
50
 62
4
100
AcDbLine
 10
45.5
 20
0.219591549289329
 30
0.0
 11
45.71959154928933
 21
0.0
 31
0.0
  0
LINE
  5
6D8
330
1F
100
AcDbEntity
  8
SK1
  6
CONTINUOUS
370
50
 62
4
100
AcDbLine
 10
45.5
 20
0.4670789227046202
 30
0.0
 11
45.96707892270462
 21
0.0
 31
0.0
  0
LINE
  5
6D9
330
1F
100
AcDbEntity
  8
SK1
  6
CONTINUOUS
370
50
 62
4
100
AcDbLine
 10
45.5
 20
0.7145662961199113
 30
0.0
 11
46.21456629611991
 21
0.0
 31
0.0
  0
LINE
  5
6DA
330
1F
100
AcDbEntity
  8
SK1
  6
CONTINUOUS
370
50
 62
4
100
AcDbLine
 10
45.5
 20
0.9620536695352029
 30
0.0
 11
46.4620536695352
 21
0.0
 31
0.0
  0
LINE
  5
6DB
330
1F
100
AcDbEntity
  8
SK1
  6
CONTINUOUS
370
50
 62
4
100
AcDbLine
 10
45.5
 20
1.209541042950494
 30
0.0
 11
46.7095410429505
 21
0.0
 31
0.0
  0
LINE
  5
6DC
330
1F
100
AcDbEntity
  8
SK1
  6
CONTINUOUS
370
50
 62
4
100
AcDbLine
 10
45.5
 20
1.457028416365785
 30
0.0
 11
46.95702841636579
 21
0.0
 31
0.0
  0
LINE
  5
6DD
330
1F
100
AcDbEntity
  8
SK1
  6
CONTINUOUS
370
50
 62
4
100
AcDbLine
 10
45.5
 20
1.704515789781076
 30
0.0
 11
47.20451578978108
 21
0.0
 31
0.0
  0
LINE
  5
6DE
330
1F
100
AcDbEntity
  8
SK1
  6
CONTINUOUS
370
50
 62
4
100
AcDbLine
 10
45.71543384193567
 20
1.736569321260697
 30
0.0
 11
47.2365693212607
 21
0.2154338419356714
 31
0.0
  0
LINE
  5
6DF
330
1F
100
AcDbEntity
  8
SK1
  6
CONTINUOUS
370
50
 62
4
100
AcDbLine
 10
46.03283284728993
 20
1.666657689321729
 30
0.0
 11
47.16665768932173
 21
0.5328328472899322
 31
0.0
  0
LINE
  5
6E0
330
1F
100
AcDbEntity
  8
SK1
  6
CONTINUOUS
370
50
 62
4
100
AcDbLine
 10
46.54009874905675
 20
1.406879160970207
 30
0.0
 11
46.90687916097021
 21
1.040098749056747
 31
0.0
  0
LINE
  5
6E1
330
1F
100
AcDbEntity
  8
4
  6
LONGDASH_DASH
370
25
 62
2
100
AcDbLine
 10
45.5
 20
0.0
 30
0.0
 11
60.0
 21
0.0
 31
0.0
  0
LINE
  5
6E2
330
1F
100
AcDbEntity
  8
SK4
  6
LONGDASH_DASH
370
25
 62
2
100
AcDbLine
 10
-6.0
 20
0.0
 30
0.0
 11
66.0
 21
0.0
 31
0.0
  0
ARC
  5
6E3
330
1F
100
AcDbEntity
  8
SK6
  6
CONTINUOUS
370
25
 62
5
100
AcDbCircle
 10
85.4613820083765
 20
-27.84524575338786
 30
0.0
 40
2.76048912849221
100
AcDbArc
 50
338.9379403434233
 51
90.44457437511365
  0
LINE
  5
6E4
330
1F
100
AcDbEntity
  8
SK6
  6
CONTINUOUS
370
25
 62
5
100
AcDbLine
 10
85.43996279695983
 20
-25.08483972421281
 30
0.0
 11
85.43996279695983
 21
-26.18789835613464
 31
0.0
  0
ARC
  5
6E5
330
1F
100
AcDbEntity
  8
SK6
  6
CONTINUOUS
370
25
 62
5
100
AcDbCircle
 10
85.45050902936916
 20
-27.86523924566821
 30
0.0
 40
1.677374043771779
100
AcDbArc
 50
243.4214706017868
 51
90.36024081226083
  0
ARC
  5
6E6
330
1F
100
AcDbEntity
  8
SK6
  6
CONTINUOUS
370
25
 62
5
100
AcDbCircle
 10
87.97275989684958
 20
-27.43383199215561
 30
0.0
 40
3.80021703002276
100
AcDbArc
 50
210.5483731288539
 51
236.97801693668
  0
LINE
  5
6E7
330
1F
100
AcDbEntity
  8
SK6
  6
CONTINUOUS
370
25
 62
5
100
AcDbLine
 10
85.90179068512487
 20
-30.62016781867535
 30
0.0
 11
90.04373096742671
 21
-30.62016781867535
 31
0.0
  0
ARC
  5
6E8
330
1F
100
AcDbEntity
  8
SK6
  6
CONTINUOUS
370
25
 62
5
100
AcDbCircle
 10
87.97276183877257
 20
-27.4338320937346
 30
0.0
 40
3.800216899582472
100
AcDbArc
 50
303.0219828477959
 51
326.3732153033476
  0
LINE
  5
6E9
330
1F
100
AcDbEntity
  8
SK6
  6
CONTINUOUS
370
25
 62
5
100
AcDbLine
 10
91.13705975135723
 20
-29.5383194907709
 30
0.0
 11
87.77976170575462
 21
-29.5383194907709
 31
0.0
  0
LINE
  5
6EA
330
1F
100
AcDbEntity
  8
SK6
  6
CONTINUOUS
370
25
 62
5
100
AcDbLine
 10
87.77976170575462
 20
-29.5383194907709
 30
0.0
 11
91.69962109771987
 21
-28.17691829641694
 31
0.0
  0
ARC
  5
6EB
330
1F
100
AcDbEntity
  8
SK6
  6
CONTINUOUS
370
25
 62
5
100
AcDbCircle
 10
87.97276256157211
 20
-27.4338326048594
 30
0.0
 40
3.800217216614723
100
AcDbArc
 50
348.7238644184696
 51
53.4691051260885
  0
LINE
  5
6EC
330
1F
100
AcDbEntity
  8
SK6
  6
CONTINUOUS
370
25
 62
5
100
AcDbLine
 10
90.23486524538545
 20
-24.38022124429967
 30
0.0
 11
88.03745047882737
 21
-28.83730973507058
 31
0.0
  0
ENDSEC
  0
SECTION
  2
OBJECTS
  0
DICTIONARY
  5
C
330
0
100
AcDbDictionary
281
     1
  3
ACAD_GROUP
350
D
  3
ACAD_LAYOUT
350
1A
  3
ACAD_MATERIAL
350
3B
  3
ACAD_MLEADERSTYLE
350
6EF
  3
ACAD_MLINESTYLE
350
17
  3
ACAD_PLOTSETTINGS
350
19
  3
ACAD_PLOTSTYLENAME
350
E
  3
ACAD_SCALELIST
350
16F
  3
ACAD_VISUALSTYLE
350
2A
  3
AcDbVariableDictionary
350
6ED
  0
DICTIONARY
  5
D
102
{ACAD_REACTORS
330
C
102
}
330
C
100
AcDbDictionary
281
     1
  0
DICTIONARY
  5
1A
102
{ACAD_REACTORS
330
C
102
}
330
C
100
AcDbDictionary
281
     1
  3
Layout1
350
1E
  3
Layout2
350
26
  3
Model
350
22
  0
DICTIONARY
  5
3B
102
{ACAD_REACTORS
330
C
102
}
330
C
100
AcDbDictionary
281
     1
  3
ByBlock
350
3D
  3
ByLayer
350
3C
  3
Global
350
3E
  0
DICTIONARY
  5
6EF
102
{ACAD_REACTORS
330
C
102
}
330
C
100
AcDbDictionary
281
     1
  0
DICTIONARY
  5
17
102
{ACAD_REACTORS
330
C
102
}
330
C
100
AcDbDictionary
281
     1
  3
Standard
350
18
  0
DICTIONARY
  5
19
102
{ACAD_REACTORS
330
C
102
}
330
C
100
AcDbDictionary
281
     1
  0
ACDBDICTIONARYWDFLT
  5
E
102
{ACAD_REACTORS
330
C
102
}
330
C
100
AcDbDictionary
281
     1
  3
Normal
350
F
100
AcDbDictionaryWithDefault
340
F
  0
DICTIONARY
  5
16F
102
{ACAD_REACTORS
330
C
102
}
330
C
100
AcDbDictionary
281
     1
  3
A0
350
170
  3
A1
350
171
  3
A2
350
172
  3
A3
350
173
  3
A4
350
174
  3
A5
350
175
  3
A6
350
176
  3
A7
350
177
  3
A8
350
178
  3
A9
350
179
  3
B0
350
17A
  3
B1
350
17B
  3
B2
350
17C
  3
B3
350
17D
  3
B4
350
17E
  3
B5
350
17F
  3
B6
350
180
  3
B7
350
181
  3
B8
350
182
  3
B9
350
183
  3
C0
350
184
  3
C1
350
185
  3
C2
350
186
  3
C3
350
187
  3
C4
350
188
  3
C5
350
189
  3
C6
350
18A
  3
C7
350
18B
  3
C8
350
18C
  3
C9
350
18D
  3
D0
350
18E
  3
D1
350
18F
  3
D2
350
190
  0
DICTIONARY
  5
2A
102
{ACAD_REACTORS
330
C
102
}
330
C
100
AcDbDictionary
281
     1
  3
2dWireframe
350
2F
  3
3D Hidden
350
31
  3
3dWireframe
350
30
  3
Basic
350
32
  3
Brighten
350
36
  3
ColorChange
350
3A
  3
Conceptual
350
34
  3
Dim
350
35
  3
Facepattern
350
39
  3
Flat
350
2B
  3
FlatWithEdges
350
2C
  3
Gouraud
350
2D
  3
GouraudWithEdges
350
2E
  3
Linepattern
350
38
  3
Realistic
350
33
  3
Thicken
350
37
  0
DICTIONARY
  5
6ED
102
{ACAD_REACTORS
330
C
102
}
330
C
100
AcDbDictionary
281
     1
  3
CANNOSCALE
350
6F2
  3
DIMASSOC
350
6F3
  3
HIDETEXT
350
6F4
  3
PSOLHEIGHT
350
6F1
  3
PSOLWIDTH
350
6F0
  0
LAYOUT
  5
1E
102
{ACAD_REACTORS
330
1A
102
}
330
1A
100
AcDbPlotSettings
  1

  2
none_device
  4

  6

 40
0.0
 41
0.0
 42
0.0
 43
0.0
 44
0.0
 45
0.0
 46
0.0
 47
0.0
 48
0.0
 49
0.0
140
0.0
141
0.0
142
1.0
143
1.0
 70
   688
 72
     0
 73
     0
 74
     5
  7

 75
    16
147
1.0
148
0.0
149
0.0
100
AcDbLayout
  1
Layout1
 70
     1
 71
     1
 10
0.0
 20
0.0
 11
420.0
 21
297.0
 12
0.0
 22
0.0
 32
0.0
 14
1.000000000000000E+20
 24
1.000000000000000E+20
 34
1.000000000000000E+20
 15
-1.000000000000000E+20
 25
-1.000000000000000E+20
 35
-1.000000000000000E+20
146
0.0
 13
0.0
 23
0.0
 33
0.0
 16
1.0
 26
0.0
 36
0.0
 17
0.0
 27
1.0
 37
0.0
 76
     0
330
1B
  0
LAYOUT
  5
26
102
{ACAD_REACTORS
330
1A
102
}
330
1A
100
AcDbPlotSettings
  1

  2
none_device
  4

  6

 40
0.0
 41
0.0
 42
0.0
 43
0.0
 44
0.0
 45
0.0
 46
0.0
 47
0.0
 48
0.0
 49
0.0
140
0.0
141
0.0
142
1.0
143
1.0
 70
   688
 72
     0
 73
     0
 74
     5
  7

 75
    16
147
1.0
148
0.0
149
0.0
100
AcDbLayout
  1
Layout2
 70
     1
 71
     2
 10
0.0
 20
0.0
 11
0.0
 21
0.0
 12
0.0
 22
0.0
 32
0.0
 14
0.0
 24
0.0
 34
0.0
 15
0.0
 25
0.0
 35
0.0
146
0.0
 13
0.0
 23
0.0
 33
0.0
 16
1.0
 26
0.0
 36
0.0
 17
0.0
 27
1.0
 37
0.0
 76
     0
330
23
  0
LAYOUT
  5
22
102
{ACAD_REACTORS
330
1A
102
}
330
1A
100
AcDbPlotSettings
  1

  2
none_device
  4

  6

 40
0.0
 41
0.0
 42
0.0
 43
0.0
 44
0.0
 45
0.0
 46
0.0
 47
0.0
 48
0.0
 49
0.0
140
0.0
141
0.0
142
1.0
143
1.0
 70
  1712
 72
     0
 73
     0
 74
     0
  7

 75
     0
147
1.0
148
0.0
149
0.0
100
AcDbLayout
  1
Model
 70
     1
 71
     0
 10
0.0
 20
0.0
 11
420.0
 21
297.0
 12
0.0
 22
0.0
 32
0.0
 14
0.0
 24
0.0
 34
0.0
 15
25.0
 25
35.0
 35
0.0
146
0.0
 13
0.0
 23
0.0
 33
0.0
 16
1.0
 26
0.0
 36
0.0
 17
0.0
 27
1.0
 37
0.0
 76
     0
330
1F
331
29
  0
MATERIAL
  5
3D
102
{ACAD_REACTORS
330
3B
102
}
102
{ACAD_XDICTIONARY
360
717
102
}
330
3B
100
AcDbMaterial
  1
ByBlock
  0
MATERIAL
  5
3C
102
{ACAD_REACTORS
330
3B
102
}
102
{ACAD_XDICTIONARY
360
715
102
}
330
3B
100
AcDbMaterial
  1
ByLayer
  0
MATERIAL
  5
3E
102
{ACAD_REACTORS
330
3B
102
}
102
{ACAD_XDICTIONARY
360
719
102
}
330
3B
100
AcDbMaterial
  1
Global
  0
MLINESTYLE
  5
18
102
{ACAD_REACTORS
330
17
102
}
330
17
100
AcDbMlineStyle
  2
Standard
 70
     0
  3

 62
   256
 51
90.0
 52
90.0
 71
     2
 49
0.5
 62
   256
  6
BYLAYER
 49
-0.5
 62
   256
  6
BYLAYER
  0
ACDBPLACEHOLDER
  5
F
102
{ACAD_REACTORS
330
E
102
}
330
E
  0
SCALE
  5
170
102
{ACAD_REACTORS
330
16F
102
}
330
16F
100
AcDbScale
 70
     0
300
1:1
140
1.0
141
1.0
290
     1
  0
SCALE
  5
171
102
{ACAD_REACTORS
330
16F
102
}
330
16F
100
AcDbScale
 70
     0
300
1:2
140
1.0
141
2.0
290
     0
  0
SCALE
  5
172
102
{ACAD_REACTORS
330
16F
102
}
330
16F
100
AcDbScale
 70
     0
300
1:4
140
1.0
141
4.0
290
     0
  0
SCALE
  5
173
102
{ACAD_REACTORS
330
16F
102
}
330
16F
100
AcDbScale
 70
     0
300
1:5
140
1.0
141
5.0
290
     0
  0
SCALE
  5
174
102
{ACAD_REACTORS
330
16F
102
}
330
16F
100
AcDbScale
 70
     0
300
1:8
140
1.0
141
8.0
290
     0
  0
SCALE
  5
175
102
{ACAD_REACTORS
330
16F
102
}
330
16F
100
AcDbScale
 70
     0
300
1:10
140
1.0
141
10.0
290
     0
  0
SCALE
  5
176
102
{ACAD_REACTORS
330
16F
102
}
330
16F
100
AcDbScale
 70
     0
300
1:16
140
1.0
141
16.0
290
     0
  0
SCALE
  5
177
102
{ACAD_REACTORS
330
16F
102
}
330
16F
100
AcDbScale
 70
     0
300
1:20
140
1.0
141
20.0
290
     0
  0
SCALE
  5
178
102
{ACAD_REACTORS
330
16F
102
}
330
16F
100
AcDbScale
 70
     0
300
1:30
140
1.0
141
30.0
290
     0
  0
SCALE
  5
179
102
{ACAD_REACTORS
330
16F
102
}
330
16F
100
AcDbScale
 70
     0
300
1:40
140
1.0
141
40.0
290
     0
  0
SCALE
  5
17A
102
{ACAD_REACTORS
330
16F
102
}
330
16F
100
AcDbScale
 70
     0
300
1:50
140
1.0
141
50.0
290
     0
  0
SCALE
  5
17B
102
{ACAD_REACTORS
330
16F
102
}
330
16F
100
AcDbScale
 70
     0
300
1:100
140
1.0
141
100.0
290
     0
  0
SCALE
  5
17C
102
{ACAD_REACTORS
330
16F
102
}
330
16F
100
AcDbScale
 70
     0
300
2:1
140
2.0
141
1.0
290
     0
  0
SCALE
  5
17D
102
{ACAD_REACTORS
330
16F
102
}
330
16F
100
AcDbScale
 70
     0
300
4:1
140
4.0
141
1.0
290
     0
  0
SCALE
  5
17E
102
{ACAD_REACTORS
330
16F
102
}
330
16F
100
AcDbScale
 70
     0
300
8:1
140
8.0
141
1.0
290
     0
  0
SCALE
  5
17F
102
{ACAD_REACTORS
330
16F
102
}
330
16F
100
AcDbScale
 70
     0
300
10:1
140
10.0
141
1.0
290
     0
  0
SCALE
  5
180
102
{ACAD_REACTORS
330
16F
102
}
330
16F
100
AcDbScale
 70
     0
300
100:1
140
100.0
141
1.0
290
     0
  0
SCALE
  5
181
102
{ACAD_REACTORS
330
16F
102
}
330
16F
100
AcDbScale
 70
     0
300
1/128" = 1'-0"
140
0.0078125
141
12.0
290
     0
  0
SCALE
  5
182
102
{ACAD_REACTORS
330
16F
102
}
330
16F
100
AcDbScale
 70
     0
300
1/64" = 1'-0"
140
0.015625
141
12.0
290
     0
  0
SCALE
  5
183
102
{ACAD_REACTORS
330
16F
102
}
330
16F
100
AcDbScale
 70
     0
300
1/32" = 1'-0"
140
0.03125
141
12.0
290
     0
  0
SCALE
  5
184
102
{ACAD_REACTORS
330
16F
102
}
330
16F
100
AcDbScale
 70
     0
300
1/16" = 1'-0"
140
0.0625
141
12.0
290
     0
  0
SCALE
  5
185
102
{ACAD_REACTORS
330
16F
102
}
330
16F
100
AcDbScale
 70
     0
300
3/32" = 1'-0"
140
0.09375
141
12.0
290
     0
  0
SCALE
  5
186
102
{ACAD_REACTORS
330
16F
102
}
330
16F
100
AcDbScale
 70
     0
300
1/8" = 1'-0"
140
0.125
141
12.0
290
     0
  0
SCALE
  5
187
102
{ACAD_REACTORS
330
16F
102
}
330
16F
100
AcDbScale
 70
     0
300
3/16" = 1'-0"
140
0.1875
141
12.0
290
     0
  0
SCALE
  5
188
102
{ACAD_REACTORS
330
16F
102
}
330
16F
100
AcDbScale
 70
     0
300
1/4" = 1'-0"
140
0.25
141
12.0
290
     0
  0
SCALE
  5
189
102
{ACAD_REACTORS
330
16F
102
}
330
16F
100
AcDbScale
 70
     0
300
3/8" = 1'-0"
140
0.375
141
12.0
290
     0
  0
SCALE
  5
18A
102
{ACAD_REACTORS
330
16F
102
}
330
16F
100
AcDbScale
 70
     0
300
1/2" = 1'-0"
140
0.5
141
12.0
290
     0
  0
SCALE
  5
18B
102
{ACAD_REACTORS
330
16F
102
}
330
16F
100
AcDbScale
 70
     0
300
3/4" = 1'-0"
140
0.75
141
12.0
290
     0
  0
SCALE
  5
18C
102
{ACAD_REACTORS
330
16F
102
}
330
16F
100
AcDbScale
 70
     0
300
1" = 1'-0"
140
1.0
141
12.0
290
     0
  0
SCALE
  5
18D
102
{ACAD_REACTORS
330
16F
102
}
330
16F
100
AcDbScale
 70
     0
300
1-1/2" = 1'-0"
140
1.5
141
12.0
290
     0
  0
SCALE
  5
18E
102
{ACAD_REACTORS
330
16F
102
}
330
16F
100
AcDbScale
 70
     0
300
3" = 1'-0"
140
3.0
141
12.0
290
     0
  0
SCALE
  5
18F
102
{ACAD_REACTORS
330
16F
102
}
330
16F
100
AcDbScale
 70
     0
300
6" = 1'-0"
140
6.0
141
12.0
290
     0
  0
SCALE
  5
190
102
{ACAD_REACTORS
330
16F
102
}
330
16F
100
AcDbScale
 70
     0
300
1'-0" = 1'-0"
140
12.0
141
12.0
290
     0
  0
VISUALSTYLE
  5
2F
102
{ACAD_REACTORS
330
2A
102
}
102
{ACAD_XDICTIONARY
360
6FD
102
}
330
2A
100
AcDbVisualStyle
  2
2dWireframe
 70
     4
 71
     0
 72
     2
 73
     0
 90
        0
 40
-0.6
 41
-30.0
 62
     5
 63
     7
 74
     1
 91
        4
 64
     7
 65
   257
 75
     1
175
     1
 42
1.0
 92
        0
 66
   257
 43
1.0
 76
     1
 77
     6
 78
     2
 67
     7
 79
     5
170
     0
171
     0
290
     0
174
     0
 93
        1
 44
0.0
173
     0
291
     0
 45
0.0
1001
ACAD
1000
AcDbSavedByObjectVersion
1070
     0
  0
VISUALSTYLE
  5
31
102
{ACAD_REACTORS
330
2A
102
}
102
{ACAD_XDICTIONARY
360
701
102
}
330
2A
100
AcDbVisualStyle
  2
3D Hidden
 70
     6
 71
     1
 72
     2
 73
     2
 90
        0
 40
-0.6
 41
-30.0
 62
     5
 63
     7
 74
     2
 91
        2
 64
     7
 65
   257
 75
     2
175
     1
 42
40.0
 92
        0
 66
   257
 43
1.0
 76
     1
 77
     6
 78
     2
 67
     7
 79
     3
170
     0
171
     0
290
     0
174
     0
 93
        1
 44
0.0
173
     0
291
     0
 45
0.0
1001
ACAD
1000
AcDbSavedByObjectVersion
1070
     0
  0
VISUALSTYLE
  5
30
102
{ACAD_REACTORS
330
2A
102
}
102
{ACAD_XDICTIONARY
360
6FF
102
}
330
2A
100
AcDbVisualStyle
  2
3dWireframe
 70
     5
 71
     0
 72
     2
 73
     0
 90
        0
 40
-0.6
 41
-30.0
 62
     5
 63
     7
 74
     1
 91
        4
 64
     7
 65
   257
 75
     1
175
     1
 42
1.0
 92
        0
 66
   257
 43
1.0
 76
     1
 77
     6
 78
     2
 67
     7
 79
     5
170
     0
171
     0
290
     0
174
     0
 93
        1
 44
0.0
173
     0
291
     0
 45
0.0
1001
ACAD
1000
AcDbSavedByObjectVersion
1070
     0
  0
VISUALSTYLE
  5
32
102
{ACAD_REACTORS
330
2A
102
}
102
{ACAD_XDICTIONARY
360
703
102
}
330
2A
100
AcDbVisualStyle
  2
Basic
 70
     7
 71
     1
 72
     0
 73
     1
 90
        0
 40
-0.6
 41
-30.0
 62
     5
 63
     7
 74
     0
 91
        4
 64
     7
 65
   257
 75
     1
175
     1
 42
1.0
 92
        8
 66
     7
 43
1.0
 76
     1
 77
     6
 78
     2
 67
     7
 79
     5
170
     0
171
     0
290
     0
174
     0
 93
        1
 44
0.0
173
     0
291
     1
 45
0.0
1001
ACAD
1000
AcDbSavedByObjectVersion
1070
     0
  0
VISUALSTYLE
  5
36
102
{ACAD_REACTORS
330
2A
102
}
102
{ACAD_XDICTIONARY
360
70B
102
}
330
2A
100
AcDbVisualStyle
  2
Brighten
 70
    12
 71
     2
 72
     2
 73
     0
 90
        0
 40
-0.6
 41
-30.0
 62
     5
 63
     7
 74
     1
 91
        4
 64
     7
 65
   257
 75
     1
175
     1
 42
1.0
 92
        8
 66
     7
 43
1.0
 76
     1
 77
     6
 78
     2
 67
     7
 79
     5
170
     0
171
     0
290
     0
174
     0
 93
        1
 44
50.0
173
     0
291
     1
 45
0.0
1001
ACAD
1000
AcDbSavedByObjectVersion
1070
     0
  0
VISUALSTYLE
  5
3A
102
{ACAD_REACTORS
330
2A
102
}
102
{ACAD_XDICTIONARY
360
713
102
}
330
2A
100
AcDbVisualStyle
  2
ColorChange
 70
    16
 71
     2
 72
     2
 73
     3
 90
        0
 40
-0.6
 41
-30.0
 62
     5
 63
     8
 74
     1
 91
        4
 64
     7
 65
   257
 75
     1
175
     1
 42
1.0
 92
        8
 66
     8
 43
1.0
 76
     1
 77
     6
 78
     2
 67
     7
 79
     5
170
     0
171
     0
290
     0
174
     0
 93
        1
 44
0.0
173
     0
291
     1
 45
0.0
1001
ACAD
1000
AcDbSavedByObjectVersion
1070
     0
  0
VISUALSTYLE
  5
34
102
{ACAD_REACTORS
330
2A
102
}
102
{ACAD_XDICTIONARY
360
707
102
}
330
2A
100
AcDbVisualStyle
  2
Conceptual
 70
     9
 71
     3
 72
     2
 73
     0
 90
        0
 40
-0.6
 41
-30.0
 62
     5
 63
     7
 74
     2
 91
        2
 64
     7
 65
   257
 75
     1
175
     1
 42
40.0
 92
        8
 66
     7
 43
1.0
 76
     1
 77
     6
 78
     2
 67
     7
 79
     3
170
     0
171
     0
290
     0
174
     0
 93
        1
 44
0.0
173
     0
291
     0
 45
0.0
1001
ACAD
1000
AcDbSavedByObjectVersion
1070
     0
  0
VISUALSTYLE
  5
35
102
{ACAD_REACTORS
330
2A
102
}
102
{ACAD_XDICTIONARY
360
709
102
}
330
2A
100
AcDbVisualStyle
  2
Dim
 70
    11
 71
     2
 72
     2
 73
     0
 90
        0
 40
-0.6
 41
-30.0
 62
     5
 63
     7
 74
     1
 91
        4
 64
     7
 65
   257
 75
     1
175
     1
 42
1.0
 92
        8
 66
     7
 43
1.0
 76
     1
 77
     6
 78
     2
 67
     7
 79
     5
170
     0
171
     0
290
     0
174
     0
 93
        1
 44
-50.0
173
     0
291
     1
 45
0.0
1001
ACAD
1000
AcDbSavedByObjectVersion
1070
     0
  0
VISUALSTYLE
  5
39
102
{ACAD_REACTORS
330
2A
102
}
102
{ACAD_XDICTIONARY
360
711
102
}
330
2A
100
AcDbVisualStyle
  2
Facepattern
 70
    15
 71
     2
 72
     2
 73
     0
 90
        0
 40
-0.6
 41
-30.0
 62
     5
 63
     7
 74
     1
 91
        4
 64
     7
 65
   257
 75
     1
175
     1
 42
1.0
 92
        8
 66
     7
 43
1.0
 76
     1
 77
     6
 78
     2
 67
     7
 79
     5
170
     0
171
     0
290
     0
174
     0
 93
        1
 44
0.0
173
     0
291
     1
 45
0.0
1001
ACAD
1000
AcDbSavedByObjectVersion
1070
     0
  0
VISUALSTYLE
  5
2B
102
{ACAD_REACTORS
330
2A
102
}
102
{ACAD_XDICTIONARY
360
6F5
102
}
330
2A
100
AcDbVisualStyle
  2
Flat
 70
     0
 71
     2
 72
     1
 73
     1
 90
        2
 40
-0.6
 41
30.0
 62
     5
 63
     7
 74
     0
 91
        4
 64
     7
 65
   257
 75
     1
175
     1
 42
1.0
 92
        8
 66
     7
 43
1.0
 76
     1
 77
     6
 78
     2
 67
     7
 79
     5
170
     0
171
     0
290
     0
174
     0
 93
       13
 44
0.0
173
     0
291
     1
 45
0.0
1001
ACAD
1000
AcDbSavedByObjectVersion
1070
     0
  0
VISUALSTYLE
  5
2C
102
{ACAD_REACTORS
330
2A
102
}
102
{ACAD_XDICTIONARY
360
6F7
102
}
330
2A
100
AcDbVisualStyle
  2
FlatWithEdges
 70
     1
 71
     2
 72
     1
 73
     1
 90
        2
 40
-0.6
 41
30.0
 62
     5
 63
     7
 74
     1
 91
        4
 64
     7
 65
   257
 75
     1
175
     1
 42
1.0
 92
        0
 66
   257
 43
1.0
 76
     1
 77
     6
 78
     2
 67
     7
 79
     5
170
     0
171
     0
290
     0
174
     0
 93
       13
 44
0.0
173
     0
291
     1
 45
0.0
1001
ACAD
1000
AcDbSavedByObjectVersion
1070
     0
  0
VISUALSTYLE
  5
2D
102
{ACAD_REACTORS
330
2A
102
}
102
{ACAD_XDICTIONARY
360
6F9
102
}
330
2A
100
AcDbVisualStyle
  2
Gouraud
 70
     2
 71
     2
 72
     2
 73
     1
 90
        2
 40
-0.6
 41
30.0
 62
     5
 63
     7
 74
     0
 91
        4
 64
     7
 65
   257
 75
     1
175
     1
 42
1.0
 92
        0
 66
     7
 43
1.0
 76
     1
 77
     6
 78
     2
 67
     7
 79
     5
170
     0
171
     0
290
     0
174
     0
 93
       13
 44
0.0
173
     0
291
     1
 45
0.0
1001
ACAD
1000
AcDbSavedByObjectVersion
1070
     0
  0
VISUALSTYLE
  5
2E
102
{ACAD_REACTORS
330
2A
102
}
102
{ACAD_XDICTIONARY
360
6FB
102
}
330
2A
100
AcDbVisualStyle
  2
GouraudWithEdges
 70
     3
 71
     2
 72
     2
 73
     1
 90
        2
 40
-0.6
 41
30.0
 62
     5
 63
     7
 74
     1
 91
        4
 64
     7
 65
   257
 75
     1
175
     1
 42
1.0
 92
        0
 66
   257
 43
1.0
 76
     1
 77
     6
 78
     2
 67
     7
 79
     5
170
     0
171
     0
290
     0
174
     0
 93
       13
 44
0.0
173
     0
291
     1
 45
0.0
1001
ACAD
1000
AcDbSavedByObjectVersion
1070
     0
  0
VISUALSTYLE
  5
38
102
{ACAD_REACTORS
330
2A
102
}
102
{ACAD_XDICTIONARY
360
70F
102
}
330
2A
100
AcDbVisualStyle
  2
Linepattern
 70
    14
 71
     2
 72
     2
 73
     0
 90
        0
 40
-0.6
 41
-30.0
 62
     5
 63
     7
 74
     1
 91
        4
 64
     7
 65
   257
 75
     7
175
     7
 42
1.0
 92
        8
 66
     7
 43
1.0
 76
     1
 77
     6
 78
     2
 67
     7
 79
     5
170
     0
171
     0
290
     0
174
     0
 93
        1
 44
0.0
173
     0
291
     1
 45
0.0
1001
ACAD
1000
AcDbSavedByObjectVersion
1070
     0
  0
VISUALSTYLE
  5
33
102
{ACAD_REACTORS
330
2A
102
}
102
{ACAD_XDICTIONARY
360
705
102
}
330
2A
100
AcDbVisualStyle
  2
Realistic
 70
     8
 71
     2
 72
     2
 73
     0
 90
        0
 40
-0.6
 41
-30.0
 62
     5
 63
     7
 74
     1
 91
        0
 64
     7
 65
   257
 75
     1
175
     1
 42
1.0
 92
        8
 66
     8
 43
1.0
 76
     1
 77
     6
 78
     2
 67
     7
 79
     5
170
     0
171
     0
290
     0
174
     0
 93
       13
 44
0.0
173
     0
291
     0
 45
0.0
1001
ACAD
1000
AcDbSavedByObjectVersion
1070
     0
  0
VISUALSTYLE
  5
37
102
{ACAD_REACTORS
330
2A
102
}
102
{ACAD_XDICTIONARY
360
70D
102
}
330
2A
100
AcDbVisualStyle
  2
Thicken
 70
    13
 71
     2
 72
     2
 73
     0
 90
        0
 40
-0.6
 41
-30.0
 62
     5
 63
     7
 74
     1
 91
        4
 64
     7
 65
   257
 75
     1
175
     1
 42
1.0
 92
       12
 66
     7
 43
1.0
 76
     1
 77
     6
 78
     2
 67
     7
 79
     5
170
     0
171
     0
290
     0
174
     0
 93
        1
 44
0.0
173
     0
291
     1
 45
0.0
1001
ACAD
1000
AcDbSavedByObjectVersion
1070
     0
  0
DICTIONARYVAR
  5
6F2
102
{ACAD_REACTORS
330
6ED
102
}
330
6ED
100
DictionaryVariables
280
     0
  1
1:1
  0
DICTIONARYVAR
  5
6F3
102
{ACAD_REACTORS
330
6ED
102
}
330
6ED
100
DictionaryVariables
280
     0
  1
2
  0
DICTIONARYVAR
  5
6F4
102
{ACAD_REACTORS
330
6ED
102
}
330
6ED
100
DictionaryVariables
280
     0
  1
1
  0
DICTIONARYVAR
  5
6F1
102
{ACAD_REACTORS
330
6ED
102
}
330
6ED
100
DictionaryVariables
280
     0
  1
80.000000
  0
DICTIONARYVAR
  5
6F0
102
{ACAD_REACTORS
330
6ED
102
}
330
6ED
100
DictionaryVariables
280
     0
  1
5.000000
  0
DICTIONARY
  5
717
330
3D
100
AcDbDictionary
280
     1
281
     1
  3
ACAD_XREC_ROUNDTRIP
360
718
  0
DICTIONARY
  5
715
330
3C
100
AcDbDictionary
280
     1
281
     1
  3
ACAD_XREC_ROUNDTRIP
360
716
  0
DICTIONARY
  5
719
330
3E
100
AcDbDictionary
280
     1
281
     1
  3
ACAD_XREC_ROUNDTRIP
360
71A
  0
DICTIONARY
  5
6FD
330
2F
100
AcDbDictionary
280
     1
281
     1
  3
ACAD_XREC_ROUNDTRIP
360
6FE
  0
DICTIONARY
  5
701
330
31
100
AcDbDictionary
280
     1
281
     1
  3
ACAD_XREC_ROUNDTRIP
360
702
  0
DICTIONARY
  5
6FF
330
30
100
AcDbDictionary
280
     1
281
     1
  3
ACAD_XREC_ROUNDTRIP
360
700
  0
DICTIONARY
  5
703
330
32
100
AcDbDictionary
280
     1
281
     1
  3
ACAD_XREC_ROUNDTRIP
360
704
  0
DICTIONARY
  5
70B
330
36
100
AcDbDictionary
280
     1
281
     1
  3
ACAD_XREC_ROUNDTRIP
360
70C
  0
DICTIONARY
  5
713
330
3A
100
AcDbDictionary
280
     1
281
     1
  3
ACAD_XREC_ROUNDTRIP
360
714
  0
DICTIONARY
  5
707
330
34
100
AcDbDictionary
280
     1
281
     1
  3
ACAD_XREC_ROUNDTRIP
360
708
  0
DICTIONARY
  5
709
330
35
100
AcDbDictionary
280
     1
281
     1
  3
ACAD_XREC_ROUNDTRIP
360
70A
  0
DICTIONARY
  5
711
330
39
100
AcDbDictionary
280
     1
281
     1
  3
ACAD_XREC_ROUNDTRIP
360
712
  0
DICTIONARY
  5
6F5
330
2B
100
AcDbDictionary
280
     1
281
     1
  3
ACAD_XREC_ROUNDTRIP
360
6F6
  0
DICTIONARY
  5
6F7
330
2C
100
AcDbDictionary
280
     1
281
     1
  3
ACAD_XREC_ROUNDTRIP
360
6F8
  0
DICTIONARY
  5
6F9
330
2D
100
AcDbDictionary
280
     1
281
     1
  3
ACAD_XREC_ROUNDTRIP
360
6FA
  0
DICTIONARY
  5
6FB
330
2E
100
AcDbDictionary
280
     1
281
     1
  3
ACAD_XREC_ROUNDTRIP
360
6FC
  0
DICTIONARY
  5
70F
330
38
100
AcDbDictionary
280
     1
281
     1
  3
ACAD_XREC_ROUNDTRIP
360
710
  0
DICTIONARY
  5
705
330
33
100
AcDbDictionary
280
     1
281
     1
  3
ACAD_XREC_ROUNDTRIP
360
706
  0
DICTIONARY
  5
70D
330
37
100
AcDbDictionary
280
     1
281
     1
  3
ACAD_XREC_ROUNDTRIP
360
70E
  0
XRECORD
  5
718
102
{ACAD_REACTORS
330
717
102
}
330
717
100
AcDbXrecord
280
     1
102
MATERIAL
148
0.0
149
0.0
149
0.0
 93
        0
 94
      127
282
     0
 72
     1
 77
     1
171
     1
175
     1
179
     1
273
     0
  0
XRECORD
  5
716
102
{ACAD_REACTORS
330
715
102
}
330
715
100
AcDbXrecord
280
     1
102
MATERIAL
148
0.0
149
0.0
149
0.0
 93
        0
 94
      127
282
     0
 72
     1
 77
     1
171
     1
175
     1
179
     1
273
     0
  0
XRECORD
  5
71A
102
{ACAD_REACTORS
330
719
102
}
330
719
100
AcDbXrecord
280
     1
102
MATERIAL
148
0.0
149
0.0
149
0.0
 93
        0
 94
      127
282
     0
 72
     1
 77
     1
171
     1
175
     1
179
     1
273
     0
  0
XRECORD
  5
6FE
102
{ACAD_REACTORS
330
6FD
102
}
330
6FD
100
AcDbXrecord
280
     1
102
RTVSPropertyOp0
 70
     1
102
RTVSPropertyOp1
 70
     1
102
RTVSPropertyOp2
 70
     1
102
RTVSPropertyOp3
 70
     1
102
RTVSPropertyOp4
 70
     1
102
RTVSPropertyOp5
 70
     1
102
RTVSPropertyOp6
 70
     1
102
RTVSPropertyOp7
 70
     1
102
RTVSPropertyOp8
 70
     1
102
RTVSPropertyOp9
 70
     1
102
RTVSPropertyOp10
 70
     1
102
RTVSPropertyOp11
 70
     1
102
RTVSPropertyOp12
 70
     1
102
RTVSPropertyOp13
 70
     1
102
RTVSPropertyOp14
 70
     1
102
RTVSPropertyOp15
 70
     1
102
RTVSPropertyOp16
 70
     1
102
RTVSPropertyOp17
 70
     1
102
RTVSPropertyOp18
 70
     1
102
RTVSPropertyOp19
 70
     1
102
RTVSPropertyOp20
 70
     1
102
RTVSPropertyOp21
 70
     1
102
RTVSPropertyOp22
 70
     1
102
RTVSPropertyOp23
 70
     1
102
RTVSPropertyOp24
 70
     1
102
RTVSPropertyOp25
 70
     1
102
RTVSPropertyOp26
 70
     1
102
RTVSPropertyOp27
 70
     1
  0
XRECORD
  5
702
102
{ACAD_REACTORS
330
701
102
}
330
701
100
AcDbXrecord
280
     1
102
RTVSPropertyOp0
 70
     1
102
RTVSPropertyOp1
 70
     1
102
RTVSPropertyOp2
 70
     1
102
RTVSPropertyOp3
 70
     1
102
RTVSPropertyOp4
 70
     1
102
RTVSPropertyOp5
 70
     1
102
RTVSPropertyOp6
 70
     1
102
RTVSPropertyOp7
 70
     1
102
RTVSPropertyOp8
 70
     1
102
RTVSPropertyOp9
 70
     1
102
RTVSPropertyOp10
 70
     1
102
RTVSPropertyOp11
 70
     1
102
RTVSPropertyOp12
 70
     1
102
RTVSPropertyOp13
 70
     1
102
RTVSPropertyOp14
 70
     1
102
RTVSPropertyOp15
 70
     1
102
RTVSPropertyOp16
 70
     1
102
RTVSPropertyOp17
 70
     1
102
RTVSPropertyOp18
 70
     1
102
RTVSPropertyOp19
 70
     1
102
RTVSPropertyOp20
 70
     1
102
RTVSPropertyOp21
 70
     1
102
RTVSPropertyOp22
 70
     1
102
RTVSPropertyOp23
 70
     1
102
RTVSPropertyOp24
 70
     1
102
RTVSPropertyOp25
 70
     1
102
RTVSPropertyOp26
 70
     1
102
RTVSPropertyOp27
 70
     1
  0
XRECORD
  5
700
102
{ACAD_REACTORS
330
6FF
102
}
330
6FF
100
AcDbXrecord
280
     1
102
RTVSPropertyOp0
 70
     1
102
RTVSPropertyOp1
 70
     1
102
RTVSPropertyOp2
 70
     1
102
RTVSPropertyOp3
 70
     1
102
RTVSPropertyOp4
 70
     1
102
RTVSPropertyOp5
 70
     1
102
RTVSPropertyOp6
 70
     1
102
RTVSPropertyOp7
 70
     1
102
RTVSPropertyOp8
 70
     1
102
RTVSPropertyOp9
 70
     1
102
RTVSPropertyOp10
 70
     1
102
RTVSPropertyOp11
 70
     1
102
RTVSPropertyOp12
 70
     1
102
RTVSPropertyOp13
 70
     1
102
RTVSPropertyOp14
 70
     1
102
RTVSPropertyOp15
 70
     1
102
RTVSPropertyOp16
 70
     1
102
RTVSPropertyOp17
 70
     1
102
RTVSPropertyOp18
 70
     1
102
RTVSPropertyOp19
 70
     1
102
RTVSPropertyOp20
 70
     1
102
RTVSPropertyOp21
 70
     1
102
RTVSPropertyOp22
 70
     1
102
RTVSPropertyOp23
 70
     1
102
RTVSPropertyOp24
 70
     1
102
RTVSPropertyOp25
 70
     1
102
RTVSPropertyOp26
 70
     1
102
RTVSPropertyOp27
 70
     1
  0
XRECORD
  5
704
102
{ACAD_REACTORS
330
703
102
}
330
703
100
AcDbXrecord
280
     1
102
RTVSPropertyOp0
 70
     1
102
RTVSPropertyOp1
 70
     1
102
RTVSPropertyOp2
 70
     1
102
RTVSPropertyOp3
 70
     1
102
RTVSPropertyOp4
 70
     1
102
RTVSPropertyOp5
 70
     1
102
RTVSPropertyOp6
 70
     1
102
RTVSPropertyOp7
 70
     1
102
RTVSPropertyOp8
 70
     1
102
RTVSPropertyOp9
 70
     1
102
RTVSPropertyOp10
 70
     1
102
RTVSPropertyOp11
 70
     1
102
RTVSPropertyOp12
 70
     1
102
RTVSPropertyOp13
 70
     1
102
RTVSPropertyOp14
 70
     1
102
RTVSPropertyOp15
 70
     1
102
RTVSPropertyOp16
 70
     1
102
RTVSPropertyOp17
 70
     1
102
RTVSPropertyOp18
 70
     1
102
RTVSPropertyOp19
 70
     1
102
RTVSPropertyOp20
 70
     1
102
RTVSPropertyOp21
 70
     1
102
RTVSPropertyOp22
 70
     1
102
RTVSPropertyOp23
 70
     1
102
RTVSPropertyOp24
 70
     1
102
RTVSPropertyOp25
 70
     1
102
RTVSPropertyOp26
 70
     1
102
RTVSPropertyOp27
 70
     1
  0
XRECORD
  5
70C
102
{ACAD_REACTORS
330
70B
102
}
330
70B
100
AcDbXrecord
280
     1
102
RTVSPropertyOp0
 70
     1
102
RTVSPropertyOp1
 70
     1
102
RTVSPropertyOp2
 70
     1
102
RTVSPropertyOp3
 70
     1
102
RTVSPropertyOp4
 70
     1
102
RTVSPropertyOp5
 70
     1
102
RTVSPropertyOp6
 70
     1
102
RTVSPropertyOp7
 70
     1
102
RTVSPropertyOp8
 70
     1
102
RTVSPropertyOp9
 70
     1
102
RTVSPropertyOp10
 70
     1
102
RTVSPropertyOp11
 70
     1
102
RTVSPropertyOp12
 70
     1
102
RTVSPropertyOp13
 70
     1
102
RTVSPropertyOp14
 70
     1
102
RTVSPropertyOp15
 70
     1
102
RTVSPropertyOp16
 70
     1
102
RTVSPropertyOp17
 70
     1
102
RTVSPropertyOp18
 70
     1
102
RTVSPropertyOp19
 70
     1
102
RTVSPropertyOp20
 70
     1
102
RTVSPropertyOp21
 70
     1
102
RTVSPropertyOp22
 70
     1
102
RTVSPropertyOp23
 70
     1
102
RTVSPropertyOp24
 70
     1
102
RTVSPropertyOp25
 70
     1
102
RTVSPropertyOp26
 70
     1
102
RTVSPropertyOp27
 70
     1
  0
XRECORD
  5
714
102
{ACAD_REACTORS
330
713
102
}
330
713
100
AcDbXrecord
280
     1
102
RTVSPropertyOp0
 70
     1
102
RTVSPropertyOp1
 70
     1
102
RTVSPropertyOp2
 70
     1
102
RTVSPropertyOp3
 70
     1
102
RTVSPropertyOp4
 70
     1
102
RTVSPropertyOp5
 70
     1
102
RTVSPropertyOp6
 70
     1
102
RTVSPropertyOp7
 70
     1
102
RTVSPropertyOp8
 70
     1
102
RTVSPropertyOp9
 70
     1
102
RTVSPropertyOp10
 70
     1
102
RTVSPropertyOp11
 70
     1
102
RTVSPropertyOp12
 70
     1
102
RTVSPropertyOp13
 70
     1
102
RTVSPropertyOp14
 70
     1
102
RTVSPropertyOp15
 70
     1
102
RTVSPropertyOp16
 70
     1
102
RTVSPropertyOp17
 70
     1
102
RTVSPropertyOp18
 70
     1
102
RTVSPropertyOp19
 70
     1
102
RTVSPropertyOp20
 70
     1
102
RTVSPropertyOp21
 70
     1
102
RTVSPropertyOp22
 70
     1
102
RTVSPropertyOp23
 70
     1
102
RTVSPropertyOp24
 70
     1
102
RTVSPropertyOp25
 70
     1
102
RTVSPropertyOp26
 70
     1
102
RTVSPropertyOp27
 70
     1
  0
XRECORD
  5
708
102
{ACAD_REACTORS
330
707
102
}
330
707
100
AcDbXrecord
280
     1
102
RTVSPropertyOp0
 70
     1
102
RTVSPropertyOp1
 70
     1
102
RTVSPropertyOp2
 70
     1
102
RTVSPropertyOp3
 70
     1
102
RTVSPropertyOp4
 70
     1
102
RTVSPropertyOp5
 70
     1
102
RTVSPropertyOp6
 70
     1
102
RTVSPropertyOp7
 70
     1
102
RTVSPropertyOp8
 70
     1
102
RTVSPropertyOp9
 70
     1
102
RTVSPropertyOp10
 70
     1
102
RTVSPropertyOp11
 70
     1
102
RTVSPropertyOp12
 70
     1
102
RTVSPropertyOp13
 70
     1
102
RTVSPropertyOp14
 70
     1
102
RTVSPropertyOp15
 70
     1
102
RTVSPropertyOp16
 70
     1
102
RTVSPropertyOp17
 70
     1
102
RTVSPropertyOp18
 70
     1
102
RTVSPropertyOp19
 70
     1
102
RTVSPropertyOp20
 70
     1
102
RTVSPropertyOp21
 70
     1
102
RTVSPropertyOp22
 70
     1
102
RTVSPropertyOp23
 70
     1
102
RTVSPropertyOp24
 70
     1
102
RTVSPropertyOp25
 70
     1
102
RTVSPropertyOp26
 70
     1
102
RTVSPropertyOp27
 70
     1
  0
XRECORD
  5
70A
102
{ACAD_REACTORS
330
709
102
}
330
709
100
AcDbXrecord
280
     1
102
RTVSPropertyOp0
 70
     1
102
RTVSPropertyOp1
 70
     1
102
RTVSPropertyOp2
 70
     1
102
RTVSPropertyOp3
 70
     1
102
RTVSPropertyOp4
 70
     1
102
RTVSPropertyOp5
 70
     1
102
RTVSPropertyOp6
 70
     1
102
RTVSPropertyOp7
 70
     1
102
RTVSPropertyOp8
 70
     1
102
RTVSPropertyOp9
 70
     1
102
RTVSPropertyOp10
 70
     1
102
RTVSPropertyOp11
 70
     1
102
RTVSPropertyOp12
 70
     1
102
RTVSPropertyOp13
 70
     1
102
RTVSPropertyOp14
 70
     1
102
RTVSPropertyOp15
 70
     1
102
RTVSPropertyOp16
 70
     1
102
RTVSPropertyOp17
 70
     1
102
RTVSPropertyOp18
 70
     1
102
RTVSPropertyOp19
 70
     1
102
RTVSPropertyOp20
 70
     1
102
RTVSPropertyOp21
 70
     1
102
RTVSPropertyOp22
 70
     1
102
RTVSPropertyOp23
 70
     1
102
RTVSPropertyOp24
 70
     1
102
RTVSPropertyOp25
 70
     1
102
RTVSPropertyOp26
 70
     1
102
RTVSPropertyOp27
 70
     1
  0
XRECORD
  5
712
102
{ACAD_REACTORS
330
711
102
}
330
711
100
AcDbXrecord
280
     1
102
RTVSPropertyOp0
 70
     1
102
RTVSPropertyOp1
 70
     1
102
RTVSPropertyOp2
 70
     1
102
RTVSPropertyOp3
 70
     1
102
RTVSPropertyOp4
 70
     1
102
RTVSPropertyOp5
 70
     1
102
RTVSPropertyOp6
 70
     1
102
RTVSPropertyOp7
 70
     1
102
RTVSPropertyOp8
 70
     1
102
RTVSPropertyOp9
 70
     1
102
RTVSPropertyOp10
 70
     1
102
RTVSPropertyOp11
 70
     1
102
RTVSPropertyOp12
 70
     1
102
RTVSPropertyOp13
 70
     1
102
RTVSPropertyOp14
 70
     1
102
RTVSPropertyOp15
 70
     1
102
RTVSPropertyOp16
 70
     1
102
RTVSPropertyOp17
 70
     1
102
RTVSPropertyOp18
 70
     1
102
RTVSPropertyOp19
 70
     1
102
RTVSPropertyOp20
 70
     1
102
RTVSPropertyOp21
 70
     1
102
RTVSPropertyOp22
 70
     1
102
RTVSPropertyOp23
 70
     1
102
RTVSPropertyOp24
 70
     1
102
RTVSPropertyOp25
 70
     1
102
RTVSPropertyOp26
 70
     1
102
RTVSPropertyOp27
 70
     1
  0
XRECORD
  5
6F6
102
{ACAD_REACTORS
330
6F5
102
}
330
6F5
100
AcDbXrecord
280
     1
102
RTVSPropertyOp0
 70
     1
102
RTVSPropertyOp1
 70
     1
102
RTVSPropertyOp2
 70
     1
102
RTVSPropertyOp3
 70
     1
102
RTVSPropertyOp4
 70
     1
102
RTVSPropertyOp5
 70
     1
102
RTVSPropertyOp6
 70
     1
102
RTVSPropertyOp7
 70
     1
102
RTVSPropertyOp8
 70
     1
102
RTVSPropertyOp9
 70
     1
102
RTVSPropertyOp10
 70
     1
102
RTVSPropertyOp11
 70
     1
102
RTVSPropertyOp12
 70
     1
102
RTVSPropertyOp13
 70
     1
102
RTVSPropertyOp14
 70
     1
102
RTVSPropertyOp15
 70
     1
102
RTVSPropertyOp16
 70
     1
102
RTVSPropertyOp17
 70
     1
102
RTVSPropertyOp18
 70
     1
102
RTVSPropertyOp19
 70
     1
102
RTVSPropertyOp20
 70
     1
102
RTVSPropertyOp21
 70
     1
102
RTVSPropertyOp22
 70
     1
102
RTVSPropertyOp23
 70
     1
102
RTVSPropertyOp24
 70
     1
102
RTVSPropertyOp25
 70
     1
102
RTVSPropertyOp26
 70
     1
102
RTVSPropertyOp27
 70
     1
  0
XRECORD
  5
6F8
102
{ACAD_REACTORS
330
6F7
102
}
330
6F7
100
AcDbXrecord
280
     1
102
RTVSPropertyOp0
 70
     1
102
RTVSPropertyOp1
 70
     1
102
RTVSPropertyOp2
 70
     1
102
RTVSPropertyOp3
 70
     1
102
RTVSPropertyOp4
 70
     1
102
RTVSPropertyOp5
 70
     1
102
RTVSPropertyOp6
 70
     1
102
RTVSPropertyOp7
 70
     1
102
RTVSPropertyOp8
 70
     1
102
RTVSPropertyOp9
 70
     1
102
RTVSPropertyOp10
 70
     1
102
RTVSPropertyOp11
 70
     1
102
RTVSPropertyOp12
 70
     1
102
RTVSPropertyOp13
 70
     1
102
RTVSPropertyOp14
 70
     1
102
RTVSPropertyOp15
 70
     1
102
RTVSPropertyOp16
 70
     1
102
RTVSPropertyOp17
 70
     1
102
RTVSPropertyOp18
 70
     1
102
RTVSPropertyOp19
 70
     1
102
RTVSPropertyOp20
 70
     1
102
RTVSPropertyOp21
 70
     1
102
RTVSPropertyOp22
 70
     1
102
RTVSPropertyOp23
 70
     1
102
RTVSPropertyOp24
 70
     1
102
RTVSPropertyOp25
 70
     1
102
RTVSPropertyOp26
 70
     1
102
RTVSPropertyOp27
 70
     1
  0
XRECORD
  5
6FA
102
{ACAD_REACTORS
330
6F9
102
}
330
6F9
100
AcDbXrecord
280
     1
102
RTVSPropertyOp0
 70
     1
102
RTVSPropertyOp1
 70
     1
102
RTVSPropertyOp2
 70
     1
102
RTVSPropertyOp3
 70
     1
102
RTVSPropertyOp4
 70
     1
102
RTVSPropertyOp5
 70
     1
102
RTVSPropertyOp6
 70
     1
102
RTVSPropertyOp7
 70
     1
102
RTVSPropertyOp8
 70
     1
102
RTVSPropertyOp9
 70
     1
102
RTVSPropertyOp10
 70
     1
102
RTVSPropertyOp11
 70
     1
102
RTVSPropertyOp12
 70
     1
102
RTVSPropertyOp13
 70
     1
102
RTVSPropertyOp14
 70
     1
102
RTVSPropertyOp15
 70
     1
102
RTVSPropertyOp16
 70
     1
102
RTVSPropertyOp17
 70
     1
102
RTVSPropertyOp18
 70
     1
102
RTVSPropertyOp19
 70
     1
102
RTVSPropertyOp20
 70
     1
102
RTVSPropertyOp21
 70
     1
102
RTVSPropertyOp22
 70
     1
102
RTVSPropertyOp23
 70
     1
102
RTVSPropertyOp24
 70
     1
102
RTVSPropertyOp25
 70
     1
102
RTVSPropertyOp26
 70
     1
102
RTVSPropertyOp27
 70
     1
  0
XRECORD
  5
6FC
102
{ACAD_REACTORS
330
6FB
102
}
330
6FB
100
AcDbXrecord
280
     1
102
RTVSPropertyOp0
 70
     1
102
RTVSPropertyOp1
 70
     1
102
RTVSPropertyOp2
 70
     1
102
RTVSPropertyOp3
 70
     1
102
RTVSPropertyOp4
 70
     1
102
RTVSPropertyOp5
 70
     1
102
RTVSPropertyOp6
 70
     1
102
RTVSPropertyOp7
 70
     1
102
RTVSPropertyOp8
 70
     1
102
RTVSPropertyOp9
 70
     1
102
RTVSPropertyOp10
 70
     1
102
RTVSPropertyOp11
 70
     1
102
RTVSPropertyOp12
 70
     1
102
RTVSPropertyOp13
 70
     1
102
RTVSPropertyOp14
 70
     1
102
RTVSPropertyOp15
 70
     1
102
RTVSPropertyOp16
 70
     1
102
RTVSPropertyOp17
 70
     1
102
RTVSPropertyOp18
 70
     1
102
RTVSPropertyOp19
 70
     1
102
RTVSPropertyOp20
 70
     1
102
RTVSPropertyOp21
 70
     1
102
RTVSPropertyOp22
 70
     1
102
RTVSPropertyOp23
 70
     1
102
RTVSPropertyOp24
 70
     1
102
RTVSPropertyOp25
 70
     1
102
RTVSPropertyOp26
 70
     1
102
RTVSPropertyOp27
 70
     1
  0
XRECORD
  5
710
102
{ACAD_REACTORS
330
70F
102
}
330
70F
100
AcDbXrecord
280
     1
102
RTVSPropertyOp0
 70
     1
102
RTVSPropertyOp1
 70
     1
102
RTVSPropertyOp2
 70
     1
102
RTVSPropertyOp3
 70
     1
102
RTVSPropertyOp4
 70
     1
102
RTVSPropertyOp5
 70
     1
102
RTVSPropertyOp6
 70
     1
102
RTVSPropertyOp7
 70
     1
102
RTVSPropertyOp8
 70
     1
102
RTVSPropertyOp9
 70
     1
102
RTVSPropertyOp10
 70
     1
102
RTVSPropertyOp11
 70
     1
102
RTVSPropertyOp12
 70
     1
102
RTVSPropertyOp13
 70
     1
102
RTVSPropertyOp14
 70
     1
102
RTVSPropertyOp15
 70
     1
102
RTVSPropertyOp16
 70
     1
102
RTVSPropertyOp17
 70
     1
102
RTVSPropertyOp18
 70
     1
102
RTVSPropertyOp19
 70
     1
102
RTVSPropertyOp20
 70
     1
102
RTVSPropertyOp21
 70
     1
102
RTVSPropertyOp22
 70
     1
102
RTVSPropertyOp23
 70
     1
102
RTVSPropertyOp24
 70
     1
102
RTVSPropertyOp25
 70
     1
102
RTVSPropertyOp26
 70
     1
102
RTVSPropertyOp27
 70
     1
  0
XRECORD
  5
706
102
{ACAD_REACTORS
330
705
102
}
330
705
100
AcDbXrecord
280
     1
102
RTVSPropertyOp0
 70
     1
102
RTVSPropertyOp1
 70
     1
102
RTVSPropertyOp2
 70
     1
102
RTVSPropertyOp3
 70
     1
102
RTVSPropertyOp4
 70
     1
102
RTVSPropertyOp5
 70
     1
102
RTVSPropertyOp6
 70
     1
102
RTVSPropertyOp7
 70
     1
102
RTVSPropertyOp8
 70
     1
102
RTVSPropertyOp9
 70
     1
102
RTVSPropertyOp10
 70
     1
102
RTVSPropertyOp11
 70
     1
102
RTVSPropertyOp12
 70
     1
102
RTVSPropertyOp13
 70
     1
102
RTVSPropertyOp14
 70
     1
102
RTVSPropertyOp15
 70
     1
102
RTVSPropertyOp16
 70
     1
102
RTVSPropertyOp17
 70
     1
102
RTVSPropertyOp18
 70
     1
102
RTVSPropertyOp19
 70
     1
102
RTVSPropertyOp20
 70
     1
102
RTVSPropertyOp21
 70
     1
102
RTVSPropertyOp22
 70
     1
102
RTVSPropertyOp23
 70
     1
102
RTVSPropertyOp24
 70
     1
102
RTVSPropertyOp25
 70
     1
102
RTVSPropertyOp26
 70
     1
102
RTVSPropertyOp27
 70
     1
  0
XRECORD
  5
70E
102
{ACAD_REACTORS
330
70D
102
}
330
70D
100
AcDbXrecord
280
     1
102
RTVSPropertyOp0
 70
     1
102
RTVSPropertyOp1
 70
     1
102
RTVSPropertyOp2
 70
     1
102
RTVSPropertyOp3
 70
     1
102
RTVSPropertyOp4
 70
     1
102
RTVSPropertyOp5
 70
     1
102
RTVSPropertyOp6
 70
     1
102
RTVSPropertyOp7
 70
     1
102
RTVSPropertyOp8
 70
     1
102
RTVSPropertyOp9
 70
     1
102
RTVSPropertyOp10
 70
     1
102
RTVSPropertyOp11
 70
     1
102
RTVSPropertyOp12
 70
     1
102
RTVSPropertyOp13
 70
     1
102
RTVSPropertyOp14
 70
     1
102
RTVSPropertyOp15
 70
     1
102
RTVSPropertyOp16
 70
     1
102
RTVSPropertyOp17
 70
     1
102
RTVSPropertyOp18
 70
     1
102
RTVSPropertyOp19
 70
     1
102
RTVSPropertyOp20
 70
     1
102
RTVSPropertyOp21
 70
     1
102
RTVSPropertyOp22
 70
     1
102
RTVSPropertyOp23
 70
     1
102
RTVSPropertyOp24
 70
     1
102
RTVSPropertyOp25
 70
     1
102
RTVSPropertyOp26
 70
     1
102
RTVSPropertyOp27
 70
     1
  0
ENDSEC
  0
EOF
