  0
SECTION
  2
HEADER
  9
$ACADVER
  1
AC1015
  9
$ACADMAINTVER
 70
     6
  9
$DWGCODEPAGE
  3
ANSI_1252
  9
$INSBASE
 10
0.0
 20
0.0
 30
0.0
  9
$EXTMIN
 10
0.0
 20
0.0
 30
0.0
  9
$EXTMAX
 10
25.0
 20
35.0
 30
0.0
  9
$LIMMIN
 10
0.0
 20
0.0
  9
$LIMMAX
 10
420.0
 20
297.0
  9
$ORTHOMODE
 70
     0
  9
$REGENMODE
 70
     1
  9
$FILLMODE
 70
     1
  9
$QTEXTMODE
 70
     0
  9
$MIRRTEXT
 70
     1
  9
$LTSCALE
 40
4.25
  9
$ATTMODE
 70
     1
  9
$TEXTSIZE
 40
2.5
  9
$TRACEWID
 40
1.0
  9
$TEXTSTYLE
  7
Standard
  9
$CLAYER
  8
0
  9
$CELTYPE
  6
ByLayer
  9
$CECOLOR
 62
   256
  9
$CELTSCALE
 40
1.0
  9
$DISPSILH
 70
     0
  9
$DIMSCALE
 40
1.0
  9
$DIMASZ
 40
2.5
  9
$DIMEXO
 40
0.625
  9
$DIMDLI
 40
3.75
  9
$DIMRND
 40
0.0
  9
$DIMDLE
 40
0.0
  9
$DIMEXE
 40
1.25
  9
$DIMTP
 40
0.0
  9
$DIMTM
 40
0.0
  9
$DIMTXT
 40
2.5
  9
$DIMCEN
 40
2.5
  9
$DIMTSZ
 40
0.0
  9
$DIMTOL
 70
     0
  9
$DIMLIM
 70
     0
  9
$DIMTIH
 70
     0
  9
$DIMTOH
 70
     0
  9
$DIMSE1
 70
     0
  9
$DIMSE2
 70
     0
  9
$DIMTAD
 70
     1
  9
$DIMZIN
 70
     8
  9
$DIMBLK
  1

  9
$DIMASO
 70
     1
  9
$DIMSHO
 70
     1
  9
$DIMPOST
  1

  9
$DIMAPOST
  1

  9
$DIMALT
 70
     0
  9
$DIMALTD
 70
     3
  9
$DIMALTF
 40
0.03937007874016
  9
$DIMLFAC
 40
1.0
  9
$DIMTOFL
 70
     1
  9
$DIMTVP
 40
0.0
  9
$DIMTIX
 70
     0
  9
$DIMSOXD
 70
     0
  9
$DIMSAH
 70
     0
  9
$DIMBLK1
  1

  9
$DIMBLK2
  1

  9
$DIMSTYLE
  2
ISO-25
  9
$DIMCLRD
 70
     0
  9
$DIMCLRE
 70
     0
  9
$DIMCLRT
 70
     0
  9
$DIMTFAC
 40
1.0
  9
$DIMGAP
 40
0.625
  9
$DIMJUST
 70
     0
  9
$DIMSD1
 70
     0
  9
$DIMSD2
 70
     0
  9
$DIMTOLJ
 70
     0
  9
$DIMTZIN
 70
     8
  9
$DIMALTZ
 70
     0
  9
$DIMALTTZ
 70
     0
  9
$DIMUPT
 70
     0
  9
$DIMDEC
 70
     2
  9
$DIMTDEC
 70
     2
  9
$DIMALTU
 70
     2
  9
$DIMALTTD
 70
     3
  9
$DIMTXSTY
  7
Standard
  9
$DIMAUNIT
 70
     0
  9
$DIMADEC
 70
     0
  9
$DIMALTRND
 40
0.0
  9
$DIMAZIN
 70
     0
  9
$DIMDSEP
 70
    44
  9
$DIMATFIT
 70
     3
  9
$DIMFRAC
 70
     0
  9
$DIMLDRBLK
  1

  9
$DIMLUNIT
 70
     2
  9
$DIMLWD
 70
    -2
  9
$DIMLWE
 70
    -2
  9
$DIMTMOVE
 70
     0
  9
$LUNITS
 70
     2
  9
$LUPREC
 70
     4
  9
$SKETCHINC
 40
1.0
  9
$FILLETRAD
 40
10.0
  9
$AUNITS
 70
     0
  9
$AUPREC
 70
     0
  9
$MENU
  1
.
  9
$ELEVATION
 40
0.0
  9
$PELEVATION
 40
0.0
  9
$THICKNESS
 40
0.0
  9
$LIMCHECK
 70
     0
  9
$CHAMFERA
 40
10.0
  9
$CHAMFERB
 40
10.0
  9
$CHAMFERC
 40
20.0
  9
$CHAMFERD
 40
0.0
  9
$SKPOLY
 70
     0
  9
$TDCREATE
 40
2458577.863888889
  9
$TDUCREATE
 40
2458577.780555556
  9
$TDUPDATE
 40
2458577.867361111
  9
$TDUUPDATE
 40
2458577.784027778
  9
$TDINDWG
 40
0.0000000116
  9
$TDUSRTIMER
 40
0.0000000116
  9
$USRTIMER
 70
     1
  9
$ANGBASE
 50
0.0
  9
$ANGDIR
 70
     0
  9
$PDMODE
 70
     0
  9
$PDSIZE
 40
0.0
  9
$PLINEWID
 40
0.0
  9
$SPLFRAME
 70
     0
  9
$SPLINETYPE
 70
     6
  9
$SPLINESEGS
 70
     8
  9
$HANDSEED
  5
77B
  9
$SURFTAB1
 70
     6
  9
$SURFTAB2
 70
     6
  9
$SURFTYPE
 70
     6
  9
$SURFU
 70
     6
  9
$SURFV
 70
     6
  9
$UCSBASE
  2

  9
$UCSNAME
  2

  9
$UCSORG
 10
0.0
 20
0.0
 30
0.0
  9
$UCSXDIR
 10
1.0
 20
0.0
 30
0.0
  9
$UCSYDIR
 10
0.0
 20
1.0
 30
0.0
  9
$UCSORTHOREF
  2

  9
$UCSORTHOVIEW
 70
     0
  9
$UCSORGTOP
 10
0.0
 20
0.0
 30
0.0
  9
$UCSORGBOTTOM
 10
0.0
 20
0.0
 30
0.0
  9
$UCSORGLEFT
 10
0.0
 20
0.0
 30
0.0
  9
$UCSORGRIGHT
 10
0.0
 20
0.0
 30
0.0
  9
$UCSORGFRONT
 10
0.0
 20
0.0
 30
0.0
  9
$UCSORGBACK
 10
0.0
 20
0.0
 30
0.0
  9
$PUCSBASE
  2

  9
$PUCSNAME
  2

  9
$PUCSORG
 10
0.0
 20
0.0
 30
0.0
  9
$PUCSXDIR
 10
1.0
 20
0.0
 30
0.0
  9
$PUCSYDIR
 10
0.0
 20
1.0
 30
0.0
  9
$PUCSORTHOREF
  2

  9
$PUCSORTHOVIEW
 70
     0
  9
$PUCSORGTOP
 10
0.0
 20
0.0
 30
0.0
  9
$PUCSORGBOTTOM
 10
0.0
 20
0.0
 30
0.0
  9
$PUCSORGLEFT
 10
0.0
 20
0.0
 30
0.0
  9
$PUCSORGRIGHT
 10
0.0
 20
0.0
 30
0.0
  9
$PUCSORGFRONT
 10
0.0
 20
0.0
 30
0.0
  9
$PUCSORGBACK
 10
0.0
 20
0.0
 30
0.0
  9
$USERI1
 70
     0
  9
$USERI2
 70
     0
  9
$USERI3
 70
     0
  9
$USERI4
 70
     0
  9
$USERI5
 70
     0
  9
$USERR1
 40
0.0
  9
$USERR2
 40
0.0
  9
$USERR3
 40
0.0
  9
$USERR4
 40
0.0
  9
$USERR5
 40
0.0
  9
$WORLDVIEW
 70
     1
  9
$SHADEDGE
 70
     3
  9
$SHADEDIF
 70
    70
  9
$TILEMODE
 70
     1
  9
$MAXACTVP
 70
    64
  9
$PINSBASE
 10
0.0
 20
0.0
 30
0.0
  9
$PLIMCHECK
 70
     0
  9
$PEXTMIN
 10
1.000000000000000E+20
 20
1.000000000000000E+20
 30
1.000000000000000E+20
  9
$PEXTMAX
 10
-1.000000000000000E+20
 20
-1.000000000000000E+20
 30
-1.000000000000000E+20
  9
$PLIMMIN
 10
0.0
 20
0.0
  9
$PLIMMAX
 10
420.0
 20
297.0
  9
$UNITMODE
 70
     0
  9
$VISRETAIN
 70
     1
  9
$PLINEGEN
 70
     0
  9
$PSLTSCALE
 70
     1
  9
$TREEDEPTH
 70
  3020
  9
$CMLSTYLE
  2
Standard
  9
$CMLJUST
 70
     0
  9
$CMLSCALE
 40
20.0
  9
$PROXYGRAPHICS
 70
     1
  9
$MEASUREMENT
 70
     1
  9
$CELWEIGHT
370
    -1
  9
$ENDCAPS
280
     0
  9
$JOINSTYLE
280
     0
  9
$LWDISPLAY
290
     0
  9
$INSUNITS
 70
     4
  9
$HYPERLINKBASE
  1

  9
$STYLESHEET
  1

  9
$XEDIT
290
     1
  9
$CEPSNTYPE
380
     0
  9
$PSTYLEMODE
290
     1
  9
$FINGERPRINTGUID
  2
{BE35CB61-BDFF-4804-9040-D69253B2D81B}
  9
$VERSIONGUID
  2
{FAEB1C32-E019-11D5-929B-00C0DF256EC4}
  9
$EXTNAMES
290
     1
  9
$PSVPSCALE
 40
0.0
  9
$OLESTARTUP
290
     0
  0
ENDSEC
  0
SECTION
  2
CLASSES
  0
CLASS
  1
ACDBDICTIONARYWDFLT
  2
AcDbDictionaryWithDefault
  3
ObjectDBX Classes
 90
        0
280
     0
281
     0
  0
CLASS
  1
VISUALSTYLE
  2
AcDbVisualStyle
  3
ObjectDBX Classes
 90
     4095
280
     0
281
     0
  0
CLASS
  1
MATERIAL
  2
AcDbMaterial
  3
ObjectDBX Classes
 90
     1153
280
     0
281
     0
  0
CLASS
  1
SCALE
  2
AcDbScale
  3
ObjectDBX Classes
 90
     1153
280
     0
281
     0
  0
CLASS
  1
DICTIONARYVAR
  2
AcDbDictionaryVar
  3
ObjectDBX Classes
 90
        0
280
     0
281
     0
  0
CLASS
  1
ACDBPLACEHOLDER
  2
AcDbPlaceHolder
  3
ObjectDBX Classes
 90
        0
280
     0
281
     0
  0
CLASS
  1
LAYOUT
  2
AcDbLayout
  3
ObjectDBX Classes
 90
        0
280
     0
281
     0
  0
ENDSEC
  0
SECTION
  2
TABLES
  0
TABLE
  2
VPORT
  5
8
330
0
100
AcDbSymbolTable
 70
     1
  0
VPORT
  5
29
330
8
100
AcDbSymbolTableRecord
100
AcDbViewportTableRecord
  2
*Active
 70
     0
 10
0.0
 20
0.0
 11
1.0
 21
1.0
 12
11.26
 22
4.5
 13
0.0
 23
0.0
 14
10.0
 24
10.0
 15
10.0
 25
10.0
 16
0.0
 26
0.0
 36
1.0
 17
0.0
 27
0.0
 37
0.0
 40
9.0
 41
2.503333333333333
 42
50.0
 43
0.0
 44
0.0
 50
0.0
 51
0.0
 71
     0
 72
   100
 73
     1
 74
     3
 75
     0
 76
     0
 77
     0
 78
     0
281
     0
 65
     1
110
0.0
120
0.0
130
0.0
111
1.0
121
0.0
131
0.0
112
0.0
122
1.0
132
0.0
 79
     0
146
0.0
  0
ENDTAB
  0
TABLE
  2
LTYPE
  5
5
330
0
100
AcDbSymbolTable
 70
    10
  0
LTYPE
  5
14
330
5
100
AcDbSymbolTableRecord
100
AcDbLinetypeTableRecord
  2
ByBlock
 70
     0
  3

 72
    65
 73
     0
 40
0.0
  0
LTYPE
  5
15
330
5
100
AcDbSymbolTableRecord
100
AcDbLinetypeTableRecord
  2
ByLayer
 70
     0
  3

 72
    65
 73
     0
 40
0.0
  0
LTYPE
  5
16
330
5
100
AcDbSymbolTableRecord
100
AcDbLinetypeTableRecord
  2
Continuous
 70
     0
  3
Solid line
 72
    65
 73
     0
 40
0.0
  0
LTYPE
  5
45
330
5
100
AcDbSymbolTableRecord
100
AcDbLinetypeTableRecord
  2
phl_thick
 70
     0
  3
THICK
 72
    65
 73
     0
 40
0.0
  0
LTYPE
  5
125
330
5
100
AcDbSymbolTableRecord
100
AcDbLinetypeTableRecord
  2
CUT
 70
     0
  3
THICK
 72
    65
 73
     0
 40
0.0
  0
LTYPE
  5
12B
330
5
100
AcDbSymbolTableRecord
100
AcDbLinetypeTableRecord
  2
NOCUT
 70
     0
  3
THICK
 72
    65
 73
     0
 40
0.0
  0
LTYPE
  5
132
330
5
100
AcDbSymbolTableRecord
100
AcDbLinetypeTableRecord
  2
SK1
 70
     0
  3
THICK
 72
    65
 73
     0
 40
0.0
  0
LTYPE
  5
13A
330
5
100
AcDbSymbolTableRecord
100
AcDbLinetypeTableRecord
  2
ls_SK2
 70
     0
  3
THIN
 72
    65
 73
     0
 40
0.0
  0
LTYPE
  5
1E8
330
5
100
AcDbSymbolTableRecord
100
AcDbLinetypeTableRecord
  2
ls_2
 70
     0
  3
THIN
 72
    65
 73
     0
 40
0.0
  0
LTYPE
  5
399
330
5
100
AcDbSymbolTableRecord
100
AcDbLinetypeTableRecord
  2
ls_SK1
 70
     0
  3
THICK
 72
    65
 73
     0
 40
0.0
  0
LTYPE
  5
3D3
330
5
100
AcDbSymbolTableRecord
100
AcDbLinetypeTableRecord
  2
LONGDASH_DASH
 70
     0
  3
THIN_DASHDOT
 72
    65
 73
     4
 40
0.85
 49
0.4
 74
     0
 49
-0.2
 74
     0
 49
0.05
 74
     0
 49
-0.2
 74
     0
  0
LTYPE
  5
3D8
330
5
100
AcDbSymbolTableRecord
100
AcDbLinetypeTableRecord
  2
ls1
 70
     0
  3
THICK
 72
    65
 73
     0
 40
0.0
  0
ENDTAB
  0
TABLE
  2
LAYER
  5
2
330
0
100
AcDbSymbolTable
 70
    10
  0
LAYER
  5
10
330
2
100
AcDbSymbolTableRecord
100
AcDbLayerTableRecord
  2
0
 70
     0
 62
     7
  6
Continuous
370
    -3
390
F
  0
LAYER
  5
44
330
2
100
AcDbSymbolTableRecord
100
AcDbLayerTableRecord
  2
1
 70
     0
 62
4
  6
CONTINUOUS
370
50
370
    -3
390
F
  0
LAYER
  5
124
330
2
100
AcDbSymbolTableRecord
100
AcDbLayerTableRecord
  2
CUT
 70
     0
 62
1
  6
CONTINUOUS
370
25
370
    -3
390
F
  0
LAYER
  5
12A
330
2
100
AcDbSymbolTableRecord
100
AcDbLayerTableRecord
  2
NOCUT
 70
     0
 62
7
  6
CONTINUOUS
370
25
370
    -3
390
F
  0
LAYER
  5
131
330
2
100
AcDbSymbolTableRecord
100
AcDbLayerTableRecord
  2
SK1
 70
     0
 62
4
  6
CONTINUOUS
370
50
370
    -3
390
F
  0
LAYER
  5
139
330
2
100
AcDbSymbolTableRecord
100
AcDbLayerTableRecord
  2
SK2
 70
     0
 62
7
  6
CONTINUOUS
370
25
370
    -3
390
F
  0
LAYER
  5
1E7
330
2
100
AcDbSymbolTableRecord
100
AcDbLayerTableRecord
  2
2
 70
     0
 62
7
  6
CONTINUOUS
370
25
370
    -3
390
F
  0
LAYER
  5
3D2
330
2
100
AcDbSymbolTableRecord
100
AcDbLayerTableRecord
  2
4
 70
     0
 62
2
  6
LONGDASH_DASH
370
25
370
    -3
390
F
  0
LAYER
  5
3D5
330
2
100
AcDbSymbolTableRecord
100
AcDbLayerTableRecord
  2
SK4
 70
     0
 62
2
  6
LONGDASH_DASH
370
25
370
    -3
390
F
  0
LAYER
  5
3D7
330
2
100
AcDbSymbolTableRecord
100
AcDbLayerTableRecord
  2
SK6
 70
     0
 62
5
  6
CONTINUOUS
370
25
370
    -3
390
F
  0
ENDTAB
  0
TABLE
  2
STYLE
  5
3
330
0
100
AcDbSymbolTable
 70
     1
  0
STYLE
  5
11
330
3
100
AcDbSymbolTableRecord
100
AcDbTextStyleTableRecord
  2
Standard
 70
     0
 40
0.0
 41
1.0
 50
0.0
 71
     0
 42
2.5
  3
Monospac821 BT
  4

  0
ENDTAB
  0
TABLE
  2
VIEW
  5
6
330
0
100
AcDbSymbolTable
 70
     0
  0
ENDTAB
  0
TABLE
  2
UCS
  5
7
330
0
100
AcDbSymbolTable
 70
     0
  0
ENDTAB
  0
TABLE
  2
APPID
  5
9
330
0
100
AcDbSymbolTable
 70
     2
  0
APPID
  5
12
330
9
100
AcDbSymbolTableRecord
100
AcDbRegAppTableRecord
  2
ACAD
 70
     0
  0
APPID
  5
3F
330
9
100
AcDbSymbolTableRecord
100
AcDbRegAppTableRecord
  2
ccLab
 70
     0
  0
ENDTAB
  0
TABLE
  2
DIMSTYLE
  5
A
330
0
100
AcDbSymbolTable
 70
     1
100
AcDbDimStyleTable
  0
DIMSTYLE
105
27
330
A
100
AcDbSymbolTableRecord
100
AcDbDimStyleTableRecord
  2
ISO-25
 70
     0
 41
2.5
 42
0.625
 43
3.75
 44
1.25
 73
     0
 74
     0
 77
     1
 78
     8
140
2.5
141
2.5
143
0.03937007874016
147
0.625
171
     3
172
     1
271
     2
272
     2
274
     3
278
    44
283
     0
284
     8
340
11
  0
ENDTAB
  0
TABLE
  2
BLOCK_RECORD
  5
1
330
0
100
AcDbSymbolTable
 70
     2
  0
BLOCK_RECORD
  5
1F
330
1
100
AcDbSymbolTableRecord
100
AcDbBlockTableRecord
  2
*Model_Space
340
22
  0
BLOCK_RECORD
  5
1B
330
1
100
AcDbSymbolTableRecord
100
AcDbBlockTableRecord
  2
*Paper_Space
340
1E
  0
BLOCK_RECORD
  5
23
330
1
100
AcDbSymbolTableRecord
100
AcDbBlockTableRecord
  2
*Paper_Space0
340
26
  0
ENDTAB
  0
ENDSEC
  0
SECTION
  2
BLOCKS
  0
BLOCK
  5
20
330
1F
100
AcDbEntity
  8
0
100
AcDbBlockBegin
  2
*Model_Space
 70
     0
 10
0.0
 20
0.0
 30
0.0
  3
*Model_Space
  1

  0
ENDBLK
  5
21
330
1F
100
AcDbEntity
  8
0
100
AcDbBlockEnd
  0
BLOCK
  5
1C
330
1B
100
AcDbEntity
 67
     1
  8
0
100
AcDbBlockBegin
  2
*Paper_Space
 70
     0
 10
0.0
 20
0.0
 30
0.0
  3
*Paper_Space
  1

  0
ENDBLK
  5
1D
330
1B
100
AcDbEntity
 67
     1
  8
0
100
AcDbBlockEnd
  0
BLOCK
  5
24
330
23
100
AcDbEntity
  8
0
100
AcDbBlockBegin
  2
*Paper_Space0
 70
     0
 10
0.0
 20
0.0
 30
0.0
  3
*Paper_Space0
  1

  0
ENDBLK
  5
25
330
23
100
AcDbEntity
  8
0
100
AcDbBlockEnd
  0
ENDSEC
  0
SECTION
  2
ENTITIES
  0
LINE
  5
3E2
330
1F
100
AcDbEntity
  8
1
  6
CONTINUOUS
370
50
 62
4
100
AcDbLine
 10
58.47522
 20
-0.189296
 30
0.0
 11
58.47507899999999
 21
-0.182839
 31
0.0
  0
LINE
  5
3E3
330
1F
100
AcDbEntity
  8
1
  6
CONTINUOUS
370
50
 62
4
100
AcDbLine
 10
58.285698
 20
0.275045
 30
0.0
 11
58.28552999999999
 21
0.27739
 31
0.0
  0
LINE
  5
3E4
330
1F
100
AcDbEntity
  8
1
  6
CONTINUOUS
370
50
 62
4
100
AcDbLine
 10
58.55398899999999
 20
-0.346573
 30
0.0
 11
58.553162
 21
-0.339059
 31
0.0
  0
LINE
  5
3E5
330
1F
100
AcDbEntity
  8
1
  6
CONTINUOUS
370
50
 62
4
100
AcDbLine
 10
58.47593699999999
 20
-0.195644
 30
0.0
 11
58.47522
 21
-0.189296
 31
0.0
  0
LINE
  5
3E6
330
1F
100
AcDbEntity
  8
1
  6
CONTINUOUS
370
50
 62
4
100
AcDbLine
 10
58.286083
 20
0.272599
 30
0.0
 11
58.285698
 21
0.275045
 31
0.0
  0
LINE
  5
3E7
330
1F
100
AcDbEntity
  8
1
  6
CONTINUOUS
370
50
 62
4
100
AcDbLine
 10
58.553162
 20
-0.339059
 30
0.0
 11
58.551472
 21
-0.330577
 31
0.0
  0
LINE
  5
3E8
330
1F
100
AcDbEntity
  8
1
  6
CONTINUOUS
370
50
 62
4
100
AcDbLine
 10
58.477261
 20
-0.201864
 30
0.0
 11
58.47593699999999
 21
-0.195644
 31
0.0
  0
LINE
  5
3E9
330
1F
100
AcDbEntity
  8
1
  6
CONTINUOUS
370
50
 62
4
100
AcDbLine
 10
58.28669
 20
0.270053
 30
0.0
 11
58.286083
 21
0.272599
 31
0.0
  0
LINE
  5
3EA
330
1F
100
AcDbEntity
  8
1
  6
CONTINUOUS
370
50
 62
4
100
AcDbLine
 10
58.551472
 20
-0.330577
 30
0.0
 11
58.548992
 21
-0.321173
 31
0.0
  0
LINE
  5
3EB
330
1F
100
AcDbEntity
  8
1
  6
CONTINUOUS
370
50
 62
4
100
AcDbLine
 10
58.548992
 20
-0.321173
 30
0.0
 11
58.54578
 21
-0.31089
 31
0.0
  0
LINE
  5
3EC
330
1F
100
AcDbEntity
  8
1
  6
CONTINUOUS
370
50
 62
4
100
AcDbLine
 10
58.287525
 20
0.267407
 30
0.0
 11
58.28669
 21
0.270053
 31
0.0
  0
LINE
  5
3ED
330
1F
100
AcDbEntity
  8
1
  6
CONTINUOUS
370
50
 62
4
100
AcDbLine
 10
58.479206
 20
-0.207899
 30
0.0
 11
58.477261
 21
-0.201864
 31
0.0
  0
LINE
  5
3EE
330
1F
100
AcDbEntity
  8
1
  6
CONTINUOUS
370
50
 62
4
100
AcDbLine
 10
58.54578
 20
-0.31089
 30
0.0
 11
58.541908
 21
-0.299771
 31
0.0
  0
LINE
  5
3EF
330
1F
100
AcDbEntity
  8
1
  6
CONTINUOUS
370
50
 62
4
100
AcDbLine
 10
58.541908
 20
-0.299771
 30
0.0
 11
58.537426
 21
-0.287878
 31
0.0
  0
LINE
  5
3F0
330
1F
100
AcDbEntity
  8
1
  6
CONTINUOUS
370
50
 62
4
100
AcDbLine
 10
58.288597
 20
0.26466
 30
0.0
 11
58.287525
 21
0.267407
 31
0.0
  0
LINE
  5
3F1
330
1F
100
AcDbEntity
  8
1
  6
CONTINUOUS
370
50
 62
4
100
AcDbLine
 10
58.537426
 20
-0.287878
 30
0.0
 11
58.532379
 21
-0.27527
 31
0.0
  0
LINE
  5
3F2
330
1F
100
AcDbEntity
  8
1
  6
CONTINUOUS
370
50
 62
4
100
AcDbLine
 10
58.532379
 20
-0.27527
 30
0.0
 11
58.526798
 21
-0.261999
 31
0.0
  0
LINE
  5
3F3
330
1F
100
AcDbEntity
  8
1
  6
CONTINUOUS
370
50
 62
4
100
AcDbLine
 10
58.526798
 20
-0.261999
 30
0.0
 11
58.520718
 21
-0.24812
 31
0.0
  0
LINE
  5
3F4
330
1F
100
AcDbEntity
  8
1
  6
CONTINUOUS
370
50
 62
4
100
AcDbLine
 10
58.48175
 20
-0.21365
 30
0.0
 11
58.479206
 21
-0.207899
 31
0.0
  0
LINE
  5
3F5
330
1F
100
AcDbEntity
  8
1
  6
CONTINUOUS
370
50
 62
4
100
AcDbLine
 10
58.289928
 20
0.261769
 30
0.0
 11
58.288597
 21
0.26466
 31
0.0
  0
LINE
  5
3F6
330
1F
100
AcDbEntity
  8
1
  6
CONTINUOUS
370
50
 62
4
100
AcDbLine
 10
58.29156099999999
 20
0.25869
 30
0.0
 11
58.289928
 21
0.261769
 31
0.0
  0
LINE
  5
3F7
330
1F
100
AcDbEntity
  8
1
  6
CONTINUOUS
370
50
 62
4
100
AcDbLine
 10
58.48489
 20
-0.21911
 30
0.0
 11
58.48175
 21
-0.21365
 31
0.0
  0
LINE
  5
3F8
330
1F
100
AcDbEntity
  8
1
  6
CONTINUOUS
370
50
 62
4
100
AcDbLine
 10
58.293522
 20
0.255419
 30
0.0
 11
58.29156099999999
 21
0.25869
 31
0.0
  0
LINE
  5
3F9
330
1F
100
AcDbEntity
  8
1
  6
CONTINUOUS
370
50
 62
4
100
AcDbLine
 10
58.295834
 20
0.251954
 30
0.0
 11
58.293522
 21
0.255419
 31
0.0
  0
LINE
  5
3FA
330
1F
100
AcDbEntity
  8
1
  6
CONTINUOUS
370
50
 62
4
100
AcDbLine
 10
58.488609
 20
-0.224276
 30
0.0
 11
58.48489
 21
-0.21911
 31
0.0
  0
LINE
  5
3FB
330
1F
100
AcDbEntity
  8
1
  6
CONTINUOUS
370
50
 62
4
100
AcDbLine
 10
58.297756
 20
0.2493
 30
0.0
 11
58.295834
 21
0.251954
 31
0.0
  0
LINE
  5
3FC
330
1F
100
AcDbEntity
  8
1
  6
CONTINUOUS
370
50
 62
4
100
AcDbLine
 10
58.561966
 20
0.347671
 30
0.0
 11
58.550652
 21
0.362857
 31
0.0
  0
LINE
  5
3FD
330
1F
100
AcDbEntity
  8
1
  6
CONTINUOUS
370
50
 62
4
100
AcDbLine
 10
58.299885
 20
0.24654
 30
0.0
 11
58.297756
 21
0.2493
 31
0.0
  0
LINE
  5
3FE
330
1F
100
AcDbEntity
  8
1
  6
CONTINUOUS
370
50
 62
4
100
AcDbLine
 10
58.302238
 20
0.243672
 30
0.0
 11
58.299885
 21
0.24654
 31
0.0
  0
LINE
  5
3FF
330
1F
100
AcDbEntity
  8
1
  6
CONTINUOUS
370
50
 62
4
100
AcDbLine
 10
58.550667
 20
0.362835
 30
0.0
 11
58.548775
 21
0.365039
 31
0.0
  0
LINE
  5
400
330
1F
100
AcDbEntity
  8
1
  6
CONTINUOUS
370
50
 62
4
100
AcDbLine
 10
58.575306
 20
0.332198
 30
0.0
 11
58.561966
 21
0.347671
 31
0.0
  0
LINE
  5
401
330
1F
100
AcDbEntity
  8
1
  6
CONTINUOUS
370
50
 62
4
100
AcDbLine
 10
58.304817
 20
0.240695
 30
0.0
 11
58.302238
 21
0.243672
 31
0.0
  0
LINE
  5
402
330
1F
100
AcDbEntity
  8
1
  6
CONTINUOUS
370
50
 62
4
100
AcDbLine
 10
58.492901
 20
-0.229145
 30
0.0
 11
58.488609
 21
-0.224276
 31
0.0
  0
LINE
  5
403
330
1F
100
AcDbEntity
  8
1
  6
CONTINUOUS
370
50
 62
4
100
AcDbLine
 10
58.30764
 20
0.237607
 30
0.0
 11
58.304817
 21
0.240695
 31
0.0
  0
LINE
  5
404
330
1F
100
AcDbEntity
  8
1
  6
CONTINUOUS
370
50
 62
4
100
AcDbLine
 10
58.310707
 20
0.234408
 30
0.0
 11
58.30764
 21
0.237607
 31
0.0
  0
LINE
  5
405
330
1F
100
AcDbEntity
  8
1
  6
CONTINUOUS
370
50
 62
4
100
AcDbLine
 10
58.589603
 20
0.317938
 30
0.0
 11
58.575306
 21
0.332198
 31
0.0
  0
LINE
  5
406
330
1F
100
AcDbEntity
  8
1
  6
CONTINUOUS
370
50
 62
4
100
AcDbLine
 10
58.497684
 20
-0.233651
 30
0.0
 11
58.492901
 21
-0.229145
 31
0.0
  0
LINE
  5
407
330
1F
100
AcDbEntity
  8
1
  6
CONTINUOUS
370
50
 62
4
100
AcDbLine
 10
58.32755299999999
 20
0.219
 30
0.0
 11
58.310707
 21
0.234408
 31
0.0
  0
LINE
  5
408
330
1F
100
AcDbEntity
  8
1
  6
CONTINUOUS
370
50
 62
4
100
AcDbLine
 10
58.600212
 20
0.308651
 30
0.0
 11
58.589603
 21
0.317938
 31
0.0
  0
LINE
  5
409
330
1F
100
AcDbEntity
  8
1
  6
CONTINUOUS
370
50
 62
4
100
AcDbLine
 10
58.345226
 20
0.203596
 30
0.0
 11
58.32755299999999
 21
0.219
 31
0.0
  0
LINE
  5
40A
330
1F
100
AcDbEntity
  8
1
  6
CONTINUOUS
370
50
 62
4
100
AcDbLine
 10
58.363712
 20
0.188368
 30
0.0
 11
58.345226
 21
0.203596
 31
0.0
  0
LINE
  5
40B
330
1F
100
AcDbEntity
  8
1
  6
CONTINUOUS
370
50
 62
4
100
AcDbLine
 10
58.502895
 20
-0.237785
 30
0.0
 11
58.497684
 21
-0.233651
 31
0.0
  0
LINE
  5
40C
330
1F
100
AcDbEntity
  8
1
  6
CONTINUOUS
370
50
 62
4
100
AcDbLine
 10
58.382988
 20
0.173478
 30
0.0
 11
58.363712
 21
0.188368
 31
0.0
  0
LINE
  5
40D
330
1F
100
AcDbEntity
  8
1
  6
CONTINUOUS
370
50
 62
4
100
AcDbLine
 10
58.548775
 20
0.365039
 30
0.0
 11
58.54644
 21
0.366834
 31
0.0
  0
LINE
  5
40E
330
1F
100
AcDbEntity
  8
1
  6
CONTINUOUS
370
50
 62
4
100
AcDbLine
 10
58.620869
 20
0.293232
 30
0.0
 11
58.600212
 21
0.308651
 31
0.0
  0
LINE
  5
40F
330
1F
100
AcDbEntity
  8
1
  6
CONTINUOUS
370
50
 62
4
100
AcDbLine
 10
58.403057
 20
0.159028
 30
0.0
 11
58.382988
 21
0.173478
 31
0.0
  0
LINE
  5
410
330
1F
100
AcDbEntity
  8
1
  6
CONTINUOUS
370
50
 62
4
100
AcDbLine
 10
58.508495
 20
-0.241562
 30
0.0
 11
58.502895
 21
-0.237785
 31
0.0
  0
LINE
  5
411
330
1F
100
AcDbEntity
  8
1
  6
CONTINUOUS
370
50
 62
4
100
AcDbLine
 10
58.423832
 20
0.145159
 30
0.0
 11
58.403057
 21
0.159028
 31
0.0
  0
LINE
  5
412
330
1F
100
AcDbEntity
  8
1
  6
CONTINUOUS
370
50
 62
4
100
AcDbLine
 10
58.44530899999999
 20
0.131927
 30
0.0
 11
58.423832
 21
0.145159
 31
0.0
  0
LINE
  5
413
330
1F
100
AcDbEntity
  8
1
  6
CONTINUOUS
370
50
 62
4
100
AcDbLine
 10
58.637623
 20
0.282956
 30
0.0
 11
58.620869
 21
0.293232
 31
0.0
  0
LINE
  5
414
330
1F
100
AcDbEntity
  8
1
  6
CONTINUOUS
370
50
 62
4
100
AcDbLine
 10
58.514446
 20
-0.245002
 30
0.0
 11
58.508495
 21
-0.241562
 31
0.0
  0
LINE
  5
415
330
1F
100
AcDbEntity
  8
1
  6
CONTINUOUS
370
50
 62
4
100
AcDbLine
 10
58.467392
 20
0.119432
 30
0.0
 11
58.44530899999999
 21
0.131927
 31
0.0
  0
LINE
  5
416
330
1F
100
AcDbEntity
  8
1
  6
CONTINUOUS
370
50
 62
4
100
AcDbLine
 10
58.490025
 20
0.107719
 30
0.0
 11
58.467392
 21
0.119432
 31
0.0
  0
LINE
  5
417
330
1F
100
AcDbEntity
  8
1
  6
CONTINUOUS
370
50
 62
4
100
AcDbLine
 10
58.654877
 20
0.274207
 30
0.0
 11
58.637623
 21
0.282956
 31
0.0
  0
LINE
  5
418
330
1F
100
AcDbEntity
  8
1
  6
CONTINUOUS
370
50
 62
4
100
AcDbLine
 10
58.520718
 20
-0.24812
 30
0.0
 11
58.514446
 21
-0.245002
 31
0.0
  0
LINE
  5
419
330
1F
100
AcDbEntity
  8
1
  6
CONTINUOUS
370
50
 62
4
100
AcDbLine
 10
58.54644
 20
0.366834
 30
0.0
 11
58.54365199999999
 21
0.36822
 31
0.0
  0
LINE
  5
41A
330
1F
100
AcDbEntity
  8
1
  6
CONTINUOUS
370
50
 62
4
100
AcDbLine
 10
58.51317599999999
 20
0.096815
 30
0.0
 11
58.490025
 21
0.107719
 31
0.0
  0
LINE
  5
41B
330
1F
100
AcDbEntity
  8
1
  6
CONTINUOUS
370
50
 62
4
100
AcDbLine
 10
58.536812
 20
0.086744
 30
0.0
 11
58.51317599999999
 21
0.096815
 31
0.0
  0
LINE
  5
41C
330
1F
100
AcDbEntity
  8
1
  6
CONTINUOUS
370
50
 62
4
100
AcDbLine
 10
58.672661
 20
0.266957
 30
0.0
 11
58.654877
 21
0.274207
 31
0.0
  0
LINE
  5
41D
330
1F
100
AcDbEntity
  8
1
  6
CONTINUOUS
370
50
 62
4
100
AcDbLine
 10
58.54916799999999
 20
0.082512
 30
0.0
 11
58.536812
 21
0.086744
 31
0.0
  0
LINE
  5
41E
330
1F
100
AcDbEntity
  8
1
  6
CONTINUOUS
370
50
 62
4
100
AcDbLine
 10
58.690701
 20
0.261303
 30
0.0
 11
58.672661
 21
0.266957
 31
0.0
  0
LINE
  5
41F
330
1F
100
AcDbEntity
  8
1
  6
CONTINUOUS
370
50
 62
4
100
AcDbLine
 10
58.54365199999999
 20
0.36822
 30
0.0
 11
58.54042399999999
 21
0.369193
 31
0.0
  0
LINE
  5
420
330
1F
100
AcDbEntity
  8
1
  6
CONTINUOUS
370
50
 62
4
100
AcDbLine
 10
58.561676
 20
0.07885
 30
0.0
 11
58.54916799999999
 21
0.082512
 31
0.0
  0
LINE
  5
421
330
1F
100
AcDbEntity
  8
1
  6
CONTINUOUS
370
50
 62
4
100
AcDbLine
 10
45.0
 20
0.36995
 30
0.0
 11
38.799999
 21
1.99995
 31
0.0
  0
LINE
  5
422
330
1F
100
AcDbEntity
  8
1
  6
CONTINUOUS
370
50
 62
4
100
AcDbLine
 10
58.574337
 20
0.075783
 30
0.0
 11
58.561676
 21
0.07885
 31
0.0
  0
LINE
  5
423
330
1F
100
AcDbEntity
  8
1
  6
CONTINUOUS
370
50
 62
4
100
AcDbLine
 10
58.799999
 20
-0.260767
 30
0.0
 11
58.782204
 21
-0.256906
 31
0.0
  0
LINE
  5
424
330
1F
100
AcDbEntity
  8
1
  6
CONTINUOUS
370
50
 62
4
100
AcDbLine
 10
58.71512199999999
 20
0.256223
 30
0.0
 11
58.690701
 21
0.261303
 31
0.0
  0
LINE
  5
425
330
1F
100
AcDbEntity
  8
1
  6
CONTINUOUS
370
50
 62
4
100
AcDbLine
 10
58.587154
 20
0.073334
 30
0.0
 11
58.574337
 21
0.075783
 31
0.0
  0
LINE
  5
426
330
1F
100
AcDbEntity
  8
1
  6
CONTINUOUS
370
50
 62
4
100
AcDbLine
 10
58.54042399999999
 20
0.369193
 30
0.0
 11
58.53677
 21
0.369766
 31
0.0
  0
LINE
  5
427
330
1F
100
AcDbEntity
  8
1
  6
CONTINUOUS
370
50
 62
4
100
AcDbLine
 10
58.600113
 20
0.071529
 30
0.0
 11
58.587154
 21
0.073334
 31
0.0
  0
LINE
  5
428
330
1F
100
AcDbEntity
  8
1
  6
CONTINUOUS
370
50
 62
4
100
AcDbLine
 10
58.782204
 20
-0.256906
 30
0.0
 11
58.764107
 21
-0.254603
 31
0.0
  0
LINE
  5
429
330
1F
100
AcDbEntity
  8
1
  6
CONTINUOUS
370
50
 62
4
100
AcDbLine
 10
58.72740599999999
 20
0.254751
 30
0.0
 11
58.71512199999999
 21
0.256223
 31
0.0
  0
LINE
  5
42A
330
1F
100
AcDbEntity
  8
1
  6
CONTINUOUS
370
50
 62
4
100
AcDbLine
 10
58.613148
 20
0.070399
 30
0.0
 11
58.600113
 21
0.071529
 31
0.0
  0
LINE
  5
42B
330
1F
100
AcDbEntity
  8
1
  6
CONTINUOUS
370
50
 62
4
100
AcDbLine
 10
60.0
 20
0.0
 30
0.0
 11
59.987938
 21
0.000861
 31
0.0
  0
LINE
  5
42C
330
1F
100
AcDbEntity
  8
1
  6
CONTINUOUS
370
50
 62
4
100
AcDbLine
 10
58.745831
 20
0.253879
 30
0.0
 11
58.72740599999999
 21
0.254751
 31
0.0
  0
LINE
  5
42D
330
1F
100
AcDbEntity
  8
1
  6
CONTINUOUS
370
50
 62
4
100
AcDbLine
 10
58.53677
 20
0.369766
 30
0.0
 11
58.5327
 21
0.369954
 31
0.0
  0
LINE
  5
42E
330
1F
100
AcDbEntity
  8
1
  6
CONTINUOUS
370
50
 62
4
100
AcDbLine
 10
58.764107
 20
-0.254603
 30
0.0
 11
58.745831
 21
-0.253879
 31
0.0
  0
LINE
  5
42F
330
1F
100
AcDbEntity
  8
1
  6
CONTINUOUS
370
50
 62
4
100
AcDbLine
 10
58.624451
 20
0.069983
 30
0.0
 11
58.613148
 21
0.070399
 31
0.0
  0
LINE
  5
430
330
1F
100
AcDbEntity
  8
1
  6
CONTINUOUS
370
50
 62
4
100
AcDbLine
 10
45.0
 20
-0.36995
 30
0.0
 11
58.5327
 21
-0.36995
 31
0.0
  0
LINE
  5
431
330
1F
100
AcDbEntity
  8
1
  6
CONTINUOUS
370
50
 62
4
100
AcDbLine
 10
58.799999
 20
-0.200134
 30
0.0
 11
59.946331
 21
-0.200134
 31
0.0
  0
LINE
  5
432
330
1F
100
AcDbEntity
  8
1
  6
CONTINUOUS
370
50
 62
4
100
AcDbLine
 10
58.799999
 20
0.200134
 30
0.0
 11
59.946331
 21
0.200134
 31
0.0
  0
LINE
  5
433
330
1F
100
AcDbEntity
  8
1
  6
CONTINUOUS
370
50
 62
4
100
AcDbLine
 10
45.0
 20
0.36995
 30
0.0
 11
58.5327
 21
0.36995
 31
0.0
  0
LINE
  5
434
330
1F
100
AcDbEntity
  8
1
  6
CONTINUOUS
370
50
 62
4
100
AcDbLine
 10
58.624451
 20
0.069983
 30
0.0
 11
58.635746
 21
0.070106
 31
0.0
  0
LINE
  5
435
330
1F
100
AcDbEntity
  8
1
  6
CONTINUOUS
370
50
 62
4
100
AcDbLine
 10
58.745831
 20
0.253879
 30
0.0
 11
58.764107
 21
0.254603
 31
0.0
  0
LINE
  5
436
330
1F
100
AcDbEntity
  8
1
  6
CONTINUOUS
370
50
 62
4
100
AcDbLine
 10
58.5327
 20
-0.369954
 30
0.0
 11
58.53677
 21
-0.369766
 31
0.0
  0
LINE
  5
437
330
1F
100
AcDbEntity
  8
1
  6
CONTINUOUS
370
50
 62
4
100
AcDbLine
 10
58.72740599999999
 20
-0.254751
 30
0.0
 11
58.745831
 21
-0.253879
 31
0.0
  0
LINE
  5
438
330
1F
100
AcDbEntity
  8
1
  6
CONTINUOUS
370
50
 62
4
100
AcDbLine
 10
58.525761
 20
0.369543
 30
0.0
 11
58.5327
 21
0.369954
 31
0.0
  0
LINE
  5
439
330
1F
100
AcDbEntity
  8
1
  6
CONTINUOUS
370
50
 62
4
100
AcDbLine
 10
58.635746
 20
0.070106
 30
0.0
 11
58.646973
 21
0.070779
 31
0.0
  0
LINE
  5
43A
330
1F
100
AcDbEntity
  8
1
  6
CONTINUOUS
370
50
 62
4
100
AcDbLine
 10
58.646973
 20
0.070779
 30
0.0
 11
58.65781
 21
0.071977
 31
0.0
  0
LINE
  5
43B
330
1F
100
AcDbEntity
  8
1
  6
CONTINUOUS
370
50
 62
4
100
AcDbLine
 10
58.71512199999999
 20
-0.256223
 30
0.0
 11
58.72740599999999
 21
-0.254751
 31
0.0
  0
LINE
  5
43C
330
1F
100
AcDbEntity
  8
1
  6
CONTINUOUS
370
50
 62
4
100
AcDbLine
 10
58.764107
 20
0.254603
 30
0.0
 11
58.782204
 21
0.256906
 31
0.0
  0
LINE
  5
43D
330
1F
100
AcDbEntity
  8
1
  6
CONTINUOUS
370
50
 62
4
100
AcDbLine
 10
58.517899
 20
0.368341
 30
0.0
 11
58.525761
 21
0.369543
 31
0.0
  0
LINE
  5
43E
330
1F
100
AcDbEntity
  8
1
  6
CONTINUOUS
370
50
 62
4
100
AcDbLine
 10
58.53677
 20
-0.369766
 30
0.0
 11
58.54042399999999
 21
-0.369193
 31
0.0
  0
LINE
  5
43F
330
1F
100
AcDbEntity
  8
1
  6
CONTINUOUS
370
50
 62
4
100
AcDbLine
 10
58.31236999999999
 20
0.302373
 30
0.0
 11
58.315506
 21
0.302881
 31
0.0
  0
LINE
  5
440
330
1F
100
AcDbEntity
  8
1
  6
CONTINUOUS
370
50
 62
4
100
AcDbLine
 10
58.65781
 20
0.071977
 30
0.0
 11
58.668163
 21
0.073656
 31
0.0
  0
LINE
  5
441
330
1F
100
AcDbEntity
  8
1
  6
CONTINUOUS
370
50
 62
4
100
AcDbLine
 10
58.690701
 20
-0.261303
 30
0.0
 11
58.71512199999999
 21
-0.256223
 31
0.0
  0
LINE
  5
442
330
1F
100
AcDbEntity
  8
1
  6
CONTINUOUS
370
50
 62
4
100
AcDbLine
 10
58.309315
 20
0.301726
 30
0.0
 11
58.31236999999999
 21
0.302373
 31
0.0
  0
LINE
  5
443
330
1F
100
AcDbEntity
  8
1
  6
CONTINUOUS
370
50
 62
4
100
AcDbLine
 10
58.668163
 20
0.073656
 30
0.0
 11
58.67798999999999
 21
0.075779
 31
0.0
  0
LINE
  5
444
330
1F
100
AcDbEntity
  8
1
  6
CONTINUOUS
370
50
 62
4
100
AcDbLine
 10
58.782204
 20
0.256906
 30
0.0
 11
58.799999
 21
0.260767
 31
0.0
  0
LINE
  5
445
330
1F
100
AcDbEntity
  8
1
  6
CONTINUOUS
370
50
 62
4
100
AcDbLine
 10
58.50912899999999
 20
0.366402
 30
0.0
 11
58.517899
 21
0.368341
 31
0.0
  0
LINE
  5
446
330
1F
100
AcDbEntity
  8
1
  6
CONTINUOUS
370
50
 62
4
100
AcDbLine
 10
58.781288
 20
0.055108
 30
0.0
 11
58.799999
 21
0.059398
 31
0.0
  0
LINE
  5
447
330
1F
100
AcDbEntity
  8
1
  6
CONTINUOUS
370
50
 62
4
100
AcDbLine
 10
58.315506
 20
0.302881
 30
0.0
 11
58.332966
 21
0.30711
 31
0.0
  0
LINE
  5
448
330
1F
100
AcDbEntity
  8
1
  6
CONTINUOUS
370
50
 62
4
100
AcDbLine
 10
58.762733
 20
0.05031
 30
0.0
 11
58.781288
 21
0.055108
 31
0.0
  0
LINE
  5
449
330
1F
100
AcDbEntity
  8
1
  6
CONTINUOUS
370
50
 62
4
100
AcDbLine
 10
38.799999
 20
-1.99995
 30
0.0
 11
45.0
 21
-0.36995
 31
0.0
  0
LINE
  5
44A
330
1F
100
AcDbEntity
  8
1
  6
CONTINUOUS
370
50
 62
4
100
AcDbLine
 10
58.306355
 20
0.300936
 30
0.0
 11
58.309315
 21
0.301726
 31
0.0
  0
LINE
  5
44B
330
1F
100
AcDbEntity
  8
1
  6
CONTINUOUS
370
50
 62
4
100
AcDbLine
 10
58.499489
 20
0.363779
 30
0.0
 11
58.50912899999999
 21
0.366402
 31
0.0
  0
LINE
  5
44C
330
1F
100
AcDbEntity
  8
1
  6
CONTINUOUS
370
50
 62
4
100
AcDbLine
 10
58.67798999999999
 20
0.075779
 30
0.0
 11
58.687252
 21
0.078303
 31
0.0
  0
LINE
  5
44D
330
1F
100
AcDbEntity
  8
1
  6
CONTINUOUS
370
50
 62
4
100
AcDbLine
 10
58.332966
 20
0.30711
 30
0.0
 11
58.349899
 21
0.311744
 31
0.0
  0
LINE
  5
44E
330
1F
100
AcDbEntity
  8
1
  6
CONTINUOUS
370
50
 62
4
100
AcDbLine
 10
58.744343
 20
0.045002
 30
0.0
 11
58.762733
 21
0.05031
 31
0.0
  0
LINE
  5
44F
330
1F
100
AcDbEntity
  8
1
  6
CONTINUOUS
370
50
 62
4
100
AcDbLine
 10
58.54042399999999
 20
-0.369193
 30
0.0
 11
58.54365199999999
 21
-0.36822
 31
0.0
  0
LINE
  5
450
330
1F
100
AcDbEntity
  8
1
  6
CONTINUOUS
370
50
 62
4
100
AcDbLine
 10
58.349899
 20
0.311744
 30
0.0
 11
58.366299
 21
0.31669
 31
0.0
  0
LINE
  5
451
330
1F
100
AcDbEntity
  8
1
  6
CONTINUOUS
370
50
 62
4
100
AcDbLine
 10
58.489048
 20
0.360534
 30
0.0
 11
58.499489
 21
0.363779
 31
0.0
  0
LINE
  5
452
330
1F
100
AcDbEntity
  8
1
  6
CONTINUOUS
370
50
 62
4
100
AcDbLine
 10
58.672661
 20
-0.266957
 30
0.0
 11
58.690701
 21
-0.261303
 31
0.0
  0
LINE
  5
453
330
1F
100
AcDbEntity
  8
1
  6
CONTINUOUS
370
50
 62
4
100
AcDbLine
 10
58.726124
 20
0.039181
 30
0.0
 11
58.744343
 21
0.045002
 31
0.0
  0
LINE
  5
454
330
1F
100
AcDbEntity
  8
1
  6
CONTINUOUS
370
50
 62
4
100
AcDbLine
 10
58.366299
 20
0.31669
 30
0.0
 11
58.382168
 21
0.321859
 31
0.0
  0
LINE
  5
455
330
1F
100
AcDbEntity
  8
1
  6
CONTINUOUS
370
50
 62
4
100
AcDbLine
 10
58.303524
 20
0.300002
 30
0.0
 11
58.306355
 21
0.300936
 31
0.0
  0
LINE
  5
456
330
1F
100
AcDbEntity
  8
1
  6
CONTINUOUS
370
50
 62
4
100
AcDbLine
 10
58.687252
 20
0.078303
 30
0.0
 11
58.695923
 21
0.08119
 31
0.0
  0
LINE
  5
457
330
1F
100
AcDbEntity
  8
1
  6
CONTINUOUS
370
50
 62
4
100
AcDbLine
 10
58.477863
 20
0.356745
 30
0.0
 11
58.489048
 21
0.360534
 31
0.0
  0
LINE
  5
458
330
1F
100
AcDbEntity
  8
1
  6
CONTINUOUS
370
50
 62
4
100
AcDbLine
 10
58.382168
 20
0.321859
 30
0.0
 11
58.397499
 21
0.327158
 31
0.0
  0
LINE
  5
459
330
1F
100
AcDbEntity
  8
1
  6
CONTINUOUS
370
50
 62
4
100
AcDbLine
 10
58.70808
 20
0.032847
 30
0.0
 11
58.726124
 21
0.039181
 31
0.0
  0
LINE
  5
45A
330
1F
100
AcDbEntity
  8
1
  6
CONTINUOUS
370
50
 62
4
100
AcDbLine
 10
58.465981
 20
0.352495
 30
0.0
 11
58.477863
 21
0.356745
 31
0.0
  0
LINE
  5
45B
330
1F
100
AcDbEntity
  8
1
  6
CONTINUOUS
370
50
 62
4
100
AcDbLine
 10
58.397499
 20
0.327158
 30
0.0
 11
58.412292
 21
0.332497
 31
0.0
  0
LINE
  5
45C
330
1F
100
AcDbEntity
  8
1
  6
CONTINUOUS
370
50
 62
4
100
AcDbLine
 10
58.453438
 20
0.347864
 30
0.0
 11
58.465981
 21
0.352495
 31
0.0
  0
LINE
  5
45D
330
1F
100
AcDbEntity
  8
1
  6
CONTINUOUS
370
50
 62
4
100
AcDbLine
 10
58.412292
 20
0.332497
 30
0.0
 11
58.426548
 21
0.337784
 31
0.0
  0
LINE
  5
45E
330
1F
100
AcDbEntity
  8
1
  6
CONTINUOUS
370
50
 62
4
100
AcDbLine
 10
58.44027699999999
 20
0.342934
 30
0.0
 11
58.453438
 21
0.347864
 31
0.0
  0
LINE
  5
45F
330
1F
100
AcDbEntity
  8
1
  6
CONTINUOUS
370
50
 62
4
100
AcDbLine
 10
58.426548
 20
0.337784
 30
0.0
 11
58.44027699999999
 21
0.342934
 31
0.0
  0
LINE
  5
460
330
1F
100
AcDbEntity
  8
1
  6
CONTINUOUS
370
50
 62
4
100
AcDbLine
 10
58.690216
 20
0.025997
 30
0.0
 11
58.70808
 21
0.032847
 31
0.0
  0
LINE
  5
461
330
1F
100
AcDbEntity
  8
1
  6
CONTINUOUS
370
50
 62
4
100
AcDbLine
 10
58.695923
 20
0.08119
 30
0.0
 11
58.703957
 21
0.0844
 31
0.0
  0
LINE
  5
462
330
1F
100
AcDbEntity
  8
1
  6
CONTINUOUS
370
50
 62
4
100
AcDbLine
 10
58.300842
 20
0.298925
 30
0.0
 11
58.303524
 21
0.300002
 31
0.0
  0
LINE
  5
463
330
1F
100
AcDbEntity
  8
1
  6
CONTINUOUS
370
50
 62
4
100
AcDbLine
 10
58.654877
 20
-0.274207
 30
0.0
 11
58.672661
 21
-0.266957
 31
0.0
  0
LINE
  5
464
330
1F
100
AcDbEntity
  8
1
  6
CONTINUOUS
370
50
 62
4
100
AcDbLine
 10
58.672543
 20
0.018631
 30
0.0
 11
58.690216
 21
0.025997
 31
0.0
  0
LINE
  5
465
330
1F
100
AcDbEntity
  8
1
  6
CONTINUOUS
370
50
 62
4
100
AcDbLine
 10
58.666977
 20
0.016176
 30
0.0
 11
58.672543
 21
0.018631
 31
0.0
  0
LINE
  5
466
330
1F
100
AcDbEntity
  8
1
  6
CONTINUOUS
370
50
 62
4
100
AcDbLine
 10
58.661438
 20
0.013651
 30
0.0
 11
58.666977
 21
0.016176
 31
0.0
  0
LINE
  5
467
330
1F
100
AcDbEntity
  8
1
  6
CONTINUOUS
370
50
 62
4
100
AcDbLine
 10
58.655926
 20
0.011057
 30
0.0
 11
58.661438
 21
0.013651
 31
0.0
  0
LINE
  5
468
330
1F
100
AcDbEntity
  8
1
  6
CONTINUOUS
370
50
 62
4
100
AcDbLine
 10
58.703957
 20
0.0844
 30
0.0
 11
58.71131099999999
 21
0.087887
 31
0.0
  0
LINE
  5
469
330
1F
100
AcDbEntity
  8
1
  6
CONTINUOUS
370
50
 62
4
100
AcDbLine
 10
58.650444
 20
0.008395
 30
0.0
 11
58.655926
 21
0.011057
 31
0.0
  0
LINE
  5
46A
330
1F
100
AcDbEntity
  8
1
  6
CONTINUOUS
370
50
 62
4
100
AcDbLine
 10
58.298328
 20
0.297702
 30
0.0
 11
58.300842
 21
0.298925
 31
0.0
  0
LINE
  5
46B
330
1F
100
AcDbEntity
  8
1
  6
CONTINUOUS
370
50
 62
4
100
AcDbLine
 10
58.54365199999999
 20
-0.36822
 30
0.0
 11
58.54644
 21
-0.366834
 31
0.0
  0
LINE
  5
46C
330
1F
100
AcDbEntity
  8
1
  6
CONTINUOUS
370
50
 62
4
100
AcDbLine
 10
58.644993
 20
0.005664
 30
0.0
 11
58.650444
 21
0.008395
 31
0.0
  0
LINE
  5
46D
330
1F
100
AcDbEntity
  8
1
  6
CONTINUOUS
370
50
 62
4
100
AcDbLine
 10
58.637623
 20
-0.282956
 30
0.0
 11
58.654877
 21
-0.274207
 31
0.0
  0
LINE
  5
46E
330
1F
100
AcDbEntity
  8
1
  6
CONTINUOUS
370
50
 62
4
100
AcDbLine
 10
58.639576
 20
0.002866
 30
0.0
 11
58.644993
 21
0.005664
 31
0.0
  0
LINE
  5
46F
330
1F
100
AcDbEntity
  8
1
  6
CONTINUOUS
370
50
 62
4
100
AcDbLine
 10
58.634193
 20
0.0
 30
0.0
 11
58.639576
 21
0.002866
 31
0.0
  0
LINE
  5
470
330
1F
100
AcDbEntity
  8
1
  6
CONTINUOUS
370
50
 62
4
100
AcDbLine
 10
58.625935
 20
-0.004571
 30
0.0
 11
58.634193
 21
0.0
 31
0.0
  0
LINE
  5
471
330
1F
100
AcDbEntity
  8
1
  6
CONTINUOUS
370
50
 62
4
100
AcDbLine
 10
58.71131099999999
 20
0.087887
 30
0.0
 11
58.71795299999999
 21
0.091612
 31
0.0
  0
LINE
  5
472
330
1F
100
AcDbEntity
  8
1
  6
CONTINUOUS
370
50
 62
4
100
AcDbLine
 10
58.617771
 20
-0.0093
 30
0.0
 11
58.625935
 21
-0.004571
 31
0.0
  0
LINE
  5
473
330
1F
100
AcDbEntity
  8
1
  6
CONTINUOUS
370
50
 62
4
100
AcDbLine
 10
58.296021
 20
0.29635
 30
0.0
 11
58.298328
 21
0.297702
 31
0.0
  0
LINE
  5
474
330
1F
100
AcDbEntity
  8
1
  6
CONTINUOUS
370
50
 62
4
100
AcDbLine
 10
58.609711
 20
-0.014185
 30
0.0
 11
58.617771
 21
-0.0093
 31
0.0
  0
LINE
  5
475
330
1F
100
AcDbEntity
  8
1
  6
CONTINUOUS
370
50
 62
4
100
AcDbLine
 10
58.620869
 20
-0.293232
 30
0.0
 11
58.637623
 21
-0.282956
 31
0.0
  0
LINE
  5
476
330
1F
100
AcDbEntity
  8
1
  6
CONTINUOUS
370
50
 62
4
100
AcDbLine
 10
58.601765
 20
-0.019226
 30
0.0
 11
58.609711
 21
-0.014185
 31
0.0
  0
LINE
  5
477
330
1F
100
AcDbEntity
  8
1
  6
CONTINUOUS
370
50
 62
4
100
AcDbLine
 10
58.593933
 20
-0.024419
 30
0.0
 11
58.601765
 21
-0.019226
 31
0.0
  0
LINE
  5
478
330
1F
100
AcDbEntity
  8
1
  6
CONTINUOUS
370
50
 62
4
100
AcDbLine
 10
58.71795299999999
 20
0.091612
 30
0.0
 11
58.72384599999999
 21
0.095533
 31
0.0
  0
LINE
  5
479
330
1F
100
AcDbEntity
  8
1
  6
CONTINUOUS
370
50
 62
4
100
AcDbLine
 10
58.586205
 20
-0.029781
 30
0.0
 11
58.593933
 21
-0.024419
 31
0.0
  0
LINE
  5
47A
330
1F
100
AcDbEntity
  8
1
  6
CONTINUOUS
370
50
 62
4
100
AcDbLine
 10
58.293934
 20
0.294873
 30
0.0
 11
58.296021
 21
0.29635
 31
0.0
  0
LINE
  5
47B
330
1F
100
AcDbEntity
  8
1
  6
CONTINUOUS
370
50
 62
4
100
AcDbLine
 10
58.578579
 20
-0.035316
 30
0.0
 11
58.586205
 21
-0.029781
 31
0.0
  0
LINE
  5
47C
330
1F
100
AcDbEntity
  8
1
  6
CONTINUOUS
370
50
 62
4
100
AcDbLine
 10
58.600212
 20
-0.308651
 30
0.0
 11
58.620869
 21
-0.293232
 31
0.0
  0
LINE
  5
47D
330
1F
100
AcDbEntity
  8
1
  6
CONTINUOUS
370
50
 62
4
100
AcDbLine
 10
58.571079
 20
-0.041018
 30
0.0
 11
58.578579
 21
-0.035316
 31
0.0
  0
LINE
  5
47E
330
1F
100
AcDbEntity
  8
1
  6
CONTINUOUS
370
50
 62
4
100
AcDbLine
 10
58.54644
 20
-0.366834
 30
0.0
 11
58.548775
 21
-0.365039
 31
0.0
  0
LINE
  5
47F
330
1F
100
AcDbEntity
  8
1
  6
CONTINUOUS
370
50
 62
4
100
AcDbLine
 10
58.563709
 20
-0.046885
 30
0.0
 11
58.571079
 21
-0.041018
 31
0.0
  0
LINE
  5
480
330
1F
100
AcDbEntity
  8
1
  6
CONTINUOUS
370
50
 62
4
100
AcDbLine
 10
58.72384599999999
 20
0.095533
 30
0.0
 11
58.72898499999999
 21
0.099635
 31
0.0
  0
LINE
  5
481
330
1F
100
AcDbEntity
  8
1
  6
CONTINUOUS
370
50
 62
4
100
AcDbLine
 10
58.556496
 20
-0.052911
 30
0.0
 11
58.563709
 21
-0.046885
 31
0.0
  0
LINE
  5
482
330
1F
100
AcDbEntity
  8
1
  6
CONTINUOUS
370
50
 62
4
100
AcDbLine
 10
58.292068
 20
0.293275
 30
0.0
 11
58.293934
 21
0.294873
 31
0.0
  0
LINE
  5
483
330
1F
100
AcDbEntity
  8
1
  6
CONTINUOUS
370
50
 62
4
100
AcDbLine
 10
58.589603
 20
-0.317938
 30
0.0
 11
58.600212
 21
-0.308651
 31
0.0
  0
LINE
  5
484
330
1F
100
AcDbEntity
  8
1
  6
CONTINUOUS
370
50
 62
4
100
AcDbLine
 10
58.549446
 20
-0.059094
 30
0.0
 11
58.556496
 21
-0.052911
 31
0.0
  0
LINE
  5
485
330
1F
100
AcDbEntity
  8
1
  6
CONTINUOUS
370
50
 62
4
100
AcDbLine
 10
58.542576
 20
-0.065428
 30
0.0
 11
58.549446
 21
-0.059094
 31
0.0
  0
LINE
  5
486
330
1F
100
AcDbEntity
  8
1
  6
CONTINUOUS
370
50
 62
4
100
AcDbLine
 10
58.535904
 20
-0.07191
 30
0.0
 11
58.542576
 21
-0.065428
 31
0.0
  0
LINE
  5
487
330
1F
100
AcDbEntity
  8
1
  6
CONTINUOUS
370
50
 62
4
100
AcDbLine
 10
58.72898499999999
 20
0.099635
 30
0.0
 11
58.733604
 21
0.104201
 31
0.0
  0
LINE
  5
488
330
1F
100
AcDbEntity
  8
1
  6
CONTINUOUS
370
50
 62
4
100
AcDbLine
 10
58.575306
 20
-0.332198
 30
0.0
 11
58.589603
 21
-0.317938
 31
0.0
  0
LINE
  5
489
330
1F
100
AcDbEntity
  8
1
  6
CONTINUOUS
370
50
 62
4
100
AcDbLine
 10
58.529491
 20
-0.078485
 30
0.0
 11
58.535904
 21
-0.07191
 31
0.0
  0
LINE
  5
48A
330
1F
100
AcDbEntity
  8
1
  6
CONTINUOUS
370
50
 62
4
100
AcDbLine
 10
58.290428
 20
0.291558
 30
0.0
 11
58.292068
 21
0.293275
 31
0.0
  0
LINE
  5
48B
330
1F
100
AcDbEntity
  8
1
  6
CONTINUOUS
370
50
 62
4
100
AcDbLine
 10
58.523426
 20
-0.085062
 30
0.0
 11
58.529491
 21
-0.078485
 31
0.0
  0
LINE
  5
48C
330
1F
100
AcDbEntity
  8
1
  6
CONTINUOUS
370
50
 62
4
100
AcDbLine
 10
58.517708
 20
-0.091633
 30
0.0
 11
58.523426
 21
-0.085062
 31
0.0
  0
LINE
  5
48D
330
1F
100
AcDbEntity
  8
1
  6
CONTINUOUS
370
50
 62
4
100
AcDbLine
 10
58.561966
 20
-0.347671
 30
0.0
 11
58.575306
 21
-0.332198
 31
0.0
  0
LINE
  5
48E
330
1F
100
AcDbEntity
  8
1
  6
CONTINUOUS
370
50
 62
4
100
AcDbLine
 10
58.73748399999999
 20
0.109282
 30
0.0
 11
58.747181
 21
0.120538
 31
0.0
  0
LINE
  5
48F
330
1F
100
AcDbEntity
  8
1
  6
CONTINUOUS
370
50
 62
4
100
AcDbLine
 10
58.548775
 20
-0.365039
 30
0.0
 11
58.550667
 21
-0.362835
 31
0.0
  0
LINE
  5
490
330
1F
100
AcDbEntity
  8
1
  6
CONTINUOUS
370
50
 62
4
100
AcDbLine
 10
58.747181
 20
0.120538
 30
0.0
 11
58.75659899999999
 21
0.131784
 31
0.0
  0
LINE
  5
491
330
1F
100
AcDbEntity
  8
1
  6
CONTINUOUS
370
50
 62
4
100
AcDbLine
 10
58.512337
 20
-0.098192
 30
0.0
 11
58.517708
 21
-0.091633
 31
0.0
  0
LINE
  5
492
330
1F
100
AcDbEntity
  8
1
  6
CONTINUOUS
370
50
 62
4
100
AcDbLine
 10
58.75659899999999
 20
0.131784
 30
0.0
 11
58.765755
 21
0.143019
 31
0.0
  0
LINE
  5
493
330
1F
100
AcDbEntity
  8
1
  6
CONTINUOUS
370
50
 62
4
100
AcDbLine
 10
58.765755
 20
0.143019
 30
0.0
 11
58.774662
 21
0.154241
 31
0.0
  0
LINE
  5
494
330
1F
100
AcDbEntity
  8
1
  6
CONTINUOUS
370
50
 62
4
100
AcDbLine
 10
58.774662
 20
0.154241
 30
0.0
 11
58.78332899999999
 21
0.165448
 31
0.0
  0
LINE
  5
495
330
1F
100
AcDbEntity
  8
1
  6
CONTINUOUS
370
50
 62
4
100
AcDbLine
 10
58.28902799999999
 20
0.289741
 30
0.0
 11
58.290428
 21
0.291558
 31
0.0
  0
LINE
  5
496
330
1F
100
AcDbEntity
  8
1
  6
CONTINUOUS
370
50
 62
4
100
AcDbLine
 10
58.507317
 20
-0.104729
 30
0.0
 11
58.512337
 21
-0.098192
 31
0.0
  0
LINE
  5
497
330
1F
100
AcDbEntity
  8
1
  6
CONTINUOUS
370
50
 62
4
100
AcDbLine
 10
58.733604
 20
0.104201
 30
0.0
 11
58.73748399999999
 21
0.109282
 31
0.0
  0
LINE
  5
498
330
1F
100
AcDbEntity
  8
1
  6
CONTINUOUS
370
50
 62
4
100
AcDbLine
 10
58.78332899999999
 20
0.165448
 30
0.0
 11
58.791771
 21
0.176638
 31
0.0
  0
LINE
  5
499
330
1F
100
AcDbEntity
  8
1
  6
CONTINUOUS
370
50
 62
4
100
AcDbLine
 10
58.550652
 20
-0.362857
 30
0.0
 11
58.561966
 21
-0.347671
 31
0.0
  0
LINE
  5
49A
330
1F
100
AcDbEntity
  8
1
  6
CONTINUOUS
370
50
 62
4
100
AcDbLine
 10
58.791771
 20
0.176638
 30
0.0
 11
58.799999
 21
0.187811
 31
0.0
  0
LINE
  5
49B
330
1F
100
AcDbEntity
  8
1
  6
CONTINUOUS
370
50
 62
4
100
AcDbLine
 10
58.502651
 20
-0.111239
 30
0.0
 11
58.507317
 21
-0.104729
 31
0.0
  0
LINE
  5
49C
330
1F
100
AcDbEntity
  8
1
  6
CONTINUOUS
370
50
 62
4
100
AcDbLine
 10
58.498337
 20
-0.117713
 30
0.0
 11
58.502651
 21
-0.111239
 31
0.0
  0
LINE
  5
49D
330
1F
100
AcDbEntity
  8
1
  6
CONTINUOUS
370
50
 62
4
100
AcDbLine
 10
58.494377
 20
-0.124144
 30
0.0
 11
58.498337
 21
-0.117713
 31
0.0
  0
LINE
  5
49E
330
1F
100
AcDbEntity
  8
1
  6
CONTINUOUS
370
50
 62
4
100
AcDbLine
 10
58.28787999999999
 20
0.287848
 30
0.0
 11
58.28902799999999
 21
0.289741
 31
0.0
  0
LINE
  5
49F
330
1F
100
AcDbEntity
  8
1
  6
CONTINUOUS
370
50
 62
4
100
AcDbLine
 10
58.490776
 20
-0.130525
 30
0.0
 11
58.494377
 21
-0.124144
 31
0.0
  0
LINE
  5
4A0
330
1F
100
AcDbEntity
  8
1
  6
CONTINUOUS
370
50
 62
4
100
AcDbLine
 10
58.487503
 20
-0.1369
 30
0.0
 11
58.490776
 21
-0.130525
 31
0.0
  0
LINE
  5
4A1
330
1F
100
AcDbEntity
  8
1
  6
CONTINUOUS
370
50
 62
4
100
AcDbLine
 10
58.550667
 20
-0.362835
 30
0.0
 11
58.552799
 21
-0.358463
 31
0.0
  0
LINE
  5
4A2
330
1F
100
AcDbEntity
  8
1
  6
CONTINUOUS
370
50
 62
4
100
AcDbLine
 10
58.28696799999999
 20
0.285886
 30
0.0
 11
58.28787999999999
 21
0.287848
 31
0.0
  0
LINE
  5
4A3
330
1F
100
AcDbEntity
  8
1
  6
CONTINUOUS
370
50
 62
4
100
AcDbLine
 10
58.484539
 20
-0.143356
 30
0.0
 11
58.487503
 21
-0.1369
 31
0.0
  0
LINE
  5
4A4
330
1F
100
AcDbEntity
  8
1
  6
CONTINUOUS
370
50
 62
4
100
AcDbLine
 10
58.481915
 20
-0.14988
 30
0.0
 11
58.484539
 21
-0.143356
 31
0.0
  0
LINE
  5
4A5
330
1F
100
AcDbEntity
  8
1
  6
CONTINUOUS
370
50
 62
4
100
AcDbLine
 10
58.47966
 20
-0.156453
 30
0.0
 11
58.481915
 21
-0.14988
 31
0.0
  0
LINE
  5
4A6
330
1F
100
AcDbEntity
  8
1
  6
CONTINUOUS
370
50
 62
4
100
AcDbLine
 10
58.286285
 20
0.283861
 30
0.0
 11
58.28696799999999
 21
0.285886
 31
0.0
  0
LINE
  5
4A7
330
1F
100
AcDbEntity
  8
1
  6
CONTINUOUS
370
50
 62
4
100
AcDbLine
 10
58.477814
 20
-0.163059
 30
0.0
 11
58.47966
 21
-0.156453
 31
0.0
  0
LINE
  5
4A8
330
1F
100
AcDbEntity
  8
1
  6
CONTINUOUS
370
50
 62
4
100
AcDbLine
 10
58.285828
 20
0.281781
 30
0.0
 11
58.286285
 21
0.283861
 31
0.0
  0
LINE
  5
4A9
330
1F
100
AcDbEntity
  8
1
  6
CONTINUOUS
370
50
 62
4
100
AcDbLine
 10
58.47640999999999
 20
-0.16968
 30
0.0
 11
58.477814
 21
-0.163059
 31
0.0
  0
LINE
  5
4AA
330
1F
100
AcDbEntity
  8
1
  6
CONTINUOUS
370
50
 62
4
100
AcDbLine
 10
58.552799
 20
-0.358463
 30
0.0
 11
58.553886
 21
-0.353044
 31
0.0
  0
LINE
  5
4AB
330
1F
100
AcDbEntity
  8
1
  6
CONTINUOUS
370
50
 62
4
100
AcDbLine
 10
58.47548699999999
 20
-0.176292
 30
0.0
 11
58.47640999999999
 21
-0.16968
 31
0.0
  0
LINE
  5
4AC
330
1F
100
AcDbEntity
  8
1
  6
CONTINUOUS
370
50
 62
4
100
AcDbLine
 10
58.285576
 20
0.279635
 30
0.0
 11
58.285828
 21
0.281781
 31
0.0
  0
LINE
  5
4AD
330
1F
100
AcDbEntity
  8
1
  6
CONTINUOUS
370
50
 62
4
100
AcDbLine
 10
58.47507899999999
 20
-0.182839
 30
0.0
 11
58.47548699999999
 21
-0.176292
 31
0.0
  0
LINE
  5
4AE
330
1F
100
AcDbEntity
  8
1
  6
CONTINUOUS
370
50
 62
4
100
AcDbLine
 10
58.28552999999999
 20
0.27739
 30
0.0
 11
58.285576
 21
0.279635
 31
0.0
  0
LINE
  5
4AF
330
1F
100
AcDbEntity
  8
1
  6
CONTINUOUS
370
50
 62
4
100
AcDbLine
 10
58.553886
 20
-0.353044
 30
0.0
 11
58.55398899999999
 21
-0.346573
 31
0.0
  0
LINE
  5
4B0
330
1F
100
AcDbEntity
  8
1
  6
CONTINUOUS
370
50
 62
4
100
AcDbLine
 10
38.799999
 20
-1.99995
 30
0.0
 11
38.799999
 21
1.99995
 31
0.0
  0
LINE
  5
4B1
330
1F
100
AcDbEntity
  8
1
  6
CONTINUOUS
370
50
 62
4
100
AcDbLine
 10
45.0
 20
-0.36995
 30
0.0
 11
45.0
 21
0.36995
 31
0.0
  0
LINE
  5
4B2
330
1F
100
AcDbEntity
  8
1
  6
CONTINUOUS
370
50
 62
4
100
AcDbLine
 10
58.799999
 20
-0.260767
 30
0.0
 11
58.799999
 21
0.260767
 31
0.0
  0
LINE
  5
4B3
330
1F
100
AcDbEntity
  8
1
  6
CONTINUOUS
370
50
 62
4
100
AcDbLine
 10
59.932083
 20
-0.189904
 30
0.0
 11
59.932083
 21
0.09592
 31
0.0
  0
LINE
  5
4B4
330
1F
100
AcDbEntity
  8
1
  6
CONTINUOUS
370
50
 62
4
100
AcDbLine
 10
59.946331
 20
-0.200134
 30
0.0
 11
59.946331
 21
-0.192375
 31
0.0
  0
LINE
  5
4B5
330
1F
100
AcDbEntity
  8
1
  6
CONTINUOUS
370
50
 62
4
100
AcDbLine
 10
59.946331
 20
0.099143
 30
0.0
 11
59.946331
 21
0.200134
 31
0.0
  0
ELLIPSE
  5
4B6
330
1F
100
AcDbEntity
  8
1
  6
CONTINUOUS
370
50
 62
4
100
AcDbEllipse
 10
58.647583
 20
0.512258
 30
0.0
 11
-0.05568516777588779
 21
0.4093019771742755
 31
0.0
210
0.0
220
0.0
230
0.9999999999999998
 40
0.9409774570979299
 41
1.975641413468418
 42
3.231134850867867
  0
ELLIPSE
  5
4B7
330
1F
100
AcDbEntity
  8
1
  6
CONTINUOUS
370
50
 62
4
100
AcDbEllipse
 10
58.823465
 20
-0.536187
 30
0.0
 11
0.05868219304787201
 21
0.4313309737360538
 31
0.0
210
0.0
220
0.0
230
0.9999999999999999
 40
0.9409782054395963
 41
0.2008367109862945
 42
0.9740406255716428
  0
ELLIPSE
  5
4B8
330
1F
100
AcDbEntity
  8
1
  6
CONTINUOUS
370
50
 62
4
100
AcDbEllipse
 10
58.866463
 20
-0.542037
 30
0.0
 11
0.08102200383038727
 21
0.595534999478879
 31
0.0
210
0.0
220
0.0
230
1.0
 40
0.9409791173206985
 41
0.2612407317429601
 42
0.4931495599872113
  0
ARC
  5
4B9
330
1F
100
AcDbEntity
  8
1
  6
CONTINUOUS
370
50
 62
4
100
AcDbCircle
 10
59.59999999999999
 20
0.0
 30
0.0
 40
0.4000000000000025
100
AcDbArc
 50
329.9776622215833
 51
30.02233777841676
  0
ELLIPSE
  5
4BA
330
1F
100
AcDbEntity
  8
1
  6
CONTINUOUS
370
50
 62
4
100
AcDbEllipse
 10
59.625
 20
-0.080586
 30
0.0
 11
0.3699070470737489
 21
0.1147548482600136
 31
0.0
210
0.0
220
0.0
230
1.0
 40
0.5367348979613378
 41
6.118190159937827
 42
6.659786144617133
  0
ELLIPSE
  5
4BB
330
1F
100
AcDbEntity
  8
1
  6
CONTINUOUS
370
50
 62
4
100
AcDbEllipse
 10
59.626762
 20
-0.080208
 30
0.0
 11
0.3563191470444984
 21
0.110539526009841
 31
0.0
210
0.0
220
0.0
230
1.0
 40
0.5367347656006203
 41
6.134887974165655
 42
6.681972190592382
  0
ELLIPSE
  5
4BC
330
1F
100
AcDbEntity
  8
1
  6
CONTINUOUS
370
50
 62
4
100
AcDbEllipse
 10
59.7
 20
0.021408
 30
0.0
 11
-0.07251776715017053
 21
0.3387350498495154
 31
0.0
210
0.0
220
0.0
230
0.9999999999999998
 40
0.8593828755974732
 41
3.86080022185474
 42
4.468245644980904
  0
ELLIPSE
  5
4BD
330
1F
100
AcDbEntity
  8
1
  6
CONTINUOUS
370
50
 62
4
100
AcDbEllipse
 10
59.70141
 20
0.021308
 30
0.0
 11
-0.06926090057110557
 21
0.323522021286155
 31
0.0
210
0.0
220
0.0
230
1.0
 40
0.8593852217873087
 41
3.83324117072693
 42
4.468245004620806
  0
ELLIPSE
  5
4BE
330
1F
100
AcDbEntity
  8
1
  6
CONTINUOUS
370
50
 62
4
100
AcDbEllipse
 10
60.0
 20
0.0
 30
0.0
 11
-0.3460169551792163
 21
0.03662342346783514
 31
0.0
210
0.0
220
0.0
230
1.0
 40
0.5686281709050468
 41
1.433709354357643
 42
1.475463210409431
  0
ELLIPSE
  5
4BF
330
1F
100
AcDbEntity
  8
1
  6
CONTINUOUS
370
50
 62
4
100
AcDbEllipse
 10
60.0
 20
0.0
 30
0.0
 11
0.7747690198760573
 21
0.1698179093184664
 31
0.0
210
0.0
220
0.0
230
0.9999999999999999
 40
0.1366911724122857
 41
1.610138142044844
 42
1.628577307360414
  0
LINE
  5
4C0
330
1F
100
AcDbEntity
  8
CUT
  6
CONTINUOUS
370
25
 62
1
100
AcDbLine
 10
58.8
 20
0.0
 30
0.0
 11
60.0
 21
0.0
 31
0.0
  0
ARC
  5
4C1
330
1F
100
AcDbEntity
  8
CUT
  6
CONTINUOUS
370
25
 62
1
100
AcDbCircle
 10
59.59999999999999
 20
0.0
 30
0.0
 40
0.4000000000000057
100
AcDbArc
 50
0.0
 51
90.0
  0
LINE
  5
4C2
330
1F
100
AcDbEntity
  8
CUT
  6
CONTINUOUS
370
25
 62
1
100
AcDbLine
 10
59.59999999999999
 20
0.4000000000000001
 30
0.0
 11
58.8
 21
0.3999
 31
0.0
  0
LINE
  5
4C3
330
1F
100
AcDbEntity
  8
CUT
  6
CONTINUOUS
370
25
 62
1
100
AcDbLine
 10
58.8
 20
0.3999
 30
0.0
 11
58.8
 21
0.0
 31
0.0
  0
LINE
  5
4C4
330
1F
100
AcDbEntity
  8
NOCUT
  6
CONTINUOUS
370
25
 62
7
100
AcDbLine
 10
38.8
 20
0.0
 30
0.0
 11
58.8
 21
0.0
 31
0.0
  0
LINE
  5
4C5
330
1F
100
AcDbEntity
  8
NOCUT
  6
CONTINUOUS
370
25
 62
7
100
AcDbLine
 10
58.8
 20
0.0
 30
0.0
 11
58.8
 21
0.36995
 31
0.0
  0
LINE
  5
4C6
330
1F
100
AcDbEntity
  8
NOCUT
  6
CONTINUOUS
370
25
 62
7
100
AcDbLine
 10
58.8
 20
0.36995
 30
0.0
 11
45.0
 21
0.36995
 31
0.0
  0
LINE
  5
4C7
330
1F
100
AcDbEntity
  8
NOCUT
  6
CONTINUOUS
370
25
 62
7
100
AcDbLine
 10
45.0
 20
0.36995
 30
0.0
 11
38.8
 21
1.99995
 31
0.0
  0
LINE
  5
4C8
330
1F
100
AcDbEntity
  8
NOCUT
  6
CONTINUOUS
370
25
 62
7
100
AcDbLine
 10
38.8
 20
1.99995
 30
0.0
 11
38.8
 21
0.0
 31
0.0
  0
LINE
  5
4C9
330
1F
100
AcDbEntity
  8
SK1
  6
CONTINUOUS
370
50
 62
4
100
AcDbLine
 10
38.8
 20
2.0
 30
0.0
 11
0.2999999999999972
 21
2.0
 31
0.0
  0
LINE
  5
4CA
330
1F
100
AcDbEntity
  8
SK1
  6
CONTINUOUS
370
50
 62
4
100
AcDbLine
 10
0.2999999999999972
 20
2.0
 30
0.0
 11
0.0
 21
1.7
 31
0.0
  0
LINE
  5
4CB
330
1F
100
AcDbEntity
  8
SK1
  6
CONTINUOUS
370
50
 62
4
100
AcDbLine
 10
0.0
 20
1.7
 30
0.0
 11
0.0
 21
-1.7
 31
0.0
  0
LINE
  5
4CC
330
1F
100
AcDbEntity
  8
SK1
  6
CONTINUOUS
370
50
 62
4
100
AcDbLine
 10
0.0
 20
-1.7
 30
0.0
 11
0.2999999999999972
 21
-2.0
 31
0.0
  0
LINE
  5
4CD
330
1F
100
AcDbEntity
  8
SK1
  6
CONTINUOUS
370
50
 62
4
100
AcDbLine
 10
0.2999999999999972
 20
-2.0
 30
0.0
 11
38.8
 21
-2.0
 31
0.0
  0
LINE
  5
4CE
330
1F
100
AcDbEntity
  8
SK1
  6
CONTINUOUS
370
50
 62
4
100
AcDbLine
 10
0.2999999999999972
 20
2.0
 30
0.0
 11
0.2999999999999972
 21
-2.0
 31
0.0
  0
LINE
  5
4CF
330
1F
100
AcDbEntity
  8
SK2
  6
CONTINUOUS
370
25
 62
7
100
AcDbLine
 10
-12.0000002
 20
-2.000001
 30
0.0
 11
-13.00000000000008
 21
-2.000001
 31
0.0
  0
LINE
  5
4D0
330
1F
100
AcDbEntity
  8
SK2
  6
CONTINUOUS
370
25
 62
7
100
AcDbLine
 10
0.0
 20
-2.000001
 30
0.0
 11
-11.9999998
 21
-2.000001
 31
0.0
  0
LINE
  5
4D1
330
1F
100
AcDbEntity
  8
SK2
  6
CONTINUOUS
370
25
 62
7
100
AcDbLine
 10
-13.0
 20
2.0
 30
0.0
 11
0.0
 21
2.0
 31
0.0
  0
LINE
  5
4D2
330
1F
100
AcDbEntity
  8
SK2
  6
CONTINUOUS
370
25
 62
7
100
AcDbLine
 10
-12.0
 20
-9.0
 30
0.0
 11
-12.0
 21
15.475
 31
0.0
  0
LINE
  5
4D3
330
1F
100
AcDbEntity
  8
SK2
  6
CONTINUOUS
370
25
 62
7
100
AcDbLine
 10
-12.0
 20
-2.0
 30
0.0
 11
-11.0
 21
-7.0
 31
0.0
  0
LINE
  5
4D4
330
1F
100
AcDbEntity
  8
SK2
  6
CONTINUOUS
370
25
 62
7
100
AcDbLine
 10
-11.0
 20
-7.0
 30
0.0
 11
-13.0
 21
-7.0
 31
0.0
  0
LINE
  5
4D5
330
1F
100
AcDbEntity
  8
SK2
  6
CONTINUOUS
370
25
 62
7
100
AcDbLine
 10
-13.0
 20
-7.0
 30
0.0
 11
-12.0
 21
-2.0
 31
0.0
  0
LINE
  5
4D6
330
1F
100
AcDbEntity
  8
SK2
  6
CONTINUOUS
370
25
 62
7
100
AcDbLine
 10
-11.05067093990475
 20
-7.0
 30
0.0
 11
-11.0084451566508
 21
-6.957774216746053
 31
0.0
  0
LINE
  5
4D7
330
1F
100
AcDbEntity
  8
SK2
  6
CONTINUOUS
370
25
 62
7
100
AcDbLine
 10
-11.47493500861668
 20
-7.0
 30
0.0
 11
-11.07915583476945
 21
-6.604220826152769
 31
0.0
  0
LINE
  5
4D8
330
1F
100
AcDbEntity
  8
SK2
  6
CONTINUOUS
370
25
 62
7
100
AcDbLine
 10
-11.89919907732861
 20
-7.0
 30
0.0
 11
-11.1498665128881
 21
-6.250667435559492
 31
0.0
  0
LINE
  5
4D9
330
1F
100
AcDbEntity
  8
SK2
  6
CONTINUOUS
370
25
 62
7
100
AcDbLine
 10
-12.32346314604055
 20
-7.0
 30
0.0
 11
-11.22057719100676
 21
-5.897114044966216
 31
0.0
  0
LINE
  5
4DA
330
1F
100
AcDbEntity
  8
SK2
  6
CONTINUOUS
370
25
 62
7
100
AcDbLine
 10
-12.74772721475248
 20
-7.0
 30
0.0
 11
-11.29128786912542
 21
-5.543560654372939
 31
0.0
  0
LINE
  5
4DB
330
1F
100
AcDbEntity
  8
SK2
  6
CONTINUOUS
370
25
 62
7
100
AcDbLine
 10
-12.9570021791339
 20
-6.785010895669494
 30
0.0
 11
-11.36199854724408
 21
-5.19000726377967
 31
0.0
  0
LINE
  5
4DC
330
1F
100
AcDbEntity
  8
SK2
  6
CONTINUOUS
370
25
 62
7
100
AcDbLine
 10
-12.85093616195593
 20
-6.254680809779593
 30
0.0
 11
-11.43270922536272
 21
-4.836453873186386
 31
0.0
  0
LINE
  5
4DD
330
1F
100
AcDbEntity
  8
SK2
  6
CONTINUOUS
370
25
 62
7
100
AcDbLine
 10
-12.74487014477794
 20
-5.724350723889671
 30
0.0
 11
-11.50341990348139
 21
-4.482900482593116
 31
0.0
  0
LINE
  5
4DE
330
1F
100
AcDbEntity
  8
SK2
  6
CONTINUOUS
370
25
 62
7
100
AcDbLine
 10
-12.63880412759995
 20
-5.194020637999749
 30
0.0
 11
-11.57413058160004
 21
-4.129347091999833
 31
0.0
  0
LINE
  5
4DF
330
1F
100
AcDbEntity
  8
SK2
  6
CONTINUOUS
370
25
 62
7
100
AcDbLine
 10
-12.53273811042197
 20
-4.663690552109841
 30
0.0
 11
-11.64484125971869
 21
-3.775793701406556
 31
0.0
  0
LINE
  5
4E0
330
1F
100
AcDbEntity
  8
SK2
  6
CONTINUOUS
370
25
 62
7
100
AcDbLine
 10
-12.42667209324399
 20
-4.133360466219933
 30
0.0
 11
-11.71555193783735
 21
-3.422240310813287
 31
0.0
  0
LINE
  5
4E1
330
1F
100
AcDbEntity
  8
SK2
  6
CONTINUOUS
370
25
 62
7
100
AcDbLine
 10
-12.32060607606601
 20
-3.603030380330019
 30
0.0
 11
-11.786262615956
 21
-3.068686920220003
 31
0.0
  0
LINE
  5
4E2
330
1F
100
AcDbEntity
  8
SK2
  6
CONTINUOUS
370
25
 62
7
100
AcDbLine
 10
-12.21454005888803
 20
-3.072700294440097
 30
0.0
 11
-11.85697329407466
 21
-2.715133529626733
 31
0.0
  0
LINE
  5
4E3
330
1F
100
AcDbEntity
  8
SK2
  6
CONTINUOUS
370
25
 62
7
100
AcDbLine
 10
-12.10847404171005
 20
-2.542370208550189
 30
0.0
 11
-11.92768397219331
 21
-2.361580139033457
 31
0.0
  0
LINE
  5
4E4
330
1F
100
AcDbEntity
  8
SK2
  6
CONTINUOUS
370
25
 62
7
100
AcDbLine
 10
-12.00240802453206
 20
-2.012040122660267
 30
0.0
 11
-11.99839465031197
 21
-2.008026748440173
 31
0.0
  0
LINE
  5
4E5
330
1F
100
AcDbEntity
  8
SK2
  6
CONTINUOUS
370
25
 62
7
100
AcDbLine
 10
-12.98864278393247
 20
-6.94321391966232
 30
0.0
 11
-12.93185670359479
 21
-7.0
 31
0.0
  0
LINE
  5
4E6
330
1F
100
AcDbEntity
  8
SK2
  6
CONTINUOUS
370
25
 62
7
100
AcDbLine
 10
-12.91793210581381
 20
-6.589660529069043
 30
0.0
 11
-12.50759263488285
 21
-7.0
 31
0.0
  0
LINE
  5
4E7
330
1F
100
AcDbEntity
  8
SK2
  6
CONTINUOUS
370
25
 62
7
100
AcDbLine
 10
-12.84722142769516
 20
-6.236107138475766
 30
0.0
 11
-12.08332856617093
 21
-7.0
 31
0.0
  0
LINE
  5
4E8
330
1F
100
AcDbEntity
  8
SK2
  6
CONTINUOUS
370
25
 62
7
100
AcDbLine
 10
-12.77651074957651
 20
-5.882553747882483
 30
0.0
 11
-11.65906449745899
 21
-7.0
 31
0.0
  0
LINE
  5
4E9
330
1F
100
AcDbEntity
  8
SK2
  6
CONTINUOUS
370
25
 62
7
100
AcDbLine
 10
-12.70580007145784
 20
-5.529000357289213
 30
0.0
 11
-11.23480042874706
 21
-7.0
 31
0.0
  0
LINE
  5
4EA
330
1F
100
AcDbEntity
  8
SK2
  6
CONTINUOUS
370
25
 62
7
100
AcDbLine
 10
-12.63508939333919
 20
-5.175446966695937
 30
0.0
 11
-11.04736590999122
 21
-6.763170450043901
 31
0.0
  0
LINE
  5
4EB
330
1F
100
AcDbEntity
  8
SK2
  6
CONTINUOUS
370
25
 62
7
100
AcDbLine
 10
-12.56437871522053
 20
-4.821893576102667
 30
0.0
 11
-11.1534319271692
 21
-6.232840364153994
 31
0.0
  0
LINE
  5
4EC
330
1F
100
AcDbEntity
  8
SK2
  6
CONTINUOUS
370
25
 62
7
100
AcDbLine
 10
-12.49366803710188
 20
-4.46834018550939
 30
0.0
 11
-11.25949794434718
 21
-5.702510278264086
 31
0.0
  0
LINE
  5
4ED
330
1F
100
AcDbEntity
  8
SK2
  6
CONTINUOUS
370
25
 62
7
100
AcDbLine
 10
-12.42295735898323
 20
-4.114786794916107
 30
0.0
 11
-11.36556396152517
 21
-5.172180192374164
 31
0.0
  0
LINE
  5
4EE
330
1F
100
AcDbEntity
  8
SK2
  6
CONTINUOUS
370
25
 62
7
100
AcDbLine
 10
-12.35224668086457
 20
-3.761233404322837
 30
0.0
 11
-11.47162997870315
 21
-4.641850106484256
 31
0.0
  0
LINE
  5
4EF
330
1F
100
AcDbEntity
  8
SK2
  6
CONTINUOUS
370
25
 62
7
100
AcDbLine
 10
-12.28153600274592
 20
-3.407680013729554
 30
0.0
 11
-11.57769599588114
 21
-4.111520020594334
 31
0.0
  0
LINE
  5
4F0
330
1F
100
AcDbEntity
  8
SK2
  6
CONTINUOUS
370
25
 62
7
100
AcDbLine
 10
-12.21082532462725
 20
-3.054126623136284
 30
0.0
 11
-11.68376201305912
 21
-3.581189934704412
 31
0.0
  0
LINE
  5
4F1
330
1F
100
AcDbEntity
  8
SK2
  6
CONTINUOUS
370
25
 62
7
100
AcDbLine
 10
-12.1401146465086
 20
-2.700573232543007
 30
0.0
 11
-11.7898280302371
 21
-3.050859848814504
 31
0.0
  0
LINE
  5
4F2
330
1F
100
AcDbEntity
  8
SK2
  6
CONTINUOUS
370
25
 62
7
100
AcDbLine
 10
-12.06940396838995
 20
-2.347019841949724
 30
0.0
 11
-11.89589404741508
 21
-2.520529762924589
 31
0.0
  0
LINE
  5
4F3
330
1F
100
AcDbEntity
  8
SK2
  6
CONTINUOUS
370
25
 62
7
100
AcDbLine
 10
-12.0
 20
2.0
 30
0.0
 11
-13.0
 21
7.0
 31
0.0
  0
LINE
  5
4F4
330
1F
100
AcDbEntity
  8
SK2
  6
CONTINUOUS
370
25
 62
7
100
AcDbLine
 10
-13.0
 20
7.0
 30
0.0
 11
-11.0
 21
7.0
 31
0.0
  0
LINE
  5
4F5
330
1F
100
AcDbEntity
  8
SK2
  6
CONTINUOUS
370
25
 62
7
100
AcDbLine
 10
-11.0
 20
7.0
 30
0.0
 11
-12.0
 21
2.0
 31
0.0
  0
LINE
  5
4F6
330
1F
100
AcDbEntity
  8
SK2
  6
CONTINUOUS
370
25
 62
7
100
AcDbLine
 10
-12.03883476483184
 20
2.194173824159201
 30
0.0
 11
-11.94174785275224
 21
2.291260736238797
 31
0.0
  0
LINE
  5
4F7
330
1F
100
AcDbEntity
  8
SK2
  6
CONTINUOUS
370
25
 62
7
100
AcDbLine
 10
-12.1095454429505
 20
2.54772721475247
 30
0.0
 11
-11.83568183557426
 21
2.821590822128705
 31
0.0
  0
LINE
  5
4F8
330
1F
100
AcDbEntity
  8
SK2
  6
CONTINUOUS
370
25
 62
7
100
AcDbLine
 10
-12.18025612106915
 20
2.901280605345754
 30
0.0
 11
-11.72961581839628
 21
3.35192090801862
 31
0.0
  0
LINE
  5
4F9
330
1F
100
AcDbEntity
  8
SK2
  6
CONTINUOUS
370
25
 62
7
100
AcDbLine
 10
-12.2509667991878
 20
3.25483399593903
 30
0.0
 11
-11.6235498012183
 21
3.882250993908528
 31
0.0
  0
LINE
  5
4FA
330
1F
100
AcDbEntity
  8
SK2
  6
CONTINUOUS
370
25
 62
7
100
AcDbLine
 10
-12.32167747730646
 20
3.6083873865323
 30
0.0
 11
-11.51748378404032
 21
4.412581079798443
 31
0.0
  0
LINE
  5
4FB
330
1F
100
AcDbEntity
  8
SK2
  6
CONTINUOUS
370
25
 62
7
100
AcDbLine
 10
-12.39238815542512
 20
3.961940777125569
 30
0.0
 11
-11.41141776686234
 21
4.942911165688351
 31
0.0
  0
LINE
  5
4FC
330
1F
100
AcDbEntity
  8
SK2
  6
CONTINUOUS
370
25
 62
7
100
AcDbLine
 10
-12.46309883354377
 20
4.315494167718846
 30
0.0
 11
-11.30535174968435
 21
5.473241251578273
 31
0.0
  0
LINE
  5
4FD
330
1F
100
AcDbEntity
  8
SK2
  6
CONTINUOUS
370
25
 62
7
100
AcDbLine
 10
-12.53380951166243
 20
4.66904755831213
 30
0.0
 11
-11.19928573250637
 21
6.003571337468188
 31
0.0
  0
LINE
  5
4FE
330
1F
100
AcDbEntity
  8
SK2
  6
CONTINUOUS
370
25
 62
7
100
AcDbLine
 10
-12.60452018978108
 20
5.022600948905406
 30
0.0
 11
-11.09321971532839
 21
6.533901423358095
 31
0.0
  0
LINE
  5
4FF
330
1F
100
AcDbEntity
  8
SK2
  6
CONTINUOUS
370
25
 62
7
100
AcDbLine
 10
-12.67523086789974
 20
5.376154339498683
 30
0.0
 11
-11.05138520739843
 21
7.0
 31
0.0
  0
LINE
  5
500
330
1F
100
AcDbEntity
  8
SK2
  6
CONTINUOUS
370
25
 62
7
100
AcDbLine
 10
-12.74594154601839
 20
5.72970773009196
 30
0.0
 11
-11.47564927611035
 21
7.0
 31
0.0
  0
LINE
  5
501
330
1F
100
AcDbEntity
  8
SK2
  6
CONTINUOUS
370
25
 62
7
100
AcDbLine
 10
-12.81665222413706
 20
6.083261120685229
 30
0.0
 11
-11.89991334482229
 21
7.0
 31
0.0
  0
LINE
  5
502
330
1F
100
AcDbEntity
  8
SK2
  6
CONTINUOUS
370
25
 62
7
100
AcDbLine
 10
-12.88736290225571
 20
6.436814511278506
 30
0.0
 11
-12.32417741353422
 21
7.0
 31
0.0
  0
LINE
  5
503
330
1F
100
AcDbEntity
  8
SK2
  6
CONTINUOUS
370
25
 62
7
100
AcDbLine
 10
-12.95807358037436
 20
6.79036790187179
 30
0.0
 11
-12.74844148224615
 21
7.0
 31
0.0
  0
LINE
  5
504
330
1F
100
AcDbEntity
  8
SK2
  6
CONTINUOUS
370
25
 62
7
100
AcDbLine
 10
-12.00178149771965
 20
2.00890748859824
 30
0.0
 11
-11.99881233485357
 21
2.00593832573216
 31
0.0
  0
LINE
  5
505
330
1F
100
AcDbEntity
  8
SK2
  6
CONTINUOUS
370
25
 62
7
100
AcDbLine
 10
-12.10784751489764
 20
2.539237574488162
 30
0.0
 11
-11.92810165673492
 21
2.359491716325444
 31
0.0
  0
LINE
  5
506
330
1F
100
AcDbEntity
  8
SK2
  6
CONTINUOUS
370
25
 62
7
100
AcDbLine
 10
-12.21391353207562
 20
3.06956766037807
 30
0.0
 11
-11.85739097861625
 21
2.713045106918706
 31
0.0
  0
LINE
  5
507
330
1F
100
AcDbEntity
  8
SK2
  6
CONTINUOUS
370
25
 62
7
100
AcDbLine
 10
-12.3199795492536
 20
3.599897746267992
 30
0.0
 11
-11.7866803004976
 21
3.06659849751199
 31
0.0
  0
LINE
  5
508
330
1F
100
AcDbEntity
  8
SK2
  6
CONTINUOUS
370
25
 62
7
100
AcDbLine
 10
-12.42604556643158
 20
4.1302278321579
 30
0.0
 11
-11.71596962237895
 21
3.420151888105266
 31
0.0
  0
LINE
  5
509
330
1F
100
AcDbEntity
  8
SK2
  6
CONTINUOUS
370
25
 62
7
100
AcDbLine
 10
-12.53211158360956
 20
4.660557918047814
 30
0.0
 11
-11.64525894426029
 21
3.773705278698543
 31
0.0
  0
LINE
  5
50A
330
1F
100
AcDbEntity
  8
SK2
  6
CONTINUOUS
370
25
 62
7
100
AcDbLine
 10
-12.63817760078755
 20
5.190888003937729
 30
0.0
 11
-11.57454826614164
 21
4.12725866929182
 31
0.0
  0
LINE
  5
50B
330
1F
100
AcDbEntity
  8
SK2
  6
CONTINUOUS
370
25
 62
7
100
AcDbLine
 10
-12.74424361796553
 20
5.721218089827637
 30
0.0
 11
-11.50383758802298
 21
4.480812059885096
 31
0.0
  0
LINE
  5
50C
330
1F
100
AcDbEntity
  8
SK2
  6
CONTINUOUS
370
25
 62
7
100
AcDbLine
 10
-12.85030963514351
 20
6.251548175717545
 30
0.0
 11
-11.43312690990433
 21
4.834365450478373
 31
0.0
  0
LINE
  5
50D
330
1F
100
AcDbEntity
  8
SK2
  6
CONTINUOUS
370
25
 62
7
100
AcDbLine
 10
-12.95637565232149
 20
6.78187826160746
 30
0.0
 11
-11.36241623178568
 21
5.187918841071657
 31
0.0
  0
LINE
  5
50E
330
1F
100
AcDbEntity
  8
SK2
  6
CONTINUOUS
370
25
 62
7
100
AcDbLine
 10
-12.7502333220021
 20
7.0
 30
0.0
 11
-11.29170555366701
 21
5.541472231664919
 31
0.0
  0
LINE
  5
50F
330
1F
100
AcDbEntity
  8
SK2
  6
CONTINUOUS
370
25
 62
7
100
AcDbLine
 10
-12.32596925329016
 20
7.0
 30
0.0
 11
-11.22099487554836
 21
5.895025622258203
 31
0.0
  0
LINE
  5
510
330
1F
100
AcDbEntity
  8
SK2
  6
CONTINUOUS
370
25
 62
7
100
AcDbLine
 10
-11.90170518457823
 20
7.0
 30
0.0
 11
-11.15028419742971
 21
6.248579012851472
 31
0.0
  0
LINE
  5
511
330
1F
100
AcDbEntity
  8
SK2
  6
CONTINUOUS
370
25
 62
7
100
AcDbLine
 10
-11.4774411158663
 20
7.0
 30
0.0
 11
-11.07957351931105
 21
6.602132403444756
 31
0.0
  0
LINE
  5
512
330
1F
100
AcDbEntity
  8
SK2
  6
CONTINUOUS
370
25
 62
7
100
AcDbLine
 10
-11.05317704715437
 20
7.0
 30
0.0
 11
-11.0088628411924
 21
6.955685794038033
 31
0.0
  0
TEXT
  5
513
330
1F
100
AcDbEntity
  8
SK2
  6
CONTINUOUS
370
25
 62
7
100
AcDbText
 10
-13.5
 20
12.34583333333333
 30
0.0
 40
3.5
  1
4
 50
90.00000000000001
 72
     1
 11
-13.5
 21
13.5125
 31
0.0
100
AcDbText
  0
CIRCLE
  5
514
330
1F
100
AcDbEntity
  8
SK2
  6
CONTINUOUS
370
25
 62
7
100
AcDbCircle
 10
-15.25
 20
10.1875
 30
0.0
 40
1.4
  0
LINE
  5
515
330
1F
100
AcDbEntity
  8
SK2
  6
CONTINUOUS
370
25
 62
7
100
AcDbLine
 10
-13.85
 20
8.787500000000001
 30
0.0
 11
-16.65
 21
11.5875
 31
0.0
  0
LINE
  5
516
330
1F
100
AcDbEntity
  8
SK2
  6
CONTINUOUS
370
25
 62
7
100
AcDbLine
 10
0.0
 20
2.0
 30
0.0
 11
0.0
 21
15.00001
 31
0.0
  0
LINE
  5
517
330
1F
100
AcDbEntity
  8
SK2
  6
CONTINUOUS
370
25
 62
7
100
AcDbLine
 10
38.8
 20
15.00001
 30
0.0
 11
38.8
 21
2.0
 31
0.0
  0
LINE
  5
518
330
1F
100
AcDbEntity
  8
SK2
  6
CONTINUOUS
370
25
 62
7
100
AcDbLine
 10
0.0
 20
14.00001
 30
0.0
 11
38.8
 21
14.00001
 31
0.0
  0
LINE
  5
519
330
1F
100
AcDbEntity
  8
SK2
  6
CONTINUOUS
370
25
 62
7
100
AcDbLine
 10
0.0
 20
14.00001
 30
0.0
 11
5.0
 21
15.00001
 31
0.0
  0
LINE
  5
51A
330
1F
100
AcDbEntity
  8
SK2
  6
CONTINUOUS
370
25
 62
7
100
AcDbLine
 10
5.0
 20
15.00001
 30
0.0
 11
5.0
 21
13.00001
 31
0.0
  0
LINE
  5
51B
330
1F
100
AcDbEntity
  8
SK2
  6
CONTINUOUS
370
25
 62
7
100
AcDbLine
 10
5.0
 20
13.00001
 30
0.0
 11
0.0
 21
14.00001
 31
0.0
  0
LINE
  5
51C
330
1F
100
AcDbEntity
  8
SK2
  6
CONTINUOUS
370
25
 62
7
100
AcDbLine
 10
4.75558197747997
 20
13.048893604504
 30
0.0
 11
5.0
 21
13.29331162702402
 31
0.0
  0
LINE
  5
51D
330
1F
100
AcDbEntity
  8
SK2
  6
CONTINUOUS
370
25
 62
7
100
AcDbLine
 10
4.402028586886701
 20
13.11960428262266
 30
0.0
 11
5.0
 21
13.71757569573596
 31
0.0
  0
LINE
  5
51E
330
1F
100
AcDbEntity
  8
SK2
  6
CONTINUOUS
370
25
 62
7
100
AcDbLine
 10
4.048475196293424
 20
13.19031496074131
 30
0.0
 11
5.0
 21
14.14183976444789
 31
0.0
  0
LINE
  5
51F
330
1F
100
AcDbEntity
  8
SK2
  6
CONTINUOUS
370
25
 62
7
100
AcDbLine
 10
3.69492180570014
 20
13.26102563885996
 30
0.0
 11
5.0
 21
14.56610383315982
 31
0.0
  0
LINE
  5
520
330
1F
100
AcDbEntity
  8
SK2
  6
CONTINUOUS
370
25
 62
7
100
AcDbLine
 10
3.341368415106878
 20
13.33173631697863
 30
0.0
 11
5.0
 21
14.99036790187174
 31
0.0
  0
LINE
  5
521
330
1F
100
AcDbEntity
  8
SK2
  6
CONTINUOUS
370
25
 62
7
100
AcDbLine
 10
2.987815024513601
 20
13.40244699509728
 30
0.0
 11
4.481722536770405
 21
14.89635450735408
 31
0.0
  0
LINE
  5
522
330
1F
100
AcDbEntity
  8
SK2
  6
CONTINUOUS
370
25
 62
7
100
AcDbLine
 10
2.634261633920325
 20
13.47315767321593
 30
0.0
 11
3.951392450880505
 21
14.79028849017611
 31
0.0
  0
LINE
  5
523
330
1F
100
AcDbEntity
  8
SK2
  6
CONTINUOUS
370
25
 62
7
100
AcDbLine
 10
2.280708243327041
 20
13.54386835133459
 30
0.0
 11
3.421062364990576
 21
14.68422247299812
 31
0.0
  0
LINE
  5
524
330
1F
100
AcDbEntity
  8
SK2
  6
CONTINUOUS
370
25
 62
7
100
AcDbLine
 10
1.927154852733779
 20
13.61457902945325
 30
0.0
 11
2.890732279100675
 21
14.57815645582014
 31
0.0
  0
LINE
  5
525
330
1F
100
AcDbEntity
  8
SK2
  6
CONTINUOUS
370
25
 62
7
100
AcDbLine
 10
1.573601462140495
 20
13.6852897075719
 30
0.0
 11
2.360402193210746
 21
14.47209043864215
 31
0.0
  0
LINE
  5
526
330
1F
100
AcDbEntity
  8
SK2
  6
CONTINUOUS
370
25
 62
7
100
AcDbLine
 10
1.220048071547218
 20
13.75600038569055
 30
0.0
 11
1.830072107320845
 21
14.36602442146418
 31
0.0
  0
LINE
  5
527
330
1F
100
AcDbEntity
  8
SK2
  6
CONTINUOUS
370
25
 62
7
100
AcDbLine
 10
0.8664946809539416
 20
13.82671106380921
 30
0.0
 11
1.29974202143093
 21
14.25995840428619
 31
0.0
  0
LINE
  5
528
330
1F
100
AcDbEntity
  8
SK2
  6
CONTINUOUS
370
25
 62
7
100
AcDbLine
 10
0.512941290360672
 20
13.89742174192786
 30
0.0
 11
0.7694119355410152
 21
14.15389238710821
 31
0.0
  0
LINE
  5
529
330
1F
100
AcDbEntity
  8
SK2
  6
CONTINUOUS
370
25
 62
7
100
AcDbLine
 10
0.1593878997673883
 20
13.96813242004652
 30
0.0
 11
0.2390818496510931
 21
14.04782636993022
 31
0.0
  0
LINE
  5
52A
330
1F
100
AcDbEntity
  8
SK2
  6
CONTINUOUS
370
25
 62
7
100
AcDbLine
 10
0.2069567858421877
 20
14.04140135716844
 30
0.0
 11
0.3104351787632851
 21
13.93792296424734
 31
0.0
  0
LINE
  5
52B
330
1F
100
AcDbEntity
  8
SK2
  6
CONTINUOUS
370
25
 62
7
100
AcDbLine
 10
0.5605101764354572
 20
14.1121120352871
 30
0.0
 11
0.8407652646532
 21
13.83185694706936
 31
0.0
  0
LINE
  5
52C
330
1F
100
AcDbEntity
  8
SK2
  6
CONTINUOUS
370
25
 62
7
100
AcDbLine
 10
0.9140635670287409
 20
14.18282271340575
 30
0.0
 11
1.371095350543115
 21
13.72579092989137
 31
0.0
  0
LINE
  5
52D
330
1F
100
AcDbEntity
  8
SK2
  6
CONTINUOUS
370
25
 62
7
100
AcDbLine
 10
1.267616957622018
 20
14.2535333915244
 30
0.0
 11
1.90142543643303
 21
13.61972491271339
 31
0.0
  0
LINE
  5
52E
330
1F
100
AcDbEntity
  8
SK2
  6
CONTINUOUS
370
25
 62
7
100
AcDbLine
 10
1.621170348215294
 20
14.32424406964306
 30
0.0
 11
2.431755522322938
 21
13.51365889553541
 31
0.0
  0
LINE
  5
52F
330
1F
100
AcDbEntity
  8
SK2
  6
CONTINUOUS
370
25
 62
7
100
AcDbLine
 10
1.974723738808571
 20
14.39495474776171
 30
0.0
 11
2.962085608212846
 21
13.40759287835743
 31
0.0
  0
LINE
  5
530
330
1F
100
AcDbEntity
  8
SK2
  6
CONTINUOUS
370
25
 62
7
100
AcDbLine
 10
2.328277129401833
 20
14.46566542588037
 30
0.0
 11
3.49241569410276
 21
13.30152686117945
 31
0.0
  0
LINE
  5
531
330
1F
100
AcDbEntity
  8
SK2
  6
CONTINUOUS
370
25
 62
7
100
AcDbLine
 10
2.68183051999511
 20
14.53637610399903
 30
0.0
 11
4.022745779992675
 21
13.19546084400146
 31
0.0
  0
LINE
  5
532
330
1F
100
AcDbEntity
  8
SK2
  6
CONTINUOUS
370
25
 62
7
100
AcDbLine
 10
3.035383910588386
 20
14.60708678211768
 30
0.0
 11
4.553075865882583
 21
13.08939482682348
 31
0.0
  0
LINE
  5
533
330
1F
100
AcDbEntity
  8
SK2
  6
CONTINUOUS
370
25
 62
7
100
AcDbLine
 10
3.388937301181663
 20
14.67779746023633
 30
0.0
 11
5.0
 21
13.06673476141799
 31
0.0
  0
LINE
  5
534
330
1F
100
AcDbEntity
  8
SK2
  6
CONTINUOUS
370
25
 62
7
100
AcDbLine
 10
3.74249069177494
 20
14.74850813835499
 30
0.0
 11
5.0
 21
13.49099883012993
 31
0.0
  0
LINE
  5
535
330
1F
100
AcDbEntity
  8
SK2
  6
CONTINUOUS
370
25
 62
7
100
AcDbLine
 10
4.096044082368209
 20
14.81921881647365
 30
0.0
 11
5.0
 21
13.91526289884185
 31
0.0
  0
LINE
  5
536
330
1F
100
AcDbEntity
  8
SK2
  6
CONTINUOUS
370
25
 62
7
100
AcDbLine
 10
4.449597472961486
 20
14.8899294945923
 30
0.0
 11
5.0
 21
14.33952696755379
 31
0.0
  0
LINE
  5
537
330
1F
100
AcDbEntity
  8
SK2
  6
CONTINUOUS
370
25
 62
7
100
AcDbLine
 10
4.803150863554755
 20
14.96064017271096
 30
0.0
 11
5.0
 21
14.76379103626571
 31
0.0
  0
LINE
  5
538
330
1F
100
AcDbEntity
  8
SK2
  6
CONTINUOUS
370
25
 62
7
100
AcDbLine
 10
38.8
 20
14.00001
 30
0.0
 11
33.8
 21
13.00001
 31
0.0
  0
LINE
  5
539
330
1F
100
AcDbEntity
  8
SK2
  6
CONTINUOUS
370
25
 62
7
100
AcDbLine
 10
33.8
 20
13.00001
 30
0.0
 11
33.8
 21
15.00001
 31
0.0
  0
LINE
  5
53A
330
1F
100
AcDbEntity
  8
SK2
  6
CONTINUOUS
370
25
 62
7
100
AcDbLine
 10
33.8
 20
15.00001
 30
0.0
 11
38.8
 21
14.00001
 31
0.0
  0
LINE
  5
53B
330
1F
100
AcDbEntity
  8
SK2
  6
CONTINUOUS
370
25
 62
7
100
AcDbLine
 10
38.79911966563294
 20
13.99983393312659
 30
0.0
 11
38.79941311042196
 21
14.00012737791561
 31
0.0
  0
LINE
  5
53C
330
1F
100
AcDbEntity
  8
SK2
  6
CONTINUOUS
370
25
 62
7
100
AcDbLine
 10
38.26878957974304
 20
13.89376791594861
 30
0.0
 11
38.44585971982869
 21
14.07083805603426
 31
0.0
  0
LINE
  5
53D
330
1F
100
AcDbEntity
  8
SK2
  6
CONTINUOUS
370
25
 62
7
100
AcDbLine
 10
37.73845949385313
 20
13.78770189877063
 30
0.0
 11
38.09230632923541
 21
14.14154873415292
 31
0.0
  0
LINE
  5
53E
330
1F
100
AcDbEntity
  8
SK2
  6
CONTINUOUS
370
25
 62
7
100
AcDbLine
 10
37.20812940796321
 20
13.68163588159264
 30
0.0
 11
37.73875293864214
 21
14.21225941227157
 31
0.0
  0
LINE
  5
53F
330
1F
100
AcDbEntity
  8
SK2
  6
CONTINUOUS
370
25
 62
7
100
AcDbLine
 10
36.67779932207331
 20
13.57556986441466
 30
0.0
 11
37.38519954804887
 21
14.28297009039023
 31
0.0
  0
LINE
  5
540
330
1F
100
AcDbEntity
  8
SK2
  6
CONTINUOUS
370
25
 62
7
100
AcDbLine
 10
36.1474692361834
 20
13.46950384723668
 30
0.0
 11
37.0316461574556
 21
14.35368076850888
 31
0.0
  0
LINE
  5
541
330
1F
100
AcDbEntity
  8
SK2
  6
CONTINUOUS
370
25
 62
7
100
AcDbLine
 10
35.61713915029348
 20
13.3634378300587
 30
0.0
 11
36.67809276686232
 21
14.42439144662753
 31
0.0
  0
LINE
  5
542
330
1F
100
AcDbEntity
  8
SK2
  6
CONTINUOUS
370
25
 62
7
100
AcDbLine
 10
35.08680906440357
 20
13.25737181288071
 30
0.0
 11
36.32453937626905
 21
14.49510212474619
 31
0.0
  0
LINE
  5
543
330
1F
100
AcDbEntity
  8
SK2
  6
CONTINUOUS
370
25
 62
7
100
AcDbLine
 10
34.55647897851367
 20
13.15130579570273
 30
0.0
 11
35.97098598567577
 21
14.56581280286484
 31
0.0
  0
LINE
  5
544
330
1F
100
AcDbEntity
  8
SK2
  6
CONTINUOUS
370
25
 62
7
100
AcDbLine
 10
34.02614889262376
 20
13.04523977852475
 30
0.0
 11
35.61743259508251
 21
14.6365234809835
 31
0.0
  0
LINE
  5
545
330
1F
100
AcDbEntity
  8
SK2
  6
CONTINUOUS
370
25
 62
7
100
AcDbLine
 10
33.8
 20
13.24335495461292
 30
0.0
 11
35.26387920448923
 21
14.70723415910215
 31
0.0
  0
LINE
  5
546
330
1F
100
AcDbEntity
  8
SK2
  6
CONTINUOUS
370
25
 62
7
100
AcDbLine
 10
33.8
 20
13.66761902332485
 30
0.0
 11
34.91032581389596
 21
14.77794483722081
 31
0.0
  0
LINE
  5
547
330
1F
100
AcDbEntity
  8
SK2
  6
CONTINUOUS
370
25
 62
7
100
AcDbLine
 10
33.8
 20
14.09188309203677
 30
0.0
 11
34.55677242330268
 21
14.84865551533946
 31
0.0
  0
LINE
  5
548
330
1F
100
AcDbEntity
  8
SK2
  6
CONTINUOUS
370
25
 62
7
100
AcDbLine
 10
33.8
 20
14.5161471607487
 30
0.0
 11
34.20321903270941
 21
14.91936619345812
 31
0.0
  0
LINE
  5
549
330
1F
100
AcDbEntity
  8
SK2
  6
CONTINUOUS
370
25
 62
7
100
AcDbLine
 10
33.8
 20
14.94041122946063
 30
0.0
 11
33.84966564211614
 21
14.99007687157677
 31
0.0
  0
LINE
  5
54A
330
1F
100
AcDbEntity
  8
SK2
  6
CONTINUOUS
370
25
 62
7
100
AcDbLine
 10
33.8
 20
13.06101730552664
 30
0.0
 11
33.8508394212722
 21
13.01017788425444
 31
0.0
  0
LINE
  5
54B
330
1F
100
AcDbEntity
  8
SK2
  6
CONTINUOUS
370
25
 62
7
100
AcDbLine
 10
33.8
 20
13.48528137423857
 30
0.0
 11
34.20439281186547
 21
13.08088856237309
 31
0.0
  0
LINE
  5
54C
330
1F
100
AcDbEntity
  8
SK2
  6
CONTINUOUS
370
25
 62
7
100
AcDbLine
 10
33.8
 20
13.9095454429505
 30
0.0
 11
34.55794620245874
 21
13.15159924049175
 31
0.0
  0
LINE
  5
54D
330
1F
100
AcDbEntity
  8
SK2
  6
CONTINUOUS
370
25
 62
7
100
AcDbLine
 10
33.8
 20
14.33380951166242
 30
0.0
 11
34.91149959305202
 21
13.2223099186104
 31
0.0
  0
LINE
  5
54E
330
1F
100
AcDbEntity
  8
SK2
  6
CONTINUOUS
370
25
 62
7
100
AcDbLine
 10
33.8
 20
14.75807358037435
 30
0.0
 11
35.26505298364529
 21
13.29302059672906
 31
0.0
  0
LINE
  5
54F
330
1F
100
AcDbEntity
  8
SK2
  6
CONTINUOUS
370
25
 62
7
100
AcDbLine
 10
34.02790956135784
 20
14.95442808772843
 30
0.0
 11
35.61860637423857
 21
13.36373127484771
 31
0.0
  0
LINE
  5
550
330
1F
100
AcDbEntity
  8
SK2
  6
CONTINUOUS
370
25
 62
7
100
AcDbLine
 10
34.55823964724776
 20
14.84836207055045
 30
0.0
 11
35.97215976483184
 21
13.43444195296637
 31
0.0
  0
LINE
  5
551
330
1F
100
AcDbEntity
  8
SK2
  6
CONTINUOUS
370
25
 62
7
100
AcDbLine
 10
35.08856973313767
 20
14.74229605337247
 30
0.0
 11
36.32571315542511
 21
13.50515263108502
 31
0.0
  0
LINE
  5
552
330
1F
100
AcDbEntity
  8
SK2
  6
CONTINUOUS
370
25
 62
7
100
AcDbLine
 10
35.61889981902758
 20
14.63623003619448
 30
0.0
 11
36.67926654601838
 21
13.57586330920368
 31
0.0
  0
LINE
  5
553
330
1F
100
AcDbEntity
  8
SK2
  6
CONTINUOUS
370
25
 62
7
100
AcDbLine
 10
36.14922990491748
 20
14.5301640190165
 30
0.0
 11
37.03281993661166
 21
13.64657398732233
 31
0.0
  0
LINE
  5
554
330
1F
100
AcDbEntity
  8
SK2
  6
CONTINUOUS
370
25
 62
7
100
AcDbLine
 10
36.6795599908074
 20
14.42409800183852
 30
0.0
 11
37.38637332720494
 21
13.71728466544099
 31
0.0
  0
LINE
  5
555
330
1F
100
AcDbEntity
  8
SK2
  6
CONTINUOUS
370
25
 62
7
100
AcDbLine
 10
37.20989007669731
 20
14.31803198466054
 30
0.0
 11
37.73992671779821
 21
13.78799534355964
 31
0.0
  0
LINE
  5
556
330
1F
100
AcDbEntity
  8
SK2
  6
CONTINUOUS
370
25
 62
7
100
AcDbLine
 10
37.74022016258722
 20
14.21196596748256
 30
0.0
 11
38.09348010839148
 21
13.8587060216783
 31
0.0
  0
LINE
  5
557
330
1F
100
AcDbEntity
  8
SK2
  6
CONTINUOUS
370
25
 62
7
100
AcDbLine
 10
38.27055024847713
 20
14.10589995030457
 30
0.0
 11
38.44703349898475
 21
13.92941669979695
 31
0.0
  0
TEXT
  5
558
330
1F
100
AcDbEntity
  8
SK2
  6
CONTINUOUS
370
25
 62
7
100
AcDbText
 10
14.15
 20
15.50001
 30
0.0
 40
3.5
  1
38.8
 72
     1
 11
19.4
 21
15.50001
 31
0.0
100
AcDbText
  0
LINE
  5
559
330
1F
100
AcDbEntity
  8
2
  6
CONTINUOUS
370
25
 62
7
100
AcDbLine
 10
59.59999999999999
 20
-0.4
 30
0.0
 11
80.0
 21
-0.4000000000000025
 31
0.0
  0
LINE
  5
55A
330
1F
100
AcDbEntity
  8
2
  6
CONTINUOUS
370
25
 62
7
100
AcDbLine
 10
80.0
 20
0.3999999999999976
 30
0.0
 11
59.6
 21
0.4000000000000001
 31
0.0
  0
LINE
  5
55B
330
1F
100
AcDbEntity
  8
2
  6
CONTINUOUS
370
25
 62
7
100
AcDbLine
 10
79.0
 20
-7.400000000000002
 30
0.0
 11
79.0
 21
19.825
 31
0.0
  0
LINE
  5
55C
330
1F
100
AcDbEntity
  8
2
  6
CONTINUOUS
370
25
 62
7
100
AcDbLine
 10
79.0
 20
-0.4000000000000024
 30
0.0
 11
80.0
 21
-5.400000000000002
 31
0.0
  0
LINE
  5
55D
330
1F
100
AcDbEntity
  8
2
  6
CONTINUOUS
370
25
 62
7
100
AcDbLine
 10
80.0
 20
-5.400000000000002
 30
0.0
 11
78.0
 21
-5.400000000000002
 31
0.0
  0
LINE
  5
55E
330
1F
100
AcDbEntity
  8
2
  6
CONTINUOUS
370
25
 62
7
100
AcDbLine
 10
78.0
 20
-5.400000000000002
 30
0.0
 11
79.0
 21
-0.4000000000000024
 31
0.0
  0
LINE
  5
55F
330
1F
100
AcDbEntity
  8
2
  6
CONTINUOUS
370
25
 62
7
100
AcDbLine
 10
79.61125062752879
 20
-5.400000000000006
 30
0.0
 11
79.93520843792146
 21
-5.076042189607321
 31
0.0
  0
LINE
  5
560
330
1F
100
AcDbEntity
  8
2
  6
CONTINUOUS
370
25
 62
7
100
AcDbLine
 10
79.18698655881684
 20
-5.400000000000006
 30
0.0
 11
79.86449775980282
 21
-4.722488799014045
 31
0.0
  0
LINE
  5
561
330
1F
100
AcDbEntity
  8
2
  6
CONTINUOUS
370
25
 62
7
100
AcDbLine
 10
78.76272249010492
 20
-5.399999999999999
 30
0.0
 11
79.79378708168414
 21
-4.368935408420775
 31
0.0
  0
LINE
  5
562
330
1F
100
AcDbEntity
  8
2
  6
CONTINUOUS
370
25
 62
7
100
AcDbLine
 10
78.33845842139299
 20
-5.400000000000006
 30
0.0
 11
79.7230764035655
 21
-4.015382017827491
 31
0.0
  0
LINE
  5
563
330
1F
100
AcDbEntity
  8
2
  6
CONTINUOUS
370
25
 62
7
100
AcDbLine
 10
78.02145141182973
 20
-5.292742940851326
 30
0.0
 11
79.65236572544684
 21
-3.661828627234215
 31
0.0
  0
LINE
  5
564
330
1F
100
AcDbEntity
  8
2
  6
CONTINUOUS
370
25
 62
7
100
AcDbLine
 10
78.12751742900772
 20
-4.762412854961418
 30
0.0
 11
79.58165504732818
 21
-3.308275236640938
 31
0.0
  0
LINE
  5
565
330
1F
100
AcDbEntity
  8
2
  6
CONTINUOUS
370
25
 62
7
100
AcDbLine
 10
78.23358344618569
 20
-4.232082769071503
 30
0.0
 11
79.51094436920954
 21
-2.954721846047661
 31
0.0
  0
LINE
  5
566
330
1F
100
AcDbEntity
  8
2
  6
CONTINUOUS
370
25
 62
7
100
AcDbLine
 10
78.33964946336368
 20
-3.701752683181589
 30
0.0
 11
79.44023369109087
 21
-2.601168455454392
 31
0.0
  0
LINE
  5
567
330
1F
100
AcDbEntity
  8
2
  6
CONTINUOUS
370
25
 62
7
100
AcDbLine
 10
78.44571548054166
 20
-3.171422597291667
 30
0.0
 11
79.36952301297222
 21
-2.247615064861115
 31
0.0
  0
LINE
  5
568
330
1F
100
AcDbEntity
  8
2
  6
CONTINUOUS
370
25
 62
7
100
AcDbLine
 10
78.55178149771965
 20
-2.641092511401745
 30
0.0
 11
79.29881233485355
 21
-1.894061674267839
 31
0.0
  0
LINE
  5
569
330
1F
100
AcDbEntity
  8
2
  6
CONTINUOUS
370
25
 62
7
100
AcDbLine
 10
78.65784751489764
 20
-2.110762425511837
 30
0.0
 11
79.2281016567349
 21
-1.540508283674562
 31
0.0
  0
LINE
  5
56A
330
1F
100
AcDbEntity
  8
2
  6
CONTINUOUS
370
25
 62
7
100
AcDbLine
 10
78.7639135320756
 20
-1.580432339621929
 30
0.0
 11
79.15739097861625
 21
-1.186954893081293
 31
0.0
  0
LINE
  5
56B
330
1F
100
AcDbEntity
  8
2
  6
CONTINUOUS
370
25
 62
7
100
AcDbLine
 10
78.8699795492536
 20
-1.050102253732014
 30
0.0
 11
79.08668030049759
 21
-0.8334015024880088
 31
0.0
  0
LINE
  5
56C
330
1F
100
AcDbEntity
  8
2
  6
CONTINUOUS
370
25
 62
7
100
AcDbLine
 10
78.97604556643158
 20
-0.5197721678420919
 30
0.0
 11
79.01596962237895
 21
-0.4798481118947322
 31
0.0
  0
LINE
  5
56D
330
1F
100
AcDbEntity
  8
2
  6
CONTINUOUS
370
25
 62
7
100
AcDbLine
 10
78.02352091615904
 20
-5.282395419204775
 30
0.0
 11
78.14112549695427
 21
-5.400000000000006
 31
0.0
  0
LINE
  5
56E
330
1F
100
AcDbEntity
  8
2
  6
CONTINUOUS
370
25
 62
7
100
AcDbLine
 10
78.09423159427769
 20
-4.928842028611498
 30
0.0
 11
78.5653895656662
 21
-5.399999999999999
 31
0.0
  0
LINE
  5
56F
330
1F
100
AcDbEntity
  8
2
  6
CONTINUOUS
370
25
 62
7
100
AcDbLine
 10
78.16494227239636
 20
-4.575288638018229
 30
0.0
 11
78.98965363437813
 21
-5.400000000000006
 31
0.0
  0
LINE
  5
570
330
1F
100
AcDbEntity
  8
2
  6
CONTINUOUS
370
25
 62
7
100
AcDbLine
 10
78.235652950515
 20
-4.221735247424959
 30
0.0
 11
79.41391770309005
 21
-5.399999999999999
 31
0.0
  0
LINE
  5
571
330
1F
100
AcDbEntity
  8
2
  6
CONTINUOUS
370
25
 62
7
100
AcDbLine
 10
78.30636362863366
 20
-3.868181856831676
 30
0.0
 11
79.83818177180198
 21
-5.399999999999999
 31
0.0
  0
LINE
  5
572
330
1F
100
AcDbEntity
  8
2
  6
CONTINUOUS
370
25
 62
7
100
AcDbLine
 10
78.37707430675232
 20
-3.514628466238399
 30
0.0
 11
79.93438853987152
 21
-5.071942699357592
 31
0.0
  0
LINE
  5
573
330
1F
100
AcDbEntity
  8
2
  6
CONTINUOUS
370
25
 62
7
100
AcDbLine
 10
78.44778498487096
 20
-3.161075075645122
 30
0.0
 11
79.82832252269353
 21
-4.541612613467684
 31
0.0
  0
LINE
  5
574
330
1F
100
AcDbEntity
  8
2
  6
CONTINUOUS
370
25
 62
7
100
AcDbLine
 10
78.51849566298964
 20
-2.807521685051846
 30
0.0
 11
79.72225650551556
 21
-4.011282527577769
 31
0.0
  0
LINE
  5
575
330
1F
100
AcDbEntity
  8
2
  6
CONTINUOUS
370
25
 62
7
100
AcDbLine
 10
78.58920634110828
 20
-2.453968294458576
 30
0.0
 11
79.61619048833757
 21
-3.480952441687855
 31
0.0
  0
LINE
  5
576
330
1F
100
AcDbEntity
  8
2
  6
CONTINUOUS
370
25
 62
7
100
AcDbLine
 10
78.65991701922694
 20
-2.100414903865286
 30
0.0
 11
79.51012447115959
 21
-2.950622355797933
 31
0.0
  0
LINE
  5
577
330
1F
100
AcDbEntity
  8
2
  6
CONTINUOUS
370
25
 62
7
100
AcDbLine
 10
78.7306276973456
 20
-1.746861513272009
 30
0.0
 11
79.4040584539816
 21
-2.420292269908025
 31
0.0
  0
LINE
  5
578
330
1F
100
AcDbEntity
  8
2
  6
CONTINUOUS
370
25
 62
7
100
AcDbLine
 10
78.80133837546425
 20
-1.393308122678739
 30
0.0
 11
79.29799243680361
 21
-1.889962184018103
 31
0.0
  0
LINE
  5
579
330
1F
100
AcDbEntity
  8
2
  6
CONTINUOUS
370
25
 62
7
100
AcDbLine
 10
78.87204905358291
 20
-1.039754732085456
 30
0.0
 11
79.19192641962564
 21
-1.359632098128188
 31
0.0
  0
LINE
  5
57A
330
1F
100
AcDbEntity
  8
2
  6
CONTINUOUS
370
25
 62
7
100
AcDbLine
 10
78.94275973170156
 20
-0.6862013414921861
 30
0.0
 11
79.08586040244765
 21
-0.829302012238287
 31
0.0
  0
LINE
  5
57B
330
1F
100
AcDbEntity
  8
2
  6
CONTINUOUS
370
25
 62
7
100
AcDbLine
 10
79.0
 20
0.3999999999999977
 30
0.0
 11
78.0
 21
5.399999999999998
 31
0.0
  0
LINE
  5
57C
330
1F
100
AcDbEntity
  8
2
  6
CONTINUOUS
370
25
 62
7
100
AcDbLine
 10
78.0
 20
5.399999999999998
 30
0.0
 11
80.0
 21
5.399999999999998
 31
0.0
  0
LINE
  5
57D
330
1F
100
AcDbEntity
  8
2
  6
CONTINUOUS
370
25
 62
7
100
AcDbLine
 10
80.0
 20
5.399999999999998
 30
0.0
 11
79.0
 21
0.3999999999999977
 31
0.0
  0
LINE
  5
57E
330
1F
100
AcDbEntity
  8
2
  6
CONTINUOUS
370
25
 62
7
100
AcDbLine
 10
78.98373657534532
 20
0.4813171232733922
 30
0.0
 11
79.02439513698201
 21
0.5219756849100889
 31
0.0
  0
LINE
  5
57F
330
1F
100
AcDbEntity
  8
2
  6
CONTINUOUS
370
25
 62
7
100
AcDbLine
 10
78.91302589722667
 20
0.8348705138666688
 30
0.0
 11
79.13046115416
 21
1.052305770799997
 31
0.0
  0
LINE
  5
580
330
1F
100
AcDbEntity
  8
2
  6
CONTINUOUS
370
25
 62
7
100
AcDbLine
 10
78.842315219108
 20
1.188423904459945
 30
0.0
 11
79.23652717133798
 21
1.582635856689919
 31
0.0
  0
LINE
  5
581
330
1F
100
AcDbEntity
  8
2
  6
CONTINUOUS
370
25
 62
7
100
AcDbLine
 10
78.77160454098936
 20
1.541977295053215
 30
0.0
 11
79.34259318851596
 21
2.112965942579827
 31
0.0
  0
LINE
  5
582
330
1F
100
AcDbEntity
  8
2
  6
CONTINUOUS
370
25
 62
7
100
AcDbLine
 10
78.70089386287069
 20
1.895530685646492
 30
0.0
 11
79.44865920569396
 21
2.643296028469749
 31
0.0
  0
LINE
  5
583
330
1F
100
AcDbEntity
  8
2
  6
CONTINUOUS
370
25
 62
7
100
AcDbLine
 10
78.63018318475204
 20
2.249084076239768
 30
0.0
 11
79.55472522287192
 21
3.173626114359656
 31
0.0
  0
LINE
  5
584
330
1F
100
AcDbEntity
  8
2
  6
CONTINUOUS
370
25
 62
7
100
AcDbLine
 10
78.55947250663338
 20
2.602637466833045
 30
0.0
 11
79.66079124004992
 21
3.703956200249579
 31
0.0
  0
LINE
  5
585
330
1F
100
AcDbEntity
  8
2
  6
CONTINUOUS
370
25
 62
7
100
AcDbLine
 10
78.48876182851473
 20
2.956190857426321
 30
0.0
 11
79.76685725722788
 21
4.234286286139479
 31
0.0
  0
LINE
  5
586
330
1F
100
AcDbEntity
  8
2
  6
CONTINUOUS
370
25
 62
7
100
AcDbLine
 10
78.41805115039608
 20
3.309744248019605
 30
0.0
 11
79.87292327440588
 21
4.764616372029394
 31
0.0
  0
LINE
  5
587
330
1F
100
AcDbEntity
  8
2
  6
CONTINUOUS
370
25
 62
7
100
AcDbLine
 10
78.34734047227742
 20
3.663297638612882
 30
0.0
 11
79.97898929158386
 21
5.294946457919316
 31
0.0
  0
LINE
  5
588
330
1F
100
AcDbEntity
  8
2
  6
CONTINUOUS
370
25
 62
7
100
AcDbLine
 10
78.27662979415877
 20
4.016851029206151
 30
0.0
 11
79.65977876495262
 21
5.399999999999999
 31
0.0
  0
LINE
  5
589
330
1F
100
AcDbEntity
  8
2
  6
CONTINUOUS
370
25
 62
7
100
AcDbLine
 10
78.20591911604012
 20
4.370404419799435
 30
0.0
 11
79.23551469624067
 21
5.399999999999999
 31
0.0
  0
LINE
  5
58A
330
1F
100
AcDbEntity
  8
2
  6
CONTINUOUS
370
25
 62
7
100
AcDbLine
 10
78.13520843792145
 20
4.723957810392704
 30
0.0
 11
78.81125062752875
 21
5.399999999999999
 31
0.0
  0
LINE
  5
58B
330
1F
100
AcDbEntity
  8
2
  6
CONTINUOUS
370
25
 62
7
100
AcDbLine
 10
78.0644977598028
 20
5.077511200985981
 30
0.0
 11
78.38698655881682
 21
5.399999999999999
 31
0.0
  0
LINE
  5
58C
330
1F
100
AcDbEntity
  8
2
  6
CONTINUOUS
370
25
 62
7
100
AcDbLine
 10
78.96766235091371
 20
0.5616882454314052
 30
0.0
 11
79.02155843272419
 21
0.507792163620941
 31
0.0
  0
LINE
  5
58D
330
1F
100
AcDbEntity
  8
2
  6
CONTINUOUS
370
25
 62
7
100
AcDbLine
 10
78.86159633373573
 20
1.092018331321327
 30
0.0
 11
79.09226911084284
 21
0.8613455542142177
 31
0.0
  0
LINE
  5
58E
330
1F
100
AcDbEntity
  8
2
  6
CONTINUOUS
370
25
 62
7
100
AcDbLine
 10
78.75553031655775
 20
1.622348417211249
 30
0.0
 11
79.16297978896151
 21
1.214898944807494
 31
0.0
  0
LINE
  5
58F
330
1F
100
AcDbEntity
  8
2
  6
CONTINUOUS
370
25
 62
7
100
AcDbLine
 10
78.64946429937976
 20
2.152678503101157
 30
0.0
 11
79.23369046708015
 21
1.568452335400771
 31
0.0
  0
LINE
  5
590
330
1F
100
AcDbEntity
  8
2
  6
CONTINUOUS
370
25
 62
7
100
AcDbLine
 10
78.54339828220179
 20
2.683008588991072
 30
0.0
 11
79.30440114519881
 21
1.922005725994048
 31
0.0
  0
LINE
  5
591
330
1F
100
AcDbEntity
  8
2
  6
CONTINUOUS
370
25
 62
7
100
AcDbLine
 10
78.4373322650238
 20
3.213338674880987
 30
0.0
 11
79.37511182331747
 21
2.275559116587317
 31
0.0
  0
LINE
  5
592
330
1F
100
AcDbEntity
  8
2
  6
CONTINUOUS
370
25
 62
7
100
AcDbLine
 10
78.33126624784582
 20
3.743668760770902
 30
0.0
 11
79.44582250143611
 21
2.629112507180601
 31
0.0
  0
LINE
  5
593
330
1F
100
AcDbEntity
  8
2
  6
CONTINUOUS
370
25
 62
7
100
AcDbLine
 10
78.22520023066784
 20
4.273998846660824
 30
0.0
 11
79.51653317955478
 21
2.982665897773877
 31
0.0
  0
LINE
  5
594
330
1F
100
AcDbEntity
  8
2
  6
CONTINUOUS
370
25
 62
7
100
AcDbLine
 10
78.11913421348986
 20
4.804328932550725
 30
0.0
 11
79.58724385767343
 21
3.336219288367161
 31
0.0
  0
LINE
  5
595
330
1F
100
AcDbEntity
  8
2
  6
CONTINUOUS
370
25
 62
7
100
AcDbLine
 10
78.01306819631188
 20
5.334659018440647
 30
0.0
 11
79.65795453579209
 21
3.689772678960431
 31
0.0
  0
LINE
  5
596
330
1F
100
AcDbEntity
  8
2
  6
CONTINUOUS
370
25
 62
7
100
AcDbLine
 10
78.37199128346444
 20
5.399999999999999
 30
0.0
 11
79.72866521391074
 21
4.0433260695537
 31
0.0
  0
LINE
  5
597
330
1F
100
AcDbEntity
  8
2
  6
CONTINUOUS
370
25
 62
7
100
AcDbLine
 10
78.79625535217639
 20
5.399999999999999
 30
0.0
 11
79.79937589202939
 21
4.396879460146984
 31
0.0
  0
LINE
  5
598
330
1F
100
AcDbEntity
  8
2
  6
CONTINUOUS
370
25
 62
7
100
AcDbLine
 10
79.22051942088831
 20
5.399999999999999
 30
0.0
 11
79.87008657014805
 21
4.75043285074026
 31
0.0
  0
LINE
  5
599
330
1F
100
AcDbEntity
  8
2
  6
CONTINUOUS
370
25
 62
7
100
AcDbLine
 10
79.64478348960024
 20
5.399999999999999
 30
0.0
 11
79.9407972482667
 21
5.103986241333537
 31
0.0
  0
TEXT
  5
59A
330
1F
100
AcDbEntity
  8
2
  6
CONTINUOUS
370
25
 62
7
100
AcDbText
 10
77.5
 20
11.67916666666666
 30
0.0
 40
3.5
  1
0.8
 50
90.00000000000001
 72
     1
 11
77.5
 21
14.8875
 31
0.0
100
AcDbText
  0
CIRCLE
  5
59B
330
1F
100
AcDbEntity
  8
2
  6
CONTINUOUS
370
25
 62
7
100
AcDbCircle
 10
75.75
 20
8.412499999999996
 30
0.0
 40
1.4
  0
LINE
  5
59C
330
1F
100
AcDbEntity
  8
2
  6
CONTINUOUS
370
25
 62
7
100
AcDbLine
 10
77.15
 20
7.012499999999997
 30
0.0
 11
74.35
 21
9.812499999999996
 31
0.0
  0
LINE
  5
59D
330
1F
100
AcDbEntity
  8
2
  6
CONTINUOUS
370
25
 62
7
100
AcDbLine
 10
58.8
 20
-0.36995
 30
0.0
 11
55.8
 21
-0.3699499999999996
 31
0.0
  0
LINE
  5
59E
330
1F
100
AcDbEntity
  8
2
  6
CONTINUOUS
370
25
 62
7
100
AcDbLine
 10
55.8
 20
0.3699500000000004
 30
0.0
 11
58.8
 21
0.36995
 31
0.0
  0
LINE
  5
59F
330
1F
100
AcDbEntity
  8
2
  6
CONTINUOUS
370
25
 62
7
100
AcDbLine
 10
56.8
 20
-7.369949999999999
 30
0.0
 11
56.8
 21
22.76995
 31
0.0
  0
LINE
  5
5A0
330
1F
100
AcDbEntity
  8
2
  6
CONTINUOUS
370
25
 62
7
100
AcDbLine
 10
56.8
 20
-0.3699499999999997
 30
0.0
 11
57.8
 21
-5.369949999999999
 31
0.0
  0
LINE
  5
5A1
330
1F
100
AcDbEntity
  8
2
  6
CONTINUOUS
370
25
 62
7
100
AcDbLine
 10
57.8
 20
-5.369949999999999
 30
0.0
 11
55.8
 21
-5.369949999999999
 31
0.0
  0
LINE
  5
5A2
330
1F
100
AcDbEntity
  8
2
  6
CONTINUOUS
370
25
 62
7
100
AcDbLine
 10
55.8
 20
-5.369949999999999
 30
0.0
 11
56.8
 21
-0.3699499999999997
 31
0.0
  0
LINE
  5
5A3
330
1F
100
AcDbEntity
  8
2
  6
CONTINUOUS
370
25
 62
7
100
AcDbLine
 10
57.66719626926099
 20
-5.369949999999999
 30
0.0
 11
57.77786604487683
 21
-5.259280224384163
 31
0.0
  0
LINE
  5
5A4
330
1F
100
AcDbEntity
  8
2
  6
CONTINUOUS
370
25
 62
7
100
AcDbLine
 10
57.24293220054906
 20
-5.369949999999999
 30
0.0
 11
57.70715536675817
 21
-4.905726833790887
 31
0.0
  0
LINE
  5
5A5
330
1F
100
AcDbEntity
  8
2
  6
CONTINUOUS
370
25
 62
7
100
AcDbLine
 10
56.81866813183714
 20
-5.369949999999999
 30
0.0
 11
57.63644468863951
 21
-4.552173443197617
 31
0.0
  0
LINE
  5
5A6
330
1F
100
AcDbEntity
  8
2
  6
CONTINUOUS
370
25
 62
7
100
AcDbLine
 10
56.39440406312521
 20
-5.369949999999999
 30
0.0
 11
57.56573401052087
 21
-4.19862005260434
 31
0.0
  0
LINE
  5
5A7
330
1F
100
AcDbEntity
  8
2
  6
CONTINUOUS
370
25
 62
7
100
AcDbLine
 10
55.97013999441328
 20
-5.369949999999999
 30
0.0
 11
57.49502333240221
 21
-3.845066662011067
 31
0.0
  0
LINE
  5
5A8
330
1F
100
AcDbEntity
  8
2
  6
CONTINUOUS
370
25
 62
7
100
AcDbLine
 10
55.86353101857466
 20
-5.052294907126694
 30
0.0
 11
57.42431265428355
 21
-3.491513271417794
 31
0.0
  0
LINE
  5
5A9
330
1F
100
AcDbEntity
  8
2
  6
CONTINUOUS
370
25
 62
7
100
AcDbLine
 10
55.96959703575264
 20
-4.521964821236782
 30
0.0
 11
57.3536019761649
 21
-3.137959880824525
 31
0.0
  0
LINE
  5
5AA
330
1F
100
AcDbEntity
  8
2
  6
CONTINUOUS
370
25
 62
7
100
AcDbLine
 10
56.07566305293062
 20
-3.991634735346874
 30
0.0
 11
57.28289129804625
 21
-2.784406490231248
 31
0.0
  0
LINE
  5
5AB
330
1F
100
AcDbEntity
  8
2
  6
CONTINUOUS
370
25
 62
7
100
AcDbLine
 10
56.1817290701086
 20
-3.461304649456959
 30
0.0
 11
57.21218061992759
 21
-2.430853099637972
 31
0.0
  0
LINE
  5
5AC
330
1F
100
AcDbEntity
  8
2
  6
CONTINUOUS
370
25
 62
7
100
AcDbLine
 10
56.28779508728659
 20
-2.930974563567048
 30
0.0
 11
57.14146994180894
 21
-2.077299709044699
 31
0.0
  0
LINE
  5
5AD
330
1F
100
AcDbEntity
  8
2
  6
CONTINUOUS
370
25
 62
7
100
AcDbLine
 10
56.39386110446458
 20
-2.400644477677137
 30
0.0
 11
57.07075926369028
 21
-1.723746318451429
 31
0.0
  0
LINE
  5
5AE
330
1F
100
AcDbEntity
  8
2
  6
CONTINUOUS
370
25
 62
7
100
AcDbLine
 10
56.49992712164256
 20
-1.870314391787229
 30
0.0
 11
57.00004858557163
 21
-1.370192927858152
 31
0.0
  0
LINE
  5
5AF
330
1F
100
AcDbEntity
  8
2
  6
CONTINUOUS
370
25
 62
7
100
AcDbLine
 10
56.60599313882054
 20
-1.339984305897321
 30
0.0
 11
56.92933790745298
 21
-1.016639537264879
 31
0.0
  0
LINE
  5
5B0
330
1F
100
AcDbEntity
  8
2
  6
CONTINUOUS
370
25
 62
7
100
AcDbLine
 10
56.71205915599852
 20
-0.8096542200074168
 30
0.0
 11
56.85862722933432
 21
-0.6630861466716098
 31
0.0
  0
LINE
  5
5B1
330
1F
100
AcDbEntity
  8
2
  6
CONTINUOUS
370
25
 62
7
100
AcDbLine
 10
55.84155732065567
 20
-5.162163396721638
 30
0.0
 11
56.04934392393403
 21
-5.369949999999999
 31
0.0
  0
LINE
  5
5B2
330
1F
100
AcDbEntity
  8
2
  6
CONTINUOUS
370
25
 62
7
100
AcDbLine
 10
55.91226799877433
 20
-4.808610006128362
 30
0.0
 11
56.47360799264596
 21
-5.369949999999999
 31
0.0
  0
LINE
  5
5B3
330
1F
100
AcDbEntity
  8
2
  6
CONTINUOUS
370
25
 62
7
100
AcDbLine
 10
55.98297867689298
 20
-4.455056615535092
 30
0.0
 11
56.89787206135789
 21
-5.369949999999999
 31
0.0
  0
LINE
  5
5B4
330
1F
100
AcDbEntity
  8
2
  6
CONTINUOUS
370
25
 62
7
100
AcDbLine
 10
56.05368935501163
 20
-4.101503224941817
 30
0.0
 11
57.32213613006981
 21
-5.369949999999998
 31
0.0
  0
LINE
  5
5B5
330
1F
100
AcDbEntity
  8
2
  6
CONTINUOUS
370
25
 62
7
100
AcDbLine
 10
56.12440003313029
 20
-3.747949834348546
 30
0.0
 11
57.74640019878174
 21
-5.369949999999999
 31
0.0
  0
LINE
  5
5B6
330
1F
100
AcDbEntity
  8
2
  6
CONTINUOUS
370
25
 62
7
100
AcDbLine
 10
56.19511071124894
 20
-3.394396443755273
 30
0.0
 11
57.70733393312658
 21
-4.906619665632906
 31
0.0
  0
LINE
  5
5B7
330
1F
100
AcDbEntity
  8
2
  6
CONTINUOUS
370
25
 62
7
100
AcDbLine
 10
56.2658213893676
 20
-3.040843053162
 30
0.0
 11
57.6012679159486
 21
-4.376289579742998
 31
0.0
  0
LINE
  5
5B8
330
1F
100
AcDbEntity
  8
2
  6
CONTINUOUS
370
25
 62
7
100
AcDbLine
 10
56.33653206748625
 20
-2.687289662568725
 30
0.0
 11
57.49520189877062
 21
-3.845959493853085
 31
0.0
  0
LINE
  5
5B9
330
1F
100
AcDbEntity
  8
2
  6
CONTINUOUS
370
25
 62
7
100
AcDbLine
 10
56.4072427456049
 20
-2.333736271975452
 30
0.0
 11
57.38913588159264
 21
-3.315629407963177
 31
0.0
  0
LINE
  5
5BA
330
1F
100
AcDbEntity
  8
2
  6
CONTINUOUS
370
25
 62
7
100
AcDbLine
 10
56.47795342372356
 20
-1.980182881382179
 30
0.0
 11
57.28306986441465
 21
-2.785299322073266
 31
0.0
  0
LINE
  5
5BB
330
1F
100
AcDbEntity
  8
2
  6
CONTINUOUS
370
25
 62
7
100
AcDbLine
 10
56.54866410184222
 20
-1.626629490788904
 30
0.0
 11
57.17700384723667
 21
-2.254969236183356
 31
0.0
  0
LINE
  5
5BC
330
1F
100
AcDbEntity
  8
2
  6
CONTINUOUS
370
25
 62
7
100
AcDbLine
 10
56.61937477996087
 20
-1.273076100195631
 30
0.0
 11
57.07093783005868
 21
-1.724639150293445
 31
0.0
  0
LINE
  5
5BD
330
1F
100
AcDbEntity
  8
2
  6
CONTINUOUS
370
25
 62
7
100
AcDbLine
 10
56.69008545807952
 20
-0.9195227096023579
 30
0.0
 11
56.9648718128807
 21
-1.194309064403537
 31
0.0
  0
LINE
  5
5BE
330
1F
100
AcDbEntity
  8
2
  6
CONTINUOUS
370
25
 62
7
100
AcDbLine
 10
56.76079613619818
 20
-0.5659693190090813
 30
0.0
 11
56.85880579570272
 21
-0.6639789785136223
 31
0.0
  0
LINE
  5
5BF
330
1F
100
AcDbEntity
  8
2
  6
CONTINUOUS
370
25
 62
7
100
AcDbLine
 10
56.8
 20
0.3699500000000003
 30
0.0
 11
55.8
 21
5.36995
 31
0.0
  0
LINE
  5
5C0
330
1F
100
AcDbEntity
  8
2
  6
CONTINUOUS
370
25
 62
7
100
AcDbLine
 10
55.8
 20
5.36995
 30
0.0
 11
57.8
 21
5.36995
 31
0.0
  0
LINE
  5
5C1
330
1F
100
AcDbEntity
  8
2
  6
CONTINUOUS
370
25
 62
7
100
AcDbLine
 10
57.8
 20
5.36995
 30
0.0
 11
56.8
 21
0.3699500000000003
 31
0.0
  0
LINE
  5
5C2
330
1F
100
AcDbEntity
  8
2
  6
CONTINUOUS
370
25
 62
7
100
AcDbLine
 10
56.7657001708487
 20
0.5414491457564985
 30
0.0
 11
56.85144974372695
 21
0.6271987186347445
 31
0.0
  0
LINE
  5
5C3
330
1F
100
AcDbEntity
  8
2
  6
CONTINUOUS
370
25
 62
7
100
AcDbLine
 10
56.69498949273004
 20
0.895002536349768
 30
0.0
 11
56.95751576090493
 21
1.157528804524656
 31
0.0
  0
LINE
  5
5C4
330
1F
100
AcDbEntity
  8
2
  6
CONTINUOUS
370
25
 62
7
100
AcDbLine
 10
56.62427881461139
 20
1.248555926943041
 30
0.0
 11
57.06358177808291
 21
1.687858890414567
 31
0.0
  0
LINE
  5
5C5
330
1F
100
AcDbEntity
  8
2
  6
CONTINUOUS
370
25
 62
7
100
AcDbLine
 10
56.55356813649274
 20
1.602109317536314
 30
0.0
 11
57.16964779526089
 21
2.218188976304468
 31
0.0
  0
LINE
  5
5C6
330
1F
100
AcDbEntity
  8
2
  6
CONTINUOUS
370
25
 62
7
100
AcDbLine
 10
56.48285745837408
 20
1.955662708129589
 30
0.0
 11
57.27571381243887
 21
2.748519062194381
 31
0.0
  0
LINE
  5
5C7
330
1F
100
AcDbEntity
  8
2
  6
CONTINUOUS
370
25
 62
7
100
AcDbLine
 10
56.41214678025543
 20
2.309216098722862
 30
0.0
 11
57.38177982961685
 21
3.278849148084289
 31
0.0
  0
LINE
  5
5C8
330
1F
100
AcDbEntity
  8
2
  6
CONTINUOUS
370
25
 62
7
100
AcDbLine
 10
56.34143610213677
 20
2.662769489316137
 30
0.0
 11
57.48784584679484
 21
3.809179233974202
 31
0.0
  0
LINE
  5
5C9
330
1F
100
AcDbEntity
  8
2
  6
CONTINUOUS
370
25
 62
7
100
AcDbLine
 10
56.27072542401812
 20
3.01632287990941
 30
0.0
 11
57.59391186397282
 21
4.33950931986411
 31
0.0
  0
LINE
  5
5CA
330
1F
100
AcDbEntity
  8
2
  6
CONTINUOUS
370
25
 62
7
100
AcDbLine
 10
56.20001474589947
 20
3.369876270502683
 30
0.0
 11
57.6999778811508
 21
4.869839405754021
 31
0.0
  0
LINE
  5
5CB
330
1F
100
AcDbEntity
  8
2
  6
CONTINUOUS
370
25
 62
7
100
AcDbLine
 10
56.12930406778081
 20
3.723429661095953
 30
0.0
 11
57.77582440668485
 21
5.369949999999999
 31
0.0
  0
LINE
  5
5CC
330
1F
100
AcDbEntity
  8
2
  6
CONTINUOUS
370
25
 62
7
100
AcDbLine
 10
56.05859338966215
 20
4.076983051689229
 30
0.0
 11
57.35156033797293
 21
5.369949999999999
 31
0.0
  0
LINE
  5
5CD
330
1F
100
AcDbEntity
  8
2
  6
CONTINUOUS
370
25
 62
7
100
AcDbLine
 10
55.98788271154349
 20
4.430536442282499
 30
0.0
 11
56.92729626926099
 21
5.369949999999999
 31
0.0
  0
LINE
  5
5CE
330
1F
100
AcDbEntity
  8
2
  6
CONTINUOUS
370
25
 62
7
100
AcDbLine
 10
55.91717203342485
 20
4.784089832875775
 30
0.0
 11
56.50303220054907
 21
5.369949999999999
 31
0.0
  0
LINE
  5
5CF
330
1F
100
AcDbEntity
  8
2
  6
CONTINUOUS
370
25
 62
7
100
AcDbLine
 10
55.84646135530619
 20
5.137643223469045
 30
0.0
 11
56.07876813183714
 21
5.369949999999999
 31
0.0
  0
LINE
  5
5D0
330
1F
100
AcDbEntity
  8
2
  6
CONTINUOUS
370
25
 62
7
100
AcDbLine
 10
56.72558274416878
 20
0.7420362791560997
 30
0.0
 11
56.84961150388747
 21
0.618007519437402
 31
0.0
  0
LINE
  5
5D1
330
1F
100
AcDbEntity
  8
2
  6
CONTINUOUS
370
25
 62
7
100
AcDbLine
 10
56.6195167269908
 20
1.272366365046011
 30
0.0
 11
56.92032218200613
 21
0.971560910030675
 31
0.0
  0
LINE
  5
5D2
330
1F
100
AcDbEntity
  8
2
  6
CONTINUOUS
370
25
 62
7
100
AcDbLine
 10
56.51345070981282
 20
1.802696450935919
 30
0.0
 11
56.99103286012479
 21
1.325114300623948
 31
0.0
  0
LINE
  5
5D3
330
1F
100
AcDbEntity
  8
2
  6
CONTINUOUS
370
25
 62
7
100
AcDbLine
 10
56.40738469263484
 20
2.33302653682583
 30
0.0
 11
57.06174353824344
 21
1.678667691217221
 31
0.0
  0
LINE
  5
5D4
330
1F
100
AcDbEntity
  8
2
  6
CONTINUOUS
370
25
 62
7
100
AcDbLine
 10
56.30131867545686
 20
2.863356622715738
 30
0.0
 11
57.13245421636209
 21
2.032221081810494
 31
0.0
  0
LINE
  5
5D5
330
1F
100
AcDbEntity
  8
2
  6
CONTINUOUS
370
25
 62
7
100
AcDbLine
 10
56.19525265827887
 20
3.393686708605649
 30
0.0
 11
57.20316489448075
 21
2.385774472403767
 31
0.0
  0
LINE
  5
5D6
330
1F
100
AcDbEntity
  8
2
  6
CONTINUOUS
370
25
 62
7
100
AcDbLine
 10
56.08918664110088
 20
3.924016794495561
 30
0.0
 11
57.27387557259941
 21
2.73932786299704
 31
0.0
  0
LINE
  5
5D7
330
1F
100
AcDbEntity
  8
2
  6
CONTINUOUS
370
25
 62
7
100
AcDbLine
 10
55.9831206239229
 20
4.454346880385472
 30
0.0
 11
57.34458625071806
 21
3.092881253590317
 31
0.0
  0
LINE
  5
5D8
330
1F
100
AcDbEntity
  8
2
  6
CONTINUOUS
370
25
 62
7
100
AcDbLine
 10
55.87705460674492
 20
4.984676966275384
 30
0.0
 11
57.41529692883671
 21
3.44643464418359
 31
0.0
  0
LINE
  5
5D9
330
1F
100
AcDbEntity
  8
2
  6
CONTINUOUS
370
25
 62
7
100
AcDbLine
 10
55.91604564173223
 20
5.369949999999999
 30
0.0
 11
57.48600760695537
 21
3.799988034776863
 31
0.0
  0
LINE
  5
5DA
330
1F
100
AcDbEntity
  8
2
  6
CONTINUOUS
370
25
 62
7
100
AcDbLine
 10
56.34030971044416
 20
5.369949999999999
 30
0.0
 11
57.55671828507403
 21
4.153541425370136
 31
0.0
  0
LINE
  5
5DB
330
1F
100
AcDbEntity
  8
2
  6
CONTINUOUS
370
25
 62
7
100
AcDbLine
 10
56.76457377915609
 20
5.369949999999999
 30
0.0
 11
57.62742896319268
 21
4.507094815963409
 31
0.0
  0
LINE
  5
5DC
330
1F
100
AcDbEntity
  8
2
  6
CONTINUOUS
370
25
 62
7
100
AcDbLine
 10
57.18883784786802
 20
5.369949999999999
 30
0.0
 11
57.69813964131133
 21
4.860648206556682
 31
0.0
  0
LINE
  5
5DD
330
1F
100
AcDbEntity
  8
2
  6
CONTINUOUS
370
25
 62
7
100
AcDbLine
 10
57.61310191657994
 20
5.369949999999999
 30
0.0
 11
57.76885031942999
 21
5.214201597149955
 31
0.0
  0
TEXT
  5
5DE
330
1F
100
AcDbEntity
  8
2
  6
CONTINUOUS
370
25
 62
7
100
AcDbText
 10
55.3
 20
11.38661666666667
 30
0.0
 40
3.5
  1
0.74
 50
90.00000000000001
 72
     1
 11
55.3
 21
16.34495
 31
0.0
100
AcDbText
  0
CIRCLE
  5
5DF
330
1F
100
AcDbEntity
  8
2
  6
CONTINUOUS
370
25
 62
7
100
AcDbCircle
 10
53.55
 20
8.29495
 30
0.0
 40
1.4
  0
LINE
  5
5E0
330
1F
100
AcDbEntity
  8
2
  6
CONTINUOUS
370
25
 62
7
100
AcDbLine
 10
54.95
 20
6.894950000000001
 30
0.0
 11
52.15
 21
9.694950000000002
 31
0.0
  0
LINE
  5
5E1
330
1F
100
AcDbEntity
  8
2
  6
CONTINUOUS
370
25
 62
7
100
AcDbLine
 10
58.8
 20
-0.4
 30
0.0
 11
58.8
 21
-13.4
 31
0.0
  0
LINE
  5
5E2
330
1F
100
AcDbEntity
  8
2
  6
CONTINUOUS
370
25
 62
7
100
AcDbLine
 10
60.0
 20
-13.4
 30
0.0
 11
60.0
 21
-0.4000000000000004
 31
0.0
  0
LINE
  5
5E3
330
1F
100
AcDbEntity
  8
2
  6
CONTINUOUS
370
25
 62
7
100
AcDbLine
 10
51.8
 20
-12.4
 30
0.0
 11
75.925
 21
-12.4
 31
0.0
  0
LINE
  5
5E4
330
1F
100
AcDbEntity
  8
2
  6
CONTINUOUS
370
25
 62
7
100
AcDbLine
 10
58.8
 20
-12.4
 30
0.0
 11
53.8
 21
-13.4
 31
0.0
  0
LINE
  5
5E5
330
1F
100
AcDbEntity
  8
2
  6
CONTINUOUS
370
25
 62
7
100
AcDbLine
 10
53.8
 20
-13.4
 30
0.0
 11
53.8
 21
-11.4
 31
0.0
  0
LINE
  5
5E6
330
1F
100
AcDbEntity
  8
2
  6
CONTINUOUS
370
25
 62
7
100
AcDbLine
 10
53.8
 20
-11.4
 30
0.0
 11
58.8
 21
-12.4
 31
0.0
  0
LINE
  5
5E7
330
1F
100
AcDbEntity
  8
2
  6
CONTINUOUS
370
25
 62
7
100
AcDbLine
 10
58.44363577521837
 20
-12.47127284495632
 30
0.0
 11
58.56242385014558
 21
-12.35248477002911
 31
0.0
  0
LINE
  5
5E8
330
1F
100
AcDbEntity
  8
2
  6
CONTINUOUS
370
25
 62
7
100
AcDbLine
 10
57.91330568932847
 20
-12.5773388621343
 30
0.0
 11
58.20887045955231
 21
-12.28177409191046
 31
0.0
  0
LINE
  5
5E9
330
1F
100
AcDbEntity
  8
2
  6
CONTINUOUS
370
25
 62
7
100
AcDbLine
 10
57.38297560343855
 20
-12.68340487931229
 30
0.0
 11
57.85531706895904
 21
-12.21106341379181
 31
0.0
  0
LINE
  5
5EA
330
1F
100
AcDbEntity
  8
2
  6
CONTINUOUS
370
25
 62
7
100
AcDbLine
 10
56.85264551754864
 20
-12.78947089649027
 30
0.0
 11
57.50176367836576
 21
-12.14035273567315
 31
0.0
  0
LINE
  5
5EB
330
1F
100
AcDbEntity
  8
2
  6
CONTINUOUS
370
25
 62
7
100
AcDbLine
 10
56.32231543165874
 20
-12.89553691366825
 30
0.0
 11
57.14821028777249
 21
-12.0696420575545
 31
0.0
  0
LINE
  5
5EC
330
1F
100
AcDbEntity
  8
2
  6
CONTINUOUS
370
25
 62
7
100
AcDbLine
 10
55.79198534576882
 20
-13.00160293084623
 30
0.0
 11
56.79465689717922
 21
-11.99893137943584
 31
0.0
  0
LINE
  5
5ED
330
1F
100
AcDbEntity
  8
2
  6
CONTINUOUS
370
25
 62
7
100
AcDbLine
 10
55.26165525987891
 20
-13.10766894802422
 30
0.0
 11
56.44110350658595
 21
-11.92822070131719
 31
0.0
  0
LINE
  5
5EE
330
1F
100
AcDbEntity
  8
2
  6
CONTINUOUS
370
25
 62
7
100
AcDbLine
 10
54.73132517398901
 20
-13.2137349652022
 30
0.0
 11
56.08755011599267
 21
-11.85751002319853
 31
0.0
  0
LINE
  5
5EF
330
1F
100
AcDbEntity
  8
2
  6
CONTINUOUS
370
25
 62
7
100
AcDbLine
 10
54.20099508809909
 20
-13.31980098238018
 30
0.0
 11
55.73399672539939
 21
-11.78679934507988
 31
0.0
  0
LINE
  5
5F0
330
1F
100
AcDbEntity
  8
2
  6
CONTINUOUS
370
25
 62
7
100
AcDbLine
 10
53.8
 20
-13.29653200176735
 30
0.0
 11
55.38044333480612
 21
-11.71608866696122
 31
0.0
  0
LINE
  5
5F1
330
1F
100
AcDbEntity
  8
2
  6
CONTINUOUS
370
25
 62
7
100
AcDbLine
 10
53.8
 20
-12.87226793305542
 30
0.0
 11
55.02688994421285
 21
-11.64537798884257
 31
0.0
  0
LINE
  5
5F2
330
1F
100
AcDbEntity
  8
2
  6
CONTINUOUS
370
25
 62
7
100
AcDbLine
 10
53.8
 20
-12.44800386434349
 30
0.0
 11
54.67333655361958
 21
-11.57466731072391
 31
0.0
  0
LINE
  5
5F3
330
1F
100
AcDbEntity
  8
2
  6
CONTINUOUS
370
25
 62
7
100
AcDbLine
 10
53.8
 20
-12.02373979563157
 30
0.0
 11
54.3197831630263
 21
-11.50395663260526
 31
0.0
  0
LINE
  5
5F4
330
1F
100
AcDbEntity
  8
2
  6
CONTINUOUS
370
25
 62
7
100
AcDbLine
 10
53.8
 20
-11.59947572691964
 30
0.0
 11
53.96622977243303
 21
-11.4332459544866
 31
0.0
  0
LINE
  5
5F5
330
1F
100
AcDbEntity
  8
2
  6
CONTINUOUS
370
25
 62
7
100
AcDbLine
 10
53.8
 20
-13.30294372515225
 30
0.0
 11
53.88088022903979
 21
-13.38382395419204
 31
0.0
  0
LINE
  5
5F6
330
1F
100
AcDbEntity
  8
2
  6
CONTINUOUS
370
25
 62
7
100
AcDbLine
 10
53.8
 20
-12.87867965644032
 30
0.0
 11
54.23443361963306
 21
-13.31311327607338
 31
0.0
  0
LINE
  5
5F7
330
1F
100
AcDbEntity
  8
2
  6
CONTINUOUS
370
25
 62
7
100
AcDbLine
 10
53.8
 20
-12.45441558772839
 30
0.0
 11
54.58798701022634
 21
-13.24240259795473
 31
0.0
  0
LINE
  5
5F8
330
1F
100
AcDbEntity
  8
2
  6
CONTINUOUS
370
25
 62
7
100
AcDbLine
 10
53.8
 20
-12.03015151901647
 30
0.0
 11
54.9415404008196
 21
-13.17169191983608
 31
0.0
  0
LINE
  5
5F9
330
1F
100
AcDbEntity
  8
2
  6
CONTINUOUS
370
25
 62
7
100
AcDbLine
 10
53.8
 20
-11.60588745030454
 30
0.0
 11
55.29509379141288
 21
-13.10098124171742
 31
0.0
  0
LINE
  5
5FA
330
1F
100
AcDbEntity
  8
2
  6
CONTINUOUS
370
25
 62
7
100
AcDbLine
 10
54.07297077300923
 20
-11.45459415460185
 30
0.0
 11
55.64864718200616
 21
-13.03027056359877
 31
0.0
  0
LINE
  5
5FB
330
1F
100
AcDbEntity
  8
2
  6
CONTINUOUS
370
25
 62
7
100
AcDbLine
 10
54.60330085889914
 20
-11.56066017177983
 30
0.0
 11
56.00220057259943
 21
-12.95955988548011
 31
0.0
  0
LINE
  5
5FC
330
1F
100
AcDbEntity
  8
2
  6
CONTINUOUS
370
25
 62
7
100
AcDbLine
 10
55.13363094478905
 20
-11.66672618895781
 30
0.0
 11
56.3557539631927
 21
-12.88884920736146
 31
0.0
  0
LINE
  5
5FD
330
1F
100
AcDbEntity
  8
2
  6
CONTINUOUS
370
25
 62
7
100
AcDbLine
 10
55.66396103067896
 20
-11.7727922061358
 30
0.0
 11
56.70930735378597
 21
-12.8181385292428
 31
0.0
  0
LINE
  5
5FE
330
1F
100
AcDbEntity
  8
2
  6
CONTINUOUS
370
25
 62
7
100
AcDbLine
 10
56.19429111656888
 20
-11.87885822331378
 30
0.0
 11
57.06286074437925
 21
-12.74742785112415
 31
0.0
  0
LINE
  5
5FF
330
1F
100
AcDbEntity
  8
2
  6
CONTINUOUS
370
25
 62
7
100
AcDbLine
 10
56.72462120245878
 20
-11.98492424049176
 30
0.0
 11
57.41641413497252
 21
-12.67671717300549
 31
0.0
  0
LINE
  5
600
330
1F
100
AcDbEntity
  8
2
  6
CONTINUOUS
370
25
 62
7
100
AcDbLine
 10
57.25495128834869
 20
-12.09099025766974
 30
0.0
 11
57.76996752556579
 21
-12.60600649488684
 31
0.0
  0
LINE
  5
601
330
1F
100
AcDbEntity
  8
2
  6
CONTINUOUS
370
25
 62
7
100
AcDbLine
 10
57.78528137423861
 20
-12.19705627484772
 30
0.0
 11
58.12352091615907
 21
-12.53529581676818
 31
0.0
  0
LINE
  5
602
330
1F
100
AcDbEntity
  8
2
  6
CONTINUOUS
370
25
 62
7
100
AcDbLine
 10
58.31561146012852
 20
-12.30312229202571
 30
0.0
 11
58.47707430675234
 21
-12.46458513864953
 31
0.0
  0
LINE
  5
603
330
1F
100
AcDbEntity
  8
2
  6
CONTINUOUS
370
25
 62
7
100
AcDbLine
 10
60.0
 20
-12.4
 30
0.0
 11
65.0
 21
-11.4
 31
0.0
  0
LINE
  5
604
330
1F
100
AcDbEntity
  8
2
  6
CONTINUOUS
370
25
 62
7
100
AcDbLine
 10
65.0
 20
-11.4
 30
0.0
 11
65.0
 21
-13.4
 31
0.0
  0
LINE
  5
605
330
1F
100
AcDbEntity
  8
2
  6
CONTINUOUS
370
25
 62
7
100
AcDbLine
 10
65.0
 20
-13.4
 30
0.0
 11
60.0
 21
-12.4
 31
0.0
  0
LINE
  5
606
330
1F
100
AcDbEntity
  8
2
  6
CONTINUOUS
370
25
 62
7
100
AcDbLine
 10
64.85311649635963
 20
-13.37062329927193
 30
0.0
 11
65.0
 21
-13.22373979563156
 31
0.0
  0
LINE
  5
607
330
1F
100
AcDbEntity
  8
2
  6
CONTINUOUS
370
25
 62
7
100
AcDbLine
 10
64.49956310576636
 20
-13.29991262115327
 30
0.0
 11
65.0
 21
-12.79947572691963
 31
0.0
  0
LINE
  5
608
330
1F
100
AcDbEntity
  8
2
  6
CONTINUOUS
370
25
 62
7
100
AcDbLine
 10
64.14600971517308
 20
-13.22920194303462
 30
0.0
 11
65.0
 21
-12.37521165820771
 31
0.0
  0
LINE
  5
609
330
1F
100
AcDbEntity
  8
2
  6
CONTINUOUS
370
25
 62
7
100
AcDbLine
 10
63.79245632457982
 20
-13.15849126491596
 30
0.0
 11
65.0
 21
-11.95094758949578
 31
0.0
  0
LINE
  5
60A
330
1F
100
AcDbEntity
  8
2
  6
CONTINUOUS
370
25
 62
7
100
AcDbLine
 10
63.43890293398654
 20
-13.08778058679731
 30
0.0
 11
65.0
 21
-11.52668352078385
 31
0.0
  0
LINE
  5
60B
330
1F
100
AcDbEntity
  8
2
  6
CONTINUOUS
370
25
 62
7
100
AcDbLine
 10
63.08534954339326
 20
-13.01706990867865
 30
0.0
 11
64.6280243150899
 21
-11.47439513698202
 31
0.0
  0
LINE
  5
60C
330
1F
100
AcDbEntity
  8
2
  6
CONTINUOUS
370
25
 62
7
100
AcDbLine
 10
62.73179615279999
 20
-12.94635923056
 30
0.0
 11
64.09769422919999
 21
-11.58046115416
 31
0.0
  0
LINE
  5
60D
330
1F
100
AcDbEntity
  8
2
  6
CONTINUOUS
370
25
 62
7
100
AcDbLine
 10
62.37824276220672
 20
-12.87564855244134
 30
0.0
 11
63.56736414331008
 21
-11.68652717133799
 31
0.0
  0
LINE
  5
60E
330
1F
100
AcDbEntity
  8
2
  6
CONTINUOUS
370
25
 62
7
100
AcDbLine
 10
62.02468937161345
 20
-12.80493787432269
 30
0.0
 11
63.03703405742017
 21
-11.79259318851597
 31
0.0
  0
LINE
  5
60F
330
1F
100
AcDbEntity
  8
2
  6
CONTINUOUS
370
25
 62
7
100
AcDbLine
 10
61.67113598102017
 20
-12.73422719620403
 30
0.0
 11
62.50670397153026
 21
-11.89865920569395
 31
0.0
  0
LINE
  5
610
330
1F
100
AcDbEntity
  8
2
  6
CONTINUOUS
370
25
 62
7
100
AcDbLine
 10
61.3175825904269
 20
-12.66351651808538
 30
0.0
 11
61.97637388564036
 21
-12.00472522287193
 31
0.0
  0
LINE
  5
611
330
1F
100
AcDbEntity
  8
2
  6
CONTINUOUS
370
25
 62
7
100
AcDbLine
 10
60.96402919983363
 20
-12.59280583996673
 30
0.0
 11
61.44604379975044
 21
-12.11079124004991
 31
0.0
  0
LINE
  5
612
330
1F
100
AcDbEntity
  8
2
  6
CONTINUOUS
370
25
 62
7
100
AcDbLine
 10
60.61047580924036
 20
-12.52209516184807
 30
0.0
 11
60.91571371386053
 21
-12.21685725722789
 31
0.0
  0
LINE
  5
613
330
1F
100
AcDbEntity
  8
2
  6
CONTINUOUS
370
25
 62
7
100
AcDbLine
 10
60.25692241864708
 20
-12.45138448372942
 30
0.0
 11
60.38538362797063
 21
-12.32292327440588
 31
0.0
  0
LINE
  5
614
330
1F
100
AcDbEntity
  8
2
  6
CONTINUOUS
370
25
 62
7
100
AcDbLine
 10
60.09128786912544
 20
-12.38174242617491
 30
0.0
 11
60.13693180368817
 21
-12.42738636073764
 31
0.0
  0
LINE
  5
615
330
1F
100
AcDbEntity
  8
2
  6
CONTINUOUS
370
25
 62
7
100
AcDbLine
 10
60.44484125971871
 20
-12.31103174805626
 30
0.0
 11
60.66726188957807
 21
-12.53345237791561
 31
0.0
  0
LINE
  5
616
330
1F
100
AcDbEntity
  8
2
  6
CONTINUOUS
370
25
 62
7
100
AcDbLine
 10
60.79839465031199
 20
-12.2403210699376
 30
0.0
 11
61.19759197546799
 21
-12.6395183950936
 31
0.0
  0
LINE
  5
617
330
1F
100
AcDbEntity
  8
2
  6
CONTINUOUS
370
25
 62
7
100
AcDbLine
 10
61.15194804090527
 20
-12.16961039181895
 30
0.0
 11
61.7279220613579
 21
-12.74558441227158
 31
0.0
  0
LINE
  5
618
330
1F
100
AcDbEntity
  8
2
  6
CONTINUOUS
370
25
 62
7
100
AcDbLine
 10
61.50550143149854
 20
-12.09889971370029
 30
0.0
 11
62.25825214724781
 21
-12.85165042944956
 31
0.0
  0
LINE
  5
619
330
1F
100
AcDbEntity
  8
2
  6
CONTINUOUS
370
25
 62
7
100
AcDbLine
 10
61.85905482209181
 20
-12.02818903558164
 30
0.0
 11
62.78858223313772
 21
-12.95771644662754
 31
0.0
  0
LINE
  5
61A
330
1F
100
AcDbEntity
  8
2
  6
CONTINUOUS
370
25
 62
7
100
AcDbLine
 10
62.21260821268508
 20
-11.95747835746298
 30
0.0
 11
63.31891231902763
 21
-13.06378246380553
 31
0.0
  0
LINE
  5
61B
330
1F
100
AcDbEntity
  8
2
  6
CONTINUOUS
370
25
 62
7
100
AcDbLine
 10
62.56616160327836
 20
-11.88676767934433
 30
0.0
 11
63.84924240491754
 21
-13.16984848098351
 31
0.0
  0
LINE
  5
61C
330
1F
100
AcDbEntity
  8
2
  6
CONTINUOUS
370
25
 62
7
100
AcDbLine
 10
62.91971499387164
 20
-11.81605700122567
 30
0.0
 11
64.37957249080745
 21
-13.27591449816149
 31
0.0
  0
LINE
  5
61D
330
1F
100
AcDbEntity
  8
2
  6
CONTINUOUS
370
25
 62
7
100
AcDbLine
 10
63.27326838446491
 20
-11.74534632310702
 30
0.0
 11
64.90990257669736
 21
-13.38198051533947
 31
0.0
  0
LINE
  5
61E
330
1F
100
AcDbEntity
  8
2
  6
CONTINUOUS
370
25
 62
7
100
AcDbLine
 10
63.62682177505818
 20
-11.67463564498837
 30
0.0
 11
65.0
 21
-13.04781386993018
 31
0.0
  0
LINE
  5
61F
330
1F
100
AcDbEntity
  8
2
  6
CONTINUOUS
370
25
 62
7
100
AcDbLine
 10
63.98037516565145
 20
-11.60392496686971
 30
0.0
 11
65.0
 21
-12.62354980121825
 31
0.0
  0
LINE
  5
620
330
1F
100
AcDbEntity
  8
2
  6
CONTINUOUS
370
25
 62
7
100
AcDbLine
 10
64.33392855624473
 20
-11.53321428875105
 30
0.0
 11
65.0
 21
-12.19928573250632
 31
0.0
  0
LINE
  5
621
330
1F
100
AcDbEntity
  8
2
  6
CONTINUOUS
370
25
 62
7
100
AcDbLine
 10
64.68748194683799
 20
-11.4625036106324
 30
0.0
 11
65.0
 21
-11.7750216637944
 31
0.0
  0
TEXT
  5
622
330
1F
100
AcDbEntity
  8
2
  6
CONTINUOUS
370
25
 62
7
100
AcDbText
 10
67.54583333333332
 20
-10.9
 30
0.0
 40
3.5
  1
1.2
 72
     1
 11
70.46249999999999
 21
-10.9
 31
0.0
100
AcDbText
  0
LINE
  5
623
330
1F
100
AcDbEntity
  8
2
  6
CONTINUOUS
370
25
 62
7
100
AcDbLine
 10
38.8
 20
0.0
 30
0.0
 11
38.8
 21
28.39995
 31
0.0
  0
LINE
  5
624
330
1F
100
AcDbEntity
  8
2
  6
CONTINUOUS
370
25
 62
7
100
AcDbLine
 10
60.0
 20
28.39995
 30
0.0
 11
60.0
 21
0.3999999999999986
 31
0.0
  0
LINE
  5
625
330
1F
100
AcDbEntity
  8
2
  6
CONTINUOUS
370
25
 62
7
100
AcDbLine
 10
31.8
 20
27.39995
 30
0.0
 11
67.0
 21
27.39995
 31
0.0
  0
LINE
  5
626
330
1F
100
AcDbEntity
  8
2
  6
CONTINUOUS
370
25
 62
7
100
AcDbLine
 10
38.8
 20
27.39995
 30
0.0
 11
33.8
 21
26.39995
 31
0.0
  0
LINE
  5
627
330
1F
100
AcDbEntity
  8
2
  6
CONTINUOUS
370
25
 62
7
100
AcDbLine
 10
33.8
 20
26.39995
 30
0.0
 11
33.8
 21
28.39995
 31
0.0
  0
LINE
  5
628
330
1F
100
AcDbEntity
  8
2
  6
CONTINUOUS
370
25
 62
7
100
AcDbLine
 10
33.8
 20
28.39995
 30
0.0
 11
38.8
 21
27.39995
 31
0.0
  0
LINE
  5
629
330
1F
100
AcDbEntity
  8
2
  6
CONTINUOUS
370
25
 62
7
100
AcDbLine
 10
38.57848191715584
 20
27.35564638343116
 30
0.0
 11
38.65232127810389
 21
27.42948574437922
 31
0.0
  0
LINE
  5
62A
330
1F
100
AcDbEntity
  8
2
  6
CONTINUOUS
370
25
 62
7
100
AcDbLine
 10
38.04815183126593
 20
27.24958036625318
 30
0.0
 11
38.29876788751061
 21
27.50019642249787
 31
0.0
  0
LINE
  5
62B
330
1F
100
AcDbEntity
  8
2
  6
CONTINUOUS
370
25
 62
7
100
AcDbLine
 10
37.51782174537602
 20
27.1435143490752
 30
0.0
 11
37.94521449691734
 21
27.57090710061653
 31
0.0
  0
LINE
  5
62C
330
1F
100
AcDbEntity
  8
2
  6
CONTINUOUS
370
25
 62
7
100
AcDbLine
 10
36.9874916594861
 20
27.03744833189722
 30
0.0
 11
37.59166110632407
 21
27.64161777873518
 31
0.0
  0
LINE
  5
62D
330
1F
100
AcDbEntity
  8
2
  6
CONTINUOUS
370
25
 62
7
100
AcDbLine
 10
36.4571615735962
 20
26.93138231471924
 30
0.0
 11
37.2381077157308
 21
27.71232845685384
 31
0.0
  0
LINE
  5
62E
330
1F
100
AcDbEntity
  8
2
  6
CONTINUOUS
370
25
 62
7
100
AcDbLine
 10
35.92683148770629
 20
26.82531629754126
 30
0.0
 11
36.88455432513752
 21
27.78303913497249
 31
0.0
  0
LINE
  5
62F
330
1F
100
AcDbEntity
  8
2
  6
CONTINUOUS
370
25
 62
7
100
AcDbLine
 10
35.39650140181638
 20
26.71925028036327
 30
0.0
 11
36.53100093454425
 21
27.85374981309115
 31
0.0
  0
LINE
  5
630
330
1F
100
AcDbEntity
  8
2
  6
CONTINUOUS
370
25
 62
7
100
AcDbLine
 10
34.86617131592647
 20
26.61318426318529
 30
0.0
 11
36.17744754395098
 21
27.9244604912098
 31
0.0
  0
LINE
  5
631
330
1F
100
AcDbEntity
  8
2
  6
CONTINUOUS
370
25
 62
7
100
AcDbLine
 10
34.33584123003656
 20
26.50711824600731
 30
0.0
 11
35.8238941533577
 21
27.99517116932846
 31
0.0
  0
LINE
  5
632
330
1F
100
AcDbEntity
  8
2
  6
CONTINUOUS
370
25
 62
7
100
AcDbLine
 10
33.80551114414665
 20
26.40105222882933
 30
0.0
 11
35.47034076276443
 21
28.06588184744711
 31
0.0
  0
LINE
  5
633
330
1F
100
AcDbEntity
  8
2
  6
CONTINUOUS
370
25
 62
7
100
AcDbLine
 10
33.8
 20
26.81980515339461
 30
0.0
 11
35.11678737217115
 21
28.13659252556577
 31
0.0
  0
LINE
  5
634
330
1F
100
AcDbEntity
  8
2
  6
CONTINUOUS
370
25
 62
7
100
AcDbLine
 10
33.8
 20
27.24406922210653
 30
0.0
 11
34.76323398157788
 21
28.20730320368442
 31
0.0
  0
LINE
  5
635
330
1F
100
AcDbEntity
  8
2
  6
CONTINUOUS
370
25
 62
7
100
AcDbLine
 10
33.8
 20
27.66833329081847
 30
0.0
 11
34.40968059098461
 21
28.27801388180308
 31
0.0
  0
LINE
  5
636
330
1F
100
AcDbEntity
  8
2
  6
CONTINUOUS
370
25
 62
7
100
AcDbLine
 10
33.8
 20
28.0925973595304
 30
0.0
 11
34.05612720039133
 21
28.34872455992173
 31
0.0
  0
LINE
  5
637
330
1F
100
AcDbEntity
  8
2
  6
CONTINUOUS
370
25
 62
7
100
AcDbLine
 10
33.8
 20
26.63746750430832
 30
0.0
 11
33.99793125359026
 21
26.43953625071805
 31
0.0
  0
LINE
  5
638
330
1F
100
AcDbEntity
  8
2
  6
CONTINUOUS
370
25
 62
7
100
AcDbLine
 10
33.8
 20
27.06173157302024
 30
0.0
 11
34.35148464418353
 21
26.5102469288367
 31
0.0
  0
LINE
  5
639
330
1F
100
AcDbEntity
  8
2
  6
CONTINUOUS
370
25
 62
7
100
AcDbLine
 10
33.8
 20
27.48599564173217
 30
0.0
 11
34.70503803477681
 21
26.58095760695536
 31
0.0
  0
LINE
  5
63A
330
1F
100
AcDbEntity
  8
2
  6
CONTINUOUS
370
25
 62
7
100
AcDbLine
 10
33.8
 20
27.91025971044409
 30
0.0
 11
35.05859142537008
 21
26.65166828507401
 31
0.0
  0
LINE
  5
63B
330
1F
100
AcDbEntity
  8
2
  6
CONTINUOUS
370
25
 62
7
100
AcDbLine
 10
33.8
 20
28.33452377915602
 30
0.0
 11
35.41214481596336
 21
26.72237896319267
 31
0.0
  0
LINE
  5
63C
330
1F
100
AcDbEntity
  8
2
  6
CONTINUOUS
370
25
 62
7
100
AcDbLine
 10
34.24854730983494
 20
28.31024053803301
 30
0.0
 11
35.76569820655663
 21
26.79308964131132
 31
0.0
  0
LINE
  5
63D
330
1F
100
AcDbEntity
  8
2
  6
CONTINUOUS
370
25
 62
7
100
AcDbLine
 10
34.77887739572486
 20
28.20417452085503
 30
0.0
 11
36.1192515971499
 21
26.86380031942998
 31
0.0
  0
LINE
  5
63E
330
1F
100
AcDbEntity
  8
2
  6
CONTINUOUS
370
25
 62
7
100
AcDbLine
 10
35.30920748161476
 20
28.09810850367704
 30
0.0
 11
36.47280498774317
 21
26.93451099754863
 31
0.0
  0
LINE
  5
63F
330
1F
100
AcDbEntity
  8
2
  6
CONTINUOUS
370
25
 62
7
100
AcDbLine
 10
35.83953756750467
 20
27.99204248649906
 30
0.0
 11
36.82635837833644
 21
27.00522167566729
 31
0.0
  0
LINE
  5
640
330
1F
100
AcDbEntity
  8
2
  6
CONTINUOUS
370
25
 62
7
100
AcDbLine
 10
36.36986765339459
 20
27.88597646932108
 30
0.0
 11
37.17991176892972
 21
27.07593235378594
 31
0.0
  0
LINE
  5
641
330
1F
100
AcDbEntity
  8
2
  6
CONTINUOUS
370
25
 62
7
100
AcDbLine
 10
36.9001977392845
 20
27.7799104521431
 30
0.0
 11
37.533465159523
 21
27.1466430319046
 31
0.0
  0
LINE
  5
642
330
1F
100
AcDbEntity
  8
2
  6
CONTINUOUS
370
25
 62
7
100
AcDbLine
 10
37.43052782517442
 20
27.67384443496512
 30
0.0
 11
37.88701855011627
 21
27.21735371002325
 31
0.0
  0
LINE
  5
643
330
1F
100
AcDbEntity
  8
2
  6
CONTINUOUS
370
25
 62
7
100
AcDbLine
 10
37.96085791106432
 20
27.56777841778713
 30
0.0
 11
38.24057194070955
 21
27.28806438814191
 31
0.0
  0
LINE
  5
644
330
1F
100
AcDbEntity
  8
2
  6
CONTINUOUS
370
25
 62
7
100
AcDbLine
 10
38.49118799695423
 20
27.46171240060915
 30
0.0
 11
38.59412533130282
 21
27.35877506626056
 31
0.0
  0
LINE
  5
645
330
1F
100
AcDbEntity
  8
2
  6
CONTINUOUS
370
25
 62
7
100
AcDbLine
 10
60.0
 20
27.39995
 30
0.0
 11
65.0
 21
28.39995
 31
0.0
  0
LINE
  5
646
330
1F
100
AcDbEntity
  8
2
  6
CONTINUOUS
370
25
 62
7
100
AcDbLine
 10
65.0
 20
28.39995
 30
0.0
 11
65.0
 21
26.39995
 31
0.0
  0
LINE
  5
647
330
1F
100
AcDbEntity
  8
2
  6
CONTINUOUS
370
25
 62
7
100
AcDbLine
 10
65.0
 20
26.39995
 30
0.0
 11
60.0
 21
27.39995
 31
0.0
  0
LINE
  5
648
330
1F
100
AcDbEntity
  8
2
  6
CONTINUOUS
370
25
 62
7
100
AcDbLine
 10
64.92051021212737
 20
26.41584795757453
 30
0.0
 11
65.0
 21
26.49533774544716
 31
0.0
  0
LINE
  5
649
330
1F
100
AcDbEntity
  8
2
  6
CONTINUOUS
370
25
 62
7
100
AcDbLine
 10
64.56695682153409
 20
26.48655863569318
 30
0.0
 11
65.0
 21
26.91960181415909
 31
0.0
  0
LINE
  5
64A
330
1F
100
AcDbEntity
  8
2
  6
CONTINUOUS
370
25
 62
7
100
AcDbLine
 10
64.21340343094082
 20
26.55726931381184
 30
0.0
 11
65.0
 21
27.34386588287101
 31
0.0
  0
LINE
  5
64B
330
1F
100
AcDbEntity
  8
2
  6
CONTINUOUS
370
25
 62
7
100
AcDbLine
 10
63.85985004034755
 20
26.62797999193049
 30
0.0
 11
65.0
 21
27.76812995158294
 31
0.0
  0
LINE
  5
64C
330
1F
100
AcDbEntity
  8
2
  6
CONTINUOUS
370
25
 62
7
100
AcDbLine
 10
63.50629664975428
 20
26.69869067004915
 30
0.0
 11
65.0
 21
28.19239402029487
 31
0.0
  0
LINE
  5
64D
330
1F
100
AcDbEntity
  8
2
  6
CONTINUOUS
370
25
 62
7
100
AcDbLine
 10
63.152743259161
 20
26.7694013481678
 30
0.0
 11
64.72911488874149
 21
28.34577297774829
 31
0.0
  0
LINE
  5
64E
330
1F
100
AcDbEntity
  8
2
  6
CONTINUOUS
370
25
 62
7
100
AcDbLine
 10
62.79918986856772
 20
26.84011202628646
 30
0.0
 11
64.19878480285158
 21
28.23970696057031
 31
0.0
  0
LINE
  5
64F
330
1F
100
AcDbEntity
  8
2
  6
CONTINUOUS
370
25
 62
7
100
AcDbLine
 10
62.44563647797445
 20
26.91082270440511
 30
0.0
 11
63.66845471696168
 21
28.13364094339233
 31
0.0
  0
LINE
  5
650
330
1F
100
AcDbEntity
  8
2
  6
CONTINUOUS
370
25
 62
7
100
AcDbLine
 10
62.09208308738118
 20
26.98153338252376
 30
0.0
 11
63.13812463107176
 21
28.02757492621435
 31
0.0
  0
LINE
  5
651
330
1F
100
AcDbEntity
  8
2
  6
CONTINUOUS
370
25
 62
7
100
AcDbLine
 10
61.73852969678791
 20
27.05224406064242
 30
0.0
 11
62.60779454518185
 21
27.92150890903637
 31
0.0
  0
LINE
  5
652
330
1F
100
AcDbEntity
  8
2
  6
CONTINUOUS
370
25
 62
7
100
AcDbLine
 10
61.38497630619463
 20
27.12295473876107
 30
0.0
 11
62.07746445929195
 21
27.81544289185838
 31
0.0
  0
LINE
  5
653
330
1F
100
AcDbEntity
  8
2
  6
CONTINUOUS
370
25
 62
7
100
AcDbLine
 10
61.03142291560135
 20
27.19366541687973
 30
0.0
 11
61.54713437340203
 21
27.7093768746804
 31
0.0
  0
LINE
  5
654
330
1F
100
AcDbEntity
  8
2
  6
CONTINUOUS
370
25
 62
7
100
AcDbLine
 10
60.67786952500808
 20
27.26437609499838
 30
0.0
 11
61.01680428751212
 21
27.60331085750242
 31
0.0
  0
LINE
  5
655
330
1F
100
AcDbEntity
  8
2
  6
CONTINUOUS
370
25
 62
7
100
AcDbLine
 10
60.32431613441481
 20
27.33508677311704
 30
0.0
 11
60.4864742016222
 21
27.49724484032443
 31
0.0
  0
LINE
  5
656
330
1F
100
AcDbEntity
  8
2
  6
CONTINUOUS
370
25
 62
7
100
AcDbLine
 10
60.15868158489315
 20
27.43168631697862
 30
0.0
 11
60.23802237733971
 21
27.35234552453206
 31
0.0
  0
LINE
  5
657
330
1F
100
AcDbEntity
  8
2
  6
CONTINUOUS
370
25
 62
7
100
AcDbLine
 10
60.51223497548641
 20
27.50239699509728
 30
0.0
 11
60.76835246322961
 21
27.24627950735408
 31
0.0
  0
LINE
  5
658
330
1F
100
AcDbEntity
  8
2
  6
CONTINUOUS
370
25
 62
7
100
AcDbLine
 10
60.86578836607969
 20
27.57310767321593
 30
0.0
 11
61.29868254911953
 21
27.14021349017609
 31
0.0
  0
LINE
  5
659
330
1F
100
AcDbEntity
  8
2
  6
CONTINUOUS
370
25
 62
7
100
AcDbLine
 10
61.21934175667296
 20
27.64381835133459
 30
0.0
 11
61.82901263500943
 21
27.03414747299811
 31
0.0
  0
LINE
  5
65A
330
1F
100
AcDbEntity
  8
2
  6
CONTINUOUS
370
25
 62
7
100
AcDbLine
 10
61.57289514726624
 20
27.71452902945324
 30
0.0
 11
62.35934272089935
 21
26.92808145582013
 31
0.0
  0
LINE
  5
65B
330
1F
100
AcDbEntity
  8
2
  6
CONTINUOUS
370
25
 62
7
100
AcDbLine
 10
61.92644853785951
 20
27.78523970757189
 30
0.0
 11
62.88967280678925
 21
26.82201543864215
 31
0.0
  0
LINE
  5
65C
330
1F
100
AcDbEntity
  8
2
  6
CONTINUOUS
370
25
 62
7
100
AcDbLine
 10
62.28000192845278
 20
27.85595038569055
 30
0.0
 11
63.42000289267918
 21
26.71594942146416
 31
0.0
  0
LINE
  5
65D
330
1F
100
AcDbEntity
  8
2
  6
CONTINUOUS
370
25
 62
7
100
AcDbLine
 10
62.63355531904605
 20
27.92666106380921
 30
0.0
 11
63.95033297856909
 21
26.60988340428618
 31
0.0
  0
LINE
  5
65E
330
1F
100
AcDbEntity
  8
2
  6
CONTINUOUS
370
25
 62
7
100
AcDbLine
 10
62.98710870963933
 20
27.99737174192786
 30
0.0
 11
64.480663064459
 21
26.5038173871082
 31
0.0
  0
LINE
  5
65F
330
1F
100
AcDbEntity
  8
2
  6
CONTINUOUS
370
25
 62
7
100
AcDbLine
 10
63.34066210023261
 20
28.06808242004652
 30
0.0
 11
65.0
 21
26.40874452027912
 31
0.0
  0
LINE
  5
660
330
1F
100
AcDbEntity
  8
2
  6
CONTINUOUS
370
25
 62
7
100
AcDbLine
 10
63.69421549082588
 20
28.13879309816517
 30
0.0
 11
65.0
 21
26.83300858899106
 31
0.0
  0
LINE
  5
661
330
1F
100
AcDbEntity
  8
2
  6
CONTINUOUS
370
25
 62
7
100
AcDbLine
 10
64.04776888141916
 20
28.20950377628382
 30
0.0
 11
65.0
 21
27.25727265770299
 31
0.0
  0
LINE
  5
662
330
1F
100
AcDbEntity
  8
2
  6
CONTINUOUS
370
25
 62
7
100
AcDbLine
 10
64.40132227201244
 20
28.28021445440248
 30
0.0
 11
65.0
 21
27.68153672641491
 31
0.0
  0
LINE
  5
663
330
1F
100
AcDbEntity
  8
2
  6
CONTINUOUS
370
25
 62
7
100
AcDbLine
 10
64.75487566260571
 20
28.35092513252113
 30
0.0
 11
65.0
 21
28.10580079512685
 31
0.0
  0
TEXT
  5
664
330
1F
100
AcDbEntity
  8
2
  6
CONTINUOUS
370
25
 62
7
100
AcDbText
 10
44.73333333333333
 20
28.89995
 30
0.0
 40
3.5
  1
21.2
 72
     1
 11
49.4
 21
28.89995
 31
0.0
100
AcDbText
  0
LINE
  5
665
330
1F
100
AcDbEntity
  8
SK2
  6
CONTINUOUS
370
25
 62
7
100
AcDbLine
 10
0.0
 20
-0.0000500000000001
 30
0.0
 11
0.0
 21
38.39995
 31
0.0
  0
LINE
  5
666
330
1F
100
AcDbEntity
  8
SK2
  6
CONTINUOUS
370
25
 62
7
100
AcDbLine
 10
60.0
 20
38.39995
 30
0.0
 11
60.0
 21
0.3999999999999986
 31
0.0
  0
LINE
  5
667
330
1F
100
AcDbEntity
  8
SK2
  6
CONTINUOUS
370
25
 62
7
100
AcDbLine
 10
0.0
 20
37.39995
 30
0.0
 11
60.0
 21
37.39995
 31
0.0
  0
LINE
  5
668
330
1F
100
AcDbEntity
  8
SK2
  6
CONTINUOUS
370
25
 62
7
100
AcDbLine
 10
0.0
 20
37.39995
 30
0.0
 11
5.0
 21
38.39995
 31
0.0
  0
LINE
  5
669
330
1F
100
AcDbEntity
  8
SK2
  6
CONTINUOUS
370
25
 62
7
100
AcDbLine
 10
5.0
 20
38.39995
 30
0.0
 11
5.0
 21
36.39995
 31
0.0
  0
LINE
  5
66A
330
1F
100
AcDbEntity
  8
SK2
  6
CONTINUOUS
370
25
 62
7
100
AcDbLine
 10
5.0
 20
36.39995
 30
0.0
 11
0.0
 21
37.39995
 31
0.0
  0
LINE
  5
66B
330
1F
100
AcDbEntity
  8
SK2
  6
CONTINUOUS
370
25
 62
7
100
AcDbLine
 10
4.810095494849868
 20
36.43793090103002
 30
0.0
 11
5.0
 21
36.62783540618015
 31
0.0
  0
LINE
  5
66C
330
1F
100
AcDbEntity
  8
SK2
  6
CONTINUOUS
370
25
 62
7
100
AcDbLine
 10
4.456542104256599
 20
36.50864157914867
 30
0.0
 11
5.0
 21
37.05209947489207
 31
0.0
  0
LINE
  5
66D
330
1F
100
AcDbEntity
  8
SK2
  6
CONTINUOUS
370
25
 62
7
100
AcDbLine
 10
4.102988713663322
 20
36.57935225726733
 30
0.0
 11
5.0
 21
37.47636354360401
 31
0.0
  0
LINE
  5
66E
330
1F
100
AcDbEntity
  8
SK2
  6
CONTINUOUS
370
25
 62
7
100
AcDbLine
 10
3.749435323070045
 20
36.65006293538599
 30
0.0
 11
5.0
 21
37.90062761231594
 31
0.0
  0
LINE
  5
66F
330
1F
100
AcDbEntity
  8
SK2
  6
CONTINUOUS
370
25
 62
7
100
AcDbLine
 10
3.395881932476762
 20
36.72077361350464
 30
0.0
 11
5.0
 21
38.32489168102788
 31
0.0
  0
LINE
  5
670
330
1F
100
AcDbEntity
  8
SK2
  6
CONTINUOUS
370
25
 62
7
100
AcDbLine
 10
3.042328541883485
 20
36.7914842916233
 30
0.0
 11
4.563492812825231
 21
38.31264856256504
 31
0.0
  0
LINE
  5
671
330
1F
100
AcDbEntity
  8
SK2
  6
CONTINUOUS
370
25
 62
7
100
AcDbLine
 10
2.688775151290216
 20
36.86219496974196
 30
0.0
 11
4.033162726935309
 21
38.20658254538706
 31
0.0
  0
LINE
  5
672
330
1F
100
AcDbEntity
  8
SK2
  6
CONTINUOUS
370
25
 62
7
100
AcDbLine
 10
2.335221760696932
 20
36.93290564786061
 30
0.0
 11
3.502832641045387
 21
38.10051652820907
 31
0.0
  0
LINE
  5
673
330
1F
100
AcDbEntity
  8
SK2
  6
CONTINUOUS
370
25
 62
7
100
AcDbLine
 10
1.981668370103648
 20
37.00361632597927
 30
0.0
 11
2.972502555155479
 21
37.9944505110311
 31
0.0
  0
LINE
  5
674
330
1F
100
AcDbEntity
  8
SK2
  6
CONTINUOUS
370
25
 62
7
100
AcDbLine
 10
1.628114979510379
 20
37.07432700409792
 30
0.0
 11
2.442172469265572
 21
37.88838449385311
 31
0.0
  0
LINE
  5
675
330
1F
100
AcDbEntity
  8
SK2
  6
CONTINUOUS
370
25
 62
7
100
AcDbLine
 10
1.274561588917102
 20
37.14503768221658
 30
0.0
 11
1.911842383375657
 21
37.78231847667513
 31
0.0
  0
LINE
  5
676
330
1F
100
AcDbEntity
  8
SK2
  6
CONTINUOUS
370
25
 62
7
100
AcDbLine
 10
0.9210081983238254
 20
37.21574836033523
 30
0.0
 11
1.381512297485735
 21
37.67625245949714
 31
0.0
  0
LINE
  5
677
330
1F
100
AcDbEntity
  8
SK2
  6
CONTINUOUS
370
25
 62
7
100
AcDbLine
 10
0.5674548077305417
 20
37.28645903845388
 30
0.0
 11
0.8511822115958125
 21
37.57018644231916
 31
0.0
  0
LINE
  5
678
330
1F
100
AcDbEntity
  8
SK2
  6
CONTINUOUS
370
25
 62
7
100
AcDbLine
 10
0.2139014171372651
 20
37.35716971657254
 30
0.0
 11
0.3208521257058976
 21
37.46412042514118
 31
0.0
  0
LINE
  5
679
330
1F
100
AcDbEntity
  8
SK2
  6
CONTINUOUS
370
25
 62
7
100
AcDbLine
 10
0.2614703032121355
 20
37.45224406064243
 30
0.0
 11
0.3922054548182032
 21
37.32150890903636
 31
0.0
  0
LINE
  5
67A
330
1F
100
AcDbEntity
  8
SK2
  6
CONTINUOUS
370
25
 62
7
100
AcDbLine
 10
0.6150236938054121
 20
37.52295473876108
 30
0.0
 11
0.9225355407081182
 21
37.21544289185837
 31
0.0
  0
LINE
  5
67B
330
1F
100
AcDbEntity
  8
SK2
  6
CONTINUOUS
370
25
 62
7
100
AcDbLine
 10
0.9685770843986958
 20
37.59366541687973
 30
0.0
 11
1.45286562659804
 21
37.10937687468039
 31
0.0
  0
LINE
  5
67C
330
1F
100
AcDbEntity
  8
SK2
  6
CONTINUOUS
370
25
 62
7
100
AcDbLine
 10
1.322130474991972
 20
37.66437609499839
 30
0.0
 11
1.983195712487955
 21
37.00331085750241
 31
0.0
  0
LINE
  5
67D
330
1F
100
AcDbEntity
  8
SK2
  6
CONTINUOUS
370
25
 62
7
100
AcDbLine
 10
1.675683865585249
 20
37.73508677311704
 30
0.0
 11
2.51352579837787
 21
36.89724484032442
 31
0.0
  0
LINE
  5
67E
330
1F
100
AcDbEntity
  8
SK2
  6
CONTINUOUS
370
25
 62
7
100
AcDbLine
 10
2.029237256178526
 20
37.8057974512357
 30
0.0
 11
3.043855884267785
 21
36.79117882314644
 31
0.0
  0
LINE
  5
67F
330
1F
100
AcDbEntity
  8
SK2
  6
CONTINUOUS
370
25
 62
7
100
AcDbLine
 10
2.382790646771802
 20
37.87650812935436
 30
0.0
 11
3.574185970157707
 21
36.68511280596845
 31
0.0
  0
LINE
  5
680
330
1F
100
AcDbEntity
  8
SK2
  6
CONTINUOUS
370
25
 62
7
100
AcDbLine
 10
2.736344037365079
 20
37.94721880747301
 30
0.0
 11
4.104516056047615
 21
36.57904678879047
 31
0.0
  0
LINE
  5
681
330
1F
100
AcDbEntity
  8
SK2
  6
CONTINUOUS
370
25
 62
7
100
AcDbLine
 10
3.089897427958356
 20
38.01792948559167
 30
0.0
 11
4.63484614193753
 21
36.47298077161249
 31
0.0
  0
LINE
  5
682
330
1F
100
AcDbEntity
  8
SK2
  6
CONTINUOUS
370
25
 62
7
100
AcDbLine
 10
3.443450818551639
 20
38.08864016371032
 30
0.0
 11
5.0
 21
36.53209098226196
 31
0.0
  0
LINE
  5
683
330
1F
100
AcDbEntity
  8
SK2
  6
CONTINUOUS
370
25
 62
7
100
AcDbLine
 10
3.797004209144909
 20
38.15935084182898
 30
0.0
 11
5.0
 21
36.95635505097388
 31
0.0
  0
LINE
  5
684
330
1F
100
AcDbEntity
  8
SK2
  6
CONTINUOUS
370
25
 62
7
100
AcDbLine
 10
4.150557599738185
 20
38.23006151994764
 30
0.0
 11
5.0
 21
37.38061911968582
 31
0.0
  0
LINE
  5
685
330
1F
100
AcDbEntity
  8
SK2
  6
CONTINUOUS
370
25
 62
7
100
AcDbLine
 10
4.504110990331469
 20
38.30077219806629
 30
0.0
 11
5.0
 21
37.80488318839775
 31
0.0
  0
LINE
  5
686
330
1F
100
AcDbEntity
  8
SK2
  6
CONTINUOUS
370
25
 62
7
100
AcDbLine
 10
4.857664380924746
 20
38.37148287618494
 30
0.0
 11
5.0
 21
38.22914725710969
 31
0.0
  0
LINE
  5
687
330
1F
100
AcDbEntity
  8
SK2
  6
CONTINUOUS
370
25
 62
7
100
AcDbLine
 10
60.0
 20
37.39995
 30
0.0
 11
55.0
 21
36.39995
 31
0.0
  0
LINE
  5
688
330
1F
100
AcDbEntity
  8
SK2
  6
CONTINUOUS
370
25
 62
7
100
AcDbLine
 10
55.0
 20
36.39995
 30
0.0
 11
55.0
 21
38.39995
 31
0.0
  0
LINE
  5
689
330
1F
100
AcDbEntity
  8
SK2
  6
CONTINUOUS
370
25
 62
7
100
AcDbLine
 10
55.0
 20
38.39995
 30
0.0
 11
60.0
 21
37.39995
 31
0.0
  0
LINE
  5
68A
330
1F
100
AcDbEntity
  8
SK2
  6
CONTINUOUS
370
25
 62
7
100
AcDbLine
 10
59.56706415029346
 20
37.31336283005869
 30
0.0
 11
59.71137610019565
 21
37.45767477996087
 31
0.0
  0
LINE
  5
68B
330
1F
100
AcDbEntity
  8
SK2
  6
CONTINUOUS
370
25
 62
7
100
AcDbLine
 10
59.03673406440356
 20
37.20729681288071
 30
0.0
 11
59.35782270960237
 21
37.52838545807953
 31
0.0
  0
LINE
  5
68C
330
1F
100
AcDbEntity
  8
SK2
  6
CONTINUOUS
370
25
 62
7
100
AcDbLine
 10
58.50640397851365
 20
37.10123079570272
 30
0.0
 11
59.0042693190091
 21
37.59909613619818
 31
0.0
  0
LINE
  5
68D
330
1F
100
AcDbEntity
  8
SK2
  6
CONTINUOUS
370
25
 62
7
100
AcDbLine
 10
57.97607389262373
 20
36.99516477852474
 30
0.0
 11
58.65071592841582
 21
37.66980681431683
 31
0.0
  0
LINE
  5
68E
330
1F
100
AcDbEntity
  8
SK2
  6
CONTINUOUS
370
25
 62
7
100
AcDbLine
 10
57.44574380673382
 20
36.88909876134676
 30
0.0
 11
58.29716253782254
 21
37.74051749243549
 31
0.0
  0
LINE
  5
68F
330
1F
100
AcDbEntity
  8
SK2
  6
CONTINUOUS
370
25
 62
7
100
AcDbLine
 10
56.9154137208439
 20
36.78303274416878
 30
0.0
 11
57.94360914722927
 21
37.81122817055414
 31
0.0
  0
LINE
  5
690
330
1F
100
AcDbEntity
  8
SK2
  6
CONTINUOUS
370
25
 62
7
100
AcDbLine
 10
56.38508363495399
 20
36.67696672699079
 30
0.0
 11
57.59005575663599
 21
37.8819388486728
 31
0.0
  0
LINE
  5
691
330
1F
100
AcDbEntity
  8
SK2
  6
CONTINUOUS
370
25
 62
7
100
AcDbLine
 10
55.85475354906407
 20
36.57090070981281
 30
0.0
 11
57.23650236604271
 21
37.95264952679146
 31
0.0
  0
LINE
  5
692
330
1F
100
AcDbEntity
  8
SK2
  6
CONTINUOUS
370
25
 62
7
100
AcDbLine
 10
55.32442346317417
 20
36.46483469263482
 30
0.0
 11
56.88294897544944
 21
38.02336020491011
 31
0.0
  0
LINE
  5
693
330
1F
100
AcDbEntity
  8
SK2
  6
CONTINUOUS
370
25
 62
7
100
AcDbLine
 10
55.0
 20
36.5646752981726
 30
0.0
 11
56.52939558485617
 21
38.09407088302876
 31
0.0
  0
LINE
  5
694
330
1F
100
AcDbEntity
  8
SK2
  6
CONTINUOUS
370
25
 62
7
100
AcDbLine
 10
55.0
 20
36.98893936688452
 30
0.0
 11
56.17584219426289
 21
38.16478156114742
 31
0.0
  0
LINE
  5
695
330
1F
100
AcDbEntity
  8
SK2
  6
CONTINUOUS
370
25
 62
7
100
AcDbLine
 10
55.0
 20
37.41320343559646
 30
0.0
 11
55.82228880366961
 21
38.23549223926608
 31
0.0
  0
LINE
  5
696
330
1F
100
AcDbEntity
  8
SK2
  6
CONTINUOUS
370
25
 62
7
100
AcDbLine
 10
55.0
 20
37.83746750430839
 30
0.0
 11
55.46873541307635
 21
38.30620291738473
 31
0.0
  0
LINE
  5
697
330
1F
100
AcDbEntity
  8
SK2
  6
CONTINUOUS
370
25
 62
7
100
AcDbLine
 10
55.0
 20
38.26173157302032
 30
0.0
 11
55.11518202248307
 21
38.37691359550338
 31
0.0
  0
LINE
  5
698
330
1F
100
AcDbEntity
  8
SK2
  6
CONTINUOUS
370
25
 62
7
100
AcDbLine
 10
55.0
 20
36.40874452027909
 30
0.0
 11
55.00732876689924
 21
36.40141575337984
 31
0.0
  0
LINE
  5
699
330
1F
100
AcDbEntity
  8
SK2
  6
CONTINUOUS
370
25
 62
7
100
AcDbLine
 10
55.0
 20
36.83300858899101
 30
0.0
 11
55.36088215749251
 21
36.47212643149849
 31
0.0
  0
LINE
  5
69A
330
1F
100
AcDbEntity
  8
SK2
  6
CONTINUOUS
370
25
 62
7
100
AcDbLine
 10
55.0
 20
37.25727265770294
 30
0.0
 11
55.71443554808579
 21
36.54283710961715
 31
0.0
  0
LINE
  5
69B
330
1F
100
AcDbEntity
  8
SK2
  6
CONTINUOUS
370
25
 62
7
100
AcDbLine
 10
55.0
 20
37.68153672641487
 30
0.0
 11
56.06798893867906
 21
36.61354778773581
 31
0.0
  0
LINE
  5
69C
330
1F
100
AcDbEntity
  8
SK2
  6
CONTINUOUS
370
25
 62
7
100
AcDbLine
 10
55.0
 20
38.1058007951268
 30
0.0
 11
56.42154232927234
 21
36.68425846585446
 31
0.0
  0
LINE
  5
69D
330
1F
100
AcDbEntity
  8
SK2
  6
CONTINUOUS
370
25
 62
7
100
AcDbLine
 10
55.16264357979841
 20
38.36742128404032
 30
0.0
 11
56.77509571986561
 21
36.75496914397311
 31
0.0
  0
LINE
  5
69E
330
1F
100
AcDbEntity
  8
SK2
  6
CONTINUOUS
370
25
 62
7
100
AcDbLine
 10
55.69297366568833
 20
38.26135526686234
 30
0.0
 11
57.12864911045889
 21
36.82567982209177
 31
0.0
  0
LINE
  5
69F
330
1F
100
AcDbEntity
  8
SK2
  6
CONTINUOUS
370
25
 62
7
100
AcDbLine
 10
56.22330375157824
 20
38.15528924968435
 30
0.0
 11
57.48220250105216
 21
36.89639050021043
 31
0.0
  0
LINE
  5
6A0
330
1F
100
AcDbEntity
  8
SK2
  6
CONTINUOUS
370
25
 62
7
100
AcDbLine
 10
56.75363383746816
 20
38.04922323250636
 30
0.0
 11
57.83575589164544
 21
36.96710117832908
 31
0.0
  0
LINE
  5
6A1
330
1F
100
AcDbEntity
  8
SK2
  6
CONTINUOUS
370
25
 62
7
100
AcDbLine
 10
57.28396392335807
 20
37.94315721532838
 30
0.0
 11
58.18930928223871
 21
37.03781185644773
 31
0.0
  0
LINE
  5
6A2
330
1F
100
AcDbEntity
  8
SK2
  6
CONTINUOUS
370
25
 62
7
100
AcDbLine
 10
57.81429400924799
 20
37.8370911981504
 30
0.0
 11
58.54286267283199
 21
37.10852253456639
 31
0.0
  0
LINE
  5
6A3
330
1F
100
AcDbEntity
  8
SK2
  6
CONTINUOUS
370
25
 62
7
100
AcDbLine
 10
58.3446240951379
 20
37.73102518097242
 30
0.0
 11
58.89641606342527
 21
37.17923321268505
 31
0.0
  0
LINE
  5
6A4
330
1F
100
AcDbEntity
  8
SK2
  6
CONTINUOUS
370
25
 62
7
100
AcDbLine
 10
58.87495418102781
 20
37.62495916379444
 30
0.0
 11
59.24996945401854
 21
37.24994389080371
 31
0.0
  0
LINE
  5
6A5
330
1F
100
AcDbEntity
  8
SK2
  6
CONTINUOUS
370
25
 62
7
100
AcDbLine
 10
59.40528426691772
 20
37.51889314661646
 30
0.0
 11
59.60352284461182
 21
37.32065456892236
 31
0.0
  0
LINE
  5
6A6
330
1F
100
AcDbEntity
  8
SK2
  6
CONTINUOUS
370
25
 62
7
100
AcDbLine
 10
59.93561435280763
 20
37.41282712943847
 30
0.0
 11
59.95707623520509
 21
37.39136524704101
 31
0.0
  0
TEXT
  5
6A7
330
1F
100
AcDbEntity
  8
SK2
  6
CONTINUOUS
370
25
 62
7
100
AcDbText
 10
27.375
 20
38.89995
 30
0.0
 40
3.5
  1
60
 72
     1
 11
30.0
 21
38.89995
 31
0.0
100
AcDbText
  0
LINE
  5
6A8
330
1F
100
AcDbEntity
  8
2
  6
CONTINUOUS
370
25
 62
7
100
AcDbLine
 10
45.0
 20
-0.36995
 30
0.0
 11
44.99999999999999
 21
-23.4
 31
0.0
  0
LINE
  5
6A9
330
1F
100
AcDbEntity
  8
2
  6
CONTINUOUS
370
25
 62
7
100
AcDbLine
 10
60.0
 20
-23.4
 30
0.0
 11
60.0
 21
-0.3999999999999986
 31
0.0
  0
LINE
  5
6AA
330
1F
100
AcDbEntity
  8
2
  6
CONTINUOUS
370
25
 62
7
100
AcDbLine
 10
37.99999999999999
 20
-22.4
 30
0.0
 11
67.0
 21
-22.4
 31
0.0
  0
LINE
  5
6AB
330
1F
100
AcDbEntity
  8
2
  6
CONTINUOUS
370
25
 62
7
100
AcDbLine
 10
44.99999999999999
 20
-22.4
 30
0.0
 11
39.99999999999999
 21
-23.4
 31
0.0
  0
LINE
  5
6AC
330
1F
100
AcDbEntity
  8
2
  6
CONTINUOUS
370
25
 62
7
100
AcDbLine
 10
39.99999999999999
 20
-23.4
 30
0.0
 11
39.99999999999999
 21
-21.4
 31
0.0
  0
LINE
  5
6AD
330
1F
100
AcDbEntity
  8
2
  6
CONTINUOUS
370
25
 62
7
100
AcDbLine
 10
39.99999999999999
 20
-21.4
 30
0.0
 11
44.99999999999999
 21
-22.4
 31
0.0
  0
LINE
  5
6AE
330
1F
100
AcDbEntity
  8
2
  6
CONTINUOUS
370
25
 62
7
100
AcDbLine
 10
44.66660654822759
 20
-22.46667869035448
 30
0.0
 11
44.77773769881838
 21
-22.35554753976368
 31
0.0
  0
LINE
  5
6AF
330
1F
100
AcDbEntity
  8
2
  6
CONTINUOUS
370
25
 62
7
100
AcDbLine
 10
44.13627646233768
 20
-22.57274470753246
 30
0.0
 11
44.42418430822512
 21
-22.28483686164503
 31
0.0
  0
LINE
  5
6B0
330
1F
100
AcDbEntity
  8
2
  6
CONTINUOUS
370
25
 62
7
100
AcDbLine
 10
43.60594637644777
 20
-22.67881072471044
 30
0.0
 11
44.07063091763185
 21
-22.21412618352637
 31
0.0
  0
LINE
  5
6B1
330
1F
100
AcDbEntity
  8
2
  6
CONTINUOUS
370
25
 62
7
100
AcDbLine
 10
43.07561629055786
 20
-22.78487674188843
 30
0.0
 11
43.71707752703857
 21
-22.14341550540772
 31
0.0
  0
LINE
  5
6B2
330
1F
100
AcDbEntity
  8
2
  6
CONTINUOUS
370
25
 62
7
100
AcDbLine
 10
42.54528620466795
 20
-22.89094275906641
 30
0.0
 11
43.3635241364453
 21
-22.07270482728906
 31
0.0
  0
LINE
  5
6B3
330
1F
100
AcDbEntity
  8
2
  6
CONTINUOUS
370
25
 62
7
100
AcDbLine
 10
42.01495611877804
 20
-22.99700877624439
 30
0.0
 11
43.00997074585202
 21
-22.00199414917041
 31
0.0
  0
LINE
  5
6B4
330
1F
100
AcDbEntity
  8
2
  6
CONTINUOUS
370
25
 62
7
100
AcDbLine
 10
41.48462603288813
 20
-23.10307479342237
 30
0.0
 11
42.65641735525875
 21
-21.93128347105175
 31
0.0
  0
LINE
  5
6B5
330
1F
100
AcDbEntity
  8
2
  6
CONTINUOUS
370
25
 62
7
100
AcDbLine
 10
40.95429594699822
 20
-23.20914081060035
 30
0.0
 11
42.30286396466548
 21
-21.86057279293309
 31
0.0
  0
LINE
  5
6B6
330
1F
100
AcDbEntity
  8
2
  6
CONTINUOUS
370
25
 62
7
100
AcDbLine
 10
40.42396586110831
 20
-23.31520682777834
 30
0.0
 11
41.9493105740722
 21
-21.78986211481444
 31
0.0
  0
LINE
  5
6B7
330
1F
100
AcDbEntity
  8
2
  6
CONTINUOUS
370
25
 62
7
100
AcDbLine
 10
39.99999999999999
 20
-23.31490862017472
 30
0.0
 11
41.59575718347893
 21
-21.71915143669579
 31
0.0
  0
LINE
  5
6B8
330
1F
100
AcDbEntity
  8
2
  6
CONTINUOUS
370
25
 62
7
100
AcDbLine
 10
39.99999999999999
 20
-22.89064455146279
 30
0.0
 11
41.24220379288565
 21
-21.64844075857713
 31
0.0
  0
LINE
  5
6B9
330
1F
100
AcDbEntity
  8
2
  6
CONTINUOUS
370
25
 62
7
100
AcDbLine
 10
39.99999999999999
 20
-22.46638048275086
 30
0.0
 11
40.88865040229238
 21
-21.57773008045848
 31
0.0
  0
LINE
  5
6BA
330
1F
100
AcDbEntity
  8
2
  6
CONTINUOUS
370
25
 62
7
100
AcDbLine
 10
39.99999999999999
 20
-22.04211641403894
 30
0.0
 11
40.53509701169911
 21
-21.50701940233982
 31
0.0
  0
LINE
  5
6BB
330
1F
100
AcDbEntity
  8
2
  6
CONTINUOUS
370
25
 62
7
100
AcDbLine
 10
39.99999999999999
 20
-21.61785234532701
 30
0.0
 11
40.18154362110584
 21
-21.43630872422117
 31
0.0
  0
LINE
  5
6BC
330
1F
100
AcDbEntity
  8
2
  6
CONTINUOUS
370
25
 62
7
100
AcDbLine
 10
39.99999999999999
 20
-23.21856661282066
 30
0.0
 11
40.15119448931611
 21
-23.36976110213677
 31
0.0
  0
LINE
  5
6BD
330
1F
100
AcDbEntity
  8
2
  6
CONTINUOUS
370
25
 62
7
100
AcDbLine
 10
39.99999999999999
 20
-22.79430254410873
 30
0.0
 11
40.50474787990939
 21
-23.29905042401812
 31
0.0
  0
LINE
  5
6BE
330
1F
100
AcDbEntity
  8
2
  6
CONTINUOUS
370
25
 62
7
100
AcDbLine
 10
39.99999999999999
 20
-22.3700384753968
 30
0.0
 11
40.85830127050266
 21
-23.22833974589946
 31
0.0
  0
LINE
  5
6BF
330
1F
100
AcDbEntity
  8
2
  6
CONTINUOUS
370
25
 62
7
100
AcDbLine
 10
39.99999999999999
 20
-21.94577440668487
 30
0.0
 11
41.21185466109593
 21
-23.15762906778081
 31
0.0
  0
LINE
  5
6C0
330
1F
100
AcDbEntity
  8
2
  6
CONTINUOUS
370
25
 62
7
100
AcDbLine
 10
39.99999999999999
 20
-21.52151033797294
 30
0.0
 11
41.5654080516892
 21
-23.08691838966216
 31
0.0
  0
LINE
  5
6C1
330
1F
100
AcDbEntity
  8
2
  6
CONTINUOUS
370
25
 62
7
100
AcDbLine
 10
40.37844216342372
 20
-21.47568843268474
 30
0.0
 11
41.91896144228248
 21
-23.0162077115435
 31
0.0
  0
LINE
  5
6C2
330
1F
100
AcDbEntity
  8
2
  6
CONTINUOUS
370
25
 62
7
100
AcDbLine
 10
40.90877224931364
 20
-21.58175444986273
 30
0.0
 11
42.27251483287575
 21
-22.94549703342485
 31
0.0
  0
LINE
  5
6C3
330
1F
100
AcDbEntity
  8
2
  6
CONTINUOUS
370
25
 62
7
100
AcDbLine
 10
41.43910233520354
 20
-21.68782046704071
 30
0.0
 11
42.62606822346903
 21
-22.87478635530619
 31
0.0
  0
LINE
  5
6C4
330
1F
100
AcDbEntity
  8
2
  6
CONTINUOUS
370
25
 62
7
100
AcDbLine
 10
41.96943242109345
 20
-21.79388648421869
 30
0.0
 11
42.9796216140623
 21
-22.80407567718754
 31
0.0
  0
LINE
  5
6C5
330
1F
100
AcDbEntity
  8
2
  6
CONTINUOUS
370
25
 62
7
100
AcDbLine
 10
42.49976250698337
 20
-21.89995250139667
 30
0.0
 11
43.33317500465557
 21
-22.73336499906888
 31
0.0
  0
LINE
  5
6C6
330
1F
100
AcDbEntity
  8
2
  6
CONTINUOUS
370
25
 62
7
100
AcDbLine
 10
43.03009259287327
 20
-22.00601851857466
 30
0.0
 11
43.68672839524885
 21
-22.66265432095023
 31
0.0
  0
LINE
  5
6C7
330
1F
100
AcDbEntity
  8
2
  6
CONTINUOUS
370
25
 62
7
100
AcDbLine
 10
43.56042267876318
 20
-22.11208453575264
 30
0.0
 11
44.04028178584212
 21
-22.59194364283157
 31
0.0
  0
LINE
  5
6C8
330
1F
100
AcDbEntity
  8
2
  6
CONTINUOUS
370
25
 62
7
100
AcDbLine
 10
44.09075276465309
 20
-22.21815055293062
 30
0.0
 11
44.39383517643539
 21
-22.52123296471292
 31
0.0
  0
LINE
  5
6C9
330
1F
100
AcDbEntity
  8
2
  6
CONTINUOUS
370
25
 62
7
100
AcDbLine
 10
44.621082850543
 20
-22.3242165701086
 30
0.0
 11
44.74738856702866
 21
-22.45052228659426
 31
0.0
  0
LINE
  5
6CA
330
1F
100
AcDbEntity
  8
2
  6
CONTINUOUS
370
25
 62
7
100
AcDbLine
 10
60.0
 20
-22.4
 30
0.0
 11
65.0
 21
-21.4
 31
0.0
  0
LINE
  5
6CB
330
1F
100
AcDbEntity
  8
2
  6
CONTINUOUS
370
25
 62
7
100
AcDbLine
 10
65.0
 20
-21.4
 30
0.0
 11
65.0
 21
-23.4
 31
0.0
  0
LINE
  5
6CC
330
1F
100
AcDbEntity
  8
2
  6
CONTINUOUS
370
25
 62
7
100
AcDbLine
 10
65.0
 20
-23.4
 30
0.0
 11
60.0
 21
-22.4
 31
0.0
  0
LINE
  5
6CD
330
1F
100
AcDbEntity
  8
2
  6
CONTINUOUS
370
25
 62
7
100
AcDbLine
 10
64.7011684554544
 20
-23.34023369109088
 30
0.0
 11
65.0
 21
-23.04140214654528
 31
0.0
  0
LINE
  5
6CE
330
1F
100
AcDbEntity
  8
2
  6
CONTINUOUS
370
25
 62
7
100
AcDbLine
 10
64.34761506486113
 20
-23.26952301297223
 30
0.0
 11
65.0
 21
-22.61713807783336
 31
0.0
  0
LINE
  5
6CF
330
1F
100
AcDbEntity
  8
2
  6
CONTINUOUS
370
25
 62
7
100
AcDbLine
 10
63.99406167426785
 20
-23.19881233485357
 30
0.0
 11
65.0
 21
-22.19287400912143
 31
0.0
  0
LINE
  5
6D0
330
1F
100
AcDbEntity
  8
2
  6
CONTINUOUS
370
25
 62
7
100
AcDbLine
 10
63.64050828367458
 20
-23.12810165673491
 30
0.0
 11
65.0
 21
-21.7686099404095
 31
0.0
  0
LINE
  5
6D1
330
1F
100
AcDbEntity
  8
2
  6
CONTINUOUS
370
25
 62
7
100
AcDbLine
 10
63.28695489308131
 20
-23.05739097861626
 30
0.0
 11
64.93043233962196
 21
-21.41391353207561
 31
0.0
  0
LINE
  5
6D2
330
1F
100
AcDbEntity
  8
2
  6
CONTINUOUS
370
25
 62
7
100
AcDbLine
 10
62.93340150248804
 20
-22.9866803004976
 30
0.0
 11
64.40010225373206
 21
-21.51997954925359
 31
0.0
  0
LINE
  5
6D3
330
1F
100
AcDbEntity
  8
2
  6
CONTINUOUS
370
25
 62
7
100
AcDbLine
 10
62.57984811189476
 20
-22.91596962237895
 30
0.0
 11
63.86977216784214
 21
-21.62604556643157
 31
0.0
  0
LINE
  5
6D4
330
1F
100
AcDbEntity
  8
2
  6
CONTINUOUS
370
25
 62
7
100
AcDbLine
 10
62.22629472130149
 20
-22.84525894426029
 30
0.0
 11
63.33944208195223
 21
-21.73211158360955
 31
0.0
  0
LINE
  5
6D5
330
1F
100
AcDbEntity
  8
2
  6
CONTINUOUS
370
25
 62
7
100
AcDbLine
 10
61.87274133070822
 20
-22.77454826614164
 30
0.0
 11
62.80911199606233
 21
-21.83817760078753
 31
0.0
  0
LINE
  5
6D6
330
1F
100
AcDbEntity
  8
2
  6
CONTINUOUS
370
25
 62
7
100
AcDbLine
 10
61.51918794011494
 20
-22.70383758802299
 30
0.0
 11
62.27878191017241
 21
-21.94424361796552
 31
0.0
  0
LINE
  5
6D7
330
1F
100
AcDbEntity
  8
2
  6
CONTINUOUS
370
25
 62
7
100
AcDbLine
 10
61.16563454952167
 20
-22.63312690990433
 30
0.0
 11
61.7484518242825
 21
-22.0503096351435
 31
0.0
  0
LINE
  5
6D8
330
1F
100
AcDbEntity
  8
2
  6
CONTINUOUS
370
25
 62
7
100
AcDbLine
 10
60.81208115892839
 20
-22.56241623178568
 30
0.0
 11
61.2181217383926
 21
-22.15637565232148
 31
0.0
  0
LINE
  5
6D9
330
1F
100
AcDbEntity
  8
2
  6
CONTINUOUS
370
25
 62
7
100
AcDbLine
 10
60.45852776833512
 20
-22.49170555366702
 30
0.0
 11
60.68779165250268
 21
-22.26244166949946
 31
0.0
  0
LINE
  5
6DA
330
1F
100
AcDbEntity
  8
2
  6
CONTINUOUS
370
25
 62
7
100
AcDbLine
 10
60.10497437774185
 20
-22.42099487554837
 30
0.0
 11
60.15746156661277
 21
-22.36850768667745
 31
0.0
  0
LINE
  5
6DB
330
1F
100
AcDbEntity
  8
2
  6
CONTINUOUS
370
25
 62
7
100
AcDbLine
 10
60.07462524595206
 20
-22.38507495080959
 30
0.0
 11
60.11193786892809
 21
-22.42238757378562
 31
0.0
  0
LINE
  5
6DC
330
1F
100
AcDbEntity
  8
2
  6
CONTINUOUS
370
25
 62
7
100
AcDbLine
 10
60.42817863654534
 20
-22.31436427269093
 30
0.0
 11
60.64226795481801
 21
-22.5284535909636
 31
0.0
  0
LINE
  5
6DD
330
1F
100
AcDbEntity
  8
2
  6
CONTINUOUS
370
25
 62
7
100
AcDbLine
 10
60.78173202713862
 20
-22.24365359457228
 30
0.0
 11
61.17259804070792
 21
-22.63451960814158
 31
0.0
  0
LINE
  5
6DE
330
1F
100
AcDbEntity
  8
2
  6
CONTINUOUS
370
25
 62
7
100
AcDbLine
 10
61.13528541773189
 20
-22.17294291645362
 30
0.0
 11
61.70292812659783
 21
-22.74058562531956
 31
0.0
  0
LINE
  5
6DF
330
1F
100
AcDbEntity
  8
2
  6
CONTINUOUS
370
25
 62
7
100
AcDbLine
 10
61.48883880832516
 20
-22.10223223833497
 30
0.0
 11
62.23325821248774
 21
-22.84665164249755
 31
0.0
  0
LINE
  5
6E0
330
1F
100
AcDbEntity
  8
2
  6
CONTINUOUS
370
25
 62
7
100
AcDbLine
 10
61.84239219891843
 20
-22.03152156021631
 30
0.0
 11
62.76358829837765
 21
-22.95271765967553
 31
0.0
  0
LINE
  5
6E1
330
1F
100
AcDbEntity
  8
2
  6
CONTINUOUS
370
25
 62
7
100
AcDbLine
 10
62.19594558951171
 20
-21.96081088209766
 30
0.0
 11
63.29391838426756
 21
-23.05878367685351
 31
0.0
  0
LINE
  5
6E2
330
1F
100
AcDbEntity
  8
2
  6
CONTINUOUS
370
25
 62
7
100
AcDbLine
 10
62.54949898010498
 20
-21.890100203979
 30
0.0
 11
63.82424847015747
 21
-23.1648496940315
 31
0.0
  0
LINE
  5
6E3
330
1F
100
AcDbEntity
  8
2
  6
CONTINUOUS
370
25
 62
7
100
AcDbLine
 10
62.90305237069825
 20
-21.81938952586035
 30
0.0
 11
64.35457855604739
 21
-23.27091571120947
 31
0.0
  0
LINE
  5
6E4
330
1F
100
AcDbEntity
  8
2
  6
CONTINUOUS
370
25
 62
7
100
AcDbLine
 10
63.25660576129152
 20
-21.74867884774169
 30
0.0
 11
64.88490864193729
 21
-23.37698172838746
 31
0.0
  0
LINE
  5
6E5
330
1F
100
AcDbEntity
  8
2
  6
CONTINUOUS
370
25
 62
7
100
AcDbLine
 10
63.6101591518848
 20
-21.67796816962304
 30
0.0
 11
65.0
 21
-23.06780901773823
 31
0.0
  0
LINE
  5
6E6
330
1F
100
AcDbEntity
  8
2
  6
CONTINUOUS
370
25
 62
7
100
AcDbLine
 10
63.96371254247807
 20
-21.60725749150438
 30
0.0
 11
65.0
 21
-22.64354494902631
 31
0.0
  0
LINE
  5
6E7
330
1F
100
AcDbEntity
  8
2
  6
CONTINUOUS
370
25
 62
7
100
AcDbLine
 10
64.31726593307134
 20
-21.53654681338573
 30
0.0
 11
65.0
 21
-22.21928088031438
 31
0.0
  0
LINE
  5
6E8
330
1F
100
AcDbEntity
  8
2
  6
CONTINUOUS
370
25
 62
7
100
AcDbLine
 10
64.67081932366462
 20
-21.46583613526708
 30
0.0
 11
65.0
 21
-21.79501681160245
 31
0.0
  0
TEXT
  5
6E9
330
1F
100
AcDbEntity
  8
2
  6
CONTINUOUS
370
25
 62
7
100
AcDbText
 10
50.16666666666666
 20
-20.9
 30
0.0
 40
3.5
  1
15
 72
     1
 11
52.5
 21
-20.9
 31
0.0
100
AcDbText
  0
LINE
  5
6EA
330
1F
100
AcDbEntity
  8
2
  6
CONTINUOUS
370
25
 62
7
100
AcDbLine
 10
59.88407415
 20
-0.28160589
 30
0.0
 11
83.60241826184271
 21
-23.99995000184269
 31
0.0
  0
LINE
  5
6EB
330
1F
100
AcDbEntity
  8
2
  6
CONTINUOUS
370
25
 62
7
100
AcDbLine
 10
83.60241826184271
 20
-23.99995000184269
 30
0.0
 11
97.02741826184271
 21
-23.99995000184269
 31
0.0
  0
LINE
  5
6EC
330
1F
100
AcDbEntity
  8
2
  6
CONTINUOUS
370
25
 62
7
100
AcDbLine
 10
59.88407415
 20
-0.28160589
 30
0.0
 11
59.60123143752538
 21
0.001236822474619
 31
0.0
  0
LINE
  5
6ED
330
1F
100
AcDbEntity
  8
2
  6
CONTINUOUS
370
25
 62
7
100
AcDbLine
 10
59.88407415
 20
-0.28160589
 30
0.0
 11
64.12671483711928
 21
-3.110033014746187
 31
0.0
  0
LINE
  5
6EE
330
1F
100
AcDbEntity
  8
2
  6
CONTINUOUS
370
25
 62
7
100
AcDbLine
 10
64.12671483711928
 20
-3.110033014746187
 30
0.0
 11
62.71250127474619
 21
-4.524246577119283
 31
0.0
  0
LINE
  5
6EF
330
1F
100
AcDbEntity
  8
2
  6
CONTINUOUS
370
25
 62
7
100
AcDbLine
 10
62.71250127474619
 20
-4.524246577119283
 30
0.0
 11
59.88407415
 21
-0.28160589
 31
0.0
  0
LINE
  5
6F0
330
1F
100
AcDbEntity
  8
2
  6
CONTINUOUS
370
25
 62
7
100
AcDbLine
 10
62.66035659151779
 20
-4.446029552276674
 30
0.0
 11
64.04849781227668
 21
-3.057888331517784
 31
0.0
  0
LINE
  5
6F1
330
1F
100
AcDbEntity
  8
2
  6
CONTINUOUS
370
25
 62
7
100
AcDbLine
 10
62.49065096403302
 20
-4.19147111104952
 30
0.0
 11
63.79393937104952
 21
-2.888182704033014
 31
0.0
  0
LINE
  5
6F2
330
1F
100
AcDbEntity
  8
2
  6
CONTINUOUS
370
25
 62
7
100
AcDbLine
 10
62.32094533654825
 20
-3.936912669822362
 30
0.0
 11
63.53938092982236
 21
-2.718477076548243
 31
0.0
  0
LINE
  5
6F3
330
1F
100
AcDbEntity
  8
2
  6
CONTINUOUS
370
25
 62
7
100
AcDbLine
 10
62.15123970906347
 20
-3.682354228595205
 30
0.0
 11
63.28482248859521
 21
-2.548771449063473
 31
0.0
  0
LINE
  5
6F4
330
1F
100
AcDbEntity
  8
2
  6
CONTINUOUS
370
25
 62
7
100
AcDbLine
 10
61.9815340815787
 20
-3.427795787368051
 30
0.0
 11
63.03026404736805
 21
-2.379065821578703
 31
0.0
  0
LINE
  5
6F5
330
1F
100
AcDbEntity
  8
2
  6
CONTINUOUS
370
25
 62
7
100
AcDbLine
 10
61.81182845409393
 20
-3.17323734614089
 30
0.0
 11
62.7757056061409
 21
-2.209360194093929
 31
0.0
  0
LINE
  5
6F6
330
1F
100
AcDbEntity
  8
2
  6
CONTINUOUS
370
25
 62
7
100
AcDbLine
 10
61.64212282660916
 20
-2.918678904913737
 30
0.0
 11
62.52114716491374
 21
-2.039654566609158
 31
0.0
  0
LINE
  5
6F7
330
1F
100
AcDbEntity
  8
2
  6
CONTINUOUS
370
25
 62
7
100
AcDbLine
 10
61.47241719912439
 20
-2.664120463686579
 30
0.0
 11
62.26658872368658
 21
-1.869948939124388
 31
0.0
  0
LINE
  5
6F8
330
1F
100
AcDbEntity
  8
2
  6
CONTINUOUS
370
25
 62
7
100
AcDbLine
 10
61.30271157163962
 20
-2.409562022459422
 30
0.0
 11
62.01203028245942
 21
-1.700243311639618
 31
0.0
  0
LINE
  5
6F9
330
1F
100
AcDbEntity
  8
2
  6
CONTINUOUS
370
25
 62
7
100
AcDbLine
 10
61.13300594415485
 20
-2.155003581232265
 30
0.0
 11
61.75747184123226
 21
-1.530537684154847
 31
0.0
  0
LINE
  5
6FA
330
1F
100
AcDbEntity
  8
2
  6
CONTINUOUS
370
25
 62
7
100
AcDbLine
 10
60.96330031667007
 20
-1.900445140005107
 30
0.0
 11
61.50291340000511
 21
-1.360832056670073
 31
0.0
  0
LINE
  5
6FB
330
1F
100
AcDbEntity
  8
2
  6
CONTINUOUS
370
25
 62
7
100
AcDbLine
 10
60.7935946891853
 20
-1.645886698777954
 30
0.0
 11
61.24835495877795
 21
-1.191126429185303
 31
0.0
  0
LINE
  5
6FC
330
1F
100
AcDbEntity
  8
2
  6
CONTINUOUS
370
25
 62
7
100
AcDbLine
 10
60.62388906170053
 20
-1.391328257550796
 30
0.0
 11
60.99379651755079
 21
-1.021420801700533
 31
0.0
  0
LINE
  5
6FD
330
1F
100
AcDbEntity
  8
2
  6
CONTINUOUS
370
25
 62
7
100
AcDbLine
 10
60.45418343421576
 20
-1.136769816323639
 30
0.0
 11
60.73923807632364
 21
-0.8517151742157623
 31
0.0
  0
LINE
  5
6FE
330
1F
100
AcDbEntity
  8
2
  6
CONTINUOUS
370
25
 62
7
100
AcDbLine
 10
60.28447780673099
 20
-0.8822113750964817
 30
0.0
 11
60.48467963509648
 21
-0.6820095467309919
 31
0.0
  0
LINE
  5
6FF
330
1F
100
AcDbEntity
  8
2
  6
CONTINUOUS
370
25
 62
7
100
AcDbLine
 10
60.11477217924622
 20
-0.627652933869328
 30
0.0
 11
60.23012119386932
 21
-0.512303919246218
 31
0.0
  0
LINE
  5
700
330
1F
100
AcDbEntity
  8
2
  6
CONTINUOUS
370
25
 62
7
100
AcDbLine
 10
59.94506655176144
 20
-0.3730944926421707
 30
0.0
 11
59.97556275264217
 21
-0.3425982917614476
 31
0.0
  0
LINE
  5
701
330
1F
100
AcDbEntity
  8
2
  6
CONTINUOUS
370
25
 62
7
100
AcDbLine
 10
62.4567163485025
 20
-4.140569187753741
 30
0.0
 11
62.77644750630711
 21
-4.460300345558359
 31
0.0
  0
LINE
  5
702
330
1F
100
AcDbEntity
  8
2
  6
CONTINUOUS
370
25
 62
7
100
AcDbLine
 10
61.60818821107864
 20
-2.867776981617954
 30
0.0
 11
62.98857954066308
 21
-4.248168311202392
 31
0.0
  0
LINE
  5
703
330
1F
100
AcDbEntity
  8
2
  6
CONTINUOUS
370
25
 62
7
100
AcDbLine
 10
60.75966007365478
 20
-1.594984775482168
 30
0.0
 11
63.20071157501904
 21
-4.036036276846428
 31
0.0
  0
LINE
  5
704
330
1F
100
AcDbEntity
  8
2
  6
CONTINUOUS
370
25
 62
7
100
AcDbLine
 10
59.91113193623092
 20
-0.3221925693463881
 30
0.0
 11
63.412843609375
 21
-3.823904242490464
 31
0.0
  0
LINE
  5
705
330
1F
100
AcDbEntity
  8
2
  6
CONTINUOUS
370
25
 62
7
100
AcDbLine
 10
61.1162796767894
 20
-1.103076241192934
 30
0.0
 11
63.62497564373096
 21
-3.6117722081345
 31
0.0
  0
LINE
  5
706
330
1F
100
AcDbEntity
  8
2
  6
CONTINUOUS
370
25
 62
7
100
AcDbLine
 10
62.38907188292518
 20
-1.951604378616789
 30
0.0
 11
63.83710767808693
 21
-3.399640173778536
 31
0.0
  0
LINE
  5
707
330
1F
100
AcDbEntity
  8
2
  6
CONTINUOUS
370
25
 62
7
100
AcDbLine
 10
63.66186408906097
 20
-2.800132516040648
 30
0.0
 11
64.0492397124429
 21
-3.187508139422572
 31
0.0
  0
TEXT
  5
708
330
1F
100
AcDbEntity
  8
2
  6
CONTINUOUS
370
25
 62
7
100
AcDbText
 10
85.35658492850938
 20
-22.49995000184269
 30
0.0
 40
3.5
  1
R0.4
 72
     1
 11
90.3149182618427
 21
-22.49995000184269
 31
0.0
100
AcDbText
  0
LINE
  5
709
330
1F
100
AcDbEntity
  8
SK1
  6
CONTINUOUS
370
50
 62
4
100
AcDbLine
 10
38.8
 20
0.0
 30
0.0
 11
40.55
 21
0.0
 31
0.0
  0
LINE
  5
70A
330
1F
100
AcDbEntity
  8
SK1
  6
CONTINUOUS
370
50
 62
4
100
AcDbLine
 10
38.8
 20
0.0
 30
0.0
 11
38.8
 21
1.75
 31
0.0
  0
ARC
  5
70B
330
1F
100
AcDbEntity
  8
SK1
  6
CONTINUOUS
370
50
 62
4
100
AcDbCircle
 10
38.8
 20
0.0
 30
0.0
 40
1.75
100
AcDbArc
 50
0.0
 51
90.0
  0
LINE
  5
70C
330
1F
100
AcDbEntity
  8
SK1
  6
CONTINUOUS
370
50
 62
4
100
AcDbLine
 10
38.8
 20
0.0
 30
0.0
 11
37.05
 21
0.0
 31
0.0
  0
ARC
  5
70D
330
1F
100
AcDbEntity
  8
SK1
  6
CONTINUOUS
370
50
 62
4
100
AcDbCircle
 10
38.8
 20
0.0
 30
0.0
 40
1.75
100
AcDbArc
 50
180.0
 51
270.0
  0
LINE
  5
70E
330
1F
100
AcDbEntity
  8
SK1
  6
CONTINUOUS
370
50
 62
4
100
AcDbLine
 10
38.8
 20
-1.75
 30
0.0
 11
38.8
 21
0.0
 31
0.0
  0
ARC
  5
70F
330
1F
100
AcDbEntity
  8
SK1
  6
CONTINUOUS
370
50
 62
4
100
AcDbCircle
 10
38.8
 20
0.0
 30
0.0
 40
1.75
100
AcDbArc
 50
270.0
 51
0.0
  0
ARC
  5
710
330
1F
100
AcDbEntity
  8
SK1
  6
CONTINUOUS
370
50
 62
4
100
AcDbCircle
 10
38.8
 20
0.0
 30
0.0
 40
1.75
100
AcDbArc
 50
90.0
 51
180.0
  0
LINE
  5
711
330
1F
100
AcDbEntity
  8
SK1
  6
CONTINUOUS
370
50
 62
4
100
AcDbLine
 10
38.57717274741573
 20
-1.73564731720198
 30
0.0
 11
38.8
 21
-1.512820064617713
 31
0.0
  0
LINE
  5
712
330
1F
100
AcDbEntity
  8
SK1
  6
CONTINUOUS
370
50
 62
4
100
AcDbLine
 10
40.31282006461771
 20
0.0
 30
0.0
 11
40.53564731720198
 21
0.2228272525842674
 31
0.0
  0
LINE
  5
713
330
1F
100
AcDbEntity
  8
SK1
  6
CONTINUOUS
370
50
 62
4
100
AcDbLine
 10
38.36930380681873
 20
-1.69602888438369
 30
0.0
 11
38.8
 21
-1.265332691202421
 31
0.0
  0
LINE
  5
714
330
1F
100
AcDbEntity
  8
SK1
  6
CONTINUOUS
370
50
 62
4
100
AcDbLine
 10
40.06533269120241
 20
0.0
 30
0.0
 11
40.49602888438368
 21
0.4306961931812696
 31
0.0
  0
LINE
  5
715
330
1F
100
AcDbEntity
  8
SK1
  6
CONTINUOUS
370
50
 62
4
100
AcDbLine
 10
38.18148340435764
 20
-1.636361913429485
 30
0.0
 11
38.8
 21
-1.01784531778713
 31
0.0
  0
LINE
  5
716
330
1F
100
AcDbEntity
  8
SK1
  6
CONTINUOUS
370
50
 62
4
100
AcDbLine
 10
39.81784531778712
 20
0.0
 30
0.0
 11
40.43636191342948
 21
0.6185165956423557
 31
0.0
  0
LINE
  5
717
330
1F
100
AcDbEntity
  8
SK1
  6
CONTINUOUS
370
50
 62
4
100
AcDbLine
 10
38.0098551094628
 20
-1.560502834909039
 30
0.0
 11
38.8
 21
-0.7703579443718382
 31
0.0
  0
LINE
  5
718
330
1F
100
AcDbEntity
  8
SK1
  6
CONTINUOUS
370
50
 62
4
100
AcDbLine
 10
39.57035794437184
 20
0.0
 30
0.0
 11
40.36050283490903
 21
0.7901448905372013
 31
0.0
  0
LINE
  5
719
330
1F
100
AcDbEntity
  8
SK1
  6
CONTINUOUS
370
50
 62
4
100
AcDbLine
 10
37.85217783219446
 20
-1.470692738762079
 30
0.0
 11
38.8
 21
-0.5228705709565462
 31
0.0
  0
LINE
  5
71A
330
1F
100
AcDbEntity
  8
SK1
  6
CONTINUOUS
370
50
 62
4
100
AcDbLine
 10
39.32287057095655
 20
0.0
 30
0.0
 11
40.27069273876207
 21
0.947822167805533
 31
0.0
  0
LINE
  5
71B
330
1F
100
AcDbEntity
  8
SK1
  6
CONTINUOUS
370
50
 62
4
100
AcDbLine
 10
37.70842956711547
 20
-1.366953630425777
 30
0.0
 11
38.8
 21
-0.2753831975412551
 31
0.0
  0
LINE
  5
71C
330
1F
100
AcDbEntity
  8
SK1
  6
CONTINUOUS
370
50
 62
4
100
AcDbLine
 10
39.07538319754125
 20
0.0
 30
0.0
 11
40.16695363042577
 21
1.091570432884522
 31
0.0
  0
LINE
  5
71D
330
1F
100
AcDbEntity
  8
SK1
  6
CONTINUOUS
370
50
 62
4
100
AcDbLine
 10
37.57712164538165
 20
-1.25077417874432
 30
0.0
 11
38.8
 21
-0.0278958241259639
 31
0.0
  0
LINE
  5
71E
330
1F
100
AcDbEntity
  8
SK1
  6
CONTINUOUS
370
50
 62
4
100
AcDbLine
 10
38.82789582412596
 20
0.0
 30
0.0
 11
40.05077417874432
 21
1.222878354618356
 31
0.0
  0
LINE
  5
71F
330
1F
100
AcDbEntity
  8
SK1
  6
CONTINUOUS
370
50
 62
4
100
AcDbLine
 10
37.45784030371346
 20
-1.122568146997212
 30
0.0
 11
38.58040845071067
 21
0.0
 31
0.0
  0
LINE
  5
720
330
1F
100
AcDbEntity
  8
SK1
  6
CONTINUOUS
370
50
 62
4
100
AcDbLine
 10
38.8
 20
0.2195915492893277
 30
0.0
 11
39.92256814699721
 21
1.34215969628654
 31
0.0
  0
LINE
  5
721
330
1F
100
AcDbEntity
  8
SK1
  6
CONTINUOUS
370
50
 62
4
100
AcDbLine
 10
37.35188167231256
 20
-0.9810394049828186
 30
0.0
 11
38.33292107729538
 21
0.0
 31
0.0
  0
LINE
  5
722
330
1F
100
AcDbEntity
  8
SK1
  6
CONTINUOUS
370
50
 62
4
100
AcDbLine
 10
38.8
 20
0.4670789227046193
 30
0.0
 11
39.78103940498281
 21
1.448118327687438
 31
0.0
  0
LINE
  5
723
330
1F
100
AcDbEntity
  8
SK1
  6
CONTINUOUS
370
50
 62
4
100
AcDbLine
 10
37.25832908651575
 20
-0.8271046173643402
 30
0.0
 11
38.08543370388008
 21
0.0
 31
0.0
  0
LINE
  5
724
330
1F
100
AcDbEntity
  8
SK1
  6
CONTINUOUS
370
50
 62
4
100
AcDbLine
 10
38.8
 20
0.71456629611991
 30
0.0
 11
39.62710461736434
 21
1.54167091348425
 31
0.0
  0
LINE
  5
725
330
1F
100
AcDbEntity
  8
SK1
  6
CONTINUOUS
370
50
 62
4
100
AcDbLine
 10
37.17918473824204
 20
-0.6587615922227528
 30
0.0
 11
37.8379463304648
 21
0.0
 31
0.0
  0
LINE
  5
726
330
1F
100
AcDbEntity
  8
SK1
  6
CONTINUOUS
370
50
 62
4
100
AcDbLine
 10
38.8
 20
0.9620536695352015
 30
0.0
 11
39.45876159222275
 21
1.620815261757954
 31
0.0
  0
LINE
  5
727
330
1F
100
AcDbEntity
  8
SK1
  6
CONTINUOUS
370
50
 62
4
100
AcDbLine
 10
37.11629687706963
 20
-0.474162079979876
 30
0.0
 11
37.59045895704951
 21
0.0
 31
0.0
  0
LINE
  5
728
330
1F
100
AcDbEntity
  8
SK1
  6
CONTINUOUS
370
50
 62
4
100
AcDbLine
 10
38.8
 20
1.209541042950494
 30
0.0
 11
39.27416207997987
 21
1.683703122930369
 31
0.0
  0
LINE
  5
729
330
1F
100
AcDbEntity
  8
SK1
  6
CONTINUOUS
370
50
 62
4
100
AcDbLine
 10
37.07198100434271
 20
-0.2709905792915031
 30
0.0
 11
37.34297158363422
 21
0.0
 31
0.0
  0
LINE
  5
72A
330
1F
100
AcDbEntity
  8
SK1
  6
CONTINUOUS
370
50
 62
4
100
AcDbLine
 10
38.8
 20
1.457028416365784
 30
0.0
 11
39.0709905792915
 21
1.728018995657286
 31
0.0
  0
LINE
  5
72B
330
1F
100
AcDbEntity
  8
SK1
  6
CONTINUOUS
370
50
 62
4
100
AcDbLine
 10
37.0513858468978
 20
-0.0440983633211194
 30
0.0
 11
37.09548421021892
 21
0.0
 31
0.0
  0
LINE
  5
72C
330
1F
100
AcDbEntity
  8
SK1
  6
CONTINUOUS
370
50
 62
4
100
AcDbLine
 10
38.8
 20
1.704515789781075
 30
0.0
 11
38.84409836332112
 21
1.748614153102194
 31
0.0
  0
LINE
  5
72D
330
1F
100
AcDbEntity
  8
SK1
  6
CONTINUOUS
370
50
 62
4
100
AcDbLine
 10
37.16386517603681
 20
-0.6191473609004006
 30
0.0
 11
38.1808526390996
 21
-1.636134823963186
 31
0.0
  0
LINE
  5
72E
330
1F
100
AcDbEntity
  8
SK1
  6
CONTINUOUS
370
50
 62
4
100
AcDbLine
 10
37.07363430643545
 20
-0.2814291178837463
 30
0.0
 11
38.51857088211625
 21
-1.726365693564548
 31
0.0
  0
LINE
  5
72F
330
1F
100
AcDbEntity
  8
SK1
  6
CONTINUOUS
370
50
 62
4
100
AcDbLine
 10
37.05033443431149
 20
-0.0106418723445003
 30
0.0
 11
38.7893581276555
 21
-1.749665565688503
 31
0.0
  0
LINE
  5
730
330
1F
100
AcDbEntity
  8
SK1
  6
CONTINUOUS
370
50
 62
4
100
AcDbLine
 10
37.28717993538228
 20
0.0
 30
0.0
 11
38.8
 21
-1.51282006461771
 31
0.0
  0
LINE
  5
731
330
1F
100
AcDbEntity
  8
SK1
  6
CONTINUOUS
370
50
 62
4
100
AcDbLine
 10
37.53466730879758
 20
0.0
 30
0.0
 11
38.8
 21
-1.265332691202418
 31
0.0
  0
LINE
  5
732
330
1F
100
AcDbEntity
  8
SK1
  6
CONTINUOUS
370
50
 62
4
100
AcDbLine
 10
37.78215468221287
 20
0.0
 30
0.0
 11
38.8
 21
-1.017845317787128
 31
0.0
  0
LINE
  5
733
330
1F
100
AcDbEntity
  8
SK1
  6
CONTINUOUS
370
50
 62
4
100
AcDbLine
 10
38.02964205562816
 20
0.0
 30
0.0
 11
38.8
 21
-0.7703579443718369
 31
0.0
  0
LINE
  5
734
330
1F
100
AcDbEntity
  8
SK1
  6
CONTINUOUS
370
50
 62
4
100
AcDbLine
 10
38.27712942904345
 20
0.0
 30
0.0
 11
38.8
 21
-0.5228705709565453
 31
0.0
  0
LINE
  5
735
330
1F
100
AcDbEntity
  8
SK1
  6
CONTINUOUS
370
50
 62
4
100
AcDbLine
 10
38.52461680245874
 20
0.0
 30
0.0
 11
38.8
 21
-0.2753831975412537
 31
0.0
  0
LINE
  5
736
330
1F
100
AcDbEntity
  8
SK1
  6
CONTINUOUS
370
50
 62
4
100
AcDbLine
 10
38.77210417587403
 20
0.0
 30
0.0
 11
38.8
 21
-0.027895824125963
 31
0.0
  0
LINE
  5
737
330
1F
100
AcDbEntity
  8
SK1
  6
CONTINUOUS
370
50
 62
4
100
AcDbLine
 10
38.8
 20
0.219591549289329
 30
0.0
 11
39.01959154928932
 21
0.0
 31
0.0
  0
LINE
  5
738
330
1F
100
AcDbEntity
  8
SK1
  6
CONTINUOUS
370
50
 62
4
100
AcDbLine
 10
38.8
 20
0.4670789227046202
 30
0.0
 11
39.26707892270462
 21
0.0
 31
0.0
  0
LINE
  5
739
330
1F
100
AcDbEntity
  8
SK1
  6
CONTINUOUS
370
50
 62
4
100
AcDbLine
 10
38.8
 20
0.7145662961199113
 30
0.0
 11
39.51456629611991
 21
0.0
 31
0.0
  0
LINE
  5
73A
330
1F
100
AcDbEntity
  8
SK1
  6
CONTINUOUS
370
50
 62
4
100
AcDbLine
 10
38.8
 20
0.9620536695352029
 30
0.0
 11
39.7620536695352
 21
0.0
 31
0.0
  0
LINE
  5
73B
330
1F
100
AcDbEntity
  8
SK1
  6
CONTINUOUS
370
50
 62
4
100
AcDbLine
 10
38.8
 20
1.209541042950494
 30
0.0
 11
40.0095410429505
 21
0.0
 31
0.0
  0
LINE
  5
73C
330
1F
100
AcDbEntity
  8
SK1
  6
CONTINUOUS
370
50
 62
4
100
AcDbLine
 10
38.8
 20
1.457028416365785
 30
0.0
 11
40.25702841636578
 21
0.0
 31
0.0
  0
LINE
  5
73D
330
1F
100
AcDbEntity
  8
SK1
  6
CONTINUOUS
370
50
 62
4
100
AcDbLine
 10
38.8
 20
1.704515789781076
 30
0.0
 11
40.50451578978107
 21
0.0
 31
0.0
  0
LINE
  5
73E
330
1F
100
AcDbEntity
  8
SK1
  6
CONTINUOUS
370
50
 62
4
100
AcDbLine
 10
39.01543384193567
 20
1.736569321260697
 30
0.0
 11
40.53656932126069
 21
0.2154338419356714
 31
0.0
  0
LINE
  5
73F
330
1F
100
AcDbEntity
  8
SK1
  6
CONTINUOUS
370
50
 62
4
100
AcDbLine
 10
39.33283284728993
 20
1.666657689321729
 30
0.0
 11
40.46665768932173
 21
0.5328328472899322
 31
0.0
  0
LINE
  5
740
330
1F
100
AcDbEntity
  8
SK1
  6
CONTINUOUS
370
50
 62
4
100
AcDbLine
 10
39.84009874905674
 20
1.406879160970207
 30
0.0
 11
40.2068791609702
 21
1.040098749056747
 31
0.0
  0
LINE
  5
741
330
1F
100
AcDbEntity
  8
4
  6
LONGDASH_DASH
370
25
 62
2
100
AcDbLine
 10
38.8
 20
0.0
 30
0.0
 11
60.0
 21
0.0
 31
0.0
  0
LINE
  5
742
330
1F
100
AcDbEntity
  8
SK4
  6
LONGDASH_DASH
370
25
 62
2
100
AcDbLine
 10
-6.0
 20
0.0
 30
0.0
 11
66.0
 21
0.0
 31
0.0
  0
ARC
  5
743
330
1F
100
AcDbEntity
  8
SK6
  6
CONTINUOUS
370
25
 62
5
100
AcDbCircle
 10
85.4613820083765
 20
-26.74524575338786
 30
0.0
 40
2.76048912849221
100
AcDbArc
 50
338.9379403434233
 51
90.44457437511365
  0
LINE
  5
744
330
1F
100
AcDbEntity
  8
SK6
  6
CONTINUOUS
370
25
 62
5
100
AcDbLine
 10
85.43996279695983
 20
-23.98483972421281
 30
0.0
 11
85.43996279695983
 21
-25.08789835613463
 31
0.0
  0
ARC
  5
745
330
1F
100
AcDbEntity
  8
SK6
  6
CONTINUOUS
370
25
 62
5
100
AcDbCircle
 10
85.45050902936916
 20
-26.76523924566821
 30
0.0
 40
1.677374043771779
100
AcDbArc
 50
243.4214706017868
 51
90.36024081226083
  0
ARC
  5
746
330
1F
100
AcDbEntity
  8
SK6
  6
CONTINUOUS
370
25
 62
5
100
AcDbCircle
 10
87.97275989684958
 20
-26.33383199215561
 30
0.0
 40
3.80021703002276
100
AcDbArc
 50
210.5483731288539
 51
236.97801693668
  0
LINE
  5
747
330
1F
100
AcDbEntity
  8
SK6
  6
CONTINUOUS
370
25
 62
5
100
AcDbLine
 10
85.90179068512487
 20
-29.52016781867535
 30
0.0
 11
90.04373096742671
 21
-29.52016781867535
 31
0.0
  0
ARC
  5
748
330
1F
100
AcDbEntity
  8
SK6
  6
CONTINUOUS
370
25
 62
5
100
AcDbCircle
 10
87.97276183877257
 20
-26.3338320937346
 30
0.0
 40
3.800216899582472
100
AcDbArc
 50
303.0219828477959
 51
326.3732153033476
  0
LINE
  5
749
330
1F
100
AcDbEntity
  8
SK6
  6
CONTINUOUS
370
25
 62
5
100
AcDbLine
 10
91.13705975135723
 20
-28.4383194907709
 30
0.0
 11
87.77976170575462
 21
-28.4383194907709
 31
0.0
  0
LINE
  5
74A
330
1F
100
AcDbEntity
  8
SK6
  6
CONTINUOUS
370
25
 62
5
100
AcDbLine
 10
87.77976170575462
 20
-28.4383194907709
 30
0.0
 11
91.69962109771987
 21
-27.07691829641694
 31
0.0
  0
ARC
  5
74B
330
1F
100
AcDbEntity
  8
SK6
  6
CONTINUOUS
370
25
 62
5
100
AcDbCircle
 10
87.97276256157211
 20
-26.3338326048594
 30
0.0
 40
3.800217216614723
100
AcDbArc
 50
348.7238644184696
 51
53.4691051260885
  0
LINE
  5
74C
330
1F
100
AcDbEntity
  8
SK6
  6
CONTINUOUS
370
25
 62
5
100
AcDbLine
 10
90.23486524538545
 20
-23.28022124429967
 30
0.0
 11
88.03745047882737
 21
-27.73730973507057
 31
0.0
  0
ENDSEC
  0
SECTION
  2
OBJECTS
  0
DICTIONARY
  5
C
330
0
100
AcDbDictionary
281
     1
  3
ACAD_GROUP
350
D
  3
ACAD_LAYOUT
350
1A
  3
ACAD_MATERIAL
350
3B
  3
ACAD_MLEADERSTYLE
350
74F
  3
ACAD_MLINESTYLE
350
17
  3
ACAD_PLOTSETTINGS
350
19
  3
ACAD_PLOTSTYLENAME
350
E
  3
ACAD_SCALELIST
350
17F
  3
ACAD_VISUALSTYLE
350
2A
  3
AcDbVariableDictionary
350
74D
  0
DICTIONARY
  5
D
102
{ACAD_REACTORS
330
C
102
}
330
C
100
AcDbDictionary
281
     1
  0
DICTIONARY
  5
1A
102
{ACAD_REACTORS
330
C
102
}
330
C
100
AcDbDictionary
281
     1
  3
Layout1
350
1E
  3
Layout2
350
26
  3
Model
350
22
  0
DICTIONARY
  5
3B
102
{ACAD_REACTORS
330
C
102
}
330
C
100
AcDbDictionary
281
     1
  3
ByBlock
350
3D
  3
ByLayer
350
3C
  3
Global
350
3E
  0
DICTIONARY
  5
74F
102
{ACAD_REACTORS
330
C
102
}
330
C
100
AcDbDictionary
281
     1
  0
DICTIONARY
  5
17
102
{ACAD_REACTORS
330
C
102
}
330
C
100
AcDbDictionary
281
     1
  3
Standard
350
18
  0
DICTIONARY
  5
19
102
{ACAD_REACTORS
330
C
102
}
330
C
100
AcDbDictionary
281
     1
  0
ACDBDICTIONARYWDFLT
  5
E
102
{ACAD_REACTORS
330
C
102
}
330
C
100
AcDbDictionary
281
     1
  3
Normal
350
F
100
AcDbDictionaryWithDefault
340
F
  0
DICTIONARY
  5
17F
102
{ACAD_REACTORS
330
C
102
}
330
C
100
AcDbDictionary
281
     1
  3
A0
350
180
  3
A1
350
181
  3
A2
350
182
  3
A3
350
183
  3
A4
350
184
  3
A5
350
185
  3
A6
350
186
  3
A7
350
187
  3
A8
350
188
  3
A9
350
189
  3
B0
350
18A
  3
B1
350
18B
  3
B2
350
18C
  3
B3
350
18D
  3
B4
350
18E
  3
B5
350
18F
  3
B6
350
190
  3
B7
350
191
  3
B8
350
192
  3
B9
350
193
  3
C0
350
194
  3
C1
350
195
  3
C2
350
196
  3
C3
350
197
  3
C4
350
198
  3
C5
350
199
  3
C6
350
19A
  3
C7
350
19B
  3
C8
350
19C
  3
C9
350
19D
  3
D0
350
19E
  3
D1
350
19F
  3
D2
350
1A0
  0
DICTIONARY
  5
2A
102
{ACAD_REACTORS
330
C
102
}
330
C
100
AcDbDictionary
281
     1
  3
2dWireframe
350
2F
  3
3D Hidden
350
31
  3
3dWireframe
350
30
  3
Basic
350
32
  3
Brighten
350
36
  3
ColorChange
350
3A
  3
Conceptual
350
34
  3
Dim
350
35
  3
Facepattern
350
39
  3
Flat
350
2B
  3
FlatWithEdges
350
2C
  3
Gouraud
350
2D
  3
GouraudWithEdges
350
2E
  3
Linepattern
350
38
  3
Realistic
350
33
  3
Thicken
350
37
  0
DICTIONARY
  5
74D
102
{ACAD_REACTORS
330
C
102
}
330
C
100
AcDbDictionary
281
     1
  3
CANNOSCALE
350
752
  3
DIMASSOC
350
753
  3
HIDETEXT
350
754
  3
PSOLHEIGHT
350
751
  3
PSOLWIDTH
350
750
  0
LAYOUT
  5
1E
102
{ACAD_REACTORS
330
1A
102
}
330
1A
100
AcDbPlotSettings
  1

  2
none_device
  4

  6

 40
0.0
 41
0.0
 42
0.0
 43
0.0
 44
0.0
 45
0.0
 46
0.0
 47
0.0
 48
0.0
 49
0.0
140
0.0
141
0.0
142
1.0
143
1.0
 70
   688
 72
     0
 73
     0
 74
     5
  7

 75
    16
147
1.0
148
0.0
149
0.0
100
AcDbLayout
  1
Layout1
 70
     1
 71
     1
 10
0.0
 20
0.0
 11
420.0
 21
297.0
 12
0.0
 22
0.0
 32
0.0
 14
1.000000000000000E+20
 24
1.000000000000000E+20
 34
1.000000000000000E+20
 15
-1.000000000000000E+20
 25
-1.000000000000000E+20
 35
-1.000000000000000E+20
146
0.0
 13
0.0
 23
0.0
 33
0.0
 16
1.0
 26
0.0
 36
0.0
 17
0.0
 27
1.0
 37
0.0
 76
     0
330
1B
  0
LAYOUT
  5
26
102
{ACAD_REACTORS
330
1A
102
}
330
1A
100
AcDbPlotSettings
  1

  2
none_device
  4

  6

 40
0.0
 41
0.0
 42
0.0
 43
0.0
 44
0.0
 45
0.0
 46
0.0
 47
0.0
 48
0.0
 49
0.0
140
0.0
141
0.0
142
1.0
143
1.0
 70
   688
 72
     0
 73
     0
 74
     5
  7

 75
    16
147
1.0
148
0.0
149
0.0
100
AcDbLayout
  1
Layout2
 70
     1
 71
     2
 10
0.0
 20
0.0
 11
0.0
 21
0.0
 12
0.0
 22
0.0
 32
0.0
 14
0.0
 24
0.0
 34
0.0
 15
0.0
 25
0.0
 35
0.0
146
0.0
 13
0.0
 23
0.0
 33
0.0
 16
1.0
 26
0.0
 36
0.0
 17
0.0
 27
1.0
 37
0.0
 76
     0
330
23
  0
LAYOUT
  5
22
102
{ACAD_REACTORS
330
1A
102
}
330
1A
100
AcDbPlotSettings
  1

  2
none_device
  4

  6

 40
0.0
 41
0.0
 42
0.0
 43
0.0
 44
0.0
 45
0.0
 46
0.0
 47
0.0
 48
0.0
 49
0.0
140
0.0
141
0.0
142
1.0
143
1.0
 70
  1712
 72
     0
 73
     0
 74
     0
  7

 75
     0
147
1.0
148
0.0
149
0.0
100
AcDbLayout
  1
Model
 70
     1
 71
     0
 10
0.0
 20
0.0
 11
420.0
 21
297.0
 12
0.0
 22
0.0
 32
0.0
 14
0.0
 24
0.0
 34
0.0
 15
25.0
 25
35.0
 35
0.0
146
0.0
 13
0.0
 23
0.0
 33
0.0
 16
1.0
 26
0.0
 36
0.0
 17
0.0
 27
1.0
 37
0.0
 76
     0
330
1F
331
29
  0
MATERIAL
  5
3D
102
{ACAD_REACTORS
330
3B
102
}
102
{ACAD_XDICTIONARY
360
777
102
}
330
3B
100
AcDbMaterial
  1
ByBlock
  0
MATERIAL
  5
3C
102
{ACAD_REACTORS
330
3B
102
}
102
{ACAD_XDICTIONARY
360
775
102
}
330
3B
100
AcDbMaterial
  1
ByLayer
  0
MATERIAL
  5
3E
102
{ACAD_REACTORS
330
3B
102
}
102
{ACAD_XDICTIONARY
360
779
102
}
330
3B
100
AcDbMaterial
  1
Global
  0
MLINESTYLE
  5
18
102
{ACAD_REACTORS
330
17
102
}
330
17
100
AcDbMlineStyle
  2
Standard
 70
     0
  3

 62
   256
 51
90.0
 52
90.0
 71
     2
 49
0.5
 62
   256
  6
BYLAYER
 49
-0.5
 62
   256
  6
BYLAYER
  0
ACDBPLACEHOLDER
  5
F
102
{ACAD_REACTORS
330
E
102
}
330
E
  0
SCALE
  5
180
102
{ACAD_REACTORS
330
17F
102
}
330
17F
100
AcDbScale
 70
     0
300
1:1
140
1.0
141
1.0
290
     1
  0
SCALE
  5
181
102
{ACAD_REACTORS
330
17F
102
}
330
17F
100
AcDbScale
 70
     0
300
1:2
140
1.0
141
2.0
290
     0
  0
SCALE
  5
182
102
{ACAD_REACTORS
330
17F
102
}
330
17F
100
AcDbScale
 70
     0
300
1:4
140
1.0
141
4.0
290
     0
  0
SCALE
  5
183
102
{ACAD_REACTORS
330
17F
102
}
330
17F
100
AcDbScale
 70
     0
300
1:5
140
1.0
141
5.0
290
     0
  0
SCALE
  5
184
102
{ACAD_REACTORS
330
17F
102
}
330
17F
100
AcDbScale
 70
     0
300
1:8
140
1.0
141
8.0
290
     0
  0
SCALE
  5
185
102
{ACAD_REACTORS
330
17F
102
}
330
17F
100
AcDbScale
 70
     0
300
1:10
140
1.0
141
10.0
290
     0
  0
SCALE
  5
186
102
{ACAD_REACTORS
330
17F
102
}
330
17F
100
AcDbScale
 70
     0
300
1:16
140
1.0
141
16.0
290
     0
  0
SCALE
  5
187
102
{ACAD_REACTORS
330
17F
102
}
330
17F
100
AcDbScale
 70
     0
300
1:20
140
1.0
141
20.0
290
     0
  0
SCALE
  5
188
102
{ACAD_REACTORS
330
17F
102
}
330
17F
100
AcDbScale
 70
     0
300
1:30
140
1.0
141
30.0
290
     0
  0
SCALE
  5
189
102
{ACAD_REACTORS
330
17F
102
}
330
17F
100
AcDbScale
 70
     0
300
1:40
140
1.0
141
40.0
290
     0
  0
SCALE
  5
18A
102
{ACAD_REACTORS
330
17F
102
}
330
17F
100
AcDbScale
 70
     0
300
1:50
140
1.0
141
50.0
290
     0
  0
SCALE
  5
18B
102
{ACAD_REACTORS
330
17F
102
}
330
17F
100
AcDbScale
 70
     0
300
1:100
140
1.0
141
100.0
290
     0
  0
SCALE
  5
18C
102
{ACAD_REACTORS
330
17F
102
}
330
17F
100
AcDbScale
 70
     0
300
2:1
140
2.0
141
1.0
290
     0
  0
SCALE
  5
18D
102
{ACAD_REACTORS
330
17F
102
}
330
17F
100
AcDbScale
 70
     0
300
4:1
140
4.0
141
1.0
290
     0
  0
SCALE
  5
18E
102
{ACAD_REACTORS
330
17F
102
}
330
17F
100
AcDbScale
 70
     0
300
8:1
140
8.0
141
1.0
290
     0
  0
SCALE
  5
18F
102
{ACAD_REACTORS
330
17F
102
}
330
17F
100
AcDbScale
 70
     0
300
10:1
140
10.0
141
1.0
290
     0
  0
SCALE
  5
190
102
{ACAD_REACTORS
330
17F
102
}
330
17F
100
AcDbScale
 70
     0
300
100:1
140
100.0
141
1.0
290
     0
  0
SCALE
  5
191
102
{ACAD_REACTORS
330
17F
102
}
330
17F
100
AcDbScale
 70
     0
300
1/128" = 1'-0"
140
0.0078125
141
12.0
290
     0
  0
SCALE
  5
192
102
{ACAD_REACTORS
330
17F
102
}
330
17F
100
AcDbScale
 70
     0
300
1/64" = 1'-0"
140
0.015625
141
12.0
290
     0
  0
SCALE
  5
193
102
{ACAD_REACTORS
330
17F
102
}
330
17F
100
AcDbScale
 70
     0
300
1/32" = 1'-0"
140
0.03125
141
12.0
290
     0
  0
SCALE
  5
194
102
{ACAD_REACTORS
330
17F
102
}
330
17F
100
AcDbScale
 70
     0
300
1/16" = 1'-0"
140
0.0625
141
12.0
290
     0
  0
SCALE
  5
195
102
{ACAD_REACTORS
330
17F
102
}
330
17F
100
AcDbScale
 70
     0
300
3/32" = 1'-0"
140
0.09375
141
12.0
290
     0
  0
SCALE
  5
196
102
{ACAD_REACTORS
330
17F
102
}
330
17F
100
AcDbScale
 70
     0
300
1/8" = 1'-0"
140
0.125
141
12.0
290
     0
  0
SCALE
  5
197
102
{ACAD_REACTORS
330
17F
102
}
330
17F
100
AcDbScale
 70
     0
300
3/16" = 1'-0"
140
0.1875
141
12.0
290
     0
  0
SCALE
  5
198
102
{ACAD_REACTORS
330
17F
102
}
330
17F
100
AcDbScale
 70
     0
300
1/4" = 1'-0"
140
0.25
141
12.0
290
     0
  0
SCALE
  5
199
102
{ACAD_REACTORS
330
17F
102
}
330
17F
100
AcDbScale
 70
     0
300
3/8" = 1'-0"
140
0.375
141
12.0
290
     0
  0
SCALE
  5
19A
102
{ACAD_REACTORS
330
17F
102
}
330
17F
100
AcDbScale
 70
     0
300
1/2" = 1'-0"
140
0.5
141
12.0
290
     0
  0
SCALE
  5
19B
102
{ACAD_REACTORS
330
17F
102
}
330
17F
100
AcDbScale
 70
     0
300
3/4" = 1'-0"
140
0.75
141
12.0
290
     0
  0
SCALE
  5
19C
102
{ACAD_REACTORS
330
17F
102
}
330
17F
100
AcDbScale
 70
     0
300
1" = 1'-0"
140
1.0
141
12.0
290
     0
  0
SCALE
  5
19D
102
{ACAD_REACTORS
330
17F
102
}
330
17F
100
AcDbScale
 70
     0
300
1-1/2" = 1'-0"
140
1.5
141
12.0
290
     0
  0
SCALE
  5
19E
102
{ACAD_REACTORS
330
17F
102
}
330
17F
100
AcDbScale
 70
     0
300
3" = 1'-0"
140
3.0
141
12.0
290
     0
  0
SCALE
  5
19F
102
{ACAD_REACTORS
330
17F
102
}
330
17F
100
AcDbScale
 70
     0
300
6" = 1'-0"
140
6.0
141
12.0
290
     0
  0
SCALE
  5
1A0
102
{ACAD_REACTORS
330
17F
102
}
330
17F
100
AcDbScale
 70
     0
300
1'-0" = 1'-0"
140
12.0
141
12.0
290
     0
  0
VISUALSTYLE
  5
2F
102
{ACAD_REACTORS
330
2A
102
}
102
{ACAD_XDICTIONARY
360
75D
102
}
330
2A
100
AcDbVisualStyle
  2
2dWireframe
 70
     4
 71
     0
 72
     2
 73
     0
 90
        0
 40
-0.6
 41
-30.0
 62
     5
 63
     7
 74
     1
 91
        4
 64
     7
 65
   257
 75
     1
175
     1
 42
1.0
 92
        0
 66
   257
 43
1.0
 76
     1
 77
     6
 78
     2
 67
     7
 79
     5
170
     0
171
     0
290
     0
174
     0
 93
        1
 44
0.0
173
     0
291
     0
 45
0.0
1001
ACAD
1000
AcDbSavedByObjectVersion
1070
     0
  0
VISUALSTYLE
  5
31
102
{ACAD_REACTORS
330
2A
102
}
102
{ACAD_XDICTIONARY
360
761
102
}
330
2A
100
AcDbVisualStyle
  2
3D Hidden
 70
     6
 71
     1
 72
     2
 73
     2
 90
        0
 40
-0.6
 41
-30.0
 62
     5
 63
     7
 74
     2
 91
        2
 64
     7
 65
   257
 75
     2
175
     1
 42
40.0
 92
        0
 66
   257
 43
1.0
 76
     1
 77
     6
 78
     2
 67
     7
 79
     3
170
     0
171
     0
290
     0
174
     0
 93
        1
 44
0.0
173
     0
291
     0
 45
0.0
1001
ACAD
1000
AcDbSavedByObjectVersion
1070
     0
  0
VISUALSTYLE
  5
30
102
{ACAD_REACTORS
330
2A
102
}
102
{ACAD_XDICTIONARY
360
75F
102
}
330
2A
100
AcDbVisualStyle
  2
3dWireframe
 70
     5
 71
     0
 72
     2
 73
     0
 90
        0
 40
-0.6
 41
-30.0
 62
     5
 63
     7
 74
     1
 91
        4
 64
     7
 65
   257
 75
     1
175
     1
 42
1.0
 92
        0
 66
   257
 43
1.0
 76
     1
 77
     6
 78
     2
 67
     7
 79
     5
170
     0
171
     0
290
     0
174
     0
 93
        1
 44
0.0
173
     0
291
     0
 45
0.0
1001
ACAD
1000
AcDbSavedByObjectVersion
1070
     0
  0
VISUALSTYLE
  5
32
102
{ACAD_REACTORS
330
2A
102
}
102
{ACAD_XDICTIONARY
360
763
102
}
330
2A
100
AcDbVisualStyle
  2
Basic
 70
     7
 71
     1
 72
     0
 73
     1
 90
        0
 40
-0.6
 41
-30.0
 62
     5
 63
     7
 74
     0
 91
        4
 64
     7
 65
   257
 75
     1
175
     1
 42
1.0
 92
        8
 66
     7
 43
1.0
 76
     1
 77
     6
 78
     2
 67
     7
 79
     5
170
     0
171
     0
290
     0
174
     0
 93
        1
 44
0.0
173
     0
291
     1
 45
0.0
1001
ACAD
1000
AcDbSavedByObjectVersion
1070
     0
  0
VISUALSTYLE
  5
36
102
{ACAD_REACTORS
330
2A
102
}
102
{ACAD_XDICTIONARY
360
76B
102
}
330
2A
100
AcDbVisualStyle
  2
Brighten
 70
    12
 71
     2
 72
     2
 73
     0
 90
        0
 40
-0.6
 41
-30.0
 62
     5
 63
     7
 74
     1
 91
        4
 64
     7
 65
   257
 75
     1
175
     1
 42
1.0
 92
        8
 66
     7
 43
1.0
 76
     1
 77
     6
 78
     2
 67
     7
 79
     5
170
     0
171
     0
290
     0
174
     0
 93
        1
 44
50.0
173
     0
291
     1
 45
0.0
1001
ACAD
1000
AcDbSavedByObjectVersion
1070
     0
  0
VISUALSTYLE
  5
3A
102
{ACAD_REACTORS
330
2A
102
}
102
{ACAD_XDICTIONARY
360
773
102
}
330
2A
100
AcDbVisualStyle
  2
ColorChange
 70
    16
 71
     2
 72
     2
 73
     3
 90
        0
 40
-0.6
 41
-30.0
 62
     5
 63
     8
 74
     1
 91
        4
 64
     7
 65
   257
 75
     1
175
     1
 42
1.0
 92
        8
 66
     8
 43
1.0
 76
     1
 77
     6
 78
     2
 67
     7
 79
     5
170
     0
171
     0
290
     0
174
     0
 93
        1
 44
0.0
173
     0
291
     1
 45
0.0
1001
ACAD
1000
AcDbSavedByObjectVersion
1070
     0
  0
VISUALSTYLE
  5
34
102
{ACAD_REACTORS
330
2A
102
}
102
{ACAD_XDICTIONARY
360
767
102
}
330
2A
100
AcDbVisualStyle
  2
Conceptual
 70
     9
 71
     3
 72
     2
 73
     0
 90
        0
 40
-0.6
 41
-30.0
 62
     5
 63
     7
 74
     2
 91
        2
 64
     7
 65
   257
 75
     1
175
     1
 42
40.0
 92
        8
 66
     7
 43
1.0
 76
     1
 77
     6
 78
     2
 67
     7
 79
     3
170
     0
171
     0
290
     0
174
     0
 93
        1
 44
0.0
173
     0
291
     0
 45
0.0
1001
ACAD
1000
AcDbSavedByObjectVersion
1070
     0
  0
VISUALSTYLE
  5
35
102
{ACAD_REACTORS
330
2A
102
}
102
{ACAD_XDICTIONARY
360
769
102
}
330
2A
100
AcDbVisualStyle
  2
Dim
 70
    11
 71
     2
 72
     2
 73
     0
 90
        0
 40
-0.6
 41
-30.0
 62
     5
 63
     7
 74
     1
 91
        4
 64
     7
 65
   257
 75
     1
175
     1
 42
1.0
 92
        8
 66
     7
 43
1.0
 76
     1
 77
     6
 78
     2
 67
     7
 79
     5
170
     0
171
     0
290
     0
174
     0
 93
        1
 44
-50.0
173
     0
291
     1
 45
0.0
1001
ACAD
1000
AcDbSavedByObjectVersion
1070
     0
  0
VISUALSTYLE
  5
39
102
{ACAD_REACTORS
330
2A
102
}
102
{ACAD_XDICTIONARY
360
771
102
}
330
2A
100
AcDbVisualStyle
  2
Facepattern
 70
    15
 71
     2
 72
     2
 73
     0
 90
        0
 40
-0.6
 41
-30.0
 62
     5
 63
     7
 74
     1
 91
        4
 64
     7
 65
   257
 75
     1
175
     1
 42
1.0
 92
        8
 66
     7
 43
1.0
 76
     1
 77
     6
 78
     2
 67
     7
 79
     5
170
     0
171
     0
290
     0
174
     0
 93
        1
 44
0.0
173
     0
291
     1
 45
0.0
1001
ACAD
1000
AcDbSavedByObjectVersion
1070
     0
  0
VISUALSTYLE
  5
2B
102
{ACAD_REACTORS
330
2A
102
}
102
{ACAD_XDICTIONARY
360
755
102
}
330
2A
100
AcDbVisualStyle
  2
Flat
 70
     0
 71
     2
 72
     1
 73
     1
 90
        2
 40
-0.6
 41
30.0
 62
     5
 63
     7
 74
     0
 91
        4
 64
     7
 65
   257
 75
     1
175
     1
 42
1.0
 92
        8
 66
     7
 43
1.0
 76
     1
 77
     6
 78
     2
 67
     7
 79
     5
170
     0
171
     0
290
     0
174
     0
 93
       13
 44
0.0
173
     0
291
     1
 45
0.0
1001
ACAD
1000
AcDbSavedByObjectVersion
1070
     0
  0
VISUALSTYLE
  5
2C
102
{ACAD_REACTORS
330
2A
102
}
102
{ACAD_XDICTIONARY
360
757
102
}
330
2A
100
AcDbVisualStyle
  2
FlatWithEdges
 70
     1
 71
     2
 72
     1
 73
     1
 90
        2
 40
-0.6
 41
30.0
 62
     5
 63
     7
 74
     1
 91
        4
 64
     7
 65
   257
 75
     1
175
     1
 42
1.0
 92
        0
 66
   257
 43
1.0
 76
     1
 77
     6
 78
     2
 67
     7
 79
     5
170
     0
171
     0
290
     0
174
     0
 93
       13
 44
0.0
173
     0
291
     1
 45
0.0
1001
ACAD
1000
AcDbSavedByObjectVersion
1070
     0
  0
VISUALSTYLE
  5
2D
102
{ACAD_REACTORS
330
2A
102
}
102
{ACAD_XDICTIONARY
360
759
102
}
330
2A
100
AcDbVisualStyle
  2
Gouraud
 70
     2
 71
     2
 72
     2
 73
     1
 90
        2
 40
-0.6
 41
30.0
 62
     5
 63
     7
 74
     0
 91
        4
 64
     7
 65
   257
 75
     1
175
     1
 42
1.0
 92
        0
 66
     7
 43
1.0
 76
     1
 77
     6
 78
     2
 67
     7
 79
     5
170
     0
171
     0
290
     0
174
     0
 93
       13
 44
0.0
173
     0
291
     1
 45
0.0
1001
ACAD
1000
AcDbSavedByObjectVersion
1070
     0
  0
VISUALSTYLE
  5
2E
102
{ACAD_REACTORS
330
2A
102
}
102
{ACAD_XDICTIONARY
360
75B
102
}
330
2A
100
AcDbVisualStyle
  2
GouraudWithEdges
 70
     3
 71
     2
 72
     2
 73
     1
 90
        2
 40
-0.6
 41
30.0
 62
     5
 63
     7
 74
     1
 91
        4
 64
     7
 65
   257
 75
     1
175
     1
 42
1.0
 92
        0
 66
   257
 43
1.0
 76
     1
 77
     6
 78
     2
 67
     7
 79
     5
170
     0
171
     0
290
     0
174
     0
 93
       13
 44
0.0
173
     0
291
     1
 45
0.0
1001
ACAD
1000
AcDbSavedByObjectVersion
1070
     0
  0
VISUALSTYLE
  5
38
102
{ACAD_REACTORS
330
2A
102
}
102
{ACAD_XDICTIONARY
360
76F
102
}
330
2A
100
AcDbVisualStyle
  2
Linepattern
 70
    14
 71
     2
 72
     2
 73
     0
 90
        0
 40
-0.6
 41
-30.0
 62
     5
 63
     7
 74
     1
 91
        4
 64
     7
 65
   257
 75
     7
175
     7
 42
1.0
 92
        8
 66
     7
 43
1.0
 76
     1
 77
     6
 78
     2
 67
     7
 79
     5
170
     0
171
     0
290
     0
174
     0
 93
        1
 44
0.0
173
     0
291
     1
 45
0.0
1001
ACAD
1000
AcDbSavedByObjectVersion
1070
     0
  0
VISUALSTYLE
  5
33
102
{ACAD_REACTORS
330
2A
102
}
102
{ACAD_XDICTIONARY
360
765
102
}
330
2A
100
AcDbVisualStyle
  2
Realistic
 70
     8
 71
     2
 72
     2
 73
     0
 90
        0
 40
-0.6
 41
-30.0
 62
     5
 63
     7
 74
     1
 91
        0
 64
     7
 65
   257
 75
     1
175
     1
 42
1.0
 92
        8
 66
     8
 43
1.0
 76
     1
 77
     6
 78
     2
 67
     7
 79
     5
170
     0
171
     0
290
     0
174
     0
 93
       13
 44
0.0
173
     0
291
     0
 45
0.0
1001
ACAD
1000
AcDbSavedByObjectVersion
1070
     0
  0
VISUALSTYLE
  5
37
102
{ACAD_REACTORS
330
2A
102
}
102
{ACAD_XDICTIONARY
360
76D
102
}
330
2A
100
AcDbVisualStyle
  2
Thicken
 70
    13
 71
     2
 72
     2
 73
     0
 90
        0
 40
-0.6
 41
-30.0
 62
     5
 63
     7
 74
     1
 91
        4
 64
     7
 65
   257
 75
     1
175
     1
 42
1.0
 92
       12
 66
     7
 43
1.0
 76
     1
 77
     6
 78
     2
 67
     7
 79
     5
170
     0
171
     0
290
     0
174
     0
 93
        1
 44
0.0
173
     0
291
     1
 45
0.0
1001
ACAD
1000
AcDbSavedByObjectVersion
1070
     0
  0
DICTIONARYVAR
  5
752
102
{ACAD_REACTORS
330
74D
102
}
330
74D
100
DictionaryVariables
280
     0
  1
1:1
  0
DICTIONARYVAR
  5
753
102
{ACAD_REACTORS
330
74D
102
}
330
74D
100
DictionaryVariables
280
     0
  1
2
  0
DICTIONARYVAR
  5
754
102
{ACAD_REACTORS
330
74D
102
}
330
74D
100
DictionaryVariables
280
     0
  1
1
  0
DICTIONARYVAR
  5
751
102
{ACAD_REACTORS
330
74D
102
}
330
74D
100
DictionaryVariables
280
     0
  1
80.000000
  0
DICTIONARYVAR
  5
750
102
{ACAD_REACTORS
330
74D
102
}
330
74D
100
DictionaryVariables
280
     0
  1
5.000000
  0
DICTIONARY
  5
777
330
3D
100
AcDbDictionary
280
     1
281
     1
  3
ACAD_XREC_ROUNDTRIP
360
778
  0
DICTIONARY
  5
775
330
3C
100
AcDbDictionary
280
     1
281
     1
  3
ACAD_XREC_ROUNDTRIP
360
776
  0
DICTIONARY
  5
779
330
3E
100
AcDbDictionary
280
     1
281
     1
  3
ACAD_XREC_ROUNDTRIP
360
77A
  0
DICTIONARY
  5
75D
330
2F
100
AcDbDictionary
280
     1
281
     1
  3
ACAD_XREC_ROUNDTRIP
360
75E
  0
DICTIONARY
  5
761
330
31
100
AcDbDictionary
280
     1
281
     1
  3
ACAD_XREC_ROUNDTRIP
360
762
  0
DICTIONARY
  5
75F
330
30
100
AcDbDictionary
280
     1
281
     1
  3
ACAD_XREC_ROUNDTRIP
360
760
  0
DICTIONARY
  5
763
330
32
100
AcDbDictionary
280
     1
281
     1
  3
ACAD_XREC_ROUNDTRIP
360
764
  0
DICTIONARY
  5
76B
330
36
100
AcDbDictionary
280
     1
281
     1
  3
ACAD_XREC_ROUNDTRIP
360
76C
  0
DICTIONARY
  5
773
330
3A
100
AcDbDictionary
280
     1
281
     1
  3
ACAD_XREC_ROUNDTRIP
360
774
  0
DICTIONARY
  5
767
330
34
100
AcDbDictionary
280
     1
281
     1
  3
ACAD_XREC_ROUNDTRIP
360
768
  0
DICTIONARY
  5
769
330
35
100
AcDbDictionary
280
     1
281
     1
  3
ACAD_XREC_ROUNDTRIP
360
76A
  0
DICTIONARY
  5
771
330
39
100
AcDbDictionary
280
     1
281
     1
  3
ACAD_XREC_ROUNDTRIP
360
772
  0
DICTIONARY
  5
755
330
2B
100
AcDbDictionary
280
     1
281
     1
  3
ACAD_XREC_ROUNDTRIP
360
756
  0
DICTIONARY
  5
757
330
2C
100
AcDbDictionary
280
     1
281
     1
  3
ACAD_XREC_ROUNDTRIP
360
758
  0
DICTIONARY
  5
759
330
2D
100
AcDbDictionary
280
     1
281
     1
  3
ACAD_XREC_ROUNDTRIP
360
75A
  0
DICTIONARY
  5
75B
330
2E
100
AcDbDictionary
280
     1
281
     1
  3
ACAD_XREC_ROUNDTRIP
360
75C
  0
DICTIONARY
  5
76F
330
38
100
AcDbDictionary
280
     1
281
     1
  3
ACAD_XREC_ROUNDTRIP
360
770
  0
DICTIONARY
  5
765
330
33
100
AcDbDictionary
280
     1
281
     1
  3
ACAD_XREC_ROUNDTRIP
360
766
  0
DICTIONARY
  5
76D
330
37
100
AcDbDictionary
280
     1
281
     1
  3
ACAD_XREC_ROUNDTRIP
360
76E
  0
XRECORD
  5
778
102
{ACAD_REACTORS
330
777
102
}
330
777
100
AcDbXrecord
280
     1
102
MATERIAL
148
0.0
149
0.0
149
0.0
 93
        0
 94
      127
282
     0
 72
     1
 77
     1
171
     1
175
     1
179
     1
273
     0
  0
XRECORD
  5
776
102
{ACAD_REACTORS
330
775
102
}
330
775
100
AcDbXrecord
280
     1
102
MATERIAL
148
0.0
149
0.0
149
0.0
 93
        0
 94
      127
282
     0
 72
     1
 77
     1
171
     1
175
     1
179
     1
273
     0
  0
XRECORD
  5
77A
102
{ACAD_REACTORS
330
779
102
}
330
779
100
AcDbXrecord
280
     1
102
MATERIAL
148
0.0
149
0.0
149
0.0
 93
        0
 94
      127
282
     0
 72
     1
 77
     1
171
     1
175
     1
179
     1
273
     0
  0
XRECORD
  5
75E
102
{ACAD_REACTORS
330
75D
102
}
330
75D
100
AcDbXrecord
280
     1
102
RTVSPropertyOp0
 70
     1
102
RTVSPropertyOp1
 70
     1
102
RTVSPropertyOp2
 70
     1
102
RTVSPropertyOp3
 70
     1
102
RTVSPropertyOp4
 70
     1
102
RTVSPropertyOp5
 70
     1
102
RTVSPropertyOp6
 70
     1
102
RTVSPropertyOp7
 70
     1
102
RTVSPropertyOp8
 70
     1
102
RTVSPropertyOp9
 70
     1
102
RTVSPropertyOp10
 70
     1
102
RTVSPropertyOp11
 70
     1
102
RTVSPropertyOp12
 70
     1
102
RTVSPropertyOp13
 70
     1
102
RTVSPropertyOp14
 70
     1
102
RTVSPropertyOp15
 70
     1
102
RTVSPropertyOp16
 70
     1
102
RTVSPropertyOp17
 70
     1
102
RTVSPropertyOp18
 70
     1
102
RTVSPropertyOp19
 70
     1
102
RTVSPropertyOp20
 70
     1
102
RTVSPropertyOp21
 70
     1
102
RTVSPropertyOp22
 70
     1
102
RTVSPropertyOp23
 70
     1
102
RTVSPropertyOp24
 70
     1
102
RTVSPropertyOp25
 70
     1
102
RTVSPropertyOp26
 70
     1
102
RTVSPropertyOp27
 70
     1
  0
XRECORD
  5
762
102
{ACAD_REACTORS
330
761
102
}
330
761
100
AcDbXrecord
280
     1
102
RTVSPropertyOp0
 70
     1
102
RTVSPropertyOp1
 70
     1
102
RTVSPropertyOp2
 70
     1
102
RTVSPropertyOp3
 70
     1
102
RTVSPropertyOp4
 70
     1
102
RTVSPropertyOp5
 70
     1
102
RTVSPropertyOp6
 70
     1
102
RTVSPropertyOp7
 70
     1
102
RTVSPropertyOp8
 70
     1
102
RTVSPropertyOp9
 70
     1
102
RTVSPropertyOp10
 70
     1
102
RTVSPropertyOp11
 70
     1
102
RTVSPropertyOp12
 70
     1
102
RTVSPropertyOp13
 70
     1
102
RTVSPropertyOp14
 70
     1
102
RTVSPropertyOp15
 70
     1
102
RTVSPropertyOp16
 70
     1
102
RTVSPropertyOp17
 70
     1
102
RTVSPropertyOp18
 70
     1
102
RTVSPropertyOp19
 70
     1
102
RTVSPropertyOp20
 70
     1
102
RTVSPropertyOp21
 70
     1
102
RTVSPropertyOp22
 70
     1
102
RTVSPropertyOp23
 70
     1
102
RTVSPropertyOp24
 70
     1
102
RTVSPropertyOp25
 70
     1
102
RTVSPropertyOp26
 70
     1
102
RTVSPropertyOp27
 70
     1
  0
XRECORD
  5
760
102
{ACAD_REACTORS
330
75F
102
}
330
75F
100
AcDbXrecord
280
     1
102
RTVSPropertyOp0
 70
     1
102
RTVSPropertyOp1
 70
     1
102
RTVSPropertyOp2
 70
     1
102
RTVSPropertyOp3
 70
     1
102
RTVSPropertyOp4
 70
     1
102
RTVSPropertyOp5
 70
     1
102
RTVSPropertyOp6
 70
     1
102
RTVSPropertyOp7
 70
     1
102
RTVSPropertyOp8
 70
     1
102
RTVSPropertyOp9
 70
     1
102
RTVSPropertyOp10
 70
     1
102
RTVSPropertyOp11
 70
     1
102
RTVSPropertyOp12
 70
     1
102
RTVSPropertyOp13
 70
     1
102
RTVSPropertyOp14
 70
     1
102
RTVSPropertyOp15
 70
     1
102
RTVSPropertyOp16
 70
     1
102
RTVSPropertyOp17
 70
     1
102
RTVSPropertyOp18
 70
     1
102
RTVSPropertyOp19
 70
     1
102
RTVSPropertyOp20
 70
     1
102
RTVSPropertyOp21
 70
     1
102
RTVSPropertyOp22
 70
     1
102
RTVSPropertyOp23
 70
     1
102
RTVSPropertyOp24
 70
     1
102
RTVSPropertyOp25
 70
     1
102
RTVSPropertyOp26
 70
     1
102
RTVSPropertyOp27
 70
     1
  0
XRECORD
  5
764
102
{ACAD_REACTORS
330
763
102
}
330
763
100
AcDbXrecord
280
     1
102
RTVSPropertyOp0
 70
     1
102
RTVSPropertyOp1
 70
     1
102
RTVSPropertyOp2
 70
     1
102
RTVSPropertyOp3
 70
     1
102
RTVSPropertyOp4
 70
     1
102
RTVSPropertyOp5
 70
     1
102
RTVSPropertyOp6
 70
     1
102
RTVSPropertyOp7
 70
     1
102
RTVSPropertyOp8
 70
     1
102
RTVSPropertyOp9
 70
     1
102
RTVSPropertyOp10
 70
     1
102
RTVSPropertyOp11
 70
     1
102
RTVSPropertyOp12
 70
     1
102
RTVSPropertyOp13
 70
     1
102
RTVSPropertyOp14
 70
     1
102
RTVSPropertyOp15
 70
     1
102
RTVSPropertyOp16
 70
     1
102
RTVSPropertyOp17
 70
     1
102
RTVSPropertyOp18
 70
     1
102
RTVSPropertyOp19
 70
     1
102
RTVSPropertyOp20
 70
     1
102
RTVSPropertyOp21
 70
     1
102
RTVSPropertyOp22
 70
     1
102
RTVSPropertyOp23
 70
     1
102
RTVSPropertyOp24
 70
     1
102
RTVSPropertyOp25
 70
     1
102
RTVSPropertyOp26
 70
     1
102
RTVSPropertyOp27
 70
     1
  0
XRECORD
  5
76C
102
{ACAD_REACTORS
330
76B
102
}
330
76B
100
AcDbXrecord
280
     1
102
RTVSPropertyOp0
 70
     1
102
RTVSPropertyOp1
 70
     1
102
RTVSPropertyOp2
 70
     1
102
RTVSPropertyOp3
 70
     1
102
RTVSPropertyOp4
 70
     1
102
RTVSPropertyOp5
 70
     1
102
RTVSPropertyOp6
 70
     1
102
RTVSPropertyOp7
 70
     1
102
RTVSPropertyOp8
 70
     1
102
RTVSPropertyOp9
 70
     1
102
RTVSPropertyOp10
 70
     1
102
RTVSPropertyOp11
 70
     1
102
RTVSPropertyOp12
 70
     1
102
RTVSPropertyOp13
 70
     1
102
RTVSPropertyOp14
 70
     1
102
RTVSPropertyOp15
 70
     1
102
RTVSPropertyOp16
 70
     1
102
RTVSPropertyOp17
 70
     1
102
RTVSPropertyOp18
 70
     1
102
RTVSPropertyOp19
 70
     1
102
RTVSPropertyOp20
 70
     1
102
RTVSPropertyOp21
 70
     1
102
RTVSPropertyOp22
 70
     1
102
RTVSPropertyOp23
 70
     1
102
RTVSPropertyOp24
 70
     1
102
RTVSPropertyOp25
 70
     1
102
RTVSPropertyOp26
 70
     1
102
RTVSPropertyOp27
 70
     1
  0
XRECORD
  5
774
102
{ACAD_REACTORS
330
773
102
}
330
773
100
AcDbXrecord
280
     1
102
RTVSPropertyOp0
 70
     1
102
RTVSPropertyOp1
 70
     1
102
RTVSPropertyOp2
 70
     1
102
RTVSPropertyOp3
 70
     1
102
RTVSPropertyOp4
 70
     1
102
RTVSPropertyOp5
 70
     1
102
RTVSPropertyOp6
 70
     1
102
RTVSPropertyOp7
 70
     1
102
RTVSPropertyOp8
 70
     1
102
RTVSPropertyOp9
 70
     1
102
RTVSPropertyOp10
 70
     1
102
RTVSPropertyOp11
 70
     1
102
RTVSPropertyOp12
 70
     1
102
RTVSPropertyOp13
 70
     1
102
RTVSPropertyOp14
 70
     1
102
RTVSPropertyOp15
 70
     1
102
RTVSPropertyOp16
 70
     1
102
RTVSPropertyOp17
 70
     1
102
RTVSPropertyOp18
 70
     1
102
RTVSPropertyOp19
 70
     1
102
RTVSPropertyOp20
 70
     1
102
RTVSPropertyOp21
 70
     1
102
RTVSPropertyOp22
 70
     1
102
RTVSPropertyOp23
 70
     1
102
RTVSPropertyOp24
 70
     1
102
RTVSPropertyOp25
 70
     1
102
RTVSPropertyOp26
 70
     1
102
RTVSPropertyOp27
 70
     1
  0
XRECORD
  5
768
102
{ACAD_REACTORS
330
767
102
}
330
767
100
AcDbXrecord
280
     1
102
RTVSPropertyOp0
 70
     1
102
RTVSPropertyOp1
 70
     1
102
RTVSPropertyOp2
 70
     1
102
RTVSPropertyOp3
 70
     1
102
RTVSPropertyOp4
 70
     1
102
RTVSPropertyOp5
 70
     1
102
RTVSPropertyOp6
 70
     1
102
RTVSPropertyOp7
 70
     1
102
RTVSPropertyOp8
 70
     1
102
RTVSPropertyOp9
 70
     1
102
RTVSPropertyOp10
 70
     1
102
RTVSPropertyOp11
 70
     1
102
RTVSPropertyOp12
 70
     1
102
RTVSPropertyOp13
 70
     1
102
RTVSPropertyOp14
 70
     1
102
RTVSPropertyOp15
 70
     1
102
RTVSPropertyOp16
 70
     1
102
RTVSPropertyOp17
 70
     1
102
RTVSPropertyOp18
 70
     1
102
RTVSPropertyOp19
 70
     1
102
RTVSPropertyOp20
 70
     1
102
RTVSPropertyOp21
 70
     1
102
RTVSPropertyOp22
 70
     1
102
RTVSPropertyOp23
 70
     1
102
RTVSPropertyOp24
 70
     1
102
RTVSPropertyOp25
 70
     1
102
RTVSPropertyOp26
 70
     1
102
RTVSPropertyOp27
 70
     1
  0
XRECORD
  5
76A
102
{ACAD_REACTORS
330
769
102
}
330
769
100
AcDbXrecord
280
     1
102
RTVSPropertyOp0
 70
     1
102
RTVSPropertyOp1
 70
     1
102
RTVSPropertyOp2
 70
     1
102
RTVSPropertyOp3
 70
     1
102
RTVSPropertyOp4
 70
     1
102
RTVSPropertyOp5
 70
     1
102
RTVSPropertyOp6
 70
     1
102
RTVSPropertyOp7
 70
     1
102
RTVSPropertyOp8
 70
     1
102
RTVSPropertyOp9
 70
     1
102
RTVSPropertyOp10
 70
     1
102
RTVSPropertyOp11
 70
     1
102
RTVSPropertyOp12
 70
     1
102
RTVSPropertyOp13
 70
     1
102
RTVSPropertyOp14
 70
     1
102
RTVSPropertyOp15
 70
     1
102
RTVSPropertyOp16
 70
     1
102
RTVSPropertyOp17
 70
     1
102
RTVSPropertyOp18
 70
     1
102
RTVSPropertyOp19
 70
     1
102
RTVSPropertyOp20
 70
     1
102
RTVSPropertyOp21
 70
     1
102
RTVSPropertyOp22
 70
     1
102
RTVSPropertyOp23
 70
     1
102
RTVSPropertyOp24
 70
     1
102
RTVSPropertyOp25
 70
     1
102
RTVSPropertyOp26
 70
     1
102
RTVSPropertyOp27
 70
     1
  0
XRECORD
  5
772
102
{ACAD_REACTORS
330
771
102
}
330
771
100
AcDbXrecord
280
     1
102
RTVSPropertyOp0
 70
     1
102
RTVSPropertyOp1
 70
     1
102
RTVSPropertyOp2
 70
     1
102
RTVSPropertyOp3
 70
     1
102
RTVSPropertyOp4
 70
     1
102
RTVSPropertyOp5
 70
     1
102
RTVSPropertyOp6
 70
     1
102
RTVSPropertyOp7
 70
     1
102
RTVSPropertyOp8
 70
     1
102
RTVSPropertyOp9
 70
     1
102
RTVSPropertyOp10
 70
     1
102
RTVSPropertyOp11
 70
     1
102
RTVSPropertyOp12
 70
     1
102
RTVSPropertyOp13
 70
     1
102
RTVSPropertyOp14
 70
     1
102
RTVSPropertyOp15
 70
     1
102
RTVSPropertyOp16
 70
     1
102
RTVSPropertyOp17
 70
     1
102
RTVSPropertyOp18
 70
     1
102
RTVSPropertyOp19
 70
     1
102
RTVSPropertyOp20
 70
     1
102
RTVSPropertyOp21
 70
     1
102
RTVSPropertyOp22
 70
     1
102
RTVSPropertyOp23
 70
     1
102
RTVSPropertyOp24
 70
     1
102
RTVSPropertyOp25
 70
     1
102
RTVSPropertyOp26
 70
     1
102
RTVSPropertyOp27
 70
     1
  0
XRECORD
  5
756
102
{ACAD_REACTORS
330
755
102
}
330
755
100
AcDbXrecord
280
     1
102
RTVSPropertyOp0
 70
     1
102
RTVSPropertyOp1
 70
     1
102
RTVSPropertyOp2
 70
     1
102
RTVSPropertyOp3
 70
     1
102
RTVSPropertyOp4
 70
     1
102
RTVSPropertyOp5
 70
     1
102
RTVSPropertyOp6
 70
     1
102
RTVSPropertyOp7
 70
     1
102
RTVSPropertyOp8
 70
     1
102
RTVSPropertyOp9
 70
     1
102
RTVSPropertyOp10
 70
     1
102
RTVSPropertyOp11
 70
     1
102
RTVSPropertyOp12
 70
     1
102
RTVSPropertyOp13
 70
     1
102
RTVSPropertyOp14
 70
     1
102
RTVSPropertyOp15
 70
     1
102
RTVSPropertyOp16
 70
     1
102
RTVSPropertyOp17
 70
     1
102
RTVSPropertyOp18
 70
     1
102
RTVSPropertyOp19
 70
     1
102
RTVSPropertyOp20
 70
     1
102
RTVSPropertyOp21
 70
     1
102
RTVSPropertyOp22
 70
     1
102
RTVSPropertyOp23
 70
     1
102
RTVSPropertyOp24
 70
     1
102
RTVSPropertyOp25
 70
     1
102
RTVSPropertyOp26
 70
     1
102
RTVSPropertyOp27
 70
     1
  0
XRECORD
  5
758
102
{ACAD_REACTORS
330
757
102
}
330
757
100
AcDbXrecord
280
     1
102
RTVSPropertyOp0
 70
     1
102
RTVSPropertyOp1
 70
     1
102
RTVSPropertyOp2
 70
     1
102
RTVSPropertyOp3
 70
     1
102
RTVSPropertyOp4
 70
     1
102
RTVSPropertyOp5
 70
     1
102
RTVSPropertyOp6
 70
     1
102
RTVSPropertyOp7
 70
     1
102
RTVSPropertyOp8
 70
     1
102
RTVSPropertyOp9
 70
     1
102
RTVSPropertyOp10
 70
     1
102
RTVSPropertyOp11
 70
     1
102
RTVSPropertyOp12
 70
     1
102
RTVSPropertyOp13
 70
     1
102
RTVSPropertyOp14
 70
     1
102
RTVSPropertyOp15
 70
     1
102
RTVSPropertyOp16
 70
     1
102
RTVSPropertyOp17
 70
     1
102
RTVSPropertyOp18
 70
     1
102
RTVSPropertyOp19
 70
     1
102
RTVSPropertyOp20
 70
     1
102
RTVSPropertyOp21
 70
     1
102
RTVSPropertyOp22
 70
     1
102
RTVSPropertyOp23
 70
     1
102
RTVSPropertyOp24
 70
     1
102
RTVSPropertyOp25
 70
     1
102
RTVSPropertyOp26
 70
     1
102
RTVSPropertyOp27
 70
     1
  0
XRECORD
  5
75A
102
{ACAD_REACTORS
330
759
102
}
330
759
100
AcDbXrecord
280
     1
102
RTVSPropertyOp0
 70
     1
102
RTVSPropertyOp1
 70
     1
102
RTVSPropertyOp2
 70
     1
102
RTVSPropertyOp3
 70
     1
102
RTVSPropertyOp4
 70
     1
102
RTVSPropertyOp5
 70
     1
102
RTVSPropertyOp6
 70
     1
102
RTVSPropertyOp7
 70
     1
102
RTVSPropertyOp8
 70
     1
102
RTVSPropertyOp9
 70
     1
102
RTVSPropertyOp10
 70
     1
102
RTVSPropertyOp11
 70
     1
102
RTVSPropertyOp12
 70
     1
102
RTVSPropertyOp13
 70
     1
102
RTVSPropertyOp14
 70
     1
102
RTVSPropertyOp15
 70
     1
102
RTVSPropertyOp16
 70
     1
102
RTVSPropertyOp17
 70
     1
102
RTVSPropertyOp18
 70
     1
102
RTVSPropertyOp19
 70
     1
102
RTVSPropertyOp20
 70
     1
102
RTVSPropertyOp21
 70
     1
102
RTVSPropertyOp22
 70
     1
102
RTVSPropertyOp23
 70
     1
102
RTVSPropertyOp24
 70
     1
102
RTVSPropertyOp25
 70
     1
102
RTVSPropertyOp26
 70
     1
102
RTVSPropertyOp27
 70
     1
  0
XRECORD
  5
75C
102
{ACAD_REACTORS
330
75B
102
}
330
75B
100
AcDbXrecord
280
     1
102
RTVSPropertyOp0
 70
     1
102
RTVSPropertyOp1
 70
     1
102
RTVSPropertyOp2
 70
     1
102
RTVSPropertyOp3
 70
     1
102
RTVSPropertyOp4
 70
     1
102
RTVSPropertyOp5
 70
     1
102
RTVSPropertyOp6
 70
     1
102
RTVSPropertyOp7
 70
     1
102
RTVSPropertyOp8
 70
     1
102
RTVSPropertyOp9
 70
     1
102
RTVSPropertyOp10
 70
     1
102
RTVSPropertyOp11
 70
     1
102
RTVSPropertyOp12
 70
     1
102
RTVSPropertyOp13
 70
     1
102
RTVSPropertyOp14
 70
     1
102
RTVSPropertyOp15
 70
     1
102
RTVSPropertyOp16
 70
     1
102
RTVSPropertyOp17
 70
     1
102
RTVSPropertyOp18
 70
     1
102
RTVSPropertyOp19
 70
     1
102
RTVSPropertyOp20
 70
     1
102
RTVSPropertyOp21
 70
     1
102
RTVSPropertyOp22
 70
     1
102
RTVSPropertyOp23
 70
     1
102
RTVSPropertyOp24
 70
     1
102
RTVSPropertyOp25
 70
     1
102
RTVSPropertyOp26
 70
     1
102
RTVSPropertyOp27
 70
     1
  0
XRECORD
  5
770
102
{ACAD_REACTORS
330
76F
102
}
330
76F
100
AcDbXrecord
280
     1
102
RTVSPropertyOp0
 70
     1
102
RTVSPropertyOp1
 70
     1
102
RTVSPropertyOp2
 70
     1
102
RTVSPropertyOp3
 70
     1
102
RTVSPropertyOp4
 70
     1
102
RTVSPropertyOp5
 70
     1
102
RTVSPropertyOp6
 70
     1
102
RTVSPropertyOp7
 70
     1
102
RTVSPropertyOp8
 70
     1
102
RTVSPropertyOp9
 70
     1
102
RTVSPropertyOp10
 70
     1
102
RTVSPropertyOp11
 70
     1
102
RTVSPropertyOp12
 70
     1
102
RTVSPropertyOp13
 70
     1
102
RTVSPropertyOp14
 70
     1
102
RTVSPropertyOp15
 70
     1
102
RTVSPropertyOp16
 70
     1
102
RTVSPropertyOp17
 70
     1
102
RTVSPropertyOp18
 70
     1
102
RTVSPropertyOp19
 70
     1
102
RTVSPropertyOp20
 70
     1
102
RTVSPropertyOp21
 70
     1
102
RTVSPropertyOp22
 70
     1
102
RTVSPropertyOp23
 70
     1
102
RTVSPropertyOp24
 70
     1
102
RTVSPropertyOp25
 70
     1
102
RTVSPropertyOp26
 70
     1
102
RTVSPropertyOp27
 70
     1
  0
XRECORD
  5
766
102
{ACAD_REACTORS
330
765
102
}
330
765
100
AcDbXrecord
280
     1
102
RTVSPropertyOp0
 70
     1
102
RTVSPropertyOp1
 70
     1
102
RTVSPropertyOp2
 70
     1
102
RTVSPropertyOp3
 70
     1
102
RTVSPropertyOp4
 70
     1
102
RTVSPropertyOp5
 70
     1
102
RTVSPropertyOp6
 70
     1
102
RTVSPropertyOp7
 70
     1
102
RTVSPropertyOp8
 70
     1
102
RTVSPropertyOp9
 70
     1
102
RTVSPropertyOp10
 70
     1
102
RTVSPropertyOp11
 70
     1
102
RTVSPropertyOp12
 70
     1
102
RTVSPropertyOp13
 70
     1
102
RTVSPropertyOp14
 70
     1
102
RTVSPropertyOp15
 70
     1
102
RTVSPropertyOp16
 70
     1
102
RTVSPropertyOp17
 70
     1
102
RTVSPropertyOp18
 70
     1
102
RTVSPropertyOp19
 70
     1
102
RTVSPropertyOp20
 70
     1
102
RTVSPropertyOp21
 70
     1
102
RTVSPropertyOp22
 70
     1
102
RTVSPropertyOp23
 70
     1
102
RTVSPropertyOp24
 70
     1
102
RTVSPropertyOp25
 70
     1
102
RTVSPropertyOp26
 70
     1
102
RTVSPropertyOp27
 70
     1
  0
XRECORD
  5
76E
102
{ACAD_REACTORS
330
76D
102
}
330
76D
100
AcDbXrecord
280
     1
102
RTVSPropertyOp0
 70
     1
102
RTVSPropertyOp1
 70
     1
102
RTVSPropertyOp2
 70
     1
102
RTVSPropertyOp3
 70
     1
102
RTVSPropertyOp4
 70
     1
102
RTVSPropertyOp5
 70
     1
102
RTVSPropertyOp6
 70
     1
102
RTVSPropertyOp7
 70
     1
102
RTVSPropertyOp8
 70
     1
102
RTVSPropertyOp9
 70
     1
102
RTVSPropertyOp10
 70
     1
102
RTVSPropertyOp11
 70
     1
102
RTVSPropertyOp12
 70
     1
102
RTVSPropertyOp13
 70
     1
102
RTVSPropertyOp14
 70
     1
102
RTVSPropertyOp15
 70
     1
102
RTVSPropertyOp16
 70
     1
102
RTVSPropertyOp17
 70
     1
102
RTVSPropertyOp18
 70
     1
102
RTVSPropertyOp19
 70
     1
102
RTVSPropertyOp20
 70
     1
102
RTVSPropertyOp21
 70
     1
102
RTVSPropertyOp22
 70
     1
102
RTVSPropertyOp23
 70
     1
102
RTVSPropertyOp24
 70
     1
102
RTVSPropertyOp25
 70
     1
102
RTVSPropertyOp26
 70
     1
102
RTVSPropertyOp27
 70
     1
  0
ENDSEC
  0
EOF
