  0
SECTION
  2
HEADER
  9
$ACADVER
  1
AC1015
  9
$ACADMAINTVER
 70
     6
  9
$DWGCODEPAGE
  3
ANSI_1252
  9
$INSBASE
 10
0.0
 20
0.0
 30
0.0
  9
$EXTMIN
 10
0.0
 20
0.0
 30
0.0
  9
$EXTMAX
 10
25.0
 20
35.0
 30
0.0
  9
$LIMMIN
 10
0.0
 20
0.0
  9
$LIMMAX
 10
420.0
 20
297.0
  9
$ORTHOMODE
 70
     0
  9
$REGENMODE
 70
     1
  9
$FILLMODE
 70
     1
  9
$QTEXTMODE
 70
     0
  9
$MIRRTEXT
 70
     1
  9
$LTSCALE
 40
4.15
  9
$ATTMODE
 70
     1
  9
$TEXTSIZE
 40
2.5
  9
$TRACEWID
 40
1.0
  9
$TEXTSTYLE
  7
Standard
  9
$CLAYER
  8
0
  9
$CELTYPE
  6
ByLayer
  9
$CECOLOR
 62
   256
  9
$CELTSCALE
 40
1.0
  9
$DISPSILH
 70
     0
  9
$DIMSCALE
 40
1.0
  9
$DIMASZ
 40
2.5
  9
$DIMEXO
 40
0.625
  9
$DIMDLI
 40
3.75
  9
$DIMRND
 40
0.0
  9
$DIMDLE
 40
0.0
  9
$DIMEXE
 40
1.25
  9
$DIMTP
 40
0.0
  9
$DIMTM
 40
0.0
  9
$DIMTXT
 40
2.5
  9
$DIMCEN
 40
2.5
  9
$DIMTSZ
 40
0.0
  9
$DIMTOL
 70
     0
  9
$DIMLIM
 70
     0
  9
$DIMTIH
 70
     0
  9
$DIMTOH
 70
     0
  9
$DIMSE1
 70
     0
  9
$DIMSE2
 70
     0
  9
$DIMTAD
 70
     1
  9
$DIMZIN
 70
     8
  9
$DIMBLK
  1

  9
$DIMASO
 70
     1
  9
$DIMSHO
 70
     1
  9
$DIMPOST
  1

  9
$DIMAPOST
  1

  9
$DIMALT
 70
     0
  9
$DIMALTD
 70
     3
  9
$DIMALTF
 40
0.03937007874016
  9
$DIMLFAC
 40
1.0
  9
$DIMTOFL
 70
     1
  9
$DIMTVP
 40
0.0
  9
$DIMTIX
 70
     0
  9
$DIMSOXD
 70
     0
  9
$DIMSAH
 70
     0
  9
$DIMBLK1
  1

  9
$DIMBLK2
  1

  9
$DIMSTYLE
  2
ISO-25
  9
$DIMCLRD
 70
     0
  9
$DIMCLRE
 70
     0
  9
$DIMCLRT
 70
     0
  9
$DIMTFAC
 40
1.0
  9
$DIMGAP
 40
0.625
  9
$DIMJUST
 70
     0
  9
$DIMSD1
 70
     0
  9
$DIMSD2
 70
     0
  9
$DIMTOLJ
 70
     0
  9
$DIMTZIN
 70
     8
  9
$DIMALTZ
 70
     0
  9
$DIMALTTZ
 70
     0
  9
$DIMUPT
 70
     0
  9
$DIMDEC
 70
     2
  9
$DIMTDEC
 70
     2
  9
$DIMALTU
 70
     2
  9
$DIMALTTD
 70
     3
  9
$DIMTXSTY
  7
Standard
  9
$DIMAUNIT
 70
     0
  9
$DIMADEC
 70
     0
  9
$DIMALTRND
 40
0.0
  9
$DIMAZIN
 70
     0
  9
$DIMDSEP
 70
    44
  9
$DIMATFIT
 70
     3
  9
$DIMFRAC
 70
     0
  9
$DIMLDRBLK
  1

  9
$DIMLUNIT
 70
     2
  9
$DIMLWD
 70
    -2
  9
$DIMLWE
 70
    -2
  9
$DIMTMOVE
 70
     0
  9
$LUNITS
 70
     2
  9
$LUPREC
 70
     4
  9
$SKETCHINC
 40
1.0
  9
$FILLETRAD
 40
10.0
  9
$AUNITS
 70
     0
  9
$AUPREC
 70
     0
  9
$MENU
  1
.
  9
$ELEVATION
 40
0.0
  9
$PELEVATION
 40
0.0
  9
$THICKNESS
 40
0.0
  9
$LIMCHECK
 70
     0
  9
$CHAMFERA
 40
10.0
  9
$CHAMFERB
 40
10.0
  9
$CHAMFERC
 40
20.0
  9
$CHAMFERD
 40
0.0
  9
$SKPOLY
 70
     0
  9
$TDCREATE
 40
2458577.647916667
  9
$TDUCREATE
 40
2458577.564583333
  9
$TDUPDATE
 40
2458577.651388889
  9
$TDUUPDATE
 40
2458577.568055556
  9
$TDINDWG
 40
0.0000000116
  9
$TDUSRTIMER
 40
0.0000000116
  9
$USRTIMER
 70
     1
  9
$ANGBASE
 50
0.0
  9
$ANGDIR
 70
     0
  9
$PDMODE
 70
     0
  9
$PDSIZE
 40
0.0
  9
$PLINEWID
 40
0.0
  9
$SPLFRAME
 70
     0
  9
$SPLINETYPE
 70
     6
  9
$SPLINESEGS
 70
     8
  9
$HANDSEED
  5
90D
  9
$SURFTAB1
 70
     6
  9
$SURFTAB2
 70
     6
  9
$SURFTYPE
 70
     6
  9
$SURFU
 70
     6
  9
$SURFV
 70
     6
  9
$UCSBASE
  2

  9
$UCSNAME
  2

  9
$UCSORG
 10
0.0
 20
0.0
 30
0.0
  9
$UCSXDIR
 10
1.0
 20
0.0
 30
0.0
  9
$UCSYDIR
 10
0.0
 20
1.0
 30
0.0
  9
$UCSORTHOREF
  2

  9
$UCSORTHOVIEW
 70
     0
  9
$UCSORGTOP
 10
0.0
 20
0.0
 30
0.0
  9
$UCSORGBOTTOM
 10
0.0
 20
0.0
 30
0.0
  9
$UCSORGLEFT
 10
0.0
 20
0.0
 30
0.0
  9
$UCSORGRIGHT
 10
0.0
 20
0.0
 30
0.0
  9
$UCSORGFRONT
 10
0.0
 20
0.0
 30
0.0
  9
$UCSORGBACK
 10
0.0
 20
0.0
 30
0.0
  9
$PUCSBASE
  2

  9
$PUCSNAME
  2

  9
$PUCSORG
 10
0.0
 20
0.0
 30
0.0
  9
$PUCSXDIR
 10
1.0
 20
0.0
 30
0.0
  9
$PUCSYDIR
 10
0.0
 20
1.0
 30
0.0
  9
$PUCSORTHOREF
  2

  9
$PUCSORTHOVIEW
 70
     0
  9
$PUCSORGTOP
 10
0.0
 20
0.0
 30
0.0
  9
$PUCSORGBOTTOM
 10
0.0
 20
0.0
 30
0.0
  9
$PUCSORGLEFT
 10
0.0
 20
0.0
 30
0.0
  9
$PUCSORGRIGHT
 10
0.0
 20
0.0
 30
0.0
  9
$PUCSORGFRONT
 10
0.0
 20
0.0
 30
0.0
  9
$PUCSORGBACK
 10
0.0
 20
0.0
 30
0.0
  9
$USERI1
 70
     0
  9
$USERI2
 70
     0
  9
$USERI3
 70
     0
  9
$USERI4
 70
     0
  9
$USERI5
 70
     0
  9
$USERR1
 40
0.0
  9
$USERR2
 40
0.0
  9
$USERR3
 40
0.0
  9
$USERR4
 40
0.0
  9
$USERR5
 40
0.0
  9
$WORLDVIEW
 70
     1
  9
$SHADEDGE
 70
     3
  9
$SHADEDIF
 70
    70
  9
$TILEMODE
 70
     1
  9
$MAXACTVP
 70
    64
  9
$PINSBASE
 10
0.0
 20
0.0
 30
0.0
  9
$PLIMCHECK
 70
     0
  9
$PEXTMIN
 10
1.000000000000000E+20
 20
1.000000000000000E+20
 30
1.000000000000000E+20
  9
$PEXTMAX
 10
-1.000000000000000E+20
 20
-1.000000000000000E+20
 30
-1.000000000000000E+20
  9
$PLIMMIN
 10
0.0
 20
0.0
  9
$PLIMMAX
 10
420.0
 20
297.0
  9
$UNITMODE
 70
     0
  9
$VISRETAIN
 70
     1
  9
$PLINEGEN
 70
     0
  9
$PSLTSCALE
 70
     1
  9
$TREEDEPTH
 70
  3020
  9
$CMLSTYLE
  2
Standard
  9
$CMLJUST
 70
     0
  9
$CMLSCALE
 40
20.0
  9
$PROXYGRAPHICS
 70
     1
  9
$MEASUREMENT
 70
     1
  9
$CELWEIGHT
370
    -1
  9
$ENDCAPS
280
     0
  9
$JOINSTYLE
280
     0
  9
$LWDISPLAY
290
     0
  9
$INSUNITS
 70
     4
  9
$HYPERLINKBASE
  1

  9
$STYLESHEET
  1

  9
$XEDIT
290
     1
  9
$CEPSNTYPE
380
     0
  9
$PSTYLEMODE
290
     1
  9
$FINGERPRINTGUID
  2
{BF1054AB-74EA-4420-9FDE-DA4F6051E235}
  9
$VERSIONGUID
  2
{FAEB1C32-E019-11D5-929B-00C0DF256EC4}
  9
$EXTNAMES
290
     1
  9
$PSVPSCALE
 40
0.0
  9
$OLESTARTUP
290
     0
  0
ENDSEC
  0
SECTION
  2
CLASSES
  0
CLASS
  1
ACDBDICTIONARYWDFLT
  2
AcDbDictionaryWithDefault
  3
ObjectDBX Classes
 90
        0
280
     0
281
     0
  0
CLASS
  1
VISUALSTYLE
  2
AcDbVisualStyle
  3
ObjectDBX Classes
 90
     4095
280
     0
281
     0
  0
CLASS
  1
MATERIAL
  2
AcDbMaterial
  3
ObjectDBX Classes
 90
     1153
280
     0
281
     0
  0
CLASS
  1
SCALE
  2
AcDbScale
  3
ObjectDBX Classes
 90
     1153
280
     0
281
     0
  0
CLASS
  1
DICTIONARYVAR
  2
AcDbDictionaryVar
  3
ObjectDBX Classes
 90
        0
280
     0
281
     0
  0
CLASS
  1
ACDBPLACEHOLDER
  2
AcDbPlaceHolder
  3
ObjectDBX Classes
 90
        0
280
     0
281
     0
  0
CLASS
  1
LAYOUT
  2
AcDbLayout
  3
ObjectDBX Classes
 90
        0
280
     0
281
     0
  0
ENDSEC
  0
SECTION
  2
TABLES
  0
TABLE
  2
VPORT
  5
8
330
0
100
AcDbSymbolTable
 70
     1
  0
VPORT
  5
29
330
8
100
AcDbSymbolTableRecord
100
AcDbViewportTableRecord
  2
*Active
 70
     0
 10
0.0
 20
0.0
 11
1.0
 21
1.0
 12
11.26
 22
4.5
 13
0.0
 23
0.0
 14
10.0
 24
10.0
 15
10.0
 25
10.0
 16
0.0
 26
0.0
 36
1.0
 17
0.0
 27
0.0
 37
0.0
 40
9.0
 41
2.503333333333333
 42
50.0
 43
0.0
 44
0.0
 50
0.0
 51
0.0
 71
     0
 72
   100
 73
     1
 74
     3
 75
     0
 76
     0
 77
     0
 78
     0
281
     0
 65
     1
110
0.0
120
0.0
130
0.0
111
1.0
121
0.0
131
0.0
112
0.0
122
1.0
132
0.0
 79
     0
146
0.0
  0
ENDTAB
  0
TABLE
  2
LTYPE
  5
5
330
0
100
AcDbSymbolTable
 70
    10
  0
LTYPE
  5
14
330
5
100
AcDbSymbolTableRecord
100
AcDbLinetypeTableRecord
  2
ByBlock
 70
     0
  3

 72
    65
 73
     0
 40
0.0
  0
LTYPE
  5
15
330
5
100
AcDbSymbolTableRecord
100
AcDbLinetypeTableRecord
  2
ByLayer
 70
     0
  3

 72
    65
 73
     0
 40
0.0
  0
LTYPE
  5
16
330
5
100
AcDbSymbolTableRecord
100
AcDbLinetypeTableRecord
  2
Continuous
 70
     0
  3
Solid line
 72
    65
 73
     0
 40
0.0
  0
LTYPE
  5
45
330
5
100
AcDbSymbolTableRecord
100
AcDbLinetypeTableRecord
  2
phl_thick
 70
     0
  3
THICK
 72
    65
 73
     0
 40
0.0
  0
LTYPE
  5
205
330
5
100
AcDbSymbolTableRecord
100
AcDbLinetypeTableRecord
  2
CUT
 70
     0
  3
THICK
 72
    65
 73
     0
 40
0.0
  0
LTYPE
  5
20D
330
5
100
AcDbSymbolTableRecord
100
AcDbLinetypeTableRecord
  2
NOCUT
 70
     0
  3
THICK
 72
    65
 73
     0
 40
0.0
  0
LTYPE
  5
214
330
5
100
AcDbSymbolTableRecord
100
AcDbLinetypeTableRecord
  2
SK1
 70
     0
  3
THICK
 72
    65
 73
     0
 40
0.0
  0
LTYPE
  5
222
330
5
100
AcDbSymbolTableRecord
100
AcDbLinetypeTableRecord
  2
ls_SK2
 70
     0
  3
THIN
 72
    65
 73
     0
 40
0.0
  0
LTYPE
  5
2CE
330
5
100
AcDbSymbolTableRecord
100
AcDbLinetypeTableRecord
  2
ls_2
 70
     0
  3
THIN
 72
    65
 73
     0
 40
0.0
  0
LTYPE
  5
462
330
5
100
AcDbSymbolTableRecord
100
AcDbLinetypeTableRecord
  2
ls_SK1
 70
     0
  3
THICK
 72
    65
 73
     0
 40
0.0
  0
LTYPE
  5
49C
330
5
100
AcDbSymbolTableRecord
100
AcDbLinetypeTableRecord
  2
LONGDASH_DASH
 70
     0
  3
THIN_DASHDOT
 72
    65
 73
     4
 40
0.85
 49
0.4
 74
     0
 49
-0.2
 74
     0
 49
0.05
 74
     0
 49
-0.2
 74
     0
  0
LTYPE
  5
4A1
330
5
100
AcDbSymbolTableRecord
100
AcDbLinetypeTableRecord
  2
ls1
 70
     0
  3
THICK
 72
    65
 73
     0
 40
0.0
  0
ENDTAB
  0
TABLE
  2
LAYER
  5
2
330
0
100
AcDbSymbolTable
 70
    10
  0
LAYER
  5
10
330
2
100
AcDbSymbolTableRecord
100
AcDbLayerTableRecord
  2
0
 70
     0
 62
     7
  6
Continuous
370
    -3
390
F
  0
LAYER
  5
44
330
2
100
AcDbSymbolTableRecord
100
AcDbLayerTableRecord
  2
1
 70
     0
 62
4
  6
CONTINUOUS
370
50
370
    -3
390
F
  0
LAYER
  5
204
330
2
100
AcDbSymbolTableRecord
100
AcDbLayerTableRecord
  2
CUT
 70
     0
 62
1
  6
CONTINUOUS
370
25
370
    -3
390
F
  0
LAYER
  5
20C
330
2
100
AcDbSymbolTableRecord
100
AcDbLayerTableRecord
  2
NOCUT
 70
     0
 62
7
  6
CONTINUOUS
370
25
370
    -3
390
F
  0
LAYER
  5
213
330
2
100
AcDbSymbolTableRecord
100
AcDbLayerTableRecord
  2
SK1
 70
     0
 62
4
  6
CONTINUOUS
370
50
370
    -3
390
F
  0
LAYER
  5
221
330
2
100
AcDbSymbolTableRecord
100
AcDbLayerTableRecord
  2
SK2
 70
     0
 62
7
  6
CONTINUOUS
370
25
370
    -3
390
F
  0
LAYER
  5
2CD
330
2
100
AcDbSymbolTableRecord
100
AcDbLayerTableRecord
  2
2
 70
     0
 62
7
  6
CONTINUOUS
370
25
370
    -3
390
F
  0
LAYER
  5
49B
330
2
100
AcDbSymbolTableRecord
100
AcDbLayerTableRecord
  2
4
 70
     0
 62
2
  6
LONGDASH_DASH
370
25
370
    -3
390
F
  0
LAYER
  5
49E
330
2
100
AcDbSymbolTableRecord
100
AcDbLayerTableRecord
  2
SK4
 70
     0
 62
2
  6
LONGDASH_DASH
370
25
370
    -3
390
F
  0
LAYER
  5
4A0
330
2
100
AcDbSymbolTableRecord
100
AcDbLayerTableRecord
  2
SK6
 70
     0
 62
5
  6
CONTINUOUS
370
25
370
    -3
390
F
  0
ENDTAB
  0
TABLE
  2
STYLE
  5
3
330
0
100
AcDbSymbolTable
 70
     1
  0
STYLE
  5
11
330
3
100
AcDbSymbolTableRecord
100
AcDbTextStyleTableRecord
  2
Standard
 70
     0
 40
0.0
 41
1.0
 50
0.0
 71
     0
 42
2.5
  3
Monospac821 BT
  4

  0
ENDTAB
  0
TABLE
  2
VIEW
  5
6
330
0
100
AcDbSymbolTable
 70
     0
  0
ENDTAB
  0
TABLE
  2
UCS
  5
7
330
0
100
AcDbSymbolTable
 70
     0
  0
ENDTAB
  0
TABLE
  2
APPID
  5
9
330
0
100
AcDbSymbolTable
 70
     2
  0
APPID
  5
12
330
9
100
AcDbSymbolTableRecord
100
AcDbRegAppTableRecord
  2
ACAD
 70
     0
  0
APPID
  5
3F
330
9
100
AcDbSymbolTableRecord
100
AcDbRegAppTableRecord
  2
ccLab
 70
     0
  0
ENDTAB
  0
TABLE
  2
DIMSTYLE
  5
A
330
0
100
AcDbSymbolTable
 70
     1
100
AcDbDimStyleTable
  0
DIMSTYLE
105
27
330
A
100
AcDbSymbolTableRecord
100
AcDbDimStyleTableRecord
  2
ISO-25
 70
     0
 41
2.5
 42
0.625
 43
3.75
 44
1.25
 73
     0
 74
     0
 77
     1
 78
     8
140
2.5
141
2.5
143
0.03937007874016
147
0.625
171
     3
172
     1
271
     2
272
     2
274
     3
278
    44
283
     0
284
     8
340
11
  0
ENDTAB
  0
TABLE
  2
BLOCK_RECORD
  5
1
330
0
100
AcDbSymbolTable
 70
     2
  0
BLOCK_RECORD
  5
1F
330
1
100
AcDbSymbolTableRecord
100
AcDbBlockTableRecord
  2
*Model_Space
340
22
  0
BLOCK_RECORD
  5
1B
330
1
100
AcDbSymbolTableRecord
100
AcDbBlockTableRecord
  2
*Paper_Space
340
1E
  0
BLOCK_RECORD
  5
23
330
1
100
AcDbSymbolTableRecord
100
AcDbBlockTableRecord
  2
*Paper_Space0
340
26
  0
ENDTAB
  0
ENDSEC
  0
SECTION
  2
BLOCKS
  0
BLOCK
  5
20
330
1F
100
AcDbEntity
  8
0
100
AcDbBlockBegin
  2
*Model_Space
 70
     0
 10
0.0
 20
0.0
 30
0.0
  3
*Model_Space
  1

  0
ENDBLK
  5
21
330
1F
100
AcDbEntity
  8
0
100
AcDbBlockEnd
  0
BLOCK
  5
1C
330
1B
100
AcDbEntity
 67
     1
  8
0
100
AcDbBlockBegin
  2
*Paper_Space
 70
     0
 10
0.0
 20
0.0
 30
0.0
  3
*Paper_Space
  1

  0
ENDBLK
  5
1D
330
1B
100
AcDbEntity
 67
     1
  8
0
100
AcDbBlockEnd
  0
BLOCK
  5
24
330
23
100
AcDbEntity
  8
0
100
AcDbBlockBegin
  2
*Paper_Space0
 70
     0
 10
0.0
 20
0.0
 30
0.0
  3
*Paper_Space0
  1

  0
ENDBLK
  5
25
330
23
100
AcDbEntity
  8
0
100
AcDbBlockEnd
  0
ENDSEC
  0
SECTION
  2
ENTITIES
  0
LINE
  5
4AB
330
1F
100
AcDbEntity
  8
1
  6
CONTINUOUS
370
50
 62
4
100
AcDbLine
 10
50.553921
 20
1.053779
 30
0.0
 11
50.553707
 21
1.118908
 31
0.0
  0
LINE
  5
4AC
330
1F
100
AcDbEntity
  8
1
  6
CONTINUOUS
370
50
 62
4
100
AcDbLine
 10
49.908531
 20
1.649353
 30
0.0
 11
49.908302
 21
1.694509
 31
0.0
  0
LINE
  5
4AD
330
1F
100
AcDbEntity
  8
1
  6
CONTINUOUS
370
50
 62
4
100
AcDbLine
 10
50.55421399999999
 20
-2.042794
 30
0.0
 11
50.553593
 21
-1.977861
 31
0.0
  0
LINE
  5
4AE
330
1F
100
AcDbEntity
  8
1
  6
CONTINUOUS
370
50
 62
4
100
AcDbLine
 10
50.556435
 20
0.9824529999999999
 30
0.0
 11
50.553921
 21
1.053779
 31
0.0
  0
LINE
  5
4AF
330
1F
100
AcDbEntity
  8
1
  6
CONTINUOUS
370
50
 62
4
100
AcDbLine
 10
43.083862
 20
0.104931
 30
0.0
 11
43.081635
 21
0.158023
 31
0.0
  0
LINE
  5
4B0
330
1F
100
AcDbEntity
  8
1
  6
CONTINUOUS
370
50
 62
4
100
AcDbLine
 10
50.557285
 20
-2.10121
 30
0.0
 11
50.55421399999999
 21
-2.042794
 31
0.0
  0
LINE
  5
4B1
330
1F
100
AcDbEntity
  8
1
  6
CONTINUOUS
370
50
 62
4
100
AcDbLine
 10
50.584984
 20
1.369212
 30
0.0
 11
50.584808
 21
1.372421
 31
0.0
  0
LINE
  5
4B2
330
1F
100
AcDbEntity
  8
1
  6
CONTINUOUS
370
50
 62
4
100
AcDbLine
 10
50.58516299999999
 20
1.365988
 30
0.0
 11
50.584984
 21
1.369212
 31
0.0
  0
LINE
  5
4B3
330
1F
100
AcDbEntity
  8
1
  6
CONTINUOUS
370
50
 62
4
100
AcDbLine
 10
50.585545
 20
1.359498
 30
0.0
 11
50.585354
 21
1.36275
 31
0.0
  0
LINE
  5
4B4
330
1F
100
AcDbEntity
  8
1
  6
CONTINUOUS
370
50
 62
4
100
AcDbLine
 10
50.585354
 20
1.36275
 30
0.0
 11
50.58516299999999
 21
1.365988
 31
0.0
  0
LINE
  5
4B5
330
1F
100
AcDbEntity
  8
1
  6
CONTINUOUS
370
50
 62
4
100
AcDbLine
 10
50.585743
 20
1.356231
 30
0.0
 11
50.585545
 21
1.359498
 31
0.0
  0
LINE
  5
4B6
330
1F
100
AcDbEntity
  8
1
  6
CONTINUOUS
370
50
 62
4
100
AcDbLine
 10
50.561237
 20
0.90545
 30
0.0
 11
50.556435
 21
0.9824529999999999
 31
0.0
  0
LINE
  5
4B7
330
1F
100
AcDbEntity
  8
1
  6
CONTINUOUS
370
50
 62
4
100
AcDbLine
 10
50.585949
 20
1.352949
 30
0.0
 11
50.585743
 21
1.356231
 31
0.0
  0
LINE
  5
4B8
330
1F
100
AcDbEntity
  8
1
  6
CONTINUOUS
370
50
 62
4
100
AcDbLine
 10
50.58615899999999
 20
1.349653
 30
0.0
 11
50.585949
 21
1.352949
 31
0.0
  0
LINE
  5
4B9
330
1F
100
AcDbEntity
  8
1
  6
CONTINUOUS
370
50
 62
4
100
AcDbLine
 10
50.584984
 20
-1.550499
 30
0.0
 11
50.584808
 21
-1.548226
 31
0.0
  0
LINE
  5
4BA
330
1F
100
AcDbEntity
  8
1
  6
CONTINUOUS
370
50
 62
4
100
AcDbLine
 10
49.908302
 20
1.694509
 30
0.0
 11
49.904476
 21
1.743518
 31
0.0
  0
LINE
  5
4BB
330
1F
100
AcDbEntity
  8
1
  6
CONTINUOUS
370
50
 62
4
100
AcDbLine
 10
50.58516299999999
 20
-1.552756
 30
0.0
 11
50.584984
 21
-1.550499
 31
0.0
  0
LINE
  5
4BC
330
1F
100
AcDbEntity
  8
1
  6
CONTINUOUS
370
50
 62
4
100
AcDbLine
 10
50.585354
 20
-1.554997
 30
0.0
 11
50.58516299999999
 21
-1.552756
 31
0.0
  0
LINE
  5
4BD
330
1F
100
AcDbEntity
  8
1
  6
CONTINUOUS
370
50
 62
4
100
AcDbLine
 10
50.585545
 20
-1.557221
 30
0.0
 11
50.585354
 21
-1.554997
 31
0.0
  0
LINE
  5
4BE
330
1F
100
AcDbEntity
  8
1
  6
CONTINUOUS
370
50
 62
4
100
AcDbLine
 10
50.568306
 20
0.8231539999999999
 30
0.0
 11
50.561237
 21
0.90545
 31
0.0
  0
LINE
  5
4BF
330
1F
100
AcDbEntity
  8
1
  6
CONTINUOUS
370
50
 62
4
100
AcDbLine
 10
50.585743
 20
-1.559428
 30
0.0
 11
50.585545
 21
-1.557221
 31
0.0
  0
LINE
  5
4C0
330
1F
100
AcDbEntity
  8
1
  6
CONTINUOUS
370
50
 62
4
100
AcDbLine
 10
50.585949
 20
-1.561619
 30
0.0
 11
50.585743
 21
-1.559428
 31
0.0
  0
LINE
  5
4C1
330
1F
100
AcDbEntity
  8
1
  6
CONTINUOUS
370
50
 62
4
100
AcDbLine
 10
50.58615899999999
 20
-1.563793
 30
0.0
 11
50.585949
 21
-1.561619
 31
0.0
  0
LINE
  5
4C2
330
1F
100
AcDbEntity
  8
1
  6
CONTINUOUS
370
50
 62
4
100
AcDbLine
 10
50.577606
 20
0.735764
 30
0.0
 11
50.568306
 21
0.8231539999999999
 31
0.0
  0
LINE
  5
4C3
330
1F
100
AcDbEntity
  8
1
  6
CONTINUOUS
370
50
 62
4
100
AcDbLine
 10
50.562786
 20
-2.152572
 30
0.0
 11
50.557285
 21
-2.10121
 31
0.0
  0
LINE
  5
4C4
330
1F
100
AcDbEntity
  8
1
  6
CONTINUOUS
370
50
 62
4
100
AcDbLine
 10
50.589108
 20
0.6434799999999999
 30
0.0
 11
50.577606
 21
0.735764
 31
0.0
  0
LINE
  5
4C5
330
1F
100
AcDbEntity
  8
1
  6
CONTINUOUS
370
50
 62
4
100
AcDbLine
 10
49.904476
 20
1.743518
 30
0.0
 11
49.897259
 21
1.795995
 31
0.0
  0
LINE
  5
4C6
330
1F
100
AcDbEntity
  8
1
  6
CONTINUOUS
370
50
 62
4
100
AcDbLine
 10
50.602787
 20
0.546503
 30
0.0
 11
50.589108
 21
0.6434799999999999
 31
0.0
  0
LINE
  5
4C7
330
1F
100
AcDbEntity
  8
1
  6
CONTINUOUS
370
50
 62
4
100
AcDbLine
 10
50.618614
 20
0.445033
 30
0.0
 11
50.602787
 21
0.546503
 31
0.0
  0
LINE
  5
4C8
330
1F
100
AcDbEntity
  8
1
  6
CONTINUOUS
370
50
 62
4
100
AcDbLine
 10
43.092548
 20
0.051833
 30
0.0
 11
43.083862
 21
0.104931
 31
0.0
  0
LINE
  5
4C9
330
1F
100
AcDbEntity
  8
1
  6
CONTINUOUS
370
50
 62
4
100
AcDbLine
 10
50.63655499999999
 20
0.339305
 30
0.0
 11
50.618614
 21
0.445033
 31
0.0
  0
LINE
  5
4CA
330
1F
100
AcDbEntity
  8
1
  6
CONTINUOUS
370
50
 62
4
100
AcDbLine
 10
50.570683
 20
-2.196733
 30
0.0
 11
50.562786
 21
-2.152572
 31
0.0
  0
LINE
  5
4CB
330
1F
100
AcDbEntity
  8
1
  6
CONTINUOUS
370
50
 62
4
100
AcDbLine
 10
50.65646
 20
0.230112
 30
0.0
 11
50.63655499999999
 21
0.339305
 31
0.0
  0
LINE
  5
4CC
330
1F
100
AcDbEntity
  8
1
  6
CONTINUOUS
370
50
 62
4
100
AcDbLine
 10
49.897259
 20
1.795995
 30
0.0
 11
49.88686
 21
1.851552
 31
0.0
  0
LINE
  5
4CD
330
1F
100
AcDbEntity
  8
1
  6
CONTINUOUS
370
50
 62
4
100
AcDbLine
 10
50.678238
 20
0.117914
 30
0.0
 11
50.65646
 21
0.230112
 31
0.0
  0
LINE
  5
4CE
330
1F
100
AcDbEntity
  8
1
  6
CONTINUOUS
370
50
 62
4
100
AcDbLine
 10
50.70181299999999
 20
0.002973
 30
0.0
 11
50.678238
 21
0.117914
 31
0.0
  0
LINE
  5
4CF
330
1F
100
AcDbEntity
  8
1
  6
CONTINUOUS
370
50
 62
4
100
AcDbLine
 10
50.72711899999999
 20
-0.114445
 30
0.0
 11
50.70181299999999
 21
0.002973
 31
0.0
  0
LINE
  5
4D0
330
1F
100
AcDbEntity
  8
1
  6
CONTINUOUS
370
50
 62
4
100
AcDbLine
 10
50.754089
 20
-0.234078
 30
0.0
 11
50.72711899999999
 21
-0.114445
 31
0.0
  0
LINE
  5
4D1
330
1F
100
AcDbEntity
  8
1
  6
CONTINUOUS
370
50
 62
4
100
AcDbLine
 10
49.88686
 20
1.851552
 30
0.0
 11
49.873482
 21
1.909806
 31
0.0
  0
LINE
  5
4D2
330
1F
100
AcDbEntity
  8
1
  6
CONTINUOUS
370
50
 62
4
100
AcDbLine
 10
49.873482
 20
1.909806
 30
0.0
 11
49.857296
 21
1.970493
 31
0.0
  0
LINE
  5
4D3
330
1F
100
AcDbEntity
  8
1
  6
CONTINUOUS
370
50
 62
4
100
AcDbLine
 10
50.580948
 20
-2.23364
 30
0.0
 11
50.570683
 21
-2.196733
 31
0.0
  0
LINE
  5
4D4
330
1F
100
AcDbEntity
  8
1
  6
CONTINUOUS
370
50
 62
4
100
AcDbLine
 10
43.107052
 20
0.0
 30
0.0
 11
43.092548
 21
0.051833
 31
0.0
  0
LINE
  5
4D5
330
1F
100
AcDbEntity
  8
1
  6
CONTINUOUS
370
50
 62
4
100
AcDbLine
 10
43.228271
 20
-0.342018
 30
0.0
 11
43.167435
 21
-0.127991
 31
0.0
  0
LINE
  5
4D6
330
1F
100
AcDbEntity
  8
1
  6
CONTINUOUS
370
50
 62
4
100
AcDbLine
 10
49.857296
 20
1.970493
 30
0.0
 11
49.838303
 21
2.033865
 31
0.0
  0
LINE
  5
4D7
330
1F
100
AcDbEntity
  8
1
  6
CONTINUOUS
370
50
 62
4
100
AcDbLine
 10
43.292206
 20
-0.552204
 30
0.0
 11
43.228271
 21
-0.342018
 31
0.0
  0
LINE
  5
4D8
330
1F
100
AcDbEntity
  8
1
  6
CONTINUOUS
370
50
 62
4
100
AcDbLine
 10
49.838303
 20
2.033865
 30
0.0
 11
49.816574
 21
2.099784
 31
0.0
  0
LINE
  5
4D9
330
1F
100
AcDbEntity
  8
1
  6
CONTINUOUS
370
50
 62
4
100
AcDbLine
 10
43.360748
 20
-0.7572749999999999
 30
0.0
 11
43.292206
 21
-0.552204
 31
0.0
  0
LINE
  5
4DA
330
1F
100
AcDbEntity
  8
1
  6
CONTINUOUS
370
50
 62
4
100
AcDbLine
 10
51.0
 20
0.368401
 30
0.0
 11
50.621326
 21
1.438646
 31
0.0
  0
LINE
  5
4DB
330
1F
100
AcDbEntity
  8
1
  6
CONTINUOUS
370
50
 62
4
100
AcDbLine
 10
43.113842
 20
-0.01904
 30
0.0
 11
43.107052
 21
0.0
 31
0.0
  0
LINE
  5
4DC
330
1F
100
AcDbEntity
  8
1
  6
CONTINUOUS
370
50
 62
4
100
AcDbLine
 10
49.816574
 20
2.099784
 30
0.0
 11
49.792187
 21
2.168047
 31
0.0
  0
LINE
  5
4DD
330
1F
100
AcDbEntity
  8
1
  6
CONTINUOUS
370
50
 62
4
100
AcDbLine
 10
43.43498599999999
 20
-0.954274
 30
0.0
 11
43.360748
 21
-0.7572749999999999
 31
0.0
  0
LINE
  5
4DE
330
1F
100
AcDbEntity
  8
1
  6
CONTINUOUS
370
50
 62
4
100
AcDbLine
 10
49.792187
 20
2.168047
 30
0.0
 11
49.765224
 21
2.238452
 31
0.0
  0
LINE
  5
4DF
330
1F
100
AcDbEntity
  8
1
  6
CONTINUOUS
370
50
 62
4
100
AcDbLine
 10
43.12130699999999
 20
-0.03784
 30
0.0
 11
43.113842
 21
-0.01904
 31
0.0
  0
LINE
  5
4E0
330
1F
100
AcDbEntity
  8
1
  6
CONTINUOUS
370
50
 62
4
100
AcDbLine
 10
49.765224
 20
2.238452
 30
0.0
 11
49.735775
 21
2.310796
 31
0.0
  0
LINE
  5
4E1
330
1F
100
AcDbEntity
  8
1
  6
CONTINUOUS
370
50
 62
4
100
AcDbLine
 10
50.59354399999999
 20
-2.263243
 30
0.0
 11
50.580948
 21
-2.23364
 31
0.0
  0
LINE
  5
4E2
330
1F
100
AcDbEntity
  8
1
  6
CONTINUOUS
370
50
 62
4
100
AcDbLine
 10
49.735775
 20
2.310796
 30
0.0
 11
49.70391799999999
 21
2.384878
 31
0.0
  0
LINE
  5
4E3
330
1F
100
AcDbEntity
  8
1
  6
CONTINUOUS
370
50
 62
4
100
AcDbLine
 10
43.12941
 20
-0.056395
 30
0.0
 11
43.12130699999999
 21
-0.03784
 31
0.0
  0
LINE
  5
4E4
330
1F
100
AcDbEntity
  8
1
  6
CONTINUOUS
370
50
 62
4
100
AcDbLine
 10
43.516895
 20
-1.141404
 30
0.0
 11
43.43498599999999
 21
-0.954274
 31
0.0
  0
LINE
  5
4E5
330
1F
100
AcDbEntity
  8
1
  6
CONTINUOUS
370
50
 62
4
100
AcDbLine
 10
49.70391799999999
 20
2.384878
 30
0.0
 11
49.669739
 21
2.460495
 31
0.0
  0
LINE
  5
4E6
330
1F
100
AcDbEntity
  8
1
  6
CONTINUOUS
370
50
 62
4
100
AcDbLine
 10
49.58865
 20
2.6376
 30
0.0
 11
49.575333
 21
2.667053
 31
0.0
  0
LINE
  5
4E7
330
1F
100
AcDbEntity
  8
1
  6
CONTINUOUS
370
50
 62
4
100
AcDbLine
 10
49.602028
 20
2.608128
 30
0.0
 11
49.58865
 21
2.6376
 31
0.0
  0
LINE
  5
4E8
330
1F
100
AcDbEntity
  8
1
  6
CONTINUOUS
370
50
 62
4
100
AcDbLine
 10
49.61545599999999
 20
2.578637
 30
0.0
 11
49.602028
 21
2.608128
 31
0.0
  0
LINE
  5
4E9
330
1F
100
AcDbEntity
  8
1
  6
CONTINUOUS
370
50
 62
4
100
AcDbLine
 10
49.628944
 20
2.549128
 30
0.0
 11
49.61545599999999
 21
2.578637
 31
0.0
  0
LINE
  5
4EA
330
1F
100
AcDbEntity
  8
1
  6
CONTINUOUS
370
50
 62
4
100
AcDbLine
 10
49.642487
 20
2.519602
 30
0.0
 11
49.628944
 21
2.549128
 31
0.0
  0
LINE
  5
4EB
330
1F
100
AcDbEntity
  8
1
  6
CONTINUOUS
370
50
 62
4
100
AcDbLine
 10
49.65608599999999
 20
2.490057
 30
0.0
 11
49.642487
 21
2.519602
 31
0.0
  0
LINE
  5
4EC
330
1F
100
AcDbEntity
  8
1
  6
CONTINUOUS
370
50
 62
4
100
AcDbLine
 10
49.669739
 20
2.460495
 30
0.0
 11
49.65608599999999
 21
2.490057
 31
0.0
  0
LINE
  5
4ED
330
1F
100
AcDbEntity
  8
1
  6
CONTINUOUS
370
50
 62
4
100
AcDbLine
 10
43.138115
 20
-0.074695
 30
0.0
 11
43.12941
 21
-0.056395
 31
0.0
  0
LINE
  5
4EE
330
1F
100
AcDbEntity
  8
1
  6
CONTINUOUS
370
50
 62
4
100
AcDbLine
 10
43.147377
 20
-0.092733
 30
0.0
 11
43.138115
 21
-0.074695
 31
0.0
  0
LINE
  5
4EF
330
1F
100
AcDbEntity
  8
1
  6
CONTINUOUS
370
50
 62
4
100
AcDbLine
 10
43.608559
 20
-1.317634
 30
0.0
 11
43.516895
 21
-1.141404
 31
0.0
  0
LINE
  5
4F0
330
1F
100
AcDbEntity
  8
1
  6
CONTINUOUS
370
50
 62
4
100
AcDbLine
 10
50.219986
 20
1.460229
 30
0.0
 11
49.575333
 21
2.667053
 31
0.0
  0
LINE
  5
4F1
330
1F
100
AcDbEntity
  8
1
  6
CONTINUOUS
370
50
 62
4
100
AcDbLine
 10
43.157166
 20
-0.110501
 30
0.0
 11
43.147377
 21
-0.092733
 31
0.0
  0
LINE
  5
4F2
330
1F
100
AcDbEntity
  8
1
  6
CONTINUOUS
370
50
 62
4
100
AcDbLine
 10
43.167435
 20
-0.127991
 30
0.0
 11
43.157166
 21
-0.110501
 31
0.0
  0
LINE
  5
4F3
330
1F
100
AcDbEntity
  8
1
  6
CONTINUOUS
370
50
 62
4
100
AcDbLine
 10
43.711262
 20
-1.4798
 30
0.0
 11
43.608559
 21
-1.317634
 31
0.0
  0
LINE
  5
4F4
330
1F
100
AcDbEntity
  8
1
  6
CONTINUOUS
370
50
 62
4
100
AcDbLine
 10
50.608444
 20
-2.28549
 30
0.0
 11
50.59354399999999
 21
-2.263243
 31
0.0
  0
LINE
  5
4F5
330
1F
100
AcDbEntity
  8
1
  6
CONTINUOUS
370
50
 62
4
100
AcDbLine
 10
43.826721
 20
-1.626735
 30
0.0
 11
43.711262
 21
-1.4798
 31
0.0
  0
LINE
  5
4F6
330
1F
100
AcDbEntity
  8
1
  6
CONTINUOUS
370
50
 62
4
100
AcDbLine
 10
50.866653
 20
2.495311
 30
0.0
 11
50.85236399999999
 21
2.510233
 31
0.0
  0
LINE
  5
4F7
330
1F
100
AcDbEntity
  8
1
  6
CONTINUOUS
370
50
 62
4
100
AcDbLine
 10
50.85236399999999
 20
2.510233
 30
0.0
 11
50.824707
 21
2.539006
 31
0.0
  0
LINE
  5
4F8
330
1F
100
AcDbEntity
  8
1
  6
CONTINUOUS
370
50
 62
4
100
AcDbLine
 10
43.957344
 20
-1.758696
 30
0.0
 11
43.826721
 21
-1.626735
 31
0.0
  0
LINE
  5
4F9
330
1F
100
AcDbEntity
  8
1
  6
CONTINUOUS
370
50
 62
4
100
AcDbLine
 10
50.996899
 20
2.503098
 30
0.0
 11
50.993801
 21
2.506198
 31
0.0
  0
LINE
  5
4FA
330
1F
100
AcDbEntity
  8
1
  6
CONTINUOUS
370
50
 62
4
100
AcDbLine
 10
50.990696
 20
2.509298
 30
0.0
 11
50.989147
 21
2.510848
 31
0.0
  0
LINE
  5
4FB
330
1F
100
AcDbEntity
  8
1
  6
CONTINUOUS
370
50
 62
4
100
AcDbLine
 10
51.0
 20
2.5
 30
0.0
 11
50.998451
 21
2.501549
 31
0.0
  0
LINE
  5
4FC
330
1F
100
AcDbEntity
  8
1
  6
CONTINUOUS
370
50
 62
4
100
AcDbLine
 10
50.993801
 20
2.506198
 30
0.0
 11
50.992249
 21
2.507748
 31
0.0
  0
LINE
  5
4FD
330
1F
100
AcDbEntity
  8
1
  6
CONTINUOUS
370
50
 62
4
100
AcDbLine
 10
50.992249
 20
2.507748
 30
0.0
 11
50.990696
 21
2.509298
 31
0.0
  0
LINE
  5
4FE
330
1F
100
AcDbEntity
  8
1
  6
CONTINUOUS
370
50
 62
4
100
AcDbLine
 10
50.998451
 20
2.501549
 30
0.0
 11
50.996899
 21
2.503098
 31
0.0
  0
LINE
  5
4FF
330
1F
100
AcDbEntity
  8
1
  6
CONTINUOUS
370
50
 62
4
100
AcDbLine
 10
50.989147
 20
2.510848
 30
0.0
 11
50.918854
 21
2.580931
 31
0.0
  0
LINE
  5
500
330
1F
100
AcDbEntity
  8
1
  6
CONTINUOUS
370
50
 62
4
100
AcDbLine
 10
50.918854
 20
2.580931
 30
0.0
 11
50.848698
 21
2.650565
 31
0.0
  0
LINE
  5
501
330
1F
100
AcDbEntity
  8
1
  6
CONTINUOUS
370
50
 62
4
100
AcDbLine
 10
50.848698
 20
2.650565
 30
0.0
 11
50.778679
 21
2.719728
 31
0.0
  0
LINE
  5
502
330
1F
100
AcDbEntity
  8
1
  6
CONTINUOUS
370
50
 62
4
100
AcDbLine
 10
50.778679
 20
2.719728
 30
0.0
 11
50.708794
 21
2.788398
 31
0.0
  0
LINE
  5
503
330
1F
100
AcDbEntity
  8
1
  6
CONTINUOUS
370
50
 62
4
100
AcDbLine
 10
50.708794
 20
2.788398
 30
0.0
 11
50.639046
 21
2.856553
 31
0.0
  0
LINE
  5
504
330
1F
100
AcDbEntity
  8
1
  6
CONTINUOUS
370
50
 62
4
100
AcDbLine
 10
50.639046
 20
2.856553
 30
0.0
 11
50.56945
 21
2.924161
 31
0.0
  0
LINE
  5
505
330
1F
100
AcDbEntity
  8
1
  6
CONTINUOUS
370
50
 62
4
100
AcDbLine
 10
50.56945
 20
2.924161
 30
0.0
 11
50.5
 21
2.991202
 31
0.0
  0
LINE
  5
506
330
1F
100
AcDbEntity
  8
1
  6
CONTINUOUS
370
50
 62
4
100
AcDbLine
 10
50.884102
 20
2.48022
 30
0.0
 11
50.866653
 21
2.495311
 31
0.0
  0
LINE
  5
507
330
1F
100
AcDbEntity
  8
1
  6
CONTINUOUS
370
50
 62
4
100
AcDbLine
 10
50.625614
 20
-2.300329
 30
0.0
 11
50.608444
 21
-2.28549
 31
0.0
  0
LINE
  5
508
330
1F
100
AcDbEntity
  8
1
  6
CONTINUOUS
370
50
 62
4
100
AcDbLine
 10
50.824707
 20
2.539006
 30
0.0
 11
50.793293
 21
2.564321
 31
0.0
  0
LINE
  5
509
330
1F
100
AcDbEntity
  8
1
  6
CONTINUOUS
370
50
 62
4
100
AcDbLine
 10
44.102234
 20
-1.87378
 30
0.0
 11
43.957344
 21
-1.758696
 31
0.0
  0
LINE
  5
50A
330
1F
100
AcDbEntity
  8
1
  6
CONTINUOUS
370
50
 62
4
100
AcDbLine
 10
50.904163
 20
2.465081
 30
0.0
 11
50.884102
 21
2.48022
 31
0.0
  0
LINE
  5
50B
330
1F
100
AcDbEntity
  8
1
  6
CONTINUOUS
370
50
 62
4
100
AcDbLine
 10
50.926296
 20
2.450017
 30
0.0
 11
50.904163
 21
2.465081
 31
0.0
  0
LINE
  5
50C
330
1F
100
AcDbEntity
  8
1
  6
CONTINUOUS
370
50
 62
4
100
AcDbLine
 10
50.949959
 20
2.435147
 30
0.0
 11
50.926296
 21
2.450017
 31
0.0
  0
LINE
  5
50D
330
1F
100
AcDbEntity
  8
1
  6
CONTINUOUS
370
50
 62
4
100
AcDbLine
 10
44.25968599999999
 20
-1.972114
 30
0.0
 11
44.102234
 21
-1.87378
 31
0.0
  0
LINE
  5
50E
330
1F
100
AcDbEntity
  8
1
  6
CONTINUOUS
370
50
 62
4
100
AcDbLine
 10
50.793293
 20
2.564321
 30
0.0
 11
50.75773599999999
 21
2.58648
 31
0.0
  0
LINE
  5
50F
330
1F
100
AcDbEntity
  8
1
  6
CONTINUOUS
370
50
 62
4
100
AcDbLine
 10
50.974602
 20
2.420594
 30
0.0
 11
50.949959
 21
2.435147
 31
0.0
  0
LINE
  5
510
330
1F
100
AcDbEntity
  8
1
  6
CONTINUOUS
370
50
 62
4
100
AcDbLine
 10
51.0
 20
2.40631
 30
0.0
 11
50.974602
 21
2.420594
 31
0.0
  0
LINE
  5
511
330
1F
100
AcDbEntity
  8
1
  6
CONTINUOUS
370
50
 62
4
100
AcDbLine
 10
44.430206
 20
-2.056063
 30
0.0
 11
44.25968599999999
 21
-1.972114
 31
0.0
  0
LINE
  5
512
330
1F
100
AcDbEntity
  8
1
  6
CONTINUOUS
370
50
 62
4
100
AcDbLine
 10
48.114788
 20
-0.23275
 30
0.0
 11
47.668579
 21
-0.016501
 31
0.0
  0
LINE
  5
513
330
1F
100
AcDbEntity
  8
1
  6
CONTINUOUS
370
50
 62
4
100
AcDbLine
 10
47.640007
 20
-0.002762
 30
0.0
 11
47.6343
 21
0.0
 31
0.0
  0
LINE
  5
514
330
1F
100
AcDbEntity
  8
1
  6
CONTINUOUS
370
50
 62
4
100
AcDbLine
 10
48.165916
 20
0.315351
 30
0.0
 11
47.837746
 21
0.473594
 31
0.0
  0
LINE
  5
515
330
1F
100
AcDbEntity
  8
1
  6
CONTINUOUS
370
50
 62
4
100
AcDbLine
 10
47.662865
 20
-0.013752
 30
0.0
 11
47.657154
 21
-0.011004
 31
0.0
  0
LINE
  5
516
330
1F
100
AcDbEntity
  8
1
  6
CONTINUOUS
370
50
 62
4
100
AcDbLine
 10
47.668579
 20
-0.016501
 30
0.0
 11
47.662865
 21
-0.013752
 31
0.0
  0
LINE
  5
517
330
1F
100
AcDbEntity
  8
1
  6
CONTINUOUS
370
50
 62
4
100
AcDbLine
 10
47.657154
 20
-0.011004
 30
0.0
 11
47.65144
 21
-0.008256
 31
0.0
  0
LINE
  5
518
330
1F
100
AcDbEntity
  8
1
  6
CONTINUOUS
370
50
 62
4
100
AcDbLine
 10
48.495556
 20
0.156823
 30
0.0
 11
48.165916
 21
0.315351
 31
0.0
  0
LINE
  5
519
330
1F
100
AcDbEntity
  8
1
  6
CONTINUOUS
370
50
 62
4
100
AcDbLine
 10
50.75773599999999
 20
2.58648
 30
0.0
 11
50.717308
 21
2.605922
 31
0.0
  0
LINE
  5
51A
330
1F
100
AcDbEntity
  8
1
  6
CONTINUOUS
370
50
 62
4
100
AcDbLine
 10
47.65144
 20
-0.008256
 30
0.0
 11
47.645725
 21
-0.005509
 31
0.0
  0
LINE
  5
51B
330
1F
100
AcDbEntity
  8
1
  6
CONTINUOUS
370
50
 62
4
100
AcDbLine
 10
47.645725
 20
-0.005509
 30
0.0
 11
47.640007
 21
-0.002762
 31
0.0
  0
LINE
  5
51C
330
1F
100
AcDbEntity
  8
1
  6
CONTINUOUS
370
50
 62
4
100
AcDbLine
 10
48.567509
 20
-0.450103
 30
0.0
 11
48.114788
 21
-0.23275
 31
0.0
  0
LINE
  5
51D
330
1F
100
AcDbEntity
  8
1
  6
CONTINUOUS
370
50
 62
4
100
AcDbLine
 10
47.837746
 20
0.473594
 30
0.0
 11
47.504414
 21
0.63202
 31
0.0
  0
LINE
  5
51E
330
1F
100
AcDbEntity
  8
1
  6
CONTINUOUS
370
50
 62
4
100
AcDbLine
 10
47.6343
 20
0.0
 30
0.0
 11
47.260983
 21
0.177356
 31
0.0
  0
LINE
  5
51F
330
1F
100
AcDbEntity
  8
1
  6
CONTINUOUS
370
50
 62
4
100
AcDbLine
 10
48.826355
 20
0.0
 30
0.0
 11
48.495556
 21
0.156823
 31
0.0
  0
LINE
  5
520
330
1F
100
AcDbEntity
  8
1
  6
CONTINUOUS
370
50
 62
4
100
AcDbLine
 10
49.064175
 20
-0.111235
 30
0.0
 11
48.826355
 21
0.0
 31
0.0
  0
LINE
  5
521
330
1F
100
AcDbEntity
  8
1
  6
CONTINUOUS
370
50
 62
4
100
AcDbLine
 10
47.260983
 20
0.177356
 30
0.0
 11
46.884464
 21
0.352547
 31
0.0
  0
LINE
  5
522
330
1F
100
AcDbEntity
  8
1
  6
CONTINUOUS
370
50
 62
4
100
AcDbLine
 10
49.04464
 20
-0.6711779999999999
 30
0.0
 11
48.567509
 21
-0.450103
 31
0.0
  0
LINE
  5
523
330
1F
100
AcDbEntity
  8
1
  6
CONTINUOUS
370
50
 62
4
100
AcDbLine
 10
49.302868
 20
-0.221609
 30
0.0
 11
49.064175
 21
-0.111235
 31
0.0
  0
LINE
  5
524
330
1F
100
AcDbEntity
  8
1
  6
CONTINUOUS
370
50
 62
4
100
AcDbLine
 10
47.504414
 20
0.63202
 30
0.0
 11
47.157433
 21
0.792248
 31
0.0
  0
LINE
  5
525
330
1F
100
AcDbEntity
  8
1
  6
CONTINUOUS
370
50
 62
4
100
AcDbLine
 10
49.54216
 20
-0.331024
 30
0.0
 11
49.302868
 21
-0.221609
 31
0.0
  0
LINE
  5
526
330
1F
100
AcDbEntity
  8
1
  6
CONTINUOUS
370
50
 62
4
100
AcDbLine
 10
46.884464
 20
0.352547
 30
0.0
 11
46.506054
 21
0.5251589999999999
 31
0.0
  0
LINE
  5
527
330
1F
100
AcDbEntity
  8
1
  6
CONTINUOUS
370
50
 62
4
100
AcDbLine
 10
49.781792
 20
-0.439383
 30
0.0
 11
49.54216
 21
-0.331024
 31
0.0
  0
LINE
  5
528
330
1F
100
AcDbEntity
  8
1
  6
CONTINUOUS
370
50
 62
4
100
AcDbLine
 10
46.506054
 20
0.5251589999999999
 30
0.0
 11
46.127075
 21
0.6947949999999999
 31
0.0
  0
LINE
  5
529
330
1F
100
AcDbEntity
  8
1
  6
CONTINUOUS
370
50
 62
4
100
AcDbLine
 10
50.021488
 20
-0.546588
 30
0.0
 11
49.781792
 21
-0.439383
 31
0.0
  0
LINE
  5
52A
330
1F
100
AcDbEntity
  8
1
  6
CONTINUOUS
370
50
 62
4
100
AcDbLine
 10
47.157433
 20
0.792248
 30
0.0
 11
46.79908
 21
0.952102
 31
0.0
  0
LINE
  5
52B
330
1F
100
AcDbEntity
  8
1
  6
CONTINUOUS
370
50
 62
4
100
AcDbLine
 10
49.529091
 20
-0.8872359999999999
 30
0.0
 11
49.04464
 21
-0.6711779999999999
 31
0.0
  0
LINE
  5
52C
330
1F
100
AcDbEntity
  8
1
  6
CONTINUOUS
370
50
 62
4
100
AcDbLine
 10
50.260979
 20
-0.652542
 30
0.0
 11
50.021488
 21
-0.546588
 31
0.0
  0
LINE
  5
52D
330
1F
100
AcDbEntity
  8
1
  6
CONTINUOUS
370
50
 62
4
100
AcDbLine
 10
46.127075
 20
0.6947949999999999
 30
0.0
 11
45.748859
 21
0.861057
 31
0.0
  0
LINE
  5
52E
330
1F
100
AcDbEntity
  8
1
  6
CONTINUOUS
370
50
 62
4
100
AcDbLine
 10
50.5
 20
-0.7571479999999999
 30
0.0
 11
50.260979
 21
-0.652542
 31
0.0
  0
LINE
  5
52F
330
1F
100
AcDbEntity
  8
1
  6
CONTINUOUS
370
50
 62
4
100
AcDbLine
 10
46.79908
 20
0.952102
 30
0.0
 11
46.43956
 21
1.107564
 31
0.0
  0
LINE
  5
530
330
1F
100
AcDbEntity
  8
1
  6
CONTINUOUS
370
50
 62
4
100
AcDbLine
 10
45.748859
 20
0.861057
 30
0.0
 11
45.372726
 21
1.023546
 31
0.0
  0
LINE
  5
531
330
1F
100
AcDbEntity
  8
1
  6
CONTINUOUS
370
50
 62
4
100
AcDbLine
 10
50.014893
 20
-1.095989
 30
0.0
 11
49.529091
 21
-0.8872359999999999
 31
0.0
  0
LINE
  5
532
330
1F
100
AcDbEntity
  8
1
  6
CONTINUOUS
370
50
 62
4
100
AcDbLine
 10
45.372726
 20
1.023546
 30
0.0
 11
45.0
 21
1.181865
 31
0.0
  0
LINE
  5
533
330
1F
100
AcDbEntity
  8
1
  6
CONTINUOUS
370
50
 62
4
100
AcDbLine
 10
46.43956
 20
1.107564
 30
0.0
 11
46.07999
 21
1.258378
 31
0.0
  0
LINE
  5
534
330
1F
100
AcDbEntity
  8
1
  6
CONTINUOUS
370
50
 62
4
100
AcDbLine
 10
50.5
 20
-1.296767
 30
0.0
 11
50.014893
 21
-1.095989
 31
0.0
  0
LINE
  5
535
330
1F
100
AcDbEntity
  8
1
  6
CONTINUOUS
370
50
 62
4
100
AcDbLine
 10
46.07999
 20
1.258378
 30
0.0
 11
45.720116
 21
1.404878
 31
0.0
  0
LINE
  5
536
330
1F
100
AcDbEntity
  8
1
  6
CONTINUOUS
370
50
 62
4
100
AcDbLine
 10
47.668606
 20
-0.016529
 30
0.0
 11
47.223843
 21
0.160581
 31
0.0
  0
LINE
  5
537
330
1F
100
AcDbEntity
  8
1
  6
CONTINUOUS
370
50
 62
4
100
AcDbLine
 10
45.720116
 20
1.404878
 30
0.0
 11
45.35968
 21
1.547394
 31
0.0
  0
LINE
  5
538
330
1F
100
AcDbEntity
  8
1
  6
CONTINUOUS
370
50
 62
4
100
AcDbLine
 10
44.61269
 20
-2.127521
 30
0.0
 11
44.430206
 21
-2.056063
 31
0.0
  0
LINE
  5
539
330
1F
100
AcDbEntity
  8
1
  6
CONTINUOUS
370
50
 62
4
100
AcDbLine
 10
47.223843
 20
0.160581
 30
0.0
 11
46.779079
 21
0.333355
 31
0.0
  0
LINE
  5
53A
330
1F
100
AcDbEntity
  8
1
  6
CONTINUOUS
370
50
 62
4
100
AcDbLine
 10
45.35968
 20
1.547394
 30
0.0
 11
45.0
 21
1.685585
 31
0.0
  0
LINE
  5
53B
330
1F
100
AcDbEntity
  8
1
  6
CONTINUOUS
370
50
 62
4
100
AcDbLine
 10
50.64498099999999
 20
-2.307702
 30
0.0
 11
50.625614
 21
-2.300329
 31
0.0
  0
LINE
  5
53C
330
1F
100
AcDbEntity
  8
1
  6
CONTINUOUS
370
50
 62
4
100
AcDbLine
 10
46.779079
 20
0.333355
 30
0.0
 11
46.334312
 21
0.50197
 31
0.0
  0
LINE
  5
53D
330
1F
100
AcDbEntity
  8
1
  6
CONTINUOUS
370
50
 62
4
100
AcDbLine
 10
46.334312
 20
0.50197
 30
0.0
 11
45.889545
 21
0.6667959999999999
 31
0.0
  0
LINE
  5
53E
330
1F
100
AcDbEntity
  8
1
  6
CONTINUOUS
370
50
 62
4
100
AcDbLine
 10
50.717308
 20
2.605922
 30
0.0
 11
50.670265
 21
2.62324
 31
0.0
  0
LINE
  5
53F
330
1F
100
AcDbEntity
  8
1
  6
CONTINUOUS
370
50
 62
4
100
AcDbLine
 10
45.889545
 20
0.6667959999999999
 30
0.0
 11
45.444775
 21
0.828217
 31
0.0
  0
LINE
  5
540
330
1F
100
AcDbEntity
  8
1
  6
CONTINUOUS
370
50
 62
4
100
AcDbLine
 10
45.444775
 20
0.828217
 30
0.0
 11
45.0
 21
0.9864999999999999
 31
0.0
  0
LINE
  5
541
330
1F
100
AcDbEntity
  8
1
  6
CONTINUOUS
370
50
 62
4
100
AcDbLine
 10
44.344048
 20
2.28831
 30
0.0
 11
44.200058
 21
2.337063
 31
0.0
  0
LINE
  5
542
330
1F
100
AcDbEntity
  8
1
  6
CONTINUOUS
370
50
 62
4
100
AcDbLine
 10
44.200058
 20
2.337063
 30
0.0
 11
44.065903
 21
2.382417
 31
0.0
  0
LINE
  5
543
330
1F
100
AcDbEntity
  8
1
  6
CONTINUOUS
370
50
 62
4
100
AcDbLine
 10
44.498173
 20
2.237368
 30
0.0
 11
44.344048
 21
2.28831
 31
0.0
  0
LINE
  5
544
330
1F
100
AcDbEntity
  8
1
  6
CONTINUOUS
370
50
 62
4
100
AcDbLine
 10
44.065903
 20
2.382417
 30
0.0
 11
43.941196
 21
2.423174
 31
0.0
  0
LINE
  5
545
330
1F
100
AcDbEntity
  8
1
  6
CONTINUOUS
370
50
 62
4
100
AcDbLine
 10
44.660072
 20
2.185786
 30
0.0
 11
44.498173
 21
2.237368
 31
0.0
  0
LINE
  5
546
330
1F
100
AcDbEntity
  8
1
  6
CONTINUOUS
370
50
 62
4
100
AcDbLine
 10
44.803207
 20
-2.18746
 30
0.0
 11
44.61269
 21
-2.127521
 31
0.0
  0
LINE
  5
547
330
1F
100
AcDbEntity
  8
1
  6
CONTINUOUS
370
50
 62
4
100
AcDbLine
 10
44.08672
 20
2.377469
 30
0.0
 11
43.941196
 21
2.423174
 31
0.0
  0
LINE
  5
548
330
1F
100
AcDbEntity
  8
1
  6
CONTINUOUS
370
50
 62
4
100
AcDbLine
 10
44.232544
 20
2.332358
 30
0.0
 11
44.08672
 21
2.377469
 31
0.0
  0
LINE
  5
549
330
1F
100
AcDbEntity
  8
1
  6
CONTINUOUS
370
50
 62
4
100
AcDbLine
 10
43.941196
 20
2.423174
 30
0.0
 11
43.868279
 21
2.445487
 31
0.0
  0
LINE
  5
54A
330
1F
100
AcDbEntity
  8
1
  6
CONTINUOUS
370
50
 62
4
100
AcDbLine
 10
44.827728
 20
2.134496
 30
0.0
 11
44.660072
 21
2.185786
 31
0.0
  0
LINE
  5
54B
330
1F
100
AcDbEntity
  8
1
  6
CONTINUOUS
370
50
 62
4
100
AcDbLine
 10
44.378662
 20
2.287842
 30
0.0
 11
44.232544
 21
2.332358
 31
0.0
  0
LINE
  5
54C
330
1F
100
AcDbEntity
  8
1
  6
CONTINUOUS
370
50
 62
4
100
AcDbLine
 10
44.558544
 20
2.234143
 30
0.0
 11
44.378662
 21
2.287842
 31
0.0
  0
LINE
  5
54D
330
1F
100
AcDbEntity
  8
1
  6
CONTINUOUS
370
50
 62
4
100
AcDbLine
 10
45.0
 20
2.083976
 30
0.0
 11
44.827728
 21
2.134496
 31
0.0
  0
LINE
  5
54E
330
1F
100
AcDbEntity
  8
1
  6
CONTINUOUS
370
50
 62
4
100
AcDbLine
 10
44.778992
 20
2.169543
 30
0.0
 11
44.558544
 21
2.234143
 31
0.0
  0
LINE
  5
54F
330
1F
100
AcDbEntity
  8
1
  6
CONTINUOUS
370
50
 62
4
100
AcDbLine
 10
45.0
 20
2.106135
 30
0.0
 11
44.778992
 21
2.169543
 31
0.0
  0
LINE
  5
550
330
1F
100
AcDbEntity
  8
1
  6
CONTINUOUS
370
50
 62
4
100
AcDbLine
 10
43.868279
 20
2.445487
 30
0.0
 11
43.800205
 21
2.464437
 31
0.0
  0
LINE
  5
551
330
1F
100
AcDbEntity
  8
1
  6
CONTINUOUS
370
50
 62
4
100
AcDbLine
 10
50.670265
 20
2.62324
 30
0.0
 11
50.615582
 21
2.638447
 31
0.0
  0
LINE
  5
552
330
1F
100
AcDbEntity
  8
1
  6
CONTINUOUS
370
50
 62
4
100
AcDbLine
 10
45.0
 20
-2.237854
 30
0.0
 11
44.803207
 21
-2.18746
 31
0.0
  0
LINE
  5
553
330
1F
100
AcDbEntity
  8
1
  6
CONTINUOUS
370
50
 62
4
100
AcDbLine
 10
45.558502
 20
-0.61518
 30
0.0
 11
45.0
 21
-0.479309
 31
0.0
  0
LINE
  5
554
330
1F
100
AcDbEntity
  8
1
  6
CONTINUOUS
370
50
 62
4
100
AcDbLine
 10
43.800205
 20
2.464437
 30
0.0
 11
43.73658
 21
2.479689
 31
0.0
  0
LINE
  5
555
330
1F
100
AcDbEntity
  8
1
  6
CONTINUOUS
370
50
 62
4
100
AcDbLine
 10
45.733215
 20
-0.6916899999999999
 30
0.0
 11
45.0
 21
-0.517946
 31
0.0
  0
LINE
  5
556
330
1F
100
AcDbEntity
  8
1
  6
CONTINUOUS
370
50
 62
4
100
AcDbLine
 10
46.11696999999999
 20
-0.7465689999999999
 30
0.0
 11
45.558502
 21
-0.61518
 31
0.0
  0
LINE
  5
557
330
1F
100
AcDbEntity
  8
1
  6
CONTINUOUS
370
50
 62
4
100
AcDbLine
 10
46.675396
 20
-0.8734149999999999
 30
0.0
 11
46.11696999999999
 21
-0.7465689999999999
 31
0.0
  0
LINE
  5
558
330
1F
100
AcDbEntity
  8
1
  6
CONTINUOUS
370
50
 62
4
100
AcDbLine
 10
46.483376
 20
-0.8606579999999999
 30
0.0
 11
45.733215
 21
-0.6916899999999999
 31
0.0
  0
LINE
  5
559
330
1F
100
AcDbEntity
  8
1
  6
CONTINUOUS
370
50
 62
4
100
AcDbLine
 10
47.23381
 20
-0.995776
 30
0.0
 11
46.675396
 21
-0.8734149999999999
 31
0.0
  0
LINE
  5
55A
330
1F
100
AcDbEntity
  8
1
  6
CONTINUOUS
370
50
 62
4
100
AcDbLine
 10
47.232048
 20
-1.022762
 30
0.0
 11
46.483376
 21
-0.8606579999999999
 31
0.0
  0
LINE
  5
55B
330
1F
100
AcDbEntity
  8
1
  6
CONTINUOUS
370
50
 62
4
100
AcDbLine
 10
47.79222499999999
 20
-1.113705
 30
0.0
 11
47.23381
 21
-0.995776
 31
0.0
  0
LINE
  5
55C
330
1F
100
AcDbEntity
  8
1
  6
CONTINUOUS
370
50
 62
4
100
AcDbLine
 10
47.94806699999999
 20
-1.173288
 30
0.0
 11
47.232048
 21
-1.022762
 31
0.0
  0
LINE
  5
55D
330
1F
100
AcDbEntity
  8
1
  6
CONTINUOUS
370
50
 62
4
100
AcDbLine
 10
50.615582
 20
2.638447
 30
0.0
 11
50.552326
 21
2.651512
 31
0.0
  0
LINE
  5
55E
330
1F
100
AcDbEntity
  8
1
  6
CONTINUOUS
370
50
 62
4
100
AcDbLine
 10
48.35067
 20
-1.225428
 30
0.0
 11
47.79222499999999
 21
-1.113705
 31
0.0
  0
LINE
  5
55F
330
1F
100
AcDbEntity
  8
1
  6
CONTINUOUS
370
50
 62
4
100
AcDbLine
 10
48.63329299999999
 20
-1.304297
 30
0.0
 11
47.94806699999999
 21
-1.173288
 31
0.0
  0
LINE
  5
560
330
1F
100
AcDbEntity
  8
1
  6
CONTINUOUS
370
50
 62
4
100
AcDbLine
 10
43.73658
 20
2.479689
 30
0.0
 11
43.676994
 21
2.490912
 31
0.0
  0
LINE
  5
561
330
1F
100
AcDbEntity
  8
1
  6
CONTINUOUS
370
50
 62
4
100
AcDbLine
 10
48.909172
 20
-1.324474
 30
0.0
 11
48.35067
 21
-1.225428
 31
0.0
  0
LINE
  5
562
330
1F
100
AcDbEntity
  8
1
  6
CONTINUOUS
370
50
 62
4
100
AcDbLine
 10
45.068405
 20
2.107399
 30
0.0
 11
45.0
 21
2.118638
 31
0.0
  0
LINE
  5
563
330
1F
100
AcDbEntity
  8
1
  6
CONTINUOUS
370
50
 62
4
100
AcDbLine
 10
45.179718
 20
2.089238
 30
0.0
 11
45.068405
 21
2.107399
 31
0.0
  0
LINE
  5
564
330
1F
100
AcDbEntity
  8
1
  6
CONTINUOUS
370
50
 62
4
100
AcDbLine
 10
45.291031
 20
2.071231
 30
0.0
 11
45.179718
 21
2.089238
 31
0.0
  0
LINE
  5
565
330
1F
100
AcDbEntity
  8
1
  6
CONTINUOUS
370
50
 62
4
100
AcDbLine
 10
45.402348
 20
2.053376
 30
0.0
 11
45.291031
 21
2.071231
 31
0.0
  0
LINE
  5
566
330
1F
100
AcDbEntity
  8
1
  6
CONTINUOUS
370
50
 62
4
100
AcDbLine
 10
45.513664
 20
2.035669
 30
0.0
 11
45.402348
 21
2.053376
 31
0.0
  0
LINE
  5
567
330
1F
100
AcDbEntity
  8
1
  6
CONTINUOUS
370
50
 62
4
100
AcDbLine
 10
49.314217
 20
-1.412561
 30
0.0
 11
48.63329299999999
 21
-1.304297
 31
0.0
  0
LINE
  5
568
330
1F
100
AcDbEntity
  8
1
  6
CONTINUOUS
370
50
 62
4
100
AcDbLine
 10
45.624996
 20
2.018104
 30
0.0
 11
45.513664
 21
2.035669
 31
0.0
  0
LINE
  5
569
330
1F
100
AcDbEntity
  8
1
  6
CONTINUOUS
370
50
 62
4
100
AcDbLine
 10
45.736328
 20
2.000679
 30
0.0
 11
45.624996
 21
2.018104
 31
0.0
  0
LINE
  5
56A
330
1F
100
AcDbEntity
  8
1
  6
CONTINUOUS
370
50
 62
4
100
AcDbLine
 10
45.84766399999999
 20
1.983392
 30
0.0
 11
45.736328
 21
2.000679
 31
0.0
  0
LINE
  5
56B
330
1F
100
AcDbEntity
  8
1
  6
CONTINUOUS
370
50
 62
4
100
AcDbLine
 10
49.467709
 20
-1.410865
 30
0.0
 11
48.909172
 21
-1.324474
 31
0.0
  0
LINE
  5
56C
330
1F
100
AcDbEntity
  8
1
  6
CONTINUOUS
370
50
 62
4
100
AcDbLine
 10
45.959
 20
1.966239
 30
0.0
 11
45.84766399999999
 21
1.983392
 31
0.0
  0
LINE
  5
56D
330
1F
100
AcDbEntity
  8
1
  6
CONTINUOUS
370
50
 62
4
100
AcDbLine
 10
46.070896
 20
1.949132
 30
0.0
 11
45.959
 21
1.966239
 31
0.0
  0
LINE
  5
56E
330
1F
100
AcDbEntity
  8
1
  6
CONTINUOUS
370
50
 62
4
100
AcDbLine
 10
46.176807
 20
1.933059
 30
0.0
 11
46.070896
 21
1.949132
 31
0.0
  0
LINE
  5
56F
330
1F
100
AcDbEntity
  8
1
  6
CONTINUOUS
370
50
 62
4
100
AcDbLine
 10
46.282722
 20
1.917099
 30
0.0
 11
46.176807
 21
1.933059
 31
0.0
  0
LINE
  5
570
330
1F
100
AcDbEntity
  8
1
  6
CONTINUOUS
370
50
 62
4
100
AcDbLine
 10
50.58615899999999
 20
1.349653
 30
0.0
 11
50.332928
 21
1.387748
 31
0.0
  0
LINE
  5
571
330
1F
100
AcDbEntity
  8
1
  6
CONTINUOUS
370
50
 62
4
100
AcDbLine
 10
50.552326
 20
2.651512
 30
0.0
 11
50.479565
 21
2.662406
 31
0.0
  0
LINE
  5
572
330
1F
100
AcDbEntity
  8
1
  6
CONTINUOUS
370
50
 62
4
100
AcDbLine
 10
46.388638
 20
1.901251
 30
0.0
 11
46.282722
 21
1.917099
 31
0.0
  0
LINE
  5
573
330
1F
100
AcDbEntity
  8
1
  6
CONTINUOUS
370
50
 62
4
100
AcDbLine
 10
50.584808
 20
1.372421
 30
0.0
 11
50.526573
 21
1.381091
 31
0.0
  0
LINE
  5
574
330
1F
100
AcDbEntity
  8
1
  6
CONTINUOUS
370
50
 62
4
100
AcDbLine
 10
46.494553
 20
1.885513
 30
0.0
 11
46.388638
 21
1.901251
 31
0.0
  0
LINE
  5
575
330
1F
100
AcDbEntity
  8
1
  6
CONTINUOUS
370
50
 62
4
100
AcDbLine
 10
46.600449
 20
1.869885
 30
0.0
 11
46.494553
 21
1.885513
 31
0.0
  0
LINE
  5
576
330
1F
100
AcDbEntity
  8
1
  6
CONTINUOUS
370
50
 62
4
100
AcDbLine
 10
50.526573
 20
1.381091
 30
0.0
 11
50.468338
 21
1.389671
 31
0.0
  0
LINE
  5
577
330
1F
100
AcDbEntity
  8
1
  6
CONTINUOUS
370
50
 62
4
100
AcDbLine
 10
46.706348
 20
1.854364
 30
0.0
 11
46.600449
 21
1.869885
 31
0.0
  0
LINE
  5
578
330
1F
100
AcDbEntity
  8
1
  6
CONTINUOUS
370
50
 62
4
100
AcDbLine
 10
50.468338
 20
1.389671
 30
0.0
 11
50.410099
 21
1.398151
 31
0.0
  0
LINE
  5
579
330
1F
100
AcDbEntity
  8
1
  6
CONTINUOUS
370
50
 62
4
100
AcDbLine
 10
46.812248
 20
1.838948
 30
0.0
 11
46.706348
 21
1.854364
 31
0.0
  0
LINE
  5
57A
330
1F
100
AcDbEntity
  8
1
  6
CONTINUOUS
370
50
 62
4
100
AcDbLine
 10
46.918148
 20
1.823637
 30
0.0
 11
46.812248
 21
1.838948
 31
0.0
  0
LINE
  5
57B
330
1F
100
AcDbEntity
  8
1
  6
CONTINUOUS
370
50
 62
4
100
AcDbLine
 10
50.410099
 20
1.398151
 30
0.0
 11
50.351864
 21
1.406529
 31
0.0
  0
LINE
  5
57C
330
1F
100
AcDbEntity
  8
1
  6
CONTINUOUS
370
50
 62
4
100
AcDbLine
 10
46.991661
 20
1.813069
 30
0.0
 11
46.918148
 21
1.823637
 31
0.0
  0
LINE
  5
57D
330
1F
100
AcDbEntity
  8
1
  6
CONTINUOUS
370
50
 62
4
100
AcDbLine
 10
47.065174
 20
1.802552
 30
0.0
 11
46.991661
 21
1.813069
 31
0.0
  0
LINE
  5
57E
330
1F
100
AcDbEntity
  8
1
  6
CONTINUOUS
370
50
 62
4
100
AcDbLine
 10
47.166733
 20
1.788105
 30
0.0
 11
47.065174
 21
1.802552
 31
0.0
  0
LINE
  5
57F
330
1F
100
AcDbEntity
  8
1
  6
CONTINUOUS
370
50
 62
4
100
AcDbLine
 10
50.351864
 20
1.406529
 30
0.0
 11
50.293629
 21
1.414806
 31
0.0
  0
LINE
  5
580
330
1F
100
AcDbEntity
  8
1
  6
CONTINUOUS
370
50
 62
4
100
AcDbLine
 10
50.332928
 20
1.387748
 30
0.0
 11
50.072052
 21
1.424646
 31
0.0
  0
LINE
  5
581
330
1F
100
AcDbEntity
  8
1
  6
CONTINUOUS
370
50
 62
4
100
AcDbLine
 10
47.268288
 20
1.773754
 30
0.0
 11
47.166733
 21
1.788105
 31
0.0
  0
LINE
  5
582
330
1F
100
AcDbEntity
  8
1
  6
CONTINUOUS
370
50
 62
4
100
AcDbLine
 10
50.293629
 20
1.414806
 30
0.0
 11
50.235394
 21
1.422982
 31
0.0
  0
LINE
  5
583
330
1F
100
AcDbEntity
  8
1
  6
CONTINUOUS
370
50
 62
4
100
AcDbLine
 10
47.369827
 20
1.759503
 30
0.0
 11
47.268288
 21
1.773754
 31
0.0
  0
LINE
  5
584
330
1F
100
AcDbEntity
  8
1
  6
CONTINUOUS
370
50
 62
4
100
AcDbLine
 10
47.471363
 20
1.745351
 30
0.0
 11
47.369827
 21
1.759503
 31
0.0
  0
LINE
  5
585
330
1F
100
AcDbEntity
  8
1
  6
CONTINUOUS
370
50
 62
4
100
AcDbLine
 10
47.572876
 20
1.731301
 30
0.0
 11
47.471363
 21
1.745351
 31
0.0
  0
LINE
  5
586
330
1F
100
AcDbEntity
  8
1
  6
CONTINUOUS
370
50
 62
4
100
AcDbLine
 10
47.674385
 20
1.717354
 30
0.0
 11
47.572876
 21
1.731301
 31
0.0
  0
LINE
  5
587
330
1F
100
AcDbEntity
  8
1
  6
CONTINUOUS
370
50
 62
4
100
AcDbLine
 10
47.775867
 20
1.703514
 30
0.0
 11
47.674385
 21
1.717354
 31
0.0
  0
LINE
  5
588
330
1F
100
AcDbEntity
  8
1
  6
CONTINUOUS
370
50
 62
4
100
AcDbLine
 10
47.87735
 20
1.68978
 30
0.0
 11
47.775867
 21
1.703514
 31
0.0
  0
LINE
  5
589
330
1F
100
AcDbEntity
  8
1
  6
CONTINUOUS
370
50
 62
4
100
AcDbLine
 10
50.235394
 20
1.422982
 30
0.0
 11
49.943382
 21
1.462444
 31
0.0
  0
LINE
  5
58A
330
1F
100
AcDbEntity
  8
1
  6
CONTINUOUS
370
50
 62
4
100
AcDbLine
 10
47.950783
 20
1.679911
 30
0.0
 11
47.87735
 21
1.68978
 31
0.0
  0
LINE
  5
58B
330
1F
100
AcDbEntity
  8
1
  6
CONTINUOUS
370
50
 62
4
100
AcDbLine
 10
50.072052
 20
1.424646
 30
0.0
 11
49.804398
 21
1.460468
 31
0.0
  0
LINE
  5
58C
330
1F
100
AcDbEntity
  8
1
  6
CONTINUOUS
370
50
 62
4
100
AcDbLine
 10
48.024216
 20
1.670107
 30
0.0
 11
47.950783
 21
1.679911
 31
0.0
  0
LINE
  5
58D
330
1F
100
AcDbEntity
  8
1
  6
CONTINUOUS
370
50
 62
4
100
AcDbLine
 10
50.026264
 20
-1.485277
 30
0.0
 11
49.467709
 21
-1.410865
 31
0.0
  0
LINE
  5
58E
330
1F
100
AcDbEntity
  8
1
  6
CONTINUOUS
370
50
 62
4
100
AcDbLine
 10
48.12571
 20
1.656793
 30
0.0
 11
48.024216
 21
1.670107
 31
0.0
  0
LINE
  5
58F
330
1F
100
AcDbEntity
  8
1
  6
CONTINUOUS
370
50
 62
4
100
AcDbLine
 10
49.968719
 20
-1.498155
 30
0.0
 11
49.314217
 21
-1.412561
 31
0.0
  0
LINE
  5
590
330
1F
100
AcDbEntity
  8
1
  6
CONTINUOUS
370
50
 62
4
100
AcDbLine
 10
48.2272
 20
1.643792
 30
0.0
 11
48.12571
 21
1.656793
 31
0.0
  0
LINE
  5
591
330
1F
100
AcDbEntity
  8
1
  6
CONTINUOUS
370
50
 62
4
100
AcDbLine
 10
49.943382
 20
1.462444
 30
0.0
 11
49.651371
 21
1.499255
 31
0.0
  0
LINE
  5
592
330
1F
100
AcDbEntity
  8
1
  6
CONTINUOUS
370
50
 62
4
100
AcDbLine
 10
49.804398
 20
1.460468
 30
0.0
 11
49.530735
 21
1.494914
 31
0.0
  0
LINE
  5
593
330
1F
100
AcDbEntity
  8
1
  6
CONTINUOUS
370
50
 62
4
100
AcDbLine
 10
48.328712
 20
1.631098
 30
0.0
 11
48.2272
 21
1.643792
 31
0.0
  0
LINE
  5
594
330
1F
100
AcDbEntity
  8
1
  6
CONTINUOUS
370
50
 62
4
100
AcDbLine
 10
43.676994
 20
2.490912
 30
0.0
 11
43.62104799999999
 21
2.497774
 31
0.0
  0
LINE
  5
595
330
1F
100
AcDbEntity
  8
1
  6
CONTINUOUS
370
50
 62
4
100
AcDbLine
 10
48.430218
 20
1.618713
 30
0.0
 11
48.328712
 21
1.631098
 31
0.0
  0
LINE
  5
596
330
1F
100
AcDbEntity
  8
1
  6
CONTINUOUS
370
50
 62
4
100
AcDbLine
 10
48.53175
 20
1.606632
 30
0.0
 11
48.430218
 21
1.618713
 31
0.0
  0
LINE
  5
597
330
1F
100
AcDbEntity
  8
1
  6
CONTINUOUS
370
50
 62
4
100
AcDbLine
 10
49.530735
 20
1.494914
 30
0.0
 11
49.251846
 21
1.527685
 31
0.0
  0
LINE
  5
598
330
1F
100
AcDbEntity
  8
1
  6
CONTINUOUS
370
50
 62
4
100
AcDbLine
 10
49.651371
 20
1.499255
 30
0.0
 11
49.35936
 21
1.533291
 31
0.0
  0
LINE
  5
599
330
1F
100
AcDbEntity
  8
1
  6
CONTINUOUS
370
50
 62
4
100
AcDbLine
 10
48.633278
 20
1.594854
 30
0.0
 11
48.53175
 21
1.606632
 31
0.0
  0
LINE
  5
59A
330
1F
100
AcDbEntity
  8
1
  6
CONTINUOUS
370
50
 62
4
100
AcDbLine
 10
48.73483299999999
 20
1.583374
 30
0.0
 11
48.633278
 21
1.594854
 31
0.0
  0
LINE
  5
59B
330
1F
100
AcDbEntity
  8
1
  6
CONTINUOUS
370
50
 62
4
100
AcDbLine
 10
50.584808
 20
-1.548226
 30
0.0
 11
50.026264
 21
-1.485277
 31
0.0
  0
LINE
  5
59C
330
1F
100
AcDbEntity
  8
1
  6
CONTINUOUS
370
50
 62
4
100
AcDbLine
 10
48.836384
 20
1.572192
 30
0.0
 11
48.73483299999999
 21
1.583374
 31
0.0
  0
LINE
  5
59D
330
1F
100
AcDbEntity
  8
1
  6
CONTINUOUS
370
50
 62
4
100
AcDbLine
 10
49.251846
 20
1.527685
 30
0.0
 11
48.968494
 21
1.558482
 31
0.0
  0
LINE
  5
59E
330
1F
100
AcDbEntity
  8
1
  6
CONTINUOUS
370
50
 62
4
100
AcDbLine
 10
48.902428
 20
1.565078
 30
0.0
 11
48.836384
 21
1.572192
 31
0.0
  0
LINE
  5
59F
330
1F
100
AcDbEntity
  8
1
  6
CONTINUOUS
370
50
 62
4
100
AcDbLine
 10
49.35936
 20
1.533291
 30
0.0
 11
49.067356
 21
1.564432
 31
0.0
  0
LINE
  5
5A0
330
1F
100
AcDbEntity
  8
1
  6
CONTINUOUS
370
50
 62
4
100
AcDbLine
 10
50.58615899999999
 20
-1.563793
 30
0.0
 11
49.968719
 21
-1.498155
 31
0.0
  0
LINE
  5
5A1
330
1F
100
AcDbEntity
  8
1
  6
CONTINUOUS
370
50
 62
4
100
AcDbLine
 10
48.968475
 20
1.558089
 30
0.0
 11
48.902428
 21
1.565078
 31
0.0
  0
LINE
  5
5A2
330
1F
100
AcDbEntity
  8
1
  6
CONTINUOUS
370
50
 62
4
100
AcDbLine
 10
50.479565
 20
2.662406
 30
0.0
 11
50.399292
 21
2.670838
 31
0.0
  0
LINE
  5
5A3
330
1F
100
AcDbEntity
  8
1
  6
CONTINUOUS
370
50
 62
4
100
AcDbLine
 10
49.067356
 20
1.564432
 30
0.0
 11
48.77536
 21
1.592553
 31
0.0
  0
LINE
  5
5A4
330
1F
100
AcDbEntity
  8
1
  6
CONTINUOUS
370
50
 62
4
100
AcDbLine
 10
48.77536
 20
1.592553
 30
0.0
 11
48.483376
 21
1.617535
 31
0.0
  0
LINE
  5
5A5
330
1F
100
AcDbEntity
  8
1
  6
CONTINUOUS
370
50
 62
4
100
AcDbLine
 10
49.943928
 20
1.477647
 30
0.0
 11
49.82633999999999
 21
1.486486
 31
0.0
  0
LINE
  5
5A6
330
1F
100
AcDbEntity
  8
1
  6
CONTINUOUS
370
50
 62
4
100
AcDbLine
 10
50.399292
 20
2.670838
 30
0.0
 11
50.31646
 21
2.676718
 31
0.0
  0
LINE
  5
5A7
330
1F
100
AcDbEntity
  8
1
  6
CONTINUOUS
370
50
 62
4
100
AcDbLine
 10
50.060726
 20
1.470044
 30
0.0
 11
49.943928
 21
1.477647
 31
0.0
  0
LINE
  5
5A8
330
1F
100
AcDbEntity
  8
1
  6
CONTINUOUS
370
50
 62
4
100
AcDbLine
 10
50.176392
 20
1.462854
 30
0.0
 11
50.060726
 21
1.470044
 31
0.0
  0
LINE
  5
5A9
330
1F
100
AcDbEntity
  8
1
  6
CONTINUOUS
370
50
 62
4
100
AcDbLine
 10
50.2906
 20
1.456068
 30
0.0
 11
50.176392
 21
1.462854
 31
0.0
  0
LINE
  5
5AA
330
1F
100
AcDbEntity
  8
1
  6
CONTINUOUS
370
50
 62
4
100
AcDbLine
 10
50.403038
 20
1.449677
 30
0.0
 11
50.2906
 21
1.456068
 31
0.0
  0
LINE
  5
5AB
330
1F
100
AcDbEntity
  8
1
  6
CONTINUOUS
370
50
 62
4
100
AcDbLine
 10
50.513382
 20
1.443673
 30
0.0
 11
50.403038
 21
1.449677
 31
0.0
  0
LINE
  5
5AC
330
1F
100
AcDbEntity
  8
1
  6
CONTINUOUS
370
50
 62
4
100
AcDbLine
 10
50.621326
 20
1.438646
 30
0.0
 11
50.513382
 21
1.443673
 31
0.0
  0
LINE
  5
5AD
330
1F
100
AcDbEntity
  8
1
  6
CONTINUOUS
370
50
 62
4
100
AcDbLine
 10
50.456989
 20
-1.278957
 30
0.0
 11
50.355152
 21
-1.274367
 31
0.0
  0
LINE
  5
5AE
330
1F
100
AcDbEntity
  8
1
  6
CONTINUOUS
370
50
 62
4
100
AcDbLine
 10
50.31646
 20
2.676718
 30
0.0
 11
50.23351299999999
 21
2.680456
 31
0.0
  0
LINE
  5
5AF
330
1F
100
AcDbEntity
  8
1
  6
CONTINUOUS
370
50
 62
4
100
AcDbLine
 10
50.355152
 20
-1.274367
 30
0.0
 11
50.251678
 21
-1.269921
 31
0.0
  0
LINE
  5
5B0
330
1F
100
AcDbEntity
  8
1
  6
CONTINUOUS
370
50
 62
4
100
AcDbLine
 10
43.62104799999999
 20
2.497774
 30
0.0
 11
43.56839799999999
 21
2.499939
 31
0.0
  0
LINE
  5
5B1
330
1F
100
AcDbEntity
  8
1
  6
CONTINUOUS
370
50
 62
4
100
AcDbLine
 10
50.251678
 20
-1.269921
 30
0.0
 11
50.146812
 21
-1.265647
 31
0.0
  0
LINE
  5
5B2
330
1F
100
AcDbEntity
  8
1
  6
CONTINUOUS
370
50
 62
4
100
AcDbLine
 10
50.146812
 20
-1.265647
 30
0.0
 11
50.040802
 21
-1.261575
 31
0.0
  0
LINE
  5
5B3
330
1F
100
AcDbEntity
  8
1
  6
CONTINUOUS
370
50
 62
4
100
AcDbLine
 10
50.040802
 20
-1.261575
 30
0.0
 11
49.933887
 21
-1.257736
 31
0.0
  0
LINE
  5
5B4
330
1F
100
AcDbEntity
  8
1
  6
CONTINUOUS
370
50
 62
4
100
AcDbLine
 10
45.10560599999999
 20
-2.995037
 30
0.0
 11
45.0
 21
-2.991898
 31
0.0
  0
LINE
  5
5B5
330
1F
100
AcDbEntity
  8
1
  6
CONTINUOUS
370
50
 62
4
100
AcDbLine
 10
49.933887
 20
-1.257736
 30
0.0
 11
49.82633999999999
 21
-1.25491
 31
0.0
  0
LINE
  5
5B6
330
1F
100
AcDbEntity
  8
1
  6
CONTINUOUS
370
50
 62
4
100
AcDbLine
 10
50.23351299999999
 20
2.680456
 30
0.0
 11
50.152885
 21
2.682463
 31
0.0
  0
LINE
  5
5B7
330
1F
100
AcDbEntity
  8
1
  6
CONTINUOUS
370
50
 62
4
100
AcDbLine
 10
45.211353
 20
-2.997398
 30
0.0
 11
45.10560599999999
 21
-2.995037
 31
0.0
  0
LINE
  5
5B8
330
1F
100
AcDbEntity
  8
1
  6
CONTINUOUS
370
50
 62
4
100
AcDbLine
 10
45.317215
 20
-2.998983
 30
0.0
 11
45.211353
 21
-2.997398
 31
0.0
  0
LINE
  5
5B9
330
1F
100
AcDbEntity
  8
1
  6
CONTINUOUS
370
50
 62
4
100
AcDbLine
 10
50.989147
 20
2.510848
 30
0.0
 11
50.966347
 21
2.511117
 31
0.0
  0
LINE
  5
5BA
330
1F
100
AcDbEntity
  8
1
  6
CONTINUOUS
370
50
 62
4
100
AcDbLine
 10
50.152885
 20
2.682463
 30
0.0
 11
50.073814
 21
2.683168
 31
0.0
  0
LINE
  5
5BB
330
1F
100
AcDbEntity
  8
1
  6
CONTINUOUS
370
50
 62
4
100
AcDbLine
 10
45.423153
 20
-2.999793
 30
0.0
 11
45.317215
 21
-2.998983
 31
0.0
  0
LINE
  5
5BC
330
1F
100
AcDbEntity
  8
1
  6
CONTINUOUS
370
50
 62
4
100
AcDbLine
 10
45.529137
 20
-2.999829
 30
0.0
 11
45.423153
 21
-2.999793
 31
0.0
  0
LINE
  5
5BD
330
1F
100
AcDbEntity
  8
1
  6
CONTINUOUS
370
50
 62
4
100
AcDbLine
 10
45.48098
 20
-2.999909
 30
0.0
 11
45.0
 21
-2.9999
 31
0.0
  0
LINE
  5
5BE
330
1F
100
AcDbEntity
  8
1
  6
CONTINUOUS
370
50
 62
4
100
AcDbLine
 10
39.0
 20
-2.49995
 30
0.0
 11
45.0
 21
-2.49995
 31
0.0
  0
LINE
  5
5BF
330
1F
100
AcDbEntity
  8
1
  6
CONTINUOUS
370
50
 62
4
100
AcDbLine
 10
39.0
 20
2.49995
 30
0.0
 11
43.571358
 21
2.49995
 31
0.0
  0
LINE
  5
5C0
330
1F
100
AcDbEntity
  8
1
  6
CONTINUOUS
370
50
 62
4
100
AcDbLine
 10
50.94354999999999
 20
2.511051
 30
0.0
 11
50.966347
 21
2.511117
 31
0.0
  0
LINE
  5
5C1
330
1F
100
AcDbEntity
  8
1
  6
CONTINUOUS
370
50
 62
4
100
AcDbLine
 10
50.64498099999999
 20
-2.307702
 30
0.0
 11
50.666374
 21
-2.307626
 31
0.0
  0
LINE
  5
5C2
330
1F
100
AcDbEntity
  8
1
  6
CONTINUOUS
370
50
 62
4
100
AcDbLine
 10
50.920753
 20
2.510955
 30
0.0
 11
50.94354999999999
 21
2.511051
 31
0.0
  0
LINE
  5
5C3
330
1F
100
AcDbEntity
  8
1
  6
CONTINUOUS
370
50
 62
4
100
AcDbLine
 10
49.993092
 20
2.682797
 30
0.0
 11
50.073814
 21
2.683168
 31
0.0
  0
LINE
  5
5C4
330
1F
100
AcDbEntity
  8
1
  6
CONTINUOUS
370
50
 62
4
100
AcDbLine
 10
50.897957
 20
2.510829
 30
0.0
 11
50.920753
 21
2.510955
 31
0.0
  0
LINE
  5
5C5
330
1F
100
AcDbEntity
  8
1
  6
CONTINUOUS
370
50
 62
4
100
AcDbLine
 10
50.87516
 20
2.510673
 30
0.0
 11
50.897957
 21
2.510829
 31
0.0
  0
LINE
  5
5C6
330
1F
100
AcDbEntity
  8
1
  6
CONTINUOUS
370
50
 62
4
100
AcDbLine
 10
45.529137
 20
-2.999829
 30
0.0
 11
45.635132
 21
-2.999093
 31
0.0
  0
LINE
  5
5C7
330
1F
100
AcDbEntity
  8
1
  6
CONTINUOUS
370
50
 62
4
100
AcDbLine
 10
49.911007
 20
2.681415
 30
0.0
 11
49.993092
 21
2.682797
 31
0.0
  0
LINE
  5
5C8
330
1F
100
AcDbEntity
  8
1
  6
CONTINUOUS
370
50
 62
4
100
AcDbLine
 10
50.85236399999999
 20
2.510233
 30
0.0
 11
50.87516
 21
2.510673
 31
0.0
  0
LINE
  5
5C9
330
1F
100
AcDbEntity
  8
1
  6
CONTINUOUS
370
50
 62
4
100
AcDbLine
 10
45.635132
 20
-2.999093
 30
0.0
 11
46.01969099999999
 21
-2.989938
 31
0.0
  0
LINE
  5
5CA
330
1F
100
AcDbEntity
  8
1
  6
CONTINUOUS
370
50
 62
4
100
AcDbLine
 10
44.904839
 20
0.991718
 30
0.0
 11
45.0
 21
0.9942099999999999
 31
0.0
  0
LINE
  5
5CB
330
1F
100
AcDbEntity
  8
1
  6
CONTINUOUS
370
50
 62
4
100
AcDbLine
 10
49.827877
 20
2.679088
 30
0.0
 11
49.911007
 21
2.681415
 31
0.0
  0
LINE
  5
5CC
330
1F
100
AcDbEntity
  8
1
  6
CONTINUOUS
370
50
 62
4
100
AcDbLine
 10
50.5
 20
-1.296767
 30
0.0
 11
50.56945
 21
-1.294573
 31
0.0
  0
LINE
  5
5CD
330
1F
100
AcDbEntity
  8
1
  6
CONTINUOUS
370
50
 62
4
100
AcDbLine
 10
49.744011
 20
2.675882
 30
0.0
 11
49.827877
 21
2.679088
 31
0.0
  0
LINE
  5
5CE
330
1F
100
AcDbEntity
  8
1
  6
CONTINUOUS
370
50
 62
4
100
AcDbLine
 10
44.810921
 20
0.9875069999999999
 30
0.0
 11
44.904839
 21
0.991718
 31
0.0
  0
LINE
  5
5CF
330
1F
100
AcDbEntity
  8
1
  6
CONTINUOUS
370
50
 62
4
100
AcDbLine
 10
49.65972499999999
 20
2.671862
 30
0.0
 11
49.744011
 21
2.675882
 31
0.0
  0
LINE
  5
5D0
330
1F
100
AcDbEntity
  8
1
  6
CONTINUOUS
370
50
 62
4
100
AcDbLine
 10
46.01969099999999
 20
-2.989938
 30
0.0
 11
46.403641
 21
-2.970587
 31
0.0
  0
LINE
  5
5D1
330
1F
100
AcDbEntity
  8
1
  6
CONTINUOUS
370
50
 62
4
100
AcDbLine
 10
50.56945
 20
-1.294573
 30
0.0
 11
50.639046
 21
-1.290917
 31
0.0
  0
LINE
  5
5D2
330
1F
100
AcDbEntity
  8
1
  6
CONTINUOUS
370
50
 62
4
100
AcDbLine
 10
49.936302
 20
2.96096
 30
0.0
 11
50.5
 21
2.991202
 31
0.0
  0
LINE
  5
5D3
330
1F
100
AcDbEntity
  8
1
  6
CONTINUOUS
370
50
 62
4
100
AcDbLine
 10
49.575329
 20
2.667095
 30
0.0
 11
49.65972499999999
 21
2.671862
 31
0.0
  0
LINE
  5
5D4
330
1F
100
AcDbEntity
  8
1
  6
CONTINUOUS
370
50
 62
4
100
AcDbLine
 10
44.718349
 20
0.9816109999999999
 30
0.0
 11
44.810921
 21
0.9875069999999999
 31
0.0
  0
LINE
  5
5D5
330
1F
100
AcDbEntity
  8
1
  6
CONTINUOUS
370
50
 62
4
100
AcDbLine
 10
50.639046
 20
-1.290917
 30
0.0
 11
50.708794
 21
-1.285798
 31
0.0
  0
LINE
  5
5D6
330
1F
100
AcDbEntity
  8
1
  6
CONTINUOUS
370
50
 62
4
100
AcDbLine
 10
46.403641
 20
-2.970587
 30
0.0
 11
46.787628
 21
-2.940805
 31
0.0
  0
LINE
  5
5D7
330
1F
100
AcDbEntity
  8
1
  6
CONTINUOUS
370
50
 62
4
100
AcDbLine
 10
44.627235
 20
0.9740629999999999
 30
0.0
 11
44.718349
 21
0.9816109999999999
 31
0.0
  0
LINE
  5
5D8
330
1F
100
AcDbEntity
  8
1
  6
CONTINUOUS
370
50
 62
4
100
AcDbLine
 10
49.129704
 20
2.410508
 30
0.0
 11
49.669739
 21
2.460495
 31
0.0
  0
LINE
  5
5D9
330
1F
100
AcDbEntity
  8
1
  6
CONTINUOUS
370
50
 62
4
100
AcDbLine
 10
49.372116
 20
2.908644
 30
0.0
 11
49.936302
 21
2.96096
 31
0.0
  0
LINE
  5
5DA
330
1F
100
AcDbEntity
  8
1
  6
CONTINUOUS
370
50
 62
4
100
AcDbLine
 10
50.708794
 20
-1.285798
 30
0.0
 11
50.778679
 21
-1.279221
 31
0.0
  0
LINE
  5
5DB
330
1F
100
AcDbEntity
  8
1
  6
CONTINUOUS
370
50
 62
4
100
AcDbLine
 10
44.537685
 20
0.964897
 30
0.0
 11
44.627235
 21
0.9740629999999999
 31
0.0
  0
LINE
  5
5DC
330
1F
100
AcDbEntity
  8
1
  6
CONTINUOUS
370
50
 62
4
100
AcDbLine
 10
46.787628
 20
-2.940805
 30
0.0
 11
47.170288
 21
-2.900377
 31
0.0
  0
LINE
  5
5DD
330
1F
100
AcDbEntity
  8
1
  6
CONTINUOUS
370
50
 62
4
100
AcDbLine
 10
50.778679
 20
-1.279221
 30
0.0
 11
50.848698
 21
-1.271188
 31
0.0
  0
LINE
  5
5DE
330
1F
100
AcDbEntity
  8
1
  6
CONTINUOUS
370
50
 62
4
100
AcDbLine
 10
44.449806
 20
0.9541449999999999
 30
0.0
 11
44.537685
 21
0.964897
 31
0.0
  0
LINE
  5
5DF
330
1F
100
AcDbEntity
  8
1
  6
CONTINUOUS
370
50
 62
4
100
AcDbLine
 10
48.589668
 20
2.342398
 30
0.0
 11
49.129704
 21
2.410508
 31
0.0
  0
LINE
  5
5E0
330
1F
100
AcDbEntity
  8
1
  6
CONTINUOUS
370
50
 62
4
100
AcDbLine
 10
48.810638
 20
2.833688
 30
0.0
 11
49.372116
 21
2.908644
 31
0.0
  0
LINE
  5
5E1
330
1F
100
AcDbEntity
  8
1
  6
CONTINUOUS
370
50
 62
4
100
AcDbLine
 10
47.170288
 20
-2.900377
 30
0.0
 11
47.539585
 21
-2.850603
 31
0.0
  0
LINE
  5
5E2
330
1F
100
AcDbEntity
  8
1
  6
CONTINUOUS
370
50
 62
4
100
AcDbLine
 10
50.848698
 20
-1.271188
 30
0.0
 11
50.918854
 21
-1.261702
 31
0.0
  0
LINE
  5
5E3
330
1F
100
AcDbEntity
  8
1
  6
CONTINUOUS
370
50
 62
4
100
AcDbLine
 10
44.363705
 20
0.941842
 30
0.0
 11
44.449806
 21
0.9541449999999999
 31
0.0
  0
LINE
  5
5E4
330
1F
100
AcDbEntity
  8
1
  6
CONTINUOUS
370
50
 62
4
100
AcDbLine
 10
50.918854
 20
-1.261702
 30
0.0
 11
50.989147
 21
-1.250765
 31
0.0
  0
LINE
  5
5E5
330
1F
100
AcDbEntity
  8
1
  6
CONTINUOUS
370
50
 62
4
100
AcDbLine
 10
50.998451
 20
-1.249241
 30
0.0
 11
51.0
 21
-1.248991
 31
0.0
  0
LINE
  5
5E6
330
1F
100
AcDbEntity
  8
1
  6
CONTINUOUS
370
50
 62
4
100
AcDbLine
 10
50.996899
 20
-1.249492
 30
0.0
 11
50.998451
 21
-1.249241
 31
0.0
  0
LINE
  5
5E7
330
1F
100
AcDbEntity
  8
1
  6
CONTINUOUS
370
50
 62
4
100
AcDbLine
 10
48.049641
 20
2.254976
 30
0.0
 11
48.589668
 21
2.342398
 31
0.0
  0
LINE
  5
5E8
330
1F
100
AcDbEntity
  8
1
  6
CONTINUOUS
370
50
 62
4
100
AcDbLine
 10
50.993797
 20
-1.249998
 30
0.0
 11
50.99534999999999
 21
-1.249745
 31
0.0
  0
LINE
  5
5E9
330
1F
100
AcDbEntity
  8
1
  6
CONTINUOUS
370
50
 62
4
100
AcDbLine
 10
50.99534999999999
 20
-1.249745
 30
0.0
 11
50.996899
 21
-1.249492
 31
0.0
  0
LINE
  5
5EA
330
1F
100
AcDbEntity
  8
1
  6
CONTINUOUS
370
50
 62
4
100
AcDbLine
 10
47.539585
 20
-2.850603
 30
0.0
 11
47.89432499999999
 21
-2.792404
 31
0.0
  0
LINE
  5
5EB
330
1F
100
AcDbEntity
  8
1
  6
CONTINUOUS
370
50
 62
4
100
AcDbLine
 10
50.992249
 20
-1.250252
 30
0.0
 11
50.993797
 21
-1.249998
 31
0.0
  0
LINE
  5
5EC
330
1F
100
AcDbEntity
  8
1
  6
CONTINUOUS
370
50
 62
4
100
AcDbLine
 10
44.279488
 20
0.92802
 30
0.0
 11
44.363705
 21
0.941842
 31
0.0
  0
LINE
  5
5ED
330
1F
100
AcDbEntity
  8
1
  6
CONTINUOUS
370
50
 62
4
100
AcDbLine
 10
50.990696
 20
-1.250508
 30
0.0
 11
50.992249
 21
-1.250252
 31
0.0
  0
LINE
  5
5EE
330
1F
100
AcDbEntity
  8
1
  6
CONTINUOUS
370
50
 62
4
100
AcDbLine
 10
50.989147
 20
-1.250765
 30
0.0
 11
50.990696
 21
-1.250508
 31
0.0
  0
LINE
  5
5EF
330
1F
100
AcDbEntity
  8
1
  6
CONTINUOUS
370
50
 62
4
100
AcDbLine
 10
50.557468
 20
-2.325983
 30
0.0
 11
50.666374
 21
-2.30762
 31
0.0
  0
LINE
  5
5F0
330
1F
100
AcDbEntity
  8
1
  6
CONTINUOUS
370
50
 62
4
100
AcDbLine
 10
50.448559
 20
-2.344398
 30
0.0
 11
50.557468
 21
-2.325983
 31
0.0
  0
LINE
  5
5F1
330
1F
100
AcDbEntity
  8
1
  6
CONTINUOUS
370
50
 62
4
100
AcDbLine
 10
50.339653
 20
-2.362867
 30
0.0
 11
50.448559
 21
-2.344398
 31
0.0
  0
LINE
  5
5F2
330
1F
100
AcDbEntity
  8
1
  6
CONTINUOUS
370
50
 62
4
100
AcDbLine
 10
50.230743
 20
-2.381391
 30
0.0
 11
50.339653
 21
-2.362867
 31
0.0
  0
LINE
  5
5F3
330
1F
100
AcDbEntity
  8
1
  6
CONTINUOUS
370
50
 62
4
100
AcDbLine
 10
50.121849
 20
-2.39997
 30
0.0
 11
50.230743
 21
-2.381391
 31
0.0
  0
LINE
  5
5F4
330
1F
100
AcDbEntity
  8
1
  6
CONTINUOUS
370
50
 62
4
100
AcDbLine
 10
50.012955
 20
-2.418606
 30
0.0
 11
50.121849
 21
-2.39997
 31
0.0
  0
LINE
  5
5F5
330
1F
100
AcDbEntity
  8
1
  6
CONTINUOUS
370
50
 62
4
100
AcDbLine
 10
49.90406
 20
-2.437301
 30
0.0
 11
50.012955
 21
-2.418606
 31
0.0
  0
LINE
  5
5F6
330
1F
100
AcDbEntity
  8
1
  6
CONTINUOUS
370
50
 62
4
100
AcDbLine
 10
49.79516599999999
 20
-2.456057
 30
0.0
 11
49.90406
 21
-2.437301
 31
0.0
  0
LINE
  5
5F7
330
1F
100
AcDbEntity
  8
1
  6
CONTINUOUS
370
50
 62
4
100
AcDbLine
 10
49.675259
 20
-2.476779
 30
0.0
 11
49.79516599999999
 21
-2.456057
 31
0.0
  0
LINE
  5
5F8
330
1F
100
AcDbEntity
  8
1
  6
CONTINUOUS
370
50
 62
4
100
AcDbLine
 10
49.555355
 20
-2.497575
 30
0.0
 11
49.675259
 21
-2.476779
 31
0.0
  0
LINE
  5
5F9
330
1F
100
AcDbEntity
  8
1
  6
CONTINUOUS
370
50
 62
4
100
AcDbLine
 10
49.435471
 20
-2.518443
 30
0.0
 11
49.555355
 21
-2.497575
 31
0.0
  0
LINE
  5
5FA
330
1F
100
AcDbEntity
  8
1
  6
CONTINUOUS
370
50
 62
4
100
AcDbLine
 10
49.315582
 20
-2.539386
 30
0.0
 11
49.435471
 21
-2.518443
 31
0.0
  0
LINE
  5
5FB
330
1F
100
AcDbEntity
  8
1
  6
CONTINUOUS
370
50
 62
4
100
AcDbLine
 10
49.19571699999999
 20
-2.5604
 30
0.0
 11
49.315582
 21
-2.539386
 31
0.0
  0
LINE
  5
5FC
330
1F
100
AcDbEntity
  8
1
  6
CONTINUOUS
370
50
 62
4
100
AcDbLine
 10
49.075851
 20
-2.581488
 30
0.0
 11
49.19571699999999
 21
-2.5604
 31
0.0
  0
LINE
  5
5FD
330
1F
100
AcDbEntity
  8
1
  6
CONTINUOUS
370
50
 62
4
100
AcDbLine
 10
48.272644
 20
2.738876
 30
0.0
 11
48.810638
 21
2.833688
 31
0.0
  0
LINE
  5
5FE
330
1F
100
AcDbEntity
  8
1
  6
CONTINUOUS
370
50
 62
4
100
AcDbLine
 10
48.95600899999999
 20
-2.602645
 30
0.0
 11
49.075851
 21
-2.581488
 31
0.0
  0
LINE
  5
5FF
330
1F
100
AcDbEntity
  8
1
  6
CONTINUOUS
370
50
 62
4
100
AcDbLine
 10
48.836163
 20
-2.623873
 30
0.0
 11
48.95600899999999
 21
-2.602645
 31
0.0
  0
LINE
  5
600
330
1F
100
AcDbEntity
  8
1
  6
CONTINUOUS
370
50
 62
4
100
AcDbLine
 10
48.718391
 20
-2.644801
 30
0.0
 11
48.836163
 21
-2.623873
 31
0.0
  0
LINE
  5
601
330
1F
100
AcDbEntity
  8
1
  6
CONTINUOUS
370
50
 62
4
100
AcDbLine
 10
48.600616
 20
-2.665793
 30
0.0
 11
48.718391
 21
-2.644801
 31
0.0
  0
LINE
  5
602
330
1F
100
AcDbEntity
  8
1
  6
CONTINUOUS
370
50
 62
4
100
AcDbLine
 10
48.482872
 20
-2.686839
 30
0.0
 11
48.600616
 21
-2.665793
 31
0.0
  0
LINE
  5
603
330
1F
100
AcDbEntity
  8
1
  6
CONTINUOUS
370
50
 62
4
100
AcDbLine
 10
48.365128
 20
-2.707941
 30
0.0
 11
48.482872
 21
-2.686839
 31
0.0
  0
LINE
  5
604
330
1F
100
AcDbEntity
  8
1
  6
CONTINUOUS
370
50
 62
4
100
AcDbLine
 10
47.89432499999999
 20
-2.792649
 30
0.0
 11
48.012012
 21
-2.77151
 31
0.0
  0
LINE
  5
605
330
1F
100
AcDbEntity
  8
1
  6
CONTINUOUS
370
50
 62
4
100
AcDbLine
 10
48.247414
 20
-2.729089
 30
0.0
 11
48.365128
 21
-2.707941
 31
0.0
  0
LINE
  5
606
330
1F
100
AcDbEntity
  8
1
  6
CONTINUOUS
370
50
 62
4
100
AcDbLine
 10
48.1297
 20
-2.750282
 30
0.0
 11
48.247414
 21
-2.729089
 31
0.0
  0
LINE
  5
607
330
1F
100
AcDbEntity
  8
1
  6
CONTINUOUS
370
50
 62
4
100
AcDbLine
 10
48.012012
 20
-2.77151
 30
0.0
 11
48.1297
 21
-2.750282
 31
0.0
  0
LINE
  5
608
330
1F
100
AcDbEntity
  8
1
  6
CONTINUOUS
370
50
 62
4
100
AcDbLine
 10
44.197266
 20
0.912713
 30
0.0
 11
44.279488
 21
0.92802
 31
0.0
  0
LINE
  5
609
330
1F
100
AcDbEntity
  8
1
  6
CONTINUOUS
370
50
 62
4
100
AcDbLine
 10
47.509621
 20
2.150166
 30
0.0
 11
48.049641
 21
2.254976
 31
0.0
  0
LINE
  5
60A
330
1F
100
AcDbEntity
  8
1
  6
CONTINUOUS
370
50
 62
4
100
AcDbLine
 10
44.117142
 20
0.8959539999999999
 30
0.0
 11
44.197266
 21
0.912713
 31
0.0
  0
LINE
  5
60B
330
1F
100
AcDbEntity
  8
1
  6
CONTINUOUS
370
50
 62
4
100
AcDbLine
 10
47.754387
 20
2.626505
 30
0.0
 11
48.272644
 21
2.738876
 31
0.0
  0
LINE
  5
60C
330
1F
100
AcDbEntity
  8
1
  6
CONTINUOUS
370
50
 62
4
100
AcDbLine
 10
46.969601
 20
2.032616
 30
0.0
 11
47.509621
 21
2.150166
 31
0.0
  0
LINE
  5
60D
330
1F
100
AcDbEntity
  8
1
  6
CONTINUOUS
370
50
 62
4
100
AcDbLine
 10
44.039223
 20
0.877776
 30
0.0
 11
44.117142
 21
0.8959539999999999
 31
0.0
  0
LINE
  5
60E
330
1F
100
AcDbEntity
  8
1
  6
CONTINUOUS
370
50
 62
4
100
AcDbLine
 10
46.429581
 20
1.903429
 30
0.0
 11
46.969601
 21
2.032616
 31
0.0
  0
LINE
  5
60F
330
1F
100
AcDbEntity
  8
1
  6
CONTINUOUS
370
50
 62
4
100
AcDbLine
 10
47.22945
 20
2.496609
 30
0.0
 11
47.754387
 21
2.626505
 31
0.0
  0
LINE
  5
610
330
1F
100
AcDbEntity
  8
1
  6
CONTINUOUS
370
50
 62
4
100
AcDbLine
 10
50.666374
 20
-2.307626
 30
0.0
 11
50.679489
 21
-2.304277
 31
0.0
  0
LINE
  5
611
330
1F
100
AcDbEntity
  8
1
  6
CONTINUOUS
370
50
 62
4
100
AcDbLine
 10
43.963619
 20
0.858213
 30
0.0
 11
44.039223
 21
0.877776
 31
0.0
  0
LINE
  5
612
330
1F
100
AcDbEntity
  8
1
  6
CONTINUOUS
370
50
 62
4
100
AcDbLine
 10
46.69835699999999
 20
2.351266
 30
0.0
 11
47.22945
 21
2.496609
 31
0.0
  0
LINE
  5
613
330
1F
100
AcDbEntity
  8
1
  6
CONTINUOUS
370
50
 62
4
100
AcDbLine
 10
43.890438
 20
0.837298
 30
0.0
 11
43.963619
 21
0.858213
 31
0.0
  0
LINE
  5
614
330
1F
100
AcDbEntity
  8
1
  6
CONTINUOUS
370
50
 62
4
100
AcDbLine
 10
46.16481
 20
2.191746
 30
0.0
 11
46.69835699999999
 21
2.351266
 31
0.0
  0
LINE
  5
615
330
1F
100
AcDbEntity
  8
1
  6
CONTINUOUS
370
50
 62
4
100
AcDbLine
 10
43.819786
 20
0.8150649999999999
 30
0.0
 11
43.890438
 21
0.837298
 31
0.0
  0
LINE
  5
616
330
1F
100
AcDbEntity
  8
1
  6
CONTINUOUS
370
50
 62
4
100
AcDbLine
 10
45.632507
 20
2.01932
 30
0.0
 11
46.16481
 21
2.191746
 31
0.0
  0
LINE
  5
617
330
1F
100
AcDbEntity
  8
1
  6
CONTINUOUS
370
50
 62
4
100
AcDbLine
 10
43.75177
 20
0.791546
 30
0.0
 11
43.819786
 21
0.8150649999999999
 31
0.0
  0
LINE
  5
618
330
1F
100
AcDbEntity
  8
1
  6
CONTINUOUS
370
50
 62
4
100
AcDbLine
 10
50.584808
 20
1.372421
 30
0.0
 11
50.592079
 21
1.375142
 31
0.0
  0
LINE
  5
619
330
1F
100
AcDbEntity
  8
1
  6
CONTINUOUS
370
50
 62
4
100
AcDbLine
 10
43.686501
 20
0.7667769999999999
 30
0.0
 11
43.75177
 21
0.791546
 31
0.0
  0
LINE
  5
61A
330
1F
100
AcDbEntity
  8
1
  6
CONTINUOUS
370
50
 62
4
100
AcDbLine
 10
43.62413
 20
0.740814
 30
0.0
 11
43.686501
 21
0.7667769999999999
 31
0.0
  0
LINE
  5
61B
330
1F
100
AcDbEntity
  8
1
  6
CONTINUOUS
370
50
 62
4
100
AcDbLine
 10
50.679489
 20
-2.304277
 30
0.0
 11
50.693226
 21
-2.298552
 31
0.0
  0
LINE
  5
61C
330
1F
100
AcDbEntity
  8
1
  6
CONTINUOUS
370
50
 62
4
100
AcDbLine
 10
43.564754
 20
0.7136899999999999
 30
0.0
 11
43.62413
 21
0.740814
 31
0.0
  0
LINE
  5
61D
330
1F
100
AcDbEntity
  8
1
  6
CONTINUOUS
370
50
 62
4
100
AcDbLine
 10
43.508434
 20
0.685421
 30
0.0
 11
43.564754
 21
0.7136899999999999
 31
0.0
  0
LINE
  5
61E
330
1F
100
AcDbEntity
  8
1
  6
CONTINUOUS
370
50
 62
4
100
AcDbLine
 10
49.82633999999999
 20
1.486486
 30
0.0
 11
49.85033
 21
1.498766
 31
0.0
  0
LINE
  5
61F
330
1F
100
AcDbEntity
  8
1
  6
CONTINUOUS
370
50
 62
4
100
AcDbLine
 10
43.45523499999999
 20
0.656028
 30
0.0
 11
43.508434
 21
0.685421
 31
0.0
  0
LINE
  5
620
330
1F
100
AcDbEntity
  8
1
  6
CONTINUOUS
370
50
 62
4
100
AcDbLine
 10
50.693226
 20
-2.298552
 30
0.0
 11
50.707565
 21
-2.290473
 31
0.0
  0
LINE
  5
621
330
1F
100
AcDbEntity
  8
1
  6
CONTINUOUS
370
50
 62
4
100
AcDbLine
 10
43.405228
 20
0.625529
 30
0.0
 11
43.45523499999999
 21
0.656028
 31
0.0
  0
LINE
  5
622
330
1F
100
AcDbEntity
  8
1
  6
CONTINUOUS
370
50
 62
4
100
AcDbLine
 10
43.358467
 20
0.593943
 30
0.0
 11
43.405228
 21
0.625529
 31
0.0
  0
LINE
  5
623
330
1F
100
AcDbEntity
  8
1
  6
CONTINUOUS
370
50
 62
4
100
AcDbLine
 10
50.707565
 20
-2.290473
 30
0.0
 11
50.7225
 21
-2.280062
 31
0.0
  0
LINE
  5
624
330
1F
100
AcDbEntity
  8
1
  6
CONTINUOUS
370
50
 62
4
100
AcDbLine
 10
43.31501799999999
 20
0.5612779999999999
 30
0.0
 11
43.358467
 21
0.593943
 31
0.0
  0
LINE
  5
625
330
1F
100
AcDbEntity
  8
1
  6
CONTINUOUS
370
50
 62
4
100
AcDbLine
 10
50.592079
 20
1.375142
 30
0.0
 11
50.59866299999999
 21
1.380174
 31
0.0
  0
LINE
  5
626
330
1F
100
AcDbEntity
  8
1
  6
CONTINUOUS
370
50
 62
4
100
AcDbLine
 10
50.7225
 20
-2.280062
 30
0.0
 11
50.738014
 21
-2.267342
 31
0.0
  0
LINE
  5
627
330
1F
100
AcDbEntity
  8
1
  6
CONTINUOUS
370
50
 62
4
100
AcDbLine
 10
43.273903
 20
0.526608
 30
0.0
 11
43.31501799999999
 21
0.5612779999999999
 31
0.0
  0
LINE
  5
628
330
1F
100
AcDbEntity
  8
1
  6
CONTINUOUS
370
50
 62
4
100
AcDbLine
 10
50.738014
 20
-2.267342
 30
0.0
 11
50.754089
 21
-2.252333
 31
0.0
  0
LINE
  5
629
330
1F
100
AcDbEntity
  8
1
  6
CONTINUOUS
370
50
 62
4
100
AcDbLine
 10
49.85033
 20
1.498766
 30
0.0
 11
49.870255
 21
1.517508
 31
0.0
  0
LINE
  5
62A
330
1F
100
AcDbEntity
  8
1
  6
CONTINUOUS
370
50
 62
4
100
AcDbLine
 10
43.234962
 20
0.489292
 30
0.0
 11
43.273903
 21
0.526608
 31
0.0
  0
LINE
  5
62B
330
1F
100
AcDbEntity
  8
1
  6
CONTINUOUS
370
50
 62
4
100
AcDbLine
 10
49.82633999999999
 20
-1.25491
 30
0.0
 11
49.986271
 21
-1.083906
 31
0.0
  0
LINE
  5
62C
330
1F
100
AcDbEntity
  8
1
  6
CONTINUOUS
370
50
 62
4
100
AcDbLine
 10
43.198879
 20
0.449299
 30
0.0
 11
43.234962
 21
0.489292
 31
0.0
  0
LINE
  5
62D
330
1F
100
AcDbEntity
  8
1
  6
CONTINUOUS
370
50
 62
4
100
AcDbLine
 10
50.59866299999999
 20
1.380174
 30
0.0
 11
50.604565
 21
1.387479
 31
0.0
  0
LINE
  5
62E
330
1F
100
AcDbEntity
  8
1
  6
CONTINUOUS
370
50
 62
4
100
AcDbLine
 10
43.166344
 20
0.406598
 30
0.0
 11
43.198879
 21
0.449299
 31
0.0
  0
LINE
  5
62F
330
1F
100
AcDbEntity
  8
1
  6
CONTINUOUS
370
50
 62
4
100
AcDbLine
 10
49.870255
 20
1.517508
 30
0.0
 11
49.885937
 21
1.542279
 31
0.0
  0
LINE
  5
630
330
1F
100
AcDbEntity
  8
1
  6
CONTINUOUS
370
50
 62
4
100
AcDbLine
 10
43.138088
 20
0.36124
 30
0.0
 11
43.166344
 21
0.406598
 31
0.0
  0
LINE
  5
631
330
1F
100
AcDbEntity
  8
1
  6
CONTINUOUS
370
50
 62
4
100
AcDbLine
 10
50.604565
 20
1.387479
 30
0.0
 11
50.609779
 21
1.397017
 31
0.0
  0
LINE
  5
632
330
1F
100
AcDbEntity
  8
1
  6
CONTINUOUS
370
50
 62
4
100
AcDbLine
 10
50.716141
 20
-0.305733
 30
0.0
 11
50.754089
 21
-0.234078
 31
0.0
  0
LINE
  5
633
330
1F
100
AcDbEntity
  8
1
  6
CONTINUOUS
370
50
 62
4
100
AcDbLine
 10
50.678703
 20
-0.378485
 30
0.0
 11
50.716141
 21
-0.305733
 31
0.0
  0
LINE
  5
634
330
1F
100
AcDbEntity
  8
1
  6
CONTINUOUS
370
50
 62
4
100
AcDbLine
 10
50.641804
 20
-0.452292
 30
0.0
 11
50.678703
 21
-0.378485
 31
0.0
  0
LINE
  5
635
330
1F
100
AcDbEntity
  8
1
  6
CONTINUOUS
370
50
 62
4
100
AcDbLine
 10
50.605461
 20
-0.527108
 30
0.0
 11
50.641804
 21
-0.452292
 31
0.0
  0
LINE
  5
636
330
1F
100
AcDbEntity
  8
1
  6
CONTINUOUS
370
50
 62
4
100
AcDbLine
 10
43.114876
 20
0.313423
 30
0.0
 11
43.138088
 21
0.36124
 31
0.0
  0
LINE
  5
637
330
1F
100
AcDbEntity
  8
1
  6
CONTINUOUS
370
50
 62
4
100
AcDbLine
 10
50.569706
 20
-0.602888
 30
0.0
 11
50.605461
 21
-0.527108
 31
0.0
  0
LINE
  5
638
330
1F
100
AcDbEntity
  8
1
  6
CONTINUOUS
370
50
 62
4
100
AcDbLine
 10
50.534557
 20
-0.6795869999999999
 30
0.0
 11
50.569706
 21
-0.602888
 31
0.0
  0
LINE
  5
639
330
1F
100
AcDbEntity
  8
1
  6
CONTINUOUS
370
50
 62
4
100
AcDbLine
 10
50.5
 20
-0.7571479999999999
 30
0.0
 11
50.534557
 21
-0.6795869999999999
 31
0.0
  0
LINE
  5
63A
330
1F
100
AcDbEntity
  8
1
  6
CONTINUOUS
370
50
 62
4
100
AcDbLine
 10
49.82633999999999
 20
-1.25491
 30
0.0
 11
49.842045
 21
-1.216395
 31
0.0
  0
LINE
  5
63B
330
1F
100
AcDbEntity
  8
1
  6
CONTINUOUS
370
50
 62
4
100
AcDbLine
 10
50.609779
 20
1.397017
 30
0.0
 11
50.614311
 21
1.408751
 31
0.0
  0
LINE
  5
63C
330
1F
100
AcDbEntity
  8
1
  6
CONTINUOUS
370
50
 62
4
100
AcDbLine
 10
49.885937
 20
1.542279
 30
0.0
 11
49.897472
 21
1.572734
 31
0.0
  0
LINE
  5
63D
330
1F
100
AcDbEntity
  8
1
  6
CONTINUOUS
370
50
 62
4
100
AcDbLine
 10
49.842045
 20
-1.216395
 30
0.0
 11
49.856136
 21
-1.179116
 31
0.0
  0
LINE
  5
63E
330
1F
100
AcDbEntity
  8
1
  6
CONTINUOUS
370
50
 62
4
100
AcDbLine
 10
43.097321
 20
0.263167
 30
0.0
 11
43.114876
 21
0.313423
 31
0.0
  0
LINE
  5
63F
330
1F
100
AcDbEntity
  8
1
  6
CONTINUOUS
370
50
 62
4
100
AcDbLine
 10
49.856136
 20
-1.179116
 30
0.0
 11
49.868565
 21
-1.143239
 31
0.0
  0
LINE
  5
640
330
1F
100
AcDbEntity
  8
1
  6
CONTINUOUS
370
50
 62
4
100
AcDbLine
 10
50.575294
 20
1.31632
 30
0.0
 11
50.58615899999999
 21
1.349653
 31
0.0
  0
LINE
  5
641
330
1F
100
AcDbEntity
  8
1
  6
CONTINUOUS
370
50
 62
4
100
AcDbLine
 10
49.868565
 20
-1.143239
 30
0.0
 11
49.879269
 21
-1.108994
 31
0.0
  0
LINE
  5
642
330
1F
100
AcDbEntity
  8
1
  6
CONTINUOUS
370
50
 62
4
100
AcDbLine
 10
50.614311
 20
1.408751
 30
0.0
 11
50.618156
 21
1.42264
 31
0.0
  0
LINE
  5
643
330
1F
100
AcDbEntity
  8
1
  6
CONTINUOUS
370
50
 62
4
100
AcDbLine
 10
49.879269
 20
-1.108994
 30
0.0
 11
49.888275
 21
-1.076395
 31
0.0
  0
LINE
  5
644
330
1F
100
AcDbEntity
  8
1
  6
CONTINUOUS
370
50
 62
4
100
AcDbLine
 10
49.888275
 20
-1.076395
 30
0.0
 11
49.895618
 21
-1.045451
 31
0.0
  0
LINE
  5
645
330
1F
100
AcDbEntity
  8
1
  6
CONTINUOUS
370
50
 62
4
100
AcDbLine
 10
50.566589
 20
1.27653
 30
0.0
 11
50.575294
 21
1.31632
 31
0.0
  0
LINE
  5
646
330
1F
100
AcDbEntity
  8
1
  6
CONTINUOUS
370
50
 62
4
100
AcDbLine
 10
43.086075
 20
0.210851
 30
0.0
 11
43.097321
 21
0.263167
 31
0.0
  0
LINE
  5
647
330
1F
100
AcDbEntity
  8
1
  6
CONTINUOUS
370
50
 62
4
100
AcDbLine
 10
49.897472
 20
1.572734
 30
0.0
 11
49.904968
 21
1.608541
 31
0.0
  0
LINE
  5
648
330
1F
100
AcDbEntity
  8
1
  6
CONTINUOUS
370
50
 62
4
100
AcDbLine
 10
50.618156
 20
1.42264
 30
0.0
 11
50.621326
 21
1.438646
 31
0.0
  0
LINE
  5
649
330
1F
100
AcDbEntity
  8
1
  6
CONTINUOUS
370
50
 62
4
100
AcDbLine
 10
50.584808
 20
-1.548226
 30
0.0
 11
50.593044
 21
-1.501042
 31
0.0
  0
LINE
  5
64A
330
1F
100
AcDbEntity
  8
1
  6
CONTINUOUS
370
50
 62
4
100
AcDbLine
 10
50.593044
 20
-1.501042
 30
0.0
 11
50.60039099999999
 21
-1.455574
 31
0.0
  0
LINE
  5
64B
330
1F
100
AcDbEntity
  8
1
  6
CONTINUOUS
370
50
 62
4
100
AcDbLine
 10
50.60039099999999
 20
-1.455574
 30
0.0
 11
50.606853
 21
-1.411879
 31
0.0
  0
LINE
  5
64C
330
1F
100
AcDbEntity
  8
1
  6
CONTINUOUS
370
50
 62
4
100
AcDbLine
 10
50.56007
 20
1.230332
 30
0.0
 11
50.566589
 21
1.27653
 31
0.0
  0
LINE
  5
64D
330
1F
100
AcDbEntity
  8
1
  6
CONTINUOUS
370
50
 62
4
100
AcDbLine
 10
50.606853
 20
-1.411879
 30
0.0
 11
50.612427
 21
-1.370013
 31
0.0
  0
LINE
  5
64E
330
1F
100
AcDbEntity
  8
1
  6
CONTINUOUS
370
50
 62
4
100
AcDbLine
 10
50.574993
 20
-1.657797
 30
0.0
 11
50.58615899999999
 21
-1.563793
 31
0.0
  0
LINE
  5
64F
330
1F
100
AcDbEntity
  8
1
  6
CONTINUOUS
370
50
 62
4
100
AcDbLine
 10
50.612427
 20
-1.370013
 30
0.0
 11
50.617115
 21
-1.330032
 31
0.0
  0
LINE
  5
650
330
1F
100
AcDbEntity
  8
1
  6
CONTINUOUS
370
50
 62
4
100
AcDbLine
 10
50.56612
 20
-1.746425
 30
0.0
 11
50.574993
 21
-1.657797
 31
0.0
  0
LINE
  5
651
330
1F
100
AcDbEntity
  8
1
  6
CONTINUOUS
370
50
 62
4
100
AcDbLine
 10
50.617115
 20
-1.330032
 30
0.0
 11
50.620907
 21
-1.292014
 31
0.0
  0
LINE
  5
652
330
1F
100
AcDbEntity
  8
1
  6
CONTINUOUS
370
50
 62
4
100
AcDbLine
 10
49.904968
 20
1.608541
 30
0.0
 11
49.908531
 21
1.649353
 31
0.0
  0
LINE
  5
653
330
1F
100
AcDbEntity
  8
1
  6
CONTINUOUS
370
50
 62
4
100
AcDbLine
 10
43.081635
 20
0.158023
 30
0.0
 11
43.086075
 21
0.210851
 31
0.0
  0
LINE
  5
654
330
1F
100
AcDbEntity
  8
1
  6
CONTINUOUS
370
50
 62
4
100
AcDbLine
 10
50.555767
 20
1.177775
 30
0.0
 11
50.56007
 21
1.230332
 31
0.0
  0
LINE
  5
655
330
1F
100
AcDbEntity
  8
1
  6
CONTINUOUS
370
50
 62
4
100
AcDbLine
 10
50.559574
 20
-1.829457
 30
0.0
 11
50.56612
 21
-1.746425
 31
0.0
  0
LINE
  5
656
330
1F
100
AcDbEntity
  8
1
  6
CONTINUOUS
370
50
 62
4
100
AcDbLine
 10
50.555389
 20
-1.906676
 30
0.0
 11
50.559574
 21
-1.829457
 31
0.0
  0
LINE
  5
657
330
1F
100
AcDbEntity
  8
1
  6
CONTINUOUS
370
50
 62
4
100
AcDbLine
 10
50.553707
 20
1.118908
 30
0.0
 11
50.555767
 21
1.177775
 31
0.0
  0
LINE
  5
658
330
1F
100
AcDbEntity
  8
1
  6
CONTINUOUS
370
50
 62
4
100
AcDbLine
 10
50.553593
 20
-1.977861
 30
0.0
 11
50.555389
 21
-1.906676
 31
0.0
  0
LINE
  5
659
330
1F
100
AcDbEntity
  8
1
  6
CONTINUOUS
370
50
 62
4
100
AcDbLine
 10
39.0
 20
-2.49995
 30
0.0
 11
39.0
 21
2.49995
 31
0.0
  0
LINE
  5
65A
330
1F
100
AcDbEntity
  8
1
  6
CONTINUOUS
370
50
 62
4
100
AcDbLine
 10
45.0
 20
-2.991897
 30
0.0
 11
45.0
 21
2.118637
 31
0.0
  0
LINE
  5
65B
330
1F
100
AcDbEntity
  8
1
  6
CONTINUOUS
370
50
 62
4
100
AcDbLine
 10
45.0
 20
-2.9999
 30
0.0
 11
45.0
 21
-2.991898
 31
0.0
  0
LINE
  5
65C
330
1F
100
AcDbEntity
  8
1
  6
CONTINUOUS
370
50
 62
4
100
AcDbLine
 10
50.5
 20
-1.296767
 30
0.0
 11
50.5
 21
-0.7571479999999999
 31
0.0
  0
LINE
  5
65D
330
1F
100
AcDbEntity
  8
1
  6
CONTINUOUS
370
50
 62
4
100
AcDbLine
 10
51.0
 20
-1.586898
 30
0.0
 11
51.0
 21
0.368401
 31
0.0
  0
LINE
  5
65E
330
1F
100
AcDbEntity
  8
1
  6
CONTINUOUS
370
50
 62
4
100
AcDbLine
 10
51.0
 20
2.486583
 30
0.0
 11
51.0
 21
2.5
 31
0.0
  0
LINE
  5
65F
330
1F
100
AcDbEntity
  8
1
  6
CONTINUOUS
370
50
 62
4
100
AcDbLine
 10
51.0
 20
2.473176
 30
0.0
 11
51.0
 21
2.486583
 31
0.0
  0
LINE
  5
660
330
1F
100
AcDbEntity
  8
1
  6
CONTINUOUS
370
50
 62
4
100
AcDbLine
 10
51.0
 20
2.459778
 30
0.0
 11
51.0
 21
2.473176
 31
0.0
  0
LINE
  5
661
330
1F
100
AcDbEntity
  8
1
  6
CONTINUOUS
370
50
 62
4
100
AcDbLine
 10
51.0
 20
2.446392
 30
0.0
 11
51.0
 21
2.459778
 31
0.0
  0
LINE
  5
662
330
1F
100
AcDbEntity
  8
1
  6
CONTINUOUS
370
50
 62
4
100
AcDbLine
 10
51.0
 20
2.433017
 30
0.0
 11
51.0
 21
2.446392
 31
0.0
  0
LINE
  5
663
330
1F
100
AcDbEntity
  8
1
  6
CONTINUOUS
370
50
 62
4
100
AcDbLine
 10
51.0
 20
2.419657
 30
0.0
 11
51.0
 21
2.433017
 31
0.0
  0
LINE
  5
664
330
1F
100
AcDbEntity
  8
1
  6
CONTINUOUS
370
50
 62
4
100
AcDbLine
 10
51.0
 20
2.40631
 30
0.0
 11
51.0
 21
2.419657
 31
0.0
  0
LINE
  5
665
330
1F
100
AcDbEntity
  8
1
  6
CONTINUOUS
370
50
 62
4
100
AcDbLine
 10
51.0
 20
0.368402
 30
0.0
 11
51.0
 21
2.40631
 31
0.0
  0
ELLIPSE
  5
666
330
1F
100
AcDbEntity
  8
1
  6
CONTINUOUS
370
50
 62
4
100
AcDbEllipse
 10
50.853278
 20
-0.7447579999999999
 30
0.0
 11
0.7717951546672519
 21
2.609149954248922
 31
0.0
210
0.0
220
0.0
230
1.0
 40
0.1453810234583806
 41
4.139986343224507
 42
4.427033189810269
  0
ELLIPSE
  5
667
330
1F
100
AcDbEntity
  8
1
  6
CONTINUOUS
370
50
 62
4
100
AcDbEllipse
 10
50.853278
 20
0.7447579999999999
 30
0.0
 11
-0.7717951546672596
 21
2.609149954248919
 31
0.0
210
0.0
220
0.0
230
1.0
 40
0.1453810234583808
 41
1.912008460334621
 42
2.199055338363502
  0
ELLIPSE
  5
668
330
1F
100
AcDbEntity
  8
1
  6
CONTINUOUS
370
50
 62
4
100
AcDbEllipse
 10
59.574814
 20
-3.833268
 30
0.0
 11
-36.57382696672643
 21
7.040300172853692
 31
0.0
210
0.0
220
0.0
230
1.0
 40
0.0161597237724388
 41
5.125382434349355
 42
5.180706255591983
  0
LINE
  5
669
330
1F
100
AcDbEntity
  8
CUT
  6
CONTINUOUS
370
25
 62
1
100
AcDbLine
 10
45.0
 20
0.0
 30
0.0
 11
51.0
 21
0.0
 31
0.0
  0
LINE
  5
66A
330
1F
100
AcDbEntity
  8
CUT
  6
CONTINUOUS
370
25
 62
1
100
AcDbLine
 10
51.0
 20
0.0
 30
0.0
 11
51.0
 21
2.495
 31
0.0
  0
LINE
  5
66B
330
1F
100
AcDbEntity
  8
CUT
  6
CONTINUOUS
370
25
 62
1
100
AcDbLine
 10
51.0
 20
2.495
 30
0.0
 11
51.0
 21
2.5
 31
0.0
  0
LINE
  5
66C
330
1F
100
AcDbEntity
  8
CUT
  6
CONTINUOUS
370
25
 62
1
100
AcDbLine
 10
51.0
 20
2.5
 30
0.0
 11
50.5
 21
3.0
 31
0.0
  0
LINE
  5
66D
330
1F
100
AcDbEntity
  8
CUT
  6
CONTINUOUS
370
25
 62
1
100
AcDbLine
 10
50.5
 20
3.0
 30
0.0
 11
45.0
 21
2.9999
 31
0.0
  0
LINE
  5
66E
330
1F
100
AcDbEntity
  8
CUT
  6
CONTINUOUS
370
25
 62
1
100
AcDbLine
 10
45.0
 20
2.9999
 30
0.0
 11
45.0
 21
0.0
 31
0.0
  0
LINE
  5
66F
330
1F
100
AcDbEntity
  8
NOCUT
  6
CONTINUOUS
370
25
 62
7
100
AcDbLine
 10
39.0
 20
0.0
 30
0.0
 11
45.0
 21
0.0
 31
0.0
  0
LINE
  5
670
330
1F
100
AcDbEntity
  8
NOCUT
  6
CONTINUOUS
370
25
 62
7
100
AcDbLine
 10
45.0
 20
0.0
 30
0.0
 11
45.0
 21
2.49995
 31
0.0
  0
LINE
  5
671
330
1F
100
AcDbEntity
  8
NOCUT
  6
CONTINUOUS
370
25
 62
7
100
AcDbLine
 10
45.0
 20
2.49995
 30
0.0
 11
39.0
 21
2.49995
 31
0.0
  0
LINE
  5
672
330
1F
100
AcDbEntity
  8
NOCUT
  6
CONTINUOUS
370
25
 62
7
100
AcDbLine
 10
39.0
 20
2.49995
 30
0.0
 11
39.0
 21
2.99995
 31
0.0
  0
LINE
  5
673
330
1F
100
AcDbEntity
  8
NOCUT
  6
CONTINUOUS
370
25
 62
7
100
AcDbLine
 10
39.0
 20
2.99995
 30
0.0
 11
39.0
 21
0.0
 31
0.0
  0
LINE
  5
674
330
1F
100
AcDbEntity
  8
SK1
  6
CONTINUOUS
370
50
 62
4
100
AcDbLine
 10
39.0
 20
3.0
 30
0.0
 11
0.7999999999999972
 21
3.0
 31
0.0
  0
LINE
  5
675
330
1F
100
AcDbEntity
  8
SK1
  6
CONTINUOUS
370
50
 62
4
100
AcDbLine
 10
0.7999999999999972
 20
3.0
 30
0.0
 11
0.0
 21
2.538119784648299
 31
0.0
  0
LINE
  5
676
330
1F
100
AcDbEntity
  8
SK1
  6
CONTINUOUS
370
50
 62
4
100
AcDbLine
 10
0.0
 20
2.538119784648299
 30
0.0
 11
0.0
 21
-2.538119784648299
 31
0.0
  0
LINE
  5
677
330
1F
100
AcDbEntity
  8
SK1
  6
CONTINUOUS
370
50
 62
4
100
AcDbLine
 10
0.0
 20
-2.538119784648299
 30
0.0
 11
0.7999999999999972
 21
-3.0
 31
0.0
  0
LINE
  5
678
330
1F
100
AcDbEntity
  8
SK1
  6
CONTINUOUS
370
50
 62
4
100
AcDbLine
 10
0.7999999999999972
 20
-3.0
 30
0.0
 11
39.0
 21
-3.0
 31
0.0
  0
LINE
  5
679
330
1F
100
AcDbEntity
  8
SK1
  6
CONTINUOUS
370
50
 62
4
100
AcDbLine
 10
15.9
 20
-2.4
 30
0.0
 11
15.9
 21
2.4
 31
0.0
  0
LINE
  5
67A
330
1F
100
AcDbEntity
  8
SK1
  6
CONTINUOUS
370
50
 62
4
100
AcDbLine
 10
15.9
 20
2.4
 30
0.0
 11
20.1
 21
2.4
 31
0.0
  0
LINE
  5
67B
330
1F
100
AcDbEntity
  8
SK1
  6
CONTINUOUS
370
50
 62
4
100
AcDbLine
 10
20.1
 20
2.4
 30
0.0
 11
20.1
 21
-2.4
 31
0.0
  0
LINE
  5
67C
330
1F
100
AcDbEntity
  8
SK1
  6
CONTINUOUS
370
50
 62
4
100
AcDbLine
 10
20.1
 20
-2.4
 30
0.0
 11
15.9
 21
-2.4
 31
0.0
  0
ARC
  5
67D
330
1F
100
AcDbEntity
  8
SK1
  6
CONTINUOUS
370
50
 62
4
100
AcDbCircle
 10
17.7
 20
-0.0000000000000018
 30
0.0
 40
3.0
100
AcDbArc
 50
126.869897645844
 51
233.1301023541559
  0
ARC
  5
67E
330
1F
100
AcDbEntity
  8
SK1
  6
CONTINUOUS
370
50
 62
4
100
AcDbCircle
 10
18.29999999999999
 20
0.0
 30
0.0
 40
3.000000000000004
100
AcDbArc
 50
306.8698976458442
 51
53.13010235415585
  0
LINE
  5
67F
330
1F
100
AcDbEntity
  8
SK1
  6
CONTINUOUS
370
50
 62
4
100
AcDbLine
 10
0.7999999999999972
 20
3.0
 30
0.0
 11
0.7999999999999972
 21
-3.0
 31
0.0
  0
LINE
  5
680
330
1F
100
AcDbEntity
  8
SK2
  6
CONTINUOUS
370
25
 62
7
100
AcDbLine
 10
0.0
 20
2.07623957
 30
0.0
 11
0.0
 21
14.00001
 31
0.0
  0
LINE
  5
681
330
1F
100
AcDbEntity
  8
SK2
  6
CONTINUOUS
370
25
 62
7
100
AcDbLine
 10
39.0
 20
14.00001
 30
0.0
 11
39.0
 21
3.0
 31
0.0
  0
LINE
  5
682
330
1F
100
AcDbEntity
  8
SK2
  6
CONTINUOUS
370
25
 62
7
100
AcDbLine
 10
0.0
 20
13.00001
 30
0.0
 11
39.0
 21
13.00001
 31
0.0
  0
LINE
  5
683
330
1F
100
AcDbEntity
  8
SK2
  6
CONTINUOUS
370
25
 62
7
100
AcDbLine
 10
0.0
 20
13.00001
 30
0.0
 11
5.0
 21
14.00001
 31
0.0
  0
LINE
  5
684
330
1F
100
AcDbEntity
  8
SK2
  6
CONTINUOUS
370
25
 62
7
100
AcDbLine
 10
5.0
 20
14.00001
 30
0.0
 11
5.0
 21
12.00001
 31
0.0
  0
LINE
  5
685
330
1F
100
AcDbEntity
  8
SK2
  6
CONTINUOUS
370
25
 62
7
100
AcDbLine
 10
5.0
 20
12.00001
 30
0.0
 11
0.0
 21
13.00001
 31
0.0
  0
LINE
  5
686
330
1F
100
AcDbEntity
  8
SK2
  6
CONTINUOUS
370
25
 62
7
100
AcDbLine
 10
4.796022091999859
 20
12.04080558160003
 30
0.0
 11
5.0
 21
12.24478348960017
 31
0.0
  0
LINE
  5
687
330
1F
100
AcDbEntity
  8
SK2
  6
CONTINUOUS
370
25
 62
7
100
AcDbLine
 10
4.44246870140659
 20
12.11151625971868
 30
0.0
 11
5.0
 21
12.66904755831209
 31
0.0
  0
LINE
  5
688
330
1F
100
AcDbEntity
  8
SK2
  6
CONTINUOUS
370
25
 62
7
100
AcDbLine
 10
4.088915310813306
 20
12.18222693783734
 30
0.0
 11
5.0
 21
13.09331162702403
 31
0.0
  0
LINE
  5
689
330
1F
100
AcDbEntity
  8
SK2
  6
CONTINUOUS
370
25
 62
7
100
AcDbLine
 10
3.735361920220029
 20
12.25293761595599
 30
0.0
 11
5.0
 21
13.51757569573596
 31
0.0
  0
LINE
  5
68A
330
1F
100
AcDbEntity
  8
SK2
  6
CONTINUOUS
370
25
 62
7
100
AcDbLine
 10
3.38180852962676
 20
12.32364829407465
 30
0.0
 11
5.0
 21
13.94183976444788
 31
0.0
  0
LINE
  5
68B
330
1F
100
AcDbEntity
  8
SK2
  6
CONTINUOUS
370
25
 62
7
100
AcDbLine
 10
3.02825513903349
 20
12.39435897219331
 30
0.0
 11
4.542382708550235
 21
13.90848654171005
 31
0.0
  0
LINE
  5
68C
330
1F
100
AcDbEntity
  8
SK2
  6
CONTINUOUS
370
25
 62
7
100
AcDbLine
 10
2.674701748440206
 20
12.46506965031195
 30
0.0
 11
4.01205262266032
 21
13.80242052453207
 31
0.0
  0
LINE
  5
68D
330
1F
100
AcDbEntity
  8
SK2
  6
CONTINUOUS
370
25
 62
7
100
AcDbLine
 10
2.321148357846937
 20
12.53578032843061
 30
0.0
 11
3.48172253677042
 21
13.69635450735409
 31
0.0
  0
LINE
  5
68E
330
1F
100
AcDbEntity
  8
SK2
  6
CONTINUOUS
370
25
 62
7
100
AcDbLine
 10
1.96759496725366
 20
12.60649100654927
 30
0.0
 11
2.951392450880491
 21
13.59028849017609
 31
0.0
  0
LINE
  5
68F
330
1F
100
AcDbEntity
  8
SK2
  6
CONTINUOUS
370
25
 62
7
100
AcDbLine
 10
1.614041576660384
 20
12.67720168466792
 30
0.0
 11
2.421062364990583
 21
13.48422247299812
 31
0.0
  0
LINE
  5
690
330
1F
100
AcDbEntity
  8
SK2
  6
CONTINUOUS
370
25
 62
7
100
AcDbLine
 10
1.260488186067107
 20
12.74791236278658
 30
0.0
 11
1.890732279100661
 21
13.37815645582013
 31
0.0
  0
LINE
  5
691
330
1F
100
AcDbEntity
  8
SK2
  6
CONTINUOUS
370
25
 62
7
100
AcDbLine
 10
0.9069347954738305
 20
12.81862304090524
 30
0.0
 11
1.360402193210746
 21
13.27209043864215
 31
0.0
  0
LINE
  5
692
330
1F
100
AcDbEntity
  8
SK2
  6
CONTINUOUS
370
25
 62
7
100
AcDbLine
 10
0.5533814048805539
 20
12.8893337190239
 30
0.0
 11
0.8300721073208237
 21
13.16602442146417
 31
0.0
  0
LINE
  5
693
330
1F
100
AcDbEntity
  8
SK2
  6
CONTINUOUS
370
25
 62
7
100
AcDbLine
 10
0.1998280142872773
 20
12.96004439714255
 30
0.0
 11
0.2997420214309088
 21
13.05995840428618
 31
0.0
  0
LINE
  5
694
330
1F
100
AcDbEntity
  8
SK2
  6
CONTINUOUS
370
25
 62
7
100
AcDbLine
 10
0.2676169576220033
 20
13.05353339152441
 30
0.0
 11
0.4014254364330157
 21
12.9197249127134
 31
0.0
  0
LINE
  5
695
330
1F
100
AcDbEntity
  8
SK2
  6
CONTINUOUS
370
25
 62
7
100
AcDbLine
 10
0.6211703482152799
 20
13.12424406964305
 30
0.0
 11
0.9317555223229235
 21
12.81365889553541
 31
0.0
  0
LINE
  5
696
330
1F
100
AcDbEntity
  8
SK2
  6
CONTINUOUS
370
25
 62
7
100
AcDbLine
 10
0.9747237388085637
 20
13.19495474776171
 30
0.0
 11
1.462085608212838
 21
12.70759287835743
 31
0.0
  0
LINE
  5
697
330
1F
100
AcDbEntity
  8
SK2
  6
CONTINUOUS
370
25
 62
7
100
AcDbLine
 10
1.32827712940184
 20
13.26566542588036
 30
0.0
 11
1.992415694102753
 21
12.60152686117945
 31
0.0
  0
LINE
  5
698
330
1F
100
AcDbEntity
  8
SK2
  6
CONTINUOUS
370
25
 62
7
100
AcDbLine
 10
1.68183051999511
 20
13.33637610399903
 30
0.0
 11
2.522745779992668
 21
12.49546084400147
 31
0.0
  0
LINE
  5
699
330
1F
100
AcDbEntity
  8
SK2
  6
CONTINUOUS
370
25
 62
7
100
AcDbLine
 10
2.035383910588386
 20
13.40708678211768
 30
0.0
 11
3.05307586588259
 21
12.38939482682348
 31
0.0
  0
LINE
  5
69A
330
1F
100
AcDbEntity
  8
SK2
  6
CONTINUOUS
370
25
 62
7
100
AcDbLine
 10
2.388937301181656
 20
13.47779746023634
 30
0.0
 11
3.583405951772498
 21
12.28332880964549
 31
0.0
  0
LINE
  5
69B
330
1F
100
AcDbEntity
  8
SK2
  6
CONTINUOUS
370
25
 62
7
100
AcDbLine
 10
2.74249069177494
 20
13.54850813835498
 30
0.0
 11
4.113736037662406
 21
12.17726279246752
 31
0.0
  0
LINE
  5
69C
330
1F
100
AcDbEntity
  8
SK2
  6
CONTINUOUS
370
25
 62
7
100
AcDbLine
 10
3.096044082368216
 20
13.61921881647364
 30
0.0
 11
4.644066123552321
 21
12.07119677528953
 31
0.0
  0
LINE
  5
69D
330
1F
100
AcDbEntity
  8
SK2
  6
CONTINUOUS
370
25
 62
7
100
AcDbLine
 10
3.449597472961486
 20
13.6899294945923
 30
0.0
 11
5.0
 21
12.13952696755378
 31
0.0
  0
LINE
  5
69E
330
1F
100
AcDbEntity
  8
SK2
  6
CONTINUOUS
370
25
 62
7
100
AcDbLine
 10
3.803150863554762
 20
13.76064017271095
 30
0.0
 11
5.0
 21
12.56379103626571
 31
0.0
  0
LINE
  5
69F
330
1F
100
AcDbEntity
  8
SK2
  6
CONTINUOUS
370
25
 62
7
100
AcDbLine
 10
4.156704254148032
 20
13.83135085082961
 30
0.0
 11
5.0
 21
12.98805510497764
 31
0.0
  0
LINE
  5
6A0
330
1F
100
AcDbEntity
  8
SK2
  6
CONTINUOUS
370
25
 62
7
100
AcDbLine
 10
4.510257644741316
 20
13.90206152894826
 30
0.0
 11
5.0
 21
13.41231917368957
 31
0.0
  0
LINE
  5
6A1
330
1F
100
AcDbEntity
  8
SK2
  6
CONTINUOUS
370
25
 62
7
100
AcDbLine
 10
4.863811035334578
 20
13.97277220706692
 30
0.0
 11
5.0
 21
13.8365832424015
 31
0.0
  0
LINE
  5
6A2
330
1F
100
AcDbEntity
  8
SK2
  6
CONTINUOUS
370
25
 62
7
100
AcDbLine
 10
39.0
 20
13.00001
 30
0.0
 11
34.0
 21
12.00001
 31
0.0
  0
LINE
  5
6A3
330
1F
100
AcDbEntity
  8
SK2
  6
CONTINUOUS
370
25
 62
7
100
AcDbLine
 10
34.0
 20
12.00001
 30
0.0
 11
34.0
 21
14.00001
 31
0.0
  0
LINE
  5
6A4
330
1F
100
AcDbEntity
  8
SK2
  6
CONTINUOUS
370
25
 62
7
100
AcDbLine
 10
34.0
 20
14.00001
 30
0.0
 11
39.0
 21
13.00001
 31
0.0
  0
LINE
  5
6A5
330
1F
100
AcDbEntity
  8
SK2
  6
CONTINUOUS
370
25
 62
7
100
AcDbLine
 10
38.80977983741277
 20
12.96196596748255
 30
0.0
 11
38.87318655827518
 21
13.02537268834496
 31
0.0
  0
LINE
  5
6A6
330
1F
100
AcDbEntity
  8
SK2
  6
CONTINUOUS
370
25
 62
7
100
AcDbLine
 10
38.27944975152286
 20
12.85589995030457
 30
0.0
 11
38.51963316768191
 21
13.09608336646362
 31
0.0
  0
LINE
  5
6A7
330
1F
100
AcDbEntity
  8
SK2
  6
CONTINUOUS
370
25
 62
7
100
AcDbLine
 10
37.74911966563295
 20
12.74983393312659
 30
0.0
 11
38.16607977708863
 21
13.16679404458227
 31
0.0
  0
LINE
  5
6A8
330
1F
100
AcDbEntity
  8
SK2
  6
CONTINUOUS
370
25
 62
7
100
AcDbLine
 10
37.21878957974305
 20
12.64376791594861
 30
0.0
 11
37.81252638649536
 21
13.23750472270093
 31
0.0
  0
LINE
  5
6A9
330
1F
100
AcDbEntity
  8
SK2
  6
CONTINUOUS
370
25
 62
7
100
AcDbLine
 10
36.68845949385313
 20
12.53770189877063
 30
0.0
 11
37.45897299590209
 21
13.30821540081958
 31
0.0
  0
LINE
  5
6AA
330
1F
100
AcDbEntity
  8
SK2
  6
CONTINUOUS
370
25
 62
7
100
AcDbLine
 10
36.15812940796322
 20
12.43163588159264
 30
0.0
 11
37.10541960530882
 21
13.37892607893824
 31
0.0
  0
LINE
  5
6AB
330
1F
100
AcDbEntity
  8
SK2
  6
CONTINUOUS
370
25
 62
7
100
AcDbLine
 10
35.62779932207331
 20
12.32556986441466
 30
0.0
 11
36.75186621471554
 21
13.44963675705689
 31
0.0
  0
LINE
  5
6AC
330
1F
100
AcDbEntity
  8
SK2
  6
CONTINUOUS
370
25
 62
7
100
AcDbLine
 10
35.0974692361834
 20
12.21950384723668
 30
0.0
 11
36.39831282412226
 21
13.52034743517555
 31
0.0
  0
LINE
  5
6AD
330
1F
100
AcDbEntity
  8
SK2
  6
CONTINUOUS
370
25
 62
7
100
AcDbLine
 10
34.56713915029349
 20
12.1134378300587
 30
0.0
 11
36.04475943352899
 21
13.5910581132942
 31
0.0
  0
LINE
  5
6AE
330
1F
100
AcDbEntity
  8
SK2
  6
CONTINUOUS
370
25
 62
7
100
AcDbLine
 10
34.03680906440358
 20
12.00737181288072
 30
0.0
 11
35.69120604293572
 21
13.66176879141286
 31
0.0
  0
LINE
  5
6AF
330
1F
100
AcDbEntity
  8
SK2
  6
CONTINUOUS
370
25
 62
7
100
AcDbLine
 10
34.0
 20
12.39482681718906
 30
0.0
 11
35.33765265234245
 21
13.73247946953151
 31
0.0
  0
LINE
  5
6B0
330
1F
100
AcDbEntity
  8
SK2
  6
CONTINUOUS
370
25
 62
7
100
AcDbLine
 10
34.0
 20
12.81909088590099
 30
0.0
 11
34.98409926174918
 21
13.80319014765016
 31
0.0
  0
LINE
  5
6B1
330
1F
100
AcDbEntity
  8
SK2
  6
CONTINUOUS
370
25
 62
7
100
AcDbLine
 10
34.0
 20
13.24335495461292
 30
0.0
 11
34.6305458711559
 21
13.87390082576882
 31
0.0
  0
LINE
  5
6B2
330
1F
100
AcDbEntity
  8
SK2
  6
CONTINUOUS
370
25
 62
7
100
AcDbLine
 10
34.0
 20
13.66761902332484
 30
0.0
 11
34.27699248056263
 21
13.94461150388747
 31
0.0
  0
LINE
  5
6B3
330
1F
100
AcDbEntity
  8
SK2
  6
CONTINUOUS
370
25
 62
7
100
AcDbLine
 10
34.0
 20
12.21248916810278
 30
0.0
 11
34.17706597341898
 21
12.0354231946838
 31
0.0
  0
LINE
  5
6B4
330
1F
100
AcDbEntity
  8
SK2
  6
CONTINUOUS
370
25
 62
7
100
AcDbLine
 10
34.0
 20
12.63675323681471
 30
0.0
 11
34.53061936401226
 21
12.10613387280245
 31
0.0
  0
LINE
  5
6B5
330
1F
100
AcDbEntity
  8
SK2
  6
CONTINUOUS
370
25
 62
7
100
AcDbLine
 10
34.0
 20
13.06101730552664
 30
0.0
 11
34.88417275460553
 21
12.17684455092111
 31
0.0
  0
LINE
  5
6B6
330
1F
100
AcDbEntity
  8
SK2
  6
CONTINUOUS
370
25
 62
7
100
AcDbLine
 10
34.0
 20
13.48528137423857
 30
0.0
 11
35.23772614519881
 21
12.24755522903976
 31
0.0
  0
LINE
  5
6B7
330
1F
100
AcDbEntity
  8
SK2
  6
CONTINUOUS
370
25
 62
7
100
AcDbLine
 10
34.0
 20
13.9095454429505
 30
0.0
 11
35.59127953579208
 21
12.31826590715842
 31
0.0
  0
LINE
  5
6B8
330
1F
100
AcDbEntity
  8
SK2
  6
CONTINUOUS
370
25
 62
7
100
AcDbLine
 10
34.41724938957802
 20
13.91656012208439
 30
0.0
 11
35.94483292638535
 21
12.38897658527707
 31
0.0
  0
LINE
  5
6B9
330
1F
100
AcDbEntity
  8
SK2
  6
CONTINUOUS
370
25
 62
7
100
AcDbLine
 10
34.94757947546794
 20
13.81049410490641
 30
0.0
 11
36.29838631697863
 21
12.45968726339573
 31
0.0
  0
LINE
  5
6BA
330
1F
100
AcDbEntity
  8
SK2
  6
CONTINUOUS
370
25
 62
7
100
AcDbLine
 10
35.47790956135785
 20
13.70442808772843
 30
0.0
 11
36.6519397075719
 21
12.53039794151438
 31
0.0
  0
LINE
  5
6BB
330
1F
100
AcDbEntity
  8
SK2
  6
CONTINUOUS
370
25
 62
7
100
AcDbLine
 10
36.00823964724776
 20
13.59836207055045
 30
0.0
 11
37.00549309816518
 21
12.60110861963303
 31
0.0
  0
LINE
  5
6BC
330
1F
100
AcDbEntity
  8
SK2
  6
CONTINUOUS
370
25
 62
7
100
AcDbLine
 10
36.53856973313767
 20
13.49229605337247
 30
0.0
 11
37.35904648875845
 21
12.67181929775169
 31
0.0
  0
LINE
  5
6BD
330
1F
100
AcDbEntity
  8
SK2
  6
CONTINUOUS
370
25
 62
7
100
AcDbLine
 10
37.06889981902758
 20
13.38623003619448
 30
0.0
 11
37.71259987935172
 21
12.74252997587034
 31
0.0
  0
LINE
  5
6BE
330
1F
100
AcDbEntity
  8
SK2
  6
CONTINUOUS
370
25
 62
7
100
AcDbLine
 10
37.59922990491749
 20
13.2801640190165
 30
0.0
 11
38.066153269945
 21
12.813240653989
 31
0.0
  0
LINE
  5
6BF
330
1F
100
AcDbEntity
  8
SK2
  6
CONTINUOUS
370
25
 62
7
100
AcDbLine
 10
38.1295599908074
 20
13.17409800183852
 30
0.0
 11
38.41970666053827
 21
12.88395133210765
 31
0.0
  0
LINE
  5
6C0
330
1F
100
AcDbEntity
  8
SK2
  6
CONTINUOUS
370
25
 62
7
100
AcDbLine
 10
38.65989007669732
 20
13.06803198466054
 30
0.0
 11
38.77326005113154
 21
12.95466201022631
 31
0.0
  0
TEXT
  5
6C1
330
1F
100
AcDbEntity
  8
SK2
  6
CONTINUOUS
370
25
 62
7
100
AcDbText
 10
16.58333333333333
 20
14.50001
 30
0.0
 40
3.5
  1
39
 72
     1
 11
19.5
 21
14.50001
 31
0.0
100
AcDbText
  0
LINE
  5
6C2
330
1F
100
AcDbEntity
  8
SK2
  6
CONTINUOUS
370
25
 62
7
100
AcDbLine
 10
-10.0000002
 20
-3.000001
 30
0.0
 11
-11.00000000000009
 21
-3.000001
 31
0.0
  0
LINE
  5
6C3
330
1F
100
AcDbEntity
  8
SK2
  6
CONTINUOUS
370
25
 62
7
100
AcDbLine
 10
0.0
 20
-3.000001
 30
0.0
 11
-9.999999800000001
 21
-3.000001
 31
0.0
  0
LINE
  5
6C4
330
1F
100
AcDbEntity
  8
SK2
  6
CONTINUOUS
370
25
 62
7
100
AcDbLine
 10
-11.0
 20
3.0
 30
0.0
 11
0.0
 21
3.0
 31
0.0
  0
LINE
  5
6C5
330
1F
100
AcDbEntity
  8
SK2
  6
CONTINUOUS
370
25
 62
7
100
AcDbLine
 10
-10.0
 20
-10.0
 30
0.0
 11
-10.0
 21
16.475
 31
0.0
  0
LINE
  5
6C6
330
1F
100
AcDbEntity
  8
SK2
  6
CONTINUOUS
370
25
 62
7
100
AcDbLine
 10
-10.0
 20
-3.0
 30
0.0
 11
-9.0
 21
-8.0
 31
0.0
  0
LINE
  5
6C7
330
1F
100
AcDbEntity
  8
SK2
  6
CONTINUOUS
370
25
 62
7
100
AcDbLine
 10
-9.0
 20
-8.0
 30
0.0
 11
-11.0
 21
-8.0
 31
0.0
  0
LINE
  5
6C8
330
1F
100
AcDbEntity
  8
SK2
  6
CONTINUOUS
370
25
 62
7
100
AcDbLine
 10
-11.0
 20
-8.0
 30
0.0
 11
-10.0
 21
-3.0
 31
0.0
  0
LINE
  5
6C9
330
1F
100
AcDbEntity
  8
SK2
  6
CONTINUOUS
370
25
 62
7
100
AcDbLine
 10
-9.30508652763318
 20
-8.0
 30
0.0
 11
-9.050847754605535
 21
-7.745761226972355
 31
0.0
  0
LINE
  5
6CA
330
1F
100
AcDbEntity
  8
SK2
  6
CONTINUOUS
370
25
 62
7
100
AcDbLine
 10
-9.729350596345114
 20
-8.0
 30
0.0
 11
-9.121558432724186
 21
-7.392207836379072
 31
0.0
  0
LINE
  5
6CB
330
1F
100
AcDbEntity
  8
SK2
  6
CONTINUOUS
370
25
 62
7
100
AcDbLine
 10
-10.15361466505704
 20
-8.0
 30
0.0
 11
-9.192269110842837
 21
-7.038654445785795
 31
0.0
  0
LINE
  5
6CC
330
1F
100
AcDbEntity
  8
SK2
  6
CONTINUOUS
370
25
 62
7
100
AcDbLine
 10
-10.57787873376898
 20
-8.0
 30
0.0
 11
-9.262979788961502
 21
-6.685101055192526
 31
0.0
  0
LINE
  5
6CD
330
1F
100
AcDbEntity
  8
SK2
  6
CONTINUOUS
370
25
 62
7
100
AcDbLine
 10
-10.99946429937977
 20
-7.99732149689887
 30
0.0
 11
-9.333690467080153
 21
-6.331547664599249
 31
0.0
  0
LINE
  5
6CE
330
1F
100
AcDbEntity
  8
SK2
  6
CONTINUOUS
370
25
 62
7
100
AcDbLine
 10
-10.89339828220179
 20
-7.466991411008962
 30
0.0
 11
-9.404401145198811
 21
-5.977994274005979
 31
0.0
  0
LINE
  5
6CF
330
1F
100
AcDbEntity
  8
SK2
  6
CONTINUOUS
370
25
 62
7
100
AcDbLine
 10
-10.78733226502381
 20
-6.936661325119047
 30
0.0
 11
-9.475111823317462
 21
-5.624440883412696
 31
0.0
  0
LINE
  5
6D0
330
1F
100
AcDbEntity
  8
SK2
  6
CONTINUOUS
370
25
 62
7
100
AcDbLine
 10
-10.68126624784583
 20
-6.406331239229125
 30
0.0
 11
-9.54582250143612
 21
-5.270887492819419
 31
0.0
  0
LINE
  5
6D1
330
1F
100
AcDbEntity
  8
SK2
  6
CONTINUOUS
370
25
 62
7
100
AcDbLine
 10
-10.57520023066785
 20
-5.876001153339217
 30
0.0
 11
-9.616533179554771
 21
-4.917334102226143
 31
0.0
  0
LINE
  5
6D2
330
1F
100
AcDbEntity
  8
SK2
  6
CONTINUOUS
370
25
 62
7
100
AcDbLine
 10
-10.46913421348987
 20
-5.34567106744931
 30
0.0
 11
-9.687243857673423
 21
-4.563780711632866
 31
0.0
  0
LINE
  5
6D3
330
1F
100
AcDbEntity
  8
SK2
  6
CONTINUOUS
370
25
 62
7
100
AcDbLine
 10
-10.36306819631189
 20
-4.815340981559395
 30
0.0
 11
-9.75795453579208
 21
-4.210227321039589
 31
0.0
  0
LINE
  5
6D4
330
1F
100
AcDbEntity
  8
SK2
  6
CONTINUOUS
370
25
 62
7
100
AcDbLine
 10
-10.2570021791339
 20
-4.285010895669473
 30
0.0
 11
-9.828665213910739
 21
-3.856673930446313
 31
0.0
  0
LINE
  5
6D5
330
1F
100
AcDbEntity
  8
SK2
  6
CONTINUOUS
370
25
 62
7
100
AcDbLine
 10
-10.15093616195592
 20
-3.754680809779565
 30
0.0
 11
-9.899375892029397
 21
-3.503120539853043
 31
0.0
  0
LINE
  5
6D6
330
1F
100
AcDbEntity
  8
SK2
  6
CONTINUOUS
370
25
 62
7
100
AcDbLine
 10
-10.04487014477793
 20
-3.22435072388965
 30
0.0
 11
-9.970086570148048
 21
-3.149567149259767
 31
0.0
  0
LINE
  5
6D7
330
1F
100
AcDbEntity
  8
SK2
  6
CONTINUOUS
370
25
 62
7
100
AcDbLine
 10
-10.99673080683644
 20
-7.983654034182216
 30
0.0
 11
-10.98038484101865
 21
-8.0
 31
0.0
  0
LINE
  5
6D8
330
1F
100
AcDbEntity
  8
SK2
  6
CONTINUOUS
370
25
 62
7
100
AcDbLine
 10
-10.92602012871779
 20
-7.630100643588939
 30
0.0
 11
-10.55612077230673
 21
-8.0
 31
0.0
  0
LINE
  5
6D9
330
1F
100
AcDbEntity
  8
SK2
  6
CONTINUOUS
370
25
 62
7
100
AcDbLine
 10
-10.85530945059913
 20
-7.27654725299567
 30
0.0
 11
-10.1318567035948
 21
-8.0
 31
0.0
  0
LINE
  5
6DA
330
1F
100
AcDbEntity
  8
SK2
  6
CONTINUOUS
370
25
 62
7
100
AcDbLine
 10
-10.78459877248048
 20
-6.922993862402393
 30
0.0
 11
-9.707592634882872
 21
-8.0
 31
0.0
  0
LINE
  5
6DB
330
1F
100
AcDbEntity
  8
SK2
  6
CONTINUOUS
370
25
 62
7
100
AcDbLine
 10
-10.71388809436181
 20
-6.569440471809123
 30
0.0
 11
-9.283328566170937
 21
-8.0
 31
0.0
  0
LINE
  5
6DC
330
1F
100
AcDbEntity
  8
SK2
  6
CONTINUOUS
370
25
 62
7
100
AcDbLine
 10
-10.64317741624317
 20
-6.215887081215833
 30
0.0
 11
-9.03523387563525
 21
-7.823830621823753
 31
0.0
  0
LINE
  5
6DD
330
1F
100
AcDbEntity
  8
SK2
  6
CONTINUOUS
370
25
 62
7
100
AcDbLine
 10
-10.57246673812451
 20
-5.862333690622563
 30
0.0
 11
-9.14129989281323
 21
-7.293500535933845
 31
0.0
  0
LINE
  5
6DE
330
1F
100
AcDbEntity
  8
SK2
  6
CONTINUOUS
370
25
 62
7
100
AcDbLine
 10
-10.50175606000585
 20
-5.508780300029287
 30
0.0
 11
-9.247365909991217
 21
-6.763170450043923
 31
0.0
  0
LINE
  5
6DF
330
1F
100
AcDbEntity
  8
SK2
  6
CONTINUOUS
370
25
 62
7
100
AcDbLine
 10
-10.4310453818872
 20
-5.15522690943601
 30
0.0
 11
-9.353431927169197
 21
-6.232840364154015
 31
0.0
  0
LINE
  5
6E0
330
1F
100
AcDbEntity
  8
SK2
  6
CONTINUOUS
370
25
 62
7
100
AcDbLine
 10
-10.36033470376855
 20
-4.801673518842726
 30
0.0
 11
-9.459497944347177
 21
-5.7025102782641
 31
0.0
  0
LINE
  5
6E1
330
1F
100
AcDbEntity
  8
SK2
  6
CONTINUOUS
370
25
 62
7
100
AcDbLine
 10
-10.28962402564989
 20
-4.448120128249457
 30
0.0
 11
-9.565563961525157
 21
-5.172180192374192
 31
0.0
  0
LINE
  5
6E2
330
1F
100
AcDbEntity
  8
SK2
  6
CONTINUOUS
370
25
 62
7
100
AcDbLine
 10
-10.21891334753124
 20
-4.094566737656173
 30
0.0
 11
-9.671629978703145
 21
-4.64185010648427
 31
0.0
  0
LINE
  5
6E3
330
1F
100
AcDbEntity
  8
SK2
  6
CONTINUOUS
370
25
 62
7
100
AcDbLine
 10
-10.14820266941259
 20
-3.741013347062889
 30
0.0
 11
-9.777695995881132
 21
-4.111520020594348
 31
0.0
  0
LINE
  5
6E4
330
1F
100
AcDbEntity
  8
SK2
  6
CONTINUOUS
370
25
 62
7
100
AcDbLine
 10
-10.07749199129393
 20
-3.387459956469627
 30
0.0
 11
-9.883762013059112
 21
-3.58118993470444
 31
0.0
  0
LINE
  5
6E5
330
1F
100
AcDbEntity
  8
SK2
  6
CONTINUOUS
370
25
 62
7
100
AcDbLine
 10
-10.00678131317527
 20
-3.033906565876343
 30
0.0
 11
-9.9898280302371
 21
-3.050859848814518
 31
0.0
  0
LINE
  5
6E6
330
1F
100
AcDbEntity
  8
SK2
  6
CONTINUOUS
370
25
 62
7
100
AcDbLine
 10
-10.0
 20
3.0
 30
0.0
 11
-11.0
 21
8.0
 31
0.0
  0
LINE
  5
6E7
330
1F
100
AcDbEntity
  8
SK2
  6
CONTINUOUS
370
25
 62
7
100
AcDbLine
 10
-11.0
 20
8.0
 30
0.0
 11
-9.0
 21
8.0
 31
0.0
  0
LINE
  5
6E8
330
1F
100
AcDbEntity
  8
SK2
  6
CONTINUOUS
370
25
 62
7
100
AcDbLine
 10
-9.0
 20
8.0
 30
0.0
 11
-10.0
 21
3.0
 31
0.0
  0
LINE
  5
6E9
330
1F
100
AcDbEntity
  8
SK2
  6
CONTINUOUS
370
25
 62
7
100
AcDbLine
 10
-10.03074674192786
 20
3.153733709639319
 30
0.0
 11
-9.953879887108208
 21
3.230600564458975
 31
0.0
  0
LINE
  5
6EA
330
1F
100
AcDbEntity
  8
SK2
  6
CONTINUOUS
370
25
 62
7
100
AcDbLine
 10
-10.10145742004652
 20
3.507287100232588
 30
0.0
 11
-9.847813869930228
 21
3.760930650348882
 31
0.0
  0
LINE
  5
6EB
330
1F
100
AcDbEntity
  8
SK2
  6
CONTINUOUS
370
25
 62
7
100
AcDbLine
 10
-10.17216809816517
 20
3.860840490825872
 30
0.0
 11
-9.74174785275224
 21
4.291260736238804
 31
0.0
  0
LINE
  5
6EC
330
1F
100
AcDbEntity
  8
SK2
  6
CONTINUOUS
370
25
 62
7
100
AcDbLine
 10
-10.24287877628382
 20
4.214393881419149
 30
0.0
 11
-9.63568183557426
 21
4.821590822128712
 31
0.0
  0
LINE
  5
6ED
330
1F
100
AcDbEntity
  8
SK2
  6
CONTINUOUS
370
25
 62
7
100
AcDbLine
 10
-10.31358945440248
 20
4.567947272012425
 30
0.0
 11
-9.52961581839628
 21
5.351920908018627
 31
0.0
  0
LINE
  5
6EE
330
1F
100
AcDbEntity
  8
SK2
  6
CONTINUOUS
370
25
 62
7
100
AcDbLine
 10
-10.38430013252113
 20
4.921500662605695
 30
0.0
 11
-9.4235498012183
 21
5.882250993908528
 31
0.0
  0
LINE
  5
6EF
330
1F
100
AcDbEntity
  8
SK2
  6
CONTINUOUS
370
25
 62
7
100
AcDbLine
 10
-10.45501081063979
 20
5.275054053198978
 30
0.0
 11
-9.317483784040299
 21
6.412581079798471
 31
0.0
  0
LINE
  5
6F0
330
1F
100
AcDbEntity
  8
SK2
  6
CONTINUOUS
370
25
 62
7
100
AcDbLine
 10
-10.52572148875846
 20
5.628607443792241
 30
0.0
 11
-9.211417766862319
 21
6.942911165688379
 31
0.0
  0
LINE
  5
6F1
330
1F
100
AcDbEntity
  8
SK2
  6
CONTINUOUS
370
25
 62
7
100
AcDbLine
 10
-10.59643216687711
 20
5.982160834385525
 30
0.0
 11
-9.105351749684331
 21
7.473241251578301
 31
0.0
  0
LINE
  5
6F2
330
1F
100
AcDbEntity
  8
SK2
  6
CONTINUOUS
370
25
 62
7
100
AcDbLine
 10
-10.66714284499577
 20
6.335714224978801
 30
0.0
 11
-9.002857069974567
 21
8.0
 31
0.0
  0
LINE
  5
6F3
330
1F
100
AcDbEntity
  8
SK2
  6
CONTINUOUS
370
25
 62
7
100
AcDbLine
 10
-10.73785352311442
 20
6.689267615572071
 30
0.0
 11
-9.427121138686488
 21
8.0
 31
0.0
  0
LINE
  5
6F4
330
1F
100
AcDbEntity
  8
SK2
  6
CONTINUOUS
370
25
 62
7
100
AcDbLine
 10
-10.80856420123307
 20
7.042821006165354
 30
0.0
 11
-9.851385207398422
 21
8.0
 31
0.0
  0
LINE
  5
6F5
330
1F
100
AcDbEntity
  8
SK2
  6
CONTINUOUS
370
25
 62
7
100
AcDbLine
 10
-10.87927487935173
 20
7.396374396758624
 30
0.0
 11
-10.27564927611035
 21
8.0
 31
0.0
  0
LINE
  5
6F6
330
1F
100
AcDbEntity
  8
SK2
  6
CONTINUOUS
370
25
 62
7
100
AcDbLine
 10
-10.94998555747038
 20
7.749927787351908
 30
0.0
 11
-10.69991334482228
 21
8.0
 31
0.0
  0
LINE
  5
6F7
330
1F
100
AcDbEntity
  8
SK2
  6
CONTINUOUS
370
25
 62
7
100
AcDbLine
 10
-10.06538539465174
 20
3.326926973258736
 30
0.0
 11
-9.956409736898834
 21
3.217951315505829
 31
0.0
  0
LINE
  5
6F8
330
1F
100
AcDbEntity
  8
SK2
  6
CONTINUOUS
370
25
 62
7
100
AcDbLine
 10
-10.17145141182973
 20
3.857257059148665
 30
0.0
 11
-9.885699058780183
 21
3.57150470609912
 31
0.0
  0
LINE
  5
6F9
330
1F
100
AcDbEntity
  8
SK2
  6
CONTINUOUS
370
25
 62
7
100
AcDbLine
 10
-10.27751742900772
 20
4.387587145038587
 30
0.0
 11
-9.814988380661518
 21
3.925058096692389
 31
0.0
  0
LINE
  5
6FA
330
1F
100
AcDbEntity
  8
SK2
  6
CONTINUOUS
370
25
 62
7
100
AcDbLine
 10
-10.3835834461857
 20
4.917917230928495
 30
0.0
 11
-9.744277702542867
 21
4.278611487285666
 31
0.0
  0
LINE
  5
6FB
330
1F
100
AcDbEntity
  8
SK2
  6
CONTINUOUS
370
25
 62
7
100
AcDbLine
 10
-10.48964946336368
 20
5.448247316818403
 30
0.0
 11
-9.673567024424216
 21
4.632164877878942
 31
0.0
  0
LINE
  5
6FC
330
1F
100
AcDbEntity
  8
SK2
  6
CONTINUOUS
370
25
 62
7
100
AcDbLine
 10
-10.59571548054166
 20
5.978577402708325
 30
0.0
 11
-9.60285634630555
 21
4.985718268472212
 31
0.0
  0
LINE
  5
6FD
330
1F
100
AcDbEntity
  8
SK2
  6
CONTINUOUS
370
25
 62
7
100
AcDbLine
 10
-10.70178149771965
 20
6.508907488598247
 30
0.0
 11
-9.5321456681869
 21
5.339271659065496
 31
0.0
  0
LINE
  5
6FE
330
1F
100
AcDbEntity
  8
SK2
  6
CONTINUOUS
370
25
 62
7
100
AcDbLine
 10
-10.80784751489763
 20
7.039237574488148
 30
0.0
 11
-9.461434990068241
 21
5.692825049658758
 31
0.0
  0
LINE
  5
6FF
330
1F
100
AcDbEntity
  8
SK2
  6
CONTINUOUS
370
25
 62
7
100
AcDbLine
 10
-10.91391353207561
 20
7.569567660378056
 30
0.0
 11
-9.39072431194959
 21
6.046378440252035
 31
0.0
  0
LINE
  5
700
330
1F
100
AcDbEntity
  8
SK2
  6
CONTINUOUS
370
25
 62
7
100
AcDbLine
 10
-10.92008180298562
 20
8.0
 30
0.0
 11
-9.32001363383094
 21
6.399931830845318
 31
0.0
  0
LINE
  5
701
330
1F
100
AcDbEntity
  8
SK2
  6
CONTINUOUS
370
25
 62
7
100
AcDbLine
 10
-10.49581773427369
 20
8.0
 30
0.0
 11
-9.249302955712274
 21
6.753485221438588
 31
0.0
  0
LINE
  5
702
330
1F
100
AcDbEntity
  8
SK2
  6
CONTINUOUS
370
25
 62
7
100
AcDbLine
 10
-10.07155366556176
 20
8.0
 30
0.0
 11
-9.178592277593623
 21
7.107038612031864
 31
0.0
  0
LINE
  5
703
330
1F
100
AcDbEntity
  8
SK2
  6
CONTINUOUS
370
25
 62
7
100
AcDbLine
 10
-9.647289596849824
 20
8.0
 30
0.0
 11
-9.107881599474972
 21
7.460592002625148
 31
0.0
  0
LINE
  5
704
330
1F
100
AcDbEntity
  8
SK2
  6
CONTINUOUS
370
25
 62
7
100
AcDbLine
 10
-9.223025528137889
 20
8.0
 30
0.0
 11
-9.03717092135632
 21
7.814145393218432
 31
0.0
  0
TEXT
  5
705
330
1F
100
AcDbEntity
  8
SK2
  6
CONTINUOUS
370
25
 62
7
100
AcDbText
 10
-11.5
 20
13.34583333333333
 30
0.0
 40
3.5
  1
6
 50
90.00000000000001
 72
     1
 11
-11.5
 21
14.5125
 31
0.0
100
AcDbText
  0
CIRCLE
  5
706
330
1F
100
AcDbEntity
  8
SK2
  6
CONTINUOUS
370
25
 62
7
100
AcDbCircle
 10
-13.25
 20
11.1875
 30
0.0
 40
1.4
  0
LINE
  5
707
330
1F
100
AcDbEntity
  8
SK2
  6
CONTINUOUS
370
25
 62
7
100
AcDbLine
 10
-11.85
 20
9.787500000000001
 30
0.0
 11
-14.65
 21
12.5875
 31
0.0
  0
LINE
  5
708
330
1F
100
AcDbEntity
  8
2
  6
CONTINUOUS
370
25
 62
7
100
AcDbLine
 10
51.0
 20
-3.0
 30
0.0
 11
71.0
 21
-3.000000000000003
 31
0.0
  0
LINE
  5
709
330
1F
100
AcDbEntity
  8
2
  6
CONTINUOUS
370
25
 62
7
100
AcDbLine
 10
71.0
 20
2.999999999999997
 30
0.0
 11
51.0
 21
3.0
 31
0.0
  0
LINE
  5
70A
330
1F
100
AcDbEntity
  8
2
  6
CONTINUOUS
370
25
 62
7
100
AcDbLine
 10
70.0
 20
-10.0
 30
0.0
 11
70.0
 21
16.475
 31
0.0
  0
LINE
  5
70B
330
1F
100
AcDbEntity
  8
2
  6
CONTINUOUS
370
25
 62
7
100
AcDbLine
 10
70.0
 20
-3.000000000000003
 30
0.0
 11
71.0
 21
-8.000000000000004
 31
0.0
  0
LINE
  5
70C
330
1F
100
AcDbEntity
  8
2
  6
CONTINUOUS
370
25
 62
7
100
AcDbLine
 10
71.0
 20
-8.000000000000004
 30
0.0
 11
69.0
 21
-8.000000000000004
 31
0.0
  0
LINE
  5
70D
330
1F
100
AcDbEntity
  8
2
  6
CONTINUOUS
370
25
 62
7
100
AcDbLine
 10
69.0
 20
-8.000000000000004
 30
0.0
 11
70.0
 21
-3.000000000000003
 31
0.0
  0
LINE
  5
70E
330
1F
100
AcDbEntity
  8
2
  6
CONTINUOUS
370
25
 62
7
100
AcDbLine
 10
70.79947572691962
 20
-8.000000000000004
 30
0.0
 11
70.96657928781994
 21
-7.832896439099692
 31
0.0
  0
LINE
  5
70F
330
1F
100
AcDbEntity
  8
2
  6
CONTINUOUS
370
25
 62
7
100
AcDbLine
 10
70.3752116582077
 20
-8.000000000000004
 30
0.0
 11
70.89586860970128
 21
-7.479343048506422
 31
0.0
  0
LINE
  5
710
330
1F
100
AcDbEntity
  8
2
  6
CONTINUOUS
370
25
 62
7
100
AcDbLine
 10
69.95094758949577
 20
-8.000000000000004
 30
0.0
 11
70.82515793158262
 21
-7.125789657913149
 31
0.0
  0
LINE
  5
711
330
1F
100
AcDbEntity
  8
2
  6
CONTINUOUS
370
25
 62
7
100
AcDbLine
 10
69.52668352078385
 20
-8.000000000000004
 30
0.0
 11
70.75444725346398
 21
-6.772236267319865
 31
0.0
  0
LINE
  5
712
330
1F
100
AcDbEntity
  8
2
  6
CONTINUOUS
370
25
 62
7
100
AcDbLine
 10
69.10241945207191
 20
-8.000000000000004
 30
0.0
 11
70.68373657534532
 21
-6.418682876726592
 31
0.0
  0
LINE
  5
713
330
1F
100
AcDbEntity
  8
2
  6
CONTINUOUS
370
25
 62
7
100
AcDbLine
 10
69.08046115416
 20
-7.597694229199991
 30
0.0
 11
70.61302589722666
 21
-6.065129486133319
 31
0.0
  0
LINE
  5
714
330
1F
100
AcDbEntity
  8
2
  6
CONTINUOUS
370
25
 62
7
100
AcDbLine
 10
69.18652717133799
 20
-7.067364143310069
 30
0.0
 11
70.542315219108
 21
-5.711576095540046
 31
0.0
  0
LINE
  5
715
330
1F
100
AcDbEntity
  8
2
  6
CONTINUOUS
370
25
 62
7
100
AcDbLine
 10
69.29259318851597
 20
-6.537034057420161
 30
0.0
 11
70.47160454098936
 21
-5.358022704946769
 31
0.0
  0
LINE
  5
716
330
1F
100
AcDbEntity
  8
2
  6
CONTINUOUS
370
25
 62
7
100
AcDbLine
 10
69.39865920569395
 20
-6.006703971530246
 30
0.0
 11
70.4008938628707
 21
-5.004469314353493
 31
0.0
  0
LINE
  5
717
330
1F
100
AcDbEntity
  8
2
  6
CONTINUOUS
370
25
 62
7
100
AcDbLine
 10
69.50472522287194
 20
-5.476373885640335
 30
0.0
 11
70.33018318475204
 21
-4.65091592376022
 31
0.0
  0
LINE
  5
718
330
1F
100
AcDbEntity
  8
2
  6
CONTINUOUS
370
25
 62
7
100
AcDbLine
 10
69.61079124004992
 20
-4.946043799750417
 30
0.0
 11
70.25947250663339
 21
-4.297362533166943
 31
0.0
  0
LINE
  5
719
330
1F
100
AcDbEntity
  8
2
  6
CONTINUOUS
370
25
 62
7
100
AcDbLine
 10
69.7168572572279
 20
-4.415713713860505
 30
0.0
 11
70.18876182851474
 21
-3.943809142573667
 31
0.0
  0
LINE
  5
71A
330
1F
100
AcDbEntity
  8
2
  6
CONTINUOUS
370
25
 62
7
100
AcDbLine
 10
69.82292327440588
 20
-3.885383627970587
 30
0.0
 11
70.11805115039607
 21
-3.590255751980393
 31
0.0
  0
LINE
  5
71B
330
1F
100
AcDbEntity
  8
2
  6
CONTINUOUS
370
25
 62
7
100
AcDbLine
 10
69.92898929158386
 20
-3.355053542080668
 30
0.0
 11
70.04734047227743
 21
-3.236702361387113
 31
0.0
  0
LINE
  5
71C
330
1F
100
AcDbEntity
  8
2
  6
CONTINUOUS
370
25
 62
7
100
AcDbLine
 10
69.0102885955034
 20
-7.948557022483055
 30
0.0
 11
69.06173157302034
 21
-8.000000000000004
 31
0.0
  0
LINE
  5
71D
330
1F
100
AcDbEntity
  8
2
  6
CONTINUOUS
370
25
 62
7
100
AcDbLine
 10
69.08099927362204
 20
-7.595003631889778
 30
0.0
 11
69.48599564173227
 21
-8.000000000000004
 31
0.0
  0
LINE
  5
71E
330
1F
100
AcDbEntity
  8
2
  6
CONTINUOUS
370
25
 62
7
100
AcDbLine
 10
69.1517099517407
 20
-7.241450241296505
 30
0.0
 11
69.9102597104442
 21
-8.000000000000004
 31
0.0
  0
LINE
  5
71F
330
1F
100
AcDbEntity
  8
2
  6
CONTINUOUS
370
25
 62
7
100
AcDbLine
 10
69.22242062985936
 20
-6.887896850703235
 30
0.0
 11
70.33452377915613
 21
-8.000000000000004
 31
0.0
  0
LINE
  5
720
330
1F
100
AcDbEntity
  8
2
  6
CONTINUOUS
370
25
 62
7
100
AcDbLine
 10
69.293131307978
 20
-6.534343460109955
 30
0.0
 11
70.75878784786806
 21
-8.000000000000004
 31
0.0
  0
LINE
  5
721
330
1F
100
AcDbEntity
  8
2
  6
CONTINUOUS
370
25
 62
7
100
AcDbLine
 10
69.36384198609667
 20
-6.180790069516682
 30
0.0
 11
70.954237020855
 21
-7.771185104275006
 31
0.0
  0
LINE
  5
722
330
1F
100
AcDbEntity
  8
2
  6
CONTINUOUS
370
25
 62
7
100
AcDbLine
 10
69.43455266421532
 20
-5.827236678923406
 30
0.0
 11
70.84817100367702
 21
-7.240855018385098
 31
0.0
  0
LINE
  5
723
330
1F
100
AcDbEntity
  8
2
  6
CONTINUOUS
370
25
 62
7
100
AcDbLine
 10
69.50526334233398
 20
-5.473683288330133
 30
0.0
 11
70.74210498649904
 21
-6.71052493249519
 31
0.0
  0
LINE
  5
724
330
1F
100
AcDbEntity
  8
2
  6
CONTINUOUS
370
25
 62
7
100
AcDbLine
 10
69.57597402045263
 20
-5.120129897736856
 30
0.0
 11
70.63603896932105
 21
-6.180194846605279
 31
0.0
  0
LINE
  5
725
330
1F
100
AcDbEntity
  8
2
  6
CONTINUOUS
370
25
 62
7
100
AcDbLine
 10
69.64668469857128
 20
-4.766576507143583
 30
0.0
 11
70.52997295214308
 21
-5.649864760715374
 31
0.0
  0
LINE
  5
726
330
1F
100
AcDbEntity
  8
2
  6
CONTINUOUS
370
25
 62
7
100
AcDbLine
 10
69.71739537668994
 20
-4.413023116550313
 30
0.0
 11
70.42390693496509
 21
-5.119534674825459
 31
0.0
  0
LINE
  5
727
330
1F
100
AcDbEntity
  8
2
  6
CONTINUOUS
370
25
 62
7
100
AcDbLine
 10
69.7881060548086
 20
-4.05946972595704
 30
0.0
 11
70.31784091778711
 21
-4.589204588935551
 31
0.0
  0
LINE
  5
728
330
1F
100
AcDbEntity
  8
2
  6
CONTINUOUS
370
25
 62
7
100
AcDbLine
 10
69.85881673292724
 20
-3.705916335363757
 30
0.0
 11
70.21177490060913
 21
-4.058874503045637
 31
0.0
  0
LINE
  5
729
330
1F
100
AcDbEntity
  8
2
  6
CONTINUOUS
370
25
 62
7
100
AcDbLine
 10
69.92952741104591
 20
-3.352362944770487
 30
0.0
 11
70.10570888343115
 21
-3.528544417155729
 31
0.0
  0
LINE
  5
72A
330
1F
100
AcDbEntity
  8
2
  6
CONTINUOUS
370
25
 62
7
100
AcDbLine
 10
70.0
 20
2.999999999999997
 30
0.0
 11
69.0
 21
7.999999999999997
 31
0.0
  0
LINE
  5
72B
330
1F
100
AcDbEntity
  8
2
  6
CONTINUOUS
370
25
 62
7
100
AcDbLine
 10
69.0
 20
7.999999999999997
 30
0.0
 11
71.0
 21
7.999999999999997
 31
0.0
  0
LINE
  5
72C
330
1F
100
AcDbEntity
  8
2
  6
CONTINUOUS
370
25
 62
7
100
AcDbLine
 10
71.0
 20
7.999999999999997
 30
0.0
 11
70.0
 21
2.999999999999997
 31
0.0
  0
LINE
  5
72D
330
1F
100
AcDbEntity
  8
2
  6
CONTINUOUS
370
25
 62
7
100
AcDbLine
 10
69.996968896001
 20
3.015155519995066
 30
0.0
 11
70.00454665599852
 21
3.022733279992597
 31
0.0
  0
LINE
  5
72E
330
1F
100
AcDbEntity
  8
2
  6
CONTINUOUS
370
25
 62
7
100
AcDbLine
 10
69.92625821788234
 20
3.368708910588335
 30
0.0
 11
70.1106126731765
 21
3.553063365882508
 31
0.0
  0
LINE
  5
72F
330
1F
100
AcDbEntity
  8
2
  6
CONTINUOUS
370
25
 62
7
100
AcDbLine
 10
69.85554753976368
 20
3.722262301181612
 30
0.0
 11
70.21667869035448
 21
4.08339345177242
 31
0.0
  0
LINE
  5
730
330
1F
100
AcDbEntity
  8
2
  6
CONTINUOUS
370
25
 62
7
100
AcDbLine
 10
69.78483686164502
 20
4.075815691774881
 30
0.0
 11
70.32274470753246
 21
4.613723537662331
 31
0.0
  0
LINE
  5
731
330
1F
100
AcDbEntity
  8
2
  6
CONTINUOUS
370
25
 62
7
100
AcDbLine
 10
69.71412618352636
 20
4.429369082368162
 30
0.0
 11
70.42881072471044
 21
5.144053623552242
 31
0.0
  0
LINE
  5
732
330
1F
100
AcDbEntity
  8
2
  6
CONTINUOUS
370
25
 62
7
100
AcDbLine
 10
69.64341550540772
 20
4.782922472961438
 30
0.0
 11
70.53487674188844
 21
5.674383709442161
 31
0.0
  0
LINE
  5
733
330
1F
100
AcDbEntity
  8
2
  6
CONTINUOUS
370
25
 62
7
100
AcDbLine
 10
69.57270482728906
 20
5.136475863554708
 30
0.0
 11
70.64094275906642
 21
6.204713795332072
 31
0.0
  0
LINE
  5
734
330
1F
100
AcDbEntity
  8
2
  6
CONTINUOUS
370
25
 62
7
100
AcDbLine
 10
69.5019941491704
 20
5.490029254147981
 30
0.0
 11
70.7470087762444
 21
6.735043881221983
 31
0.0
  0
LINE
  5
735
330
1F
100
AcDbEntity
  8
2
  6
CONTINUOUS
370
25
 62
7
100
AcDbLine
 10
69.43128347105174
 20
5.843582644741257
 30
0.0
 11
70.85307479342238
 21
7.265373967111902
 31
0.0
  0
LINE
  5
736
330
1F
100
AcDbEntity
  8
2
  6
CONTINUOUS
370
25
 62
7
100
AcDbLine
 10
69.36057279293308
 20
6.197136035334537
 30
0.0
 11
70.95914081060036
 21
7.79570405300182
 31
0.0
  0
LINE
  5
737
330
1F
100
AcDbEntity
  8
2
  6
CONTINUOUS
370
25
 62
7
100
AcDbLine
 10
69.28986211481444
 20
6.550689425927811
 30
0.0
 11
70.73917268888661
 21
7.999999999999996
 31
0.0
  0
LINE
  5
738
330
1F
100
AcDbEntity
  8
2
  6
CONTINUOUS
370
25
 62
7
100
AcDbLine
 10
69.21915143669578
 20
6.904242816521087
 30
0.0
 11
70.31490862017469
 21
7.999999999999996
 31
0.0
  0
LINE
  5
739
330
1F
100
AcDbEntity
  8
2
  6
CONTINUOUS
370
25
 62
7
100
AcDbLine
 10
69.14844075857712
 20
7.257796207114364
 30
0.0
 11
69.89064455146276
 21
7.999999999999996
 31
0.0
  0
LINE
  5
73A
330
1F
100
AcDbEntity
  8
2
  6
CONTINUOUS
370
25
 62
7
100
AcDbLine
 10
69.07773008045848
 20
7.61134959770764
 30
0.0
 11
69.46638048275082
 21
7.999999999999996
 31
0.0
  0
LINE
  5
73B
330
1F
100
AcDbEntity
  8
2
  6
CONTINUOUS
370
25
 62
7
100
AcDbLine
 10
69.00701940233981
 20
7.96490298830091
 30
0.0
 11
69.0421164140389
 21
7.999999999999996
 31
0.0
  0
LINE
  5
73C
330
1F
100
AcDbEntity
  8
2
  6
CONTINUOUS
370
25
 62
7
100
AcDbLine
 10
69.90865260858342
 20
3.456736957082832
 30
0.0
 11
70.06089826094438
 21
3.304491304721882
 31
0.0
  0
LINE
  5
73D
330
1F
100
AcDbEntity
  8
2
  6
CONTINUOUS
370
25
 62
7
100
AcDbLine
 10
69.80258659140546
 20
3.987067042972747
 30
0.0
 11
70.13160893906303
 21
3.658044695315166
 31
0.0
  0
LINE
  5
73E
330
1F
100
AcDbEntity
  8
2
  6
CONTINUOUS
370
25
 62
7
100
AcDbLine
 10
69.69652057422746
 20
4.517397128862651
 30
0.0
 11
70.20231961718169
 21
4.011598085908435
 31
0.0
  0
LINE
  5
73F
330
1F
100
AcDbEntity
  8
2
  6
CONTINUOUS
370
25
 62
7
100
AcDbLine
 10
69.59045455704948
 20
5.047727214752566
 30
0.0
 11
70.27303029530034
 21
4.365151476501715
 31
0.0
  0
LINE
  5
740
330
1F
100
AcDbEntity
  8
2
  6
CONTINUOUS
370
25
 62
7
100
AcDbLine
 10
69.4843885398715
 20
5.578057300642477
 30
0.0
 11
70.343740973419
 21
4.718704867094988
 31
0.0
  0
LINE
  5
741
330
1F
100
AcDbEntity
  8
2
  6
CONTINUOUS
370
25
 62
7
100
AcDbLine
 10
69.37832252269352
 20
6.108387386532378
 30
0.0
 11
70.41445165153765
 21
5.072258257688262
 31
0.0
  0
LINE
  5
742
330
1F
100
AcDbEntity
  8
2
  6
CONTINUOUS
370
25
 62
7
100
AcDbLine
 10
69.27225650551554
 20
6.638717472422293
 30
0.0
 11
70.4851623296563
 21
5.425811648281531
 31
0.0
  0
LINE
  5
743
330
1F
100
AcDbEntity
  8
2
  6
CONTINUOUS
370
25
 62
7
100
AcDbLine
 10
69.16619048833756
 20
7.169047558312201
 30
0.0
 11
70.55587300777496
 21
5.779365038874808
 31
0.0
  0
LINE
  5
744
330
1F
100
AcDbEntity
  8
2
  6
CONTINUOUS
370
25
 62
7
100
AcDbLine
 10
69.06012447115958
 20
7.699377644202116
 30
0.0
 11
70.62658368589362
 21
6.132918429468081
 31
0.0
  0
LINE
  5
745
330
1F
100
AcDbEntity
  8
2
  6
CONTINUOUS
370
25
 62
7
100
AcDbLine
 10
69.18376618407362
 20
7.999999999999996
 30
0.0
 11
70.69729436401227
 21
6.486471820061361
 31
0.0
  0
LINE
  5
746
330
1F
100
AcDbEntity
  8
2
  6
CONTINUOUS
370
25
 62
7
100
AcDbLine
 10
69.60803025278555
 20
7.999999999999996
 30
0.0
 11
70.76800504213092
 21
6.840025210654627
 31
0.0
  0
LINE
  5
747
330
1F
100
AcDbEntity
  8
2
  6
CONTINUOUS
370
25
 62
7
100
AcDbLine
 10
70.03229432149749
 20
7.999999999999996
 30
0.0
 11
70.83871572024958
 21
7.193578601247903
 31
0.0
  0
LINE
  5
748
330
1F
100
AcDbEntity
  8
2
  6
CONTINUOUS
370
25
 62
7
100
AcDbLine
 10
70.45655839020941
 20
7.999999999999996
 30
0.0
 11
70.90942639836824
 21
7.54713199184118
 31
0.0
  0
LINE
  5
749
330
1F
100
AcDbEntity
  8
2
  6
CONTINUOUS
370
25
 62
7
100
AcDbLine
 10
70.88082245892134
 20
7.999999999999996
 30
0.0
 11
70.98013707648688
 21
7.900685382434457
 31
0.0
  0
TEXT
  5
74A
330
1F
100
AcDbEntity
  8
2
  6
CONTINUOUS
370
25
 62
7
100
AcDbText
 10
68.5
 20
13.34583333333333
 30
0.0
 40
3.5
  1
6
 50
90.00000000000001
 72
     1
 11
68.5
 21
14.5125
 31
0.0
100
AcDbText
  0
CIRCLE
  5
74B
330
1F
100
AcDbEntity
  8
2
  6
CONTINUOUS
370
25
 62
7
100
AcDbCircle
 10
66.75
 20
11.1875
 30
0.0
 40
1.4
  0
LINE
  5
74C
330
1F
100
AcDbEntity
  8
2
  6
CONTINUOUS
370
25
 62
7
100
AcDbLine
 10
68.15
 20
9.787499999999998
 30
0.0
 11
65.35
 21
12.5875
 31
0.0
  0
LINE
  5
74D
330
1F
100
AcDbEntity
  8
2
  6
CONTINUOUS
370
25
 62
7
100
AcDbLine
 10
45.0
 20
-2.49995
 30
0.0
 11
42.0
 21
-2.49995
 31
0.0
  0
LINE
  5
74E
330
1F
100
AcDbEntity
  8
2
  6
CONTINUOUS
370
25
 62
7
100
AcDbLine
 10
42.0
 20
2.499950000000001
 30
0.0
 11
45.0
 21
2.49995
 31
0.0
  0
LINE
  5
74F
330
1F
100
AcDbEntity
  8
2
  6
CONTINUOUS
370
25
 62
7
100
AcDbLine
 10
43.0
 20
-9.49995
 30
0.0
 11
43.0
 21
15.97495
 31
0.0
  0
LINE
  5
750
330
1F
100
AcDbEntity
  8
2
  6
CONTINUOUS
370
25
 62
7
100
AcDbLine
 10
43.0
 20
-2.49995
 30
0.0
 11
44.0
 21
-7.49995
 31
0.0
  0
LINE
  5
751
330
1F
100
AcDbEntity
  8
2
  6
CONTINUOUS
370
25
 62
7
100
AcDbLine
 10
44.0
 20
-7.49995
 30
0.0
 11
42.0
 21
-7.49995
 31
0.0
  0
LINE
  5
752
330
1F
100
AcDbEntity
  8
2
  6
CONTINUOUS
370
25
 62
7
100
AcDbLine
 10
42.0
 20
-7.49995
 30
0.0
 11
43.0
 21
-2.49995
 31
0.0
  0
LINE
  5
753
330
1F
100
AcDbEntity
  8
2
  6
CONTINUOUS
370
25
 62
7
100
AcDbLine
 10
43.87659019319497
 20
-7.49995
 30
0.0
 11
43.97943169886583
 21
-7.397108494329141
 31
0.0
  0
LINE
  5
754
330
1F
100
AcDbEntity
  8
2
  6
CONTINUOUS
370
25
 62
7
100
AcDbLine
 10
43.45232612448304
 20
-7.49995
 30
0.0
 11
43.90872102074717
 21
-7.043555103735865
 31
0.0
  0
LINE
  5
755
330
1F
100
AcDbEntity
  8
2
  6
CONTINUOUS
370
25
 62
7
100
AcDbLine
 10
43.02806205577111
 20
-7.49995
 30
0.0
 11
43.83801034262852
 21
-6.690001713142593
 31
0.0
  0
LINE
  5
756
330
1F
100
AcDbEntity
  8
2
  6
CONTINUOUS
370
25
 62
7
100
AcDbLine
 10
42.60379798705918
 20
-7.49995
 30
0.0
 11
43.76729966450986
 21
-6.33644832254932
 31
0.0
  0
LINE
  5
757
330
1F
100
AcDbEntity
  8
2
  6
CONTINUOUS
370
25
 62
7
100
AcDbLine
 10
42.17953391834725
 20
-7.49995
 30
0.0
 11
43.69658898639121
 21
-5.982894931956046
 31
0.0
  0
LINE
  5
758
330
1F
100
AcDbEntity
  8
2
  6
CONTINUOUS
370
25
 62
7
100
AcDbLine
 10
42.06118253759116
 20
-7.194037312044161
 30
0.0
 11
43.62587830827255
 21
-5.629341541362773
 31
0.0
  0
LINE
  5
759
330
1F
100
AcDbEntity
  8
2
  6
CONTINUOUS
370
25
 62
7
100
AcDbLine
 10
42.16724855476915
 20
-6.66370722615425
 30
0.0
 11
43.5551676301539
 21
-5.275788150769499
 31
0.0
  0
LINE
  5
75A
330
1F
100
AcDbEntity
  8
2
  6
CONTINUOUS
370
25
 62
7
100
AcDbLine
 10
42.27331457194713
 20
-6.13337714026434
 30
0.0
 11
43.48445695203525
 21
-4.922234760176226
 31
0.0
  0
LINE
  5
75B
330
1F
100
AcDbEntity
  8
2
  6
CONTINUOUS
370
25
 62
7
100
AcDbLine
 10
42.37938058912511
 20
-5.60304705437443
 30
0.0
 11
43.41374627391659
 21
-4.568681369582953
 31
0.0
  0
LINE
  5
75C
330
1F
100
AcDbEntity
  8
2
  6
CONTINUOUS
370
25
 62
7
100
AcDbLine
 10
42.48544660630309
 20
-5.072716968484521
 30
0.0
 11
43.34303559579794
 21
-4.21512797898968
 31
0.0
  0
LINE
  5
75D
330
1F
100
AcDbEntity
  8
2
  6
CONTINUOUS
370
25
 62
7
100
AcDbLine
 10
42.59151262348108
 20
-4.542386882594608
 30
0.0
 11
43.27232491767928
 21
-3.861574588396405
 31
0.0
  0
LINE
  5
75E
330
1F
100
AcDbEntity
  8
2
  6
CONTINUOUS
370
25
 62
7
100
AcDbLine
 10
42.69757864065906
 20
-4.0120567967047
 30
0.0
 11
43.20161423956063
 21
-3.508021197803133
 31
0.0
  0
LINE
  5
75F
330
1F
100
AcDbEntity
  8
2
  6
CONTINUOUS
370
25
 62
7
100
AcDbLine
 10
42.80364465783704
 20
-3.481726710814789
 30
0.0
 11
43.13090356144197
 21
-3.154467807209859
 31
0.0
  0
LINE
  5
760
330
1F
100
AcDbEntity
  8
2
  6
CONTINUOUS
370
25
 62
7
100
AcDbLine
 10
42.90971067501502
 20
-2.95139662492488
 30
0.0
 11
43.06019288332332
 21
-2.800914416616586
 31
0.0
  0
LINE
  5
761
330
1F
100
AcDbEntity
  8
2
  6
CONTINUOUS
370
25
 62
7
100
AcDbLine
 10
42.01039875021306
 20
-7.447956248934681
 30
0.0
 11
42.06239250127838
 21
-7.49995
 31
0.0
  0
LINE
  5
762
330
1F
100
AcDbEntity
  8
2
  6
CONTINUOUS
370
25
 62
7
100
AcDbLine
 10
42.08110942833171
 20
-7.094402858341409
 30
0.0
 11
42.48665656999031
 21
-7.49995
 31
0.0
  0
LINE
  5
763
330
1F
100
AcDbEntity
  8
2
  6
CONTINUOUS
370
25
 62
7
100
AcDbLine
 10
42.15182010645037
 20
-6.740849467748136
 30
0.0
 11
42.91092063870224
 21
-7.49995
 31
0.0
  0
LINE
  5
764
330
1F
100
AcDbEntity
  8
2
  6
CONTINUOUS
370
25
 62
7
100
AcDbLine
 10
42.22253078456903
 20
-6.387296077154863
 30
0.0
 11
43.33518470741416
 21
-7.49995
 31
0.0
  0
LINE
  5
765
330
1F
100
AcDbEntity
  8
2
  6
CONTINUOUS
370
25
 62
7
100
AcDbLine
 10
42.29324146268768
 20
-6.033742686561589
 30
0.0
 11
43.75944877612609
 21
-7.49995
 31
0.0
  0
LINE
  5
766
330
1F
100
AcDbEntity
  8
2
  6
CONTINUOUS
370
25
 62
7
100
AcDbLine
 10
42.36395214080633
 20
-5.680189295968317
 30
0.0
 11
43.95407178879049
 21
-7.270308943952474
 31
0.0
  0
LINE
  5
767
330
1F
100
AcDbEntity
  8
2
  6
CONTINUOUS
370
25
 62
7
100
AcDbLine
 10
42.43466281892499
 20
-5.326635905375043
 30
0.0
 11
43.84800577161251
 21
-6.739978858062564
 31
0.0
  0
LINE
  5
768
330
1F
100
AcDbEntity
  8
2
  6
CONTINUOUS
370
25
 62
7
100
AcDbLine
 10
42.50537349704364
 20
-4.973082514781769
 30
0.0
 11
43.74193975443453
 21
-6.209648772172656
 31
0.0
  0
LINE
  5
769
330
1F
100
AcDbEntity
  8
2
  6
CONTINUOUS
370
25
 62
7
100
AcDbLine
 10
42.5760841751623
 20
-4.619529124188496
 30
0.0
 11
43.63587373725655
 21
-5.679318686282745
 31
0.0
  0
LINE
  5
76A
330
1F
100
AcDbEntity
  8
2
  6
CONTINUOUS
370
25
 62
7
100
AcDbLine
 10
42.64679485328095
 20
-4.265975733595223
 30
0.0
 11
43.52980772007857
 21
-5.148988600392835
 31
0.0
  0
LINE
  5
76B
330
1F
100
AcDbEntity
  8
2
  6
CONTINUOUS
370
25
 62
7
100
AcDbLine
 10
42.71750553139961
 20
-3.912422343001949
 30
0.0
 11
43.42374170290059
 21
-4.618658514502925
 31
0.0
  0
LINE
  5
76C
330
1F
100
AcDbEntity
  8
2
  6
CONTINUOUS
370
25
 62
7
100
AcDbLine
 10
42.78821620951827
 20
-3.558868952408675
 30
0.0
 11
43.31767568572261
 21
-4.088328428613014
 31
0.0
  0
LINE
  5
76D
330
1F
100
AcDbEntity
  8
2
  6
CONTINUOUS
370
25
 62
7
100
AcDbLine
 10
42.85892688763692
 20
-3.205315561815402
 30
0.0
 11
43.21160966854463
 21
-3.557998342723105
 31
0.0
  0
LINE
  5
76E
330
1F
100
AcDbEntity
  8
2
  6
CONTINUOUS
370
25
 62
7
100
AcDbLine
 10
42.92963756575558
 20
-2.851762171222129
 30
0.0
 11
43.10554365136664
 21
-3.027668256833193
 31
0.0
  0
LINE
  5
76F
330
1F
100
AcDbEntity
  8
2
  6
CONTINUOUS
370
25
 62
7
100
AcDbLine
 10
43.0
 20
2.499950000000001
 30
0.0
 11
42.0
 21
7.49995
 31
0.0
  0
LINE
  5
770
330
1F
100
AcDbEntity
  8
2
  6
CONTINUOUS
370
25
 62
7
100
AcDbLine
 10
42.0
 20
7.49995
 30
0.0
 11
44.0
 21
7.49995
 31
0.0
  0
LINE
  5
771
330
1F
100
AcDbEntity
  8
2
  6
CONTINUOUS
370
25
 62
7
100
AcDbLine
 10
44.0
 20
7.49995
 30
0.0
 11
43.0
 21
2.499950000000001
 31
0.0
  0
LINE
  5
772
330
1F
100
AcDbEntity
  8
2
  6
CONTINUOUS
370
25
 62
7
100
AcDbLine
 10
42.96437260602424
 20
2.678086969878778
 30
0.0
 11
43.05344109096363
 21
2.767155454818166
 31
0.0
  0
LINE
  5
773
330
1F
100
AcDbEntity
  8
2
  6
CONTINUOUS
370
25
 62
7
100
AcDbLine
 10
42.89366192790559
 20
3.031640360472051
 30
0.0
 11
43.15950710814162
 21
3.297485540708075
 31
0.0
  0
LINE
  5
774
330
1F
100
AcDbEntity
  8
2
  6
CONTINUOUS
370
25
 62
7
100
AcDbLine
 10
42.82295124978693
 20
3.385193751065324
 30
0.0
 11
43.2655731253196
 21
3.827815626597985
 31
0.0
  0
LINE
  5
775
330
1F
100
AcDbEntity
  8
2
  6
CONTINUOUS
370
25
 62
7
100
AcDbLine
 10
42.75224057166828
 20
3.738747141658598
 30
0.0
 11
43.37163914249758
 21
4.358145712487897
 31
0.0
  0
LINE
  5
776
330
1F
100
AcDbEntity
  8
2
  6
CONTINUOUS
370
25
 62
7
100
AcDbLine
 10
42.68152989354962
 20
4.092300532251872
 30
0.0
 11
43.47770515967557
 21
4.888475798377806
 31
0.0
  0
LINE
  5
777
330
1F
100
AcDbEntity
  8
2
  6
CONTINUOUS
370
25
 62
7
100
AcDbLine
 10
42.61081921543097
 20
4.445853922845144
 30
0.0
 11
43.58377117685355
 21
5.418805884267714
 31
0.0
  0
LINE
  5
778
330
1F
100
AcDbEntity
  8
2
  6
CONTINUOUS
370
25
 62
7
100
AcDbLine
 10
42.54010853731232
 20
4.799407313438418
 30
0.0
 11
43.68983719403153
 21
5.949135970157624
 31
0.0
  0
LINE
  5
779
330
1F
100
AcDbEntity
  8
2
  6
CONTINUOUS
370
25
 62
7
100
AcDbLine
 10
42.46939785919366
 20
5.152960704031692
 30
0.0
 11
43.79590321120951
 21
6.479466056047534
 31
0.0
  0
LINE
  5
77A
330
1F
100
AcDbEntity
  8
2
  6
CONTINUOUS
370
25
 62
7
100
AcDbLine
 10
42.398687181075
 20
5.506514094624966
 30
0.0
 11
43.90196922838749
 21
7.009796141937445
 31
0.0
  0
LINE
  5
77B
330
1F
100
AcDbEntity
  8
2
  6
CONTINUOUS
370
25
 62
7
100
AcDbLine
 10
42.32797650295635
 20
5.860067485218238
 30
0.0
 11
43.96785901773812
 21
7.49995
 31
0.0
  0
LINE
  5
77C
330
1F
100
AcDbEntity
  8
2
  6
CONTINUOUS
370
25
 62
7
100
AcDbLine
 10
42.2572658248377
 20
6.213620875811511
 30
0.0
 11
43.54359494902619
 21
7.49995
 31
0.0
  0
LINE
  5
77D
330
1F
100
AcDbEntity
  8
2
  6
CONTINUOUS
370
25
 62
7
100
AcDbLine
 10
42.18655514671904
 20
6.567174266404784
 30
0.0
 11
43.11933088031426
 21
7.49995
 31
0.0
  0
LINE
  5
77E
330
1F
100
AcDbEntity
  8
2
  6
CONTINUOUS
370
25
 62
7
100
AcDbLine
 10
42.11584446860039
 20
6.920727656998057
 30
0.0
 11
42.69506681160233
 21
7.49995
 31
0.0
  0
LINE
  5
77F
330
1F
100
AcDbEntity
  8
2
  6
CONTINUOUS
370
25
 62
7
100
AcDbLine
 10
42.04513379048174
 20
7.27428104759133
 30
0.0
 11
42.2708027428904
 21
7.49995
 31
0.0
  0
LINE
  5
780
330
1F
100
AcDbEntity
  8
2
  6
CONTINUOUS
370
25
 62
7
100
AcDbLine
 10
42.92793122515229
 20
2.860293874238571
 30
0.0
 11
43.04804584989848
 21
2.740179249492382
 31
0.0
  0
LINE
  5
781
330
1F
100
AcDbEntity
  8
2
  6
CONTINUOUS
370
25
 62
7
100
AcDbLine
 10
42.82186520797431
 20
3.390623960128481
 30
0.0
 11
43.11875652801713
 21
3.093732640085655
 31
0.0
  0
LINE
  5
782
330
1F
100
AcDbEntity
  8
2
  6
CONTINUOUS
370
25
 62
7
100
AcDbLine
 10
42.71579919079633
 20
3.92095404601839
 30
0.0
 11
43.18946720613579
 21
3.447286030678928
 31
0.0
  0
LINE
  5
783
330
1F
100
AcDbEntity
  8
2
  6
CONTINUOUS
370
25
 62
7
100
AcDbLine
 10
42.60973317361834
 20
4.451284131908301
 30
0.0
 11
43.26017788425444
 21
3.800839421272201
 31
0.0
  0
LINE
  5
784
330
1F
100
AcDbEntity
  8
2
  6
CONTINUOUS
370
25
 62
7
100
AcDbLine
 10
42.50366715644036
 20
4.98161421779821
 30
0.0
 11
43.3308885623731
 21
4.154392811865474
 31
0.0
  0
LINE
  5
785
330
1F
100
AcDbEntity
  8
2
  6
CONTINUOUS
370
25
 62
7
100
AcDbLine
 10
42.39760113926238
 20
5.511944303688119
 30
0.0
 11
43.40159924049175
 21
4.507946202458748
 31
0.0
  0
LINE
  5
786
330
1F
100
AcDbEntity
  8
2
  6
CONTINUOUS
370
25
 62
7
100
AcDbLine
 10
42.2915351220844
 20
6.042274389578028
 30
0.0
 11
43.47230991861041
 21
4.86149959305202
 31
0.0
  0
LINE
  5
787
330
1F
100
AcDbEntity
  8
2
  6
CONTINUOUS
370
25
 62
7
100
AcDbLine
 10
42.18546910490641
 20
6.572604475467938
 30
0.0
 11
43.54302059672906
 21
5.215052983645294
 31
0.0
  0
LINE
  5
788
330
1F
100
AcDbEntity
  8
2
  6
CONTINUOUS
370
25
 62
7
100
AcDbLine
 10
42.07940308772843
 20
7.102934561357848
 30
0.0
 11
43.61373127484772
 21
5.568606374238567
 31
0.0
  0
LINE
  5
789
330
1F
100
AcDbEntity
  8
2
  6
CONTINUOUS
370
25
 62
7
100
AcDbLine
 10
42.10665171779821
 20
7.49995
 30
0.0
 11
43.68444195296637
 21
5.92215976483184
 31
0.0
  0
LINE
  5
78A
330
1F
100
AcDbEntity
  8
2
  6
CONTINUOUS
370
25
 62
7
100
AcDbLine
 10
42.53091578651014
 20
7.49995
 30
0.0
 11
43.75515263108502
 21
6.275713155425113
 31
0.0
  0
LINE
  5
78B
330
1F
100
AcDbEntity
  8
2
  6
CONTINUOUS
370
25
 62
7
100
AcDbLine
 10
42.95517985522206
 20
7.49995
 30
0.0
 11
43.82586330920368
 21
6.629266546018386
 31
0.0
  0
LINE
  5
78C
330
1F
100
AcDbEntity
  8
2
  6
CONTINUOUS
370
25
 62
7
100
AcDbLine
 10
43.37944392393399
 20
7.49995
 30
0.0
 11
43.89657398732233
 21
6.982819936611659
 31
0.0
  0
LINE
  5
78D
330
1F
100
AcDbEntity
  8
2
  6
CONTINUOUS
370
25
 62
7
100
AcDbLine
 10
43.80370799264592
 20
7.49995
 30
0.0
 11
43.96728466544099
 21
7.336373327204933
 31
0.0
  0
TEXT
  5
78E
330
1F
100
AcDbEntity
  8
2
  6
CONTINUOUS
370
25
 62
7
100
AcDbText
 10
41.5
 20
12.84578333333334
 30
0.0
 40
3.5
  1
5
 50
90.00000000000001
 72
     1
 11
41.5
 21
14.01245
 31
0.0
100
AcDbText
  0
CIRCLE
  5
78F
330
1F
100
AcDbEntity
  8
2
  6
CONTINUOUS
370
25
 62
7
100
AcDbCircle
 10
39.75
 20
10.68745
 30
0.0
 40
1.4
  0
LINE
  5
790
330
1F
100
AcDbEntity
  8
2
  6
CONTINUOUS
370
25
 62
7
100
AcDbLine
 10
41.15
 20
9.287450000000002
 30
0.0
 11
38.35
 21
12.08745
 31
0.0
  0
LINE
  5
791
330
1F
100
AcDbEntity
  8
2
  6
CONTINUOUS
370
25
 62
7
100
AcDbLine
 10
45.0
 20
-3.0
 30
0.0
 11
45.0
 21
-36.0
 31
0.0
  0
LINE
  5
792
330
1F
100
AcDbEntity
  8
2
  6
CONTINUOUS
370
25
 62
7
100
AcDbLine
 10
51.0
 20
-36.0
 30
0.0
 11
51.0
 21
-3.0
 31
0.0
  0
LINE
  5
793
330
1F
100
AcDbEntity
  8
2
  6
CONTINUOUS
370
25
 62
7
100
AcDbLine
 10
38.0
 20
-35.0
 30
0.0
 11
58.0
 21
-35.0
 31
0.0
  0
LINE
  5
794
330
1F
100
AcDbEntity
  8
2
  6
CONTINUOUS
370
25
 62
7
100
AcDbLine
 10
45.0
 20
-35.0
 30
0.0
 11
40.0
 21
-36.0
 31
0.0
  0
LINE
  5
795
330
1F
100
AcDbEntity
  8
2
  6
CONTINUOUS
370
25
 62
7
100
AcDbLine
 10
40.0
 20
-36.0
 30
0.0
 11
40.0
 21
-34.0
 31
0.0
  0
LINE
  5
796
330
1F
100
AcDbEntity
  8
2
  6
CONTINUOUS
370
25
 62
7
100
AcDbLine
 10
40.0
 20
-34.0
 30
0.0
 11
45.0
 21
-35.0
 31
0.0
  0
LINE
  5
797
330
1F
100
AcDbEntity
  8
2
  6
CONTINUOUS
370
25
 62
7
100
AcDbLine
 10
44.78703405742018
 20
-35.04259318851597
 30
0.0
 11
44.85802270494679
 21
-34.97160454098935
 31
0.0
  0
LINE
  5
798
330
1F
100
AcDbEntity
  8
2
  6
CONTINUOUS
370
25
 62
7
100
AcDbLine
 10
44.25670397153026
 20
-35.14865920569395
 30
0.0
 11
44.50446931435351
 21
-34.9008938628707
 31
0.0
  0
LINE
  5
799
330
1F
100
AcDbEntity
  8
2
  6
CONTINUOUS
370
25
 62
7
100
AcDbLine
 10
43.72637388564036
 20
-35.25472522287193
 30
0.0
 11
44.15091592376024
 21
-34.83018318475204
 31
0.0
  0
LINE
  5
79A
330
1F
100
AcDbEntity
  8
2
  6
CONTINUOUS
370
25
 62
7
100
AcDbLine
 10
43.19604379975044
 20
-35.36079124004991
 30
0.0
 11
43.79736253316697
 21
-34.75947250663339
 31
0.0
  0
LINE
  5
79B
330
1F
100
AcDbEntity
  8
2
  6
CONTINUOUS
370
25
 62
7
100
AcDbLine
 10
42.66571371386053
 20
-35.4668572572279
 30
0.0
 11
43.44380914257369
 21
-34.68876182851474
 31
0.0
  0
LINE
  5
79C
330
1F
100
AcDbEntity
  8
2
  6
CONTINUOUS
370
25
 62
7
100
AcDbLine
 10
42.13538362797061
 20
-35.57292327440588
 30
0.0
 11
43.09025575198041
 21
-34.61805115039608
 31
0.0
  0
LINE
  5
79D
330
1F
100
AcDbEntity
  8
2
  6
CONTINUOUS
370
25
 62
7
100
AcDbLine
 10
41.6050535420807
 20
-35.67898929158386
 30
0.0
 11
42.73670236138714
 21
-34.54734047227743
 31
0.0
  0
LINE
  5
79E
330
1F
100
AcDbEntity
  8
2
  6
CONTINUOUS
370
25
 62
7
100
AcDbLine
 10
41.07472345619079
 20
-35.78505530876185
 30
0.0
 11
42.38314897079387
 21
-34.47662979415877
 31
0.0
  0
LINE
  5
79F
330
1F
100
AcDbEntity
  8
2
  6
CONTINUOUS
370
25
 62
7
100
AcDbLine
 10
40.54439337030087
 20
-35.89112132593983
 30
0.0
 11
42.02959558020059
 21
-34.40591911604012
 31
0.0
  0
LINE
  5
7A0
330
1F
100
AcDbEntity
  8
2
  6
CONTINUOUS
370
25
 62
7
100
AcDbLine
 10
40.01406328441095
 20
-35.99718734311782
 30
0.0
 11
41.67604218960732
 21
-34.33520843792146
 31
0.0
  0
LINE
  5
7A1
330
1F
100
AcDbEntity
  8
2
  6
CONTINUOUS
370
25
 62
7
100
AcDbLine
 10
40.0
 20
-35.58698655881684
 30
0.0
 11
41.32248879901404
 21
-34.26449775980281
 31
0.0
  0
LINE
  5
7A2
330
1F
100
AcDbEntity
  8
2
  6
CONTINUOUS
370
25
 62
7
100
AcDbLine
 10
40.0
 20
-35.16272249010491
 30
0.0
 11
40.96893540842077
 21
-34.19378708168415
 31
0.0
  0
LINE
  5
7A3
330
1F
100
AcDbEntity
  8
2
  6
CONTINUOUS
370
25
 62
7
100
AcDbLine
 10
40.0
 20
-34.73845842139298
 30
0.0
 11
40.61538201782749
 21
-34.12307640356549
 31
0.0
  0
LINE
  5
7A4
330
1F
100
AcDbEntity
  8
2
  6
CONTINUOUS
370
25
 62
7
100
AcDbLine
 10
40.0
 20
-34.31419435268105
 30
0.0
 11
40.26182862723421
 21
-34.05236572544684
 31
0.0
  0
LINE
  5
7A5
330
1F
100
AcDbEntity
  8
2
  6
CONTINUOUS
370
25
 62
7
100
AcDbLine
 10
40.0
 20
-35.8906445514628
 30
0.0
 11
40.09112954044767
 21
-35.98177409191047
 31
0.0
  0
LINE
  5
7A6
330
1F
100
AcDbEntity
  8
2
  6
CONTINUOUS
370
25
 62
7
100
AcDbLine
 10
40.0
 20
-35.46638048275087
 30
0.0
 11
40.44468293104094
 21
-35.91106341379182
 31
0.0
  0
LINE
  5
7A7
330
1F
100
AcDbEntity
  8
2
  6
CONTINUOUS
370
25
 62
7
100
AcDbLine
 10
40.0
 20
-35.04211641403894
 30
0.0
 11
40.79823632163422
 21
-35.84035273567316
 31
0.0
  0
LINE
  5
7A8
330
1F
100
AcDbEntity
  8
2
  6
CONTINUOUS
370
25
 62
7
100
AcDbLine
 10
40.0
 20
-34.61785234532701
 30
0.0
 11
41.15178971222749
 21
-35.76964205755451
 31
0.0
  0
LINE
  5
7A9
330
1F
100
AcDbEntity
  8
2
  6
CONTINUOUS
370
25
 62
7
100
AcDbLine
 10
40.0
 20
-34.19358827661508
 30
0.0
 11
41.50534310282077
 21
-35.69893137943585
 31
0.0
  0
LINE
  5
7AA
330
1F
100
AcDbEntity
  8
2
  6
CONTINUOUS
370
25
 62
7
100
AcDbLine
 10
40.28834474012105
 20
-34.05766894802421
 30
0.0
 11
41.85889649341404
 21
-35.6282207013172
 31
0.0
  0
LINE
  5
7AB
330
1F
100
AcDbEntity
  8
2
  6
CONTINUOUS
370
25
 62
7
100
AcDbLine
 10
40.81867482601096
 20
-34.16373496520219
 30
0.0
 11
42.21244988400731
 21
-35.55751002319854
 31
0.0
  0
LINE
  5
7AC
330
1F
100
AcDbEntity
  8
2
  6
CONTINUOUS
370
25
 62
7
100
AcDbLine
 10
41.34900491190088
 20
-34.26980098238018
 30
0.0
 11
42.5660032746006
 21
-35.48679934507989
 31
0.0
  0
LINE
  5
7AD
330
1F
100
AcDbEntity
  8
2
  6
CONTINUOUS
370
25
 62
7
100
AcDbLine
 10
41.87933499779079
 20
-34.37586699955816
 30
0.0
 11
42.91955666519387
 21
-35.41608866696123
 31
0.0
  0
LINE
  5
7AE
330
1F
100
AcDbEntity
  8
2
  6
CONTINUOUS
370
25
 62
7
100
AcDbLine
 10
42.40966508368071
 20
-34.48193301673614
 30
0.0
 11
43.27311005578714
 21
-35.34537798884257
 31
0.0
  0
LINE
  5
7AF
330
1F
100
AcDbEntity
  8
2
  6
CONTINUOUS
370
25
 62
7
100
AcDbLine
 10
42.93999516957062
 20
-34.58799903391412
 30
0.0
 11
43.62666344638042
 21
-35.27466731072392
 31
0.0
  0
LINE
  5
7B0
330
1F
100
AcDbEntity
  8
2
  6
CONTINUOUS
370
25
 62
7
100
AcDbLine
 10
43.47032525546054
 20
-34.6940650510921
 30
0.0
 11
43.9802168369737
 21
-35.20395663260526
 31
0.0
  0
LINE
  5
7B1
330
1F
100
AcDbEntity
  8
2
  6
CONTINUOUS
370
25
 62
7
100
AcDbLine
 10
44.00065534135044
 20
-34.80013106827009
 30
0.0
 11
44.33377022756697
 21
-35.13324595448661
 31
0.0
  0
LINE
  5
7B2
330
1F
100
AcDbEntity
  8
2
  6
CONTINUOUS
370
25
 62
7
100
AcDbLine
 10
44.53098542724036
 20
-34.90619708544807
 30
0.0
 11
44.68732361816024
 21
-35.06253527636795
 31
0.0
  0
LINE
  5
7B3
330
1F
100
AcDbEntity
  8
2
  6
CONTINUOUS
370
25
 62
7
100
AcDbLine
 10
51.0
 20
-35.0
 30
0.0
 11
56.0
 21
-34.0
 31
0.0
  0
LINE
  5
7B4
330
1F
100
AcDbEntity
  8
2
  6
CONTINUOUS
370
25
 62
7
100
AcDbLine
 10
56.0
 20
-34.0
 30
0.0
 11
56.0
 21
-36.0
 31
0.0
  0
LINE
  5
7B5
330
1F
100
AcDbEntity
  8
2
  6
CONTINUOUS
370
25
 62
7
100
AcDbLine
 10
56.0
 20
-36.0
 30
0.0
 11
51.0
 21
-35.0
 31
0.0
  0
LINE
  5
7B6
330
1F
100
AcDbEntity
  8
2
  6
CONTINUOUS
370
25
 62
7
100
AcDbLine
 10
55.70607466404152
 20
-35.94121493280831
 30
0.0
 11
56.0
 21
-35.64728959684982
 31
0.0
  0
LINE
  5
7B7
330
1F
100
AcDbEntity
  8
2
  6
CONTINUOUS
370
25
 62
7
100
AcDbLine
 10
55.35252127344825
 20
-35.87050425468965
 30
0.0
 11
56.0
 21
-35.2230255281379
 31
0.0
  0
LINE
  5
7B8
330
1F
100
AcDbEntity
  8
2
  6
CONTINUOUS
370
25
 62
7
100
AcDbLine
 10
54.99896788285497
 20
-35.79979357657099
 30
0.0
 11
56.0
 21
-34.79876145942596
 31
0.0
  0
LINE
  5
7B9
330
1F
100
AcDbEntity
  8
2
  6
CONTINUOUS
370
25
 62
7
100
AcDbLine
 10
54.64541449226169
 20
-35.72908289845234
 30
0.0
 11
56.0
 21
-34.37449739071404
 31
0.0
  0
LINE
  5
7BA
330
1F
100
AcDbEntity
  8
2
  6
CONTINUOUS
370
25
 62
7
100
AcDbLine
 10
54.29186110166842
 20
-35.65837222033369
 30
0.0
 11
55.93779165250264
 21
-34.01244166949947
 31
0.0
  0
LINE
  5
7BB
330
1F
100
AcDbEntity
  8
2
  6
CONTINUOUS
370
25
 62
7
100
AcDbLine
 10
53.93830771107515
 20
-35.58766154221503
 30
0.0
 11
55.40746156661272
 21
-34.11850768667745
 31
0.0
  0
LINE
  5
7BC
330
1F
100
AcDbEntity
  8
2
  6
CONTINUOUS
370
25
 62
7
100
AcDbLine
 10
53.58475432048187
 20
-35.51695086409637
 30
0.0
 11
54.87713148072281
 21
-34.22457370385544
 31
0.0
  0
LINE
  5
7BD
330
1F
100
AcDbEntity
  8
2
  6
CONTINUOUS
370
25
 62
7
100
AcDbLine
 10
53.23120092988859
 20
-35.44624018597771
 30
0.0
 11
54.34680139483289
 21
-34.33063972103342
 31
0.0
  0
LINE
  5
7BE
330
1F
100
AcDbEntity
  8
2
  6
CONTINUOUS
370
25
 62
7
100
AcDbLine
 10
52.87764753929532
 20
-35.37552950785906
 30
0.0
 11
53.81647130894299
 21
-34.4367057382114
 31
0.0
  0
LINE
  5
7BF
330
1F
100
AcDbEntity
  8
2
  6
CONTINUOUS
370
25
 62
7
100
AcDbLine
 10
52.52409414870204
 20
-35.30481882974041
 30
0.0
 11
53.28614122305307
 21
-34.54277175538939
 31
0.0
  0
LINE
  5
7C0
330
1F
100
AcDbEntity
  8
2
  6
CONTINUOUS
370
25
 62
7
100
AcDbLine
 10
52.17054075810877
 20
-35.23410815162175
 30
0.0
 11
52.75581113716316
 21
-34.64883777256737
 31
0.0
  0
LINE
  5
7C1
330
1F
100
AcDbEntity
  8
2
  6
CONTINUOUS
370
25
 62
7
100
AcDbLine
 10
51.81698736751549
 20
-35.1633974735031
 30
0.0
 11
52.22548105127324
 21
-34.75490378974536
 31
0.0
  0
LINE
  5
7C2
330
1F
100
AcDbEntity
  8
2
  6
CONTINUOUS
370
25
 62
7
100
AcDbLine
 10
51.46343397692222
 20
-35.09268679538445
 30
0.0
 11
51.69515096538333
 21
-34.86096980692334
 31
0.0
  0
LINE
  5
7C3
330
1F
100
AcDbEntity
  8
2
  6
CONTINUOUS
370
25
 62
7
100
AcDbLine
 10
51.10988058632894
 20
-35.02197611726579
 30
0.0
 11
51.16482087949342
 21
-34.96703582410132
 31
0.0
  0
LINE
  5
7C4
330
1F
100
AcDbEntity
  8
2
  6
CONTINUOUS
370
25
 62
7
100
AcDbLine
 10
51.2927348901357
 20
-34.94145302197286
 30
0.0
 11
51.43910233520355
 21
-35.08782046704071
 31
0.0
  0
LINE
  5
7C5
330
1F
100
AcDbEntity
  8
2
  6
CONTINUOUS
370
25
 62
7
100
AcDbLine
 10
51.64628828072897
 20
-34.8707423438542
 30
0.0
 11
51.96943242109346
 21
-35.19388648421869
 31
0.0
  0
LINE
  5
7C6
330
1F
100
AcDbEntity
  8
2
  6
CONTINUOUS
370
25
 62
7
100
AcDbLine
 10
51.99984167132225
 20
-34.80003166573555
 30
0.0
 11
52.49976250698337
 21
-35.29995250139667
 31
0.0
  0
LINE
  5
7C7
330
1F
100
AcDbEntity
  8
2
  6
CONTINUOUS
370
25
 62
7
100
AcDbLine
 10
52.35339506191552
 20
-34.72932098761689
 30
0.0
 11
53.03009259287329
 21
-35.40601851857465
 31
0.0
  0
LINE
  5
7C8
330
1F
100
AcDbEntity
  8
2
  6
CONTINUOUS
370
25
 62
7
100
AcDbLine
 10
52.7069484525088
 20
-34.65861030949824
 30
0.0
 11
53.5604226787632
 21
-35.51208453575264
 31
0.0
  0
LINE
  5
7C9
330
1F
100
AcDbEntity
  8
2
  6
CONTINUOUS
370
25
 62
7
100
AcDbLine
 10
53.06050184310207
 20
-34.58789963137959
 30
0.0
 11
54.09075276465312
 21
-35.61815055293062
 31
0.0
  0
LINE
  5
7CA
330
1F
100
AcDbEntity
  8
2
  6
CONTINUOUS
370
25
 62
7
100
AcDbLine
 10
53.41405523369535
 20
-34.51718895326093
 30
0.0
 11
54.62108285054303
 21
-35.72421657010861
 31
0.0
  0
LINE
  5
7CB
330
1F
100
AcDbEntity
  8
2
  6
CONTINUOUS
370
25
 62
7
100
AcDbLine
 10
53.76760862428863
 20
-34.44647827514228
 30
0.0
 11
55.15141293643295
 21
-35.83028258728659
 31
0.0
  0
LINE
  5
7CC
330
1F
100
AcDbEntity
  8
2
  6
CONTINUOUS
370
25
 62
7
100
AcDbLine
 10
54.1211620148819
 20
-34.37576759702362
 30
0.0
 11
55.68174302232286
 21
-35.93634860446457
 31
0.0
  0
LINE
  5
7CD
330
1F
100
AcDbEntity
  8
2
  6
CONTINUOUS
370
25
 62
7
100
AcDbLine
 10
54.47471540547517
 20
-34.30505691890497
 30
0.0
 11
56.0
 21
-35.83034151342979
 31
0.0
  0
LINE
  5
7CE
330
1F
100
AcDbEntity
  8
2
  6
CONTINUOUS
370
25
 62
7
100
AcDbLine
 10
54.82826879606845
 20
-34.23434624078631
 30
0.0
 11
56.0
 21
-35.40607744471785
 31
0.0
  0
LINE
  5
7CF
330
1F
100
AcDbEntity
  8
2
  6
CONTINUOUS
370
25
 62
7
100
AcDbLine
 10
55.18182218666173
 20
-34.16363556266765
 30
0.0
 11
56.0
 21
-34.98181337600592
 31
0.0
  0
LINE
  5
7D0
330
1F
100
AcDbEntity
  8
2
  6
CONTINUOUS
370
25
 62
7
100
AcDbLine
 10
55.535375577255
 20
-34.092924884549
 30
0.0
 11
56.0
 21
-34.557549307294
 31
0.0
  0
LINE
  5
7D1
330
1F
100
AcDbEntity
  8
2
  6
CONTINUOUS
370
25
 62
7
100
AcDbLine
 10
55.88892896784827
 20
-34.02221420643035
 30
0.0
 11
56.0
 21
-34.13328523858207
 31
0.0
  0
TEXT
  5
7D2
330
1F
100
AcDbEntity
  8
2
  6
CONTINUOUS
370
25
 62
7
100
AcDbText
 10
46.83333333333334
 20
-33.5
 30
0.0
 40
3.5
  1
6
 72
     1
 11
48.0
 21
-33.5
 31
0.0
100
AcDbText
  0
LINE
  5
7D3
330
1F
100
AcDbEntity
  8
2
  6
CONTINUOUS
370
25
 62
7
100
AcDbLine
 10
39.0
 20
0.0
 30
0.0
 11
39.0
 21
20.475
 31
0.0
  0
LINE
  5
7D4
330
1F
100
AcDbEntity
  8
2
  6
CONTINUOUS
370
25
 62
7
100
AcDbLine
 10
51.0
 20
20.475
 30
0.0
 11
51.0
 21
3.0
 31
0.0
  0
LINE
  5
7D5
330
1F
100
AcDbEntity
  8
2
  6
CONTINUOUS
370
25
 62
7
100
AcDbLine
 10
32.0
 20
19.475
 30
0.0
 11
58.0
 21
19.475
 31
0.0
  0
LINE
  5
7D6
330
1F
100
AcDbEntity
  8
2
  6
CONTINUOUS
370
25
 62
7
100
AcDbLine
 10
39.0
 20
19.475
 30
0.0
 11
34.0
 21
18.475
 31
0.0
  0
LINE
  5
7D7
330
1F
100
AcDbEntity
  8
2
  6
CONTINUOUS
370
25
 62
7
100
AcDbLine
 10
34.0
 20
18.475
 30
0.0
 11
34.0
 21
20.475
 31
0.0
  0
LINE
  5
7D8
330
1F
100
AcDbEntity
  8
2
  6
CONTINUOUS
370
25
 62
7
100
AcDbLine
 10
34.0
 20
20.475
 30
0.0
 11
39.0
 21
19.475
 31
0.0
  0
LINE
  5
7D9
330
1F
100
AcDbEntity
  8
2
  6
CONTINUOUS
370
25
 62
7
100
AcDbLine
 10
38.94856604906414
 20
19.46471320981283
 30
0.0
 11
38.9657106993761
 21
19.48185786012478
 31
0.0
  0
LINE
  5
7DA
330
1F
100
AcDbEntity
  8
2
  6
CONTINUOUS
370
25
 62
7
100
AcDbLine
 10
38.41823596317423
 20
19.35864719263485
 30
0.0
 11
38.61215730878282
 21
19.55256853824344
 31
0.0
  0
LINE
  5
7DB
330
1F
100
AcDbEntity
  8
2
  6
CONTINUOUS
370
25
 62
7
100
AcDbLine
 10
37.88790587728433
 20
19.25258117545687
 30
0.0
 11
38.25860391818955
 21
19.62327921636209
 31
0.0
  0
LINE
  5
7DC
330
1F
100
AcDbEntity
  8
2
  6
CONTINUOUS
370
25
 62
7
100
AcDbLine
 10
37.35757579139442
 20
19.14651515827888
 30
0.0
 11
37.90505052759627
 21
19.69398989448075
 31
0.0
  0
LINE
  5
7DD
330
1F
100
AcDbEntity
  8
2
  6
CONTINUOUS
370
25
 62
7
100
AcDbLine
 10
36.8272457055045
 20
19.0404491411009
 30
0.0
 11
37.551497137003
 21
19.7647005725994
 31
0.0
  0
LINE
  5
7DE
330
1F
100
AcDbEntity
  8
2
  6
CONTINUOUS
370
25
 62
7
100
AcDbLine
 10
36.29691561961459
 20
18.93438312392292
 30
0.0
 11
37.19794374640973
 21
19.83541125071806
 31
0.0
  0
LINE
  5
7DF
330
1F
100
AcDbEntity
  8
2
  6
CONTINUOUS
370
25
 62
7
100
AcDbLine
 10
35.76658553372469
 20
18.82831710674494
 30
0.0
 11
36.84439035581646
 21
19.90612192883671
 31
0.0
  0
LINE
  5
7E0
330
1F
100
AcDbEntity
  8
2
  6
CONTINUOUS
370
25
 62
7
100
AcDbLine
 10
35.23625544783478
 20
18.72225108956696
 30
0.0
 11
36.49083696522318
 21
19.97683260695536
 31
0.0
  0
LINE
  5
7E1
330
1F
100
AcDbEntity
  8
2
  6
CONTINUOUS
370
25
 62
7
100
AcDbLine
 10
34.70592536194487
 20
18.61618507238898
 30
0.0
 11
36.13728357462991
 21
20.04754328507402
 31
0.0
  0
LINE
  5
7E2
330
1F
100
AcDbEntity
  8
2
  6
CONTINUOUS
370
25
 62
7
100
AcDbLine
 10
34.17559527605496
 20
18.51011905521099
 30
0.0
 11
35.78373018403664
 21
20.11825396319268
 31
0.0
  0
LINE
  5
7E3
330
1F
100
AcDbEntity
  8
2
  6
CONTINUOUS
370
25
 62
7
100
AcDbLine
 10
34.0
 20
18.75878784786796
 30
0.0
 11
35.43017679344337
 21
20.18896464131133
 31
0.0
  0
LINE
  5
7E4
330
1F
100
AcDbEntity
  8
2
  6
CONTINUOUS
370
25
 62
7
100
AcDbLine
 10
34.0
 20
19.18305191657989
 30
0.0
 11
35.07662340285009
 21
20.25967531942998
 31
0.0
  0
LINE
  5
7E5
330
1F
100
AcDbEntity
  8
2
  6
CONTINUOUS
370
25
 62
7
100
AcDbLine
 10
34.0
 20
19.60731598529182
 30
0.0
 11
34.72307001225682
 21
20.33038599754864
 31
0.0
  0
LINE
  5
7E6
330
1F
100
AcDbEntity
  8
2
  6
CONTINUOUS
370
25
 62
7
100
AcDbLine
 10
34.0
 20
20.03158005400375
 30
0.0
 11
34.36951662166354
 21
20.40109667566729
 31
0.0
  0
LINE
  5
7E7
330
1F
100
AcDbEntity
  8
2
  6
CONTINUOUS
370
25
 62
7
100
AcDbLine
 10
34.0
 20
20.45584412271567
 30
0.0
 11
34.01596323107027
 21
20.47180735378595
 31
0.0
  0
LINE
  5
7E8
330
1F
100
AcDbEntity
  8
2
  6
CONTINUOUS
370
25
 62
7
100
AcDbLine
 10
34.0
 20
18.57645019878168
 30
0.0
 11
34.08454183231807
 21
18.49190836646362
 31
0.0
  0
LINE
  5
7E9
330
1F
100
AcDbEntity
  8
2
  6
CONTINUOUS
370
25
 62
7
100
AcDbLine
 10
34.0
 20
19.00071426749361
 30
0.0
 11
34.43809522291134
 21
18.56261904458227
 31
0.0
  0
LINE
  5
7EA
330
1F
100
AcDbEntity
  8
2
  6
CONTINUOUS
370
25
 62
7
100
AcDbLine
 10
34.0
 20
19.42497833620553
 30
0.0
 11
34.79164861350461
 21
18.63332972270092
 31
0.0
  0
LINE
  5
7EB
330
1F
100
AcDbEntity
  8
2
  6
CONTINUOUS
370
25
 62
7
100
AcDbLine
 10
34.0
 20
19.84924240491746
 30
0.0
 11
35.14520200409788
 21
18.70404040081958
 31
0.0
  0
LINE
  5
7EC
330
1F
100
AcDbEntity
  8
2
  6
CONTINUOUS
370
25
 62
7
100
AcDbLine
 10
34.0
 20
20.27350647362939
 30
0.0
 11
35.49875539469116
 21
18.77475107893823
 31
0.0
  0
LINE
  5
7ED
330
1F
100
AcDbEntity
  8
2
  6
CONTINUOUS
370
25
 62
7
100
AcDbLine
 10
34.27846317792665
 20
20.41930736441467
 30
0.0
 11
35.85230878528444
 21
18.84546175705689
 31
0.0
  0
LINE
  5
7EE
330
1F
100
AcDbEntity
  8
2
  6
CONTINUOUS
370
25
 62
7
100
AcDbLine
 10
34.80879326381656
 20
20.31324134723669
 30
0.0
 11
36.20586217587771
 21
18.91617243517554
 31
0.0
  0
LINE
  5
7EF
330
1F
100
AcDbEntity
  8
2
  6
CONTINUOUS
370
25
 62
7
100
AcDbLine
 10
35.33912334970647
 20
20.20717533005871
 30
0.0
 11
36.55941556647098
 21
18.9868831132942
 31
0.0
  0
LINE
  5
7F0
330
1F
100
AcDbEntity
  8
2
  6
CONTINUOUS
370
25
 62
7
100
AcDbLine
 10
35.86945343559638
 20
20.10110931288073
 30
0.0
 11
36.91296895706425
 21
19.05759379141285
 31
0.0
  0
LINE
  5
7F1
330
1F
100
AcDbEntity
  8
2
  6
CONTINUOUS
370
25
 62
7
100
AcDbLine
 10
36.39978352148628
 20
19.99504329570274
 30
0.0
 11
37.26652234765753
 21
19.12830446953151
 31
0.0
  0
LINE
  5
7F2
330
1F
100
AcDbEntity
  8
2
  6
CONTINUOUS
370
25
 62
7
100
AcDbLine
 10
36.9301136073762
 20
19.88897727852476
 30
0.0
 11
37.6200757382508
 21
19.19901514765016
 31
0.0
  0
LINE
  5
7F3
330
1F
100
AcDbEntity
  8
2
  6
CONTINUOUS
370
25
 62
7
100
AcDbLine
 10
37.46044369326611
 20
19.78291126134678
 30
0.0
 11
37.97362912884407
 21
19.26972582576882
 31
0.0
  0
LINE
  5
7F4
330
1F
100
AcDbEntity
  8
2
  6
CONTINUOUS
370
25
 62
7
100
AcDbLine
 10
37.99077377915602
 20
19.6768452441688
 30
0.0
 11
38.32718251943734
 21
19.34043650388747
 31
0.0
  0
LINE
  5
7F5
330
1F
100
AcDbEntity
  8
2
  6
CONTINUOUS
370
25
 62
7
100
AcDbLine
 10
38.52110386504593
 20
19.57077922699082
 30
0.0
 11
38.68073591003062
 21
19.41114718200613
 31
0.0
  0
LINE
  5
7F6
330
1F
100
AcDbEntity
  8
2
  6
CONTINUOUS
370
25
 62
7
100
AcDbLine
 10
51.0
 20
19.475
 30
0.0
 11
56.0
 21
20.475
 31
0.0
  0
LINE
  5
7F7
330
1F
100
AcDbEntity
  8
2
  6
CONTINUOUS
370
25
 62
7
100
AcDbLine
 10
56.0
 20
20.475
 30
0.0
 11
56.0
 21
18.475
 31
0.0
  0
LINE
  5
7F8
330
1F
100
AcDbEntity
  8
2
  6
CONTINUOUS
370
25
 62
7
100
AcDbLine
 10
56.0
 20
18.475
 30
0.0
 11
51.0
 21
19.475
 31
0.0
  0
LINE
  5
7F9
330
1F
100
AcDbEntity
  8
2
  6
CONTINUOUS
370
25
 62
7
100
AcDbLine
 10
55.81495310429358
 20
18.51200937914129
 30
0.0
 11
56.0
 21
18.69705627484771
 31
0.0
  0
LINE
  5
7FA
330
1F
100
AcDbEntity
  8
2
  6
CONTINUOUS
370
25
 62
7
100
AcDbLine
 10
55.4613997137003
 20
18.58272005725994
 30
0.0
 11
56.0
 21
19.12132034355964
 31
0.0
  0
LINE
  5
7FB
330
1F
100
AcDbEntity
  8
2
  6
CONTINUOUS
370
25
 62
7
100
AcDbLine
 10
55.10784632310703
 20
18.6534307353786
 30
0.0
 11
56.0
 21
19.54558441227157
 31
0.0
  0
LINE
  5
7FC
330
1F
100
AcDbEntity
  8
2
  6
CONTINUOUS
370
25
 62
7
100
AcDbLine
 10
54.75429293251376
 20
18.72414141349725
 30
0.0
 11
56.0
 21
19.96984848098349
 31
0.0
  0
LINE
  5
7FD
330
1F
100
AcDbEntity
  8
2
  6
CONTINUOUS
370
25
 62
7
100
AcDbLine
 10
54.40073954192049
 20
18.79485209161591
 30
0.0
 11
56.0
 21
20.39411254969542
 31
0.0
  0
LINE
  5
7FE
330
1F
100
AcDbEntity
  8
2
  6
CONTINUOUS
370
25
 62
7
100
AcDbLine
 10
54.04718615132721
 20
18.86556276973456
 30
0.0
 11
55.57077922699082
 21
20.38915584539816
 31
0.0
  0
LINE
  5
7FF
330
1F
100
AcDbEntity
  8
2
  6
CONTINUOUS
370
25
 62
7
100
AcDbLine
 10
53.69363276073394
 20
18.93627344785322
 30
0.0
 11
55.04044914110091
 21
20.28308982822018
 31
0.0
  0
LINE
  5
800
330
1F
100
AcDbEntity
  8
2
  6
CONTINUOUS
370
25
 62
7
100
AcDbLine
 10
53.34007937014066
 20
19.00698412597187
 30
0.0
 11
54.51011905521099
 21
20.1770238110422
 31
0.0
  0
LINE
  5
801
330
1F
100
AcDbEntity
  8
2
  6
CONTINUOUS
370
25
 62
7
100
AcDbLine
 10
52.98652597954739
 20
19.07769480409053
 30
0.0
 11
53.97978896932108
 21
20.07095779386422
 31
0.0
  0
LINE
  5
802
330
1F
100
AcDbEntity
  8
2
  6
CONTINUOUS
370
25
 62
7
100
AcDbLine
 10
52.63297258895412
 20
19.14840548220918
 30
0.0
 11
53.44945888343118
 21
19.96489177668624
 31
0.0
  0
LINE
  5
803
330
1F
100
AcDbEntity
  8
2
  6
CONTINUOUS
370
25
 62
7
100
AcDbLine
 10
52.27941919836085
 20
19.21911616032784
 30
0.0
 11
52.91912879754126
 21
19.85882575950825
 31
0.0
  0
LINE
  5
804
330
1F
100
AcDbEntity
  8
2
  6
CONTINUOUS
370
25
 62
7
100
AcDbLine
 10
51.92586580776757
 20
19.28982683844649
 30
0.0
 11
52.38879871165135
 21
19.75275974233027
 31
0.0
  0
LINE
  5
805
330
1F
100
AcDbEntity
  8
2
  6
CONTINUOUS
370
25
 62
7
100
AcDbLine
 10
51.5723124171743
 20
19.36053751656515
 30
0.0
 11
51.85846862576145
 21
19.64669372515229
 31
0.0
  0
LINE
  5
806
330
1F
100
AcDbEntity
  8
2
  6
CONTINUOUS
370
25
 62
7
100
AcDbLine
 10
51.21875902658103
 20
19.4312481946838
 30
0.0
 11
51.32813853987154
 21
19.54062770797431
 31
0.0
  0
LINE
  5
807
330
1F
100
AcDbEntity
  8
2
  6
CONTINUOUS
370
25
 62
7
100
AcDbLine
 10
51.28733762782885
 20
19.53246752556577
 30
0.0
 11
51.43100644174328
 21
19.38879871165135
 31
0.0
  0
LINE
  5
808
330
1F
100
AcDbEntity
  8
2
  6
CONTINUOUS
370
25
 62
7
100
AcDbLine
 10
51.64089101842213
 20
19.60317820368442
 30
0.0
 11
51.96133652763319
 21
19.28273269447337
 31
0.0
  0
LINE
  5
809
330
1F
100
AcDbEntity
  8
2
  6
CONTINUOUS
370
25
 62
7
100
AcDbLine
 10
51.9944444090154
 20
19.67388888180308
 30
0.0
 11
52.4916666135231
 21
19.17666667729538
 31
0.0
  0
LINE
  5
80A
330
1F
100
AcDbEntity
  8
2
  6
CONTINUOUS
370
25
 62
7
100
AcDbLine
 10
52.34799779960868
 20
19.74459955992173
 30
0.0
 11
53.02199669941301
 21
19.0706006601174
 31
0.0
  0
LINE
  5
80B
330
1F
100
AcDbEntity
  8
2
  6
CONTINUOUS
370
25
 62
7
100
AcDbLine
 10
52.70155119020195
 20
19.81531023804039
 30
0.0
 11
53.55232678530292
 21
18.96453464293942
 31
0.0
  0
LINE
  5
80C
330
1F
100
AcDbEntity
  8
2
  6
CONTINUOUS
370
25
 62
7
100
AcDbLine
 10
53.05510458079522
 20
19.88602091615904
 30
0.0
 11
54.08265687119283
 21
18.85846862576144
 31
0.0
  0
LINE
  5
80D
330
1F
100
AcDbEntity
  8
2
  6
CONTINUOUS
370
25
 62
7
100
AcDbLine
 10
53.40865797138849
 20
19.9567315942777
 30
0.0
 11
54.61298695708274
 21
18.75240260858346
 31
0.0
  0
LINE
  5
80E
330
1F
100
AcDbEntity
  8
2
  6
CONTINUOUS
370
25
 62
7
100
AcDbLine
 10
53.76221136198177
 20
20.02744227239635
 30
0.0
 11
55.14331704297265
 21
18.64633659140547
 31
0.0
  0
LINE
  5
80F
330
1F
100
AcDbEntity
  8
2
  6
CONTINUOUS
370
25
 62
7
100
AcDbLine
 10
54.11576475257505
 20
20.09815295051501
 30
0.0
 11
55.67364712886256
 21
18.54027057422749
 31
0.0
  0
LINE
  5
810
330
1F
100
AcDbEntity
  8
2
  6
CONTINUOUS
370
25
 62
7
100
AcDbLine
 10
54.46931814316832
 20
20.16886362863366
 30
0.0
 11
56.0
 21
18.63818177180198
 31
0.0
  0
LINE
  5
811
330
1F
100
AcDbEntity
  8
2
  6
CONTINUOUS
370
25
 62
7
100
AcDbLine
 10
54.82287153376159
 20
20.23957430675232
 30
0.0
 11
56.0
 21
19.06244584051391
 31
0.0
  0
LINE
  5
812
330
1F
100
AcDbEntity
  8
2
  6
CONTINUOUS
370
25
 62
7
100
AcDbLine
 10
55.17642492435486
 20
20.31028498487097
 30
0.0
 11
56.0
 21
19.48670990922583
 31
0.0
  0
LINE
  5
813
330
1F
100
AcDbEntity
  8
2
  6
CONTINUOUS
370
25
 62
7
100
AcDbLine
 10
55.52997831494814
 20
20.38099566298963
 30
0.0
 11
56.0
 21
19.91097397793776
 31
0.0
  0
LINE
  5
814
330
1F
100
AcDbEntity
  8
2
  6
CONTINUOUS
370
25
 62
7
100
AcDbLine
 10
55.88353170554141
 20
20.45170634110828
 30
0.0
 11
56.0
 21
20.33523804664969
 31
0.0
  0
TEXT
  5
815
330
1F
100
AcDbEntity
  8
2
  6
CONTINUOUS
370
25
 62
7
100
AcDbText
 10
42.66666666666666
 20
20.975
 30
0.0
 40
3.5
  1
12
 72
     1
 11
45.0
 21
20.975
 31
0.0
100
AcDbText
  0
LINE
  5
816
330
1F
100
AcDbEntity
  8
SK2
  6
CONTINUOUS
370
25
 62
7
100
AcDbLine
 10
0.0
 20
1.0
 30
0.0
 11
0.0
 21
30.475
 31
0.0
  0
LINE
  5
817
330
1F
100
AcDbEntity
  8
SK2
  6
CONTINUOUS
370
25
 62
7
100
AcDbLine
 10
51.0
 20
30.475
 30
0.0
 11
51.0
 21
3.0
 31
0.0
  0
LINE
  5
818
330
1F
100
AcDbEntity
  8
SK2
  6
CONTINUOUS
370
25
 62
7
100
AcDbLine
 10
0.0
 20
29.475
 30
0.0
 11
51.0
 21
29.475
 31
0.0
  0
LINE
  5
819
330
1F
100
AcDbEntity
  8
SK2
  6
CONTINUOUS
370
25
 62
7
100
AcDbLine
 10
0.0
 20
29.475
 30
0.0
 11
5.0
 21
30.475
 31
0.0
  0
LINE
  5
81A
330
1F
100
AcDbEntity
  8
SK2
  6
CONTINUOUS
370
25
 62
7
100
AcDbLine
 10
5.0
 20
30.475
 30
0.0
 11
5.0
 21
28.475
 31
0.0
  0
LINE
  5
81B
330
1F
100
AcDbEntity
  8
SK2
  6
CONTINUOUS
370
25
 62
7
100
AcDbLine
 10
5.0
 20
28.475
 30
0.0
 11
0.0
 21
29.475
 31
0.0
  0
LINE
  5
81C
330
1F
100
AcDbEntity
  8
SK2
  6
CONTINUOUS
370
25
 62
7
100
AcDbLine
 10
4.73659819219548
 20
28.52768036156091
 30
0.0
 11
5.0
 21
28.79108216936543
 31
0.0
  0
LINE
  5
81D
330
1F
100
AcDbEntity
  8
SK2
  6
CONTINUOUS
370
25
 62
7
100
AcDbLine
 10
4.383044801602203
 20
28.59839103967956
 30
0.0
 11
5.0
 21
29.21534623807736
 31
0.0
  0
LINE
  5
81E
330
1F
100
AcDbEntity
  8
SK2
  6
CONTINUOUS
370
25
 62
7
100
AcDbLine
 10
4.029491411008919
 20
28.66910171779821
 30
0.0
 11
5.0
 21
29.63961030678929
 31
0.0
  0
LINE
  5
81F
330
1F
100
AcDbEntity
  8
SK2
  6
CONTINUOUS
370
25
 62
7
100
AcDbLine
 10
3.675938020415643
 20
28.73981239591687
 30
0.0
 11
5.0
 21
30.06387437550123
 31
0.0
  0
LINE
  5
820
330
1F
100
AcDbEntity
  8
SK2
  6
CONTINUOUS
370
25
 62
7
100
AcDbLine
 10
3.322384629822373
 20
28.81052307403552
 30
0.0
 11
4.983576944733571
 21
30.47171538894672
 31
0.0
  0
LINE
  5
821
330
1F
100
AcDbEntity
  8
SK2
  6
CONTINUOUS
370
25
 62
7
100
AcDbLine
 10
2.968831239229097
 20
28.88123375215418
 30
0.0
 11
4.453246858843649
 21
30.36564937176873
 31
0.0
  0
LINE
  5
822
330
1F
100
AcDbEntity
  8
SK2
  6
CONTINUOUS
370
25
 62
7
100
AcDbLine
 10
2.61527784863582
 20
28.95194443027284
 30
0.0
 11
3.922916772953734
 21
30.25958335459075
 31
0.0
  0
LINE
  5
823
330
1F
100
AcDbEntity
  8
SK2
  6
CONTINUOUS
370
25
 62
7
100
AcDbLine
 10
2.261724458042536
 20
29.02265510839149
 30
0.0
 11
3.392586687063812
 21
30.15351733741277
 31
0.0
  0
LINE
  5
824
330
1F
100
AcDbEntity
  8
SK2
  6
CONTINUOUS
370
25
 62
7
100
AcDbLine
 10
1.908171067449274
 20
29.09336578651015
 30
0.0
 11
2.862256601173911
 21
30.04745132023479
 31
0.0
  0
LINE
  5
825
330
1F
100
AcDbEntity
  8
SK2
  6
CONTINUOUS
370
25
 62
7
100
AcDbLine
 10
1.55461767685599
 20
29.1640764646288
 30
0.0
 11
2.331926515283996
 21
29.9413853030568
 31
0.0
  0
LINE
  5
826
330
1F
100
AcDbEntity
  8
SK2
  6
CONTINUOUS
370
25
 62
7
100
AcDbLine
 10
1.201064286262707
 20
29.23478714274745
 30
0.0
 11
1.801596429394081
 21
29.83531928587882
 31
0.0
  0
LINE
  5
827
330
1F
100
AcDbEntity
  8
SK2
  6
CONTINUOUS
370
25
 62
7
100
AcDbLine
 10
0.8475108956694299
 20
29.30549782086611
 30
0.0
 11
1.271266343504166
 21
29.72925326870084
 31
0.0
  0
LINE
  5
828
330
1F
100
AcDbEntity
  8
SK2
  6
CONTINUOUS
370
25
 62
7
100
AcDbLine
 10
0.4939575050761604
 20
29.37620849898476
 30
0.0
 11
0.7409362576142584
 21
29.62318725152286
 31
0.0
  0
LINE
  5
829
330
1F
100
AcDbEntity
  8
SK2
  6
CONTINUOUS
370
25
 62
7
100
AcDbLine
 10
0.1404041144828767
 20
29.44691917710342
 30
0.0
 11
0.2106061717243222
 21
29.51712123434487
 31
0.0
  0
LINE
  5
82A
330
1F
100
AcDbEntity
  8
SK2
  6
CONTINUOUS
370
25
 62
7
100
AcDbLine
 10
0.2081930578176667
 20
29.51663861156354
 30
0.0
 11
0.3122895867265072
 21
29.4125420826547
 31
0.0
  0
LINE
  5
82B
330
1F
100
AcDbEntity
  8
SK2
  6
CONTINUOUS
370
25
 62
7
100
AcDbLine
 10
0.5617464484109433
 20
29.58734928968219
 30
0.0
 11
0.8426196726164221
 21
29.30647606547672
 31
0.0
  0
LINE
  5
82C
330
1F
100
AcDbEntity
  8
SK2
  6
CONTINUOUS
370
25
 62
7
100
AcDbLine
 10
0.91529983900422
 20
29.65805996780085
 30
0.0
 11
1.372949758506344
 21
29.20041004829873
 31
0.0
  0
LINE
  5
82D
330
1F
100
AcDbEntity
  8
SK2
  6
CONTINUOUS
370
25
 62
7
100
AcDbLine
 10
1.268853229597497
 20
29.72877064591951
 30
0.0
 11
1.903279844396252
 21
29.09434403112075
 31
0.0
  0
LINE
  5
82E
330
1F
100
AcDbEntity
  8
SK2
  6
CONTINUOUS
370
25
 62
7
100
AcDbLine
 10
1.62240662019078
 20
29.79948132403816
 30
0.0
 11
2.433609930286174
 21
28.98827801394276
 31
0.0
  0
LINE
  5
82F
330
1F
100
AcDbEntity
  8
SK2
  6
CONTINUOUS
370
25
 62
7
100
AcDbLine
 10
1.97596001078405
 20
29.87019200215682
 30
0.0
 11
2.963940016176089
 21
28.88221199676478
 31
0.0
  0
LINE
  5
830
330
1F
100
AcDbEntity
  8
SK2
  6
CONTINUOUS
370
25
 62
7
100
AcDbLine
 10
2.329513401377326
 20
29.94090268027547
 30
0.0
 11
3.494270102065997
 21
28.7761459795868
 31
0.0
  0
LINE
  5
831
330
1F
100
AcDbEntity
  8
SK2
  6
CONTINUOUS
370
25
 62
7
100
AcDbLine
 10
2.683066791970603
 20
30.01161335839413
 30
0.0
 11
4.024600187955905
 21
28.67007996240882
 31
0.0
  0
LINE
  5
832
330
1F
100
AcDbEntity
  8
SK2
  6
CONTINUOUS
370
25
 62
7
100
AcDbLine
 10
3.03662018256388
 20
30.08232403651279
 30
0.0
 11
4.554930273845827
 21
28.56401394523083
 31
0.0
  0
LINE
  5
833
330
1F
100
AcDbEntity
  8
SK2
  6
CONTINUOUS
370
25
 62
7
100
AcDbLine
 10
3.390173573157156
 20
30.15303471463144
 30
0.0
 11
5.0
 21
28.54320828778859
 31
0.0
  0
LINE
  5
834
330
1F
100
AcDbEntity
  8
SK2
  6
CONTINUOUS
370
25
 62
7
100
AcDbLine
 10
3.743726963750433
 20
30.22374539275009
 30
0.0
 11
5.0
 21
28.96747235650052
 31
0.0
  0
LINE
  5
835
330
1F
100
AcDbEntity
  8
SK2
  6
CONTINUOUS
370
25
 62
7
100
AcDbLine
 10
4.097280354343702
 20
30.29445607086875
 30
0.0
 11
5.0
 21
29.39173642521244
 31
0.0
  0
LINE
  5
836
330
1F
100
AcDbEntity
  8
SK2
  6
CONTINUOUS
370
25
 62
7
100
AcDbLine
 10
4.450833744936979
 20
30.36516674898741
 30
0.0
 11
5.0
 21
29.81600049392438
 31
0.0
  0
LINE
  5
837
330
1F
100
AcDbEntity
  8
SK2
  6
CONTINUOUS
370
25
 62
7
100
AcDbLine
 10
4.804387135530256
 20
30.43587742710606
 30
0.0
 11
5.0
 21
30.24026456263631
 31
0.0
  0
LINE
  5
838
330
1F
100
AcDbEntity
  8
SK2
  6
CONTINUOUS
370
25
 62
7
100
AcDbLine
 10
51.0
 20
29.475
 30
0.0
 11
46.0
 21
28.475
 31
0.0
  0
LINE
  5
839
330
1F
100
AcDbEntity
  8
SK2
  6
CONTINUOUS
370
25
 62
7
100
AcDbLine
 10
46.0
 20
28.475
 30
0.0
 11
46.0
 21
30.475
 31
0.0
  0
LINE
  5
83A
330
1F
100
AcDbEntity
  8
SK2
  6
CONTINUOUS
370
25
 62
7
100
AcDbLine
 10
46.0
 20
30.475
 30
0.0
 11
51.0
 21
29.475
 31
0.0
  0
LINE
  5
83B
330
1F
100
AcDbEntity
  8
SK2
  6
CONTINUOUS
370
25
 62
7
100
AcDbLine
 10
50.56988639262381
 20
29.38897727852476
 30
0.0
 11
50.71325759508254
 21
29.53234848098349
 31
0.0
  0
LINE
  5
83C
330
1F
100
AcDbEntity
  8
SK2
  6
CONTINUOUS
370
25
 62
7
100
AcDbLine
 10
50.0395563067339
 20
29.28291126134678
 30
0.0
 11
50.35970420448927
 21
29.60305915910214
 31
0.0
  0
LINE
  5
83D
330
1F
100
AcDbEntity
  8
SK2
  6
CONTINUOUS
370
25
 62
7
100
AcDbLine
 10
49.50922622084399
 20
29.1768452441688
 30
0.0
 11
50.00615081389599
 21
29.6737698372208
 31
0.0
  0
LINE
  5
83E
330
1F
100
AcDbEntity
  8
SK2
  6
CONTINUOUS
370
25
 62
7
100
AcDbLine
 10
48.97889613495408
 20
29.07077922699082
 30
0.0
 11
49.65259742330272
 21
29.74448051533946
 31
0.0
  0
LINE
  5
83F
330
1F
100
AcDbEntity
  8
SK2
  6
CONTINUOUS
370
25
 62
7
100
AcDbLine
 10
48.44856604906417
 20
28.96471320981284
 30
0.0
 11
49.29904403270944
 21
29.81519119345811
 31
0.0
  0
LINE
  5
840
330
1F
100
AcDbEntity
  8
SK2
  6
CONTINUOUS
370
25
 62
7
100
AcDbLine
 10
47.91823596317426
 20
28.85864719263486
 30
0.0
 11
48.94549064211617
 21
29.88590187157677
 31
0.0
  0
LINE
  5
841
330
1F
100
AcDbEntity
  8
SK2
  6
CONTINUOUS
370
25
 62
7
100
AcDbLine
 10
47.38790587728435
 20
28.75258117545687
 30
0.0
 11
48.59193725152289
 21
29.95661254969542
 31
0.0
  0
LINE
  5
842
330
1F
100
AcDbEntity
  8
SK2
  6
CONTINUOUS
370
25
 62
7
100
AcDbLine
 10
46.85757579139444
 20
28.64651515827889
 30
0.0
 11
48.23838386092962
 21
30.02732322781408
 31
0.0
  0
LINE
  5
843
330
1F
100
AcDbEntity
  8
SK2
  6
CONTINUOUS
370
25
 62
7
100
AcDbLine
 10
46.32724570550453
 20
28.54044914110091
 30
0.0
 11
47.88483047033635
 21
30.09803390593273
 31
0.0
  0
LINE
  5
844
330
1F
100
AcDbEntity
  8
SK2
  6
CONTINUOUS
370
25
 62
7
100
AcDbLine
 10
46.0
 20
28.6374675043083
 30
0.0
 11
47.53127707974307
 21
30.16874458405139
 31
0.0
  0
LINE
  5
845
330
1F
100
AcDbEntity
  8
SK2
  6
CONTINUOUS
370
25
 62
7
100
AcDbLine
 10
46.0
 20
29.06173157302024
 30
0.0
 11
47.1777236891498
 21
30.23945526217004
 31
0.0
  0
LINE
  5
846
330
1F
100
AcDbEntity
  8
SK2
  6
CONTINUOUS
370
25
 62
7
100
AcDbLine
 10
46.0
 20
29.48599564173217
 30
0.0
 11
46.82417029855652
 21
30.3101659402887
 31
0.0
  0
LINE
  5
847
330
1F
100
AcDbEntity
  8
SK2
  6
CONTINUOUS
370
25
 62
7
100
AcDbLine
 10
46.0
 20
29.9102597104441
 30
0.0
 11
46.47061690796325
 21
30.38087661840735
 31
0.0
  0
LINE
  5
848
330
1F
100
AcDbEntity
  8
SK2
  6
CONTINUOUS
370
25
 62
7
100
AcDbLine
 10
46.0
 20
30.33452377915603
 30
0.0
 11
46.11706351736998
 21
30.451587296526
 31
0.0
  0
LINE
  5
849
330
1F
100
AcDbEntity
  8
SK2
  6
CONTINUOUS
370
25
 62
7
100
AcDbLine
 10
46.0
 20
28.63818177180197
 30
0.0
 11
46.13598480983497
 21
28.502196961967
 31
0.0
  0
LINE
  5
84A
330
1F
100
AcDbEntity
  8
SK2
  6
CONTINUOUS
370
25
 62
7
100
AcDbLine
 10
46.0
 20
29.0624458405139
 30
0.0
 11
46.48953820042825
 21
28.57290764008565
 31
0.0
  0
LINE
  5
84B
330
1F
100
AcDbEntity
  8
SK2
  6
CONTINUOUS
370
25
 62
7
100
AcDbLine
 10
46.0
 20
29.48670990922583
 30
0.0
 11
46.84309159102153
 21
28.64361831820431
 31
0.0
  0
LINE
  5
84C
330
1F
100
AcDbEntity
  8
SK2
  6
CONTINUOUS
370
25
 62
7
100
AcDbLine
 10
46.0
 20
29.91097397793776
 30
0.0
 11
47.1966449816148
 21
28.71432899632296
 31
0.0
  0
LINE
  5
84D
330
1F
100
AcDbEntity
  8
SK2
  6
CONTINUOUS
370
25
 62
7
100
AcDbLine
 10
46.0
 20
30.33523804664969
 30
0.0
 11
47.55019837220807
 21
28.78503967444162
 31
0.0
  0
LINE
  5
84E
330
1F
100
AcDbEntity
  8
SK2
  6
CONTINUOUS
370
25
 62
7
100
AcDbLine
 10
46.35562764420203
 20
30.4038744711596
 30
0.0
 11
47.90375176280135
 21
28.85575035256027
 31
0.0
  0
LINE
  5
84F
330
1F
100
AcDbEntity
  8
SK2
  6
CONTINUOUS
370
25
 62
7
100
AcDbLine
 10
46.88595773009194
 20
30.29780845398161
 30
0.0
 11
48.25730515339463
 21
28.92646103067893
 31
0.0
  0
LINE
  5
850
330
1F
100
AcDbEntity
  8
SK2
  6
CONTINUOUS
370
25
 62
7
100
AcDbLine
 10
47.41628781598185
 20
30.19174243680363
 30
0.0
 11
48.6108585439879
 21
28.99717170879758
 31
0.0
  0
LINE
  5
851
330
1F
100
AcDbEntity
  8
SK2
  6
CONTINUOUS
370
25
 62
7
100
AcDbLine
 10
47.94661790187176
 20
30.08567641962565
 30
0.0
 11
48.96441193458116
 21
29.06788238691624
 31
0.0
  0
LINE
  5
852
330
1F
100
AcDbEntity
  8
SK2
  6
CONTINUOUS
370
25
 62
7
100
AcDbLine
 10
48.47694798776167
 20
29.97961040244767
 30
0.0
 11
49.31796532517444
 21
29.13859306503489
 31
0.0
  0
LINE
  5
853
330
1F
100
AcDbEntity
  8
SK2
  6
CONTINUOUS
370
25
 62
7
100
AcDbLine
 10
49.00727807365158
 20
29.87354438526968
 30
0.0
 11
49.67151871576772
 21
29.20930374315355
 31
0.0
  0
LINE
  5
854
330
1F
100
AcDbEntity
  8
SK2
  6
CONTINUOUS
370
25
 62
7
100
AcDbLine
 10
49.53760815954149
 20
29.7674783680917
 30
0.0
 11
50.02507210636099
 21
29.2800144212722
 31
0.0
  0
LINE
  5
855
330
1F
100
AcDbEntity
  8
SK2
  6
CONTINUOUS
370
25
 62
7
100
AcDbLine
 10
50.06793824543141
 20
29.66141235091372
 30
0.0
 11
50.37862549695427
 21
29.35072509939086
 31
0.0
  0
LINE
  5
856
330
1F
100
AcDbEntity
  8
SK2
  6
CONTINUOUS
370
25
 62
7
100
AcDbLine
 10
50.59826833132131
 20
29.55534633373574
 30
0.0
 11
50.73217888754754
 21
29.42143577750951
 31
0.0
  0
TEXT
  5
857
330
1F
100
AcDbEntity
  8
SK2
  6
CONTINUOUS
370
25
 62
7
100
AcDbText
 10
23.16666666666667
 20
30.975
 30
0.0
 40
3.5
  1
51
 72
     1
 11
25.5
 21
30.975
 31
0.0
100
AcDbText
  0
LINE
  5
858
330
1F
100
AcDbEntity
  8
2
  6
CONTINUOUS
370
25
 62
7
100
AcDbLine
 10
50.5
 20
-3.0
 30
0.0
 11
50.5
 21
-26.0
 31
0.0
  0
LINE
  5
859
330
1F
100
AcDbEntity
  8
2
  6
CONTINUOUS
370
25
 62
7
100
AcDbLine
 10
51.0
 20
-26.0
 30
0.0
 11
51.0
 21
-3.0
 31
0.0
  0
LINE
  5
85A
330
1F
100
AcDbEntity
  8
2
  6
CONTINUOUS
370
25
 62
7
100
AcDbLine
 10
43.5
 20
-25.0
 30
0.0
 11
78.825
 21
-25.0
 31
0.0
  0
LINE
  5
85B
330
1F
100
AcDbEntity
  8
2
  6
CONTINUOUS
370
25
 62
7
100
AcDbLine
 10
50.5
 20
-25.0
 30
0.0
 11
45.5
 21
-26.0
 31
0.0
  0
LINE
  5
85C
330
1F
100
AcDbEntity
  8
2
  6
CONTINUOUS
370
25
 62
7
100
AcDbLine
 10
45.5
 20
-26.0
 30
0.0
 11
45.5
 21
-24.0
 31
0.0
  0
LINE
  5
85D
330
1F
100
AcDbEntity
  8
2
  6
CONTINUOUS
370
25
 62
7
100
AcDbLine
 10
45.5
 20
-24.0
 30
0.0
 11
50.5
 21
-25.0
 31
0.0
  0
LINE
  5
85E
330
1F
100
AcDbEntity
  8
2
  6
CONTINUOUS
370
25
 62
7
100
AcDbLine
 10
50.49566500220919
 20
-25.00086699955816
 30
0.0
 11
50.4971100014728
 21
-24.99942200029456
 31
0.0
  0
LINE
  5
85F
330
1F
100
AcDbEntity
  8
2
  6
CONTINUOUS
370
25
 62
7
100
AcDbLine
 10
49.96533491631929
 20
-25.10693301673614
 30
0.0
 11
50.14355661087953
 21
-24.9287113221759
 31
0.0
  0
LINE
  5
860
330
1F
100
AcDbEntity
  8
2
  6
CONTINUOUS
370
25
 62
7
100
AcDbLine
 10
49.43500483042938
 20
-25.21299903391413
 30
0.0
 11
49.79000322028625
 21
-24.85800064405725
 31
0.0
  0
LINE
  5
861
330
1F
100
AcDbEntity
  8
2
  6
CONTINUOUS
370
25
 62
7
100
AcDbLine
 10
48.90467474453946
 20
-25.31906505109211
 30
0.0
 11
49.43644982969298
 21
-24.78728996593859
 31
0.0
  0
LINE
  5
862
330
1F
100
AcDbEntity
  8
2
  6
CONTINUOUS
370
25
 62
7
100
AcDbLine
 10
48.37434465864956
 20
-25.42513106827009
 30
0.0
 11
49.08289643909971
 21
-24.71657928781994
 31
0.0
  0
LINE
  5
863
330
1F
100
AcDbEntity
  8
2
  6
CONTINUOUS
370
25
 62
7
100
AcDbLine
 10
47.84401457275965
 20
-25.53119708544807
 30
0.0
 11
48.72934304850644
 21
-24.64586860970129
 31
0.0
  0
LINE
  5
864
330
1F
100
AcDbEntity
  8
2
  6
CONTINUOUS
370
25
 62
7
100
AcDbLine
 10
47.31368448686973
 20
-25.63726310262605
 30
0.0
 11
48.37578965791316
 21
-24.57515793158263
 31
0.0
  0
LINE
  5
865
330
1F
100
AcDbEntity
  8
2
  6
CONTINUOUS
370
25
 62
7
100
AcDbLine
 10
46.78335440097982
 20
-25.74332911980403
 30
0.0
 11
48.02223626731988
 21
-24.50444725346398
 31
0.0
  0
LINE
  5
866
330
1F
100
AcDbEntity
  8
2
  6
CONTINUOUS
370
25
 62
7
100
AcDbLine
 10
46.25302431508992
 20
-25.84939513698202
 30
0.0
 11
47.66868287672661
 21
-24.43373657534532
 31
0.0
  0
LINE
  5
867
330
1F
100
AcDbEntity
  8
2
  6
CONTINUOUS
370
25
 62
7
100
AcDbLine
 10
45.72269422920001
 20
-25.95546115416
 30
0.0
 11
47.31512948613334
 21
-24.36302589722667
 31
0.0
  0
LINE
  5
868
330
1F
100
AcDbEntity
  8
2
  6
CONTINUOUS
370
25
 62
7
100
AcDbLine
 10
45.5
 20
-25.75389131464808
 30
0.0
 11
46.96157609554007
 21
-24.29231521910801
 31
0.0
  0
LINE
  5
869
330
1F
100
AcDbEntity
  8
2
  6
CONTINUOUS
370
25
 62
7
100
AcDbLine
 10
45.5
 20
-25.32962724593615
 30
0.0
 11
46.60802270494679
 21
-24.22160454098936
 31
0.0
  0
LINE
  5
86A
330
1F
100
AcDbEntity
  8
2
  6
CONTINUOUS
370
25
 62
7
100
AcDbLine
 10
45.5
 20
-24.90536317722422
 30
0.0
 11
46.25446931435352
 21
-24.1508938628707
 31
0.0
  0
LINE
  5
86B
330
1F
100
AcDbEntity
  8
2
  6
CONTINUOUS
370
25
 62
7
100
AcDbLine
 10
45.5
 20
-24.4810991085123
 30
0.0
 11
45.90091592376024
 21
-24.08018318475205
 31
0.0
  0
LINE
  5
86C
330
1F
100
AcDbEntity
  8
2
  6
CONTINUOUS
370
25
 62
7
100
AcDbLine
 10
45.5
 20
-24.05683503980037
 30
0.0
 11
45.54736253316698
 21
-24.00947250663339
 31
0.0
  0
LINE
  5
86D
330
1F
100
AcDbEntity
  8
2
  6
CONTINUOUS
370
25
 62
7
100
AcDbLine
 10
45.5
 20
-25.66415102509224
 30
0.0
 11
45.77987414575647
 21
-25.94402517084871
 31
0.0
  0
LINE
  5
86E
330
1F
100
AcDbEntity
  8
2
  6
CONTINUOUS
370
25
 62
7
100
AcDbLine
 10
45.5
 20
-25.23988695638031
 30
0.0
 11
46.13342753634974
 21
-25.87331449273005
 31
0.0
  0
LINE
  5
86F
330
1F
100
AcDbEntity
  8
2
  6
CONTINUOUS
370
25
 62
7
100
AcDbLine
 10
45.5
 20
-24.81562288766838
 30
0.0
 11
46.48698092694302
 21
-25.8026038146114
 31
0.0
  0
LINE
  5
870
330
1F
100
AcDbEntity
  8
2
  6
CONTINUOUS
370
25
 62
7
100
AcDbLine
 10
45.5
 20
-24.39135881895645
 30
0.0
 11
46.84053431753629
 21
-25.73189313649274
 31
0.0
  0
LINE
  5
871
330
1F
100
AcDbEntity
  8
2
  6
CONTINUOUS
370
25
 62
7
100
AcDbLine
 10
45.54113156219434
 20
-24.00822631243887
 30
0.0
 11
47.19408770812957
 21
-25.66118245837409
 31
0.0
  0
LINE
  5
872
330
1F
100
AcDbEntity
  8
2
  6
CONTINUOUS
370
25
 62
7
100
AcDbLine
 10
46.07146164808425
 20
-24.11429232961685
 30
0.0
 11
47.54764109872283
 21
-25.59047178025543
 31
0.0
  0
LINE
  5
873
330
1F
100
AcDbEntity
  8
2
  6
CONTINUOUS
370
25
 62
7
100
AcDbLine
 10
46.60179173397416
 20
-24.22035834679483
 30
0.0
 11
47.90119448931611
 21
-25.51976110213678
 31
0.0
  0
LINE
  5
874
330
1F
100
AcDbEntity
  8
2
  6
CONTINUOUS
370
25
 62
7
100
AcDbLine
 10
47.13212181986408
 20
-24.32642436397281
 30
0.0
 11
48.25474787990938
 21
-25.44905042401813
 31
0.0
  0
LINE
  5
875
330
1F
100
AcDbEntity
  8
2
  6
CONTINUOUS
370
25
 62
7
100
AcDbLine
 10
47.66245190575398
 20
-24.4324903811508
 30
0.0
 11
48.60830127050266
 21
-25.37833974589947
 31
0.0
  0
LINE
  5
876
330
1F
100
AcDbEntity
  8
2
  6
CONTINUOUS
370
25
 62
7
100
AcDbLine
 10
48.19278199164389
 20
-24.53855639832878
 30
0.0
 11
48.96185466109593
 21
-25.30762906778082
 31
0.0
  0
LINE
  5
877
330
1F
100
AcDbEntity
  8
2
  6
CONTINUOUS
370
25
 62
7
100
AcDbLine
 10
48.72311207753381
 20
-24.64462241550676
 30
0.0
 11
49.3154080516892
 21
-25.23691838966216
 31
0.0
  0
LINE
  5
878
330
1F
100
AcDbEntity
  8
2
  6
CONTINUOUS
370
25
 62
7
100
AcDbLine
 10
49.25344216342371
 20
-24.75068843268474
 30
0.0
 11
49.66896144228248
 21
-25.16620771154351
 31
0.0
  0
LINE
  5
879
330
1F
100
AcDbEntity
  8
2
  6
CONTINUOUS
370
25
 62
7
100
AcDbLine
 10
49.78377224931362
 20
-24.85675444986272
 30
0.0
 11
50.02251483287575
 21
-25.09549703342485
 31
0.0
  0
LINE
  5
87A
330
1F
100
AcDbEntity
  8
2
  6
CONTINUOUS
370
25
 62
7
100
AcDbLine
 10
50.31410233520354
 20
-24.96282046704071
 30
0.0
 11
50.37606822346902
 21
-25.0247863553062
 31
0.0
  0
LINE
  5
87B
330
1F
100
AcDbEntity
  8
2
  6
CONTINUOUS
370
25
 62
7
100
AcDbLine
 10
51.0
 20
-25.0
 30
0.0
 11
56.0
 21
-24.0
 31
0.0
  0
LINE
  5
87C
330
1F
100
AcDbEntity
  8
2
  6
CONTINUOUS
370
25
 62
7
100
AcDbLine
 10
56.0
 20
-24.0
 30
0.0
 11
56.0
 21
-26.0
 31
0.0
  0
LINE
  5
87D
330
1F
100
AcDbEntity
  8
2
  6
CONTINUOUS
370
25
 62
7
100
AcDbLine
 10
56.0
 20
-26.0
 30
0.0
 11
51.0
 21
-25.0
 31
0.0
  0
LINE
  5
87E
330
1F
100
AcDbEntity
  8
2
  6
CONTINUOUS
370
25
 62
7
100
AcDbLine
 10
55.85802270494676
 20
-25.97160454098935
 30
0.0
 11
56.0
 21
-25.82962724593612
 31
0.0
  0
LINE
  5
87F
330
1F
100
AcDbEntity
  8
2
  6
CONTINUOUS
370
25
 62
7
100
AcDbLine
 10
55.50446931435349
 20
-25.9008938628707
 30
0.0
 11
56.0
 21
-25.40536317722419
 31
0.0
  0
LINE
  5
880
330
1F
100
AcDbEntity
  8
2
  6
CONTINUOUS
370
25
 62
7
100
AcDbLine
 10
55.15091592376022
 20
-25.83018318475204
 30
0.0
 11
56.0
 21
-24.98109910851226
 31
0.0
  0
LINE
  5
881
330
1F
100
AcDbEntity
  8
2
  6
CONTINUOUS
370
25
 62
7
100
AcDbLine
 10
54.79736253316695
 20
-25.75947250663339
 30
0.0
 11
56.0
 21
-24.55683503980034
 31
0.0
  0
LINE
  5
882
330
1F
100
AcDbEntity
  8
2
  6
CONTINUOUS
370
25
 62
7
100
AcDbLine
 10
54.44380914257367
 20
-25.68876182851474
 30
0.0
 11
56.0
 21
-24.13257097108841
 31
0.0
  0
LINE
  5
883
330
1F
100
AcDbEntity
  8
2
  6
CONTINUOUS
370
25
 62
7
100
AcDbLine
 10
54.0902557519804
 20
-25.61805115039608
 30
0.0
 11
55.6353836279706
 21
-24.07292327440588
 31
0.0
  0
LINE
  5
884
330
1F
100
AcDbEntity
  8
2
  6
CONTINUOUS
370
25
 62
7
100
AcDbLine
 10
53.73670236138713
 20
-25.54734047227743
 30
0.0
 11
55.1050535420807
 21
-24.17898929158386
 31
0.0
  0
LINE
  5
885
330
1F
100
AcDbEntity
  8
2
  6
CONTINUOUS
370
25
 62
7
100
AcDbLine
 10
53.38314897079385
 20
-25.47662979415877
 30
0.0
 11
54.57472345619078
 21
-24.28505530876184
 31
0.0
  0
LINE
  5
886
330
1F
100
AcDbEntity
  8
2
  6
CONTINUOUS
370
25
 62
7
100
AcDbLine
 10
53.02959558020058
 20
-25.40591911604012
 30
0.0
 11
54.04439337030087
 21
-24.39112132593982
 31
0.0
  0
LINE
  5
887
330
1F
100
AcDbEntity
  8
2
  6
CONTINUOUS
370
25
 62
7
100
AcDbLine
 10
52.67604218960731
 20
-25.33520843792146
 30
0.0
 11
53.51406328441097
 21
-24.49718734311781
 31
0.0
  0
LINE
  5
888
330
1F
100
AcDbEntity
  8
2
  6
CONTINUOUS
370
25
 62
7
100
AcDbLine
 10
52.32248879901404
 20
-25.26449775980281
 30
0.0
 11
52.98373319852105
 21
-24.60325336029579
 31
0.0
  0
LINE
  5
889
330
1F
100
AcDbEntity
  8
2
  6
CONTINUOUS
370
25
 62
7
100
AcDbLine
 10
51.96893540842076
 20
-25.19378708168415
 30
0.0
 11
52.45340311263114
 21
-24.70931937747377
 31
0.0
  0
LINE
  5
88A
330
1F
100
AcDbEntity
  8
2
  6
CONTINUOUS
370
25
 62
7
100
AcDbLine
 10
51.61538201782749
 20
-25.1230764035655
 30
0.0
 11
51.92307302674124
 21
-24.81538539465175
 31
0.0
  0
LINE
  5
88B
330
1F
100
AcDbEntity
  8
2
  6
CONTINUOUS
370
25
 62
7
100
AcDbLine
 10
51.26182862723422
 20
-25.05236572544684
 30
0.0
 11
51.39274294085133
 21
-24.92145141182973
 31
0.0
  0
LINE
  5
88C
330
1F
100
AcDbEntity
  8
2
  6
CONTINUOUS
370
25
 62
7
100
AcDbLine
 10
51.14078684923045
 20
-24.97184263015391
 30
0.0
 11
51.21118027384567
 21
-25.04223605476913
 31
0.0
  0
LINE
  5
88D
330
1F
100
AcDbEntity
  8
2
  6
CONTINUOUS
370
25
 62
7
100
AcDbLine
 10
51.49434023982372
 20
-24.90113195203526
 30
0.0
 11
51.74151035973559
 21
-25.14830207194712
 31
0.0
  0
LINE
  5
88E
330
1F
100
AcDbEntity
  8
2
  6
CONTINUOUS
370
25
 62
7
100
AcDbLine
 10
51.84789363041699
 20
-24.8304212739166
 30
0.0
 11
52.27184044562549
 21
-25.2543680891251
 31
0.0
  0
LINE
  5
88F
330
1F
100
AcDbEntity
  8
2
  6
CONTINUOUS
370
25
 62
7
100
AcDbLine
 10
52.20144702101027
 20
-24.75971059579795
 30
0.0
 11
52.80217053151541
 21
-25.36043410630308
 31
0.0
  0
LINE
  5
890
330
1F
100
AcDbEntity
  8
2
  6
CONTINUOUS
370
25
 62
7
100
AcDbLine
 10
52.55500041160354
 20
-24.68899991767929
 30
0.0
 11
53.33250061740532
 21
-25.46650012348106
 31
0.0
  0
LINE
  5
891
330
1F
100
AcDbEntity
  8
2
  6
CONTINUOUS
370
25
 62
7
100
AcDbLine
 10
52.90855380219681
 20
-24.61828923956064
 30
0.0
 11
53.86283070329522
 21
-25.57256614065905
 31
0.0
  0
LINE
  5
892
330
1F
100
AcDbEntity
  8
2
  6
CONTINUOUS
370
25
 62
7
100
AcDbLine
 10
53.26210719279009
 20
-24.54757856144198
 30
0.0
 11
54.39316078918514
 21
-25.67863215783703
 31
0.0
  0
LINE
  5
893
330
1F
100
AcDbEntity
  8
2
  6
CONTINUOUS
370
25
 62
7
100
AcDbLine
 10
53.61566058338336
 20
-24.47686788332333
 30
0.0
 11
54.92349087507505
 21
-25.78469817501501
 31
0.0
  0
LINE
  5
894
330
1F
100
AcDbEntity
  8
2
  6
CONTINUOUS
370
25
 62
7
100
AcDbLine
 10
53.96921397397664
 20
-24.40615720520467
 30
0.0
 11
55.45382096096495
 21
-25.89076419219299
 31
0.0
  0
LINE
  5
895
330
1F
100
AcDbEntity
  8
2
  6
CONTINUOUS
370
25
 62
7
100
AcDbLine
 10
54.32276736456991
 20
-24.33544652708602
 30
0.0
 11
55.98415104685486
 21
-25.99683020937098
 31
0.0
  0
LINE
  5
896
330
1F
100
AcDbEntity
  8
2
  6
CONTINUOUS
370
25
 62
7
100
AcDbLine
 10
54.67632075516318
 20
-24.26473584896736
 30
0.0
 11
56.0
 21
-25.58841509380418
 31
0.0
  0
LINE
  5
897
330
1F
100
AcDbEntity
  8
2
  6
CONTINUOUS
370
25
 62
7
100
AcDbLine
 10
55.02987414575645
 20
-24.19402517084871
 30
0.0
 11
56.0
 21
-25.16415102509225
 31
0.0
  0
LINE
  5
898
330
1F
100
AcDbEntity
  8
2
  6
CONTINUOUS
370
25
 62
7
100
AcDbLine
 10
55.38342753634973
 20
-24.12331449273005
 30
0.0
 11
56.0
 21
-24.73988695638032
 31
0.0
  0
LINE
  5
899
330
1F
100
AcDbEntity
  8
2
  6
CONTINUOUS
370
25
 62
7
100
AcDbLine
 10
55.736980926943
 20
-24.0526038146114
 30
0.0
 11
56.0
 21
-24.3156228876684
 31
0.0
  0
TEXT
  5
89A
330
1F
100
AcDbEntity
  8
2
  6
CONTINUOUS
370
25
 62
7
100
AcDbText
 10
57.78749999999999
 20
-23.5
 30
0.0
 40
3.5
  1
0.5x45°
 72
     1
 11
67.4125
 21
-23.5
 31
0.0
100
AcDbText
  0
LINE
  5
89B
330
1F
100
AcDbEntity
  8
SK1
  6
CONTINUOUS
370
50
 62
4
100
AcDbLine
 10
39.0
 20
0.0
 30
0.0
 11
40.75
 21
0.0
 31
0.0
  0
LINE
  5
89C
330
1F
100
AcDbEntity
  8
SK1
  6
CONTINUOUS
370
50
 62
4
100
AcDbLine
 10
39.0
 20
0.0
 30
0.0
 11
39.0
 21
1.75
 31
0.0
  0
ARC
  5
89D
330
1F
100
AcDbEntity
  8
SK1
  6
CONTINUOUS
370
50
 62
4
100
AcDbCircle
 10
39.0
 20
0.0
 30
0.0
 40
1.75
100
AcDbArc
 50
0.0
 51
90.0
  0
LINE
  5
89E
330
1F
100
AcDbEntity
  8
SK1
  6
CONTINUOUS
370
50
 62
4
100
AcDbLine
 10
39.0
 20
0.0
 30
0.0
 11
37.25
 21
0.0
 31
0.0
  0
ARC
  5
89F
330
1F
100
AcDbEntity
  8
SK1
  6
CONTINUOUS
370
50
 62
4
100
AcDbCircle
 10
39.0
 20
0.0
 30
0.0
 40
1.75
100
AcDbArc
 50
180.0
 51
270.0
  0
LINE
  5
8A0
330
1F
100
AcDbEntity
  8
SK1
  6
CONTINUOUS
370
50
 62
4
100
AcDbLine
 10
39.0
 20
-1.75
 30
0.0
 11
39.0
 21
0.0
 31
0.0
  0
ARC
  5
8A1
330
1F
100
AcDbEntity
  8
SK1
  6
CONTINUOUS
370
50
 62
4
100
AcDbCircle
 10
39.0
 20
0.0
 30
0.0
 40
1.75
100
AcDbArc
 50
270.0
 51
0.0
  0
ARC
  5
8A2
330
1F
100
AcDbEntity
  8
SK1
  6
CONTINUOUS
370
50
 62
4
100
AcDbCircle
 10
39.0
 20
0.0
 30
0.0
 40
1.75
100
AcDbArc
 50
90.0
 51
180.0
  0
LINE
  5
8A3
330
1F
100
AcDbEntity
  8
SK1
  6
CONTINUOUS
370
50
 62
4
100
AcDbLine
 10
38.77717274741573
 20
-1.73564731720198
 30
0.0
 11
39.0
 21
-1.512820064617713
 31
0.0
  0
LINE
  5
8A4
330
1F
100
AcDbEntity
  8
SK1
  6
CONTINUOUS
370
50
 62
4
100
AcDbLine
 10
40.51282006461771
 20
0.0
 30
0.0
 11
40.73564731720198
 21
0.2228272525842674
 31
0.0
  0
LINE
  5
8A5
330
1F
100
AcDbEntity
  8
SK1
  6
CONTINUOUS
370
50
 62
4
100
AcDbLine
 10
38.56930380681873
 20
-1.69602888438369
 30
0.0
 11
39.0
 21
-1.265332691202421
 31
0.0
  0
LINE
  5
8A6
330
1F
100
AcDbEntity
  8
SK1
  6
CONTINUOUS
370
50
 62
4
100
AcDbLine
 10
40.26533269120242
 20
0.0
 30
0.0
 11
40.69602888438369
 21
0.4306961931812696
 31
0.0
  0
LINE
  5
8A7
330
1F
100
AcDbEntity
  8
SK1
  6
CONTINUOUS
370
50
 62
4
100
AcDbLine
 10
38.38148340435765
 20
-1.636361913429485
 30
0.0
 11
39.0
 21
-1.01784531778713
 31
0.0
  0
LINE
  5
8A8
330
1F
100
AcDbEntity
  8
SK1
  6
CONTINUOUS
370
50
 62
4
100
AcDbLine
 10
40.01784531778713
 20
0.0
 30
0.0
 11
40.63636191342948
 21
0.6185165956423557
 31
0.0
  0
LINE
  5
8A9
330
1F
100
AcDbEntity
  8
SK1
  6
CONTINUOUS
370
50
 62
4
100
AcDbLine
 10
38.2098551094628
 20
-1.560502834909039
 30
0.0
 11
39.0
 21
-0.7703579443718382
 31
0.0
  0
LINE
  5
8AA
330
1F
100
AcDbEntity
  8
SK1
  6
CONTINUOUS
370
50
 62
4
100
AcDbLine
 10
39.77035794437184
 20
0.0
 30
0.0
 11
40.56050283490904
 21
0.7901448905372013
 31
0.0
  0
LINE
  5
8AB
330
1F
100
AcDbEntity
  8
SK1
  6
CONTINUOUS
370
50
 62
4
100
AcDbLine
 10
38.05217783219447
 20
-1.470692738762079
 30
0.0
 11
39.0
 21
-0.5228705709565462
 31
0.0
  0
LINE
  5
8AC
330
1F
100
AcDbEntity
  8
SK1
  6
CONTINUOUS
370
50
 62
4
100
AcDbLine
 10
39.52287057095655
 20
0.0
 30
0.0
 11
40.47069273876208
 21
0.947822167805533
 31
0.0
  0
LINE
  5
8AD
330
1F
100
AcDbEntity
  8
SK1
  6
CONTINUOUS
370
50
 62
4
100
AcDbLine
 10
37.90842956711548
 20
-1.366953630425777
 30
0.0
 11
39.0
 21
-0.2753831975412551
 31
0.0
  0
LINE
  5
8AE
330
1F
100
AcDbEntity
  8
SK1
  6
CONTINUOUS
370
50
 62
4
100
AcDbLine
 10
39.27538319754125
 20
0.0
 30
0.0
 11
40.36695363042578
 21
1.091570432884522
 31
0.0
  0
LINE
  5
8AF
330
1F
100
AcDbEntity
  8
SK1
  6
CONTINUOUS
370
50
 62
4
100
AcDbLine
 10
37.77712164538165
 20
-1.25077417874432
 30
0.0
 11
39.0
 21
-0.0278958241259639
 31
0.0
  0
LINE
  5
8B0
330
1F
100
AcDbEntity
  8
SK1
  6
CONTINUOUS
370
50
 62
4
100
AcDbLine
 10
39.02789582412596
 20
0.0
 30
0.0
 11
40.25077417874432
 21
1.222878354618356
 31
0.0
  0
LINE
  5
8B1
330
1F
100
AcDbEntity
  8
SK1
  6
CONTINUOUS
370
50
 62
4
100
AcDbLine
 10
37.65784030371346
 20
-1.122568146997212
 30
0.0
 11
38.78040845071067
 21
0.0
 31
0.0
  0
LINE
  5
8B2
330
1F
100
AcDbEntity
  8
SK1
  6
CONTINUOUS
370
50
 62
4
100
AcDbLine
 10
39.0
 20
0.2195915492893277
 30
0.0
 11
40.12256814699721
 21
1.34215969628654
 31
0.0
  0
LINE
  5
8B3
330
1F
100
AcDbEntity
  8
SK1
  6
CONTINUOUS
370
50
 62
4
100
AcDbLine
 10
37.55188167231256
 20
-0.9810394049828186
 30
0.0
 11
38.53292107729538
 21
0.0
 31
0.0
  0
LINE
  5
8B4
330
1F
100
AcDbEntity
  8
SK1
  6
CONTINUOUS
370
50
 62
4
100
AcDbLine
 10
39.0
 20
0.4670789227046193
 30
0.0
 11
39.98103940498282
 21
1.448118327687438
 31
0.0
  0
LINE
  5
8B5
330
1F
100
AcDbEntity
  8
SK1
  6
CONTINUOUS
370
50
 62
4
100
AcDbLine
 10
37.45832908651575
 20
-0.8271046173643402
 30
0.0
 11
38.28543370388009
 21
0.0
 31
0.0
  0
LINE
  5
8B6
330
1F
100
AcDbEntity
  8
SK1
  6
CONTINUOUS
370
50
 62
4
100
AcDbLine
 10
39.0
 20
0.71456629611991
 30
0.0
 11
39.82710461736434
 21
1.54167091348425
 31
0.0
  0
LINE
  5
8B7
330
1F
100
AcDbEntity
  8
SK1
  6
CONTINUOUS
370
50
 62
4
100
AcDbLine
 10
37.37918473824205
 20
-0.6587615922227528
 30
0.0
 11
38.0379463304648
 21
0.0
 31
0.0
  0
LINE
  5
8B8
330
1F
100
AcDbEntity
  8
SK1
  6
CONTINUOUS
370
50
 62
4
100
AcDbLine
 10
39.0
 20
0.9620536695352015
 30
0.0
 11
39.65876159222275
 21
1.620815261757954
 31
0.0
  0
LINE
  5
8B9
330
1F
100
AcDbEntity
  8
SK1
  6
CONTINUOUS
370
50
 62
4
100
AcDbLine
 10
37.31629687706963
 20
-0.474162079979876
 30
0.0
 11
37.79045895704951
 21
0.0
 31
0.0
  0
LINE
  5
8BA
330
1F
100
AcDbEntity
  8
SK1
  6
CONTINUOUS
370
50
 62
4
100
AcDbLine
 10
39.0
 20
1.209541042950494
 30
0.0
 11
39.47416207997988
 21
1.683703122930369
 31
0.0
  0
LINE
  5
8BB
330
1F
100
AcDbEntity
  8
SK1
  6
CONTINUOUS
370
50
 62
4
100
AcDbLine
 10
37.27198100434271
 20
-0.2709905792915031
 30
0.0
 11
37.54297158363422
 21
0.0
 31
0.0
  0
LINE
  5
8BC
330
1F
100
AcDbEntity
  8
SK1
  6
CONTINUOUS
370
50
 62
4
100
AcDbLine
 10
39.0
 20
1.457028416365784
 30
0.0
 11
39.2709905792915
 21
1.728018995657286
 31
0.0
  0
LINE
  5
8BD
330
1F
100
AcDbEntity
  8
SK1
  6
CONTINUOUS
370
50
 62
4
100
AcDbLine
 10
37.2513858468978
 20
-0.0440983633211194
 30
0.0
 11
37.29548421021892
 21
0.0
 31
0.0
  0
LINE
  5
8BE
330
1F
100
AcDbEntity
  8
SK1
  6
CONTINUOUS
370
50
 62
4
100
AcDbLine
 10
39.0
 20
1.704515789781075
 30
0.0
 11
39.04409836332112
 21
1.748614153102194
 31
0.0
  0
LINE
  5
8BF
330
1F
100
AcDbEntity
  8
SK1
  6
CONTINUOUS
370
50
 62
4
100
AcDbLine
 10
37.36386517603682
 20
-0.6191473609004006
 30
0.0
 11
38.3808526390996
 21
-1.636134823963186
 31
0.0
  0
LINE
  5
8C0
330
1F
100
AcDbEntity
  8
SK1
  6
CONTINUOUS
370
50
 62
4
100
AcDbLine
 10
37.27363430643545
 20
-0.2814291178837463
 30
0.0
 11
38.71857088211625
 21
-1.726365693564548
 31
0.0
  0
LINE
  5
8C1
330
1F
100
AcDbEntity
  8
SK1
  6
CONTINUOUS
370
50
 62
4
100
AcDbLine
 10
37.2503344343115
 20
-0.0106418723445003
 30
0.0
 11
38.9893581276555
 21
-1.749665565688503
 31
0.0
  0
LINE
  5
8C2
330
1F
100
AcDbEntity
  8
SK1
  6
CONTINUOUS
370
50
 62
4
100
AcDbLine
 10
37.48717993538229
 20
0.0
 30
0.0
 11
39.0
 21
-1.51282006461771
 31
0.0
  0
LINE
  5
8C3
330
1F
100
AcDbEntity
  8
SK1
  6
CONTINUOUS
370
50
 62
4
100
AcDbLine
 10
37.73466730879758
 20
0.0
 30
0.0
 11
39.0
 21
-1.265332691202418
 31
0.0
  0
LINE
  5
8C4
330
1F
100
AcDbEntity
  8
SK1
  6
CONTINUOUS
370
50
 62
4
100
AcDbLine
 10
37.98215468221287
 20
0.0
 30
0.0
 11
39.0
 21
-1.017845317787128
 31
0.0
  0
LINE
  5
8C5
330
1F
100
AcDbEntity
  8
SK1
  6
CONTINUOUS
370
50
 62
4
100
AcDbLine
 10
38.22964205562816
 20
0.0
 30
0.0
 11
39.0
 21
-0.7703579443718369
 31
0.0
  0
LINE
  5
8C6
330
1F
100
AcDbEntity
  8
SK1
  6
CONTINUOUS
370
50
 62
4
100
AcDbLine
 10
38.47712942904345
 20
0.0
 30
0.0
 11
39.0
 21
-0.5228705709565453
 31
0.0
  0
LINE
  5
8C7
330
1F
100
AcDbEntity
  8
SK1
  6
CONTINUOUS
370
50
 62
4
100
AcDbLine
 10
38.72461680245875
 20
0.0
 30
0.0
 11
39.0
 21
-0.2753831975412537
 31
0.0
  0
LINE
  5
8C8
330
1F
100
AcDbEntity
  8
SK1
  6
CONTINUOUS
370
50
 62
4
100
AcDbLine
 10
38.97210417587404
 20
0.0
 30
0.0
 11
39.0
 21
-0.027895824125963
 31
0.0
  0
LINE
  5
8C9
330
1F
100
AcDbEntity
  8
SK1
  6
CONTINUOUS
370
50
 62
4
100
AcDbLine
 10
39.0
 20
0.219591549289329
 30
0.0
 11
39.21959154928933
 21
0.0
 31
0.0
  0
LINE
  5
8CA
330
1F
100
AcDbEntity
  8
SK1
  6
CONTINUOUS
370
50
 62
4
100
AcDbLine
 10
39.0
 20
0.4670789227046202
 30
0.0
 11
39.46707892270462
 21
0.0
 31
0.0
  0
LINE
  5
8CB
330
1F
100
AcDbEntity
  8
SK1
  6
CONTINUOUS
370
50
 62
4
100
AcDbLine
 10
39.0
 20
0.7145662961199113
 30
0.0
 11
39.71456629611991
 21
0.0
 31
0.0
  0
LINE
  5
8CC
330
1F
100
AcDbEntity
  8
SK1
  6
CONTINUOUS
370
50
 62
4
100
AcDbLine
 10
39.0
 20
0.9620536695352029
 30
0.0
 11
39.9620536695352
 21
0.0
 31
0.0
  0
LINE
  5
8CD
330
1F
100
AcDbEntity
  8
SK1
  6
CONTINUOUS
370
50
 62
4
100
AcDbLine
 10
39.0
 20
1.209541042950494
 30
0.0
 11
40.2095410429505
 21
0.0
 31
0.0
  0
LINE
  5
8CE
330
1F
100
AcDbEntity
  8
SK1
  6
CONTINUOUS
370
50
 62
4
100
AcDbLine
 10
39.0
 20
1.457028416365785
 30
0.0
 11
40.45702841636579
 21
0.0
 31
0.0
  0
LINE
  5
8CF
330
1F
100
AcDbEntity
  8
SK1
  6
CONTINUOUS
370
50
 62
4
100
AcDbLine
 10
39.0
 20
1.704515789781076
 30
0.0
 11
40.70451578978108
 21
0.0
 31
0.0
  0
LINE
  5
8D0
330
1F
100
AcDbEntity
  8
SK1
  6
CONTINUOUS
370
50
 62
4
100
AcDbLine
 10
39.21543384193567
 20
1.736569321260697
 30
0.0
 11
40.7365693212607
 21
0.2154338419356714
 31
0.0
  0
LINE
  5
8D1
330
1F
100
AcDbEntity
  8
SK1
  6
CONTINUOUS
370
50
 62
4
100
AcDbLine
 10
39.53283284728993
 20
1.666657689321729
 30
0.0
 11
40.66665768932173
 21
0.5328328472899322
 31
0.0
  0
LINE
  5
8D2
330
1F
100
AcDbEntity
  8
SK1
  6
CONTINUOUS
370
50
 62
4
100
AcDbLine
 10
40.04009874905675
 20
1.406879160970207
 30
0.0
 11
40.40687916097021
 21
1.040098749056747
 31
0.0
  0
LINE
  5
8D3
330
1F
100
AcDbEntity
  8
4
  6
LONGDASH_DASH
370
25
 62
2
100
AcDbLine
 10
39.0
 20
0.0
 30
0.0
 11
51.0
 21
0.0
 31
0.0
  0
LINE
  5
8D4
330
1F
100
AcDbEntity
  8
SK4
  6
LONGDASH_DASH
370
25
 62
2
100
AcDbLine
 10
-6.0
 20
0.0
 30
0.0
 11
57.0
 21
0.0
 31
0.0
  0
ARC
  5
8D5
330
1F
100
AcDbEntity
  8
SK6
  6
CONTINUOUS
370
25
 62
5
100
AcDbCircle
 10
75.5613820083765
 20
-27.84524575338786
 30
0.0
 40
2.76048912849221
100
AcDbArc
 50
338.9379403434233
 51
90.44457437511365
  0
LINE
  5
8D6
330
1F
100
AcDbEntity
  8
SK6
  6
CONTINUOUS
370
25
 62
5
100
AcDbLine
 10
75.53996279695983
 20
-25.08483972421281
 30
0.0
 11
75.53996279695983
 21
-26.18789835613464
 31
0.0
  0
ARC
  5
8D7
330
1F
100
AcDbEntity
  8
SK6
  6
CONTINUOUS
370
25
 62
5
100
AcDbCircle
 10
75.55050902936915
 20
-27.86523924566821
 30
0.0
 40
1.677374043771779
100
AcDbArc
 50
243.4214706017868
 51
90.36024081226083
  0
ARC
  5
8D8
330
1F
100
AcDbEntity
  8
SK6
  6
CONTINUOUS
370
25
 62
5
100
AcDbCircle
 10
78.07275989684958
 20
-27.43383199215561
 30
0.0
 40
3.80021703002276
100
AcDbArc
 50
210.5483731288539
 51
236.97801693668
  0
LINE
  5
8D9
330
1F
100
AcDbEntity
  8
SK6
  6
CONTINUOUS
370
25
 62
5
100
AcDbLine
 10
76.00179068512486
 20
-30.62016781867535
 30
0.0
 11
80.1437309674267
 21
-30.62016781867535
 31
0.0
  0
ARC
  5
8DA
330
1F
100
AcDbEntity
  8
SK6
  6
CONTINUOUS
370
25
 62
5
100
AcDbCircle
 10
78.07276183877256
 20
-27.4338320937346
 30
0.0
 40
3.800216899582472
100
AcDbArc
 50
303.0219828477959
 51
326.3732153033476
  0
LINE
  5
8DB
330
1F
100
AcDbEntity
  8
SK6
  6
CONTINUOUS
370
25
 62
5
100
AcDbLine
 10
81.23705975135722
 20
-29.5383194907709
 30
0.0
 11
77.87976170575462
 21
-29.5383194907709
 31
0.0
  0
LINE
  5
8DC
330
1F
100
AcDbEntity
  8
SK6
  6
CONTINUOUS
370
25
 62
5
100
AcDbLine
 10
77.87976170575462
 20
-29.5383194907709
 30
0.0
 11
81.79962109771986
 21
-28.17691829641694
 31
0.0
  0
ARC
  5
8DD
330
1F
100
AcDbEntity
  8
SK6
  6
CONTINUOUS
370
25
 62
5
100
AcDbCircle
 10
78.0727625615721
 20
-27.4338326048594
 30
0.0
 40
3.800217216614723
100
AcDbArc
 50
348.7238644184696
 51
53.4691051260885
  0
LINE
  5
8DE
330
1F
100
AcDbEntity
  8
SK6
  6
CONTINUOUS
370
25
 62
5
100
AcDbLine
 10
80.33486524538544
 20
-24.38022124429967
 30
0.0
 11
78.13745047882736
 21
-28.83730973507058
 31
0.0
  0
ENDSEC
  0
SECTION
  2
OBJECTS
  0
DICTIONARY
  5
C
330
0
100
AcDbDictionary
281
     1
  3
ACAD_GROUP
350
D
  3
ACAD_LAYOUT
350
1A
  3
ACAD_MATERIAL
350
3B
  3
ACAD_MLEADERSTYLE
350
8E1
  3
ACAD_MLINESTYLE
350
17
  3
ACAD_PLOTSETTINGS
350
19
  3
ACAD_PLOTSTYLENAME
350
E
  3
ACAD_SCALELIST
350
264
  3
ACAD_VISUALSTYLE
350
2A
  3
AcDbVariableDictionary
350
8DF
  0
DICTIONARY
  5
D
102
{ACAD_REACTORS
330
C
102
}
330
C
100
AcDbDictionary
281
     1
  0
DICTIONARY
  5
1A
102
{ACAD_REACTORS
330
C
102
}
330
C
100
AcDbDictionary
281
     1
  3
Layout1
350
1E
  3
Layout2
350
26
  3
Model
350
22
  0
DICTIONARY
  5
3B
102
{ACAD_REACTORS
330
C
102
}
330
C
100
AcDbDictionary
281
     1
  3
ByBlock
350
3D
  3
ByLayer
350
3C
  3
Global
350
3E
  0
DICTIONARY
  5
8E1
102
{ACAD_REACTORS
330
C
102
}
330
C
100
AcDbDictionary
281
     1
  0
DICTIONARY
  5
17
102
{ACAD_REACTORS
330
C
102
}
330
C
100
AcDbDictionary
281
     1
  3
Standard
350
18
  0
DICTIONARY
  5
19
102
{ACAD_REACTORS
330
C
102
}
330
C
100
AcDbDictionary
281
     1
  0
ACDBDICTIONARYWDFLT
  5
E
102
{ACAD_REACTORS
330
C
102
}
330
C
100
AcDbDictionary
281
     1
  3
Normal
350
F
100
AcDbDictionaryWithDefault
340
F
  0
DICTIONARY
  5
264
102
{ACAD_REACTORS
330
C
102
}
330
C
100
AcDbDictionary
281
     1
  3
A0
350
265
  3
A1
350
266
  3
A2
350
267
  3
A3
350
268
  3
A4
350
269
  3
A5
350
26A
  3
A6
350
26B
  3
A7
350
26C
  3
A8
350
26D
  3
A9
350
26E
  3
B0
350
26F
  3
B1
350
270
  3
B2
350
271
  3
B3
350
272
  3
B4
350
273
  3
B5
350
274
  3
B6
350
275
  3
B7
350
276
  3
B8
350
277
  3
B9
350
278
  3
C0
350
279
  3
C1
350
27A
  3
C2
350
27B
  3
C3
350
27C
  3
C4
350
27D
  3
C5
350
27E
  3
C6
350
27F
  3
C7
350
280
  3
C8
350
281
  3
C9
350
282
  3
D0
350
283
  3
D1
350
284
  3
D2
350
285
  0
DICTIONARY
  5
2A
102
{ACAD_REACTORS
330
C
102
}
330
C
100
AcDbDictionary
281
     1
  3
2dWireframe
350
2F
  3
3D Hidden
350
31
  3
3dWireframe
350
30
  3
Basic
350
32
  3
Brighten
350
36
  3
ColorChange
350
3A
  3
Conceptual
350
34
  3
Dim
350
35
  3
Facepattern
350
39
  3
Flat
350
2B
  3
FlatWithEdges
350
2C
  3
Gouraud
350
2D
  3
GouraudWithEdges
350
2E
  3
Linepattern
350
38
  3
Realistic
350
33
  3
Thicken
350
37
  0
DICTIONARY
  5
8DF
102
{ACAD_REACTORS
330
C
102
}
330
C
100
AcDbDictionary
281
     1
  3
CANNOSCALE
350
8E4
  3
DIMASSOC
350
8E5
  3
HIDETEXT
350
8E6
  3
PSOLHEIGHT
350
8E3
  3
PSOLWIDTH
350
8E2
  0
LAYOUT
  5
1E
102
{ACAD_REACTORS
330
1A
102
}
330
1A
100
AcDbPlotSettings
  1

  2
none_device
  4

  6

 40
0.0
 41
0.0
 42
0.0
 43
0.0
 44
0.0
 45
0.0
 46
0.0
 47
0.0
 48
0.0
 49
0.0
140
0.0
141
0.0
142
1.0
143
1.0
 70
   688
 72
     0
 73
     0
 74
     5
  7

 75
    16
147
1.0
148
0.0
149
0.0
100
AcDbLayout
  1
Layout1
 70
     1
 71
     1
 10
0.0
 20
0.0
 11
420.0
 21
297.0
 12
0.0
 22
0.0
 32
0.0
 14
1.000000000000000E+20
 24
1.000000000000000E+20
 34
1.000000000000000E+20
 15
-1.000000000000000E+20
 25
-1.000000000000000E+20
 35
-1.000000000000000E+20
146
0.0
 13
0.0
 23
0.0
 33
0.0
 16
1.0
 26
0.0
 36
0.0
 17
0.0
 27
1.0
 37
0.0
 76
     0
330
1B
  0
LAYOUT
  5
26
102
{ACAD_REACTORS
330
1A
102
}
330
1A
100
AcDbPlotSettings
  1

  2
none_device
  4

  6

 40
0.0
 41
0.0
 42
0.0
 43
0.0
 44
0.0
 45
0.0
 46
0.0
 47
0.0
 48
0.0
 49
0.0
140
0.0
141
0.0
142
1.0
143
1.0
 70
   688
 72
     0
 73
     0
 74
     5
  7

 75
    16
147
1.0
148
0.0
149
0.0
100
AcDbLayout
  1
Layout2
 70
     1
 71
     2
 10
0.0
 20
0.0
 11
0.0
 21
0.0
 12
0.0
 22
0.0
 32
0.0
 14
0.0
 24
0.0
 34
0.0
 15
0.0
 25
0.0
 35
0.0
146
0.0
 13
0.0
 23
0.0
 33
0.0
 16
1.0
 26
0.0
 36
0.0
 17
0.0
 27
1.0
 37
0.0
 76
     0
330
23
  0
LAYOUT
  5
22
102
{ACAD_REACTORS
330
1A
102
}
330
1A
100
AcDbPlotSettings
  1

  2
none_device
  4

  6

 40
0.0
 41
0.0
 42
0.0
 43
0.0
 44
0.0
 45
0.0
 46
0.0
 47
0.0
 48
0.0
 49
0.0
140
0.0
141
0.0
142
1.0
143
1.0
 70
  1712
 72
     0
 73
     0
 74
     0
  7

 75
     0
147
1.0
148
0.0
149
0.0
100
AcDbLayout
  1
Model
 70
     1
 71
     0
 10
0.0
 20
0.0
 11
420.0
 21
297.0
 12
0.0
 22
0.0
 32
0.0
 14
0.0
 24
0.0
 34
0.0
 15
25.0
 25
35.0
 35
0.0
146
0.0
 13
0.0
 23
0.0
 33
0.0
 16
1.0
 26
0.0
 36
0.0
 17
0.0
 27
1.0
 37
0.0
 76
     0
330
1F
331
29
  0
MATERIAL
  5
3D
102
{ACAD_REACTORS
330
3B
102
}
102
{ACAD_XDICTIONARY
360
909
102
}
330
3B
100
AcDbMaterial
  1
ByBlock
  0
MATERIAL
  5
3C
102
{ACAD_REACTORS
330
3B
102
}
102
{ACAD_XDICTIONARY
360
907
102
}
330
3B
100
AcDbMaterial
  1
ByLayer
  0
MATERIAL
  5
3E
102
{ACAD_REACTORS
330
3B
102
}
102
{ACAD_XDICTIONARY
360
90B
102
}
330
3B
100
AcDbMaterial
  1
Global
  0
MLINESTYLE
  5
18
102
{ACAD_REACTORS
330
17
102
}
330
17
100
AcDbMlineStyle
  2
Standard
 70
     0
  3

 62
   256
 51
90.0
 52
90.0
 71
     2
 49
0.5
 62
   256
  6
BYLAYER
 49
-0.5
 62
   256
  6
BYLAYER
  0
ACDBPLACEHOLDER
  5
F
102
{ACAD_REACTORS
330
E
102
}
330
E
  0
SCALE
  5
265
102
{ACAD_REACTORS
330
264
102
}
330
264
100
AcDbScale
 70
     0
300
1:1
140
1.0
141
1.0
290
     1
  0
SCALE
  5
266
102
{ACAD_REACTORS
330
264
102
}
330
264
100
AcDbScale
 70
     0
300
1:2
140
1.0
141
2.0
290
     0
  0
SCALE
  5
267
102
{ACAD_REACTORS
330
264
102
}
330
264
100
AcDbScale
 70
     0
300
1:4
140
1.0
141
4.0
290
     0
  0
SCALE
  5
268
102
{ACAD_REACTORS
330
264
102
}
330
264
100
AcDbScale
 70
     0
300
1:5
140
1.0
141
5.0
290
     0
  0
SCALE
  5
269
102
{ACAD_REACTORS
330
264
102
}
330
264
100
AcDbScale
 70
     0
300
1:8
140
1.0
141
8.0
290
     0
  0
SCALE
  5
26A
102
{ACAD_REACTORS
330
264
102
}
330
264
100
AcDbScale
 70
     0
300
1:10
140
1.0
141
10.0
290
     0
  0
SCALE
  5
26B
102
{ACAD_REACTORS
330
264
102
}
330
264
100
AcDbScale
 70
     0
300
1:16
140
1.0
141
16.0
290
     0
  0
SCALE
  5
26C
102
{ACAD_REACTORS
330
264
102
}
330
264
100
AcDbScale
 70
     0
300
1:20
140
1.0
141
20.0
290
     0
  0
SCALE
  5
26D
102
{ACAD_REACTORS
330
264
102
}
330
264
100
AcDbScale
 70
     0
300
1:30
140
1.0
141
30.0
290
     0
  0
SCALE
  5
26E
102
{ACAD_REACTORS
330
264
102
}
330
264
100
AcDbScale
 70
     0
300
1:40
140
1.0
141
40.0
290
     0
  0
SCALE
  5
26F
102
{ACAD_REACTORS
330
264
102
}
330
264
100
AcDbScale
 70
     0
300
1:50
140
1.0
141
50.0
290
     0
  0
SCALE
  5
270
102
{ACAD_REACTORS
330
264
102
}
330
264
100
AcDbScale
 70
     0
300
1:100
140
1.0
141
100.0
290
     0
  0
SCALE
  5
271
102
{ACAD_REACTORS
330
264
102
}
330
264
100
AcDbScale
 70
     0
300
2:1
140
2.0
141
1.0
290
     0
  0
SCALE
  5
272
102
{ACAD_REACTORS
330
264
102
}
330
264
100
AcDbScale
 70
     0
300
4:1
140
4.0
141
1.0
290
     0
  0
SCALE
  5
273
102
{ACAD_REACTORS
330
264
102
}
330
264
100
AcDbScale
 70
     0
300
8:1
140
8.0
141
1.0
290
     0
  0
SCALE
  5
274
102
{ACAD_REACTORS
330
264
102
}
330
264
100
AcDbScale
 70
     0
300
10:1
140
10.0
141
1.0
290
     0
  0
SCALE
  5
275
102
{ACAD_REACTORS
330
264
102
}
330
264
100
AcDbScale
 70
     0
300
100:1
140
100.0
141
1.0
290
     0
  0
SCALE
  5
276
102
{ACAD_REACTORS
330
264
102
}
330
264
100
AcDbScale
 70
     0
300
1/128" = 1'-0"
140
0.0078125
141
12.0
290
     0
  0
SCALE
  5
277
102
{ACAD_REACTORS
330
264
102
}
330
264
100
AcDbScale
 70
     0
300
1/64" = 1'-0"
140
0.015625
141
12.0
290
     0
  0
SCALE
  5
278
102
{ACAD_REACTORS
330
264
102
}
330
264
100
AcDbScale
 70
     0
300
1/32" = 1'-0"
140
0.03125
141
12.0
290
     0
  0
SCALE
  5
279
102
{ACAD_REACTORS
330
264
102
}
330
264
100
AcDbScale
 70
     0
300
1/16" = 1'-0"
140
0.0625
141
12.0
290
     0
  0
SCALE
  5
27A
102
{ACAD_REACTORS
330
264
102
}
330
264
100
AcDbScale
 70
     0
300
3/32" = 1'-0"
140
0.09375
141
12.0
290
     0
  0
SCALE
  5
27B
102
{ACAD_REACTORS
330
264
102
}
330
264
100
AcDbScale
 70
     0
300
1/8" = 1'-0"
140
0.125
141
12.0
290
     0
  0
SCALE
  5
27C
102
{ACAD_REACTORS
330
264
102
}
330
264
100
AcDbScale
 70
     0
300
3/16" = 1'-0"
140
0.1875
141
12.0
290
     0
  0
SCALE
  5
27D
102
{ACAD_REACTORS
330
264
102
}
330
264
100
AcDbScale
 70
     0
300
1/4" = 1'-0"
140
0.25
141
12.0
290
     0
  0
SCALE
  5
27E
102
{ACAD_REACTORS
330
264
102
}
330
264
100
AcDbScale
 70
     0
300
3/8" = 1'-0"
140
0.375
141
12.0
290
     0
  0
SCALE
  5
27F
102
{ACAD_REACTORS
330
264
102
}
330
264
100
AcDbScale
 70
     0
300
1/2" = 1'-0"
140
0.5
141
12.0
290
     0
  0
SCALE
  5
280
102
{ACAD_REACTORS
330
264
102
}
330
264
100
AcDbScale
 70
     0
300
3/4" = 1'-0"
140
0.75
141
12.0
290
     0
  0
SCALE
  5
281
102
{ACAD_REACTORS
330
264
102
}
330
264
100
AcDbScale
 70
     0
300
1" = 1'-0"
140
1.0
141
12.0
290
     0
  0
SCALE
  5
282
102
{ACAD_REACTORS
330
264
102
}
330
264
100
AcDbScale
 70
     0
300
1-1/2" = 1'-0"
140
1.5
141
12.0
290
     0
  0
SCALE
  5
283
102
{ACAD_REACTORS
330
264
102
}
330
264
100
AcDbScale
 70
     0
300
3" = 1'-0"
140
3.0
141
12.0
290
     0
  0
SCALE
  5
284
102
{ACAD_REACTORS
330
264
102
}
330
264
100
AcDbScale
 70
     0
300
6" = 1'-0"
140
6.0
141
12.0
290
     0
  0
SCALE
  5
285
102
{ACAD_REACTORS
330
264
102
}
330
264
100
AcDbScale
 70
     0
300
1'-0" = 1'-0"
140
12.0
141
12.0
290
     0
  0
VISUALSTYLE
  5
2F
102
{ACAD_REACTORS
330
2A
102
}
102
{ACAD_XDICTIONARY
360
8EF
102
}
330
2A
100
AcDbVisualStyle
  2
2dWireframe
 70
     4
 71
     0
 72
     2
 73
     0
 90
        0
 40
-0.6
 41
-30.0
 62
     5
 63
     7
 74
     1
 91
        4
 64
     7
 65
   257
 75
     1
175
     1
 42
1.0
 92
        0
 66
   257
 43
1.0
 76
     1
 77
     6
 78
     2
 67
     7
 79
     5
170
     0
171
     0
290
     0
174
     0
 93
        1
 44
0.0
173
     0
291
     0
 45
0.0
1001
ACAD
1000
AcDbSavedByObjectVersion
1070
     0
  0
VISUALSTYLE
  5
31
102
{ACAD_REACTORS
330
2A
102
}
102
{ACAD_XDICTIONARY
360
8F3
102
}
330
2A
100
AcDbVisualStyle
  2
3D Hidden
 70
     6
 71
     1
 72
     2
 73
     2
 90
        0
 40
-0.6
 41
-30.0
 62
     5
 63
     7
 74
     2
 91
        2
 64
     7
 65
   257
 75
     2
175
     1
 42
40.0
 92
        0
 66
   257
 43
1.0
 76
     1
 77
     6
 78
     2
 67
     7
 79
     3
170
     0
171
     0
290
     0
174
     0
 93
        1
 44
0.0
173
     0
291
     0
 45
0.0
1001
ACAD
1000
AcDbSavedByObjectVersion
1070
     0
  0
VISUALSTYLE
  5
30
102
{ACAD_REACTORS
330
2A
102
}
102
{ACAD_XDICTIONARY
360
8F1
102
}
330
2A
100
AcDbVisualStyle
  2
3dWireframe
 70
     5
 71
     0
 72
     2
 73
     0
 90
        0
 40
-0.6
 41
-30.0
 62
     5
 63
     7
 74
     1
 91
        4
 64
     7
 65
   257
 75
     1
175
     1
 42
1.0
 92
        0
 66
   257
 43
1.0
 76
     1
 77
     6
 78
     2
 67
     7
 79
     5
170
     0
171
     0
290
     0
174
     0
 93
        1
 44
0.0
173
     0
291
     0
 45
0.0
1001
ACAD
1000
AcDbSavedByObjectVersion
1070
     0
  0
VISUALSTYLE
  5
32
102
{ACAD_REACTORS
330
2A
102
}
102
{ACAD_XDICTIONARY
360
8F5
102
}
330
2A
100
AcDbVisualStyle
  2
Basic
 70
     7
 71
     1
 72
     0
 73
     1
 90
        0
 40
-0.6
 41
-30.0
 62
     5
 63
     7
 74
     0
 91
        4
 64
     7
 65
   257
 75
     1
175
     1
 42
1.0
 92
        8
 66
     7
 43
1.0
 76
     1
 77
     6
 78
     2
 67
     7
 79
     5
170
     0
171
     0
290
     0
174
     0
 93
        1
 44
0.0
173
     0
291
     1
 45
0.0
1001
ACAD
1000
AcDbSavedByObjectVersion
1070
     0
  0
VISUALSTYLE
  5
36
102
{ACAD_REACTORS
330
2A
102
}
102
{ACAD_XDICTIONARY
360
8FD
102
}
330
2A
100
AcDbVisualStyle
  2
Brighten
 70
    12
 71
     2
 72
     2
 73
     0
 90
        0
 40
-0.6
 41
-30.0
 62
     5
 63
     7
 74
     1
 91
        4
 64
     7
 65
   257
 75
     1
175
     1
 42
1.0
 92
        8
 66
     7
 43
1.0
 76
     1
 77
     6
 78
     2
 67
     7
 79
     5
170
     0
171
     0
290
     0
174
     0
 93
        1
 44
50.0
173
     0
291
     1
 45
0.0
1001
ACAD
1000
AcDbSavedByObjectVersion
1070
     0
  0
VISUALSTYLE
  5
3A
102
{ACAD_REACTORS
330
2A
102
}
102
{ACAD_XDICTIONARY
360
905
102
}
330
2A
100
AcDbVisualStyle
  2
ColorChange
 70
    16
 71
     2
 72
     2
 73
     3
 90
        0
 40
-0.6
 41
-30.0
 62
     5
 63
     8
 74
     1
 91
        4
 64
     7
 65
   257
 75
     1
175
     1
 42
1.0
 92
        8
 66
     8
 43
1.0
 76
     1
 77
     6
 78
     2
 67
     7
 79
     5
170
     0
171
     0
290
     0
174
     0
 93
        1
 44
0.0
173
     0
291
     1
 45
0.0
1001
ACAD
1000
AcDbSavedByObjectVersion
1070
     0
  0
VISUALSTYLE
  5
34
102
{ACAD_REACTORS
330
2A
102
}
102
{ACAD_XDICTIONARY
360
8F9
102
}
330
2A
100
AcDbVisualStyle
  2
Conceptual
 70
     9
 71
     3
 72
     2
 73
     0
 90
        0
 40
-0.6
 41
-30.0
 62
     5
 63
     7
 74
     2
 91
        2
 64
     7
 65
   257
 75
     1
175
     1
 42
40.0
 92
        8
 66
     7
 43
1.0
 76
     1
 77
     6
 78
     2
 67
     7
 79
     3
170
     0
171
     0
290
     0
174
     0
 93
        1
 44
0.0
173
     0
291
     0
 45
0.0
1001
ACAD
1000
AcDbSavedByObjectVersion
1070
     0
  0
VISUALSTYLE
  5
35
102
{ACAD_REACTORS
330
2A
102
}
102
{ACAD_XDICTIONARY
360
8FB
102
}
330
2A
100
AcDbVisualStyle
  2
Dim
 70
    11
 71
     2
 72
     2
 73
     0
 90
        0
 40
-0.6
 41
-30.0
 62
     5
 63
     7
 74
     1
 91
        4
 64
     7
 65
   257
 75
     1
175
     1
 42
1.0
 92
        8
 66
     7
 43
1.0
 76
     1
 77
     6
 78
     2
 67
     7
 79
     5
170
     0
171
     0
290
     0
174
     0
 93
        1
 44
-50.0
173
     0
291
     1
 45
0.0
1001
ACAD
1000
AcDbSavedByObjectVersion
1070
     0
  0
VISUALSTYLE
  5
39
102
{ACAD_REACTORS
330
2A
102
}
102
{ACAD_XDICTIONARY
360
903
102
}
330
2A
100
AcDbVisualStyle
  2
Facepattern
 70
    15
 71
     2
 72
     2
 73
     0
 90
        0
 40
-0.6
 41
-30.0
 62
     5
 63
     7
 74
     1
 91
        4
 64
     7
 65
   257
 75
     1
175
     1
 42
1.0
 92
        8
 66
     7
 43
1.0
 76
     1
 77
     6
 78
     2
 67
     7
 79
     5
170
     0
171
     0
290
     0
174
     0
 93
        1
 44
0.0
173
     0
291
     1
 45
0.0
1001
ACAD
1000
AcDbSavedByObjectVersion
1070
     0
  0
VISUALSTYLE
  5
2B
102
{ACAD_REACTORS
330
2A
102
}
102
{ACAD_XDICTIONARY
360
8E7
102
}
330
2A
100
AcDbVisualStyle
  2
Flat
 70
     0
 71
     2
 72
     1
 73
     1
 90
        2
 40
-0.6
 41
30.0
 62
     5
 63
     7
 74
     0
 91
        4
 64
     7
 65
   257
 75
     1
175
     1
 42
1.0
 92
        8
 66
     7
 43
1.0
 76
     1
 77
     6
 78
     2
 67
     7
 79
     5
170
     0
171
     0
290
     0
174
     0
 93
       13
 44
0.0
173
     0
291
     1
 45
0.0
1001
ACAD
1000
AcDbSavedByObjectVersion
1070
     0
  0
VISUALSTYLE
  5
2C
102
{ACAD_REACTORS
330
2A
102
}
102
{ACAD_XDICTIONARY
360
8E9
102
}
330
2A
100
AcDbVisualStyle
  2
FlatWithEdges
 70
     1
 71
     2
 72
     1
 73
     1
 90
        2
 40
-0.6
 41
30.0
 62
     5
 63
     7
 74
     1
 91
        4
 64
     7
 65
   257
 75
     1
175
     1
 42
1.0
 92
        0
 66
   257
 43
1.0
 76
     1
 77
     6
 78
     2
 67
     7
 79
     5
170
     0
171
     0
290
     0
174
     0
 93
       13
 44
0.0
173
     0
291
     1
 45
0.0
1001
ACAD
1000
AcDbSavedByObjectVersion
1070
     0
  0
VISUALSTYLE
  5
2D
102
{ACAD_REACTORS
330
2A
102
}
102
{ACAD_XDICTIONARY
360
8EB
102
}
330
2A
100
AcDbVisualStyle
  2
Gouraud
 70
     2
 71
     2
 72
     2
 73
     1
 90
        2
 40
-0.6
 41
30.0
 62
     5
 63
     7
 74
     0
 91
        4
 64
     7
 65
   257
 75
     1
175
     1
 42
1.0
 92
        0
 66
     7
 43
1.0
 76
     1
 77
     6
 78
     2
 67
     7
 79
     5
170
     0
171
     0
290
     0
174
     0
 93
       13
 44
0.0
173
     0
291
     1
 45
0.0
1001
ACAD
1000
AcDbSavedByObjectVersion
1070
     0
  0
VISUALSTYLE
  5
2E
102
{ACAD_REACTORS
330
2A
102
}
102
{ACAD_XDICTIONARY
360
8ED
102
}
330
2A
100
AcDbVisualStyle
  2
GouraudWithEdges
 70
     3
 71
     2
 72
     2
 73
     1
 90
        2
 40
-0.6
 41
30.0
 62
     5
 63
     7
 74
     1
 91
        4
 64
     7
 65
   257
 75
     1
175
     1
 42
1.0
 92
        0
 66
   257
 43
1.0
 76
     1
 77
     6
 78
     2
 67
     7
 79
     5
170
     0
171
     0
290
     0
174
     0
 93
       13
 44
0.0
173
     0
291
     1
 45
0.0
1001
ACAD
1000
AcDbSavedByObjectVersion
1070
     0
  0
VISUALSTYLE
  5
38
102
{ACAD_REACTORS
330
2A
102
}
102
{ACAD_XDICTIONARY
360
901
102
}
330
2A
100
AcDbVisualStyle
  2
Linepattern
 70
    14
 71
     2
 72
     2
 73
     0
 90
        0
 40
-0.6
 41
-30.0
 62
     5
 63
     7
 74
     1
 91
        4
 64
     7
 65
   257
 75
     7
175
     7
 42
1.0
 92
        8
 66
     7
 43
1.0
 76
     1
 77
     6
 78
     2
 67
     7
 79
     5
170
     0
171
     0
290
     0
174
     0
 93
        1
 44
0.0
173
     0
291
     1
 45
0.0
1001
ACAD
1000
AcDbSavedByObjectVersion
1070
     0
  0
VISUALSTYLE
  5
33
102
{ACAD_REACTORS
330
2A
102
}
102
{ACAD_XDICTIONARY
360
8F7
102
}
330
2A
100
AcDbVisualStyle
  2
Realistic
 70
     8
 71
     2
 72
     2
 73
     0
 90
        0
 40
-0.6
 41
-30.0
 62
     5
 63
     7
 74
     1
 91
        0
 64
     7
 65
   257
 75
     1
175
     1
 42
1.0
 92
        8
 66
     8
 43
1.0
 76
     1
 77
     6
 78
     2
 67
     7
 79
     5
170
     0
171
     0
290
     0
174
     0
 93
       13
 44
0.0
173
     0
291
     0
 45
0.0
1001
ACAD
1000
AcDbSavedByObjectVersion
1070
     0
  0
VISUALSTYLE
  5
37
102
{ACAD_REACTORS
330
2A
102
}
102
{ACAD_XDICTIONARY
360
8FF
102
}
330
2A
100
AcDbVisualStyle
  2
Thicken
 70
    13
 71
     2
 72
     2
 73
     0
 90
        0
 40
-0.6
 41
-30.0
 62
     5
 63
     7
 74
     1
 91
        4
 64
     7
 65
   257
 75
     1
175
     1
 42
1.0
 92
       12
 66
     7
 43
1.0
 76
     1
 77
     6
 78
     2
 67
     7
 79
     5
170
     0
171
     0
290
     0
174
     0
 93
        1
 44
0.0
173
     0
291
     1
 45
0.0
1001
ACAD
1000
AcDbSavedByObjectVersion
1070
     0
  0
DICTIONARYVAR
  5
8E4
102
{ACAD_REACTORS
330
8DF
102
}
330
8DF
100
DictionaryVariables
280
     0
  1
1:1
  0
DICTIONARYVAR
  5
8E5
102
{ACAD_REACTORS
330
8DF
102
}
330
8DF
100
DictionaryVariables
280
     0
  1
2
  0
DICTIONARYVAR
  5
8E6
102
{ACAD_REACTORS
330
8DF
102
}
330
8DF
100
DictionaryVariables
280
     0
  1
1
  0
DICTIONARYVAR
  5
8E3
102
{ACAD_REACTORS
330
8DF
102
}
330
8DF
100
DictionaryVariables
280
     0
  1
80.000000
  0
DICTIONARYVAR
  5
8E2
102
{ACAD_REACTORS
330
8DF
102
}
330
8DF
100
DictionaryVariables
280
     0
  1
5.000000
  0
DICTIONARY
  5
909
330
3D
100
AcDbDictionary
280
     1
281
     1
  3
ACAD_XREC_ROUNDTRIP
360
90A
  0
DICTIONARY
  5
907
330
3C
100
AcDbDictionary
280
     1
281
     1
  3
ACAD_XREC_ROUNDTRIP
360
908
  0
DICTIONARY
  5
90B
330
3E
100
AcDbDictionary
280
     1
281
     1
  3
ACAD_XREC_ROUNDTRIP
360
90C
  0
DICTIONARY
  5
8EF
330
2F
100
AcDbDictionary
280
     1
281
     1
  3
ACAD_XREC_ROUNDTRIP
360
8F0
  0
DICTIONARY
  5
8F3
330
31
100
AcDbDictionary
280
     1
281
     1
  3
ACAD_XREC_ROUNDTRIP
360
8F4
  0
DICTIONARY
  5
8F1
330
30
100
AcDbDictionary
280
     1
281
     1
  3
ACAD_XREC_ROUNDTRIP
360
8F2
  0
DICTIONARY
  5
8F5
330
32
100
AcDbDictionary
280
     1
281
     1
  3
ACAD_XREC_ROUNDTRIP
360
8F6
  0
DICTIONARY
  5
8FD
330
36
100
AcDbDictionary
280
     1
281
     1
  3
ACAD_XREC_ROUNDTRIP
360
8FE
  0
DICTIONARY
  5
905
330
3A
100
AcDbDictionary
280
     1
281
     1
  3
ACAD_XREC_ROUNDTRIP
360
906
  0
DICTIONARY
  5
8F9
330
34
100
AcDbDictionary
280
     1
281
     1
  3
ACAD_XREC_ROUNDTRIP
360
8FA
  0
DICTIONARY
  5
8FB
330
35
100
AcDbDictionary
280
     1
281
     1
  3
ACAD_XREC_ROUNDTRIP
360
8FC
  0
DICTIONARY
  5
903
330
39
100
AcDbDictionary
280
     1
281
     1
  3
ACAD_XREC_ROUNDTRIP
360
904
  0
DICTIONARY
  5
8E7
330
2B
100
AcDbDictionary
280
     1
281
     1
  3
ACAD_XREC_ROUNDTRIP
360
8E8
  0
DICTIONARY
  5
8E9
330
2C
100
AcDbDictionary
280
     1
281
     1
  3
ACAD_XREC_ROUNDTRIP
360
8EA
  0
DICTIONARY
  5
8EB
330
2D
100
AcDbDictionary
280
     1
281
     1
  3
ACAD_XREC_ROUNDTRIP
360
8EC
  0
DICTIONARY
  5
8ED
330
2E
100
AcDbDictionary
280
     1
281
     1
  3
ACAD_XREC_ROUNDTRIP
360
8EE
  0
DICTIONARY
  5
901
330
38
100
AcDbDictionary
280
     1
281
     1
  3
ACAD_XREC_ROUNDTRIP
360
902
  0
DICTIONARY
  5
8F7
330
33
100
AcDbDictionary
280
     1
281
     1
  3
ACAD_XREC_ROUNDTRIP
360
8F8
  0
DICTIONARY
  5
8FF
330
37
100
AcDbDictionary
280
     1
281
     1
  3
ACAD_XREC_ROUNDTRIP
360
900
  0
XRECORD
  5
90A
102
{ACAD_REACTORS
330
909
102
}
330
909
100
AcDbXrecord
280
     1
102
MATERIAL
148
0.0
149
0.0
149
0.0
 93
        0
 94
      127
282
     0
 72
     1
 77
     1
171
     1
175
     1
179
     1
273
     0
  0
XRECORD
  5
908
102
{ACAD_REACTORS
330
907
102
}
330
907
100
AcDbXrecord
280
     1
102
MATERIAL
148
0.0
149
0.0
149
0.0
 93
        0
 94
      127
282
     0
 72
     1
 77
     1
171
     1
175
     1
179
     1
273
     0
  0
XRECORD
  5
90C
102
{ACAD_REACTORS
330
90B
102
}
330
90B
100
AcDbXrecord
280
     1
102
MATERIAL
148
0.0
149
0.0
149
0.0
 93
        0
 94
      127
282
     0
 72
     1
 77
     1
171
     1
175
     1
179
     1
273
     0
  0
XRECORD
  5
8F0
102
{ACAD_REACTORS
330
8EF
102
}
330
8EF
100
AcDbXrecord
280
     1
102
RTVSPropertyOp0
 70
     1
102
RTVSPropertyOp1
 70
     1
102
RTVSPropertyOp2
 70
     1
102
RTVSPropertyOp3
 70
     1
102
RTVSPropertyOp4
 70
     1
102
RTVSPropertyOp5
 70
     1
102
RTVSPropertyOp6
 70
     1
102
RTVSPropertyOp7
 70
     1
102
RTVSPropertyOp8
 70
     1
102
RTVSPropertyOp9
 70
     1
102
RTVSPropertyOp10
 70
     1
102
RTVSPropertyOp11
 70
     1
102
RTVSPropertyOp12
 70
     1
102
RTVSPropertyOp13
 70
     1
102
RTVSPropertyOp14
 70
     1
102
RTVSPropertyOp15
 70
     1
102
RTVSPropertyOp16
 70
     1
102
RTVSPropertyOp17
 70
     1
102
RTVSPropertyOp18
 70
     1
102
RTVSPropertyOp19
 70
     1
102
RTVSPropertyOp20
 70
     1
102
RTVSPropertyOp21
 70
     1
102
RTVSPropertyOp22
 70
     1
102
RTVSPropertyOp23
 70
     1
102
RTVSPropertyOp24
 70
     1
102
RTVSPropertyOp25
 70
     1
102
RTVSPropertyOp26
 70
     1
102
RTVSPropertyOp27
 70
     1
  0
XRECORD
  5
8F4
102
{ACAD_REACTORS
330
8F3
102
}
330
8F3
100
AcDbXrecord
280
     1
102
RTVSPropertyOp0
 70
     1
102
RTVSPropertyOp1
 70
     1
102
RTVSPropertyOp2
 70
     1
102
RTVSPropertyOp3
 70
     1
102
RTVSPropertyOp4
 70
     1
102
RTVSPropertyOp5
 70
     1
102
RTVSPropertyOp6
 70
     1
102
RTVSPropertyOp7
 70
     1
102
RTVSPropertyOp8
 70
     1
102
RTVSPropertyOp9
 70
     1
102
RTVSPropertyOp10
 70
     1
102
RTVSPropertyOp11
 70
     1
102
RTVSPropertyOp12
 70
     1
102
RTVSPropertyOp13
 70
     1
102
RTVSPropertyOp14
 70
     1
102
RTVSPropertyOp15
 70
     1
102
RTVSPropertyOp16
 70
     1
102
RTVSPropertyOp17
 70
     1
102
RTVSPropertyOp18
 70
     1
102
RTVSPropertyOp19
 70
     1
102
RTVSPropertyOp20
 70
     1
102
RTVSPropertyOp21
 70
     1
102
RTVSPropertyOp22
 70
     1
102
RTVSPropertyOp23
 70
     1
102
RTVSPropertyOp24
 70
     1
102
RTVSPropertyOp25
 70
     1
102
RTVSPropertyOp26
 70
     1
102
RTVSPropertyOp27
 70
     1
  0
XRECORD
  5
8F2
102
{ACAD_REACTORS
330
8F1
102
}
330
8F1
100
AcDbXrecord
280
     1
102
RTVSPropertyOp0
 70
     1
102
RTVSPropertyOp1
 70
     1
102
RTVSPropertyOp2
 70
     1
102
RTVSPropertyOp3
 70
     1
102
RTVSPropertyOp4
 70
     1
102
RTVSPropertyOp5
 70
     1
102
RTVSPropertyOp6
 70
     1
102
RTVSPropertyOp7
 70
     1
102
RTVSPropertyOp8
 70
     1
102
RTVSPropertyOp9
 70
     1
102
RTVSPropertyOp10
 70
     1
102
RTVSPropertyOp11
 70
     1
102
RTVSPropertyOp12
 70
     1
102
RTVSPropertyOp13
 70
     1
102
RTVSPropertyOp14
 70
     1
102
RTVSPropertyOp15
 70
     1
102
RTVSPropertyOp16
 70
     1
102
RTVSPropertyOp17
 70
     1
102
RTVSPropertyOp18
 70
     1
102
RTVSPropertyOp19
 70
     1
102
RTVSPropertyOp20
 70
     1
102
RTVSPropertyOp21
 70
     1
102
RTVSPropertyOp22
 70
     1
102
RTVSPropertyOp23
 70
     1
102
RTVSPropertyOp24
 70
     1
102
RTVSPropertyOp25
 70
     1
102
RTVSPropertyOp26
 70
     1
102
RTVSPropertyOp27
 70
     1
  0
XRECORD
  5
8F6
102
{ACAD_REACTORS
330
8F5
102
}
330
8F5
100
AcDbXrecord
280
     1
102
RTVSPropertyOp0
 70
     1
102
RTVSPropertyOp1
 70
     1
102
RTVSPropertyOp2
 70
     1
102
RTVSPropertyOp3
 70
     1
102
RTVSPropertyOp4
 70
     1
102
RTVSPropertyOp5
 70
     1
102
RTVSPropertyOp6
 70
     1
102
RTVSPropertyOp7
 70
     1
102
RTVSPropertyOp8
 70
     1
102
RTVSPropertyOp9
 70
     1
102
RTVSPropertyOp10
 70
     1
102
RTVSPropertyOp11
 70
     1
102
RTVSPropertyOp12
 70
     1
102
RTVSPropertyOp13
 70
     1
102
RTVSPropertyOp14
 70
     1
102
RTVSPropertyOp15
 70
     1
102
RTVSPropertyOp16
 70
     1
102
RTVSPropertyOp17
 70
     1
102
RTVSPropertyOp18
 70
     1
102
RTVSPropertyOp19
 70
     1
102
RTVSPropertyOp20
 70
     1
102
RTVSPropertyOp21
 70
     1
102
RTVSPropertyOp22
 70
     1
102
RTVSPropertyOp23
 70
     1
102
RTVSPropertyOp24
 70
     1
102
RTVSPropertyOp25
 70
     1
102
RTVSPropertyOp26
 70
     1
102
RTVSPropertyOp27
 70
     1
  0
XRECORD
  5
8FE
102
{ACAD_REACTORS
330
8FD
102
}
330
8FD
100
AcDbXrecord
280
     1
102
RTVSPropertyOp0
 70
     1
102
RTVSPropertyOp1
 70
     1
102
RTVSPropertyOp2
 70
     1
102
RTVSPropertyOp3
 70
     1
102
RTVSPropertyOp4
 70
     1
102
RTVSPropertyOp5
 70
     1
102
RTVSPropertyOp6
 70
     1
102
RTVSPropertyOp7
 70
     1
102
RTVSPropertyOp8
 70
     1
102
RTVSPropertyOp9
 70
     1
102
RTVSPropertyOp10
 70
     1
102
RTVSPropertyOp11
 70
     1
102
RTVSPropertyOp12
 70
     1
102
RTVSPropertyOp13
 70
     1
102
RTVSPropertyOp14
 70
     1
102
RTVSPropertyOp15
 70
     1
102
RTVSPropertyOp16
 70
     1
102
RTVSPropertyOp17
 70
     1
102
RTVSPropertyOp18
 70
     1
102
RTVSPropertyOp19
 70
     1
102
RTVSPropertyOp20
 70
     1
102
RTVSPropertyOp21
 70
     1
102
RTVSPropertyOp22
 70
     1
102
RTVSPropertyOp23
 70
     1
102
RTVSPropertyOp24
 70
     1
102
RTVSPropertyOp25
 70
     1
102
RTVSPropertyOp26
 70
     1
102
RTVSPropertyOp27
 70
     1
  0
XRECORD
  5
906
102
{ACAD_REACTORS
330
905
102
}
330
905
100
AcDbXrecord
280
     1
102
RTVSPropertyOp0
 70
     1
102
RTVSPropertyOp1
 70
     1
102
RTVSPropertyOp2
 70
     1
102
RTVSPropertyOp3
 70
     1
102
RTVSPropertyOp4
 70
     1
102
RTVSPropertyOp5
 70
     1
102
RTVSPropertyOp6
 70
     1
102
RTVSPropertyOp7
 70
     1
102
RTVSPropertyOp8
 70
     1
102
RTVSPropertyOp9
 70
     1
102
RTVSPropertyOp10
 70
     1
102
RTVSPropertyOp11
 70
     1
102
RTVSPropertyOp12
 70
     1
102
RTVSPropertyOp13
 70
     1
102
RTVSPropertyOp14
 70
     1
102
RTVSPropertyOp15
 70
     1
102
RTVSPropertyOp16
 70
     1
102
RTVSPropertyOp17
 70
     1
102
RTVSPropertyOp18
 70
     1
102
RTVSPropertyOp19
 70
     1
102
RTVSPropertyOp20
 70
     1
102
RTVSPropertyOp21
 70
     1
102
RTVSPropertyOp22
 70
     1
102
RTVSPropertyOp23
 70
     1
102
RTVSPropertyOp24
 70
     1
102
RTVSPropertyOp25
 70
     1
102
RTVSPropertyOp26
 70
     1
102
RTVSPropertyOp27
 70
     1
  0
XRECORD
  5
8FA
102
{ACAD_REACTORS
330
8F9
102
}
330
8F9
100
AcDbXrecord
280
     1
102
RTVSPropertyOp0
 70
     1
102
RTVSPropertyOp1
 70
     1
102
RTVSPropertyOp2
 70
     1
102
RTVSPropertyOp3
 70
     1
102
RTVSPropertyOp4
 70
     1
102
RTVSPropertyOp5
 70
     1
102
RTVSPropertyOp6
 70
     1
102
RTVSPropertyOp7
 70
     1
102
RTVSPropertyOp8
 70
     1
102
RTVSPropertyOp9
 70
     1
102
RTVSPropertyOp10
 70
     1
102
RTVSPropertyOp11
 70
     1
102
RTVSPropertyOp12
 70
     1
102
RTVSPropertyOp13
 70
     1
102
RTVSPropertyOp14
 70
     1
102
RTVSPropertyOp15
 70
     1
102
RTVSPropertyOp16
 70
     1
102
RTVSPropertyOp17
 70
     1
102
RTVSPropertyOp18
 70
     1
102
RTVSPropertyOp19
 70
     1
102
RTVSPropertyOp20
 70
     1
102
RTVSPropertyOp21
 70
     1
102
RTVSPropertyOp22
 70
     1
102
RTVSPropertyOp23
 70
     1
102
RTVSPropertyOp24
 70
     1
102
RTVSPropertyOp25
 70
     1
102
RTVSPropertyOp26
 70
     1
102
RTVSPropertyOp27
 70
     1
  0
XRECORD
  5
8FC
102
{ACAD_REACTORS
330
8FB
102
}
330
8FB
100
AcDbXrecord
280
     1
102
RTVSPropertyOp0
 70
     1
102
RTVSPropertyOp1
 70
     1
102
RTVSPropertyOp2
 70
     1
102
RTVSPropertyOp3
 70
     1
102
RTVSPropertyOp4
 70
     1
102
RTVSPropertyOp5
 70
     1
102
RTVSPropertyOp6
 70
     1
102
RTVSPropertyOp7
 70
     1
102
RTVSPropertyOp8
 70
     1
102
RTVSPropertyOp9
 70
     1
102
RTVSPropertyOp10
 70
     1
102
RTVSPropertyOp11
 70
     1
102
RTVSPropertyOp12
 70
     1
102
RTVSPropertyOp13
 70
     1
102
RTVSPropertyOp14
 70
     1
102
RTVSPropertyOp15
 70
     1
102
RTVSPropertyOp16
 70
     1
102
RTVSPropertyOp17
 70
     1
102
RTVSPropertyOp18
 70
     1
102
RTVSPropertyOp19
 70
     1
102
RTVSPropertyOp20
 70
     1
102
RTVSPropertyOp21
 70
     1
102
RTVSPropertyOp22
 70
     1
102
RTVSPropertyOp23
 70
     1
102
RTVSPropertyOp24
 70
     1
102
RTVSPropertyOp25
 70
     1
102
RTVSPropertyOp26
 70
     1
102
RTVSPropertyOp27
 70
     1
  0
XRECORD
  5
904
102
{ACAD_REACTORS
330
903
102
}
330
903
100
AcDbXrecord
280
     1
102
RTVSPropertyOp0
 70
     1
102
RTVSPropertyOp1
 70
     1
102
RTVSPropertyOp2
 70
     1
102
RTVSPropertyOp3
 70
     1
102
RTVSPropertyOp4
 70
     1
102
RTVSPropertyOp5
 70
     1
102
RTVSPropertyOp6
 70
     1
102
RTVSPropertyOp7
 70
     1
102
RTVSPropertyOp8
 70
     1
102
RTVSPropertyOp9
 70
     1
102
RTVSPropertyOp10
 70
     1
102
RTVSPropertyOp11
 70
     1
102
RTVSPropertyOp12
 70
     1
102
RTVSPropertyOp13
 70
     1
102
RTVSPropertyOp14
 70
     1
102
RTVSPropertyOp15
 70
     1
102
RTVSPropertyOp16
 70
     1
102
RTVSPropertyOp17
 70
     1
102
RTVSPropertyOp18
 70
     1
102
RTVSPropertyOp19
 70
     1
102
RTVSPropertyOp20
 70
     1
102
RTVSPropertyOp21
 70
     1
102
RTVSPropertyOp22
 70
     1
102
RTVSPropertyOp23
 70
     1
102
RTVSPropertyOp24
 70
     1
102
RTVSPropertyOp25
 70
     1
102
RTVSPropertyOp26
 70
     1
102
RTVSPropertyOp27
 70
     1
  0
XRECORD
  5
8E8
102
{ACAD_REACTORS
330
8E7
102
}
330
8E7
100
AcDbXrecord
280
     1
102
RTVSPropertyOp0
 70
     1
102
RTVSPropertyOp1
 70
     1
102
RTVSPropertyOp2
 70
     1
102
RTVSPropertyOp3
 70
     1
102
RTVSPropertyOp4
 70
     1
102
RTVSPropertyOp5
 70
     1
102
RTVSPropertyOp6
 70
     1
102
RTVSPropertyOp7
 70
     1
102
RTVSPropertyOp8
 70
     1
102
RTVSPropertyOp9
 70
     1
102
RTVSPropertyOp10
 70
     1
102
RTVSPropertyOp11
 70
     1
102
RTVSPropertyOp12
 70
     1
102
RTVSPropertyOp13
 70
     1
102
RTVSPropertyOp14
 70
     1
102
RTVSPropertyOp15
 70
     1
102
RTVSPropertyOp16
 70
     1
102
RTVSPropertyOp17
 70
     1
102
RTVSPropertyOp18
 70
     1
102
RTVSPropertyOp19
 70
     1
102
RTVSPropertyOp20
 70
     1
102
RTVSPropertyOp21
 70
     1
102
RTVSPropertyOp22
 70
     1
102
RTVSPropertyOp23
 70
     1
102
RTVSPropertyOp24
 70
     1
102
RTVSPropertyOp25
 70
     1
102
RTVSPropertyOp26
 70
     1
102
RTVSPropertyOp27
 70
     1
  0
XRECORD
  5
8EA
102
{ACAD_REACTORS
330
8E9
102
}
330
8E9
100
AcDbXrecord
280
     1
102
RTVSPropertyOp0
 70
     1
102
RTVSPropertyOp1
 70
     1
102
RTVSPropertyOp2
 70
     1
102
RTVSPropertyOp3
 70
     1
102
RTVSPropertyOp4
 70
     1
102
RTVSPropertyOp5
 70
     1
102
RTVSPropertyOp6
 70
     1
102
RTVSPropertyOp7
 70
     1
102
RTVSPropertyOp8
 70
     1
102
RTVSPropertyOp9
 70
     1
102
RTVSPropertyOp10
 70
     1
102
RTVSPropertyOp11
 70
     1
102
RTVSPropertyOp12
 70
     1
102
RTVSPropertyOp13
 70
     1
102
RTVSPropertyOp14
 70
     1
102
RTVSPropertyOp15
 70
     1
102
RTVSPropertyOp16
 70
     1
102
RTVSPropertyOp17
 70
     1
102
RTVSPropertyOp18
 70
     1
102
RTVSPropertyOp19
 70
     1
102
RTVSPropertyOp20
 70
     1
102
RTVSPropertyOp21
 70
     1
102
RTVSPropertyOp22
 70
     1
102
RTVSPropertyOp23
 70
     1
102
RTVSPropertyOp24
 70
     1
102
RTVSPropertyOp25
 70
     1
102
RTVSPropertyOp26
 70
     1
102
RTVSPropertyOp27
 70
     1
  0
XRECORD
  5
8EC
102
{ACAD_REACTORS
330
8EB
102
}
330
8EB
100
AcDbXrecord
280
     1
102
RTVSPropertyOp0
 70
     1
102
RTVSPropertyOp1
 70
     1
102
RTVSPropertyOp2
 70
     1
102
RTVSPropertyOp3
 70
     1
102
RTVSPropertyOp4
 70
     1
102
RTVSPropertyOp5
 70
     1
102
RTVSPropertyOp6
 70
     1
102
RTVSPropertyOp7
 70
     1
102
RTVSPropertyOp8
 70
     1
102
RTVSPropertyOp9
 70
     1
102
RTVSPropertyOp10
 70
     1
102
RTVSPropertyOp11
 70
     1
102
RTVSPropertyOp12
 70
     1
102
RTVSPropertyOp13
 70
     1
102
RTVSPropertyOp14
 70
     1
102
RTVSPropertyOp15
 70
     1
102
RTVSPropertyOp16
 70
     1
102
RTVSPropertyOp17
 70
     1
102
RTVSPropertyOp18
 70
     1
102
RTVSPropertyOp19
 70
     1
102
RTVSPropertyOp20
 70
     1
102
RTVSPropertyOp21
 70
     1
102
RTVSPropertyOp22
 70
     1
102
RTVSPropertyOp23
 70
     1
102
RTVSPropertyOp24
 70
     1
102
RTVSPropertyOp25
 70
     1
102
RTVSPropertyOp26
 70
     1
102
RTVSPropertyOp27
 70
     1
  0
XRECORD
  5
8EE
102
{ACAD_REACTORS
330
8ED
102
}
330
8ED
100
AcDbXrecord
280
     1
102
RTVSPropertyOp0
 70
     1
102
RTVSPropertyOp1
 70
     1
102
RTVSPropertyOp2
 70
     1
102
RTVSPropertyOp3
 70
     1
102
RTVSPropertyOp4
 70
     1
102
RTVSPropertyOp5
 70
     1
102
RTVSPropertyOp6
 70
     1
102
RTVSPropertyOp7
 70
     1
102
RTVSPropertyOp8
 70
     1
102
RTVSPropertyOp9
 70
     1
102
RTVSPropertyOp10
 70
     1
102
RTVSPropertyOp11
 70
     1
102
RTVSPropertyOp12
 70
     1
102
RTVSPropertyOp13
 70
     1
102
RTVSPropertyOp14
 70
     1
102
RTVSPropertyOp15
 70
     1
102
RTVSPropertyOp16
 70
     1
102
RTVSPropertyOp17
 70
     1
102
RTVSPropertyOp18
 70
     1
102
RTVSPropertyOp19
 70
     1
102
RTVSPropertyOp20
 70
     1
102
RTVSPropertyOp21
 70
     1
102
RTVSPropertyOp22
 70
     1
102
RTVSPropertyOp23
 70
     1
102
RTVSPropertyOp24
 70
     1
102
RTVSPropertyOp25
 70
     1
102
RTVSPropertyOp26
 70
     1
102
RTVSPropertyOp27
 70
     1
  0
XRECORD
  5
902
102
{ACAD_REACTORS
330
901
102
}
330
901
100
AcDbXrecord
280
     1
102
RTVSPropertyOp0
 70
     1
102
RTVSPropertyOp1
 70
     1
102
RTVSPropertyOp2
 70
     1
102
RTVSPropertyOp3
 70
     1
102
RTVSPropertyOp4
 70
     1
102
RTVSPropertyOp5
 70
     1
102
RTVSPropertyOp6
 70
     1
102
RTVSPropertyOp7
 70
     1
102
RTVSPropertyOp8
 70
     1
102
RTVSPropertyOp9
 70
     1
102
RTVSPropertyOp10
 70
     1
102
RTVSPropertyOp11
 70
     1
102
RTVSPropertyOp12
 70
     1
102
RTVSPropertyOp13
 70
     1
102
RTVSPropertyOp14
 70
     1
102
RTVSPropertyOp15
 70
     1
102
RTVSPropertyOp16
 70
     1
102
RTVSPropertyOp17
 70
     1
102
RTVSPropertyOp18
 70
     1
102
RTVSPropertyOp19
 70
     1
102
RTVSPropertyOp20
 70
     1
102
RTVSPropertyOp21
 70
     1
102
RTVSPropertyOp22
 70
     1
102
RTVSPropertyOp23
 70
     1
102
RTVSPropertyOp24
 70
     1
102
RTVSPropertyOp25
 70
     1
102
RTVSPropertyOp26
 70
     1
102
RTVSPropertyOp27
 70
     1
  0
XRECORD
  5
8F8
102
{ACAD_REACTORS
330
8F7
102
}
330
8F7
100
AcDbXrecord
280
     1
102
RTVSPropertyOp0
 70
     1
102
RTVSPropertyOp1
 70
     1
102
RTVSPropertyOp2
 70
     1
102
RTVSPropertyOp3
 70
     1
102
RTVSPropertyOp4
 70
     1
102
RTVSPropertyOp5
 70
     1
102
RTVSPropertyOp6
 70
     1
102
RTVSPropertyOp7
 70
     1
102
RTVSPropertyOp8
 70
     1
102
RTVSPropertyOp9
 70
     1
102
RTVSPropertyOp10
 70
     1
102
RTVSPropertyOp11
 70
     1
102
RTVSPropertyOp12
 70
     1
102
RTVSPropertyOp13
 70
     1
102
RTVSPropertyOp14
 70
     1
102
RTVSPropertyOp15
 70
     1
102
RTVSPropertyOp16
 70
     1
102
RTVSPropertyOp17
 70
     1
102
RTVSPropertyOp18
 70
     1
102
RTVSPropertyOp19
 70
     1
102
RTVSPropertyOp20
 70
     1
102
RTVSPropertyOp21
 70
     1
102
RTVSPropertyOp22
 70
     1
102
RTVSPropertyOp23
 70
     1
102
RTVSPropertyOp24
 70
     1
102
RTVSPropertyOp25
 70
     1
102
RTVSPropertyOp26
 70
     1
102
RTVSPropertyOp27
 70
     1
  0
XRECORD
  5
900
102
{ACAD_REACTORS
330
8FF
102
}
330
8FF
100
AcDbXrecord
280
     1
102
RTVSPropertyOp0
 70
     1
102
RTVSPropertyOp1
 70
     1
102
RTVSPropertyOp2
 70
     1
102
RTVSPropertyOp3
 70
     1
102
RTVSPropertyOp4
 70
     1
102
RTVSPropertyOp5
 70
     1
102
RTVSPropertyOp6
 70
     1
102
RTVSPropertyOp7
 70
     1
102
RTVSPropertyOp8
 70
     1
102
RTVSPropertyOp9
 70
     1
102
RTVSPropertyOp10
 70
     1
102
RTVSPropertyOp11
 70
     1
102
RTVSPropertyOp12
 70
     1
102
RTVSPropertyOp13
 70
     1
102
RTVSPropertyOp14
 70
     1
102
RTVSPropertyOp15
 70
     1
102
RTVSPropertyOp16
 70
     1
102
RTVSPropertyOp17
 70
     1
102
RTVSPropertyOp18
 70
     1
102
RTVSPropertyOp19
 70
     1
102
RTVSPropertyOp20
 70
     1
102
RTVSPropertyOp21
 70
     1
102
RTVSPropertyOp22
 70
     1
102
RTVSPropertyOp23
 70
     1
102
RTVSPropertyOp24
 70
     1
102
RTVSPropertyOp25
 70
     1
102
RTVSPropertyOp26
 70
     1
102
RTVSPropertyOp27
 70
     1
  0
ENDSEC
  0
EOF
