  0
SECTION
  2
HEADER
  9
$ACADVER
  1
AC1015
  9
$ACADMAINTVER
 70
     6
  9
$DWGCODEPAGE
  3
ANSI_1252
  9
$INSBASE
 10
0.0
 20
0.0
 30
0.0
  9
$EXTMIN
 10
0.0
 20
0.0
 30
0.0
  9
$EXTMAX
 10
25.0
 20
35.0
 30
0.0
  9
$LIMMIN
 10
0.0
 20
0.0
  9
$LIMMAX
 10
420.0
 20
297.0
  9
$ORTHOMODE
 70
     0
  9
$REGENMODE
 70
     1
  9
$FILLMODE
 70
     1
  9
$QTEXTMODE
 70
     0
  9
$MIRRTEXT
 70
     1
  9
$LTSCALE
 40
4.2
  9
$ATTMODE
 70
     1
  9
$TEXTSIZE
 40
2.5
  9
$TRACEWID
 40
1.0
  9
$TEXTSTYLE
  7
Standard
  9
$CLAYER
  8
0
  9
$CELTYPE
  6
ByLayer
  9
$CECOLOR
 62
   256
  9
$CELTSCALE
 40
1.0
  9
$DISPSILH
 70
     0
  9
$DIMSCALE
 40
1.0
  9
$DIMASZ
 40
2.5
  9
$DIMEXO
 40
0.625
  9
$DIMDLI
 40
3.75
  9
$DIMRND
 40
0.0
  9
$DIMDLE
 40
0.0
  9
$DIMEXE
 40
1.25
  9
$DIMTP
 40
0.0
  9
$DIMTM
 40
0.0
  9
$DIMTXT
 40
2.5
  9
$DIMCEN
 40
2.5
  9
$DIMTSZ
 40
0.0
  9
$DIMTOL
 70
     0
  9
$DIMLIM
 70
     0
  9
$DIMTIH
 70
     0
  9
$DIMTOH
 70
     0
  9
$DIMSE1
 70
     0
  9
$DIMSE2
 70
     0
  9
$DIMTAD
 70
     1
  9
$DIMZIN
 70
     8
  9
$DIMBLK
  1

  9
$DIMASO
 70
     1
  9
$DIMSHO
 70
     1
  9
$DIMPOST
  1

  9
$DIMAPOST
  1

  9
$DIMALT
 70
     0
  9
$DIMALTD
 70
     3
  9
$DIMALTF
 40
0.03937007874016
  9
$DIMLFAC
 40
1.0
  9
$DIMTOFL
 70
     1
  9
$DIMTVP
 40
0.0
  9
$DIMTIX
 70
     0
  9
$DIMSOXD
 70
     0
  9
$DIMSAH
 70
     0
  9
$DIMBLK1
  1

  9
$DIMBLK2
  1

  9
$DIMSTYLE
  2
ISO-25
  9
$DIMCLRD
 70
     0
  9
$DIMCLRE
 70
     0
  9
$DIMCLRT
 70
     0
  9
$DIMTFAC
 40
1.0
  9
$DIMGAP
 40
0.625
  9
$DIMJUST
 70
     0
  9
$DIMSD1
 70
     0
  9
$DIMSD2
 70
     0
  9
$DIMTOLJ
 70
     0
  9
$DIMTZIN
 70
     8
  9
$DIMALTZ
 70
     0
  9
$DIMALTTZ
 70
     0
  9
$DIMUPT
 70
     0
  9
$DIMDEC
 70
     2
  9
$DIMTDEC
 70
     2
  9
$DIMALTU
 70
     2
  9
$DIMALTTD
 70
     3
  9
$DIMTXSTY
  7
Standard
  9
$DIMAUNIT
 70
     0
  9
$DIMADEC
 70
     0
  9
$DIMALTRND
 40
0.0
  9
$DIMAZIN
 70
     0
  9
$DIMDSEP
 70
    44
  9
$DIMATFIT
 70
     3
  9
$DIMFRAC
 70
     0
  9
$DIMLDRBLK
  1

  9
$DIMLUNIT
 70
     2
  9
$DIMLWD
 70
    -2
  9
$DIMLWE
 70
    -2
  9
$DIMTMOVE
 70
     0
  9
$LUNITS
 70
     2
  9
$LUPREC
 70
     4
  9
$SKETCHINC
 40
1.0
  9
$FILLETRAD
 40
10.0
  9
$AUNITS
 70
     0
  9
$AUPREC
 70
     0
  9
$MENU
  1
.
  9
$ELEVATION
 40
0.0
  9
$PELEVATION
 40
0.0
  9
$THICKNESS
 40
0.0
  9
$LIMCHECK
 70
     0
  9
$CHAMFERA
 40
10.0
  9
$CHAMFERB
 40
10.0
  9
$CHAMFERC
 40
20.0
  9
$CHAMFERD
 40
0.0
  9
$SKPOLY
 70
     0
  9
$TDCREATE
 40
2458577.083333333
  9
$TDUCREATE
 40
2458577.0
  9
$TDUPDATE
 40
2458577.086805556
  9
$TDUUPDATE
 40
2458577.003472222
  9
$TDINDWG
 40
0.0000000116
  9
$TDUSRTIMER
 40
0.0000000116
  9
$USRTIMER
 70
     1
  9
$ANGBASE
 50
0.0
  9
$ANGDIR
 70
     0
  9
$PDMODE
 70
     0
  9
$PDSIZE
 40
0.0
  9
$PLINEWID
 40
0.0
  9
$SPLFRAME
 70
     0
  9
$SPLINETYPE
 70
     6
  9
$SPLINESEGS
 70
     8
  9
$HANDSEED
  5
D34
  9
$SURFTAB1
 70
     6
  9
$SURFTAB2
 70
     6
  9
$SURFTYPE
 70
     6
  9
$SURFU
 70
     6
  9
$SURFV
 70
     6
  9
$UCSBASE
  2

  9
$UCSNAME
  2

  9
$UCSORG
 10
0.0
 20
0.0
 30
0.0
  9
$UCSXDIR
 10
1.0
 20
0.0
 30
0.0
  9
$UCSYDIR
 10
0.0
 20
1.0
 30
0.0
  9
$UCSORTHOREF
  2

  9
$UCSORTHOVIEW
 70
     0
  9
$UCSORGTOP
 10
0.0
 20
0.0
 30
0.0
  9
$UCSORGBOTTOM
 10
0.0
 20
0.0
 30
0.0
  9
$UCSORGLEFT
 10
0.0
 20
0.0
 30
0.0
  9
$UCSORGRIGHT
 10
0.0
 20
0.0
 30
0.0
  9
$UCSORGFRONT
 10
0.0
 20
0.0
 30
0.0
  9
$UCSORGBACK
 10
0.0
 20
0.0
 30
0.0
  9
$PUCSBASE
  2

  9
$PUCSNAME
  2

  9
$PUCSORG
 10
0.0
 20
0.0
 30
0.0
  9
$PUCSXDIR
 10
1.0
 20
0.0
 30
0.0
  9
$PUCSYDIR
 10
0.0
 20
1.0
 30
0.0
  9
$PUCSORTHOREF
  2

  9
$PUCSORTHOVIEW
 70
     0
  9
$PUCSORGTOP
 10
0.0
 20
0.0
 30
0.0
  9
$PUCSORGBOTTOM
 10
0.0
 20
0.0
 30
0.0
  9
$PUCSORGLEFT
 10
0.0
 20
0.0
 30
0.0
  9
$PUCSORGRIGHT
 10
0.0
 20
0.0
 30
0.0
  9
$PUCSORGFRONT
 10
0.0
 20
0.0
 30
0.0
  9
$PUCSORGBACK
 10
0.0
 20
0.0
 30
0.0
  9
$USERI1
 70
     0
  9
$USERI2
 70
     0
  9
$USERI3
 70
     0
  9
$USERI4
 70
     0
  9
$USERI5
 70
     0
  9
$USERR1
 40
0.0
  9
$USERR2
 40
0.0
  9
$USERR3
 40
0.0
  9
$USERR4
 40
0.0
  9
$USERR5
 40
0.0
  9
$WORLDVIEW
 70
     1
  9
$SHADEDGE
 70
     3
  9
$SHADEDIF
 70
    70
  9
$TILEMODE
 70
     1
  9
$MAXACTVP
 70
    64
  9
$PINSBASE
 10
0.0
 20
0.0
 30
0.0
  9
$PLIMCHECK
 70
     0
  9
$PEXTMIN
 10
1.000000000000000E+20
 20
1.000000000000000E+20
 30
1.000000000000000E+20
  9
$PEXTMAX
 10
-1.000000000000000E+20
 20
-1.000000000000000E+20
 30
-1.000000000000000E+20
  9
$PLIMMIN
 10
0.0
 20
0.0
  9
$PLIMMAX
 10
420.0
 20
297.0
  9
$UNITMODE
 70
     0
  9
$VISRETAIN
 70
     1
  9
$PLINEGEN
 70
     0
  9
$PSLTSCALE
 70
     1
  9
$TREEDEPTH
 70
  3020
  9
$CMLSTYLE
  2
Standard
  9
$CMLJUST
 70
     0
  9
$CMLSCALE
 40
20.0
  9
$PROXYGRAPHICS
 70
     1
  9
$MEASUREMENT
 70
     1
  9
$CELWEIGHT
370
    -1
  9
$ENDCAPS
280
     0
  9
$JOINSTYLE
280
     0
  9
$LWDISPLAY
290
     0
  9
$INSUNITS
 70
     4
  9
$HYPERLINKBASE
  1

  9
$STYLESHEET
  1

  9
$XEDIT
290
     1
  9
$CEPSNTYPE
380
     0
  9
$PSTYLEMODE
290
     1
  9
$FINGERPRINTGUID
  2
{46F8ED6A-1ACD-4E94-9CDF-0D1DA0B8BEFC}
  9
$VERSIONGUID
  2
{FAEB1C32-E019-11D5-929B-00C0DF256EC4}
  9
$EXTNAMES
290
     1
  9
$PSVPSCALE
 40
0.0
  9
$OLESTARTUP
290
     0
  0
ENDSEC
  0
SECTION
  2
CLASSES
  0
CLASS
  1
ACDBDICTIONARYWDFLT
  2
AcDbDictionaryWithDefault
  3
ObjectDBX Classes
 90
        0
280
     0
281
     0
  0
CLASS
  1
VISUALSTYLE
  2
AcDbVisualStyle
  3
ObjectDBX Classes
 90
     4095
280
     0
281
     0
  0
CLASS
  1
MATERIAL
  2
AcDbMaterial
  3
ObjectDBX Classes
 90
     1153
280
     0
281
     0
  0
CLASS
  1
SCALE
  2
AcDbScale
  3
ObjectDBX Classes
 90
     1153
280
     0
281
     0
  0
CLASS
  1
DICTIONARYVAR
  2
AcDbDictionaryVar
  3
ObjectDBX Classes
 90
        0
280
     0
281
     0
  0
CLASS
  1
ACDBPLACEHOLDER
  2
AcDbPlaceHolder
  3
ObjectDBX Classes
 90
        0
280
     0
281
     0
  0
CLASS
  1
LAYOUT
  2
AcDbLayout
  3
ObjectDBX Classes
 90
        0
280
     0
281
     0
  0
ENDSEC
  0
SECTION
  2
TABLES
  0
TABLE
  2
VPORT
  5
8
330
0
100
AcDbSymbolTable
 70
     1
  0
VPORT
  5
29
330
8
100
AcDbSymbolTableRecord
100
AcDbViewportTableRecord
  2
*Active
 70
     0
 10
0.0
 20
0.0
 11
1.0
 21
1.0
 12
11.26
 22
4.5
 13
0.0
 23
0.0
 14
10.0
 24
10.0
 15
10.0
 25
10.0
 16
0.0
 26
0.0
 36
1.0
 17
0.0
 27
0.0
 37
0.0
 40
9.0
 41
2.503333333333333
 42
50.0
 43
0.0
 44
0.0
 50
0.0
 51
0.0
 71
     0
 72
   100
 73
     1
 74
     3
 75
     0
 76
     0
 77
     0
 78
     0
281
     0
 65
     1
110
0.0
120
0.0
130
0.0
111
1.0
121
0.0
131
0.0
112
0.0
122
1.0
132
0.0
 79
     0
146
0.0
  0
ENDTAB
  0
TABLE
  2
LTYPE
  5
5
330
0
100
AcDbSymbolTable
 70
     9
  0
LTYPE
  5
14
330
5
100
AcDbSymbolTableRecord
100
AcDbLinetypeTableRecord
  2
ByBlock
 70
     0
  3

 72
    65
 73
     0
 40
0.0
  0
LTYPE
  5
15
330
5
100
AcDbSymbolTableRecord
100
AcDbLinetypeTableRecord
  2
ByLayer
 70
     0
  3

 72
    65
 73
     0
 40
0.0
  0
LTYPE
  5
16
330
5
100
AcDbSymbolTableRecord
100
AcDbLinetypeTableRecord
  2
Continuous
 70
     0
  3
Solid line
 72
    65
 73
     0
 40
0.0
  0
LTYPE
  5
45
330
5
100
AcDbSymbolTableRecord
100
AcDbLinetypeTableRecord
  2
phl_thick
 70
     0
  3
THICK
 72
    65
 73
     0
 40
0.0
  0
LTYPE
  5
38A
330
5
100
AcDbSymbolTableRecord
100
AcDbLinetypeTableRecord
  2
ls_SK2
 70
     0
  3
THIN
 72
    65
 73
     0
 40
0.0
  0
LTYPE
  5
437
330
5
100
AcDbSymbolTableRecord
100
AcDbLinetypeTableRecord
  2
ls_2
 70
     0
  3
THIN
 72
    65
 73
     0
 40
0.0
  0
LTYPE
  5
4C4
330
5
100
AcDbSymbolTableRecord
100
AcDbLinetypeTableRecord
  2
SK1
 70
     0
  3
THICK
 72
    65
 73
     0
 40
0.0
  0
LTYPE
  5
4D2
330
5
100
AcDbSymbolTableRecord
100
AcDbLinetypeTableRecord
  2
NOCUT
 70
     0
  3
THICK
 72
    65
 73
     0
 40
0.0
  0
LTYPE
  5
4D7
330
5
100
AcDbSymbolTableRecord
100
AcDbLinetypeTableRecord
  2
ls1
 70
     0
  3
THICK
 72
    65
 73
     0
 40
0.0
  0
LTYPE
  5
5F1
330
5
100
AcDbSymbolTableRecord
100
AcDbLinetypeTableRecord
  2
LONGDASH_DASH
 70
     0
  3
THIN_DASHDOT
 72
    65
 73
     4
 40
0.85
 49
0.4
 74
     0
 49
-0.2
 74
     0
 49
0.05
 74
     0
 49
-0.2
 74
     0
  0
LTYPE
  5
67B
330
5
100
AcDbSymbolTableRecord
100
AcDbLinetypeTableRecord
  2
ls_SK1
 70
     0
  3
THICK
 72
    65
 73
     0
 40
0.0
  0
ENDTAB
  0
TABLE
  2
LAYER
  5
2
330
0
100
AcDbSymbolTable
 70
    10
  0
LAYER
  5
10
330
2
100
AcDbSymbolTableRecord
100
AcDbLayerTableRecord
  2
0
 70
     0
 62
     7
  6
Continuous
370
    -3
390
F
  0
LAYER
  5
44
330
2
100
AcDbSymbolTableRecord
100
AcDbLayerTableRecord
  2
1
 70
     0
 62
4
  6
CONTINUOUS
370
50
370
    -3
390
F
  0
LAYER
  5
389
330
2
100
AcDbSymbolTableRecord
100
AcDbLayerTableRecord
  2
SK2
 70
     0
 62
7
  6
CONTINUOUS
370
25
370
    -3
390
F
  0
LAYER
  5
436
330
2
100
AcDbSymbolTableRecord
100
AcDbLayerTableRecord
  2
2
 70
     0
 62
7
  6
CONTINUOUS
370
25
370
    -3
390
F
  0
LAYER
  5
4C3
330
2
100
AcDbSymbolTableRecord
100
AcDbLayerTableRecord
  2
SK1
 70
     0
 62
4
  6
CONTINUOUS
370
50
370
    -3
390
F
  0
LAYER
  5
4D1
330
2
100
AcDbSymbolTableRecord
100
AcDbLayerTableRecord
  2
NOCUT
 70
     0
 62
7
  6
CONTINUOUS
370
25
370
    -3
390
F
  0
LAYER
  5
4D6
330
2
100
AcDbSymbolTableRecord
100
AcDbLayerTableRecord
  2
CUT
 70
     0
 62
1
  6
CONTINUOUS
370
25
370
    -3
390
F
  0
LAYER
  5
5F0
330
2
100
AcDbSymbolTableRecord
100
AcDbLayerTableRecord
  2
4
 70
     0
 62
2
  6
LONGDASH_DASH
370
25
370
    -3
390
F
  0
LAYER
  5
5F3
330
2
100
AcDbSymbolTableRecord
100
AcDbLayerTableRecord
  2
SK4
 70
     0
 62
2
  6
LONGDASH_DASH
370
25
370
    -3
390
F
  0
LAYER
  5
6B4
330
2
100
AcDbSymbolTableRecord
100
AcDbLayerTableRecord
  2
SK6
 70
     0
 62
5
  6
CONTINUOUS
370
25
370
    -3
390
F
  0
ENDTAB
  0
TABLE
  2
STYLE
  5
3
330
0
100
AcDbSymbolTable
 70
     1
  0
STYLE
  5
11
330
3
100
AcDbSymbolTableRecord
100
AcDbTextStyleTableRecord
  2
Standard
 70
     0
 40
0.0
 41
1.0
 50
0.0
 71
     0
 42
2.5
  3
Monospac821 BT
  4

  0
ENDTAB
  0
TABLE
  2
VIEW
  5
6
330
0
100
AcDbSymbolTable
 70
     0
  0
ENDTAB
  0
TABLE
  2
UCS
  5
7
330
0
100
AcDbSymbolTable
 70
     0
  0
ENDTAB
  0
TABLE
  2
APPID
  5
9
330
0
100
AcDbSymbolTable
 70
     2
  0
APPID
  5
12
330
9
100
AcDbSymbolTableRecord
100
AcDbRegAppTableRecord
  2
ACAD
 70
     0
  0
APPID
  5
3F
330
9
100
AcDbSymbolTableRecord
100
AcDbRegAppTableRecord
  2
ccLab
 70
     0
  0
ENDTAB
  0
TABLE
  2
DIMSTYLE
  5
A
330
0
100
AcDbSymbolTable
 70
     1
100
AcDbDimStyleTable
  0
DIMSTYLE
105
27
330
A
100
AcDbSymbolTableRecord
100
AcDbDimStyleTableRecord
  2
ISO-25
 70
     0
 41
2.5
 42
0.625
 43
3.75
 44
1.25
 73
     0
 74
     0
 77
     1
 78
     8
140
2.5
141
2.5
143
0.03937007874016
147
0.625
171
     3
172
     1
271
     2
272
     2
274
     3
278
    44
283
     0
284
     8
340
11
  0
ENDTAB
  0
TABLE
  2
BLOCK_RECORD
  5
1
330
0
100
AcDbSymbolTable
 70
     2
  0
BLOCK_RECORD
  5
1F
330
1
100
AcDbSymbolTableRecord
100
AcDbBlockTableRecord
  2
*Model_Space
340
22
  0
BLOCK_RECORD
  5
1B
330
1
100
AcDbSymbolTableRecord
100
AcDbBlockTableRecord
  2
*Paper_Space
340
1E
  0
BLOCK_RECORD
  5
23
330
1
100
AcDbSymbolTableRecord
100
AcDbBlockTableRecord
  2
*Paper_Space0
340
26
  0
ENDTAB
  0
ENDSEC
  0
SECTION
  2
BLOCKS
  0
BLOCK
  5
20
330
1F
100
AcDbEntity
  8
0
100
AcDbBlockBegin
  2
*Model_Space
 70
     0
 10
0.0
 20
0.0
 30
0.0
  3
*Model_Space
  1

  0
ENDBLK
  5
21
330
1F
100
AcDbEntity
  8
0
100
AcDbBlockEnd
  0
BLOCK
  5
1C
330
1B
100
AcDbEntity
 67
     1
  8
0
100
AcDbBlockBegin
  2
*Paper_Space
 70
     0
 10
0.0
 20
0.0
 30
0.0
  3
*Paper_Space
  1

  0
ENDBLK
  5
1D
330
1B
100
AcDbEntity
 67
     1
  8
0
100
AcDbBlockEnd
  0
BLOCK
  5
24
330
23
100
AcDbEntity
  8
0
100
AcDbBlockBegin
  2
*Paper_Space0
 70
     0
 10
0.0
 20
0.0
 30
0.0
  3
*Paper_Space0
  1

  0
ENDBLK
  5
25
330
23
100
AcDbEntity
  8
0
100
AcDbBlockEnd
  0
ENDSEC
  0
SECTION
  2
ENTITIES
  0
LINE
  5
6BE
330
1F
100
AcDbEntity
  8
1
  6
CONTINUOUS
370
50
 62
4
100
AcDbLine
 10
44.976009
 20
-0.154586
 30
0.0
 11
44.975967
 21
-0.130634
 31
0.0
  0
LINE
  5
6BF
330
1F
100
AcDbEntity
  8
1
  6
CONTINUOUS
370
50
 62
4
100
AcDbLine
 10
44.97604399999999
 20
-0.154725
 30
0.0
 11
44.975975
 21
-0.130501
 31
0.0
  0
LINE
  5
6C0
330
1F
100
AcDbEntity
  8
1
  6
CONTINUOUS
370
50
 62
4
100
AcDbLine
 10
42.153362
 20
-0.000001
 30
0.0
 11
42.153271
 21
0.025765
 31
0.0
  0
LINE
  5
6C1
330
1F
100
AcDbEntity
  8
1
  6
CONTINUOUS
370
50
 62
4
100
AcDbLine
 10
44.976856
 20
-0.178678
 30
0.0
 11
44.976009
 21
-0.154586
 31
0.0
  0
LINE
  5
6C2
330
1F
100
AcDbEntity
  8
1
  6
CONTINUOUS
370
50
 62
4
100
AcDbLine
 10
44.976925
 20
-0.179237
 30
0.0
 11
44.97604399999999
 21
-0.154725
 31
0.0
  0
LINE
  5
6C3
330
1F
100
AcDbEntity
  8
1
  6
CONTINUOUS
370
50
 62
4
100
AcDbLine
 10
42.154926
 20
-0.031759
 30
0.0
 11
42.153362
 21
-0.000001
 31
0.0
  0
LINE
  5
6C4
330
1F
100
AcDbEntity
  8
1
  6
CONTINUOUS
370
50
 62
4
100
AcDbLine
 10
44.978539
 20
-0.203869
 30
0.0
 11
44.976925
 21
-0.179237
 31
0.0
  0
LINE
  5
6C5
330
1F
100
AcDbEntity
  8
1
  6
CONTINUOUS
370
50
 62
4
100
AcDbLine
 10
44.978462
 20
-0.203107
 30
0.0
 11
44.976856
 21
-0.178678
 31
0.0
  0
LINE
  5
6C6
330
1F
100
AcDbEntity
  8
1
  6
CONTINUOUS
370
50
 62
4
100
AcDbLine
 10
44.980808
 20
-0.228455
 30
0.0
 11
44.978539
 21
-0.203869
 31
0.0
  0
LINE
  5
6C7
330
1F
100
AcDbEntity
  8
1
  6
CONTINUOUS
370
50
 62
4
100
AcDbLine
 10
44.98075499999999
 20
-0.227801
 30
0.0
 11
44.978462
 21
-0.203107
 31
0.0
  0
LINE
  5
6C8
330
1F
100
AcDbEntity
  8
1
  6
CONTINUOUS
370
50
 62
4
100
AcDbLine
 10
42.158089
 20
-0.063453
 30
0.0
 11
42.154926
 21
-0.031759
 31
0.0
  0
LINE
  5
6C9
330
1F
100
AcDbEntity
  8
1
  6
CONTINUOUS
370
50
 62
4
100
AcDbLine
 10
44.983654
 20
-0.252825
 30
0.0
 11
44.980808
 21
-0.228455
 31
0.0
  0
LINE
  5
6CA
330
1F
100
AcDbEntity
  8
1
  6
CONTINUOUS
370
50
 62
4
100
AcDbLine
 10
44.983662
 20
-0.252617
 30
0.0
 11
44.98075499999999
 21
-0.227801
 31
0.0
  0
LINE
  5
6CB
330
1F
100
AcDbEntity
  8
1
  6
CONTINUOUS
370
50
 62
4
100
AcDbLine
 10
44.98711
 20
-0.277413
 30
0.0
 11
44.983662
 21
-0.252617
 31
0.0
  0
LINE
  5
6CC
330
1F
100
AcDbEntity
  8
1
  6
CONTINUOUS
370
50
 62
4
100
AcDbLine
 10
44.987015
 20
-0.276946
 30
0.0
 11
44.983654
 21
-0.252825
 31
0.0
  0
LINE
  5
6CD
330
1F
100
AcDbEntity
  8
1
  6
CONTINUOUS
370
50
 62
4
100
AcDbLine
 10
42.162792
 20
-0.094829
 30
0.0
 11
42.158089
 21
-0.063453
 31
0.0
  0
LINE
  5
6CE
330
1F
100
AcDbEntity
  8
1
  6
CONTINUOUS
370
50
 62
4
100
AcDbLine
 10
44.991032
 20
-0.302044
 30
0.0
 11
44.98711
 21
-0.277413
 31
0.0
  0
LINE
  5
6CF
330
1F
100
AcDbEntity
  8
1
  6
CONTINUOUS
370
50
 62
4
100
AcDbLine
 10
44.990894
 20
-0.301266
 30
0.0
 11
44.987015
 21
-0.276946
 31
0.0
  0
LINE
  5
6D0
330
1F
100
AcDbEntity
  8
1
  6
CONTINUOUS
370
50
 62
4
100
AcDbLine
 10
44.99534999999999
 20
-0.326369
 30
0.0
 11
44.991032
 21
-0.302044
 31
0.0
  0
LINE
  5
6D1
330
1F
100
AcDbEntity
  8
1
  6
CONTINUOUS
370
50
 62
4
100
AcDbLine
 10
44.995251
 20
-0.325748
 30
0.0
 11
44.990894
 21
-0.301266
 31
0.0
  0
LINE
  5
6D2
330
1F
100
AcDbEntity
  8
1
  6
CONTINUOUS
370
50
 62
4
100
AcDbLine
 10
45.00001899999999
 20
-0.350284
 30
0.0
 11
44.995251
 21
-0.325748
 31
0.0
  0
LINE
  5
6D3
330
1F
100
AcDbEntity
  8
1
  6
CONTINUOUS
370
50
 62
4
100
AcDbLine
 10
45.0
 20
-0.350288
 30
0.0
 11
44.99534999999999
 21
-0.326369
 31
0.0
  0
LINE
  5
6D4
330
1F
100
AcDbEntity
  8
1
  6
CONTINUOUS
370
50
 62
4
100
AcDbLine
 10
42.168915
 20
-0.125681
 30
0.0
 11
42.162792
 21
-0.094829
 31
0.0
  0
LINE
  5
6D5
330
1F
100
AcDbEntity
  8
1
  6
CONTINUOUS
370
50
 62
4
100
AcDbLine
 10
44.931717
 20
-0.247313
 30
0.0
 11
44.929131
 21
-0.234513
 31
0.0
  0
LINE
  5
6D6
330
1F
100
AcDbEntity
  8
1
  6
CONTINUOUS
370
50
 62
4
100
AcDbLine
 10
44.87086499999999
 20
0.086685
 30
0.0
 11
44.867062
 21
0.10477
 31
0.0
  0
LINE
  5
6D7
330
1F
100
AcDbEntity
  8
1
  6
CONTINUOUS
370
50
 62
4
100
AcDbLine
 10
44.934456
 20
-0.260152
 30
0.0
 11
44.931717
 21
-0.247313
 31
0.0
  0
LINE
  5
6D8
330
1F
100
AcDbEntity
  8
1
  6
CONTINUOUS
370
50
 62
4
100
AcDbLine
 10
42.540138
 20
-0.379028
 30
0.0
 11
42.529121
 21
-0.327961
 31
0.0
  0
LINE
  5
6D9
330
1F
100
AcDbEntity
  8
1
  6
CONTINUOUS
370
50
 62
4
100
AcDbLine
 10
44.470867
 20
0.436073
 30
0.0
 11
44.462948
 21
0.472036
 31
0.0
  0
LINE
  5
6DA
330
1F
100
AcDbEntity
  8
1
  6
CONTINUOUS
370
50
 62
4
100
AcDbLine
 10
44.93733599999999
 20
-0.273034
 30
0.0
 11
44.934456
 21
-0.260152
 31
0.0
  0
LINE
  5
6DB
330
1F
100
AcDbEntity
  8
1
  6
CONTINUOUS
370
50
 62
4
100
AcDbLine
 10
44.867062
 20
0.10477
 30
0.0
 11
44.862835
 21
0.12337
 31
0.0
  0
LINE
  5
6DC
330
1F
100
AcDbEntity
  8
1
  6
CONTINUOUS
370
50
 62
4
100
AcDbLine
 10
44.940357
 20
-0.28595
 30
0.0
 11
44.93733599999999
 21
-0.273034
 31
0.0
  0
LINE
  5
6DD
330
1F
100
AcDbEntity
  8
1
  6
CONTINUOUS
370
50
 62
4
100
AcDbLine
 10
42.470871
 20
-0.013361
 30
0.0
 11
42.457378
 21
0.043949
 31
0.0
  0
LINE
  5
6DE
330
1F
100
AcDbEntity
  8
1
  6
CONTINUOUS
370
50
 62
4
100
AcDbLine
 10
44.862835
 20
0.12337
 30
0.0
 11
44.858185
 21
0.1425
 31
0.0
  0
LINE
  5
6DF
330
1F
100
AcDbEntity
  8
1
  6
CONTINUOUS
370
50
 62
4
100
AcDbLine
 10
44.943508
 20
-0.298892
 30
0.0
 11
44.940357
 21
-0.28595
 31
0.0
  0
LINE
  5
6E0
330
1F
100
AcDbEntity
  8
1
  6
CONTINUOUS
370
50
 62
4
100
AcDbLine
 10
44.53534699999999
 20
0.113238
 30
0.0
 11
44.529129
 21
0.138742
 31
0.0
  0
LINE
  5
6E1
330
1F
100
AcDbEntity
  8
1
  6
CONTINUOUS
370
50
 62
4
100
AcDbLine
 10
42.176357
 20
-0.15595
 30
0.0
 11
42.168915
 21
-0.125681
 31
0.0
  0
LINE
  5
6E2
330
1F
100
AcDbEntity
  8
1
  6
CONTINUOUS
370
50
 62
4
100
AcDbLine
 10
44.462948
 20
0.472036
 30
0.0
 11
44.453373
 21
0.510263
 31
0.0
  0
LINE
  5
6E3
330
1F
100
AcDbEntity
  8
1
  6
CONTINUOUS
370
50
 62
4
100
AcDbLine
 10
44.946785
 20
-0.311851
 30
0.0
 11
44.943508
 21
-0.298892
 31
0.0
  0
LINE
  5
6E4
330
1F
100
AcDbEntity
  8
1
  6
CONTINUOUS
370
50
 62
4
100
AcDbLine
 10
42.55423
 20
-0.434389
 30
0.0
 11
42.540138
 21
-0.379028
 31
0.0
  0
LINE
  5
6E5
330
1F
100
AcDbEntity
  8
1
  6
CONTINUOUS
370
50
 62
4
100
AcDbLine
 10
44.858185
 20
0.1425
 30
0.0
 11
44.85310399999999
 21
0.162176
 31
0.0
  0
LINE
  5
6E6
330
1F
100
AcDbEntity
  8
1
  6
CONTINUOUS
370
50
 62
4
100
AcDbLine
 10
44.950176
 20
-0.32482
 30
0.0
 11
44.946785
 21
-0.311851
 31
0.0
  0
LINE
  5
6E7
330
1F
100
AcDbEntity
  8
1
  6
CONTINUOUS
370
50
 62
4
100
AcDbLine
 10
42.940536
 20
-0.658687
 30
0.0
 11
42.92913799999999
 21
-0.615846
 31
0.0
  0
LINE
  5
6E8
330
1F
100
AcDbEntity
  8
1
  6
CONTINUOUS
370
50
 62
4
100
AcDbLine
 10
44.85310399999999
 20
0.162176
 30
0.0
 11
44.84758799999999
 21
0.182416
 31
0.0
  0
LINE
  5
6E9
330
1F
100
AcDbEntity
  8
1
  6
CONTINUOUS
370
50
 62
4
100
AcDbLine
 10
44.542603
 20
0.086714
 30
0.0
 11
44.53534699999999
 21
0.113238
 31
0.0
  0
LINE
  5
6EA
330
1F
100
AcDbEntity
  8
1
  6
CONTINUOUS
370
50
 62
4
100
AcDbLine
 10
44.453373
 20
0.510263
 30
0.0
 11
44.442093
 21
0.550819
 31
0.0
  0
LINE
  5
6EB
330
1F
100
AcDbEntity
  8
1
  6
CONTINUOUS
370
50
 62
4
100
AcDbLine
 10
42.457378
 20
0.043949
 30
0.0
 11
42.441402
 21
0.100046
 31
0.0
  0
LINE
  5
6EC
330
1F
100
AcDbEntity
  8
1
  6
CONTINUOUS
370
50
 62
4
100
AcDbLine
 10
44.84758799999999
 20
0.182416
 30
0.0
 11
44.841625
 21
0.203234
 31
0.0
  0
LINE
  5
6ED
330
1F
100
AcDbEntity
  8
1
  6
CONTINUOUS
370
50
 62
4
100
AcDbLine
 10
42.571518
 20
-0.494227
 30
0.0
 11
42.55423
 21
-0.434389
 31
0.0
  0
LINE
  5
6EE
330
1F
100
AcDbEntity
  8
1
  6
CONTINUOUS
370
50
 62
4
100
AcDbLine
 10
42.18501699999999
 20
-0.185578
 30
0.0
 11
42.176357
 21
-0.15595
 31
0.0
  0
LINE
  5
6EF
330
1F
100
AcDbEntity
  8
1
  6
CONTINUOUS
370
50
 62
4
100
AcDbLine
 10
44.841625
 20
0.203234
 30
0.0
 11
44.835213
 21
0.224649
 31
0.0
  0
LINE
  5
6F0
330
1F
100
AcDbEntity
  8
1
  6
CONTINUOUS
370
50
 62
4
100
AcDbLine
 10
44.070866
 20
0.678192
 30
0.0
 11
44.060581
 21
0.712522
 31
0.0
  0
LINE
  5
6F1
330
1F
100
AcDbEntity
  8
1
  6
CONTINUOUS
370
50
 62
4
100
AcDbLine
 10
44.550926
 20
0.059095
 30
0.0
 11
44.542603
 21
0.086714
 31
0.0
  0
LINE
  5
6F2
330
1F
100
AcDbEntity
  8
1
  6
CONTINUOUS
370
50
 62
4
100
AcDbLine
 10
44.442093
 20
0.550819
 30
0.0
 11
44.429054
 21
0.593768
 31
0.0
  0
LINE
  5
6F3
330
1F
100
AcDbEntity
  8
1
  6
CONTINUOUS
370
50
 62
4
100
AcDbLine
 10
42.954987
 20
-0.705116
 30
0.0
 11
42.940536
 21
-0.658687
 31
0.0
  0
LINE
  5
6F4
330
1F
100
AcDbEntity
  8
1
  6
CONTINUOUS
370
50
 62
4
100
AcDbLine
 10
42.592125
 20
-0.558725
 30
0.0
 11
42.571518
 21
-0.494227
 31
0.0
  0
LINE
  5
6F5
330
1F
100
AcDbEntity
  8
1
  6
CONTINUOUS
370
50
 62
4
100
AcDbLine
 10
42.441402
 20
0.100046
 30
0.0
 11
42.422558
 21
0.157813
 31
0.0
  0
LINE
  5
6F6
330
1F
100
AcDbEntity
  8
1
  6
CONTINUOUS
370
50
 62
4
100
AcDbLine
 10
44.560333
 20
0.030305
 30
0.0
 11
44.550926
 21
0.059095
 31
0.0
  0
LINE
  5
6F7
330
1F
100
AcDbEntity
  8
1
  6
CONTINUOUS
370
50
 62
4
100
AcDbLine
 10
44.429054
 20
0.593768
 30
0.0
 11
44.414207
 21
0.639177
 31
0.0
  0
LINE
  5
6F8
330
1F
100
AcDbEntity
  8
1
  6
CONTINUOUS
370
50
 62
4
100
AcDbLine
 10
42.194782
 20
-0.21449
 30
0.0
 11
42.18501699999999
 21
-0.185578
 31
0.0
  0
LINE
  5
6F9
330
1F
100
AcDbEntity
  8
1
  6
CONTINUOUS
370
50
 62
4
100
AcDbLine
 10
42.870869
 20
-0.375513
 30
0.0
 11
42.859947
 21
-0.343809
 31
0.0
  0
LINE
  5
6FA
330
1F
100
AcDbEntity
  8
1
  6
CONTINUOUS
370
50
 62
4
100
AcDbLine
 10
44.060581
 20
0.712522
 30
0.0
 11
44.04763
 21
0.749883
 31
0.0
  0
LINE
  5
6FB
330
1F
100
AcDbEntity
  8
1
  6
CONTINUOUS
370
50
 62
4
100
AcDbLine
 10
42.616135
 20
-0.6279699999999999
 30
0.0
 11
42.592125
 21
-0.558725
 31
0.0
  0
LINE
  5
6FC
330
1F
100
AcDbEntity
  8
1
  6
CONTINUOUS
370
50
 62
4
100
AcDbLine
 10
44.414207
 20
0.639177
 30
0.0
 11
44.397179
 21
0.688094
 31
0.0
  0
LINE
  5
6FD
330
1F
100
AcDbEntity
  8
1
  6
CONTINUOUS
370
50
 62
4
100
AcDbLine
 10
44.570843
 20
0.000269
 30
0.0
 11
44.560333
 21
0.030305
 31
0.0
  0
LINE
  5
6FE
330
1F
100
AcDbEntity
  8
1
  6
CONTINUOUS
370
50
 62
4
100
AcDbLine
 10
42.972546
 20
-0.755112
 30
0.0
 11
42.954987
 21
-0.705116
 31
0.0
  0
LINE
  5
6FF
330
1F
100
AcDbEntity
  8
1
  6
CONTINUOUS
370
50
 62
4
100
AcDbLine
 10
42.422558
 20
0.157813
 30
0.0
 11
42.401356
 21
0.216384
 31
0.0
  0
LINE
  5
700
330
1F
100
AcDbEntity
  8
1
  6
CONTINUOUS
370
50
 62
4
100
AcDbLine
 10
44.397179
 20
0.688094
 30
0.0
 11
44.377087
 21
0.7426349999999999
 31
0.0
  0
LINE
  5
701
330
1F
100
AcDbEntity
  8
1
  6
CONTINUOUS
370
50
 62
4
100
AcDbLine
 10
44.582481
 20
-0.031087
 30
0.0
 11
44.570843
 21
0.000269
 31
0.0
  0
LINE
  5
702
330
1F
100
AcDbEntity
  8
1
  6
CONTINUOUS
370
50
 62
4
100
AcDbLine
 10
42.64267
 20
-0.6993619999999999
 30
0.0
 11
42.616135
 21
-0.6279699999999999
 31
0.0
  0
LINE
  5
703
330
1F
100
AcDbEntity
  8
1
  6
CONTINUOUS
370
50
 62
4
100
AcDbLine
 10
42.205532
 20
-0.242594
 30
0.0
 11
42.194782
 21
-0.21449
 31
0.0
  0
LINE
  5
704
330
1F
100
AcDbEntity
  8
1
  6
CONTINUOUS
370
50
 62
4
100
AcDbLine
 10
42.993282
 20
-0.8086519999999999
 30
0.0
 11
42.972546
 21
-0.755112
 31
0.0
  0
LINE
  5
705
330
1F
100
AcDbEntity
  8
1
  6
CONTINUOUS
370
50
 62
4
100
AcDbLine
 10
44.04763
 20
0.749883
 30
0.0
 11
44.03191
 21
0.790248
 31
0.0
  0
LINE
  5
706
330
1F
100
AcDbEntity
  8
1
  6
CONTINUOUS
370
50
 62
4
100
AcDbLine
 10
44.595261
 20
-0.063838
 30
0.0
 11
44.582481
 21
-0.031087
 31
0.0
  0
LINE
  5
707
330
1F
100
AcDbEntity
  8
1
  6
CONTINUOUS
370
50
 62
4
100
AcDbLine
 10
42.670883
 20
-0.77108
 30
0.0
 11
42.64267
 21
-0.6993619999999999
 31
0.0
  0
LINE
  5
708
330
1F
100
AcDbEntity
  8
1
  6
CONTINUOUS
370
50
 62
4
100
AcDbLine
 10
42.401356
 20
0.216384
 30
0.0
 11
42.378342
 21
0.27477
 31
0.0
  0
LINE
  5
709
330
1F
100
AcDbEntity
  8
1
  6
CONTINUOUS
370
50
 62
4
100
AcDbLine
 10
42.859947
 20
-0.343809
 30
0.0
 11
42.846226
 21
-0.310388
 31
0.0
  0
LINE
  5
70A
330
1F
100
AcDbEntity
  8
1
  6
CONTINUOUS
370
50
 62
4
100
AcDbLine
 10
43.017231
 20
-0.865645
 30
0.0
 11
42.993282
 21
-0.8086519999999999
 31
0.0
  0
LINE
  5
70B
330
1F
100
AcDbEntity
  8
1
  6
CONTINUOUS
370
50
 62
4
100
AcDbLine
 10
42.378342
 20
0.27477
 30
0.0
 11
42.354065
 21
0.331984
 31
0.0
  0
LINE
  5
70C
330
1F
100
AcDbEntity
  8
1
  6
CONTINUOUS
370
50
 62
4
100
AcDbLine
 10
44.138382
 20
0.455983
 30
0.0
 11
44.129131
 21
0.477748
 31
0.0
  0
LINE
  5
70D
330
1F
100
AcDbEntity
  8
1
  6
CONTINUOUS
370
50
 62
4
100
AcDbLine
 10
42.217155
 20
-0.269852
 30
0.0
 11
42.205532
 21
-0.242594
 31
0.0
  0
LINE
  5
70E
330
1F
100
AcDbEntity
  8
1
  6
CONTINUOUS
370
50
 62
4
100
AcDbLine
 10
44.03191
 20
0.790248
 30
0.0
 11
44.013321
 21
0.8335929999999999
 31
0.0
  0
LINE
  5
70F
330
1F
100
AcDbEntity
  8
1
  6
CONTINUOUS
370
50
 62
4
100
AcDbLine
 10
43.043343
 20
-0.923692
 30
0.0
 11
43.017231
 21
-0.865645
 31
0.0
  0
LINE
  5
710
330
1F
100
AcDbEntity
  8
1
  6
CONTINUOUS
370
50
 62
4
100
AcDbLine
 10
43.331818
 20
-0.7553829999999999
 30
0.0
 11
43.329132
 21
-0.7494179999999999
 31
0.0
  0
LINE
  5
711
330
1F
100
AcDbEntity
  8
1
  6
CONTINUOUS
370
50
 62
4
100
AcDbLine
 10
42.354065
 20
0.331984
 30
0.0
 11
42.329063
 21
0.38704
 31
0.0
  0
LINE
  5
712
330
1F
100
AcDbEntity
  8
1
  6
CONTINUOUS
370
50
 62
4
100
AcDbLine
 10
44.013321
 20
0.8335929999999999
 30
0.0
 11
43.991032
 21
0.8814909999999999
 31
0.0
  0
LINE
  5
713
330
1F
100
AcDbEntity
  8
1
  6
CONTINUOUS
370
50
 62
4
100
AcDbLine
 10
42.846226
 20
-0.310388
 30
0.0
 11
42.82946
 21
-0.274528
 31
0.0
  0
LINE
  5
714
330
1F
100
AcDbEntity
  8
1
  6
CONTINUOUS
370
50
 62
4
100
AcDbLine
 10
42.229553
 20
-0.296224
 30
0.0
 11
42.217155
 21
-0.269852
 31
0.0
  0
LINE
  5
715
330
1F
100
AcDbEntity
  8
1
  6
CONTINUOUS
370
50
 62
4
100
AcDbLine
 10
43.334713
 20
-0.76152
 30
0.0
 11
43.331818
 21
-0.7553829999999999
 31
0.0
  0
LINE
  5
716
330
1F
100
AcDbEntity
  8
1
  6
CONTINUOUS
370
50
 62
4
100
AcDbLine
 10
43.070827
 20
-0.9813799999999999
 30
0.0
 11
43.043343
 21
-0.923692
 31
0.0
  0
LINE
  5
717
330
1F
100
AcDbEntity
  8
1
  6
CONTINUOUS
370
50
 62
4
100
AcDbLine
 10
43.33781399999999
 20
-0.767832
 30
0.0
 11
43.334713
 21
-0.76152
 31
0.0
  0
LINE
  5
718
330
1F
100
AcDbEntity
  8
1
  6
CONTINUOUS
370
50
 62
4
100
AcDbLine
 10
44.14979899999999
 20
0.43324
 30
0.0
 11
44.138382
 21
0.455983
 31
0.0
  0
LINE
  5
719
330
1F
100
AcDbEntity
  8
1
  6
CONTINUOUS
370
50
 62
4
100
AcDbLine
 10
43.991032
 20
0.8814909999999999
 30
0.0
 11
43.963356
 21
0.9365469999999999
 31
0.0
  0
LINE
  5
71A
330
1F
100
AcDbEntity
  8
1
  6
CONTINUOUS
370
50
 62
4
100
AcDbLine
 10
43.341133
 20
-0.774315
 30
0.0
 11
43.33781399999999
 21
-0.767832
 31
0.0
  0
LINE
  5
71B
330
1F
100
AcDbEntity
  8
1
  6
CONTINUOUS
370
50
 62
4
100
AcDbLine
 10
42.242626
 20
-0.321673
 30
0.0
 11
42.229553
 21
-0.296224
 31
0.0
  0
LINE
  5
71C
330
1F
100
AcDbEntity
  8
1
  6
CONTINUOUS
370
50
 62
4
100
AcDbLine
 10
42.82946
 20
-0.274528
 30
0.0
 11
42.809509
 21
-0.235814
 31
0.0
  0
LINE
  5
71D
330
1F
100
AcDbEntity
  8
1
  6
CONTINUOUS
370
50
 62
4
100
AcDbLine
 10
43.344662
 20
-0.7809659999999999
 30
0.0
 11
43.341133
 21
-0.774315
 31
0.0
  0
LINE
  5
71E
330
1F
100
AcDbEntity
  8
1
  6
CONTINUOUS
370
50
 62
4
100
AcDbLine
 10
43.963356
 20
0.9365469999999999
 30
0.0
 11
43.92921399999999
 21
0.9995529999999999
 31
0.0
  0
LINE
  5
71F
330
1F
100
AcDbEntity
  8
1
  6
CONTINUOUS
370
50
 62
4
100
AcDbLine
 10
43.470871
 20
-0.855686
 30
0.0
 11
43.462086
 21
-0.8396589999999999
 31
0.0
  0
LINE
  5
720
330
1F
100
AcDbEntity
  8
1
  6
CONTINUOUS
370
50
 62
4
100
AcDbLine
 10
43.348408
 20
-0.7877799999999999
 30
0.0
 11
43.344662
 21
-0.7809659999999999
 31
0.0
  0
LINE
  5
721
330
1F
100
AcDbEntity
  8
1
  6
CONTINUOUS
370
50
 62
4
100
AcDbLine
 10
42.809509
 20
-0.235814
 30
0.0
 11
42.786228
 21
-0.193833
 31
0.0
  0
LINE
  5
722
330
1F
100
AcDbEntity
  8
1
  6
CONTINUOUS
370
50
 62
4
100
AcDbLine
 10
42.256279
 20
-0.346163
 30
0.0
 11
42.242626
 21
-0.321673
 31
0.0
  0
LINE
  5
723
330
1F
100
AcDbEntity
  8
1
  6
CONTINUOUS
370
50
 62
4
100
AcDbLine
 10
43.462086
 20
-0.8396589999999999
 30
0.0
 11
43.453617
 21
-0.824596
 31
0.0
  0
LINE
  5
724
330
1F
100
AcDbEntity
  8
1
  6
CONTINUOUS
370
50
 62
4
100
AcDbLine
 10
43.870869
 20
-0.999066
 30
0.0
 11
43.862865
 21
-0.984973
 31
0.0
  0
LINE
  5
725
330
1F
100
AcDbEntity
  8
1
  6
CONTINUOUS
370
50
 62
4
100
AcDbLine
 10
43.352367
 20
-0.794747
 30
0.0
 11
43.348408
 21
-0.7877799999999999
 31
0.0
  0
LINE
  5
726
330
1F
100
AcDbEntity
  8
1
  6
CONTINUOUS
370
50
 62
4
100
AcDbLine
 10
43.862865
 20
-0.984973
 30
0.0
 11
43.854942
 21
-0.971038
 31
0.0
  0
LINE
  5
727
330
1F
100
AcDbEntity
  8
1
  6
CONTINUOUS
370
50
 62
4
100
AcDbLine
 10
44.16343699999999
 20
0.409278
 30
0.0
 11
44.14979899999999
 21
0.43324
 31
0.0
  0
LINE
  5
728
330
1F
100
AcDbEntity
  8
1
  6
CONTINUOUS
370
50
 62
4
100
AcDbLine
 10
43.854942
 20
-0.971038
 30
0.0
 11
43.847111
 21
-0.957279
 31
0.0
  0
LINE
  5
729
330
1F
100
AcDbEntity
  8
1
  6
CONTINUOUS
370
50
 62
4
100
AcDbLine
 10
43.847111
 20
-0.957279
 30
0.0
 11
43.839382
 21
-0.943716
 31
0.0
  0
LINE
  5
72A
330
1F
100
AcDbEntity
  8
1
  6
CONTINUOUS
370
50
 62
4
100
AcDbLine
 10
43.839382
 20
-0.943716
 30
0.0
 11
43.831757
 21
-0.9303699999999999
 31
0.0
  0
LINE
  5
72B
330
1F
100
AcDbEntity
  8
1
  6
CONTINUOUS
370
50
 62
4
100
AcDbLine
 10
43.831757
 20
-0.9303699999999999
 30
0.0
 11
43.824242
 21
-0.9172589999999999
 31
0.0
  0
LINE
  5
72C
330
1F
100
AcDbEntity
  8
1
  6
CONTINUOUS
370
50
 62
4
100
AcDbLine
 10
43.824242
 20
-0.9172589999999999
 30
0.0
 11
43.81685299999999
 21
-0.904403
 31
0.0
  0
LINE
  5
72D
330
1F
100
AcDbEntity
  8
1
  6
CONTINUOUS
370
50
 62
4
100
AcDbLine
 10
43.81685299999999
 20
-0.904403
 30
0.0
 11
43.80957799999999
 21
-0.8917999999999999
 31
0.0
  0
LINE
  5
72E
330
1F
100
AcDbEntity
  8
1
  6
CONTINUOUS
370
50
 62
4
100
AcDbLine
 10
43.737278
 20
-0.768614
 30
0.0
 11
43.72913
 21
-0.7545
 31
0.0
  0
LINE
  5
72F
330
1F
100
AcDbEntity
  8
1
  6
CONTINUOUS
370
50
 62
4
100
AcDbLine
 10
43.352367
 20
-0.794747
 30
0.0
 11
43.329132
 21
-0.7545
 31
0.0
  0
LINE
  5
730
330
1F
100
AcDbEntity
  8
1
  6
CONTINUOUS
370
50
 62
4
100
AcDbLine
 10
44.95018
 20
-0.79096
 30
0.0
 11
44.929131
 21
-0.7545
 31
0.0
  0
LINE
  5
731
330
1F
100
AcDbEntity
  8
1
  6
CONTINUOUS
370
50
 62
4
100
AcDbLine
 10
44.240341
 20
-0.947125
 30
0.0
 11
44.129131
 21
-0.7545
 31
0.0
  0
LINE
  5
732
330
1F
100
AcDbEntity
  8
1
  6
CONTINUOUS
370
50
 62
4
100
AcDbLine
 10
42.299999
 20
-1.0
 30
0.0
 11
42.126797
 21
-0.7
 31
0.0
  0
LINE
  5
733
330
1F
100
AcDbEntity
  8
1
  6
CONTINUOUS
370
50
 62
4
100
AcDbLine
 10
43.453617
 20
-0.824596
 30
0.0
 11
43.445469
 21
-0.810483
 31
0.0
  0
LINE
  5
734
330
1F
100
AcDbEntity
  8
1
  6
CONTINUOUS
370
50
 62
4
100
AcDbLine
 10
44.870869
 20
0.7545
 30
0.0
 11
44.835217
 21
0.816252
 31
0.0
  0
LINE
  5
735
330
1F
100
AcDbEntity
  8
1
  6
CONTINUOUS
370
50
 62
4
100
AcDbLine
 10
43.07086899999999
 20
-1.0
 30
0.0
 11
42.929131
 21
-0.7545
 31
0.0
  0
LINE
  5
736
330
1F
100
AcDbEntity
  8
1
  6
CONTINUOUS
370
50
 62
4
100
AcDbLine
 10
44.07086899999999
 20
0.7545
 30
0.0
 11
43.929131
 21
1.0
 31
0.0
  0
LINE
  5
737
330
1F
100
AcDbEntity
  8
1
  6
CONTINUOUS
370
50
 62
4
100
AcDbLine
 10
42.670868
 20
-1.0
 30
0.0
 11
42.529129
 21
-0.7545
 31
0.0
  0
LINE
  5
738
330
1F
100
AcDbEntity
  8
1
  6
CONTINUOUS
370
50
 62
4
100
AcDbLine
 10
42.470871
 20
0.7545
 30
0.0
 11
42.329132
 21
1.0
 31
0.0
  0
LINE
  5
739
330
1F
100
AcDbEntity
  8
1
  6
CONTINUOUS
370
50
 62
4
100
AcDbLine
 10
42.870869
 20
0.7545
 30
0.0
 11
42.72913
 21
1.0
 31
0.0
  0
LINE
  5
73A
330
1F
100
AcDbEntity
  8
1
  6
CONTINUOUS
370
50
 62
4
100
AcDbLine
 10
43.27087
 20
0.7545
 30
0.0
 11
43.129131
 21
1.0
 31
0.0
  0
LINE
  5
73B
330
1F
100
AcDbEntity
  8
1
  6
CONTINUOUS
370
50
 62
4
100
AcDbLine
 10
44.595261
 20
-0.869043
 30
0.0
 11
44.529129
 21
-0.7545
 31
0.0
  0
LINE
  5
73C
330
1F
100
AcDbEntity
  8
1
  6
CONTINUOUS
370
50
 62
4
100
AcDbLine
 10
44.470871
 20
0.7545
 30
0.0
 11
44.377018
 21
0.917056
 31
0.0
  0
LINE
  5
73D
330
1F
100
AcDbEntity
  8
1
  6
CONTINUOUS
370
50
 62
4
100
AcDbLine
 10
43.80957799999999
 20
-0.8917999999999999
 30
0.0
 11
43.802322
 21
-0.879286
 31
0.0
  0
LINE
  5
73E
330
1F
100
AcDbEntity
  8
1
  6
CONTINUOUS
370
50
 62
4
100
AcDbLine
 10
43.742519
 20
-0.777625
 30
0.0
 11
43.737278
 21
-0.768614
 31
0.0
  0
LINE
  5
73F
330
1F
100
AcDbEntity
  8
1
  6
CONTINUOUS
370
50
 62
4
100
AcDbLine
 10
43.802322
 20
-0.879286
 30
0.0
 11
43.79508999999999
 21
-0.8668619999999999
 31
0.0
  0
LINE
  5
740
330
1F
100
AcDbEntity
  8
1
  6
CONTINUOUS
370
50
 62
4
100
AcDbLine
 10
43.79508999999999
 20
-0.8668619999999999
 30
0.0
 11
43.78791
 21
-0.854578
 31
0.0
  0
LINE
  5
741
330
1F
100
AcDbEntity
  8
1
  6
CONTINUOUS
370
50
 62
4
100
AcDbLine
 10
42.786228
 20
-0.193833
 30
0.0
 11
42.75946
 21
-0.148168
 31
0.0
  0
LINE
  5
742
330
1F
100
AcDbEntity
  8
1
  6
CONTINUOUS
370
50
 62
4
100
AcDbLine
 10
43.78791
 20
-0.854578
 30
0.0
 11
43.780811
 21
-0.8424809999999999
 31
0.0
  0
LINE
  5
743
330
1F
100
AcDbEntity
  8
1
  6
CONTINUOUS
370
50
 62
4
100
AcDbLine
 10
43.74815
 20
-0.7872159999999999
 30
0.0
 11
43.742519
 21
-0.777625
 31
0.0
  0
LINE
  5
744
330
1F
100
AcDbEntity
  8
1
  6
CONTINUOUS
370
50
 62
4
100
AcDbLine
 10
43.780811
 20
-0.8424809999999999
 30
0.0
 11
43.773827
 21
-0.8306199999999999
 31
0.0
  0
LINE
  5
745
330
1F
100
AcDbEntity
  8
1
  6
CONTINUOUS
370
50
 62
4
100
AcDbLine
 10
43.754128
 20
-0.797335
 30
0.0
 11
43.74815
 21
-0.7872159999999999
 31
0.0
  0
LINE
  5
746
330
1F
100
AcDbEntity
  8
1
  6
CONTINUOUS
370
50
 62
4
100
AcDbLine
 10
43.773827
 20
-0.8306199999999999
 30
0.0
 11
43.766998
 21
-0.819066
 31
0.0
  0
LINE
  5
747
330
1F
100
AcDbEntity
  8
1
  6
CONTINUOUS
370
50
 62
4
100
AcDbLine
 10
43.766998
 20
-0.819066
 30
0.0
 11
43.760422
 21
-0.807959
 31
0.0
  0
LINE
  5
748
330
1F
100
AcDbEntity
  8
1
  6
CONTINUOUS
370
50
 62
4
100
AcDbLine
 10
43.760422
 20
-0.807959
 30
0.0
 11
43.754128
 21
-0.797335
 31
0.0
  0
LINE
  5
749
330
1F
100
AcDbEntity
  8
1
  6
CONTINUOUS
370
50
 62
4
100
AcDbLine
 10
43.445469
 20
-0.810483
 30
0.0
 11
43.437649
 21
-0.797306
 31
0.0
  0
LINE
  5
74A
330
1F
100
AcDbEntity
  8
1
  6
CONTINUOUS
370
50
 62
4
100
AcDbLine
 10
42.270439
 20
-0.36967
 30
0.0
 11
42.256279
 21
-0.346163
 31
0.0
  0
LINE
  5
74B
330
1F
100
AcDbEntity
  8
1
  6
CONTINUOUS
370
50
 62
4
100
AcDbLine
 10
43.364567
 20
-0.8149919999999999
 30
0.0
 11
43.352367
 21
-0.794747
 31
0.0
  0
LINE
  5
74C
330
1F
100
AcDbEntity
  8
1
  6
CONTINUOUS
370
50
 62
4
100
AcDbLine
 10
43.437649
 20
-0.797306
 30
0.0
 11
43.430172
 21
-0.7850499999999999
 31
0.0
  0
LINE
  5
74D
330
1F
100
AcDbEntity
  8
1
  6
CONTINUOUS
370
50
 62
4
100
AcDbLine
 10
42.75946
 20
-0.148168
 30
0.0
 11
42.72913
 21
-0.098505
 31
0.0
  0
LINE
  5
74E
330
1F
100
AcDbEntity
  8
1
  6
CONTINUOUS
370
50
 62
4
100
AcDbLine
 10
43.936729
 20
0.6231019999999999
 30
0.0
 11
43.929131
 21
0.635365
 31
0.0
  0
LINE
  5
74F
330
1F
100
AcDbEntity
  8
1
  6
CONTINUOUS
370
50
 62
4
100
AcDbLine
 10
44.179352
 20
0.383856
 30
0.0
 11
44.16343699999999
 21
0.409278
 31
0.0
  0
LINE
  5
750
330
1F
100
AcDbEntity
  8
1
  6
CONTINUOUS
370
50
 62
4
100
AcDbLine
 10
43.430172
 20
-0.7850499999999999
 30
0.0
 11
43.423042
 21
-0.7736999999999999
 31
0.0
  0
LINE
  5
751
330
1F
100
AcDbEntity
  8
1
  6
CONTINUOUS
370
50
 62
4
100
AcDbLine
 10
43.944252
 20
0.61142
 30
0.0
 11
43.936729
 21
0.6231019999999999
 31
0.0
  0
LINE
  5
752
330
1F
100
AcDbEntity
  8
1
  6
CONTINUOUS
370
50
 62
4
100
AcDbLine
 10
43.423042
 20
-0.7736999999999999
 30
0.0
 11
43.416267
 21
-0.763241
 31
0.0
  0
LINE
  5
753
330
1F
100
AcDbEntity
  8
1
  6
CONTINUOUS
370
50
 62
4
100
AcDbLine
 10
42.285038
 20
-0.39217
 30
0.0
 11
42.270439
 21
-0.36967
 31
0.0
  0
LINE
  5
754
330
1F
100
AcDbEntity
  8
1
  6
CONTINUOUS
370
50
 62
4
100
AcDbLine
 10
43.37849
 20
-0.836359
 30
0.0
 11
43.364567
 21
-0.8149919999999999
 31
0.0
  0
LINE
  5
755
330
1F
100
AcDbEntity
  8
1
  6
CONTINUOUS
370
50
 62
4
100
AcDbLine
 10
43.416267
 20
-0.763241
 30
0.0
 11
43.409821
 21
-0.753598
 31
0.0
  0
LINE
  5
756
330
1F
100
AcDbEntity
  8
1
  6
CONTINUOUS
370
50
 62
4
100
AcDbLine
 10
43.951694
 20
0.600331
 30
0.0
 11
43.944252
 21
0.61142
 31
0.0
  0
LINE
  5
757
330
1F
100
AcDbEntity
  8
1
  6
CONTINUOUS
370
50
 62
4
100
AcDbLine
 10
44.197605
 20
0.356732
 30
0.0
 11
44.179352
 21
0.383856
 31
0.0
  0
LINE
  5
758
330
1F
100
AcDbEntity
  8
1
  6
CONTINUOUS
370
50
 62
4
100
AcDbLine
 10
43.07086899999999
 20
-0.502394
 30
0.0
 11
43.06310999999999
 21
-0.491162
 31
0.0
  0
LINE
  5
759
330
1F
100
AcDbEntity
  8
1
  6
CONTINUOUS
370
50
 62
4
100
AcDbLine
 10
43.409821
 20
-0.753598
 30
0.0
 11
43.403423
 21
-0.744356
 31
0.0
  0
LINE
  5
75A
330
1F
100
AcDbEntity
  8
1
  6
CONTINUOUS
370
50
 62
4
100
AcDbLine
 10
42.299999
 20
-0.413639
 30
0.0
 11
42.285038
 21
-0.39217
 31
0.0
  0
LINE
  5
75B
330
1F
100
AcDbEntity
  8
1
  6
CONTINUOUS
370
50
 62
4
100
AcDbLine
 10
43.39417299999999
 20
-0.858776
 30
0.0
 11
43.37849
 21
-0.836359
 31
0.0
  0
LINE
  5
75C
330
1F
100
AcDbEntity
  8
1
  6
CONTINUOUS
370
50
 62
4
100
AcDbLine
 10
43.959053
 20
0.589845
 30
0.0
 11
43.951694
 21
0.600331
 31
0.0
  0
LINE
  5
75D
330
1F
100
AcDbEntity
  8
1
  6
CONTINUOUS
370
50
 62
4
100
AcDbLine
 10
44.218193
 20
0.327728
 30
0.0
 11
44.197605
 21
0.356732
 31
0.0
  0
LINE
  5
75E
330
1F
100
AcDbEntity
  8
1
  6
CONTINUOUS
370
50
 62
4
100
AcDbLine
 10
43.670868
 20
0.753744
 30
0.0
 11
43.661285
 21
0.7672399999999999
 31
0.0
  0
LINE
  5
75F
330
1F
100
AcDbEntity
  8
1
  6
CONTINUOUS
370
50
 62
4
100
AcDbLine
 10
43.403423
 20
-0.744356
 30
0.0
 11
43.397049
 21
-0.735472
 31
0.0
  0
LINE
  5
760
330
1F
100
AcDbEntity
  8
1
  6
CONTINUOUS
370
50
 62
4
100
AcDbLine
 10
43.06310999999999
 20
-0.491162
 30
0.0
 11
43.055241
 21
-0.480331
 31
0.0
  0
LINE
  5
761
330
1F
100
AcDbEntity
  8
1
  6
CONTINUOUS
370
50
 62
4
100
AcDbLine
 10
43.96632
 20
0.5799719999999999
 30
0.0
 11
43.959053
 21
0.589845
 31
0.0
  0
LINE
  5
762
330
1F
100
AcDbEntity
  8
1
  6
CONTINUOUS
370
50
 62
4
100
AcDbLine
 10
44.24031799999999
 20
0.297681
 30
0.0
 11
44.218193
 21
0.327728
 31
0.0
  0
LINE
  5
763
330
1F
100
AcDbEntity
  8
1
  6
CONTINUOUS
370
50
 62
4
100
AcDbLine
 10
43.397049
 20
-0.735472
 30
0.0
 11
43.390713
 21
-0.726985
 31
0.0
  0
LINE
  5
764
330
1F
100
AcDbEntity
  8
1
  6
CONTINUOUS
370
50
 62
4
100
AcDbLine
 10
43.411648
 20
-0.882161
 30
0.0
 11
43.39417299999999
 21
-0.858776
 31
0.0
  0
LINE
  5
765
330
1F
100
AcDbEntity
  8
1
  6
CONTINUOUS
370
50
 62
4
100
AcDbLine
 10
45.0
 20
0.011091
 30
0.0
 11
44.992912
 21
0.020362
 31
0.0
  0
LINE
  5
766
330
1F
100
AcDbEntity
  8
1
  6
CONTINUOUS
370
50
 62
4
100
AcDbLine
 10
44.992912
 20
0.020362
 30
0.0
 11
44.985813
 21
0.029639
 31
0.0
  0
LINE
  5
767
330
1F
100
AcDbEntity
  8
1
  6
CONTINUOUS
370
50
 62
4
100
AcDbLine
 10
44.985813
 20
0.029639
 30
0.0
 11
44.978706
 21
0.038923
 31
0.0
  0
LINE
  5
768
330
1F
100
AcDbEntity
  8
1
  6
CONTINUOUS
370
50
 62
4
100
AcDbLine
 10
44.978706
 20
0.038923
 30
0.0
 11
44.971588
 21
0.048213
 31
0.0
  0
LINE
  5
769
330
1F
100
AcDbEntity
  8
1
  6
CONTINUOUS
370
50
 62
4
100
AcDbLine
 10
44.964458
 20
0.057507
 30
0.0
 11
44.957325
 21
0.066805
 31
0.0
  0
LINE
  5
76A
330
1F
100
AcDbEntity
  8
1
  6
CONTINUOUS
370
50
 62
4
100
AcDbLine
 10
44.971588
 20
0.048213
 30
0.0
 11
44.964458
 21
0.057507
 31
0.0
  0
LINE
  5
76B
330
1F
100
AcDbEntity
  8
1
  6
CONTINUOUS
370
50
 62
4
100
AcDbLine
 10
44.957325
 20
0.066805
 30
0.0
 11
44.95018
 21
0.076106
 31
0.0
  0
LINE
  5
76C
330
1F
100
AcDbEntity
  8
1
  6
CONTINUOUS
370
50
 62
4
100
AcDbLine
 10
43.055241
 20
-0.480331
 30
0.0
 11
43.047279
 21
-0.469967
 31
0.0
  0
LINE
  5
76D
330
1F
100
AcDbEntity
  8
1
  6
CONTINUOUS
370
50
 62
4
100
AcDbLine
 10
43.973499
 20
0.570718
 30
0.0
 11
43.96632
 21
0.5799719999999999
 31
0.0
  0
LINE
  5
76E
330
1F
100
AcDbEntity
  8
1
  6
CONTINUOUS
370
50
 62
4
100
AcDbLine
 10
43.390713
 20
-0.726985
 30
0.0
 11
43.384434
 21
-0.718936
 31
0.0
  0
LINE
  5
76F
330
1F
100
AcDbEntity
  8
1
  6
CONTINUOUS
370
50
 62
4
100
AcDbLine
 10
44.835217
 20
0.224654
 30
0.0
 11
44.801067
 21
0.267973
 31
0.0
  0
LINE
  5
770
330
1F
100
AcDbEntity
  8
1
  6
CONTINUOUS
370
50
 62
4
100
AcDbLine
 10
43.43053099999999
 20
-0.905897
 30
0.0
 11
43.411648
 21
-0.882161
 31
0.0
  0
LINE
  5
771
330
1F
100
AcDbEntity
  8
1
  6
CONTINUOUS
370
50
 62
4
100
AcDbLine
 10
43.661285
 20
0.7672399999999999
 30
0.0
 11
43.64935699999999
 21
0.7822199999999999
 31
0.0
  0
LINE
  5
772
330
1F
100
AcDbEntity
  8
1
  6
CONTINUOUS
370
50
 62
4
100
AcDbLine
 10
44.801067
 20
0.267973
 30
0.0
 11
44.76685
 21
0.310854
 31
0.0
  0
LINE
  5
773
330
1F
100
AcDbEntity
  8
1
  6
CONTINUOUS
370
50
 62
4
100
AcDbLine
 10
42.68751899999999
 20
-0.046895
 30
0.0
 11
42.679195
 21
-0.036556
 31
0.0
  0
LINE
  5
774
330
1F
100
AcDbEntity
  8
1
  6
CONTINUOUS
370
50
 62
4
100
AcDbLine
 10
42.679195
 20
-0.036556
 30
0.0
 11
42.670868
 21
-0.026216
 31
0.0
  0
LINE
  5
775
330
1F
100
AcDbEntity
  8
1
  6
CONTINUOUS
370
50
 62
4
100
AcDbLine
 10
42.695843
 20
-0.05723
 30
0.0
 11
42.68751899999999
 21
-0.046895
 31
0.0
  0
LINE
  5
776
330
1F
100
AcDbEntity
  8
1
  6
CONTINUOUS
370
50
 62
4
100
AcDbLine
 10
42.704166
 20
-0.067559
 30
0.0
 11
42.695843
 21
-0.05723
 31
0.0
  0
LINE
  5
777
330
1F
100
AcDbEntity
  8
1
  6
CONTINUOUS
370
50
 62
4
100
AcDbLine
 10
42.71249
 20
-0.077882
 30
0.0
 11
42.704166
 21
-0.067559
 31
0.0
  0
LINE
  5
778
330
1F
100
AcDbEntity
  8
1
  6
CONTINUOUS
370
50
 62
4
100
AcDbLine
 10
42.72081
 20
-0.088198
 30
0.0
 11
42.71249
 21
-0.077882
 31
0.0
  0
LINE
  5
779
330
1F
100
AcDbEntity
  8
1
  6
CONTINUOUS
370
50
 62
4
100
AcDbLine
 10
42.72913
 20
-0.098505
 30
0.0
 11
42.72081
 21
-0.088198
 31
0.0
  0
LINE
  5
77A
330
1F
100
AcDbEntity
  8
1
  6
CONTINUOUS
370
50
 62
4
100
AcDbLine
 10
44.76685
 20
0.310854
 30
0.0
 11
44.732578
 21
0.353216
 31
0.0
  0
LINE
  5
77B
330
1F
100
AcDbEntity
  8
1
  6
CONTINUOUS
370
50
 62
4
100
AcDbLine
 10
43.047279
 20
-0.469967
 30
0.0
 11
43.039246
 21
-0.460133
 31
0.0
  0
LINE
  5
77C
330
1F
100
AcDbEntity
  8
1
  6
CONTINUOUS
370
50
 62
4
100
AcDbLine
 10
43.384434
 20
-0.718936
 30
0.0
 11
43.378227
 21
-0.711363
 31
0.0
  0
LINE
  5
77D
330
1F
100
AcDbEntity
  8
1
  6
CONTINUOUS
370
50
 62
4
100
AcDbLine
 10
43.980671
 20
0.5619839999999999
 30
0.0
 11
43.973499
 21
0.570718
 31
0.0
  0
LINE
  5
77E
330
1F
100
AcDbEntity
  8
1
  6
CONTINUOUS
370
50
 62
4
100
AcDbLine
 10
44.732578
 20
0.353216
 30
0.0
 11
44.698273
 21
0.394981
 31
0.0
  0
LINE
  5
77F
330
1F
100
AcDbEntity
  8
1
  6
CONTINUOUS
370
50
 62
4
100
AcDbLine
 10
44.698273
 20
0.394981
 30
0.0
 11
44.66394
 21
0.436068
 31
0.0
  0
LINE
  5
780
330
1F
100
AcDbEntity
  8
1
  6
CONTINUOUS
370
50
 62
4
100
AcDbLine
 10
43.450306
 20
-0.929369
 30
0.0
 11
43.43053099999999
 21
-0.905897
 31
0.0
  0
LINE
  5
781
330
1F
100
AcDbEntity
  8
1
  6
CONTINUOUS
370
50
 62
4
100
AcDbLine
 10
44.66394
 20
0.436068
 30
0.0
 11
44.629597
 21
0.4764
 31
0.0
  0
LINE
  5
782
330
1F
100
AcDbEntity
  8
1
  6
CONTINUOUS
370
50
 62
4
100
AcDbLine
 10
43.378227
 20
-0.711363
 30
0.0
 11
43.372116
 21
-0.704305
 31
0.0
  0
LINE
  5
783
330
1F
100
AcDbEntity
  8
1
  6
CONTINUOUS
370
50
 62
4
100
AcDbLine
 10
44.629597
 20
0.4764
 30
0.0
 11
44.595261
 21
0.515896
 31
0.0
  0
LINE
  5
784
330
1F
100
AcDbEntity
  8
1
  6
CONTINUOUS
370
50
 62
4
100
AcDbLine
 10
43.987865
 20
0.55376
 30
0.0
 11
43.980671
 21
0.5619839999999999
 31
0.0
  0
LINE
  5
785
330
1F
100
AcDbEntity
  8
1
  6
CONTINUOUS
370
50
 62
4
100
AcDbLine
 10
43.039246
 20
-0.460133
 30
0.0
 11
43.031158
 21
-0.450896
 31
0.0
  0
LINE
  5
786
330
1F
100
AcDbEntity
  8
1
  6
CONTINUOUS
370
50
 62
4
100
AcDbLine
 10
43.64935699999999
 20
0.7822199999999999
 30
0.0
 11
43.634998
 21
0.7985399999999999
 31
0.0
  0
LINE
  5
787
330
1F
100
AcDbEntity
  8
1
  6
CONTINUOUS
370
50
 62
4
100
AcDbLine
 10
43.470871
 20
-0.9527019999999999
 30
0.0
 11
43.450306
 21
-0.929369
 31
0.0
  0
LINE
  5
788
330
1F
100
AcDbEntity
  8
1
  6
CONTINUOUS
370
50
 62
4
100
AcDbLine
 10
44.259624
 20
0.276602
 30
0.0
 11
44.240341
 21
0.297769
 31
0.0
  0
LINE
  5
789
330
1F
100
AcDbEntity
  8
1
  6
CONTINUOUS
370
50
 62
4
100
AcDbLine
 10
44.27898
 20
0.255476
 30
0.0
 11
44.259624
 21
0.276602
 31
0.0
  0
LINE
  5
78A
330
1F
100
AcDbEntity
  8
1
  6
CONTINUOUS
370
50
 62
4
100
AcDbLine
 10
43.372116
 20
-0.704305
 30
0.0
 11
43.366146
 21
-0.697826
 31
0.0
  0
LINE
  5
78B
330
1F
100
AcDbEntity
  8
1
  6
CONTINUOUS
370
50
 62
4
100
AcDbLine
 10
44.298412
 20
0.234397
 30
0.0
 11
44.27898
 21
0.255476
 31
0.0
  0
LINE
  5
78C
330
1F
100
AcDbEntity
  8
1
  6
CONTINUOUS
370
50
 62
4
100
AcDbLine
 10
43.079185
 20
-0.511366
 30
0.0
 11
43.07086899999999
 21
-0.502394
 31
0.0
  0
LINE
  5
78D
330
1F
100
AcDbEntity
  8
1
  6
CONTINUOUS
370
50
 62
4
100
AcDbLine
 10
44.317924
 20
0.213374
 30
0.0
 11
44.298412
 21
0.234397
 31
0.0
  0
LINE
  5
78E
330
1F
100
AcDbEntity
  8
1
  6
CONTINUOUS
370
50
 62
4
100
AcDbLine
 10
43.087502
 20
-0.52028
 30
0.0
 11
43.079185
 21
-0.511366
 31
0.0
  0
LINE
  5
78F
330
1F
100
AcDbEntity
  8
1
  6
CONTINUOUS
370
50
 62
4
100
AcDbLine
 10
44.337528
 20
0.192415
 30
0.0
 11
44.317924
 21
0.213374
 31
0.0
  0
LINE
  5
790
330
1F
100
AcDbEntity
  8
1
  6
CONTINUOUS
370
50
 62
4
100
AcDbLine
 10
43.99506
 20
0.546103
 30
0.0
 11
43.987865
 21
0.55376
 31
0.0
  0
LINE
  5
791
330
1F
100
AcDbEntity
  8
1
  6
CONTINUOUS
370
50
 62
4
100
AcDbLine
 10
43.095825
 20
-0.529135
 30
0.0
 11
43.087502
 21
-0.52028
 31
0.0
  0
LINE
  5
792
330
1F
100
AcDbEntity
  8
1
  6
CONTINUOUS
370
50
 62
4
100
AcDbLine
 10
44.357224
 20
0.171527
 30
0.0
 11
44.337528
 21
0.192415
 31
0.0
  0
LINE
  5
793
330
1F
100
AcDbEntity
  8
1
  6
CONTINUOUS
370
50
 62
4
100
AcDbLine
 10
43.104149
 20
-0.537932
 30
0.0
 11
43.095825
 21
-0.529135
 31
0.0
  0
LINE
  5
794
330
1F
100
AcDbEntity
  8
1
  6
CONTINUOUS
370
50
 62
4
100
AcDbLine
 10
43.031158
 20
-0.450896
 30
0.0
 11
43.023029
 21
-0.442321
 31
0.0
  0
LINE
  5
795
330
1F
100
AcDbEntity
  8
1
  6
CONTINUOUS
370
50
 62
4
100
AcDbLine
 10
44.377018
 20
0.150718
 30
0.0
 11
44.357224
 21
0.171527
 31
0.0
  0
LINE
  5
796
330
1F
100
AcDbEntity
  8
1
  6
CONTINUOUS
370
50
 62
4
100
AcDbLine
 10
43.112473
 20
-0.546669
 30
0.0
 11
43.104149
 21
-0.537932
 31
0.0
  0
LINE
  5
797
330
1F
100
AcDbEntity
  8
1
  6
CONTINUOUS
370
50
 62
4
100
AcDbLine
 10
42.478691
 20
-0.021514
 30
0.0
 11
42.470871
 21
-0.013361
 31
0.0
  0
LINE
  5
798
330
1F
100
AcDbEntity
  8
1
  6
CONTINUOUS
370
50
 62
4
100
AcDbLine
 10
42.486538
 20
-0.029691
 30
0.0
 11
42.478691
 21
-0.021514
 31
0.0
  0
LINE
  5
799
330
1F
100
AcDbEntity
  8
1
  6
CONTINUOUS
370
50
 62
4
100
AcDbLine
 10
43.1208
 20
-0.555345
 30
0.0
 11
43.112473
 21
-0.546669
 31
0.0
  0
LINE
  5
79A
330
1F
100
AcDbEntity
  8
1
  6
CONTINUOUS
370
50
 62
4
100
AcDbLine
 10
42.494495
 20
-0.037951
 30
0.0
 11
42.486538
 21
-0.029691
 31
0.0
  0
LINE
  5
79B
330
1F
100
AcDbEntity
  8
1
  6
CONTINUOUS
370
50
 62
4
100
AcDbLine
 10
43.634998
 20
0.7985399999999999
 30
0.0
 11
43.618126
 21
0.816054
 31
0.0
  0
LINE
  5
79C
330
1F
100
AcDbEntity
  8
1
  6
CONTINUOUS
370
50
 62
4
100
AcDbLine
 10
43.129131
 20
-0.56396
 30
0.0
 11
43.1208
 21
-0.555345
 31
0.0
  0
LINE
  5
79D
330
1F
100
AcDbEntity
  8
1
  6
CONTINUOUS
370
50
 62
4
100
AcDbLine
 10
42.502647
 20
-0.046356
 30
0.0
 11
42.494495
 21
-0.037951
 31
0.0
  0
LINE
  5
79E
330
1F
100
AcDbEntity
  8
1
  6
CONTINUOUS
370
50
 62
4
100
AcDbLine
 10
42.51108199999999
 20
-0.054969
 30
0.0
 11
42.502647
 21
-0.046356
 31
0.0
  0
LINE
  5
79F
330
1F
100
AcDbEntity
  8
1
  6
CONTINUOUS
370
50
 62
4
100
AcDbLine
 10
42.519878
 20
-0.063849
 30
0.0
 11
42.51108199999999
 21
-0.054969
 31
0.0
  0
LINE
  5
7A0
330
1F
100
AcDbEntity
  8
1
  6
CONTINUOUS
370
50
 62
4
100
AcDbLine
 10
43.366146
 20
-0.697826
 30
0.0
 11
43.360371
 21
-0.6919989999999999
 31
0.0
  0
LINE
  5
7A1
330
1F
100
AcDbEntity
  8
1
  6
CONTINUOUS
370
50
 62
4
100
AcDbLine
 10
42.529129
 20
-0.073059
 30
0.0
 11
42.519878
 21
-0.063849
 31
0.0
  0
LINE
  5
7A2
330
1F
100
AcDbEntity
  8
1
  6
CONTINUOUS
370
50
 62
4
100
AcDbLine
 10
44.002232
 20
0.539069
 30
0.0
 11
43.99506
 21
0.546103
 31
0.0
  0
LINE
  5
7A3
330
1F
100
AcDbEntity
  8
1
  6
CONTINUOUS
370
50
 62
4
100
AcDbLine
 10
42.324989
 20
-0.437828
 30
0.0
 11
42.320843
 21
-0.433803
 31
0.0
  0
LINE
  5
7A4
330
1F
100
AcDbEntity
  8
1
  6
CONTINUOUS
370
50
 62
4
100
AcDbLine
 10
42.329132
 20
-0.441848
 30
0.0
 11
42.324989
 21
-0.437828
 31
0.0
  0
LINE
  5
7A5
330
1F
100
AcDbEntity
  8
1
  6
CONTINUOUS
370
50
 62
4
100
AcDbLine
 10
43.023029
 20
-0.442321
 30
0.0
 11
43.015953
 21
-0.435459
 31
0.0
  0
LINE
  5
7A6
330
1F
100
AcDbEntity
  8
1
  6
CONTINUOUS
370
50
 62
4
100
AcDbLine
 10
42.320843
 20
-0.433803
 30
0.0
 11
42.316689
 21
-0.429776
 31
0.0
  0
LINE
  5
7A7
330
1F
100
AcDbEntity
  8
1
  6
CONTINUOUS
370
50
 62
4
100
AcDbLine
 10
42.316689
 20
-0.429776
 30
0.0
 11
42.312527
 21
-0.425745
 31
0.0
  0
LINE
  5
7A8
330
1F
100
AcDbEntity
  8
1
  6
CONTINUOUS
370
50
 62
4
100
AcDbLine
 10
42.312527
 20
-0.425745
 30
0.0
 11
42.308357
 21
-0.421712
 31
0.0
  0
LINE
  5
7A9
330
1F
100
AcDbEntity
  8
1
  6
CONTINUOUS
370
50
 62
4
100
AcDbLine
 10
42.308357
 20
-0.421712
 30
0.0
 11
42.30418
 21
-0.417676
 31
0.0
  0
LINE
  5
7AA
330
1F
100
AcDbEntity
  8
1
  6
CONTINUOUS
370
50
 62
4
100
AcDbLine
 10
42.30418
 20
-0.417676
 30
0.0
 11
42.299999
 21
-0.413639
 31
0.0
  0
LINE
  5
7AB
330
1F
100
AcDbEntity
  8
1
  6
CONTINUOUS
370
50
 62
4
100
AcDbLine
 10
43.929131
 20
0.635365
 30
0.0
 11
43.920803
 21
0.643374
 31
0.0
  0
LINE
  5
7AC
330
1F
100
AcDbEntity
  8
1
  6
CONTINUOUS
370
50
 62
4
100
AcDbLine
 10
43.618126
 20
0.816054
 30
0.0
 11
43.59824
 21
0.8350329999999999
 31
0.0
  0
LINE
  5
7AD
330
1F
100
AcDbEntity
  8
1
  6
CONTINUOUS
370
50
 62
4
100
AcDbLine
 10
43.920803
 20
0.643374
 30
0.0
 11
43.912476
 21
0.6513129999999999
 31
0.0
  0
LINE
  5
7AE
330
1F
100
AcDbEntity
  8
1
  6
CONTINUOUS
370
50
 62
4
100
AcDbLine
 10
42.329132
 20
0.387028
 30
0.0
 11
42.325039
 21
0.390914
 31
0.0
  0
LINE
  5
7AF
330
1F
100
AcDbEntity
  8
1
  6
CONTINUOUS
370
50
 62
4
100
AcDbLine
 10
43.912476
 20
0.6513129999999999
 30
0.0
 11
43.904152
 21
0.659183
 31
0.0
  0
LINE
  5
7B0
330
1F
100
AcDbEntity
  8
1
  6
CONTINUOUS
370
50
 62
4
100
AcDbLine
 10
44.912441
 20
0.047457
 30
0.0
 11
44.904121
 21
0.055317
 31
0.0
  0
LINE
  5
7B1
330
1F
100
AcDbEntity
  8
1
  6
CONTINUOUS
370
50
 62
4
100
AcDbLine
 10
44.895805
 20
0.06317
 30
0.0
 11
44.887497
 21
0.071018
 31
0.0
  0
LINE
  5
7B2
330
1F
100
AcDbEntity
  8
1
  6
CONTINUOUS
370
50
 62
4
100
AcDbLine
 10
44.904121
 20
0.055317
 30
0.0
 11
44.895805
 21
0.06317
 31
0.0
  0
LINE
  5
7B3
330
1F
100
AcDbEntity
  8
1
  6
CONTINUOUS
370
50
 62
4
100
AcDbLine
 10
44.920776
 20
0.039591
 30
0.0
 11
44.912441
 21
0.047457
 31
0.0
  0
LINE
  5
7B4
330
1F
100
AcDbEntity
  8
1
  6
CONTINUOUS
370
50
 62
4
100
AcDbLine
 10
44.887497
 20
0.071018
 30
0.0
 11
44.879185
 21
0.078861
 31
0.0
  0
LINE
  5
7B5
330
1F
100
AcDbEntity
  8
1
  6
CONTINUOUS
370
50
 62
4
100
AcDbLine
 10
44.879185
 20
0.078861
 30
0.0
 11
44.870869
 21
0.086701
 31
0.0
  0
LINE
  5
7B6
330
1F
100
AcDbEntity
  8
1
  6
CONTINUOUS
370
50
 62
4
100
AcDbLine
 10
44.929131
 20
0.031716
 30
0.0
 11
44.920776
 21
0.039591
 31
0.0
  0
LINE
  5
7B7
330
1F
100
AcDbEntity
  8
1
  6
CONTINUOUS
370
50
 62
4
100
AcDbLine
 10
42.325039
 20
0.390914
 30
0.0
 11
42.320923
 21
0.394772
 31
0.0
  0
LINE
  5
7B8
330
1F
100
AcDbEntity
  8
1
  6
CONTINUOUS
370
50
 62
4
100
AcDbLine
 10
43.904152
 20
0.659183
 30
0.0
 11
43.895832
 21
0.6669809999999999
 31
0.0
  0
LINE
  5
7B9
330
1F
100
AcDbEntity
  8
1
  6
CONTINUOUS
370
50
 62
4
100
AcDbLine
 10
43.27087
 20
-0.6442049999999999
 30
0.0
 11
43.267384
 21
-0.640946
 31
0.0
  0
LINE
  5
7BA
330
1F
100
AcDbEntity
  8
1
  6
CONTINUOUS
370
50
 62
4
100
AcDbLine
 10
44.529129
 20
0.138739
 30
0.0
 11
44.520817
 21
0.146471
 31
0.0
  0
LINE
  5
7BB
330
1F
100
AcDbEntity
  8
1
  6
CONTINUOUS
370
50
 62
4
100
AcDbLine
 10
43.360371
 20
-0.6919989999999999
 30
0.0
 11
43.35482
 21
-0.68684
 31
0.0
  0
LINE
  5
7BC
330
1F
100
AcDbEntity
  8
1
  6
CONTINUOUS
370
50
 62
4
100
AcDbLine
 10
43.895832
 20
0.6669809999999999
 30
0.0
 11
43.887508
 21
0.674708
 31
0.0
  0
LINE
  5
7BD
330
1F
100
AcDbEntity
  8
1
  6
CONTINUOUS
370
50
 62
4
100
AcDbLine
 10
44.520817
 20
0.146471
 30
0.0
 11
44.512497
 21
0.154183
 31
0.0
  0
LINE
  5
7BE
330
1F
100
AcDbEntity
  8
1
  6
CONTINUOUS
370
50
 62
4
100
AcDbLine
 10
42.320923
 20
0.394772
 30
0.0
 11
42.316784
 21
0.398604
 31
0.0
  0
LINE
  5
7BF
330
1F
100
AcDbEntity
  8
1
  6
CONTINUOUS
370
50
 62
4
100
AcDbLine
 10
44.512497
 20
0.154183
 30
0.0
 11
44.504177
 21
0.161873
 31
0.0
  0
LINE
  5
7C0
330
1F
100
AcDbEntity
  8
1
  6
CONTINUOUS
370
50
 62
4
100
AcDbLine
 10
44.504177
 20
0.161873
 30
0.0
 11
44.495853
 21
0.169543
 31
0.0
  0
LINE
  5
7C1
330
1F
100
AcDbEntity
  8
1
  6
CONTINUOUS
370
50
 62
4
100
AcDbLine
 10
43.887508
 20
0.674708
 30
0.0
 11
43.879189
 21
0.6823629999999999
 31
0.0
  0
LINE
  5
7C2
330
1F
100
AcDbEntity
  8
1
  6
CONTINUOUS
370
50
 62
4
100
AcDbLine
 10
44.495853
 20
0.169543
 30
0.0
 11
44.48753
 21
0.177192
 31
0.0
  0
LINE
  5
7C3
330
1F
100
AcDbEntity
  8
1
  6
CONTINUOUS
370
50
 62
4
100
AcDbLine
 10
44.879211
 20
-0.18903
 30
0.0
 11
44.870869
 21
-0.181373
 31
0.0
  0
LINE
  5
7C4
330
1F
100
AcDbEntity
  8
1
  6
CONTINUOUS
370
50
 62
4
100
AcDbLine
 10
44.887543
 20
-0.196665
 30
0.0
 11
44.879211
 21
-0.18903
 31
0.0
  0
LINE
  5
7C5
330
1F
100
AcDbEntity
  8
1
  6
CONTINUOUS
370
50
 62
4
100
AcDbLine
 10
44.48753
 20
0.177192
 30
0.0
 11
44.479198
 21
0.18482
 31
0.0
  0
LINE
  5
7C6
330
1F
100
AcDbEntity
  8
1
  6
CONTINUOUS
370
50
 62
4
100
AcDbLine
 10
44.895866
 20
-0.204278
 30
0.0
 11
44.887543
 21
-0.196665
 31
0.0
  0
LINE
  5
7C7
330
1F
100
AcDbEntity
  8
1
  6
CONTINUOUS
370
50
 62
4
100
AcDbLine
 10
42.316784
 20
0.398604
 30
0.0
 11
42.312626
 21
0.402407
 31
0.0
  0
LINE
  5
7C8
330
1F
100
AcDbEntity
  8
1
  6
CONTINUOUS
370
50
 62
4
100
AcDbLine
 10
44.479198
 20
0.18482
 30
0.0
 11
44.470871
 21
0.192425
 31
0.0
  0
LINE
  5
7C9
330
1F
100
AcDbEntity
  8
1
  6
CONTINUOUS
370
50
 62
4
100
AcDbLine
 10
44.904186
 20
-0.211869
 30
0.0
 11
44.895866
 21
-0.204278
 31
0.0
  0
LINE
  5
7CA
330
1F
100
AcDbEntity
  8
1
  6
CONTINUOUS
370
50
 62
4
100
AcDbLine
 10
43.879189
 20
0.6823629999999999
 30
0.0
 11
43.870869
 21
0.6899449999999999
 31
0.0
  0
LINE
  5
7CB
330
1F
100
AcDbEntity
  8
1
  6
CONTINUOUS
370
50
 62
4
100
AcDbLine
 10
44.912498
 20
-0.219438
 30
0.0
 11
44.904186
 21
-0.211869
 31
0.0
  0
LINE
  5
7CC
330
1F
100
AcDbEntity
  8
1
  6
CONTINUOUS
370
50
 62
4
100
AcDbLine
 10
44.377018
 20
0.742613
 30
0.0
 11
44.35743
 21
0.7604409999999999
 31
0.0
  0
LINE
  5
7CD
330
1F
100
AcDbEntity
  8
1
  6
CONTINUOUS
370
50
 62
4
100
AcDbLine
 10
44.920815
 20
-0.226986
 30
0.0
 11
44.912498
 21
-0.219438
 31
0.0
  0
LINE
  5
7CE
330
1F
100
AcDbEntity
  8
1
  6
CONTINUOUS
370
50
 62
4
100
AcDbLine
 10
44.929131
 20
-0.234513
 30
0.0
 11
44.920815
 21
-0.226986
 31
0.0
  0
LINE
  5
7CF
330
1F
100
AcDbEntity
  8
1
  6
CONTINUOUS
370
50
 62
4
100
AcDbLine
 10
42.312626
 20
0.402407
 30
0.0
 11
42.30844099999999
 21
0.406181
 31
0.0
  0
LINE
  5
7D0
330
1F
100
AcDbEntity
  8
1
  6
CONTINUOUS
370
50
 62
4
100
AcDbLine
 10
44.628658
 20
-0.09363
 30
0.0
 11
44.595261
 21
-0.063837
 31
0.0
  0
LINE
  5
7D1
330
1F
100
AcDbEntity
  8
1
  6
CONTINUOUS
370
50
 62
4
100
AcDbLine
 10
44.009361
 20
0.532712
 30
0.0
 11
44.002232
 21
0.539069
 31
0.0
  0
LINE
  5
7D2
330
1F
100
AcDbEntity
  8
1
  6
CONTINUOUS
370
50
 62
4
100
AcDbLine
 10
42.30844099999999
 20
0.406181
 30
0.0
 11
42.304234
 21
0.409925
 31
0.0
  0
LINE
  5
7D3
330
1F
100
AcDbEntity
  8
1
  6
CONTINUOUS
370
50
 62
4
100
AcDbLine
 10
44.35743
 20
0.7604409999999999
 30
0.0
 11
44.337864
 21
0.777782
 31
0.0
  0
LINE
  5
7D4
330
1F
100
AcDbEntity
  8
1
  6
CONTINUOUS
370
50
 62
4
100
AcDbLine
 10
43.015953
 20
-0.435459
 30
0.0
 11
43.008869
 21
-0.429188
 31
0.0
  0
LINE
  5
7D5
330
1F
100
AcDbEntity
  8
1
  6
CONTINUOUS
370
50
 62
4
100
AcDbLine
 10
42.304234
 20
0.409925
 30
0.0
 11
42.299999
 21
0.413639
 31
0.0
  0
LINE
  5
7D6
330
1F
100
AcDbEntity
  8
1
  6
CONTINUOUS
370
50
 62
4
100
AcDbLine
 10
43.59824
 20
0.8350329999999999
 30
0.0
 11
43.573357
 21
0.8568049999999999
 31
0.0
  0
LINE
  5
7D7
330
1F
100
AcDbEntity
  8
1
  6
CONTINUOUS
370
50
 62
4
100
AcDbLine
 10
42.521061
 20
-0.320923
 30
0.0
 11
42.512894
 21
-0.313782
 31
0.0
  0
LINE
  5
7D8
330
1F
100
AcDbEntity
  8
1
  6
CONTINUOUS
370
50
 62
4
100
AcDbLine
 10
42.512894
 20
-0.313782
 30
0.0
 11
42.504635
 21
-0.306564
 31
0.0
  0
LINE
  5
7D9
330
1F
100
AcDbEntity
  8
1
  6
CONTINUOUS
370
50
 62
4
100
AcDbLine
 10
42.529129
 20
-0.327962
 30
0.0
 11
42.521061
 21
-0.320923
 31
0.0
  0
LINE
  5
7DA
330
1F
100
AcDbEntity
  8
1
  6
CONTINUOUS
370
50
 62
4
100
AcDbLine
 10
42.504635
 20
-0.306564
 30
0.0
 11
42.496292
 21
-0.299294
 31
0.0
  0
LINE
  5
7DB
330
1F
100
AcDbEntity
  8
1
  6
CONTINUOUS
370
50
 62
4
100
AcDbLine
 10
42.496292
 20
-0.299294
 30
0.0
 11
42.487881
 21
-0.291998
 31
0.0
  0
LINE
  5
7DC
330
1F
100
AcDbEntity
  8
1
  6
CONTINUOUS
370
50
 62
4
100
AcDbLine
 10
43.267384
 20
-0.640946
 30
0.0
 11
43.263542
 21
-0.637625
 31
0.0
  0
LINE
  5
7DD
330
1F
100
AcDbEntity
  8
1
  6
CONTINUOUS
370
50
 62
4
100
AcDbLine
 10
44.662281
 20
-0.12262
 30
0.0
 11
44.628658
 21
-0.09363
 31
0.0
  0
LINE
  5
7DE
330
1F
100
AcDbEntity
  8
1
  6
CONTINUOUS
370
50
 62
4
100
AcDbLine
 10
44.337864
 20
0.777782
 30
0.0
 11
44.318314
 21
0.7946289999999999
 31
0.0
  0
LINE
  5
7DF
330
1F
100
AcDbEntity
  8
1
  6
CONTINUOUS
370
50
 62
4
100
AcDbLine
 10
42.487881
 20
-0.291998
 30
0.0
 11
42.479401
 21
-0.284701
 31
0.0
  0
LINE
  5
7E0
330
1F
100
AcDbEntity
  8
1
  6
CONTINUOUS
370
50
 62
4
100
AcDbLine
 10
42.479401
 20
-0.284701
 30
0.0
 11
42.470871
 21
-0.277428
 31
0.0
  0
LINE
  5
7E1
330
1F
100
AcDbEntity
  8
1
  6
CONTINUOUS
370
50
 62
4
100
AcDbLine
 10
43.35482
 20
-0.68684
 30
0.0
 11
43.349514
 21
-0.682367
 31
0.0
  0
LINE
  5
7E2
330
1F
100
AcDbEntity
  8
1
  6
CONTINUOUS
370
50
 62
4
100
AcDbLine
 10
44.318314
 20
0.7946289999999999
 30
0.0
 11
44.298786
 21
0.810971
 31
0.0
  0
LINE
  5
7E3
330
1F
100
AcDbEntity
  8
1
  6
CONTINUOUS
370
50
 62
4
100
AcDbLine
 10
44.696171
 20
-0.150776
 30
0.0
 11
44.662281
 21
-0.12262
 31
0.0
  0
LINE
  5
7E4
330
1F
100
AcDbEntity
  8
1
  6
CONTINUOUS
370
50
 62
4
100
AcDbLine
 10
42.879204
 20
-0.382337
 30
0.0
 11
42.870869
 21
-0.375513
 31
0.0
  0
LINE
  5
7E5
330
1F
100
AcDbEntity
  8
1
  6
CONTINUOUS
370
50
 62
4
100
AcDbLine
 10
42.887535
 20
-0.389122
 30
0.0
 11
42.879204
 21
-0.382337
 31
0.0
  0
LINE
  5
7E6
330
1F
100
AcDbEntity
  8
1
  6
CONTINUOUS
370
50
 62
4
100
AcDbLine
 10
44.298786
 20
0.810971
 30
0.0
 11
44.27928199999999
 21
0.8268
 31
0.0
  0
LINE
  5
7E7
330
1F
100
AcDbEntity
  8
1
  6
CONTINUOUS
370
50
 62
4
100
AcDbLine
 10
42.895859
 20
-0.395866
 30
0.0
 11
42.887535
 21
-0.389122
 31
0.0
  0
LINE
  5
7E8
330
1F
100
AcDbEntity
  8
1
  6
CONTINUOUS
370
50
 62
4
100
AcDbLine
 10
44.529129
 20
0.38984
 30
0.0
 11
44.520824
 21
0.396564
 31
0.0
  0
LINE
  5
7E9
330
1F
100
AcDbEntity
  8
1
  6
CONTINUOUS
370
50
 62
4
100
AcDbLine
 10
42.904182
 20
-0.40257
 30
0.0
 11
42.895859
 21
-0.395866
 31
0.0
  0
LINE
  5
7EA
330
1F
100
AcDbEntity
  8
1
  6
CONTINUOUS
370
50
 62
4
100
AcDbLine
 10
44.520824
 20
0.396564
 30
0.0
 11
44.512505
 21
0.403257
 31
0.0
  0
LINE
  5
7EB
330
1F
100
AcDbEntity
  8
1
  6
CONTINUOUS
370
50
 62
4
100
AcDbLine
 10
42.912498
 20
-0.409234
 30
0.0
 11
42.904182
 21
-0.40257
 31
0.0
  0
LINE
  5
7EC
330
1F
100
AcDbEntity
  8
1
  6
CONTINUOUS
370
50
 62
4
100
AcDbLine
 10
44.512505
 20
0.403257
 30
0.0
 11
44.504177
 21
0.409909
 31
0.0
  0
LINE
  5
7ED
330
1F
100
AcDbEntity
  8
1
  6
CONTINUOUS
370
50
 62
4
100
AcDbLine
 10
44.730366
 20
-0.178066
 30
0.0
 11
44.696171
 21
-0.150776
 31
0.0
  0
LINE
  5
7EE
330
1F
100
AcDbEntity
  8
1
  6
CONTINUOUS
370
50
 62
4
100
AcDbLine
 10
43.008869
 20
-0.429188
 30
0.0
 11
43.001793
 21
-0.423549
 31
0.0
  0
LINE
  5
7EF
330
1F
100
AcDbEntity
  8
1
  6
CONTINUOUS
370
50
 62
4
100
AcDbLine
 10
42.920815
 20
-0.415855
 30
0.0
 11
42.912498
 21
-0.409234
 31
0.0
  0
LINE
  5
7F0
330
1F
100
AcDbEntity
  8
1
  6
CONTINUOUS
370
50
 62
4
100
AcDbLine
 10
44.016644
 20
0.526926
 30
0.0
 11
44.009361
 21
0.532712
 31
0.0
  0
LINE
  5
7F1
330
1F
100
AcDbEntity
  8
1
  6
CONTINUOUS
370
50
 62
4
100
AcDbLine
 10
44.504177
 20
0.409909
 30
0.0
 11
44.495853
 21
0.416515
 31
0.0
  0
LINE
  5
7F2
330
1F
100
AcDbEntity
  8
1
  6
CONTINUOUS
370
50
 62
4
100
AcDbLine
 10
43.263542
 20
-0.637625
 30
0.0
 11
43.259346
 21
-0.634301
 31
0.0
  0
LINE
  5
7F3
330
1F
100
AcDbEntity
  8
1
  6
CONTINUOUS
370
50
 62
4
100
AcDbLine
 10
42.929131
 20
-0.422434
 30
0.0
 11
42.920815
 21
-0.415855
 31
0.0
  0
LINE
  5
7F4
330
1F
100
AcDbEntity
  8
1
  6
CONTINUOUS
370
50
 62
4
100
AcDbLine
 10
44.495853
 20
0.416515
 30
0.0
 11
44.487526
 21
0.423076
 31
0.0
  0
LINE
  5
7F5
330
1F
100
AcDbEntity
  8
1
  6
CONTINUOUS
370
50
 62
4
100
AcDbLine
 10
42.678921
 20
-0.777435
 30
0.0
 11
42.670868
 21
-0.7711009999999999
 31
0.0
  0
LINE
  5
7F6
330
1F
100
AcDbEntity
  8
1
  6
CONTINUOUS
370
50
 62
4
100
AcDbLine
 10
44.27928199999999
 20
0.8268
 30
0.0
 11
44.2598
 21
0.8421069999999999
 31
0.0
  0
LINE
  5
7F7
330
1F
100
AcDbEntity
  8
1
  6
CONTINUOUS
370
50
 62
4
100
AcDbLine
 10
44.487526
 20
0.423076
 30
0.0
 11
44.479198
 21
0.429589
 31
0.0
  0
LINE
  5
7F8
330
1F
100
AcDbEntity
  8
1
  6
CONTINUOUS
370
50
 62
4
100
AcDbLine
 10
42.687218
 20
-0.7838809999999999
 30
0.0
 11
42.678921
 21
-0.777435
 31
0.0
  0
LINE
  5
7F9
330
1F
100
AcDbEntity
  8
1
  6
CONTINUOUS
370
50
 62
4
100
AcDbLine
 10
44.479198
 20
0.429589
 30
0.0
 11
44.470871
 21
0.436054
 31
0.0
  0
LINE
  5
7FA
330
1F
100
AcDbEntity
  8
1
  6
CONTINUOUS
370
50
 62
4
100
AcDbLine
 10
42.695599
 20
-0.7903
 30
0.0
 11
42.687218
 21
-0.7838809999999999
 31
0.0
  0
LINE
  5
7FB
330
1F
100
AcDbEntity
  8
1
  6
CONTINUOUS
370
50
 62
4
100
AcDbLine
 10
44.764912
 20
-0.20446
 30
0.0
 11
44.730366
 21
-0.178066
 31
0.0
  0
LINE
  5
7FC
330
1F
100
AcDbEntity
  8
1
  6
CONTINUOUS
370
50
 62
4
100
AcDbLine
 10
44.2598
 20
0.8421069999999999
 30
0.0
 11
44.240341
 21
0.856883
 31
0.0
  0
LINE
  5
7FD
330
1F
100
AcDbEntity
  8
1
  6
CONTINUOUS
370
50
 62
4
100
AcDbLine
 10
42.703979
 20
-0.7966329999999999
 30
0.0
 11
42.695599
 21
-0.7903
 31
0.0
  0
LINE
  5
7FE
330
1F
100
AcDbEntity
  8
1
  6
CONTINUOUS
370
50
 62
4
100
AcDbLine
 10
43.349514
 20
-0.682367
 30
0.0
 11
43.34446699999999
 21
-0.678595
 31
0.0
  0
LINE
  5
7FF
330
1F
100
AcDbEntity
  8
1
  6
CONTINUOUS
370
50
 62
4
100
AcDbLine
 10
42.71236
 20
-0.802878
 30
0.0
 11
42.703979
 21
-0.7966329999999999
 31
0.0
  0
LINE
  5
800
330
1F
100
AcDbEntity
  8
1
  6
CONTINUOUS
370
50
 62
4
100
AcDbLine
 10
42.720745
 20
-0.809035
 30
0.0
 11
42.71236
 21
-0.802878
 31
0.0
  0
LINE
  5
801
330
1F
100
AcDbEntity
  8
1
  6
CONTINUOUS
370
50
 62
4
100
AcDbLine
 10
43.259346
 20
-0.634301
 30
0.0
 11
43.254784
 21
-0.63096
 31
0.0
  0
LINE
  5
802
330
1F
100
AcDbEntity
  8
1
  6
CONTINUOUS
370
50
 62
4
100
AcDbLine
 10
44.799847
 20
-0.229925
 30
0.0
 11
44.764912
 21
-0.20446
 31
0.0
  0
LINE
  5
803
330
1F
100
AcDbEntity
  8
1
  6
CONTINUOUS
370
50
 62
4
100
AcDbLine
 10
44.129131
 20
0.477748
 30
0.0
 11
44.120815
 21
0.483798
 31
0.0
  0
LINE
  5
804
330
1F
100
AcDbEntity
  8
1
  6
CONTINUOUS
370
50
 62
4
100
AcDbLine
 10
42.72913
 20
-0.8151039999999999
 30
0.0
 11
42.720745
 21
-0.809035
 31
0.0
  0
LINE
  5
805
330
1F
100
AcDbEntity
  8
1
  6
CONTINUOUS
370
50
 62
4
100
AcDbLine
 10
44.120815
 20
0.483798
 30
0.0
 11
44.112495
 21
0.489794
 31
0.0
  0
LINE
  5
806
330
1F
100
AcDbEntity
  8
1
  6
CONTINUOUS
370
50
 62
4
100
AcDbLine
 10
44.112495
 20
0.489794
 30
0.0
 11
44.104172
 21
0.495735
 31
0.0
  0
LINE
  5
807
330
1F
100
AcDbEntity
  8
1
  6
CONTINUOUS
370
50
 62
4
100
AcDbLine
 10
44.104172
 20
0.495735
 30
0.0
 11
44.095848
 21
0.501621
 31
0.0
  0
LINE
  5
808
330
1F
100
AcDbEntity
  8
1
  6
CONTINUOUS
370
50
 62
4
100
AcDbLine
 10
43.001793
 20
-0.423549
 30
0.0
 11
42.994743
 21
-0.418596
 31
0.0
  0
LINE
  5
809
330
1F
100
AcDbEntity
  8
1
  6
CONTINUOUS
370
50
 62
4
100
AcDbLine
 10
42.670868
 20
-0.026216
 30
0.0
 11
42.663597
 21
-0.021122
 31
0.0
  0
LINE
  5
80A
330
1F
100
AcDbEntity
  8
1
  6
CONTINUOUS
370
50
 62
4
100
AcDbLine
 10
44.095848
 20
0.501621
 30
0.0
 11
44.08752399999999
 21
0.507452
 31
0.0
  0
LINE
  5
80B
330
1F
100
AcDbEntity
  8
1
  6
CONTINUOUS
370
50
 62
4
100
AcDbLine
 10
44.08752399999999
 20
0.507452
 30
0.0
 11
44.079197
 21
0.513226
 31
0.0
  0
LINE
  5
80C
330
1F
100
AcDbEntity
  8
1
  6
CONTINUOUS
370
50
 62
4
100
AcDbLine
 10
44.835217
 20
-0.25443
 30
0.0
 11
44.799847
 21
-0.229925
 31
0.0
  0
LINE
  5
80D
330
1F
100
AcDbEntity
  8
1
  6
CONTINUOUS
370
50
 62
4
100
AcDbLine
 10
44.02381099999999
 20
0.521992
 30
0.0
 11
44.016644
 21
0.526926
 31
0.0
  0
LINE
  5
80E
330
1F
100
AcDbEntity
  8
1
  6
CONTINUOUS
370
50
 62
4
100
AcDbLine
 10
44.079197
 20
0.513226
 30
0.0
 11
44.07086899999999
 21
0.518945
 31
0.0
  0
LINE
  5
80F
330
1F
100
AcDbEntity
  8
1
  6
CONTINUOUS
370
50
 62
4
100
AcDbLine
 10
43.254784
 20
-0.63096
 30
0.0
 11
43.249851
 21
-0.627589
 31
0.0
  0
LINE
  5
810
330
1F
100
AcDbEntity
  8
1
  6
CONTINUOUS
370
50
 62
4
100
AcDbLine
 10
43.249851
 20
-0.627589
 30
0.0
 11
43.244545
 21
-0.624172
 31
0.0
  0
LINE
  5
811
330
1F
100
AcDbEntity
  8
1
  6
CONTINUOUS
370
50
 62
4
100
AcDbLine
 10
43.479187
 20
-0.86103
 30
0.0
 11
43.470871
 21
-0.855686
 31
0.0
  0
LINE
  5
812
330
1F
100
AcDbEntity
  8
1
  6
CONTINUOUS
370
50
 62
4
100
AcDbLine
 10
43.34446699999999
 20
-0.678595
 30
0.0
 11
43.339699
 21
-0.675541
 31
0.0
  0
LINE
  5
813
330
1F
100
AcDbEntity
  8
1
  6
CONTINUOUS
370
50
 62
4
100
AcDbLine
 10
43.487507
 20
-0.8662799999999999
 30
0.0
 11
43.479187
 21
-0.86103
 31
0.0
  0
LINE
  5
814
330
1F
100
AcDbEntity
  8
1
  6
CONTINUOUS
370
50
 62
4
100
AcDbLine
 10
42.663597
 20
-0.021122
 30
0.0
 11
42.656395
 21
-0.016641
 31
0.0
  0
LINE
  5
815
330
1F
100
AcDbEntity
  8
1
  6
CONTINUOUS
370
50
 62
4
100
AcDbLine
 10
43.495831
 20
-0.871435
 30
0.0
 11
43.487507
 21
-0.8662799999999999
 31
0.0
  0
LINE
  5
816
330
1F
100
AcDbEntity
  8
1
  6
CONTINUOUS
370
50
 62
4
100
AcDbLine
 10
43.504154
 20
-0.8764949999999999
 30
0.0
 11
43.495831
 21
-0.871435
 31
0.0
  0
LINE
  5
817
330
1F
100
AcDbEntity
  8
1
  6
CONTINUOUS
370
50
 62
4
100
AcDbLine
 10
42.994743
 20
-0.418596
 30
0.0
 11
42.987747
 21
-0.414381
 31
0.0
  0
LINE
  5
818
330
1F
100
AcDbEntity
  8
1
  6
CONTINUOUS
370
50
 62
4
100
AcDbLine
 10
43.512478
 20
-0.881459
 30
0.0
 11
43.504154
 21
-0.8764949999999999
 31
0.0
  0
LINE
  5
819
330
1F
100
AcDbEntity
  8
1
  6
CONTINUOUS
370
50
 62
4
100
AcDbLine
 10
43.244545
 20
-0.624172
 30
0.0
 11
43.231995
 21
-0.616691
 31
0.0
  0
LINE
  5
81A
330
1F
100
AcDbEntity
  8
1
  6
CONTINUOUS
370
50
 62
4
100
AcDbLine
 10
42.879189
 20
-0.587832
 30
0.0
 11
42.870869
 21
-0.582942
 31
0.0
  0
LINE
  5
81B
330
1F
100
AcDbEntity
  8
1
  6
CONTINUOUS
370
50
 62
4
100
AcDbLine
 10
43.520802
 20
-0.886328
 30
0.0
 11
43.512478
 21
-0.881459
 31
0.0
  0
LINE
  5
81C
330
1F
100
AcDbEntity
  8
1
  6
CONTINUOUS
370
50
 62
4
100
AcDbLine
 10
42.887512
 20
-0.59266
 30
0.0
 11
42.879189
 21
-0.587832
 31
0.0
  0
LINE
  5
81D
330
1F
100
AcDbEntity
  8
1
  6
CONTINUOUS
370
50
 62
4
100
AcDbLine
 10
43.529129
 20
-0.8911
 30
0.0
 11
43.520802
 21
-0.886328
 31
0.0
  0
LINE
  5
81E
330
1F
100
AcDbEntity
  8
1
  6
CONTINUOUS
370
50
 62
4
100
AcDbLine
 10
44.0308
 20
0.517991
 30
0.0
 11
44.02381099999999
 21
0.521992
 31
0.0
  0
LINE
  5
81F
330
1F
100
AcDbEntity
  8
1
  6
CONTINUOUS
370
50
 62
4
100
AcDbLine
 10
42.895836
 20
-0.597424
 30
0.0
 11
42.887512
 21
-0.59266
 31
0.0
  0
LINE
  5
820
330
1F
100
AcDbEntity
  8
1
  6
CONTINUOUS
370
50
 62
4
100
AcDbLine
 10
42.90416
 20
-0.602125
 30
0.0
 11
42.895836
 21
-0.597424
 31
0.0
  0
LINE
  5
821
330
1F
100
AcDbEntity
  8
1
  6
CONTINUOUS
370
50
 62
4
100
AcDbLine
 10
42.91248299999999
 20
-0.606762
 30
0.0
 11
42.90416
 21
-0.602125
 31
0.0
  0
LINE
  5
822
330
1F
100
AcDbEntity
  8
1
  6
CONTINUOUS
370
50
 62
4
100
AcDbLine
 10
43.231995
 20
-0.616691
 30
0.0
 11
43.217678
 21
-0.608806
 31
0.0
  0
LINE
  5
823
330
1F
100
AcDbEntity
  8
1
  6
CONTINUOUS
370
50
 62
4
100
AcDbLine
 10
42.920807
 20
-0.611335
 30
0.0
 11
42.91248299999999
 21
-0.606762
 31
0.0
  0
LINE
  5
824
330
1F
100
AcDbEntity
  8
1
  6
CONTINUOUS
370
50
 62
4
100
AcDbLine
 10
42.656395
 20
-0.016641
 30
0.0
 11
42.649265
 21
-0.012771
 31
0.0
  0
LINE
  5
825
330
1F
100
AcDbEntity
  8
1
  6
CONTINUOUS
370
50
 62
4
100
AcDbLine
 10
42.929131
 20
-0.6158429999999999
 30
0.0
 11
42.920807
 21
-0.611335
 31
0.0
  0
LINE
  5
826
330
1F
100
AcDbEntity
  8
1
  6
CONTINUOUS
370
50
 62
4
100
AcDbLine
 10
44.957226
 20
-0.32862
 30
0.0
 11
44.95018
 21
-0.324816
 31
0.0
  0
LINE
  5
827
330
1F
100
AcDbEntity
  8
1
  6
CONTINUOUS
370
50
 62
4
100
AcDbLine
 10
44.964298
 20
-0.332372
 30
0.0
 11
44.957226
 21
-0.32862
 31
0.0
  0
LINE
  5
828
330
1F
100
AcDbEntity
  8
1
  6
CONTINUOUS
370
50
 62
4
100
AcDbLine
 10
43.217678
 20
-0.608806
 30
0.0
 11
43.201298
 21
-0.600252
 31
0.0
  0
LINE
  5
829
330
1F
100
AcDbEntity
  8
1
  6
CONTINUOUS
370
50
 62
4
100
AcDbLine
 10
43.339699
 20
-0.675541
 30
0.0
 11
43.335293
 21
-0.673241
 31
0.0
  0
LINE
  5
82A
330
1F
100
AcDbEntity
  8
1
  6
CONTINUOUS
370
50
 62
4
100
AcDbLine
 10
44.971397
 20
-0.336072
 30
0.0
 11
44.964298
 21
-0.332372
 31
0.0
  0
LINE
  5
82B
330
1F
100
AcDbEntity
  8
1
  6
CONTINUOUS
370
50
 62
4
100
AcDbLine
 10
44.978516
 20
-0.339715
 30
0.0
 11
44.971397
 21
-0.336072
 31
0.0
  0
LINE
  5
82C
330
1F
100
AcDbEntity
  8
1
  6
CONTINUOUS
370
50
 62
4
100
AcDbLine
 10
43.201298
 20
-0.600252
 30
0.0
 11
43.181576
 21
-0.590252
 31
0.0
  0
LINE
  5
82D
330
1F
100
AcDbEntity
  8
1
  6
CONTINUOUS
370
50
 62
4
100
AcDbLine
 10
43.157768
 20
-0.578303
 30
0.0
 11
43.12921499999999
 21
-0.563948
 31
0.0
  0
LINE
  5
82E
330
1F
100
AcDbEntity
  8
1
  6
CONTINUOUS
370
50
 62
4
100
AcDbLine
 10
44.985657
 20
-0.343301
 30
0.0
 11
44.978516
 21
-0.339715
 31
0.0
  0
LINE
  5
82F
330
1F
100
AcDbEntity
  8
1
  6
CONTINUOUS
370
50
 62
4
100
AcDbLine
 10
43.181576
 20
-0.590252
 30
0.0
 11
43.157768
 21
-0.578303
 31
0.0
  0
LINE
  5
830
330
1F
100
AcDbEntity
  8
1
  6
CONTINUOUS
370
50
 62
4
100
AcDbLine
 10
42.987747
 20
-0.414381
 30
0.0
 11
42.98083099999999
 21
-0.410957
 31
0.0
  0
LINE
  5
831
330
1F
100
AcDbEntity
  8
1
  6
CONTINUOUS
370
50
 62
4
100
AcDbLine
 10
44.992817
 20
-0.346826
 30
0.0
 11
44.985657
 21
-0.343301
 31
0.0
  0
LINE
  5
832
330
1F
100
AcDbEntity
  8
1
  6
CONTINUOUS
370
50
 62
4
100
AcDbLine
 10
43.279198
 20
-0.648261
 30
0.0
 11
43.27087
 21
-0.6442049999999999
 31
0.0
  0
LINE
  5
833
330
1F
100
AcDbEntity
  8
1
  6
CONTINUOUS
370
50
 62
4
100
AcDbLine
 10
45.0
 20
-0.350288
 30
0.0
 11
44.992817
 21
-0.346826
 31
0.0
  0
LINE
  5
834
330
1F
100
AcDbEntity
  8
1
  6
CONTINUOUS
370
50
 62
4
100
AcDbLine
 10
43.287525
 20
-0.652246
 30
0.0
 11
43.279198
 21
-0.648261
 31
0.0
  0
LINE
  5
835
330
1F
100
AcDbEntity
  8
1
  6
CONTINUOUS
370
50
 62
4
100
AcDbLine
 10
44.129131
 20
0.652135
 30
0.0
 11
44.120808
 21
0.6560699999999999
 31
0.0
  0
LINE
  5
836
330
1F
100
AcDbEntity
  8
1
  6
CONTINUOUS
370
50
 62
4
100
AcDbLine
 10
43.295849
 20
-0.656162
 30
0.0
 11
43.287525
 21
-0.652246
 31
0.0
  0
LINE
  5
837
330
1F
100
AcDbEntity
  8
1
  6
CONTINUOUS
370
50
 62
4
100
AcDbLine
 10
44.120808
 20
0.6560699999999999
 30
0.0
 11
44.112488
 21
0.659932
 31
0.0
  0
LINE
  5
838
330
1F
100
AcDbEntity
  8
1
  6
CONTINUOUS
370
50
 62
4
100
AcDbLine
 10
42.649265
 20
-0.012771
 30
0.0
 11
42.642212
 21
-0.009511
 31
0.0
  0
LINE
  5
839
330
1F
100
AcDbEntity
  8
1
  6
CONTINUOUS
370
50
 62
4
100
AcDbLine
 10
43.304173
 20
-0.6600079999999999
 30
0.0
 11
43.295849
 21
-0.656162
 31
0.0
  0
LINE
  5
83A
330
1F
100
AcDbEntity
  8
1
  6
CONTINUOUS
370
50
 62
4
100
AcDbLine
 10
43.529129
 20
0.928024
 30
0.0
 11
43.520802
 21
0.931854
 31
0.0
  0
LINE
  5
83B
330
1F
100
AcDbEntity
  8
1
  6
CONTINUOUS
370
50
 62
4
100
AcDbLine
 10
44.112488
 20
0.659932
 30
0.0
 11
44.104168
 21
0.66372
 31
0.0
  0
LINE
  5
83C
330
1F
100
AcDbEntity
  8
1
  6
CONTINUOUS
370
50
 62
4
100
AcDbLine
 10
43.312492
 20
-0.663782
 30
0.0
 11
43.304173
 21
-0.6600079999999999
 31
0.0
  0
LINE
  5
83D
330
1F
100
AcDbEntity
  8
1
  6
CONTINUOUS
370
50
 62
4
100
AcDbLine
 10
43.520802
 20
0.931854
 30
0.0
 11
43.512478
 21
0.9355829999999999
 31
0.0
  0
LINE
  5
83E
330
1F
100
AcDbEntity
  8
1
  6
CONTINUOUS
370
50
 62
4
100
AcDbLine
 10
44.037563
 20
0.514965
 30
0.0
 11
44.0308
 21
0.517991
 31
0.0
  0
LINE
  5
83F
330
1F
100
AcDbEntity
  8
1
  6
CONTINUOUS
370
50
 62
4
100
AcDbLine
 10
44.104168
 20
0.66372
 30
0.0
 11
44.095844
 21
0.6674359999999999
 31
0.0
  0
LINE
  5
840
330
1F
100
AcDbEntity
  8
1
  6
CONTINUOUS
370
50
 62
4
100
AcDbLine
 10
43.320812
 20
-0.667486
 30
0.0
 11
43.312492
 21
-0.663782
 31
0.0
  0
LINE
  5
841
330
1F
100
AcDbEntity
  8
1
  6
CONTINUOUS
370
50
 62
4
100
AcDbLine
 10
43.335293
 20
-0.673241
 30
0.0
 11
43.334198
 21
-0.67276
 31
0.0
  0
LINE
  5
842
330
1F
100
AcDbEntity
  8
1
  6
CONTINUOUS
370
50
 62
4
100
AcDbLine
 10
44.095844
 20
0.6674359999999999
 30
0.0
 11
44.087521
 21
0.671079
 31
0.0
  0
LINE
  5
843
330
1F
100
AcDbEntity
  8
1
  6
CONTINUOUS
370
50
 62
4
100
AcDbLine
 10
43.329132
 20
-0.671118
 30
0.0
 11
43.320812
 21
-0.667486
 31
0.0
  0
LINE
  5
844
330
1F
100
AcDbEntity
  8
1
  6
CONTINUOUS
370
50
 62
4
100
AcDbLine
 10
43.512478
 20
0.9355829999999999
 30
0.0
 11
43.504154
 21
0.9392109999999999
 31
0.0
  0
LINE
  5
845
330
1F
100
AcDbEntity
  8
1
  6
CONTINUOUS
370
50
 62
4
100
AcDbLine
 10
44.382622
 20
0.148279
 30
0.0
 11
44.377018
 21
0.150718
 31
0.0
  0
LINE
  5
846
330
1F
100
AcDbEntity
  8
1
  6
CONTINUOUS
370
50
 62
4
100
AcDbLine
 10
44.087521
 20
0.671079
 30
0.0
 11
44.079197
 21
0.674647
 31
0.0
  0
LINE
  5
847
330
1F
100
AcDbEntity
  8
1
  6
CONTINUOUS
370
50
 62
4
100
AcDbLine
 10
43.504154
 20
0.9392109999999999
 30
0.0
 11
43.495831
 21
0.9427369999999999
 31
0.0
  0
LINE
  5
848
330
1F
100
AcDbEntity
  8
1
  6
CONTINUOUS
370
50
 62
4
100
AcDbLine
 10
44.079197
 20
0.674647
 30
0.0
 11
44.07086899999999
 21
0.678142
 31
0.0
  0
LINE
  5
849
330
1F
100
AcDbEntity
  8
1
  6
CONTINUOUS
370
50
 62
4
100
AcDbLine
 10
43.495831
 20
0.9427369999999999
 30
0.0
 11
43.487511
 21
0.9461609999999999
 31
0.0
  0
LINE
  5
84A
330
1F
100
AcDbEntity
  8
1
  6
CONTINUOUS
370
50
 62
4
100
AcDbLine
 10
43.334198
 20
-0.67276
 30
0.0
 11
43.33313
 21
-0.672331
 31
0.0
  0
LINE
  5
84B
330
1F
100
AcDbEntity
  8
1
  6
CONTINUOUS
370
50
 62
4
100
AcDbLine
 10
43.487511
 20
0.9461609999999999
 30
0.0
 11
43.479191
 21
0.9494819999999999
 31
0.0
  0
LINE
  5
84C
330
1F
100
AcDbEntity
  8
1
  6
CONTINUOUS
370
50
 62
4
100
AcDbLine
 10
43.479191
 20
0.9494819999999999
 30
0.0
 11
43.470871
 21
0.9527019999999999
 31
0.0
  0
LINE
  5
84D
330
1F
100
AcDbEntity
  8
1
  6
CONTINUOUS
370
50
 62
4
100
AcDbLine
 10
42.642212
 20
-0.009511
 30
0.0
 11
42.635246
 21
-0.00686
 31
0.0
  0
LINE
  5
84E
330
1F
100
AcDbEntity
  8
1
  6
CONTINUOUS
370
50
 62
4
100
AcDbLine
 10
42.98083099999999
 20
-0.410957
 30
0.0
 11
42.974022
 21
-0.408379
 31
0.0
  0
LINE
  5
84F
330
1F
100
AcDbEntity
  8
1
  6
CONTINUOUS
370
50
 62
4
100
AcDbLine
 10
43.33313
 20
-0.672331
 30
0.0
 11
43.332088
 21
-0.671953
 31
0.0
  0
LINE
  5
850
330
1F
100
AcDbEntity
  8
1
  6
CONTINUOUS
370
50
 62
4
100
AcDbLine
 10
44.388233
 20
0.146251
 30
0.0
 11
44.382622
 21
0.148279
 31
0.0
  0
LINE
  5
851
330
1F
100
AcDbEntity
  8
1
  6
CONTINUOUS
370
50
 62
4
100
AcDbLine
 10
43.332088
 20
-0.671953
 30
0.0
 11
43.331074
 21
-0.671624
 31
0.0
  0
LINE
  5
852
330
1F
100
AcDbEntity
  8
1
  6
CONTINUOUS
370
50
 62
4
100
AcDbLine
 10
44.044079
 20
0.512956
 30
0.0
 11
44.037563
 21
0.514965
 31
0.0
  0
LINE
  5
853
330
1F
100
AcDbEntity
  8
1
  6
CONTINUOUS
370
50
 62
4
100
AcDbLine
 10
42.635246
 20
-0.00686
 30
0.0
 11
42.62836799999999
 21
-0.004814
 31
0.0
  0
LINE
  5
854
330
1F
100
AcDbEntity
  8
1
  6
CONTINUOUS
370
50
 62
4
100
AcDbLine
 10
44.393848
 20
0.144657
 30
0.0
 11
44.388233
 21
0.146251
 31
0.0
  0
LINE
  5
855
330
1F
100
AcDbEntity
  8
1
  6
CONTINUOUS
370
50
 62
4
100
AcDbLine
 10
43.331074
 20
-0.671624
 30
0.0
 11
43.33009
 21
-0.671346
 31
0.0
  0
LINE
  5
856
330
1F
100
AcDbEntity
  8
1
  6
CONTINUOUS
370
50
 62
4
100
AcDbLine
 10
42.974022
 20
-0.408379
 30
0.0
 11
42.96735
 21
-0.406701
 31
0.0
  0
LINE
  5
857
330
1F
100
AcDbEntity
  8
1
  6
CONTINUOUS
370
50
 62
4
100
AcDbLine
 10
43.33009
 20
-0.671346
 30
0.0
 11
43.329132
 21
-0.6711159999999999
 31
0.0
  0
LINE
  5
858
330
1F
100
AcDbEntity
  8
1
  6
CONTINUOUS
370
50
 62
4
100
AcDbLine
 10
43.079189
 20
-0.983429
 30
0.0
 11
43.07086899999999
 21
-0.9814759999999999
 31
0.0
  0
LINE
  5
859
330
1F
100
AcDbEntity
  8
1
  6
CONTINUOUS
370
50
 62
4
100
AcDbLine
 10
43.087509
 20
-0.9852749999999999
 30
0.0
 11
43.079189
 21
-0.983429
 31
0.0
  0
LINE
  5
85A
330
1F
100
AcDbEntity
  8
1
  6
CONTINUOUS
370
50
 62
4
100
AcDbLine
 10
44.835217
 20
0.816252
 30
0.0
 11
44.595261
 21
0.869043
 31
0.0
  0
LINE
  5
85B
330
1F
100
AcDbEntity
  8
1
  6
CONTINUOUS
370
50
 62
4
100
AcDbLine
 10
44.377018
 20
0.917056
 30
0.0
 11
44.240341
 21
0.947125
 31
0.0
  0
LINE
  5
85C
330
1F
100
AcDbEntity
  8
1
  6
CONTINUOUS
370
50
 62
4
100
AcDbLine
 10
45.0
 20
0.7799999999999999
 30
0.0
 11
44.95018
 21
0.79096
 31
0.0
  0
LINE
  5
85D
330
1F
100
AcDbEntity
  8
1
  6
CONTINUOUS
370
50
 62
4
100
AcDbLine
 10
42.62836799999999
 20
-0.004814
 30
0.0
 11
42.621593
 21
-0.003372
 31
0.0
  0
LINE
  5
85E
330
1F
100
AcDbEntity
  8
1
  6
CONTINUOUS
370
50
 62
4
100
AcDbLine
 10
43.09582899999999
 20
-0.987011
 30
0.0
 11
43.087509
 21
-0.9852749999999999
 31
0.0
  0
LINE
  5
85F
330
1F
100
AcDbEntity
  8
1
  6
CONTINUOUS
370
50
 62
4
100
AcDbLine
 10
44.399448
 20
0.14352
 30
0.0
 11
44.393848
 21
0.144657
 31
0.0
  0
LINE
  5
860
330
1F
100
AcDbEntity
  8
1
  6
CONTINUOUS
370
50
 62
4
100
AcDbLine
 10
43.104153
 20
-0.98864
 30
0.0
 11
43.09582899999999
 21
-0.987011
 31
0.0
  0
LINE
  5
861
330
1F
100
AcDbEntity
  8
1
  6
CONTINUOUS
370
50
 62
4
100
AcDbLine
 10
43.112476
 20
-0.9901599999999999
 30
0.0
 11
43.104153
 21
-0.98864
 31
0.0
  0
LINE
  5
862
330
1F
100
AcDbEntity
  8
1
  6
CONTINUOUS
370
50
 62
4
100
AcDbLine
 10
43.27919
 20
-0.7425029999999999
 30
0.0
 11
43.27087
 21
-0.741068
 31
0.0
  0
LINE
  5
863
330
1F
100
AcDbEntity
  8
1
  6
CONTINUOUS
370
50
 62
4
100
AcDbLine
 10
43.120804
 20
-0.991571
 30
0.0
 11
43.112476
 21
-0.9901599999999999
 31
0.0
  0
LINE
  5
864
330
1F
100
AcDbEntity
  8
1
  6
CONTINUOUS
370
50
 62
4
100
AcDbLine
 10
43.28751399999999
 20
-0.743858
 30
0.0
 11
43.27919
 21
-0.7425029999999999
 31
0.0
  0
LINE
  5
865
330
1F
100
AcDbEntity
  8
1
  6
CONTINUOUS
370
50
 62
4
100
AcDbLine
 10
43.129131
 20
-0.992873
 30
0.0
 11
43.120804
 21
-0.991571
 31
0.0
  0
LINE
  5
866
330
1F
100
AcDbEntity
  8
1
  6
CONTINUOUS
370
50
 62
4
100
AcDbLine
 10
43.295837
 20
-0.745132
 30
0.0
 11
43.28751399999999
 21
-0.743858
 31
0.0
  0
LINE
  5
867
330
1F
100
AcDbEntity
  8
1
  6
CONTINUOUS
370
50
 62
4
100
AcDbLine
 10
44.050304
 20
0.512006
 30
0.0
 11
44.044079
 21
0.512956
 31
0.0
  0
LINE
  5
868
330
1F
100
AcDbEntity
  8
1
  6
CONTINUOUS
370
50
 62
4
100
AcDbLine
 10
43.304161
 20
-0.746325
 30
0.0
 11
43.295837
 21
-0.745132
 31
0.0
  0
LINE
  5
869
330
1F
100
AcDbEntity
  8
1
  6
CONTINUOUS
370
50
 62
4
100
AcDbLine
 10
33.099998
 20
0.7
 30
0.0
 11
28.0
 21
1.4
 31
0.0
  0
LINE
  5
86A
330
1F
100
AcDbEntity
  8
1
  6
CONTINUOUS
370
50
 62
4
100
AcDbLine
 10
43.312485
 20
-0.747437
 30
0.0
 11
43.304161
 21
-0.746325
 31
0.0
  0
LINE
  5
86B
330
1F
100
AcDbEntity
  8
1
  6
CONTINUOUS
370
50
 62
4
100
AcDbLine
 10
43.740391
 20
0.6979799999999999
 30
0.0
 11
43.72913399999999
 21
0.699415
 31
0.0
  0
LINE
  5
86C
330
1F
100
AcDbEntity
  8
1
  6
CONTINUOUS
370
50
 62
4
100
AcDbLine
 10
42.621593
 20
-0.003372
 30
0.0
 11
42.614918
 21
-0.002532
 31
0.0
  0
LINE
  5
86D
330
1F
100
AcDbEntity
  8
1
  6
CONTINUOUS
370
50
 62
4
100
AcDbLine
 10
43.320808
 20
-0.7484679999999999
 30
0.0
 11
43.312485
 21
-0.747437
 31
0.0
  0
LINE
  5
86E
330
1F
100
AcDbEntity
  8
1
  6
CONTINUOUS
370
50
 62
4
100
AcDbLine
 10
44.405029
 20
0.142862
 30
0.0
 11
44.399448
 21
0.14352
 31
0.0
  0
LINE
  5
86F
330
1F
100
AcDbEntity
  8
1
  6
CONTINUOUS
370
50
 62
4
100
AcDbLine
 10
43.329132
 20
-0.7494179999999999
 30
0.0
 11
43.320808
 21
-0.7484679999999999
 31
0.0
  0
LINE
  5
870
330
1F
100
AcDbEntity
  8
1
  6
CONTINUOUS
370
50
 62
4
100
AcDbLine
 10
42.96735
 20
-0.406701
 30
0.0
 11
42.960911
 21
-0.405979
 31
0.0
  0
LINE
  5
871
330
1F
100
AcDbEntity
  8
1
  6
CONTINUOUS
370
50
 62
4
100
AcDbLine
 10
43.870823
 20
0.689726
 30
0.0
 11
43.843094
 21
0.692483
 31
0.0
  0
LINE
  5
872
330
1F
100
AcDbEntity
  8
1
  6
CONTINUOUS
370
50
 62
4
100
AcDbLine
 10
43.843094
 20
0.692483
 30
0.0
 11
43.816845
 21
0.6944929999999999
 31
0.0
  0
LINE
  5
873
330
1F
100
AcDbEntity
  8
1
  6
CONTINUOUS
370
50
 62
4
100
AcDbLine
 10
43.754711
 20
0.697118
 30
0.0
 11
43.740391
 21
0.6979799999999999
 31
0.0
  0
LINE
  5
874
330
1F
100
AcDbEntity
  8
1
  6
CONTINUOUS
370
50
 62
4
100
AcDbLine
 10
43.816845
 20
0.6944929999999999
 30
0.0
 11
43.79287
 21
0.695723
 31
0.0
  0
LINE
  5
875
330
1F
100
AcDbEntity
  8
1
  6
CONTINUOUS
370
50
 62
4
100
AcDbLine
 10
43.876637
 20
-0.999351
 30
0.0
 11
43.870869
 21
-0.999066
 31
0.0
  0
LINE
  5
876
330
1F
100
AcDbEntity
  8
1
  6
CONTINUOUS
370
50
 62
4
100
AcDbLine
 10
43.676208
 20
-0.753892
 30
0.0
 11
43.670868
 21
-0.753672
 31
0.0
  0
LINE
  5
877
330
1F
100
AcDbEntity
  8
1
  6
CONTINUOUS
370
50
 62
4
100
AcDbLine
 10
43.882408
 20
-0.999585
 30
0.0
 11
43.876637
 21
-0.999351
 31
0.0
  0
LINE
  5
878
330
1F
100
AcDbEntity
  8
1
  6
CONTINUOUS
370
50
 62
4
100
AcDbLine
 10
43.79287
 20
0.695723
 30
0.0
 11
43.772175
 21
0.696481
 31
0.0
  0
LINE
  5
879
330
1F
100
AcDbEntity
  8
1
  6
CONTINUOUS
370
50
 62
4
100
AcDbLine
 10
42.614918
 20
-0.002532
 30
0.0
 11
42.608341
 21
-0.002292
 31
0.0
  0
LINE
  5
87A
330
1F
100
AcDbEntity
  8
1
  6
CONTINUOUS
370
50
 62
4
100
AcDbLine
 10
43.772175
 20
0.696481
 30
0.0
 11
43.754711
 21
0.697118
 31
0.0
  0
LINE
  5
87B
330
1F
100
AcDbEntity
  8
1
  6
CONTINUOUS
370
50
 62
4
100
AcDbLine
 10
43.681549
 20
-0.754077
 30
0.0
 11
43.676208
 21
-0.753892
 31
0.0
  0
LINE
  5
87C
330
1F
100
AcDbEntity
  8
1
  6
CONTINUOUS
370
50
 62
4
100
AcDbLine
 10
43.929131
 20
0.999564
 30
0.0
 11
43.92519
 21
0.999697
 31
0.0
  0
LINE
  5
87D
330
1F
100
AcDbEntity
  8
1
  6
CONTINUOUS
370
50
 62
4
100
AcDbLine
 10
43.888176
 20
-0.9997659999999999
 30
0.0
 11
43.882408
 21
-0.999585
 31
0.0
  0
LINE
  5
87E
330
1F
100
AcDbEntity
  8
1
  6
CONTINUOUS
370
50
 62
4
100
AcDbLine
 10
43.686886
 20
-0.75423
 30
0.0
 11
43.681549
 21
-0.754077
 31
0.0
  0
LINE
  5
87F
330
1F
100
AcDbEntity
  8
1
  6
CONTINUOUS
370
50
 62
4
100
AcDbLine
 10
44.41058
 20
0.142706
 30
0.0
 11
44.405029
 21
0.142862
 31
0.0
  0
LINE
  5
880
330
1F
100
AcDbEntity
  8
1
  6
CONTINUOUS
370
50
 62
4
100
AcDbLine
 10
43.92519
 20
0.999697
 30
0.0
 11
43.921249
 21
0.999806
 31
0.0
  0
LINE
  5
881
330
1F
100
AcDbEntity
  8
1
  6
CONTINUOUS
370
50
 62
4
100
AcDbLine
 10
43.72913
 20
0.7542399999999999
 30
0.0
 11
43.726143
 21
0.754309
 31
0.0
  0
LINE
  5
882
330
1F
100
AcDbEntity
  8
1
  6
CONTINUOUS
370
50
 62
4
100
AcDbLine
 10
43.893944
 20
-0.999896
 30
0.0
 11
43.888176
 21
-0.9997659999999999
 31
0.0
  0
LINE
  5
883
330
1F
100
AcDbEntity
  8
1
  6
CONTINUOUS
370
50
 62
4
100
AcDbLine
 10
43.692223
 20
-0.754348
 30
0.0
 11
43.686886
 21
-0.75423
 31
0.0
  0
LINE
  5
884
330
1F
100
AcDbEntity
  8
1
  6
CONTINUOUS
370
50
 62
4
100
AcDbLine
 10
43.921249
 20
0.999806
 30
0.0
 11
43.917305
 21
0.999891
 31
0.0
  0
LINE
  5
885
330
1F
100
AcDbEntity
  8
1
  6
CONTINUOUS
370
50
 62
4
100
AcDbLine
 10
43.726143
 20
0.754309
 30
0.0
 11
43.72316
 21
0.754367
 31
0.0
  0
LINE
  5
886
330
1F
100
AcDbEntity
  8
1
  6
CONTINUOUS
370
50
 62
4
100
AcDbLine
 10
43.72316
 20
0.754367
 30
0.0
 11
43.720173
 21
0.754415
 31
0.0
  0
LINE
  5
887
330
1F
100
AcDbEntity
  8
1
  6
CONTINUOUS
370
50
 62
4
100
AcDbLine
 10
43.697559
 20
-0.754432
 30
0.0
 11
43.692223
 21
-0.754348
 31
0.0
  0
LINE
  5
888
330
1F
100
AcDbEntity
  8
1
  6
CONTINUOUS
370
50
 62
4
100
AcDbLine
 10
43.917305
 20
0.999891
 30
0.0
 11
43.913364
 21
0.999952
 31
0.0
  0
LINE
  5
889
330
1F
100
AcDbEntity
  8
1
  6
CONTINUOUS
370
50
 62
4
100
AcDbLine
 10
43.899715
 20
-0.9999739999999999
 30
0.0
 11
43.893944
 21
-0.999896
 31
0.0
  0
LINE
  5
88A
330
1F
100
AcDbEntity
  8
1
  6
CONTINUOUS
370
50
 62
4
100
AcDbLine
 10
43.720173
 20
0.754415
 30
0.0
 11
43.717186
 21
0.754452
 31
0.0
  0
LINE
  5
88B
330
1F
100
AcDbEntity
  8
1
  6
CONTINUOUS
370
50
 62
4
100
AcDbLine
 10
43.702892
 20
-0.754483
 30
0.0
 11
43.697559
 21
-0.754432
 31
0.0
  0
LINE
  5
88C
330
1F
100
AcDbEntity
  8
1
  6
CONTINUOUS
370
50
 62
4
100
AcDbLine
 10
43.913364
 20
0.999952
 30
0.0
 11
43.909424
 21
0.999988
 31
0.0
  0
LINE
  5
88D
330
1F
100
AcDbEntity
  8
1
  6
CONTINUOUS
370
50
 62
4
100
AcDbLine
 10
43.717186
 20
0.754452
 30
0.0
 11
43.714199
 21
0.754479
 31
0.0
  0
LINE
  5
88E
330
1F
100
AcDbEntity
  8
1
  6
CONTINUOUS
370
50
 62
4
100
AcDbLine
 10
43.714199
 20
0.754479
 30
0.0
 11
43.711216
 21
0.7544949999999999
 31
0.0
  0
LINE
  5
88F
330
1F
100
AcDbEntity
  8
1
  6
CONTINUOUS
370
50
 62
4
100
AcDbLine
 10
43.905483
 20
-1.0
 30
0.0
 11
43.899715
 21
-0.9999739999999999
 31
0.0
  0
LINE
  5
890
330
1F
100
AcDbEntity
  8
1
  6
CONTINUOUS
370
50
 62
4
100
AcDbLine
 10
43.708229
 20
-0.7545
 30
0.0
 11
43.702892
 21
-0.754483
 31
0.0
  0
LINE
  5
891
330
1F
100
AcDbEntity
  8
1
  6
CONTINUOUS
370
50
 62
4
100
AcDbLine
 10
43.909424
 20
0.999988
 30
0.0
 11
43.905483
 21
1.0
 31
0.0
  0
LINE
  5
892
330
1F
100
AcDbEntity
  8
1
  6
CONTINUOUS
370
50
 62
4
100
AcDbLine
 10
43.711216
 20
0.7544949999999999
 30
0.0
 11
43.708229
 21
0.7545
 31
0.0
  0
LINE
  5
893
330
1F
100
AcDbEntity
  8
1
  6
CONTINUOUS
370
50
 62
4
100
AcDbLine
 10
20.0
 20
-1.4
 30
0.0
 11
28.0
 21
-1.4
 31
0.0
  0
LINE
  5
894
330
1F
100
AcDbEntity
  8
1
  6
CONTINUOUS
370
50
 62
4
100
AcDbLine
 10
43.905487
 20
-1.0
 30
0.0
 11
43.929131
 21
-1.0
 31
0.0
  0
LINE
  5
895
330
1F
100
AcDbEntity
  8
1
  6
CONTINUOUS
370
50
 62
4
100
AcDbLine
 10
43.07086899999999
 20
-1.0
 30
0.0
 11
43.129131
 21
-1.0
 31
0.0
  0
LINE
  5
896
330
1F
100
AcDbEntity
  8
1
  6
CONTINUOUS
370
50
 62
4
100
AcDbLine
 10
42.299999
 20
-1.0
 30
0.0
 11
42.329132
 21
-1.0
 31
0.0
  0
LINE
  5
897
330
1F
100
AcDbEntity
  8
1
  6
CONTINUOUS
370
50
 62
4
100
AcDbLine
 10
42.670868
 20
-1.0
 30
0.0
 11
42.72913
 21
-1.0
 31
0.0
  0
LINE
  5
898
330
1F
100
AcDbEntity
  8
1
  6
CONTINUOUS
370
50
 62
4
100
AcDbLine
 10
44.870869
 20
-0.7545
 30
0.0
 11
44.929131
 21
-0.7545
 31
0.0
  0
LINE
  5
899
330
1F
100
AcDbEntity
  8
1
  6
CONTINUOUS
370
50
 62
4
100
AcDbLine
 10
42.470871
 20
-0.7545
 30
0.0
 11
42.529129
 21
-0.7545
 31
0.0
  0
LINE
  5
89A
330
1F
100
AcDbEntity
  8
1
  6
CONTINUOUS
370
50
 62
4
100
AcDbLine
 10
42.870869
 20
-0.7545
 30
0.0
 11
42.929131
 21
-0.7545
 31
0.0
  0
LINE
  5
89B
330
1F
100
AcDbEntity
  8
1
  6
CONTINUOUS
370
50
 62
4
100
AcDbLine
 10
43.27087
 20
-0.7545
 30
0.0
 11
43.329132
 21
-0.7545
 31
0.0
  0
LINE
  5
89C
330
1F
100
AcDbEntity
  8
1
  6
CONTINUOUS
370
50
 62
4
100
AcDbLine
 10
43.708229
 20
-0.7545
 30
0.0
 11
43.72913
 21
-0.7545
 31
0.0
  0
LINE
  5
89D
330
1F
100
AcDbEntity
  8
1
  6
CONTINUOUS
370
50
 62
4
100
AcDbLine
 10
44.07086899999999
 20
-0.7545
 30
0.0
 11
44.129131
 21
-0.7545
 31
0.0
  0
LINE
  5
89E
330
1F
100
AcDbEntity
  8
1
  6
CONTINUOUS
370
50
 62
4
100
AcDbLine
 10
44.470871
 20
-0.7545
 30
0.0
 11
44.529129
 21
-0.7545
 31
0.0
  0
LINE
  5
89F
330
1F
100
AcDbEntity
  8
1
  6
CONTINUOUS
370
50
 62
4
100
AcDbLine
 10
33.099998
 20
-0.7
 30
0.0
 11
42.126797
 21
-0.7
 31
0.0
  0
LINE
  5
8A0
330
1F
100
AcDbEntity
  8
1
  6
CONTINUOUS
370
50
 62
4
100
AcDbLine
 10
33.099998
 20
0.7
 30
0.0
 11
42.126797
 21
0.7
 31
0.0
  0
LINE
  5
8A1
330
1F
100
AcDbEntity
  8
1
  6
CONTINUOUS
370
50
 62
4
100
AcDbLine
 10
42.470871
 20
0.7545
 30
0.0
 11
42.529129
 21
0.7545
 31
0.0
  0
LINE
  5
8A2
330
1F
100
AcDbEntity
  8
1
  6
CONTINUOUS
370
50
 62
4
100
AcDbLine
 10
42.870869
 20
0.7545
 30
0.0
 11
42.929131
 21
0.7545
 31
0.0
  0
LINE
  5
8A3
330
1F
100
AcDbEntity
  8
1
  6
CONTINUOUS
370
50
 62
4
100
AcDbLine
 10
43.27087
 20
0.7545
 30
0.0
 11
43.329132
 21
0.7545
 31
0.0
  0
LINE
  5
8A4
330
1F
100
AcDbEntity
  8
1
  6
CONTINUOUS
370
50
 62
4
100
AcDbLine
 10
43.708229
 20
0.7545
 30
0.0
 11
43.72913
 21
0.7545
 31
0.0
  0
LINE
  5
8A5
330
1F
100
AcDbEntity
  8
1
  6
CONTINUOUS
370
50
 62
4
100
AcDbLine
 10
44.07086899999999
 20
0.7545
 30
0.0
 11
44.129131
 21
0.7545
 31
0.0
  0
LINE
  5
8A6
330
1F
100
AcDbEntity
  8
1
  6
CONTINUOUS
370
50
 62
4
100
AcDbLine
 10
44.470871
 20
0.7545
 30
0.0
 11
44.529129
 21
0.7545
 31
0.0
  0
LINE
  5
8A7
330
1F
100
AcDbEntity
  8
1
  6
CONTINUOUS
370
50
 62
4
100
AcDbLine
 10
44.870869
 20
0.7545
 30
0.0
 11
44.929131
 21
0.7545
 31
0.0
  0
LINE
  5
8A8
330
1F
100
AcDbEntity
  8
1
  6
CONTINUOUS
370
50
 62
4
100
AcDbLine
 10
42.670868
 20
1.0
 30
0.0
 11
42.72913
 21
1.0
 31
0.0
  0
LINE
  5
8A9
330
1F
100
AcDbEntity
  8
1
  6
CONTINUOUS
370
50
 62
4
100
AcDbLine
 10
43.07086899999999
 20
1.0
 30
0.0
 11
43.129131
 21
1.0
 31
0.0
  0
LINE
  5
8AA
330
1F
100
AcDbEntity
  8
1
  6
CONTINUOUS
370
50
 62
4
100
AcDbLine
 10
43.905487
 20
1.0
 30
0.0
 11
43.929131
 21
1.0
 31
0.0
  0
LINE
  5
8AB
330
1F
100
AcDbEntity
  8
1
  6
CONTINUOUS
370
50
 62
4
100
AcDbLine
 10
42.299999
 20
1.0
 30
0.0
 11
42.329132
 21
1.0
 31
0.0
  0
LINE
  5
8AC
330
1F
100
AcDbEntity
  8
1
  6
CONTINUOUS
370
50
 62
4
100
AcDbLine
 10
20.0
 20
1.4
 30
0.0
 11
28.0
 21
1.4
 31
0.0
  0
LINE
  5
8AD
330
1F
100
AcDbEntity
  8
1
  6
CONTINUOUS
370
50
 62
4
100
AcDbLine
 10
43.702892
 20
0.754483
 30
0.0
 11
43.708229
 21
0.7545
 31
0.0
  0
LINE
  5
8AE
330
1F
100
AcDbEntity
  8
1
  6
CONTINUOUS
370
50
 62
4
100
AcDbLine
 10
43.899715
 20
0.9999739999999999
 30
0.0
 11
43.905483
 21
1.0
 31
0.0
  0
LINE
  5
8AF
330
1F
100
AcDbEntity
  8
1
  6
CONTINUOUS
370
50
 62
4
100
AcDbLine
 10
43.697559
 20
0.754432
 30
0.0
 11
43.702892
 21
0.754483
 31
0.0
  0
LINE
  5
8B0
330
1F
100
AcDbEntity
  8
1
  6
CONTINUOUS
370
50
 62
4
100
AcDbLine
 10
43.893944
 20
0.999896
 30
0.0
 11
43.899715
 21
0.9999739999999999
 31
0.0
  0
LINE
  5
8B1
330
1F
100
AcDbEntity
  8
1
  6
CONTINUOUS
370
50
 62
4
100
AcDbLine
 10
43.692223
 20
0.754348
 30
0.0
 11
43.697559
 21
0.754432
 31
0.0
  0
LINE
  5
8B2
330
1F
100
AcDbEntity
  8
1
  6
CONTINUOUS
370
50
 62
4
100
AcDbLine
 10
43.686886
 20
0.75423
 30
0.0
 11
43.692223
 21
0.754348
 31
0.0
  0
LINE
  5
8B3
330
1F
100
AcDbEntity
  8
1
  6
CONTINUOUS
370
50
 62
4
100
AcDbLine
 10
43.888176
 20
0.9997659999999999
 30
0.0
 11
43.893944
 21
0.999896
 31
0.0
  0
LINE
  5
8B4
330
1F
100
AcDbEntity
  8
1
  6
CONTINUOUS
370
50
 62
4
100
AcDbLine
 10
44.050304
 20
0.512006
 30
0.0
 11
44.056168
 21
0.51215
 31
0.0
  0
LINE
  5
8B5
330
1F
100
AcDbEntity
  8
1
  6
CONTINUOUS
370
50
 62
4
100
AcDbLine
 10
43.681549
 20
0.754077
 30
0.0
 11
43.686886
 21
0.75423
 31
0.0
  0
LINE
  5
8B6
330
1F
100
AcDbEntity
  8
1
  6
CONTINUOUS
370
50
 62
4
100
AcDbLine
 10
43.882408
 20
0.999585
 30
0.0
 11
43.888176
 21
0.9997659999999999
 31
0.0
  0
LINE
  5
8B7
330
1F
100
AcDbEntity
  8
1
  6
CONTINUOUS
370
50
 62
4
100
AcDbLine
 10
43.676208
 20
0.753892
 30
0.0
 11
43.681549
 21
0.754077
 31
0.0
  0
LINE
  5
8B8
330
1F
100
AcDbEntity
  8
1
  6
CONTINUOUS
370
50
 62
4
100
AcDbLine
 10
43.876637
 20
0.999351
 30
0.0
 11
43.882408
 21
0.999585
 31
0.0
  0
LINE
  5
8B9
330
1F
100
AcDbEntity
  8
1
  6
CONTINUOUS
370
50
 62
4
100
AcDbLine
 10
42.954739
 20
-0.406233
 30
0.0
 11
42.960911
 21
-0.405979
 31
0.0
  0
LINE
  5
8BA
330
1F
100
AcDbEntity
  8
1
  6
CONTINUOUS
370
50
 62
4
100
AcDbLine
 10
43.670868
 20
0.753672
 30
0.0
 11
43.676208
 21
0.753892
 31
0.0
  0
LINE
  5
8BB
330
1F
100
AcDbEntity
  8
1
  6
CONTINUOUS
370
50
 62
4
100
AcDbLine
 10
43.870869
 20
0.999066
 30
0.0
 11
43.876637
 21
0.999351
 31
0.0
  0
LINE
  5
8BC
330
1F
100
AcDbEntity
  8
1
  6
CONTINUOUS
370
50
 62
4
100
AcDbLine
 10
42.601788
 20
-0.002664
 30
0.0
 11
42.608341
 21
-0.002292
 31
0.0
  0
LINE
  5
8BD
330
1F
100
AcDbEntity
  8
1
  6
CONTINUOUS
370
50
 62
4
100
AcDbLine
 10
44.41058
 20
0.142706
 30
0.0
 11
44.416084
 21
0.143074
 31
0.0
  0
LINE
  5
8BE
330
1F
100
AcDbEntity
  8
1
  6
CONTINUOUS
370
50
 62
4
100
AcDbLine
 10
28.0
 20
-1.4
 30
0.0
 11
33.099998
 21
-0.7
 31
0.0
  0
LINE
  5
8BF
330
1F
100
AcDbEntity
  8
1
  6
CONTINUOUS
370
50
 62
4
100
AcDbLine
 10
42.595257
 20
-0.003677
 30
0.0
 11
42.601788
 21
-0.002664
 31
0.0
  0
LINE
  5
8C0
330
1F
100
AcDbEntity
  8
1
  6
CONTINUOUS
370
50
 62
4
100
AcDbLine
 10
44.416084
 20
0.143074
 30
0.0
 11
44.421532
 21
0.143988
 31
0.0
  0
LINE
  5
8C1
330
1F
100
AcDbEntity
  8
1
  6
CONTINUOUS
370
50
 62
4
100
AcDbLine
 10
42.948864
 20
-0.407483
 30
0.0
 11
42.954739
 21
-0.406233
 31
0.0
  0
LINE
  5
8C2
330
1F
100
AcDbEntity
  8
1
  6
CONTINUOUS
370
50
 62
4
100
AcDbLine
 10
44.95018
 20
-0.79096
 30
0.0
 11
45.0
 21
-0.7799999999999999
 31
0.0
  0
LINE
  5
8C3
330
1F
100
AcDbEntity
  8
1
  6
CONTINUOUS
370
50
 62
4
100
AcDbLine
 10
44.240341
 20
-0.947125
 30
0.0
 11
44.377018
 21
-0.917056
 31
0.0
  0
LINE
  5
8C4
330
1F
100
AcDbEntity
  8
1
  6
CONTINUOUS
370
50
 62
4
100
AcDbLine
 10
44.595261
 20
-0.869043
 30
0.0
 11
44.835217
 21
-0.816252
 31
0.0
  0
LINE
  5
8C5
330
1F
100
AcDbEntity
  8
1
  6
CONTINUOUS
370
50
 62
4
100
AcDbLine
 10
44.056168
 20
0.51215
 30
0.0
 11
44.061562
 21
0.513377
 31
0.0
  0
LINE
  5
8C6
330
1F
100
AcDbEntity
  8
1
  6
CONTINUOUS
370
50
 62
4
100
AcDbLine
 10
42.588772
 20
-0.005362
 30
0.0
 11
42.595257
 21
-0.003677
 31
0.0
  0
LINE
  5
8C7
330
1F
100
AcDbEntity
  8
1
  6
CONTINUOUS
370
50
 62
4
100
AcDbLine
 10
44.421532
 20
0.143988
 30
0.0
 11
44.426884
 21
0.145464
 31
0.0
  0
LINE
  5
8C8
330
1F
100
AcDbEntity
  8
1
  6
CONTINUOUS
370
50
 62
4
100
AcDbLine
 10
42.329144
 20
-0.441852
 30
0.0
 11
42.336803
 21
-0.439479
 31
0.0
  0
LINE
  5
8C9
330
1F
100
AcDbEntity
  8
1
  6
CONTINUOUS
370
50
 62
4
100
AcDbLine
 10
42.582355
 20
-0.00775
 30
0.0
 11
42.588772
 21
-0.005362
 31
0.0
  0
LINE
  5
8CA
330
1F
100
AcDbEntity
  8
1
  6
CONTINUOUS
370
50
 62
4
100
AcDbLine
 10
42.336803
 20
-0.439479
 30
0.0
 11
42.344307
 21
-0.436682
 31
0.0
  0
LINE
  5
8CB
330
1F
100
AcDbEntity
  8
1
  6
CONTINUOUS
370
50
 62
4
100
AcDbLine
 10
43.470871
 20
-0.9527019999999999
 30
0.0
 11
43.479191
 21
-0.9494819999999999
 31
0.0
  0
LINE
  5
8CC
330
1F
100
AcDbEntity
  8
1
  6
CONTINUOUS
370
50
 62
4
100
AcDbLine
 10
44.426884
 20
0.145464
 30
0.0
 11
44.432117
 21
0.147513
 31
0.0
  0
LINE
  5
8CD
330
1F
100
AcDbEntity
  8
1
  6
CONTINUOUS
370
50
 62
4
100
AcDbLine
 10
43.479191
 20
-0.9494819999999999
 30
0.0
 11
43.487511
 21
-0.9461609999999999
 31
0.0
  0
LINE
  5
8CE
330
1F
100
AcDbEntity
  8
1
  6
CONTINUOUS
370
50
 62
4
100
AcDbLine
 10
42.94331
 20
-0.409747
 30
0.0
 11
42.948864
 21
-0.407483
 31
0.0
  0
LINE
  5
8CF
330
1F
100
AcDbEntity
  8
1
  6
CONTINUOUS
370
50
 62
4
100
AcDbLine
 10
43.487511
 20
-0.9461609999999999
 30
0.0
 11
43.495831
 21
-0.9427369999999999
 31
0.0
  0
LINE
  5
8D0
330
1F
100
AcDbEntity
  8
1
  6
CONTINUOUS
370
50
 62
4
100
AcDbLine
 10
43.495831
 20
-0.9427369999999999
 30
0.0
 11
43.504154
 21
-0.9392109999999999
 31
0.0
  0
LINE
  5
8D1
330
1F
100
AcDbEntity
  8
1
  6
CONTINUOUS
370
50
 62
4
100
AcDbLine
 10
43.504154
 20
-0.9392109999999999
 30
0.0
 11
43.512478
 21
-0.9355829999999999
 31
0.0
  0
LINE
  5
8D2
330
1F
100
AcDbEntity
  8
1
  6
CONTINUOUS
370
50
 62
4
100
AcDbLine
 10
42.344307
 20
-0.436682
 30
0.0
 11
42.351658
 21
-0.433478
 31
0.0
  0
LINE
  5
8D3
330
1F
100
AcDbEntity
  8
1
  6
CONTINUOUS
370
50
 62
4
100
AcDbLine
 10
43.512478
 20
-0.9355829999999999
 30
0.0
 11
43.520802
 21
-0.931854
 31
0.0
  0
LINE
  5
8D4
330
1F
100
AcDbEntity
  8
1
  6
CONTINUOUS
370
50
 62
4
100
AcDbLine
 10
43.520802
 20
-0.931854
 30
0.0
 11
43.529129
 21
-0.928024
 31
0.0
  0
LINE
  5
8D5
330
1F
100
AcDbEntity
  8
1
  6
CONTINUOUS
370
50
 62
4
100
AcDbLine
 10
44.061562
 20
0.513377
 30
0.0
 11
44.066463
 21
0.515654
 31
0.0
  0
LINE
  5
8D6
330
1F
100
AcDbEntity
  8
1
  6
CONTINUOUS
370
50
 62
4
100
AcDbLine
 10
42.576027
 20
-0.010871
 30
0.0
 11
42.582355
 21
-0.00775
 31
0.0
  0
LINE
  5
8D7
330
1F
100
AcDbEntity
  8
1
  6
CONTINUOUS
370
50
 62
4
100
AcDbLine
 10
42.351658
 20
-0.433478
 30
0.0
 11
42.358849
 21
-0.429881
 31
0.0
  0
LINE
  5
8D8
330
1F
100
AcDbEntity
  8
1
  6
CONTINUOUS
370
50
 62
4
100
AcDbLine
 10
44.432117
 20
0.147513
 30
0.0
 11
44.437225
 21
0.150151
 31
0.0
  0
LINE
  5
8D9
330
1F
100
AcDbEntity
  8
1
  6
CONTINUOUS
370
50
 62
4
100
AcDbLine
 10
42.358849
 20
-0.429881
 30
0.0
 11
42.365879
 21
-0.425907
 31
0.0
  0
LINE
  5
8DA
330
1F
100
AcDbEntity
  8
1
  6
CONTINUOUS
370
50
 62
4
100
AcDbLine
 10
42.569813
 20
-0.014755
 30
0.0
 11
42.576027
 21
-0.010871
 31
0.0
  0
LINE
  5
8DB
330
1F
100
AcDbEntity
  8
1
  6
CONTINUOUS
370
50
 62
4
100
AcDbLine
 10
42.365879
 20
-0.425907
 30
0.0
 11
42.372746
 21
-0.421571
 31
0.0
  0
LINE
  5
8DC
330
1F
100
AcDbEntity
  8
1
  6
CONTINUOUS
370
50
 62
4
100
AcDbLine
 10
42.93810999999999
 20
-0.413038
 30
0.0
 11
42.94331
 21
-0.409747
 31
0.0
  0
LINE
  5
8DD
330
1F
100
AcDbEntity
  8
1
  6
CONTINUOUS
370
50
 62
4
100
AcDbLine
 10
44.437225
 20
0.150151
 30
0.0
 11
44.44218799999999
 21
0.153389
 31
0.0
  0
LINE
  5
8DE
330
1F
100
AcDbEntity
  8
1
  6
CONTINUOUS
370
50
 62
4
100
AcDbLine
 10
42.372746
 20
-0.421571
 30
0.0
 11
42.379448
 21
-0.416889
 31
0.0
  0
LINE
  5
8DF
330
1F
100
AcDbEntity
  8
1
  6
CONTINUOUS
370
50
 62
4
100
AcDbLine
 10
44.066463
 20
0.515654
 30
0.0
 11
44.07086899999999
 21
0.518945
 31
0.0
  0
LINE
  5
8E0
330
1F
100
AcDbEntity
  8
1
  6
CONTINUOUS
370
50
 62
4
100
AcDbLine
 10
43.529217
 20
-0.891106
 30
0.0
 11
43.56443
 21
-0.8641409999999999
 31
0.0
  0
LINE
  5
8E1
330
1F
100
AcDbEntity
  8
1
  6
CONTINUOUS
370
50
 62
4
100
AcDbLine
 10
42.379448
 20
-0.416889
 30
0.0
 11
42.385998
 21
-0.411863
 31
0.0
  0
LINE
  5
8E2
330
1F
100
AcDbEntity
  8
1
  6
CONTINUOUS
370
50
 62
4
100
AcDbLine
 10
42.563759
 20
-0.019409
 30
0.0
 11
42.569813
 21
-0.014755
 31
0.0
  0
LINE
  5
8E3
330
1F
100
AcDbEntity
  8
1
  6
CONTINUOUS
370
50
 62
4
100
AcDbLine
 10
44.44218799999999
 20
0.153389
 30
0.0
 11
44.446991
 21
0.157243
 31
0.0
  0
LINE
  5
8E4
330
1F
100
AcDbEntity
  8
1
  6
CONTINUOUS
370
50
 62
4
100
AcDbLine
 10
42.385998
 20
-0.411863
 30
0.0
 11
42.392525
 21
-0.40639
 31
0.0
  0
LINE
  5
8E5
330
1F
100
AcDbEntity
  8
1
  6
CONTINUOUS
370
50
 62
4
100
AcDbLine
 10
43.56443
 20
-0.8641409999999999
 30
0.0
 11
43.59235
 21
-0.840378
 31
0.0
  0
LINE
  5
8E6
330
1F
100
AcDbEntity
  8
1
  6
CONTINUOUS
370
50
 62
4
100
AcDbLine
 10
42.933376
 20
-0.417289
 30
0.0
 11
42.93810999999999
 21
-0.413038
 31
0.0
  0
LINE
  5
8E7
330
1F
100
AcDbEntity
  8
1
  6
CONTINUOUS
370
50
 62
4
100
AcDbLine
 10
42.392525
 20
-0.40639
 30
0.0
 11
42.399036
 21
-0.400434
 31
0.0
  0
LINE
  5
8E8
330
1F
100
AcDbEntity
  8
1
  6
CONTINUOUS
370
50
 62
4
100
AcDbLine
 10
42.55793
 20
-0.024822
 30
0.0
 11
42.563759
 21
-0.019409
 31
0.0
  0
LINE
  5
8E9
330
1F
100
AcDbEntity
  8
1
  6
CONTINUOUS
370
50
 62
4
100
AcDbLine
 10
43.59235
 20
-0.840378
 30
0.0
 11
43.614323
 21
-0.819808
 31
0.0
  0
LINE
  5
8EA
330
1F
100
AcDbEntity
  8
1
  6
CONTINUOUS
370
50
 62
4
100
AcDbLine
 10
44.446991
 20
0.157243
 30
0.0
 11
44.451618
 21
0.161726
 31
0.0
  0
LINE
  5
8EB
330
1F
100
AcDbEntity
  8
1
  6
CONTINUOUS
370
50
 62
4
100
AcDbLine
 10
42.399036
 20
-0.400434
 30
0.0
 11
42.405514
 21
-0.393982
 31
0.0
  0
LINE
  5
8EC
330
1F
100
AcDbEntity
  8
1
  6
CONTINUOUS
370
50
 62
4
100
AcDbLine
 10
43.614323
 20
-0.819808
 30
0.0
 11
43.632549
 21
-0.801179
 31
0.0
  0
LINE
  5
8ED
330
1F
100
AcDbEntity
  8
1
  6
CONTINUOUS
370
50
 62
4
100
AcDbLine
 10
42.72913399999999
 20
-0.815109
 30
0.0
 11
42.736156
 21
-0.8078649999999999
 31
0.0
  0
LINE
  5
8EE
330
1F
100
AcDbEntity
  8
1
  6
CONTINUOUS
370
50
 62
4
100
AcDbLine
 10
42.736156
 20
-0.8078649999999999
 30
0.0
 11
42.743114
 21
-0.800368
 31
0.0
  0
LINE
  5
8EF
330
1F
100
AcDbEntity
  8
1
  6
CONTINUOUS
370
50
 62
4
100
AcDbLine
 10
42.405514
 20
-0.393982
 30
0.0
 11
42.411938
 21
-0.38702
 31
0.0
  0
LINE
  5
8F0
330
1F
100
AcDbEntity
  8
1
  6
CONTINUOUS
370
50
 62
4
100
AcDbLine
 10
42.287327
 20
0.399633
 30
0.0
 11
42.299999
 21
0.413639
 31
0.0
  0
LINE
  5
8F1
330
1F
100
AcDbEntity
  8
1
  6
CONTINUOUS
370
50
 62
4
100
AcDbLine
 10
42.552341
 20
-0.031003
 30
0.0
 11
42.55793
 21
-0.024822
 31
0.0
  0
LINE
  5
8F2
330
1F
100
AcDbEntity
  8
1
  6
CONTINUOUS
370
50
 62
4
100
AcDbLine
 10
43.632549
 20
-0.801179
 30
0.0
 11
43.647987
 21
-0.783847
 31
0.0
  0
LINE
  5
8F3
330
1F
100
AcDbEntity
  8
1
  6
CONTINUOUS
370
50
 62
4
100
AcDbLine
 10
42.743114
 20
-0.800368
 30
0.0
 11
42.750004
 21
-0.792628
 31
0.0
  0
LINE
  5
8F4
330
1F
100
AcDbEntity
  8
1
  6
CONTINUOUS
370
50
 62
4
100
AcDbLine
 10
43.450306
 20
0.929369
 30
0.0
 11
43.470871
 21
0.9527019999999999
 31
0.0
  0
LINE
  5
8F5
330
1F
100
AcDbEntity
  8
1
  6
CONTINUOUS
370
50
 62
4
100
AcDbLine
 10
44.451618
 20
0.161726
 30
0.0
 11
44.456024
 21
0.166807
 31
0.0
  0
LINE
  5
8F6
330
1F
100
AcDbEntity
  8
1
  6
CONTINUOUS
370
50
 62
4
100
AcDbLine
 10
42.750004
 20
-0.792628
 30
0.0
 11
42.75682399999999
 21
-0.784658
 31
0.0
  0
LINE
  5
8F7
330
1F
100
AcDbEntity
  8
1
  6
CONTINUOUS
370
50
 62
4
100
AcDbLine
 10
42.411938
 20
-0.38702
 30
0.0
 11
42.418285
 21
-0.379534
 31
0.0
  0
LINE
  5
8F8
330
1F
100
AcDbEntity
  8
1
  6
CONTINUOUS
370
50
 62
4
100
AcDbLine
 10
43.43053099999999
 20
0.905897
 30
0.0
 11
43.450306
 21
0.929369
 31
0.0
  0
LINE
  5
8F9
330
1F
100
AcDbEntity
  8
1
  6
CONTINUOUS
370
50
 62
4
100
AcDbLine
 10
42.929131
 20
-0.422432
 30
0.0
 11
42.933376
 21
-0.417289
 31
0.0
  0
LINE
  5
8FA
330
1F
100
AcDbEntity
  8
1
  6
CONTINUOUS
370
50
 62
4
100
AcDbLine
 10
42.75682399999999
 20
-0.784658
 30
0.0
 11
42.763569
 21
-0.776469
 31
0.0
  0
LINE
  5
8FB
330
1F
100
AcDbEntity
  8
1
  6
CONTINUOUS
370
50
 62
4
100
AcDbLine
 10
42.274853
 20
0.384347
 30
0.0
 11
42.287327
 21
0.399633
 31
0.0
  0
LINE
  5
8FC
330
1F
100
AcDbEntity
  8
1
  6
CONTINUOUS
370
50
 62
4
100
AcDbLine
 10
44.590069
 20
0.5095109999999999
 30
0.0
 11
44.595257
 21
0.515898
 31
0.0
  0
LINE
  5
8FD
330
1F
100
AcDbEntity
  8
1
  6
CONTINUOUS
370
50
 62
4
100
AcDbLine
 10
43.647987
 20
-0.783847
 30
0.0
 11
43.660725
 21
-0.767979
 31
0.0
  0
LINE
  5
8FE
330
1F
100
AcDbEntity
  8
1
  6
CONTINUOUS
370
50
 62
4
100
AcDbLine
 10
43.411648
 20
0.882161
 30
0.0
 11
43.43053099999999
 21
0.905897
 31
0.0
  0
LINE
  5
8FF
330
1F
100
AcDbEntity
  8
1
  6
CONTINUOUS
370
50
 62
4
100
AcDbLine
 10
42.763569
 20
-0.776469
 30
0.0
 11
42.770233
 21
-0.768072
 31
0.0
  0
LINE
  5
900
330
1F
100
AcDbEntity
  8
1
  6
CONTINUOUS
370
50
 62
4
100
AcDbLine
 10
42.418285
 20
-0.379534
 30
0.0
 11
42.424541
 21
-0.371513
 31
0.0
  0
LINE
  5
901
330
1F
100
AcDbEntity
  8
1
  6
CONTINUOUS
370
50
 62
4
100
AcDbLine
 10
44.584919
 20
0.502799
 30
0.0
 11
44.590069
 21
0.5095109999999999
 31
0.0
  0
LINE
  5
902
330
1F
100
AcDbEntity
  8
1
  6
CONTINUOUS
370
50
 62
4
100
AcDbLine
 10
42.770233
 20
-0.768072
 30
0.0
 11
42.776863
 21
-0.759415
 31
0.0
  0
LINE
  5
903
330
1F
100
AcDbEntity
  8
1
  6
CONTINUOUS
370
50
 62
4
100
AcDbLine
 10
42.547024
 20
-0.037962
 30
0.0
 11
42.552341
 21
-0.031003
 31
0.0
  0
LINE
  5
904
330
1F
100
AcDbEntity
  8
1
  6
CONTINUOUS
370
50
 62
4
100
AcDbLine
 10
43.39417299999999
 20
0.858776
 30
0.0
 11
43.411648
 21
0.882161
 31
0.0
  0
LINE
  5
905
330
1F
100
AcDbEntity
  8
1
  6
CONTINUOUS
370
50
 62
4
100
AcDbLine
 10
42.262642
 20
0.367868
 30
0.0
 11
42.274853
 21
0.384347
 31
0.0
  0
LINE
  5
906
330
1F
100
AcDbEntity
  8
1
  6
CONTINUOUS
370
50
 62
4
100
AcDbLine
 10
42.776863
 20
-0.759415
 30
0.0
 11
42.78352
 21
-0.750406
 31
0.0
  0
LINE
  5
907
330
1F
100
AcDbEntity
  8
1
  6
CONTINUOUS
370
50
 62
4
100
AcDbLine
 10
44.456024
 20
0.166807
 30
0.0
 11
44.460159
 21
0.172431
 31
0.0
  0
LINE
  5
908
330
1F
100
AcDbEntity
  8
1
  6
CONTINUOUS
370
50
 62
4
100
AcDbLine
 10
44.579819
 20
0.495759
 30
0.0
 11
44.584919
 21
0.502799
 31
0.0
  0
LINE
  5
909
330
1F
100
AcDbEntity
  8
1
  6
CONTINUOUS
370
50
 62
4
100
AcDbLine
 10
42.424541
 20
-0.371513
 30
0.0
 11
42.430679
 21
-0.362951
 31
0.0
  0
LINE
  5
90A
330
1F
100
AcDbEntity
  8
1
  6
CONTINUOUS
370
50
 62
4
100
AcDbLine
 10
42.78352
 20
-0.750406
 30
0.0
 11
42.790188
 21
-0.7410479999999999
 31
0.0
  0
LINE
  5
90B
330
1F
100
AcDbEntity
  8
1
  6
CONTINUOUS
370
50
 62
4
100
AcDbLine
 10
43.660725
 20
-0.767979
 30
0.0
 11
43.670868
 21
-0.753744
 31
0.0
  0
LINE
  5
90C
330
1F
100
AcDbEntity
  8
1
  6
CONTINUOUS
370
50
 62
4
100
AcDbLine
 10
44.83522
 20
-0.25443
 30
0.0
 11
44.839066
 21
-0.249019
 31
0.0
  0
LINE
  5
90D
330
1F
100
AcDbEntity
  8
1
  6
CONTINUOUS
370
50
 62
4
100
AcDbLine
 10
44.233521
 20
0.847228
 30
0.0
 11
44.240337
 21
0.856887
 31
0.0
  0
LINE
  5
90E
330
1F
100
AcDbEntity
  8
1
  6
CONTINUOUS
370
50
 62
4
100
AcDbLine
 10
43.37849
 20
0.836359
 30
0.0
 11
43.39417299999999
 21
0.858776
 31
0.0
  0
LINE
  5
90F
330
1F
100
AcDbEntity
  8
1
  6
CONTINUOUS
370
50
 62
4
100
AcDbLine
 10
44.226791
 20
0.837455
 30
0.0
 11
44.233521
 21
0.847228
 31
0.0
  0
LINE
  5
910
330
1F
100
AcDbEntity
  8
1
  6
CONTINUOUS
370
50
 62
4
100
AcDbLine
 10
42.790188
 20
-0.7410479999999999
 30
0.0
 11
42.796848
 21
-0.731347
 31
0.0
  0
LINE
  5
911
330
1F
100
AcDbEntity
  8
1
  6
CONTINUOUS
370
50
 62
4
100
AcDbLine
 10
44.57478
 20
0.488387
 30
0.0
 11
44.579819
 21
0.495759
 31
0.0
  0
LINE
  5
912
330
1F
100
AcDbEntity
  8
1
  6
CONTINUOUS
370
50
 62
4
100
AcDbLine
 10
42.250751
 20
0.35028
 30
0.0
 11
42.262642
 21
0.367868
 31
0.0
  0
LINE
  5
913
330
1F
100
AcDbEntity
  8
1
  6
CONTINUOUS
370
50
 62
4
100
AcDbLine
 10
44.220161
 20
0.827579
 30
0.0
 11
44.226791
 21
0.837455
 31
0.0
  0
LINE
  5
914
330
1F
100
AcDbEntity
  8
1
  6
CONTINUOUS
370
50
 62
4
100
AcDbLine
 10
42.796848
 20
-0.731347
 30
0.0
 11
42.803486
 21
-0.721309
 31
0.0
  0
LINE
  5
915
330
1F
100
AcDbEntity
  8
1
  6
CONTINUOUS
370
50
 62
4
100
AcDbLine
 10
44.839066
 20
-0.249019
 30
0.0
 11
44.842823
 21
-0.24333
 31
0.0
  0
LINE
  5
916
330
1F
100
AcDbEntity
  8
1
  6
CONTINUOUS
370
50
 62
4
100
AcDbLine
 10
42.430679
 20
-0.362951
 30
0.0
 11
42.436634
 21
-0.353893
 31
0.0
  0
LINE
  5
917
330
1F
100
AcDbEntity
  8
1
  6
CONTINUOUS
370
50
 62
4
100
AcDbLine
 10
44.213627
 20
0.817616
 30
0.0
 11
44.220161
 21
0.827579
 31
0.0
  0
LINE
  5
918
330
1F
100
AcDbEntity
  8
1
  6
CONTINUOUS
370
50
 62
4
100
AcDbLine
 10
43.364567
 20
0.8149919999999999
 30
0.0
 11
43.37849
 21
0.836359
 31
0.0
  0
LINE
  5
919
330
1F
100
AcDbEntity
  8
1
  6
CONTINUOUS
370
50
 62
4
100
AcDbLine
 10
42.541992
 20
-0.045708
 30
0.0
 11
42.547024
 21
-0.037962
 31
0.0
  0
LINE
  5
91A
330
1F
100
AcDbEntity
  8
1
  6
CONTINUOUS
370
50
 62
4
100
AcDbLine
 10
44.569813
 20
0.48068
 30
0.0
 11
44.57478
 21
0.488387
 31
0.0
  0
LINE
  5
91B
330
1F
100
AcDbEntity
  8
1
  6
CONTINUOUS
370
50
 62
4
100
AcDbLine
 10
44.207157
 20
0.807512
 30
0.0
 11
44.213627
 21
0.817616
 31
0.0
  0
LINE
  5
91C
330
1F
100
AcDbEntity
  8
1
  6
CONTINUOUS
370
50
 62
4
100
AcDbLine
 10
42.803486
 20
-0.721309
 30
0.0
 11
42.810081
 21
-0.710938
 31
0.0
  0
LINE
  5
91D
330
1F
100
AcDbEntity
  8
1
  6
CONTINUOUS
370
50
 62
4
100
AcDbLine
 10
44.460159
 20
0.172431
 30
0.0
 11
44.464012
 21
0.178584
 31
0.0
  0
LINE
  5
91E
330
1F
100
AcDbEntity
  8
1
  6
CONTINUOUS
370
50
 62
4
100
AcDbLine
 10
44.946701
 20
0.07055
 30
0.0
 11
44.95018
 21
0.076106
 31
0.0
  0
LINE
  5
91F
330
1F
100
AcDbEntity
  8
1
  6
CONTINUOUS
370
50
 62
4
100
AcDbLine
 10
44.200699
 20
0.797171
 30
0.0
 11
44.207157
 21
0.807512
 31
0.0
  0
LINE
  5
920
330
1F
100
AcDbEntity
  8
1
  6
CONTINUOUS
370
50
 62
4
100
AcDbLine
 10
42.23925
 20
0.33166
 30
0.0
 11
42.250751
 21
0.35028
 31
0.0
  0
LINE
  5
921
330
1F
100
AcDbEntity
  8
1
  6
CONTINUOUS
370
50
 62
4
100
AcDbLine
 10
44.842823
 20
-0.24333
 30
0.0
 11
44.846489
 21
-0.237362
 31
0.0
  0
LINE
  5
922
330
1F
100
AcDbEntity
  8
1
  6
CONTINUOUS
370
50
 62
4
100
AcDbLine
 10
42.810081
 20
-0.710938
 30
0.0
 11
42.81662
 21
-0.70024
 31
0.0
  0
LINE
  5
923
330
1F
100
AcDbEntity
  8
1
  6
CONTINUOUS
370
50
 62
4
100
AcDbLine
 10
43.129135
 20
-0.992877
 30
0.0
 11
43.136173
 21
-0.981328
 31
0.0
  0
LINE
  5
924
330
1F
100
AcDbEntity
  8
1
  6
CONTINUOUS
370
50
 62
4
100
AcDbLine
 10
44.194267
 20
0.786607
 30
0.0
 11
44.200699
 21
0.797171
 31
0.0
  0
LINE
  5
925
330
1F
100
AcDbEntity
  8
1
  6
CONTINUOUS
370
50
 62
4
100
AcDbLine
 10
44.56496
 20
0.472685
 30
0.0
 11
44.569813
 21
0.48068
 31
0.0
  0
LINE
  5
926
330
1F
100
AcDbEntity
  8
1
  6
CONTINUOUS
370
50
 62
4
100
AcDbLine
 10
43.136173
 20
-0.981328
 30
0.0
 11
43.14315
 21
-0.969799
 31
0.0
  0
LINE
  5
927
330
1F
100
AcDbEntity
  8
1
  6
CONTINUOUS
370
50
 62
4
100
AcDbLine
 10
43.352367
 20
0.794747
 30
0.0
 11
43.364567
 21
0.8149919999999999
 31
0.0
  0
LINE
  5
928
330
1F
100
AcDbEntity
  8
1
  6
CONTINUOUS
370
50
 62
4
100
AcDbLine
 10
42.436634
 20
-0.353893
 30
0.0
 11
42.442383
 21
-0.344339
 31
0.0
  0
LINE
  5
929
330
1F
100
AcDbEntity
  8
1
  6
CONTINUOUS
370
50
 62
4
100
AcDbLine
 10
43.14315
 20
-0.969799
 30
0.0
 11
43.150059
 21
-0.958302
 31
0.0
  0
LINE
  5
92A
330
1F
100
AcDbEntity
  8
1
  6
CONTINUOUS
370
50
 62
4
100
AcDbLine
 10
43.150059
 20
-0.958302
 30
0.0
 11
43.156898
 21
-0.9468519999999999
 31
0.0
  0
LINE
  5
92B
330
1F
100
AcDbEntity
  8
1
  6
CONTINUOUS
370
50
 62
4
100
AcDbLine
 10
43.156898
 20
-0.9468519999999999
 30
0.0
 11
43.163662
 21
-0.9354629999999999
 31
0.0
  0
LINE
  5
92C
330
1F
100
AcDbEntity
  8
1
  6
CONTINUOUS
370
50
 62
4
100
AcDbLine
 10
44.187881
 20
0.775832
 30
0.0
 11
44.194267
 21
0.786607
 31
0.0
  0
LINE
  5
92D
330
1F
100
AcDbEntity
  8
1
  6
CONTINUOUS
370
50
 62
4
100
AcDbLine
 10
43.75914
 20
0.8057949999999999
 30
0.0
 11
43.76744799999999
 21
0.819823
 31
0.0
  0
LINE
  5
92E
330
1F
100
AcDbEntity
  8
1
  6
CONTINUOUS
370
50
 62
4
100
AcDbLine
 10
43.751297
 20
0.792549
 30
0.0
 11
43.75914
 21
0.8057949999999999
 31
0.0
  0
LINE
  5
92F
330
1F
100
AcDbEntity
  8
1
  6
CONTINUOUS
370
50
 62
4
100
AcDbLine
 10
43.163662
 20
-0.9354629999999999
 30
0.0
 11
43.170345
 21
-0.924148
 31
0.0
  0
LINE
  5
930
330
1F
100
AcDbEntity
  8
1
  6
CONTINUOUS
370
50
 62
4
100
AcDbLine
 10
43.76744799999999
 20
0.819823
 30
0.0
 11
43.776142
 21
0.834545
 31
0.0
  0
LINE
  5
931
330
1F
100
AcDbEntity
  8
1
  6
CONTINUOUS
370
50
 62
4
100
AcDbLine
 10
43.743984
 20
0.78013
 30
0.0
 11
43.751297
 21
0.792549
 31
0.0
  0
LINE
  5
932
330
1F
100
AcDbEntity
  8
1
  6
CONTINUOUS
370
50
 62
4
100
AcDbLine
 10
43.170345
 20
-0.924148
 30
0.0
 11
43.176979
 21
-0.9128689999999999
 31
0.0
  0
LINE
  5
933
330
1F
100
AcDbEntity
  8
1
  6
CONTINUOUS
370
50
 62
4
100
AcDbLine
 10
43.776142
 20
0.834545
 30
0.0
 11
43.785061
 21
0.849714
 31
0.0
  0
LINE
  5
934
330
1F
100
AcDbEntity
  8
1
  6
CONTINUOUS
370
50
 62
4
100
AcDbLine
 10
42.81662
 20
-0.70024
 30
0.0
 11
42.823063
 21
-0.689245
 31
0.0
  0
LINE
  5
935
330
1F
100
AcDbEntity
  8
1
  6
CONTINUOUS
370
50
 62
4
100
AcDbLine
 10
43.176979
 20
-0.9128689999999999
 30
0.0
 11
43.183632
 21
-0.9014949999999999
 31
0.0
  0
LINE
  5
936
330
1F
100
AcDbEntity
  8
1
  6
CONTINUOUS
370
50
 62
4
100
AcDbLine
 10
43.785061
 20
0.849714
 30
0.0
 11
43.794128
 21
0.865215
 31
0.0
  0
LINE
  5
937
330
1F
100
AcDbEntity
  8
1
  6
CONTINUOUS
370
50
 62
4
100
AcDbLine
 10
43.794128
 20
0.865215
 30
0.0
 11
43.803291
 21
0.88095
 31
0.0
  0
LINE
  5
938
330
1F
100
AcDbEntity
  8
1
  6
CONTINUOUS
370
50
 62
4
100
AcDbLine
 10
43.737278
 20
0.768614
 30
0.0
 11
43.743984
 21
0.78013
 31
0.0
  0
LINE
  5
939
330
1F
100
AcDbEntity
  8
1
  6
CONTINUOUS
370
50
 62
4
100
AcDbLine
 10
43.183632
 20
-0.9014949999999999
 30
0.0
 11
43.1903
 21
-0.890042
 31
0.0
  0
LINE
  5
93A
330
1F
100
AcDbEntity
  8
1
  6
CONTINUOUS
370
50
 62
4
100
AcDbLine
 10
43.1903
 20
-0.890042
 30
0.0
 11
43.196964
 21
-0.878535
 31
0.0
  0
LINE
  5
93B
330
1F
100
AcDbEntity
  8
1
  6
CONTINUOUS
370
50
 62
4
100
AcDbLine
 10
43.803291
 20
0.88095
 30
0.0
 11
43.812481
 21
0.896821
 31
0.0
  0
LINE
  5
93C
330
1F
100
AcDbEntity
  8
1
  6
CONTINUOUS
370
50
 62
4
100
AcDbLine
 10
44.377018
 20
-0.917056
 30
0.0
 11
44.470871
 21
-0.7545
 31
0.0
  0
LINE
  5
93D
330
1F
100
AcDbEntity
  8
1
  6
CONTINUOUS
370
50
 62
4
100
AcDbLine
 10
44.529129
 20
0.7545
 30
0.0
 11
44.595261
 21
0.869043
 31
0.0
  0
LINE
  5
93E
330
1F
100
AcDbEntity
  8
1
  6
CONTINUOUS
370
50
 62
4
100
AcDbLine
 10
42.329132
 20
-1.0
 30
0.0
 11
42.470871
 21
-0.7545
 31
0.0
  0
LINE
  5
93F
330
1F
100
AcDbEntity
  8
1
  6
CONTINUOUS
370
50
 62
4
100
AcDbLine
 10
42.72913
 20
-1.0
 30
0.0
 11
42.870869
 21
-0.7545
 31
0.0
  0
LINE
  5
940
330
1F
100
AcDbEntity
  8
1
  6
CONTINUOUS
370
50
 62
4
100
AcDbLine
 10
43.129131
 20
-1.0
 30
0.0
 11
43.27087
 21
-0.7545
 31
0.0
  0
LINE
  5
941
330
1F
100
AcDbEntity
  8
1
  6
CONTINUOUS
370
50
 62
4
100
AcDbLine
 10
42.529129
 20
0.7545
 30
0.0
 11
42.670868
 21
1.0
 31
0.0
  0
LINE
  5
942
330
1F
100
AcDbEntity
  8
1
  6
CONTINUOUS
370
50
 62
4
100
AcDbLine
 10
43.929131
 20
-1.0
 30
0.0
 11
44.07086899999999
 21
-0.7545
 31
0.0
  0
LINE
  5
943
330
1F
100
AcDbEntity
  8
1
  6
CONTINUOUS
370
50
 62
4
100
AcDbLine
 10
42.929131
 20
0.7545
 30
0.0
 11
43.07086899999999
 21
1.0
 31
0.0
  0
LINE
  5
944
330
1F
100
AcDbEntity
  8
1
  6
CONTINUOUS
370
50
 62
4
100
AcDbLine
 10
44.835217
 20
-0.816252
 30
0.0
 11
44.870869
 21
-0.7545
 31
0.0
  0
LINE
  5
945
330
1F
100
AcDbEntity
  8
1
  6
CONTINUOUS
370
50
 62
4
100
AcDbLine
 10
42.126797
 20
0.7
 30
0.0
 11
42.299999
 21
1.0
 31
0.0
  0
LINE
  5
946
330
1F
100
AcDbEntity
  8
1
  6
CONTINUOUS
370
50
 62
4
100
AcDbLine
 10
44.129131
 20
0.7545
 30
0.0
 11
44.240341
 21
0.947125
 31
0.0
  0
LINE
  5
947
330
1F
100
AcDbEntity
  8
1
  6
CONTINUOUS
370
50
 62
4
100
AcDbLine
 10
44.929131
 20
0.7545
 30
0.0
 11
44.95018
 21
0.79096
 31
0.0
  0
LINE
  5
948
330
1F
100
AcDbEntity
  8
1
  6
CONTINUOUS
370
50
 62
4
100
AcDbLine
 10
43.329132
 20
0.7545
 30
0.0
 11
43.352367
 21
0.794747
 31
0.0
  0
LINE
  5
949
330
1F
100
AcDbEntity
  8
1
  6
CONTINUOUS
370
50
 62
4
100
AcDbLine
 10
43.72913
 20
0.7545
 30
0.0
 11
43.737278
 21
0.768614
 31
0.0
  0
LINE
  5
94A
330
1F
100
AcDbEntity
  8
1
  6
CONTINUOUS
370
50
 62
4
100
AcDbLine
 10
43.736012
 20
0.766416
 30
0.0
 11
43.737278
 21
0.768614
 31
0.0
  0
LINE
  5
94B
330
1F
100
AcDbEntity
  8
1
  6
CONTINUOUS
370
50
 62
4
100
AcDbLine
 10
43.812481
 20
0.896821
 30
0.0
 11
43.821766
 21
0.912944
 31
0.0
  0
LINE
  5
94C
330
1F
100
AcDbEntity
  8
1
  6
CONTINUOUS
370
50
 62
4
100
AcDbLine
 10
44.18156399999999
 20
0.764861
 30
0.0
 11
44.187881
 21
0.775832
 31
0.0
  0
LINE
  5
94D
330
1F
100
AcDbEntity
  8
1
  6
CONTINUOUS
370
50
 62
4
100
AcDbLine
 10
43.196964
 20
-0.878535
 30
0.0
 11
43.203602
 21
-0.8670019999999999
 31
0.0
  0
LINE
  5
94E
330
1F
100
AcDbEntity
  8
1
  6
CONTINUOUS
370
50
 62
4
100
AcDbLine
 10
43.558876
 20
-0.874085
 30
0.0
 11
43.564663
 21
-0.86401
 31
0.0
  0
LINE
  5
94F
330
1F
100
AcDbEntity
  8
1
  6
CONTINUOUS
370
50
 62
4
100
AcDbLine
 10
43.734779
 20
0.7642669999999999
 30
0.0
 11
43.736012
 21
0.766416
 31
0.0
  0
LINE
  5
950
330
1F
100
AcDbEntity
  8
1
  6
CONTINUOUS
370
50
 62
4
100
AcDbLine
 10
43.821766
 20
0.912944
 30
0.0
 11
43.831249
 21
0.929488
 31
0.0
  0
LINE
  5
951
330
1F
100
AcDbEntity
  8
1
  6
CONTINUOUS
370
50
 62
4
100
AcDbLine
 10
43.203602
 20
-0.8670019999999999
 30
0.0
 11
43.210201
 21
-0.855468
 31
0.0
  0
LINE
  5
952
330
1F
100
AcDbEntity
  8
1
  6
CONTINUOUS
370
50
 62
4
100
AcDbLine
 10
43.831249
 20
0.929488
 30
0.0
 11
43.840919
 21
0.9464119999999999
 31
0.0
  0
LINE
  5
953
330
1F
100
AcDbEntity
  8
1
  6
CONTINUOUS
370
50
 62
4
100
AcDbLine
 10
44.943375
 20
0.064725
 30
0.0
 11
44.946701
 21
0.07055
 31
0.0
  0
LINE
  5
954
330
1F
100
AcDbEntity
  8
1
  6
CONTINUOUS
370
50
 62
4
100
AcDbLine
 10
44.560246
 20
0.464424
 30
0.0
 11
44.56496
 21
0.472685
 31
0.0
  0
LINE
  5
955
330
1F
100
AcDbEntity
  8
1
  6
CONTINUOUS
370
50
 62
4
100
AcDbLine
 10
44.846489
 20
-0.237362
 30
0.0
 11
44.850052
 21
-0.231112
 31
0.0
  0
LINE
  5
956
330
1F
100
AcDbEntity
  8
1
  6
CONTINUOUS
370
50
 62
4
100
AcDbLine
 10
43.733582
 20
0.7621669999999999
 30
0.0
 11
43.734779
 21
0.7642669999999999
 31
0.0
  0
LINE
  5
957
330
1F
100
AcDbEntity
  8
1
  6
CONTINUOUS
370
50
 62
4
100
AcDbLine
 10
43.840919
 20
0.9464119999999999
 30
0.0
 11
43.85075399999999
 21
0.963676
 31
0.0
  0
LINE
  5
958
330
1F
100
AcDbEntity
  8
1
  6
CONTINUOUS
370
50
 62
4
100
AcDbLine
 10
43.85075399999999
 20
0.963676
 30
0.0
 11
43.860744
 21
0.9812409999999999
 31
0.0
  0
LINE
  5
959
330
1F
100
AcDbEntity
  8
1
  6
CONTINUOUS
370
50
 62
4
100
AcDbLine
 10
43.210201
 20
-0.855468
 30
0.0
 11
43.21674
 21
-0.843958
 31
0.0
  0
LINE
  5
95A
330
1F
100
AcDbEntity
  8
1
  6
CONTINUOUS
370
50
 62
4
100
AcDbLine
 10
43.860744
 20
0.9812409999999999
 30
0.0
 11
43.870869
 21
0.999066
 31
0.0
  0
LINE
  5
95B
330
1F
100
AcDbEntity
  8
1
  6
CONTINUOUS
370
50
 62
4
100
AcDbLine
 10
43.732418
 20
0.760114
 30
0.0
 11
43.733582
 21
0.7621669999999999
 31
0.0
  0
LINE
  5
95C
330
1F
100
AcDbEntity
  8
1
  6
CONTINUOUS
370
50
 62
4
100
AcDbLine
 10
43.553028
 20
-0.884408
 30
0.0
 11
43.558876
 21
-0.874085
 31
0.0
  0
LINE
  5
95D
330
1F
100
AcDbEntity
  8
1
  6
CONTINUOUS
370
50
 62
4
100
AcDbLine
 10
42.228191
 20
0.312064
 30
0.0
 11
42.23925
 21
0.33166
 31
0.0
  0
LINE
  5
95E
330
1F
100
AcDbEntity
  8
1
  6
CONTINUOUS
370
50
 62
4
100
AcDbLine
 10
43.21674
 20
-0.843958
 30
0.0
 11
43.22319
 21
-0.832522
 31
0.0
  0
LINE
  5
95F
330
1F
100
AcDbEntity
  8
1
  6
CONTINUOUS
370
50
 62
4
100
AcDbLine
 10
43.731289
 20
0.7581089999999999
 30
0.0
 11
43.732418
 21
0.760114
 31
0.0
  0
LINE
  5
960
330
1F
100
AcDbEntity
  8
1
  6
CONTINUOUS
370
50
 62
4
100
AcDbLine
 10
42.823063
 20
-0.689245
 30
0.0
 11
42.829369
 21
-0.678012
 31
0.0
  0
LINE
  5
961
330
1F
100
AcDbEntity
  8
1
  6
CONTINUOUS
370
50
 62
4
100
AcDbLine
 10
43.730194
 20
0.756151
 30
0.0
 11
43.731289
 21
0.7581089999999999
 31
0.0
  0
LINE
  5
962
330
1F
100
AcDbEntity
  8
1
  6
CONTINUOUS
370
50
 62
4
100
AcDbLine
 10
43.22319
 20
-0.832522
 30
0.0
 11
43.229492
 21
-0.821245
 31
0.0
  0
LINE
  5
963
330
1F
100
AcDbEntity
  8
1
  6
CONTINUOUS
370
50
 62
4
100
AcDbLine
 10
44.175335
 20
0.753707
 30
0.0
 11
44.18156399999999
 21
0.764861
 31
0.0
  0
LINE
  5
964
330
1F
100
AcDbEntity
  8
1
  6
CONTINUOUS
370
50
 62
4
100
AcDbLine
 10
43.547131
 20
-0.894972
 30
0.0
 11
43.553028
 21
-0.884408
 31
0.0
  0
LINE
  5
965
330
1F
100
AcDbEntity
  8
1
  6
CONTINUOUS
370
50
 62
4
100
AcDbLine
 10
43.72913
 20
0.7542399999999999
 30
0.0
 11
43.730194
 21
0.756151
 31
0.0
  0
LINE
  5
966
330
1F
100
AcDbEntity
  8
1
  6
CONTINUOUS
370
50
 62
4
100
AcDbLine
 10
43.229492
 20
-0.821245
 30
0.0
 11
43.235626
 21
-0.8101539999999999
 31
0.0
  0
LINE
  5
967
330
1F
100
AcDbEntity
  8
1
  6
CONTINUOUS
370
50
 62
4
100
AcDbLine
 10
42.537285
 20
-0.054225
 30
0.0
 11
42.541992
 21
-0.045708
 31
0.0
  0
LINE
  5
968
330
1F
100
AcDbEntity
  8
1
  6
CONTINUOUS
370
50
 62
4
100
AcDbLine
 10
43.54118
 20
-0.9057679999999999
 30
0.0
 11
43.547131
 21
-0.894972
 31
0.0
  0
LINE
  5
969
330
1F
100
AcDbEntity
  8
1
  6
CONTINUOUS
370
50
 62
4
100
AcDbLine
 10
42.442383
 20
-0.344339
 30
0.0
 11
42.447899
 21
-0.334284
 31
0.0
  0
LINE
  5
96A
330
1F
100
AcDbEntity
  8
1
  6
CONTINUOUS
370
50
 62
4
100
AcDbLine
 10
43.235626
 20
-0.8101539999999999
 30
0.0
 11
43.241558
 21
-0.799271
 31
0.0
  0
LINE
  5
96B
330
1F
100
AcDbEntity
  8
1
  6
CONTINUOUS
370
50
 62
4
100
AcDbLine
 10
43.535179
 20
-0.916789
 30
0.0
 11
43.54118
 21
-0.9057679999999999
 31
0.0
  0
LINE
  5
96C
330
1F
100
AcDbEntity
  8
1
  6
CONTINUOUS
370
50
 62
4
100
AcDbLine
 10
44.16921199999999
 20
0.7423879999999999
 30
0.0
 11
44.175335
 21
0.753707
 31
0.0
  0
LINE
  5
96D
330
1F
100
AcDbEntity
  8
1
  6
CONTINUOUS
370
50
 62
4
100
AcDbLine
 10
43.529137
 20
-0.9280269999999999
 30
0.0
 11
43.535179
 21
-0.916789
 31
0.0
  0
LINE
  5
96E
330
1F
100
AcDbEntity
  8
1
  6
CONTINUOUS
370
50
 62
4
100
AcDbLine
 10
43.241558
 20
-0.799271
 30
0.0
 11
43.247272
 21
-0.788619
 31
0.0
  0
LINE
  5
96F
330
1F
100
AcDbEntity
  8
1
  6
CONTINUOUS
370
50
 62
4
100
AcDbLine
 10
44.464012
 20
0.178584
 30
0.0
 11
44.467583
 21
0.185253
 31
0.0
  0
LINE
  5
970
330
1F
100
AcDbEntity
  8
1
  6
CONTINUOUS
370
50
 62
4
100
AcDbLine
 10
42.829369
 20
-0.678012
 30
0.0
 11
42.835503
 21
-0.666555
 31
0.0
  0
LINE
  5
971
330
1F
100
AcDbEntity
  8
1
  6
CONTINUOUS
370
50
 62
4
100
AcDbLine
 10
44.55568299999999
 20
0.455898
 30
0.0
 11
44.560246
 21
0.464424
 31
0.0
  0
LINE
  5
972
330
1F
100
AcDbEntity
  8
1
  6
CONTINUOUS
370
50
 62
4
100
AcDbLine
 10
44.850052
 20
-0.231112
 30
0.0
 11
44.853504
 21
-0.224585
 31
0.0
  0
LINE
  5
973
330
1F
100
AcDbEntity
  8
1
  6
CONTINUOUS
370
50
 62
4
100
AcDbLine
 10
43.247272
 20
-0.788619
 30
0.0
 11
43.252739
 21
-0.778225
 31
0.0
  0
LINE
  5
974
330
1F
100
AcDbEntity
  8
1
  6
CONTINUOUS
370
50
 62
4
100
AcDbLine
 10
44.163265
 20
0.731005
 30
0.0
 11
44.16921199999999
 21
0.7423879999999999
 31
0.0
  0
LINE
  5
975
330
1F
100
AcDbEntity
  8
1
  6
CONTINUOUS
370
50
 62
4
100
AcDbLine
 10
44.94020099999999
 20
0.058637
 30
0.0
 11
44.943375
 21
0.064725
 31
0.0
  0
LINE
  5
976
330
1F
100
AcDbEntity
  8
1
  6
CONTINUOUS
370
50
 62
4
100
AcDbLine
 10
42.21764
 20
0.291552
 30
0.0
 11
42.228191
 21
0.312064
 31
0.0
  0
LINE
  5
977
330
1F
100
AcDbEntity
  8
1
  6
CONTINUOUS
370
50
 62
4
100
AcDbLine
 10
43.252739
 20
-0.778225
 30
0.0
 11
43.257862
 21
-0.7682399999999999
 31
0.0
  0
LINE
  5
978
330
1F
100
AcDbEntity
  8
1
  6
CONTINUOUS
370
50
 62
4
100
AcDbLine
 10
42.835503
 20
-0.666555
 30
0.0
 11
42.841442
 21
-0.6548809999999999
 31
0.0
  0
LINE
  5
979
330
1F
100
AcDbEntity
  8
1
  6
CONTINUOUS
370
50
 62
4
100
AcDbLine
 10
44.157532
 20
0.7196
 30
0.0
 11
44.163265
 21
0.731005
 31
0.0
  0
LINE
  5
97A
330
1F
100
AcDbEntity
  8
1
  6
CONTINUOUS
370
50
 62
4
100
AcDbLine
 10
44.551277
 20
0.447108
 30
0.0
 11
44.55568299999999
 21
0.455898
 31
0.0
  0
LINE
  5
97B
330
1F
100
AcDbEntity
  8
1
  6
CONTINUOUS
370
50
 62
4
100
AcDbLine
 10
42.447899
 20
-0.334284
 30
0.0
 11
42.453163
 21
-0.323723
 31
0.0
  0
LINE
  5
97C
330
1F
100
AcDbEntity
  8
1
  6
CONTINUOUS
370
50
 62
4
100
AcDbLine
 10
43.257862
 20
-0.7682399999999999
 30
0.0
 11
43.26259599999999
 21
-0.7587269999999999
 31
0.0
  0
LINE
  5
97D
330
1F
100
AcDbEntity
  8
1
  6
CONTINUOUS
370
50
 62
4
100
AcDbLine
 10
44.853504
 20
-0.224585
 30
0.0
 11
44.856804
 21
-0.21785
 31
0.0
  0
LINE
  5
97E
330
1F
100
AcDbEntity
  8
1
  6
CONTINUOUS
370
50
 62
4
100
AcDbLine
 10
42.841442
 20
-0.6548809999999999
 30
0.0
 11
42.847164
 21
-0.643002
 31
0.0
  0
LINE
  5
97F
330
1F
100
AcDbEntity
  8
1
  6
CONTINUOUS
370
50
 62
4
100
AcDbLine
 10
44.152035
 20
0.708186
 30
0.0
 11
44.157532
 21
0.7196
 31
0.0
  0
LINE
  5
980
330
1F
100
AcDbEntity
  8
1
  6
CONTINUOUS
370
50
 62
4
100
AcDbLine
 10
43.26259599999999
 20
-0.7587269999999999
 30
0.0
 11
43.26693299999999
 21
-0.749675
 31
0.0
  0
LINE
  5
981
330
1F
100
AcDbEntity
  8
1
  6
CONTINUOUS
370
50
 62
4
100
AcDbLine
 10
44.937191
 20
0.052288
 30
0.0
 11
44.94020099999999
 21
0.058637
 31
0.0
  0
LINE
  5
982
330
1F
100
AcDbEntity
  8
1
  6
CONTINUOUS
370
50
 62
4
100
AcDbLine
 10
42.532993
 20
-0.063359
 30
0.0
 11
42.537285
 21
-0.054225
 31
0.0
  0
LINE
  5
983
330
1F
100
AcDbEntity
  8
1
  6
CONTINUOUS
370
50
 62
4
100
AcDbLine
 10
44.547043
 20
0.438055
 30
0.0
 11
44.551277
 21
0.447108
 31
0.0
  0
LINE
  5
984
330
1F
100
AcDbEntity
  8
1
  6
CONTINUOUS
370
50
 62
4
100
AcDbLine
 10
42.207653
 20
0.270181
 30
0.0
 11
42.21764
 21
0.291552
 31
0.0
  0
LINE
  5
985
330
1F
100
AcDbEntity
  8
1
  6
CONTINUOUS
370
50
 62
4
100
AcDbLine
 10
44.146797
 20
0.696772
 30
0.0
 11
44.152035
 21
0.708186
 31
0.0
  0
LINE
  5
986
330
1F
100
AcDbEntity
  8
1
  6
CONTINUOUS
370
50
 62
4
100
AcDbLine
 10
44.467583
 20
0.185253
 30
0.0
 11
44.470871
 21
0.192425
 31
0.0
  0
LINE
  5
987
330
1F
100
AcDbEntity
  8
1
  6
CONTINUOUS
370
50
 62
4
100
AcDbLine
 10
43.26693299999999
 20
-0.749675
 30
0.0
 11
43.27087
 21
-0.741069
 31
0.0
  0
LINE
  5
988
330
1F
100
AcDbEntity
  8
1
  6
CONTINUOUS
370
50
 62
4
100
AcDbLine
 10
42.847164
 20
-0.643002
 30
0.0
 11
42.852646
 21
-0.6309319999999999
 31
0.0
  0
LINE
  5
989
330
1F
100
AcDbEntity
  8
1
  6
CONTINUOUS
370
50
 62
4
100
AcDbLine
 10
44.856804
 20
-0.21785
 30
0.0
 11
44.859947
 21
-0.210923
 31
0.0
  0
LINE
  5
98A
330
1F
100
AcDbEntity
  8
1
  6
CONTINUOUS
370
50
 62
4
100
AcDbLine
 10
42.453163
 20
-0.323723
 30
0.0
 11
42.458153
 21
-0.31265
 31
0.0
  0
LINE
  5
98B
330
1F
100
AcDbEntity
  8
1
  6
CONTINUOUS
370
50
 62
4
100
AcDbLine
 10
44.542992
 20
0.428742
 30
0.0
 11
44.547043
 21
0.438055
 31
0.0
  0
LINE
  5
98C
330
1F
100
AcDbEntity
  8
1
  6
CONTINUOUS
370
50
 62
4
100
AcDbLine
 10
44.141838
 20
0.685369
 30
0.0
 11
44.146797
 21
0.696772
 31
0.0
  0
LINE
  5
98D
330
1F
100
AcDbEntity
  8
1
  6
CONTINUOUS
370
50
 62
4
100
AcDbLine
 10
44.934338
 20
0.045682
 30
0.0
 11
44.937191
 21
0.052288
 31
0.0
  0
LINE
  5
98E
330
1F
100
AcDbEntity
  8
1
  6
CONTINUOUS
370
50
 62
4
100
AcDbLine
 10
42.852646
 20
-0.6309319999999999
 30
0.0
 11
42.857784
 21
-0.618842
 31
0.0
  0
LINE
  5
98F
330
1F
100
AcDbEntity
  8
1
  6
CONTINUOUS
370
50
 62
4
100
AcDbLine
 10
42.198315
 20
0.248038
 30
0.0
 11
42.207653
 21
0.270181
 31
0.0
  0
LINE
  5
990
330
1F
100
AcDbEntity
  8
1
  6
CONTINUOUS
370
50
 62
4
100
AcDbLine
 10
44.859947
 20
-0.210923
 30
0.0
 11
44.86292299999999
 21
-0.203808
 31
0.0
  0
LINE
  5
991
330
1F
100
AcDbEntity
  8
1
  6
CONTINUOUS
370
50
 62
4
100
AcDbLine
 10
44.137196
 20
0.6740389999999999
 30
0.0
 11
44.141838
 21
0.685369
 31
0.0
  0
LINE
  5
992
330
1F
100
AcDbEntity
  8
1
  6
CONTINUOUS
370
50
 62
4
100
AcDbLine
 10
42.458153
 20
-0.31265
 30
0.0
 11
42.462799
 21
-0.301162
 31
0.0
  0
LINE
  5
993
330
1F
100
AcDbEntity
  8
1
  6
CONTINUOUS
370
50
 62
4
100
AcDbLine
 10
44.53913499999999
 20
0.419176
 30
0.0
 11
44.542992
 21
0.428742
 31
0.0
  0
LINE
  5
994
330
1F
100
AcDbEntity
  8
1
  6
CONTINUOUS
370
50
 62
4
100
AcDbLine
 10
44.999382
 20
0.009544
 30
0.0
 11
45.0
 21
0.011091
 31
0.0
  0
LINE
  5
995
330
1F
100
AcDbEntity
  8
1
  6
CONTINUOUS
370
50
 62
4
100
AcDbLine
 10
42.529129
 20
-0.073058
 30
0.0
 11
42.532993
 21
-0.063359
 31
0.0
  0
LINE
  5
996
330
1F
100
AcDbEntity
  8
1
  6
CONTINUOUS
370
50
 62
4
100
AcDbLine
 10
44.999386
 20
0.009553
 30
0.0
 11
44.999996
 21
0.011091
 31
0.0
  0
LINE
  5
997
330
1F
100
AcDbEntity
  8
1
  6
CONTINUOUS
370
50
 62
4
100
AcDbLine
 10
42.857784
 20
-0.618842
 30
0.0
 11
42.862541
 21
-0.606815
 31
0.0
  0
LINE
  5
998
330
1F
100
AcDbEntity
  8
1
  6
CONTINUOUS
370
50
 62
4
100
AcDbLine
 10
44.931652
 20
0.038824
 30
0.0
 11
44.934338
 21
0.045682
 31
0.0
  0
LINE
  5
999
330
1F
100
AcDbEntity
  8
1
  6
CONTINUOUS
370
50
 62
4
100
AcDbLine
 10
44.998779
 20
0.008
 30
0.0
 11
44.999386
 21
0.009553
 31
0.0
  0
LINE
  5
99A
330
1F
100
AcDbEntity
  8
1
  6
CONTINUOUS
370
50
 62
4
100
AcDbLine
 10
44.99877499999999
 20
0.007985
 30
0.0
 11
44.999382
 21
0.009544
 31
0.0
  0
LINE
  5
99B
330
1F
100
AcDbEntity
  8
1
  6
CONTINUOUS
370
50
 62
4
100
AcDbLine
 10
44.86292299999999
 20
-0.203808
 30
0.0
 11
44.865738
 21
-0.196509
 31
0.0
  0
LINE
  5
99C
330
1F
100
AcDbEntity
  8
1
  6
CONTINUOUS
370
50
 62
4
100
AcDbLine
 10
44.132957
 20
0.6629579999999999
 30
0.0
 11
44.137196
 21
0.6740389999999999
 31
0.0
  0
LINE
  5
99D
330
1F
100
AcDbEntity
  8
1
  6
CONTINUOUS
370
50
 62
4
100
AcDbLine
 10
44.99818
 20
0.00643
 30
0.0
 11
44.998779
 21
0.008
 31
0.0
  0
LINE
  5
99E
330
1F
100
AcDbEntity
  8
1
  6
CONTINUOUS
370
50
 62
4
100
AcDbLine
 10
44.998177
 20
0.006412
 30
0.0
 11
44.99877499999999
 21
0.007985
 31
0.0
  0
LINE
  5
99F
330
1F
100
AcDbEntity
  8
1
  6
CONTINUOUS
370
50
 62
4
100
AcDbLine
 10
42.189697
 20
0.225214
 30
0.0
 11
42.198315
 21
0.248038
 31
0.0
  0
LINE
  5
9A0
330
1F
100
AcDbEntity
  8
1
  6
CONTINUOUS
370
50
 62
4
100
AcDbLine
 10
44.997581
 20
0.004828
 30
0.0
 11
44.998177
 21
0.006412
 31
0.0
  0
LINE
  5
9A1
330
1F
100
AcDbEntity
  8
1
  6
CONTINUOUS
370
50
 62
4
100
AcDbLine
 10
44.997589
 20
0.004846
 30
0.0
 11
44.99818
 21
0.00643
 31
0.0
  0
LINE
  5
9A2
330
1F
100
AcDbEntity
  8
1
  6
CONTINUOUS
370
50
 62
4
100
AcDbLine
 10
44.535534
 20
0.40948
 30
0.0
 11
44.53913499999999
 21
0.419176
 31
0.0
  0
LINE
  5
9A3
330
1F
100
AcDbEntity
  8
1
  6
CONTINUOUS
370
50
 62
4
100
AcDbLine
 10
44.99700199999999
 20
0.003246
 30
0.0
 11
44.997589
 21
0.004846
 31
0.0
  0
LINE
  5
9A4
330
1F
100
AcDbEntity
  8
1
  6
CONTINUOUS
370
50
 62
4
100
AcDbLine
 10
44.996998
 20
0.003231
 30
0.0
 11
44.997581
 21
0.004828
 31
0.0
  0
LINE
  5
9A5
330
1F
100
AcDbEntity
  8
1
  6
CONTINUOUS
370
50
 62
4
100
AcDbLine
 10
42.862541
 20
-0.606815
 30
0.0
 11
42.866905
 21
-0.5948479999999999
 31
0.0
  0
LINE
  5
9A6
330
1F
100
AcDbEntity
  8
1
  6
CONTINUOUS
370
50
 62
4
100
AcDbLine
 10
42.462799
 20
-0.301162
 30
0.0
 11
42.46704099999999
 21
-0.289419
 31
0.0
  0
LINE
  5
9A7
330
1F
100
AcDbEntity
  8
1
  6
CONTINUOUS
370
50
 62
4
100
AcDbLine
 10
44.996422
 20
0.001631
 30
0.0
 11
44.99700199999999
 21
0.003246
 31
0.0
  0
LINE
  5
9A8
330
1F
100
AcDbEntity
  8
1
  6
CONTINUOUS
370
50
 62
4
100
AcDbLine
 10
44.996422
 20
0.001622
 30
0.0
 11
44.996998
 21
0.003231
 31
0.0
  0
LINE
  5
9A9
330
1F
100
AcDbEntity
  8
1
  6
CONTINUOUS
370
50
 62
4
100
AcDbLine
 10
44.929131
 20
0.031716
 30
0.0
 11
44.931652
 21
0.038824
 31
0.0
  0
LINE
  5
9AA
330
1F
100
AcDbEntity
  8
1
  6
CONTINUOUS
370
50
 62
4
100
AcDbLine
 10
44.865738
 20
-0.196509
 30
0.0
 11
44.868389
 21
-0.189029
 31
0.0
  0
LINE
  5
9AB
330
1F
100
AcDbEntity
  8
1
  6
CONTINUOUS
370
50
 62
4
100
AcDbLine
 10
44.129131
 20
0.652134
 30
0.0
 11
44.132957
 21
0.6629579999999999
 31
0.0
  0
LINE
  5
9AC
330
1F
100
AcDbEntity
  8
1
  6
CONTINUOUS
370
50
 62
4
100
AcDbLine
 10
44.995853
 20
0.0
 30
0.0
 11
44.996422
 21
0.001622
 31
0.0
  0
LINE
  5
9AD
330
1F
100
AcDbEntity
  8
1
  6
CONTINUOUS
370
50
 62
4
100
AcDbLine
 10
44.99585
 20
0.0
 30
0.0
 11
44.996422
 21
0.001631
 31
0.0
  0
LINE
  5
9AE
330
1F
100
AcDbEntity
  8
1
  6
CONTINUOUS
370
50
 62
4
100
AcDbLine
 10
44.532196
 20
0.399699
 30
0.0
 11
44.535534
 21
0.40948
 31
0.0
  0
LINE
  5
9AF
330
1F
100
AcDbEntity
  8
1
  6
CONTINUOUS
370
50
 62
4
100
AcDbLine
 10
42.181854
 20
0.20176
 30
0.0
 11
42.189697
 21
0.225214
 31
0.0
  0
LINE
  5
9B0
330
1F
100
AcDbEntity
  8
1
  6
CONTINUOUS
370
50
 62
4
100
AcDbLine
 10
42.866905
 20
-0.5948479999999999
 30
0.0
 11
42.870869
 21
-0.582942
 31
0.0
  0
LINE
  5
9B1
330
1F
100
AcDbEntity
  8
1
  6
CONTINUOUS
370
50
 62
4
100
AcDbLine
 10
44.868389
 20
-0.189029
 30
0.0
 11
44.870869
 21
-0.181374
 31
0.0
  0
LINE
  5
9B2
330
1F
100
AcDbEntity
  8
1
  6
CONTINUOUS
370
50
 62
4
100
AcDbLine
 10
42.46704099999999
 20
-0.289419
 30
0.0
 11
42.470871
 21
-0.277429
 31
0.0
  0
LINE
  5
9B3
330
1F
100
AcDbEntity
  8
1
  6
CONTINUOUS
370
50
 62
4
100
AcDbLine
 10
44.529129
 20
0.38984
 30
0.0
 11
44.532196
 21
0.399699
 31
0.0
  0
LINE
  5
9B4
330
1F
100
AcDbEntity
  8
1
  6
CONTINUOUS
370
50
 62
4
100
AcDbLine
 10
44.990005
 20
-0.019016
 30
0.0
 11
44.995853
 21
0.0
 31
0.0
  0
LINE
  5
9B5
330
1F
100
AcDbEntity
  8
1
  6
CONTINUOUS
370
50
 62
4
100
AcDbLine
 10
44.98996
 20
-0.019192
 30
0.0
 11
44.99585
 21
0.0
 31
0.0
  0
LINE
  5
9B6
330
1F
100
AcDbEntity
  8
1
  6
CONTINUOUS
370
50
 62
4
100
AcDbLine
 10
42.174847
 20
0.177726
 30
0.0
 11
42.181854
 21
0.20176
 31
0.0
  0
LINE
  5
9B7
330
1F
100
AcDbEntity
  8
1
  6
CONTINUOUS
370
50
 62
4
100
AcDbLine
 10
42.168724
 20
0.153163
 30
0.0
 11
42.174847
 21
0.177726
 31
0.0
  0
LINE
  5
9B8
330
1F
100
AcDbEntity
  8
1
  6
CONTINUOUS
370
50
 62
4
100
AcDbLine
 10
44.98516799999999
 20
-0.039433
 30
0.0
 11
44.990005
 21
-0.019016
 31
0.0
  0
LINE
  5
9B9
330
1F
100
AcDbEntity
  8
1
  6
CONTINUOUS
370
50
 62
4
100
AcDbLine
 10
44.985126
 20
-0.039649
 30
0.0
 11
44.98996
 21
-0.019192
 31
0.0
  0
LINE
  5
9BA
330
1F
100
AcDbEntity
  8
1
  6
CONTINUOUS
370
50
 62
4
100
AcDbLine
 10
42.163548
 20
0.12812
 30
0.0
 11
42.168724
 21
0.153163
 31
0.0
  0
LINE
  5
9BB
330
1F
100
AcDbEntity
  8
1
  6
CONTINUOUS
370
50
 62
4
100
AcDbLine
 10
44.981342
 20
-0.061122
 30
0.0
 11
44.98516799999999
 21
-0.039433
 31
0.0
  0
LINE
  5
9BC
330
1F
100
AcDbEntity
  8
1
  6
CONTINUOUS
370
50
 62
4
100
AcDbLine
 10
44.981342
 20
-0.061162
 30
0.0
 11
44.985126
 21
-0.039649
 31
0.0
  0
LINE
  5
9BD
330
1F
100
AcDbEntity
  8
1
  6
CONTINUOUS
370
50
 62
4
100
AcDbLine
 10
42.159382
 20
0.102712
 30
0.0
 11
42.163548
 21
0.12812
 31
0.0
  0
LINE
  5
9BE
330
1F
100
AcDbEntity
  8
1
  6
CONTINUOUS
370
50
 62
4
100
AcDbLine
 10
44.978577
 20
-0.083575
 30
0.0
 11
44.981342
 21
-0.061162
 31
0.0
  0
LINE
  5
9BF
330
1F
100
AcDbEntity
  8
1
  6
CONTINUOUS
370
50
 62
4
100
AcDbLine
 10
44.978565
 20
-0.083723
 30
0.0
 11
44.981342
 21
-0.061122
 31
0.0
  0
LINE
  5
9C0
330
1F
100
AcDbEntity
  8
1
  6
CONTINUOUS
370
50
 62
4
100
AcDbLine
 10
42.156281
 20
0.077156
 30
0.0
 11
42.159382
 21
0.102712
 31
0.0
  0
LINE
  5
9C1
330
1F
100
AcDbEntity
  8
1
  6
CONTINUOUS
370
50
 62
4
100
AcDbLine
 10
42.154243
 20
0.051495
 30
0.0
 11
42.156281
 21
0.077156
 31
0.0
  0
LINE
  5
9C2
330
1F
100
AcDbEntity
  8
1
  6
CONTINUOUS
370
50
 62
4
100
AcDbLine
 10
44.976795
 20
-0.106733
 30
0.0
 11
44.978577
 21
-0.083575
 31
0.0
  0
LINE
  5
9C3
330
1F
100
AcDbEntity
  8
1
  6
CONTINUOUS
370
50
 62
4
100
AcDbLine
 10
44.976795
 20
-0.106954
 30
0.0
 11
44.978565
 21
-0.083723
 31
0.0
  0
LINE
  5
9C4
330
1F
100
AcDbEntity
  8
1
  6
CONTINUOUS
370
50
 62
4
100
AcDbLine
 10
42.153271
 20
0.025765
 30
0.0
 11
42.154243
 21
0.051495
 31
0.0
  0
LINE
  5
9C5
330
1F
100
AcDbEntity
  8
1
  6
CONTINUOUS
370
50
 62
4
100
AcDbLine
 10
44.975967
 20
-0.130634
 30
0.0
 11
44.976795
 21
-0.106954
 31
0.0
  0
LINE
  5
9C6
330
1F
100
AcDbEntity
  8
1
  6
CONTINUOUS
370
50
 62
4
100
AcDbLine
 10
44.975975
 20
-0.130501
 30
0.0
 11
44.976795
 21
-0.106733
 31
0.0
  0
LINE
  5
9C7
330
1F
100
AcDbEntity
  8
1
  6
CONTINUOUS
370
50
 62
4
100
AcDbLine
 10
20.0
 20
-1.4
 30
0.0
 11
20.0
 21
1.4
 31
0.0
  0
LINE
  5
9C8
330
1F
100
AcDbEntity
  8
1
  6
CONTINUOUS
370
50
 62
4
100
AcDbLine
 10
28.0
 20
-1.4
 30
0.0
 11
28.0
 21
1.4
 31
0.0
  0
LINE
  5
9C9
330
1F
100
AcDbEntity
  8
1
  6
CONTINUOUS
370
50
 62
4
100
AcDbLine
 10
33.099998
 20
-0.7
 30
0.0
 11
33.099998
 21
0.7
 31
0.0
  0
LINE
  5
9CA
330
1F
100
AcDbEntity
  8
1
  6
CONTINUOUS
370
50
 62
4
100
AcDbLine
 10
42.126797
 20
-0.7
 30
0.0
 11
42.126797
 21
0.7
 31
0.0
  0
LINE
  5
9CB
330
1F
100
AcDbEntity
  8
1
  6
CONTINUOUS
370
50
 62
4
100
AcDbLine
 10
42.299999
 20
-1.0
 30
0.0
 11
42.299999
 21
1.0
 31
0.0
  0
LINE
  5
9CC
330
1F
100
AcDbEntity
  8
1
  6
CONTINUOUS
370
50
 62
4
100
AcDbLine
 10
42.329132
 20
-1.0
 30
0.0
 11
42.329132
 21
-0.441848
 31
0.0
  0
LINE
  5
9CD
330
1F
100
AcDbEntity
  8
1
  6
CONTINUOUS
370
50
 62
4
100
AcDbLine
 10
42.329132
 20
0.387028
 30
0.0
 11
42.329132
 21
1.0
 31
0.0
  0
LINE
  5
9CE
330
1F
100
AcDbEntity
  8
1
  6
CONTINUOUS
370
50
 62
4
100
AcDbLine
 10
42.470871
 20
-0.7545
 30
0.0
 11
42.470871
 21
-0.277428
 31
0.0
  0
LINE
  5
9CF
330
1F
100
AcDbEntity
  8
1
  6
CONTINUOUS
370
50
 62
4
100
AcDbLine
 10
42.470871
 20
-0.013361
 30
0.0
 11
42.470871
 21
0.7545
 31
0.0
  0
LINE
  5
9D0
330
1F
100
AcDbEntity
  8
1
  6
CONTINUOUS
370
50
 62
4
100
AcDbLine
 10
42.529129
 20
-0.7545
 30
0.0
 11
42.529129
 21
-0.327962
 31
0.0
  0
LINE
  5
9D1
330
1F
100
AcDbEntity
  8
1
  6
CONTINUOUS
370
50
 62
4
100
AcDbLine
 10
42.529129
 20
-0.073059
 30
0.0
 11
42.529129
 21
0.7545
 31
0.0
  0
LINE
  5
9D2
330
1F
100
AcDbEntity
  8
1
  6
CONTINUOUS
370
50
 62
4
100
AcDbLine
 10
42.670868
 20
-0.026216
 30
0.0
 11
42.670868
 21
1.0
 31
0.0
  0
LINE
  5
9D3
330
1F
100
AcDbEntity
  8
1
  6
CONTINUOUS
370
50
 62
4
100
AcDbLine
 10
42.670868
 20
-1.0
 30
0.0
 11
42.670868
 21
-0.7711009999999999
 31
0.0
  0
LINE
  5
9D4
330
1F
100
AcDbEntity
  8
1
  6
CONTINUOUS
370
50
 62
4
100
AcDbLine
 10
42.72913
 20
-0.098505
 30
0.0
 11
42.72913
 21
1.0
 31
0.0
  0
LINE
  5
9D5
330
1F
100
AcDbEntity
  8
1
  6
CONTINUOUS
370
50
 62
4
100
AcDbLine
 10
42.72913
 20
-1.0
 30
0.0
 11
42.72913
 21
-0.8151039999999999
 31
0.0
  0
LINE
  5
9D6
330
1F
100
AcDbEntity
  8
1
  6
CONTINUOUS
370
50
 62
4
100
AcDbLine
 10
42.870869
 20
-0.7545
 30
0.0
 11
42.870869
 21
-0.582942
 31
0.0
  0
LINE
  5
9D7
330
1F
100
AcDbEntity
  8
1
  6
CONTINUOUS
370
50
 62
4
100
AcDbLine
 10
42.870869
 20
-0.375513
 30
0.0
 11
42.870869
 21
0.7545
 31
0.0
  0
LINE
  5
9D8
330
1F
100
AcDbEntity
  8
1
  6
CONTINUOUS
370
50
 62
4
100
AcDbLine
 10
42.929131
 20
-0.7545
 30
0.0
 11
42.929131
 21
-0.6158429999999999
 31
0.0
  0
LINE
  5
9D9
330
1F
100
AcDbEntity
  8
1
  6
CONTINUOUS
370
50
 62
4
100
AcDbLine
 10
42.929131
 20
-0.422434
 30
0.0
 11
42.929131
 21
0.7545
 31
0.0
  0
LINE
  5
9DA
330
1F
100
AcDbEntity
  8
1
  6
CONTINUOUS
370
50
 62
4
100
AcDbLine
 10
43.07086899999999
 20
-0.502394
 30
0.0
 11
43.07086899999999
 21
1.0
 31
0.0
  0
LINE
  5
9DB
330
1F
100
AcDbEntity
  8
1
  6
CONTINUOUS
370
50
 62
4
100
AcDbLine
 10
43.07086899999999
 20
-1.0
 30
0.0
 11
43.07086899999999
 21
-0.9814759999999999
 31
0.0
  0
LINE
  5
9DC
330
1F
100
AcDbEntity
  8
1
  6
CONTINUOUS
370
50
 62
4
100
AcDbLine
 10
43.129131
 20
-0.56396
 30
0.0
 11
43.129131
 21
1.0
 31
0.0
  0
LINE
  5
9DD
330
1F
100
AcDbEntity
  8
1
  6
CONTINUOUS
370
50
 62
4
100
AcDbLine
 10
43.129131
 20
-1.0
 30
0.0
 11
43.129131
 21
-0.992873
 31
0.0
  0
LINE
  5
9DE
330
1F
100
AcDbEntity
  8
1
  6
CONTINUOUS
370
50
 62
4
100
AcDbLine
 10
43.27087
 20
-0.7545
 30
0.0
 11
43.27087
 21
-0.741068
 31
0.0
  0
LINE
  5
9DF
330
1F
100
AcDbEntity
  8
1
  6
CONTINUOUS
370
50
 62
4
100
AcDbLine
 10
43.27087
 20
-0.6442049999999999
 30
0.0
 11
43.27087
 21
0.7545
 31
0.0
  0
LINE
  5
9E0
330
1F
100
AcDbEntity
  8
1
  6
CONTINUOUS
370
50
 62
4
100
AcDbLine
 10
43.329132
 20
-0.7545
 30
0.0
 11
43.329132
 21
-0.7494179999999999
 31
0.0
  0
LINE
  5
9E1
330
1F
100
AcDbEntity
  8
1
  6
CONTINUOUS
370
50
 62
4
100
AcDbLine
 10
43.329132
 20
-0.671118
 30
0.0
 11
43.329132
 21
0.7545
 31
0.0
  0
LINE
  5
9E2
330
1F
100
AcDbEntity
  8
1
  6
CONTINUOUS
370
50
 62
4
100
AcDbLine
 10
43.470871
 20
-0.855686
 30
0.0
 11
43.470871
 21
0.9527019999999999
 31
0.0
  0
LINE
  5
9E3
330
1F
100
AcDbEntity
  8
1
  6
CONTINUOUS
370
50
 62
4
100
AcDbLine
 10
43.529129
 20
-0.8911
 30
0.0
 11
43.529129
 21
0.928024
 31
0.0
  0
LINE
  5
9E4
330
1F
100
AcDbEntity
  8
1
  6
CONTINUOUS
370
50
 62
4
100
AcDbLine
 10
43.670868
 20
-0.753672
 30
0.0
 11
43.670868
 21
0.718125
 31
0.0
  0
LINE
  5
9E5
330
1F
100
AcDbEntity
  8
1
  6
CONTINUOUS
370
50
 62
4
100
AcDbLine
 10
43.72913
 20
0.7542399999999999
 30
0.0
 11
43.72913
 21
0.7545
 31
0.0
  0
LINE
  5
9E6
330
1F
100
AcDbEntity
  8
1
  6
CONTINUOUS
370
50
 62
4
100
AcDbLine
 10
43.72913
 20
-0.7545
 30
0.0
 11
43.72913
 21
0.699414
 31
0.0
  0
LINE
  5
9E7
330
1F
100
AcDbEntity
  8
1
  6
CONTINUOUS
370
50
 62
4
100
AcDbLine
 10
43.870869
 20
-0.999066
 30
0.0
 11
43.870869
 21
0.6899449999999999
 31
0.0
  0
LINE
  5
9E8
330
1F
100
AcDbEntity
  8
1
  6
CONTINUOUS
370
50
 62
4
100
AcDbLine
 10
43.929131
 20
-1.0
 30
0.0
 11
43.929131
 21
0.635365
 31
0.0
  0
LINE
  5
9E9
330
1F
100
AcDbEntity
  8
1
  6
CONTINUOUS
370
50
 62
4
100
AcDbLine
 10
43.929131
 20
0.999564
 30
0.0
 11
43.929131
 21
1.0
 31
0.0
  0
LINE
  5
9EA
330
1F
100
AcDbEntity
  8
1
  6
CONTINUOUS
370
50
 62
4
100
AcDbLine
 10
44.07086899999999
 20
0.678142
 30
0.0
 11
44.07086899999999
 21
0.7545
 31
0.0
  0
LINE
  5
9EB
330
1F
100
AcDbEntity
  8
1
  6
CONTINUOUS
370
50
 62
4
100
AcDbLine
 10
44.07086899999999
 20
-0.7545
 30
0.0
 11
44.07086899999999
 21
0.518945
 31
0.0
  0
LINE
  5
9EC
330
1F
100
AcDbEntity
  8
1
  6
CONTINUOUS
370
50
 62
4
100
AcDbLine
 10
44.129131
 20
0.652135
 30
0.0
 11
44.129131
 21
0.7545
 31
0.0
  0
LINE
  5
9ED
330
1F
100
AcDbEntity
  8
1
  6
CONTINUOUS
370
50
 62
4
100
AcDbLine
 10
44.129131
 20
-0.7545
 30
0.0
 11
44.129131
 21
0.477748
 31
0.0
  0
LINE
  5
9EE
330
1F
100
AcDbEntity
  8
1
  6
CONTINUOUS
370
50
 62
4
100
AcDbLine
 10
44.240341
 20
-0.947125
 30
0.0
 11
44.240341
 21
0.297769
 31
0.0
  0
LINE
  5
9EF
330
1F
100
AcDbEntity
  8
1
  6
CONTINUOUS
370
50
 62
4
100
AcDbLine
 10
44.240341
 20
0.856883
 30
0.0
 11
44.240341
 21
0.947125
 31
0.0
  0
LINE
  5
9F0
330
1F
100
AcDbEntity
  8
1
  6
CONTINUOUS
370
50
 62
4
100
AcDbLine
 10
44.377018
 20
-0.917056
 30
0.0
 11
44.377018
 21
0.150718
 31
0.0
  0
LINE
  5
9F1
330
1F
100
AcDbEntity
  8
1
  6
CONTINUOUS
370
50
 62
4
100
AcDbLine
 10
44.377018
 20
0.742613
 30
0.0
 11
44.377018
 21
0.917056
 31
0.0
  0
LINE
  5
9F2
330
1F
100
AcDbEntity
  8
1
  6
CONTINUOUS
370
50
 62
4
100
AcDbLine
 10
44.470871
 20
0.436054
 30
0.0
 11
44.470871
 21
0.7545
 31
0.0
  0
LINE
  5
9F3
330
1F
100
AcDbEntity
  8
1
  6
CONTINUOUS
370
50
 62
4
100
AcDbLine
 10
44.470871
 20
-0.7545
 30
0.0
 11
44.470871
 21
0.192425
 31
0.0
  0
LINE
  5
9F4
330
1F
100
AcDbEntity
  8
1
  6
CONTINUOUS
370
50
 62
4
100
AcDbLine
 10
44.529129
 20
0.38984
 30
0.0
 11
44.529129
 21
0.7545
 31
0.0
  0
LINE
  5
9F5
330
1F
100
AcDbEntity
  8
1
  6
CONTINUOUS
370
50
 62
4
100
AcDbLine
 10
44.529129
 20
-0.7545
 30
0.0
 11
44.529129
 21
0.138739
 31
0.0
  0
LINE
  5
9F6
330
1F
100
AcDbEntity
  8
1
  6
CONTINUOUS
370
50
 62
4
100
AcDbLine
 10
44.595261
 20
0.515896
 30
0.0
 11
44.595261
 21
0.869043
 31
0.0
  0
LINE
  5
9F7
330
1F
100
AcDbEntity
  8
1
  6
CONTINUOUS
370
50
 62
4
100
AcDbLine
 10
44.595261
 20
-0.869043
 30
0.0
 11
44.595261
 21
-0.063837
 31
0.0
  0
LINE
  5
9F8
330
1F
100
AcDbEntity
  8
1
  6
CONTINUOUS
370
50
 62
4
100
AcDbLine
 10
44.835217
 20
0.224654
 30
0.0
 11
44.835217
 21
0.816252
 31
0.0
  0
LINE
  5
9F9
330
1F
100
AcDbEntity
  8
1
  6
CONTINUOUS
370
50
 62
4
100
AcDbLine
 10
44.835217
 20
-0.816252
 30
0.0
 11
44.835217
 21
-0.25443
 31
0.0
  0
LINE
  5
9FA
330
1F
100
AcDbEntity
  8
1
  6
CONTINUOUS
370
50
 62
4
100
AcDbLine
 10
44.870869
 20
0.086701
 30
0.0
 11
44.870869
 21
0.7545
 31
0.0
  0
LINE
  5
9FB
330
1F
100
AcDbEntity
  8
1
  6
CONTINUOUS
370
50
 62
4
100
AcDbLine
 10
44.870869
 20
-0.7545
 30
0.0
 11
44.870869
 21
-0.181373
 31
0.0
  0
LINE
  5
9FC
330
1F
100
AcDbEntity
  8
1
  6
CONTINUOUS
370
50
 62
4
100
AcDbLine
 10
44.929131
 20
0.031716
 30
0.0
 11
44.929131
 21
0.7545
 31
0.0
  0
LINE
  5
9FD
330
1F
100
AcDbEntity
  8
1
  6
CONTINUOUS
370
50
 62
4
100
AcDbLine
 10
44.929131
 20
-0.7545
 30
0.0
 11
44.929131
 21
-0.234513
 31
0.0
  0
LINE
  5
9FE
330
1F
100
AcDbEntity
  8
1
  6
CONTINUOUS
370
50
 62
4
100
AcDbLine
 10
44.95018
 20
0.076106
 30
0.0
 11
44.95018
 21
0.79096
 31
0.0
  0
LINE
  5
9FF
330
1F
100
AcDbEntity
  8
1
  6
CONTINUOUS
370
50
 62
4
100
AcDbLine
 10
44.95018
 20
-0.79096
 30
0.0
 11
44.95018
 21
-0.324816
 31
0.0
  0
LINE
  5
A00
330
1F
100
AcDbEntity
  8
1
  6
CONTINUOUS
370
50
 62
4
100
AcDbLine
 10
45.0
 20
-0.7799999999999999
 30
0.0
 11
45.0
 21
0.7799999999999999
 31
0.0
  0
LINE
  5
A01
330
1F
100
AcDbEntity
  8
SK2
  6
CONTINUOUS
370
25
 62
7
100
AcDbLine
 10
0.0
 20
1.4
 30
0.0
 11
0.0
 21
14.40001
 31
0.0
  0
LINE
  5
A02
330
1F
100
AcDbEntity
  8
SK2
  6
CONTINUOUS
370
25
 62
7
100
AcDbLine
 10
20.0
 20
14.40001
 30
0.0
 11
20.0
 21
1.4
 31
0.0
  0
LINE
  5
A03
330
1F
100
AcDbEntity
  8
SK2
  6
CONTINUOUS
370
25
 62
7
100
AcDbLine
 10
0.0
 20
13.40001
 30
0.0
 11
20.0
 21
13.40001
 31
0.0
  0
LINE
  5
A04
330
1F
100
AcDbEntity
  8
SK2
  6
CONTINUOUS
370
25
 62
7
100
AcDbLine
 10
0.0
 20
13.40001
 30
0.0
 11
5.0
 21
14.40001
 31
0.0
  0
LINE
  5
A05
330
1F
100
AcDbEntity
  8
SK2
  6
CONTINUOUS
370
25
 62
7
100
AcDbLine
 10
5.0
 20
14.40001
 30
0.0
 11
5.0
 21
12.40001
 31
0.0
  0
LINE
  5
A06
330
1F
100
AcDbEntity
  8
SK2
  6
CONTINUOUS
370
25
 62
7
100
AcDbLine
 10
5.0
 20
12.40001
 30
0.0
 11
0.0
 21
13.40001
 31
0.0
  0
LINE
  5
A07
330
1F
100
AcDbEntity
  8
SK2
  6
CONTINUOUS
370
25
 62
7
100
AcDbLine
 10
4.852371278103877
 20
12.42953574437923
 30
0.0
 11
5.0
 21
12.57716446627535
 31
0.0
  0
LINE
  5
A08
330
1F
100
AcDbEntity
  8
SK2
  6
CONTINUOUS
370
25
 62
7
100
AcDbLine
 10
4.498817887510604
 20
12.50024642249788
 30
0.0
 11
5.0
 21
13.00142853498728
 31
0.0
  0
LINE
  5
A09
330
1F
100
AcDbEntity
  8
SK2
  6
CONTINUOUS
370
25
 62
7
100
AcDbLine
 10
4.145264496917331
 20
12.57095710061654
 30
0.0
 11
5.0
 21
13.4256926036992
 31
0.0
  0
LINE
  5
A0A
330
1F
100
AcDbEntity
  8
SK2
  6
CONTINUOUS
370
25
 62
7
100
AcDbLine
 10
3.791711106324058
 20
12.64166777873519
 30
0.0
 11
5.0
 21
13.84995667241113
 31
0.0
  0
LINE
  5
A0B
330
1F
100
AcDbEntity
  8
SK2
  6
CONTINUOUS
370
25
 62
7
100
AcDbLine
 10
3.438157715730785
 20
12.71237845685384
 30
0.0
 11
5.0
 21
14.27422074112306
 31
0.0
  0
LINE
  5
A0C
330
1F
100
AcDbEntity
  8
SK2
  6
CONTINUOUS
370
25
 62
7
100
AcDbLine
 10
3.084604325137512
 20
12.7830891349725
 30
0.0
 11
4.626906487706268
 21
14.32539129754126
 31
0.0
  0
LINE
  5
A0D
330
1F
100
AcDbEntity
  8
SK2
  6
CONTINUOUS
370
25
 62
7
100
AcDbLine
 10
2.731050934544239
 20
12.85379981309115
 30
0.0
 11
4.096576401816359
 21
14.21932528036327
 31
0.0
  0
LINE
  5
A0E
330
1F
100
AcDbEntity
  8
SK2
  6
CONTINUOUS
370
25
 62
7
100
AcDbLine
 10
2.377497543950966
 20
12.92451049120981
 30
0.0
 11
3.566246315926449
 21
14.11325926318529
 31
0.0
  0
LINE
  5
A0F
330
1F
100
AcDbEntity
  8
SK2
  6
CONTINUOUS
370
25
 62
7
100
AcDbLine
 10
2.023944153357693
 20
12.99522116932846
 30
0.0
 11
3.035916230036541
 21
14.00719324600731
 31
0.0
  0
LINE
  5
A10
330
1F
100
AcDbEntity
  8
SK2
  6
CONTINUOUS
370
25
 62
7
100
AcDbLine
 10
1.67039076276442
 20
13.06593184744712
 30
0.0
 11
2.50558614414663
 21
13.90112722882933
 31
0.0
  0
LINE
  5
A11
330
1F
100
AcDbEntity
  8
SK2
  6
CONTINUOUS
370
25
 62
7
100
AcDbLine
 10
1.316837372171147
 20
13.13664252556577
 30
0.0
 11
1.975256058256722
 21
13.79506121165135
 31
0.0
  0
LINE
  5
A12
330
1F
100
AcDbEntity
  8
SK2
  6
CONTINUOUS
370
25
 62
7
100
AcDbLine
 10
0.9632839815778738
 20
13.20735320368443
 30
0.0
 11
1.444925972366811
 21
13.68899519447336
 31
0.0
  0
LINE
  5
A13
330
1F
100
AcDbEntity
  8
SK2
  6
CONTINUOUS
370
25
 62
7
100
AcDbLine
 10
0.6097305909846007
 20
13.27806388180308
 30
0.0
 11
0.9145958864769028
 21
13.58292917729538
 31
0.0
  0
LINE
  5
A14
330
1F
100
AcDbEntity
  8
SK2
  6
CONTINUOUS
370
25
 62
7
100
AcDbLine
 10
0.2561772003913276
 20
13.34877455992174
 30
0.0
 11
0.3842658005869915
 21
13.4768631601174
 31
0.0
  0
LINE
  5
A15
330
1F
100
AcDbEntity
  8
SK2
  6
CONTINUOUS
370
25
 62
7
100
AcDbLine
 10
0.1708276569981244
 20
13.43417553139963
 30
0.0
 11
0.2562414854971884
 21
13.34876170290056
 31
0.0
  0
LINE
  5
A16
330
1F
100
AcDbEntity
  8
SK2
  6
CONTINUOUS
370
25
 62
7
100
AcDbLine
 10
0.5243810475913975
 20
13.50488620951828
 30
0.0
 11
0.7865715713870998
 21
13.24269568572258
 31
0.0
  0
LINE
  5
A17
330
1F
100
AcDbEntity
  8
SK2
  6
CONTINUOUS
370
25
 62
7
100
AcDbLine
 10
0.8779344381846705
 20
13.57559688763694
 30
0.0
 11
1.316901657277011
 21
13.1366296685446
 31
0.0
  0
LINE
  5
A18
330
1F
100
AcDbEntity
  8
SK2
  6
CONTINUOUS
370
25
 62
7
100
AcDbLine
 10
1.231487828777944
 20
13.64630756575559
 30
0.0
 11
1.847231743166919
 21
13.03056365136662
 31
0.0
  0
LINE
  5
A19
330
1F
100
AcDbEntity
  8
SK2
  6
CONTINUOUS
370
25
 62
7
100
AcDbLine
 10
1.585041219371217
 20
13.71701824387425
 30
0.0
 11
2.37756182905683
 21
12.92449763418863
 31
0.0
  0
LINE
  5
A1A
330
1F
100
AcDbEntity
  8
SK2
  6
CONTINUOUS
370
25
 62
7
100
AcDbLine
 10
1.93859460996449
 20
13.7877289219929
 30
0.0
 11
2.907891914946742
 21
12.81843161701065
 31
0.0
  0
LINE
  5
A1B
330
1F
100
AcDbEntity
  8
SK2
  6
CONTINUOUS
370
25
 62
7
100
AcDbLine
 10
2.292148000557763
 20
13.85843960011156
 30
0.0
 11
3.438222000836653
 21
12.71236559983267
 31
0.0
  0
LINE
  5
A1C
330
1F
100
AcDbEntity
  8
SK2
  6
CONTINUOUS
370
25
 62
7
100
AcDbLine
 10
2.645701391151036
 20
13.92915027823021
 30
0.0
 11
3.968552086726564
 21
12.60629958265469
 31
0.0
  0
LINE
  5
A1D
330
1F
100
AcDbEntity
  8
SK2
  6
CONTINUOUS
370
25
 62
7
100
AcDbLine
 10
2.999254781744309
 20
13.99986095634886
 30
0.0
 11
4.498882172616469
 21
12.50023356547671
 31
0.0
  0
LINE
  5
A1E
330
1F
100
AcDbEntity
  8
SK2
  6
CONTINUOUS
370
25
 62
7
100
AcDbLine
 10
3.352808172337582
 20
14.07057163446752
 30
0.0
 11
5.0
 21
12.4233798068051
 31
0.0
  0
LINE
  5
A1F
330
1F
100
AcDbEntity
  8
SK2
  6
CONTINUOUS
370
25
 62
7
100
AcDbLine
 10
3.706361562930855
 20
14.14128231258617
 30
0.0
 11
5.0
 21
12.84764387551703
 31
0.0
  0
LINE
  5
A20
330
1F
100
AcDbEntity
  8
SK2
  6
CONTINUOUS
370
25
 62
7
100
AcDbLine
 10
4.059914953524128
 20
14.21199299070483
 30
0.0
 11
5.0
 21
13.27190794422896
 31
0.0
  0
LINE
  5
A21
330
1F
100
AcDbEntity
  8
SK2
  6
CONTINUOUS
370
25
 62
7
100
AcDbLine
 10
4.413468344117403
 20
14.28270366882348
 30
0.0
 11
5.0
 21
13.69617201294089
 31
0.0
  0
LINE
  5
A22
330
1F
100
AcDbEntity
  8
SK2
  6
CONTINUOUS
370
25
 62
7
100
AcDbLine
 10
4.767021734710676
 20
14.35341434694214
 30
0.0
 11
5.0
 21
14.12043608165281
 31
0.0
  0
LINE
  5
A23
330
1F
100
AcDbEntity
  8
SK2
  6
CONTINUOUS
370
25
 62
7
100
AcDbLine
 10
20.0
 20
13.40001
 30
0.0
 11
15.0
 21
12.40001
 31
0.0
  0
LINE
  5
A24
330
1F
100
AcDbEntity
  8
SK2
  6
CONTINUOUS
370
25
 62
7
100
AcDbLine
 10
15.0
 20
12.40001
 30
0.0
 11
15.0
 21
14.40001
 31
0.0
  0
LINE
  5
A25
330
1F
100
AcDbEntity
  8
SK2
  6
CONTINUOUS
370
25
 62
7
100
AcDbLine
 10
15.0
 20
14.40001
 30
0.0
 11
20.0
 21
13.40001
 31
0.0
  0
LINE
  5
A26
330
1F
100
AcDbEntity
  8
SK2
  6
CONTINUOUS
370
25
 62
7
100
AcDbLine
 10
19.77944975152286
 20
13.35589995030457
 30
0.0
 11
19.85296650101524
 21
13.42941669979695
 31
0.0
  0
LINE
  5
A27
330
1F
100
AcDbEntity
  8
SK2
  6
CONTINUOUS
370
25
 62
7
100
AcDbLine
 10
19.24911966563295
 20
13.24983393312659
 30
0.0
 11
19.49941311042197
 21
13.50012737791561
 31
0.0
  0
LINE
  5
A28
330
1F
100
AcDbEntity
  8
SK2
  6
CONTINUOUS
370
25
 62
7
100
AcDbLine
 10
18.71878957974304
 20
13.14376791594861
 30
0.0
 11
19.14585971982869
 21
13.57083805603426
 31
0.0
  0
LINE
  5
A29
330
1F
100
AcDbEntity
  8
SK2
  6
CONTINUOUS
370
25
 62
7
100
AcDbLine
 10
18.18845949385313
 20
13.03770189877063
 30
0.0
 11
18.79230632923542
 21
13.64154873415292
 31
0.0
  0
LINE
  5
A2A
330
1F
100
AcDbEntity
  8
SK2
  6
CONTINUOUS
370
25
 62
7
100
AcDbLine
 10
17.65812940796322
 20
12.93163588159264
 30
0.0
 11
18.43875293864215
 21
13.71225941227157
 31
0.0
  0
LINE
  5
A2B
330
1F
100
AcDbEntity
  8
SK2
  6
CONTINUOUS
370
25
 62
7
100
AcDbLine
 10
17.12779932207331
 20
12.82556986441466
 30
0.0
 11
18.08519954804887
 21
13.78297009039023
 31
0.0
  0
LINE
  5
A2C
330
1F
100
AcDbEntity
  8
SK2
  6
CONTINUOUS
370
25
 62
7
100
AcDbLine
 10
16.5974692361834
 20
12.71950384723668
 30
0.0
 11
17.7316461574556
 21
13.85368076850888
 31
0.0
  0
LINE
  5
A2D
330
1F
100
AcDbEntity
  8
SK2
  6
CONTINUOUS
370
25
 62
7
100
AcDbLine
 10
16.06713915029349
 20
12.6134378300587
 30
0.0
 11
17.37809276686233
 21
13.92439144662753
 31
0.0
  0
LINE
  5
A2E
330
1F
100
AcDbEntity
  8
SK2
  6
CONTINUOUS
370
25
 62
7
100
AcDbLine
 10
15.53680906440358
 20
12.50737181288072
 30
0.0
 11
17.02453937626905
 21
13.99510212474619
 31
0.0
  0
LINE
  5
A2F
330
1F
100
AcDbEntity
  8
SK2
  6
CONTINUOUS
370
25
 62
7
100
AcDbLine
 10
15.00647897851367
 20
12.40130579570273
 30
0.0
 11
16.67098598567578
 21
14.06581280286484
 31
0.0
  0
LINE
  5
A30
330
1F
100
AcDbEntity
  8
SK2
  6
CONTINUOUS
370
25
 62
7
100
AcDbLine
 10
15.0
 20
12.81909088590099
 30
0.0
 11
16.31743259508251
 21
14.1365234809835
 31
0.0
  0
LINE
  5
A31
330
1F
100
AcDbEntity
  8
SK2
  6
CONTINUOUS
370
25
 62
7
100
AcDbLine
 10
15.0
 20
13.24335495461292
 30
0.0
 11
15.96387920448924
 21
14.20723415910215
 31
0.0
  0
LINE
  5
A32
330
1F
100
AcDbEntity
  8
SK2
  6
CONTINUOUS
370
25
 62
7
100
AcDbLine
 10
15.0
 20
13.66761902332484
 30
0.0
 11
15.61032581389596
 21
14.27794483722081
 31
0.0
  0
LINE
  5
A33
330
1F
100
AcDbEntity
  8
SK2
  6
CONTINUOUS
370
25
 62
7
100
AcDbLine
 10
15.0
 20
14.09188309203677
 30
0.0
 11
15.25677242330269
 21
14.34865551533946
 31
0.0
  0
LINE
  5
A34
330
1F
100
AcDbEntity
  8
SK2
  6
CONTINUOUS
370
25
 62
7
100
AcDbLine
 10
15.0
 20
12.63675323681469
 30
0.0
 11
15.19728603067891
 21
12.43946720613578
 31
0.0
  0
LINE
  5
A35
330
1F
100
AcDbEntity
  8
SK2
  6
CONTINUOUS
370
25
 62
7
100
AcDbLine
 10
15.0
 20
13.06101730552662
 30
0.0
 11
15.55083942127218
 21
12.51017788425444
 31
0.0
  0
LINE
  5
A36
330
1F
100
AcDbEntity
  8
SK2
  6
CONTINUOUS
370
25
 62
7
100
AcDbLine
 10
15.0
 20
13.48528137423855
 30
0.0
 11
15.90439281186546
 21
12.58088856237309
 31
0.0
  0
LINE
  5
A37
330
1F
100
AcDbEntity
  8
SK2
  6
CONTINUOUS
370
25
 62
7
100
AcDbLine
 10
15.0
 20
13.90954544295047
 30
0.0
 11
16.25794620245873
 21
12.65159924049174
 31
0.0
  0
LINE
  5
A38
330
1F
100
AcDbEntity
  8
SK2
  6
CONTINUOUS
370
25
 62
7
100
AcDbLine
 10
15.0
 20
14.3338095116624
 30
0.0
 11
16.61149959305201
 21
12.7223099186104
 31
0.0
  0
LINE
  5
A39
330
1F
100
AcDbEntity
  8
SK2
  6
CONTINUOUS
370
25
 62
7
100
AcDbLine
 10
15.44757947546791
 20
14.31049410490642
 30
0.0
 11
16.96505298364528
 21
12.79302059672906
 31
0.0
  0
LINE
  5
A3A
330
1F
100
AcDbEntity
  8
SK2
  6
CONTINUOUS
370
25
 62
7
100
AcDbLine
 10
15.97790956135782
 20
14.20442808772843
 30
0.0
 11
17.31860637423855
 21
12.86373127484771
 31
0.0
  0
LINE
  5
A3B
330
1F
100
AcDbEntity
  8
SK2
  6
CONTINUOUS
370
25
 62
7
100
AcDbLine
 10
16.50823964724773
 20
14.09836207055045
 30
0.0
 11
17.67215976483182
 21
12.93444195296637
 31
0.0
  0
LINE
  5
A3C
330
1F
100
AcDbEntity
  8
SK2
  6
CONTINUOUS
370
25
 62
7
100
AcDbLine
 10
17.03856973313764
 20
13.99229605337247
 30
0.0
 11
18.02571315542509
 21
13.00515263108502
 31
0.0
  0
LINE
  5
A3D
330
1F
100
AcDbEntity
  8
SK2
  6
CONTINUOUS
370
25
 62
7
100
AcDbLine
 10
17.56889981902755
 20
13.88623003619449
 30
0.0
 11
18.37926654601837
 21
13.07586330920367
 31
0.0
  0
LINE
  5
A3E
330
1F
100
AcDbEntity
  8
SK2
  6
CONTINUOUS
370
25
 62
7
100
AcDbLine
 10
18.09922990491746
 20
13.78016401901651
 30
0.0
 11
18.73281993661164
 21
13.14657398732233
 31
0.0
  0
LINE
  5
A3F
330
1F
100
AcDbEntity
  8
SK2
  6
CONTINUOUS
370
25
 62
7
100
AcDbLine
 10
18.62955999080737
 20
13.67409800183852
 30
0.0
 11
19.08637332720492
 21
13.21728466544098
 31
0.0
  0
LINE
  5
A40
330
1F
100
AcDbEntity
  8
SK2
  6
CONTINUOUS
370
25
 62
7
100
AcDbLine
 10
19.15989007669728
 20
13.56803198466054
 30
0.0
 11
19.43992671779819
 21
13.28799534355964
 31
0.0
  0
LINE
  5
A41
330
1F
100
AcDbEntity
  8
SK2
  6
CONTINUOUS
370
25
 62
7
100
AcDbLine
 10
19.6902201625872
 20
13.46196596748256
 30
0.0
 11
19.79348010839146
 21
13.35870602167829
 31
0.0
  0
TEXT
  5
A42
330
1F
100
AcDbEntity
  8
SK2
  6
CONTINUOUS
370
25
 62
7
100
AcDbText
 10
7.374999999999999
 20
14.90001
 30
0.0
 40
3.500000000000001
  1
20
 72
     1
 11
10.0
 21
14.90001
 31
0.0
100
AcDbText
  0
LINE
  5
A43
330
1F
100
AcDbEntity
  8
SK2
  6
CONTINUOUS
370
25
 62
7
100
AcDbLine
 10
-22.0000002
 20
-1.400001
 30
0.0
 11
-23.00000000000009
 21
-1.400001
 31
0.0
  0
LINE
  5
A44
330
1F
100
AcDbEntity
  8
SK2
  6
CONTINUOUS
370
25
 62
7
100
AcDbLine
 10
-12.07
 20
-1.400001
 30
0.0
 11
-21.9999998
 21
-1.400001
 31
0.0
  0
LINE
  5
A45
330
1F
100
AcDbEntity
  8
SK2
  6
CONTINUOUS
370
25
 62
7
100
AcDbLine
 10
0.0
 20
-1.4
 30
0.0
 11
-11.93
 21
-1.4
 31
0.0
  0
LINE
  5
A46
330
1F
100
AcDbEntity
  8
SK2
  6
CONTINUOUS
370
25
 62
7
100
AcDbLine
 10
-23.0
 20
1.4
 30
0.0
 11
-12.07
 21
1.4
 31
0.0
  0
LINE
  5
A47
330
1F
100
AcDbEntity
  8
SK2
  6
CONTINUOUS
370
25
 62
7
100
AcDbLine
 10
-11.93
 20
1.4
 30
0.0
 11
0.0
 21
1.4
 31
0.0
  0
LINE
  5
A48
330
1F
100
AcDbEntity
  8
SK2
  6
CONTINUOUS
370
25
 62
7
100
AcDbLine
 10
-22.0
 20
-8.4
 30
0.0
 11
-22.0
 21
20.825
 31
0.0
  0
LINE
  5
A49
330
1F
100
AcDbEntity
  8
SK2
  6
CONTINUOUS
370
25
 62
7
100
AcDbLine
 10
-22.0
 20
-1.4
 30
0.0
 11
-21.0
 21
-6.4
 31
0.0
  0
LINE
  5
A4A
330
1F
100
AcDbEntity
  8
SK2
  6
CONTINUOUS
370
25
 62
7
100
AcDbLine
 10
-21.0
 20
-6.4
 30
0.0
 11
-23.0
 21
-6.4
 31
0.0
  0
LINE
  5
A4B
330
1F
100
AcDbEntity
  8
SK2
  6
CONTINUOUS
370
25
 62
7
100
AcDbLine
 10
-23.0
 20
-6.4
 30
0.0
 11
-22.0
 21
-1.4
 31
0.0
  0
LINE
  5
A4C
330
1F
100
AcDbEntity
  8
SK2
  6
CONTINUOUS
370
25
 62
7
100
AcDbLine
 10
-21.18965363437812
 20
-6.399999999999999
 30
0.0
 11
-21.03160893906303
 21
-6.241955304684907
 31
0.0
  0
LINE
  5
A4D
330
1F
100
AcDbEntity
  8
SK2
  6
CONTINUOUS
370
25
 62
7
100
AcDbLine
 10
-21.61391770309005
 20
-6.399999999999999
 30
0.0
 11
-21.10231961718168
 21
-5.888401914091631
 31
0.0
  0
LINE
  5
A4E
330
1F
100
AcDbEntity
  8
SK2
  6
CONTINUOUS
370
25
 62
7
100
AcDbLine
 10
-22.03818177180198
 20
-6.399999999999999
 30
0.0
 11
-21.17303029530034
 21
-5.534848523498354
 31
0.0
  0
LINE
  5
A4F
330
1F
100
AcDbEntity
  8
SK2
  6
CONTINUOUS
370
25
 62
7
100
AcDbLine
 10
-22.46244584051391
 20
-6.399999999999999
 30
0.0
 11
-21.24374097341899
 21
-5.181295132905078
 31
0.0
  0
LINE
  5
A50
330
1F
100
AcDbEntity
  8
SK2
  6
CONTINUOUS
370
25
 62
7
100
AcDbLine
 10
-22.88670990922584
 20
-6.399999999999999
 30
0.0
 11
-21.31445165153765
 21
-4.827741742311801
 31
0.0
  0
LINE
  5
A51
330
1F
100
AcDbEntity
  8
SK2
  6
CONTINUOUS
370
25
 62
7
100
AcDbLine
 10
-22.92225650551556
 20
-6.011282527577784
 30
0.0
 11
-21.3851623296563
 21
-4.474188351718524
 31
0.0
  0
LINE
  5
A52
330
1F
100
AcDbEntity
  8
SK2
  6
CONTINUOUS
370
25
 62
7
100
AcDbLine
 10
-22.81619048833758
 20
-5.480952441687869
 30
0.0
 11
-21.45587300777495
 21
-4.120634961125241
 31
0.0
  0
LINE
  5
A53
330
1F
100
AcDbEntity
  8
SK2
  6
CONTINUOUS
370
25
 62
7
100
AcDbLine
 10
-22.71012447115959
 20
-4.950622355797954
 30
0.0
 11
-21.52658368589361
 21
-3.767081570531971
 31
0.0
  0
LINE
  5
A54
330
1F
100
AcDbEntity
  8
SK2
  6
CONTINUOUS
370
25
 62
7
100
AcDbLine
 10
-22.60405845398161
 20
-4.420292269908039
 30
0.0
 11
-21.59729436401226
 21
-3.413528179938687
 31
0.0
  0
LINE
  5
A55
330
1F
100
AcDbEntity
  8
SK2
  6
CONTINUOUS
370
25
 62
7
100
AcDbLine
 10
-22.49799243680362
 20
-3.889962184018124
 30
0.0
 11
-21.66800504213091
 21
-3.059974789345418
 31
0.0
  0
LINE
  5
A56
330
1F
100
AcDbEntity
  8
SK2
  6
CONTINUOUS
370
25
 62
7
100
AcDbLine
 10
-22.39192641962564
 20
-3.359632098128209
 30
0.0
 11
-21.73871572024957
 21
-2.706421398752141
 31
0.0
  0
LINE
  5
A57
330
1F
100
AcDbEntity
  8
SK2
  6
CONTINUOUS
370
25
 62
7
100
AcDbLine
 10
-22.28586040244766
 20
-2.829302012238301
 30
0.0
 11
-21.80942639836822
 21
-2.352868008158865
 31
0.0
  0
LINE
  5
A58
330
1F
100
AcDbEntity
  8
SK2
  6
CONTINUOUS
370
25
 62
7
100
AcDbLine
 10
-22.17979438526967
 20
-2.298971926348379
 30
0.0
 11
-21.88013707648688
 21
-1.999314617565588
 31
0.0
  0
LINE
  5
A59
330
1F
100
AcDbEntity
  8
SK2
  6
CONTINUOUS
370
25
 62
7
100
AcDbLine
 10
-22.07372836809169
 20
-1.768641840458457
 30
0.0
 11
-21.95084775460554
 21
-1.645761226972311
 31
0.0
  0
LINE
  5
A5A
330
1F
100
AcDbEntity
  8
SK2
  6
CONTINUOUS
370
25
 62
7
100
AcDbLine
 10
-22.9776110358762
 20
-6.288055179381011
 30
0.0
 11
-22.86566621525721
 21
-6.399999999999999
 31
0.0
  0
LINE
  5
A5B
330
1F
100
AcDbEntity
  8
SK2
  6
CONTINUOUS
370
25
 62
7
100
AcDbLine
 10
-22.90690035775755
 20
-5.934501788787728
 30
0.0
 11
-22.44140214654528
 21
-6.399999999999999
 31
0.0
  0
LINE
  5
A5C
330
1F
100
AcDbEntity
  8
SK2
  6
CONTINUOUS
370
25
 62
7
100
AcDbLine
 10
-22.83618967963888
 20
-5.580948398194458
 30
0.0
 11
-22.01713807783334
 21
-6.399999999999999
 31
0.0
  0
LINE
  5
A5D
330
1F
100
AcDbEntity
  8
SK2
  6
CONTINUOUS
370
25
 62
7
100
AcDbLine
 10
-22.76547900152024
 20
-5.227395007601174
 30
0.0
 11
-21.59287400912142
 21
-6.399999999999999
 31
0.0
  0
LINE
  5
A5E
330
1F
100
AcDbEntity
  8
SK2
  6
CONTINUOUS
370
25
 62
7
100
AcDbLine
 10
-22.69476832340158
 20
-4.873841617007905
 30
0.0
 11
-21.16860994040948
 21
-6.399999999999999
 31
0.0
  0
LINE
  5
A5F
330
1F
100
AcDbEntity
  8
SK2
  6
CONTINUOUS
370
25
 62
7
100
AcDbLine
 10
-22.62405764528292
 20
-4.520288226414628
 30
0.0
 11
-21.06391353207561
 21
-6.080432339621943
 31
0.0
  0
LINE
  5
A60
330
1F
100
AcDbEntity
  8
SK2
  6
CONTINUOUS
370
25
 62
7
100
AcDbLine
 10
-22.55334696716427
 20
-4.166734835821345
 30
0.0
 11
-21.16997954925359
 21
-5.550102253732028
 31
0.0
  0
LINE
  5
A61
330
1F
100
AcDbEntity
  8
SK2
  6
CONTINUOUS
370
25
 62
7
100
AcDbLine
 10
-22.48263628904562
 20
-3.813181445228075
 30
0.0
 11
-21.27604556643157
 21
-5.01977216784212
 31
0.0
  0
LINE
  5
A62
330
1F
100
AcDbEntity
  8
SK2
  6
CONTINUOUS
370
25
 62
7
100
AcDbLine
 10
-22.41192561092696
 20
-3.459628054634798
 30
0.0
 11
-21.38211158360956
 21
-4.489442081952198
 31
0.0
  0
LINE
  5
A63
330
1F
100
AcDbEntity
  8
SK2
  6
CONTINUOUS
370
25
 62
7
100
AcDbLine
 10
-22.3412149328083
 20
-3.106074664041529
 30
0.0
 11
-21.48817760078755
 21
-3.959111996062269
 31
0.0
  0
LINE
  5
A64
330
1F
100
AcDbEntity
  8
SK2
  6
CONTINUOUS
370
25
 62
7
100
AcDbLine
 10
-22.27050425468965
 20
-2.752521273448252
 30
0.0
 11
-21.59424361796553
 21
-3.428781910172361
 31
0.0
  0
LINE
  5
A65
330
1F
100
AcDbEntity
  8
SK2
  6
CONTINUOUS
370
25
 62
7
100
AcDbLine
 10
-22.19979357657099
 20
-2.398967882854976
 30
0.0
 11
-21.70030963514352
 21
-2.898451824282446
 31
0.0
  0
LINE
  5
A66
330
1F
100
AcDbEntity
  8
SK2
  6
CONTINUOUS
370
25
 62
7
100
AcDbLine
 10
-22.12908289845234
 20
-2.045414492261692
 30
0.0
 11
-21.80637565232148
 21
-2.368121738392546
 31
0.0
  0
LINE
  5
A67
330
1F
100
AcDbEntity
  8
SK2
  6
CONTINUOUS
370
25
 62
7
100
AcDbLine
 10
-22.05837222033368
 20
-1.691861101668415
 30
0.0
 11
-21.91244166949947
 21
-1.837791652502624
 31
0.0
  0
LINE
  5
A68
330
1F
100
AcDbEntity
  8
SK2
  6
CONTINUOUS
370
25
 62
7
100
AcDbLine
 10
-22.0
 20
1.4
 30
0.0
 11
-23.0
 21
6.399999999999999
 31
0.0
  0
LINE
  5
A69
330
1F
100
AcDbEntity
  8
SK2
  6
CONTINUOUS
370
25
 62
7
100
AcDbLine
 10
-23.0
 20
6.399999999999999
 30
0.0
 11
-21.0
 21
6.399999999999999
 31
0.0
  0
LINE
  5
A6A
330
1F
100
AcDbEntity
  8
SK2
  6
CONTINUOUS
370
25
 62
7
100
AcDbLine
 10
-21.0
 20
6.399999999999999
 30
0.0
 11
-22.0
 21
1.4
 31
0.0
  0
LINE
  5
A6B
330
1F
100
AcDbEntity
  8
SK2
  6
CONTINUOUS
370
25
 62
7
100
AcDbLine
 10
-22.0498665128881
 20
1.64933256444052
 30
0.0
 11
-21.92520023066785
 21
1.773998846660774
 31
0.0
  0
LINE
  5
A6C
330
1F
100
AcDbEntity
  8
SK2
  6
CONTINUOUS
370
25
 62
7
100
AcDbLine
 10
-22.12057719100675
 20
2.002885955033797
 30
0.0
 11
-21.81913421348987
 21
2.304328932550682
 31
0.0
  0
LINE
  5
A6D
330
1F
100
AcDbEntity
  8
SK2
  6
CONTINUOUS
370
25
 62
7
100
AcDbLine
 10
-22.19128786912541
 20
2.356439345627074
 30
0.0
 11
-21.71306819631188
 21
2.834659018440604
 31
0.0
  0
LINE
  5
A6E
330
1F
100
AcDbEntity
  8
SK2
  6
CONTINUOUS
370
25
 62
7
100
AcDbLine
 10
-22.26199854724407
 20
2.709992736220343
 30
0.0
 11
-21.6070021791339
 21
3.364989104330512
 31
0.0
  0
LINE
  5
A6F
330
1F
100
AcDbEntity
  8
SK2
  6
CONTINUOUS
370
25
 62
7
100
AcDbLine
 10
-22.33270922536272
 20
3.063546126813627
 30
0.0
 11
-21.50093616195592
 21
3.895319190220427
 31
0.0
  0
LINE
  5
A70
330
1F
100
AcDbEntity
  8
SK2
  6
CONTINUOUS
370
25
 62
7
100
AcDbLine
 10
-22.40341990348137
 20
3.417099517406903
 30
0.0
 11
-21.39487014477794
 21
4.425649276110335
 31
0.0
  0
LINE
  5
A71
330
1F
100
AcDbEntity
  8
SK2
  6
CONTINUOUS
370
25
 62
7
100
AcDbLine
 10
-22.47413058160003
 20
3.77065290800018
 30
0.0
 11
-21.28880412759995
 21
4.955979362000257
 31
0.0
  0
LINE
  5
A72
330
1F
100
AcDbEntity
  8
SK2
  6
CONTINUOUS
370
25
 62
7
100
AcDbLine
 10
-22.54484125971869
 20
4.124206298593435
 30
0.0
 11
-21.18273811042197
 21
5.486309447890164
 31
0.0
  0
LINE
  5
A73
330
1F
100
AcDbEntity
  8
SK2
  6
CONTINUOUS
370
25
 62
7
100
AcDbLine
 10
-22.61555193783735
 20
4.477759689186719
 30
0.0
 11
-21.07667209324399
 21
6.016639533780079
 31
0.0
  0
LINE
  5
A74
330
1F
100
AcDbEntity
  8
SK2
  6
CONTINUOUS
370
25
 62
7
100
AcDbLine
 10
-22.686262615956
 20
4.831313079779996
 30
0.0
 11
-21.117575695736
 21
6.399999999999999
 31
0.0
  0
LINE
  5
A75
330
1F
100
AcDbEntity
  8
SK2
  6
CONTINUOUS
370
25
 62
7
100
AcDbLine
 10
-22.75697329407465
 20
5.184866470373272
 30
0.0
 11
-21.54183976444793
 21
6.399999999999999
 31
0.0
  0
LINE
  5
A76
330
1F
100
AcDbEntity
  8
SK2
  6
CONTINUOUS
370
25
 62
7
100
AcDbLine
 10
-22.82768397219331
 20
5.538419860966556
 30
0.0
 11
-21.96610383315987
 21
6.399999999999999
 31
0.0
  0
LINE
  5
A77
330
1F
100
AcDbEntity
  8
SK2
  6
CONTINUOUS
370
25
 62
7
100
AcDbLine
 10
-22.89839465031196
 20
5.891973251559833
 30
0.0
 11
-22.3903679018718
 21
6.399999999999999
 31
0.0
  0
LINE
  5
A78
330
1F
100
AcDbEntity
  8
SK2
  6
CONTINUOUS
370
25
 62
7
100
AcDbLine
 10
-22.96910532843063
 20
6.245526642153102
 30
0.0
 11
-22.81463197058373
 21
6.399999999999999
 31
0.0
  0
LINE
  5
A79
330
1F
100
AcDbEntity
  8
SK2
  6
CONTINUOUS
370
25
 62
7
100
AcDbLine
 10
-22.03652717133798
 20
1.582635856689926
 30
0.0
 11
-21.97564855244134
 21
1.521757237793288
 31
0.0
  0
LINE
  5
A7A
330
1F
100
AcDbEntity
  8
SK2
  6
CONTINUOUS
370
25
 62
7
100
AcDbLine
 10
-22.14259318851596
 20
2.112965942579834
 30
0.0
 11
-21.90493787432269
 21
1.875310628386565
 31
0.0
  0
LINE
  5
A7B
330
1F
100
AcDbEntity
  8
SK2
  6
CONTINUOUS
370
25
 62
7
100
AcDbLine
 10
-22.24865920569395
 20
2.643296028469756
 30
0.0
 11
-21.83422719620403
 21
2.228864018979841
 31
0.0
  0
LINE
  5
A7C
330
1F
100
AcDbEntity
  8
SK2
  6
CONTINUOUS
370
25
 62
7
100
AcDbLine
 10
-22.35472522287193
 20
3.173626114359664
 30
0.0
 11
-21.76351651808538
 21
2.582417409573118
 31
0.0
  0
LINE
  5
A7D
330
1F
100
AcDbEntity
  8
SK2
  6
CONTINUOUS
370
25
 62
7
100
AcDbLine
 10
-22.46079124004991
 20
3.703956200249579
 30
0.0
 11
-21.69280583996672
 21
2.935970800166395
 31
0.0
  0
LINE
  5
A7E
330
1F
100
AcDbEntity
  8
SK2
  6
CONTINUOUS
370
25
 62
7
100
AcDbLine
 10
-22.56685725722789
 20
4.234286286139501
 30
0.0
 11
-21.62209516184807
 21
3.289524190759671
 31
0.0
  0
LINE
  5
A7F
330
1F
100
AcDbEntity
  8
SK2
  6
CONTINUOUS
370
25
 62
7
100
AcDbLine
 10
-22.67292327440587
 20
4.764616372029408
 30
0.0
 11
-21.55138448372941
 21
3.643077581352948
 31
0.0
  0
LINE
  5
A80
330
1F
100
AcDbEntity
  8
SK2
  6
CONTINUOUS
370
25
 62
7
100
AcDbLine
 10
-22.77898929158386
 20
5.294946457919323
 30
0.0
 11
-21.48067380561076
 21
3.996630971946217
 31
0.0
  0
LINE
  5
A81
330
1F
100
AcDbEntity
  8
SK2
  6
CONTINUOUS
370
25
 62
7
100
AcDbLine
 10
-22.88505530876184
 20
5.825276543809238
 30
0.0
 11
-21.40996312749211
 21
4.350184362539508
 31
0.0
  0
LINE
  5
A82
330
1F
100
AcDbEntity
  8
SK2
  6
CONTINUOUS
370
25
 62
7
100
AcDbLine
 10
-22.99112132593982
 20
6.355606629699139
 30
0.0
 11
-21.33925244937345
 21
4.703737753132771
 31
0.0
  0
LINE
  5
A83
330
1F
100
AcDbEntity
  8
SK2
  6
CONTINUOUS
370
25
 62
7
100
AcDbLine
 10
-22.61125062752875
 20
6.399999999999999
 30
0.0
 11
-21.26854177125479
 21
5.057291143726047
 31
0.0
  0
LINE
  5
A84
330
1F
100
AcDbEntity
  8
SK2
  6
CONTINUOUS
370
25
 62
7
100
AcDbLine
 10
-22.18698655881681
 20
6.399999999999999
 30
0.0
 11
-21.19783109313613
 21
5.410844534319317
 31
0.0
  0
LINE
  5
A85
330
1F
100
AcDbEntity
  8
SK2
  6
CONTINUOUS
370
25
 62
7
100
AcDbLine
 10
-21.76272249010488
 20
6.399999999999999
 30
0.0
 11
-21.12712041501748
 21
5.764397924912601
 31
0.0
  0
LINE
  5
A86
330
1F
100
AcDbEntity
  8
SK2
  6
CONTINUOUS
370
25
 62
7
100
AcDbLine
 10
-21.33845842139294
 20
6.399999999999999
 30
0.0
 11
-21.05640973689883
 21
6.117951315505884
 31
0.0
  0
TEXT
  5
A87
330
1F
100
AcDbEntity
  8
SK2
  6
CONTINUOUS
370
25
 62
7
100
AcDbText
 10
-23.5
 20
12.3875
 30
0.0
 40
3.5
  1
2.8
 50
90.00000000000001
 72
     1
 11
-23.5
 21
15.8875
 31
0.0
100
AcDbText
  0
CIRCLE
  5
A88
330
1F
100
AcDbEntity
  8
SK2
  6
CONTINUOUS
370
25
 62
7
100
AcDbCircle
 10
-25.25
 20
9.412499999999998
 30
0.0
 40
1.4
  0
LINE
  5
A89
330
1F
100
AcDbEntity
  8
SK2
  6
CONTINUOUS
370
25
 62
7
100
AcDbLine
 10
-23.85
 20
8.0125
 30
0.0
 11
-26.65
 21
10.8125
 31
0.0
  0
LINE
  5
A8A
330
1F
100
AcDbEntity
  8
2
  6
CONTINUOUS
370
25
 62
7
100
AcDbLine
 10
20.0
 20
-1.4
 30
0.0
 11
20.0
 21
-14.40001
 31
0.0
  0
LINE
  5
A8B
330
1F
100
AcDbEntity
  8
2
  6
CONTINUOUS
370
25
 62
7
100
AcDbLine
 10
28.0
 20
-14.40001
 30
0.0
 11
28.0
 21
-1.4
 31
0.0
  0
LINE
  5
A8C
330
1F
100
AcDbEntity
  8
2
  6
CONTINUOUS
370
25
 62
7
100
AcDbLine
 10
13.0
 20
-13.40001
 30
0.0
 11
35.0
 21
-13.40001
 31
0.0
  0
LINE
  5
A8D
330
1F
100
AcDbEntity
  8
2
  6
CONTINUOUS
370
25
 62
7
100
AcDbLine
 10
20.0
 20
-13.40001
 30
0.0
 11
15.0
 21
-14.40001
 31
0.0
  0
LINE
  5
A8E
330
1F
100
AcDbEntity
  8
2
  6
CONTINUOUS
370
25
 62
7
100
AcDbLine
 10
15.0
 20
-14.40001
 30
0.0
 11
15.0
 21
-12.40001
 31
0.0
  0
LINE
  5
A8F
330
1F
100
AcDbEntity
  8
2
  6
CONTINUOUS
370
25
 62
7
100
AcDbLine
 10
15.0
 20
-12.40001
 30
0.0
 11
20.0
 21
-13.40001
 31
0.0
  0
LINE
  5
A90
330
1F
100
AcDbEntity
  8
2
  6
CONTINUOUS
370
25
 62
7
100
AcDbLine
 10
19.75850214026434
 20
-13.44830957194713
 30
0.0
 11
19.83900142684289
 21
-13.36781028536858
 31
0.0
  0
LINE
  5
A91
330
1F
100
AcDbEntity
  8
2
  6
CONTINUOUS
370
25
 62
7
100
AcDbLine
 10
19.22817205437443
 20
-13.55437558912512
 30
0.0
 11
19.48544803624962
 21
-13.29709960724992
 31
0.0
  0
LINE
  5
A92
330
1F
100
AcDbEntity
  8
2
  6
CONTINUOUS
370
25
 62
7
100
AcDbLine
 10
18.69784196848452
 20
-13.6604416063031
 30
0.0
 11
19.13189464565635
 21
-13.22638892913127
 31
0.0
  0
LINE
  5
A93
330
1F
100
AcDbEntity
  8
2
  6
CONTINUOUS
370
25
 62
7
100
AcDbLine
 10
18.1675118825946
 20
-13.76650762348108
 30
0.0
 11
18.77834125506307
 21
-13.15567825101261
 31
0.0
  0
LINE
  5
A94
330
1F
100
AcDbEntity
  8
2
  6
CONTINUOUS
370
25
 62
7
100
AcDbLine
 10
17.6371817967047
 20
-13.87257364065906
 30
0.0
 11
18.4247878644698
 21
-13.08496757289396
 31
0.0
  0
LINE
  5
A95
330
1F
100
AcDbEntity
  8
2
  6
CONTINUOUS
370
25
 62
7
100
AcDbLine
 10
17.10685171081479
 20
-13.97863965783704
 30
0.0
 11
18.07123447387652
 21
-13.0142568947753
 31
0.0
  0
LINE
  5
A96
330
1F
100
AcDbEntity
  8
2
  6
CONTINUOUS
370
25
 62
7
100
AcDbLine
 10
16.57652162492488
 20
-14.08470567501502
 30
0.0
 11
17.71768108328325
 21
-12.94354621665665
 31
0.0
  0
LINE
  5
A97
330
1F
100
AcDbEntity
  8
2
  6
CONTINUOUS
370
25
 62
7
100
AcDbLine
 10
16.04619153903496
 20
-14.19077169219301
 30
0.0
 11
17.36412769268998
 21
-12.87283553853799
 31
0.0
  0
LINE
  5
A98
330
1F
100
AcDbEntity
  8
2
  6
CONTINUOUS
370
25
 62
7
100
AcDbLine
 10
15.51586145314506
 20
-14.29683770937099
 30
0.0
 11
17.0105743020967
 21
-12.80212486041934
 31
0.0
  0
LINE
  5
A99
330
1F
100
AcDbEntity
  8
2
  6
CONTINUOUS
370
25
 62
7
100
AcDbLine
 10
15.0
 20
-14.38843509380412
 30
0.0
 11
16.65702091150343
 21
-12.73141418230069
 31
0.0
  0
LINE
  5
A9A
330
1F
100
AcDbEntity
  8
2
  6
CONTINUOUS
370
25
 62
7
100
AcDbLine
 10
15.0
 20
-13.96417102509219
 30
0.0
 11
16.30346752091016
 21
-12.66070350418203
 31
0.0
  0
LINE
  5
A9B
330
1F
100
AcDbEntity
  8
2
  6
CONTINUOUS
370
25
 62
7
100
AcDbLine
 10
15.0
 20
-13.53990695638026
 30
0.0
 11
15.94991413031688
 21
-12.58999282606338
 31
0.0
  0
LINE
  5
A9C
330
1F
100
AcDbEntity
  8
2
  6
CONTINUOUS
370
25
 62
7
100
AcDbLine
 10
15.0
 20
-13.11564288766833
 30
0.0
 11
15.59636073972361
 21
-12.51928214794472
 31
0.0
  0
LINE
  5
A9D
330
1F
100
AcDbEntity
  8
2
  6
CONTINUOUS
370
25
 62
7
100
AcDbLine
 10
15.0
 20
-12.69137881895641
 30
0.0
 11
15.24280734913034
 21
-12.44857146982607
 31
0.0
  0
LINE
  5
A9E
330
1F
100
AcDbEntity
  8
2
  6
CONTINUOUS
370
25
 62
7
100
AcDbLine
 10
15.0
 20
-14.38843509380413
 30
0.0
 11
15.00964575516323
 21
-14.39808084896735
 31
0.0
  0
LINE
  5
A9F
330
1F
100
AcDbEntity
  8
2
  6
CONTINUOUS
370
25
 62
7
100
AcDbLine
 10
15.0
 20
-13.9641710250922
 30
0.0
 11
15.3631991457565
 21
-14.3273701708487
 31
0.0
  0
LINE
  5
AA0
330
1F
100
AcDbEntity
  8
2
  6
CONTINUOUS
370
25
 62
7
100
AcDbLine
 10
15.0
 20
-13.53990695638027
 30
0.0
 11
15.71675253634977
 21
-14.25665949273004
 31
0.0
  0
LINE
  5
AA1
330
1F
100
AcDbEntity
  8
2
  6
CONTINUOUS
370
25
 62
7
100
AcDbLine
 10
15.0
 20
-13.11564288766835
 30
0.0
 11
16.07030592694305
 21
-14.18594881461139
 31
0.0
  0
LINE
  5
AA2
330
1F
100
AcDbEntity
  8
2
  6
CONTINUOUS
370
25
 62
7
100
AcDbLine
 10
15.0
 20
-12.69137881895642
 30
0.0
 11
16.42385931753632
 21
-14.11523813649274
 31
0.0
  0
LINE
  5
AA3
330
1F
100
AcDbEntity
  8
2
  6
CONTINUOUS
370
25
 62
7
100
AcDbLine
 10
15.16611906219439
 20
-12.43323381243888
 30
0.0
 11
16.7774127081296
 21
-14.04452745837408
 31
0.0
  0
LINE
  5
AA4
330
1F
100
AcDbEntity
  8
2
  6
CONTINUOUS
370
25
 62
7
100
AcDbLine
 10
15.69644914808429
 20
-12.53929982961686
 30
0.0
 11
17.13096609872287
 21
-13.97381678025543
 31
0.0
  0
LINE
  5
AA5
330
1F
100
AcDbEntity
  8
2
  6
CONTINUOUS
370
25
 62
7
100
AcDbLine
 10
16.22677923397421
 20
-12.64536584679484
 30
0.0
 11
17.48451948931614
 21
-13.90310610213677
 31
0.0
  0
LINE
  5
AA6
330
1F
100
AcDbEntity
  8
2
  6
CONTINUOUS
370
25
 62
7
100
AcDbLine
 10
16.75710931986412
 20
-12.75143186397282
 30
0.0
 11
17.83807287990941
 21
-13.83239542401812
 31
0.0
  0
LINE
  5
AA7
330
1F
100
AcDbEntity
  8
2
  6
CONTINUOUS
370
25
 62
7
100
AcDbLine
 10
17.28743940575403
 20
-12.85749788115081
 30
0.0
 11
18.19162627050268
 21
-13.76168474589946
 31
0.0
  0
LINE
  5
AA8
330
1F
100
AcDbEntity
  8
2
  6
CONTINUOUS
370
25
 62
7
100
AcDbLine
 10
17.81776949164394
 20
-12.96356389832879
 30
0.0
 11
18.54517966109596
 21
-13.69097406778081
 31
0.0
  0
LINE
  5
AA9
330
1F
100
AcDbEntity
  8
2
  6
CONTINUOUS
370
25
 62
7
100
AcDbLine
 10
18.34809957753385
 20
-13.06962991550677
 30
0.0
 11
18.89873305168923
 21
-13.62026338966215
 31
0.0
  0
LINE
  5
AAA
330
1F
100
AcDbEntity
  8
2
  6
CONTINUOUS
370
25
 62
7
100
AcDbLine
 10
18.87842966342376
 20
-13.17569593268475
 30
0.0
 11
19.25228644228251
 21
-13.5495527115435
 31
0.0
  0
LINE
  5
AAB
330
1F
100
AcDbEntity
  8
2
  6
CONTINUOUS
370
25
 62
7
100
AcDbLine
 10
19.40875974931367
 20
-13.28176194986273
 30
0.0
 11
19.60583983287578
 21
-13.47884203342484
 31
0.0
  0
LINE
  5
AAC
330
1F
100
AcDbEntity
  8
2
  6
CONTINUOUS
370
25
 62
7
100
AcDbLine
 10
19.93908983520358
 20
-13.38782796704072
 30
0.0
 11
19.95939322346905
 21
-13.40813135530619
 31
0.0
  0
LINE
  5
AAD
330
1F
100
AcDbEntity
  8
2
  6
CONTINUOUS
370
25
 62
7
100
AcDbLine
 10
28.0
 20
-13.40001
 30
0.0
 11
33.0
 21
-12.40001
 31
0.0
  0
LINE
  5
AAE
330
1F
100
AcDbEntity
  8
2
  6
CONTINUOUS
370
25
 62
7
100
AcDbLine
 10
33.0
 20
-12.40001
 30
0.0
 11
33.0
 21
-14.40001
 31
0.0
  0
LINE
  5
AAF
330
1F
100
AcDbEntity
  8
2
  6
CONTINUOUS
370
25
 62
7
100
AcDbLine
 10
33.0
 20
-14.40001
 30
0.0
 11
28.0
 21
-13.40001
 31
0.0
  0
LINE
  5
AB0
330
1F
100
AcDbEntity
  8
2
  6
CONTINUOUS
370
25
 62
7
100
AcDbLine
 10
32.93950649023122
 20
-14.38791129804624
 30
0.0
 11
33.0
 21
-14.32741778827747
 31
0.0
  0
LINE
  5
AB1
330
1F
100
AcDbEntity
  8
2
  6
CONTINUOUS
370
25
 62
7
100
AcDbLine
 10
32.58595309963795
 20
-14.31720061992759
 30
0.0
 11
33.0
 21
-13.90315371956554
 31
0.0
  0
LINE
  5
AB2
330
1F
100
AcDbEntity
  8
2
  6
CONTINUOUS
370
25
 62
7
100
AcDbLine
 10
32.23239970904469
 20
-14.24648994180894
 30
0.0
 11
33.0
 21
-13.47888965085362
 31
0.0
  0
LINE
  5
AB3
330
1F
100
AcDbEntity
  8
2
  6
CONTINUOUS
370
25
 62
7
100
AcDbLine
 10
31.87884631845141
 20
-14.17577926369028
 30
0.0
 11
33.0
 21
-13.05462558214169
 31
0.0
  0
LINE
  5
AB4
330
1F
100
AcDbEntity
  8
2
  6
CONTINUOUS
370
25
 62
7
100
AcDbLine
 10
31.52529292785814
 20
-14.10506858557163
 30
0.0
 11
33.0
 21
-12.63036151342976
 31
0.0
  0
LINE
  5
AB5
330
1F
100
AcDbEntity
  8
2
  6
CONTINUOUS
370
25
 62
7
100
AcDbLine
 10
31.17173953726486
 20
-14.03435790745297
 30
0.0
 11
32.75760930589729
 21
-12.44848813882054
 31
0.0
  0
LINE
  5
AB6
330
1F
100
AcDbEntity
  8
2
  6
CONTINUOUS
370
25
 62
7
100
AcDbLine
 10
30.81818614667159
 20
-13.96364722933432
 30
0.0
 11
32.22727922000738
 21
-12.55455415599852
 31
0.0
  0
LINE
  5
AB7
330
1F
100
AcDbEntity
  8
2
  6
CONTINUOUS
370
25
 62
7
100
AcDbLine
 10
30.46463275607832
 20
-13.89293655121566
 30
0.0
 11
31.69694913411747
 21
-12.66062017317651
 31
0.0
  0
LINE
  5
AB8
330
1F
100
AcDbEntity
  8
2
  6
CONTINUOUS
370
25
 62
7
100
AcDbLine
 10
30.11107936548504
 20
-13.82222587309701
 30
0.0
 11
31.16661904822756
 21
-12.76668619035449
 31
0.0
  0
LINE
  5
AB9
330
1F
100
AcDbEntity
  8
2
  6
CONTINUOUS
370
25
 62
7
100
AcDbLine
 10
29.75752597489177
 20
-13.75151519497835
 30
0.0
 11
30.63628896233765
 21
-12.87275220753247
 31
0.0
  0
LINE
  5
ABA
330
1F
100
AcDbEntity
  8
2
  6
CONTINUOUS
370
25
 62
7
100
AcDbLine
 10
29.40397258429849
 20
-13.6808045168597
 30
0.0
 11
30.10595887644774
 21
-12.97881822471045
 31
0.0
  0
LINE
  5
ABB
330
1F
100
AcDbEntity
  8
2
  6
CONTINUOUS
370
25
 62
7
100
AcDbLine
 10
29.05041919370522
 20
-13.61009383874104
 30
0.0
 11
29.57562879055783
 21
-13.08488424188843
 31
0.0
  0
LINE
  5
ABC
330
1F
100
AcDbEntity
  8
2
  6
CONTINUOUS
370
25
 62
7
100
AcDbLine
 10
28.69686580311195
 20
-13.53938316062239
 30
0.0
 11
29.04529870466792
 21
-13.19095025906642
 31
0.0
  0
LINE
  5
ABD
330
1F
100
AcDbEntity
  8
2
  6
CONTINUOUS
370
25
 62
7
100
AcDbLine
 10
28.34331241251868
 20
-13.46867248250373
 30
0.0
 11
28.51496861877801
 21
-13.2970162762444
 31
0.0
  0
LINE
  5
ABE
330
1F
100
AcDbEntity
  8
2
  6
CONTINUOUS
370
25
 62
7
100
AcDbLine
 10
28.11015081855155
 20
-13.37797983628969
 30
0.0
 11
28.16522622782731
 21
-13.43305524556546
 31
0.0
  0
LINE
  5
ABF
330
1F
100
AcDbEntity
  8
2
  6
CONTINUOUS
370
25
 62
7
100
AcDbLine
 10
28.46370420914482
 20
-13.30726915817104
 30
0.0
 11
28.69555631371723
 21
-13.53912126274345
 31
0.0
  0
LINE
  5
AC0
330
1F
100
AcDbEntity
  8
2
  6
CONTINUOUS
370
25
 62
7
100
AcDbLine
 10
28.81725759973809
 20
-13.23655848005238
 30
0.0
 11
29.22588639960713
 21
-13.64518727992143
 31
0.0
  0
LINE
  5
AC1
330
1F
100
AcDbEntity
  8
2
  6
CONTINUOUS
370
25
 62
7
100
AcDbLine
 10
29.17081099033136
 20
-13.16584780193373
 30
0.0
 11
29.75621648549705
 21
-13.75125329709941
 31
0.0
  0
LINE
  5
AC2
330
1F
100
AcDbEntity
  8
2
  6
CONTINUOUS
370
25
 62
7
100
AcDbLine
 10
29.52436438092464
 20
-13.09513712381507
 30
0.0
 11
30.28654657138696
 21
-13.85731931427739
 31
0.0
  0
LINE
  5
AC3
330
1F
100
AcDbEntity
  8
2
  6
CONTINUOUS
370
25
 62
7
100
AcDbLine
 10
29.87791777151791
 20
-13.02442644569642
 30
0.0
 11
30.81687665727686
 21
-13.96338533145537
 31
0.0
  0
LINE
  5
AC4
330
1F
100
AcDbEntity
  8
2
  6
CONTINUOUS
370
25
 62
7
100
AcDbLine
 10
30.23147116211118
 20
-12.95371576757776
 30
0.0
 11
31.34720674316678
 21
-14.06945134863335
 31
0.0
  0
LINE
  5
AC5
330
1F
100
AcDbEntity
  8
2
  6
CONTINUOUS
370
25
 62
7
100
AcDbLine
 10
30.58502455270445
 20
-12.88300508945911
 30
0.0
 11
31.87753682905669
 21
-14.17551736581134
 31
0.0
  0
LINE
  5
AC6
330
1F
100
AcDbEntity
  8
2
  6
CONTINUOUS
370
25
 62
7
100
AcDbLine
 10
30.93857794329773
 20
-12.81229441134045
 30
0.0
 11
32.4078669149466
 21
-14.28158338298932
 31
0.0
  0
LINE
  5
AC7
330
1F
100
AcDbEntity
  8
2
  6
CONTINUOUS
370
25
 62
7
100
AcDbLine
 10
31.292131333891
 20
-12.7415837332218
 30
0.0
 11
32.93819700083651
 21
-14.3876494001673
 31
0.0
  0
LINE
  5
AC8
330
1F
100
AcDbEntity
  8
2
  6
CONTINUOUS
370
25
 62
7
100
AcDbLine
 10
31.64568472448428
 20
-12.67087305510314
 30
0.0
 11
33.0
 21
-14.02518833061887
 31
0.0
  0
LINE
  5
AC9
330
1F
100
AcDbEntity
  8
2
  6
CONTINUOUS
370
25
 62
7
100
AcDbLine
 10
31.99923811507755
 20
-12.60016237698449
 30
0.0
 11
33.0
 21
-13.60092426190694
 31
0.0
  0
LINE
  5
ACA
330
1F
100
AcDbEntity
  8
2
  6
CONTINUOUS
370
25
 62
7
100
AcDbLine
 10
32.35279150567082
 20
-12.52945169886584
 30
0.0
 11
33.0
 21
-13.17666019319501
 31
0.0
  0
LINE
  5
ACB
330
1F
100
AcDbEntity
  8
2
  6
CONTINUOUS
370
25
 62
7
100
AcDbLine
 10
32.7063448962641
 20
-12.45874102074718
 30
0.0
 11
33.0
 21
-12.75239612448308
 31
0.0
  0
TEXT
  5
ACC
330
1F
100
AcDbEntity
  8
2
  6
CONTINUOUS
370
25
 62
7
100
AcDbText
 10
22.83333333333333
 20
-11.90001
 30
0.0
 40
3.5
  1
8
 72
     1
 11
24.0
 21
-11.90001
 31
0.0
100
AcDbText
  0
LINE
  5
ACD
330
1F
100
AcDbEntity
  8
SK2
  6
CONTINUOUS
370
25
 62
7
100
AcDbLine
 10
0.0
 20
-1.05
 30
0.0
 11
-13.0
 21
-1.05
 31
0.0
  0
LINE
  5
ACE
330
1F
100
AcDbEntity
  8
SK2
  6
CONTINUOUS
370
25
 62
7
100
AcDbLine
 10
-13.0
 20
1.05
 30
0.0
 11
0.0
 21
1.05
 31
0.0
  0
LINE
  5
ACF
330
1F
100
AcDbEntity
  8
SK2
  6
CONTINUOUS
370
25
 62
7
100
AcDbLine
 10
-12.0
 20
-8.05
 30
0.0
 11
-12.0
 21
20.475
 31
0.0
  0
LINE
  5
AD0
330
1F
100
AcDbEntity
  8
SK2
  6
CONTINUOUS
370
25
 62
7
100
AcDbLine
 10
-12.0
 20
-1.05
 30
0.0
 11
-11.0
 21
-6.050000000000001
 31
0.0
  0
LINE
  5
AD1
330
1F
100
AcDbEntity
  8
SK2
  6
CONTINUOUS
370
25
 62
7
100
AcDbLine
 10
-11.0
 20
-6.050000000000001
 30
0.0
 11
-13.0
 21
-6.050000000000001
 31
0.0
  0
LINE
  5
AD2
330
1F
100
AcDbEntity
  8
SK2
  6
CONTINUOUS
370
25
 62
7
100
AcDbLine
 10
-13.0
 20
-6.050000000000001
 30
0.0
 11
-12.0
 21
-1.05
 31
0.0
  0
LINE
  5
AD3
330
1F
100
AcDbEntity
  8
SK2
  6
CONTINUOUS
370
25
 62
7
100
AcDbLine
 10
-11.08158005400374
 20
-6.050000000000001
 30
0.0
 11
-11.0135966756673
 21
-5.982016621663558
 31
0.0
  0
LINE
  5
AD4
330
1F
100
AcDbEntity
  8
SK2
  6
CONTINUOUS
370
25
 62
7
100
AcDbLine
 10
-11.50584412271567
 20
-6.050000000000001
 30
0.0
 11
-11.08430735378595
 21
-5.628463231070278
 31
0.0
  0
LINE
  5
AD5
330
1F
100
AcDbEntity
  8
SK2
  6
CONTINUOUS
370
25
 62
7
100
AcDbLine
 10
-11.93010819142761
 20
-6.050000000000001
 30
0.0
 11
-11.1550180319046
 21
-5.274909840476997
 31
0.0
  0
LINE
  5
AD6
330
1F
100
AcDbEntity
  8
SK2
  6
CONTINUOUS
370
25
 62
7
100
AcDbLine
 10
-12.35437226013953
 20
-6.050000000000001
 30
0.0
 11
-11.22572871002326
 21
-4.921356449883731
 31
0.0
  0
LINE
  5
AD7
330
1F
100
AcDbEntity
  8
SK2
  6
CONTINUOUS
370
25
 62
7
100
AcDbLine
 10
-12.77863632885146
 20
-6.049999999999997
 30
0.0
 11
-11.29643938814192
 21
-4.567803059290455
 31
0.0
  0
LINE
  5
AD8
330
1F
100
AcDbEntity
  8
SK2
  6
CONTINUOUS
370
25
 62
7
100
AcDbLine
 10
-12.94927490060915
 20
-5.796374503045758
 30
0.0
 11
-11.36715006626057
 21
-4.214249668697182
 31
0.0
  0
LINE
  5
AD9
330
1F
100
AcDbEntity
  8
SK2
  6
CONTINUOUS
370
25
 62
7
100
AcDbLine
 10
-12.84320888343116
 20
-5.266044417155832
 30
0.0
 11
-11.43786074437923
 21
-3.860696278103905
 31
0.0
  0
LINE
  5
ADA
330
1F
100
AcDbEntity
  8
SK2
  6
CONTINUOUS
370
25
 62
7
100
AcDbLine
 10
-12.73714286625319
 20
-4.735714331265935
 30
0.0
 11
-11.50857142249788
 21
-3.507142887510632
 31
0.0
  0
LINE
  5
ADB
330
1F
100
AcDbEntity
  8
SK2
  6
CONTINUOUS
370
25
 62
7
100
AcDbLine
 10
-12.63107684907521
 20
-4.205384245376031
 30
0.0
 11
-11.57928210061653
 21
-3.153589496917352
 31
0.0
  0
LINE
  5
ADC
330
1F
100
AcDbEntity
  8
SK2
  6
CONTINUOUS
370
25
 62
7
100
AcDbLine
 10
-12.52501083189722
 20
-3.675054159486113
 30
0.0
 11
-11.64999277873519
 21
-2.800036106324079
 31
0.0
  0
LINE
  5
ADD
330
1F
100
AcDbEntity
  8
SK2
  6
CONTINUOUS
370
25
 62
7
100
AcDbLine
 10
-12.41894481471924
 20
-3.144724073596201
 30
0.0
 11
-11.72070345685384
 21
-2.446482715730802
 31
0.0
  0
LINE
  5
ADE
330
1F
100
AcDbEntity
  8
SK2
  6
CONTINUOUS
370
25
 62
7
100
AcDbLine
 10
-12.31287879754125
 20
-2.614393987706283
 30
0.0
 11
-11.7914141349725
 21
-2.092929325137533
 31
0.0
  0
LINE
  5
ADF
330
1F
100
AcDbEntity
  8
SK2
  6
CONTINUOUS
370
25
 62
7
100
AcDbLine
 10
-12.20681278036328
 20
-2.084063901816386
 30
0.0
 11
-11.86212481309115
 21
-1.739375934544256
 31
0.0
  0
LINE
  5
AE0
330
1F
100
AcDbEntity
  8
SK2
  6
CONTINUOUS
370
25
 62
7
100
AcDbLine
 10
-12.1007467631853
 20
-1.553733815926481
 30
0.0
 11
-11.9328354912098
 21
-1.385822543950983
 31
0.0
  0
LINE
  5
AE1
330
1F
100
AcDbEntity
  8
SK2
  6
CONTINUOUS
370
25
 62
7
100
AcDbLine
 10
-12.94966731072392
 20
-5.798336553619571
 30
0.0
 11
-12.69800386434348
 21
-6.050000000000004
 31
0.0
  0
LINE
  5
AE2
330
1F
100
AcDbEntity
  8
SK2
  6
CONTINUOUS
370
25
 62
7
100
AcDbLine
 10
-12.87895663260526
 20
-5.444783163026301
 30
0.0
 11
-12.27373979563156
 21
-6.049999999999997
 31
0.0
  0
LINE
  5
AE3
330
1F
100
AcDbEntity
  8
SK2
  6
CONTINUOUS
370
25
 62
7
100
AcDbLine
 10
-12.8082459544866
 20
-5.091229772433024
 30
0.0
 11
-11.84947572691962
 21
-6.050000000000001
 31
0.0
  0
LINE
  5
AE4
330
1F
100
AcDbEntity
  8
SK2
  6
CONTINUOUS
370
25
 62
7
100
AcDbLine
 10
-12.73753527636794
 20
-4.737676381839755
 30
0.0
 11
-11.4252116582077
 21
-6.050000000000001
 31
0.0
  0
LINE
  5
AE5
330
1F
100
AcDbEntity
  8
SK2
  6
CONTINUOUS
370
25
 62
7
100
AcDbLine
 10
-12.66682459824929
 20
-4.384122991246478
 30
0.0
 11
-11.00094758949577
 21
-6.050000000000001
 31
0.0
  0
LINE
  5
AE6
330
1F
100
AcDbEntity
  8
SK2
  6
CONTINUOUS
370
25
 62
7
100
AcDbLine
 10
-12.59611392013064
 20
-4.030569600653202
 30
0.0
 11
-11.10582911980404
 21
-5.520854400979804
 31
0.0
  0
LINE
  5
AE7
330
1F
100
AcDbEntity
  8
SK2
  6
CONTINUOUS
370
25
 62
7
100
AcDbLine
 10
-12.52540324201198
 20
-3.677016210059925
 30
0.0
 11
-11.21189513698203
 21
-4.990524315089885
 31
0.0
  0
LINE
  5
AE8
330
1F
100
AcDbEntity
  8
SK2
  6
CONTINUOUS
370
25
 62
7
100
AcDbLine
 10
-12.45469256389332
 20
-3.323462819466656
 30
0.0
 11
-11.31796115416001
 21
-4.460194229199974
 31
0.0
  0
LINE
  5
AE9
330
1F
100
AcDbEntity
  8
SK2
  6
CONTINUOUS
370
25
 62
7
100
AcDbLine
 10
-12.38398188577467
 20
-2.969909428873372
 30
0.0
 11
-11.42402717133799
 21
-3.929864143310059
 31
0.0
  0
LINE
  5
AEA
330
1F
100
AcDbEntity
  8
SK2
  6
CONTINUOUS
370
25
 62
7
100
AcDbLine
 10
-12.31327120765602
 20
-2.616356038280088
 30
0.0
 11
-11.53009318851597
 21
-3.399534057420141
 31
0.0
  0
LINE
  5
AEB
330
1F
100
AcDbEntity
  8
SK2
  6
CONTINUOUS
370
25
 62
7
100
AcDbLine
 10
-12.24256052953736
 20
-2.262802647686826
 30
0.0
 11
-11.63615920569396
 21
-2.869203971530233
 31
0.0
  0
LINE
  5
AEC
330
1F
100
AcDbEntity
  8
SK2
  6
CONTINUOUS
370
25
 62
7
100
AcDbLine
 10
-12.17184985141871
 20
-1.909249257093549
 30
0.0
 11
-11.74222522287194
 21
-2.338873885640318
 31
0.0
  0
LINE
  5
AED
330
1F
100
AcDbEntity
  8
SK2
  6
CONTINUOUS
370
25
 62
7
100
AcDbLine
 10
-12.10113917330005
 20
-1.55569586650028
 30
0.0
 11
-11.84829124004992
 21
-1.808543799750403
 31
0.0
  0
LINE
  5
AEE
330
1F
100
AcDbEntity
  8
SK2
  6
CONTINUOUS
370
25
 62
7
100
AcDbLine
 10
-12.0304284951814
 20
-1.202142475906996
 30
0.0
 11
-11.9543572572279
 21
-1.278213713860488
 31
0.0
  0
LINE
  5
AEF
330
1F
100
AcDbEntity
  8
SK2
  6
CONTINUOUS
370
25
 62
7
100
AcDbLine
 10
-12.0
 20
1.05
 30
0.0
 11
-13.0
 21
6.05
 31
0.0
  0
LINE
  5
AF0
330
1F
100
AcDbEntity
  8
SK2
  6
CONTINUOUS
370
25
 62
7
100
AcDbLine
 10
-13.0
 20
6.05
 30
0.0
 11
-11.0
 21
6.05
 31
0.0
  0
LINE
  5
AF1
330
1F
100
AcDbEntity
  8
SK2
  6
CONTINUOUS
370
25
 62
7
100
AcDbLine
 10
-11.0
 20
6.05
 30
0.0
 11
-12.0
 21
1.05
 31
0.0
  0
LINE
  5
AF2
330
1F
100
AcDbEntity
  8
SK2
  6
CONTINUOUS
370
25
 62
7
100
AcDbLine
 10
-12.00709955992173
 20
1.085497799608667
 30
0.0
 11
-11.9893506601174
 21
1.103246699412999
 31
0.0
  0
LINE
  5
AF3
330
1F
100
AcDbEntity
  8
SK2
  6
CONTINUOUS
370
25
 62
7
100
AcDbLine
 10
-12.07781023804039
 20
1.439051190201937
 30
0.0
 11
-11.88328464293942
 21
1.633576785302914
 31
0.0
  0
LINE
  5
AF4
330
1F
100
AcDbEntity
  8
SK2
  6
CONTINUOUS
370
25
 62
7
100
AcDbLine
 10
-12.14852091615904
 20
1.792604580795228
 30
0.0
 11
-11.77721862576144
 21
2.163906871192832
 31
0.0
  0
LINE
  5
AF5
330
1F
100
AcDbEntity
  8
SK2
  6
CONTINUOUS
370
25
 62
7
100
AcDbLine
 10
-12.21923159427769
 20
2.146157971388497
 30
0.0
 11
-11.67115260858346
 21
2.69423695708273
 31
0.0
  0
LINE
  5
AF6
330
1F
100
AcDbEntity
  8
SK2
  6
CONTINUOUS
370
25
 62
7
100
AcDbLine
 10
-12.28994227239635
 20
2.499711361981767
 30
0.0
 11
-11.56508659140547
 21
3.224567042972645
 31
0.0
  0
LINE
  5
AF7
330
1F
100
AcDbEntity
  8
SK2
  6
CONTINUOUS
370
25
 62
7
100
AcDbLine
 10
-12.360652950515
 20
2.853264752575051
 30
0.0
 11
-11.45902057422749
 21
3.754897128862552
 31
0.0
  0
LINE
  5
AF8
330
1F
100
AcDbEntity
  8
SK2
  6
CONTINUOUS
370
25
 62
7
100
AcDbLine
 10
-12.43136362863366
 20
3.20681814316832
 30
0.0
 11
-11.35295455704951
 21
4.285227214752467
 31
0.0
  0
LINE
  5
AF9
330
1F
100
AcDbEntity
  8
SK2
  6
CONTINUOUS
370
25
 62
7
100
AcDbLine
 10
-12.50207430675231
 20
3.56037153376159
 30
0.0
 11
-11.24688853987153
 21
4.815557300642372
 31
0.0
  0
LINE
  5
AFA
330
1F
100
AcDbEntity
  8
SK2
  6
CONTINUOUS
370
25
 62
7
100
AcDbLine
 10
-12.57278498487097
 20
3.913924924354866
 30
0.0
 11
-11.14082252269354
 21
5.345887386532286
 31
0.0
  0
LINE
  5
AFB
330
1F
100
AcDbEntity
  8
SK2
  6
CONTINUOUS
370
25
 62
7
100
AcDbLine
 10
-12.64349566298962
 20
4.267478314948143
 30
0.0
 11
-11.03475650551557
 21
5.876217472422187
 31
0.0
  0
LINE
  5
AFC
330
1F
100
AcDbEntity
  8
SK2
  6
CONTINUOUS
370
25
 62
7
100
AcDbLine
 10
-12.71420634110828
 20
4.621031705541419
 30
0.0
 11
-11.28523804664969
 21
6.050000000000001
 31
0.0
  0
LINE
  5
AFD
330
1F
100
AcDbEntity
  8
SK2
  6
CONTINUOUS
370
25
 62
7
100
AcDbLine
 10
-12.78491701922693
 20
4.974585096134696
 30
0.0
 11
-11.70950211536162
 21
6.050000000000001
 31
0.0
  0
LINE
  5
AFE
330
1F
100
AcDbEntity
  8
SK2
  6
CONTINUOUS
370
25
 62
7
100
AcDbLine
 10
-12.85562769734559
 20
5.328138486727958
 30
0.0
 11
-12.13376618407355
 21
6.049999999999997
 31
0.0
  0
LINE
  5
AFF
330
1F
100
AcDbEntity
  8
SK2
  6
CONTINUOUS
370
25
 62
7
100
AcDbLine
 10
-12.92633837546424
 20
5.681691877321242
 30
0.0
 11
-12.55803025278548
 21
6.049999999999997
 31
0.0
  0
LINE
  5
B00
330
1F
100
AcDbEntity
  8
SK2
  6
CONTINUOUS
370
25
 62
7
100
AcDbLine
 10
-12.9970490535829
 20
6.035245267914505
 30
0.0
 11
-12.98229432149741
 21
6.049999999999997
 31
0.0
  0
LINE
  5
B01
330
1F
100
AcDbEntity
  8
SK2
  6
CONTINUOUS
370
25
 62
7
100
AcDbLine
 10
-12.0095087762444
 20
1.097543881221981
 30
0.0
 11
-11.99366081583707
 21
1.081695920814656
 31
0.0
  0
LINE
  5
B02
330
1F
100
AcDbEntity
  8
SK2
  6
CONTINUOUS
370
25
 62
7
100
AcDbLine
 10
-12.11557479342238
 20
1.627873967111903
 30
0.0
 11
-11.92295013771841
 21
1.435249311407933
 31
0.0
  0
LINE
  5
B03
330
1F
100
AcDbEntity
  8
SK2
  6
CONTINUOUS
370
25
 62
7
100
AcDbLine
 10
-12.22164081060036
 20
2.158204053001814
 30
0.0
 11
-11.85223945959976
 21
1.78880270200121
 31
0.0
  0
LINE
  5
B04
330
1F
100
AcDbEntity
  8
SK2
  6
CONTINUOUS
370
25
 62
7
100
AcDbLine
 10
-12.32770682777834
 20
2.688534138891718
 30
0.0
 11
-11.78152878148111
 21
2.142356092594486
 31
0.0
  0
LINE
  5
B05
330
1F
100
AcDbEntity
  8
SK2
  6
CONTINUOUS
370
25
 62
7
100
AcDbLine
 10
-12.43377284495632
 20
3.218864224781633
 30
0.0
 11
-11.71081810336245
 21
2.495909483187763
 31
0.0
  0
LINE
  5
B06
330
1F
100
AcDbEntity
  8
SK2
  6
CONTINUOUS
370
25
 62
7
100
AcDbLine
 10
-12.53983886213431
 20
3.749194310671552
 30
0.0
 11
-11.64010742524379
 21
2.849462873781036
 31
0.0
  0
LINE
  5
B07
330
1F
100
AcDbEntity
  8
SK2
  6
CONTINUOUS
370
25
 62
7
100
AcDbLine
 10
-12.64590487931229
 20
4.279524396561463
 30
0.0
 11
-11.56939674712514
 21
3.203016264374313
 31
0.0
  0
LINE
  5
B08
330
1F
100
AcDbEntity
  8
SK2
  6
CONTINUOUS
370
25
 62
7
100
AcDbLine
 10
-12.75197089649027
 20
4.809854482451374
 30
0.0
 11
-11.49868606900649
 21
3.556569654967586
 31
0.0
  0
LINE
  5
B09
330
1F
100
AcDbEntity
  8
SK2
  6
CONTINUOUS
370
25
 62
7
100
AcDbLine
 10
-12.85803691366826
 20
5.3401845683413
 30
0.0
 11
-11.42797539088783
 21
3.910123045560859
 31
0.0
  0
LINE
  5
B0A
330
1F
100
AcDbEntity
  8
SK2
  6
CONTINUOUS
370
25
 62
7
100
AcDbLine
 10
-12.96410293084624
 20
5.870514654231211
 30
0.0
 11
-11.35726471276918
 21
4.263676436154139
 31
0.0
  0
LINE
  5
B0B
330
1F
100
AcDbEntity
  8
SK2
  6
CONTINUOUS
370
25
 62
7
100
AcDbLine
 10
-12.71932420790311
 20
6.049999999999997
 30
0.0
 11
-11.28655403465052
 21
4.617229826747405
 31
0.0
  0
LINE
  5
B0C
330
1F
100
AcDbEntity
  8
SK2
  6
CONTINUOUS
370
25
 62
7
100
AcDbLine
 10
-12.29506013919118
 20
6.050000000000001
 30
0.0
 11
-11.21584335653186
 21
4.970783217340681
 31
0.0
  0
LINE
  5
B0D
330
1F
100
AcDbEntity
  8
SK2
  6
CONTINUOUS
370
25
 62
7
100
AcDbLine
 10
-11.87079607047924
 20
6.050000000000001
 30
0.0
 11
-11.14513267841321
 21
5.324336607933969
 31
0.0
  0
LINE
  5
B0E
330
1F
100
AcDbEntity
  8
SK2
  6
CONTINUOUS
370
25
 62
7
100
AcDbLine
 10
-11.44653200176732
 20
6.050000000000001
 30
0.0
 11
-11.07442200029456
 21
5.677889998527235
 31
0.0
  0
LINE
  5
B0F
330
1F
100
AcDbEntity
  8
SK2
  6
CONTINUOUS
370
25
 62
7
100
AcDbLine
 10
-11.02226793305539
 20
6.050000000000001
 30
0.0
 11
-11.0037113221759
 21
6.031443389120508
 31
0.0
  0
TEXT
  5
B10
330
1F
100
AcDbEntity
  8
SK2
  6
CONTINUOUS
370
25
 62
7
100
AcDbText
 10
-13.5
 20
12.62083333333333
 30
0.0
 40
3.5
  1
2.1
 50
90.00000000000001
 72
     1
 11
-13.5
 21
15.5375
 31
0.0
100
AcDbText
  0
LINE
  5
B11
330
1F
100
AcDbEntity
  8
SK2
  6
CONTINUOUS
370
25
 62
7
100
AcDbLine
 10
-13.85
 20
7.662499999999997
 30
0.0
 11
-13.85
 21
10.4625
 31
0.0
  0
LINE
  5
B12
330
1F
100
AcDbEntity
  8
SK2
  6
CONTINUOUS
370
25
 62
7
100
AcDbLine
 10
-13.85
 20
10.4625
 30
0.0
 11
-16.65
 21
10.4625
 31
0.0
  0
LINE
  5
B13
330
1F
100
AcDbEntity
  8
SK2
  6
CONTINUOUS
370
25
 62
7
100
AcDbLine
 10
-16.65
 20
10.4625
 30
0.0
 11
-16.65
 21
7.662499999999997
 31
0.0
  0
LINE
  5
B14
330
1F
100
AcDbEntity
  8
SK2
  6
CONTINUOUS
370
25
 62
7
100
AcDbLine
 10
-16.65
 20
7.662499999999997
 30
0.0
 11
-13.85
 21
7.662499999999997
 31
0.0
  0
LINE
  5
B15
330
1F
100
AcDbEntity
  8
SK1
  6
CONTINUOUS
370
50
 62
4
100
AcDbLine
 10
20.0
 20
1.4
 30
0.0
 11
5.0
 21
1.4
 31
0.0
  0
LINE
  5
B16
330
1F
100
AcDbEntity
  8
SK1
  6
CONTINUOUS
370
50
 62
4
100
AcDbLine
 10
5.0
 20
1.4
 30
0.0
 11
5.0
 21
1.05
 31
0.0
  0
LINE
  5
B17
330
1F
100
AcDbEntity
  8
SK1
  6
CONTINUOUS
370
50
 62
4
100
AcDbLine
 10
5.0
 20
1.05
 30
0.0
 11
0.0
 21
1.05
 31
0.0
  0
LINE
  5
B18
330
1F
100
AcDbEntity
  8
SK1
  6
CONTINUOUS
370
50
 62
4
100
AcDbLine
 10
0.0
 20
1.05
 30
0.0
 11
0.0
 21
-1.05
 31
0.0
  0
LINE
  5
B19
330
1F
100
AcDbEntity
  8
SK1
  6
CONTINUOUS
370
50
 62
4
100
AcDbLine
 10
0.0
 20
-1.05
 30
0.0
 11
5.0
 21
-1.05
 31
0.0
  0
LINE
  5
B1A
330
1F
100
AcDbEntity
  8
SK1
  6
CONTINUOUS
370
50
 62
4
100
AcDbLine
 10
5.0
 20
-1.05
 30
0.0
 11
5.0
 21
-1.4
 31
0.0
  0
LINE
  5
B1B
330
1F
100
AcDbEntity
  8
SK1
  6
CONTINUOUS
370
50
 62
4
100
AcDbLine
 10
5.0
 20
-1.4
 30
0.0
 11
20.0
 21
-1.4
 31
0.0
  0
LINE
  5
B1C
330
1F
100
AcDbEntity
  8
SK1
  6
CONTINUOUS
370
50
 62
4
100
AcDbLine
 10
0.0
 20
0.9260129588726066
 30
0.0
 11
5.0
 21
0.9260129588726066
 31
0.0
  0
LINE
  5
B1D
330
1F
100
AcDbEntity
  8
SK1
  6
CONTINUOUS
370
50
 62
4
100
AcDbLine
 10
5.0
 20
0.9260129588726066
 30
0.0
 11
5.0
 21
-0.9260129588726066
 31
0.0
  0
LINE
  5
B1E
330
1F
100
AcDbEntity
  8
SK1
  6
CONTINUOUS
370
50
 62
4
100
AcDbLine
 10
5.0
 20
-0.9260129588726066
 30
0.0
 11
0.0
 21
-0.9260129588726066
 31
0.0
  0
LINE
  5
B1F
330
1F
100
AcDbEntity
  8
SK1
  6
CONTINUOUS
370
50
 62
4
100
AcDbLine
 10
0.1999999999999993
 20
1.05
 30
0.0
 11
0.1999999999999993
 21
0.9260129588726066
 31
0.0
  0
LINE
  5
B20
330
1F
100
AcDbEntity
  8
SK1
  6
CONTINUOUS
370
50
 62
4
100
AcDbLine
 10
0.1999999999999993
 20
-1.05
 30
0.0
 11
0.1999999999999993
 21
-0.9260129588726066
 31
0.0
  0
LINE
  5
B21
330
1F
100
AcDbEntity
  8
NOCUT
  6
CONTINUOUS
370
25
 62
7
100
AcDbLine
 10
20.0
 20
0.0
 30
0.0
 11
20.0
 21
1.4
 31
0.0
  0
LINE
  5
B22
330
1F
100
AcDbEntity
  8
NOCUT
  6
CONTINUOUS
370
25
 62
7
100
AcDbLine
 10
20.0
 20
1.4
 30
0.0
 11
28.0
 21
1.4
 31
0.0
  0
LINE
  5
B23
330
1F
100
AcDbEntity
  8
NOCUT
  6
CONTINUOUS
370
25
 62
7
100
AcDbLine
 10
28.0
 20
0.0
 30
0.0
 11
20.0
 21
0.0
 31
0.0
  0
LINE
  5
B24
330
1F
100
AcDbEntity
  8
CUT
  6
CONTINUOUS
370
25
 62
1
100
AcDbLine
 10
42.3
 20
0.705144285
 30
0.0
 11
44.96667208842272
 21
0.705144285
 31
0.0
  0
LINE
  5
B25
330
1F
100
AcDbEntity
  8
CUT
  6
CONTINUOUS
370
25
 62
1
100
AcDbLine
 10
44.96667208842272
 20
0.705144285
 30
0.0
 11
45.0
 21
0.78
 31
0.0
  0
LINE
  5
B26
330
1F
100
AcDbEntity
  8
CUT
  6
CONTINUOUS
370
25
 62
1
100
AcDbLine
 10
45.0
 20
0.78
 30
0.0
 11
44.0
 21
1.0
 31
0.0
  0
LINE
  5
B27
330
1F
100
AcDbEntity
  8
CUT
  6
CONTINUOUS
370
25
 62
1
100
AcDbLine
 10
44.0
 20
1.0
 30
0.0
 11
42.3
 21
1.0
 31
0.0
  0
LINE
  5
B28
330
1F
100
AcDbEntity
  8
CUT
  6
CONTINUOUS
370
25
 62
1
100
AcDbLine
 10
42.3
 20
1.0
 30
0.0
 11
42.3
 21
0.705144285
 31
0.0
  0
LINE
  5
B29
330
1F
100
AcDbEntity
  8
NOCUT
  6
CONTINUOUS
370
25
 62
7
100
AcDbLine
 10
28.0
 20
0.0
 30
0.0
 11
45.0
 21
0.0
 31
0.0
  0
LINE
  5
B2A
330
1F
100
AcDbEntity
  8
NOCUT
  6
CONTINUOUS
370
25
 62
7
100
AcDbLine
 10
45.0
 20
0.0
 30
0.0
 11
45.0
 21
0.78
 31
0.0
  0
LINE
  5
B2B
330
1F
100
AcDbEntity
  8
NOCUT
  6
CONTINUOUS
370
25
 62
7
100
AcDbLine
 10
45.0
 20
0.78
 30
0.0
 11
44.96667208842272
 21
0.705144285
 31
0.0
  0
LINE
  5
B2C
330
1F
100
AcDbEntity
  8
NOCUT
  6
CONTINUOUS
370
25
 62
7
100
AcDbLine
 10
44.96667208842272
 20
0.705144285
 30
0.0
 11
42.3
 21
0.705144285
 31
0.0
  0
LINE
  5
B2D
330
1F
100
AcDbEntity
  8
NOCUT
  6
CONTINUOUS
370
25
 62
7
100
AcDbLine
 10
42.3
 20
0.705144285
 30
0.0
 11
42.3
 21
1.0
 31
0.0
  0
LINE
  5
B2E
330
1F
100
AcDbEntity
  8
NOCUT
  6
CONTINUOUS
370
25
 62
7
100
AcDbLine
 10
42.3
 20
1.0
 30
0.0
 11
42.12679491924311
 21
0.7
 31
0.0
  0
LINE
  5
B2F
330
1F
100
AcDbEntity
  8
NOCUT
  6
CONTINUOUS
370
25
 62
7
100
AcDbLine
 10
42.12679491924311
 20
0.7
 30
0.0
 11
33.1
 21
0.7
 31
0.0
  0
LINE
  5
B30
330
1F
100
AcDbEntity
  8
NOCUT
  6
CONTINUOUS
370
25
 62
7
100
AcDbLine
 10
33.1
 20
0.7
 30
0.0
 11
28.0
 21
1.4
 31
0.0
  0
LINE
  5
B31
330
1F
100
AcDbEntity
  8
2
  6
CONTINUOUS
370
25
 62
7
100
AcDbLine
 10
44.0
 20
-0.9999999999999999
 30
0.0
 11
73.0
 21
-1.000000000000003
 31
0.0
  0
LINE
  5
B32
330
1F
100
AcDbEntity
  8
2
  6
CONTINUOUS
370
25
 62
7
100
AcDbLine
 10
73.0
 20
0.9999999999999968
 30
0.0
 11
44.0
 21
1.0
 31
0.0
  0
LINE
  5
B33
330
1F
100
AcDbEntity
  8
2
  6
CONTINUOUS
370
25
 62
7
100
AcDbLine
 10
72.0
 20
-8.000000000000004
 30
0.0
 11
72.0
 21
13.95
 31
0.0
  0
LINE
  5
B34
330
1F
100
AcDbEntity
  8
2
  6
CONTINUOUS
370
25
 62
7
100
AcDbLine
 10
72.0
 20
-1.000000000000003
 30
0.0
 11
73.0
 21
-6.000000000000004
 31
0.0
  0
LINE
  5
B35
330
1F
100
AcDbEntity
  8
2
  6
CONTINUOUS
370
25
 62
7
100
AcDbLine
 10
73.0
 20
-6.000000000000004
 30
0.0
 11
71.0
 21
-6.000000000000004
 31
0.0
  0
LINE
  5
B36
330
1F
100
AcDbEntity
  8
2
  6
CONTINUOUS
370
25
 62
7
100
AcDbLine
 10
71.0
 20
-6.000000000000004
 30
0.0
 11
72.0
 21
-1.000000000000003
 31
0.0
  0
LINE
  5
B37
330
1F
100
AcDbEntity
  8
2
  6
CONTINUOUS
370
25
 62
7
100
AcDbLine
 10
72.70759263488287
 20
-6.0
 30
0.0
 11
72.95126543914714
 21
-5.756327195735722
 31
0.0
  0
LINE
  5
B38
330
1F
100
AcDbEntity
  8
2
  6
CONTINUOUS
370
25
 62
7
100
AcDbLine
 10
72.28332856617092
 20
-6.0
 30
0.0
 11
72.88055476102849
 21
-5.402773805142438
 31
0.0
  0
LINE
  5
B39
330
1F
100
AcDbEntity
  8
2
  6
CONTINUOUS
370
25
 62
7
100
AcDbLine
 10
71.859064497459
 20
-6.000000000000007
 30
0.0
 11
72.80984408290985
 21
-5.049220414549161
 31
0.0
  0
LINE
  5
B3A
330
1F
100
AcDbEntity
  8
2
  6
CONTINUOUS
370
25
 62
7
100
AcDbLine
 10
71.43480042874708
 20
-6.0
 30
0.0
 11
72.73913340479118
 21
-4.695667023955892
 31
0.0
  0
LINE
  5
B3B
330
1F
100
AcDbEntity
  8
2
  6
CONTINUOUS
370
25
 62
7
100
AcDbLine
 10
71.01053636003513
 20
-6.0
 30
0.0
 11
72.66842272667253
 21
-4.342113633362608
 31
0.0
  0
LINE
  5
B3C
330
1F
100
AcDbEntity
  8
2
  6
CONTINUOUS
370
25
 62
7
100
AcDbLine
 10
71.1034319271692
 20
-5.482840364154001
 30
0.0
 11
72.59771204855386
 21
-3.988560242769346
 31
0.0
  0
LINE
  5
B3D
330
1F
100
AcDbEntity
  8
2
  6
CONTINUOUS
370
25
 62
7
100
AcDbLine
 10
71.20949794434719
 20
-4.952510278264079
 30
0.0
 11
72.52700137043522
 21
-3.635006852176062
 31
0.0
  0
LINE
  5
B3E
330
1F
100
AcDbEntity
  8
2
  6
CONTINUOUS
370
25
 62
7
100
AcDbLine
 10
71.31556396152517
 20
-4.422180192374164
 30
0.0
 11
72.45629069231656
 21
-3.281453461582778
 31
0.0
  0
LINE
  5
B3F
330
1F
100
AcDbEntity
  8
2
  6
CONTINUOUS
370
25
 62
7
100
AcDbLine
 10
71.42162997870315
 20
-3.891850106484256
 30
0.0
 11
72.3855800141979
 21
-2.927900070989509
 31
0.0
  0
LINE
  5
B40
330
1F
100
AcDbEntity
  8
2
  6
CONTINUOUS
370
25
 62
7
100
AcDbLine
 10
71.52769599588113
 20
-3.361520020594348
 30
0.0
 11
72.31486933607925
 21
-2.574346680396232
 31
0.0
  0
LINE
  5
B41
330
1F
100
AcDbEntity
  8
2
  6
CONTINUOUS
370
25
 62
7
100
AcDbLine
 10
71.63376201305911
 20
-2.831189934704426
 30
0.0
 11
72.24415865796058
 21
-2.220793289802963
 31
0.0
  0
LINE
  5
B42
330
1F
100
AcDbEntity
  8
2
  6
CONTINUOUS
370
25
 62
7
100
AcDbLine
 10
71.7398280302371
 20
-2.300859848814504
 30
0.0
 11
72.17344797984194
 21
-1.867239899209679
 31
0.0
  0
LINE
  5
B43
330
1F
100
AcDbEntity
  8
2
  6
CONTINUOUS
370
25
 62
7
100
AcDbLine
 10
71.84589404741509
 20
-1.770529762924596
 30
0.0
 11
72.10273730172328
 21
-1.513686508616402
 31
0.0
  0
LINE
  5
B44
330
1F
100
AcDbEntity
  8
2
  6
CONTINUOUS
370
25
 62
7
100
AcDbLine
 10
71.95196006459307
 20
-1.240199677034688
 30
0.0
 11
72.03202662360462
 21
-1.160133118023133
 31
0.0
  0
LINE
  5
B45
330
1F
100
AcDbEntity
  8
2
  6
CONTINUOUS
370
25
 62
7
100
AcDbLine
 10
71.06604255869605
 20
-5.669787206519722
 30
0.0
 11
71.39625535217633
 21
-6.0
 31
0.0
  0
LINE
  5
B46
330
1F
100
AcDbEntity
  8
2
  6
CONTINUOUS
370
25
 62
7
100
AcDbLine
 10
71.13675323681471
 20
-5.316233815926452
 30
0.0
 11
71.82051942088825
 21
-6.0
 31
0.0
  0
LINE
  5
B47
330
1F
100
AcDbEntity
  8
2
  6
CONTINUOUS
370
25
 62
7
100
AcDbLine
 10
71.20746391493336
 20
-4.962680425333176
 30
0.0
 11
72.2447834896002
 21
-6.0
 31
0.0
  0
LINE
  5
B48
330
1F
100
AcDbEntity
  8
2
  6
CONTINUOUS
370
25
 62
7
100
AcDbLine
 10
71.27817459305203
 20
-4.609127034739899
 30
0.0
 11
72.66904755831213
 21
-6.0
 31
0.0
  0
LINE
  5
B49
330
1F
100
AcDbEntity
  8
2
  6
CONTINUOUS
370
25
 62
7
100
AcDbLine
 10
71.34888527117067
 20
-4.255573644146629
 30
0.0
 11
72.97667209324399
 21
-5.883360466219926
 31
0.0
  0
LINE
  5
B4A
330
1F
100
AcDbEntity
  8
2
  6
CONTINUOUS
370
25
 62
7
100
AcDbLine
 10
71.41959594928933
 20
-3.902020253553346
 30
0.0
 11
72.870606076066
 21
-5.353030380330019
 31
0.0
  0
LINE
  5
B4B
330
1F
100
AcDbEntity
  8
2
  6
CONTINUOUS
370
25
 62
7
100
AcDbLine
 10
71.49030662740799
 20
-3.548466862960069
 30
0.0
 11
72.76454005888802
 21
-4.822700294440104
 31
0.0
  0
LINE
  5
B4C
330
1F
100
AcDbEntity
  8
2
  6
CONTINUOUS
370
25
 62
7
100
AcDbLine
 10
71.56101730552665
 20
-3.1949134723668
 30
0.0
 11
72.65847404171004
 21
-4.292370208550189
 31
0.0
  0
LINE
  5
B4D
330
1F
100
AcDbEntity
  8
2
  6
CONTINUOUS
370
25
 62
7
100
AcDbLine
 10
71.6317279836453
 20
-2.841360081773523
 30
0.0
 11
72.55240802453204
 21
-3.762040122660274
 31
0.0
  0
LINE
  5
B4E
330
1F
100
AcDbEntity
  8
2
  6
CONTINUOUS
370
25
 62
7
100
AcDbLine
 10
71.70243866176395
 20
-2.487806691180246
 30
0.0
 11
72.44634200735408
 21
-3.231710036770359
 31
0.0
  0
LINE
  5
B4F
330
1F
100
AcDbEntity
  8
2
  6
CONTINUOUS
370
25
 62
7
100
AcDbLine
 10
71.77314933988261
 20
-2.13425330058697
 30
0.0
 11
72.34027599017608
 21
-2.701379950880451
 31
0.0
  0
LINE
  5
B50
330
1F
100
AcDbEntity
  8
2
  6
CONTINUOUS
370
25
 62
7
100
AcDbLine
 10
71.84386001800127
 20
-1.780699909993693
 30
0.0
 11
72.23420997299812
 21
-2.171049864990543
 31
0.0
  0
LINE
  5
B51
330
1F
100
AcDbEntity
  8
2
  6
CONTINUOUS
370
25
 62
7
100
AcDbLine
 10
71.91457069611991
 20
-1.427146519400416
 30
0.0
 11
72.12814395582012
 21
-1.640719779100621
 31
0.0
  0
LINE
  5
B52
330
1F
100
AcDbEntity
  8
2
  6
CONTINUOUS
370
25
 62
7
100
AcDbLine
 10
71.98528137423858
 20
-1.073593128807147
 30
0.0
 11
72.02207793864214
 21
-1.110389693210713
 31
0.0
  0
LINE
  5
B53
330
1F
100
AcDbEntity
  8
2
  6
CONTINUOUS
370
25
 62
7
100
AcDbLine
 10
72.0
 20
0.9999999999999969
 30
0.0
 11
71.0
 21
5.999999999999996
 31
0.0
  0
LINE
  5
B54
330
1F
100
AcDbEntity
  8
2
  6
CONTINUOUS
370
25
 62
7
100
AcDbLine
 10
71.0
 20
5.999999999999996
 30
0.0
 11
73.0
 21
5.999999999999996
 31
0.0
  0
LINE
  5
B55
330
1F
100
AcDbEntity
  8
2
  6
CONTINUOUS
370
25
 62
7
100
AcDbLine
 10
73.0
 20
5.999999999999996
 30
0.0
 11
72.0
 21
0.9999999999999969
 31
0.0
  0
LINE
  5
B56
330
1F
100
AcDbEntity
  8
2
  6
CONTINUOUS
370
25
 62
7
100
AcDbLine
 10
71.94121493280832
 20
1.293925335958441
 30
0.0
 11
72.08817760078753
 21
1.440888003937658
 31
0.0
  0
LINE
  5
B57
330
1F
100
AcDbEntity
  8
2
  6
CONTINUOUS
370
25
 62
7
100
AcDbLine
 10
71.87050425468965
 20
1.647478726551711
 30
0.0
 11
72.19424361796553
 21
1.97121808982758
 31
0.0
  0
LINE
  5
B58
330
1F
100
AcDbEntity
  8
2
  6
CONTINUOUS
370
25
 62
7
100
AcDbLine
 10
71.799793576571
 20
2.001032117144995
 30
0.0
 11
72.3003096351435
 21
2.501548175717502
 31
0.0
  0
LINE
  5
B59
330
1F
100
AcDbEntity
  8
2
  6
CONTINUOUS
370
25
 62
7
100
AcDbLine
 10
71.72908289845233
 20
2.354585507738264
 30
0.0
 11
72.40637565232149
 21
3.03187826160741
 31
0.0
  0
LINE
  5
B5A
330
1F
100
AcDbEntity
  8
2
  6
CONTINUOUS
370
25
 62
7
100
AcDbLine
 10
71.65837222033369
 20
2.708138898331548
 30
0.0
 11
72.51244166949947
 21
3.562208347497325
 31
0.0
  0
LINE
  5
B5B
330
1F
100
AcDbEntity
  8
2
  6
CONTINUOUS
370
25
 62
7
100
AcDbLine
 10
71.58766154221505
 20
3.061692288924824
 30
0.0
 11
72.61850768667745
 21
4.092538433387233
 31
0.0
  0
LINE
  5
B5C
330
1F
100
AcDbEntity
  8
2
  6
CONTINUOUS
370
25
 62
7
100
AcDbLine
 10
71.51695086409637
 20
3.415245679518094
 30
0.0
 11
72.72457370385544
 21
4.622868519277155
 31
0.0
  0
LINE
  5
B5D
330
1F
100
AcDbEntity
  8
2
  6
CONTINUOUS
370
25
 62
7
100
AcDbLine
 10
71.44624018597773
 20
3.768799070111378
 30
0.0
 11
72.8306397210334
 21
5.153198605167056
 31
0.0
  0
LINE
  5
B5E
330
1F
100
AcDbEntity
  8
2
  6
CONTINUOUS
370
25
 62
7
100
AcDbLine
 10
71.37552950785907
 20
4.122352460704654
 30
0.0
 11
72.93670573821139
 21
5.683528691056971
 31
0.0
  0
LINE
  5
B5F
330
1F
100
AcDbEntity
  8
2
  6
CONTINUOUS
370
25
 62
7
100
AcDbLine
 10
71.30481882974041
 20
4.475905851297938
 30
0.0
 11
72.82891297844247
 21
5.999999999999993
 31
0.0
  0
LINE
  5
B60
330
1F
100
AcDbEntity
  8
2
  6
CONTINUOUS
370
25
 62
7
100
AcDbLine
 10
71.23410815162177
 20
4.829459241891215
 30
0.0
 11
72.40464890973055
 21
6.0
 31
0.0
  0
LINE
  5
B61
330
1F
100
AcDbEntity
  8
2
  6
CONTINUOUS
370
25
 62
7
100
AcDbLine
 10
71.1633974735031
 20
5.183012632484477
 30
0.0
 11
71.98038484101862
 21
5.999999999999993
 31
0.0
  0
LINE
  5
B62
330
1F
100
AcDbEntity
  8
2
  6
CONTINUOUS
370
25
 62
7
100
AcDbLine
 10
71.09268679538445
 20
5.536566023077754
 30
0.0
 11
71.5561207723067
 21
6.0
 31
0.0
  0
LINE
  5
B63
330
1F
100
AcDbEntity
  8
2
  6
CONTINUOUS
370
25
 62
7
100
AcDbLine
 10
71.0219761172658
 20
5.89011941367103
 30
0.0
 11
71.13185670359476
 21
6.0
 31
0.0
  0
LINE
  5
B64
330
1F
100
AcDbEntity
  8
2
  6
CONTINUOUS
370
25
 62
7
100
AcDbLine
 10
71.99174785275224
 20
1.041260736238833
 30
0.0
 11
72.00550143149852
 21
1.027507157492551
 31
0.0
  0
LINE
  5
B65
330
1F
100
AcDbEntity
  8
2
  6
CONTINUOUS
370
25
 62
7
100
AcDbLine
 10
71.88568183557425
 20
1.571590822128748
 30
0.0
 11
72.07621210961716
 21
1.381060548085827
 31
0.0
  0
LINE
  5
B66
330
1F
100
AcDbEntity
  8
2
  6
CONTINUOUS
370
25
 62
7
100
AcDbLine
 10
71.77961581839627
 20
2.101920908018663
 30
0.0
 11
72.14692278773582
 21
1.734613938679111
 31
0.0
  0
LINE
  5
B67
330
1F
100
AcDbEntity
  8
2
  6
CONTINUOUS
370
25
 62
7
100
AcDbLine
 10
71.67354980121829
 20
2.632250993908585
 30
0.0
 11
72.21763346585448
 21
2.088167329272387
 31
0.0
  0
LINE
  5
B68
330
1F
100
AcDbEntity
  8
2
  6
CONTINUOUS
370
25
 62
7
100
AcDbLine
 10
71.56748378404029
 20
3.162581079798493
 30
0.0
 11
72.28834414397312
 21
2.441720719865664
 31
0.0
  0
LINE
  5
B69
330
1F
100
AcDbEntity
  8
2
  6
CONTINUOUS
370
25
 62
7
100
AcDbLine
 10
71.46141776686231
 20
3.692911165688415
 30
0.0
 11
72.35905482209179
 21
2.795274110458934
 31
0.0
  0
LINE
  5
B6A
330
1F
100
AcDbEntity
  8
2
  6
CONTINUOUS
370
25
 62
7
100
AcDbLine
 10
71.35535174968433
 20
4.22324125157833
 30
0.0
 11
72.42976550021044
 21
3.148827501052217
 31
0.0
  0
LINE
  5
B6B
330
1F
100
AcDbEntity
  8
2
  6
CONTINUOUS
370
25
 62
7
100
AcDbLine
 10
71.24928573250635
 20
4.753571337468237
 30
0.0
 11
72.5004761783291
 21
3.502380891645494
 31
0.0
  0
LINE
  5
B6C
330
1F
100
AcDbEntity
  8
2
  6
CONTINUOUS
370
25
 62
7
100
AcDbLine
 10
71.14321971532837
 20
5.283901423358138
 30
0.0
 11
72.57118685644775
 21
3.855934282238756
 31
0.0
  0
LINE
  5
B6D
330
1F
100
AcDbEntity
  8
2
  6
CONTINUOUS
370
25
 62
7
100
AcDbLine
 10
71.03715369815039
 20
5.814231509248053
 30
0.0
 11
72.6418975345664
 21
4.20948767283204
 31
0.0
  0
LINE
  5
B6E
330
1F
100
AcDbEntity
  8
2
  6
CONTINUOUS
370
25
 62
7
100
AcDbLine
 10
71.27564927611039
 20
6.0
 30
0.0
 11
72.71260821268507
 21
4.56304106342531
 31
0.0
  0
LINE
  5
B6F
330
1F
100
AcDbEntity
  8
2
  6
CONTINUOUS
370
25
 62
7
100
AcDbLine
 10
71.6999133448223
 20
6.0
 30
0.0
 11
72.78331889080371
 21
4.916594454018593
 31
0.0
  0
LINE
  5
B70
330
1F
100
AcDbEntity
  8
2
  6
CONTINUOUS
370
25
 62
7
100
AcDbLine
 10
72.12417741353424
 20
6.0
 30
0.0
 11
72.85402956892237
 21
5.27014784461187
 31
0.0
  0
LINE
  5
B71
330
1F
100
AcDbEntity
  8
2
  6
CONTINUOUS
370
25
 62
7
100
AcDbLine
 10
72.54844148224618
 20
5.999999999999993
 30
0.0
 11
72.92474024704103
 21
5.623701235205139
 31
0.0
  0
LINE
  5
B72
330
1F
100
AcDbEntity
  8
2
  6
CONTINUOUS
370
25
 62
7
100
AcDbLine
 10
72.9727055509581
 20
6.0
 30
0.0
 11
72.99545092515967
 21
5.977254625798416
 31
0.0
  0
TEXT
  5
B73
330
1F
100
AcDbEntity
  8
2
  6
CONTINUOUS
370
25
 62
7
100
AcDbText
 10
70.5
 20
7.058333333333329
 30
0.0
 40
3.5
  1
M2
 50
90.00000000000001
 72
     1
 11
70.5
 21
9.974999999999996
 31
0.0
100
AcDbText
  0
LINE
  5
B74
330
1F
100
AcDbEntity
  8
SK2
  6
CONTINUOUS
370
25
 62
7
100
AcDbLine
 10
0.0
 20
0.7799999999999999
 30
0.0
 11
0.0000000000000036
 21
32.4
 31
0.0
  0
LINE
  5
B75
330
1F
100
AcDbEntity
  8
SK2
  6
CONTINUOUS
370
25
 62
7
100
AcDbLine
 10
45.0
 20
32.4
 30
0.0
 11
45.0
 21
1.399999999999999
 31
0.0
  0
LINE
  5
B76
330
1F
100
AcDbEntity
  8
SK2
  6
CONTINUOUS
370
25
 62
7
100
AcDbLine
 10
0.0000000000000036
 20
31.4
 30
0.0
 11
45.0
 21
31.4
 31
0.0
  0
LINE
  5
B77
330
1F
100
AcDbEntity
  8
SK2
  6
CONTINUOUS
370
25
 62
7
100
AcDbLine
 10
0.0000000000000036
 20
31.4
 30
0.0
 11
5.000000000000004
 21
32.4
 31
0.0
  0
LINE
  5
B78
330
1F
100
AcDbEntity
  8
SK2
  6
CONTINUOUS
370
25
 62
7
100
AcDbLine
 10
5.000000000000004
 20
32.4
 30
0.0
 11
5.000000000000004
 21
30.4
 31
0.0
  0
LINE
  5
B79
330
1F
100
AcDbEntity
  8
SK2
  6
CONTINUOUS
370
25
 62
7
100
AcDbLine
 10
5.000000000000004
 20
30.4
 30
0.0
 11
0.0000000000000036
 21
31.4
 31
0.0
  0
LINE
  5
B7A
330
1F
100
AcDbEntity
  8
SK2
  6
CONTINUOUS
370
25
 62
7
100
AcDbLine
 10
4.649567149259777
 20
30.47008657014804
 30
0.0
 11
5.000000000000004
 21
30.82051942088827
 31
0.0
  0
LINE
  5
B7B
330
1F
100
AcDbEntity
  8
SK2
  6
CONTINUOUS
370
25
 62
7
100
AcDbLine
 10
4.296013758666504
 20
30.5407972482667
 30
0.0
 11
5.000000000000004
 21
31.2447834896002
 31
0.0
  0
LINE
  5
B7C
330
1F
100
AcDbEntity
  8
SK2
  6
CONTINUOUS
370
25
 62
7
100
AcDbLine
 10
3.942460368073231
 20
30.61150792638535
 30
0.0
 11
5.000000000000004
 21
31.66904755831213
 31
0.0
  0
LINE
  5
B7D
330
1F
100
AcDbEntity
  8
SK2
  6
CONTINUOUS
370
25
 62
7
100
AcDbLine
 10
3.588906977479958
 20
30.68221860450401
 30
0.0
 11
5.000000000000004
 21
32.09331162702406
 31
0.0
  0
LINE
  5
B7E
330
1F
100
AcDbEntity
  8
SK2
  6
CONTINUOUS
370
25
 62
7
100
AcDbLine
 10
3.235353586886678
 20
30.75292928262266
 30
0.0
 11
4.853030380330015
 21
32.370606076066
 31
0.0
  0
LINE
  5
B7F
330
1F
100
AcDbEntity
  8
SK2
  6
CONTINUOUS
370
25
 62
7
100
AcDbLine
 10
2.881800196293401
 20
30.82363996074132
 30
0.0
 11
4.322700294440098
 21
32.26454005888802
 31
0.0
  0
LINE
  5
B80
330
1F
100
AcDbEntity
  8
SK2
  6
CONTINUOUS
370
25
 62
7
100
AcDbLine
 10
2.528246805700132
 20
30.89435063885997
 30
0.0
 11
3.792370208550196
 21
32.15847404171004
 31
0.0
  0
LINE
  5
B81
330
1F
100
AcDbEntity
  8
SK2
  6
CONTINUOUS
370
25
 62
7
100
AcDbLine
 10
2.174693415106855
 20
30.96506131697863
 30
0.0
 11
3.262040122660281
 21
32.05240802453206
 31
0.0
  0
LINE
  5
B82
330
1F
100
AcDbEntity
  8
SK2
  6
CONTINUOUS
370
25
 62
7
100
AcDbLine
 10
1.821140024513586
 20
31.03577199509728
 30
0.0
 11
2.731710036770373
 21
31.94634200735407
 31
0.0
  0
LINE
  5
B83
330
1F
100
AcDbEntity
  8
SK2
  6
CONTINUOUS
370
25
 62
7
100
AcDbLine
 10
1.467586633920313
 20
31.10648267321593
 30
0.0
 11
2.201379950880469
 21
31.84027599017609
 31
0.0
  0
LINE
  5
B84
330
1F
100
AcDbEntity
  8
SK2
  6
CONTINUOUS
370
25
 62
7
100
AcDbLine
 10
1.114033243327039
 20
31.17719335133459
 30
0.0
 11
1.671049864990557
 21
31.73420997299811
 31
0.0
  0
LINE
  5
B85
330
1F
100
AcDbEntity
  8
SK2
  6
CONTINUOUS
370
25
 62
7
100
AcDbLine
 10
0.7604798527337628
 20
31.24790402945325
 30
0.0
 11
1.140719779100646
 21
31.62814395582013
 31
0.0
  0
LINE
  5
B86
330
1F
100
AcDbEntity
  8
SK2
  6
CONTINUOUS
370
25
 62
7
100
AcDbLine
 10
0.4069264621404862
 20
31.3186147075719
 30
0.0
 11
0.6103896932107311
 21
31.52207793864214
 31
0.0
  0
LINE
  5
B87
330
1F
100
AcDbEntity
  8
SK2
  6
CONTINUOUS
370
25
 62
7
100
AcDbLine
 10
0.0533730715472132
 20
31.38932538569055
 30
0.0
 11
0.0800596073208233
 21
31.41601192146416
 31
0.0
  0
LINE
  5
B88
330
1F
100
AcDbEntity
  8
SK2
  6
CONTINUOUS
370
25
 62
7
100
AcDbLine
 10
0.0459415460182946
 20
31.40918830920366
 30
0.0
 11
0.0689123190274437
 21
31.38621753619451
 31
0.0
  0
LINE
  5
B89
330
1F
100
AcDbEntity
  8
SK2
  6
CONTINUOUS
370
25
 62
7
100
AcDbLine
 10
0.3994949366115677
 20
31.47989898732231
 30
0.0
 11
0.599242404917355
 21
31.28015151901653
 31
0.0
  0
LINE
  5
B8A
330
1F
100
AcDbEntity
  8
SK2
  6
CONTINUOUS
370
25
 62
7
100
AcDbLine
 10
0.7530483272048443
 20
31.55060966544097
 30
0.0
 11
1.12957249080727
 21
31.17408550183854
 31
0.0
  0
LINE
  5
B8B
330
1F
100
AcDbEntity
  8
SK2
  6
CONTINUOUS
370
25
 62
7
100
AcDbLine
 10
1.106601717798117
 20
31.62132034355962
 30
0.0
 11
1.659902576697178
 21
31.06801948466056
 31
0.0
  0
LINE
  5
B8C
330
1F
100
AcDbEntity
  8
SK2
  6
CONTINUOUS
370
25
 62
7
100
AcDbLine
 10
1.460155108391394
 20
31.69203102167828
 30
0.0
 11
2.190232662587093
 21
30.96195346748258
 31
0.0
  0
LINE
  5
B8D
330
1F
100
AcDbEntity
  8
SK2
  6
CONTINUOUS
370
25
 62
7
100
AcDbLine
 10
1.813708498984667
 20
31.76274169979693
 30
0.0
 11
2.720562748477001
 21
30.8558874503046
 31
0.0
  0
LINE
  5
B8E
330
1F
100
AcDbEntity
  8
SK2
  6
CONTINUOUS
370
25
 62
7
100
AcDbLine
 10
2.167261889577944
 20
31.83345237791559
 30
0.0
 11
3.250892834366912
 21
30.74982143312662
 31
0.0
  0
LINE
  5
B8F
330
1F
100
AcDbEntity
  8
SK2
  6
CONTINUOUS
370
25
 62
7
100
AcDbLine
 10
2.520815280171217
 20
31.90416305603424
 30
0.0
 11
3.78122292025682
 21
30.64375541594863
 31
0.0
  0
LINE
  5
B90
330
1F
100
AcDbEntity
  8
SK2
  6
CONTINUOUS
370
25
 62
7
100
AcDbLine
 10
2.87436867076449
 20
31.9748737341529
 30
0.0
 11
4.311553006146731
 21
30.53768939877065
 31
0.0
  0
LINE
  5
B91
330
1F
100
AcDbEntity
  8
SK2
  6
CONTINUOUS
370
25
 62
7
100
AcDbLine
 10
3.227922061357766
 20
32.04558441227155
 30
0.0
 11
4.841883092036641
 21
30.43162338159267
 31
0.0
  0
LINE
  5
B92
330
1F
100
AcDbEntity
  8
SK2
  6
CONTINUOUS
370
25
 62
7
100
AcDbLine
 10
3.581475451951039
 20
32.11629509039021
 30
0.0
 11
5.000000000000004
 21
30.69777054234124
 31
0.0
  0
LINE
  5
B93
330
1F
100
AcDbEntity
  8
SK2
  6
CONTINUOUS
370
25
 62
7
100
AcDbLine
 10
3.935028842544313
 20
32.18700576850886
 30
0.0
 11
5.000000000000004
 21
31.12203461105317
 31
0.0
  0
LINE
  5
B94
330
1F
100
AcDbEntity
  8
SK2
  6
CONTINUOUS
370
25
 62
7
100
AcDbLine
 10
4.288582233137587
 20
32.25771644662751
 30
0.0
 11
5.000000000000004
 21
31.54629867976509
 31
0.0
  0
LINE
  5
B95
330
1F
100
AcDbEntity
  8
SK2
  6
CONTINUOUS
370
25
 62
7
100
AcDbLine
 10
4.64213562373086
 20
32.32842712474617
 30
0.0
 11
5.000000000000004
 21
31.97056274847703
 31
0.0
  0
LINE
  5
B96
330
1F
100
AcDbEntity
  8
SK2
  6
CONTINUOUS
370
25
 62
7
100
AcDbLine
 10
4.995689014324135
 20
32.39913780286483
 30
0.0
 11
5.000000000000004
 21
32.39482681718896
 31
0.0
  0
LINE
  5
B97
330
1F
100
AcDbEntity
  8
SK2
  6
CONTINUOUS
370
25
 62
7
100
AcDbLine
 10
45.0
 20
31.4
 30
0.0
 11
40.0
 21
30.4
 31
0.0
  0
LINE
  5
B98
330
1F
100
AcDbEntity
  8
SK2
  6
CONTINUOUS
370
25
 62
7
100
AcDbLine
 10
40.0
 20
30.4
 30
0.0
 11
40.0
 21
32.4
 31
0.0
  0
LINE
  5
B99
330
1F
100
AcDbEntity
  8
SK2
  6
CONTINUOUS
370
25
 62
7
100
AcDbLine
 10
40.0
 20
32.4
 30
0.0
 11
45.0
 21
31.4
 31
0.0
  0
LINE
  5
B9A
330
1F
100
AcDbEntity
  8
SK2
  6
CONTINUOUS
370
25
 62
7
100
AcDbLine
 10
44.51471862576142
 20
31.30294372515228
 30
0.0
 11
44.67647908384095
 21
31.46470418323181
 31
0.0
  0
LINE
  5
B9B
330
1F
100
AcDbEntity
  8
SK2
  6
CONTINUOUS
370
25
 62
7
100
AcDbLine
 10
43.9843885398715
 20
31.1968777079743
 30
0.0
 11
44.32292569324767
 21
31.53541486135046
 31
0.0
  0
LINE
  5
B9C
330
1F
100
AcDbEntity
  8
SK2
  6
CONTINUOUS
370
25
 62
7
100
AcDbLine
 10
43.4540584539816
 20
31.09081169079631
 30
0.0
 11
43.96937230265439
 21
31.60612553946912
 31
0.0
  0
LINE
  5
B9D
330
1F
100
AcDbEntity
  8
SK2
  6
CONTINUOUS
370
25
 62
7
100
AcDbLine
 10
42.92372836809168
 20
30.98474567361833
 30
0.0
 11
43.61581891206112
 21
31.67683621758778
 31
0.0
  0
LINE
  5
B9E
330
1F
100
AcDbEntity
  8
SK2
  6
CONTINUOUS
370
25
 62
7
100
AcDbLine
 10
42.39339828220177
 20
30.87867965644035
 30
0.0
 11
43.26226552146785
 21
31.74754689570643
 31
0.0
  0
LINE
  5
B9F
330
1F
100
AcDbEntity
  8
SK2
  6
CONTINUOUS
370
25
 62
7
100
AcDbLine
 10
41.86306819631186
 20
30.77261363926237
 30
0.0
 11
42.90871213087458
 21
31.81825757382509
 31
0.0
  0
LINE
  5
BA0
330
1F
100
AcDbEntity
  8
SK2
  6
CONTINUOUS
370
25
 62
7
100
AcDbLine
 10
41.33273811042196
 20
30.66654762208439
 30
0.0
 11
42.5551587402813
 21
31.88896825194374
 31
0.0
  0
LINE
  5
BA1
330
1F
100
AcDbEntity
  8
SK2
  6
CONTINUOUS
370
25
 62
7
100
AcDbLine
 10
40.80240802453204
 20
30.56048160490641
 30
0.0
 11
42.20160534968802
 21
31.95967893006239
 31
0.0
  0
LINE
  5
BA2
330
1F
100
AcDbEntity
  8
SK2
  6
CONTINUOUS
370
25
 62
7
100
AcDbLine
 10
40.27207793864214
 20
30.45441558772843
 30
0.0
 11
41.84805195909475
 21
32.03038960818105
 31
0.0
  0
LINE
  5
BA3
330
1F
100
AcDbEntity
  8
SK2
  6
CONTINUOUS
370
25
 62
7
100
AcDbLine
 10
40.0
 20
30.60660171779822
 30
0.0
 11
41.49449856850148
 21
32.1011002862997
 31
0.0
  0
LINE
  5
BA4
330
1F
100
AcDbEntity
  8
SK2
  6
CONTINUOUS
370
25
 62
7
100
AcDbLine
 10
40.0
 20
31.03086578651015
 30
0.0
 11
41.14094517790821
 21
32.17181096441836
 31
0.0
  0
LINE
  5
BA5
330
1F
100
AcDbEntity
  8
SK2
  6
CONTINUOUS
370
25
 62
7
100
AcDbLine
 10
40.0
 20
31.45512985522208
 30
0.0
 11
40.78739178731493
 21
32.24252164253701
 31
0.0
  0
LINE
  5
BA6
330
1F
100
AcDbEntity
  8
SK2
  6
CONTINUOUS
370
25
 62
7
100
AcDbLine
 10
40.0
 20
31.87939392393401
 30
0.0
 11
40.43383839672165
 21
32.31323232065567
 31
0.0
  0
LINE
  5
BA7
330
1F
100
AcDbEntity
  8
SK2
  6
CONTINUOUS
370
25
 62
7
100
AcDbLine
 10
40.0
 20
32.30365799264595
 30
0.0
 11
40.08028500612838
 21
32.38394299877432
 31
0.0
  0
LINE
  5
BA8
330
1F
100
AcDbEntity
  8
SK2
  6
CONTINUOUS
370
25
 62
7
100
AcDbLine
 10
40.0
 20
30.48742417671946
 30
0.0
 11
40.07285348059956
 21
30.41457069611991
 31
0.0
  0
LINE
  5
BA9
330
1F
100
AcDbEntity
  8
SK2
  6
CONTINUOUS
370
25
 62
7
100
AcDbLine
 10
40.0
 20
30.9116882454314
 30
0.0
 11
40.42640687119284
 21
30.48528137423856
 31
0.0
  0
LINE
  5
BAA
330
1F
100
AcDbEntity
  8
SK2
  6
CONTINUOUS
370
25
 62
7
100
AcDbLine
 10
40.0
 20
31.33595231414333
 30
0.0
 11
40.77996026178612
 21
30.55599205235722
 31
0.0
  0
LINE
  5
BAB
330
1F
100
AcDbEntity
  8
SK2
  6
CONTINUOUS
370
25
 62
7
100
AcDbLine
 10
40.0
 20
31.76021638285526
 30
0.0
 11
41.13351365237939
 21
30.62670273047587
 31
0.0
  0
LINE
  5
BAC
330
1F
100
AcDbEntity
  8
SK2
  6
CONTINUOUS
370
25
 62
7
100
AcDbLine
 10
40.0
 20
32.18448045156718
 30
0.0
 11
41.48706704297265
 21
30.69741340859453
 31
0.0
  0
LINE
  5
BAD
330
1F
100
AcDbEntity
  8
SK2
  6
CONTINUOUS
370
25
 62
7
100
AcDbLine
 10
40.2609306503489
 20
32.34781386993022
 30
0.0
 11
41.84062043356593
 21
30.76812408671318
 31
0.0
  0
LINE
  5
BAE
330
1F
100
AcDbEntity
  8
SK2
  6
CONTINUOUS
370
25
 62
7
100
AcDbLine
 10
40.79126073623882
 20
32.24174785275223
 30
0.0
 11
42.19417382415921
 21
30.83883476483184
 31
0.0
  0
LINE
  5
BAF
330
1F
100
AcDbEntity
  8
SK2
  6
CONTINUOUS
370
25
 62
7
100
AcDbLine
 10
41.32159082212873
 20
32.13568183557425
 30
0.0
 11
42.54772721475248
 21
30.9095454429505
 31
0.0
  0
LINE
  5
BB0
330
1F
100
AcDbEntity
  8
SK2
  6
CONTINUOUS
370
25
 62
7
100
AcDbLine
 10
41.85192090801863
 20
32.02961581839627
 30
0.0
 11
42.90128060534575
 21
30.98025612106915
 31
0.0
  0
LINE
  5
BB1
330
1F
100
AcDbEntity
  8
SK2
  6
CONTINUOUS
370
25
 62
7
100
AcDbLine
 10
42.38225099390854
 20
31.92354980121829
 30
0.0
 11
43.25483399593903
 21
31.0509667991878
 31
0.0
  0
LINE
  5
BB2
330
1F
100
AcDbEntity
  8
SK2
  6
CONTINUOUS
370
25
 62
7
100
AcDbLine
 10
42.91258107979846
 20
31.81748378404031
 30
0.0
 11
43.60838738653231
 21
31.12167747730646
 31
0.0
  0
LINE
  5
BB3
330
1F
100
AcDbEntity
  8
SK2
  6
CONTINUOUS
370
25
 62
7
100
AcDbLine
 10
43.44291116568837
 20
31.71141776686233
 30
0.0
 11
43.96194077712558
 21
31.19238815542511
 31
0.0
  0
LINE
  5
BB4
330
1F
100
AcDbEntity
  8
SK2
  6
CONTINUOUS
370
25
 62
7
100
AcDbLine
 10
43.97324125157827
 20
31.60535174968435
 30
0.0
 11
44.31549416771885
 21
31.26309883354376
 31
0.0
  0
LINE
  5
BB5
330
1F
100
AcDbEntity
  8
SK2
  6
CONTINUOUS
370
25
 62
7
100
AcDbLine
 10
44.50357133746819
 20
31.49928573250636
 30
0.0
 11
44.66904755831213
 21
31.33380951166242
 31
0.0
  0
TEXT
  5
BB6
330
1F
100
AcDbEntity
  8
SK2
  6
CONTINUOUS
370
25
 62
7
100
AcDbText
 10
19.58333333333334
 20
32.9
 30
0.0
 40
3.5
  1
45
 72
     1
 11
22.5
 21
32.9
 31
0.0
100
AcDbText
  0
LINE
  5
BB7
330
1F
100
AcDbEntity
  8
2
  6
CONTINUOUS
370
25
 62
7
100
AcDbLine
 10
42.3
 20
-0.6199999999999999
 30
0.0
 11
42.3
 21
-14.4
 31
0.0
  0
LINE
  5
BB8
330
1F
100
AcDbEntity
  8
2
  6
CONTINUOUS
370
25
 62
7
100
AcDbLine
 10
45.0
 20
-14.4
 30
0.0
 11
45.0
 21
-0.6199999999999992
 31
0.0
  0
LINE
  5
BB9
330
1F
100
AcDbEntity
  8
2
  6
CONTINUOUS
370
25
 62
7
100
AcDbLine
 10
26.375
 20
-13.4
 30
0.0
 11
52.0
 21
-13.4
 31
0.0
  0
LINE
  5
BBA
330
1F
100
AcDbEntity
  8
2
  6
CONTINUOUS
370
25
 62
7
100
AcDbLine
 10
42.3
 20
-13.4
 30
0.0
 11
37.3
 21
-14.4
 31
0.0
  0
LINE
  5
BBB
330
1F
100
AcDbEntity
  8
2
  6
CONTINUOUS
370
25
 62
7
100
AcDbLine
 10
37.3
 20
-14.4
 30
0.0
 11
37.3
 21
-12.4
 31
0.0
  0
LINE
  5
BBC
330
1F
100
AcDbEntity
  8
2
  6
CONTINUOUS
370
25
 62
7
100
AcDbLine
 10
37.3
 20
-12.4
 30
0.0
 11
42.3
 21
-13.4
 31
0.0
  0
LINE
  5
BBD
330
1F
100
AcDbEntity
  8
2
  6
CONTINUOUS
370
25
 62
7
100
AcDbLine
 10
41.82599508809908
 20
-13.49480098238018
 30
0.0
 11
41.98399672539939
 21
-13.33679934507987
 31
0.0
  0
LINE
  5
BBE
330
1F
100
AcDbEntity
  8
2
  6
CONTINUOUS
370
25
 62
7
100
AcDbLine
 10
41.29566500220918
 20
-13.60086699955816
 30
0.0
 11
41.63044333480612
 21
-13.26608866696122
 31
0.0
  0
LINE
  5
BBF
330
1F
100
AcDbEntity
  8
2
  6
CONTINUOUS
370
25
 62
7
100
AcDbLine
 10
40.76533491631926
 20
-13.70693301673615
 30
0.0
 11
41.27688994421284
 21
-13.19537798884257
 31
0.0
  0
LINE
  5
BC0
330
1F
100
AcDbEntity
  8
2
  6
CONTINUOUS
370
25
 62
7
100
AcDbLine
 10
40.23500483042935
 20
-13.81299903391413
 30
0.0
 11
40.92333655361957
 21
-13.12466731072391
 31
0.0
  0
LINE
  5
BC1
330
1F
100
AcDbEntity
  8
2
  6
CONTINUOUS
370
25
 62
7
100
AcDbLine
 10
39.70467474453945
 20
-13.91906505109211
 30
0.0
 11
40.5697831630263
 21
-13.05395663260526
 31
0.0
  0
LINE
  5
BC2
330
1F
100
AcDbEntity
  8
2
  6
CONTINUOUS
370
25
 62
7
100
AcDbLine
 10
39.17434465864953
 20
-14.02513106827009
 30
0.0
 11
40.21622977243302
 21
-12.9832459544866
 31
0.0
  0
LINE
  5
BC3
330
1F
100
AcDbEntity
  8
2
  6
CONTINUOUS
370
25
 62
7
100
AcDbLine
 10
38.64401457275962
 20
-14.13119708544808
 30
0.0
 11
39.86267638183975
 21
-12.91253527636795
 31
0.0
  0
LINE
  5
BC4
330
1F
100
AcDbEntity
  8
2
  6
CONTINUOUS
370
25
 62
7
100
AcDbLine
 10
38.11368448686972
 20
-14.23726310262606
 30
0.0
 11
39.50912299124648
 21
-12.84182459824929
 31
0.0
  0
LINE
  5
BC5
330
1F
100
AcDbEntity
  8
2
  6
CONTINUOUS
370
25
 62
7
100
AcDbLine
 10
37.5833544009798
 20
-14.34332911980404
 30
0.0
 11
39.15556960065321
 21
-12.77111392013064
 31
0.0
  0
LINE
  5
BC6
330
1F
100
AcDbEntity
  8
2
  6
CONTINUOUS
370
25
 62
7
100
AcDbLine
 10
37.3
 20
-14.20241945207191
 30
0.0
 11
38.80201621005993
 21
-12.70040324201198
 31
0.0
  0
LINE
  5
BC7
330
1F
100
AcDbEntity
  8
2
  6
CONTINUOUS
370
25
 62
7
100
AcDbLine
 10
37.3
 20
-13.77815538335999
 30
0.0
 11
38.44846281946666
 21
-12.62969256389333
 31
0.0
  0
LINE
  5
BC8
330
1F
100
AcDbEntity
  8
2
  6
CONTINUOUS
370
25
 62
7
100
AcDbLine
 10
37.3
 20
-13.35389131464806
 30
0.0
 11
38.09490942887339
 21
-12.55898188577467
 31
0.0
  0
LINE
  5
BC9
330
1F
100
AcDbEntity
  8
2
  6
CONTINUOUS
370
25
 62
7
100
AcDbLine
 10
37.3
 20
-12.92962724593613
 30
0.0
 11
37.74135603828012
 21
-12.48827120765602
 31
0.0
  0
LINE
  5
BCA
330
1F
100
AcDbEntity
  8
2
  6
CONTINUOUS
370
25
 62
7
100
AcDbLine
 10
37.3
 20
-12.5053631772242
 30
0.0
 11
37.38780264768684
 21
-12.41756052953736
 31
0.0
  0
LINE
  5
BCB
330
1F
100
AcDbEntity
  8
2
  6
CONTINUOUS
370
25
 62
7
100
AcDbLine
 10
37.3
 20
-14.33015151901642
 30
0.0
 11
37.35820706748632
 21
-14.38835858650274
 31
0.0
  0
LINE
  5
BCC
330
1F
100
AcDbEntity
  8
2
  6
CONTINUOUS
370
25
 62
7
100
AcDbLine
 10
37.3
 20
-13.9058874503045
 30
0.0
 11
37.71176045807959
 21
-14.31764790838408
 31
0.0
  0
LINE
  5
BCD
330
1F
100
AcDbEntity
  8
2
  6
CONTINUOUS
370
25
 62
7
100
AcDbLine
 10
37.3
 20
-13.48162338159257
 30
0.0
 11
38.06531384867286
 21
-14.24693723026543
 31
0.0
  0
LINE
  5
BCE
330
1F
100
AcDbEntity
  8
2
  6
CONTINUOUS
370
25
 62
7
100
AcDbLine
 10
37.3
 20
-13.05735931288064
 30
0.0
 11
38.41886723926613
 21
-14.17622655214677
 31
0.0
  0
LINE
  5
BCF
330
1F
100
AcDbEntity
  8
2
  6
CONTINUOUS
370
25
 62
7
100
AcDbLine
 10
37.3
 20
-12.63309524416871
 30
0.0
 11
38.77242062985941
 21
-14.10551587402812
 31
0.0
  0
LINE
  5
BD0
330
1F
100
AcDbEntity
  8
2
  6
CONTINUOUS
370
25
 62
7
100
AcDbLine
 10
37.53896103067902
 20
-12.4477922061358
 30
0.0
 11
39.12597402045268
 21
-14.03480519590946
 31
0.0
  0
LINE
  5
BD1
330
1F
100
AcDbEntity
  8
2
  6
CONTINUOUS
370
25
 62
7
100
AcDbLine
 10
38.06929111656893
 20
-12.55385822331378
 30
0.0
 11
39.47952741104595
 21
-13.96409451779081
 31
0.0
  0
LINE
  5
BD2
330
1F
100
AcDbEntity
  8
2
  6
CONTINUOUS
370
25
 62
7
100
AcDbLine
 10
38.59962120245883
 20
-12.65992424049176
 30
0.0
 11
39.83308080163923
 21
-13.89338383967215
 31
0.0
  0
LINE
  5
BD3
330
1F
100
AcDbEntity
  8
2
  6
CONTINUOUS
370
25
 62
7
100
AcDbLine
 10
39.12995128834875
 20
-12.76599025766975
 30
0.0
 11
40.1866341922325
 21
-13.8226731615535
 31
0.0
  0
LINE
  5
BD4
330
1F
100
AcDbEntity
  8
2
  6
CONTINUOUS
370
25
 62
7
100
AcDbLine
 10
39.66028137423866
 20
-12.87205627484773
 30
0.0
 11
40.54018758282578
 21
-13.75196248343485
 31
0.0
  0
LINE
  5
BD5
330
1F
100
AcDbEntity
  8
2
  6
CONTINUOUS
370
25
 62
7
100
AcDbLine
 10
40.19061146012857
 20
-12.97812229202571
 30
0.0
 11
40.89374097341905
 21
-13.68125180531619
 31
0.0
  0
LINE
  5
BD6
330
1F
100
AcDbEntity
  8
2
  6
CONTINUOUS
370
25
 62
7
100
AcDbLine
 10
40.72094154601848
 20
-13.08418830920369
 30
0.0
 11
41.24729436401232
 21
-13.61054112719754
 31
0.0
  0
LINE
  5
BD7
330
1F
100
AcDbEntity
  8
2
  6
CONTINUOUS
370
25
 62
7
100
AcDbLine
 10
41.25127163190839
 20
-13.19025432638167
 30
0.0
 11
41.6008477546056
 21
-13.53983044907888
 31
0.0
  0
LINE
  5
BD8
330
1F
100
AcDbEntity
  8
2
  6
CONTINUOUS
370
25
 62
7
100
AcDbLine
 10
41.7816017177983
 20
-13.29632034355966
 30
0.0
 11
41.95440114519887
 21
-13.46911977096022
 31
0.0
  0
LINE
  5
BD9
330
1F
100
AcDbEntity
  8
2
  6
CONTINUOUS
370
25
 62
7
100
AcDbLine
 10
45.0
 20
-13.4
 30
0.0
 11
50.0
 21
-12.4
 31
0.0
  0
LINE
  5
BDA
330
1F
100
AcDbEntity
  8
2
  6
CONTINUOUS
370
25
 62
7
100
AcDbLine
 10
50.0
 20
-12.4
 30
0.0
 11
50.0
 21
-14.4
 31
0.0
  0
LINE
  5
BDB
330
1F
100
AcDbEntity
  8
2
  6
CONTINUOUS
370
25
 62
7
100
AcDbLine
 10
50.0
 20
-14.4
 30
0.0
 11
45.0
 21
-13.4
 31
0.0
  0
LINE
  5
BDC
330
1F
100
AcDbEntity
  8
2
  6
CONTINUOUS
370
25
 62
7
100
AcDbLine
 10
49.96402919983362
 20
-14.39280583996672
 30
0.0
 11
50.0
 21
-14.35683503980034
 31
0.0
  0
LINE
  5
BDD
330
1F
100
AcDbEntity
  8
2
  6
CONTINUOUS
370
25
 62
7
100
AcDbLine
 10
49.61047580924034
 20
-14.32209516184806
 30
0.0
 11
50.0
 21
-13.93257097108841
 31
0.0
  0
LINE
  5
BDE
330
1F
100
AcDbEntity
  8
2
  6
CONTINUOUS
370
25
 62
7
100
AcDbLine
 10
49.25692241864706
 20
-14.25138448372941
 30
0.0
 11
50.0
 21
-13.50830690237647
 31
0.0
  0
LINE
  5
BDF
330
1F
100
AcDbEntity
  8
2
  6
CONTINUOUS
370
25
 62
7
100
AcDbLine
 10
48.90336902805379
 20
-14.18067380561076
 30
0.0
 11
50.0
 21
-13.08404283366454
 31
0.0
  0
LINE
  5
BE0
330
1F
100
AcDbEntity
  8
2
  6
CONTINUOUS
370
25
 62
7
100
AcDbLine
 10
48.54981563746051
 20
-14.1099631274921
 30
0.0
 11
50.0
 21
-12.65977876495261
 31
0.0
  0
LINE
  5
BE1
330
1F
100
AcDbEntity
  8
2
  6
CONTINUOUS
370
25
 62
7
100
AcDbLine
 10
48.19626224686724
 20
-14.03925244937345
 30
0.0
 11
49.79439337030085
 21
-12.44112132593983
 31
0.0
  0
LINE
  5
BE2
330
1F
100
AcDbEntity
  8
2
  6
CONTINUOUS
370
25
 62
7
100
AcDbLine
 10
47.84270885627397
 20
-13.96854177125479
 30
0.0
 11
49.26406328441094
 21
-12.54718734311781
 31
0.0
  0
LINE
  5
BE3
330
1F
100
AcDbEntity
  8
2
  6
CONTINUOUS
370
25
 62
7
100
AcDbLine
 10
47.4891554656807
 20
-13.89783109313614
 30
0.0
 11
48.73373319852104
 21
-12.65325336029579
 31
0.0
  0
LINE
  5
BE4
330
1F
100
AcDbEntity
  8
2
  6
CONTINUOUS
370
25
 62
7
100
AcDbLine
 10
47.13560207508742
 20
-13.82712041501748
 30
0.0
 11
48.20340311263112
 21
-12.75931937747378
 31
0.0
  0
LINE
  5
BE5
330
1F
100
AcDbEntity
  8
2
  6
CONTINUOUS
370
25
 62
7
100
AcDbLine
 10
46.78204868449414
 20
-13.75640973689883
 30
0.0
 11
47.67307302674121
 21
-12.86538539465176
 31
0.0
  0
LINE
  5
BE6
330
1F
100
AcDbEntity
  8
2
  6
CONTINUOUS
370
25
 62
7
100
AcDbLine
 10
46.42849529390088
 20
-13.68569905878017
 30
0.0
 11
47.14274294085131
 21
-12.97145141182974
 31
0.0
  0
LINE
  5
BE7
330
1F
100
AcDbEntity
  8
2
  6
CONTINUOUS
370
25
 62
7
100
AcDbLine
 10
46.0749419033076
 20
-13.61498838066152
 30
0.0
 11
46.61241285496141
 21
-13.07751742900772
 31
0.0
  0
LINE
  5
BE8
330
1F
100
AcDbEntity
  8
2
  6
CONTINUOUS
370
25
 62
7
100
AcDbLine
 10
45.72138851271433
 20
-13.54427770254286
 30
0.0
 11
46.08208276907148
 21
-13.1835834461857
 31
0.0
  0
LINE
  5
BE9
330
1F
100
AcDbEntity
  8
2
  6
CONTINUOUS
370
25
 62
7
100
AcDbLine
 10
45.36783512212106
 20
-13.47356702442421
 30
0.0
 11
45.55175268318159
 21
-13.28964946336368
 31
0.0
  0
LINE
  5
BEA
330
1F
100
AcDbEntity
  8
2
  6
CONTINUOUS
370
25
 62
7
100
AcDbLine
 10
45.01428173152779
 20
-13.40285634630555
 30
0.0
 11
45.02142259729168
 21
-13.39571548054166
 31
0.0
  0
LINE
  5
BEB
330
1F
100
AcDbEntity
  8
2
  6
CONTINUOUS
370
25
 62
7
100
AcDbLine
 10
45.23282826994507
 20
-13.35343434601099
 30
0.0
 11
45.3492424049176
 21
-13.46984848098352
 31
0.0
  0
LINE
  5
BEC
330
1F
100
AcDbEntity
  8
2
  6
CONTINUOUS
370
25
 62
7
100
AcDbLine
 10
45.58638166053835
 20
-13.28272366789233
 30
0.0
 11
45.87957249080752
 21
-13.5759144981615
 31
0.0
  0
LINE
  5
BED
330
1F
100
AcDbEntity
  8
2
  6
CONTINUOUS
370
25
 62
7
100
AcDbLine
 10
45.93993505113162
 20
-13.21201298977368
 30
0.0
 11
46.40990257669743
 21
-13.68198051533948
 31
0.0
  0
LINE
  5
BEE
330
1F
100
AcDbEntity
  8
2
  6
CONTINUOUS
370
25
 62
7
100
AcDbLine
 10
46.29348844172489
 20
-13.14130231165502
 30
0.0
 11
46.94023266258734
 21
-13.78804653251747
 31
0.0
  0
LINE
  5
BEF
330
1F
100
AcDbEntity
  8
2
  6
CONTINUOUS
370
25
 62
7
100
AcDbLine
 10
46.64704183231817
 20
-13.07059163353636
 30
0.0
 11
47.47056274847725
 21
-13.89411254969545
 31
0.0
  0
LINE
  5
BF0
330
1F
100
AcDbEntity
  8
2
  6
CONTINUOUS
370
25
 62
7
100
AcDbLine
 10
47.00059522291144
 20
-12.99988095541771
 30
0.0
 11
48.00089283436716
 21
-14.00017856687343
 31
0.0
  0
LINE
  5
BF1
330
1F
100
AcDbEntity
  8
2
  6
CONTINUOUS
370
25
 62
7
100
AcDbLine
 10
47.35414861350472
 20
-12.92917027729905
 30
0.0
 11
48.53122292025708
 21
-14.10624458405142
 31
0.0
  0
LINE
  5
BF2
330
1F
100
AcDbEntity
  8
2
  6
CONTINUOUS
370
25
 62
7
100
AcDbLine
 10
47.707702004098
 20
-12.8584595991804
 30
0.0
 11
49.06155300614699
 21
-14.21231060122939
 31
0.0
  0
LINE
  5
BF3
330
1F
100
AcDbEntity
  8
2
  6
CONTINUOUS
370
25
 62
7
100
AcDbLine
 10
48.06125539469127
 20
-12.78774892106174
 30
0.0
 11
49.5918830920369
 21
-14.31837661840738
 31
0.0
  0
LINE
  5
BF4
330
1F
100
AcDbEntity
  8
2
  6
CONTINUOUS
370
25
 62
7
100
AcDbLine
 10
48.41480878528454
 20
-12.71703824294309
 30
0.0
 11
50.0
 21
-14.30222945765854
 31
0.0
  0
LINE
  5
BF5
330
1F
100
AcDbEntity
  8
2
  6
CONTINUOUS
370
25
 62
7
100
AcDbLine
 10
48.76836217587781
 20
-12.64632756482443
 30
0.0
 11
50.0
 21
-13.87796538894662
 31
0.0
  0
LINE
  5
BF6
330
1F
100
AcDbEntity
  8
2
  6
CONTINUOUS
370
25
 62
7
100
AcDbLine
 10
49.12191556647109
 20
-12.57561688670578
 30
0.0
 11
50.0
 21
-13.45370132023468
 31
0.0
  0
LINE
  5
BF7
330
1F
100
AcDbEntity
  8
2
  6
CONTINUOUS
370
25
 62
7
100
AcDbLine
 10
49.47546895706436
 20
-12.50490620858712
 30
0.0
 11
50.0
 21
-13.02943725152275
 31
0.0
  0
LINE
  5
BF8
330
1F
100
AcDbEntity
  8
2
  6
CONTINUOUS
370
25
 62
7
100
AcDbLine
 10
49.82902234765764
 20
-12.43419553046847
 30
0.0
 11
50.0
 21
-12.60517318281083
 31
0.0
  0
TEXT
  5
BF9
330
1F
100
AcDbEntity
  8
2
  6
CONTINUOUS
370
25
 62
7
100
AcDbText
 10
28.3375
 20
-11.9
 30
0.0
 40
3.5
  1
2.7
 72
     1
 11
31.8375
 21
-11.9
 31
0.0
100
AcDbText
  0
LINE
  5
BFA
330
1F
100
AcDbEntity
  8
2
  6
CONTINUOUS
370
25
 62
7
100
AcDbLine
 10
33.1
 20
-0.6199999999999999
 30
0.0
 11
33.09999999999999
 21
-34.4
 31
0.0
  0
LINE
  5
BFB
330
1F
100
AcDbEntity
  8
2
  6
CONTINUOUS
370
25
 62
7
100
AcDbLine
 10
45.0
 20
-34.4
 30
0.0
 11
45.0
 21
-0.6199999999999974
 31
0.0
  0
LINE
  5
BFC
330
1F
100
AcDbEntity
  8
2
  6
CONTINUOUS
370
25
 62
7
100
AcDbLine
 10
14.2
 20
-33.4
 30
0.0
 11
52.0
 21
-33.4
 31
0.0
  0
LINE
  5
BFD
330
1F
100
AcDbEntity
  8
2
  6
CONTINUOUS
370
25
 62
7
100
AcDbLine
 10
33.09999999999999
 20
-33.4
 30
0.0
 11
28.1
 21
-34.4
 31
0.0
  0
LINE
  5
BFE
330
1F
100
AcDbEntity
  8
2
  6
CONTINUOUS
370
25
 62
7
100
AcDbLine
 10
28.1
 20
-34.4
 30
0.0
 11
28.1
 21
-32.4
 31
0.0
  0
LINE
  5
BFF
330
1F
100
AcDbEntity
  8
2
  6
CONTINUOUS
370
25
 62
7
100
AcDbLine
 10
28.1
 20
-32.4
 30
0.0
 11
33.09999999999999
 21
-33.4
 31
0.0
  0
LINE
  5
C00
330
1F
100
AcDbEntity
  8
2
  6
CONTINUOUS
370
25
 62
7
100
AcDbLine
 10
32.86774294085134
 20
-33.44645141182973
 30
0.0
 11
32.94516196056756
 21
-33.36903239211351
 31
0.0
  0
LINE
  5
C01
330
1F
100
AcDbEntity
  8
2
  6
CONTINUOUS
370
25
 62
7
100
AcDbLine
 10
32.33741285496143
 20
-33.55251742900771
 30
0.0
 11
32.59160856997428
 21
-33.29832171399485
 31
0.0
  0
LINE
  5
C02
330
1F
100
AcDbEntity
  8
2
  6
CONTINUOUS
370
25
 62
7
100
AcDbLine
 10
31.80708276907151
 20
-33.65858344618569
 30
0.0
 11
32.23805517938101
 21
-33.2276110358762
 31
0.0
  0
LINE
  5
C03
330
1F
100
AcDbEntity
  8
2
  6
CONTINUOUS
370
25
 62
7
100
AcDbLine
 10
31.2767526831816
 20
-33.76464946336367
 30
0.0
 11
31.88450178878773
 21
-33.15690035775754
 31
0.0
  0
LINE
  5
C04
330
1F
100
AcDbEntity
  8
2
  6
CONTINUOUS
370
25
 62
7
100
AcDbLine
 10
30.74642259729169
 20
-33.87071548054166
 30
0.0
 11
31.53094839819446
 21
-33.08618967963889
 31
0.0
  0
LINE
  5
C05
330
1F
100
AcDbEntity
  8
2
  6
CONTINUOUS
370
25
 62
7
100
AcDbLine
 10
30.21609251140178
 20
-33.97678149771964
 30
0.0
 11
31.17739500760119
 21
-33.01547900152023
 31
0.0
  0
LINE
  5
C06
330
1F
100
AcDbEntity
  8
2
  6
CONTINUOUS
370
25
 62
7
100
AcDbLine
 10
29.68576242551186
 20
-34.08284751489762
 30
0.0
 11
30.82384161700791
 21
-32.94476832340158
 31
0.0
  0
LINE
  5
C07
330
1F
100
AcDbEntity
  8
2
  6
CONTINUOUS
370
25
 62
7
100
AcDbLine
 10
29.15543233962195
 20
-34.1889135320756
 30
0.0
 11
30.47028822641464
 21
-32.87405764528292
 31
0.0
  0
LINE
  5
C08
330
1F
100
AcDbEntity
  8
2
  6
CONTINUOUS
370
25
 62
7
100
AcDbLine
 10
28.62510225373204
 20
-34.29497954925359
 30
0.0
 11
30.11673483582136
 21
-32.80334696716427
 31
0.0
  0
LINE
  5
C09
330
1F
100
AcDbEntity
  8
2
  6
CONTINUOUS
370
25
 62
7
100
AcDbLine
 10
28.1
 20
-34.39581773427369
 30
0.0
 11
29.76318144522808
 21
-32.73263628904562
 31
0.0
  0
LINE
  5
C0A
330
1F
100
AcDbEntity
  8
2
  6
CONTINUOUS
370
25
 62
7
100
AcDbLine
 10
28.1
 20
-33.97155366556177
 30
0.0
 11
29.40962805463481
 21
-32.66192561092696
 31
0.0
  0
LINE
  5
C0B
330
1F
100
AcDbEntity
  8
2
  6
CONTINUOUS
370
25
 62
7
100
AcDbLine
 10
28.1
 20
-33.54728959684984
 30
0.0
 11
29.05607466404154
 21
-32.59121493280831
 31
0.0
  0
LINE
  5
C0C
330
1F
100
AcDbEntity
  8
2
  6
CONTINUOUS
370
25
 62
7
100
AcDbLine
 10
28.1
 20
-33.12302552813791
 30
0.0
 11
28.70252127344826
 21
-32.52050425468965
 31
0.0
  0
LINE
  5
C0D
330
1F
100
AcDbEntity
  8
2
  6
CONTINUOUS
370
25
 62
7
100
AcDbLine
 10
28.1
 20
-32.69876145942598
 30
0.0
 11
28.34896788285499
 21
-32.449793576571
 31
0.0
  0
LINE
  5
C0E
330
1F
100
AcDbEntity
  8
2
  6
CONTINUOUS
370
25
 62
7
100
AcDbLine
 10
28.1
 20
-34.07592592570138
 30
0.0
 11
28.37006172858218
 21
-34.34598765428356
 31
0.0
  0
LINE
  5
C0F
330
1F
100
AcDbEntity
  8
2
  6
CONTINUOUS
370
25
 62
7
100
AcDbLine
 10
28.1
 20
-33.65166185698945
 30
0.0
 11
28.72361511917545
 21
-34.2752769761649
 31
0.0
  0
LINE
  5
C10
330
1F
100
AcDbEntity
  8
2
  6
CONTINUOUS
370
25
 62
7
100
AcDbLine
 10
28.1
 20
-33.22739778827752
 30
0.0
 11
29.07716850976873
 21
-34.20456629804625
 31
0.0
  0
LINE
  5
C11
330
1F
100
AcDbEntity
  8
2
  6
CONTINUOUS
370
25
 62
7
100
AcDbLine
 10
28.1
 20
-32.80313371956559
 30
0.0
 11
29.430721900362
 21
-34.13385561992759
 31
0.0
  0
LINE
  5
C12
330
1F
100
AcDbEntity
  8
2
  6
CONTINUOUS
370
25
 62
7
100
AcDbLine
 10
28.12641293643291
 20
-32.40528258728658
 30
0.0
 11
29.78427529095528
 21
-34.06314494180894
 31
0.0
  0
LINE
  5
C13
330
1F
100
AcDbEntity
  8
2
  6
CONTINUOUS
370
25
 62
7
100
AcDbLine
 10
28.65674302232282
 20
-32.51134860446457
 30
0.0
 11
30.13782868154855
 21
-33.99243426369028
 31
0.0
  0
LINE
  5
C14
330
1F
100
AcDbEntity
  8
2
  6
CONTINUOUS
370
25
 62
7
100
AcDbLine
 10
29.18707310821274
 20
-32.61741462164255
 30
0.0
 11
30.49138207214183
 21
-33.92172358557163
 31
0.0
  0
LINE
  5
C15
330
1F
100
AcDbEntity
  8
2
  6
CONTINUOUS
370
25
 62
7
100
AcDbLine
 10
29.71740319410265
 20
-32.72348063882053
 30
0.0
 11
30.84493546273511
 21
-33.85101290745298
 31
0.0
  0
LINE
  5
C16
330
1F
100
AcDbEntity
  8
2
  6
CONTINUOUS
370
25
 62
7
100
AcDbLine
 10
30.24773327999256
 20
-32.82954665599851
 30
0.0
 11
31.19848885332838
 21
-33.78030222933432
 31
0.0
  0
LINE
  5
C17
330
1F
100
AcDbEntity
  8
2
  6
CONTINUOUS
370
25
 62
7
100
AcDbLine
 10
30.77806336588248
 20
-32.93561267317649
 30
0.0
 11
31.55204224392165
 21
-33.70959155121567
 31
0.0
  0
LINE
  5
C18
330
1F
100
AcDbEntity
  8
2
  6
CONTINUOUS
370
25
 62
7
100
AcDbLine
 10
31.30839345177239
 20
-33.04167869035447
 30
0.0
 11
31.90559563451493
 21
-33.63888087309701
 31
0.0
  0
LINE
  5
C19
330
1F
100
AcDbEntity
  8
2
  6
CONTINUOUS
370
25
 62
7
100
AcDbLine
 10
31.83872353766231
 20
-33.14774470753246
 30
0.0
 11
32.25914902510821
 21
-33.56817019497835
 31
0.0
  0
LINE
  5
C1A
330
1F
100
AcDbEntity
  8
2
  6
CONTINUOUS
370
25
 62
7
100
AcDbLine
 10
32.36905362355223
 20
-33.25381072471045
 30
0.0
 11
32.61270241570148
 21
-33.4974595168597
 31
0.0
  0
LINE
  5
C1B
330
1F
100
AcDbEntity
  8
2
  6
CONTINUOUS
370
25
 62
7
100
AcDbLine
 10
32.89938370944214
 20
-33.35987674188843
 30
0.0
 11
32.96625580629476
 21
-33.42674883874105
 31
0.0
  0
LINE
  5
C1C
330
1F
100
AcDbEntity
  8
2
  6
CONTINUOUS
370
25
 62
7
100
AcDbLine
 10
45.0
 20
-33.4
 30
0.0
 11
50.0
 21
-32.4
 31
0.0
  0
LINE
  5
C1D
330
1F
100
AcDbEntity
  8
2
  6
CONTINUOUS
370
25
 62
7
100
AcDbLine
 10
50.0
 20
-32.4
 30
0.0
 11
50.0
 21
-34.4
 31
0.0
  0
LINE
  5
C1E
330
1F
100
AcDbEntity
  8
2
  6
CONTINUOUS
370
25
 62
7
100
AcDbLine
 10
50.0
 20
-34.4
 30
0.0
 11
45.0
 21
-33.4
 31
0.0
  0
LINE
  5
C1F
330
1F
100
AcDbEntity
  8
2
  6
CONTINUOUS
370
25
 62
7
100
AcDbLine
 10
49.66013311802311
 20
-34.33202662360462
 30
0.0
 11
50.0
 21
-33.99215974162773
 31
0.0
  0
LINE
  5
C20
330
1F
100
AcDbEntity
  8
2
  6
CONTINUOUS
370
25
 62
7
100
AcDbLine
 10
49.30657972742983
 20
-34.26131594548596
 30
0.0
 11
50.0
 21
-33.5678956729158
 31
0.0
  0
LINE
  5
C21
330
1F
100
AcDbEntity
  8
2
  6
CONTINUOUS
370
25
 62
7
100
AcDbLine
 10
48.95302633683657
 20
-34.19060526736731
 30
0.0
 11
50.0
 21
-33.14363160420388
 31
0.0
  0
LINE
  5
C22
330
1F
100
AcDbEntity
  8
2
  6
CONTINUOUS
370
25
 62
7
100
AcDbLine
 10
48.59947294624328
 20
-34.11989458924866
 30
0.0
 11
50.0
 21
-32.71936753549194
 31
0.0
  0
LINE
  5
C23
330
1F
100
AcDbEntity
  8
2
  6
CONTINUOUS
370
25
 62
7
100
AcDbLine
 10
48.24591955565
 20
-34.04918391113
 30
0.0
 11
49.86887933347501
 21
-32.426224133305
 31
0.0
  0
LINE
  5
C24
330
1F
100
AcDbEntity
  8
2
  6
CONTINUOUS
370
25
 62
7
100
AcDbLine
 10
47.89236616505674
 20
-33.97847323301134
 30
0.0
 11
49.3385492475851
 21
-32.53229015048298
 31
0.0
  0
LINE
  5
C25
330
1F
100
AcDbEntity
  8
2
  6
CONTINUOUS
370
25
 62
7
100
AcDbLine
 10
47.53881277446347
 20
-33.90776255489268
 30
0.0
 11
48.80821916169519
 21
-32.63835616766096
 31
0.0
  0
LINE
  5
C26
330
1F
100
AcDbEntity
  8
2
  6
CONTINUOUS
370
25
 62
7
100
AcDbLine
 10
47.18525938387018
 20
-33.83705187677403
 30
0.0
 11
48.27788907580527
 21
-32.74442218483895
 31
0.0
  0
LINE
  5
C27
330
1F
100
AcDbEntity
  8
2
  6
CONTINUOUS
370
25
 62
7
100
AcDbLine
 10
46.83170599327691
 20
-33.76634119865538
 30
0.0
 11
47.74755898991536
 21
-32.85048820201693
 31
0.0
  0
LINE
  5
C28
330
1F
100
AcDbEntity
  8
2
  6
CONTINUOUS
370
25
 62
7
100
AcDbLine
 10
46.47815260268362
 20
-33.69563052053672
 30
0.0
 11
47.21722890402545
 21
-32.95655421919491
 31
0.0
  0
LINE
  5
C29
330
1F
100
AcDbEntity
  8
2
  6
CONTINUOUS
370
25
 62
7
100
AcDbLine
 10
46.12459921209036
 20
-33.62491984241807
 30
0.0
 11
46.68689881813553
 21
-33.06262023637289
 31
0.0
  0
LINE
  5
C2A
330
1F
100
AcDbEntity
  8
2
  6
CONTINUOUS
370
25
 62
7
100
AcDbLine
 10
45.77104582149708
 20
-33.55420916429941
 30
0.0
 11
46.15656873224562
 21
-33.16868625355087
 31
0.0
  0
LINE
  5
C2B
330
1F
100
AcDbEntity
  8
2
  6
CONTINUOUS
370
25
 62
7
100
AcDbLine
 10
45.41749243090381
 20
-33.48349848618076
 30
0.0
 11
45.6262386463557
 21
-33.27475227072885
 31
0.0
  0
LINE
  5
C2C
330
1F
100
AcDbEntity
  8
2
  6
CONTINUOUS
370
25
 62
7
100
AcDbLine
 10
45.06393904031053
 20
-33.41278780806211
 30
0.0
 11
45.0959085604658
 21
-33.38081828790683
 31
0.0
  0
LINE
  5
C2D
330
1F
100
AcDbEntity
  8
2
  6
CONTINUOUS
370
25
 62
7
100
AcDbLine
 10
45.0850328860377
 20
-33.38299342279245
 30
0.0
 11
45.12754932905656
 21
-33.42550986581131
 31
0.0
  0
LINE
  5
C2E
330
1F
100
AcDbEntity
  8
2
  6
CONTINUOUS
370
25
 62
7
100
AcDbLine
 10
45.43858627663098
 20
-33.3122827446738
 30
0.0
 11
45.65787941494647
 21
-33.53157588298929
 31
0.0
  0
LINE
  5
C2F
330
1F
100
AcDbEntity
  8
2
  6
CONTINUOUS
370
25
 62
7
100
AcDbLine
 10
45.79213966722426
 20
-33.24157206655515
 30
0.0
 11
46.18820950083638
 21
-33.63764190016727
 31
0.0
  0
LINE
  5
C30
330
1F
100
AcDbEntity
  8
2
  6
CONTINUOUS
370
25
 62
7
100
AcDbLine
 10
46.14569305781753
 20
-33.17086138843649
 30
0.0
 11
46.71853958672629
 21
-33.74370791734526
 31
0.0
  0
LINE
  5
C31
330
1F
100
AcDbEntity
  8
2
  6
CONTINUOUS
370
25
 62
7
100
AcDbLine
 10
46.4992464484108
 20
-33.10015071031783
 30
0.0
 11
47.24886967261621
 21
-33.84977393452324
 31
0.0
  0
LINE
  5
C32
330
1F
100
AcDbEntity
  8
2
  6
CONTINUOUS
370
25
 62
7
100
AcDbLine
 10
46.85279983900408
 20
-33.02944003219919
 30
0.0
 11
47.77919975850612
 21
-33.95583995170122
 31
0.0
  0
LINE
  5
C33
330
1F
100
AcDbEntity
  8
2
  6
CONTINUOUS
370
25
 62
7
100
AcDbLine
 10
47.20635322959735
 20
-32.95872935408052
 30
0.0
 11
48.30952984439605
 21
-34.06190596887921
 31
0.0
  0
LINE
  5
C34
330
1F
100
AcDbEntity
  8
2
  6
CONTINUOUS
370
25
 62
7
100
AcDbLine
 10
47.55990662019063
 20
-32.88801867596187
 30
0.0
 11
48.83985993028595
 21
-34.16797198605719
 31
0.0
  0
LINE
  5
C35
330
1F
100
AcDbEntity
  8
2
  6
CONTINUOUS
370
25
 62
7
100
AcDbLine
 10
47.91346001078391
 20
-32.81730799784322
 30
0.0
 11
49.37019001617588
 21
-34.27403800323518
 31
0.0
  0
LINE
  5
C36
330
1F
100
AcDbEntity
  8
2
  6
CONTINUOUS
370
25
 62
7
100
AcDbLine
 10
48.26701340137718
 20
-32.74659731972456
 30
0.0
 11
49.9005201020658
 21
-34.38010402041316
 31
0.0
  0
LINE
  5
C37
330
1F
100
AcDbEntity
  8
2
  6
CONTINUOUS
370
25
 62
7
100
AcDbLine
 10
48.62056679197046
 20
-32.67588664160591
 30
0.0
 11
50.0
 21
-34.05531984963543
 31
0.0
  0
LINE
  5
C38
330
1F
100
AcDbEntity
  8
2
  6
CONTINUOUS
370
25
 62
7
100
AcDbLine
 10
48.97412018256374
 20
-32.60517596348726
 30
0.0
 11
50.0
 21
-33.6310557809235
 31
0.0
  0
LINE
  5
C39
330
1F
100
AcDbEntity
  8
2
  6
CONTINUOUS
370
25
 62
7
100
AcDbLine
 10
49.32767357315702
 20
-32.5344652853686
 30
0.0
 11
50.0
 21
-33.20679171221157
 31
0.0
  0
LINE
  5
C3A
330
1F
100
AcDbEntity
  8
2
  6
CONTINUOUS
370
25
 62
7
100
AcDbLine
 10
49.68122696375031
 20
-32.46375460724995
 30
0.0
 11
50.0
 21
-32.78252764349963
 31
0.0
  0
TEXT
  5
C3B
330
1F
100
AcDbEntity
  8
2
  6
CONTINUOUS
370
25
 62
7
100
AcDbText
 10
17.06666666666666
 20
-31.9
 30
0.0
 40
3.5
  1
11.9
 72
     1
 11
21.15
 21
-31.9
 31
0.0
100
AcDbText
  0
LINE
  5
C3C
330
1F
100
AcDbEntity
  8
4
  6
LONGDASH_DASH
370
25
 62
2
100
AcDbLine
 10
20.0
 20
0.0
 30
0.0
 11
45.0
 21
0.0
 31
0.0
  0
LINE
  5
C3D
330
1F
100
AcDbEntity
  8
SK4
  6
LONGDASH_DASH
370
25
 62
2
100
AcDbLine
 10
-6.0
 20
0.0
 30
0.0
 11
51.0
 21
0.0
 31
0.0
  0
LINE
  5
C3E
330
1F
100
AcDbEntity
  8
2
  6
CONTINUOUS
370
25
 62
7
100
AcDbLine
 10
20.0
 20
1.4
 30
0.0
 11
20.0
 21
14.4
 31
0.0
  0
LINE
  5
C3F
330
1F
100
AcDbEntity
  8
2
  6
CONTINUOUS
370
25
 62
7
100
AcDbLine
 10
45.0
 20
14.4
 30
0.0
 11
45.0
 21
0.7799999999999994
 31
0.0
  0
LINE
  5
C40
330
1F
100
AcDbEntity
  8
2
  6
CONTINUOUS
370
25
 62
7
100
AcDbLine
 10
20.0
 20
13.4
 30
0.0
 11
45.0
 21
13.4
 31
0.0
  0
LINE
  5
C41
330
1F
100
AcDbEntity
  8
2
  6
CONTINUOUS
370
25
 62
7
100
AcDbLine
 10
20.0
 20
13.4
 30
0.0
 11
25.0
 21
14.4
 31
0.0
  0
LINE
  5
C42
330
1F
100
AcDbEntity
  8
2
  6
CONTINUOUS
370
25
 62
7
100
AcDbLine
 10
25.0
 20
14.4
 30
0.0
 11
25.0
 21
12.4
 31
0.0
  0
LINE
  5
C43
330
1F
100
AcDbEntity
  8
2
  6
CONTINUOUS
370
25
 62
7
100
AcDbLine
 10
25.0
 20
12.4
 30
0.0
 11
20.0
 21
13.4
 31
0.0
  0
LINE
  5
C44
330
1F
100
AcDbEntity
  8
2
  6
CONTINUOUS
370
25
 62
7
100
AcDbLine
 10
24.80270563598774
 20
12.43945887280245
 30
0.0
 11
25.0
 21
12.63675323681471
 31
0.0
  0
LINE
  5
C45
330
1F
100
AcDbEntity
  8
2
  6
CONTINUOUS
370
25
 62
7
100
AcDbLine
 10
24.44915224539447
 20
12.51016955092111
 30
0.0
 11
25.0
 21
13.06101730552664
 31
0.0
  0
LINE
  5
C46
330
1F
100
AcDbEntity
  8
2
  6
CONTINUOUS
370
25
 62
7
100
AcDbLine
 10
24.0955988548012
 20
12.58088022903976
 30
0.0
 11
25.0
 21
13.48528137423857
 31
0.0
  0
LINE
  5
C47
330
1F
100
AcDbEntity
  8
2
  6
CONTINUOUS
370
25
 62
7
100
AcDbLine
 10
23.74204546420792
 20
12.65159090715841
 30
0.0
 11
25.0
 21
13.90954544295049
 31
0.0
  0
LINE
  5
C48
330
1F
100
AcDbEntity
  8
2
  6
CONTINUOUS
370
25
 62
7
100
AcDbLine
 10
23.38849207361465
 20
12.72230158527707
 30
0.0
 11
25.0
 21
14.33380951166242
 31
0.0
  0
LINE
  5
C49
330
1F
100
AcDbEntity
  8
2
  6
CONTINUOUS
370
25
 62
7
100
AcDbLine
 10
23.03493868302137
 20
12.79301226339573
 30
0.0
 11
24.55240802453206
 21
14.31048160490641
 31
0.0
  0
LINE
  5
C4A
330
1F
100
AcDbEntity
  8
2
  6
CONTINUOUS
370
25
 62
7
100
AcDbLine
 10
22.6813852924281
 20
12.86372294151438
 30
0.0
 11
24.02207793864216
 21
14.20441558772843
 31
0.0
  0
LINE
  5
C4B
330
1F
100
AcDbEntity
  8
2
  6
CONTINUOUS
370
25
 62
7
100
AcDbLine
 10
22.32783190183483
 20
12.93443361963303
 30
0.0
 11
23.49174785275224
 21
14.09834957055045
 31
0.0
  0
LINE
  5
C4C
330
1F
100
AcDbEntity
  8
2
  6
CONTINUOUS
370
25
 62
7
100
AcDbLine
 10
21.97427851124155
 20
13.00514429775169
 30
0.0
 11
22.96141776686233
 21
13.99228355337247
 31
0.0
  0
LINE
  5
C4D
330
1F
100
AcDbEntity
  8
2
  6
CONTINUOUS
370
25
 62
7
100
AcDbLine
 10
21.62072512064828
 20
13.07585497587034
 30
0.0
 11
22.43108768097242
 21
13.88621753619449
 31
0.0
  0
LINE
  5
C4E
330
1F
100
AcDbEntity
  8
2
  6
CONTINUOUS
370
25
 62
7
100
AcDbLine
 10
21.26717173005501
 20
13.146565653989
 30
0.0
 11
21.90075759508251
 21
13.7801515190165
 31
0.0
  0
LINE
  5
C4F
330
1F
100
AcDbEntity
  8
2
  6
CONTINUOUS
370
25
 62
7
100
AcDbLine
 10
20.91361833946173
 20
13.21727633210765
 30
0.0
 11
21.3704275091926
 21
13.67408550183852
 31
0.0
  0
LINE
  5
C50
330
1F
100
AcDbEntity
  8
2
  6
CONTINUOUS
370
25
 62
7
100
AcDbLine
 10
20.56006494886846
 20
13.28798701022631
 30
0.0
 11
20.84009742330269
 21
13.56801948466054
 31
0.0
  0
LINE
  5
C51
330
1F
100
AcDbEntity
  8
2
  6
CONTINUOUS
370
25
 62
7
100
AcDbLine
 10
20.20651155827519
 20
13.35869768834496
 30
0.0
 11
20.30976733741278
 21
13.46195346748256
 31
0.0
  0
LINE
  5
C52
330
1F
100
AcDbEntity
  8
2
  6
CONTINUOUS
370
25
 62
7
100
AcDbLine
 10
20.14704183231808
 20
13.42940836646362
 30
0.0
 11
20.22056274847712
 21
13.35588745030458
 31
0.0
  0
LINE
  5
C53
330
1F
100
AcDbEntity
  8
2
  6
CONTINUOUS
370
25
 62
7
100
AcDbLine
 10
20.50059522291135
 20
13.50011904458227
 30
0.0
 11
20.75089283436703
 21
13.24982143312659
 31
0.0
  0
LINE
  5
C54
330
1F
100
AcDbEntity
  8
2
  6
CONTINUOUS
370
25
 62
7
100
AcDbLine
 10
20.85414861350463
 20
13.57082972270093
 30
0.0
 11
21.28122292025694
 21
13.14375541594861
 31
0.0
  0
LINE
  5
C55
330
1F
100
AcDbEntity
  8
2
  6
CONTINUOUS
370
25
 62
7
100
AcDbLine
 10
21.2077020040979
 20
13.64154040081958
 30
0.0
 11
21.81155300614685
 21
13.03768939877063
 31
0.0
  0
LINE
  5
C56
330
1F
100
AcDbEntity
  8
2
  6
CONTINUOUS
370
25
 62
7
100
AcDbLine
 10
21.56125539469117
 20
13.71225107893824
 30
0.0
 11
22.34188309203676
 21
12.93162338159265
 31
0.0
  0
LINE
  5
C57
330
1F
100
AcDbEntity
  8
2
  6
CONTINUOUS
370
25
 62
7
100
AcDbLine
 10
21.91480878528445
 20
13.78296175705689
 30
0.0
 11
22.87221317792667
 21
12.82555736441467
 31
0.0
  0
LINE
  5
C58
330
1F
100
AcDbEntity
  8
2
  6
CONTINUOUS
370
25
 62
7
100
AcDbLine
 10
22.26836217587772
 20
13.85367243517554
 30
0.0
 11
23.40254326381658
 21
12.71949134723668
 31
0.0
  0
LINE
  5
C59
330
1F
100
AcDbEntity
  8
2
  6
CONTINUOUS
370
25
 62
7
100
AcDbLine
 10
22.621915566471
 20
13.9243831132942
 30
0.0
 11
23.93287334970649
 21
12.6134253300587
 31
0.0
  0
LINE
  5
C5A
330
1F
100
AcDbEntity
  8
2
  6
CONTINUOUS
370
25
 62
7
100
AcDbLine
 10
22.97546895706427
 20
13.99509379141285
 30
0.0
 11
24.46320343559641
 21
12.50735931288072
 31
0.0
  0
LINE
  5
C5B
330
1F
100
AcDbEntity
  8
2
  6
CONTINUOUS
370
25
 62
7
100
AcDbLine
 10
23.32902234765754
 20
14.06580446953151
 30
0.0
 11
24.99353352148631
 21
12.40129329570274
 31
0.0
  0
LINE
  5
C5C
330
1F
100
AcDbEntity
  8
2
  6
CONTINUOUS
370
25
 62
7
100
AcDbLine
 10
23.68257573825082
 20
14.13651514765016
 30
0.0
 11
25.0
 21
12.81909088590098
 31
0.0
  0
LINE
  5
C5D
330
1F
100
AcDbEntity
  8
2
  6
CONTINUOUS
370
25
 62
7
100
AcDbLine
 10
24.03612912884409
 20
14.20722582576882
 30
0.0
 11
25.0
 21
13.24335495461291
 31
0.0
  0
LINE
  5
C5E
330
1F
100
AcDbEntity
  8
2
  6
CONTINUOUS
370
25
 62
7
100
AcDbLine
 10
24.38968251943736
 20
14.27793650388747
 30
0.0
 11
25.0
 21
13.66761902332483
 31
0.0
  0
LINE
  5
C5F
330
1F
100
AcDbEntity
  8
2
  6
CONTINUOUS
370
25
 62
7
100
AcDbLine
 10
24.74323591003063
 20
14.34864718200613
 30
0.0
 11
25.0
 21
14.09188309203676
 31
0.0
  0
LINE
  5
C60
330
1F
100
AcDbEntity
  8
2
  6
CONTINUOUS
370
25
 62
7
100
AcDbLine
 10
45.0
 20
13.4
 30
0.0
 11
40.0
 21
12.4
 31
0.0
  0
LINE
  5
C61
330
1F
100
AcDbEntity
  8
2
  6
CONTINUOUS
370
25
 62
7
100
AcDbLine
 10
40.0
 20
12.4
 30
0.0
 11
40.0
 21
14.4
 31
0.0
  0
LINE
  5
C62
330
1F
100
AcDbEntity
  8
2
  6
CONTINUOUS
370
25
 62
7
100
AcDbLine
 10
40.0
 20
14.4
 30
0.0
 11
45.0
 21
13.4
 31
0.0
  0
LINE
  5
C63
330
1F
100
AcDbEntity
  8
2
  6
CONTINUOUS
370
25
 62
7
100
AcDbLine
 10
44.62980998382403
 20
13.3259619967648
 30
0.0
 11
44.75320665588269
 21
13.44935866882346
 31
0.0
  0
LINE
  5
C64
330
1F
100
AcDbEntity
  8
2
  6
CONTINUOUS
370
25
 62
7
100
AcDbLine
 10
44.09947989793412
 20
13.21989597958682
 30
0.0
 11
44.39965326528942
 21
13.52006934694212
 31
0.0
  0
LINE
  5
C65
330
1F
100
AcDbEntity
  8
2
  6
CONTINUOUS
370
25
 62
7
100
AcDbLine
 10
43.56914981204422
 20
13.11382996240884
 30
0.0
 11
44.04609987469614
 21
13.59078002506077
 31
0.0
  0
LINE
  5
C66
330
1F
100
AcDbEntity
  8
2
  6
CONTINUOUS
370
25
 62
7
100
AcDbLine
 10
43.0388197261543
 20
13.00776394523086
 30
0.0
 11
43.69254648410287
 21
13.66149070317942
 31
0.0
  0
LINE
  5
C67
330
1F
100
AcDbEntity
  8
2
  6
CONTINUOUS
370
25
 62
7
100
AcDbLine
 10
42.50848964026439
 20
12.90169792805288
 30
0.0
 11
43.3389930935096
 21
13.73220138129808
 31
0.0
  0
LINE
  5
C68
330
1F
100
AcDbEntity
  8
2
  6
CONTINUOUS
370
25
 62
7
100
AcDbLine
 10
41.97815955437449
 20
12.7956319108749
 30
0.0
 11
42.98543970291632
 21
13.80291205941673
 31
0.0
  0
LINE
  5
C69
330
1F
100
AcDbEntity
  8
2
  6
CONTINUOUS
370
25
 62
7
100
AcDbLine
 10
41.44782946848457
 20
12.68956589369691
 30
0.0
 11
42.63188631232305
 21
13.87362273753539
 31
0.0
  0
LINE
  5
C6A
330
1F
100
AcDbEntity
  8
2
  6
CONTINUOUS
370
25
 62
7
100
AcDbLine
 10
40.91749938259467
 20
12.58349987651893
 30
0.0
 11
42.27833292172978
 21
13.94433341565404
 31
0.0
  0
LINE
  5
C6B
330
1F
100
AcDbEntity
  8
2
  6
CONTINUOUS
370
25
 62
7
100
AcDbLine
 10
40.38716929670476
 20
12.47743385934095
 30
0.0
 11
41.92477953113651
 21
14.0150440937727
 31
0.0
  0
LINE
  5
C6C
330
1F
100
AcDbEntity
  8
2
  6
CONTINUOUS
370
25
 62
7
100
AcDbLine
 10
40.0
 20
12.51452863134812
 30
0.0
 11
41.57122614054323
 21
14.08575477189135
 31
0.0
  0
LINE
  5
C6D
330
1F
100
AcDbEntity
  8
2
  6
CONTINUOUS
370
25
 62
7
100
AcDbLine
 10
40.0
 20
12.93879270006005
 30
0.0
 11
41.21767274994995
 21
14.15646545001001
 31
0.0
  0
LINE
  5
C6E
330
1F
100
AcDbEntity
  8
2
  6
CONTINUOUS
370
25
 62
7
100
AcDbLine
 10
40.0
 20
13.36305676877198
 30
0.0
 11
40.86411935935669
 21
14.22717612812866
 31
0.0
  0
LINE
  5
C6F
330
1F
100
AcDbEntity
  8
2
  6
CONTINUOUS
370
25
 62
7
100
AcDbLine
 10
40.0
 20
13.7873208374839
 30
0.0
 11
40.51056596876342
 21
14.29788680624732
 31
0.0
  0
LINE
  5
C70
330
1F
100
AcDbEntity
  8
2
  6
CONTINUOUS
370
25
 62
7
100
AcDbLine
 10
40.0
 20
14.21158490619583
 30
0.0
 11
40.15701257817014
 21
14.36859748436597
 31
0.0
  0
LINE
  5
C71
330
1F
100
AcDbEntity
  8
2
  6
CONTINUOUS
370
25
 62
7
100
AcDbLine
 10
40.0
 20
12.66833329081851
 30
0.0
 11
40.22361107568209
 21
12.44472221513642
 31
0.0
  0
LINE
  5
C72
330
1F
100
AcDbEntity
  8
2
  6
CONTINUOUS
370
25
 62
7
100
AcDbLine
 10
40.0
 20
13.09259735953043
 30
0.0
 11
40.57716446627536
 21
12.51543289325507
 31
0.0
  0
LINE
  5
C73
330
1F
100
AcDbEntity
  8
2
  6
CONTINUOUS
370
25
 62
7
100
AcDbLine
 10
40.0
 20
13.51686142824236
 30
0.0
 11
40.93071785686864
 21
12.58614357137373
 31
0.0
  0
LINE
  5
C74
330
1F
100
AcDbEntity
  8
2
  6
CONTINUOUS
370
25
 62
7
100
AcDbLine
 10
40.0
 20
13.94112549695429
 30
0.0
 11
41.2842712474619
 21
12.65685424949238
 31
0.0
  0
LINE
  5
C75
330
1F
100
AcDbEntity
  8
2
  6
CONTINUOUS
370
25
 62
7
100
AcDbLine
 10
40.0
 20
14.36538956566622
 30
0.0
 11
41.63782463805519
 21
12.72756492761104
 31
0.0
  0
LINE
  5
C76
330
1F
100
AcDbEntity
  8
2
  6
CONTINUOUS
370
25
 62
7
100
AcDbLine
 10
40.48706704297268
 20
14.30258659140546
 30
0.0
 11
41.99137802864846
 21
12.79827560572969
 31
0.0
  0
LINE
  5
C77
330
1F
100
AcDbEntity
  8
2
  6
CONTINUOUS
370
25
 62
7
100
AcDbLine
 10
41.0173971288626
 20
14.19652057422747
 30
0.0
 11
42.34493141924173
 21
12.86898628384835
 31
0.0
  0
LINE
  5
C78
330
1F
100
AcDbEntity
  8
2
  6
CONTINUOUS
370
25
 62
7
100
AcDbLine
 10
41.5477272147525
 20
14.0904545570495
 30
0.0
 11
42.698484809835
 21
12.939696961967
 31
0.0
  0
LINE
  5
C79
330
1F
100
AcDbEntity
  8
2
  6
CONTINUOUS
370
25
 62
7
100
AcDbLine
 10
42.07805730064241
 20
13.98438853987151
 30
0.0
 11
43.05203820042827
 21
13.01040764008566
 31
0.0
  0
LINE
  5
C7A
330
1F
100
AcDbEntity
  8
2
  6
CONTINUOUS
370
25
 62
7
100
AcDbLine
 10
42.60838738653233
 20
13.87832252269353
 30
0.0
 11
43.40559159102155
 21
13.08111831820431
 31
0.0
  0
LINE
  5
C7B
330
1F
100
AcDbEntity
  8
2
  6
CONTINUOUS
370
25
 62
7
100
AcDbLine
 10
43.13871747242224
 20
13.77225650551555
 30
0.0
 11
43.75914498161482
 21
13.15182899632297
 31
0.0
  0
LINE
  5
C7C
330
1F
100
AcDbEntity
  8
2
  6
CONTINUOUS
370
25
 62
7
100
AcDbLine
 10
43.66904755831214
 20
13.66619048833757
 30
0.0
 11
44.1126983722081
 21
13.22253967444162
 31
0.0
  0
LINE
  5
C7D
330
1F
100
AcDbEntity
  8
2
  6
CONTINUOUS
370
25
 62
7
100
AcDbLine
 10
44.19937764420206
 20
13.56012447115958
 30
0.0
 11
44.46625176280137
 21
13.29325035256027
 31
0.0
  0
LINE
  5
C7E
330
1F
100
AcDbEntity
  8
2
  6
CONTINUOUS
370
25
 62
7
100
AcDbLine
 10
44.72970773009197
 20
13.45405845398161
 30
0.0
 11
44.81980515339464
 21
13.36396103067893
 31
0.0
  0
TEXT
  5
C7F
330
1F
100
AcDbEntity
  8
2
  6
CONTINUOUS
370
25
 62
7
100
AcDbText
 10
29.58333333333334
 20
14.9
 30
0.0
 40
3.499999999999999
  1
25
 72
     1
 11
32.5
 21
14.9
 31
0.0
100
AcDbText
  0
LINE
  5
C80
330
1F
100
AcDbEntity
  8
2
  6
CONTINUOUS
370
25
 62
7
100
AcDbLine
 10
45.0
 20
-0.78
 30
0.0
 11
58.0
 21
-0.7800000000000016
 31
0.0
  0
LINE
  5
C81
330
1F
100
AcDbEntity
  8
2
  6
CONTINUOUS
370
25
 62
7
100
AcDbLine
 10
58.0
 20
0.7799999999999985
 30
0.0
 11
45.0
 21
0.78
 31
0.0
  0
LINE
  5
C82
330
1F
100
AcDbEntity
  8
2
  6
CONTINUOUS
370
25
 62
7
100
AcDbLine
 10
57.0
 20
-7.780000000000001
 30
0.0
 11
57.0
 21
23.18
 31
0.0
  0
LINE
  5
C83
330
1F
100
AcDbEntity
  8
2
  6
CONTINUOUS
370
25
 62
7
100
AcDbLine
 10
57.0
 20
-0.7800000000000015
 30
0.0
 11
58.0
 21
-5.780000000000001
 31
0.0
  0
LINE
  5
C84
330
1F
100
AcDbEntity
  8
2
  6
CONTINUOUS
370
25
 62
7
100
AcDbLine
 10
58.0
 20
-5.780000000000001
 30
0.0
 11
56.0
 21
-5.780000000000001
 31
0.0
  0
LINE
  5
C85
330
1F
100
AcDbEntity
  8
2
  6
CONTINUOUS
370
25
 62
7
100
AcDbLine
 10
56.0
 20
-5.780000000000001
 30
0.0
 11
57.0
 21
-0.7800000000000015
 31
0.0
  0
LINE
  5
C86
330
1F
100
AcDbEntity
  8
2
  6
CONTINUOUS
370
25
 62
7
100
AcDbLine
 10
57.76109910851227
 20
-5.780000000000001
 30
0.0
 11
57.96018318475205
 21
-5.580915923760223
 31
0.0
  0
LINE
  5
C87
330
1F
100
AcDbEntity
  8
2
  6
CONTINUOUS
370
25
 62
7
100
AcDbLine
 10
57.33683503980033
 20
-5.780000000000001
 30
0.0
 11
57.88947250663339
 21
-5.227362533166946
 31
0.0
  0
LINE
  5
C88
330
1F
100
AcDbEntity
  8
2
  6
CONTINUOUS
370
25
 62
7
100
AcDbLine
 10
56.91257097108841
 20
-5.780000000000001
 30
0.0
 11
57.81876182851474
 21
-4.87380914257367
 31
0.0
  0
LINE
  5
C89
330
1F
100
AcDbEntity
  8
2
  6
CONTINUOUS
370
25
 62
7
100
AcDbLine
 10
56.48830690237648
 20
-5.780000000000001
 30
0.0
 11
57.74805115039609
 21
-4.520255751980393
 31
0.0
  0
LINE
  5
C8A
330
1F
100
AcDbEntity
  8
2
  6
CONTINUOUS
370
25
 62
7
100
AcDbLine
 10
56.06404283366454
 20
-5.780000000000001
 30
0.0
 11
57.67734047227743
 21
-4.166702361387117
 31
0.0
  0
LINE
  5
C8B
330
1F
100
AcDbEntity
  8
2
  6
CONTINUOUS
370
25
 62
7
100
AcDbLine
 10
56.09005530876185
 20
-5.32972345619077
 30
0.0
 11
57.60662979415877
 21
-3.81314897079384
 31
0.0
  0
LINE
  5
C8C
330
1F
100
AcDbEntity
  8
2
  6
CONTINUOUS
370
25
 62
7
100
AcDbLine
 10
56.19612132593983
 20
-4.799393370300848
 30
0.0
 11
57.53591911604011
 21
-3.459595580200563
 31
0.0
  0
LINE
  5
C8D
330
1F
100
AcDbEntity
  8
2
  6
CONTINUOUS
370
25
 62
7
100
AcDbLine
 10
56.30218734311782
 20
-4.269063284410933
 30
0.0
 11
57.46520843792145
 21
-3.106042189607287
 31
0.0
  0
LINE
  5
C8E
330
1F
100
AcDbEntity
  8
2
  6
CONTINUOUS
370
25
 62
7
100
AcDbLine
 10
56.4082533602958
 20
-3.738733198521025
 30
0.0
 11
57.3944977598028
 21
-2.75248879901401
 31
0.0
  0
LINE
  5
C8F
330
1F
100
AcDbEntity
  8
2
  6
CONTINUOUS
370
25
 62
7
100
AcDbLine
 10
56.51431937747378
 20
-3.208403112631117
 30
0.0
 11
57.32378708168415
 21
-2.398935408420741
 31
0.0
  0
LINE
  5
C90
330
1F
100
AcDbEntity
  8
2
  6
CONTINUOUS
370
25
 62
7
100
AcDbLine
 10
56.62038539465176
 20
-2.678073026741195
 30
0.0
 11
57.25307640356549
 21
-2.045382017827457
 31
0.0
  0
LINE
  5
C91
330
1F
100
AcDbEntity
  8
2
  6
CONTINUOUS
370
25
 62
7
100
AcDbLine
 10
56.72645141182974
 20
-2.147742940851288
 30
0.0
 11
57.18236572544684
 21
-1.691828627234194
 31
0.0
  0
LINE
  5
C92
330
1F
100
AcDbEntity
  8
2
  6
CONTINUOUS
370
25
 62
7
100
AcDbLine
 10
56.83251742900772
 20
-1.617412854961373
 30
0.0
 11
57.11165504732818
 21
-1.338275236640911
 31
0.0
  0
LINE
  5
C93
330
1F
100
AcDbEntity
  8
2
  6
CONTINUOUS
370
25
 62
7
100
AcDbLine
 10
56.93858344618571
 20
-1.087082769071451
 30
0.0
 11
57.04094436920953
 21
-0.9847218460476341
 31
0.0
  0
LINE
  5
C94
330
1F
100
AcDbEntity
  8
2
  6
CONTINUOUS
370
25
 62
7
100
AcDbLine
 10
56.05450215787647
 20
-5.507489210617639
 30
0.0
 11
56.32701294725883
 21
-5.779999999999998
 31
0.0
  0
LINE
  5
C95
330
1F
100
AcDbEntity
  8
2
  6
CONTINUOUS
370
25
 62
7
100
AcDbLine
 10
56.12521283599513
 20
-5.153935820024369
 30
0.0
 11
56.75127701597076
 21
-5.779999999999998
 31
0.0
  0
LINE
  5
C96
330
1F
100
AcDbEntity
  8
2
  6
CONTINUOUS
370
25
 62
7
100
AcDbLine
 10
56.19592351411378
 20
-4.800382429431089
 30
0.0
 11
57.17554108468269
 21
-5.780000000000001
 31
0.0
  0
LINE
  5
C97
330
1F
100
AcDbEntity
  8
2
  6
CONTINUOUS
370
25
 62
7
100
AcDbLine
 10
56.26663419223243
 20
-4.446829038837809
 30
0.0
 11
57.59980515339463
 21
-5.780000000000005
 31
0.0
  0
LINE
  5
C98
330
1F
100
AcDbEntity
  8
2
  6
CONTINUOUS
370
25
 62
7
100
AcDbLine
 10
56.33734487035109
 20
-4.093275648244543
 30
0.0
 11
57.99398269447336
 21
-5.749913472366806
 31
0.0
  0
LINE
  5
C99
330
1F
100
AcDbEntity
  8
2
  6
CONTINUOUS
370
25
 62
7
100
AcDbLine
 10
56.40805554846975
 20
-3.739722257651273
 30
0.0
 11
57.88791667729538
 21
-5.219583386476899
 31
0.0
  0
LINE
  5
C9A
330
1F
100
AcDbEntity
  8
2
  6
CONTINUOUS
370
25
 62
7
100
AcDbLine
 10
56.4787662265884
 20
-3.386168867057989
 30
0.0
 11
57.7818506601174
 21
-4.689253300586984
 31
0.0
  0
LINE
  5
C9B
330
1F
100
AcDbEntity
  8
2
  6
CONTINUOUS
370
25
 62
7
100
AcDbLine
 10
56.54947690470706
 20
-3.032615476464713
 30
0.0
 11
57.67578464293941
 21
-4.158923214697062
 31
0.0
  0
LINE
  5
C9C
330
1F
100
AcDbEntity
  8
2
  6
CONTINUOUS
370
25
 62
7
100
AcDbLine
 10
56.62018758282571
 20
-2.679062085871436
 30
0.0
 11
57.56971862576143
 21
-3.628593128807154
 31
0.0
  0
LINE
  5
C9D
330
1F
100
AcDbEntity
  8
2
  6
CONTINUOUS
370
25
 62
7
100
AcDbLine
 10
56.69089826094437
 20
-2.32550869527816
 30
0.0
 11
57.46365260858344
 21
-3.098263042917232
 31
0.0
  0
LINE
  5
C9E
330
1F
100
AcDbEntity
  8
2
  6
CONTINUOUS
370
25
 62
7
100
AcDbLine
 10
56.76160893906302
 20
-1.971955304684897
 30
0.0
 11
57.35758659140546
 21
-2.567932957027331
 31
0.0
  0
LINE
  5
C9F
330
1F
100
AcDbEntity
  8
2
  6
CONTINUOUS
370
25
 62
7
100
AcDbLine
 10
56.83231961718167
 20
-1.618401914091613
 30
0.0
 11
57.25152057422748
 21
-2.037602871137423
 31
0.0
  0
LINE
  5
CA0
330
1F
100
AcDbEntity
  8
2
  6
CONTINUOUS
370
25
 62
7
100
AcDbLine
 10
56.90303029530033
 20
-1.264848523498344
 30
0.0
 11
57.1454545570495
 21
-1.507272785247515
 31
0.0
  0
LINE
  5
CA1
330
1F
100
AcDbEntity
  8
2
  6
CONTINUOUS
370
25
 62
7
100
AcDbLine
 10
56.97374097341898
 20
-0.9112951329050603
 30
0.0
 11
57.03938853987152
 21
-0.9769426993576005
 31
0.0
  0
LINE
  5
CA2
330
1F
100
AcDbEntity
  8
2
  6
CONTINUOUS
370
25
 62
7
100
AcDbLine
 10
57.0
 20
0.7799999999999986
 30
0.0
 11
56.0
 21
5.779999999999998
 31
0.0
  0
LINE
  5
CA3
330
1F
100
AcDbEntity
  8
2
  6
CONTINUOUS
370
25
 62
7
100
AcDbLine
 10
56.0
 20
5.779999999999998
 30
0.0
 11
58.0
 21
5.779999999999998
 31
0.0
  0
LINE
  5
CA4
330
1F
100
AcDbEntity
  8
2
  6
CONTINUOUS
370
25
 62
7
100
AcDbLine
 10
58.0
 20
5.779999999999998
 30
0.0
 11
57.0
 21
0.7799999999999986
 31
0.0
  0
LINE
  5
CA5
330
1F
100
AcDbEntity
  8
2
  6
CONTINUOUS
370
25
 62
7
100
AcDbLine
 10
56.95275533362789
 20
1.016223331860537
 30
0.0
 11
57.07086699955816
 21
1.134334997790809
 31
0.0
  0
LINE
  5
CA6
330
1F
100
AcDbEntity
  8
2
  6
CONTINUOUS
370
25
 62
7
100
AcDbLine
 10
56.88204465550924
 20
1.369776722453821
 30
0.0
 11
57.17693301673614
 21
1.664665083680724
 31
0.0
  0
LINE
  5
CA7
330
1F
100
AcDbEntity
  8
2
  6
CONTINUOUS
370
25
 62
7
100
AcDbLine
 10
56.81133397739058
 20
1.723330113047091
 30
0.0
 11
57.28299903391413
 21
2.194995169570639
 31
0.0
  0
LINE
  5
CA8
330
1F
100
AcDbEntity
  8
2
  6
CONTINUOUS
370
25
 62
7
100
AcDbLine
 10
56.74062329927192
 20
2.076883503640367
 30
0.0
 11
57.38906505109212
 21
2.725325255460561
 31
0.0
  0
LINE
  5
CA9
330
1F
100
AcDbEntity
  8
2
  6
CONTINUOUS
370
25
 62
7
100
AcDbLine
 10
56.66991262115327
 20
2.430436894233644
 30
0.0
 11
57.4951310682701
 21
3.255655341350476
 31
0.0
  0
LINE
  5
CAA
330
1F
100
AcDbEntity
  8
2
  6
CONTINUOUS
370
25
 62
7
100
AcDbLine
 10
56.59920194303461
 20
2.78399028482692
 30
0.0
 11
57.60119708544808
 21
3.785985427240384
 31
0.0
  0
LINE
  5
CAB
330
1F
100
AcDbEntity
  8
2
  6
CONTINUOUS
370
25
 62
7
100
AcDbLine
 10
56.52849126491596
 20
3.137543675420197
 30
0.0
 11
57.70726310262607
 21
4.316315513130306
 31
0.0
  0
LINE
  5
CAC
330
1F
100
AcDbEntity
  8
2
  6
CONTINUOUS
370
25
 62
7
100
AcDbLine
 10
56.45778058679731
 20
3.491097066013474
 30
0.0
 11
57.81332911980405
 21
4.846645599020214
 31
0.0
  0
LINE
  5
CAD
330
1F
100
AcDbEntity
  8
2
  6
CONTINUOUS
370
25
 62
7
100
AcDbLine
 10
56.38706990867865
 20
3.844650456606743
 30
0.0
 11
57.91939513698203
 21
5.376975684910121
 31
0.0
  0
LINE
  5
CAE
330
1F
100
AcDbEntity
  8
2
  6
CONTINUOUS
370
25
 62
7
100
AcDbLine
 10
56.31635923056
 20
4.19820384720002
 30
0.0
 11
57.89815538335998
 21
5.780000000000001
 31
0.0
  0
LINE
  5
CAF
330
1F
100
AcDbEntity
  8
2
  6
CONTINUOUS
370
25
 62
7
100
AcDbLine
 10
56.24564855244134
 20
4.551757237793293
 30
0.0
 11
57.47389131464804
 21
5.779999999999998
 31
0.0
  0
LINE
  5
CB0
330
1F
100
AcDbEntity
  8
2
  6
CONTINUOUS
370
25
 62
7
100
AcDbLine
 10
56.17493787432269
 20
4.905310628386577
 30
0.0
 11
57.04962724593611
 21
5.779999999999998
 31
0.0
  0
LINE
  5
CB1
330
1F
100
AcDbEntity
  8
2
  6
CONTINUOUS
370
25
 62
7
100
AcDbLine
 10
56.10422719620403
 20
5.258864018979846
 30
0.0
 11
56.62536317722418
 21
5.779999999999998
 31
0.0
  0
LINE
  5
CB2
330
1F
100
AcDbEntity
  8
2
  6
CONTINUOUS
370
25
 62
7
100
AcDbLine
 10
56.03351651808538
 20
5.612417409573126
 30
0.0
 11
56.20109910851225
 21
5.780000000000001
 31
0.0
  0
LINE
  5
CB3
330
1F
100
AcDbEntity
  8
2
  6
CONTINUOUS
370
25
 62
7
100
AcDbLine
 10
56.8990584539816
 20
1.284707730091959
 30
0.0
 11
57.06729436401226
 21
1.1164718200613
 31
0.0
  0
LINE
  5
CB4
330
1F
100
AcDbEntity
  8
2
  6
CONTINUOUS
370
25
 62
7
100
AcDbLine
 10
56.79299243680363
 20
1.81503781598186
 30
0.0
 11
57.13800504213091
 21
1.470025210654576
 31
0.0
  0
LINE
  5
CB5
330
1F
100
AcDbEntity
  8
2
  6
CONTINUOUS
370
25
 62
7
100
AcDbLine
 10
56.68692641962564
 20
2.345367901871775
 30
0.0
 11
57.20871572024957
 21
1.823578601247846
 31
0.0
  0
LINE
  5
CB6
330
1F
100
AcDbEntity
  8
2
  6
CONTINUOUS
370
25
 62
7
100
AcDbLine
 10
56.58086040244766
 20
2.87569798776169
 30
0.0
 11
57.27942639836822
 21
2.177131991841129
 31
0.0
  0
LINE
  5
CB7
330
1F
100
AcDbEntity
  8
2
  6
CONTINUOUS
370
25
 62
7
100
AcDbLine
 10
56.47479438526968
 20
3.406028073651598
 30
0.0
 11
57.35013707648688
 21
2.530685382434406
 31
0.0
  0
LINE
  5
CB8
330
1F
100
AcDbEntity
  8
2
  6
CONTINUOUS
370
25
 62
7
100
AcDbLine
 10
56.36872836809169
 20
3.93635815954152
 30
0.0
 11
57.42084775460554
 21
2.884238773027676
 31
0.0
  0
LINE
  5
CB9
330
1F
100
AcDbEntity
  8
2
  6
CONTINUOUS
370
25
 62
7
100
AcDbLine
 10
56.26266235091371
 20
4.466688245431428
 30
0.0
 11
57.49155843272419
 21
3.237792163620959
 31
0.0
  0
LINE
  5
CBA
330
1F
100
AcDbEntity
  8
2
  6
CONTINUOUS
370
25
 62
7
100
AcDbLine
 10
56.15659633373573
 20
4.997018331321335
 30
0.0
 11
57.56226911084284
 21
3.591345554214236
 31
0.0
  0
LINE
  5
CBB
330
1F
100
AcDbEntity
  8
2
  6
CONTINUOUS
370
25
 62
7
100
AcDbLine
 10
56.05053031655775
 20
5.527348417211243
 30
0.0
 11
57.6329797889615
 21
3.944898944807505
 31
0.0
  0
LINE
  5
CBC
330
1F
100
AcDbEntity
  8
2
  6
CONTINUOUS
370
25
 62
7
100
AcDbLine
 10
56.22214280248093
 20
5.780000000000001
 30
0.0
 11
57.70369046708016
 21
4.298452335400782
 31
0.0
  0
LINE
  5
CBD
330
1F
100
AcDbEntity
  8
2
  6
CONTINUOUS
370
25
 62
7
100
AcDbLine
 10
56.64640687119287
 20
5.780000000000001
 30
0.0
 11
57.77440114519881
 21
4.652005725994059
 31
0.0
  0
LINE
  5
CBE
330
1F
100
AcDbEntity
  8
2
  6
CONTINUOUS
370
25
 62
7
100
AcDbLine
 10
57.07067093990479
 20
5.780000000000001
 30
0.0
 11
57.84511182331747
 21
5.005559116587328
 31
0.0
  0
LINE
  5
CBF
330
1F
100
AcDbEntity
  8
2
  6
CONTINUOUS
370
25
 62
7
100
AcDbLine
 10
57.49493500861672
 20
5.780000000000001
 30
0.0
 11
57.91582250143612
 21
5.359112507180605
 31
0.0
  0
LINE
  5
CC0
330
1F
100
AcDbEntity
  8
2
  6
CONTINUOUS
370
25
 62
7
100
AcDbLine
 10
57.91919907732866
 20
5.780000000000001
 30
0.0
 11
57.98653317955478
 21
5.712665897773888
 31
0.0
  0
TEXT
  5
CC1
330
1F
100
AcDbEntity
  8
2
  6
CONTINUOUS
370
25
 62
7
100
AcDbText
 10
55.5
 20
12.08833333333333
 30
0.0
 40
3.5
  1
1.56
 50
90.00000000000001
 72
     1
 11
55.5
 21
16.755
 31
0.0
100
AcDbText
  0
CIRCLE
  5
CC2
330
1F
100
AcDbEntity
  8
2
  6
CONTINUOUS
370
25
 62
7
100
AcDbCircle
 10
53.75
 20
8.704999999999998
 30
0.0
 40
1.4
  0
LINE
  5
CC3
330
1F
100
AcDbEntity
  8
2
  6
CONTINUOUS
370
25
 62
7
100
AcDbLine
 10
55.15
 20
7.305
 30
0.0
 11
52.35
 21
10.105
 31
0.0
  0
LINE
  5
CC4
330
1F
100
AcDbEntity
  8
SK1
  6
CONTINUOUS
370
50
 62
4
100
AcDbLine
 10
20.0
 20
0.0
 30
0.0
 11
21.75
 21
0.0
 31
0.0
  0
LINE
  5
CC5
330
1F
100
AcDbEntity
  8
SK1
  6
CONTINUOUS
370
50
 62
4
100
AcDbLine
 10
20.0
 20
0.0
 30
0.0
 11
20.0
 21
1.75
 31
0.0
  0
ARC
  5
CC6
330
1F
100
AcDbEntity
  8
SK1
  6
CONTINUOUS
370
50
 62
4
100
AcDbCircle
 10
20.0
 20
0.0
 30
0.0
 40
1.75
100
AcDbArc
 50
0.0
 51
90.0
  0
LINE
  5
CC7
330
1F
100
AcDbEntity
  8
SK1
  6
CONTINUOUS
370
50
 62
4
100
AcDbLine
 10
20.0
 20
0.0
 30
0.0
 11
18.25
 21
0.0
 31
0.0
  0
ARC
  5
CC8
330
1F
100
AcDbEntity
  8
SK1
  6
CONTINUOUS
370
50
 62
4
100
AcDbCircle
 10
20.0
 20
0.0
 30
0.0
 40
1.75
100
AcDbArc
 50
180.0
 51
270.0
  0
LINE
  5
CC9
330
1F
100
AcDbEntity
  8
SK1
  6
CONTINUOUS
370
50
 62
4
100
AcDbLine
 10
20.0
 20
-1.75
 30
0.0
 11
20.0
 21
0.0
 31
0.0
  0
ARC
  5
CCA
330
1F
100
AcDbEntity
  8
SK1
  6
CONTINUOUS
370
50
 62
4
100
AcDbCircle
 10
20.0
 20
0.0
 30
0.0
 40
1.75
100
AcDbArc
 50
270.0
 51
0.0
  0
ARC
  5
CCB
330
1F
100
AcDbEntity
  8
SK1
  6
CONTINUOUS
370
50
 62
4
100
AcDbCircle
 10
20.0
 20
0.0
 30
0.0
 40
1.75
100
AcDbArc
 50
90.0
 51
180.0
  0
LINE
  5
CCC
330
1F
100
AcDbEntity
  8
SK1
  6
CONTINUOUS
370
50
 62
4
100
AcDbLine
 10
19.77717274741573
 20
-1.73564731720198
 30
0.0
 11
20.0
 21
-1.512820064617713
 31
0.0
  0
LINE
  5
CCD
330
1F
100
AcDbEntity
  8
SK1
  6
CONTINUOUS
370
50
 62
4
100
AcDbLine
 10
21.51282006461771
 20
0.0
 30
0.0
 11
21.73564731720198
 21
0.2228272525842674
 31
0.0
  0
LINE
  5
CCE
330
1F
100
AcDbEntity
  8
SK1
  6
CONTINUOUS
370
50
 62
4
100
AcDbLine
 10
19.56930380681873
 20
-1.69602888438369
 30
0.0
 11
20.0
 21
-1.265332691202421
 31
0.0
  0
LINE
  5
CCF
330
1F
100
AcDbEntity
  8
SK1
  6
CONTINUOUS
370
50
 62
4
100
AcDbLine
 10
21.26533269120242
 20
0.0
 30
0.0
 11
21.69602888438369
 21
0.4306961931812696
 31
0.0
  0
LINE
  5
CD0
330
1F
100
AcDbEntity
  8
SK1
  6
CONTINUOUS
370
50
 62
4
100
AcDbLine
 10
19.38148340435765
 20
-1.636361913429485
 30
0.0
 11
20.0
 21
-1.01784531778713
 31
0.0
  0
LINE
  5
CD1
330
1F
100
AcDbEntity
  8
SK1
  6
CONTINUOUS
370
50
 62
4
100
AcDbLine
 10
21.01784531778713
 20
0.0
 30
0.0
 11
21.63636191342949
 21
0.6185165956423557
 31
0.0
  0
LINE
  5
CD2
330
1F
100
AcDbEntity
  8
SK1
  6
CONTINUOUS
370
50
 62
4
100
AcDbLine
 10
19.2098551094628
 20
-1.560502834909039
 30
0.0
 11
20.0
 21
-0.7703579443718382
 31
0.0
  0
LINE
  5
CD3
330
1F
100
AcDbEntity
  8
SK1
  6
CONTINUOUS
370
50
 62
4
100
AcDbLine
 10
20.77035794437184
 20
0.0
 30
0.0
 11
21.56050283490904
 21
0.7901448905372013
 31
0.0
  0
LINE
  5
CD4
330
1F
100
AcDbEntity
  8
SK1
  6
CONTINUOUS
370
50
 62
4
100
AcDbLine
 10
19.05217783219447
 20
-1.470692738762079
 30
0.0
 11
20.0
 21
-0.5228705709565462
 31
0.0
  0
LINE
  5
CD5
330
1F
100
AcDbEntity
  8
SK1
  6
CONTINUOUS
370
50
 62
4
100
AcDbLine
 10
20.52287057095655
 20
0.0
 30
0.0
 11
21.47069273876208
 21
0.947822167805533
 31
0.0
  0
LINE
  5
CD6
330
1F
100
AcDbEntity
  8
SK1
  6
CONTINUOUS
370
50
 62
4
100
AcDbLine
 10
18.90842956711548
 20
-1.366953630425777
 30
0.0
 11
20.0
 21
-0.2753831975412551
 31
0.0
  0
LINE
  5
CD7
330
1F
100
AcDbEntity
  8
SK1
  6
CONTINUOUS
370
50
 62
4
100
AcDbLine
 10
20.27538319754126
 20
0.0
 30
0.0
 11
21.36695363042578
 21
1.091570432884522
 31
0.0
  0
LINE
  5
CD8
330
1F
100
AcDbEntity
  8
SK1
  6
CONTINUOUS
370
50
 62
4
100
AcDbLine
 10
18.77712164538164
 20
-1.25077417874432
 30
0.0
 11
20.0
 21
-0.0278958241259639
 31
0.0
  0
LINE
  5
CD9
330
1F
100
AcDbEntity
  8
SK1
  6
CONTINUOUS
370
50
 62
4
100
AcDbLine
 10
20.02789582412596
 20
0.0
 30
0.0
 11
21.25077417874432
 21
1.222878354618356
 31
0.0
  0
LINE
  5
CDA
330
1F
100
AcDbEntity
  8
SK1
  6
CONTINUOUS
370
50
 62
4
100
AcDbLine
 10
18.65784030371346
 20
-1.122568146997212
 30
0.0
 11
19.78040845071067
 21
0.0
 31
0.0
  0
LINE
  5
CDB
330
1F
100
AcDbEntity
  8
SK1
  6
CONTINUOUS
370
50
 62
4
100
AcDbLine
 10
20.0
 20
0.2195915492893277
 30
0.0
 11
21.12256814699721
 21
1.34215969628654
 31
0.0
  0
LINE
  5
CDC
330
1F
100
AcDbEntity
  8
SK1
  6
CONTINUOUS
370
50
 62
4
100
AcDbLine
 10
18.55188167231256
 20
-0.9810394049828186
 30
0.0
 11
19.53292107729538
 21
0.0
 31
0.0
  0
LINE
  5
CDD
330
1F
100
AcDbEntity
  8
SK1
  6
CONTINUOUS
370
50
 62
4
100
AcDbLine
 10
20.0
 20
0.4670789227046193
 30
0.0
 11
20.98103940498282
 21
1.448118327687438
 31
0.0
  0
LINE
  5
CDE
330
1F
100
AcDbEntity
  8
SK1
  6
CONTINUOUS
370
50
 62
4
100
AcDbLine
 10
18.45832908651575
 20
-0.8271046173643402
 30
0.0
 11
19.28543370388009
 21
0.0
 31
0.0
  0
LINE
  5
CDF
330
1F
100
AcDbEntity
  8
SK1
  6
CONTINUOUS
370
50
 62
4
100
AcDbLine
 10
20.0
 20
0.71456629611991
 30
0.0
 11
20.82710461736434
 21
1.54167091348425
 31
0.0
  0
LINE
  5
CE0
330
1F
100
AcDbEntity
  8
SK1
  6
CONTINUOUS
370
50
 62
4
100
AcDbLine
 10
18.37918473824205
 20
-0.6587615922227528
 30
0.0
 11
19.0379463304648
 21
0.0
 31
0.0
  0
LINE
  5
CE1
330
1F
100
AcDbEntity
  8
SK1
  6
CONTINUOUS
370
50
 62
4
100
AcDbLine
 10
20.0
 20
0.9620536695352015
 30
0.0
 11
20.65876159222275
 21
1.620815261757954
 31
0.0
  0
LINE
  5
CE2
330
1F
100
AcDbEntity
  8
SK1
  6
CONTINUOUS
370
50
 62
4
100
AcDbLine
 10
18.31629687706963
 20
-0.474162079979876
 30
0.0
 11
18.79045895704951
 21
0.0
 31
0.0
  0
LINE
  5
CE3
330
1F
100
AcDbEntity
  8
SK1
  6
CONTINUOUS
370
50
 62
4
100
AcDbLine
 10
20.0
 20
1.209541042950494
 30
0.0
 11
20.47416207997988
 21
1.683703122930369
 31
0.0
  0
LINE
  5
CE4
330
1F
100
AcDbEntity
  8
SK1
  6
CONTINUOUS
370
50
 62
4
100
AcDbLine
 10
18.27198100434271
 20
-0.2709905792915031
 30
0.0
 11
18.54297158363422
 21
0.0
 31
0.0
  0
LINE
  5
CE5
330
1F
100
AcDbEntity
  8
SK1
  6
CONTINUOUS
370
50
 62
4
100
AcDbLine
 10
20.0
 20
1.457028416365784
 30
0.0
 11
20.2709905792915
 21
1.728018995657286
 31
0.0
  0
LINE
  5
CE6
330
1F
100
AcDbEntity
  8
SK1
  6
CONTINUOUS
370
50
 62
4
100
AcDbLine
 10
18.2513858468978
 20
-0.0440983633211194
 30
0.0
 11
18.29548421021893
 21
0.0
 31
0.0
  0
LINE
  5
CE7
330
1F
100
AcDbEntity
  8
SK1
  6
CONTINUOUS
370
50
 62
4
100
AcDbLine
 10
20.0
 20
1.704515789781075
 30
0.0
 11
20.04409836332112
 21
1.748614153102194
 31
0.0
  0
LINE
  5
CE8
330
1F
100
AcDbEntity
  8
SK1
  6
CONTINUOUS
370
50
 62
4
100
AcDbLine
 10
18.36386517603681
 20
-0.6191473609004006
 30
0.0
 11
19.3808526390996
 21
-1.636134823963186
 31
0.0
  0
LINE
  5
CE9
330
1F
100
AcDbEntity
  8
SK1
  6
CONTINUOUS
370
50
 62
4
100
AcDbLine
 10
18.27363430643545
 20
-0.2814291178837463
 30
0.0
 11
19.71857088211625
 21
-1.726365693564548
 31
0.0
  0
LINE
  5
CEA
330
1F
100
AcDbEntity
  8
SK1
  6
CONTINUOUS
370
50
 62
4
100
AcDbLine
 10
18.2503344343115
 20
-0.0106418723445003
 30
0.0
 11
19.9893581276555
 21
-1.749665565688503
 31
0.0
  0
LINE
  5
CEB
330
1F
100
AcDbEntity
  8
SK1
  6
CONTINUOUS
370
50
 62
4
100
AcDbLine
 10
18.48717993538229
 20
0.0
 30
0.0
 11
20.0
 21
-1.51282006461771
 31
0.0
  0
LINE
  5
CEC
330
1F
100
AcDbEntity
  8
SK1
  6
CONTINUOUS
370
50
 62
4
100
AcDbLine
 10
18.73466730879758
 20
0.0
 30
0.0
 11
20.0
 21
-1.265332691202418
 31
0.0
  0
LINE
  5
CED
330
1F
100
AcDbEntity
  8
SK1
  6
CONTINUOUS
370
50
 62
4
100
AcDbLine
 10
18.98215468221287
 20
0.0
 30
0.0
 11
20.0
 21
-1.017845317787128
 31
0.0
  0
LINE
  5
CEE
330
1F
100
AcDbEntity
  8
SK1
  6
CONTINUOUS
370
50
 62
4
100
AcDbLine
 10
19.22964205562816
 20
0.0
 30
0.0
 11
20.0
 21
-0.7703579443718369
 31
0.0
  0
LINE
  5
CEF
330
1F
100
AcDbEntity
  8
SK1
  6
CONTINUOUS
370
50
 62
4
100
AcDbLine
 10
19.47712942904345
 20
0.0
 30
0.0
 11
20.0
 21
-0.5228705709565453
 31
0.0
  0
LINE
  5
CF0
330
1F
100
AcDbEntity
  8
SK1
  6
CONTINUOUS
370
50
 62
4
100
AcDbLine
 10
19.72461680245875
 20
0.0
 30
0.0
 11
20.0
 21
-0.2753831975412537
 31
0.0
  0
LINE
  5
CF1
330
1F
100
AcDbEntity
  8
SK1
  6
CONTINUOUS
370
50
 62
4
100
AcDbLine
 10
19.97210417587404
 20
0.0
 30
0.0
 11
20.0
 21
-0.027895824125963
 31
0.0
  0
LINE
  5
CF2
330
1F
100
AcDbEntity
  8
SK1
  6
CONTINUOUS
370
50
 62
4
100
AcDbLine
 10
20.0
 20
0.219591549289329
 30
0.0
 11
20.21959154928933
 21
0.0
 31
0.0
  0
LINE
  5
CF3
330
1F
100
AcDbEntity
  8
SK1
  6
CONTINUOUS
370
50
 62
4
100
AcDbLine
 10
20.0
 20
0.4670789227046202
 30
0.0
 11
20.46707892270462
 21
0.0
 31
0.0
  0
LINE
  5
CF4
330
1F
100
AcDbEntity
  8
SK1
  6
CONTINUOUS
370
50
 62
4
100
AcDbLine
 10
20.0
 20
0.7145662961199113
 30
0.0
 11
20.71456629611991
 21
0.0
 31
0.0
  0
LINE
  5
CF5
330
1F
100
AcDbEntity
  8
SK1
  6
CONTINUOUS
370
50
 62
4
100
AcDbLine
 10
20.0
 20
0.9620536695352029
 30
0.0
 11
20.96205366953521
 21
0.0
 31
0.0
  0
LINE
  5
CF6
330
1F
100
AcDbEntity
  8
SK1
  6
CONTINUOUS
370
50
 62
4
100
AcDbLine
 10
20.0
 20
1.209541042950494
 30
0.0
 11
21.20954104295049
 21
0.0
 31
0.0
  0
LINE
  5
CF7
330
1F
100
AcDbEntity
  8
SK1
  6
CONTINUOUS
370
50
 62
4
100
AcDbLine
 10
20.0
 20
1.457028416365785
 30
0.0
 11
21.45702841636579
 21
0.0
 31
0.0
  0
LINE
  5
CF8
330
1F
100
AcDbEntity
  8
SK1
  6
CONTINUOUS
370
50
 62
4
100
AcDbLine
 10
20.0
 20
1.704515789781076
 30
0.0
 11
21.70451578978108
 21
0.0
 31
0.0
  0
LINE
  5
CF9
330
1F
100
AcDbEntity
  8
SK1
  6
CONTINUOUS
370
50
 62
4
100
AcDbLine
 10
20.21543384193567
 20
1.736569321260697
 30
0.0
 11
21.7365693212607
 21
0.2154338419356714
 31
0.0
  0
LINE
  5
CFA
330
1F
100
AcDbEntity
  8
SK1
  6
CONTINUOUS
370
50
 62
4
100
AcDbLine
 10
20.53283284728993
 20
1.666657689321729
 30
0.0
 11
21.66665768932173
 21
0.5328328472899322
 31
0.0
  0
LINE
  5
CFB
330
1F
100
AcDbEntity
  8
SK1
  6
CONTINUOUS
370
50
 62
4
100
AcDbLine
 10
21.04009874905675
 20
1.406879160970207
 30
0.0
 11
21.4068791609702
 21
1.040098749056747
 31
0.0
  0
ARC
  5
CFC
330
1F
100
AcDbEntity
  8
SK6
  6
CONTINUOUS
370
25
 62
5
100
AcDbCircle
 10
68.9613820083765
 20
-26.08524575338786
 30
0.0
 40
2.76048912849221
100
AcDbArc
 50
338.9379403434233
 51
90.44457437511365
  0
LINE
  5
CFD
330
1F
100
AcDbEntity
  8
SK6
  6
CONTINUOUS
370
25
 62
5
100
AcDbLine
 10
68.93996279695983
 20
-23.32483972421281
 30
0.0
 11
68.93996279695983
 21
-24.42789835613463
 31
0.0
  0
ARC
  5
CFE
330
1F
100
AcDbEntity
  8
SK6
  6
CONTINUOUS
370
25
 62
5
100
AcDbCircle
 10
68.95050902936916
 20
-26.1052392456682
 30
0.0
 40
1.677374043771779
100
AcDbArc
 50
243.4214706017868
 51
90.36024081226083
  0
ARC
  5
CFF
330
1F
100
AcDbEntity
  8
SK6
  6
CONTINUOUS
370
25
 62
5
100
AcDbCircle
 10
71.47275989684958
 20
-25.67383199215561
 30
0.0
 40
3.80021703002276
100
AcDbArc
 50
210.5483731288539
 51
236.97801693668
  0
LINE
  5
D00
330
1F
100
AcDbEntity
  8
SK6
  6
CONTINUOUS
370
25
 62
5
100
AcDbLine
 10
69.40179068512487
 20
-28.86016781867535
 30
0.0
 11
73.54373096742671
 21
-28.86016781867535
 31
0.0
  0
ARC
  5
D01
330
1F
100
AcDbEntity
  8
SK6
  6
CONTINUOUS
370
25
 62
5
100
AcDbCircle
 10
71.47276183877257
 20
-25.6738320937346
 30
0.0
 40
3.800216899582472
100
AcDbArc
 50
303.0219828477959
 51
326.3732153033476
  0
LINE
  5
D02
330
1F
100
AcDbEntity
  8
SK6
  6
CONTINUOUS
370
25
 62
5
100
AcDbLine
 10
74.63705975135723
 20
-27.7783194907709
 30
0.0
 11
71.27976170575462
 21
-27.7783194907709
 31
0.0
  0
LINE
  5
D03
330
1F
100
AcDbEntity
  8
SK6
  6
CONTINUOUS
370
25
 62
5
100
AcDbLine
 10
71.27976170575462
 20
-27.7783194907709
 30
0.0
 11
75.19962109771987
 21
-26.41691829641694
 31
0.0
  0
ARC
  5
D04
330
1F
100
AcDbEntity
  8
SK6
  6
CONTINUOUS
370
25
 62
5
100
AcDbCircle
 10
71.47276256157211
 20
-25.6738326048594
 30
0.0
 40
3.800217216614723
100
AcDbArc
 50
348.7238644184696
 51
53.4691051260885
  0
LINE
  5
D05
330
1F
100
AcDbEntity
  8
SK6
  6
CONTINUOUS
370
25
 62
5
100
AcDbLine
 10
73.73486524538545
 20
-22.62022124429967
 30
0.0
 11
71.53745047882737
 21
-27.07730973507057
 31
0.0
  0
ENDSEC
  0
SECTION
  2
OBJECTS
  0
DICTIONARY
  5
C
330
0
100
AcDbDictionary
281
     1
  3
ACAD_GROUP
350
D
  3
ACAD_LAYOUT
350
1A
  3
ACAD_MATERIAL
350
3B
  3
ACAD_MLEADERSTYLE
350
D08
  3
ACAD_MLINESTYLE
350
17
  3
ACAD_PLOTSETTINGS
350
19
  3
ACAD_PLOTSTYLENAME
350
E
  3
ACAD_SCALELIST
350
3CC
  3
ACAD_VISUALSTYLE
350
2A
  3
AcDbVariableDictionary
350
D06
  0
DICTIONARY
  5
D
102
{ACAD_REACTORS
330
C
102
}
330
C
100
AcDbDictionary
281
     1
  0
DICTIONARY
  5
1A
102
{ACAD_REACTORS
330
C
102
}
330
C
100
AcDbDictionary
281
     1
  3
Layout1
350
1E
  3
Layout2
350
26
  3
Model
350
22
  0
DICTIONARY
  5
3B
102
{ACAD_REACTORS
330
C
102
}
330
C
100
AcDbDictionary
281
     1
  3
ByBlock
350
3D
  3
ByLayer
350
3C
  3
Global
350
3E
  0
DICTIONARY
  5
D08
102
{ACAD_REACTORS
330
C
102
}
330
C
100
AcDbDictionary
281
     1
  0
DICTIONARY
  5
17
102
{ACAD_REACTORS
330
C
102
}
330
C
100
AcDbDictionary
281
     1
  3
Standard
350
18
  0
DICTIONARY
  5
19
102
{ACAD_REACTORS
330
C
102
}
330
C
100
AcDbDictionary
281
     1
  0
ACDBDICTIONARYWDFLT
  5
E
102
{ACAD_REACTORS
330
C
102
}
330
C
100
AcDbDictionary
281
     1
  3
Normal
350
F
100
AcDbDictionaryWithDefault
340
F
  0
DICTIONARY
  5
3CC
102
{ACAD_REACTORS
330
C
102
}
330
C
100
AcDbDictionary
281
     1
  3
A0
350
3CD
  3
A1
350
3CE
  3
A2
350
3CF
  3
A3
350
3D0
  3
A4
350
3D1
  3
A5
350
3D2
  3
A6
350
3D3
  3
A7
350
3D4
  3
A8
350
3D5
  3
A9
350
3D6
  3
B0
350
3D7
  3
B1
350
3D8
  3
B2
350
3D9
  3
B3
350
3DA
  3
B4
350
3DB
  3
B5
350
3DC
  3
B6
350
3DD
  3
B7
350
3DE
  3
B8
350
3DF
  3
B9
350
3E0
  3
C0
350
3E1
  3
C1
350
3E2
  3
C2
350
3E3
  3
C3
350
3E4
  3
C4
350
3E5
  3
C5
350
3E6
  3
C6
350
3E7
  3
C7
350
3E8
  3
C8
350
3E9
  3
C9
350
3EA
  3
D0
350
3EB
  3
D1
350
3EC
  3
D2
350
3ED
  0
DICTIONARY
  5
2A
102
{ACAD_REACTORS
330
C
102
}
330
C
100
AcDbDictionary
281
     1
  3
2dWireframe
350
2F
  3
3D Hidden
350
31
  3
3dWireframe
350
30
  3
Basic
350
32
  3
Brighten
350
36
  3
ColorChange
350
3A
  3
Conceptual
350
34
  3
Dim
350
35
  3
Facepattern
350
39
  3
Flat
350
2B
  3
FlatWithEdges
350
2C
  3
Gouraud
350
2D
  3
GouraudWithEdges
350
2E
  3
Linepattern
350
38
  3
Realistic
350
33
  3
Thicken
350
37
  0
DICTIONARY
  5
D06
102
{ACAD_REACTORS
330
C
102
}
330
C
100
AcDbDictionary
281
     1
  3
CANNOSCALE
350
D0B
  3
DIMASSOC
350
D0C
  3
HIDETEXT
350
D0D
  3
PSOLHEIGHT
350
D0A
  3
PSOLWIDTH
350
D09
  0
LAYOUT
  5
1E
102
{ACAD_REACTORS
330
1A
102
}
330
1A
100
AcDbPlotSettings
  1

  2
none_device
  4

  6

 40
0.0
 41
0.0
 42
0.0
 43
0.0
 44
0.0
 45
0.0
 46
0.0
 47
0.0
 48
0.0
 49
0.0
140
0.0
141
0.0
142
1.0
143
1.0
 70
   688
 72
     0
 73
     0
 74
     5
  7

 75
    16
147
1.0
148
0.0
149
0.0
100
AcDbLayout
  1
Layout1
 70
     1
 71
     1
 10
0.0
 20
0.0
 11
420.0
 21
297.0
 12
0.0
 22
0.0
 32
0.0
 14
1.000000000000000E+20
 24
1.000000000000000E+20
 34
1.000000000000000E+20
 15
-1.000000000000000E+20
 25
-1.000000000000000E+20
 35
-1.000000000000000E+20
146
0.0
 13
0.0
 23
0.0
 33
0.0
 16
1.0
 26
0.0
 36
0.0
 17
0.0
 27
1.0
 37
0.0
 76
     0
330
1B
  0
LAYOUT
  5
26
102
{ACAD_REACTORS
330
1A
102
}
330
1A
100
AcDbPlotSettings
  1

  2
none_device
  4

  6

 40
0.0
 41
0.0
 42
0.0
 43
0.0
 44
0.0
 45
0.0
 46
0.0
 47
0.0
 48
0.0
 49
0.0
140
0.0
141
0.0
142
1.0
143
1.0
 70
   688
 72
     0
 73
     0
 74
     5
  7

 75
    16
147
1.0
148
0.0
149
0.0
100
AcDbLayout
  1
Layout2
 70
     1
 71
     2
 10
0.0
 20
0.0
 11
0.0
 21
0.0
 12
0.0
 22
0.0
 32
0.0
 14
0.0
 24
0.0
 34
0.0
 15
0.0
 25
0.0
 35
0.0
146
0.0
 13
0.0
 23
0.0
 33
0.0
 16
1.0
 26
0.0
 36
0.0
 17
0.0
 27
1.0
 37
0.0
 76
     0
330
23
  0
LAYOUT
  5
22
102
{ACAD_REACTORS
330
1A
102
}
330
1A
100
AcDbPlotSettings
  1

  2
none_device
  4

  6

 40
0.0
 41
0.0
 42
0.0
 43
0.0
 44
0.0
 45
0.0
 46
0.0
 47
0.0
 48
0.0
 49
0.0
140
0.0
141
0.0
142
1.0
143
1.0
 70
  1712
 72
     0
 73
     0
 74
     0
  7

 75
     0
147
1.0
148
0.0
149
0.0
100
AcDbLayout
  1
Model
 70
     1
 71
     0
 10
0.0
 20
0.0
 11
420.0
 21
297.0
 12
0.0
 22
0.0
 32
0.0
 14
0.0
 24
0.0
 34
0.0
 15
25.0
 25
35.0
 35
0.0
146
0.0
 13
0.0
 23
0.0
 33
0.0
 16
1.0
 26
0.0
 36
0.0
 17
0.0
 27
1.0
 37
0.0
 76
     0
330
1F
331
29
  0
MATERIAL
  5
3D
102
{ACAD_REACTORS
330
3B
102
}
102
{ACAD_XDICTIONARY
360
D30
102
}
330
3B
100
AcDbMaterial
  1
ByBlock
  0
MATERIAL
  5
3C
102
{ACAD_REACTORS
330
3B
102
}
102
{ACAD_XDICTIONARY
360
D2E
102
}
330
3B
100
AcDbMaterial
  1
ByLayer
  0
MATERIAL
  5
3E
102
{ACAD_REACTORS
330
3B
102
}
102
{ACAD_XDICTIONARY
360
D32
102
}
330
3B
100
AcDbMaterial
  1
Global
  0
MLINESTYLE
  5
18
102
{ACAD_REACTORS
330
17
102
}
330
17
100
AcDbMlineStyle
  2
Standard
 70
     0
  3

 62
   256
 51
90.0
 52
90.0
 71
     2
 49
0.5
 62
   256
  6
BYLAYER
 49
-0.5
 62
   256
  6
BYLAYER
  0
ACDBPLACEHOLDER
  5
F
102
{ACAD_REACTORS
330
E
102
}
330
E
  0
SCALE
  5
3CD
102
{ACAD_REACTORS
330
3CC
102
}
330
3CC
100
AcDbScale
 70
     0
300
1:1
140
1.0
141
1.0
290
     1
  0
SCALE
  5
3CE
102
{ACAD_REACTORS
330
3CC
102
}
330
3CC
100
AcDbScale
 70
     0
300
1:2
140
1.0
141
2.0
290
     0
  0
SCALE
  5
3CF
102
{ACAD_REACTORS
330
3CC
102
}
330
3CC
100
AcDbScale
 70
     0
300
1:4
140
1.0
141
4.0
290
     0
  0
SCALE
  5
3D0
102
{ACAD_REACTORS
330
3CC
102
}
330
3CC
100
AcDbScale
 70
     0
300
1:5
140
1.0
141
5.0
290
     0
  0
SCALE
  5
3D1
102
{ACAD_REACTORS
330
3CC
102
}
330
3CC
100
AcDbScale
 70
     0
300
1:8
140
1.0
141
8.0
290
     0
  0
SCALE
  5
3D2
102
{ACAD_REACTORS
330
3CC
102
}
330
3CC
100
AcDbScale
 70
     0
300
1:10
140
1.0
141
10.0
290
     0
  0
SCALE
  5
3D3
102
{ACAD_REACTORS
330
3CC
102
}
330
3CC
100
AcDbScale
 70
     0
300
1:16
140
1.0
141
16.0
290
     0
  0
SCALE
  5
3D4
102
{ACAD_REACTORS
330
3CC
102
}
330
3CC
100
AcDbScale
 70
     0
300
1:20
140
1.0
141
20.0
290
     0
  0
SCALE
  5
3D5
102
{ACAD_REACTORS
330
3CC
102
}
330
3CC
100
AcDbScale
 70
     0
300
1:30
140
1.0
141
30.0
290
     0
  0
SCALE
  5
3D6
102
{ACAD_REACTORS
330
3CC
102
}
330
3CC
100
AcDbScale
 70
     0
300
1:40
140
1.0
141
40.0
290
     0
  0
SCALE
  5
3D7
102
{ACAD_REACTORS
330
3CC
102
}
330
3CC
100
AcDbScale
 70
     0
300
1:50
140
1.0
141
50.0
290
     0
  0
SCALE
  5
3D8
102
{ACAD_REACTORS
330
3CC
102
}
330
3CC
100
AcDbScale
 70
     0
300
1:100
140
1.0
141
100.0
290
     0
  0
SCALE
  5
3D9
102
{ACAD_REACTORS
330
3CC
102
}
330
3CC
100
AcDbScale
 70
     0
300
2:1
140
2.0
141
1.0
290
     0
  0
SCALE
  5
3DA
102
{ACAD_REACTORS
330
3CC
102
}
330
3CC
100
AcDbScale
 70
     0
300
4:1
140
4.0
141
1.0
290
     0
  0
SCALE
  5
3DB
102
{ACAD_REACTORS
330
3CC
102
}
330
3CC
100
AcDbScale
 70
     0
300
8:1
140
8.0
141
1.0
290
     0
  0
SCALE
  5
3DC
102
{ACAD_REACTORS
330
3CC
102
}
330
3CC
100
AcDbScale
 70
     0
300
10:1
140
10.0
141
1.0
290
     0
  0
SCALE
  5
3DD
102
{ACAD_REACTORS
330
3CC
102
}
330
3CC
100
AcDbScale
 70
     0
300
100:1
140
100.0
141
1.0
290
     0
  0
SCALE
  5
3DE
102
{ACAD_REACTORS
330
3CC
102
}
330
3CC
100
AcDbScale
 70
     0
300
1/128" = 1'-0"
140
0.0078125
141
12.0
290
     0
  0
SCALE
  5
3DF
102
{ACAD_REACTORS
330
3CC
102
}
330
3CC
100
AcDbScale
 70
     0
300
1/64" = 1'-0"
140
0.015625
141
12.0
290
     0
  0
SCALE
  5
3E0
102
{ACAD_REACTORS
330
3CC
102
}
330
3CC
100
AcDbScale
 70
     0
300
1/32" = 1'-0"
140
0.03125
141
12.0
290
     0
  0
SCALE
  5
3E1
102
{ACAD_REACTORS
330
3CC
102
}
330
3CC
100
AcDbScale
 70
     0
300
1/16" = 1'-0"
140
0.0625
141
12.0
290
     0
  0
SCALE
  5
3E2
102
{ACAD_REACTORS
330
3CC
102
}
330
3CC
100
AcDbScale
 70
     0
300
3/32" = 1'-0"
140
0.09375
141
12.0
290
     0
  0
SCALE
  5
3E3
102
{ACAD_REACTORS
330
3CC
102
}
330
3CC
100
AcDbScale
 70
     0
300
1/8" = 1'-0"
140
0.125
141
12.0
290
     0
  0
SCALE
  5
3E4
102
{ACAD_REACTORS
330
3CC
102
}
330
3CC
100
AcDbScale
 70
     0
300
3/16" = 1'-0"
140
0.1875
141
12.0
290
     0
  0
SCALE
  5
3E5
102
{ACAD_REACTORS
330
3CC
102
}
330
3CC
100
AcDbScale
 70
     0
300
1/4" = 1'-0"
140
0.25
141
12.0
290
     0
  0
SCALE
  5
3E6
102
{ACAD_REACTORS
330
3CC
102
}
330
3CC
100
AcDbScale
 70
     0
300
3/8" = 1'-0"
140
0.375
141
12.0
290
     0
  0
SCALE
  5
3E7
102
{ACAD_REACTORS
330
3CC
102
}
330
3CC
100
AcDbScale
 70
     0
300
1/2" = 1'-0"
140
0.5
141
12.0
290
     0
  0
SCALE
  5
3E8
102
{ACAD_REACTORS
330
3CC
102
}
330
3CC
100
AcDbScale
 70
     0
300
3/4" = 1'-0"
140
0.75
141
12.0
290
     0
  0
SCALE
  5
3E9
102
{ACAD_REACTORS
330
3CC
102
}
330
3CC
100
AcDbScale
 70
     0
300
1" = 1'-0"
140
1.0
141
12.0
290
     0
  0
SCALE
  5
3EA
102
{ACAD_REACTORS
330
3CC
102
}
330
3CC
100
AcDbScale
 70
     0
300
1-1/2" = 1'-0"
140
1.5
141
12.0
290
     0
  0
SCALE
  5
3EB
102
{ACAD_REACTORS
330
3CC
102
}
330
3CC
100
AcDbScale
 70
     0
300
3" = 1'-0"
140
3.0
141
12.0
290
     0
  0
SCALE
  5
3EC
102
{ACAD_REACTORS
330
3CC
102
}
330
3CC
100
AcDbScale
 70
     0
300
6" = 1'-0"
140
6.0
141
12.0
290
     0
  0
SCALE
  5
3ED
102
{ACAD_REACTORS
330
3CC
102
}
330
3CC
100
AcDbScale
 70
     0
300
1'-0" = 1'-0"
140
12.0
141
12.0
290
     0
  0
VISUALSTYLE
  5
2F
102
{ACAD_REACTORS
330
2A
102
}
102
{ACAD_XDICTIONARY
360
D16
102
}
330
2A
100
AcDbVisualStyle
  2
2dWireframe
 70
     4
 71
     0
 72
     2
 73
     0
 90
        0
 40
-0.6
 41
-30.0
 62
     5
 63
     7
 74
     1
 91
        4
 64
     7
 65
   257
 75
     1
175
     1
 42
1.0
 92
        0
 66
   257
 43
1.0
 76
     1
 77
     6
 78
     2
 67
     7
 79
     5
170
     0
171
     0
290
     0
174
     0
 93
        1
 44
0.0
173
     0
291
     0
 45
0.0
1001
ACAD
1000
AcDbSavedByObjectVersion
1070
     0
  0
VISUALSTYLE
  5
31
102
{ACAD_REACTORS
330
2A
102
}
102
{ACAD_XDICTIONARY
360
D1A
102
}
330
2A
100
AcDbVisualStyle
  2
3D Hidden
 70
     6
 71
     1
 72
     2
 73
     2
 90
        0
 40
-0.6
 41
-30.0
 62
     5
 63
     7
 74
     2
 91
        2
 64
     7
 65
   257
 75
     2
175
     1
 42
40.0
 92
        0
 66
   257
 43
1.0
 76
     1
 77
     6
 78
     2
 67
     7
 79
     3
170
     0
171
     0
290
     0
174
     0
 93
        1
 44
0.0
173
     0
291
     0
 45
0.0
1001
ACAD
1000
AcDbSavedByObjectVersion
1070
     0
  0
VISUALSTYLE
  5
30
102
{ACAD_REACTORS
330
2A
102
}
102
{ACAD_XDICTIONARY
360
D18
102
}
330
2A
100
AcDbVisualStyle
  2
3dWireframe
 70
     5
 71
     0
 72
     2
 73
     0
 90
        0
 40
-0.6
 41
-30.0
 62
     5
 63
     7
 74
     1
 91
        4
 64
     7
 65
   257
 75
     1
175
     1
 42
1.0
 92
        0
 66
   257
 43
1.0
 76
     1
 77
     6
 78
     2
 67
     7
 79
     5
170
     0
171
     0
290
     0
174
     0
 93
        1
 44
0.0
173
     0
291
     0
 45
0.0
1001
ACAD
1000
AcDbSavedByObjectVersion
1070
     0
  0
VISUALSTYLE
  5
32
102
{ACAD_REACTORS
330
2A
102
}
102
{ACAD_XDICTIONARY
360
D1C
102
}
330
2A
100
AcDbVisualStyle
  2
Basic
 70
     7
 71
     1
 72
     0
 73
     1
 90
        0
 40
-0.6
 41
-30.0
 62
     5
 63
     7
 74
     0
 91
        4
 64
     7
 65
   257
 75
     1
175
     1
 42
1.0
 92
        8
 66
     7
 43
1.0
 76
     1
 77
     6
 78
     2
 67
     7
 79
     5
170
     0
171
     0
290
     0
174
     0
 93
        1
 44
0.0
173
     0
291
     1
 45
0.0
1001
ACAD
1000
AcDbSavedByObjectVersion
1070
     0
  0
VISUALSTYLE
  5
36
102
{ACAD_REACTORS
330
2A
102
}
102
{ACAD_XDICTIONARY
360
D24
102
}
330
2A
100
AcDbVisualStyle
  2
Brighten
 70
    12
 71
     2
 72
     2
 73
     0
 90
        0
 40
-0.6
 41
-30.0
 62
     5
 63
     7
 74
     1
 91
        4
 64
     7
 65
   257
 75
     1
175
     1
 42
1.0
 92
        8
 66
     7
 43
1.0
 76
     1
 77
     6
 78
     2
 67
     7
 79
     5
170
     0
171
     0
290
     0
174
     0
 93
        1
 44
50.0
173
     0
291
     1
 45
0.0
1001
ACAD
1000
AcDbSavedByObjectVersion
1070
     0
  0
VISUALSTYLE
  5
3A
102
{ACAD_REACTORS
330
2A
102
}
102
{ACAD_XDICTIONARY
360
D2C
102
}
330
2A
100
AcDbVisualStyle
  2
ColorChange
 70
    16
 71
     2
 72
     2
 73
     3
 90
        0
 40
-0.6
 41
-30.0
 62
     5
 63
     8
 74
     1
 91
        4
 64
     7
 65
   257
 75
     1
175
     1
 42
1.0
 92
        8
 66
     8
 43
1.0
 76
     1
 77
     6
 78
     2
 67
     7
 79
     5
170
     0
171
     0
290
     0
174
     0
 93
        1
 44
0.0
173
     0
291
     1
 45
0.0
1001
ACAD
1000
AcDbSavedByObjectVersion
1070
     0
  0
VISUALSTYLE
  5
34
102
{ACAD_REACTORS
330
2A
102
}
102
{ACAD_XDICTIONARY
360
D20
102
}
330
2A
100
AcDbVisualStyle
  2
Conceptual
 70
     9
 71
     3
 72
     2
 73
     0
 90
        0
 40
-0.6
 41
-30.0
 62
     5
 63
     7
 74
     2
 91
        2
 64
     7
 65
   257
 75
     1
175
     1
 42
40.0
 92
        8
 66
     7
 43
1.0
 76
     1
 77
     6
 78
     2
 67
     7
 79
     3
170
     0
171
     0
290
     0
174
     0
 93
        1
 44
0.0
173
     0
291
     0
 45
0.0
1001
ACAD
1000
AcDbSavedByObjectVersion
1070
     0
  0
VISUALSTYLE
  5
35
102
{ACAD_REACTORS
330
2A
102
}
102
{ACAD_XDICTIONARY
360
D22
102
}
330
2A
100
AcDbVisualStyle
  2
Dim
 70
    11
 71
     2
 72
     2
 73
     0
 90
        0
 40
-0.6
 41
-30.0
 62
     5
 63
     7
 74
     1
 91
        4
 64
     7
 65
   257
 75
     1
175
     1
 42
1.0
 92
        8
 66
     7
 43
1.0
 76
     1
 77
     6
 78
     2
 67
     7
 79
     5
170
     0
171
     0
290
     0
174
     0
 93
        1
 44
-50.0
173
     0
291
     1
 45
0.0
1001
ACAD
1000
AcDbSavedByObjectVersion
1070
     0
  0
VISUALSTYLE
  5
39
102
{ACAD_REACTORS
330
2A
102
}
102
{ACAD_XDICTIONARY
360
D2A
102
}
330
2A
100
AcDbVisualStyle
  2
Facepattern
 70
    15
 71
     2
 72
     2
 73
     0
 90
        0
 40
-0.6
 41
-30.0
 62
     5
 63
     7
 74
     1
 91
        4
 64
     7
 65
   257
 75
     1
175
     1
 42
1.0
 92
        8
 66
     7
 43
1.0
 76
     1
 77
     6
 78
     2
 67
     7
 79
     5
170
     0
171
     0
290
     0
174
     0
 93
        1
 44
0.0
173
     0
291
     1
 45
0.0
1001
ACAD
1000
AcDbSavedByObjectVersion
1070
     0
  0
VISUALSTYLE
  5
2B
102
{ACAD_REACTORS
330
2A
102
}
102
{ACAD_XDICTIONARY
360
D0E
102
}
330
2A
100
AcDbVisualStyle
  2
Flat
 70
     0
 71
     2
 72
     1
 73
     1
 90
        2
 40
-0.6
 41
30.0
 62
     5
 63
     7
 74
     0
 91
        4
 64
     7
 65
   257
 75
     1
175
     1
 42
1.0
 92
        8
 66
     7
 43
1.0
 76
     1
 77
     6
 78
     2
 67
     7
 79
     5
170
     0
171
     0
290
     0
174
     0
 93
       13
 44
0.0
173
     0
291
     1
 45
0.0
1001
ACAD
1000
AcDbSavedByObjectVersion
1070
     0
  0
VISUALSTYLE
  5
2C
102
{ACAD_REACTORS
330
2A
102
}
102
{ACAD_XDICTIONARY
360
D10
102
}
330
2A
100
AcDbVisualStyle
  2
FlatWithEdges
 70
     1
 71
     2
 72
     1
 73
     1
 90
        2
 40
-0.6
 41
30.0
 62
     5
 63
     7
 74
     1
 91
        4
 64
     7
 65
   257
 75
     1
175
     1
 42
1.0
 92
        0
 66
   257
 43
1.0
 76
     1
 77
     6
 78
     2
 67
     7
 79
     5
170
     0
171
     0
290
     0
174
     0
 93
       13
 44
0.0
173
     0
291
     1
 45
0.0
1001
ACAD
1000
AcDbSavedByObjectVersion
1070
     0
  0
VISUALSTYLE
  5
2D
102
{ACAD_REACTORS
330
2A
102
}
102
{ACAD_XDICTIONARY
360
D12
102
}
330
2A
100
AcDbVisualStyle
  2
Gouraud
 70
     2
 71
     2
 72
     2
 73
     1
 90
        2
 40
-0.6
 41
30.0
 62
     5
 63
     7
 74
     0
 91
        4
 64
     7
 65
   257
 75
     1
175
     1
 42
1.0
 92
        0
 66
     7
 43
1.0
 76
     1
 77
     6
 78
     2
 67
     7
 79
     5
170
     0
171
     0
290
     0
174
     0
 93
       13
 44
0.0
173
     0
291
     1
 45
0.0
1001
ACAD
1000
AcDbSavedByObjectVersion
1070
     0
  0
VISUALSTYLE
  5
2E
102
{ACAD_REACTORS
330
2A
102
}
102
{ACAD_XDICTIONARY
360
D14
102
}
330
2A
100
AcDbVisualStyle
  2
GouraudWithEdges
 70
     3
 71
     2
 72
     2
 73
     1
 90
        2
 40
-0.6
 41
30.0
 62
     5
 63
     7
 74
     1
 91
        4
 64
     7
 65
   257
 75
     1
175
     1
 42
1.0
 92
        0
 66
   257
 43
1.0
 76
     1
 77
     6
 78
     2
 67
     7
 79
     5
170
     0
171
     0
290
     0
174
     0
 93
       13
 44
0.0
173
     0
291
     1
 45
0.0
1001
ACAD
1000
AcDbSavedByObjectVersion
1070
     0
  0
VISUALSTYLE
  5
38
102
{ACAD_REACTORS
330
2A
102
}
102
{ACAD_XDICTIONARY
360
D28
102
}
330
2A
100
AcDbVisualStyle
  2
Linepattern
 70
    14
 71
     2
 72
     2
 73
     0
 90
        0
 40
-0.6
 41
-30.0
 62
     5
 63
     7
 74
     1
 91
        4
 64
     7
 65
   257
 75
     7
175
     7
 42
1.0
 92
        8
 66
     7
 43
1.0
 76
     1
 77
     6
 78
     2
 67
     7
 79
     5
170
     0
171
     0
290
     0
174
     0
 93
        1
 44
0.0
173
     0
291
     1
 45
0.0
1001
ACAD
1000
AcDbSavedByObjectVersion
1070
     0
  0
VISUALSTYLE
  5
33
102
{ACAD_REACTORS
330
2A
102
}
102
{ACAD_XDICTIONARY
360
D1E
102
}
330
2A
100
AcDbVisualStyle
  2
Realistic
 70
     8
 71
     2
 72
     2
 73
     0
 90
        0
 40
-0.6
 41
-30.0
 62
     5
 63
     7
 74
     1
 91
        0
 64
     7
 65
   257
 75
     1
175
     1
 42
1.0
 92
        8
 66
     8
 43
1.0
 76
     1
 77
     6
 78
     2
 67
     7
 79
     5
170
     0
171
     0
290
     0
174
     0
 93
       13
 44
0.0
173
     0
291
     0
 45
0.0
1001
ACAD
1000
AcDbSavedByObjectVersion
1070
     0
  0
VISUALSTYLE
  5
37
102
{ACAD_REACTORS
330
2A
102
}
102
{ACAD_XDICTIONARY
360
D26
102
}
330
2A
100
AcDbVisualStyle
  2
Thicken
 70
    13
 71
     2
 72
     2
 73
     0
 90
        0
 40
-0.6
 41
-30.0
 62
     5
 63
     7
 74
     1
 91
        4
 64
     7
 65
   257
 75
     1
175
     1
 42
1.0
 92
       12
 66
     7
 43
1.0
 76
     1
 77
     6
 78
     2
 67
     7
 79
     5
170
     0
171
     0
290
     0
174
     0
 93
        1
 44
0.0
173
     0
291
     1
 45
0.0
1001
ACAD
1000
AcDbSavedByObjectVersion
1070
     0
  0
DICTIONARYVAR
  5
D0B
102
{ACAD_REACTORS
330
D06
102
}
330
D06
100
DictionaryVariables
280
     0
  1
1:1
  0
DICTIONARYVAR
  5
D0C
102
{ACAD_REACTORS
330
D06
102
}
330
D06
100
DictionaryVariables
280
     0
  1
2
  0
DICTIONARYVAR
  5
D0D
102
{ACAD_REACTORS
330
D06
102
}
330
D06
100
DictionaryVariables
280
     0
  1
1
  0
DICTIONARYVAR
  5
D0A
102
{ACAD_REACTORS
330
D06
102
}
330
D06
100
DictionaryVariables
280
     0
  1
80.000000
  0
DICTIONARYVAR
  5
D09
102
{ACAD_REACTORS
330
D06
102
}
330
D06
100
DictionaryVariables
280
     0
  1
5.000000
  0
DICTIONARY
  5
D30
330
3D
100
AcDbDictionary
280
     1
281
     1
  3
ACAD_XREC_ROUNDTRIP
360
D31
  0
DICTIONARY
  5
D2E
330
3C
100
AcDbDictionary
280
     1
281
     1
  3
ACAD_XREC_ROUNDTRIP
360
D2F
  0
DICTIONARY
  5
D32
330
3E
100
AcDbDictionary
280
     1
281
     1
  3
ACAD_XREC_ROUNDTRIP
360
D33
  0
DICTIONARY
  5
D16
330
2F
100
AcDbDictionary
280
     1
281
     1
  3
ACAD_XREC_ROUNDTRIP
360
D17
  0
DICTIONARY
  5
D1A
330
31
100
AcDbDictionary
280
     1
281
     1
  3
ACAD_XREC_ROUNDTRIP
360
D1B
  0
DICTIONARY
  5
D18
330
30
100
AcDbDictionary
280
     1
281
     1
  3
ACAD_XREC_ROUNDTRIP
360
D19
  0
DICTIONARY
  5
D1C
330
32
100
AcDbDictionary
280
     1
281
     1
  3
ACAD_XREC_ROUNDTRIP
360
D1D
  0
DICTIONARY
  5
D24
330
36
100
AcDbDictionary
280
     1
281
     1
  3
ACAD_XREC_ROUNDTRIP
360
D25
  0
DICTIONARY
  5
D2C
330
3A
100
AcDbDictionary
280
     1
281
     1
  3
ACAD_XREC_ROUNDTRIP
360
D2D
  0
DICTIONARY
  5
D20
330
34
100
AcDbDictionary
280
     1
281
     1
  3
ACAD_XREC_ROUNDTRIP
360
D21
  0
DICTIONARY
  5
D22
330
35
100
AcDbDictionary
280
     1
281
     1
  3
ACAD_XREC_ROUNDTRIP
360
D23
  0
DICTIONARY
  5
D2A
330
39
100
AcDbDictionary
280
     1
281
     1
  3
ACAD_XREC_ROUNDTRIP
360
D2B
  0
DICTIONARY
  5
D0E
330
2B
100
AcDbDictionary
280
     1
281
     1
  3
ACAD_XREC_ROUNDTRIP
360
D0F
  0
DICTIONARY
  5
D10
330
2C
100
AcDbDictionary
280
     1
281
     1
  3
ACAD_XREC_ROUNDTRIP
360
D11
  0
DICTIONARY
  5
D12
330
2D
100
AcDbDictionary
280
     1
281
     1
  3
ACAD_XREC_ROUNDTRIP
360
D13
  0
DICTIONARY
  5
D14
330
2E
100
AcDbDictionary
280
     1
281
     1
  3
ACAD_XREC_ROUNDTRIP
360
D15
  0
DICTIONARY
  5
D28
330
38
100
AcDbDictionary
280
     1
281
     1
  3
ACAD_XREC_ROUNDTRIP
360
D29
  0
DICTIONARY
  5
D1E
330
33
100
AcDbDictionary
280
     1
281
     1
  3
ACAD_XREC_ROUNDTRIP
360
D1F
  0
DICTIONARY
  5
D26
330
37
100
AcDbDictionary
280
     1
281
     1
  3
ACAD_XREC_ROUNDTRIP
360
D27
  0
XRECORD
  5
D31
102
{ACAD_REACTORS
330
D30
102
}
330
D30
100
AcDbXrecord
280
     1
102
MATERIAL
148
0.0
149
0.0
149
0.0
 93
        0
 94
      127
282
     0
 72
     1
 77
     1
171
     1
175
     1
179
     1
273
     0
  0
XRECORD
  5
D2F
102
{ACAD_REACTORS
330
D2E
102
}
330
D2E
100
AcDbXrecord
280
     1
102
MATERIAL
148
0.0
149
0.0
149
0.0
 93
        0
 94
      127
282
     0
 72
     1
 77
     1
171
     1
175
     1
179
     1
273
     0
  0
XRECORD
  5
D33
102
{ACAD_REACTORS
330
D32
102
}
330
D32
100
AcDbXrecord
280
     1
102
MATERIAL
148
0.0
149
0.0
149
0.0
 93
        0
 94
      127
282
     0
 72
     1
 77
     1
171
     1
175
     1
179
     1
273
     0
  0
XRECORD
  5
D17
102
{ACAD_REACTORS
330
D16
102
}
330
D16
100
AcDbXrecord
280
     1
102
RTVSPropertyOp0
 70
     1
102
RTVSPropertyOp1
 70
     1
102
RTVSPropertyOp2
 70
     1
102
RTVSPropertyOp3
 70
     1
102
RTVSPropertyOp4
 70
     1
102
RTVSPropertyOp5
 70
     1
102
RTVSPropertyOp6
 70
     1
102
RTVSPropertyOp7
 70
     1
102
RTVSPropertyOp8
 70
     1
102
RTVSPropertyOp9
 70
     1
102
RTVSPropertyOp10
 70
     1
102
RTVSPropertyOp11
 70
     1
102
RTVSPropertyOp12
 70
     1
102
RTVSPropertyOp13
 70
     1
102
RTVSPropertyOp14
 70
     1
102
RTVSPropertyOp15
 70
     1
102
RTVSPropertyOp16
 70
     1
102
RTVSPropertyOp17
 70
     1
102
RTVSPropertyOp18
 70
     1
102
RTVSPropertyOp19
 70
     1
102
RTVSPropertyOp20
 70
     1
102
RTVSPropertyOp21
 70
     1
102
RTVSPropertyOp22
 70
     1
102
RTVSPropertyOp23
 70
     1
102
RTVSPropertyOp24
 70
     1
102
RTVSPropertyOp25
 70
     1
102
RTVSPropertyOp26
 70
     1
102
RTVSPropertyOp27
 70
     1
  0
XRECORD
  5
D1B
102
{ACAD_REACTORS
330
D1A
102
}
330
D1A
100
AcDbXrecord
280
     1
102
RTVSPropertyOp0
 70
     1
102
RTVSPropertyOp1
 70
     1
102
RTVSPropertyOp2
 70
     1
102
RTVSPropertyOp3
 70
     1
102
RTVSPropertyOp4
 70
     1
102
RTVSPropertyOp5
 70
     1
102
RTVSPropertyOp6
 70
     1
102
RTVSPropertyOp7
 70
     1
102
RTVSPropertyOp8
 70
     1
102
RTVSPropertyOp9
 70
     1
102
RTVSPropertyOp10
 70
     1
102
RTVSPropertyOp11
 70
     1
102
RTVSPropertyOp12
 70
     1
102
RTVSPropertyOp13
 70
     1
102
RTVSPropertyOp14
 70
     1
102
RTVSPropertyOp15
 70
     1
102
RTVSPropertyOp16
 70
     1
102
RTVSPropertyOp17
 70
     1
102
RTVSPropertyOp18
 70
     1
102
RTVSPropertyOp19
 70
     1
102
RTVSPropertyOp20
 70
     1
102
RTVSPropertyOp21
 70
     1
102
RTVSPropertyOp22
 70
     1
102
RTVSPropertyOp23
 70
     1
102
RTVSPropertyOp24
 70
     1
102
RTVSPropertyOp25
 70
     1
102
RTVSPropertyOp26
 70
     1
102
RTVSPropertyOp27
 70
     1
  0
XRECORD
  5
D19
102
{ACAD_REACTORS
330
D18
102
}
330
D18
100
AcDbXrecord
280
     1
102
RTVSPropertyOp0
 70
     1
102
RTVSPropertyOp1
 70
     1
102
RTVSPropertyOp2
 70
     1
102
RTVSPropertyOp3
 70
     1
102
RTVSPropertyOp4
 70
     1
102
RTVSPropertyOp5
 70
     1
102
RTVSPropertyOp6
 70
     1
102
RTVSPropertyOp7
 70
     1
102
RTVSPropertyOp8
 70
     1
102
RTVSPropertyOp9
 70
     1
102
RTVSPropertyOp10
 70
     1
102
RTVSPropertyOp11
 70
     1
102
RTVSPropertyOp12
 70
     1
102
RTVSPropertyOp13
 70
     1
102
RTVSPropertyOp14
 70
     1
102
RTVSPropertyOp15
 70
     1
102
RTVSPropertyOp16
 70
     1
102
RTVSPropertyOp17
 70
     1
102
RTVSPropertyOp18
 70
     1
102
RTVSPropertyOp19
 70
     1
102
RTVSPropertyOp20
 70
     1
102
RTVSPropertyOp21
 70
     1
102
RTVSPropertyOp22
 70
     1
102
RTVSPropertyOp23
 70
     1
102
RTVSPropertyOp24
 70
     1
102
RTVSPropertyOp25
 70
     1
102
RTVSPropertyOp26
 70
     1
102
RTVSPropertyOp27
 70
     1
  0
XRECORD
  5
D1D
102
{ACAD_REACTORS
330
D1C
102
}
330
D1C
100
AcDbXrecord
280
     1
102
RTVSPropertyOp0
 70
     1
102
RTVSPropertyOp1
 70
     1
102
RTVSPropertyOp2
 70
     1
102
RTVSPropertyOp3
 70
     1
102
RTVSPropertyOp4
 70
     1
102
RTVSPropertyOp5
 70
     1
102
RTVSPropertyOp6
 70
     1
102
RTVSPropertyOp7
 70
     1
102
RTVSPropertyOp8
 70
     1
102
RTVSPropertyOp9
 70
     1
102
RTVSPropertyOp10
 70
     1
102
RTVSPropertyOp11
 70
     1
102
RTVSPropertyOp12
 70
     1
102
RTVSPropertyOp13
 70
     1
102
RTVSPropertyOp14
 70
     1
102
RTVSPropertyOp15
 70
     1
102
RTVSPropertyOp16
 70
     1
102
RTVSPropertyOp17
 70
     1
102
RTVSPropertyOp18
 70
     1
102
RTVSPropertyOp19
 70
     1
102
RTVSPropertyOp20
 70
     1
102
RTVSPropertyOp21
 70
     1
102
RTVSPropertyOp22
 70
     1
102
RTVSPropertyOp23
 70
     1
102
RTVSPropertyOp24
 70
     1
102
RTVSPropertyOp25
 70
     1
102
RTVSPropertyOp26
 70
     1
102
RTVSPropertyOp27
 70
     1
  0
XRECORD
  5
D25
102
{ACAD_REACTORS
330
D24
102
}
330
D24
100
AcDbXrecord
280
     1
102
RTVSPropertyOp0
 70
     1
102
RTVSPropertyOp1
 70
     1
102
RTVSPropertyOp2
 70
     1
102
RTVSPropertyOp3
 70
     1
102
RTVSPropertyOp4
 70
     1
102
RTVSPropertyOp5
 70
     1
102
RTVSPropertyOp6
 70
     1
102
RTVSPropertyOp7
 70
     1
102
RTVSPropertyOp8
 70
     1
102
RTVSPropertyOp9
 70
     1
102
RTVSPropertyOp10
 70
     1
102
RTVSPropertyOp11
 70
     1
102
RTVSPropertyOp12
 70
     1
102
RTVSPropertyOp13
 70
     1
102
RTVSPropertyOp14
 70
     1
102
RTVSPropertyOp15
 70
     1
102
RTVSPropertyOp16
 70
     1
102
RTVSPropertyOp17
 70
     1
102
RTVSPropertyOp18
 70
     1
102
RTVSPropertyOp19
 70
     1
102
RTVSPropertyOp20
 70
     1
102
RTVSPropertyOp21
 70
     1
102
RTVSPropertyOp22
 70
     1
102
RTVSPropertyOp23
 70
     1
102
RTVSPropertyOp24
 70
     1
102
RTVSPropertyOp25
 70
     1
102
RTVSPropertyOp26
 70
     1
102
RTVSPropertyOp27
 70
     1
  0
XRECORD
  5
D2D
102
{ACAD_REACTORS
330
D2C
102
}
330
D2C
100
AcDbXrecord
280
     1
102
RTVSPropertyOp0
 70
     1
102
RTVSPropertyOp1
 70
     1
102
RTVSPropertyOp2
 70
     1
102
RTVSPropertyOp3
 70
     1
102
RTVSPropertyOp4
 70
     1
102
RTVSPropertyOp5
 70
     1
102
RTVSPropertyOp6
 70
     1
102
RTVSPropertyOp7
 70
     1
102
RTVSPropertyOp8
 70
     1
102
RTVSPropertyOp9
 70
     1
102
RTVSPropertyOp10
 70
     1
102
RTVSPropertyOp11
 70
     1
102
RTVSPropertyOp12
 70
     1
102
RTVSPropertyOp13
 70
     1
102
RTVSPropertyOp14
 70
     1
102
RTVSPropertyOp15
 70
     1
102
RTVSPropertyOp16
 70
     1
102
RTVSPropertyOp17
 70
     1
102
RTVSPropertyOp18
 70
     1
102
RTVSPropertyOp19
 70
     1
102
RTVSPropertyOp20
 70
     1
102
RTVSPropertyOp21
 70
     1
102
RTVSPropertyOp22
 70
     1
102
RTVSPropertyOp23
 70
     1
102
RTVSPropertyOp24
 70
     1
102
RTVSPropertyOp25
 70
     1
102
RTVSPropertyOp26
 70
     1
102
RTVSPropertyOp27
 70
     1
  0
XRECORD
  5
D21
102
{ACAD_REACTORS
330
D20
102
}
330
D20
100
AcDbXrecord
280
     1
102
RTVSPropertyOp0
 70
     1
102
RTVSPropertyOp1
 70
     1
102
RTVSPropertyOp2
 70
     1
102
RTVSPropertyOp3
 70
     1
102
RTVSPropertyOp4
 70
     1
102
RTVSPropertyOp5
 70
     1
102
RTVSPropertyOp6
 70
     1
102
RTVSPropertyOp7
 70
     1
102
RTVSPropertyOp8
 70
     1
102
RTVSPropertyOp9
 70
     1
102
RTVSPropertyOp10
 70
     1
102
RTVSPropertyOp11
 70
     1
102
RTVSPropertyOp12
 70
     1
102
RTVSPropertyOp13
 70
     1
102
RTVSPropertyOp14
 70
     1
102
RTVSPropertyOp15
 70
     1
102
RTVSPropertyOp16
 70
     1
102
RTVSPropertyOp17
 70
     1
102
RTVSPropertyOp18
 70
     1
102
RTVSPropertyOp19
 70
     1
102
RTVSPropertyOp20
 70
     1
102
RTVSPropertyOp21
 70
     1
102
RTVSPropertyOp22
 70
     1
102
RTVSPropertyOp23
 70
     1
102
RTVSPropertyOp24
 70
     1
102
RTVSPropertyOp25
 70
     1
102
RTVSPropertyOp26
 70
     1
102
RTVSPropertyOp27
 70
     1
  0
XRECORD
  5
D23
102
{ACAD_REACTORS
330
D22
102
}
330
D22
100
AcDbXrecord
280
     1
102
RTVSPropertyOp0
 70
     1
102
RTVSPropertyOp1
 70
     1
102
RTVSPropertyOp2
 70
     1
102
RTVSPropertyOp3
 70
     1
102
RTVSPropertyOp4
 70
     1
102
RTVSPropertyOp5
 70
     1
102
RTVSPropertyOp6
 70
     1
102
RTVSPropertyOp7
 70
     1
102
RTVSPropertyOp8
 70
     1
102
RTVSPropertyOp9
 70
     1
102
RTVSPropertyOp10
 70
     1
102
RTVSPropertyOp11
 70
     1
102
RTVSPropertyOp12
 70
     1
102
RTVSPropertyOp13
 70
     1
102
RTVSPropertyOp14
 70
     1
102
RTVSPropertyOp15
 70
     1
102
RTVSPropertyOp16
 70
     1
102
RTVSPropertyOp17
 70
     1
102
RTVSPropertyOp18
 70
     1
102
RTVSPropertyOp19
 70
     1
102
RTVSPropertyOp20
 70
     1
102
RTVSPropertyOp21
 70
     1
102
RTVSPropertyOp22
 70
     1
102
RTVSPropertyOp23
 70
     1
102
RTVSPropertyOp24
 70
     1
102
RTVSPropertyOp25
 70
     1
102
RTVSPropertyOp26
 70
     1
102
RTVSPropertyOp27
 70
     1
  0
XRECORD
  5
D2B
102
{ACAD_REACTORS
330
D2A
102
}
330
D2A
100
AcDbXrecord
280
     1
102
RTVSPropertyOp0
 70
     1
102
RTVSPropertyOp1
 70
     1
102
RTVSPropertyOp2
 70
     1
102
RTVSPropertyOp3
 70
     1
102
RTVSPropertyOp4
 70
     1
102
RTVSPropertyOp5
 70
     1
102
RTVSPropertyOp6
 70
     1
102
RTVSPropertyOp7
 70
     1
102
RTVSPropertyOp8
 70
     1
102
RTVSPropertyOp9
 70
     1
102
RTVSPropertyOp10
 70
     1
102
RTVSPropertyOp11
 70
     1
102
RTVSPropertyOp12
 70
     1
102
RTVSPropertyOp13
 70
     1
102
RTVSPropertyOp14
 70
     1
102
RTVSPropertyOp15
 70
     1
102
RTVSPropertyOp16
 70
     1
102
RTVSPropertyOp17
 70
     1
102
RTVSPropertyOp18
 70
     1
102
RTVSPropertyOp19
 70
     1
102
RTVSPropertyOp20
 70
     1
102
RTVSPropertyOp21
 70
     1
102
RTVSPropertyOp22
 70
     1
102
RTVSPropertyOp23
 70
     1
102
RTVSPropertyOp24
 70
     1
102
RTVSPropertyOp25
 70
     1
102
RTVSPropertyOp26
 70
     1
102
RTVSPropertyOp27
 70
     1
  0
XRECORD
  5
D0F
102
{ACAD_REACTORS
330
D0E
102
}
330
D0E
100
AcDbXrecord
280
     1
102
RTVSPropertyOp0
 70
     1
102
RTVSPropertyOp1
 70
     1
102
RTVSPropertyOp2
 70
     1
102
RTVSPropertyOp3
 70
     1
102
RTVSPropertyOp4
 70
     1
102
RTVSPropertyOp5
 70
     1
102
RTVSPropertyOp6
 70
     1
102
RTVSPropertyOp7
 70
     1
102
RTVSPropertyOp8
 70
     1
102
RTVSPropertyOp9
 70
     1
102
RTVSPropertyOp10
 70
     1
102
RTVSPropertyOp11
 70
     1
102
RTVSPropertyOp12
 70
     1
102
RTVSPropertyOp13
 70
     1
102
RTVSPropertyOp14
 70
     1
102
RTVSPropertyOp15
 70
     1
102
RTVSPropertyOp16
 70
     1
102
RTVSPropertyOp17
 70
     1
102
RTVSPropertyOp18
 70
     1
102
RTVSPropertyOp19
 70
     1
102
RTVSPropertyOp20
 70
     1
102
RTVSPropertyOp21
 70
     1
102
RTVSPropertyOp22
 70
     1
102
RTVSPropertyOp23
 70
     1
102
RTVSPropertyOp24
 70
     1
102
RTVSPropertyOp25
 70
     1
102
RTVSPropertyOp26
 70
     1
102
RTVSPropertyOp27
 70
     1
  0
XRECORD
  5
D11
102
{ACAD_REACTORS
330
D10
102
}
330
D10
100
AcDbXrecord
280
     1
102
RTVSPropertyOp0
 70
     1
102
RTVSPropertyOp1
 70
     1
102
RTVSPropertyOp2
 70
     1
102
RTVSPropertyOp3
 70
     1
102
RTVSPropertyOp4
 70
     1
102
RTVSPropertyOp5
 70
     1
102
RTVSPropertyOp6
 70
     1
102
RTVSPropertyOp7
 70
     1
102
RTVSPropertyOp8
 70
     1
102
RTVSPropertyOp9
 70
     1
102
RTVSPropertyOp10
 70
     1
102
RTVSPropertyOp11
 70
     1
102
RTVSPropertyOp12
 70
     1
102
RTVSPropertyOp13
 70
     1
102
RTVSPropertyOp14
 70
     1
102
RTVSPropertyOp15
 70
     1
102
RTVSPropertyOp16
 70
     1
102
RTVSPropertyOp17
 70
     1
102
RTVSPropertyOp18
 70
     1
102
RTVSPropertyOp19
 70
     1
102
RTVSPropertyOp20
 70
     1
102
RTVSPropertyOp21
 70
     1
102
RTVSPropertyOp22
 70
     1
102
RTVSPropertyOp23
 70
     1
102
RTVSPropertyOp24
 70
     1
102
RTVSPropertyOp25
 70
     1
102
RTVSPropertyOp26
 70
     1
102
RTVSPropertyOp27
 70
     1
  0
XRECORD
  5
D13
102
{ACAD_REACTORS
330
D12
102
}
330
D12
100
AcDbXrecord
280
     1
102
RTVSPropertyOp0
 70
     1
102
RTVSPropertyOp1
 70
     1
102
RTVSPropertyOp2
 70
     1
102
RTVSPropertyOp3
 70
     1
102
RTVSPropertyOp4
 70
     1
102
RTVSPropertyOp5
 70
     1
102
RTVSPropertyOp6
 70
     1
102
RTVSPropertyOp7
 70
     1
102
RTVSPropertyOp8
 70
     1
102
RTVSPropertyOp9
 70
     1
102
RTVSPropertyOp10
 70
     1
102
RTVSPropertyOp11
 70
     1
102
RTVSPropertyOp12
 70
     1
102
RTVSPropertyOp13
 70
     1
102
RTVSPropertyOp14
 70
     1
102
RTVSPropertyOp15
 70
     1
102
RTVSPropertyOp16
 70
     1
102
RTVSPropertyOp17
 70
     1
102
RTVSPropertyOp18
 70
     1
102
RTVSPropertyOp19
 70
     1
102
RTVSPropertyOp20
 70
     1
102
RTVSPropertyOp21
 70
     1
102
RTVSPropertyOp22
 70
     1
102
RTVSPropertyOp23
 70
     1
102
RTVSPropertyOp24
 70
     1
102
RTVSPropertyOp25
 70
     1
102
RTVSPropertyOp26
 70
     1
102
RTVSPropertyOp27
 70
     1
  0
XRECORD
  5
D15
102
{ACAD_REACTORS
330
D14
102
}
330
D14
100
AcDbXrecord
280
     1
102
RTVSPropertyOp0
 70
     1
102
RTVSPropertyOp1
 70
     1
102
RTVSPropertyOp2
 70
     1
102
RTVSPropertyOp3
 70
     1
102
RTVSPropertyOp4
 70
     1
102
RTVSPropertyOp5
 70
     1
102
RTVSPropertyOp6
 70
     1
102
RTVSPropertyOp7
 70
     1
102
RTVSPropertyOp8
 70
     1
102
RTVSPropertyOp9
 70
     1
102
RTVSPropertyOp10
 70
     1
102
RTVSPropertyOp11
 70
     1
102
RTVSPropertyOp12
 70
     1
102
RTVSPropertyOp13
 70
     1
102
RTVSPropertyOp14
 70
     1
102
RTVSPropertyOp15
 70
     1
102
RTVSPropertyOp16
 70
     1
102
RTVSPropertyOp17
 70
     1
102
RTVSPropertyOp18
 70
     1
102
RTVSPropertyOp19
 70
     1
102
RTVSPropertyOp20
 70
     1
102
RTVSPropertyOp21
 70
     1
102
RTVSPropertyOp22
 70
     1
102
RTVSPropertyOp23
 70
     1
102
RTVSPropertyOp24
 70
     1
102
RTVSPropertyOp25
 70
     1
102
RTVSPropertyOp26
 70
     1
102
RTVSPropertyOp27
 70
     1
  0
XRECORD
  5
D29
102
{ACAD_REACTORS
330
D28
102
}
330
D28
100
AcDbXrecord
280
     1
102
RTVSPropertyOp0
 70
     1
102
RTVSPropertyOp1
 70
     1
102
RTVSPropertyOp2
 70
     1
102
RTVSPropertyOp3
 70
     1
102
RTVSPropertyOp4
 70
     1
102
RTVSPropertyOp5
 70
     1
102
RTVSPropertyOp6
 70
     1
102
RTVSPropertyOp7
 70
     1
102
RTVSPropertyOp8
 70
     1
102
RTVSPropertyOp9
 70
     1
102
RTVSPropertyOp10
 70
     1
102
RTVSPropertyOp11
 70
     1
102
RTVSPropertyOp12
 70
     1
102
RTVSPropertyOp13
 70
     1
102
RTVSPropertyOp14
 70
     1
102
RTVSPropertyOp15
 70
     1
102
RTVSPropertyOp16
 70
     1
102
RTVSPropertyOp17
 70
     1
102
RTVSPropertyOp18
 70
     1
102
RTVSPropertyOp19
 70
     1
102
RTVSPropertyOp20
 70
     1
102
RTVSPropertyOp21
 70
     1
102
RTVSPropertyOp22
 70
     1
102
RTVSPropertyOp23
 70
     1
102
RTVSPropertyOp24
 70
     1
102
RTVSPropertyOp25
 70
     1
102
RTVSPropertyOp26
 70
     1
102
RTVSPropertyOp27
 70
     1
  0
XRECORD
  5
D1F
102
{ACAD_REACTORS
330
D1E
102
}
330
D1E
100
AcDbXrecord
280
     1
102
RTVSPropertyOp0
 70
     1
102
RTVSPropertyOp1
 70
     1
102
RTVSPropertyOp2
 70
     1
102
RTVSPropertyOp3
 70
     1
102
RTVSPropertyOp4
 70
     1
102
RTVSPropertyOp5
 70
     1
102
RTVSPropertyOp6
 70
     1
102
RTVSPropertyOp7
 70
     1
102
RTVSPropertyOp8
 70
     1
102
RTVSPropertyOp9
 70
     1
102
RTVSPropertyOp10
 70
     1
102
RTVSPropertyOp11
 70
     1
102
RTVSPropertyOp12
 70
     1
102
RTVSPropertyOp13
 70
     1
102
RTVSPropertyOp14
 70
     1
102
RTVSPropertyOp15
 70
     1
102
RTVSPropertyOp16
 70
     1
102
RTVSPropertyOp17
 70
     1
102
RTVSPropertyOp18
 70
     1
102
RTVSPropertyOp19
 70
     1
102
RTVSPropertyOp20
 70
     1
102
RTVSPropertyOp21
 70
     1
102
RTVSPropertyOp22
 70
     1
102
RTVSPropertyOp23
 70
     1
102
RTVSPropertyOp24
 70
     1
102
RTVSPropertyOp25
 70
     1
102
RTVSPropertyOp26
 70
     1
102
RTVSPropertyOp27
 70
     1
  0
XRECORD
  5
D27
102
{ACAD_REACTORS
330
D26
102
}
330
D26
100
AcDbXrecord
280
     1
102
RTVSPropertyOp0
 70
     1
102
RTVSPropertyOp1
 70
     1
102
RTVSPropertyOp2
 70
     1
102
RTVSPropertyOp3
 70
     1
102
RTVSPropertyOp4
 70
     1
102
RTVSPropertyOp5
 70
     1
102
RTVSPropertyOp6
 70
     1
102
RTVSPropertyOp7
 70
     1
102
RTVSPropertyOp8
 70
     1
102
RTVSPropertyOp9
 70
     1
102
RTVSPropertyOp10
 70
     1
102
RTVSPropertyOp11
 70
     1
102
RTVSPropertyOp12
 70
     1
102
RTVSPropertyOp13
 70
     1
102
RTVSPropertyOp14
 70
     1
102
RTVSPropertyOp15
 70
     1
102
RTVSPropertyOp16
 70
     1
102
RTVSPropertyOp17
 70
     1
102
RTVSPropertyOp18
 70
     1
102
RTVSPropertyOp19
 70
     1
102
RTVSPropertyOp20
 70
     1
102
RTVSPropertyOp21
 70
     1
102
RTVSPropertyOp22
 70
     1
102
RTVSPropertyOp23
 70
     1
102
RTVSPropertyOp24
 70
     1
102
RTVSPropertyOp25
 70
     1
102
RTVSPropertyOp26
 70
     1
102
RTVSPropertyOp27
 70
     1
  0
ENDSEC
  0
EOF
