  0
SECTION
  2
HEADER
  9
$ACADVER
  1
AC1015
  9
$ACADMAINTVER
 70
     6
  9
$DWGCODEPAGE
  3
ANSI_1252
  9
$INSBASE
 10
0.0
 20
0.0
 30
0.0
  9
$EXTMIN
 10
0.0
 20
0.0
 30
0.0
  9
$EXTMAX
 10
25.0
 20
35.0
 30
0.0
  9
$LIMMIN
 10
0.0
 20
0.0
  9
$LIMMAX
 10
420.0
 20
297.0
  9
$ORTHOMODE
 70
     0
  9
$REGENMODE
 70
     1
  9
$FILLMODE
 70
     1
  9
$QTEXTMODE
 70
     0
  9
$MIRRTEXT
 70
     1
  9
$LTSCALE
 40
5.9
  9
$ATTMODE
 70
     1
  9
$TEXTSIZE
 40
2.5
  9
$TRACEWID
 40
1.0
  9
$TEXTSTYLE
  7
Standard
  9
$CLAYER
  8
0
  9
$CELTYPE
  6
ByLayer
  9
$CECOLOR
 62
   256
  9
$CELTSCALE
 40
1.0
  9
$DISPSILH
 70
     0
  9
$DIMSCALE
 40
1.0
  9
$DIMASZ
 40
2.5
  9
$DIMEXO
 40
0.625
  9
$DIMDLI
 40
3.75
  9
$DIMRND
 40
0.0
  9
$DIMDLE
 40
0.0
  9
$DIMEXE
 40
1.25
  9
$DIMTP
 40
0.0
  9
$DIMTM
 40
0.0
  9
$DIMTXT
 40
2.5
  9
$DIMCEN
 40
2.5
  9
$DIMTSZ
 40
0.0
  9
$DIMTOL
 70
     0
  9
$DIMLIM
 70
     0
  9
$DIMTIH
 70
     0
  9
$DIMTOH
 70
     0
  9
$DIMSE1
 70
     0
  9
$DIMSE2
 70
     0
  9
$DIMTAD
 70
     1
  9
$DIMZIN
 70
     8
  9
$DIMBLK
  1

  9
$DIMASO
 70
     1
  9
$DIMSHO
 70
     1
  9
$DIMPOST
  1

  9
$DIMAPOST
  1

  9
$DIMALT
 70
     0
  9
$DIMALTD
 70
     3
  9
$DIMALTF
 40
0.03937007874016
  9
$DIMLFAC
 40
1.0
  9
$DIMTOFL
 70
     1
  9
$DIMTVP
 40
0.0
  9
$DIMTIX
 70
     0
  9
$DIMSOXD
 70
     0
  9
$DIMSAH
 70
     0
  9
$DIMBLK1
  1

  9
$DIMBLK2
  1

  9
$DIMSTYLE
  2
ISO-25
  9
$DIMCLRD
 70
     0
  9
$DIMCLRE
 70
     0
  9
$DIMCLRT
 70
     0
  9
$DIMTFAC
 40
1.0
  9
$DIMGAP
 40
0.625
  9
$DIMJUST
 70
     0
  9
$DIMSD1
 70
     0
  9
$DIMSD2
 70
     0
  9
$DIMTOLJ
 70
     0
  9
$DIMTZIN
 70
     8
  9
$DIMALTZ
 70
     0
  9
$DIMALTTZ
 70
     0
  9
$DIMUPT
 70
     0
  9
$DIMDEC
 70
     2
  9
$DIMTDEC
 70
     2
  9
$DIMALTU
 70
     2
  9
$DIMALTTD
 70
     3
  9
$DIMTXSTY
  7
Standard
  9
$DIMAUNIT
 70
     0
  9
$DIMADEC
 70
     0
  9
$DIMALTRND
 40
0.0
  9
$DIMAZIN
 70
     0
  9
$DIMDSEP
 70
    44
  9
$DIMATFIT
 70
     3
  9
$DIMFRAC
 70
     0
  9
$DIMLDRBLK
  1

  9
$DIMLUNIT
 70
     2
  9
$DIMLWD
 70
    -2
  9
$DIMLWE
 70
    -2
  9
$DIMTMOVE
 70
     0
  9
$LUNITS
 70
     2
  9
$LUPREC
 70
     4
  9
$SKETCHINC
 40
1.0
  9
$FILLETRAD
 40
10.0
  9
$AUNITS
 70
     0
  9
$AUPREC
 70
     0
  9
$MENU
  1
.
  9
$ELEVATION
 40
0.0
  9
$PELEVATION
 40
0.0
  9
$THICKNESS
 40
0.0
  9
$LIMCHECK
 70
     0
  9
$CHAMFERA
 40
10.0
  9
$CHAMFERB
 40
10.0
  9
$CHAMFERC
 40
20.0
  9
$CHAMFERD
 40
0.0
  9
$SKPOLY
 70
     0
  9
$TDCREATE
 40
2458577.716666667
  9
$TDUCREATE
 40
2458577.633333333
  9
$TDUPDATE
 40
2458577.720138889
  9
$TDUUPDATE
 40
2458577.636805556
  9
$TDINDWG
 40
0.0000000116
  9
$TDUSRTIMER
 40
0.0000000116
  9
$USRTIMER
 70
     1
  9
$ANGBASE
 50
0.0
  9
$ANGDIR
 70
     0
  9
$PDMODE
 70
     0
  9
$PDSIZE
 40
0.0
  9
$PLINEWID
 40
0.0
  9
$SPLFRAME
 70
     0
  9
$SPLINETYPE
 70
     6
  9
$SPLINESEGS
 70
     8
  9
$HANDSEED
  5
9FB
  9
$SURFTAB1
 70
     6
  9
$SURFTAB2
 70
     6
  9
$SURFTYPE
 70
     6
  9
$SURFU
 70
     6
  9
$SURFV
 70
     6
  9
$UCSBASE
  2

  9
$UCSNAME
  2

  9
$UCSORG
 10
0.0
 20
0.0
 30
0.0
  9
$UCSXDIR
 10
1.0
 20
0.0
 30
0.0
  9
$UCSYDIR
 10
0.0
 20
1.0
 30
0.0
  9
$UCSORTHOREF
  2

  9
$UCSORTHOVIEW
 70
     0
  9
$UCSORGTOP
 10
0.0
 20
0.0
 30
0.0
  9
$UCSORGBOTTOM
 10
0.0
 20
0.0
 30
0.0
  9
$UCSORGLEFT
 10
0.0
 20
0.0
 30
0.0
  9
$UCSORGRIGHT
 10
0.0
 20
0.0
 30
0.0
  9
$UCSORGFRONT
 10
0.0
 20
0.0
 30
0.0
  9
$UCSORGBACK
 10
0.0
 20
0.0
 30
0.0
  9
$PUCSBASE
  2

  9
$PUCSNAME
  2

  9
$PUCSORG
 10
0.0
 20
0.0
 30
0.0
  9
$PUCSXDIR
 10
1.0
 20
0.0
 30
0.0
  9
$PUCSYDIR
 10
0.0
 20
1.0
 30
0.0
  9
$PUCSORTHOREF
  2

  9
$PUCSORTHOVIEW
 70
     0
  9
$PUCSORGTOP
 10
0.0
 20
0.0
 30
0.0
  9
$PUCSORGBOTTOM
 10
0.0
 20
0.0
 30
0.0
  9
$PUCSORGLEFT
 10
0.0
 20
0.0
 30
0.0
  9
$PUCSORGRIGHT
 10
0.0
 20
0.0
 30
0.0
  9
$PUCSORGFRONT
 10
0.0
 20
0.0
 30
0.0
  9
$PUCSORGBACK
 10
0.0
 20
0.0
 30
0.0
  9
$USERI1
 70
     0
  9
$USERI2
 70
     0
  9
$USERI3
 70
     0
  9
$USERI4
 70
     0
  9
$USERI5
 70
     0
  9
$USERR1
 40
0.0
  9
$USERR2
 40
0.0
  9
$USERR3
 40
0.0
  9
$USERR4
 40
0.0
  9
$USERR5
 40
0.0
  9
$WORLDVIEW
 70
     1
  9
$SHADEDGE
 70
     3
  9
$SHADEDIF
 70
    70
  9
$TILEMODE
 70
     1
  9
$MAXACTVP
 70
    64
  9
$PINSBASE
 10
0.0
 20
0.0
 30
0.0
  9
$PLIMCHECK
 70
     0
  9
$PEXTMIN
 10
1.000000000000000E+20
 20
1.000000000000000E+20
 30
1.000000000000000E+20
  9
$PEXTMAX
 10
-1.000000000000000E+20
 20
-1.000000000000000E+20
 30
-1.000000000000000E+20
  9
$PLIMMIN
 10
0.0
 20
0.0
  9
$PLIMMAX
 10
420.0
 20
297.0
  9
$UNITMODE
 70
     0
  9
$VISRETAIN
 70
     1
  9
$PLINEGEN
 70
     0
  9
$PSLTSCALE
 70
     1
  9
$TREEDEPTH
 70
  3020
  9
$CMLSTYLE
  2
Standard
  9
$CMLJUST
 70
     0
  9
$CMLSCALE
 40
20.0
  9
$PROXYGRAPHICS
 70
     1
  9
$MEASUREMENT
 70
     1
  9
$CELWEIGHT
370
    -1
  9
$ENDCAPS
280
     0
  9
$JOINSTYLE
280
     0
  9
$LWDISPLAY
290
     0
  9
$INSUNITS
 70
     4
  9
$HYPERLINKBASE
  1

  9
$STYLESHEET
  1

  9
$XEDIT
290
     1
  9
$CEPSNTYPE
380
     0
  9
$PSTYLEMODE
290
     1
  9
$FINGERPRINTGUID
  2
{F353E2E6-4A22-4864-A880-6F78AFD68AC0}
  9
$VERSIONGUID
  2
{FAEB1C32-E019-11D5-929B-00C0DF256EC4}
  9
$EXTNAMES
290
     1
  9
$PSVPSCALE
 40
0.0
  9
$OLESTARTUP
290
     0
  0
ENDSEC
  0
SECTION
  2
CLASSES
  0
CLASS
  1
ACDBDICTIONARYWDFLT
  2
AcDbDictionaryWithDefault
  3
ObjectDBX Classes
 90
        0
280
     0
281
     0
  0
CLASS
  1
VISUALSTYLE
  2
AcDbVisualStyle
  3
ObjectDBX Classes
 90
     4095
280
     0
281
     0
  0
CLASS
  1
MATERIAL
  2
AcDbMaterial
  3
ObjectDBX Classes
 90
     1153
280
     0
281
     0
  0
CLASS
  1
SCALE
  2
AcDbScale
  3
ObjectDBX Classes
 90
     1153
280
     0
281
     0
  0
CLASS
  1
DICTIONARYVAR
  2
AcDbDictionaryVar
  3
ObjectDBX Classes
 90
        0
280
     0
281
     0
  0
CLASS
  1
ACDBPLACEHOLDER
  2
AcDbPlaceHolder
  3
ObjectDBX Classes
 90
        0
280
     0
281
     0
  0
CLASS
  1
LAYOUT
  2
AcDbLayout
  3
ObjectDBX Classes
 90
        0
280
     0
281
     0
  0
ENDSEC
  0
SECTION
  2
TABLES
  0
TABLE
  2
VPORT
  5
8
330
0
100
AcDbSymbolTable
 70
     1
  0
VPORT
  5
29
330
8
100
AcDbSymbolTableRecord
100
AcDbViewportTableRecord
  2
*Active
 70
     0
 10
0.0
 20
0.0
 11
1.0
 21
1.0
 12
11.26
 22
4.5
 13
0.0
 23
0.0
 14
10.0
 24
10.0
 15
10.0
 25
10.0
 16
0.0
 26
0.0
 36
1.0
 17
0.0
 27
0.0
 37
0.0
 40
9.0
 41
2.503333333333333
 42
50.0
 43
0.0
 44
0.0
 50
0.0
 51
0.0
 71
     0
 72
   100
 73
     1
 74
     3
 75
     0
 76
     0
 77
     0
 78
     0
281
     0
 65
     1
110
0.0
120
0.0
130
0.0
111
1.0
121
0.0
131
0.0
112
0.0
122
1.0
132
0.0
 79
     0
146
0.0
  0
ENDTAB
  0
TABLE
  2
LTYPE
  5
5
330
0
100
AcDbSymbolTable
 70
    10
  0
LTYPE
  5
14
330
5
100
AcDbSymbolTableRecord
100
AcDbLinetypeTableRecord
  2
ByBlock
 70
     0
  3

 72
    65
 73
     0
 40
0.0
  0
LTYPE
  5
15
330
5
100
AcDbSymbolTableRecord
100
AcDbLinetypeTableRecord
  2
ByLayer
 70
     0
  3

 72
    65
 73
     0
 40
0.0
  0
LTYPE
  5
16
330
5
100
AcDbSymbolTableRecord
100
AcDbLinetypeTableRecord
  2
Continuous
 70
     0
  3
Solid line
 72
    65
 73
     0
 40
0.0
  0
LTYPE
  5
45
330
5
100
AcDbSymbolTableRecord
100
AcDbLinetypeTableRecord
  2
phl_thick
 70
     0
  3
THICK
 72
    65
 73
     0
 40
0.0
  0
LTYPE
  5
286
330
5
100
AcDbSymbolTableRecord
100
AcDbLinetypeTableRecord
  2
ls_CUT
 70
     0
  3
THICK
 72
    65
 73
     0
 40
0.0
  0
LTYPE
  5
28C
330
5
100
AcDbSymbolTableRecord
100
AcDbLinetypeTableRecord
  2
ls1
 70
     0
  3
THICK
 72
    65
 73
     0
 40
0.0
  0
LTYPE
  5
293
330
5
100
AcDbSymbolTableRecord
100
AcDbLinetypeTableRecord
  2
NOCUT
 70
     0
  3
THICK
 72
    65
 73
     0
 40
0.0
  0
LTYPE
  5
297
330
5
100
AcDbSymbolTableRecord
100
AcDbLinetypeTableRecord
  2
SK1
 70
     0
  3
THICK
 72
    65
 73
     0
 40
0.0
  0
LTYPE
  5
2A5
330
5
100
AcDbSymbolTableRecord
100
AcDbLinetypeTableRecord
  2
ls_SK2
 70
     0
  3
THIN
 72
    65
 73
     0
 40
0.0
  0
LTYPE
  5
351
330
5
100
AcDbSymbolTableRecord
100
AcDbLinetypeTableRecord
  2
ls_2
 70
     0
  3
THIN
 72
    65
 73
     0
 40
0.0
  0
LTYPE
  5
4A3
330
5
100
AcDbSymbolTableRecord
100
AcDbLinetypeTableRecord
  2
LONGDASH_DASH
 70
     0
  3
THIN_DASHDOT
 72
    65
 73
     4
 40
0.85
 49
0.4
 74
     0
 49
-0.2
 74
     0
 49
0.05
 74
     0
 49
-0.2
 74
     0
  0
LTYPE
  5
4DF
330
5
100
AcDbSymbolTableRecord
100
AcDbLinetypeTableRecord
  2
ls_SK1
 70
     0
  3
THICK
 72
    65
 73
     0
 40
0.0
  0
ENDTAB
  0
TABLE
  2
LAYER
  5
2
330
0
100
AcDbSymbolTable
 70
    10
  0
LAYER
  5
10
330
2
100
AcDbSymbolTableRecord
100
AcDbLayerTableRecord
  2
0
 70
     0
 62
     7
  6
Continuous
370
    -3
390
F
  0
LAYER
  5
44
330
2
100
AcDbSymbolTableRecord
100
AcDbLayerTableRecord
  2
1
 70
     0
 62
4
  6
CONTINUOUS
370
50
370
    -3
390
F
  0
LAYER
  5
285
330
2
100
AcDbSymbolTableRecord
100
AcDbLayerTableRecord
  2
CUT
 70
     0
 62
1
  6
CONTINUOUS
370
25
370
    -3
390
F
  0
LAYER
  5
28B
330
2
100
AcDbSymbolTableRecord
100
AcDbLayerTableRecord
  2
NOCUT
 70
     0
 62
7
  6
CONTINUOUS
370
25
370
    -3
390
F
  0
LAYER
  5
296
330
2
100
AcDbSymbolTableRecord
100
AcDbLayerTableRecord
  2
SK1
 70
     0
 62
4
  6
CONTINUOUS
370
50
370
    -3
390
F
  0
LAYER
  5
2A4
330
2
100
AcDbSymbolTableRecord
100
AcDbLayerTableRecord
  2
SK2
 70
     0
 62
7
  6
CONTINUOUS
370
25
370
    -3
390
F
  0
LAYER
  5
350
330
2
100
AcDbSymbolTableRecord
100
AcDbLayerTableRecord
  2
2
 70
     0
 62
7
  6
CONTINUOUS
370
25
370
    -3
390
F
  0
LAYER
  5
4A2
330
2
100
AcDbSymbolTableRecord
100
AcDbLayerTableRecord
  2
4
 70
     0
 62
2
  6
LONGDASH_DASH
370
25
370
    -3
390
F
  0
LAYER
  5
4A5
330
2
100
AcDbSymbolTableRecord
100
AcDbLayerTableRecord
  2
SK4
 70
     0
 62
2
  6
LONGDASH_DASH
370
25
370
    -3
390
F
  0
LAYER
  5
518
330
2
100
AcDbSymbolTableRecord
100
AcDbLayerTableRecord
  2
SK6
 70
     0
 62
5
  6
CONTINUOUS
370
25
370
    -3
390
F
  0
ENDTAB
  0
TABLE
  2
STYLE
  5
3
330
0
100
AcDbSymbolTable
 70
     1
  0
STYLE
  5
11
330
3
100
AcDbSymbolTableRecord
100
AcDbTextStyleTableRecord
  2
Standard
 70
     0
 40
0.0
 41
1.0
 50
0.0
 71
     0
 42
2.5
  3
Monospac821 BT
  4

  0
ENDTAB
  0
TABLE
  2
VIEW
  5
6
330
0
100
AcDbSymbolTable
 70
     0
  0
ENDTAB
  0
TABLE
  2
UCS
  5
7
330
0
100
AcDbSymbolTable
 70
     0
  0
ENDTAB
  0
TABLE
  2
APPID
  5
9
330
0
100
AcDbSymbolTable
 70
     2
  0
APPID
  5
12
330
9
100
AcDbSymbolTableRecord
100
AcDbRegAppTableRecord
  2
ACAD
 70
     0
  0
APPID
  5
3F
330
9
100
AcDbSymbolTableRecord
100
AcDbRegAppTableRecord
  2
ccLab
 70
     0
  0
ENDTAB
  0
TABLE
  2
DIMSTYLE
  5
A
330
0
100
AcDbSymbolTable
 70
     1
100
AcDbDimStyleTable
  0
DIMSTYLE
105
27
330
A
100
AcDbSymbolTableRecord
100
AcDbDimStyleTableRecord
  2
ISO-25
 70
     0
 41
2.5
 42
0.625
 43
3.75
 44
1.25
 73
     0
 74
     0
 77
     1
 78
     8
140
2.5
141
2.5
143
0.03937007874016
147
0.625
171
     3
172
     1
271
     2
272
     2
274
     3
278
    44
283
     0
284
     8
340
11
  0
ENDTAB
  0
TABLE
  2
BLOCK_RECORD
  5
1
330
0
100
AcDbSymbolTable
 70
     2
  0
BLOCK_RECORD
  5
1F
330
1
100
AcDbSymbolTableRecord
100
AcDbBlockTableRecord
  2
*Model_Space
340
22
  0
BLOCK_RECORD
  5
1B
330
1
100
AcDbSymbolTableRecord
100
AcDbBlockTableRecord
  2
*Paper_Space
340
1E
  0
BLOCK_RECORD
  5
23
330
1
100
AcDbSymbolTableRecord
100
AcDbBlockTableRecord
  2
*Paper_Space0
340
26
  0
ENDTAB
  0
ENDSEC
  0
SECTION
  2
BLOCKS
  0
BLOCK
  5
20
330
1F
100
AcDbEntity
  8
0
100
AcDbBlockBegin
  2
*Model_Space
 70
     0
 10
0.0
 20
0.0
 30
0.0
  3
*Model_Space
  1

  0
ENDBLK
  5
21
330
1F
100
AcDbEntity
  8
0
100
AcDbBlockEnd
  0
BLOCK
  5
1C
330
1B
100
AcDbEntity
 67
     1
  8
0
100
AcDbBlockBegin
  2
*Paper_Space
 70
     0
 10
0.0
 20
0.0
 30
0.0
  3
*Paper_Space
  1

  0
ENDBLK
  5
1D
330
1B
100
AcDbEntity
 67
     1
  8
0
100
AcDbBlockEnd
  0
BLOCK
  5
24
330
23
100
AcDbEntity
  8
0
100
AcDbBlockBegin
  2
*Paper_Space0
 70
     0
 10
0.0
 20
0.0
 30
0.0
  3
*Paper_Space0
  1

  0
ENDBLK
  5
25
330
23
100
AcDbEntity
  8
0
100
AcDbBlockEnd
  0
ENDSEC
  0
SECTION
  2
ENTITIES
  0
LINE
  5
522
330
1F
100
AcDbEntity
  8
1
  6
CONTINUOUS
370
50
 62
4
100
AcDbLine
 10
122.592522
 20
-3.927599
 30
0.0
 11
122.592255
 21
-3.573261
 31
0.0
  0
LINE
  5
523
330
1F
100
AcDbEntity
  8
1
  6
CONTINUOUS
370
50
 62
4
100
AcDbLine
 10
122.593193
 20
-4.278924
 30
0.0
 11
122.592522
 21
-3.927599
 31
0.0
  0
LINE
  5
524
330
1F
100
AcDbEntity
  8
1
  6
CONTINUOUS
370
50
 62
4
100
AcDbLine
 10
122.594284
 20
-4.625634
 30
0.0
 11
122.593193
 21
-4.278924
 31
0.0
  0
LINE
  5
525
330
1F
100
AcDbEntity
  8
1
  6
CONTINUOUS
370
50
 62
4
100
AcDbLine
 10
122.595795
 20
-4.966127999999999
 30
0.0
 11
122.594284
 21
-4.625634
 31
0.0
  0
LINE
  5
526
330
1F
100
AcDbEntity
  8
1
  6
CONTINUOUS
370
50
 62
4
100
AcDbLine
 10
122.59774
 20
-5.298833999999999
 30
0.0
 11
122.595795
 21
-4.966127999999999
 31
0.0
  0
LINE
  5
527
330
1F
100
AcDbEntity
  8
1
  6
CONTINUOUS
370
50
 62
4
100
AcDbLine
 10
122.600121
 20
-5.622413
 30
0.0
 11
122.59774
 21
-5.298833999999999
 31
0.0
  0
LINE
  5
528
330
1F
100
AcDbEntity
  8
1
  6
CONTINUOUS
370
50
 62
4
100
AcDbLine
 10
122.602928
 20
-5.935645
 30
0.0
 11
122.600121
 21
-5.622413
 31
0.0
  0
LINE
  5
529
330
1F
100
AcDbEntity
  8
1
  6
CONTINUOUS
370
50
 62
4
100
AcDbLine
 10
122.606148
 20
-6.237311999999999
 30
0.0
 11
122.602928
 21
-5.935645
 31
0.0
  0
LINE
  5
52A
330
1F
100
AcDbEntity
  8
1
  6
CONTINUOUS
370
50
 62
4
100
AcDbLine
 10
122.609787
 20
-6.526206999999999
 30
0.0
 11
122.606148
 21
-6.237311999999999
 31
0.0
  0
LINE
  5
52B
330
1F
100
AcDbEntity
  8
1
  6
CONTINUOUS
370
50
 62
4
100
AcDbLine
 10
122.613823
 20
-6.801416
 30
0.0
 11
122.609787
 21
-6.526206999999999
 31
0.0
  0
LINE
  5
52C
330
1F
100
AcDbEntity
  8
1
  6
CONTINUOUS
370
50
 62
4
100
AcDbLine
 10
122.618248
 20
-7.062182
 30
0.0
 11
122.613823
 21
-6.801416
 31
0.0
  0
LINE
  5
52D
330
1F
100
AcDbEntity
  8
1
  6
CONTINUOUS
370
50
 62
4
100
AcDbLine
 10
122.623032
 20
-7.307728
 30
0.0
 11
122.618248
 21
-7.062182
 31
0.0
  0
LINE
  5
52E
330
1F
100
AcDbEntity
  8
1
  6
CONTINUOUS
370
50
 62
4
100
AcDbLine
 10
122.628166
 20
-7.537269999999999
 30
0.0
 11
122.623032
 21
-7.307728
 31
0.0
  0
LINE
  5
52F
330
1F
100
AcDbEntity
  8
1
  6
CONTINUOUS
370
50
 62
4
100
AcDbLine
 10
122.633621
 20
-7.750087
 30
0.0
 11
122.628166
 21
-7.537269999999999
 31
0.0
  0
LINE
  5
530
330
1F
100
AcDbEntity
  8
1
  6
CONTINUOUS
370
50
 62
4
100
AcDbLine
 10
122.639374
 20
-7.945825999999999
 30
0.0
 11
122.633621
 21
-7.750087
 31
0.0
  0
LINE
  5
531
330
1F
100
AcDbEntity
  8
1
  6
CONTINUOUS
370
50
 62
4
100
AcDbLine
 10
122.645386
 20
-8.124274999999999
 30
0.0
 11
122.639374
 21
-7.945825999999999
 31
0.0
  0
LINE
  5
532
330
1F
100
AcDbEntity
  8
1
  6
CONTINUOUS
370
50
 62
4
100
AcDbLine
 10
122.651627
 20
-8.285228
 30
0.0
 11
122.645386
 21
-8.124274999999999
 31
0.0
  0
LINE
  5
533
330
1F
100
AcDbEntity
  8
1
  6
CONTINUOUS
370
50
 62
4
100
AcDbLine
 10
122.658073
 20
-8.428884
 30
0.0
 11
122.651627
 21
-8.285228
 31
0.0
  0
LINE
  5
534
330
1F
100
AcDbEntity
  8
1
  6
CONTINUOUS
370
50
 62
4
100
AcDbLine
 10
65.95369
 20
-3.922708
 30
0.0
 11
65.942574
 21
-3.688128
 31
0.0
  0
LINE
  5
535
330
1F
100
AcDbEntity
  8
1
  6
CONTINUOUS
370
50
 62
4
100
AcDbLine
 10
122.664864
 20
-8.55795
 30
0.0
 11
122.658073
 21
-8.428884
 31
0.0
  0
LINE
  5
536
330
1F
100
AcDbEntity
  8
1
  6
CONTINUOUS
370
50
 62
4
100
AcDbLine
 10
122.671997
 20
-8.672184
 30
0.0
 11
122.664864
 21
-8.55795
 31
0.0
  0
LINE
  5
537
330
1F
100
AcDbEntity
  8
1
  6
CONTINUOUS
370
50
 62
4
100
AcDbLine
 10
122.79921
 20
8.344434999999999
 30
0.0
 11
122.791389
 21
8.464324
 31
0.0
  0
LINE
  5
538
330
1F
100
AcDbEntity
  8
1
  6
CONTINUOUS
370
50
 62
4
100
AcDbLine
 10
122.791389
 20
8.464324
 30
0.0
 11
122.783508
 21
8.573573
 31
0.0
  0
LINE
  5
539
330
1F
100
AcDbEntity
  8
1
  6
CONTINUOUS
370
50
 62
4
100
AcDbLine
 10
122.679459
 20
-8.770629
 30
0.0
 11
122.671997
 21
-8.672184
 31
0.0
  0
LINE
  5
53A
330
1F
100
AcDbEntity
  8
1
  6
CONTINUOUS
370
50
 62
4
100
AcDbLine
 10
122.783508
 20
8.573573
 30
0.0
 11
122.775581
 21
8.671515
 31
0.0
  0
LINE
  5
53B
330
1F
100
AcDbEntity
  8
1
  6
CONTINUOUS
370
50
 62
4
100
AcDbLine
 10
122.775581
 20
8.671515
 30
0.0
 11
122.767632
 21
8.757520999999999
 31
0.0
  0
LINE
  5
53C
330
1F
100
AcDbEntity
  8
1
  6
CONTINUOUS
370
50
 62
4
100
AcDbLine
 10
122.687218
 20
-8.852326
 30
0.0
 11
122.679459
 21
-8.770629
 31
0.0
  0
LINE
  5
53D
330
1F
100
AcDbEntity
  8
1
  6
CONTINUOUS
370
50
 62
4
100
AcDbLine
 10
122.767632
 20
8.757520999999999
 30
0.0
 11
122.759682
 21
8.830974
 31
0.0
  0
LINE
  5
53E
330
1F
100
AcDbEntity
  8
1
  6
CONTINUOUS
370
50
 62
4
100
AcDbLine
 10
122.695267
 20
-8.916451
 30
0.0
 11
122.687218
 21
-8.852326
 31
0.0
  0
LINE
  5
53F
330
1F
100
AcDbEntity
  8
1
  6
CONTINUOUS
370
50
 62
4
100
AcDbLine
 10
122.759682
 20
8.830974
 30
0.0
 11
122.751762
 21
8.891492
 31
0.0
  0
LINE
  5
540
330
1F
100
AcDbEntity
  8
1
  6
CONTINUOUS
370
50
 62
4
100
AcDbLine
 10
65.988899
 20
-4.165851
 30
0.0
 11
65.95369
 21
-3.922708
 31
0.0
  0
LINE
  5
541
330
1F
100
AcDbEntity
  8
1
  6
CONTINUOUS
370
50
 62
4
100
AcDbLine
 10
122.751762
 20
8.891492
 30
0.0
 11
122.743881
 21
8.938862
 31
0.0
  0
LINE
  5
542
330
1F
100
AcDbEntity
  8
1
  6
CONTINUOUS
370
50
 62
4
100
AcDbLine
 10
122.703575
 20
-8.962626
 30
0.0
 11
122.695267
 21
-8.916451
 31
0.0
  0
LINE
  5
543
330
1F
100
AcDbEntity
  8
1
  6
CONTINUOUS
370
50
 62
4
100
AcDbLine
 10
122.743881
 20
8.938862
 30
0.0
 11
122.736069
 21
8.972874
 31
0.0
  0
LINE
  5
544
330
1F
100
AcDbEntity
  8
1
  6
CONTINUOUS
370
50
 62
4
100
AcDbLine
 10
66.048553
 20
-4.416285999999999
 30
0.0
 11
65.988899
 21
-4.165851
 31
0.0
  0
LINE
  5
545
330
1F
100
AcDbEntity
  8
1
  6
CONTINUOUS
370
50
 62
4
100
AcDbLine
 10
127.264656
 20
0.061602
 30
0.0
 11
127.256882
 21
0.092133
 31
0.0
  0
LINE
  5
546
330
1F
100
AcDbEntity
  8
1
  6
CONTINUOUS
370
50
 62
4
100
AcDbLine
 10
127.256882
 20
0.092133
 30
0.0
 11
127.248596
 21
0.123173
 31
0.0
  0
LINE
  5
547
330
1F
100
AcDbEntity
  8
1
  6
CONTINUOUS
370
50
 62
4
100
AcDbLine
 10
127.248596
 20
0.123173
 30
0.0
 11
127.239784
 21
0.154757
 31
0.0
  0
LINE
  5
548
330
1F
100
AcDbEntity
  8
1
  6
CONTINUOUS
370
50
 62
4
100
AcDbLine
 10
127.239784
 20
0.154757
 30
0.0
 11
127.230423
 21
0.186924
 31
0.0
  0
LINE
  5
549
330
1F
100
AcDbEntity
  8
1
  6
CONTINUOUS
370
50
 62
4
100
AcDbLine
 10
127.230423
 20
0.186924
 30
0.0
 11
127.220505
 21
0.219713
 31
0.0
  0
LINE
  5
54A
330
1F
100
AcDbEntity
  8
1
  6
CONTINUOUS
370
50
 62
4
100
AcDbLine
 10
122.712105
 20
-8.990567
 30
0.0
 11
122.703575
 21
-8.962626
 31
0.0
  0
LINE
  5
54B
330
1F
100
AcDbEntity
  8
1
  6
CONTINUOUS
370
50
 62
4
100
AcDbLine
 10
127.220505
 20
0.219713
 30
0.0
 11
127.209999
 21
0.253165
 31
0.0
  0
LINE
  5
54C
330
1F
100
AcDbEntity
  8
1
  6
CONTINUOUS
370
50
 62
4
100
AcDbLine
 10
127.209999
 20
0.253165
 30
0.0
 11
127.198891
 21
0.287325
 31
0.0
  0
LINE
  5
54D
330
1F
100
AcDbEntity
  8
1
  6
CONTINUOUS
370
50
 62
4
100
AcDbLine
 10
66.131783
 20
-4.670004
 30
0.0
 11
66.048553
 21
-4.416285999999999
 31
0.0
  0
LINE
  5
54E
330
1F
100
AcDbEntity
  8
1
  6
CONTINUOUS
370
50
 62
4
100
AcDbLine
 10
127.222389
 20
0.287911
 30
0.0
 11
127.166145
 21
0.446244
 31
0.0
  0
LINE
  5
54F
330
1F
100
AcDbEntity
  8
1
  6
CONTINUOUS
370
50
 62
4
100
AcDbLine
 10
122.736069
 20
8.972874
 30
0.0
 11
122.72834
 21
8.993317
 31
0.0
  0
LINE
  5
550
330
1F
100
AcDbEntity
  8
1
  6
CONTINUOUS
370
50
 62
4
100
AcDbLine
 10
127.166145
 20
0.446244
 30
0.0
 11
127.095505
 21
0.623478
 31
0.0
  0
LINE
  5
551
330
1F
100
AcDbEntity
  8
1
  6
CONTINUOUS
370
50
 62
4
100
AcDbLine
 10
66.23784599999999
 20
-4.925806
 30
0.0
 11
66.131783
 21
-4.670004
 31
0.0
  0
LINE
  5
552
330
1F
100
AcDbEntity
  8
1
  6
CONTINUOUS
370
50
 62
4
100
AcDbLine
 10
127.095505
 20
0.623478
 30
0.0
 11
127.007095
 21
0.825677
 31
0.0
  0
LINE
  5
553
330
1F
100
AcDbEntity
  8
1
  6
CONTINUOUS
370
50
 62
4
100
AcDbLine
 10
127.007095
 20
0.825677
 30
0.0
 11
126.896103
 21
1.061217
 31
0.0
  0
LINE
  5
554
330
1F
100
AcDbEntity
  8
1
  6
CONTINUOUS
370
50
 62
4
100
AcDbLine
 10
123.660126
 20
6.67751
 30
0.0
 11
123.574265
 21
6.850874999999999
 31
0.0
  0
LINE
  5
555
330
1F
100
AcDbEntity
  8
1
  6
CONTINUOUS
370
50
 62
4
100
AcDbLine
 10
66.366058
 20
-5.182920999999999
 30
0.0
 11
66.23784599999999
 21
-4.925806
 31
0.0
  0
LINE
  5
556
330
1F
100
AcDbEntity
  8
1
  6
CONTINUOUS
370
50
 62
4
100
AcDbLine
 10
126.896103
 20
1.061217
 30
0.0
 11
126.755463
 21
1.342096
 31
0.0
  0
LINE
  5
557
330
1F
100
AcDbEntity
  8
1
  6
CONTINUOUS
370
50
 62
4
100
AcDbLine
 10
123.574265
 20
6.850874999999999
 30
0.0
 11
123.487595
 21
7.023815
 31
0.0
  0
LINE
  5
558
330
1F
100
AcDbEntity
  8
1
  6
CONTINUOUS
370
50
 62
4
100
AcDbLine
 10
123.487595
 20
7.023815
 30
0.0
 11
123.400429
 21
7.196232999999999
 31
0.0
  0
LINE
  5
559
330
1F
100
AcDbEntity
  8
1
  6
CONTINUOUS
370
50
 62
4
100
AcDbLine
 10
123.400429
 20
7.196232999999999
 30
0.0
 11
123.312897
 21
7.367951
 31
0.0
  0
LINE
  5
55A
330
1F
100
AcDbEntity
  8
1
  6
CONTINUOUS
370
50
 62
4
100
AcDbLine
 10
123.312897
 20
7.367951
 30
0.0
 11
123.225136
 21
7.538793
 31
0.0
  0
LINE
  5
55B
330
1F
100
AcDbEntity
  8
1
  6
CONTINUOUS
370
50
 62
4
100
AcDbLine
 10
123.225136
 20
7.538793
 30
0.0
 11
123.137283
 21
7.708578999999999
 31
0.0
  0
LINE
  5
55C
330
1F
100
AcDbEntity
  8
1
  6
CONTINUOUS
370
50
 62
4
100
AcDbLine
 10
123.137283
 20
7.708578999999999
 30
0.0
 11
123.049355
 21
7.877078
 31
0.0
  0
LINE
  5
55D
330
1F
100
AcDbEntity
  8
1
  6
CONTINUOUS
370
50
 62
4
100
AcDbLine
 10
123.049355
 20
7.877078
 30
0.0
 11
123.013855
 21
7.944678
 31
0.0
  0
LINE
  5
55E
330
1F
100
AcDbEntity
  8
1
  6
CONTINUOUS
370
50
 62
4
100
AcDbLine
 10
126.755463
 20
1.342096
 30
0.0
 11
126.574486
 21
1.686247
 31
0.0
  0
LINE
  5
55F
330
1F
100
AcDbEntity
  8
1
  6
CONTINUOUS
370
50
 62
4
100
AcDbLine
 10
123.013855
 20
7.944678
 30
0.0
 11
122.978012
 21
8.011887
 31
0.0
  0
LINE
  5
560
330
1F
100
AcDbEntity
  8
1
  6
CONTINUOUS
370
50
 62
4
100
AcDbLine
 10
122.978012
 20
8.011887
 30
0.0
 11
122.942192
 21
8.078882
 31
0.0
  0
LINE
  5
561
330
1F
100
AcDbEntity
  8
1
  6
CONTINUOUS
370
50
 62
4
100
AcDbLine
 10
122.942192
 20
8.078882
 30
0.0
 11
122.90641
 21
8.145654
 31
0.0
  0
LINE
  5
562
330
1F
100
AcDbEntity
  8
1
  6
CONTINUOUS
370
50
 62
4
100
AcDbLine
 10
122.90641
 20
8.145654
 30
0.0
 11
122.870674
 21
8.212192
 31
0.0
  0
LINE
  5
563
330
1F
100
AcDbEntity
  8
1
  6
CONTINUOUS
370
50
 62
4
100
AcDbLine
 10
122.870674
 20
8.212192
 30
0.0
 11
122.834991
 21
8.278483999999999
 31
0.0
  0
LINE
  5
564
330
1F
100
AcDbEntity
  8
1
  6
CONTINUOUS
370
50
 62
4
100
AcDbLine
 10
122.834991
 20
8.278483999999999
 30
0.0
 11
122.79921
 21
8.344434999999999
 31
0.0
  0
LINE
  5
565
330
1F
100
AcDbEntity
  8
1
  6
CONTINUOUS
370
50
 62
4
100
AcDbLine
 10
126.574486
 20
1.686247
 30
0.0
 11
126.336243
 21
2.121835
 31
0.0
  0
LINE
  5
566
330
1F
100
AcDbEntity
  8
1
  6
CONTINUOUS
370
50
 62
4
100
AcDbLine
 10
126.336243
 20
2.121835
 30
0.0
 11
126.012329
 21
2.695887
 31
0.0
  0
LINE
  5
567
330
1F
100
AcDbEntity
  8
1
  6
CONTINUOUS
370
50
 62
4
100
AcDbLine
 10
126.012329
 20
2.695887
 30
0.0
 11
125.551231
 21
3.493432
 31
0.0
  0
LINE
  5
568
330
1F
100
AcDbEntity
  8
1
  6
CONTINUOUS
370
50
 62
4
100
AcDbLine
 10
66.51574699999999
 20
-5.440577999999999
 30
0.0
 11
66.366058
 21
-5.182920999999999
 31
0.0
  0
LINE
  5
569
330
1F
100
AcDbEntity
  8
1
  6
CONTINUOUS
370
50
 62
4
100
AcDbLine
 10
128.0
 20
0.0
 30
0.0
 11
122.728088
 21
8.993770999999999
 31
0.0
  0
LINE
  5
56A
330
1F
100
AcDbEntity
  8
1
  6
CONTINUOUS
370
50
 62
4
100
AcDbLine
 10
125.551231
 20
3.493432
 30
0.0
 11
124.849037
 21
4.685782
 31
0.0
  0
LINE
  5
56B
330
1F
100
AcDbEntity
  8
1
  6
CONTINUOUS
370
50
 62
4
100
AcDbLine
 10
124.849037
 20
4.685782
 30
0.0
 11
123.660126
 21
6.67751
 31
0.0
  0
LINE
  5
56C
330
1F
100
AcDbEntity
  8
1
  6
CONTINUOUS
370
50
 62
4
100
AcDbLine
 10
122.72834
 20
8.993317
 30
0.0
 11
122.727081
 21
8.995363
 31
0.0
  0
LINE
  5
56D
330
1F
100
AcDbEntity
  8
1
  6
CONTINUOUS
370
50
 62
4
100
AcDbLine
 10
128.0
 20
0.0
 30
0.0
 11
123.049355
 21
7.877078
 31
0.0
  0
LINE
  5
56E
330
1F
100
AcDbEntity
  8
1
  6
CONTINUOUS
370
50
 62
4
100
AcDbLine
 10
125.007088
 20
0.250726
 30
0.0
 11
124.611526
 21
0.8627349999999999
 31
0.0
  0
LINE
  5
56F
330
1F
100
AcDbEntity
  8
1
  6
CONTINUOUS
370
50
 62
4
100
AcDbLine
 10
124.611526
 20
0.8627349999999999
 30
0.0
 11
124.161736
 21
1.556089
 31
0.0
  0
LINE
  5
570
330
1F
100
AcDbEntity
  8
1
  6
CONTINUOUS
370
50
 62
4
100
AcDbLine
 10
124.161736
 20
1.556089
 30
0.0
 11
123.678162
 21
2.299845
 31
0.0
  0
LINE
  5
571
330
1F
100
AcDbEntity
  8
1
  6
CONTINUOUS
370
50
 62
4
100
AcDbLine
 10
123.678162
 20
2.299845
 30
0.0
 11
123.195709
 21
3.040588
 31
0.0
  0
LINE
  5
572
330
1F
100
AcDbEntity
  8
1
  6
CONTINUOUS
370
50
 62
4
100
AcDbLine
 10
123.195709
 20
3.040588
 30
0.0
 11
122.749146
 21
3.72518
 31
0.0
  0
LINE
  5
573
330
1F
100
AcDbEntity
  8
1
  6
CONTINUOUS
370
50
 62
4
100
AcDbLine
 10
122.749146
 20
3.72518
 30
0.0
 11
122.330391
 21
4.365962
 31
0.0
  0
LINE
  5
574
330
1F
100
AcDbEntity
  8
1
  6
CONTINUOUS
370
50
 62
4
100
AcDbLine
 10
122.330391
 20
4.365962
 30
0.0
 11
121.917458
 21
4.996332
 31
0.0
  0
LINE
  5
575
330
1F
100
AcDbEntity
  8
1
  6
CONTINUOUS
370
50
 62
4
100
AcDbLine
 10
66.686241
 20
-5.698003
 30
0.0
 11
66.51574699999999
 21
-5.440577999999999
 31
0.0
  0
LINE
  5
576
330
1F
100
AcDbEntity
  8
1
  6
CONTINUOUS
370
50
 62
4
100
AcDbLine
 10
66.87303899999999
 20
-5.949768
 30
0.0
 11
66.686241
 21
-5.698003
 31
0.0
  0
LINE
  5
577
330
1F
100
AcDbEntity
  8
1
  6
CONTINUOUS
370
50
 62
4
100
AcDbLine
 10
122.727081
 20
8.995363
 30
0.0
 11
122.725822
 21
8.997036999999999
 31
0.0
  0
LINE
  5
578
330
1F
100
AcDbEntity
  8
1
  6
CONTINUOUS
370
50
 62
4
100
AcDbLine
 10
67.07101399999999
 20
-6.191139
 30
0.0
 11
66.87303899999999
 21
-5.949768
 31
0.0
  0
LINE
  5
579
330
1F
100
AcDbEntity
  8
1
  6
CONTINUOUS
370
50
 62
4
100
AcDbLine
 10
67.278145
 20
-6.421899
 30
0.0
 11
67.07101399999999
 21
-6.191139
 31
0.0
  0
LINE
  5
57A
330
1F
100
AcDbEntity
  8
1
  6
CONTINUOUS
370
50
 62
4
100
AcDbLine
 10
122.720833
 20
-9.000003999999999
 30
0.0
 11
122.712105
 21
-8.990567
 31
0.0
  0
LINE
  5
57B
330
1F
100
AcDbEntity
  8
1
  6
CONTINUOUS
370
50
 62
4
100
AcDbLine
 10
122.725822
 20
8.997036999999999
 30
0.0
 11
122.724571
 21
8.998337
 31
0.0
  0
LINE
  5
57C
330
1F
100
AcDbEntity
  8
1
  6
CONTINUOUS
370
50
 62
4
100
AcDbLine
 10
67.492386
 20
-6.641832
 30
0.0
 11
67.278145
 21
-6.421899
 31
0.0
  0
LINE
  5
57D
330
1F
100
AcDbEntity
  8
1
  6
CONTINUOUS
370
50
 62
4
100
AcDbLine
 10
73.720863
 20
-4.727665
 30
0.0
 11
73.720535
 21
-4.727331
 31
0.0
  0
LINE
  5
57E
330
1F
100
AcDbEntity
  8
1
  6
CONTINUOUS
370
50
 62
4
100
AcDbLine
 10
73.719528
 20
-4.72633
 30
0.0
 11
73.7192
 21
-4.725995999999999
 31
0.0
  0
LINE
  5
57F
330
1F
100
AcDbEntity
  8
1
  6
CONTINUOUS
370
50
 62
4
100
AcDbLine
 10
73.720535
 20
-4.727331
 30
0.0
 11
73.72019999999999
 21
-4.726997
 31
0.0
  0
LINE
  5
580
330
1F
100
AcDbEntity
  8
1
  6
CONTINUOUS
370
50
 62
4
100
AcDbLine
 10
73.719864
 20
-4.726664
 30
0.0
 11
73.719528
 21
-4.72633
 31
0.0
  0
LINE
  5
581
330
1F
100
AcDbEntity
  8
1
  6
CONTINUOUS
370
50
 62
4
100
AcDbLine
 10
73.721199
 20
-4.727997999999999
 30
0.0
 11
73.720863
 21
-4.727665
 31
0.0
  0
LINE
  5
582
330
1F
100
AcDbEntity
  8
1
  6
CONTINUOUS
370
50
 62
4
100
AcDbLine
 10
73.72019999999999
 20
-4.726997
 30
0.0
 11
73.719864
 21
-4.726664
 31
0.0
  0
LINE
  5
583
330
1F
100
AcDbEntity
  8
1
  6
CONTINUOUS
370
50
 62
4
100
AcDbLine
 10
67.711739
 20
-6.850721999999999
 30
0.0
 11
67.492386
 21
-6.641832
 31
0.0
  0
LINE
  5
584
330
1F
100
AcDbEntity
  8
1
  6
CONTINUOUS
370
50
 62
4
100
AcDbLine
 10
127.264656
 20
0.061602
 30
0.0
 11
121.917458
 21
4.996332
 31
0.0
  0
LINE
  5
585
330
1F
100
AcDbEntity
  8
1
  6
CONTINUOUS
370
50
 62
4
100
AcDbLine
 10
122.631844
 20
-0.077012
 30
0.0
 11
122.608536
 21
-0.055595
 31
0.0
  0
LINE
  5
586
330
1F
100
AcDbEntity
  8
1
  6
CONTINUOUS
370
50
 62
4
100
AcDbLine
 10
122.65522
 20
-0.098058
 30
0.0
 11
122.631844
 21
-0.077012
 31
0.0
  0
LINE
  5
587
330
1F
100
AcDbEntity
  8
1
  6
CONTINUOUS
370
50
 62
4
100
AcDbLine
 10
67.93422699999999
 20
-7.048401999999999
 30
0.0
 11
67.711739
 21
-6.850721999999999
 31
0.0
  0
LINE
  5
588
330
1F
100
AcDbEntity
  8
1
  6
CONTINUOUS
370
50
 62
4
100
AcDbLine
 10
101.999855
 20
-0.153109
 30
0.0
 11
101.99971
 21
-0.152981
 31
0.0
  0
LINE
  5
589
330
1F
100
AcDbEntity
  8
1
  6
CONTINUOUS
370
50
 62
4
100
AcDbLine
 10
101.999565
 20
-0.152854
 30
0.0
 11
101.99942
 21
-0.152726
 31
0.0
  0
LINE
  5
58A
330
1F
100
AcDbEntity
  8
1
  6
CONTINUOUS
370
50
 62
4
100
AcDbLine
 10
101.999275
 20
-0.152599
 30
0.0
 11
101.99913
 21
-0.152471
 31
0.0
  0
LINE
  5
58B
330
1F
100
AcDbEntity
  8
1
  6
CONTINUOUS
370
50
 62
4
100
AcDbLine
 10
122.678665
 20
-0.118731
 30
0.0
 11
122.65522
 21
-0.098058
 31
0.0
  0
LINE
  5
58C
330
1F
100
AcDbEntity
  8
1
  6
CONTINUOUS
370
50
 62
4
100
AcDbLine
 10
102.0
 20
-0.153236
 30
0.0
 11
101.999855
 21
-0.153109
 31
0.0
  0
LINE
  5
58D
330
1F
100
AcDbEntity
  8
1
  6
CONTINUOUS
370
50
 62
4
100
AcDbLine
 10
101.99971
 20
-0.152981
 30
0.0
 11
101.999565
 21
-0.152854
 31
0.0
  0
LINE
  5
58E
330
1F
100
AcDbEntity
  8
1
  6
CONTINUOUS
370
50
 62
4
100
AcDbLine
 10
101.99942
 20
-0.152726
 30
0.0
 11
101.999275
 21
-0.152599
 31
0.0
  0
LINE
  5
58F
330
1F
100
AcDbEntity
  8
1
  6
CONTINUOUS
370
50
 62
4
100
AcDbLine
 10
122.702171
 20
-0.139025
 30
0.0
 11
122.678665
 21
-0.118731
 31
0.0
  0
LINE
  5
590
330
1F
100
AcDbEntity
  8
1
  6
CONTINUOUS
370
50
 62
4
100
AcDbLine
 10
73.721199
 20
-4.401832
 30
0.0
 11
73.425743
 21
-4.150058
 31
0.0
  0
LINE
  5
591
330
1F
100
AcDbEntity
  8
1
  6
CONTINUOUS
370
50
 62
4
100
AcDbLine
 10
122.725746
 20
-0.158938
 30
0.0
 11
122.702171
 21
-0.139025
 31
0.0
  0
LINE
  5
592
330
1F
100
AcDbEntity
  8
1
  6
CONTINUOUS
370
50
 62
4
100
AcDbLine
 10
101.947235
 20
-0.108905
 30
0.0
 11
101.921295
 21
-0.087123
 31
0.0
  0
LINE
  5
593
330
1F
100
AcDbEntity
  8
1
  6
CONTINUOUS
370
50
 62
4
100
AcDbLine
 10
101.895348
 20
-0.065341
 30
0.0
 11
101.869408
 21
-0.04356
 31
0.0
  0
LINE
  5
594
330
1F
100
AcDbEntity
  8
1
  6
CONTINUOUS
370
50
 62
4
100
AcDbLine
 10
101.84346
 20
-0.02178
 30
0.0
 11
101.81752
 21
0.0
 31
0.0
  0
LINE
  5
595
330
1F
100
AcDbEntity
  8
1
  6
CONTINUOUS
370
50
 62
4
100
AcDbLine
 10
101.99913
 20
-0.152471
 30
0.0
 11
101.973183
 21
-0.130688
 31
0.0
  0
LINE
  5
596
330
1F
100
AcDbEntity
  8
1
  6
CONTINUOUS
370
50
 62
4
100
AcDbLine
 10
101.973183
 20
-0.130688
 30
0.0
 11
101.947235
 21
-0.108905
 31
0.0
  0
LINE
  5
597
330
1F
100
AcDbEntity
  8
1
  6
CONTINUOUS
370
50
 62
4
100
AcDbLine
 10
101.921295
 20
-0.087123
 30
0.0
 11
101.895348
 21
-0.065341
 31
0.0
  0
LINE
  5
598
330
1F
100
AcDbEntity
  8
1
  6
CONTINUOUS
370
50
 62
4
100
AcDbLine
 10
122.608536
 20
-0.055595
 30
0.0
 11
122.126434
 21
0.349108
 31
0.0
  0
LINE
  5
599
330
1F
100
AcDbEntity
  8
1
  6
CONTINUOUS
370
50
 62
4
100
AcDbLine
 10
101.81752
 20
0.0
 30
0.0
 11
101.712578
 21
0.088092
 31
0.0
  0
LINE
  5
59A
330
1F
100
AcDbEntity
  8
1
  6
CONTINUOUS
370
50
 62
4
100
AcDbLine
 10
101.869408
 20
-0.04356
 30
0.0
 11
101.84346
 21
-0.02178
 31
0.0
  0
LINE
  5
59B
330
1F
100
AcDbEntity
  8
1
  6
CONTINUOUS
370
50
 62
4
100
AcDbLine
 10
101.712578
 20
0.088092
 30
0.0
 11
101.607643
 21
0.176162
 31
0.0
  0
LINE
  5
59C
330
1F
100
AcDbEntity
  8
1
  6
CONTINUOUS
370
50
 62
4
100
AcDbLine
 10
88.82331099999999
 20
0.0
 30
0.0
 11
88.391594
 21
0.362313
 31
0.0
  0
LINE
  5
59D
330
1F
100
AcDbEntity
  8
1
  6
CONTINUOUS
370
50
 62
4
100
AcDbLine
 10
101.607643
 20
0.176162
 30
0.0
 11
101.502693
 21
0.264204
 31
0.0
  0
LINE
  5
59E
330
1F
100
AcDbEntity
  8
1
  6
CONTINUOUS
370
50
 62
4
100
AcDbLine
 10
88.92819999999999
 20
-0.087983
 30
0.0
 11
88.82331099999999
 21
0.0
 31
0.0
  0
LINE
  5
59F
330
1F
100
AcDbEntity
  8
1
  6
CONTINUOUS
370
50
 62
4
100
AcDbLine
 10
102.475166
 20
-0.551213
 30
0.0
 11
102.0
 21
-0.152673
 31
0.0
  0
LINE
  5
5A0
330
1F
100
AcDbEntity
  8
1
  6
CONTINUOUS
370
50
 62
4
100
AcDbLine
 10
89.033127
 20
-0.17596
 30
0.0
 11
88.92819999999999
 21
-0.087983
 31
0.0
  0
LINE
  5
5A1
330
1F
100
AcDbEntity
  8
1
  6
CONTINUOUS
370
50
 62
4
100
AcDbLine
 10
101.502693
 20
0.264204
 30
0.0
 11
101.397728
 21
0.352211
 31
0.0
  0
LINE
  5
5A2
330
1F
100
AcDbEntity
  8
1
  6
CONTINUOUS
370
50
 62
4
100
AcDbLine
 10
88.391594
 20
0.362313
 30
0.0
 11
87.95974
 21
0.7242109999999999
 31
0.0
  0
LINE
  5
5A3
330
1F
100
AcDbEntity
  8
1
  6
CONTINUOUS
370
50
 62
4
100
AcDbLine
 10
89.13810699999999
 20
-0.263922
 30
0.0
 11
89.033127
 21
-0.17596
 31
0.0
  0
LINE
  5
5A4
330
1F
100
AcDbEntity
  8
1
  6
CONTINUOUS
370
50
 62
4
100
AcDbLine
 10
101.397728
 20
0.352211
 30
0.0
 11
101.29274
 21
0.440177
 31
0.0
  0
LINE
  5
5A5
330
1F
100
AcDbEntity
  8
1
  6
CONTINUOUS
370
50
 62
4
100
AcDbLine
 10
122.126434
 20
0.349108
 30
0.0
 11
121.644325
 21
0.7529509999999999
 31
0.0
  0
LINE
  5
5A6
330
1F
100
AcDbEntity
  8
1
  6
CONTINUOUS
370
50
 62
4
100
AcDbLine
 10
89.243141
 20
-0.351844
 30
0.0
 11
89.13810699999999
 21
-0.263922
 31
0.0
  0
LINE
  5
5A7
330
1F
100
AcDbEntity
  8
1
  6
CONTINUOUS
370
50
 62
4
100
AcDbLine
 10
101.29274
 20
0.440177
 30
0.0
 11
101.187706
 21
0.528095
 31
0.0
  0
LINE
  5
5A8
330
1F
100
AcDbEntity
  8
1
  6
CONTINUOUS
370
50
 62
4
100
AcDbLine
 10
89.348221
 20
-0.43972
 30
0.0
 11
89.243141
 21
-0.351844
 31
0.0
  0
LINE
  5
5A9
330
1F
100
AcDbEntity
  8
1
  6
CONTINUOUS
370
50
 62
4
100
AcDbLine
 10
89.453323
 20
-0.527548
 30
0.0
 11
89.348221
 21
-0.43972
 31
0.0
  0
LINE
  5
5AA
330
1F
100
AcDbEntity
  8
1
  6
CONTINUOUS
370
50
 62
4
100
AcDbLine
 10
102.950584
 20
-0.948259
 30
0.0
 11
102.475166
 21
-0.551213
 31
0.0
  0
LINE
  5
5AB
330
1F
100
AcDbEntity
  8
1
  6
CONTINUOUS
370
50
 62
4
100
AcDbLine
 10
101.187706
 20
0.528095
 30
0.0
 11
100.760681
 21
0.8845419999999999
 31
0.0
  0
LINE
  5
5AC
330
1F
100
AcDbEntity
  8
1
  6
CONTINUOUS
370
50
 62
4
100
AcDbLine
 10
89.83528899999999
 20
-0.8463529999999999
 30
0.0
 11
89.453323
 21
-0.527548
 31
0.0
  0
LINE
  5
5AD
330
1F
100
AcDbEntity
  8
1
  6
CONTINUOUS
370
50
 62
4
100
AcDbLine
 10
87.95974
 20
0.7242109999999999
 30
0.0
 11
87.52757299999999
 21
1.084806
 31
0.0
  0
LINE
  5
5AE
330
1F
100
AcDbEntity
  8
1
  6
CONTINUOUS
370
50
 62
4
100
AcDbLine
 10
90.21668199999999
 20
-1.164219
 30
0.0
 11
89.83528899999999
 21
-0.8463529999999999
 31
0.0
  0
LINE
  5
5AF
330
1F
100
AcDbEntity
  8
1
  6
CONTINUOUS
370
50
 62
4
100
AcDbLine
 10
121.644325
 20
0.7529509999999999
 30
0.0
 11
121.161301
 21
1.155231
 31
0.0
  0
LINE
  5
5B0
330
1F
100
AcDbEntity
  8
1
  6
CONTINUOUS
370
50
 62
4
100
AcDbLine
 10
68.159958
 20
-7.236148999999999
 30
0.0
 11
67.93422699999999
 21
-7.048401999999999
 31
0.0
  0
LINE
  5
5B1
330
1F
100
AcDbEntity
  8
1
  6
CONTINUOUS
370
50
 62
4
100
AcDbLine
 10
100.760681
 20
0.8845419999999999
 30
0.0
 11
100.333664
 21
1.239687
 31
0.0
  0
LINE
  5
5B2
330
1F
100
AcDbEntity
  8
1
  6
CONTINUOUS
370
50
 62
4
100
AcDbLine
 10
90.59758
 20
-1.480522
 30
0.0
 11
90.21668199999999
 21
-1.164219
 31
0.0
  0
LINE
  5
5B3
330
1F
100
AcDbEntity
  8
1
  6
CONTINUOUS
370
50
 62
4
100
AcDbLine
 10
103.426636
 20
-1.343579
 30
0.0
 11
102.950584
 21
-0.948259
 31
0.0
  0
LINE
  5
5B4
330
1F
100
AcDbEntity
  8
1
  6
CONTINUOUS
370
50
 62
4
100
AcDbLine
 10
100.333664
 20
1.239687
 30
0.0
 11
99.907417
 21
1.592857
 31
0.0
  0
LINE
  5
5B5
330
1F
100
AcDbEntity
  8
1
  6
CONTINUOUS
370
50
 62
4
100
AcDbLine
 10
87.52757299999999
 20
1.084806
 30
0.0
 11
87.094948
 21
1.443259
 31
0.0
  0
LINE
  5
5B6
330
1F
100
AcDbEntity
  8
1
  6
CONTINUOUS
370
50
 62
4
100
AcDbLine
 10
73.425743
 20
-4.150058
 30
0.0
 11
73.129959
 21
-3.905015
 31
0.0
  0
LINE
  5
5B7
330
1F
100
AcDbEntity
  8
1
  6
CONTINUOUS
370
50
 62
4
100
AcDbLine
 10
121.161301
 20
1.155231
 30
0.0
 11
120.678154
 21
1.555133
 31
0.0
  0
LINE
  5
5B8
330
1F
100
AcDbEntity
  8
1
  6
CONTINUOUS
370
50
 62
4
100
AcDbLine
 10
103.901527
 20
-1.736073
 30
0.0
 11
103.426636
 21
-1.343579
 31
0.0
  0
LINE
  5
5B9
330
1F
100
AcDbEntity
  8
1
  6
CONTINUOUS
370
50
 62
4
100
AcDbLine
 10
122.749382
 20
-0.178465
 30
0.0
 11
122.725746
 21
-0.158938
 31
0.0
  0
LINE
  5
5BA
330
1F
100
AcDbEntity
  8
1
  6
CONTINUOUS
370
50
 62
4
100
AcDbLine
 10
90.97847
 20
-1.794955
 30
0.0
 11
90.59758
 21
-1.480522
 31
0.0
  0
LINE
  5
5BB
330
1F
100
AcDbEntity
  8
1
  6
CONTINUOUS
370
50
 62
4
100
AcDbLine
 10
87.094948
 20
1.443259
 30
0.0
 11
86.662903
 21
1.79932
 31
0.0
  0
LINE
  5
5BC
330
1F
100
AcDbEntity
  8
1
  6
CONTINUOUS
370
50
 62
4
100
AcDbLine
 10
99.907417
 20
1.592857
 30
0.0
 11
99.481628
 21
1.943325
 31
0.0
  0
LINE
  5
5BD
330
1F
100
AcDbEntity
  8
1
  6
CONTINUOUS
370
50
 62
4
100
AcDbLine
 10
120.678154
 20
1.555133
 30
0.0
 11
120.195892
 21
1.952007
 31
0.0
  0
LINE
  5
5BE
330
1F
100
AcDbEntity
  8
1
  6
CONTINUOUS
370
50
 62
4
100
AcDbLine
 10
104.375847
 20
-2.125012
 30
0.0
 11
103.901527
 21
-1.736073
 31
0.0
  0
LINE
  5
5BF
330
1F
100
AcDbEntity
  8
1
  6
CONTINUOUS
370
50
 62
4
100
AcDbLine
 10
86.662903
 20
1.79932
 30
0.0
 11
86.231926
 21
2.152196
 31
0.0
  0
LINE
  5
5C0
330
1F
100
AcDbEntity
  8
1
  6
CONTINUOUS
370
50
 62
4
100
AcDbLine
 10
91.359856
 20
-2.107219
 30
0.0
 11
90.97847
 21
-1.794955
 31
0.0
  0
LINE
  5
5C1
330
1F
100
AcDbEntity
  8
1
  6
CONTINUOUS
370
50
 62
4
100
AcDbLine
 10
99.481628
 20
1.943325
 30
0.0
 11
99.055679
 21
2.290687
 31
0.0
  0
LINE
  5
5C2
330
1F
100
AcDbEntity
  8
1
  6
CONTINUOUS
370
50
 62
4
100
AcDbLine
 10
120.195892
 20
1.952007
 30
0.0
 11
119.713684
 21
2.345154
 31
0.0
  0
LINE
  5
5C3
330
1F
100
AcDbEntity
  8
1
  6
CONTINUOUS
370
50
 62
4
100
AcDbLine
 10
101.999855
 20
-8.475574
 30
0.0
 11
101.999565
 21
-8.475337999999999
 31
0.0
  0
LINE
  5
5C4
330
1F
100
AcDbEntity
  8
1
  6
CONTINUOUS
370
50
 62
4
100
AcDbLine
 10
101.99942
 20
-8.475221
 30
0.0
 11
101.99913
 21
-8.474985
 31
0.0
  0
LINE
  5
5C5
330
1F
100
AcDbEntity
  8
1
  6
CONTINUOUS
370
50
 62
4
100
AcDbLine
 10
86.231926
 20
2.152196
 30
0.0
 11
85.8013
 21
2.501444
 31
0.0
  0
LINE
  5
5C6
330
1F
100
AcDbEntity
  8
1
  6
CONTINUOUS
370
50
 62
4
100
AcDbLine
 10
104.850494
 20
-2.509836
 30
0.0
 11
104.375847
 21
-2.125012
 31
0.0
  0
LINE
  5
5C7
330
1F
100
AcDbEntity
  8
1
  6
CONTINUOUS
370
50
 62
4
100
AcDbLine
 10
91.74183699999999
 20
-2.416718
 30
0.0
 11
91.359856
 21
-2.107219
 31
0.0
  0
LINE
  5
5C8
330
1F
100
AcDbEntity
  8
1
  6
CONTINUOUS
370
50
 62
4
100
AcDbLine
 10
102.0
 20
-8.475691
 30
0.0
 11
101.999855
 21
-8.475574
 31
0.0
  0
LINE
  5
5C9
330
1F
100
AcDbEntity
  8
1
  6
CONTINUOUS
370
50
 62
4
100
AcDbLine
 10
101.999565
 20
-8.475337999999999
 30
0.0
 11
101.99942
 21
-8.475221
 31
0.0
  0
LINE
  5
5CA
330
1F
100
AcDbEntity
  8
1
  6
CONTINUOUS
370
50
 62
4
100
AcDbLine
 10
99.055679
 20
2.290687
 30
0.0
 11
98.628952
 21
2.634538
 31
0.0
  0
LINE
  5
5CB
330
1F
100
AcDbEntity
  8
1
  6
CONTINUOUS
370
50
 62
4
100
AcDbLine
 10
119.713684
 20
2.345154
 30
0.0
 11
119.230972
 21
2.733637
 31
0.0
  0
LINE
  5
5CC
330
1F
100
AcDbEntity
  8
1
  6
CONTINUOUS
370
50
 62
4
100
AcDbLine
 10
92.123764
 20
-2.723161
 30
0.0
 11
91.74183699999999
 21
-2.416718
 31
0.0
  0
LINE
  5
5CD
330
1F
100
AcDbEntity
  8
1
  6
CONTINUOUS
370
50
 62
4
100
AcDbLine
 10
85.8013
 20
2.501444
 30
0.0
 11
85.370316
 21
2.846651
 31
0.0
  0
LINE
  5
5CE
330
1F
100
AcDbEntity
  8
1
  6
CONTINUOUS
370
50
 62
4
100
AcDbLine
 10
73.129959
 20
-3.905015
 30
0.0
 11
72.833412
 21
-3.667557
 31
0.0
  0
LINE
  5
5CF
330
1F
100
AcDbEntity
  8
1
  6
CONTINUOUS
370
50
 62
4
100
AcDbLine
 10
105.326309
 20
-2.889972
 30
0.0
 11
104.850494
 21
-2.509836
 31
0.0
  0
LINE
  5
5D0
330
1F
100
AcDbEntity
  8
1
  6
CONTINUOUS
370
50
 62
4
100
AcDbLine
 10
98.628952
 20
2.634538
 30
0.0
 11
98.201546
 21
2.974498
 31
0.0
  0
LINE
  5
5D1
330
1F
100
AcDbEntity
  8
1
  6
CONTINUOUS
370
50
 62
4
100
AcDbLine
 10
92.505219
 20
-3.026366
 30
0.0
 11
92.123764
 21
-2.723161
 31
0.0
  0
LINE
  5
5D2
330
1F
100
AcDbEntity
  8
1
  6
CONTINUOUS
370
50
 62
4
100
AcDbLine
 10
119.230972
 20
2.733637
 30
0.0
 11
118.747681
 21
3.116216
 31
0.0
  0
LINE
  5
5D3
330
1F
100
AcDbEntity
  8
1
  6
CONTINUOUS
370
50
 62
4
100
AcDbLine
 10
85.370316
 20
2.846651
 30
0.0
 11
84.938271
 21
3.187387
 31
0.0
  0
LINE
  5
5D4
330
1F
100
AcDbEntity
  8
1
  6
CONTINUOUS
370
50
 62
4
100
AcDbLine
 10
105.801979
 20
-3.26438
 30
0.0
 11
105.326309
 21
-2.889972
 31
0.0
  0
LINE
  5
5D5
330
1F
100
AcDbEntity
  8
1
  6
CONTINUOUS
370
50
 62
4
100
AcDbLine
 10
98.201546
 20
2.974498
 30
0.0
 11
97.774521
 21
3.310107
 31
0.0
  0
LINE
  5
5D6
330
1F
100
AcDbEntity
  8
1
  6
CONTINUOUS
370
50
 62
4
100
AcDbLine
 10
92.886528
 20
-3.325894
 30
0.0
 11
92.505219
 21
-3.026366
 31
0.0
  0
LINE
  5
5D7
330
1F
100
AcDbEntity
  8
1
  6
CONTINUOUS
370
50
 62
4
100
AcDbLine
 10
68.38879399999999
 20
-7.414542
 30
0.0
 11
68.159958
 21
-7.236148999999999
 31
0.0
  0
LINE
  5
5D8
330
1F
100
AcDbEntity
  8
1
  6
CONTINUOUS
370
50
 62
4
100
AcDbLine
 10
118.747681
 20
3.116216
 30
0.0
 11
118.26461
 21
3.492683
 31
0.0
  0
LINE
  5
5D9
330
1F
100
AcDbEntity
  8
1
  6
CONTINUOUS
370
50
 62
4
100
AcDbLine
 10
84.938271
 20
3.187387
 30
0.0
 11
84.505951
 21
3.523304
 31
0.0
  0
LINE
  5
5DA
330
1F
100
AcDbEntity
  8
1
  6
CONTINUOUS
370
50
 62
4
100
AcDbLine
 10
122.854698
 20
-0.260107
 30
0.0
 11
122.749382
 21
-0.178465
 31
0.0
  0
LINE
  5
5DB
330
1F
100
AcDbEntity
  8
1
  6
CONTINUOUS
370
50
 62
4
100
AcDbLine
 10
106.276413
 20
-3.632096
 30
0.0
 11
105.801979
 21
-3.26438
 31
0.0
  0
LINE
  5
5DC
330
1F
100
AcDbEntity
  8
1
  6
CONTINUOUS
370
50
 62
4
100
AcDbLine
 10
93.267586
 20
-3.620991
 30
0.0
 11
92.886528
 21
-3.325894
 31
0.0
  0
LINE
  5
5DD
330
1F
100
AcDbEntity
  8
1
  6
CONTINUOUS
370
50
 62
4
100
AcDbLine
 10
97.774521
 20
3.310107
 30
0.0
 11
97.347763
 21
3.640545
 31
0.0
  0
LINE
  5
5DE
330
1F
100
AcDbEntity
  8
1
  6
CONTINUOUS
370
50
 62
4
100
AcDbLine
 10
72.833412
 20
-3.667557
 30
0.0
 11
72.535675
 21
-3.438535
 31
0.0
  0
LINE
  5
5DF
330
1F
100
AcDbEntity
  8
1
  6
CONTINUOUS
370
50
 62
4
100
AcDbLine
 10
118.26461
 20
3.492683
 30
0.0
 11
117.782692
 21
3.861875
 31
0.0
  0
LINE
  5
5E0
330
1F
100
AcDbEntity
  8
1
  6
CONTINUOUS
370
50
 62
4
100
AcDbLine
 10
84.505951
 20
3.523304
 30
0.0
 11
84.07476799999999
 21
3.853295
 31
0.0
  0
LINE
  5
5E1
330
1F
100
AcDbEntity
  8
1
  6
CONTINUOUS
370
50
 62
4
100
AcDbLine
 10
93.648766
 20
-3.911316
 30
0.0
 11
93.267586
 21
-3.620991
 31
0.0
  0
LINE
  5
5E2
330
1F
100
AcDbEntity
  8
1
  6
CONTINUOUS
370
50
 62
4
100
AcDbLine
 10
97.347763
 20
3.640545
 30
0.0
 11
96.921257
 21
3.964956
 31
0.0
  0
LINE
  5
5E3
330
1F
100
AcDbEntity
  8
1
  6
CONTINUOUS
370
50
 62
4
100
AcDbLine
 10
106.750488
 20
-3.9926
 30
0.0
 11
106.276413
 21
-3.632096
 31
0.0
  0
LINE
  5
5E4
330
1F
100
AcDbEntity
  8
1
  6
CONTINUOUS
370
50
 62
4
100
AcDbLine
 10
84.07476799999999
 20
3.853295
 30
0.0
 11
83.64402799999999
 21
4.176959
 31
0.0
  0
LINE
  5
5E5
330
1F
100
AcDbEntity
  8
1
  6
CONTINUOUS
370
50
 62
4
100
AcDbLine
 10
117.782692
 20
3.861875
 30
0.0
 11
117.301086
 21
4.223106
 31
0.0
  0
LINE
  5
5E6
330
1F
100
AcDbEntity
  8
1
  6
CONTINUOUS
370
50
 62
4
100
AcDbLine
 10
94.030243
 20
-4.196395
 30
0.0
 11
93.648766
 21
-3.911316
 31
0.0
  0
LINE
  5
5E7
330
1F
100
AcDbEntity
  8
1
  6
CONTINUOUS
370
50
 62
4
100
AcDbLine
 10
96.921257
 20
3.964956
 30
0.0
 11
96.49439199999999
 21
4.282965
 31
0.0
  0
LINE
  5
5E8
330
1F
100
AcDbEntity
  8
1
  6
CONTINUOUS
370
50
 62
4
100
AcDbLine
 10
107.225082
 20
-4.345377
 30
0.0
 11
106.750488
 21
-3.9926
 31
0.0
  0
LINE
  5
5E9
330
1F
100
AcDbEntity
  8
1
  6
CONTINUOUS
370
50
 62
4
100
AcDbLine
 10
74.142654
 20
-4.805298
 30
0.0
 11
73.721199
 21
-4.492074
 31
0.0
  0
LINE
  5
5EA
330
1F
100
AcDbEntity
  8
1
  6
CONTINUOUS
370
50
 62
4
100
AcDbLine
 10
122.724571
 20
8.998337
 30
0.0
 11
122.72332
 21
8.999262
 31
0.0
  0
LINE
  5
5EB
330
1F
100
AcDbEntity
  8
1
  6
CONTINUOUS
370
50
 62
4
100
AcDbLine
 10
83.64402799999999
 20
4.176959
 30
0.0
 11
83.212997
 21
4.493914999999999
 31
0.0
  0
LINE
  5
5EC
330
1F
100
AcDbEntity
  8
1
  6
CONTINUOUS
370
50
 62
4
100
AcDbLine
 10
72.535675
 20
-3.438535
 30
0.0
 11
72.236313
 21
-3.218804
 31
0.0
  0
LINE
  5
5ED
330
1F
100
AcDbEntity
  8
1
  6
CONTINUOUS
370
50
 62
4
100
AcDbLine
 10
94.409523
 20
-4.474669
 30
0.0
 11
94.030243
 21
-4.196395
 31
0.0
  0
LINE
  5
5EE
330
1F
100
AcDbEntity
  8
1
  6
CONTINUOUS
370
50
 62
4
100
AcDbLine
 10
117.301086
 20
4.223106
 30
0.0
 11
116.818779
 21
4.575820999999999
 31
0.0
  0
LINE
  5
5EF
330
1F
100
AcDbEntity
  8
1
  6
CONTINUOUS
370
50
 62
4
100
AcDbLine
 10
68.619858
 20
-7.583504
 30
0.0
 11
68.38879399999999
 21
-7.414542
 31
0.0
  0
LINE
  5
5F0
330
1F
100
AcDbEntity
  8
1
  6
CONTINUOUS
370
50
 62
4
100
AcDbLine
 10
96.49439199999999
 20
4.282965
 30
0.0
 11
96.067009
 21
4.59411
 31
0.0
  0
LINE
  5
5F1
330
1F
100
AcDbEntity
  8
1
  6
CONTINUOUS
370
50
 62
4
100
AcDbLine
 10
107.701332
 20
-4.690161
 30
0.0
 11
107.225082
 21
-4.345377
 31
0.0
  0
LINE
  5
5F2
330
1F
100
AcDbEntity
  8
1
  6
CONTINUOUS
370
50
 62
4
100
AcDbLine
 10
94.787971
 20
-4.747282
 30
0.0
 11
94.409523
 21
-4.474669
 31
0.0
  0
LINE
  5
5F3
330
1F
100
AcDbEntity
  8
1
  6
CONTINUOUS
370
50
 62
4
100
AcDbLine
 10
83.212997
 20
4.493914999999999
 30
0.0
 11
82.78096
 21
4.803781
 31
0.0
  0
LINE
  5
5F4
330
1F
100
AcDbEntity
  8
1
  6
CONTINUOUS
370
50
 62
4
100
AcDbLine
 10
96.067009
 20
4.59411
 30
0.0
 11
95.64046499999999
 21
4.897885
 31
0.0
  0
LINE
  5
5F5
330
1F
100
AcDbEntity
  8
1
  6
CONTINUOUS
370
50
 62
4
100
AcDbLine
 10
116.818779
 20
4.575820999999999
 30
0.0
 11
116.335419
 21
4.919436999999999
 31
0.0
  0
LINE
  5
5F6
330
1F
100
AcDbEntity
  8
1
  6
CONTINUOUS
370
50
 62
4
100
AcDbLine
 10
74.5681
 20
-5.107022
 30
0.0
 11
74.142654
 21
-4.805298
 31
0.0
  0
LINE
  5
5F7
330
1F
100
AcDbEntity
  8
1
  6
CONTINUOUS
370
50
 62
4
100
AcDbLine
 10
108.178352
 20
-5.026649
 30
0.0
 11
107.701332
 21
-4.690161
 31
0.0
  0
LINE
  5
5F8
330
1F
100
AcDbEntity
  8
1
  6
CONTINUOUS
370
50
 62
4
100
AcDbLine
 10
95.166077
 20
-5.013983
 30
0.0
 11
94.787971
 21
-4.747282
 31
0.0
  0
LINE
  5
5F9
330
1F
100
AcDbEntity
  8
1
  6
CONTINUOUS
370
50
 62
4
100
AcDbLine
 10
82.78096
 20
4.803781
 30
0.0
 11
82.347893
 21
5.106344
 31
0.0
  0
LINE
  5
5FA
330
1F
100
AcDbEntity
  8
1
  6
CONTINUOUS
370
50
 62
4
100
AcDbLine
 10
72.236313
 20
-3.218804
 30
0.0
 11
71.934883
 21
-3.009216
 31
0.0
  0
LINE
  5
5FB
330
1F
100
AcDbEntity
  8
1
  6
CONTINUOUS
370
50
 62
4
100
AcDbLine
 10
95.64046499999999
 20
4.897885
 30
0.0
 11
95.214569
 21
5.193853
 31
0.0
  0
LINE
  5
5FC
330
1F
100
AcDbEntity
  8
1
  6
CONTINUOUS
370
50
 62
4
100
AcDbLine
 10
116.335419
 20
4.919436999999999
 30
0.0
 11
115.853218
 21
5.253012
 31
0.0
  0
LINE
  5
5FD
330
1F
100
AcDbEntity
  8
1
  6
CONTINUOUS
370
50
 62
4
100
AcDbLine
 10
122.961235
 20
-0.333797
 30
0.0
 11
122.854698
 21
-0.260107
 31
0.0
  0
LINE
  5
5FE
330
1F
100
AcDbEntity
  8
1
  6
CONTINUOUS
370
50
 62
4
100
AcDbLine
 10
95.54433399999999
 20
-5.274526
 30
0.0
 11
95.166077
 21
-5.013983
 31
0.0
  0
LINE
  5
5FF
330
1F
100
AcDbEntity
  8
1
  6
CONTINUOUS
370
50
 62
4
100
AcDbLine
 10
68.85228
 20
-7.742959
 30
0.0
 11
68.619858
 21
-7.583504
 31
0.0
  0
LINE
  5
600
330
1F
100
AcDbEntity
  8
1
  6
CONTINUOUS
370
50
 62
4
100
AcDbLine
 10
108.654472
 20
-5.353083
 30
0.0
 11
108.178352
 21
-5.026649
 31
0.0
  0
LINE
  5
601
330
1F
100
AcDbEntity
  8
1
  6
CONTINUOUS
370
50
 62
4
100
AcDbLine
 10
82.347893
 20
5.106344
 30
0.0
 11
81.915779
 21
5.400577999999999
 31
0.0
  0
LINE
  5
602
330
1F
100
AcDbEntity
  8
1
  6
CONTINUOUS
370
50
 62
4
100
AcDbLine
 10
74.99864199999999
 20
-5.398263
 30
0.0
 11
74.5681
 21
-5.107022
 31
0.0
  0
LINE
  5
603
330
1F
100
AcDbEntity
  8
1
  6
CONTINUOUS
370
50
 62
4
100
AcDbLine
 10
95.214569
 20
5.193853
 30
0.0
 11
94.78867299999999
 21
5.481671
 31
0.0
  0
LINE
  5
604
330
1F
100
AcDbEntity
  8
1
  6
CONTINUOUS
370
50
 62
4
100
AcDbLine
 10
95.923225
 20
-5.528663
 30
0.0
 11
95.54433399999999
 21
-5.274526
 31
0.0
  0
LINE
  5
605
330
1F
100
AcDbEntity
  8
1
  6
CONTINUOUS
370
50
 62
4
100
AcDbLine
 10
115.853218
 20
5.253012
 30
0.0
 11
115.371834
 21
5.575819
 31
0.0
  0
LINE
  5
606
330
1F
100
AcDbEntity
  8
1
  6
CONTINUOUS
370
50
 62
4
100
AcDbLine
 10
109.130569
 20
-5.668994
 30
0.0
 11
108.654472
 21
-5.353083
 31
0.0
  0
LINE
  5
607
330
1F
100
AcDbEntity
  8
1
  6
CONTINUOUS
370
50
 62
4
100
AcDbLine
 10
81.915779
 20
5.400577999999999
 30
0.0
 11
81.48428299999999
 21
5.685925999999999
 31
0.0
  0
LINE
  5
608
330
1F
100
AcDbEntity
  8
1
  6
CONTINUOUS
370
50
 62
4
100
AcDbLine
 10
94.78867299999999
 20
5.481671
 30
0.0
 11
94.362129
 21
5.760994999999999
 31
0.0
  0
LINE
  5
609
330
1F
100
AcDbEntity
  8
1
  6
CONTINUOUS
370
50
 62
4
100
AcDbLine
 10
75.43222
 20
-5.681750999999999
 30
0.0
 11
74.99864199999999
 21
-5.398263
 31
0.0
  0
LINE
  5
60A
330
1F
100
AcDbEntity
  8
1
  6
CONTINUOUS
370
50
 62
4
100
AcDbLine
 10
71.934883
 20
-3.009216
 30
0.0
 11
71.630974
 21
-2.810623
 31
0.0
  0
LINE
  5
60B
330
1F
100
AcDbEntity
  8
1
  6
CONTINUOUS
370
50
 62
4
100
AcDbLine
 10
96.303108
 20
-5.776091
 30
0.0
 11
95.923225
 21
-5.528663
 31
0.0
  0
LINE
  5
60C
330
1F
100
AcDbEntity
  8
1
  6
CONTINUOUS
370
50
 62
4
100
AcDbLine
 10
115.371834
 20
5.575819
 30
0.0
 11
114.890282
 21
5.887389
 31
0.0
  0
LINE
  5
60D
330
1F
100
AcDbEntity
  8
1
  6
CONTINUOUS
370
50
 62
4
100
AcDbLine
 10
69.085724
 20
-7.893109
 30
0.0
 11
68.85228
 21
-7.742959
 31
0.0
  0
LINE
  5
60E
330
1F
100
AcDbEntity
  8
1
  6
CONTINUOUS
370
50
 62
4
100
AcDbLine
 10
81.48428299999999
 20
5.685925999999999
 30
0.0
 11
81.052689
 21
5.962052
 31
0.0
  0
LINE
  5
60F
330
1F
100
AcDbEntity
  8
1
  6
CONTINUOUS
370
50
 62
4
100
AcDbLine
 10
109.607513
 20
-5.973916
 30
0.0
 11
109.130569
 21
-5.668994
 31
0.0
  0
LINE
  5
610
330
1F
100
AcDbEntity
  8
1
  6
CONTINUOUS
370
50
 62
4
100
AcDbLine
 10
75.865646
 20
-5.958041
 30
0.0
 11
75.43222
 21
-5.681750999999999
 31
0.0
  0
LINE
  5
611
330
1F
100
AcDbEntity
  8
1
  6
CONTINUOUS
370
50
 62
4
100
AcDbLine
 10
96.683182
 20
-6.01649
 30
0.0
 11
96.303108
 21
-5.776091
 31
0.0
  0
LINE
  5
612
330
1F
100
AcDbEntity
  8
1
  6
CONTINUOUS
370
50
 62
4
100
AcDbLine
 10
94.362129
 20
5.760994999999999
 30
0.0
 11
93.93457
 21
6.031374
 31
0.0
  0
LINE
  5
613
330
1F
100
AcDbEntity
  8
1
  6
CONTINUOUS
370
50
 62
4
100
AcDbLine
 10
114.890282
 20
5.887389
 30
0.0
 11
114.407539
 21
6.18725
 31
0.0
  0
LINE
  5
614
330
1F
100
AcDbEntity
  8
1
  6
CONTINUOUS
370
50
 62
4
100
AcDbLine
 10
76.297722
 20
-6.224837
 30
0.0
 11
75.865646
 21
-5.958041
 31
0.0
  0
LINE
  5
615
330
1F
100
AcDbEntity
  8
1
  6
CONTINUOUS
370
50
 62
4
100
AcDbLine
 10
81.052689
 20
5.962052
 30
0.0
 11
80.62029299999999
 21
6.228624
 31
0.0
  0
LINE
  5
616
330
1F
100
AcDbEntity
  8
1
  6
CONTINUOUS
370
50
 62
4
100
AcDbLine
 10
97.06257599999999
 20
-6.249397999999999
 30
0.0
 11
96.683182
 21
-6.01649
 31
0.0
  0
LINE
  5
617
330
1F
100
AcDbEntity
  8
1
  6
CONTINUOUS
370
50
 62
4
100
AcDbLine
 10
110.08551
 20
-6.267212
 30
0.0
 11
109.607513
 21
-5.973916
 31
0.0
  0
LINE
  5
618
330
1F
100
AcDbEntity
  8
1
  6
CONTINUOUS
370
50
 62
4
100
AcDbLine
 10
93.93457
 20
6.031374
 30
0.0
 11
93.50705699999999
 21
6.292377
 31
0.0
  0
LINE
  5
619
330
1F
100
AcDbEntity
  8
1
  6
CONTINUOUS
370
50
 62
4
100
AcDbLine
 10
71.630974
 20
-2.810623
 30
0.0
 11
71.32609599999999
 21
-2.625061
 31
0.0
  0
LINE
  5
61A
330
1F
100
AcDbEntity
  8
1
  6
CONTINUOUS
370
50
 62
4
100
AcDbLine
 10
123.068939
 20
-0.399203
 30
0.0
 11
122.961235
 21
-0.333797
 31
0.0
  0
LINE
  5
61B
330
1F
100
AcDbEntity
  8
1
  6
CONTINUOUS
370
50
 62
4
100
AcDbLine
 10
69.320061
 20
-8.034099
 30
0.0
 11
69.085724
 21
-7.893109
 31
0.0
  0
LINE
  5
61C
330
1F
100
AcDbEntity
  8
1
  6
CONTINUOUS
370
50
 62
4
100
AcDbLine
 10
76.72934
 20
-6.481777999999999
 30
0.0
 11
76.297722
 21
-6.224837
 31
0.0
  0
LINE
  5
61D
330
1F
100
AcDbEntity
  8
1
  6
CONTINUOUS
370
50
 62
4
100
AcDbLine
 10
114.407539
 20
6.18725
 30
0.0
 11
113.923546
 21
6.475179
 31
0.0
  0
LINE
  5
61E
330
1F
100
AcDbEntity
  8
1
  6
CONTINUOUS
370
50
 62
4
100
AcDbLine
 10
97.44162
 20
-6.474468
 30
0.0
 11
97.06257599999999
 21
-6.249397999999999
 31
0.0
  0
LINE
  5
61F
330
1F
100
AcDbEntity
  8
1
  6
CONTINUOUS
370
50
 62
4
100
AcDbLine
 10
80.62029299999999
 20
6.228624
 30
0.0
 11
80.18693499999999
 21
6.485272
 31
0.0
  0
LINE
  5
620
330
1F
100
AcDbEntity
  8
1
  6
CONTINUOUS
370
50
 62
4
100
AcDbLine
 10
110.563248
 20
-6.54838
 30
0.0
 11
110.08551
 21
-6.267212
 31
0.0
  0
LINE
  5
621
330
1F
100
AcDbEntity
  8
1
  6
CONTINUOUS
370
50
 62
4
100
AcDbLine
 10
93.50705699999999
 20
6.292377
 30
0.0
 11
93.079872
 21
6.543626
 31
0.0
  0
LINE
  5
622
330
1F
100
AcDbEntity
  8
1
  6
CONTINUOUS
370
50
 62
4
100
AcDbLine
 10
102.0
 20
-9.000499999999999
 30
0.0
 11
101.99913
 21
-9.0
 31
0.0
  0
LINE
  5
623
330
1F
100
AcDbEntity
  8
1
  6
CONTINUOUS
370
50
 62
4
100
AcDbLine
 10
97.820808
 20
-6.69149
 30
0.0
 11
97.44162
 21
-6.474468
 31
0.0
  0
LINE
  5
624
330
1F
100
AcDbEntity
  8
1
  6
CONTINUOUS
370
50
 62
4
100
AcDbLine
 10
77.161369
 20
-6.728521
 30
0.0
 11
76.72934
 21
-6.481777999999999
 31
0.0
  0
LINE
  5
625
330
1F
100
AcDbEntity
  8
1
  6
CONTINUOUS
370
50
 62
4
100
AcDbLine
 10
113.923546
 20
6.475179
 30
0.0
 11
113.440712
 21
6.749943
 31
0.0
  0
LINE
  5
626
330
1F
100
AcDbEntity
  8
1
  6
CONTINUOUS
370
50
 62
4
100
AcDbLine
 10
80.18693499999999
 20
6.485272
 30
0.0
 11
79.75445599999999
 21
6.731367
 31
0.0
  0
LINE
  5
627
330
1F
100
AcDbEntity
  8
1
  6
CONTINUOUS
370
50
 62
4
100
AcDbLine
 10
93.079872
 20
6.543626
 30
0.0
 11
92.65297699999999
 21
6.784433
 31
0.0
  0
LINE
  5
628
330
1F
100
AcDbEntity
  8
1
  6
CONTINUOUS
370
50
 62
4
100
AcDbLine
 10
111.04023
 20
-6.816503
 30
0.0
 11
110.563248
 21
-6.54838
 31
0.0
  0
LINE
  5
629
330
1F
100
AcDbEntity
  8
1
  6
CONTINUOUS
370
50
 62
4
100
AcDbLine
 10
71.32609599999999
 20
-2.625061
 30
0.0
 11
71.022804
 21
-2.454751
 31
0.0
  0
LINE
  5
62A
330
1F
100
AcDbEntity
  8
1
  6
CONTINUOUS
370
50
 62
4
100
AcDbLine
 10
69.55487099999999
 20
-8.165839
 30
0.0
 11
69.320061
 21
-8.034099
 31
0.0
  0
LINE
  5
62B
330
1F
100
AcDbEntity
  8
1
  6
CONTINUOUS
370
50
 62
4
100
AcDbLine
 10
98.20060699999999
 20
-6.900225
 30
0.0
 11
97.820808
 21
-6.69149
 31
0.0
  0
LINE
  5
62C
330
1F
100
AcDbEntity
  8
1
  6
CONTINUOUS
370
50
 62
4
100
AcDbLine
 10
77.594444
 20
-6.964507999999999
 30
0.0
 11
77.161369
 21
-6.728521
 31
0.0
  0
LINE
  5
62D
330
1F
100
AcDbEntity
  8
1
  6
CONTINUOUS
370
50
 62
4
100
AcDbLine
 10
79.75445599999999
 20
6.731367
 30
0.0
 11
79.322578
 21
6.966482
 31
0.0
  0
LINE
  5
62E
330
1F
100
AcDbEntity
  8
1
  6
CONTINUOUS
370
50
 62
4
100
AcDbLine
 10
113.440712
 20
6.749943
 30
0.0
 11
112.958466
 21
7.010904
 31
0.0
  0
LINE
  5
62F
330
1F
100
AcDbEntity
  8
1
  6
CONTINUOUS
370
50
 62
4
100
AcDbLine
 10
92.65297699999999
 20
6.784433
 30
0.0
 11
92.225983
 21
7.014384
 31
0.0
  0
LINE
  5
630
330
1F
100
AcDbEntity
  8
1
  6
CONTINUOUS
370
50
 62
4
100
AcDbLine
 10
111.517273
 20
-7.071136999999999
 30
0.0
 11
111.04023
 21
-6.816503
 31
0.0
  0
LINE
  5
631
330
1F
100
AcDbEntity
  8
1
  6
CONTINUOUS
370
50
 62
4
100
AcDbLine
 10
98.58086399999999
 20
-7.100206
 30
0.0
 11
98.20060699999999
 21
-6.900225
 31
0.0
  0
LINE
  5
632
330
1F
100
AcDbEntity
  8
1
  6
CONTINUOUS
370
50
 62
4
100
AcDbLine
 10
123.177773
 20
-0.455991
 30
0.0
 11
123.068939
 21
-0.399203
 31
0.0
  0
LINE
  5
633
330
1F
100
AcDbEntity
  8
1
  6
CONTINUOUS
370
50
 62
4
100
AcDbLine
 10
69.789795
 20
-8.288269
 30
0.0
 11
69.55487099999999
 21
-8.165839
 31
0.0
  0
LINE
  5
634
330
1F
100
AcDbEntity
  8
1
  6
CONTINUOUS
370
50
 62
4
100
AcDbLine
 10
79.322578
 20
6.966482
 30
0.0
 11
78.890549
 21
7.190337
 31
0.0
  0
LINE
  5
635
330
1F
100
AcDbEntity
  8
1
  6
CONTINUOUS
370
50
 62
4
100
AcDbLine
 10
78.02810699999999
 20
-7.188928
 30
0.0
 11
77.594444
 21
-6.964507999999999
 31
0.0
  0
LINE
  5
636
330
1F
100
AcDbEntity
  8
1
  6
CONTINUOUS
370
50
 62
4
100
AcDbLine
 10
71.022804
 20
-2.454751
 30
0.0
 11
70.721107
 21
-2.300108
 31
0.0
  0
LINE
  5
637
330
1F
100
AcDbEntity
  8
1
  6
CONTINUOUS
370
50
 62
4
100
AcDbLine
 10
92.225983
 20
7.014384
 30
0.0
 11
91.79834699999999
 21
7.233193
 31
0.0
  0
LINE
  5
638
330
1F
100
AcDbEntity
  8
1
  6
CONTINUOUS
370
50
 62
4
100
AcDbLine
 10
112.958466
 20
7.010904
 30
0.0
 11
112.4758
 21
7.257682
 31
0.0
  0
LINE
  5
639
330
1F
100
AcDbEntity
  8
1
  6
CONTINUOUS
370
50
 62
4
100
AcDbLine
 10
111.995186
 20
-7.311825
 30
0.0
 11
111.517273
 21
-7.071136999999999
 31
0.0
  0
LINE
  5
63A
330
1F
100
AcDbEntity
  8
1
  6
CONTINUOUS
370
50
 62
4
100
AcDbLine
 10
98.960899
 20
-7.29132
 30
0.0
 11
98.58086399999999
 21
-7.100206
 31
0.0
  0
LINE
  5
63B
330
1F
100
AcDbEntity
  8
1
  6
CONTINUOUS
370
50
 62
4
100
AcDbLine
 10
78.890549
 20
7.190337
 30
0.0
 11
78.457619
 21
7.402646
 31
0.0
  0
LINE
  5
63C
330
1F
100
AcDbEntity
  8
1
  6
CONTINUOUS
370
50
 62
4
100
AcDbLine
 10
78.461914
 20
-7.401529
 30
0.0
 11
78.02810699999999
 21
-7.188928
 31
0.0
  0
LINE
  5
63D
330
1F
100
AcDbEntity
  8
1
  6
CONTINUOUS
370
50
 62
4
100
AcDbLine
 10
91.79834699999999
 20
7.233193
 30
0.0
 11
91.370483
 21
7.440588
 31
0.0
  0
LINE
  5
63E
330
1F
100
AcDbEntity
  8
1
  6
CONTINUOUS
370
50
 62
4
100
AcDbLine
 10
70.02475
 20
-8.401365
 30
0.0
 11
69.789795
 21
-8.288269
 31
0.0
  0
LINE
  5
63F
330
1F
100
AcDbEntity
  8
1
  6
CONTINUOUS
370
50
 62
4
100
AcDbLine
 10
112.4758
 20
7.257682
 30
0.0
 11
111.991577
 21
7.489987999999999
 31
0.0
  0
LINE
  5
640
330
1F
100
AcDbEntity
  8
1
  6
CONTINUOUS
370
50
 62
4
100
AcDbLine
 10
99.340508
 20
-7.47343
 30
0.0
 11
98.960899
 21
-7.29132
 31
0.0
  0
LINE
  5
641
330
1F
100
AcDbEntity
  8
1
  6
CONTINUOUS
370
50
 62
4
100
AcDbLine
 10
112.473343
 20
-7.537954
 30
0.0
 11
111.995186
 21
-7.311825
 31
0.0
  0
LINE
  5
642
330
1F
100
AcDbEntity
  8
1
  6
CONTINUOUS
370
50
 62
4
100
AcDbLine
 10
78.895439
 20
-7.602084
 30
0.0
 11
78.461914
 21
-7.401529
 31
0.0
  0
LINE
  5
643
330
1F
100
AcDbEntity
  8
1
  6
CONTINUOUS
370
50
 62
4
100
AcDbLine
 10
70.721107
 20
-2.300108
 30
0.0
 11
70.421005
 21
-2.161539
 31
0.0
  0
LINE
  5
644
330
1F
100
AcDbEntity
  8
1
  6
CONTINUOUS
370
50
 62
4
100
AcDbLine
 10
78.457619
 20
7.402646
 30
0.0
 11
78.023994
 21
7.602804
 31
0.0
  0
LINE
  5
645
330
1F
100
AcDbEntity
  8
1
  6
CONTINUOUS
370
50
 62
4
100
AcDbLine
 10
91.370483
 20
7.440588
 30
0.0
 11
90.943359
 21
7.636221
 31
0.0
  0
LINE
  5
646
330
1F
100
AcDbEntity
  8
1
  6
CONTINUOUS
370
50
 62
4
100
AcDbLine
 10
99.719994
 20
-7.646254
 30
0.0
 11
99.340508
 21
-7.47343
 31
0.0
  0
LINE
  5
647
330
1F
100
AcDbEntity
  8
1
  6
CONTINUOUS
370
50
 62
4
100
AcDbLine
 10
111.991577
 20
7.489987999999999
 30
0.0
 11
111.506439
 21
7.707707999999999
 31
0.0
  0
LINE
  5
648
330
1F
100
AcDbEntity
  8
1
  6
CONTINUOUS
370
50
 62
4
100
AcDbLine
 10
122.72332
 20
8.999262
 30
0.0
 11
122.722076
 21
8.999813
 31
0.0
  0
LINE
  5
649
330
1F
100
AcDbEntity
  8
1
  6
CONTINUOUS
370
50
 62
4
100
AcDbLine
 10
112.950745
 20
-7.749226999999999
 30
0.0
 11
112.473343
 21
-7.537954
 31
0.0
  0
LINE
  5
64A
330
1F
100
AcDbEntity
  8
1
  6
CONTINUOUS
370
50
 62
4
100
AcDbLine
 10
70.25959
 20
-8.505025999999999
 30
0.0
 11
70.02475
 21
-8.401365
 31
0.0
  0
LINE
  5
64B
330
1F
100
AcDbEntity
  8
1
  6
CONTINUOUS
370
50
 62
4
100
AcDbLine
 10
123.287697
 20
-0.503827
 30
0.0
 11
123.177773
 21
-0.455991
 31
0.0
  0
LINE
  5
64C
330
1F
100
AcDbEntity
  8
1
  6
CONTINUOUS
370
50
 62
4
100
AcDbLine
 10
79.3284
 20
-7.790299
 30
0.0
 11
78.895439
 21
-7.602084
 31
0.0
  0
LINE
  5
64D
330
1F
100
AcDbEntity
  8
1
  6
CONTINUOUS
370
50
 62
4
100
AcDbLine
 10
78.023994
 20
7.602804
 30
0.0
 11
77.59124
 21
7.790638
 31
0.0
  0
LINE
  5
64E
330
1F
100
AcDbEntity
  8
1
  6
CONTINUOUS
370
50
 62
4
100
AcDbLine
 10
100.099358
 20
-7.809405
 30
0.0
 11
99.719994
 21
-7.646254
 31
0.0
  0
LINE
  5
64F
330
1F
100
AcDbEntity
  8
1
  6
CONTINUOUS
370
50
 62
4
100
AcDbLine
 10
90.943359
 20
7.636221
 30
0.0
 11
90.516678
 21
7.819705
 31
0.0
  0
LINE
  5
650
330
1F
100
AcDbEntity
  8
1
  6
CONTINUOUS
370
50
 62
4
100
AcDbLine
 10
111.506439
 20
7.707707999999999
 30
0.0
 11
111.02179
 21
7.909851
 31
0.0
  0
LINE
  5
651
330
1F
100
AcDbEntity
  8
1
  6
CONTINUOUS
370
50
 62
4
100
AcDbLine
 10
113.428009
 20
-7.945265
 30
0.0
 11
112.950745
 21
-7.749226999999999
 31
0.0
  0
LINE
  5
652
330
1F
100
AcDbEntity
  8
1
  6
CONTINUOUS
370
50
 62
4
100
AcDbLine
 10
70.421005
 20
-2.161539
 30
0.0
 11
70.12249
 21
-2.039448
 31
0.0
  0
LINE
  5
653
330
1F
100
AcDbEntity
  8
1
  6
CONTINUOUS
370
50
 62
4
100
AcDbLine
 10
77.59124
 20
7.790638
 30
0.0
 11
77.16004199999999
 21
7.965659
 31
0.0
  0
LINE
  5
654
330
1F
100
AcDbEntity
  8
1
  6
CONTINUOUS
370
50
 62
4
100
AcDbLine
 10
79.761246
 20
-7.965828999999999
 30
0.0
 11
79.3284
 21
-7.790299
 31
0.0
  0
LINE
  5
655
330
1F
100
AcDbEntity
  8
1
  6
CONTINUOUS
370
50
 62
4
100
AcDbLine
 10
100.479027
 20
-7.96273
 30
0.0
 11
100.099358
 21
-7.809405
 31
0.0
  0
LINE
  5
656
330
1F
100
AcDbEntity
  8
1
  6
CONTINUOUS
370
50
 62
4
100
AcDbLine
 10
70.494171
 20
-8.599141999999999
 30
0.0
 11
70.25959
 21
-8.505025999999999
 31
0.0
  0
LINE
  5
657
330
1F
100
AcDbEntity
  8
1
  6
CONTINUOUS
370
50
 62
4
100
AcDbLine
 10
90.516678
 20
7.819705
 30
0.0
 11
90.08979
 21
7.990825
 31
0.0
  0
LINE
  5
658
330
1F
100
AcDbEntity
  8
1
  6
CONTINUOUS
370
50
 62
4
100
AcDbLine
 10
111.02179
 20
7.909851
 30
0.0
 11
110.53685
 21
8.096001
 31
0.0
  0
LINE
  5
659
330
1F
100
AcDbEntity
  8
1
  6
CONTINUOUS
370
50
 62
4
100
AcDbLine
 10
113.905472
 20
-8.125551999999999
 30
0.0
 11
113.428009
 21
-7.945265
 31
0.0
  0
LINE
  5
65A
330
1F
100
AcDbEntity
  8
1
  6
CONTINUOUS
370
50
 62
4
100
AcDbLine
 10
100.859299
 20
-8.106081999999999
 30
0.0
 11
100.479027
 21
-7.96273
 31
0.0
  0
LINE
  5
65B
330
1F
100
AcDbEntity
  8
1
  6
CONTINUOUS
370
50
 62
4
100
AcDbLine
 10
77.16004199999999
 20
7.965659
 30
0.0
 11
76.72963
 21
8.127673999999999
 31
0.0
  0
LINE
  5
65C
330
1F
100
AcDbEntity
  8
1
  6
CONTINUOUS
370
50
 62
4
100
AcDbLine
 10
80.194473
 20
-8.128362
 30
0.0
 11
79.761246
 21
-7.965828999999999
 31
0.0
  0
LINE
  5
65D
330
1F
100
AcDbEntity
  8
1
  6
CONTINUOUS
370
50
 62
4
100
AcDbLine
 10
90.08979
 20
7.990825
 30
0.0
 11
89.662132
 21
8.149341999999999
 31
0.0
  0
LINE
  5
65E
330
1F
100
AcDbEntity
  8
1
  6
CONTINUOUS
370
50
 62
4
100
AcDbLine
 10
128.0
 20
0.0
 30
0.0
 11
127.222389
 21
0.287911
 31
0.0
  0
LINE
  5
65F
330
1F
100
AcDbEntity
  8
1
  6
CONTINUOUS
370
50
 62
4
100
AcDbLine
 10
70.72824899999999
 20
-8.683546999999999
 30
0.0
 11
70.494171
 21
-8.599141999999999
 31
0.0
  0
LINE
  5
660
330
1F
100
AcDbEntity
  8
1
  6
CONTINUOUS
370
50
 62
4
100
AcDbLine
 10
128.0
 20
0.0
 30
0.0
 11
127.198891
 21
0.287325
 31
0.0
  0
LINE
  5
661
330
1F
100
AcDbEntity
  8
1
  6
CONTINUOUS
370
50
 62
4
100
AcDbLine
 10
70.12249
 20
-2.039448
 30
0.0
 11
69.825546
 21
-1.93424
 31
0.0
  0
LINE
  5
662
330
1F
100
AcDbEntity
  8
1
  6
CONTINUOUS
370
50
 62
4
100
AcDbLine
 10
101.239616
 20
-8.239354
 30
0.0
 11
100.859299
 21
-8.106081999999999
 31
0.0
  0
LINE
  5
663
330
1F
100
AcDbEntity
  8
1
  6
CONTINUOUS
370
50
 62
4
100
AcDbLine
 10
110.53685
 20
8.096001
 30
0.0
 11
110.051521
 21
8.265495999999999
 31
0.0
  0
LINE
  5
664
330
1F
100
AcDbEntity
  8
1
  6
CONTINUOUS
370
50
 62
4
100
AcDbLine
 10
123.398659
 20
-0.54238
 30
0.0
 11
123.287697
 21
-0.503827
 31
0.0
  0
LINE
  5
665
330
1F
100
AcDbEntity
  8
1
  6
CONTINUOUS
370
50
 62
4
100
AcDbLine
 10
76.72963
 20
8.127673999999999
 30
0.0
 11
76.299171
 21
8.27651
 31
0.0
  0
LINE
  5
666
330
1F
100
AcDbEntity
  8
1
  6
CONTINUOUS
370
50
 62
4
100
AcDbLine
 10
80.62792999999999
 20
-8.277598
 30
0.0
 11
80.194473
 21
-8.128362
 31
0.0
  0
LINE
  5
667
330
1F
100
AcDbEntity
  8
1
  6
CONTINUOUS
370
50
 62
4
100
AcDbLine
 10
114.383415
 20
-8.289586
 30
0.0
 11
113.905472
 21
-8.125551999999999
 31
0.0
  0
LINE
  5
668
330
1F
100
AcDbEntity
  8
1
  6
CONTINUOUS
370
50
 62
4
100
AcDbLine
 10
89.662132
 20
8.149341999999999
 30
0.0
 11
89.234032
 21
8.294929
 31
0.0
  0
LINE
  5
669
330
1F
100
AcDbEntity
  8
1
  6
CONTINUOUS
370
50
 62
4
100
AcDbLine
 10
101.619438
 20
-8.362390999999999
 30
0.0
 11
101.239616
 21
-8.239354
 31
0.0
  0
LINE
  5
66A
330
1F
100
AcDbEntity
  8
1
  6
CONTINUOUS
370
50
 62
4
100
AcDbLine
 10
70.961929
 20
-8.758148
 30
0.0
 11
70.72824899999999
 21
-8.683546999999999
 31
0.0
  0
LINE
  5
66B
330
1F
100
AcDbEntity
  8
1
  6
CONTINUOUS
370
50
 62
4
100
AcDbLine
 10
76.299171
 20
8.27651
 30
0.0
 11
75.867851
 21
8.411997
 31
0.0
  0
LINE
  5
66C
330
1F
100
AcDbEntity
  8
1
  6
CONTINUOUS
370
50
 62
4
100
AcDbLine
 10
110.051521
 20
8.265495999999999
 30
0.0
 11
109.565544
 21
8.418061
 31
0.0
  0
LINE
  5
66D
330
1F
100
AcDbEntity
  8
1
  6
CONTINUOUS
370
50
 62
4
100
AcDbLine
 10
81.061348
 20
-8.413373
 30
0.0
 11
80.62792999999999
 21
-8.277598
 31
0.0
  0
LINE
  5
66E
330
1F
100
AcDbEntity
  8
1
  6
CONTINUOUS
370
50
 62
4
100
AcDbLine
 10
89.234032
 20
8.294929
 30
0.0
 11
88.806427
 21
8.427423
 31
0.0
  0
LINE
  5
66F
330
1F
100
AcDbEntity
  8
1
  6
CONTINUOUS
370
50
 62
4
100
AcDbLine
 10
114.86084
 20
-8.437106
 30
0.0
 11
114.383415
 21
-8.289586
 31
0.0
  0
LINE
  5
670
330
1F
100
AcDbEntity
  8
1
  6
CONTINUOUS
370
50
 62
4
100
AcDbLine
 10
122.79921
 20
8.344434999999999
 30
0.0
 11
122.424438
 21
8.457182
 31
0.0
  0
LINE
  5
671
330
1F
100
AcDbEntity
  8
1
  6
CONTINUOUS
370
50
 62
4
100
AcDbLine
 10
69.825546
 20
-1.93424
 30
0.0
 11
69.531403
 21
-1.846665
 31
0.0
  0
LINE
  5
672
330
1F
100
AcDbEntity
  8
1
  6
CONTINUOUS
370
50
 62
4
100
AcDbLine
 10
101.99913
 20
-8.474985
 30
0.0
 11
101.619438
 21
-8.362390999999999
 31
0.0
  0
LINE
  5
673
330
1F
100
AcDbEntity
  8
1
  6
CONTINUOUS
370
50
 62
4
100
AcDbLine
 10
81.494453
 20
-8.535514
 30
0.0
 11
81.061348
 21
-8.413373
 31
0.0
  0
LINE
  5
674
330
1F
100
AcDbEntity
  8
1
  6
CONTINUOUS
370
50
 62
4
100
AcDbLine
 10
75.867851
 20
8.411997
 30
0.0
 11
75.435341
 21
8.533764
 31
0.0
  0
LINE
  5
675
330
1F
100
AcDbEntity
  8
1
  6
CONTINUOUS
370
50
 62
4
100
AcDbLine
 10
109.565544
 20
8.418061
 30
0.0
 11
109.079948
 21
8.553502
 31
0.0
  0
LINE
  5
676
330
1F
100
AcDbEntity
  8
1
  6
CONTINUOUS
370
50
 62
4
100
AcDbLine
 10
88.806427
 20
8.427423
 30
0.0
 11
88.37941
 21
8.546517999999999
 31
0.0
  0
LINE
  5
677
330
1F
100
AcDbEntity
  8
1
  6
CONTINUOUS
370
50
 62
4
100
AcDbLine
 10
71.195419
 20
-8.822878
 30
0.0
 11
70.961929
 21
-8.758148
 31
0.0
  0
LINE
  5
678
330
1F
100
AcDbEntity
  8
1
  6
CONTINUOUS
370
50
 62
4
100
AcDbLine
 10
115.337646
 20
-8.568019999999999
 30
0.0
 11
114.86084
 21
-8.437106
 31
0.0
  0
LINE
  5
679
330
1F
100
AcDbEntity
  8
1
  6
CONTINUOUS
370
50
 62
4
100
AcDbLine
 10
122.424438
 20
8.457182
 30
0.0
 11
122.04995
 21
8.559552
 31
0.0
  0
LINE
  5
67A
330
1F
100
AcDbEntity
  8
1
  6
CONTINUOUS
370
50
 62
4
100
AcDbLine
 10
102.334488
 20
-8.566623
 30
0.0
 11
102.0
 21
-8.476298
 31
0.0
  0
LINE
  5
67B
330
1F
100
AcDbEntity
  8
1
  6
CONTINUOUS
370
50
 62
4
100
AcDbLine
 10
123.510628
 20
-0.571314
 30
0.0
 11
123.398659
 21
-0.54238
 31
0.0
  0
LINE
  5
67C
330
1F
100
AcDbEntity
  8
1
  6
CONTINUOUS
370
50
 62
4
100
AcDbLine
 10
81.927238
 20
-8.643737999999999
 30
0.0
 11
81.494453
 21
-8.535514
 31
0.0
  0
LINE
  5
67D
330
1F
100
AcDbEntity
  8
1
  6
CONTINUOUS
370
50
 62
4
100
AcDbLine
 10
75.435341
 20
8.533764
 30
0.0
 11
75.002319
 21
8.641176999999999
 31
0.0
  0
LINE
  5
67E
330
1F
100
AcDbEntity
  8
1
  6
CONTINUOUS
370
50
 62
4
100
AcDbLine
 10
88.37941
 20
8.546517999999999
 30
0.0
 11
87.952362
 21
8.652064
 31
0.0
  0
LINE
  5
67F
330
1F
100
AcDbEntity
  8
1
  6
CONTINUOUS
370
50
 62
4
100
AcDbLine
 10
122.04995
 20
8.559552
 30
0.0
 11
121.675316
 21
8.651465
 31
0.0
  0
LINE
  5
680
330
1F
100
AcDbEntity
  8
1
  6
CONTINUOUS
370
50
 62
4
100
AcDbLine
 10
102.669083
 20
-8.648557
 30
0.0
 11
102.334488
 21
-8.566623
 31
0.0
  0
LINE
  5
681
330
1F
100
AcDbEntity
  8
1
  6
CONTINUOUS
370
50
 62
4
100
AcDbLine
 10
109.079948
 20
8.553502
 30
0.0
 11
108.595009
 21
8.671475
 31
0.0
  0
LINE
  5
682
330
1F
100
AcDbEntity
  8
1
  6
CONTINUOUS
370
50
 62
4
100
AcDbLine
 10
69.531403
 20
-1.846665
 30
0.0
 11
69.257614
 21
-1.780706
 31
0.0
  0
LINE
  5
683
330
1F
100
AcDbEntity
  8
1
  6
CONTINUOUS
370
50
 62
4
100
AcDbLine
 10
115.814636
 20
-8.68208
 30
0.0
 11
115.337646
 21
-8.568019999999999
 31
0.0
  0
LINE
  5
684
330
1F
100
AcDbEntity
  8
1
  6
CONTINUOUS
370
50
 62
4
100
AcDbLine
 10
71.42892499999999
 20
-8.877666999999999
 30
0.0
 11
71.195419
 21
-8.822878
 31
0.0
  0
LINE
  5
685
330
1F
100
AcDbEntity
  8
1
  6
CONTINUOUS
370
50
 62
4
100
AcDbLine
 10
103.004089
 20
-8.722068
 30
0.0
 11
102.669083
 21
-8.648557
 31
0.0
  0
LINE
  5
686
330
1F
100
AcDbEntity
  8
1
  6
CONTINUOUS
370
50
 62
4
100
AcDbLine
 10
82.360283
 20
-8.737854
 30
0.0
 11
81.927238
 21
-8.643737999999999
 31
0.0
  0
LINE
  5
687
330
1F
100
AcDbEntity
  8
1
  6
CONTINUOUS
370
50
 62
4
100
AcDbLine
 10
121.675316
 20
8.651465
 30
0.0
 11
121.300156
 21
8.732831
 31
0.0
  0
LINE
  5
688
330
1F
100
AcDbEntity
  8
1
  6
CONTINUOUS
370
50
 62
4
100
AcDbLine
 10
75.002319
 20
8.641176999999999
 30
0.0
 11
74.570763
 21
8.734473
 31
0.0
  0
LINE
  5
689
330
1F
100
AcDbEntity
  8
1
  6
CONTINUOUS
370
50
 62
4
100
AcDbLine
 10
87.952362
 20
8.652064
 30
0.0
 11
87.52469599999999
 21
8.743916
 31
0.0
  0
LINE
  5
68A
330
1F
100
AcDbEntity
  8
1
  6
CONTINUOUS
370
50
 62
4
100
AcDbLine
 10
108.595009
 20
8.671475
 30
0.0
 11
108.109779
 21
8.771723
 31
0.0
  0
LINE
  5
68B
330
1F
100
AcDbEntity
  8
1
  6
CONTINUOUS
370
50
 62
4
100
AcDbLine
 10
116.292023
 20
-8.77892
 30
0.0
 11
115.814636
 21
-8.68208
 31
0.0
  0
LINE
  5
68C
330
1F
100
AcDbEntity
  8
1
  6
CONTINUOUS
370
50
 62
4
100
AcDbLine
 10
103.339462
 20
-8.787141
 30
0.0
 11
103.004089
 21
-8.722068
 31
0.0
  0
LINE
  5
68D
330
1F
100
AcDbEntity
  8
1
  6
CONTINUOUS
370
50
 62
4
100
AcDbLine
 10
71.661095
 20
-8.922184
 30
0.0
 11
71.42892499999999
 21
-8.877666999999999
 31
0.0
  0
LINE
  5
68E
330
1F
100
AcDbEntity
  8
1
  6
CONTINUOUS
370
50
 62
4
100
AcDbLine
 10
121.300156
 20
8.732831
 30
0.0
 11
120.924797
 21
8.803502
 31
0.0
  0
LINE
  5
68F
330
1F
100
AcDbEntity
  8
1
  6
CONTINUOUS
370
50
 62
4
100
AcDbLine
 10
74.570763
 20
8.734473
 30
0.0
 11
74.142433
 21
8.815062
 31
0.0
  0
LINE
  5
690
330
1F
100
AcDbEntity
  8
1
  6
CONTINUOUS
370
50
 62
4
100
AcDbLine
 10
69.257614
 20
-1.780706
 30
0.0
 11
68.99185899999999
 21
-1.731725
 31
0.0
  0
LINE
  5
691
330
1F
100
AcDbEntity
  8
1
  6
CONTINUOUS
370
50
 62
4
100
AcDbLine
 10
82.793808
 20
-8.817691
 30
0.0
 11
82.360283
 21
-8.737854
 31
0.0
  0
LINE
  5
692
330
1F
100
AcDbEntity
  8
1
  6
CONTINUOUS
370
50
 62
4
100
AcDbLine
 10
87.52469599999999
 20
8.743916
 30
0.0
 11
87.096611
 21
8.821885
 31
0.0
  0
LINE
  5
693
330
1F
100
AcDbEntity
  8
1
  6
CONTINUOUS
370
50
 62
4
100
AcDbLine
 10
108.109779
 20
8.771723
 30
0.0
 11
107.623878
 21
8.853971
 31
0.0
  0
LINE
  5
694
330
1F
100
AcDbEntity
  8
1
  6
CONTINUOUS
370
50
 62
4
100
AcDbLine
 10
103.674591
 20
-8.843708
 30
0.0
 11
103.339462
 21
-8.787141
 31
0.0
  0
LINE
  5
695
330
1F
100
AcDbEntity
  8
1
  6
CONTINUOUS
370
50
 62
4
100
AcDbLine
 10
123.623535
 20
-0.590289
 30
0.0
 11
123.510628
 21
-0.571314
 31
0.0
  0
LINE
  5
696
330
1F
100
AcDbEntity
  8
1
  6
CONTINUOUS
370
50
 62
4
100
AcDbLine
 10
116.769562
 20
-8.858388
 30
0.0
 11
116.292023
 21
-8.77892
 31
0.0
  0
LINE
  5
697
330
1F
100
AcDbEntity
  8
1
  6
CONTINUOUS
370
50
 62
4
100
AcDbLine
 10
73.7192
 20
8.893975
 30
0.0
 11
73.526207
 21
8.925590999999999
 31
0.0
  0
LINE
  5
698
330
1F
100
AcDbEntity
  8
1
  6
CONTINUOUS
370
50
 62
4
100
AcDbLine
 10
56.200001
 20
9.0
 30
0.0
 11
50.0
 21
10.0
 31
0.0
  0
LINE
  5
699
330
1F
100
AcDbEntity
  8
1
  6
CONTINUOUS
370
50
 62
4
100
AcDbLine
 10
120.924797
 20
8.803502
 30
0.0
 11
120.550095
 21
8.863438
 31
0.0
  0
LINE
  5
69A
330
1F
100
AcDbEntity
  8
1
  6
CONTINUOUS
370
50
 62
4
100
AcDbLine
 10
74.142433
 20
8.815062
 30
0.0
 11
73.7192
 21
8.882171
 31
0.0
  0
LINE
  5
69B
330
1F
100
AcDbEntity
  8
1
  6
CONTINUOUS
370
50
 62
4
100
AcDbLine
 10
122.722076
 20
8.999813
 30
0.0
 11
122.720833
 21
9.000003999999999
 31
0.0
  0
LINE
  5
69C
330
1F
100
AcDbEntity
  8
1
  6
CONTINUOUS
370
50
 62
4
100
AcDbLine
 10
83.22692099999999
 20
-8.883170999999999
 30
0.0
 11
82.793808
 21
-8.817691
 31
0.0
  0
LINE
  5
69D
330
1F
100
AcDbEntity
  8
1
  6
CONTINUOUS
370
50
 62
4
100
AcDbLine
 10
87.096611
 20
8.821885
 30
0.0
 11
86.668495
 21
8.885864
 31
0.0
  0
LINE
  5
69E
330
1F
100
AcDbEntity
  8
1
  6
CONTINUOUS
370
50
 62
4
100
AcDbLine
 10
71.889603
 20
-8.956203
 30
0.0
 11
71.661095
 21
-8.922184
 31
0.0
  0
LINE
  5
69F
330
1F
100
AcDbEntity
  8
1
  6
CONTINUOUS
370
50
 62
4
100
AcDbLine
 10
104.009186
 20
-8.891646
 30
0.0
 11
103.674591
 21
-8.843708
 31
0.0
  0
LINE
  5
6A0
330
1F
100
AcDbEntity
  8
1
  6
CONTINUOUS
370
50
 62
4
100
AcDbLine
 10
73.526207
 20
8.925590999999999
 30
0.0
 11
73.33365599999999
 21
8.952067
 31
0.0
  0
LINE
  5
6A1
330
1F
100
AcDbEntity
  8
1
  6
CONTINUOUS
370
50
 62
4
100
AcDbLine
 10
107.623878
 20
8.853971
 30
0.0
 11
107.138062
 21
8.918104
 31
0.0
  0
LINE
  5
6A2
330
1F
100
AcDbEntity
  8
1
  6
CONTINUOUS
370
50
 62
4
100
AcDbLine
 10
120.550095
 20
8.863438
 30
0.0
 11
120.175987
 21
8.91256
 31
0.0
  0
LINE
  5
6A3
330
1F
100
AcDbEntity
  8
1
  6
CONTINUOUS
370
50
 62
4
100
AcDbLine
 10
117.246986
 20
-8.920368
 30
0.0
 11
116.769562
 21
-8.858388
 31
0.0
  0
LINE
  5
6A4
330
1F
100
AcDbEntity
  8
1
  6
CONTINUOUS
370
50
 62
4
100
AcDbLine
 10
68.99185899999999
 20
-1.731725
 30
0.0
 11
68.73447399999999
 21
-1.699186
 31
0.0
  0
LINE
  5
6A5
330
1F
100
AcDbEntity
  8
1
  6
CONTINUOUS
370
50
 62
4
100
AcDbLine
 10
83.659416
 20
-8.934218999999999
 30
0.0
 11
83.22692099999999
 21
-8.883170999999999
 31
0.0
  0
LINE
  5
6A6
330
1F
100
AcDbEntity
  8
1
  6
CONTINUOUS
370
50
 62
4
100
AcDbLine
 10
104.343513
 20
-8.930909999999999
 30
0.0
 11
104.009186
 21
-8.891646
 31
0.0
  0
LINE
  5
6A7
330
1F
100
AcDbEntity
  8
1
  6
CONTINUOUS
370
50
 62
4
100
AcDbLine
 10
86.668495
 20
8.885864
 30
0.0
 11
86.24073
 21
8.935758
 31
0.0
  0
LINE
  5
6A8
330
1F
100
AcDbEntity
  8
1
  6
CONTINUOUS
370
50
 62
4
100
AcDbLine
 10
73.33365599999999
 20
8.952067
 30
0.0
 11
73.14119
 21
8.973073
 31
0.0
  0
LINE
  5
6A9
330
1F
100
AcDbEntity
  8
1
  6
CONTINUOUS
370
50
 62
4
100
AcDbLine
 10
72.114891
 20
-8.980188
 30
0.0
 11
71.889603
 21
-8.956203
 31
0.0
  0
LINE
  5
6AA
330
1F
100
AcDbEntity
  8
1
  6
CONTINUOUS
370
50
 62
4
100
AcDbLine
 10
120.175987
 20
8.91256
 30
0.0
 11
119.80204
 21
8.950835
 31
0.0
  0
LINE
  5
6AB
330
1F
100
AcDbEntity
  8
1
  6
CONTINUOUS
370
50
 62
4
100
AcDbLine
 10
107.138062
 20
8.918104
 30
0.0
 11
106.653069
 21
8.964015999999999
 31
0.0
  0
LINE
  5
6AC
330
1F
100
AcDbEntity
  8
1
  6
CONTINUOUS
370
50
 62
4
100
AcDbLine
 10
117.723938
 20
-8.964725999999999
 30
0.0
 11
117.246986
 21
-8.920368
 31
0.0
  0
LINE
  5
6AD
330
1F
100
AcDbEntity
  8
1
  6
CONTINUOUS
370
50
 62
4
100
AcDbLine
 10
104.677902
 20
-8.961478999999999
 30
0.0
 11
104.343513
 21
-8.930909999999999
 31
0.0
  0
LINE
  5
6AE
330
1F
100
AcDbEntity
  8
1
  6
CONTINUOUS
370
50
 62
4
100
AcDbLine
 10
84.091911
 20
-8.970756999999999
 30
0.0
 11
83.659416
 21
-8.934218999999999
 31
0.0
  0
LINE
  5
6AF
330
1F
100
AcDbEntity
  8
1
  6
CONTINUOUS
370
50
 62
4
100
AcDbLine
 10
127.264656
 20
0.061602
 30
0.0
 11
125.007088
 21
0.250726
 31
0.0
  0
LINE
  5
6B0
330
1F
100
AcDbEntity
  8
1
  6
CONTINUOUS
370
50
 62
4
100
AcDbLine
 10
86.24073
 20
8.935758
 30
0.0
 11
85.813347
 21
8.971438
 31
0.0
  0
LINE
  5
6B1
330
1F
100
AcDbEntity
  8
1
  6
CONTINUOUS
370
50
 62
4
100
AcDbLine
 10
73.14119
 20
8.973073
 30
0.0
 11
72.94846299999999
 21
8.988275999999999
 31
0.0
  0
LINE
  5
6B2
330
1F
100
AcDbEntity
  8
1
  6
CONTINUOUS
370
50
 62
4
100
AcDbLine
 10
123.737198
 20
-0.5988709999999999
 30
0.0
 11
123.623535
 21
-0.590289
 31
0.0
  0
LINE
  5
6B3
330
1F
100
AcDbEntity
  8
1
  6
CONTINUOUS
370
50
 62
4
100
AcDbLine
 10
119.80204
 20
8.950835
 30
0.0
 11
119.427834
 21
8.978223999999999
 31
0.0
  0
LINE
  5
6B4
330
1F
100
AcDbEntity
  8
1
  6
CONTINUOUS
370
50
 62
4
100
AcDbLine
 10
68.73447399999999
 20
-1.699186
 30
0.0
 11
68.48578599999999
 21
-1.682555
 31
0.0
  0
LINE
  5
6B5
330
1F
100
AcDbEntity
  8
1
  6
CONTINUOUS
370
50
 62
4
100
AcDbLine
 10
105.01268
 20
-8.983334
 30
0.0
 11
104.677902
 21
-8.961478999999999
 31
0.0
  0
LINE
  5
6B6
330
1F
100
AcDbEntity
  8
1
  6
CONTINUOUS
370
50
 62
4
100
AcDbLine
 10
72.337479
 20
-8.99461
 30
0.0
 11
72.114891
 21
-8.980188
 31
0.0
  0
LINE
  5
6B7
330
1F
100
AcDbEntity
  8
1
  6
CONTINUOUS
370
50
 62
4
100
AcDbLine
 10
106.653069
 20
8.964015999999999
 30
0.0
 11
106.168587
 21
8.991603
 31
0.0
  0
LINE
  5
6B8
330
1F
100
AcDbEntity
  8
1
  6
CONTINUOUS
370
50
 62
4
100
AcDbLine
 10
118.200424
 20
-8.991341
 30
0.0
 11
117.723938
 21
-8.964725999999999
 31
0.0
  0
LINE
  5
6B9
330
1F
100
AcDbEntity
  8
1
  6
CONTINUOUS
370
50
 62
4
100
AcDbLine
 10
84.524605
 20
-8.992695
 30
0.0
 11
84.091911
 21
-8.970756999999999
 31
0.0
  0
LINE
  5
6BA
330
1F
100
AcDbEntity
  8
1
  6
CONTINUOUS
370
50
 62
4
100
AcDbLine
 10
85.813347
 20
8.971438
 30
0.0
 11
85.385796
 21
8.992858
 31
0.0
  0
LINE
  5
6BB
330
1F
100
AcDbEntity
  8
1
  6
CONTINUOUS
370
50
 62
4
100
AcDbLine
 10
72.94846299999999
 20
8.988275999999999
 30
0.0
 11
72.755119
 21
8.997347
 31
0.0
  0
LINE
  5
6BC
330
1F
100
AcDbEntity
  8
1
  6
CONTINUOUS
370
50
 62
4
100
AcDbLine
 10
119.427834
 20
8.978223999999999
 30
0.0
 11
119.052925
 21
8.994691
 31
0.0
  0
LINE
  5
6BD
330
1F
100
AcDbEntity
  8
1
  6
CONTINUOUS
370
50
 62
4
100
AcDbLine
 10
105.348053
 20
-8.996455
 30
0.0
 11
105.01268
 21
-8.983334
 31
0.0
  0
LINE
  5
6BE
330
1F
100
AcDbEntity
  8
1
  6
CONTINUOUS
370
50
 62
4
100
AcDbLine
 10
72.557861
 20
-8.999941999999999
 30
0.0
 11
72.337479
 21
-8.99461
 31
0.0
  0
LINE
  5
6BF
330
1F
100
AcDbEntity
  8
1
  6
CONTINUOUS
370
50
 62
4
100
AcDbLine
 10
106.168587
 20
8.991603
 30
0.0
 11
105.683609
 21
9.000823
 31
0.0
  0
LINE
  5
6C0
330
1F
100
AcDbEntity
  8
1
  6
CONTINUOUS
370
50
 62
4
100
AcDbLine
 10
118.677322
 20
-9.000198
 30
0.0
 11
118.200424
 21
-8.991341
 31
0.0
  0
LINE
  5
6C1
330
1F
100
AcDbEntity
  8
1
  6
CONTINUOUS
370
50
 62
4
100
AcDbLine
 10
84.957718
 20
-9.000001
 30
0.0
 11
84.524605
 21
-8.992695
 31
0.0
  0
LINE
  5
6C2
330
1F
100
AcDbEntity
  8
1
  6
CONTINUOUS
370
50
 62
4
100
AcDbLine
 10
85.385796
 20
8.992858
 30
0.0
 11
84.957718
 21
9.000001
 31
0.0
  0
LINE
  5
6C3
330
1F
100
AcDbEntity
  8
1
  6
CONTINUOUS
370
50
 62
4
100
AcDbLine
 10
119.052925
 20
8.994691
 30
0.0
 11
118.677322
 21
9.000198
 31
0.0
  0
LINE
  5
6C4
330
1F
100
AcDbEntity
  8
1
  6
CONTINUOUS
370
50
 62
4
100
AcDbLine
 10
72.755119
 20
8.997347
 30
0.0
 11
72.560799
 21
8.999953
 31
0.0
  0
LINE
  5
6C5
330
1F
100
AcDbEntity
  8
1
  6
CONTINUOUS
370
50
 62
4
100
AcDbLine
 10
105.683609
 20
-9.000823
 30
0.0
 11
105.348053
 21
-8.996455
 31
0.0
  0
LINE
  5
6C6
330
1F
100
AcDbEntity
  8
1
  6
CONTINUOUS
370
50
 62
4
100
AcDbLine
 10
68.48578599999999
 20
-1.682555
 30
0.0
 11
68.24610899999999
 21
-1.681297
 31
0.0
  0
LINE
  5
6C7
330
1F
100
AcDbEntity
  8
1
  6
CONTINUOUS
370
50
 62
4
100
AcDbLine
 10
122.720833
 20
9.000003999999999
 30
0.0
 11
118.677322
 21
9.000198
 31
0.0
  0
LINE
  5
6C8
330
1F
100
AcDbEntity
  8
1
  6
CONTINUOUS
370
50
 62
4
100
AcDbLine
 10
105.683609
 20
9.000823
 30
0.0
 11
102.0
 21
9.001
 31
0.0
  0
LINE
  5
6C9
330
1F
100
AcDbEntity
  8
1
  6
CONTINUOUS
370
50
 62
4
100
AcDbLine
 10
84.957954
 20
-9.0
 30
0.0
 11
101.99913
 21
-9.0
 31
0.0
  0
LINE
  5
6CA
330
1F
100
AcDbEntity
  8
1
  6
CONTINUOUS
370
50
 62
4
100
AcDbLine
 10
56.200001
 20
-9.0
 30
0.0
 11
72.582932
 21
-9.0
 31
0.0
  0
LINE
  5
6CB
330
1F
100
AcDbEntity
  8
1
  6
CONTINUOUS
370
50
 62
4
100
AcDbLine
 10
84.957954
 20
9.0
 30
0.0
 11
101.99913
 21
9.0
 31
0.0
  0
LINE
  5
6CC
330
1F
100
AcDbEntity
  8
1
  6
CONTINUOUS
370
50
 62
4
100
AcDbLine
 10
56.200001
 20
9.0
 30
0.0
 11
72.582909
 21
9.0
 31
0.0
  0
LINE
  5
6CD
330
1F
100
AcDbEntity
  8
1
  6
CONTINUOUS
370
50
 62
4
100
AcDbLine
 10
102.0
 20
-9.001
 30
0.0
 11
105.683609
 21
-9.000823
 31
0.0
  0
LINE
  5
6CE
330
1F
100
AcDbEntity
  8
1
  6
CONTINUOUS
370
50
 62
4
100
AcDbLine
 10
118.677322
 20
-9.000198
 30
0.0
 11
122.720833
 21
-9.000003999999999
 31
0.0
  0
LINE
  5
6CF
330
1F
100
AcDbEntity
  8
1
  6
CONTINUOUS
370
50
 62
4
100
AcDbLine
 10
72.557861
 20
-8.999941999999999
 30
0.0
 11
72.752693
 21
-8.99742
 31
0.0
  0
LINE
  5
6D0
330
1F
100
AcDbEntity
  8
1
  6
CONTINUOUS
370
50
 62
4
100
AcDbLine
 10
84.493622
 20
8.991610999999999
 30
0.0
 11
84.957718
 21
9.000001
 31
0.0
  0
LINE
  5
6D1
330
1F
100
AcDbEntity
  8
1
  6
CONTINUOUS
370
50
 62
4
100
AcDbLine
 10
118.175926
 20
8.990404999999999
 30
0.0
 11
118.677322
 21
9.000198
 31
0.0
  0
LINE
  5
6D2
330
1F
100
AcDbEntity
  8
1
  6
CONTINUOUS
370
50
 62
4
100
AcDbLine
 10
123.737198
 20
-0.5988709999999999
 30
0.0
 11
123.85128
 21
-0.596622
 31
0.0
  0
LINE
  5
6D3
330
1F
100
AcDbEntity
  8
1
  6
CONTINUOUS
370
50
 62
4
100
AcDbLine
 10
105.683609
 20
-9.000823
 30
0.0
 11
106.225372
 21
-8.989319
 31
0.0
  0
LINE
  5
6D4
330
1F
100
AcDbEntity
  8
1
  6
CONTINUOUS
370
50
 62
4
100
AcDbLine
 10
127.198891
 20
0.287325
 30
0.0
 11
127.222389
 21
0.287911
 31
0.0
  0
LINE
  5
6D5
330
1F
100
AcDbEntity
  8
1
  6
CONTINUOUS
370
50
 62
4
100
AcDbLine
 10
72.752693
 20
-8.99742
 30
0.0
 11
72.946533
 21
-8.988399
 31
0.0
  0
LINE
  5
6D6
330
1F
100
AcDbEntity
  8
1
  6
CONTINUOUS
370
50
 62
4
100
AcDbLine
 10
84.029961
 20
8.966419
 30
0.0
 11
84.493622
 21
8.991610999999999
 31
0.0
  0
LINE
  5
6D7
330
1F
100
AcDbEntity
  8
1
  6
CONTINUOUS
370
50
 62
4
100
AcDbLine
 10
117.674843
 20
8.960977999999999
 30
0.0
 11
118.175926
 21
8.990404999999999
 31
0.0
  0
LINE
  5
6D8
330
1F
100
AcDbEntity
  8
1
  6
CONTINUOUS
370
50
 62
4
100
AcDbLine
 10
68.012344
 20
-1.6952
 30
0.0
 11
68.24610899999999
 21
-1.681297
 31
0.0
  0
LINE
  5
6D9
330
1F
100
AcDbEntity
  8
1
  6
CONTINUOUS
370
50
 62
4
100
AcDbLine
 10
106.225372
 20
-8.989319
 30
0.0
 11
106.766579
 21
-8.954906
 31
0.0
  0
LINE
  5
6DA
330
1F
100
AcDbEntity
  8
1
  6
CONTINUOUS
370
50
 62
4
100
AcDbLine
 10
72.946533
 20
-8.988399
 30
0.0
 11
73.139748
 21
-8.973208999999999
 31
0.0
  0
LINE
  5
6DB
330
1F
100
AcDbEntity
  8
1
  6
CONTINUOUS
370
50
 62
4
100
AcDbLine
 10
83.56655099999999
 20
8.924477
 30
0.0
 11
84.029961
 21
8.966419
 31
0.0
  0
LINE
  5
6DC
330
1F
100
AcDbEntity
  8
1
  6
CONTINUOUS
370
50
 62
4
100
AcDbLine
 10
117.174034
 20
8.912029
 30
0.0
 11
117.674843
 21
8.960977999999999
 31
0.0
  0
LINE
  5
6DD
330
1F
100
AcDbEntity
  8
1
  6
CONTINUOUS
370
50
 62
4
100
AcDbLine
 10
106.766579
 20
-8.954906
 30
0.0
 11
107.308144
 21
-8.897706
 31
0.0
  0
LINE
  5
6DE
330
1F
100
AcDbEntity
  8
1
  6
CONTINUOUS
370
50
 62
4
100
AcDbLine
 10
73.139748
 20
-8.973208999999999
 30
0.0
 11
73.33268699999999
 21
-8.952187
 31
0.0
  0
LINE
  5
6DF
330
1F
100
AcDbEntity
  8
1
  6
CONTINUOUS
370
50
 62
4
100
AcDbLine
 10
123.85128
 20
-0.596622
 30
0.0
 11
123.965477
 21
-0.58311
 31
0.0
  0
LINE
  5
6E0
330
1F
100
AcDbEntity
  8
1
  6
CONTINUOUS
370
50
 62
4
100
AcDbLine
 10
83.102982
 20
8.865891
 30
0.0
 11
83.56655099999999
 21
8.924477
 31
0.0
  0
LINE
  5
6E1
330
1F
100
AcDbEntity
  8
1
  6
CONTINUOUS
370
50
 62
4
100
AcDbLine
 10
67.780327
 20
-1.725222
 30
0.0
 11
68.012344
 21
-1.6952
 31
0.0
  0
LINE
  5
6E2
330
1F
100
AcDbEntity
  8
1
  6
CONTINUOUS
370
50
 62
4
100
AcDbLine
 10
116.672668
 20
8.843695
 30
0.0
 11
117.174034
 21
8.912029
 31
0.0
  0
LINE
  5
6E3
330
1F
100
AcDbEntity
  8
1
  6
CONTINUOUS
370
50
 62
4
100
AcDbLine
 10
73.33268699999999
 20
-8.952187
 30
0.0
 11
73.525719
 21
-8.925664
 31
0.0
  0
LINE
  5
6E4
330
1F
100
AcDbEntity
  8
1
  6
CONTINUOUS
370
50
 62
4
100
AcDbLine
 10
107.308144
 20
-8.897706
 30
0.0
 11
107.850197
 21
-8.817955
 31
0.0
  0
LINE
  5
6E5
330
1F
100
AcDbEntity
  8
1
  6
CONTINUOUS
370
50
 62
4
100
AcDbLine
 10
122.720833
 20
-9.000003999999999
 30
0.0
 11
122.722054
 21
-8.99982
 31
0.0
  0
LINE
  5
6E6
330
1F
100
AcDbEntity
  8
1
  6
CONTINUOUS
370
50
 62
4
100
AcDbLine
 10
73.7192
 20
-8.882171
 30
0.0
 11
74.185135
 21
-8.807578
 31
0.0
  0
LINE
  5
6E7
330
1F
100
AcDbEntity
  8
1
  6
CONTINUOUS
370
50
 62
4
100
AcDbLine
 10
50.0
 20
-10.0
 30
0.0
 11
56.200001
 21
-9.0
 31
0.0
  0
LINE
  5
6E8
330
1F
100
AcDbEntity
  8
1
  6
CONTINUOUS
370
50
 62
4
100
AcDbLine
 10
82.638618
 20
8.790759999999999
 30
0.0
 11
83.102982
 21
8.865891
 31
0.0
  0
LINE
  5
6E9
330
1F
100
AcDbEntity
  8
1
  6
CONTINUOUS
370
50
 62
4
100
AcDbLine
 10
73.525719
 20
-8.925664
 30
0.0
 11
73.7192
 21
-8.893975
 31
0.0
  0
LINE
  5
6EA
330
1F
100
AcDbEntity
  8
1
  6
CONTINUOUS
370
50
 62
4
100
AcDbLine
 10
116.173477
 20
8.756568999999999
 30
0.0
 11
116.672668
 21
8.843695
 31
0.0
  0
LINE
  5
6EB
330
1F
100
AcDbEntity
  8
1
  6
CONTINUOUS
370
50
 62
4
100
AcDbLine
 10
107.850197
 20
-8.817955
 30
0.0
 11
108.390717
 21
-8.715883999999999
 31
0.0
  0
LINE
  5
6EC
330
1F
100
AcDbEntity
  8
1
  6
CONTINUOUS
370
50
 62
4
100
AcDbLine
 10
74.185135
 20
-8.807578
 30
0.0
 11
74.657166
 21
-8.716792
 31
0.0
  0
LINE
  5
6ED
330
1F
100
AcDbEntity
  8
1
  6
CONTINUOUS
370
50
 62
4
100
AcDbLine
 10
82.174194
 20
8.699166
 30
0.0
 11
82.638618
 21
8.790759999999999
 31
0.0
  0
LINE
  5
6EE
330
1F
100
AcDbEntity
  8
1
  6
CONTINUOUS
370
50
 62
4
100
AcDbLine
 10
67.55167399999999
 20
-1.772501
 30
0.0
 11
67.780327
 21
-1.725222
 31
0.0
  0
LINE
  5
6EF
330
1F
100
AcDbEntity
  8
1
  6
CONTINUOUS
370
50
 62
4
100
AcDbLine
 10
115.675621
 20
8.650635
 30
0.0
 11
116.173477
 21
8.756568999999999
 31
0.0
  0
LINE
  5
6F0
330
1F
100
AcDbEntity
  8
1
  6
CONTINUOUS
370
50
 62
4
100
AcDbLine
 10
123.965477
 20
-0.58311
 30
0.0
 11
124.07946
 21
-0.557905
 31
0.0
  0
LINE
  5
6F1
330
1F
100
AcDbEntity
  8
1
  6
CONTINUOUS
370
50
 62
4
100
AcDbLine
 10
74.657166
 20
-8.716792
 30
0.0
 11
75.132599
 21
-8.610401
 31
0.0
  0
LINE
  5
6F2
330
1F
100
AcDbEntity
  8
1
  6
CONTINUOUS
370
50
 62
4
100
AcDbLine
 10
108.390717
 20
-8.715883999999999
 30
0.0
 11
108.930534
 21
-8.59173
 31
0.0
  0
LINE
  5
6F3
330
1F
100
AcDbEntity
  8
1
  6
CONTINUOUS
370
50
 62
4
100
AcDbLine
 10
81.710365
 20
8.591258999999999
 30
0.0
 11
82.174194
 21
8.699166
 31
0.0
  0
LINE
  5
6F4
330
1F
100
AcDbEntity
  8
1
  6
CONTINUOUS
370
50
 62
4
100
AcDbLine
 10
115.177986
 20
8.526052
 30
0.0
 11
115.675621
 21
8.650635
 31
0.0
  0
LINE
  5
6F5
330
1F
100
AcDbEntity
  8
1
  6
CONTINUOUS
370
50
 62
4
100
AcDbLine
 10
75.132599
 20
-8.610401
 30
0.0
 11
75.609329
 21
-8.486502999999999
 31
0.0
  0
LINE
  5
6F6
330
1F
100
AcDbEntity
  8
1
  6
CONTINUOUS
370
50
 62
4
100
AcDbLine
 10
81.24646
 20
8.46724
 30
0.0
 11
81.710365
 21
8.591258999999999
 31
0.0
  0
LINE
  5
6F7
330
1F
100
AcDbEntity
  8
1
  6
CONTINUOUS
370
50
 62
4
100
AcDbLine
 10
108.930534
 20
-8.59173
 30
0.0
 11
109.471069
 21
-8.445716
 31
0.0
  0
LINE
  5
6F8
330
1F
100
AcDbEntity
  8
1
  6
CONTINUOUS
370
50
 62
4
100
AcDbLine
 10
114.679543
 20
8.382997
 30
0.0
 11
115.177986
 21
8.526052
 31
0.0
  0
LINE
  5
6F9
330
1F
100
AcDbEntity
  8
1
  6
CONTINUOUS
370
50
 62
4
100
AcDbLine
 10
67.328094
 20
-1.838171
 30
0.0
 11
67.55167399999999
 21
-1.772501
 31
0.0
  0
LINE
  5
6FA
330
1F
100
AcDbEntity
  8
1
  6
CONTINUOUS
370
50
 62
4
100
AcDbLine
 10
75.609329
 20
-8.486502999999999
 30
0.0
 11
76.084953
 21
-8.34553
 31
0.0
  0
LINE
  5
6FB
330
1F
100
AcDbEntity
  8
1
  6
CONTINUOUS
370
50
 62
4
100
AcDbLine
 10
80.782112
 20
8.327442999999999
 30
0.0
 11
81.24646
 21
8.46724
 31
0.0
  0
LINE
  5
6FC
330
1F
100
AcDbEntity
  8
1
  6
CONTINUOUS
370
50
 62
4
100
AcDbLine
 10
109.471069
 20
-8.445716
 30
0.0
 11
110.013245
 21
-8.278131
 31
0.0
  0
LINE
  5
6FD
330
1F
100
AcDbEntity
  8
1
  6
CONTINUOUS
370
50
 62
4
100
AcDbLine
 10
114.179588
 20
8.22166
 30
0.0
 11
114.679543
 21
8.382997
 31
0.0
  0
LINE
  5
6FE
330
1F
100
AcDbEntity
  8
1
  6
CONTINUOUS
370
50
 62
4
100
AcDbLine
 10
124.07946
 20
-0.557905
 30
0.0
 11
124.192924
 21
-0.5205759999999999
 31
0.0
  0
LINE
  5
6FF
330
1F
100
AcDbEntity
  8
1
  6
CONTINUOUS
370
50
 62
4
100
AcDbLine
 10
76.084953
 20
-8.34553
 30
0.0
 11
76.559181
 21
-8.18821
 31
0.0
  0
LINE
  5
700
330
1F
100
AcDbEntity
  8
1
  6
CONTINUOUS
370
50
 62
4
100
AcDbLine
 10
80.317612
 20
8.172119
 30
0.0
 11
80.782112
 21
8.327442999999999
 31
0.0
  0
LINE
  5
701
330
1F
100
AcDbEntity
  8
1
  6
CONTINUOUS
370
50
 62
4
100
AcDbLine
 10
110.013245
 20
-8.278131
 30
0.0
 11
110.555023
 21
-8.089324999999999
 31
0.0
  0
LINE
  5
702
330
1F
100
AcDbEntity
  8
1
  6
CONTINUOUS
370
50
 62
4
100
AcDbLine
 10
113.679642
 20
8.042292999999999
 30
0.0
 11
114.179588
 21
8.22166
 31
0.0
  0
LINE
  5
703
330
1F
100
AcDbEntity
  8
1
  6
CONTINUOUS
370
50
 62
4
100
AcDbLine
 10
76.559181
 20
-8.18821
 30
0.0
 11
77.032967
 21
-8.014837
 31
0.0
  0
LINE
  5
704
330
1F
100
AcDbEntity
  8
1
  6
CONTINUOUS
370
50
 62
4
100
AcDbLine
 10
79.853279
 20
8.001472999999999
 30
0.0
 11
80.317612
 21
8.172119
 31
0.0
  0
LINE
  5
705
330
1F
100
AcDbEntity
  8
1
  6
CONTINUOUS
370
50
 62
4
100
AcDbLine
 10
110.555023
 20
-8.089324999999999
 30
0.0
 11
111.096245
 21
-7.879826
 31
0.0
  0
LINE
  5
706
330
1F
100
AcDbEntity
  8
1
  6
CONTINUOUS
370
50
 62
4
100
AcDbLine
 10
121.917458
 20
4.996332
 30
0.0
 11
122.047279
 21
5.046813
 31
0.0
  0
LINE
  5
707
330
1F
100
AcDbEntity
  8
1
  6
CONTINUOUS
370
50
 62
4
100
AcDbLine
 10
67.112053
 20
-1.923101
 30
0.0
 11
67.328094
 21
-1.838171
 31
0.0
  0
LINE
  5
708
330
1F
100
AcDbEntity
  8
1
  6
CONTINUOUS
370
50
 62
4
100
AcDbLine
 10
113.180046
 20
7.845348
 30
0.0
 11
113.679642
 21
8.042292999999999
 31
0.0
  0
LINE
  5
709
330
1F
100
AcDbEntity
  8
1
  6
CONTINUOUS
370
50
 62
4
100
AcDbLine
 10
77.032967
 20
-8.014837
 30
0.0
 11
77.507393
 21
-7.825641
 31
0.0
  0
LINE
  5
70A
330
1F
100
AcDbEntity
  8
1
  6
CONTINUOUS
370
50
 62
4
100
AcDbLine
 10
79.389389
 20
7.815809
 30
0.0
 11
79.853279
 21
8.001472999999999
 31
0.0
  0
LINE
  5
70B
330
1F
100
AcDbEntity
  8
1
  6
CONTINUOUS
370
50
 62
4
100
AcDbLine
 10
122.047279
 20
5.046813
 30
0.0
 11
122.173454
 21
5.100067
 31
0.0
  0
LINE
  5
70C
330
1F
100
AcDbEntity
  8
1
  6
CONTINUOUS
370
50
 62
4
100
AcDbLine
 10
111.096245
 20
-7.879826
 30
0.0
 11
111.638084
 21
-7.650136
 31
0.0
  0
LINE
  5
70D
330
1F
100
AcDbEntity
  8
1
  6
CONTINUOUS
370
50
 62
4
100
AcDbLine
 10
112.680603
 20
7.631495999999999
 30
0.0
 11
113.180046
 21
7.845348
 31
0.0
  0
LINE
  5
70E
330
1F
100
AcDbEntity
  8
1
  6
CONTINUOUS
370
50
 62
4
100
AcDbLine
 10
77.507393
 20
-7.825641
 30
0.0
 11
77.983543
 21
-7.620858999999999
 31
0.0
  0
LINE
  5
70F
330
1F
100
AcDbEntity
  8
1
  6
CONTINUOUS
370
50
 62
4
100
AcDbLine
 10
78.925476
 20
7.615536
 30
0.0
 11
79.389389
 21
7.815809
 31
0.0
  0
LINE
  5
710
330
1F
100
AcDbEntity
  8
1
  6
CONTINUOUS
370
50
 62
4
100
AcDbLine
 10
122.722054
 20
-8.99982
 30
0.0
 11
122.723274
 21
-8.999289
 31
0.0
  0
LINE
  5
711
330
1F
100
AcDbEntity
  8
1
  6
CONTINUOUS
370
50
 62
4
100
AcDbLine
 10
124.192924
 20
-0.5205759999999999
 30
0.0
 11
124.305542
 21
-0.470692
 31
0.0
  0
LINE
  5
712
330
1F
100
AcDbEntity
  8
1
  6
CONTINUOUS
370
50
 62
4
100
AcDbLine
 10
122.173454
 20
5.100067
 30
0.0
 11
122.297745
 21
5.157112
 31
0.0
  0
LINE
  5
713
330
1F
100
AcDbEntity
  8
1
  6
CONTINUOUS
370
50
 62
4
100
AcDbLine
 10
111.638084
 20
-7.650136
 30
0.0
 11
112.180344
 21
-7.401092999999999
 31
0.0
  0
LINE
  5
714
330
1F
100
AcDbEntity
  8
1
  6
CONTINUOUS
370
50
 62
4
100
AcDbLine
 10
77.983543
 20
-7.620858999999999
 30
0.0
 11
78.460945
 21
-7.401063
 31
0.0
  0
LINE
  5
715
330
1F
100
AcDbEntity
  8
1
  6
CONTINUOUS
370
50
 62
4
100
AcDbLine
 10
112.180534
 20
7.40118
 30
0.0
 11
112.680603
 21
7.631495999999999
 31
0.0
  0
LINE
  5
716
330
1F
100
AcDbEntity
  8
1
  6
CONTINUOUS
370
50
 62
4
100
AcDbLine
 10
78.460938
 20
7.401063
 30
0.0
 11
78.925476
 21
7.615536
 31
0.0
  0
LINE
  5
717
330
1F
100
AcDbEntity
  8
1
  6
CONTINUOUS
370
50
 62
4
100
AcDbLine
 10
122.297745
 20
5.157112
 30
0.0
 11
122.419785
 21
5.218184
 31
0.0
  0
LINE
  5
718
330
1F
100
AcDbEntity
  8
1
  6
CONTINUOUS
370
50
 62
4
100
AcDbLine
 10
66.90615799999999
 20
-2.027929
 30
0.0
 11
67.112053
 21
-1.923101
 31
0.0
  0
LINE
  5
719
330
1F
100
AcDbEntity
  8
1
  6
CONTINUOUS
370
50
 62
4
100
AcDbLine
 10
122.419785
 20
5.218184
 30
0.0
 11
122.539116
 21
5.28348
 31
0.0
  0
LINE
  5
71A
330
1F
100
AcDbEntity
  8
1
  6
CONTINUOUS
370
50
 62
4
100
AcDbLine
 10
124.305542
 20
-0.470692
 30
0.0
 11
124.416824
 21
-0.407895
 31
0.0
  0
LINE
  5
71B
330
1F
100
AcDbEntity
  8
1
  6
CONTINUOUS
370
50
 62
4
100
AcDbLine
 10
101.99913
 20
9.0
 30
0.0
 11
102.0
 21
9.000499999999999
 31
0.0
  0
LINE
  5
71C
330
1F
100
AcDbEntity
  8
1
  6
CONTINUOUS
370
50
 62
4
100
AcDbLine
 10
122.539116
 20
5.28348
 30
0.0
 11
122.655273
 21
5.353198
 31
0.0
  0
LINE
  5
71D
330
1F
100
AcDbEntity
  8
1
  6
CONTINUOUS
370
50
 62
4
100
AcDbLine
 10
66.712761
 20
-2.153329
 30
0.0
 11
66.90615799999999
 21
-2.027929
 31
0.0
  0
LINE
  5
71E
330
1F
100
AcDbEntity
  8
1
  6
CONTINUOUS
370
50
 62
4
100
AcDbLine
 10
122.655273
 20
5.353198
 30
0.0
 11
122.767799
 21
5.427534
 31
0.0
  0
LINE
  5
71F
330
1F
100
AcDbEntity
  8
1
  6
CONTINUOUS
370
50
 62
4
100
AcDbLine
 10
124.416824
 20
-0.407895
 30
0.0
 11
124.525826
 21
-0.331993
 31
0.0
  0
LINE
  5
720
330
1F
100
AcDbEntity
  8
1
  6
CONTINUOUS
370
50
 62
4
100
AcDbLine
 10
122.723274
 20
-8.999289
 30
0.0
 11
122.724503
 21
-8.998398
 31
0.0
  0
LINE
  5
721
330
1F
100
AcDbEntity
  8
1
  6
CONTINUOUS
370
50
 62
4
100
AcDbLine
 10
122.767799
 20
5.427534
 30
0.0
 11
122.876236
 21
5.506686
 31
0.0
  0
LINE
  5
722
330
1F
100
AcDbEntity
  8
1
  6
CONTINUOUS
370
50
 62
4
100
AcDbLine
 10
122.876236
 20
5.506686
 30
0.0
 11
122.980103
 21
5.590851
 31
0.0
  0
LINE
  5
723
330
1F
100
AcDbEntity
  8
1
  6
CONTINUOUS
370
50
 62
4
100
AcDbLine
 10
66.536003
 20
-2.298369
 30
0.0
 11
66.712761
 21
-2.153329
 31
0.0
  0
LINE
  5
724
330
1F
100
AcDbEntity
  8
1
  6
CONTINUOUS
370
50
 62
4
100
AcDbLine
 10
124.525826
 20
-0.331993
 30
0.0
 11
124.631767
 21
-0.242712
 31
0.0
  0
LINE
  5
725
330
1F
100
AcDbEntity
  8
1
  6
CONTINUOUS
370
50
 62
4
100
AcDbLine
 10
122.980103
 20
5.590851
 30
0.0
 11
123.078583
 21
5.679857
 31
0.0
  0
LINE
  5
726
330
1F
100
AcDbEntity
  8
1
  6
CONTINUOUS
370
50
 62
4
100
AcDbLine
 10
124.631767
 20
-0.242712
 30
0.0
 11
124.733856
 21
-0.139777
 31
0.0
  0
LINE
  5
727
330
1F
100
AcDbEntity
  8
1
  6
CONTINUOUS
370
50
 62
4
100
AcDbLine
 10
123.078583
 20
5.679857
 30
0.0
 11
123.170761
 21
5.773231
 31
0.0
  0
LINE
  5
728
330
1F
100
AcDbEntity
  8
1
  6
CONTINUOUS
370
50
 62
4
100
AcDbLine
 10
122.724503
 20
-8.998398
 30
0.0
 11
122.725731
 21
-8.997145999999999
 31
0.0
  0
LINE
  5
729
330
1F
100
AcDbEntity
  8
1
  6
CONTINUOUS
370
50
 62
4
100
AcDbLine
 10
66.379364
 20
-2.461325
 30
0.0
 11
66.536003
 21
-2.298369
 31
0.0
  0
LINE
  5
72A
330
1F
100
AcDbEntity
  8
1
  6
CONTINUOUS
370
50
 62
4
100
AcDbLine
 10
123.170761
 20
5.773231
 30
0.0
 11
123.256477
 21
5.871077
 31
0.0
  0
LINE
  5
72B
330
1F
100
AcDbEntity
  8
1
  6
CONTINUOUS
370
50
 62
4
100
AcDbLine
 10
124.733856
 20
-0.139777
 30
0.0
 11
124.831314
 21
-0.022914
 31
0.0
  0
LINE
  5
72C
330
1F
100
AcDbEntity
  8
1
  6
CONTINUOUS
370
50
 62
4
100
AcDbLine
 10
123.256477
 20
5.871077
 30
0.0
 11
123.335587
 21
5.973511999999999
 31
0.0
  0
LINE
  5
72D
330
1F
100
AcDbEntity
  8
1
  6
CONTINUOUS
370
50
 62
4
100
AcDbLine
 10
122.725731
 20
-8.997145999999999
 30
0.0
 11
122.726967
 21
-8.995533
 31
0.0
  0
LINE
  5
72E
330
1F
100
AcDbEntity
  8
1
  6
CONTINUOUS
370
50
 62
4
100
AcDbLine
 10
66.244308
 20
-2.641605
 30
0.0
 11
66.379364
 21
-2.461325
 31
0.0
  0
LINE
  5
72F
330
1F
100
AcDbEntity
  8
1
  6
CONTINUOUS
370
50
 62
4
100
AcDbLine
 10
124.831314
 20
-0.022914
 30
0.0
 11
124.923073
 21
0.107774
 31
0.0
  0
LINE
  5
730
330
1F
100
AcDbEntity
  8
1
  6
CONTINUOUS
370
50
 62
4
100
AcDbLine
 10
123.335587
 20
5.973511999999999
 30
0.0
 11
123.407928
 21
6.080648
 31
0.0
  0
LINE
  5
731
330
1F
100
AcDbEntity
  8
1
  6
CONTINUOUS
370
50
 62
4
100
AcDbLine
 10
122.726967
 20
-8.995533
 30
0.0
 11
122.728203
 21
-8.993561
 31
0.0
  0
LINE
  5
732
330
1F
100
AcDbEntity
  8
1
  6
CONTINUOUS
370
50
 62
4
100
AcDbLine
 10
124.923073
 20
0.107774
 30
0.0
 11
125.007088
 21
0.250726
 31
0.0
  0
LINE
  5
733
330
1F
100
AcDbEntity
  8
1
  6
CONTINUOUS
370
50
 62
4
100
AcDbLine
 10
122.728096
 20
-8.993758999999999
 30
0.0
 11
128.0
 21
0.0
 31
0.0
  0
LINE
  5
734
330
1F
100
AcDbEntity
  8
1
  6
CONTINUOUS
370
50
 62
4
100
AcDbLine
 10
123.407928
 20
6.080648
 30
0.0
 11
123.473366
 21
6.192603999999999
 31
0.0
  0
LINE
  5
735
330
1F
100
AcDbEntity
  8
1
  6
CONTINUOUS
370
50
 62
4
100
AcDbLine
 10
66.133972
 20
-2.835169
 30
0.0
 11
66.244308
 21
-2.641605
 31
0.0
  0
LINE
  5
736
330
1F
100
AcDbEntity
  8
1
  6
CONTINUOUS
370
50
 62
4
100
AcDbLine
 10
123.473366
 20
6.192603999999999
 30
0.0
 11
123.531738
 21
6.309477999999999
 31
0.0
  0
LINE
  5
737
330
1F
100
AcDbEntity
  8
1
  6
CONTINUOUS
370
50
 62
4
100
AcDbLine
 10
123.531738
 20
6.309477999999999
 30
0.0
 11
123.582344
 21
6.429873
 31
0.0
  0
LINE
  5
738
330
1F
100
AcDbEntity
  8
1
  6
CONTINUOUS
370
50
 62
4
100
AcDbLine
 10
66.04972099999999
 20
-3.037382
 30
0.0
 11
66.133972
 21
-2.835169
 31
0.0
  0
LINE
  5
739
330
1F
100
AcDbEntity
  8
1
  6
CONTINUOUS
370
50
 62
4
100
AcDbLine
 10
123.582344
 20
6.429873
 30
0.0
 11
123.625023
 21
6.552626999999999
 31
0.0
  0
LINE
  5
73A
330
1F
100
AcDbEntity
  8
1
  6
CONTINUOUS
370
50
 62
4
100
AcDbLine
 10
65.990471
 20
-3.246652
 30
0.0
 11
66.04972099999999
 21
-3.037382
 31
0.0
  0
LINE
  5
73B
330
1F
100
AcDbEntity
  8
1
  6
CONTINUOUS
370
50
 62
4
100
AcDbLine
 10
123.625023
 20
6.552626999999999
 30
0.0
 11
123.660126
 21
6.67751
 31
0.0
  0
LINE
  5
73C
330
1F
100
AcDbEntity
  8
1
  6
CONTINUOUS
370
50
 62
4
100
AcDbLine
 10
65.954994
 20
-3.462668
 30
0.0
 11
65.990471
 21
-3.246652
 31
0.0
  0
LINE
  5
73D
330
1F
100
AcDbEntity
  8
1
  6
CONTINUOUS
370
50
 62
4
100
AcDbLine
 10
65.942574
 20
-3.688128
 30
0.0
 11
65.954994
 21
-3.462668
 31
0.0
  0
LINE
  5
73E
330
1F
100
AcDbEntity
  8
1
  6
CONTINUOUS
370
50
 62
4
100
AcDbLine
 10
122.605034
 20
-0.465176
 30
0.0
 11
122.608536
 21
-0.055595
 31
0.0
  0
LINE
  5
73F
330
1F
100
AcDbEntity
  8
1
  6
CONTINUOUS
370
50
 62
4
100
AcDbLine
 10
122.601952
 20
-0.8733449999999999
 30
0.0
 11
122.605034
 21
-0.465176
 31
0.0
  0
LINE
  5
740
330
1F
100
AcDbEntity
  8
1
  6
CONTINUOUS
370
50
 62
4
100
AcDbLine
 10
122.599281
 20
-1.278674
 30
0.0
 11
122.601952
 21
-0.8733449999999999
 31
0.0
  0
LINE
  5
741
330
1F
100
AcDbEntity
  8
1
  6
CONTINUOUS
370
50
 62
4
100
AcDbLine
 10
122.597046
 20
-1.679732
 30
0.0
 11
122.599281
 21
-1.278674
 31
0.0
  0
LINE
  5
742
330
1F
100
AcDbEntity
  8
1
  6
CONTINUOUS
370
50
 62
4
100
AcDbLine
 10
122.595245
 20
-2.075092
 30
0.0
 11
122.597046
 21
-1.679732
 31
0.0
  0
LINE
  5
743
330
1F
100
AcDbEntity
  8
1
  6
CONTINUOUS
370
50
 62
4
100
AcDbLine
 10
122.593872
 20
-2.463403
 30
0.0
 11
122.595245
 21
-2.075092
 31
0.0
  0
LINE
  5
744
330
1F
100
AcDbEntity
  8
1
  6
CONTINUOUS
370
50
 62
4
100
AcDbLine
 10
122.592926
 20
-2.84337
 30
0.0
 11
122.593872
 21
-2.463403
 31
0.0
  0
LINE
  5
745
330
1F
100
AcDbEntity
  8
1
  6
CONTINUOUS
370
50
 62
4
100
AcDbLine
 10
122.592384
 20
-3.213703
 30
0.0
 11
122.592926
 21
-2.84337
 31
0.0
  0
LINE
  5
746
330
1F
100
AcDbEntity
  8
1
  6
CONTINUOUS
370
50
 62
4
100
AcDbLine
 10
122.592255
 20
-3.573261
 30
0.0
 11
122.592384
 21
-3.213703
 31
0.0
  0
LINE
  5
747
330
1F
100
AcDbEntity
  8
1
  6
CONTINUOUS
370
50
 62
4
100
AcDbLine
 10
50.0
 20
-10.0
 30
0.0
 11
50.0
 21
10.0
 31
0.0
  0
LINE
  5
748
330
1F
100
AcDbEntity
  8
1
  6
CONTINUOUS
370
50
 62
4
100
AcDbLine
 10
56.200001
 20
-9.0
 30
0.0
 11
56.200001
 21
9.0
 31
0.0
  0
LINE
  5
749
330
1F
100
AcDbEntity
  8
1
  6
CONTINUOUS
370
50
 62
4
100
AcDbLine
 10
73.7192
 20
8.882171
 30
0.0
 11
73.7192
 21
8.893975
 31
0.0
  0
LINE
  5
74A
330
1F
100
AcDbEntity
  8
1
  6
CONTINUOUS
370
50
 62
4
100
AcDbLine
 10
73.7192
 20
-8.893975
 30
0.0
 11
73.7192
 21
-8.639458
 31
0.0
  0
LINE
  5
74B
330
1F
100
AcDbEntity
  8
1
  6
CONTINUOUS
370
50
 62
4
100
AcDbLine
 10
73.7192
 20
-8.639458
 30
0.0
 11
73.7192
 21
-8.386394
 31
0.0
  0
LINE
  5
74C
330
1F
100
AcDbEntity
  8
1
  6
CONTINUOUS
370
50
 62
4
100
AcDbLine
 10
73.7192
 20
-8.386394
 30
0.0
 11
73.7192
 21
-8.135131
 31
0.0
  0
LINE
  5
74D
330
1F
100
AcDbEntity
  8
1
  6
CONTINUOUS
370
50
 62
4
100
AcDbLine
 10
73.7192
 20
-8.135131
 30
0.0
 11
73.7192
 21
-7.886022
 31
0.0
  0
LINE
  5
74E
330
1F
100
AcDbEntity
  8
1
  6
CONTINUOUS
370
50
 62
4
100
AcDbLine
 10
73.7192
 20
-7.886022
 30
0.0
 11
73.7192
 21
-7.639413999999999
 31
0.0
  0
LINE
  5
74F
330
1F
100
AcDbEntity
  8
1
  6
CONTINUOUS
370
50
 62
4
100
AcDbLine
 10
73.7192
 20
-7.639413999999999
 30
0.0
 11
73.7192
 21
-7.39579
 31
0.0
  0
LINE
  5
750
330
1F
100
AcDbEntity
  8
1
  6
CONTINUOUS
370
50
 62
4
100
AcDbLine
 10
73.7192
 20
-7.39579
 30
0.0
 11
73.7192
 21
-7.156245999999999
 31
0.0
  0
LINE
  5
751
330
1F
100
AcDbEntity
  8
1
  6
CONTINUOUS
370
50
 62
4
100
AcDbLine
 10
73.7192
 20
-7.156245999999999
 30
0.0
 11
73.7192
 21
-6.921209999999999
 31
0.0
  0
LINE
  5
752
330
1F
100
AcDbEntity
  8
1
  6
CONTINUOUS
370
50
 62
4
100
AcDbLine
 10
73.7192
 20
-6.921209999999999
 30
0.0
 11
73.7192
 21
-6.690989
 31
0.0
  0
LINE
  5
753
330
1F
100
AcDbEntity
  8
1
  6
CONTINUOUS
370
50
 62
4
100
AcDbLine
 10
73.7192
 20
-6.690989
 30
0.0
 11
73.7192
 21
-6.465889
 31
0.0
  0
LINE
  5
754
330
1F
100
AcDbEntity
  8
1
  6
CONTINUOUS
370
50
 62
4
100
AcDbLine
 10
73.7192
 20
-6.465889
 30
0.0
 11
73.7192
 21
-6.246216
 31
0.0
  0
LINE
  5
755
330
1F
100
AcDbEntity
  8
1
  6
CONTINUOUS
370
50
 62
4
100
AcDbLine
 10
73.7192
 20
-6.246216
 30
0.0
 11
73.7192
 21
-6.032274999999999
 31
0.0
  0
LINE
  5
756
330
1F
100
AcDbEntity
  8
1
  6
CONTINUOUS
370
50
 62
4
100
AcDbLine
 10
73.7192
 20
-6.032274999999999
 30
0.0
 11
73.7192
 21
-5.824371999999999
 31
0.0
  0
LINE
  5
757
330
1F
100
AcDbEntity
  8
1
  6
CONTINUOUS
370
50
 62
4
100
AcDbLine
 10
73.7192
 20
-5.824371999999999
 30
0.0
 11
73.7192
 21
-5.622814
 31
0.0
  0
LINE
  5
758
330
1F
100
AcDbEntity
  8
1
  6
CONTINUOUS
370
50
 62
4
100
AcDbLine
 10
73.7192
 20
-5.622814
 30
0.0
 11
73.7192
 21
-5.427956
 31
0.0
  0
LINE
  5
759
330
1F
100
AcDbEntity
  8
1
  6
CONTINUOUS
370
50
 62
4
100
AcDbLine
 10
73.7192
 20
-5.427956
 30
0.0
 11
73.7192
 21
-5.240534999999999
 31
0.0
  0
LINE
  5
75A
330
1F
100
AcDbEntity
  8
1
  6
CONTINUOUS
370
50
 62
4
100
AcDbLine
 10
73.7192
 20
-5.240534999999999
 30
0.0
 11
73.7192
 21
-5.060906
 31
0.0
  0
LINE
  5
75B
330
1F
100
AcDbEntity
  8
1
  6
CONTINUOUS
370
50
 62
4
100
AcDbLine
 10
73.7192
 20
-5.060906
 30
0.0
 11
73.7192
 21
-4.889311999999999
 31
0.0
  0
LINE
  5
75C
330
1F
100
AcDbEntity
  8
1
  6
CONTINUOUS
370
50
 62
4
100
AcDbLine
 10
73.7192
 20
-4.889311999999999
 30
0.0
 11
73.7192
 21
-4.725995999999999
 31
0.0
  0
LINE
  5
75D
330
1F
100
AcDbEntity
  8
1
  6
CONTINUOUS
370
50
 62
4
100
AcDbLine
 10
73.721199
 20
-4.727997999999999
 30
0.0
 11
73.721199
 21
-4.401832
 31
0.0
  0
LINE
  5
75E
330
1F
100
AcDbEntity
  8
1
  6
CONTINUOUS
370
50
 62
4
100
AcDbLine
 10
101.99913
 20
-0.152471
 30
0.0
 11
101.99913
 21
9.0
 31
0.0
  0
LINE
  5
75F
330
1F
100
AcDbEntity
  8
1
  6
CONTINUOUS
370
50
 62
4
100
AcDbLine
 10
101.99913
 20
-9.0
 30
0.0
 11
101.99913
 21
-8.474985
 31
0.0
  0
LINE
  5
760
330
1F
100
AcDbEntity
  8
1
  6
CONTINUOUS
370
50
 62
4
100
AcDbLine
 10
102.0
 20
-9.001
 30
0.0
 11
102.0
 21
9.001
 31
0.0
  0
LINE
  5
761
330
1F
100
AcDbEntity
  8
CUT
  6
CONTINUOUS
370
25
 62
1
100
AcDbLine
 10
102.0
 20
0.0
 30
0.0
 11
128.0
 21
0.0
 31
0.0
  0
LINE
  5
762
330
1F
100
AcDbEntity
  8
CUT
  6
CONTINUOUS
370
25
 62
1
100
AcDbLine
 10
128.0
 20
0.0
 30
0.0
 11
122.80384758
 21
9.0
 31
0.0
  0
LINE
  5
763
330
1F
100
AcDbEntity
  8
CUT
  6
CONTINUOUS
370
25
 62
1
100
AcDbLine
 10
122.80384758
 20
9.0
 30
0.0
 11
102.0
 21
9.0
 31
0.0
  0
LINE
  5
764
330
1F
100
AcDbEntity
  8
CUT
  6
CONTINUOUS
370
25
 62
1
100
AcDbLine
 10
102.0
 20
9.0
 30
0.0
 11
102.0
 21
0.0
 31
0.0
  0
LINE
  5
765
330
1F
100
AcDbEntity
  8
NOCUT
  6
CONTINUOUS
370
25
 62
7
100
AcDbLine
 10
50.0
 20
0.0
 30
0.0
 11
102.0
 21
0.0
 31
0.0
  0
LINE
  5
766
330
1F
100
AcDbEntity
  8
NOCUT
  6
CONTINUOUS
370
25
 62
7
100
AcDbLine
 10
102.0
 20
0.0
 30
0.0
 11
102.0
 21
9.0005
 31
0.0
  0
LINE
  5
767
330
1F
100
AcDbEntity
  8
NOCUT
  6
CONTINUOUS
370
25
 62
7
100
AcDbLine
 10
102.0
 20
9.0005
 30
0.0
 11
101.9991339745962
 21
9.0
 31
0.0
  0
LINE
  5
768
330
1F
100
AcDbEntity
  8
NOCUT
  6
CONTINUOUS
370
25
 62
7
100
AcDbLine
 10
101.9991339745962
 20
9.0
 30
0.0
 11
56.2
 21
9.0
 31
0.0
  0
LINE
  5
769
330
1F
100
AcDbEntity
  8
NOCUT
  6
CONTINUOUS
370
25
 62
7
100
AcDbLine
 10
56.2
 20
9.0
 30
0.0
 11
50.0
 21
10.0
 31
0.0
  0
LINE
  5
76A
330
1F
100
AcDbEntity
  8
NOCUT
  6
CONTINUOUS
370
25
 62
7
100
AcDbLine
 10
50.0
 20
10.0
 30
0.0
 11
50.0
 21
0.0
 31
0.0
  0
LINE
  5
76B
330
1F
100
AcDbEntity
  8
NOCUT
  6
CONTINUOUS
370
25
 62
7
100
AcDbLine
 10
102.0
 20
9.0
 30
0.0
 11
102.0
 21
0.0
 31
0.0
  0
LINE
  5
76C
330
1F
100
AcDbEntity
  8
NOCUT
  6
CONTINUOUS
370
25
 62
7
100
AcDbLine
 10
102.0
 20
9.0
 30
0.0
 11
102.0
 21
0.0
 31
0.0
  0
LINE
  5
76D
330
1F
100
AcDbEntity
  8
SK1
  6
CONTINUOUS
370
50
 62
4
100
AcDbLine
 10
50.0
 20
10.0
 30
0.0
 11
1.200000000000003
 21
10.0
 31
0.0
  0
LINE
  5
76E
330
1F
100
AcDbEntity
  8
SK1
  6
CONTINUOUS
370
50
 62
4
100
AcDbLine
 10
1.200000000000003
 20
10.0
 30
0.0
 11
0.0
 21
9.30717967697245
 31
0.0
  0
LINE
  5
76F
330
1F
100
AcDbEntity
  8
SK1
  6
CONTINUOUS
370
50
 62
4
100
AcDbLine
 10
0.0
 20
9.30717967697245
 30
0.0
 11
0.0
 21
-9.30717967697245
 31
0.0
  0
LINE
  5
770
330
1F
100
AcDbEntity
  8
SK1
  6
CONTINUOUS
370
50
 62
4
100
AcDbLine
 10
0.0
 20
-9.30717967697245
 30
0.0
 11
1.200000000000003
 21
-10.0
 31
0.0
  0
LINE
  5
771
330
1F
100
AcDbEntity
  8
SK1
  6
CONTINUOUS
370
50
 62
4
100
AcDbLine
 10
1.200000000000003
 20
-10.0
 30
0.0
 11
50.0
 21
-10.0
 31
0.0
  0
LINE
  5
772
330
1F
100
AcDbEntity
  8
SK1
  6
CONTINUOUS
370
50
 62
4
100
AcDbLine
 10
19.5
 20
-5.723635208501674
 30
0.0
 11
19.5
 21
5.723635208501674
 31
0.0
  0
LINE
  5
773
330
1F
100
AcDbEntity
  8
SK1
  6
CONTINUOUS
370
50
 62
4
100
AcDbLine
 10
19.5
 20
5.723635208501674
 30
0.0
 11
30.5
 21
5.723635208501674
 31
0.0
  0
LINE
  5
774
330
1F
100
AcDbEntity
  8
SK1
  6
CONTINUOUS
370
50
 62
4
100
AcDbLine
 10
30.5
 20
5.723635208501674
 30
0.0
 11
30.5
 21
-5.723635208501674
 31
0.0
  0
LINE
  5
775
330
1F
100
AcDbEntity
  8
SK1
  6
CONTINUOUS
370
50
 62
4
100
AcDbLine
 10
30.5
 20
-5.723635208501674
 30
0.0
 11
19.5
 21
-5.723635208501674
 31
0.0
  0
ARC
  5
776
330
1F
100
AcDbEntity
  8
SK1
  6
CONTINUOUS
370
50
 62
4
100
AcDbCircle
 10
27.70000000000001
 20
0.0000000000000027
 30
0.0
 40
10.00000000000001
100
AcDbArc
 50
145.0847937525559
 51
214.9152062474441
  0
ARC
  5
777
330
1F
100
AcDbEntity
  8
SK1
  6
CONTINUOUS
370
50
 62
4
100
AcDbCircle
 10
22.29999999999998
 20
0.0000000000000018
 30
0.0
 40
10.00000000000001
100
AcDbArc
 50
325.0847937525558
 51
34.91520624744413
  0
LINE
  5
778
330
1F
100
AcDbEntity
  8
SK1
  6
CONTINUOUS
370
50
 62
4
100
AcDbLine
 10
1.200000000000003
 20
10.0
 30
0.0
 11
1.200000000000003
 21
-10.0
 31
0.0
  0
LINE
  5
779
330
1F
100
AcDbEntity
  8
SK2
  6
CONTINUOUS
370
25
 62
7
100
AcDbLine
 10
0.0
 20
9.07623957
 30
0.0
 11
0.0
 21
21.00001
 31
0.0
  0
LINE
  5
77A
330
1F
100
AcDbEntity
  8
SK2
  6
CONTINUOUS
370
25
 62
7
100
AcDbLine
 10
50.0
 20
21.00001
 30
0.0
 11
50.0
 21
10.0
 31
0.0
  0
LINE
  5
77B
330
1F
100
AcDbEntity
  8
SK2
  6
CONTINUOUS
370
25
 62
7
100
AcDbLine
 10
0.0
 20
20.00001
 30
0.0
 11
50.0
 21
20.00001
 31
0.0
  0
LINE
  5
77C
330
1F
100
AcDbEntity
  8
SK2
  6
CONTINUOUS
370
25
 62
7
100
AcDbLine
 10
0.0
 20
20.00001
 30
0.0
 11
5.0
 21
21.00001
 31
0.0
  0
LINE
  5
77D
330
1F
100
AcDbEntity
  8
SK2
  6
CONTINUOUS
370
25
 62
7
100
AcDbLine
 10
5.0
 20
21.00001
 30
0.0
 11
5.0
 21
19.00001
 31
0.0
  0
LINE
  5
77E
330
1F
100
AcDbEntity
  8
SK2
  6
CONTINUOUS
370
25
 62
7
100
AcDbLine
 10
5.0
 20
19.00001
 30
0.0
 11
0.0
 21
20.00001
 31
0.0
  0
LINE
  5
77F
330
1F
100
AcDbEntity
  8
SK2
  6
CONTINUOUS
370
25
 62
7
100
AcDbLine
 10
4.946779687082341
 20
19.01065406258353
 30
0.0
 11
5.0
 21
19.06387437550119
 31
0.0
  0
LINE
  5
780
330
1F
100
AcDbEntity
  8
SK2
  6
CONTINUOUS
370
25
 62
7
100
AcDbLine
 10
4.593226296489057
 20
19.08136474070218
 30
0.0
 11
5.0
 21
19.48813844421313
 31
0.0
  0
LINE
  5
781
330
1F
100
AcDbEntity
  8
SK2
  6
CONTINUOUS
370
25
 62
7
100
AcDbLine
 10
4.23967290589578
 20
19.15207541882084
 30
0.0
 11
5.0
 21
19.91240251292506
 31
0.0
  0
LINE
  5
782
330
1F
100
AcDbEntity
  8
SK2
  6
CONTINUOUS
370
25
 62
7
100
AcDbLine
 10
3.886119515302511
 20
19.22278609693949
 30
0.0
 11
5.0
 21
20.33666658163698
 31
0.0
  0
LINE
  5
783
330
1F
100
AcDbEntity
  8
SK2
  6
CONTINUOUS
370
25
 62
7
100
AcDbLine
 10
3.532566124709234
 20
19.29349677505815
 30
0.0
 11
5.0
 21
20.76093065034892
 31
0.0
  0
LINE
  5
784
330
1F
100
AcDbEntity
  8
SK2
  6
CONTINUOUS
370
25
 62
7
100
AcDbLine
 10
3.179012734115958
 20
19.36420745317681
 30
0.0
 11
4.768519101173936
 21
20.95371382023479
 31
0.0
  0
LINE
  5
785
330
1F
100
AcDbEntity
  8
SK2
  6
CONTINUOUS
370
25
 62
7
100
AcDbLine
 10
2.825459343522674
 20
19.43491813129546
 30
0.0
 11
4.238189015284021
 21
20.84764780305681
 31
0.0
  0
LINE
  5
786
330
1F
100
AcDbEntity
  8
SK2
  6
CONTINUOUS
370
25
 62
7
100
AcDbLine
 10
2.471905952929411
 20
19.50562880941412
 30
0.0
 11
3.707858929394121
 21
20.74158178587883
 31
0.0
  0
LINE
  5
787
330
1F
100
AcDbEntity
  8
SK2
  6
CONTINUOUS
370
25
 62
7
100
AcDbLine
 10
2.118352562336128
 20
19.57633948753277
 30
0.0
 11
3.177528843504199
 21
20.63551576870084
 31
0.0
  0
LINE
  5
788
330
1F
100
AcDbEntity
  8
SK2
  6
CONTINUOUS
370
25
 62
7
100
AcDbLine
 10
1.764799171742851
 20
19.64705016565144
 30
0.0
 11
2.647198757614284
 21
20.52944975152286
 31
0.0
  0
LINE
  5
789
330
1F
100
AcDbEntity
  8
SK2
  6
CONTINUOUS
370
25
 62
7
100
AcDbLine
 10
1.411245781149567
 20
19.71776084377009
 30
0.0
 11
2.116868671724362
 21
20.42338373434487
 31
0.0
  0
LINE
  5
78A
330
1F
100
AcDbEntity
  8
SK2
  6
CONTINUOUS
370
25
 62
7
100
AcDbLine
 10
1.057692390556291
 20
19.78847152188875
 30
0.0
 11
1.586538585834433
 21
20.31731771716689
 31
0.0
  0
LINE
  5
78B
330
1F
100
AcDbEntity
  8
SK2
  6
CONTINUOUS
370
25
 62
7
100
AcDbLine
 10
0.7041389999630212
 20
19.8591822000074
 30
0.0
 11
1.056208499944532
 21
20.21125169998891
 31
0.0
  0
LINE
  5
78C
330
1F
100
AcDbEntity
  8
SK2
  6
CONTINUOUS
370
25
 62
7
100
AcDbLine
 10
0.3505856093697446
 20
19.92989287812605
 30
0.0
 11
0.5258784140546098
 21
20.10518568281092
 31
0.0
  0
LINE
  5
78D
330
1F
100
AcDbEntity
  8
SK2
  6
CONTINUOUS
370
25
 62
7
100
AcDbLine
 10
0.116264139628143
 20
20.02326282792563
 30
0.0
 11
0.1743962094422003
 21
19.96513075811157
 31
0.0
  0
LINE
  5
78E
330
1F
100
AcDbEntity
  8
SK2
  6
CONTINUOUS
370
25
 62
7
100
AcDbLine
 10
0.4698175302214196
 20
20.09397350604428
 30
0.0
 11
0.7047262953321223
 21
19.85906474093358
 31
0.0
  0
LINE
  5
78F
330
1F
100
AcDbEntity
  8
SK2
  6
CONTINUOUS
370
25
 62
7
100
AcDbLine
 10
0.8233709208146962
 20
20.16468418416294
 30
0.0
 11
1.235056381222037
 21
19.7529987237556
 31
0.0
  0
LINE
  5
790
330
1F
100
AcDbEntity
  8
SK2
  6
CONTINUOUS
370
25
 62
7
100
AcDbLine
 10
1.176924311407973
 20
20.23539486228159
 30
0.0
 11
1.765386467111952
 21
19.64693270657761
 31
0.0
  0
LINE
  5
791
330
1F
100
AcDbEntity
  8
SK2
  6
CONTINUOUS
370
25
 62
7
100
AcDbLine
 10
1.530477702001242
 20
20.30610554040025
 30
0.0
 11
2.29571655300186
 21
19.54086668939964
 31
0.0
  0
LINE
  5
792
330
1F
100
AcDbEntity
  8
SK2
  6
CONTINUOUS
370
25
 62
7
100
AcDbLine
 10
1.884031092594526
 20
20.3768162185189
 30
0.0
 11
2.826046638891775
 21
19.43480067222165
 31
0.0
  0
LINE
  5
793
330
1F
100
AcDbEntity
  8
SK2
  6
CONTINUOUS
370
25
 62
7
100
AcDbLine
 10
2.237584483187803
 20
20.44752689663756
 30
0.0
 11
3.356376724781697
 21
19.32873465504366
 31
0.0
  0
LINE
  5
794
330
1F
100
AcDbEntity
  8
SK2
  6
CONTINUOUS
370
25
 62
7
100
AcDbLine
 10
2.591137873781079
 20
20.51823757475621
 30
0.0
 11
3.886706810671605
 21
19.22266863786568
 31
0.0
  0
LINE
  5
795
330
1F
100
AcDbEntity
  8
SK2
  6
CONTINUOUS
370
25
 62
7
100
AcDbLine
 10
2.944691264374349
 20
20.58894825287487
 30
0.0
 11
4.41703689656152
 21
19.1166026206877
 31
0.0
  0
LINE
  5
796
330
1F
100
AcDbEntity
  8
SK2
  6
CONTINUOUS
370
25
 62
7
100
AcDbLine
 10
3.298244654967625
 20
20.65965893099353
 30
0.0
 11
4.947366982451435
 21
19.01053660350972
 31
0.0
  0
LINE
  5
797
330
1F
100
AcDbEntity
  8
SK2
  6
CONTINUOUS
370
25
 62
7
100
AcDbLine
 10
3.651798045560909
 20
20.73036960911217
 30
0.0
 11
5.0
 21
19.38216765467308
 31
0.0
  0
LINE
  5
798
330
1F
100
AcDbEntity
  8
SK2
  6
CONTINUOUS
370
25
 62
7
100
AcDbLine
 10
4.005351436154179
 20
20.80108028723084
 30
0.0
 11
5.0
 21
19.80643172338501
 31
0.0
  0
LINE
  5
799
330
1F
100
AcDbEntity
  8
SK2
  6
CONTINUOUS
370
25
 62
7
100
AcDbLine
 10
4.358904826747455
 20
20.87179096534949
 30
0.0
 11
5.0
 21
20.23069579209695
 31
0.0
  0
LINE
  5
79A
330
1F
100
AcDbEntity
  8
SK2
  6
CONTINUOUS
370
25
 62
7
100
AcDbLine
 10
4.712458217340732
 20
20.94250164346814
 30
0.0
 11
5.0
 21
20.65495986080888
 31
0.0
  0
LINE
  5
79B
330
1F
100
AcDbEntity
  8
SK2
  6
CONTINUOUS
370
25
 62
7
100
AcDbLine
 10
50.0
 20
20.00001
 30
0.0
 11
45.0
 21
19.00001
 31
0.0
  0
LINE
  5
79C
330
1F
100
AcDbEntity
  8
SK2
  6
CONTINUOUS
370
25
 62
7
100
AcDbLine
 10
45.0
 20
19.00001
 30
0.0
 11
45.0
 21
21.00001
 31
0.0
  0
LINE
  5
79D
330
1F
100
AcDbEntity
  8
SK2
  6
CONTINUOUS
370
25
 62
7
100
AcDbLine
 10
45.0
 20
21.00001
 30
0.0
 11
50.0
 21
20.00001
 31
0.0
  0
LINE
  5
79E
330
1F
100
AcDbEntity
  8
SK2
  6
CONTINUOUS
370
25
 62
7
100
AcDbLine
 10
49.54416837728432
 20
19.90884367545686
 30
0.0
 11
49.69611225152288
 21
20.06078754969542
 31
0.0
  0
LINE
  5
79F
330
1F
100
AcDbEntity
  8
SK2
  6
CONTINUOUS
370
25
 62
7
100
AcDbLine
 10
49.01383829139441
 20
19.80277765827888
 30
0.0
 11
49.34255886092961
 21
20.13149822781408
 31
0.0
  0
LINE
  5
7A0
330
1F
100
AcDbEntity
  8
SK2
  6
CONTINUOUS
370
25
 62
7
100
AcDbLine
 10
48.4835082055045
 20
19.6967116411009
 30
0.0
 11
48.98900547033633
 21
20.20220890593273
 31
0.0
  0
LINE
  5
7A1
330
1F
100
AcDbEntity
  8
SK2
  6
CONTINUOUS
370
25
 62
7
100
AcDbLine
 10
47.95317811961459
 20
19.59064562392292
 30
0.0
 11
48.63545207974306
 21
20.27291958405139
 31
0.0
  0
LINE
  5
7A2
330
1F
100
AcDbEntity
  8
SK2
  6
CONTINUOUS
370
25
 62
7
100
AcDbLine
 10
47.42284803372468
 20
19.48457960674494
 30
0.0
 11
48.28189868914978
 21
20.34363026217004
 31
0.0
  0
LINE
  5
7A3
330
1F
100
AcDbEntity
  8
SK2
  6
CONTINUOUS
370
25
 62
7
100
AcDbLine
 10
46.89251794783477
 20
19.37851358956695
 30
0.0
 11
47.92834529855651
 21
20.4143409402887
 31
0.0
  0
LINE
  5
7A4
330
1F
100
AcDbEntity
  8
SK2
  6
CONTINUOUS
370
25
 62
7
100
AcDbLine
 10
46.36218786194486
 20
19.27244757238897
 30
0.0
 11
47.57479190796324
 21
20.48505161840735
 31
0.0
  0
LINE
  5
7A5
330
1F
100
AcDbEntity
  8
SK2
  6
CONTINUOUS
370
25
 62
7
100
AcDbLine
 10
45.83185777605495
 20
19.16638155521099
 30
0.0
 11
47.22123851736997
 21
20.55576229652601
 31
0.0
  0
LINE
  5
7A6
330
1F
100
AcDbEntity
  8
SK2
  6
CONTINUOUS
370
25
 62
7
100
AcDbLine
 10
45.30152769016505
 20
19.06031553803301
 30
0.0
 11
46.86768512677669
 21
20.62647297464466
 31
0.0
  0
LINE
  5
7A7
330
1F
100
AcDbEntity
  8
SK2
  6
CONTINUOUS
370
25
 62
7
100
AcDbLine
 10
45.0
 20
19.1830519165799
 30
0.0
 11
46.51413173618342
 21
20.69718365276331
 31
0.0
  0
LINE
  5
7A8
330
1F
100
AcDbEntity
  8
SK2
  6
CONTINUOUS
370
25
 62
7
100
AcDbLine
 10
45.0
 20
19.60731598529183
 30
0.0
 11
46.16057834559015
 21
20.76789433088197
 31
0.0
  0
LINE
  5
7A9
330
1F
100
AcDbEntity
  8
SK2
  6
CONTINUOUS
370
25
 62
7
100
AcDbLine
 10
45.0
 20
20.03158005400375
 30
0.0
 11
45.80702495499688
 21
20.83860500900062
 31
0.0
  0
LINE
  5
7AA
330
1F
100
AcDbEntity
  8
SK2
  6
CONTINUOUS
370
25
 62
7
100
AcDbLine
 10
45.0
 20
20.45584412271568
 30
0.0
 11
45.4534715644036
 21
20.90931568711928
 31
0.0
  0
LINE
  5
7AB
330
1F
100
AcDbEntity
  8
SK2
  6
CONTINUOUS
370
25
 62
7
100
AcDbLine
 10
45.0
 20
20.88010819142761
 30
0.0
 11
45.09991817381033
 21
20.98002636523793
 31
0.0
  0
LINE
  5
7AC
330
1F
100
AcDbEntity
  8
SK2
  6
CONTINUOUS
370
25
 62
7
100
AcDbLine
 10
45.0
 20
19.00071426749361
 30
0.0
 11
45.000586889578
 21
19.0001273779156
 31
0.0
  0
LINE
  5
7AD
330
1F
100
AcDbEntity
  8
SK2
  6
CONTINUOUS
370
25
 62
7
100
AcDbLine
 10
45.0
 20
19.42497833620553
 30
0.0
 11
45.35414028017128
 21
19.07083805603425
 31
0.0
  0
LINE
  5
7AE
330
1F
100
AcDbEntity
  8
SK2
  6
CONTINUOUS
370
25
 62
7
100
AcDbLine
 10
45.0
 20
19.84924240491746
 30
0.0
 11
45.70769367076456
 21
19.14154873415291
 31
0.0
  0
LINE
  5
7AF
330
1F
100
AcDbEntity
  8
SK2
  6
CONTINUOUS
370
25
 62
7
100
AcDbLine
 10
45.0
 20
20.27350647362939
 30
0.0
 11
46.06124706135783
 21
19.21225941227156
 31
0.0
  0
LINE
  5
7B0
330
1F
100
AcDbEntity
  8
SK2
  6
CONTINUOUS
370
25
 62
7
100
AcDbLine
 10
45.0
 20
20.69777054234132
 30
0.0
 11
46.4148004519511
 21
19.28297009039022
 31
0.0
  0
LINE
  5
7B1
330
1F
100
AcDbEntity
  8
SK2
  6
CONTINUOUS
370
25
 62
7
100
AcDbLine
 10
45.15253076381656
 20
20.96950384723669
 30
0.0
 11
46.76835384254437
 21
19.35368076850887
 31
0.0
  0
LINE
  5
7B2
330
1F
100
AcDbEntity
  8
SK2
  6
CONTINUOUS
370
25
 62
7
100
AcDbLine
 10
45.68286084970646
 20
20.86343783005871
 30
0.0
 11
47.12190723313765
 21
19.42439144662753
 31
0.0
  0
LINE
  5
7B3
330
1F
100
AcDbEntity
  8
SK2
  6
CONTINUOUS
370
25
 62
7
100
AcDbLine
 10
46.21319093559637
 20
20.75737181288072
 30
0.0
 11
47.47546062373092
 21
19.49510212474618
 31
0.0
  0
LINE
  5
7B4
330
1F
100
AcDbEntity
  8
SK2
  6
CONTINUOUS
370
25
 62
7
100
AcDbLine
 10
46.74352102148629
 20
20.65130579570274
 30
0.0
 11
47.82901401432419
 21
19.56581280286484
 31
0.0
  0
LINE
  5
7B5
330
1F
100
AcDbEntity
  8
SK2
  6
CONTINUOUS
370
25
 62
7
100
AcDbLine
 10
47.2738511073762
 20
20.54523977852476
 30
0.0
 11
48.18256740491746
 21
19.63652348098349
 31
0.0
  0
LINE
  5
7B6
330
1F
100
AcDbEntity
  8
SK2
  6
CONTINUOUS
370
25
 62
7
100
AcDbLine
 10
47.80418119326611
 20
20.43917376134678
 30
0.0
 11
48.53612079551074
 21
19.70723415910215
 31
0.0
  0
LINE
  5
7B7
330
1F
100
AcDbEntity
  8
SK2
  6
CONTINUOUS
370
25
 62
7
100
AcDbLine
 10
48.33451127915602
 20
20.3331077441688
 30
0.0
 11
48.88967418610402
 21
19.7779448372208
 31
0.0
  0
LINE
  5
7B8
330
1F
100
AcDbEntity
  8
SK2
  6
CONTINUOUS
370
25
 62
7
100
AcDbLine
 10
48.86484136504593
 20
20.22704172699081
 30
0.0
 11
49.24322757669729
 21
19.84865551533946
 31
0.0
  0
LINE
  5
7B9
330
1F
100
AcDbEntity
  8
SK2
  6
CONTINUOUS
370
25
 62
7
100
AcDbLine
 10
49.39517145093584
 20
20.12097570981283
 30
0.0
 11
49.59678096729056
 21
19.91936619345811
 31
0.0
  0
LINE
  5
7BA
330
1F
100
AcDbEntity
  8
SK2
  6
CONTINUOUS
370
25
 62
7
100
AcDbLine
 10
49.92550153682575
 20
20.01490969263485
 30
0.0
 11
49.95033435788383
 21
19.99007687157676
 31
0.0
  0
TEXT
  5
7BB
330
1F
100
AcDbEntity
  8
SK2
  6
CONTINUOUS
370
25
 62
7
100
AcDbText
 10
22.375
 20
21.50001
 30
0.0
 40
3.5
  1
50
 72
     1
 11
25.0
 21
21.50001
 31
0.0
100
AcDbText
  0
LINE
  5
7BC
330
1F
100
AcDbEntity
  8
SK2
  6
CONTINUOUS
370
25
 62
7
100
AcDbLine
 10
0.0
 20
-10.0
 30
0.0
 11
-11.0
 21
-10.0
 31
0.0
  0
LINE
  5
7BD
330
1F
100
AcDbEntity
  8
SK2
  6
CONTINUOUS
370
25
 62
7
100
AcDbLine
 10
-11.0
 20
10.0
 30
0.0
 11
0.0
 21
10.0
 31
0.0
  0
LINE
  5
7BE
330
1F
100
AcDbEntity
  8
SK2
  6
CONTINUOUS
370
25
 62
7
100
AcDbLine
 10
-10.0
 20
-10.0
 30
0.0
 11
-10.0
 21
10.0
 31
0.0
  0
LINE
  5
7BF
330
1F
100
AcDbEntity
  8
SK2
  6
CONTINUOUS
370
25
 62
7
100
AcDbLine
 10
-10.0
 20
-10.0
 30
0.0
 11
-11.0
 21
-5.0
 31
0.0
  0
LINE
  5
7C0
330
1F
100
AcDbEntity
  8
SK2
  6
CONTINUOUS
370
25
 62
7
100
AcDbLine
 10
-11.0
 20
-5.0
 30
0.0
 11
-9.0
 21
-5.0
 31
0.0
  0
LINE
  5
7C1
330
1F
100
AcDbEntity
  8
SK2
  6
CONTINUOUS
370
25
 62
7
100
AcDbLine
 10
-9.0
 20
-5.0
 30
0.0
 11
-10.0
 21
-10.0
 31
0.0
  0
LINE
  5
7C2
330
1F
100
AcDbEntity
  8
SK2
  6
CONTINUOUS
370
25
 62
7
100
AcDbLine
 10
-10.01052668466792
 20
-9.947366576660421
 30
0.0
 11
-9.98420997299813
 21
-9.921049864990636
 31
0.0
  0
LINE
  5
7C3
330
1F
100
AcDbEntity
  8
SK2
  6
CONTINUOUS
370
25
 62
7
100
AcDbLine
 10
-10.08123736278657
 20
-9.593813186067145
 30
0.0
 11
-9.878143955820143
 21
-9.39071977910072
 31
0.0
  0
LINE
  5
7C4
330
1F
100
AcDbEntity
  8
SK2
  6
CONTINUOUS
370
25
 62
7
100
AcDbLine
 10
-10.15194804090523
 20
-9.240259795473882
 30
0.0
 11
-9.772077938642163
 21
-8.860389693210813
 31
0.0
  0
LINE
  5
7C5
330
1F
100
AcDbEntity
  8
SK2
  6
CONTINUOUS
370
25
 62
7
100
AcDbLine
 10
-10.22265871902388
 20
-8.886706404880606
 30
0.0
 11
-9.666011921464182
 21
-8.330059607320898
 31
0.0
  0
LINE
  5
7C6
330
1F
100
AcDbEntity
  8
SK2
  6
CONTINUOUS
370
25
 62
7
100
AcDbLine
 10
-10.29336939714253
 20
-8.533153014287322
 30
0.0
 11
-9.559945904286195
 21
-7.799729521430983
 31
0.0
  0
LINE
  5
7C7
330
1F
100
AcDbEntity
  8
SK2
  6
CONTINUOUS
370
25
 62
7
100
AcDbLine
 10
-10.36408007526119
 20
-8.17959962369406
 30
0.0
 11
-9.453879887108222
 21
-7.269399435541082
 31
0.0
  0
LINE
  5
7C8
330
1F
100
AcDbEntity
  8
SK2
  6
CONTINUOUS
370
25
 62
7
100
AcDbLine
 10
-10.43479075337984
 20
-7.826046233100783
 30
0.0
 11
-9.347813869930228
 21
-6.739069349651167
 31
0.0
  0
LINE
  5
7C9
330
1F
100
AcDbEntity
  8
SK2
  6
CONTINUOUS
370
25
 62
7
100
AcDbLine
 10
-10.5055014314985
 20
-7.472492842507513
 30
0.0
 11
-9.241747852752255
 21
-6.20873926376126
 31
0.0
  0
LINE
  5
7CA
330
1F
100
AcDbEntity
  8
SK2
  6
CONTINUOUS
370
25
 62
7
100
AcDbLine
 10
-10.57621210961715
 20
-7.118939451914237
 30
0.0
 11
-9.135681835574267
 21
-5.678409177871345
 31
0.0
  0
LINE
  5
7CB
330
1F
100
AcDbEntity
  8
SK2
  6
CONTINUOUS
370
25
 62
7
100
AcDbLine
 10
-10.64692278773582
 20
-6.76538606132096
 30
0.0
 11
-9.02961581839628
 21
-5.148079091981415
 31
0.0
  0
LINE
  5
7CC
330
1F
100
AcDbEntity
  8
SK2
  6
CONTINUOUS
370
25
 62
7
100
AcDbLine
 10
-10.71763346585447
 20
-6.411832670727691
 30
0.0
 11
-9.305800795126785
 21
-5.0
 31
0.0
  0
LINE
  5
7CD
330
1F
100
AcDbEntity
  8
SK2
  6
CONTINUOUS
370
25
 62
7
100
AcDbLine
 10
-10.78834414397313
 20
-6.058279280134421
 30
0.0
 11
-9.73006486383872
 21
-5.0
 31
0.0
  0
LINE
  5
7CE
330
1F
100
AcDbEntity
  8
SK2
  6
CONTINUOUS
370
25
 62
7
100
AcDbLine
 10
-10.85905482209178
 20
-5.704725889541137
 30
0.0
 11
-10.15432893255064
 21
-5.0
 31
0.0
  0
LINE
  5
7CF
330
1F
100
AcDbEntity
  8
SK2
  6
CONTINUOUS
370
25
 62
7
100
AcDbLine
 10
-10.92976550021043
 20
-5.351172498947868
 30
0.0
 11
-10.57859300126256
 21
-5.0
 31
0.0
  0
LINE
  5
7D0
330
1F
100
AcDbEntity
  8
SK2
  6
CONTINUOUS
370
25
 62
7
100
AcDbLine
 10
-10.00508235661874
 20
-9.97458821690632
 30
0.0
 11
-9.996611762254176
 21
-9.98305881127088
 31
0.0
  0
LINE
  5
7D1
330
1F
100
AcDbEntity
  8
SK2
  6
CONTINUOUS
370
25
 62
7
100
AcDbLine
 10
-10.11114837379672
 20
-9.44425813101639
 30
0.0
 11
-9.925901084135525
 21
-9.629505420677582
 31
0.0
  0
LINE
  5
7D2
330
1F
100
AcDbEntity
  8
SK2
  6
CONTINUOUS
370
25
 62
7
100
AcDbLine
 10
-10.2172143909747
 20
-8.913928045126497
 30
0.0
 11
-9.855190406016867
 21
-9.275952030084326
 31
0.0
  0
LINE
  5
7D3
330
1F
100
AcDbEntity
  8
SK2
  6
CONTINUOUS
370
25
 62
7
100
AcDbLine
 10
-10.32328040815269
 20
-8.383597959236582
 30
0.0
 11
-9.784479727898209
 21
-8.922398639491057
 31
0.0
  0
LINE
  5
7D4
330
1F
100
AcDbEntity
  8
SK2
  6
CONTINUOUS
370
25
 62
7
100
AcDbLine
 10
-10.42934642533067
 20
-7.853267873346667
 30
0.0
 11
-9.71376904977955
 21
-8.568845248897787
 31
0.0
  0
LINE
  5
7D5
330
1F
100
AcDbEntity
  8
SK2
  6
CONTINUOUS
370
25
 62
7
100
AcDbLine
 10
-10.53541244250865
 20
-7.322937787456752
 30
0.0
 11
-9.6430583716609
 21
-8.215291858304496
 31
0.0
  0
LINE
  5
7D6
330
1F
100
AcDbEntity
  8
SK2
  6
CONTINUOUS
370
25
 62
7
100
AcDbLine
 10
-10.64147845968662
 20
-6.79260770156688
 30
0.0
 11
-9.572347693542255
 21
-7.861738467711227
 31
0.0
  0
LINE
  5
7D7
330
1F
100
AcDbEntity
  8
SK2
  6
CONTINUOUS
370
25
 62
7
100
AcDbLine
 10
-10.7475444768646
 20
-6.262277615676972
 30
0.0
 11
-9.501637015423597
 21
-7.508185077117957
 31
0.0
  0
LINE
  5
7D8
330
1F
100
AcDbEntity
  8
SK2
  6
CONTINUOUS
370
25
 62
7
100
AcDbLine
 10
-10.85361049404258
 20
-5.731947529787078
 30
0.0
 11
-9.430926337304946
 21
-7.154631686524688
 31
0.0
  0
LINE
  5
7D9
330
1F
100
AcDbEntity
  8
SK2
  6
CONTINUOUS
370
25
 62
7
100
AcDbLine
 10
-10.95967651122056
 20
-5.201617443897163
 30
0.0
 11
-9.360215659186288
 21
-6.801078295931411
 31
0.0
  0
LINE
  5
7DA
330
1F
100
AcDbEntity
  8
SK2
  6
CONTINUOUS
370
25
 62
7
100
AcDbLine
 10
-10.73702988640578
 20
-5.0
 30
0.0
 11
-9.28950498106763
 21
-6.447524905338135
 31
0.0
  0
LINE
  5
7DB
330
1F
100
AcDbEntity
  8
SK2
  6
CONTINUOUS
370
25
 62
7
100
AcDbLine
 10
-10.31276581769386
 20
-5.0
 30
0.0
 11
-9.218794302948972
 21
-6.093971514744872
 31
0.0
  0
LINE
  5
7DC
330
1F
100
AcDbEntity
  8
SK2
  6
CONTINUOUS
370
25
 62
7
100
AcDbLine
 10
-9.888501748981916
 20
-5.0
 30
0.0
 11
-9.148083624830313
 21
-5.740418124151596
 31
0.0
  0
LINE
  5
7DD
330
1F
100
AcDbEntity
  8
SK2
  6
CONTINUOUS
370
25
 62
7
100
AcDbLine
 10
-9.464237680269974
 20
-5.0
 30
0.0
 11
-9.077372946711655
 21
-5.386864733558319
 31
0.0
  0
LINE
  5
7DE
330
1F
100
AcDbEntity
  8
SK2
  6
CONTINUOUS
370
25
 62
7
100
AcDbLine
 10
-9.039973611558054
 20
-5.0
 30
0.0
 11
-9.006662268593004
 21
-5.03331134296505
 31
0.0
  0
LINE
  5
7DF
330
1F
100
AcDbEntity
  8
SK2
  6
CONTINUOUS
370
25
 62
7
100
AcDbLine
 10
-10.0
 20
10.0
 30
0.0
 11
-9.0
 21
5.0
 31
0.0
  0
LINE
  5
7E0
330
1F
100
AcDbEntity
  8
SK2
  6
CONTINUOUS
370
25
 62
7
100
AcDbLine
 10
-9.0
 20
5.0
 30
0.0
 11
-11.0
 21
5.0
 31
0.0
  0
LINE
  5
7E1
330
1F
100
AcDbEntity
  8
SK2
  6
CONTINUOUS
370
25
 62
7
100
AcDbLine
 10
-11.0
 20
5.0
 30
0.0
 11
-10.0
 21
10.0
 31
0.0
  0
LINE
  5
7E2
330
1F
100
AcDbEntity
  8
SK2
  6
CONTINUOUS
370
25
 62
7
100
AcDbLine
 10
-9.063874375501172
 20
5.0
 30
0.0
 11
-9.0106457292502
 21
5.053228646250972
 31
0.0
  0
LINE
  5
7E3
330
1F
100
AcDbEntity
  8
SK2
  6
CONTINUOUS
370
25
 62
7
100
AcDbLine
 10
-9.488138444213106
 20
5.0
 30
0.0
 11
-9.081356407368851
 21
5.406782036844255
 31
0.0
  0
LINE
  5
7E4
330
1F
100
AcDbEntity
  8
SK2
  6
CONTINUOUS
370
25
 62
7
100
AcDbLine
 10
-9.912402512925041
 20
5.0
 30
0.0
 11
-9.15206708548751
 21
5.760335427437532
 31
0.0
  0
LINE
  5
7E5
330
1F
100
AcDbEntity
  8
SK2
  6
CONTINUOUS
370
25
 62
7
100
AcDbLine
 10
-10.33666658163698
 20
5.0
 30
0.0
 11
-9.22277776360616
 21
6.113888818030816
 31
0.0
  0
LINE
  5
7E6
330
1F
100
AcDbEntity
  8
SK2
  6
CONTINUOUS
370
25
 62
7
100
AcDbLine
 10
-10.7609306503489
 20
5.0
 30
0.0
 11
-9.293488441724811
 21
6.467442208624085
 31
0.0
  0
LINE
  5
7E7
330
1F
100
AcDbEntity
  8
SK2
  6
CONTINUOUS
370
25
 62
7
100
AcDbLine
 10
-10.9537013202348
 20
5.231493398826039
 30
0.0
 11
-9.36419911984347
 21
6.820995599217369
 31
0.0
  0
LINE
  5
7E8
330
1F
100
AcDbEntity
  8
SK2
  6
CONTINUOUS
370
25
 62
7
100
AcDbLine
 10
-10.84763530305681
 20
5.76182348471594
 30
0.0
 11
-9.434909797962128
 21
7.174548989810624
 31
0.0
  0
LINE
  5
7E9
330
1F
100
AcDbEntity
  8
SK2
  6
CONTINUOUS
370
25
 62
7
100
AcDbLine
 10
-10.74156928587882
 20
6.292153570605869
 30
0.0
 11
-9.505620476080786
 21
7.528102380403908
 31
0.0
  0
LINE
  5
7EA
330
1F
100
AcDbEntity
  8
SK2
  6
CONTINUOUS
370
25
 62
7
100
AcDbLine
 10
-10.63550326870084
 20
6.82248365649577
 30
0.0
 11
-9.576331154199437
 21
7.881655770997178
 31
0.0
  0
LINE
  5
7EB
330
1F
100
AcDbEntity
  8
SK2
  6
CONTINUOUS
370
25
 62
7
100
AcDbLine
 10
-10.52943725152286
 20
7.352813742385671
 30
0.0
 11
-9.647041832318095
 21
8.235209161590447
 31
0.0
  0
LINE
  5
7EC
330
1F
100
AcDbEntity
  8
SK2
  6
CONTINUOUS
370
25
 62
7
100
AcDbLine
 10
-10.42337123434488
 20
7.883143828275593
 30
0.0
 11
-9.717752510436746
 21
8.58876255218373
 31
0.0
  0
LINE
  5
7ED
330
1F
100
AcDbEntity
  8
SK2
  6
CONTINUOUS
370
25
 62
7
100
AcDbLine
 10
-10.3173052171669
 20
8.4134739141655
 30
0.0
 11
-9.788463188555397
 21
8.942315942777
 31
0.0
  0
LINE
  5
7EE
330
1F
100
AcDbEntity
  8
SK2
  6
CONTINUOUS
370
25
 62
7
100
AcDbLine
 10
-10.21123919998892
 20
8.943804000055408
 30
0.0
 11
-9.859173866674048
 21
9.295869333370277
 31
0.0
  0
LINE
  5
7EF
330
1F
100
AcDbEntity
  8
SK2
  6
CONTINUOUS
370
25
 62
7
100
AcDbLine
 10
-10.10517318281094
 20
9.474134085945323
 30
0.0
 11
-9.929884544792706
 21
9.649422723963553
 31
0.0
  0
LINE
  5
7F0
330
1F
100
AcDbEntity
  8
SK2
  6
CONTINUOUS
370
25
 62
7
100
AcDbLine
 10
-10.94624018597773
 20
5.268799070111342
 30
0.0
 11
-10.67744111586638
 21
5.0
 31
0.0
  0
LINE
  5
7F1
330
1F
100
AcDbEntity
  8
SK2
  6
CONTINUOUS
370
25
 62
7
100
AcDbLine
 10
-10.87552950785908
 20
5.622352460704626
 30
0.0
 11
-10.25317704715446
 21
5.0
 31
0.0
  0
LINE
  5
7F2
330
1F
100
AcDbEntity
  8
SK2
  6
CONTINUOUS
370
25
 62
7
100
AcDbLine
 10
-10.80481882974042
 20
5.975905851297895
 30
0.0
 11
-9.828912978442517
 21
5.0
 31
0.0
  0
LINE
  5
7F3
330
1F
100
AcDbEntity
  8
SK2
  6
CONTINUOUS
370
25
 62
7
100
AcDbLine
 10
-10.73410815162178
 20
6.329459241891172
 30
0.0
 11
-9.404648909730597
 21
5.0
 31
0.0
  0
LINE
  5
7F4
330
1F
100
AcDbEntity
  8
SK2
  6
CONTINUOUS
370
25
 62
7
100
AcDbLine
 10
-10.66339747350311
 20
6.683012632484441
 30
0.0
 11
-9.004903789745335
 21
5.02451894872668
 31
0.0
  0
LINE
  5
7F5
330
1F
100
AcDbEntity
  8
SK2
  6
CONTINUOUS
370
25
 62
7
100
AcDbLine
 10
-10.59268679538447
 20
7.036566023077718
 30
0.0
 11
-9.110969806923315
 21
5.554849034616574
 31
0.0
  0
LINE
  5
7F6
330
1F
100
AcDbEntity
  8
SK2
  6
CONTINUOUS
370
25
 62
7
100
AcDbLine
 10
-10.5219761172658
 20
7.390119413670988
 30
0.0
 11
-9.217035824101295
 21
6.085179120506496
 31
0.0
  0
LINE
  5
7F7
330
1F
100
AcDbEntity
  8
SK2
  6
CONTINUOUS
370
25
 62
7
100
AcDbLine
 10
-10.45126543914715
 20
7.743672804264257
 30
0.0
 11
-9.323101841279275
 21
6.615509206396389
 31
0.0
  0
LINE
  5
7F8
330
1F
100
AcDbEntity
  8
SK2
  6
CONTINUOUS
370
25
 62
7
100
AcDbLine
 10
-10.38055476102851
 20
8.097226194857534
 30
0.0
 11
-9.429167858457255
 21
7.145839292286297
 31
0.0
  0
LINE
  5
7F9
330
1F
100
AcDbEntity
  8
SK2
  6
CONTINUOUS
370
25
 62
7
100
AcDbLine
 10
-10.30984408290984
 20
8.450779585450796
 30
0.0
 11
-9.535233875635242
 21
7.676169378176205
 31
0.0
  0
LINE
  5
7FA
330
1F
100
AcDbEntity
  8
SK2
  6
CONTINUOUS
370
25
 62
7
100
AcDbLine
 10
-10.23913340479118
 20
8.804332976044073
 30
0.0
 11
-9.641299892813223
 21
8.20649946406612
 31
0.0
  0
LINE
  5
7FB
330
1F
100
AcDbEntity
  8
SK2
  6
CONTINUOUS
370
25
 62
7
100
AcDbLine
 10
-10.16842272667253
 20
9.157886366637342
 30
0.0
 11
-9.747365909991203
 21
8.73682954995602
 31
0.0
  0
LINE
  5
7FC
330
1F
100
AcDbEntity
  8
SK2
  6
CONTINUOUS
370
25
 62
7
100
AcDbLine
 10
-10.09771204855387
 20
9.511439757230605
 30
0.0
 11
-9.85343192716919
 21
9.267159635845935
 31
0.0
  0
LINE
  5
7FD
330
1F
100
AcDbEntity
  8
SK2
  6
CONTINUOUS
370
25
 62
7
100
AcDbLine
 10
-10.02700137043522
 20
9.864993147823888
 30
0.0
 11
-9.959497944347177
 21
9.79748972173585
 31
0.0
  0
TEXT
  5
7FE
330
1F
100
AcDbEntity
  8
SK2
  6
CONTINUOUS
370
25
 62
7
100
AcDbText
 10
-11.5
 20
-0.3500000000000001
 30
0.0
 40
3.5
  1
20
 50
90.0
 72
     1
 11
-11.5
 21
2.275
 31
0.0
100
AcDbText
  0
CIRCLE
  5
7FF
330
1F
100
AcDbEntity
  8
SK2
  6
CONTINUOUS
370
25
 62
7
100
AcDbCircle
 10
-13.25
 20
-2.625
 30
0.0
 40
1.4
  0
LINE
  5
800
330
1F
100
AcDbEntity
  8
SK2
  6
CONTINUOUS
370
25
 62
7
100
AcDbLine
 10
-11.85
 20
-4.024999999999999
 30
0.0
 11
-14.65000000000001
 21
-1.224999999999999
 31
0.0
  0
LINE
  5
801
330
1F
100
AcDbEntity
  8
2
  6
CONTINUOUS
370
25
 62
7
100
AcDbLine
 10
122.80384758
 20
-9.0
 30
0.0
 11
161.0
 21
-9.000000000000005
 31
0.0
  0
LINE
  5
802
330
1F
100
AcDbEntity
  8
2
  6
CONTINUOUS
370
25
 62
7
100
AcDbLine
 10
161.0
 20
8.999999999999995
 30
0.0
 11
122.80384758
 21
9.0
 31
0.0
  0
LINE
  5
803
330
1F
100
AcDbEntity
  8
2
  6
CONTINUOUS
370
25
 62
7
100
AcDbLine
 10
160.0
 20
-16.00000000000001
 30
0.0
 11
160.0
 21
15.99999999999999
 31
0.0
  0
LINE
  5
804
330
1F
100
AcDbEntity
  8
2
  6
CONTINUOUS
370
25
 62
7
100
AcDbLine
 10
160.0
 20
-9.000000000000005
 30
0.0
 11
161.0
 21
-14.00000000000001
 31
0.0
  0
LINE
  5
805
330
1F
100
AcDbEntity
  8
2
  6
CONTINUOUS
370
25
 62
7
100
AcDbLine
 10
161.0
 20
-14.00000000000001
 30
0.0
 11
159.0
 21
-14.00000000000001
 31
0.0
  0
LINE
  5
806
330
1F
100
AcDbEntity
  8
2
  6
CONTINUOUS
370
25
 62
7
100
AcDbLine
 10
159.0
 20
-14.00000000000001
 30
0.0
 11
160.0
 21
-9.000000000000005
 31
0.0
  0
LINE
  5
807
330
1F
100
AcDbEntity
  8
2
  6
CONTINUOUS
370
25
 62
7
100
AcDbLine
 10
160.9466619845336
 20
-14.0
 30
0.0
 11
160.9911103307556
 21
-13.95555165377797
 31
0.0
  0
LINE
  5
808
330
1F
100
AcDbEntity
  8
2
  6
CONTINUOUS
370
25
 62
7
100
AcDbLine
 10
160.5223979158216
 20
-14.0
 30
0.0
 11
160.9203996526369
 21
-13.60199826318471
 31
0.0
  0
LINE
  5
809
330
1F
100
AcDbEntity
  8
2
  6
CONTINUOUS
370
25
 62
7
100
AcDbLine
 10
160.0981338471097
 20
-14.0
 30
0.0
 11
160.8496889745183
 21
-13.24844487259142
 31
0.0
  0
LINE
  5
80A
330
1F
100
AcDbEntity
  8
2
  6
CONTINUOUS
370
25
 62
7
100
AcDbLine
 10
159.6738697783978
 20
-14.0
 30
0.0
 11
160.7789782963996
 21
-12.89489148199817
 31
0.0
  0
LINE
  5
80B
330
1F
100
AcDbEntity
  8
2
  6
CONTINUOUS
370
25
 62
7
100
AcDbLine
 10
159.2496057096859
 20
-14.0
 30
0.0
 11
160.708267618281
 21
-12.5413380914049
 31
0.0
  0
LINE
  5
80C
330
1F
100
AcDbEntity
  8
2
  6
CONTINUOUS
370
25
 62
7
100
AcDbLine
 10
159.0436645897565
 20
-13.7816770512174
 30
0.0
 11
160.6375569401623
 21
-12.18778470081162
 31
0.0
  0
LINE
  5
80D
330
1F
100
AcDbEntity
  8
2
  6
CONTINUOUS
370
25
 62
7
100
AcDbLine
 10
159.1497306069345
 20
-13.25134696532751
 30
0.0
 11
160.5668462620437
 21
-11.83423131021834
 31
0.0
  0
LINE
  5
80E
330
1F
100
AcDbEntity
  8
2
  6
CONTINUOUS
370
25
 62
7
100
AcDbLine
 10
159.2557966241125
 20
-12.7210168794376
 30
0.0
 11
160.496135583925
 21
-11.48067791962508
 31
0.0
  0
LINE
  5
80F
330
1F
100
AcDbEntity
  8
2
  6
CONTINUOUS
370
25
 62
7
100
AcDbLine
 10
159.3618626412905
 20
-12.19068679354771
 30
0.0
 11
160.4254249058064
 21
-11.1271245290318
 31
0.0
  0
LINE
  5
810
330
1F
100
AcDbEntity
  8
2
  6
CONTINUOUS
370
25
 62
7
100
AcDbLine
 10
159.4679286584685
 20
-11.6603567076578
 30
0.0
 11
160.3547142276877
 21
-10.77357113843856
 31
0.0
  0
LINE
  5
811
330
1F
100
AcDbEntity
  8
2
  6
CONTINUOUS
370
25
 62
7
100
AcDbLine
 10
159.5739946756464
 20
-11.13002662176788
 30
0.0
 11
160.284003549569
 21
-10.42001774784526
 31
0.0
  0
LINE
  5
812
330
1F
100
AcDbEntity
  8
2
  6
CONTINUOUS
370
25
 62
7
100
AcDbLine
 10
159.6800606928244
 20
-10.59969653587798
 30
0.0
 11
160.2132928714504
 21
-10.066464357252
 31
0.0
  0
LINE
  5
813
330
1F
100
AcDbEntity
  8
2
  6
CONTINUOUS
370
25
 62
7
100
AcDbLine
 10
159.7861267100024
 20
-10.06936644998808
 30
0.0
 11
160.1425821933317
 21
-9.712910966658725
 31
0.0
  0
LINE
  5
814
330
1F
100
AcDbEntity
  8
2
  6
CONTINUOUS
370
25
 62
7
100
AcDbLine
 10
159.8921927271804
 20
-9.539036364098166
 30
0.0
 11
160.0718715152131
 21
-9.359357576065449
 31
0.0
  0
LINE
  5
815
330
1F
100
AcDbEntity
  8
2
  6
CONTINUOUS
370
25
 62
7
100
AcDbLine
 10
159.9982587443583
 20
-9.008706278208265
 30
0.0
 11
160.0011608370945
 21
-9.005804185472172
 31
0.0
  0
LINE
  5
816
330
1F
100
AcDbEntity
  8
2
  6
CONTINUOUS
370
25
 62
7
100
AcDbLine
 10
159.0058585652454
 20
-13.97070717377285
 30
0.0
 11
159.0351513914726
 21
-14.0
 31
0.0
  0
LINE
  5
817
330
1F
100
AcDbEntity
  8
2
  6
CONTINUOUS
370
25
 62
7
100
AcDbLine
 10
159.0765692433641
 20
-13.61715378317959
 30
0.0
 11
159.4594154601845
 21
-14.0
 31
0.0
  0
LINE
  5
818
330
1F
100
AcDbEntity
  8
2
  6
CONTINUOUS
370
25
 62
7
100
AcDbLine
 10
159.1472799214827
 20
-13.2636003925863
 30
0.0
 11
159.8836795288964
 21
-14.0
 31
0.0
  0
LINE
  5
819
330
1F
100
AcDbEntity
  8
2
  6
CONTINUOUS
370
25
 62
7
100
AcDbLine
 10
159.2179905996014
 20
-12.91004700199304
 30
0.0
 11
160.3079435976084
 21
-14.0
 31
0.0
  0
LINE
  5
81A
330
1F
100
AcDbEntity
  8
2
  6
CONTINUOUS
370
25
 62
7
100
AcDbLine
 10
159.28870127772
 20
-12.55649361139976
 30
0.0
 11
160.7322076663203
 21
-14.0
 31
0.0
  0
LINE
  5
81B
330
1F
100
AcDbEntity
  8
2
  6
CONTINUOUS
370
25
 62
7
100
AcDbLine
 10
159.3594119558387
 20
-12.20294022080648
 30
0.0
 11
160.960882066242
 21
-13.80441033120975
 31
0.0
  0
LINE
  5
81C
330
1F
100
AcDbEntity
  8
2
  6
CONTINUOUS
370
25
 62
7
100
AcDbLine
 10
159.4301226339574
 20
-11.84938683021321
 30
0.0
 11
160.854816049064
 21
-13.27408024531982
 31
0.0
  0
LINE
  5
81D
330
1F
100
AcDbEntity
  8
2
  6
CONTINUOUS
370
25
 62
7
100
AcDbLine
 10
159.500833312076
 20
-11.49583343961993
 30
0.0
 11
160.748750031886
 21
-12.74375015942992
 31
0.0
  0
LINE
  5
81E
330
1F
100
AcDbEntity
  8
2
  6
CONTINUOUS
370
25
 62
7
100
AcDbLine
 10
159.5715439901946
 20
-11.14228004902668
 30
0.0
 11
160.642684014708
 21
-12.21342007354004
 31
0.0
  0
LINE
  5
81F
330
1F
100
AcDbEntity
  8
2
  6
CONTINUOUS
370
25
 62
7
100
AcDbLine
 10
159.6422546683133
 20
-10.78872665843342
 30
0.0
 11
160.53661799753
 21
-11.68308998765011
 31
0.0
  0
LINE
  5
820
330
1F
100
AcDbEntity
  8
2
  6
CONTINUOUS
370
25
 62
7
100
AcDbLine
 10
159.712965346432
 20
-10.43517326784014
 30
0.0
 11
160.430551980352
 21
-11.15275990176022
 31
0.0
  0
LINE
  5
821
330
1F
100
AcDbEntity
  8
2
  6
CONTINUOUS
370
25
 62
7
100
AcDbLine
 10
159.7836760245506
 20
-10.08161987724688
 30
0.0
 11
160.3244859631741
 21
-10.6224298158703
 31
0.0
  0
LINE
  5
822
330
1F
100
AcDbEntity
  8
2
  6
CONTINUOUS
370
25
 62
7
100
AcDbLine
 10
159.8543867026693
 20
-9.728066486653603
 30
0.0
 11
160.2184199459961
 21
-10.09209972998039
 31
0.0
  0
LINE
  5
823
330
1F
100
AcDbEntity
  8
2
  6
CONTINUOUS
370
25
 62
7
100
AcDbLine
 10
159.9250973807879
 20
-9.374513096060326
 30
0.0
 11
160.1123539288181
 21
-9.561769644090504
 31
0.0
  0
LINE
  5
824
330
1F
100
AcDbEntity
  8
2
  6
CONTINUOUS
370
25
 62
7
100
AcDbLine
 10
159.9958080589066
 20
-9.020959705467078
 30
0.0
 11
160.0062879116401
 21
-9.031439558200589
 31
0.0
  0
LINE
  5
825
330
1F
100
AcDbEntity
  8
2
  6
CONTINUOUS
370
25
 62
7
100
AcDbLine
 10
160.0
 20
8.999999999999995
 30
0.0
 11
159.0
 21
13.99999999999999
 31
0.0
  0
LINE
  5
826
330
1F
100
AcDbEntity
  8
2
  6
CONTINUOUS
370
25
 62
7
100
AcDbLine
 10
159.0
 20
13.99999999999999
 30
0.0
 11
161.0
 21
13.99999999999999
 31
0.0
  0
LINE
  5
827
330
1F
100
AcDbEntity
  8
2
  6
CONTINUOUS
370
25
 62
7
100
AcDbLine
 10
161.0
 20
13.99999999999999
 30
0.0
 11
160.0
 21
8.999999999999995
 31
0.0
  0
LINE
  5
828
330
1F
100
AcDbEntity
  8
2
  6
CONTINUOUS
370
25
 62
7
100
AcDbLine
 10
159.9306882481403
 20
9.346558759298489
 30
0.0
 11
160.1039676277895
 21
9.519838138947733
 31
0.0
  0
LINE
  5
829
330
1F
100
AcDbEntity
  8
2
  6
CONTINUOUS
370
25
 62
7
100
AcDbLine
 10
159.8599775700217
 20
9.700112149891766
 30
0.0
 11
160.2100336449675
 21
10.05016822483763
 31
0.0
  0
LINE
  5
82A
330
1F
100
AcDbEntity
  8
2
  6
CONTINUOUS
370
25
 62
7
100
AcDbLine
 10
159.789266891903
 20
10.05366554048501
 30
0.0
 11
160.3160996621455
 21
10.58049831072753
 31
0.0
  0
LINE
  5
82B
330
1F
100
AcDbEntity
  8
2
  6
CONTINUOUS
370
25
 62
7
100
AcDbLine
 10
159.7185562137843
 20
10.40721893107829
 30
0.0
 11
160.4221656793235
 21
11.11082839661744
 31
0.0
  0
LINE
  5
82C
330
1F
100
AcDbEntity
  8
2
  6
CONTINUOUS
370
25
 62
7
100
AcDbLine
 10
159.6478455356657
 20
10.76077232167157
 30
0.0
 11
160.5282316965015
 21
11.64115848250736
 31
0.0
  0
LINE
  5
82D
330
1F
100
AcDbEntity
  8
2
  6
CONTINUOUS
370
25
 62
7
100
AcDbLine
 10
159.577134857547
 20
11.11432571226484
 30
0.0
 11
160.6342977136794
 21
12.17148856839725
 31
0.0
  0
LINE
  5
82E
330
1F
100
AcDbEntity
  8
2
  6
CONTINUOUS
370
25
 62
7
100
AcDbLine
 10
159.5064241794284
 20
11.46787910285811
 30
0.0
 11
160.7403637308574
 21
12.70181865428717
 31
0.0
  0
LINE
  5
82F
330
1F
100
AcDbEntity
  8
2
  6
CONTINUOUS
370
25
 62
7
100
AcDbLine
 10
159.4357135013097
 20
11.82143249345138
 30
0.0
 11
160.8464297480354
 21
13.23214874017705
 31
0.0
  0
LINE
  5
830
330
1F
100
AcDbEntity
  8
2
  6
CONTINUOUS
370
25
 62
7
100
AcDbLine
 10
159.365002823191
 20
12.17498588404464
 30
0.0
 11
160.9524957652134
 21
13.76247882606698
 31
0.0
  0
LINE
  5
831
330
1F
100
AcDbEntity
  8
2
  6
CONTINUOUS
370
25
 62
7
100
AcDbLine
 10
159.2942921450724
 20
12.52853927463792
 30
0.0
 11
160.7657528704345
 21
14.0
 31
0.0
  0
LINE
  5
832
330
1F
100
AcDbEntity
  8
2
  6
CONTINUOUS
370
25
 62
7
100
AcDbLine
 10
159.2235814669538
 20
12.88209266523118
 30
0.0
 11
160.3414888017226
 21
14.0
 31
0.0
  0
LINE
  5
833
330
1F
100
AcDbEntity
  8
2
  6
CONTINUOUS
370
25
 62
7
100
AcDbLine
 10
159.1528707888351
 20
13.23564605582447
 30
0.0
 11
159.9172247330106
 21
14.0
 31
0.0
  0
LINE
  5
834
330
1F
100
AcDbEntity
  8
2
  6
CONTINUOUS
370
25
 62
7
100
AcDbLine
 10
159.0821601107165
 20
13.58919944641774
 30
0.0
 11
159.4929606642987
 21
14.0
 31
0.0
  0
LINE
  5
835
330
1F
100
AcDbEntity
  8
2
  6
CONTINUOUS
370
25
 62
7
100
AcDbLine
 10
159.0114494325978
 20
13.94275283701099
 30
0.0
 11
159.0686965955868
 21
14.0
 31
0.0
  0
LINE
  5
836
330
1F
100
AcDbEntity
  8
2
  6
CONTINUOUS
370
25
 62
7
100
AcDbLine
 10
159.9454491729869
 20
9.272754135065483
 30
0.0
 11
160.0363672180087
 21
9.181836090043674
 31
0.0
  0
LINE
  5
837
330
1F
100
AcDbEntity
  8
2
  6
CONTINUOUS
370
25
 62
7
100
AcDbLine
 10
159.8393831558089
 20
9.803084220955398
 30
0.0
 11
160.1070778961274
 21
9.535389480636937
 31
0.0
  0
LINE
  5
838
330
1F
100
AcDbEntity
  8
2
  6
CONTINUOUS
370
25
 62
7
100
AcDbLine
 10
159.7333171386309
 20
10.3334143068453
 30
0.0
 11
160.1777885742461
 21
9.888942871230185
 31
0.0
  0
LINE
  5
839
330
1F
100
AcDbEntity
  8
2
  6
CONTINUOUS
370
25
 62
7
100
AcDbLine
 10
159.627251121453
 20
10.86374439273521
 30
0.0
 11
160.2484992523647
 21
10.24249626182348
 31
0.0
  0
LINE
  5
83A
330
1F
100
AcDbEntity
  8
2
  6
CONTINUOUS
370
25
 62
7
100
AcDbLine
 10
159.521185104275
 20
11.39407447862511
 30
0.0
 11
160.3192099304833
 21
10.59604965241674
 31
0.0
  0
LINE
  5
83B
330
1F
100
AcDbEntity
  8
2
  6
CONTINUOUS
370
25
 62
7
100
AcDbLine
 10
159.415119087097
 20
11.92440456451502
 30
0.0
 11
160.389920608602
 21
10.94960304301
 31
0.0
  0
LINE
  5
83C
330
1F
100
AcDbEntity
  8
2
  6
CONTINUOUS
370
25
 62
7
100
AcDbLine
 10
159.309053069919
 20
12.45473465040493
 30
0.0
 11
160.4606312867207
 21
11.30315643360329
 31
0.0
  0
LINE
  5
83D
330
1F
100
AcDbEntity
  8
2
  6
CONTINUOUS
370
25
 62
7
100
AcDbLine
 10
159.202987052741
 20
12.98506473629482
 30
0.0
 11
160.5313419648393
 21
11.65670982419657
 31
0.0
  0
LINE
  5
83E
330
1F
100
AcDbEntity
  8
2
  6
CONTINUOUS
370
25
 62
7
100
AcDbLine
 10
159.0969210355631
 20
13.51539482218472
 30
0.0
 11
160.602052642958
 21
12.01026321478982
 31
0.0
  0
LINE
  5
83F
330
1F
100
AcDbEntity
  8
2
  6
CONTINUOUS
370
25
 62
7
100
AcDbLine
 10
159.0365799264597
 20
14.0
 30
0.0
 11
160.6727633210766
 21
12.36381660538309
 31
0.0
  0
LINE
  5
840
330
1F
100
AcDbEntity
  8
2
  6
CONTINUOUS
370
25
 62
7
100
AcDbLine
 10
159.4608439951716
 20
14.0
 30
0.0
 11
160.7434739991953
 21
12.71736999597636
 31
0.0
  0
LINE
  5
841
330
1F
100
AcDbEntity
  8
2
  6
CONTINUOUS
370
25
 62
7
100
AcDbLine
 10
159.8851080638835
 20
14.0
 30
0.0
 11
160.8141846773139
 21
13.07092338656963
 31
0.0
  0
LINE
  5
842
330
1F
100
AcDbEntity
  8
2
  6
CONTINUOUS
370
25
 62
7
100
AcDbLine
 10
160.3093721325955
 20
14.0
 30
0.0
 11
160.8848953554326
 21
13.42447677716289
 31
0.0
  0
LINE
  5
843
330
1F
100
AcDbEntity
  8
2
  6
CONTINUOUS
370
25
 62
7
100
AcDbLine
 10
160.7336362013074
 20
14.0
 30
0.0
 11
160.9556060335512
 21
13.77803016775619
 31
0.0
  0
TEXT
  5
844
330
1F
100
AcDbEntity
  8
2
  6
CONTINUOUS
370
25
 62
7
100
AcDbText
 10
158.5
 20
-0.0583333333333336
 30
0.0
 40
3.5
  1
18
 50
90.0
 72
     1
 11
158.5
 21
2.275
 31
0.0
100
AcDbText
  0
CIRCLE
  5
845
330
1F
100
AcDbEntity
  8
2
  6
CONTINUOUS
370
25
 62
7
100
AcDbCircle
 10
156.75
 20
-2.625
 30
0.0
 40
1.4
  0
LINE
  5
846
330
1F
100
AcDbEntity
  8
2
  6
CONTINUOUS
370
25
 62
7
100
AcDbLine
 10
158.15
 20
-4.024999999999999
 30
0.0
 11
155.35
 21
-1.224999999999999
 31
0.0
  0
LINE
  5
847
330
1F
100
AcDbEntity
  8
2
  6
CONTINUOUS
370
25
 62
7
100
AcDbLine
 10
50.0
 20
10.0
 30
0.0
 11
50.0
 21
33.0
 31
0.0
  0
LINE
  5
848
330
1F
100
AcDbEntity
  8
2
  6
CONTINUOUS
370
25
 62
7
100
AcDbLine
 10
128.0
 20
33.0
 30
0.0
 11
128.0
 21
0.0
 31
0.0
  0
LINE
  5
849
330
1F
100
AcDbEntity
  8
2
  6
CONTINUOUS
370
25
 62
7
100
AcDbLine
 10
50.0
 20
32.0
 30
0.0
 11
128.0
 21
32.0
 31
0.0
  0
LINE
  5
84A
330
1F
100
AcDbEntity
  8
2
  6
CONTINUOUS
370
25
 62
7
100
AcDbLine
 10
50.0
 20
32.0
 30
0.0
 11
55.0
 21
33.0
 31
0.0
  0
LINE
  5
84B
330
1F
100
AcDbEntity
  8
2
  6
CONTINUOUS
370
25
 62
7
100
AcDbLine
 10
55.0
 20
33.0
 30
0.0
 11
55.0
 21
31.0
 31
0.0
  0
LINE
  5
84C
330
1F
100
AcDbEntity
  8
2
  6
CONTINUOUS
370
25
 62
7
100
AcDbLine
 10
55.0
 20
31.0
 30
0.0
 11
50.0
 21
32.0
 31
0.0
  0
LINE
  5
84D
330
1F
100
AcDbEntity
  8
2
  6
CONTINUOUS
370
25
 62
7
100
AcDbLine
 10
54.74635644988373
 20
31.05072871002325
 30
0.0
 11
55.0
 21
31.30437226013953
 31
0.0
  0
LINE
  5
84E
330
1F
100
AcDbEntity
  8
2
  6
CONTINUOUS
370
25
 62
7
100
AcDbLine
 10
54.39280305929046
 20
31.12143938814191
 30
0.0
 11
55.0
 21
31.72863632885146
 31
0.0
  0
LINE
  5
84F
330
1F
100
AcDbEntity
  8
2
  6
CONTINUOUS
370
25
 62
7
100
AcDbLine
 10
54.03924966869718
 20
31.19215006626056
 30
0.0
 11
55.0
 21
32.15290039756339
 31
0.0
  0
LINE
  5
850
330
1F
100
AcDbEntity
  8
2
  6
CONTINUOUS
370
25
 62
7
100
AcDbLine
 10
53.6856962781039
 20
31.26286074437922
 30
0.0
 11
55.0
 21
32.57716446627531
 31
0.0
  0
LINE
  5
851
330
1F
100
AcDbEntity
  8
2
  6
CONTINUOUS
370
25
 62
7
100
AcDbLine
 10
53.33214288751063
 20
31.33357142249788
 30
0.0
 11
54.99821433126594
 21
32.99964286625319
 31
0.0
  0
LINE
  5
852
330
1F
100
AcDbEntity
  8
2
  6
CONTINUOUS
370
25
 62
7
100
AcDbLine
 10
52.97858949691736
 20
31.40428210061653
 30
0.0
 11
54.46788424537603
 21
32.8935768490752
 31
0.0
  0
LINE
  5
853
330
1F
100
AcDbEntity
  8
2
  6
CONTINUOUS
370
25
 62
7
100
AcDbLine
 10
52.62503610632408
 20
31.47499277873519
 30
0.0
 11
53.93755415948611
 21
32.78751083189722
 31
0.0
  0
LINE
  5
854
330
1F
100
AcDbEntity
  8
2
  6
CONTINUOUS
370
25
 62
7
100
AcDbLine
 10
52.27148271573081
 20
31.54570345685384
 30
0.0
 11
53.4072240735962
 21
32.68144481471924
 31
0.0
  0
LINE
  5
855
330
1F
100
AcDbEntity
  8
2
  6
CONTINUOUS
370
25
 62
7
100
AcDbLine
 10
51.91792932513753
 20
31.61641413497249
 30
0.0
 11
52.8768939877063
 21
32.57537879754126
 31
0.0
  0
LINE
  5
856
330
1F
100
AcDbEntity
  8
2
  6
CONTINUOUS
370
25
 62
7
100
AcDbLine
 10
51.56437593454426
 20
31.68712481309115
 30
0.0
 11
52.34656390181639
 21
32.46931278036327
 31
0.0
  0
LINE
  5
857
330
1F
100
AcDbEntity
  8
2
  6
CONTINUOUS
370
25
 62
7
100
AcDbLine
 10
51.21082254395098
 20
31.7578354912098
 30
0.0
 11
51.81623381592647
 21
32.36324676318529
 31
0.0
  0
LINE
  5
858
330
1F
100
AcDbEntity
  8
2
  6
CONTINUOUS
370
25
 62
7
100
AcDbLine
 10
50.85726915335771
 20
31.82854616932846
 30
0.0
 11
51.28590373003657
 21
32.25718074600731
 31
0.0
  0
LINE
  5
859
330
1F
100
AcDbEntity
  8
2
  6
CONTINUOUS
370
25
 62
7
100
AcDbLine
 10
50.50371576276444
 20
31.89925684744711
 30
0.0
 11
50.75557364414665
 21
32.15111472882933
 31
0.0
  0
LINE
  5
85A
330
1F
100
AcDbEntity
  8
2
  6
CONTINUOUS
370
25
 62
7
100
AcDbLine
 10
50.15016237217116
 20
31.96996752556577
 30
0.0
 11
50.22524355825674
 21
32.04504871165135
 31
0.0
  0
LINE
  5
85B
330
1F
100
AcDbEntity
  8
2
  6
CONTINUOUS
370
25
 62
7
100
AcDbLine
 10
50.20339101842211
 20
32.04067820368442
 30
0.0
 11
50.30508652763316
 21
31.93898269447337
 31
0.0
  0
LINE
  5
85C
330
1F
100
AcDbEntity
  8
2
  6
CONTINUOUS
370
25
 62
7
100
AcDbLine
 10
50.55694440901539
 20
32.11138888180308
 30
0.0
 11
50.83541661352308
 21
31.83291667729538
 31
0.0
  0
LINE
  5
85D
330
1F
100
AcDbEntity
  8
2
  6
CONTINUOUS
370
25
 62
7
100
AcDbLine
 10
50.91049779960866
 20
32.18209955992173
 30
0.0
 11
51.36574669941299
 21
31.7268506601174
 31
0.0
  0
LINE
  5
85E
330
1F
100
AcDbEntity
  8
2
  6
CONTINUOUS
370
25
 62
7
100
AcDbLine
 10
51.26405119020194
 20
32.25281023804039
 30
0.0
 11
51.8960767853029
 21
31.62078464293942
 31
0.0
  0
LINE
  5
85F
330
1F
100
AcDbEntity
  8
2
  6
CONTINUOUS
370
25
 62
7
100
AcDbLine
 10
51.61760458079521
 20
32.32352091615904
 30
0.0
 11
52.42640687119281
 21
31.51471862576144
 31
0.0
  0
LINE
  5
860
330
1F
100
AcDbEntity
  8
2
  6
CONTINUOUS
370
25
 62
7
100
AcDbLine
 10
51.97115797138849
 20
32.3942315942777
 30
0.0
 11
52.95673695708273
 21
31.40865260858346
 31
0.0
  0
LINE
  5
861
330
1F
100
AcDbEntity
  8
2
  6
CONTINUOUS
370
25
 62
7
100
AcDbLine
 10
52.32471136198176
 20
32.46494227239635
 30
0.0
 11
53.48706704297263
 21
31.30258659140548
 31
0.0
  0
LINE
  5
862
330
1F
100
AcDbEntity
  8
2
  6
CONTINUOUS
370
25
 62
7
100
AcDbLine
 10
52.67826475257503
 20
32.53565295051501
 30
0.0
 11
54.01739712886255
 21
31.19652057422749
 31
0.0
  0
LINE
  5
863
330
1F
100
AcDbEntity
  8
2
  6
CONTINUOUS
370
25
 62
7
100
AcDbLine
 10
53.03181814316831
 20
32.60636362863366
 30
0.0
 11
54.54772721475245
 21
31.09045455704951
 31
0.0
  0
LINE
  5
864
330
1F
100
AcDbEntity
  8
2
  6
CONTINUOUS
370
25
 62
7
100
AcDbLine
 10
53.38537153376159
 20
32.67707430675232
 30
0.0
 11
55.0
 21
31.06244584051389
 31
0.0
  0
LINE
  5
865
330
1F
100
AcDbEntity
  8
2
  6
CONTINUOUS
370
25
 62
7
100
AcDbLine
 10
53.73892492435486
 20
32.74778498487098
 30
0.0
 11
55.0
 21
31.48670990922582
 31
0.0
  0
LINE
  5
866
330
1F
100
AcDbEntity
  8
2
  6
CONTINUOUS
370
25
 62
7
100
AcDbLine
 10
54.09247831494812
 20
32.81849566298963
 30
0.0
 11
55.0
 21
31.91097397793775
 31
0.0
  0
LINE
  5
867
330
1F
100
AcDbEntity
  8
2
  6
CONTINUOUS
370
25
 62
7
100
AcDbLine
 10
54.4460317055414
 20
32.88920634110828
 30
0.0
 11
55.0
 21
32.33523804664968
 31
0.0
  0
LINE
  5
868
330
1F
100
AcDbEntity
  8
2
  6
CONTINUOUS
370
25
 62
7
100
AcDbLine
 10
54.79958509613468
 20
32.95991701922694
 30
0.0
 11
55.0
 21
32.75950211536161
 31
0.0
  0
LINE
  5
869
330
1F
100
AcDbEntity
  8
2
  6
CONTINUOUS
370
25
 62
7
100
AcDbLine
 10
128.0
 20
32.0
 30
0.0
 11
123.0
 21
31.0
 31
0.0
  0
LINE
  5
86A
330
1F
100
AcDbEntity
  8
2
  6
CONTINUOUS
370
25
 62
7
100
AcDbLine
 10
123.0
 20
31.0
 30
0.0
 11
123.0
 21
33.0
 31
0.0
  0
LINE
  5
86B
330
1F
100
AcDbEntity
  8
2
  6
CONTINUOUS
370
25
 62
7
100
AcDbLine
 10
123.0
 20
33.0
 30
0.0
 11
128.0
 21
32.0
 31
0.0
  0
LINE
  5
86C
330
1F
100
AcDbEntity
  8
2
  6
CONTINUOUS
370
25
 62
7
100
AcDbLine
 10
127.6730730267405
 20
31.9346146053481
 30
0.0
 11
127.7820486844937
 21
32.04359026310127
 31
0.0
  0
LINE
  5
86D
330
1F
100
AcDbEntity
  8
2
  6
CONTINUOUS
370
25
 62
7
100
AcDbLine
 10
127.1427429408506
 20
31.82854858817012
 30
0.0
 11
127.4284952939004
 21
32.11430094121991
 31
0.0
  0
LINE
  5
86E
330
1F
100
AcDbEntity
  8
2
  6
CONTINUOUS
370
25
 62
7
100
AcDbLine
 10
126.6124128549607
 20
31.72248257099214
 30
0.0
 11
127.0749419033072
 21
32.18501161933858
 31
0.0
  0
LINE
  5
86F
330
1F
100
AcDbEntity
  8
2
  6
CONTINUOUS
370
25
 62
7
100
AcDbLine
 10
126.0820827690708
 20
31.61641655381415
 30
0.0
 11
126.7213885127139
 21
32.25572229745723
 31
0.0
  0
LINE
  5
870
330
1F
100
AcDbEntity
  8
2
  6
CONTINUOUS
370
25
 62
7
100
AcDbLine
 10
125.5517526831809
 20
31.51035053663619
 30
0.0
 11
126.3678351221206
 21
32.32643297557589
 31
0.0
  0
LINE
  5
871
330
1F
100
AcDbEntity
  8
2
  6
CONTINUOUS
370
25
 62
7
100
AcDbLine
 10
125.021422597291
 20
31.4042845194582
 30
0.0
 11
126.0142817315273
 21
32.39714365369454
 31
0.0
  0
LINE
  5
872
330
1F
100
AcDbEntity
  8
2
  6
CONTINUOUS
370
25
 62
7
100
AcDbLine
 10
124.4910925114011
 20
31.29821850228022
 30
0.0
 11
125.6607283409341
 21
32.46785433181319
 31
0.0
  0
LINE
  5
873
330
1F
100
AcDbEntity
  8
2
  6
CONTINUOUS
370
25
 62
7
100
AcDbLine
 10
123.9607624255112
 20
31.19215248510224
 30
0.0
 11
125.3071749503408
 21
32.53856500993183
 31
0.0
  0
LINE
  5
874
330
1F
100
AcDbEntity
  8
2
  6
CONTINUOUS
370
25
 62
7
100
AcDbLine
 10
123.4304323396213
 20
31.08608646792425
 30
0.0
 11
124.9536215597475
 21
32.60927568805051
 31
0.0
  0
LINE
  5
875
330
1F
100
AcDbEntity
  8
2
  6
CONTINUOUS
370
25
 62
7
100
AcDbLine
 10
123.0
 20
31.07991819701489
 30
0.0
 11
124.6000681691543
 21
32.67998636616916
 31
0.0
  0
LINE
  5
876
330
1F
100
AcDbEntity
  8
2
  6
CONTINUOUS
370
25
 62
7
100
AcDbLine
 10
123.0
 20
31.50418226572681
 30
0.0
 11
124.246514778561
 21
32.7506970442878
 31
0.0
  0
LINE
  5
877
330
1F
100
AcDbEntity
  8
2
  6
CONTINUOUS
370
25
 62
7
100
AcDbLine
 10
123.0
 20
31.92844633443875
 30
0.0
 11
123.8929613879677
 21
32.82140772240646
 31
0.0
  0
LINE
  5
878
330
1F
100
AcDbEntity
  8
2
  6
CONTINUOUS
370
25
 62
7
100
AcDbLine
 10
123.0
 20
32.35271040315067
 30
0.0
 11
123.5394079973744
 21
32.89211840052511
 31
0.0
  0
LINE
  5
879
330
1F
100
AcDbEntity
  8
2
  6
CONTINUOUS
370
25
 62
7
100
AcDbLine
 10
123.0
 20
32.7769744718626
 30
0.0
 11
123.1858546067812
 21
32.96282907864376
 31
0.0
  0
LINE
  5
87A
330
1F
100
AcDbEntity
  8
2
  6
CONTINUOUS
370
25
 62
7
100
AcDbLine
 10
123.0
 20
31.36896090313462
 30
0.0
 11
123.3074674192789
 21
31.06149348385577
 31
0.0
  0
LINE
  5
87B
330
1F
100
AcDbEntity
  8
2
  6
CONTINUOUS
370
25
 62
7
100
AcDbLine
 10
123.0
 20
31.79322497184656
 30
0.0
 11
123.6610208098721
 21
31.13220416197443
 31
0.0
  0
LINE
  5
87C
330
1F
100
AcDbEntity
  8
2
  6
CONTINUOUS
370
25
 62
7
100
AcDbLine
 10
123.0
 20
32.21748904055846
 30
0.0
 11
124.0145742004654
 21
31.20291484009307
 31
0.0
  0
LINE
  5
87D
330
1F
100
AcDbEntity
  8
2
  6
CONTINUOUS
370
25
 62
7
100
AcDbLine
 10
123.0
 20
32.64175310927041
 30
0.0
 11
124.3681275910587
 21
31.27362551821174
 31
0.0
  0
LINE
  5
87E
330
1F
100
AcDbEntity
  8
2
  6
CONTINUOUS
370
25
 62
7
100
AcDbLine
 10
123.0825214724779
 20
32.98349570550442
 30
0.0
 11
124.7216809816519
 21
31.34433619633039
 31
0.0
  0
LINE
  5
87F
330
1F
100
AcDbEntity
  8
2
  6
CONTINUOUS
370
25
 62
7
100
AcDbLine
 10
123.6128515583678
 20
32.87742968832643
 30
0.0
 11
125.0752343722452
 21
31.41504687444905
 31
0.0
  0
LINE
  5
880
330
1F
100
AcDbEntity
  8
2
  6
CONTINUOUS
370
25
 62
7
100
AcDbLine
 10
124.1431816442577
 20
32.77136367114846
 30
0.0
 11
125.4287877628385
 21
31.4857575525677
 31
0.0
  0
LINE
  5
881
330
1F
100
AcDbEntity
  8
2
  6
CONTINUOUS
370
25
 62
7
100
AcDbLine
 10
124.6735117301476
 20
32.66529765397048
 30
0.0
 11
125.7823411534318
 21
31.55646823068633
 31
0.0
  0
LINE
  5
882
330
1F
100
AcDbEntity
  8
2
  6
CONTINUOUS
370
25
 62
7
100
AcDbLine
 10
125.2038418160375
 20
32.55923163679249
 30
0.0
 11
126.135894544025
 21
31.62717890880501
 31
0.0
  0
LINE
  5
883
330
1F
100
AcDbEntity
  8
2
  6
CONTINUOUS
370
25
 62
7
100
AcDbLine
 10
125.7341719019274
 20
32.45316561961452
 30
0.0
 11
126.4894479346183
 21
31.69788958692367
 31
0.0
  0
LINE
  5
884
330
1F
100
AcDbEntity
  8
2
  6
CONTINUOUS
370
25
 62
7
100
AcDbLine
 10
126.2645019878173
 20
32.34709960243653
 30
0.0
 11
126.8430013252116
 21
31.76860026504231
 31
0.0
  0
LINE
  5
885
330
1F
100
AcDbEntity
  8
2
  6
CONTINUOUS
370
25
 62
7
100
AcDbLine
 10
126.7948320737073
 20
32.24103358525855
 30
0.0
 11
127.1965547158048
 21
31.83931094316098
 31
0.0
  0
LINE
  5
886
330
1F
100
AcDbEntity
  8
2
  6
CONTINUOUS
370
25
 62
7
100
AcDbLine
 10
127.3251621595972
 20
32.13496756808057
 30
0.0
 11
127.5501081063981
 21
31.91002162127963
 31
0.0
  0
LINE
  5
887
330
1F
100
AcDbEntity
  8
2
  6
CONTINUOUS
370
25
 62
7
100
AcDbLine
 10
127.8554922454871
 20
32.02890155090259
 30
0.0
 11
127.9036614969914
 21
31.98073229939828
 31
0.0
  0
TEXT
  5
888
330
1F
100
AcDbEntity
  8
2
  6
CONTINUOUS
370
25
 62
7
100
AcDbText
 10
86.08333333333333
 20
33.5
 30
0.0
 40
3.5
  1
78
 72
     1
 11
89.0
 21
33.5
 31
0.0
100
AcDbText
  0
LINE
  5
889
330
1F
100
AcDbEntity
  8
2
  6
CONTINUOUS
370
25
 62
7
100
AcDbLine
 10
102.0
 20
-9.0
 30
0.0
 11
102.0
 21
-43.0
 31
0.0
  0
LINE
  5
88A
330
1F
100
AcDbEntity
  8
2
  6
CONTINUOUS
370
25
 62
7
100
AcDbLine
 10
128.0
 20
-43.0
 30
0.0
 11
128.0
 21
0.0
 31
0.0
  0
LINE
  5
88B
330
1F
100
AcDbEntity
  8
2
  6
CONTINUOUS
370
25
 62
7
100
AcDbLine
 10
102.0
 20
-42.0
 30
0.0
 11
128.0
 21
-42.0
 31
0.0
  0
LINE
  5
88C
330
1F
100
AcDbEntity
  8
2
  6
CONTINUOUS
370
25
 62
7
100
AcDbLine
 10
102.0
 20
-42.0
 30
0.0
 11
107.0
 21
-41.0
 31
0.0
  0
LINE
  5
88D
330
1F
100
AcDbEntity
  8
2
  6
CONTINUOUS
370
25
 62
7
100
AcDbLine
 10
107.0
 20
-41.0
 30
0.0
 11
107.0
 21
-43.0
 31
0.0
  0
LINE
  5
88E
330
1F
100
AcDbEntity
  8
2
  6
CONTINUOUS
370
25
 62
7
100
AcDbLine
 10
107.0
 20
-43.0
 30
0.0
 11
102.0
 21
-42.0
 31
0.0
  0
LINE
  5
88F
330
1F
100
AcDbEntity
  8
2
  6
CONTINUOUS
370
25
 62
7
100
AcDbLine
 10
106.9818683654481
 20
-42.99637367308961
 30
0.0
 11
107.0
 21
-42.97824203853766
 31
0.0
  0
LINE
  5
890
330
1F
100
AcDbEntity
  8
2
  6
CONTINUOUS
370
25
 62
7
100
AcDbLine
 10
106.6283149748548
 20
-42.92566299497096
 30
0.0
 11
107.0
 21
-42.55397796982574
 31
0.0
  0
LINE
  5
891
330
1F
100
AcDbEntity
  8
2
  6
CONTINUOUS
370
25
 62
7
100
AcDbLine
 10
106.2747615842615
 20
-42.8549523168523
 30
0.0
 11
107.0
 21
-42.12971390111379
 31
0.0
  0
LINE
  5
892
330
1F
100
AcDbEntity
  8
2
  6
CONTINUOUS
370
25
 62
7
100
AcDbLine
 10
105.9212081936682
 20
-42.78424163873364
 30
0.0
 11
107.0
 21
-41.70544983240187
 31
0.0
  0
LINE
  5
893
330
1F
100
AcDbEntity
  8
2
  6
CONTINUOUS
370
25
 62
7
100
AcDbLine
 10
105.5676548030749
 20
-42.71353096061498
 30
0.0
 11
107.0
 21
-41.28118576368992
 31
0.0
  0
LINE
  5
894
330
1F
100
AcDbEntity
  8
2
  6
CONTINUOUS
370
25
 62
7
100
AcDbLine
 10
105.2141014124817
 20
-42.64282028249633
 30
0.0
 11
106.8211521187225
 21
-41.03576957625549
 31
0.0
  0
LINE
  5
895
330
1F
100
AcDbEntity
  8
2
  6
CONTINUOUS
370
25
 62
7
100
AcDbLine
 10
104.8605480218884
 20
-42.57210960437767
 30
0.0
 11
106.2908220328326
 21
-41.14183559343348
 31
0.0
  0
LINE
  5
896
330
1F
100
AcDbEntity
  8
2
  6
CONTINUOUS
370
25
 62
7
100
AcDbLine
 10
104.5069946312951
 20
-42.50139892625902
 30
0.0
 11
105.7604919469427
 21
-41.24790161061146
 31
0.0
  0
LINE
  5
897
330
1F
100
AcDbEntity
  8
2
  6
CONTINUOUS
370
25
 62
7
100
AcDbLine
 10
104.1534412407018
 20
-42.43068824814038
 30
0.0
 11
105.2301618610527
 21
-41.35396762778944
 31
0.0
  0
LINE
  5
898
330
1F
100
AcDbEntity
  8
2
  6
CONTINUOUS
370
25
 62
7
100
AcDbLine
 10
103.7998878501085
 20
-42.35997757002171
 30
0.0
 11
104.6998317751628
 21
-41.46003364496743
 31
0.0
  0
LINE
  5
899
330
1F
100
AcDbEntity
  8
2
  6
CONTINUOUS
370
25
 62
7
100
AcDbLine
 10
103.4463344595153
 20
-42.28926689190307
 30
0.0
 11
104.1695016892729
 21
-41.56609966214541
 31
0.0
  0
LINE
  5
89A
330
1F
100
AcDbEntity
  8
2
  6
CONTINUOUS
370
25
 62
7
100
AcDbLine
 10
103.092781068922
 20
-42.2185562137844
 30
0.0
 11
103.639171603383
 21
-41.6721656793234
 31
0.0
  0
LINE
  5
89B
330
1F
100
AcDbEntity
  8
2
  6
CONTINUOUS
370
25
 62
7
100
AcDbLine
 10
102.7392276783287
 20
-42.14784553566574
 30
0.0
 11
103.1088415174931
 21
-41.77823169650138
 31
0.0
  0
LINE
  5
89C
330
1F
100
AcDbEntity
  8
2
  6
CONTINUOUS
370
25
 62
7
100
AcDbLine
 10
102.3856742877354
 20
-42.07713485754709
 30
0.0
 11
102.5785114316031
 21
-41.88429771367937
 31
0.0
  0
LINE
  5
89D
330
1F
100
AcDbEntity
  8
2
  6
CONTINUOUS
370
25
 62
7
100
AcDbLine
 10
102.0321208971421
 20
-42.00642417942844
 30
0.0
 11
102.0481813457132
 21
-41.99036373085735
 31
0.0
  0
LINE
  5
89E
330
1F
100
AcDbEntity
  8
2
  6
CONTINUOUS
370
25
 62
7
100
AcDbLine
 10
102.1519480409053
 20
-41.96961039181895
 30
0.0
 11
102.2279220613579
 21
-42.04558441227158
 31
0.0
  0
LINE
  5
89F
330
1F
100
AcDbEntity
  8
2
  6
CONTINUOUS
370
25
 62
7
100
AcDbLine
 10
102.5055014314985
 20
-41.8988997137003
 30
0.0
 11
102.7582521472478
 21
-42.15165042944956
 31
0.0
  0
LINE
  5
8A0
330
1F
100
AcDbEntity
  8
2
  6
CONTINUOUS
370
25
 62
7
100
AcDbLine
 10
102.8590548220918
 20
-41.82818903558163
 30
0.0
 11
103.2885822331377
 21
-42.25771644662754
 31
0.0
  0
LINE
  5
8A1
330
1F
100
AcDbEntity
  8
2
  6
CONTINUOUS
370
25
 62
7
100
AcDbLine
 10
103.2126082126851
 20
-41.75747835746298
 30
0.0
 11
103.8189123190276
 21
-42.36378246380553
 31
0.0
  0
LINE
  5
8A2
330
1F
100
AcDbEntity
  8
2
  6
CONTINUOUS
370
25
 62
7
100
AcDbLine
 10
103.5661616032784
 20
-41.68676767934433
 30
0.0
 11
104.3492424049176
 21
-42.46984848098352
 31
0.0
  0
LINE
  5
8A3
330
1F
100
AcDbEntity
  8
2
  6
CONTINUOUS
370
25
 62
7
100
AcDbLine
 10
103.9197149938717
 20
-41.61605700122566
 30
0.0
 11
104.8795724908075
 21
-42.5759144981615
 31
0.0
  0
LINE
  5
8A4
330
1F
100
AcDbEntity
  8
2
  6
CONTINUOUS
370
25
 62
7
100
AcDbLine
 10
104.273268384465
 20
-41.54534632310702
 30
0.0
 11
105.4099025766974
 21
-42.68198051533948
 31
0.0
  0
LINE
  5
8A5
330
1F
100
AcDbEntity
  8
2
  6
CONTINUOUS
370
25
 62
7
100
AcDbLine
 10
104.6268217750582
 20
-41.47463564498835
 30
0.0
 11
105.9402326625873
 21
-42.78804653251747
 31
0.0
  0
LINE
  5
8A6
330
1F
100
AcDbEntity
  8
2
  6
CONTINUOUS
370
25
 62
7
100
AcDbLine
 10
104.9803751656515
 20
-41.40392496686971
 30
0.0
 11
106.4705627484772
 21
-42.89411254969545
 31
0.0
  0
LINE
  5
8A7
330
1F
100
AcDbEntity
  8
2
  6
CONTINUOUS
370
25
 62
7
100
AcDbLine
 10
105.3339285562448
 20
-41.33321428875104
 30
0.0
 11
107.0
 21
-42.99928573250627
 31
0.0
  0
LINE
  5
8A8
330
1F
100
AcDbEntity
  8
2
  6
CONTINUOUS
370
25
 62
7
100
AcDbLine
 10
105.6874819468381
 20
-41.26250361063239
 30
0.0
 11
107.0
 21
-42.57502166379433
 31
0.0
  0
LINE
  5
8A9
330
1F
100
AcDbEntity
  8
2
  6
CONTINUOUS
370
25
 62
7
100
AcDbLine
 10
106.0410353374313
 20
-41.19179293251373
 30
0.0
 11
107.0
 21
-42.1507575950824
 31
0.0
  0
LINE
  5
8AA
330
1F
100
AcDbEntity
  8
2
  6
CONTINUOUS
370
25
 62
7
100
AcDbLine
 10
106.3945887280246
 20
-41.12108225439508
 30
0.0
 11
107.0
 21
-41.72649352637046
 31
0.0
  0
LINE
  5
8AB
330
1F
100
AcDbEntity
  8
2
  6
CONTINUOUS
370
25
 62
7
100
AcDbLine
 10
106.7481421186179
 20
-41.05037157627642
 30
0.0
 11
107.0
 21
-41.30222945765853
 31
0.0
  0
LINE
  5
8AC
330
1F
100
AcDbEntity
  8
2
  6
CONTINUOUS
370
25
 62
7
100
AcDbLine
 10
128.0
 20
-42.0
 30
0.0
 11
123.0
 21
-43.0
 31
0.0
  0
LINE
  5
8AD
330
1F
100
AcDbEntity
  8
2
  6
CONTINUOUS
370
25
 62
7
100
AcDbLine
 10
123.0
 20
-43.0
 30
0.0
 11
123.0
 21
-41.0
 31
0.0
  0
LINE
  5
8AE
330
1F
100
AcDbEntity
  8
2
  6
CONTINUOUS
370
25
 62
7
100
AcDbLine
 10
123.0
 20
-41.0
 30
0.0
 11
128.0
 21
-42.0
 31
0.0
  0
LINE
  5
8AF
330
1F
100
AcDbEntity
  8
2
  6
CONTINUOUS
370
25
 62
7
100
AcDbLine
 10
127.8956380818966
 20
-42.02087238362068
 30
0.0
 11
127.9304253879311
 21
-41.9860850775862
 31
0.0
  0
LINE
  5
8B0
330
1F
100
AcDbEntity
  8
2
  6
CONTINUOUS
370
25
 62
7
100
AcDbLine
 10
127.3653079960066
 20
-42.12693840079866
 30
0.0
 11
127.5768719973378
 21
-41.91537439946755
 31
0.0
  0
LINE
  5
8B1
330
1F
100
AcDbEntity
  8
2
  6
CONTINUOUS
370
25
 62
7
100
AcDbLine
 10
126.8349779101167
 20
-42.23300441797664
 30
0.0
 11
127.2233186067445
 21
-41.84466372134891
 31
0.0
  0
LINE
  5
8B2
330
1F
100
AcDbEntity
  8
2
  6
CONTINUOUS
370
25
 62
7
100
AcDbLine
 10
126.3046478242268
 20
-42.33907043515462
 30
0.0
 11
126.8697652161512
 21
-41.77395304323025
 31
0.0
  0
LINE
  5
8B3
330
1F
100
AcDbEntity
  8
2
  6
CONTINUOUS
370
25
 62
7
100
AcDbLine
 10
125.7743177383369
 20
-42.4451364523326
 30
0.0
 11
126.516211825558
 21
-41.70324236511158
 31
0.0
  0
LINE
  5
8B4
330
1F
100
AcDbEntity
  8
2
  6
CONTINUOUS
370
25
 62
7
100
AcDbLine
 10
125.243987652447
 20
-42.5512024695106
 30
0.0
 11
126.1626584349647
 21
-41.63253168699293
 31
0.0
  0
LINE
  5
8B5
330
1F
100
AcDbEntity
  8
2
  6
CONTINUOUS
370
25
 62
7
100
AcDbLine
 10
124.7136575665571
 20
-42.65726848668858
 30
0.0
 11
125.8091050443714
 21
-41.56182100887429
 31
0.0
  0
LINE
  5
8B6
330
1F
100
AcDbEntity
  8
2
  6
CONTINUOUS
370
25
 62
7
100
AcDbLine
 10
124.1833274806672
 20
-42.76333450386656
 30
0.0
 11
125.4555516537781
 21
-41.49111033075563
 31
0.0
  0
LINE
  5
8B7
330
1F
100
AcDbEntity
  8
2
  6
CONTINUOUS
370
25
 62
7
100
AcDbLine
 10
123.6529973947773
 20
-42.86940052104454
 30
0.0
 11
125.1019982631849
 21
-41.42039965263697
 31
0.0
  0
LINE
  5
8B8
330
1F
100
AcDbEntity
  8
2
  6
CONTINUOUS
370
25
 62
7
100
AcDbLine
 10
123.1226673088874
 20
-42.97546653822252
 30
0.0
 11
124.7484448725916
 21
-41.34968897451833
 31
0.0
  0
LINE
  5
8B9
330
1F
100
AcDbEntity
  8
2
  6
CONTINUOUS
370
25
 62
7
100
AcDbLine
 10
123.0
 20
-42.67386977839797
 30
0.0
 11
124.3948914819983
 21
-41.27897829639967
 31
0.0
  0
LINE
  5
8BA
330
1F
100
AcDbEntity
  8
2
  6
CONTINUOUS
370
25
 62
7
100
AcDbLine
 10
123.0
 20
-42.24960570968605
 30
0.0
 11
124.041338091405
 21
-41.20826761828101
 31
0.0
  0
LINE
  5
8BB
330
1F
100
AcDbEntity
  8
2
  6
CONTINUOUS
370
25
 62
7
100
AcDbLine
 10
123.0
 20
-41.82534164097412
 30
0.0
 11
123.6877847008118
 21
-41.13755694016236
 31
0.0
  0
LINE
  5
8BC
330
1F
100
AcDbEntity
  8
2
  6
CONTINUOUS
370
25
 62
7
100
AcDbLine
 10
123.0
 20
-41.40107757226218
 30
0.0
 11
123.3342313102185
 21
-41.06684626204371
 31
0.0
  0
LINE
  5
8BD
330
1F
100
AcDbEntity
  8
2
  6
CONTINUOUS
370
25
 62
7
100
AcDbLine
 10
123.0
 20
-42.8772511214525
 30
0.0
 11
123.1022907321229
 21
-42.97954185357542
 31
0.0
  0
LINE
  5
8BE
330
1F
100
AcDbEntity
  8
2
  6
CONTINUOUS
370
25
 62
7
100
AcDbLine
 10
123.0
 20
-42.45298705274057
 30
0.0
 11
123.4558441227162
 21
-42.90883117545677
 31
0.0
  0
LINE
  5
8BF
330
1F
100
AcDbEntity
  8
2
  6
CONTINUOUS
370
25
 62
7
100
AcDbLine
 10
123.0
 20
-42.02872298402864
 30
0.0
 11
123.8093975133095
 21
-42.83812049733812
 31
0.0
  0
LINE
  5
8C0
330
1F
100
AcDbEntity
  8
2
  6
CONTINUOUS
370
25
 62
7
100
AcDbLine
 10
123.0
 20
-41.60445891531671
 30
0.0
 11
124.1629509039027
 21
-42.76740981921945
 31
0.0
  0
LINE
  5
8C1
330
1F
100
AcDbEntity
  8
2
  6
CONTINUOUS
370
25
 62
7
100
AcDbLine
 10
123.0
 20
-41.18019484660478
 30
0.0
 11
124.516504294496
 21
-42.6966991411008
 31
0.0
  0
LINE
  5
8C2
330
1F
100
AcDbEntity
  8
2
  6
CONTINUOUS
370
25
 62
7
100
AcDbLine
 10
123.3050865276339
 20
-41.06101730552678
 30
0.0
 11
124.8700576850893
 21
-42.62598846298215
 31
0.0
  0
LINE
  5
8C3
330
1F
100
AcDbEntity
  8
2
  6
CONTINUOUS
370
25
 62
7
100
AcDbLine
 10
123.8354166135238
 20
-41.16708332270476
 30
0.0
 11
125.2236110756826
 21
-42.5552777848635
 31
0.0
  0
LINE
  5
8C4
330
1F
100
AcDbEntity
  8
2
  6
CONTINUOUS
370
25
 62
7
100
AcDbLine
 10
124.3657466994137
 20
-41.27314933988275
 30
0.0
 11
125.5771644662758
 21
-42.48456710674483
 31
0.0
  0
LINE
  5
8C5
330
1F
100
AcDbEntity
  8
2
  6
CONTINUOUS
370
25
 62
7
100
AcDbLine
 10
124.8960767853036
 20
-41.37921535706072
 30
0.0
 11
125.9307178568691
 21
-42.41385642862618
 31
0.0
  0
LINE
  5
8C6
330
1F
100
AcDbEntity
  8
2
  6
CONTINUOUS
370
25
 62
7
100
AcDbLine
 10
125.4264068711936
 20
-41.48528137423871
 30
0.0
 11
126.2842712474624
 21
-42.34314575050753
 31
0.0
  0
LINE
  5
8C7
330
1F
100
AcDbEntity
  8
2
  6
CONTINUOUS
370
25
 62
7
100
AcDbLine
 10
125.9567369570835
 20
-41.5913473914167
 30
0.0
 11
126.6378246380557
 21
-42.27243507238888
 31
0.0
  0
LINE
  5
8C8
330
1F
100
AcDbEntity
  8
2
  6
CONTINUOUS
370
25
 62
7
100
AcDbLine
 10
126.4870670429734
 20
-41.69741340859468
 30
0.0
 11
126.9913780286489
 21
-42.20172439427022
 31
0.0
  0
LINE
  5
8C9
330
1F
100
AcDbEntity
  8
2
  6
CONTINUOUS
370
25
 62
7
100
AcDbLine
 10
127.0173971288633
 20
-41.80347942577266
 30
0.0
 11
127.3449314192422
 21
-42.13101371615156
 31
0.0
  0
LINE
  5
8CA
330
1F
100
AcDbEntity
  8
2
  6
CONTINUOUS
370
25
 62
7
100
AcDbLine
 10
127.5477272147532
 20
-41.90954544295064
 30
0.0
 11
127.6984848098355
 21
-42.06030303803293
 31
0.0
  0
TEXT
  5
8CB
330
1F
100
AcDbEntity
  8
2
  6
CONTINUOUS
370
25
 62
7
100
AcDbText
 10
112.0833333333333
 20
-40.5
 30
0.0
 40
3.5
  1
26
 72
     1
 11
115.0
 21
-40.5
 31
0.0
100
AcDbText
  0
LINE
  5
8CC
330
1F
100
AcDbEntity
  8
SK2
  6
CONTINUOUS
370
25
 62
7
100
AcDbLine
 10
0.0
 20
20.0
 30
0.0
 11
0.0
 21
43.0
 31
0.0
  0
LINE
  5
8CD
330
1F
100
AcDbEntity
  8
SK2
  6
CONTINUOUS
370
25
 62
7
100
AcDbLine
 10
128.0
 20
43.0
 30
0.0
 11
128.0
 21
0.0
 31
0.0
  0
LINE
  5
8CE
330
1F
100
AcDbEntity
  8
SK2
  6
CONTINUOUS
370
25
 62
7
100
AcDbLine
 10
0.0
 20
42.0
 30
0.0
 11
128.0
 21
42.0
 31
0.0
  0
LINE
  5
8CF
330
1F
100
AcDbEntity
  8
SK2
  6
CONTINUOUS
370
25
 62
7
100
AcDbLine
 10
0.0
 20
42.0
 30
0.0
 11
5.0
 21
43.0
 31
0.0
  0
LINE
  5
8D0
330
1F
100
AcDbEntity
  8
SK2
  6
CONTINUOUS
370
25
 62
7
100
AcDbLine
 10
5.0
 20
43.0
 30
0.0
 11
5.0
 21
41.0
 31
0.0
  0
LINE
  5
8D1
330
1F
100
AcDbEntity
  8
SK2
  6
CONTINUOUS
370
25
 62
7
100
AcDbLine
 10
5.0
 20
41.0
 30
0.0
 11
0.0
 21
42.0
 31
0.0
  0
LINE
  5
8D2
330
1F
100
AcDbEntity
  8
SK2
  6
CONTINUOUS
370
25
 62
7
100
AcDbLine
 10
4.895328376232086
 20
41.02093432475359
 30
0.0
 11
5.0
 21
41.1256059485215
 31
0.0
  0
LINE
  5
8D3
330
1F
100
AcDbEntity
  8
SK2
  6
CONTINUOUS
370
25
 62
7
100
AcDbLine
 10
4.541774985638817
 20
41.09164500287224
 30
0.0
 11
5.0
 21
41.54987001723342
 31
0.0
  0
LINE
  5
8D4
330
1F
100
AcDbEntity
  8
SK2
  6
CONTINUOUS
370
25
 62
7
100
AcDbLine
 10
4.188221595045526
 20
41.1623556809909
 30
0.0
 11
5.0
 21
41.97413408594537
 31
0.0
  0
LINE
  5
8D5
330
1F
100
AcDbEntity
  8
SK2
  6
CONTINUOUS
370
25
 62
7
100
AcDbLine
 10
3.834668204452257
 20
41.23306635910955
 30
0.0
 11
5.0
 21
42.39839815465729
 31
0.0
  0
LINE
  5
8D6
330
1F
100
AcDbEntity
  8
SK2
  6
CONTINUOUS
370
25
 62
7
100
AcDbLine
 10
3.481114813858966
 20
41.30377703722821
 30
0.0
 11
5.0
 21
42.82266222336924
 31
0.0
  0
LINE
  5
8D7
330
1F
100
AcDbEntity
  8
SK2
  6
CONTINUOUS
370
25
 62
7
100
AcDbLine
 10
3.127561423265696
 20
41.37448771534686
 30
0.0
 11
4.691342134898541
 21
42.9382684269797
 31
0.0
  0
LINE
  5
8D8
330
1F
100
AcDbEntity
  8
SK2
  6
CONTINUOUS
370
25
 62
7
100
AcDbLine
 10
2.774008032672405
 20
41.44519839346552
 30
0.0
 11
4.161012049008605
 21
42.83220240980172
 31
0.0
  0
LINE
  5
8D9
330
1F
100
AcDbEntity
  8
SK2
  6
CONTINUOUS
370
25
 62
7
100
AcDbLine
 10
2.420454642079143
 20
41.51590907158418
 30
0.0
 11
3.630681963118704
 21
42.72613639262374
 31
0.0
  0
LINE
  5
8DA
330
1F
100
AcDbEntity
  8
SK2
  6
CONTINUOUS
370
25
 62
7
100
AcDbLine
 10
2.066901251485852
 20
41.58661974970283
 30
0.0
 11
3.100351877228768
 21
42.62007037544575
 31
0.0
  0
LINE
  5
8DB
330
1F
100
AcDbEntity
  8
SK2
  6
CONTINUOUS
370
25
 62
7
100
AcDbLine
 10
1.713347860892583
 20
41.65733042782148
 30
0.0
 11
2.570021791338867
 21
42.51400435826777
 31
0.0
  0
LINE
  5
8DC
330
1F
100
AcDbEntity
  8
SK2
  6
CONTINUOUS
370
25
 62
7
100
AcDbLine
 10
1.359794470299292
 20
41.72804110594014
 30
0.0
 11
2.039691705448931
 21
42.40793834108978
 31
0.0
  0
LINE
  5
8DD
330
1F
100
AcDbEntity
  8
SK2
  6
CONTINUOUS
370
25
 62
7
100
AcDbLine
 10
1.006241079706022
 20
41.79875178405879
 30
0.0
 11
1.50936161955903
 21
42.3018723239118
 31
0.0
  0
LINE
  5
8DE
330
1F
100
AcDbEntity
  8
SK2
  6
CONTINUOUS
370
25
 62
7
100
AcDbLine
 10
0.6526876891127316
 20
41.86946246217745
 30
0.0
 11
0.9790315336690938
 21
42.19580630673381
 31
0.0
  0
LINE
  5
8DF
330
1F
100
AcDbEntity
  8
SK2
  6
CONTINUOUS
370
25
 62
7
100
AcDbLine
 10
0.2991342985194692
 20
41.94017314029611
 30
0.0
 11
0.4487014477791931
 21
42.08974028955583
 31
0.0
  0
LINE
  5
8E0
330
1F
100
AcDbEntity
  8
SK2
  6
CONTINUOUS
370
25
 62
7
100
AcDbLine
 10
0.0648128287779173
 20
42.01296256575559
 30
0.0
 11
0.097219243166883
 21
41.98055615136662
 31
0.0
  0
LINE
  5
8E1
330
1F
100
AcDbEntity
  8
SK2
  6
CONTINUOUS
370
25
 62
7
100
AcDbLine
 10
0.418366219371201
 20
42.08367324387424
 30
0.0
 11
0.627549329056805
 21
41.87449013418863
 31
0.0
  0
LINE
  5
8E2
330
1F
100
AcDbEntity
  8
SK2
  6
CONTINUOUS
370
25
 62
7
100
AcDbLine
 10
0.7719196099644776
 20
42.1543839219929
 30
0.0
 11
1.15787941494672
 21
41.76842411701065
 31
0.0
  0
LINE
  5
8E3
330
1F
100
AcDbEntity
  8
SK2
  6
CONTINUOUS
370
25
 62
7
100
AcDbLine
 10
1.125473000557754
 20
42.22509460011155
 30
0.0
 11
1.688209500836642
 21
41.66235809983267
 31
0.0
  0
LINE
  5
8E4
330
1F
100
AcDbEntity
  8
SK2
  6
CONTINUOUS
370
25
 62
7
100
AcDbLine
 10
1.479026391151031
 20
42.2958052782302
 30
0.0
 11
2.21853958672655
 21
41.55629208265469
 31
0.0
  0
LINE
  5
8E5
330
1F
100
AcDbEntity
  8
SK2
  6
CONTINUOUS
370
25
 62
7
100
AcDbLine
 10
1.832579781744307
 20
42.36651595634886
 30
0.0
 11
2.748869672616472
 21
41.45022606547671
 31
0.0
  0
LINE
  5
8E6
330
1F
100
AcDbEntity
  8
SK2
  6
CONTINUOUS
370
25
 62
7
100
AcDbLine
 10
2.186133172337591
 20
42.43722663446752
 30
0.0
 11
3.279199758506394
 21
41.34416004829872
 31
0.0
  0
LINE
  5
8E7
330
1F
100
AcDbEntity
  8
SK2
  6
CONTINUOUS
370
25
 62
7
100
AcDbLine
 10
2.539686562930868
 20
42.50793731258618
 30
0.0
 11
3.809529844396309
 21
41.23809403112074
 31
0.0
  0
LINE
  5
8E8
330
1F
100
AcDbEntity
  8
SK2
  6
CONTINUOUS
370
25
 62
7
100
AcDbLine
 10
2.893239953524152
 20
42.57864799070483
 30
0.0
 11
4.339859930286231
 21
41.13202801394275
 31
0.0
  0
LINE
  5
8E9
330
1F
100
AcDbEntity
  8
SK2
  6
CONTINUOUS
370
25
 62
7
100
AcDbLine
 10
3.246793344117428
 20
42.64935866882349
 30
0.0
 11
4.870190016176153
 21
41.02596199676476
 31
0.0
  0
LINE
  5
8EA
330
1F
100
AcDbEntity
  8
SK2
  6
CONTINUOUS
370
25
 62
7
100
AcDbLine
 10
3.600346734710705
 20
42.72006934694215
 30
0.0
 11
5.0
 21
41.32041608165285
 31
0.0
  0
LINE
  5
8EB
330
1F
100
AcDbEntity
  8
SK2
  6
CONTINUOUS
370
25
 62
7
100
AcDbLine
 10
3.953900125303988
 20
42.7907800250608
 30
0.0
 11
5.0
 21
41.74468015036479
 31
0.0
  0
LINE
  5
8EC
330
1F
100
AcDbEntity
  8
SK2
  6
CONTINUOUS
370
25
 62
7
100
AcDbLine
 10
4.307453515897265
 20
42.86149070317946
 30
0.0
 11
5.0
 21
42.16894421907672
 31
0.0
  0
LINE
  5
8ED
330
1F
100
AcDbEntity
  8
SK2
  6
CONTINUOUS
370
25
 62
7
100
AcDbLine
 10
4.661006906490542
 20
42.93220138129811
 30
0.0
 11
5.0
 21
42.59320828778866
 31
0.0
  0
LINE
  5
8EE
330
1F
100
AcDbEntity
  8
SK2
  6
CONTINUOUS
370
25
 62
7
100
AcDbLine
 10
128.0
 20
42.0
 30
0.0
 11
123.0
 21
41.0
 31
0.0
  0
LINE
  5
8EF
330
1F
100
AcDbEntity
  8
SK2
  6
CONTINUOUS
370
25
 62
7
100
AcDbLine
 10
123.0
 20
41.0
 30
0.0
 11
123.0
 21
43.0
 31
0.0
  0
LINE
  5
8F0
330
1F
100
AcDbEntity
  8
SK2
  6
CONTINUOUS
370
25
 62
7
100
AcDbLine
 10
123.0
 20
43.0
 30
0.0
 11
128.0
 21
42.0
 31
0.0
  0
LINE
  5
8F1
330
1F
100
AcDbEntity
  8
SK2
  6
CONTINUOUS
370
25
 62
7
100
AcDbLine
 10
127.9009950880983
 20
41.98019901761965
 30
0.0
 11
127.9339967253989
 21
42.01320065492024
 31
0.0
  0
LINE
  5
8F2
330
1F
100
AcDbEntity
  8
SK2
  6
CONTINUOUS
370
25
 62
7
100
AcDbLine
 10
127.3706650022084
 20
41.87413300044168
 30
0.0
 11
127.5804433348056
 21
42.08391133303888
 31
0.0
  0
LINE
  5
8F3
330
1F
100
AcDbEntity
  8
SK2
  6
CONTINUOUS
370
25
 62
7
100
AcDbLine
 10
126.8403349163185
 20
41.76806698326369
 30
0.0
 11
127.2268899442123
 21
42.15462201115753
 31
0.0
  0
LINE
  5
8F4
330
1F
100
AcDbEntity
  8
SK2
  6
CONTINUOUS
370
25
 62
7
100
AcDbLine
 10
126.3100048304286
 20
41.66200096608571
 30
0.0
 11
126.8733365536191
 21
42.22533268927619
 31
0.0
  0
LINE
  5
8F5
330
1F
100
AcDbEntity
  8
SK2
  6
CONTINUOUS
370
25
 62
7
100
AcDbLine
 10
125.7796747445387
 20
41.55593494890773
 30
0.0
 11
126.5197831630258
 21
42.29604336739486
 31
0.0
  0
LINE
  5
8F6
330
1F
100
AcDbEntity
  8
SK2
  6
CONTINUOUS
370
25
 62
7
100
AcDbLine
 10
125.2493446586488
 20
41.44986893172975
 30
0.0
 11
126.1662297724325
 21
42.3667540455135
 31
0.0
  0
LINE
  5
8F7
330
1F
100
AcDbEntity
  8
SK2
  6
CONTINUOUS
370
25
 62
7
100
AcDbLine
 10
124.7190145727589
 20
41.34380291455177
 30
0.0
 11
125.8126763818392
 21
42.43746472363215
 31
0.0
  0
LINE
  5
8F8
330
1F
100
AcDbEntity
  8
SK2
  6
CONTINUOUS
370
25
 62
7
100
AcDbLine
 10
124.188684486869
 20
41.23773689737379
 30
0.0
 11
125.459122991246
 21
42.50817540175081
 31
0.0
  0
LINE
  5
8F9
330
1F
100
AcDbEntity
  8
SK2
  6
CONTINUOUS
370
25
 62
7
100
AcDbLine
 10
123.658354400979
 20
41.1316708801958
 30
0.0
 11
125.1055696006527
 21
42.57888607986948
 31
0.0
  0
LINE
  5
8FA
330
1F
100
AcDbEntity
  8
SK2
  6
CONTINUOUS
370
25
 62
7
100
AcDbLine
 10
123.1280243150891
 20
41.02560486301783
 30
0.0
 11
124.7520162100594
 21
42.64959675798811
 31
0.0
  0
LINE
  5
8FB
330
1F
100
AcDbEntity
  8
SK2
  6
CONTINUOUS
370
25
 62
7
100
AcDbLine
 10
123.0
 20
41.32184461664062
 30
0.0
 11
124.3984628194661
 21
42.72030743610676
 31
0.0
  0
LINE
  5
8FC
330
1F
100
AcDbEntity
  8
SK2
  6
CONTINUOUS
370
25
 62
7
100
AcDbLine
 10
123.0
 20
41.74610868535255
 30
0.0
 11
124.0449094288729
 21
42.79101811422543
 31
0.0
  0
LINE
  5
8FD
330
1F
100
AcDbEntity
  8
SK2
  6
CONTINUOUS
370
25
 62
7
100
AcDbLine
 10
123.0
 20
42.17037275406447
 30
0.0
 11
123.6913560382796
 21
42.8617287923441
 31
0.0
  0
LINE
  5
8FE
330
1F
100
AcDbEntity
  8
SK2
  6
CONTINUOUS
370
25
 62
7
100
AcDbLine
 10
123.0
 20
42.5946368227764
 30
0.0
 11
123.3378026476863
 21
42.93243947046273
 31
0.0
  0
LINE
  5
8FF
330
1F
100
AcDbEntity
  8
SK2
  6
CONTINUOUS
370
25
 62
7
100
AcDbLine
 10
123.0
 20
41.12703448350891
 30
0.0
 11
123.1058620695908
 21
41.02117241391815
 31
0.0
  0
LINE
  5
900
330
1F
100
AcDbEntity
  8
SK2
  6
CONTINUOUS
370
25
 62
7
100
AcDbLine
 10
123.0
 20
41.55129855222084
 30
0.0
 11
123.459415460184
 21
41.0918830920368
 31
0.0
  0
LINE
  5
901
330
1F
100
AcDbEntity
  8
SK2
  6
CONTINUOUS
370
25
 62
7
100
AcDbLine
 10
123.0
 20
41.97556262093278
 30
0.0
 11
123.8129688507773
 21
41.16259377015547
 31
0.0
  0
LINE
  5
902
330
1F
100
AcDbEntity
  8
SK2
  6
CONTINUOUS
370
25
 62
7
100
AcDbLine
 10
123.0
 20
42.3998266896447
 30
0.0
 11
124.1665222413706
 21
41.23330444827411
 31
0.0
  0
LINE
  5
903
330
1F
100
AcDbEntity
  8
SK2
  6
CONTINUOUS
370
25
 62
7
100
AcDbLine
 10
123.0
 20
42.82409075835662
 30
0.0
 11
124.5200756319638
 21
41.30401512639277
 31
0.0
  0
LINE
  5
904
330
1F
100
AcDbEntity
  8
SK2
  6
CONTINUOUS
370
25
 62
7
100
AcDbLine
 10
123.3104435338357
 20
42.93791129323287
 30
0.0
 11
124.8736290225571
 21
41.37472580451141
 31
0.0
  0
LINE
  5
905
330
1F
100
AcDbEntity
  8
SK2
  6
CONTINUOUS
370
25
 62
7
100
AcDbLine
 10
123.8407736197256
 20
42.83184527605488
 30
0.0
 11
125.2271824131504
 21
41.44543648263009
 31
0.0
  0
LINE
  5
906
330
1F
100
AcDbEntity
  8
SK2
  6
CONTINUOUS
370
25
 62
7
100
AcDbLine
 10
124.3711037056155
 20
42.7257792588769
 30
0.0
 11
125.5807358037437
 21
41.51614716074873
 31
0.0
  0
LINE
  5
907
330
1F
100
AcDbEntity
  8
SK2
  6
CONTINUOUS
370
25
 62
7
100
AcDbLine
 10
124.9014337915054
 20
42.61971324169892
 30
0.0
 11
125.9342891943369
 21
41.58685783886739
 31
0.0
  0
LINE
  5
908
330
1F
100
AcDbEntity
  8
SK2
  6
CONTINUOUS
370
25
 62
7
100
AcDbLine
 10
125.4317638773953
 20
42.51364722452094
 30
0.0
 11
126.2878425849302
 21
41.65756851698603
 31
0.0
  0
LINE
  5
909
330
1F
100
AcDbEntity
  8
SK2
  6
CONTINUOUS
370
25
 62
7
100
AcDbLine
 10
125.9620939632852
 20
42.40758120734296
 30
0.0
 11
126.6413959755235
 21
41.72827919510469
 31
0.0
  0
LINE
  5
90A
330
1F
100
AcDbEntity
  8
SK2
  6
CONTINUOUS
370
25
 62
7
100
AcDbLine
 10
126.4924240491752
 20
42.30151519016496
 30
0.0
 11
126.9949493661168
 21
41.79898987322335
 31
0.0
  0
LINE
  5
90B
330
1F
100
AcDbEntity
  8
SK2
  6
CONTINUOUS
370
25
 62
7
100
AcDbLine
 10
127.0227541350651
 20
42.19544917298698
 30
0.0
 11
127.34850275671
 21
41.86970055134201
 31
0.0
  0
LINE
  5
90C
330
1F
100
AcDbEntity
  8
SK2
  6
CONTINUOUS
370
25
 62
7
100
AcDbLine
 10
127.553084220955
 20
42.089383155809
 30
0.0
 11
127.7020561473033
 21
41.94041122946065
 31
0.0
  0
TEXT
  5
90D
330
1F
100
AcDbEntity
  8
SK2
  6
CONTINUOUS
370
25
 62
7
100
AcDbText
 10
59.91666666666666
 20
43.5
 30
0.0
 40
3.5
  1
128
 72
     1
 11
64.0
 21
43.5
 31
0.0
100
AcDbText
  0
LINE
  5
90E
330
1F
100
AcDbEntity
  8
2
  6
CONTINUOUS
370
25
 62
7
100
AcDbLine
 10
56.2
 20
-9.0
 30
0.0
 11
56.2
 21
-53.0
 31
0.0
  0
LINE
  5
90F
330
1F
100
AcDbEntity
  8
2
  6
CONTINUOUS
370
25
 62
7
100
AcDbLine
 10
128.0
 20
-53.0
 30
0.0
 11
128.0
 21
0.0
 31
0.0
  0
LINE
  5
910
330
1F
100
AcDbEntity
  8
2
  6
CONTINUOUS
370
25
 62
7
100
AcDbLine
 10
56.2
 20
-52.0
 30
0.0
 11
128.0
 21
-52.0
 31
0.0
  0
LINE
  5
911
330
1F
100
AcDbEntity
  8
2
  6
CONTINUOUS
370
25
 62
7
100
AcDbLine
 10
56.2
 20
-52.0
 30
0.0
 11
61.2
 21
-51.0
 31
0.0
  0
LINE
  5
912
330
1F
100
AcDbEntity
  8
2
  6
CONTINUOUS
370
25
 62
7
100
AcDbLine
 10
61.2
 20
-51.0
 30
0.0
 11
61.2
 21
-53.0
 31
0.0
  0
LINE
  5
913
330
1F
100
AcDbEntity
  8
2
  6
CONTINUOUS
370
25
 62
7
100
AcDbLine
 10
61.2
 20
-53.0
 30
0.0
 11
56.2
 21
-52.0
 31
0.0
  0
LINE
  5
914
330
1F
100
AcDbEntity
  8
2
  6
CONTINUOUS
370
25
 62
7
100
AcDbLine
 10
61.04701984194978
 20
-52.96940396838995
 30
0.0
 11
61.2
 21
-52.81642381033974
 31
0.0
  0
LINE
  5
915
330
1F
100
AcDbEntity
  8
2
  6
CONTINUOUS
370
25
 62
7
100
AcDbLine
 10
60.69346645135651
 20
-52.8986932902713
 30
0.0
 11
61.2
 21
-52.39215974162781
 31
0.0
  0
LINE
  5
916
330
1F
100
AcDbEntity
  8
2
  6
CONTINUOUS
370
25
 62
7
100
AcDbLine
 10
60.33991306076323
 20
-52.82798261215265
 30
0.0
 11
61.2
 21
-51.96789567291588
 31
0.0
  0
LINE
  5
917
330
1F
100
AcDbEntity
  8
2
  6
CONTINUOUS
370
25
 62
7
100
AcDbLine
 10
59.98635967016995
 20
-52.75727193403399
 30
0.0
 11
61.2
 21
-51.54363160420395
 31
0.0
  0
LINE
  5
918
330
1F
100
AcDbEntity
  8
2
  6
CONTINUOUS
370
25
 62
7
100
AcDbLine
 10
59.63280627957668
 20
-52.68656125591534
 30
0.0
 11
61.2
 21
-51.11936753549202
 31
0.0
  0
LINE
  5
919
330
1F
100
AcDbEntity
  8
2
  6
CONTINUOUS
370
25
 62
7
100
AcDbLine
 10
59.2792528889834
 20
-52.61585057779668
 30
0.0
 11
60.8188793334751
 21
-51.07622413330498
 31
0.0
  0
LINE
  5
91A
330
1F
100
AcDbEntity
  8
2
  6
CONTINUOUS
370
25
 62
7
100
AcDbLine
 10
58.92569949839013
 20
-52.54513989967802
 30
0.0
 11
60.28854924758519
 21
-51.18229015048296
 31
0.0
  0
LINE
  5
91B
330
1F
100
AcDbEntity
  8
2
  6
CONTINUOUS
370
25
 62
7
100
AcDbLine
 10
58.57214610779685
 20
-52.47442922155937
 30
0.0
 11
59.75821916169527
 21
-51.28835616766095
 31
0.0
  0
LINE
  5
91C
330
1F
100
AcDbEntity
  8
2
  6
CONTINUOUS
370
25
 62
7
100
AcDbLine
 10
58.21859271720358
 20
-52.40371854344071
 30
0.0
 11
59.22788907580536
 21
-51.39442218483893
 31
0.0
  0
LINE
  5
91D
330
1F
100
AcDbEntity
  8
2
  6
CONTINUOUS
370
25
 62
7
100
AcDbLine
 10
57.8650393266103
 20
-52.33300786532206
 30
0.0
 11
58.69755898991544
 21
-51.50048820201691
 31
0.0
  0
LINE
  5
91E
330
1F
100
AcDbEntity
  8
2
  6
CONTINUOUS
370
25
 62
7
100
AcDbLine
 10
57.51148593601702
 20
-52.2622971872034
 30
0.0
 11
58.16722890402554
 21
-51.6065542191949
 31
0.0
  0
LINE
  5
91F
330
1F
100
AcDbEntity
  8
2
  6
CONTINUOUS
370
25
 62
7
100
AcDbLine
 10
57.15793254542375
 20
-52.19158650908474
 30
0.0
 11
57.63689881813561
 21
-51.71262023637288
 31
0.0
  0
LINE
  5
920
330
1F
100
AcDbEntity
  8
2
  6
CONTINUOUS
370
25
 62
7
100
AcDbLine
 10
56.80437915483046
 20
-52.12087583096609
 30
0.0
 11
57.1065687322457
 21
-51.81868625355087
 31
0.0
  0
LINE
  5
921
330
1F
100
AcDbEntity
  8
2
  6
CONTINUOUS
370
25
 62
7
100
AcDbLine
 10
56.45082576423719
 20
-52.05016515284743
 30
0.0
 11
56.57623864635579
 21
-51.92475227072885
 31
0.0
  0
LINE
  5
922
330
1F
100
AcDbEntity
  8
2
  6
CONTINUOUS
370
25
 62
7
100
AcDbLine
 10
56.2310645915792
 20
-51.99378708168416
 30
0.0
 11
56.2465968873688
 21
-52.00931937747376
 31
0.0
  0
LINE
  5
923
330
1F
100
AcDbEntity
  8
2
  6
CONTINUOUS
370
25
 62
7
100
AcDbLine
 10
56.58461798217248
 20
-51.9230764035655
 30
0.0
 11
56.77692697325872
 21
-52.11538539465174
 31
0.0
  0
LINE
  5
924
330
1F
100
AcDbEntity
  8
2
  6
CONTINUOUS
370
25
 62
7
100
AcDbLine
 10
56.93817137276575
 20
-51.85236572544685
 30
0.0
 11
57.30725705914863
 21
-52.22145141182973
 31
0.0
  0
LINE
  5
925
330
1F
100
AcDbEntity
  8
2
  6
CONTINUOUS
370
25
 62
7
100
AcDbLine
 10
57.29172476335903
 20
-51.78165504732819
 30
0.0
 11
57.83758714503854
 21
-52.32751742900771
 31
0.0
  0
LINE
  5
926
330
1F
100
AcDbEntity
  8
2
  6
CONTINUOUS
370
25
 62
7
100
AcDbLine
 10
57.6452781539523
 20
-51.71094436920954
 30
0.0
 11
58.36791723092846
 21
-52.43358344618569
 31
0.0
  0
LINE
  5
927
330
1F
100
AcDbEntity
  8
2
  6
CONTINUOUS
370
25
 62
7
100
AcDbLine
 10
57.99883154454558
 20
-51.64023369109088
 30
0.0
 11
58.89824731681837
 21
-52.53964946336367
 31
0.0
  0
LINE
  5
928
330
1F
100
AcDbEntity
  8
2
  6
CONTINUOUS
370
25
 62
7
100
AcDbLine
 10
58.35238493513886
 20
-51.56952301297223
 30
0.0
 11
59.42857740270828
 21
-52.64571548054165
 31
0.0
  0
LINE
  5
929
330
1F
100
AcDbEntity
  8
2
  6
CONTINUOUS
370
25
 62
7
100
AcDbLine
 10
58.70593832573213
 20
-51.49881233485358
 30
0.0
 11
59.9589074885982
 21
-52.75178149771963
 31
0.0
  0
LINE
  5
92A
330
1F
100
AcDbEntity
  8
2
  6
CONTINUOUS
370
25
 62
7
100
AcDbLine
 10
59.05949171632541
 20
-51.42810165673492
 30
0.0
 11
60.48923757448811
 21
-52.85784751489762
 31
0.0
  0
LINE
  5
92B
330
1F
100
AcDbEntity
  8
2
  6
CONTINUOUS
370
25
 62
7
100
AcDbLine
 10
59.41304510691869
 20
-51.35739097861627
 30
0.0
 11
61.01956766037803
 21
-52.9639135320756
 31
0.0
  0
LINE
  5
92C
330
1F
100
AcDbEntity
  8
2
  6
CONTINUOUS
370
25
 62
7
100
AcDbLine
 10
59.76659849751196
 20
-51.28668030049761
 30
0.0
 11
61.2
 21
-52.72008180298565
 31
0.0
  0
LINE
  5
92D
330
1F
100
AcDbEntity
  8
2
  6
CONTINUOUS
370
25
 62
7
100
AcDbLine
 10
60.12015188810524
 20
-51.21596962237896
 30
0.0
 11
61.2
 21
-52.29581773427371
 31
0.0
  0
LINE
  5
92E
330
1F
100
AcDbEntity
  8
2
  6
CONTINUOUS
370
25
 62
7
100
AcDbLine
 10
60.47370527869852
 20
-51.1452589442603
 30
0.0
 11
61.2
 21
-51.87155366556178
 31
0.0
  0
LINE
  5
92F
330
1F
100
AcDbEntity
  8
2
  6
CONTINUOUS
370
25
 62
7
100
AcDbLine
 10
60.82725866929179
 20
-51.07454826614165
 30
0.0
 11
61.2
 21
-51.44728959684985
 31
0.0
  0
LINE
  5
930
330
1F
100
AcDbEntity
  8
2
  6
CONTINUOUS
370
25
 62
7
100
AcDbLine
 10
61.18081205988506
 20
-51.00383758802299
 30
0.0
 11
61.2
 21
-51.02302552813792
 31
0.0
  0
LINE
  5
931
330
1F
100
AcDbEntity
  8
2
  6
CONTINUOUS
370
25
 62
7
100
AcDbLine
 10
128.0
 20
-52.0
 30
0.0
 11
123.0
 21
-53.0
 31
0.0
  0
LINE
  5
932
330
1F
100
AcDbEntity
  8
2
  6
CONTINUOUS
370
25
 62
7
100
AcDbLine
 10
123.0
 20
-53.0
 30
0.0
 11
123.0
 21
-51.0
 31
0.0
  0
LINE
  5
933
330
1F
100
AcDbEntity
  8
2
  6
CONTINUOUS
370
25
 62
7
100
AcDbLine
 10
123.0
 20
-51.0
 30
0.0
 11
128.0
 21
-52.0
 31
0.0
  0
LINE
  5
934
330
1F
100
AcDbEntity
  8
2
  6
CONTINUOUS
370
25
 62
7
100
AcDbLine
 10
127.6677160205387
 20
-52.06645679589225
 30
0.0
 11
127.7784773470258
 21
-51.95569546940517
 31
0.0
  0
LINE
  5
935
330
1F
100
AcDbEntity
  8
2
  6
CONTINUOUS
370
25
 62
7
100
AcDbLine
 10
127.1373859346488
 20
-52.17252281307023
 30
0.0
 11
127.4249239564326
 21
-51.88498479128651
 31
0.0
  0
LINE
  5
936
330
1F
100
AcDbEntity
  8
2
  6
CONTINUOUS
370
25
 62
7
100
AcDbLine
 10
126.6070558487589
 20
-52.27858883024821
 30
0.0
 11
127.0713705658393
 21
-51.81427411316785
 31
0.0
  0
LINE
  5
937
330
1F
100
AcDbEntity
  8
2
  6
CONTINUOUS
370
25
 62
7
100
AcDbLine
 10
126.076725762869
 20
-52.38465484742619
 30
0.0
 11
126.717817175246
 21
-51.74356343504921
 31
0.0
  0
LINE
  5
938
330
1F
100
AcDbEntity
  8
2
  6
CONTINUOUS
370
25
 62
7
100
AcDbLine
 10
125.5463956769791
 20
-52.49072086460417
 30
0.0
 11
126.3642637846528
 21
-51.67285275693055
 31
0.0
  0
LINE
  5
939
330
1F
100
AcDbEntity
  8
2
  6
CONTINUOUS
370
25
 62
7
100
AcDbLine
 10
125.0160655910892
 20
-52.59678688178215
 30
0.0
 11
126.0107103940595
 21
-51.60214207881189
 31
0.0
  0
LINE
  5
93A
330
1F
100
AcDbEntity
  8
2
  6
CONTINUOUS
370
25
 62
7
100
AcDbLine
 10
124.4857355051993
 20
-52.70285289896013
 30
0.0
 11
125.6571570034662
 21
-51.53143140069324
 31
0.0
  0
LINE
  5
93B
330
1F
100
AcDbEntity
  8
2
  6
CONTINUOUS
370
25
 62
7
100
AcDbLine
 10
123.9554054193094
 20
-52.80891891613811
 30
0.0
 11
125.3036036128729
 21
-51.46072072257459
 31
0.0
  0
LINE
  5
93C
330
1F
100
AcDbEntity
  8
2
  6
CONTINUOUS
370
25
 62
7
100
AcDbLine
 10
123.4250753334195
 20
-52.91498493331611
 30
0.0
 11
124.9500502222797
 21
-51.39001004445592
 31
0.0
  0
LINE
  5
93D
330
1F
100
AcDbEntity
  8
2
  6
CONTINUOUS
370
25
 62
7
100
AcDbLine
 10
123.0
 20
-52.91579619802366
 30
0.0
 11
124.5964968316864
 21
-51.31929936633728
 31
0.0
  0
LINE
  5
93E
330
1F
100
AcDbEntity
  8
2
  6
CONTINUOUS
370
25
 62
7
100
AcDbLine
 10
123.0
 20
-52.49153212931174
 30
0.0
 11
124.2429434410931
 21
-51.24858868821862
 31
0.0
  0
LINE
  5
93F
330
1F
100
AcDbEntity
  8
2
  6
CONTINUOUS
370
25
 62
7
100
AcDbLine
 10
123.0
 20
-52.06726806059982
 30
0.0
 11
123.8893900504998
 21
-51.17787801009997
 31
0.0
  0
LINE
  5
940
330
1F
100
AcDbEntity
  8
2
  6
CONTINUOUS
370
25
 62
7
100
AcDbLine
 10
123.0
 20
-51.64300399188788
 30
0.0
 11
123.5358366599066
 21
-51.1071673319813
 31
0.0
  0
LINE
  5
941
330
1F
100
AcDbEntity
  8
2
  6
CONTINUOUS
370
25
 62
7
100
AcDbLine
 10
123.0
 20
-51.21873992317595
 30
0.0
 11
123.1822832693133
 21
-51.03645665386266
 31
0.0
  0
LINE
  5
942
330
1F
100
AcDbEntity
  8
2
  6
CONTINUOUS
370
25
 62
7
100
AcDbLine
 10
123.0
 20
-52.6353247018268
 30
0.0
 11
123.303896081811
 21
-52.93922078363779
 31
0.0
  0
LINE
  5
943
330
1F
100
AcDbEntity
  8
2
  6
CONTINUOUS
370
25
 62
7
100
AcDbLine
 10
123.0
 20
-52.21106063311488
 30
0.0
 11
123.6574494724043
 21
-52.86851010551916
 31
0.0
  0
LINE
  5
944
330
1F
100
AcDbEntity
  8
2
  6
CONTINUOUS
370
25
 62
7
100
AcDbLine
 10
123.0
 20
-51.78679656440295
 30
0.0
 11
124.0110028629975
 21
-52.79779942740049
 31
0.0
  0
LINE
  5
945
330
1F
100
AcDbEntity
  8
2
  6
CONTINUOUS
370
25
 62
7
100
AcDbLine
 10
123.0
 20
-51.36253249569102
 30
0.0
 11
124.3645562535908
 21
-52.72708874928183
 31
0.0
  0
LINE
  5
946
330
1F
100
AcDbEntity
  8
2
  6
CONTINUOUS
370
25
 62
7
100
AcDbLine
 10
123.0771644662761
 20
-51.01543289325522
 30
0.0
 11
124.7181096441841
 21
-52.65637807116319
 31
0.0
  0
LINE
  5
947
330
1F
100
AcDbEntity
  8
2
  6
CONTINUOUS
370
25
 62
7
100
AcDbLine
 10
123.607494552166
 20
-51.12149891043321
 30
0.0
 11
125.0716630347774
 21
-52.58566739304454
 31
0.0
  0
LINE
  5
948
330
1F
100
AcDbEntity
  8
2
  6
CONTINUOUS
370
25
 62
7
100
AcDbLine
 10
124.1378246380559
 20
-51.22756492761118
 30
0.0
 11
125.4252164253706
 21
-52.51495671492587
 31
0.0
  0
LINE
  5
949
330
1F
100
AcDbEntity
  8
2
  6
CONTINUOUS
370
25
 62
7
100
AcDbLine
 10
124.6681547239459
 20
-51.33363094478917
 30
0.0
 11
125.7787698159639
 21
-52.44424603680721
 31
0.0
  0
LINE
  5
94A
330
1F
100
AcDbEntity
  8
2
  6
CONTINUOUS
370
25
 62
7
100
AcDbLine
 10
125.1984848098358
 20
-51.43969696196716
 30
0.0
 11
126.1323232065572
 21
-52.37353535868857
 31
0.0
  0
LINE
  5
94B
330
1F
100
AcDbEntity
  8
2
  6
CONTINUOUS
370
25
 62
7
100
AcDbLine
 10
125.7288148957257
 20
-51.54576297914513
 30
0.0
 11
126.4858765971505
 21
-52.30282468056992
 31
0.0
  0
LINE
  5
94C
330
1F
100
AcDbEntity
  8
2
  6
CONTINUOUS
370
25
 62
7
100
AcDbLine
 10
126.2591449816156
 20
-51.65182899632312
 30
0.0
 11
126.8394299877437
 21
-52.23211400245125
 31
0.0
  0
LINE
  5
94D
330
1F
100
AcDbEntity
  8
2
  6
CONTINUOUS
370
25
 62
7
100
AcDbLine
 10
126.7894750675055
 20
-51.75789501350111
 30
0.0
 11
127.192983378337
 21
-52.1614033243326
 31
0.0
  0
LINE
  5
94E
330
1F
100
AcDbEntity
  8
2
  6
CONTINUOUS
370
25
 62
7
100
AcDbLine
 10
127.3198051533954
 20
-51.86396103067908
 30
0.0
 11
127.5465367689303
 21
-52.09069264621395
 31
0.0
  0
LINE
  5
94F
330
1F
100
AcDbEntity
  8
2
  6
CONTINUOUS
370
25
 62
7
100
AcDbLine
 10
127.8501352392853
 20
-51.97002704785705
 30
0.0
 11
127.9000901595236
 21
-52.01998196809529
 31
0.0
  0
TEXT
  5
950
330
1F
100
AcDbEntity
  8
2
  6
CONTINUOUS
370
25
 62
7
100
AcDbText
 10
87.43333333333332
 20
-50.5
 30
0.0
 40
3.5
  1
71.8
 72
     1
 11
92.1
 21
-50.5
 31
0.0
100
AcDbText
  0
LINE
  5
951
330
1F
100
AcDbEntity
  8
4
  6
LONGDASH_DASH
370
25
 62
2
100
AcDbLine
 10
50.0
 20
0.0
 30
0.0
 11
128.0
 21
0.0
 31
0.0
  0
LINE
  5
952
330
1F
100
AcDbEntity
  8
SK4
  6
LONGDASH_DASH
370
25
 62
2
100
AcDbLine
 10
-6.0
 20
0.0
 30
0.0
 11
134.0
 21
0.0
 31
0.0
  0
LINE
  5
953
330
1F
100
AcDbEntity
  8
2
  6
CONTINUOUS
370
25
 62
7
100
AcDbLine
 10
128.0
 20
0.0
 30
0.0
 11
138.5
 21
18.18653347947321
 31
0.0
  0
LINE
  5
954
330
1F
100
AcDbEntity
  8
2
  6
CONTINUOUS
370
25
 62
7
100
AcDbLine
 10
128.0
 20
0.0
 30
0.0
 11
138.5
 21
-18.18653347947321
 31
0.0
  0
ARC
  5
955
330
1F
100
AcDbEntity
  8
2
  6
CONTINUOUS
370
25
 62
7
100
AcDbCircle
 10
128.0
 20
0.0000000000000044
 30
0.0
 40
19.99999999999999
100
AcDbArc
 50
300.0
 51
60.0
  0
LINE
  5
956
330
1F
100
AcDbEntity
  8
2
  6
CONTINUOUS
370
25
 62
7
100
AcDbLine
 10
138.0
 20
17.32050807568877
 30
0.0
 11
142.5879962603188
 21
15.09558328700466
 31
0.0
  0
LINE
  5
957
330
1F
100
AcDbEntity
  8
2
  6
CONTINUOUS
370
25
 62
7
100
AcDbLine
 10
142.5879962603188
 20
15.09558328700466
 30
0.0
 11
141.3793331677234
 21
13.50211740139622
 31
0.0
  0
LINE
  5
958
330
1F
100
AcDbEntity
  8
2
  6
CONTINUOUS
370
25
 62
7
100
AcDbLine
 10
141.3793331677234
 20
13.50211740139622
 30
0.0
 11
138.0
 21
17.32050807568877
 31
0.0
  0
LINE
  5
959
330
1F
100
AcDbEntity
  8
2
  6
CONTINUOUS
370
25
 62
7
100
AcDbLine
 10
141.2455981721517
 20
13.65322782306021
 30
0.0
 11
142.2740307872807
 21
14.68166043818916
 31
0.0
  0
LINE
  5
95A
330
1F
100
AcDbEntity
  8
2
  6
CONTINUOUS
370
25
 62
7
100
AcDbLine
 10
141.0464060843833
 20
13.87829980400373
 30
0.0
 11
142.3695997922432
 21
15.20149351186365
 31
0.0
  0
LINE
  5
95B
330
1F
100
AcDbEntity
  8
2
  6
CONTINUOUS
370
25
 62
7
100
AcDbLine
 10
140.8472139966149
 20
14.10337178494727
 30
0.0
 11
142.0838894564507
 21
15.34004724478312
 31
0.0
  0
LINE
  5
95C
330
1F
100
AcDbEntity
  8
2
  6
CONTINUOUS
370
25
 62
7
100
AcDbLine
 10
140.6480219088465
 20
14.32844376589081
 30
0.0
 11
141.7981791206583
 21
15.47860097770263
 31
0.0
  0
LINE
  5
95D
330
1F
100
AcDbEntity
  8
2
  6
CONTINUOUS
370
25
 62
7
100
AcDbLine
 10
140.4488298210781
 20
14.55351574683434
 30
0.0
 11
141.5124687848659
 21
15.61715471062212
 31
0.0
  0
LINE
  5
95E
330
1F
100
AcDbEntity
  8
2
  6
CONTINUOUS
370
25
 62
7
100
AcDbLine
 10
140.2496377333097
 20
14.77858772777786
 30
0.0
 11
141.2267584490734
 21
15.75570844354159
 31
0.0
  0
LINE
  5
95F
330
1F
100
AcDbEntity
  8
2
  6
CONTINUOUS
370
25
 62
7
100
AcDbLine
 10
140.0504456455413
 20
15.0036597087214
 30
0.0
 11
140.941048113281
 21
15.89426217646108
 31
0.0
  0
LINE
  5
960
330
1F
100
AcDbEntity
  8
2
  6
CONTINUOUS
370
25
 62
7
100
AcDbLine
 10
139.8512535577729
 20
15.22873168966493
 30
0.0
 11
140.6553377774886
 21
16.03281590938059
 31
0.0
  0
LINE
  5
961
330
1F
100
AcDbEntity
  8
2
  6
CONTINUOUS
370
25
 62
7
100
AcDbLine
 10
139.6520614700045
 20
15.45380367060845
 30
0.0
 11
140.3696274416962
 21
16.17136964230008
 31
0.0
  0
LINE
  5
962
330
1F
100
AcDbEntity
  8
2
  6
CONTINUOUS
370
25
 62
7
100
AcDbLine
 10
139.4528693822361
 20
15.67887565155198
 30
0.0
 11
140.0839171059037
 21
16.30992337521957
 31
0.0
  0
LINE
  5
963
330
1F
100
AcDbEntity
  8
2
  6
CONTINUOUS
370
25
 62
7
100
AcDbLine
 10
139.2536772944678
 20
15.90394763249552
 30
0.0
 11
139.7982067701113
 21
16.44847710813907
 31
0.0
  0
LINE
  5
964
330
1F
100
AcDbEntity
  8
2
  6
CONTINUOUS
370
25
 62
7
100
AcDbLine
 10
139.0544852066994
 20
16.12901961343904
 30
0.0
 11
139.5124964343189
 21
16.58703084105856
 31
0.0
  0
LINE
  5
965
330
1F
100
AcDbEntity
  8
2
  6
CONTINUOUS
370
25
 62
7
100
AcDbLine
 10
138.8552931189309
 20
16.35409159438257
 30
0.0
 11
139.2267860985264
 21
16.72558457397805
 31
0.0
  0
LINE
  5
966
330
1F
100
AcDbEntity
  8
2
  6
CONTINUOUS
370
25
 62
7
100
AcDbLine
 10
138.6561010311626
 20
16.57916357532612
 30
0.0
 11
138.941075762734
 21
16.86413830689756
 31
0.0
  0
LINE
  5
967
330
1F
100
AcDbEntity
  8
2
  6
CONTINUOUS
370
25
 62
7
100
AcDbLine
 10
138.4569089433942
 20
16.80423555626965
 30
0.0
 11
138.6553654269416
 21
17.00269203981705
 31
0.0
  0
LINE
  5
968
330
1F
100
AcDbEntity
  8
2
  6
CONTINUOUS
370
25
 62
7
100
AcDbLine
 10
138.2577168556258
 20
17.02930753721317
 30
0.0
 11
138.3696550911492
 21
17.14124577273654
 31
0.0
  0
LINE
  5
969
330
1F
100
AcDbEntity
  8
2
  6
CONTINUOUS
370
25
 62
7
100
AcDbLine
 10
138.0585247678574
 20
17.25437951815671
 30
0.0
 11
138.0839447553567
 21
17.27979950565603
 31
0.0
  0
LINE
  5
96A
330
1F
100
AcDbEntity
  8
2
  6
CONTINUOUS
370
25
 62
7
100
AcDbLine
 10
138.7929158188024
 20
16.42457322175613
 30
0.0
 11
141.5242791360495
 21
13.693209904509
 31
0.0
  0
LINE
  5
96B
330
1F
100
AcDbEntity
  8
2
  6
CONTINUOUS
370
25
 62
7
100
AcDbLine
 10
138.623709875224
 20
17.01804323404644
 30
0.0
 11
141.707280106153
 21
13.93447300311742
 31
0.0
  0
LINE
  5
96C
330
1F
100
AcDbEntity
  8
2
  6
CONTINUOUS
370
25
 62
7
100
AcDbLine
 10
139.4474352614441
 20
16.61858191653828
 30
0.0
 11
141.8902810762565
 21
14.17573610172583
 31
0.0
  0
LINE
  5
96D
330
1F
100
AcDbEntity
  8
2
  6
CONTINUOUS
370
25
 62
7
100
AcDbLine
 10
140.2711606476641
 20
16.21912059903013
 30
0.0
 11
142.07328204636
 21
14.41699920033425
 31
0.0
  0
LINE
  5
96E
330
1F
100
AcDbEntity
  8
2
  6
CONTINUOUS
370
25
 62
7
100
AcDbLine
 10
141.0948860338843
 20
15.81965928152196
 30
0.0
 11
142.2562830164636
 21
14.65826229894267
 31
0.0
  0
LINE
  5
96F
330
1F
100
AcDbEntity
  8
2
  6
CONTINUOUS
370
25
 62
7
100
AcDbLine
 10
141.9186114201044
 20
15.42019796401379
 30
0.0
 11
142.4392839865671
 21
14.89952539755109
 31
0.0
  0
LINE
  5
970
330
1F
100
AcDbEntity
  8
2
  6
CONTINUOUS
370
25
 62
7
100
AcDbLine
 10
138.0
 20
-17.32050807568877
 30
0.0
 11
141.3793331677234
 21
-13.50211740139622
 31
0.0
  0
LINE
  5
971
330
1F
100
AcDbEntity
  8
2
  6
CONTINUOUS
370
25
 62
7
100
AcDbLine
 10
141.3793331677234
 20
-13.50211740139622
 30
0.0
 11
142.5879962603188
 21
-15.09558328700466
 31
0.0
  0
LINE
  5
972
330
1F
100
AcDbEntity
  8
2
  6
CONTINUOUS
370
25
 62
7
100
AcDbLine
 10
142.5879962603188
 20
-15.09558328700466
 30
0.0
 11
138.0
 21
-17.32050807568877
 31
0.0
  0
LINE
  5
973
330
1F
100
AcDbEntity
  8
2
  6
CONTINUOUS
370
25
 62
7
100
AcDbLine
 10
142.0720061650988
 20
-15.34580998476807
 30
0.0
 11
142.473362561311
 21
-14.94445358855592
 31
0.0
  0
LINE
  5
974
330
1F
100
AcDbEntity
  8
2
  6
CONTINUOUS
370
25
 62
7
100
AcDbLine
 10
141.2482807788787
 20
-15.74527130227624
 30
0.0
 11
142.2903615912074
 21
-14.7031904899475
 31
0.0
  0
LINE
  5
975
330
1F
100
AcDbEntity
  8
2
  6
CONTINUOUS
370
25
 62
7
100
AcDbLine
 10
140.4245553926586
 20
-16.14473261978439
 30
0.0
 11
142.107360621104
 21
-14.46192739133909
 31
0.0
  0
LINE
  5
976
330
1F
100
AcDbEntity
  8
2
  6
CONTINUOUS
370
25
 62
7
100
AcDbLine
 10
139.6008300064385
 20
-16.54419393729256
 30
0.0
 11
141.9243596510005
 21
-14.22066429273065
 31
0.0
  0
LINE
  5
977
330
1F
100
AcDbEntity
  8
2
  6
CONTINUOUS
370
25
 62
7
100
AcDbLine
 10
138.7771046202184
 20
-16.94365525480073
 30
0.0
 11
141.741358680897
 21
-13.97940119412223
 31
0.0
  0
LINE
  5
978
330
1F
100
AcDbEntity
  8
2
  6
CONTINUOUS
370
25
 62
7
100
AcDbLine
 10
138.1848173807284
 20
-17.11167842557886
 30
0.0
 11
141.5583577107934
 21
-13.73813809551382
 31
0.0
  0
LINE
  5
979
330
1F
100
AcDbEntity
  8
2
  6
CONTINUOUS
370
25
 62
7
100
AcDbLine
 10
138.0810392887365
 20
-17.22893981384398
 30
0.0
 11
138.1162383639666
 21
-17.26413888907408
 31
0.0
  0
LINE
  5
97A
330
1F
100
AcDbEntity
  8
2
  6
CONTINUOUS
370
25
 62
7
100
AcDbLine
 10
138.2802313765049
 20
-17.00386783290044
 30
0.0
 11
138.4019486997591
 21
-17.12558515615457
 31
0.0
  0
LINE
  5
97B
330
1F
100
AcDbEntity
  8
2
  6
CONTINUOUS
370
25
 62
7
100
AcDbLine
 10
138.4794234642733
 20
-16.77879585195691
 30
0.0
 11
138.6876590355515
 21
-16.98703142323508
 31
0.0
  0
LINE
  5
97C
330
1F
100
AcDbEntity
  8
2
  6
CONTINUOUS
370
25
 62
7
100
AcDbLine
 10
138.6786155520417
 20
-16.55372387101337
 30
0.0
 11
138.9733693713439
 21
-16.84847769031559
 31
0.0
  0
LINE
  5
97D
330
1F
100
AcDbEntity
  8
2
  6
CONTINUOUS
370
25
 62
7
100
AcDbLine
 10
138.8778076398101
 20
-16.32865189006985
 30
0.0
 11
139.2590797071364
 21
-16.7099239573961
 31
0.0
  0
LINE
  5
97E
330
1F
100
AcDbEntity
  8
2
  6
CONTINUOUS
370
25
 62
7
100
AcDbLine
 10
139.0769997275785
 20
-16.10357990912632
 30
0.0
 11
139.5447900429288
 21
-16.57137022447661
 31
0.0
  0
LINE
  5
97F
330
1F
100
AcDbEntity
  8
2
  6
CONTINUOUS
370
25
 62
7
100
AcDbLine
 10
139.2761918153469
 20
-15.87850792818278
 30
0.0
 11
139.8305003787212
 21
-16.43281649155712
 31
0.0
  0
LINE
  5
980
330
1F
100
AcDbEntity
  8
2
  6
CONTINUOUS
370
25
 62
7
100
AcDbLine
 10
139.4753839031153
 20
-15.65343594723926
 30
0.0
 11
140.1162107145137
 21
-16.29426275863763
 31
0.0
  0
LINE
  5
981
330
1F
100
AcDbEntity
  8
2
  6
CONTINUOUS
370
25
 62
7
100
AcDbLine
 10
139.6745759908837
 20
-15.42836396629573
 30
0.0
 11
140.4019210503061
 21
-16.15570902571812
 31
0.0
  0
LINE
  5
982
330
1F
100
AcDbEntity
  8
2
  6
CONTINUOUS
370
25
 62
7
100
AcDbLine
 10
139.8737680786521
 20
-15.20329198535219
 30
0.0
 11
140.6876313860985
 21
-16.01715529279865
 31
0.0
  0
LINE
  5
983
330
1F
100
AcDbEntity
  8
2
  6
CONTINUOUS
370
25
 62
7
100
AcDbLine
 10
140.0729601664205
 20
-14.97822000440867
 30
0.0
 11
140.973341721891
 21
-15.87860155987916
 31
0.0
  0
LINE
  5
984
330
1F
100
AcDbEntity
  8
2
  6
CONTINUOUS
370
25
 62
7
100
AcDbLine
 10
140.2721522541889
 20
-14.75314802346514
 30
0.0
 11
141.2590520576834
 21
-15.74004782695965
 31
0.0
  0
LINE
  5
985
330
1F
100
AcDbEntity
  8
2
  6
CONTINUOUS
370
25
 62
7
100
AcDbLine
 10
140.4713443419573
 20
-14.52807604252159
 30
0.0
 11
141.5447623934758
 21
-15.60149409404015
 31
0.0
  0
LINE
  5
986
330
1F
100
AcDbEntity
  8
2
  6
CONTINUOUS
370
25
 62
7
100
AcDbLine
 10
140.6705364297256
 20
-14.30300406157806
 30
0.0
 11
141.8304727292683
 21
-15.46294036112066
 31
0.0
  0
LINE
  5
987
330
1F
100
AcDbEntity
  8
2
  6
CONTINUOUS
370
25
 62
7
100
AcDbLine
 10
140.869728517494
 20
-14.07793208063454
 30
0.0
 11
142.1161830650607
 21
-15.32438662820117
 31
0.0
  0
LINE
  5
988
330
1F
100
AcDbEntity
  8
2
  6
CONTINUOUS
370
25
 62
7
100
AcDbLine
 10
141.0689206052624
 20
-13.85286009969101
 30
0.0
 11
142.4018934008531
 21
-15.18583289528168
 31
0.0
  0
LINE
  5
989
330
1F
100
AcDbEntity
  8
2
  6
CONTINUOUS
370
25
 62
7
100
AcDbLine
 10
141.2681126930308
 20
-13.62778811874747
 30
0.0
 11
142.1234068750434
 21
-14.48308230076006
 31
0.0
  0
TEXT
  5
98A
330
1F
100
AcDbEntity
  8
2
  6
CONTINUOUS
370
25
 62
7
100
AcDbText
 10
145.5
 20
-4.958333333333333
 30
0.0
 40
3.5
  1
120°
 50
90.0
 72
     1
 11
145.5
 21
0.0
 31
0.0
100
AcDbText
  0
LINE
  5
98B
330
1F
100
AcDbEntity
  8
SK1
  6
CONTINUOUS
370
50
 62
4
100
AcDbLine
 10
50.0
 20
0.0
 30
0.0
 11
52.625
 21
0.0
 31
0.0
  0
LINE
  5
98C
330
1F
100
AcDbEntity
  8
SK1
  6
CONTINUOUS
370
50
 62
4
100
AcDbLine
 10
50.0
 20
0.0
 30
0.0
 11
50.0
 21
2.625
 31
0.0
  0
ARC
  5
98D
330
1F
100
AcDbEntity
  8
SK1
  6
CONTINUOUS
370
50
 62
4
100
AcDbCircle
 10
50.0
 20
0.0
 30
0.0
 40
2.625
100
AcDbArc
 50
0.0
 51
90.0
  0
LINE
  5
98E
330
1F
100
AcDbEntity
  8
SK1
  6
CONTINUOUS
370
50
 62
4
100
AcDbLine
 10
50.0
 20
0.0
 30
0.0
 11
47.375
 21
0.0
 31
0.0
  0
ARC
  5
98F
330
1F
100
AcDbEntity
  8
SK1
  6
CONTINUOUS
370
50
 62
4
100
AcDbCircle
 10
50.0
 20
0.0
 30
0.0
 40
2.625
100
AcDbArc
 50
180.0
 51
270.0
  0
LINE
  5
990
330
1F
100
AcDbEntity
  8
SK1
  6
CONTINUOUS
370
50
 62
4
100
AcDbLine
 10
50.0
 20
-2.625
 30
0.0
 11
50.0
 21
0.0
 31
0.0
  0
ARC
  5
991
330
1F
100
AcDbEntity
  8
SK1
  6
CONTINUOUS
370
50
 62
4
100
AcDbCircle
 10
50.0
 20
0.0
 30
0.0
 40
2.625
100
AcDbArc
 50
270.0
 51
0.0
  0
ARC
  5
992
330
1F
100
AcDbEntity
  8
SK1
  6
CONTINUOUS
370
50
 62
4
100
AcDbCircle
 10
50.0
 20
0.0
 30
0.0
 40
2.625
100
AcDbArc
 50
90.0
 51
180.0
  0
LINE
  5
993
330
1F
100
AcDbEntity
  8
SK1
  6
CONTINUOUS
370
50
 62
4
100
AcDbLine
 10
49.66575722192682
 20
-2.60347067499975
 30
0.0
 11
50.0
 21
-2.269227896926564
 31
0.0
  0
LINE
  5
994
330
1F
100
AcDbEntity
  8
SK1
  6
CONTINUOUS
370
50
 62
4
100
AcDbLine
 10
52.26922789692657
 20
0.0
 30
0.0
 11
52.60347067499975
 21
0.3342427780731851
 31
0.0
  0
LINE
  5
995
330
1F
100
AcDbEntity
  8
SK1
  6
CONTINUOUS
370
50
 62
4
100
AcDbLine
 10
49.35395391214686
 20
-2.544042924656761
 30
0.0
 11
50.0
 21
-1.897996836803626
 31
0.0
  0
LINE
  5
996
330
1F
100
AcDbEntity
  8
SK1
  6
CONTINUOUS
370
50
 62
4
100
AcDbLine
 10
51.89799683680363
 20
0.0
 30
0.0
 11
52.54404292465676
 21
0.6460460878531347
 31
0.0
  0
LINE
  5
997
330
1F
100
AcDbEntity
  8
SK1
  6
CONTINUOUS
370
50
 62
4
100
AcDbLine
 10
49.07222348891575
 20
-2.454542287764935
 30
0.0
 11
50.0
 21
-1.526765776680689
 31
0.0
  0
LINE
  5
998
330
1F
100
AcDbEntity
  8
SK1
  6
CONTINUOUS
370
50
 62
4
100
AcDbLine
 10
51.52676577668069
 20
0.0
 30
0.0
 11
52.45454228776494
 21
0.9277765110842457
 31
0.0
  0
LINE
  5
999
330
1F
100
AcDbEntity
  8
SK1
  6
CONTINUOUS
370
50
 62
4
100
AcDbLine
 10
48.81478120678253
 20
-2.340753509775221
 30
0.0
 11
50.0
 21
-1.155534716557751
 31
0.0
  0
LINE
  5
99A
330
1F
100
AcDbEntity
  8
SK1
  6
CONTINUOUS
370
50
 62
4
100
AcDbLine
 10
51.15553471655775
 20
0.0
 30
0.0
 11
52.34075350977522
 21
1.185218793217471
 31
0.0
  0
LINE
  5
99B
330
1F
100
AcDbEntity
  8
SK1
  6
CONTINUOUS
370
50
 62
4
100
AcDbLine
 10
48.57826543845547
 20
-2.206038217979337
 30
0.0
 11
50.0
 21
-0.7843036564348136
 31
0.0
  0
LINE
  5
99C
330
1F
100
AcDbEntity
  8
SK1
  6
CONTINUOUS
370
50
 62
4
100
AcDbLine
 10
50.78430365643482
 20
0.0
 30
0.0
 11
52.20603821797934
 21
1.421734561544524
 31
0.0
  0
LINE
  5
99D
330
1F
100
AcDbEntity
  8
SK1
  6
CONTINUOUS
370
50
 62
4
100
AcDbLine
 10
48.3626431117109
 20
-2.050429484600978
 30
0.0
 11
50.0
 21
-0.413072596311876
 31
0.0
  0
LINE
  5
99E
330
1F
100
AcDbEntity
  8
SK1
  6
CONTINUOUS
370
50
 62
4
100
AcDbLine
 10
50.41307259631188
 20
0.0
 30
0.0
 11
52.05042948460098
 21
1.637356888289101
 31
0.0
  0
LINE
  5
99F
330
1F
100
AcDbEntity
  8
SK1
  6
CONTINUOUS
370
50
 62
4
100
AcDbLine
 10
48.16568136807246
 20
-1.876160168116476
 30
0.0
 11
50.0
 21
-0.0418415361889384
 31
0.0
  0
LINE
  5
9A0
330
1F
100
AcDbEntity
  8
SK1
  6
CONTINUOUS
370
50
 62
4
100
AcDbLine
 10
50.04184153618894
 20
0.0
 30
0.0
 11
51.87616016811648
 21
1.834318631927537
 31
0.0
  0
LINE
  5
9A1
330
1F
100
AcDbEntity
  8
SK1
  6
CONTINUOUS
370
50
 62
4
100
AcDbLine
 10
47.98675942477632
 20
-1.683851051289679
 30
0.0
 11
49.670610476066
 21
0.0
 31
0.0
  0
LINE
  5
9A2
330
1F
100
AcDbEntity
  8
SK1
  6
CONTINUOUS
370
50
 62
4
100
AcDbLine
 10
50.0
 20
0.3293895239339992
 30
0.0
 11
51.68385105128968
 21
2.013240575223679
 31
0.0
  0
LINE
  5
9A3
330
1F
100
AcDbEntity
  8
SK1
  6
CONTINUOUS
370
50
 62
4
100
AcDbLine
 10
47.82782161830507
 20
-1.471557797638
 30
0.0
 11
49.29937941594306
 21
0.0
 31
0.0
  0
LINE
  5
9A4
330
1F
100
AcDbEntity
  8
SK1
  6
CONTINUOUS
370
50
 62
4
100
AcDbLine
 10
50.0
 20
0.7006205840569368
 30
0.0
 11
51.471557797638
 21
2.172178381694937
 31
0.0
  0
LINE
  5
9A5
330
1F
100
AcDbEntity
  8
SK1
  6
CONTINUOUS
370
50
 62
4
100
AcDbLine
 10
47.68749288718529
 20
-1.240655468634837
 30
0.0
 11
48.92814835582013
 21
0.0
 31
0.0
  0
LINE
  5
9A6
330
1F
100
AcDbEntity
  8
SK1
  6
CONTINUOUS
370
50
 62
4
100
AcDbLine
 10
50.0
 20
1.071851644179874
 30
0.0
 11
51.24065546863483
 21
2.312507112814711
 31
0.0
  0
LINE
  5
9A7
330
1F
100
AcDbEntity
  8
SK1
  6
CONTINUOUS
370
50
 62
4
100
AcDbLine
 10
47.56877644288387
 20
-0.9881408528133115
 30
0.0
 11
48.55691729569719
 21
0.0
 31
0.0
  0
LINE
  5
9A8
330
1F
100
AcDbEntity
  8
SK1
  6
CONTINUOUS
370
50
 62
4
100
AcDbLine
 10
50.0
 20
1.443082704302812
 30
0.0
 11
50.98814085281331
 21
2.431223557116124
 31
0.0
  0
LINE
  5
9A9
330
1F
100
AcDbEntity
  8
SK1
  6
CONTINUOUS
370
50
 62
4
100
AcDbLine
 10
47.47444482033456
 20
-0.7112414152396886
 30
0.0
 11
48.18568623557425
 21
0.0
 31
0.0
  0
LINE
  5
9AA
330
1F
100
AcDbEntity
  8
SK1
  6
CONTINUOUS
370
50
 62
4
100
AcDbLine
 10
50.0
 20
1.81431376442575
 30
0.0
 11
50.71124141523969
 21
2.525555179665439
 31
0.0
  0
LINE
  5
9AB
330
1F
100
AcDbEntity
  8
SK1
  6
CONTINUOUS
370
50
 62
4
100
AcDbLine
 10
47.40797120571085
 20
-0.4064839697404632
 30
0.0
 11
47.81445517545131
 21
0.0
 31
0.0
  0
LINE
  5
9AC
330
1F
100
AcDbEntity
  8
SK1
  6
CONTINUOUS
370
50
 62
4
100
AcDbLine
 10
50.0
 20
2.185544824548687
 30
0.0
 11
50.40648396974046
 21
2.59202879428915
 31
0.0
  0
LINE
  5
9AD
330
1F
100
AcDbEntity
  8
SK1
  6
CONTINUOUS
370
50
 62
4
100
AcDbLine
 10
47.37707870331546
 20
-0.0661454120129097
 30
0.0
 11
47.44322411532838
 21
0.0
 31
0.0
  0
LINE
  5
9AE
330
1F
100
AcDbEntity
  8
SK1
  6
CONTINUOUS
370
50
 62
4
100
AcDbLine
 10
50.0
 20
2.556775884671625
 30
0.0
 11
50.06614541201291
 21
2.622921296684535
 31
0.0
  0
LINE
  5
9AF
330
1F
100
AcDbEntity
  8
SK1
  6
CONTINUOUS
370
50
 62
4
100
AcDbLine
 10
47.54579652643623
 20
-0.9287176037316112
 30
0.0
 11
49.07128239626839
 21
-2.454203473563768
 31
0.0
  0
LINE
  5
9B0
330
1F
100
AcDbEntity
  8
SK1
  6
CONTINUOUS
370
50
 62
4
100
AcDbLine
 10
47.41045104563307
 20
-0.4221410628055069
 30
0.0
 11
49.5778589371945
 21
-2.589548954366935
 31
0.0
  0
LINE
  5
9B1
330
1F
100
AcDbEntity
  8
SK1
  6
CONTINUOUS
370
50
 62
4
100
AcDbLine
 10
47.37550158008622
 20
-0.0159605371357268
 30
0.0
 11
49.98403946286427
 21
-2.624498419913778
 31
0.0
  0
LINE
  5
9B2
330
1F
100
AcDbEntity
  8
SK1
  6
CONTINUOUS
370
50
 62
4
100
AcDbLine
 10
47.73077210307343
 20
0.0
 30
0.0
 11
50.0
 21
-2.269227896926564
 31
0.0
  0
LINE
  5
9B3
330
1F
100
AcDbEntity
  8
SK1
  6
CONTINUOUS
370
50
 62
4
100
AcDbLine
 10
48.10200316319637
 20
0.0
 30
0.0
 11
50.0
 21
-1.897996836803626
 31
0.0
  0
LINE
  5
9B4
330
1F
100
AcDbEntity
  8
SK1
  6
CONTINUOUS
370
50
 62
4
100
AcDbLine
 10
48.47323422331931
 20
0.0
 30
0.0
 11
50.0
 21
-1.526765776680689
 31
0.0
  0
LINE
  5
9B5
330
1F
100
AcDbEntity
  8
SK1
  6
CONTINUOUS
370
50
 62
4
100
AcDbLine
 10
48.84446528344225
 20
0.0
 30
0.0
 11
50.0
 21
-1.155534716557752
 31
0.0
  0
LINE
  5
9B6
330
1F
100
AcDbEntity
  8
SK1
  6
CONTINUOUS
370
50
 62
4
100
AcDbLine
 10
49.21569634356518
 20
0.0
 30
0.0
 11
50.0
 21
-0.7843036564348145
 31
0.0
  0
LINE
  5
9B7
330
1F
100
AcDbEntity
  8
SK1
  6
CONTINUOUS
370
50
 62
4
100
AcDbLine
 10
49.58692740368812
 20
0.0
 30
0.0
 11
50.0
 21
-0.4130725963118769
 31
0.0
  0
LINE
  5
9B8
330
1F
100
AcDbEntity
  8
SK1
  6
CONTINUOUS
370
50
 62
4
100
AcDbLine
 10
49.95815846381106
 20
0.0
 30
0.0
 11
50.0
 21
-0.0418415361889393
 31
0.0
  0
LINE
  5
9B9
330
1F
100
AcDbEntity
  8
SK1
  6
CONTINUOUS
370
50
 62
4
100
AcDbLine
 10
50.0
 20
0.3293895239339975
 30
0.0
 11
50.329389523934
 21
0.0
 31
0.0
  0
LINE
  5
9BA
330
1F
100
AcDbEntity
  8
SK1
  6
CONTINUOUS
370
50
 62
4
100
AcDbLine
 10
50.0
 20
0.7006205840569351
 30
0.0
 11
50.70062058405694
 21
0.0
 31
0.0
  0
LINE
  5
9BB
330
1F
100
AcDbEntity
  8
SK1
  6
CONTINUOUS
370
50
 62
4
100
AcDbLine
 10
50.0
 20
1.071851644179873
 30
0.0
 11
51.07185164417987
 21
0.0
 31
0.0
  0
LINE
  5
9BC
330
1F
100
AcDbEntity
  8
SK1
  6
CONTINUOUS
370
50
 62
4
100
AcDbLine
 10
50.0
 20
1.44308270430281
 30
0.0
 11
51.44308270430281
 21
0.0
 31
0.0
  0
LINE
  5
9BD
330
1F
100
AcDbEntity
  8
SK1
  6
CONTINUOUS
370
50
 62
4
100
AcDbLine
 10
50.0
 20
1.814313764425748
 30
0.0
 11
51.81431376442575
 21
0.0
 31
0.0
  0
LINE
  5
9BE
330
1F
100
AcDbEntity
  8
SK1
  6
CONTINUOUS
370
50
 62
4
100
AcDbLine
 10
50.0
 20
2.185544824548685
 30
0.0
 11
52.18554482454869
 21
0.0
 31
0.0
  0
LINE
  5
9BF
330
1F
100
AcDbEntity
  8
SK1
  6
CONTINUOUS
370
50
 62
4
100
AcDbLine
 10
50.0
 20
2.556775884671622
 30
0.0
 11
52.55677588467162
 21
0.0
 31
0.0
  0
LINE
  5
9C0
330
1F
100
AcDbEntity
  8
SK1
  6
CONTINUOUS
370
50
 62
4
100
AcDbLine
 10
50.3231531925751
 20
2.604853752219459
 30
0.0
 11
52.60485375221946
 21
0.3231531925751043
 31
0.0
  0
LINE
  5
9C1
330
1F
100
AcDbEntity
  8
SK1
  6
CONTINUOUS
370
50
 62
4
100
AcDbLine
 10
50.79925237182748
 20
2.499985633090018
 30
0.0
 11
52.49998563309002
 21
0.7992523718274818
 31
0.0
  0
LINE
  5
9C2
330
1F
100
AcDbEntity
  8
SK1
  6
CONTINUOUS
370
50
 62
4
100
AcDbLine
 10
51.56015793098176
 20
2.11031113405868
 30
0.0
 11
52.11031113405868
 21
1.560157930981759
 31
0.0
  0
ARC
  5
9C3
330
1F
100
AcDbEntity
  8
SK6
  6
CONTINUOUS
370
25
 62
5
100
AcDbCircle
 10
160.2613820083765
 20
-35.54524575338786
 30
0.0
 40
2.76048912849221
100
AcDbArc
 50
338.9379403434233
 51
90.44457437511392
  0
LINE
  5
9C4
330
1F
100
AcDbEntity
  8
SK6
  6
CONTINUOUS
370
25
 62
5
100
AcDbLine
 10
160.2399627969598
 20
-32.78483972421282
 30
0.0
 11
160.2399627969598
 21
-33.88789835613464
 31
0.0
  0
ARC
  5
9C5
330
1F
100
AcDbEntity
  8
SK6
  6
CONTINUOUS
370
25
 62
5
100
AcDbCircle
 10
160.2505090293692
 20
-35.56523924566821
 30
0.0
 40
1.677374043771792
100
AcDbArc
 50
243.421470601786
 51
90.3602408122618
  0
ARC
  5
9C6
330
1F
100
AcDbEntity
  8
SK6
  6
CONTINUOUS
370
25
 62
5
100
AcDbCircle
 10
162.7727598968496
 20
-35.13383199215561
 30
0.0
 40
3.800217030022762
100
AcDbArc
 50
210.548373128854
 51
236.9780169366803
  0
LINE
  5
9C7
330
1F
100
AcDbEntity
  8
SK6
  6
CONTINUOUS
370
25
 62
5
100
AcDbLine
 10
160.7017906851249
 20
-38.32016781867536
 30
0.0
 11
164.8437309674267
 21
-38.32016781867536
 31
0.0
  0
ARC
  5
9C8
330
1F
100
AcDbEntity
  8
SK6
  6
CONTINUOUS
370
25
 62
5
100
AcDbCircle
 10
162.7727618387726
 20
-35.1338320937346
 30
0.0
 40
3.800216899582486
100
AcDbArc
 50
303.021982847796
 51
326.3732153033475
  0
LINE
  5
9C9
330
1F
100
AcDbEntity
  8
SK6
  6
CONTINUOUS
370
25
 62
5
100
AcDbLine
 10
165.9370597513572
 20
-37.23831949077091
 30
0.0
 11
162.5797617057546
 21
-37.23831949077091
 31
0.0
  0
LINE
  5
9CA
330
1F
100
AcDbEntity
  8
SK6
  6
CONTINUOUS
370
25
 62
5
100
AcDbLine
 10
162.5797617057546
 20
-37.23831949077091
 30
0.0
 11
166.4996210977199
 21
-35.87691829641694
 31
0.0
  0
ARC
  5
9CB
330
1F
100
AcDbEntity
  8
SK6
  6
CONTINUOUS
370
25
 62
5
100
AcDbCircle
 10
162.7727625615721
 20
-35.13383260485941
 30
0.0
 40
3.800217216614737
100
AcDbArc
 50
348.7238644184696
 51
53.4691051260886
  0
LINE
  5
9CC
330
1F
100
AcDbEntity
  8
SK6
  6
CONTINUOUS
370
25
 62
5
100
AcDbLine
 10
165.0348652453854
 20
-32.08022124429968
 30
0.0
 11
162.8374504788273
 21
-36.53730973507058
 31
0.0
  0
ENDSEC
  0
SECTION
  2
OBJECTS
  0
DICTIONARY
  5
C
330
0
100
AcDbDictionary
281
     1
  3
ACAD_GROUP
350
D
  3
ACAD_LAYOUT
350
1A
  3
ACAD_MATERIAL
350
3B
  3
ACAD_MLEADERSTYLE
350
9CF
  3
ACAD_MLINESTYLE
350
17
  3
ACAD_PLOTSETTINGS
350
19
  3
ACAD_PLOTSTYLENAME
350
E
  3
ACAD_SCALELIST
350
2E8
  3
ACAD_VISUALSTYLE
350
2A
  3
AcDbVariableDictionary
350
9CD
  0
DICTIONARY
  5
D
102
{ACAD_REACTORS
330
C
102
}
330
C
100
AcDbDictionary
281
     1
  0
DICTIONARY
  5
1A
102
{ACAD_REACTORS
330
C
102
}
330
C
100
AcDbDictionary
281
     1
  3
Layout1
350
1E
  3
Layout2
350
26
  3
Model
350
22
  0
DICTIONARY
  5
3B
102
{ACAD_REACTORS
330
C
102
}
330
C
100
AcDbDictionary
281
     1
  3
ByBlock
350
3D
  3
ByLayer
350
3C
  3
Global
350
3E
  0
DICTIONARY
  5
9CF
102
{ACAD_REACTORS
330
C
102
}
330
C
100
AcDbDictionary
281
     1
  0
DICTIONARY
  5
17
102
{ACAD_REACTORS
330
C
102
}
330
C
100
AcDbDictionary
281
     1
  3
Standard
350
18
  0
DICTIONARY
  5
19
102
{ACAD_REACTORS
330
C
102
}
330
C
100
AcDbDictionary
281
     1
  0
ACDBDICTIONARYWDFLT
  5
E
102
{ACAD_REACTORS
330
C
102
}
330
C
100
AcDbDictionary
281
     1
  3
Normal
350
F
100
AcDbDictionaryWithDefault
340
F
  0
DICTIONARY
  5
2E8
102
{ACAD_REACTORS
330
C
102
}
330
C
100
AcDbDictionary
281
     1
  3
A0
350
2E9
  3
A1
350
2EA
  3
A2
350
2EB
  3
A3
350
2EC
  3
A4
350
2ED
  3
A5
350
2EE
  3
A6
350
2EF
  3
A7
350
2F0
  3
A8
350
2F1
  3
A9
350
2F2
  3
B0
350
2F3
  3
B1
350
2F4
  3
B2
350
2F5
  3
B3
350
2F6
  3
B4
350
2F7
  3
B5
350
2F8
  3
B6
350
2F9
  3
B7
350
2FA
  3
B8
350
2FB
  3
B9
350
2FC
  3
C0
350
2FD
  3
C1
350
2FE
  3
C2
350
2FF
  3
C3
350
300
  3
C4
350
301
  3
C5
350
302
  3
C6
350
303
  3
C7
350
304
  3
C8
350
305
  3
C9
350
306
  3
D0
350
307
  3
D1
350
308
  3
D2
350
309
  0
DICTIONARY
  5
2A
102
{ACAD_REACTORS
330
C
102
}
330
C
100
AcDbDictionary
281
     1
  3
2dWireframe
350
2F
  3
3D Hidden
350
31
  3
3dWireframe
350
30
  3
Basic
350
32
  3
Brighten
350
36
  3
ColorChange
350
3A
  3
Conceptual
350
34
  3
Dim
350
35
  3
Facepattern
350
39
  3
Flat
350
2B
  3
FlatWithEdges
350
2C
  3
Gouraud
350
2D
  3
GouraudWithEdges
350
2E
  3
Linepattern
350
38
  3
Realistic
350
33
  3
Thicken
350
37
  0
DICTIONARY
  5
9CD
102
{ACAD_REACTORS
330
C
102
}
330
C
100
AcDbDictionary
281
     1
  3
CANNOSCALE
350
9D2
  3
DIMASSOC
350
9D3
  3
HIDETEXT
350
9D4
  3
PSOLHEIGHT
350
9D1
  3
PSOLWIDTH
350
9D0
  0
LAYOUT
  5
1E
102
{ACAD_REACTORS
330
1A
102
}
330
1A
100
AcDbPlotSettings
  1

  2
none_device
  4

  6

 40
0.0
 41
0.0
 42
0.0
 43
0.0
 44
0.0
 45
0.0
 46
0.0
 47
0.0
 48
0.0
 49
0.0
140
0.0
141
0.0
142
1.0
143
1.0
 70
   688
 72
     0
 73
     0
 74
     5
  7

 75
    16
147
1.0
148
0.0
149
0.0
100
AcDbLayout
  1
Layout1
 70
     1
 71
     1
 10
0.0
 20
0.0
 11
420.0
 21
297.0
 12
0.0
 22
0.0
 32
0.0
 14
1.000000000000000E+20
 24
1.000000000000000E+20
 34
1.000000000000000E+20
 15
-1.000000000000000E+20
 25
-1.000000000000000E+20
 35
-1.000000000000000E+20
146
0.0
 13
0.0
 23
0.0
 33
0.0
 16
1.0
 26
0.0
 36
0.0
 17
0.0
 27
1.0
 37
0.0
 76
     0
330
1B
  0
LAYOUT
  5
26
102
{ACAD_REACTORS
330
1A
102
}
330
1A
100
AcDbPlotSettings
  1

  2
none_device
  4

  6

 40
0.0
 41
0.0
 42
0.0
 43
0.0
 44
0.0
 45
0.0
 46
0.0
 47
0.0
 48
0.0
 49
0.0
140
0.0
141
0.0
142
1.0
143
1.0
 70
   688
 72
     0
 73
     0
 74
     5
  7

 75
    16
147
1.0
148
0.0
149
0.0
100
AcDbLayout
  1
Layout2
 70
     1
 71
     2
 10
0.0
 20
0.0
 11
0.0
 21
0.0
 12
0.0
 22
0.0
 32
0.0
 14
0.0
 24
0.0
 34
0.0
 15
0.0
 25
0.0
 35
0.0
146
0.0
 13
0.0
 23
0.0
 33
0.0
 16
1.0
 26
0.0
 36
0.0
 17
0.0
 27
1.0
 37
0.0
 76
     0
330
23
  0
LAYOUT
  5
22
102
{ACAD_REACTORS
330
1A
102
}
330
1A
100
AcDbPlotSettings
  1

  2
none_device
  4

  6

 40
0.0
 41
0.0
 42
0.0
 43
0.0
 44
0.0
 45
0.0
 46
0.0
 47
0.0
 48
0.0
 49
0.0
140
0.0
141
0.0
142
1.0
143
1.0
 70
  1712
 72
     0
 73
     0
 74
     0
  7

 75
     0
147
1.0
148
0.0
149
0.0
100
AcDbLayout
  1
Model
 70
     1
 71
     0
 10
0.0
 20
0.0
 11
420.0
 21
297.0
 12
0.0
 22
0.0
 32
0.0
 14
0.0
 24
0.0
 34
0.0
 15
25.0
 25
35.0
 35
0.0
146
0.0
 13
0.0
 23
0.0
 33
0.0
 16
1.0
 26
0.0
 36
0.0
 17
0.0
 27
1.0
 37
0.0
 76
     0
330
1F
331
29
  0
MATERIAL
  5
3D
102
{ACAD_REACTORS
330
3B
102
}
102
{ACAD_XDICTIONARY
360
9F7
102
}
330
3B
100
AcDbMaterial
  1
ByBlock
  0
MATERIAL
  5
3C
102
{ACAD_REACTORS
330
3B
102
}
102
{ACAD_XDICTIONARY
360
9F5
102
}
330
3B
100
AcDbMaterial
  1
ByLayer
  0
MATERIAL
  5
3E
102
{ACAD_REACTORS
330
3B
102
}
102
{ACAD_XDICTIONARY
360
9F9
102
}
330
3B
100
AcDbMaterial
  1
Global
  0
MLINESTYLE
  5
18
102
{ACAD_REACTORS
330
17
102
}
330
17
100
AcDbMlineStyle
  2
Standard
 70
     0
  3

 62
   256
 51
90.0
 52
90.0
 71
     2
 49
0.5
 62
   256
  6
BYLAYER
 49
-0.5
 62
   256
  6
BYLAYER
  0
ACDBPLACEHOLDER
  5
F
102
{ACAD_REACTORS
330
E
102
}
330
E
  0
SCALE
  5
2E9
102
{ACAD_REACTORS
330
2E8
102
}
330
2E8
100
AcDbScale
 70
     0
300
1:1
140
1.0
141
1.0
290
     1
  0
SCALE
  5
2EA
102
{ACAD_REACTORS
330
2E8
102
}
330
2E8
100
AcDbScale
 70
     0
300
1:2
140
1.0
141
2.0
290
     0
  0
SCALE
  5
2EB
102
{ACAD_REACTORS
330
2E8
102
}
330
2E8
100
AcDbScale
 70
     0
300
1:4
140
1.0
141
4.0
290
     0
  0
SCALE
  5
2EC
102
{ACAD_REACTORS
330
2E8
102
}
330
2E8
100
AcDbScale
 70
     0
300
1:5
140
1.0
141
5.0
290
     0
  0
SCALE
  5
2ED
102
{ACAD_REACTORS
330
2E8
102
}
330
2E8
100
AcDbScale
 70
     0
300
1:8
140
1.0
141
8.0
290
     0
  0
SCALE
  5
2EE
102
{ACAD_REACTORS
330
2E8
102
}
330
2E8
100
AcDbScale
 70
     0
300
1:10
140
1.0
141
10.0
290
     0
  0
SCALE
  5
2EF
102
{ACAD_REACTORS
330
2E8
102
}
330
2E8
100
AcDbScale
 70
     0
300
1:16
140
1.0
141
16.0
290
     0
  0
SCALE
  5
2F0
102
{ACAD_REACTORS
330
2E8
102
}
330
2E8
100
AcDbScale
 70
     0
300
1:20
140
1.0
141
20.0
290
     0
  0
SCALE
  5
2F1
102
{ACAD_REACTORS
330
2E8
102
}
330
2E8
100
AcDbScale
 70
     0
300
1:30
140
1.0
141
30.0
290
     0
  0
SCALE
  5
2F2
102
{ACAD_REACTORS
330
2E8
102
}
330
2E8
100
AcDbScale
 70
     0
300
1:40
140
1.0
141
40.0
290
     0
  0
SCALE
  5
2F3
102
{ACAD_REACTORS
330
2E8
102
}
330
2E8
100
AcDbScale
 70
     0
300
1:50
140
1.0
141
50.0
290
     0
  0
SCALE
  5
2F4
102
{ACAD_REACTORS
330
2E8
102
}
330
2E8
100
AcDbScale
 70
     0
300
1:100
140
1.0
141
100.0
290
     0
  0
SCALE
  5
2F5
102
{ACAD_REACTORS
330
2E8
102
}
330
2E8
100
AcDbScale
 70
     0
300
2:1
140
2.0
141
1.0
290
     0
  0
SCALE
  5
2F6
102
{ACAD_REACTORS
330
2E8
102
}
330
2E8
100
AcDbScale
 70
     0
300
4:1
140
4.0
141
1.0
290
     0
  0
SCALE
  5
2F7
102
{ACAD_REACTORS
330
2E8
102
}
330
2E8
100
AcDbScale
 70
     0
300
8:1
140
8.0
141
1.0
290
     0
  0
SCALE
  5
2F8
102
{ACAD_REACTORS
330
2E8
102
}
330
2E8
100
AcDbScale
 70
     0
300
10:1
140
10.0
141
1.0
290
     0
  0
SCALE
  5
2F9
102
{ACAD_REACTORS
330
2E8
102
}
330
2E8
100
AcDbScale
 70
     0
300
100:1
140
100.0
141
1.0
290
     0
  0
SCALE
  5
2FA
102
{ACAD_REACTORS
330
2E8
102
}
330
2E8
100
AcDbScale
 70
     0
300
1/128" = 1'-0"
140
0.0078125
141
12.0
290
     0
  0
SCALE
  5
2FB
102
{ACAD_REACTORS
330
2E8
102
}
330
2E8
100
AcDbScale
 70
     0
300
1/64" = 1'-0"
140
0.015625
141
12.0
290
     0
  0
SCALE
  5
2FC
102
{ACAD_REACTORS
330
2E8
102
}
330
2E8
100
AcDbScale
 70
     0
300
1/32" = 1'-0"
140
0.03125
141
12.0
290
     0
  0
SCALE
  5
2FD
102
{ACAD_REACTORS
330
2E8
102
}
330
2E8
100
AcDbScale
 70
     0
300
1/16" = 1'-0"
140
0.0625
141
12.0
290
     0
  0
SCALE
  5
2FE
102
{ACAD_REACTORS
330
2E8
102
}
330
2E8
100
AcDbScale
 70
     0
300
3/32" = 1'-0"
140
0.09375
141
12.0
290
     0
  0
SCALE
  5
2FF
102
{ACAD_REACTORS
330
2E8
102
}
330
2E8
100
AcDbScale
 70
     0
300
1/8" = 1'-0"
140
0.125
141
12.0
290
     0
  0
SCALE
  5
300
102
{ACAD_REACTORS
330
2E8
102
}
330
2E8
100
AcDbScale
 70
     0
300
3/16" = 1'-0"
140
0.1875
141
12.0
290
     0
  0
SCALE
  5
301
102
{ACAD_REACTORS
330
2E8
102
}
330
2E8
100
AcDbScale
 70
     0
300
1/4" = 1'-0"
140
0.25
141
12.0
290
     0
  0
SCALE
  5
302
102
{ACAD_REACTORS
330
2E8
102
}
330
2E8
100
AcDbScale
 70
     0
300
3/8" = 1'-0"
140
0.375
141
12.0
290
     0
  0
SCALE
  5
303
102
{ACAD_REACTORS
330
2E8
102
}
330
2E8
100
AcDbScale
 70
     0
300
1/2" = 1'-0"
140
0.5
141
12.0
290
     0
  0
SCALE
  5
304
102
{ACAD_REACTORS
330
2E8
102
}
330
2E8
100
AcDbScale
 70
     0
300
3/4" = 1'-0"
140
0.75
141
12.0
290
     0
  0
SCALE
  5
305
102
{ACAD_REACTORS
330
2E8
102
}
330
2E8
100
AcDbScale
 70
     0
300
1" = 1'-0"
140
1.0
141
12.0
290
     0
  0
SCALE
  5
306
102
{ACAD_REACTORS
330
2E8
102
}
330
2E8
100
AcDbScale
 70
     0
300
1-1/2" = 1'-0"
140
1.5
141
12.0
290
     0
  0
SCALE
  5
307
102
{ACAD_REACTORS
330
2E8
102
}
330
2E8
100
AcDbScale
 70
     0
300
3" = 1'-0"
140
3.0
141
12.0
290
     0
  0
SCALE
  5
308
102
{ACAD_REACTORS
330
2E8
102
}
330
2E8
100
AcDbScale
 70
     0
300
6" = 1'-0"
140
6.0
141
12.0
290
     0
  0
SCALE
  5
309
102
{ACAD_REACTORS
330
2E8
102
}
330
2E8
100
AcDbScale
 70
     0
300
1'-0" = 1'-0"
140
12.0
141
12.0
290
     0
  0
VISUALSTYLE
  5
2F
102
{ACAD_REACTORS
330
2A
102
}
102
{ACAD_XDICTIONARY
360
9DD
102
}
330
2A
100
AcDbVisualStyle
  2
2dWireframe
 70
     4
 71
     0
 72
     2
 73
     0
 90
        0
 40
-0.6
 41
-30.0
 62
     5
 63
     7
 74
     1
 91
        4
 64
     7
 65
   257
 75
     1
175
     1
 42
1.0
 92
        0
 66
   257
 43
1.0
 76
     1
 77
     6
 78
     2
 67
     7
 79
     5
170
     0
171
     0
290
     0
174
     0
 93
        1
 44
0.0
173
     0
291
     0
 45
0.0
1001
ACAD
1000
AcDbSavedByObjectVersion
1070
     0
  0
VISUALSTYLE
  5
31
102
{ACAD_REACTORS
330
2A
102
}
102
{ACAD_XDICTIONARY
360
9E1
102
}
330
2A
100
AcDbVisualStyle
  2
3D Hidden
 70
     6
 71
     1
 72
     2
 73
     2
 90
        0
 40
-0.6
 41
-30.0
 62
     5
 63
     7
 74
     2
 91
        2
 64
     7
 65
   257
 75
     2
175
     1
 42
40.0
 92
        0
 66
   257
 43
1.0
 76
     1
 77
     6
 78
     2
 67
     7
 79
     3
170
     0
171
     0
290
     0
174
     0
 93
        1
 44
0.0
173
     0
291
     0
 45
0.0
1001
ACAD
1000
AcDbSavedByObjectVersion
1070
     0
  0
VISUALSTYLE
  5
30
102
{ACAD_REACTORS
330
2A
102
}
102
{ACAD_XDICTIONARY
360
9DF
102
}
330
2A
100
AcDbVisualStyle
  2
3dWireframe
 70
     5
 71
     0
 72
     2
 73
     0
 90
        0
 40
-0.6
 41
-30.0
 62
     5
 63
     7
 74
     1
 91
        4
 64
     7
 65
   257
 75
     1
175
     1
 42
1.0
 92
        0
 66
   257
 43
1.0
 76
     1
 77
     6
 78
     2
 67
     7
 79
     5
170
     0
171
     0
290
     0
174
     0
 93
        1
 44
0.0
173
     0
291
     0
 45
0.0
1001
ACAD
1000
AcDbSavedByObjectVersion
1070
     0
  0
VISUALSTYLE
  5
32
102
{ACAD_REACTORS
330
2A
102
}
102
{ACAD_XDICTIONARY
360
9E3
102
}
330
2A
100
AcDbVisualStyle
  2
Basic
 70
     7
 71
     1
 72
     0
 73
     1
 90
        0
 40
-0.6
 41
-30.0
 62
     5
 63
     7
 74
     0
 91
        4
 64
     7
 65
   257
 75
     1
175
     1
 42
1.0
 92
        8
 66
     7
 43
1.0
 76
     1
 77
     6
 78
     2
 67
     7
 79
     5
170
     0
171
     0
290
     0
174
     0
 93
        1
 44
0.0
173
     0
291
     1
 45
0.0
1001
ACAD
1000
AcDbSavedByObjectVersion
1070
     0
  0
VISUALSTYLE
  5
36
102
{ACAD_REACTORS
330
2A
102
}
102
{ACAD_XDICTIONARY
360
9EB
102
}
330
2A
100
AcDbVisualStyle
  2
Brighten
 70
    12
 71
     2
 72
     2
 73
     0
 90
        0
 40
-0.6
 41
-30.0
 62
     5
 63
     7
 74
     1
 91
        4
 64
     7
 65
   257
 75
     1
175
     1
 42
1.0
 92
        8
 66
     7
 43
1.0
 76
     1
 77
     6
 78
     2
 67
     7
 79
     5
170
     0
171
     0
290
     0
174
     0
 93
        1
 44
50.0
173
     0
291
     1
 45
0.0
1001
ACAD
1000
AcDbSavedByObjectVersion
1070
     0
  0
VISUALSTYLE
  5
3A
102
{ACAD_REACTORS
330
2A
102
}
102
{ACAD_XDICTIONARY
360
9F3
102
}
330
2A
100
AcDbVisualStyle
  2
ColorChange
 70
    16
 71
     2
 72
     2
 73
     3
 90
        0
 40
-0.6
 41
-30.0
 62
     5
 63
     8
 74
     1
 91
        4
 64
     7
 65
   257
 75
     1
175
     1
 42
1.0
 92
        8
 66
     8
 43
1.0
 76
     1
 77
     6
 78
     2
 67
     7
 79
     5
170
     0
171
     0
290
     0
174
     0
 93
        1
 44
0.0
173
     0
291
     1
 45
0.0
1001
ACAD
1000
AcDbSavedByObjectVersion
1070
     0
  0
VISUALSTYLE
  5
34
102
{ACAD_REACTORS
330
2A
102
}
102
{ACAD_XDICTIONARY
360
9E7
102
}
330
2A
100
AcDbVisualStyle
  2
Conceptual
 70
     9
 71
     3
 72
     2
 73
     0
 90
        0
 40
-0.6
 41
-30.0
 62
     5
 63
     7
 74
     2
 91
        2
 64
     7
 65
   257
 75
     1
175
     1
 42
40.0
 92
        8
 66
     7
 43
1.0
 76
     1
 77
     6
 78
     2
 67
     7
 79
     3
170
     0
171
     0
290
     0
174
     0
 93
        1
 44
0.0
173
     0
291
     0
 45
0.0
1001
ACAD
1000
AcDbSavedByObjectVersion
1070
     0
  0
VISUALSTYLE
  5
35
102
{ACAD_REACTORS
330
2A
102
}
102
{ACAD_XDICTIONARY
360
9E9
102
}
330
2A
100
AcDbVisualStyle
  2
Dim
 70
    11
 71
     2
 72
     2
 73
     0
 90
        0
 40
-0.6
 41
-30.0
 62
     5
 63
     7
 74
     1
 91
        4
 64
     7
 65
   257
 75
     1
175
     1
 42
1.0
 92
        8
 66
     7
 43
1.0
 76
     1
 77
     6
 78
     2
 67
     7
 79
     5
170
     0
171
     0
290
     0
174
     0
 93
        1
 44
-50.0
173
     0
291
     1
 45
0.0
1001
ACAD
1000
AcDbSavedByObjectVersion
1070
     0
  0
VISUALSTYLE
  5
39
102
{ACAD_REACTORS
330
2A
102
}
102
{ACAD_XDICTIONARY
360
9F1
102
}
330
2A
100
AcDbVisualStyle
  2
Facepattern
 70
    15
 71
     2
 72
     2
 73
     0
 90
        0
 40
-0.6
 41
-30.0
 62
     5
 63
     7
 74
     1
 91
        4
 64
     7
 65
   257
 75
     1
175
     1
 42
1.0
 92
        8
 66
     7
 43
1.0
 76
     1
 77
     6
 78
     2
 67
     7
 79
     5
170
     0
171
     0
290
     0
174
     0
 93
        1
 44
0.0
173
     0
291
     1
 45
0.0
1001
ACAD
1000
AcDbSavedByObjectVersion
1070
     0
  0
VISUALSTYLE
  5
2B
102
{ACAD_REACTORS
330
2A
102
}
102
{ACAD_XDICTIONARY
360
9D5
102
}
330
2A
100
AcDbVisualStyle
  2
Flat
 70
     0
 71
     2
 72
     1
 73
     1
 90
        2
 40
-0.6
 41
30.0
 62
     5
 63
     7
 74
     0
 91
        4
 64
     7
 65
   257
 75
     1
175
     1
 42
1.0
 92
        8
 66
     7
 43
1.0
 76
     1
 77
     6
 78
     2
 67
     7
 79
     5
170
     0
171
     0
290
     0
174
     0
 93
       13
 44
0.0
173
     0
291
     1
 45
0.0
1001
ACAD
1000
AcDbSavedByObjectVersion
1070
     0
  0
VISUALSTYLE
  5
2C
102
{ACAD_REACTORS
330
2A
102
}
102
{ACAD_XDICTIONARY
360
9D7
102
}
330
2A
100
AcDbVisualStyle
  2
FlatWithEdges
 70
     1
 71
     2
 72
     1
 73
     1
 90
        2
 40
-0.6
 41
30.0
 62
     5
 63
     7
 74
     1
 91
        4
 64
     7
 65
   257
 75
     1
175
     1
 42
1.0
 92
        0
 66
   257
 43
1.0
 76
     1
 77
     6
 78
     2
 67
     7
 79
     5
170
     0
171
     0
290
     0
174
     0
 93
       13
 44
0.0
173
     0
291
     1
 45
0.0
1001
ACAD
1000
AcDbSavedByObjectVersion
1070
     0
  0
VISUALSTYLE
  5
2D
102
{ACAD_REACTORS
330
2A
102
}
102
{ACAD_XDICTIONARY
360
9D9
102
}
330
2A
100
AcDbVisualStyle
  2
Gouraud
 70
     2
 71
     2
 72
     2
 73
     1
 90
        2
 40
-0.6
 41
30.0
 62
     5
 63
     7
 74
     0
 91
        4
 64
     7
 65
   257
 75
     1
175
     1
 42
1.0
 92
        0
 66
     7
 43
1.0
 76
     1
 77
     6
 78
     2
 67
     7
 79
     5
170
     0
171
     0
290
     0
174
     0
 93
       13
 44
0.0
173
     0
291
     1
 45
0.0
1001
ACAD
1000
AcDbSavedByObjectVersion
1070
     0
  0
VISUALSTYLE
  5
2E
102
{ACAD_REACTORS
330
2A
102
}
102
{ACAD_XDICTIONARY
360
9DB
102
}
330
2A
100
AcDbVisualStyle
  2
GouraudWithEdges
 70
     3
 71
     2
 72
     2
 73
     1
 90
        2
 40
-0.6
 41
30.0
 62
     5
 63
     7
 74
     1
 91
        4
 64
     7
 65
   257
 75
     1
175
     1
 42
1.0
 92
        0
 66
   257
 43
1.0
 76
     1
 77
     6
 78
     2
 67
     7
 79
     5
170
     0
171
     0
290
     0
174
     0
 93
       13
 44
0.0
173
     0
291
     1
 45
0.0
1001
ACAD
1000
AcDbSavedByObjectVersion
1070
     0
  0
VISUALSTYLE
  5
38
102
{ACAD_REACTORS
330
2A
102
}
102
{ACAD_XDICTIONARY
360
9EF
102
}
330
2A
100
AcDbVisualStyle
  2
Linepattern
 70
    14
 71
     2
 72
     2
 73
     0
 90
        0
 40
-0.6
 41
-30.0
 62
     5
 63
     7
 74
     1
 91
        4
 64
     7
 65
   257
 75
     7
175
     7
 42
1.0
 92
        8
 66
     7
 43
1.0
 76
     1
 77
     6
 78
     2
 67
     7
 79
     5
170
     0
171
     0
290
     0
174
     0
 93
        1
 44
0.0
173
     0
291
     1
 45
0.0
1001
ACAD
1000
AcDbSavedByObjectVersion
1070
     0
  0
VISUALSTYLE
  5
33
102
{ACAD_REACTORS
330
2A
102
}
102
{ACAD_XDICTIONARY
360
9E5
102
}
330
2A
100
AcDbVisualStyle
  2
Realistic
 70
     8
 71
     2
 72
     2
 73
     0
 90
        0
 40
-0.6
 41
-30.0
 62
     5
 63
     7
 74
     1
 91
        0
 64
     7
 65
   257
 75
     1
175
     1
 42
1.0
 92
        8
 66
     8
 43
1.0
 76
     1
 77
     6
 78
     2
 67
     7
 79
     5
170
     0
171
     0
290
     0
174
     0
 93
       13
 44
0.0
173
     0
291
     0
 45
0.0
1001
ACAD
1000
AcDbSavedByObjectVersion
1070
     0
  0
VISUALSTYLE
  5
37
102
{ACAD_REACTORS
330
2A
102
}
102
{ACAD_XDICTIONARY
360
9ED
102
}
330
2A
100
AcDbVisualStyle
  2
Thicken
 70
    13
 71
     2
 72
     2
 73
     0
 90
        0
 40
-0.6
 41
-30.0
 62
     5
 63
     7
 74
     1
 91
        4
 64
     7
 65
   257
 75
     1
175
     1
 42
1.0
 92
       12
 66
     7
 43
1.0
 76
     1
 77
     6
 78
     2
 67
     7
 79
     5
170
     0
171
     0
290
     0
174
     0
 93
        1
 44
0.0
173
     0
291
     1
 45
0.0
1001
ACAD
1000
AcDbSavedByObjectVersion
1070
     0
  0
DICTIONARYVAR
  5
9D2
102
{ACAD_REACTORS
330
9CD
102
}
330
9CD
100
DictionaryVariables
280
     0
  1
1:1
  0
DICTIONARYVAR
  5
9D3
102
{ACAD_REACTORS
330
9CD
102
}
330
9CD
100
DictionaryVariables
280
     0
  1
2
  0
DICTIONARYVAR
  5
9D4
102
{ACAD_REACTORS
330
9CD
102
}
330
9CD
100
DictionaryVariables
280
     0
  1
1
  0
DICTIONARYVAR
  5
9D1
102
{ACAD_REACTORS
330
9CD
102
}
330
9CD
100
DictionaryVariables
280
     0
  1
80.000000
  0
DICTIONARYVAR
  5
9D0
102
{ACAD_REACTORS
330
9CD
102
}
330
9CD
100
DictionaryVariables
280
     0
  1
5.000000
  0
DICTIONARY
  5
9F7
330
3D
100
AcDbDictionary
280
     1
281
     1
  3
ACAD_XREC_ROUNDTRIP
360
9F8
  0
DICTIONARY
  5
9F5
330
3C
100
AcDbDictionary
280
     1
281
     1
  3
ACAD_XREC_ROUNDTRIP
360
9F6
  0
DICTIONARY
  5
9F9
330
3E
100
AcDbDictionary
280
     1
281
     1
  3
ACAD_XREC_ROUNDTRIP
360
9FA
  0
DICTIONARY
  5
9DD
330
2F
100
AcDbDictionary
280
     1
281
     1
  3
ACAD_XREC_ROUNDTRIP
360
9DE
  0
DICTIONARY
  5
9E1
330
31
100
AcDbDictionary
280
     1
281
     1
  3
ACAD_XREC_ROUNDTRIP
360
9E2
  0
DICTIONARY
  5
9DF
330
30
100
AcDbDictionary
280
     1
281
     1
  3
ACAD_XREC_ROUNDTRIP
360
9E0
  0
DICTIONARY
  5
9E3
330
32
100
AcDbDictionary
280
     1
281
     1
  3
ACAD_XREC_ROUNDTRIP
360
9E4
  0
DICTIONARY
  5
9EB
330
36
100
AcDbDictionary
280
     1
281
     1
  3
ACAD_XREC_ROUNDTRIP
360
9EC
  0
DICTIONARY
  5
9F3
330
3A
100
AcDbDictionary
280
     1
281
     1
  3
ACAD_XREC_ROUNDTRIP
360
9F4
  0
DICTIONARY
  5
9E7
330
34
100
AcDbDictionary
280
     1
281
     1
  3
ACAD_XREC_ROUNDTRIP
360
9E8
  0
DICTIONARY
  5
9E9
330
35
100
AcDbDictionary
280
     1
281
     1
  3
ACAD_XREC_ROUNDTRIP
360
9EA
  0
DICTIONARY
  5
9F1
330
39
100
AcDbDictionary
280
     1
281
     1
  3
ACAD_XREC_ROUNDTRIP
360
9F2
  0
DICTIONARY
  5
9D5
330
2B
100
AcDbDictionary
280
     1
281
     1
  3
ACAD_XREC_ROUNDTRIP
360
9D6
  0
DICTIONARY
  5
9D7
330
2C
100
AcDbDictionary
280
     1
281
     1
  3
ACAD_XREC_ROUNDTRIP
360
9D8
  0
DICTIONARY
  5
9D9
330
2D
100
AcDbDictionary
280
     1
281
     1
  3
ACAD_XREC_ROUNDTRIP
360
9DA
  0
DICTIONARY
  5
9DB
330
2E
100
AcDbDictionary
280
     1
281
     1
  3
ACAD_XREC_ROUNDTRIP
360
9DC
  0
DICTIONARY
  5
9EF
330
38
100
AcDbDictionary
280
     1
281
     1
  3
ACAD_XREC_ROUNDTRIP
360
9F0
  0
DICTIONARY
  5
9E5
330
33
100
AcDbDictionary
280
     1
281
     1
  3
ACAD_XREC_ROUNDTRIP
360
9E6
  0
DICTIONARY
  5
9ED
330
37
100
AcDbDictionary
280
     1
281
     1
  3
ACAD_XREC_ROUNDTRIP
360
9EE
  0
XRECORD
  5
9F8
102
{ACAD_REACTORS
330
9F7
102
}
330
9F7
100
AcDbXrecord
280
     1
102
MATERIAL
148
0.0
149
0.0
149
0.0
 93
        0
 94
      127
282
     0
 72
     1
 77
     1
171
     1
175
     1
179
     1
273
     0
  0
XRECORD
  5
9F6
102
{ACAD_REACTORS
330
9F5
102
}
330
9F5
100
AcDbXrecord
280
     1
102
MATERIAL
148
0.0
149
0.0
149
0.0
 93
        0
 94
      127
282
     0
 72
     1
 77
     1
171
     1
175
     1
179
     1
273
     0
  0
XRECORD
  5
9FA
102
{ACAD_REACTORS
330
9F9
102
}
330
9F9
100
AcDbXrecord
280
     1
102
MATERIAL
148
0.0
149
0.0
149
0.0
 93
        0
 94
      127
282
     0
 72
     1
 77
     1
171
     1
175
     1
179
     1
273
     0
  0
XRECORD
  5
9DE
102
{ACAD_REACTORS
330
9DD
102
}
330
9DD
100
AcDbXrecord
280
     1
102
RTVSPropertyOp0
 70
     1
102
RTVSPropertyOp1
 70
     1
102
RTVSPropertyOp2
 70
     1
102
RTVSPropertyOp3
 70
     1
102
RTVSPropertyOp4
 70
     1
102
RTVSPropertyOp5
 70
     1
102
RTVSPropertyOp6
 70
     1
102
RTVSPropertyOp7
 70
     1
102
RTVSPropertyOp8
 70
     1
102
RTVSPropertyOp9
 70
     1
102
RTVSPropertyOp10
 70
     1
102
RTVSPropertyOp11
 70
     1
102
RTVSPropertyOp12
 70
     1
102
RTVSPropertyOp13
 70
     1
102
RTVSPropertyOp14
 70
     1
102
RTVSPropertyOp15
 70
     1
102
RTVSPropertyOp16
 70
     1
102
RTVSPropertyOp17
 70
     1
102
RTVSPropertyOp18
 70
     1
102
RTVSPropertyOp19
 70
     1
102
RTVSPropertyOp20
 70
     1
102
RTVSPropertyOp21
 70
     1
102
RTVSPropertyOp22
 70
     1
102
RTVSPropertyOp23
 70
     1
102
RTVSPropertyOp24
 70
     1
102
RTVSPropertyOp25
 70
     1
102
RTVSPropertyOp26
 70
     1
102
RTVSPropertyOp27
 70
     1
  0
XRECORD
  5
9E2
102
{ACAD_REACTORS
330
9E1
102
}
330
9E1
100
AcDbXrecord
280
     1
102
RTVSPropertyOp0
 70
     1
102
RTVSPropertyOp1
 70
     1
102
RTVSPropertyOp2
 70
     1
102
RTVSPropertyOp3
 70
     1
102
RTVSPropertyOp4
 70
     1
102
RTVSPropertyOp5
 70
     1
102
RTVSPropertyOp6
 70
     1
102
RTVSPropertyOp7
 70
     1
102
RTVSPropertyOp8
 70
     1
102
RTVSPropertyOp9
 70
     1
102
RTVSPropertyOp10
 70
     1
102
RTVSPropertyOp11
 70
     1
102
RTVSPropertyOp12
 70
     1
102
RTVSPropertyOp13
 70
     1
102
RTVSPropertyOp14
 70
     1
102
RTVSPropertyOp15
 70
     1
102
RTVSPropertyOp16
 70
     1
102
RTVSPropertyOp17
 70
     1
102
RTVSPropertyOp18
 70
     1
102
RTVSPropertyOp19
 70
     1
102
RTVSPropertyOp20
 70
     1
102
RTVSPropertyOp21
 70
     1
102
RTVSPropertyOp22
 70
     1
102
RTVSPropertyOp23
 70
     1
102
RTVSPropertyOp24
 70
     1
102
RTVSPropertyOp25
 70
     1
102
RTVSPropertyOp26
 70
     1
102
RTVSPropertyOp27
 70
     1
  0
XRECORD
  5
9E0
102
{ACAD_REACTORS
330
9DF
102
}
330
9DF
100
AcDbXrecord
280
     1
102
RTVSPropertyOp0
 70
     1
102
RTVSPropertyOp1
 70
     1
102
RTVSPropertyOp2
 70
     1
102
RTVSPropertyOp3
 70
     1
102
RTVSPropertyOp4
 70
     1
102
RTVSPropertyOp5
 70
     1
102
RTVSPropertyOp6
 70
     1
102
RTVSPropertyOp7
 70
     1
102
RTVSPropertyOp8
 70
     1
102
RTVSPropertyOp9
 70
     1
102
RTVSPropertyOp10
 70
     1
102
RTVSPropertyOp11
 70
     1
102
RTVSPropertyOp12
 70
     1
102
RTVSPropertyOp13
 70
     1
102
RTVSPropertyOp14
 70
     1
102
RTVSPropertyOp15
 70
     1
102
RTVSPropertyOp16
 70
     1
102
RTVSPropertyOp17
 70
     1
102
RTVSPropertyOp18
 70
     1
102
RTVSPropertyOp19
 70
     1
102
RTVSPropertyOp20
 70
     1
102
RTVSPropertyOp21
 70
     1
102
RTVSPropertyOp22
 70
     1
102
RTVSPropertyOp23
 70
     1
102
RTVSPropertyOp24
 70
     1
102
RTVSPropertyOp25
 70
     1
102
RTVSPropertyOp26
 70
     1
102
RTVSPropertyOp27
 70
     1
  0
XRECORD
  5
9E4
102
{ACAD_REACTORS
330
9E3
102
}
330
9E3
100
AcDbXrecord
280
     1
102
RTVSPropertyOp0
 70
     1
102
RTVSPropertyOp1
 70
     1
102
RTVSPropertyOp2
 70
     1
102
RTVSPropertyOp3
 70
     1
102
RTVSPropertyOp4
 70
     1
102
RTVSPropertyOp5
 70
     1
102
RTVSPropertyOp6
 70
     1
102
RTVSPropertyOp7
 70
     1
102
RTVSPropertyOp8
 70
     1
102
RTVSPropertyOp9
 70
     1
102
RTVSPropertyOp10
 70
     1
102
RTVSPropertyOp11
 70
     1
102
RTVSPropertyOp12
 70
     1
102
RTVSPropertyOp13
 70
     1
102
RTVSPropertyOp14
 70
     1
102
RTVSPropertyOp15
 70
     1
102
RTVSPropertyOp16
 70
     1
102
RTVSPropertyOp17
 70
     1
102
RTVSPropertyOp18
 70
     1
102
RTVSPropertyOp19
 70
     1
102
RTVSPropertyOp20
 70
     1
102
RTVSPropertyOp21
 70
     1
102
RTVSPropertyOp22
 70
     1
102
RTVSPropertyOp23
 70
     1
102
RTVSPropertyOp24
 70
     1
102
RTVSPropertyOp25
 70
     1
102
RTVSPropertyOp26
 70
     1
102
RTVSPropertyOp27
 70
     1
  0
XRECORD
  5
9EC
102
{ACAD_REACTORS
330
9EB
102
}
330
9EB
100
AcDbXrecord
280
     1
102
RTVSPropertyOp0
 70
     1
102
RTVSPropertyOp1
 70
     1
102
RTVSPropertyOp2
 70
     1
102
RTVSPropertyOp3
 70
     1
102
RTVSPropertyOp4
 70
     1
102
RTVSPropertyOp5
 70
     1
102
RTVSPropertyOp6
 70
     1
102
RTVSPropertyOp7
 70
     1
102
RTVSPropertyOp8
 70
     1
102
RTVSPropertyOp9
 70
     1
102
RTVSPropertyOp10
 70
     1
102
RTVSPropertyOp11
 70
     1
102
RTVSPropertyOp12
 70
     1
102
RTVSPropertyOp13
 70
     1
102
RTVSPropertyOp14
 70
     1
102
RTVSPropertyOp15
 70
     1
102
RTVSPropertyOp16
 70
     1
102
RTVSPropertyOp17
 70
     1
102
RTVSPropertyOp18
 70
     1
102
RTVSPropertyOp19
 70
     1
102
RTVSPropertyOp20
 70
     1
102
RTVSPropertyOp21
 70
     1
102
RTVSPropertyOp22
 70
     1
102
RTVSPropertyOp23
 70
     1
102
RTVSPropertyOp24
 70
     1
102
RTVSPropertyOp25
 70
     1
102
RTVSPropertyOp26
 70
     1
102
RTVSPropertyOp27
 70
     1
  0
XRECORD
  5
9F4
102
{ACAD_REACTORS
330
9F3
102
}
330
9F3
100
AcDbXrecord
280
     1
102
RTVSPropertyOp0
 70
     1
102
RTVSPropertyOp1
 70
     1
102
RTVSPropertyOp2
 70
     1
102
RTVSPropertyOp3
 70
     1
102
RTVSPropertyOp4
 70
     1
102
RTVSPropertyOp5
 70
     1
102
RTVSPropertyOp6
 70
     1
102
RTVSPropertyOp7
 70
     1
102
RTVSPropertyOp8
 70
     1
102
RTVSPropertyOp9
 70
     1
102
RTVSPropertyOp10
 70
     1
102
RTVSPropertyOp11
 70
     1
102
RTVSPropertyOp12
 70
     1
102
RTVSPropertyOp13
 70
     1
102
RTVSPropertyOp14
 70
     1
102
RTVSPropertyOp15
 70
     1
102
RTVSPropertyOp16
 70
     1
102
RTVSPropertyOp17
 70
     1
102
RTVSPropertyOp18
 70
     1
102
RTVSPropertyOp19
 70
     1
102
RTVSPropertyOp20
 70
     1
102
RTVSPropertyOp21
 70
     1
102
RTVSPropertyOp22
 70
     1
102
RTVSPropertyOp23
 70
     1
102
RTVSPropertyOp24
 70
     1
102
RTVSPropertyOp25
 70
     1
102
RTVSPropertyOp26
 70
     1
102
RTVSPropertyOp27
 70
     1
  0
XRECORD
  5
9E8
102
{ACAD_REACTORS
330
9E7
102
}
330
9E7
100
AcDbXrecord
280
     1
102
RTVSPropertyOp0
 70
     1
102
RTVSPropertyOp1
 70
     1
102
RTVSPropertyOp2
 70
     1
102
RTVSPropertyOp3
 70
     1
102
RTVSPropertyOp4
 70
     1
102
RTVSPropertyOp5
 70
     1
102
RTVSPropertyOp6
 70
     1
102
RTVSPropertyOp7
 70
     1
102
RTVSPropertyOp8
 70
     1
102
RTVSPropertyOp9
 70
     1
102
RTVSPropertyOp10
 70
     1
102
RTVSPropertyOp11
 70
     1
102
RTVSPropertyOp12
 70
     1
102
RTVSPropertyOp13
 70
     1
102
RTVSPropertyOp14
 70
     1
102
RTVSPropertyOp15
 70
     1
102
RTVSPropertyOp16
 70
     1
102
RTVSPropertyOp17
 70
     1
102
RTVSPropertyOp18
 70
     1
102
RTVSPropertyOp19
 70
     1
102
RTVSPropertyOp20
 70
     1
102
RTVSPropertyOp21
 70
     1
102
RTVSPropertyOp22
 70
     1
102
RTVSPropertyOp23
 70
     1
102
RTVSPropertyOp24
 70
     1
102
RTVSPropertyOp25
 70
     1
102
RTVSPropertyOp26
 70
     1
102
RTVSPropertyOp27
 70
     1
  0
XRECORD
  5
9EA
102
{ACAD_REACTORS
330
9E9
102
}
330
9E9
100
AcDbXrecord
280
     1
102
RTVSPropertyOp0
 70
     1
102
RTVSPropertyOp1
 70
     1
102
RTVSPropertyOp2
 70
     1
102
RTVSPropertyOp3
 70
     1
102
RTVSPropertyOp4
 70
     1
102
RTVSPropertyOp5
 70
     1
102
RTVSPropertyOp6
 70
     1
102
RTVSPropertyOp7
 70
     1
102
RTVSPropertyOp8
 70
     1
102
RTVSPropertyOp9
 70
     1
102
RTVSPropertyOp10
 70
     1
102
RTVSPropertyOp11
 70
     1
102
RTVSPropertyOp12
 70
     1
102
RTVSPropertyOp13
 70
     1
102
RTVSPropertyOp14
 70
     1
102
RTVSPropertyOp15
 70
     1
102
RTVSPropertyOp16
 70
     1
102
RTVSPropertyOp17
 70
     1
102
RTVSPropertyOp18
 70
     1
102
RTVSPropertyOp19
 70
     1
102
RTVSPropertyOp20
 70
     1
102
RTVSPropertyOp21
 70
     1
102
RTVSPropertyOp22
 70
     1
102
RTVSPropertyOp23
 70
     1
102
RTVSPropertyOp24
 70
     1
102
RTVSPropertyOp25
 70
     1
102
RTVSPropertyOp26
 70
     1
102
RTVSPropertyOp27
 70
     1
  0
XRECORD
  5
9F2
102
{ACAD_REACTORS
330
9F1
102
}
330
9F1
100
AcDbXrecord
280
     1
102
RTVSPropertyOp0
 70
     1
102
RTVSPropertyOp1
 70
     1
102
RTVSPropertyOp2
 70
     1
102
RTVSPropertyOp3
 70
     1
102
RTVSPropertyOp4
 70
     1
102
RTVSPropertyOp5
 70
     1
102
RTVSPropertyOp6
 70
     1
102
RTVSPropertyOp7
 70
     1
102
RTVSPropertyOp8
 70
     1
102
RTVSPropertyOp9
 70
     1
102
RTVSPropertyOp10
 70
     1
102
RTVSPropertyOp11
 70
     1
102
RTVSPropertyOp12
 70
     1
102
RTVSPropertyOp13
 70
     1
102
RTVSPropertyOp14
 70
     1
102
RTVSPropertyOp15
 70
     1
102
RTVSPropertyOp16
 70
     1
102
RTVSPropertyOp17
 70
     1
102
RTVSPropertyOp18
 70
     1
102
RTVSPropertyOp19
 70
     1
102
RTVSPropertyOp20
 70
     1
102
RTVSPropertyOp21
 70
     1
102
RTVSPropertyOp22
 70
     1
102
RTVSPropertyOp23
 70
     1
102
RTVSPropertyOp24
 70
     1
102
RTVSPropertyOp25
 70
     1
102
RTVSPropertyOp26
 70
     1
102
RTVSPropertyOp27
 70
     1
  0
XRECORD
  5
9D6
102
{ACAD_REACTORS
330
9D5
102
}
330
9D5
100
AcDbXrecord
280
     1
102
RTVSPropertyOp0
 70
     1
102
RTVSPropertyOp1
 70
     1
102
RTVSPropertyOp2
 70
     1
102
RTVSPropertyOp3
 70
     1
102
RTVSPropertyOp4
 70
     1
102
RTVSPropertyOp5
 70
     1
102
RTVSPropertyOp6
 70
     1
102
RTVSPropertyOp7
 70
     1
102
RTVSPropertyOp8
 70
     1
102
RTVSPropertyOp9
 70
     1
102
RTVSPropertyOp10
 70
     1
102
RTVSPropertyOp11
 70
     1
102
RTVSPropertyOp12
 70
     1
102
RTVSPropertyOp13
 70
     1
102
RTVSPropertyOp14
 70
     1
102
RTVSPropertyOp15
 70
     1
102
RTVSPropertyOp16
 70
     1
102
RTVSPropertyOp17
 70
     1
102
RTVSPropertyOp18
 70
     1
102
RTVSPropertyOp19
 70
     1
102
RTVSPropertyOp20
 70
     1
102
RTVSPropertyOp21
 70
     1
102
RTVSPropertyOp22
 70
     1
102
RTVSPropertyOp23
 70
     1
102
RTVSPropertyOp24
 70
     1
102
RTVSPropertyOp25
 70
     1
102
RTVSPropertyOp26
 70
     1
102
RTVSPropertyOp27
 70
     1
  0
XRECORD
  5
9D8
102
{ACAD_REACTORS
330
9D7
102
}
330
9D7
100
AcDbXrecord
280
     1
102
RTVSPropertyOp0
 70
     1
102
RTVSPropertyOp1
 70
     1
102
RTVSPropertyOp2
 70
     1
102
RTVSPropertyOp3
 70
     1
102
RTVSPropertyOp4
 70
     1
102
RTVSPropertyOp5
 70
     1
102
RTVSPropertyOp6
 70
     1
102
RTVSPropertyOp7
 70
     1
102
RTVSPropertyOp8
 70
     1
102
RTVSPropertyOp9
 70
     1
102
RTVSPropertyOp10
 70
     1
102
RTVSPropertyOp11
 70
     1
102
RTVSPropertyOp12
 70
     1
102
RTVSPropertyOp13
 70
     1
102
RTVSPropertyOp14
 70
     1
102
RTVSPropertyOp15
 70
     1
102
RTVSPropertyOp16
 70
     1
102
RTVSPropertyOp17
 70
     1
102
RTVSPropertyOp18
 70
     1
102
RTVSPropertyOp19
 70
     1
102
RTVSPropertyOp20
 70
     1
102
RTVSPropertyOp21
 70
     1
102
RTVSPropertyOp22
 70
     1
102
RTVSPropertyOp23
 70
     1
102
RTVSPropertyOp24
 70
     1
102
RTVSPropertyOp25
 70
     1
102
RTVSPropertyOp26
 70
     1
102
RTVSPropertyOp27
 70
     1
  0
XRECORD
  5
9DA
102
{ACAD_REACTORS
330
9D9
102
}
330
9D9
100
AcDbXrecord
280
     1
102
RTVSPropertyOp0
 70
     1
102
RTVSPropertyOp1
 70
     1
102
RTVSPropertyOp2
 70
     1
102
RTVSPropertyOp3
 70
     1
102
RTVSPropertyOp4
 70
     1
102
RTVSPropertyOp5
 70
     1
102
RTVSPropertyOp6
 70
     1
102
RTVSPropertyOp7
 70
     1
102
RTVSPropertyOp8
 70
     1
102
RTVSPropertyOp9
 70
     1
102
RTVSPropertyOp10
 70
     1
102
RTVSPropertyOp11
 70
     1
102
RTVSPropertyOp12
 70
     1
102
RTVSPropertyOp13
 70
     1
102
RTVSPropertyOp14
 70
     1
102
RTVSPropertyOp15
 70
     1
102
RTVSPropertyOp16
 70
     1
102
RTVSPropertyOp17
 70
     1
102
RTVSPropertyOp18
 70
     1
102
RTVSPropertyOp19
 70
     1
102
RTVSPropertyOp20
 70
     1
102
RTVSPropertyOp21
 70
     1
102
RTVSPropertyOp22
 70
     1
102
RTVSPropertyOp23
 70
     1
102
RTVSPropertyOp24
 70
     1
102
RTVSPropertyOp25
 70
     1
102
RTVSPropertyOp26
 70
     1
102
RTVSPropertyOp27
 70
     1
  0
XRECORD
  5
9DC
102
{ACAD_REACTORS
330
9DB
102
}
330
9DB
100
AcDbXrecord
280
     1
102
RTVSPropertyOp0
 70
     1
102
RTVSPropertyOp1
 70
     1
102
RTVSPropertyOp2
 70
     1
102
RTVSPropertyOp3
 70
     1
102
RTVSPropertyOp4
 70
     1
102
RTVSPropertyOp5
 70
     1
102
RTVSPropertyOp6
 70
     1
102
RTVSPropertyOp7
 70
     1
102
RTVSPropertyOp8
 70
     1
102
RTVSPropertyOp9
 70
     1
102
RTVSPropertyOp10
 70
     1
102
RTVSPropertyOp11
 70
     1
102
RTVSPropertyOp12
 70
     1
102
RTVSPropertyOp13
 70
     1
102
RTVSPropertyOp14
 70
     1
102
RTVSPropertyOp15
 70
     1
102
RTVSPropertyOp16
 70
     1
102
RTVSPropertyOp17
 70
     1
102
RTVSPropertyOp18
 70
     1
102
RTVSPropertyOp19
 70
     1
102
RTVSPropertyOp20
 70
     1
102
RTVSPropertyOp21
 70
     1
102
RTVSPropertyOp22
 70
     1
102
RTVSPropertyOp23
 70
     1
102
RTVSPropertyOp24
 70
     1
102
RTVSPropertyOp25
 70
     1
102
RTVSPropertyOp26
 70
     1
102
RTVSPropertyOp27
 70
     1
  0
XRECORD
  5
9F0
102
{ACAD_REACTORS
330
9EF
102
}
330
9EF
100
AcDbXrecord
280
     1
102
RTVSPropertyOp0
 70
     1
102
RTVSPropertyOp1
 70
     1
102
RTVSPropertyOp2
 70
     1
102
RTVSPropertyOp3
 70
     1
102
RTVSPropertyOp4
 70
     1
102
RTVSPropertyOp5
 70
     1
102
RTVSPropertyOp6
 70
     1
102
RTVSPropertyOp7
 70
     1
102
RTVSPropertyOp8
 70
     1
102
RTVSPropertyOp9
 70
     1
102
RTVSPropertyOp10
 70
     1
102
RTVSPropertyOp11
 70
     1
102
RTVSPropertyOp12
 70
     1
102
RTVSPropertyOp13
 70
     1
102
RTVSPropertyOp14
 70
     1
102
RTVSPropertyOp15
 70
     1
102
RTVSPropertyOp16
 70
     1
102
RTVSPropertyOp17
 70
     1
102
RTVSPropertyOp18
 70
     1
102
RTVSPropertyOp19
 70
     1
102
RTVSPropertyOp20
 70
     1
102
RTVSPropertyOp21
 70
     1
102
RTVSPropertyOp22
 70
     1
102
RTVSPropertyOp23
 70
     1
102
RTVSPropertyOp24
 70
     1
102
RTVSPropertyOp25
 70
     1
102
RTVSPropertyOp26
 70
     1
102
RTVSPropertyOp27
 70
     1
  0
XRECORD
  5
9E6
102
{ACAD_REACTORS
330
9E5
102
}
330
9E5
100
AcDbXrecord
280
     1
102
RTVSPropertyOp0
 70
     1
102
RTVSPropertyOp1
 70
     1
102
RTVSPropertyOp2
 70
     1
102
RTVSPropertyOp3
 70
     1
102
RTVSPropertyOp4
 70
     1
102
RTVSPropertyOp5
 70
     1
102
RTVSPropertyOp6
 70
     1
102
RTVSPropertyOp7
 70
     1
102
RTVSPropertyOp8
 70
     1
102
RTVSPropertyOp9
 70
     1
102
RTVSPropertyOp10
 70
     1
102
RTVSPropertyOp11
 70
     1
102
RTVSPropertyOp12
 70
     1
102
RTVSPropertyOp13
 70
     1
102
RTVSPropertyOp14
 70
     1
102
RTVSPropertyOp15
 70
     1
102
RTVSPropertyOp16
 70
     1
102
RTVSPropertyOp17
 70
     1
102
RTVSPropertyOp18
 70
     1
102
RTVSPropertyOp19
 70
     1
102
RTVSPropertyOp20
 70
     1
102
RTVSPropertyOp21
 70
     1
102
RTVSPropertyOp22
 70
     1
102
RTVSPropertyOp23
 70
     1
102
RTVSPropertyOp24
 70
     1
102
RTVSPropertyOp25
 70
     1
102
RTVSPropertyOp26
 70
     1
102
RTVSPropertyOp27
 70
     1
  0
XRECORD
  5
9EE
102
{ACAD_REACTORS
330
9ED
102
}
330
9ED
100
AcDbXrecord
280
     1
102
RTVSPropertyOp0
 70
     1
102
RTVSPropertyOp1
 70
     1
102
RTVSPropertyOp2
 70
     1
102
RTVSPropertyOp3
 70
     1
102
RTVSPropertyOp4
 70
     1
102
RTVSPropertyOp5
 70
     1
102
RTVSPropertyOp6
 70
     1
102
RTVSPropertyOp7
 70
     1
102
RTVSPropertyOp8
 70
     1
102
RTVSPropertyOp9
 70
     1
102
RTVSPropertyOp10
 70
     1
102
RTVSPropertyOp11
 70
     1
102
RTVSPropertyOp12
 70
     1
102
RTVSPropertyOp13
 70
     1
102
RTVSPropertyOp14
 70
     1
102
RTVSPropertyOp15
 70
     1
102
RTVSPropertyOp16
 70
     1
102
RTVSPropertyOp17
 70
     1
102
RTVSPropertyOp18
 70
     1
102
RTVSPropertyOp19
 70
     1
102
RTVSPropertyOp20
 70
     1
102
RTVSPropertyOp21
 70
     1
102
RTVSPropertyOp22
 70
     1
102
RTVSPropertyOp23
 70
     1
102
RTVSPropertyOp24
 70
     1
102
RTVSPropertyOp25
 70
     1
102
RTVSPropertyOp26
 70
     1
102
RTVSPropertyOp27
 70
     1
  0
ENDSEC
  0
EOF
