  0
SECTION
  2
HEADER
  9
$ACADVER
  1
AC1015
  9
$ACADMAINTVER
 70
     6
  9
$DWGCODEPAGE
  3
ANSI_1252
  9
$INSBASE
 10
0.0
 20
0.0
 30
0.0
  9
$EXTMIN
 10
0.0
 20
0.0
 30
0.0
  9
$EXTMAX
 10
25.0
 20
35.0
 30
0.0
  9
$LIMMIN
 10
0.0
 20
0.0
  9
$LIMMAX
 10
420.0
 20
297.0
  9
$ORTHOMODE
 70
     0
  9
$REGENMODE
 70
     1
  9
$FILLMODE
 70
     1
  9
$QTEXTMODE
 70
     0
  9
$MIRRTEXT
 70
     1
  9
$LTSCALE
 40
4.7
  9
$ATTMODE
 70
     1
  9
$TEXTSIZE
 40
2.5
  9
$TRACEWID
 40
1.0
  9
$TEXTSTYLE
  7
Standard
  9
$CLAYER
  8
0
  9
$CELTYPE
  6
ByLayer
  9
$CECOLOR
 62
   256
  9
$CELTSCALE
 40
1.0
  9
$DISPSILH
 70
     0
  9
$DIMSCALE
 40
1.0
  9
$DIMASZ
 40
2.5
  9
$DIMEXO
 40
0.625
  9
$DIMDLI
 40
3.75
  9
$DIMRND
 40
0.0
  9
$DIMDLE
 40
0.0
  9
$DIMEXE
 40
1.25
  9
$DIMTP
 40
0.0
  9
$DIMTM
 40
0.0
  9
$DIMTXT
 40
2.5
  9
$DIMCEN
 40
2.5
  9
$DIMTSZ
 40
0.0
  9
$DIMTOL
 70
     0
  9
$DIMLIM
 70
     0
  9
$DIMTIH
 70
     0
  9
$DIMTOH
 70
     0
  9
$DIMSE1
 70
     0
  9
$DIMSE2
 70
     0
  9
$DIMTAD
 70
     1
  9
$DIMZIN
 70
     8
  9
$DIMBLK
  1

  9
$DIMASO
 70
     1
  9
$DIMSHO
 70
     1
  9
$DIMPOST
  1

  9
$DIMAPOST
  1

  9
$DIMALT
 70
     0
  9
$DIMALTD
 70
     3
  9
$DIMALTF
 40
0.03937007874016
  9
$DIMLFAC
 40
1.0
  9
$DIMTOFL
 70
     1
  9
$DIMTVP
 40
0.0
  9
$DIMTIX
 70
     0
  9
$DIMSOXD
 70
     0
  9
$DIMSAH
 70
     0
  9
$DIMBLK1
  1

  9
$DIMBLK2
  1

  9
$DIMSTYLE
  2
ISO-25
  9
$DIMCLRD
 70
     0
  9
$DIMCLRE
 70
     0
  9
$DIMCLRT
 70
     0
  9
$DIMTFAC
 40
1.0
  9
$DIMGAP
 40
0.625
  9
$DIMJUST
 70
     0
  9
$DIMSD1
 70
     0
  9
$DIMSD2
 70
     0
  9
$DIMTOLJ
 70
     0
  9
$DIMTZIN
 70
     8
  9
$DIMALTZ
 70
     0
  9
$DIMALTTZ
 70
     0
  9
$DIMUPT
 70
     0
  9
$DIMDEC
 70
     2
  9
$DIMTDEC
 70
     2
  9
$DIMALTU
 70
     2
  9
$DIMALTTD
 70
     3
  9
$DIMTXSTY
  7
Standard
  9
$DIMAUNIT
 70
     0
  9
$DIMADEC
 70
     0
  9
$DIMALTRND
 40
0.0
  9
$DIMAZIN
 70
     0
  9
$DIMDSEP
 70
    44
  9
$DIMATFIT
 70
     3
  9
$DIMFRAC
 70
     0
  9
$DIMLDRBLK
  1

  9
$DIMLUNIT
 70
     2
  9
$DIMLWD
 70
    -2
  9
$DIMLWE
 70
    -2
  9
$DIMTMOVE
 70
     0
  9
$LUNITS
 70
     2
  9
$LUPREC
 70
     4
  9
$SKETCHINC
 40
1.0
  9
$FILLETRAD
 40
10.0
  9
$AUNITS
 70
     0
  9
$AUPREC
 70
     0
  9
$MENU
  1
.
  9
$ELEVATION
 40
0.0
  9
$PELEVATION
 40
0.0
  9
$THICKNESS
 40
0.0
  9
$LIMCHECK
 70
     0
  9
$CHAMFERA
 40
10.0
  9
$CHAMFERB
 40
10.0
  9
$CHAMFERC
 40
20.0
  9
$CHAMFERD
 40
0.0
  9
$SKPOLY
 70
     0
  9
$TDCREATE
 40
2459320.648611111
  9
$TDUCREATE
 40
2459320.565277778
  9
$TDUPDATE
 40
2459320.652083333
  9
$TDUUPDATE
 40
2459320.56875
  9
$TDINDWG
 40
0.0000000116
  9
$TDUSRTIMER
 40
0.0000000116
  9
$USRTIMER
 70
     1
  9
$ANGBASE
 50
0.0
  9
$ANGDIR
 70
     0
  9
$PDMODE
 70
     0
  9
$PDSIZE
 40
0.0
  9
$PLINEWID
 40
0.0
  9
$SPLFRAME
 70
     0
  9
$SPLINETYPE
 70
     6
  9
$SPLINESEGS
 70
     8
  9
$HANDSEED
  5
BF9
  9
$SURFTAB1
 70
     6
  9
$SURFTAB2
 70
     6
  9
$SURFTYPE
 70
     6
  9
$SURFU
 70
     6
  9
$SURFV
 70
     6
  9
$UCSBASE
  2

  9
$UCSNAME
  2

  9
$UCSORG
 10
0.0
 20
0.0
 30
0.0
  9
$UCSXDIR
 10
1.0
 20
0.0
 30
0.0
  9
$UCSYDIR
 10
0.0
 20
1.0
 30
0.0
  9
$UCSORTHOREF
  2

  9
$UCSORTHOVIEW
 70
     0
  9
$UCSORGTOP
 10
0.0
 20
0.0
 30
0.0
  9
$UCSORGBOTTOM
 10
0.0
 20
0.0
 30
0.0
  9
$UCSORGLEFT
 10
0.0
 20
0.0
 30
0.0
  9
$UCSORGRIGHT
 10
0.0
 20
0.0
 30
0.0
  9
$UCSORGFRONT
 10
0.0
 20
0.0
 30
0.0
  9
$UCSORGBACK
 10
0.0
 20
0.0
 30
0.0
  9
$PUCSBASE
  2

  9
$PUCSNAME
  2

  9
$PUCSORG
 10
0.0
 20
0.0
 30
0.0
  9
$PUCSXDIR
 10
1.0
 20
0.0
 30
0.0
  9
$PUCSYDIR
 10
0.0
 20
1.0
 30
0.0
  9
$PUCSORTHOREF
  2

  9
$PUCSORTHOVIEW
 70
     0
  9
$PUCSORGTOP
 10
0.0
 20
0.0
 30
0.0
  9
$PUCSORGBOTTOM
 10
0.0
 20
0.0
 30
0.0
  9
$PUCSORGLEFT
 10
0.0
 20
0.0
 30
0.0
  9
$PUCSORGRIGHT
 10
0.0
 20
0.0
 30
0.0
  9
$PUCSORGFRONT
 10
0.0
 20
0.0
 30
0.0
  9
$PUCSORGBACK
 10
0.0
 20
0.0
 30
0.0
  9
$USERI1
 70
     0
  9
$USERI2
 70
     0
  9
$USERI3
 70
     0
  9
$USERI4
 70
     0
  9
$USERI5
 70
     0
  9
$USERR1
 40
0.0
  9
$USERR2
 40
0.0
  9
$USERR3
 40
0.0
  9
$USERR4
 40
0.0
  9
$USERR5
 40
0.0
  9
$WORLDVIEW
 70
     1
  9
$SHADEDGE
 70
     3
  9
$SHADEDIF
 70
    70
  9
$TILEMODE
 70
     1
  9
$MAXACTVP
 70
    64
  9
$PINSBASE
 10
0.0
 20
0.0
 30
0.0
  9
$PLIMCHECK
 70
     0
  9
$PEXTMIN
 10
1.000000000000000E+20
 20
1.000000000000000E+20
 30
1.000000000000000E+20
  9
$PEXTMAX
 10
-1.000000000000000E+20
 20
-1.000000000000000E+20
 30
-1.000000000000000E+20
  9
$PLIMMIN
 10
0.0
 20
0.0
  9
$PLIMMAX
 10
420.0
 20
297.0
  9
$UNITMODE
 70
     0
  9
$VISRETAIN
 70
     1
  9
$PLINEGEN
 70
     0
  9
$PSLTSCALE
 70
     1
  9
$TREEDEPTH
 70
  3020
  9
$CMLSTYLE
  2
Standard
  9
$CMLJUST
 70
     0
  9
$CMLSCALE
 40
20.0
  9
$PROXYGRAPHICS
 70
     1
  9
$MEASUREMENT
 70
     1
  9
$CELWEIGHT
370
    -1
  9
$ENDCAPS
280
     0
  9
$JOINSTYLE
280
     0
  9
$LWDISPLAY
290
     0
  9
$INSUNITS
 70
     4
  9
$HYPERLINKBASE
  1

  9
$STYLESHEET
  1

  9
$XEDIT
290
     1
  9
$CEPSNTYPE
380
     0
  9
$PSTYLEMODE
290
     1
  9
$FINGERPRINTGUID
  2
{9FE440DB-E9ED-47C2-B3D1-32495695861B}
  9
$VERSIONGUID
  2
{FAEB1C32-E019-11D5-929B-00C0DF256EC4}
  9
$EXTNAMES
290
     1
  9
$PSVPSCALE
 40
0.0
  9
$OLESTARTUP
290
     0
  0
ENDSEC
  0
SECTION
  2
CLASSES
  0
CLASS
  1
ACDBDICTIONARYWDFLT
  2
AcDbDictionaryWithDefault
  3
ObjectDBX Classes
 90
        0
280
     0
281
     0
  0
CLASS
  1
VISUALSTYLE
  2
AcDbVisualStyle
  3
ObjectDBX Classes
 90
     4095
280
     0
281
     0
  0
CLASS
  1
MATERIAL
  2
AcDbMaterial
  3
ObjectDBX Classes
 90
     1153
280
     0
281
     0
  0
CLASS
  1
SCALE
  2
AcDbScale
  3
ObjectDBX Classes
 90
     1153
280
     0
281
     0
  0
CLASS
  1
DICTIONARYVAR
  2
AcDbDictionaryVar
  3
ObjectDBX Classes
 90
        0
280
     0
281
     0
  0
CLASS
  1
ACDBPLACEHOLDER
  2
AcDbPlaceHolder
  3
ObjectDBX Classes
 90
        0
280
     0
281
     0
  0
CLASS
  1
LAYOUT
  2
AcDbLayout
  3
ObjectDBX Classes
 90
        0
280
     0
281
     0
  0
ENDSEC
  0
SECTION
  2
TABLES
  0
TABLE
  2
VPORT
  5
8
330
0
100
AcDbSymbolTable
 70
     1
  0
VPORT
  5
29
330
8
100
AcDbSymbolTableRecord
100
AcDbViewportTableRecord
  2
*Active
 70
     0
 10
0.0
 20
0.0
 11
1.0
 21
1.0
 12
11.26
 22
4.5
 13
0.0
 23
0.0
 14
10.0
 24
10.0
 15
10.0
 25
10.0
 16
0.0
 26
0.0
 36
1.0
 17
0.0
 27
0.0
 37
0.0
 40
9.0
 41
2.503333333333333
 42
50.0
 43
0.0
 44
0.0
 50
0.0
 51
0.0
 71
     0
 72
   100
 73
     1
 74
     3
 75
     0
 76
     0
 77
     0
 78
     0
281
     0
 65
     1
110
0.0
120
0.0
130
0.0
111
1.0
121
0.0
131
0.0
112
0.0
122
1.0
132
0.0
 79
     0
146
0.0
  0
ENDTAB
  0
TABLE
  2
LTYPE
  5
5
330
0
100
AcDbSymbolTable
 70
    10
  0
LTYPE
  5
14
330
5
100
AcDbSymbolTableRecord
100
AcDbLinetypeTableRecord
  2
ByBlock
 70
     0
  3

 72
    65
 73
     0
 40
0.0
  0
LTYPE
  5
15
330
5
100
AcDbSymbolTableRecord
100
AcDbLinetypeTableRecord
  2
ByLayer
 70
     0
  3

 72
    65
 73
     0
 40
0.0
  0
LTYPE
  5
16
330
5
100
AcDbSymbolTableRecord
100
AcDbLinetypeTableRecord
  2
Continuous
 70
     0
  3
Solid line
 72
    65
 73
     0
 40
0.0
  0
LTYPE
  5
45
330
5
100
AcDbSymbolTableRecord
100
AcDbLinetypeTableRecord
  2
phl_thick
 70
     0
  3
THICK
 72
    65
 73
     0
 40
0.0
  0
LTYPE
  5
366
330
5
100
AcDbSymbolTableRecord
100
AcDbLinetypeTableRecord
  2
CUT
 70
     0
  3
THICK
 72
    65
 73
     0
 40
0.0
  0
LTYPE
  5
36D
330
5
100
AcDbSymbolTableRecord
100
AcDbLinetypeTableRecord
  2
NOCUT
 70
     0
  3
THICK
 72
    65
 73
     0
 40
0.0
  0
LTYPE
  5
375
330
5
100
AcDbSymbolTableRecord
100
AcDbLinetypeTableRecord
  2
SK1
 70
     0
  3
THICK
 72
    65
 73
     0
 40
0.0
  0
LTYPE
  5
37D
330
5
100
AcDbSymbolTableRecord
100
AcDbLinetypeTableRecord
  2
ls_SK2
 70
     0
  3
THIN
 72
    65
 73
     0
 40
0.0
  0
LTYPE
  5
429
330
5
100
AcDbSymbolTableRecord
100
AcDbLinetypeTableRecord
  2
ls_2
 70
     0
  3
THIN
 72
    65
 73
     0
 40
0.0
  0
LTYPE
  5
5DE
330
5
100
AcDbSymbolTableRecord
100
AcDbLinetypeTableRecord
  2
ls_SK1
 70
     0
  3
THICK
 72
    65
 73
     0
 40
0.0
  0
LTYPE
  5
618
330
5
100
AcDbSymbolTableRecord
100
AcDbLinetypeTableRecord
  2
LONGDASH_DASH
 70
     0
  3
THIN_DASHDOT
 72
    65
 73
     4
 40
0.85
 49
0.4
 74
     0
 49
-0.2
 74
     0
 49
0.05
 74
     0
 49
-0.2
 74
     0
  0
LTYPE
  5
61D
330
5
100
AcDbSymbolTableRecord
100
AcDbLinetypeTableRecord
  2
INFTOTAL
 70
     0
  3
THIN
 72
    65
 73
     0
 40
0.0
  0
ENDTAB
  0
TABLE
  2
LAYER
  5
2
330
0
100
AcDbSymbolTable
 70
    10
  0
LAYER
  5
10
330
2
100
AcDbSymbolTableRecord
100
AcDbLayerTableRecord
  2
0
 70
     0
 62
     7
  6
Continuous
370
    -3
390
F
  0
LAYER
  5
44
330
2
100
AcDbSymbolTableRecord
100
AcDbLayerTableRecord
  2
1
 70
     0
 62
4
  6
CONTINUOUS
370
50
370
    -3
390
F
  0
LAYER
  5
365
330
2
100
AcDbSymbolTableRecord
100
AcDbLayerTableRecord
  2
CUT
 70
     0
 62
1
  6
CONTINUOUS
370
25
370
    -3
390
F
  0
LAYER
  5
36C
330
2
100
AcDbSymbolTableRecord
100
AcDbLayerTableRecord
  2
NOCUT
 70
     0
 62
7
  6
CONTINUOUS
370
25
370
    -3
390
F
  0
LAYER
  5
374
330
2
100
AcDbSymbolTableRecord
100
AcDbLayerTableRecord
  2
SK1
 70
     0
 62
4
  6
CONTINUOUS
370
50
370
    -3
390
F
  0
LAYER
  5
37C
330
2
100
AcDbSymbolTableRecord
100
AcDbLayerTableRecord
  2
SK2
 70
     0
 62
7
  6
CONTINUOUS
370
25
370
    -3
390
F
  0
LAYER
  5
428
330
2
100
AcDbSymbolTableRecord
100
AcDbLayerTableRecord
  2
2
 70
     0
 62
7
  6
CONTINUOUS
370
25
370
    -3
390
F
  0
LAYER
  5
617
330
2
100
AcDbSymbolTableRecord
100
AcDbLayerTableRecord
  2
4
 70
     0
 62
2
  6
LONGDASH_DASH
370
25
370
    -3
390
F
  0
LAYER
  5
61A
330
2
100
AcDbSymbolTableRecord
100
AcDbLayerTableRecord
  2
SK4
 70
     0
 62
2
  6
LONGDASH_DASH
370
25
370
    -3
390
F
  0
LAYER
  5
61C
330
2
100
AcDbSymbolTableRecord
100
AcDbLayerTableRecord
  2
INFTOTAL
 70
     0
 62
9
  6
CONTINUOUS
370
18
370
    -3
390
F
  0
ENDTAB
  0
TABLE
  2
STYLE
  5
3
330
0
100
AcDbSymbolTable
 70
     1
  0
STYLE
  5
11
330
3
100
AcDbSymbolTableRecord
100
AcDbTextStyleTableRecord
  2
Standard
 70
     0
 40
0.0
 41
1.0
 50
0.0
 71
     0
 42
2.5
  3
Monospac821 BT
  4

  0
ENDTAB
  0
TABLE
  2
VIEW
  5
6
330
0
100
AcDbSymbolTable
 70
     0
  0
ENDTAB
  0
TABLE
  2
UCS
  5
7
330
0
100
AcDbSymbolTable
 70
     0
  0
ENDTAB
  0
TABLE
  2
APPID
  5
9
330
0
100
AcDbSymbolTable
 70
     2
  0
APPID
  5
12
330
9
100
AcDbSymbolTableRecord
100
AcDbRegAppTableRecord
  2
ACAD
 70
     0
  0
APPID
  5
3F
330
9
100
AcDbSymbolTableRecord
100
AcDbRegAppTableRecord
  2
ccLab
 70
     0
  0
ENDTAB
  0
TABLE
  2
DIMSTYLE
  5
A
330
0
100
AcDbSymbolTable
 70
     1
100
AcDbDimStyleTable
  0
DIMSTYLE
105
27
330
A
100
AcDbSymbolTableRecord
100
AcDbDimStyleTableRecord
  2
ISO-25
 70
     0
 41
2.5
 42
0.625
 43
3.75
 44
1.25
 73
     0
 74
     0
 77
     1
 78
     8
140
2.5
141
2.5
143
0.03937007874016
147
0.625
171
     3
172
     1
271
     2
272
     2
274
     3
278
    44
283
     0
284
     8
340
11
  0
ENDTAB
  0
TABLE
  2
BLOCK_RECORD
  5
1
330
0
100
AcDbSymbolTable
 70
     2
  0
BLOCK_RECORD
  5
1F
330
1
100
AcDbSymbolTableRecord
100
AcDbBlockTableRecord
  2
*Model_Space
340
22
  0
BLOCK_RECORD
  5
1B
330
1
100
AcDbSymbolTableRecord
100
AcDbBlockTableRecord
  2
*Paper_Space
340
1E
  0
BLOCK_RECORD
  5
23
330
1
100
AcDbSymbolTableRecord
100
AcDbBlockTableRecord
  2
*Paper_Space0
340
26
  0
ENDTAB
  0
ENDSEC
  0
SECTION
  2
BLOCKS
  0
BLOCK
  5
20
330
1F
100
AcDbEntity
  8
0
100
AcDbBlockBegin
  2
*Model_Space
 70
     0
 10
0.0
 20
0.0
 30
0.0
  3
*Model_Space
  1

  0
ENDBLK
  5
21
330
1F
100
AcDbEntity
  8
0
100
AcDbBlockEnd
  0
BLOCK
  5
1C
330
1B
100
AcDbEntity
 67
     1
  8
0
100
AcDbBlockBegin
  2
*Paper_Space
 70
     0
 10
0.0
 20
0.0
 30
0.0
  3
*Paper_Space
  1

  0
ENDBLK
  5
1D
330
1B
100
AcDbEntity
 67
     1
  8
0
100
AcDbBlockEnd
  0
BLOCK
  5
24
330
23
100
AcDbEntity
  8
0
100
AcDbBlockBegin
  2
*Paper_Space0
 70
     0
 10
0.0
 20
0.0
 30
0.0
  3
*Paper_Space0
  1

  0
ENDBLK
  5
25
330
23
100
AcDbEntity
  8
0
100
AcDbBlockEnd
  0
ENDSEC
  0
SECTION
  2
ENTITIES
  0
LINE
  5
621
330
1F
100
AcDbEntity
  8
1
  6
CONTINUOUS
370
50
 62
4
100
AcDbLine
 10
9.904706
 20
0.082269
 30
0.0
 11
9.904696999999999
 21
0.110723
 31
0.0
  0
LINE
  5
622
330
1F
100
AcDbEntity
  8
1
  6
CONTINUOUS
370
50
 62
4
100
AcDbLine
 10
9.904707
 20
0.082397
 30
0.0
 11
9.904696999999999
 21
0.110871
 31
0.0
  0
LINE
  5
623
330
1F
100
AcDbEntity
  8
1
  6
CONTINUOUS
370
50
 62
4
100
AcDbLine
 10
9.904696999999999
 20
0.110723
 30
0.0
 11
9.904653
 21
0.139417
 31
0.0
  0
LINE
  5
624
330
1F
100
AcDbEntity
  8
1
  6
CONTINUOUS
370
50
 62
4
100
AcDbLine
 10
9.904696999999999
 20
0.110871
 30
0.0
 11
9.904651999999999
 21
0.139536
 31
0.0
  0
LINE
  5
625
330
1F
100
AcDbEntity
  8
1
  6
CONTINUOUS
370
50
 62
4
100
AcDbLine
 10
9.904651999999999
 20
0.139536
 30
0.0
 11
9.904572
 21
0.168278
 31
0.0
  0
LINE
  5
626
330
1F
100
AcDbEntity
  8
1
  6
CONTINUOUS
370
50
 62
4
100
AcDbLine
 10
9.904653
 20
0.139417
 30
0.0
 11
9.904572
 21
0.16815
 31
0.0
  0
LINE
  5
627
330
1F
100
AcDbEntity
  8
1
  6
CONTINUOUS
370
50
 62
4
100
AcDbLine
 10
9.188037999999999
 20
-0.199054
 30
0.0
 11
9.187934
 21
-0.167162
 31
0.0
  0
LINE
  5
628
330
1F
100
AcDbEntity
  8
1
  6
CONTINUOUS
370
50
 62
4
100
AcDbLine
 10
9.904572
 20
0.168278
 30
0.0
 11
9.90446
 21
0.19699
 31
0.0
  0
LINE
  5
629
330
1F
100
AcDbEntity
  8
1
  6
CONTINUOUS
370
50
 62
4
100
AcDbLine
 10
9.904572
 20
0.16815
 30
0.0
 11
9.90446
 21
0.196813
 31
0.0
  0
LINE
  5
62A
330
1F
100
AcDbEntity
  8
1
  6
CONTINUOUS
370
50
 62
4
100
AcDbLine
 10
9.90446
 20
0.196813
 30
0.0
 11
9.904319
 21
0.2253
 31
0.0
  0
LINE
  5
62B
330
1F
100
AcDbEntity
  8
1
  6
CONTINUOUS
370
50
 62
4
100
AcDbLine
 10
9.90446
 20
0.19699
 30
0.0
 11
9.904318
 21
0.225561
 31
0.0
  0
LINE
  5
62C
330
1F
100
AcDbEntity
  8
1
  6
CONTINUOUS
370
50
 62
4
100
AcDbLine
 10
9.904319
 20
0.2253
 30
0.0
 11
9.904149
 21
0.253501
 31
0.0
  0
LINE
  5
62D
330
1F
100
AcDbEntity
  8
1
  6
CONTINUOUS
370
50
 62
4
100
AcDbLine
 10
9.904318
 20
0.225561
 30
0.0
 11
9.904147
 21
0.253783
 31
0.0
  0
LINE
  5
62E
330
1F
100
AcDbEntity
  8
1
  6
CONTINUOUS
370
50
 62
4
100
AcDbLine
 10
9.904147
 20
0.253783
 30
0.0
 11
9.903953999999999
 21
0.281484
 31
0.0
  0
LINE
  5
62F
330
1F
100
AcDbEntity
  8
1
  6
CONTINUOUS
370
50
 62
4
100
AcDbLine
 10
9.904149
 20
0.253501
 30
0.0
 11
9.903955
 21
0.281287
 31
0.0
  0
LINE
  5
630
330
1F
100
AcDbEntity
  8
1
  6
CONTINUOUS
370
50
 62
4
100
AcDbLine
 10
9.903955
 20
0.281287
 30
0.0
 11
9.903739
 21
0.30843
 31
0.0
  0
LINE
  5
631
330
1F
100
AcDbEntity
  8
1
  6
CONTINUOUS
370
50
 62
4
100
AcDbLine
 10
9.903953999999999
 20
0.281484
 30
0.0
 11
9.903737999999999
 21
0.308562
 31
0.0
  0
LINE
  5
632
330
1F
100
AcDbEntity
  8
1
  6
CONTINUOUS
370
50
 62
4
100
AcDbLine
 10
9.903739
 20
0.30843
 30
0.0
 11
9.903505
 21
0.334811
 31
0.0
  0
LINE
  5
633
330
1F
100
AcDbEntity
  8
1
  6
CONTINUOUS
370
50
 62
4
100
AcDbLine
 10
9.903737999999999
 20
0.308562
 30
0.0
 11
9.903504
 21
0.334917
 31
0.0
  0
LINE
  5
634
330
1F
100
AcDbEntity
  8
1
  6
CONTINUOUS
370
50
 62
4
100
AcDbLine
 10
9.903504
 20
0.334917
 30
0.0
 11
9.903255999999999
 21
0.360447
 31
0.0
  0
LINE
  5
635
330
1F
100
AcDbEntity
  8
1
  6
CONTINUOUS
370
50
 62
4
100
AcDbLine
 10
9.903505
 20
0.334811
 30
0.0
 11
9.903257
 21
0.360332
 31
0.0
  0
LINE
  5
636
330
1F
100
AcDbEntity
  8
1
  6
CONTINUOUS
370
50
 62
4
100
AcDbLine
 10
9.903257
 20
0.360332
 30
0.0
 11
9.902996
 21
0.384895
 31
0.0
  0
LINE
  5
637
330
1F
100
AcDbEntity
  8
1
  6
CONTINUOUS
370
50
 62
4
100
AcDbLine
 10
9.903255999999999
 20
0.360447
 30
0.0
 11
9.902994
 21
0.385028
 31
0.0
  0
LINE
  5
638
330
1F
100
AcDbEntity
  8
1
  6
CONTINUOUS
370
50
 62
4
100
AcDbLine
 10
9.902994
 20
0.385028
 30
0.0
 11
9.902724
 21
0.408447
 31
0.0
  0
LINE
  5
639
330
1F
100
AcDbEntity
  8
1
  6
CONTINUOUS
370
50
 62
4
100
AcDbLine
 10
9.902996
 20
0.384895
 30
0.0
 11
9.902724
 21
0.408364
 31
0.0
  0
LINE
  5
63A
330
1F
100
AcDbEntity
  8
1
  6
CONTINUOUS
370
50
 62
4
100
AcDbLine
 10
9.902724
 20
0.408364
 30
0.0
 11
9.902446999999999
 21
0.430563
 31
0.0
  0
LINE
  5
63B
330
1F
100
AcDbEntity
  8
1
  6
CONTINUOUS
370
50
 62
4
100
AcDbLine
 10
9.902724
 20
0.408447
 30
0.0
 11
9.902446999999999
 21
0.430606
 31
0.0
  0
LINE
  5
63C
330
1F
100
AcDbEntity
  8
1
  6
CONTINUOUS
370
50
 62
4
100
AcDbLine
 10
9.902446999999999
 20
0.430563
 30
0.0
 11
9.902163999999999
 21
0.451408
 31
0.0
  0
LINE
  5
63D
330
1F
100
AcDbEntity
  8
1
  6
CONTINUOUS
370
50
 62
4
100
AcDbLine
 10
9.902446999999999
 20
0.430606
 30
0.0
 11
9.902163999999999
 21
0.451426
 31
0.0
  0
LINE
  5
63E
330
1F
100
AcDbEntity
  8
1
  6
CONTINUOUS
370
50
 62
4
100
AcDbLine
 10
9.902163999999999
 20
0.451408
 30
0.0
 11
9.901876
 21
0.470822
 31
0.0
  0
LINE
  5
63F
330
1F
100
AcDbEntity
  8
1
  6
CONTINUOUS
370
50
 62
4
100
AcDbLine
 10
9.902163999999999
 20
0.451426
 30
0.0
 11
9.901876
 21
0.470825
 31
0.0
  0
LINE
  5
640
330
1F
100
AcDbEntity
  8
1
  6
CONTINUOUS
370
50
 62
4
100
AcDbLine
 10
9.187934
 20
-0.167162
 30
0.0
 11
9.187427999999999
 21
-0.134211
 31
0.0
  0
LINE
  5
641
330
1F
100
AcDbEntity
  8
1
  6
CONTINUOUS
370
50
 62
4
100
AcDbLine
 10
9.901876
 20
0.470822
 30
0.0
 11
9.901587
 21
0.488725
 31
0.0
  0
LINE
  5
642
330
1F
100
AcDbEntity
  8
1
  6
CONTINUOUS
370
50
 62
4
100
AcDbLine
 10
9.901876
 20
0.470825
 30
0.0
 11
9.901587
 21
0.488725
 31
0.0
  0
LINE
  5
643
330
1F
100
AcDbEntity
  8
1
  6
CONTINUOUS
370
50
 62
4
100
AcDbLine
 10
9.901133999999999
 20
0.515527
 30
0.0
 11
9.900908
 21
0.5289349999999999
 31
0.0
  0
LINE
  5
644
330
1F
100
AcDbEntity
  8
1
  6
CONTINUOUS
370
50
 62
4
100
AcDbLine
 10
9.900907
 20
0.528922
 30
0.0
 11
9.900680999999999
 21
0.54233
 31
0.0
  0
LINE
  5
645
330
1F
100
AcDbEntity
  8
1
  6
CONTINUOUS
370
50
 62
4
100
AcDbLine
 10
9.901587
 20
0.488725
 30
0.0
 11
9.901361
 21
0.502123
 31
0.0
  0
LINE
  5
646
330
1F
100
AcDbEntity
  8
1
  6
CONTINUOUS
370
50
 62
4
100
AcDbLine
 10
9.901587
 20
0.488725
 30
0.0
 11
9.901361
 21
0.502119
 31
0.0
  0
LINE
  5
647
330
1F
100
AcDbEntity
  8
1
  6
CONTINUOUS
370
50
 62
4
100
AcDbLine
 10
9.900227
 20
0.569186
 30
0.0
 11
9.9
 21
0.5826129999999999
 31
0.0
  0
LINE
  5
648
330
1F
100
AcDbEntity
  8
1
  6
CONTINUOUS
370
50
 62
4
100
AcDbLine
 10
9.900454
 20
0.5557639999999999
 30
0.0
 11
9.900227
 21
0.569186
 31
0.0
  0
LINE
  5
649
330
1F
100
AcDbEntity
  8
1
  6
CONTINUOUS
370
50
 62
4
100
AcDbLine
 10
9.900227
 20
0.569161
 30
0.0
 11
9.9
 21
0.582583
 31
0.0
  0
LINE
  5
64A
330
1F
100
AcDbEntity
  8
1
  6
CONTINUOUS
370
50
 62
4
100
AcDbLine
 10
9.900454
 20
0.555743
 30
0.0
 11
9.900227
 21
0.569161
 31
0.0
  0
LINE
  5
64B
330
1F
100
AcDbEntity
  8
1
  6
CONTINUOUS
370
50
 62
4
100
AcDbLine
 10
9.900680999999999
 20
0.542347
 30
0.0
 11
9.900454
 21
0.5557639999999999
 31
0.0
  0
LINE
  5
64C
330
1F
100
AcDbEntity
  8
1
  6
CONTINUOUS
370
50
 62
4
100
AcDbLine
 10
9.900680999999999
 20
0.54233
 30
0.0
 11
9.900454
 21
0.555743
 31
0.0
  0
LINE
  5
64D
330
1F
100
AcDbEntity
  8
1
  6
CONTINUOUS
370
50
 62
4
100
AcDbLine
 10
9.900908
 20
0.5289349999999999
 30
0.0
 11
9.900680999999999
 21
0.542347
 31
0.0
  0
LINE
  5
64E
330
1F
100
AcDbEntity
  8
1
  6
CONTINUOUS
370
50
 62
4
100
AcDbLine
 10
9.901361
 20
0.502123
 30
0.0
 11
9.901133999999999
 21
0.515527
 31
0.0
  0
LINE
  5
64F
330
1F
100
AcDbEntity
  8
1
  6
CONTINUOUS
370
50
 62
4
100
AcDbLine
 10
9.901133999999999
 20
0.515518
 30
0.0
 11
9.900907
 21
0.528922
 31
0.0
  0
LINE
  5
650
330
1F
100
AcDbEntity
  8
1
  6
CONTINUOUS
370
50
 62
4
100
AcDbLine
 10
9.901361
 20
0.502119
 30
0.0
 11
9.901133999999999
 21
0.515518
 31
0.0
  0
LINE
  5
651
330
1F
100
AcDbEntity
  8
1
  6
CONTINUOUS
370
50
 62
4
100
AcDbLine
 10
9.187427999999999
 20
-0.134211
 30
0.0
 11
9.186554
 21
-0.100751
 31
0.0
  0
LINE
  5
652
330
1F
100
AcDbEntity
  8
1
  6
CONTINUOUS
370
50
 62
4
100
AcDbLine
 10
9.186554
 20
-0.100751
 30
0.0
 11
9.185335
 21
-0.067206
 31
0.0
  0
LINE
  5
653
330
1F
100
AcDbEntity
  8
1
  6
CONTINUOUS
370
50
 62
4
100
AcDbLine
 10
11.75039
 20
-0.411184
 30
0.0
 11
11.749701
 21
-0.393964
 31
0.0
  0
LINE
  5
654
330
1F
100
AcDbEntity
  8
1
  6
CONTINUOUS
370
50
 62
4
100
AcDbLine
 10
9.185335
 20
-0.067206
 30
0.0
 11
9.183779999999999
 21
-0.033608
 31
0.0
  0
LINE
  5
655
330
1F
100
AcDbEntity
  8
1
  6
CONTINUOUS
370
50
 62
4
100
AcDbLine
 10
9.183779999999999
 20
-0.033608
 30
0.0
 11
9.181896
 21
0.000006
 31
0.0
  0
LINE
  5
656
330
1F
100
AcDbEntity
  8
1
  6
CONTINUOUS
370
50
 62
4
100
AcDbLine
 10
9.146212
 20
0.283595
 30
0.0
 11
9.145147999999999
 21
0.30232
 31
0.0
  0
LINE
  5
657
330
1F
100
AcDbEntity
  8
1
  6
CONTINUOUS
370
50
 62
4
100
AcDbLine
 10
9.181896
 20
0.000006
 30
0.0
 11
9.179734
 21
0.032988
 31
0.0
  0
LINE
  5
658
330
1F
100
AcDbEntity
  8
1
  6
CONTINUOUS
370
50
 62
4
100
AcDbLine
 10
11.750398
 20
0.490085
 30
0.0
 11
11.749655
 21
0.500772
 31
0.0
  0
LINE
  5
659
330
1F
100
AcDbEntity
  8
1
  6
CONTINUOUS
370
50
 62
4
100
AcDbLine
 10
9.179734
 20
0.032988
 30
0.0
 11
9.17727
 21
0.065919
 31
0.0
  0
LINE
  5
65A
330
1F
100
AcDbEntity
  8
1
  6
CONTINUOUS
370
50
 62
4
100
AcDbLine
 10
9.17727
 20
0.065919
 30
0.0
 11
9.17451
 21
0.098767
 31
0.0
  0
LINE
  5
65B
330
1F
100
AcDbEntity
  8
1
  6
CONTINUOUS
370
50
 62
4
100
AcDbLine
 10
9.901587
 20
0.488725
 30
0.0
 11
9.901555
 21
0.489105
 31
0.0
  0
LINE
  5
65C
330
1F
100
AcDbEntity
  8
1
  6
CONTINUOUS
370
50
 62
4
100
AcDbLine
 10
9.17451
 20
0.098767
 30
0.0
 11
9.171462
 21
0.131499
 31
0.0
  0
LINE
  5
65D
330
1F
100
AcDbEntity
  8
1
  6
CONTINUOUS
370
50
 62
4
100
AcDbLine
 10
9.171462
 20
0.131499
 30
0.0
 11
9.168134
 21
0.164083
 31
0.0
  0
LINE
  5
65E
330
1F
100
AcDbEntity
  8
1
  6
CONTINUOUS
370
50
 62
4
100
AcDbLine
 10
9.168134
 20
0.164083
 30
0.0
 11
9.164531
 21
0.196484
 31
0.0
  0
LINE
  5
65F
330
1F
100
AcDbEntity
  8
1
  6
CONTINUOUS
370
50
 62
4
100
AcDbLine
 10
9.164531
 20
0.196484
 30
0.0
 11
9.160663
 21
0.228671
 31
0.0
  0
LINE
  5
660
330
1F
100
AcDbEntity
  8
1
  6
CONTINUOUS
370
50
 62
4
100
AcDbLine
 10
9.14926
 20
0.265045
 30
0.0
 11
9.146212
 21
0.283595
 31
0.0
  0
LINE
  5
661
330
1F
100
AcDbEntity
  8
1
  6
CONTINUOUS
370
50
 62
4
100
AcDbLine
 10
11.749701
 20
-0.393964
 30
0.0
 11
11.747004
 21
-0.378205
 31
0.0
  0
LINE
  5
662
330
1F
100
AcDbEntity
  8
1
  6
CONTINUOUS
370
50
 62
4
100
AcDbLine
 10
11.749655
 20
0.500772
 30
0.0
 11
11.746879
 21
0.51305
 31
0.0
  0
LINE
  5
663
330
1F
100
AcDbEntity
  8
1
  6
CONTINUOUS
370
50
 62
4
100
AcDbLine
 10
9.904316999999999
 20
-0.038603
 30
0.0
 11
9.904232
 21
-0.038276
 31
0.0
  0
LINE
  5
664
330
1F
100
AcDbEntity
  8
1
  6
CONTINUOUS
370
50
 62
4
100
AcDbLine
 10
9.15413
 20
0.246721
 30
0.0
 11
9.14926
 21
0.265045
 31
0.0
  0
LINE
  5
665
330
1F
100
AcDbEntity
  8
1
  6
CONTINUOUS
370
50
 62
4
100
AcDbLine
 10
11.747004
 20
-0.378205
 30
0.0
 11
11.742441
 21
-0.363826
 31
0.0
  0
LINE
  5
666
330
1F
100
AcDbEntity
  8
1
  6
CONTINUOUS
370
50
 62
4
100
AcDbLine
 10
8.906483999999999
 20
-0.652686
 30
0.0
 11
8.903483
 21
-0.6435649999999999
 31
0.0
  0
LINE
  5
667
330
1F
100
AcDbEntity
  8
1
  6
CONTINUOUS
370
50
 62
4
100
AcDbLine
 10
11.746879
 20
0.51305
 30
0.0
 11
11.742218
 21
0.52664
 31
0.0
  0
LINE
  5
668
330
1F
100
AcDbEntity
  8
1
  6
CONTINUOUS
370
50
 62
4
100
AcDbLine
 10
9.160663
 20
0.228671
 30
0.0
 11
9.15413
 21
0.246721
 31
0.0
  0
LINE
  5
669
330
1F
100
AcDbEntity
  8
1
  6
CONTINUOUS
370
50
 62
4
100
AcDbLine
 10
11.742218
 20
0.52664
 30
0.0
 11
11.735767
 21
0.5413939999999999
 31
0.0
  0
LINE
  5
66A
330
1F
100
AcDbEntity
  8
1
  6
CONTINUOUS
370
50
 62
4
100
AcDbLine
 10
11.742441
 20
-0.363826
 30
0.0
 11
11.736114
 21
-0.350659
 31
0.0
  0
LINE
  5
66B
330
1F
100
AcDbEntity
  8
1
  6
CONTINUOUS
370
50
 62
4
100
AcDbLine
 10
11.735767
 20
0.5413939999999999
 30
0.0
 11
11.727464
 21
0.557396
 31
0.0
  0
LINE
  5
66C
330
1F
100
AcDbEntity
  8
1
  6
CONTINUOUS
370
50
 62
4
100
AcDbLine
 10
11.727464
 20
0.557396
 30
0.0
 11
11.717278
 21
0.574526
 31
0.0
  0
LINE
  5
66D
330
1F
100
AcDbEntity
  8
1
  6
CONTINUOUS
370
50
 62
4
100
AcDbLine
 10
11.736114
 20
-0.350659
 30
0.0
 11
11.727961
 21
-0.338408
 31
0.0
  0
LINE
  5
66E
330
1F
100
AcDbEntity
  8
1
  6
CONTINUOUS
370
50
 62
4
100
AcDbLine
 10
11.717278
 20
0.574526
 30
0.0
 11
11.705183
 21
0.592652
 31
0.0
  0
LINE
  5
66F
330
1F
100
AcDbEntity
  8
1
  6
CONTINUOUS
370
50
 62
4
100
AcDbLine
 10
8.912389
 20
-0.661123
 30
0.0
 11
8.906483999999999
 21
-0.652686
 31
0.0
  0
LINE
  5
670
330
1F
100
AcDbEntity
  8
1
  6
CONTINUOUS
370
50
 62
4
100
AcDbLine
 10
11.705183
 20
0.592652
 30
0.0
 11
11.691153
 21
0.6116429999999999
 31
0.0
  0
LINE
  5
671
330
1F
100
AcDbEntity
  8
1
  6
CONTINUOUS
370
50
 62
4
100
AcDbLine
 10
11.691153
 20
0.6116429999999999
 30
0.0
 11
11.674665
 21
0.631952
 31
0.0
  0
LINE
  5
672
330
1F
100
AcDbEntity
  8
1
  6
CONTINUOUS
370
50
 62
4
100
AcDbLine
 10
11.727961
 20
-0.338408
 30
0.0
 11
11.717952
 21
-0.326988
 31
0.0
  0
LINE
  5
673
330
1F
100
AcDbEntity
  8
1
  6
CONTINUOUS
370
50
 62
4
100
AcDbLine
 10
11.674665
 20
0.631952
 30
0.0
 11
11.656126
 21
0.652832
 31
0.0
  0
LINE
  5
674
330
1F
100
AcDbEntity
  8
1
  6
CONTINUOUS
370
50
 62
4
100
AcDbLine
 10
8.919972
 20
-0.669223
 30
0.0
 11
8.912389
 21
-0.661123
 31
0.0
  0
LINE
  5
675
330
1F
100
AcDbEntity
  8
1
  6
CONTINUOUS
370
50
 62
4
100
AcDbLine
 10
11.656126
 20
0.652832
 30
0.0
 11
11.635794
 21
0.673824
 31
0.0
  0
LINE
  5
676
330
1F
100
AcDbEntity
  8
1
  6
CONTINUOUS
370
50
 62
4
100
AcDbLine
 10
11.635794
 20
0.673824
 30
0.0
 11
11.613738
 21
0.694734
 31
0.0
  0
LINE
  5
677
330
1F
100
AcDbEntity
  8
1
  6
CONTINUOUS
370
50
 62
4
100
AcDbLine
 10
8.906692999999999
 20
0.9534509999999999
 30
0.0
 11
8.903487
 21
0.956422
 31
0.0
  0
LINE
  5
678
330
1F
100
AcDbEntity
  8
1
  6
CONTINUOUS
370
50
 62
4
100
AcDbLine
 10
8.927992999999999
 20
-0.6764669999999999
 30
0.0
 11
8.919972
 21
-0.669223
 31
0.0
  0
LINE
  5
679
330
1F
100
AcDbEntity
  8
1
  6
CONTINUOUS
370
50
 62
4
100
AcDbLine
 10
11.717952
 20
-0.326988
 30
0.0
 11
11.70606
 21
-0.316322
 31
0.0
  0
LINE
  5
67A
330
1F
100
AcDbEntity
  8
1
  6
CONTINUOUS
370
50
 62
4
100
AcDbLine
 10
11.613738
 20
0.694734
 30
0.0
 11
11.589993
 21
0.715409
 31
0.0
  0
LINE
  5
67B
330
1F
100
AcDbEntity
  8
1
  6
CONTINUOUS
370
50
 62
4
100
AcDbLine
 10
8.936805999999999
 20
-0.683566
 30
0.0
 11
8.927992999999999
 21
-0.6764669999999999
 31
0.0
  0
LINE
  5
67C
330
1F
100
AcDbEntity
  8
1
  6
CONTINUOUS
370
50
 62
4
100
AcDbLine
 10
11.589993
 20
0.715409
 30
0.0
 11
11.564597
 21
0.735695
 31
0.0
  0
LINE
  5
67D
330
1F
100
AcDbEntity
  8
1
  6
CONTINUOUS
370
50
 62
4
100
AcDbLine
 10
8.946888999999999
 20
-0.6909759999999999
 30
0.0
 11
8.936805999999999
 21
-0.683566
 31
0.0
  0
LINE
  5
67E
330
1F
100
AcDbEntity
  8
1
  6
CONTINUOUS
370
50
 62
4
100
AcDbLine
 10
11.564597
 20
0.735695
 30
0.0
 11
11.537585
 21
0.755436
 31
0.0
  0
LINE
  5
67F
330
1F
100
AcDbEntity
  8
1
  6
CONTINUOUS
370
50
 62
4
100
AcDbLine
 10
11.70606
 20
-0.316322
 30
0.0
 11
11.692262
 21
-0.306336
 31
0.0
  0
LINE
  5
680
330
1F
100
AcDbEntity
  8
1
  6
CONTINUOUS
370
50
 62
4
100
AcDbLine
 10
8.958219
 20
-0.6986709999999999
 30
0.0
 11
8.946888999999999
 21
-0.6909759999999999
 31
0.0
  0
LINE
  5
681
330
1F
100
AcDbEntity
  8
1
  6
CONTINUOUS
370
50
 62
4
100
AcDbLine
 10
11.537585
 20
0.755436
 30
0.0
 11
11.508993
 21
0.77448
 31
0.0
  0
LINE
  5
682
330
1F
100
AcDbEntity
  8
1
  6
CONTINUOUS
370
50
 62
4
100
AcDbLine
 10
8.970773
 20
-0.706622
 30
0.0
 11
8.958219
 21
-0.6986709999999999
 31
0.0
  0
LINE
  5
683
330
1F
100
AcDbEntity
  8
1
  6
CONTINUOUS
370
50
 62
4
100
AcDbLine
 10
10.911954
 20
0.044238
 30
0.0
 11
10.900002
 21
0.051634
 31
0.0
  0
LINE
  5
684
330
1F
100
AcDbEntity
  8
1
  6
CONTINUOUS
370
50
 62
4
100
AcDbLine
 10
10.923953
 20
0.036826
 30
0.0
 11
10.911954
 21
0.044238
 31
0.0
  0
LINE
  5
685
330
1F
100
AcDbEntity
  8
1
  6
CONTINUOUS
370
50
 62
4
100
AcDbLine
 10
10.935993
 20
0.029413
 30
0.0
 11
10.923953
 21
0.036826
 31
0.0
  0
LINE
  5
686
330
1F
100
AcDbEntity
  8
1
  6
CONTINUOUS
370
50
 62
4
100
AcDbLine
 10
10.948041
 20
0.022021
 30
0.0
 11
10.935993
 21
0.029413
 31
0.0
  0
LINE
  5
687
330
1F
100
AcDbEntity
  8
1
  6
CONTINUOUS
370
50
 62
4
100
AcDbLine
 10
10.960097
 20
0.014652
 30
0.0
 11
10.948041
 21
0.022021
 31
0.0
  0
LINE
  5
688
330
1F
100
AcDbEntity
  8
1
  6
CONTINUOUS
370
50
 62
4
100
AcDbLine
 10
10.972159
 20
0.00731
 30
0.0
 11
10.960097
 21
0.014652
 31
0.0
  0
LINE
  5
689
330
1F
100
AcDbEntity
  8
1
  6
CONTINUOUS
370
50
 62
4
100
AcDbLine
 10
10.984226
 20
0.0
 30
0.0
 11
10.972159
 21
0.00731
 31
0.0
  0
LINE
  5
68A
330
1F
100
AcDbEntity
  8
1
  6
CONTINUOUS
370
50
 62
4
100
AcDbLine
 10
10.985904
 20
-0.001014
 30
0.0
 11
10.984226
 21
0.0
 31
0.0
  0
LINE
  5
68B
330
1F
100
AcDbEntity
  8
1
  6
CONTINUOUS
370
50
 62
4
100
AcDbLine
 10
11.508993
 20
0.77448
 30
0.0
 11
11.478859
 21
0.792673
 31
0.0
  0
LINE
  5
68C
330
1F
100
AcDbEntity
  8
1
  6
CONTINUOUS
370
50
 62
4
100
AcDbLine
 10
10.98926
 20
-0.003039
 30
0.0
 11
10.987582
 21
-0.002026
 31
0.0
  0
LINE
  5
68D
330
1F
100
AcDbEntity
  8
1
  6
CONTINUOUS
370
50
 62
4
100
AcDbLine
 10
10.987582
 20
-0.002026
 30
0.0
 11
10.985904
 21
-0.001014
 31
0.0
  0
LINE
  5
68E
330
1F
100
AcDbEntity
  8
1
  6
CONTINUOUS
370
50
 62
4
100
AcDbLine
 10
10.9
 20
0.051632
 30
0.0
 11
10.722244
 21
0.158736
 31
0.0
  0
LINE
  5
68F
330
1F
100
AcDbEntity
  8
1
  6
CONTINUOUS
370
50
 62
4
100
AcDbLine
 10
10.992616
 20
-0.005061
 30
0.0
 11
10.98926
 21
-0.003039
 31
0.0
  0
LINE
  5
690
330
1F
100
AcDbEntity
  8
1
  6
CONTINUOUS
370
50
 62
4
100
AcDbLine
 10
10.994294
 20
-0.00607
 30
0.0
 11
10.992616
 21
-0.005061
 31
0.0
  0
LINE
  5
691
330
1F
100
AcDbEntity
  8
1
  6
CONTINUOUS
370
50
 62
4
100
AcDbLine
 10
11.692262
 20
-0.306336
 30
0.0
 11
11.676529
 21
-0.296956
 31
0.0
  0
LINE
  5
692
330
1F
100
AcDbEntity
  8
1
  6
CONTINUOUS
370
50
 62
4
100
AcDbLine
 10
8.984529
 20
-0.714803
 30
0.0
 11
8.970773
 21
-0.706622
 31
0.0
  0
LINE
  5
693
330
1F
100
AcDbEntity
  8
1
  6
CONTINUOUS
370
50
 62
4
100
AcDbLine
 10
11.040879
 20
-0.033767
 30
0.0
 11
10.994294
 21
-0.00607
 31
0.0
  0
LINE
  5
694
330
1F
100
AcDbEntity
  8
1
  6
CONTINUOUS
370
50
 62
4
100
AcDbLine
 10
11.08745
 20
-0.060677
 30
0.0
 11
11.040879
 21
-0.033767
 31
0.0
  0
LINE
  5
695
330
1F
100
AcDbEntity
  8
1
  6
CONTINUOUS
370
50
 62
4
100
AcDbLine
 10
10.722244
 20
0.158736
 30
0.0
 11
10.552378
 21
0.255763
 31
0.0
  0
LINE
  5
696
330
1F
100
AcDbEntity
  8
1
  6
CONTINUOUS
370
50
 62
4
100
AcDbLine
 10
8.999464999999999
 20
-0.7231869999999999
 30
0.0
 11
8.984529
 21
-0.714803
 31
0.0
  0
LINE
  5
697
330
1F
100
AcDbEntity
  8
1
  6
CONTINUOUS
370
50
 62
4
100
AcDbLine
 10
10.785117
 20
0.30852
 30
0.0
 11
10.660344
 21
0.378434
 31
0.0
  0
LINE
  5
698
330
1F
100
AcDbEntity
  8
1
  6
CONTINUOUS
370
50
 62
4
100
AcDbLine
 10
11.133904
 20
-0.086567
 30
0.0
 11
11.08745
 21
-0.060677
 31
0.0
  0
LINE
  5
699
330
1F
100
AcDbEntity
  8
1
  6
CONTINUOUS
370
50
 62
4
100
AcDbLine
 10
10.552378
 20
0.255763
 30
0.0
 11
10.392648
 21
0.342591
 31
0.0
  0
LINE
  5
69A
330
1F
100
AcDbEntity
  8
1
  6
CONTINUOUS
370
50
 62
4
100
AcDbLine
 10
11.478859
 20
0.792673
 30
0.0
 11
11.447217
 21
0.8098599999999999
 31
0.0
  0
LINE
  5
69B
330
1F
100
AcDbEntity
  8
1
  6
CONTINUOUS
370
50
 62
4
100
AcDbLine
 10
11.18019
 20
-0.11124
 30
0.0
 11
11.133904
 21
-0.086567
 31
0.0
  0
LINE
  5
69C
330
1F
100
AcDbEntity
  8
1
  6
CONTINUOUS
370
50
 62
4
100
AcDbLine
 10
11.9
 20
0.0
 30
0.0
 11
11.869843
 21
0.016038
 31
0.0
  0
LINE
  5
69D
330
1F
100
AcDbEntity
  8
1
  6
CONTINUOUS
370
50
 62
4
100
AcDbLine
 10
9.015547999999999
 20
-0.73174
 30
0.0
 11
8.999464999999999
 21
-0.7231869999999999
 31
0.0
  0
LINE
  5
69E
330
1F
100
AcDbEntity
  8
1
  6
CONTINUOUS
370
50
 62
4
100
AcDbLine
 10
10.660344
 20
0.378434
 30
0.0
 11
10.534831
 21
0.445055
 31
0.0
  0
LINE
  5
69F
330
1F
100
AcDbEntity
  8
1
  6
CONTINUOUS
370
50
 62
4
100
AcDbLine
 10
10.392648
 20
0.342591
 30
0.0
 11
10.245298
 21
0.419103
 31
0.0
  0
LINE
  5
6A0
330
1F
100
AcDbEntity
  8
1
  6
CONTINUOUS
370
50
 62
4
100
AcDbLine
 10
10.994248
 20
-0.006021
 30
0.0
 11
10.838151
 21
0.074092
 31
0.0
  0
LINE
  5
6A1
330
1F
100
AcDbEntity
  8
1
  6
CONTINUOUS
370
50
 62
4
100
AcDbLine
 10
9.032297
 20
-0.740212
 30
0.0
 11
9.015547999999999
 21
-0.73174
 31
0.0
  0
LINE
  5
6A2
330
1F
100
AcDbEntity
  8
1
  6
CONTINUOUS
370
50
 62
4
100
AcDbLine
 10
11.226132
 20
-0.134437
 30
0.0
 11
11.18019
 21
-0.11124
 31
0.0
  0
LINE
  5
6A3
330
1F
100
AcDbEntity
  8
1
  6
CONTINUOUS
370
50
 62
4
100
AcDbLine
 10
10.534831
 20
0.445055
 30
0.0
 11
10.408796
 21
0.508282
 31
0.0
  0
LINE
  5
6A4
330
1F
100
AcDbEntity
  8
1
  6
CONTINUOUS
370
50
 62
4
100
AcDbLine
 10
11.676529
 20
-0.296956
 30
0.0
 11
11.658867
 21
-0.288116
 31
0.0
  0
LINE
  5
6A5
330
1F
100
AcDbEntity
  8
1
  6
CONTINUOUS
370
50
 62
4
100
AcDbLine
 10
10.838151
 20
0.074092
 30
0.0
 11
10.682056
 21
0.151837
 31
0.0
  0
LINE
  5
6A6
330
1F
100
AcDbEntity
  8
1
  6
CONTINUOUS
370
50
 62
4
100
AcDbLine
 10
10.245298
 20
0.419103
 30
0.0
 11
10.112576
 21
0.485177
 31
0.0
  0
LINE
  5
6A7
330
1F
100
AcDbEntity
  8
1
  6
CONTINUOUS
370
50
 62
4
100
AcDbLine
 10
9.049391
 20
-0.748462
 30
0.0
 11
9.032297
 21
-0.740212
 31
0.0
  0
LINE
  5
6A8
330
1F
100
AcDbEntity
  8
1
  6
CONTINUOUS
370
50
 62
4
100
AcDbLine
 10
10.112576
 20
0.485177
 30
0.0
 11
9.996729
 21
0.540694
 31
0.0
  0
LINE
  5
6A9
330
1F
100
AcDbEntity
  8
1
  6
CONTINUOUS
370
50
 62
4
100
AcDbLine
 10
10.682056
 20
0.151837
 30
0.0
 11
10.525965
 21
0.225902
 31
0.0
  0
LINE
  5
6AA
330
1F
100
AcDbEntity
  8
1
  6
CONTINUOUS
370
50
 62
4
100
AcDbLine
 10
10.408796
 20
0.508282
 30
0.0
 11
10.282017
 21
0.5682889999999999
 31
0.0
  0
LINE
  5
6AB
330
1F
100
AcDbEntity
  8
1
  6
CONTINUOUS
370
50
 62
4
100
AcDbLine
 10
11.271589
 20
-0.155944
 30
0.0
 11
11.226132
 21
-0.134437
 31
0.0
  0
LINE
  5
6AC
330
1F
100
AcDbEntity
  8
1
  6
CONTINUOUS
370
50
 62
4
100
AcDbLine
 10
11.447217
 20
0.8098599999999999
 30
0.0
 11
11.400324
 21
0.831706
 31
0.0
  0
LINE
  5
6AD
330
1F
100
AcDbEntity
  8
1
  6
CONTINUOUS
370
50
 62
4
100
AcDbLine
 10
9.996729
 20
0.540694
 30
0.0
 11
9.9
 21
0.585536
 31
0.0
  0
LINE
  5
6AE
330
1F
100
AcDbEntity
  8
1
  6
CONTINUOUS
370
50
 62
4
100
AcDbLine
 10
9.066718
 20
-0.75647
 30
0.0
 11
9.049391
 21
-0.748462
 31
0.0
  0
LINE
  5
6AF
330
1F
100
AcDbEntity
  8
1
  6
CONTINUOUS
370
50
 62
4
100
AcDbLine
 10
10.525965
 20
0.225902
 30
0.0
 11
10.369873
 21
0.296337
 31
0.0
  0
LINE
  5
6B0
330
1F
100
AcDbEntity
  8
1
  6
CONTINUOUS
370
50
 62
4
100
AcDbLine
 10
10.282017
 20
0.5682889999999999
 30
0.0
 11
10.154463
 21
0.62528
 31
0.0
  0
LINE
  5
6B1
330
1F
100
AcDbEntity
  8
1
  6
CONTINUOUS
370
50
 62
4
100
AcDbLine
 10
9.08417
 20
-0.764214
 30
0.0
 11
9.066718
 21
-0.75647
 31
0.0
  0
LINE
  5
6B2
330
1F
100
AcDbEntity
  8
1
  6
CONTINUOUS
370
50
 62
4
100
AcDbLine
 10
11.316494
 20
-0.175603
 30
0.0
 11
11.271589
 21
-0.155944
 31
0.0
  0
LINE
  5
6B3
330
1F
100
AcDbEntity
  8
1
  6
CONTINUOUS
370
50
 62
4
100
AcDbLine
 10
10.369873
 20
0.296337
 30
0.0
 11
10.213779
 21
0.363477
 31
0.0
  0
LINE
  5
6B4
330
1F
100
AcDbEntity
  8
1
  6
CONTINUOUS
370
50
 62
4
100
AcDbLine
 10
11.658867
 20
-0.288116
 30
0.0
 11
11.63951
 21
-0.279809
 31
0.0
  0
LINE
  5
6B5
330
1F
100
AcDbEntity
  8
1
  6
CONTINUOUS
370
50
 62
4
100
AcDbLine
 10
9.101637
 20
-0.771671
 30
0.0
 11
9.08417
 21
-0.764214
 31
0.0
  0
LINE
  5
6B6
330
1F
100
AcDbEntity
  8
1
  6
CONTINUOUS
370
50
 62
4
100
AcDbLine
 10
10.154463
 20
0.62528
 30
0.0
 11
10.026875
 21
0.6790579999999999
 31
0.0
  0
LINE
  5
6B7
330
1F
100
AcDbEntity
  8
1
  6
CONTINUOUS
370
50
 62
4
100
AcDbLine
 10
9.901078
 20
0.489287
 30
0.0
 11
9.901047
 21
0.4893
 31
0.0
  0
LINE
  5
6B8
330
1F
100
AcDbEntity
  8
1
  6
CONTINUOUS
370
50
 62
4
100
AcDbLine
 10
9.900729
 20
0.489421
 30
0.0
 11
9.900698
 21
0.489434
 31
0.0
  0
LINE
  5
6B9
330
1F
100
AcDbEntity
  8
1
  6
CONTINUOUS
370
50
 62
4
100
AcDbLine
 10
9.90038
 20
0.489555
 30
0.0
 11
9.900349
 21
0.489568
 31
0.0
  0
LINE
  5
6BA
330
1F
100
AcDbEntity
  8
1
  6
CONTINUOUS
370
50
 62
4
100
AcDbLine
 10
9.900189
 20
0.489628
 30
0.0
 11
9.900158
 21
0.489641
 31
0.0
  0
LINE
  5
6BB
330
1F
100
AcDbEntity
  8
1
  6
CONTINUOUS
370
50
 62
4
100
AcDbLine
 10
9.119105
 20
-0.77886
 30
0.0
 11
9.101637
 21
-0.771671
 31
0.0
  0
LINE
  5
6BC
330
1F
100
AcDbEntity
  8
1
  6
CONTINUOUS
370
50
 62
4
100
AcDbLine
 10
10.213779
 20
0.363477
 30
0.0
 11
10.057684
 21
0.427708
 31
0.0
  0
LINE
  5
6BD
330
1F
100
AcDbEntity
  8
1
  6
CONTINUOUS
370
50
 62
4
100
AcDbLine
 10
9.901428
 20
0.489153
 30
0.0
 11
9.901396
 21
0.489166
 31
0.0
  0
LINE
  5
6BE
330
1F
100
AcDbEntity
  8
1
  6
CONTINUOUS
370
50
 62
4
100
AcDbLine
 10
9.901269
 20
0.489214
 30
0.0
 11
9.901237
 21
0.489227
 31
0.0
  0
LINE
  5
6BF
330
1F
100
AcDbEntity
  8
1
  6
CONTINUOUS
370
50
 62
4
100
AcDbLine
 10
9.90092
 20
0.489348
 30
0.0
 11
9.900888
 21
0.489361
 31
0.0
  0
LINE
  5
6C0
330
1F
100
AcDbEntity
  8
1
  6
CONTINUOUS
370
50
 62
4
100
AcDbLine
 10
11.360779
 20
-0.193251
 30
0.0
 11
11.316494
 21
-0.175603
 31
0.0
  0
LINE
  5
6C1
330
1F
100
AcDbEntity
  8
1
  6
CONTINUOUS
370
50
 62
4
100
AcDbLine
 10
9.136697999999999
 20
-0.785847
 30
0.0
 11
9.119105
 21
-0.77886
 31
0.0
  0
LINE
  5
6C2
330
1F
100
AcDbEntity
  8
1
  6
CONTINUOUS
370
50
 62
4
100
AcDbLine
 10
10.026875
 20
0.6790579999999999
 30
0.0
 11
9.9
 21
0.7294229999999999
 31
0.0
  0
LINE
  5
6C3
330
1F
100
AcDbEntity
  8
1
  6
CONTINUOUS
370
50
 62
4
100
AcDbLine
 10
8.914196
 20
0.9504739999999999
 30
0.0
 11
8.906692999999999
 21
0.9534509999999999
 31
0.0
  0
LINE
  5
6C4
330
1F
100
AcDbEntity
  8
1
  6
CONTINUOUS
370
50
 62
4
100
AcDbLine
 10
9.900571
 20
0.489482
 30
0.0
 11
9.900538
 21
0.489495
 31
0.0
  0
LINE
  5
6C5
330
1F
100
AcDbEntity
  8
1
  6
CONTINUOUS
370
50
 62
4
100
AcDbLine
 10
10.057684
 20
0.427708
 30
0.0
 11
9.901587
 21
0.488725
 31
0.0
  0
LINE
  5
6C6
330
1F
100
AcDbEntity
  8
1
  6
CONTINUOUS
370
50
 62
4
100
AcDbLine
 10
9.901555
 20
0.489105
 30
0.0
 11
9.901524
 21
0.489117
 31
0.0
  0
LINE
  5
6C7
330
1F
100
AcDbEntity
  8
1
  6
CONTINUOUS
370
50
 62
4
100
AcDbLine
 10
9.901491
 20
0.489129
 30
0.0
 11
9.90146
 21
0.489141
 31
0.0
  0
LINE
  5
6C8
330
1F
100
AcDbEntity
  8
1
  6
CONTINUOUS
370
50
 62
4
100
AcDbLine
 10
9.901364
 20
0.489178
 30
0.0
 11
9.901333
 21
0.48919
 31
0.0
  0
LINE
  5
6C9
330
1F
100
AcDbEntity
  8
1
  6
CONTINUOUS
370
50
 62
4
100
AcDbLine
 10
9.901299999999999
 20
0.489202
 30
0.0
 11
9.901269
 21
0.489214
 31
0.0
  0
LINE
  5
6CA
330
1F
100
AcDbEntity
  8
1
  6
CONTINUOUS
370
50
 62
4
100
AcDbLine
 10
9.901237
 20
0.489227
 30
0.0
 11
9.901206
 21
0.489239
 31
0.0
  0
LINE
  5
6CB
330
1F
100
AcDbEntity
  8
1
  6
CONTINUOUS
370
50
 62
4
100
AcDbLine
 10
9.901142
 20
0.489263
 30
0.0
 11
9.901111
 21
0.489275
 31
0.0
  0
LINE
  5
6CC
330
1F
100
AcDbEntity
  8
1
  6
CONTINUOUS
370
50
 62
4
100
AcDbLine
 10
9.901015
 20
0.489312
 30
0.0
 11
9.900984
 21
0.489324
 31
0.0
  0
LINE
  5
6CD
330
1F
100
AcDbEntity
  8
1
  6
CONTINUOUS
370
50
 62
4
100
AcDbLine
 10
9.900951
 20
0.489336
 30
0.0
 11
9.90092
 21
0.489348
 31
0.0
  0
LINE
  5
6CE
330
1F
100
AcDbEntity
  8
1
  6
CONTINUOUS
370
50
 62
4
100
AcDbLine
 10
9.900856
 20
0.489373
 30
0.0
 11
9.900825
 21
0.489385
 31
0.0
  0
LINE
  5
6CF
330
1F
100
AcDbEntity
  8
1
  6
CONTINUOUS
370
50
 62
4
100
AcDbLine
 10
9.900602
 20
0.48947
 30
0.0
 11
9.900571
 21
0.489482
 31
0.0
  0
LINE
  5
6D0
330
1F
100
AcDbEntity
  8
1
  6
CONTINUOUS
370
50
 62
4
100
AcDbLine
 10
9.900538
 20
0.489495
 30
0.0
 11
9.900476
 21
0.489519
 31
0.0
  0
LINE
  5
6D1
330
1F
100
AcDbEntity
  8
1
  6
CONTINUOUS
370
50
 62
4
100
AcDbLine
 10
9.900316
 20
0.48958
 30
0.0
 11
9.900285
 21
0.489592
 31
0.0
  0
LINE
  5
6D2
330
1F
100
AcDbEntity
  8
1
  6
CONTINUOUS
370
50
 62
4
100
AcDbLine
 10
9.900094
 20
0.489665
 30
0.0
 11
9.900063
 21
0.489677
 31
0.0
  0
LINE
  5
6D3
330
1F
100
AcDbEntity
  8
1
  6
CONTINUOUS
370
50
 62
4
100
AcDbLine
 10
9.154368999999999
 20
-0.792628
 30
0.0
 11
9.136697999999999
 21
-0.785847
 31
0.0
  0
LINE
  5
6D4
330
1F
100
AcDbEntity
  8
1
  6
CONTINUOUS
370
50
 62
4
100
AcDbLine
 10
11.63951
 20
-0.279809
 30
0.0
 11
11.618542
 21
-0.27192
 31
0.0
  0
LINE
  5
6D5
330
1F
100
AcDbEntity
  8
1
  6
CONTINUOUS
370
50
 62
4
100
AcDbLine
 10
9.90146
 20
0.489141
 30
0.0
 11
9.901428
 21
0.489153
 31
0.0
  0
LINE
  5
6D6
330
1F
100
AcDbEntity
  8
1
  6
CONTINUOUS
370
50
 62
4
100
AcDbLine
 10
9.901396
 20
0.489166
 30
0.0
 11
9.901364
 21
0.489178
 31
0.0
  0
LINE
  5
6D7
330
1F
100
AcDbEntity
  8
1
  6
CONTINUOUS
370
50
 62
4
100
AcDbLine
 10
9.901206
 20
0.489239
 30
0.0
 11
9.901142
 21
0.489263
 31
0.0
  0
LINE
  5
6D8
330
1F
100
AcDbEntity
  8
1
  6
CONTINUOUS
370
50
 62
4
100
AcDbLine
 10
9.901047
 20
0.4893
 30
0.0
 11
9.901015
 21
0.489312
 31
0.0
  0
LINE
  5
6D9
330
1F
100
AcDbEntity
  8
1
  6
CONTINUOUS
370
50
 62
4
100
AcDbLine
 10
9.900888
 20
0.489361
 30
0.0
 11
9.900856
 21
0.489373
 31
0.0
  0
LINE
  5
6DA
330
1F
100
AcDbEntity
  8
1
  6
CONTINUOUS
370
50
 62
4
100
AcDbLine
 10
9.900825
 20
0.489385
 30
0.0
 11
9.900729
 21
0.489421
 31
0.0
  0
LINE
  5
6DB
330
1F
100
AcDbEntity
  8
1
  6
CONTINUOUS
370
50
 62
4
100
AcDbLine
 10
9.900698
 20
0.489434
 30
0.0
 11
9.900602
 21
0.48947
 31
0.0
  0
LINE
  5
6DC
330
1F
100
AcDbEntity
  8
1
  6
CONTINUOUS
370
50
 62
4
100
AcDbLine
 10
9.900476
 20
0.489519
 30
0.0
 11
9.90038
 21
0.489555
 31
0.0
  0
LINE
  5
6DD
330
1F
100
AcDbEntity
  8
1
  6
CONTINUOUS
370
50
 62
4
100
AcDbLine
 10
9.900285
 20
0.489592
 30
0.0
 11
9.900189
 21
0.489628
 31
0.0
  0
LINE
  5
6DE
330
1F
100
AcDbEntity
  8
1
  6
CONTINUOUS
370
50
 62
4
100
AcDbLine
 10
9.900158
 20
0.489641
 30
0.0
 11
9.900094
 21
0.489665
 31
0.0
  0
LINE
  5
6DF
330
1F
100
AcDbEntity
  8
1
  6
CONTINUOUS
370
50
 62
4
100
AcDbLine
 10
9.900063
 20
0.489677
 30
0.0
 11
9.900031
 21
0.489689
 31
0.0
  0
LINE
  5
6E0
330
1F
100
AcDbEntity
  8
1
  6
CONTINUOUS
370
50
 62
4
100
AcDbLine
 10
11.400324
 20
0.831706
 30
0.0
 11
11.352534
 21
0.849587
 31
0.0
  0
LINE
  5
6E1
330
1F
100
AcDbEntity
  8
1
  6
CONTINUOUS
370
50
 62
4
100
AcDbLine
 10
9.172124
 20
-0.799213
 30
0.0
 11
9.154368999999999
 21
-0.792628
 31
0.0
  0
LINE
  5
6E2
330
1F
100
AcDbEntity
  8
1
  6
CONTINUOUS
370
50
 62
4
100
AcDbLine
 10
9.901524
 20
0.489117
 30
0.0
 11
9.901491
 21
0.489129
 31
0.0
  0
LINE
  5
6E3
330
1F
100
AcDbEntity
  8
1
  6
CONTINUOUS
370
50
 62
4
100
AcDbLine
 10
9.901333
 20
0.48919
 30
0.0
 11
9.901299999999999
 21
0.489202
 31
0.0
  0
LINE
  5
6E4
330
1F
100
AcDbEntity
  8
1
  6
CONTINUOUS
370
50
 62
4
100
AcDbLine
 10
9.901111
 20
0.489275
 30
0.0
 11
9.901078
 21
0.489287
 31
0.0
  0
LINE
  5
6E5
330
1F
100
AcDbEntity
  8
1
  6
CONTINUOUS
370
50
 62
4
100
AcDbLine
 10
9.900984
 20
0.489324
 30
0.0
 11
9.900951
 21
0.489336
 31
0.0
  0
LINE
  5
6E6
330
1F
100
AcDbEntity
  8
1
  6
CONTINUOUS
370
50
 62
4
100
AcDbLine
 10
9.900349
 20
0.489568
 30
0.0
 11
9.900316
 21
0.48958
 31
0.0
  0
LINE
  5
6E7
330
1F
100
AcDbEntity
  8
1
  6
CONTINUOUS
370
50
 62
4
100
AcDbLine
 10
9.18996
 20
-0.805612
 30
0.0
 11
9.172124
 21
-0.799213
 31
0.0
  0
LINE
  5
6E8
330
1F
100
AcDbEntity
  8
1
  6
CONTINUOUS
370
50
 62
4
100
AcDbLine
 10
11.404376
 20
-0.208727
 30
0.0
 11
11.360779
 21
-0.193251
 31
0.0
  0
LINE
  5
6E9
330
1F
100
AcDbEntity
  8
1
  6
CONTINUOUS
370
50
 62
4
100
AcDbLine
 10
9.207875999999999
 20
-0.811832
 30
0.0
 11
9.18996
 21
-0.805612
 31
0.0
  0
LINE
  5
6EA
330
1F
100
AcDbEntity
  8
1
  6
CONTINUOUS
370
50
 62
4
100
AcDbLine
 10
11.618542
 20
-0.27192
 30
0.0
 11
11.594296
 21
-0.263767
 31
0.0
  0
LINE
  5
6EB
330
1F
100
AcDbEntity
  8
1
  6
CONTINUOUS
370
50
 62
4
100
AcDbLine
 10
9.225875
 20
-0.817877
 30
0.0
 11
9.207875999999999
 21
-0.811832
 31
0.0
  0
LINE
  5
6EC
330
1F
100
AcDbEntity
  8
1
  6
CONTINUOUS
370
50
 62
4
100
AcDbLine
 10
9.903592
 20
-0.038073
 30
0.0
 11
9.903513
 21
-0.038047
 31
0.0
  0
LINE
  5
6ED
330
1F
100
AcDbEntity
  8
1
  6
CONTINUOUS
370
50
 62
4
100
AcDbLine
 10
9.902633
 20
-0.037768
 30
0.0
 11
9.902554
 21
-0.037742
 31
0.0
  0
LINE
  5
6EE
330
1F
100
AcDbEntity
  8
1
  6
CONTINUOUS
370
50
 62
4
100
AcDbLine
 10
9.901672999999999
 20
-0.037463
 30
0.0
 11
9.901594
 21
-0.037437
 31
0.0
  0
LINE
  5
6EF
330
1F
100
AcDbEntity
  8
1
  6
CONTINUOUS
370
50
 62
4
100
AcDbLine
 10
9.901273999999999
 20
-0.037336
 30
0.0
 11
9.901195
 21
-0.03731
 31
0.0
  0
LINE
  5
6F0
330
1F
100
AcDbEntity
  8
1
  6
CONTINUOUS
370
50
 62
4
100
AcDbLine
 10
9.900314
 20
-0.037031
 30
0.0
 11
9.900235
 21
-0.037005
 31
0.0
  0
LINE
  5
6F1
330
1F
100
AcDbEntity
  8
1
  6
CONTINUOUS
370
50
 62
4
100
AcDbLine
 10
9.243946
 20
-0.823751
 30
0.0
 11
9.225875
 21
-0.817877
 31
0.0
  0
LINE
  5
6F2
330
1F
100
AcDbEntity
  8
1
  6
CONTINUOUS
370
50
 62
4
100
AcDbLine
 10
9.904152
 20
-0.038251
 30
0.0
 11
9.904072
 21
-0.038225
 31
0.0
  0
LINE
  5
6F3
330
1F
100
AcDbEntity
  8
1
  6
CONTINUOUS
370
50
 62
4
100
AcDbLine
 10
9.903993
 20
-0.0382
 30
0.0
 11
9.903913
 21
-0.038174
 31
0.0
  0
LINE
  5
6F4
330
1F
100
AcDbEntity
  8
1
  6
CONTINUOUS
370
50
 62
4
100
AcDbLine
 10
9.903751999999999
 20
-0.038124
 30
0.0
 11
9.903672
 21
-0.038098
 31
0.0
  0
LINE
  5
6F5
330
1F
100
AcDbEntity
  8
1
  6
CONTINUOUS
370
50
 62
4
100
AcDbLine
 10
9.903353
 20
-0.037997
 30
0.0
 11
9.903273
 21
-0.037971
 31
0.0
  0
LINE
  5
6F6
330
1F
100
AcDbEntity
  8
1
  6
CONTINUOUS
370
50
 62
4
100
AcDbLine
 10
9.902953
 20
-0.03787
 30
0.0
 11
9.902873
 21
-0.037844
 31
0.0
  0
LINE
  5
6F7
330
1F
100
AcDbEntity
  8
1
  6
CONTINUOUS
370
50
 62
4
100
AcDbLine
 10
9.902792999999999
 20
-0.037819
 30
0.0
 11
9.902713
 21
-0.037793
 31
0.0
  0
LINE
  5
6F8
330
1F
100
AcDbEntity
  8
1
  6
CONTINUOUS
370
50
 62
4
100
AcDbLine
 10
9.902393
 20
-0.037692
 30
0.0
 11
9.902313
 21
-0.037666
 31
0.0
  0
LINE
  5
6F9
330
1F
100
AcDbEntity
  8
1
  6
CONTINUOUS
370
50
 62
4
100
AcDbLine
 10
9.902232999999999
 20
-0.037641
 30
0.0
 11
9.902153
 21
-0.037615
 31
0.0
  0
LINE
  5
6FA
330
1F
100
AcDbEntity
  8
1
  6
CONTINUOUS
370
50
 62
4
100
AcDbLine
 10
9.901994
 20
-0.037565
 30
0.0
 11
9.901914
 21
-0.037539
 31
0.0
  0
LINE
  5
6FB
330
1F
100
AcDbEntity
  8
1
  6
CONTINUOUS
370
50
 62
4
100
AcDbLine
 10
9.901434
 20
-0.037387
 30
0.0
 11
9.901354
 21
-0.037361
 31
0.0
  0
LINE
  5
6FC
330
1F
100
AcDbEntity
  8
1
  6
CONTINUOUS
370
50
 62
4
100
AcDbLine
 10
9.901114
 20
-0.037285
 30
0.0
 11
9.901034
 21
-0.037259
 31
0.0
  0
LINE
  5
6FD
330
1F
100
AcDbEntity
  8
1
  6
CONTINUOUS
370
50
 62
4
100
AcDbLine
 10
9.900874
 20
-0.037209
 30
0.0
 11
9.900794
 21
-0.037183
 31
0.0
  0
LINE
  5
6FE
330
1F
100
AcDbEntity
  8
1
  6
CONTINUOUS
370
50
 62
4
100
AcDbLine
 10
9.900715
 20
-0.037158
 30
0.0
 11
9.900635
 21
-0.037132
 31
0.0
  0
LINE
  5
6FF
330
1F
100
AcDbEntity
  8
1
  6
CONTINUOUS
370
50
 62
4
100
AcDbLine
 10
9.900155
 20
-0.03698
 30
0.0
 11
9.900075
 21
-0.036954
 31
0.0
  0
LINE
  5
700
330
1F
100
AcDbEntity
  8
1
  6
CONTINUOUS
370
50
 62
4
100
AcDbLine
 10
9.903193
 20
-0.037946
 30
0.0
 11
9.903112
 21
-0.03792
 31
0.0
  0
LINE
  5
701
330
1F
100
AcDbEntity
  8
1
  6
CONTINUOUS
370
50
 62
4
100
AcDbLine
 10
9.901834
 20
-0.037514
 30
0.0
 11
9.901753
 21
-0.037488
 31
0.0
  0
LINE
  5
702
330
1F
100
AcDbEntity
  8
1
  6
CONTINUOUS
370
50
 62
4
100
AcDbLine
 10
9.900475
 20
-0.037082
 30
0.0
 11
9.900394
 21
-0.037056
 31
0.0
  0
LINE
  5
703
330
1F
100
AcDbEntity
  8
1
  6
CONTINUOUS
370
50
 62
4
100
AcDbLine
 10
9.904072
 20
-0.038225
 30
0.0
 11
9.903993
 21
-0.0382
 31
0.0
  0
LINE
  5
704
330
1F
100
AcDbEntity
  8
1
  6
CONTINUOUS
370
50
 62
4
100
AcDbLine
 10
9.903112
 20
-0.03792
 30
0.0
 11
9.903032999999999
 21
-0.037895
 31
0.0
  0
LINE
  5
705
330
1F
100
AcDbEntity
  8
1
  6
CONTINUOUS
370
50
 62
4
100
AcDbLine
 10
9.902153
 20
-0.037615
 30
0.0
 11
9.902073999999999
 21
-0.03759
 31
0.0
  0
LINE
  5
706
330
1F
100
AcDbEntity
  8
1
  6
CONTINUOUS
370
50
 62
4
100
AcDbLine
 10
9.900794
 20
-0.037183
 30
0.0
 11
9.900715
 21
-0.037158
 31
0.0
  0
LINE
  5
707
330
1F
100
AcDbEntity
  8
1
  6
CONTINUOUS
370
50
 62
4
100
AcDbLine
 10
9.262019
 20
-0.8294349999999999
 30
0.0
 11
9.243946
 21
-0.823751
 31
0.0
  0
LINE
  5
708
330
1F
100
AcDbEntity
  8
1
  6
CONTINUOUS
370
50
 62
4
100
AcDbLine
 10
9.903596
 20
-0.052575
 30
0.0
 11
9.902877
 21
-0.052349
 31
0.0
  0
LINE
  5
709
330
1F
100
AcDbEntity
  8
1
  6
CONTINUOUS
370
50
 62
4
100
AcDbLine
 10
9.900718999999999
 20
-0.051674
 30
0.0
 11
9.9
 21
-0.051448
 31
0.0
  0
LINE
  5
70A
330
1F
100
AcDbEntity
  8
1
  6
CONTINUOUS
370
50
 62
4
100
AcDbLine
 10
8.923681
 20
0.947499
 30
0.0
 11
8.914196
 21
0.9504739999999999
 31
0.0
  0
LINE
  5
70B
330
1F
100
AcDbEntity
  8
1
  6
CONTINUOUS
370
50
 62
4
100
AcDbLine
 10
9.902877
 20
-0.052349
 30
0.0
 11
9.902158
 21
-0.052124
 31
0.0
  0
LINE
  5
70C
330
1F
100
AcDbEntity
  8
1
  6
CONTINUOUS
370
50
 62
4
100
AcDbLine
 10
9.901437999999999
 20
-0.051899
 30
0.0
 11
9.900718999999999
 21
-0.051674
 31
0.0
  0
LINE
  5
70D
330
1F
100
AcDbEntity
  8
1
  6
CONTINUOUS
370
50
 62
4
100
AcDbLine
 10
9.904316
 20
-0.0528
 30
0.0
 11
9.903596
 21
-0.052575
 31
0.0
  0
LINE
  5
70E
330
1F
100
AcDbEntity
  8
1
  6
CONTINUOUS
370
50
 62
4
100
AcDbLine
 10
9.902158
 20
-0.052124
 30
0.0
 11
9.901437999999999
 21
-0.051899
 31
0.0
  0
LINE
  5
70F
330
1F
100
AcDbEntity
  8
1
  6
CONTINUOUS
370
50
 62
4
100
AcDbLine
 10
9.904232
 20
-0.038276
 30
0.0
 11
9.904152
 21
-0.038251
 31
0.0
  0
LINE
  5
710
330
1F
100
AcDbEntity
  8
1
  6
CONTINUOUS
370
50
 62
4
100
AcDbLine
 10
9.903832
 20
-0.038149
 30
0.0
 11
9.903751999999999
 21
-0.038124
 31
0.0
  0
LINE
  5
711
330
1F
100
AcDbEntity
  8
1
  6
CONTINUOUS
370
50
 62
4
100
AcDbLine
 10
9.903672
 20
-0.038098
 30
0.0
 11
9.903592
 21
-0.038073
 31
0.0
  0
LINE
  5
712
330
1F
100
AcDbEntity
  8
1
  6
CONTINUOUS
370
50
 62
4
100
AcDbLine
 10
9.903513
 20
-0.038047
 30
0.0
 11
9.903353
 21
-0.037997
 31
0.0
  0
LINE
  5
713
330
1F
100
AcDbEntity
  8
1
  6
CONTINUOUS
370
50
 62
4
100
AcDbLine
 10
9.903273
 20
-0.037971
 30
0.0
 11
9.903193
 21
-0.037946
 31
0.0
  0
LINE
  5
714
330
1F
100
AcDbEntity
  8
1
  6
CONTINUOUS
370
50
 62
4
100
AcDbLine
 10
9.903032999999999
 20
-0.037895
 30
0.0
 11
9.902953
 21
-0.03787
 31
0.0
  0
LINE
  5
715
330
1F
100
AcDbEntity
  8
1
  6
CONTINUOUS
370
50
 62
4
100
AcDbLine
 10
9.902873
 20
-0.037844
 30
0.0
 11
9.902792999999999
 21
-0.037819
 31
0.0
  0
LINE
  5
716
330
1F
100
AcDbEntity
  8
1
  6
CONTINUOUS
370
50
 62
4
100
AcDbLine
 10
9.902713
 20
-0.037793
 30
0.0
 11
9.902633
 21
-0.037768
 31
0.0
  0
LINE
  5
717
330
1F
100
AcDbEntity
  8
1
  6
CONTINUOUS
370
50
 62
4
100
AcDbLine
 10
9.902472999999999
 20
-0.037717
 30
0.0
 11
9.902393
 21
-0.037692
 31
0.0
  0
LINE
  5
718
330
1F
100
AcDbEntity
  8
1
  6
CONTINUOUS
370
50
 62
4
100
AcDbLine
 10
9.902313
 20
-0.037666
 30
0.0
 11
9.902232999999999
 21
-0.037641
 31
0.0
  0
LINE
  5
719
330
1F
100
AcDbEntity
  8
1
  6
CONTINUOUS
370
50
 62
4
100
AcDbLine
 10
9.902073999999999
 20
-0.03759
 30
0.0
 11
9.901994
 21
-0.037565
 31
0.0
  0
LINE
  5
71A
330
1F
100
AcDbEntity
  8
1
  6
CONTINUOUS
370
50
 62
4
100
AcDbLine
 10
9.901914
 20
-0.037539
 30
0.0
 11
9.901834
 21
-0.037514
 31
0.0
  0
LINE
  5
71B
330
1F
100
AcDbEntity
  8
1
  6
CONTINUOUS
370
50
 62
4
100
AcDbLine
 10
9.901753
 20
-0.037488
 30
0.0
 11
9.901672999999999
 21
-0.037463
 31
0.0
  0
LINE
  5
71C
330
1F
100
AcDbEntity
  8
1
  6
CONTINUOUS
370
50
 62
4
100
AcDbLine
 10
9.901594
 20
-0.037437
 30
0.0
 11
9.901434
 21
-0.037387
 31
0.0
  0
LINE
  5
71D
330
1F
100
AcDbEntity
  8
1
  6
CONTINUOUS
370
50
 62
4
100
AcDbLine
 10
9.901354
 20
-0.037361
 30
0.0
 11
9.901273999999999
 21
-0.037336
 31
0.0
  0
LINE
  5
71E
330
1F
100
AcDbEntity
  8
1
  6
CONTINUOUS
370
50
 62
4
100
AcDbLine
 10
9.901034
 20
-0.037259
 30
0.0
 11
9.900874
 21
-0.037209
 31
0.0
  0
LINE
  5
71F
330
1F
100
AcDbEntity
  8
1
  6
CONTINUOUS
370
50
 62
4
100
AcDbLine
 10
9.900635
 20
-0.037132
 30
0.0
 11
9.900475
 21
-0.037082
 31
0.0
  0
LINE
  5
720
330
1F
100
AcDbEntity
  8
1
  6
CONTINUOUS
370
50
 62
4
100
AcDbLine
 10
9.900394
 20
-0.037056
 30
0.0
 11
9.900314
 21
-0.037031
 31
0.0
  0
LINE
  5
721
330
1F
100
AcDbEntity
  8
1
  6
CONTINUOUS
370
50
 62
4
100
AcDbLine
 10
9.900235
 20
-0.037005
 30
0.0
 11
9.900155
 21
-0.03698
 31
0.0
  0
LINE
  5
722
330
1F
100
AcDbEntity
  8
1
  6
CONTINUOUS
370
50
 62
4
100
AcDbLine
 10
10.201528
 20
-0.131141
 30
0.0
 11
9.904316999999999
 21
-0.038603
 31
0.0
  0
LINE
  5
723
330
1F
100
AcDbEntity
  8
1
  6
CONTINUOUS
370
50
 62
4
100
AcDbLine
 10
9.903913
 20
-0.038174
 30
0.0
 11
9.903832
 21
-0.038149
 31
0.0
  0
LINE
  5
724
330
1F
100
AcDbEntity
  8
1
  6
CONTINUOUS
370
50
 62
4
100
AcDbLine
 10
9.902554
 20
-0.037742
 30
0.0
 11
9.902472999999999
 21
-0.037717
 31
0.0
  0
LINE
  5
725
330
1F
100
AcDbEntity
  8
1
  6
CONTINUOUS
370
50
 62
4
100
AcDbLine
 10
9.901195
 20
-0.03731
 30
0.0
 11
9.901114
 21
-0.037285
 31
0.0
  0
LINE
  5
726
330
1F
100
AcDbEntity
  8
1
  6
CONTINUOUS
370
50
 62
4
100
AcDbLine
 10
11.594296
 20
-0.263767
 30
0.0
 11
11.568274
 21
-0.255765
 31
0.0
  0
LINE
  5
727
330
1F
100
AcDbEntity
  8
1
  6
CONTINUOUS
370
50
 62
4
100
AcDbLine
 10
11.447217
 20
-0.221871
 30
0.0
 11
11.404376
 21
-0.208727
 31
0.0
  0
LINE
  5
728
330
1F
100
AcDbEntity
  8
1
  6
CONTINUOUS
370
50
 62
4
100
AcDbLine
 10
10.19224
 20
-0.140453
 30
0.0
 11
9.904316
 21
-0.0528
 31
0.0
  0
LINE
  5
729
330
1F
100
AcDbEntity
  8
1
  6
CONTINUOUS
370
50
 62
4
100
AcDbLine
 10
9.280062
 20
-0.834923
 30
0.0
 11
9.262019
 21
-0.8294349999999999
 31
0.0
  0
LINE
  5
72A
330
1F
100
AcDbEntity
  8
1
  6
CONTINUOUS
370
50
 62
4
100
AcDbLine
 10
10.498687
 20
-0.220936
 30
0.0
 11
10.201528
 21
-0.131141
 31
0.0
  0
LINE
  5
72B
330
1F
100
AcDbEntity
  8
1
  6
CONTINUOUS
370
50
 62
4
100
AcDbLine
 10
9.298058
 20
-0.8402189999999999
 30
0.0
 11
9.280062
 21
-0.834923
 31
0.0
  0
LINE
  5
72C
330
1F
100
AcDbEntity
  8
1
  6
CONTINUOUS
370
50
 62
4
100
AcDbLine
 10
10.48353
 20
-0.226115
 30
0.0
 11
10.19224
 21
-0.140453
 31
0.0
  0
LINE
  5
72D
330
1F
100
AcDbEntity
  8
1
  6
CONTINUOUS
370
50
 62
4
100
AcDbLine
 10
10.761889
 20
-0.30776
 30
0.0
 11
10.48353
 21
-0.226115
 31
0.0
  0
LINE
  5
72E
330
1F
100
AcDbEntity
  8
1
  6
CONTINUOUS
370
50
 62
4
100
AcDbLine
 10
10.795854
 20
-0.307715
 30
0.0
 11
10.498687
 21
-0.220936
 31
0.0
  0
LINE
  5
72F
330
1F
100
AcDbEntity
  8
1
  6
CONTINUOUS
370
50
 62
4
100
AcDbLine
 10
11.568274
 20
-0.255765
 30
0.0
 11
11.540515
 21
-0.247745
 31
0.0
  0
LINE
  5
730
330
1F
100
AcDbEntity
  8
1
  6
CONTINUOUS
370
50
 62
4
100
AcDbLine
 10
9.242662
 20
0.951854
 30
0.0
 11
9.167866
 21
0.9733489999999999
 31
0.0
  0
LINE
  5
731
330
1F
100
AcDbEntity
  8
1
  6
CONTINUOUS
370
50
 62
4
100
AcDbLine
 10
11.352534
 20
0.849587
 30
0.0
 11
11.303937
 21
0.863533
 31
0.0
  0
LINE
  5
732
330
1F
100
AcDbEntity
  8
1
  6
CONTINUOUS
370
50
 62
4
100
AcDbLine
 10
9.315995
 20
-0.8453229999999999
 30
0.0
 11
9.298058
 21
-0.8402189999999999
 31
0.0
  0
LINE
  5
733
330
1F
100
AcDbEntity
  8
1
  6
CONTINUOUS
370
50
 62
4
100
AcDbLine
 10
8.932074
 20
0.945112
 30
0.0
 11
8.923681
 21
0.947499
 31
0.0
  0
LINE
  5
734
330
1F
100
AcDbEntity
  8
1
  6
CONTINUOUS
370
50
 62
4
100
AcDbLine
 10
9.351232999999999
 20
0.833332
 30
0.0
 11
9.333098
 21
0.838464
 31
0.0
  0
LINE
  5
735
330
1F
100
AcDbEntity
  8
1
  6
CONTINUOUS
370
50
 62
4
100
AcDbLine
 10
9.369264
 20
0.8282299999999999
 30
0.0
 11
9.351232999999999
 21
0.833332
 31
0.0
  0
LINE
  5
736
330
1F
100
AcDbEntity
  8
1
  6
CONTINUOUS
370
50
 62
4
100
AcDbLine
 10
9.333098
 20
0.838464
 30
0.0
 11
9.314876
 21
0.843617
 31
0.0
  0
LINE
  5
737
330
1F
100
AcDbEntity
  8
1
  6
CONTINUOUS
370
50
 62
4
100
AcDbLine
 10
9.387176
 20
0.823168
 30
0.0
 11
9.369264
 21
0.8282299999999999
 31
0.0
  0
LINE
  5
738
330
1F
100
AcDbEntity
  8
1
  6
CONTINUOUS
370
50
 62
4
100
AcDbLine
 10
9.314876
 20
0.843617
 30
0.0
 11
9.296577
 21
0.8487779999999999
 31
0.0
  0
LINE
  5
739
330
1F
100
AcDbEntity
  8
1
  6
CONTINUOUS
370
50
 62
4
100
AcDbLine
 10
9.404957
 20
0.818156
 30
0.0
 11
9.387176
 21
0.823168
 31
0.0
  0
LINE
  5
73A
330
1F
100
AcDbEntity
  8
1
  6
CONTINUOUS
370
50
 62
4
100
AcDbLine
 10
9.296577
 20
0.8487779999999999
 30
0.0
 11
9.278219
 21
0.853939
 31
0.0
  0
LINE
  5
73B
330
1F
100
AcDbEntity
  8
1
  6
CONTINUOUS
370
50
 62
4
100
AcDbLine
 10
9.323034
 20
0.9292849999999999
 30
0.0
 11
9.242662
 21
0.951854
 31
0.0
  0
LINE
  5
73C
330
1F
100
AcDbEntity
  8
1
  6
CONTINUOUS
370
50
 62
4
100
AcDbLine
 10
9.42259
 20
0.813205
 30
0.0
 11
9.404957
 21
0.818156
 31
0.0
  0
LINE
  5
73D
330
1F
100
AcDbEntity
  8
1
  6
CONTINUOUS
370
50
 62
4
100
AcDbLine
 10
9.278219
 20
0.853939
 30
0.0
 11
9.259815
 21
0.8590899999999999
 31
0.0
  0
LINE
  5
73E
330
1F
100
AcDbEntity
  8
1
  6
CONTINUOUS
370
50
 62
4
100
AcDbLine
 10
9.440063
 20
0.808325
 30
0.0
 11
9.42259
 21
0.813205
 31
0.0
  0
LINE
  5
73F
330
1F
100
AcDbEntity
  8
1
  6
CONTINUOUS
370
50
 62
4
100
AcDbLine
 10
11.029808
 20
-0.382501
 30
0.0
 11
10.761889
 21
-0.30776
 31
0.0
  0
LINE
  5
740
330
1F
100
AcDbEntity
  8
1
  6
CONTINUOUS
370
50
 62
4
100
AcDbLine
 10
11.540515
 20
-0.247745
 30
0.0
 11
11.511059
 21
-0.239536
 31
0.0
  0
LINE
  5
741
330
1F
100
AcDbEntity
  8
1
  6
CONTINUOUS
370
50
 62
4
100
AcDbLine
 10
9.259815
 20
0.8590899999999999
 30
0.0
 11
9.24138
 21
0.864219
 31
0.0
  0
LINE
  5
742
330
1F
100
AcDbEntity
  8
1
  6
CONTINUOUS
370
50
 62
4
100
AcDbLine
 10
11.479946
 20
-0.230968
 30
0.0
 11
11.447217
 21
-0.221871
 31
0.0
  0
LINE
  5
743
330
1F
100
AcDbEntity
  8
1
  6
CONTINUOUS
370
50
 62
4
100
AcDbLine
 10
9.457359
 20
0.803526
 30
0.0
 11
9.440063
 21
0.808325
 31
0.0
  0
LINE
  5
744
330
1F
100
AcDbEntity
  8
1
  6
CONTINUOUS
370
50
 62
4
100
AcDbLine
 10
9.24138
 20
0.864219
 30
0.0
 11
9.222959
 21
0.869311
 31
0.0
  0
LINE
  5
745
330
1F
100
AcDbEntity
  8
1
  6
CONTINUOUS
370
50
 62
4
100
AcDbLine
 10
11.511059
 20
-0.239536
 30
0.0
 11
11.479946
 21
-0.230968
 31
0.0
  0
LINE
  5
746
330
1F
100
AcDbEntity
  8
1
  6
CONTINUOUS
370
50
 62
4
100
AcDbLine
 10
9.474466
 20
0.7988179999999999
 30
0.0
 11
9.457359
 21
0.803526
 31
0.0
  0
LINE
  5
747
330
1F
100
AcDbEntity
  8
1
  6
CONTINUOUS
370
50
 62
4
100
AcDbLine
 10
9.333859
 20
-0.850239
 30
0.0
 11
9.315995
 21
-0.8453229999999999
 31
0.0
  0
LINE
  5
748
330
1F
100
AcDbEntity
  8
1
  6
CONTINUOUS
370
50
 62
4
100
AcDbLine
 10
9.222959
 20
0.869311
 30
0.0
 11
9.204618
 21
0.874347
 31
0.0
  0
LINE
  5
749
330
1F
100
AcDbEntity
  8
1
  6
CONTINUOUS
370
50
 62
4
100
AcDbLine
 10
9.421790999999999
 20
0.902235
 30
0.0
 11
9.323034
 21
0.9292849999999999
 31
0.0
  0
LINE
  5
74A
330
1F
100
AcDbEntity
  8
1
  6
CONTINUOUS
370
50
 62
4
100
AcDbLine
 10
9.204618
 20
0.874347
 30
0.0
 11
9.186359999999999
 21
0.879323
 31
0.0
  0
LINE
  5
74B
330
1F
100
AcDbEntity
  8
1
  6
CONTINUOUS
370
50
 62
4
100
AcDbLine
 10
9.491368999999999
 20
0.7942119999999999
 30
0.0
 11
9.474466
 21
0.7988179999999999
 31
0.0
  0
LINE
  5
74C
330
1F
100
AcDbEntity
  8
1
  6
CONTINUOUS
370
50
 62
4
100
AcDbLine
 10
11.093086
 20
-0.388121
 30
0.0
 11
10.795854
 21
-0.307715
 31
0.0
  0
LINE
  5
74D
330
1F
100
AcDbEntity
  8
1
  6
CONTINUOUS
370
50
 62
4
100
AcDbLine
 10
9.186359999999999
 20
0.879323
 30
0.0
 11
9.168189
 21
0.8842369999999999
 31
0.0
  0
LINE
  5
74E
330
1F
100
AcDbEntity
  8
1
  6
CONTINUOUS
370
50
 62
4
100
AcDbLine
 10
8.941699999999999
 20
0.942511
 30
0.0
 11
8.932074
 21
0.945112
 31
0.0
  0
LINE
  5
74F
330
1F
100
AcDbEntity
  8
1
  6
CONTINUOUS
370
50
 62
4
100
AcDbLine
 10
9.508054
 20
0.789717
 30
0.0
 11
9.491368999999999
 21
0.7942119999999999
 31
0.0
  0
LINE
  5
750
330
1F
100
AcDbEntity
  8
1
  6
CONTINUOUS
370
50
 62
4
100
AcDbLine
 10
9.168189
 20
0.8842369999999999
 30
0.0
 11
9.150103999999999
 21
0.8890859999999999
 31
0.0
  0
LINE
  5
751
330
1F
100
AcDbEntity
  8
1
  6
CONTINUOUS
370
50
 62
4
100
AcDbLine
 10
9.351638
 20
-0.854968
 30
0.0
 11
9.333859
 21
-0.850239
 31
0.0
  0
LINE
  5
752
330
1F
100
AcDbEntity
  8
1
  6
CONTINUOUS
370
50
 62
4
100
AcDbLine
 10
9.524505
 20
0.7853439999999999
 30
0.0
 11
9.508054
 21
0.789717
 31
0.0
  0
LINE
  5
753
330
1F
100
AcDbEntity
  8
1
  6
CONTINUOUS
370
50
 62
4
100
AcDbLine
 10
9.150103999999999
 20
0.8890859999999999
 30
0.0
 11
9.132097
 21
0.893871
 31
0.0
  0
LINE
  5
754
330
1F
100
AcDbEntity
  8
1
  6
CONTINUOUS
370
50
 62
4
100
AcDbLine
 10
9.53064
 20
0.873358
 30
0.0
 11
9.421790999999999
 21
0.902235
 31
0.0
  0
LINE
  5
755
330
1F
100
AcDbEntity
  8
1
  6
CONTINUOUS
370
50
 62
4
100
AcDbLine
 10
9.132097
 20
0.893871
 30
0.0
 11
9.114187
 21
0.8985879999999999
 31
0.0
  0
LINE
  5
756
330
1F
100
AcDbEntity
  8
1
  6
CONTINUOUS
370
50
 62
4
100
AcDbLine
 10
9.540708
 20
0.7811039999999999
 30
0.0
 11
9.524505
 21
0.7853439999999999
 31
0.0
  0
LINE
  5
757
330
1F
100
AcDbEntity
  8
1
  6
CONTINUOUS
370
50
 62
4
100
AcDbLine
 10
8.952634999999999
 20
0.9396549999999999
 30
0.0
 11
8.941699999999999
 21
0.942511
 31
0.0
  0
LINE
  5
758
330
1F
100
AcDbEntity
  8
1
  6
CONTINUOUS
370
50
 62
4
100
AcDbLine
 10
9.114187
 20
0.8985879999999999
 30
0.0
 11
9.096390999999999
 21
0.903231
 31
0.0
  0
LINE
  5
759
330
1F
100
AcDbEntity
  8
1
  6
CONTINUOUS
370
50
 62
4
100
AcDbLine
 10
9.096390999999999
 20
0.903231
 30
0.0
 11
9.07857
 21
0.9078339999999999
 31
0.0
  0
LINE
  5
75A
330
1F
100
AcDbEntity
  8
1
  6
CONTINUOUS
370
50
 62
4
100
AcDbLine
 10
9.556649
 20
0.777005
 30
0.0
 11
9.540708
 21
0.7811039999999999
 31
0.0
  0
LINE
  5
75B
330
1F
100
AcDbEntity
  8
1
  6
CONTINUOUS
370
50
 62
4
100
AcDbLine
 10
9.369316
 20
-0.8595119999999999
 30
0.0
 11
9.351638
 21
-0.854968
 31
0.0
  0
LINE
  5
75C
330
1F
100
AcDbEntity
  8
1
  6
CONTINUOUS
370
50
 62
4
100
AcDbLine
 10
7.899999999999999
 20
0.97495
 30
0.0
 11
0.0
 21
2.99995
 31
0.0
  0
LINE
  5
75D
330
1F
100
AcDbEntity
  8
1
  6
CONTINUOUS
370
50
 62
4
100
AcDbLine
 10
9.07857
 20
0.9078339999999999
 30
0.0
 11
9.060801999999999
 21
0.912385
 31
0.0
  0
LINE
  5
75E
330
1F
100
AcDbEntity
  8
1
  6
CONTINUOUS
370
50
 62
4
100
AcDbLine
 10
9.167866
 20
0.9733449999999999
 30
0.0
 11
9.165909
 21
0.973845
 31
0.0
  0
LINE
  5
75F
330
1F
100
AcDbEntity
  8
1
  6
CONTINUOUS
370
50
 62
4
100
AcDbLine
 10
8.964855
 20
0.936535
 30
0.0
 11
8.952634999999999
 21
0.9396549999999999
 31
0.0
  0
LINE
  5
760
330
1F
100
AcDbEntity
  8
1
  6
CONTINUOUS
370
50
 62
4
100
AcDbLine
 10
9.670219999999999
 20
0.8378129999999999
 30
0.0
 11
9.53064
 21
0.873358
 31
0.0
  0
LINE
  5
761
330
1F
100
AcDbEntity
  8
1
  6
CONTINUOUS
370
50
 62
4
100
AcDbLine
 10
9.060801999999999
 20
0.912385
 30
0.0
 11
9.043201999999999
 21
0.9168569999999999
 31
0.0
  0
LINE
  5
762
330
1F
100
AcDbEntity
  8
1
  6
CONTINUOUS
370
50
 62
4
100
AcDbLine
 10
9.043201999999999
 20
0.9168569999999999
 30
0.0
 11
9.025886999999999
 21
0.9212269999999999
 31
0.0
  0
LINE
  5
763
330
1F
100
AcDbEntity
  8
1
  6
CONTINUOUS
370
50
 62
4
100
AcDbLine
 10
8.978335999999999
 20
0.933137
 30
0.0
 11
8.964855
 21
0.936535
 31
0.0
  0
LINE
  5
764
330
1F
100
AcDbEntity
  8
1
  6
CONTINUOUS
370
50
 62
4
100
AcDbLine
 10
9.572314
 20
0.7730589999999999
 30
0.0
 11
9.556649
 21
0.777005
 31
0.0
  0
LINE
  5
765
330
1F
100
AcDbEntity
  8
1
  6
CONTINUOUS
370
50
 62
4
100
AcDbLine
 10
9.025886999999999
 20
0.9212269999999999
 30
0.0
 11
9.008986
 21
0.925468
 31
0.0
  0
LINE
  5
766
330
1F
100
AcDbEntity
  8
1
  6
CONTINUOUS
370
50
 62
4
100
AcDbLine
 10
8.993053999999999
 20
0.929452
 30
0.0
 11
8.978335999999999
 21
0.933137
 31
0.0
  0
LINE
  5
767
330
1F
100
AcDbEntity
  8
1
  6
CONTINUOUS
370
50
 62
4
100
AcDbLine
 10
9.008986
 20
0.925468
 30
0.0
 11
8.993053999999999
 21
0.929452
 31
0.0
  0
LINE
  5
768
330
1F
100
AcDbEntity
  8
1
  6
CONTINUOUS
370
50
 62
4
100
AcDbLine
 10
9.386880999999999
 20
-0.863875
 30
0.0
 11
9.369316
 21
-0.8595119999999999
 31
0.0
  0
LINE
  5
769
330
1F
100
AcDbEntity
  8
1
  6
CONTINUOUS
370
50
 62
4
100
AcDbLine
 10
9.587689
 20
0.7692749999999999
 30
0.0
 11
9.572314
 21
0.7730589999999999
 31
0.0
  0
LINE
  5
76A
330
1F
100
AcDbEntity
  8
1
  6
CONTINUOUS
370
50
 62
4
100
AcDbLine
 10
9.9
 20
0.7821889999999999
 30
0.0
 11
9.670219999999999
 21
0.8378129999999999
 31
0.0
  0
LINE
  5
76B
330
1F
100
AcDbEntity
  8
1
  6
CONTINUOUS
370
50
 62
4
100
AcDbLine
 10
9.404319
 20
-0.8680559999999999
 30
0.0
 11
9.386880999999999
 21
-0.863875
 31
0.0
  0
LINE
  5
76C
330
1F
100
AcDbEntity
  8
1
  6
CONTINUOUS
370
50
 62
4
100
AcDbLine
 10
9.603107999999999
 20
0.765582
 30
0.0
 11
9.587689
 21
0.7692749999999999
 31
0.0
  0
LINE
  5
76D
330
1F
100
AcDbEntity
  8
1
  6
CONTINUOUS
370
50
 62
4
100
AcDbLine
 10
9.618147
 20
0.762093
 30
0.0
 11
9.603107999999999
 21
0.765582
 31
0.0
  0
LINE
  5
76E
330
1F
100
AcDbEntity
  8
1
  6
CONTINUOUS
370
50
 62
4
100
AcDbLine
 10
9.421617
 20
-0.87206
 30
0.0
 11
9.404319
 21
-0.8680559999999999
 31
0.0
  0
LINE
  5
76F
330
1F
100
AcDbEntity
  8
1
  6
CONTINUOUS
370
50
 62
4
100
AcDbLine
 10
9.632655999999999
 20
0.758849
 30
0.0
 11
9.618147
 21
0.762093
 31
0.0
  0
LINE
  5
770
330
1F
100
AcDbEntity
  8
1
  6
CONTINUOUS
370
50
 62
4
100
AcDbLine
 10
9.43876
 20
-0.875888
 30
0.0
 11
9.421617
 21
-0.87206
 31
0.0
  0
LINE
  5
771
330
1F
100
AcDbEntity
  8
1
  6
CONTINUOUS
370
50
 62
4
100
AcDbLine
 10
10.901591
 20
0.282294
 30
0.0
 11
10.862442
 21
0.291006
 31
0.0
  0
LINE
  5
772
330
1F
100
AcDbEntity
  8
1
  6
CONTINUOUS
370
50
 62
4
100
AcDbLine
 10
11.336587
 20
-0.450519
 30
0.0
 11
11.029808
 21
-0.382501
 31
0.0
  0
LINE
  5
773
330
1F
100
AcDbEntity
  8
1
  6
CONTINUOUS
370
50
 62
4
100
AcDbLine
 10
10.941676
 20
0.27341
 30
0.0
 11
10.901591
 21
0.282294
 31
0.0
  0
LINE
  5
774
330
1F
100
AcDbEntity
  8
1
  6
CONTINUOUS
370
50
 62
4
100
AcDbLine
 10
10.862442
 20
0.291006
 30
0.0
 11
10.823751
 21
0.299568
 31
0.0
  0
LINE
  5
775
330
1F
100
AcDbEntity
  8
1
  6
CONTINUOUS
370
50
 62
4
100
AcDbLine
 10
10.983174
 20
0.264331
 30
0.0
 11
10.941676
 21
0.27341
 31
0.0
  0
LINE
  5
776
330
1F
100
AcDbEntity
  8
1
  6
CONTINUOUS
370
50
 62
4
100
AcDbLine
 10
10.823751
 20
0.299568
 30
0.0
 11
10.785043
 21
0.308001
 31
0.0
  0
LINE
  5
777
330
1F
100
AcDbEntity
  8
1
  6
CONTINUOUS
370
50
 62
4
100
AcDbLine
 10
9.455736
 20
-0.8795419999999999
 30
0.0
 11
9.43876
 21
-0.875888
 31
0.0
  0
LINE
  5
778
330
1F
100
AcDbEntity
  8
1
  6
CONTINUOUS
370
50
 62
4
100
AcDbLine
 10
11.390312
 20
-0.452027
 30
0.0
 11
11.093086
 21
-0.388121
 31
0.0
  0
LINE
  5
779
330
1F
100
AcDbEntity
  8
1
  6
CONTINUOUS
370
50
 62
4
100
AcDbLine
 10
9.646616
 20
0.755856
 30
0.0
 11
9.632655999999999
 21
0.758849
 31
0.0
  0
LINE
  5
77A
330
1F
100
AcDbEntity
  8
1
  6
CONTINUOUS
370
50
 62
4
100
AcDbLine
 10
11.026565
 20
0.255037
 30
0.0
 11
10.983174
 21
0.264331
 31
0.0
  0
LINE
  5
77B
330
1F
100
AcDbEntity
  8
1
  6
CONTINUOUS
370
50
 62
4
100
AcDbLine
 10
9.901216999999999
 20
0.7877409999999999
 30
0.0
 11
9.901010999999999
 21
0.787785
 31
0.0
  0
LINE
  5
77C
330
1F
100
AcDbEntity
  8
1
  6
CONTINUOUS
370
50
 62
4
100
AcDbLine
 10
9.901010999999999
 20
0.787785
 30
0.0
 11
9.90039
 21
0.787917
 31
0.0
  0
LINE
  5
77D
330
1F
100
AcDbEntity
  8
1
  6
CONTINUOUS
370
50
 62
4
100
AcDbLine
 10
9.900182
 20
0.7879609999999999
 30
0.0
 11
9.899975
 21
0.788005
 31
0.0
  0
LINE
  5
77E
330
1F
100
AcDbEntity
  8
1
  6
CONTINUOUS
370
50
 62
4
100
AcDbLine
 10
9.90039
 20
0.787917
 30
0.0
 11
9.900182
 21
0.7879609999999999
 31
0.0
  0
LINE
  5
77F
330
1F
100
AcDbEntity
  8
1
  6
CONTINUOUS
370
50
 62
4
100
AcDbLine
 10
9.971249
 20
0.772949
 30
0.0
 11
9.901216999999999
 21
0.7877409999999999
 31
0.0
  0
LINE
  5
780
330
1F
100
AcDbEntity
  8
1
  6
CONTINUOUS
370
50
 62
4
100
AcDbLine
 10
10.041282
 20
0.758326
 30
0.0
 11
9.971249
 21
0.772949
 31
0.0
  0
LINE
  5
781
330
1F
100
AcDbEntity
  8
1
  6
CONTINUOUS
370
50
 62
4
100
AcDbLine
 10
11.072323
 20
0.245505
 30
0.0
 11
11.026565
 21
0.255037
 31
0.0
  0
LINE
  5
782
330
1F
100
AcDbEntity
  8
1
  6
CONTINUOUS
370
50
 62
4
100
AcDbLine
 10
9.472529999999999
 20
-0.8830239999999999
 30
0.0
 11
9.455736
 21
-0.8795419999999999
 31
0.0
  0
LINE
  5
783
330
1F
100
AcDbEntity
  8
1
  6
CONTINUOUS
370
50
 62
4
100
AcDbLine
 10
10.098316
 20
0.7465339999999999
 30
0.0
 11
10.041282
 21
0.758326
 31
0.0
  0
LINE
  5
784
330
1F
100
AcDbEntity
  8
1
  6
CONTINUOUS
370
50
 62
4
100
AcDbLine
 10
10.155353
 20
0.734839
 30
0.0
 11
10.098316
 21
0.7465339999999999
 31
0.0
  0
LINE
  5
785
330
1F
100
AcDbEntity
  8
1
  6
CONTINUOUS
370
50
 62
4
100
AcDbLine
 10
9.660015999999999
 20
0.7531169999999999
 30
0.0
 11
9.646616
 21
0.755856
 31
0.0
  0
LINE
  5
786
330
1F
100
AcDbEntity
  8
1
  6
CONTINUOUS
370
50
 62
4
100
AcDbLine
 10
11.303937
 20
0.863533
 30
0.0
 11
11.254621
 21
0.873575
 31
0.0
  0
LINE
  5
787
330
1F
100
AcDbEntity
  8
1
  6
CONTINUOUS
370
50
 62
4
100
AcDbLine
 10
10.23488
 20
0.7186819999999999
 30
0.0
 11
10.155353
 21
0.734839
 31
0.0
  0
LINE
  5
788
330
1F
100
AcDbEntity
  8
1
  6
CONTINUOUS
370
50
 62
4
100
AcDbLine
 10
10.314412
 20
0.702684
 30
0.0
 11
10.23488
 21
0.7186819999999999
 31
0.0
  0
LINE
  5
789
330
1F
100
AcDbEntity
  8
1
  6
CONTINUOUS
370
50
 62
4
100
AcDbLine
 10
10.362559
 20
0.6930689999999999
 30
0.0
 11
10.314412
 21
0.702684
 31
0.0
  0
LINE
  5
78A
330
1F
100
AcDbEntity
  8
1
  6
CONTINUOUS
370
50
 62
4
100
AcDbLine
 10
9.48913
 20
-0.886336
 30
0.0
 11
9.472529999999999
 21
-0.8830239999999999
 31
0.0
  0
LINE
  5
78B
330
1F
100
AcDbEntity
  8
1
  6
CONTINUOUS
370
50
 62
4
100
AcDbLine
 10
10.410708
 20
0.683504
 30
0.0
 11
10.362559
 21
0.6930689999999999
 31
0.0
  0
LINE
  5
78C
330
1F
100
AcDbEntity
  8
1
  6
CONTINUOUS
370
50
 62
4
100
AcDbLine
 10
10.496819
 20
0.666515
 30
0.0
 11
10.410708
 21
0.683504
 31
0.0
  0
LINE
  5
78D
330
1F
100
AcDbEntity
  8
1
  6
CONTINUOUS
370
50
 62
4
100
AcDbLine
 10
10.582709
 20
0.649714
 30
0.0
 11
10.496819
 21
0.666515
 31
0.0
  0
LINE
  5
78E
330
1F
100
AcDbEntity
  8
1
  6
CONTINUOUS
370
50
 62
4
100
AcDbLine
 10
10.666085
 20
0.633547
 30
0.0
 11
10.582709
 21
0.649714
 31
0.0
  0
LINE
  5
78F
330
1F
100
AcDbEntity
  8
1
  6
CONTINUOUS
370
50
 62
4
100
AcDbLine
 10
9.672846999999999
 20
0.750633
 30
0.0
 11
9.660015999999999
 21
0.7531169999999999
 31
0.0
  0
LINE
  5
790
330
1F
100
AcDbEntity
  8
1
  6
CONTINUOUS
370
50
 62
4
100
AcDbLine
 10
9.165909
 20
0.973845
 30
0.0
 11
9.163837
 21
0.974246
 31
0.0
  0
LINE
  5
791
330
1F
100
AcDbEntity
  8
1
  6
CONTINUOUS
370
50
 62
4
100
AcDbLine
 10
10.709734
 20
0.625142
 30
0.0
 11
10.666085
 21
0.633547
 31
0.0
  0
LINE
  5
792
330
1F
100
AcDbEntity
  8
1
  6
CONTINUOUS
370
50
 62
4
100
AcDbLine
 10
9.505521
 20
-0.889482
 30
0.0
 11
9.48913
 21
-0.886336
 31
0.0
  0
LINE
  5
793
330
1F
100
AcDbEntity
  8
1
  6
CONTINUOUS
370
50
 62
4
100
AcDbLine
 10
10.75338
 20
0.6167819999999999
 30
0.0
 11
10.709734
 21
0.625142
 31
0.0
  0
LINE
  5
794
330
1F
100
AcDbEntity
  8
1
  6
CONTINUOUS
370
50
 62
4
100
AcDbLine
 10
10.796891
 20
0.608495
 30
0.0
 11
10.75338
 21
0.6167819999999999
 31
0.0
  0
LINE
  5
795
330
1F
100
AcDbEntity
  8
1
  6
CONTINUOUS
370
50
 62
4
100
AcDbLine
 10
10.840292
 20
0.600282
 30
0.0
 11
10.796891
 21
0.608495
 31
0.0
  0
LINE
  5
796
330
1F
100
AcDbEntity
  8
1
  6
CONTINUOUS
370
50
 62
4
100
AcDbLine
 10
10.921413
 20
0.58512
 30
0.0
 11
10.840292
 21
0.600282
 31
0.0
  0
LINE
  5
797
330
1F
100
AcDbEntity
  8
1
  6
CONTINUOUS
370
50
 62
4
100
AcDbLine
 10
9.521689
 20
-0.892462
 30
0.0
 11
9.505521
 21
-0.889482
 31
0.0
  0
LINE
  5
798
330
1F
100
AcDbEntity
  8
1
  6
CONTINUOUS
370
50
 62
4
100
AcDbLine
 10
11.687894
 20
0.476006
 30
0.0
 11
11.687598
 21
0.47606
 31
0.0
  0
LINE
  5
799
330
1F
100
AcDbEntity
  8
1
  6
CONTINUOUS
370
50
 62
4
100
AcDbLine
 10
9.685096999999999
 20
0.748408
 30
0.0
 11
9.672846999999999
 21
0.750633
 31
0.0
  0
LINE
  5
79A
330
1F
100
AcDbEntity
  8
1
  6
CONTINUOUS
370
50
 62
4
100
AcDbLine
 10
11.687598
 20
0.47606
 30
0.0
 11
11.687449
 21
0.476087
 31
0.0
  0
LINE
  5
79B
330
1F
100
AcDbEntity
  8
1
  6
CONTINUOUS
370
50
 62
4
100
AcDbLine
 10
10.964109
 20
0.577433
 30
0.0
 11
10.921413
 21
0.58512
 31
0.0
  0
LINE
  5
79C
330
1F
100
AcDbEntity
  8
1
  6
CONTINUOUS
370
50
 62
4
100
AcDbLine
 10
9.537623
 20
-0.8952779999999999
 30
0.0
 11
9.521689
 21
-0.892462
 31
0.0
  0
LINE
  5
79D
330
1F
100
AcDbEntity
  8
1
  6
CONTINUOUS
370
50
 62
4
100
AcDbLine
 10
11.688042
 20
0.47598
 30
0.0
 11
11.687894
 21
0.476006
 31
0.0
  0
LINE
  5
79E
330
1F
100
AcDbEntity
  8
1
  6
CONTINUOUS
370
50
 62
4
100
AcDbLine
 10
11.006966
 20
0.5699919999999999
 30
0.0
 11
10.964109
 21
0.577433
 31
0.0
  0
LINE
  5
79F
330
1F
100
AcDbEntity
  8
1
  6
CONTINUOUS
370
50
 62
4
100
AcDbLine
 10
11.688335
 20
0.47593
 30
0.0
 11
11.688189
 21
0.475955
 31
0.0
  0
LINE
  5
7A0
330
1F
100
AcDbEntity
  8
1
  6
CONTINUOUS
370
50
 62
4
100
AcDbLine
 10
11.688189
 20
0.475955
 30
0.0
 11
11.688042
 21
0.47598
 31
0.0
  0
LINE
  5
7A1
330
1F
100
AcDbEntity
  8
1
  6
CONTINUOUS
370
50
 62
4
100
AcDbLine
 10
9.553308
 20
-0.897934
 30
0.0
 11
9.537623
 21
-0.8952779999999999
 31
0.0
  0
LINE
  5
7A2
330
1F
100
AcDbEntity
  8
1
  6
CONTINUOUS
370
50
 62
4
100
AcDbLine
 10
9.696755999999999
 20
0.746444
 30
0.0
 11
9.685096999999999
 21
0.748408
 31
0.0
  0
LINE
  5
7A3
330
1F
100
AcDbEntity
  8
1
  6
CONTINUOUS
370
50
 62
4
100
AcDbLine
 10
11.687391
 20
0.469805
 30
0.0
 11
11.6307
 21
0.47932
 31
0.0
  0
LINE
  5
7A4
330
1F
100
AcDbEntity
  8
1
  6
CONTINUOUS
370
50
 62
4
100
AcDbLine
 10
11.049936
 20
0.562804
 30
0.0
 11
11.006966
 21
0.5699919999999999
 31
0.0
  0
LINE
  5
7A5
330
1F
100
AcDbEntity
  8
1
  6
CONTINUOUS
370
50
 62
4
100
AcDbLine
 10
11.687449
 20
-0.501362
 30
0.0
 11
11.390312
 21
-0.452027
 31
0.0
  0
LINE
  5
7A6
330
1F
100
AcDbEntity
  8
1
  6
CONTINUOUS
370
50
 62
4
100
AcDbLine
 10
11.687449
 20
0.476087
 30
0.0
 11
11.611119
 21
0.488702
 31
0.0
  0
LINE
  5
7A7
330
1F
100
AcDbEntity
  8
1
  6
CONTINUOUS
370
50
 62
4
100
AcDbLine
 10
9.568728
 20
-0.900431
 30
0.0
 11
9.553308
 21
-0.897934
 31
0.0
  0
LINE
  5
7A8
330
1F
100
AcDbEntity
  8
1
  6
CONTINUOUS
370
50
 62
4
100
AcDbLine
 10
11.09302
 20
0.555862
 30
0.0
 11
11.049936
 21
0.562804
 31
0.0
  0
LINE
  5
7A9
330
1F
100
AcDbEntity
  8
1
  6
CONTINUOUS
370
50
 62
4
100
AcDbLine
 10
11.687391
 20
-0.506678
 30
0.0
 11
11.336587
 21
-0.450519
 31
0.0
  0
LINE
  5
7AA
330
1F
100
AcDbEntity
  8
1
  6
CONTINUOUS
370
50
 62
4
100
AcDbLine
 10
11.6307
 20
0.47932
 30
0.0
 11
11.574172
 21
0.488325
 31
0.0
  0
LINE
  5
7AB
330
1F
100
AcDbEntity
  8
1
  6
CONTINUOUS
370
50
 62
4
100
AcDbLine
 10
11.107755
 20
0.239996
 30
0.0
 11
11.072329
 21
0.245521
 31
0.0
  0
LINE
  5
7AC
330
1F
100
AcDbEntity
  8
1
  6
CONTINUOUS
370
50
 62
4
100
AcDbLine
 10
9.583874
 20
-0.902771
 30
0.0
 11
9.568728
 21
-0.900431
 31
0.0
  0
LINE
  5
7AD
330
1F
100
AcDbEntity
  8
1
  6
CONTINUOUS
370
50
 62
4
100
AcDbLine
 10
11.611119
 20
0.488702
 30
0.0
 11
11.534781
 21
0.500489
 31
0.0
  0
LINE
  5
7AE
330
1F
100
AcDbEntity
  8
1
  6
CONTINUOUS
370
50
 62
4
100
AcDbLine
 10
9.707813999999999
 20
0.744744
 30
0.0
 11
9.696755999999999
 21
0.746444
 31
0.0
  0
LINE
  5
7AF
330
1F
100
AcDbEntity
  8
1
  6
CONTINUOUS
370
50
 62
4
100
AcDbLine
 10
11.176672
 20
0.543122
 30
0.0
 11
11.09302
 21
0.555862
 31
0.0
  0
LINE
  5
7B0
330
1F
100
AcDbEntity
  8
1
  6
CONTINUOUS
370
50
 62
4
100
AcDbLine
 10
11.574172
 20
0.488325
 30
0.0
 11
11.517918
 21
0.496832
 31
0.0
  0
LINE
  5
7B1
330
1F
100
AcDbEntity
  8
1
  6
CONTINUOUS
370
50
 62
4
100
AcDbLine
 10
9.986837999999999
 20
-0.9699749999999999
 30
0.0
 11
9.9
 21
-0.957001
 31
0.0
  0
LINE
  5
7B2
330
1F
100
AcDbEntity
  8
1
  6
CONTINUOUS
370
50
 62
4
100
AcDbLine
 10
11.690417
 20
0.47562
 30
0.0
 11
11.688335
 21
0.47593
 31
0.0
  0
LINE
  5
7B3
330
1F
100
AcDbEntity
  8
1
  6
CONTINUOUS
370
50
 62
4
100
AcDbLine
 10
9.598728999999999
 20
-0.904957
 30
0.0
 11
9.583874
 21
-0.902771
 31
0.0
  0
LINE
  5
7B4
330
1F
100
AcDbEntity
  8
1
  6
CONTINUOUS
370
50
 62
4
100
AcDbLine
 10
11.220383
 20
0.5368379999999999
 30
0.0
 11
11.176672
 21
0.543122
 31
0.0
  0
LINE
  5
7B5
330
1F
100
AcDbEntity
  8
1
  6
CONTINUOUS
370
50
 62
4
100
AcDbLine
 10
11.517918
 20
0.496832
 30
0.0
 11
11.462061
 21
0.504842
 31
0.0
  0
LINE
  5
7B6
330
1F
100
AcDbEntity
  8
1
  6
CONTINUOUS
370
50
 62
4
100
AcDbLine
 10
11.534781
 20
0.500489
 30
0.0
 11
11.458433
 21
0.511392
 31
0.0
  0
LINE
  5
7B7
330
1F
100
AcDbEntity
  8
1
  6
CONTINUOUS
370
50
 62
4
100
AcDbLine
 10
9.163837
 20
0.974246
 30
0.0
 11
9.16165
 21
0.974552
 31
0.0
  0
LINE
  5
7B8
330
1F
100
AcDbEntity
  8
1
  6
CONTINUOUS
370
50
 62
4
100
AcDbLine
 10
9.613268
 20
-0.9069889999999999
 30
0.0
 11
9.598728999999999
 21
-0.904957
 31
0.0
  0
LINE
  5
7B9
330
1F
100
AcDbEntity
  8
1
  6
CONTINUOUS
370
50
 62
4
100
AcDbLine
 10
11.264203
 20
0.530785
 30
0.0
 11
11.220383
 21
0.5368379999999999
 31
0.0
  0
LINE
  5
7BA
330
1F
100
AcDbEntity
  8
1
  6
CONTINUOUS
370
50
 62
4
100
AcDbLine
 10
9.718261
 20
0.7433099999999999
 30
0.0
 11
9.707813999999999
 21
0.744744
 31
0.0
  0
LINE
  5
7BB
330
1F
100
AcDbEntity
  8
1
  6
CONTINUOUS
370
50
 62
4
100
AcDbLine
 10
11.462061
 20
0.504842
 30
0.0
 11
11.40673
 21
0.512355
 31
0.0
  0
LINE
  5
7BC
330
1F
100
AcDbEntity
  8
1
  6
CONTINUOUS
370
50
 62
4
100
AcDbLine
 10
11.308125
 20
0.524959
 30
0.0
 11
11.264203
 21
0.530785
 31
0.0
  0
LINE
  5
7BD
330
1F
100
AcDbEntity
  8
1
  6
CONTINUOUS
370
50
 62
4
100
AcDbLine
 10
9.627348
 20
-0.908856
 30
0.0
 11
9.613268
 21
-0.9069889999999999
 31
0.0
  0
LINE
  5
7BE
330
1F
100
AcDbEntity
  8
1
  6
CONTINUOUS
370
50
 62
4
100
AcDbLine
 10
11.705138
 20
0.474841
 30
0.0
 11
11.699504
 21
0.475578
 31
0.0
  0
LINE
  5
7BF
330
1F
100
AcDbEntity
  8
1
  6
CONTINUOUS
370
50
 62
4
100
AcDbLine
 10
11.458433
 20
0.511392
 30
0.0
 11
11.382078
 21
0.5213789999999999
 31
0.0
  0
LINE
  5
7C0
330
1F
100
AcDbEntity
  8
1
  6
CONTINUOUS
370
50
 62
4
100
AcDbLine
 10
11.710782
 20
0.47411
 30
0.0
 11
11.705138
 21
0.474841
 31
0.0
  0
LINE
  5
7C1
330
1F
100
AcDbEntity
  8
1
  6
CONTINUOUS
370
50
 62
4
100
AcDbLine
 10
11.40673
 20
0.512355
 30
0.0
 11
11.352049
 21
0.51937
 31
0.0
  0
LINE
  5
7C2
330
1F
100
AcDbEntity
  8
1
  6
CONTINUOUS
370
50
 62
4
100
AcDbLine
 10
11.716434
 20
0.473386
 30
0.0
 11
11.710782
 21
0.47411
 31
0.0
  0
LINE
  5
7C3
330
1F
100
AcDbEntity
  8
1
  6
CONTINUOUS
370
50
 62
4
100
AcDbLine
 10
11.352048
 20
0.519367
 30
0.0
 11
11.308125
 21
0.524959
 31
0.0
  0
LINE
  5
7C4
330
1F
100
AcDbEntity
  8
1
  6
CONTINUOUS
370
50
 62
4
100
AcDbLine
 10
11.722095
 20
0.472669
 30
0.0
 11
11.716434
 21
0.473386
 31
0.0
  0
LINE
  5
7C5
330
1F
100
AcDbEntity
  8
1
  6
CONTINUOUS
370
50
 62
4
100
AcDbLine
 10
11.727764
 20
0.471958
 30
0.0
 11
11.722095
 21
0.472669
 31
0.0
  0
LINE
  5
7C6
330
1F
100
AcDbEntity
  8
1
  6
CONTINUOUS
370
50
 62
4
100
AcDbLine
 10
9.640929
 20
-0.910559
 30
0.0
 11
9.627348
 21
-0.908856
 31
0.0
  0
LINE
  5
7C7
330
1F
100
AcDbEntity
  8
1
  6
CONTINUOUS
370
50
 62
4
100
AcDbLine
 10
11.733441
 20
0.471253
 30
0.0
 11
11.727764
 21
0.471958
 31
0.0
  0
LINE
  5
7C8
330
1F
100
AcDbEntity
  8
1
  6
CONTINUOUS
370
50
 62
4
100
AcDbLine
 10
11.254621
 20
0.873575
 30
0.0
 11
11.204675
 21
0.879745
 31
0.0
  0
LINE
  5
7C9
330
1F
100
AcDbEntity
  8
1
  6
CONTINUOUS
370
50
 62
4
100
AcDbLine
 10
11.739124
 20
0.470555
 30
0.0
 11
11.733441
 21
0.471253
 31
0.0
  0
LINE
  5
7CA
330
1F
100
AcDbEntity
  8
1
  6
CONTINUOUS
370
50
 62
4
100
AcDbLine
 10
10.074121
 20
-0.9806469999999999
 30
0.0
 11
9.986837999999999
 21
-0.9699749999999999
 31
0.0
  0
LINE
  5
7CB
330
1F
100
AcDbEntity
  8
1
  6
CONTINUOUS
370
50
 62
4
100
AcDbLine
 10
9.728085
 20
0.7421449999999999
 30
0.0
 11
9.718261
 21
0.7433099999999999
 31
0.0
  0
LINE
  5
7CC
330
1F
100
AcDbEntity
  8
1
  6
CONTINUOUS
370
50
 62
4
100
AcDbLine
 10
11.382078
 20
0.5213789999999999
 30
0.0
 11
11.305718
 21
0.53042
 31
0.0
  0
LINE
  5
7CD
330
1F
100
AcDbEntity
  8
1
  6
CONTINUOUS
370
50
 62
4
100
AcDbLine
 10
9.654
 20
-0.9121009999999999
 30
0.0
 11
9.640929
 21
-0.910559
 31
0.0
  0
LINE
  5
7CE
330
1F
100
AcDbEntity
  8
1
  6
CONTINUOUS
370
50
 62
4
100
AcDbLine
 10
9.666553
 20
-0.913488
 30
0.0
 11
9.654
 21
-0.9121009999999999
 31
0.0
  0
LINE
  5
7CF
330
1F
100
AcDbEntity
  8
1
  6
CONTINUOUS
370
50
 62
4
100
AcDbLine
 10
11.305718
 20
0.53042
 30
0.0
 11
11.229354
 21
0.538481
 31
0.0
  0
LINE
  5
7D0
330
1F
100
AcDbEntity
  8
1
  6
CONTINUOUS
370
50
 62
4
100
AcDbLine
 10
11.692411
 20
0.475413
 30
0.0
 11
11.690417
 21
0.47562
 31
0.0
  0
LINE
  5
7D1
330
1F
100
AcDbEntity
  8
1
  6
CONTINUOUS
370
50
 62
4
100
AcDbLine
 10
9.678576999999999
 20
-0.9147219999999999
 30
0.0
 11
9.666553
 21
-0.913488
 31
0.0
  0
LINE
  5
7D2
330
1F
100
AcDbEntity
  8
1
  6
CONTINUOUS
370
50
 62
4
100
AcDbLine
 10
9.737275
 20
0.7412519999999999
 30
0.0
 11
9.728085
 21
0.7421449999999999
 31
0.0
  0
LINE
  5
7D3
330
1F
100
AcDbEntity
  8
1
  6
CONTINUOUS
370
50
 62
4
100
AcDbLine
 10
10.161609
 20
-0.988999
 30
0.0
 11
10.074121
 21
-0.9806469999999999
 31
0.0
  0
LINE
  5
7D4
330
1F
100
AcDbEntity
  8
1
  6
CONTINUOUS
370
50
 62
4
100
AcDbLine
 10
9.690064999999999
 20
-0.915808
 30
0.0
 11
9.678576999999999
 21
-0.9147219999999999
 31
0.0
  0
LINE
  5
7D5
330
1F
100
AcDbEntity
  8
1
  6
CONTINUOUS
370
50
 62
4
100
AcDbLine
 10
9.16165
 20
0.974552
 30
0.0
 11
9.159341
 21
0.9747669999999999
 31
0.0
  0
LINE
  5
7D6
330
1F
100
AcDbEntity
  8
1
  6
CONTINUOUS
370
50
 62
4
100
AcDbLine
 10
8.956560999999999
 20
-0.629633
 30
0.0
 11
8.943484
 21
-0.628479
 31
0.0
  0
LINE
  5
7D7
330
1F
100
AcDbEntity
  8
1
  6
CONTINUOUS
370
50
 62
4
100
AcDbLine
 10
9.701006
 20
-0.916751
 30
0.0
 11
9.690064999999999
 21
-0.915808
 31
0.0
  0
LINE
  5
7D8
330
1F
100
AcDbEntity
  8
1
  6
CONTINUOUS
370
50
 62
4
100
AcDbLine
 10
9.711392
 20
-0.917553
 30
0.0
 11
9.701006
 21
-0.916751
 31
0.0
  0
LINE
  5
7D9
330
1F
100
AcDbEntity
  8
1
  6
CONTINUOUS
370
50
 62
4
100
AcDbLine
 10
11.143363
 20
0.237299
 30
0.0
 11
11.107755
 21
0.239996
 31
0.0
  0
LINE
  5
7DA
330
1F
100
AcDbEntity
  8
1
  6
CONTINUOUS
370
50
 62
4
100
AcDbLine
 10
9.9
 20
0.737143
 30
0.0
 11
9.883554
 21
0.738328
 31
0.0
  0
LINE
  5
7DB
330
1F
100
AcDbEntity
  8
1
  6
CONTINUOUS
370
50
 62
4
100
AcDbLine
 10
9.746395
 20
0.740598
 30
0.0
 11
9.737275
 21
0.7412519999999999
 31
0.0
  0
LINE
  5
7DC
330
1F
100
AcDbEntity
  8
1
  6
CONTINUOUS
370
50
 62
4
100
AcDbLine
 10
10.249061
 20
-0.995012
 30
0.0
 11
10.161609
 21
-0.988999
 31
0.0
  0
LINE
  5
7DD
330
1F
100
AcDbEntity
  8
1
  6
CONTINUOUS
370
50
 62
4
100
AcDbLine
 10
9.721212999999999
 20
-0.9182199999999999
 30
0.0
 11
9.711392
 21
-0.917553
 31
0.0
  0
LINE
  5
7DE
330
1F
100
AcDbEntity
  8
1
  6
CONTINUOUS
370
50
 62
4
100
AcDbLine
 10
9.883554
 20
0.738328
 30
0.0
 11
9.866911
 21
0.739413
 31
0.0
  0
LINE
  5
7DF
330
1F
100
AcDbEntity
  8
1
  6
CONTINUOUS
370
50
 62
4
100
AcDbLine
 10
9.730459999999999
 20
-0.918754
 30
0.0
 11
9.721212999999999
 21
-0.9182199999999999
 31
0.0
  0
LINE
  5
7E0
330
1F
100
AcDbEntity
  8
1
  6
CONTINUOUS
370
50
 62
4
100
AcDbLine
 10
9.866911
 20
0.739413
 30
0.0
 11
9.850138
 21
0.740379
 31
0.0
  0
LINE
  5
7E1
330
1F
100
AcDbEntity
  8
1
  6
CONTINUOUS
370
50
 62
4
100
AcDbLine
 10
11.694317
 20
0.475306
 30
0.0
 11
11.692411
 21
0.475413
 31
0.0
  0
LINE
  5
7E2
330
1F
100
AcDbEntity
  8
1
  6
CONTINUOUS
370
50
 62
4
100
AcDbLine
 10
9.159341
 20
0.9747669999999999
 30
0.0
 11
9.156908999999999
 21
0.9748969999999999
 31
0.0
  0
LINE
  5
7E3
330
1F
100
AcDbEntity
  8
1
  6
CONTINUOUS
370
50
 62
4
100
AcDbLine
 10
9.927652
 20
-0.996176
 30
0.0
 11
9.9
 21
-0.994702
 31
0.0
  0
LINE
  5
7E4
330
1F
100
AcDbEntity
  8
1
  6
CONTINUOUS
370
50
 62
4
100
AcDbLine
 10
9.850138
 20
0.740379
 30
0.0
 11
9.833302
 21
0.7412059999999999
 31
0.0
  0
LINE
  5
7E5
330
1F
100
AcDbEntity
  8
1
  6
CONTINUOUS
370
50
 62
4
100
AcDbLine
 10
9.739134
 20
-0.9191619999999999
 30
0.0
 11
9.730459999999999
 21
-0.918754
 31
0.0
  0
LINE
  5
7E6
330
1F
100
AcDbEntity
  8
1
  6
CONTINUOUS
370
50
 62
4
100
AcDbLine
 10
11.204675
 20
0.879745
 30
0.0
 11
11.154204
 21
0.8820749999999999
 31
0.0
  0
LINE
  5
7E7
330
1F
100
AcDbEntity
  8
1
  6
CONTINUOUS
370
50
 62
4
100
AcDbLine
 10
9.95727
 20
-0.997497
 30
0.0
 11
9.927652
 21
-0.996176
 31
0.0
  0
LINE
  5
7E8
330
1F
100
AcDbEntity
  8
1
  6
CONTINUOUS
370
50
 62
4
100
AcDbLine
 10
10.336238
 20
-0.9986689999999999
 30
0.0
 11
10.249061
 21
-0.995012
 31
0.0
  0
LINE
  5
7E9
330
1F
100
AcDbEntity
  8
1
  6
CONTINUOUS
370
50
 62
4
100
AcDbLine
 10
9.833302
 20
0.7412059999999999
 30
0.0
 11
9.816474999999999
 21
0.741877
 31
0.0
  0
LINE
  5
7EA
330
1F
100
AcDbEntity
  8
1
  6
CONTINUOUS
370
50
 62
4
100
AcDbLine
 10
9.755941
 20
0.7402289999999999
 30
0.0
 11
9.746395
 21
0.740598
 31
0.0
  0
LINE
  5
7EB
330
1F
100
AcDbEntity
  8
1
  6
CONTINUOUS
370
50
 62
4
100
AcDbLine
 10
9.9
 20
-0.9211659999999999
 30
0.0
 11
9.883554
 21
-0.92057
 31
0.0
  0
LINE
  5
7EC
330
1F
100
AcDbEntity
  8
1
  6
CONTINUOUS
370
50
 62
4
100
AcDbLine
 10
9.988788
 20
-0.998605
 30
0.0
 11
9.95727
 21
-0.997497
 31
0.0
  0
LINE
  5
7ED
330
1F
100
AcDbEntity
  8
1
  6
CONTINUOUS
370
50
 62
4
100
AcDbLine
 10
9.747981
 20
-0.919462
 30
0.0
 11
9.739134
 21
-0.9191619999999999
 31
0.0
  0
LINE
  5
7EE
330
1F
100
AcDbEntity
  8
1
  6
CONTINUOUS
370
50
 62
4
100
AcDbLine
 10
9.883554
 20
-0.92057
 30
0.0
 11
9.866911
 21
-0.920022
 31
0.0
  0
LINE
  5
7EF
330
1F
100
AcDbEntity
  8
1
  6
CONTINUOUS
370
50
 62
4
100
AcDbLine
 10
9.816474999999999
 20
0.741877
 30
0.0
 11
9.799721
 21
0.742373
 31
0.0
  0
LINE
  5
7F0
330
1F
100
AcDbEntity
  8
1
  6
CONTINUOUS
370
50
 62
4
100
AcDbLine
 10
9.866911
 20
-0.920022
 30
0.0
 11
9.850138
 21
-0.91953
 31
0.0
  0
LINE
  5
7F1
330
1F
100
AcDbEntity
  8
1
  6
CONTINUOUS
370
50
 62
4
100
AcDbLine
 10
9.850138
 20
-0.91953
 30
0.0
 11
9.833302
 21
-0.919106
 31
0.0
  0
LINE
  5
7F2
330
1F
100
AcDbEntity
  8
1
  6
CONTINUOUS
370
50
 62
4
100
AcDbLine
 10
10.022139
 20
-0.999443
 30
0.0
 11
9.988788
 21
-0.998605
 31
0.0
  0
LINE
  5
7F3
330
1F
100
AcDbEntity
  8
1
  6
CONTINUOUS
370
50
 62
4
100
AcDbLine
 10
9.833302
 20
-0.919106
 30
0.0
 11
9.816474999999999
 21
-0.9187609999999999
 31
0.0
  0
LINE
  5
7F4
330
1F
100
AcDbEntity
  8
1
  6
CONTINUOUS
370
50
 62
4
100
AcDbLine
 10
8.956560999999999
 20
0.9594619999999999
 30
0.0
 11
8.940627
 21
0.959761
 31
0.0
  0
LINE
  5
7F5
330
1F
100
AcDbEntity
  8
1
  6
CONTINUOUS
370
50
 62
4
100
AcDbLine
 10
9.156908999999999
 20
0.9748969999999999
 30
0.0
 11
9.154349
 21
0.974945
 31
0.0
  0
LINE
  5
7F6
330
1F
100
AcDbEntity
  8
1
  6
CONTINUOUS
370
50
 62
4
100
AcDbLine
 10
9.799721
 20
0.742373
 30
0.0
 11
9.783111
 21
0.742674
 31
0.0
  0
LINE
  5
7F7
330
1F
100
AcDbEntity
  8
1
  6
CONTINUOUS
370
50
 62
4
100
AcDbLine
 10
9.75715
 20
-0.919616
 30
0.0
 11
9.747981
 21
-0.919462
 31
0.0
  0
LINE
  5
7F8
330
1F
100
AcDbEntity
  8
1
  6
CONTINUOUS
370
50
 62
4
100
AcDbLine
 10
9.816474999999999
 20
-0.9187609999999999
 30
0.0
 11
9.799721
 21
-0.9185049999999999
 31
0.0
  0
LINE
  5
7F9
330
1F
100
AcDbEntity
  8
1
  6
CONTINUOUS
370
50
 62
4
100
AcDbLine
 10
10.422921
 20
-0.9999509999999999
 30
0.0
 11
10.336238
 21
-0.9986689999999999
 31
0.0
  0
LINE
  5
7FA
330
1F
100
AcDbEntity
  8
1
  6
CONTINUOUS
370
50
 62
4
100
AcDbLine
 10
10.057258
 20
-0.9999509999999999
 30
0.0
 11
10.022139
 21
-0.999443
 31
0.0
  0
LINE
  5
7FB
330
1F
100
AcDbEntity
  8
1
  6
CONTINUOUS
370
50
 62
4
100
AcDbLine
 10
8.943484
 20
-0.628479
 30
0.0
 11
8.92986
 21
-0.628335
 31
0.0
  0
LINE
  5
7FC
330
1F
100
AcDbEntity
  8
1
  6
CONTINUOUS
370
50
 62
4
100
AcDbLine
 10
9.799721
 20
-0.9185049999999999
 30
0.0
 11
9.783111
 21
-0.918349
 31
0.0
  0
LINE
  5
7FD
330
1F
100
AcDbEntity
  8
1
  6
CONTINUOUS
370
50
 62
4
100
AcDbLine
 10
11.696136
 20
0.4753
 30
0.0
 11
11.694317
 21
0.475306
 31
0.0
  0
LINE
  5
7FE
330
1F
100
AcDbEntity
  8
1
  6
CONTINUOUS
370
50
 62
4
100
AcDbLine
 10
10.094079
 20
-1.000071
 30
0.0
 11
10.057258
 21
-0.9999509999999999
 31
0.0
  0
LINE
  5
7FF
330
1F
100
AcDbEntity
  8
1
  6
CONTINUOUS
370
50
 62
4
100
AcDbLine
 10
10.425731
 20
-0.999953
 30
0.0
 11
10.082297
 21
-0.999918
 31
0.0
  0
LINE
  5
800
330
1F
100
AcDbEntity
  8
1
  6
CONTINUOUS
370
50
 62
4
100
AcDbLine
 10
7.899999999999999
 20
-0.97495
 30
0.0
 11
9.286017
 21
-0.97495
 31
0.0
  0
LINE
  5
801
330
1F
100
AcDbEntity
  8
1
  6
CONTINUOUS
370
50
 62
4
100
AcDbLine
 10
7.899999999999999
 20
0.97495
 30
0.0
 11
9.154069999999999
 21
0.97495
 31
0.0
  0
LINE
  5
802
330
1F
100
AcDbEntity
  8
1
  6
CONTINUOUS
370
50
 62
4
100
AcDbLine
 10
9.86831
 20
-0.9693879999999999
 30
0.0
 11
9.9
 21
-0.9693269999999999
 31
0.0
  0
LINE
  5
803
330
1F
100
AcDbEntity
  8
1
  6
CONTINUOUS
370
50
 62
4
100
AcDbLine
 10
9.83662
 20
-0.969451
 30
0.0
 11
9.86831
 21
-0.9693879999999999
 31
0.0
  0
LINE
  5
804
330
1F
100
AcDbEntity
  8
1
  6
CONTINUOUS
370
50
 62
4
100
AcDbLine
 10
9.804931
 20
-0.9695159999999999
 30
0.0
 11
9.83662
 21
-0.969451
 31
0.0
  0
LINE
  5
805
330
1F
100
AcDbEntity
  8
1
  6
CONTINUOUS
370
50
 62
4
100
AcDbLine
 10
9.773242
 20
-0.9695819999999999
 30
0.0
 11
9.804931
 21
-0.9695159999999999
 31
0.0
  0
LINE
  5
806
330
1F
100
AcDbEntity
  8
1
  6
CONTINUOUS
370
50
 62
4
100
AcDbLine
 10
9.741553
 20
-0.9696499999999999
 30
0.0
 11
9.773242
 21
-0.9695819999999999
 31
0.0
  0
LINE
  5
807
330
1F
100
AcDbEntity
  8
1
  6
CONTINUOUS
370
50
 62
4
100
AcDbLine
 10
9.709866
 20
-0.9697199999999999
 30
0.0
 11
9.741553
 21
-0.9696499999999999
 31
0.0
  0
LINE
  5
808
330
1F
100
AcDbEntity
  8
1
  6
CONTINUOUS
370
50
 62
4
100
AcDbLine
 10
9.678177999999999
 20
-0.969791
 30
0.0
 11
9.709866
 21
-0.9697199999999999
 31
0.0
  0
LINE
  5
809
330
1F
100
AcDbEntity
  8
1
  6
CONTINUOUS
370
50
 62
4
100
AcDbLine
 10
9.286693999999999
 20
-0.97495
 30
0.0
 11
9.304977
 21
-0.9748899999999999
 31
0.0
  0
LINE
  5
80A
330
1F
100
AcDbEntity
  8
1
  6
CONTINUOUS
370
50
 62
4
100
AcDbLine
 10
9.653127
 20
-0.9698819999999999
 30
0.0
 11
9.678177999999999
 21
-0.969791
 31
0.0
  0
LINE
  5
80B
330
1F
100
AcDbEntity
  8
1
  6
CONTINUOUS
370
50
 62
4
100
AcDbLine
 10
11.143363
 20
0.237299
 30
0.0
 11
11.178768
 21
0.237434
 31
0.0
  0
LINE
  5
80C
330
1F
100
AcDbEntity
  8
1
  6
CONTINUOUS
370
50
 62
4
100
AcDbLine
 10
8.924434
 20
0.9596669999999999
 30
0.0
 11
8.940627
 21
0.959761
 31
0.0
  0
LINE
  5
80D
330
1F
100
AcDbEntity
  8
1
  6
CONTINUOUS
370
50
 62
4
100
AcDbLine
 10
9.628046
 20
-0.970039
 30
0.0
 11
9.653127
 21
-0.9698819999999999
 31
0.0
  0
LINE
  5
80E
330
1F
100
AcDbEntity
  8
1
  6
CONTINUOUS
370
50
 62
4
100
AcDbLine
 10
9.75715
 20
-0.919616
 30
0.0
 11
9.766191
 21
-0.919553
 31
0.0
  0
LINE
  5
80F
330
1F
100
AcDbEntity
  8
1
  6
CONTINUOUS
370
50
 62
4
100
AcDbLine
 10
9.755941
 20
0.7402289999999999
 30
0.0
 11
9.765414
 21
0.740302
 31
0.0
  0
LINE
  5
810
330
1F
100
AcDbEntity
  8
1
  6
CONTINUOUS
370
50
 62
4
100
AcDbLine
 10
9.304977
 20
-0.9748899999999999
 30
0.0
 11
9.324123
 21
-0.974729
 31
0.0
  0
LINE
  5
811
330
1F
100
AcDbEntity
  8
1
  6
CONTINUOUS
370
50
 62
4
100
AcDbLine
 10
9.602976
 20
-0.970256
 30
0.0
 11
9.628046
 21
-0.970039
 31
0.0
  0
LINE
  5
812
330
1F
100
AcDbEntity
  8
1
  6
CONTINUOUS
370
50
 62
4
100
AcDbLine
 10
10.422921
 20
-0.9999509999999999
 30
0.0
 11
10.483619
 21
-0.99942
 31
0.0
  0
LINE
  5
813
330
1F
100
AcDbEntity
  8
1
  6
CONTINUOUS
370
50
 62
4
100
AcDbLine
 10
9.577957999999999
 20
-0.9705269999999999
 30
0.0
 11
9.602976
 21
-0.970256
 31
0.0
  0
LINE
  5
814
330
1F
100
AcDbEntity
  8
1
  6
CONTINUOUS
370
50
 62
4
100
AcDbLine
 10
9.324123
 20
-0.974729
 30
0.0
 11
9.344106
 21
-0.974482
 31
0.0
  0
LINE
  5
815
330
1F
100
AcDbEntity
  8
1
  6
CONTINUOUS
370
50
 62
4
100
AcDbLine
 10
9.553032
 20
-0.970846
 30
0.0
 11
9.577957999999999
 21
-0.9705269999999999
 31
0.0
  0
LINE
  5
816
330
1F
100
AcDbEntity
  8
1
  6
CONTINUOUS
370
50
 62
4
100
AcDbLine
 10
9.52824
 20
-0.9712069999999999
 30
0.0
 11
9.553032
 21
-0.970846
 31
0.0
  0
LINE
  5
817
330
1F
100
AcDbEntity
  8
1
  6
CONTINUOUS
370
50
 62
4
100
AcDbLine
 10
9.86831
 20
0.574755
 30
0.0
 11
9.9
 21
0.575218
 31
0.0
  0
LINE
  5
818
330
1F
100
AcDbEntity
  8
1
  6
CONTINUOUS
370
50
 62
4
100
AcDbLine
 10
9.83662
 20
0.574276
 30
0.0
 11
9.86831
 21
0.574755
 31
0.0
  0
LINE
  5
819
330
1F
100
AcDbEntity
  8
1
  6
CONTINUOUS
370
50
 62
4
100
AcDbLine
 10
9.344106
 20
-0.974482
 30
0.0
 11
9.364882
 21
-0.974165
 31
0.0
  0
LINE
  5
81A
330
1F
100
AcDbEntity
  8
1
  6
CONTINUOUS
370
50
 62
4
100
AcDbLine
 10
9.804931
 20
0.573781
 30
0.0
 11
9.83662
 21
0.574276
 31
0.0
  0
LINE
  5
81B
330
1F
100
AcDbEntity
  8
1
  6
CONTINUOUS
370
50
 62
4
100
AcDbLine
 10
9.503620999999999
 20
-0.9716039999999999
 30
0.0
 11
9.52824
 21
-0.9712069999999999
 31
0.0
  0
LINE
  5
81C
330
1F
100
AcDbEntity
  8
1
  6
CONTINUOUS
370
50
 62
4
100
AcDbLine
 10
9.773242
 20
0.57327
 30
0.0
 11
9.804931
 21
0.573781
 31
0.0
  0
LINE
  5
81D
330
1F
100
AcDbEntity
  8
1
  6
CONTINUOUS
370
50
 62
4
100
AcDbLine
 10
9.741553
 20
0.572743
 30
0.0
 11
9.773242
 21
0.57327
 31
0.0
  0
LINE
  5
81E
330
1F
100
AcDbEntity
  8
1
  6
CONTINUOUS
370
50
 62
4
100
AcDbLine
 10
9.709866
 20
0.572201
 30
0.0
 11
9.741553
 21
0.572743
 31
0.0
  0
LINE
  5
81F
330
1F
100
AcDbEntity
  8
1
  6
CONTINUOUS
370
50
 62
4
100
AcDbLine
 10
9.364882
 20
-0.974165
 30
0.0
 11
9.386413
 21
-0.973791
 31
0.0
  0
LINE
  5
820
330
1F
100
AcDbEntity
  8
1
  6
CONTINUOUS
370
50
 62
4
100
AcDbLine
 10
9.479218
 20
-0.972031
 30
0.0
 11
9.503620999999999
 21
-0.9716039999999999
 31
0.0
  0
LINE
  5
821
330
1F
100
AcDbEntity
  8
1
  6
CONTINUOUS
370
50
 62
4
100
AcDbLine
 10
9.678177999999999
 20
0.571642
 30
0.0
 11
9.709866
 21
0.572201
 31
0.0
  0
LINE
  5
822
330
1F
100
AcDbEntity
  8
1
  6
CONTINUOUS
370
50
 62
4
100
AcDbLine
 10
9.386413
 20
-0.973791
 30
0.0
 11
9.408655
 21
-0.9733759999999999
 31
0.0
  0
LINE
  5
823
330
1F
100
AcDbEntity
  8
1
  6
CONTINUOUS
370
50
 62
4
100
AcDbLine
 10
9.455112999999999
 20
-0.9724809999999999
 30
0.0
 11
9.479218
 21
-0.972031
 31
0.0
  0
LINE
  5
824
330
1F
100
AcDbEntity
  8
1
  6
CONTINUOUS
370
50
 62
4
100
AcDbLine
 10
9.408655
 20
-0.9733759999999999
 30
0.0
 11
9.431569
 21
-0.972935
 31
0.0
  0
LINE
  5
825
330
1F
100
AcDbEntity
  8
1
  6
CONTINUOUS
370
50
 62
4
100
AcDbLine
 10
9.431569
 20
-0.972935
 30
0.0
 11
9.455112999999999
 21
-0.9724809999999999
 31
0.0
  0
LINE
  5
826
330
1F
100
AcDbEntity
  8
1
  6
CONTINUOUS
370
50
 62
4
100
AcDbLine
 10
9.654377
 20
0.570991
 30
0.0
 11
9.678177999999999
 21
0.571642
 31
0.0
  0
LINE
  5
827
330
1F
100
AcDbEntity
  8
1
  6
CONTINUOUS
370
50
 62
4
100
AcDbLine
 10
10.483619
 20
-0.99942
 30
0.0
 11
10.544217
 21
-0.9976799999999999
 31
0.0
  0
LINE
  5
828
330
1F
100
AcDbEntity
  8
1
  6
CONTINUOUS
370
50
 62
4
100
AcDbLine
 10
11.103465
 20
0.880617
 30
0.0
 11
11.154204
 21
0.8820749999999999
 31
0.0
  0
LINE
  5
829
330
1F
100
AcDbEntity
  8
1
  6
CONTINUOUS
370
50
 62
4
100
AcDbLine
 10
8.956560999999999
 20
0.9594619999999999
 30
0.0
 11
8.98615
 21
0.96036
 31
0.0
  0
LINE
  5
82A
330
1F
100
AcDbEntity
  8
1
  6
CONTINUOUS
370
50
 62
4
100
AcDbLine
 10
9.146137
 20
0.974665
 30
0.0
 11
9.154349
 21
0.974945
 31
0.0
  0
LINE
  5
82B
330
1F
100
AcDbEntity
  8
1
  6
CONTINUOUS
370
50
 62
4
100
AcDbLine
 10
11.733441
 20
-0.471771
 30
0.0
 11
11.739124
 21
-0.471553
 31
0.0
  0
LINE
  5
82C
330
1F
100
AcDbEntity
  8
1
  6
CONTINUOUS
370
50
 62
4
100
AcDbLine
 10
11.727764
 20
-0.471995
 30
0.0
 11
11.733441
 21
-0.471771
 31
0.0
  0
LINE
  5
82D
330
1F
100
AcDbEntity
  8
1
  6
CONTINUOUS
370
50
 62
4
100
AcDbLine
 10
11.722095
 20
-0.472227
 30
0.0
 11
11.727764
 21
-0.471995
 31
0.0
  0
LINE
  5
82E
330
1F
100
AcDbEntity
  8
1
  6
CONTINUOUS
370
50
 62
4
100
AcDbLine
 10
9.766191
 20
-0.919553
 30
0.0
 11
9.774790999999999
 21
-0.919195
 31
0.0
  0
LINE
  5
82F
330
1F
100
AcDbEntity
  8
1
  6
CONTINUOUS
370
50
 62
4
100
AcDbLine
 10
11.716434
 20
-0.472466
 30
0.0
 11
11.722095
 21
-0.472227
 31
0.0
  0
LINE
  5
830
330
1F
100
AcDbEntity
  8
1
  6
CONTINUOUS
370
50
 62
4
100
AcDbLine
 10
11.710782
 20
-0.472713
 30
0.0
 11
11.716434
 21
-0.472466
 31
0.0
  0
LINE
  5
831
330
1F
100
AcDbEntity
  8
1
  6
CONTINUOUS
370
50
 62
4
100
AcDbLine
 10
11.705138
 20
-0.472967
 30
0.0
 11
11.710782
 21
-0.472713
 31
0.0
  0
LINE
  5
832
330
1F
100
AcDbEntity
  8
1
  6
CONTINUOUS
370
50
 62
4
100
AcDbLine
 10
11.699504
 20
-0.473228
 30
0.0
 11
11.705138
 21
-0.472967
 31
0.0
  0
LINE
  5
833
330
1F
100
AcDbEntity
  8
1
  6
CONTINUOUS
370
50
 62
4
100
AcDbLine
 10
8.98615
 20
0.96036
 30
0.0
 11
9.013
 21
0.961606
 31
0.0
  0
LINE
  5
834
330
1F
100
AcDbEntity
  8
1
  6
CONTINUOUS
370
50
 62
4
100
AcDbLine
 10
9.630548
 20
0.569882
 30
0.0
 11
9.654377
 21
0.570991
 31
0.0
  0
LINE
  5
835
330
1F
100
AcDbEntity
  8
1
  6
CONTINUOUS
370
50
 62
4
100
AcDbLine
 10
10.544217
 20
-0.9976799999999999
 30
0.0
 11
10.60469
 21
-0.9946999999999999
 31
0.0
  0
LINE
  5
836
330
1F
100
AcDbEntity
  8
1
  6
CONTINUOUS
370
50
 62
4
100
AcDbLine
 10
11.696136
 20
0.4753
 30
0.0
 11
11.697865
 21
0.475393
 31
0.0
  0
LINE
  5
837
330
1F
100
AcDbEntity
  8
1
  6
CONTINUOUS
370
50
 62
4
100
AcDbLine
 10
8.910302999999999
 20
0.958781
 30
0.0
 11
8.924434
 21
0.9596669999999999
 31
0.0
  0
LINE
  5
838
330
1F
100
AcDbEntity
  8
1
  6
CONTINUOUS
370
50
 62
4
100
AcDbLine
 10
9.013
 20
0.961606
 30
0.0
 11
9.037277999999999
 21
0.963147
 31
0.0
  0
LINE
  5
839
330
1F
100
AcDbEntity
  8
1
  6
CONTINUOUS
370
50
 62
4
100
AcDbLine
 10
9.606724
 20
0.568306
 30
0.0
 11
9.630548
 21
0.569882
 31
0.0
  0
LINE
  5
83A
330
1F
100
AcDbEntity
  8
1
  6
CONTINUOUS
370
50
 62
4
100
AcDbLine
 10
10.60469
 20
-0.9946999999999999
 30
0.0
 11
10.665014
 21
-0.9904529999999999
 31
0.0
  0
LINE
  5
83B
330
1F
100
AcDbEntity
  8
1
  6
CONTINUOUS
370
50
 62
4
100
AcDbLine
 10
9.765414
 20
0.740302
 30
0.0
 11
9.774414
 21
0.7409859999999999
 31
0.0
  0
LINE
  5
83C
330
1F
100
AcDbEntity
  8
1
  6
CONTINUOUS
370
50
 62
4
100
AcDbLine
 10
11.178768
 20
0.237434
 30
0.0
 11
11.213302
 21
0.240197
 31
0.0
  0
LINE
  5
83D
330
1F
100
AcDbEntity
  8
1
  6
CONTINUOUS
370
50
 62
4
100
AcDbLine
 10
9.037277999999999
 20
0.963147
 30
0.0
 11
9.059156
 21
0.9649329999999999
 31
0.0
  0
LINE
  5
83E
330
1F
100
AcDbEntity
  8
1
  6
CONTINUOUS
370
50
 62
4
100
AcDbLine
 10
9.582942
 20
0.566256
 30
0.0
 11
9.606724
 21
0.568306
 31
0.0
  0
LINE
  5
83F
330
1F
100
AcDbEntity
  8
1
  6
CONTINUOUS
370
50
 62
4
100
AcDbLine
 10
9.136642
 20
0.9738359999999999
 30
0.0
 11
9.146137
 21
0.974665
 31
0.0
  0
LINE
  5
840
330
1F
100
AcDbEntity
  8
1
  6
CONTINUOUS
370
50
 62
4
100
AcDbLine
 10
10.665014
 20
-0.9904529999999999
 30
0.0
 11
10.725164
 21
-0.984908
 31
0.0
  0
LINE
  5
841
330
1F
100
AcDbEntity
  8
1
  6
CONTINUOUS
370
50
 62
4
100
AcDbLine
 10
9.059156
 20
0.9649329999999999
 30
0.0
 11
9.07883
 21
0.9668869999999999
 31
0.0
  0
LINE
  5
842
330
1F
100
AcDbEntity
  8
1
  6
CONTINUOUS
370
50
 62
4
100
AcDbLine
 10
11.052561
 20
0.8754639999999999
 30
0.0
 11
11.103465
 21
0.880617
 31
0.0
  0
LINE
  5
843
330
1F
100
AcDbEntity
  8
1
  6
CONTINUOUS
370
50
 62
4
100
AcDbLine
 10
9.774790999999999
 20
-0.919195
 30
0.0
 11
9.783111
 21
-0.918349
 31
0.0
  0
LINE
  5
844
330
1F
100
AcDbEntity
  8
1
  6
CONTINUOUS
370
50
 62
4
100
AcDbLine
 10
9.559237
 20
0.563724
 30
0.0
 11
9.582942
 21
0.566256
 31
0.0
  0
LINE
  5
845
330
1F
100
AcDbEntity
  8
1
  6
CONTINUOUS
370
50
 62
4
100
AcDbLine
 10
9.07883
 20
0.9668869999999999
 30
0.0
 11
9.096439
 21
0.9689
 31
0.0
  0
LINE
  5
846
330
1F
100
AcDbEntity
  8
1
  6
CONTINUOUS
370
50
 62
4
100
AcDbLine
 10
10.725164
 20
-0.984908
 30
0.0
 11
10.785117
 21
-0.9780369999999999
 31
0.0
  0
LINE
  5
847
330
1F
100
AcDbEntity
  8
1
  6
CONTINUOUS
370
50
 62
4
100
AcDbLine
 10
9.125371999999999
 20
0.972529
 30
0.0
 11
9.136642
 21
0.9738359999999999
 31
0.0
  0
LINE
  5
848
330
1F
100
AcDbEntity
  8
1
  6
CONTINUOUS
370
50
 62
4
100
AcDbLine
 10
11.697865
 20
0.475393
 30
0.0
 11
11.699507
 21
0.475586
 31
0.0
  0
LINE
  5
849
330
1F
100
AcDbEntity
  8
1
  6
CONTINUOUS
370
50
 62
4
100
AcDbLine
 10
9.096439
 20
0.9689
 30
0.0
 11
9.112036
 21
0.970845
 31
0.0
  0
LINE
  5
84A
330
1F
100
AcDbEntity
  8
1
  6
CONTINUOUS
370
50
 62
4
100
AcDbLine
 10
8.956560999999999
 20
-0.629633
 30
0.0
 11
8.981207999999999
 21
-0.6265299999999999
 31
0.0
  0
LINE
  5
84B
330
1F
100
AcDbEntity
  8
1
  6
CONTINUOUS
370
50
 62
4
100
AcDbLine
 10
9.112036
 20
0.970845
 30
0.0
 11
9.125371999999999
 21
0.972529
 31
0.0
  0
LINE
  5
84C
330
1F
100
AcDbEntity
  8
1
  6
CONTINUOUS
370
50
 62
4
100
AcDbLine
 10
9.535642
 20
0.560701
 30
0.0
 11
9.559237
 21
0.563724
 31
0.0
  0
LINE
  5
84D
330
1F
100
AcDbEntity
  8
1
  6
CONTINUOUS
370
50
 62
4
100
AcDbLine
 10
8.917311
 20
-0.629957
 30
0.0
 11
8.92986
 21
-0.628335
 31
0.0
  0
LINE
  5
84E
330
1F
100
AcDbEntity
  8
1
  6
CONTINUOUS
370
50
 62
4
100
AcDbLine
 10
11.317734
 20
0.7924289999999999
 30
0.0
 11
11.447217
 21
0.8098599999999999
 31
0.0
  0
LINE
  5
84F
330
1F
100
AcDbEntity
  8
1
  6
CONTINUOUS
370
50
 62
4
100
AcDbLine
 10
9.512193
 20
0.55718
 30
0.0
 11
9.535642
 21
0.560701
 31
0.0
  0
LINE
  5
850
330
1F
100
AcDbEntity
  8
1
  6
CONTINUOUS
370
50
 62
4
100
AcDbLine
 10
11.213302
 20
0.240197
 30
0.0
 11
11.246899
 21
0.245308
 31
0.0
  0
LINE
  5
851
330
1F
100
AcDbEntity
  8
1
  6
CONTINUOUS
370
50
 62
4
100
AcDbLine
 10
11.188249
 20
0.770266
 30
0.0
 11
11.317734
 21
0.7924289999999999
 31
0.0
  0
LINE
  5
852
330
1F
100
AcDbEntity
  8
1
  6
CONTINUOUS
370
50
 62
4
100
AcDbLine
 10
11.001611
 20
0.8667279999999999
 30
0.0
 11
11.052561
 21
0.8754639999999999
 31
0.0
  0
LINE
  5
853
330
1F
100
AcDbEntity
  8
1
  6
CONTINUOUS
370
50
 62
4
100
AcDbLine
 10
9.488925
 20
0.5531539999999999
 30
0.0
 11
9.512193
 21
0.55718
 31
0.0
  0
LINE
  5
854
330
1F
100
AcDbEntity
  8
1
  6
CONTINUOUS
370
50
 62
4
100
AcDbLine
 10
8.981207999999999
 20
-0.6265299999999999
 30
0.0
 11
9.003964
 21
-0.622232
 31
0.0
  0
LINE
  5
855
330
1F
100
AcDbEntity
  8
1
  6
CONTINUOUS
370
50
 62
4
100
AcDbLine
 10
9.774414
 20
0.7409859999999999
 30
0.0
 11
9.783111
 21
0.742674
 31
0.0
  0
LINE
  5
856
330
1F
100
AcDbEntity
  8
1
  6
CONTINUOUS
370
50
 62
4
100
AcDbLine
 10
9.465874999999999
 20
0.548613
 30
0.0
 11
9.488925
 21
0.5531539999999999
 31
0.0
  0
LINE
  5
857
330
1F
100
AcDbEntity
  8
1
  6
CONTINUOUS
370
50
 62
4
100
AcDbLine
 10
10.785043
 20
-0.977931
 30
0.0
 11
10.823751
 21
-0.970004
 31
0.0
  0
LINE
  5
858
330
1F
100
AcDbEntity
  8
1
  6
CONTINUOUS
370
50
 62
4
100
AcDbLine
 10
10.823751
 20
-0.970004
 30
0.0
 11
10.862442
 21
-0.962007
 31
0.0
  0
LINE
  5
859
330
1F
100
AcDbEntity
  8
1
  6
CONTINUOUS
370
50
 62
4
100
AcDbLine
 10
10.862442
 20
-0.962007
 30
0.0
 11
10.901591
 21
-0.9538589999999999
 31
0.0
  0
LINE
  5
85A
330
1F
100
AcDbEntity
  8
1
  6
CONTINUOUS
370
50
 62
4
100
AcDbLine
 10
11.058763
 20
0.7432099999999999
 30
0.0
 11
11.188249
 21
0.770266
 31
0.0
  0
LINE
  5
85B
330
1F
100
AcDbEntity
  8
1
  6
CONTINUOUS
370
50
 62
4
100
AcDbLine
 10
10.901591
 20
-0.9538589999999999
 30
0.0
 11
10.941676
 21
-0.945477
 31
0.0
  0
LINE
  5
85C
330
1F
100
AcDbEntity
  8
1
  6
CONTINUOUS
370
50
 62
4
100
AcDbLine
 10
11.026565
 20
-0.9276789999999999
 30
0.0
 11
11.072323
 21
-0.918099
 31
0.0
  0
LINE
  5
85D
330
1F
100
AcDbEntity
  8
1
  6
CONTINUOUS
370
50
 62
4
100
AcDbLine
 10
10.941676
 20
-0.945477
 30
0.0
 11
10.983174
 21
-0.936778
 31
0.0
  0
LINE
  5
85E
330
1F
100
AcDbEntity
  8
1
  6
CONTINUOUS
370
50
 62
4
100
AcDbLine
 10
10.983174
 20
-0.936778
 30
0.0
 11
11.026565
 21
-0.9276789999999999
 31
0.0
  0
LINE
  5
85F
330
1F
100
AcDbEntity
  8
1
  6
CONTINUOUS
370
50
 62
4
100
AcDbLine
 10
11.072329
 20
-0.9181229999999999
 30
0.0
 11
11.109314
 21
-0.910061
 31
0.0
  0
LINE
  5
860
330
1F
100
AcDbEntity
  8
1
  6
CONTINUOUS
370
50
 62
4
100
AcDbLine
 10
11.246899
 20
0.245308
 30
0.0
 11
11.27951
 21
0.252487
 31
0.0
  0
LINE
  5
861
330
1F
100
AcDbEntity
  8
1
  6
CONTINUOUS
370
50
 62
4
100
AcDbLine
 10
9.443234
 20
0.5435829999999999
 30
0.0
 11
9.465874999999999
 21
0.548613
 31
0.0
  0
LINE
  5
862
330
1F
100
AcDbEntity
  8
1
  6
CONTINUOUS
370
50
 62
4
100
AcDbLine
 10
11.109314
 20
-0.910061
 30
0.0
 11
11.146497
 21
-0.901419
 31
0.0
  0
LINE
  5
863
330
1F
100
AcDbEntity
  8
1
  6
CONTINUOUS
370
50
 62
4
100
AcDbLine
 10
10.950695
 20
0.854533
 30
0.0
 11
11.001611
 21
0.8667279999999999
 31
0.0
  0
LINE
  5
864
330
1F
100
AcDbEntity
  8
1
  6
CONTINUOUS
370
50
 62
4
100
AcDbLine
 10
11.146497
 20
-0.901419
 30
0.0
 11
11.183366
 21
-0.892299
 31
0.0
  0
LINE
  5
865
330
1F
100
AcDbEntity
  8
1
  6
CONTINUOUS
370
50
 62
4
100
AcDbLine
 10
9.421144
 20
0.5380849999999999
 30
0.0
 11
9.443234
 21
0.5435829999999999
 31
0.0
  0
LINE
  5
866
330
1F
100
AcDbEntity
  8
1
  6
CONTINUOUS
370
50
 62
4
100
AcDbLine
 10
10.929276
 20
0.710793
 30
0.0
 11
11.058763
 21
0.7432099999999999
 31
0.0
  0
LINE
  5
867
330
1F
100
AcDbEntity
  8
1
  6
CONTINUOUS
370
50
 62
4
100
AcDbLine
 10
0.0
 20
-2.99995
 30
0.0
 11
7.899999999999999
 21
-0.97495
 31
0.0
  0
LINE
  5
868
330
1F
100
AcDbEntity
  8
1
  6
CONTINUOUS
370
50
 62
4
100
AcDbLine
 10
9.003964
 20
-0.622232
 30
0.0
 11
9.024925
 21
-0.616706
 31
0.0
  0
LINE
  5
869
330
1F
100
AcDbEntity
  8
1
  6
CONTINUOUS
370
50
 62
4
100
AcDbLine
 10
11.183366
 20
-0.892299
 30
0.0
 11
11.219268
 21
-0.882772
 31
0.0
  0
LINE
  5
86A
330
1F
100
AcDbEntity
  8
1
  6
CONTINUOUS
370
50
 62
4
100
AcDbLine
 10
9.39964
 20
0.5321239999999999
 30
0.0
 11
9.421144
 21
0.5380849999999999
 31
0.0
  0
LINE
  5
86B
330
1F
100
AcDbEntity
  8
1
  6
CONTINUOUS
370
50
 62
4
100
AcDbLine
 10
11.27951
 20
0.252487
 30
0.0
 11
11.311312
 21
0.261519
 31
0.0
  0
LINE
  5
86C
330
1F
100
AcDbEntity
  8
1
  6
CONTINUOUS
370
50
 62
4
100
AcDbLine
 10
11.219268
 20
-0.882772
 30
0.0
 11
11.254139
 21
-0.8727729999999999
 31
0.0
  0
LINE
  5
86D
330
1F
100
AcDbEntity
  8
1
  6
CONTINUOUS
370
50
 62
4
100
AcDbLine
 10
10.79979
 20
0.673418
 30
0.0
 11
10.929276
 21
0.710793
 31
0.0
  0
LINE
  5
86E
330
1F
100
AcDbEntity
  8
1
  6
CONTINUOUS
370
50
 62
4
100
AcDbLine
 10
10.900002
 20
0.839054
 30
0.0
 11
10.950695
 21
0.854533
 31
0.0
  0
LINE
  5
86F
330
1F
100
AcDbEntity
  8
1
  6
CONTINUOUS
370
50
 62
4
100
AcDbLine
 10
9.378757
 20
0.525705
 30
0.0
 11
9.39964
 21
0.5321239999999999
 31
0.0
  0
LINE
  5
870
330
1F
100
AcDbEntity
  8
1
  6
CONTINUOUS
370
50
 62
4
100
AcDbLine
 10
11.254139
 20
-0.8727729999999999
 30
0.0
 11
11.287954
 21
-0.862221
 31
0.0
  0
LINE
  5
871
330
1F
100
AcDbEntity
  8
1
  6
CONTINUOUS
370
50
 62
4
100
AcDbLine
 10
10.670308
 20
0.633012
 30
0.0
 11
10.79979
 21
0.673418
 31
0.0
  0
LINE
  5
872
330
1F
100
AcDbEntity
  8
1
  6
CONTINUOUS
370
50
 62
4
100
AcDbLine
 10
9.358528999999999
 20
0.518832
 30
0.0
 11
9.378757
 21
0.525705
 31
0.0
  0
LINE
  5
873
330
1F
100
AcDbEntity
  8
1
  6
CONTINUOUS
370
50
 62
4
100
AcDbLine
 10
11.287954
 20
-0.862221
 30
0.0
 11
11.32093
 21
-0.850927
 31
0.0
  0
LINE
  5
874
330
1F
100
AcDbEntity
  8
1
  6
CONTINUOUS
370
50
 62
4
100
AcDbLine
 10
11.311312
 20
0.261519
 30
0.0
 11
11.342362
 21
0.272193
 31
0.0
  0
LINE
  5
875
330
1F
100
AcDbEntity
  8
1
  6
CONTINUOUS
370
50
 62
4
100
AcDbLine
 10
10.823666
 20
0.812676
 30
0.0
 11
10.9
 21
0.839055
 31
0.0
  0
LINE
  5
876
330
1F
100
AcDbEntity
  8
1
  6
CONTINUOUS
370
50
 62
4
100
AcDbLine
 10
8.903487
 20
0.956422
 30
0.0
 11
8.910302999999999
 21
0.958781
 31
0.0
  0
LINE
  5
877
330
1F
100
AcDbEntity
  8
1
  6
CONTINUOUS
370
50
 62
4
100
AcDbLine
 10
9.024925
 20
-0.616706
 30
0.0
 11
9.044186999999999
 21
-0.6099169999999999
 31
0.0
  0
LINE
  5
878
330
1F
100
AcDbEntity
  8
1
  6
CONTINUOUS
370
50
 62
4
100
AcDbLine
 10
10.748522
 20
0.78555
 30
0.0
 11
10.823666
 21
0.812676
 31
0.0
  0
LINE
  5
879
330
1F
100
AcDbEntity
  8
1
  6
CONTINUOUS
370
50
 62
4
100
AcDbLine
 10
9.338994
 20
0.5115109999999999
 30
0.0
 11
9.358528999999999
 21
0.518832
 31
0.0
  0
LINE
  5
87A
330
1F
100
AcDbEntity
  8
1
  6
CONTINUOUS
370
50
 62
4
100
AcDbLine
 10
10.674741
 20
0.757841
 30
0.0
 11
10.748522
 21
0.78555
 31
0.0
  0
LINE
  5
87B
330
1F
100
AcDbEntity
  8
1
  6
CONTINUOUS
370
50
 62
4
100
AcDbLine
 10
11.32093
 20
-0.850927
 30
0.0
 11
11.353078
 21
-0.838735
 31
0.0
  0
LINE
  5
87C
330
1F
100
AcDbEntity
  8
1
  6
CONTINUOUS
370
50
 62
4
100
AcDbLine
 10
10.602495
 20
0.7297089999999999
 30
0.0
 11
10.674741
 21
0.757841
 31
0.0
  0
LINE
  5
87D
330
1F
100
AcDbEntity
  8
1
  6
CONTINUOUS
370
50
 62
4
100
AcDbLine
 10
11.342362
 20
0.272193
 30
0.0
 11
11.372626
 21
0.284279
 31
0.0
  0
LINE
  5
87E
330
1F
100
AcDbEntity
  8
1
  6
CONTINUOUS
370
50
 62
4
100
AcDbLine
 10
10.531957
 20
0.701318
 30
0.0
 11
10.602495
 21
0.7297089999999999
 31
0.0
  0
LINE
  5
87F
330
1F
100
AcDbEntity
  8
1
  6
CONTINUOUS
370
50
 62
4
100
AcDbLine
 10
9.320186
 20
0.503746
 30
0.0
 11
9.338994
 21
0.5115109999999999
 31
0.0
  0
LINE
  5
880
330
1F
100
AcDbEntity
  8
1
  6
CONTINUOUS
370
50
 62
4
100
AcDbLine
 10
10.463298
 20
0.672831
 30
0.0
 11
10.531957
 21
0.701318
 31
0.0
  0
LINE
  5
881
330
1F
100
AcDbEntity
  8
1
  6
CONTINUOUS
370
50
 62
4
100
AcDbLine
 10
11.353078
 20
-0.838735
 30
0.0
 11
11.384354
 21
-0.8255009999999999
 31
0.0
  0
LINE
  5
882
330
1F
100
AcDbEntity
  8
1
  6
CONTINUOUS
370
50
 62
4
100
AcDbLine
 10
11.372626
 20
0.284279
 30
0.0
 11
11.402066
 21
0.297549
 31
0.0
  0
LINE
  5
883
330
1F
100
AcDbEntity
  8
1
  6
CONTINUOUS
370
50
 62
4
100
AcDbLine
 10
9.302139
 20
0.495541
 30
0.0
 11
9.320186
 21
0.503746
 31
0.0
  0
LINE
  5
884
330
1F
100
AcDbEntity
  8
1
  6
CONTINUOUS
370
50
 62
4
100
AcDbLine
 10
9.044186999999999
 20
-0.6099169999999999
 30
0.0
 11
9.06185
 21
-0.6018249999999999
 31
0.0
  0
LINE
  5
885
330
1F
100
AcDbEntity
  8
1
  6
CONTINUOUS
370
50
 62
4
100
AcDbLine
 10
11.384354
 20
-0.8255009999999999
 30
0.0
 11
11.414716
 21
-0.811083
 31
0.0
  0
LINE
  5
886
330
1F
100
AcDbEntity
  8
1
  6
CONTINUOUS
370
50
 62
4
100
AcDbLine
 10
8.906934999999999
 20
-0.634891
 30
0.0
 11
8.917311
 21
-0.629957
 31
0.0
  0
LINE
  5
887
330
1F
100
AcDbEntity
  8
1
  6
CONTINUOUS
370
50
 62
4
100
AcDbLine
 10
11.402066
 20
0.297549
 30
0.0
 11
11.430641
 21
0.311772
 31
0.0
  0
LINE
  5
888
330
1F
100
AcDbEntity
  8
1
  6
CONTINUOUS
370
50
 62
4
100
AcDbLine
 10
9.284856999999999
 20
0.486884
 30
0.0
 11
9.302139
 21
0.495541
 31
0.0
  0
LINE
  5
889
330
1F
100
AcDbEntity
  8
1
  6
CONTINUOUS
370
50
 62
4
100
AcDbLine
 10
11.673163
 20
0.462533
 30
0.0
 11
11.687391
 21
0.469804
 31
0.0
  0
LINE
  5
88A
330
1F
100
AcDbEntity
  8
1
  6
CONTINUOUS
370
50
 62
4
100
AcDbLine
 10
11.414716
 20
-0.811083
 30
0.0
 11
11.444098
 21
-0.795349
 31
0.0
  0
LINE
  5
88B
330
1F
100
AcDbEntity
  8
1
  6
CONTINUOUS
370
50
 62
4
100
AcDbLine
 10
11.430641
 20
0.311772
 30
0.0
 11
11.458271
 21
0.326688
 31
0.0
  0
LINE
  5
88C
330
1F
100
AcDbEntity
  8
1
  6
CONTINUOUS
370
50
 62
4
100
AcDbLine
 10
9.268002
 20
0.477558
 30
0.0
 11
9.284856999999999
 21
0.486884
 31
0.0
  0
LINE
  5
88D
330
1F
100
AcDbEntity
  8
1
  6
CONTINUOUS
370
50
 62
4
100
AcDbLine
 10
11.657606
 20
0.453587
 30
0.0
 11
11.673163
 21
0.462533
 31
0.0
  0
LINE
  5
88E
330
1F
100
AcDbEntity
  8
1
  6
CONTINUOUS
370
50
 62
4
100
AcDbLine
 10
11.458271
 20
0.326688
 30
0.0
 11
11.48492
 21
0.342069
 31
0.0
  0
LINE
  5
88F
330
1F
100
AcDbEntity
  8
1
  6
CONTINUOUS
370
50
 62
4
100
AcDbLine
 10
9.06185
 20
-0.6018249999999999
 30
0.0
 11
9.078024
 21
-0.5923649999999999
 31
0.0
  0
LINE
  5
890
330
1F
100
AcDbEntity
  8
1
  6
CONTINUOUS
370
50
 62
4
100
AcDbLine
 10
11.444098
 20
-0.795349
 30
0.0
 11
11.472426
 21
-0.778176
 31
0.0
  0
LINE
  5
891
330
1F
100
AcDbEntity
  8
1
  6
CONTINUOUS
370
50
 62
4
100
AcDbLine
 10
11.48492
 20
0.342069
 30
0.0
 11
11.510568
 21
0.357693
 31
0.0
  0
LINE
  5
892
330
1F
100
AcDbEntity
  8
1
  6
CONTINUOUS
370
50
 62
4
100
AcDbLine
 10
9.251593
 20
0.467478
 30
0.0
 11
9.268002
 21
0.477558
 31
0.0
  0
LINE
  5
893
330
1F
100
AcDbEntity
  8
1
  6
CONTINUOUS
370
50
 62
4
100
AcDbLine
 10
11.64068
 20
0.443104
 30
0.0
 11
11.657606
 21
0.453587
 31
0.0
  0
LINE
  5
894
330
1F
100
AcDbEntity
  8
1
  6
CONTINUOUS
370
50
 62
4
100
AcDbLine
 10
11.510568
 20
0.357693
 30
0.0
 11
11.535192
 21
0.37334
 31
0.0
  0
LINE
  5
895
330
1F
100
AcDbEntity
  8
1
  6
CONTINUOUS
370
50
 62
4
100
AcDbLine
 10
11.622346
 20
0.431222
 30
0.0
 11
11.64068
 21
0.443104
 31
0.0
  0
LINE
  5
896
330
1F
100
AcDbEntity
  8
1
  6
CONTINUOUS
370
50
 62
4
100
AcDbLine
 10
11.535192
 20
0.37334
 30
0.0
 11
11.558775
 21
0.388787
 31
0.0
  0
LINE
  5
897
330
1F
100
AcDbEntity
  8
1
  6
CONTINUOUS
370
50
 62
4
100
AcDbLine
 10
11.602562
 20
0.418078
 30
0.0
 11
11.622346
 21
0.431222
 31
0.0
  0
LINE
  5
898
330
1F
100
AcDbEntity
  8
1
  6
CONTINUOUS
370
50
 62
4
100
AcDbLine
 10
11.558775
 20
0.388787
 30
0.0
 11
11.581292
 21
0.403813
 31
0.0
  0
LINE
  5
899
330
1F
100
AcDbEntity
  8
1
  6
CONTINUOUS
370
50
 62
4
100
AcDbLine
 10
11.581292
 20
0.403813
 30
0.0
 11
11.602562
 21
0.418078
 31
0.0
  0
LINE
  5
89A
330
1F
100
AcDbEntity
  8
1
  6
CONTINUOUS
370
50
 62
4
100
AcDbLine
 10
11.739125
 20
0.470564
 30
0.0
 11
11.745226
 21
0.474675
 31
0.0
  0
LINE
  5
89B
330
1F
100
AcDbEntity
  8
1
  6
CONTINUOUS
370
50
 62
4
100
AcDbLine
 10
9.235782
 20
0.45662
 30
0.0
 11
9.251593
 21
0.467478
 31
0.0
  0
LINE
  5
89C
330
1F
100
AcDbEntity
  8
1
  6
CONTINUOUS
370
50
 62
4
100
AcDbLine
 10
11.472426
 20
-0.778176
 30
0.0
 11
11.499675
 21
-0.7594179999999999
 31
0.0
  0
LINE
  5
89D
330
1F
100
AcDbEntity
  8
1
  6
CONTINUOUS
370
50
 62
4
100
AcDbLine
 10
9.078024
 20
-0.5923649999999999
 30
0.0
 11
9.092786
 21
-0.5814779999999999
 31
0.0
  0
LINE
  5
89E
330
1F
100
AcDbEntity
  8
1
  6
CONTINUOUS
370
50
 62
4
100
AcDbLine
 10
9.220716
 20
0.444959
 30
0.0
 11
9.235782
 21
0.45662
 31
0.0
  0
LINE
  5
89F
330
1F
100
AcDbEntity
  8
1
  6
CONTINUOUS
370
50
 62
4
100
AcDbLine
 10
11.499675
 20
-0.7594179999999999
 30
0.0
 11
11.525818
 21
-0.73893
 31
0.0
  0
LINE
  5
8A0
330
1F
100
AcDbEntity
  8
1
  6
CONTINUOUS
370
50
 62
4
100
AcDbLine
 10
9.206544
 20
0.432473
 30
0.0
 11
9.220716
 21
0.444959
 31
0.0
  0
LINE
  5
8A1
330
1F
100
AcDbEntity
  8
1
  6
CONTINUOUS
370
50
 62
4
100
AcDbLine
 10
11.525818
 20
-0.73893
 30
0.0
 11
11.554429
 21
-0.7131
 31
0.0
  0
LINE
  5
8A2
330
1F
100
AcDbEntity
  8
1
  6
CONTINUOUS
370
50
 62
4
100
AcDbLine
 10
9.092786
 20
-0.5814779999999999
 30
0.0
 11
9.106205
 21
-0.569109
 31
0.0
  0
LINE
  5
8A3
330
1F
100
AcDbEntity
  8
1
  6
CONTINUOUS
370
50
 62
4
100
AcDbLine
 10
9.193413999999999
 20
0.41913
 30
0.0
 11
9.206544
 21
0.432473
 31
0.0
  0
LINE
  5
8A4
330
1F
100
AcDbEntity
  8
1
  6
CONTINUOUS
370
50
 62
4
100
AcDbLine
 10
11.554429
 20
-0.7131
 30
0.0
 11
11.581517
 21
-0.684581
 31
0.0
  0
LINE
  5
8A5
330
1F
100
AcDbEntity
  8
1
  6
CONTINUOUS
370
50
 62
4
100
AcDbLine
 10
9.106205
 20
-0.569109
 30
0.0
 11
9.118112
 21
-0.5555089999999999
 31
0.0
  0
LINE
  5
8A6
330
1F
100
AcDbEntity
  8
1
  6
CONTINUOUS
370
50
 62
4
100
AcDbLine
 10
9.181467
 20
0.40488
 30
0.0
 11
9.193413999999999
 21
0.41913
 31
0.0
  0
LINE
  5
8A7
330
1F
100
AcDbEntity
  8
1
  6
CONTINUOUS
370
50
 62
4
100
AcDbLine
 10
11.581517
 20
-0.684581
 30
0.0
 11
11.606802
 21
-0.653478
 31
0.0
  0
LINE
  5
8A8
330
1F
100
AcDbEntity
  8
1
  6
CONTINUOUS
370
50
 62
4
100
AcDbLine
 10
9.118112
 20
-0.5555089999999999
 30
0.0
 11
9.128506999999999
 21
-0.54094
 31
0.0
  0
LINE
  5
8A9
330
1F
100
AcDbEntity
  8
1
  6
CONTINUOUS
370
50
 62
4
100
AcDbLine
 10
9.170887
 20
0.389703
 30
0.0
 11
9.181467
 21
0.40488
 31
0.0
  0
LINE
  5
8AA
330
1F
100
AcDbEntity
  8
1
  6
CONTINUOUS
370
50
 62
4
100
AcDbLine
 10
11.606802
 20
-0.653478
 30
0.0
 11
11.629965
 21
-0.62015
 31
0.0
  0
LINE
  5
8AB
330
1F
100
AcDbEntity
  8
1
  6
CONTINUOUS
370
50
 62
4
100
AcDbLine
 10
11.629965
 20
-0.62015
 30
0.0
 11
11.651071
 21
-0.584585
 31
0.0
  0
LINE
  5
8AC
330
1F
100
AcDbEntity
  8
1
  6
CONTINUOUS
370
50
 62
4
100
AcDbLine
 10
9.128506999999999
 20
-0.54094
 30
0.0
 11
9.13754
 21
-0.525555
 31
0.0
  0
LINE
  5
8AD
330
1F
100
AcDbEntity
  8
1
  6
CONTINUOUS
370
50
 62
4
100
AcDbLine
 10
11.745226
 20
0.474675
 30
0.0
 11
11.74896
 21
0.48127
 31
0.0
  0
LINE
  5
8AE
330
1F
100
AcDbEntity
  8
1
  6
CONTINUOUS
370
50
 62
4
100
AcDbLine
 10
9.161862
 20
0.373584
 30
0.0
 11
9.170887
 21
0.389703
 31
0.0
  0
LINE
  5
8AF
330
1F
100
AcDbEntity
  8
1
  6
CONTINUOUS
370
50
 62
4
100
AcDbLine
 10
11.651071
 20
-0.584585
 30
0.0
 11
11.67019
 21
-0.546766
 31
0.0
  0
LINE
  5
8B0
330
1F
100
AcDbEntity
  8
1
  6
CONTINUOUS
370
50
 62
4
100
AcDbLine
 10
9.13754
 20
-0.525555
 30
0.0
 11
9.145373
 21
-0.509469
 31
0.0
  0
LINE
  5
8B1
330
1F
100
AcDbEntity
  8
1
  6
CONTINUOUS
370
50
 62
4
100
AcDbLine
 10
11.687449
 20
-0.501362
 30
0.0
 11
11.689393
 21
-0.497273
 31
0.0
  0
LINE
  5
8B2
330
1F
100
AcDbEntity
  8
1
  6
CONTINUOUS
370
50
 62
4
100
AcDbLine
 10
11.689393
 20
-0.497273
 30
0.0
 11
11.691263
 21
-0.493206
 31
0.0
  0
LINE
  5
8B3
330
1F
100
AcDbEntity
  8
1
  6
CONTINUOUS
370
50
 62
4
100
AcDbLine
 10
11.691263
 20
-0.493206
 30
0.0
 11
11.69306
 21
-0.489163
 31
0.0
  0
LINE
  5
8B4
330
1F
100
AcDbEntity
  8
1
  6
CONTINUOUS
370
50
 62
4
100
AcDbLine
 10
11.67019
 20
-0.546766
 30
0.0
 11
11.687391
 21
-0.5066769999999999
 31
0.0
  0
LINE
  5
8B5
330
1F
100
AcDbEntity
  8
1
  6
CONTINUOUS
370
50
 62
4
100
AcDbLine
 10
11.69306
 20
-0.489163
 30
0.0
 11
11.694782
 21
-0.485144
 31
0.0
  0
LINE
  5
8B6
330
1F
100
AcDbEntity
  8
1
  6
CONTINUOUS
370
50
 62
4
100
AcDbLine
 10
9.154608999999999
 20
0.356582
 30
0.0
 11
9.161862
 21
0.373584
 31
0.0
  0
LINE
  5
8B7
330
1F
100
AcDbEntity
  8
1
  6
CONTINUOUS
370
50
 62
4
100
AcDbLine
 10
11.694782
 20
-0.485144
 30
0.0
 11
11.696431
 21
-0.48115
 31
0.0
  0
LINE
  5
8B8
330
1F
100
AcDbEntity
  8
1
  6
CONTINUOUS
370
50
 62
4
100
AcDbLine
 10
9.145373
 20
-0.509469
 30
0.0
 11
9.152322999999999
 21
-0.492351
 31
0.0
  0
LINE
  5
8B9
330
1F
100
AcDbEntity
  8
1
  6
CONTINUOUS
370
50
 62
4
100
AcDbLine
 10
8.903483
 20
-0.6435649999999999
 30
0.0
 11
8.906934999999999
 21
-0.634891
 31
0.0
  0
LINE
  5
8BA
330
1F
100
AcDbEntity
  8
1
  6
CONTINUOUS
370
50
 62
4
100
AcDbLine
 10
11.696431
 20
-0.48115
 30
0.0
 11
11.698006
 21
-0.47718
 31
0.0
  0
LINE
  5
8BB
330
1F
100
AcDbEntity
  8
1
  6
CONTINUOUS
370
50
 62
4
100
AcDbLine
 10
11.698006
 20
-0.47718
 30
0.0
 11
11.699507
 21
-0.473236
 31
0.0
  0
LINE
  5
8BC
330
1F
100
AcDbEntity
  8
1
  6
CONTINUOUS
370
50
 62
4
100
AcDbLine
 10
9.152322999999999
 20
-0.492351
 30
0.0
 11
9.1585
 21
-0.474106
 31
0.0
  0
LINE
  5
8BD
330
1F
100
AcDbEntity
  8
1
  6
CONTINUOUS
370
50
 62
4
100
AcDbLine
 10
9.149367999999999
 20
0.339008
 30
0.0
 11
9.154608999999999
 21
0.356582
 31
0.0
  0
LINE
  5
8BE
330
1F
100
AcDbEntity
  8
1
  6
CONTINUOUS
370
50
 62
4
100
AcDbLine
 10
11.739125
 20
-0.471563
 30
0.0
 11
11.745193
 21
-0.450101
 31
0.0
  0
LINE
  5
8BF
330
1F
100
AcDbEntity
  8
1
  6
CONTINUOUS
370
50
 62
4
100
AcDbLine
 10
9.1585
 20
-0.474106
 30
0.0
 11
9.163952
 21
-0.454761
 31
0.0
  0
LINE
  5
8C0
330
1F
100
AcDbEntity
  8
1
  6
CONTINUOUS
370
50
 62
4
100
AcDbLine
 10
9.9
 20
-0.037233
 30
0.0
 11
9.900075
 21
-0.036954
 31
0.0
  0
LINE
  5
8C1
330
1F
100
AcDbEntity
  8
1
  6
CONTINUOUS
370
50
 62
4
100
AcDbLine
 10
9.163952
 20
-0.454761
 30
0.0
 11
9.168728999999999
 21
-0.434343
 31
0.0
  0
LINE
  5
8C2
330
1F
100
AcDbEntity
  8
1
  6
CONTINUOUS
370
50
 62
4
100
AcDbLine
 10
9.168728999999999
 20
-0.434343
 30
0.0
 11
9.172877
 21
-0.41288
 31
0.0
  0
LINE
  5
8C3
330
1F
100
AcDbEntity
  8
1
  6
CONTINUOUS
370
50
 62
4
100
AcDbLine
 10
11.745193
 20
-0.450101
 30
0.0
 11
11.748924
 21
-0.429938
 31
0.0
  0
LINE
  5
8C4
330
1F
100
AcDbEntity
  8
1
  6
CONTINUOUS
370
50
 62
4
100
AcDbLine
 10
9.146201
 20
0.320915
 30
0.0
 11
9.149367999999999
 21
0.339008
 31
0.0
  0
LINE
  5
8C5
330
1F
100
AcDbEntity
  8
1
  6
CONTINUOUS
370
50
 62
4
100
AcDbLine
 10
11.74896
 20
0.48127
 30
0.0
 11
11.750398
 21
0.490085
 31
0.0
  0
LINE
  5
8C6
330
1F
100
AcDbEntity
  8
1
  6
CONTINUOUS
370
50
 62
4
100
AcDbLine
 10
9.172877
 20
-0.41288
 30
0.0
 11
9.176449999999999
 21
-0.390374
 31
0.0
  0
LINE
  5
8C7
330
1F
100
AcDbEntity
  8
1
  6
CONTINUOUS
370
50
 62
4
100
AcDbLine
 10
9.901002
 20
0.7862819999999999
 30
0.0
 11
9.901216999999999
 21
0.7877409999999999
 31
0.0
  0
LINE
  5
8C8
330
1F
100
AcDbEntity
  8
1
  6
CONTINUOUS
370
50
 62
4
100
AcDbLine
 10
9.901002
 20
0.786281
 30
0.0
 11
9.901216999999999
 21
0.7877409999999999
 31
0.0
  0
LINE
  5
8C9
330
1F
100
AcDbEntity
  8
1
  6
CONTINUOUS
370
50
 62
4
100
AcDbLine
 10
9.176449999999999
 20
-0.390374
 30
0.0
 11
9.179511
 21
-0.366643
 31
0.0
  0
LINE
  5
8CA
330
1F
100
AcDbEntity
  8
1
  6
CONTINUOUS
370
50
 62
4
100
AcDbLine
 10
9.179511
 20
-0.366643
 30
0.0
 11
9.182083
 21
-0.341669
 31
0.0
  0
LINE
  5
8CB
330
1F
100
AcDbEntity
  8
1
  6
CONTINUOUS
370
50
 62
4
100
AcDbLine
 10
9.9
 20
0.489332
 30
0.0
 11
9.900031
 21
0.489689
 31
0.0
  0
LINE
  5
8CC
330
1F
100
AcDbEntity
  8
1
  6
CONTINUOUS
370
50
 62
4
100
AcDbLine
 10
9.182083
 20
-0.341669
 30
0.0
 11
9.184178
 21
-0.315478
 31
0.0
  0
LINE
  5
8CD
330
1F
100
AcDbEntity
  8
1
  6
CONTINUOUS
370
50
 62
4
100
AcDbLine
 10
11.748924
 20
-0.429938
 30
0.0
 11
11.75039
 21
-0.411184
 31
0.0
  0
LINE
  5
8CE
330
1F
100
AcDbEntity
  8
1
  6
CONTINUOUS
370
50
 62
4
100
AcDbLine
 10
9.184178
 20
-0.315478
 30
0.0
 11
9.185808999999999
 21
-0.288095
 31
0.0
  0
LINE
  5
8CF
330
1F
100
AcDbEntity
  8
1
  6
CONTINUOUS
370
50
 62
4
100
AcDbLine
 10
9.145147999999999
 20
0.30232
 30
0.0
 11
9.146201
 21
0.320915
 31
0.0
  0
LINE
  5
8D0
330
1F
100
AcDbEntity
  8
1
  6
CONTINUOUS
370
50
 62
4
100
AcDbLine
 10
9.900789999999999
 20
0.7818069999999999
 30
0.0
 11
9.901002
 21
0.7862819999999999
 31
0.0
  0
LINE
  5
8D1
330
1F
100
AcDbEntity
  8
1
  6
CONTINUOUS
370
50
 62
4
100
AcDbLine
 10
9.900791
 20
0.7818149999999999
 30
0.0
 11
9.901002
 21
0.786281
 31
0.0
  0
LINE
  5
8D2
330
1F
100
AcDbEntity
  8
1
  6
CONTINUOUS
370
50
 62
4
100
AcDbLine
 10
9.185808999999999
 20
-0.288095
 30
0.0
 11
9.186988
 21
-0.259546
 31
0.0
  0
LINE
  5
8D3
330
1F
100
AcDbEntity
  8
1
  6
CONTINUOUS
370
50
 62
4
100
AcDbLine
 10
9.900585
 20
0.7743519999999999
 30
0.0
 11
9.900791
 21
0.7818149999999999
 31
0.0
  0
LINE
  5
8D4
330
1F
100
AcDbEntity
  8
1
  6
CONTINUOUS
370
50
 62
4
100
AcDbLine
 10
9.900584
 20
0.774327
 30
0.0
 11
9.900789999999999
 21
0.7818069999999999
 31
0.0
  0
LINE
  5
8D5
330
1F
100
AcDbEntity
  8
1
  6
CONTINUOUS
370
50
 62
4
100
AcDbLine
 10
9.186988
 20
-0.259546
 30
0.0
 11
9.187726
 21
-0.229857
 31
0.0
  0
LINE
  5
8D6
330
1F
100
AcDbEntity
  8
1
  6
CONTINUOUS
370
50
 62
4
100
AcDbLine
 10
9.900383
 20
0.763895
 30
0.0
 11
9.900584
 21
0.774327
 31
0.0
  0
LINE
  5
8D7
330
1F
100
AcDbEntity
  8
1
  6
CONTINUOUS
370
50
 62
4
100
AcDbLine
 10
9.900383999999999
 20
0.763906
 30
0.0
 11
9.900585
 21
0.7743519999999999
 31
0.0
  0
LINE
  5
8D8
330
1F
100
AcDbEntity
  8
1
  6
CONTINUOUS
370
50
 62
4
100
AcDbLine
 10
9.900188
 20
0.750536
 30
0.0
 11
9.900383999999999
 21
0.763906
 31
0.0
  0
LINE
  5
8D9
330
1F
100
AcDbEntity
  8
1
  6
CONTINUOUS
370
50
 62
4
100
AcDbLine
 10
9.900188
 20
0.7505539999999999
 30
0.0
 11
9.900383
 21
0.763895
 31
0.0
  0
LINE
  5
8DA
330
1F
100
AcDbEntity
  8
1
  6
CONTINUOUS
370
50
 62
4
100
AcDbLine
 10
11.687411
 20
-0.504802
 30
0.0
 11
11.687419
 21
-0.50417
 31
0.0
  0
LINE
  5
8DB
330
1F
100
AcDbEntity
  8
1
  6
CONTINUOUS
370
50
 62
4
100
AcDbLine
 10
11.687432
 20
-0.502898
 30
0.0
 11
11.687438
 21
-0.502388
 31
0.0
  0
LINE
  5
8DC
330
1F
100
AcDbEntity
  8
1
  6
CONTINUOUS
370
50
 62
4
100
AcDbLine
 10
11.687438
 20
-0.502388
 30
0.0
 11
11.687444
 21
-0.501876
 31
0.0
  0
LINE
  5
8DD
330
1F
100
AcDbEntity
  8
1
  6
CONTINUOUS
370
50
 62
4
100
AcDbLine
 10
11.687444
 20
-0.501876
 30
0.0
 11
11.687447
 21
-0.5016189999999999
 31
0.0
  0
LINE
  5
8DE
330
1F
100
AcDbEntity
  8
1
  6
CONTINUOUS
370
50
 62
4
100
AcDbLine
 10
9.9
 20
0.734347
 30
0.0
 11
9.900188
 21
0.7505539999999999
 31
0.0
  0
LINE
  5
8DF
330
1F
100
AcDbEntity
  8
1
  6
CONTINUOUS
370
50
 62
4
100
AcDbLine
 10
9.9
 20
0.7342989999999999
 30
0.0
 11
9.900188
 21
0.750536
 31
0.0
  0
LINE
  5
8E0
330
1F
100
AcDbEntity
  8
1
  6
CONTINUOUS
370
50
 62
4
100
AcDbLine
 10
11.687391
 20
-0.506678
 30
0.0
 11
11.687398
 21
-0.506055
 31
0.0
  0
LINE
  5
8E1
330
1F
100
AcDbEntity
  8
1
  6
CONTINUOUS
370
50
 62
4
100
AcDbLine
 10
11.687398
 20
-0.506055
 30
0.0
 11
11.687405
 21
-0.5054299999999999
 31
0.0
  0
LINE
  5
8E2
330
1F
100
AcDbEntity
  8
1
  6
CONTINUOUS
370
50
 62
4
100
AcDbLine
 10
11.687419
 20
-0.50417
 30
0.0
 11
11.687426
 21
-0.503536
 31
0.0
  0
LINE
  5
8E3
330
1F
100
AcDbEntity
  8
1
  6
CONTINUOUS
370
50
 62
4
100
AcDbLine
 10
11.687411
 20
0.472074
 30
0.0
 11
11.687419
 21
0.472825
 31
0.0
  0
LINE
  5
8E4
330
1F
100
AcDbEntity
  8
1
  6
CONTINUOUS
370
50
 62
4
100
AcDbLine
 10
11.687441
 20
0.475205
 30
0.0
 11
11.687444
 21
0.475499
 31
0.0
  0
LINE
  5
8E5
330
1F
100
AcDbEntity
  8
1
  6
CONTINUOUS
370
50
 62
4
100
AcDbLine
 10
11.687438
 20
0.47491
 30
0.0
 11
11.687441
 21
0.475205
 31
0.0
  0
LINE
  5
8E6
330
1F
100
AcDbEntity
  8
1
  6
CONTINUOUS
370
50
 62
4
100
AcDbLine
 10
11.687444
 20
0.475499
 30
0.0
 11
11.687447
 21
0.475794
 31
0.0
  0
LINE
  5
8E7
330
1F
100
AcDbEntity
  8
1
  6
CONTINUOUS
370
50
 62
4
100
AcDbLine
 10
11.687432
 20
0.474318
 30
0.0
 11
11.687438
 21
0.47491
 31
0.0
  0
LINE
  5
8E8
330
1F
100
AcDbEntity
  8
1
  6
CONTINUOUS
370
50
 62
4
100
AcDbLine
 10
9.187726
 20
-0.229857
 30
0.0
 11
9.188037999999999
 21
-0.199054
 31
0.0
  0
LINE
  5
8E9
330
1F
100
AcDbEntity
  8
1
  6
CONTINUOUS
370
50
 62
4
100
AcDbLine
 10
11.687405
 20
-0.5054299999999999
 30
0.0
 11
11.687411
 21
-0.504802
 31
0.0
  0
LINE
  5
8EA
330
1F
100
AcDbEntity
  8
1
  6
CONTINUOUS
370
50
 62
4
100
AcDbLine
 10
11.687426
 20
-0.503536
 30
0.0
 11
11.687432
 21
-0.502898
 31
0.0
  0
LINE
  5
8EB
330
1F
100
AcDbEntity
  8
1
  6
CONTINUOUS
370
50
 62
4
100
AcDbLine
 10
11.687419
 20
0.472825
 30
0.0
 11
11.687426
 21
0.473573
 31
0.0
  0
LINE
  5
8EC
330
1F
100
AcDbEntity
  8
1
  6
CONTINUOUS
370
50
 62
4
100
AcDbLine
 10
11.687398
 20
0.470564
 30
0.0
 11
11.687405
 21
0.471321
 31
0.0
  0
LINE
  5
8ED
330
1F
100
AcDbEntity
  8
1
  6
CONTINUOUS
370
50
 62
4
100
AcDbLine
 10
11.687391
 20
0.469805
 30
0.0
 11
11.687398
 21
0.470564
 31
0.0
  0
LINE
  5
8EE
330
1F
100
AcDbEntity
  8
1
  6
CONTINUOUS
370
50
 62
4
100
AcDbLine
 10
11.687426
 20
0.473573
 30
0.0
 11
11.687432
 21
0.474318
 31
0.0
  0
LINE
  5
8EF
330
1F
100
AcDbEntity
  8
1
  6
CONTINUOUS
370
50
 62
4
100
AcDbLine
 10
11.687405
 20
0.471321
 30
0.0
 11
11.687411
 21
0.472074
 31
0.0
  0
LINE
  5
8F0
330
1F
100
AcDbEntity
  8
1
  6
CONTINUOUS
370
50
 62
4
100
AcDbLine
 10
11.687447
 20
-0.5016189999999999
 30
0.0
 11
11.687449
 21
-0.501362
 31
0.0
  0
LINE
  5
8F1
330
1F
100
AcDbEntity
  8
1
  6
CONTINUOUS
370
50
 62
4
100
AcDbLine
 10
11.687447
 20
0.475794
 30
0.0
 11
11.687449
 21
0.476087
 31
0.0
  0
LINE
  5
8F2
330
1F
100
AcDbEntity
  8
1
  6
CONTINUOUS
370
50
 62
4
100
AcDbLine
 10
9.904316999999999
 20
-0.038603
 30
0.0
 11
9.904349999999999
 21
-0.033206
 31
0.0
  0
LINE
  5
8F3
330
1F
100
AcDbEntity
  8
1
  6
CONTINUOUS
370
50
 62
4
100
AcDbLine
 10
9.904316999999999
 20
-0.038603
 30
0.0
 11
9.904349999999999
 21
-0.033204
 31
0.0
  0
LINE
  5
8F4
330
1F
100
AcDbEntity
  8
1
  6
CONTINUOUS
370
50
 62
4
100
AcDbLine
 10
9.904349999999999
 20
-0.033206
 30
0.0
 11
9.904382
 21
-0.027769
 31
0.0
  0
LINE
  5
8F5
330
1F
100
AcDbEntity
  8
1
  6
CONTINUOUS
370
50
 62
4
100
AcDbLine
 10
9.904349999999999
 20
-0.033204
 30
0.0
 11
9.904382
 21
-0.027766
 31
0.0
  0
LINE
  5
8F6
330
1F
100
AcDbEntity
  8
1
  6
CONTINUOUS
370
50
 62
4
100
AcDbLine
 10
9.9
 20
-0.948568
 30
0.0
 11
9.900198
 21
-0.914257
 31
0.0
  0
LINE
  5
8F7
330
1F
100
AcDbEntity
  8
1
  6
CONTINUOUS
370
50
 62
4
100
AcDbLine
 10
9.9
 20
-0.9484819999999999
 30
0.0
 11
9.900197
 21
-0.914249
 31
0.0
  0
LINE
  5
8F8
330
1F
100
AcDbEntity
  8
1
  6
CONTINUOUS
370
50
 62
4
100
AcDbLine
 10
9.900197
 20
-0.914249
 30
0.0
 11
9.900400999999999
 21
-0.877598
 31
0.0
  0
LINE
  5
8F9
330
1F
100
AcDbEntity
  8
1
  6
CONTINUOUS
370
50
 62
4
100
AcDbLine
 10
9.900198
 20
-0.914257
 30
0.0
 11
9.900402
 21
-0.8774879999999999
 31
0.0
  0
LINE
  5
8FA
330
1F
100
AcDbEntity
  8
1
  6
CONTINUOUS
370
50
 62
4
100
AcDbLine
 10
9.904382
 20
-0.027769
 30
0.0
 11
9.904411999999999
 21
-0.022291
 31
0.0
  0
LINE
  5
8FB
330
1F
100
AcDbEntity
  8
1
  6
CONTINUOUS
370
50
 62
4
100
AcDbLine
 10
9.904382
 20
-0.027766
 30
0.0
 11
9.904411999999999
 21
-0.022287
 31
0.0
  0
LINE
  5
8FC
330
1F
100
AcDbEntity
  8
1
  6
CONTINUOUS
370
50
 62
4
100
AcDbLine
 10
9.900400999999999
 20
-0.877598
 30
0.0
 11
9.900611999999999
 21
-0.838633
 31
0.0
  0
LINE
  5
8FD
330
1F
100
AcDbEntity
  8
1
  6
CONTINUOUS
370
50
 62
4
100
AcDbLine
 10
9.900402
 20
-0.8774879999999999
 30
0.0
 11
9.900613
 21
-0.838413
 31
0.0
  0
LINE
  5
8FE
330
1F
100
AcDbEntity
  8
1
  6
CONTINUOUS
370
50
 62
4
100
AcDbLine
 10
9.904411999999999
 20
-0.022287
 30
0.0
 11
9.904441
 21
-0.016771
 31
0.0
  0
LINE
  5
8FF
330
1F
100
AcDbEntity
  8
1
  6
CONTINUOUS
370
50
 62
4
100
AcDbLine
 10
9.904411999999999
 20
-0.022291
 30
0.0
 11
9.904441
 21
-0.016774
 31
0.0
  0
LINE
  5
900
330
1F
100
AcDbEntity
  8
1
  6
CONTINUOUS
370
50
 62
4
100
AcDbLine
 10
9.900613
 20
-0.838413
 30
0.0
 11
9.900829
 21
-0.7972779999999999
 31
0.0
  0
LINE
  5
901
330
1F
100
AcDbEntity
  8
1
  6
CONTINUOUS
370
50
 62
4
100
AcDbLine
 10
9.900611999999999
 20
-0.838633
 30
0.0
 11
9.900827999999999
 21
-0.797468
 31
0.0
  0
LINE
  5
902
330
1F
100
AcDbEntity
  8
1
  6
CONTINUOUS
370
50
 62
4
100
AcDbLine
 10
9.900829
 20
-0.7972779999999999
 30
0.0
 11
9.901052
 21
-0.7542179999999999
 31
0.0
  0
LINE
  5
903
330
1F
100
AcDbEntity
  8
1
  6
CONTINUOUS
370
50
 62
4
100
AcDbLine
 10
9.900827999999999
 20
-0.797468
 30
0.0
 11
9.90105
 21
-0.7543989999999999
 31
0.0
  0
LINE
  5
904
330
1F
100
AcDbEntity
  8
1
  6
CONTINUOUS
370
50
 62
4
100
AcDbLine
 10
9.90105
 20
-0.7543989999999999
 30
0.0
 11
9.901277
 21
-0.709633
 31
0.0
  0
LINE
  5
905
330
1F
100
AcDbEntity
  8
1
  6
CONTINUOUS
370
50
 62
4
100
AcDbLine
 10
9.904441
 20
-0.016774
 30
0.0
 11
9.904468999999999
 21
-0.01122
 31
0.0
  0
LINE
  5
906
330
1F
100
AcDbEntity
  8
1
  6
CONTINUOUS
370
50
 62
4
100
AcDbLine
 10
9.904441
 20
-0.016771
 30
0.0
 11
9.904468999999999
 21
-0.011217
 31
0.0
  0
LINE
  5
907
330
1F
100
AcDbEntity
  8
1
  6
CONTINUOUS
370
50
 62
4
100
AcDbLine
 10
9.901052
 20
-0.7542179999999999
 30
0.0
 11
9.901278
 21
-0.709365
 31
0.0
  0
LINE
  5
908
330
1F
100
AcDbEntity
  8
1
  6
CONTINUOUS
370
50
 62
4
100
AcDbLine
 10
9.901278
 20
-0.709365
 30
0.0
 11
9.901508999999999
 21
-0.662847
 31
0.0
  0
LINE
  5
909
330
1F
100
AcDbEntity
  8
1
  6
CONTINUOUS
370
50
 62
4
100
AcDbLine
 10
9.901277
 20
-0.709633
 30
0.0
 11
9.901506
 21
-0.663311
 31
0.0
  0
LINE
  5
90A
330
1F
100
AcDbEntity
  8
1
  6
CONTINUOUS
370
50
 62
4
100
AcDbLine
 10
9.901508999999999
 20
-0.662847
 30
0.0
 11
9.901743999999999
 21
-0.614943
 31
0.0
  0
LINE
  5
90B
330
1F
100
AcDbEntity
  8
1
  6
CONTINUOUS
370
50
 62
4
100
AcDbLine
 10
9.901506
 20
-0.663311
 30
0.0
 11
9.90174
 21
-0.6155729999999999
 31
0.0
  0
LINE
  5
90C
330
1F
100
AcDbEntity
  8
1
  6
CONTINUOUS
370
50
 62
4
100
AcDbLine
 10
9.90174
 20
-0.6155729999999999
 30
0.0
 11
9.901978
 21
-0.56656
 31
0.0
  0
LINE
  5
90D
330
1F
100
AcDbEntity
  8
1
  6
CONTINUOUS
370
50
 62
4
100
AcDbLine
 10
9.901743999999999
 20
-0.614943
 30
0.0
 11
9.901981
 21
-0.565916
 31
0.0
  0
LINE
  5
90E
330
1F
100
AcDbEntity
  8
1
  6
CONTINUOUS
370
50
 62
4
100
AcDbLine
 10
9.901981
 20
-0.565916
 30
0.0
 11
9.90222
 21
-0.515915
 31
0.0
  0
LINE
  5
90F
330
1F
100
AcDbEntity
  8
1
  6
CONTINUOUS
370
50
 62
4
100
AcDbLine
 10
9.901978
 20
-0.56656
 30
0.0
 11
9.902217
 21
-0.516412
 31
0.0
  0
LINE
  5
910
330
1F
100
AcDbEntity
  8
1
  6
CONTINUOUS
370
50
 62
4
100
AcDbLine
 10
9.90222
 20
-0.515915
 30
0.0
 11
9.902460999999999
 21
-0.465094
 31
0.0
  0
LINE
  5
911
330
1F
100
AcDbEntity
  8
1
  6
CONTINUOUS
370
50
 62
4
100
AcDbLine
 10
9.902217
 20
-0.516412
 30
0.0
 11
9.902458
 21
-0.465437
 31
0.0
  0
LINE
  5
912
330
1F
100
AcDbEntity
  8
1
  6
CONTINUOUS
370
50
 62
4
100
AcDbLine
 10
9.902458
 20
-0.465437
 30
0.0
 11
9.9027
 21
-0.4139
 31
0.0
  0
LINE
  5
913
330
1F
100
AcDbEntity
  8
1
  6
CONTINUOUS
370
50
 62
4
100
AcDbLine
 10
9.902460999999999
 20
-0.465094
 30
0.0
 11
9.902702
 21
-0.413602
 31
0.0
  0
LINE
  5
914
330
1F
100
AcDbEntity
  8
1
  6
CONTINUOUS
370
50
 62
4
100
AcDbLine
 10
9.9027
 20
-0.4139
 30
0.0
 11
9.902942
 21
-0.361956
 31
0.0
  0
LINE
  5
915
330
1F
100
AcDbEntity
  8
1
  6
CONTINUOUS
370
50
 62
4
100
AcDbLine
 10
9.902702
 20
-0.413602
 30
0.0
 11
9.902944
 21
-0.361591
 31
0.0
  0
LINE
  5
916
330
1F
100
AcDbEntity
  8
1
  6
CONTINUOUS
370
50
 62
4
100
AcDbLine
 10
9.904468999999999
 20
-0.01122
 30
0.0
 11
9.904494999999999
 21
-0.005628
 31
0.0
  0
LINE
  5
917
330
1F
100
AcDbEntity
  8
1
  6
CONTINUOUS
370
50
 62
4
100
AcDbLine
 10
9.904494
 20
-0.005626
 30
0.0
 11
9.90452
 21
0.0
 31
0.0
  0
LINE
  5
918
330
1F
100
AcDbEntity
  8
1
  6
CONTINUOUS
370
50
 62
4
100
AcDbLine
 10
9.902942
 20
-0.361956
 30
0.0
 11
9.903182
 21
-0.30976
 31
0.0
  0
LINE
  5
919
330
1F
100
AcDbEntity
  8
1
  6
CONTINUOUS
370
50
 62
4
100
AcDbLine
 10
9.902944
 20
-0.361591
 30
0.0
 11
9.903184
 21
-0.309339
 31
0.0
  0
LINE
  5
91A
330
1F
100
AcDbEntity
  8
1
  6
CONTINUOUS
370
50
 62
4
100
AcDbLine
 10
9.903184
 20
-0.309339
 30
0.0
 11
9.903421
 21
-0.257194
 31
0.0
  0
LINE
  5
91B
330
1F
100
AcDbEntity
  8
1
  6
CONTINUOUS
370
50
 62
4
100
AcDbLine
 10
9.903182
 20
-0.30976
 30
0.0
 11
9.903419
 21
-0.257488
 31
0.0
  0
LINE
  5
91C
330
1F
100
AcDbEntity
  8
1
  6
CONTINUOUS
370
50
 62
4
100
AcDbLine
 10
9.903421
 20
-0.257194
 30
0.0
 11
9.903654999999999
 21
-0.205314
 31
0.0
  0
LINE
  5
91D
330
1F
100
AcDbEntity
  8
1
  6
CONTINUOUS
370
50
 62
4
100
AcDbLine
 10
9.903419
 20
-0.257488
 30
0.0
 11
9.903653
 21
-0.205476
 31
0.0
  0
LINE
  5
91E
330
1F
100
AcDbEntity
  8
1
  6
CONTINUOUS
370
50
 62
4
100
AcDbLine
 10
9.904468999999999
 20
-0.011217
 30
0.0
 11
9.904494
 21
-0.005626
 31
0.0
  0
LINE
  5
91F
330
1F
100
AcDbEntity
  8
1
  6
CONTINUOUS
370
50
 62
4
100
AcDbLine
 10
9.904494999999999
 20
-0.005628
 30
0.0
 11
9.90452
 21
0.0
 31
0.0
  0
LINE
  5
920
330
1F
100
AcDbEntity
  8
1
  6
CONTINUOUS
370
50
 62
4
100
AcDbLine
 10
9.903653
 20
-0.205476
 30
0.0
 11
9.903881
 21
-0.153922
 31
0.0
  0
LINE
  5
921
330
1F
100
AcDbEntity
  8
1
  6
CONTINUOUS
370
50
 62
4
100
AcDbLine
 10
9.903654999999999
 20
-0.205314
 30
0.0
 11
9.903882
 21
-0.153851
 31
0.0
  0
LINE
  5
922
330
1F
100
AcDbEntity
  8
1
  6
CONTINUOUS
370
50
 62
4
100
AcDbLine
 10
9.903881
 20
-0.153922
 30
0.0
 11
9.904103
 21
-0.102978
 31
0.0
  0
LINE
  5
923
330
1F
100
AcDbEntity
  8
1
  6
CONTINUOUS
370
50
 62
4
100
AcDbLine
 10
9.903882
 20
-0.153851
 30
0.0
 11
9.904103
 21
-0.102962
 31
0.0
  0
LINE
  5
924
330
1F
100
AcDbEntity
  8
1
  6
CONTINUOUS
370
50
 62
4
100
AcDbLine
 10
9.904103
 20
-0.102962
 30
0.0
 11
9.904316
 21
-0.0528
 31
0.0
  0
LINE
  5
925
330
1F
100
AcDbEntity
  8
1
  6
CONTINUOUS
370
50
 62
4
100
AcDbLine
 10
9.904103
 20
-0.102978
 30
0.0
 11
9.904316
 21
-0.0528
 31
0.0
  0
LINE
  5
926
330
1F
100
AcDbEntity
  8
1
  6
CONTINUOUS
370
50
 62
4
100
AcDbLine
 10
9.90452
 20
0.0
 30
0.0
 11
9.904615999999999
 21
0.026832
 31
0.0
  0
LINE
  5
927
330
1F
100
AcDbEntity
  8
1
  6
CONTINUOUS
370
50
 62
4
100
AcDbLine
 10
9.90452
 20
0.0
 30
0.0
 11
9.904615
 21
0.026804
 31
0.0
  0
LINE
  5
928
330
1F
100
AcDbEntity
  8
1
  6
CONTINUOUS
370
50
 62
4
100
AcDbLine
 10
9.904615999999999
 20
0.026832
 30
0.0
 11
9.904679
 21
0.054332
 31
0.0
  0
LINE
  5
929
330
1F
100
AcDbEntity
  8
1
  6
CONTINUOUS
370
50
 62
4
100
AcDbLine
 10
9.904615
 20
0.026804
 30
0.0
 11
9.904677
 21
0.054262
 31
0.0
  0
LINE
  5
92A
330
1F
100
AcDbEntity
  8
1
  6
CONTINUOUS
370
50
 62
4
100
AcDbLine
 10
9.904677
 20
0.054262
 30
0.0
 11
9.904706
 21
0.082269
 31
0.0
  0
LINE
  5
92B
330
1F
100
AcDbEntity
  8
1
  6
CONTINUOUS
370
50
 62
4
100
AcDbLine
 10
9.904679
 20
0.054332
 30
0.0
 11
9.904707
 21
0.082397
 31
0.0
  0
LINE
  5
92C
330
1F
100
AcDbEntity
  8
1
  6
CONTINUOUS
370
50
 62
4
100
AcDbLine
 10
0.0
 20
-2.99995
 30
0.0
 11
0.0
 21
2.99995
 31
0.0
  0
LINE
  5
92D
330
1F
100
AcDbEntity
  8
1
  6
CONTINUOUS
370
50
 62
4
100
AcDbLine
 10
7.899999999999999
 20
-0.97495
 30
0.0
 11
7.899999999999999
 21
0.97495
 31
0.0
  0
LINE
  5
92E
330
1F
100
AcDbEntity
  8
1
  6
CONTINUOUS
370
50
 62
4
100
AcDbLine
 10
9.9
 20
-0.994702
 30
0.0
 11
9.9
 21
0.7879999999999999
 31
0.0
  0
LINE
  5
92F
330
1F
100
AcDbEntity
  8
1
  6
CONTINUOUS
370
50
 62
4
100
AcDbLine
 10
9.904316
 20
-0.0528
 30
0.0
 11
9.904316
 21
-0.038603
 31
0.0
  0
LINE
  5
930
330
1F
100
AcDbEntity
  8
1
  6
CONTINUOUS
370
50
 62
4
100
AcDbLine
 10
10.785139
 20
0.295111
 30
0.0
 11
10.785139
 21
0.308551
 31
0.0
  0
LINE
  5
931
330
1F
100
AcDbEntity
  8
1
  6
CONTINUOUS
370
50
 62
4
100
AcDbLine
 10
10.9
 20
0.051632
 30
0.0
 11
10.9
 21
0.214102
 31
0.0
  0
LINE
  5
932
330
1F
100
AcDbEntity
  8
1
  6
CONTINUOUS
370
50
 62
4
100
AcDbLine
 10
11.072323
 20
0.120395
 30
0.0
 11
11.072323
 21
0.245505
 31
0.0
  0
ARC
  5
933
330
1F
100
AcDbEntity
  8
1
  6
CONTINUOUS
370
50
 62
4
100
AcDbCircle
 10
10.9
 20
0.0
 30
0.0
 40
1.0
100
AcDbArc
 50
0.0
 51
37.69174166284311
  0
ARC
  5
934
330
1F
100
AcDbEntity
  8
1
  6
CONTINUOUS
370
50
 62
4
100
AcDbCircle
 10
10.9047
 20
0.0
 30
0.0
 40
0.9653
100
AcDbArc
 50
310.2061740547789
 51
333.8495324453513
  0
ELLIPSE
  5
935
330
1F
100
AcDbEntity
  8
1
  6
CONTINUOUS
370
50
 62
4
100
AcDbEllipse
 10
10.907538
 20
0.041162
 30
0.0
 11
-0.9799280155649317
 21
0.1794529150055096
 31
0.0
210
0.0
220
0.0
230
0.9999999999999999
 40
0.8761796655158915
 41
2.723324872512153
 42
3.300690094089645
  0
ELLIPSE
  5
936
330
1F
100
AcDbEntity
  8
1
  6
CONTINUOUS
370
50
 62
4
100
AcDbEllipse
 10
10.907538
 20
0.045299
 30
0.0
 11
-0.9827109181273173
 21
0.1635294920048526
 31
0.0
210
0.0
220
0.0
230
1.0
 40
0.8486727685324805
 41
3.281889636772962
 42
3.859255149876767
  0
ELLIPSE
  5
937
330
1F
100
AcDbEntity
  8
1
  6
CONTINUOUS
370
50
 62
4
100
AcDbEllipse
 10
10.912203
 20
0.045086
 30
0.0
 11
-0.9483829833169066
 21
0.1578171002550859
 31
0.0
210
0.0
220
0.0
230
1.0
 40
0.8486729484678763
 41
3.299792079427959
 42
3.887781131126692
  0
ELLIPSE
  5
938
330
1F
100
AcDbEntity
  8
1
  6
CONTINUOUS
370
50
 62
4
100
AcDbEllipse
 10
11.149985
 20
0.398877
 30
0.0
 11
-0.7338270046541444
 21
0.4599049925738214
 31
0.0
210
0.0
220
0.0
230
0.9999999999999998
 40
0.3369935720331119
 41
1.439129531635986
 42
3.349734135011251
  0
ELLIPSE
  5
939
330
1F
100
AcDbEntity
  8
1
  6
CONTINUOUS
370
50
 62
4
100
AcDbEllipse
 10
11.15351
 20
0.397003
 30
0.0
 11
-0.7008718244216601
 21
0.439251280153915
 31
0.0
210
0.0
220
0.0
230
1.0
 40
0.3369933562856967
 41
1.665356769505249
 42
3.349734264450625
  0
ELLIPSE
  5
93A
330
1F
100
AcDbEntity
  8
1
  6
CONTINUOUS
370
50
 62
4
100
AcDbEllipse
 10
11.442666
 20
0.243222
 30
0.0
 11
-1.529990180775394
 21
0.8436946721746406
 31
0.0
210
0.0
220
0.0
230
1.0
 40
0.1658332300350208
 41
1.219740348947729
 42
1.41854171386085
  0
ELLIPSE
  5
93B
330
1F
100
AcDbEntity
  8
1
  6
CONTINUOUS
370
50
 62
4
100
AcDbEllipse
 10
11.9003
 20
-0.00016
 30
0.0
 11
-1.724357735324617
 21
0.9542664782680779
 31
0.0
210
0.0
220
0.0
230
0.9999999999999999
 40
0.1735671362810188
 41
0.967169341724939
 42
1.050963117339003
  0
ELLIPSE
  5
93C
330
1F
100
AcDbEntity
  8
1
  6
CONTINUOUS
370
50
 62
4
100
AcDbEllipse
 10
16.4628
 20
0.532593
 30
0.0
 11
-14.61071008497826
 21
3.436467638700896
 31
0.0
210
0.0
220
0.0
230
0.9999999999999999
 40
0.2149995440016196
 41
1.082536606576811
 42
1.147158300912759
  0
ELLIPSE
  5
93D
330
1F
100
AcDbEntity
  8
1
  6
CONTINUOUS
370
50
 62
4
100
AcDbEllipse
 10
16.4628
 20
11.589541
 30
0.0
 11
14.21912108179316
 21
4.806115758011059
 31
0.0
210
0.0
220
0.0
230
0.9999999999999999
 40
0.7158067573526304
 41
3.936220489545102
 42
4.000842178947547
  0
ELLIPSE
  5
93E
330
1F
100
AcDbEntity
  8
1
  6
CONTINUOUS
370
50
 62
4
100
AcDbEllipse
 10
16.645677
 20
1.310125
 30
0.0
 11
-14.27697606061468
 21
3.357972742286657
 31
0.0
210
0.0
220
0.0
230
1.0
 40
0.2149995117557091
 41
1.070247455429083
 42
1.129895805279615
  0
ELLIPSE
  5
93F
330
1F
100
AcDbEntity
  8
1
  6
CONTINUOUS
370
50
 62
4
100
AcDbEllipse
 10
16.752051
 20
1.762392
 30
0.0
 11
-14.1323959490168
 21
3.323967216763518
 31
0.0
210
0.0
220
0.0
230
1.0
 40
0.21499949121911
 41
1.097833310424683
 42
1.115840616914825
  0
LINE
  5
940
330
1F
100
AcDbEntity
  8
CUT
  6
CONTINUOUS
370
25
 62
1
100
AcDbLine
 10
9.91
 20
0.0
 30
0.0
 11
11.9
 21
0.0
 31
0.0
  0
ARC
  5
941
330
1F
100
AcDbEntity
  8
CUT
  6
CONTINUOUS
370
25
 62
1
100
AcDbCircle
 10
10.9
 20
0.0
 30
0.0
 40
1.0
100
AcDbArc
 50
0.0
 51
90.0
  0
LINE
  5
942
330
1F
100
AcDbEntity
  8
CUT
  6
CONTINUOUS
370
25
 62
1
100
AcDbLine
 10
10.9
 20
1.0
 30
0.0
 11
9.9
 21
0.9999
 31
0.0
  0
LINE
  5
943
330
1F
100
AcDbEntity
  8
CUT
  6
CONTINUOUS
370
25
 62
1
100
AcDbLine
 10
9.9
 20
0.9999
 30
0.0
 11
9.9
 21
0.9949
 31
0.0
  0
LINE
  5
944
330
1F
100
AcDbEntity
  8
CUT
  6
CONTINUOUS
370
25
 62
1
100
AcDbLine
 10
9.9
 20
0.9949
 30
0.0
 11
9.91
 21
0.0
 31
0.0
  0
LINE
  5
945
330
1F
100
AcDbEntity
  8
NOCUT
  6
CONTINUOUS
370
25
 62
7
100
AcDbLine
 10
0.0
 20
0.0
 30
0.0
 11
9.91
 21
0.0
 31
0.0
  0
LINE
  5
946
330
1F
100
AcDbEntity
  8
NOCUT
  6
CONTINUOUS
370
25
 62
7
100
AcDbLine
 10
9.91
 20
0.0
 30
0.0
 11
9.9
 21
0.99495
 31
0.0
  0
LINE
  5
947
330
1F
100
AcDbEntity
  8
NOCUT
  6
CONTINUOUS
370
25
 62
7
100
AcDbLine
 10
9.9
 20
0.99495
 30
0.0
 11
9.9
 21
0.97495
 31
0.0
  0
LINE
  5
948
330
1F
100
AcDbEntity
  8
NOCUT
  6
CONTINUOUS
370
25
 62
7
100
AcDbLine
 10
9.9
 20
0.97495
 30
0.0
 11
7.9
 21
0.97495
 31
0.0
  0
LINE
  5
949
330
1F
100
AcDbEntity
  8
NOCUT
  6
CONTINUOUS
370
25
 62
7
100
AcDbLine
 10
7.9
 20
0.97495
 30
0.0
 11
0.0
 21
2.99995
 31
0.0
  0
LINE
  5
94A
330
1F
100
AcDbEntity
  8
NOCUT
  6
CONTINUOUS
370
25
 62
7
100
AcDbLine
 10
0.0
 20
2.99995
 30
0.0
 11
0.0
 21
0.0
 31
0.0
  0
LINE
  5
94B
330
1F
100
AcDbEntity
  8
SK1
  6
CONTINUOUS
370
50
 62
4
100
AcDbLine
 10
0.0
 20
3.0
 30
0.0
 11
-47.7
 21
3.0
 31
0.0
  0
LINE
  5
94C
330
1F
100
AcDbEntity
  8
SK1
  6
CONTINUOUS
370
50
 62
4
100
AcDbLine
 10
-47.7
 20
3.0
 30
0.0
 11
-48.1
 21
2.6
 31
0.0
  0
LINE
  5
94D
330
1F
100
AcDbEntity
  8
SK1
  6
CONTINUOUS
370
50
 62
4
100
AcDbLine
 10
-48.1
 20
2.6
 30
0.0
 11
-48.1
 21
-2.6
 31
0.0
  0
LINE
  5
94E
330
1F
100
AcDbEntity
  8
SK1
  6
CONTINUOUS
370
50
 62
4
100
AcDbLine
 10
-48.1
 20
-2.6
 30
0.0
 11
-47.7
 21
-3.0
 31
0.0
  0
LINE
  5
94F
330
1F
100
AcDbEntity
  8
SK1
  6
CONTINUOUS
370
50
 62
4
100
AcDbLine
 10
-47.7
 20
-3.0
 30
0.0
 11
0.0
 21
-3.0
 31
0.0
  0
LINE
  5
950
330
1F
100
AcDbEntity
  8
SK1
  6
CONTINUOUS
370
50
 62
4
100
AcDbLine
 10
-47.7
 20
3.0
 30
0.0
 11
-47.7
 21
-3.0
 31
0.0
  0
LINE
  5
951
330
1F
100
AcDbEntity
  8
SK2
  6
CONTINUOUS
370
25
 62
7
100
AcDbLine
 10
-60.1000002
 20
-3.000001
 30
0.0
 11
-61.10000000000008
 21
-3.000001
 31
0.0
  0
LINE
  5
952
330
1F
100
AcDbEntity
  8
SK2
  6
CONTINUOUS
370
25
 62
7
100
AcDbLine
 10
-48.1
 20
-3.000001
 30
0.0
 11
-60.0999998
 21
-3.000001
 31
0.0
  0
LINE
  5
953
330
1F
100
AcDbEntity
  8
SK2
  6
CONTINUOUS
370
25
 62
7
100
AcDbLine
 10
-61.1
 20
3.0
 30
0.0
 11
-48.1
 21
3.0
 31
0.0
  0
LINE
  5
954
330
1F
100
AcDbEntity
  8
SK2
  6
CONTINUOUS
370
25
 62
7
100
AcDbLine
 10
-60.1
 20
-10.0
 30
0.0
 11
-60.1
 21
16.475
 31
0.0
  0
LINE
  5
955
330
1F
100
AcDbEntity
  8
SK2
  6
CONTINUOUS
370
25
 62
7
100
AcDbLine
 10
-60.1
 20
-3.0
 30
0.0
 11
-59.1
 21
-8.0
 31
0.0
  0
LINE
  5
956
330
1F
100
AcDbEntity
  8
SK2
  6
CONTINUOUS
370
25
 62
7
100
AcDbLine
 10
-59.1
 20
-8.0
 30
0.0
 11
-61.1
 21
-8.0
 31
0.0
  0
LINE
  5
957
330
1F
100
AcDbEntity
  8
SK2
  6
CONTINUOUS
370
25
 62
7
100
AcDbLine
 10
-61.1
 20
-8.0
 30
0.0
 11
-60.1
 21
-3.0
 31
0.0
  0
LINE
  5
958
330
1F
100
AcDbEntity
  8
SK2
  6
CONTINUOUS
370
25
 62
7
100
AcDbLine
 10
-59.33595231414331
 20
-8.0
 30
0.0
 11
-59.13932538569056
 21
-7.803373071547249
 31
0.0
  0
LINE
  5
959
330
1F
100
AcDbEntity
  8
SK2
  6
CONTINUOUS
370
25
 62
7
100
AcDbLine
 10
-59.76021638285525
 20
-8.0
 30
0.0
 11
-59.21003606380921
 21
-7.449819680953965
 31
0.0
  0
LINE
  5
95A
330
1F
100
AcDbEntity
  8
SK2
  6
CONTINUOUS
370
25
 62
7
100
AcDbLine
 10
-60.18448045156718
 20
-8.0
 30
0.0
 11
-59.28074674192786
 21
-7.096266290360681
 31
0.0
  0
LINE
  5
95B
330
1F
100
AcDbEntity
  8
SK2
  6
CONTINUOUS
370
25
 62
7
100
AcDbLine
 10
-60.60874452027911
 20
-8.0
 30
0.0
 11
-59.35145742004652
 21
-6.742712899767412
 31
0.0
  0
LINE
  5
95C
330
1F
100
AcDbEntity
  8
SK2
  6
CONTINUOUS
370
25
 62
7
100
AcDbLine
 10
-61.03300858899104
 20
-8.0
 30
0.0
 11
-59.42216809816517
 21
-6.389159509174135
 31
0.0
  0
LINE
  5
95D
330
1F
100
AcDbEntity
  8
SK2
  6
CONTINUOUS
370
25
 62
7
100
AcDbLine
 10
-61.01068183557425
 20
-7.553409177871281
 30
0.0
 11
-59.49287877628384
 21
-6.035606118580866
 31
0.0
  0
LINE
  5
95E
330
1F
100
AcDbEntity
  8
SK2
  6
CONTINUOUS
370
25
 62
7
100
AcDbLine
 10
-60.90461581839627
 20
-7.02307909198138
 30
0.0
 11
-59.56358945440249
 21
-5.682052727987589
 31
0.0
  0
LINE
  5
95F
330
1F
100
AcDbEntity
  8
SK2
  6
CONTINUOUS
370
25
 62
7
100
AcDbLine
 10
-60.79854980121829
 20
-6.492749006091465
 30
0.0
 11
-59.63430013252115
 21
-5.328499337394319
 31
0.0
  0
LINE
  5
960
330
1F
100
AcDbEntity
  8
SK2
  6
CONTINUOUS
370
25
 62
7
100
AcDbLine
 10
-60.69248378404031
 20
-5.96241892020155
 30
0.0
 11
-59.7050108106398
 21
-4.974945946801036
 31
0.0
  0
LINE
  5
961
330
1F
100
AcDbEntity
  8
SK2
  6
CONTINUOUS
370
25
 62
7
100
AcDbLine
 10
-60.58641776686233
 20
-5.432088834311649
 30
0.0
 11
-59.77572148875845
 21
-4.621392556207766
 31
0.0
  0
LINE
  5
962
330
1F
100
AcDbEntity
  8
SK2
  6
CONTINUOUS
370
25
 62
7
100
AcDbLine
 10
-60.48035174968434
 20
-4.901758748421734
 30
0.0
 11
-59.84643216687711
 21
-4.267839165614497
 31
0.0
  0
LINE
  5
963
330
1F
100
AcDbEntity
  8
SK2
  6
CONTINUOUS
370
25
 62
7
100
AcDbLine
 10
-60.37428573250636
 20
-4.371428662531805
 30
0.0
 11
-59.91714284499576
 21
-3.914285775021206
 31
0.0
  0
LINE
  5
964
330
1F
100
AcDbEntity
  8
SK2
  6
CONTINUOUS
370
25
 62
7
100
AcDbLine
 10
-60.26821971532838
 20
-3.841098576641897
 30
0.0
 11
-59.98785352311442
 21
-3.560732384427929
 31
0.0
  0
LINE
  5
965
330
1F
100
AcDbEntity
  8
SK2
  6
CONTINUOUS
370
25
 62
7
100
AcDbLine
 10
-60.1621536981504
 20
-3.31076849075199
 30
0.0
 11
-60.05856420123307
 21
-3.20717899383466
 31
0.0
  0
LINE
  5
966
330
1F
100
AcDbEntity
  8
SK2
  6
CONTINUOUS
370
25
 62
7
100
AcDbLine
 10
-61.03754249763277
 20
-7.687712488163854
 30
0.0
 11
-60.72525498579662
 21
-8.0
 31
0.0
  0
LINE
  5
967
330
1F
100
AcDbEntity
  8
SK2
  6
CONTINUOUS
370
25
 62
7
100
AcDbLine
 10
-60.96683181951411
 20
-7.334159097570563
 30
0.0
 11
-60.30099091708468
 21
-8.0
 31
0.0
  0
LINE
  5
968
330
1F
100
AcDbEntity
  8
SK2
  6
CONTINUOUS
370
25
 62
7
100
AcDbLine
 10
-60.89612114139545
 20
-6.980605706977308
 30
0.0
 11
-59.87672684837275
 21
-8.0
 31
0.0
  0
LINE
  5
969
330
1F
100
AcDbEntity
  8
SK2
  6
CONTINUOUS
370
25
 62
7
100
AcDbLine
 10
-60.8254104632768
 20
-6.627052316384031
 30
0.0
 11
-59.45246277966082
 21
-8.0
 31
0.0
  0
LINE
  5
96A
330
1F
100
AcDbEntity
  8
SK2
  6
CONTINUOUS
370
25
 62
7
100
AcDbLine
 10
-60.75469978515816
 20
-6.273498925790754
 30
0.0
 11
-59.11795032226277
 21
-7.910248388686135
 31
0.0
  0
LINE
  5
96B
330
1F
100
AcDbEntity
  8
SK2
  6
CONTINUOUS
370
25
 62
7
100
AcDbLine
 10
-60.68398910703949
 20
-5.919945535197478
 30
0.0
 11
-59.22401633944076
 21
-7.379918302796199
 31
0.0
  0
LINE
  5
96C
330
1F
100
AcDbEntity
  8
SK2
  6
CONTINUOUS
370
25
 62
7
100
AcDbLine
 10
-60.61327842892085
 20
-5.566392144604201
 30
0.0
 11
-59.33008235661873
 21
-6.849588216906312
 31
0.0
  0
LINE
  5
96D
330
1F
100
AcDbEntity
  8
SK2
  6
CONTINUOUS
370
25
 62
7
100
AcDbLine
 10
-60.5425677508022
 20
-5.212838754010939
 30
0.0
 11
-59.4361483737967
 21
-6.319258131016426
 31
0.0
  0
LINE
  5
96E
330
1F
100
AcDbEntity
  8
SK2
  6
CONTINUOUS
370
25
 62
7
100
AcDbLine
 10
-60.47185707268353
 20
-4.859285363417662
 30
0.0
 11
-59.5422143909747
 21
-5.78892804512649
 31
0.0
  0
LINE
  5
96F
330
1F
100
AcDbEntity
  8
SK2
  6
CONTINUOUS
370
25
 62
7
100
AcDbLine
 10
-60.40114639456488
 20
-4.505731972824393
 30
0.0
 11
-59.64828040815268
 21
-5.258597959236589
 31
0.0
  0
LINE
  5
970
330
1F
100
AcDbEntity
  8
SK2
  6
CONTINUOUS
370
25
 62
7
100
AcDbLine
 10
-60.33043571644622
 20
-4.152178582231123
 30
0.0
 11
-59.75434642533067
 21
-4.728267873346674
 31
0.0
  0
LINE
  5
971
330
1F
100
AcDbEntity
  8
SK2
  6
CONTINUOUS
370
25
 62
7
100
AcDbLine
 10
-60.25972503832757
 20
-3.798625191637846
 30
0.0
 11
-59.86041244250865
 21
-4.197937787456766
 31
0.0
  0
LINE
  5
972
330
1F
100
AcDbEntity
  8
SK2
  6
CONTINUOUS
370
25
 62
7
100
AcDbLine
 10
-60.18901436020892
 20
-3.44507180104457
 30
0.0
 11
-59.96647845968663
 21
-3.667607701566858
 31
0.0
  0
LINE
  5
973
330
1F
100
AcDbEntity
  8
SK2
  6
CONTINUOUS
370
25
 62
7
100
AcDbLine
 10
-60.11830368209026
 20
-3.091518410451293
 30
0.0
 11
-60.0725444768646
 21
-3.137277615676958
 31
0.0
  0
LINE
  5
974
330
1F
100
AcDbEntity
  8
SK2
  6
CONTINUOUS
370
25
 62
7
100
AcDbLine
 10
-60.1
 20
3.0
 30
0.0
 11
-61.1
 21
8.0
 31
0.0
  0
LINE
  5
975
330
1F
100
AcDbEntity
  8
SK2
  6
CONTINUOUS
370
25
 62
7
100
AcDbLine
 10
-61.1
 20
8.0
 30
0.0
 11
-59.1
 21
8.0
 31
0.0
  0
LINE
  5
976
330
1F
100
AcDbEntity
  8
SK2
  6
CONTINUOUS
370
25
 62
7
100
AcDbLine
 10
-59.1
 20
8.0
 30
0.0
 11
-60.1
 21
3.0
 31
0.0
  0
LINE
  5
977
330
1F
100
AcDbEntity
  8
SK2
  6
CONTINUOUS
370
25
 62
7
100
AcDbLine
 10
-60.11922437301288
 20
3.096121865064433
 30
0.0
 11
-60.07116344048067
 21
3.144182797596642
 31
0.0
  0
LINE
  5
978
330
1F
100
AcDbEntity
  8
SK2
  6
CONTINUOUS
370
25
 62
7
100
AcDbLine
 10
-60.18993505113153
 20
3.449675255657716
 30
0.0
 11
-59.96509742330269
 21
3.674512883486557
 31
0.0
  0
LINE
  5
979
330
1F
100
AcDbEntity
  8
SK2
  6
CONTINUOUS
370
25
 62
7
100
AcDbLine
 10
-60.26064572925019
 20
3.803228646250986
 30
0.0
 11
-59.85903140612471
 21
4.204842969376465
 31
0.0
  0
LINE
  5
97A
330
1F
100
AcDbEntity
  8
SK2
  6
CONTINUOUS
370
25
 62
7
100
AcDbLine
 10
-60.33135640736884
 20
4.15678203684427
 30
0.0
 11
-59.75296538894673
 21
4.735173055266387
 31
0.0
  0
LINE
  5
97B
330
1F
100
AcDbEntity
  8
SK2
  6
CONTINUOUS
370
25
 62
7
100
AcDbLine
 10
-60.40206708548751
 20
4.510335427437532
 30
0.0
 11
-59.64689937176874
 21
5.265503141156302
 31
0.0
  0
LINE
  5
97C
330
1F
100
AcDbEntity
  8
SK2
  6
CONTINUOUS
370
25
 62
7
100
AcDbLine
 10
-60.47277776360616
 20
4.863888818030802
 30
0.0
 11
-59.54083335459076
 21
5.795833227046209
 31
0.0
  0
LINE
  5
97D
330
1F
100
AcDbEntity
  8
SK2
  6
CONTINUOUS
370
25
 62
7
100
AcDbLine
 10
-60.54348844172481
 20
5.217442208624078
 30
0.0
 11
-59.43476733741278
 21
6.32616331293611
 31
0.0
  0
LINE
  5
97E
330
1F
100
AcDbEntity
  8
SK2
  6
CONTINUOUS
370
25
 62
7
100
AcDbLine
 10
-60.61419911984347
 20
5.570995599217355
 30
0.0
 11
-59.3287013202348
 21
6.856493398826032
 31
0.0
  0
LINE
  5
97F
330
1F
100
AcDbEntity
  8
SK2
  6
CONTINUOUS
370
25
 62
7
100
AcDbLine
 10
-60.68490979796212
 20
5.924548989810624
 30
0.0
 11
-59.2226353030568
 21
7.386823484715947
 31
0.0
  0
LINE
  5
980
330
1F
100
AcDbEntity
  8
SK2
  6
CONTINUOUS
370
25
 62
7
100
AcDbLine
 10
-60.75562047608079
 20
6.278102380403887
 30
0.0
 11
-59.11656928587882
 21
7.917153570605855
 31
0.0
  0
LINE
  5
981
330
1F
100
AcDbEntity
  8
SK2
  6
CONTINUOUS
370
25
 62
7
100
AcDbLine
 10
-60.82633115419944
 20
6.631655770997185
 30
0.0
 11
-59.45798692519663
 21
8.0
 31
0.0
  0
LINE
  5
982
330
1F
100
AcDbEntity
  8
SK2
  6
CONTINUOUS
370
25
 62
7
100
AcDbLine
 10
-60.8970418323181
 20
6.985209161590447
 30
0.0
 11
-59.88225099390855
 21
8.0
 31
0.0
  0
LINE
  5
983
330
1F
100
AcDbEntity
  8
SK2
  6
CONTINUOUS
370
25
 62
7
100
AcDbLine
 10
-60.96775251043675
 20
7.338762552183724
 30
0.0
 11
-60.30651506262047
 21
8.0
 31
0.0
  0
LINE
  5
984
330
1F
100
AcDbEntity
  8
SK2
  6
CONTINUOUS
370
25
 62
7
100
AcDbLine
 10
-61.03846318855539
 20
7.692315942777
 30
0.0
 11
-60.73077913133239
 21
8.0
 31
0.0
  0
LINE
  5
985
330
1F
100
AcDbEntity
  8
SK2
  6
CONTINUOUS
370
25
 62
7
100
AcDbLine
 10
-60.14810184127928
 20
3.240509206396396
 30
0.0
 11
-60.06793210581382
 21
3.160339470930936
 31
0.0
  0
LINE
  5
986
330
1F
100
AcDbEntity
  8
SK2
  6
CONTINUOUS
370
25
 62
7
100
AcDbLine
 10
-60.25416785845727
 20
3.770839292286325
 30
0.0
 11
-59.99722142769515
 21
3.513892861524205
 31
0.0
  0
LINE
  5
987
330
1F
100
AcDbEntity
  8
SK2
  6
CONTINUOUS
370
25
 62
7
100
AcDbLine
 10
-60.36023387563524
 20
4.301169378176219
 30
0.0
 11
-59.92651074957651
 21
3.867446252117496
 31
0.0
  0
LINE
  5
988
330
1F
100
AcDbEntity
  8
SK2
  6
CONTINUOUS
370
25
 62
7
100
AcDbLine
 10
-60.46629989281323
 20
4.831499464066134
 30
0.0
 11
-59.85580007145784
 21
4.220999642710744
 31
0.0
  0
LINE
  5
989
330
1F
100
AcDbEntity
  8
SK2
  6
CONTINUOUS
370
25
 62
7
100
AcDbLine
 10
-60.57236590999121
 20
5.361829549956042
 30
0.0
 11
-59.78508939333919
 21
4.574553033304028
 31
0.0
  0
LINE
  5
98A
330
1F
100
AcDbEntity
  8
SK2
  6
CONTINUOUS
370
25
 62
7
100
AcDbLine
 10
-60.67843192716919
 20
5.892159635845935
 30
0.0
 11
-59.71437871522053
 21
4.92810642389729
 31
0.0
  0
LINE
  5
98B
330
1F
100
AcDbEntity
  8
SK2
  6
CONTINUOUS
370
25
 62
7
100
AcDbLine
 10
-60.78449794434717
 20
6.422489721735843
 30
0.0
 11
-59.64366803710188
 21
5.281659814490567
 31
0.0
  0
LINE
  5
98C
330
1F
100
AcDbEntity
  8
SK2
  6
CONTINUOUS
370
25
 62
7
100
AcDbLine
 10
-60.89056396152515
 20
6.952819807625751
 30
0.0
 11
-59.57295735898322
 21
5.635213205083843
 31
0.0
  0
LINE
  5
98D
330
1F
100
AcDbEntity
  8
SK2
  6
CONTINUOUS
370
25
 62
7
100
AcDbLine
 10
-60.99662997870313
 20
7.483149893515645
 30
0.0
 11
-59.50224668086457
 21
5.988766595677106
 31
0.0
  0
LINE
  5
98E
330
1F
100
AcDbEntity
  8
SK2
  6
CONTINUOUS
370
25
 62
7
100
AcDbLine
 10
-61.08921601647555
 20
8.0
 30
0.0
 11
-59.43153600274592
 21
6.342319986270397
 31
0.0
  0
LINE
  5
98F
330
1F
100
AcDbEntity
  8
SK2
  6
CONTINUOUS
370
25
 62
7
100
AcDbLine
 10
-60.66495194776362
 20
8.0
 30
0.0
 11
-59.36082532462726
 21
6.695873376863666
 31
0.0
  0
LINE
  5
990
330
1F
100
AcDbEntity
  8
SK2
  6
CONTINUOUS
370
25
 62
7
100
AcDbLine
 10
-60.24068787905168
 20
8.0
 30
0.0
 11
-59.29011464650861
 21
7.049426767456943
 31
0.0
  0
LINE
  5
991
330
1F
100
AcDbEntity
  8
SK2
  6
CONTINUOUS
370
25
 62
7
100
AcDbLine
 10
-59.81642381033975
 20
8.0
 30
0.0
 11
-59.21940396838996
 21
7.402980158050219
 31
0.0
  0
LINE
  5
992
330
1F
100
AcDbEntity
  8
SK2
  6
CONTINUOUS
370
25
 62
7
100
AcDbLine
 10
-59.39215974162781
 20
8.0
 30
0.0
 11
-59.1486932902713
 21
7.756533548643489
 31
0.0
  0
TEXT
  5
993
330
1F
100
AcDbEntity
  8
SK2
  6
CONTINUOUS
370
25
 62
7
100
AcDbText
 10
-61.6
 20
13.34583333333333
 30
0.0
 40
3.499999999999996
  1
6
 50
90.00000000000001
 72
     1
 11
-61.6
 21
14.5125
 31
0.0
100
AcDbText
  0
CIRCLE
  5
994
330
1F
100
AcDbEntity
  8
SK2
  6
CONTINUOUS
370
25
 62
7
100
AcDbCircle
 10
-63.35
 20
11.1875
 30
0.0
 40
1.4
  0
LINE
  5
995
330
1F
100
AcDbEntity
  8
SK2
  6
CONTINUOUS
370
25
 62
7
100
AcDbLine
 10
-61.95
 20
9.787500000000001
 30
0.0
 11
-64.75
 21
12.5875
 31
0.0
  0
LINE
  5
996
330
1F
100
AcDbEntity
  8
SK2
  6
CONTINUOUS
370
25
 62
7
100
AcDbLine
 10
-48.1
 20
3.0
 30
0.0
 11
-48.1
 21
16.0
 31
0.0
  0
LINE
  5
997
330
1F
100
AcDbEntity
  8
SK2
  6
CONTINUOUS
370
25
 62
7
100
AcDbLine
 10
0.0000000000000001
 20
16.0
 30
0.0
 11
-0.0000000000000007
 21
3.0
 31
0.0
  0
LINE
  5
998
330
1F
100
AcDbEntity
  8
SK2
  6
CONTINUOUS
370
25
 62
7
100
AcDbLine
 10
-48.1
 20
15.0
 30
0.0
 11
0.0
 21
15.0
 31
0.0
  0
LINE
  5
999
330
1F
100
AcDbEntity
  8
SK2
  6
CONTINUOUS
370
25
 62
7
100
AcDbLine
 10
-48.1
 20
15.0
 30
0.0
 11
-43.1
 21
16.0
 31
0.0
  0
LINE
  5
99A
330
1F
100
AcDbEntity
  8
SK2
  6
CONTINUOUS
370
25
 62
7
100
AcDbLine
 10
-43.1
 20
16.0
 30
0.0
 11
-43.1
 21
14.0
 31
0.0
  0
LINE
  5
99B
330
1F
100
AcDbEntity
  8
SK2
  6
CONTINUOUS
370
25
 62
7
100
AcDbLine
 10
-43.1
 20
14.0
 30
0.0
 11
-48.1
 21
15.0
 31
0.0
  0
LINE
  5
99C
330
1F
100
AcDbEntity
  8
SK2
  6
CONTINUOUS
370
25
 62
7
100
AcDbLine
 10
-43.24637439675859
 20
14.02927487935172
 30
0.0
 11
-43.1
 21
14.17564927611031
 31
0.0
  0
LINE
  5
99D
330
1F
100
AcDbEntity
  8
SK2
  6
CONTINUOUS
370
25
 62
7
100
AcDbLine
 10
-43.59992778735187
 20
14.09998555747037
 30
0.0
 11
-43.1
 21
14.59991334482224
 31
0.0
  0
LINE
  5
99E
330
1F
100
AcDbEntity
  8
SK2
  6
CONTINUOUS
370
25
 62
7
100
AcDbLine
 10
-43.95348117794515
 20
14.17069623558903
 30
0.0
 11
-43.1
 21
15.02417741353418
 31
0.0
  0
LINE
  5
99F
330
1F
100
AcDbEntity
  8
SK2
  6
CONTINUOUS
370
25
 62
7
100
AcDbLine
 10
-44.30703456853842
 20
14.24140691370769
 30
0.0
 11
-43.1
 21
15.4484414822461
 31
0.0
  0
LINE
  5
9A0
330
1F
100
AcDbEntity
  8
SK2
  6
CONTINUOUS
370
25
 62
7
100
AcDbLine
 10
-44.6605879591317
 20
14.31211759182634
 30
0.0
 11
-43.1
 21
15.87270555095804
 31
0.0
  0
LINE
  5
9A1
330
1F
100
AcDbEntity
  8
SK2
  6
CONTINUOUS
370
25
 62
7
100
AcDbLine
 10
-45.01414134972498
 20
14.38282826994499
 30
0.0
 11
-43.47121202458746
 21
15.92575759508251
 31
0.0
  0
LINE
  5
9A2
330
1F
100
AcDbEntity
  8
SK2
  6
CONTINUOUS
370
25
 62
7
100
AcDbLine
 10
-45.36769474031826
 20
14.45353894806365
 30
0.0
 11
-44.00154211047738
 21
15.81969157790452
 31
0.0
  0
LINE
  5
9A3
330
1F
100
AcDbEntity
  8
SK2
  6
CONTINUOUS
370
25
 62
7
100
AcDbLine
 10
-45.72124813091153
 20
14.52424962618231
 30
0.0
 11
-44.5318721963673
 21
15.71362556072653
 31
0.0
  0
LINE
  5
9A4
330
1F
100
AcDbEntity
  8
SK2
  6
CONTINUOUS
370
25
 62
7
100
AcDbLine
 10
-46.0748015215048
 20
14.59496030430097
 30
0.0
 11
-45.06220228225722
 21
15.60755954354855
 31
0.0
  0
LINE
  5
9A5
330
1F
100
AcDbEntity
  8
SK2
  6
CONTINUOUS
370
25
 62
7
100
AcDbLine
 10
-46.42835491209808
 20
14.66567098241962
 30
0.0
 11
-45.59253236814712
 21
15.50149352637058
 31
0.0
  0
LINE
  5
9A6
330
1F
100
AcDbEntity
  8
SK2
  6
CONTINUOUS
370
25
 62
7
100
AcDbLine
 10
-46.78190830269136
 20
14.73638166053827
 30
0.0
 11
-46.12286245403704
 21
15.39542750919259
 31
0.0
  0
LINE
  5
9A7
330
1F
100
AcDbEntity
  8
SK2
  6
CONTINUOUS
370
25
 62
7
100
AcDbLine
 10
-47.13546169328463
 20
14.80709233865694
 30
0.0
 11
-46.65319253992696
 21
15.28936149201461
 31
0.0
  0
LINE
  5
9A8
330
1F
100
AcDbEntity
  8
SK2
  6
CONTINUOUS
370
25
 62
7
100
AcDbLine
 10
-47.48901508387791
 20
14.87780301677559
 30
0.0
 11
-47.18352262581688
 21
15.18329547483662
 31
0.0
  0
LINE
  5
9A9
330
1F
100
AcDbEntity
  8
SK2
  6
CONTINUOUS
370
25
 62
7
100
AcDbLine
 10
-47.84256847447119
 20
14.94851369489424
 30
0.0
 11
-47.71385271170678
 21
15.07722945765865
 31
0.0
  0
LINE
  5
9AA
330
1F
100
AcDbEntity
  8
SK2
  6
CONTINUOUS
370
25
 62
7
100
AcDbLine
 10
-48.09220379288563
 20
15.00155924142288
 30
0.0
 11
-48.08830568932842
 21
14.99766113786568
 31
0.0
  0
LINE
  5
9AB
330
1F
100
AcDbEntity
  8
SK2
  6
CONTINUOUS
370
25
 62
7
100
AcDbLine
 10
-47.73865040229234
 20
15.07226991954153
 30
0.0
 11
-47.55797560343851
 21
14.8915951206877
 31
0.0
  0
LINE
  5
9AC
330
1F
100
AcDbEntity
  8
SK2
  6
CONTINUOUS
370
25
 62
7
100
AcDbLine
 10
-47.38509701169907
 20
15.14298059766019
 30
0.0
 11
-47.0276455175486
 21
14.78552910350972
 31
0.0
  0
LINE
  5
9AD
330
1F
100
AcDbEntity
  8
SK2
  6
CONTINUOUS
370
25
 62
7
100
AcDbLine
 10
-47.0315436211058
 20
15.21369127577885
 30
0.0
 11
-46.49731543165868
 21
14.67946308633173
 31
0.0
  0
LINE
  5
9AE
330
1F
100
AcDbEntity
  8
SK2
  6
CONTINUOUS
370
25
 62
7
100
AcDbLine
 10
-46.67799023051252
 20
15.2844019538975
 30
0.0
 11
-45.96698534576877
 21
14.57339706915375
 31
0.0
  0
LINE
  5
9AF
330
1F
100
AcDbEntity
  8
SK2
  6
CONTINUOUS
370
25
 62
7
100
AcDbLine
 10
-46.32443683991924
 20
15.35511263201615
 30
0.0
 11
-45.43665525987886
 21
14.46733105197578
 31
0.0
  0
LINE
  5
9B0
330
1F
100
AcDbEntity
  8
SK2
  6
CONTINUOUS
370
25
 62
7
100
AcDbLine
 10
-45.97088344932597
 20
15.42582331013481
 30
0.0
 11
-44.90632517398894
 21
14.36126503479779
 31
0.0
  0
LINE
  5
9B1
330
1F
100
AcDbEntity
  8
SK2
  6
CONTINUOUS
370
25
 62
7
100
AcDbLine
 10
-45.61733005873269
 20
15.49653398825347
 30
0.0
 11
-44.37599508809902
 21
14.25519901761979
 31
0.0
  0
LINE
  5
9B2
330
1F
100
AcDbEntity
  8
SK2
  6
CONTINUOUS
370
25
 62
7
100
AcDbLine
 10
-45.26377666813941
 20
15.56724466637212
 30
0.0
 11
-43.84566500220911
 21
14.14913300044182
 31
0.0
  0
LINE
  5
9B3
330
1F
100
AcDbEntity
  8
SK2
  6
CONTINUOUS
370
25
 62
7
100
AcDbLine
 10
-44.91022327754613
 20
15.63795534449077
 30
0.0
 11
-43.3153349163192
 21
14.04306698326384
 31
0.0
  0
LINE
  5
9B4
330
1F
100
AcDbEntity
  8
SK2
  6
CONTINUOUS
370
25
 62
7
100
AcDbLine
 10
-44.55666988695286
 20
15.70866602260943
 30
0.0
 11
-43.1
 21
14.25199613565657
 31
0.0
  0
LINE
  5
9B5
330
1F
100
AcDbEntity
  8
SK2
  6
CONTINUOUS
370
25
 62
7
100
AcDbLine
 10
-44.20311649635958
 20
15.77937670072809
 30
0.0
 11
-43.1
 21
14.6762602043685
 31
0.0
  0
LINE
  5
9B6
330
1F
100
AcDbEntity
  8
SK2
  6
CONTINUOUS
370
25
 62
7
100
AcDbLine
 10
-43.84956310576631
 20
15.85008737884674
 30
0.0
 11
-43.1
 21
15.10052427308043
 31
0.0
  0
LINE
  5
9B7
330
1F
100
AcDbEntity
  8
SK2
  6
CONTINUOUS
370
25
 62
7
100
AcDbLine
 10
-43.49600971517303
 20
15.9207980569654
 30
0.0
 11
-43.1
 21
15.52478834179237
 31
0.0
  0
LINE
  5
9B8
330
1F
100
AcDbEntity
  8
SK2
  6
CONTINUOUS
370
25
 62
7
100
AcDbLine
 10
-43.14245632457975
 20
15.99150873508405
 30
0.0
 11
-43.1
 21
15.9490524105043
 31
0.0
  0
LINE
  5
9B9
330
1F
100
AcDbEntity
  8
SK2
  6
CONTINUOUS
370
25
 62
7
100
AcDbLine
 10
0.0
 20
15.0
 30
0.0
 11
-5.0
 21
14.0
 31
0.0
  0
LINE
  5
9BA
330
1F
100
AcDbEntity
  8
SK2
  6
CONTINUOUS
370
25
 62
7
100
AcDbLine
 10
-5.0
 20
14.0
 30
0.0
 11
-5.0
 21
16.0
 31
0.0
  0
LINE
  5
9BB
330
1F
100
AcDbEntity
  8
SK2
  6
CONTINUOUS
370
25
 62
7
100
AcDbLine
 10
-5.0
 20
16.0
 30
0.0
 11
0.0
 21
15.0
 31
0.0
  0
LINE
  5
9BC
330
1F
100
AcDbEntity
  8
SK2
  6
CONTINUOUS
370
25
 62
7
100
AcDbLine
 10
-0.341883092036781
 20
14.93162338159264
 30
0.0
 11
-0.227922061357854
 21
15.04558441227157
 31
0.0
  0
LINE
  5
9BD
330
1F
100
AcDbEntity
  8
SK2
  6
CONTINUOUS
370
25
 62
7
100
AcDbLine
 10
-0.8722131779266906
 20
14.82555736441466
 30
0.0
 11
-0.5814754519511272
 21
15.11629509039023
 31
0.0
  0
LINE
  5
9BE
330
1F
100
AcDbEntity
  8
SK2
  6
CONTINUOUS
370
25
 62
7
100
AcDbLine
 10
-1.4025432638166
 20
14.71949134723668
 30
0.0
 11
-0.9350288425444002
 21
15.18700576850888
 31
0.0
  0
LINE
  5
9BF
330
1F
100
AcDbEntity
  8
SK2
  6
CONTINUOUS
370
25
 62
7
100
AcDbLine
 10
-1.93287334970651
 20
14.6134253300587
 30
0.0
 11
-1.288582233137673
 21
15.25771644662754
 31
0.0
  0
LINE
  5
9C0
330
1F
100
AcDbEntity
  8
SK2
  6
CONTINUOUS
370
25
 62
7
100
AcDbLine
 10
-2.463203435596419
 20
14.50735931288072
 30
0.0
 11
-1.642135623730946
 21
15.32842712474619
 31
0.0
  0
LINE
  5
9C1
330
1F
100
AcDbEntity
  8
SK2
  6
CONTINUOUS
370
25
 62
7
100
AcDbLine
 10
-2.993533521486328
 20
14.40129329570273
 30
0.0
 11
-1.995689014324219
 21
15.39913780286484
 31
0.0
  0
LINE
  5
9C2
330
1F
100
AcDbEntity
  8
SK2
  6
CONTINUOUS
370
25
 62
7
100
AcDbLine
 10
-3.523863607376237
 20
14.29522727852475
 30
0.0
 11
-2.349242404917492
 21
15.4698484809835
 31
0.0
  0
LINE
  5
9C3
330
1F
100
AcDbEntity
  8
SK2
  6
CONTINUOUS
370
25
 62
7
100
AcDbLine
 10
-4.054193693266146
 20
14.18916126134677
 30
0.0
 11
-2.702795795510765
 21
15.54055915910215
 31
0.0
  0
LINE
  5
9C4
330
1F
100
AcDbEntity
  8
SK2
  6
CONTINUOUS
370
25
 62
7
100
AcDbLine
 10
-4.58452377915606
 20
14.08309524416879
 30
0.0
 11
-3.056349186104041
 21
15.61126983722081
 31
0.0
  0
LINE
  5
9C5
330
1F
100
AcDbEntity
  8
SK2
  6
CONTINUOUS
370
25
 62
7
100
AcDbLine
 10
-5.0
 20
14.09188309203678
 30
0.0
 11
-3.409902576697313
 21
15.68198051533946
 31
0.0
  0
LINE
  5
9C6
330
1F
100
AcDbEntity
  8
SK2
  6
CONTINUOUS
370
25
 62
7
100
AcDbLine
 10
-5.0
 20
14.5161471607487
 30
0.0
 11
-3.763455967290586
 21
15.75269119345812
 31
0.0
  0
LINE
  5
9C7
330
1F
100
AcDbEntity
  8
SK2
  6
CONTINUOUS
370
25
 62
7
100
AcDbLine
 10
-5.0
 20
14.94041122946063
 30
0.0
 11
-4.117009357883859
 21
15.82340187157677
 31
0.0
  0
LINE
  5
9C8
330
1F
100
AcDbEntity
  8
SK2
  6
CONTINUOUS
370
25
 62
7
100
AcDbLine
 10
-5.0
 20
15.36467529817256
 30
0.0
 11
-4.470562748477132
 21
15.89411254969543
 31
0.0
  0
LINE
  5
9C9
330
1F
100
AcDbEntity
  8
SK2
  6
CONTINUOUS
370
25
 62
7
100
AcDbLine
 10
-5.0
 20
15.78893936688449
 30
0.0
 11
-4.824116139070405
 21
15.96482322781408
 31
0.0
  0
LINE
  5
9CA
330
1F
100
AcDbEntity
  8
SK2
  6
CONTINUOUS
370
25
 62
7
100
AcDbLine
 10
-5.0
 20
14.3338095116624
 30
0.0
 11
-4.721825406947999
 21
14.0556349186104
 31
0.0
  0
LINE
  5
9CB
330
1F
100
AcDbEntity
  8
SK2
  6
CONTINUOUS
370
25
 62
7
100
AcDbLine
 10
-5.0
 20
14.75807358037433
 30
0.0
 11
-4.368272016354727
 21
14.12634559672905
 31
0.0
  0
LINE
  5
9CC
330
1F
100
AcDbEntity
  8
SK2
  6
CONTINUOUS
370
25
 62
7
100
AcDbLine
 10
-5.0
 20
15.18233764908625
 30
0.0
 11
-4.014718625761454
 21
14.19705627484771
 31
0.0
  0
LINE
  5
9CD
330
1F
100
AcDbEntity
  8
SK2
  6
CONTINUOUS
370
25
 62
7
100
AcDbLine
 10
-5.0
 20
15.60660171779818
 30
0.0
 11
-3.661165235168179
 21
14.26776695296637
 31
0.0
  0
LINE
  5
9CE
330
1F
100
AcDbEntity
  8
SK2
  6
CONTINUOUS
370
25
 62
7
100
AcDbLine
 10
-4.961417766862361
 20
15.99228355337247
 30
0.0
 11
-3.307611844574905
 21
14.33847763108502
 31
0.0
  0
LINE
  5
9CF
330
1F
100
AcDbEntity
  8
SK2
  6
CONTINUOUS
370
25
 62
7
100
AcDbLine
 10
-4.431087680972451
 20
15.88621753619449
 30
0.0
 11
-2.954058453981632
 21
14.40918830920367
 31
0.0
  0
LINE
  5
9D0
330
1F
100
AcDbEntity
  8
SK2
  6
CONTINUOUS
370
25
 62
7
100
AcDbLine
 10
-3.90075759508254
 20
15.78015151901651
 30
0.0
 11
-2.600505063388358
 21
14.47989898732233
 31
0.0
  0
LINE
  5
9D1
330
1F
100
AcDbEntity
  8
SK2
  6
CONTINUOUS
370
25
 62
7
100
AcDbLine
 10
-3.370427509192631
 20
15.67408550183853
 30
0.0
 11
-2.246951672795086
 21
14.55060966544098
 31
0.0
  0
LINE
  5
9D2
330
1F
100
AcDbEntity
  8
SK2
  6
CONTINUOUS
370
25
 62
7
100
AcDbLine
 10
-2.840097423302721
 20
15.56801948466054
 30
0.0
 11
-1.893398282201812
 21
14.62132034355964
 31
0.0
  0
LINE
  5
9D3
330
1F
100
AcDbEntity
  8
SK2
  6
CONTINUOUS
370
25
 62
7
100
AcDbLine
 10
-2.30976733741281
 20
15.46195346748256
 30
0.0
 11
-1.539844891608539
 21
14.69203102167829
 31
0.0
  0
LINE
  5
9D4
330
1F
100
AcDbEntity
  8
SK2
  6
CONTINUOUS
370
25
 62
7
100
AcDbLine
 10
-1.7794372515229
 20
15.35588745030458
 30
0.0
 11
-1.186291501015265
 21
14.76274169979695
 31
0.0
  0
LINE
  5
9D5
330
1F
100
AcDbEntity
  8
SK2
  6
CONTINUOUS
370
25
 62
7
100
AcDbLine
 10
-1.249107165632989
 20
15.2498214331266
 30
0.0
 11
-0.8327381104219916
 21
14.8334523779156
 31
0.0
  0
LINE
  5
9D6
330
1F
100
AcDbEntity
  8
SK2
  6
CONTINUOUS
370
25
 62
7
100
AcDbLine
 10
-0.7187770797430799
 20
15.14375541594862
 30
0.0
 11
-0.4791847198287195
 21
14.90416305603426
 31
0.0
  0
LINE
  5
9D7
330
1F
100
AcDbEntity
  8
SK2
  6
CONTINUOUS
370
25
 62
7
100
AcDbLine
 10
-0.1884469938531668
 20
15.03768939877063
 30
0.0
 11
-0.1256313292354444
 21
14.97487373415291
 31
0.0
  0
TEXT
  5
9D8
330
1F
100
AcDbEntity
  8
SK2
  6
CONTINUOUS
370
25
 62
7
100
AcDbText
 10
-28.71666666666667
 20
16.5
 30
0.0
 40
3.5
  1
48.1
 72
     1
 11
-24.05
 21
16.5
 31
0.0
100
AcDbText
  0
LINE
  5
9D9
330
1F
100
AcDbEntity
  8
2
  6
CONTINUOUS
370
25
 62
7
100
AcDbLine
 10
10.9
 20
-0.9999999999999999
 30
0.0
 11
41.8
 21
-1.000000000000004
 31
0.0
  0
LINE
  5
9DA
330
1F
100
AcDbEntity
  8
2
  6
CONTINUOUS
370
25
 62
7
100
AcDbLine
 10
41.8
 20
0.9999999999999963
 30
0.0
 11
10.9
 21
1.0
 31
0.0
  0
LINE
  5
9DB
330
1F
100
AcDbEntity
  8
2
  6
CONTINUOUS
370
25
 62
7
100
AcDbLine
 10
40.8
 20
-8.000000000000004
 30
0.0
 11
40.8
 21
14.475
 31
0.0
  0
LINE
  5
9DC
330
1F
100
AcDbEntity
  8
2
  6
CONTINUOUS
370
25
 62
7
100
AcDbLine
 10
40.8
 20
-1.000000000000004
 30
0.0
 11
41.8
 21
-6.000000000000004
 31
0.0
  0
LINE
  5
9DD
330
1F
100
AcDbEntity
  8
2
  6
CONTINUOUS
370
25
 62
7
100
AcDbLine
 10
41.8
 20
-6.000000000000004
 30
0.0
 11
39.8
 21
-6.000000000000004
 31
0.0
  0
LINE
  5
9DE
330
1F
100
AcDbEntity
  8
2
  6
CONTINUOUS
370
25
 62
7
100
AcDbLine
 10
39.8
 20
-6.000000000000004
 30
0.0
 11
40.8
 21
-1.000000000000004
 31
0.0
  0
LINE
  5
9DF
330
1F
100
AcDbEntity
  8
2
  6
CONTINUOUS
370
25
 62
7
100
AcDbLine
 10
41.76272249010493
 20
-6.0
 30
0.0
 11
41.79378708168415
 21
-5.968935408420776
 31
0.0
  0
LINE
  5
9E0
330
1F
100
AcDbEntity
  8
2
  6
CONTINUOUS
370
25
 62
7
100
AcDbLine
 10
41.33845842139299
 20
-6.000000000000007
 30
0.0
 11
41.7230764035655
 21
-5.6153820178275
 31
0.0
  0
LINE
  5
9E1
330
1F
100
AcDbEntity
  8
2
  6
CONTINUOUS
370
25
 62
7
100
AcDbLine
 10
40.91419435268107
 20
-6.0
 30
0.0
 11
41.65236572544685
 21
-5.261828627234223
 31
0.0
  0
LINE
  5
9E2
330
1F
100
AcDbEntity
  8
2
  6
CONTINUOUS
370
25
 62
7
100
AcDbLine
 10
40.48993028396914
 20
-6.0
 30
0.0
 11
41.58165504732819
 21
-4.908275236640947
 31
0.0
  0
LINE
  5
9E3
330
1F
100
AcDbEntity
  8
2
  6
CONTINUOUS
370
25
 62
7
100
AcDbLine
 10
40.0656662152572
 20
-6.0
 30
0.0
 11
41.51094436920954
 21
-4.554721846047663
 31
0.0
  0
LINE
  5
9E4
330
1F
100
AcDbEntity
  8
2
  6
CONTINUOUS
370
25
 62
7
100
AcDbLine
 10
39.83964946336368
 20
-5.80175268318159
 30
0.0
 11
41.44023369109088
 21
-4.201168455454386
 31
0.0
  0
LINE
  5
9E5
330
1F
100
AcDbEntity
  8
2
  6
CONTINUOUS
370
25
 62
7
100
AcDbLine
 10
39.94571548054167
 20
-5.271422597291668
 30
0.0
 11
41.36952301297222
 21
-3.84761506486111
 31
0.0
  0
LINE
  5
9E6
330
1F
100
AcDbEntity
  8
2
  6
CONTINUOUS
370
25
 62
7
100
AcDbLine
 10
40.05178149771965
 20
-4.741092511401753
 30
0.0
 11
41.29881233485357
 21
-3.494061674267833
 31
0.0
  0
LINE
  5
9E7
330
1F
100
AcDbEntity
  8
2
  6
CONTINUOUS
370
25
 62
7
100
AcDbLine
 10
40.15784751489763
 20
-4.210762425511838
 30
0.0
 11
41.22810165673491
 21
-3.140508283674563
 31
0.0
  0
LINE
  5
9E8
330
1F
100
AcDbEntity
  8
2
  6
CONTINUOUS
370
25
 62
7
100
AcDbLine
 10
40.26391353207561
 20
-3.68043233962193
 30
0.0
 11
41.15739097861626
 21
-2.786954893081287
 31
0.0
  0
LINE
  5
9E9
330
1F
100
AcDbEntity
  8
2
  6
CONTINUOUS
370
25
 62
7
100
AcDbLine
 10
40.36997954925359
 20
-3.150102253732022
 30
0.0
 11
41.0866803004976
 21
-2.43340150248801
 31
0.0
  0
LINE
  5
9EA
330
1F
100
AcDbEntity
  8
2
  6
CONTINUOUS
370
25
 62
7
100
AcDbLine
 10
40.47604556643158
 20
-2.6197721678421
 30
0.0
 11
41.01596962237895
 21
-2.079848111894734
 31
0.0
  0
LINE
  5
9EB
330
1F
100
AcDbEntity
  8
2
  6
CONTINUOUS
370
25
 62
7
100
AcDbLine
 10
40.58211158360957
 20
-2.089442081952178
 30
0.0
 11
40.94525894426029
 21
-1.726294721301457
 31
0.0
  0
LINE
  5
9EC
330
1F
100
AcDbEntity
  8
2
  6
CONTINUOUS
370
25
 62
7
100
AcDbLine
 10
40.68817760078755
 20
-1.559111996062271
 30
0.0
 11
40.87454826614163
 21
-1.372741330708187
 31
0.0
  0
LINE
  5
9ED
330
1F
100
AcDbEntity
  8
2
  6
CONTINUOUS
370
25
 62
7
100
AcDbLine
 10
40.79424361796553
 20
-1.028781910172363
 30
0.0
 11
40.80383758802298
 21
-1.019187940114911
 31
0.0
  0
LINE
  5
9EE
330
1F
100
AcDbEntity
  8
2
  6
CONTINUOUS
370
25
 62
7
100
AcDbLine
 10
39.82352091615904
 20
-5.882395419204776
 30
0.0
 11
39.94112549695427
 21
-6.000000000000007
 31
0.0
  0
LINE
  5
9EF
330
1F
100
AcDbEntity
  8
2
  6
CONTINUOUS
370
25
 62
7
100
AcDbLine
 10
39.8942315942777
 20
-5.5288420286115
 30
0.0
 11
40.36538956566621
 21
-6.000000000000007
 31
0.0
  0
LINE
  5
9F0
330
1F
100
AcDbEntity
  8
2
  6
CONTINUOUS
370
25
 62
7
100
AcDbLine
 10
39.96494227239635
 20
-5.175288638018223
 30
0.0
 11
40.78965363437813
 21
-6.0
 31
0.0
  0
LINE
  5
9F1
330
1F
100
AcDbEntity
  8
2
  6
CONTINUOUS
370
25
 62
7
100
AcDbLine
 10
40.03565295051501
 20
-4.821735247424954
 30
0.0
 11
41.21391770309006
 21
-6.0
 31
0.0
  0
LINE
  5
9F2
330
1F
100
AcDbEntity
  8
2
  6
CONTINUOUS
370
25
 62
7
100
AcDbLine
 10
40.10636362863367
 20
-4.468181856831684
 30
0.0
 11
41.63818177180199
 21
-6.0
 31
0.0
  0
LINE
  5
9F3
330
1F
100
AcDbEntity
  8
2
  6
CONTINUOUS
370
25
 62
7
100
AcDbLine
 10
40.17707430675232
 20
-4.114628466238401
 30
0.0
 11
41.73438853987152
 21
-5.671942699357601
 31
0.0
  0
LINE
  5
9F4
330
1F
100
AcDbEntity
  8
2
  6
CONTINUOUS
370
25
 62
7
100
AcDbLine
 10
40.24778498487098
 20
-3.761075075645124
 30
0.0
 11
41.62832252269354
 21
-5.141612613467679
 31
0.0
  0
LINE
  5
9F5
330
1F
100
AcDbEntity
  8
2
  6
CONTINUOUS
370
25
 62
7
100
AcDbLine
 10
40.31849566298963
 20
-3.407521685051854
 30
0.0
 11
41.52225650551555
 21
-4.611282527577771
 31
0.0
  0
LINE
  5
9F6
330
1F
100
AcDbEntity
  8
2
  6
CONTINUOUS
370
25
 62
7
100
AcDbLine
 10
40.38920634110829
 20
-3.053968294458578
 30
0.0
 11
41.41619048833757
 21
-4.080952441687856
 31
0.0
  0
LINE
  5
9F7
330
1F
100
AcDbEntity
  8
2
  6
CONTINUOUS
370
25
 62
7
100
AcDbLine
 10
40.45991701922694
 20
-2.700414903865301
 30
0.0
 11
41.31012447115959
 21
-3.550622355797948
 31
0.0
  0
LINE
  5
9F8
330
1F
100
AcDbEntity
  8
2
  6
CONTINUOUS
370
25
 62
7
100
AcDbLine
 10
40.53062769734559
 20
-2.346861513272017
 30
0.0
 11
41.20405845398161
 21
-3.020292269908026
 31
0.0
  0
LINE
  5
9F9
330
1F
100
AcDbEntity
  8
2
  6
CONTINUOUS
370
25
 62
7
100
AcDbLine
 10
40.60133837546425
 20
-1.993308122678748
 30
0.0
 11
41.09799243680362
 21
-2.489962184018118
 31
0.0
  0
LINE
  5
9FA
330
1F
100
AcDbEntity
  8
2
  6
CONTINUOUS
370
25
 62
7
100
AcDbLine
 10
40.67204905358291
 20
-1.639754732085471
 30
0.0
 11
40.99192641962564
 21
-1.959632098128203
 31
0.0
  0
LINE
  5
9FB
330
1F
100
AcDbEntity
  8
2
  6
CONTINUOUS
370
25
 62
7
100
AcDbLine
 10
40.74275973170157
 20
-1.286201341492195
 30
0.0
 11
40.88586040244765
 21
-1.429302012238281
 31
0.0
  0
LINE
  5
9FC
330
1F
100
AcDbEntity
  8
2
  6
CONTINUOUS
370
25
 62
7
100
AcDbLine
 10
40.8
 20
0.9999999999999964
 30
0.0
 11
39.8
 21
5.999999999999996
 31
0.0
  0
LINE
  5
9FD
330
1F
100
AcDbEntity
  8
2
  6
CONTINUOUS
370
25
 62
7
100
AcDbLine
 10
39.8
 20
5.999999999999996
 30
0.0
 11
41.8
 21
5.999999999999996
 31
0.0
  0
LINE
  5
9FE
330
1F
100
AcDbEntity
  8
2
  6
CONTINUOUS
370
25
 62
7
100
AcDbLine
 10
41.8
 20
5.999999999999996
 30
0.0
 11
40.8
 21
0.9999999999999964
 31
0.0
  0
LINE
  5
9FF
330
1F
100
AcDbEntity
  8
2
  6
CONTINUOUS
370
25
 62
7
100
AcDbLine
 10
40.78373657534532
 20
1.081317123273394
 30
0.0
 11
40.82439513698202
 21
1.12197568491009
 31
0.0
  0
LINE
  5
A00
330
1F
100
AcDbEntity
  8
2
  6
CONTINUOUS
370
25
 62
7
100
AcDbLine
 10
40.71302589722666
 20
1.43487051386667
 30
0.0
 11
40.93046115416
 21
1.652305770800005
 31
0.0
  0
LINE
  5
A01
330
1F
100
AcDbEntity
  8
2
  6
CONTINUOUS
370
25
 62
7
100
AcDbLine
 10
40.64231521910801
 20
1.78842390445994
 30
0.0
 11
41.03652717133799
 21
2.18263585668992
 31
0.0
  0
LINE
  5
A02
330
1F
100
AcDbEntity
  8
2
  6
CONTINUOUS
370
25
 62
7
100
AcDbLine
 10
40.57160454098935
 20
2.141977295053216
 30
0.0
 11
41.14259318851597
 21
2.712965942579842
 31
0.0
  0
LINE
  5
A03
330
1F
100
AcDbEntity
  8
2
  6
CONTINUOUS
370
25
 62
7
100
AcDbLine
 10
40.5008938628707
 20
2.495530685646493
 30
0.0
 11
41.24865920569395
 21
3.24329602846975
 31
0.0
  0
LINE
  5
A04
330
1F
100
AcDbEntity
  8
2
  6
CONTINUOUS
370
25
 62
7
100
AcDbLine
 10
40.43018318475205
 20
2.849084076239777
 30
0.0
 11
41.35472522287193
 21
3.773626114359665
 31
0.0
  0
LINE
  5
A05
330
1F
100
AcDbEntity
  8
2
  6
CONTINUOUS
370
25
 62
7
100
AcDbLine
 10
40.35947250663339
 20
3.202637466833046
 30
0.0
 11
41.46079124004991
 21
4.303956200249573
 31
0.0
  0
LINE
  5
A06
330
1F
100
AcDbEntity
  8
2
  6
CONTINUOUS
370
25
 62
7
100
AcDbLine
 10
40.28876182851473
 20
3.556190857426323
 30
0.0
 11
41.5668572572279
 21
4.834286286139495
 31
0.0
  0
LINE
  5
A07
330
1F
100
AcDbEntity
  8
2
  6
CONTINUOUS
370
25
 62
7
100
AcDbLine
 10
40.21805115039607
 20
3.909744248019599
 30
0.0
 11
41.67292327440589
 21
5.364616372029417
 31
0.0
  0
LINE
  5
A08
330
1F
100
AcDbEntity
  8
2
  6
CONTINUOUS
370
25
 62
7
100
AcDbLine
 10
40.14734047227743
 20
4.263297638612883
 30
0.0
 11
41.77898929158386
 21
5.894946457919318
 31
0.0
  0
LINE
  5
A09
330
1F
100
AcDbEntity
  8
2
  6
CONTINUOUS
370
25
 62
7
100
AcDbLine
 10
40.07662979415878
 20
4.616851029206167
 30
0.0
 11
41.45977876495261
 21
6.0
 31
0.0
  0
LINE
  5
A0A
330
1F
100
AcDbEntity
  8
2
  6
CONTINUOUS
370
25
 62
7
100
AcDbLine
 10
40.00591911604012
 20
4.970404419799436
 30
0.0
 11
41.03551469624067
 21
5.999999999999993
 31
0.0
  0
LINE
  5
A0B
330
1F
100
AcDbEntity
  8
2
  6
CONTINUOUS
370
25
 62
7
100
AcDbLine
 10
39.93520843792146
 20
5.323957810392713
 30
0.0
 11
40.61125062752874
 21
5.999999999999993
 31
0.0
  0
LINE
  5
A0C
330
1F
100
AcDbEntity
  8
2
  6
CONTINUOUS
370
25
 62
7
100
AcDbLine
 10
39.8644977598028
 20
5.677511200985982
 30
0.0
 11
40.18698655881681
 21
5.999999999999993
 31
0.0
  0
LINE
  5
A0D
330
1F
100
AcDbEntity
  8
2
  6
CONTINUOUS
370
25
 62
7
100
AcDbLine
 10
40.74946429937977
 20
1.252678503101144
 30
0.0
 11
40.83369046708015
 21
1.168452335400765
 31
0.0
  0
LINE
  5
A0E
330
1F
100
AcDbEntity
  8
2
  6
CONTINUOUS
370
25
 62
7
100
AcDbLine
 10
40.64339828220179
 20
1.783008588991066
 30
0.0
 11
40.90440114519881
 21
1.522005725994042
 31
0.0
  0
LINE
  5
A0F
330
1F
100
AcDbEntity
  8
2
  6
CONTINUOUS
370
25
 62
7
100
AcDbLine
 10
40.5373322650238
 20
2.313338674880988
 30
0.0
 11
40.97511182331747
 21
1.875559116587318
 31
0.0
  0
LINE
  5
A10
330
1F
100
AcDbEntity
  8
2
  6
CONTINUOUS
370
25
 62
7
100
AcDbLine
 10
40.43126624784582
 20
2.843668760770896
 30
0.0
 11
41.04582250143612
 21
2.229112507180595
 31
0.0
  0
LINE
  5
A11
330
1F
100
AcDbEntity
  8
2
  6
CONTINUOUS
370
25
 62
7
100
AcDbLine
 10
40.32520023066784
 20
3.373998846660811
 30
0.0
 11
41.11653317955478
 21
2.582665897773872
 31
0.0
  0
LINE
  5
A12
330
1F
100
AcDbEntity
  8
2
  6
CONTINUOUS
370
25
 62
7
100
AcDbLine
 10
40.21913421348986
 20
3.904328932550719
 30
0.0
 11
41.18724385767343
 21
2.936219288367155
 31
0.0
  0
LINE
  5
A13
330
1F
100
AcDbEntity
  8
2
  6
CONTINUOUS
370
25
 62
7
100
AcDbLine
 10
40.11306819631187
 20
4.434659018440641
 30
0.0
 11
41.25795453579209
 21
3.289772678960432
 31
0.0
  0
LINE
  5
A14
330
1F
100
AcDbEntity
  8
2
  6
CONTINUOUS
370
25
 62
7
100
AcDbLine
 10
40.00700217913389
 20
4.964989104330549
 30
0.0
 11
41.32866521391074
 21
3.643326069553709
 31
0.0
  0
LINE
  5
A15
330
1F
100
AcDbEntity
  8
2
  6
CONTINUOUS
370
25
 62
7
100
AcDbLine
 10
39.9009361619559
 20
5.495319190220478
 30
0.0
 11
41.3993758920294
 21
3.996879460146985
 31
0.0
  0
LINE
  5
A16
330
1F
100
AcDbEntity
  8
2
  6
CONTINUOUS
370
25
 62
7
100
AcDbLine
 10
39.82051942088832
 20
5.999999999999993
 30
0.0
 11
41.47008657014806
 21
4.350432850740255
 31
0.0
  0
LINE
  5
A17
330
1F
100
AcDbEntity
  8
2
  6
CONTINUOUS
370
25
 62
7
100
AcDbLine
 10
40.24478348960025
 20
5.999999999999993
 30
0.0
 11
41.54079724826671
 21
4.703986241333538
 31
0.0
  0
LINE
  5
A18
330
1F
100
AcDbEntity
  8
2
  6
CONTINUOUS
370
25
 62
7
100
AcDbLine
 10
40.66904755831217
 20
5.999999999999993
 30
0.0
 11
41.61150792638536
 21
5.057539631926815
 31
0.0
  0
LINE
  5
A19
330
1F
100
AcDbEntity
  8
2
  6
CONTINUOUS
370
25
 62
7
100
AcDbLine
 10
41.09331162702411
 20
5.999999999999993
 30
0.0
 11
41.68221860450402
 21
5.411093022520092
 31
0.0
  0
LINE
  5
A1A
330
1F
100
AcDbEntity
  8
2
  6
CONTINUOUS
370
25
 62
7
100
AcDbLine
 10
41.51757569573603
 20
6.0
 30
0.0
 11
41.75292928262267
 21
5.764646413113361
 31
0.0
  0
TEXT
  5
A1B
330
1F
100
AcDbEntity
  8
2
  6
CONTINUOUS
370
25
 62
7
100
AcDbText
 10
39.3
 20
11.34583333333333
 30
0.0
 40
3.5
  1
2
 50
90.00000000000001
 72
     1
 11
39.3
 21
12.5125
 31
0.0
100
AcDbText
  0
CIRCLE
  5
A1C
330
1F
100
AcDbEntity
  8
2
  6
CONTINUOUS
370
25
 62
7
100
AcDbCircle
 10
37.55
 20
9.187499999999996
 30
0.0
 40
1.4
  0
LINE
  5
A1D
330
1F
100
AcDbEntity
  8
2
  6
CONTINUOUS
370
25
 62
7
100
AcDbLine
 10
38.95
 20
7.787499999999998
 30
0.0
 11
36.15
 21
10.5875
 31
0.0
  0
LINE
  5
A1E
330
1F
100
AcDbEntity
  8
2
  6
CONTINUOUS
370
25
 62
7
100
AcDbLine
 10
9.9
 20
-0.97495
 30
0.0
 11
6.9
 21
-0.9749499999999997
 31
0.0
  0
LINE
  5
A1F
330
1F
100
AcDbEntity
  8
2
  6
CONTINUOUS
370
25
 62
7
100
AcDbLine
 10
6.9
 20
0.9749500000000003
 30
0.0
 11
9.9
 21
0.97495
 31
0.0
  0
LINE
  5
A20
330
1F
100
AcDbEntity
  8
2
  6
CONTINUOUS
370
25
 62
7
100
AcDbLine
 10
7.9
 20
-7.97495
 30
0.0
 11
7.9
 21
23.37495
 31
0.0
  0
LINE
  5
A21
330
1F
100
AcDbEntity
  8
2
  6
CONTINUOUS
370
25
 62
7
100
AcDbLine
 10
7.9
 20
-0.9749499999999998
 30
0.0
 11
8.9
 21
-5.97495
 31
0.0
  0
LINE
  5
A22
330
1F
100
AcDbEntity
  8
2
  6
CONTINUOUS
370
25
 62
7
100
AcDbLine
 10
8.9
 20
-5.97495
 30
0.0
 11
6.9
 21
-5.97495
 31
0.0
  0
LINE
  5
A23
330
1F
100
AcDbEntity
  8
2
  6
CONTINUOUS
370
25
 62
7
100
AcDbLine
 10
6.9
 20
-5.97495
 30
0.0
 11
7.9
 21
-0.9749499999999998
 31
0.0
  0
LINE
  5
A24
330
1F
100
AcDbEntity
  8
2
  6
CONTINUOUS
370
25
 62
7
100
AcDbLine
 10
8.606005780923402
 20
-5.97495
 30
0.0
 11
8.851000963487234
 21
-5.729954817436168
 31
0.0
  0
LINE
  5
A25
330
1F
100
AcDbEntity
  8
2
  6
CONTINUOUS
370
25
 62
7
100
AcDbLine
 10
8.181741712211474
 20
-5.97495
 30
0.0
 11
8.78029028536858
 21
-5.376401426842895
 31
0.0
  0
LINE
  5
A26
330
1F
100
AcDbEntity
  8
2
  6
CONTINUOUS
370
25
 62
7
100
AcDbLine
 10
7.757477643499547
 20
-5.97495
 30
0.0
 11
8.709579607249925
 21
-5.022848036249622
 31
0.0
  0
LINE
  5
A27
330
1F
100
AcDbEntity
  8
2
  6
CONTINUOUS
370
25
 62
7
100
AcDbLine
 10
7.333213574787619
 20
-5.97495
 30
0.0
 11
8.63886892913127
 21
-4.669294645656349
 31
0.0
  0
LINE
  5
A28
330
1F
100
AcDbEntity
  8
2
  6
CONTINUOUS
370
25
 62
7
100
AcDbLine
 10
6.908949506075692
 20
-5.97495
 30
0.0
 11
8.568158251012616
 21
-4.315741255063076
 31
0.0
  0
LINE
  5
A29
330
1F
100
AcDbEntity
  8
2
  6
CONTINUOUS
370
25
 62
7
100
AcDbLine
 10
7.00382864065906
 20
-5.455806796704704
 30
0.0
 11
8.497447572893961
 21
-3.962187864469803
 31
0.0
  0
LINE
  5
A2A
330
1F
100
AcDbEntity
  8
2
  6
CONTINUOUS
370
25
 62
7
100
AcDbLine
 10
7.109894657837041
 20
-4.925476710814795
 30
0.0
 11
8.426736894775306
 21
-3.608634473876529
 31
0.0
  0
LINE
  5
A2B
330
1F
100
AcDbEntity
  8
2
  6
CONTINUOUS
370
25
 62
7
100
AcDbLine
 10
7.215960675015023
 20
-4.395146624924883
 30
0.0
 11
8.356026216656652
 21
-3.255081083283255
 31
0.0
  0
LINE
  5
A2C
330
1F
100
AcDbEntity
  8
2
  6
CONTINUOUS
370
25
 62
7
100
AcDbLine
 10
7.322026692193005
 20
-3.864816539034973
 30
0.0
 11
8.285315538537997
 21
-2.901527692689982
 31
0.0
  0
LINE
  5
A2D
330
1F
100
AcDbEntity
  8
2
  6
CONTINUOUS
370
25
 62
7
100
AcDbLine
 10
7.428092709370987
 20
-3.334486453145064
 30
0.0
 11
8.214604860419342
 21
-2.547974302096708
 31
0.0
  0
LINE
  5
A2E
330
1F
100
AcDbEntity
  8
2
  6
CONTINUOUS
370
25
 62
7
100
AcDbLine
 10
7.534158726548969
 20
-2.804156367255152
 30
0.0
 11
8.143894182300688
 21
-2.194420911503434
 31
0.0
  0
LINE
  5
A2F
330
1F
100
AcDbEntity
  8
2
  6
CONTINUOUS
370
25
 62
7
100
AcDbLine
 10
7.640224743726951
 20
-2.273826281365243
 30
0.0
 11
8.073183504182033
 21
-1.840867520910161
 31
0.0
  0
LINE
  5
A30
330
1F
100
AcDbEntity
  8
2
  6
CONTINUOUS
370
25
 62
7
100
AcDbLine
 10
7.746290760904934
 20
-1.743496195475331
 30
0.0
 11
8.002472826063377
 21
-1.487314130316888
 31
0.0
  0
LINE
  5
A31
330
1F
100
AcDbEntity
  8
2
  6
CONTINUOUS
370
25
 62
7
100
AcDbLine
 10
7.852356778082916
 20
-1.213166109585421
 30
0.0
 11
7.931762147944724
 21
-1.133760739723613
 31
0.0
  0
LINE
  5
A32
330
1F
100
AcDbEntity
  8
2
  6
CONTINUOUS
370
25
 62
7
100
AcDbLine
 10
6.966037279455873
 20
-5.644763602720634
 30
0.0
 11
7.29622367673524
 21
-5.97495
 31
0.0
  0
LINE
  5
A33
330
1F
100
AcDbEntity
  8
2
  6
CONTINUOUS
370
25
 62
7
100
AcDbLine
 10
7.036747957574527
 20
-5.291210212127361
 30
0.0
 11
7.720487745447167
 21
-5.97495
 31
0.0
  0
LINE
  5
A34
330
1F
100
AcDbEntity
  8
2
  6
CONTINUOUS
370
25
 62
7
100
AcDbLine
 10
7.107458635693182
 20
-4.937656821534089
 30
0.0
 11
8.144751814159095
 21
-5.97495
 31
0.0
  0
LINE
  5
A35
330
1F
100
AcDbEntity
  8
2
  6
CONTINUOUS
370
25
 62
7
100
AcDbLine
 10
7.178169313811838
 20
-4.584103430940816
 30
0.0
 11
8.569015882871023
 21
-5.97495
 31
0.0
  0
LINE
  5
A36
330
1F
100
AcDbEntity
  8
2
  6
CONTINUOUS
370
25
 62
7
100
AcDbLine
 10
7.248879991930493
 20
-4.230550040347541
 30
0.0
 11
8.876680012104261
 21
-5.858350060521309
 31
0.0
  0
LINE
  5
A37
330
1F
100
AcDbEntity
  8
2
  6
CONTINUOUS
370
25
 62
7
100
AcDbLine
 10
7.319590670049146
 20
-3.876996649754267
 30
0.0
 11
8.770613994926281
 21
-5.328019974631403
 31
0.0
  0
LINE
  5
A38
330
1F
100
AcDbEntity
  8
2
  6
CONTINUOUS
370
25
 62
7
100
AcDbLine
 10
7.3903013481678
 20
-3.523443259160994
 30
0.0
 11
8.664547977748299
 21
-4.797689888741493
 31
0.0
  0
LINE
  5
A39
330
1F
100
AcDbEntity
  8
2
  6
CONTINUOUS
370
25
 62
7
100
AcDbLine
 10
7.461012026286455
 20
-3.169889868567719
 30
0.0
 11
8.558481960570317
 21
-4.267359802851582
 31
0.0
  0
LINE
  5
A3A
330
1F
100
AcDbEntity
  8
2
  6
CONTINUOUS
370
25
 62
7
100
AcDbLine
 10
7.53172270440511
 20
-2.816336477974446
 30
0.0
 11
8.452415943392335
 21
-3.737029716961672
 31
0.0
  0
LINE
  5
A3B
330
1F
100
AcDbEntity
  8
2
  6
CONTINUOUS
370
25
 62
7
100
AcDbLine
 10
7.602433382523766
 20
-2.462783087381173
 30
0.0
 11
8.346349926214351
 21
-3.206699631071759
 31
0.0
  0
LINE
  5
A3C
330
1F
100
AcDbEntity
  8
2
  6
CONTINUOUS
370
25
 62
7
100
AcDbLine
 10
7.673144060642419
 20
-2.109229696787899
 30
0.0
 11
8.240283909036371
 21
-2.676369545181851
 31
0.0
  0
LINE
  5
A3D
330
1F
100
AcDbEntity
  8
2
  6
CONTINUOUS
370
25
 62
7
100
AcDbLine
 10
7.743854738761075
 20
-1.755676306194625
 30
0.0
 11
8.134217891858388
 21
-2.146039459291938
 31
0.0
  0
LINE
  5
A3E
330
1F
100
AcDbEntity
  8
2
  6
CONTINUOUS
370
25
 62
7
100
AcDbLine
 10
7.81456541687973
 20
-1.402122915601352
 30
0.0
 11
8.028151874680406
 21
-1.615709373402028
 31
0.0
  0
LINE
  5
A3F
330
1F
100
AcDbEntity
  8
2
  6
CONTINUOUS
370
25
 62
7
100
AcDbLine
 10
7.885276094998384
 20
-1.048569525008079
 30
0.0
 11
7.922085857502424
 21
-1.085379287512119
 31
0.0
  0
LINE
  5
A40
330
1F
100
AcDbEntity
  8
2
  6
CONTINUOUS
370
25
 62
7
100
AcDbLine
 10
7.9
 20
0.9749500000000002
 30
0.0
 11
6.9
 21
5.97495
 31
0.0
  0
LINE
  5
A41
330
1F
100
AcDbEntity
  8
2
  6
CONTINUOUS
370
25
 62
7
100
AcDbLine
 10
6.9
 20
5.97495
 30
0.0
 11
8.9
 21
5.97495
 31
0.0
  0
LINE
  5
A42
330
1F
100
AcDbEntity
  8
2
  6
CONTINUOUS
370
25
 62
7
100
AcDbLine
 10
8.9
 20
5.97495
 30
0.0
 11
7.9
 21
0.9749500000000002
 31
0.0
  0
LINE
  5
A43
330
1F
100
AcDbEntity
  8
2
  6
CONTINUOUS
370
25
 62
7
100
AcDbLine
 10
7.849300457148399
 20
1.228447714258006
 30
0.0
 11
7.976049314277401
 21
1.355196571387008
 31
0.0
  0
LINE
  5
A44
330
1F
100
AcDbEntity
  8
2
  6
CONTINUOUS
370
25
 62
7
100
AcDbLine
 10
7.778589779029744
 20
1.58200110485128
 30
0.0
 11
8.082115331455384
 21
1.885526657276919
 31
0.0
  0
LINE
  5
A45
330
1F
100
AcDbEntity
  8
2
  6
CONTINUOUS
370
25
 62
7
100
AcDbLine
 10
7.707879100911089
 20
1.935554495444554
 30
0.0
 11
8.188181348633366
 21
2.415856743166829
 31
0.0
  0
LINE
  5
A46
330
1F
100
AcDbEntity
  8
2
  6
CONTINUOUS
370
25
 62
7
100
AcDbLine
 10
7.637168422792435
 20
2.289107886037827
 30
0.0
 11
8.294247365811348
 21
2.946186829056739
 31
0.0
  0
LINE
  5
A47
330
1F
100
AcDbEntity
  8
2
  6
CONTINUOUS
370
25
 62
7
100
AcDbLine
 10
7.56645774467378
 20
2.642661276631099
 30
0.0
 11
8.40031338298933
 21
3.476516914946647
 31
0.0
  0
LINE
  5
A48
330
1F
100
AcDbEntity
  8
2
  6
CONTINUOUS
370
25
 62
7
100
AcDbLine
 10
7.495747066555126
 20
2.996214667224374
 30
0.0
 11
8.506379400167312
 21
4.006847000836558
 31
0.0
  0
LINE
  5
A49
330
1F
100
AcDbEntity
  8
2
  6
CONTINUOUS
370
25
 62
7
100
AcDbLine
 10
7.425036388436471
 20
3.349768057817647
 30
0.0
 11
8.612445417345294
 21
4.537177086726468
 31
0.0
  0
LINE
  5
A4A
330
1F
100
AcDbEntity
  8
2
  6
CONTINUOUS
370
25
 62
7
100
AcDbLine
 10
7.354325710317816
 20
3.70332144841092
 30
0.0
 11
8.718511434523275
 21
5.067507172616379
 31
0.0
  0
LINE
  5
A4B
330
1F
100
AcDbEntity
  8
2
  6
CONTINUOUS
370
25
 62
7
100
AcDbLine
 10
7.283615032199162
 20
4.056874839004193
 30
0.0
 11
8.824577451701257
 21
5.597837258506286
 31
0.0
  0
LINE
  5
A4C
330
1F
100
AcDbEntity
  8
2
  6
CONTINUOUS
370
25
 62
7
100
AcDbLine
 10
7.212904354080507
 20
4.410428229597466
 30
0.0
 11
8.777426124483043
 21
5.97495
 31
0.0
  0
LINE
  5
A4D
330
1F
100
AcDbEntity
  8
2
  6
CONTINUOUS
370
25
 62
7
100
AcDbLine
 10
7.142193675961853
 20
4.763981620190741
 30
0.0
 11
8.353162055771113
 21
5.97495
 31
0.0
  0
LINE
  5
A4E
330
1F
100
AcDbEntity
  8
2
  6
CONTINUOUS
370
25
 62
7
100
AcDbLine
 10
7.071482997843198
 20
5.117535010784014
 30
0.0
 11
7.928897987059185
 21
5.97495
 31
0.0
  0
LINE
  5
A4F
330
1F
100
AcDbEntity
  8
2
  6
CONTINUOUS
370
25
 62
7
100
AcDbLine
 10
7.000772319724543
 20
5.471088401377285
 30
0.0
 11
7.504633918347259
 21
5.97495
 31
0.0
  0
LINE
  5
A50
330
1F
100
AcDbEntity
  8
2
  6
CONTINUOUS
370
25
 62
7
100
AcDbLine
 10
6.930061641605889
 20
5.824641791970559
 30
0.0
 11
7.080369849635329
 21
5.97495
 31
0.0
  0
LINE
  5
A51
330
1F
100
AcDbEntity
  8
2
  6
CONTINUOUS
370
25
 62
7
100
AcDbLine
 10
7.891351139262374
 20
1.018194303688129
 30
0.0
 11
7.905765907158417
 21
1.003779535792086
 31
0.0
  0
LINE
  5
A52
330
1F
100
AcDbEntity
  8
2
  6
CONTINUOUS
370
25
 62
7
100
AcDbLine
 10
7.785285122084391
 20
1.548524389578041
 30
0.0
 11
7.976476585277073
 21
1.35733292638536
 31
0.0
  0
LINE
  5
A53
330
1F
100
AcDbEntity
  8
2
  6
CONTINUOUS
370
25
 62
7
100
AcDbLine
 10
7.67921910490641
 20
2.078854475467949
 30
0.0
 11
8.047187263395726
 21
1.710886316978634
 31
0.0
  0
LINE
  5
A54
330
1F
100
AcDbEntity
  8
2
  6
CONTINUOUS
370
25
 62
7
100
AcDbLine
 10
7.573153087728427
 20
2.609184561357861
 30
0.0
 11
8.117897941514382
 21
2.064439707571907
 31
0.0
  0
LINE
  5
A55
330
1F
100
AcDbEntity
  8
2
  6
CONTINUOUS
370
25
 62
7
100
AcDbLine
 10
7.467087070550445
 20
3.139514647247773
 30
0.0
 11
8.188608619633037
 21
2.417993098165182
 31
0.0
  0
LINE
  5
A56
330
1F
100
AcDbEntity
  8
2
  6
CONTINUOUS
370
25
 62
7
100
AcDbLine
 10
7.361021053372465
 20
3.66984473313768
 30
0.0
 11
8.25931929775169
 21
2.771546488758455
 31
0.0
  0
LINE
  5
A57
330
1F
100
AcDbEntity
  8
2
  6
CONTINUOUS
370
25
 62
7
100
AcDbLine
 10
7.254955036194483
 20
4.20017481902759
 30
0.0
 11
8.330029975870344
 21
3.12509987935173
 31
0.0
  0
LINE
  5
A58
330
1F
100
AcDbEntity
  8
2
  6
CONTINUOUS
370
25
 62
7
100
AcDbLine
 10
7.148889019016501
 20
4.7305049049175
 30
0.0
 11
8.400740653988999
 21
3.478653269945003
 31
0.0
  0
LINE
  5
A59
330
1F
100
AcDbEntity
  8
2
  6
CONTINUOUS
370
25
 62
7
100
AcDbLine
 10
7.042823001838518
 20
5.260834990807412
 30
0.0
 11
8.471451332107655
 21
3.832206660538276
 31
0.0
  0
LINE
  5
A5A
330
1F
100
AcDbEntity
  8
2
  6
CONTINUOUS
370
25
 62
7
100
AcDbLine
 10
6.936756984660536
 20
5.791165076697322
 30
0.0
 11
8.542162010226308
 21
4.185760051131551
 31
0.0
  0
LINE
  5
A5B
330
1F
100
AcDbEntity
  8
2
  6
CONTINUOUS
370
25
 62
7
100
AcDbLine
 10
7.177236130069785
 20
5.97495
 30
0.0
 11
8.612872688344964
 21
4.539313441724822
 31
0.0
  0
LINE
  5
A5C
330
1F
100
AcDbEntity
  8
2
  6
CONTINUOUS
370
25
 62
7
100
AcDbLine
 10
7.601500198781713
 20
5.97495
 30
0.0
 11
8.683583366463619
 21
4.892866832318095
 31
0.0
  0
LINE
  5
A5D
330
1F
100
AcDbEntity
  8
2
  6
CONTINUOUS
370
25
 62
7
100
AcDbLine
 10
8.025764267493642
 20
5.97495
 30
0.0
 11
8.754294044582274
 21
5.246420222911368
 31
0.0
  0
LINE
  5
A5E
330
1F
100
AcDbEntity
  8
2
  6
CONTINUOUS
370
25
 62
7
100
AcDbLine
 10
8.45002833620557
 20
5.97495
 30
0.0
 11
8.825004722700928
 21
5.599973613504641
 31
0.0
  0
LINE
  5
A5F
330
1F
100
AcDbEntity
  8
2
  6
CONTINUOUS
370
25
 62
7
100
AcDbLine
 10
8.874292404917497
 20
5.97495
 30
0.0
 11
8.895715400819583
 21
5.953527004097914
 31
0.0
  0
TEXT
  5
A60
330
1F
100
AcDbEntity
  8
2
  6
CONTINUOUS
370
25
 62
7
100
AcDbText
 10
6.399999999999999
 20
12.28328333333333
 30
0.0
 40
3.5
  1
1.95
 50
89.99999999999997
 72
     1
 11
6.400000000000001
 21
16.94995
 31
0.0
100
AcDbText
  0
CIRCLE
  5
A61
330
1F
100
AcDbEntity
  8
2
  6
CONTINUOUS
370
25
 62
7
100
AcDbCircle
 10
4.650000000000001
 20
8.899949999999999
 30
0.0
 40
1.4
  0
LINE
  5
A62
330
1F
100
AcDbEntity
  8
2
  6
CONTINUOUS
370
25
 62
7
100
AcDbLine
 10
6.050000000000002
 20
7.49995
 30
0.0
 11
3.250000000000001
 21
10.29995
 31
0.0
  0
LINE
  5
A63
330
1F
100
AcDbEntity
  8
2
  6
CONTINUOUS
370
25
 62
7
100
AcDbLine
 10
9.9
 20
-1.0
 30
0.0
 11
9.899999999999999
 21
-21.0
 31
0.0
  0
LINE
  5
A64
330
1F
100
AcDbEntity
  8
2
  6
CONTINUOUS
370
25
 62
7
100
AcDbLine
 10
11.9
 20
-21.0
 30
0.0
 11
11.9
 21
-1.0
 31
0.0
  0
LINE
  5
A65
330
1F
100
AcDbEntity
  8
2
  6
CONTINUOUS
370
25
 62
7
100
AcDbLine
 10
2.899999999999999
 20
-20.0
 30
0.0
 11
21.875
 21
-20.0
 31
0.0
  0
LINE
  5
A66
330
1F
100
AcDbEntity
  8
2
  6
CONTINUOUS
370
25
 62
7
100
AcDbLine
 10
9.899999999999999
 20
-20.0
 30
0.0
 11
4.899999999999999
 21
-21.0
 31
0.0
  0
LINE
  5
A67
330
1F
100
AcDbEntity
  8
2
  6
CONTINUOUS
370
25
 62
7
100
AcDbLine
 10
4.899999999999999
 20
-21.0
 30
0.0
 11
4.899999999999999
 21
-19.0
 31
0.0
  0
LINE
  5
A68
330
1F
100
AcDbEntity
  8
2
  6
CONTINUOUS
370
25
 62
7
100
AcDbLine
 10
4.899999999999999
 20
-19.0
 30
0.0
 11
9.899999999999999
 21
-20.0
 31
0.0
  0
LINE
  5
A69
330
1F
100
AcDbEntity
  8
2
  6
CONTINUOUS
370
25
 62
7
100
AcDbLine
 10
9.600616290557852
 20
-20.05987674188843
 30
0.0
 11
9.700410860371903
 21
-19.96008217207438
 31
0.0
  0
LINE
  5
A6A
330
1F
100
AcDbEntity
  8
2
  6
CONTINUOUS
370
25
 62
7
100
AcDbLine
 10
9.070286204667942
 20
-20.16594275906641
 30
0.0
 11
9.34685746977863
 21
-19.88937149395572
 31
0.0
  0
LINE
  5
A6B
330
1F
100
AcDbEntity
  8
2
  6
CONTINUOUS
370
25
 62
7
100
AcDbLine
 10
8.539956118778031
 20
-20.27200877624439
 30
0.0
 11
8.993304079185355
 21
-19.81866081583707
 31
0.0
  0
LINE
  5
A6C
330
1F
100
AcDbEntity
  8
2
  6
CONTINUOUS
370
25
 62
7
100
AcDbLine
 10
8.009626032888121
 20
-20.37807479342238
 30
0.0
 11
8.639750688592082
 21
-19.74795013771842
 31
0.0
  0
LINE
  5
A6D
330
1F
100
AcDbEntity
  8
2
  6
CONTINUOUS
370
25
 62
7
100
AcDbLine
 10
7.479295946998212
 20
-20.48414081060036
 30
0.0
 11
8.28619729799881
 21
-19.67723945959976
 31
0.0
  0
LINE
  5
A6E
330
1F
100
AcDbEntity
  8
2
  6
CONTINUOUS
370
25
 62
7
100
AcDbLine
 10
6.948965861108304
 20
-20.59020682777834
 30
0.0
 11
7.932643907405536
 21
-19.60652878148111
 31
0.0
  0
LINE
  5
A6F
330
1F
100
AcDbEntity
  8
2
  6
CONTINUOUS
370
25
 62
7
100
AcDbLine
 10
6.418635775218394
 20
-20.69627284495632
 30
0.0
 11
7.579090516812263
 21
-19.53581810336245
 31
0.0
  0
LINE
  5
A70
330
1F
100
AcDbEntity
  8
2
  6
CONTINUOUS
370
25
 62
7
100
AcDbLine
 10
5.888305689328484
 20
-20.8023388621343
 30
0.0
 11
7.22553712621899
 21
-19.4651074252438
 31
0.0
  0
LINE
  5
A71
330
1F
100
AcDbEntity
  8
2
  6
CONTINUOUS
370
25
 62
7
100
AcDbLine
 10
5.357975603438574
 20
-20.90840487931229
 30
0.0
 11
6.871983735625717
 21
-19.39439674712514
 31
0.0
  0
LINE
  5
A72
330
1F
100
AcDbEntity
  8
2
  6
CONTINUOUS
370
25
 62
7
100
AcDbLine
 10
4.899999999999999
 20
-20.94211641403893
 30
0.0
 11
6.51843034503244
 21
-19.32368606900649
 31
0.0
  0
LINE
  5
A73
330
1F
100
AcDbEntity
  8
2
  6
CONTINUOUS
370
25
 62
7
100
AcDbLine
 10
4.899999999999999
 20
-20.517852345327
 30
0.0
 11
6.164876954439168
 21
-19.25297539088783
 31
0.0
  0
LINE
  5
A74
330
1F
100
AcDbEntity
  8
2
  6
CONTINUOUS
370
25
 62
7
100
AcDbLine
 10
4.899999999999999
 20
-20.09358827661508
 30
0.0
 11
5.811323563845895
 21
-19.18226471276918
 31
0.0
  0
LINE
  5
A75
330
1F
100
AcDbEntity
  8
2
  6
CONTINUOUS
370
25
 62
7
100
AcDbLine
 10
4.899999999999999
 20
-19.66932420790315
 30
0.0
 11
5.457770173252622
 21
-19.11155403465052
 31
0.0
  0
LINE
  5
A76
330
1F
100
AcDbEntity
  8
2
  6
CONTINUOUS
370
25
 62
7
100
AcDbLine
 10
4.899999999999999
 20
-19.24506013919122
 30
0.0
 11
5.10421678265935
 21
-19.04084335653187
 31
0.0
  0
LINE
  5
A77
330
1F
100
AcDbEntity
  8
2
  6
CONTINUOUS
370
25
 62
7
100
AcDbLine
 10
4.899999999999999
 20
-20.65826357478766
 30
0.0
 11
5.184780354343618
 21
-20.94304392913128
 31
0.0
  0
LINE
  5
A78
330
1F
100
AcDbEntity
  8
2
  6
CONTINUOUS
370
25
 62
7
100
AcDbLine
 10
4.899999999999999
 20
-20.23399950607573
 30
0.0
 11
5.538333744936892
 21
-20.87233325101262
 31
0.0
  0
LINE
  5
A79
330
1F
100
AcDbEntity
  8
2
  6
CONTINUOUS
370
25
 62
7
100
AcDbLine
 10
4.899999999999999
 20
-19.8097354373638
 30
0.0
 11
5.891887135530165
 21
-20.80162257289397
 31
0.0
  0
LINE
  5
A7A
330
1F
100
AcDbEntity
  8
2
  6
CONTINUOUS
370
25
 62
7
100
AcDbLine
 10
4.899999999999999
 20
-19.38547136865187
 30
0.0
 11
6.245440526123438
 21
-20.73091189477531
 31
0.0
  0
LINE
  5
A7B
330
1F
100
AcDbEntity
  8
2
  6
CONTINUOUS
370
25
 62
7
100
AcDbLine
 10
4.948490875075064
 20
-19.00969817501501
 30
0.0
 11
6.598993916716712
 21
-20.66020121665666
 31
0.0
  0
LINE
  5
A7C
330
1F
100
AcDbEntity
  8
2
  6
CONTINUOUS
370
25
 62
7
100
AcDbLine
 10
5.478820960964977
 20
-19.11576419219299
 30
0.0
 11
6.952547307309985
 21
-20.589490538538
 31
0.0
  0
LINE
  5
A7D
330
1F
100
AcDbEntity
  8
2
  6
CONTINUOUS
370
25
 62
7
100
AcDbLine
 10
6.009151046854887
 20
-19.22183020937098
 30
0.0
 11
7.306100697903259
 21
-20.51877986041935
 31
0.0
  0
LINE
  5
A7E
330
1F
100
AcDbEntity
  8
2
  6
CONTINUOUS
370
25
 62
7
100
AcDbLine
 10
6.539481132744798
 20
-19.32789622654896
 30
0.0
 11
7.659654088496533
 21
-20.44806918230069
 31
0.0
  0
LINE
  5
A7F
330
1F
100
AcDbEntity
  8
2
  6
CONTINUOUS
370
25
 62
7
100
AcDbLine
 10
7.069811218634706
 20
-19.43396224372694
 30
0.0
 11
8.013207479089804
 21
-20.37735850418204
 31
0.0
  0
LINE
  5
A80
330
1F
100
AcDbEntity
  8
2
  6
CONTINUOUS
370
25
 62
7
100
AcDbLine
 10
7.600141304524616
 20
-19.54002826090492
 30
0.0
 11
8.366760869683077
 21
-20.30664782606338
 31
0.0
  0
LINE
  5
A81
330
1F
100
AcDbEntity
  8
2
  6
CONTINUOUS
370
25
 62
7
100
AcDbLine
 10
8.130471390414526
 20
-19.64609427808291
 30
0.0
 11
8.720314260276352
 21
-20.23593714794473
 31
0.0
  0
LINE
  5
A82
330
1F
100
AcDbEntity
  8
2
  6
CONTINUOUS
370
25
 62
7
100
AcDbLine
 10
8.660801476304439
 20
-19.75216029526089
 30
0.0
 11
9.073867650869627
 21
-20.16522646982607
 31
0.0
  0
LINE
  5
A83
330
1F
100
AcDbEntity
  8
2
  6
CONTINUOUS
370
25
 62
7
100
AcDbLine
 10
9.191131562194348
 20
-19.85822631243887
 30
0.0
 11
9.4274210414629
 21
-20.09451579170742
 31
0.0
  0
LINE
  5
A84
330
1F
100
AcDbEntity
  8
2
  6
CONTINUOUS
370
25
 62
7
100
AcDbLine
 10
9.721461648084258
 20
-19.96429232961685
 30
0.0
 11
9.780974432056173
 21
-20.02380511358876
 31
0.0
  0
LINE
  5
A85
330
1F
100
AcDbEntity
  8
2
  6
CONTINUOUS
370
25
 62
7
100
AcDbLine
 10
11.9
 20
-20.0
 30
0.0
 11
16.9
 21
-19.0
 31
0.0
  0
LINE
  5
A86
330
1F
100
AcDbEntity
  8
2
  6
CONTINUOUS
370
25
 62
7
100
AcDbLine
 10
16.9
 20
-19.0
 30
0.0
 11
16.9
 21
-21.0
 31
0.0
  0
LINE
  5
A87
330
1F
100
AcDbEntity
  8
2
  6
CONTINUOUS
370
25
 62
7
100
AcDbLine
 10
16.9
 20
-21.0
 30
0.0
 11
11.9
 21
-20.0
 31
0.0
  0
LINE
  5
A88
330
1F
100
AcDbEntity
  8
2
  6
CONTINUOUS
370
25
 62
7
100
AcDbLine
 10
16.75066339206606
 20
-20.97013267841321
 30
0.0
 11
16.9
 21
-20.82079607047927
 31
0.0
  0
LINE
  5
A89
330
1F
100
AcDbEntity
  8
2
  6
CONTINUOUS
370
25
 62
7
100
AcDbLine
 10
16.39711000147278
 20
-20.89942200029456
 30
0.0
 11
16.9
 21
-20.39653200176733
 31
0.0
  0
LINE
  5
A8A
330
1F
100
AcDbEntity
  8
2
  6
CONTINUOUS
370
25
 62
7
100
AcDbLine
 10
16.04355661087951
 20
-20.8287113221759
 30
0.0
 11
16.9
 21
-19.97226793305541
 31
0.0
  0
LINE
  5
A8B
330
1F
100
AcDbEntity
  8
2
  6
CONTINUOUS
370
25
 62
7
100
AcDbLine
 10
15.69000322028623
 20
-20.75800064405725
 30
0.0
 11
16.9
 21
-19.54800386434348
 31
0.0
  0
LINE
  5
A8C
330
1F
100
AcDbEntity
  8
2
  6
CONTINUOUS
370
25
 62
7
100
AcDbLine
 10
15.33644982969296
 20
-20.68728996593859
 30
0.0
 11
16.9
 21
-19.12373979563156
 31
0.0
  0
LINE
  5
A8D
330
1F
100
AcDbEntity
  8
2
  6
CONTINUOUS
370
25
 62
7
100
AcDbLine
 10
14.98289643909968
 20
-20.61657928781994
 30
0.0
 11
16.52434465864953
 21
-19.0751310682701
 31
0.0
  0
LINE
  5
A8E
330
1F
100
AcDbEntity
  8
2
  6
CONTINUOUS
370
25
 62
7
100
AcDbLine
 10
14.62934304850642
 20
-20.54586860970128
 30
0.0
 11
15.99401457275963
 21
-19.18119708544808
 31
0.0
  0
LINE
  5
A8F
330
1F
100
AcDbEntity
  8
2
  6
CONTINUOUS
370
25
 62
7
100
AcDbLine
 10
14.27578965791314
 20
-20.47515793158263
 30
0.0
 11
15.46368448686971
 21
-19.28726310262606
 31
0.0
  0
LINE
  5
A90
330
1F
100
AcDbEntity
  8
2
  6
CONTINUOUS
370
25
 62
7
100
AcDbLine
 10
13.92223626731987
 20
-20.40444725346397
 30
0.0
 11
14.93335440097981
 21
-19.39332911980404
 31
0.0
  0
LINE
  5
A91
330
1F
100
AcDbEntity
  8
2
  6
CONTINUOUS
370
25
 62
7
100
AcDbLine
 10
13.56868287672659
 20
-20.33373657534532
 30
0.0
 11
14.40302431508989
 21
-19.49939513698202
 31
0.0
  0
LINE
  5
A92
330
1F
100
AcDbEntity
  8
2
  6
CONTINUOUS
370
25
 62
7
100
AcDbLine
 10
13.21512948613332
 20
-20.26302589722667
 30
0.0
 11
13.87269422919999
 21
-19.60546115416
 31
0.0
  0
LINE
  5
A93
330
1F
100
AcDbEntity
  8
2
  6
CONTINUOUS
370
25
 62
7
100
AcDbLine
 10
12.86157609554005
 20
-20.19231521910801
 30
0.0
 11
13.34236414331007
 21
-19.71152717133798
 31
0.0
  0
LINE
  5
A94
330
1F
100
AcDbEntity
  8
2
  6
CONTINUOUS
370
25
 62
7
100
AcDbLine
 10
12.50802270494678
 20
-20.12160454098936
 30
0.0
 11
12.81203405742017
 21
-19.81759318851596
 31
0.0
  0
LINE
  5
A95
330
1F
100
AcDbEntity
  8
2
  6
CONTINUOUS
370
25
 62
7
100
AcDbLine
 10
12.1544693143535
 20
-20.0508938628707
 30
0.0
 11
12.28170397153025
 21
-19.92365920569395
 31
0.0
  0
LINE
  5
A96
330
1F
100
AcDbEntity
  8
2
  6
CONTINUOUS
370
25
 62
7
100
AcDbLine
 10
12.23503288603778
 20
-19.93299342279244
 30
0.0
 11
12.40254932905667
 21
-20.10050986581133
 31
0.0
  0
LINE
  5
A97
330
1F
100
AcDbEntity
  8
2
  6
CONTINUOUS
370
25
 62
7
100
AcDbLine
 10
12.58858627663105
 20
-19.86228274467379
 30
0.0
 11
12.93287941494657
 21
-20.20657588298931
 31
0.0
  0
LINE
  5
A98
330
1F
100
AcDbEntity
  8
2
  6
CONTINUOUS
370
25
 62
7
100
AcDbLine
 10
12.94213966722432
 20
-19.79157206655513
 30
0.0
 11
13.46320950083649
 21
-20.3126419001673
 31
0.0
  0
LINE
  5
A99
330
1F
100
AcDbEntity
  8
2
  6
CONTINUOUS
370
25
 62
7
100
AcDbLine
 10
13.2956930578176
 20
-19.72086138843648
 30
0.0
 11
13.9935395867264
 21
-20.41870791734528
 31
0.0
  0
LINE
  5
A9A
330
1F
100
AcDbEntity
  8
2
  6
CONTINUOUS
370
25
 62
7
100
AcDbLine
 10
13.64924644841087
 20
-19.65015071031782
 30
0.0
 11
14.52386967261631
 21
-20.52477393452326
 31
0.0
  0
LINE
  5
A9B
330
1F
100
AcDbEntity
  8
2
  6
CONTINUOUS
370
25
 62
7
100
AcDbLine
 10
14.00279983900414
 20
-19.57944003219917
 30
0.0
 11
15.05419975850622
 21
-20.63083995170124
 31
0.0
  0
LINE
  5
A9C
330
1F
100
AcDbEntity
  8
2
  6
CONTINUOUS
370
25
 62
7
100
AcDbLine
 10
14.35635322959741
 20
-19.50872935408051
 30
0.0
 11
15.58452984439612
 21
-20.73690596887922
 31
0.0
  0
LINE
  5
A9D
330
1F
100
AcDbEntity
  8
2
  6
CONTINUOUS
370
25
 62
7
100
AcDbLine
 10
14.70990662019069
 20
-19.43801867596186
 30
0.0
 11
16.11485993028603
 21
-20.84297198605721
 31
0.0
  0
LINE
  5
A9E
330
1F
100
AcDbEntity
  8
2
  6
CONTINUOUS
370
25
 62
7
100
AcDbLine
 10
15.06346001078396
 20
-19.36730799784321
 30
0.0
 11
16.64519001617595
 21
-20.94903800323519
 31
0.0
  0
LINE
  5
A9F
330
1F
100
AcDbEntity
  8
2
  6
CONTINUOUS
370
25
 62
7
100
AcDbLine
 10
15.41701340137723
 20
-19.29659731972455
 30
0.0
 11
16.9
 21
-20.77958391834731
 31
0.0
  0
LINE
  5
AA0
330
1F
100
AcDbEntity
  8
2
  6
CONTINUOUS
370
25
 62
7
100
AcDbLine
 10
15.77056679197051
 20
-19.2258866416059
 30
0.0
 11
16.9
 21
-20.35531984963539
 31
0.0
  0
LINE
  5
AA1
330
1F
100
AcDbEntity
  8
2
  6
CONTINUOUS
370
25
 62
7
100
AcDbLine
 10
16.12412018256378
 20
-19.15517596348725
 30
0.0
 11
16.9
 21
-19.93105578092346
 31
0.0
  0
LINE
  5
AA2
330
1F
100
AcDbEntity
  8
2
  6
CONTINUOUS
370
25
 62
7
100
AcDbLine
 10
16.47767357315706
 20
-19.08446528536859
 30
0.0
 11
16.9
 21
-19.50679171221153
 31
0.0
  0
LINE
  5
AA3
330
1F
100
AcDbEntity
  8
2
  6
CONTINUOUS
370
25
 62
7
100
AcDbLine
 10
16.83122696375033
 20
-19.01375460724994
 30
0.0
 11
16.9
 21
-19.08252764349961
 31
0.0
  0
TEXT
  5
AA4
330
1F
100
AcDbEntity
  8
2
  6
CONTINUOUS
370
25
 62
7
100
AcDbText
 10
18.22083333333333
 20
-18.5
 30
0.0
 40
3.5
  1
2
 72
     1
 11
19.3875
 21
-18.5
 31
0.0
100
AcDbText
  0
LINE
  5
AA5
330
1F
100
AcDbEntity
  8
2
  6
CONTINUOUS
370
25
 62
7
100
AcDbLine
 10
0.0
 20
2.99995
 30
0.0
 11
0.0000000000000014
 21
26.39995
 31
0.0
  0
LINE
  5
AA6
330
1F
100
AcDbEntity
  8
2
  6
CONTINUOUS
370
25
 62
7
100
AcDbLine
 10
11.9
 20
26.39995
 30
0.0
 11
11.9
 21
1.0
 31
0.0
  0
LINE
  5
AA7
330
1F
100
AcDbEntity
  8
2
  6
CONTINUOUS
370
25
 62
7
100
AcDbLine
 10
-7.0
 20
25.39995
 30
0.0
 11
30.8
 21
25.39995
 31
0.0
  0
LINE
  5
AA8
330
1F
100
AcDbEntity
  8
2
  6
CONTINUOUS
370
25
 62
7
100
AcDbLine
 10
0.0
 20
25.39995
 30
0.0
 11
-5.0
 21
24.39995
 31
0.0
  0
LINE
  5
AA9
330
1F
100
AcDbEntity
  8
2
  6
CONTINUOUS
370
25
 62
7
100
AcDbLine
 10
-5.0
 20
24.39995
 30
0.0
 11
-5.0
 21
26.39995
 31
0.0
  0
LINE
  5
AAA
330
1F
100
AcDbEntity
  8
2
  6
CONTINUOUS
370
25
 62
7
100
AcDbLine
 10
-5.0
 20
26.39995
 30
0.0
 11
0.0
 21
25.39995
 31
0.0
  0
LINE
  5
AAB
330
1F
100
AcDbEntity
  8
2
  6
CONTINUOUS
370
25
 62
7
100
AcDbLine
 10
-0.0698676533946063
 20
25.38597646932108
 30
0.0
 11
-0.0465784355964042
 21
25.40926568711928
 31
0.0
  0
LINE
  5
AAC
330
1F
100
AcDbEntity
  8
2
  6
CONTINUOUS
370
25
 62
7
100
AcDbLine
 10
-0.6001977392845201
 20
25.27991045214309
 30
0.0
 11
-0.4001318261896802
 21
25.47997636523793
 31
0.0
  0
LINE
  5
AAD
330
1F
100
AcDbEntity
  8
2
  6
CONTINUOUS
370
25
 62
7
100
AcDbLine
 10
-1.13052782517443
 20
25.17384443496511
 30
0.0
 11
-0.7536852167829532
 21
25.55068704335659
 31
0.0
  0
LINE
  5
AAE
330
1F
100
AcDbEntity
  8
2
  6
CONTINUOUS
370
25
 62
7
100
AcDbLine
 10
-1.660857911064339
 20
25.06777841778713
 30
0.0
 11
-1.107238607376226
 21
25.62139772147524
 31
0.0
  0
LINE
  5
AAF
330
1F
100
AcDbEntity
  8
2
  6
CONTINUOUS
370
25
 62
7
100
AcDbLine
 10
-2.191187996954248
 20
24.96171240060915
 30
0.0
 11
-1.460791997969499
 21
25.6921083995939
 31
0.0
  0
LINE
  5
AB0
330
1F
100
AcDbEntity
  8
2
  6
CONTINUOUS
370
25
 62
7
100
AcDbLine
 10
-2.721518082844157
 20
24.85564638343116
 30
0.0
 11
-1.814345388562772
 21
25.76281907771255
 31
0.0
  0
LINE
  5
AB1
330
1F
100
AcDbEntity
  8
2
  6
CONTINUOUS
370
25
 62
7
100
AcDbLine
 10
-3.251848168734071
 20
24.74958036625318
 30
0.0
 11
-2.167898779156048
 21
25.83352975583121
 31
0.0
  0
LINE
  5
AB2
330
1F
100
AcDbEntity
  8
2
  6
CONTINUOUS
370
25
 62
7
100
AcDbLine
 10
-3.78217825462398
 20
24.6435143490752
 30
0.0
 11
-2.521452169749321
 21
25.90424043394986
 31
0.0
  0
LINE
  5
AB3
330
1F
100
AcDbEntity
  8
2
  6
CONTINUOUS
370
25
 62
7
100
AcDbLine
 10
-4.312508340513889
 20
24.53744833189722
 30
0.0
 11
-2.875005560342594
 21
25.97495111206852
 31
0.0
  0
LINE
  5
AB4
330
1F
100
AcDbEntity
  8
2
  6
CONTINUOUS
370
25
 62
7
100
AcDbLine
 10
-4.842838426403797
 20
24.43138231471924
 30
0.0
 11
-3.228558950935866
 21
26.04566179018717
 31
0.0
  0
LINE
  5
AB5
330
1F
100
AcDbEntity
  8
2
  6
CONTINUOUS
370
25
 62
7
100
AcDbLine
 10
-5.0
 20
24.69848480983496
 30
0.0
 11
-3.582112341529139
 21
26.11637246830583
 31
0.0
  0
LINE
  5
AB6
330
1F
100
AcDbEntity
  8
2
  6
CONTINUOUS
370
25
 62
7
100
AcDbLine
 10
-5.0
 20
25.12274887854689
 30
0.0
 11
-3.935665732122412
 21
26.18708314642448
 31
0.0
  0
LINE
  5
AB7
330
1F
100
AcDbEntity
  8
2
  6
CONTINUOUS
370
25
 62
7
100
AcDbLine
 10
-5.0
 20
25.54701294725882
 30
0.0
 11
-4.289219122715685
 21
26.25779382454314
 31
0.0
  0
LINE
  5
AB8
330
1F
100
AcDbEntity
  8
2
  6
CONTINUOUS
370
25
 62
7
100
AcDbLine
 10
-5.0
 20
25.97127701597075
 30
0.0
 11
-4.642772513308958
 21
26.32850450266179
 31
0.0
  0
LINE
  5
AB9
330
1F
100
AcDbEntity
  8
2
  6
CONTINUOUS
370
25
 62
7
100
AcDbLine
 10
-5.0
 20
26.39554108468267
 30
0.0
 11
-4.99632590390223
 21
26.39921518078044
 31
0.0
  0
LINE
  5
ABA
330
1F
100
AcDbEntity
  8
2
  6
CONTINUOUS
370
25
 62
7
100
AcDbLine
 10
-5.0
 20
24.51614716074868
 30
0.0
 11
-4.903169032709434
 21
24.41931619345811
 31
0.0
  0
LINE
  5
ABB
330
1F
100
AcDbEntity
  8
2
  6
CONTINUOUS
370
25
 62
7
100
AcDbLine
 10
-5.0
 20
24.9404112294606
 30
0.0
 11
-4.54961564211616
 21
24.49002687157677
 31
0.0
  0
LINE
  5
ABC
330
1F
100
AcDbEntity
  8
2
  6
CONTINUOUS
370
25
 62
7
100
AcDbLine
 10
-5.0
 20
25.36467529817253
 30
0.0
 11
-4.19606225152289
 21
24.56073754969542
 31
0.0
  0
LINE
  5
ABD
330
1F
100
AcDbEntity
  8
2
  6
CONTINUOUS
370
25
 62
7
100
AcDbLine
 10
-5.0
 20
25.78893936688446
 30
0.0
 11
-3.842508860929617
 21
24.63144822781408
 31
0.0
  0
LINE
  5
ABE
330
1F
100
AcDbEntity
  8
2
  6
CONTINUOUS
370
25
 62
7
100
AcDbLine
 10
-5.0
 20
26.21320343559638
 30
0.0
 11
-3.488955470336343
 21
24.70215890593273
 31
0.0
  0
LINE
  5
ABF
330
1F
100
AcDbEntity
  8
2
  6
CONTINUOUS
370
25
 62
7
100
AcDbLine
 10
-4.703103119614603
 20
26.34057062392292
 30
0.0
 11
-3.135402079743067
 21
24.77286958405139
 31
0.0
  0
LINE
  5
AC0
330
1F
100
AcDbEntity
  8
2
  6
CONTINUOUS
370
25
 62
7
100
AcDbLine
 10
-4.172773033724693
 20
26.23450460674493
 30
0.0
 11
-2.781848689149793
 21
24.84358026217004
 31
0.0
  0
LINE
  5
AC1
330
1F
100
AcDbEntity
  8
2
  6
CONTINUOUS
370
25
 62
7
100
AcDbLine
 10
-3.642442947834782
 20
26.12843858956695
 30
0.0
 11
-2.42829529855652
 21
24.91429094028869
 31
0.0
  0
LINE
  5
AC2
330
1F
100
AcDbEntity
  8
2
  6
CONTINUOUS
370
25
 62
7
100
AcDbLine
 10
-3.112112861944876
 20
26.02237257238897
 30
0.0
 11
-2.074741907963249
 21
24.98500161840735
 31
0.0
  0
LINE
  5
AC3
330
1F
100
AcDbEntity
  8
2
  6
CONTINUOUS
370
25
 62
7
100
AcDbLine
 10
-2.581782776054965
 20
25.91630655521099
 30
0.0
 11
-1.721188517369975
 21
25.055712296526
 31
0.0
  0
LINE
  5
AC4
330
1F
100
AcDbEntity
  8
2
  6
CONTINUOUS
370
25
 62
7
100
AcDbLine
 10
-2.051452690165055
 20
25.81024053803301
 30
0.0
 11
-1.367635126776702
 21
25.12642297464465
 31
0.0
  0
LINE
  5
AC5
330
1F
100
AcDbEntity
  8
2
  6
CONTINUOUS
370
25
 62
7
100
AcDbLine
 10
-1.521122604275144
 20
25.70417452085503
 30
0.0
 11
-1.014081736183428
 21
25.19713365276331
 31
0.0
  0
LINE
  5
AC6
330
1F
100
AcDbEntity
  8
2
  6
CONTINUOUS
370
25
 62
7
100
AcDbLine
 10
-0.9907925183852331
 20
25.59810850367704
 30
0.0
 11
-0.6605283455901547
 21
25.26784433088197
 31
0.0
  0
LINE
  5
AC7
330
1F
100
AcDbEntity
  8
2
  6
CONTINUOUS
370
25
 62
7
100
AcDbLine
 10
-0.4604624324953222
 20
25.49204248649906
 30
0.0
 11
-0.3069749549968812
 21
25.33855500900062
 31
0.0
  0
LINE
  5
AC8
330
1F
100
AcDbEntity
  8
2
  6
CONTINUOUS
370
25
 62
7
100
AcDbLine
 10
11.9
 20
25.39995
 30
0.0
 11
16.9
 21
26.39995
 31
0.0
  0
LINE
  5
AC9
330
1F
100
AcDbEntity
  8
2
  6
CONTINUOUS
370
25
 62
7
100
AcDbLine
 10
16.9
 20
26.39995
 30
0.0
 11
16.9
 21
24.39995
 31
0.0
  0
LINE
  5
ACA
330
1F
100
AcDbEntity
  8
2
  6
CONTINUOUS
370
25
 62
7
100
AcDbLine
 10
16.9
 20
24.39995
 30
0.0
 11
11.9
 21
25.39995
 31
0.0
  0
LINE
  5
ACB
330
1F
100
AcDbEntity
  8
2
  6
CONTINUOUS
370
25
 62
7
100
AcDbLine
 10
16.78599730265441
 20
24.42275053946912
 30
0.0
 11
16.9
 21
24.53675323681471
 31
0.0
  0
LINE
  5
ACC
330
1F
100
AcDbEntity
  8
2
  6
CONTINUOUS
370
25
 62
7
100
AcDbLine
 10
16.43244391206114
 20
24.49346121758778
 30
0.0
 11
16.9
 21
24.96101730552664
 31
0.0
  0
LINE
  5
ACD
330
1F
100
AcDbEntity
  8
2
  6
CONTINUOUS
370
25
 62
7
100
AcDbLine
 10
16.07889052146786
 20
24.56417189570643
 30
0.0
 11
16.9
 21
25.38528137423857
 31
0.0
  0
LINE
  5
ACE
330
1F
100
AcDbEntity
  8
2
  6
CONTINUOUS
370
25
 62
7
100
AcDbLine
 10
15.72533713087459
 20
24.63488257382508
 30
0.0
 11
16.9
 21
25.8095454429505
 31
0.0
  0
LINE
  5
ACF
330
1F
100
AcDbEntity
  8
2
  6
CONTINUOUS
370
25
 62
7
100
AcDbLine
 10
15.37178374028131
 20
24.70559325194374
 30
0.0
 11
16.9
 21
26.23380951166243
 31
0.0
  0
LINE
  5
AD0
330
1F
100
AcDbEntity
  8
2
  6
CONTINUOUS
370
25
 62
7
100
AcDbLine
 10
15.01823034968804
 20
24.77630393006239
 30
0.0
 11
16.57734552453206
 21
26.33541910490641
 31
0.0
  0
LINE
  5
AD1
330
1F
100
AcDbEntity
  8
2
  6
CONTINUOUS
370
25
 62
7
100
AcDbLine
 10
14.66467695909477
 20
24.84701460818105
 30
0.0
 11
16.04701543864215
 21
26.22935308772843
 31
0.0
  0
LINE
  5
AD2
330
1F
100
AcDbEntity
  8
2
  6
CONTINUOUS
370
25
 62
7
100
AcDbLine
 10
14.3111235685015
 20
24.9177252862997
 30
0.0
 11
15.51668535275224
 21
26.12328707055045
 31
0.0
  0
LINE
  5
AD3
330
1F
100
AcDbEntity
  8
2
  6
CONTINUOUS
370
25
 62
7
100
AcDbLine
 10
13.95757017790822
 20
24.98843596441836
 30
0.0
 11
14.98635526686233
 21
26.01722105337246
 31
0.0
  0
LINE
  5
AD4
330
1F
100
AcDbEntity
  8
2
  6
CONTINUOUS
370
25
 62
7
100
AcDbLine
 10
13.60401678731495
 20
25.05914664253701
 30
0.0
 11
14.45602518097242
 21
25.91115503619448
 31
0.0
  0
LINE
  5
AD5
330
1F
100
AcDbEntity
  8
2
  6
CONTINUOUS
370
25
 62
7
100
AcDbLine
 10
13.25046339672168
 20
25.12985732065567
 30
0.0
 11
13.92569509508251
 21
25.8050890190165
 31
0.0
  0
LINE
  5
AD6
330
1F
100
AcDbEntity
  8
2
  6
CONTINUOUS
370
25
 62
7
100
AcDbLine
 10
12.8969100061284
 20
25.20056799877432
 30
0.0
 11
13.3953650091926
 21
25.69902300183852
 31
0.0
  0
LINE
  5
AD7
330
1F
100
AcDbEntity
  8
2
  6
CONTINUOUS
370
25
 62
7
100
AcDbLine
 10
12.54335661553513
 20
25.27127867689298
 30
0.0
 11
12.86503492330269
 21
25.59295698466054
 31
0.0
  0
LINE
  5
AD8
330
1F
100
AcDbEntity
  8
2
  6
CONTINUOUS
370
25
 62
7
100
AcDbLine
 10
12.18980322494186
 20
25.34198935501163
 30
0.0
 11
12.33470483741278
 21
25.48689096748255
 31
0.0
  0
LINE
  5
AD9
330
1F
100
AcDbEntity
  8
2
  6
CONTINUOUS
370
25
 62
7
100
AcDbLine
 10
11.92940670554141
 20
25.40583134110828
 30
0.0
 11
11.94411005831211
 21
25.39112798833758
 31
0.0
  0
LINE
  5
ADA
330
1F
100
AcDbEntity
  8
2
  6
CONTINUOUS
370
25
 62
7
100
AcDbLine
 10
12.28296009613468
 20
25.47654201922693
 30
0.0
 11
12.47444014420202
 21
25.2850619711596
 31
0.0
  0
LINE
  5
ADB
330
1F
100
AcDbEntity
  8
2
  6
CONTINUOUS
370
25
 62
7
100
AcDbLine
 10
12.63651348672795
 20
25.54725269734558
 30
0.0
 11
13.00477023009192
 21
25.17899595398162
 31
0.0
  0
LINE
  5
ADC
330
1F
100
AcDbEntity
  8
2
  6
CONTINUOUS
370
25
 62
7
100
AcDbLine
 10
12.99006687732123
 20
25.61796337546424
 30
0.0
 11
13.53510031598184
 21
25.07292993680363
 31
0.0
  0
LINE
  5
ADD
330
1F
100
AcDbEntity
  8
2
  6
CONTINUOUS
370
25
 62
7
100
AcDbLine
 10
13.3436202679145
 20
25.6886740535829
 30
0.0
 11
14.06543040187174
 21
24.96686391962565
 31
0.0
  0
LINE
  5
ADE
330
1F
100
AcDbEntity
  8
2
  6
CONTINUOUS
370
25
 62
7
100
AcDbLine
 10
13.69717365850778
 20
25.75938473170155
 30
0.0
 11
14.59576048776166
 21
24.86079790244767
 31
0.0
  0
LINE
  5
ADF
330
1F
100
AcDbEntity
  8
2
  6
CONTINUOUS
370
25
 62
7
100
AcDbLine
 10
14.05072704910104
 20
25.83009540982021
 30
0.0
 11
15.12609057365156
 21
24.75473188526968
 31
0.0
  0
LINE
  5
AE0
330
1F
100
AcDbEntity
  8
2
  6
CONTINUOUS
370
25
 62
7
100
AcDbLine
 10
14.40428043969432
 20
25.90080608793886
 30
0.0
 11
15.65642065954147
 21
24.6486658680917
 31
0.0
  0
LINE
  5
AE1
330
1F
100
AcDbEntity
  8
2
  6
CONTINUOUS
370
25
 62
7
100
AcDbLine
 10
14.75783383028759
 20
25.97151676605752
 30
0.0
 11
16.18675074543138
 21
24.54259985091372
 31
0.0
  0
LINE
  5
AE2
330
1F
100
AcDbEntity
  8
2
  6
CONTINUOUS
370
25
 62
7
100
AcDbLine
 10
15.11138722088086
 20
26.04222744417617
 30
0.0
 11
16.71708083132129
 21
24.43653383373574
 31
0.0
  0
LINE
  5
AE3
330
1F
100
AcDbEntity
  8
2
  6
CONTINUOUS
370
25
 62
7
100
AcDbLine
 10
15.46494061147414
 20
26.11293812229482
 30
0.0
 11
16.9
 21
24.67787873376896
 31
0.0
  0
LINE
  5
AE4
330
1F
100
AcDbEntity
  8
2
  6
CONTINUOUS
370
25
 62
7
100
AcDbLine
 10
15.81849400206741
 20
26.18364880041348
 30
0.0
 11
16.9
 21
25.10214280248089
 31
0.0
  0
LINE
  5
AE5
330
1F
100
AcDbEntity
  8
2
  6
CONTINUOUS
370
25
 62
7
100
AcDbLine
 10
16.17204739266068
 20
26.25435947853213
 30
0.0
 11
16.9
 21
25.52640687119282
 31
0.0
  0
LINE
  5
AE6
330
1F
100
AcDbEntity
  8
2
  6
CONTINUOUS
370
25
 62
7
100
AcDbLine
 10
16.52560078325396
 20
26.32507015665079
 30
0.0
 11
16.9
 21
25.95067093990474
 31
0.0
  0
LINE
  5
AE7
330
1F
100
AcDbEntity
  8
2
  6
CONTINUOUS
370
25
 62
7
100
AcDbLine
 10
16.87915417384723
 20
26.39578083476944
 30
0.0
 11
16.9
 21
26.37493500861667
 31
0.0
  0
TEXT
  5
AE8
330
1F
100
AcDbEntity
  8
2
  6
CONTINUOUS
370
25
 62
7
100
AcDbText
 10
19.76666666666667
 20
26.89995
 30
0.0
 40
3.5
  1
11.9
 72
     1
 11
23.85
 21
26.89995
 31
0.0
100
AcDbText
  0
LINE
  5
AE9
330
1F
100
AcDbEntity
  8
SK2
  6
CONTINUOUS
370
25
 62
7
100
AcDbLine
 10
-48.1
 20
0.9999500000000001
 30
0.0
 11
-48.1
 21
32.39995
 31
0.0
  0
LINE
  5
AEA
330
1F
100
AcDbEntity
  8
SK2
  6
CONTINUOUS
370
25
 62
7
100
AcDbLine
 10
11.9
 20
33.39995
 30
0.0
 11
11.9
 21
1.0
 31
0.0
  0
LINE
  5
AEB
330
1F
100
AcDbEntity
  8
SK2
  6
CONTINUOUS
370
25
 62
7
100
AcDbLine
 10
-48.1
 20
32.39995
 30
0.0
 11
11.9
 21
32.39995
 31
0.0
  0
LINE
  5
AEC
330
1F
100
AcDbEntity
  8
SK2
  6
CONTINUOUS
370
25
 62
7
100
AcDbLine
 10
-48.1
 20
32.39995
 30
0.0
 11
-43.1
 21
33.39995
 31
0.0
  0
LINE
  5
AED
330
1F
100
AcDbEntity
  8
SK2
  6
CONTINUOUS
370
25
 62
7
100
AcDbLine
 10
-43.1
 20
33.39995
 30
0.0
 11
-43.1
 21
31.39995
 31
0.0
  0
LINE
  5
AEE
330
1F
100
AcDbEntity
  8
SK2
  6
CONTINUOUS
370
25
 62
7
100
AcDbLine
 10
-43.1
 20
31.39995
 30
0.0
 11
-48.1
 21
32.39995
 31
0.0
  0
LINE
  5
AEF
330
1F
100
AcDbEntity
  8
SK2
  6
CONTINUOUS
370
25
 62
7
100
AcDbLine
 10
-43.24210507774954
 20
31.42837101554991
 30
0.0
 11
-43.1
 21
31.57047609329944
 31
0.0
  0
LINE
  5
AF0
330
1F
100
AcDbEntity
  8
SK2
  6
CONTINUOUS
370
25
 62
7
100
AcDbLine
 10
-43.59565846834281
 20
31.49908169366856
 30
0.0
 11
-43.1
 21
31.99474016201137
 31
0.0
  0
LINE
  5
AF1
330
1F
100
AcDbEntity
  8
SK2
  6
CONTINUOUS
370
25
 62
7
100
AcDbLine
 10
-43.94921185893609
 20
31.56979237178721
 30
0.0
 11
-43.1
 21
32.4190042307233
 31
0.0
  0
LINE
  5
AF2
330
1F
100
AcDbEntity
  8
SK2
  6
CONTINUOUS
370
25
 62
7
100
AcDbLine
 10
-44.30276524952936
 20
31.64050304990587
 30
0.0
 11
-43.1
 21
32.84326829943523
 31
0.0
  0
LINE
  5
AF3
330
1F
100
AcDbEntity
  8
SK2
  6
CONTINUOUS
370
25
 62
7
100
AcDbLine
 10
-44.65631864012264
 20
31.71121372802452
 30
0.0
 11
-43.1
 21
33.26753236814717
 31
0.0
  0
LINE
  5
AF4
330
1F
100
AcDbEntity
  8
SK2
  6
CONTINUOUS
370
25
 62
7
100
AcDbLine
 10
-45.00987203071592
 20
31.78192440614318
 30
0.0
 11
-43.46480804607388
 21
33.32698839078522
 31
0.0
  0
LINE
  5
AF5
330
1F
100
AcDbEntity
  8
SK2
  6
CONTINUOUS
370
25
 62
7
100
AcDbLine
 10
-45.36342542130919
 20
31.85263508426183
 30
0.0
 11
-43.99513813196379
 21
33.22092237360724
 31
0.0
  0
LINE
  5
AF6
330
1F
100
AcDbEntity
  8
SK2
  6
CONTINUOUS
370
25
 62
7
100
AcDbLine
 10
-45.71697881190247
 20
31.92334576238049
 30
0.0
 11
-44.52546821785371
 21
33.11485635642926
 31
0.0
  0
LINE
  5
AF7
330
1F
100
AcDbEntity
  8
SK2
  6
CONTINUOUS
370
25
 62
7
100
AcDbLine
 10
-46.07053220249574
 20
31.99405644049915
 30
0.0
 11
-45.05579830374362
 21
33.00879033925127
 31
0.0
  0
LINE
  5
AF8
330
1F
100
AcDbEntity
  8
SK2
  6
CONTINUOUS
370
25
 62
7
100
AcDbLine
 10
-46.42408559308902
 20
32.0647671186178
 30
0.0
 11
-45.58612838963354
 21
32.90272432207329
 31
0.0
  0
LINE
  5
AF9
330
1F
100
AcDbEntity
  8
SK2
  6
CONTINUOUS
370
25
 62
7
100
AcDbLine
 10
-46.7776389836823
 20
32.13547779673645
 30
0.0
 11
-46.11645847552345
 21
32.79665830489531
 31
0.0
  0
LINE
  5
AFA
330
1F
100
AcDbEntity
  8
SK2
  6
CONTINUOUS
370
25
 62
7
100
AcDbLine
 10
-47.13119237427559
 20
32.20618847485511
 30
0.0
 11
-46.64678856141338
 21
32.69059228771732
 31
0.0
  0
LINE
  5
AFB
330
1F
100
AcDbEntity
  8
SK2
  6
CONTINUOUS
370
25
 62
7
100
AcDbLine
 10
-47.48474576486885
 20
32.27689915297376
 30
0.0
 11
-47.17711864730328
 21
32.58452627053934
 31
0.0
  0
LINE
  5
AFC
330
1F
100
AcDbEntity
  8
SK2
  6
CONTINUOUS
370
25
 62
7
100
AcDbLine
 10
-47.83829915546214
 20
32.34760983109242
 30
0.0
 11
-47.7074487331932
 21
32.47846025336136
 31
0.0
  0
LINE
  5
AFD
330
1F
100
AcDbEntity
  8
SK2
  6
CONTINUOUS
370
25
 62
7
100
AcDbLine
 10
-48.0879344738765
 20
32.4023631052247
 30
0.0
 11
-48.08190171081474
 21
32.39633034216294
 31
0.0
  0
LINE
  5
AFE
330
1F
100
AcDbEntity
  8
SK2
  6
CONTINUOUS
370
25
 62
7
100
AcDbLine
 10
-47.73438108328322
 20
32.47307378334335
 30
0.0
 11
-47.55157162492483
 21
32.29026432498496
 31
0.0
  0
LINE
  5
AFF
330
1F
100
AcDbEntity
  8
SK2
  6
CONTINUOUS
370
25
 62
7
100
AcDbLine
 10
-47.38082769268994
 20
32.543784461462
 30
0.0
 11
-47.02124153903491
 21
32.18419830780697
 31
0.0
  0
LINE
  5
B00
330
1F
100
AcDbEntity
  8
SK2
  6
CONTINUOUS
370
25
 62
7
100
AcDbLine
 10
-47.02727430209666
 20
32.61449513958066
 30
0.0
 11
-46.490911453145
 21
32.07813229062899
 31
0.0
  0
LINE
  5
B01
330
1F
100
AcDbEntity
  8
SK2
  6
CONTINUOUS
370
25
 62
7
100
AcDbLine
 10
-46.67372091150339
 20
32.68520581769932
 30
0.0
 11
-45.96058136725509
 21
31.97206627345101
 31
0.0
  0
LINE
  5
B02
330
1F
100
AcDbEntity
  8
SK2
  6
CONTINUOUS
370
25
 62
7
100
AcDbLine
 10
-46.32016752091011
 20
32.75591649581797
 30
0.0
 11
-45.43025128136517
 21
31.86600025627303
 31
0.0
  0
LINE
  5
B03
330
1F
100
AcDbEntity
  8
SK2
  6
CONTINUOUS
370
25
 62
7
100
AcDbLine
 10
-45.96661413031683
 20
32.82662717393663
 30
0.0
 11
-44.89992119547526
 21
31.75993423909505
 31
0.0
  0
LINE
  5
B04
330
1F
100
AcDbEntity
  8
SK2
  6
CONTINUOUS
370
25
 62
7
100
AcDbLine
 10
-45.61306073972356
 20
32.89733785205528
 30
0.0
 11
-44.36959110958535
 21
31.65386822191707
 31
0.0
  0
LINE
  5
B05
330
1F
100
AcDbEntity
  8
SK2
  6
CONTINUOUS
370
25
 62
7
100
AcDbLine
 10
-45.25950734913028
 20
32.96804853017394
 30
0.0
 11
-43.83926102369543
 21
31.54780220473908
 31
0.0
  0
LINE
  5
B06
330
1F
100
AcDbEntity
  8
SK2
  6
CONTINUOUS
370
25
 62
7
100
AcDbLine
 10
-44.905953958537
 20
33.03875920829259
 30
0.0
 11
-43.30893093780552
 21
31.4417361875611
 31
0.0
  0
LINE
  5
B07
330
1F
100
AcDbEntity
  8
SK2
  6
CONTINUOUS
370
25
 62
7
100
AcDbLine
 10
-44.55240056794373
 20
33.10946988641125
 30
0.0
 11
-43.1
 21
31.65706931846752
 31
0.0
  0
LINE
  5
B08
330
1F
100
AcDbEntity
  8
SK2
  6
CONTINUOUS
370
25
 62
7
100
AcDbLine
 10
-44.19884717735045
 20
33.18018056452991
 30
0.0
 11
-43.1
 21
32.08133338717945
 31
0.0
  0
LINE
  5
B09
330
1F
100
AcDbEntity
  8
SK2
  6
CONTINUOUS
370
25
 62
7
100
AcDbLine
 10
-43.84529378675717
 20
33.25089124264856
 30
0.0
 11
-43.1
 21
32.50559745589138
 31
0.0
  0
LINE
  5
B0A
330
1F
100
AcDbEntity
  8
SK2
  6
CONTINUOUS
370
25
 62
7
100
AcDbLine
 10
-43.4917403961639
 20
33.32160192076721
 30
0.0
 11
-43.1
 21
32.92986152460332
 31
0.0
  0
LINE
  5
B0B
330
1F
100
AcDbEntity
  8
SK2
  6
CONTINUOUS
370
25
 62
7
100
AcDbLine
 10
-43.13818700557062
 20
33.39231259888587
 30
0.0
 11
-43.1
 21
33.35412559331525
 31
0.0
  0
LINE
  5
B0C
330
1F
100
AcDbEntity
  8
SK2
  6
CONTINUOUS
370
25
 62
7
100
AcDbLine
 10
11.9
 20
32.39995
 30
0.0
 11
6.899999999999999
 21
31.39995
 31
0.0
  0
LINE
  5
B0D
330
1F
100
AcDbEntity
  8
SK2
  6
CONTINUOUS
370
25
 62
7
100
AcDbLine
 10
6.899999999999999
 20
31.39995
 30
0.0
 11
6.899999999999999
 21
33.39995
 31
0.0
  0
LINE
  5
B0E
330
1F
100
AcDbEntity
  8
SK2
  6
CONTINUOUS
370
25
 62
7
100
AcDbLine
 10
6.899999999999999
 20
33.39995
 30
0.0
 11
11.9
 21
32.39995
 31
0.0
  0
LINE
  5
B0F
330
1F
100
AcDbEntity
  8
SK2
  6
CONTINUOUS
370
25
 62
7
100
AcDbLine
 10
11.53876329139443
 20
32.32770265827888
 30
0.0
 11
11.65917552759629
 21
32.44811489448074
 31
0.0
  0
LINE
  5
B10
330
1F
100
AcDbEntity
  8
SK2
  6
CONTINUOUS
370
25
 62
7
100
AcDbLine
 10
11.00843320550452
 20
32.2216366411009
 30
0.0
 11
11.30562213700301
 21
32.5188255725994
 31
0.0
  0
LINE
  5
B11
330
1F
100
AcDbEntity
  8
SK2
  6
CONTINUOUS
370
25
 62
7
100
AcDbLine
 10
10.47810311961461
 20
32.11557062392292
 30
0.0
 11
10.95206874640974
 21
32.58953625071806
 31
0.0
  0
LINE
  5
B12
330
1F
100
AcDbEntity
  8
SK2
  6
CONTINUOUS
370
25
 62
7
100
AcDbLine
 10
9.947773033724694
 20
32.00950460674494
 30
0.0
 11
10.59851535581646
 21
32.66024692883671
 31
0.0
  0
LINE
  5
B13
330
1F
100
AcDbEntity
  8
SK2
  6
CONTINUOUS
370
25
 62
7
100
AcDbLine
 10
9.417442947834784
 20
31.90343858956695
 30
0.0
 11
10.24496196522319
 21
32.73095760695536
 31
0.0
  0
LINE
  5
B14
330
1F
100
AcDbEntity
  8
SK2
  6
CONTINUOUS
370
25
 62
7
100
AcDbLine
 10
8.887112861944876
 20
31.79737257238897
 30
0.0
 11
9.891408574629915
 21
32.80166828507402
 31
0.0
  0
LINE
  5
B15
330
1F
100
AcDbEntity
  8
SK2
  6
CONTINUOUS
370
25
 62
7
100
AcDbLine
 10
8.356782776054965
 20
31.69130655521099
 30
0.0
 11
9.53785518403664
 21
32.87237896319267
 31
0.0
  0
LINE
  5
B16
330
1F
100
AcDbEntity
  8
SK2
  6
CONTINUOUS
370
25
 62
7
100
AcDbLine
 10
7.826452690165054
 20
31.58524053803301
 30
0.0
 11
9.184301793443366
 21
32.94308964131132
 31
0.0
  0
LINE
  5
B17
330
1F
100
AcDbEntity
  8
SK2
  6
CONTINUOUS
370
25
 62
7
100
AcDbLine
 10
7.296122604275146
 20
31.47917452085503
 30
0.0
 11
8.830748402850093
 21
33.01380031942998
 31
0.0
  0
LINE
  5
B18
330
1F
100
AcDbEntity
  8
SK2
  6
CONTINUOUS
370
25
 62
7
100
AcDbLine
 10
6.899999999999999
 20
31.50731598529181
 30
0.0
 11
8.477195012256818
 21
33.08451099754863
 31
0.0
  0
LINE
  5
B19
330
1F
100
AcDbEntity
  8
SK2
  6
CONTINUOUS
370
25
 62
7
100
AcDbLine
 10
6.899999999999999
 20
31.93158005400374
 30
0.0
 11
8.123641621663543
 21
33.15522167566729
 31
0.0
  0
LINE
  5
B1A
330
1F
100
AcDbEntity
  8
SK2
  6
CONTINUOUS
370
25
 62
7
100
AcDbLine
 10
6.899999999999999
 20
32.35584412271567
 30
0.0
 11
7.770088231070271
 21
33.22593235378594
 31
0.0
  0
LINE
  5
B1B
330
1F
100
AcDbEntity
  8
SK2
  6
CONTINUOUS
370
25
 62
7
100
AcDbLine
 10
6.899999999999999
 20
32.7801081914276
 30
0.0
 11
7.416534840476998
 21
33.2966430319046
 31
0.0
  0
LINE
  5
B1C
330
1F
100
AcDbEntity
  8
SK2
  6
CONTINUOUS
370
25
 62
7
100
AcDbLine
 10
6.899999999999999
 20
33.20437226013953
 30
0.0
 11
7.062981449883725
 21
33.36735371002325
 31
0.0
  0
LINE
  5
B1D
330
1F
100
AcDbEntity
  8
SK2
  6
CONTINUOUS
370
25
 62
7
100
AcDbLine
 10
6.899999999999999
 20
31.70803025278547
 30
0.0
 11
7.156733543987889
 21
31.45129670879757
 31
0.0
  0
LINE
  5
B1E
330
1F
100
AcDbEntity
  8
SK2
  6
CONTINUOUS
370
25
 62
7
100
AcDbLine
 10
6.899999999999999
 20
32.1322943214974
 30
0.0
 11
7.510286934581164
 21
31.52200738691623
 31
0.0
  0
LINE
  5
B1F
330
1F
100
AcDbEntity
  8
SK2
  6
CONTINUOUS
370
25
 62
7
100
AcDbLine
 10
6.899999999999999
 20
32.55655839020933
 30
0.0
 11
7.86384032517444
 21
31.59271806503489
 31
0.0
  0
LINE
  5
B20
330
1F
100
AcDbEntity
  8
SK2
  6
CONTINUOUS
370
25
 62
7
100
AcDbLine
 10
6.899999999999999
 20
32.98082245892126
 30
0.0
 11
8.217393715767715
 21
31.66342874315354
 31
0.0
  0
LINE
  5
B21
330
1F
100
AcDbEntity
  8
SK2
  6
CONTINUOUS
370
25
 62
7
100
AcDbLine
 10
6.906420659541489
 20
33.3986658680917
 30
0.0
 11
8.570947106360991
 21
31.7341394212722
 31
0.0
  0
LINE
  5
B22
330
1F
100
AcDbEntity
  8
SK2
  6
CONTINUOUS
370
25
 62
7
100
AcDbLine
 10
7.436750745431401
 20
33.29259985091372
 30
0.0
 11
8.924500496954266
 21
31.80485009939085
 31
0.0
  0
LINE
  5
B23
330
1F
100
AcDbEntity
  8
SK2
  6
CONTINUOUS
370
25
 62
7
100
AcDbLine
 10
7.967080831321304
 20
33.18653383373574
 30
0.0
 11
9.278053887547534
 21
31.87556077750951
 31
0.0
  0
LINE
  5
B24
330
1F
100
AcDbEntity
  8
SK2
  6
CONTINUOUS
370
25
 62
7
100
AcDbLine
 10
8.497410917211218
 20
33.08046781655776
 30
0.0
 11
9.63160727814081
 21
31.94627145562816
 31
0.0
  0
LINE
  5
B25
330
1F
100
AcDbEntity
  8
SK2
  6
CONTINUOUS
370
25
 62
7
100
AcDbLine
 10
9.027741003101129
 20
32.97440179937978
 30
0.0
 11
9.985160668734085
 21
32.01698213374682
 31
0.0
  0
LINE
  5
B26
330
1F
100
AcDbEntity
  8
SK2
  6
CONTINUOUS
370
25
 62
7
100
AcDbLine
 10
9.55807108899104
 20
32.86833578220179
 30
0.0
 11
10.33871405932736
 21
32.08769281186547
 31
0.0
  0
LINE
  5
B27
330
1F
100
AcDbEntity
  8
SK2
  6
CONTINUOUS
370
25
 62
7
100
AcDbLine
 10
10.08840117488095
 20
32.76226976502381
 30
0.0
 11
10.69226744992063
 21
32.15840348998412
 31
0.0
  0
LINE
  5
B28
330
1F
100
AcDbEntity
  8
SK2
  6
CONTINUOUS
370
25
 62
7
100
AcDbLine
 10
10.61873126077086
 20
32.65620374784582
 30
0.0
 11
11.04582084051391
 21
32.22911416810278
 31
0.0
  0
LINE
  5
B29
330
1F
100
AcDbEntity
  8
SK2
  6
CONTINUOUS
370
25
 62
7
100
AcDbLine
 10
11.14906134666077
 20
32.55013773066784
 30
0.0
 11
11.39937423110718
 21
32.29982484622143
 31
0.0
  0
LINE
  5
B2A
330
1F
100
AcDbEntity
  8
SK2
  6
CONTINUOUS
370
25
 62
7
100
AcDbLine
 10
11.67939143255068
 20
32.44407171348986
 30
0.0
 11
11.75292762170045
 21
32.37053552434008
 31
0.0
  0
TEXT
  5
B2B
330
1F
100
AcDbEntity
  8
SK2
  6
CONTINUOUS
370
25
 62
7
100
AcDbText
 10
-20.725
 20
33.89995
 30
0.0
 40
3.5
  1
60
 72
     1
 11
-18.1
 21
33.89995
 31
0.0
100
AcDbText
  0
LINE
  5
B2C
330
1F
100
AcDbEntity
  8
2
  6
CONTINUOUS
370
25
 62
7
100
AcDbLine
 10
7.9
 20
-0.97495
 30
0.0
 11
7.899999999999999
 21
-28.0
 31
0.0
  0
LINE
  5
B2D
330
1F
100
AcDbEntity
  8
2
  6
CONTINUOUS
370
25
 62
7
100
AcDbLine
 10
11.9
 20
-28.0
 30
0.0
 11
11.9
 21
-1.0
 31
0.0
  0
LINE
  5
B2E
330
1F
100
AcDbEntity
  8
2
  6
CONTINUOUS
370
25
 62
7
100
AcDbLine
 10
0.8999999999999986
 20
-27.0
 30
0.0
 11
18.9
 21
-27.0
 31
0.0
  0
LINE
  5
B2F
330
1F
100
AcDbEntity
  8
2
  6
CONTINUOUS
370
25
 62
7
100
AcDbLine
 10
7.899999999999999
 20
-27.0
 30
0.0
 11
2.899999999999999
 21
-28.0
 31
0.0
  0
LINE
  5
B30
330
1F
100
AcDbEntity
  8
2
  6
CONTINUOUS
370
25
 62
7
100
AcDbLine
 10
2.899999999999999
 20
-28.0
 30
0.0
 11
2.899999999999999
 21
-26.0
 31
0.0
  0
LINE
  5
B31
330
1F
100
AcDbEntity
  8
2
  6
CONTINUOUS
370
25
 62
7
100
AcDbLine
 10
2.899999999999999
 20
-26.0
 30
0.0
 11
7.899999999999999
 21
-27.0
 31
0.0
  0
LINE
  5
B32
330
1F
100
AcDbEntity
  8
2
  6
CONTINUOUS
370
25
 62
7
100
AcDbLine
 10
7.48665525987893
 20
-27.08266894802421
 30
0.0
 11
7.624436839919285
 21
-26.94488736798386
 31
0.0
  0
LINE
  5
B33
330
1F
100
AcDbEntity
  8
2
  6
CONTINUOUS
370
25
 62
7
100
AcDbLine
 10
6.956325173989013
 20
-27.18873496520219
 30
0.0
 11
7.270883449326007
 21
-26.8741766898652
 31
0.0
  0
LINE
  5
B34
330
1F
100
AcDbEntity
  8
2
  6
CONTINUOUS
370
25
 62
7
100
AcDbLine
 10
6.425995088099096
 20
-27.29480098238018
 30
0.0
 11
6.917330058732729
 21
-26.80346601174655
 31
0.0
  0
LINE
  5
B35
330
1F
100
AcDbEntity
  8
2
  6
CONTINUOUS
370
25
 62
7
100
AcDbLine
 10
5.895665002209188
 20
-27.40086699955816
 30
0.0
 11
6.563776668139458
 21
-26.73275533362789
 31
0.0
  0
LINE
  5
B36
330
1F
100
AcDbEntity
  8
2
  6
CONTINUOUS
370
25
 62
7
100
AcDbLine
 10
5.365334916319275
 20
-27.50693301673614
 30
0.0
 11
6.210223277546184
 21
-26.66204465550924
 31
0.0
  0
LINE
  5
B37
330
1F
100
AcDbEntity
  8
2
  6
CONTINUOUS
370
25
 62
7
100
AcDbLine
 10
4.835004830429363
 20
-27.61299903391413
 30
0.0
 11
5.856669886952909
 21
-26.59133397739058
 31
0.0
  0
LINE
  5
B38
330
1F
100
AcDbEntity
  8
2
  6
CONTINUOUS
370
25
 62
7
100
AcDbLine
 10
4.304674744539452
 20
-27.71906505109211
 30
0.0
 11
5.503116496359636
 21
-26.52062329927193
 31
0.0
  0
LINE
  5
B39
330
1F
100
AcDbEntity
  8
2
  6
CONTINUOUS
370
25
 62
7
100
AcDbLine
 10
3.774344658649539
 20
-27.82513106827009
 30
0.0
 11
5.149563105766362
 21
-26.44991262115327
 31
0.0
  0
LINE
  5
B3A
330
1F
100
AcDbEntity
  8
2
  6
CONTINUOUS
370
25
 62
7
100
AcDbLine
 10
3.244014572759627
 20
-27.93119708544807
 30
0.0
 11
4.796009715173088
 21
-26.37920194303462
 31
0.0
  0
LINE
  5
B3B
330
1F
100
AcDbEntity
  8
2
  6
CONTINUOUS
370
25
 62
7
100
AcDbLine
 10
2.899999999999999
 20
-27.85094758949577
 30
0.0
 11
4.442456324579814
 21
-26.30849126491596
 31
0.0
  0
LINE
  5
B3C
330
1F
100
AcDbEntity
  8
2
  6
CONTINUOUS
370
25
 62
7
100
AcDbLine
 10
2.899999999999999
 20
-27.42668352078385
 30
0.0
 11
4.088902933986542
 21
-26.23778058679731
 31
0.0
  0
LINE
  5
B3D
330
1F
100
AcDbEntity
  8
2
  6
CONTINUOUS
370
25
 62
7
100
AcDbLine
 10
2.899999999999999
 20
-27.00241945207192
 30
0.0
 11
3.735349543393268
 21
-26.16706990867866
 31
0.0
  0
LINE
  5
B3E
330
1F
100
AcDbEntity
  8
2
  6
CONTINUOUS
370
25
 62
7
100
AcDbLine
 10
2.899999999999999
 20
-26.57815538336
 30
0.0
 11
3.381796152799994
 21
-26.09635923056
 31
0.0
  0
LINE
  5
B3F
330
1F
100
AcDbEntity
  8
2
  6
CONTINUOUS
370
25
 62
7
100
AcDbLine
 10
2.899999999999999
 20
-26.15389131464807
 30
0.0
 11
3.02824276220672
 21
-26.02564855244135
 31
0.0
  0
LINE
  5
B40
330
1F
100
AcDbEntity
  8
2
  6
CONTINUOUS
370
25
 62
7
100
AcDbLine
 10
2.899999999999999
 20
-27.74871813183716
 30
0.0
 11
3.109401556802367
 21
-27.95811968863952
 31
0.0
  0
LINE
  5
B41
330
1F
100
AcDbEntity
  8
2
  6
CONTINUOUS
370
25
 62
7
100
AcDbLine
 10
2.899999999999999
 20
-27.32445406312523
 30
0.0
 11
3.462954947395642
 21
-27.88740901052087
 31
0.0
  0
LINE
  5
B42
330
1F
100
AcDbEntity
  8
2
  6
CONTINUOUS
370
25
 62
7
100
AcDbLine
 10
2.899999999999999
 20
-26.9001899944133
 30
0.0
 11
3.816508337988917
 21
-27.81669833240221
 31
0.0
  0
LINE
  5
B43
330
1F
100
AcDbEntity
  8
2
  6
CONTINUOUS
370
25
 62
7
100
AcDbLine
 10
2.899999999999999
 20
-26.47592592570137
 30
0.0
 11
4.170061728582192
 21
-27.74598765428356
 31
0.0
  0
LINE
  5
B44
330
1F
100
AcDbEntity
  8
2
  6
CONTINUOUS
370
25
 62
7
100
AcDbLine
 10
2.899999999999999
 20
-26.05166185698944
 30
0.0
 11
4.523615119175469
 21
-27.67527697616491
 31
0.0
  0
LINE
  5
B45
330
1F
100
AcDbEntity
  8
2
  6
CONTINUOUS
370
25
 62
7
100
AcDbLine
 10
3.365752764653107
 20
-26.09315055293062
 30
0.0
 11
4.877168509768741
 21
-27.60456629804625
 31
0.0
  0
LINE
  5
B46
330
1F
100
AcDbEntity
  8
2
  6
CONTINUOUS
370
25
 62
7
100
AcDbLine
 10
3.896082850543019
 20
-26.1992165701086
 30
0.0
 11
5.230721900362015
 21
-27.5338556199276
 31
0.0
  0
LINE
  5
B47
330
1F
100
AcDbEntity
  8
2
  6
CONTINUOUS
370
25
 62
7
100
AcDbLine
 10
4.426412936432932
 20
-26.30528258728659
 30
0.0
 11
5.58427529095529
 21
-27.46314494180894
 31
0.0
  0
LINE
  5
B48
330
1F
100
AcDbEntity
  8
2
  6
CONTINUOUS
370
25
 62
7
100
AcDbLine
 10
4.956743022322844
 20
-26.41134860446457
 30
0.0
 11
5.937828681548565
 21
-27.39243426369029
 31
0.0
  0
LINE
  5
B49
330
1F
100
AcDbEntity
  8
2
  6
CONTINUOUS
370
25
 62
7
100
AcDbLine
 10
5.487073108212758
 20
-26.51741462164255
 30
0.0
 11
6.291382072141839
 21
-27.32172358557163
 31
0.0
  0
LINE
  5
B4A
330
1F
100
AcDbEntity
  8
2
  6
CONTINUOUS
370
25
 62
7
100
AcDbLine
 10
6.017403194102665
 20
-26.62348063882053
 30
0.0
 11
6.64493546273511
 21
-27.25101290745297
 31
0.0
  0
LINE
  5
B4B
330
1F
100
AcDbEntity
  8
2
  6
CONTINUOUS
370
25
 62
7
100
AcDbLine
 10
6.547733279992578
 20
-26.72954665599852
 30
0.0
 11
6.998488853328385
 21
-27.18030222933432
 31
0.0
  0
LINE
  5
B4C
330
1F
100
AcDbEntity
  8
2
  6
CONTINUOUS
370
25
 62
7
100
AcDbLine
 10
7.078063365882491
 20
-26.8356126731765
 30
0.0
 11
7.352042243921659
 21
-27.10959155121567
 31
0.0
  0
LINE
  5
B4D
330
1F
100
AcDbEntity
  8
2
  6
CONTINUOUS
370
25
 62
7
100
AcDbLine
 10
7.608393451772401
 20
-26.94167869035448
 30
0.0
 11
7.705595634514932
 21
-27.03888087309701
 31
0.0
  0
LINE
  5
B4E
330
1F
100
AcDbEntity
  8
2
  6
CONTINUOUS
370
25
 62
7
100
AcDbLine
 10
11.9
 20
-27.0
 30
0.0
 11
16.9
 21
-26.0
 31
0.0
  0
LINE
  5
B4F
330
1F
100
AcDbEntity
  8
2
  6
CONTINUOUS
370
25
 62
7
100
AcDbLine
 10
16.9
 20
-26.0
 30
0.0
 11
16.9
 21
-28.0
 31
0.0
  0
LINE
  5
B50
330
1F
100
AcDbEntity
  8
2
  6
CONTINUOUS
370
25
 62
7
100
AcDbLine
 10
16.9
 20
-28.0
 30
0.0
 11
11.9
 21
-27.0
 31
0.0
  0
LINE
  5
B51
330
1F
100
AcDbEntity
  8
2
  6
CONTINUOUS
370
25
 62
7
100
AcDbLine
 10
16.57358908531372
 20
-27.93471781706275
 30
0.0
 11
16.9
 21
-27.60830690237647
 31
0.0
  0
LINE
  5
B52
330
1F
100
AcDbEntity
  8
2
  6
CONTINUOUS
370
25
 62
7
100
AcDbLine
 10
16.22003569472045
 20
-27.86400713894409
 30
0.0
 11
16.9
 21
-27.18404283366455
 31
0.0
  0
LINE
  5
B53
330
1F
100
AcDbEntity
  8
2
  6
CONTINUOUS
370
25
 62
7
100
AcDbLine
 10
15.86648230412718
 20
-27.79329646082544
 30
0.0
 11
16.9
 21
-26.75977876495262
 31
0.0
  0
LINE
  5
B54
330
1F
100
AcDbEntity
  8
2
  6
CONTINUOUS
370
25
 62
7
100
AcDbLine
 10
15.5129289135339
 20
-27.72258578270678
 30
0.0
 11
16.9
 21
-26.33551469624069
 31
0.0
  0
LINE
  5
B55
330
1F
100
AcDbEntity
  8
2
  6
CONTINUOUS
370
25
 62
7
100
AcDbLine
 10
15.15937552294062
 20
-27.65187510458813
 30
0.0
 11
16.78906328441095
 21
-26.02218734311781
 31
0.0
  0
LINE
  5
B56
330
1F
100
AcDbEntity
  8
2
  6
CONTINUOUS
370
25
 62
7
100
AcDbLine
 10
14.80582213234735
 20
-27.58116442646947
 30
0.0
 11
16.25873319852104
 21
-26.12825336029579
 31
0.0
  0
LINE
  5
B57
330
1F
100
AcDbEntity
  8
2
  6
CONTINUOUS
370
25
 62
7
100
AcDbLine
 10
14.45226874175408
 20
-27.51045374835082
 30
0.0
 11
15.72840311263113
 21
-26.23431937747377
 31
0.0
  0
LINE
  5
B58
330
1F
100
AcDbEntity
  8
2
  6
CONTINUOUS
370
25
 62
7
100
AcDbLine
 10
14.0987153511608
 20
-27.43974307023216
 30
0.0
 11
15.19807302674121
 21
-26.34038539465175
 31
0.0
  0
LINE
  5
B59
330
1F
100
AcDbEntity
  8
2
  6
CONTINUOUS
370
25
 62
7
100
AcDbLine
 10
13.74516196056753
 20
-27.36903239211351
 30
0.0
 11
14.6677429408513
 21
-26.44645141182974
 31
0.0
  0
LINE
  5
B5A
330
1F
100
AcDbEntity
  8
2
  6
CONTINUOUS
370
25
 62
7
100
AcDbLine
 10
13.39160856997425
 20
-27.29832171399485
 30
0.0
 11
14.13741285496139
 21
-26.55251742900772
 31
0.0
  0
LINE
  5
B5B
330
1F
100
AcDbEntity
  8
2
  6
CONTINUOUS
370
25
 62
7
100
AcDbLine
 10
13.03805517938098
 20
-27.2276110358762
 30
0.0
 11
13.60708276907148
 21
-26.6585834461857
 31
0.0
  0
LINE
  5
B5C
330
1F
100
AcDbEntity
  8
2
  6
CONTINUOUS
370
25
 62
7
100
AcDbLine
 10
12.68450178878771
 20
-27.15690035775754
 30
0.0
 11
13.07675268318157
 21
-26.76464946336368
 31
0.0
  0
LINE
  5
B5D
330
1F
100
AcDbEntity
  8
2
  6
CONTINUOUS
370
25
 62
7
100
AcDbLine
 10
12.33094839819444
 20
-27.08618967963889
 30
0.0
 11
12.54642259729166
 21
-26.87071548054167
 31
0.0
  0
LINE
  5
B5E
330
1F
100
AcDbEntity
  8
2
  6
CONTINUOUS
370
25
 62
7
100
AcDbLine
 10
11.97739500760116
 20
-27.01547900152023
 30
0.0
 11
12.01609251140175
 21
-26.97678149771965
 31
0.0
  0
LINE
  5
B5F
330
1F
100
AcDbEntity
  8
2
  6
CONTINUOUS
370
25
 62
7
100
AcDbLine
 10
12.05855380219682
 20
-26.96828923956063
 30
0.0
 11
12.13783070329524
 21
-27.04756614065905
 31
0.0
  0
LINE
  5
B60
330
1F
100
AcDbEntity
  8
2
  6
CONTINUOUS
370
25
 62
7
100
AcDbLine
 10
12.4121071927901
 20
-26.89757856144198
 30
0.0
 11
12.66816078918515
 21
-27.15363215783703
 31
0.0
  0
LINE
  5
B61
330
1F
100
AcDbEntity
  8
2
  6
CONTINUOUS
370
25
 62
7
100
AcDbLine
 10
12.76566058338337
 20
-26.82686788332332
 30
0.0
 11
13.19849087507506
 21
-27.25969817501501
 31
0.0
  0
LINE
  5
B62
330
1F
100
AcDbEntity
  8
2
  6
CONTINUOUS
370
25
 62
7
100
AcDbLine
 10
13.11921397397665
 20
-26.75615720520467
 30
0.0
 11
13.72882096096498
 21
-27.365764192193
 31
0.0
  0
LINE
  5
B63
330
1F
100
AcDbEntity
  8
2
  6
CONTINUOUS
370
25
 62
7
100
AcDbLine
 10
13.47276736456992
 20
-26.68544652708601
 30
0.0
 11
14.25915104685489
 21
-27.47183020937098
 31
0.0
  0
LINE
  5
B64
330
1F
100
AcDbEntity
  8
2
  6
CONTINUOUS
370
25
 62
7
100
AcDbLine
 10
13.82632075516319
 20
-26.61473584896736
 30
0.0
 11
14.7894811327448
 21
-27.57789622654896
 31
0.0
  0
LINE
  5
B65
330
1F
100
AcDbEntity
  8
2
  6
CONTINUOUS
370
25
 62
7
100
AcDbLine
 10
14.17987414575647
 20
-26.54402517084871
 30
0.0
 11
15.31981121863471
 21
-27.68396224372694
 31
0.0
  0
LINE
  5
B66
330
1F
100
AcDbEntity
  8
2
  6
CONTINUOUS
370
25
 62
7
100
AcDbLine
 10
14.53342753634974
 20
-26.47331449273005
 30
0.0
 11
15.85014130452462
 21
-27.79002826090493
 31
0.0
  0
LINE
  5
B67
330
1F
100
AcDbEntity
  8
2
  6
CONTINUOUS
370
25
 62
7
100
AcDbLine
 10
14.88698092694302
 20
-26.4026038146114
 30
0.0
 11
16.38047139041453
 21
-27.89609427808291
 31
0.0
  0
LINE
  5
B68
330
1F
100
AcDbEntity
  8
2
  6
CONTINUOUS
370
25
 62
7
100
AcDbLine
 10
15.24053431753629
 20
-26.33189313649275
 30
0.0
 11
16.9
 21
-27.99135881895644
 31
0.0
  0
LINE
  5
B69
330
1F
100
AcDbEntity
  8
2
  6
CONTINUOUS
370
25
 62
7
100
AcDbLine
 10
15.59408770812956
 20
-26.26118245837409
 30
0.0
 11
16.9
 21
-27.56709475024452
 31
0.0
  0
LINE
  5
B6A
330
1F
100
AcDbEntity
  8
2
  6
CONTINUOUS
370
25
 62
7
100
AcDbLine
 10
15.94764109872284
 20
-26.19047178025543
 30
0.0
 11
16.9
 21
-27.14283068153259
 31
0.0
  0
LINE
  5
B6B
330
1F
100
AcDbEntity
  8
2
  6
CONTINUOUS
370
25
 62
7
100
AcDbLine
 10
16.30119448931611
 20
-26.11976110213678
 30
0.0
 11
16.9
 21
-26.71856661282067
 31
0.0
  0
LINE
  5
B6C
330
1F
100
AcDbEntity
  8
2
  6
CONTINUOUS
370
25
 62
7
100
AcDbLine
 10
16.65474787990938
 20
-26.04905042401812
 30
0.0
 11
16.9
 21
-26.29430254410874
 31
0.0
  0
TEXT
  5
B6D
330
1F
100
AcDbEntity
  8
2
  6
CONTINUOUS
370
25
 62
7
100
AcDbText
 10
8.733333333333333
 20
-25.5
 30
0.0
 40
3.5
  1
4
 72
     1
 11
9.899999999999999
 21
-25.5
 31
0.0
100
AcDbText
  0
LINE
  5
B6E
330
1F
100
AcDbEntity
  8
2
  6
CONTINUOUS
370
25
 62
7
100
AcDbLine
 10
11.61018538
 20
-0.70401472
 30
0.0
 11
32.90612065547759
 21
-21.99994999547756
 31
0.0
  0
LINE
  5
B6F
330
1F
100
AcDbEntity
  8
2
  6
CONTINUOUS
370
25
 62
7
100
AcDbLine
 10
32.90612065547759
 20
-21.99994999547756
 30
0.0
 11
40.38112065547759
 21
-21.99994999547756
 31
0.0
  0
LINE
  5
B70
330
1F
100
AcDbEntity
  8
2
  6
CONTINUOUS
370
25
 62
7
100
AcDbLine
 10
11.61018538
 20
-0.70401472
 30
0.0
 11
10.90307859881345
 21
0.0030920611865476
 31
0.0
  0
LINE
  5
B71
330
1F
100
AcDbEntity
  8
2
  6
CONTINUOUS
370
25
 62
7
100
AcDbLine
 10
11.61018538
 20
-0.70401472
 30
0.0
 11
15.85282606711929
 21
-3.532441844746187
 31
0.0
  0
LINE
  5
B72
330
1F
100
AcDbEntity
  8
2
  6
CONTINUOUS
370
25
 62
7
100
AcDbLine
 10
15.85282606711929
 20
-3.532441844746187
 30
0.0
 11
14.43861250474619
 21
-4.946655407119283
 31
0.0
  0
LINE
  5
B73
330
1F
100
AcDbEntity
  8
2
  6
CONTINUOUS
370
25
 62
7
100
AcDbLine
 10
14.43861250474619
 20
-4.946655407119283
 30
0.0
 11
11.61018538
 21
-0.70401472
 31
0.0
  0
LINE
  5
B74
330
1F
100
AcDbEntity
  8
2
  6
CONTINUOUS
370
25
 62
7
100
AcDbLine
 10
14.32969402269798
 20
-4.783277684046965
 30
0.0
 11
15.68944834404697
 21
-3.423523362697972
 31
0.0
  0
LINE
  5
B75
330
1F
100
AcDbEntity
  8
2
  6
CONTINUOUS
370
25
 62
7
100
AcDbLine
 10
14.15998839521321
 20
-4.528719242819806
 30
0.0
 11
15.43488990281981
 21
-3.253817735213202
 31
0.0
  0
LINE
  5
B76
330
1F
100
AcDbEntity
  8
2
  6
CONTINUOUS
370
25
 62
7
100
AcDbLine
 10
13.99028276772843
 20
-4.27416080159265
 30
0.0
 11
15.18033146159265
 21
-3.084112107728432
 31
0.0
  0
LINE
  5
B77
330
1F
100
AcDbEntity
  8
2
  6
CONTINUOUS
370
25
 62
7
100
AcDbLine
 10
13.82057714024366
 20
-4.019602360365493
 30
0.0
 11
14.9257730203655
 21
-2.91440648024366
 31
0.0
  0
LINE
  5
B78
330
1F
100
AcDbEntity
  8
2
  6
CONTINUOUS
370
25
 62
7
100
AcDbLine
 10
13.65087151275889
 20
-3.765043919138337
 30
0.0
 11
14.67121457913834
 21
-2.744700852758889
 31
0.0
  0
LINE
  5
B79
330
1F
100
AcDbEntity
  8
2
  6
CONTINUOUS
370
25
 62
7
100
AcDbLine
 10
13.48116588527412
 20
-3.51048547791118
 30
0.0
 11
14.41665613791118
 21
-2.574995225274119
 31
0.0
  0
LINE
  5
B7A
330
1F
100
AcDbEntity
  8
2
  6
CONTINUOUS
370
25
 62
7
100
AcDbLine
 10
13.31146025778935
 20
-3.255927036684021
 30
0.0
 11
14.16209769668403
 21
-2.405289597789347
 31
0.0
  0
LINE
  5
B7B
330
1F
100
AcDbEntity
  8
2
  6
CONTINUOUS
370
25
 62
7
100
AcDbLine
 10
13.14175463030458
 20
-3.001368595456867
 30
0.0
 11
13.90753925545687
 21
-2.235583970304576
 31
0.0
  0
LINE
  5
B7C
330
1F
100
AcDbEntity
  8
2
  6
CONTINUOUS
370
25
 62
7
100
AcDbLine
 10
12.97204900281981
 20
-2.746810154229708
 30
0.0
 11
13.65298081422971
 21
-2.065878342819806
 31
0.0
  0
LINE
  5
B7D
330
1F
100
AcDbEntity
  8
2
  6
CONTINUOUS
370
25
 62
7
100
AcDbLine
 10
12.80234337533504
 20
-2.492251713002554
 30
0.0
 11
13.39842237300256
 21
-1.896172715335036
 31
0.0
  0
LINE
  5
B7E
330
1F
100
AcDbEntity
  8
2
  6
CONTINUOUS
370
25
 62
7
100
AcDbLine
 10
12.63263774785027
 20
-2.237693271775395
 30
0.0
 11
13.1438639317754
 21
-1.726467087850263
 31
0.0
  0
LINE
  5
B7F
330
1F
100
AcDbEntity
  8
2
  6
CONTINUOUS
370
25
 62
7
100
AcDbLine
 10
12.4629321203655
 20
-1.983134830548238
 30
0.0
 11
12.88930549054824
 21
-1.556761460365493
 31
0.0
  0
LINE
  5
B80
330
1F
100
AcDbEntity
  8
2
  6
CONTINUOUS
370
25
 62
7
100
AcDbLine
 10
12.29322649288072
 20
-1.728576389321082
 30
0.0
 11
12.63474704932108
 21
-1.387055832880723
 31
0.0
  0
LINE
  5
B81
330
1F
100
AcDbEntity
  8
2
  6
CONTINUOUS
370
25
 62
7
100
AcDbLine
 10
12.12352086539595
 20
-1.474017948093929
 30
0.0
 11
12.38018860809393
 21
-1.217350205395951
 31
0.0
  0
LINE
  5
B82
330
1F
100
AcDbEntity
  8
2
  6
CONTINUOUS
370
25
 62
7
100
AcDbLine
 10
11.95381523791118
 20
-1.219459506866771
 30
0.0
 11
12.12563016686677
 21
-1.04764457791118
 31
0.0
  0
LINE
  5
B83
330
1F
100
AcDbEntity
  8
2
  6
CONTINUOUS
370
25
 62
7
100
AcDbLine
 10
11.78410961042641
 20
-0.964901065639614
 30
0.0
 11
11.87107172563961
 21
-0.8779389504264081
 31
0.0
  0
LINE
  5
B84
330
1F
100
AcDbEntity
  8
2
  6
CONTINUOUS
370
25
 62
7
100
AcDbLine
 10
11.61440398294164
 20
-0.7103426244124584
 30
0.0
 11
11.61651328441246
 21
-0.7082333229416378
 31
0.0
  0
LINE
  5
B85
330
1F
100
AcDbEntity
  8
2
  6
CONTINUOUS
370
25
 62
7
100
AcDbLine
 10
13.90637953925128
 20
-4.148305958876922
 30
0.0
 11
14.57167074611992
 21
-4.813597165745557
 31
0.0
  0
LINE
  5
B86
330
1F
100
AcDbEntity
  8
2
  6
CONTINUOUS
370
25
 62
7
100
AcDbLine
 10
13.05785140182743
 20
-2.875513752741137
 30
0.0
 11
14.78380278047588
 21
-4.601465131389592
 31
0.0
  0
LINE
  5
B87
330
1F
100
AcDbEntity
  8
2
  6
CONTINUOUS
370
25
 62
7
100
AcDbLine
 10
12.20932326440357
 20
-1.602721546605352
 30
0.0
 11
14.99593481483185
 21
-4.389333097033628
 31
0.0
  0
LINE
  5
B88
330
1F
100
AcDbEntity
  8
2
  6
CONTINUOUS
370
25
 62
7
100
AcDbLine
 10
11.98427075953043
 20
-0.9534049730202838
 30
0.0
 11
15.20806684918781
 21
-4.177201062677664
 31
0.0
  0
LINE
  5
B89
330
1F
100
AcDbEntity
  8
2
  6
CONTINUOUS
370
25
 62
7
100
AcDbLine
 10
13.25706296566621
 20
-1.801933110444137
 30
0.0
 11
15.42019888354377
 21
-3.9650690283217
 31
0.0
  0
LINE
  5
B8A
330
1F
100
AcDbEntity
  8
2
  6
CONTINUOUS
370
25
 62
7
100
AcDbLine
 10
14.529855171802
 20
-2.650461247867998
 30
0.0
 11
15.63233091789974
 21
-3.752936993965736
 31
0.0
  0
LINE
  5
B8B
330
1F
100
AcDbEntity
  8
2
  6
CONTINUOUS
370
25
 62
7
100
AcDbLine
 10
15.80264737793778
 20
-3.498989385291846
 30
0.0
 11
15.8444629522557
 21
-3.540804959609773
 31
0.0
  0
TEXT
  5
B8C
330
1F
100
AcDbEntity
  8
2
  6
CONTINUOUS
370
25
 62
7
100
AcDbText
 10
34.31028732214426
 20
-20.49994999547756
 30
0.0
 40
3.5
  1
R1
 72
     1
 11
36.64362065547759
 21
-20.49994999547756
 31
0.0
100
AcDbText
  0
LINE
  5
B8D
330
1F
100
AcDbEntity
  8
SK1
  6
CONTINUOUS
370
50
 62
4
100
AcDbLine
 10
0.0
 20
0.0
 30
0.0
 11
2.5
 21
0.0
 31
0.0
  0
LINE
  5
B8E
330
1F
100
AcDbEntity
  8
SK1
  6
CONTINUOUS
370
50
 62
4
100
AcDbLine
 10
0.0
 20
0.0
 30
0.0
 11
0.0
 21
2.5
 31
0.0
  0
ARC
  5
B8F
330
1F
100
AcDbEntity
  8
SK1
  6
CONTINUOUS
370
50
 62
4
100
AcDbCircle
 10
0.0
 20
0.0
 30
0.0
 40
2.5
100
AcDbArc
 50
0.0
 51
90.0
  0
LINE
  5
B90
330
1F
100
AcDbEntity
  8
SK1
  6
CONTINUOUS
370
50
 62
4
100
AcDbLine
 10
0.0
 20
0.0
 30
0.0
 11
-2.5
 21
0.0
 31
0.0
  0
ARC
  5
B91
330
1F
100
AcDbEntity
  8
SK1
  6
CONTINUOUS
370
50
 62
4
100
AcDbCircle
 10
0.0
 20
0.0
 30
0.0
 40
2.5
100
AcDbArc
 50
180.0
 51
270.0
  0
LINE
  5
B92
330
1F
100
AcDbEntity
  8
SK1
  6
CONTINUOUS
370
50
 62
4
100
AcDbLine
 10
0.0
 20
-2.5
 30
0.0
 11
0.0
 21
0.0
 31
0.0
  0
ARC
  5
B93
330
1F
100
AcDbEntity
  8
SK1
  6
CONTINUOUS
370
50
 62
4
100
AcDbCircle
 10
0.0
 20
0.0
 30
0.0
 40
2.5
100
AcDbArc
 50
270.0
 51
0.0
  0
ARC
  5
B94
330
1F
100
AcDbEntity
  8
SK1
  6
CONTINUOUS
370
50
 62
4
100
AcDbCircle
 10
0.0
 20
0.0
 30
0.0
 40
2.5
100
AcDbArc
 50
90.0
 51
180.0
  0
LINE
  5
B95
330
1F
100
AcDbEntity
  8
SK1
  6
CONTINUOUS
370
50
 62
4
100
AcDbLine
 10
-0.31832627443191
 20
-2.479495909600069
 30
0.0
 11
0.0
 21
-2.161169635168159
 31
0.0
  0
LINE
  5
B96
330
1F
100
AcDbEntity
  8
SK1
  6
CONTINUOUS
370
50
 62
4
100
AcDbLine
 10
2.16116963516816
 20
0.0
 30
0.0
 11
2.479495909600069
 21
0.3183262744319091
 31
0.0
  0
LINE
  5
B97
330
1F
100
AcDbEntity
  8
SK1
  6
CONTINUOUS
370
50
 62
4
100
AcDbLine
 10
-0.615281817185723
 20
-2.422898061760609
 30
0.0
 11
0.0
 21
-1.807616244574886
 31
0.0
  0
LINE
  5
B98
330
1F
100
AcDbEntity
  8
SK1
  6
CONTINUOUS
370
50
 62
4
100
AcDbLine
 10
1.807616244574887
 20
0.0
 30
0.0
 11
2.422898061760609
 21
0.6152818171857222
 31
0.0
  0
LINE
  5
B99
330
1F
100
AcDbEntity
  8
SK1
  6
CONTINUOUS
370
50
 62
4
100
AcDbLine
 10
-0.8835965231639721
 20
-2.337659377145585
 30
0.0
 11
0.0
 21
-1.454062853981614
 31
0.0
  0
LINE
  5
B9A
330
1F
100
AcDbEntity
  8
SK1
  6
CONTINUOUS
370
50
 62
4
100
AcDbLine
 10
1.454062853981615
 20
0.0
 30
0.0
 11
2.337659377145586
 21
0.8835965231639715
 31
0.0
  0
LINE
  5
B9B
330
1F
100
AcDbEntity
  8
SK1
  6
CONTINUOUS
370
50
 62
4
100
AcDbLine
 10
-1.128779664263143
 20
-2.229289127651483
 30
0.0
 11
0.0
 21
-1.100509463388341
 31
0.0
  0
LINE
  5
B9C
330
1F
100
AcDbEntity
  8
SK1
  6
CONTINUOUS
370
50
 62
4
100
AcDbLine
 10
1.100509463388341
 20
0.0
 30
0.0
 11
2.229289127651484
 21
1.128779664263142
 31
0.0
  0
LINE
  5
B9D
330
1F
100
AcDbEntity
  8
SK1
  6
CONTINUOUS
370
50
 62
4
100
AcDbLine
 10
-1.354032791010379
 20
-2.100988863805446
 30
0.0
 11
0.0
 21
-0.7469560727950677
 31
0.0
  0
LINE
  5
B9E
330
1F
100
AcDbEntity
  8
SK1
  6
CONTINUOUS
370
50
 62
4
100
AcDbLine
 10
0.746956072795068
 20
0.0
 30
0.0
 11
2.100988863805446
 21
1.354032791010378
 31
0.0
  0
LINE
  5
B9F
330
1F
100
AcDbEntity
  8
SK1
  6
CONTINUOUS
370
50
 62
4
100
AcDbLine
 10
-1.559387394659872
 20
-1.952790076861666
 30
0.0
 11
0.0
 21
-0.3934026822017946
 31
0.0
  0
LINE
  5
BA0
330
1F
100
AcDbEntity
  8
SK1
  6
CONTINUOUS
370
50
 62
4
100
AcDbLine
 10
0.3934026822017948
 20
0.0
 30
0.0
 11
1.952790076861667
 21
1.559387394659871
 31
0.0
  0
LINE
  5
BA1
330
1F
100
AcDbEntity
  8
SK1
  6
CONTINUOUS
370
50
 62
4
100
AcDbLine
 10
-1.746970020883365
 20
-1.786819312491886
 30
0.0
 11
0.0
 21
-0.0398492916085216
 31
0.0
  0
LINE
  5
BA2
330
1F
100
AcDbEntity
  8
SK1
  6
CONTINUOUS
370
50
 62
4
100
AcDbLine
 10
0.0398492916085216
 20
0.0
 30
0.0
 11
1.786819312491887
 21
1.746970020883364
 31
0.0
  0
LINE
  5
BA3
330
1F
100
AcDbEntity
  8
SK1
  6
CONTINUOUS
370
50
 62
4
100
AcDbLine
 10
-1.917371878232655
 20
-1.603667779247902
 30
0.0
 11
-0.3137040989847517
 21
0.0
 31
0.0
  0
LINE
  5
BA4
330
1F
100
AcDbEntity
  8
SK1
  6
CONTINUOUS
370
50
 62
4
100
AcDbLine
 10
0.0
 20
0.3137040989847515
 30
0.0
 11
1.603667779247903
 21
1.917371878232654
 31
0.0
  0
LINE
  5
BA5
330
1F
100
AcDbEntity
  8
SK1
  6
CONTINUOUS
370
50
 62
4
100
AcDbLine
 10
-2.068741231122433
 20
-1.401483741544407
 30
0.0
 11
-0.6672574895780249
 21
0.0
 31
0.0
  0
LINE
  5
BA6
330
1F
100
AcDbEntity
  8
SK1
  6
CONTINUOUS
370
50
 62
4
100
AcDbLine
 10
0.0
 20
0.6672574895780246
 30
0.0
 11
1.401483741544409
 21
2.068741231122432
 31
0.0
  0
LINE
  5
BA7
330
1F
100
AcDbEntity
  8
SK1
  6
CONTINUOUS
370
50
 62
4
100
AcDbLine
 10
-2.2023876557675
 20
-1.181576775596201
 30
0.0
 11
-1.020810880171298
 21
0.0
 31
0.0
  0
LINE
  5
BA8
330
1F
100
AcDbEntity
  8
SK1
  6
CONTINUOUS
370
50
 62
4
100
AcDbLine
 10
0.0
 20
1.020810880171298
 30
0.0
 11
1.181576775596202
 21
2.202387655767499
 31
0.0
  0
LINE
  5
BA9
330
1F
100
AcDbEntity
  8
SK1
  6
CONTINUOUS
370
50
 62
4
100
AcDbLine
 10
-2.315450943493525
 20
-0.9410866727289533
 30
0.0
 11
-1.374364270764571
 21
0.0
 31
0.0
  0
LINE
  5
BAA
330
1F
100
AcDbEntity
  8
SK1
  6
CONTINUOUS
370
50
 62
4
100
AcDbLine
 10
0.0
 20
1.374364270764571
 30
0.0
 11
0.9410866727289543
 21
2.315450943493524
 31
0.0
  0
LINE
  5
BAB
330
1F
100
AcDbEntity
  8
SK1
  6
CONTINUOUS
370
50
 62
4
100
AcDbLine
 10
-2.405290600131854
 20
-0.6773729387740097
 30
0.0
 11
-1.727917661357844
 21
0.0
 31
0.0
  0
LINE
  5
BAC
330
1F
100
AcDbEntity
  8
SK1
  6
CONTINUOUS
370
50
 62
4
100
AcDbLine
 10
0.0
 20
1.727917661357844
 30
0.0
 11
0.6773729387740106
 21
2.405290600131854
 31
0.0
  0
LINE
  5
BAD
330
1F
100
AcDbEntity
  8
SK1
  6
CONTINUOUS
370
50
 62
4
100
AcDbLine
 10
-2.468598823056026
 20
-0.3871277711049084
 30
0.0
 11
-2.081471051951118
 21
0.0
 31
0.0
  0
LINE
  5
BAE
330
1F
100
AcDbEntity
  8
SK1
  6
CONTINUOUS
370
50
 62
4
100
AcDbLine
 10
0.0
 20
2.081471051951117
 30
0.0
 11
0.3871277711049085
 21
2.468598823056025
 31
0.0
  0
LINE
  5
BAF
330
1F
100
AcDbEntity
  8
SK1
  6
CONTINUOUS
370
50
 62
4
100
AcDbLine
 10
-2.498020276172772
 20
-0.0629958336283822
 30
0.0
 11
-2.43502444254439
 21
0.0
 31
0.0
  0
LINE
  5
BB0
330
1F
100
AcDbEntity
  8
SK1
  6
CONTINUOUS
370
50
 62
4
100
AcDbLine
 10
0.0
 20
2.435024442544389
 30
0.0
 11
0.0629958336283828
 21
2.498020276172772
 31
0.0
  0
LINE
  5
BB1
330
1F
100
AcDbEntity
  8
SK1
  6
CONTINUOUS
370
50
 62
4
100
AcDbLine
 10
-2.337336523620827
 20
-0.8844932833271533
 30
0.0
 11
-0.8844932833271509
 21
-2.337336523620827
 31
0.0
  0
LINE
  5
BB2
330
1F
100
AcDbEntity
  8
SK1
  6
CONTINUOUS
370
50
 62
4
100
AcDbLine
 10
-2.466237059966593
 20
-0.4020393563881135
 30
0.0
 11
-0.4020393563881111
 21
-2.466237059966594
 31
0.0
  0
LINE
  5
BB3
330
1F
100
AcDbEntity
  8
SK1
  6
CONTINUOUS
370
50
 62
4
100
AcDbLine
 10
-2.499522297881596
 20
-0.0152007278798383
 30
0.0
 11
-0.0152007278798351
 21
-2.499522297881596
 31
0.0
  0
LINE
  5
BB4
330
1F
100
AcDbEntity
  8
SK1
  6
CONTINUOUS
370
50
 62
4
100
AcDbLine
 10
-2.16116963516816
 20
0.0
 30
0.0
 11
0.0
 21
-2.161169635168158
 31
0.0
  0
LINE
  5
BB5
330
1F
100
AcDbEntity
  8
SK1
  6
CONTINUOUS
370
50
 62
4
100
AcDbLine
 10
-1.807616244574888
 20
0.0
 30
0.0
 11
0.0
 21
-1.807616244574886
 31
0.0
  0
LINE
  5
BB6
330
1F
100
AcDbEntity
  8
SK1
  6
CONTINUOUS
370
50
 62
4
100
AcDbLine
 10
-1.454062853981615
 20
0.0
 30
0.0
 11
0.0
 21
-1.454062853981613
 31
0.0
  0
LINE
  5
BB7
330
1F
100
AcDbEntity
  8
SK1
  6
CONTINUOUS
370
50
 62
4
100
AcDbLine
 10
-1.100509463388341
 20
0.0
 30
0.0
 11
0.0
 21
-1.10050946338834
 31
0.0
  0
LINE
  5
BB8
330
1F
100
AcDbEntity
  8
SK1
  6
CONTINUOUS
370
50
 62
4
100
AcDbLine
 10
-0.7469560727950676
 20
0.0
 30
0.0
 11
0.0
 21
-0.7469560727950668
 31
0.0
  0
LINE
  5
BB9
330
1F
100
AcDbEntity
  8
SK1
  6
CONTINUOUS
370
50
 62
4
100
AcDbLine
 10
-0.3934026822017942
 20
0.0
 30
0.0
 11
0.0
 21
-0.3934026822017938
 31
0.0
  0
LINE
  5
BBA
330
1F
100
AcDbEntity
  8
SK1
  6
CONTINUOUS
370
50
 62
4
100
AcDbLine
 10
-0.0398492916085216
 20
0.0
 30
0.0
 11
0.0
 21
-0.0398492916085216
 31
0.0
  0
LINE
  5
BBB
330
1F
100
AcDbEntity
  8
SK1
  6
CONTINUOUS
370
50
 62
4
100
AcDbLine
 10
0.0
 20
0.3137040989847515
 30
0.0
 11
0.3137040989847518
 21
0.0
 31
0.0
  0
LINE
  5
BBC
330
1F
100
AcDbEntity
  8
SK1
  6
CONTINUOUS
370
50
 62
4
100
AcDbLine
 10
0.0
 20
0.6672574895780246
 30
0.0
 11
0.6672574895780253
 21
0.0
 31
0.0
  0
LINE
  5
BBD
330
1F
100
AcDbEntity
  8
SK1
  6
CONTINUOUS
370
50
 62
4
100
AcDbLine
 10
0.0
 20
1.020810880171298
 30
0.0
 11
1.020810880171299
 21
0.0
 31
0.0
  0
LINE
  5
BBE
330
1F
100
AcDbEntity
  8
SK1
  6
CONTINUOUS
370
50
 62
4
100
AcDbLine
 10
0.0
 20
1.37436427076457
 30
0.0
 11
1.374364270764571
 21
0.0
 31
0.0
  0
LINE
  5
BBF
330
1F
100
AcDbEntity
  8
SK1
  6
CONTINUOUS
370
50
 62
4
100
AcDbLine
 10
0.0
 20
1.727917661357843
 30
0.0
 11
1.727917661357845
 21
0.0
 31
0.0
  0
LINE
  5
BC0
330
1F
100
AcDbEntity
  8
SK1
  6
CONTINUOUS
370
50
 62
4
100
AcDbLine
 10
0.0
 20
2.081471051951116
 30
0.0
 11
2.081471051951118
 21
0.0
 31
0.0
  0
LINE
  5
BC1
330
1F
100
AcDbEntity
  8
SK1
  6
CONTINUOUS
370
50
 62
4
100
AcDbLine
 10
0.0
 20
2.435024442544389
 30
0.0
 11
2.435024442544392
 21
0.0
 31
0.0
  0
LINE
  5
BC2
330
1F
100
AcDbEntity
  8
SK1
  6
CONTINUOUS
370
50
 62
4
100
AcDbLine
 10
0.3077647139123103
 20
2.480813119225352
 30
0.0
 11
2.480813119225352
 21
0.307764713912313
 31
0.0
  0
LINE
  5
BC3
330
1F
100
AcDbEntity
  8
SK1
  6
CONTINUOUS
370
50
 62
4
100
AcDbLine
 10
0.7611924397506667
 20
2.380938783980268
 30
0.0
 11
2.380938783980268
 21
0.7611924397506691
 31
0.0
  0
LINE
  5
BC4
330
1F
100
AcDbEntity
  8
SK1
  6
CONTINUOUS
370
50
 62
4
100
AcDbLine
 10
1.48586376213526
 20
2.009820852188948
 30
0.0
 11
2.009820852188946
 21
1.485863762135263
 31
0.0
  0
LINE
  5
BC5
330
1F
100
AcDbEntity
  8
4
  6
LONGDASH_DASH
370
25
 62
2
100
AcDbLine
 10
0.0
 20
0.0
 30
0.0
 11
11.9
 21
0.0
 31
0.0
  0
LINE
  5
BC6
330
1F
100
AcDbEntity
  8
SK4
  6
LONGDASH_DASH
370
25
 62
2
100
AcDbLine
 10
-54.1
 20
0.0
 30
0.0
 11
17.9
 21
0.0
 31
0.0
  0
LINE
  5
BC7
330
1F
100
AcDbEntity
  8
INFTOTAL
  6
CONTINUOUS
370
18
 62
9
100
AcDbLine
 10
-81.510011
 20
-31.900011
 30
0.0
 11
49.39001100000001
 21
-31.900011
 31
0.0
  0
LINE
  5
BC8
330
1F
100
AcDbEntity
  8
INFTOTAL
  6
CONTINUOUS
370
18
 62
9
100
AcDbLine
 10
49.39001100000001
 20
-31.900011
 30
0.0
 11
49.39001100000001
 21
47.300011
 31
0.0
  0
LINE
  5
BC9
330
1F
100
AcDbEntity
  8
INFTOTAL
  6
CONTINUOUS
370
18
 62
9
100
AcDbLine
 10
49.39001100000001
 20
47.300011
 30
0.0
 11
-81.51001099999999
 21
47.300011
 31
0.0
  0
LINE
  5
BCA
330
1F
100
AcDbEntity
  8
INFTOTAL
  6
CONTINUOUS
370
18
 62
9
100
AcDbLine
 10
-81.51001099999999
 20
47.300011
 30
0.0
 11
-81.51001099999999
 21
-31.90001100000001
 31
0.0
  0
ENDSEC
  0
SECTION
  2
OBJECTS
  0
DICTIONARY
  5
C
330
0
100
AcDbDictionary
281
     1
  3
ACAD_GROUP
350
D
  3
ACAD_LAYOUT
350
1A
  3
ACAD_MATERIAL
350
3B
  3
ACAD_MLEADERSTYLE
350
BCD
  3
ACAD_MLINESTYLE
350
17
  3
ACAD_PLOTSETTINGS
350
19
  3
ACAD_PLOTSTYLENAME
350
E
  3
ACAD_SCALELIST
350
3C0
  3
ACAD_VISUALSTYLE
350
2A
  3
AcDbVariableDictionary
350
BCB
  0
DICTIONARY
  5
D
102
{ACAD_REACTORS
330
C
102
}
330
C
100
AcDbDictionary
281
     1
  0
DICTIONARY
  5
1A
102
{ACAD_REACTORS
330
C
102
}
330
C
100
AcDbDictionary
281
     1
  3
Layout1
350
1E
  3
Layout2
350
26
  3
Model
350
22
  0
DICTIONARY
  5
3B
102
{ACAD_REACTORS
330
C
102
}
330
C
100
AcDbDictionary
281
     1
  3
ByBlock
350
3D
  3
ByLayer
350
3C
  3
Global
350
3E
  0
DICTIONARY
  5
BCD
102
{ACAD_REACTORS
330
C
102
}
330
C
100
AcDbDictionary
281
     1
  0
DICTIONARY
  5
17
102
{ACAD_REACTORS
330
C
102
}
330
C
100
AcDbDictionary
281
     1
  3
Standard
350
18
  0
DICTIONARY
  5
19
102
{ACAD_REACTORS
330
C
102
}
330
C
100
AcDbDictionary
281
     1
  0
ACDBDICTIONARYWDFLT
  5
E
102
{ACAD_REACTORS
330
C
102
}
330
C
100
AcDbDictionary
281
     1
  3
Normal
350
F
100
AcDbDictionaryWithDefault
340
F
  0
DICTIONARY
  5
3C0
102
{ACAD_REACTORS
330
C
102
}
330
C
100
AcDbDictionary
281
     1
  3
A0
350
3C1
  3
A1
350
3C2
  3
A2
350
3C3
  3
A3
350
3C4
  3
A4
350
3C5
  3
A5
350
3C6
  3
A6
350
3C7
  3
A7
350
3C8
  3
A8
350
3C9
  3
A9
350
3CA
  3
B0
350
3CB
  3
B1
350
3CC
  3
B2
350
3CD
  3
B3
350
3CE
  3
B4
350
3CF
  3
B5
350
3D0
  3
B6
350
3D1
  3
B7
350
3D2
  3
B8
350
3D3
  3
B9
350
3D4
  3
C0
350
3D5
  3
C1
350
3D6
  3
C2
350
3D7
  3
C3
350
3D8
  3
C4
350
3D9
  3
C5
350
3DA
  3
C6
350
3DB
  3
C7
350
3DC
  3
C8
350
3DD
  3
C9
350
3DE
  3
D0
350
3DF
  3
D1
350
3E0
  3
D2
350
3E1
  0
DICTIONARY
  5
2A
102
{ACAD_REACTORS
330
C
102
}
330
C
100
AcDbDictionary
281
     1
  3
2dWireframe
350
2F
  3
3D Hidden
350
31
  3
3dWireframe
350
30
  3
Basic
350
32
  3
Brighten
350
36
  3
ColorChange
350
3A
  3
Conceptual
350
34
  3
Dim
350
35
  3
Facepattern
350
39
  3
Flat
350
2B
  3
FlatWithEdges
350
2C
  3
Gouraud
350
2D
  3
GouraudWithEdges
350
2E
  3
Linepattern
350
38
  3
Realistic
350
33
  3
Thicken
350
37
  0
DICTIONARY
  5
BCB
102
{ACAD_REACTORS
330
C
102
}
330
C
100
AcDbDictionary
281
     1
  3
CANNOSCALE
350
BD0
  3
DIMASSOC
350
BD1
  3
HIDETEXT
350
BD2
  3
PSOLHEIGHT
350
BCF
  3
PSOLWIDTH
350
BCE
  0
LAYOUT
  5
1E
102
{ACAD_REACTORS
330
1A
102
}
330
1A
100
AcDbPlotSettings
  1

  2
none_device
  4

  6

 40
0.0
 41
0.0
 42
0.0
 43
0.0
 44
0.0
 45
0.0
 46
0.0
 47
0.0
 48
0.0
 49
0.0
140
0.0
141
0.0
142
1.0
143
1.0
 70
   688
 72
     0
 73
     0
 74
     5
  7

 75
    16
147
1.0
148
0.0
149
0.0
100
AcDbLayout
  1
Layout1
 70
     1
 71
     1
 10
0.0
 20
0.0
 11
420.0
 21
297.0
 12
0.0
 22
0.0
 32
0.0
 14
1.000000000000000E+20
 24
1.000000000000000E+20
 34
1.000000000000000E+20
 15
-1.000000000000000E+20
 25
-1.000000000000000E+20
 35
-1.000000000000000E+20
146
0.0
 13
0.0
 23
0.0
 33
0.0
 16
1.0
 26
0.0
 36
0.0
 17
0.0
 27
1.0
 37
0.0
 76
     0
330
1B
  0
LAYOUT
  5
26
102
{ACAD_REACTORS
330
1A
102
}
330
1A
100
AcDbPlotSettings
  1

  2
none_device
  4

  6

 40
0.0
 41
0.0
 42
0.0
 43
0.0
 44
0.0
 45
0.0
 46
0.0
 47
0.0
 48
0.0
 49
0.0
140
0.0
141
0.0
142
1.0
143
1.0
 70
   688
 72
     0
 73
     0
 74
     5
  7

 75
    16
147
1.0
148
0.0
149
0.0
100
AcDbLayout
  1
Layout2
 70
     1
 71
     2
 10
0.0
 20
0.0
 11
0.0
 21
0.0
 12
0.0
 22
0.0
 32
0.0
 14
0.0
 24
0.0
 34
0.0
 15
0.0
 25
0.0
 35
0.0
146
0.0
 13
0.0
 23
0.0
 33
0.0
 16
1.0
 26
0.0
 36
0.0
 17
0.0
 27
1.0
 37
0.0
 76
     0
330
23
  0
LAYOUT
  5
22
102
{ACAD_REACTORS
330
1A
102
}
330
1A
100
AcDbPlotSettings
  1

  2
none_device
  4

  6

 40
0.0
 41
0.0
 42
0.0
 43
0.0
 44
0.0
 45
0.0
 46
0.0
 47
0.0
 48
0.0
 49
0.0
140
0.0
141
0.0
142
1.0
143
1.0
 70
  1712
 72
     0
 73
     0
 74
     0
  7

 75
     0
147
1.0
148
0.0
149
0.0
100
AcDbLayout
  1
Model
 70
     1
 71
     0
 10
0.0
 20
0.0
 11
420.0
 21
297.0
 12
0.0
 22
0.0
 32
0.0
 14
0.0
 24
0.0
 34
0.0
 15
25.0
 25
35.0
 35
0.0
146
0.0
 13
0.0
 23
0.0
 33
0.0
 16
1.0
 26
0.0
 36
0.0
 17
0.0
 27
1.0
 37
0.0
 76
     0
330
1F
331
29
  0
MATERIAL
  5
3D
102
{ACAD_REACTORS
330
3B
102
}
102
{ACAD_XDICTIONARY
360
BF5
102
}
330
3B
100
AcDbMaterial
  1
ByBlock
  0
MATERIAL
  5
3C
102
{ACAD_REACTORS
330
3B
102
}
102
{ACAD_XDICTIONARY
360
BF3
102
}
330
3B
100
AcDbMaterial
  1
ByLayer
  0
MATERIAL
  5
3E
102
{ACAD_REACTORS
330
3B
102
}
102
{ACAD_XDICTIONARY
360
BF7
102
}
330
3B
100
AcDbMaterial
  1
Global
  0
MLINESTYLE
  5
18
102
{ACAD_REACTORS
330
17
102
}
330
17
100
AcDbMlineStyle
  2
Standard
 70
     0
  3

 62
   256
 51
90.0
 52
90.0
 71
     2
 49
0.5
 62
   256
  6
BYLAYER
 49
-0.5
 62
   256
  6
BYLAYER
  0
ACDBPLACEHOLDER
  5
F
102
{ACAD_REACTORS
330
E
102
}
330
E
  0
SCALE
  5
3C1
102
{ACAD_REACTORS
330
3C0
102
}
330
3C0
100
AcDbScale
 70
     0
300
1:1
140
1.0
141
1.0
290
     1
  0
SCALE
  5
3C2
102
{ACAD_REACTORS
330
3C0
102
}
330
3C0
100
AcDbScale
 70
     0
300
1:2
140
1.0
141
2.0
290
     0
  0
SCALE
  5
3C3
102
{ACAD_REACTORS
330
3C0
102
}
330
3C0
100
AcDbScale
 70
     0
300
1:4
140
1.0
141
4.0
290
     0
  0
SCALE
  5
3C4
102
{ACAD_REACTORS
330
3C0
102
}
330
3C0
100
AcDbScale
 70
     0
300
1:5
140
1.0
141
5.0
290
     0
  0
SCALE
  5
3C5
102
{ACAD_REACTORS
330
3C0
102
}
330
3C0
100
AcDbScale
 70
     0
300
1:8
140
1.0
141
8.0
290
     0
  0
SCALE
  5
3C6
102
{ACAD_REACTORS
330
3C0
102
}
330
3C0
100
AcDbScale
 70
     0
300
1:10
140
1.0
141
10.0
290
     0
  0
SCALE
  5
3C7
102
{ACAD_REACTORS
330
3C0
102
}
330
3C0
100
AcDbScale
 70
     0
300
1:16
140
1.0
141
16.0
290
     0
  0
SCALE
  5
3C8
102
{ACAD_REACTORS
330
3C0
102
}
330
3C0
100
AcDbScale
 70
     0
300
1:20
140
1.0
141
20.0
290
     0
  0
SCALE
  5
3C9
102
{ACAD_REACTORS
330
3C0
102
}
330
3C0
100
AcDbScale
 70
     0
300
1:30
140
1.0
141
30.0
290
     0
  0
SCALE
  5
3CA
102
{ACAD_REACTORS
330
3C0
102
}
330
3C0
100
AcDbScale
 70
     0
300
1:40
140
1.0
141
40.0
290
     0
  0
SCALE
  5
3CB
102
{ACAD_REACTORS
330
3C0
102
}
330
3C0
100
AcDbScale
 70
     0
300
1:50
140
1.0
141
50.0
290
     0
  0
SCALE
  5
3CC
102
{ACAD_REACTORS
330
3C0
102
}
330
3C0
100
AcDbScale
 70
     0
300
1:100
140
1.0
141
100.0
290
     0
  0
SCALE
  5
3CD
102
{ACAD_REACTORS
330
3C0
102
}
330
3C0
100
AcDbScale
 70
     0
300
2:1
140
2.0
141
1.0
290
     0
  0
SCALE
  5
3CE
102
{ACAD_REACTORS
330
3C0
102
}
330
3C0
100
AcDbScale
 70
     0
300
4:1
140
4.0
141
1.0
290
     0
  0
SCALE
  5
3CF
102
{ACAD_REACTORS
330
3C0
102
}
330
3C0
100
AcDbScale
 70
     0
300
8:1
140
8.0
141
1.0
290
     0
  0
SCALE
  5
3D0
102
{ACAD_REACTORS
330
3C0
102
}
330
3C0
100
AcDbScale
 70
     0
300
10:1
140
10.0
141
1.0
290
     0
  0
SCALE
  5
3D1
102
{ACAD_REACTORS
330
3C0
102
}
330
3C0
100
AcDbScale
 70
     0
300
100:1
140
100.0
141
1.0
290
     0
  0
SCALE
  5
3D2
102
{ACAD_REACTORS
330
3C0
102
}
330
3C0
100
AcDbScale
 70
     0
300
1/128" = 1'-0"
140
0.0078125
141
12.0
290
     0
  0
SCALE
  5
3D3
102
{ACAD_REACTORS
330
3C0
102
}
330
3C0
100
AcDbScale
 70
     0
300
1/64" = 1'-0"
140
0.015625
141
12.0
290
     0
  0
SCALE
  5
3D4
102
{ACAD_REACTORS
330
3C0
102
}
330
3C0
100
AcDbScale
 70
     0
300
1/32" = 1'-0"
140
0.03125
141
12.0
290
     0
  0
SCALE
  5
3D5
102
{ACAD_REACTORS
330
3C0
102
}
330
3C0
100
AcDbScale
 70
     0
300
1/16" = 1'-0"
140
0.0625
141
12.0
290
     0
  0
SCALE
  5
3D6
102
{ACAD_REACTORS
330
3C0
102
}
330
3C0
100
AcDbScale
 70
     0
300
3/32" = 1'-0"
140
0.09375
141
12.0
290
     0
  0
SCALE
  5
3D7
102
{ACAD_REACTORS
330
3C0
102
}
330
3C0
100
AcDbScale
 70
     0
300
1/8" = 1'-0"
140
0.125
141
12.0
290
     0
  0
SCALE
  5
3D8
102
{ACAD_REACTORS
330
3C0
102
}
330
3C0
100
AcDbScale
 70
     0
300
3/16" = 1'-0"
140
0.1875
141
12.0
290
     0
  0
SCALE
  5
3D9
102
{ACAD_REACTORS
330
3C0
102
}
330
3C0
100
AcDbScale
 70
     0
300
1/4" = 1'-0"
140
0.25
141
12.0
290
     0
  0
SCALE
  5
3DA
102
{ACAD_REACTORS
330
3C0
102
}
330
3C0
100
AcDbScale
 70
     0
300
3/8" = 1'-0"
140
0.375
141
12.0
290
     0
  0
SCALE
  5
3DB
102
{ACAD_REACTORS
330
3C0
102
}
330
3C0
100
AcDbScale
 70
     0
300
1/2" = 1'-0"
140
0.5
141
12.0
290
     0
  0
SCALE
  5
3DC
102
{ACAD_REACTORS
330
3C0
102
}
330
3C0
100
AcDbScale
 70
     0
300
3/4" = 1'-0"
140
0.75
141
12.0
290
     0
  0
SCALE
  5
3DD
102
{ACAD_REACTORS
330
3C0
102
}
330
3C0
100
AcDbScale
 70
     0
300
1" = 1'-0"
140
1.0
141
12.0
290
     0
  0
SCALE
  5
3DE
102
{ACAD_REACTORS
330
3C0
102
}
330
3C0
100
AcDbScale
 70
     0
300
1-1/2" = 1'-0"
140
1.5
141
12.0
290
     0
  0
SCALE
  5
3DF
102
{ACAD_REACTORS
330
3C0
102
}
330
3C0
100
AcDbScale
 70
     0
300
3" = 1'-0"
140
3.0
141
12.0
290
     0
  0
SCALE
  5
3E0
102
{ACAD_REACTORS
330
3C0
102
}
330
3C0
100
AcDbScale
 70
     0
300
6" = 1'-0"
140
6.0
141
12.0
290
     0
  0
SCALE
  5
3E1
102
{ACAD_REACTORS
330
3C0
102
}
330
3C0
100
AcDbScale
 70
     0
300
1'-0" = 1'-0"
140
12.0
141
12.0
290
     0
  0
VISUALSTYLE
  5
2F
102
{ACAD_REACTORS
330
2A
102
}
102
{ACAD_XDICTIONARY
360
BDB
102
}
330
2A
100
AcDbVisualStyle
  2
2dWireframe
 70
     4
 71
     0
 72
     2
 73
     0
 90
        0
 40
-0.6
 41
-30.0
 62
     5
 63
     7
 74
     1
 91
        4
 64
     7
 65
   257
 75
     1
175
     1
 42
1.0
 92
        0
 66
   257
 43
1.0
 76
     1
 77
     6
 78
     2
 67
     7
 79
     5
170
     0
171
     0
290
     0
174
     0
 93
        1
 44
0.0
173
     0
291
     0
 45
0.0
1001
ACAD
1000
AcDbSavedByObjectVersion
1070
     0
  0
VISUALSTYLE
  5
31
102
{ACAD_REACTORS
330
2A
102
}
102
{ACAD_XDICTIONARY
360
BDF
102
}
330
2A
100
AcDbVisualStyle
  2
3D Hidden
 70
     6
 71
     1
 72
     2
 73
     2
 90
        0
 40
-0.6
 41
-30.0
 62
     5
 63
     7
 74
     2
 91
        2
 64
     7
 65
   257
 75
     2
175
     1
 42
40.0
 92
        0
 66
   257
 43
1.0
 76
     1
 77
     6
 78
     2
 67
     7
 79
     3
170
     0
171
     0
290
     0
174
     0
 93
        1
 44
0.0
173
     0
291
     0
 45
0.0
1001
ACAD
1000
AcDbSavedByObjectVersion
1070
     0
  0
VISUALSTYLE
  5
30
102
{ACAD_REACTORS
330
2A
102
}
102
{ACAD_XDICTIONARY
360
BDD
102
}
330
2A
100
AcDbVisualStyle
  2
3dWireframe
 70
     5
 71
     0
 72
     2
 73
     0
 90
        0
 40
-0.6
 41
-30.0
 62
     5
 63
     7
 74
     1
 91
        4
 64
     7
 65
   257
 75
     1
175
     1
 42
1.0
 92
        0
 66
   257
 43
1.0
 76
     1
 77
     6
 78
     2
 67
     7
 79
     5
170
     0
171
     0
290
     0
174
     0
 93
        1
 44
0.0
173
     0
291
     0
 45
0.0
1001
ACAD
1000
AcDbSavedByObjectVersion
1070
     0
  0
VISUALSTYLE
  5
32
102
{ACAD_REACTORS
330
2A
102
}
102
{ACAD_XDICTIONARY
360
BE1
102
}
330
2A
100
AcDbVisualStyle
  2
Basic
 70
     7
 71
     1
 72
     0
 73
     1
 90
        0
 40
-0.6
 41
-30.0
 62
     5
 63
     7
 74
     0
 91
        4
 64
     7
 65
   257
 75
     1
175
     1
 42
1.0
 92
        8
 66
     7
 43
1.0
 76
     1
 77
     6
 78
     2
 67
     7
 79
     5
170
     0
171
     0
290
     0
174
     0
 93
        1
 44
0.0
173
     0
291
     1
 45
0.0
1001
ACAD
1000
AcDbSavedByObjectVersion
1070
     0
  0
VISUALSTYLE
  5
36
102
{ACAD_REACTORS
330
2A
102
}
102
{ACAD_XDICTIONARY
360
BE9
102
}
330
2A
100
AcDbVisualStyle
  2
Brighten
 70
    12
 71
     2
 72
     2
 73
     0
 90
        0
 40
-0.6
 41
-30.0
 62
     5
 63
     7
 74
     1
 91
        4
 64
     7
 65
   257
 75
     1
175
     1
 42
1.0
 92
        8
 66
     7
 43
1.0
 76
     1
 77
     6
 78
     2
 67
     7
 79
     5
170
     0
171
     0
290
     0
174
     0
 93
        1
 44
50.0
173
     0
291
     1
 45
0.0
1001
ACAD
1000
AcDbSavedByObjectVersion
1070
     0
  0
VISUALSTYLE
  5
3A
102
{ACAD_REACTORS
330
2A
102
}
102
{ACAD_XDICTIONARY
360
BF1
102
}
330
2A
100
AcDbVisualStyle
  2
ColorChange
 70
    16
 71
     2
 72
     2
 73
     3
 90
        0
 40
-0.6
 41
-30.0
 62
     5
 63
     8
 74
     1
 91
        4
 64
     7
 65
   257
 75
     1
175
     1
 42
1.0
 92
        8
 66
     8
 43
1.0
 76
     1
 77
     6
 78
     2
 67
     7
 79
     5
170
     0
171
     0
290
     0
174
     0
 93
        1
 44
0.0
173
     0
291
     1
 45
0.0
1001
ACAD
1000
AcDbSavedByObjectVersion
1070
     0
  0
VISUALSTYLE
  5
34
102
{ACAD_REACTORS
330
2A
102
}
102
{ACAD_XDICTIONARY
360
BE5
102
}
330
2A
100
AcDbVisualStyle
  2
Conceptual
 70
     9
 71
     3
 72
     2
 73
     0
 90
        0
 40
-0.6
 41
-30.0
 62
     5
 63
     7
 74
     2
 91
        2
 64
     7
 65
   257
 75
     1
175
     1
 42
40.0
 92
        8
 66
     7
 43
1.0
 76
     1
 77
     6
 78
     2
 67
     7
 79
     3
170
     0
171
     0
290
     0
174
     0
 93
        1
 44
0.0
173
     0
291
     0
 45
0.0
1001
ACAD
1000
AcDbSavedByObjectVersion
1070
     0
  0
VISUALSTYLE
  5
35
102
{ACAD_REACTORS
330
2A
102
}
102
{ACAD_XDICTIONARY
360
BE7
102
}
330
2A
100
AcDbVisualStyle
  2
Dim
 70
    11
 71
     2
 72
     2
 73
     0
 90
        0
 40
-0.6
 41
-30.0
 62
     5
 63
     7
 74
     1
 91
        4
 64
     7
 65
   257
 75
     1
175
     1
 42
1.0
 92
        8
 66
     7
 43
1.0
 76
     1
 77
     6
 78
     2
 67
     7
 79
     5
170
     0
171
     0
290
     0
174
     0
 93
        1
 44
-50.0
173
     0
291
     1
 45
0.0
1001
ACAD
1000
AcDbSavedByObjectVersion
1070
     0
  0
VISUALSTYLE
  5
39
102
{ACAD_REACTORS
330
2A
102
}
102
{ACAD_XDICTIONARY
360
BEF
102
}
330
2A
100
AcDbVisualStyle
  2
Facepattern
 70
    15
 71
     2
 72
     2
 73
     0
 90
        0
 40
-0.6
 41
-30.0
 62
     5
 63
     7
 74
     1
 91
        4
 64
     7
 65
   257
 75
     1
175
     1
 42
1.0
 92
        8
 66
     7
 43
1.0
 76
     1
 77
     6
 78
     2
 67
     7
 79
     5
170
     0
171
     0
290
     0
174
     0
 93
        1
 44
0.0
173
     0
291
     1
 45
0.0
1001
ACAD
1000
AcDbSavedByObjectVersion
1070
     0
  0
VISUALSTYLE
  5
2B
102
{ACAD_REACTORS
330
2A
102
}
102
{ACAD_XDICTIONARY
360
BD3
102
}
330
2A
100
AcDbVisualStyle
  2
Flat
 70
     0
 71
     2
 72
     1
 73
     1
 90
        2
 40
-0.6
 41
30.0
 62
     5
 63
     7
 74
     0
 91
        4
 64
     7
 65
   257
 75
     1
175
     1
 42
1.0
 92
        8
 66
     7
 43
1.0
 76
     1
 77
     6
 78
     2
 67
     7
 79
     5
170
     0
171
     0
290
     0
174
     0
 93
       13
 44
0.0
173
     0
291
     1
 45
0.0
1001
ACAD
1000
AcDbSavedByObjectVersion
1070
     0
  0
VISUALSTYLE
  5
2C
102
{ACAD_REACTORS
330
2A
102
}
102
{ACAD_XDICTIONARY
360
BD5
102
}
330
2A
100
AcDbVisualStyle
  2
FlatWithEdges
 70
     1
 71
     2
 72
     1
 73
     1
 90
        2
 40
-0.6
 41
30.0
 62
     5
 63
     7
 74
     1
 91
        4
 64
     7
 65
   257
 75
     1
175
     1
 42
1.0
 92
        0
 66
   257
 43
1.0
 76
     1
 77
     6
 78
     2
 67
     7
 79
     5
170
     0
171
     0
290
     0
174
     0
 93
       13
 44
0.0
173
     0
291
     1
 45
0.0
1001
ACAD
1000
AcDbSavedByObjectVersion
1070
     0
  0
VISUALSTYLE
  5
2D
102
{ACAD_REACTORS
330
2A
102
}
102
{ACAD_XDICTIONARY
360
BD7
102
}
330
2A
100
AcDbVisualStyle
  2
Gouraud
 70
     2
 71
     2
 72
     2
 73
     1
 90
        2
 40
-0.6
 41
30.0
 62
     5
 63
     7
 74
     0
 91
        4
 64
     7
 65
   257
 75
     1
175
     1
 42
1.0
 92
        0
 66
     7
 43
1.0
 76
     1
 77
     6
 78
     2
 67
     7
 79
     5
170
     0
171
     0
290
     0
174
     0
 93
       13
 44
0.0
173
     0
291
     1
 45
0.0
1001
ACAD
1000
AcDbSavedByObjectVersion
1070
     0
  0
VISUALSTYLE
  5
2E
102
{ACAD_REACTORS
330
2A
102
}
102
{ACAD_XDICTIONARY
360
BD9
102
}
330
2A
100
AcDbVisualStyle
  2
GouraudWithEdges
 70
     3
 71
     2
 72
     2
 73
     1
 90
        2
 40
-0.6
 41
30.0
 62
     5
 63
     7
 74
     1
 91
        4
 64
     7
 65
   257
 75
     1
175
     1
 42
1.0
 92
        0
 66
   257
 43
1.0
 76
     1
 77
     6
 78
     2
 67
     7
 79
     5
170
     0
171
     0
290
     0
174
     0
 93
       13
 44
0.0
173
     0
291
     1
 45
0.0
1001
ACAD
1000
AcDbSavedByObjectVersion
1070
     0
  0
VISUALSTYLE
  5
38
102
{ACAD_REACTORS
330
2A
102
}
102
{ACAD_XDICTIONARY
360
BED
102
}
330
2A
100
AcDbVisualStyle
  2
Linepattern
 70
    14
 71
     2
 72
     2
 73
     0
 90
        0
 40
-0.6
 41
-30.0
 62
     5
 63
     7
 74
     1
 91
        4
 64
     7
 65
   257
 75
     7
175
     7
 42
1.0
 92
        8
 66
     7
 43
1.0
 76
     1
 77
     6
 78
     2
 67
     7
 79
     5
170
     0
171
     0
290
     0
174
     0
 93
        1
 44
0.0
173
     0
291
     1
 45
0.0
1001
ACAD
1000
AcDbSavedByObjectVersion
1070
     0
  0
VISUALSTYLE
  5
33
102
{ACAD_REACTORS
330
2A
102
}
102
{ACAD_XDICTIONARY
360
BE3
102
}
330
2A
100
AcDbVisualStyle
  2
Realistic
 70
     8
 71
     2
 72
     2
 73
     0
 90
        0
 40
-0.6
 41
-30.0
 62
     5
 63
     7
 74
     1
 91
        0
 64
     7
 65
   257
 75
     1
175
     1
 42
1.0
 92
        8
 66
     8
 43
1.0
 76
     1
 77
     6
 78
     2
 67
     7
 79
     5
170
     0
171
     0
290
     0
174
     0
 93
       13
 44
0.0
173
     0
291
     0
 45
0.0
1001
ACAD
1000
AcDbSavedByObjectVersion
1070
     0
  0
VISUALSTYLE
  5
37
102
{ACAD_REACTORS
330
2A
102
}
102
{ACAD_XDICTIONARY
360
BEB
102
}
330
2A
100
AcDbVisualStyle
  2
Thicken
 70
    13
 71
     2
 72
     2
 73
     0
 90
        0
 40
-0.6
 41
-30.0
 62
     5
 63
     7
 74
     1
 91
        4
 64
     7
 65
   257
 75
     1
175
     1
 42
1.0
 92
       12
 66
     7
 43
1.0
 76
     1
 77
     6
 78
     2
 67
     7
 79
     5
170
     0
171
     0
290
     0
174
     0
 93
        1
 44
0.0
173
     0
291
     1
 45
0.0
1001
ACAD
1000
AcDbSavedByObjectVersion
1070
     0
  0
DICTIONARYVAR
  5
BD0
102
{ACAD_REACTORS
330
BCB
102
}
330
BCB
100
DictionaryVariables
280
     0
  1
1:1
  0
DICTIONARYVAR
  5
BD1
102
{ACAD_REACTORS
330
BCB
102
}
330
BCB
100
DictionaryVariables
280
     0
  1
2
  0
DICTIONARYVAR
  5
BD2
102
{ACAD_REACTORS
330
BCB
102
}
330
BCB
100
DictionaryVariables
280
     0
  1
1
  0
DICTIONARYVAR
  5
BCF
102
{ACAD_REACTORS
330
BCB
102
}
330
BCB
100
DictionaryVariables
280
     0
  1
80.000000
  0
DICTIONARYVAR
  5
BCE
102
{ACAD_REACTORS
330
BCB
102
}
330
BCB
100
DictionaryVariables
280
     0
  1
5.000000
  0
DICTIONARY
  5
BF5
330
3D
100
AcDbDictionary
280
     1
281
     1
  3
ACAD_XREC_ROUNDTRIP
360
BF6
  0
DICTIONARY
  5
BF3
330
3C
100
AcDbDictionary
280
     1
281
     1
  3
ACAD_XREC_ROUNDTRIP
360
BF4
  0
DICTIONARY
  5
BF7
330
3E
100
AcDbDictionary
280
     1
281
     1
  3
ACAD_XREC_ROUNDTRIP
360
BF8
  0
DICTIONARY
  5
BDB
330
2F
100
AcDbDictionary
280
     1
281
     1
  3
ACAD_XREC_ROUNDTRIP
360
BDC
  0
DICTIONARY
  5
BDF
330
31
100
AcDbDictionary
280
     1
281
     1
  3
ACAD_XREC_ROUNDTRIP
360
BE0
  0
DICTIONARY
  5
BDD
330
30
100
AcDbDictionary
280
     1
281
     1
  3
ACAD_XREC_ROUNDTRIP
360
BDE
  0
DICTIONARY
  5
BE1
330
32
100
AcDbDictionary
280
     1
281
     1
  3
ACAD_XREC_ROUNDTRIP
360
BE2
  0
DICTIONARY
  5
BE9
330
36
100
AcDbDictionary
280
     1
281
     1
  3
ACAD_XREC_ROUNDTRIP
360
BEA
  0
DICTIONARY
  5
BF1
330
3A
100
AcDbDictionary
280
     1
281
     1
  3
ACAD_XREC_ROUNDTRIP
360
BF2
  0
DICTIONARY
  5
BE5
330
34
100
AcDbDictionary
280
     1
281
     1
  3
ACAD_XREC_ROUNDTRIP
360
BE6
  0
DICTIONARY
  5
BE7
330
35
100
AcDbDictionary
280
     1
281
     1
  3
ACAD_XREC_ROUNDTRIP
360
BE8
  0
DICTIONARY
  5
BEF
330
39
100
AcDbDictionary
280
     1
281
     1
  3
ACAD_XREC_ROUNDTRIP
360
BF0
  0
DICTIONARY
  5
BD3
330
2B
100
AcDbDictionary
280
     1
281
     1
  3
ACAD_XREC_ROUNDTRIP
360
BD4
  0
DICTIONARY
  5
BD5
330
2C
100
AcDbDictionary
280
     1
281
     1
  3
ACAD_XREC_ROUNDTRIP
360
BD6
  0
DICTIONARY
  5
BD7
330
2D
100
AcDbDictionary
280
     1
281
     1
  3
ACAD_XREC_ROUNDTRIP
360
BD8
  0
DICTIONARY
  5
BD9
330
2E
100
AcDbDictionary
280
     1
281
     1
  3
ACAD_XREC_ROUNDTRIP
360
BDA
  0
DICTIONARY
  5
BED
330
38
100
AcDbDictionary
280
     1
281
     1
  3
ACAD_XREC_ROUNDTRIP
360
BEE
  0
DICTIONARY
  5
BE3
330
33
100
AcDbDictionary
280
     1
281
     1
  3
ACAD_XREC_ROUNDTRIP
360
BE4
  0
DICTIONARY
  5
BEB
330
37
100
AcDbDictionary
280
     1
281
     1
  3
ACAD_XREC_ROUNDTRIP
360
BEC
  0
XRECORD
  5
BF6
102
{ACAD_REACTORS
330
BF5
102
}
330
BF5
100
AcDbXrecord
280
     1
102
MATERIAL
148
0.0
149
0.0
149
0.0
 93
        0
 94
      127
282
     0
 72
     1
 77
     1
171
     1
175
     1
179
     1
273
     0
  0
XRECORD
  5
BF4
102
{ACAD_REACTORS
330
BF3
102
}
330
BF3
100
AcDbXrecord
280
     1
102
MATERIAL
148
0.0
149
0.0
149
0.0
 93
        0
 94
      127
282
     0
 72
     1
 77
     1
171
     1
175
     1
179
     1
273
     0
  0
XRECORD
  5
BF8
102
{ACAD_REACTORS
330
BF7
102
}
330
BF7
100
AcDbXrecord
280
     1
102
MATERIAL
148
0.0
149
0.0
149
0.0
 93
        0
 94
      127
282
     0
 72
     1
 77
     1
171
     1
175
     1
179
     1
273
     0
  0
XRECORD
  5
BDC
102
{ACAD_REACTORS
330
BDB
102
}
330
BDB
100
AcDbXrecord
280
     1
102
RTVSPropertyOp0
 70
     1
102
RTVSPropertyOp1
 70
     1
102
RTVSPropertyOp2
 70
     1
102
RTVSPropertyOp3
 70
     1
102
RTVSPropertyOp4
 70
     1
102
RTVSPropertyOp5
 70
     1
102
RTVSPropertyOp6
 70
     1
102
RTVSPropertyOp7
 70
     1
102
RTVSPropertyOp8
 70
     1
102
RTVSPropertyOp9
 70
     1
102
RTVSPropertyOp10
 70
     1
102
RTVSPropertyOp11
 70
     1
102
RTVSPropertyOp12
 70
     1
102
RTVSPropertyOp13
 70
     1
102
RTVSPropertyOp14
 70
     1
102
RTVSPropertyOp15
 70
     1
102
RTVSPropertyOp16
 70
     1
102
RTVSPropertyOp17
 70
     1
102
RTVSPropertyOp18
 70
     1
102
RTVSPropertyOp19
 70
     1
102
RTVSPropertyOp20
 70
     1
102
RTVSPropertyOp21
 70
     1
102
RTVSPropertyOp22
 70
     1
102
RTVSPropertyOp23
 70
     1
102
RTVSPropertyOp24
 70
     1
102
RTVSPropertyOp25
 70
     1
102
RTVSPropertyOp26
 70
     1
102
RTVSPropertyOp27
 70
     1
  0
XRECORD
  5
BE0
102
{ACAD_REACTORS
330
BDF
102
}
330
BDF
100
AcDbXrecord
280
     1
102
RTVSPropertyOp0
 70
     1
102
RTVSPropertyOp1
 70
     1
102
RTVSPropertyOp2
 70
     1
102
RTVSPropertyOp3
 70
     1
102
RTVSPropertyOp4
 70
     1
102
RTVSPropertyOp5
 70
     1
102
RTVSPropertyOp6
 70
     1
102
RTVSPropertyOp7
 70
     1
102
RTVSPropertyOp8
 70
     1
102
RTVSPropertyOp9
 70
     1
102
RTVSPropertyOp10
 70
     1
102
RTVSPropertyOp11
 70
     1
102
RTVSPropertyOp12
 70
     1
102
RTVSPropertyOp13
 70
     1
102
RTVSPropertyOp14
 70
     1
102
RTVSPropertyOp15
 70
     1
102
RTVSPropertyOp16
 70
     1
102
RTVSPropertyOp17
 70
     1
102
RTVSPropertyOp18
 70
     1
102
RTVSPropertyOp19
 70
     1
102
RTVSPropertyOp20
 70
     1
102
RTVSPropertyOp21
 70
     1
102
RTVSPropertyOp22
 70
     1
102
RTVSPropertyOp23
 70
     1
102
RTVSPropertyOp24
 70
     1
102
RTVSPropertyOp25
 70
     1
102
RTVSPropertyOp26
 70
     1
102
RTVSPropertyOp27
 70
     1
  0
XRECORD
  5
BDE
102
{ACAD_REACTORS
330
BDD
102
}
330
BDD
100
AcDbXrecord
280
     1
102
RTVSPropertyOp0
 70
     1
102
RTVSPropertyOp1
 70
     1
102
RTVSPropertyOp2
 70
     1
102
RTVSPropertyOp3
 70
     1
102
RTVSPropertyOp4
 70
     1
102
RTVSPropertyOp5
 70
     1
102
RTVSPropertyOp6
 70
     1
102
RTVSPropertyOp7
 70
     1
102
RTVSPropertyOp8
 70
     1
102
RTVSPropertyOp9
 70
     1
102
RTVSPropertyOp10
 70
     1
102
RTVSPropertyOp11
 70
     1
102
RTVSPropertyOp12
 70
     1
102
RTVSPropertyOp13
 70
     1
102
RTVSPropertyOp14
 70
     1
102
RTVSPropertyOp15
 70
     1
102
RTVSPropertyOp16
 70
     1
102
RTVSPropertyOp17
 70
     1
102
RTVSPropertyOp18
 70
     1
102
RTVSPropertyOp19
 70
     1
102
RTVSPropertyOp20
 70
     1
102
RTVSPropertyOp21
 70
     1
102
RTVSPropertyOp22
 70
     1
102
RTVSPropertyOp23
 70
     1
102
RTVSPropertyOp24
 70
     1
102
RTVSPropertyOp25
 70
     1
102
RTVSPropertyOp26
 70
     1
102
RTVSPropertyOp27
 70
     1
  0
XRECORD
  5
BE2
102
{ACAD_REACTORS
330
BE1
102
}
330
BE1
100
AcDbXrecord
280
     1
102
RTVSPropertyOp0
 70
     1
102
RTVSPropertyOp1
 70
     1
102
RTVSPropertyOp2
 70
     1
102
RTVSPropertyOp3
 70
     1
102
RTVSPropertyOp4
 70
     1
102
RTVSPropertyOp5
 70
     1
102
RTVSPropertyOp6
 70
     1
102
RTVSPropertyOp7
 70
     1
102
RTVSPropertyOp8
 70
     1
102
RTVSPropertyOp9
 70
     1
102
RTVSPropertyOp10
 70
     1
102
RTVSPropertyOp11
 70
     1
102
RTVSPropertyOp12
 70
     1
102
RTVSPropertyOp13
 70
     1
102
RTVSPropertyOp14
 70
     1
102
RTVSPropertyOp15
 70
     1
102
RTVSPropertyOp16
 70
     1
102
RTVSPropertyOp17
 70
     1
102
RTVSPropertyOp18
 70
     1
102
RTVSPropertyOp19
 70
     1
102
RTVSPropertyOp20
 70
     1
102
RTVSPropertyOp21
 70
     1
102
RTVSPropertyOp22
 70
     1
102
RTVSPropertyOp23
 70
     1
102
RTVSPropertyOp24
 70
     1
102
RTVSPropertyOp25
 70
     1
102
RTVSPropertyOp26
 70
     1
102
RTVSPropertyOp27
 70
     1
  0
XRECORD
  5
BEA
102
{ACAD_REACTORS
330
BE9
102
}
330
BE9
100
AcDbXrecord
280
     1
102
RTVSPropertyOp0
 70
     1
102
RTVSPropertyOp1
 70
     1
102
RTVSPropertyOp2
 70
     1
102
RTVSPropertyOp3
 70
     1
102
RTVSPropertyOp4
 70
     1
102
RTVSPropertyOp5
 70
     1
102
RTVSPropertyOp6
 70
     1
102
RTVSPropertyOp7
 70
     1
102
RTVSPropertyOp8
 70
     1
102
RTVSPropertyOp9
 70
     1
102
RTVSPropertyOp10
 70
     1
102
RTVSPropertyOp11
 70
     1
102
RTVSPropertyOp12
 70
     1
102
RTVSPropertyOp13
 70
     1
102
RTVSPropertyOp14
 70
     1
102
RTVSPropertyOp15
 70
     1
102
RTVSPropertyOp16
 70
     1
102
RTVSPropertyOp17
 70
     1
102
RTVSPropertyOp18
 70
     1
102
RTVSPropertyOp19
 70
     1
102
RTVSPropertyOp20
 70
     1
102
RTVSPropertyOp21
 70
     1
102
RTVSPropertyOp22
 70
     1
102
RTVSPropertyOp23
 70
     1
102
RTVSPropertyOp24
 70
     1
102
RTVSPropertyOp25
 70
     1
102
RTVSPropertyOp26
 70
     1
102
RTVSPropertyOp27
 70
     1
  0
XRECORD
  5
BF2
102
{ACAD_REACTORS
330
BF1
102
}
330
BF1
100
AcDbXrecord
280
     1
102
RTVSPropertyOp0
 70
     1
102
RTVSPropertyOp1
 70
     1
102
RTVSPropertyOp2
 70
     1
102
RTVSPropertyOp3
 70
     1
102
RTVSPropertyOp4
 70
     1
102
RTVSPropertyOp5
 70
     1
102
RTVSPropertyOp6
 70
     1
102
RTVSPropertyOp7
 70
     1
102
RTVSPropertyOp8
 70
     1
102
RTVSPropertyOp9
 70
     1
102
RTVSPropertyOp10
 70
     1
102
RTVSPropertyOp11
 70
     1
102
RTVSPropertyOp12
 70
     1
102
RTVSPropertyOp13
 70
     1
102
RTVSPropertyOp14
 70
     1
102
RTVSPropertyOp15
 70
     1
102
RTVSPropertyOp16
 70
     1
102
RTVSPropertyOp17
 70
     1
102
RTVSPropertyOp18
 70
     1
102
RTVSPropertyOp19
 70
     1
102
RTVSPropertyOp20
 70
     1
102
RTVSPropertyOp21
 70
     1
102
RTVSPropertyOp22
 70
     1
102
RTVSPropertyOp23
 70
     1
102
RTVSPropertyOp24
 70
     1
102
RTVSPropertyOp25
 70
     1
102
RTVSPropertyOp26
 70
     1
102
RTVSPropertyOp27
 70
     1
  0
XRECORD
  5
BE6
102
{ACAD_REACTORS
330
BE5
102
}
330
BE5
100
AcDbXrecord
280
     1
102
RTVSPropertyOp0
 70
     1
102
RTVSPropertyOp1
 70
     1
102
RTVSPropertyOp2
 70
     1
102
RTVSPropertyOp3
 70
     1
102
RTVSPropertyOp4
 70
     1
102
RTVSPropertyOp5
 70
     1
102
RTVSPropertyOp6
 70
     1
102
RTVSPropertyOp7
 70
     1
102
RTVSPropertyOp8
 70
     1
102
RTVSPropertyOp9
 70
     1
102
RTVSPropertyOp10
 70
     1
102
RTVSPropertyOp11
 70
     1
102
RTVSPropertyOp12
 70
     1
102
RTVSPropertyOp13
 70
     1
102
RTVSPropertyOp14
 70
     1
102
RTVSPropertyOp15
 70
     1
102
RTVSPropertyOp16
 70
     1
102
RTVSPropertyOp17
 70
     1
102
RTVSPropertyOp18
 70
     1
102
RTVSPropertyOp19
 70
     1
102
RTVSPropertyOp20
 70
     1
102
RTVSPropertyOp21
 70
     1
102
RTVSPropertyOp22
 70
     1
102
RTVSPropertyOp23
 70
     1
102
RTVSPropertyOp24
 70
     1
102
RTVSPropertyOp25
 70
     1
102
RTVSPropertyOp26
 70
     1
102
RTVSPropertyOp27
 70
     1
  0
XRECORD
  5
BE8
102
{ACAD_REACTORS
330
BE7
102
}
330
BE7
100
AcDbXrecord
280
     1
102
RTVSPropertyOp0
 70
     1
102
RTVSPropertyOp1
 70
     1
102
RTVSPropertyOp2
 70
     1
102
RTVSPropertyOp3
 70
     1
102
RTVSPropertyOp4
 70
     1
102
RTVSPropertyOp5
 70
     1
102
RTVSPropertyOp6
 70
     1
102
RTVSPropertyOp7
 70
     1
102
RTVSPropertyOp8
 70
     1
102
RTVSPropertyOp9
 70
     1
102
RTVSPropertyOp10
 70
     1
102
RTVSPropertyOp11
 70
     1
102
RTVSPropertyOp12
 70
     1
102
RTVSPropertyOp13
 70
     1
102
RTVSPropertyOp14
 70
     1
102
RTVSPropertyOp15
 70
     1
102
RTVSPropertyOp16
 70
     1
102
RTVSPropertyOp17
 70
     1
102
RTVSPropertyOp18
 70
     1
102
RTVSPropertyOp19
 70
     1
102
RTVSPropertyOp20
 70
     1
102
RTVSPropertyOp21
 70
     1
102
RTVSPropertyOp22
 70
     1
102
RTVSPropertyOp23
 70
     1
102
RTVSPropertyOp24
 70
     1
102
RTVSPropertyOp25
 70
     1
102
RTVSPropertyOp26
 70
     1
102
RTVSPropertyOp27
 70
     1
  0
XRECORD
  5
BF0
102
{ACAD_REACTORS
330
BEF
102
}
330
BEF
100
AcDbXrecord
280
     1
102
RTVSPropertyOp0
 70
     1
102
RTVSPropertyOp1
 70
     1
102
RTVSPropertyOp2
 70
     1
102
RTVSPropertyOp3
 70
     1
102
RTVSPropertyOp4
 70
     1
102
RTVSPropertyOp5
 70
     1
102
RTVSPropertyOp6
 70
     1
102
RTVSPropertyOp7
 70
     1
102
RTVSPropertyOp8
 70
     1
102
RTVSPropertyOp9
 70
     1
102
RTVSPropertyOp10
 70
     1
102
RTVSPropertyOp11
 70
     1
102
RTVSPropertyOp12
 70
     1
102
RTVSPropertyOp13
 70
     1
102
RTVSPropertyOp14
 70
     1
102
RTVSPropertyOp15
 70
     1
102
RTVSPropertyOp16
 70
     1
102
RTVSPropertyOp17
 70
     1
102
RTVSPropertyOp18
 70
     1
102
RTVSPropertyOp19
 70
     1
102
RTVSPropertyOp20
 70
     1
102
RTVSPropertyOp21
 70
     1
102
RTVSPropertyOp22
 70
     1
102
RTVSPropertyOp23
 70
     1
102
RTVSPropertyOp24
 70
     1
102
RTVSPropertyOp25
 70
     1
102
RTVSPropertyOp26
 70
     1
102
RTVSPropertyOp27
 70
     1
  0
XRECORD
  5
BD4
102
{ACAD_REACTORS
330
BD3
102
}
330
BD3
100
AcDbXrecord
280
     1
102
RTVSPropertyOp0
 70
     1
102
RTVSPropertyOp1
 70
     1
102
RTVSPropertyOp2
 70
     1
102
RTVSPropertyOp3
 70
     1
102
RTVSPropertyOp4
 70
     1
102
RTVSPropertyOp5
 70
     1
102
RTVSPropertyOp6
 70
     1
102
RTVSPropertyOp7
 70
     1
102
RTVSPropertyOp8
 70
     1
102
RTVSPropertyOp9
 70
     1
102
RTVSPropertyOp10
 70
     1
102
RTVSPropertyOp11
 70
     1
102
RTVSPropertyOp12
 70
     1
102
RTVSPropertyOp13
 70
     1
102
RTVSPropertyOp14
 70
     1
102
RTVSPropertyOp15
 70
     1
102
RTVSPropertyOp16
 70
     1
102
RTVSPropertyOp17
 70
     1
102
RTVSPropertyOp18
 70
     1
102
RTVSPropertyOp19
 70
     1
102
RTVSPropertyOp20
 70
     1
102
RTVSPropertyOp21
 70
     1
102
RTVSPropertyOp22
 70
     1
102
RTVSPropertyOp23
 70
     1
102
RTVSPropertyOp24
 70
     1
102
RTVSPropertyOp25
 70
     1
102
RTVSPropertyOp26
 70
     1
102
RTVSPropertyOp27
 70
     1
  0
XRECORD
  5
BD6
102
{ACAD_REACTORS
330
BD5
102
}
330
BD5
100
AcDbXrecord
280
     1
102
RTVSPropertyOp0
 70
     1
102
RTVSPropertyOp1
 70
     1
102
RTVSPropertyOp2
 70
     1
102
RTVSPropertyOp3
 70
     1
102
RTVSPropertyOp4
 70
     1
102
RTVSPropertyOp5
 70
     1
102
RTVSPropertyOp6
 70
     1
102
RTVSPropertyOp7
 70
     1
102
RTVSPropertyOp8
 70
     1
102
RTVSPropertyOp9
 70
     1
102
RTVSPropertyOp10
 70
     1
102
RTVSPropertyOp11
 70
     1
102
RTVSPropertyOp12
 70
     1
102
RTVSPropertyOp13
 70
     1
102
RTVSPropertyOp14
 70
     1
102
RTVSPropertyOp15
 70
     1
102
RTVSPropertyOp16
 70
     1
102
RTVSPropertyOp17
 70
     1
102
RTVSPropertyOp18
 70
     1
102
RTVSPropertyOp19
 70
     1
102
RTVSPropertyOp20
 70
     1
102
RTVSPropertyOp21
 70
     1
102
RTVSPropertyOp22
 70
     1
102
RTVSPropertyOp23
 70
     1
102
RTVSPropertyOp24
 70
     1
102
RTVSPropertyOp25
 70
     1
102
RTVSPropertyOp26
 70
     1
102
RTVSPropertyOp27
 70
     1
  0
XRECORD
  5
BD8
102
{ACAD_REACTORS
330
BD7
102
}
330
BD7
100
AcDbXrecord
280
     1
102
RTVSPropertyOp0
 70
     1
102
RTVSPropertyOp1
 70
     1
102
RTVSPropertyOp2
 70
     1
102
RTVSPropertyOp3
 70
     1
102
RTVSPropertyOp4
 70
     1
102
RTVSPropertyOp5
 70
     1
102
RTVSPropertyOp6
 70
     1
102
RTVSPropertyOp7
 70
     1
102
RTVSPropertyOp8
 70
     1
102
RTVSPropertyOp9
 70
     1
102
RTVSPropertyOp10
 70
     1
102
RTVSPropertyOp11
 70
     1
102
RTVSPropertyOp12
 70
     1
102
RTVSPropertyOp13
 70
     1
102
RTVSPropertyOp14
 70
     1
102
RTVSPropertyOp15
 70
     1
102
RTVSPropertyOp16
 70
     1
102
RTVSPropertyOp17
 70
     1
102
RTVSPropertyOp18
 70
     1
102
RTVSPropertyOp19
 70
     1
102
RTVSPropertyOp20
 70
     1
102
RTVSPropertyOp21
 70
     1
102
RTVSPropertyOp22
 70
     1
102
RTVSPropertyOp23
 70
     1
102
RTVSPropertyOp24
 70
     1
102
RTVSPropertyOp25
 70
     1
102
RTVSPropertyOp26
 70
     1
102
RTVSPropertyOp27
 70
     1
  0
XRECORD
  5
BDA
102
{ACAD_REACTORS
330
BD9
102
}
330
BD9
100
AcDbXrecord
280
     1
102
RTVSPropertyOp0
 70
     1
102
RTVSPropertyOp1
 70
     1
102
RTVSPropertyOp2
 70
     1
102
RTVSPropertyOp3
 70
     1
102
RTVSPropertyOp4
 70
     1
102
RTVSPropertyOp5
 70
     1
102
RTVSPropertyOp6
 70
     1
102
RTVSPropertyOp7
 70
     1
102
RTVSPropertyOp8
 70
     1
102
RTVSPropertyOp9
 70
     1
102
RTVSPropertyOp10
 70
     1
102
RTVSPropertyOp11
 70
     1
102
RTVSPropertyOp12
 70
     1
102
RTVSPropertyOp13
 70
     1
102
RTVSPropertyOp14
 70
     1
102
RTVSPropertyOp15
 70
     1
102
RTVSPropertyOp16
 70
     1
102
RTVSPropertyOp17
 70
     1
102
RTVSPropertyOp18
 70
     1
102
RTVSPropertyOp19
 70
     1
102
RTVSPropertyOp20
 70
     1
102
RTVSPropertyOp21
 70
     1
102
RTVSPropertyOp22
 70
     1
102
RTVSPropertyOp23
 70
     1
102
RTVSPropertyOp24
 70
     1
102
RTVSPropertyOp25
 70
     1
102
RTVSPropertyOp26
 70
     1
102
RTVSPropertyOp27
 70
     1
  0
XRECORD
  5
BEE
102
{ACAD_REACTORS
330
BED
102
}
330
BED
100
AcDbXrecord
280
     1
102
RTVSPropertyOp0
 70
     1
102
RTVSPropertyOp1
 70
     1
102
RTVSPropertyOp2
 70
     1
102
RTVSPropertyOp3
 70
     1
102
RTVSPropertyOp4
 70
     1
102
RTVSPropertyOp5
 70
     1
102
RTVSPropertyOp6
 70
     1
102
RTVSPropertyOp7
 70
     1
102
RTVSPropertyOp8
 70
     1
102
RTVSPropertyOp9
 70
     1
102
RTVSPropertyOp10
 70
     1
102
RTVSPropertyOp11
 70
     1
102
RTVSPropertyOp12
 70
     1
102
RTVSPropertyOp13
 70
     1
102
RTVSPropertyOp14
 70
     1
102
RTVSPropertyOp15
 70
     1
102
RTVSPropertyOp16
 70
     1
102
RTVSPropertyOp17
 70
     1
102
RTVSPropertyOp18
 70
     1
102
RTVSPropertyOp19
 70
     1
102
RTVSPropertyOp20
 70
     1
102
RTVSPropertyOp21
 70
     1
102
RTVSPropertyOp22
 70
     1
102
RTVSPropertyOp23
 70
     1
102
RTVSPropertyOp24
 70
     1
102
RTVSPropertyOp25
 70
     1
102
RTVSPropertyOp26
 70
     1
102
RTVSPropertyOp27
 70
     1
  0
XRECORD
  5
BE4
102
{ACAD_REACTORS
330
BE3
102
}
330
BE3
100
AcDbXrecord
280
     1
102
RTVSPropertyOp0
 70
     1
102
RTVSPropertyOp1
 70
     1
102
RTVSPropertyOp2
 70
     1
102
RTVSPropertyOp3
 70
     1
102
RTVSPropertyOp4
 70
     1
102
RTVSPropertyOp5
 70
     1
102
RTVSPropertyOp6
 70
     1
102
RTVSPropertyOp7
 70
     1
102
RTVSPropertyOp8
 70
     1
102
RTVSPropertyOp9
 70
     1
102
RTVSPropertyOp10
 70
     1
102
RTVSPropertyOp11
 70
     1
102
RTVSPropertyOp12
 70
     1
102
RTVSPropertyOp13
 70
     1
102
RTVSPropertyOp14
 70
     1
102
RTVSPropertyOp15
 70
     1
102
RTVSPropertyOp16
 70
     1
102
RTVSPropertyOp17
 70
     1
102
RTVSPropertyOp18
 70
     1
102
RTVSPropertyOp19
 70
     1
102
RTVSPropertyOp20
 70
     1
102
RTVSPropertyOp21
 70
     1
102
RTVSPropertyOp22
 70
     1
102
RTVSPropertyOp23
 70
     1
102
RTVSPropertyOp24
 70
     1
102
RTVSPropertyOp25
 70
     1
102
RTVSPropertyOp26
 70
     1
102
RTVSPropertyOp27
 70
     1
  0
XRECORD
  5
BEC
102
{ACAD_REACTORS
330
BEB
102
}
330
BEB
100
AcDbXrecord
280
     1
102
RTVSPropertyOp0
 70
     1
102
RTVSPropertyOp1
 70
     1
102
RTVSPropertyOp2
 70
     1
102
RTVSPropertyOp3
 70
     1
102
RTVSPropertyOp4
 70
     1
102
RTVSPropertyOp5
 70
     1
102
RTVSPropertyOp6
 70
     1
102
RTVSPropertyOp7
 70
     1
102
RTVSPropertyOp8
 70
     1
102
RTVSPropertyOp9
 70
     1
102
RTVSPropertyOp10
 70
     1
102
RTVSPropertyOp11
 70
     1
102
RTVSPropertyOp12
 70
     1
102
RTVSPropertyOp13
 70
     1
102
RTVSPropertyOp14
 70
     1
102
RTVSPropertyOp15
 70
     1
102
RTVSPropertyOp16
 70
     1
102
RTVSPropertyOp17
 70
     1
102
RTVSPropertyOp18
 70
     1
102
RTVSPropertyOp19
 70
     1
102
RTVSPropertyOp20
 70
     1
102
RTVSPropertyOp21
 70
     1
102
RTVSPropertyOp22
 70
     1
102
RTVSPropertyOp23
 70
     1
102
RTVSPropertyOp24
 70
     1
102
RTVSPropertyOp25
 70
     1
102
RTVSPropertyOp26
 70
     1
102
RTVSPropertyOp27
 70
     1
  0
ENDSEC
  0
EOF
