  0
SECTION
  2
HEADER
  9
$ACADVER
  1
AC1015
  9
$ACADMAINTVER
 70
     6
  9
$DWGCODEPAGE
  3
ANSI_1252
  9
$INSBASE
 10
0.0
 20
0.0
 30
0.0
  9
$EXTMIN
 10
0.0
 20
0.0
 30
0.0
  9
$EXTMAX
 10
25.0
 20
35.0
 30
0.0
  9
$LIMMIN
 10
0.0
 20
0.0
  9
$LIMMAX
 10
420.0
 20
297.0
  9
$ORTHOMODE
 70
     0
  9
$REGENMODE
 70
     1
  9
$FILLMODE
 70
     1
  9
$QTEXTMODE
 70
     0
  9
$MIRRTEXT
 70
     1
  9
$LTSCALE
 40
4.05
  9
$ATTMODE
 70
     1
  9
$TEXTSIZE
 40
2.5
  9
$TRACEWID
 40
1.0
  9
$TEXTSTYLE
  7
Standard
  9
$CLAYER
  8
0
  9
$CELTYPE
  6
ByLayer
  9
$CECOLOR
 62
   256
  9
$CELTSCALE
 40
1.0
  9
$DISPSILH
 70
     0
  9
$DIMSCALE
 40
1.0
  9
$DIMASZ
 40
2.5
  9
$DIMEXO
 40
0.625
  9
$DIMDLI
 40
3.75
  9
$DIMRND
 40
0.0
  9
$DIMDLE
 40
0.0
  9
$DIMEXE
 40
1.25
  9
$DIMTP
 40
0.0
  9
$DIMTM
 40
0.0
  9
$DIMTXT
 40
2.5
  9
$DIMCEN
 40
2.5
  9
$DIMTSZ
 40
0.0
  9
$DIMTOL
 70
     0
  9
$DIMLIM
 70
     0
  9
$DIMTIH
 70
     0
  9
$DIMTOH
 70
     0
  9
$DIMSE1
 70
     0
  9
$DIMSE2
 70
     0
  9
$DIMTAD
 70
     1
  9
$DIMZIN
 70
     8
  9
$DIMBLK
  1

  9
$DIMASO
 70
     1
  9
$DIMSHO
 70
     1
  9
$DIMPOST
  1

  9
$DIMAPOST
  1

  9
$DIMALT
 70
     0
  9
$DIMALTD
 70
     3
  9
$DIMALTF
 40
0.03937007874016
  9
$DIMLFAC
 40
1.0
  9
$DIMTOFL
 70
     1
  9
$DIMTVP
 40
0.0
  9
$DIMTIX
 70
     0
  9
$DIMSOXD
 70
     0
  9
$DIMSAH
 70
     0
  9
$DIMBLK1
  1

  9
$DIMBLK2
  1

  9
$DIMSTYLE
  2
ISO-25
  9
$DIMCLRD
 70
     0
  9
$DIMCLRE
 70
     0
  9
$DIMCLRT
 70
     0
  9
$DIMTFAC
 40
1.0
  9
$DIMGAP
 40
0.625
  9
$DIMJUST
 70
     0
  9
$DIMSD1
 70
     0
  9
$DIMSD2
 70
     0
  9
$DIMTOLJ
 70
     0
  9
$DIMTZIN
 70
     8
  9
$DIMALTZ
 70
     0
  9
$DIMALTTZ
 70
     0
  9
$DIMUPT
 70
     0
  9
$DIMDEC
 70
     2
  9
$DIMTDEC
 70
     2
  9
$DIMALTU
 70
     2
  9
$DIMALTTD
 70
     3
  9
$DIMTXSTY
  7
Standard
  9
$DIMAUNIT
 70
     0
  9
$DIMADEC
 70
     0
  9
$DIMALTRND
 40
0.0
  9
$DIMAZIN
 70
     0
  9
$DIMDSEP
 70
    44
  9
$DIMATFIT
 70
     3
  9
$DIMFRAC
 70
     0
  9
$DIMLDRBLK
  1

  9
$DIMLUNIT
 70
     2
  9
$DIMLWD
 70
    -2
  9
$DIMLWE
 70
    -2
  9
$DIMTMOVE
 70
     0
  9
$LUNITS
 70
     2
  9
$LUPREC
 70
     4
  9
$SKETCHINC
 40
1.0
  9
$FILLETRAD
 40
10.0
  9
$AUNITS
 70
     0
  9
$AUPREC
 70
     0
  9
$MENU
  1
.
  9
$ELEVATION
 40
0.0
  9
$PELEVATION
 40
0.0
  9
$THICKNESS
 40
0.0
  9
$LIMCHECK
 70
     0
  9
$CHAMFERA
 40
10.0
  9
$CHAMFERB
 40
10.0
  9
$CHAMFERC
 40
20.0
  9
$CHAMFERD
 40
0.0
  9
$SKPOLY
 70
     0
  9
$TDCREATE
 40
2458579.715277778
  9
$TDUCREATE
 40
2458579.631944444
  9
$TDUPDATE
 40
2458579.71875
  9
$TDUUPDATE
 40
2458579.635416667
  9
$TDINDWG
 40
0.0000000116
  9
$TDUSRTIMER
 40
0.0000000116
  9
$USRTIMER
 70
     1
  9
$ANGBASE
 50
0.0
  9
$ANGDIR
 70
     0
  9
$PDMODE
 70
     0
  9
$PDSIZE
 40
0.0
  9
$PLINEWID
 40
0.0
  9
$SPLFRAME
 70
     0
  9
$SPLINETYPE
 70
     6
  9
$SPLINESEGS
 70
     8
  9
$HANDSEED
  5
BB3
  9
$SURFTAB1
 70
     6
  9
$SURFTAB2
 70
     6
  9
$SURFTYPE
 70
     6
  9
$SURFU
 70
     6
  9
$SURFV
 70
     6
  9
$UCSBASE
  2

  9
$UCSNAME
  2

  9
$UCSORG
 10
0.0
 20
0.0
 30
0.0
  9
$UCSXDIR
 10
1.0
 20
0.0
 30
0.0
  9
$UCSYDIR
 10
0.0
 20
1.0
 30
0.0
  9
$UCSORTHOREF
  2

  9
$UCSORTHOVIEW
 70
     0
  9
$UCSORGTOP
 10
0.0
 20
0.0
 30
0.0
  9
$UCSORGBOTTOM
 10
0.0
 20
0.0
 30
0.0
  9
$UCSORGLEFT
 10
0.0
 20
0.0
 30
0.0
  9
$UCSORGRIGHT
 10
0.0
 20
0.0
 30
0.0
  9
$UCSORGFRONT
 10
0.0
 20
0.0
 30
0.0
  9
$UCSORGBACK
 10
0.0
 20
0.0
 30
0.0
  9
$PUCSBASE
  2

  9
$PUCSNAME
  2

  9
$PUCSORG
 10
0.0
 20
0.0
 30
0.0
  9
$PUCSXDIR
 10
1.0
 20
0.0
 30
0.0
  9
$PUCSYDIR
 10
0.0
 20
1.0
 30
0.0
  9
$PUCSORTHOREF
  2

  9
$PUCSORTHOVIEW
 70
     0
  9
$PUCSORGTOP
 10
0.0
 20
0.0
 30
0.0
  9
$PUCSORGBOTTOM
 10
0.0
 20
0.0
 30
0.0
  9
$PUCSORGLEFT
 10
0.0
 20
0.0
 30
0.0
  9
$PUCSORGRIGHT
 10
0.0
 20
0.0
 30
0.0
  9
$PUCSORGFRONT
 10
0.0
 20
0.0
 30
0.0
  9
$PUCSORGBACK
 10
0.0
 20
0.0
 30
0.0
  9
$USERI1
 70
     0
  9
$USERI2
 70
     0
  9
$USERI3
 70
     0
  9
$USERI4
 70
     0
  9
$USERI5
 70
     0
  9
$USERR1
 40
0.0
  9
$USERR2
 40
0.0
  9
$USERR3
 40
0.0
  9
$USERR4
 40
0.0
  9
$USERR5
 40
0.0
  9
$WORLDVIEW
 70
     1
  9
$SHADEDGE
 70
     3
  9
$SHADEDIF
 70
    70
  9
$TILEMODE
 70
     1
  9
$MAXACTVP
 70
    64
  9
$PINSBASE
 10
0.0
 20
0.0
 30
0.0
  9
$PLIMCHECK
 70
     0
  9
$PEXTMIN
 10
1.000000000000000E+20
 20
1.000000000000000E+20
 30
1.000000000000000E+20
  9
$PEXTMAX
 10
-1.000000000000000E+20
 20
-1.000000000000000E+20
 30
-1.000000000000000E+20
  9
$PLIMMIN
 10
0.0
 20
0.0
  9
$PLIMMAX
 10
420.0
 20
297.0
  9
$UNITMODE
 70
     0
  9
$VISRETAIN
 70
     1
  9
$PLINEGEN
 70
     0
  9
$PSLTSCALE
 70
     1
  9
$TREEDEPTH
 70
  3020
  9
$CMLSTYLE
  2
Standard
  9
$CMLJUST
 70
     0
  9
$CMLSCALE
 40
20.0
  9
$PROXYGRAPHICS
 70
     1
  9
$MEASUREMENT
 70
     1
  9
$CELWEIGHT
370
    -1
  9
$ENDCAPS
280
     0
  9
$JOINSTYLE
280
     0
  9
$LWDISPLAY
290
     0
  9
$INSUNITS
 70
     4
  9
$HYPERLINKBASE
  1

  9
$STYLESHEET
  1

  9
$XEDIT
290
     1
  9
$CEPSNTYPE
380
     0
  9
$PSTYLEMODE
290
     1
  9
$FINGERPRINTGUID
  2
{8D8A64EC-4366-4996-9574-8C8602910BD9}
  9
$VERSIONGUID
  2
{FAEB1C32-E019-11D5-929B-00C0DF256EC4}
  9
$EXTNAMES
290
     1
  9
$PSVPSCALE
 40
0.0
  9
$OLESTARTUP
290
     0
  0
ENDSEC
  0
SECTION
  2
CLASSES
  0
CLASS
  1
ACDBDICTIONARYWDFLT
  2
AcDbDictionaryWithDefault
  3
ObjectDBX Classes
 90
        0
280
     0
281
     0
  0
CLASS
  1
VISUALSTYLE
  2
AcDbVisualStyle
  3
ObjectDBX Classes
 90
     4095
280
     0
281
     0
  0
CLASS
  1
MATERIAL
  2
AcDbMaterial
  3
ObjectDBX Classes
 90
     1153
280
     0
281
     0
  0
CLASS
  1
SCALE
  2
AcDbScale
  3
ObjectDBX Classes
 90
     1153
280
     0
281
     0
  0
CLASS
  1
DICTIONARYVAR
  2
AcDbDictionaryVar
  3
ObjectDBX Classes
 90
        0
280
     0
281
     0
  0
CLASS
  1
ACDBPLACEHOLDER
  2
AcDbPlaceHolder
  3
ObjectDBX Classes
 90
        0
280
     0
281
     0
  0
CLASS
  1
LAYOUT
  2
AcDbLayout
  3
ObjectDBX Classes
 90
        0
280
     0
281
     0
  0
ENDSEC
  0
SECTION
  2
TABLES
  0
TABLE
  2
VPORT
  5
8
330
0
100
AcDbSymbolTable
 70
     1
  0
VPORT
  5
29
330
8
100
AcDbSymbolTableRecord
100
AcDbViewportTableRecord
  2
*Active
 70
     0
 10
0.0
 20
0.0
 11
1.0
 21
1.0
 12
11.26
 22
4.5
 13
0.0
 23
0.0
 14
10.0
 24
10.0
 15
10.0
 25
10.0
 16
0.0
 26
0.0
 36
1.0
 17
0.0
 27
0.0
 37
0.0
 40
9.0
 41
2.503333333333333
 42
50.0
 43
0.0
 44
0.0
 50
0.0
 51
0.0
 71
     0
 72
   100
 73
     1
 74
     3
 75
     0
 76
     0
 77
     0
 78
     0
281
     0
 65
     1
110
0.0
120
0.0
130
0.0
111
1.0
121
0.0
131
0.0
112
0.0
122
1.0
132
0.0
 79
     0
146
0.0
  0
ENDTAB
  0
TABLE
  2
LTYPE
  5
5
330
0
100
AcDbSymbolTable
 70
    10
  0
LTYPE
  5
14
330
5
100
AcDbSymbolTableRecord
100
AcDbLinetypeTableRecord
  2
ByBlock
 70
     0
  3

 72
    65
 73
     0
 40
0.0
  0
LTYPE
  5
15
330
5
100
AcDbSymbolTableRecord
100
AcDbLinetypeTableRecord
  2
ByLayer
 70
     0
  3

 72
    65
 73
     0
 40
0.0
  0
LTYPE
  5
16
330
5
100
AcDbSymbolTableRecord
100
AcDbLinetypeTableRecord
  2
Continuous
 70
     0
  3
Solid line
 72
    65
 73
     0
 40
0.0
  0
LTYPE
  5
45
330
5
100
AcDbSymbolTableRecord
100
AcDbLinetypeTableRecord
  2
phl_thick
 70
     0
  3
THICK
 72
    65
 73
     0
 40
0.0
  0
LTYPE
  5
3A1
330
5
100
AcDbSymbolTableRecord
100
AcDbLinetypeTableRecord
  2
CUT
 70
     0
  3
THICK
 72
    65
 73
     0
 40
0.0
  0
LTYPE
  5
3A8
330
5
100
AcDbSymbolTableRecord
100
AcDbLinetypeTableRecord
  2
NOCUT
 70
     0
  3
THICK
 72
    65
 73
     0
 40
0.0
  0
LTYPE
  5
3AF
330
5
100
AcDbSymbolTableRecord
100
AcDbLinetypeTableRecord
  2
SK1
 70
     0
  3
THICK
 72
    65
 73
     0
 40
0.0
  0
LTYPE
  5
3B7
330
5
100
AcDbSymbolTableRecord
100
AcDbLinetypeTableRecord
  2
ls_SK2
 70
     0
  3
THIN
 72
    65
 73
     0
 40
0.0
  0
LTYPE
  5
465
330
5
100
AcDbSymbolTableRecord
100
AcDbLinetypeTableRecord
  2
ls_2
 70
     0
  3
THIN
 72
    65
 73
     0
 40
0.0
  0
LTYPE
  5
5B5
330
5
100
AcDbSymbolTableRecord
100
AcDbLinetypeTableRecord
  2
ls_SK1
 70
     0
  3
THICK
 72
    65
 73
     0
 40
0.0
  0
LTYPE
  5
5EF
330
5
100
AcDbSymbolTableRecord
100
AcDbLinetypeTableRecord
  2
LONGDASH_DASH
 70
     0
  3
THIN_DASHDOT
 72
    65
 73
     4
 40
0.85
 49
0.4
 74
     0
 49
-0.2
 74
     0
 49
0.05
 74
     0
 49
-0.2
 74
     0
  0
LTYPE
  5
5F4
330
5
100
AcDbSymbolTableRecord
100
AcDbLinetypeTableRecord
  2
ls1
 70
     0
  3
THICK
 72
    65
 73
     0
 40
0.0
  0
ENDTAB
  0
TABLE
  2
LAYER
  5
2
330
0
100
AcDbSymbolTable
 70
    10
  0
LAYER
  5
10
330
2
100
AcDbSymbolTableRecord
100
AcDbLayerTableRecord
  2
0
 70
     0
 62
     7
  6
Continuous
370
    -3
390
F
  0
LAYER
  5
44
330
2
100
AcDbSymbolTableRecord
100
AcDbLayerTableRecord
  2
1
 70
     0
 62
4
  6
CONTINUOUS
370
50
370
    -3
390
F
  0
LAYER
  5
3A0
330
2
100
AcDbSymbolTableRecord
100
AcDbLayerTableRecord
  2
CUT
 70
     0
 62
1
  6
CONTINUOUS
370
25
370
    -3
390
F
  0
LAYER
  5
3A7
330
2
100
AcDbSymbolTableRecord
100
AcDbLayerTableRecord
  2
NOCUT
 70
     0
 62
7
  6
CONTINUOUS
370
25
370
    -3
390
F
  0
LAYER
  5
3AE
330
2
100
AcDbSymbolTableRecord
100
AcDbLayerTableRecord
  2
SK1
 70
     0
 62
4
  6
CONTINUOUS
370
50
370
    -3
390
F
  0
LAYER
  5
3B6
330
2
100
AcDbSymbolTableRecord
100
AcDbLayerTableRecord
  2
SK2
 70
     0
 62
7
  6
CONTINUOUS
370
25
370
    -3
390
F
  0
LAYER
  5
464
330
2
100
AcDbSymbolTableRecord
100
AcDbLayerTableRecord
  2
2
 70
     0
 62
7
  6
CONTINUOUS
370
25
370
    -3
390
F
  0
LAYER
  5
5EE
330
2
100
AcDbSymbolTableRecord
100
AcDbLayerTableRecord
  2
4
 70
     0
 62
2
  6
LONGDASH_DASH
370
25
370
    -3
390
F
  0
LAYER
  5
5F1
330
2
100
AcDbSymbolTableRecord
100
AcDbLayerTableRecord
  2
SK4
 70
     0
 62
2
  6
LONGDASH_DASH
370
25
370
    -3
390
F
  0
LAYER
  5
5F3
330
2
100
AcDbSymbolTableRecord
100
AcDbLayerTableRecord
  2
SK6
 70
     0
 62
5
  6
CONTINUOUS
370
25
370
    -3
390
F
  0
ENDTAB
  0
TABLE
  2
STYLE
  5
3
330
0
100
AcDbSymbolTable
 70
     1
  0
STYLE
  5
11
330
3
100
AcDbSymbolTableRecord
100
AcDbTextStyleTableRecord
  2
Standard
 70
     0
 40
0.0
 41
1.0
 50
0.0
 71
     0
 42
2.5
  3
Monospac821 BT
  4

  0
ENDTAB
  0
TABLE
  2
VIEW
  5
6
330
0
100
AcDbSymbolTable
 70
     0
  0
ENDTAB
  0
TABLE
  2
UCS
  5
7
330
0
100
AcDbSymbolTable
 70
     0
  0
ENDTAB
  0
TABLE
  2
APPID
  5
9
330
0
100
AcDbSymbolTable
 70
     2
  0
APPID
  5
12
330
9
100
AcDbSymbolTableRecord
100
AcDbRegAppTableRecord
  2
ACAD
 70
     0
  0
APPID
  5
3F
330
9
100
AcDbSymbolTableRecord
100
AcDbRegAppTableRecord
  2
ccLab
 70
     0
  0
ENDTAB
  0
TABLE
  2
DIMSTYLE
  5
A
330
0
100
AcDbSymbolTable
 70
     1
100
AcDbDimStyleTable
  0
DIMSTYLE
105
27
330
A
100
AcDbSymbolTableRecord
100
AcDbDimStyleTableRecord
  2
ISO-25
 70
     0
 41
2.5
 42
0.625
 43
3.75
 44
1.25
 73
     0
 74
     0
 77
     1
 78
     8
140
2.5
141
2.5
143
0.03937007874016
147
0.625
171
     3
172
     1
271
     2
272
     2
274
     3
278
    44
283
     0
284
     8
340
11
  0
ENDTAB
  0
TABLE
  2
BLOCK_RECORD
  5
1
330
0
100
AcDbSymbolTable
 70
     2
  0
BLOCK_RECORD
  5
1F
330
1
100
AcDbSymbolTableRecord
100
AcDbBlockTableRecord
  2
*Model_Space
340
22
  0
BLOCK_RECORD
  5
1B
330
1
100
AcDbSymbolTableRecord
100
AcDbBlockTableRecord
  2
*Paper_Space
340
1E
  0
BLOCK_RECORD
  5
23
330
1
100
AcDbSymbolTableRecord
100
AcDbBlockTableRecord
  2
*Paper_Space0
340
26
  0
ENDTAB
  0
ENDSEC
  0
SECTION
  2
BLOCKS
  0
BLOCK
  5
20
330
1F
100
AcDbEntity
  8
0
100
AcDbBlockBegin
  2
*Model_Space
 70
     0
 10
0.0
 20
0.0
 30
0.0
  3
*Model_Space
  1

  0
ENDBLK
  5
21
330
1F
100
AcDbEntity
  8
0
100
AcDbBlockEnd
  0
BLOCK
  5
1C
330
1B
100
AcDbEntity
 67
     1
  8
0
100
AcDbBlockBegin
  2
*Paper_Space
 70
     0
 10
0.0
 20
0.0
 30
0.0
  3
*Paper_Space
  1

  0
ENDBLK
  5
1D
330
1B
100
AcDbEntity
 67
     1
  8
0
100
AcDbBlockEnd
  0
BLOCK
  5
24
330
23
100
AcDbEntity
  8
0
100
AcDbBlockBegin
  2
*Paper_Space0
 70
     0
 10
0.0
 20
0.0
 30
0.0
  3
*Paper_Space0
  1

  0
ENDBLK
  5
25
330
23
100
AcDbEntity
  8
0
100
AcDbBlockEnd
  0
ENDSEC
  0
SECTION
  2
ENTITIES
  0
LINE
  5
5FE
330
1F
100
AcDbEntity
  8
1
  6
CONTINUOUS
370
50
 62
4
100
AcDbLine
 10
44.96505
 20
0.061055
 30
0.0
 11
44.965034
 21
0.062566
 31
0.0
  0
LINE
  5
5FF
330
1F
100
AcDbEntity
  8
1
  6
CONTINUOUS
370
50
 62
4
100
AcDbLine
 10
44.983528
 20
-0.03385
 30
0.0
 11
44.98347099999999
 21
-0.029901
 31
0.0
  0
LINE
  5
600
330
1F
100
AcDbEntity
  8
1
  6
CONTINUOUS
370
50
 62
4
100
AcDbLine
 10
44.13382
 20
0.053718
 30
0.0
 11
44.133743
 21
0.057151
 31
0.0
  0
LINE
  5
601
330
1F
100
AcDbEntity
  8
1
  6
CONTINUOUS
370
50
 62
4
100
AcDbLine
 10
44.98365
 20
-0.037795
 30
0.0
 11
44.983528
 21
-0.03385
 31
0.0
  0
LINE
  5
602
330
1F
100
AcDbEntity
  8
1
  6
CONTINUOUS
370
50
 62
4
100
AcDbLine
 10
44.065491
 20
-0.039002
 30
0.0
 11
44.06545999999999
 21
-0.038216
 31
0.0
  0
LINE
  5
603
330
1F
100
AcDbEntity
  8
1
  6
CONTINUOUS
370
50
 62
4
100
AcDbLine
 10
44.983833
 20
-0.041713
 30
0.0
 11
44.98365
 21
-0.037795
 31
0.0
  0
LINE
  5
604
330
1F
100
AcDbEntity
  8
1
  6
CONTINUOUS
370
50
 62
4
100
AcDbLine
 10
44.965034
 20
0.062566
 30
0.0
 11
44.964947
 21
0.064138
 31
0.0
  0
LINE
  5
605
330
1F
100
AcDbEntity
  8
1
  6
CONTINUOUS
370
50
 62
4
100
AcDbLine
 10
44.984081
 20
-0.045582
 30
0.0
 11
44.983833
 21
-0.041713
 31
0.0
  0
LINE
  5
606
330
1F
100
AcDbEntity
  8
1
  6
CONTINUOUS
370
50
 62
4
100
AcDbLine
 10
44.133743
 20
0.057151
 30
0.0
 11
44.133495
 21
0.060494
 31
0.0
  0
LINE
  5
607
330
1F
100
AcDbEntity
  8
1
  6
CONTINUOUS
370
50
 62
4
100
AcDbLine
 10
44.98439399999999
 20
-0.049396
 30
0.0
 11
44.984081
 21
-0.045582
 31
0.0
  0
LINE
  5
608
330
1F
100
AcDbEntity
  8
1
  6
CONTINUOUS
370
50
 62
4
100
AcDbLine
 10
44.065563
 20
-0.039802
 30
0.0
 11
44.065491
 21
-0.039002
 31
0.0
  0
LINE
  5
609
330
1F
100
AcDbEntity
  8
1
  6
CONTINUOUS
370
50
 62
4
100
AcDbLine
 10
44.964947
 20
0.064138
 30
0.0
 11
44.964787
 21
0.065777
 31
0.0
  0
LINE
  5
60A
330
1F
100
AcDbEntity
  8
1
  6
CONTINUOUS
370
50
 62
4
100
AcDbLine
 10
44.984764
 20
-0.053149
 30
0.0
 11
44.98439399999999
 21
-0.049396
 31
0.0
  0
LINE
  5
60B
330
1F
100
AcDbEntity
  8
1
  6
CONTINUOUS
370
50
 62
4
100
AcDbLine
 10
44.985199
 20
-0.056835
 30
0.0
 11
44.984764
 21
-0.053149
 31
0.0
  0
LINE
  5
60C
330
1F
100
AcDbEntity
  8
1
  6
CONTINUOUS
370
50
 62
4
100
AcDbLine
 10
44.133495
 20
0.060494
 30
0.0
 11
44.133087
 21
0.063732
 31
0.0
  0
LINE
  5
60D
330
1F
100
AcDbEntity
  8
1
  6
CONTINUOUS
370
50
 62
4
100
AcDbLine
 10
44.964787
 20
0.065777
 30
0.0
 11
44.964558
 21
0.067478
 31
0.0
  0
LINE
  5
60E
330
1F
100
AcDbEntity
  8
1
  6
CONTINUOUS
370
50
 62
4
100
AcDbLine
 10
44.985691
 20
-0.060448
 30
0.0
 11
44.985199
 21
-0.056835
 31
0.0
  0
LINE
  5
60F
330
1F
100
AcDbEntity
  8
1
  6
CONTINUOUS
370
50
 62
4
100
AcDbLine
 10
44.065689
 20
-0.040614
 30
0.0
 11
44.065563
 21
-0.039802
 31
0.0
  0
LINE
  5
610
330
1F
100
AcDbEntity
  8
1
  6
CONTINUOUS
370
50
 62
4
100
AcDbLine
 10
44.98624
 20
-0.063982
 30
0.0
 11
44.985691
 21
-0.060448
 31
0.0
  0
LINE
  5
611
330
1F
100
AcDbEntity
  8
1
  6
CONTINUOUS
370
50
 62
4
100
AcDbLine
 10
44.964558
 20
0.067478
 30
0.0
 11
44.96426
 21
0.069239
 31
0.0
  0
LINE
  5
612
330
1F
100
AcDbEntity
  8
1
  6
CONTINUOUS
370
50
 62
4
100
AcDbLine
 10
44.986847
 20
-0.067429
 30
0.0
 11
44.98624
 21
-0.063982
 31
0.0
  0
LINE
  5
613
330
1F
100
AcDbEntity
  8
1
  6
CONTINUOUS
370
50
 62
4
100
AcDbLine
 10
44.133087
 20
0.063732
 30
0.0
 11
44.132523
 21
0.066847
 31
0.0
  0
LINE
  5
614
330
1F
100
AcDbEntity
  8
1
  6
CONTINUOUS
370
50
 62
4
100
AcDbLine
 10
44.987511
 20
-0.070764
 30
0.0
 11
44.986847
 21
-0.067429
 31
0.0
  0
LINE
  5
615
330
1F
100
AcDbEntity
  8
1
  6
CONTINUOUS
370
50
 62
4
100
AcDbLine
 10
44.96426
 20
0.069239
 30
0.0
 11
44.963894
 21
0.071057
 31
0.0
  0
LINE
  5
616
330
1F
100
AcDbEntity
  8
1
  6
CONTINUOUS
370
50
 62
4
100
AcDbLine
 10
44.110561
 20
0.094749
 30
0.0
 11
44.110416
 21
0.095445
 31
0.0
  0
LINE
  5
617
330
1F
100
AcDbEntity
  8
1
  6
CONTINUOUS
370
50
 62
4
100
AcDbLine
 10
44.065861
 20
-0.041433
 30
0.0
 11
44.065689
 21
-0.040614
 31
0.0
  0
LINE
  5
618
330
1F
100
AcDbEntity
  8
1
  6
CONTINUOUS
370
50
 62
4
100
AcDbLine
 10
44.98822
 20
-0.073982
 30
0.0
 11
44.987511
 21
-0.070764
 31
0.0
  0
LINE
  5
619
330
1F
100
AcDbEntity
  8
1
  6
CONTINUOUS
370
50
 62
4
100
AcDbLine
 10
44.963894
 20
0.071057
 30
0.0
 11
44.963459
 21
0.072927
 31
0.0
  0
LINE
  5
61A
330
1F
100
AcDbEntity
  8
1
  6
CONTINUOUS
370
50
 62
4
100
AcDbLine
 10
44.132523
 20
0.066847
 30
0.0
 11
44.131817
 21
0.069833
 31
0.0
  0
LINE
  5
61B
330
1F
100
AcDbEntity
  8
1
  6
CONTINUOUS
370
50
 62
4
100
AcDbLine
 10
45.0
 20
0.017293
 30
0.0
 11
44.99406099999999
 21
0.04175
 31
0.0
  0
LINE
  5
61C
330
1F
100
AcDbEntity
  8
1
  6
CONTINUOUS
370
50
 62
4
100
AcDbLine
 10
44.988979
 20
-0.077078
 30
0.0
 11
44.98822
 21
-0.073982
 31
0.0
  0
LINE
  5
61D
330
1F
100
AcDbEntity
  8
1
  6
CONTINUOUS
370
50
 62
4
100
AcDbLine
 10
44.963459
 20
0.072927
 30
0.0
 11
44.962959
 21
0.074847
 31
0.0
  0
LINE
  5
61E
330
1F
100
AcDbEntity
  8
1
  6
CONTINUOUS
370
50
 62
4
100
AcDbLine
 10
44.066078
 20
-0.042257
 30
0.0
 11
44.065861
 21
-0.041433
 31
0.0
  0
LINE
  5
61F
330
1F
100
AcDbEntity
  8
1
  6
CONTINUOUS
370
50
 62
4
100
AcDbLine
 10
44.989784
 20
-0.08005
 30
0.0
 11
44.988979
 21
-0.077078
 31
0.0
  0
LINE
  5
620
330
1F
100
AcDbEntity
  8
1
  6
CONTINUOUS
370
50
 62
4
100
AcDbLine
 10
44.962959
 20
0.074847
 30
0.0
 11
44.962399
 21
0.076813
 31
0.0
  0
LINE
  5
621
330
1F
100
AcDbEntity
  8
1
  6
CONTINUOUS
370
50
 62
4
100
AcDbLine
 10
44.131817
 20
0.069833
 30
0.0
 11
44.130978
 21
0.072687
 31
0.0
  0
LINE
  5
622
330
1F
100
AcDbEntity
  8
1
  6
CONTINUOUS
370
50
 62
4
100
AcDbLine
 10
44.990635
 20
-0.082893
 30
0.0
 11
44.989784
 21
-0.08005
 31
0.0
  0
LINE
  5
623
330
1F
100
AcDbEntity
  8
1
  6
CONTINUOUS
370
50
 62
4
100
AcDbLine
 10
44.95956
 20
0.085861
 30
0.0
 11
44.959137
 21
0.087264
 31
0.0
  0
LINE
  5
624
330
1F
100
AcDbEntity
  8
1
  6
CONTINUOUS
370
50
 62
4
100
AcDbLine
 10
44.959991
 20
0.084457
 30
0.0
 11
44.95956
 21
0.085861
 31
0.0
  0
LINE
  5
625
330
1F
100
AcDbEntity
  8
1
  6
CONTINUOUS
370
50
 62
4
100
AcDbLine
 10
44.960426
 20
0.08305
 30
0.0
 11
44.959991
 21
0.084457
 31
0.0
  0
LINE
  5
626
330
1F
100
AcDbEntity
  8
1
  6
CONTINUOUS
370
50
 62
4
100
AcDbLine
 10
44.962399
 20
0.076813
 30
0.0
 11
44.961773
 21
0.078822
 31
0.0
  0
LINE
  5
627
330
1F
100
AcDbEntity
  8
1
  6
CONTINUOUS
370
50
 62
4
100
AcDbLine
 10
44.960869
 20
0.081642
 30
0.0
 11
44.960426
 21
0.08305
 31
0.0
  0
LINE
  5
628
330
1F
100
AcDbEntity
  8
1
  6
CONTINUOUS
370
50
 62
4
100
AcDbLine
 10
44.961315
 20
0.080233
 30
0.0
 11
44.960869
 21
0.081642
 31
0.0
  0
LINE
  5
629
330
1F
100
AcDbEntity
  8
1
  6
CONTINUOUS
370
50
 62
4
100
AcDbLine
 10
44.066345
 20
-0.043086
 30
0.0
 11
44.066078
 21
-0.042257
 31
0.0
  0
LINE
  5
62A
330
1F
100
AcDbEntity
  8
1
  6
CONTINUOUS
370
50
 62
4
100
AcDbLine
 10
44.961773
 20
0.078822
 30
0.0
 11
44.961315
 21
0.080233
 31
0.0
  0
LINE
  5
62B
330
1F
100
AcDbEntity
  8
1
  6
CONTINUOUS
370
50
 62
4
100
AcDbLine
 10
44.991528
 20
-0.085605
 30
0.0
 11
44.990635
 21
-0.082893
 31
0.0
  0
LINE
  5
62C
330
1F
100
AcDbEntity
  8
1
  6
CONTINUOUS
370
50
 62
4
100
AcDbLine
 10
44.130978
 20
0.072687
 30
0.0
 11
44.130009
 21
0.075402
 31
0.0
  0
LINE
  5
62D
330
1F
100
AcDbEntity
  8
1
  6
CONTINUOUS
370
50
 62
4
100
AcDbLine
 10
44.992462
 20
-0.088182
 30
0.0
 11
44.991528
 21
-0.085605
 31
0.0
  0
LINE
  5
62E
330
1F
100
AcDbEntity
  8
1
  6
CONTINUOUS
370
50
 62
4
100
AcDbLine
 10
44.066662
 20
-0.043918
 30
0.0
 11
44.066345
 21
-0.043086
 31
0.0
  0
LINE
  5
62F
330
1F
100
AcDbEntity
  8
1
  6
CONTINUOUS
370
50
 62
4
100
AcDbLine
 10
44.993435
 20
-0.090614
 30
0.0
 11
44.992462
 21
-0.088182
 31
0.0
  0
LINE
  5
630
330
1F
100
AcDbEntity
  8
1
  6
CONTINUOUS
370
50
 62
4
100
AcDbLine
 10
44.130009
 20
0.075402
 30
0.0
 11
44.128922
 21
0.077976
 31
0.0
  0
LINE
  5
631
330
1F
100
AcDbEntity
  8
1
  6
CONTINUOUS
370
50
 62
4
100
AcDbLine
 10
44.067028
 20
-0.044752
 30
0.0
 11
44.066662
 21
-0.043918
 31
0.0
  0
LINE
  5
632
330
1F
100
AcDbEntity
  8
1
  6
CONTINUOUS
370
50
 62
4
100
AcDbLine
 10
44.994438
 20
-0.092896
 30
0.0
 11
44.993435
 21
-0.090614
 31
0.0
  0
LINE
  5
633
330
1F
100
AcDbEntity
  8
1
  6
CONTINUOUS
370
50
 62
4
100
AcDbLine
 10
44.110897
 20
0.094012
 30
0.0
 11
44.110561
 21
0.094749
 31
0.0
  0
LINE
  5
634
330
1F
100
AcDbEntity
  8
1
  6
CONTINUOUS
370
50
 62
4
100
AcDbLine
 10
44.9799
 20
0.042926
 30
0.0
 11
44.959137
 21
0.087264
 31
0.0
  0
LINE
  5
635
330
1F
100
AcDbEntity
  8
1
  6
CONTINUOUS
370
50
 62
4
100
AcDbLine
 10
44.995468
 20
-0.095027
 30
0.0
 11
44.994438
 21
-0.092896
 31
0.0
  0
LINE
  5
636
330
1F
100
AcDbEntity
  8
1
  6
CONTINUOUS
370
50
 62
4
100
AcDbLine
 10
44.06744
 20
-0.045588
 30
0.0
 11
44.067028
 21
-0.044752
 31
0.0
  0
LINE
  5
637
330
1F
100
AcDbEntity
  8
1
  6
CONTINUOUS
370
50
 62
4
100
AcDbLine
 10
44.128922
 20
0.077976
 30
0.0
 11
44.12772
 21
0.080406
 31
0.0
  0
LINE
  5
638
330
1F
100
AcDbEntity
  8
1
  6
CONTINUOUS
370
50
 62
4
100
AcDbLine
 10
44.99653199999999
 20
-0.097005
 30
0.0
 11
44.995468
 21
-0.095027
 31
0.0
  0
LINE
  5
639
330
1F
100
AcDbEntity
  8
1
  6
CONTINUOUS
370
50
 62
4
100
AcDbLine
 10
44.067902
 20
-0.046424
 30
0.0
 11
44.06744
 21
-0.045588
 31
0.0
  0
LINE
  5
63A
330
1F
100
AcDbEntity
  8
1
  6
CONTINUOUS
370
50
 62
4
100
AcDbLine
 10
44.12772
 20
0.080406
 30
0.0
 11
44.126408
 21
0.082689
 31
0.0
  0
LINE
  5
63B
330
1F
100
AcDbEntity
  8
1
  6
CONTINUOUS
370
50
 62
4
100
AcDbLine
 10
44.068413
 20
-0.047258
 30
0.0
 11
44.067902
 21
-0.046424
 31
0.0
  0
LINE
  5
63C
330
1F
100
AcDbEntity
  8
1
  6
CONTINUOUS
370
50
 62
4
100
AcDbLine
 10
44.126408
 20
0.082689
 30
0.0
 11
44.124992
 21
0.084825
 31
0.0
  0
LINE
  5
63D
330
1F
100
AcDbEntity
  8
1
  6
CONTINUOUS
370
50
 62
4
100
AcDbLine
 10
44.111427
 20
0.093237
 30
0.0
 11
44.110897
 21
0.094012
 31
0.0
  0
LINE
  5
63E
330
1F
100
AcDbEntity
  8
1
  6
CONTINUOUS
370
50
 62
4
100
AcDbLine
 10
44.124992
 20
0.084825
 30
0.0
 11
44.12347
 21
0.08681
 31
0.0
  0
LINE
  5
63F
330
1F
100
AcDbEntity
  8
1
  6
CONTINUOUS
370
50
 62
4
100
AcDbLine
 10
44.071697
 20
-0.051492
 30
0.0
 11
44.068413
 21
-0.047258
 31
0.0
  0
LINE
  5
640
330
1F
100
AcDbEntity
  8
1
  6
CONTINUOUS
370
50
 62
4
100
AcDbLine
 10
44.075134
 20
-0.055509
 30
0.0
 11
44.071697
 21
-0.051492
 31
0.0
  0
LINE
  5
641
330
1F
100
AcDbEntity
  8
1
  6
CONTINUOUS
370
50
 62
4
100
AcDbLine
 10
44.112156
 20
0.092442
 30
0.0
 11
44.111427
 21
0.093237
 31
0.0
  0
LINE
  5
642
330
1F
100
AcDbEntity
  8
1
  6
CONTINUOUS
370
50
 62
4
100
AcDbLine
 10
44.078728
 20
-0.059289
 30
0.0
 11
44.075134
 21
-0.055509
 31
0.0
  0
LINE
  5
643
330
1F
100
AcDbEntity
  8
1
  6
CONTINUOUS
370
50
 62
4
100
AcDbLine
 10
44.440025
 20
-0.00029
 30
0.0
 11
44.439949
 21
-0.000217
 31
0.0
  0
LINE
  5
644
330
1F
100
AcDbEntity
  8
1
  6
CONTINUOUS
370
50
 62
4
100
AcDbLine
 10
44.453365
 20
0.006813
 30
0.0
 11
44.445721
 21
0.014126
 31
0.0
  0
LINE
  5
645
330
1F
100
AcDbEntity
  8
1
  6
CONTINUOUS
370
50
 62
4
100
AcDbLine
 10
44.451122
 20
-0.010791
 30
0.0
 11
44.445599
 21
-0.005547
 31
0.0
  0
LINE
  5
646
330
1F
100
AcDbEntity
  8
1
  6
CONTINUOUS
370
50
 62
4
100
AcDbLine
 10
44.460541
 20
0.0
 30
0.0
 11
44.453365
 21
0.006813
 31
0.0
  0
LINE
  5
647
330
1F
100
AcDbEntity
  8
1
  6
CONTINUOUS
370
50
 62
4
100
AcDbLine
 10
44.43979299999999
 20
-0.000073
 30
0.0
 11
44.439716
 21
0.0
 31
0.0
  0
LINE
  5
648
330
1F
100
AcDbEntity
  8
1
  6
CONTINUOUS
370
50
 62
4
100
AcDbLine
 10
44.440178
 20
-0.000434
 30
0.0
 11
44.440102
 21
-0.000362
 31
0.0
  0
LINE
  5
649
330
1F
100
AcDbEntity
  8
1
  6
CONTINUOUS
370
50
 62
4
100
AcDbLine
 10
44.439949
 20
-0.000217
 30
0.0
 11
44.439873
 21
-0.000145
 31
0.0
  0
LINE
  5
64A
330
1F
100
AcDbEntity
  8
1
  6
CONTINUOUS
370
50
 62
4
100
AcDbLine
 10
44.445599
 20
-0.005547
 30
0.0
 11
44.440178
 21
-0.000434
 31
0.0
  0
LINE
  5
64B
330
1F
100
AcDbEntity
  8
1
  6
CONTINUOUS
370
50
 62
4
100
AcDbLine
 10
44.456821
 20
-0.016148
 30
0.0
 11
44.451122
 21
-0.010791
 31
0.0
  0
LINE
  5
64C
330
1F
100
AcDbEntity
  8
1
  6
CONTINUOUS
370
50
 62
4
100
AcDbLine
 10
44.082504
 20
-0.062835
 30
0.0
 11
44.078728
 21
-0.059289
 31
0.0
  0
LINE
  5
64D
330
1F
100
AcDbEntity
  8
1
  6
CONTINUOUS
370
50
 62
4
100
AcDbLine
 10
44.440102
 20
-0.000362
 30
0.0
 11
44.440025
 21
-0.00029
 31
0.0
  0
LINE
  5
64E
330
1F
100
AcDbEntity
  8
1
  6
CONTINUOUS
370
50
 62
4
100
AcDbLine
 10
44.445721
 20
0.014126
 30
0.0
 11
44.437416
 21
0.02186
 31
0.0
  0
LINE
  5
64F
330
1F
100
AcDbEntity
  8
1
  6
CONTINUOUS
370
50
 62
4
100
AcDbLine
 10
44.462753
 20
-0.021605
 30
0.0
 11
44.456821
 21
-0.016148
 31
0.0
  0
LINE
  5
650
330
1F
100
AcDbEntity
  8
1
  6
CONTINUOUS
370
50
 62
4
100
AcDbLine
 10
44.439716
 20
0.0
 30
0.0
 11
44.429863
 21
0.008955
 31
0.0
  0
LINE
  5
651
330
1F
100
AcDbEntity
  8
1
  6
CONTINUOUS
370
50
 62
4
100
AcDbLine
 10
44.439873
 20
-0.000145
 30
0.0
 11
44.43979299999999
 21
-0.000073
 31
0.0
  0
LINE
  5
652
330
1F
100
AcDbEntity
  8
1
  6
CONTINUOUS
370
50
 62
4
100
AcDbLine
 10
44.477463
 20
-0.015043
 30
0.0
 11
44.460541
 21
0.0
 31
0.0
  0
LINE
  5
653
330
1F
100
AcDbEntity
  8
1
  6
CONTINUOUS
370
50
 62
4
100
AcDbLine
 10
44.468987
 20
-0.027144
 30
0.0
 11
44.462753
 21
-0.021605
 31
0.0
  0
LINE
  5
654
330
1F
100
AcDbEntity
  8
1
  6
CONTINUOUS
370
50
 62
4
100
AcDbLine
 10
44.437416
 20
0.02186
 30
0.0
 11
44.428284
 21
0.029931
 31
0.0
  0
LINE
  5
655
330
1F
100
AcDbEntity
  8
1
  6
CONTINUOUS
370
50
 62
4
100
AcDbLine
 10
44.11307499999999
 20
0.091639
 30
0.0
 11
44.112156
 21
0.092442
 31
0.0
  0
LINE
  5
656
330
1F
100
AcDbEntity
  8
1
  6
CONTINUOUS
370
50
 62
4
100
AcDbLine
 10
44.89101
 20
-0.043888
 30
0.0
 11
44.88332399999999
 21
-0.037245
 31
0.0
  0
LINE
  5
657
330
1F
100
AcDbEntity
  8
1
  6
CONTINUOUS
370
50
 62
4
100
AcDbLine
 10
44.88332399999999
 20
-0.037245
 30
0.0
 11
44.875233
 21
-0.030259
 31
0.0
  0
LINE
  5
658
330
1F
100
AcDbEntity
  8
1
  6
CONTINUOUS
370
50
 62
4
100
AcDbLine
 10
44.429863
 20
0.008955
 30
0.0
 11
44.420071
 21
0.017327
 31
0.0
  0
LINE
  5
659
330
1F
100
AcDbEntity
  8
1
  6
CONTINUOUS
370
50
 62
4
100
AcDbLine
 10
44.475586
 20
-0.032751
 30
0.0
 11
44.468987
 21
-0.027144
 31
0.0
  0
LINE
  5
65A
330
1F
100
AcDbEntity
  8
1
  6
CONTINUOUS
370
50
 62
4
100
AcDbLine
 10
44.898453
 20
-0.050195
 30
0.0
 11
44.89101
 21
-0.043888
 31
0.0
  0
LINE
  5
65B
330
1F
100
AcDbEntity
  8
1
  6
CONTINUOUS
370
50
 62
4
100
AcDbLine
 10
44.875233
 20
-0.030259
 30
0.0
 11
44.86656199999999
 21
-0.022924
 31
0.0
  0
LINE
  5
65C
330
1F
100
AcDbEntity
  8
1
  6
CONTINUOUS
370
50
 62
4
100
AcDbLine
 10
44.773991
 20
0.030089
 30
0.0
 11
44.743156
 21
0.055814
 31
0.0
  0
LINE
  5
65D
330
1F
100
AcDbEntity
  8
1
  6
CONTINUOUS
370
50
 62
4
100
AcDbLine
 10
44.086475
 20
-0.066142
 30
0.0
 11
44.082504
 21
-0.062835
 31
0.0
  0
LINE
  5
65E
330
1F
100
AcDbEntity
  8
1
  6
CONTINUOUS
370
50
 62
4
100
AcDbLine
 10
44.428284
 20
0.029931
 30
0.0
 11
44.41814
 21
0.038257
 31
0.0
  0
LINE
  5
65F
330
1F
100
AcDbEntity
  8
1
  6
CONTINUOUS
370
50
 62
4
100
AcDbLine
 10
44.86656199999999
 20
-0.022924
 30
0.0
 11
44.857201
 21
-0.015267
 31
0.0
  0
LINE
  5
660
330
1F
100
AcDbEntity
  8
1
  6
CONTINUOUS
370
50
 62
4
100
AcDbLine
 10
44.905823
 20
-0.056171
 30
0.0
 11
44.898453
 21
-0.050195
 31
0.0
  0
LINE
  5
661
330
1F
100
AcDbEntity
  8
1
  6
CONTINUOUS
370
50
 62
4
100
AcDbLine
 10
44.420071
 20
0.017327
 30
0.0
 11
44.410446
 21
0.025106
 31
0.0
  0
LINE
  5
662
330
1F
100
AcDbEntity
  8
1
  6
CONTINUOUS
370
50
 62
4
100
AcDbLine
 10
44.482616
 20
-0.038411
 30
0.0
 11
44.475586
 21
-0.032751
 31
0.0
  0
LINE
  5
663
330
1F
100
AcDbEntity
  8
1
  6
CONTINUOUS
370
50
 62
4
100
AcDbLine
 10
44.494991
 20
-0.0291
 30
0.0
 11
44.477463
 21
-0.015043
 31
0.0
  0
LINE
  5
664
330
1F
100
AcDbEntity
  8
1
  6
CONTINUOUS
370
50
 62
4
100
AcDbLine
 10
44.811546
 20
0.0
 30
0.0
 11
44.773991
 21
0.030089
 31
0.0
  0
LINE
  5
665
330
1F
100
AcDbEntity
  8
1
  6
CONTINUOUS
370
50
 62
4
100
AcDbLine
 10
44.857201
 20
-0.015267
 30
0.0
 11
44.847561
 21
-0.007594
 31
0.0
  0
LINE
  5
666
330
1F
100
AcDbEntity
  8
1
  6
CONTINUOUS
370
50
 62
4
100
AcDbLine
 10
44.847561
 20
-0.007594
 30
0.0
 11
44.837818
 21
0.0
 31
0.0
  0
LINE
  5
667
330
1F
100
AcDbEntity
  8
1
  6
CONTINUOUS
370
50
 62
4
100
AcDbLine
 10
44.811832
 20
-0.000211
 30
0.0
 11
44.811691
 21
-0.000102
 31
0.0
  0
LINE
  5
668
330
1F
100
AcDbEntity
  8
1
  6
CONTINUOUS
370
50
 62
4
100
AcDbLine
 10
44.875771
 20
-0.048902
 30
0.0
 11
44.865738
 21
-0.041193
 31
0.0
  0
LINE
  5
669
330
1F
100
AcDbEntity
  8
1
  6
CONTINUOUS
370
50
 62
4
100
AcDbLine
 10
44.837818
 20
0.0
 30
0.0
 11
44.832699
 21
0.003927
 31
0.0
  0
LINE
  5
66A
330
1F
100
AcDbEntity
  8
1
  6
CONTINUOUS
370
50
 62
4
100
AcDbLine
 10
44.410446
 20
0.025106
 30
0.0
 11
44.401081
 21
0.032286
 31
0.0
  0
LINE
  5
66B
330
1F
100
AcDbEntity
  8
1
  6
CONTINUOUS
370
50
 62
4
100
AcDbLine
 10
44.812397
 20
-0.000643
 30
0.0
 11
44.811974
 21
-0.000319
 31
0.0
  0
LINE
  5
66C
330
1F
100
AcDbEntity
  8
1
  6
CONTINUOUS
370
50
 62
4
100
AcDbLine
 10
44.885593
 20
-0.056421
 30
0.0
 11
44.875771
 21
-0.048902
 31
0.0
  0
LINE
  5
66D
330
1F
100
AcDbEntity
  8
1
  6
CONTINUOUS
370
50
 62
4
100
AcDbLine
 10
44.823254
 20
-0.008944
 30
0.0
 11
44.812397
 21
-0.000643
 31
0.0
  0
LINE
  5
66E
330
1F
100
AcDbEntity
  8
1
  6
CONTINUOUS
370
50
 62
4
100
AcDbLine
 10
44.865738
 20
-0.041193
 30
0.0
 11
44.855457
 21
-0.03334
 31
0.0
  0
LINE
  5
66F
330
1F
100
AcDbEntity
  8
1
  6
CONTINUOUS
370
50
 62
4
100
AcDbLine
 10
44.832699
 20
0.003927
 30
0.0
 11
44.827587
 21
0.007822
 31
0.0
  0
LINE
  5
670
330
1F
100
AcDbEntity
  8
1
  6
CONTINUOUS
370
50
 62
4
100
AcDbLine
 10
44.811974
 20
-0.000319
 30
0.0
 11
44.811832
 21
-0.000211
 31
0.0
  0
LINE
  5
671
330
1F
100
AcDbEntity
  8
1
  6
CONTINUOUS
370
50
 62
4
100
AcDbLine
 10
44.834122
 20
-0.017185
 30
0.0
 11
44.823254
 21
-0.008944
 31
0.0
  0
LINE
  5
672
330
1F
100
AcDbEntity
  8
1
  6
CONTINUOUS
370
50
 62
4
100
AcDbLine
 10
44.855457
 20
-0.03334
 30
0.0
 11
44.844891
 21
-0.02533
 31
0.0
  0
LINE
  5
673
330
1F
100
AcDbEntity
  8
1
  6
CONTINUOUS
370
50
 62
4
100
AcDbLine
 10
44.827587
 20
0.007822
 30
0.0
 11
44.822357
 21
0.011786
 31
0.0
  0
LINE
  5
674
330
1F
100
AcDbEntity
  8
1
  6
CONTINUOUS
370
50
 62
4
100
AcDbLine
 10
44.822357
 20
0.011786
 30
0.0
 11
44.816784
 21
0.016006
 31
0.0
  0
LINE
  5
675
330
1F
100
AcDbEntity
  8
1
  6
CONTINUOUS
370
50
 62
4
100
AcDbLine
 10
44.913288
 20
-0.061823
 30
0.0
 11
44.905823
 21
-0.056171
 31
0.0
  0
LINE
  5
676
330
1F
100
AcDbEntity
  8
1
  6
CONTINUOUS
370
50
 62
4
100
AcDbLine
 10
44.490143
 20
-0.044107
 30
0.0
 11
44.482616
 21
-0.038411
 31
0.0
  0
LINE
  5
677
330
1F
100
AcDbEntity
  8
1
  6
CONTINUOUS
370
50
 62
4
100
AcDbLine
 10
44.816784
 20
0.016006
 30
0.0
 11
44.81089799999999
 21
0.02046
 31
0.0
  0
LINE
  5
678
330
1F
100
AcDbEntity
  8
1
  6
CONTINUOUS
370
50
 62
4
100
AcDbLine
 10
44.844891
 20
-0.02533
 30
0.0
 11
44.834122
 21
-0.017185
 31
0.0
  0
LINE
  5
679
330
1F
100
AcDbEntity
  8
1
  6
CONTINUOUS
370
50
 62
4
100
AcDbLine
 10
44.81089799999999
 20
0.02046
 30
0.0
 11
44.804737
 21
0.025119
 31
0.0
  0
LINE
  5
67A
330
1F
100
AcDbEntity
  8
1
  6
CONTINUOUS
370
50
 62
4
100
AcDbLine
 10
44.804737
 20
0.025119
 30
0.0
 11
44.798344
 21
0.029953
 31
0.0
  0
LINE
  5
67B
330
1F
100
AcDbEntity
  8
1
  6
CONTINUOUS
370
50
 62
4
100
AcDbLine
 10
44.895233
 20
-0.063708
 30
0.0
 11
44.885593
 21
-0.056421
 31
0.0
  0
LINE
  5
67C
330
1F
100
AcDbEntity
  8
1
  6
CONTINUOUS
370
50
 62
4
100
AcDbLine
 10
44.798344
 20
0.029953
 30
0.0
 11
44.791744
 21
0.034936
 31
0.0
  0
LINE
  5
67D
330
1F
100
AcDbEntity
  8
1
  6
CONTINUOUS
370
50
 62
4
100
AcDbLine
 10
44.791744
 20
0.034936
 30
0.0
 11
44.784985
 21
0.040037
 31
0.0
  0
LINE
  5
67E
330
1F
100
AcDbEntity
  8
1
  6
CONTINUOUS
370
50
 62
4
100
AcDbLine
 10
44.784985
 20
0.040037
 30
0.0
 11
44.778099
 21
0.04523
 31
0.0
  0
LINE
  5
67F
330
1F
100
AcDbEntity
  8
1
  6
CONTINUOUS
370
50
 62
4
100
AcDbLine
 10
44.778099
 20
0.04523
 30
0.0
 11
44.771122
 21
0.050485
 31
0.0
  0
LINE
  5
680
330
1F
100
AcDbEntity
  8
1
  6
CONTINUOUS
370
50
 62
4
100
AcDbLine
 10
44.771122
 20
0.050485
 30
0.0
 11
44.764095
 21
0.055774
 31
0.0
  0
LINE
  5
681
330
1F
100
AcDbEntity
  8
1
  6
CONTINUOUS
370
50
 62
4
100
AcDbLine
 10
44.764095
 20
0.055774
 30
0.0
 11
44.757053
 21
0.061068
 31
0.0
  0
LINE
  5
682
330
1F
100
AcDbEntity
  8
1
  6
CONTINUOUS
370
50
 62
4
100
AcDbLine
 10
44.41814
 20
0.038257
 30
0.0
 11
44.406811
 21
0.046755
 31
0.0
  0
LINE
  5
683
330
1F
100
AcDbEntity
  8
1
  6
CONTINUOUS
370
50
 62
4
100
AcDbLine
 10
44.757053
 20
0.061068
 30
0.0
 11
44.749653
 21
0.066544
 31
0.0
  0
LINE
  5
684
330
1F
100
AcDbEntity
  8
1
  6
CONTINUOUS
370
50
 62
4
100
AcDbLine
 10
44.44020099999999
 20
-0.000502
 30
0.0
 11
44.427559
 21
0.008846
 31
0.0
  0
LINE
  5
685
330
1F
100
AcDbEntity
  8
1
  6
CONTINUOUS
370
50
 62
4
100
AcDbLine
 10
44.090622
 20
-0.069194
 30
0.0
 11
44.086475
 21
-0.066142
 31
0.0
  0
LINE
  5
686
330
1F
100
AcDbEntity
  8
1
  6
CONTINUOUS
370
50
 62
4
100
AcDbLine
 10
44.401081
 20
0.032286
 30
0.0
 11
44.39208199999999
 21
0.038859
 31
0.0
  0
LINE
  5
687
330
1F
100
AcDbEntity
  8
1
  6
CONTINUOUS
370
50
 62
4
100
AcDbLine
 10
44.513496
 20
-0.042473
 30
0.0
 11
44.494991
 21
-0.0291
 31
0.0
  0
LINE
  5
688
330
1F
100
AcDbEntity
  8
1
  6
CONTINUOUS
370
50
 62
4
100
AcDbLine
 10
44.114185
 20
0.090837
 30
0.0
 11
44.11307499999999
 21
0.091639
 31
0.0
  0
LINE
  5
689
330
1F
100
AcDbEntity
  8
1
  6
CONTINUOUS
370
50
 62
4
100
AcDbLine
 10
44.906166
 20
-0.071507
 30
0.0
 11
44.895233
 21
-0.063708
 31
0.0
  0
LINE
  5
68A
330
1F
100
AcDbEntity
  8
1
  6
CONTINUOUS
370
50
 62
4
100
AcDbLine
 10
44.498165
 20
-0.049787
 30
0.0
 11
44.490143
 21
-0.044107
 31
0.0
  0
LINE
  5
68B
330
1F
100
AcDbEntity
  8
1
  6
CONTINUOUS
370
50
 62
4
100
AcDbLine
 10
44.811691
 20
-0.000102
 30
0.0
 11
44.811546
 21
0.0
 31
0.0
  0
LINE
  5
68C
330
1F
100
AcDbEntity
  8
1
  6
CONTINUOUS
370
50
 62
4
100
AcDbLine
 10
44.39208199999999
 20
0.038859
 30
0.0
 11
44.383553
 21
0.044821
 31
0.0
  0
LINE
  5
68D
330
1F
100
AcDbEntity
  8
1
  6
CONTINUOUS
370
50
 62
4
100
AcDbLine
 10
44.763691
 20
0.031858
 30
0.0
 11
44.751518
 21
0.040299
 31
0.0
  0
LINE
  5
68E
330
1F
100
AcDbEntity
  8
1
  6
CONTINUOUS
370
50
 62
4
100
AcDbLine
 10
44.921021
 20
-0.067157
 30
0.0
 11
44.913288
 21
-0.061823
 31
0.0
  0
LINE
  5
68F
330
1F
100
AcDbEntity
  8
1
  6
CONTINUOUS
370
50
 62
4
100
AcDbLine
 10
44.427559
 20
0.008846
 30
0.0
 11
44.414921
 21
0.017558
 31
0.0
  0
LINE
  5
690
330
1F
100
AcDbEntity
  8
1
  6
CONTINUOUS
370
50
 62
4
100
AcDbLine
 10
44.749653
 20
0.066544
 30
0.0
 11
44.741196
 21
0.072364
 31
0.0
  0
LINE
  5
691
330
1F
100
AcDbEntity
  8
1
  6
CONTINUOUS
370
50
 62
4
100
AcDbLine
 10
44.775867
 20
0.023586
 30
0.0
 11
44.763691
 21
0.031858
 31
0.0
  0
LINE
  5
692
330
1F
100
AcDbEntity
  8
1
  6
CONTINUOUS
370
50
 62
4
100
AcDbLine
 10
44.406811
 20
0.046755
 30
0.0
 11
44.394341
 21
0.055218
 31
0.0
  0
LINE
  5
693
330
1F
100
AcDbEntity
  8
1
  6
CONTINUOUS
370
50
 62
4
100
AcDbLine
 10
44.383553
 20
0.044821
 30
0.0
 11
44.375587
 21
0.050166
 31
0.0
  0
LINE
  5
694
330
1F
100
AcDbEntity
  8
1
  6
CONTINUOUS
370
50
 62
4
100
AcDbLine
 10
44.986221
 20
0.080663
 30
0.0
 11
44.984428
 21
0.081866
 31
0.0
  0
LINE
  5
695
330
1F
100
AcDbEntity
  8
1
  6
CONTINUOUS
370
50
 62
4
100
AcDbLine
 10
44.788044
 20
0.015457
 30
0.0
 11
44.775867
 21
0.023586
 31
0.0
  0
LINE
  5
696
330
1F
100
AcDbEntity
  8
1
  6
CONTINUOUS
370
50
 62
4
100
AcDbLine
 10
44.751518
 20
0.040299
 30
0.0
 11
44.739342
 21
0.048412
 31
0.0
  0
LINE
  5
697
330
1F
100
AcDbEntity
  8
1
  6
CONTINUOUS
370
50
 62
4
100
AcDbLine
 10
44.506359
 20
-0.055236
 30
0.0
 11
44.498165
 21
-0.049787
 31
0.0
  0
LINE
  5
698
330
1F
100
AcDbEntity
  8
1
  6
CONTINUOUS
370
50
 62
4
100
AcDbLine
 10
44.532833
 20
-0.055248
 30
0.0
 11
44.513496
 21
-0.042473
 31
0.0
  0
LINE
  5
699
330
1F
100
AcDbEntity
  8
1
  6
CONTINUOUS
370
50
 62
4
100
AcDbLine
 10
44.80022
 20
0.007448
 30
0.0
 11
44.788044
 21
0.015457
 31
0.0
  0
LINE
  5
69A
330
1F
100
AcDbEntity
  8
1
  6
CONTINUOUS
370
50
 62
4
100
AcDbLine
 10
44.743156
 20
0.055814
 30
0.0
 11
44.711662
 21
0.076356
 31
0.0
  0
LINE
  5
69B
330
1F
100
AcDbEntity
  8
1
  6
CONTINUOUS
370
50
 62
4
100
AcDbLine
 10
44.812397
 20
-0.000463
 30
0.0
 11
44.80022
 21
0.007448
 31
0.0
  0
LINE
  5
69C
330
1F
100
AcDbEntity
  8
1
  6
CONTINUOUS
370
50
 62
4
100
AcDbLine
 10
44.375587
 20
0.050166
 30
0.0
 11
44.368294
 21
0.054887
 31
0.0
  0
LINE
  5
69D
330
1F
100
AcDbEntity
  8
1
  6
CONTINUOUS
370
50
 62
4
100
AcDbLine
 10
44.094963
 20
-0.071999
 30
0.0
 11
44.090622
 21
-0.069194
 31
0.0
  0
LINE
  5
69E
330
1F
100
AcDbEntity
  8
1
  6
CONTINUOUS
370
50
 62
4
100
AcDbLine
 10
44.988178
 20
0.079401
 30
0.0
 11
44.986221
 21
0.080663
 31
0.0
  0
LINE
  5
69F
330
1F
100
AcDbEntity
  8
1
  6
CONTINUOUS
370
50
 62
4
100
AcDbLine
 10
44.414921
 20
0.017558
 30
0.0
 11
44.402279
 21
0.025707
 31
0.0
  0
LINE
  5
6A0
330
1F
100
AcDbEntity
  8
1
  6
CONTINUOUS
370
50
 62
4
100
AcDbLine
 10
44.304142
 20
-0.008131
 30
0.0
 11
44.29726
 21
-0.003714
 31
0.0
  0
LINE
  5
6A1
330
1F
100
AcDbEntity
  8
1
  6
CONTINUOUS
370
50
 62
4
100
AcDbLine
 10
44.984428
 20
0.081866
 30
0.0
 11
44.982777
 21
0.082903
 31
0.0
  0
LINE
  5
6A2
330
1F
100
AcDbEntity
  8
1
  6
CONTINUOUS
370
50
 62
4
100
AcDbLine
 10
44.368294
 20
0.054887
 30
0.0
 11
44.361736
 21
0.059002
 31
0.0
  0
LINE
  5
6A3
330
1F
100
AcDbEntity
  8
1
  6
CONTINUOUS
370
50
 62
4
100
AcDbLine
 10
44.990288
 20
0.078079
 30
0.0
 11
44.988178
 21
0.079401
 31
0.0
  0
LINE
  5
6A4
330
1F
100
AcDbEntity
  8
1
  6
CONTINUOUS
370
50
 62
4
100
AcDbLine
 10
44.514622
 20
-0.060412
 30
0.0
 11
44.506359
 21
-0.055236
 31
0.0
  0
LINE
  5
6A5
330
1F
100
AcDbEntity
  8
1
  6
CONTINUOUS
370
50
 62
4
100
AcDbLine
 10
44.929043
 20
-0.072117
 30
0.0
 11
44.921021
 21
-0.067157
 31
0.0
  0
LINE
  5
6A6
330
1F
100
AcDbEntity
  8
1
  6
CONTINUOUS
370
50
 62
4
100
AcDbLine
 10
44.29726
 20
-0.003714
 30
0.0
 11
44.289177
 21
0.00127
 31
0.0
  0
LINE
  5
6A7
330
1F
100
AcDbEntity
  8
1
  6
CONTINUOUS
370
50
 62
4
100
AcDbLine
 10
44.394341
 20
0.055218
 30
0.0
 11
44.381268
 21
0.063278
 31
0.0
  0
LINE
  5
6A8
330
1F
100
AcDbEntity
  8
1
  6
CONTINUOUS
370
50
 62
4
100
AcDbLine
 10
44.992535
 20
0.076696
 30
0.0
 11
44.990288
 21
0.078079
 31
0.0
  0
LINE
  5
6A9
330
1F
100
AcDbEntity
  8
1
  6
CONTINUOUS
370
50
 62
4
100
AcDbLine
 10
44.11541
 20
0.090084
 30
0.0
 11
44.114185
 21
0.090837
 31
0.0
  0
LINE
  5
6AA
330
1F
100
AcDbEntity
  8
1
  6
CONTINUOUS
370
50
 62
4
100
AcDbLine
 10
44.361736
 20
0.059002
 30
0.0
 11
44.354927
 21
0.063181
 31
0.0
  0
LINE
  5
6AB
330
1F
100
AcDbEntity
  8
1
  6
CONTINUOUS
370
50
 62
4
100
AcDbLine
 10
44.552349
 20
-0.067152
 30
0.0
 11
44.532833
 21
-0.055248
 31
0.0
  0
LINE
  5
6AC
330
1F
100
AcDbEntity
  8
1
  6
CONTINUOUS
370
50
 62
4
100
AcDbLine
 10
44.741196
 20
0.072364
 30
0.0
 11
44.731487
 21
0.07827
 31
0.0
  0
LINE
  5
6AD
330
1F
100
AcDbEntity
  8
1
  6
CONTINUOUS
370
50
 62
4
100
AcDbLine
 10
44.99491099999999
 20
0.075253
 30
0.0
 11
44.992535
 21
0.076696
 31
0.0
  0
LINE
  5
6AE
330
1F
100
AcDbEntity
  8
1
  6
CONTINUOUS
370
50
 62
4
100
AcDbLine
 10
44.402279
 20
0.025707
 30
0.0
 11
44.389641
 21
0.033367
 31
0.0
  0
LINE
  5
6AF
330
1F
100
AcDbEntity
  8
1
  6
CONTINUOUS
370
50
 62
4
100
AcDbLine
 10
44.919773
 20
-0.079735
 30
0.0
 11
44.906166
 21
-0.071507
 31
0.0
  0
LINE
  5
6B0
330
1F
100
AcDbEntity
  8
1
  6
CONTINUOUS
370
50
 62
4
100
AcDbLine
 10
44.997402
 20
0.073749
 30
0.0
 11
44.99491099999999
 21
0.075253
 31
0.0
  0
LINE
  5
6B1
330
1F
100
AcDbEntity
  8
1
  6
CONTINUOUS
370
50
 62
4
100
AcDbLine
 10
44.310753
 20
-0.012112
 30
0.0
 11
44.304142
 21
-0.008131
 31
0.0
  0
LINE
  5
6B2
330
1F
100
AcDbEntity
  8
1
  6
CONTINUOUS
370
50
 62
4
100
AcDbLine
 10
45.0
 20
0.072185
 30
0.0
 11
44.997402
 21
0.073749
 31
0.0
  0
LINE
  5
6B3
330
1F
100
AcDbEntity
  8
1
  6
CONTINUOUS
370
50
 62
4
100
AcDbLine
 10
44.354927
 20
0.063181
 30
0.0
 11
44.347462
 21
0.067643
 31
0.0
  0
LINE
  5
6B4
330
1F
100
AcDbEntity
  8
1
  6
CONTINUOUS
370
50
 62
4
100
AcDbLine
 10
44.522896
 20
-0.065305
 30
0.0
 11
44.514622
 21
-0.060412
 31
0.0
  0
LINE
  5
6B5
330
1F
100
AcDbEntity
  8
1
  6
CONTINUOUS
370
50
 62
4
100
AcDbLine
 10
44.739342
 20
0.048412
 30
0.0
 11
44.727173
 21
0.05544
 31
0.0
  0
LINE
  5
6B6
330
1F
100
AcDbEntity
  8
1
  6
CONTINUOUS
370
50
 62
4
100
AcDbLine
 10
44.347462
 20
0.067643
 30
0.0
 11
44.339439
 21
0.072273
 31
0.0
  0
LINE
  5
6B7
330
1F
100
AcDbEntity
  8
1
  6
CONTINUOUS
370
50
 62
4
100
AcDbLine
 10
44.389641
 20
0.033367
 30
0.0
 11
44.376999
 21
0.040611
 31
0.0
  0
LINE
  5
6B8
330
1F
100
AcDbEntity
  8
1
  6
CONTINUOUS
370
50
 62
4
100
AcDbLine
 10
44.571178
 20
-0.077818
 30
0.0
 11
44.552349
 21
-0.067152
 31
0.0
  0
LINE
  5
6B9
330
1F
100
AcDbEntity
  8
1
  6
CONTINUOUS
370
50
 62
4
100
AcDbLine
 10
44.099472
 20
-0.074553
 30
0.0
 11
44.094963
 21
-0.071999
 31
0.0
  0
LINE
  5
6BA
330
1F
100
AcDbEntity
  8
1
  6
CONTINUOUS
370
50
 62
4
100
AcDbLine
 10
44.381268
 20
0.063278
 30
0.0
 11
44.367825
 21
0.070825
 31
0.0
  0
LINE
  5
6BB
330
1F
100
AcDbEntity
  8
1
  6
CONTINUOUS
370
50
 62
4
100
AcDbLine
 10
44.531128
 20
-0.069906
 30
0.0
 11
44.522896
 21
-0.065305
 31
0.0
  0
LINE
  5
6BC
330
1F
100
AcDbEntity
  8
1
  6
CONTINUOUS
370
50
 62
4
100
AcDbLine
 10
44.937206
 20
-0.076627
 30
0.0
 11
44.929043
 21
-0.072117
 31
0.0
  0
LINE
  5
6BD
330
1F
100
AcDbEntity
  8
1
  6
CONTINUOUS
370
50
 62
4
100
AcDbLine
 10
44.339439
 20
0.072273
 30
0.0
 11
44.330956
 21
0.076954
 31
0.0
  0
LINE
  5
6BE
330
1F
100
AcDbEntity
  8
1
  6
CONTINUOUS
370
50
 62
4
100
AcDbLine
 10
44.317501
 20
-0.015813
 30
0.0
 11
44.310753
 21
-0.012112
 31
0.0
  0
LINE
  5
6BF
330
1F
100
AcDbEntity
  8
1
  6
CONTINUOUS
370
50
 62
4
100
AcDbLine
 10
44.289177
 20
0.00127
 30
0.0
 11
44.279152
 21
0.006735
 31
0.0
  0
LINE
  5
6C0
330
1F
100
AcDbEntity
  8
1
  6
CONTINUOUS
370
50
 62
4
100
AcDbLine
 10
44.376999
 20
0.040611
 30
0.0
 11
44.364353
 21
0.0475
 31
0.0
  0
LINE
  5
6C1
330
1F
100
AcDbEntity
  8
1
  6
CONTINUOUS
370
50
 62
4
100
AcDbLine
 10
44.617115
 20
0.016859
 30
0.0
 11
44.599346
 21
0.026512
 31
0.0
  0
LINE
  5
6C2
330
1F
100
AcDbEntity
  8
1
  6
CONTINUOUS
370
50
 62
4
100
AcDbLine
 10
44.53931
 20
-0.074256
 30
0.0
 11
44.531128
 21
-0.069906
 31
0.0
  0
LINE
  5
6C3
330
1F
100
AcDbEntity
  8
1
  6
CONTINUOUS
370
50
 62
4
100
AcDbLine
 10
44.116787
 20
0.089352
 30
0.0
 11
44.11541
 21
0.090084
 31
0.0
  0
LINE
  5
6C4
330
1F
100
AcDbEntity
  8
1
  6
CONTINUOUS
370
50
 62
4
100
AcDbLine
 10
44.982777
 20
0.082903
 30
0.0
 11
44.981075
 21
0.083793
 31
0.0
  0
LINE
  5
6C5
330
1F
100
AcDbEntity
  8
1
  6
CONTINUOUS
370
50
 62
4
100
AcDbLine
 10
44.330956
 20
0.076954
 30
0.0
 11
44.322105
 21
0.081569
 31
0.0
  0
LINE
  5
6C6
330
1F
100
AcDbEntity
  8
1
  6
CONTINUOUS
370
50
 62
4
100
AcDbLine
 10
44.587841
 20
-0.086415
 30
0.0
 11
44.571178
 21
-0.077818
 31
0.0
  0
LINE
  5
6C7
330
1F
100
AcDbEntity
  8
1
  6
CONTINUOUS
370
50
 62
4
100
AcDbLine
 10
44.364353
 20
0.0475
 30
0.0
 11
44.35171099999999
 21
0.054015
 31
0.0
  0
LINE
  5
6C8
330
1F
100
AcDbEntity
  8
1
  6
CONTINUOUS
370
50
 62
4
100
AcDbLine
 10
44.731487
 20
0.07827
 30
0.0
 11
44.720329
 21
0.083998
 31
0.0
  0
LINE
  5
6C9
330
1F
100
AcDbEntity
  8
1
  6
CONTINUOUS
370
50
 62
4
100
AcDbLine
 10
44.367825
 20
0.070825
 30
0.0
 11
44.354229
 21
0.077762
 31
0.0
  0
LINE
  5
6CA
330
1F
100
AcDbEntity
  8
1
  6
CONTINUOUS
370
50
 62
4
100
AcDbLine
 10
44.547459
 20
-0.078377
 30
0.0
 11
44.53931
 21
-0.074256
 31
0.0
  0
LINE
  5
6CB
330
1F
100
AcDbEntity
  8
1
  6
CONTINUOUS
370
50
 62
4
100
AcDbLine
 10
44.727173
 20
0.05544
 30
0.0
 11
44.715
 21
0.061472
 31
0.0
  0
LINE
  5
6CC
330
1F
100
AcDbEntity
  8
1
  6
CONTINUOUS
370
50
 62
4
100
AcDbLine
 10
44.104156
 20
-0.07687
 30
0.0
 11
44.099472
 21
-0.074553
 31
0.0
  0
LINE
  5
6CD
330
1F
100
AcDbEntity
  8
1
  6
CONTINUOUS
370
50
 62
4
100
AcDbLine
 10
44.94548
 20
-0.080701
 30
0.0
 11
44.937206
 21
-0.076627
 31
0.0
  0
LINE
  5
6CE
330
1F
100
AcDbEntity
  8
1
  6
CONTINUOUS
370
50
 62
4
100
AcDbLine
 10
44.322105
 20
0.081569
 30
0.0
 11
44.312984
 21
0.086003
 31
0.0
  0
LINE
  5
6CF
330
1F
100
AcDbEntity
  8
1
  6
CONTINUOUS
370
50
 62
4
100
AcDbLine
 10
44.599346
 20
0.026512
 30
0.0
 11
44.585003
 21
0.033478
 31
0.0
  0
LINE
  5
6D0
330
1F
100
AcDbEntity
  8
1
  6
CONTINUOUS
370
50
 62
4
100
AcDbLine
 10
44.35171099999999
 20
0.054015
 30
0.0
 11
44.339066
 21
0.060101
 31
0.0
  0
LINE
  5
6D1
330
1F
100
AcDbEntity
  8
1
  6
CONTINUOUS
370
50
 62
4
100
AcDbLine
 10
44.751438
 20
-0.036182
 30
0.0
 11
44.73534799999999
 21
-0.028442
 31
0.0
  0
LINE
  5
6D2
330
1F
100
AcDbEntity
  8
1
  6
CONTINUOUS
370
50
 62
4
100
AcDbLine
 10
44.749016
 20
-0.007407
 30
0.0
 11
44.723747
 21
0.004695
 31
0.0
  0
LINE
  5
6D3
330
1F
100
AcDbEntity
  8
1
  6
CONTINUOUS
370
50
 62
4
100
AcDbLine
 10
44.555569
 20
-0.082236
 30
0.0
 11
44.547459
 21
-0.078377
 31
0.0
  0
LINE
  5
6D4
330
1F
100
AcDbEntity
  8
1
  6
CONTINUOUS
370
50
 62
4
100
AcDbLine
 10
44.774319
 20
-0.019271
 30
0.0
 11
44.749016
 21
-0.007407
 31
0.0
  0
LINE
  5
6D5
330
1F
100
AcDbEntity
  8
1
  6
CONTINUOUS
370
50
 62
4
100
AcDbLine
 10
44.936615
 20
-0.087585
 30
0.0
 11
44.919773
 21
-0.079735
 31
0.0
  0
LINE
  5
6D6
330
1F
100
AcDbEntity
  8
1
  6
CONTINUOUS
370
50
 62
4
100
AcDbLine
 10
44.11828999999999
 20
0.088654
 30
0.0
 11
44.116787
 21
0.089352
 31
0.0
  0
LINE
  5
6D7
330
1F
100
AcDbEntity
  8
1
  6
CONTINUOUS
370
50
 62
4
100
AcDbLine
 10
44.279152
 20
0.006735
 30
0.0
 11
44.267876
 21
0.011964
 31
0.0
  0
LINE
  5
6D8
330
1F
100
AcDbEntity
  8
1
  6
CONTINUOUS
370
50
 62
4
100
AcDbLine
 10
44.354229
 20
0.077762
 30
0.0
 11
44.340706
 21
0.083992
 31
0.0
  0
LINE
  5
6D9
330
1F
100
AcDbEntity
  8
1
  6
CONTINUOUS
370
50
 62
4
100
AcDbLine
 10
44.207157
 20
0.031114
 30
0.0
 11
44.205959
 21
0.031662
 31
0.0
  0
LINE
  5
6DA
330
1F
100
AcDbEntity
  8
1
  6
CONTINUOUS
370
50
 62
4
100
AcDbLine
 10
44.622704
 20
0.014356
 30
0.0
 11
44.617115
 21
0.016859
 31
0.0
  0
LINE
  5
6DB
330
1F
100
AcDbEntity
  8
1
  6
CONTINUOUS
370
50
 62
4
100
AcDbLine
 10
44.322247
 20
0.01448
 30
0.0
 11
44.297276
 21
0.025662
 31
0.0
  0
LINE
  5
6DC
330
1F
100
AcDbEntity
  8
1
  6
CONTINUOUS
370
50
 62
4
100
AcDbLine
 10
44.563618
 20
-0.085805
 30
0.0
 11
44.555569
 21
-0.082236
 31
0.0
  0
LINE
  5
6DD
330
1F
100
AcDbEntity
  8
1
  6
CONTINUOUS
370
50
 62
4
100
AcDbLine
 10
44.339066
 20
0.060101
 30
0.0
 11
44.32642
 21
0.065707
 31
0.0
  0
LINE
  5
6DE
330
1F
100
AcDbEntity
  8
1
  6
CONTINUOUS
370
50
 62
4
100
AcDbLine
 10
44.312984
 20
0.086003
 30
0.0
 11
44.30357
 21
0.09017
 31
0.0
  0
LINE
  5
6DF
330
1F
100
AcDbEntity
  8
1
  6
CONTINUOUS
370
50
 62
4
100
AcDbLine
 10
44.656727
 20
-0.000137
 30
0.0
 11
44.650124
 21
0.002785
 31
0.0
  0
LINE
  5
6E0
330
1F
100
AcDbEntity
  8
1
  6
CONTINUOUS
370
50
 62
4
100
AcDbLine
 10
44.62832299999999
 20
0.011876
 30
0.0
 11
44.622704
 21
0.014356
 31
0.0
  0
LINE
  5
6E1
330
1F
100
AcDbEntity
  8
1
  6
CONTINUOUS
370
50
 62
4
100
AcDbLine
 10
44.981075
 20
0.083793
 30
0.0
 11
44.979351
 21
0.084547
 31
0.0
  0
LINE
  5
6E2
330
1F
100
AcDbEntity
  8
1
  6
CONTINUOUS
370
50
 62
4
100
AcDbLine
 10
44.953835
 20
-0.084352
 30
0.0
 11
44.94548
 21
-0.080701
 31
0.0
  0
LINE
  5
6E3
330
1F
100
AcDbEntity
  8
1
  6
CONTINUOUS
370
50
 62
4
100
AcDbLine
 10
44.633965
 20
0.009424
 30
0.0
 11
44.62832299999999
 21
0.011876
 31
0.0
  0
LINE
  5
6E4
330
1F
100
AcDbEntity
  8
1
  6
CONTINUOUS
370
50
 62
4
100
AcDbLine
 10
44.630314
 20
0.011216
 30
0.0
 11
44.623711
 21
0.014075
 31
0.0
  0
LINE
  5
6E5
330
1F
100
AcDbEntity
  8
1
  6
CONTINUOUS
370
50
 62
4
100
AcDbLine
 10
44.73534799999999
 20
-0.028442
 30
0.0
 11
44.717751
 21
-0.020843
 31
0.0
  0
LINE
  5
6E6
330
1F
100
AcDbEntity
  8
1
  6
CONTINUOUS
370
50
 62
4
100
AcDbLine
 10
44.108994
 20
-0.078956
 30
0.0
 11
44.104156
 21
-0.07687
 31
0.0
  0
LINE
  5
6E7
330
1F
100
AcDbEntity
  8
1
  6
CONTINUOUS
370
50
 62
4
100
AcDbLine
 10
44.636917
 20
0.008382
 30
0.0
 11
44.630314
 21
0.011216
 31
0.0
  0
LINE
  5
6E8
330
1F
100
AcDbEntity
  8
1
  6
CONTINUOUS
370
50
 62
4
100
AcDbLine
 10
44.639626
 20
0.006999
 30
0.0
 11
44.633965
 21
0.009424
 31
0.0
  0
LINE
  5
6E9
330
1F
100
AcDbEntity
  8
1
  6
CONTINUOUS
370
50
 62
4
100
AcDbLine
 10
44.347237
 20
0.003789
 30
0.0
 11
44.322247
 21
0.01448
 31
0.0
  0
LINE
  5
6EA
330
1F
100
AcDbEntity
  8
1
  6
CONTINUOUS
370
50
 62
4
100
AcDbLine
 10
44.324055
 20
-0.018608
 30
0.0
 11
44.317501
 21
-0.015813
 31
0.0
  0
LINE
  5
6EB
330
1F
100
AcDbEntity
  8
1
  6
CONTINUOUS
370
50
 62
4
100
AcDbLine
 10
44.64352
 20
0.005572
 30
0.0
 11
44.636917
 21
0.008382
 31
0.0
  0
LINE
  5
6EC
330
1F
100
AcDbEntity
  8
1
  6
CONTINUOUS
370
50
 62
4
100
AcDbLine
 10
44.645321
 20
0.004595
 30
0.0
 11
44.639626
 21
0.006999
 31
0.0
  0
LINE
  5
6ED
330
1F
100
AcDbEntity
  8
1
  6
CONTINUOUS
370
50
 62
4
100
AcDbLine
 10
44.623711
 20
0.014075
 30
0.0
 11
44.617115
 21
0.016859
 31
0.0
  0
LINE
  5
6EE
330
1F
100
AcDbEntity
  8
1
  6
CONTINUOUS
370
50
 62
4
100
AcDbLine
 10
44.650124
 20
0.002785
 30
0.0
 11
44.64352
 21
0.005572
 31
0.0
  0
LINE
  5
6EF
330
1F
100
AcDbEntity
  8
1
  6
CONTINUOUS
370
50
 62
4
100
AcDbLine
 10
44.715
 20
0.061472
 30
0.0
 11
44.702827
 21
0.066609
 31
0.0
  0
LINE
  5
6F0
330
1F
100
AcDbEntity
  8
1
  6
CONTINUOUS
370
50
 62
4
100
AcDbLine
 10
44.723747
 20
0.004695
 30
0.0
 11
44.698494
 21
0.015345
 31
0.0
  0
LINE
  5
6F1
330
1F
100
AcDbEntity
  8
1
  6
CONTINUOUS
370
50
 62
4
100
AcDbLine
 10
44.711662
 20
0.076356
 30
0.0
 11
44.678123
 21
0.090457
 31
0.0
  0
LINE
  5
6F2
330
1F
100
AcDbEntity
  8
1
  6
CONTINUOUS
370
50
 62
4
100
AcDbLine
 10
44.651028
 20
0.002215
 30
0.0
 11
44.645321
 21
0.004595
 31
0.0
  0
LINE
  5
6F3
330
1F
100
AcDbEntity
  8
1
  6
CONTINUOUS
370
50
 62
4
100
AcDbLine
 10
44.603336
 20
-0.092864
 30
0.0
 11
44.587841
 21
-0.086415
 31
0.0
  0
LINE
  5
6F4
330
1F
100
AcDbEntity
  8
1
  6
CONTINUOUS
370
50
 62
4
100
AcDbLine
 10
44.330616
 20
-0.021334
 30
0.0
 11
44.324055
 21
-0.018608
 31
0.0
  0
LINE
  5
6F5
330
1F
100
AcDbEntity
  8
1
  6
CONTINUOUS
370
50
 62
4
100
AcDbLine
 10
44.720329
 20
0.083998
 30
0.0
 11
44.707531
 21
0.089286
 31
0.0
  0
LINE
  5
6F6
330
1F
100
AcDbEntity
  8
1
  6
CONTINUOUS
370
50
 62
4
100
AcDbLine
 10
44.656727
 20
-0.000137
 30
0.0
 11
44.651028
 21
0.002215
 31
0.0
  0
LINE
  5
6F7
330
1F
100
AcDbEntity
  8
1
  6
CONTINUOUS
370
50
 62
4
100
AcDbLine
 10
44.372215
 20
-0.006487
 30
0.0
 11
44.347237
 21
0.003789
 31
0.0
  0
LINE
  5
6F8
330
1F
100
AcDbEntity
  8
1
  6
CONTINUOUS
370
50
 62
4
100
AcDbLine
 10
44.212158
 20
-0.086727
 30
0.0
 11
44.200001
 21
-0.081744
 31
0.0
  0
LINE
  5
6F9
330
1F
100
AcDbEntity
  8
1
  6
CONTINUOUS
370
50
 62
4
100
AcDbLine
 10
44.340706
 20
0.083992
 30
0.0
 11
44.32748
 21
0.089411
 31
0.0
  0
LINE
  5
6FA
330
1F
100
AcDbEntity
  8
1
  6
CONTINUOUS
370
50
 62
4
100
AcDbLine
 10
44.571602
 20
-0.089051
 30
0.0
 11
44.563618
 21
-0.085805
 31
0.0
  0
LINE
  5
6FB
330
1F
100
AcDbEntity
  8
1
  6
CONTINUOUS
370
50
 62
4
100
AcDbLine
 10
44.11991099999999
 20
0.087995
 30
0.0
 11
44.11828999999999
 21
0.088654
 31
0.0
  0
LINE
  5
6FC
330
1F
100
AcDbEntity
  8
1
  6
CONTINUOUS
370
50
 62
4
100
AcDbLine
 10
44.32642
 20
0.065707
 30
0.0
 11
44.313774
 21
0.07078
 31
0.0
  0
LINE
  5
6FD
330
1F
100
AcDbEntity
  8
1
  6
CONTINUOUS
370
50
 62
4
100
AcDbLine
 10
44.39716
 20
-0.016444
 30
0.0
 11
44.372215
 21
-0.006487
 31
0.0
  0
LINE
  5
6FE
330
1F
100
AcDbEntity
  8
1
  6
CONTINUOUS
370
50
 62
4
100
AcDbLine
 10
44.337177
 20
-0.023927
 30
0.0
 11
44.330616
 21
-0.021334
 31
0.0
  0
LINE
  5
6FF
330
1F
100
AcDbEntity
  8
1
  6
CONTINUOUS
370
50
 62
4
100
AcDbLine
 10
44.768742
 20
-0.042997
 30
0.0
 11
44.751438
 21
-0.036182
 31
0.0
  0
LINE
  5
700
330
1F
100
AcDbEntity
  8
1
  6
CONTINUOUS
370
50
 62
4
100
AcDbLine
 10
44.267876
 20
0.011964
 30
0.0
 11
44.256283
 21
0.016483
 31
0.0
  0
LINE
  5
701
330
1F
100
AcDbEntity
  8
1
  6
CONTINUOUS
370
50
 62
4
100
AcDbLine
 10
44.422085
 20
-0.026159
 30
0.0
 11
44.39716
 21
-0.016444
 31
0.0
  0
LINE
  5
702
330
1F
100
AcDbEntity
  8
1
  6
CONTINUOUS
370
50
 62
4
100
AcDbLine
 10
44.297276
 20
0.025662
 30
0.0
 11
44.272339
 21
0.035328
 31
0.0
  0
LINE
  5
703
330
1F
100
AcDbEntity
  8
1
  6
CONTINUOUS
370
50
 62
4
100
AcDbLine
 10
44.962273
 20
-0.087612
 30
0.0
 11
44.953835
 21
-0.084352
 31
0.0
  0
LINE
  5
704
330
1F
100
AcDbEntity
  8
1
  6
CONTINUOUS
370
50
 62
4
100
AcDbLine
 10
44.447021
 20
-0.035698
 30
0.0
 11
44.422085
 21
-0.026159
 31
0.0
  0
LINE
  5
705
330
1F
100
AcDbEntity
  8
1
  6
CONTINUOUS
370
50
 62
4
100
AcDbLine
 10
44.799633
 20
-0.028954
 30
0.0
 11
44.774319
 21
-0.019271
 31
0.0
  0
LINE
  5
706
330
1F
100
AcDbEntity
  8
1
  6
CONTINUOUS
370
50
 62
4
100
AcDbLine
 10
44.698494
 20
0.015345
 30
0.0
 11
44.673225
 21
0.02492
 31
0.0
  0
LINE
  5
707
330
1F
100
AcDbEntity
  8
1
  6
CONTINUOUS
370
50
 62
4
100
AcDbLine
 10
44.343735
 20
-0.026393
 30
0.0
 11
44.337177
 21
-0.023927
 31
0.0
  0
LINE
  5
708
330
1F
100
AcDbEntity
  8
1
  6
CONTINUOUS
370
50
 62
4
100
AcDbLine
 10
44.113972
 20
-0.080824
 30
0.0
 11
44.108994
 21
-0.078956
 31
0.0
  0
LINE
  5
709
330
1F
100
AcDbEntity
  8
1
  6
CONTINUOUS
370
50
 62
4
100
AcDbLine
 10
44.579502
 20
-0.091944
 30
0.0
 11
44.571602
 21
-0.089051
 31
0.0
  0
LINE
  5
70A
330
1F
100
AcDbEntity
  8
1
  6
CONTINUOUS
370
50
 62
4
100
AcDbLine
 10
44.717751
 20
-0.020843
 30
0.0
 11
44.699638
 21
-0.014221
 31
0.0
  0
LINE
  5
70B
330
1F
100
AcDbEntity
  8
1
  6
CONTINUOUS
370
50
 62
4
100
AcDbLine
 10
44.30357
 20
0.09017
 30
0.0
 11
44.292976
 21
0.094043
 31
0.0
  0
LINE
  5
70C
330
1F
100
AcDbEntity
  8
1
  6
CONTINUOUS
370
50
 62
4
100
AcDbLine
 10
44.979351
 20
0.084547
 30
0.0
 11
44.977612
 21
0.08518
 31
0.0
  0
LINE
  5
70D
330
1F
100
AcDbEntity
  8
1
  6
CONTINUOUS
370
50
 62
4
100
AcDbLine
 10
44.356857
 20
-0.031085
 30
0.0
 11
44.343735
 21
-0.026393
 31
0.0
  0
LINE
  5
70E
330
1F
100
AcDbEntity
  8
1
  6
CONTINUOUS
370
50
 62
4
100
AcDbLine
 10
44.585003
 20
0.033478
 30
0.0
 11
44.570065
 21
0.03881
 31
0.0
  0
LINE
  5
70F
330
1F
100
AcDbEntity
  8
1
  6
CONTINUOUS
370
50
 62
4
100
AcDbLine
 10
44.702827
 20
0.066609
 30
0.0
 11
44.690655
 21
0.070952
 31
0.0
  0
LINE
  5
710
330
1F
100
AcDbEntity
  8
1
  6
CONTINUOUS
370
50
 62
4
100
AcDbLine
 10
44.959545
 20
0.029755
 30
0.0
 11
44.951538
 21
0.032611
 31
0.0
  0
LINE
  5
711
330
1F
100
AcDbEntity
  8
1
  6
CONTINUOUS
370
50
 62
4
100
AcDbLine
 10
44.32748
 20
0.089411
 30
0.0
 11
44.315208
 21
0.093783
 31
0.0
  0
LINE
  5
712
330
1F
100
AcDbEntity
  8
1
  6
CONTINUOUS
370
50
 62
4
100
AcDbLine
 10
44.121643
 20
0.08738
 30
0.0
 11
44.11991099999999
 21
0.087995
 31
0.0
  0
LINE
  5
713
330
1F
100
AcDbEntity
  8
1
  6
CONTINUOUS
370
50
 62
4
100
AcDbLine
 10
44.313774
 20
0.07078
 30
0.0
 11
44.301132
 21
0.075267
 31
0.0
  0
LINE
  5
714
330
1F
100
AcDbEntity
  8
1
  6
CONTINUOUS
370
50
 62
4
100
AcDbLine
 10
44.673225
 20
0.02492
 30
0.0
 11
44.64791899999999
 21
0.033656
 31
0.0
  0
LINE
  5
715
330
1F
100
AcDbEntity
  8
1
  6
CONTINUOUS
370
50
 62
4
100
AcDbLine
 10
44.224987
 20
-0.09112
 30
0.0
 11
44.212158
 21
-0.086727
 31
0.0
  0
LINE
  5
716
330
1F
100
AcDbEntity
  8
1
  6
CONTINUOUS
370
50
 62
4
100
AcDbLine
 10
44.970833
 20
-0.090518
 30
0.0
 11
44.962273
 21
-0.087612
 31
0.0
  0
LINE
  5
717
330
1F
100
AcDbEntity
  8
1
  6
CONTINUOUS
370
50
 62
4
100
AcDbLine
 10
44.669987
 20
-0.004629
 30
0.0
 11
44.656727
 21
-0.000137
 31
0.0
  0
LINE
  5
718
330
1F
100
AcDbEntity
  8
1
  6
CONTINUOUS
370
50
 62
4
100
AcDbLine
 10
44.205959
 20
0.031662
 30
0.0
 11
44.20476499999999
 21
0.032064
 31
0.0
  0
LINE
  5
719
330
1F
100
AcDbEntity
  8
1
  6
CONTINUOUS
370
50
 62
4
100
AcDbLine
 10
44.747677
 20
0.07735
 30
0.0
 11
44.742355
 21
0.079141
 31
0.0
  0
LINE
  5
71A
330
1F
100
AcDbEntity
  8
1
  6
CONTINUOUS
370
50
 62
4
100
AcDbLine
 10
44.757103
 20
0.074188
 30
0.0
 11
44.747677
 21
0.07735
 31
0.0
  0
LINE
  5
71B
330
1F
100
AcDbEntity
  8
1
  6
CONTINUOUS
370
50
 62
4
100
AcDbLine
 10
44.20476499999999
 20
0.032064
 30
0.0
 11
44.203575
 21
0.032463
 31
0.0
  0
LINE
  5
71C
330
1F
100
AcDbEntity
  8
1
  6
CONTINUOUS
370
50
 62
4
100
AcDbLine
 10
44.256283
 20
0.016483
 30
0.0
 11
44.244495
 21
0.020424
 31
0.0
  0
LINE
  5
71D
330
1F
100
AcDbEntity
  8
1
  6
CONTINUOUS
370
50
 62
4
100
AcDbLine
 10
44.203575
 20
0.032463
 30
0.0
 11
44.202381
 21
0.032861
 31
0.0
  0
LINE
  5
71E
330
1F
100
AcDbEntity
  8
1
  6
CONTINUOUS
370
50
 62
4
100
AcDbLine
 10
44.202381
 20
0.032861
 30
0.0
 11
44.201187
 21
0.033255
 31
0.0
  0
LINE
  5
71F
330
1F
100
AcDbEntity
  8
1
  6
CONTINUOUS
370
50
 62
4
100
AcDbLine
 10
44.742355
 20
0.079141
 30
0.0
 11
44.736774
 21
0.080978
 31
0.0
  0
LINE
  5
720
330
1F
100
AcDbEntity
  8
1
  6
CONTINUOUS
370
50
 62
4
100
AcDbLine
 10
44.951538
 20
0.032611
 30
0.0
 11
44.943527
 21
0.035232
 31
0.0
  0
LINE
  5
721
330
1F
100
AcDbEntity
  8
1
  6
CONTINUOUS
370
50
 62
4
100
AcDbLine
 10
44.959545
 20
0.029755
 30
0.0
 11
44.952724
 21
0.031984
 31
0.0
  0
LINE
  5
722
330
1F
100
AcDbEntity
  8
1
  6
CONTINUOUS
370
50
 62
4
100
AcDbLine
 10
44.699638
 20
-0.014221
 30
0.0
 11
44.683247
 21
-0.008879
 31
0.0
  0
LINE
  5
723
330
1F
100
AcDbEntity
  8
1
  6
CONTINUOUS
370
50
 62
4
100
AcDbLine
 10
44.119087
 20
-0.08249
 30
0.0
 11
44.113972
 21
-0.080824
 31
0.0
  0
LINE
  5
724
330
1F
100
AcDbEntity
  8
1
  6
CONTINUOUS
370
50
 62
4
100
AcDbLine
 10
44.471989
 20
-0.04383
 30
0.0
 11
44.447021
 21
-0.035698
 31
0.0
  0
LINE
  5
725
330
1F
100
AcDbEntity
  8
1
  6
CONTINUOUS
370
50
 62
4
100
AcDbLine
 10
44.207157
 20
0.031114
 30
0.0
 11
44.205963
 21
0.031502
 31
0.0
  0
LINE
  5
726
330
1F
100
AcDbEntity
  8
1
  6
CONTINUOUS
370
50
 62
4
100
AcDbLine
 10
44.956982
 20
-0.094179
 30
0.0
 11
44.936615
 21
-0.087585
 31
0.0
  0
LINE
  5
727
330
1F
100
AcDbEntity
  8
1
  6
CONTINUOUS
370
50
 62
4
100
AcDbLine
 10
44.205963
 20
0.031502
 30
0.0
 11
44.204769
 21
0.031888
 31
0.0
  0
LINE
  5
728
330
1F
100
AcDbEntity
  8
1
  6
CONTINUOUS
370
50
 62
4
100
AcDbLine
 10
44.204769
 20
0.031888
 30
0.0
 11
44.203575
 21
0.032273
 31
0.0
  0
LINE
  5
729
330
1F
100
AcDbEntity
  8
1
  6
CONTINUOUS
370
50
 62
4
100
AcDbLine
 10
44.587311
 20
-0.094454
 30
0.0
 11
44.579502
 21
-0.091944
 31
0.0
  0
LINE
  5
72A
330
1F
100
AcDbEntity
  8
1
  6
CONTINUOUS
370
50
 62
4
100
AcDbLine
 10
44.203575
 20
0.032273
 30
0.0
 11
44.202385
 21
0.032655
 31
0.0
  0
LINE
  5
72B
330
1F
100
AcDbEntity
  8
1
  6
CONTINUOUS
370
50
 62
4
100
AcDbLine
 10
44.736774
 20
0.080978
 30
0.0
 11
44.73106
 21
0.082812
 31
0.0
  0
LINE
  5
72C
330
1F
100
AcDbEntity
  8
1
  6
CONTINUOUS
370
50
 62
4
100
AcDbLine
 10
44.683247
 20
-0.008879
 30
0.0
 11
44.669987
 21
-0.004629
 31
0.0
  0
LINE
  5
72D
330
1F
100
AcDbEntity
  8
1
  6
CONTINUOUS
370
50
 62
4
100
AcDbLine
 10
44.952724
 20
0.031984
 30
0.0
 11
44.945831
 21
0.03419
 31
0.0
  0
LINE
  5
72E
330
1F
100
AcDbEntity
  8
1
  6
CONTINUOUS
370
50
 62
4
100
AcDbLine
 10
44.202385
 20
0.032655
 30
0.0
 11
44.201191
 21
0.033036
 31
0.0
  0
LINE
  5
72F
330
1F
100
AcDbEntity
  8
1
  6
CONTINUOUS
370
50
 62
4
100
AcDbLine
 10
44.201191
 20
0.033036
 30
0.0
 11
44.200001
 21
0.033414
 31
0.0
  0
LINE
  5
730
330
1F
100
AcDbEntity
  8
1
  6
CONTINUOUS
370
50
 62
4
100
AcDbLine
 10
44.316177
 20
0.093405
 30
0.0
 11
44.315208
 21
0.093711
 31
0.0
  0
LINE
  5
731
330
1F
100
AcDbEntity
  8
1
  6
CONTINUOUS
370
50
 62
4
100
AcDbLine
 10
44.824936
 20
-0.036944
 30
0.0
 11
44.799633
 21
-0.028954
 31
0.0
  0
LINE
  5
732
330
1F
100
AcDbEntity
  8
1
  6
CONTINUOUS
370
50
 62
4
100
AcDbLine
 10
44.707531
 20
0.089286
 30
0.0
 11
44.693047
 21
0.093835
 31
0.0
  0
LINE
  5
733
330
1F
100
AcDbEntity
  8
1
  6
CONTINUOUS
370
50
 62
4
100
AcDbLine
 10
44.764271
 20
0.071941
 30
0.0
 11
44.757103
 21
0.074188
 31
0.0
  0
LINE
  5
734
330
1F
100
AcDbEntity
  8
1
  6
CONTINUOUS
370
50
 62
4
100
AcDbLine
 10
44.73106
 20
0.082812
 30
0.0
 11
44.726772
 21
0.084156
 31
0.0
  0
LINE
  5
735
330
1F
100
AcDbEntity
  8
1
  6
CONTINUOUS
370
50
 62
4
100
AcDbLine
 10
44.945831
 20
0.03419
 30
0.0
 11
44.938904
 21
0.036358
 31
0.0
  0
LINE
  5
736
330
1F
100
AcDbEntity
  8
1
  6
CONTINUOUS
370
50
 62
4
100
AcDbLine
 10
44.943527
 20
0.035232
 30
0.0
 11
44.935513
 21
0.037738
 31
0.0
  0
LINE
  5
737
330
1F
100
AcDbEntity
  8
1
  6
CONTINUOUS
370
50
 62
4
100
AcDbLine
 10
44.12347
 20
0.08681
 30
0.0
 11
44.121643
 21
0.08738
 31
0.0
  0
LINE
  5
738
330
1F
100
AcDbEntity
  8
1
  6
CONTINUOUS
370
50
 62
4
100
AcDbLine
 10
44.323463
 20
0.091134
 30
0.0
 11
44.316177
 21
0.093405
 31
0.0
  0
LINE
  5
739
330
1F
100
AcDbEntity
  8
1
  6
CONTINUOUS
370
50
 62
4
100
AcDbLine
 10
44.953224
 20
0.050236
 30
0.0
 11
44.952675
 21
0.050405
 31
0.0
  0
LINE
  5
73A
330
1F
100
AcDbEntity
  8
1
  6
CONTINUOUS
370
50
 62
4
100
AcDbLine
 10
44.726772
 20
0.084156
 30
0.0
 11
44.720676
 21
0.08602
 31
0.0
  0
LINE
  5
73B
330
1F
100
AcDbEntity
  8
1
  6
CONTINUOUS
370
50
 62
4
100
AcDbLine
 10
44.938904
 20
0.036358
 30
0.0
 11
44.931973
 21
0.038477
 31
0.0
  0
LINE
  5
73C
330
1F
100
AcDbEntity
  8
1
  6
CONTINUOUS
370
50
 62
4
100
AcDbLine
 10
44.330994
 20
0.088847
 30
0.0
 11
44.323463
 21
0.091134
 31
0.0
  0
LINE
  5
73D
330
1F
100
AcDbEntity
  8
1
  6
CONTINUOUS
370
50
 62
4
100
AcDbLine
 10
44.64791899999999
 20
0.033656
 30
0.0
 11
44.622601
 21
0.041327
 31
0.0
  0
LINE
  5
73E
330
1F
100
AcDbEntity
  8
1
  6
CONTINUOUS
370
50
 62
4
100
AcDbLine
 10
44.977612
 20
0.08518
 30
0.0
 11
44.975876
 21
0.085703
 31
0.0
  0
LINE
  5
73F
330
1F
100
AcDbEntity
  8
1
  6
CONTINUOUS
370
50
 62
4
100
AcDbLine
 10
44.911484
 20
0.044392
 30
0.0
 11
44.90377
 21
0.046713
 31
0.0
  0
LINE
  5
740
330
1F
100
AcDbEntity
  8
1
  6
CONTINUOUS
370
50
 62
4
100
AcDbLine
 10
44.315208
 20
0.093783
 30
0.0
 11
44.308945
 21
0.095664
 31
0.0
  0
LINE
  5
741
330
1F
100
AcDbEntity
  8
1
  6
CONTINUOUS
370
50
 62
4
100
AcDbLine
 10
44.690655
 20
0.070952
 30
0.0
 11
44.678482
 21
0.074602
 31
0.0
  0
LINE
  5
742
330
1F
100
AcDbEntity
  8
1
  6
CONTINUOUS
370
50
 62
4
100
AcDbLine
 10
44.244495
 20
0.020424
 30
0.0
 11
44.232212
 21
0.024094
 31
0.0
  0
LINE
  5
743
330
1F
100
AcDbEntity
  8
1
  6
CONTINUOUS
370
50
 62
4
100
AcDbLine
 10
44.332767
 20
0.088318
 30
0.0
 11
44.330994
 21
0.088847
 31
0.0
  0
LINE
  5
744
330
1F
100
AcDbEntity
  8
1
  6
CONTINUOUS
370
50
 62
4
100
AcDbLine
 10
44.931973
 20
0.038477
 30
0.0
 11
44.925072
 21
0.040531
 31
0.0
  0
LINE
  5
745
330
1F
100
AcDbEntity
  8
1
  6
CONTINUOUS
370
50
 62
4
100
AcDbLine
 10
44.935513
 20
0.037738
 30
0.0
 11
44.927502
 21
0.040117
 31
0.0
  0
LINE
  5
746
330
1F
100
AcDbEntity
  8
1
  6
CONTINUOUS
370
50
 62
4
100
AcDbLine
 10
44.720676
 20
0.08602
 30
0.0
 11
44.714439
 21
0.08787
 31
0.0
  0
LINE
  5
747
330
1F
100
AcDbEntity
  8
1
  6
CONTINUOUS
370
50
 62
4
100
AcDbLine
 10
44.979443
 20
-0.09306
 30
0.0
 11
44.970833
 21
-0.090518
 31
0.0
  0
LINE
  5
748
330
1F
100
AcDbEntity
  8
1
  6
CONTINUOUS
370
50
 62
4
100
AcDbLine
 10
44.340343
 20
0.086101
 30
0.0
 11
44.332767
 21
0.088318
 31
0.0
  0
LINE
  5
749
330
1F
100
AcDbEntity
  8
1
  6
CONTINUOUS
370
50
 62
4
100
AcDbLine
 10
44.772621
 20
0.069507
 30
0.0
 11
44.764271
 21
0.071941
 31
0.0
  0
LINE
  5
74A
330
1F
100
AcDbEntity
  8
1
  6
CONTINUOUS
370
50
 62
4
100
AcDbLine
 10
44.714439
 20
0.08787
 30
0.0
 11
44.710094
 21
0.089128
 31
0.0
  0
LINE
  5
74B
330
1F
100
AcDbEntity
  8
1
  6
CONTINUOUS
370
50
 62
4
100
AcDbLine
 10
44.925072
 20
0.040531
 30
0.0
 11
44.918228
 21
0.042507
 31
0.0
  0
LINE
  5
74C
330
1F
100
AcDbEntity
  8
1
  6
CONTINUOUS
370
50
 62
4
100
AcDbLine
 10
44.272339
 20
0.035328
 30
0.0
 11
44.247414
 21
0.042495
 31
0.0
  0
LINE
  5
74D
330
1F
100
AcDbEntity
  8
1
  6
CONTINUOUS
370
50
 62
4
100
AcDbLine
 10
44.988834
 20
0.021671
 30
0.0
 11
44.983997
 21
0.023052
 31
0.0
  0
LINE
  5
74E
330
1F
100
AcDbEntity
  8
1
  6
CONTINUOUS
370
50
 62
4
100
AcDbLine
 10
44.20840099999999
 20
-0.094005
 30
0.0
 11
44.200001
 21
-0.091614
 31
0.0
  0
LINE
  5
74F
330
1F
100
AcDbEntity
  8
1
  6
CONTINUOUS
370
50
 62
4
100
AcDbLine
 10
44.348125
 20
0.083893
 30
0.0
 11
44.340343
 21
0.086101
 31
0.0
  0
LINE
  5
750
330
1F
100
AcDbEntity
  8
1
  6
CONTINUOUS
370
50
 62
4
100
AcDbLine
 10
44.301132
 20
0.075267
 30
0.0
 11
44.28849
 21
0.07885
 31
0.0
  0
LINE
  5
751
330
1F
100
AcDbEntity
  8
1
  6
CONTINUOUS
370
50
 62
4
100
AcDbLine
 10
44.124329
 20
-0.083971
 30
0.0
 11
44.119087
 21
-0.08249
 31
0.0
  0
LINE
  5
752
330
1F
100
AcDbEntity
  8
1
  6
CONTINUOUS
370
50
 62
4
100
AcDbLine
 10
44.232212
 20
0.024094
 30
0.0
 11
44.219631
 21
0.027635
 31
0.0
  0
LINE
  5
753
330
1F
100
AcDbEntity
  8
1
  6
CONTINUOUS
370
50
 62
4
100
AcDbLine
 10
44.918228
 20
0.042507
 30
0.0
 11
44.911484
 21
0.044392
 31
0.0
  0
LINE
  5
754
330
1F
100
AcDbEntity
  8
1
  6
CONTINUOUS
370
50
 62
4
100
AcDbLine
 10
44.927502
 20
0.040117
 30
0.0
 11
44.919487
 21
0.042356
 31
0.0
  0
LINE
  5
755
330
1F
100
AcDbEntity
  8
1
  6
CONTINUOUS
370
50
 62
4
100
AcDbLine
 10
44.219631
 20
0.027635
 30
0.0
 11
44.207157
 21
0.031114
 31
0.0
  0
LINE
  5
756
330
1F
100
AcDbEntity
  8
1
  6
CONTINUOUS
370
50
 62
4
100
AcDbLine
 10
44.710094
 20
0.089128
 30
0.0
 11
44.69783
 21
0.092547
 31
0.0
  0
LINE
  5
757
330
1F
100
AcDbEntity
  8
1
  6
CONTINUOUS
370
50
 62
4
100
AcDbLine
 10
44.34935
 20
0.083552
 30
0.0
 11
44.348125
 21
0.083893
 31
0.0
  0
LINE
  5
758
330
1F
100
AcDbEntity
  8
1
  6
CONTINUOUS
370
50
 62
4
100
AcDbLine
 10
44.983997
 20
0.023052
 30
0.0
 11
44.979111
 21
0.02441
 31
0.0
  0
LINE
  5
759
330
1F
100
AcDbEntity
  8
1
  6
CONTINUOUS
370
50
 62
4
100
AcDbLine
 10
44.61908
 20
-0.097239
 30
0.0
 11
44.603336
 21
-0.092864
 31
0.0
  0
LINE
  5
75A
330
1F
100
AcDbEntity
  8
1
  6
CONTINUOUS
370
50
 62
4
100
AcDbLine
 10
44.23825799999999
 20
-0.094779
 30
0.0
 11
44.224987
 21
-0.09112
 31
0.0
  0
LINE
  5
75B
330
1F
100
AcDbEntity
  8
1
  6
CONTINUOUS
370
50
 62
4
100
AcDbLine
 10
44.96438999999999
 20
0.02842
 30
0.0
 11
44.959545
 21
0.029755
 31
0.0
  0
LINE
  5
75C
330
1F
100
AcDbEntity
  8
1
  6
CONTINUOUS
370
50
 62
4
100
AcDbLine
 10
44.357571
 20
0.0813
 30
0.0
 11
44.34935
 21
0.083552
 31
0.0
  0
LINE
  5
75D
330
1F
100
AcDbEntity
  8
1
  6
CONTINUOUS
370
50
 62
4
100
AcDbLine
 10
44.979111
 20
0.02441
 30
0.0
 11
44.974197
 21
0.025753
 31
0.0
  0
LINE
  5
75E
330
1F
100
AcDbEntity
  8
1
  6
CONTINUOUS
370
50
 62
4
100
AcDbLine
 10
44.95376599999999
 20
0.050088
 30
0.0
 11
44.953224
 21
0.050236
 31
0.0
  0
LINE
  5
75F
330
1F
100
AcDbEntity
  8
1
  6
CONTINUOUS
370
50
 62
4
100
AcDbLine
 10
44.96928
 20
0.027088
 30
0.0
 11
44.96438999999999
 21
0.02842
 31
0.0
  0
LINE
  5
760
330
1F
100
AcDbEntity
  8
1
  6
CONTINUOUS
370
50
 62
4
100
AcDbLine
 10
44.595016
 20
-0.096549
 30
0.0
 11
44.587311
 21
-0.094454
 31
0.0
  0
LINE
  5
761
330
1F
100
AcDbEntity
  8
1
  6
CONTINUOUS
370
50
 62
4
100
AcDbLine
 10
44.974197
 20
0.025753
 30
0.0
 11
44.96928
 21
0.027088
 31
0.0
  0
LINE
  5
762
330
1F
100
AcDbEntity
  8
1
  6
CONTINUOUS
370
50
 62
4
100
AcDbLine
 10
44.90377
 20
0.046713
 30
0.0
 11
44.897865
 21
0.048316
 31
0.0
  0
LINE
  5
763
330
1F
100
AcDbEntity
  8
1
  6
CONTINUOUS
370
50
 62
4
100
AcDbLine
 10
44.69783
 20
0.092547
 30
0.0
 11
44.693047
 21
0.093833
 31
0.0
  0
LINE
  5
764
330
1F
100
AcDbEntity
  8
1
  6
CONTINUOUS
370
50
 62
4
100
AcDbLine
 10
44.780838
 20
0.0673
 30
0.0
 11
44.772621
 21
0.069507
 31
0.0
  0
LINE
  5
765
330
1F
100
AcDbEntity
  8
1
  6
CONTINUOUS
370
50
 62
4
100
AcDbLine
 10
43.799999
 20
0.09995
 30
0.0
 11
36.700001
 21
1.99995
 31
0.0
  0
LINE
  5
766
330
1F
100
AcDbEntity
  8
1
  6
CONTINUOUS
370
50
 62
4
100
AcDbLine
 10
44.365929
 20
0.079076
 30
0.0
 11
44.357571
 21
0.0813
 31
0.0
  0
LINE
  5
767
330
1F
100
AcDbEntity
  8
1
  6
CONTINUOUS
370
50
 62
4
100
AcDbLine
 10
44.850204
 20
-0.0436
 30
0.0
 11
44.824936
 21
-0.036944
 31
0.0
  0
LINE
  5
768
330
1F
100
AcDbEntity
  8
1
  6
CONTINUOUS
370
50
 62
4
100
AcDbLine
 10
44.36953399999999
 20
-0.034408
 30
0.0
 11
44.356857
 21
-0.031085
 31
0.0
  0
LINE
  5
769
330
1F
100
AcDbEntity
  8
1
  6
CONTINUOUS
370
50
 62
4
100
AcDbLine
 10
44.292976
 20
0.094043
 30
0.0
 11
44.28075
 21
0.097243
 31
0.0
  0
LINE
  5
76A
330
1F
100
AcDbEntity
  8
1
  6
CONTINUOUS
370
50
 62
4
100
AcDbLine
 10
44.774536
 20
-0.044513
 30
0.0
 11
44.768742
 21
-0.042997
 31
0.0
  0
LINE
  5
76B
330
1F
100
AcDbEntity
  8
1
  6
CONTINUOUS
370
50
 62
4
100
AcDbLine
 10
44.374222
 20
0.076922
 30
0.0
 11
44.365929
 21
0.079076
 31
0.0
  0
LINE
  5
76C
330
1F
100
AcDbEntity
  8
1
  6
CONTINUOUS
370
50
 62
4
100
AcDbLine
 10
44.570065
 20
0.03881
 30
0.0
 11
44.554607
 21
0.042785
 31
0.0
  0
LINE
  5
76D
330
1F
100
AcDbEntity
  8
1
  6
CONTINUOUS
370
50
 62
4
100
AcDbLine
 10
44.382523
 20
0.07481
 30
0.0
 11
44.374222
 21
0.076922
 31
0.0
  0
LINE
  5
76E
330
1F
100
AcDbEntity
  8
1
  6
CONTINUOUS
370
50
 62
4
100
AcDbLine
 10
44.919487
 20
0.042356
 30
0.0
 11
44.911484
 21
0.044392
 31
0.0
  0
LINE
  5
76F
330
1F
100
AcDbEntity
  8
1
  6
CONTINUOUS
370
50
 62
4
100
AcDbLine
 10
44.38432299999999
 20
0.074355
 30
0.0
 11
44.382523
 21
0.07481
 31
0.0
  0
LINE
  5
770
330
1F
100
AcDbEntity
  8
1
  6
CONTINUOUS
370
50
 62
4
100
AcDbLine
 10
44.988033
 20
-0.095227
 30
0.0
 11
44.979443
 21
-0.09306
 31
0.0
  0
LINE
  5
771
330
1F
100
AcDbEntity
  8
1
  6
CONTINUOUS
370
50
 62
4
100
AcDbLine
 10
44.308945
 20
0.095664
 30
0.0
 11
44.30281799999999
 21
0.097207
 31
0.0
  0
LINE
  5
772
330
1F
100
AcDbEntity
  8
1
  6
CONTINUOUS
370
50
 62
4
100
AcDbLine
 10
44.391766
 20
0.072491
 30
0.0
 11
44.38432299999999
 21
0.074355
 31
0.0
  0
LINE
  5
773
330
1F
100
AcDbEntity
  8
1
  6
CONTINUOUS
370
50
 62
4
100
AcDbLine
 10
44.678482
 20
0.074602
 30
0.0
 11
44.666309
 21
0.077647
 31
0.0
  0
LINE
  5
774
330
1F
100
AcDbEntity
  8
1
  6
CONTINUOUS
370
50
 62
4
100
AcDbLine
 10
44.975876
 20
0.085703
 30
0.0
 11
44.974163
 21
0.086129
 31
0.0
  0
LINE
  5
775
330
1F
100
AcDbEntity
  8
1
  6
CONTINUOUS
370
50
 62
4
100
AcDbLine
 10
44.39913199999999
 20
0.070662
 30
0.0
 11
44.391766
 21
0.072491
 31
0.0
  0
LINE
  5
776
330
1F
100
AcDbEntity
  8
1
  6
CONTINUOUS
370
50
 62
4
100
AcDbLine
 10
44.693047
 20
0.093835
 30
0.0
 11
44.686794
 21
0.095387
 31
0.0
  0
LINE
  5
777
330
1F
100
AcDbEntity
  8
1
  6
CONTINUOUS
370
50
 62
4
100
AcDbLine
 10
44.622601
 20
0.041327
 30
0.0
 11
44.59730099999999
 21
0.047602
 31
0.0
  0
LINE
  5
778
330
1F
100
AcDbEntity
  8
1
  6
CONTINUOUS
370
50
 62
4
100
AcDbLine
 10
44.402287
 20
0.069882
 30
0.0
 11
44.39913199999999
 21
0.070662
 31
0.0
  0
LINE
  5
779
330
1F
100
AcDbEntity
  8
1
  6
CONTINUOUS
370
50
 62
4
100
AcDbLine
 10
44.409088
 20
0.068203
 30
0.0
 11
44.402287
 21
0.069882
 31
0.0
  0
LINE
  5
77A
330
1F
100
AcDbEntity
  8
1
  6
CONTINUOUS
370
50
 62
4
100
AcDbLine
 10
44.789219
 20
0.065234
 30
0.0
 11
44.780838
 21
0.0673
 31
0.0
  0
LINE
  5
77B
330
1F
100
AcDbEntity
  8
1
  6
CONTINUOUS
370
50
 62
4
100
AcDbLine
 10
44.41575599999999
 20
0.066562
 30
0.0
 11
44.409088
 21
0.068203
 31
0.0
  0
LINE
  5
77C
330
1F
100
AcDbEntity
  8
1
  6
CONTINUOUS
370
50
 62
4
100
AcDbLine
 10
44.419445
 20
0.065655
 30
0.0
 11
44.41575599999999
 21
0.066562
 31
0.0
  0
LINE
  5
77D
330
1F
100
AcDbEntity
  8
1
  6
CONTINUOUS
370
50
 62
4
100
AcDbLine
 10
44.426003
 20
0.064048
 30
0.0
 11
44.419445
 21
0.065655
 31
0.0
  0
LINE
  5
77E
330
1F
100
AcDbEntity
  8
1
  6
CONTINUOUS
370
50
 62
4
100
AcDbLine
 10
44.129677
 20
-0.085279
 30
0.0
 11
44.124329
 21
-0.083971
 31
0.0
  0
LINE
  5
77F
330
1F
100
AcDbEntity
  8
1
  6
CONTINUOUS
370
50
 62
4
100
AcDbLine
 10
44.432388
 20
0.062491
 30
0.0
 11
44.426003
 21
0.064048
 31
0.0
  0
LINE
  5
780
330
1F
100
AcDbEntity
  8
1
  6
CONTINUOUS
370
50
 62
4
100
AcDbLine
 10
44.435528
 20
0.06173
 30
0.0
 11
44.432388
 21
0.062491
 31
0.0
  0
LINE
  5
781
330
1F
100
AcDbEntity
  8
1
  6
CONTINUOUS
370
50
 62
4
100
AcDbLine
 10
44.44236799999999
 20
0.060087
 30
0.0
 11
44.435528
 21
0.06173
 31
0.0
  0
LINE
  5
782
330
1F
100
AcDbEntity
  8
1
  6
CONTINUOUS
370
50
 62
4
100
AcDbLine
 10
44.780338
 20
-0.045885
 30
0.0
 11
44.774536
 21
-0.044513
 31
0.0
  0
LINE
  5
783
330
1F
100
AcDbEntity
  8
1
  6
CONTINUOUS
370
50
 62
4
100
AcDbLine
 10
44.9543
 20
0.049962
 30
0.0
 11
44.95376599999999
 21
0.050088
 31
0.0
  0
LINE
  5
784
330
1F
100
AcDbEntity
  8
1
  6
CONTINUOUS
370
50
 62
4
100
AcDbLine
 10
44.449001
 20
0.058525
 30
0.0
 11
44.44236799999999
 21
0.060087
 31
0.0
  0
LINE
  5
785
330
1F
100
AcDbEntity
  8
1
  6
CONTINUOUS
370
50
 62
4
100
AcDbLine
 10
44.678123
 20
0.090457
 30
0.0
 11
44.644558
 21
0.098332
 31
0.0
  0
LINE
  5
786
330
1F
100
AcDbEntity
  8
1
  6
CONTINUOUS
370
50
 62
4
100
AcDbLine
 10
44.216892
 20
-0.095992
 30
0.0
 11
44.20840099999999
 21
-0.094005
 31
0.0
  0
LINE
  5
787
330
1F
100
AcDbEntity
  8
1
  6
CONTINUOUS
370
50
 62
4
100
AcDbLine
 10
44.382256
 20
-0.037361
 30
0.0
 11
44.36953399999999
 21
-0.034408
 31
0.0
  0
LINE
  5
788
330
1F
100
AcDbEntity
  8
1
  6
CONTINUOUS
370
50
 62
4
100
AcDbLine
 10
44.450485
 20
0.058181
 30
0.0
 11
44.449001
 21
0.058525
 31
0.0
  0
LINE
  5
789
330
1F
100
AcDbEntity
  8
1
  6
CONTINUOUS
370
50
 62
4
100
AcDbLine
 10
44.797401
 20
0.063383
 30
0.0
 11
44.789219
 21
0.065234
 31
0.0
  0
LINE
  5
78A
330
1F
100
AcDbEntity
  8
1
  6
CONTINUOUS
370
50
 62
4
100
AcDbLine
 10
44.897865
 20
0.048316
 30
0.0
 11
44.89262799999999
 21
0.049494
 31
0.0
  0
LINE
  5
78B
330
1F
100
AcDbEntity
  8
1
  6
CONTINUOUS
370
50
 62
4
100
AcDbLine
 10
44.429554
 20
-0.047712
 30
0.0
 11
44.418171
 21
-0.045194
 31
0.0
  0
LINE
  5
78C
330
1F
100
AcDbEntity
  8
1
  6
CONTINUOUS
370
50
 62
4
100
AcDbLine
 10
44.418171
 20
-0.045194
 30
0.0
 11
44.406467
 21
-0.042617
 31
0.0
  0
LINE
  5
78D
330
1F
100
AcDbEntity
  8
1
  6
CONTINUOUS
370
50
 62
4
100
AcDbLine
 10
44.394604
 20
-0.040048
 30
0.0
 11
44.382256
 21
-0.037361
 31
0.0
  0
LINE
  5
78E
330
1F
100
AcDbEntity
  8
1
  6
CONTINUOUS
370
50
 62
4
100
AcDbLine
 10
44.406467
 20
-0.042617
 30
0.0
 11
44.394604
 21
-0.040048
 31
0.0
  0
LINE
  5
78F
330
1F
100
AcDbEntity
  8
1
  6
CONTINUOUS
370
50
 62
4
100
AcDbLine
 10
44.457844
 20
0.056599
 30
0.0
 11
44.450485
 21
0.058181
 31
0.0
  0
LINE
  5
790
330
1F
100
AcDbEntity
  8
1
  6
CONTINUOUS
370
50
 62
4
100
AcDbLine
 10
44.603237
 20
-0.098314
 30
0.0
 11
44.595016
 21
-0.096549
 31
0.0
  0
LINE
  5
791
330
1F
100
AcDbEntity
  8
1
  6
CONTINUOUS
370
50
 62
4
100
AcDbLine
 10
44.686794
 20
0.095387
 30
0.0
 11
44.680401
 21
0.096735
 31
0.0
  0
LINE
  5
792
330
1F
100
AcDbEntity
  8
1
  6
CONTINUOUS
370
50
 62
4
100
AcDbLine
 10
44.78614
 20
-0.047107
 30
0.0
 11
44.780338
 21
-0.045885
 31
0.0
  0
LINE
  5
793
330
1F
100
AcDbEntity
  8
1
  6
CONTINUOUS
370
50
 62
4
100
AcDbLine
 10
44.135124
 20
-0.086426
 30
0.0
 11
44.129677
 21
-0.085279
 31
0.0
  0
LINE
  5
794
330
1F
100
AcDbEntity
  8
1
  6
CONTINUOUS
370
50
 62
4
100
AcDbLine
 10
44.247414
 20
0.042495
 30
0.0
 11
44.222473
 21
0.047718
 31
0.0
  0
LINE
  5
795
330
1F
100
AcDbEntity
  8
1
  6
CONTINUOUS
370
50
 62
4
100
AcDbLine
 10
44.439648
 20
-0.049824
 30
0.0
 11
44.429554
 21
-0.047712
 31
0.0
  0
LINE
  5
796
330
1F
100
AcDbEntity
  8
1
  6
CONTINUOUS
370
50
 62
4
100
AcDbLine
 10
44.99653199999999
 20
-0.097005
 30
0.0
 11
44.988033
 21
-0.095227
 31
0.0
  0
LINE
  5
797
330
1F
100
AcDbEntity
  8
1
  6
CONTINUOUS
370
50
 62
4
100
AcDbLine
 10
44.806767
 20
0.061451
 30
0.0
 11
44.797401
 21
0.063383
 31
0.0
  0
LINE
  5
798
330
1F
100
AcDbEntity
  8
1
  6
CONTINUOUS
370
50
 62
4
100
AcDbLine
 10
44.251755
 20
-0.097562
 30
0.0
 11
44.23825799999999
 21
-0.094779
 31
0.0
  0
LINE
  5
799
330
1F
100
AcDbEntity
  8
1
  6
CONTINUOUS
370
50
 62
4
100
AcDbLine
 10
44.496979
 20
-0.048954
 30
0.0
 11
44.471989
 21
-0.04383
 31
0.0
  0
LINE
  5
79A
330
1F
100
AcDbEntity
  8
1
  6
CONTINUOUS
370
50
 62
4
100
AcDbLine
 10
44.974163
 20
0.086129
 30
0.0
 11
44.972488
 21
0.086471
 31
0.0
  0
LINE
  5
79B
330
1F
100
AcDbEntity
  8
1
  6
CONTINUOUS
370
50
 62
4
100
AcDbLine
 10
44.87545799999999
 20
-0.048736
 30
0.0
 11
44.850204
 21
-0.0436
 31
0.0
  0
LINE
  5
79C
330
1F
100
AcDbEntity
  8
1
  6
CONTINUOUS
370
50
 62
4
100
AcDbLine
 10
44.954823
 20
0.049858
 30
0.0
 11
44.9543
 21
0.049962
 31
0.0
  0
LINE
  5
79D
330
1F
100
AcDbEntity
  8
1
  6
CONTINUOUS
370
50
 62
4
100
AcDbLine
 10
44.666309
 20
0.077647
 30
0.0
 11
44.65413299999999
 21
0.08006
 31
0.0
  0
LINE
  5
79E
330
1F
100
AcDbEntity
  8
1
  6
CONTINUOUS
370
50
 62
4
100
AcDbLine
 10
44.30281799999999
 20
0.097207
 30
0.0
 11
44.296738
 21
0.098409
 31
0.0
  0
LINE
  5
79F
330
1F
100
AcDbEntity
  8
1
  6
CONTINUOUS
370
50
 62
4
100
AcDbLine
 10
44.978603
 20
-0.098384
 30
0.0
 11
44.956982
 21
-0.094179
 31
0.0
  0
LINE
  5
7A0
330
1F
100
AcDbEntity
  8
1
  6
CONTINUOUS
370
50
 62
4
100
AcDbLine
 10
44.554607
 20
0.042785
 30
0.0
 11
44.538837
 21
0.045811
 31
0.0
  0
LINE
  5
7A1
330
1F
100
AcDbEntity
  8
1
  6
CONTINUOUS
370
50
 62
4
100
AcDbLine
 10
44.59730099999999
 20
0.047602
 30
0.0
 11
44.58899299999999
 21
0.049185
 31
0.0
  0
LINE
  5
7A2
330
1F
100
AcDbEntity
  8
1
  6
CONTINUOUS
370
50
 62
4
100
AcDbLine
 10
44.813976
 20
0.060084
 30
0.0
 11
44.806767
 21
0.061451
 31
0.0
  0
LINE
  5
7A3
330
1F
100
AcDbEntity
  8
1
  6
CONTINUOUS
370
50
 62
4
100
AcDbLine
 10
44.28849
 20
0.07885
 30
0.0
 11
44.275848
 21
0.081207
 31
0.0
  0
LINE
  5
7A4
330
1F
100
AcDbEntity
  8
1
  6
CONTINUOUS
370
50
 62
4
100
AcDbLine
 10
44.791943
 20
-0.048187
 30
0.0
 11
44.78614
 21
-0.047107
 31
0.0
  0
LINE
  5
7A5
330
1F
100
AcDbEntity
  8
1
  6
CONTINUOUS
370
50
 62
4
100
AcDbLine
 10
44.22541
 20
-0.097575
 30
0.0
 11
44.216892
 21
-0.095992
 31
0.0
  0
LINE
  5
7A6
330
1F
100
AcDbEntity
  8
1
  6
CONTINUOUS
370
50
 62
4
100
AcDbLine
 10
44.46558
 20
0.055162
 30
0.0
 11
44.457844
 21
0.056599
 31
0.0
  0
LINE
  5
7A7
330
1F
100
AcDbEntity
  8
1
  6
CONTINUOUS
370
50
 62
4
100
AcDbLine
 10
44.44765899999999
 20
-0.051279
 30
0.0
 11
44.439648
 21
-0.049824
 31
0.0
  0
LINE
  5
7A8
330
1F
100
AcDbEntity
  8
1
  6
CONTINUOUS
370
50
 62
4
100
AcDbLine
 10
44.140656
 20
-0.087422
 30
0.0
 11
44.135124
 21
-0.086426
 31
0.0
  0
LINE
  5
7A9
330
1F
100
AcDbEntity
  8
1
  6
CONTINUOUS
370
50
 62
4
100
AcDbLine
 10
44.89262799999999
 20
0.049494
 30
0.0
 11
44.887325
 21
0.05044
 31
0.0
  0
LINE
  5
7AA
330
1F
100
AcDbEntity
  8
1
  6
CONTINUOUS
370
50
 62
4
100
AcDbLine
 10
44.201187
 20
0.033255
 30
0.0
 11
44.200001
 21
0.033466
 31
0.0
  0
LINE
  5
7AB
330
1F
100
AcDbEntity
  8
1
  6
CONTINUOUS
370
50
 62
4
100
AcDbLine
 10
44.467331
 20
-0.052984
 30
0.0
 11
44.467045
 21
-0.052934
 31
0.0
  0
LINE
  5
7AC
330
1F
100
AcDbEntity
  8
1
  6
CONTINUOUS
370
50
 62
4
100
AcDbLine
 10
44.680401
 20
0.096735
 30
0.0
 11
44.673897
 21
0.097866
 31
0.0
  0
LINE
  5
7AD
330
1F
100
AcDbEntity
  8
1
  6
CONTINUOUS
370
50
 62
4
100
AcDbLine
 10
44.824875
 20
0.058198
 30
0.0
 11
44.813976
 21
0.060084
 31
0.0
  0
LINE
  5
7AE
330
1F
100
AcDbEntity
  8
1
  6
CONTINUOUS
370
50
 62
4
100
AcDbLine
 10
44.222473
 20
0.047718
 30
0.0
 11
44.218731
 21
0.048365
 31
0.0
  0
LINE
  5
7AF
330
1F
100
AcDbEntity
  8
1
  6
CONTINUOUS
370
50
 62
4
100
AcDbLine
 10
44.972488
 20
0.086471
 30
0.0
 11
44.970844
 21
0.086744
 31
0.0
  0
LINE
  5
7B0
330
1F
100
AcDbEntity
  8
1
  6
CONTINUOUS
370
50
 62
4
100
AcDbLine
 10
44.218731
 20
0.048365
 30
0.0
 11
44.214985
 21
0.048976
 31
0.0
  0
LINE
  5
7B1
330
1F
100
AcDbEntity
  8
1
  6
CONTINUOUS
370
50
 62
4
100
AcDbLine
 10
44.797745
 20
-0.049132
 30
0.0
 11
44.791943
 21
-0.048187
 31
0.0
  0
LINE
  5
7B2
330
1F
100
AcDbEntity
  8
1
  6
CONTINUOUS
370
50
 62
4
100
AcDbLine
 10
44.830566
 20
0.057291
 30
0.0
 11
44.824875
 21
0.058198
 31
0.0
  0
LINE
  5
7B3
330
1F
100
AcDbEntity
  8
1
  6
CONTINUOUS
370
50
 62
4
100
AcDbLine
 10
44.473351
 20
0.053942
 30
0.0
 11
44.46558
 21
0.055162
 31
0.0
  0
LINE
  5
7B4
330
1F
100
AcDbEntity
  8
1
  6
CONTINUOUS
370
50
 62
4
100
AcDbLine
 10
44.955341
 20
0.049777
 30
0.0
 11
44.954823
 21
0.049858
 31
0.0
  0
LINE
  5
7B5
330
1F
100
AcDbEntity
  8
1
  6
CONTINUOUS
370
50
 62
4
100
AcDbLine
 10
44.214985
 20
0.048976
 30
0.0
 11
44.211239
 21
0.04955
 31
0.0
  0
LINE
  5
7B6
330
1F
100
AcDbEntity
  8
1
  6
CONTINUOUS
370
50
 62
4
100
AcDbLine
 10
44.538837
 20
0.045811
 30
0.0
 11
44.522911
 21
0.048251
 31
0.0
  0
LINE
  5
7B7
330
1F
100
AcDbEntity
  8
1
  6
CONTINUOUS
370
50
 62
4
100
AcDbLine
 10
44.146271
 20
-0.088281
 30
0.0
 11
44.140656
 21
-0.087422
 31
0.0
  0
LINE
  5
7B8
330
1F
100
AcDbEntity
  8
1
  6
CONTINUOUS
370
50
 62
4
100
AcDbLine
 10
44.58899299999999
 20
0.049185
 30
0.0
 11
44.580685
 21
0.050445
 31
0.0
  0
LINE
  5
7B9
330
1F
100
AcDbEntity
  8
1
  6
CONTINUOUS
370
50
 62
4
100
AcDbLine
 10
44.28075
 20
0.097243
 30
0.0
 11
44.26659
 21
0.099333
 31
0.0
  0
LINE
  5
7BA
330
1F
100
AcDbEntity
  8
1
  6
CONTINUOUS
370
50
 62
4
100
AcDbLine
 10
44.842972
 20
0.055484
 30
0.0
 11
44.830566
 21
0.057291
 31
0.0
  0
LINE
  5
7BB
330
1F
100
AcDbEntity
  8
1
  6
CONTINUOUS
370
50
 62
4
100
AcDbLine
 10
44.803551
 20
-0.049968
 30
0.0
 11
44.797745
 21
-0.049132
 31
0.0
  0
LINE
  5
7BC
330
1F
100
AcDbEntity
  8
1
  6
CONTINUOUS
370
50
 62
4
100
AcDbLine
 10
44.167385
 20
0.094921
 30
0.0
 11
44.159954
 21
0.095988
 31
0.0
  0
LINE
  5
7BD
330
1F
100
AcDbEntity
  8
1
  6
CONTINUOUS
370
50
 62
4
100
AcDbLine
 10
44.211239
 20
0.04955
 30
0.0
 11
44.207493
 21
0.050084
 31
0.0
  0
LINE
  5
7BE
330
1F
100
AcDbEntity
  8
1
  6
CONTINUOUS
370
50
 62
4
100
AcDbLine
 10
44.159954
 20
0.095988
 30
0.0
 11
44.152809
 21
0.097003
 31
0.0
  0
LINE
  5
7BF
330
1F
100
AcDbEntity
  8
1
  6
CONTINUOUS
370
50
 62
4
100
AcDbLine
 10
44.296738
 20
0.098409
 30
0.0
 11
44.290619
 21
0.099268
 31
0.0
  0
LINE
  5
7C0
330
1F
100
AcDbEntity
  8
1
  6
CONTINUOUS
370
50
 62
4
100
AcDbLine
 10
44.175106
 20
0.093838
 30
0.0
 11
44.167385
 21
0.094921
 31
0.0
  0
LINE
  5
7C1
330
1F
100
AcDbEntity
  8
1
  6
CONTINUOUS
370
50
 62
4
100
AcDbLine
 10
44.506615
 20
0.050329
 30
0.0
 11
44.500305
 21
0.051205
 31
0.0
  0
LINE
  5
7C2
330
1F
100
AcDbEntity
  8
1
  6
CONTINUOUS
370
50
 62
4
100
AcDbLine
 10
44.233894
 20
-0.098751
 30
0.0
 11
44.22541
 21
-0.097575
 31
0.0
  0
LINE
  5
7C3
330
1F
100
AcDbEntity
  8
1
  6
CONTINUOUS
370
50
 62
4
100
AcDbLine
 10
44.65413299999999
 20
0.08006
 30
0.0
 11
44.641956
 21
0.081746
 31
0.0
  0
LINE
  5
7C4
330
1F
100
AcDbEntity
  8
1
  6
CONTINUOUS
370
50
 62
4
100
AcDbLine
 10
44.952675
 20
0.050405
 30
0.0
 11
44.94682299999999
 21
0.051215
 31
0.0
  0
LINE
  5
7C5
330
1F
100
AcDbEntity
  8
1
  6
CONTINUOUS
370
50
 62
4
100
AcDbLine
 10
44.673897
 20
0.097866
 30
0.0
 11
44.667305
 21
0.098769
 31
0.0
  0
LINE
  5
7C6
330
1F
100
AcDbEntity
  8
1
  6
CONTINUOUS
370
50
 62
4
100
AcDbLine
 10
44.454273
 20
-0.052185
 30
0.0
 11
44.44765899999999
 21
-0.051279
 31
0.0
  0
LINE
  5
7C7
330
1F
100
AcDbEntity
  8
1
  6
CONTINUOUS
370
50
 62
4
100
AcDbLine
 10
44.887325
 20
0.05044
 30
0.0
 11
44.881912
 21
0.051181
 31
0.0
  0
LINE
  5
7C8
330
1F
100
AcDbEntity
  8
1
  6
CONTINUOUS
370
50
 62
4
100
AcDbLine
 10
44.636211
 20
-0.099579
 30
0.0
 11
44.61908
 21
-0.097239
 31
0.0
  0
LINE
  5
7C9
330
1F
100
AcDbEntity
  8
1
  6
CONTINUOUS
370
50
 62
4
100
AcDbLine
 10
44.152809
 20
0.097003
 30
0.0
 11
44.145954
 21
0.097929
 31
0.0
  0
LINE
  5
7CA
330
1F
100
AcDbEntity
  8
1
  6
CONTINUOUS
370
50
 62
4
100
AcDbLine
 10
44.847179
 20
0.054921
 30
0.0
 11
44.842972
 21
0.055484
 31
0.0
  0
LINE
  5
7CB
330
1F
100
AcDbEntity
  8
1
  6
CONTINUOUS
370
50
 62
4
100
AcDbLine
 10
44.183113
 20
0.092777
 30
0.0
 11
44.175106
 21
0.093838
 31
0.0
  0
LINE
  5
7CC
330
1F
100
AcDbEntity
  8
1
  6
CONTINUOUS
370
50
 62
4
100
AcDbLine
 10
44.970844
 20
0.086744
 30
0.0
 11
44.969189
 21
0.086962
 31
0.0
  0
LINE
  5
7CD
330
1F
100
AcDbEntity
  8
1
  6
CONTINUOUS
370
50
 62
4
100
AcDbLine
 10
44.207493
 20
0.050084
 30
0.0
 11
44.203743
 21
0.050576
 31
0.0
  0
LINE
  5
7CE
330
1F
100
AcDbEntity
  8
1
  6
CONTINUOUS
370
50
 62
4
100
AcDbLine
 10
44.265247
 20
-0.099328
 30
0.0
 11
44.251755
 21
-0.097562
 31
0.0
  0
LINE
  5
7CF
330
1F
100
AcDbEntity
  8
1
  6
CONTINUOUS
370
50
 62
4
100
AcDbLine
 10
44.481522
 20
0.052882
 30
0.0
 11
44.473351
 21
0.053942
 31
0.0
  0
LINE
  5
7D0
330
1F
100
AcDbEntity
  8
1
  6
CONTINUOUS
370
50
 62
4
100
AcDbLine
 10
44.151958
 20
-0.089013
 30
0.0
 11
44.146271
 21
-0.088281
 31
0.0
  0
LINE
  5
7D1
330
1F
100
AcDbEntity
  8
1
  6
CONTINUOUS
370
50
 62
4
100
AcDbLine
 10
44.145954
 20
0.097929
 30
0.0
 11
44.143387
 21
0.098257
 31
0.0
  0
LINE
  5
7D2
330
1F
100
AcDbEntity
  8
1
  6
CONTINUOUS
370
50
 62
4
100
AcDbLine
 10
44.522911
 20
0.048251
 30
0.0
 11
44.506615
 21
0.050329
 31
0.0
  0
LINE
  5
7D3
330
1F
100
AcDbEntity
  8
1
  6
CONTINUOUS
370
50
 62
4
100
AcDbLine
 10
44.853893
 20
0.054075
 30
0.0
 11
44.847179
 21
0.054921
 31
0.0
  0
LINE
  5
7D4
330
1F
100
AcDbEntity
  8
1
  6
CONTINUOUS
370
50
 62
4
100
AcDbLine
 10
44.143387
 20
0.098257
 30
0.0
 11
44.140862
 21
0.098568
 31
0.0
  0
LINE
  5
7D5
330
1F
100
AcDbEntity
  8
1
  6
CONTINUOUS
370
50
 62
4
100
AcDbLine
 10
44.19141
 20
0.091774
 30
0.0
 11
44.183113
 21
0.092777
 31
0.0
  0
LINE
  5
7D6
330
1F
100
AcDbEntity
  8
1
  6
CONTINUOUS
370
50
 62
4
100
AcDbLine
 10
44.506615
 20
0.050329
 30
0.0
 11
44.504265
 21
0.050608
 31
0.0
  0
LINE
  5
7D7
330
1F
100
AcDbEntity
  8
1
  6
CONTINUOUS
370
50
 62
4
100
AcDbLine
 10
44.140862
 20
0.098568
 30
0.0
 11
44.138378
 21
0.098858
 31
0.0
  0
LINE
  5
7D8
330
1F
100
AcDbEntity
  8
1
  6
CONTINUOUS
370
50
 62
4
100
AcDbLine
 10
44.860477
 20
0.053308
 30
0.0
 11
44.853893
 21
0.054075
 31
0.0
  0
LINE
  5
7D9
330
1F
100
AcDbEntity
  8
1
  6
CONTINUOUS
370
50
 62
4
100
AcDbLine
 10
44.955849
 20
0.049718
 30
0.0
 11
44.955341
 21
0.049777
 31
0.0
  0
LINE
  5
7DA
330
1F
100
AcDbEntity
  8
1
  6
CONTINUOUS
370
50
 62
4
100
AcDbLine
 10
44.580685
 20
0.050445
 30
0.0
 11
44.57238
 21
0.051399
 31
0.0
  0
LINE
  5
7DB
330
1F
100
AcDbEntity
  8
1
  6
CONTINUOUS
370
50
 62
4
100
AcDbLine
 10
44.504265
 20
0.050608
 30
0.0
 11
44.501911
 21
0.050873
 31
0.0
  0
LINE
  5
7DC
330
1F
100
AcDbEntity
  8
1
  6
CONTINUOUS
370
50
 62
4
100
AcDbLine
 10
44.138378
 20
0.098858
 30
0.0
 11
44.135952
 21
0.099123
 31
0.0
  0
LINE
  5
7DD
330
1F
100
AcDbEntity
  8
1
  6
CONTINUOUS
370
50
 62
4
100
AcDbLine
 10
44.86380399999999
 20
0.052945
 30
0.0
 11
44.860477
 21
0.053308
 31
0.0
  0
LINE
  5
7DE
330
1F
100
AcDbEntity
  8
1
  6
CONTINUOUS
370
50
 62
4
100
AcDbLine
 10
44.15770699999999
 20
-0.089631
 30
0.0
 11
44.151958
 21
-0.089013
 31
0.0
  0
LINE
  5
7DF
330
1F
100
AcDbEntity
  8
1
  6
CONTINUOUS
370
50
 62
4
100
AcDbLine
 10
44.501911
 20
0.050873
 30
0.0
 11
44.499557
 21
0.051124
 31
0.0
  0
LINE
  5
7E0
330
1F
100
AcDbEntity
  8
1
  6
CONTINUOUS
370
50
 62
4
100
AcDbLine
 10
44.200001
 20
0.090867
 30
0.0
 11
44.19141
 21
0.091774
 31
0.0
  0
LINE
  5
7E1
330
1F
100
AcDbEntity
  8
1
  6
CONTINUOUS
370
50
 62
4
100
AcDbLine
 10
44.500305
 20
0.051205
 30
0.0
 11
44.493999
 21
0.05187
 31
0.0
  0
LINE
  5
7E2
330
1F
100
AcDbEntity
  8
1
  6
CONTINUOUS
370
50
 62
4
100
AcDbLine
 10
44.618561
 20
-0.09989
 30
0.0
 11
44.603237
 21
-0.098314
 31
0.0
  0
LINE
  5
7E3
330
1F
100
AcDbEntity
  8
1
  6
CONTINUOUS
370
50
 62
4
100
AcDbLine
 10
44.870171
 20
0.052301
 30
0.0
 11
44.86380399999999
 21
0.052945
 31
0.0
  0
LINE
  5
7E4
330
1F
100
AcDbEntity
  8
1
  6
CONTINUOUS
370
50
 62
4
100
AcDbLine
 10
44.881912
 20
0.051181
 30
0.0
 11
44.876369
 21
0.05174
 31
0.0
  0
LINE
  5
7E5
330
1F
100
AcDbEntity
  8
1
  6
CONTINUOUS
370
50
 62
4
100
AcDbLine
 10
44.811958
 20
-0.050815
 30
0.0
 11
44.803551
 21
-0.049968
 31
0.0
  0
LINE
  5
7E6
330
1F
100
AcDbEntity
  8
1
  6
CONTINUOUS
370
50
 62
4
100
AcDbLine
 10
44.492496
 20
0.051785
 30
0.0
 11
44.481522
 21
0.052882
 31
0.0
  0
LINE
  5
7E7
330
1F
100
AcDbEntity
  8
1
  6
CONTINUOUS
370
50
 62
4
100
AcDbLine
 10
44.499557
 20
0.051124
 30
0.0
 11
44.497204
 21
0.051359
 31
0.0
  0
LINE
  5
7E8
330
1F
100
AcDbEntity
  8
1
  6
CONTINUOUS
370
50
 62
4
100
AcDbLine
 10
44.135952
 20
0.099123
 30
0.0
 11
44.13358299999999
 21
0.099359
 31
0.0
  0
LINE
  5
7E9
330
1F
100
AcDbEntity
  8
1
  6
CONTINUOUS
370
50
 62
4
100
AcDbLine
 10
44.667305
 20
0.098769
 30
0.0
 11
44.660656
 21
0.099429
 31
0.0
  0
LINE
  5
7EA
330
1F
100
AcDbEntity
  8
1
  6
CONTINUOUS
370
50
 62
4
100
AcDbLine
 10
44.94682299999999
 20
0.051215
 30
0.0
 11
44.94097499999999
 21
0.051795
 31
0.0
  0
LINE
  5
7EB
330
1F
100
AcDbEntity
  8
1
  6
CONTINUOUS
370
50
 62
4
100
AcDbLine
 10
44.969189
 20
0.086962
 30
0.0
 11
44.967518
 21
0.087127
 31
0.0
  0
LINE
  5
7EC
330
1F
100
AcDbEntity
  8
1
  6
CONTINUOUS
370
50
 62
4
100
AcDbLine
 10
44.275848
 20
0.081207
 30
0.0
 11
44.26321
 21
0.082452
 31
0.0
  0
LINE
  5
7ED
330
1F
100
AcDbEntity
  8
1
  6
CONTINUOUS
370
50
 62
4
100
AcDbLine
 10
44.497204
 20
0.051359
 30
0.0
 11
44.49485
 21
0.05158
 31
0.0
  0
LINE
  5
7EE
330
1F
100
AcDbEntity
  8
1
  6
CONTINUOUS
370
50
 62
4
100
AcDbLine
 10
44.24225999999999
 20
-0.099518
 30
0.0
 11
44.233894
 21
-0.098751
 31
0.0
  0
LINE
  5
7EF
330
1F
100
AcDbEntity
  8
1
  6
CONTINUOUS
370
50
 62
4
100
AcDbLine
 10
44.876369
 20
0.05174
 30
0.0
 11
44.870171
 21
0.052301
 31
0.0
  0
LINE
  5
7F0
330
1F
100
AcDbEntity
  8
1
  6
CONTINUOUS
370
50
 62
4
100
AcDbLine
 10
44.13358299999999
 20
0.099359
 30
0.0
 11
44.131279
 21
0.099561
 31
0.0
  0
LINE
  5
7F1
330
1F
100
AcDbEntity
  8
1
  6
CONTINUOUS
370
50
 62
4
100
AcDbLine
 10
44.49485
 20
0.05158
 30
0.0
 11
44.492496
 21
0.051785
 31
0.0
  0
LINE
  5
7F2
330
1F
100
AcDbEntity
  8
1
  6
CONTINUOUS
370
50
 62
4
100
AcDbLine
 10
44.203743
 20
0.050576
 30
0.0
 11
44.200001
 21
0.050901
 31
0.0
  0
LINE
  5
7F3
330
1F
100
AcDbEntity
  8
1
  6
CONTINUOUS
370
50
 62
4
100
AcDbLine
 10
44.99406099999999
 20
0.04175
 30
0.0
 11
44.987995
 21
0.042258
 31
0.0
  0
LINE
  5
7F4
330
1F
100
AcDbEntity
  8
1
  6
CONTINUOUS
370
50
 62
4
100
AcDbLine
 10
44.493999
 20
0.05187
 30
0.0
 11
44.487694
 21
0.052392
 31
0.0
  0
LINE
  5
7F5
330
1F
100
AcDbEntity
  8
1
  6
CONTINUOUS
370
50
 62
4
100
AcDbLine
 10
44.460594
 20
-0.052708
 30
0.0
 11
44.454273
 21
-0.052185
 31
0.0
  0
LINE
  5
7F6
330
1F
100
AcDbEntity
  8
1
  6
CONTINUOUS
370
50
 62
4
100
AcDbLine
 10
44.987995
 20
0.042258
 30
0.0
 11
44.981686
 21
0.04278
 31
0.0
  0
LINE
  5
7F7
330
1F
100
AcDbEntity
  8
1
  6
CONTINUOUS
370
50
 62
4
100
AcDbLine
 10
44.290619
 20
0.099268
 30
0.0
 11
44.28437
 21
0.09978
 31
0.0
  0
LINE
  5
7F8
330
1F
100
AcDbEntity
  8
1
  6
CONTINUOUS
370
50
 62
4
100
AcDbLine
 10
44.981686
 20
0.04278
 30
0.0
 11
44.975174
 21
0.043308
 31
0.0
  0
LINE
  5
7F9
330
1F
100
AcDbEntity
  8
1
  6
CONTINUOUS
370
50
 62
4
100
AcDbLine
 10
44.57238
 20
0.051399
 30
0.0
 11
44.564075
 21
0.052066
 31
0.0
  0
LINE
  5
7FA
330
1F
100
AcDbEntity
  8
1
  6
CONTINUOUS
370
50
 62
4
100
AcDbLine
 10
44.975174
 20
0.043308
 30
0.0
 11
44.968498
 21
0.043839
 31
0.0
  0
LINE
  5
7FB
330
1F
100
AcDbEntity
  8
1
  6
CONTINUOUS
370
50
 62
4
100
AcDbLine
 10
44.94097499999999
 20
0.051795
 30
0.0
 11
44.935123
 21
0.052252
 31
0.0
  0
LINE
  5
7FC
330
1F
100
AcDbEntity
  8
1
  6
CONTINUOUS
370
50
 62
4
100
AcDbLine
 10
44.968498
 20
0.043839
 30
0.0
 11
44.961697
 21
0.044368
 31
0.0
  0
LINE
  5
7FD
330
1F
100
AcDbEntity
  8
1
  6
CONTINUOUS
370
50
 62
4
100
AcDbLine
 10
44.820377
 20
-0.051461
 30
0.0
 11
44.811958
 21
-0.050815
 31
0.0
  0
LINE
  5
7FE
330
1F
100
AcDbEntity
  8
1
  6
CONTINUOUS
370
50
 62
4
100
AcDbLine
 10
44.961697
 20
0.044368
 30
0.0
 11
44.954807
 21
0.044889
 31
0.0
  0
LINE
  5
7FF
330
1F
100
AcDbEntity
  8
1
  6
CONTINUOUS
370
50
 62
4
100
AcDbLine
 10
44.954807
 20
0.044889
 30
0.0
 11
44.947861
 21
0.045409
 31
0.0
  0
LINE
  5
800
330
1F
100
AcDbEntity
  8
1
  6
CONTINUOUS
370
50
 62
4
100
AcDbLine
 10
45.0
 20
-0.099985
 30
0.0
 11
44.978603
 21
-0.098384
 31
0.0
  0
LINE
  5
801
330
1F
100
AcDbEntity
  8
1
  6
CONTINUOUS
370
50
 62
4
100
AcDbLine
 10
44.131279
 20
0.099561
 30
0.0
 11
44.129047
 21
0.099725
 31
0.0
  0
LINE
  5
802
330
1F
100
AcDbEntity
  8
1
  6
CONTINUOUS
370
50
 62
4
100
AcDbLine
 10
44.641956
 20
0.081746
 30
0.0
 11
44.62978
 21
0.08261
 31
0.0
  0
LINE
  5
803
330
1F
100
AcDbEntity
  8
1
  6
CONTINUOUS
370
50
 62
4
100
AcDbLine
 10
44.967518
 20
0.087127
 30
0.0
 11
44.965839
 21
0.087243
 31
0.0
  0
LINE
  5
804
330
1F
100
AcDbEntity
  8
1
  6
CONTINUOUS
370
50
 62
4
100
AcDbLine
 10
44.160046
 20
-0.089787
 30
0.0
 11
44.15770699999999
 21
-0.089631
 31
0.0
  0
LINE
  5
805
330
1F
100
AcDbEntity
  8
1
  6
CONTINUOUS
370
50
 62
4
100
AcDbLine
 10
44.660656
 20
0.099429
 30
0.0
 11
44.653969
 21
0.099835
 31
0.0
  0
LINE
  5
806
330
1F
100
AcDbEntity
  8
1
  6
CONTINUOUS
370
50
 62
4
100
AcDbLine
 10
44.644558
 20
0.098332
 30
0.0
 11
44.618561
 21
0.09989
 31
0.0
  0
LINE
  5
807
330
1F
100
AcDbEntity
  8
1
  6
CONTINUOUS
370
50
 62
4
100
AcDbLine
 10
44.487694
 20
0.052392
 30
0.0
 11
44.481388
 21
0.052762
 31
0.0
  0
LINE
  5
808
330
1F
100
AcDbEntity
  8
1
  6
CONTINUOUS
370
50
 62
4
100
AcDbLine
 10
44.828922
 20
-0.051951
 30
0.0
 11
44.820377
 21
-0.051461
 31
0.0
  0
LINE
  5
809
330
1F
100
AcDbEntity
  8
1
  6
CONTINUOUS
370
50
 62
4
100
AcDbLine
 10
44.129047
 20
0.099725
 30
0.0
 11
44.126892
 21
0.099848
 31
0.0
  0
LINE
  5
80A
330
1F
100
AcDbEntity
  8
1
  6
CONTINUOUS
370
50
 62
4
100
AcDbLine
 10
44.935123
 20
0.052252
 30
0.0
 11
44.92927599999999
 21
0.052579
 31
0.0
  0
LINE
  5
80B
330
1F
100
AcDbEntity
  8
1
  6
CONTINUOUS
370
50
 62
4
100
AcDbLine
 10
44.277905
 20
-0.099943
 30
0.0
 11
44.265247
 21
-0.099328
 31
0.0
  0
LINE
  5
80C
330
1F
100
AcDbEntity
  8
1
  6
CONTINUOUS
370
50
 62
4
100
AcDbLine
 10
44.564075
 20
0.052066
 30
0.0
 11
44.555771
 21
0.052465
 31
0.0
  0
LINE
  5
80D
330
1F
100
AcDbEntity
  8
1
  6
CONTINUOUS
370
50
 62
4
100
AcDbLine
 10
45.0
 20
0.082582
 30
0.0
 11
44.997406
 21
0.082703
 31
0.0
  0
LINE
  5
80E
330
1F
100
AcDbEntity
  8
1
  6
CONTINUOUS
370
50
 62
4
100
AcDbLine
 10
44.162403
 20
-0.089896
 30
0.0
 11
44.160046
 21
-0.089787
 31
0.0
  0
LINE
  5
80F
330
1F
100
AcDbEntity
  8
1
  6
CONTINUOUS
370
50
 62
4
100
AcDbLine
 10
44.250195
 20
-0.099877
 30
0.0
 11
44.24225999999999
 21
-0.099518
 31
0.0
  0
LINE
  5
810
330
1F
100
AcDbEntity
  8
1
  6
CONTINUOUS
370
50
 62
4
100
AcDbLine
 10
44.965839
 20
0.087243
 30
0.0
 11
44.964157
 21
0.087311
 31
0.0
  0
LINE
  5
811
330
1F
100
AcDbEntity
  8
1
  6
CONTINUOUS
370
50
 62
4
100
AcDbLine
 10
44.837742
 20
-0.052307
 30
0.0
 11
44.828922
 21
-0.051951
 31
0.0
  0
LINE
  5
812
330
1F
100
AcDbEntity
  8
1
  6
CONTINUOUS
370
50
 62
4
100
AcDbLine
 10
44.126892
 20
0.099848
 30
0.0
 11
44.124828
 21
0.099924
 31
0.0
  0
LINE
  5
813
330
1F
100
AcDbEntity
  8
1
  6
CONTINUOUS
370
50
 62
4
100
AcDbLine
 10
44.9571
 20
0.049672
 30
0.0
 11
44.955849
 21
0.049718
 31
0.0
  0
LINE
  5
814
330
1F
100
AcDbEntity
  8
1
  6
CONTINUOUS
370
50
 62
4
100
AcDbLine
 10
44.467045
 20
-0.052934
 30
0.0
 11
44.460594
 21
-0.052708
 31
0.0
  0
LINE
  5
815
330
1F
100
AcDbEntity
  8
1
  6
CONTINUOUS
370
50
 62
4
100
AcDbLine
 10
44.26659
 20
0.099333
 30
0.0
 11
44.250195
 21
0.099877
 31
0.0
  0
LINE
  5
816
330
1F
100
AcDbEntity
  8
1
  6
CONTINUOUS
370
50
 62
4
100
AcDbLine
 10
44.481388
 20
0.052762
 30
0.0
 11
44.475082
 21
0.052968
 31
0.0
  0
LINE
  5
817
330
1F
100
AcDbEntity
  8
1
  6
CONTINUOUS
370
50
 62
4
100
AcDbLine
 10
44.92927599999999
 20
0.052579
 30
0.0
 11
44.923428
 21
0.052767
 31
0.0
  0
LINE
  5
818
330
1F
100
AcDbEntity
  8
1
  6
CONTINUOUS
370
50
 62
4
100
AcDbLine
 10
44.164772
 20
-0.08996
 30
0.0
 11
44.162403
 21
-0.089896
 31
0.0
  0
LINE
  5
819
330
1F
100
AcDbEntity
  8
1
  6
CONTINUOUS
370
50
 62
4
100
AcDbLine
 10
44.28437
 20
0.09978
 30
0.0
 11
44.277905
 21
0.099943
 31
0.0
  0
LINE
  5
81A
330
1F
100
AcDbEntity
  8
1
  6
CONTINUOUS
370
50
 62
4
100
AcDbLine
 10
44.846581
 20
-0.052517
 30
0.0
 11
44.837742
 21
-0.052307
 31
0.0
  0
LINE
  5
81B
330
1F
100
AcDbEntity
  8
1
  6
CONTINUOUS
370
50
 62
4
100
AcDbLine
 10
44.26321
 20
0.082452
 30
0.0
 11
44.250568
 21
0.082704
 31
0.0
  0
LINE
  5
81C
330
1F
100
AcDbEntity
  8
1
  6
CONTINUOUS
370
50
 62
4
100
AcDbLine
 10
44.555771
 20
0.052465
 30
0.0
 11
44.547466
 21
0.052614
 31
0.0
  0
LINE
  5
81D
330
1F
100
AcDbEntity
  8
1
  6
CONTINUOUS
370
50
 62
4
100
AcDbLine
 10
44.467621
 20
-0.052989
 30
0.0
 11
44.467331
 21
-0.052984
 31
0.0
  0
LINE
  5
81E
330
1F
100
AcDbEntity
  8
1
  6
CONTINUOUS
370
50
 62
4
100
AcDbLine
 10
44.964157
 20
0.087311
 30
0.0
 11
44.96247899999999
 21
0.087336
 31
0.0
  0
LINE
  5
81F
330
1F
100
AcDbEntity
  8
1
  6
CONTINUOUS
370
50
 62
4
100
AcDbLine
 10
44.653904
 20
-0.099838
 30
0.0
 11
44.636211
 21
-0.099579
 31
0.0
  0
LINE
  5
820
330
1F
100
AcDbEntity
  8
1
  6
CONTINUOUS
370
50
 62
4
100
AcDbLine
 10
44.468201
 20
-0.052996
 30
0.0
 11
44.467911
 21
-0.052992
 31
0.0
  0
LINE
  5
821
330
1F
100
AcDbEntity
  8
1
  6
CONTINUOUS
370
50
 62
4
100
AcDbLine
 10
44.124828
 20
0.099924
 30
0.0
 11
44.12289
 21
0.099949
 31
0.0
  0
LINE
  5
822
330
1F
100
AcDbEntity
  8
1
  6
CONTINUOUS
370
50
 62
4
100
AcDbLine
 10
44.468487
 20
-0.052999
 30
0.0
 11
44.468201
 21
-0.052996
 31
0.0
  0
LINE
  5
823
330
1F
100
AcDbEntity
  8
1
  6
CONTINUOUS
370
50
 62
4
100
AcDbLine
 10
44.468777
 20
-0.053002
 30
0.0
 11
44.468487
 21
-0.052999
 31
0.0
  0
LINE
  5
824
330
1F
100
AcDbEntity
  8
1
  6
CONTINUOUS
370
50
 62
4
100
AcDbLine
 10
44.467911
 20
-0.052992
 30
0.0
 11
44.467621
 21
-0.052989
 31
0.0
  0
LINE
  5
825
330
1F
100
AcDbEntity
  8
1
  6
CONTINUOUS
370
50
 62
4
100
AcDbLine
 10
44.52721
 20
0.052681
 30
0.0
 11
44.517639
 21
0.052765
 31
0.0
  0
LINE
  5
826
330
1F
100
AcDbEntity
  8
1
  6
CONTINUOUS
370
50
 62
4
100
AcDbLine
 10
44.533516
 20
0.052627
 30
0.0
 11
44.52721
 21
0.052681
 31
0.0
  0
LINE
  5
827
330
1F
100
AcDbEntity
  8
1
  6
CONTINUOUS
370
50
 62
4
100
AcDbLine
 10
44.517639
 20
0.052765
 30
0.0
 11
44.506847
 21
0.052854
 31
0.0
  0
LINE
  5
828
330
1F
100
AcDbEntity
  8
1
  6
CONTINUOUS
370
50
 62
4
100
AcDbLine
 10
44.540531
 20
0.05257
 30
0.0
 11
44.533516
 21
0.052627
 31
0.0
  0
LINE
  5
829
330
1F
100
AcDbEntity
  8
1
  6
CONTINUOUS
370
50
 62
4
100
AcDbLine
 10
44.167141
 20
-0.089978
 30
0.0
 11
44.164772
 21
-0.08996
 31
0.0
  0
LINE
  5
82A
330
1F
100
AcDbEntity
  8
1
  6
CONTINUOUS
370
50
 62
4
100
AcDbLine
 10
44.54747
 20
0.052518
 30
0.0
 11
44.540531
 21
0.05257
 31
0.0
  0
LINE
  5
82B
330
1F
100
AcDbEntity
  8
1
  6
CONTINUOUS
370
50
 62
4
100
AcDbLine
 10
44.923428
 20
0.052767
 30
0.0
 11
44.917576
 21
0.052809
 31
0.0
  0
LINE
  5
82C
330
1F
100
AcDbEntity
  8
1
  6
CONTINUOUS
370
50
 62
4
100
AcDbLine
 10
44.506847
 20
0.052854
 30
0.0
 11
44.501743
 21
0.05289
 31
0.0
  0
LINE
  5
82D
330
1F
100
AcDbEntity
  8
1
  6
CONTINUOUS
370
50
 62
4
100
AcDbLine
 10
44.855202
 20
-0.052569
 30
0.0
 11
44.846581
 21
-0.052517
 31
0.0
  0
LINE
  5
82E
330
1F
100
AcDbEntity
  8
1
  6
CONTINUOUS
370
50
 62
4
100
AcDbLine
 10
44.501743
 20
0.05289
 30
0.0
 11
44.494385
 21
0.052934
 31
0.0
  0
LINE
  5
82F
330
1F
100
AcDbEntity
  8
1
  6
CONTINUOUS
370
50
 62
4
100
AcDbLine
 10
44.475082
 20
0.052968
 30
0.0
 11
44.468777
 21
0.053002
 31
0.0
  0
LINE
  5
830
330
1F
100
AcDbEntity
  8
1
  6
CONTINUOUS
370
50
 62
4
100
AcDbLine
 10
44.469986
 20
-0.052954
 30
0.0
 11
44.468784
 21
-0.052949
 31
0.0
  0
LINE
  5
831
330
1F
100
AcDbEntity
  8
1
  6
CONTINUOUS
370
50
 62
4
100
AcDbLine
 10
44.494385
 20
0.052934
 30
0.0
 11
44.487194
 21
0.052962
 31
0.0
  0
LINE
  5
832
330
1F
100
AcDbEntity
  8
1
  6
CONTINUOUS
370
50
 62
4
100
AcDbLine
 10
44.487194
 20
0.052962
 30
0.0
 11
44.485836
 21
0.052966
 31
0.0
  0
LINE
  5
833
330
1F
100
AcDbEntity
  8
1
  6
CONTINUOUS
370
50
 62
4
100
AcDbLine
 10
44.880444
 20
-0.052555
 30
0.0
 11
44.876068
 21
-0.052543
 31
0.0
  0
LINE
  5
834
330
1F
100
AcDbEntity
  8
1
  6
CONTINUOUS
370
50
 62
4
100
AcDbLine
 10
44.47836299999999
 20
-0.052973
 30
0.0
 11
44.469986
 21
-0.052954
 31
0.0
  0
LINE
  5
835
330
1F
100
AcDbEntity
  8
1
  6
CONTINUOUS
370
50
 62
4
100
AcDbLine
 10
44.876068
 20
-0.052543
 30
0.0
 11
44.872574
 21
-0.052538
 31
0.0
  0
LINE
  5
836
330
1F
100
AcDbEntity
  8
1
  6
CONTINUOUS
370
50
 62
4
100
AcDbLine
 10
44.485836
 20
0.052966
 30
0.0
 11
44.477745
 21
0.052973
 31
0.0
  0
LINE
  5
837
330
1F
100
AcDbEntity
  8
1
  6
CONTINUOUS
370
50
 62
4
100
AcDbLine
 10
44.872574
 20
-0.052538
 30
0.0
 11
44.869255
 21
-0.052536
 31
0.0
  0
LINE
  5
838
330
1F
100
AcDbEntity
  8
1
  6
CONTINUOUS
370
50
 62
4
100
AcDbLine
 10
44.27771
 20
-0.09991
 30
0.0
 11
44.253403
 21
-0.099907
 31
0.0
  0
LINE
  5
839
330
1F
100
AcDbEntity
  8
1
  6
CONTINUOUS
370
50
 62
4
100
AcDbLine
 10
44.647148
 20
-0.099956
 30
0.0
 11
44.62303199999999
 21
-0.099953
 31
0.0
  0
LINE
  5
83A
330
1F
100
AcDbEntity
  8
1
  6
CONTINUOUS
370
50
 62
4
100
AcDbLine
 10
43.799999
 20
-0.09995
 30
0.0
 11
44.12289
 21
-0.09995
 31
0.0
  0
LINE
  5
83B
330
1F
100
AcDbEntity
  8
1
  6
CONTINUOUS
370
50
 62
4
100
AcDbLine
 10
43.799999
 20
0.09995
 30
0.0
 11
44.12289
 21
0.09995
 31
0.0
  0
LINE
  5
83C
330
1F
100
AcDbEntity
  8
1
  6
CONTINUOUS
370
50
 62
4
100
AcDbLine
 10
44.253403
 20
0.099907
 30
0.0
 11
44.27771
 21
0.09991
 31
0.0
  0
LINE
  5
83D
330
1F
100
AcDbEntity
  8
1
  6
CONTINUOUS
370
50
 62
4
100
AcDbLine
 10
44.62303199999999
 20
0.099953
 30
0.0
 11
44.647163
 21
0.099956
 31
0.0
  0
LINE
  5
83E
330
1F
100
AcDbEntity
  8
1
  6
CONTINUOUS
370
50
 62
4
100
AcDbLine
 10
44.865795
 20
-0.052539
 30
0.0
 11
44.869255
 21
-0.052536
 31
0.0
  0
LINE
  5
83F
330
1F
100
AcDbEntity
  8
1
  6
CONTINUOUS
370
50
 62
4
100
AcDbLine
 10
44.914482
 20
0.052741
 30
0.0
 11
44.917583
 21
0.052744
 31
0.0
  0
LINE
  5
840
330
1F
100
AcDbEntity
  8
1
  6
CONTINUOUS
370
50
 62
4
100
AcDbLine
 10
44.47836299999999
 20
-0.052973
 30
0.0
 11
44.485989
 21
-0.052965
 31
0.0
  0
LINE
  5
841
330
1F
100
AcDbEntity
  8
1
  6
CONTINUOUS
370
50
 62
4
100
AcDbLine
 10
44.872211
 20
0.052538
 30
0.0
 11
44.881527
 21
0.052558
 31
0.0
  0
LINE
  5
842
330
1F
100
AcDbEntity
  8
1
  6
CONTINUOUS
370
50
 62
4
100
AcDbLine
 10
44.860725
 20
-0.052551
 30
0.0
 11
44.865795
 21
-0.052539
 31
0.0
  0
LINE
  5
843
330
1F
100
AcDbEntity
  8
1
  6
CONTINUOUS
370
50
 62
4
100
AcDbLine
 10
44.469925
 20
0.052954
 30
0.0
 11
44.477745
 21
0.052973
 31
0.0
  0
LINE
  5
844
330
1F
100
AcDbEntity
  8
1
  6
CONTINUOUS
370
50
 62
4
100
AcDbLine
 10
44.485989
 20
-0.052965
 30
0.0
 11
44.487633
 21
-0.052961
 31
0.0
  0
LINE
  5
845
330
1F
100
AcDbEntity
  8
1
  6
CONTINUOUS
370
50
 62
4
100
AcDbLine
 10
44.906986
 20
0.052717
 30
0.0
 11
44.914482
 21
0.052741
 31
0.0
  0
LINE
  5
846
330
1F
100
AcDbEntity
  8
1
  6
CONTINUOUS
370
50
 62
4
100
AcDbLine
 10
44.855202
 20
-0.052569
 30
0.0
 11
44.860725
 21
-0.052551
 31
0.0
  0
LINE
  5
847
330
1F
100
AcDbEntity
  8
1
  6
CONTINUOUS
370
50
 62
4
100
AcDbLine
 10
44.881527
 20
0.052558
 30
0.0
 11
44.883827
 21
0.052567
 31
0.0
  0
LINE
  5
848
330
1F
100
AcDbEntity
  8
1
  6
CONTINUOUS
370
50
 62
4
100
AcDbLine
 10
44.617603
 20
0.082558
 30
0.0
 11
44.62978
 21
0.08261
 31
0.0
  0
LINE
  5
849
330
1F
100
AcDbEntity
  8
1
  6
CONTINUOUS
370
50
 62
4
100
AcDbLine
 10
44.487633
 20
-0.052961
 30
0.0
 11
44.49578899999999
 21
-0.052926
 31
0.0
  0
LINE
  5
84A
330
1F
100
AcDbEntity
  8
1
  6
CONTINUOUS
370
50
 62
4
100
AcDbLine
 10
44.468784
 20
0.052949
 30
0.0
 11
44.469925
 21
0.052954
 31
0.0
  0
LINE
  5
84B
330
1F
100
AcDbEntity
  8
1
  6
CONTINUOUS
370
50
 62
4
100
AcDbLine
 10
44.883827
 20
0.052567
 30
0.0
 11
44.8899
 21
0.052598
 31
0.0
  0
LINE
  5
84C
330
1F
100
AcDbEntity
  8
1
  6
CONTINUOUS
370
50
 62
4
100
AcDbLine
 10
44.49578899999999
 20
-0.052926
 30
0.0
 11
44.50288
 21
-0.052883
 31
0.0
  0
LINE
  5
84D
330
1F
100
AcDbEntity
  8
1
  6
CONTINUOUS
370
50
 62
4
100
AcDbLine
 10
44.900513
 20
0.052675
 30
0.0
 11
44.906986
 21
0.052717
 31
0.0
  0
LINE
  5
84E
330
1F
100
AcDbEntity
  8
1
  6
CONTINUOUS
370
50
 62
4
100
AcDbLine
 10
44.8899
 20
0.052598
 30
0.0
 11
44.898148
 21
0.052656
 31
0.0
  0
LINE
  5
84F
330
1F
100
AcDbEntity
  8
1
  6
CONTINUOUS
370
50
 62
4
100
AcDbLine
 10
44.898148
 20
0.052656
 30
0.0
 11
44.900513
 21
0.052675
 31
0.0
  0
LINE
  5
850
330
1F
100
AcDbEntity
  8
1
  6
CONTINUOUS
370
50
 62
4
100
AcDbLine
 10
44.9608
 20
0.087319
 30
0.0
 11
44.96247899999999
 21
0.087336
 31
0.0
  0
LINE
  5
851
330
1F
100
AcDbEntity
  8
1
  6
CONTINUOUS
370
50
 62
4
100
AcDbLine
 10
44.467621
 20
0.052989
 30
0.0
 11
44.467911
 21
0.052992
 31
0.0
  0
LINE
  5
852
330
1F
100
AcDbEntity
  8
1
  6
CONTINUOUS
370
50
 62
4
100
AcDbLine
 10
44.468487
 20
0.052999
 30
0.0
 11
44.468777
 21
0.053002
 31
0.0
  0
LINE
  5
853
330
1F
100
AcDbEntity
  8
1
  6
CONTINUOUS
370
50
 62
4
100
AcDbLine
 10
44.468201
 20
0.052996
 30
0.0
 11
44.468487
 21
0.052999
 31
0.0
  0
LINE
  5
854
330
1F
100
AcDbEntity
  8
1
  6
CONTINUOUS
370
50
 62
4
100
AcDbLine
 10
44.167141
 20
-0.089978
 30
0.0
 11
44.169514
 21
-0.089952
 31
0.0
  0
LINE
  5
855
330
1F
100
AcDbEntity
  8
1
  6
CONTINUOUS
370
50
 62
4
100
AcDbLine
 10
44.12289
 20
-0.099949
 30
0.0
 11
44.124828
 21
-0.099924
 31
0.0
  0
LINE
  5
856
330
1F
100
AcDbEntity
  8
1
  6
CONTINUOUS
370
50
 62
4
100
AcDbLine
 10
44.12125
 20
0.099927
 30
0.0
 11
44.12289
 21
0.099949
 31
0.0
  0
LINE
  5
857
330
1F
100
AcDbEntity
  8
1
  6
CONTINUOUS
370
50
 62
4
100
AcDbLine
 10
44.467911
 20
0.052992
 30
0.0
 11
44.468201
 21
0.052996
 31
0.0
  0
LINE
  5
858
330
1F
100
AcDbEntity
  8
1
  6
CONTINUOUS
370
50
 62
4
100
AcDbLine
 10
44.467331
 20
0.052984
 30
0.0
 11
44.467621
 21
0.052989
 31
0.0
  0
LINE
  5
859
330
1F
100
AcDbEntity
  8
1
  6
CONTINUOUS
370
50
 62
4
100
AcDbLine
 10
44.277905
 20
-0.099943
 30
0.0
 11
44.28437
 21
-0.09978
 31
0.0
  0
LINE
  5
85A
330
1F
100
AcDbEntity
  8
1
  6
CONTINUOUS
370
50
 62
4
100
AcDbLine
 10
44.169514
 20
-0.089952
 30
0.0
 11
44.171875
 21
-0.08988
 31
0.0
  0
LINE
  5
85B
330
1F
100
AcDbEntity
  8
1
  6
CONTINUOUS
370
50
 62
4
100
AcDbLine
 10
44.959137
 20
0.087264
 30
0.0
 11
44.9608
 21
0.087319
 31
0.0
  0
LINE
  5
85C
330
1F
100
AcDbEntity
  8
1
  6
CONTINUOUS
370
50
 62
4
100
AcDbLine
 10
44.994808
 20
0.082615
 30
0.0
 11
44.997406
 21
0.082703
 31
0.0
  0
LINE
  5
85D
330
1F
100
AcDbEntity
  8
1
  6
CONTINUOUS
370
50
 62
4
100
AcDbLine
 10
44.124828
 20
-0.099924
 30
0.0
 11
44.126892
 21
-0.099848
 31
0.0
  0
LINE
  5
85E
330
1F
100
AcDbEntity
  8
1
  6
CONTINUOUS
370
50
 62
4
100
AcDbLine
 10
44.119717
 20
0.099862
 30
0.0
 11
44.12125
 21
0.099927
 31
0.0
  0
LINE
  5
85F
330
1F
100
AcDbEntity
  8
1
  6
CONTINUOUS
370
50
 62
4
100
AcDbLine
 10
44.24225999999999
 20
0.099518
 30
0.0
 11
44.250195
 21
0.099877
 31
0.0
  0
LINE
  5
860
330
1F
100
AcDbEntity
  8
1
  6
CONTINUOUS
370
50
 62
4
100
AcDbLine
 10
44.992214
 20
0.082492
 30
0.0
 11
44.994808
 21
0.082615
 31
0.0
  0
LINE
  5
861
330
1F
100
AcDbEntity
  8
1
  6
CONTINUOUS
370
50
 62
4
100
AcDbLine
 10
44.171875
 20
-0.08988
 30
0.0
 11
44.174221
 21
-0.089765
 31
0.0
  0
LINE
  5
862
330
1F
100
AcDbEntity
  8
1
  6
CONTINUOUS
370
50
 62
4
100
AcDbLine
 10
44.23793
 20
0.082081
 30
0.0
 11
44.250568
 21
0.082704
 31
0.0
  0
LINE
  5
863
330
1F
100
AcDbEntity
  8
1
  6
CONTINUOUS
370
50
 62
4
100
AcDbLine
 10
44.126892
 20
-0.099848
 30
0.0
 11
44.129047
 21
-0.099725
 31
0.0
  0
LINE
  5
864
330
1F
100
AcDbEntity
  8
1
  6
CONTINUOUS
370
50
 62
4
100
AcDbLine
 10
44.98962
 20
0.082336
 30
0.0
 11
44.992214
 21
0.082492
 31
0.0
  0
LINE
  5
865
330
1F
100
AcDbEntity
  8
1
  6
CONTINUOUS
370
50
 62
4
100
AcDbLine
 10
44.653904
 20
-0.099838
 30
0.0
 11
44.66060299999999
 21
-0.099433
 31
0.0
  0
LINE
  5
866
330
1F
100
AcDbEntity
  8
1
  6
CONTINUOUS
370
50
 62
4
100
AcDbLine
 10
44.174221
 20
-0.089765
 30
0.0
 11
44.176514
 21
-0.089607
 31
0.0
  0
LINE
  5
867
330
1F
100
AcDbEntity
  8
1
  6
CONTINUOUS
370
50
 62
4
100
AcDbLine
 10
44.987022
 20
0.082148
 30
0.0
 11
44.98962
 21
0.082336
 31
0.0
  0
LINE
  5
868
330
1F
100
AcDbEntity
  8
1
  6
CONTINUOUS
370
50
 62
4
100
AcDbLine
 10
44.129047
 20
-0.099725
 30
0.0
 11
44.131279
 21
-0.099561
 31
0.0
  0
LINE
  5
869
330
1F
100
AcDbEntity
  8
1
  6
CONTINUOUS
370
50
 62
4
100
AcDbLine
 10
44.118298
 20
0.099754
 30
0.0
 11
44.119717
 21
0.099862
 31
0.0
  0
LINE
  5
86A
330
1F
100
AcDbEntity
  8
1
  6
CONTINUOUS
370
50
 62
4
100
AcDbLine
 10
44.977016
 20
0.098165
 30
0.0
 11
45.0
 21
0.099985
 31
0.0
  0
LINE
  5
86B
330
1F
100
AcDbEntity
  8
1
  6
CONTINUOUS
370
50
 62
4
100
AcDbLine
 10
44.28437
 20
-0.09978
 30
0.0
 11
44.290619
 21
-0.099268
 31
0.0
  0
LINE
  5
86C
330
1F
100
AcDbEntity
  8
1
  6
CONTINUOUS
370
50
 62
4
100
AcDbLine
 10
44.605431
 20
0.081493
 30
0.0
 11
44.617603
 21
0.082558
 31
0.0
  0
LINE
  5
86D
330
1F
100
AcDbEntity
  8
1
  6
CONTINUOUS
370
50
 62
4
100
AcDbLine
 10
44.131279
 20
-0.099561
 30
0.0
 11
44.13358299999999
 21
-0.099359
 31
0.0
  0
LINE
  5
86E
330
1F
100
AcDbEntity
  8
1
  6
CONTINUOUS
370
50
 62
4
100
AcDbLine
 10
44.176514
 20
-0.089607
 30
0.0
 11
44.178749
 21
-0.089408
 31
0.0
  0
LINE
  5
86F
330
1F
100
AcDbEntity
  8
1
  6
CONTINUOUS
370
50
 62
4
100
AcDbLine
 10
44.9571
 20
0.049672
 30
0.0
 11
44.958271
 21
0.049778
 31
0.0
  0
LINE
  5
870
330
1F
100
AcDbEntity
  8
1
  6
CONTINUOUS
370
50
 62
4
100
AcDbLine
 10
44.233894
 20
0.098751
 30
0.0
 11
44.24225999999999
 21
0.099518
 31
0.0
  0
LINE
  5
871
330
1F
100
AcDbEntity
  8
1
  6
CONTINUOUS
370
50
 62
4
100
AcDbLine
 10
44.66060299999999
 20
-0.099433
 30
0.0
 11
44.667263
 21
-0.098774
 31
0.0
  0
LINE
  5
872
330
1F
100
AcDbEntity
  8
1
  6
CONTINUOUS
370
50
 62
4
100
AcDbLine
 10
44.13358299999999
 20
-0.099359
 30
0.0
 11
44.135952
 21
-0.099123
 31
0.0
  0
LINE
  5
873
330
1F
100
AcDbEntity
  8
1
  6
CONTINUOUS
370
50
 62
4
100
AcDbLine
 10
44.864071
 20
-0.052917
 30
0.0
 11
44.870628
 21
-0.052257
 31
0.0
  0
LINE
  5
874
330
1F
100
AcDbEntity
  8
1
  6
CONTINUOUS
370
50
 62
4
100
AcDbLine
 10
44.602875
 20
0.098249
 30
0.0
 11
44.618561
 21
0.09989
 31
0.0
  0
LINE
  5
875
330
1F
100
AcDbEntity
  8
1
  6
CONTINUOUS
370
50
 62
4
100
AcDbLine
 10
44.19141
 20
-0.091774
 30
0.0
 11
44.200001
 21
-0.090867
 31
0.0
  0
LINE
  5
876
330
1F
100
AcDbEntity
  8
1
  6
CONTINUOUS
370
50
 62
4
100
AcDbLine
 10
44.860744
 20
-0.053278
 30
0.0
 11
44.864071
 21
-0.052917
 31
0.0
  0
LINE
  5
877
330
1F
100
AcDbEntity
  8
1
  6
CONTINUOUS
370
50
 62
4
100
AcDbLine
 10
44.984428
 20
0.081866
 30
0.0
 11
44.987022
 21
0.082148
 31
0.0
  0
LINE
  5
878
330
1F
100
AcDbEntity
  8
1
  6
CONTINUOUS
370
50
 62
4
100
AcDbLine
 10
44.135952
 20
-0.099123
 30
0.0
 11
44.138378
 21
-0.098858
 31
0.0
  0
LINE
  5
879
330
1F
100
AcDbEntity
  8
1
  6
CONTINUOUS
370
50
 62
4
100
AcDbLine
 10
44.225288
 20
0.0807
 30
0.0
 11
44.23793
 21
0.082081
 31
0.0
  0
LINE
  5
87A
330
1F
100
AcDbEntity
  8
1
  6
CONTINUOUS
370
50
 62
4
100
AcDbLine
 10
44.178749
 20
-0.089408
 30
0.0
 11
44.18092
 21
-0.089168
 31
0.0
  0
LINE
  5
87B
330
1F
100
AcDbEntity
  8
1
  6
CONTINUOUS
370
50
 62
4
100
AcDbLine
 10
44.116993
 20
0.099603
 30
0.0
 11
44.118298
 21
0.099754
 31
0.0
  0
LINE
  5
87C
330
1F
100
AcDbEntity
  8
1
  6
CONTINUOUS
370
50
 62
4
100
AcDbLine
 10
44.854355
 20
-0.054019
 30
0.0
 11
44.860744
 21
-0.053278
 31
0.0
  0
LINE
  5
87D
330
1F
100
AcDbEntity
  8
1
  6
CONTINUOUS
370
50
 62
4
100
AcDbLine
 10
44.138378
 20
-0.098858
 30
0.0
 11
44.140862
 21
-0.098568
 31
0.0
  0
LINE
  5
87E
330
1F
100
AcDbEntity
  8
1
  6
CONTINUOUS
370
50
 62
4
100
AcDbLine
 10
44.183113
 20
-0.092777
 30
0.0
 11
44.19141
 21
-0.091774
 31
0.0
  0
LINE
  5
87F
330
1F
100
AcDbEntity
  8
1
  6
CONTINUOUS
370
50
 62
4
100
AcDbLine
 10
44.140862
 20
-0.098568
 30
0.0
 11
44.143387
 21
-0.098257
 31
0.0
  0
LINE
  5
880
330
1F
100
AcDbEntity
  8
1
  6
CONTINUOUS
370
50
 62
4
100
AcDbLine
 10
44.847462
 20
-0.054884
 30
0.0
 11
44.854355
 21
-0.054019
 31
0.0
  0
LINE
  5
881
330
1F
100
AcDbEntity
  8
1
  6
CONTINUOUS
370
50
 62
4
100
AcDbLine
 10
44.143387
 20
-0.098257
 30
0.0
 11
44.145954
 21
-0.097929
 31
0.0
  0
LINE
  5
882
330
1F
100
AcDbEntity
  8
1
  6
CONTINUOUS
370
50
 62
4
100
AcDbLine
 10
44.175106
 20
-0.093838
 30
0.0
 11
44.183113
 21
-0.092777
 31
0.0
  0
LINE
  5
883
330
1F
100
AcDbEntity
  8
1
  6
CONTINUOUS
370
50
 62
4
100
AcDbLine
 10
44.18092
 20
-0.089168
 30
0.0
 11
44.183018
 21
-0.088889
 31
0.0
  0
LINE
  5
884
330
1F
100
AcDbEntity
  8
1
  6
CONTINUOUS
370
50
 62
4
100
AcDbLine
 10
44.843262
 20
-0.055444
 30
0.0
 11
44.847462
 21
-0.054884
 31
0.0
  0
LINE
  5
885
330
1F
100
AcDbEntity
  8
1
  6
CONTINUOUS
370
50
 62
4
100
AcDbLine
 10
44.145954
 20
-0.097929
 30
0.0
 11
44.152809
 21
-0.097003
 31
0.0
  0
LINE
  5
886
330
1F
100
AcDbEntity
  8
1
  6
CONTINUOUS
370
50
 62
4
100
AcDbLine
 10
44.667263
 20
-0.098774
 30
0.0
 11
44.673866
 21
-0.097871
 31
0.0
  0
LINE
  5
887
330
1F
100
AcDbEntity
  8
1
  6
CONTINUOUS
370
50
 62
4
100
AcDbLine
 10
44.22541
 20
0.097575
 30
0.0
 11
44.233894
 21
0.098751
 31
0.0
  0
LINE
  5
888
330
1F
100
AcDbEntity
  8
1
  6
CONTINUOUS
370
50
 62
4
100
AcDbLine
 10
44.47049699999999
 20
-0.054365
 30
0.0
 11
44.478683
 21
-0.053225
 31
0.0
  0
LINE
  5
889
330
1F
100
AcDbEntity
  8
1
  6
CONTINUOUS
370
50
 62
4
100
AcDbLine
 10
44.167385
 20
-0.094921
 30
0.0
 11
44.175106
 21
-0.093838
 31
0.0
  0
LINE
  5
88A
330
1F
100
AcDbEntity
  8
1
  6
CONTINUOUS
370
50
 62
4
100
AcDbLine
 10
44.290619
 20
-0.099268
 30
0.0
 11
44.296738
 21
-0.098409
 31
0.0
  0
LINE
  5
88B
330
1F
100
AcDbEntity
  8
1
  6
CONTINUOUS
370
50
 62
4
100
AcDbLine
 10
44.152809
 20
-0.097003
 30
0.0
 11
44.159954
 21
-0.095988
 31
0.0
  0
LINE
  5
88C
330
1F
100
AcDbEntity
  8
1
  6
CONTINUOUS
370
50
 62
4
100
AcDbLine
 10
44.159954
 20
-0.095988
 30
0.0
 11
44.167385
 21
-0.094921
 31
0.0
  0
LINE
  5
88D
330
1F
100
AcDbEntity
  8
1
  6
CONTINUOUS
370
50
 62
4
100
AcDbLine
 10
44.830956
 20
-0.057232
 30
0.0
 11
44.843262
 21
-0.055444
 31
0.0
  0
LINE
  5
88E
330
1F
100
AcDbEntity
  8
1
  6
CONTINUOUS
370
50
 62
4
100
AcDbLine
 10
44.183018
 20
-0.088889
 30
0.0
 11
44.18504
 21
-0.088571
 31
0.0
  0
LINE
  5
88F
330
1F
100
AcDbEntity
  8
1
  6
CONTINUOUS
370
50
 62
4
100
AcDbLine
 10
44.825218
 20
-0.058142
 30
0.0
 11
44.830956
 21
-0.057232
 31
0.0
  0
LINE
  5
890
330
1F
100
AcDbEntity
  8
1
  6
CONTINUOUS
370
50
 62
4
100
AcDbLine
 10
44.212643
 20
0.078643
 30
0.0
 11
44.225288
 21
0.0807
 31
0.0
  0
LINE
  5
891
330
1F
100
AcDbEntity
  8
1
  6
CONTINUOUS
370
50
 62
4
100
AcDbLine
 10
44.115803
 20
0.099409
 30
0.0
 11
44.116993
 21
0.099603
 31
0.0
  0
LINE
  5
892
330
1F
100
AcDbEntity
  8
1
  6
CONTINUOUS
370
50
 62
4
100
AcDbLine
 10
44.462543
 20
-0.0557
 30
0.0
 11
44.47049699999999
 21
-0.054365
 31
0.0
  0
LINE
  5
893
330
1F
100
AcDbEntity
  8
1
  6
CONTINUOUS
370
50
 62
4
100
AcDbLine
 10
44.814373
 20
-0.060013
 30
0.0
 11
44.825218
 21
-0.058142
 31
0.0
  0
LINE
  5
894
330
1F
100
AcDbEntity
  8
1
  6
CONTINUOUS
370
50
 62
4
100
AcDbLine
 10
44.59325399999999
 20
0.07938
 30
0.0
 11
44.605431
 21
0.081493
 31
0.0
  0
LINE
  5
895
330
1F
100
AcDbEntity
  8
1
  6
CONTINUOUS
370
50
 62
4
100
AcDbLine
 10
44.673866
 20
-0.097871
 30
0.0
 11
44.68038199999999
 21
-0.096739
 31
0.0
  0
LINE
  5
896
330
1F
100
AcDbEntity
  8
1
  6
CONTINUOUS
370
50
 62
4
100
AcDbLine
 10
44.467045
 20
0.052934
 30
0.0
 11
44.467331
 21
0.052984
 31
0.0
  0
LINE
  5
897
330
1F
100
AcDbEntity
  8
1
  6
CONTINUOUS
370
50
 62
4
100
AcDbLine
 10
44.18504
 20
-0.088571
 30
0.0
 11
44.186977
 21
-0.088216
 31
0.0
  0
LINE
  5
898
330
1F
100
AcDbEntity
  8
1
  6
CONTINUOUS
370
50
 62
4
100
AcDbLine
 10
44.216892
 20
0.095992
 30
0.0
 11
44.22541
 21
0.097575
 31
0.0
  0
LINE
  5
899
330
1F
100
AcDbEntity
  8
1
  6
CONTINUOUS
370
50
 62
4
100
AcDbLine
 10
44.807133
 20
-0.061379
 30
0.0
 11
44.814373
 21
-0.060013
 31
0.0
  0
LINE
  5
89A
330
1F
100
AcDbEntity
  8
1
  6
CONTINUOUS
370
50
 62
4
100
AcDbLine
 10
44.296738
 20
-0.098409
 30
0.0
 11
44.30281799999999
 21
-0.097207
 31
0.0
  0
LINE
  5
89B
330
1F
100
AcDbEntity
  8
1
  6
CONTINUOUS
370
50
 62
4
100
AcDbLine
 10
44.454185
 20
-0.057368
 30
0.0
 11
44.462543
 21
-0.0557
 31
0.0
  0
LINE
  5
89C
330
1F
100
AcDbEntity
  8
1
  6
CONTINUOUS
370
50
 62
4
100
AcDbLine
 10
44.797779
 20
-0.063302
 30
0.0
 11
44.807133
 21
-0.061379
 31
0.0
  0
LINE
  5
89D
330
1F
100
AcDbEntity
  8
1
  6
CONTINUOUS
370
50
 62
4
100
AcDbLine
 10
44.953865
 20
0.093348
 30
0.0
 11
44.977016
 21
0.098165
 31
0.0
  0
LINE
  5
89E
330
1F
100
AcDbEntity
  8
1
  6
CONTINUOUS
370
50
 62
4
100
AcDbLine
 10
44.68038199999999
 20
-0.096739
 30
0.0
 11
44.686783
 21
-0.095389
 31
0.0
  0
LINE
  5
89F
330
1F
100
AcDbEntity
  8
1
  6
CONTINUOUS
370
50
 62
4
100
AcDbLine
 10
44.186977
 20
-0.088216
 30
0.0
 11
44.188824
 21
-0.087823
 31
0.0
  0
LINE
  5
8A0
330
1F
100
AcDbEntity
  8
1
  6
CONTINUOUS
370
50
 62
4
100
AcDbLine
 10
44.950676
 20
0.076436
 30
0.0
 11
44.961773
 21
0.078822
 31
0.0
  0
LINE
  5
8A1
330
1F
100
AcDbEntity
  8
1
  6
CONTINUOUS
370
50
 62
4
100
AcDbLine
 10
44.594501
 20
0.096422
 30
0.0
 11
44.602875
 21
0.098249
 31
0.0
  0
LINE
  5
8A2
330
1F
100
AcDbEntity
  8
1
  6
CONTINUOUS
370
50
 62
4
100
AcDbLine
 10
44.114723
 20
0.099171
 30
0.0
 11
44.115803
 21
0.099409
 31
0.0
  0
LINE
  5
8A3
330
1F
100
AcDbEntity
  8
1
  6
CONTINUOUS
370
50
 62
4
100
AcDbLine
 10
44.449825
 20
-0.058334
 30
0.0
 11
44.454185
 21
-0.057368
 31
0.0
  0
LINE
  5
8A4
330
1F
100
AcDbEntity
  8
1
  6
CONTINUOUS
370
50
 62
4
100
AcDbLine
 10
44.200001
 20
0.075815
 30
0.0
 11
44.212643
 21
0.078643
 31
0.0
  0
LINE
  5
8A5
330
1F
100
AcDbEntity
  8
1
  6
CONTINUOUS
370
50
 62
4
100
AcDbLine
 10
44.789581
 20
-0.065149
 30
0.0
 11
44.797779
 21
-0.063302
 31
0.0
  0
LINE
  5
8A6
330
1F
100
AcDbEntity
  8
1
  6
CONTINUOUS
370
50
 62
4
100
AcDbLine
 10
44.446632
 20
-0.059081
 30
0.0
 11
44.449825
 21
-0.058334
 31
0.0
  0
LINE
  5
8A7
330
1F
100
AcDbEntity
  8
1
  6
CONTINUOUS
370
50
 62
4
100
AcDbLine
 10
44.20840099999999
 20
0.094005
 30
0.0
 11
44.216892
 21
0.095992
 31
0.0
  0
LINE
  5
8A8
330
1F
100
AcDbEntity
  8
1
  6
CONTINUOUS
370
50
 62
4
100
AcDbLine
 10
44.958271
 20
0.049778
 30
0.0
 11
44.959366
 21
0.050036
 31
0.0
  0
LINE
  5
8A9
330
1F
100
AcDbEntity
  8
1
  6
CONTINUOUS
370
50
 62
4
100
AcDbLine
 10
44.438602
 20
-0.060988
 30
0.0
 11
44.446632
 21
-0.059081
 31
0.0
  0
LINE
  5
8AA
330
1F
100
AcDbEntity
  8
1
  6
CONTINUOUS
370
50
 62
4
100
AcDbLine
 10
44.581081
 20
0.076476
 30
0.0
 11
44.59325399999999
 21
0.07938
 31
0.0
  0
LINE
  5
8AB
330
1F
100
AcDbEntity
  8
1
  6
CONTINUOUS
370
50
 62
4
100
AcDbLine
 10
44.433918
 20
-0.062119
 30
0.0
 11
44.438602
 21
-0.060988
 31
0.0
  0
LINE
  5
8AC
330
1F
100
AcDbEntity
  8
1
  6
CONTINUOUS
370
50
 62
4
100
AcDbLine
 10
44.429348
 20
-0.063231
 30
0.0
 11
44.433918
 21
-0.062119
 31
0.0
  0
LINE
  5
8AD
330
1F
100
AcDbEntity
  8
1
  6
CONTINUOUS
370
50
 62
4
100
AcDbLine
 10
44.188824
 20
-0.087823
 30
0.0
 11
44.190567
 21
-0.087398
 31
0.0
  0
LINE
  5
8AE
330
1F
100
AcDbEntity
  8
1
  6
CONTINUOUS
370
50
 62
4
100
AcDbLine
 10
44.42194
 20
-0.065043
 30
0.0
 11
44.429348
 21
-0.063231
 31
0.0
  0
LINE
  5
8AF
330
1F
100
AcDbEntity
  8
1
  6
CONTINUOUS
370
50
 62
4
100
AcDbLine
 10
44.417286
 20
-0.066186
 30
0.0
 11
44.42194
 21
-0.065043
 31
0.0
  0
LINE
  5
8B0
330
1F
100
AcDbEntity
  8
1
  6
CONTINUOUS
370
50
 62
4
100
AcDbLine
 10
44.781158
 20
-0.067218
 30
0.0
 11
44.789581
 21
-0.065149
 31
0.0
  0
LINE
  5
8B1
330
1F
100
AcDbEntity
  8
1
  6
CONTINUOUS
370
50
 62
4
100
AcDbLine
 10
44.411976
 20
-0.067492
 30
0.0
 11
44.417286
 21
-0.066186
 31
0.0
  0
LINE
  5
8B2
330
1F
100
AcDbEntity
  8
1
  6
CONTINUOUS
370
50
 62
4
100
AcDbLine
 10
44.404243
 20
-0.069398
 30
0.0
 11
44.411976
 21
-0.067492
 31
0.0
  0
LINE
  5
8B3
330
1F
100
AcDbEntity
  8
1
  6
CONTINUOUS
370
50
 62
4
100
AcDbLine
 10
44.400208
 20
-0.070395
 30
0.0
 11
44.404243
 21
-0.069398
 31
0.0
  0
LINE
  5
8B4
330
1F
100
AcDbEntity
  8
1
  6
CONTINUOUS
370
50
 62
4
100
AcDbLine
 10
44.686783
 20
-0.095389
 30
0.0
 11
44.69305
 21
-0.093835
 31
0.0
  0
LINE
  5
8B5
330
1F
100
AcDbEntity
  8
1
  6
CONTINUOUS
370
50
 62
4
100
AcDbLine
 10
44.394394
 20
-0.071837
 30
0.0
 11
44.400208
 21
-0.070395
 31
0.0
  0
LINE
  5
8B6
330
1F
100
AcDbEntity
  8
1
  6
CONTINUOUS
370
50
 62
4
100
AcDbLine
 10
44.385666
 20
-0.074018
 30
0.0
 11
44.394394
 21
-0.071837
 31
0.0
  0
LINE
  5
8B7
330
1F
100
AcDbEntity
  8
1
  6
CONTINUOUS
370
50
 62
4
100
AcDbLine
 10
44.382999
 20
-0.074688
 30
0.0
 11
44.385666
 21
-0.074018
 31
0.0
  0
LINE
  5
8B8
330
1F
100
AcDbEntity
  8
1
  6
CONTINUOUS
370
50
 62
4
100
AcDbLine
 10
44.30281799999999
 20
-0.097207
 30
0.0
 11
44.308945
 21
-0.095664
 31
0.0
  0
LINE
  5
8B9
330
1F
100
AcDbEntity
  8
1
  6
CONTINUOUS
370
50
 62
4
100
AcDbLine
 10
44.376549
 20
-0.076327
 30
0.0
 11
44.382999
 21
-0.074688
 31
0.0
  0
LINE
  5
8BA
330
1F
100
AcDbEntity
  8
1
  6
CONTINUOUS
370
50
 62
4
100
AcDbLine
 10
44.367756
 20
-0.078597
 30
0.0
 11
44.376549
 21
-0.076327
 31
0.0
  0
LINE
  5
8BB
330
1F
100
AcDbEntity
  8
1
  6
CONTINUOUS
370
50
 62
4
100
AcDbLine
 10
44.359196
 20
-0.080863
 30
0.0
 11
44.367756
 21
-0.078597
 31
0.0
  0
LINE
  5
8BC
330
1F
100
AcDbEntity
  8
1
  6
CONTINUOUS
370
50
 62
4
100
AcDbLine
 10
36.700001
 20
-1.99995
 30
0.0
 11
43.799999
 21
-0.09995
 31
0.0
  0
LINE
  5
8BD
330
1F
100
AcDbEntity
  8
1
  6
CONTINUOUS
370
50
 62
4
100
AcDbLine
 10
44.77293
 20
-0.069421
 30
0.0
 11
44.781158
 21
-0.067218
 31
0.0
  0
LINE
  5
8BE
330
1F
100
AcDbEntity
  8
1
  6
CONTINUOUS
370
50
 62
4
100
AcDbLine
 10
44.693047
 20
-0.093833
 30
0.0
 11
44.697845
 21
-0.092543
 31
0.0
  0
LINE
  5
8BF
330
1F
100
AcDbEntity
  8
1
  6
CONTINUOUS
370
50
 62
4
100
AcDbLine
 10
44.349937
 20
-0.08339
 30
0.0
 11
44.359196
 21
-0.080863
 31
0.0
  0
LINE
  5
8C0
330
1F
100
AcDbEntity
  8
1
  6
CONTINUOUS
370
50
 62
4
100
AcDbLine
 10
44.073215
 20
-0.027514
 30
0.0
 11
44.073956
 21
-0.027311
 31
0.0
  0
LINE
  5
8C1
330
1F
100
AcDbEntity
  8
1
  6
CONTINUOUS
370
50
 62
4
100
AcDbLine
 10
44.93957899999999
 20
0.073384
 30
0.0
 11
44.950676
 21
0.076436
 31
0.0
  0
LINE
  5
8C2
330
1F
100
AcDbEntity
  8
1
  6
CONTINUOUS
370
50
 62
4
100
AcDbLine
 10
44.586529
 20
0.094218
 30
0.0
 11
44.594501
 21
0.096422
 31
0.0
  0
LINE
  5
8C3
330
1F
100
AcDbEntity
  8
1
  6
CONTINUOUS
370
50
 62
4
100
AcDbLine
 10
44.348293
 20
-0.083846
 30
0.0
 11
44.349937
 21
-0.08339
 31
0.0
  0
LINE
  5
8C4
330
1F
100
AcDbEntity
  8
1
  6
CONTINUOUS
370
50
 62
4
100
AcDbLine
 10
44.697845
 20
-0.092543
 30
0.0
 11
44.710117
 21
-0.089121
 31
0.0
  0
LINE
  5
8C5
330
1F
100
AcDbEntity
  8
1
  6
CONTINUOUS
370
50
 62
4
100
AcDbLine
 10
44.190567
 20
-0.087398
 30
0.0
 11
44.192196
 21
-0.086941
 31
0.0
  0
LINE
  5
8C6
330
1F
100
AcDbEntity
  8
1
  6
CONTINUOUS
370
50
 62
4
100
AcDbLine
 10
44.341362
 20
-0.085809
 30
0.0
 11
44.348293
 21
-0.083846
 31
0.0
  0
LINE
  5
8C7
330
1F
100
AcDbEntity
  8
1
  6
CONTINUOUS
370
50
 62
4
100
AcDbLine
 10
44.200001
 20
0.091614
 30
0.0
 11
44.20840099999999
 21
0.094005
 31
0.0
  0
LINE
  5
8C8
330
1F
100
AcDbEntity
  8
1
  6
CONTINUOUS
370
50
 62
4
100
AcDbLine
 10
44.710117
 20
-0.089121
 30
0.0
 11
44.714478
 21
-0.087859
 31
0.0
  0
LINE
  5
8C9
330
1F
100
AcDbEntity
  8
1
  6
CONTINUOUS
370
50
 62
4
100
AcDbLine
 10
44.76450699999999
 20
-0.071869
 30
0.0
 11
44.77293
 21
-0.069421
 31
0.0
  0
LINE
  5
8CA
330
1F
100
AcDbEntity
  8
1
  6
CONTINUOUS
370
50
 62
4
100
AcDbLine
 10
44.33305
 20
-0.088235
 30
0.0
 11
44.341362
 21
-0.085809
 31
0.0
  0
LINE
  5
8CB
330
1F
100
AcDbEntity
  8
1
  6
CONTINUOUS
370
50
 62
4
100
AcDbLine
 10
44.113758
 20
0.098889
 30
0.0
 11
44.114723
 21
0.099171
 31
0.0
  0
LINE
  5
8CC
330
1F
100
AcDbEntity
  8
1
  6
CONTINUOUS
370
50
 62
4
100
AcDbLine
 10
44.56891299999999
 20
0.072875
 30
0.0
 11
44.581081
 21
0.076476
 31
0.0
  0
LINE
  5
8CD
330
1F
100
AcDbEntity
  8
1
  6
CONTINUOUS
370
50
 62
4
100
AcDbLine
 10
44.714478
 20
-0.087859
 30
0.0
 11
44.720749
 21
-0.085998
 31
0.0
  0
LINE
  5
8CE
330
1F
100
AcDbEntity
  8
1
  6
CONTINUOUS
370
50
 62
4
100
AcDbLine
 10
44.331116
 20
-0.088811
 30
0.0
 11
44.33305
 21
-0.088235
 31
0.0
  0
LINE
  5
8CF
330
1F
100
AcDbEntity
  8
1
  6
CONTINUOUS
370
50
 62
4
100
AcDbLine
 10
44.308945
 20
-0.095664
 30
0.0
 11
44.315208
 21
-0.093783
 31
0.0
  0
LINE
  5
8D0
330
1F
100
AcDbEntity
  8
1
  6
CONTINUOUS
370
50
 62
4
100
AcDbLine
 10
44.323833
 20
-0.09102
 30
0.0
 11
44.331116
 21
-0.088811
 31
0.0
  0
LINE
  5
8D1
330
1F
100
AcDbEntity
  8
1
  6
CONTINUOUS
370
50
 62
4
100
AcDbLine
 10
44.720749
 20
-0.085998
 30
0.0
 11
44.726837
 21
-0.084136
 31
0.0
  0
LINE
  5
8D2
330
1F
100
AcDbEntity
  8
1
  6
CONTINUOUS
370
50
 62
4
100
AcDbLine
 10
44.316208
 20
-0.093396
 30
0.0
 11
44.323833
 21
-0.09102
 31
0.0
  0
LINE
  5
8D3
330
1F
100
AcDbEntity
  8
1
  6
CONTINUOUS
370
50
 62
4
100
AcDbLine
 10
44.757328
 20
-0.074116
 30
0.0
 11
44.76450699999999
 21
-0.071869
 31
0.0
  0
LINE
  5
8D4
330
1F
100
AcDbEntity
  8
1
  6
CONTINUOUS
370
50
 62
4
100
AcDbLine
 10
44.726837
 20
-0.084136
 30
0.0
 11
44.731136
 21
-0.082788
 31
0.0
  0
LINE
  5
8D5
330
1F
100
AcDbEntity
  8
1
  6
CONTINUOUS
370
50
 62
4
100
AcDbLine
 10
44.315208
 20
-0.093711
 30
0.0
 11
44.316208
 21
-0.093396
 31
0.0
  0
LINE
  5
8D6
330
1F
100
AcDbEntity
  8
1
  6
CONTINUOUS
370
50
 62
4
100
AcDbLine
 10
44.731136
 20
-0.082788
 30
0.0
 11
44.73689299999999
 21
-0.08094
 31
0.0
  0
LINE
  5
8D7
330
1F
100
AcDbEntity
  8
1
  6
CONTINUOUS
370
50
 62
4
100
AcDbLine
 10
44.192196
 20
-0.086941
 30
0.0
 11
44.193707
 21
-0.086455
 31
0.0
  0
LINE
  5
8D8
330
1F
100
AcDbEntity
  8
1
  6
CONTINUOUS
370
50
 62
4
100
AcDbLine
 10
44.578442
 20
0.091576
 30
0.0
 11
44.586529
 21
0.094218
 31
0.0
  0
LINE
  5
8D9
330
1F
100
AcDbEntity
  8
1
  6
CONTINUOUS
370
50
 62
4
100
AcDbLine
 10
44.73689299999999
 20
-0.08094
 30
0.0
 11
44.74248499999999
 21
-0.079098
 31
0.0
  0
LINE
  5
8DA
330
1F
100
AcDbEntity
  8
1
  6
CONTINUOUS
370
50
 62
4
100
AcDbLine
 10
44.747829
 20
-0.077299
 30
0.0
 11
44.757328
 21
-0.074116
 31
0.0
  0
LINE
  5
8DB
330
1F
100
AcDbEntity
  8
1
  6
CONTINUOUS
370
50
 62
4
100
AcDbLine
 10
44.74248499999999
 20
-0.079098
 30
0.0
 11
44.747829
 21
-0.077299
 31
0.0
  0
LINE
  5
8DC
330
1F
100
AcDbEntity
  8
1
  6
CONTINUOUS
370
50
 62
4
100
AcDbLine
 10
44.072491
 20
-0.027763
 30
0.0
 11
44.073215
 21
-0.027514
 31
0.0
  0
LINE
  5
8DD
330
1F
100
AcDbEntity
  8
1
  6
CONTINUOUS
370
50
 62
4
100
AcDbLine
 10
44.928482
 20
0.069562
 30
0.0
 11
44.93957899999999
 21
0.073384
 31
0.0
  0
LINE
  5
8DE
330
1F
100
AcDbEntity
  8
1
  6
CONTINUOUS
370
50
 62
4
100
AcDbLine
 10
44.55674
 20
0.068639
 30
0.0
 11
44.56891299999999
 21
0.072875
 31
0.0
  0
LINE
  5
8DF
330
1F
100
AcDbEntity
  8
1
  6
CONTINUOUS
370
50
 62
4
100
AcDbLine
 10
44.932613
 20
0.085936
 30
0.0
 11
44.953865
 21
0.093348
 31
0.0
  0
LINE
  5
8E0
330
1F
100
AcDbEntity
  8
1
  6
CONTINUOUS
370
50
 62
4
100
AcDbLine
 10
44.193707
 20
-0.086455
 30
0.0
 11
44.19509499999999
 21
-0.085942
 31
0.0
  0
LINE
  5
8E1
330
1F
100
AcDbEntity
  8
1
  6
CONTINUOUS
370
50
 62
4
100
AcDbLine
 10
44.570263
 20
0.088528
 30
0.0
 11
44.578442
 21
0.091576
 31
0.0
  0
LINE
  5
8E2
330
1F
100
AcDbEntity
  8
1
  6
CONTINUOUS
370
50
 62
4
100
AcDbLine
 10
44.112892
 20
0.098556
 30
0.0
 11
44.113758
 21
0.098889
 31
0.0
  0
LINE
  5
8E3
330
1F
100
AcDbEntity
  8
1
  6
CONTINUOUS
370
50
 62
4
100
AcDbLine
 10
44.544567
 20
0.063829
 30
0.0
 11
44.55674
 21
0.068639
 31
0.0
  0
LINE
  5
8E4
330
1F
100
AcDbEntity
  8
1
  6
CONTINUOUS
370
50
 62
4
100
AcDbLine
 10
44.959366
 20
0.050036
 30
0.0
 11
44.960369
 21
0.050445
 31
0.0
  0
LINE
  5
8E5
330
1F
100
AcDbEntity
  8
1
  6
CONTINUOUS
370
50
 62
4
100
AcDbLine
 10
44.561996
 20
0.085108
 30
0.0
 11
44.570263
 21
0.088528
 31
0.0
  0
LINE
  5
8E6
330
1F
100
AcDbEntity
  8
1
  6
CONTINUOUS
370
50
 62
4
100
AcDbLine
 10
44.073956
 20
-0.027311
 30
0.0
 11
44.08020399999999
 21
-0.024693
 31
0.0
  0
LINE
  5
8E7
330
1F
100
AcDbEntity
  8
1
  6
CONTINUOUS
370
50
 62
4
100
AcDbLine
 10
44.071789
 20
-0.028058
 30
0.0
 11
44.072491
 21
-0.027763
 31
0.0
  0
LINE
  5
8E8
330
1F
100
AcDbEntity
  8
1
  6
CONTINUOUS
370
50
 62
4
100
AcDbLine
 10
44.917385
 20
0.064877
 30
0.0
 11
44.928482
 21
0.069562
 31
0.0
  0
LINE
  5
8E9
330
1F
100
AcDbEntity
  8
1
  6
CONTINUOUS
370
50
 62
4
100
AcDbLine
 10
44.19509499999999
 20
-0.085942
 30
0.0
 11
44.196358
 21
-0.085404
 31
0.0
  0
LINE
  5
8EA
330
1F
100
AcDbEntity
  8
1
  6
CONTINUOUS
370
50
 62
4
100
AcDbLine
 10
44.532394
 20
0.058506
 30
0.0
 11
44.544567
 21
0.063829
 31
0.0
  0
LINE
  5
8EB
330
1F
100
AcDbEntity
  8
1
  6
CONTINUOUS
370
50
 62
4
100
AcDbLine
 10
44.553661
 20
0.081351
 30
0.0
 11
44.561996
 21
0.085108
 31
0.0
  0
LINE
  5
8EC
330
1F
100
AcDbEntity
  8
1
  6
CONTINUOUS
370
50
 62
4
100
AcDbLine
 10
44.520222
 20
0.05273
 30
0.0
 11
44.532394
 21
0.058506
 31
0.0
  0
LINE
  5
8ED
330
1F
100
AcDbEntity
  8
1
  6
CONTINUOUS
370
50
 62
4
100
AcDbLine
 10
44.545269
 20
0.07729
 30
0.0
 11
44.553661
 21
0.081351
 31
0.0
  0
LINE
  5
8EE
330
1F
100
AcDbEntity
  8
1
  6
CONTINUOUS
370
50
 62
4
100
AcDbLine
 10
44.196358
 20
-0.085404
 30
0.0
 11
44.197483
 21
-0.084845
 31
0.0
  0
LINE
  5
8EF
330
1F
100
AcDbEntity
  8
1
  6
CONTINUOUS
370
50
 62
4
100
AcDbLine
 10
44.071106
 20
-0.028398
 30
0.0
 11
44.071789
 21
-0.028058
 31
0.0
  0
LINE
  5
8F0
330
1F
100
AcDbEntity
  8
1
  6
CONTINUOUS
370
50
 62
4
100
AcDbLine
 10
44.915482
 20
0.07733
 30
0.0
 11
44.932613
 21
0.085936
 31
0.0
  0
LINE
  5
8F1
330
1F
100
AcDbEntity
  8
1
  6
CONTINUOUS
370
50
 62
4
100
AcDbLine
 10
44.906288
 20
0.059236
 30
0.0
 11
44.917385
 21
0.064877
 31
0.0
  0
LINE
  5
8F2
330
1F
100
AcDbEntity
  8
1
  6
CONTINUOUS
370
50
 62
4
100
AcDbLine
 10
44.112137
 20
0.098172
 30
0.0
 11
44.112892
 21
0.098556
 31
0.0
  0
LINE
  5
8F3
330
1F
100
AcDbEntity
  8
1
  6
CONTINUOUS
370
50
 62
4
100
AcDbLine
 10
44.536831
 20
0.07296
 30
0.0
 11
44.545269
 21
0.07729
 31
0.0
  0
LINE
  5
8F4
330
1F
100
AcDbEntity
  8
1
  6
CONTINUOUS
370
50
 62
4
100
AcDbLine
 10
44.08020399999999
 20
-0.024693
 30
0.0
 11
44.086205
 21
-0.021596
 31
0.0
  0
LINE
  5
8F5
330
1F
100
AcDbEntity
  8
1
  6
CONTINUOUS
370
50
 62
4
100
AcDbLine
 10
44.528362
 20
0.068389
 30
0.0
 11
44.536831
 21
0.07296
 31
0.0
  0
LINE
  5
8F6
330
1F
100
AcDbEntity
  8
1
  6
CONTINUOUS
370
50
 62
4
100
AcDbLine
 10
44.519833
 20
0.063525
 30
0.0
 11
44.528362
 21
0.068389
 31
0.0
  0
LINE
  5
8F7
330
1F
100
AcDbEntity
  8
1
  6
CONTINUOUS
370
50
 62
4
100
AcDbLine
 10
44.197483
 20
-0.084845
 30
0.0
 11
44.198467
 21
-0.08427
 31
0.0
  0
LINE
  5
8F8
330
1F
100
AcDbEntity
  8
1
  6
CONTINUOUS
370
50
 62
4
100
AcDbLine
 10
44.07045
 20
-0.028783
 30
0.0
 11
44.071106
 21
-0.028398
 31
0.0
  0
LINE
  5
8F9
330
1F
100
AcDbEntity
  8
1
  6
CONTINUOUS
370
50
 62
4
100
AcDbLine
 10
44.895195
 20
0.052644
 30
0.0
 11
44.906288
 21
0.059236
 31
0.0
  0
LINE
  5
8FA
330
1F
100
AcDbEntity
  8
1
  6
CONTINUOUS
370
50
 62
4
100
AcDbLine
 10
44.511276
 20
0.058352
 30
0.0
 11
44.519833
 21
0.063525
 31
0.0
  0
LINE
  5
8FB
330
1F
100
AcDbEntity
  8
1
  6
CONTINUOUS
370
50
 62
4
100
AcDbLine
 10
44.960369
 20
0.050445
 30
0.0
 11
44.961273
 21
0.050996
 31
0.0
  0
LINE
  5
8FC
330
1F
100
AcDbEntity
  8
1
  6
CONTINUOUS
370
50
 62
4
100
AcDbLine
 10
44.086205
 20
-0.021596
 30
0.0
 11
44.091949
 21
-0.018051
 31
0.0
  0
LINE
  5
8FD
330
1F
100
AcDbEntity
  8
1
  6
CONTINUOUS
370
50
 62
4
100
AcDbLine
 10
44.951839
 20
0.049882
 30
0.0
 11
44.952675
 21
0.050405
 31
0.0
  0
LINE
  5
8FE
330
1F
100
AcDbEntity
  8
1
  6
CONTINUOUS
370
50
 62
4
100
AcDbLine
 10
44.502758
 20
0.052882
 30
0.0
 11
44.511276
 21
0.058352
 31
0.0
  0
LINE
  5
8FF
330
1F
100
AcDbEntity
  8
1
  6
CONTINUOUS
370
50
 62
4
100
AcDbLine
 10
44.901886
 20
0.068562
 30
0.0
 11
44.915482
 21
0.07733
 31
0.0
  0
LINE
  5
900
330
1F
100
AcDbEntity
  8
1
  6
CONTINUOUS
370
50
 62
4
100
AcDbLine
 10
44.069824
 20
-0.02921
 30
0.0
 11
44.07045
 21
-0.028783
 31
0.0
  0
LINE
  5
901
330
1F
100
AcDbEntity
  8
1
  6
CONTINUOUS
370
50
 62
4
100
AcDbLine
 10
44.111507
 20
0.097734
 30
0.0
 11
44.112137
 21
0.098172
 31
0.0
  0
LINE
  5
902
330
1F
100
AcDbEntity
  8
1
  6
CONTINUOUS
370
50
 62
4
100
AcDbLine
 10
44.198467
 20
-0.08427
 30
0.0
 11
44.199306
 21
-0.083681
 31
0.0
  0
LINE
  5
903
330
1F
100
AcDbEntity
  8
1
  6
CONTINUOUS
370
50
 62
4
100
AcDbLine
 10
44.091949
 20
-0.018051
 30
0.0
 11
44.097424
 21
-0.014091
 31
0.0
  0
LINE
  5
904
330
1F
100
AcDbEntity
  8
1
  6
CONTINUOUS
370
50
 62
4
100
AcDbLine
 10
44.951046
 20
0.049297
 30
0.0
 11
44.951839
 21
0.049882
 31
0.0
  0
LINE
  5
905
330
1F
100
AcDbEntity
  8
1
  6
CONTINUOUS
370
50
 62
4
100
AcDbLine
 10
44.891014
 20
0.060537
 30
0.0
 11
44.901886
 21
0.068562
 31
0.0
  0
LINE
  5
906
330
1F
100
AcDbEntity
  8
1
  6
CONTINUOUS
370
50
 62
4
100
AcDbLine
 10
44.880589
 20
0.052598
 30
0.0
 11
44.891014
 21
0.060537
 31
0.0
  0
LINE
  5
907
330
1F
100
AcDbEntity
  8
1
  6
CONTINUOUS
370
50
 62
4
100
AcDbLine
 10
44.069233
 20
-0.029677
 30
0.0
 11
44.069824
 21
-0.02921
 31
0.0
  0
LINE
  5
908
330
1F
100
AcDbEntity
  8
1
  6
CONTINUOUS
370
50
 62
4
100
AcDbLine
 10
44.097424
 20
-0.014091
 30
0.0
 11
44.102619
 21
-0.009749
 31
0.0
  0
LINE
  5
909
330
1F
100
AcDbEntity
  8
1
  6
CONTINUOUS
370
50
 62
4
100
AcDbLine
 10
44.961273
 20
0.050996
 30
0.0
 11
44.962074
 21
0.051683
 31
0.0
  0
LINE
  5
90A
330
1F
100
AcDbEntity
  8
1
  6
CONTINUOUS
370
50
 62
4
100
AcDbLine
 10
44.199306
 20
-0.083681
 30
0.0
 11
44.200001
 21
-0.083082
 31
0.0
  0
LINE
  5
90B
330
1F
100
AcDbEntity
  8
1
  6
CONTINUOUS
370
50
 62
4
100
AcDbLine
 10
44.950302
 20
0.04865
 30
0.0
 11
44.951046
 21
0.049297
 31
0.0
  0
LINE
  5
90C
330
1F
100
AcDbEntity
  8
1
  6
CONTINUOUS
370
50
 62
4
100
AcDbLine
 10
44.06868
 20
-0.030182
 30
0.0
 11
44.069233
 21
-0.029677
 31
0.0
  0
LINE
  5
90D
330
1F
100
AcDbEntity
  8
1
  6
CONTINUOUS
370
50
 62
4
100
AcDbLine
 10
44.102619
 20
-0.009749
 30
0.0
 11
44.107533
 21
-0.005042
 31
0.0
  0
LINE
  5
90E
330
1F
100
AcDbEntity
  8
1
  6
CONTINUOUS
370
50
 62
4
100
AcDbLine
 10
44.111004
 20
0.097243
 30
0.0
 11
44.111507
 21
0.097734
 31
0.0
  0
LINE
  5
90F
330
1F
100
AcDbEntity
  8
1
  6
CONTINUOUS
370
50
 62
4
100
AcDbLine
 10
44.94961199999999
 20
0.047939
 30
0.0
 11
44.950302
 21
0.04865
 31
0.0
  0
LINE
  5
910
330
1F
100
AcDbEntity
  8
1
  6
CONTINUOUS
370
50
 62
4
100
AcDbLine
 10
44.068165
 20
-0.030724
 30
0.0
 11
44.06868
 21
-0.030182
 31
0.0
  0
LINE
  5
911
330
1F
100
AcDbEntity
  8
1
  6
CONTINUOUS
370
50
 62
4
100
AcDbLine
 10
44.107533
 20
-0.005042
 30
0.0
 11
44.112141
 21
0.0
 31
0.0
  0
LINE
  5
912
330
1F
100
AcDbEntity
  8
1
  6
CONTINUOUS
370
50
 62
4
100
AcDbLine
 10
44.962074
 20
0.051683
 30
0.0
 11
44.96278
 21
0.052499
 31
0.0
  0
LINE
  5
913
330
1F
100
AcDbEntity
  8
1
  6
CONTINUOUS
370
50
 62
4
100
AcDbLine
 10
44.948971
 20
0.047162
 30
0.0
 11
44.94961199999999
 21
0.047939
 31
0.0
  0
LINE
  5
914
330
1F
100
AcDbEntity
  8
1
  6
CONTINUOUS
370
50
 62
4
100
AcDbLine
 10
44.067692
 20
-0.0313
 30
0.0
 11
44.068165
 21
-0.030724
 31
0.0
  0
LINE
  5
915
330
1F
100
AcDbEntity
  8
1
  6
CONTINUOUS
370
50
 62
4
100
AcDbLine
 10
44.112141
 20
0.0
 30
0.0
 11
44.114788
 21
0.003225
 31
0.0
  0
LINE
  5
916
330
1F
100
AcDbEntity
  8
1
  6
CONTINUOUS
370
50
 62
4
100
AcDbLine
 10
44.114788
 20
0.003225
 30
0.0
 11
44.117302
 21
0.006552
 31
0.0
  0
LINE
  5
917
330
1F
100
AcDbEntity
  8
1
  6
CONTINUOUS
370
50
 62
4
100
AcDbLine
 10
44.06726099999999
 20
-0.031904
 30
0.0
 11
44.067692
 21
-0.0313
 31
0.0
  0
LINE
  5
918
330
1F
100
AcDbEntity
  8
1
  6
CONTINUOUS
370
50
 62
4
100
AcDbLine
 10
44.948387
 20
0.046319
 30
0.0
 11
44.948971
 21
0.047162
 31
0.0
  0
LINE
  5
919
330
1F
100
AcDbEntity
  8
1
  6
CONTINUOUS
370
50
 62
4
100
AcDbLine
 10
44.117302
 20
0.006552
 30
0.0
 11
44.119663
 21
0.009972
 31
0.0
  0
LINE
  5
91A
330
1F
100
AcDbEntity
  8
1
  6
CONTINUOUS
370
50
 62
4
100
AcDbLine
 10
44.110649
 20
0.096696
 30
0.0
 11
44.111004
 21
0.097243
 31
0.0
  0
LINE
  5
91B
330
1F
100
AcDbEntity
  8
1
  6
CONTINUOUS
370
50
 62
4
100
AcDbLine
 10
44.96278
 20
0.052499
 30
0.0
 11
44.963387
 21
0.053439
 31
0.0
  0
LINE
  5
91C
330
1F
100
AcDbEntity
  8
1
  6
CONTINUOUS
370
50
 62
4
100
AcDbLine
 10
44.119663
 20
0.009972
 30
0.0
 11
44.121876
 21
0.013474
 31
0.0
  0
LINE
  5
91D
330
1F
100
AcDbEntity
  8
1
  6
CONTINUOUS
370
50
 62
4
100
AcDbLine
 10
44.066879
 20
-0.032532
 30
0.0
 11
44.06726099999999
 21
-0.031904
 31
0.0
  0
LINE
  5
91E
330
1F
100
AcDbEntity
  8
1
  6
CONTINUOUS
370
50
 62
4
100
AcDbLine
 10
44.947861
 20
0.045409
 30
0.0
 11
44.948387
 21
0.046319
 31
0.0
  0
LINE
  5
91F
330
1F
100
AcDbEntity
  8
1
  6
CONTINUOUS
370
50
 62
4
100
AcDbLine
 10
44.121876
 20
0.013474
 30
0.0
 11
44.12392
 21
0.017048
 31
0.0
  0
LINE
  5
920
330
1F
100
AcDbEntity
  8
1
  6
CONTINUOUS
370
50
 62
4
100
AcDbLine
 10
44.066544
 20
-0.03318
 30
0.0
 11
44.066879
 21
-0.032532
 31
0.0
  0
LINE
  5
921
330
1F
100
AcDbEntity
  8
1
  6
CONTINUOUS
370
50
 62
4
100
AcDbLine
 10
44.12392
 20
0.017048
 30
0.0
 11
44.125782
 21
0.020668
 31
0.0
  0
LINE
  5
922
330
1F
100
AcDbEntity
  8
1
  6
CONTINUOUS
370
50
 62
4
100
AcDbLine
 10
44.963387
 20
0.053439
 30
0.0
 11
44.963894
 21
0.054493
 31
0.0
  0
LINE
  5
923
330
1F
100
AcDbEntity
  8
1
  6
CONTINUOUS
370
50
 62
4
100
AcDbLine
 10
44.125782
 20
0.020668
 30
0.0
 11
44.12746
 21
0.024326
 31
0.0
  0
LINE
  5
924
330
1F
100
AcDbEntity
  8
1
  6
CONTINUOUS
370
50
 62
4
100
AcDbLine
 10
44.066254
 20
-0.033848
 30
0.0
 11
44.066544
 21
-0.03318
 31
0.0
  0
LINE
  5
925
330
1F
100
AcDbEntity
  8
1
  6
CONTINUOUS
370
50
 62
4
100
AcDbLine
 10
44.12746
 20
0.024326
 30
0.0
 11
44.128944
 21
0.028017
 31
0.0
  0
LINE
  5
926
330
1F
100
AcDbEntity
  8
1
  6
CONTINUOUS
370
50
 62
4
100
AcDbLine
 10
44.993134
 20
0.039435
 30
0.0
 11
44.99406099999999
 21
0.04175
 31
0.0
  0
LINE
  5
927
330
1F
100
AcDbEntity
  8
1
  6
CONTINUOUS
370
50
 62
4
100
AcDbLine
 10
44.963894
 20
0.054493
 30
0.0
 11
44.964306
 21
0.055645
 31
0.0
  0
LINE
  5
928
330
1F
100
AcDbEntity
  8
1
  6
CONTINUOUS
370
50
 62
4
100
AcDbLine
 10
44.06601
 20
-0.034533
 30
0.0
 11
44.066254
 21
-0.033848
 31
0.0
  0
LINE
  5
929
330
1F
100
AcDbEntity
  8
1
  6
CONTINUOUS
370
50
 62
4
100
AcDbLine
 10
44.128944
 20
0.028017
 30
0.0
 11
44.130241
 21
0.031734
 31
0.0
  0
LINE
  5
92A
330
1F
100
AcDbEntity
  8
1
  6
CONTINUOUS
370
50
 62
4
100
AcDbLine
 10
44.99225999999999
 20
0.036917
 30
0.0
 11
44.993134
 21
0.039435
 31
0.0
  0
LINE
  5
92B
330
1F
100
AcDbEntity
  8
1
  6
CONTINUOUS
370
50
 62
4
100
AcDbLine
 10
44.110447
 20
0.096095
 30
0.0
 11
44.110649
 21
0.096696
 31
0.0
  0
LINE
  5
92C
330
1F
100
AcDbEntity
  8
1
  6
CONTINUOUS
370
50
 62
4
100
AcDbLine
 10
44.99144
 20
0.034204
 30
0.0
 11
44.99225999999999
 21
0.036917
 31
0.0
  0
LINE
  5
92D
330
1F
100
AcDbEntity
  8
1
  6
CONTINUOUS
370
50
 62
4
100
AcDbLine
 10
44.130241
 20
0.031734
 30
0.0
 11
44.13133999999999
 21
0.035472
 31
0.0
  0
LINE
  5
92E
330
1F
100
AcDbEntity
  8
1
  6
CONTINUOUS
370
50
 62
4
100
AcDbLine
 10
44.065811
 20
-0.035234
 30
0.0
 11
44.06601
 21
-0.034533
 31
0.0
  0
LINE
  5
92F
330
1F
100
AcDbEntity
  8
1
  6
CONTINUOUS
370
50
 62
4
100
AcDbLine
 10
44.990685
 20
0.031304
 30
0.0
 11
44.99144
 21
0.034204
 31
0.0
  0
LINE
  5
930
330
1F
100
AcDbEntity
  8
1
  6
CONTINUOUS
370
50
 62
4
100
AcDbLine
 10
44.964306
 20
0.055645
 30
0.0
 11
44.964619
 21
0.056886
 31
0.0
  0
LINE
  5
931
330
1F
100
AcDbEntity
  8
1
  6
CONTINUOUS
370
50
 62
4
100
AcDbLine
 10
44.13133999999999
 20
0.035472
 30
0.0
 11
44.13224
 21
0.039225
 31
0.0
  0
LINE
  5
932
330
1F
100
AcDbEntity
  8
1
  6
CONTINUOUS
370
50
 62
4
100
AcDbLine
 10
44.989994
 20
0.028241
 30
0.0
 11
44.990685
 21
0.031304
 31
0.0
  0
LINE
  5
933
330
1F
100
AcDbEntity
  8
1
  6
CONTINUOUS
370
50
 62
4
100
AcDbLine
 10
44.988117
 20
0.018445
 30
0.0
 11
44.988834
 21
0.021671
 31
0.0
  0
LINE
  5
934
330
1F
100
AcDbEntity
  8
1
  6
CONTINUOUS
370
50
 62
4
100
AcDbLine
 10
44.065655
 20
-0.035953
 30
0.0
 11
44.065811
 21
-0.035234
 31
0.0
  0
LINE
  5
935
330
1F
100
AcDbEntity
  8
1
  6
CONTINUOUS
370
50
 62
4
100
AcDbLine
 10
44.987442
 20
0.015127
 30
0.0
 11
44.988117
 21
0.018445
 31
0.0
  0
LINE
  5
936
330
1F
100
AcDbEntity
  8
1
  6
CONTINUOUS
370
50
 62
4
100
AcDbLine
 10
44.989376
 20
0.025026
 30
0.0
 11
44.989994
 21
0.028241
 31
0.0
  0
LINE
  5
937
330
1F
100
AcDbEntity
  8
1
  6
CONTINUOUS
370
50
 62
4
100
AcDbLine
 10
44.13224
 20
0.039225
 30
0.0
 11
44.132935
 21
0.042949
 31
0.0
  0
LINE
  5
938
330
1F
100
AcDbEntity
  8
1
  6
CONTINUOUS
370
50
 62
4
100
AcDbLine
 10
44.986816
 20
0.011721
 30
0.0
 11
44.987442
 21
0.015127
 31
0.0
  0
LINE
  5
939
330
1F
100
AcDbEntity
  8
1
  6
CONTINUOUS
370
50
 62
4
100
AcDbLine
 10
44.964619
 20
0.056886
 30
0.0
 11
44.964848
 21
0.058207
 31
0.0
  0
LINE
  5
93A
330
1F
100
AcDbEntity
  8
1
  6
CONTINUOUS
370
50
 62
4
100
AcDbLine
 10
44.986237
 20
0.008232
 30
0.0
 11
44.986816
 21
0.011721
 31
0.0
  0
LINE
  5
93B
330
1F
100
AcDbEntity
  8
1
  6
CONTINUOUS
370
50
 62
4
100
AcDbLine
 10
44.988834
 20
0.021671
 30
0.0
 11
44.989376
 21
0.025026
 31
0.0
  0
LINE
  5
93C
330
1F
100
AcDbEntity
  8
1
  6
CONTINUOUS
370
50
 62
4
100
AcDbLine
 10
44.065544
 20
-0.03669
 30
0.0
 11
44.065655
 21
-0.035953
 31
0.0
  0
LINE
  5
93D
330
1F
100
AcDbEntity
  8
1
  6
CONTINUOUS
370
50
 62
4
100
AcDbLine
 10
44.985706
 20
0.004663
 30
0.0
 11
44.986237
 21
0.008232
 31
0.0
  0
LINE
  5
93E
330
1F
100
AcDbEntity
  8
1
  6
CONTINUOUS
370
50
 62
4
100
AcDbLine
 10
44.132935
 20
0.042949
 30
0.0
 11
44.133423
 21
0.04661
 31
0.0
  0
LINE
  5
93F
330
1F
100
AcDbEntity
  8
1
  6
CONTINUOUS
370
50
 62
4
100
AcDbLine
 10
44.985229
 20
0.001019
 30
0.0
 11
44.985706
 21
0.004663
 31
0.0
  0
LINE
  5
940
330
1F
100
AcDbEntity
  8
1
  6
CONTINUOUS
370
50
 62
4
100
AcDbLine
 10
44.984806
 20
-0.002697
 30
0.0
 11
44.985229
 21
0.001019
 31
0.0
  0
LINE
  5
941
330
1F
100
AcDbEntity
  8
1
  6
CONTINUOUS
370
50
 62
4
100
AcDbLine
 10
44.964848
 20
0.058207
 30
0.0
 11
44.964989
 21
0.059599
 31
0.0
  0
LINE
  5
942
330
1F
100
AcDbEntity
  8
1
  6
CONTINUOUS
370
50
 62
4
100
AcDbLine
 10
44.984436
 20
-0.006482
 30
0.0
 11
44.984806
 21
-0.002697
 31
0.0
  0
LINE
  5
943
330
1F
100
AcDbEntity
  8
1
  6
CONTINUOUS
370
50
 62
4
100
AcDbLine
 10
44.065479
 20
-0.037445
 30
0.0
 11
44.065544
 21
-0.03669
 31
0.0
  0
LINE
  5
944
330
1F
100
AcDbEntity
  8
1
  6
CONTINUOUS
370
50
 62
4
100
AcDbLine
 10
44.133423
 20
0.04661
 30
0.0
 11
44.133717
 21
0.050202
 31
0.0
  0
LINE
  5
945
330
1F
100
AcDbEntity
  8
1
  6
CONTINUOUS
370
50
 62
4
100
AcDbLine
 10
44.984123
 20
-0.010322
 30
0.0
 11
44.984436
 21
-0.006482
 31
0.0
  0
LINE
  5
946
330
1F
100
AcDbEntity
  8
1
  6
CONTINUOUS
370
50
 62
4
100
AcDbLine
 10
44.983868
 20
-0.014196
 30
0.0
 11
44.984123
 21
-0.010322
 31
0.0
  0
LINE
  5
947
330
1F
100
AcDbEntity
  8
1
  6
CONTINUOUS
370
50
 62
4
100
AcDbLine
 10
44.983677
 20
-0.018097
 30
0.0
 11
44.983868
 21
-0.014196
 31
0.0
  0
LINE
  5
948
330
1F
100
AcDbEntity
  8
1
  6
CONTINUOUS
370
50
 62
4
100
AcDbLine
 10
44.110416
 20
0.095445
 30
0.0
 11
44.110447
 21
0.096095
 31
0.0
  0
LINE
  5
949
330
1F
100
AcDbEntity
  8
1
  6
CONTINUOUS
370
50
 62
4
100
AcDbLine
 10
44.964989
 20
0.059599
 30
0.0
 11
44.96505
 21
0.061055
 31
0.0
  0
LINE
  5
94A
330
1F
100
AcDbEntity
  8
1
  6
CONTINUOUS
370
50
 62
4
100
AcDbLine
 10
44.983547
 20
-0.022019
 30
0.0
 11
44.983677
 21
-0.018097
 31
0.0
  0
LINE
  5
94B
330
1F
100
AcDbEntity
  8
1
  6
CONTINUOUS
370
50
 62
4
100
AcDbLine
 10
44.133717
 20
0.050202
 30
0.0
 11
44.13382
 21
0.053718
 31
0.0
  0
LINE
  5
94C
330
1F
100
AcDbEntity
  8
1
  6
CONTINUOUS
370
50
 62
4
100
AcDbLine
 10
44.06545999999999
 20
-0.038216
 30
0.0
 11
44.065479
 21
-0.037445
 31
0.0
  0
LINE
  5
94D
330
1F
100
AcDbEntity
  8
1
  6
CONTINUOUS
370
50
 62
4
100
AcDbLine
 10
44.983475
 20
-0.025955
 30
0.0
 11
44.983547
 21
-0.022019
 31
0.0
  0
LINE
  5
94E
330
1F
100
AcDbEntity
  8
1
  6
CONTINUOUS
370
50
 62
4
100
AcDbLine
 10
44.98347099999999
 20
-0.029901
 30
0.0
 11
44.983475
 21
-0.025955
 31
0.0
  0
LINE
  5
94F
330
1F
100
AcDbEntity
  8
1
  6
CONTINUOUS
370
50
 62
4
100
AcDbLine
 10
36.700001
 20
-1.99995
 30
0.0
 11
36.700001
 21
1.99995
 31
0.0
  0
LINE
  5
950
330
1F
100
AcDbEntity
  8
1
  6
CONTINUOUS
370
50
 62
4
100
AcDbLine
 10
43.799999
 20
-0.09995
 30
0.0
 11
43.799999
 21
0.09995
 31
0.0
  0
LINE
  5
951
330
1F
100
AcDbEntity
  8
1
  6
CONTINUOUS
370
50
 62
4
100
AcDbLine
 10
44.200001
 20
-0.091614
 30
0.0
 11
44.200001
 21
0.091614
 31
0.0
  0
LINE
  5
952
330
1F
100
AcDbEntity
  8
1
  6
CONTINUOUS
370
50
 62
4
100
AcDbLine
 10
45.0
 20
-0.099985
 30
0.0
 11
45.0
 21
0.099985
 31
0.0
  0
ELLIPSE
  5
953
330
1F
100
AcDbEntity
  8
1
  6
CONTINUOUS
370
50
 62
4
100
AcDbEllipse
 10
44.15567799999999
 20
-0.065274
 30
0.0
 11
-0.1018830050343773
 21
0.03716498619891119
 31
0.0
210
0.0
220
0.0
230
1.0
 40
0.2055022491306654
 41
0.6217467405109632
 42
1.665475507388229
  0
ELLIPSE
  5
954
330
1F
100
AcDbEntity
  8
1
  6
CONTINUOUS
370
50
 62
4
100
AcDbEllipse
 10
44.161896
 20
-0.048228
 30
0.0
 11
-0.0970149258340527
 21
0.03538920331701471
 31
0.0
210
0.0
220
0.0
230
1.0
 40
0.205505658102511
 41
0.5167777010251933
 42
2.04806776836975
  0
ELLIPSE
  5
955
330
1F
100
AcDbEntity
  8
1
  6
CONTINUOUS
370
50
 62
4
100
AcDbEllipse
 10
44.205866
 20
0.072311
 30
0.0
 11
-0.1022369623835715
 21
0.03729410312073309
 31
0.0
210
0.0
220
0.0
230
0.9999999999999999
 40
0.2055028209050317
 41
0.7121980845811893
 42
1.588370986024483
  0
ELLIPSE
  5
956
330
1F
100
AcDbEntity
  8
1
  6
CONTINUOUS
370
50
 62
4
100
AcDbEllipse
 10
44.21661599999999
 20
0.10178
 30
0.0
 11
-0.1411568731466702
 21
0.05149134775333412
 31
0.0
210
0.0
220
0.0
230
0.9999999999999998
 40
0.2055028459993404
 41
1.122955131891716
 42
1.527966895531457
  0
ELLIPSE
  5
957
330
1F
100
AcDbEntity
  8
1
  6
CONTINUOUS
370
50
 62
4
100
AcDbEllipse
 10
45.004425
 20
0.0
 30
0.0
 11
6.123092999429578E-18
 21
0.100001
 31
0.0
210
0.0
220
0.0
230
1.0
 40
0.3249167508325047
 41
2.896209741798943
 42
3.004991448862232
  0
LINE
  5
958
330
1F
100
AcDbEntity
  8
CUT
  6
CONTINUOUS
370
25
 62
1
100
AcDbLine
 10
44.2
 20
0.0
 30
0.0
 11
45.0
 21
0.0
 31
0.0
  0
LINE
  5
959
330
1F
100
AcDbEntity
  8
CUT
  6
CONTINUOUS
370
25
 62
1
100
AcDbLine
 10
45.0
 20
0.0
 30
0.0
 11
45.0
 21
0.095
 31
0.0
  0
LINE
  5
95A
330
1F
100
AcDbEntity
  8
CUT
  6
CONTINUOUS
370
25
 62
1
100
AcDbLine
 10
45.0
 20
0.095
 30
0.0
 11
45.0
 21
0.1
 31
0.0
  0
LINE
  5
95B
330
1F
100
AcDbEntity
  8
CUT
  6
CONTINUOUS
370
25
 62
1
100
AcDbLine
 10
45.0
 20
0.1
 30
0.0
 11
44.2
 21
0.0999
 31
0.0
  0
LINE
  5
95C
330
1F
100
AcDbEntity
  8
CUT
  6
CONTINUOUS
370
25
 62
1
100
AcDbLine
 10
44.2
 20
0.0999
 30
0.0
 11
44.2
 21
0.0
 31
0.0
  0
LINE
  5
95D
330
1F
100
AcDbEntity
  8
NOCUT
  6
CONTINUOUS
370
25
 62
7
100
AcDbLine
 10
36.7
 20
0.0
 30
0.0
 11
44.2
 21
0.0
 31
0.0
  0
LINE
  5
95E
330
1F
100
AcDbEntity
  8
NOCUT
  6
CONTINUOUS
370
25
 62
7
100
AcDbLine
 10
44.2
 20
0.0
 30
0.0
 11
44.2
 21
0.09995
 31
0.0
  0
LINE
  5
95F
330
1F
100
AcDbEntity
  8
NOCUT
  6
CONTINUOUS
370
25
 62
7
100
AcDbLine
 10
44.2
 20
0.09995
 30
0.0
 11
43.8
 21
0.09995
 31
0.0
  0
LINE
  5
960
330
1F
100
AcDbEntity
  8
NOCUT
  6
CONTINUOUS
370
25
 62
7
100
AcDbLine
 10
43.8
 20
0.09995
 30
0.0
 11
36.7
 21
1.99995
 31
0.0
  0
LINE
  5
961
330
1F
100
AcDbEntity
  8
NOCUT
  6
CONTINUOUS
370
25
 62
7
100
AcDbLine
 10
36.7
 20
1.99995
 30
0.0
 11
36.7
 21
0.0
 31
0.0
  0
LINE
  5
962
330
1F
100
AcDbEntity
  8
SK1
  6
CONTINUOUS
370
50
 62
4
100
AcDbLine
 10
36.7
 20
2.0
 30
0.0
 11
0.2999999999999972
 21
2.0
 31
0.0
  0
LINE
  5
963
330
1F
100
AcDbEntity
  8
SK1
  6
CONTINUOUS
370
50
 62
4
100
AcDbLine
 10
0.2999999999999972
 20
2.0
 30
0.0
 11
0.0
 21
1.7
 31
0.0
  0
LINE
  5
964
330
1F
100
AcDbEntity
  8
SK1
  6
CONTINUOUS
370
50
 62
4
100
AcDbLine
 10
0.0
 20
1.7
 30
0.0
 11
0.0
 21
-1.7
 31
0.0
  0
LINE
  5
965
330
1F
100
AcDbEntity
  8
SK1
  6
CONTINUOUS
370
50
 62
4
100
AcDbLine
 10
0.0
 20
-1.7
 30
0.0
 11
0.2999999999999972
 21
-2.0
 31
0.0
  0
LINE
  5
966
330
1F
100
AcDbEntity
  8
SK1
  6
CONTINUOUS
370
50
 62
4
100
AcDbLine
 10
0.2999999999999972
 20
-2.0
 30
0.0
 11
36.7
 21
-2.0
 31
0.0
  0
LINE
  5
967
330
1F
100
AcDbEntity
  8
SK1
  6
CONTINUOUS
370
50
 62
4
100
AcDbLine
 10
0.2999999999999972
 20
2.0
 30
0.0
 11
0.2999999999999972
 21
-2.0
 31
0.0
  0
LINE
  5
968
330
1F
100
AcDbEntity
  8
SK2
  6
CONTINUOUS
370
25
 62
7
100
AcDbLine
 10
-12.0000002
 20
-2.000001
 30
0.0
 11
-13.00000000000008
 21
-2.000001
 31
0.0
  0
LINE
  5
969
330
1F
100
AcDbEntity
  8
SK2
  6
CONTINUOUS
370
25
 62
7
100
AcDbLine
 10
0.0
 20
-2.000001
 30
0.0
 11
-11.9999998
 21
-2.000001
 31
0.0
  0
LINE
  5
96A
330
1F
100
AcDbEntity
  8
SK2
  6
CONTINUOUS
370
25
 62
7
100
AcDbLine
 10
-13.0
 20
2.0
 30
0.0
 11
0.0
 21
2.0
 31
0.0
  0
LINE
  5
96B
330
1F
100
AcDbEntity
  8
SK2
  6
CONTINUOUS
370
25
 62
7
100
AcDbLine
 10
-12.0
 20
-9.0
 30
0.0
 11
-12.0
 21
15.475
 31
0.0
  0
LINE
  5
96C
330
1F
100
AcDbEntity
  8
SK2
  6
CONTINUOUS
370
25
 62
7
100
AcDbLine
 10
-12.0
 20
-2.0
 30
0.0
 11
-11.0
 21
-7.0
 31
0.0
  0
LINE
  5
96D
330
1F
100
AcDbEntity
  8
SK2
  6
CONTINUOUS
370
25
 62
7
100
AcDbLine
 10
-11.0
 20
-7.0
 30
0.0
 11
-13.0
 21
-7.0
 31
0.0
  0
LINE
  5
96E
330
1F
100
AcDbEntity
  8
SK2
  6
CONTINUOUS
370
25
 62
7
100
AcDbLine
 10
-13.0
 20
-7.0
 30
0.0
 11
-12.0
 21
-2.0
 31
0.0
  0
LINE
  5
96F
330
1F
100
AcDbEntity
  8
SK2
  6
CONTINUOUS
370
25
 62
7
100
AcDbLine
 10
-11.0293505963451
 20
-7.0
 30
0.0
 11
-11.00489176605752
 21
-6.975541169712415
 31
0.0
  0
LINE
  5
970
330
1F
100
AcDbEntity
  8
SK2
  6
CONTINUOUS
370
25
 62
7
100
AcDbLine
 10
-11.45361466505703
 20
-7.0
 30
0.0
 11
-11.07560244417617
 21
-6.621987779119138
 31
0.0
  0
LINE
  5
971
330
1F
100
AcDbEntity
  8
SK2
  6
CONTINUOUS
370
25
 62
7
100
AcDbLine
 10
-11.87787873376896
 20
-7.0
 30
0.0
 11
-11.14631312229483
 21
-6.268434388525876
 31
0.0
  0
LINE
  5
972
330
1F
100
AcDbEntity
  8
SK2
  6
CONTINUOUS
370
25
 62
7
100
AcDbLine
 10
-12.30214280248089
 20
-7.0
 30
0.0
 11
-11.21702380041349
 21
-5.914880997932592
 31
0.0
  0
LINE
  5
973
330
1F
100
AcDbEntity
  8
SK2
  6
CONTINUOUS
370
25
 62
7
100
AcDbLine
 10
-12.72640687119283
 20
-7.0
 30
0.0
 11
-11.28773447853214
 21
-5.561327607339308
 31
0.0
  0
LINE
  5
974
330
1F
100
AcDbEntity
  8
SK2
  6
CONTINUOUS
370
25
 62
7
100
AcDbLine
 10
-12.96233226502381
 20
-6.811661325119054
 30
0.0
 11
-11.3584451566508
 21
-5.207774216746039
 31
0.0
  0
LINE
  5
975
330
1F
100
AcDbEntity
  8
SK2
  6
CONTINUOUS
370
25
 62
7
100
AcDbLine
 10
-12.85626624784583
 20
-6.281331239229146
 30
0.0
 11
-11.42915583476944
 21
-4.854220826152755
 31
0.0
  0
LINE
  5
976
330
1F
100
AcDbEntity
  8
SK2
  6
CONTINUOUS
370
25
 62
7
100
AcDbLine
 10
-12.75020023066784
 20
-5.751001153339224
 30
0.0
 11
-11.4998665128881
 21
-4.500667435559485
 31
0.0
  0
LINE
  5
977
330
1F
100
AcDbEntity
  8
SK2
  6
CONTINUOUS
370
25
 62
7
100
AcDbLine
 10
-12.64413421348986
 20
-5.22067106744931
 30
0.0
 11
-11.57057719100676
 21
-4.147114044966202
 31
0.0
  0
LINE
  5
978
330
1F
100
AcDbEntity
  8
SK2
  6
CONTINUOUS
370
25
 62
7
100
AcDbLine
 10
-12.53806819631188
 20
-4.690340981559402
 30
0.0
 11
-11.64128786912541
 21
-3.793560654372925
 31
0.0
  0
LINE
  5
979
330
1F
100
AcDbEntity
  8
SK2
  6
CONTINUOUS
370
25
 62
7
100
AcDbLine
 10
-12.4320021791339
 20
-4.160010895669494
 30
0.0
 11
-11.71199854724406
 21
-3.440007263779655
 31
0.0
  0
LINE
  5
97A
330
1F
100
AcDbEntity
  8
SK2
  6
CONTINUOUS
370
25
 62
7
100
AcDbLine
 10
-12.32593616195592
 20
-3.629680809779572
 30
0.0
 11
-11.78270922536272
 21
-3.086453873186372
 31
0.0
  0
LINE
  5
97B
330
1F
100
AcDbEntity
  8
SK2
  6
CONTINUOUS
370
25
 62
7
100
AcDbLine
 10
-12.21987014477793
 20
-3.09935072388965
 30
0.0
 11
-11.85341990348138
 21
-2.732900482593102
 31
0.0
  0
LINE
  5
97C
330
1F
100
AcDbEntity
  8
SK2
  6
CONTINUOUS
370
25
 62
7
100
AcDbLine
 10
-12.11380412759995
 20
-2.569020637999742
 30
0.0
 11
-11.92413058160003
 21
-2.379347091999826
 31
0.0
  0
LINE
  5
97D
330
1F
100
AcDbEntity
  8
SK2
  6
CONTINUOUS
370
25
 62
7
100
AcDbLine
 10
-12.00773811042197
 20
-2.038690552109827
 30
0.0
 11
-11.99484125971868
 21
-2.025793701406542
 31
0.0
  0
LINE
  5
97E
330
1F
100
AcDbEntity
  8
SK2
  6
CONTINUOUS
370
25
 62
7
100
AcDbLine
 10
-12.99219617452573
 20
-6.960980872628689
 30
0.0
 11
-12.95317704715442
 21
-7.0
 31
0.0
  0
LINE
  5
97F
330
1F
100
AcDbEntity
  8
SK2
  6
CONTINUOUS
370
25
 62
7
100
AcDbLine
 10
-12.92148549640708
 20
-6.607427482035412
 30
0.0
 11
-12.52891297844249
 21
-7.0
 31
0.0
  0
LINE
  5
980
330
1F
100
AcDbEntity
  8
SK2
  6
CONTINUOUS
370
25
 62
7
100
AcDbLine
 10
-12.85077481828842
 20
-6.253874091442135
 30
0.0
 11
-12.10464890973056
 21
-7.0
 31
0.0
  0
LINE
  5
981
330
1F
100
AcDbEntity
  8
SK2
  6
CONTINUOUS
370
25
 62
7
100
AcDbLine
 10
-12.78006414016977
 20
-5.900320700848859
 30
0.0
 11
-11.68038484101863
 21
-7.0
 31
0.0
  0
LINE
  5
982
330
1F
100
AcDbEntity
  8
SK2
  6
CONTINUOUS
370
25
 62
7
100
AcDbLine
 10
-12.70935346205112
 20
-5.546767310255582
 30
0.0
 11
-11.25612077230669
 21
-7.0
 31
0.0
  0
LINE
  5
983
330
1F
100
AcDbEntity
  8
SK2
  6
CONTINUOUS
370
25
 62
7
100
AcDbLine
 10
-12.63864278393246
 20
-5.193213919662305
 30
0.0
 11
-11.0420358241013
 21
-6.789820879493455
 31
0.0
  0
LINE
  5
984
330
1F
100
AcDbEntity
  8
SK2
  6
CONTINUOUS
370
25
 62
7
100
AcDbLine
 10
-12.5679321058138
 20
-4.839660529069036
 30
0.0
 11
-11.14810184127928
 21
-6.259490793603547
 31
0.0
  0
LINE
  5
985
330
1F
100
AcDbEntity
  8
SK2
  6
CONTINUOUS
370
25
 62
7
100
AcDbLine
 10
-12.49722142769516
 20
-4.486107138475745
 30
0.0
 11
-11.25416785845727
 21
-5.729160707713639
 31
0.0
  0
LINE
  5
986
330
1F
100
AcDbEntity
  8
SK2
  6
CONTINUOUS
370
25
 62
7
100
AcDbLine
 10
-12.42651074957649
 20
-4.132553747882476
 30
0.0
 11
-11.36023387563525
 21
-5.198830621823717
 31
0.0
  0
LINE
  5
987
330
1F
100
AcDbEntity
  8
SK2
  6
CONTINUOUS
370
25
 62
7
100
AcDbLine
 10
-12.35580007145784
 20
-3.779000357289199
 30
0.0
 11
-11.46629989281323
 21
-4.668500535933809
 31
0.0
  0
LINE
  5
988
330
1F
100
AcDbEntity
  8
SK2
  6
CONTINUOUS
370
25
 62
7
100
AcDbLine
 10
-12.28508939333918
 20
-3.425446966695937
 30
0.0
 11
-11.57236590999122
 21
-4.138170450043894
 31
0.0
  0
LINE
  5
989
330
1F
100
AcDbEntity
  8
SK2
  6
CONTINUOUS
370
25
 62
7
100
AcDbLine
 10
-12.21437871522053
 20
-3.07189357610266
 30
0.0
 11
-11.6784319271692
 21
-3.607840364153986
 31
0.0
  0
LINE
  5
98A
330
1F
100
AcDbEntity
  8
SK2
  6
CONTINUOUS
370
25
 62
7
100
AcDbLine
 10
-12.14366803710188
 20
-2.718340185509376
 30
0.0
 11
-11.78449794434718
 21
-3.077510278264072
 31
0.0
  0
LINE
  5
98B
330
1F
100
AcDbEntity
  8
SK2
  6
CONTINUOUS
370
25
 62
7
100
AcDbLine
 10
-12.07295735898322
 20
-2.364786794916107
 30
0.0
 11
-11.89056396152516
 21
-2.547180192374164
 31
0.0
  0
LINE
  5
98C
330
1F
100
AcDbEntity
  8
SK2
  6
CONTINUOUS
370
25
 62
7
100
AcDbLine
 10
-12.00224668086456
 20
-2.01123340432283
 30
0.0
 11
-11.99662997870315
 21
-2.016850106484242
 31
0.0
  0
LINE
  5
98D
330
1F
100
AcDbEntity
  8
SK2
  6
CONTINUOUS
370
25
 62
7
100
AcDbLine
 10
-12.0
 20
2.0
 30
0.0
 11
-13.0
 21
7.0
 31
0.0
  0
LINE
  5
98E
330
1F
100
AcDbEntity
  8
SK2
  6
CONTINUOUS
370
25
 62
7
100
AcDbLine
 10
-13.0
 20
7.0
 30
0.0
 11
-11.0
 21
7.0
 31
0.0
  0
LINE
  5
98F
330
1F
100
AcDbEntity
  8
SK2
  6
CONTINUOUS
370
25
 62
7
100
AcDbLine
 10
-11.0
 20
7.0
 30
0.0
 11
-12.0
 21
2.0
 31
0.0
  0
LINE
  5
990
330
1F
100
AcDbEntity
  8
SK2
  6
CONTINUOUS
370
25
 62
7
100
AcDbLine
 10
-12.03528137423856
 20
2.176406871192832
 30
0.0
 11
-11.94707793864215
 21
2.264610306789237
 31
0.0
  0
LINE
  5
991
330
1F
100
AcDbEntity
  8
SK2
  6
CONTINUOUS
370
25
 62
7
100
AcDbLine
 10
-12.10599205235722
 20
2.529960261786101
 30
0.0
 11
-11.84101192146417
 21
2.794940392679145
 31
0.0
  0
LINE
  5
992
330
1F
100
AcDbEntity
  8
SK2
  6
CONTINUOUS
370
25
 62
7
100
AcDbLine
 10
-12.17670273047587
 20
2.883513652379385
 30
0.0
 11
-11.73494590428619
 21
3.325270478569067
 31
0.0
  0
LINE
  5
993
330
1F
100
AcDbEntity
  8
SK2
  6
CONTINUOUS
370
25
 62
7
100
AcDbLine
 10
-12.24741340859453
 20
3.237067042972647
 30
0.0
 11
-11.62887988710821
 21
3.855600564458975
 31
0.0
  0
LINE
  5
994
330
1F
100
AcDbEntity
  8
SK2
  6
CONTINUOUS
370
25
 62
7
100
AcDbLine
 10
-12.31812408671318
 20
3.590620433565931
 30
0.0
 11
-11.52281386993022
 21
4.385930650348897
 31
0.0
  0
LINE
  5
995
330
1F
100
AcDbEntity
  8
SK2
  6
CONTINUOUS
370
25
 62
7
100
AcDbLine
 10
-12.38883476483183
 20
3.944173824159208
 30
0.0
 11
-11.41674785275224
 21
4.916260736238804
 31
0.0
  0
LINE
  5
996
330
1F
100
AcDbEntity
  8
SK2
  6
CONTINUOUS
370
25
 62
7
100
AcDbLine
 10
-12.4595454429505
 20
4.297727214752477
 30
0.0
 11
-11.31068183557424
 21
5.446590822128734
 31
0.0
  0
LINE
  5
997
330
1F
100
AcDbEntity
  8
SK2
  6
CONTINUOUS
370
25
 62
7
100
AcDbLine
 10
-12.53025612106915
 20
4.651280605345754
 30
0.0
 11
-11.20461581839627
 21
5.976920908018634
 31
0.0
  0
LINE
  5
998
330
1F
100
AcDbEntity
  8
SK2
  6
CONTINUOUS
370
25
 62
7
100
AcDbLine
 10
-12.6009667991878
 20
5.004833995939038
 30
0.0
 11
-11.09854980121829
 21
6.507250993908549
 31
0.0
  0
LINE
  5
999
330
1F
100
AcDbEntity
  8
SK2
  6
CONTINUOUS
370
25
 62
7
100
AcDbLine
 10
-12.67167747730646
 20
5.358387386532314
 30
0.0
 11
-11.03006486383877
 21
7.0
 31
0.0
  0
LINE
  5
99A
330
1F
100
AcDbEntity
  8
SK2
  6
CONTINUOUS
370
25
 62
7
100
AcDbLine
 10
-12.74238815542511
 20
5.711940777125584
 30
0.0
 11
-11.45432893255069
 21
7.0
 31
0.0
  0
LINE
  5
99B
330
1F
100
AcDbEntity
  8
SK2
  6
CONTINUOUS
370
25
 62
7
100
AcDbLine
 10
-12.81309883354378
 20
6.065494167718853
 30
0.0
 11
-11.87859300126263
 21
7.0
 31
0.0
  0
LINE
  5
99C
330
1F
100
AcDbEntity
  8
SK2
  6
CONTINUOUS
370
25
 62
7
100
AcDbLine
 10
-12.88380951166243
 20
6.41904755831213
 30
0.0
 11
-12.30285706997456
 21
7.0
 31
0.0
  0
LINE
  5
99D
330
1F
100
AcDbEntity
  8
SK2
  6
CONTINUOUS
370
25
 62
7
100
AcDbLine
 10
-12.95452018978108
 20
6.772600948905414
 30
0.0
 11
-12.72712113868649
 21
7.0
 31
0.0
  0
LINE
  5
99E
330
1F
100
AcDbEntity
  8
SK2
  6
CONTINUOUS
370
25
 62
7
100
AcDbLine
 10
-12.10251742900771
 20
2.51258714503858
 30
0.0
 11
-11.93165504732819
 21
2.341724763359053
 31
0.0
  0
LINE
  5
99F
330
1F
100
AcDbEntity
  8
SK2
  6
CONTINUOUS
370
25
 62
7
100
AcDbLine
 10
-12.2085834461857
 20
3.042917230928502
 30
0.0
 11
-11.86094436920953
 21
2.695278153952337
 31
0.0
  0
LINE
  5
9A0
330
1F
100
AcDbEntity
  8
SK2
  6
CONTINUOUS
370
25
 62
7
100
AcDbLine
 10
-12.31464946336368
 20
3.57324731681841
 30
0.0
 11
-11.79023369109088
 21
3.048831544545614
 31
0.0
  0
LINE
  5
9A1
330
1F
100
AcDbEntity
  8
SK2
  6
CONTINUOUS
370
25
 62
7
100
AcDbLine
 10
-12.42071548054166
 20
4.103577402708318
 30
0.0
 11
-11.71952301297222
 21
3.402384935138876
 31
0.0
  0
LINE
  5
9A2
330
1F
100
AcDbEntity
  8
SK2
  6
CONTINUOUS
370
25
 62
7
100
AcDbLine
 10
-12.52678149771965
 20
4.63390748859824
 30
0.0
 11
-11.64881233485357
 21
3.75593832573216
 31
0.0
  0
LINE
  5
9A3
330
1F
100
AcDbEntity
  8
SK2
  6
CONTINUOUS
370
25
 62
7
100
AcDbLine
 10
-12.63284751489763
 20
5.164237574488148
 30
0.0
 11
-11.57810165673491
 21
4.109491716325429
 31
0.0
  0
LINE
  5
9A4
330
1F
100
AcDbEntity
  8
SK2
  6
CONTINUOUS
370
25
 62
7
100
AcDbLine
 10
-12.73891353207561
 20
5.69456766037807
 30
0.0
 11
-11.50739097861626
 21
4.463045106918713
 31
0.0
  0
LINE
  5
9A5
330
1F
100
AcDbEntity
  8
SK2
  6
CONTINUOUS
370
25
 62
7
100
AcDbLine
 10
-12.8449795492536
 20
6.224897746267985
 30
0.0
 11
-11.43668030049759
 21
4.816598497511983
 31
0.0
  0
LINE
  5
9A6
330
1F
100
AcDbEntity
  8
SK2
  6
CONTINUOUS
370
25
 62
7
100
AcDbLine
 10
-12.95104556643158
 20
6.7552278321579
 30
0.0
 11
-11.36596962237894
 21
5.170151888105266
 31
0.0
  0
LINE
  5
9A7
330
1F
100
AcDbEntity
  8
SK2
  6
CONTINUOUS
370
25
 62
7
100
AcDbLine
 10
-12.77155366556175
 20
7.0
 30
0.0
 11
-11.29525894426029
 21
5.523705278698543
 31
0.0
  0
LINE
  5
9A8
330
1F
100
AcDbEntity
  8
SK2
  6
CONTINUOUS
370
25
 62
7
100
AcDbLine
 10
-12.34728959684982
 20
7.0
 30
0.0
 11
-11.22454826614164
 21
5.87725866929182
 31
0.0
  0
LINE
  5
9A9
330
1F
100
AcDbEntity
  8
SK2
  6
CONTINUOUS
370
25
 62
7
100
AcDbLine
 10
-11.92302552813789
 20
7.0
 30
0.0
 11
-11.15383758802298
 21
6.230812059885089
 31
0.0
  0
LINE
  5
9AA
330
1F
100
AcDbEntity
  8
SK2
  6
CONTINUOUS
370
25
 62
7
100
AcDbLine
 10
-11.49876145942596
 20
7.0
 30
0.0
 11
-11.08312690990432
 21
6.584365450478366
 31
0.0
  0
LINE
  5
9AB
330
1F
100
AcDbEntity
  8
SK2
  6
CONTINUOUS
370
25
 62
7
100
AcDbLine
 10
-11.07449739071403
 20
7.0
 30
0.0
 11
-11.01241623178567
 21
6.937918841071642
 31
0.0
  0
TEXT
  5
9AC
330
1F
100
AcDbEntity
  8
SK2
  6
CONTINUOUS
370
25
 62
7
100
AcDbText
 10
-13.5
 20
12.34583333333333
 30
0.0
 40
3.5
  1
4
 50
90.00000000000001
 72
     1
 11
-13.5
 21
13.5125
 31
0.0
100
AcDbText
  0
CIRCLE
  5
9AD
330
1F
100
AcDbEntity
  8
SK2
  6
CONTINUOUS
370
25
 62
7
100
AcDbCircle
 10
-15.25
 20
10.1875
 30
0.0
 40
1.4
  0
LINE
  5
9AE
330
1F
100
AcDbEntity
  8
SK2
  6
CONTINUOUS
370
25
 62
7
100
AcDbLine
 10
-13.85
 20
8.787500000000001
 30
0.0
 11
-16.65
 21
11.5875
 31
0.0
  0
LINE
  5
9AF
330
1F
100
AcDbEntity
  8
SK2
  6
CONTINUOUS
370
25
 62
7
100
AcDbLine
 10
0.0
 20
2.0
 30
0.0
 11
0.0
 21
15.00001
 31
0.0
  0
LINE
  5
9B0
330
1F
100
AcDbEntity
  8
SK2
  6
CONTINUOUS
370
25
 62
7
100
AcDbLine
 10
36.7
 20
15.00001
 30
0.0
 11
36.7
 21
2.0
 31
0.0
  0
LINE
  5
9B1
330
1F
100
AcDbEntity
  8
SK2
  6
CONTINUOUS
370
25
 62
7
100
AcDbLine
 10
0.0
 20
14.00001
 30
0.0
 11
36.7
 21
14.00001
 31
0.0
  0
LINE
  5
9B2
330
1F
100
AcDbEntity
  8
SK2
  6
CONTINUOUS
370
25
 62
7
100
AcDbLine
 10
0.0
 20
14.00001
 30
0.0
 11
5.0
 21
15.00001
 31
0.0
  0
LINE
  5
9B3
330
1F
100
AcDbEntity
  8
SK2
  6
CONTINUOUS
370
25
 62
7
100
AcDbLine
 10
5.0
 20
15.00001
 30
0.0
 11
5.0
 21
13.00001
 31
0.0
  0
LINE
  5
9B4
330
1F
100
AcDbEntity
  8
SK2
  6
CONTINUOUS
370
25
 62
7
100
AcDbLine
 10
5.0
 20
13.00001
 30
0.0
 11
0.0
 21
14.00001
 31
0.0
  0
LINE
  5
9B5
330
1F
100
AcDbEntity
  8
SK2
  6
CONTINUOUS
370
25
 62
7
100
AcDbLine
 10
4.773348930446332
 20
13.04534021391073
 30
0.0
 11
5.0
 21
13.2719912834644
 31
0.0
  0
LINE
  5
9B6
330
1F
100
AcDbEntity
  8
SK2
  6
CONTINUOUS
370
25
 62
7
100
AcDbLine
 10
4.419795539853055
 20
13.11605089202939
 30
0.0
 11
5.0
 21
13.69625535217633
 31
0.0
  0
LINE
  5
9B7
330
1F
100
AcDbEntity
  8
SK2
  6
CONTINUOUS
370
25
 62
7
100
AcDbLine
 10
4.066242149259786
 20
13.18676157014804
 30
0.0
 11
5.0
 21
14.12051942088825
 31
0.0
  0
LINE
  5
9B8
330
1F
100
AcDbEntity
  8
SK2
  6
CONTINUOUS
370
25
 62
7
100
AcDbLine
 10
3.712688758666502
 20
13.25747224826669
 30
0.0
 11
5.0
 21
14.54478348960019
 31
0.0
  0
LINE
  5
9B9
330
1F
100
AcDbEntity
  8
SK2
  6
CONTINUOUS
370
25
 62
7
100
AcDbLine
 10
3.359135368073233
 20
13.32818292638535
 30
0.0
 11
5.0
 21
14.96904755831212
 31
0.0
  0
LINE
  5
9BA
330
1F
100
AcDbEntity
  8
SK2
  6
CONTINUOUS
370
25
 62
7
100
AcDbLine
 10
3.005581977479963
 20
13.39889360450401
 30
0.0
 11
4.508372966219937
 21
14.90168459324398
 31
0.0
  0
LINE
  5
9BB
330
1F
100
AcDbEntity
  8
SK2
  6
CONTINUOUS
370
25
 62
7
100
AcDbLine
 10
2.652028586886686
 20
13.46960428262266
 30
0.0
 11
3.978042880330037
 21
14.795618576066
 31
0.0
  0
LINE
  5
9BC
330
1F
100
AcDbEntity
  8
SK2
  6
CONTINUOUS
370
25
 62
7
100
AcDbLine
 10
2.298475196293403
 20
13.54031496074132
 30
0.0
 11
3.447712794440115
 21
14.68955255888802
 31
0.0
  0
LINE
  5
9BD
330
1F
100
AcDbEntity
  8
SK2
  6
CONTINUOUS
370
25
 62
7
100
AcDbLine
 10
1.944921805700133
 20
13.61102563885997
 30
0.0
 11
2.9173827085502
 21
14.58348654171004
 31
0.0
  0
LINE
  5
9BE
330
1F
100
AcDbEntity
  8
SK2
  6
CONTINUOUS
370
25
 62
7
100
AcDbLine
 10
1.591368415106857
 20
13.68173631697863
 30
0.0
 11
2.387052622660285
 21
14.47742052453205
 31
0.0
  0
LINE
  5
9BF
330
1F
100
AcDbEntity
  8
SK2
  6
CONTINUOUS
370
25
 62
7
100
AcDbLine
 10
1.237815024513587
 20
13.75244699509729
 30
0.0
 11
1.856722536770384
 21
14.37135450735408
 31
0.0
  0
LINE
  5
9C0
330
1F
100
AcDbEntity
  8
SK2
  6
CONTINUOUS
370
25
 62
7
100
AcDbLine
 10
0.8842616339203033
 20
13.82315767321594
 30
0.0
 11
1.326392450880455
 21
14.26528849017609
 31
0.0
  0
LINE
  5
9C1
330
1F
100
AcDbEntity
  8
SK2
  6
CONTINUOUS
370
25
 62
7
100
AcDbLine
 10
0.5307082433270338
 20
13.8938683513346
 30
0.0
 11
0.7960623649905401
 21
14.1592224729981
 31
0.0
  0
LINE
  5
9C2
330
1F
100
AcDbEntity
  8
SK2
  6
CONTINUOUS
370
25
 62
7
100
AcDbLine
 10
0.1771548527337572
 20
13.96457902945325
 30
0.0
 11
0.2657322791006251
 21
14.05315645582012
 31
0.0
  0
LINE
  5
9C3
330
1F
100
AcDbEntity
  8
SK2
  6
CONTINUOUS
370
25
 62
7
100
AcDbLine
 10
0.1891898328757407
 20
14.03784796657515
 30
0.0
 11
0.2837847493136181
 21
13.94325305013727
 31
0.0
  0
LINE
  5
9C4
330
1F
100
AcDbEntity
  8
SK2
  6
CONTINUOUS
370
25
 62
7
100
AcDbLine
 10
0.5427432234690173
 20
14.10855864469381
 30
0.0
 11
0.814114835203533
 21
13.8371870329593
 31
0.0
  0
LINE
  5
9C5
330
1F
100
AcDbEntity
  8
SK2
  6
CONTINUOUS
370
25
 62
7
100
AcDbLine
 10
0.8962966140622939
 20
14.17926932281246
 30
0.0
 11
1.344444921093441
 21
13.73112101578131
 31
0.0
  0
LINE
  5
9C6
330
1F
100
AcDbEntity
  8
SK2
  6
CONTINUOUS
370
25
 62
7
100
AcDbLine
 10
1.249850004655563
 20
14.24998000093112
 30
0.0
 11
1.874775006983356
 21
13.62505499860333
 31
0.0
  0
LINE
  5
9C7
330
1F
100
AcDbEntity
  8
SK2
  6
CONTINUOUS
370
25
 62
7
100
AcDbLine
 10
1.603403395248847
 20
14.32069067904977
 30
0.0
 11
2.405105092873271
 21
13.51898898142534
 31
0.0
  0
LINE
  5
9C8
330
1F
100
AcDbEntity
  8
SK2
  6
CONTINUOUS
370
25
 62
7
100
AcDbLine
 10
1.956956785842117
 20
14.39140135716842
 30
0.0
 11
2.935435178763171
 21
13.41292296424737
 31
0.0
  0
LINE
  5
9C9
330
1F
100
AcDbEntity
  8
SK2
  6
CONTINUOUS
370
25
 62
7
100
AcDbLine
 10
2.310510176435393
 20
14.46211203528708
 30
0.0
 11
3.465765264653086
 21
13.30685694706938
 31
0.0
  0
LINE
  5
9CA
330
1F
100
AcDbEntity
  8
SK2
  6
CONTINUOUS
370
25
 62
7
100
AcDbLine
 10
2.664063567028663
 20
14.53282271340574
 30
0.0
 11
3.996095350543001
 21
13.20079092989139
 31
0.0
  0
LINE
  5
9CB
330
1F
100
AcDbEntity
  8
SK2
  6
CONTINUOUS
370
25
 62
7
100
AcDbLine
 10
3.017616957621946
 20
14.60353339152439
 30
0.0
 11
4.526425436432909
 21
13.09472491271342
 31
0.0
  0
LINE
  5
9CC
330
1F
100
AcDbEntity
  8
SK2
  6
CONTINUOUS
370
25
 62
7
100
AcDbLine
 10
3.371170348215216
 20
14.67424406964304
 30
0.0
 11
5.0
 21
13.04541441785825
 31
0.0
  0
LINE
  5
9CD
330
1F
100
AcDbEntity
  8
SK2
  6
CONTINUOUS
370
25
 62
7
100
AcDbLine
 10
3.724723738808486
 20
14.7449547477617
 30
0.0
 11
5.0
 21
13.46967848657018
 31
0.0
  0
LINE
  5
9CE
330
1F
100
AcDbEntity
  8
SK2
  6
CONTINUOUS
370
25
 62
7
100
AcDbLine
 10
4.078277129401762
 20
14.81566542588035
 30
0.0
 11
5.0
 21
13.89394255528211
 31
0.0
  0
LINE
  5
9CF
330
1F
100
AcDbEntity
  8
SK2
  6
CONTINUOUS
370
25
 62
7
100
AcDbLine
 10
4.431830519995039
 20
14.88637610399901
 30
0.0
 11
5.0
 21
14.31820662399404
 31
0.0
  0
LINE
  5
9D0
330
1F
100
AcDbEntity
  8
SK2
  6
CONTINUOUS
370
25
 62
7
100
AcDbLine
 10
4.785383910588308
 20
14.95708678211767
 30
0.0
 11
5.0
 21
14.74247069270598
 31
0.0
  0
LINE
  5
9D1
330
1F
100
AcDbEntity
  8
SK2
  6
CONTINUOUS
370
25
 62
7
100
AcDbLine
 10
36.7
 20
14.00001
 30
0.0
 11
31.7
 21
13.00001
 31
0.0
  0
LINE
  5
9D2
330
1F
100
AcDbEntity
  8
SK2
  6
CONTINUOUS
370
25
 62
7
100
AcDbLine
 10
31.7
 20
13.00001
 30
0.0
 11
31.7
 21
15.00001
 31
0.0
  0
LINE
  5
9D3
330
1F
100
AcDbEntity
  8
SK2
  6
CONTINUOUS
370
25
 62
7
100
AcDbLine
 10
31.7
 20
15.00001
 30
0.0
 11
36.7
 21
14.00001
 31
0.0
  0
LINE
  5
9D4
330
1F
100
AcDbEntity
  8
SK2
  6
CONTINUOUS
370
25
 62
7
100
AcDbLine
 10
36.69911966563295
 20
13.99983393312659
 30
0.0
 11
36.69941311042196
 21
14.00012737791561
 31
0.0
  0
LINE
  5
9D5
330
1F
100
AcDbEntity
  8
SK2
  6
CONTINUOUS
370
25
 62
7
100
AcDbLine
 10
36.16878957974304
 20
13.89376791594861
 30
0.0
 11
36.3458597198287
 21
14.07083805603426
 31
0.0
  0
LINE
  5
9D6
330
1F
100
AcDbEntity
  8
SK2
  6
CONTINUOUS
370
25
 62
7
100
AcDbLine
 10
35.63845949385313
 20
13.78770189877063
 30
0.0
 11
35.99230632923542
 21
14.14154873415292
 31
0.0
  0
LINE
  5
9D7
330
1F
100
AcDbEntity
  8
SK2
  6
CONTINUOUS
370
25
 62
7
100
AcDbLine
 10
35.10812940796322
 20
13.68163588159264
 30
0.0
 11
35.63875293864215
 21
14.21225941227157
 31
0.0
  0
LINE
  5
9D8
330
1F
100
AcDbEntity
  8
SK2
  6
CONTINUOUS
370
25
 62
7
100
AcDbLine
 10
34.57779932207331
 20
13.57556986441466
 30
0.0
 11
35.28519954804887
 21
14.28297009039023
 31
0.0
  0
LINE
  5
9D9
330
1F
100
AcDbEntity
  8
SK2
  6
CONTINUOUS
370
25
 62
7
100
AcDbLine
 10
34.0474692361834
 20
13.46950384723668
 30
0.0
 11
34.9316461574556
 21
14.35368076850888
 31
0.0
  0
LINE
  5
9DA
330
1F
100
AcDbEntity
  8
SK2
  6
CONTINUOUS
370
25
 62
7
100
AcDbLine
 10
33.51713915029349
 20
13.3634378300587
 30
0.0
 11
34.57809276686233
 21
14.42439144662753
 31
0.0
  0
LINE
  5
9DB
330
1F
100
AcDbEntity
  8
SK2
  6
CONTINUOUS
370
25
 62
7
100
AcDbLine
 10
32.98680906440358
 20
13.25737181288071
 30
0.0
 11
34.22453937626906
 21
14.49510212474619
 31
0.0
  0
LINE
  5
9DC
330
1F
100
AcDbEntity
  8
SK2
  6
CONTINUOUS
370
25
 62
7
100
AcDbLine
 10
32.45647897851367
 20
13.15130579570273
 30
0.0
 11
33.87098598567578
 21
14.56581280286484
 31
0.0
  0
LINE
  5
9DD
330
1F
100
AcDbEntity
  8
SK2
  6
CONTINUOUS
370
25
 62
7
100
AcDbLine
 10
31.92614889262376
 20
13.04523977852475
 30
0.0
 11
33.51743259508251
 21
14.6365234809835
 31
0.0
  0
LINE
  5
9DE
330
1F
100
AcDbEntity
  8
SK2
  6
CONTINUOUS
370
25
 62
7
100
AcDbLine
 10
31.7
 20
13.24335495461292
 30
0.0
 11
33.16387920448923
 21
14.70723415910215
 31
0.0
  0
LINE
  5
9DF
330
1F
100
AcDbEntity
  8
SK2
  6
CONTINUOUS
370
25
 62
7
100
AcDbLine
 10
31.7
 20
13.66761902332485
 30
0.0
 11
32.81032581389596
 21
14.77794483722081
 31
0.0
  0
LINE
  5
9E0
330
1F
100
AcDbEntity
  8
SK2
  6
CONTINUOUS
370
25
 62
7
100
AcDbLine
 10
31.7
 20
14.09188309203677
 30
0.0
 11
32.45677242330269
 21
14.84865551533946
 31
0.0
  0
LINE
  5
9E1
330
1F
100
AcDbEntity
  8
SK2
  6
CONTINUOUS
370
25
 62
7
100
AcDbLine
 10
31.7
 20
14.5161471607487
 30
0.0
 11
32.10321903270942
 21
14.91936619345812
 31
0.0
  0
LINE
  5
9E2
330
1F
100
AcDbEntity
  8
SK2
  6
CONTINUOUS
370
25
 62
7
100
AcDbLine
 10
31.7
 20
14.94041122946063
 30
0.0
 11
31.74966564211615
 21
14.99007687157677
 31
0.0
  0
LINE
  5
9E3
330
1F
100
AcDbEntity
  8
SK2
  6
CONTINUOUS
370
25
 62
7
100
AcDbLine
 10
31.7
 20
13.06101730552664
 30
0.0
 11
31.7508394212722
 21
13.01017788425444
 31
0.0
  0
LINE
  5
9E4
330
1F
100
AcDbEntity
  8
SK2
  6
CONTINUOUS
370
25
 62
7
100
AcDbLine
 10
31.7
 20
13.48528137423857
 30
0.0
 11
32.10439281186548
 21
13.08088856237309
 31
0.0
  0
LINE
  5
9E5
330
1F
100
AcDbEntity
  8
SK2
  6
CONTINUOUS
370
25
 62
7
100
AcDbLine
 10
31.7
 20
13.9095454429505
 30
0.0
 11
32.45794620245875
 21
13.15159924049175
 31
0.0
  0
LINE
  5
9E6
330
1F
100
AcDbEntity
  8
SK2
  6
CONTINUOUS
370
25
 62
7
100
AcDbLine
 10
31.7
 20
14.33380951166242
 30
0.0
 11
32.81149959305203
 21
13.2223099186104
 31
0.0
  0
LINE
  5
9E7
330
1F
100
AcDbEntity
  8
SK2
  6
CONTINUOUS
370
25
 62
7
100
AcDbLine
 10
31.7
 20
14.75807358037435
 30
0.0
 11
33.1650529836453
 21
13.29302059672906
 31
0.0
  0
LINE
  5
9E8
330
1F
100
AcDbEntity
  8
SK2
  6
CONTINUOUS
370
25
 62
7
100
AcDbLine
 10
31.92790956135785
 20
14.95442808772843
 30
0.0
 11
33.51860637423857
 21
13.36373127484771
 31
0.0
  0
LINE
  5
9E9
330
1F
100
AcDbEntity
  8
SK2
  6
CONTINUOUS
370
25
 62
7
100
AcDbLine
 10
32.45823964724777
 20
14.84836207055045
 30
0.0
 11
33.87215976483184
 21
13.43444195296637
 31
0.0
  0
LINE
  5
9EA
330
1F
100
AcDbEntity
  8
SK2
  6
CONTINUOUS
370
25
 62
7
100
AcDbLine
 10
32.98856973313767
 20
14.74229605337247
 30
0.0
 11
34.22571315542512
 21
13.50515263108502
 31
0.0
  0
LINE
  5
9EB
330
1F
100
AcDbEntity
  8
SK2
  6
CONTINUOUS
370
25
 62
7
100
AcDbLine
 10
33.51889981902758
 20
14.63623003619448
 30
0.0
 11
34.57926654601839
 21
13.57586330920368
 31
0.0
  0
LINE
  5
9EC
330
1F
100
AcDbEntity
  8
SK2
  6
CONTINUOUS
370
25
 62
7
100
AcDbLine
 10
34.04922990491749
 20
14.5301640190165
 30
0.0
 11
34.93281993661166
 21
13.64657398732233
 31
0.0
  0
LINE
  5
9ED
330
1F
100
AcDbEntity
  8
SK2
  6
CONTINUOUS
370
25
 62
7
100
AcDbLine
 10
34.5795599908074
 20
14.42409800183852
 30
0.0
 11
35.28637332720494
 21
13.71728466544099
 31
0.0
  0
LINE
  5
9EE
330
1F
100
AcDbEntity
  8
SK2
  6
CONTINUOUS
370
25
 62
7
100
AcDbLine
 10
35.10989007669731
 20
14.31803198466054
 30
0.0
 11
35.63992671779821
 21
13.78799534355964
 31
0.0
  0
LINE
  5
9EF
330
1F
100
AcDbEntity
  8
SK2
  6
CONTINUOUS
370
25
 62
7
100
AcDbLine
 10
35.64022016258723
 20
14.21196596748256
 30
0.0
 11
35.99348010839149
 21
13.8587060216783
 31
0.0
  0
LINE
  5
9F0
330
1F
100
AcDbEntity
  8
SK2
  6
CONTINUOUS
370
25
 62
7
100
AcDbLine
 10
36.17055024847713
 20
14.10589995030457
 30
0.0
 11
36.34703349898476
 21
13.92941669979695
 31
0.0
  0
TEXT
  5
9F1
330
1F
100
AcDbEntity
  8
SK2
  6
CONTINUOUS
370
25
 62
7
100
AcDbText
 10
13.1
 20
15.50001
 30
0.0
 40
3.5
  1
36.7
 72
     1
 11
18.35
 21
15.50001
 31
0.0
100
AcDbText
  0
LINE
  5
9F2
330
1F
100
AcDbEntity
  8
2
  6
CONTINUOUS
370
25
 62
7
100
AcDbLine
 10
45.0
 20
-0.1
 30
0.0
 11
71.92500000000001
 21
-0.1000000000000033
 31
0.0
  0
LINE
  5
9F3
330
1F
100
AcDbEntity
  8
2
  6
CONTINUOUS
370
25
 62
7
100
AcDbLine
 10
71.92500000000001
 20
0.0999999999999967
 30
0.0
 11
45.0
 21
0.1
 31
0.0
  0
LINE
  5
9F4
330
1F
100
AcDbEntity
  8
2
  6
CONTINUOUS
370
25
 62
7
100
AcDbLine
 10
70.92500000000001
 20
-7.100000000000003
 30
0.0
 11
70.92500000000001
 21
19.525
 31
0.0
  0
LINE
  5
9F5
330
1F
100
AcDbEntity
  8
2
  6
CONTINUOUS
370
25
 62
7
100
AcDbLine
 10
70.92500000000001
 20
-0.1000000000000032
 30
0.0
 11
71.92500000000001
 21
-5.100000000000003
 31
0.0
  0
LINE
  5
9F6
330
1F
100
AcDbEntity
  8
2
  6
CONTINUOUS
370
25
 62
7
100
AcDbLine
 10
71.92500000000001
 20
-5.100000000000003
 30
0.0
 11
69.92500000000001
 21
-5.100000000000003
 31
0.0
  0
LINE
  5
9F7
330
1F
100
AcDbEntity
  8
2
  6
CONTINUOUS
370
25
 62
7
100
AcDbLine
 10
69.92500000000001
 20
-5.100000000000003
 30
0.0
 11
70.92500000000001
 21
-0.1000000000000032
 31
0.0
  0
LINE
  5
9F8
330
1F
100
AcDbEntity
  8
2
  6
CONTINUOUS
370
25
 62
7
100
AcDbLine
 10
71.6252116582077
 20
-5.100000000000001
 30
0.0
 11
71.87503527636795
 21
-4.850176381839745
 31
0.0
  0
LINE
  5
9F9
330
1F
100
AcDbEntity
  8
2
  6
CONTINUOUS
370
25
 62
7
100
AcDbLine
 10
71.20094758949577
 20
-5.100000000000001
 30
0.0
 11
71.80432459824931
 21
-4.496622991246475
 31
0.0
  0
LINE
  5
9FA
330
1F
100
AcDbEntity
  8
2
  6
CONTINUOUS
370
25
 62
7
100
AcDbLine
 10
70.77668352078385
 20
-5.100000000000001
 30
0.0
 11
71.73361392013064
 21
-4.143069600653206
 31
0.0
  0
LINE
  5
9FB
330
1F
100
AcDbEntity
  8
2
  6
CONTINUOUS
370
25
 62
7
100
AcDbLine
 10
70.35241945207193
 20
-5.100000000000001
 30
0.0
 11
71.66290324201199
 21
-3.789516210059936
 31
0.0
  0
LINE
  5
9FC
330
1F
100
AcDbEntity
  8
2
  6
CONTINUOUS
370
25
 62
7
100
AcDbLine
 10
69.92815538336
 20
-5.100000000000001
 30
0.0
 11
71.59219256389333
 21
-3.43596281946666
 31
0.0
  0
LINE
  5
9FD
330
1F
100
AcDbEntity
  8
2
  6
CONTINUOUS
370
25
 62
7
100
AcDbLine
 10
70.03027717133799
 20
-4.573614143310067
 30
0.0
 11
71.52148188577468
 21
-3.082409428873376
 31
0.0
  0
LINE
  5
9FE
330
1F
100
AcDbEntity
  8
2
  6
CONTINUOUS
370
25
 62
7
100
AcDbLine
 10
70.13634318851597
 20
-4.043284057420166
 30
0.0
 11
71.45077120765603
 21
-2.728856038280099
 31
0.0
  0
LINE
  5
9FF
330
1F
100
AcDbEntity
  8
2
  6
CONTINUOUS
370
25
 62
7
100
AcDbLine
 10
70.24240920569395
 20
-3.512953971530251
 30
0.0
 11
71.38006052953736
 21
-2.37530264768683
 31
0.0
  0
LINE
  5
A00
330
1F
100
AcDbEntity
  8
2
  6
CONTINUOUS
370
25
 62
7
100
AcDbLine
 10
70.34847522287194
 20
-2.982623885640344
 30
0.0
 11
71.30934985141872
 21
-2.021749257093553
 31
0.0
  0
LINE
  5
A01
330
1F
100
AcDbEntity
  8
2
  6
CONTINUOUS
370
25
 62
7
100
AcDbLine
 10
70.4545412400499
 20
-2.452293799750436
 30
0.0
 11
71.23863917330007
 21
-1.668195866500277
 31
0.0
  0
LINE
  5
A02
330
1F
100
AcDbEntity
  8
2
  6
CONTINUOUS
370
25
 62
7
100
AcDbLine
 10
70.5606072572279
 20
-1.921963713860514
 30
0.0
 11
71.1679284951814
 21
-1.314642475907
 31
0.0
  0
LINE
  5
A03
330
1F
100
AcDbEntity
  8
2
  6
CONTINUOUS
370
25
 62
7
100
AcDbLine
 10
70.66667327440587
 20
-1.391633627970606
 30
0.0
 11
71.09721781706276
 21
-0.9610890853137235
 31
0.0
  0
LINE
  5
A04
330
1F
100
AcDbEntity
  8
2
  6
CONTINUOUS
370
25
 62
7
100
AcDbLine
 10
70.77273929158386
 20
-0.8613035420806767
 30
0.0
 11
71.0265071389441
 21
-0.6075356947204469
 31
0.0
  0
LINE
  5
A05
330
1F
100
AcDbEntity
  8
2
  6
CONTINUOUS
370
25
 62
7
100
AcDbLine
 10
70.87880530876186
 20
-0.3309734561907689
 30
0.0
 11
70.95579646082544
 21
-0.2539823041271774
 31
0.0
  0
LINE
  5
A06
330
1F
100
AcDbEntity
  8
2
  6
CONTINUOUS
370
25
 62
7
100
AcDbLine
 10
69.97511543394987
 20
-4.849422830250674
 30
0.0
 11
70.2256926036992
 21
-5.100000000000001
 31
0.0
  0
LINE
  5
A07
330
1F
100
AcDbEntity
  8
2
  6
CONTINUOUS
370
25
 62
7
100
AcDbLine
 10
70.04582611206851
 20
-4.495869439657394
 30
0.0
 11
70.64995667241112
 21
-5.100000000000005
 31
0.0
  0
LINE
  5
A08
330
1F
100
AcDbEntity
  8
2
  6
CONTINUOUS
370
25
 62
7
100
AcDbLine
 10
70.11653679018718
 20
-4.142316049064124
 30
0.0
 11
71.07422074112306
 21
-5.100000000000005
 31
0.0
  0
LINE
  5
A09
330
1F
100
AcDbEntity
  8
2
  6
CONTINUOUS
370
25
 62
7
100
AcDbLine
 10
70.18724746830583
 20
-3.788762658470855
 30
0.0
 11
71.49848480983499
 21
-5.100000000000005
 31
0.0
  0
LINE
  5
A0A
330
1F
100
AcDbEntity
  8
2
  6
CONTINUOUS
370
25
 62
7
100
AcDbLine
 10
70.25795814642449
 20
-3.435209267877578
 30
0.0
 11
71.92274887854691
 21
-5.100000000000005
 31
0.0
  0
LINE
  5
A0B
330
1F
100
AcDbEntity
  8
2
  6
CONTINUOUS
370
25
 62
7
100
AcDbLine
 10
70.32866882454314
 20
-3.081655877284305
 30
0.0
 11
71.8194967631853
 21
-4.572483815926446
 31
0.0
  0
LINE
  5
A0C
330
1F
100
AcDbEntity
  8
2
  6
CONTINUOUS
370
25
 62
7
100
AcDbLine
 10
70.39937950266179
 20
-2.728102486691022
 30
0.0
 11
71.71343074600732
 21
-4.042153730036539
 31
0.0
  0
LINE
  5
A0D
330
1F
100
AcDbEntity
  8
2
  6
CONTINUOUS
370
25
 62
7
100
AcDbLine
 10
70.47009018078046
 20
-2.374549096097752
 30
0.0
 11
71.60736472882932
 21
-3.511823644146617
 31
0.0
  0
LINE
  5
A0E
330
1F
100
AcDbEntity
  8
2
  6
CONTINUOUS
370
25
 62
7
100
AcDbLine
 10
70.5408008588991
 20
-2.020995705504479
 30
0.0
 11
71.50129871165134
 21
-2.981493558256712
 31
0.0
  0
LINE
  5
A0F
330
1F
100
AcDbEntity
  8
2
  6
CONTINUOUS
370
25
 62
7
100
AcDbLine
 10
70.61151153701776
 20
-1.667442314911199
 30
0.0
 11
71.39523269447335
 21
-2.451163472366794
 31
0.0
  0
LINE
  5
A10
330
1F
100
AcDbEntity
  8
2
  6
CONTINUOUS
370
25
 62
7
100
AcDbLine
 10
70.68222221513642
 20
-1.313888924317929
 30
0.0
 11
71.28916667729538
 21
-1.920833386476893
 31
0.0
  0
LINE
  5
A11
330
1F
100
AcDbEntity
  8
2
  6
CONTINUOUS
370
25
 62
7
100
AcDbLine
 10
70.75293289325506
 20
-0.9603355337246597
 30
0.0
 11
71.18310066011739
 21
-1.390503300586985
 31
0.0
  0
LINE
  5
A12
330
1F
100
AcDbEntity
  8
2
  6
CONTINUOUS
370
25
 62
7
100
AcDbLine
 10
70.82364357137372
 20
-0.6067821431313831
 30
0.0
 11
71.07703464293942
 21
-0.8601732146970775
 31
0.0
  0
LINE
  5
A13
330
1F
100
AcDbEntity
  8
2
  6
CONTINUOUS
370
25
 62
7
100
AcDbLine
 10
70.89435424949238
 20
-0.2532287525381065
 30
0.0
 11
70.97096862576143
 21
-0.3298431288071555
 31
0.0
  0
LINE
  5
A14
330
1F
100
AcDbEntity
  8
2
  6
CONTINUOUS
370
25
 62
7
100
AcDbLine
 10
70.92500000000001
 20
0.0999999999999968
 30
0.0
 11
69.92500000000001
 21
5.099999999999997
 31
0.0
  0
LINE
  5
A15
330
1F
100
AcDbEntity
  8
2
  6
CONTINUOUS
370
25
 62
7
100
AcDbLine
 10
69.92500000000001
 20
5.099999999999997
 30
0.0
 11
71.92500000000001
 21
5.099999999999997
 31
0.0
  0
LINE
  5
A16
330
1F
100
AcDbEntity
  8
2
  6
CONTINUOUS
370
25
 62
7
100
AcDbLine
 10
71.92500000000001
 20
5.099999999999997
 30
0.0
 11
70.92500000000001
 21
0.0999999999999968
 31
0.0
  0
LINE
  5
A17
330
1F
100
AcDbEntity
  8
2
  6
CONTINUOUS
370
25
 62
7
100
AcDbLine
 10
70.8821420575545
 20
0.3142897122274988
 30
0.0
 11
70.98928691366825
 21
0.4214345683412546
 31
0.0
  0
LINE
  5
A18
330
1F
100
AcDbEntity
  8
2
  6
CONTINUOUS
370
25
 62
7
100
AcDbLine
 10
70.81143137943585
 20
0.6678431028207683
 30
0.0
 11
71.09535293084625
 21
0.9517646542311624
 31
0.0
  0
LINE
  5
A19
330
1F
100
AcDbEntity
  8
2
  6
CONTINUOUS
370
25
 62
7
100
AcDbLine
 10
70.7407207013172
 20
1.021396493414045
 30
0.0
 11
71.20141894802421
 21
1.482094740121063
 31
0.0
  0
LINE
  5
A1A
330
1F
100
AcDbEntity
  8
2
  6
CONTINUOUS
370
25
 62
7
100
AcDbLine
 10
70.67001002319853
 20
1.374949884007314
 30
0.0
 11
71.3074849652022
 21
2.012424826010978
 31
0.0
  0
LINE
  5
A1B
330
1F
100
AcDbEntity
  8
2
  6
CONTINUOUS
370
25
 62
7
100
AcDbLine
 10
70.59929934507988
 20
1.728503274600591
 30
0.0
 11
71.41355098238017
 21
2.542754911900886
 31
0.0
  0
LINE
  5
A1C
330
1F
100
AcDbEntity
  8
2
  6
CONTINUOUS
370
25
 62
7
100
AcDbLine
 10
70.52858866696124
 20
2.082056665193871
 30
0.0
 11
71.51961699955817
 21
3.073084997790797
 31
0.0
  0
LINE
  5
A1D
330
1F
100
AcDbEntity
  8
2
  6
CONTINUOUS
370
25
 62
7
100
AcDbLine
 10
70.45787798884257
 20
2.435610055787137
 30
0.0
 11
71.62568301673615
 21
3.603415083680723
 31
0.0
  0
LINE
  5
A1E
330
1F
100
AcDbEntity
  8
2
  6
CONTINUOUS
370
25
 62
7
100
AcDbLine
 10
70.38716731072392
 20
2.789163446380417
 30
0.0
 11
71.73174903391413
 21
4.133745169570634
 31
0.0
  0
LINE
  5
A1F
330
1F
100
AcDbEntity
  8
2
  6
CONTINUOUS
370
25
 62
7
100
AcDbLine
 10
70.31645663260525
 20
3.142716836973687
 30
0.0
 11
71.83781505109212
 21
4.664075255460549
 31
0.0
  0
LINE
  5
A20
330
1F
100
AcDbEntity
  8
2
  6
CONTINUOUS
370
25
 62
7
100
AcDbLine
 10
70.24574595448661
 20
3.496270227566967
 30
0.0
 11
71.84947572691962
 21
5.099999999999994
 31
0.0
  0
LINE
  5
A21
330
1F
100
AcDbEntity
  8
2
  6
CONTINUOUS
370
25
 62
7
100
AcDbLine
 10
70.17503527636795
 20
3.849823618160237
 30
0.0
 11
71.4252116582077
 21
5.099999999999994
 31
0.0
  0
LINE
  5
A22
330
1F
100
AcDbEntity
  8
2
  6
CONTINUOUS
370
25
 62
7
100
AcDbLine
 10
70.10432459824929
 20
4.203377008753513
 30
0.0
 11
71.00094758949577
 21
5.099999999999994
 31
0.0
  0
LINE
  5
A23
330
1F
100
AcDbEntity
  8
2
  6
CONTINUOUS
370
25
 62
7
100
AcDbLine
 10
70.03361392013065
 20
4.556930399346793
 30
0.0
 11
70.57668352078383
 21
5.099999999999998
 31
0.0
  0
LINE
  5
A24
330
1F
100
AcDbEntity
  8
2
  6
CONTINUOUS
370
25
 62
7
100
AcDbLine
 10
69.96290324201199
 20
4.91048378994007
 30
0.0
 11
70.15241945207191
 21
5.099999999999998
 31
0.0
  0
LINE
  5
A25
330
1F
100
AcDbEntity
  8
2
  6
CONTINUOUS
370
25
 62
7
100
AcDbLine
 10
70.91490260858345
 20
0.1504869570827552
 30
0.0
 11
70.93173159427771
 21
0.1336579713885016
 31
0.0
  0
LINE
  5
A26
330
1F
100
AcDbEntity
  8
2
  6
CONTINUOUS
370
25
 62
7
100
AcDbLine
 10
70.80883659140548
 20
0.680817042972663
 30
0.0
 11
71.00244227239637
 21
0.4872113619817782
 31
0.0
  0
LINE
  5
A27
330
1F
100
AcDbEntity
  8
2
  6
CONTINUOUS
370
25
 62
7
100
AcDbLine
 10
70.70277057422749
 20
1.211147128862578
 30
0.0
 11
71.07315295051501
 21
0.8407647525750477
 31
0.0
  0
LINE
  5
A28
330
1F
100
AcDbEntity
  8
2
  6
CONTINUOUS
370
25
 62
7
100
AcDbLine
 10
70.5967045570495
 20
1.741477214752486
 30
0.0
 11
71.14386362863367
 21
1.194318143168331
 31
0.0
  0
LINE
  5
A29
330
1F
100
AcDbEntity
  8
2
  6
CONTINUOUS
370
25
 62
7
100
AcDbLine
 10
70.49063853987153
 20
2.271807300642408
 30
0.0
 11
71.21457430675233
 21
1.547871533761601
 31
0.0
  0
LINE
  5
A2A
330
1F
100
AcDbEntity
  8
2
  6
CONTINUOUS
370
25
 62
7
100
AcDbLine
 10
70.38457252269355
 20
2.802137386532308
 30
0.0
 11
71.28528498487097
 21
1.901424924354878
 31
0.0
  0
LINE
  5
A2B
330
1F
100
AcDbEntity
  8
2
  6
CONTINUOUS
370
25
 62
7
100
AcDbLine
 10
70.27850650551557
 20
3.332467472422216
 30
0.0
 11
71.35599566298963
 21
2.254978314948161
 31
0.0
  0
LINE
  5
A2C
330
1F
100
AcDbEntity
  8
2
  6
CONTINUOUS
370
25
 62
7
100
AcDbLine
 10
70.17244048833757
 20
3.862797558312131
 30
0.0
 11
71.42670634110829
 21
2.608531705541431
 31
0.0
  0
LINE
  5
A2D
330
1F
100
AcDbEntity
  8
2
  6
CONTINUOUS
370
25
 62
7
100
AcDbLine
 10
70.0663744711596
 20
4.393127644202039
 30
0.0
 11
71.49741701922694
 21
2.9620850961347
 31
0.0
  0
LINE
  5
A2E
330
1F
100
AcDbEntity
  8
2
  6
CONTINUOUS
370
25
 62
7
100
AcDbLine
 10
69.96030845398161
 20
4.923457730091954
 30
0.0
 11
71.5681276973456
 21
3.31563848672797
 31
0.0
  0
LINE
  5
A2F
330
1F
100
AcDbEntity
  8
2
  6
CONTINUOUS
370
25
 62
7
100
AcDbLine
 10
70.2080302527855
 20
5.099999999999994
 30
0.0
 11
71.63883837546425
 21
3.669191877321254
 31
0.0
  0
LINE
  5
A30
330
1F
100
AcDbEntity
  8
2
  6
CONTINUOUS
370
25
 62
7
100
AcDbLine
 10
70.63229432149743
 20
5.099999999999994
 30
0.0
 11
71.70954905358292
 21
4.022745267914516
 31
0.0
  0
LINE
  5
A31
330
1F
100
AcDbEntity
  8
2
  6
CONTINUOUS
370
25
 62
7
100
AcDbLine
 10
71.05655839020935
 20
5.099999999999994
 30
0.0
 11
71.78025973170156
 21
4.376298658507793
 31
0.0
  0
LINE
  5
A32
330
1F
100
AcDbEntity
  8
2
  6
CONTINUOUS
370
25
 62
7
100
AcDbLine
 10
71.4808224589213
 20
5.099999999999994
 30
0.0
 11
71.85097040982022
 21
4.729852049101069
 31
0.0
  0
LINE
  5
A33
330
1F
100
AcDbEntity
  8
2
  6
CONTINUOUS
370
25
 62
7
100
AcDbLine
 10
71.90508652763322
 20
5.099999999999994
 30
0.0
 11
71.92168108793888
 21
5.083405439694346
 31
0.0
  0
TEXT
  5
A34
330
1F
100
AcDbEntity
  8
2
  6
CONTINUOUS
370
25
 62
7
100
AcDbText
 10
69.42500000000001
 20
11.37916666666666
 30
0.0
 40
3.500000000000004
  1
0.2
 50
90.00000000000001
 72
     1
 11
69.42500000000001
 21
14.5875
 31
0.0
100
AcDbText
  0
CIRCLE
  5
A35
330
1F
100
AcDbEntity
  8
2
  6
CONTINUOUS
370
25
 62
7
100
AcDbCircle
 10
67.67500000000001
 20
8.112499999999994
 30
0.0
 40
1.4
  0
LINE
  5
A36
330
1F
100
AcDbEntity
  8
2
  6
CONTINUOUS
370
25
 62
7
100
AcDbLine
 10
69.075
 20
6.712499999999994
 30
0.0
 11
66.275
 21
9.512499999999994
 31
0.0
  0
LINE
  5
A37
330
1F
100
AcDbEntity
  8
2
  6
CONTINUOUS
370
25
 62
7
100
AcDbLine
 10
44.2
 20
-0.1
 30
0.0
 11
44.2
 21
-13.1
 31
0.0
  0
LINE
  5
A38
330
1F
100
AcDbEntity
  8
2
  6
CONTINUOUS
370
25
 62
7
100
AcDbLine
 10
45.0
 20
-13.1
 30
0.0
 11
45.0
 21
-0.0999999999999996
 31
0.0
  0
LINE
  5
A39
330
1F
100
AcDbEntity
  8
2
  6
CONTINUOUS
370
25
 62
7
100
AcDbLine
 10
37.2
 20
-12.1
 30
0.0
 11
60.925
 21
-12.1
 31
0.0
  0
LINE
  5
A3A
330
1F
100
AcDbEntity
  8
2
  6
CONTINUOUS
370
25
 62
7
100
AcDbLine
 10
44.2
 20
-12.1
 30
0.0
 11
39.2
 21
-13.1
 31
0.0
  0
LINE
  5
A3B
330
1F
100
AcDbEntity
  8
2
  6
CONTINUOUS
370
25
 62
7
100
AcDbLine
 10
39.2
 20
-13.1
 30
0.0
 11
39.2
 21
-11.1
 31
0.0
  0
LINE
  5
A3C
330
1F
100
AcDbEntity
  8
2
  6
CONTINUOUS
370
25
 62
7
100
AcDbLine
 10
39.2
 20
-11.1
 30
0.0
 11
44.2
 21
-12.1
 31
0.0
  0
LINE
  5
A3D
330
1F
100
AcDbEntity
  8
2
  6
CONTINUOUS
370
25
 62
7
100
AcDbLine
 10
43.75353835191569
 20
-12.18929232961686
 30
0.0
 11
43.90235890127713
 21
-12.04047178025542
 31
0.0
  0
LINE
  5
A3E
330
1F
100
AcDbEntity
  8
2
  6
CONTINUOUS
370
25
 62
7
100
AcDbLine
 10
43.22320826602577
 20
-12.29535834679485
 30
0.0
 11
43.54880551068385
 21
-11.96976110213677
 31
0.0
  0
LINE
  5
A3F
330
1F
100
AcDbEntity
  8
2
  6
CONTINUOUS
370
25
 62
7
100
AcDbLine
 10
42.69287818013586
 20
-12.40142436397283
 30
0.0
 11
43.19525212009058
 21
-11.89905042401811
 31
0.0
  0
LINE
  5
A40
330
1F
100
AcDbEntity
  8
2
  6
CONTINUOUS
370
25
 62
7
100
AcDbLine
 10
42.16254809424596
 20
-12.50749038115081
 30
0.0
 11
42.8416987294973
 21
-11.82833974589946
 31
0.0
  0
LINE
  5
A41
330
1F
100
AcDbEntity
  8
2
  6
CONTINUOUS
370
25
 62
7
100
AcDbLine
 10
41.63221800835605
 20
-12.61355639832879
 30
0.0
 11
42.48814533890403
 21
-11.75762906778081
 31
0.0
  0
LINE
  5
A42
330
1F
100
AcDbEntity
  8
2
  6
CONTINUOUS
370
25
 62
7
100
AcDbLine
 10
41.10188792246613
 20
-12.71962241550677
 30
0.0
 11
42.13459194831076
 21
-11.68691838966215
 31
0.0
  0
LINE
  5
A43
330
1F
100
AcDbEntity
  8
2
  6
CONTINUOUS
370
25
 62
7
100
AcDbLine
 10
40.57155783657623
 20
-12.82568843268476
 30
0.0
 11
41.78103855771749
 21
-11.6162077115435
 31
0.0
  0
LINE
  5
A44
330
1F
100
AcDbEntity
  8
2
  6
CONTINUOUS
370
25
 62
7
100
AcDbLine
 10
40.04122775068631
 20
-12.93175444986274
 30
0.0
 11
41.42748516712421
 21
-11.54549703342484
 31
0.0
  0
LINE
  5
A45
330
1F
100
AcDbEntity
  8
2
  6
CONTINUOUS
370
25
 62
7
100
AcDbLine
 10
39.5108976647964
 20
-13.03782046704072
 30
0.0
 11
41.07393177653093
 21
-11.47478635530619
 31
0.0
  0
LINE
  5
A46
330
1F
100
AcDbEntity
  8
2
  6
CONTINUOUS
370
25
 62
7
100
AcDbLine
 10
39.2
 20
-12.92445406312519
 30
0.0
 11
40.72037838593766
 21
-11.40407567718753
 31
0.0
  0
LINE
  5
A47
330
1F
100
AcDbEntity
  8
2
  6
CONTINUOUS
370
25
 62
7
100
AcDbLine
 10
39.2
 20
-12.50018999441326
 30
0.0
 11
40.36682499534439
 21
-11.33336499906888
 31
0.0
  0
LINE
  5
A48
330
1F
100
AcDbEntity
  8
2
  6
CONTINUOUS
370
25
 62
7
100
AcDbLine
 10
39.2
 20
-12.07592592570134
 30
0.0
 11
40.01327160475112
 21
-11.26265432095022
 31
0.0
  0
LINE
  5
A49
330
1F
100
AcDbEntity
  8
2
  6
CONTINUOUS
370
25
 62
7
100
AcDbLine
 10
39.2
 20
-11.65166185698941
 30
0.0
 11
39.65971821415784
 21
-11.19194364283157
 31
0.0
  0
LINE
  5
A4A
330
1F
100
AcDbEntity
  8
2
  6
CONTINUOUS
370
25
 62
7
100
AcDbLine
 10
39.2
 20
-11.22739778827748
 30
0.0
 11
39.30616482356457
 21
-11.12123296471291
 31
0.0
  0
LINE
  5
A4B
330
1F
100
AcDbEntity
  8
2
  6
CONTINUOUS
370
25
 62
7
100
AcDbLine
 10
39.2
 20
-12.77369646804271
 30
0.0
 11
39.47191960996441
 21
-13.04561607800712
 31
0.0
  0
LINE
  5
A4C
330
1F
100
AcDbEntity
  8
2
  6
CONTINUOUS
370
25
 62
7
100
AcDbLine
 10
39.2
 20
-12.34943239933078
 30
0.0
 11
39.82547300055769
 21
-12.97490539988846
 31
0.0
  0
LINE
  5
A4D
330
1F
100
AcDbEntity
  8
2
  6
CONTINUOUS
370
25
 62
7
100
AcDbLine
 10
39.2
 20
-11.92516833061885
 30
0.0
 11
40.17902639115096
 21
-12.90419472176981
 31
0.0
  0
LINE
  5
A4E
330
1F
100
AcDbEntity
  8
2
  6
CONTINUOUS
370
25
 62
7
100
AcDbLine
 10
39.2
 20
-11.50090426190692
 30
0.0
 11
40.53257978174423
 21
-12.83348404365115
 31
0.0
  0
LINE
  5
A4F
330
1F
100
AcDbEntity
  8
2
  6
CONTINUOUS
370
25
 62
7
100
AcDbLine
 10
39.22919975850625
 20
-11.10583995170125
 30
0.0
 11
40.88613317233751
 21
-12.7627733655325
 31
0.0
  0
LINE
  5
A50
330
1F
100
AcDbEntity
  8
2
  6
CONTINUOUS
370
25
 62
7
100
AcDbLine
 10
39.75952984439617
 20
-11.21190596887923
 30
0.0
 11
41.23968656293078
 21
-12.69206268741384
 31
0.0
  0
LINE
  5
A51
330
1F
100
AcDbEntity
  8
2
  6
CONTINUOUS
370
25
 62
7
100
AcDbLine
 10
40.28985993028608
 20
-11.31797198605721
 30
0.0
 11
41.59323995352405
 21
-12.62135200929519
 31
0.0
  0
LINE
  5
A52
330
1F
100
AcDbEntity
  8
2
  6
CONTINUOUS
370
25
 62
7
100
AcDbLine
 10
40.82019001617599
 20
-11.4240380032352
 30
0.0
 11
41.94679334411732
 21
-12.55064133117654
 31
0.0
  0
LINE
  5
A53
330
1F
100
AcDbEntity
  8
2
  6
CONTINUOUS
370
25
 62
7
100
AcDbLine
 10
41.3505201020659
 20
-11.53010402041318
 30
0.0
 11
42.3003467347106
 21
-12.47993065305788
 31
0.0
  0
LINE
  5
A54
330
1F
100
AcDbEntity
  8
2
  6
CONTINUOUS
370
25
 62
7
100
AcDbLine
 10
41.88085018795581
 20
-11.63617003759116
 30
0.0
 11
42.65390012530387
 21
-12.40921997493923
 31
0.0
  0
LINE
  5
A55
330
1F
100
AcDbEntity
  8
2
  6
CONTINUOUS
370
25
 62
7
100
AcDbLine
 10
42.41118027384572
 20
-11.74223605476914
 30
0.0
 11
43.00745351589715
 21
-12.33850929682057
 31
0.0
  0
LINE
  5
A56
330
1F
100
AcDbEntity
  8
2
  6
CONTINUOUS
370
25
 62
7
100
AcDbLine
 10
42.94151035973563
 20
-11.84830207194712
 30
0.0
 11
43.36100690649042
 21
-12.26779861870192
 31
0.0
  0
LINE
  5
A57
330
1F
100
AcDbEntity
  8
2
  6
CONTINUOUS
370
25
 62
7
100
AcDbLine
 10
43.47184044562554
 20
-11.95436808912511
 30
0.0
 11
43.71456029708369
 21
-12.19708794058326
 31
0.0
  0
LINE
  5
A58
330
1F
100
AcDbEntity
  8
2
  6
CONTINUOUS
370
25
 62
7
100
AcDbLine
 10
44.00217053151545
 20
-12.06043410630309
 30
0.0
 11
44.06811368767697
 21
-12.12637726246461
 31
0.0
  0
LINE
  5
A59
330
1F
100
AcDbEntity
  8
2
  6
CONTINUOUS
370
25
 62
7
100
AcDbLine
 10
45.0
 20
-12.1
 30
0.0
 11
50.0
 21
-11.1
 31
0.0
  0
LINE
  5
A5A
330
1F
100
AcDbEntity
  8
2
  6
CONTINUOUS
370
25
 62
7
100
AcDbLine
 10
50.0
 20
-11.1
 30
0.0
 11
50.0
 21
-13.1
 31
0.0
  0
LINE
  5
A5B
330
1F
100
AcDbEntity
  8
2
  6
CONTINUOUS
370
25
 62
7
100
AcDbLine
 10
50.0
 20
-13.1
 30
0.0
 11
45.0
 21
-12.1
 31
0.0
  0
LINE
  5
A5C
330
1F
100
AcDbEntity
  8
2
  6
CONTINUOUS
370
25
 62
7
100
AcDbLine
 10
49.81327160475111
 20
-13.06265432095022
 30
0.0
 11
50.0
 21
-12.87592592570133
 31
0.0
  0
LINE
  5
A5D
330
1F
100
AcDbEntity
  8
2
  6
CONTINUOUS
370
25
 62
7
100
AcDbLine
 10
49.45971821415783
 20
-12.99194364283156
 30
0.0
 11
50.0
 21
-12.4516618569894
 31
0.0
  0
LINE
  5
A5E
330
1F
100
AcDbEntity
  8
2
  6
CONTINUOUS
370
25
 62
7
100
AcDbLine
 10
49.10616482356456
 20
-12.92123296471291
 30
0.0
 11
50.0
 21
-12.02739778827747
 31
0.0
  0
LINE
  5
A5F
330
1F
100
AcDbEntity
  8
2
  6
CONTINUOUS
370
25
 62
7
100
AcDbLine
 10
48.75261143297129
 20
-12.85052228659426
 30
0.0
 11
50.0
 21
-11.60313371956554
 31
0.0
  0
LINE
  5
A60
330
1F
100
AcDbEntity
  8
2
  6
CONTINUOUS
370
25
 62
7
100
AcDbLine
 10
48.39905804237802
 20
-12.7798116084756
 30
0.0
 11
50.0
 21
-11.17886965085362
 31
0.0
  0
LINE
  5
A61
330
1F
100
AcDbEntity
  8
2
  6
CONTINUOUS
370
25
 62
7
100
AcDbLine
 10
48.04550465178474
 20
-12.70910093035695
 30
0.0
 11
49.56825697767711
 21
-11.18634860446458
 31
0.0
  0
LINE
  5
A62
330
1F
100
AcDbEntity
  8
2
  6
CONTINUOUS
370
25
 62
7
100
AcDbLine
 10
47.69195126119147
 20
-12.63839025223829
 30
0.0
 11
49.0379268917872
 21
-11.29241462164256
 31
0.0
  0
LINE
  5
A63
330
1F
100
AcDbEntity
  8
2
  6
CONTINUOUS
370
25
 62
7
100
AcDbLine
 10
47.3383978705982
 20
-12.56767957411964
 30
0.0
 11
48.50759680589729
 21
-11.39848063882054
 31
0.0
  0
LINE
  5
A64
330
1F
100
AcDbEntity
  8
2
  6
CONTINUOUS
370
25
 62
7
100
AcDbLine
 10
46.98484448000492
 20
-12.49696889600098
 30
0.0
 11
47.97726672000739
 21
-11.50454665599852
 31
0.0
  0
LINE
  5
A65
330
1F
100
AcDbEntity
  8
2
  6
CONTINUOUS
370
25
 62
7
100
AcDbLine
 10
46.63129108941165
 20
-12.42625821788233
 30
0.0
 11
47.44693663411748
 21
-11.61061267317651
 31
0.0
  0
LINE
  5
A66
330
1F
100
AcDbEntity
  8
2
  6
CONTINUOUS
370
25
 62
7
100
AcDbLine
 10
46.27773769881838
 20
-12.35554753976368
 30
0.0
 11
46.91660654822756
 21
-11.71667869035449
 31
0.0
  0
LINE
  5
A67
330
1F
100
AcDbEntity
  8
2
  6
CONTINUOUS
370
25
 62
7
100
AcDbLine
 10
45.92418430822511
 20
-12.28483686164502
 30
0.0
 11
46.38627646233765
 21
-11.82274470753247
 31
0.0
  0
LINE
  5
A68
330
1F
100
AcDbEntity
  8
2
  6
CONTINUOUS
370
25
 62
7
100
AcDbLine
 10
45.57063091763183
 20
-12.21412618352637
 30
0.0
 11
45.85594637644775
 21
-11.92881072471045
 31
0.0
  0
LINE
  5
A69
330
1F
100
AcDbEntity
  8
2
  6
CONTINUOUS
370
25
 62
7
100
AcDbLine
 10
45.21707752703855
 20
-12.14341550540771
 30
0.0
 11
45.32561629055783
 21
-12.03487674188843
 31
0.0
  0
LINE
  5
A6A
330
1F
100
AcDbEntity
  8
2
  6
CONTINUOUS
370
25
 62
7
100
AcDbLine
 10
45.02927892284512
 20
-12.09414421543098
 30
0.0
 11
45.04391838426768
 21
-12.10878367685354
 31
0.0
  0
LINE
  5
A6B
330
1F
100
AcDbEntity
  8
2
  6
CONTINUOUS
370
25
 62
7
100
AcDbLine
 10
45.3828323134384
 20
-12.02343353731232
 30
0.0
 11
45.57424847015759
 21
-12.21484969403152
 31
0.0
  0
LINE
  5
A6C
330
1F
100
AcDbEntity
  8
2
  6
CONTINUOUS
370
25
 62
7
100
AcDbLine
 10
45.73638570403167
 20
-11.95272285919367
 30
0.0
 11
46.1045785560475
 21
-12.3209157112095
 31
0.0
  0
LINE
  5
A6D
330
1F
100
AcDbEntity
  8
2
  6
CONTINUOUS
370
25
 62
7
100
AcDbLine
 10
46.08993909462495
 20
-11.88201218107501
 30
0.0
 11
46.63490864193741
 21
-12.42698172838748
 31
0.0
  0
LINE
  5
A6E
330
1F
100
AcDbEntity
  8
2
  6
CONTINUOUS
370
25
 62
7
100
AcDbLine
 10
46.44349248521821
 20
-11.81130150295636
 30
0.0
 11
47.16523872782732
 21
-12.53304774556546
 31
0.0
  0
LINE
  5
A6F
330
1F
100
AcDbEntity
  8
2
  6
CONTINUOUS
370
25
 62
7
100
AcDbLine
 10
46.79704587581149
 20
-11.7405908248377
 30
0.0
 11
47.69556881371723
 21
-12.63911376274345
 31
0.0
  0
LINE
  5
A70
330
1F
100
AcDbEntity
  8
2
  6
CONTINUOUS
370
25
 62
7
100
AcDbLine
 10
47.15059926640476
 20
-11.66988014671905
 30
0.0
 11
48.22589889960715
 21
-12.74517977992143
 31
0.0
  0
LINE
  5
A71
330
1F
100
AcDbEntity
  8
2
  6
CONTINUOUS
370
25
 62
7
100
AcDbLine
 10
47.50415265699804
 20
-11.59916946860039
 30
0.0
 11
48.75622898549705
 21
-12.85124579709941
 31
0.0
  0
LINE
  5
A72
330
1F
100
AcDbEntity
  8
2
  6
CONTINUOUS
370
25
 62
7
100
AcDbLine
 10
47.85770604759131
 20
-11.52845879048174
 30
0.0
 11
49.28655907138697
 21
-12.95731181427739
 31
0.0
  0
LINE
  5
A73
330
1F
100
AcDbEntity
  8
2
  6
CONTINUOUS
370
25
 62
7
100
AcDbLine
 10
48.21125943818458
 20
-11.45774811236308
 30
0.0
 11
49.81688915727688
 21
-13.06337783145537
 31
0.0
  0
LINE
  5
A74
330
1F
100
AcDbEntity
  8
2
  6
CONTINUOUS
370
25
 62
7
100
AcDbLine
 10
48.56481282877786
 20
-11.38703743424443
 30
0.0
 11
50.0
 21
-12.82222460546657
 31
0.0
  0
LINE
  5
A75
330
1F
100
AcDbEntity
  8
2
  6
CONTINUOUS
370
25
 62
7
100
AcDbLine
 10
48.91836621937113
 20
-11.31632675612578
 30
0.0
 11
50.0
 21
-12.39796053675465
 31
0.0
  0
LINE
  5
A76
330
1F
100
AcDbEntity
  8
2
  6
CONTINUOUS
370
25
 62
7
100
AcDbLine
 10
49.2719196099644
 20
-11.24561607800712
 30
0.0
 11
50.0
 21
-11.97369646804272
 31
0.0
  0
LINE
  5
A77
330
1F
100
AcDbEntity
  8
2
  6
CONTINUOUS
370
25
 62
7
100
AcDbLine
 10
49.62547300055768
 20
-11.17490539988846
 30
0.0
 11
50.0
 21
-11.54943239933079
 31
0.0
  0
LINE
  5
A78
330
1F
100
AcDbEntity
  8
2
  6
CONTINUOUS
370
25
 62
7
100
AcDbLine
 10
49.97902639115095
 20
-11.10419472176981
 30
0.0
 11
50.0
 21
-11.12516833061886
 31
0.0
  0
TEXT
  5
A79
330
1F
100
AcDbEntity
  8
2
  6
CONTINUOUS
370
25
 62
7
100
AcDbText
 10
52.25416666666667
 20
-10.6
 30
0.0
 40
3.5
  1
0.8
 72
     1
 11
55.46250000000001
 21
-10.6
 31
0.0
100
AcDbText
  0
LINE
  5
A7A
330
1F
100
AcDbEntity
  8
2
  6
CONTINUOUS
370
25
 62
7
100
AcDbLine
 10
36.7
 20
0.0
 30
0.0
 11
36.7
 21
24.99995
 31
0.0
  0
LINE
  5
A7B
330
1F
100
AcDbEntity
  8
2
  6
CONTINUOUS
370
25
 62
7
100
AcDbLine
 10
45.00000000000001
 20
24.99995
 30
0.0
 11
45.0
 21
0.0999999999999979
 31
0.0
  0
LINE
  5
A7C
330
1F
100
AcDbEntity
  8
2
  6
CONTINUOUS
370
25
 62
7
100
AcDbLine
 10
29.7
 20
23.99995
 30
0.0
 11
60.925
 21
23.99995
 31
0.0
  0
LINE
  5
A7D
330
1F
100
AcDbEntity
  8
2
  6
CONTINUOUS
370
25
 62
7
100
AcDbLine
 10
36.7
 20
23.99995
 30
0.0
 11
31.7
 21
22.99995
 31
0.0
  0
LINE
  5
A7E
330
1F
100
AcDbEntity
  8
2
  6
CONTINUOUS
370
25
 62
7
100
AcDbLine
 10
31.7
 20
22.99995
 30
0.0
 11
31.7
 21
24.99995
 31
0.0
  0
LINE
  5
A7F
330
1F
100
AcDbEntity
  8
2
  6
CONTINUOUS
370
25
 62
7
100
AcDbLine
 10
31.7
 20
24.99995
 30
0.0
 11
36.7
 21
23.99995
 31
0.0
  0
LINE
  5
A80
330
1F
100
AcDbEntity
  8
2
  6
CONTINUOUS
370
25
 62
7
100
AcDbLine
 10
36.47112260427513
 20
23.95417452085502
 30
0.0
 11
36.54741506951675
 21
24.03046698609665
 31
0.0
  0
LINE
  5
A81
330
1F
100
AcDbEntity
  8
2
  6
CONTINUOUS
370
25
 62
7
100
AcDbLine
 10
35.94079251838522
 20
23.84810850367704
 30
0.0
 11
36.19386167892348
 21
24.1011776642153
 31
0.0
  0
LINE
  5
A82
330
1F
100
AcDbEntity
  8
2
  6
CONTINUOUS
370
25
 62
7
100
AcDbLine
 10
35.41046243249531
 20
23.74204248649906
 30
0.0
 11
35.84030828833021
 21
24.17188834233396
 31
0.0
  0
LINE
  5
A83
330
1F
100
AcDbEntity
  8
2
  6
CONTINUOUS
370
25
 62
7
100
AcDbLine
 10
34.8801323466054
 20
23.63597646932108
 30
0.0
 11
35.48675489773694
 21
24.24259902045261
 31
0.0
  0
LINE
  5
A84
330
1F
100
AcDbEntity
  8
2
  6
CONTINUOUS
370
25
 62
7
100
AcDbLine
 10
34.34980226071549
 20
23.5299104521431
 30
0.0
 11
35.13320150714366
 21
24.31330969857127
 31
0.0
  0
LINE
  5
A85
330
1F
100
AcDbEntity
  8
2
  6
CONTINUOUS
370
25
 62
7
100
AcDbLine
 10
33.81947217482558
 20
23.42384443496512
 30
0.0
 11
34.77964811655039
 21
24.38402037668992
 31
0.0
  0
LINE
  5
A86
330
1F
100
AcDbEntity
  8
2
  6
CONTINUOUS
370
25
 62
7
100
AcDbLine
 10
33.28914208893567
 20
23.31777841778713
 30
0.0
 11
34.42609472595711
 21
24.45473105480858
 31
0.0
  0
LINE
  5
A87
330
1F
100
AcDbEntity
  8
2
  6
CONTINUOUS
370
25
 62
7
100
AcDbLine
 10
32.75881200304576
 20
23.21171240060915
 30
0.0
 11
34.07254133536384
 21
24.52544173292723
 31
0.0
  0
LINE
  5
A88
330
1F
100
AcDbEntity
  8
2
  6
CONTINUOUS
370
25
 62
7
100
AcDbLine
 10
32.22848191715585
 20
23.10564638343117
 30
0.0
 11
33.71898794477057
 21
24.59615241104589
 31
0.0
  0
LINE
  5
A89
330
1F
100
AcDbEntity
  8
2
  6
CONTINUOUS
370
25
 62
7
100
AcDbLine
 10
31.7
 20
23.00142853498725
 30
0.0
 11
33.36543455417729
 21
24.66686308916454
 31
0.0
  0
LINE
  5
A8A
330
1F
100
AcDbEntity
  8
2
  6
CONTINUOUS
370
25
 62
7
100
AcDbLine
 10
31.7
 20
23.42569260369918
 30
0.0
 11
33.01188116358402
 21
24.73757376728319
 31
0.0
  0
LINE
  5
A8B
330
1F
100
AcDbEntity
  8
2
  6
CONTINUOUS
370
25
 62
7
100
AcDbLine
 10
31.7
 20
23.8499566724111
 30
0.0
 11
32.65832777299075
 21
24.80828444540185
 31
0.0
  0
LINE
  5
A8C
330
1F
100
AcDbEntity
  8
2
  6
CONTINUOUS
370
25
 62
7
100
AcDbLine
 10
31.7
 20
24.27422074112303
 30
0.0
 11
32.30477438239748
 21
24.8789951235205
 31
0.0
  0
LINE
  5
A8D
330
1F
100
AcDbEntity
  8
2
  6
CONTINUOUS
370
25
 62
7
100
AcDbLine
 10
31.7
 20
24.69848480983496
 30
0.0
 11
31.9512209918042
 21
24.94970580163916
 31
0.0
  0
LINE
  5
A8E
330
1F
100
AcDbEntity
  8
2
  6
CONTINUOUS
370
25
 62
7
100
AcDbLine
 10
31.7
 20
23.24335495461289
 30
0.0
 11
31.90283746217742
 21
23.04051749243548
 31
0.0
  0
LINE
  5
A8F
330
1F
100
AcDbEntity
  8
2
  6
CONTINUOUS
370
25
 62
7
100
AcDbLine
 10
31.7
 20
23.66761902332482
 30
0.0
 11
32.25639085277069
 21
23.11122817055413
 31
0.0
  0
LINE
  5
A90
330
1F
100
AcDbEntity
  8
2
  6
CONTINUOUS
370
25
 62
7
100
AcDbLine
 10
31.7
 20
24.09188309203675
 30
0.0
 11
32.60994424336396
 21
23.18193884867279
 31
0.0
  0
LINE
  5
A91
330
1F
100
AcDbEntity
  8
2
  6
CONTINUOUS
370
25
 62
7
100
AcDbLine
 10
31.7
 20
24.51614716074867
 30
0.0
 11
32.96349763395723
 21
23.25264952679144
 31
0.0
  0
LINE
  5
A92
330
1F
100
AcDbEntity
  8
2
  6
CONTINUOUS
370
25
 62
7
100
AcDbLine
 10
31.7
 20
24.9404112294606
 30
0.0
 11
33.31705102455051
 21
23.3233602049101
 31
0.0
  0
LINE
  5
A93
330
1F
100
AcDbEntity
  8
2
  6
CONTINUOUS
370
25
 62
7
100
AcDbLine
 10
32.15590662271567
 20
24.90876867545687
 30
0.0
 11
33.67060441514379
 21
23.39407088302875
 31
0.0
  0
LINE
  5
A94
330
1F
100
AcDbEntity
  8
2
  6
CONTINUOUS
370
25
 62
7
100
AcDbLine
 10
32.68623670860558
 20
24.80270265827888
 30
0.0
 11
34.02415780573705
 21
23.46478156114741
 31
0.0
  0
LINE
  5
A95
330
1F
100
AcDbEntity
  8
2
  6
CONTINUOUS
370
25
 62
7
100
AcDbLine
 10
33.21656679449549
 20
24.6966366411009
 30
0.0
 11
34.37771119633033
 21
23.53549223926606
 31
0.0
  0
LINE
  5
A96
330
1F
100
AcDbEntity
  8
2
  6
CONTINUOUS
370
25
 62
7
100
AcDbLine
 10
33.7468968803854
 20
24.59057062392292
 30
0.0
 11
34.7312645869236
 21
23.60620291738472
 31
0.0
  0
LINE
  5
A97
330
1F
100
AcDbEntity
  8
2
  6
CONTINUOUS
370
25
 62
7
100
AcDbLine
 10
34.27722696627531
 20
24.48450460674494
 30
0.0
 11
35.08481797751688
 21
23.67691359550337
 31
0.0
  0
LINE
  5
A98
330
1F
100
AcDbEntity
  8
2
  6
CONTINUOUS
370
25
 62
7
100
AcDbLine
 10
34.80755705216522
 20
24.37843858956695
 30
0.0
 11
35.43837136811015
 21
23.74762427362203
 31
0.0
  0
LINE
  5
A99
330
1F
100
AcDbEntity
  8
2
  6
CONTINUOUS
370
25
 62
7
100
AcDbLine
 10
35.33788713805513
 20
24.27237257238897
 30
0.0
 11
35.79192475870342
 21
23.81833495174068
 31
0.0
  0
LINE
  5
A9A
330
1F
100
AcDbEntity
  8
2
  6
CONTINUOUS
370
25
 62
7
100
AcDbLine
 10
35.86821722394504
 20
24.16630655521099
 30
0.0
 11
36.14547814929669
 21
23.88904562985934
 31
0.0
  0
LINE
  5
A9B
330
1F
100
AcDbEntity
  8
2
  6
CONTINUOUS
370
25
 62
7
100
AcDbLine
 10
36.39854730983495
 20
24.06024053803301
 30
0.0
 11
36.49903153988997
 21
23.95975630797799
 31
0.0
  0
LINE
  5
A9C
330
1F
100
AcDbEntity
  8
2
  6
CONTINUOUS
370
25
 62
7
100
AcDbLine
 10
45.00000000000001
 20
23.99995
 30
0.0
 11
50.00000000000001
 21
24.99995
 31
0.0
  0
LINE
  5
A9D
330
1F
100
AcDbEntity
  8
2
  6
CONTINUOUS
370
25
 62
7
100
AcDbLine
 10
50.00000000000001
 20
24.99995
 30
0.0
 11
50.00000000000001
 21
22.99995
 31
0.0
  0
LINE
  5
A9E
330
1F
100
AcDbEntity
  8
2
  6
CONTINUOUS
370
25
 62
7
100
AcDbLine
 10
50.00000000000001
 20
22.99995
 30
0.0
 11
45.00000000000001
 21
23.99995
 31
0.0
  0
LINE
  5
A9F
330
1F
100
AcDbEntity
  8
2
  6
CONTINUOUS
370
25
 62
7
100
AcDbLine
 10
49.95156368302141
 20
23.00963726339572
 30
0.0
 11
50.00000000000001
 21
23.05807358037431
 31
0.0
  0
LINE
  5
AA0
330
1F
100
AcDbEntity
  8
2
  6
CONTINUOUS
370
25
 62
7
100
AcDbLine
 10
49.59801029242814
 20
23.08034794151437
 30
0.0
 11
50.00000000000001
 21
23.48233764908624
 31
0.0
  0
LINE
  5
AA1
330
1F
100
AcDbEntity
  8
2
  6
CONTINUOUS
370
25
 62
7
100
AcDbLine
 10
49.24445690183487
 20
23.15105861963303
 30
0.0
 11
50.00000000000001
 21
23.90660171779817
 31
0.0
  0
LINE
  5
AA2
330
1F
100
AcDbEntity
  8
2
  6
CONTINUOUS
370
25
 62
7
100
AcDbLine
 10
48.89090351124159
 20
23.22176929775168
 30
0.0
 11
50.00000000000001
 21
24.3308657865101
 31
0.0
  0
LINE
  5
AA3
330
1F
100
AcDbEntity
  8
2
  6
CONTINUOUS
370
25
 62
7
100
AcDbLine
 10
48.53735012064832
 20
23.29247997587034
 30
0.0
 11
50.00000000000001
 21
24.75512985522202
 31
0.0
  0
LINE
  5
AA4
330
1F
100
AcDbEntity
  8
2
  6
CONTINUOUS
370
25
 62
7
100
AcDbLine
 10
48.18379673005504
 20
23.36319065398899
 30
0.0
 11
49.77569509508257
 21
24.95508901901651
 31
0.0
  0
LINE
  5
AA5
330
1F
100
AcDbEntity
  8
2
  6
CONTINUOUS
370
25
 62
7
100
AcDbLine
 10
47.83024333946177
 20
23.43390133210765
 30
0.0
 11
49.24536500919265
 21
24.84902300183853
 31
0.0
  0
LINE
  5
AA6
330
1F
100
AcDbEntity
  8
2
  6
CONTINUOUS
370
25
 62
7
100
AcDbLine
 10
47.4766899488685
 20
23.5046120102263
 30
0.0
 11
48.71503492330275
 21
24.74295698466054
 31
0.0
  0
LINE
  5
AA7
330
1F
100
AcDbEntity
  8
2
  6
CONTINUOUS
370
25
 62
7
100
AcDbLine
 10
47.12313655827523
 20
23.57532268834495
 30
0.0
 11
48.18470483741284
 21
24.63689096748256
 31
0.0
  0
LINE
  5
AA8
330
1F
100
AcDbEntity
  8
2
  6
CONTINUOUS
370
25
 62
7
100
AcDbLine
 10
46.76958316768195
 20
23.64603336646361
 30
0.0
 11
47.65437475152292
 21
24.53082495030458
 31
0.0
  0
LINE
  5
AA9
330
1F
100
AcDbEntity
  8
2
  6
CONTINUOUS
370
25
 62
7
100
AcDbLine
 10
46.41602977708868
 20
23.71674404458226
 30
0.0
 11
47.12404466563301
 21
24.4247589331266
 31
0.0
  0
LINE
  5
AAA
330
1F
100
AcDbEntity
  8
2
  6
CONTINUOUS
370
25
 62
7
100
AcDbLine
 10
46.0624763864954
 20
23.78745472270092
 30
0.0
 11
46.59371457974311
 21
24.31869291594862
 31
0.0
  0
LINE
  5
AAB
330
1F
100
AcDbEntity
  8
2
  6
CONTINUOUS
370
25
 62
7
100
AcDbLine
 10
45.70892299590214
 20
23.85816540081957
 30
0.0
 11
46.0633844938532
 21
24.21262689877064
 31
0.0
  0
LINE
  5
AAC
330
1F
100
AcDbEntity
  8
2
  6
CONTINUOUS
370
25
 62
7
100
AcDbLine
 10
45.35536960530887
 20
23.92887607893823
 30
0.0
 11
45.53305440796329
 21
24.10656088159266
 31
0.0
  0
LINE
  5
AAD
330
1F
100
AcDbEntity
  8
2
  6
CONTINUOUS
370
25
 62
7
100
AcDbLine
 10
45.00181621471559
 20
23.99958675705688
 30
0.0
 11
45.00272432207338
 21
24.00049486441467
 31
0.0
  0
LINE
  5
AAE
330
1F
100
AcDbEntity
  8
2
  6
CONTINUOUS
370
25
 62
7
100
AcDbLine
 10
45.30698607568207
 20
24.06134721513641
 30
0.0
 11
45.4604791135231
 21
23.90785417729538
 31
0.0
  0
LINE
  5
AAF
330
1F
100
AcDbEntity
  8
2
  6
CONTINUOUS
370
25
 62
7
100
AcDbLine
 10
45.66053946627534
 20
24.13205789325507
 30
0.0
 11
45.99080919941301
 21
23.8017881601174
 31
0.0
  0
LINE
  5
AB0
330
1F
100
AcDbEntity
  8
2
  6
CONTINUOUS
370
25
 62
7
100
AcDbLine
 10
46.01409285686861
 20
24.20276857137372
 30
0.0
 11
46.52113928530292
 21
23.69572214293942
 31
0.0
  0
LINE
  5
AB1
330
1F
100
AcDbEntity
  8
2
  6
CONTINUOUS
370
25
 62
7
100
AcDbLine
 10
46.36764624746189
 20
24.27347924949238
 30
0.0
 11
47.05146937119283
 21
23.58965612576143
 31
0.0
  0
LINE
  5
AB2
330
1F
100
AcDbEntity
  8
2
  6
CONTINUOUS
370
25
 62
7
100
AcDbLine
 10
46.72119963805516
 20
24.34418992761103
 30
0.0
 11
47.58179945708274
 21
23.48359010858345
 31
0.0
  0
LINE
  5
AB3
330
1F
100
AcDbEntity
  8
2
  6
CONTINUOUS
370
25
 62
7
100
AcDbLine
 10
47.07475302864844
 20
24.41490060572968
 30
0.0
 11
48.11212954297265
 21
23.37752409140547
 31
0.0
  0
LINE
  5
AB4
330
1F
100
AcDbEntity
  8
2
  6
CONTINUOUS
370
25
 62
7
100
AcDbLine
 10
47.42830641924171
 20
24.48561128384834
 30
0.0
 11
48.64245962886256
 21
23.27145807422749
 31
0.0
  0
LINE
  5
AB5
330
1F
100
AcDbEntity
  8
2
  6
CONTINUOUS
370
25
 62
7
100
AcDbLine
 10
47.78185980983498
 20
24.55632196196699
 30
0.0
 11
49.17278971475247
 21
23.16539205704951
 31
0.0
  0
LINE
  5
AB6
330
1F
100
AcDbEntity
  8
2
  6
CONTINUOUS
370
25
 62
7
100
AcDbLine
 10
48.13541320042825
 20
24.62703264008565
 30
0.0
 11
49.70311980064238
 21
23.05932603987152
 31
0.0
  0
LINE
  5
AB7
330
1F
100
AcDbEntity
  8
2
  6
CONTINUOUS
370
25
 62
7
100
AcDbLine
 10
48.48896659102152
 20
24.6977433182043
 30
0.0
 11
50.00000000000001
 21
23.18670990922582
 31
0.0
  0
LINE
  5
AB8
330
1F
100
AcDbEntity
  8
2
  6
CONTINUOUS
370
25
 62
7
100
AcDbLine
 10
48.8425199816148
 20
24.76845399632296
 30
0.0
 11
50.00000000000001
 21
23.61097397793775
 31
0.0
  0
LINE
  5
AB9
330
1F
100
AcDbEntity
  8
2
  6
CONTINUOUS
370
25
 62
7
100
AcDbLine
 10
49.19607337220807
 20
24.83916467444161
 30
0.0
 11
50.00000000000001
 21
24.03523804664967
 31
0.0
  0
LINE
  5
ABA
330
1F
100
AcDbEntity
  8
2
  6
CONTINUOUS
370
25
 62
7
100
AcDbLine
 10
49.54962676280135
 20
24.90987535256026
 30
0.0
 11
50.00000000000001
 21
24.4595021153616
 31
0.0
  0
LINE
  5
ABB
330
1F
100
AcDbEntity
  8
2
  6
CONTINUOUS
370
25
 62
7
100
AcDbLine
 10
49.90318015339462
 20
24.98058603067892
 30
0.0
 11
50.00000000000001
 21
24.88376618407353
 31
0.0
  0
TEXT
  5
ABC
330
1F
100
AcDbEntity
  8
2
  6
CONTINUOUS
370
25
 62
7
100
AcDbText
 10
51.96250000000001
 20
25.49995
 30
0.0
 40
3.5
  1
8.3
 72
     1
 11
55.46250000000001
 21
25.49995
 31
0.0
100
AcDbText
  0
LINE
  5
ABD
330
1F
100
AcDbEntity
  8
SK2
  6
CONTINUOUS
370
25
 62
7
100
AcDbLine
 10
0.0
 20
-0.0000500000000001
 30
0.0
 11
0.0
 21
34.99995
 31
0.0
  0
LINE
  5
ABE
330
1F
100
AcDbEntity
  8
SK2
  6
CONTINUOUS
370
25
 62
7
100
AcDbLine
 10
45.0
 20
34.99995
 30
0.0
 11
45.0
 21
0.1000000000000014
 31
0.0
  0
LINE
  5
ABF
330
1F
100
AcDbEntity
  8
SK2
  6
CONTINUOUS
370
25
 62
7
100
AcDbLine
 10
0.0
 20
33.99995
 30
0.0
 11
45.0
 21
33.99995
 31
0.0
  0
LINE
  5
AC0
330
1F
100
AcDbEntity
  8
SK2
  6
CONTINUOUS
370
25
 62
7
100
AcDbLine
 10
0.0
 20
33.99995
 30
0.0
 11
5.0
 21
34.99995
 31
0.0
  0
LINE
  5
AC1
330
1F
100
AcDbEntity
  8
SK2
  6
CONTINUOUS
370
25
 62
7
100
AcDbLine
 10
5.0
 20
34.99995
 30
0.0
 11
5.0
 21
32.99995
 31
0.0
  0
LINE
  5
AC2
330
1F
100
AcDbEntity
  8
SK2
  6
CONTINUOUS
370
25
 62
7
100
AcDbLine
 10
5.0
 20
32.99995
 30
0.0
 11
0.0
 21
33.99995
 31
0.0
  0
LINE
  5
AC3
330
1F
100
AcDbEntity
  8
SK2
  6
CONTINUOUS
370
25
 62
7
100
AcDbLine
 10
4.822956239229107
 20
33.03535875215417
 30
0.0
 11
5.0
 21
33.21240251292507
 31
0.0
  0
LINE
  5
AC4
330
1F
100
AcDbEntity
  8
SK2
  6
CONTINUOUS
370
25
 62
7
100
AcDbLine
 10
4.469402848635823
 20
33.10606943027283
 30
0.0
 11
5.0
 21
33.636666581637
 31
0.0
  0
LINE
  5
AC5
330
1F
100
AcDbEntity
  8
SK2
  6
CONTINUOUS
370
25
 62
7
100
AcDbLine
 10
4.115849458042547
 20
33.17678010839148
 30
0.0
 11
5.0
 21
34.06093065034894
 31
0.0
  0
LINE
  5
AC6
330
1F
100
AcDbEntity
  8
SK2
  6
CONTINUOUS
370
25
 62
7
100
AcDbLine
 10
3.762296067449277
 20
33.24749078651013
 30
0.0
 11
5.0
 21
34.48519471906086
 31
0.0
  0
LINE
  5
AC7
330
1F
100
AcDbEntity
  8
SK2
  6
CONTINUOUS
370
25
 62
7
100
AcDbLine
 10
3.408742676856001
 20
33.31820146462879
 30
0.0
 11
5.0
 21
34.90945878777279
 31
0.0
  0
LINE
  5
AC8
330
1F
100
AcDbEntity
  8
SK2
  6
CONTINUOUS
370
25
 62
7
100
AcDbLine
 10
3.055189286262724
 20
33.38891214274745
 30
0.0
 11
4.582783929394097
 21
34.91650678587882
 31
0.0
  0
LINE
  5
AC9
330
1F
100
AcDbEntity
  8
SK2
  6
CONTINUOUS
370
25
 62
7
100
AcDbLine
 10
2.701635895669455
 20
33.4596228208661
 30
0.0
 11
4.052453843504196
 21
34.81044076870084
 31
0.0
  0
LINE
  5
ACA
330
1F
100
AcDbEntity
  8
SK2
  6
CONTINUOUS
370
25
 62
7
100
AcDbLine
 10
2.348082505076178
 20
33.53033349898476
 30
0.0
 11
3.522123757614274
 21
34.70437475152286
 31
0.0
  0
LINE
  5
ACB
330
1F
100
AcDbEntity
  8
SK2
  6
CONTINUOUS
370
25
 62
7
100
AcDbLine
 10
1.994529114482894
 20
33.60104417710341
 30
0.0
 11
2.991793671724359
 21
34.59830873434488
 31
0.0
  0
LINE
  5
ACC
330
1F
100
AcDbEntity
  8
SK2
  6
CONTINUOUS
370
25
 62
7
100
AcDbLine
 10
1.640975723889618
 20
33.67175485522207
 30
0.0
 11
2.461463585834437
 21
34.49224271716689
 31
0.0
  0
LINE
  5
ACD
330
1F
100
AcDbEntity
  8
SK2
  6
CONTINUOUS
370
25
 62
7
100
AcDbLine
 10
1.287422333296341
 20
33.74246553334073
 30
0.0
 11
1.931133499944522
 21
34.38617669998891
 31
0.0
  0
LINE
  5
ACE
330
1F
100
AcDbEntity
  8
SK2
  6
CONTINUOUS
370
25
 62
7
100
AcDbLine
 10
0.9338689427030715
 20
33.81317621145938
 30
0.0
 11
1.400803414054621
 21
34.28011068281093
 31
0.0
  0
LINE
  5
ACF
330
1F
100
AcDbEntity
  8
SK2
  6
CONTINUOUS
370
25
 62
7
100
AcDbLine
 10
0.5803155521097949
 20
33.88388688957804
 30
0.0
 11
0.8704733281646995
 21
34.17404466563294
 31
0.0
  0
LINE
  5
AD0
330
1F
100
AcDbEntity
  8
SK2
  6
CONTINUOUS
370
25
 62
7
100
AcDbLine
 10
0.2267621615165112
 20
33.95459756769669
 30
0.0
 11
0.3401432422747845
 21
34.06797864845496
 31
0.0
  0
LINE
  5
AD1
330
1F
100
AcDbEntity
  8
SK2
  6
CONTINUOUS
370
25
 62
7
100
AcDbLine
 10
0.2387971416586154
 20
34.04770942833172
 30
0.0
 11
0.3581957124879267
 21
33.92831085750241
 31
0.0
  0
LINE
  5
AD2
330
1F
100
AcDbEntity
  8
SK2
  6
CONTINUOUS
370
25
 62
7
100
AcDbLine
 10
0.592350532251892
 20
34.11842010645038
 30
0.0
 11
0.8885257983778416
 21
33.82224484032443
 31
0.0
  0
LINE
  5
AD3
330
1F
100
AcDbEntity
  8
SK2
  6
CONTINUOUS
370
25
 62
7
100
AcDbLine
 10
0.9459039228451616
 20
34.18913078456904
 30
0.0
 11
1.418855884267749
 21
33.71617882314644
 31
0.0
  0
LINE
  5
AD4
330
1F
100
AcDbEntity
  8
SK2
  6
CONTINUOUS
370
25
 62
7
100
AcDbLine
 10
1.299457313438445
 20
34.25984146268769
 30
0.0
 11
1.949185970157664
 21
33.61011280596846
 31
0.0
  0
LINE
  5
AD5
330
1F
100
AcDbEntity
  8
SK2
  6
CONTINUOUS
370
25
 62
7
100
AcDbLine
 10
1.653010704031715
 20
34.33055214080635
 30
0.0
 11
2.479516056047572
 21
33.50404678879048
 31
0.0
  0
LINE
  5
AD6
330
1F
100
AcDbEntity
  8
SK2
  6
CONTINUOUS
370
25
 62
7
100
AcDbLine
 10
2.006564094624991
 20
34.401262818925
 30
0.0
 11
3.00984614193748
 21
33.3979807716125
 31
0.0
  0
LINE
  5
AD7
330
1F
100
AcDbEntity
  8
SK2
  6
CONTINUOUS
370
25
 62
7
100
AcDbLine
 10
2.360117485218268
 20
34.47197349704366
 30
0.0
 11
3.540176227827395
 21
33.29191475443452
 31
0.0
  0
LINE
  5
AD8
330
1F
100
AcDbEntity
  8
SK2
  6
CONTINUOUS
370
25
 62
7
100
AcDbLine
 10
2.713670875811545
 20
34.54268417516231
 30
0.0
 11
4.07050631371731
 21
33.18584873725653
 31
0.0
  0
LINE
  5
AD9
330
1F
100
AcDbEntity
  8
SK2
  6
CONTINUOUS
370
25
 62
7
100
AcDbLine
 10
3.067224266404814
 20
34.61339485328097
 30
0.0
 11
4.600836399607211
 21
33.07978272007855
 31
0.0
  0
LINE
  5
ADA
330
1F
100
AcDbEntity
  8
SK2
  6
CONTINUOUS
370
25
 62
7
100
AcDbLine
 10
3.420777656998091
 20
34.68410553139962
 30
0.0
 11
5.0
 21
33.10488318839769
 31
0.0
  0
LINE
  5
ADB
330
1F
100
AcDbEntity
  8
SK2
  6
CONTINUOUS
370
25
 62
7
100
AcDbLine
 10
3.774331047591367
 20
34.75481620951828
 30
0.0
 11
5.0
 21
33.52914725710963
 31
0.0
  0
LINE
  5
ADC
330
1F
100
AcDbEntity
  8
SK2
  6
CONTINUOUS
370
25
 62
7
100
AcDbLine
 10
4.127884438184637
 20
34.82552688763693
 30
0.0
 11
5.0
 21
33.95341132582156
 31
0.0
  0
LINE
  5
ADD
330
1F
100
AcDbEntity
  8
SK2
  6
CONTINUOUS
370
25
 62
7
100
AcDbLine
 10
4.481437828777914
 20
34.89623756575558
 30
0.0
 11
5.0
 21
34.3776753945335
 31
0.0
  0
LINE
  5
ADE
330
1F
100
AcDbEntity
  8
SK2
  6
CONTINUOUS
370
25
 62
7
100
AcDbLine
 10
4.83499121937119
 20
34.96694824387424
 30
0.0
 11
5.0
 21
34.80193946324543
 31
0.0
  0
LINE
  5
ADF
330
1F
100
AcDbEntity
  8
SK2
  6
CONTINUOUS
370
25
 62
7
100
AcDbLine
 10
45.0
 20
33.99995
 30
0.0
 11
40.0
 21
32.99995
 31
0.0
  0
LINE
  5
AE0
330
1F
100
AcDbEntity
  8
SK2
  6
CONTINUOUS
370
25
 62
7
100
AcDbLine
 10
40.0
 20
32.99995
 30
0.0
 11
40.0
 21
34.99995
 31
0.0
  0
LINE
  5
AE1
330
1F
100
AcDbEntity
  8
SK2
  6
CONTINUOUS
370
25
 62
7
100
AcDbLine
 10
40.0
 20
34.99995
 30
0.0
 11
45.0
 21
33.99995
 31
0.0
  0
LINE
  5
AE2
330
1F
100
AcDbEntity
  8
SK2
  6
CONTINUOUS
370
25
 62
7
100
AcDbLine
 10
44.7748022607155
 20
33.9549104521431
 30
0.0
 11
44.84986817381034
 21
34.02997636523793
 31
0.0
  0
LINE
  5
AE3
330
1F
100
AcDbEntity
  8
SK2
  6
CONTINUOUS
370
25
 62
7
100
AcDbLine
 10
44.2444721748256
 20
33.84884443496512
 30
0.0
 11
44.49631478321706
 21
34.10068704335659
 31
0.0
  0
LINE
  5
AE4
330
1F
100
AcDbEntity
  8
SK2
  6
CONTINUOUS
370
25
 62
7
100
AcDbLine
 10
43.71414208893569
 20
33.74277841778714
 30
0.0
 11
44.14276139262378
 21
34.17139772147524
 31
0.0
  0
LINE
  5
AE5
330
1F
100
AcDbEntity
  8
SK2
  6
CONTINUOUS
370
25
 62
7
100
AcDbLine
 10
43.18381200304577
 20
33.63671240060916
 30
0.0
 11
43.78920800203051
 21
34.2421083995939
 31
0.0
  0
LINE
  5
AE6
330
1F
100
AcDbEntity
  8
SK2
  6
CONTINUOUS
370
25
 62
7
100
AcDbLine
 10
42.65348191715587
 20
33.53064638343118
 30
0.0
 11
43.43565461143724
 21
34.31281907771255
 31
0.0
  0
LINE
  5
AE7
330
1F
100
AcDbEntity
  8
SK2
  6
CONTINUOUS
370
25
 62
7
100
AcDbLine
 10
42.12315183126596
 20
33.4245803662532
 30
0.0
 11
43.08210122084397
 21
34.3835297558312
 31
0.0
  0
LINE
  5
AE8
330
1F
100
AcDbEntity
  8
SK2
  6
CONTINUOUS
370
25
 62
7
100
AcDbLine
 10
41.59282174537604
 20
33.31851434907521
 30
0.0
 11
42.72854783025069
 21
34.45424043394986
 31
0.0
  0
LINE
  5
AE9
330
1F
100
AcDbEntity
  8
SK2
  6
CONTINUOUS
370
25
 62
7
100
AcDbLine
 10
41.06249165948613
 20
33.21244833189723
 30
0.0
 11
42.37499443965741
 21
34.52495111206851
 31
0.0
  0
LINE
  5
AEA
330
1F
100
AcDbEntity
  8
SK2
  6
CONTINUOUS
370
25
 62
7
100
AcDbLine
 10
40.53216157359623
 20
33.10638231471925
 30
0.0
 11
42.02144104906414
 21
34.59566179018717
 31
0.0
  0
LINE
  5
AEB
330
1F
100
AcDbEntity
  8
SK2
  6
CONTINUOUS
370
25
 62
7
100
AcDbLine
 10
40.00183148770632
 20
33.00031629754126
 30
0.0
 11
41.66788765847087
 21
34.66637246830582
 31
0.0
  0
LINE
  5
AEC
330
1F
100
AcDbEntity
  8
SK2
  6
CONTINUOUS
370
25
 62
7
100
AcDbLine
 10
40.0
 20
33.42274887854688
 30
0.0
 11
41.31433426787759
 21
34.73708314642448
 31
0.0
  0
LINE
  5
AED
330
1F
100
AcDbEntity
  8
SK2
  6
CONTINUOUS
370
25
 62
7
100
AcDbLine
 10
40.0
 20
33.84701294725881
 30
0.0
 11
40.96078087728432
 21
34.80779382454313
 31
0.0
  0
LINE
  5
AEE
330
1F
100
AcDbEntity
  8
SK2
  6
CONTINUOUS
370
25
 62
7
100
AcDbLine
 10
40.0
 20
34.27127701597074
 30
0.0
 11
40.60722748669104
 21
34.87850450266178
 31
0.0
  0
LINE
  5
AEF
330
1F
100
AcDbEntity
  8
SK2
  6
CONTINUOUS
370
25
 62
7
100
AcDbLine
 10
40.0
 20
34.69554108468267
 30
0.0
 11
40.25367409609777
 21
34.94921518078044
 31
0.0
  0
LINE
  5
AF0
330
1F
100
AcDbEntity
  8
SK2
  6
CONTINUOUS
370
25
 62
7
100
AcDbLine
 10
40.0
 20
33.18670990922583
 30
0.0
 11
40.15563325768819
 21
33.03107665153764
 31
0.0
  0
LINE
  5
AF1
330
1F
100
AcDbEntity
  8
SK2
  6
CONTINUOUS
370
25
 62
7
100
AcDbLine
 10
40.0
 20
33.61097397793775
 30
0.0
 11
40.50918664828146
 21
33.10178732965629
 31
0.0
  0
LINE
  5
AF2
330
1F
100
AcDbEntity
  8
SK2
  6
CONTINUOUS
370
25
 62
7
100
AcDbLine
 10
40.0
 20
34.03523804664968
 30
0.0
 11
40.86274003887473
 21
33.17249800777495
 31
0.0
  0
LINE
  5
AF3
330
1F
100
AcDbEntity
  8
SK2
  6
CONTINUOUS
370
25
 62
7
100
AcDbLine
 10
40.0
 20
34.45950211536161
 30
0.0
 11
41.216293429468
 21
33.24320868589361
 31
0.0
  0
LINE
  5
AF4
330
1F
100
AcDbEntity
  8
SK2
  6
CONTINUOUS
370
25
 62
7
100
AcDbLine
 10
40.0
 20
34.88376618407354
 30
0.0
 11
41.56984682006128
 21
33.31391936401226
 31
0.0
  0
LINE
  5
AF5
330
1F
100
AcDbEntity
  8
SK2
  6
CONTINUOUS
370
25
 62
7
100
AcDbLine
 10
40.38510031598185
 20
34.92292993680363
 30
0.0
 11
41.92340021065456
 21
33.38463004213092
 31
0.0
  0
LINE
  5
AF6
330
1F
100
AcDbEntity
  8
SK2
  6
CONTINUOUS
370
25
 62
7
100
AcDbLine
 10
40.91543040187175
 20
34.81686391962565
 30
0.0
 11
42.27695360124783
 21
33.45534072024957
 31
0.0
  0
LINE
  5
AF7
330
1F
100
AcDbEntity
  8
SK2
  6
CONTINUOUS
370
25
 62
7
100
AcDbLine
 10
41.44576048776167
 20
34.71079790244766
 30
0.0
 11
42.6305069918411
 21
33.52605139836822
 31
0.0
  0
LINE
  5
AF8
330
1F
100
AcDbEntity
  8
SK2
  6
CONTINUOUS
370
25
 62
7
100
AcDbLine
 10
41.97609057365158
 20
34.60473188526968
 30
0.0
 11
42.98406038243438
 21
33.59676207648688
 31
0.0
  0
LINE
  5
AF9
330
1F
100
AcDbEntity
  8
SK2
  6
CONTINUOUS
370
25
 62
7
100
AcDbLine
 10
42.50642065954149
 20
34.4986658680917
 30
0.0
 11
43.33761377302765
 21
33.66747275460553
 31
0.0
  0
LINE
  5
AFA
330
1F
100
AcDbEntity
  8
SK2
  6
CONTINUOUS
370
25
 62
7
100
AcDbLine
 10
43.0367507454314
 20
34.39259985091372
 30
0.0
 11
43.69116716362092
 21
33.73818343272418
 31
0.0
  0
LINE
  5
AFB
330
1F
100
AcDbEntity
  8
SK2
  6
CONTINUOUS
370
25
 62
7
100
AcDbLine
 10
43.56708083132131
 20
34.28653383373573
 30
0.0
 11
44.0447205542142
 21
33.80889411084284
 31
0.0
  0
LINE
  5
AFC
330
1F
100
AcDbEntity
  8
SK2
  6
CONTINUOUS
370
25
 62
7
100
AcDbLine
 10
44.09741091721122
 20
34.18046781655775
 30
0.0
 11
44.39827394480748
 21
33.87960478896149
 31
0.0
  0
LINE
  5
AFD
330
1F
100
AcDbEntity
  8
SK2
  6
CONTINUOUS
370
25
 62
7
100
AcDbLine
 10
44.62774100310114
 20
34.07440179937977
 30
0.0
 11
44.75182733540075
 21
33.95031546708015
 31
0.0
  0
TEXT
  5
AFE
330
1F
100
AcDbEntity
  8
SK2
  6
CONTINUOUS
370
25
 62
7
100
AcDbText
 10
19.58333333333333
 20
35.49995
 30
0.0
 40
3.5
  1
45
 72
     1
 11
22.5
 21
35.49995
 31
0.0
100
AcDbText
  0
LINE
  5
AFF
330
1F
100
AcDbEntity
  8
2
  6
CONTINUOUS
370
25
 62
7
100
AcDbLine
 10
43.8
 20
-0.09995
 30
0.0
 11
43.8
 21
-23.1
 31
0.0
  0
LINE
  5
B00
330
1F
100
AcDbEntity
  8
2
  6
CONTINUOUS
370
25
 62
7
100
AcDbLine
 10
45.0
 20
-23.1
 30
0.0
 11
45.0
 21
-0.1000000000000014
 31
0.0
  0
LINE
  5
B01
330
1F
100
AcDbEntity
  8
2
  6
CONTINUOUS
370
25
 62
7
100
AcDbLine
 10
36.8
 20
-22.1
 30
0.0
 11
60.925
 21
-22.1
 31
0.0
  0
LINE
  5
B02
330
1F
100
AcDbEntity
  8
2
  6
CONTINUOUS
370
25
 62
7
100
AcDbLine
 10
43.8
 20
-22.1
 30
0.0
 11
38.8
 21
-23.1
 31
0.0
  0
LINE
  5
B03
330
1F
100
AcDbEntity
  8
2
  6
CONTINUOUS
370
25
 62
7
100
AcDbLine
 10
38.8
 20
-23.1
 30
0.0
 11
38.8
 21
-21.1
 31
0.0
  0
LINE
  5
B04
330
1F
100
AcDbEntity
  8
2
  6
CONTINUOUS
370
25
 62
7
100
AcDbLine
 10
38.8
 20
-21.1
 30
0.0
 11
43.8
 21
-22.1
 31
0.0
  0
LINE
  5
B05
330
1F
100
AcDbEntity
  8
2
  6
CONTINUOUS
370
25
 62
7
100
AcDbLine
 10
43.68627646233769
 20
-22.12274470753246
 30
0.0
 11
43.72418430822513
 21
-22.08483686164503
 31
0.0
  0
LINE
  5
B06
330
1F
100
AcDbEntity
  8
2
  6
CONTINUOUS
370
25
 62
7
100
AcDbLine
 10
43.15594637644778
 20
-22.22881072471044
 30
0.0
 11
43.37063091763185
 21
-22.01412618352637
 31
0.0
  0
LINE
  5
B07
330
1F
100
AcDbEntity
  8
2
  6
CONTINUOUS
370
25
 62
7
100
AcDbLine
 10
42.62561629055786
 20
-22.33487674188843
 30
0.0
 11
43.01707752703857
 21
-21.94341550540772
 31
0.0
  0
LINE
  5
B08
330
1F
100
AcDbEntity
  8
2
  6
CONTINUOUS
370
25
 62
7
100
AcDbLine
 10
42.09528620466796
 20
-22.44094275906641
 30
0.0
 11
42.6635241364453
 21
-21.87270482728906
 31
0.0
  0
LINE
  5
B09
330
1F
100
AcDbEntity
  8
2
  6
CONTINUOUS
370
25
 62
7
100
AcDbLine
 10
41.56495611877805
 20
-22.54700877624439
 30
0.0
 11
42.30997074585203
 21
-21.80199414917041
 31
0.0
  0
LINE
  5
B0A
330
1F
100
AcDbEntity
  8
2
  6
CONTINUOUS
370
25
 62
7
100
AcDbLine
 10
41.03462603288814
 20
-22.65307479342237
 30
0.0
 11
41.95641735525876
 21
-21.73128347105175
 31
0.0
  0
LINE
  5
B0B
330
1F
100
AcDbEntity
  8
2
  6
CONTINUOUS
370
25
 62
7
100
AcDbLine
 10
40.50429594699823
 20
-22.75914081060035
 30
0.0
 11
41.60286396466548
 21
-21.6605727929331
 31
0.0
  0
LINE
  5
B0C
330
1F
100
AcDbEntity
  8
2
  6
CONTINUOUS
370
25
 62
7
100
AcDbLine
 10
39.97396586110832
 20
-22.86520682777834
 30
0.0
 11
41.24931057407221
 21
-21.58986211481444
 31
0.0
  0
LINE
  5
B0D
330
1F
100
AcDbEntity
  8
2
  6
CONTINUOUS
370
25
 62
7
100
AcDbLine
 10
39.44363577521841
 20
-22.97127284495632
 30
0.0
 11
40.89575718347893
 21
-21.51915143669579
 31
0.0
  0
LINE
  5
B0E
330
1F
100
AcDbEntity
  8
2
  6
CONTINUOUS
370
25
 62
7
100
AcDbLine
 10
38.9133056893285
 20
-23.0773388621343
 30
0.0
 11
40.54220379288567
 21
-21.44844075857714
 31
0.0
  0
LINE
  5
B0F
330
1F
100
AcDbEntity
  8
2
  6
CONTINUOUS
370
25
 62
7
100
AcDbLine
 10
38.8
 20
-22.76638048275087
 30
0.0
 11
40.18865040229239
 21
-21.37773008045848
 31
0.0
  0
LINE
  5
B10
330
1F
100
AcDbEntity
  8
2
  6
CONTINUOUS
370
25
 62
7
100
AcDbLine
 10
38.8
 20
-22.34211641403894
 30
0.0
 11
39.83509701169912
 21
-21.30701940233983
 31
0.0
  0
LINE
  5
B11
330
1F
100
AcDbEntity
  8
2
  6
CONTINUOUS
370
25
 62
7
100
AcDbLine
 10
38.8
 20
-21.91785234532702
 30
0.0
 11
39.48154362110584
 21
-21.23630872422117
 31
0.0
  0
LINE
  5
B12
330
1F
100
AcDbEntity
  8
2
  6
CONTINUOUS
370
25
 62
7
100
AcDbLine
 10
38.8
 20
-21.49358827661509
 30
0.0
 11
39.12799023051257
 21
-21.16559804610252
 31
0.0
  0
LINE
  5
B13
330
1F
100
AcDbEntity
  8
2
  6
CONTINUOUS
370
25
 62
7
100
AcDbLine
 10
38.8
 20
-22.99135881895645
 30
0.0
 11
38.89053431753629
 21
-23.08189313649274
 31
0.0
  0
LINE
  5
B14
330
1F
100
AcDbEntity
  8
2
  6
CONTINUOUS
370
25
 62
7
100
AcDbLine
 10
38.8
 20
-22.56709475024452
 30
0.0
 11
39.24408770812957
 21
-23.01118245837409
 31
0.0
  0
LINE
  5
B15
330
1F
100
AcDbEntity
  8
2
  6
CONTINUOUS
370
25
 62
7
100
AcDbLine
 10
38.8
 20
-22.14283068153259
 30
0.0
 11
39.59764109872284
 21
-22.94047178025543
 31
0.0
  0
LINE
  5
B16
330
1F
100
AcDbEntity
  8
2
  6
CONTINUOUS
370
25
 62
7
100
AcDbLine
 10
38.8
 20
-21.71856661282066
 30
0.0
 11
39.95119448931612
 21
-22.86976110213678
 31
0.0
  0
LINE
  5
B17
330
1F
100
AcDbEntity
  8
2
  6
CONTINUOUS
370
25
 62
7
100
AcDbLine
 10
38.8
 20
-21.29430254410874
 30
0.0
 11
40.30474787990939
 21
-22.79905042401812
 31
0.0
  0
LINE
  5
B18
330
1F
100
AcDbEntity
  8
2
  6
CONTINUOUS
370
25
 62
7
100
AcDbLine
 10
39.08745190575399
 20
-21.1574903811508
 30
0.0
 11
40.65830127050266
 21
-22.72833974589947
 31
0.0
  0
LINE
  5
B19
330
1F
100
AcDbEntity
  8
2
  6
CONTINUOUS
370
25
 62
7
100
AcDbLine
 10
39.6177819916439
 20
-21.26355639832878
 30
0.0
 11
41.01185466109594
 21
-22.65762906778081
 31
0.0
  0
LINE
  5
B1A
330
1F
100
AcDbEntity
  8
2
  6
CONTINUOUS
370
25
 62
7
100
AcDbLine
 10
40.14811207753382
 20
-21.36962241550676
 30
0.0
 11
41.36540805168921
 21
-22.58691838966216
 31
0.0
  0
LINE
  5
B1B
330
1F
100
AcDbEntity
  8
2
  6
CONTINUOUS
370
25
 62
7
100
AcDbLine
 10
40.67844216342372
 20
-21.47568843268475
 30
0.0
 11
41.71896144228248
 21
-22.5162077115435
 31
0.0
  0
LINE
  5
B1C
330
1F
100
AcDbEntity
  8
2
  6
CONTINUOUS
370
25
 62
7
100
AcDbLine
 10
41.20877224931363
 20
-21.58175444986273
 30
0.0
 11
42.07251483287575
 21
-22.44549703342485
 31
0.0
  0
LINE
  5
B1D
330
1F
100
AcDbEntity
  8
2
  6
CONTINUOUS
370
25
 62
7
100
AcDbLine
 10
41.73910233520355
 20
-21.68782046704071
 30
0.0
 11
42.42606822346903
 21
-22.3747863553062
 31
0.0
  0
LINE
  5
B1E
330
1F
100
AcDbEntity
  8
2
  6
CONTINUOUS
370
25
 62
7
100
AcDbLine
 10
42.26943242109346
 20
-21.79388648421869
 30
0.0
 11
42.7796216140623
 21
-22.30407567718754
 31
0.0
  0
LINE
  5
B1F
330
1F
100
AcDbEntity
  8
2
  6
CONTINUOUS
370
25
 62
7
100
AcDbLine
 10
42.79976250698336
 20
-21.89995250139668
 30
0.0
 11
43.13317500465558
 21
-22.23336499906889
 31
0.0
  0
LINE
  5
B20
330
1F
100
AcDbEntity
  8
2
  6
CONTINUOUS
370
25
 62
7
100
AcDbLine
 10
43.33009259287328
 20
-22.00601851857466
 30
0.0
 11
43.48672839524885
 21
-22.16265432095023
 31
0.0
  0
LINE
  5
B21
330
1F
100
AcDbEntity
  8
2
  6
CONTINUOUS
370
25
 62
7
100
AcDbLine
 10
45.0
 20
-22.1
 30
0.0
 11
50.0
 21
-21.1
 31
0.0
  0
LINE
  5
B22
330
1F
100
AcDbEntity
  8
2
  6
CONTINUOUS
370
25
 62
7
100
AcDbLine
 10
50.0
 20
-21.1
 30
0.0
 11
50.0
 21
-23.1
 31
0.0
  0
LINE
  5
B23
330
1F
100
AcDbEntity
  8
2
  6
CONTINUOUS
370
25
 62
7
100
AcDbLine
 10
50.0
 20
-23.1
 30
0.0
 11
45.0
 21
-22.1
 31
0.0
  0
LINE
  5
B24
330
1F
100
AcDbEntity
  8
2
  6
CONTINUOUS
370
25
 62
7
100
AcDbLine
 10
49.66132356384588
 20
-23.03226471276918
 30
0.0
 11
50.0
 21
-22.69358827661505
 31
0.0
  0
LINE
  5
B25
330
1F
100
AcDbEntity
  8
2
  6
CONTINUOUS
370
25
 62
7
100
AcDbLine
 10
49.30777017325261
 20
-22.96155403465052
 30
0.0
 11
50.0
 21
-22.26932420790313
 31
0.0
  0
LINE
  5
B26
330
1F
100
AcDbEntity
  8
2
  6
CONTINUOUS
370
25
 62
7
100
AcDbLine
 10
48.95421678265933
 20
-22.89084335653187
 30
0.0
 11
50.0
 21
-21.8450601391912
 31
0.0
  0
LINE
  5
B27
330
1F
100
AcDbEntity
  8
2
  6
CONTINUOUS
370
25
 62
7
100
AcDbLine
 10
48.60066339206607
 20
-22.82013267841321
 30
0.0
 11
50.0
 21
-21.42079607047928
 31
0.0
  0
LINE
  5
B28
330
1F
100
AcDbEntity
  8
2
  6
CONTINUOUS
370
25
 62
7
100
AcDbLine
 10
48.24711000147279
 20
-22.74942200029456
 30
0.0
 11
49.87066500220918
 21
-21.12586699955817
 31
0.0
  0
LINE
  5
B29
330
1F
100
AcDbEntity
  8
2
  6
CONTINUOUS
370
25
 62
7
100
AcDbLine
 10
47.89355661087951
 20
-22.6787113221759
 30
0.0
 11
49.34033491631926
 21
-21.23193301673615
 31
0.0
  0
LINE
  5
B2A
330
1F
100
AcDbEntity
  8
2
  6
CONTINUOUS
370
25
 62
7
100
AcDbLine
 10
47.54000322028624
 20
-22.60800064405725
 30
0.0
 11
48.81000483042936
 21
-21.33799903391413
 31
0.0
  0
LINE
  5
B2B
330
1F
100
AcDbEntity
  8
2
  6
CONTINUOUS
370
25
 62
7
100
AcDbLine
 10
47.18644982969297
 20
-22.53728996593859
 30
0.0
 11
48.27967474453945
 21
-21.44406505109211
 31
0.0
  0
LINE
  5
B2C
330
1F
100
AcDbEntity
  8
2
  6
CONTINUOUS
370
25
 62
7
100
AcDbLine
 10
46.8328964390997
 20
-22.46657928781994
 30
0.0
 11
47.74934465864954
 21
-21.55013106827009
 31
0.0
  0
LINE
  5
B2D
330
1F
100
AcDbEntity
  8
2
  6
CONTINUOUS
370
25
 62
7
100
AcDbLine
 10
46.47934304850642
 20
-22.39586860970129
 30
0.0
 11
47.21901457275963
 21
-21.65619708544808
 31
0.0
  0
LINE
  5
B2E
330
1F
100
AcDbEntity
  8
2
  6
CONTINUOUS
370
25
 62
7
100
AcDbLine
 10
46.12578965791315
 20
-22.32515793158263
 30
0.0
 11
46.68868448686973
 21
-21.76226310262606
 31
0.0
  0
LINE
  5
B2F
330
1F
100
AcDbEntity
  8
2
  6
CONTINUOUS
370
25
 62
7
100
AcDbLine
 10
45.77223626731988
 20
-22.25444725346398
 30
0.0
 11
46.15835440097982
 21
-21.86832911980404
 31
0.0
  0
LINE
  5
B30
330
1F
100
AcDbEntity
  8
2
  6
CONTINUOUS
370
25
 62
7
100
AcDbLine
 10
45.41868287672661
 20
-22.18373657534532
 30
0.0
 11
45.6280243150899
 21
-21.97439513698202
 31
0.0
  0
LINE
  5
B31
330
1F
100
AcDbEntity
  8
2
  6
CONTINUOUS
370
25
 62
7
100
AcDbLine
 10
45.06512948613333
 20
-22.11302589722667
 30
0.0
 11
45.09769422919999
 21
-22.08046115416001
 31
0.0
  0
LINE
  5
B32
330
1F
100
AcDbEntity
  8
2
  6
CONTINUOUS
370
25
 62
7
100
AcDbLine
 10
45.18122696375033
 20
-22.06375460724993
 30
0.0
 11
45.27184044562551
 21
-22.1543680891251
 31
0.0
  0
LINE
  5
B33
330
1F
100
AcDbEntity
  8
2
  6
CONTINUOUS
370
25
 62
7
100
AcDbLine
 10
45.53478035434361
 20
-21.99304392913128
 30
0.0
 11
45.80217053151542
 21
-22.26043410630309
 31
0.0
  0
LINE
  5
B34
330
1F
100
AcDbEntity
  8
2
  6
CONTINUOUS
370
25
 62
7
100
AcDbLine
 10
45.88833374493689
 20
-21.92233325101262
 30
0.0
 11
46.33250061740533
 21
-22.36650012348107
 31
0.0
  0
LINE
  5
B35
330
1F
100
AcDbEntity
  8
2
  6
CONTINUOUS
370
25
 62
7
100
AcDbLine
 10
46.24188713553016
 20
-21.85162257289397
 30
0.0
 11
46.86283070329524
 21
-22.47256614065905
 31
0.0
  0
LINE
  5
B36
330
1F
100
AcDbEntity
  8
2
  6
CONTINUOUS
370
25
 62
7
100
AcDbLine
 10
46.59544052612343
 20
-21.78091189477531
 30
0.0
 11
47.39316078918515
 21
-22.57863215783703
 31
0.0
  0
LINE
  5
B37
330
1F
100
AcDbEntity
  8
2
  6
CONTINUOUS
370
25
 62
7
100
AcDbLine
 10
46.9489939167167
 20
-21.71020121665666
 30
0.0
 11
47.92349087507505
 21
-22.68469817501501
 31
0.0
  0
LINE
  5
B38
330
1F
100
AcDbEntity
  8
2
  6
CONTINUOUS
370
25
 62
7
100
AcDbLine
 10
47.30254730730998
 20
-21.63949053853801
 30
0.0
 11
48.45382096096496
 21
-22.790764192193
 31
0.0
  0
LINE
  5
B39
330
1F
100
AcDbEntity
  8
2
  6
CONTINUOUS
370
25
 62
7
100
AcDbLine
 10
47.65610069790325
 20
-21.56877986041935
 30
0.0
 11
48.98415104685488
 21
-22.89683020937098
 31
0.0
  0
LINE
  5
B3A
330
1F
100
AcDbEntity
  8
2
  6
CONTINUOUS
370
25
 62
7
100
AcDbLine
 10
48.00965408849653
 20
-21.4980691823007
 30
0.0
 11
49.51448113274478
 21
-23.00289622654896
 31
0.0
  0
LINE
  5
B3B
330
1F
100
AcDbEntity
  8
2
  6
CONTINUOUS
370
25
 62
7
100
AcDbLine
 10
48.36320747908979
 20
-21.42735850418205
 30
0.0
 11
50.0
 21
-23.06415102509224
 31
0.0
  0
LINE
  5
B3C
330
1F
100
AcDbEntity
  8
2
  6
CONTINUOUS
370
25
 62
7
100
AcDbLine
 10
48.71676086968307
 20
-21.35664782606339
 30
0.0
 11
50.0
 21
-22.63988695638032
 31
0.0
  0
LINE
  5
B3D
330
1F
100
AcDbEntity
  8
2
  6
CONTINUOUS
370
25
 62
7
100
AcDbLine
 10
49.07031426027635
 20
-21.28593714794473
 30
0.0
 11
50.0
 21
-22.21562288766839
 31
0.0
  0
LINE
  5
B3E
330
1F
100
AcDbEntity
  8
2
  6
CONTINUOUS
370
25
 62
7
100
AcDbLine
 10
49.42386765086962
 20
-21.21522646982608
 30
0.0
 11
50.0
 21
-21.79135881895646
 31
0.0
  0
LINE
  5
B3F
330
1F
100
AcDbEntity
  8
2
  6
CONTINUOUS
370
25
 62
7
100
AcDbLine
 10
49.77742104146289
 20
-21.14451579170743
 30
0.0
 11
50.0
 21
-21.36709475024453
 31
0.0
  0
TEXT
  5
B40
330
1F
100
AcDbEntity
  8
2
  6
CONTINUOUS
370
25
 62
7
100
AcDbText
 10
52.54583333333333
 20
-20.6
 30
0.0
 40
3.5
  1
1.2
 72
     1
 11
55.4625
 21
-20.6
 31
0.0
100
AcDbText
  0
LINE
  5
B41
330
1F
100
AcDbEntity
  8
SK1
  6
CONTINUOUS
370
50
 62
4
100
AcDbLine
 10
36.7
 20
0.0
 30
0.0
 11
38.45
 21
0.0
 31
0.0
  0
LINE
  5
B42
330
1F
100
AcDbEntity
  8
SK1
  6
CONTINUOUS
370
50
 62
4
100
AcDbLine
 10
36.7
 20
0.0
 30
0.0
 11
36.7
 21
1.75
 31
0.0
  0
ARC
  5
B43
330
1F
100
AcDbEntity
  8
SK1
  6
CONTINUOUS
370
50
 62
4
100
AcDbCircle
 10
36.7
 20
0.0
 30
0.0
 40
1.75
100
AcDbArc
 50
0.0
 51
90.0
  0
LINE
  5
B44
330
1F
100
AcDbEntity
  8
SK1
  6
CONTINUOUS
370
50
 62
4
100
AcDbLine
 10
36.7
 20
0.0
 30
0.0
 11
34.95
 21
0.0
 31
0.0
  0
ARC
  5
B45
330
1F
100
AcDbEntity
  8
SK1
  6
CONTINUOUS
370
50
 62
4
100
AcDbCircle
 10
36.7
 20
0.0
 30
0.0
 40
1.75
100
AcDbArc
 50
180.0
 51
270.0
  0
LINE
  5
B46
330
1F
100
AcDbEntity
  8
SK1
  6
CONTINUOUS
370
50
 62
4
100
AcDbLine
 10
36.7
 20
-1.75
 30
0.0
 11
36.7
 21
0.0
 31
0.0
  0
ARC
  5
B47
330
1F
100
AcDbEntity
  8
SK1
  6
CONTINUOUS
370
50
 62
4
100
AcDbCircle
 10
36.7
 20
0.0
 30
0.0
 40
1.75
100
AcDbArc
 50
270.0
 51
0.0
  0
ARC
  5
B48
330
1F
100
AcDbEntity
  8
SK1
  6
CONTINUOUS
370
50
 62
4
100
AcDbCircle
 10
36.7
 20
0.0
 30
0.0
 40
1.75
100
AcDbArc
 50
90.0
 51
180.0
  0
LINE
  5
B49
330
1F
100
AcDbEntity
  8
SK1
  6
CONTINUOUS
370
50
 62
4
100
AcDbLine
 10
36.47717274741574
 20
-1.73564731720198
 30
0.0
 11
36.7
 21
-1.512820064617713
 31
0.0
  0
LINE
  5
B4A
330
1F
100
AcDbEntity
  8
SK1
  6
CONTINUOUS
370
50
 62
4
100
AcDbLine
 10
38.21282006461772
 20
0.0
 30
0.0
 11
38.43564731720198
 21
0.2228272525842674
 31
0.0
  0
LINE
  5
B4B
330
1F
100
AcDbEntity
  8
SK1
  6
CONTINUOUS
370
50
 62
4
100
AcDbLine
 10
36.26930380681873
 20
-1.69602888438369
 30
0.0
 11
36.7
 21
-1.265332691202421
 31
0.0
  0
LINE
  5
B4C
330
1F
100
AcDbEntity
  8
SK1
  6
CONTINUOUS
370
50
 62
4
100
AcDbLine
 10
37.96533269120242
 20
0.0
 30
0.0
 11
38.39602888438369
 21
0.4306961931812696
 31
0.0
  0
LINE
  5
B4D
330
1F
100
AcDbEntity
  8
SK1
  6
CONTINUOUS
370
50
 62
4
100
AcDbLine
 10
36.08148340435765
 20
-1.636361913429485
 30
0.0
 11
36.7
 21
-1.01784531778713
 31
0.0
  0
LINE
  5
B4E
330
1F
100
AcDbEntity
  8
SK1
  6
CONTINUOUS
370
50
 62
4
100
AcDbLine
 10
37.71784531778713
 20
0.0
 30
0.0
 11
38.33636191342949
 21
0.6185165956423557
 31
0.0
  0
LINE
  5
B4F
330
1F
100
AcDbEntity
  8
SK1
  6
CONTINUOUS
370
50
 62
4
100
AcDbLine
 10
35.9098551094628
 20
-1.560502834909039
 30
0.0
 11
36.7
 21
-0.7703579443718382
 31
0.0
  0
LINE
  5
B50
330
1F
100
AcDbEntity
  8
SK1
  6
CONTINUOUS
370
50
 62
4
100
AcDbLine
 10
37.47035794437184
 20
0.0
 30
0.0
 11
38.26050283490904
 21
0.7901448905372013
 31
0.0
  0
LINE
  5
B51
330
1F
100
AcDbEntity
  8
SK1
  6
CONTINUOUS
370
50
 62
4
100
AcDbLine
 10
35.75217783219447
 20
-1.470692738762079
 30
0.0
 11
36.7
 21
-0.5228705709565462
 31
0.0
  0
LINE
  5
B52
330
1F
100
AcDbEntity
  8
SK1
  6
CONTINUOUS
370
50
 62
4
100
AcDbLine
 10
37.22287057095655
 20
0.0
 30
0.0
 11
38.17069273876208
 21
0.947822167805533
 31
0.0
  0
LINE
  5
B53
330
1F
100
AcDbEntity
  8
SK1
  6
CONTINUOUS
370
50
 62
4
100
AcDbLine
 10
35.60842956711548
 20
-1.366953630425777
 30
0.0
 11
36.7
 21
-0.2753831975412551
 31
0.0
  0
LINE
  5
B54
330
1F
100
AcDbEntity
  8
SK1
  6
CONTINUOUS
370
50
 62
4
100
AcDbLine
 10
36.97538319754126
 20
0.0
 30
0.0
 11
38.06695363042578
 21
1.091570432884522
 31
0.0
  0
LINE
  5
B55
330
1F
100
AcDbEntity
  8
SK1
  6
CONTINUOUS
370
50
 62
4
100
AcDbLine
 10
35.47712164538165
 20
-1.25077417874432
 30
0.0
 11
36.7
 21
-0.0278958241259639
 31
0.0
  0
LINE
  5
B56
330
1F
100
AcDbEntity
  8
SK1
  6
CONTINUOUS
370
50
 62
4
100
AcDbLine
 10
36.72789582412597
 20
0.0
 30
0.0
 11
37.95077417874433
 21
1.222878354618356
 31
0.0
  0
LINE
  5
B57
330
1F
100
AcDbEntity
  8
SK1
  6
CONTINUOUS
370
50
 62
4
100
AcDbLine
 10
35.35784030371347
 20
-1.122568146997212
 30
0.0
 11
36.48040845071068
 21
0.0
 31
0.0
  0
LINE
  5
B58
330
1F
100
AcDbEntity
  8
SK1
  6
CONTINUOUS
370
50
 62
4
100
AcDbLine
 10
36.7
 20
0.2195915492893277
 30
0.0
 11
37.82256814699721
 21
1.34215969628654
 31
0.0
  0
LINE
  5
B59
330
1F
100
AcDbEntity
  8
SK1
  6
CONTINUOUS
370
50
 62
4
100
AcDbLine
 10
35.25188167231256
 20
-0.9810394049828186
 30
0.0
 11
36.23292107729539
 21
0.0
 31
0.0
  0
LINE
  5
B5A
330
1F
100
AcDbEntity
  8
SK1
  6
CONTINUOUS
370
50
 62
4
100
AcDbLine
 10
36.7
 20
0.4670789227046193
 30
0.0
 11
37.68103940498282
 21
1.448118327687438
 31
0.0
  0
LINE
  5
B5B
330
1F
100
AcDbEntity
  8
SK1
  6
CONTINUOUS
370
50
 62
4
100
AcDbLine
 10
35.15832908651576
 20
-0.8271046173643402
 30
0.0
 11
35.98543370388009
 21
0.0
 31
0.0
  0
LINE
  5
B5C
330
1F
100
AcDbEntity
  8
SK1
  6
CONTINUOUS
370
50
 62
4
100
AcDbLine
 10
36.7
 20
0.71456629611991
 30
0.0
 11
37.52710461736434
 21
1.54167091348425
 31
0.0
  0
LINE
  5
B5D
330
1F
100
AcDbEntity
  8
SK1
  6
CONTINUOUS
370
50
 62
4
100
AcDbLine
 10
35.07918473824205
 20
-0.6587615922227528
 30
0.0
 11
35.7379463304648
 21
0.0
 31
0.0
  0
LINE
  5
B5E
330
1F
100
AcDbEntity
  8
SK1
  6
CONTINUOUS
370
50
 62
4
100
AcDbLine
 10
36.7
 20
0.9620536695352015
 30
0.0
 11
37.35876159222276
 21
1.620815261757954
 31
0.0
  0
LINE
  5
B5F
330
1F
100
AcDbEntity
  8
SK1
  6
CONTINUOUS
370
50
 62
4
100
AcDbLine
 10
35.01629687706964
 20
-0.474162079979876
 30
0.0
 11
35.49045895704951
 21
0.0
 31
0.0
  0
LINE
  5
B60
330
1F
100
AcDbEntity
  8
SK1
  6
CONTINUOUS
370
50
 62
4
100
AcDbLine
 10
36.7
 20
1.209541042950494
 30
0.0
 11
37.17416207997988
 21
1.683703122930369
 31
0.0
  0
LINE
  5
B61
330
1F
100
AcDbEntity
  8
SK1
  6
CONTINUOUS
370
50
 62
4
100
AcDbLine
 10
34.97198100434272
 20
-0.2709905792915031
 30
0.0
 11
35.24297158363422
 21
0.0
 31
0.0
  0
LINE
  5
B62
330
1F
100
AcDbEntity
  8
SK1
  6
CONTINUOUS
370
50
 62
4
100
AcDbLine
 10
36.7
 20
1.457028416365784
 30
0.0
 11
36.9709905792915
 21
1.728018995657286
 31
0.0
  0
LINE
  5
B63
330
1F
100
AcDbEntity
  8
SK1
  6
CONTINUOUS
370
50
 62
4
100
AcDbLine
 10
34.95138584689781
 20
-0.0440983633211194
 30
0.0
 11
34.99548421021893
 21
0.0
 31
0.0
  0
LINE
  5
B64
330
1F
100
AcDbEntity
  8
SK1
  6
CONTINUOUS
370
50
 62
4
100
AcDbLine
 10
36.7
 20
1.704515789781075
 30
0.0
 11
36.74409836332112
 21
1.748614153102194
 31
0.0
  0
LINE
  5
B65
330
1F
100
AcDbEntity
  8
SK1
  6
CONTINUOUS
370
50
 62
4
100
AcDbLine
 10
35.06386517603682
 20
-0.6191473609004006
 30
0.0
 11
36.0808526390996
 21
-1.636134823963186
 31
0.0
  0
LINE
  5
B66
330
1F
100
AcDbEntity
  8
SK1
  6
CONTINUOUS
370
50
 62
4
100
AcDbLine
 10
34.97363430643546
 20
-0.2814291178837463
 30
0.0
 11
36.41857088211626
 21
-1.726365693564548
 31
0.0
  0
LINE
  5
B67
330
1F
100
AcDbEntity
  8
SK1
  6
CONTINUOUS
370
50
 62
4
100
AcDbLine
 10
34.9503344343115
 20
-0.0106418723445003
 30
0.0
 11
36.6893581276555
 21
-1.749665565688503
 31
0.0
  0
LINE
  5
B68
330
1F
100
AcDbEntity
  8
SK1
  6
CONTINUOUS
370
50
 62
4
100
AcDbLine
 10
35.18717993538229
 20
0.0
 30
0.0
 11
36.7
 21
-1.51282006461771
 31
0.0
  0
LINE
  5
B69
330
1F
100
AcDbEntity
  8
SK1
  6
CONTINUOUS
370
50
 62
4
100
AcDbLine
 10
35.43466730879759
 20
0.0
 30
0.0
 11
36.7
 21
-1.265332691202418
 31
0.0
  0
LINE
  5
B6A
330
1F
100
AcDbEntity
  8
SK1
  6
CONTINUOUS
370
50
 62
4
100
AcDbLine
 10
35.68215468221288
 20
0.0
 30
0.0
 11
36.7
 21
-1.017845317787128
 31
0.0
  0
LINE
  5
B6B
330
1F
100
AcDbEntity
  8
SK1
  6
CONTINUOUS
370
50
 62
4
100
AcDbLine
 10
35.92964205562816
 20
0.0
 30
0.0
 11
36.7
 21
-0.7703579443718369
 31
0.0
  0
LINE
  5
B6C
330
1F
100
AcDbEntity
  8
SK1
  6
CONTINUOUS
370
50
 62
4
100
AcDbLine
 10
36.17712942904345
 20
0.0
 30
0.0
 11
36.7
 21
-0.5228705709565453
 31
0.0
  0
LINE
  5
B6D
330
1F
100
AcDbEntity
  8
SK1
  6
CONTINUOUS
370
50
 62
4
100
AcDbLine
 10
36.42461680245875
 20
0.0
 30
0.0
 11
36.7
 21
-0.2753831975412537
 31
0.0
  0
LINE
  5
B6E
330
1F
100
AcDbEntity
  8
SK1
  6
CONTINUOUS
370
50
 62
4
100
AcDbLine
 10
36.67210417587404
 20
0.0
 30
0.0
 11
36.7
 21
-0.027895824125963
 31
0.0
  0
LINE
  5
B6F
330
1F
100
AcDbEntity
  8
SK1
  6
CONTINUOUS
370
50
 62
4
100
AcDbLine
 10
36.7
 20
0.219591549289329
 30
0.0
 11
36.91959154928933
 21
0.0
 31
0.0
  0
LINE
  5
B70
330
1F
100
AcDbEntity
  8
SK1
  6
CONTINUOUS
370
50
 62
4
100
AcDbLine
 10
36.7
 20
0.4670789227046202
 30
0.0
 11
37.16707892270463
 21
0.0
 31
0.0
  0
LINE
  5
B71
330
1F
100
AcDbEntity
  8
SK1
  6
CONTINUOUS
370
50
 62
4
100
AcDbLine
 10
36.7
 20
0.7145662961199113
 30
0.0
 11
37.41456629611992
 21
0.0
 31
0.0
  0
LINE
  5
B72
330
1F
100
AcDbEntity
  8
SK1
  6
CONTINUOUS
370
50
 62
4
100
AcDbLine
 10
36.7
 20
0.9620536695352029
 30
0.0
 11
37.6620536695352
 21
0.0
 31
0.0
  0
LINE
  5
B73
330
1F
100
AcDbEntity
  8
SK1
  6
CONTINUOUS
370
50
 62
4
100
AcDbLine
 10
36.7
 20
1.209541042950494
 30
0.0
 11
37.9095410429505
 21
0.0
 31
0.0
  0
LINE
  5
B74
330
1F
100
AcDbEntity
  8
SK1
  6
CONTINUOUS
370
50
 62
4
100
AcDbLine
 10
36.7
 20
1.457028416365785
 30
0.0
 11
38.15702841636579
 21
0.0
 31
0.0
  0
LINE
  5
B75
330
1F
100
AcDbEntity
  8
SK1
  6
CONTINUOUS
370
50
 62
4
100
AcDbLine
 10
36.7
 20
1.704515789781076
 30
0.0
 11
38.40451578978108
 21
0.0
 31
0.0
  0
LINE
  5
B76
330
1F
100
AcDbEntity
  8
SK1
  6
CONTINUOUS
370
50
 62
4
100
AcDbLine
 10
36.91543384193567
 20
1.736569321260697
 30
0.0
 11
38.4365693212607
 21
0.2154338419356714
 31
0.0
  0
LINE
  5
B77
330
1F
100
AcDbEntity
  8
SK1
  6
CONTINUOUS
370
50
 62
4
100
AcDbLine
 10
37.23283284728993
 20
1.666657689321729
 30
0.0
 11
38.36665768932173
 21
0.5328328472899322
 31
0.0
  0
LINE
  5
B78
330
1F
100
AcDbEntity
  8
SK1
  6
CONTINUOUS
370
50
 62
4
100
AcDbLine
 10
37.74009874905675
 20
1.406879160970207
 30
0.0
 11
38.10687916097021
 21
1.040098749056747
 31
0.0
  0
LINE
  5
B79
330
1F
100
AcDbEntity
  8
4
  6
LONGDASH_DASH
370
25
 62
2
100
AcDbLine
 10
36.7
 20
0.0
 30
0.0
 11
45.0
 21
0.0
 31
0.0
  0
LINE
  5
B7A
330
1F
100
AcDbEntity
  8
SK4
  6
LONGDASH_DASH
370
25
 62
2
100
AcDbLine
 10
-6.0
 20
0.0
 30
0.0
 11
51.0
 21
0.0
 31
0.0
  0
ARC
  5
B7B
330
1F
100
AcDbEntity
  8
SK6
  6
CONTINUOUS
370
25
 62
5
100
AcDbCircle
 10
68.9613820083765
 20
-26.74524575338786
 30
0.0
 40
2.76048912849221
100
AcDbArc
 50
338.9379403434233
 51
90.44457437511365
  0
LINE
  5
B7C
330
1F
100
AcDbEntity
  8
SK6
  6
CONTINUOUS
370
25
 62
5
100
AcDbLine
 10
68.93996279695983
 20
-23.98483972421281
 30
0.0
 11
68.93996279695983
 21
-25.08789835613463
 31
0.0
  0
ARC
  5
B7D
330
1F
100
AcDbEntity
  8
SK6
  6
CONTINUOUS
370
25
 62
5
100
AcDbCircle
 10
68.95050902936916
 20
-26.76523924566821
 30
0.0
 40
1.677374043771779
100
AcDbArc
 50
243.4214706017868
 51
90.36024081226083
  0
ARC
  5
B7E
330
1F
100
AcDbEntity
  8
SK6
  6
CONTINUOUS
370
25
 62
5
100
AcDbCircle
 10
71.47275989684958
 20
-26.33383199215561
 30
0.0
 40
3.80021703002276
100
AcDbArc
 50
210.5483731288539
 51
236.97801693668
  0
LINE
  5
B7F
330
1F
100
AcDbEntity
  8
SK6
  6
CONTINUOUS
370
25
 62
5
100
AcDbLine
 10
69.40179068512487
 20
-29.52016781867535
 30
0.0
 11
73.54373096742671
 21
-29.52016781867535
 31
0.0
  0
ARC
  5
B80
330
1F
100
AcDbEntity
  8
SK6
  6
CONTINUOUS
370
25
 62
5
100
AcDbCircle
 10
71.47276183877257
 20
-26.3338320937346
 30
0.0
 40
3.800216899582472
100
AcDbArc
 50
303.0219828477959
 51
326.3732153033476
  0
LINE
  5
B81
330
1F
100
AcDbEntity
  8
SK6
  6
CONTINUOUS
370
25
 62
5
100
AcDbLine
 10
74.63705975135723
 20
-28.4383194907709
 30
0.0
 11
71.27976170575462
 21
-28.4383194907709
 31
0.0
  0
LINE
  5
B82
330
1F
100
AcDbEntity
  8
SK6
  6
CONTINUOUS
370
25
 62
5
100
AcDbLine
 10
71.27976170575462
 20
-28.4383194907709
 30
0.0
 11
75.19962109771987
 21
-27.07691829641694
 31
0.0
  0
ARC
  5
B83
330
1F
100
AcDbEntity
  8
SK6
  6
CONTINUOUS
370
25
 62
5
100
AcDbCircle
 10
71.47276256157211
 20
-26.3338326048594
 30
0.0
 40
3.800217216614723
100
AcDbArc
 50
348.7238644184696
 51
53.4691051260885
  0
LINE
  5
B84
330
1F
100
AcDbEntity
  8
SK6
  6
CONTINUOUS
370
25
 62
5
100
AcDbLine
 10
73.73486524538545
 20
-23.28022124429967
 30
0.0
 11
71.53745047882737
 21
-27.73730973507057
 31
0.0
  0
ENDSEC
  0
SECTION
  2
OBJECTS
  0
DICTIONARY
  5
C
330
0
100
AcDbDictionary
281
     1
  3
ACAD_GROUP
350
D
  3
ACAD_LAYOUT
350
1A
  3
ACAD_MATERIAL
350
3B
  3
ACAD_MLEADERSTYLE
350
B87
  3
ACAD_MLINESTYLE
350
17
  3
ACAD_PLOTSETTINGS
350
19
  3
ACAD_PLOTSTYLENAME
350
E
  3
ACAD_SCALELIST
350
3FC
  3
ACAD_VISUALSTYLE
350
2A
  3
AcDbVariableDictionary
350
B85
  0
DICTIONARY
  5
D
102
{ACAD_REACTORS
330
C
102
}
330
C
100
AcDbDictionary
281
     1
  0
DICTIONARY
  5
1A
102
{ACAD_REACTORS
330
C
102
}
330
C
100
AcDbDictionary
281
     1
  3
Layout1
350
1E
  3
Layout2
350
26
  3
Model
350
22
  0
DICTIONARY
  5
3B
102
{ACAD_REACTORS
330
C
102
}
330
C
100
AcDbDictionary
281
     1
  3
ByBlock
350
3D
  3
ByLayer
350
3C
  3
Global
350
3E
  0
DICTIONARY
  5
B87
102
{ACAD_REACTORS
330
C
102
}
330
C
100
AcDbDictionary
281
     1
  0
DICTIONARY
  5
17
102
{ACAD_REACTORS
330
C
102
}
330
C
100
AcDbDictionary
281
     1
  3
Standard
350
18
  0
DICTIONARY
  5
19
102
{ACAD_REACTORS
330
C
102
}
330
C
100
AcDbDictionary
281
     1
  0
ACDBDICTIONARYWDFLT
  5
E
102
{ACAD_REACTORS
330
C
102
}
330
C
100
AcDbDictionary
281
     1
  3
Normal
350
F
100
AcDbDictionaryWithDefault
340
F
  0
DICTIONARY
  5
3FC
102
{ACAD_REACTORS
330
C
102
}
330
C
100
AcDbDictionary
281
     1
  3
A0
350
3FD
  3
A1
350
3FE
  3
A2
350
3FF
  3
A3
350
400
  3
A4
350
401
  3
A5
350
402
  3
A6
350
403
  3
A7
350
404
  3
A8
350
405
  3
A9
350
406
  3
B0
350
407
  3
B1
350
408
  3
B2
350
409
  3
B3
350
40A
  3
B4
350
40B
  3
B5
350
40C
  3
B6
350
40D
  3
B7
350
40E
  3
B8
350
40F
  3
B9
350
410
  3
C0
350
411
  3
C1
350
412
  3
C2
350
413
  3
C3
350
414
  3
C4
350
415
  3
C5
350
416
  3
C6
350
417
  3
C7
350
418
  3
C8
350
419
  3
C9
350
41A
  3
D0
350
41B
  3
D1
350
41C
  3
D2
350
41D
  0
DICTIONARY
  5
2A
102
{ACAD_REACTORS
330
C
102
}
330
C
100
AcDbDictionary
281
     1
  3
2dWireframe
350
2F
  3
3D Hidden
350
31
  3
3dWireframe
350
30
  3
Basic
350
32
  3
Brighten
350
36
  3
ColorChange
350
3A
  3
Conceptual
350
34
  3
Dim
350
35
  3
Facepattern
350
39
  3
Flat
350
2B
  3
FlatWithEdges
350
2C
  3
Gouraud
350
2D
  3
GouraudWithEdges
350
2E
  3
Linepattern
350
38
  3
Realistic
350
33
  3
Thicken
350
37
  0
DICTIONARY
  5
B85
102
{ACAD_REACTORS
330
C
102
}
330
C
100
AcDbDictionary
281
     1
  3
CANNOSCALE
350
B8A
  3
DIMASSOC
350
B8B
  3
HIDETEXT
350
B8C
  3
PSOLHEIGHT
350
B89
  3
PSOLWIDTH
350
B88
  0
LAYOUT
  5
1E
102
{ACAD_REACTORS
330
1A
102
}
330
1A
100
AcDbPlotSettings
  1

  2
none_device
  4

  6

 40
0.0
 41
0.0
 42
0.0
 43
0.0
 44
0.0
 45
0.0
 46
0.0
 47
0.0
 48
0.0
 49
0.0
140
0.0
141
0.0
142
1.0
143
1.0
 70
   688
 72
     0
 73
     0
 74
     5
  7

 75
    16
147
1.0
148
0.0
149
0.0
100
AcDbLayout
  1
Layout1
 70
     1
 71
     1
 10
0.0
 20
0.0
 11
420.0
 21
297.0
 12
0.0
 22
0.0
 32
0.0
 14
1.000000000000000E+20
 24
1.000000000000000E+20
 34
1.000000000000000E+20
 15
-1.000000000000000E+20
 25
-1.000000000000000E+20
 35
-1.000000000000000E+20
146
0.0
 13
0.0
 23
0.0
 33
0.0
 16
1.0
 26
0.0
 36
0.0
 17
0.0
 27
1.0
 37
0.0
 76
     0
330
1B
  0
LAYOUT
  5
26
102
{ACAD_REACTORS
330
1A
102
}
330
1A
100
AcDbPlotSettings
  1

  2
none_device
  4

  6

 40
0.0
 41
0.0
 42
0.0
 43
0.0
 44
0.0
 45
0.0
 46
0.0
 47
0.0
 48
0.0
 49
0.0
140
0.0
141
0.0
142
1.0
143
1.0
 70
   688
 72
     0
 73
     0
 74
     5
  7

 75
    16
147
1.0
148
0.0
149
0.0
100
AcDbLayout
  1
Layout2
 70
     1
 71
     2
 10
0.0
 20
0.0
 11
0.0
 21
0.0
 12
0.0
 22
0.0
 32
0.0
 14
0.0
 24
0.0
 34
0.0
 15
0.0
 25
0.0
 35
0.0
146
0.0
 13
0.0
 23
0.0
 33
0.0
 16
1.0
 26
0.0
 36
0.0
 17
0.0
 27
1.0
 37
0.0
 76
     0
330
23
  0
LAYOUT
  5
22
102
{ACAD_REACTORS
330
1A
102
}
330
1A
100
AcDbPlotSettings
  1

  2
none_device
  4

  6

 40
0.0
 41
0.0
 42
0.0
 43
0.0
 44
0.0
 45
0.0
 46
0.0
 47
0.0
 48
0.0
 49
0.0
140
0.0
141
0.0
142
1.0
143
1.0
 70
  1712
 72
     0
 73
     0
 74
     0
  7

 75
     0
147
1.0
148
0.0
149
0.0
100
AcDbLayout
  1
Model
 70
     1
 71
     0
 10
0.0
 20
0.0
 11
420.0
 21
297.0
 12
0.0
 22
0.0
 32
0.0
 14
0.0
 24
0.0
 34
0.0
 15
25.0
 25
35.0
 35
0.0
146
0.0
 13
0.0
 23
0.0
 33
0.0
 16
1.0
 26
0.0
 36
0.0
 17
0.0
 27
1.0
 37
0.0
 76
     0
330
1F
331
29
  0
MATERIAL
  5
3D
102
{ACAD_REACTORS
330
3B
102
}
102
{ACAD_XDICTIONARY
360
BAF
102
}
330
3B
100
AcDbMaterial
  1
ByBlock
  0
MATERIAL
  5
3C
102
{ACAD_REACTORS
330
3B
102
}
102
{ACAD_XDICTIONARY
360
BAD
102
}
330
3B
100
AcDbMaterial
  1
ByLayer
  0
MATERIAL
  5
3E
102
{ACAD_REACTORS
330
3B
102
}
102
{ACAD_XDICTIONARY
360
BB1
102
}
330
3B
100
AcDbMaterial
  1
Global
  0
MLINESTYLE
  5
18
102
{ACAD_REACTORS
330
17
102
}
330
17
100
AcDbMlineStyle
  2
Standard
 70
     0
  3

 62
   256
 51
90.0
 52
90.0
 71
     2
 49
0.5
 62
   256
  6
BYLAYER
 49
-0.5
 62
   256
  6
BYLAYER
  0
ACDBPLACEHOLDER
  5
F
102
{ACAD_REACTORS
330
E
102
}
330
E
  0
SCALE
  5
3FD
102
{ACAD_REACTORS
330
3FC
102
}
330
3FC
100
AcDbScale
 70
     0
300
1:1
140
1.0
141
1.0
290
     1
  0
SCALE
  5
3FE
102
{ACAD_REACTORS
330
3FC
102
}
330
3FC
100
AcDbScale
 70
     0
300
1:2
140
1.0
141
2.0
290
     0
  0
SCALE
  5
3FF
102
{ACAD_REACTORS
330
3FC
102
}
330
3FC
100
AcDbScale
 70
     0
300
1:4
140
1.0
141
4.0
290
     0
  0
SCALE
  5
400
102
{ACAD_REACTORS
330
3FC
102
}
330
3FC
100
AcDbScale
 70
     0
300
1:5
140
1.0
141
5.0
290
     0
  0
SCALE
  5
401
102
{ACAD_REACTORS
330
3FC
102
}
330
3FC
100
AcDbScale
 70
     0
300
1:8
140
1.0
141
8.0
290
     0
  0
SCALE
  5
402
102
{ACAD_REACTORS
330
3FC
102
}
330
3FC
100
AcDbScale
 70
     0
300
1:10
140
1.0
141
10.0
290
     0
  0
SCALE
  5
403
102
{ACAD_REACTORS
330
3FC
102
}
330
3FC
100
AcDbScale
 70
     0
300
1:16
140
1.0
141
16.0
290
     0
  0
SCALE
  5
404
102
{ACAD_REACTORS
330
3FC
102
}
330
3FC
100
AcDbScale
 70
     0
300
1:20
140
1.0
141
20.0
290
     0
  0
SCALE
  5
405
102
{ACAD_REACTORS
330
3FC
102
}
330
3FC
100
AcDbScale
 70
     0
300
1:30
140
1.0
141
30.0
290
     0
  0
SCALE
  5
406
102
{ACAD_REACTORS
330
3FC
102
}
330
3FC
100
AcDbScale
 70
     0
300
1:40
140
1.0
141
40.0
290
     0
  0
SCALE
  5
407
102
{ACAD_REACTORS
330
3FC
102
}
330
3FC
100
AcDbScale
 70
     0
300
1:50
140
1.0
141
50.0
290
     0
  0
SCALE
  5
408
102
{ACAD_REACTORS
330
3FC
102
}
330
3FC
100
AcDbScale
 70
     0
300
1:100
140
1.0
141
100.0
290
     0
  0
SCALE
  5
409
102
{ACAD_REACTORS
330
3FC
102
}
330
3FC
100
AcDbScale
 70
     0
300
2:1
140
2.0
141
1.0
290
     0
  0
SCALE
  5
40A
102
{ACAD_REACTORS
330
3FC
102
}
330
3FC
100
AcDbScale
 70
     0
300
4:1
140
4.0
141
1.0
290
     0
  0
SCALE
  5
40B
102
{ACAD_REACTORS
330
3FC
102
}
330
3FC
100
AcDbScale
 70
     0
300
8:1
140
8.0
141
1.0
290
     0
  0
SCALE
  5
40C
102
{ACAD_REACTORS
330
3FC
102
}
330
3FC
100
AcDbScale
 70
     0
300
10:1
140
10.0
141
1.0
290
     0
  0
SCALE
  5
40D
102
{ACAD_REACTORS
330
3FC
102
}
330
3FC
100
AcDbScale
 70
     0
300
100:1
140
100.0
141
1.0
290
     0
  0
SCALE
  5
40E
102
{ACAD_REACTORS
330
3FC
102
}
330
3FC
100
AcDbScale
 70
     0
300
1/128" = 1'-0"
140
0.0078125
141
12.0
290
     0
  0
SCALE
  5
40F
102
{ACAD_REACTORS
330
3FC
102
}
330
3FC
100
AcDbScale
 70
     0
300
1/64" = 1'-0"
140
0.015625
141
12.0
290
     0
  0
SCALE
  5
410
102
{ACAD_REACTORS
330
3FC
102
}
330
3FC
100
AcDbScale
 70
     0
300
1/32" = 1'-0"
140
0.03125
141
12.0
290
     0
  0
SCALE
  5
411
102
{ACAD_REACTORS
330
3FC
102
}
330
3FC
100
AcDbScale
 70
     0
300
1/16" = 1'-0"
140
0.0625
141
12.0
290
     0
  0
SCALE
  5
412
102
{ACAD_REACTORS
330
3FC
102
}
330
3FC
100
AcDbScale
 70
     0
300
3/32" = 1'-0"
140
0.09375
141
12.0
290
     0
  0
SCALE
  5
413
102
{ACAD_REACTORS
330
3FC
102
}
330
3FC
100
AcDbScale
 70
     0
300
1/8" = 1'-0"
140
0.125
141
12.0
290
     0
  0
SCALE
  5
414
102
{ACAD_REACTORS
330
3FC
102
}
330
3FC
100
AcDbScale
 70
     0
300
3/16" = 1'-0"
140
0.1875
141
12.0
290
     0
  0
SCALE
  5
415
102
{ACAD_REACTORS
330
3FC
102
}
330
3FC
100
AcDbScale
 70
     0
300
1/4" = 1'-0"
140
0.25
141
12.0
290
     0
  0
SCALE
  5
416
102
{ACAD_REACTORS
330
3FC
102
}
330
3FC
100
AcDbScale
 70
     0
300
3/8" = 1'-0"
140
0.375
141
12.0
290
     0
  0
SCALE
  5
417
102
{ACAD_REACTORS
330
3FC
102
}
330
3FC
100
AcDbScale
 70
     0
300
1/2" = 1'-0"
140
0.5
141
12.0
290
     0
  0
SCALE
  5
418
102
{ACAD_REACTORS
330
3FC
102
}
330
3FC
100
AcDbScale
 70
     0
300
3/4" = 1'-0"
140
0.75
141
12.0
290
     0
  0
SCALE
  5
419
102
{ACAD_REACTORS
330
3FC
102
}
330
3FC
100
AcDbScale
 70
     0
300
1" = 1'-0"
140
1.0
141
12.0
290
     0
  0
SCALE
  5
41A
102
{ACAD_REACTORS
330
3FC
102
}
330
3FC
100
AcDbScale
 70
     0
300
1-1/2" = 1'-0"
140
1.5
141
12.0
290
     0
  0
SCALE
  5
41B
102
{ACAD_REACTORS
330
3FC
102
}
330
3FC
100
AcDbScale
 70
     0
300
3" = 1'-0"
140
3.0
141
12.0
290
     0
  0
SCALE
  5
41C
102
{ACAD_REACTORS
330
3FC
102
}
330
3FC
100
AcDbScale
 70
     0
300
6" = 1'-0"
140
6.0
141
12.0
290
     0
  0
SCALE
  5
41D
102
{ACAD_REACTORS
330
3FC
102
}
330
3FC
100
AcDbScale
 70
     0
300
1'-0" = 1'-0"
140
12.0
141
12.0
290
     0
  0
VISUALSTYLE
  5
2F
102
{ACAD_REACTORS
330
2A
102
}
102
{ACAD_XDICTIONARY
360
B95
102
}
330
2A
100
AcDbVisualStyle
  2
2dWireframe
 70
     4
 71
     0
 72
     2
 73
     0
 90
        0
 40
-0.6
 41
-30.0
 62
     5
 63
     7
 74
     1
 91
        4
 64
     7
 65
   257
 75
     1
175
     1
 42
1.0
 92
        0
 66
   257
 43
1.0
 76
     1
 77
     6
 78
     2
 67
     7
 79
     5
170
     0
171
     0
290
     0
174
     0
 93
        1
 44
0.0
173
     0
291
     0
 45
0.0
1001
ACAD
1000
AcDbSavedByObjectVersion
1070
     0
  0
VISUALSTYLE
  5
31
102
{ACAD_REACTORS
330
2A
102
}
102
{ACAD_XDICTIONARY
360
B99
102
}
330
2A
100
AcDbVisualStyle
  2
3D Hidden
 70
     6
 71
     1
 72
     2
 73
     2
 90
        0
 40
-0.6
 41
-30.0
 62
     5
 63
     7
 74
     2
 91
        2
 64
     7
 65
   257
 75
     2
175
     1
 42
40.0
 92
        0
 66
   257
 43
1.0
 76
     1
 77
     6
 78
     2
 67
     7
 79
     3
170
     0
171
     0
290
     0
174
     0
 93
        1
 44
0.0
173
     0
291
     0
 45
0.0
1001
ACAD
1000
AcDbSavedByObjectVersion
1070
     0
  0
VISUALSTYLE
  5
30
102
{ACAD_REACTORS
330
2A
102
}
102
{ACAD_XDICTIONARY
360
B97
102
}
330
2A
100
AcDbVisualStyle
  2
3dWireframe
 70
     5
 71
     0
 72
     2
 73
     0
 90
        0
 40
-0.6
 41
-30.0
 62
     5
 63
     7
 74
     1
 91
        4
 64
     7
 65
   257
 75
     1
175
     1
 42
1.0
 92
        0
 66
   257
 43
1.0
 76
     1
 77
     6
 78
     2
 67
     7
 79
     5
170
     0
171
     0
290
     0
174
     0
 93
        1
 44
0.0
173
     0
291
     0
 45
0.0
1001
ACAD
1000
AcDbSavedByObjectVersion
1070
     0
  0
VISUALSTYLE
  5
32
102
{ACAD_REACTORS
330
2A
102
}
102
{ACAD_XDICTIONARY
360
B9B
102
}
330
2A
100
AcDbVisualStyle
  2
Basic
 70
     7
 71
     1
 72
     0
 73
     1
 90
        0
 40
-0.6
 41
-30.0
 62
     5
 63
     7
 74
     0
 91
        4
 64
     7
 65
   257
 75
     1
175
     1
 42
1.0
 92
        8
 66
     7
 43
1.0
 76
     1
 77
     6
 78
     2
 67
     7
 79
     5
170
     0
171
     0
290
     0
174
     0
 93
        1
 44
0.0
173
     0
291
     1
 45
0.0
1001
ACAD
1000
AcDbSavedByObjectVersion
1070
     0
  0
VISUALSTYLE
  5
36
102
{ACAD_REACTORS
330
2A
102
}
102
{ACAD_XDICTIONARY
360
BA3
102
}
330
2A
100
AcDbVisualStyle
  2
Brighten
 70
    12
 71
     2
 72
     2
 73
     0
 90
        0
 40
-0.6
 41
-30.0
 62
     5
 63
     7
 74
     1
 91
        4
 64
     7
 65
   257
 75
     1
175
     1
 42
1.0
 92
        8
 66
     7
 43
1.0
 76
     1
 77
     6
 78
     2
 67
     7
 79
     5
170
     0
171
     0
290
     0
174
     0
 93
        1
 44
50.0
173
     0
291
     1
 45
0.0
1001
ACAD
1000
AcDbSavedByObjectVersion
1070
     0
  0
VISUALSTYLE
  5
3A
102
{ACAD_REACTORS
330
2A
102
}
102
{ACAD_XDICTIONARY
360
BAB
102
}
330
2A
100
AcDbVisualStyle
  2
ColorChange
 70
    16
 71
     2
 72
     2
 73
     3
 90
        0
 40
-0.6
 41
-30.0
 62
     5
 63
     8
 74
     1
 91
        4
 64
     7
 65
   257
 75
     1
175
     1
 42
1.0
 92
        8
 66
     8
 43
1.0
 76
     1
 77
     6
 78
     2
 67
     7
 79
     5
170
     0
171
     0
290
     0
174
     0
 93
        1
 44
0.0
173
     0
291
     1
 45
0.0
1001
ACAD
1000
AcDbSavedByObjectVersion
1070
     0
  0
VISUALSTYLE
  5
34
102
{ACAD_REACTORS
330
2A
102
}
102
{ACAD_XDICTIONARY
360
B9F
102
}
330
2A
100
AcDbVisualStyle
  2
Conceptual
 70
     9
 71
     3
 72
     2
 73
     0
 90
        0
 40
-0.6
 41
-30.0
 62
     5
 63
     7
 74
     2
 91
        2
 64
     7
 65
   257
 75
     1
175
     1
 42
40.0
 92
        8
 66
     7
 43
1.0
 76
     1
 77
     6
 78
     2
 67
     7
 79
     3
170
     0
171
     0
290
     0
174
     0
 93
        1
 44
0.0
173
     0
291
     0
 45
0.0
1001
ACAD
1000
AcDbSavedByObjectVersion
1070
     0
  0
VISUALSTYLE
  5
35
102
{ACAD_REACTORS
330
2A
102
}
102
{ACAD_XDICTIONARY
360
BA1
102
}
330
2A
100
AcDbVisualStyle
  2
Dim
 70
    11
 71
     2
 72
     2
 73
     0
 90
        0
 40
-0.6
 41
-30.0
 62
     5
 63
     7
 74
     1
 91
        4
 64
     7
 65
   257
 75
     1
175
     1
 42
1.0
 92
        8
 66
     7
 43
1.0
 76
     1
 77
     6
 78
     2
 67
     7
 79
     5
170
     0
171
     0
290
     0
174
     0
 93
        1
 44
-50.0
173
     0
291
     1
 45
0.0
1001
ACAD
1000
AcDbSavedByObjectVersion
1070
     0
  0
VISUALSTYLE
  5
39
102
{ACAD_REACTORS
330
2A
102
}
102
{ACAD_XDICTIONARY
360
BA9
102
}
330
2A
100
AcDbVisualStyle
  2
Facepattern
 70
    15
 71
     2
 72
     2
 73
     0
 90
        0
 40
-0.6
 41
-30.0
 62
     5
 63
     7
 74
     1
 91
        4
 64
     7
 65
   257
 75
     1
175
     1
 42
1.0
 92
        8
 66
     7
 43
1.0
 76
     1
 77
     6
 78
     2
 67
     7
 79
     5
170
     0
171
     0
290
     0
174
     0
 93
        1
 44
0.0
173
     0
291
     1
 45
0.0
1001
ACAD
1000
AcDbSavedByObjectVersion
1070
     0
  0
VISUALSTYLE
  5
2B
102
{ACAD_REACTORS
330
2A
102
}
102
{ACAD_XDICTIONARY
360
B8D
102
}
330
2A
100
AcDbVisualStyle
  2
Flat
 70
     0
 71
     2
 72
     1
 73
     1
 90
        2
 40
-0.6
 41
30.0
 62
     5
 63
     7
 74
     0
 91
        4
 64
     7
 65
   257
 75
     1
175
     1
 42
1.0
 92
        8
 66
     7
 43
1.0
 76
     1
 77
     6
 78
     2
 67
     7
 79
     5
170
     0
171
     0
290
     0
174
     0
 93
       13
 44
0.0
173
     0
291
     1
 45
0.0
1001
ACAD
1000
AcDbSavedByObjectVersion
1070
     0
  0
VISUALSTYLE
  5
2C
102
{ACAD_REACTORS
330
2A
102
}
102
{ACAD_XDICTIONARY
360
B8F
102
}
330
2A
100
AcDbVisualStyle
  2
FlatWithEdges
 70
     1
 71
     2
 72
     1
 73
     1
 90
        2
 40
-0.6
 41
30.0
 62
     5
 63
     7
 74
     1
 91
        4
 64
     7
 65
   257
 75
     1
175
     1
 42
1.0
 92
        0
 66
   257
 43
1.0
 76
     1
 77
     6
 78
     2
 67
     7
 79
     5
170
     0
171
     0
290
     0
174
     0
 93
       13
 44
0.0
173
     0
291
     1
 45
0.0
1001
ACAD
1000
AcDbSavedByObjectVersion
1070
     0
  0
VISUALSTYLE
  5
2D
102
{ACAD_REACTORS
330
2A
102
}
102
{ACAD_XDICTIONARY
360
B91
102
}
330
2A
100
AcDbVisualStyle
  2
Gouraud
 70
     2
 71
     2
 72
     2
 73
     1
 90
        2
 40
-0.6
 41
30.0
 62
     5
 63
     7
 74
     0
 91
        4
 64
     7
 65
   257
 75
     1
175
     1
 42
1.0
 92
        0
 66
     7
 43
1.0
 76
     1
 77
     6
 78
     2
 67
     7
 79
     5
170
     0
171
     0
290
     0
174
     0
 93
       13
 44
0.0
173
     0
291
     1
 45
0.0
1001
ACAD
1000
AcDbSavedByObjectVersion
1070
     0
  0
VISUALSTYLE
  5
2E
102
{ACAD_REACTORS
330
2A
102
}
102
{ACAD_XDICTIONARY
360
B93
102
}
330
2A
100
AcDbVisualStyle
  2
GouraudWithEdges
 70
     3
 71
     2
 72
     2
 73
     1
 90
        2
 40
-0.6
 41
30.0
 62
     5
 63
     7
 74
     1
 91
        4
 64
     7
 65
   257
 75
     1
175
     1
 42
1.0
 92
        0
 66
   257
 43
1.0
 76
     1
 77
     6
 78
     2
 67
     7
 79
     5
170
     0
171
     0
290
     0
174
     0
 93
       13
 44
0.0
173
     0
291
     1
 45
0.0
1001
ACAD
1000
AcDbSavedByObjectVersion
1070
     0
  0
VISUALSTYLE
  5
38
102
{ACAD_REACTORS
330
2A
102
}
102
{ACAD_XDICTIONARY
360
BA7
102
}
330
2A
100
AcDbVisualStyle
  2
Linepattern
 70
    14
 71
     2
 72
     2
 73
     0
 90
        0
 40
-0.6
 41
-30.0
 62
     5
 63
     7
 74
     1
 91
        4
 64
     7
 65
   257
 75
     7
175
     7
 42
1.0
 92
        8
 66
     7
 43
1.0
 76
     1
 77
     6
 78
     2
 67
     7
 79
     5
170
     0
171
     0
290
     0
174
     0
 93
        1
 44
0.0
173
     0
291
     1
 45
0.0
1001
ACAD
1000
AcDbSavedByObjectVersion
1070
     0
  0
VISUALSTYLE
  5
33
102
{ACAD_REACTORS
330
2A
102
}
102
{ACAD_XDICTIONARY
360
B9D
102
}
330
2A
100
AcDbVisualStyle
  2
Realistic
 70
     8
 71
     2
 72
     2
 73
     0
 90
        0
 40
-0.6
 41
-30.0
 62
     5
 63
     7
 74
     1
 91
        0
 64
     7
 65
   257
 75
     1
175
     1
 42
1.0
 92
        8
 66
     8
 43
1.0
 76
     1
 77
     6
 78
     2
 67
     7
 79
     5
170
     0
171
     0
290
     0
174
     0
 93
       13
 44
0.0
173
     0
291
     0
 45
0.0
1001
ACAD
1000
AcDbSavedByObjectVersion
1070
     0
  0
VISUALSTYLE
  5
37
102
{ACAD_REACTORS
330
2A
102
}
102
{ACAD_XDICTIONARY
360
BA5
102
}
330
2A
100
AcDbVisualStyle
  2
Thicken
 70
    13
 71
     2
 72
     2
 73
     0
 90
        0
 40
-0.6
 41
-30.0
 62
     5
 63
     7
 74
     1
 91
        4
 64
     7
 65
   257
 75
     1
175
     1
 42
1.0
 92
       12
 66
     7
 43
1.0
 76
     1
 77
     6
 78
     2
 67
     7
 79
     5
170
     0
171
     0
290
     0
174
     0
 93
        1
 44
0.0
173
     0
291
     1
 45
0.0
1001
ACAD
1000
AcDbSavedByObjectVersion
1070
     0
  0
DICTIONARYVAR
  5
B8A
102
{ACAD_REACTORS
330
B85
102
}
330
B85
100
DictionaryVariables
280
     0
  1
1:1
  0
DICTIONARYVAR
  5
B8B
102
{ACAD_REACTORS
330
B85
102
}
330
B85
100
DictionaryVariables
280
     0
  1
2
  0
DICTIONARYVAR
  5
B8C
102
{ACAD_REACTORS
330
B85
102
}
330
B85
100
DictionaryVariables
280
     0
  1
1
  0
DICTIONARYVAR
  5
B89
102
{ACAD_REACTORS
330
B85
102
}
330
B85
100
DictionaryVariables
280
     0
  1
80.000000
  0
DICTIONARYVAR
  5
B88
102
{ACAD_REACTORS
330
B85
102
}
330
B85
100
DictionaryVariables
280
     0
  1
5.000000
  0
DICTIONARY
  5
BAF
330
3D
100
AcDbDictionary
280
     1
281
     1
  3
ACAD_XREC_ROUNDTRIP
360
BB0
  0
DICTIONARY
  5
BAD
330
3C
100
AcDbDictionary
280
     1
281
     1
  3
ACAD_XREC_ROUNDTRIP
360
BAE
  0
DICTIONARY
  5
BB1
330
3E
100
AcDbDictionary
280
     1
281
     1
  3
ACAD_XREC_ROUNDTRIP
360
BB2
  0
DICTIONARY
  5
B95
330
2F
100
AcDbDictionary
280
     1
281
     1
  3
ACAD_XREC_ROUNDTRIP
360
B96
  0
DICTIONARY
  5
B99
330
31
100
AcDbDictionary
280
     1
281
     1
  3
ACAD_XREC_ROUNDTRIP
360
B9A
  0
DICTIONARY
  5
B97
330
30
100
AcDbDictionary
280
     1
281
     1
  3
ACAD_XREC_ROUNDTRIP
360
B98
  0
DICTIONARY
  5
B9B
330
32
100
AcDbDictionary
280
     1
281
     1
  3
ACAD_XREC_ROUNDTRIP
360
B9C
  0
DICTIONARY
  5
BA3
330
36
100
AcDbDictionary
280
     1
281
     1
  3
ACAD_XREC_ROUNDTRIP
360
BA4
  0
DICTIONARY
  5
BAB
330
3A
100
AcDbDictionary
280
     1
281
     1
  3
ACAD_XREC_ROUNDTRIP
360
BAC
  0
DICTIONARY
  5
B9F
330
34
100
AcDbDictionary
280
     1
281
     1
  3
ACAD_XREC_ROUNDTRIP
360
BA0
  0
DICTIONARY
  5
BA1
330
35
100
AcDbDictionary
280
     1
281
     1
  3
ACAD_XREC_ROUNDTRIP
360
BA2
  0
DICTIONARY
  5
BA9
330
39
100
AcDbDictionary
280
     1
281
     1
  3
ACAD_XREC_ROUNDTRIP
360
BAA
  0
DICTIONARY
  5
B8D
330
2B
100
AcDbDictionary
280
     1
281
     1
  3
ACAD_XREC_ROUNDTRIP
360
B8E
  0
DICTIONARY
  5
B8F
330
2C
100
AcDbDictionary
280
     1
281
     1
  3
ACAD_XREC_ROUNDTRIP
360
B90
  0
DICTIONARY
  5
B91
330
2D
100
AcDbDictionary
280
     1
281
     1
  3
ACAD_XREC_ROUNDTRIP
360
B92
  0
DICTIONARY
  5
B93
330
2E
100
AcDbDictionary
280
     1
281
     1
  3
ACAD_XREC_ROUNDTRIP
360
B94
  0
DICTIONARY
  5
BA7
330
38
100
AcDbDictionary
280
     1
281
     1
  3
ACAD_XREC_ROUNDTRIP
360
BA8
  0
DICTIONARY
  5
B9D
330
33
100
AcDbDictionary
280
     1
281
     1
  3
ACAD_XREC_ROUNDTRIP
360
B9E
  0
DICTIONARY
  5
BA5
330
37
100
AcDbDictionary
280
     1
281
     1
  3
ACAD_XREC_ROUNDTRIP
360
BA6
  0
XRECORD
  5
BB0
102
{ACAD_REACTORS
330
BAF
102
}
330
BAF
100
AcDbXrecord
280
     1
102
MATERIAL
148
0.0
149
0.0
149
0.0
 93
        0
 94
      127
282
     0
 72
     1
 77
     1
171
     1
175
     1
179
     1
273
     0
  0
XRECORD
  5
BAE
102
{ACAD_REACTORS
330
BAD
102
}
330
BAD
100
AcDbXrecord
280
     1
102
MATERIAL
148
0.0
149
0.0
149
0.0
 93
        0
 94
      127
282
     0
 72
     1
 77
     1
171
     1
175
     1
179
     1
273
     0
  0
XRECORD
  5
BB2
102
{ACAD_REACTORS
330
BB1
102
}
330
BB1
100
AcDbXrecord
280
     1
102
MATERIAL
148
0.0
149
0.0
149
0.0
 93
        0
 94
      127
282
     0
 72
     1
 77
     1
171
     1
175
     1
179
     1
273
     0
  0
XRECORD
  5
B96
102
{ACAD_REACTORS
330
B95
102
}
330
B95
100
AcDbXrecord
280
     1
102
RTVSPropertyOp0
 70
     1
102
RTVSPropertyOp1
 70
     1
102
RTVSPropertyOp2
 70
     1
102
RTVSPropertyOp3
 70
     1
102
RTVSPropertyOp4
 70
     1
102
RTVSPropertyOp5
 70
     1
102
RTVSPropertyOp6
 70
     1
102
RTVSPropertyOp7
 70
     1
102
RTVSPropertyOp8
 70
     1
102
RTVSPropertyOp9
 70
     1
102
RTVSPropertyOp10
 70
     1
102
RTVSPropertyOp11
 70
     1
102
RTVSPropertyOp12
 70
     1
102
RTVSPropertyOp13
 70
     1
102
RTVSPropertyOp14
 70
     1
102
RTVSPropertyOp15
 70
     1
102
RTVSPropertyOp16
 70
     1
102
RTVSPropertyOp17
 70
     1
102
RTVSPropertyOp18
 70
     1
102
RTVSPropertyOp19
 70
     1
102
RTVSPropertyOp20
 70
     1
102
RTVSPropertyOp21
 70
     1
102
RTVSPropertyOp22
 70
     1
102
RTVSPropertyOp23
 70
     1
102
RTVSPropertyOp24
 70
     1
102
RTVSPropertyOp25
 70
     1
102
RTVSPropertyOp26
 70
     1
102
RTVSPropertyOp27
 70
     1
  0
XRECORD
  5
B9A
102
{ACAD_REACTORS
330
B99
102
}
330
B99
100
AcDbXrecord
280
     1
102
RTVSPropertyOp0
 70
     1
102
RTVSPropertyOp1
 70
     1
102
RTVSPropertyOp2
 70
     1
102
RTVSPropertyOp3
 70
     1
102
RTVSPropertyOp4
 70
     1
102
RTVSPropertyOp5
 70
     1
102
RTVSPropertyOp6
 70
     1
102
RTVSPropertyOp7
 70
     1
102
RTVSPropertyOp8
 70
     1
102
RTVSPropertyOp9
 70
     1
102
RTVSPropertyOp10
 70
     1
102
RTVSPropertyOp11
 70
     1
102
RTVSPropertyOp12
 70
     1
102
RTVSPropertyOp13
 70
     1
102
RTVSPropertyOp14
 70
     1
102
RTVSPropertyOp15
 70
     1
102
RTVSPropertyOp16
 70
     1
102
RTVSPropertyOp17
 70
     1
102
RTVSPropertyOp18
 70
     1
102
RTVSPropertyOp19
 70
     1
102
RTVSPropertyOp20
 70
     1
102
RTVSPropertyOp21
 70
     1
102
RTVSPropertyOp22
 70
     1
102
RTVSPropertyOp23
 70
     1
102
RTVSPropertyOp24
 70
     1
102
RTVSPropertyOp25
 70
     1
102
RTVSPropertyOp26
 70
     1
102
RTVSPropertyOp27
 70
     1
  0
XRECORD
  5
B98
102
{ACAD_REACTORS
330
B97
102
}
330
B97
100
AcDbXrecord
280
     1
102
RTVSPropertyOp0
 70
     1
102
RTVSPropertyOp1
 70
     1
102
RTVSPropertyOp2
 70
     1
102
RTVSPropertyOp3
 70
     1
102
RTVSPropertyOp4
 70
     1
102
RTVSPropertyOp5
 70
     1
102
RTVSPropertyOp6
 70
     1
102
RTVSPropertyOp7
 70
     1
102
RTVSPropertyOp8
 70
     1
102
RTVSPropertyOp9
 70
     1
102
RTVSPropertyOp10
 70
     1
102
RTVSPropertyOp11
 70
     1
102
RTVSPropertyOp12
 70
     1
102
RTVSPropertyOp13
 70
     1
102
RTVSPropertyOp14
 70
     1
102
RTVSPropertyOp15
 70
     1
102
RTVSPropertyOp16
 70
     1
102
RTVSPropertyOp17
 70
     1
102
RTVSPropertyOp18
 70
     1
102
RTVSPropertyOp19
 70
     1
102
RTVSPropertyOp20
 70
     1
102
RTVSPropertyOp21
 70
     1
102
RTVSPropertyOp22
 70
     1
102
RTVSPropertyOp23
 70
     1
102
RTVSPropertyOp24
 70
     1
102
RTVSPropertyOp25
 70
     1
102
RTVSPropertyOp26
 70
     1
102
RTVSPropertyOp27
 70
     1
  0
XRECORD
  5
B9C
102
{ACAD_REACTORS
330
B9B
102
}
330
B9B
100
AcDbXrecord
280
     1
102
RTVSPropertyOp0
 70
     1
102
RTVSPropertyOp1
 70
     1
102
RTVSPropertyOp2
 70
     1
102
RTVSPropertyOp3
 70
     1
102
RTVSPropertyOp4
 70
     1
102
RTVSPropertyOp5
 70
     1
102
RTVSPropertyOp6
 70
     1
102
RTVSPropertyOp7
 70
     1
102
RTVSPropertyOp8
 70
     1
102
RTVSPropertyOp9
 70
     1
102
RTVSPropertyOp10
 70
     1
102
RTVSPropertyOp11
 70
     1
102
RTVSPropertyOp12
 70
     1
102
RTVSPropertyOp13
 70
     1
102
RTVSPropertyOp14
 70
     1
102
RTVSPropertyOp15
 70
     1
102
RTVSPropertyOp16
 70
     1
102
RTVSPropertyOp17
 70
     1
102
RTVSPropertyOp18
 70
     1
102
RTVSPropertyOp19
 70
     1
102
RTVSPropertyOp20
 70
     1
102
RTVSPropertyOp21
 70
     1
102
RTVSPropertyOp22
 70
     1
102
RTVSPropertyOp23
 70
     1
102
RTVSPropertyOp24
 70
     1
102
RTVSPropertyOp25
 70
     1
102
RTVSPropertyOp26
 70
     1
102
RTVSPropertyOp27
 70
     1
  0
XRECORD
  5
BA4
102
{ACAD_REACTORS
330
BA3
102
}
330
BA3
100
AcDbXrecord
280
     1
102
RTVSPropertyOp0
 70
     1
102
RTVSPropertyOp1
 70
     1
102
RTVSPropertyOp2
 70
     1
102
RTVSPropertyOp3
 70
     1
102
RTVSPropertyOp4
 70
     1
102
RTVSPropertyOp5
 70
     1
102
RTVSPropertyOp6
 70
     1
102
RTVSPropertyOp7
 70
     1
102
RTVSPropertyOp8
 70
     1
102
RTVSPropertyOp9
 70
     1
102
RTVSPropertyOp10
 70
     1
102
RTVSPropertyOp11
 70
     1
102
RTVSPropertyOp12
 70
     1
102
RTVSPropertyOp13
 70
     1
102
RTVSPropertyOp14
 70
     1
102
RTVSPropertyOp15
 70
     1
102
RTVSPropertyOp16
 70
     1
102
RTVSPropertyOp17
 70
     1
102
RTVSPropertyOp18
 70
     1
102
RTVSPropertyOp19
 70
     1
102
RTVSPropertyOp20
 70
     1
102
RTVSPropertyOp21
 70
     1
102
RTVSPropertyOp22
 70
     1
102
RTVSPropertyOp23
 70
     1
102
RTVSPropertyOp24
 70
     1
102
RTVSPropertyOp25
 70
     1
102
RTVSPropertyOp26
 70
     1
102
RTVSPropertyOp27
 70
     1
  0
XRECORD
  5
BAC
102
{ACAD_REACTORS
330
BAB
102
}
330
BAB
100
AcDbXrecord
280
     1
102
RTVSPropertyOp0
 70
     1
102
RTVSPropertyOp1
 70
     1
102
RTVSPropertyOp2
 70
     1
102
RTVSPropertyOp3
 70
     1
102
RTVSPropertyOp4
 70
     1
102
RTVSPropertyOp5
 70
     1
102
RTVSPropertyOp6
 70
     1
102
RTVSPropertyOp7
 70
     1
102
RTVSPropertyOp8
 70
     1
102
RTVSPropertyOp9
 70
     1
102
RTVSPropertyOp10
 70
     1
102
RTVSPropertyOp11
 70
     1
102
RTVSPropertyOp12
 70
     1
102
RTVSPropertyOp13
 70
     1
102
RTVSPropertyOp14
 70
     1
102
RTVSPropertyOp15
 70
     1
102
RTVSPropertyOp16
 70
     1
102
RTVSPropertyOp17
 70
     1
102
RTVSPropertyOp18
 70
     1
102
RTVSPropertyOp19
 70
     1
102
RTVSPropertyOp20
 70
     1
102
RTVSPropertyOp21
 70
     1
102
RTVSPropertyOp22
 70
     1
102
RTVSPropertyOp23
 70
     1
102
RTVSPropertyOp24
 70
     1
102
RTVSPropertyOp25
 70
     1
102
RTVSPropertyOp26
 70
     1
102
RTVSPropertyOp27
 70
     1
  0
XRECORD
  5
BA0
102
{ACAD_REACTORS
330
B9F
102
}
330
B9F
100
AcDbXrecord
280
     1
102
RTVSPropertyOp0
 70
     1
102
RTVSPropertyOp1
 70
     1
102
RTVSPropertyOp2
 70
     1
102
RTVSPropertyOp3
 70
     1
102
RTVSPropertyOp4
 70
     1
102
RTVSPropertyOp5
 70
     1
102
RTVSPropertyOp6
 70
     1
102
RTVSPropertyOp7
 70
     1
102
RTVSPropertyOp8
 70
     1
102
RTVSPropertyOp9
 70
     1
102
RTVSPropertyOp10
 70
     1
102
RTVSPropertyOp11
 70
     1
102
RTVSPropertyOp12
 70
     1
102
RTVSPropertyOp13
 70
     1
102
RTVSPropertyOp14
 70
     1
102
RTVSPropertyOp15
 70
     1
102
RTVSPropertyOp16
 70
     1
102
RTVSPropertyOp17
 70
     1
102
RTVSPropertyOp18
 70
     1
102
RTVSPropertyOp19
 70
     1
102
RTVSPropertyOp20
 70
     1
102
RTVSPropertyOp21
 70
     1
102
RTVSPropertyOp22
 70
     1
102
RTVSPropertyOp23
 70
     1
102
RTVSPropertyOp24
 70
     1
102
RTVSPropertyOp25
 70
     1
102
RTVSPropertyOp26
 70
     1
102
RTVSPropertyOp27
 70
     1
  0
XRECORD
  5
BA2
102
{ACAD_REACTORS
330
BA1
102
}
330
BA1
100
AcDbXrecord
280
     1
102
RTVSPropertyOp0
 70
     1
102
RTVSPropertyOp1
 70
     1
102
RTVSPropertyOp2
 70
     1
102
RTVSPropertyOp3
 70
     1
102
RTVSPropertyOp4
 70
     1
102
RTVSPropertyOp5
 70
     1
102
RTVSPropertyOp6
 70
     1
102
RTVSPropertyOp7
 70
     1
102
RTVSPropertyOp8
 70
     1
102
RTVSPropertyOp9
 70
     1
102
RTVSPropertyOp10
 70
     1
102
RTVSPropertyOp11
 70
     1
102
RTVSPropertyOp12
 70
     1
102
RTVSPropertyOp13
 70
     1
102
RTVSPropertyOp14
 70
     1
102
RTVSPropertyOp15
 70
     1
102
RTVSPropertyOp16
 70
     1
102
RTVSPropertyOp17
 70
     1
102
RTVSPropertyOp18
 70
     1
102
RTVSPropertyOp19
 70
     1
102
RTVSPropertyOp20
 70
     1
102
RTVSPropertyOp21
 70
     1
102
RTVSPropertyOp22
 70
     1
102
RTVSPropertyOp23
 70
     1
102
RTVSPropertyOp24
 70
     1
102
RTVSPropertyOp25
 70
     1
102
RTVSPropertyOp26
 70
     1
102
RTVSPropertyOp27
 70
     1
  0
XRECORD
  5
BAA
102
{ACAD_REACTORS
330
BA9
102
}
330
BA9
100
AcDbXrecord
280
     1
102
RTVSPropertyOp0
 70
     1
102
RTVSPropertyOp1
 70
     1
102
RTVSPropertyOp2
 70
     1
102
RTVSPropertyOp3
 70
     1
102
RTVSPropertyOp4
 70
     1
102
RTVSPropertyOp5
 70
     1
102
RTVSPropertyOp6
 70
     1
102
RTVSPropertyOp7
 70
     1
102
RTVSPropertyOp8
 70
     1
102
RTVSPropertyOp9
 70
     1
102
RTVSPropertyOp10
 70
     1
102
RTVSPropertyOp11
 70
     1
102
RTVSPropertyOp12
 70
     1
102
RTVSPropertyOp13
 70
     1
102
RTVSPropertyOp14
 70
     1
102
RTVSPropertyOp15
 70
     1
102
RTVSPropertyOp16
 70
     1
102
RTVSPropertyOp17
 70
     1
102
RTVSPropertyOp18
 70
     1
102
RTVSPropertyOp19
 70
     1
102
RTVSPropertyOp20
 70
     1
102
RTVSPropertyOp21
 70
     1
102
RTVSPropertyOp22
 70
     1
102
RTVSPropertyOp23
 70
     1
102
RTVSPropertyOp24
 70
     1
102
RTVSPropertyOp25
 70
     1
102
RTVSPropertyOp26
 70
     1
102
RTVSPropertyOp27
 70
     1
  0
XRECORD
  5
B8E
102
{ACAD_REACTORS
330
B8D
102
}
330
B8D
100
AcDbXrecord
280
     1
102
RTVSPropertyOp0
 70
     1
102
RTVSPropertyOp1
 70
     1
102
RTVSPropertyOp2
 70
     1
102
RTVSPropertyOp3
 70
     1
102
RTVSPropertyOp4
 70
     1
102
RTVSPropertyOp5
 70
     1
102
RTVSPropertyOp6
 70
     1
102
RTVSPropertyOp7
 70
     1
102
RTVSPropertyOp8
 70
     1
102
RTVSPropertyOp9
 70
     1
102
RTVSPropertyOp10
 70
     1
102
RTVSPropertyOp11
 70
     1
102
RTVSPropertyOp12
 70
     1
102
RTVSPropertyOp13
 70
     1
102
RTVSPropertyOp14
 70
     1
102
RTVSPropertyOp15
 70
     1
102
RTVSPropertyOp16
 70
     1
102
RTVSPropertyOp17
 70
     1
102
RTVSPropertyOp18
 70
     1
102
RTVSPropertyOp19
 70
     1
102
RTVSPropertyOp20
 70
     1
102
RTVSPropertyOp21
 70
     1
102
RTVSPropertyOp22
 70
     1
102
RTVSPropertyOp23
 70
     1
102
RTVSPropertyOp24
 70
     1
102
RTVSPropertyOp25
 70
     1
102
RTVSPropertyOp26
 70
     1
102
RTVSPropertyOp27
 70
     1
  0
XRECORD
  5
B90
102
{ACAD_REACTORS
330
B8F
102
}
330
B8F
100
AcDbXrecord
280
     1
102
RTVSPropertyOp0
 70
     1
102
RTVSPropertyOp1
 70
     1
102
RTVSPropertyOp2
 70
     1
102
RTVSPropertyOp3
 70
     1
102
RTVSPropertyOp4
 70
     1
102
RTVSPropertyOp5
 70
     1
102
RTVSPropertyOp6
 70
     1
102
RTVSPropertyOp7
 70
     1
102
RTVSPropertyOp8
 70
     1
102
RTVSPropertyOp9
 70
     1
102
RTVSPropertyOp10
 70
     1
102
RTVSPropertyOp11
 70
     1
102
RTVSPropertyOp12
 70
     1
102
RTVSPropertyOp13
 70
     1
102
RTVSPropertyOp14
 70
     1
102
RTVSPropertyOp15
 70
     1
102
RTVSPropertyOp16
 70
     1
102
RTVSPropertyOp17
 70
     1
102
RTVSPropertyOp18
 70
     1
102
RTVSPropertyOp19
 70
     1
102
RTVSPropertyOp20
 70
     1
102
RTVSPropertyOp21
 70
     1
102
RTVSPropertyOp22
 70
     1
102
RTVSPropertyOp23
 70
     1
102
RTVSPropertyOp24
 70
     1
102
RTVSPropertyOp25
 70
     1
102
RTVSPropertyOp26
 70
     1
102
RTVSPropertyOp27
 70
     1
  0
XRECORD
  5
B92
102
{ACAD_REACTORS
330
B91
102
}
330
B91
100
AcDbXrecord
280
     1
102
RTVSPropertyOp0
 70
     1
102
RTVSPropertyOp1
 70
     1
102
RTVSPropertyOp2
 70
     1
102
RTVSPropertyOp3
 70
     1
102
RTVSPropertyOp4
 70
     1
102
RTVSPropertyOp5
 70
     1
102
RTVSPropertyOp6
 70
     1
102
RTVSPropertyOp7
 70
     1
102
RTVSPropertyOp8
 70
     1
102
RTVSPropertyOp9
 70
     1
102
RTVSPropertyOp10
 70
     1
102
RTVSPropertyOp11
 70
     1
102
RTVSPropertyOp12
 70
     1
102
RTVSPropertyOp13
 70
     1
102
RTVSPropertyOp14
 70
     1
102
RTVSPropertyOp15
 70
     1
102
RTVSPropertyOp16
 70
     1
102
RTVSPropertyOp17
 70
     1
102
RTVSPropertyOp18
 70
     1
102
RTVSPropertyOp19
 70
     1
102
RTVSPropertyOp20
 70
     1
102
RTVSPropertyOp21
 70
     1
102
RTVSPropertyOp22
 70
     1
102
RTVSPropertyOp23
 70
     1
102
RTVSPropertyOp24
 70
     1
102
RTVSPropertyOp25
 70
     1
102
RTVSPropertyOp26
 70
     1
102
RTVSPropertyOp27
 70
     1
  0
XRECORD
  5
B94
102
{ACAD_REACTORS
330
B93
102
}
330
B93
100
AcDbXrecord
280
     1
102
RTVSPropertyOp0
 70
     1
102
RTVSPropertyOp1
 70
     1
102
RTVSPropertyOp2
 70
     1
102
RTVSPropertyOp3
 70
     1
102
RTVSPropertyOp4
 70
     1
102
RTVSPropertyOp5
 70
     1
102
RTVSPropertyOp6
 70
     1
102
RTVSPropertyOp7
 70
     1
102
RTVSPropertyOp8
 70
     1
102
RTVSPropertyOp9
 70
     1
102
RTVSPropertyOp10
 70
     1
102
RTVSPropertyOp11
 70
     1
102
RTVSPropertyOp12
 70
     1
102
RTVSPropertyOp13
 70
     1
102
RTVSPropertyOp14
 70
     1
102
RTVSPropertyOp15
 70
     1
102
RTVSPropertyOp16
 70
     1
102
RTVSPropertyOp17
 70
     1
102
RTVSPropertyOp18
 70
     1
102
RTVSPropertyOp19
 70
     1
102
RTVSPropertyOp20
 70
     1
102
RTVSPropertyOp21
 70
     1
102
RTVSPropertyOp22
 70
     1
102
RTVSPropertyOp23
 70
     1
102
RTVSPropertyOp24
 70
     1
102
RTVSPropertyOp25
 70
     1
102
RTVSPropertyOp26
 70
     1
102
RTVSPropertyOp27
 70
     1
  0
XRECORD
  5
BA8
102
{ACAD_REACTORS
330
BA7
102
}
330
BA7
100
AcDbXrecord
280
     1
102
RTVSPropertyOp0
 70
     1
102
RTVSPropertyOp1
 70
     1
102
RTVSPropertyOp2
 70
     1
102
RTVSPropertyOp3
 70
     1
102
RTVSPropertyOp4
 70
     1
102
RTVSPropertyOp5
 70
     1
102
RTVSPropertyOp6
 70
     1
102
RTVSPropertyOp7
 70
     1
102
RTVSPropertyOp8
 70
     1
102
RTVSPropertyOp9
 70
     1
102
RTVSPropertyOp10
 70
     1
102
RTVSPropertyOp11
 70
     1
102
RTVSPropertyOp12
 70
     1
102
RTVSPropertyOp13
 70
     1
102
RTVSPropertyOp14
 70
     1
102
RTVSPropertyOp15
 70
     1
102
RTVSPropertyOp16
 70
     1
102
RTVSPropertyOp17
 70
     1
102
RTVSPropertyOp18
 70
     1
102
RTVSPropertyOp19
 70
     1
102
RTVSPropertyOp20
 70
     1
102
RTVSPropertyOp21
 70
     1
102
RTVSPropertyOp22
 70
     1
102
RTVSPropertyOp23
 70
     1
102
RTVSPropertyOp24
 70
     1
102
RTVSPropertyOp25
 70
     1
102
RTVSPropertyOp26
 70
     1
102
RTVSPropertyOp27
 70
     1
  0
XRECORD
  5
B9E
102
{ACAD_REACTORS
330
B9D
102
}
330
B9D
100
AcDbXrecord
280
     1
102
RTVSPropertyOp0
 70
     1
102
RTVSPropertyOp1
 70
     1
102
RTVSPropertyOp2
 70
     1
102
RTVSPropertyOp3
 70
     1
102
RTVSPropertyOp4
 70
     1
102
RTVSPropertyOp5
 70
     1
102
RTVSPropertyOp6
 70
     1
102
RTVSPropertyOp7
 70
     1
102
RTVSPropertyOp8
 70
     1
102
RTVSPropertyOp9
 70
     1
102
RTVSPropertyOp10
 70
     1
102
RTVSPropertyOp11
 70
     1
102
RTVSPropertyOp12
 70
     1
102
RTVSPropertyOp13
 70
     1
102
RTVSPropertyOp14
 70
     1
102
RTVSPropertyOp15
 70
     1
102
RTVSPropertyOp16
 70
     1
102
RTVSPropertyOp17
 70
     1
102
RTVSPropertyOp18
 70
     1
102
RTVSPropertyOp19
 70
     1
102
RTVSPropertyOp20
 70
     1
102
RTVSPropertyOp21
 70
     1
102
RTVSPropertyOp22
 70
     1
102
RTVSPropertyOp23
 70
     1
102
RTVSPropertyOp24
 70
     1
102
RTVSPropertyOp25
 70
     1
102
RTVSPropertyOp26
 70
     1
102
RTVSPropertyOp27
 70
     1
  0
XRECORD
  5
BA6
102
{ACAD_REACTORS
330
BA5
102
}
330
BA5
100
AcDbXrecord
280
     1
102
RTVSPropertyOp0
 70
     1
102
RTVSPropertyOp1
 70
     1
102
RTVSPropertyOp2
 70
     1
102
RTVSPropertyOp3
 70
     1
102
RTVSPropertyOp4
 70
     1
102
RTVSPropertyOp5
 70
     1
102
RTVSPropertyOp6
 70
     1
102
RTVSPropertyOp7
 70
     1
102
RTVSPropertyOp8
 70
     1
102
RTVSPropertyOp9
 70
     1
102
RTVSPropertyOp10
 70
     1
102
RTVSPropertyOp11
 70
     1
102
RTVSPropertyOp12
 70
     1
102
RTVSPropertyOp13
 70
     1
102
RTVSPropertyOp14
 70
     1
102
RTVSPropertyOp15
 70
     1
102
RTVSPropertyOp16
 70
     1
102
RTVSPropertyOp17
 70
     1
102
RTVSPropertyOp18
 70
     1
102
RTVSPropertyOp19
 70
     1
102
RTVSPropertyOp20
 70
     1
102
RTVSPropertyOp21
 70
     1
102
RTVSPropertyOp22
 70
     1
102
RTVSPropertyOp23
 70
     1
102
RTVSPropertyOp24
 70
     1
102
RTVSPropertyOp25
 70
     1
102
RTVSPropertyOp26
 70
     1
102
RTVSPropertyOp27
 70
     1
  0
ENDSEC
  0
EOF
