  0
SECTION
  2
HEADER
  9
$ACADVER
  1
AC1015
  9
$ACADMAINTVER
 70
     6
  9
$DWGCODEPAGE
  3
ANSI_1252
  9
$INSBASE
 10
0.0
 20
0.0
 30
0.0
  9
$EXTMIN
 10
0.0
 20
0.0
 30
0.0
  9
$EXTMAX
 10
25.0
 20
35.0
 30
0.0
  9
$LIMMIN
 10
0.0
 20
0.0
  9
$LIMMAX
 10
420.0
 20
297.0
  9
$ORTHOMODE
 70
     0
  9
$REGENMODE
 70
     1
  9
$FILLMODE
 70
     1
  9
$QTEXTMODE
 70
     0
  9
$MIRRTEXT
 70
     1
  9
$LTSCALE
 40
4.05
  9
$ATTMODE
 70
     1
  9
$TEXTSIZE
 40
2.5
  9
$TRACEWID
 40
1.0
  9
$TEXTSTYLE
  7
Standard
  9
$CLAYER
  8
0
  9
$CELTYPE
  6
ByLayer
  9
$CECOLOR
 62
   256
  9
$CELTSCALE
 40
1.0
  9
$DISPSILH
 70
     0
  9
$DIMSCALE
 40
1.0
  9
$DIMASZ
 40
2.5
  9
$DIMEXO
 40
0.625
  9
$DIMDLI
 40
3.75
  9
$DIMRND
 40
0.0
  9
$DIMDLE
 40
0.0
  9
$DIMEXE
 40
1.25
  9
$DIMTP
 40
0.0
  9
$DIMTM
 40
0.0
  9
$DIMTXT
 40
2.5
  9
$DIMCEN
 40
2.5
  9
$DIMTSZ
 40
0.0
  9
$DIMTOL
 70
     0
  9
$DIMLIM
 70
     0
  9
$DIMTIH
 70
     0
  9
$DIMTOH
 70
     0
  9
$DIMSE1
 70
     0
  9
$DIMSE2
 70
     0
  9
$DIMTAD
 70
     1
  9
$DIMZIN
 70
     8
  9
$DIMBLK
  1

  9
$DIMASO
 70
     1
  9
$DIMSHO
 70
     1
  9
$DIMPOST
  1

  9
$DIMAPOST
  1

  9
$DIMALT
 70
     0
  9
$DIMALTD
 70
     3
  9
$DIMALTF
 40
0.03937007874016
  9
$DIMLFAC
 40
1.0
  9
$DIMTOFL
 70
     1
  9
$DIMTVP
 40
0.0
  9
$DIMTIX
 70
     0
  9
$DIMSOXD
 70
     0
  9
$DIMSAH
 70
     0
  9
$DIMBLK1
  1

  9
$DIMBLK2
  1

  9
$DIMSTYLE
  2
ISO-25
  9
$DIMCLRD
 70
     0
  9
$DIMCLRE
 70
     0
  9
$DIMCLRT
 70
     0
  9
$DIMTFAC
 40
1.0
  9
$DIMGAP
 40
0.625
  9
$DIMJUST
 70
     0
  9
$DIMSD1
 70
     0
  9
$DIMSD2
 70
     0
  9
$DIMTOLJ
 70
     0
  9
$DIMTZIN
 70
     8
  9
$DIMALTZ
 70
     0
  9
$DIMALTTZ
 70
     0
  9
$DIMUPT
 70
     0
  9
$DIMDEC
 70
     2
  9
$DIMTDEC
 70
     2
  9
$DIMALTU
 70
     2
  9
$DIMALTTD
 70
     3
  9
$DIMTXSTY
  7
Standard
  9
$DIMAUNIT
 70
     0
  9
$DIMADEC
 70
     0
  9
$DIMALTRND
 40
0.0
  9
$DIMAZIN
 70
     0
  9
$DIMDSEP
 70
    44
  9
$DIMATFIT
 70
     3
  9
$DIMFRAC
 70
     0
  9
$DIMLDRBLK
  1

  9
$DIMLUNIT
 70
     2
  9
$DIMLWD
 70
    -2
  9
$DIMLWE
 70
    -2
  9
$DIMTMOVE
 70
     0
  9
$LUNITS
 70
     2
  9
$LUPREC
 70
     4
  9
$SKETCHINC
 40
1.0
  9
$FILLETRAD
 40
10.0
  9
$AUNITS
 70
     0
  9
$AUPREC
 70
     0
  9
$MENU
  1
.
  9
$ELEVATION
 40
0.0
  9
$PELEVATION
 40
0.0
  9
$THICKNESS
 40
0.0
  9
$LIMCHECK
 70
     0
  9
$CHAMFERA
 40
10.0
  9
$CHAMFERB
 40
10.0
  9
$CHAMFERC
 40
20.0
  9
$CHAMFERD
 40
0.0
  9
$SKPOLY
 70
     0
  9
$TDCREATE
 40
2458576.724305556
  9
$TDUCREATE
 40
2458576.640972222
  9
$TDUPDATE
 40
2458576.727777778
  9
$TDUUPDATE
 40
2458576.644444444
  9
$TDINDWG
 40
0.0000000116
  9
$TDUSRTIMER
 40
0.0000000116
  9
$USRTIMER
 70
     1
  9
$ANGBASE
 50
0.0
  9
$ANGDIR
 70
     0
  9
$PDMODE
 70
     0
  9
$PDSIZE
 40
0.0
  9
$PLINEWID
 40
0.0
  9
$SPLFRAME
 70
     0
  9
$SPLINETYPE
 70
     6
  9
$SPLINESEGS
 70
     8
  9
$HANDSEED
  5
ADD
  9
$SURFTAB1
 70
     6
  9
$SURFTAB2
 70
     6
  9
$SURFTYPE
 70
     6
  9
$SURFU
 70
     6
  9
$SURFV
 70
     6
  9
$UCSBASE
  2

  9
$UCSNAME
  2

  9
$UCSORG
 10
0.0
 20
0.0
 30
0.0
  9
$UCSXDIR
 10
1.0
 20
0.0
 30
0.0
  9
$UCSYDIR
 10
0.0
 20
1.0
 30
0.0
  9
$UCSORTHOREF
  2

  9
$UCSORTHOVIEW
 70
     0
  9
$UCSORGTOP
 10
0.0
 20
0.0
 30
0.0
  9
$UCSORGBOTTOM
 10
0.0
 20
0.0
 30
0.0
  9
$UCSORGLEFT
 10
0.0
 20
0.0
 30
0.0
  9
$UCSORGRIGHT
 10
0.0
 20
0.0
 30
0.0
  9
$UCSORGFRONT
 10
0.0
 20
0.0
 30
0.0
  9
$UCSORGBACK
 10
0.0
 20
0.0
 30
0.0
  9
$PUCSBASE
  2

  9
$PUCSNAME
  2

  9
$PUCSORG
 10
0.0
 20
0.0
 30
0.0
  9
$PUCSXDIR
 10
1.0
 20
0.0
 30
0.0
  9
$PUCSYDIR
 10
0.0
 20
1.0
 30
0.0
  9
$PUCSORTHOREF
  2

  9
$PUCSORTHOVIEW
 70
     0
  9
$PUCSORGTOP
 10
0.0
 20
0.0
 30
0.0
  9
$PUCSORGBOTTOM
 10
0.0
 20
0.0
 30
0.0
  9
$PUCSORGLEFT
 10
0.0
 20
0.0
 30
0.0
  9
$PUCSORGRIGHT
 10
0.0
 20
0.0
 30
0.0
  9
$PUCSORGFRONT
 10
0.0
 20
0.0
 30
0.0
  9
$PUCSORGBACK
 10
0.0
 20
0.0
 30
0.0
  9
$USERI1
 70
     0
  9
$USERI2
 70
     0
  9
$USERI3
 70
     0
  9
$USERI4
 70
     0
  9
$USERI5
 70
     0
  9
$USERR1
 40
0.0
  9
$USERR2
 40
0.0
  9
$USERR3
 40
0.0
  9
$USERR4
 40
0.0
  9
$USERR5
 40
0.0
  9
$WORLDVIEW
 70
     1
  9
$SHADEDGE
 70
     3
  9
$SHADEDIF
 70
    70
  9
$TILEMODE
 70
     1
  9
$MAXACTVP
 70
    64
  9
$PINSBASE
 10
0.0
 20
0.0
 30
0.0
  9
$PLIMCHECK
 70
     0
  9
$PEXTMIN
 10
1.000000000000000E+20
 20
1.000000000000000E+20
 30
1.000000000000000E+20
  9
$PEXTMAX
 10
-1.000000000000000E+20
 20
-1.000000000000000E+20
 30
-1.000000000000000E+20
  9
$PLIMMIN
 10
0.0
 20
0.0
  9
$PLIMMAX
 10
420.0
 20
297.0
  9
$UNITMODE
 70
     0
  9
$VISRETAIN
 70
     1
  9
$PLINEGEN
 70
     0
  9
$PSLTSCALE
 70
     1
  9
$TREEDEPTH
 70
  3020
  9
$CMLSTYLE
  2
Standard
  9
$CMLJUST
 70
     0
  9
$CMLSCALE
 40
20.0
  9
$PROXYGRAPHICS
 70
     1
  9
$MEASUREMENT
 70
     1
  9
$CELWEIGHT
370
    -1
  9
$ENDCAPS
280
     0
  9
$JOINSTYLE
280
     0
  9
$LWDISPLAY
290
     0
  9
$INSUNITS
 70
     4
  9
$HYPERLINKBASE
  1

  9
$STYLESHEET
  1

  9
$XEDIT
290
     1
  9
$CEPSNTYPE
380
     0
  9
$PSTYLEMODE
290
     1
  9
$FINGERPRINTGUID
  2
{1323F6E8-03A0-44BB-81D8-C6D66B298D7E}
  9
$VERSIONGUID
  2
{FAEB1C32-E019-11D5-929B-00C0DF256EC4}
  9
$EXTNAMES
290
     1
  9
$PSVPSCALE
 40
0.0
  9
$OLESTARTUP
290
     0
  0
ENDSEC
  0
SECTION
  2
CLASSES
  0
CLASS
  1
ACDBDICTIONARYWDFLT
  2
AcDbDictionaryWithDefault
  3
ObjectDBX Classes
 90
        0
280
     0
281
     0
  0
CLASS
  1
VISUALSTYLE
  2
AcDbVisualStyle
  3
ObjectDBX Classes
 90
     4095
280
     0
281
     0
  0
CLASS
  1
MATERIAL
  2
AcDbMaterial
  3
ObjectDBX Classes
 90
     1153
280
     0
281
     0
  0
CLASS
  1
SCALE
  2
AcDbScale
  3
ObjectDBX Classes
 90
     1153
280
     0
281
     0
  0
CLASS
  1
DICTIONARYVAR
  2
AcDbDictionaryVar
  3
ObjectDBX Classes
 90
        0
280
     0
281
     0
  0
CLASS
  1
ACDBPLACEHOLDER
  2
AcDbPlaceHolder
  3
ObjectDBX Classes
 90
        0
280
     0
281
     0
  0
CLASS
  1
LAYOUT
  2
AcDbLayout
  3
ObjectDBX Classes
 90
        0
280
     0
281
     0
  0
ENDSEC
  0
SECTION
  2
TABLES
  0
TABLE
  2
VPORT
  5
8
330
0
100
AcDbSymbolTable
 70
     1
  0
VPORT
  5
29
330
8
100
AcDbSymbolTableRecord
100
AcDbViewportTableRecord
  2
*Active
 70
     0
 10
0.0
 20
0.0
 11
1.0
 21
1.0
 12
11.26
 22
4.5
 13
0.0
 23
0.0
 14
10.0
 24
10.0
 15
10.0
 25
10.0
 16
0.0
 26
0.0
 36
1.0
 17
0.0
 27
0.0
 37
0.0
 40
9.0
 41
2.503333333333333
 42
50.0
 43
0.0
 44
0.0
 50
0.0
 51
0.0
 71
     0
 72
   100
 73
     1
 74
     3
 75
     0
 76
     0
 77
     0
 78
     0
281
     0
 65
     1
110
0.0
120
0.0
130
0.0
111
1.0
121
0.0
131
0.0
112
0.0
122
1.0
132
0.0
 79
     0
146
0.0
  0
ENDTAB
  0
TABLE
  2
LTYPE
  5
5
330
0
100
AcDbSymbolTable
 70
    10
  0
LTYPE
  5
14
330
5
100
AcDbSymbolTableRecord
100
AcDbLinetypeTableRecord
  2
ByBlock
 70
     0
  3

 72
    65
 73
     0
 40
0.0
  0
LTYPE
  5
15
330
5
100
AcDbSymbolTableRecord
100
AcDbLinetypeTableRecord
  2
ByLayer
 70
     0
  3

 72
    65
 73
     0
 40
0.0
  0
LTYPE
  5
16
330
5
100
AcDbSymbolTableRecord
100
AcDbLinetypeTableRecord
  2
Continuous
 70
     0
  3
Solid line
 72
    65
 73
     0
 40
0.0
  0
LTYPE
  5
45
330
5
100
AcDbSymbolTableRecord
100
AcDbLinetypeTableRecord
  2
phl_thick
 70
     0
  3
THICK
 72
    65
 73
     0
 40
0.0
  0
LTYPE
  5
336
330
5
100
AcDbSymbolTableRecord
100
AcDbLinetypeTableRecord
  2
CUT
 70
     0
  3
THICK
 72
    65
 73
     0
 40
0.0
  0
LTYPE
  5
33D
330
5
100
AcDbSymbolTableRecord
100
AcDbLinetypeTableRecord
  2
NOCUT
 70
     0
  3
THICK
 72
    65
 73
     0
 40
0.0
  0
LTYPE
  5
344
330
5
100
AcDbSymbolTableRecord
100
AcDbLinetypeTableRecord
  2
SK1
 70
     0
  3
THICK
 72
    65
 73
     0
 40
0.0
  0
LTYPE
  5
34C
330
5
100
AcDbSymbolTableRecord
100
AcDbLinetypeTableRecord
  2
ls_SK2
 70
     0
  3
THIN
 72
    65
 73
     0
 40
0.0
  0
LTYPE
  5
3FA
330
5
100
AcDbSymbolTableRecord
100
AcDbLinetypeTableRecord
  2
ls_2
 70
     0
  3
THIN
 72
    65
 73
     0
 40
0.0
  0
LTYPE
  5
54A
330
5
100
AcDbSymbolTableRecord
100
AcDbLinetypeTableRecord
  2
ls_SK1
 70
     0
  3
THICK
 72
    65
 73
     0
 40
0.0
  0
LTYPE
  5
584
330
5
100
AcDbSymbolTableRecord
100
AcDbLinetypeTableRecord
  2
LONGDASH_DASH
 70
     0
  3
THIN_DASHDOT
 72
    65
 73
     4
 40
0.85
 49
0.4
 74
     0
 49
-0.2
 74
     0
 49
0.05
 74
     0
 49
-0.2
 74
     0
  0
LTYPE
  5
589
330
5
100
AcDbSymbolTableRecord
100
AcDbLinetypeTableRecord
  2
ls1
 70
     0
  3
THICK
 72
    65
 73
     0
 40
0.0
  0
ENDTAB
  0
TABLE
  2
LAYER
  5
2
330
0
100
AcDbSymbolTable
 70
    10
  0
LAYER
  5
10
330
2
100
AcDbSymbolTableRecord
100
AcDbLayerTableRecord
  2
0
 70
     0
 62
     7
  6
Continuous
370
    -3
390
F
  0
LAYER
  5
44
330
2
100
AcDbSymbolTableRecord
100
AcDbLayerTableRecord
  2
1
 70
     0
 62
4
  6
CONTINUOUS
370
50
370
    -3
390
F
  0
LAYER
  5
335
330
2
100
AcDbSymbolTableRecord
100
AcDbLayerTableRecord
  2
CUT
 70
     0
 62
1
  6
CONTINUOUS
370
25
370
    -3
390
F
  0
LAYER
  5
33C
330
2
100
AcDbSymbolTableRecord
100
AcDbLayerTableRecord
  2
NOCUT
 70
     0
 62
7
  6
CONTINUOUS
370
25
370
    -3
390
F
  0
LAYER
  5
343
330
2
100
AcDbSymbolTableRecord
100
AcDbLayerTableRecord
  2
SK1
 70
     0
 62
4
  6
CONTINUOUS
370
50
370
    -3
390
F
  0
LAYER
  5
34B
330
2
100
AcDbSymbolTableRecord
100
AcDbLayerTableRecord
  2
SK2
 70
     0
 62
7
  6
CONTINUOUS
370
25
370
    -3
390
F
  0
LAYER
  5
3F9
330
2
100
AcDbSymbolTableRecord
100
AcDbLayerTableRecord
  2
2
 70
     0
 62
7
  6
CONTINUOUS
370
25
370
    -3
390
F
  0
LAYER
  5
583
330
2
100
AcDbSymbolTableRecord
100
AcDbLayerTableRecord
  2
4
 70
     0
 62
2
  6
LONGDASH_DASH
370
25
370
    -3
390
F
  0
LAYER
  5
586
330
2
100
AcDbSymbolTableRecord
100
AcDbLayerTableRecord
  2
SK4
 70
     0
 62
2
  6
LONGDASH_DASH
370
25
370
    -3
390
F
  0
LAYER
  5
588
330
2
100
AcDbSymbolTableRecord
100
AcDbLayerTableRecord
  2
SK6
 70
     0
 62
5
  6
CONTINUOUS
370
25
370
    -3
390
F
  0
ENDTAB
  0
TABLE
  2
STYLE
  5
3
330
0
100
AcDbSymbolTable
 70
     1
  0
STYLE
  5
11
330
3
100
AcDbSymbolTableRecord
100
AcDbTextStyleTableRecord
  2
Standard
 70
     0
 40
0.0
 41
1.0
 50
0.0
 71
     0
 42
2.5
  3
Monospac821 BT
  4

  0
ENDTAB
  0
TABLE
  2
VIEW
  5
6
330
0
100
AcDbSymbolTable
 70
     0
  0
ENDTAB
  0
TABLE
  2
UCS
  5
7
330
0
100
AcDbSymbolTable
 70
     0
  0
ENDTAB
  0
TABLE
  2
APPID
  5
9
330
0
100
AcDbSymbolTable
 70
     2
  0
APPID
  5
12
330
9
100
AcDbSymbolTableRecord
100
AcDbRegAppTableRecord
  2
ACAD
 70
     0
  0
APPID
  5
3F
330
9
100
AcDbSymbolTableRecord
100
AcDbRegAppTableRecord
  2
ccLab
 70
     0
  0
ENDTAB
  0
TABLE
  2
DIMSTYLE
  5
A
330
0
100
AcDbSymbolTable
 70
     1
100
AcDbDimStyleTable
  0
DIMSTYLE
105
27
330
A
100
AcDbSymbolTableRecord
100
AcDbDimStyleTableRecord
  2
ISO-25
 70
     0
 41
2.5
 42
0.625
 43
3.75
 44
1.25
 73
     0
 74
     0
 77
     1
 78
     8
140
2.5
141
2.5
143
0.03937007874016
147
0.625
171
     3
172
     1
271
     2
272
     2
274
     3
278
    44
283
     0
284
     8
340
11
  0
ENDTAB
  0
TABLE
  2
BLOCK_RECORD
  5
1
330
0
100
AcDbSymbolTable
 70
     2
  0
BLOCK_RECORD
  5
1F
330
1
100
AcDbSymbolTableRecord
100
AcDbBlockTableRecord
  2
*Model_Space
340
22
  0
BLOCK_RECORD
  5
1B
330
1
100
AcDbSymbolTableRecord
100
AcDbBlockTableRecord
  2
*Paper_Space
340
1E
  0
BLOCK_RECORD
  5
23
330
1
100
AcDbSymbolTableRecord
100
AcDbBlockTableRecord
  2
*Paper_Space0
340
26
  0
ENDTAB
  0
ENDSEC
  0
SECTION
  2
BLOCKS
  0
BLOCK
  5
20
330
1F
100
AcDbEntity
  8
0
100
AcDbBlockBegin
  2
*Model_Space
 70
     0
 10
0.0
 20
0.0
 30
0.0
  3
*Model_Space
  1

  0
ENDBLK
  5
21
330
1F
100
AcDbEntity
  8
0
100
AcDbBlockEnd
  0
BLOCK
  5
1C
330
1B
100
AcDbEntity
 67
     1
  8
0
100
AcDbBlockBegin
  2
*Paper_Space
 70
     0
 10
0.0
 20
0.0
 30
0.0
  3
*Paper_Space
  1

  0
ENDBLK
  5
1D
330
1B
100
AcDbEntity
 67
     1
  8
0
100
AcDbBlockEnd
  0
BLOCK
  5
24
330
23
100
AcDbEntity
  8
0
100
AcDbBlockBegin
  2
*Paper_Space0
 70
     0
 10
0.0
 20
0.0
 30
0.0
  3
*Paper_Space0
  1

  0
ENDBLK
  5
25
330
23
100
AcDbEntity
  8
0
100
AcDbBlockEnd
  0
ENDSEC
  0
SECTION
  2
ENTITIES
  0
LINE
  5
593
330
1F
100
AcDbEntity
  8
1
  6
CONTINUOUS
370
50
 62
4
100
AcDbLine
 10
44.992157
 20
-0.016341
 30
0.0
 11
44.992126
 21
-0.014371
 31
0.0
  0
LINE
  5
594
330
1F
100
AcDbEntity
  8
1
  6
CONTINUOUS
370
50
 62
4
100
AcDbLine
 10
44.982159
 20
0.029433
 30
0.0
 11
44.98214
 21
0.030187
 31
0.0
  0
LINE
  5
595
330
1F
100
AcDbEntity
  8
1
  6
CONTINUOUS
370
50
 62
4
100
AcDbLine
 10
44.992218
 20
-0.018307
 30
0.0
 11
44.992157
 21
-0.016341
 31
0.0
  0
LINE
  5
596
330
1F
100
AcDbEntity
  8
1
  6
CONTINUOUS
370
50
 62
4
100
AcDbLine
 10
44.632763
 20
0.011322
 30
0.0
 11
44.632748
 21
0.011737
 31
0.0
  0
LINE
  5
597
330
1F
100
AcDbEntity
  8
1
  6
CONTINUOUS
370
50
 62
4
100
AcDbLine
 10
44.992313
 20
-0.020253
 30
0.0
 11
44.992218
 21
-0.018307
 31
0.0
  0
LINE
  5
598
330
1F
100
AcDbEntity
  8
1
  6
CONTINUOUS
370
50
 62
4
100
AcDbLine
 10
44.992439
 20
-0.022175
 30
0.0
 11
44.992313
 21
-0.020253
 31
0.0
  0
LINE
  5
599
330
1F
100
AcDbEntity
  8
1
  6
CONTINUOUS
370
50
 62
4
100
AcDbLine
 10
44.98214
 20
0.030187
 30
0.0
 11
44.982086
 21
0.030988
 31
0.0
  0
LINE
  5
59A
330
1F
100
AcDbEntity
  8
1
  6
CONTINUOUS
370
50
 62
4
100
AcDbLine
 10
44.992599
 20
-0.024071
 30
0.0
 11
44.992439
 21
-0.022175
 31
0.0
  0
LINE
  5
59B
330
1F
100
AcDbEntity
  8
1
  6
CONTINUOUS
370
50
 62
4
100
AcDbLine
 10
44.632801
 20
0.010898
 30
0.0
 11
44.632763
 21
0.011322
 31
0.0
  0
LINE
  5
59C
330
1F
100
AcDbEntity
  8
1
  6
CONTINUOUS
370
50
 62
4
100
AcDbLine
 10
44.992786
 20
-0.025936
 30
0.0
 11
44.992599
 21
-0.024071
 31
0.0
  0
LINE
  5
59D
330
1F
100
AcDbEntity
  8
1
  6
CONTINUOUS
370
50
 62
4
100
AcDbLine
 10
44.982086
 20
0.030988
 30
0.0
 11
44.981998
 21
0.031828
 31
0.0
  0
LINE
  5
59E
330
1F
100
AcDbEntity
  8
1
  6
CONTINUOUS
370
50
 62
4
100
AcDbLine
 10
44.66692
 20
0.046793
 30
0.0
 11
44.666836
 21
0.047551
 31
0.0
  0
LINE
  5
59F
330
1F
100
AcDbEntity
  8
1
  6
CONTINUOUS
370
50
 62
4
100
AcDbLine
 10
44.993008
 20
-0.027768
 30
0.0
 11
44.992786
 21
-0.025936
 31
0.0
  0
LINE
  5
5A0
330
1F
100
AcDbEntity
  8
1
  6
CONTINUOUS
370
50
 62
4
100
AcDbLine
 10
44.993256
 20
-0.029565
 30
0.0
 11
44.993008
 21
-0.027768
 31
0.0
  0
LINE
  5
5A1
330
1F
100
AcDbEntity
  8
1
  6
CONTINUOUS
370
50
 62
4
100
AcDbLine
 10
44.632862
 20
0.010464
 30
0.0
 11
44.632801
 21
0.010898
 31
0.0
  0
LINE
  5
5A2
330
1F
100
AcDbEntity
  8
1
  6
CONTINUOUS
370
50
 62
4
100
AcDbLine
 10
44.981998
 20
0.031828
 30
0.0
 11
44.981873
 21
0.032704
 31
0.0
  0
LINE
  5
5A3
330
1F
100
AcDbEntity
  8
1
  6
CONTINUOUS
370
50
 62
4
100
AcDbLine
 10
44.993534
 20
-0.031323
 30
0.0
 11
44.993256
 21
-0.029565
 31
0.0
  0
LINE
  5
5A4
330
1F
100
AcDbEntity
  8
1
  6
CONTINUOUS
370
50
 62
4
100
AcDbLine
 10
44.981873
 20
0.032704
 30
0.0
 11
44.981716
 21
0.033613
 31
0.0
  0
LINE
  5
5A5
330
1F
100
AcDbEntity
  8
1
  6
CONTINUOUS
370
50
 62
4
100
AcDbLine
 10
44.993839
 20
-0.033032
 30
0.0
 11
44.993534
 21
-0.031323
 31
0.0
  0
LINE
  5
5A6
330
1F
100
AcDbEntity
  8
1
  6
CONTINUOUS
370
50
 62
4
100
AcDbLine
 10
44.63295
 20
0.010024
 30
0.0
 11
44.632862
 21
0.010464
 31
0.0
  0
LINE
  5
5A7
330
1F
100
AcDbEntity
  8
1
  6
CONTINUOUS
370
50
 62
4
100
AcDbLine
 10
44.655304
 20
-0.047621
 30
0.0
 11
44.655235
 21
-0.047277
 31
0.0
  0
LINE
  5
5A8
330
1F
100
AcDbEntity
  8
1
  6
CONTINUOUS
370
50
 62
4
100
AcDbLine
 10
44.994171
 20
-0.034684
 30
0.0
 11
44.993839
 21
-0.033032
 31
0.0
  0
LINE
  5
5A9
330
1F
100
AcDbEntity
  8
1
  6
CONTINUOUS
370
50
 62
4
100
AcDbLine
 10
44.981716
 20
0.033613
 30
0.0
 11
44.981522
 21
0.034555
 31
0.0
  0
LINE
  5
5AA
330
1F
100
AcDbEntity
  8
1
  6
CONTINUOUS
370
50
 62
4
100
AcDbLine
 10
44.99453
 20
-0.036277
 30
0.0
 11
44.994171
 21
-0.034684
 31
0.0
  0
LINE
  5
5AB
330
1F
100
AcDbEntity
  8
1
  6
CONTINUOUS
370
50
 62
4
100
AcDbLine
 10
44.981522
 20
0.034555
 30
0.0
 11
44.9813
 21
0.035526
 31
0.0
  0
LINE
  5
5AC
330
1F
100
AcDbEntity
  8
1
  6
CONTINUOUS
370
50
 62
4
100
AcDbLine
 10
45.0
 20
0.008732
 30
0.0
 11
44.997032
 21
0.020764
 31
0.0
  0
LINE
  5
5AD
330
1F
100
AcDbEntity
  8
1
  6
CONTINUOUS
370
50
 62
4
100
AcDbLine
 10
44.63306
 20
0.009579
 30
0.0
 11
44.63295
 21
0.010024
 31
0.0
  0
LINE
  5
5AE
330
1F
100
AcDbEntity
  8
1
  6
CONTINUOUS
370
50
 62
4
100
AcDbLine
 10
44.99491099999999
 20
-0.037811
 30
0.0
 11
44.99453
 21
-0.036277
 31
0.0
  0
LINE
  5
5AF
330
1F
100
AcDbEntity
  8
1
  6
CONTINUOUS
370
50
 62
4
100
AcDbLine
 10
44.9813
 20
0.035526
 30
0.0
 11
44.98104499999999
 21
0.036524
 31
0.0
  0
LINE
  5
5B0
330
1F
100
AcDbEntity
  8
1
  6
CONTINUOUS
370
50
 62
4
100
AcDbLine
 10
44.995316
 20
-0.039283
 30
0.0
 11
44.99491099999999
 21
-0.037811
 31
0.0
  0
LINE
  5
5B1
330
1F
100
AcDbEntity
  8
1
  6
CONTINUOUS
370
50
 62
4
100
AcDbLine
 10
44.98104499999999
 20
0.036524
 30
0.0
 11
44.980759
 21
0.037549
 31
0.0
  0
LINE
  5
5B2
330
1F
100
AcDbEntity
  8
1
  6
CONTINUOUS
370
50
 62
4
100
AcDbLine
 10
44.666836
 20
0.047551
 30
0.0
 11
44.666645
 21
0.048208
 31
0.0
  0
LINE
  5
5B3
330
1F
100
AcDbEntity
  8
1
  6
CONTINUOUS
370
50
 62
4
100
AcDbLine
 10
44.633194
 20
0.009128
 30
0.0
 11
44.63306
 21
0.009579
 31
0.0
  0
LINE
  5
5B4
330
1F
100
AcDbEntity
  8
1
  6
CONTINUOUS
370
50
 62
4
100
AcDbLine
 10
44.995739
 20
-0.040692
 30
0.0
 11
44.995316
 21
-0.039283
 31
0.0
  0
LINE
  5
5B5
330
1F
100
AcDbEntity
  8
1
  6
CONTINUOUS
370
50
 62
4
100
AcDbLine
 10
44.980759
 20
0.037549
 30
0.0
 11
44.980442
 21
0.038596
 31
0.0
  0
LINE
  5
5B6
330
1F
100
AcDbEntity
  8
1
  6
CONTINUOUS
370
50
 62
4
100
AcDbLine
 10
44.979759
 20
0.040679
 30
0.0
 11
44.97965199999999
 21
0.041017
 31
0.0
  0
LINE
  5
5B7
330
1F
100
AcDbEntity
  8
1
  6
CONTINUOUS
370
50
 62
4
100
AcDbLine
 10
44.980442
 20
0.038596
 30
0.0
 11
44.980095
 21
0.039665
 31
0.0
  0
LINE
  5
5B8
330
1F
100
AcDbEntity
  8
1
  6
CONTINUOUS
370
50
 62
4
100
AcDbLine
 10
44.97965199999999
 20
0.041017
 30
0.0
 11
44.979542
 21
0.041354
 31
0.0
  0
LINE
  5
5B9
330
1F
100
AcDbEntity
  8
1
  6
CONTINUOUS
370
50
 62
4
100
AcDbLine
 10
44.980095
 20
0.039665
 30
0.0
 11
44.97998399999999
 21
0.040003
 31
0.0
  0
LINE
  5
5BA
330
1F
100
AcDbEntity
  8
1
  6
CONTINUOUS
370
50
 62
4
100
AcDbLine
 10
44.97987
 20
0.040342
 30
0.0
 11
44.979759
 21
0.040679
 31
0.0
  0
LINE
  5
5BB
330
1F
100
AcDbEntity
  8
1
  6
CONTINUOUS
370
50
 62
4
100
AcDbLine
 10
44.979542
 20
0.041354
 30
0.0
 11
44.979431
 21
0.041691
 31
0.0
  0
LINE
  5
5BC
330
1F
100
AcDbEntity
  8
1
  6
CONTINUOUS
370
50
 62
4
100
AcDbLine
 10
44.996185
 20
-0.042036
 30
0.0
 11
44.995739
 21
-0.040692
 31
0.0
  0
LINE
  5
5BD
330
1F
100
AcDbEntity
  8
1
  6
CONTINUOUS
370
50
 62
4
100
AcDbLine
 10
44.97998399999999
 20
0.040003
 30
0.0
 11
44.97987
 21
0.040342
 31
0.0
  0
LINE
  5
5BE
330
1F
100
AcDbEntity
  8
1
  6
CONTINUOUS
370
50
 62
4
100
AcDbLine
 10
44.63335
 20
0.008673
 30
0.0
 11
44.633194
 21
0.009128
 31
0.0
  0
LINE
  5
5BF
330
1F
100
AcDbEntity
  8
1
  6
CONTINUOUS
370
50
 62
4
100
AcDbLine
 10
44.996655
 20
-0.043313
 30
0.0
 11
44.996185
 21
-0.042036
 31
0.0
  0
LINE
  5
5C0
330
1F
100
AcDbEntity
  8
1
  6
CONTINUOUS
370
50
 62
4
100
AcDbLine
 10
44.834885
 20
0.007847
 30
0.0
 11
44.834827
 21
0.007997
 31
0.0
  0
LINE
  5
5C1
330
1F
100
AcDbEntity
  8
1
  6
CONTINUOUS
370
50
 62
4
100
AcDbLine
 10
44.633533
 20
0.008214
 30
0.0
 11
44.63335
 21
0.008673
 31
0.0
  0
LINE
  5
5C2
330
1F
100
AcDbEntity
  8
1
  6
CONTINUOUS
370
50
 62
4
100
AcDbLine
 10
44.997139
 20
-0.044519
 30
0.0
 11
44.996655
 21
-0.043313
 31
0.0
  0
LINE
  5
5C3
330
1F
100
AcDbEntity
  8
1
  6
CONTINUOUS
370
50
 62
4
100
AcDbLine
 10
44.997643
 20
-0.045652
 30
0.0
 11
44.997139
 21
-0.044519
 31
0.0
  0
LINE
  5
5C4
330
1F
100
AcDbEntity
  8
1
  6
CONTINUOUS
370
50
 62
4
100
AcDbLine
 10
44.633743
 20
0.007751
 30
0.0
 11
44.633533
 21
0.008214
 31
0.0
  0
LINE
  5
5C5
330
1F
100
AcDbEntity
  8
1
  6
CONTINUOUS
370
50
 62
4
100
AcDbLine
 10
44.998158
 20
-0.046712
 30
0.0
 11
44.997643
 21
-0.045652
 31
0.0
  0
LINE
  5
5C6
330
1F
100
AcDbEntity
  8
1
  6
CONTINUOUS
370
50
 62
4
100
AcDbLine
 10
44.633972
 20
0.007285
 30
0.0
 11
44.633743
 21
0.007751
 31
0.0
  0
LINE
  5
5C7
330
1F
100
AcDbEntity
  8
1
  6
CONTINUOUS
370
50
 62
4
100
AcDbLine
 10
44.989491
 20
0.021302
 30
0.0
 11
44.979431
 21
0.041691
 31
0.0
  0
LINE
  5
5C8
330
1F
100
AcDbEntity
  8
1
  6
CONTINUOUS
370
50
 62
4
100
AcDbLine
 10
44.65546399999999
 20
-0.047939
 30
0.0
 11
44.655304
 21
-0.047621
 31
0.0
  0
LINE
  5
5C9
330
1F
100
AcDbEntity
  8
1
  6
CONTINUOUS
370
50
 62
4
100
AcDbLine
 10
44.666645
 20
0.048208
 30
0.0
 11
44.666359
 21
0.04876
 31
0.0
  0
LINE
  5
5CA
330
1F
100
AcDbEntity
  8
1
  6
CONTINUOUS
370
50
 62
4
100
AcDbLine
 10
44.998688
 20
-0.047697
 30
0.0
 11
44.998158
 21
-0.046712
 31
0.0
  0
LINE
  5
5CB
330
1F
100
AcDbEntity
  8
1
  6
CONTINUOUS
370
50
 62
4
100
AcDbLine
 10
44.634228
 20
0.006817
 30
0.0
 11
44.633972
 21
0.007285
 31
0.0
  0
LINE
  5
5CC
330
1F
100
AcDbEntity
  8
1
  6
CONTINUOUS
370
50
 62
4
100
AcDbLine
 10
44.999233
 20
-0.048607
 30
0.0
 11
44.998688
 21
-0.047697
 31
0.0
  0
LINE
  5
5CD
330
1F
100
AcDbEntity
  8
1
  6
CONTINUOUS
370
50
 62
4
100
AcDbLine
 10
44.635441
 20
0.005022
 30
0.0
 11
44.63541
 21
0.00507
 31
0.0
  0
LINE
  5
5CE
330
1F
100
AcDbEntity
  8
1
  6
CONTINUOUS
370
50
 62
4
100
AcDbLine
 10
44.635311
 20
0.00521
 30
0.0
 11
44.635281
 21
0.005256
 31
0.0
  0
LINE
  5
5CF
330
1F
100
AcDbEntity
  8
1
  6
CONTINUOUS
370
50
 62
4
100
AcDbLine
 10
44.634396
 20
0.006563
 30
0.0
 11
44.634228
 21
0.006817
 31
0.0
  0
LINE
  5
5D0
330
1F
100
AcDbEntity
  8
1
  6
CONTINUOUS
370
50
 62
4
100
AcDbLine
 10
44.999786
 20
-0.04944
 30
0.0
 11
44.999233
 21
-0.048607
 31
0.0
  0
LINE
  5
5D1
330
1F
100
AcDbEntity
  8
1
  6
CONTINUOUS
370
50
 62
4
100
AcDbLine
 10
44.634735
 20
0.006057
 30
0.0
 11
44.634567
 21
0.00631
 31
0.0
  0
LINE
  5
5D2
330
1F
100
AcDbEntity
  8
1
  6
CONTINUOUS
370
50
 62
4
100
AcDbLine
 10
44.635342
 20
0.005164
 30
0.0
 11
44.635311
 21
0.00521
 31
0.0
  0
LINE
  5
5D3
330
1F
100
AcDbEntity
  8
1
  6
CONTINUOUS
370
50
 62
4
100
AcDbLine
 10
44.634567
 20
0.00631
 30
0.0
 11
44.634396
 21
0.006563
 31
0.0
  0
LINE
  5
5D4
330
1F
100
AcDbEntity
  8
1
  6
CONTINUOUS
370
50
 62
4
100
AcDbLine
 10
44.635078
 20
0.005553
 30
0.0
 11
44.634907
 21
0.005805
 31
0.0
  0
LINE
  5
5D5
330
1F
100
AcDbEntity
  8
1
  6
CONTINUOUS
370
50
 62
4
100
AcDbLine
 10
44.994083
 20
0.008083
 30
0.0
 11
44.99406399999999
 21
0.008111
 31
0.0
  0
LINE
  5
5D6
330
1F
100
AcDbEntity
  8
1
  6
CONTINUOUS
370
50
 62
4
100
AcDbLine
 10
44.994026
 20
0.008165
 30
0.0
 11
44.994007
 21
0.008193
 31
0.0
  0
LINE
  5
5D7
330
1F
100
AcDbEntity
  8
1
  6
CONTINUOUS
370
50
 62
4
100
AcDbLine
 10
44.99398799999999
 20
0.00822
 30
0.0
 11
44.993969
 21
0.008248
 31
0.0
  0
LINE
  5
5D8
330
1F
100
AcDbEntity
  8
1
  6
CONTINUOUS
370
50
 62
4
100
AcDbLine
 10
44.63525
 20
0.005301
 30
0.0
 11
44.635078
 21
0.005553
 31
0.0
  0
LINE
  5
5D9
330
1F
100
AcDbEntity
  8
1
  6
CONTINUOUS
370
50
 62
4
100
AcDbLine
 10
44.634907
 20
0.005805
 30
0.0
 11
44.634735
 21
0.006057
 31
0.0
  0
LINE
  5
5DA
330
1F
100
AcDbEntity
  8
1
  6
CONTINUOUS
370
50
 62
4
100
AcDbLine
 10
44.635281
 20
0.005256
 30
0.0
 11
44.63525
 21
0.005301
 31
0.0
  0
LINE
  5
5DB
330
1F
100
AcDbEntity
  8
1
  6
CONTINUOUS
370
50
 62
4
100
AcDbLine
 10
44.635876
 20
0.004398
 30
0.0
 11
44.63525
 21
0.005301
 31
0.0
  0
LINE
  5
5DC
330
1F
100
AcDbEntity
  8
1
  6
CONTINUOUS
370
50
 62
4
100
AcDbLine
 10
44.667168
 20
0.0476
 30
0.0
 11
44.666355
 21
0.048761
 31
0.0
  0
LINE
  5
5DD
330
1F
100
AcDbEntity
  8
1
  6
CONTINUOUS
370
50
 62
4
100
AcDbLine
 10
44.99406399999999
 20
0.008111
 30
0.0
 11
44.994026
 21
0.008165
 31
0.0
  0
LINE
  5
5DE
330
1F
100
AcDbEntity
  8
1
  6
CONTINUOUS
370
50
 62
4
100
AcDbLine
 10
44.994007
 20
0.008193
 30
0.0
 11
44.99398799999999
 21
0.00822
 31
0.0
  0
LINE
  5
5DF
330
1F
100
AcDbEntity
  8
1
  6
CONTINUOUS
370
50
 62
4
100
AcDbLine
 10
44.636513
 20
0.0035
 30
0.0
 11
44.635876
 21
0.004398
 31
0.0
  0
LINE
  5
5E0
330
1F
100
AcDbEntity
  8
1
  6
CONTINUOUS
370
50
 62
4
100
AcDbLine
 10
44.63541
 20
0.00507
 30
0.0
 11
44.635342
 21
0.005164
 31
0.0
  0
LINE
  5
5E1
330
1F
100
AcDbEntity
  8
1
  6
CONTINUOUS
370
50
 62
4
100
AcDbLine
 10
44.63715699999999
 20
0.002611
 30
0.0
 11
44.636513
 21
0.0035
 31
0.0
  0
LINE
  5
5E2
330
1F
100
AcDbEntity
  8
1
  6
CONTINUOUS
370
50
 62
4
100
AcDbLine
 10
44.667538
 20
0.047097
 30
0.0
 11
44.667168
 21
0.0476
 31
0.0
  0
LINE
  5
5E3
330
1F
100
AcDbEntity
  8
1
  6
CONTINUOUS
370
50
 62
4
100
AcDbLine
 10
44.637817
 20
0.001732
 30
0.0
 11
44.63715699999999
 21
0.002611
 31
0.0
  0
LINE
  5
5E4
330
1F
100
AcDbEntity
  8
1
  6
CONTINUOUS
370
50
 62
4
100
AcDbLine
 10
44.638485
 20
0.000861
 30
0.0
 11
44.637817
 21
0.001732
 31
0.0
  0
LINE
  5
5E5
330
1F
100
AcDbEntity
  8
1
  6
CONTINUOUS
370
50
 62
4
100
AcDbLine
 10
44.668724
 20
0.045585
 30
0.0
 11
44.667538
 21
0.047097
 31
0.0
  0
LINE
  5
5E6
330
1F
100
AcDbEntity
  8
1
  6
CONTINUOUS
370
50
 62
4
100
AcDbLine
 10
44.639168
 20
0.0
 30
0.0
 11
44.638485
 21
0.000861
 31
0.0
  0
LINE
  5
5E7
330
1F
100
AcDbEntity
  8
1
  6
CONTINUOUS
370
50
 62
4
100
AcDbLine
 10
44.666359
 20
0.04876
 30
0.0
 11
44.666058
 21
0.04913
 31
0.0
  0
LINE
  5
5E8
330
1F
100
AcDbEntity
  8
1
  6
CONTINUOUS
370
50
 62
4
100
AcDbLine
 10
44.641182
 20
-0.002406
 30
0.0
 11
44.639168
 21
0.0
 31
0.0
  0
LINE
  5
5E9
330
1F
100
AcDbEntity
  8
1
  6
CONTINUOUS
370
50
 62
4
100
AcDbLine
 10
44.670063
 20
0.044031
 30
0.0
 11
44.668724
 21
0.045585
 31
0.0
  0
LINE
  5
5EA
330
1F
100
AcDbEntity
  8
1
  6
CONTINUOUS
370
50
 62
4
100
AcDbLine
 10
44.65572
 20
-0.04823
 30
0.0
 11
44.65546399999999
 21
-0.047939
 31
0.0
  0
LINE
  5
5EB
330
1F
100
AcDbEntity
  8
1
  6
CONTINUOUS
370
50
 62
4
100
AcDbLine
 10
44.643311
 20
-0.004721
 30
0.0
 11
44.641182
 21
-0.002406
 31
0.0
  0
LINE
  5
5EC
330
1F
100
AcDbEntity
  8
1
  6
CONTINUOUS
370
50
 62
4
100
AcDbLine
 10
44.671799
 20
0.042201
 30
0.0
 11
44.670063
 21
0.044031
 31
0.0
  0
LINE
  5
5ED
330
1F
100
AcDbEntity
  8
1
  6
CONTINUOUS
370
50
 62
4
100
AcDbLine
 10
44.645542
 20
-0.006922
 30
0.0
 11
44.643311
 21
-0.004721
 31
0.0
  0
LINE
  5
5EE
330
1F
100
AcDbEntity
  8
1
  6
CONTINUOUS
370
50
 62
4
100
AcDbLine
 10
44.673733
 20
0.040358
 30
0.0
 11
44.671799
 21
0.042201
 31
0.0
  0
LINE
  5
5EF
330
1F
100
AcDbEntity
  8
1
  6
CONTINUOUS
370
50
 62
4
100
AcDbLine
 10
44.647884
 20
-0.009004
 30
0.0
 11
44.645542
 21
-0.006922
 31
0.0
  0
LINE
  5
5F0
330
1F
100
AcDbEntity
  8
1
  6
CONTINUOUS
370
50
 62
4
100
AcDbLine
 10
44.675835
 20
0.038545
 30
0.0
 11
44.673733
 21
0.040358
 31
0.0
  0
LINE
  5
5F1
330
1F
100
AcDbEntity
  8
1
  6
CONTINUOUS
370
50
 62
4
100
AcDbLine
 10
44.862305
 20
0.014495
 30
0.0
 11
44.854332
 21
0.021321
 31
0.0
  0
LINE
  5
5F2
330
1F
100
AcDbEntity
  8
1
  6
CONTINUOUS
370
50
 62
4
100
AcDbLine
 10
44.854332
 20
0.021321
 30
0.0
 11
44.846951
 21
0.027544
 31
0.0
  0
LINE
  5
5F3
330
1F
100
AcDbEntity
  8
1
  6
CONTINUOUS
370
50
 62
4
100
AcDbLine
 10
44.666058
 20
0.04913
 30
0.0
 11
44.665699
 21
0.049431
 31
0.0
  0
LINE
  5
5F4
330
1F
100
AcDbEntity
  8
1
  6
CONTINUOUS
370
50
 62
4
100
AcDbLine
 10
44.650322
 20
-0.010953
 30
0.0
 11
44.647884
 21
-0.009004
 31
0.0
  0
LINE
  5
5F5
330
1F
100
AcDbEntity
  8
1
  6
CONTINUOUS
370
50
 62
4
100
AcDbLine
 10
44.87166999999999
 20
0.00711
 30
0.0
 11
44.862305
 21
0.014495
 31
0.0
  0
LINE
  5
5F6
330
1F
100
AcDbEntity
  8
1
  6
CONTINUOUS
370
50
 62
4
100
AcDbLine
 10
44.678116
 20
0.036769
 30
0.0
 11
44.675835
 21
0.038545
 31
0.0
  0
LINE
  5
5F7
330
1F
100
AcDbEntity
  8
1
  6
CONTINUOUS
370
50
 62
4
100
AcDbLine
 10
44.859158
 20
0.026053
 30
0.0
 11
44.85405
 21
0.030022
 31
0.0
  0
LINE
  5
5F8
330
1F
100
AcDbEntity
  8
1
  6
CONTINUOUS
370
50
 62
4
100
AcDbLine
 10
44.85405
 20
0.030022
 30
0.0
 11
44.849644
 21
0.033416
 31
0.0
  0
LINE
  5
5F9
330
1F
100
AcDbEntity
  8
1
  6
CONTINUOUS
370
50
 62
4
100
AcDbLine
 10
44.722862
 20
-0.030076
 30
0.0
 11
44.712494
 21
-0.022099
 31
0.0
  0
LINE
  5
5FA
330
1F
100
AcDbEntity
  8
1
  6
CONTINUOUS
370
50
 62
4
100
AcDbLine
 10
44.656067
 20
-0.048492
 30
0.0
 11
44.65572
 21
-0.04823
 31
0.0
  0
LINE
  5
5FB
330
1F
100
AcDbEntity
  8
1
  6
CONTINUOUS
370
50
 62
4
100
AcDbLine
 10
44.865131
 20
0.021552
 30
0.0
 11
44.859158
 21
0.026053
 31
0.0
  0
LINE
  5
5FC
330
1F
100
AcDbEntity
  8
1
  6
CONTINUOUS
370
50
 62
4
100
AcDbLine
 10
44.712494
 20
-0.022099
 30
0.0
 11
44.700001
 21
-0.012722
 31
0.0
  0
LINE
  5
5FD
330
1F
100
AcDbEntity
  8
1
  6
CONTINUOUS
370
50
 62
4
100
AcDbLine
 10
44.846951
 20
0.027544
 30
0.0
 11
44.839279
 21
0.033179
 31
0.0
  0
LINE
  5
5FE
330
1F
100
AcDbEntity
  8
1
  6
CONTINUOUS
370
50
 62
4
100
AcDbLine
 10
44.700508
 20
-0.024112
 30
0.0
 11
44.700001
 21
-0.023748
 31
0.0
  0
LINE
  5
5FF
330
1F
100
AcDbEntity
  8
1
  6
CONTINUOUS
370
50
 62
4
100
AcDbLine
 10
44.652859
 20
-0.012769
 30
0.0
 11
44.650322
 21
-0.010953
 31
0.0
  0
LINE
  5
600
330
1F
100
AcDbEntity
  8
1
  6
CONTINUOUS
370
50
 62
4
100
AcDbLine
 10
44.872135
 20
0.016565
 30
0.0
 11
44.865131
 21
0.021552
 31
0.0
  0
LINE
  5
601
330
1F
100
AcDbEntity
  8
1
  6
CONTINUOUS
370
50
 62
4
100
AcDbLine
 10
44.849644
 20
0.033416
 30
0.0
 11
44.845467
 21
0.036379
 31
0.0
  0
LINE
  5
602
330
1F
100
AcDbEntity
  8
1
  6
CONTINUOUS
370
50
 62
4
100
AcDbLine
 10
44.858768
 20
0.014389
 30
0.0
 11
44.850719
 21
0.020074
 31
0.0
  0
LINE
  5
603
330
1F
100
AcDbEntity
  8
1
  6
CONTINUOUS
370
50
 62
4
100
AcDbLine
 10
44.680542
 20
0.035064
 30
0.0
 11
44.678116
 21
0.036769
 31
0.0
  0
LINE
  5
604
330
1F
100
AcDbEntity
  8
1
  6
CONTINUOUS
370
50
 62
4
100
AcDbLine
 10
44.881809
 20
0.0
 30
0.0
 11
44.87166999999999
 21
0.00711
 31
0.0
  0
LINE
  5
605
330
1F
100
AcDbEntity
  8
1
  6
CONTINUOUS
370
50
 62
4
100
AcDbLine
 10
44.714924
 20
-0.032445
 30
0.0
 11
44.707947
 21
-0.027741
 31
0.0
  0
LINE
  5
606
330
1F
100
AcDbEntity
  8
1
  6
CONTINUOUS
370
50
 62
4
100
AcDbLine
 10
44.86682099999999
 20
0.008968
 30
0.0
 11
44.858768
 21
0.014389
 31
0.0
  0
LINE
  5
607
330
1F
100
AcDbEntity
  8
1
  6
CONTINUOUS
370
50
 62
4
100
AcDbLine
 10
44.732643
 20
-0.036659
 30
0.0
 11
44.722862
 21
-0.030076
 31
0.0
  0
LINE
  5
608
330
1F
100
AcDbEntity
  8
1
  6
CONTINUOUS
370
50
 62
4
100
AcDbLine
 10
44.850719
 20
0.020074
 30
0.0
 11
44.84267
 21
0.02542
 31
0.0
  0
LINE
  5
609
330
1F
100
AcDbEntity
  8
1
  6
CONTINUOUS
370
50
 62
4
100
AcDbLine
 10
44.707947
 20
-0.027741
 30
0.0
 11
44.700008
 21
-0.022469
 31
0.0
  0
LINE
  5
60A
330
1F
100
AcDbEntity
  8
1
  6
CONTINUOUS
370
50
 62
4
100
AcDbLine
 10
44.846413
 20
-0.015642
 30
0.0
 11
44.84314
 21
-0.013471
 31
0.0
  0
LINE
  5
60B
330
1F
100
AcDbEntity
  8
1
  6
CONTINUOUS
370
50
 62
4
100
AcDbLine
 10
44.880333
 20
0.011134
 30
0.0
 11
44.872135
 21
0.016565
 31
0.0
  0
LINE
  5
60C
330
1F
100
AcDbEntity
  8
1
  6
CONTINUOUS
370
50
 62
4
100
AcDbLine
 10
44.834827
 20
0.007997
 30
0.0
 11
44.834564
 21
0.00817
 31
0.0
  0
LINE
  5
60D
330
1F
100
AcDbEntity
  8
1
  6
CONTINUOUS
370
50
 62
4
100
AcDbLine
 10
44.882938
 20
-0.000695
 30
0.0
 11
44.882755
 21
-0.000575
 31
0.0
  0
LINE
  5
60E
330
1F
100
AcDbEntity
  8
1
  6
CONTINUOUS
370
50
 62
4
100
AcDbLine
 10
44.882568
 20
-0.000454
 30
0.0
 11
44.882385
 21
-0.000334
 31
0.0
  0
LINE
  5
60F
330
1F
100
AcDbEntity
  8
1
  6
CONTINUOUS
370
50
 62
4
100
AcDbLine
 10
44.882198
 20
-0.000213
 30
0.0
 11
44.882015
 21
-0.000093
 31
0.0
  0
LINE
  5
610
330
1F
100
AcDbEntity
  8
1
  6
CONTINUOUS
370
50
 62
4
100
AcDbLine
 10
44.721306
 20
-0.03659
 30
0.0
 11
44.714924
 21
-0.032445
 31
0.0
  0
LINE
  5
611
330
1F
100
AcDbEntity
  8
1
  6
CONTINUOUS
370
50
 62
4
100
AcDbLine
 10
44.849579
 20
-0.017691
 30
0.0
 11
44.846413
 21
-0.015642
 31
0.0
  0
LINE
  5
612
330
1F
100
AcDbEntity
  8
1
  6
CONTINUOUS
370
50
 62
4
100
AcDbLine
 10
44.882755
 20
-0.000575
 30
0.0
 11
44.882568
 21
-0.000454
 31
0.0
  0
LINE
  5
613
330
1F
100
AcDbEntity
  8
1
  6
CONTINUOUS
370
50
 62
4
100
AcDbLine
 10
44.882385
 20
-0.000334
 30
0.0
 11
44.882198
 21
-0.000213
 31
0.0
  0
LINE
  5
614
330
1F
100
AcDbEntity
  8
1
  6
CONTINUOUS
370
50
 62
4
100
AcDbLine
 10
44.84314
 20
-0.013471
 30
0.0
 11
44.839668
 21
-0.011227
 31
0.0
  0
LINE
  5
615
330
1F
100
AcDbEntity
  8
1
  6
CONTINUOUS
370
50
 62
4
100
AcDbLine
 10
44.655479
 20
-0.014446
 30
0.0
 11
44.652859
 21
-0.012769
 31
0.0
  0
LINE
  5
616
330
1F
100
AcDbEntity
  8
1
  6
CONTINUOUS
370
50
 62
4
100
AcDbLine
 10
44.683105
 20
0.033443
 30
0.0
 11
44.680542
 21
0.035064
 31
0.0
  0
LINE
  5
617
330
1F
100
AcDbEntity
  8
1
  6
CONTINUOUS
370
50
 62
4
100
AcDbLine
 10
44.874878
 20
0.003903
 30
0.0
 11
44.86682099999999
 21
0.008968
 31
0.0
  0
LINE
  5
618
330
1F
100
AcDbEntity
  8
1
  6
CONTINUOUS
370
50
 62
4
100
AcDbLine
 10
44.88880899999999
 20
-0.004367
 30
0.0
 11
44.882938
 21
-0.000695
 31
0.0
  0
LINE
  5
619
330
1F
100
AcDbEntity
  8
1
  6
CONTINUOUS
370
50
 62
4
100
AcDbLine
 10
44.845467
 20
0.036379
 30
0.0
 11
44.841129
 21
0.039071
 31
0.0
  0
LINE
  5
61A
330
1F
100
AcDbEntity
  8
1
  6
CONTINUOUS
370
50
 62
4
100
AcDbLine
 10
44.960899
 20
-0.033618
 30
0.0
 11
44.956394
 21
-0.030856
 31
0.0
  0
LINE
  5
61B
330
1F
100
AcDbEntity
  8
1
  6
CONTINUOUS
370
50
 62
4
100
AcDbLine
 10
44.964645
 20
-0.035907
 30
0.0
 11
44.960899
 21
-0.033618
 31
0.0
  0
LINE
  5
61C
330
1F
100
AcDbEntity
  8
1
  6
CONTINUOUS
370
50
 62
4
100
AcDbLine
 10
44.827225
 20
0.01055
 30
0.0
 11
44.826637
 21
0.010908
 31
0.0
  0
LINE
  5
61D
330
1F
100
AcDbEntity
  8
1
  6
CONTINUOUS
370
50
 62
4
100
AcDbLine
 10
44.88964499999999
 20
0.005479
 30
0.0
 11
44.880333
 21
0.011134
 31
0.0
  0
LINE
  5
61E
330
1F
100
AcDbEntity
  8
1
  6
CONTINUOUS
370
50
 62
4
100
AcDbLine
 10
44.983776
 20
0.012299
 30
0.0
 11
44.979073
 21
0.015147
 31
0.0
  0
LINE
  5
61F
330
1F
100
AcDbEntity
  8
1
  6
CONTINUOUS
370
50
 62
4
100
AcDbLine
 10
44.956394
 20
-0.030856
 30
0.0
 11
44.950996
 21
-0.027612
 31
0.0
  0
LINE
  5
620
330
1F
100
AcDbEntity
  8
1
  6
CONTINUOUS
370
50
 62
4
100
AcDbLine
 10
44.839668
 20
-0.011227
 30
0.0
 11
44.835896
 21
-0.008963
 31
0.0
  0
LINE
  5
621
330
1F
100
AcDbEntity
  8
1
  6
CONTINUOUS
370
50
 62
4
100
AcDbLine
 10
44.967999
 20
-0.037917
 30
0.0
 11
44.964645
 21
-0.035907
 31
0.0
  0
LINE
  5
622
330
1F
100
AcDbEntity
  8
1
  6
CONTINUOUS
370
50
 62
4
100
AcDbLine
 10
44.852734
 20
-0.019566
 30
0.0
 11
44.849579
 21
-0.017691
 31
0.0
  0
LINE
  5
623
330
1F
100
AcDbEntity
  8
1
  6
CONTINUOUS
370
50
 62
4
100
AcDbLine
 10
44.979073
 20
0.015147
 30
0.0
 11
44.974922
 21
0.017598
 31
0.0
  0
LINE
  5
624
330
1F
100
AcDbEntity
  8
1
  6
CONTINUOUS
370
50
 62
4
100
AcDbLine
 10
44.894775
 20
-0.007864
 30
0.0
 11
44.88880899999999
 21
-0.004367
 31
0.0
  0
LINE
  5
625
330
1F
100
AcDbEntity
  8
1
  6
CONTINUOUS
370
50
 62
4
100
AcDbLine
 10
44.727467
 20
-0.040185
 30
0.0
 11
44.721306
 21
-0.03659
 31
0.0
  0
LINE
  5
626
330
1F
100
AcDbEntity
  8
1
  6
CONTINUOUS
370
50
 62
4
100
AcDbLine
 10
44.950996
 20
-0.027612
 30
0.0
 11
44.944584
 21
-0.023879
 31
0.0
  0
LINE
  5
627
330
1F
100
AcDbEntity
  8
1
  6
CONTINUOUS
370
50
 62
4
100
AcDbLine
 10
44.839279
 20
0.033179
 30
0.0
 11
44.831196
 21
0.037884
 31
0.0
  0
LINE
  5
628
330
1F
100
AcDbEntity
  8
1
  6
CONTINUOUS
370
50
 62
4
100
AcDbLine
 10
44.971241
 20
-0.039804
 30
0.0
 11
44.967999
 21
-0.037917
 31
0.0
  0
LINE
  5
629
330
1F
100
AcDbEntity
  8
1
  6
CONTINUOUS
370
50
 62
4
100
AcDbLine
 10
44.882931
 20
-0.000713
 30
0.0
 11
44.874878
 21
0.003903
 31
0.0
  0
LINE
  5
62A
330
1F
100
AcDbEntity
  8
1
  6
CONTINUOUS
370
50
 62
4
100
AcDbLine
 10
44.65817999999999
 20
-0.015985
 30
0.0
 11
44.655479
 21
-0.014446
 31
0.0
  0
LINE
  5
62B
330
1F
100
AcDbEntity
  8
1
  6
CONTINUOUS
370
50
 62
4
100
AcDbLine
 10
44.68578
 20
0.031929
 30
0.0
 11
44.683105
 21
0.033443
 31
0.0
  0
LINE
  5
62C
330
1F
100
AcDbEntity
  8
1
  6
CONTINUOUS
370
50
 62
4
100
AcDbLine
 10
44.665699
 20
0.049431
 30
0.0
 11
44.665287
 21
0.049663
 31
0.0
  0
LINE
  5
62D
330
1F
100
AcDbEntity
  8
1
  6
CONTINUOUS
370
50
 62
4
100
AcDbLine
 10
44.899422
 20
0.0
 30
0.0
 11
44.88964499999999
 21
0.005479
 31
0.0
  0
LINE
  5
62E
330
1F
100
AcDbEntity
  8
1
  6
CONTINUOUS
370
50
 62
4
100
AcDbLine
 10
44.944584
 20
-0.023879
 30
0.0
 11
44.937023
 21
-0.019647
 31
0.0
  0
LINE
  5
62F
330
1F
100
AcDbEntity
  8
1
  6
CONTINUOUS
370
50
 62
4
100
AcDbLine
 10
44.834564
 20
0.00817
 30
0.0
 11
44.834267
 21
0.008334
 31
0.0
  0
LINE
  5
630
330
1F
100
AcDbEntity
  8
1
  6
CONTINUOUS
370
50
 62
4
100
AcDbLine
 10
44.974422
 20
-0.041558
 30
0.0
 11
44.971241
 21
-0.039804
 31
0.0
  0
LINE
  5
631
330
1F
100
AcDbEntity
  8
1
  6
CONTINUOUS
370
50
 62
4
100
AcDbLine
 10
44.900822
 20
-0.011189
 30
0.0
 11
44.894775
 21
-0.007864
 31
0.0
  0
LINE
  5
632
330
1F
100
AcDbEntity
  8
1
  6
CONTINUOUS
370
50
 62
4
100
AcDbLine
 10
44.84267
 20
0.02542
 30
0.0
 11
44.834621
 21
0.029749
 31
0.0
  0
LINE
  5
633
330
1F
100
AcDbEntity
  8
1
  6
CONTINUOUS
370
50
 62
4
100
AcDbLine
 10
44.835896
 20
-0.008963
 30
0.0
 11
44.83173
 21
-0.006729
 31
0.0
  0
LINE
  5
634
330
1F
100
AcDbEntity
  8
1
  6
CONTINUOUS
370
50
 62
4
100
AcDbLine
 10
44.937023
 20
-0.019647
 30
0.0
 11
44.928345
 21
-0.015008
 31
0.0
  0
LINE
  5
635
330
1F
100
AcDbEntity
  8
1
  6
CONTINUOUS
370
50
 62
4
100
AcDbLine
 10
44.656502
 20
-0.048723
 30
0.0
 11
44.656067
 21
-0.048492
 31
0.0
  0
LINE
  5
636
330
1F
100
AcDbEntity
  8
1
  6
CONTINUOUS
370
50
 62
4
100
AcDbLine
 10
44.841129
 20
0.039071
 30
0.0
 11
44.836578
 21
0.041484
 31
0.0
  0
LINE
  5
637
330
1F
100
AcDbEntity
  8
1
  6
CONTINUOUS
370
50
 62
4
100
AcDbLine
 10
44.993969
 20
0.008248
 30
0.0
 11
44.992264
 21
0.009151
 31
0.0
  0
LINE
  5
638
330
1F
100
AcDbEntity
  8
1
  6
CONTINUOUS
370
50
 62
4
100
AcDbLine
 10
44.909271
 20
-0.005178
 30
0.0
 11
44.899422
 21
0.0
 31
0.0
  0
LINE
  5
639
330
1F
100
AcDbEntity
  8
1
  6
CONTINUOUS
370
50
 62
4
100
AcDbLine
 10
44.907402
 20
-0.014594
 30
0.0
 11
44.900822
 21
-0.011189
 31
0.0
  0
LINE
  5
63A
330
1F
100
AcDbEntity
  8
1
  6
CONTINUOUS
370
50
 62
4
100
AcDbLine
 10
44.974922
 20
0.017598
 30
0.0
 11
44.97082899999999
 21
0.019712
 31
0.0
  0
LINE
  5
63B
330
1F
100
AcDbEntity
  8
1
  6
CONTINUOUS
370
50
 62
4
100
AcDbLine
 10
44.928345
 20
-0.015008
 30
0.0
 11
44.918999
 21
-0.010184
 31
0.0
  0
LINE
  5
63C
330
1F
100
AcDbEntity
  8
1
  6
CONTINUOUS
370
50
 62
4
100
AcDbLine
 10
44.918999
 20
-0.010184
 30
0.0
 11
44.909271
 21
-0.005178
 31
0.0
  0
LINE
  5
63D
330
1F
100
AcDbEntity
  8
1
  6
CONTINUOUS
370
50
 62
4
100
AcDbLine
 10
44.834267
 20
0.008334
 30
0.0
 11
44.834042
 21
0.008449
 31
0.0
  0
LINE
  5
63E
330
1F
100
AcDbEntity
  8
1
  6
CONTINUOUS
370
50
 62
4
100
AcDbLine
 10
44.660957
 20
-0.017391
 30
0.0
 11
44.65817999999999
 21
-0.015985
 31
0.0
  0
LINE
  5
63F
330
1F
100
AcDbEntity
  8
1
  6
CONTINUOUS
370
50
 62
4
100
AcDbLine
 10
44.977608
 20
-0.043171
 30
0.0
 11
44.974422
 21
-0.041558
 31
0.0
  0
LINE
  5
640
330
1F
100
AcDbEntity
  8
1
  6
CONTINUOUS
370
50
 62
4
100
AcDbLine
 10
44.688545
 20
0.03054
 30
0.0
 11
44.68578
 21
0.031929
 31
0.0
  0
LINE
  5
641
330
1F
100
AcDbEntity
  8
1
  6
CONTINUOUS
370
50
 62
4
100
AcDbLine
 10
44.849762
 20
-0.003938
 30
0.0
 11
44.840099
 21
0.000901
 31
0.0
  0
LINE
  5
642
330
1F
100
AcDbEntity
  8
1
  6
CONTINUOUS
370
50
 62
4
100
AcDbLine
 10
44.742615
 20
-0.041619
 30
0.0
 11
44.732643
 21
-0.036659
 31
0.0
  0
LINE
  5
643
330
1F
100
AcDbEntity
  8
1
  6
CONTINUOUS
370
50
 62
4
100
AcDbLine
 10
44.914948
 20
-0.018342
 30
0.0
 11
44.907402
 21
-0.014594
 31
0.0
  0
LINE
  5
644
330
1F
100
AcDbEntity
  8
1
  6
CONTINUOUS
370
50
 62
4
100
AcDbLine
 10
44.859444
 20
-0.008684
 30
0.0
 11
44.849762
 21
-0.003938
 31
0.0
  0
LINE
  5
645
330
1F
100
AcDbEntity
  8
1
  6
CONTINUOUS
370
50
 62
4
100
AcDbLine
 10
44.834042
 20
0.008449
 30
0.0
 11
44.833839
 21
0.008548
 31
0.0
  0
LINE
  5
646
330
1F
100
AcDbEntity
  8
1
  6
CONTINUOUS
370
50
 62
4
100
AcDbLine
 10
44.923203
 20
-0.022349
 30
0.0
 11
44.914948
 21
-0.018342
 31
0.0
  0
LINE
  5
647
330
1F
100
AcDbEntity
  8
1
  6
CONTINUOUS
370
50
 62
4
100
AcDbLine
 10
44.957935
 20
-0.03909
 30
0.0
 11
44.949669
 21
-0.035083
 31
0.0
  0
LINE
  5
648
330
1F
100
AcDbEntity
  8
1
  6
CONTINUOUS
370
50
 62
4
100
AcDbLine
 10
44.733784
 20
-0.04324
 30
0.0
 11
44.727467
 21
-0.040185
 31
0.0
  0
LINE
  5
649
330
1F
100
AcDbEntity
  8
1
  6
CONTINUOUS
370
50
 62
4
100
AcDbLine
 10
44.949669
 20
-0.035083
 30
0.0
 11
44.940819
 21
-0.030804
 31
0.0
  0
LINE
  5
64A
330
1F
100
AcDbEntity
  8
1
  6
CONTINUOUS
370
50
 62
4
100
AcDbLine
 10
44.833839
 20
0.008548
 30
0.0
 11
44.833633
 21
0.008647
 31
0.0
  0
LINE
  5
64B
330
1F
100
AcDbEntity
  8
1
  6
CONTINUOUS
370
50
 62
4
100
AcDbLine
 10
44.931911
 20
-0.026531
 30
0.0
 11
44.923203
 21
-0.022349
 31
0.0
  0
LINE
  5
64C
330
1F
100
AcDbEntity
  8
1
  6
CONTINUOUS
370
50
 62
4
100
AcDbLine
 10
44.940819
 20
-0.030804
 30
0.0
 11
44.931911
 21
-0.026531
 31
0.0
  0
LINE
  5
64D
330
1F
100
AcDbEntity
  8
1
  6
CONTINUOUS
370
50
 62
4
100
AcDbLine
 10
44.965252
 20
-0.0425
 30
0.0
 11
44.957935
 21
-0.03909
 31
0.0
  0
LINE
  5
64E
330
1F
100
AcDbEntity
  8
1
  6
CONTINUOUS
370
50
 62
4
100
AcDbLine
 10
44.83173
 20
-0.006729
 30
0.0
 11
44.827297
 21
-0.004696
 31
0.0
  0
LINE
  5
64F
330
1F
100
AcDbEntity
  8
1
  6
CONTINUOUS
370
50
 62
4
100
AcDbLine
 10
44.833633
 20
0.008647
 30
0.0
 11
44.83342
 21
0.008744
 31
0.0
  0
LINE
  5
650
330
1F
100
AcDbEntity
  8
1
  6
CONTINUOUS
370
50
 62
4
100
AcDbLine
 10
44.980843
 20
-0.044636
 30
0.0
 11
44.977608
 21
-0.043171
 31
0.0
  0
LINE
  5
651
330
1F
100
AcDbEntity
  8
1
  6
CONTINUOUS
370
50
 62
4
100
AcDbLine
 10
44.83342
 20
0.008744
 30
0.0
 11
44.83321
 21
0.008839
 31
0.0
  0
LINE
  5
652
330
1F
100
AcDbEntity
  8
1
  6
CONTINUOUS
370
50
 62
4
100
AcDbLine
 10
44.882015
 20
-0.000093
 30
0.0
 11
44.881809
 21
0.0
 31
0.0
  0
LINE
  5
653
330
1F
100
AcDbEntity
  8
1
  6
CONTINUOUS
370
50
 62
4
100
AcDbLine
 10
44.831196
 20
0.037884
 30
0.0
 11
44.823124
 21
0.041518
 31
0.0
  0
LINE
  5
654
330
1F
100
AcDbEntity
  8
1
  6
CONTINUOUS
370
50
 62
4
100
AcDbLine
 10
44.663803
 20
-0.018664
 30
0.0
 11
44.660957
 21
-0.017391
 31
0.0
  0
LINE
  5
655
330
1F
100
AcDbEntity
  8
1
  6
CONTINUOUS
370
50
 62
4
100
AcDbLine
 10
44.828022
 20
0.010196
 30
0.0
 11
44.827225
 21
0.01055
 31
0.0
  0
LINE
  5
656
330
1F
100
AcDbEntity
  8
1
  6
CONTINUOUS
370
50
 62
4
100
AcDbLine
 10
44.69138299999999
 20
0.029288
 30
0.0
 11
44.688545
 21
0.03054
 31
0.0
  0
LINE
  5
657
330
1F
100
AcDbEntity
  8
1
  6
CONTINUOUS
370
50
 62
4
100
AcDbLine
 10
44.836578
 20
0.041484
 30
0.0
 11
44.831753
 21
0.04361
 31
0.0
  0
LINE
  5
658
330
1F
100
AcDbEntity
  8
1
  6
CONTINUOUS
370
50
 62
4
100
AcDbLine
 10
44.840099
 20
0.000901
 30
0.0
 11
44.830448
 21
0.005151
 31
0.0
  0
LINE
  5
659
330
1F
100
AcDbEntity
  8
1
  6
CONTINUOUS
370
50
 62
4
100
AcDbLine
 10
44.833
 20
0.00893
 30
0.0
 11
44.832794
 21
0.00902
 31
0.0
  0
LINE
  5
65A
330
1F
100
AcDbEntity
  8
1
  6
CONTINUOUS
370
50
 62
4
100
AcDbLine
 10
44.83321
 20
0.008839
 30
0.0
 11
44.833
 21
0.00893
 31
0.0
  0
LINE
  5
65B
330
1F
100
AcDbEntity
  8
1
  6
CONTINUOUS
370
50
 62
4
100
AcDbLine
 10
44.834621
 20
0.029749
 30
0.0
 11
44.826572
 21
0.033182
 31
0.0
  0
LINE
  5
65C
330
1F
100
AcDbEntity
  8
1
  6
CONTINUOUS
370
50
 62
4
100
AcDbLine
 10
44.971809
 20
-0.045288
 30
0.0
 11
44.965252
 21
-0.0425
 31
0.0
  0
LINE
  5
65D
330
1F
100
AcDbEntity
  8
1
  6
CONTINUOUS
370
50
 62
4
100
AcDbLine
 10
44.832794
 20
0.00902
 30
0.0
 11
44.832584
 21
0.009108
 31
0.0
  0
LINE
  5
65E
330
1F
100
AcDbEntity
  8
1
  6
CONTINUOUS
370
50
 62
4
100
AcDbLine
 10
44.985485
 20
0.011583
 30
0.0
 11
44.983776
 21
0.012299
 31
0.0
  0
LINE
  5
65F
330
1F
100
AcDbEntity
  8
1
  6
CONTINUOUS
370
50
 62
4
100
AcDbLine
 10
44.987194
 20
0.010873
 30
0.0
 11
44.985485
 21
0.011583
 31
0.0
  0
LINE
  5
660
330
1F
100
AcDbEntity
  8
1
  6
CONTINUOUS
370
50
 62
4
100
AcDbLine
 10
44.832584
 20
0.009108
 30
0.0
 11
44.83237099999999
 21
0.009196
 31
0.0
  0
LINE
  5
661
330
1F
100
AcDbEntity
  8
1
  6
CONTINUOUS
370
50
 62
4
100
AcDbLine
 10
44.98891099999999
 20
0.010169
 30
0.0
 11
44.987194
 21
0.010873
 31
0.0
  0
LINE
  5
662
330
1F
100
AcDbEntity
  8
1
  6
CONTINUOUS
370
50
 62
4
100
AcDbLine
 10
44.828789
 20
0.009882
 30
0.0
 11
44.828022
 21
0.010196
 31
0.0
  0
LINE
  5
663
330
1F
100
AcDbEntity
  8
1
  6
CONTINUOUS
370
50
 62
4
100
AcDbLine
 10
44.869141
 20
-0.012649
 30
0.0
 11
44.859444
 21
-0.008684
 31
0.0
  0
LINE
  5
664
330
1F
100
AcDbEntity
  8
1
  6
CONTINUOUS
370
50
 62
4
100
AcDbLine
 10
44.97082899999999
 20
0.019712
 30
0.0
 11
44.966454
 21
0.021497
 31
0.0
  0
LINE
  5
665
330
1F
100
AcDbEntity
  8
1
  6
CONTINUOUS
370
50
 62
4
100
AcDbLine
 10
44.83237099999999
 20
0.009196
 30
0.0
 11
44.832157
 21
0.009283
 31
0.0
  0
LINE
  5
666
330
1F
100
AcDbEntity
  8
1
  6
CONTINUOUS
370
50
 62
4
100
AcDbLine
 10
44.990631
 20
0.00947
 30
0.0
 11
44.98891099999999
 21
0.010169
 31
0.0
  0
LINE
  5
667
330
1F
100
AcDbEntity
  8
1
  6
CONTINUOUS
370
50
 62
4
100
AcDbLine
 10
44.994083
 20
0.008083
 30
0.0
 11
44.992355
 21
0.008778
 31
0.0
  0
LINE
  5
668
330
1F
100
AcDbEntity
  8
1
  6
CONTINUOUS
370
50
 62
4
100
AcDbLine
 10
44.992355
 20
0.008778
 30
0.0
 11
44.990631
 21
0.00947
 31
0.0
  0
LINE
  5
669
330
1F
100
AcDbEntity
  8
1
  6
CONTINUOUS
370
50
 62
4
100
AcDbLine
 10
44.832157
 20
0.009283
 30
0.0
 11
44.831944
 21
0.009368
 31
0.0
  0
LINE
  5
66A
330
1F
100
AcDbEntity
  8
1
  6
CONTINUOUS
370
50
 62
4
100
AcDbLine
 10
44.666702
 20
-0.019808
 30
0.0
 11
44.663803
 21
-0.018664
 31
0.0
  0
LINE
  5
66B
330
1F
100
AcDbEntity
  8
1
  6
CONTINUOUS
370
50
 62
4
100
AcDbLine
 10
44.829567
 20
0.009575
 30
0.0
 11
44.828789
 21
0.009882
 31
0.0
  0
LINE
  5
66C
330
1F
100
AcDbEntity
  8
1
  6
CONTINUOUS
370
50
 62
4
100
AcDbLine
 10
44.984192
 20
-0.045944
 30
0.0
 11
44.980843
 21
-0.044636
 31
0.0
  0
LINE
  5
66D
330
1F
100
AcDbEntity
  8
1
  6
CONTINUOUS
370
50
 62
4
100
AcDbLine
 10
44.831944
 20
0.009368
 30
0.0
 11
44.831726
 21
0.009453
 31
0.0
  0
LINE
  5
66E
330
1F
100
AcDbEntity
  8
1
  6
CONTINUOUS
370
50
 62
4
100
AcDbLine
 10
44.657028
 20
-0.048926
 30
0.0
 11
44.656502
 21
-0.048723
 31
0.0
  0
LINE
  5
66F
330
1F
100
AcDbEntity
  8
1
  6
CONTINUOUS
370
50
 62
4
100
AcDbLine
 10
44.831512
 20
0.009535
 30
0.0
 11
44.831299
 21
0.009617
 31
0.0
  0
LINE
  5
670
330
1F
100
AcDbEntity
  8
1
  6
CONTINUOUS
370
50
 62
4
100
AcDbLine
 10
44.831726
 20
0.009453
 30
0.0
 11
44.831512
 21
0.009535
 31
0.0
  0
LINE
  5
671
330
1F
100
AcDbEntity
  8
1
  6
CONTINUOUS
370
50
 62
4
100
AcDbLine
 10
44.987167
 20
0.011093
 30
0.0
 11
44.98547
 21
0.011743
 31
0.0
  0
LINE
  5
672
330
1F
100
AcDbEntity
  8
1
  6
CONTINUOUS
370
50
 62
4
100
AcDbLine
 10
44.694252
 20
0.028192
 30
0.0
 11
44.69138299999999
 21
0.029288
 31
0.0
  0
LINE
  5
673
330
1F
100
AcDbEntity
  8
1
  6
CONTINUOUS
370
50
 62
4
100
AcDbLine
 10
44.990562
 20
0.009797
 30
0.0
 11
44.988865
 21
0.010445
 31
0.0
  0
LINE
  5
674
330
1F
100
AcDbEntity
  8
1
  6
CONTINUOUS
370
50
 62
4
100
AcDbLine
 10
44.988865
 20
0.010445
 30
0.0
 11
44.987167
 21
0.011093
 31
0.0
  0
LINE
  5
675
330
1F
100
AcDbEntity
  8
1
  6
CONTINUOUS
370
50
 62
4
100
AcDbLine
 10
44.830349
 20
0.009277
 30
0.0
 11
44.829567
 21
0.009575
 31
0.0
  0
LINE
  5
676
330
1F
100
AcDbEntity
  8
1
  6
CONTINUOUS
370
50
 62
4
100
AcDbLine
 10
44.830448
 20
0.005151
 30
0.0
 11
44.820805
 21
0.008818
 31
0.0
  0
LINE
  5
677
330
1F
100
AcDbEntity
  8
1
  6
CONTINUOUS
370
50
 62
4
100
AcDbLine
 10
44.992264
 20
0.009151
 30
0.0
 11
44.990562
 21
0.009797
 31
0.0
  0
LINE
  5
678
330
1F
100
AcDbEntity
  8
1
  6
CONTINUOUS
370
50
 62
4
100
AcDbLine
 10
44.724628
 20
0.021697
 30
0.0
 11
44.721626
 21
0.022825
 31
0.0
  0
LINE
  5
679
330
1F
100
AcDbEntity
  8
1
  6
CONTINUOUS
370
50
 62
4
100
AcDbLine
 10
44.827297
 20
-0.004696
 30
0.0
 11
44.822697
 21
-0.002973
 31
0.0
  0
LINE
  5
67A
330
1F
100
AcDbEntity
  8
1
  6
CONTINUOUS
370
50
 62
4
100
AcDbLine
 10
44.831139
 20
0.008983
 30
0.0
 11
44.830349
 21
0.009277
 31
0.0
  0
LINE
  5
67B
330
1F
100
AcDbEntity
  8
1
  6
CONTINUOUS
370
50
 62
4
100
AcDbLine
 10
44.831299
 20
0.009617
 30
0.0
 11
44.831081
 21
0.009698
 31
0.0
  0
LINE
  5
67C
330
1F
100
AcDbEntity
  8
1
  6
CONTINUOUS
370
50
 62
4
100
AcDbLine
 10
44.74057
 20
-0.045747
 30
0.0
 11
44.733784
 21
-0.04324
 31
0.0
  0
LINE
  5
67D
330
1F
100
AcDbEntity
  8
1
  6
CONTINUOUS
370
50
 62
4
100
AcDbLine
 10
44.831081
 20
0.009698
 30
0.0
 11
44.830864
 21
0.009778
 31
0.0
  0
LINE
  5
67E
330
1F
100
AcDbEntity
  8
1
  6
CONTINUOUS
370
50
 62
4
100
AcDbLine
 10
44.83136
 20
0.008903
 30
0.0
 11
44.831139
 21
0.008983
 31
0.0
  0
LINE
  5
67F
330
1F
100
AcDbEntity
  8
1
  6
CONTINUOUS
370
50
 62
4
100
AcDbLine
 10
44.83181
 20
0.008741
 30
0.0
 11
44.83136
 21
0.008903
 31
0.0
  0
LINE
  5
680
330
1F
100
AcDbEntity
  8
1
  6
CONTINUOUS
370
50
 62
4
100
AcDbLine
 10
44.830864
 20
0.009778
 30
0.0
 11
44.83064299999999
 21
0.009857
 31
0.0
  0
LINE
  5
681
330
1F
100
AcDbEntity
  8
1
  6
CONTINUOUS
370
50
 62
4
100
AcDbLine
 10
44.83064299999999
 20
0.009857
 30
0.0
 11
44.830421
 21
0.009936
 31
0.0
  0
LINE
  5
682
330
1F
100
AcDbEntity
  8
1
  6
CONTINUOUS
370
50
 62
4
100
AcDbLine
 10
44.831753
 20
0.04361
 30
0.0
 11
44.826591
 21
0.045442
 31
0.0
  0
LINE
  5
683
330
1F
100
AcDbEntity
  8
1
  6
CONTINUOUS
370
50
 62
4
100
AcDbLine
 10
44.851109
 20
0.037872
 30
0.0
 11
44.847473
 21
0.039162
 31
0.0
  0
LINE
  5
684
330
1F
100
AcDbEntity
  8
1
  6
CONTINUOUS
370
50
 62
4
100
AcDbLine
 10
44.832268
 20
0.008579
 30
0.0
 11
44.83181
 21
0.008741
 31
0.0
  0
LINE
  5
685
330
1F
100
AcDbEntity
  8
1
  6
CONTINUOUS
370
50
 62
4
100
AcDbLine
 10
44.665287
 20
0.049663
 30
0.0
 11
44.664822
 21
0.049826
 31
0.0
  0
LINE
  5
686
330
1F
100
AcDbEntity
  8
1
  6
CONTINUOUS
370
50
 62
4
100
AcDbLine
 10
44.830421
 20
0.009936
 30
0.0
 11
44.83020399999999
 21
0.010012
 31
0.0
  0
LINE
  5
687
330
1F
100
AcDbEntity
  8
1
  6
CONTINUOUS
370
50
 62
4
100
AcDbLine
 10
44.978168
 20
-0.047514
 30
0.0
 11
44.971809
 21
-0.045288
 31
0.0
  0
LINE
  5
688
330
1F
100
AcDbEntity
  8
1
  6
CONTINUOUS
370
50
 62
4
100
AcDbLine
 10
44.832726
 20
0.008421
 30
0.0
 11
44.8325
 21
0.0085
 31
0.0
  0
LINE
  5
689
330
1F
100
AcDbEntity
  8
1
  6
CONTINUOUS
370
50
 62
4
100
AcDbLine
 10
44.75219
 20
-0.044955
 30
0.0
 11
44.742615
 21
-0.041619
 31
0.0
  0
LINE
  5
68A
330
1F
100
AcDbEntity
  8
1
  6
CONTINUOUS
370
50
 62
4
100
AcDbLine
 10
44.847473
 20
0.039162
 30
0.0
 11
44.845116
 21
0.039979
 31
0.0
  0
LINE
  5
68B
330
1F
100
AcDbEntity
  8
1
  6
CONTINUOUS
370
50
 62
4
100
AcDbLine
 10
44.823124
 20
0.041518
 30
0.0
 11
44.815239
 21
0.044238
 31
0.0
  0
LINE
  5
68C
330
1F
100
AcDbEntity
  8
1
  6
CONTINUOUS
370
50
 62
4
100
AcDbLine
 10
44.669659
 20
-0.020826
 30
0.0
 11
44.666702
 21
-0.019808
 31
0.0
  0
LINE
  5
68D
330
1F
100
AcDbEntity
  8
1
  6
CONTINUOUS
370
50
 62
4
100
AcDbLine
 10
44.83020399999999
 20
0.010012
 30
0.0
 11
44.829983
 21
0.010088
 31
0.0
  0
LINE
  5
68E
330
1F
100
AcDbEntity
  8
1
  6
CONTINUOUS
370
50
 62
4
100
AcDbLine
 10
44.854813
 20
0.036601
 30
0.0
 11
44.851109
 21
0.037872
 31
0.0
  0
LINE
  5
68F
330
1F
100
AcDbEntity
  8
1
  6
CONTINUOUS
370
50
 62
4
100
AcDbLine
 10
44.8325
 20
0.0085
 30
0.0
 11
44.832268
 21
0.008579
 31
0.0
  0
LINE
  5
690
330
1F
100
AcDbEntity
  8
1
  6
CONTINUOUS
370
50
 62
4
100
AcDbLine
 10
44.845116
 20
0.039979
 30
0.0
 11
44.842213
 21
0.040956
 31
0.0
  0
LINE
  5
691
330
1F
100
AcDbEntity
  8
1
  6
CONTINUOUS
370
50
 62
4
100
AcDbLine
 10
44.878845
 20
-0.01589
 30
0.0
 11
44.869141
 21
-0.012649
 31
0.0
  0
LINE
  5
692
330
1F
100
AcDbEntity
  8
1
  6
CONTINUOUS
370
50
 62
4
100
AcDbLine
 10
44.832954
 20
0.008345
 30
0.0
 11
44.832726
 21
0.008421
 31
0.0
  0
LINE
  5
693
330
1F
100
AcDbEntity
  8
1
  6
CONTINUOUS
370
50
 62
4
100
AcDbLine
 10
44.826572
 20
0.033182
 30
0.0
 11
44.818527
 21
0.035846
 31
0.0
  0
LINE
  5
694
330
1F
100
AcDbEntity
  8
1
  6
CONTINUOUS
370
50
 62
4
100
AcDbLine
 10
44.833187
 20
0.008268
 30
0.0
 11
44.832954
 21
0.008345
 31
0.0
  0
LINE
  5
695
330
1F
100
AcDbEntity
  8
1
  6
CONTINUOUS
370
50
 62
4
100
AcDbLine
 10
44.855328
 20
0.036431
 30
0.0
 11
44.854813
 21
0.036601
 31
0.0
  0
LINE
  5
696
330
1F
100
AcDbEntity
  8
1
  6
CONTINUOUS
370
50
 62
4
100
AcDbLine
 10
44.996765
 20
0.020586
 30
0.0
 11
44.996395
 21
0.020708
 31
0.0
  0
LINE
  5
697
330
1F
100
AcDbEntity
  8
1
  6
CONTINUOUS
370
50
 62
4
100
AcDbLine
 10
44.98547
 20
0.011743
 30
0.0
 11
44.983776
 21
0.012299
 31
0.0
  0
LINE
  5
698
330
1F
100
AcDbEntity
  8
1
  6
CONTINUOUS
370
50
 62
4
100
AcDbLine
 10
44.829983
 20
0.010088
 30
0.0
 11
44.829189
 21
0.010348
 31
0.0
  0
LINE
  5
699
330
1F
100
AcDbEntity
  8
1
  6
CONTINUOUS
370
50
 62
4
100
AcDbLine
 10
44.987701
 20
-0.047086
 30
0.0
 11
44.984192
 21
-0.045944
 31
0.0
  0
LINE
  5
69A
330
1F
100
AcDbEntity
  8
1
  6
CONTINUOUS
370
50
 62
4
100
AcDbLine
 10
44.842213
 20
0.040956
 30
0.0
 11
44.839211
 21
0.041931
 31
0.0
  0
LINE
  5
69B
330
1F
100
AcDbEntity
  8
1
  6
CONTINUOUS
370
50
 62
4
100
AcDbLine
 10
44.69714399999999
 20
0.027255
 30
0.0
 11
44.694252
 21
0.028192
 31
0.0
  0
LINE
  5
69C
330
1F
100
AcDbEntity
  8
1
  6
CONTINUOUS
370
50
 62
4
100
AcDbLine
 10
44.73457699999999
 20
0.018514
 30
0.0
 11
44.730694
 21
0.019768
 31
0.0
  0
LINE
  5
69D
330
1F
100
AcDbEntity
  8
1
  6
CONTINUOUS
370
50
 62
4
100
AcDbLine
 10
44.730694
 20
0.019768
 30
0.0
 11
44.727402
 21
0.020829
 31
0.0
  0
LINE
  5
69E
330
1F
100
AcDbEntity
  8
1
  6
CONTINUOUS
370
50
 62
4
100
AcDbLine
 10
44.820805
 20
0.008818
 30
0.0
 11
44.811157
 21
0.011918
 31
0.0
  0
LINE
  5
69F
330
1F
100
AcDbEntity
  8
1
  6
CONTINUOUS
370
50
 62
4
100
AcDbLine
 10
44.739113
 20
0.017064
 30
0.0
 11
44.73457699999999
 21
0.018514
 31
0.0
  0
LINE
  5
6A0
330
1F
100
AcDbEntity
  8
1
  6
CONTINUOUS
370
50
 62
4
100
AcDbLine
 10
44.833435
 20
0.008189
 30
0.0
 11
44.833187
 21
0.008268
 31
0.0
  0
LINE
  5
6A1
330
1F
100
AcDbEntity
  8
1
  6
CONTINUOUS
370
50
 62
4
100
AcDbLine
 10
44.859478
 20
0.035121
 30
0.0
 11
44.855328
 21
0.036431
 31
0.0
  0
LINE
  5
6A2
330
1F
100
AcDbEntity
  8
1
  6
CONTINUOUS
370
50
 62
4
100
AcDbLine
 10
44.833683
 20
0.008111
 30
0.0
 11
44.833435
 21
0.008189
 31
0.0
  0
LINE
  5
6A3
330
1F
100
AcDbEntity
  8
1
  6
CONTINUOUS
370
50
 62
4
100
AcDbLine
 10
44.727402
 20
0.020829
 30
0.0
 11
44.724628
 21
0.021697
 31
0.0
  0
LINE
  5
6A4
330
1F
100
AcDbEntity
  8
1
  6
CONTINUOUS
370
50
 62
4
100
AcDbLine
 10
44.744377
 20
0.015417
 30
0.0
 11
44.739113
 21
0.017064
 31
0.0
  0
LINE
  5
6A5
330
1F
100
AcDbEntity
  8
1
  6
CONTINUOUS
370
50
 62
4
100
AcDbLine
 10
44.721626
 20
0.022825
 30
0.0
 11
44.718613
 21
0.023758
 31
0.0
  0
LINE
  5
6A6
330
1F
100
AcDbEntity
  8
1
  6
CONTINUOUS
370
50
 62
4
100
AcDbLine
 10
44.839211
 20
0.041931
 30
0.0
 11
44.8354
 21
0.043111
 31
0.0
  0
LINE
  5
6A7
330
1F
100
AcDbEntity
  8
1
  6
CONTINUOUS
370
50
 62
4
100
AcDbLine
 10
44.86152999999999
 20
-0.022285
 30
0.0
 11
44.852734
 21
-0.019566
 31
0.0
  0
LINE
  5
6A8
330
1F
100
AcDbEntity
  8
1
  6
CONTINUOUS
370
50
 62
4
100
AcDbLine
 10
44.776585
 20
0.00635
 30
0.0
 11
44.766193
 21
0.009548
 31
0.0
  0
LINE
  5
6A9
330
1F
100
AcDbEntity
  8
1
  6
CONTINUOUS
370
50
 62
4
100
AcDbLine
 10
44.766193
 20
0.009548
 30
0.0
 11
44.755795
 21
0.012739
 31
0.0
  0
LINE
  5
6AA
330
1F
100
AcDbEntity
  8
1
  6
CONTINUOUS
370
50
 62
4
100
AcDbLine
 10
44.750435
 20
0.013569
 30
0.0
 11
44.744377
 21
0.015417
 31
0.0
  0
LINE
  5
6AB
330
1F
100
AcDbEntity
  8
1
  6
CONTINUOUS
370
50
 62
4
100
AcDbLine
 10
44.786957
 20
0.0032
 30
0.0
 11
44.776585
 21
0.00635
 31
0.0
  0
LINE
  5
6AC
330
1F
100
AcDbEntity
  8
1
  6
CONTINUOUS
370
50
 62
4
100
AcDbLine
 10
44.829189
 20
0.010348
 30
0.0
 11
44.828381
 21
0.010593
 31
0.0
  0
LINE
  5
6AD
330
1F
100
AcDbEntity
  8
1
  6
CONTINUOUS
370
50
 62
4
100
AcDbLine
 10
44.755795
 20
0.012739
 30
0.0
 11
44.745396
 21
0.015865
 31
0.0
  0
LINE
  5
6AE
330
1F
100
AcDbEntity
  8
1
  6
CONTINUOUS
370
50
 62
4
100
AcDbLine
 10
44.966454
 20
0.021497
 30
0.0
 11
44.961891
 21
0.022866
 31
0.0
  0
LINE
  5
6AF
330
1F
100
AcDbEntity
  8
1
  6
CONTINUOUS
370
50
 62
4
100
AcDbLine
 10
44.672657
 20
-0.021723
 30
0.0
 11
44.669659
 21
-0.020826
 31
0.0
  0
LINE
  5
6B0
330
1F
100
AcDbEntity
  8
1
  6
CONTINUOUS
370
50
 62
4
100
AcDbLine
 10
44.833935
 20
0.008036
 30
0.0
 11
44.833683
 21
0.008111
 31
0.0
  0
LINE
  5
6B1
330
1F
100
AcDbEntity
  8
1
  6
CONTINUOUS
370
50
 62
4
100
AcDbLine
 10
44.822697
 20
-0.002973
 30
0.0
 11
44.817997
 21
-0.001577
 31
0.0
  0
LINE
  5
6B2
330
1F
100
AcDbEntity
  8
1
  6
CONTINUOUS
370
50
 62
4
100
AcDbLine
 10
44.757343
 20
0.011524
 30
0.0
 11
44.750435
 21
0.013569
 31
0.0
  0
LINE
  5
6B3
330
1F
100
AcDbEntity
  8
1
  6
CONTINUOUS
370
50
 62
4
100
AcDbLine
 10
44.977879
 20
0.024583
 30
0.0
 11
44.977745
 21
0.024622
 31
0.0
  0
LINE
  5
6B4
330
1F
100
AcDbEntity
  8
1
  6
CONTINUOUS
370
50
 62
4
100
AcDbLine
 10
44.745396
 20
0.015865
 30
0.0
 11
44.735004
 21
0.01887
 31
0.0
  0
LINE
  5
6B5
330
1F
100
AcDbEntity
  8
1
  6
CONTINUOUS
370
50
 62
4
100
AcDbLine
 10
44.8354
 20
0.043111
 30
0.0
 11
44.830059
 21
0.044653
 31
0.0
  0
LINE
  5
6B6
330
1F
100
AcDbEntity
  8
1
  6
CONTINUOUS
370
50
 62
4
100
AcDbLine
 10
44.863842
 20
0.033865
 30
0.0
 11
44.859478
 21
0.035121
 31
0.0
  0
LINE
  5
6B7
330
1F
100
AcDbEntity
  8
1
  6
CONTINUOUS
370
50
 62
4
100
AcDbLine
 10
44.764729
 20
0.009413
 30
0.0
 11
44.757343
 21
0.011524
 31
0.0
  0
LINE
  5
6B8
330
1F
100
AcDbEntity
  8
1
  6
CONTINUOUS
370
50
 62
4
100
AcDbLine
 10
44.657646
 20
-0.049102
 30
0.0
 11
44.657028
 21
-0.048926
 31
0.0
  0
LINE
  5
6B9
330
1F
100
AcDbEntity
  8
1
  6
CONTINUOUS
370
50
 62
4
100
AcDbLine
 10
44.834171
 20
0.007969
 30
0.0
 11
44.833935
 21
0.008036
 31
0.0
  0
LINE
  5
6BA
330
1F
100
AcDbEntity
  8
1
  6
CONTINUOUS
370
50
 62
4
100
AcDbLine
 10
44.786957
 20
0.0032
 30
0.0
 11
44.779716
 21
0.005233
 31
0.0
  0
LINE
  5
6BB
330
1F
100
AcDbEntity
  8
1
  6
CONTINUOUS
370
50
 62
4
100
AcDbLine
 10
44.772247
 20
0.00731
 30
0.0
 11
44.764729
 21
0.009413
 31
0.0
  0
LINE
  5
6BC
330
1F
100
AcDbEntity
  8
1
  6
CONTINUOUS
370
50
 62
4
100
AcDbLine
 10
44.779716
 20
0.005233
 30
0.0
 11
44.772247
 21
0.00731
 31
0.0
  0
LINE
  5
6BD
330
1F
100
AcDbEntity
  8
1
  6
CONTINUOUS
370
50
 62
4
100
AcDbLine
 10
44.826591
 20
0.045442
 30
0.0
 11
44.821049
 21
0.046971
 31
0.0
  0
LINE
  5
6BE
330
1F
100
AcDbEntity
  8
1
  6
CONTINUOUS
370
50
 62
4
100
AcDbLine
 10
44.735004
 20
0.01887
 30
0.0
 11
44.724628
 21
0.021697
 31
0.0
  0
LINE
  5
6BF
330
1F
100
AcDbEntity
  8
1
  6
CONTINUOUS
370
50
 62
4
100
AcDbLine
 10
44.811157
 20
0.011918
 30
0.0
 11
44.801506
 21
0.014543
 31
0.0
  0
LINE
  5
6C0
330
1F
100
AcDbEntity
  8
1
  6
CONTINUOUS
370
50
 62
4
100
AcDbLine
 10
44.299999
 20
0.04995
 30
0.0
 11
37.099998
 21
1.99995
 31
0.0
  0
LINE
  5
6C1
330
1F
100
AcDbEntity
  8
1
  6
CONTINUOUS
370
50
 62
4
100
AcDbLine
 10
44.864475
 20
0.033694
 30
0.0
 11
44.863842
 21
0.033865
 31
0.0
  0
LINE
  5
6C2
330
1F
100
AcDbEntity
  8
1
  6
CONTINUOUS
370
50
 62
4
100
AcDbLine
 10
44.828381
 20
0.010593
 30
0.0
 11
44.82762899999999
 21
0.010796
 31
0.0
  0
LINE
  5
6C3
330
1F
100
AcDbEntity
  8
1
  6
CONTINUOUS
370
50
 62
4
100
AcDbLine
 10
44.830059
 20
0.044653
 30
0.0
 11
44.82568699999999
 21
0.045821
 31
0.0
  0
LINE
  5
6C4
330
1F
100
AcDbEntity
  8
1
  6
CONTINUOUS
370
50
 62
4
100
AcDbLine
 10
44.700001
 20
0.026494
 30
0.0
 11
44.69714399999999
 21
0.027255
 31
0.0
  0
LINE
  5
6C5
330
1F
100
AcDbEntity
  8
1
  6
CONTINUOUS
370
50
 62
4
100
AcDbLine
 10
44.888546
 20
-0.018469
 30
0.0
 11
44.878845
 21
-0.01589
 31
0.0
  0
LINE
  5
6C6
330
1F
100
AcDbEntity
  8
1
  6
CONTINUOUS
370
50
 62
4
100
AcDbLine
 10
44.74752
 20
-0.047581
 30
0.0
 11
44.74057
 21
-0.045747
 31
0.0
  0
LINE
  5
6C7
330
1F
100
AcDbEntity
  8
1
  6
CONTINUOUS
370
50
 62
4
100
AcDbLine
 10
44.978012
 20
0.024548
 30
0.0
 11
44.977879
 21
0.024583
 31
0.0
  0
LINE
  5
6C8
330
1F
100
AcDbEntity
  8
1
  6
CONTINUOUS
370
50
 62
4
100
AcDbLine
 10
44.815239
 20
0.044238
 30
0.0
 11
44.807716
 21
0.046204
 31
0.0
  0
LINE
  5
6C9
330
1F
100
AcDbEntity
  8
1
  6
CONTINUOUS
370
50
 62
4
100
AcDbLine
 10
44.991436
 20
-0.048055
 30
0.0
 11
44.987701
 21
-0.047086
 31
0.0
  0
LINE
  5
6CA
330
1F
100
AcDbEntity
  8
1
  6
CONTINUOUS
370
50
 62
4
100
AcDbLine
 10
44.66211699999999
 20
-0.049731
 30
0.0
 11
44.661755
 21
-0.049638
 31
0.0
  0
LINE
  5
6CB
330
1F
100
AcDbEntity
  8
1
  6
CONTINUOUS
370
50
 62
4
100
AcDbLine
 10
44.675701
 20
-0.022501
 30
0.0
 11
44.672657
 21
-0.021723
 31
0.0
  0
LINE
  5
6CC
330
1F
100
AcDbEntity
  8
1
  6
CONTINUOUS
370
50
 62
4
100
AcDbLine
 10
44.868793
 20
0.032594
 30
0.0
 11
44.864475
 21
0.033694
 31
0.0
  0
LINE
  5
6CD
330
1F
100
AcDbEntity
  8
1
  6
CONTINUOUS
370
50
 62
4
100
AcDbLine
 10
44.818527
 20
0.035846
 30
0.0
 11
44.810482
 21
0.037863
 31
0.0
  0
LINE
  5
6CE
330
1F
100
AcDbEntity
  8
1
  6
CONTINUOUS
370
50
 62
4
100
AcDbLine
 10
44.834423
 20
0.007906
 30
0.0
 11
44.834171
 21
0.007969
 31
0.0
  0
LINE
  5
6CF
330
1F
100
AcDbEntity
  8
1
  6
CONTINUOUS
370
50
 62
4
100
AcDbLine
 10
44.996395
 20
0.020708
 30
0.0
 11
44.996021
 21
0.020801
 31
0.0
  0
LINE
  5
6D0
330
1F
100
AcDbEntity
  8
1
  6
CONTINUOUS
370
50
 62
4
100
AcDbLine
 10
44.99527399999999
 20
0.020985
 30
0.0
 11
44.994904
 21
0.021077
 31
0.0
  0
LINE
  5
6D1
330
1F
100
AcDbEntity
  8
1
  6
CONTINUOUS
370
50
 62
4
100
AcDbLine
 10
44.82568699999999
 20
0.045821
 30
0.0
 11
44.821049
 21
0.04697
 31
0.0
  0
LINE
  5
6D2
330
1F
100
AcDbEntity
  8
1
  6
CONTINUOUS
370
50
 62
4
100
AcDbLine
 10
44.995647
 20
0.020893
 30
0.0
 11
44.99527399999999
 21
0.020985
 31
0.0
  0
LINE
  5
6D3
330
1F
100
AcDbEntity
  8
1
  6
CONTINUOUS
370
50
 62
4
100
AcDbLine
 10
44.718613
 20
0.023758
 30
0.0
 11
44.715557
 21
0.02451
 31
0.0
  0
LINE
  5
6D4
330
1F
100
AcDbEntity
  8
1
  6
CONTINUOUS
370
50
 62
4
100
AcDbLine
 10
44.996021
 20
0.020801
 30
0.0
 11
44.995647
 21
0.020893
 31
0.0
  0
LINE
  5
6D5
330
1F
100
AcDbEntity
  8
1
  6
CONTINUOUS
370
50
 62
4
100
AcDbLine
 10
44.760902
 20
-0.047055
 30
0.0
 11
44.75219
 21
-0.044955
 31
0.0
  0
LINE
  5
6D6
330
1F
100
AcDbEntity
  8
1
  6
CONTINUOUS
370
50
 62
4
100
AcDbLine
 10
44.978142
 20
0.024517
 30
0.0
 11
44.978012
 21
0.024548
 31
0.0
  0
LINE
  5
6D7
330
1F
100
AcDbEntity
  8
1
  6
CONTINUOUS
370
50
 62
4
100
AcDbLine
 10
44.801506
 20
0.014543
 30
0.0
 11
44.791847
 21
0.016825
 31
0.0
  0
LINE
  5
6D8
330
1F
100
AcDbEntity
  8
1
  6
CONTINUOUS
370
50
 62
4
100
AcDbLine
 10
44.817997
 20
-0.001577
 30
0.0
 11
44.81319
 21
-0.000457
 31
0.0
  0
LINE
  5
6D9
330
1F
100
AcDbEntity
  8
1
  6
CONTINUOUS
370
50
 62
4
100
AcDbLine
 10
44.873356
 20
0.031561
 30
0.0
 11
44.868793
 21
0.032594
 31
0.0
  0
LINE
  5
6DA
330
1F
100
AcDbEntity
  8
1
  6
CONTINUOUS
370
50
 62
4
100
AcDbLine
 10
44.870338
 20
-0.024231
 30
0.0
 11
44.86152999999999
 21
-0.022285
 31
0.0
  0
LINE
  5
6DB
330
1F
100
AcDbEntity
  8
1
  6
CONTINUOUS
370
50
 62
4
100
AcDbLine
 10
44.82762899999999
 20
0.010796
 30
0.0
 11
44.827057
 21
0.010921
 31
0.0
  0
LINE
  5
6DC
330
1F
100
AcDbEntity
  8
1
  6
CONTINUOUS
370
50
 62
4
100
AcDbLine
 10
44.65834
 20
-0.049253
 30
0.0
 11
44.657646
 21
-0.049102
 31
0.0
  0
LINE
  5
6DD
330
1F
100
AcDbEntity
  8
1
  6
CONTINUOUS
370
50
 62
4
100
AcDbLine
 10
44.662468
 20
-0.049807
 30
0.0
 11
44.66211699999999
 21
-0.049731
 31
0.0
  0
LINE
  5
6DE
330
1F
100
AcDbEntity
  8
1
  6
CONTINUOUS
370
50
 62
4
100
AcDbLine
 10
44.986618
 20
-0.049336
 30
0.0
 11
44.978168
 21
-0.047514
 31
0.0
  0
LINE
  5
6DF
330
1F
100
AcDbEntity
  8
1
  6
CONTINUOUS
370
50
 62
4
100
AcDbLine
 10
44.678783
 20
-0.023165
 30
0.0
 11
44.675701
 21
-0.022501
 31
0.0
  0
LINE
  5
6E0
330
1F
100
AcDbEntity
  8
1
  6
CONTINUOUS
370
50
 62
4
100
AcDbLine
 10
44.791847
 20
0.016825
 30
0.0
 11
44.782173
 21
0.018889
 31
0.0
  0
LINE
  5
6E1
330
1F
100
AcDbEntity
  8
1
  6
CONTINUOUS
370
50
 62
4
100
AcDbLine
 10
44.821049
 20
0.046971
 30
0.0
 11
44.816559
 21
0.047926
 31
0.0
  0
LINE
  5
6E2
330
1F
100
AcDbEntity
  8
1
  6
CONTINUOUS
370
50
 62
4
100
AcDbLine
 10
44.874111
 20
0.031402
 30
0.0
 11
44.873356
 21
0.031561
 31
0.0
  0
LINE
  5
6E3
330
1F
100
AcDbEntity
  8
1
  6
CONTINUOUS
370
50
 62
4
100
AcDbLine
 10
44.978271
 20
0.02449
 30
0.0
 11
44.978142
 21
0.024517
 31
0.0
  0
LINE
  5
6E4
330
1F
100
AcDbEntity
  8
1
  6
CONTINUOUS
370
50
 62
4
100
AcDbLine
 10
44.961891
 20
0.022866
 30
0.0
 11
44.957085
 21
0.023866
 31
0.0
  0
LINE
  5
6E5
330
1F
100
AcDbEntity
  8
1
  6
CONTINUOUS
370
50
 62
4
100
AcDbLine
 10
44.898239
 20
-0.020483
 30
0.0
 11
44.888546
 21
-0.018469
 31
0.0
  0
LINE
  5
6E6
330
1F
100
AcDbEntity
  8
1
  6
CONTINUOUS
370
50
 62
4
100
AcDbLine
 10
44.834679
 20
0.007855
 30
0.0
 11
44.834423
 21
0.007906
 31
0.0
  0
LINE
  5
6E7
330
1F
100
AcDbEntity
  8
1
  6
CONTINUOUS
370
50
 62
4
100
AcDbLine
 10
44.995445
 20
-0.048843
 30
0.0
 11
44.991436
 21
-0.048055
 31
0.0
  0
LINE
  5
6E8
330
1F
100
AcDbEntity
  8
1
  6
CONTINUOUS
370
50
 62
4
100
AcDbLine
 10
44.782173
 20
0.018889
 30
0.0
 11
44.772491
 21
0.020791
 31
0.0
  0
LINE
  5
6E9
330
1F
100
AcDbEntity
  8
1
  6
CONTINUOUS
370
50
 62
4
100
AcDbLine
 10
44.807716
 20
0.046204
 30
0.0
 11
44.800728
 21
0.047576
 31
0.0
  0
LINE
  5
6EA
330
1F
100
AcDbEntity
  8
1
  6
CONTINUOUS
370
50
 62
4
100
AcDbLine
 10
44.878788
 20
0.030494
 30
0.0
 11
44.874111
 21
0.031402
 31
0.0
  0
LINE
  5
6EB
330
1F
100
AcDbEntity
  8
1
  6
CONTINUOUS
370
50
 62
4
100
AcDbLine
 10
44.715557
 20
0.02451
 30
0.0
 11
44.712425
 21
0.025095
 31
0.0
  0
LINE
  5
6EC
330
1F
100
AcDbEntity
  8
1
  6
CONTINUOUS
370
50
 62
4
100
AcDbLine
 10
44.664822
 20
0.049826
 30
0.0
 11
44.66431
 21
0.049921
 31
0.0
  0
LINE
  5
6ED
330
1F
100
AcDbEntity
  8
1
  6
CONTINUOUS
370
50
 62
4
100
AcDbLine
 10
44.81319
 20
-0.000457
 30
0.0
 11
44.808208
 21
0.000459
 31
0.0
  0
LINE
  5
6EE
330
1F
100
AcDbEntity
  8
1
  6
CONTINUOUS
370
50
 62
4
100
AcDbLine
 10
44.810482
 20
0.037863
 30
0.0
 11
44.802433
 21
0.039337
 31
0.0
  0
LINE
  5
6EF
330
1F
100
AcDbEntity
  8
1
  6
CONTINUOUS
370
50
 62
4
100
AcDbLine
 10
44.662807
 20
-0.049868
 30
0.0
 11
44.662468
 21
-0.049807
 31
0.0
  0
LINE
  5
6F0
330
1F
100
AcDbEntity
  8
1
  6
CONTINUOUS
370
50
 62
4
100
AcDbLine
 10
44.772491
 20
0.020791
 30
0.0
 11
44.762802
 21
0.022528
 31
0.0
  0
LINE
  5
6F1
330
1F
100
AcDbEntity
  8
1
  6
CONTINUOUS
370
50
 62
4
100
AcDbLine
 10
44.978401
 20
0.024467
 30
0.0
 11
44.978271
 21
0.02449
 31
0.0
  0
LINE
  5
6F2
330
1F
100
AcDbEntity
  8
1
  6
CONTINUOUS
370
50
 62
4
100
AcDbLine
 10
44.754436
 20
-0.048804
 30
0.0
 11
44.74752
 21
-0.047581
 31
0.0
  0
LINE
  5
6F3
330
1F
100
AcDbEntity
  8
1
  6
CONTINUOUS
370
50
 62
4
100
AcDbLine
 10
44.883736
 20
0.029659
 30
0.0
 11
44.878788
 21
0.030494
 31
0.0
  0
LINE
  5
6F4
330
1F
100
AcDbEntity
  8
1
  6
CONTINUOUS
370
50
 62
4
100
AcDbLine
 10
44.76849
 20
-0.048329
 30
0.0
 11
44.760902
 21
-0.047055
 31
0.0
  0
LINE
  5
6F5
330
1F
100
AcDbEntity
  8
1
  6
CONTINUOUS
370
50
 62
4
100
AcDbLine
 10
44.994904
 20
0.021077
 30
0.0
 11
44.99453
 21
0.021138
 31
0.0
  0
LINE
  5
6F6
330
1F
100
AcDbEntity
  8
1
  6
CONTINUOUS
370
50
 62
4
100
AcDbLine
 10
44.659107
 20
-0.049378
 30
0.0
 11
44.65834
 21
-0.049253
 31
0.0
  0
LINE
  5
6F7
330
1F
100
AcDbEntity
  8
1
  6
CONTINUOUS
370
50
 62
4
100
AcDbLine
 10
44.99494199999999
 20
0.021071
 30
0.0
 11
44.99453
 21
0.021138
 31
0.0
  0
LINE
  5
6F8
330
1F
100
AcDbEntity
  8
1
  6
CONTINUOUS
370
50
 62
4
100
AcDbLine
 10
44.816559
 20
0.047926
 30
0.0
 11
44.811817
 21
0.048697
 31
0.0
  0
LINE
  5
6F9
330
1F
100
AcDbEntity
  8
1
  6
CONTINUOUS
370
50
 62
4
100
AcDbLine
 10
44.907925
 20
-0.02205
 30
0.0
 11
44.898239
 21
-0.020483
 31
0.0
  0
LINE
  5
6FA
330
1F
100
AcDbEntity
  8
1
  6
CONTINUOUS
370
50
 62
4
100
AcDbLine
 10
44.762802
 20
0.022528
 30
0.0
 11
44.753105
 21
0.024093
 31
0.0
  0
LINE
  5
6FB
330
1F
100
AcDbEntity
  8
1
  6
CONTINUOUS
370
50
 62
4
100
AcDbLine
 10
44.995354
 20
0.021007
 30
0.0
 11
44.99494199999999
 21
0.021071
 31
0.0
  0
LINE
  5
6FC
330
1F
100
AcDbEntity
  8
1
  6
CONTINUOUS
370
50
 62
4
100
AcDbLine
 10
44.995773
 20
0.020943
 30
0.0
 11
44.995354
 21
0.021007
 31
0.0
  0
LINE
  5
6FD
330
1F
100
AcDbEntity
  8
1
  6
CONTINUOUS
370
50
 62
4
100
AcDbLine
 10
44.978527
 20
0.024448
 30
0.0
 11
44.978401
 21
0.024467
 31
0.0
  0
LINE
  5
6FE
330
1F
100
AcDbEntity
  8
1
  6
CONTINUOUS
370
50
 62
4
100
AcDbLine
 10
44.701019
 20
-0.024189
 30
0.0
 11
44.700508
 21
-0.024112
 31
0.0
  0
LINE
  5
6FF
330
1F
100
AcDbEntity
  8
1
  6
CONTINUOUS
370
50
 62
4
100
AcDbLine
 10
44.808208
 20
0.000459
 30
0.0
 11
44.803059
 21
0.00123
 31
0.0
  0
LINE
  5
700
330
1F
100
AcDbEntity
  8
1
  6
CONTINUOUS
370
50
 62
4
100
AcDbLine
 10
44.70153
 20
-0.024265
 30
0.0
 11
44.701019
 21
-0.024189
 31
0.0
  0
LINE
  5
701
330
1F
100
AcDbEntity
  8
1
  6
CONTINUOUS
370
50
 62
4
100
AcDbLine
 10
44.800728
 20
0.047576
 30
0.0
 11
44.794216
 21
0.048537
 31
0.0
  0
LINE
  5
702
330
1F
100
AcDbEntity
  8
1
  6
CONTINUOUS
370
50
 62
4
100
AcDbLine
 10
44.996189
 20
0.020882
 30
0.0
 11
44.995773
 21
0.020943
 31
0.0
  0
LINE
  5
703
330
1F
100
AcDbEntity
  8
1
  6
CONTINUOUS
370
50
 62
4
100
AcDbLine
 10
44.879154
 20
-0.02552
 30
0.0
 11
44.870338
 21
-0.024231
 31
0.0
  0
LINE
  5
704
330
1F
100
AcDbEntity
  8
1
  6
CONTINUOUS
370
50
 62
4
100
AcDbLine
 10
44.702045
 20
-0.02434
 30
0.0
 11
44.70153
 21
-0.024265
 31
0.0
  0
LINE
  5
705
330
1F
100
AcDbEntity
  8
1
  6
CONTINUOUS
370
50
 62
4
100
AcDbLine
 10
44.888439
 20
0.028975
 30
0.0
 11
44.883736
 21
0.029659
 31
0.0
  0
LINE
  5
706
330
1F
100
AcDbEntity
  8
1
  6
CONTINUOUS
370
50
 62
4
100
AcDbLine
 10
44.702557
 20
-0.024414
 30
0.0
 11
44.702045
 21
-0.02434
 31
0.0
  0
LINE
  5
707
330
1F
100
AcDbEntity
  8
1
  6
CONTINUOUS
370
50
 62
4
100
AcDbLine
 10
44.753105
 20
0.024093
 30
0.0
 11
44.748554
 21
0.02475
 31
0.0
  0
LINE
  5
708
330
1F
100
AcDbEntity
  8
1
  6
CONTINUOUS
370
50
 62
4
100
AcDbLine
 10
44.977745
 20
0.024622
 30
0.0
 11
44.974373
 21
0.025108
 31
0.0
  0
LINE
  5
709
330
1F
100
AcDbEntity
  8
1
  6
CONTINUOUS
370
50
 62
4
100
AcDbLine
 10
44.703072
 20
-0.024487
 30
0.0
 11
44.702557
 21
-0.024414
 31
0.0
  0
LINE
  5
70A
330
1F
100
AcDbEntity
  8
1
  6
CONTINUOUS
370
50
 62
4
100
AcDbLine
 10
44.996613
 20
0.020822
 30
0.0
 11
44.996189
 21
0.020882
 31
0.0
  0
LINE
  5
70B
330
1F
100
AcDbEntity
  8
1
  6
CONTINUOUS
370
50
 62
4
100
AcDbLine
 10
44.997032
 20
0.020764
 30
0.0
 11
44.996613
 21
0.020822
 31
0.0
  0
LINE
  5
70C
330
1F
100
AcDbEntity
  8
1
  6
CONTINUOUS
370
50
 62
4
100
AcDbLine
 10
44.957085
 20
0.023866
 30
0.0
 11
44.95208
 21
0.024556
 31
0.0
  0
LINE
  5
70D
330
1F
100
AcDbEntity
  8
1
  6
CONTINUOUS
370
50
 62
4
100
AcDbLine
 10
44.999786
 20
-0.04944
 30
0.0
 11
44.995445
 21
-0.048843
 31
0.0
  0
LINE
  5
70E
330
1F
100
AcDbEntity
  8
1
  6
CONTINUOUS
370
50
 62
4
100
AcDbLine
 10
44.663132
 20
-0.049912
 30
0.0
 11
44.662807
 21
-0.049868
 31
0.0
  0
LINE
  5
70F
330
1F
100
AcDbEntity
  8
1
  6
CONTINUOUS
370
50
 62
4
100
AcDbLine
 10
44.679958
 20
-0.023324
 30
0.0
 11
44.678783
 21
-0.023165
 31
0.0
  0
LINE
  5
710
330
1F
100
AcDbEntity
  8
1
  6
CONTINUOUS
370
50
 62
4
100
AcDbLine
 10
44.712425
 20
0.025095
 30
0.0
 11
44.709183
 21
0.02553
 31
0.0
  0
LINE
  5
711
330
1F
100
AcDbEntity
  8
1
  6
CONTINUOUS
370
50
 62
4
100
AcDbLine
 10
44.803059
 20
0.00123
 30
0.0
 11
44.797779
 21
0.001909
 31
0.0
  0
LINE
  5
712
330
1F
100
AcDbEntity
  8
1
  6
CONTINUOUS
370
50
 62
4
100
AcDbLine
 10
44.802433
 20
0.039337
 30
0.0
 11
44.794384
 21
0.04037
 31
0.0
  0
LINE
  5
713
330
1F
100
AcDbEntity
  8
1
  6
CONTINUOUS
370
50
 62
4
100
AcDbLine
 10
44.917599
 20
-0.023287
 30
0.0
 11
44.907925
 21
-0.02205
 31
0.0
  0
LINE
  5
714
330
1F
100
AcDbEntity
  8
1
  6
CONTINUOUS
370
50
 62
4
100
AcDbLine
 10
44.748554
 20
0.02475
 30
0.0
 11
44.743999
 21
0.025328
 31
0.0
  0
LINE
  5
715
330
1F
100
AcDbEntity
  8
1
  6
CONTINUOUS
370
50
 62
4
100
AcDbLine
 10
44.659935
 20
-0.049483
 30
0.0
 11
44.659107
 21
-0.049378
 31
0.0
  0
LINE
  5
716
330
1F
100
AcDbEntity
  8
1
  6
CONTINUOUS
370
50
 62
4
100
AcDbLine
 10
44.893368
 20
0.028357
 30
0.0
 11
44.888439
 21
0.028975
 31
0.0
  0
LINE
  5
717
330
1F
100
AcDbEntity
  8
1
  6
CONTINUOUS
370
50
 62
4
100
AcDbLine
 10
44.7924
 20
0.002548
 30
0.0
 11
44.786957
 21
0.0032
 31
0.0
  0
LINE
  5
718
330
1F
100
AcDbEntity
  8
1
  6
CONTINUOUS
370
50
 62
4
100
AcDbLine
 10
44.797779
 20
0.001909
 30
0.0
 11
44.7924
 21
0.002548
 31
0.0
  0
LINE
  5
719
330
1F
100
AcDbEntity
  8
1
  6
CONTINUOUS
370
50
 62
4
100
AcDbLine
 10
44.811817
 20
0.048697
 30
0.0
 11
44.806805
 21
0.049284
 31
0.0
  0
LINE
  5
71A
330
1F
100
AcDbEntity
  8
1
  6
CONTINUOUS
370
50
 62
4
100
AcDbLine
 10
44.776264
 20
-0.049228
 30
0.0
 11
44.76849
 21
-0.048329
 31
0.0
  0
LINE
  5
71B
330
1F
100
AcDbEntity
  8
1
  6
CONTINUOUS
370
50
 62
4
100
AcDbLine
 10
44.974373
 20
0.025108
 30
0.0
 11
44.971004
 21
0.025495
 31
0.0
  0
LINE
  5
71C
330
1F
100
AcDbEntity
  8
1
  6
CONTINUOUS
370
50
 62
4
100
AcDbLine
 10
44.896259
 20
0.028036
 30
0.0
 11
44.893368
 21
0.028357
 31
0.0
  0
LINE
  5
71D
330
1F
100
AcDbEntity
  8
1
  6
CONTINUOUS
370
50
 62
4
100
AcDbLine
 10
44.794216
 20
0.048537
 30
0.0
 11
44.78758999999999
 21
0.049246
 31
0.0
  0
LINE
  5
71E
330
1F
100
AcDbEntity
  8
1
  6
CONTINUOUS
370
50
 62
4
100
AcDbLine
 10
44.761238
 20
-0.049527
 30
0.0
 11
44.754436
 21
-0.048804
 31
0.0
  0
LINE
  5
71F
330
1F
100
AcDbEntity
  8
1
  6
CONTINUOUS
370
50
 62
4
100
AcDbLine
 10
44.927265
 20
-0.024311
 30
0.0
 11
44.917599
 21
-0.023287
 31
0.0
  0
LINE
  5
720
330
1F
100
AcDbEntity
  8
1
  6
CONTINUOUS
370
50
 62
4
100
AcDbLine
 10
44.743999
 20
0.025328
 30
0.0
 11
44.739449
 21
0.025804
 31
0.0
  0
LINE
  5
721
330
1F
100
AcDbEntity
  8
1
  6
CONTINUOUS
370
50
 62
4
100
AcDbLine
 10
44.66082
 20
-0.049568
 30
0.0
 11
44.659935
 21
-0.049483
 31
0.0
  0
LINE
  5
722
330
1F
100
AcDbEntity
  8
1
  6
CONTINUOUS
370
50
 62
4
100
AcDbLine
 10
44.903011
 20
0.02739
 30
0.0
 11
44.896259
 21
0.028036
 31
0.0
  0
LINE
  5
723
330
1F
100
AcDbEntity
  8
1
  6
CONTINUOUS
370
50
 62
4
100
AcDbLine
 10
44.681145
 20
-0.023435
 30
0.0
 11
44.679958
 21
-0.023324
 31
0.0
  0
LINE
  5
724
330
1F
100
AcDbEntity
  8
1
  6
CONTINUOUS
370
50
 62
4
100
AcDbLine
 10
44.95208
 20
0.024556
 30
0.0
 11
44.94692999999999
 21
0.025023
 31
0.0
  0
LINE
  5
725
330
1F
100
AcDbEntity
  8
1
  6
CONTINUOUS
370
50
 62
4
100
AcDbLine
 10
44.709183
 20
0.02553
 30
0.0
 11
44.70586
 21
0.025824
 31
0.0
  0
LINE
  5
726
330
1F
100
AcDbEntity
  8
1
  6
CONTINUOUS
370
50
 62
4
100
AcDbLine
 10
44.971004
 20
0.025495
 30
0.0
 11
44.967636
 21
0.025786
 31
0.0
  0
LINE
  5
727
330
1F
100
AcDbEntity
  8
1
  6
CONTINUOUS
370
50
 62
4
100
AcDbLine
 10
44.794384
 20
0.04037
 30
0.0
 11
44.786335
 21
0.04106
 31
0.0
  0
LINE
  5
728
330
1F
100
AcDbEntity
  8
1
  6
CONTINUOUS
370
50
 62
4
100
AcDbLine
 10
44.663448
 20
-0.049939
 30
0.0
 11
44.663132
 21
-0.049912
 31
0.0
  0
LINE
  5
729
330
1F
100
AcDbEntity
  8
1
  6
CONTINUOUS
370
50
 62
4
100
AcDbLine
 10
44.88797
 20
-0.026271
 30
0.0
 11
44.879154
 21
-0.02552
 31
0.0
  0
LINE
  5
72A
330
1F
100
AcDbEntity
  8
1
  6
CONTINUOUS
370
50
 62
4
100
AcDbLine
 10
44.70097699999999
 20
0.026189
 30
0.0
 11
44.700005
 21
0.026268
 31
0.0
  0
LINE
  5
72B
330
1F
100
AcDbEntity
  8
1
  6
CONTINUOUS
370
50
 62
4
100
AcDbLine
 10
44.701954
 20
0.026112
 30
0.0
 11
44.70097699999999
 21
0.026189
 31
0.0
  0
LINE
  5
72C
330
1F
100
AcDbEntity
  8
1
  6
CONTINUOUS
370
50
 62
4
100
AcDbLine
 10
44.909508
 20
0.026883
 30
0.0
 11
44.903011
 21
0.02739
 31
0.0
  0
LINE
  5
72D
330
1F
100
AcDbEntity
  8
1
  6
CONTINUOUS
370
50
 62
4
100
AcDbLine
 10
44.70292999999999
 20
0.026036
 30
0.0
 11
44.701954
 21
0.026112
 31
0.0
  0
LINE
  5
72E
330
1F
100
AcDbEntity
  8
1
  6
CONTINUOUS
370
50
 62
4
100
AcDbLine
 10
44.739449
 20
0.025804
 30
0.0
 11
44.734898
 21
0.026154
 31
0.0
  0
LINE
  5
72F
330
1F
100
AcDbEntity
  8
1
  6
CONTINUOUS
370
50
 62
4
100
AcDbLine
 10
44.806805
 20
0.049284
 30
0.0
 11
44.801502
 21
0.049683
 31
0.0
  0
LINE
  5
730
330
1F
100
AcDbEntity
  8
1
  6
CONTINUOUS
370
50
 62
4
100
AcDbLine
 10
44.661755
 20
-0.049638
 30
0.0
 11
44.66082
 21
-0.049568
 31
0.0
  0
LINE
  5
731
330
1F
100
AcDbEntity
  8
1
  6
CONTINUOUS
370
50
 62
4
100
AcDbLine
 10
44.703907
 20
0.025963
 30
0.0
 11
44.70292999999999
 21
0.026036
 31
0.0
  0
LINE
  5
732
330
1F
100
AcDbEntity
  8
1
  6
CONTINUOUS
370
50
 62
4
100
AcDbLine
 10
44.979034
 20
0.024411
 30
0.0
 11
44.978527
 21
0.024448
 31
0.0
  0
LINE
  5
733
330
1F
100
AcDbEntity
  8
1
  6
CONTINUOUS
370
50
 62
4
100
AcDbLine
 10
44.704884
 20
0.025892
 30
0.0
 11
44.703907
 21
0.025963
 31
0.0
  0
LINE
  5
734
330
1F
100
AcDbEntity
  8
1
  6
CONTINUOUS
370
50
 62
4
100
AcDbLine
 10
44.70586
 20
0.025824
 30
0.0
 11
44.704884
 21
0.025892
 31
0.0
  0
LINE
  5
735
330
1F
100
AcDbEntity
  8
1
  6
CONTINUOUS
370
50
 62
4
100
AcDbLine
 10
44.78758999999999
 20
0.049246
 30
0.0
 11
44.780907
 21
0.049706
 31
0.0
  0
LINE
  5
736
330
1F
100
AcDbEntity
  8
1
  6
CONTINUOUS
370
50
 62
4
100
AcDbLine
 10
44.784428
 20
-0.049783
 30
0.0
 11
44.776264
 21
-0.049228
 31
0.0
  0
LINE
  5
737
330
1F
100
AcDbEntity
  8
1
  6
CONTINUOUS
370
50
 62
4
100
AcDbLine
 10
44.912674
 20
0.026671
 30
0.0
 11
44.909508
 21
0.026883
 31
0.0
  0
LINE
  5
738
330
1F
100
AcDbEntity
  8
1
  6
CONTINUOUS
370
50
 62
4
100
AcDbLine
 10
44.94692999999999
 20
0.025023
 30
0.0
 11
44.94167299999999
 21
0.025347
 31
0.0
  0
LINE
  5
739
330
1F
100
AcDbEntity
  8
1
  6
CONTINUOUS
370
50
 62
4
100
AcDbLine
 10
44.967636
 20
0.025786
 30
0.0
 11
44.964268
 21
0.02599
 31
0.0
  0
LINE
  5
73A
330
1F
100
AcDbEntity
  8
1
  6
CONTINUOUS
370
50
 62
4
100
AcDbLine
 10
44.917522
 20
0.026382
 30
0.0
 11
44.912674
 21
0.026671
 31
0.0
  0
LINE
  5
73B
330
1F
100
AcDbEntity
  8
1
  6
CONTINUOUS
370
50
 62
4
100
AcDbLine
 10
44.682339
 20
-0.023501
 30
0.0
 11
44.681145
 21
-0.023435
 31
0.0
  0
LINE
  5
73C
330
1F
100
AcDbEntity
  8
1
  6
CONTINUOUS
370
50
 62
4
100
AcDbLine
 10
44.922356
 20
0.026136
 30
0.0
 11
44.917522
 21
0.026382
 31
0.0
  0
LINE
  5
73D
330
1F
100
AcDbEntity
  8
1
  6
CONTINUOUS
370
50
 62
4
100
AcDbLine
 10
44.767841
 20
-0.049863
 30
0.0
 11
44.761238
 21
-0.049527
 31
0.0
  0
LINE
  5
73E
330
1F
100
AcDbEntity
  8
1
  6
CONTINUOUS
370
50
 62
4
100
AcDbLine
 10
44.786335
 20
0.04106
 30
0.0
 11
44.778286
 21
0.041469
 31
0.0
  0
LINE
  5
73F
330
1F
100
AcDbEntity
  8
1
  6
CONTINUOUS
370
50
 62
4
100
AcDbLine
 10
44.66431
 20
0.049921
 30
0.0
 11
44.663754
 21
0.049949
 31
0.0
  0
LINE
  5
740
330
1F
100
AcDbEntity
  8
1
  6
CONTINUOUS
370
50
 62
4
100
AcDbLine
 10
44.94167299999999
 20
0.025347
 30
0.0
 11
44.936272
 21
0.025598
 31
0.0
  0
LINE
  5
741
330
1F
100
AcDbEntity
  8
1
  6
CONTINUOUS
370
50
 62
4
100
AcDbLine
 10
44.923111
 20
0.026101
 30
0.0
 11
44.922356
 21
0.026136
 31
0.0
  0
LINE
  5
742
330
1F
100
AcDbEntity
  8
1
  6
CONTINUOUS
370
50
 62
4
100
AcDbLine
 10
44.734898
 20
0.026154
 30
0.0
 11
44.73035
 21
0.026354
 31
0.0
  0
LINE
  5
743
330
1F
100
AcDbEntity
  8
1
  6
CONTINUOUS
370
50
 62
4
100
AcDbLine
 10
44.930889
 20
0.025789
 30
0.0
 11
44.923111
 21
0.026101
 31
0.0
  0
LINE
  5
744
330
1F
100
AcDbEntity
  8
1
  6
CONTINUOUS
370
50
 62
4
100
AcDbLine
 10
44.834885
 20
0.007847
 30
0.0
 11
44.834679
 21
0.007855
 31
0.0
  0
LINE
  5
745
330
1F
100
AcDbEntity
  8
1
  6
CONTINUOUS
370
50
 62
4
100
AcDbLine
 10
44.801502
 20
0.049683
 30
0.0
 11
44.795887
 21
0.049895
 31
0.0
  0
LINE
  5
746
330
1F
100
AcDbEntity
  8
1
  6
CONTINUOUS
370
50
 62
4
100
AcDbLine
 10
44.936272
 20
0.025598
 30
0.0
 11
44.930889
 21
0.025798
 31
0.0
  0
LINE
  5
747
330
1F
100
AcDbEntity
  8
1
  6
CONTINUOUS
370
50
 62
4
100
AcDbLine
 10
44.896774
 20
-0.026591
 30
0.0
 11
44.88797
 21
-0.026271
 31
0.0
  0
LINE
  5
748
330
1F
100
AcDbEntity
  8
1
  6
CONTINUOUS
370
50
 62
4
100
AcDbLine
 10
44.964268
 20
0.02599
 30
0.0
 11
44.96090299999999
 21
0.026112
 31
0.0
  0
LINE
  5
749
330
1F
100
AcDbEntity
  8
1
  6
CONTINUOUS
370
50
 62
4
100
AcDbLine
 10
44.99453
 20
0.021138
 30
0.0
 11
44.99119899999999
 21
0.021249
 31
0.0
  0
LINE
  5
74A
330
1F
100
AcDbEntity
  8
1
  6
CONTINUOUS
370
50
 62
4
100
AcDbLine
 10
44.663754
 20
-0.049949
 30
0.0
 11
44.663448
 21
-0.049939
 31
0.0
  0
LINE
  5
74B
330
1F
100
AcDbEntity
  8
1
  6
CONTINUOUS
370
50
 62
4
100
AcDbLine
 10
44.987801
 20
0.021352
 30
0.0
 11
44.984467
 21
0.021456
 31
0.0
  0
LINE
  5
74C
330
1F
100
AcDbEntity
  8
1
  6
CONTINUOUS
370
50
 62
4
100
AcDbLine
 10
44.780907
 20
0.049706
 30
0.0
 11
44.774273
 21
0.049912
 31
0.0
  0
LINE
  5
74D
330
1F
100
AcDbEntity
  8
1
  6
CONTINUOUS
370
50
 62
4
100
AcDbLine
 10
44.99119899999999
 20
0.021249
 30
0.0
 11
44.987801
 21
0.021352
 31
0.0
  0
LINE
  5
74E
330
1F
100
AcDbEntity
  8
1
  6
CONTINUOUS
370
50
 62
4
100
AcDbLine
 10
44.978546
 20
0.021595
 30
0.0
 11
44.976231
 21
0.021654
 31
0.0
  0
LINE
  5
74F
330
1F
100
AcDbEntity
  8
1
  6
CONTINUOUS
370
50
 62
4
100
AcDbLine
 10
44.981335
 20
0.021527
 30
0.0
 11
44.978546
 21
0.021595
 31
0.0
  0
LINE
  5
750
330
1F
100
AcDbEntity
  8
1
  6
CONTINUOUS
370
50
 62
4
100
AcDbLine
 10
44.984467
 20
0.021456
 30
0.0
 11
44.981335
 21
0.021527
 31
0.0
  0
LINE
  5
751
330
1F
100
AcDbEntity
  8
1
  6
CONTINUOUS
370
50
 62
4
100
AcDbLine
 10
44.792801
 20
-0.049956
 30
0.0
 11
44.784428
 21
-0.049783
 31
0.0
  0
LINE
  5
752
330
1F
100
AcDbEntity
  8
1
  6
CONTINUOUS
370
50
 62
4
100
AcDbLine
 10
44.917988
 20
0.026389
 30
0.0
 11
44.913136
 21
0.026472
 31
0.0
  0
LINE
  5
753
330
1F
100
AcDbEntity
  8
1
  6
CONTINUOUS
370
50
 62
4
100
AcDbLine
 10
44.923073
 20
0.026306
 30
0.0
 11
44.917988
 21
0.026389
 31
0.0
  0
LINE
  5
754
330
1F
100
AcDbEntity
  8
1
  6
CONTINUOUS
370
50
 62
4
100
AcDbLine
 10
44.683533
 20
-0.02352
 30
0.0
 11
44.682339
 21
-0.023501
 31
0.0
  0
LINE
  5
755
330
1F
100
AcDbEntity
  8
1
  6
CONTINUOUS
370
50
 62
4
100
AcDbLine
 10
44.928421
 20
0.026226
 30
0.0
 11
44.923073
 21
0.026306
 31
0.0
  0
LINE
  5
756
330
1F
100
AcDbEntity
  8
1
  6
CONTINUOUS
370
50
 62
4
100
AcDbLine
 10
44.96090299999999
 20
0.026112
 30
0.0
 11
44.957539
 21
0.026159
 31
0.0
  0
LINE
  5
757
330
1F
100
AcDbEntity
  8
1
  6
CONTINUOUS
370
50
 62
4
100
AcDbLine
 10
44.932785
 20
0.026169
 30
0.0
 11
44.928421
 21
0.026226
 31
0.0
  0
LINE
  5
758
330
1F
100
AcDbEntity
  8
1
  6
CONTINUOUS
370
50
 62
4
100
AcDbLine
 10
44.938164
 20
0.026111
 30
0.0
 11
44.932785
 21
0.026169
 31
0.0
  0
LINE
  5
759
330
1F
100
AcDbEntity
  8
1
  6
CONTINUOUS
370
50
 62
4
100
AcDbLine
 10
44.778286
 20
0.041469
 30
0.0
 11
44.770233
 21
0.041553
 31
0.0
  0
LINE
  5
75A
330
1F
100
AcDbEntity
  8
1
  6
CONTINUOUS
370
50
 62
4
100
AcDbLine
 10
44.774288
 20
-0.049912
 30
0.0
 11
44.767841
 21
-0.049863
 31
0.0
  0
LINE
  5
75B
330
1F
100
AcDbEntity
  8
1
  6
CONTINUOUS
370
50
 62
4
100
AcDbLine
 10
44.705597
 20
-0.026137
 30
0.0
 11
44.70459
 21
-0.02613
 31
0.0
  0
LINE
  5
75C
330
1F
100
AcDbEntity
  8
1
  6
CONTINUOUS
370
50
 62
4
100
AcDbLine
 10
44.945812
 20
0.026059
 30
0.0
 11
44.938164
 21
0.026111
 31
0.0
  0
LINE
  5
75D
330
1F
100
AcDbEntity
  8
1
  6
CONTINUOUS
370
50
 62
4
100
AcDbLine
 10
44.70459
 20
-0.02613
 30
0.0
 11
44.703663
 21
-0.026124
 31
0.0
  0
LINE
  5
75E
330
1F
100
AcDbEntity
  8
1
  6
CONTINUOUS
370
50
 62
4
100
AcDbLine
 10
44.73035
 20
0.026354
 30
0.0
 11
44.725807
 21
0.026382
 31
0.0
  0
LINE
  5
75F
330
1F
100
AcDbEntity
  8
1
  6
CONTINUOUS
370
50
 62
4
100
AcDbLine
 10
44.703663
 20
-0.026124
 30
0.0
 11
44.702763
 21
-0.026119
 31
0.0
  0
LINE
  5
760
330
1F
100
AcDbEntity
  8
1
  6
CONTINUOUS
370
50
 62
4
100
AcDbLine
 10
44.702763
 20
-0.026119
 30
0.0
 11
44.701847
 21
-0.026115
 31
0.0
  0
LINE
  5
761
330
1F
100
AcDbEntity
  8
1
  6
CONTINUOUS
370
50
 62
4
100
AcDbLine
 10
44.701847
 20
-0.026115
 30
0.0
 11
44.700924
 21
-0.026111
 31
0.0
  0
LINE
  5
762
330
1F
100
AcDbEntity
  8
1
  6
CONTINUOUS
370
50
 62
4
100
AcDbLine
 10
44.948669
 20
0.026048
 30
0.0
 11
44.945812
 21
0.026059
 31
0.0
  0
LINE
  5
763
330
1F
100
AcDbEntity
  8
1
  6
CONTINUOUS
370
50
 62
4
100
AcDbLine
 10
44.795887
 20
0.049895
 30
0.0
 11
44.789955
 21
0.049915
 31
0.0
  0
LINE
  5
764
330
1F
100
AcDbEntity
  8
1
  6
CONTINUOUS
370
50
 62
4
100
AcDbLine
 10
44.700924
 20
-0.026111
 30
0.0
 11
44.700005
 21
-0.026108
 31
0.0
  0
LINE
  5
765
330
1F
100
AcDbEntity
  8
1
  6
CONTINUOUS
370
50
 62
4
100
AcDbLine
 10
44.953121
 20
0.026043
 30
0.0
 11
44.948669
 21
0.026048
 31
0.0
  0
LINE
  5
766
330
1F
100
AcDbEntity
  8
1
  6
CONTINUOUS
370
50
 62
4
100
AcDbLine
 10
44.792233
 20
-0.049931
 30
0.0
 11
44.772293
 21
-0.049924
 31
0.0
  0
LINE
  5
767
330
1F
100
AcDbEntity
  8
1
  6
CONTINUOUS
370
50
 62
4
100
AcDbLine
 10
44.999855
 20
-0.05
 30
0.0
 11
45.0
 21
-0.05
 31
0.0
  0
LINE
  5
768
330
1F
100
AcDbEntity
  8
1
  6
CONTINUOUS
370
50
 62
4
100
AcDbLine
 10
44.299999
 20
-0.04995
 30
0.0
 11
44.663788
 21
-0.04995
 31
0.0
  0
LINE
  5
769
330
1F
100
AcDbEntity
  8
1
  6
CONTINUOUS
370
50
 62
4
100
AcDbLine
 10
44.299999
 20
0.04995
 30
0.0
 11
44.663788
 21
0.04995
 31
0.0
  0
LINE
  5
76A
330
1F
100
AcDbEntity
  8
1
  6
CONTINUOUS
370
50
 62
4
100
AcDbLine
 10
44.772289
 20
0.049924
 30
0.0
 11
44.792072
 21
0.049931
 31
0.0
  0
LINE
  5
76B
330
1F
100
AcDbEntity
  8
1
  6
CONTINUOUS
370
50
 62
4
100
AcDbLine
 10
44.896774
 20
-0.026591
 30
0.0
 11
44.905567
 21
-0.026581
 31
0.0
  0
LINE
  5
76C
330
1F
100
AcDbEntity
  8
1
  6
CONTINUOUS
370
50
 62
4
100
AcDbLine
 10
44.953121
 20
0.026043
 30
0.0
 11
44.957535
 21
0.026051
 31
0.0
  0
LINE
  5
76D
330
1F
100
AcDbEntity
  8
1
  6
CONTINUOUS
370
50
 62
4
100
AcDbLine
 10
44.701897
 20
0.026115
 30
0.0
 11
44.706169
 21
0.026141
 31
0.0
  0
LINE
  5
76E
330
1F
100
AcDbEntity
  8
1
  6
CONTINUOUS
370
50
 62
4
100
AcDbLine
 10
44.706169
 20
0.026141
 30
0.0
 11
44.708813
 21
0.026162
 31
0.0
  0
LINE
  5
76F
330
1F
100
AcDbEntity
  8
1
  6
CONTINUOUS
370
50
 62
4
100
AcDbLine
 10
44.767624
 20
0.049857
 30
0.0
 11
44.774273
 21
0.049912
 31
0.0
  0
LINE
  5
770
330
1F
100
AcDbEntity
  8
1
  6
CONTINUOUS
370
50
 62
4
100
AcDbLine
 10
44.708813
 20
0.026162
 30
0.0
 11
44.712166
 21
0.026196
 31
0.0
  0
LINE
  5
771
330
1F
100
AcDbEntity
  8
1
  6
CONTINUOUS
370
50
 62
4
100
AcDbLine
 10
44.712166
 20
0.026196
 30
0.0
 11
44.716484
 21
0.026248
 31
0.0
  0
LINE
  5
772
330
1F
100
AcDbEntity
  8
1
  6
CONTINUOUS
370
50
 62
4
100
AcDbLine
 10
44.927288
 20
-0.026242
 30
0.0
 11
44.93124
 21
-0.026188
 31
0.0
  0
LINE
  5
773
330
1F
100
AcDbEntity
  8
1
  6
CONTINUOUS
370
50
 62
4
100
AcDbLine
 10
44.716484
 20
0.026248
 30
0.0
 11
44.718807
 21
0.02628
 31
0.0
  0
LINE
  5
774
330
1F
100
AcDbEntity
  8
1
  6
CONTINUOUS
370
50
 62
4
100
AcDbLine
 10
44.718807
 20
0.02628
 30
0.0
 11
44.722252
 21
0.026329
 31
0.0
  0
LINE
  5
775
330
1F
100
AcDbEntity
  8
1
  6
CONTINUOUS
370
50
 62
4
100
AcDbLine
 10
44.722252
 20
0.026329
 30
0.0
 11
44.725803
 21
0.026382
 31
0.0
  0
LINE
  5
776
330
1F
100
AcDbEntity
  8
1
  6
CONTINUOUS
370
50
 62
4
100
AcDbLine
 10
44.92274099999999
 20
-0.026311
 30
0.0
 11
44.927288
 21
-0.026242
 31
0.0
  0
LINE
  5
777
330
1F
100
AcDbEntity
  8
1
  6
CONTINUOUS
370
50
 62
4
100
AcDbLine
 10
44.91843799999999
 20
-0.026382
 30
0.0
 11
44.92274099999999
 21
-0.026311
 31
0.0
  0
LINE
  5
778
330
1F
100
AcDbEntity
  8
1
  6
CONTINUOUS
370
50
 62
4
100
AcDbLine
 10
44.905563
 20
-0.026598
 30
0.0
 11
44.910202
 21
-0.026521
 31
0.0
  0
LINE
  5
779
330
1F
100
AcDbEntity
  8
1
  6
CONTINUOUS
370
50
 62
4
100
AcDbLine
 10
44.914326
 20
-0.026451
 30
0.0
 11
44.91843799999999
 21
-0.026382
 31
0.0
  0
LINE
  5
77A
330
1F
100
AcDbEntity
  8
1
  6
CONTINUOUS
370
50
 62
4
100
AcDbLine
 10
44.910202
 20
-0.026521
 30
0.0
 11
44.914326
 21
-0.026451
 31
0.0
  0
LINE
  5
77B
330
1F
100
AcDbEntity
  8
1
  6
CONTINUOUS
370
50
 62
4
100
AcDbLine
 10
44.792801
 20
-0.049956
 30
0.0
 11
44.797794
 21
-0.049861
 31
0.0
  0
LINE
  5
77C
330
1F
100
AcDbEntity
  8
1
  6
CONTINUOUS
370
50
 62
4
100
AcDbLine
 10
44.683533
 20
-0.02352
 30
0.0
 11
44.684723
 21
-0.023493
 31
0.0
  0
LINE
  5
77D
330
1F
100
AcDbEntity
  8
1
  6
CONTINUOUS
370
50
 62
4
100
AcDbLine
 10
44.826637
 20
0.010908
 30
0.0
 11
44.827057
 21
0.010921
 31
0.0
  0
LINE
  5
77E
330
1F
100
AcDbEntity
  8
1
  6
CONTINUOUS
370
50
 62
4
100
AcDbLine
 10
44.76218
 20
0.041252
 30
0.0
 11
44.770233
 21
0.041553
 31
0.0
  0
LINE
  5
77F
330
1F
100
AcDbEntity
  8
1
  6
CONTINUOUS
370
50
 62
4
100
AcDbLine
 10
44.663754
 20
-0.049949
 30
0.0
 11
44.66431
 21
-0.049921
 31
0.0
  0
LINE
  5
780
330
1F
100
AcDbEntity
  8
1
  6
CONTINUOUS
370
50
 62
4
100
AcDbLine
 10
44.797794
 20
-0.049861
 30
0.0
 11
44.802757
 21
-0.049609
 31
0.0
  0
LINE
  5
781
330
1F
100
AcDbEntity
  8
1
  6
CONTINUOUS
370
50
 62
4
100
AcDbLine
 10
44.760803
 20
0.049494
 30
0.0
 11
44.767624
 21
0.049857
 31
0.0
  0
LINE
  5
782
330
1F
100
AcDbEntity
  8
1
  6
CONTINUOUS
370
50
 62
4
100
AcDbLine
 10
44.684723
 20
-0.023493
 30
0.0
 11
44.685913
 21
-0.023421
 31
0.0
  0
LINE
  5
783
330
1F
100
AcDbEntity
  8
1
  6
CONTINUOUS
370
50
 62
4
100
AcDbLine
 10
44.979034
 20
0.024411
 30
0.0
 11
44.979511
 21
0.024444
 31
0.0
  0
LINE
  5
784
330
1F
100
AcDbEntity
  8
1
  6
CONTINUOUS
370
50
 62
4
100
AcDbLine
 10
44.906464
 20
-0.027111
 30
0.0
 11
44.911076
 21
-0.026775
 31
0.0
  0
LINE
  5
785
330
1F
100
AcDbEntity
  8
1
  6
CONTINUOUS
370
50
 62
4
100
AcDbLine
 10
44.701263
 20
-0.026166
 30
0.0
 11
44.70158
 21
-0.026141
 31
0.0
  0
LINE
  5
786
330
1F
100
AcDbEntity
  8
1
  6
CONTINUOUS
370
50
 62
4
100
AcDbLine
 10
44.700634
 20
-0.026217
 30
0.0
 11
44.700947
 21
-0.026192
 31
0.0
  0
LINE
  5
787
330
1F
100
AcDbEntity
  8
1
  6
CONTINUOUS
370
50
 62
4
100
AcDbLine
 10
44.70158
 20
-0.026141
 30
0.0
 11
44.701893
 21
-0.026116
 31
0.0
  0
LINE
  5
788
330
1F
100
AcDbEntity
  8
1
  6
CONTINUOUS
370
50
 62
4
100
AcDbLine
 10
44.700317
 20
-0.026243
 30
0.0
 11
44.700634
 21
-0.026217
 31
0.0
  0
LINE
  5
789
330
1F
100
AcDbEntity
  8
1
  6
CONTINUOUS
370
50
 62
4
100
AcDbLine
 10
44.700947
 20
-0.026192
 30
0.0
 11
44.701263
 21
-0.026166
 31
0.0
  0
LINE
  5
78A
330
1F
100
AcDbEntity
  8
1
  6
CONTINUOUS
370
50
 62
4
100
AcDbLine
 10
44.700005
 20
-0.026269
 30
0.0
 11
44.700317
 21
-0.026243
 31
0.0
  0
LINE
  5
78B
330
1F
100
AcDbEntity
  8
1
  6
CONTINUOUS
370
50
 62
4
100
AcDbLine
 10
44.802757
 20
-0.049609
 30
0.0
 11
44.807652
 21
-0.049192
 31
0.0
  0
LINE
  5
78C
330
1F
100
AcDbEntity
  8
1
  6
CONTINUOUS
370
50
 62
4
100
AcDbLine
 10
44.898796
 20
-0.027782
 30
0.0
 11
44.906464
 21
-0.027111
 31
0.0
  0
LINE
  5
78D
330
1F
100
AcDbEntity
  8
1
  6
CONTINUOUS
370
50
 62
4
100
AcDbLine
 10
44.754128
 20
0.040506
 30
0.0
 11
44.76218
 21
0.041252
 31
0.0
  0
LINE
  5
78E
330
1F
100
AcDbEntity
  8
1
  6
CONTINUOUS
370
50
 62
4
100
AcDbLine
 10
44.685913
 20
-0.023421
 30
0.0
 11
44.687096
 21
-0.023303
 31
0.0
  0
LINE
  5
78F
330
1F
100
AcDbEntity
  8
1
  6
CONTINUOUS
370
50
 62
4
100
AcDbLine
 10
44.894611
 20
-0.028215
 30
0.0
 11
44.898796
 21
-0.027782
 31
0.0
  0
LINE
  5
790
330
1F
100
AcDbEntity
  8
1
  6
CONTINUOUS
370
50
 62
4
100
AcDbLine
 10
44.753777
 20
0.04871
 30
0.0
 11
44.760803
 21
0.049494
 31
0.0
  0
LINE
  5
791
330
1F
100
AcDbEntity
  8
1
  6
CONTINUOUS
370
50
 62
4
100
AcDbLine
 10
44.890594
 20
-0.028696
 30
0.0
 11
44.894611
 21
-0.028215
 31
0.0
  0
LINE
  5
792
330
1F
100
AcDbEntity
  8
1
  6
CONTINUOUS
370
50
 62
4
100
AcDbLine
 10
44.807652
 20
-0.049192
 30
0.0
 11
44.812435
 21
-0.048601
 31
0.0
  0
LINE
  5
793
330
1F
100
AcDbEntity
  8
1
  6
CONTINUOUS
370
50
 62
4
100
AcDbLine
 10
44.885532
 20
-0.029386
 30
0.0
 11
44.890594
 21
-0.028696
 31
0.0
  0
LINE
  5
794
330
1F
100
AcDbEntity
  8
1
  6
CONTINUOUS
370
50
 62
4
100
AcDbLine
 10
44.687096
 20
-0.023303
 30
0.0
 11
44.688251
 21
-0.023143
 31
0.0
  0
LINE
  5
795
330
1F
100
AcDbEntity
  8
1
  6
CONTINUOUS
370
50
 62
4
100
AcDbLine
 10
44.880558
 20
-0.030181
 30
0.0
 11
44.885532
 21
-0.029386
 31
0.0
  0
LINE
  5
796
330
1F
100
AcDbEntity
  8
1
  6
CONTINUOUS
370
50
 62
4
100
AcDbLine
 10
44.746075
 20
0.039217
 30
0.0
 11
44.754128
 21
0.040506
 31
0.0
  0
LINE
  5
797
330
1F
100
AcDbEntity
  8
1
  6
CONTINUOUS
370
50
 62
4
100
AcDbLine
 10
44.812435
 20
-0.048601
 30
0.0
 11
44.81692899999999
 21
-0.047851
 31
0.0
  0
LINE
  5
798
330
1F
100
AcDbEntity
  8
1
  6
CONTINUOUS
370
50
 62
4
100
AcDbLine
 10
44.688251
 20
-0.023143
 30
0.0
 11
44.689377
 21
-0.022941
 31
0.0
  0
LINE
  5
799
330
1F
100
AcDbEntity
  8
1
  6
CONTINUOUS
370
50
 62
4
100
AcDbLine
 10
44.66431
 20
-0.049921
 30
0.0
 11
44.664822
 21
-0.049826
 31
0.0
  0
LINE
  5
79A
330
1F
100
AcDbEntity
  8
1
  6
CONTINUOUS
370
50
 62
4
100
AcDbLine
 10
44.746635
 20
0.047384
 30
0.0
 11
44.753777
 21
0.04871
 31
0.0
  0
LINE
  5
79B
330
1F
100
AcDbEntity
  8
1
  6
CONTINUOUS
370
50
 62
4
100
AcDbLine
 10
44.875114
 20
-0.031202
 30
0.0
 11
44.880558
 21
-0.030181
 31
0.0
  0
LINE
  5
79C
330
1F
100
AcDbEntity
  8
1
  6
CONTINUOUS
370
50
 62
4
100
AcDbLine
 10
44.873619
 20
-0.031505
 30
0.0
 11
44.875114
 21
-0.031202
 31
0.0
  0
LINE
  5
79D
330
1F
100
AcDbEntity
  8
1
  6
CONTINUOUS
370
50
 62
4
100
AcDbLine
 10
44.81692899999999
 20
-0.047851
 30
0.0
 11
44.82106
 21
-0.046966
 31
0.0
  0
LINE
  5
79E
330
1F
100
AcDbEntity
  8
1
  6
CONTINUOUS
370
50
 62
4
100
AcDbLine
 10
44.689377
 20
-0.022941
 30
0.0
 11
44.690472
 21
-0.022701
 31
0.0
  0
LINE
  5
79F
330
1F
100
AcDbEntity
  8
1
  6
CONTINUOUS
370
50
 62
4
100
AcDbLine
 10
44.870377
 20
-0.032226
 30
0.0
 11
44.873619
 21
-0.031505
 31
0.0
  0
LINE
  5
7A0
330
1F
100
AcDbEntity
  8
1
  6
CONTINUOUS
370
50
 62
4
100
AcDbLine
 10
44.69571699999999
 20
-0.025397
 30
0.0
 11
44.700001
 21
-0.024434
 31
0.0
  0
LINE
  5
7A1
330
1F
100
AcDbEntity
  8
1
  6
CONTINUOUS
370
50
 62
4
100
AcDbLine
 10
44.97691
 20
0.047131
 30
0.0
 11
44.986618
 21
0.049336
 31
0.0
  0
LINE
  5
7A2
330
1F
100
AcDbEntity
  8
1
  6
CONTINUOUS
370
50
 62
4
100
AcDbLine
 10
44.979511
 20
0.024444
 30
0.0
 11
44.979946
 21
0.024546
 31
0.0
  0
LINE
  5
7A3
330
1F
100
AcDbEntity
  8
1
  6
CONTINUOUS
370
50
 62
4
100
AcDbLine
 10
44.865131
 20
-0.033522
 30
0.0
 11
44.870377
 21
-0.032226
 31
0.0
  0
LINE
  5
7A4
330
1F
100
AcDbEntity
  8
1
  6
CONTINUOUS
370
50
 62
4
100
AcDbLine
 10
44.738018
 20
0.037223
 30
0.0
 11
44.746075
 21
0.039217
 31
0.0
  0
LINE
  5
7A5
330
1F
100
AcDbEntity
  8
1
  6
CONTINUOUS
370
50
 62
4
100
AcDbLine
 10
44.82106
 20
-0.046968
 30
0.0
 11
44.825779
 21
-0.045796
 31
0.0
  0
LINE
  5
7A6
330
1F
100
AcDbEntity
  8
1
  6
CONTINUOUS
370
50
 62
4
100
AcDbLine
 10
44.974121
 20
0.03811
 30
0.0
 11
44.980095
 21
0.039665
 31
0.0
  0
LINE
  5
7A7
330
1F
100
AcDbEntity
  8
1
  6
CONTINUOUS
370
50
 62
4
100
AcDbLine
 10
44.690472
 20
-0.022701
 30
0.0
 11
44.691525
 21
-0.022423
 31
0.0
  0
LINE
  5
7A8
330
1F
100
AcDbEntity
  8
1
  6
CONTINUOUS
370
50
 62
4
100
AcDbLine
 10
44.864025
 20
-0.033816
 30
0.0
 11
44.865131
 21
-0.033522
 31
0.0
  0
LINE
  5
7A9
330
1F
100
AcDbEntity
  8
1
  6
CONTINUOUS
370
50
 62
4
100
AcDbLine
 10
44.69714399999999
 20
-0.027255
 30
0.0
 11
44.700001
 21
-0.026494
 31
0.0
  0
LINE
  5
7AA
330
1F
100
AcDbEntity
  8
1
  6
CONTINUOUS
370
50
 62
4
100
AcDbLine
 10
44.825779
 20
-0.045796
 30
0.0
 11
44.830276
 21
-0.044593
 31
0.0
  0
LINE
  5
7AB
330
1F
100
AcDbEntity
  8
1
  6
CONTINUOUS
370
50
 62
4
100
AcDbLine
 10
44.691582
 20
-0.026506
 30
0.0
 11
44.69571699999999
 21
-0.025397
 31
0.0
  0
LINE
  5
7AC
330
1F
100
AcDbEntity
  8
1
  6
CONTINUOUS
370
50
 62
4
100
AcDbLine
 10
44.636623
 20
0.017164
 30
0.0
 11
44.636993
 21
0.017264
 31
0.0
  0
LINE
  5
7AD
330
1F
100
AcDbEntity
  8
1
  6
CONTINUOUS
370
50
 62
4
100
AcDbLine
 10
37.099998
 20
-1.99995
 30
0.0
 11
44.299999
 21
-0.04995
 31
0.0
  0
LINE
  5
7AE
330
1F
100
AcDbEntity
  8
1
  6
CONTINUOUS
370
50
 62
4
100
AcDbLine
 10
44.739468
 20
0.045392
 30
0.0
 11
44.746635
 21
0.047384
 31
0.0
  0
LINE
  5
7AF
330
1F
100
AcDbEntity
  8
1
  6
CONTINUOUS
370
50
 62
4
100
AcDbLine
 10
44.860653
 20
-0.034774
 30
0.0
 11
44.864025
 21
-0.033816
 31
0.0
  0
LINE
  5
7B0
330
1F
100
AcDbEntity
  8
1
  6
CONTINUOUS
370
50
 62
4
100
AcDbLine
 10
44.830276
 20
-0.044593
 30
0.0
 11
44.835648
 21
-0.043037
 31
0.0
  0
LINE
  5
7B1
330
1F
100
AcDbEntity
  8
1
  6
CONTINUOUS
370
50
 62
4
100
AcDbLine
 10
44.691525
 20
-0.022423
 30
0.0
 11
44.692539
 21
-0.02211
 31
0.0
  0
LINE
  5
7B2
330
1F
100
AcDbEntity
  8
1
  6
CONTINUOUS
370
50
 62
4
100
AcDbLine
 10
44.687588
 20
-0.027743
 30
0.0
 11
44.691582
 21
-0.026506
 31
0.0
  0
LINE
  5
7B3
330
1F
100
AcDbEntity
  8
1
  6
CONTINUOUS
370
50
 62
4
100
AcDbLine
 10
44.85575499999999
 20
-0.036293
 30
0.0
 11
44.860653
 21
-0.034774
 31
0.0
  0
LINE
  5
7B4
330
1F
100
AcDbEntity
  8
1
  6
CONTINUOUS
370
50
 62
4
100
AcDbLine
 10
44.835648
 20
-0.043037
 30
0.0
 11
44.839489
 21
-0.041842
 31
0.0
  0
LINE
  5
7B5
330
1F
100
AcDbEntity
  8
1
  6
CONTINUOUS
370
50
 62
4
100
AcDbLine
 10
44.968151
 20
0.036211
 30
0.0
 11
44.974121
 21
0.03811
 31
0.0
  0
LINE
  5
7B6
330
1F
100
AcDbEntity
  8
1
  6
CONTINUOUS
370
50
 62
4
100
AcDbLine
 10
44.694252
 20
-0.028192
 30
0.0
 11
44.69714399999999
 21
-0.027255
 31
0.0
  0
LINE
  5
7B7
330
1F
100
AcDbEntity
  8
1
  6
CONTINUOUS
370
50
 62
4
100
AcDbLine
 10
44.839489
 20
-0.041842
 30
0.0
 11
44.842537
 21
-0.040849
 31
0.0
  0
LINE
  5
7B8
330
1F
100
AcDbEntity
  8
1
  6
CONTINUOUS
370
50
 62
4
100
AcDbLine
 10
44.854916
 20
-0.036567
 30
0.0
 11
44.85575499999999
 21
-0.036293
 31
0.0
  0
LINE
  5
7B9
330
1F
100
AcDbEntity
  8
1
  6
CONTINUOUS
370
50
 62
4
100
AcDbLine
 10
44.636261
 20
0.017042
 30
0.0
 11
44.636623
 21
0.017164
 31
0.0
  0
LINE
  5
7BA
330
1F
100
AcDbEntity
  8
1
  6
CONTINUOUS
370
50
 62
4
100
AcDbLine
 10
44.842537
 20
-0.040849
 30
0.0
 11
44.84542099999999
 21
-0.039875
 31
0.0
  0
LINE
  5
7BB
330
1F
100
AcDbEntity
  8
1
  6
CONTINUOUS
370
50
 62
4
100
AcDbLine
 10
44.851814
 20
-0.037625
 30
0.0
 11
44.854916
 21
-0.036567
 31
0.0
  0
LINE
  5
7BC
330
1F
100
AcDbEntity
  8
1
  6
CONTINUOUS
370
50
 62
4
100
AcDbLine
 10
44.84542099999999
 20
-0.039875
 30
0.0
 11
44.847897
 21
-0.039012
 31
0.0
  0
LINE
  5
7BD
330
1F
100
AcDbEntity
  8
1
  6
CONTINUOUS
370
50
 62
4
100
AcDbLine
 10
44.962181
 20
0.034128
 30
0.0
 11
44.968151
 21
0.036211
 31
0.0
  0
LINE
  5
7BE
330
1F
100
AcDbEntity
  8
1
  6
CONTINUOUS
370
50
 62
4
100
AcDbLine
 10
44.683735
 20
-0.029091
 30
0.0
 11
44.687588
 21
-0.027743
 31
0.0
  0
LINE
  5
7BF
330
1F
100
AcDbEntity
  8
1
  6
CONTINUOUS
370
50
 62
4
100
AcDbLine
 10
44.664822
 20
-0.049826
 30
0.0
 11
44.665287
 21
-0.049663
 31
0.0
  0
LINE
  5
7C0
330
1F
100
AcDbEntity
  8
1
  6
CONTINUOUS
370
50
 62
4
100
AcDbLine
 10
44.847897
 20
-0.039012
 30
0.0
 11
44.851814
 21
-0.037625
 31
0.0
  0
LINE
  5
7C1
330
1F
100
AcDbEntity
  8
1
  6
CONTINUOUS
370
50
 62
4
100
AcDbLine
 10
44.692539
 20
-0.02211
 30
0.0
 11
44.693512
 21
-0.021764
 31
0.0
  0
LINE
  5
7C2
330
1F
100
AcDbEntity
  8
1
  6
CONTINUOUS
370
50
 62
4
100
AcDbLine
 10
44.729965
 20
0.03435
 30
0.0
 11
44.738018
 21
0.037223
 31
0.0
  0
LINE
  5
7C3
330
1F
100
AcDbEntity
  8
1
  6
CONTINUOUS
370
50
 62
4
100
AcDbLine
 10
44.956207
 20
0.031899
 30
0.0
 11
44.962181
 21
0.034128
 31
0.0
  0
LINE
  5
7C4
330
1F
100
AcDbEntity
  8
1
  6
CONTINUOUS
370
50
 62
4
100
AcDbLine
 10
44.969517
 20
0.044354
 30
0.0
 11
44.97691
 21
0.047131
 31
0.0
  0
LINE
  5
7C5
330
1F
100
AcDbEntity
  8
1
  6
CONTINUOUS
370
50
 62
4
100
AcDbLine
 10
44.69138299999999
 20
-0.029288
 30
0.0
 11
44.694252
 21
-0.028192
 31
0.0
  0
LINE
  5
7C6
330
1F
100
AcDbEntity
  8
1
  6
CONTINUOUS
370
50
 62
4
100
AcDbLine
 10
44.732548
 20
0.042698
 30
0.0
 11
44.739468
 21
0.045392
 31
0.0
  0
LINE
  5
7C7
330
1F
100
AcDbEntity
  8
1
  6
CONTINUOUS
370
50
 62
4
100
AcDbLine
 10
44.680031
 20
-0.030533
 30
0.0
 11
44.683735
 21
-0.029091
 31
0.0
  0
LINE
  5
7C8
330
1F
100
AcDbEntity
  8
1
  6
CONTINUOUS
370
50
 62
4
100
AcDbLine
 10
44.636993
 20
0.017264
 30
0.0
 11
44.639141
 21
0.018105
 31
0.0
  0
LINE
  5
7C9
330
1F
100
AcDbEntity
  8
1
  6
CONTINUOUS
370
50
 62
4
100
AcDbLine
 10
44.950237
 20
0.029558
 30
0.0
 11
44.956207
 21
0.031899
 31
0.0
  0
LINE
  5
7CA
330
1F
100
AcDbEntity
  8
1
  6
CONTINUOUS
370
50
 62
4
100
AcDbLine
 10
44.944267
 20
0.027143
 30
0.0
 11
44.950237
 21
0.029558
 31
0.0
  0
LINE
  5
7CB
330
1F
100
AcDbEntity
  8
1
  6
CONTINUOUS
370
50
 62
4
100
AcDbLine
 10
44.635906
 20
0.016898
 30
0.0
 11
44.636261
 21
0.017042
 31
0.0
  0
LINE
  5
7CC
330
1F
100
AcDbEntity
  8
1
  6
CONTINUOUS
370
50
 62
4
100
AcDbLine
 10
44.693512
 20
-0.021764
 30
0.0
 11
44.694443
 21
-0.021386
 31
0.0
  0
LINE
  5
7CD
330
1F
100
AcDbEntity
  8
1
  6
CONTINUOUS
370
50
 62
4
100
AcDbLine
 10
44.676464
 20
-0.03205
 30
0.0
 11
44.680031
 21
-0.030533
 31
0.0
  0
LINE
  5
7CE
330
1F
100
AcDbEntity
  8
1
  6
CONTINUOUS
370
50
 62
4
100
AcDbLine
 10
44.979946
 20
0.024546
 30
0.0
 11
44.980343
 21
0.024716
 31
0.0
  0
LINE
  5
7CF
330
1F
100
AcDbEntity
  8
1
  6
CONTINUOUS
370
50
 62
4
100
AcDbLine
 10
44.688545
 20
-0.03054
 30
0.0
 11
44.69138299999999
 21
-0.029288
 31
0.0
  0
LINE
  5
7D0
330
1F
100
AcDbEntity
  8
1
  6
CONTINUOUS
370
50
 62
4
100
AcDbLine
 10
44.961395
 20
0.040729
 30
0.0
 11
44.969517
 21
0.044354
 31
0.0
  0
LINE
  5
7D1
330
1F
100
AcDbEntity
  8
1
  6
CONTINUOUS
370
50
 62
4
100
AcDbLine
 10
44.639141
 20
0.018105
 30
0.0
 11
44.641232
 21
0.019045
 31
0.0
  0
LINE
  5
7D2
330
1F
100
AcDbEntity
  8
1
  6
CONTINUOUS
370
50
 62
4
100
AcDbLine
 10
44.673046
 20
-0.033626
 30
0.0
 11
44.676464
 21
-0.03205
 31
0.0
  0
LINE
  5
7D3
330
1F
100
AcDbEntity
  8
1
  6
CONTINUOUS
370
50
 62
4
100
AcDbLine
 10
44.694443
 20
-0.021386
 30
0.0
 11
44.695316
 21
-0.02098
 31
0.0
  0
LINE
  5
7D4
330
1F
100
AcDbEntity
  8
1
  6
CONTINUOUS
370
50
 62
4
100
AcDbLine
 10
44.721916
 20
0.03049
 30
0.0
 11
44.729965
 21
0.03435
 31
0.0
  0
LINE
  5
7D5
330
1F
100
AcDbEntity
  8
1
  6
CONTINUOUS
370
50
 62
4
100
AcDbLine
 10
44.931168
 20
0.026174
 30
0.0
 11
44.941681
 21
0.031218
 31
0.0
  0
LINE
  5
7D6
330
1F
100
AcDbEntity
  8
1
  6
CONTINUOUS
370
50
 62
4
100
AcDbLine
 10
44.952068
 20
0.036252
 30
0.0
 11
44.961395
 21
0.040729
 31
0.0
  0
LINE
  5
7D7
330
1F
100
AcDbEntity
  8
1
  6
CONTINUOUS
370
50
 62
4
100
AcDbLine
 10
44.941681
 20
0.031218
 30
0.0
 11
44.952068
 21
0.036252
 31
0.0
  0
LINE
  5
7D8
330
1F
100
AcDbEntity
  8
1
  6
CONTINUOUS
370
50
 62
4
100
AcDbLine
 10
44.67186
 20
-0.034202
 30
0.0
 11
44.673046
 21
-0.033626
 31
0.0
  0
LINE
  5
7D9
330
1F
100
AcDbEntity
  8
1
  6
CONTINUOUS
370
50
 62
4
100
AcDbLine
 10
44.63556699999999
 20
0.016731
 30
0.0
 11
44.635906
 21
0.016898
 31
0.0
  0
LINE
  5
7DA
330
1F
100
AcDbEntity
  8
1
  6
CONTINUOUS
370
50
 62
4
100
AcDbLine
 10
44.68578
 20
-0.031929
 30
0.0
 11
44.688545
 21
-0.03054
 31
0.0
  0
LINE
  5
7DB
330
1F
100
AcDbEntity
  8
1
  6
CONTINUOUS
370
50
 62
4
100
AcDbLine
 10
44.670692
 20
-0.034791
 30
0.0
 11
44.67186
 21
-0.034202
 31
0.0
  0
LINE
  5
7DC
330
1F
100
AcDbEntity
  8
1
  6
CONTINUOUS
370
50
 62
4
100
AcDbLine
 10
44.726097
 20
0.039432
 30
0.0
 11
44.732548
 21
0.042698
 31
0.0
  0
LINE
  5
7DD
330
1F
100
AcDbEntity
  8
1
  6
CONTINUOUS
370
50
 62
4
100
AcDbLine
 10
44.641232
 20
0.019045
 30
0.0
 11
44.643261
 21
0.020076
 31
0.0
  0
LINE
  5
7DE
330
1F
100
AcDbEntity
  8
1
  6
CONTINUOUS
370
50
 62
4
100
AcDbLine
 10
44.66954399999999
 20
-0.035393
 30
0.0
 11
44.670692
 21
-0.034791
 31
0.0
  0
LINE
  5
7DF
330
1F
100
AcDbEntity
  8
1
  6
CONTINUOUS
370
50
 62
4
100
AcDbLine
 10
44.695316
 20
-0.02098
 30
0.0
 11
44.696133
 21
-0.02055
 31
0.0
  0
LINE
  5
7E0
330
1F
100
AcDbEntity
  8
1
  6
CONTINUOUS
370
50
 62
4
100
AcDbLine
 10
44.713867
 20
0.026216
 30
0.0
 11
44.721916
 21
0.03049
 31
0.0
  0
LINE
  5
7E1
330
1F
100
AcDbEntity
  8
1
  6
CONTINUOUS
370
50
 62
4
100
AcDbLine
 10
44.668419
 20
-0.036004
 30
0.0
 11
44.66954399999999
 21
-0.035393
 31
0.0
  0
LINE
  5
7E2
330
1F
100
AcDbEntity
  8
1
  6
CONTINUOUS
370
50
 62
4
100
AcDbLine
 10
44.667316
 20
-0.036625
 30
0.0
 11
44.668419
 21
-0.036004
 31
0.0
  0
LINE
  5
7E3
330
1F
100
AcDbEntity
  8
1
  6
CONTINUOUS
370
50
 62
4
100
AcDbLine
 10
44.665287
 20
-0.049663
 30
0.0
 11
44.665699
 21
-0.049431
 31
0.0
  0
LINE
  5
7E4
330
1F
100
AcDbEntity
  8
1
  6
CONTINUOUS
370
50
 62
4
100
AcDbLine
 10
44.643261
 20
0.020076
 30
0.0
 11
44.645233
 21
0.021188
 31
0.0
  0
LINE
  5
7E5
330
1F
100
AcDbEntity
  8
1
  6
CONTINUOUS
370
50
 62
4
100
AcDbLine
 10
44.996765
 20
0.020586
 30
0.0
 11
44.996811
 21
0.020612
 31
0.0
  0
LINE
  5
7E6
330
1F
100
AcDbEntity
  8
1
  6
CONTINUOUS
370
50
 62
4
100
AcDbLine
 10
44.683105
 20
-0.033443
 30
0.0
 11
44.68578
 21
-0.031929
 31
0.0
  0
LINE
  5
7E7
330
1F
100
AcDbEntity
  8
1
  6
CONTINUOUS
370
50
 62
4
100
AcDbLine
 10
44.635239
 20
0.016541
 30
0.0
 11
44.63556699999999
 21
0.016731
 31
0.0
  0
LINE
  5
7E8
330
1F
100
AcDbEntity
  8
1
  6
CONTINUOUS
370
50
 62
4
100
AcDbLine
 10
44.666241
 20
-0.037252
 30
0.0
 11
44.667316
 21
-0.036625
 31
0.0
  0
LINE
  5
7E9
330
1F
100
AcDbEntity
  8
1
  6
CONTINUOUS
370
50
 62
4
100
AcDbLine
 10
44.696133
 20
-0.02055
 30
0.0
 11
44.696888
 21
-0.020099
 31
0.0
  0
LINE
  5
7EA
330
1F
100
AcDbEntity
  8
1
  6
CONTINUOUS
370
50
 62
4
100
AcDbLine
 10
44.719719
 20
0.035589
 30
0.0
 11
44.726097
 21
0.039432
 31
0.0
  0
LINE
  5
7EB
330
1F
100
AcDbEntity
  8
1
  6
CONTINUOUS
370
50
 62
4
100
AcDbLine
 10
44.665195
 20
-0.037885
 30
0.0
 11
44.666241
 21
-0.037252
 31
0.0
  0
LINE
  5
7EC
330
1F
100
AcDbEntity
  8
1
  6
CONTINUOUS
370
50
 62
4
100
AcDbLine
 10
44.996811
 20
0.020612
 30
0.0
 11
44.996857
 21
0.02064
 31
0.0
  0
LINE
  5
7ED
330
1F
100
AcDbEntity
  8
1
  6
CONTINUOUS
370
50
 62
4
100
AcDbLine
 10
44.645233
 20
0.021188
 30
0.0
 11
44.647144
 21
0.022371
 31
0.0
  0
LINE
  5
7EE
330
1F
100
AcDbEntity
  8
1
  6
CONTINUOUS
370
50
 62
4
100
AcDbLine
 10
44.664177
 20
-0.038522
 30
0.0
 11
44.665195
 21
-0.037885
 31
0.0
  0
LINE
  5
7EF
330
1F
100
AcDbEntity
  8
1
  6
CONTINUOUS
370
50
 62
4
100
AcDbLine
 10
44.680542
 20
-0.035064
 30
0.0
 11
44.683105
 21
-0.033443
 31
0.0
  0
LINE
  5
7F0
330
1F
100
AcDbEntity
  8
1
  6
CONTINUOUS
370
50
 62
4
100
AcDbLine
 10
44.996857
 20
0.02064
 30
0.0
 11
44.996902
 21
0.020669
 31
0.0
  0
LINE
  5
7F1
330
1F
100
AcDbEntity
  8
1
  6
CONTINUOUS
370
50
 62
4
100
AcDbLine
 10
44.980343
 20
0.024716
 30
0.0
 11
44.980698
 21
0.024947
 31
0.0
  0
LINE
  5
7F2
330
1F
100
AcDbEntity
  8
1
  6
CONTINUOUS
370
50
 62
4
100
AcDbLine
 10
44.663197
 20
-0.039162
 30
0.0
 11
44.664177
 21
-0.038522
 31
0.0
  0
LINE
  5
7F3
330
1F
100
AcDbEntity
  8
1
  6
CONTINUOUS
370
50
 62
4
100
AcDbLine
 10
44.713005
 20
0.031159
 30
0.0
 11
44.719719
 21
0.035589
 31
0.0
  0
LINE
  5
7F4
330
1F
100
AcDbEntity
  8
1
  6
CONTINUOUS
370
50
 62
4
100
AcDbLine
 10
44.996944
 20
0.0207
 30
0.0
 11
44.99699
 21
0.020731
 31
0.0
  0
LINE
  5
7F5
330
1F
100
AcDbEntity
  8
1
  6
CONTINUOUS
370
50
 62
4
100
AcDbLine
 10
44.634926
 20
0.01633
 30
0.0
 11
44.635239
 21
0.016541
 31
0.0
  0
LINE
  5
7F6
330
1F
100
AcDbEntity
  8
1
  6
CONTINUOUS
370
50
 62
4
100
AcDbLine
 10
44.705551
 20
0.02613
 30
0.0
 11
44.713005
 21
0.031159
 31
0.0
  0
LINE
  5
7F7
330
1F
100
AcDbEntity
  8
1
  6
CONTINUOUS
370
50
 62
4
100
AcDbLine
 10
44.647144
 20
0.022371
 30
0.0
 11
44.648991
 21
0.023618
 31
0.0
  0
LINE
  5
7F8
330
1F
100
AcDbEntity
  8
1
  6
CONTINUOUS
370
50
 62
4
100
AcDbLine
 10
44.662258
 20
-0.039798
 30
0.0
 11
44.663197
 21
-0.039162
 31
0.0
  0
LINE
  5
7F9
330
1F
100
AcDbEntity
  8
1
  6
CONTINUOUS
370
50
 62
4
100
AcDbLine
 10
44.696888
 20
-0.020099
 30
0.0
 11
44.697578
 21
-0.019629
 31
0.0
  0
LINE
  5
7FA
330
1F
100
AcDbEntity
  8
1
  6
CONTINUOUS
370
50
 62
4
100
AcDbLine
 10
44.678116
 20
-0.036769
 30
0.0
 11
44.680542
 21
-0.035064
 31
0.0
  0
LINE
  5
7FB
330
1F
100
AcDbEntity
  8
1
  6
CONTINUOUS
370
50
 62
4
100
AcDbLine
 10
44.66137699999999
 20
-0.04042
 30
0.0
 11
44.662258
 21
-0.039798
 31
0.0
  0
LINE
  5
7FC
330
1F
100
AcDbEntity
  8
1
  6
CONTINUOUS
370
50
 62
4
100
AcDbLine
 10
44.648991
 20
0.023618
 30
0.0
 11
44.650768
 21
0.024918
 31
0.0
  0
LINE
  5
7FD
330
1F
100
AcDbEntity
  8
1
  6
CONTINUOUS
370
50
 62
4
100
AcDbLine
 10
44.660549
 20
-0.041027
 30
0.0
 11
44.66137699999999
 21
-0.04042
 31
0.0
  0
LINE
  5
7FE
330
1F
100
AcDbEntity
  8
1
  6
CONTINUOUS
370
50
 62
4
100
AcDbLine
 10
44.996902
 20
0.020669
 30
0.0
 11
44.996944
 21
0.0207
 31
0.0
  0
LINE
  5
7FF
330
1F
100
AcDbEntity
  8
1
  6
CONTINUOUS
370
50
 62
4
100
AcDbLine
 10
44.659782
 20
-0.041618
 30
0.0
 11
44.660549
 21
-0.041027
 31
0.0
  0
LINE
  5
800
330
1F
100
AcDbEntity
  8
1
  6
CONTINUOUS
370
50
 62
4
100
AcDbLine
 10
44.697578
 20
-0.019629
 30
0.0
 11
44.698208
 21
-0.019143
 31
0.0
  0
LINE
  5
801
330
1F
100
AcDbEntity
  8
1
  6
CONTINUOUS
370
50
 62
4
100
AcDbLine
 10
44.675835
 20
-0.038545
 30
0.0
 11
44.678116
 21
-0.036769
 31
0.0
  0
LINE
  5
802
330
1F
100
AcDbEntity
  8
1
  6
CONTINUOUS
370
50
 62
4
100
AcDbLine
 10
44.650768
 20
0.024918
 30
0.0
 11
44.652485
 21
0.026265
 31
0.0
  0
LINE
  5
803
330
1F
100
AcDbEntity
  8
1
  6
CONTINUOUS
370
50
 62
4
100
AcDbLine
 10
44.634632
 20
0.016099
 30
0.0
 11
44.634926
 21
0.01633
 31
0.0
  0
LINE
  5
804
330
1F
100
AcDbEntity
  8
1
  6
CONTINUOUS
370
50
 62
4
100
AcDbLine
 10
44.99699
 20
0.020731
 30
0.0
 11
44.997032
 21
0.020764
 31
0.0
  0
LINE
  5
805
330
1F
100
AcDbEntity
  8
1
  6
CONTINUOUS
370
50
 62
4
100
AcDbLine
 10
44.979431
 20
0.041691
 30
0.0
 11
44.980598
 21
0.042615
 31
0.0
  0
LINE
  5
806
330
1F
100
AcDbEntity
  8
1
  6
CONTINUOUS
370
50
 62
4
100
AcDbLine
 10
44.659069
 20
-0.042192
 30
0.0
 11
44.659782
 21
-0.041618
 31
0.0
  0
LINE
  5
807
330
1F
100
AcDbEntity
  8
1
  6
CONTINUOUS
370
50
 62
4
100
AcDbLine
 10
44.665699
 20
-0.049431
 30
0.0
 11
44.666058
 21
-0.04913
 31
0.0
  0
LINE
  5
808
330
1F
100
AcDbEntity
  8
1
  6
CONTINUOUS
370
50
 62
4
100
AcDbLine
 10
44.652485
 20
0.026265
 30
0.0
 11
44.65413299999999
 21
0.027652
 31
0.0
  0
LINE
  5
809
330
1F
100
AcDbEntity
  8
1
  6
CONTINUOUS
370
50
 62
4
100
AcDbLine
 10
44.658417
 20
-0.042748
 30
0.0
 11
44.659069
 21
-0.042192
 31
0.0
  0
LINE
  5
80A
330
1F
100
AcDbEntity
  8
1
  6
CONTINUOUS
370
50
 62
4
100
AcDbLine
 10
44.673733
 20
-0.040358
 30
0.0
 11
44.675835
 21
-0.038545
 31
0.0
  0
LINE
  5
80B
330
1F
100
AcDbEntity
  8
1
  6
CONTINUOUS
370
50
 62
4
100
AcDbLine
 10
44.980598
 20
0.042615
 30
0.0
 11
44.98172
 21
0.043608
 31
0.0
  0
LINE
  5
80C
330
1F
100
AcDbEntity
  8
1
  6
CONTINUOUS
370
50
 62
4
100
AcDbLine
 10
44.698208
 20
-0.019143
 30
0.0
 11
44.69876499999999
 21
-0.018644
 31
0.0
  0
LINE
  5
80D
330
1F
100
AcDbEntity
  8
1
  6
CONTINUOUS
370
50
 62
4
100
AcDbLine
 10
44.65413299999999
 20
0.027652
 30
0.0
 11
44.655712
 21
0.029069
 31
0.0
  0
LINE
  5
80E
330
1F
100
AcDbEntity
  8
1
  6
CONTINUOUS
370
50
 62
4
100
AcDbLine
 10
44.63435399999999
 20
0.015848
 30
0.0
 11
44.634632
 21
0.016099
 31
0.0
  0
LINE
  5
80F
330
1F
100
AcDbEntity
  8
1
  6
CONTINUOUS
370
50
 62
4
100
AcDbLine
 10
44.657825
 20
-0.043285
 30
0.0
 11
44.658417
 21
-0.042748
 31
0.0
  0
LINE
  5
810
330
1F
100
AcDbEntity
  8
1
  6
CONTINUOUS
370
50
 62
4
100
AcDbLine
 10
44.980698
 20
0.024947
 30
0.0
 11
44.98101
 21
0.025238
 31
0.0
  0
LINE
  5
811
330
1F
100
AcDbEntity
  8
1
  6
CONTINUOUS
370
50
 62
4
100
AcDbLine
 10
44.671799
 20
-0.042201
 30
0.0
 11
44.673733
 21
-0.040358
 31
0.0
  0
LINE
  5
812
330
1F
100
AcDbEntity
  8
1
  6
CONTINUOUS
370
50
 62
4
100
AcDbLine
 10
44.655712
 20
0.029069
 30
0.0
 11
44.657207
 21
0.030507
 31
0.0
  0
LINE
  5
813
330
1F
100
AcDbEntity
  8
1
  6
CONTINUOUS
370
50
 62
4
100
AcDbLine
 10
44.98172
 20
0.043608
 30
0.0
 11
44.982803
 21
0.044651
 31
0.0
  0
LINE
  5
814
330
1F
100
AcDbEntity
  8
1
  6
CONTINUOUS
370
50
 62
4
100
AcDbLine
 10
44.657291
 20
-0.043803
 30
0.0
 11
44.657825
 21
-0.043285
 31
0.0
  0
LINE
  5
815
330
1F
100
AcDbEntity
  8
1
  6
CONTINUOUS
370
50
 62
4
100
AcDbLine
 10
44.657207
 20
0.030507
 30
0.0
 11
44.65861899999999
 21
0.031956
 31
0.0
  0
LINE
  5
816
330
1F
100
AcDbEntity
  8
1
  6
CONTINUOUS
370
50
 62
4
100
AcDbLine
 10
44.69876499999999
 20
-0.018644
 30
0.0
 11
44.699253
 21
-0.018139
 31
0.0
  0
LINE
  5
817
330
1F
100
AcDbEntity
  8
1
  6
CONTINUOUS
370
50
 62
4
100
AcDbLine
 10
44.656811
 20
-0.044303
 30
0.0
 11
44.657291
 21
-0.043803
 31
0.0
  0
LINE
  5
818
330
1F
100
AcDbEntity
  8
1
  6
CONTINUOUS
370
50
 62
4
100
AcDbLine
 10
44.982803
 20
0.044651
 30
0.0
 11
44.983849
 21
0.045747
 31
0.0
  0
LINE
  5
819
330
1F
100
AcDbEntity
  8
1
  6
CONTINUOUS
370
50
 62
4
100
AcDbLine
 10
44.670063
 20
-0.044031
 30
0.0
 11
44.671799
 21
-0.042201
 31
0.0
  0
LINE
  5
81A
330
1F
100
AcDbEntity
  8
1
  6
CONTINUOUS
370
50
 62
4
100
AcDbLine
 10
44.63409799999999
 20
0.015578
 30
0.0
 11
44.63435399999999
 21
0.015848
 31
0.0
  0
LINE
  5
81B
330
1F
100
AcDbEntity
  8
1
  6
CONTINUOUS
370
50
 62
4
100
AcDbLine
 10
44.65861899999999
 20
0.031956
 30
0.0
 11
44.659939
 21
0.033409
 31
0.0
  0
LINE
  5
81C
330
1F
100
AcDbEntity
  8
1
  6
CONTINUOUS
370
50
 62
4
100
AcDbLine
 10
44.977402
 20
0.024235
 30
0.0
 11
44.977745
 21
0.024622
 31
0.0
  0
LINE
  5
81D
330
1F
100
AcDbEntity
  8
1
  6
CONTINUOUS
370
50
 62
4
100
AcDbLine
 10
44.656399
 20
-0.044773
 30
0.0
 11
44.656811
 21
-0.044303
 31
0.0
  0
LINE
  5
81E
330
1F
100
AcDbEntity
  8
1
  6
CONTINUOUS
370
50
 62
4
100
AcDbLine
 10
44.668724
 20
-0.045585
 30
0.0
 11
44.670063
 21
-0.044031
 31
0.0
  0
LINE
  5
81F
330
1F
100
AcDbEntity
  8
1
  6
CONTINUOUS
370
50
 62
4
100
AcDbLine
 10
44.983849
 20
0.045747
 30
0.0
 11
44.98483299999999
 21
0.046891
 31
0.0
  0
LINE
  5
820
330
1F
100
AcDbEntity
  8
1
  6
CONTINUOUS
370
50
 62
4
100
AcDbLine
 10
44.659939
 20
0.033409
 30
0.0
 11
44.66116299999999
 21
0.034854
 31
0.0
  0
LINE
  5
821
330
1F
100
AcDbEntity
  8
1
  6
CONTINUOUS
370
50
 62
4
100
AcDbLine
 10
44.633858
 20
0.01529
 30
0.0
 11
44.63409799999999
 21
0.015578
 31
0.0
  0
LINE
  5
822
330
1F
100
AcDbEntity
  8
1
  6
CONTINUOUS
370
50
 62
4
100
AcDbLine
 10
44.666058
 20
-0.04913
 30
0.0
 11
44.666359
 21
-0.04876
 31
0.0
  0
LINE
  5
823
330
1F
100
AcDbEntity
  8
1
  6
CONTINUOUS
370
50
 62
4
100
AcDbLine
 10
44.699253
 20
-0.018139
 30
0.0
 11
44.699665
 21
-0.017629
 31
0.0
  0
LINE
  5
824
330
1F
100
AcDbEntity
  8
1
  6
CONTINUOUS
370
50
 62
4
100
AcDbLine
 10
44.667538
 20
-0.047097
 30
0.0
 11
44.668724
 21
-0.045585
 31
0.0
  0
LINE
  5
825
330
1F
100
AcDbEntity
  8
1
  6
CONTINUOUS
370
50
 62
4
100
AcDbLine
 10
44.98101
 20
0.025238
 30
0.0
 11
44.981281
 21
0.025584
 31
0.0
  0
LINE
  5
826
330
1F
100
AcDbEntity
  8
1
  6
CONTINUOUS
370
50
 62
4
100
AcDbLine
 10
44.66116299999999
 20
0.034854
 30
0.0
 11
44.662277
 21
0.036281
 31
0.0
  0
LINE
  5
827
330
1F
100
AcDbEntity
  8
1
  6
CONTINUOUS
370
50
 62
4
100
AcDbLine
 10
44.656044
 20
-0.045232
 30
0.0
 11
44.656399
 21
-0.044773
 31
0.0
  0
LINE
  5
828
330
1F
100
AcDbEntity
  8
1
  6
CONTINUOUS
370
50
 62
4
100
AcDbLine
 10
44.98483299999999
 20
0.046891
 30
0.0
 11
44.98575599999999
 21
0.048085
 31
0.0
  0
LINE
  5
829
330
1F
100
AcDbEntity
  8
1
  6
CONTINUOUS
370
50
 62
4
100
AcDbLine
 10
44.667168
 20
-0.0476
 30
0.0
 11
44.667538
 21
-0.047097
 31
0.0
  0
LINE
  5
82A
330
1F
100
AcDbEntity
  8
1
  6
CONTINUOUS
370
50
 62
4
100
AcDbLine
 10
44.977093
 20
0.023805
 30
0.0
 11
44.977402
 21
0.024235
 31
0.0
  0
LINE
  5
82B
330
1F
100
AcDbEntity
  8
1
  6
CONTINUOUS
370
50
 62
4
100
AcDbLine
 10
44.662277
 20
0.036281
 30
0.0
 11
44.66328
 21
0.037677
 31
0.0
  0
LINE
  5
82C
330
1F
100
AcDbEntity
  8
1
  6
CONTINUOUS
370
50
 62
4
100
AcDbLine
 10
44.633644
 20
0.014986
 30
0.0
 11
44.633858
 21
0.01529
 31
0.0
  0
LINE
  5
82D
330
1F
100
AcDbEntity
  8
1
  6
CONTINUOUS
370
50
 62
4
100
AcDbLine
 10
44.666355
 20
-0.048761
 30
0.0
 11
44.667168
 21
-0.0476
 31
0.0
  0
LINE
  5
82E
330
1F
100
AcDbEntity
  8
1
  6
CONTINUOUS
370
50
 62
4
100
AcDbLine
 10
44.98575599999999
 20
0.048085
 30
0.0
 11
44.986618
 21
0.049336
 31
0.0
  0
LINE
  5
82F
330
1F
100
AcDbEntity
  8
1
  6
CONTINUOUS
370
50
 62
4
100
AcDbLine
 10
44.655743
 20
-0.045677
 30
0.0
 11
44.656044
 21
-0.045232
 31
0.0
  0
LINE
  5
830
330
1F
100
AcDbEntity
  8
1
  6
CONTINUOUS
370
50
 62
4
100
AcDbLine
 10
44.699665
 20
-0.017629
 30
0.0
 11
44.700001
 21
-0.017117
 31
0.0
  0
LINE
  5
831
330
1F
100
AcDbEntity
  8
1
  6
CONTINUOUS
370
50
 62
4
100
AcDbLine
 10
44.66328
 20
0.037677
 30
0.0
 11
44.664165
 21
0.039034
 31
0.0
  0
LINE
  5
832
330
1F
100
AcDbEntity
  8
1
  6
CONTINUOUS
370
50
 62
4
100
AcDbLine
 10
44.633453
 20
0.014669
 30
0.0
 11
44.633644
 21
0.014986
 31
0.0
  0
LINE
  5
833
330
1F
100
AcDbEntity
  8
1
  6
CONTINUOUS
370
50
 62
4
100
AcDbLine
 10
44.981281
 20
0.025584
 30
0.0
 11
44.981514
 21
0.02598
 31
0.0
  0
LINE
  5
834
330
1F
100
AcDbEntity
  8
1
  6
CONTINUOUS
370
50
 62
4
100
AcDbLine
 10
44.664165
 20
0.039034
 30
0.0
 11
44.664932
 21
0.040346
 31
0.0
  0
LINE
  5
835
330
1F
100
AcDbEntity
  8
1
  6
CONTINUOUS
370
50
 62
4
100
AcDbLine
 10
44.97681799999999
 20
0.023332
 30
0.0
 11
44.977093
 21
0.023805
 31
0.0
  0
LINE
  5
836
330
1F
100
AcDbEntity
  8
1
  6
CONTINUOUS
370
50
 62
4
100
AcDbLine
 10
44.655506
 20
-0.046106
 30
0.0
 11
44.655743
 21
-0.045677
 31
0.0
  0
LINE
  5
837
330
1F
100
AcDbEntity
  8
1
  6
CONTINUOUS
370
50
 62
4
100
AcDbLine
 10
44.664932
 20
0.040346
 30
0.0
 11
44.665577
 21
0.041608
 31
0.0
  0
LINE
  5
838
330
1F
100
AcDbEntity
  8
1
  6
CONTINUOUS
370
50
 62
4
100
AcDbLine
 10
44.633286
 20
0.014341
 30
0.0
 11
44.633453
 21
0.014669
 31
0.0
  0
LINE
  5
839
330
1F
100
AcDbEntity
  8
1
  6
CONTINUOUS
370
50
 62
4
100
AcDbLine
 10
44.976582
 20
0.022816
 30
0.0
 11
44.97681799999999
 21
0.023332
 31
0.0
  0
LINE
  5
83A
330
1F
100
AcDbEntity
  8
1
  6
CONTINUOUS
370
50
 62
4
100
AcDbLine
 10
44.981514
 20
0.02598
 30
0.0
 11
44.981709
 21
0.026426
 31
0.0
  0
LINE
  5
83B
330
1F
100
AcDbEntity
  8
1
  6
CONTINUOUS
370
50
 62
4
100
AcDbLine
 10
44.665577
 20
0.041608
 30
0.0
 11
44.666096
 21
0.042814
 31
0.0
  0
LINE
  5
83C
330
1F
100
AcDbEntity
  8
1
  6
CONTINUOUS
370
50
 62
4
100
AcDbLine
 10
44.63314099999999
 20
0.014
 30
0.0
 11
44.633286
 21
0.014341
 31
0.0
  0
LINE
  5
83D
330
1F
100
AcDbEntity
  8
1
  6
CONTINUOUS
370
50
 62
4
100
AcDbLine
 10
44.655342
 20
-0.046518
 30
0.0
 11
44.655506
 21
-0.046106
 31
0.0
  0
LINE
  5
83E
330
1F
100
AcDbEntity
  8
1
  6
CONTINUOUS
370
50
 62
4
100
AcDbLine
 10
44.996426
 20
0.019708
 30
0.0
 11
44.996765
 21
0.020586
 31
0.0
  0
LINE
  5
83F
330
1F
100
AcDbEntity
  8
1
  6
CONTINUOUS
370
50
 62
4
100
AcDbLine
 10
44.633018
 20
0.01365
 30
0.0
 11
44.63314099999999
 21
0.014
 31
0.0
  0
LINE
  5
840
330
1F
100
AcDbEntity
  8
1
  6
CONTINUOUS
370
50
 62
4
100
AcDbLine
 10
44.996098
 20
0.018774
 30
0.0
 11
44.996426
 21
0.019708
 31
0.0
  0
LINE
  5
841
330
1F
100
AcDbEntity
  8
1
  6
CONTINUOUS
370
50
 62
4
100
AcDbLine
 10
44.976387
 20
0.022257
 30
0.0
 11
44.976582
 21
0.022816
 31
0.0
  0
LINE
  5
842
330
1F
100
AcDbEntity
  8
1
  6
CONTINUOUS
370
50
 62
4
100
AcDbLine
 10
44.666096
 20
0.042814
 30
0.0
 11
44.666489
 21
0.043945
 31
0.0
  0
LINE
  5
843
330
1F
100
AcDbEntity
  8
1
  6
CONTINUOUS
370
50
 62
4
100
AcDbLine
 10
44.981709
 20
0.026426
 30
0.0
 11
44.981869
 21
0.026924
 31
0.0
  0
LINE
  5
844
330
1F
100
AcDbEntity
  8
1
  6
CONTINUOUS
370
50
 62
4
100
AcDbLine
 10
44.995785
 20
0.017786
 30
0.0
 11
44.996098
 21
0.018774
 31
0.0
  0
LINE
  5
845
330
1F
100
AcDbEntity
  8
1
  6
CONTINUOUS
370
50
 62
4
100
AcDbLine
 10
44.995491
 20
0.016746
 30
0.0
 11
44.995785
 21
0.017786
 31
0.0
  0
LINE
  5
846
330
1F
100
AcDbEntity
  8
1
  6
CONTINUOUS
370
50
 62
4
100
AcDbLine
 10
44.632919
 20
0.01329
 30
0.0
 11
44.633018
 21
0.01365
 31
0.0
  0
LINE
  5
847
330
1F
100
AcDbEntity
  8
1
  6
CONTINUOUS
370
50
 62
4
100
AcDbLine
 10
44.976231
 20
0.021654
 30
0.0
 11
44.976387
 21
0.022257
 31
0.0
  0
LINE
  5
848
330
1F
100
AcDbEntity
  8
1
  6
CONTINUOUS
370
50
 62
4
100
AcDbLine
 10
44.995213
 20
0.015656
 30
0.0
 11
44.995491
 21
0.016746
 31
0.0
  0
LINE
  5
849
330
1F
100
AcDbEntity
  8
1
  6
CONTINUOUS
370
50
 62
4
100
AcDbLine
 10
44.666489
 20
0.043945
 30
0.0
 11
44.666752
 21
0.044987
 31
0.0
  0
LINE
  5
84A
330
1F
100
AcDbEntity
  8
1
  6
CONTINUOUS
370
50
 62
4
100
AcDbLine
 10
44.655247
 20
-0.04691
 30
0.0
 11
44.655342
 21
-0.046518
 31
0.0
  0
LINE
  5
84B
330
1F
100
AcDbEntity
  8
1
  6
CONTINUOUS
370
50
 62
4
100
AcDbLine
 10
44.981869
 20
0.026924
 30
0.0
 11
44.981995
 21
0.027474
 31
0.0
  0
LINE
  5
84C
330
1F
100
AcDbEntity
  8
1
  6
CONTINUOUS
370
50
 62
4
100
AcDbLine
 10
44.994953
 20
0.014517
 30
0.0
 11
44.995213
 21
0.015656
 31
0.0
  0
LINE
  5
84D
330
1F
100
AcDbEntity
  8
1
  6
CONTINUOUS
370
50
 62
4
100
AcDbLine
 10
44.632843
 20
0.012919
 30
0.0
 11
44.632919
 21
0.01329
 31
0.0
  0
LINE
  5
84E
330
1F
100
AcDbEntity
  8
1
  6
CONTINUOUS
370
50
 62
4
100
AcDbLine
 10
44.994717
 20
0.013337
 30
0.0
 11
44.994953
 21
0.014517
 31
0.0
  0
LINE
  5
84F
330
1F
100
AcDbEntity
  8
1
  6
CONTINUOUS
370
50
 62
4
100
AcDbLine
 10
44.994495
 20
0.012117
 30
0.0
 11
44.994717
 21
0.013337
 31
0.0
  0
LINE
  5
850
330
1F
100
AcDbEntity
  8
1
  6
CONTINUOUS
370
50
 62
4
100
AcDbLine
 10
44.99377399999999
 20
0.006382
 30
0.0
 11
44.994083
 21
0.008083
 31
0.0
  0
LINE
  5
851
330
1F
100
AcDbEntity
  8
1
  6
CONTINUOUS
370
50
 62
4
100
AcDbLine
 10
44.993488
 20
0.004639
 30
0.0
 11
44.99377399999999
 21
0.006382
 31
0.0
  0
LINE
  5
852
330
1F
100
AcDbEntity
  8
1
  6
CONTINUOUS
370
50
 62
4
100
AcDbLine
 10
44.994301
 20
0.01086
 30
0.0
 11
44.994495
 21
0.012117
 31
0.0
  0
LINE
  5
853
330
1F
100
AcDbEntity
  8
1
  6
CONTINUOUS
370
50
 62
4
100
AcDbLine
 10
44.981995
 20
0.027474
 30
0.0
 11
44.982086
 21
0.028076
 31
0.0
  0
LINE
  5
854
330
1F
100
AcDbEntity
  8
1
  6
CONTINUOUS
370
50
 62
4
100
AcDbLine
 10
44.666752
 20
0.044987
 30
0.0
 11
44.66689299999999
 21
0.045938
 31
0.0
  0
LINE
  5
855
330
1F
100
AcDbEntity
  8
1
  6
CONTINUOUS
370
50
 62
4
100
AcDbLine
 10
44.993225
 20
0.002857
 30
0.0
 11
44.993488
 21
0.004639
 31
0.0
  0
LINE
  5
856
330
1F
100
AcDbEntity
  8
1
  6
CONTINUOUS
370
50
 62
4
100
AcDbLine
 10
44.994122
 20
0.00957
 30
0.0
 11
44.994301
 21
0.01086
 31
0.0
  0
LINE
  5
857
330
1F
100
AcDbEntity
  8
1
  6
CONTINUOUS
370
50
 62
4
100
AcDbLine
 10
44.63279
 20
0.012536
 30
0.0
 11
44.632843
 21
0.012919
 31
0.0
  0
LINE
  5
858
330
1F
100
AcDbEntity
  8
1
  6
CONTINUOUS
370
50
 62
4
100
AcDbLine
 10
44.992989
 20
0.001037
 30
0.0
 11
44.993225
 21
0.002857
 31
0.0
  0
LINE
  5
859
330
1F
100
AcDbEntity
  8
1
  6
CONTINUOUS
370
50
 62
4
100
AcDbLine
 10
44.993969
 20
0.008248
 30
0.0
 11
44.994122
 21
0.00957
 31
0.0
  0
LINE
  5
85A
330
1F
100
AcDbEntity
  8
1
  6
CONTINUOUS
370
50
 62
4
100
AcDbLine
 10
44.992779
 20
-0.000818
 30
0.0
 11
44.992989
 21
0.001037
 31
0.0
  0
LINE
  5
85B
330
1F
100
AcDbEntity
  8
1
  6
CONTINUOUS
370
50
 62
4
100
AcDbLine
 10
44.992596
 20
-0.002707
 30
0.0
 11
44.992779
 21
-0.000818
 31
0.0
  0
LINE
  5
85C
330
1F
100
AcDbEntity
  8
1
  6
CONTINUOUS
370
50
 62
4
100
AcDbLine
 10
44.632755
 20
0.012141
 30
0.0
 11
44.63279
 21
0.012536
 31
0.0
  0
LINE
  5
85D
330
1F
100
AcDbEntity
  8
1
  6
CONTINUOUS
370
50
 62
4
100
AcDbLine
 10
44.982086
 20
0.028076
 30
0.0
 11
44.98214
 21
0.028729
 31
0.0
  0
LINE
  5
85E
330
1F
100
AcDbEntity
  8
1
  6
CONTINUOUS
370
50
 62
4
100
AcDbLine
 10
44.992439
 20
-0.004619
 30
0.0
 11
44.992596
 21
-0.002707
 31
0.0
  0
LINE
  5
85F
330
1F
100
AcDbEntity
  8
1
  6
CONTINUOUS
370
50
 62
4
100
AcDbLine
 10
44.992317
 20
-0.006547
 30
0.0
 11
44.992439
 21
-0.004619
 31
0.0
  0
LINE
  5
860
330
1F
100
AcDbEntity
  8
1
  6
CONTINUOUS
370
50
 62
4
100
AcDbLine
 10
44.992222
 20
-0.008489
 30
0.0
 11
44.992317
 21
-0.006547
 31
0.0
  0
LINE
  5
861
330
1F
100
AcDbEntity
  8
1
  6
CONTINUOUS
370
50
 62
4
100
AcDbLine
 10
44.992157
 20
-0.010443
 30
0.0
 11
44.992222
 21
-0.008489
 31
0.0
  0
LINE
  5
862
330
1F
100
AcDbEntity
  8
1
  6
CONTINUOUS
370
50
 62
4
100
AcDbLine
 10
44.655235
 20
-0.047277
 30
0.0
 11
44.655247
 21
-0.04691
 31
0.0
  0
LINE
  5
863
330
1F
100
AcDbEntity
  8
1
  6
CONTINUOUS
370
50
 62
4
100
AcDbLine
 10
44.66689299999999
 20
0.045938
 30
0.0
 11
44.66692
 21
0.046793
 31
0.0
  0
LINE
  5
864
330
1F
100
AcDbEntity
  8
1
  6
CONTINUOUS
370
50
 62
4
100
AcDbLine
 10
44.98214
 20
0.028729
 30
0.0
 11
44.982159
 21
0.029433
 31
0.0
  0
LINE
  5
865
330
1F
100
AcDbEntity
  8
1
  6
CONTINUOUS
370
50
 62
4
100
AcDbLine
 10
44.632748
 20
0.011737
 30
0.0
 11
44.632755
 21
0.012141
 31
0.0
  0
LINE
  5
866
330
1F
100
AcDbEntity
  8
1
  6
CONTINUOUS
370
50
 62
4
100
AcDbLine
 10
44.992126
 20
-0.012404
 30
0.0
 11
44.992157
 21
-0.010443
 31
0.0
  0
LINE
  5
867
330
1F
100
AcDbEntity
  8
1
  6
CONTINUOUS
370
50
 62
4
100
AcDbLine
 10
37.099998
 20
-1.99995
 30
0.0
 11
37.099998
 21
1.99995
 31
0.0
  0
LINE
  5
868
330
1F
100
AcDbEntity
  8
1
  6
CONTINUOUS
370
50
 62
4
100
AcDbLine
 10
44.299999
 20
-0.04995
 30
0.0
 11
44.299999
 21
0.04995
 31
0.0
  0
LINE
  5
869
330
1F
100
AcDbEntity
  8
1
  6
CONTINUOUS
370
50
 62
4
100
AcDbLine
 10
44.700001
 20
-0.024434
 30
0.0
 11
44.700001
 21
0.026494
 31
0.0
  0
LINE
  5
86A
330
1F
100
AcDbEntity
  8
1
  6
CONTINUOUS
370
50
 62
4
100
AcDbLine
 10
44.700001
 20
-0.026494
 30
0.0
 11
44.700001
 21
-0.025997
 31
0.0
  0
LINE
  5
86B
330
1F
100
AcDbEntity
  8
1
  6
CONTINUOUS
370
50
 62
4
100
AcDbLine
 10
44.700001
 20
-0.025997
 30
0.0
 11
44.700001
 21
-0.025865
 31
0.0
  0
LINE
  5
86C
330
1F
100
AcDbEntity
  8
1
  6
CONTINUOUS
370
50
 62
4
100
AcDbLine
 10
44.700001
 20
-0.025865
 30
0.0
 11
44.700001
 21
-0.02568
 31
0.0
  0
LINE
  5
86D
330
1F
100
AcDbEntity
  8
1
  6
CONTINUOUS
370
50
 62
4
100
AcDbLine
 10
44.700001
 20
-0.02568
 30
0.0
 11
44.700001
 21
-0.025445
 31
0.0
  0
LINE
  5
86E
330
1F
100
AcDbEntity
  8
1
  6
CONTINUOUS
370
50
 62
4
100
AcDbLine
 10
44.700001
 20
-0.025445
 30
0.0
 11
44.700001
 21
-0.02516
 31
0.0
  0
LINE
  5
86F
330
1F
100
AcDbEntity
  8
1
  6
CONTINUOUS
370
50
 62
4
100
AcDbLine
 10
44.700001
 20
-0.02516
 30
0.0
 11
44.700001
 21
-0.024825
 31
0.0
  0
LINE
  5
870
330
1F
100
AcDbEntity
  8
1
  6
CONTINUOUS
370
50
 62
4
100
AcDbLine
 10
44.700001
 20
-0.024825
 30
0.0
 11
44.700001
 21
-0.02444
 31
0.0
  0
LINE
  5
871
330
1F
100
AcDbEntity
  8
1
  6
CONTINUOUS
370
50
 62
4
100
AcDbLine
 10
44.700001
 20
-0.026095
 30
0.0
 11
44.700001
 21
-0.02608
 31
0.0
  0
LINE
  5
872
330
1F
100
AcDbEntity
  8
1
  6
CONTINUOUS
370
50
 62
4
100
AcDbLine
 10
44.700001
 20
-0.02608
 30
0.0
 11
44.700001
 21
-0.026059
 31
0.0
  0
LINE
  5
873
330
1F
100
AcDbEntity
  8
1
  6
CONTINUOUS
370
50
 62
4
100
AcDbLine
 10
44.700001
 20
-0.026059
 30
0.0
 11
44.700001
 21
-0.026031
 31
0.0
  0
LINE
  5
874
330
1F
100
AcDbEntity
  8
1
  6
CONTINUOUS
370
50
 62
4
100
AcDbLine
 10
44.700001
 20
-0.026031
 30
0.0
 11
44.700001
 21
-0.025997
 31
0.0
  0
LINE
  5
875
330
1F
100
AcDbEntity
  8
1
  6
CONTINUOUS
370
50
 62
4
100
AcDbLine
 10
44.700001
 20
-0.026264
 30
0.0
 11
44.700001
 21
-0.026251
 31
0.0
  0
LINE
  5
876
330
1F
100
AcDbEntity
  8
1
  6
CONTINUOUS
370
50
 62
4
100
AcDbLine
 10
44.700001
 20
-0.026251
 30
0.0
 11
44.700001
 21
-0.026229
 31
0.0
  0
LINE
  5
877
330
1F
100
AcDbEntity
  8
1
  6
CONTINUOUS
370
50
 62
4
100
AcDbLine
 10
44.700001
 20
-0.026229
 30
0.0
 11
44.700001
 21
-0.026198
 31
0.0
  0
LINE
  5
878
330
1F
100
AcDbEntity
  8
1
  6
CONTINUOUS
370
50
 62
4
100
AcDbLine
 10
44.700001
 20
-0.026198
 30
0.0
 11
44.700001
 21
-0.026158
 31
0.0
  0
LINE
  5
879
330
1F
100
AcDbEntity
  8
1
  6
CONTINUOUS
370
50
 62
4
100
AcDbLine
 10
44.700001
 20
-0.026158
 30
0.0
 11
44.700001
 21
-0.026109
 31
0.0
  0
LINE
  5
87A
330
1F
100
AcDbEntity
  8
1
  6
CONTINUOUS
370
50
 62
4
100
AcDbLine
 10
44.992126
 20
-0.014371
 30
0.0
 11
44.992126
 21
-0.012404
 31
0.0
  0
LINE
  5
87B
330
1F
100
AcDbEntity
  8
1
  6
CONTINUOUS
370
50
 62
4
100
AcDbLine
 10
45.0
 20
-0.05
 30
0.0
 11
45.0
 21
0.05
 31
0.0
  0
ELLIPSE
  5
87C
330
1F
100
AcDbEntity
  8
1
  6
CONTINUOUS
370
50
 62
4
100
AcDbEllipse
 10
44.677839
 20
0.017786
 30
0.0
 11
-0.04772525283309292
 21
0.02574153124849705
 31
0.0
210
0.0
220
0.0
230
1.0
 40
0.7077361311321385
 41
0.9565442349744643
 42
1.953915420329926
  0
ELLIPSE
  5
87D
330
1F
100
AcDbEntity
  8
1
  6
CONTINUOUS
370
50
 62
4
100
AcDbEllipse
 10
44.680948
 20
0.02355
 30
0.0
 11
-0.04544515329358848
 21
0.02451171579311048
 31
0.0
210
0.0
220
0.0
230
1.0
 40
0.7077347060045627
 41
0.8072842204411369
 42
2.337897571469123
  0
ELLIPSE
  5
87E
330
1F
100
AcDbEntity
  8
1
  6
CONTINUOUS
370
50
 62
4
100
AcDbEllipse
 10
44.70293299999999
 20
-0.064311
 30
0.0
 11
0.04789102917849773
 21
0.02583094590262619
 31
0.0
210
0.0
220
0.0
230
1.0
 40
0.7077283994276838
 41
1.321472719612786
 42
2.138889658001335
  0
ELLIPSE
  5
87F
330
1F
100
AcDbEntity
  8
1
  6
CONTINUOUS
370
50
 62
4
100
AcDbEllipse
 10
45.000045
 20
0.0
 30
0.0
 11
0.08175300081797235
 21
0.0001415282895491876
 31
0.0
210
0.0
220
0.0
230
1.0
 40
0.6115983543850856
 41
4.546363055324154
 42
4.709005727914843
  0
ELLIPSE
  5
880
330
1F
100
AcDbEntity
  8
1
  6
CONTINUOUS
370
50
 62
4
100
AcDbEllipse
 10
45.000045
 20
0.0
 30
0.0
 11
-0.08175300081797232
 21
0.000141528289564874
 31
0.0
210
0.0
220
0.0
230
1.0
 40
0.6115983543850856
 41
4.713992779194351
 42
4.878414905444554
  0
ELLIPSE
  5
881
330
1F
100
AcDbEntity
  8
1
  6
CONTINUOUS
370
50
 62
4
100
AcDbEllipse
 10
45.002213
 20
0.0
 30
0.0
 11
3.061577114873634E-18
 21
0.050001
 31
0.0
210
0.0
220
0.0
230
1.0
 40
0.3249135017299424
 41
2.991743854032907
 42
3.004923138093806
  0
LINE
  5
882
330
1F
100
AcDbEntity
  8
CUT
  6
CONTINUOUS
370
25
 62
1
100
AcDbLine
 10
44.7
 20
0.0
 30
0.0
 11
45.0
 21
0.0
 31
0.0
  0
LINE
  5
883
330
1F
100
AcDbEntity
  8
CUT
  6
CONTINUOUS
370
25
 62
1
100
AcDbLine
 10
45.0
 20
0.0
 30
0.0
 11
45.0
 21
0.045
 31
0.0
  0
LINE
  5
884
330
1F
100
AcDbEntity
  8
CUT
  6
CONTINUOUS
370
25
 62
1
100
AcDbLine
 10
45.0
 20
0.045
 30
0.0
 11
45.0
 21
0.05
 31
0.0
  0
LINE
  5
885
330
1F
100
AcDbEntity
  8
CUT
  6
CONTINUOUS
370
25
 62
1
100
AcDbLine
 10
45.0
 20
0.05
 30
0.0
 11
44.7
 21
0.0499
 31
0.0
  0
LINE
  5
886
330
1F
100
AcDbEntity
  8
CUT
  6
CONTINUOUS
370
25
 62
1
100
AcDbLine
 10
44.7
 20
0.0499
 30
0.0
 11
44.7
 21
0.0
 31
0.0
  0
LINE
  5
887
330
1F
100
AcDbEntity
  8
NOCUT
  6
CONTINUOUS
370
25
 62
7
100
AcDbLine
 10
37.1
 20
0.0
 30
0.0
 11
44.7
 21
0.0
 31
0.0
  0
LINE
  5
888
330
1F
100
AcDbEntity
  8
NOCUT
  6
CONTINUOUS
370
25
 62
7
100
AcDbLine
 10
44.7
 20
0.0
 30
0.0
 11
44.7
 21
0.04995
 31
0.0
  0
LINE
  5
889
330
1F
100
AcDbEntity
  8
NOCUT
  6
CONTINUOUS
370
25
 62
7
100
AcDbLine
 10
44.7
 20
0.04995
 30
0.0
 11
44.3
 21
0.04995
 31
0.0
  0
LINE
  5
88A
330
1F
100
AcDbEntity
  8
NOCUT
  6
CONTINUOUS
370
25
 62
7
100
AcDbLine
 10
44.3
 20
0.04995
 30
0.0
 11
37.1
 21
1.99995
 31
0.0
  0
LINE
  5
88B
330
1F
100
AcDbEntity
  8
NOCUT
  6
CONTINUOUS
370
25
 62
7
100
AcDbLine
 10
37.1
 20
1.99995
 30
0.0
 11
37.1
 21
0.0
 31
0.0
  0
LINE
  5
88C
330
1F
100
AcDbEntity
  8
SK1
  6
CONTINUOUS
370
50
 62
4
100
AcDbLine
 10
37.1
 20
2.0
 30
0.0
 11
0.2999999999999972
 21
2.0
 31
0.0
  0
LINE
  5
88D
330
1F
100
AcDbEntity
  8
SK1
  6
CONTINUOUS
370
50
 62
4
100
AcDbLine
 10
0.2999999999999972
 20
2.0
 30
0.0
 11
0.0
 21
1.7
 31
0.0
  0
LINE
  5
88E
330
1F
100
AcDbEntity
  8
SK1
  6
CONTINUOUS
370
50
 62
4
100
AcDbLine
 10
0.0
 20
1.7
 30
0.0
 11
0.0
 21
-1.7
 31
0.0
  0
LINE
  5
88F
330
1F
100
AcDbEntity
  8
SK1
  6
CONTINUOUS
370
50
 62
4
100
AcDbLine
 10
0.0
 20
-1.7
 30
0.0
 11
0.2999999999999972
 21
-2.0
 31
0.0
  0
LINE
  5
890
330
1F
100
AcDbEntity
  8
SK1
  6
CONTINUOUS
370
50
 62
4
100
AcDbLine
 10
0.2999999999999972
 20
-2.0
 30
0.0
 11
37.1
 21
-2.0
 31
0.0
  0
LINE
  5
891
330
1F
100
AcDbEntity
  8
SK1
  6
CONTINUOUS
370
50
 62
4
100
AcDbLine
 10
0.2999999999999972
 20
2.0
 30
0.0
 11
0.2999999999999972
 21
-2.0
 31
0.0
  0
LINE
  5
892
330
1F
100
AcDbEntity
  8
SK2
  6
CONTINUOUS
370
25
 62
7
100
AcDbLine
 10
-12.0000002
 20
-2.000001
 30
0.0
 11
-13.00000000000008
 21
-2.000001
 31
0.0
  0
LINE
  5
893
330
1F
100
AcDbEntity
  8
SK2
  6
CONTINUOUS
370
25
 62
7
100
AcDbLine
 10
0.0
 20
-2.000001
 30
0.0
 11
-11.9999998
 21
-2.000001
 31
0.0
  0
LINE
  5
894
330
1F
100
AcDbEntity
  8
SK2
  6
CONTINUOUS
370
25
 62
7
100
AcDbLine
 10
-13.0
 20
2.0
 30
0.0
 11
0.0
 21
2.0
 31
0.0
  0
LINE
  5
895
330
1F
100
AcDbEntity
  8
SK2
  6
CONTINUOUS
370
25
 62
7
100
AcDbLine
 10
-12.0
 20
-9.0
 30
0.0
 11
-12.0
 21
15.475
 31
0.0
  0
LINE
  5
896
330
1F
100
AcDbEntity
  8
SK2
  6
CONTINUOUS
370
25
 62
7
100
AcDbLine
 10
-12.0
 20
-2.0
 30
0.0
 11
-11.0
 21
-7.0
 31
0.0
  0
LINE
  5
897
330
1F
100
AcDbEntity
  8
SK2
  6
CONTINUOUS
370
25
 62
7
100
AcDbLine
 10
-11.0
 20
-7.0
 30
0.0
 11
-13.0
 21
-7.0
 31
0.0
  0
LINE
  5
898
330
1F
100
AcDbEntity
  8
SK2
  6
CONTINUOUS
370
25
 62
7
100
AcDbLine
 10
-13.0
 20
-7.0
 30
0.0
 11
-12.0
 21
-2.0
 31
0.0
  0
LINE
  5
899
330
1F
100
AcDbEntity
  8
SK2
  6
CONTINUOUS
370
25
 62
7
100
AcDbLine
 10
-11.05361466505703
 20
-7.0
 30
0.0
 11
-11.00893577750951
 21
-6.955321112452474
 31
0.0
  0
LINE
  5
89A
330
1F
100
AcDbEntity
  8
SK2
  6
CONTINUOUS
370
25
 62
7
100
AcDbLine
 10
-11.47787873376896
 20
-7.0
 30
0.0
 11
-11.07964645562816
 21
-6.601767721859204
 31
0.0
  0
LINE
  5
89B
330
1F
100
AcDbEntity
  8
SK2
  6
CONTINUOUS
370
25
 62
7
100
AcDbLine
 10
-11.9021428024809
 20
-7.0
 30
0.0
 11
-11.15035713374682
 21
-6.248214331265928
 31
0.0
  0
LINE
  5
89C
330
1F
100
AcDbEntity
  8
SK2
  6
CONTINUOUS
370
25
 62
7
100
AcDbLine
 10
-12.32640687119282
 20
-7.0
 30
0.0
 11
-11.22106781186547
 21
-5.894660940672651
 31
0.0
  0
LINE
  5
89D
330
1F
100
AcDbEntity
  8
SK2
  6
CONTINUOUS
370
25
 62
7
100
AcDbLine
 10
-12.75067093990475
 20
-7.0
 30
0.0
 11
-11.29177848998413
 21
-5.541107550079374
 31
0.0
  0
LINE
  5
89E
330
1F
100
AcDbEntity
  8
SK2
  6
CONTINUOUS
370
25
 62
7
100
AcDbLine
 10
-12.95626624784583
 20
-6.781331239229146
 30
0.0
 11
-11.36248916810278
 21
-5.187554159486098
 31
0.0
  0
LINE
  5
89F
330
1F
100
AcDbEntity
  8
SK2
  6
CONTINUOUS
370
25
 62
7
100
AcDbLine
 10
-12.85020023066784
 20
-6.251001153339224
 30
0.0
 11
-11.43319984622143
 21
-4.834000768892814
 31
0.0
  0
LINE
  5
8A0
330
1F
100
AcDbEntity
  8
SK2
  6
CONTINUOUS
370
25
 62
7
100
AcDbLine
 10
-12.74413421348986
 20
-5.720671067449317
 30
0.0
 11
-11.50391052434009
 21
-4.480447378299544
 31
0.0
  0
LINE
  5
8A1
330
1F
100
AcDbEntity
  8
SK2
  6
CONTINUOUS
370
25
 62
7
100
AcDbLine
 10
-12.63806819631188
 20
-5.190340981559409
 30
0.0
 11
-11.57462120245874
 21
-4.126893987706268
 31
0.0
  0
LINE
  5
8A2
330
1F
100
AcDbEntity
  8
SK2
  6
CONTINUOUS
370
25
 62
7
100
AcDbLine
 10
-12.5320021791339
 20
-4.660010895669494
 30
0.0
 11
-11.64533188057739
 21
-3.773340597112984
 31
0.0
  0
LINE
  5
8A3
330
1F
100
AcDbEntity
  8
SK2
  6
CONTINUOUS
370
25
 62
7
100
AcDbLine
 10
-12.42593616195592
 20
-4.129680809779572
 30
0.0
 11
-11.71604255869605
 21
-3.419787206519707
 31
0.0
  0
LINE
  5
8A4
330
1F
100
AcDbEntity
  8
SK2
  6
CONTINUOUS
370
25
 62
7
100
AcDbLine
 10
-12.31987014477794
 20
-3.599350723889664
 30
0.0
 11
-11.78675323681471
 21
-3.066233815926438
 31
0.0
  0
LINE
  5
8A5
330
1F
100
AcDbEntity
  8
SK2
  6
CONTINUOUS
370
25
 62
7
100
AcDbLine
 10
-12.21380412759995
 20
-3.069020637999749
 30
0.0
 11
-11.85746391493337
 21
-2.712680425333168
 31
0.0
  0
LINE
  5
8A6
330
1F
100
AcDbEntity
  8
SK2
  6
CONTINUOUS
370
25
 62
7
100
AcDbLine
 10
-12.10773811042197
 20
-2.538690552109834
 30
0.0
 11
-11.92817459305202
 21
-2.359127034739885
 31
0.0
  0
LINE
  5
8A7
330
1F
100
AcDbEntity
  8
SK2
  6
CONTINUOUS
370
25
 62
7
100
AcDbLine
 10
-12.00167209324398
 20
-2.008360466219905
 30
0.0
 11
-11.99888527117069
 21
-2.005573644146608
 31
0.0
  0
LINE
  5
8A8
330
1F
100
AcDbEntity
  8
SK2
  6
CONTINUOUS
370
25
 62
7
100
AcDbLine
 10
-12.98815216307375
 20
-6.940760815368748
 30
0.0
 11
-12.9289129784425
 21
-7.0
 31
0.0
  0
LINE
  5
8A9
330
1F
100
AcDbEntity
  8
SK2
  6
CONTINUOUS
370
25
 62
7
100
AcDbLine
 10
-12.91744148495509
 20
-6.587207424775471
 30
0.0
 11
-12.50464890973056
 21
-7.0
 31
0.0
  0
LINE
  5
8AA
330
1F
100
AcDbEntity
  8
SK2
  6
CONTINUOUS
370
25
 62
7
100
AcDbLine
 10
-12.84673080683644
 20
-6.233654034182187
 30
0.0
 11
-12.08038484101863
 21
-7.0
 31
0.0
  0
LINE
  5
8AB
330
1F
100
AcDbEntity
  8
SK2
  6
CONTINUOUS
370
25
 62
7
100
AcDbLine
 10
-12.77602012871779
 20
-5.880100643588911
 30
0.0
 11
-11.6561207723067
 21
-7.0
 31
0.0
  0
LINE
  5
8AC
330
1F
100
AcDbEntity
  8
SK2
  6
CONTINUOUS
370
25
 62
7
100
AcDbLine
 10
-12.70530945059912
 20
-5.526547252995648
 30
0.0
 11
-11.23185670359477
 21
-7.0
 31
0.0
  0
LINE
  5
8AD
330
1F
100
AcDbEntity
  8
SK2
  6
CONTINUOUS
370
25
 62
7
100
AcDbLine
 10
-12.63459877248047
 20
-5.172993862402365
 30
0.0
 11
-11.04810184127929
 21
-6.759490793603547
 31
0.0
  0
LINE
  5
8AE
330
1F
100
AcDbEntity
  8
SK2
  6
CONTINUOUS
370
25
 62
7
100
AcDbLine
 10
-12.56388809436181
 20
-4.819440471809095
 30
0.0
 11
-11.15416785845727
 21
-6.229160707713639
 31
0.0
  0
LINE
  5
8AF
330
1F
100
AcDbEntity
  8
SK2
  6
CONTINUOUS
370
25
 62
7
100
AcDbLine
 10
-12.49317741624316
 20
-4.465887081215811
 30
0.0
 11
-11.26023387563525
 21
-5.698830621823724
 31
0.0
  0
LINE
  5
8B0
330
1F
100
AcDbEntity
  8
SK2
  6
CONTINUOUS
370
25
 62
7
100
AcDbLine
 10
-12.42246673812451
 20
-4.112333690622528
 30
0.0
 11
-11.36629989281323
 21
-5.168500535933809
 31
0.0
  0
LINE
  5
8B1
330
1F
100
AcDbEntity
  8
SK2
  6
CONTINUOUS
370
25
 62
7
100
AcDbLine
 10
-12.35175606000585
 20
-3.758780300029258
 30
0.0
 11
-11.47236590999121
 21
-4.638170450043901
 31
0.0
  0
LINE
  5
8B2
330
1F
100
AcDbEntity
  8
SK2
  6
CONTINUOUS
370
25
 62
7
100
AcDbLine
 10
-12.2810453818872
 20
-3.405226909435989
 30
0.0
 11
-11.5784319271692
 21
-4.107840364153986
 31
0.0
  0
LINE
  5
8B3
330
1F
100
AcDbEntity
  8
SK2
  6
CONTINUOUS
370
25
 62
7
100
AcDbLine
 10
-12.21033470376855
 20
-3.051673518842712
 30
0.0
 11
-11.68449794434719
 21
-3.577510278264072
 31
0.0
  0
LINE
  5
8B4
330
1F
100
AcDbEntity
  8
SK2
  6
CONTINUOUS
370
25
 62
7
100
AcDbLine
 10
-12.13962402564988
 20
-2.698120128249442
 30
0.0
 11
-11.79056396152517
 21
-3.047180192374157
 31
0.0
  0
LINE
  5
8B5
330
1F
100
AcDbEntity
  8
SK2
  6
CONTINUOUS
370
25
 62
7
100
AcDbLine
 10
-12.06891334753123
 20
-2.344566737656166
 30
0.0
 11
-11.89662997870315
 21
-2.516850106484249
 31
0.0
  0
LINE
  5
8B6
330
1F
100
AcDbEntity
  8
SK2
  6
CONTINUOUS
370
25
 62
7
100
AcDbLine
 10
-12.0
 20
2.0
 30
0.0
 11
-13.0
 21
7.0
 31
0.0
  0
LINE
  5
8B7
330
1F
100
AcDbEntity
  8
SK2
  6
CONTINUOUS
370
25
 62
7
100
AcDbLine
 10
-13.0
 20
7.0
 30
0.0
 11
-11.0
 21
7.0
 31
0.0
  0
LINE
  5
8B8
330
1F
100
AcDbEntity
  8
SK2
  6
CONTINUOUS
370
25
 62
7
100
AcDbLine
 10
-11.0
 20
7.0
 30
0.0
 11
-12.0
 21
2.0
 31
0.0
  0
LINE
  5
8B9
330
1F
100
AcDbEntity
  8
SK2
  6
CONTINUOUS
370
25
 62
7
100
AcDbLine
 10
-12.03932538569055
 20
2.196626928452773
 30
0.0
 11
-11.94101192146417
 21
2.294940392679145
 31
0.0
  0
LINE
  5
8BA
330
1F
100
AcDbEntity
  8
SK2
  6
CONTINUOUS
370
25
 62
7
100
AcDbLine
 10
-12.1100360638092
 20
2.550180319046042
 30
0.0
 11
-11.83494590428619
 21
2.825270478569053
 31
0.0
  0
LINE
  5
8BB
330
1F
100
AcDbEntity
  8
SK2
  6
CONTINUOUS
370
25
 62
7
100
AcDbLine
 10
-12.18074674192786
 20
2.903733709639319
 30
0.0
 11
-11.72887988710821
 21
3.355600564458975
 31
0.0
  0
LINE
  5
8BC
330
1F
100
AcDbEntity
  8
SK2
  6
CONTINUOUS
370
25
 62
7
100
AcDbLine
 10
-12.25145742004652
 20
3.257287100232588
 30
0.0
 11
-11.62281386993023
 21
3.885930650348882
 31
0.0
  0
LINE
  5
8BD
330
1F
100
AcDbEntity
  8
SK2
  6
CONTINUOUS
370
25
 62
7
100
AcDbLine
 10
-12.32216809816517
 20
3.610840490825865
 30
0.0
 11
-11.51674785275224
 21
4.416260736238797
 31
0.0
  0
LINE
  5
8BE
330
1F
100
AcDbEntity
  8
SK2
  6
CONTINUOUS
370
25
 62
7
100
AcDbLine
 10
-12.39287877628382
 20
3.964393881419142
 30
0.0
 11
-11.41068183557426
 21
4.946590822128705
 31
0.0
  0
LINE
  5
8BF
330
1F
100
AcDbEntity
  8
SK2
  6
CONTINUOUS
370
25
 62
7
100
AcDbLine
 10
-12.46358945440249
 20
4.317947272012418
 30
0.0
 11
-11.30461581839626
 21
5.476920908018641
 31
0.0
  0
LINE
  5
8C0
330
1F
100
AcDbEntity
  8
SK2
  6
CONTINUOUS
370
25
 62
7
100
AcDbLine
 10
-12.53430013252114
 20
4.671500662605695
 30
0.0
 11
-11.19854980121828
 21
6.007250993908549
 31
0.0
  0
LINE
  5
8C1
330
1F
100
AcDbEntity
  8
SK2
  6
CONTINUOUS
370
25
 62
7
100
AcDbLine
 10
-12.60501081063979
 20
5.025054053198978
 30
0.0
 11
-11.0924837840403
 21
6.537581079798471
 31
0.0
  0
LINE
  5
8C2
330
1F
100
AcDbEntity
  8
SK2
  6
CONTINUOUS
370
25
 62
7
100
AcDbLine
 10
-12.67572148875846
 20
5.378607443792248
 30
0.0
 11
-11.0543289325507
 21
7.0
 31
0.0
  0
LINE
  5
8C3
330
1F
100
AcDbEntity
  8
SK2
  6
CONTINUOUS
370
25
 62
7
100
AcDbLine
 10
-12.7464321668771
 20
5.732160834385525
 30
0.0
 11
-11.47859300126262
 21
7.0
 31
0.0
  0
LINE
  5
8C4
330
1F
100
AcDbEntity
  8
SK2
  6
CONTINUOUS
370
25
 62
7
100
AcDbLine
 10
-12.81714284499576
 20
6.085714224978794
 30
0.0
 11
-11.90285706997456
 21
7.0
 31
0.0
  0
LINE
  5
8C5
330
1F
100
AcDbEntity
  8
SK2
  6
CONTINUOUS
370
25
 62
7
100
AcDbLine
 10
-12.88785352311442
 20
6.439267615572071
 30
0.0
 11
-12.32712113868649
 21
7.0
 31
0.0
  0
LINE
  5
8C6
330
1F
100
AcDbEntity
  8
SK2
  6
CONTINUOUS
370
25
 62
7
100
AcDbLine
 10
-12.95856420123307
 20
6.792821006165354
 30
0.0
 11
-12.75138520739842
 21
7.0
 31
0.0
  0
LINE
  5
8C7
330
1F
100
AcDbEntity
  8
SK2
  6
CONTINUOUS
370
25
 62
7
100
AcDbLine
 10
-12.00251742900771
 20
2.01258714503858
 30
0.0
 11
-11.99832171399486
 21
2.008391430025732
 31
0.0
  0
LINE
  5
8C8
330
1F
100
AcDbEntity
  8
SK2
  6
CONTINUOUS
370
25
 62
7
100
AcDbLine
 10
-12.1085834461857
 20
2.542917230928502
 30
0.0
 11
-11.9276110358762
 21
2.361944820619001
 31
0.0
  0
LINE
  5
8C9
330
1F
100
AcDbEntity
  8
SK2
  6
CONTINUOUS
370
25
 62
7
100
AcDbLine
 10
-12.21464946336368
 20
3.07324731681841
 30
0.0
 11
-11.85690035775755
 21
2.715498211212278
 31
0.0
  0
LINE
  5
8CA
330
1F
100
AcDbEntity
  8
SK2
  6
CONTINUOUS
370
25
 62
7
100
AcDbLine
 10
-12.32071548054166
 20
3.603577402708332
 30
0.0
 11
-11.78618967963889
 21
3.069051601805555
 31
0.0
  0
LINE
  5
8CB
330
1F
100
AcDbEntity
  8
SK2
  6
CONTINUOUS
370
25
 62
7
100
AcDbLine
 10
-12.42678149771965
 20
4.133907488598233
 30
0.0
 11
-11.71547900152023
 21
3.422604992398817
 31
0.0
  0
LINE
  5
8CC
330
1F
100
AcDbEntity
  8
SK2
  6
CONTINUOUS
370
25
 62
7
100
AcDbLine
 10
-12.53284751489763
 20
4.664237574488155
 30
0.0
 11
-11.64476832340157
 21
3.776158382992094
 31
0.0
  0
LINE
  5
8CD
330
1F
100
AcDbEntity
  8
SK2
  6
CONTINUOUS
370
25
 62
7
100
AcDbLine
 10
-12.63891353207561
 20
5.194567660378063
 30
0.0
 11
-11.57405764528292
 21
4.12971177358537
 31
0.0
  0
LINE
  5
8CE
330
1F
100
AcDbEntity
  8
SK2
  6
CONTINUOUS
370
25
 62
7
100
AcDbLine
 10
-12.74497954925359
 20
5.724897746267985
 30
0.0
 11
-11.50334696716428
 21
4.483265164178668
 31
0.0
  0
LINE
  5
8CF
330
1F
100
AcDbEntity
  8
SK2
  6
CONTINUOUS
370
25
 62
7
100
AcDbLine
 10
-12.85104556643157
 20
6.255227832157892
 30
0.0
 11
-11.43263628904562
 21
4.836818554771938
 31
0.0
  0
LINE
  5
8D0
330
1F
100
AcDbEntity
  8
SK2
  6
CONTINUOUS
370
25
 62
7
100
AcDbLine
 10
-12.95711158360956
 20
6.785557918047814
 30
0.0
 11
-11.36192561092696
 21
5.190371945365214
 31
0.0
  0
LINE
  5
8D1
330
1F
100
AcDbEntity
  8
SK2
  6
CONTINUOUS
370
25
 62
7
100
AcDbLine
 10
-12.74728959684982
 20
7.0
 30
0.0
 11
-11.2912149328083
 21
5.543925335958484
 31
0.0
  0
LINE
  5
8D2
330
1F
100
AcDbEntity
  8
SK2
  6
CONTINUOUS
370
25
 62
7
100
AcDbLine
 10
-12.32302552813788
 20
7.0
 30
0.0
 11
-11.22050425468965
 21
5.897478726551768
 31
0.0
  0
LINE
  5
8D3
330
1F
100
AcDbEntity
  8
SK2
  6
CONTINUOUS
370
25
 62
7
100
AcDbLine
 10
-11.89876145942596
 20
7.0
 30
0.0
 11
-11.149793576571
 21
6.251032117145037
 31
0.0
  0
LINE
  5
8D4
330
1F
100
AcDbEntity
  8
SK2
  6
CONTINUOUS
370
25
 62
7
100
AcDbLine
 10
-11.47449739071403
 20
7.0
 30
0.0
 11
-11.07908289845233
 21
6.604585507738307
 31
0.0
  0
LINE
  5
8D5
330
1F
100
AcDbEntity
  8
SK2
  6
CONTINUOUS
370
25
 62
7
100
AcDbLine
 10
-11.05023332200209
 20
7.0
 30
0.0
 11
-11.00837222033368
 21
6.95813889833159
 31
0.0
  0
TEXT
  5
8D6
330
1F
100
AcDbEntity
  8
SK2
  6
CONTINUOUS
370
25
 62
7
100
AcDbText
 10
-13.5
 20
12.34583333333333
 30
0.0
 40
3.5
  1
4
 50
90.00000000000001
 72
     1
 11
-13.5
 21
13.5125
 31
0.0
100
AcDbText
  0
CIRCLE
  5
8D7
330
1F
100
AcDbEntity
  8
SK2
  6
CONTINUOUS
370
25
 62
7
100
AcDbCircle
 10
-15.25
 20
10.1875
 30
0.0
 40
1.4
  0
LINE
  5
8D8
330
1F
100
AcDbEntity
  8
SK2
  6
CONTINUOUS
370
25
 62
7
100
AcDbLine
 10
-13.85
 20
8.787500000000001
 30
0.0
 11
-16.65
 21
11.5875
 31
0.0
  0
LINE
  5
8D9
330
1F
100
AcDbEntity
  8
SK2
  6
CONTINUOUS
370
25
 62
7
100
AcDbLine
 10
0.0
 20
2.0
 30
0.0
 11
0.0
 21
15.00001
 31
0.0
  0
LINE
  5
8DA
330
1F
100
AcDbEntity
  8
SK2
  6
CONTINUOUS
370
25
 62
7
100
AcDbLine
 10
37.1
 20
15.00001
 30
0.0
 11
37.1
 21
2.0
 31
0.0
  0
LINE
  5
8DB
330
1F
100
AcDbEntity
  8
SK2
  6
CONTINUOUS
370
25
 62
7
100
AcDbLine
 10
0.0
 20
14.00001
 30
0.0
 11
37.1
 21
14.00001
 31
0.0
  0
LINE
  5
8DC
330
1F
100
AcDbEntity
  8
SK2
  6
CONTINUOUS
370
25
 62
7
100
AcDbLine
 10
0.0
 20
14.00001
 30
0.0
 11
5.0
 21
15.00001
 31
0.0
  0
LINE
  5
8DD
330
1F
100
AcDbEntity
  8
SK2
  6
CONTINUOUS
370
25
 62
7
100
AcDbLine
 10
5.0
 20
15.00001
 30
0.0
 11
5.0
 21
13.00001
 31
0.0
  0
LINE
  5
8DE
330
1F
100
AcDbEntity
  8
SK2
  6
CONTINUOUS
370
25
 62
7
100
AcDbLine
 10
5.0
 20
13.00001
 30
0.0
 11
0.0
 21
14.00001
 31
0.0
  0
LINE
  5
8DF
330
1F
100
AcDbEntity
  8
SK2
  6
CONTINUOUS
370
25
 62
7
100
AcDbLine
 10
4.753128873186405
 20
13.04938422536273
 30
0.0
 11
5.0
 21
13.29625535217632
 31
0.0
  0
LINE
  5
8E0
330
1F
100
AcDbEntity
  8
SK2
  6
CONTINUOUS
370
25
 62
7
100
AcDbLine
 10
4.399575482593129
 20
13.12009490348138
 30
0.0
 11
5.0
 21
13.72051942088825
 31
0.0
  0
LINE
  5
8E1
330
1F
100
AcDbEntity
  8
SK2
  6
CONTINUOUS
370
25
 62
7
100
AcDbLine
 10
4.046022091999845
 20
13.19080558160002
 30
0.0
 11
5.0
 21
14.14478348960018
 31
0.0
  0
LINE
  5
8E2
330
1F
100
AcDbEntity
  8
SK2
  6
CONTINUOUS
370
25
 62
7
100
AcDbLine
 10
3.692468701406582
 20
13.26151625971869
 30
0.0
 11
5.0
 21
14.5690475583121
 31
0.0
  0
LINE
  5
8E3
330
1F
100
AcDbEntity
  8
SK2
  6
CONTINUOUS
370
25
 62
7
100
AcDbLine
 10
3.338915310813306
 20
13.33222693783734
 30
0.0
 11
5.0
 21
14.99331162702403
 31
0.0
  0
LINE
  5
8E4
330
1F
100
AcDbEntity
  8
SK2
  6
CONTINUOUS
370
25
 62
7
100
AcDbLine
 10
2.985361920220022
 20
13.402937615956
 30
0.0
 11
4.478042880330037
 21
14.89561857606601
 31
0.0
  0
LINE
  5
8E5
330
1F
100
AcDbEntity
  8
SK2
  6
CONTINUOUS
370
25
 62
7
100
AcDbLine
 10
2.631808529626753
 20
13.47364829407465
 30
0.0
 11
3.947712794440136
 21
14.78955255888803
 31
0.0
  0
LINE
  5
8E6
330
1F
100
AcDbEntity
  8
SK2
  6
CONTINUOUS
370
25
 62
7
100
AcDbLine
 10
2.278255139033476
 20
13.54435897219331
 30
0.0
 11
3.417382708550221
 21
14.68348654171005
 31
0.0
  0
LINE
  5
8E7
330
1F
100
AcDbEntity
  8
SK2
  6
CONTINUOUS
370
25
 62
7
100
AcDbLine
 10
1.924701748440206
 20
13.61506965031197
 30
0.0
 11
2.887052622660306
 21
14.57742052453206
 31
0.0
  0
LINE
  5
8E8
330
1F
100
AcDbEntity
  8
SK2
  6
CONTINUOUS
370
25
 62
7
100
AcDbLine
 10
1.57114835784693
 20
13.68578032843062
 30
0.0
 11
2.356722536770391
 21
14.47135450735408
 31
0.0
  0
LINE
  5
8E9
330
1F
100
AcDbEntity
  8
SK2
  6
CONTINUOUS
370
25
 62
7
100
AcDbLine
 10
1.217594967253646
 20
13.75649100654927
 30
0.0
 11
1.826392450880476
 21
14.3652884901761
 31
0.0
  0
LINE
  5
8EA
330
1F
100
AcDbEntity
  8
SK2
  6
CONTINUOUS
370
25
 62
7
100
AcDbLine
 10
0.8640415766603695
 20
13.82720168466793
 30
0.0
 11
1.296062364990554
 21
14.25922247299811
 31
0.0
  0
LINE
  5
8EB
330
1F
100
AcDbEntity
  8
SK2
  6
CONTINUOUS
370
25
 62
7
100
AcDbLine
 10
0.5104881860671
 20
13.89791236278658
 30
0.0
 11
0.7657322791006465
 21
14.15315645582012
 31
0.0
  0
LINE
  5
8EC
330
1F
100
AcDbEntity
  8
SK2
  6
CONTINUOUS
370
25
 62
7
100
AcDbLine
 10
0.1569347954738163
 20
13.96862304090524
 30
0.0
 11
0.2354021932107315
 21
14.04709043864215
 31
0.0
  0
LINE
  5
8ED
330
1F
100
AcDbEntity
  8
SK2
  6
CONTINUOUS
370
25
 62
7
100
AcDbLine
 10
0.2094098901357455
 20
14.04189197802715
 30
0.0
 11
0.3141148352036183
 21
13.93718703295927
 31
0.0
  0
LINE
  5
8EE
330
1F
100
AcDbEntity
  8
SK2
  6
CONTINUOUS
370
25
 62
7
100
AcDbLine
 10
0.5629632807290221
 20
14.11260265614581
 30
0.0
 11
0.8444449210935332
 21
13.8311210157813
 31
0.0
  0
LINE
  5
8EF
330
1F
100
AcDbEntity
  8
SK2
  6
CONTINUOUS
370
25
 62
7
100
AcDbLine
 10
0.9165166713222987
 20
14.18331333426446
 30
0.0
 11
1.374775006983455
 21
13.72505499860331
 31
0.0
  0
LINE
  5
8F0
330
1F
100
AcDbEntity
  8
SK2
  6
CONTINUOUS
370
25
 62
7
100
AcDbLine
 10
1.270070061915568
 20
14.25402401238312
 30
0.0
 11
1.905105092873356
 21
13.61898898142533
 31
0.0
  0
LINE
  5
8F1
330
1F
100
AcDbEntity
  8
SK2
  6
CONTINUOUS
370
25
 62
7
100
AcDbLine
 10
1.623623452508845
 20
14.32473469050177
 30
0.0
 11
2.435435178763271
 21
13.51292296424734
 31
0.0
  0
LINE
  5
8F2
330
1F
100
AcDbEntity
  8
SK2
  6
CONTINUOUS
370
25
 62
7
100
AcDbLine
 10
1.977176843102114
 20
14.39544536862043
 30
0.0
 11
2.965765264653179
 21
13.40685694706936
 31
0.0
  0
LINE
  5
8F3
330
1F
100
AcDbEntity
  8
SK2
  6
CONTINUOUS
370
25
 62
7
100
AcDbLine
 10
2.330730233695391
 20
14.46615604673908
 30
0.0
 11
3.496095350543087
 21
13.30079092989138
 31
0.0
  0
LINE
  5
8F4
330
1F
100
AcDbEntity
  8
SK2
  6
CONTINUOUS
370
25
 62
7
100
AcDbLine
 10
2.684283624288668
 20
14.53686672485773
 30
0.0
 11
4.026425436433001
 21
13.1947249127134
 31
0.0
  0
LINE
  5
8F5
330
1F
100
AcDbEntity
  8
SK2
  6
CONTINUOUS
370
25
 62
7
100
AcDbLine
 10
3.037837014881937
 20
14.6075774029764
 30
0.0
 11
4.556755522322916
 21
13.08865889553541
 31
0.0
  0
LINE
  5
8F6
330
1F
100
AcDbEntity
  8
SK2
  6
CONTINUOUS
370
25
 62
7
100
AcDbLine
 10
3.391390405475214
 20
14.67828808109504
 30
0.0
 11
5.0
 21
13.06967848657025
 31
0.0
  0
LINE
  5
8F7
330
1F
100
AcDbEntity
  8
SK2
  6
CONTINUOUS
370
25
 62
7
100
AcDbLine
 10
3.744943796068483
 20
14.74899875921371
 30
0.0
 11
5.0
 21
13.49394255528218
 31
0.0
  0
LINE
  5
8F8
330
1F
100
AcDbEntity
  8
SK2
  6
CONTINUOUS
370
25
 62
7
100
AcDbLine
 10
4.09849718666176
 20
14.81970943733236
 30
0.0
 11
5.0
 21
13.91820662399411
 31
0.0
  0
LINE
  5
8F9
330
1F
100
AcDbEntity
  8
SK2
  6
CONTINUOUS
370
25
 62
7
100
AcDbLine
 10
4.452050577255037
 20
14.89042011545101
 30
0.0
 11
5.0
 21
14.34247069270604
 31
0.0
  0
LINE
  5
8FA
330
1F
100
AcDbEntity
  8
SK2
  6
CONTINUOUS
370
25
 62
7
100
AcDbLine
 10
4.805603967848313
 20
14.96113079356966
 30
0.0
 11
5.0
 21
14.76673476141798
 31
0.0
  0
LINE
  5
8FB
330
1F
100
AcDbEntity
  8
SK2
  6
CONTINUOUS
370
25
 62
7
100
AcDbLine
 10
37.1
 20
14.00001
 30
0.0
 11
32.1
 21
13.00001
 31
0.0
  0
LINE
  5
8FC
330
1F
100
AcDbEntity
  8
SK2
  6
CONTINUOUS
370
25
 62
7
100
AcDbLine
 10
32.1
 20
13.00001
 30
0.0
 11
32.1
 21
15.00001
 31
0.0
  0
LINE
  5
8FD
330
1F
100
AcDbEntity
  8
SK2
  6
CONTINUOUS
370
25
 62
7
100
AcDbLine
 10
32.1
 20
15.00001
 30
0.0
 11
37.1
 21
14.00001
 31
0.0
  0
LINE
  5
8FE
330
1F
100
AcDbEntity
  8
SK2
  6
CONTINUOUS
370
25
 62
7
100
AcDbLine
 10
37.09911966563295
 20
13.99983393312659
 30
0.0
 11
37.09941311042196
 21
14.00012737791561
 31
0.0
  0
LINE
  5
8FF
330
1F
100
AcDbEntity
  8
SK2
  6
CONTINUOUS
370
25
 62
7
100
AcDbLine
 10
36.56878957974304
 20
13.89376791594861
 30
0.0
 11
36.74585971982869
 21
14.07083805603426
 31
0.0
  0
LINE
  5
900
330
1F
100
AcDbEntity
  8
SK2
  6
CONTINUOUS
370
25
 62
7
100
AcDbLine
 10
36.03845949385313
 20
13.78770189877063
 30
0.0
 11
36.39230632923542
 21
14.14154873415292
 31
0.0
  0
LINE
  5
901
330
1F
100
AcDbEntity
  8
SK2
  6
CONTINUOUS
370
25
 62
7
100
AcDbLine
 10
35.50812940796322
 20
13.68163588159264
 30
0.0
 11
36.03875293864215
 21
14.21225941227157
 31
0.0
  0
LINE
  5
902
330
1F
100
AcDbEntity
  8
SK2
  6
CONTINUOUS
370
25
 62
7
100
AcDbLine
 10
34.97779932207331
 20
13.57556986441466
 30
0.0
 11
35.68519954804887
 21
14.28297009039023
 31
0.0
  0
LINE
  5
903
330
1F
100
AcDbEntity
  8
SK2
  6
CONTINUOUS
370
25
 62
7
100
AcDbLine
 10
34.4474692361834
 20
13.46950384723668
 30
0.0
 11
35.3316461574556
 21
14.35368076850888
 31
0.0
  0
LINE
  5
904
330
1F
100
AcDbEntity
  8
SK2
  6
CONTINUOUS
370
25
 62
7
100
AcDbLine
 10
33.91713915029349
 20
13.3634378300587
 30
0.0
 11
34.97809276686232
 21
14.42439144662753
 31
0.0
  0
LINE
  5
905
330
1F
100
AcDbEntity
  8
SK2
  6
CONTINUOUS
370
25
 62
7
100
AcDbLine
 10
33.38680906440358
 20
13.25737181288071
 30
0.0
 11
34.62453937626906
 21
14.49510212474619
 31
0.0
  0
LINE
  5
906
330
1F
100
AcDbEntity
  8
SK2
  6
CONTINUOUS
370
25
 62
7
100
AcDbLine
 10
32.85647897851367
 20
13.15130579570273
 30
0.0
 11
34.27098598567578
 21
14.56581280286484
 31
0.0
  0
LINE
  5
907
330
1F
100
AcDbEntity
  8
SK2
  6
CONTINUOUS
370
25
 62
7
100
AcDbLine
 10
32.32614889262376
 20
13.04523977852475
 30
0.0
 11
33.91743259508251
 21
14.6365234809835
 31
0.0
  0
LINE
  5
908
330
1F
100
AcDbEntity
  8
SK2
  6
CONTINUOUS
370
25
 62
7
100
AcDbLine
 10
32.1
 20
13.24335495461292
 30
0.0
 11
33.56387920448923
 21
14.70723415910215
 31
0.0
  0
LINE
  5
909
330
1F
100
AcDbEntity
  8
SK2
  6
CONTINUOUS
370
25
 62
7
100
AcDbLine
 10
32.1
 20
13.66761902332485
 30
0.0
 11
33.21032581389596
 21
14.77794483722081
 31
0.0
  0
LINE
  5
90A
330
1F
100
AcDbEntity
  8
SK2
  6
CONTINUOUS
370
25
 62
7
100
AcDbLine
 10
32.1
 20
14.09188309203677
 30
0.0
 11
32.85677242330269
 21
14.84865551533946
 31
0.0
  0
LINE
  5
90B
330
1F
100
AcDbEntity
  8
SK2
  6
CONTINUOUS
370
25
 62
7
100
AcDbLine
 10
32.1
 20
14.5161471607487
 30
0.0
 11
32.50321903270942
 21
14.91936619345812
 31
0.0
  0
LINE
  5
90C
330
1F
100
AcDbEntity
  8
SK2
  6
CONTINUOUS
370
25
 62
7
100
AcDbLine
 10
32.1
 20
14.94041122946063
 30
0.0
 11
32.14966564211614
 21
14.99007687157677
 31
0.0
  0
LINE
  5
90D
330
1F
100
AcDbEntity
  8
SK2
  6
CONTINUOUS
370
25
 62
7
100
AcDbLine
 10
32.1
 20
13.06101730552664
 30
0.0
 11
32.1508394212722
 21
13.01017788425444
 31
0.0
  0
LINE
  5
90E
330
1F
100
AcDbEntity
  8
SK2
  6
CONTINUOUS
370
25
 62
7
100
AcDbLine
 10
32.1
 20
13.48528137423857
 30
0.0
 11
32.50439281186548
 21
13.08088856237309
 31
0.0
  0
LINE
  5
90F
330
1F
100
AcDbEntity
  8
SK2
  6
CONTINUOUS
370
25
 62
7
100
AcDbLine
 10
32.1
 20
13.9095454429505
 30
0.0
 11
32.85794620245875
 21
13.15159924049175
 31
0.0
  0
LINE
  5
910
330
1F
100
AcDbEntity
  8
SK2
  6
CONTINUOUS
370
25
 62
7
100
AcDbLine
 10
32.1
 20
14.33380951166242
 30
0.0
 11
33.21149959305203
 21
13.2223099186104
 31
0.0
  0
LINE
  5
911
330
1F
100
AcDbEntity
  8
SK2
  6
CONTINUOUS
370
25
 62
7
100
AcDbLine
 10
32.1
 20
14.75807358037435
 30
0.0
 11
33.56505298364529
 21
13.29302059672906
 31
0.0
  0
LINE
  5
912
330
1F
100
AcDbEntity
  8
SK2
  6
CONTINUOUS
370
25
 62
7
100
AcDbLine
 10
32.32790956135785
 20
14.95442808772843
 30
0.0
 11
33.91860637423857
 21
13.36373127484771
 31
0.0
  0
LINE
  5
913
330
1F
100
AcDbEntity
  8
SK2
  6
CONTINUOUS
370
25
 62
7
100
AcDbLine
 10
32.85823964724776
 20
14.84836207055045
 30
0.0
 11
34.27215976483184
 21
13.43444195296637
 31
0.0
  0
LINE
  5
914
330
1F
100
AcDbEntity
  8
SK2
  6
CONTINUOUS
370
25
 62
7
100
AcDbLine
 10
33.38856973313767
 20
14.74229605337247
 30
0.0
 11
34.62571315542512
 21
13.50515263108502
 31
0.0
  0
LINE
  5
915
330
1F
100
AcDbEntity
  8
SK2
  6
CONTINUOUS
370
25
 62
7
100
AcDbLine
 10
33.91889981902758
 20
14.63623003619448
 30
0.0
 11
34.97926654601839
 21
13.57586330920368
 31
0.0
  0
LINE
  5
916
330
1F
100
AcDbEntity
  8
SK2
  6
CONTINUOUS
370
25
 62
7
100
AcDbLine
 10
34.44922990491749
 20
14.5301640190165
 30
0.0
 11
35.33281993661166
 21
13.64657398732233
 31
0.0
  0
LINE
  5
917
330
1F
100
AcDbEntity
  8
SK2
  6
CONTINUOUS
370
25
 62
7
100
AcDbLine
 10
34.9795599908074
 20
14.42409800183852
 30
0.0
 11
35.68637332720494
 21
13.71728466544099
 31
0.0
  0
LINE
  5
918
330
1F
100
AcDbEntity
  8
SK2
  6
CONTINUOUS
370
25
 62
7
100
AcDbLine
 10
35.50989007669731
 20
14.31803198466054
 30
0.0
 11
36.03992671779821
 21
13.78799534355964
 31
0.0
  0
LINE
  5
919
330
1F
100
AcDbEntity
  8
SK2
  6
CONTINUOUS
370
25
 62
7
100
AcDbLine
 10
36.04022016258723
 20
14.21196596748256
 30
0.0
 11
36.39348010839149
 21
13.8587060216783
 31
0.0
  0
LINE
  5
91A
330
1F
100
AcDbEntity
  8
SK2
  6
CONTINUOUS
370
25
 62
7
100
AcDbLine
 10
36.57055024847713
 20
14.10589995030457
 30
0.0
 11
36.74703349898476
 21
13.92941669979695
 31
0.0
  0
TEXT
  5
91B
330
1F
100
AcDbEntity
  8
SK2
  6
CONTINUOUS
370
25
 62
7
100
AcDbText
 10
13.88333333333333
 20
15.50001
 30
0.0
 40
3.5
  1
37.1
 72
     1
 11
18.55
 21
15.50001
 31
0.0
100
AcDbText
  0
LINE
  5
91C
330
1F
100
AcDbEntity
  8
2
  6
CONTINUOUS
370
25
 62
7
100
AcDbLine
 10
45.0
 20
-0.05
 30
0.0
 11
71.92500000000001
 21
-0.0500000000000033
 31
0.0
  0
LINE
  5
91D
330
1F
100
AcDbEntity
  8
2
  6
CONTINUOUS
370
25
 62
7
100
AcDbLine
 10
71.92500000000001
 20
0.0499999999999967
 30
0.0
 11
45.0
 21
0.05
 31
0.0
  0
LINE
  5
91E
330
1F
100
AcDbEntity
  8
2
  6
CONTINUOUS
370
25
 62
7
100
AcDbLine
 10
70.92500000000001
 20
-7.050000000000003
 30
0.0
 11
70.92500000000001
 21
19.47499999999999
 31
0.0
  0
LINE
  5
91F
330
1F
100
AcDbEntity
  8
2
  6
CONTINUOUS
370
25
 62
7
100
AcDbLine
 10
70.92500000000001
 20
-0.0500000000000032
 30
0.0
 11
71.92500000000001
 21
-5.050000000000003
 31
0.0
  0
LINE
  5
920
330
1F
100
AcDbEntity
  8
2
  6
CONTINUOUS
370
25
 62
7
100
AcDbLine
 10
71.92500000000001
 20
-5.050000000000003
 30
0.0
 11
69.92500000000001
 21
-5.050000000000003
 31
0.0
  0
LINE
  5
921
330
1F
100
AcDbEntity
  8
2
  6
CONTINUOUS
370
25
 62
7
100
AcDbLine
 10
69.92500000000001
 20
-5.050000000000003
 30
0.0
 11
70.92500000000001
 21
-0.0500000000000032
 31
0.0
  0
LINE
  5
922
330
1F
100
AcDbEntity
  8
2
  6
CONTINUOUS
370
25
 62
7
100
AcDbLine
 10
71.59947572691965
 20
-5.050000000000004
 30
0.0
 11
71.87074595448661
 21
-4.778729772433053
 31
0.0
  0
LINE
  5
923
330
1F
100
AcDbEntity
  8
2
  6
CONTINUOUS
370
25
 62
7
100
AcDbLine
 10
71.17521165820773
 20
-5.050000000000004
 30
0.0
 11
71.80003527636796
 21
-4.425176381839776
 31
0.0
  0
LINE
  5
924
330
1F
100
AcDbEntity
  8
2
  6
CONTINUOUS
370
25
 62
7
100
AcDbLine
 10
70.75094758949581
 20
-5.050000000000004
 30
0.0
 11
71.72932459824929
 21
-4.071622991246507
 31
0.0
  0
LINE
  5
925
330
1F
100
AcDbEntity
  8
2
  6
CONTINUOUS
370
25
 62
7
100
AcDbLine
 10
70.32668352078386
 20
-5.050000000000004
 30
0.0
 11
71.65861392013065
 21
-3.71806960065323
 31
0.0
  0
LINE
  5
926
330
1F
100
AcDbEntity
  8
2
  6
CONTINUOUS
370
25
 62
7
100
AcDbLine
 10
69.93064513698201
 20
-5.021774315089942
 30
0.0
 11
71.58790324201199
 21
-3.364516210059961
 31
0.0
  0
LINE
  5
927
330
1F
100
AcDbEntity
  8
2
  6
CONTINUOUS
370
25
 62
7
100
AcDbLine
 10
70.03671115416
 20
-4.491444229200034
 30
0.0
 11
71.51719256389333
 21
-3.010962819466684
 31
0.0
  0
LINE
  5
928
330
1F
100
AcDbEntity
  8
2
  6
CONTINUOUS
370
25
 62
7
100
AcDbLine
 10
70.14277717133798
 20
-3.961114143310105
 30
0.0
 11
71.44648188577469
 21
-2.657409428873407
 31
0.0
  0
LINE
  5
929
330
1F
100
AcDbEntity
  8
2
  6
CONTINUOUS
370
25
 62
7
100
AcDbLine
 10
70.24884318851596
 20
-3.43078405742019
 30
0.0
 11
71.37577120765602
 21
-2.303856038280131
 31
0.0
  0
LINE
  5
92A
330
1F
100
AcDbEntity
  8
2
  6
CONTINUOUS
370
25
 62
7
100
AcDbLine
 10
70.35490920569396
 20
-2.900453971530283
 30
0.0
 11
71.30506052953737
 21
-1.950302647686861
 31
0.0
  0
LINE
  5
92B
330
1F
100
AcDbEntity
  8
2
  6
CONTINUOUS
370
25
 62
7
100
AcDbLine
 10
70.46097522287192
 20
-2.370123885640368
 30
0.0
 11
71.23434985141871
 21
-1.596749257093578
 31
0.0
  0
LINE
  5
92C
330
1F
100
AcDbEntity
  8
2
  6
CONTINUOUS
370
25
 62
7
100
AcDbLine
 10
70.56704124004992
 20
-1.839793799750446
 30
0.0
 11
71.16363917330006
 21
-1.243195866500301
 31
0.0
  0
LINE
  5
92D
330
1F
100
AcDbEntity
  8
2
  6
CONTINUOUS
370
25
 62
7
100
AcDbLine
 10
70.67310725722788
 20
-1.309463713860552
 30
0.0
 11
71.09292849518141
 21
-0.8896424759070314
 31
0.0
  0
LINE
  5
92E
330
1F
100
AcDbEntity
  8
2
  6
CONTINUOUS
370
25
 62
7
100
AcDbLine
 10
70.77917327440588
 20
-0.7791336279706229
 30
0.0
 11
71.02221781706274
 21
-0.5360890853137548
 31
0.0
  0
LINE
  5
92F
330
1F
100
AcDbEntity
  8
2
  6
CONTINUOUS
370
25
 62
7
100
AcDbLine
 10
70.88523929158386
 20
-0.248803542080708
 30
0.0
 11
70.9515071389441
 21
-0.182535694720471
 31
0.0
  0
LINE
  5
930
330
1F
100
AcDbEntity
  8
2
  6
CONTINUOUS
370
25
 62
7
100
AcDbLine
 10
69.96273808916455
 20
-4.861309554177279
 30
0.0
 11
70.15142853498728
 21
-5.050000000000001
 31
0.0
  0
LINE
  5
931
330
1F
100
AcDbEntity
  8
2
  6
CONTINUOUS
370
25
 62
7
100
AcDbLine
 10
70.0334487672832
 20
-4.507756163584013
 30
0.0
 11
70.5756926036992
 21
-5.050000000000004
 31
0.0
  0
LINE
  5
932
330
1F
100
AcDbEntity
  8
2
  6
CONTINUOUS
370
25
 62
7
100
AcDbLine
 10
70.10415944540186
 20
-4.15420277299074
 30
0.0
 11
70.99995667241113
 21
-5.050000000000001
 31
0.0
  0
LINE
  5
933
330
1F
100
AcDbEntity
  8
2
  6
CONTINUOUS
370
25
 62
7
100
AcDbLine
 10
70.17487012352052
 20
-3.800649382397463
 30
0.0
 11
71.42422074112307
 21
-5.050000000000001
 31
0.0
  0
LINE
  5
934
330
1F
100
AcDbEntity
  8
2
  6
CONTINUOUS
370
25
 62
7
100
AcDbLine
 10
70.24558080163916
 20
-3.447095991804183
 30
0.0
 11
71.84848480983499
 21
-5.050000000000004
 31
0.0
  0
LINE
  5
935
330
1F
100
AcDbEntity
  8
2
  6
CONTINUOUS
370
25
 62
7
100
AcDbLine
 10
70.31629147975782
 20
-3.093542601210906
 30
0.0
 11
71.83806278036327
 21
-4.61531390181635
 31
0.0
  0
LINE
  5
936
330
1F
100
AcDbEntity
  8
2
  6
CONTINUOUS
370
25
 62
7
100
AcDbLine
 10
70.38700215787648
 20
-2.73998921061763
 30
0.0
 11
71.7319967631853
 21
-4.084983815926442
 31
0.0
  0
LINE
  5
937
330
1F
100
AcDbEntity
  8
2
  6
CONTINUOUS
370
25
 62
7
100
AcDbLine
 10
70.45771283599512
 20
-2.386435820024364
 30
0.0
 11
71.6259307460073
 21
-3.554653730036531
 31
0.0
  0
LINE
  5
938
330
1F
100
AcDbEntity
  8
2
  6
CONTINUOUS
370
25
 62
7
100
AcDbLine
 10
70.5284235141138
 20
-2.032882429431087
 30
0.0
 11
71.51986472882933
 21
-3.024323644146623
 31
0.0
  0
LINE
  5
939
330
1F
100
AcDbEntity
  8
2
  6
CONTINUOUS
370
25
 62
7
100
AcDbLine
 10
70.59913419223244
 20
-1.679329038837821
 30
0.0
 11
71.41379871165134
 21
-2.493993558256697
 31
0.0
  0
LINE
  5
93A
330
1F
100
AcDbEntity
  8
2
  6
CONTINUOUS
370
25
 62
7
100
AcDbLine
 10
70.6698448703511
 20
-1.325775648244537
 30
0.0
 11
71.30773269447336
 21
-1.963663472366797
 31
0.0
  0
LINE
  5
93B
330
1F
100
AcDbEntity
  8
2
  6
CONTINUOUS
370
25
 62
7
100
AcDbLine
 10
70.74055554846976
 20
-0.9722222576512607
 30
0.0
 11
71.20166667729538
 21
-1.433333386476875
 31
0.0
  0
LINE
  5
93C
330
1F
100
AcDbEntity
  8
2
  6
CONTINUOUS
370
25
 62
7
100
AcDbLine
 10
70.8112662265884
 20
-0.6186688670579912
 30
0.0
 11
71.0956006601174
 21
-0.9030033005869811
 31
0.0
  0
LINE
  5
93D
330
1F
100
AcDbEntity
  8
2
  6
CONTINUOUS
370
25
 62
7
100
AcDbLine
 10
70.88197690470707
 20
-0.2651154764647217
 30
0.0
 11
70.9895346429394
 21
-0.372673214697052
 31
0.0
  0
LINE
  5
93E
330
1F
100
AcDbEntity
  8
2
  6
CONTINUOUS
370
25
 62
7
100
AcDbLine
 10
70.92500000000001
 20
0.0499999999999968
 30
0.0
 11
69.92500000000001
 21
5.049999999999997
 31
0.0
  0
LINE
  5
93F
330
1F
100
AcDbEntity
  8
2
  6
CONTINUOUS
370
25
 62
7
100
AcDbLine
 10
69.92500000000001
 20
5.049999999999997
 30
0.0
 11
71.92500000000001
 21
5.049999999999997
 31
0.0
  0
LINE
  5
940
330
1F
100
AcDbEntity
  8
2
  6
CONTINUOUS
370
25
 62
7
100
AcDbLine
 10
71.92500000000001
 20
5.049999999999997
 30
0.0
 11
70.92500000000001
 21
0.0499999999999968
 31
0.0
  0
LINE
  5
941
330
1F
100
AcDbEntity
  8
2
  6
CONTINUOUS
370
25
 62
7
100
AcDbLine
 10
70.89451940233982
 20
0.2024029883008822
 30
0.0
 11
70.97072089649026
 21
0.2786044824513212
 31
0.0
  0
LINE
  5
942
330
1F
100
AcDbEntity
  8
2
  6
CONTINUOUS
370
25
 62
7
100
AcDbLine
 10
70.82380872422117
 20
0.5559563788941517
 30
0.0
 11
71.07678691366824
 21
0.808934568341229
 31
0.0
  0
LINE
  5
943
330
1F
100
AcDbEntity
  8
2
  6
CONTINUOUS
370
25
 62
7
100
AcDbLine
 10
70.75309804610251
 20
0.9095097694874354
 30
0.0
 11
71.18285293084622
 21
1.339264654231144
 31
0.0
  0
LINE
  5
944
330
1F
100
AcDbEntity
  8
2
  6
CONTINUOUS
370
25
 62
7
100
AcDbLine
 10
70.68238736798386
 20
1.263063160080705
 30
0.0
 11
71.28891894802422
 21
1.869594740121059
 31
0.0
  0
LINE
  5
945
330
1F
100
AcDbEntity
  8
2
  6
CONTINUOUS
370
25
 62
7
100
AcDbLine
 10
70.6116766898652
 20
1.616616550673982
 30
0.0
 11
71.39498496520218
 21
2.399924826010967
 31
0.0
  0
LINE
  5
946
330
1F
100
AcDbEntity
  8
2
  6
CONTINUOUS
370
25
 62
7
100
AcDbLine
 10
70.54096601174655
 20
1.970169941267255
 30
0.0
 11
71.50105098238018
 21
2.930254911900878
 31
0.0
  0
LINE
  5
947
330
1F
100
AcDbEntity
  8
2
  6
CONTINUOUS
370
25
 62
7
100
AcDbLine
 10
70.47025533362789
 20
2.323723331860524
 30
0.0
 11
71.60711699955816
 21
3.460584997790793
 31
0.0
  0
LINE
  5
948
330
1F
100
AcDbEntity
  8
2
  6
CONTINUOUS
370
25
 62
7
100
AcDbLine
 10
70.39954465550923
 20
2.677276722453804
 30
0.0
 11
71.71318301673614
 21
3.990915083680711
 31
0.0
  0
LINE
  5
949
330
1F
100
AcDbEntity
  8
2
  6
CONTINUOUS
370
25
 62
7
100
AcDbLine
 10
70.32883397739059
 20
3.030830113047077
 30
0.0
 11
71.81924903391413
 21
4.521245169570637
 31
0.0
  0
LINE
  5
94A
330
1F
100
AcDbEntity
  8
2
  6
CONTINUOUS
370
25
 62
7
100
AcDbLine
 10
70.25812329927193
 20
3.384383503640354
 30
0.0
 11
71.92373979563156
 21
5.049999999999994
 31
0.0
  0
LINE
  5
94B
330
1F
100
AcDbEntity
  8
2
  6
CONTINUOUS
370
25
 62
7
100
AcDbLine
 10
70.18741262115327
 20
3.737936894233627
 30
0.0
 11
71.49947572691963
 21
5.049999999999997
 31
0.0
  0
LINE
  5
94C
330
1F
100
AcDbEntity
  8
2
  6
CONTINUOUS
370
25
 62
7
100
AcDbLine
 10
70.11670194303461
 20
4.091490284826904
 30
0.0
 11
71.0752116582077
 21
5.049999999999997
 31
0.0
  0
LINE
  5
94D
330
1F
100
AcDbEntity
  8
2
  6
CONTINUOUS
370
25
 62
7
100
AcDbLine
 10
70.04599126491595
 20
4.44504367542018
 30
0.0
 11
70.65094758949579
 21
5.049999999999997
 31
0.0
  0
LINE
  5
94E
330
1F
100
AcDbEntity
  8
2
  6
CONTINUOUS
370
25
 62
7
100
AcDbLine
 10
69.97528058679731
 20
4.79859706601346
 30
0.0
 11
70.22668352078384
 21
5.049999999999994
 31
0.0
  0
LINE
  5
94F
330
1F
100
AcDbEntity
  8
2
  6
CONTINUOUS
370
25
 62
7
100
AcDbLine
 10
70.90846862576143
 20
0.1326568711928431
 30
0.0
 11
70.93602091615904
 21
0.1051045807952278
 31
0.0
  0
LINE
  5
950
330
1F
100
AcDbEntity
  8
2
  6
CONTINUOUS
370
25
 62
7
100
AcDbLine
 10
70.80240260858345
 20
0.662986957082758
 30
0.0
 11
71.0067315942777
 21
0.4586579713885115
 31
0.0
  0
LINE
  5
951
330
1F
100
AcDbEntity
  8
2
  6
CONTINUOUS
370
25
 62
7
100
AcDbLine
 10
70.69633659140547
 20
1.193317042972673
 30
0.0
 11
71.07744227239635
 21
0.8122113619817739
 31
0.0
  0
LINE
  5
952
330
1F
100
AcDbEntity
  8
2
  6
CONTINUOUS
370
25
 62
7
100
AcDbLine
 10
70.59027057422749
 20
1.723647128862574
 30
0.0
 11
71.14815295051501
 21
1.165764752575051
 31
0.0
  0
LINE
  5
953
330
1F
100
AcDbEntity
  8
2
  6
CONTINUOUS
370
25
 62
7
100
AcDbLine
 10
70.48420455704951
 20
2.253977214752489
 30
0.0
 11
71.21886362863367
 21
1.519318143168327
 31
0.0
  0
LINE
  5
954
330
1F
100
AcDbEntity
  8
2
  6
CONTINUOUS
370
25
 62
7
100
AcDbLine
 10
70.37813853987151
 20
2.784307300642396
 30
0.0
 11
71.28957430675231
 21
1.872871533761604
 31
0.0
  0
LINE
  5
955
330
1F
100
AcDbEntity
  8
2
  6
CONTINUOUS
370
25
 62
7
100
AcDbLine
 10
70.27207252269355
 20
3.314637386532304
 30
0.0
 11
71.36028498487097
 21
2.22642492435488
 31
0.0
  0
LINE
  5
956
330
1F
100
AcDbEntity
  8
2
  6
CONTINUOUS
370
25
 62
7
100
AcDbLine
 10
70.16600650551555
 20
3.844967472422219
 30
0.0
 11
71.43099566298963
 21
2.57997831494815
 31
0.0
  0
LINE
  5
957
330
1F
100
AcDbEntity
  8
2
  6
CONTINUOUS
370
25
 62
7
100
AcDbLine
 10
70.05994048833757
 20
4.375297558312127
 30
0.0
 11
71.50170634110827
 21
2.933531705541434
 31
0.0
  0
LINE
  5
958
330
1F
100
AcDbEntity
  8
2
  6
CONTINUOUS
370
25
 62
7
100
AcDbLine
 10
69.9538744711596
 20
4.905627644202042
 30
0.0
 11
71.57241701922695
 21
3.287085096134703
 31
0.0
  0
LINE
  5
959
330
1F
100
AcDbEntity
  8
2
  6
CONTINUOUS
370
25
 62
7
100
AcDbLine
 10
70.23376618407357
 20
5.049999999999997
 30
0.0
 11
71.64312769734559
 21
3.640638486727973
 31
0.0
  0
LINE
  5
95A
330
1F
100
AcDbEntity
  8
2
  6
CONTINUOUS
370
25
 62
7
100
AcDbLine
 10
70.6580302527855
 20
5.049999999999997
 30
0.0
 11
71.71383837546423
 21
3.994191877321263
 31
0.0
  0
LINE
  5
95B
330
1F
100
AcDbEntity
  8
2
  6
CONTINUOUS
370
25
 62
7
100
AcDbLine
 10
71.08229432149743
 20
5.049999999999997
 30
0.0
 11
71.78454905358291
 21
4.347745267914519
 31
0.0
  0
LINE
  5
95C
330
1F
100
AcDbEntity
  8
2
  6
CONTINUOUS
370
25
 62
7
100
AcDbLine
 10
71.50655839020936
 20
5.049999999999997
 30
0.0
 11
71.85525973170155
 21
4.701298658507802
 31
0.0
  0
TEXT
  5
95D
330
1F
100
AcDbEntity
  8
2
  6
CONTINUOUS
370
25
 62
7
100
AcDbText
 10
69.42500000000001
 20
11.91249999999999
 30
0.0
 40
3.500000000000004
  1
0.1
 50
90.00000000000001
 72
     1
 11
69.42500000000001
 21
14.5375
 31
0.0
100
AcDbText
  0
CIRCLE
  5
95E
330
1F
100
AcDbEntity
  8
2
  6
CONTINUOUS
370
25
 62
7
100
AcDbCircle
 10
67.67500000000001
 20
8.062499999999995
 30
0.0
 40
1.4
  0
LINE
  5
95F
330
1F
100
AcDbEntity
  8
2
  6
CONTINUOUS
370
25
 62
7
100
AcDbLine
 10
69.075
 20
6.662499999999995
 30
0.0
 11
66.275
 21
9.462499999999995
 31
0.0
  0
LINE
  5
960
330
1F
100
AcDbEntity
  8
2
  6
CONTINUOUS
370
25
 62
7
100
AcDbLine
 10
44.7
 20
-0.05
 30
0.0
 11
44.7
 21
-13.05
 31
0.0
  0
LINE
  5
961
330
1F
100
AcDbEntity
  8
2
  6
CONTINUOUS
370
25
 62
7
100
AcDbLine
 10
45.0
 20
-13.05
 30
0.0
 11
45.0
 21
-0.0500000000000007
 31
0.0
  0
LINE
  5
962
330
1F
100
AcDbEntity
  8
2
  6
CONTINUOUS
370
25
 62
7
100
AcDbLine
 10
37.7
 20
-12.05
 30
0.0
 11
60.925
 21
-12.05
 31
0.0
  0
LINE
  5
963
330
1F
100
AcDbEntity
  8
2
  6
CONTINUOUS
370
25
 62
7
100
AcDbLine
 10
44.7
 20
-12.05
 30
0.0
 11
39.7
 21
-13.05
 31
0.0
  0
LINE
  5
964
330
1F
100
AcDbEntity
  8
2
  6
CONTINUOUS
370
25
 62
7
100
AcDbLine
 10
39.7
 20
-13.05
 30
0.0
 11
39.7
 21
-11.05
 31
0.0
  0
LINE
  5
965
330
1F
100
AcDbEntity
  8
2
  6
CONTINUOUS
370
25
 62
7
100
AcDbLine
 10
39.7
 20
-11.05
 30
0.0
 11
44.7
 21
-12.05
 31
0.0
  0
LINE
  5
966
330
1F
100
AcDbEntity
  8
2
  6
CONTINUOUS
370
25
 62
7
100
AcDbLine
 10
44.31603835191568
 20
-12.12679232961687
 30
0.0
 11
44.44402556794379
 21
-11.99880511358876
 31
0.0
  0
LINE
  5
967
330
1F
100
AcDbEntity
  8
2
  6
CONTINUOUS
370
25
 62
7
100
AcDbLine
 10
43.78570826602577
 20
-12.23285834679485
 30
0.0
 11
44.09047217735051
 21
-11.9280944354701
 31
0.0
  0
LINE
  5
968
330
1F
100
AcDbEntity
  8
2
  6
CONTINUOUS
370
25
 62
7
100
AcDbLine
 10
43.25537818013586
 20
-12.33892436397283
 30
0.0
 11
43.73691878675724
 21
-11.85738375735145
 31
0.0
  0
LINE
  5
969
330
1F
100
AcDbEntity
  8
2
  6
CONTINUOUS
370
25
 62
7
100
AcDbLine
 10
42.72504809424596
 20
-12.44499038115081
 30
0.0
 11
43.38336539616397
 21
-11.78667307923279
 31
0.0
  0
LINE
  5
96A
330
1F
100
AcDbEntity
  8
2
  6
CONTINUOUS
370
25
 62
7
100
AcDbLine
 10
42.19471800835605
 20
-12.55105639832879
 30
0.0
 11
43.0298120055707
 21
-11.71596240111414
 31
0.0
  0
LINE
  5
96B
330
1F
100
AcDbEntity
  8
2
  6
CONTINUOUS
370
25
 62
7
100
AcDbLine
 10
41.66438792246613
 20
-12.65712241550677
 30
0.0
 11
42.67625861497742
 21
-11.64525172299549
 31
0.0
  0
LINE
  5
96C
330
1F
100
AcDbEntity
  8
2
  6
CONTINUOUS
370
25
 62
7
100
AcDbLine
 10
41.13405783657623
 20
-12.76318843268476
 30
0.0
 11
42.32270522438415
 21
-11.57454104487683
 31
0.0
  0
LINE
  5
96D
330
1F
100
AcDbEntity
  8
2
  6
CONTINUOUS
370
25
 62
7
100
AcDbLine
 10
40.60372775068631
 20
-12.86925444986274
 30
0.0
 11
41.96915183379087
 21
-11.50383036675818
 31
0.0
  0
LINE
  5
96E
330
1F
100
AcDbEntity
  8
2
  6
CONTINUOUS
370
25
 62
7
100
AcDbLine
 10
40.0733976647964
 20
-12.97532046704072
 30
0.0
 11
41.61559844319761
 21
-11.43311968863952
 31
0.0
  0
LINE
  5
96F
330
1F
100
AcDbEntity
  8
2
  6
CONTINUOUS
370
25
 62
7
100
AcDbLine
 10
39.7
 20
-12.92445406312519
 30
0.0
 11
41.26204505260433
 21
-11.36240901052087
 31
0.0
  0
LINE
  5
970
330
1F
100
AcDbEntity
  8
2
  6
CONTINUOUS
370
25
 62
7
100
AcDbLine
 10
39.7
 20
-12.50018999441327
 30
0.0
 11
40.90849166201106
 21
-11.29169833240221
 31
0.0
  0
LINE
  5
971
330
1F
100
AcDbEntity
  8
2
  6
CONTINUOUS
370
25
 62
7
100
AcDbLine
 10
39.7
 20
-12.07592592570134
 30
0.0
 11
40.55493827141778
 21
-11.22098765428356
 31
0.0
  0
LINE
  5
972
330
1F
100
AcDbEntity
  8
2
  6
CONTINUOUS
370
25
 62
7
100
AcDbLine
 10
39.7
 20
-11.65166185698941
 30
0.0
 11
40.20138488082451
 21
-11.1502769761649
 31
0.0
  0
LINE
  5
973
330
1F
100
AcDbEntity
  8
2
  6
CONTINUOUS
370
25
 62
7
100
AcDbLine
 10
39.7
 20
-11.22739778827748
 30
0.0
 11
39.84783149023124
 21
-11.07956629804625
 31
0.0
  0
LINE
  5
974
330
1F
100
AcDbEntity
  8
2
  6
CONTINUOUS
370
25
 62
7
100
AcDbLine
 10
39.7
 20
-12.99796053675462
 30
0.0
 11
39.74336621937115
 21
-13.04132675612577
 31
0.0
  0
LINE
  5
975
330
1F
100
AcDbEntity
  8
2
  6
CONTINUOUS
370
25
 62
7
100
AcDbLine
 10
39.7
 20
-12.57369646804269
 30
0.0
 11
40.09691960996443
 21
-12.97061607800712
 31
0.0
  0
LINE
  5
976
330
1F
100
AcDbEntity
  8
2
  6
CONTINUOUS
370
25
 62
7
100
AcDbLine
 10
39.7
 20
-12.14943239933076
 30
0.0
 11
40.4504730005577
 21
-12.89990539988846
 31
0.0
  0
LINE
  5
977
330
1F
100
AcDbEntity
  8
2
  6
CONTINUOUS
370
25
 62
7
100
AcDbLine
 10
39.7
 20
-11.72516833061883
 30
0.0
 11
40.80402639115098
 21
-12.82919472176981
 31
0.0
  0
LINE
  5
978
330
1F
100
AcDbEntity
  8
2
  6
CONTINUOUS
370
25
 62
7
100
AcDbLine
 10
39.7
 20
-11.30090426190691
 30
0.0
 11
41.15757978174425
 21
-12.75848404365115
 31
0.0
  0
LINE
  5
979
330
1F
100
AcDbEntity
  8
2
  6
CONTINUOUS
370
25
 62
7
100
AcDbLine
 10
39.91669975850628
 20
-11.09333995170126
 30
0.0
 11
41.51113317233752
 21
-12.6877733655325
 31
0.0
  0
LINE
  5
97A
330
1F
100
AcDbEntity
  8
2
  6
CONTINUOUS
370
25
 62
7
100
AcDbLine
 10
40.44702984439619
 20
-11.19940596887924
 30
0.0
 11
41.86468656293079
 21
-12.61706268741384
 31
0.0
  0
LINE
  5
97B
330
1F
100
AcDbEntity
  8
2
  6
CONTINUOUS
370
25
 62
7
100
AcDbLine
 10
40.9773599302861
 20
-11.30547198605722
 30
0.0
 11
42.21823995352407
 21
-12.54635200929519
 31
0.0
  0
LINE
  5
97C
330
1F
100
AcDbEntity
  8
2
  6
CONTINUOUS
370
25
 62
7
100
AcDbLine
 10
41.50769001617601
 20
-11.4115380032352
 30
0.0
 11
42.57179334411734
 21
-12.47564133117653
 31
0.0
  0
LINE
  5
97D
330
1F
100
AcDbEntity
  8
2
  6
CONTINUOUS
370
25
 62
7
100
AcDbLine
 10
42.03802010206592
 20
-11.51760402041319
 30
0.0
 11
42.92534673471062
 21
-12.40493065305788
 31
0.0
  0
LINE
  5
97E
330
1F
100
AcDbEntity
  8
2
  6
CONTINUOUS
370
25
 62
7
100
AcDbLine
 10
42.56835018795584
 20
-11.62367003759117
 30
0.0
 11
43.27890012530389
 21
-12.33421997493922
 31
0.0
  0
LINE
  5
97F
330
1F
100
AcDbEntity
  8
2
  6
CONTINUOUS
370
25
 62
7
100
AcDbLine
 10
43.09868027384574
 20
-11.72973605476915
 30
0.0
 11
43.63245351589716
 21
-12.26350929682057
 31
0.0
  0
LINE
  5
980
330
1F
100
AcDbEntity
  8
2
  6
CONTINUOUS
370
25
 62
7
100
AcDbLine
 10
43.62901035973566
 20
-11.83580207194713
 30
0.0
 11
43.98600690649044
 21
-12.19279861870191
 31
0.0
  0
LINE
  5
981
330
1F
100
AcDbEntity
  8
2
  6
CONTINUOUS
370
25
 62
7
100
AcDbLine
 10
44.15934044562557
 20
-11.94186808912511
 30
0.0
 11
44.33956029708371
 21
-12.12208794058326
 31
0.0
  0
LINE
  5
982
330
1F
100
AcDbEntity
  8
2
  6
CONTINUOUS
370
25
 62
7
100
AcDbLine
 10
44.68967053151547
 20
-12.0479341063031
 30
0.0
 11
44.69311368767698
 21
-12.0513772624646
 31
0.0
  0
LINE
  5
983
330
1F
100
AcDbEntity
  8
2
  6
CONTINUOUS
370
25
 62
7
100
AcDbLine
 10
45.0
 20
-12.05
 30
0.0
 11
50.0
 21
-11.05
 31
0.0
  0
LINE
  5
984
330
1F
100
AcDbEntity
  8
2
  6
CONTINUOUS
370
25
 62
7
100
AcDbLine
 10
50.0
 20
-11.05
 30
0.0
 11
50.0
 21
-13.05
 31
0.0
  0
LINE
  5
985
330
1F
100
AcDbEntity
  8
2
  6
CONTINUOUS
370
25
 62
7
100
AcDbLine
 10
50.0
 20
-13.05
 30
0.0
 11
45.0
 21
-12.05
 31
0.0
  0
LINE
  5
986
330
1F
100
AcDbEntity
  8
2
  6
CONTINUOUS
370
25
 62
7
100
AcDbLine
 10
49.79182499534438
 20
-13.00836499906888
 30
0.0
 11
50.0
 21
-12.80018999441326
 31
0.0
  0
LINE
  5
987
330
1F
100
AcDbEntity
  8
2
  6
CONTINUOUS
370
25
 62
7
100
AcDbLine
 10
49.43827160475111
 20
-12.93765432095022
 30
0.0
 11
50.0
 21
-12.37592592570133
 31
0.0
  0
LINE
  5
988
330
1F
100
AcDbEntity
  8
2
  6
CONTINUOUS
370
25
 62
7
100
AcDbLine
 10
49.08471821415783
 20
-12.86694364283157
 30
0.0
 11
50.0
 21
-11.9516618569894
 31
0.0
  0
LINE
  5
989
330
1F
100
AcDbEntity
  8
2
  6
CONTINUOUS
370
25
 62
7
100
AcDbLine
 10
48.73116482356456
 20
-12.79623296471291
 30
0.0
 11
50.0
 21
-11.52739778827747
 31
0.0
  0
LINE
  5
98A
330
1F
100
AcDbEntity
  8
2
  6
CONTINUOUS
370
25
 62
7
100
AcDbLine
 10
48.37761143297129
 20
-12.72552228659426
 30
0.0
 11
50.0
 21
-11.10313371956554
 31
0.0
  0
LINE
  5
98B
330
1F
100
AcDbEntity
  8
2
  6
CONTINUOUS
370
25
 62
7
100
AcDbLine
 10
48.02405804237802
 20
-12.6548116084756
 30
0.0
 11
49.53608706356702
 21
-11.14278258728659
 31
0.0
  0
LINE
  5
98C
330
1F
100
AcDbEntity
  8
2
  6
CONTINUOUS
370
25
 62
7
100
AcDbLine
 10
47.67050465178474
 20
-12.58410093035695
 30
0.0
 11
49.00575697767711
 21
-11.24884860446458
 31
0.0
  0
LINE
  5
98D
330
1F
100
AcDbEntity
  8
2
  6
CONTINUOUS
370
25
 62
7
100
AcDbLine
 10
47.31695126119146
 20
-12.5133902522383
 30
0.0
 11
48.4754268917872
 21
-11.35491462164256
 31
0.0
  0
LINE
  5
98E
330
1F
100
AcDbEntity
  8
2
  6
CONTINUOUS
370
25
 62
7
100
AcDbLine
 10
46.96339787059819
 20
-12.44267957411964
 30
0.0
 11
47.94509680589729
 21
-11.46098063882054
 31
0.0
  0
LINE
  5
98F
330
1F
100
AcDbEntity
  8
2
  6
CONTINUOUS
370
25
 62
7
100
AcDbLine
 10
46.60984448000492
 20
-12.37196889600099
 30
0.0
 11
47.41476672000738
 21
-11.56704665599852
 31
0.0
  0
LINE
  5
990
330
1F
100
AcDbEntity
  8
2
  6
CONTINUOUS
370
25
 62
7
100
AcDbLine
 10
46.25629108941165
 20
-12.30125821788233
 30
0.0
 11
46.88443663411747
 21
-11.67311267317651
 31
0.0
  0
LINE
  5
991
330
1F
100
AcDbEntity
  8
2
  6
CONTINUOUS
370
25
 62
7
100
AcDbLine
 10
45.90273769881837
 20
-12.23054753976368
 30
0.0
 11
46.35410654822756
 21
-11.77917869035449
 31
0.0
  0
LINE
  5
992
330
1F
100
AcDbEntity
  8
2
  6
CONTINUOUS
370
25
 62
7
100
AcDbLine
 10
45.5491843082251
 20
-12.15983686164502
 30
0.0
 11
45.82377646233765
 21
-11.88524470753247
 31
0.0
  0
LINE
  5
993
330
1F
100
AcDbEntity
  8
2
  6
CONTINUOUS
370
25
 62
7
100
AcDbLine
 10
45.19563091763183
 20
-12.08912618352637
 30
0.0
 11
45.29344637644775
 21
-11.99131072471045
 31
0.0
  0
LINE
  5
994
330
1F
100
AcDbEntity
  8
2
  6
CONTINUOUS
370
25
 62
7
100
AcDbLine
 10
45.09116564677175
 20
-12.03176687064565
 30
0.0
 11
45.13674847015762
 21
-12.07734969403153
 31
0.0
  0
LINE
  5
995
330
1F
100
AcDbEntity
  8
2
  6
CONTINUOUS
370
25
 62
7
100
AcDbLine
 10
45.44471903736502
 20
-11.961056192527
 30
0.0
 11
45.66707855604753
 21
-12.18341571120951
 31
0.0
  0
LINE
  5
996
330
1F
100
AcDbEntity
  8
2
  6
CONTINUOUS
370
25
 62
7
100
AcDbLine
 10
45.7982724279583
 20
-11.89034551440834
 30
0.0
 11
46.19740864193744
 21
-12.28948172838749
 31
0.0
  0
LINE
  5
997
330
1F
100
AcDbEntity
  8
2
  6
CONTINUOUS
370
25
 62
7
100
AcDbLine
 10
46.15182581855157
 20
-11.81963483628969
 30
0.0
 11
46.72773872782735
 21
-12.39554774556547
 31
0.0
  0
LINE
  5
998
330
1F
100
AcDbEntity
  8
2
  6
CONTINUOUS
370
25
 62
7
100
AcDbLine
 10
46.50537920914484
 20
-11.74892415817103
 30
0.0
 11
47.25806881371726
 21
-12.50161376274345
 31
0.0
  0
LINE
  5
999
330
1F
100
AcDbEntity
  8
2
  6
CONTINUOUS
370
25
 62
7
100
AcDbLine
 10
46.85893259973811
 20
-11.67821348005238
 30
0.0
 11
47.78839889960717
 21
-12.60767977992144
 31
0.0
  0
LINE
  5
99A
330
1F
100
AcDbEntity
  8
2
  6
CONTINUOUS
370
25
 62
7
100
AcDbLine
 10
47.21248599033139
 20
-11.60750280193372
 30
0.0
 11
48.31872898549708
 21
-12.71374579709942
 31
0.0
  0
LINE
  5
99B
330
1F
100
AcDbEntity
  8
2
  6
CONTINUOUS
370
25
 62
7
100
AcDbLine
 10
47.56603938092466
 20
-11.53679212381507
 30
0.0
 11
48.84905907138699
 21
-12.8198118142774
 31
0.0
  0
LINE
  5
99C
330
1F
100
AcDbEntity
  8
2
  6
CONTINUOUS
370
25
 62
7
100
AcDbLine
 10
47.91959277151793
 20
-11.46608144569641
 30
0.0
 11
49.3793891572769
 21
-12.92587783145538
 31
0.0
  0
LINE
  5
99D
330
1F
100
AcDbEntity
  8
2
  6
CONTINUOUS
370
25
 62
7
100
AcDbLine
 10
48.27314616211121
 20
-11.39537076757776
 30
0.0
 11
49.90971924316681
 21
-13.03194384863336
 31
0.0
  0
LINE
  5
99E
330
1F
100
AcDbEntity
  8
2
  6
CONTINUOUS
370
25
 62
7
100
AcDbLine
 10
48.62669955270448
 20
-11.32466008945911
 30
0.0
 11
50.0
 21
-12.69796053675462
 31
0.0
  0
LINE
  5
99F
330
1F
100
AcDbEntity
  8
2
  6
CONTINUOUS
370
25
 62
7
100
AcDbLine
 10
48.98025294329776
 20
-11.25394941134045
 30
0.0
 11
50.0
 21
-12.27369646804269
 31
0.0
  0
LINE
  5
9A0
330
1F
100
AcDbEntity
  8
2
  6
CONTINUOUS
370
25
 62
7
100
AcDbLine
 10
49.33380633389103
 20
-11.1832387332218
 30
0.0
 11
50.0
 21
-11.84943239933077
 31
0.0
  0
LINE
  5
9A1
330
1F
100
AcDbEntity
  8
2
  6
CONTINUOUS
370
25
 62
7
100
AcDbLine
 10
49.6873597244843
 20
-11.11252805510314
 30
0.0
 11
50.0
 21
-11.42516833061884
 31
0.0
  0
TEXT
  5
9A2
330
1F
100
AcDbEntity
  8
2
  6
CONTINUOUS
370
25
 62
7
100
AcDbText
 10
52.25416666666666
 20
-10.55
 30
0.0
 40
3.5
  1
0.3
 72
     1
 11
55.4625
 21
-10.55
 31
0.0
100
AcDbText
  0
LINE
  5
9A3
330
1F
100
AcDbEntity
  8
2
  6
CONTINUOUS
370
25
 62
7
100
AcDbLine
 10
37.1
 20
0.0
 30
0.0
 11
37.1
 21
24.99995
 31
0.0
  0
LINE
  5
9A4
330
1F
100
AcDbEntity
  8
2
  6
CONTINUOUS
370
25
 62
7
100
AcDbLine
 10
45.0
 20
24.99995
 30
0.0
 11
45.0
 21
0.0499999999999972
 31
0.0
  0
LINE
  5
9A5
330
1F
100
AcDbEntity
  8
2
  6
CONTINUOUS
370
25
 62
7
100
AcDbLine
 10
30.1
 20
23.99995
 30
0.0
 11
60.925
 21
23.99995
 31
0.0
  0
LINE
  5
9A6
330
1F
100
AcDbEntity
  8
2
  6
CONTINUOUS
370
25
 62
7
100
AcDbLine
 10
37.1
 20
23.99995
 30
0.0
 11
32.1
 21
22.99995
 31
0.0
  0
LINE
  5
9A7
330
1F
100
AcDbEntity
  8
2
  6
CONTINUOUS
370
25
 62
7
100
AcDbLine
 10
32.1
 20
22.99995
 30
0.0
 11
32.1
 21
24.99995
 31
0.0
  0
LINE
  5
9A8
330
1F
100
AcDbEntity
  8
2
  6
CONTINUOUS
370
25
 62
7
100
AcDbLine
 10
32.1
 20
24.99995
 30
0.0
 11
37.1
 21
23.99995
 31
0.0
  0
LINE
  5
9A9
330
1F
100
AcDbEntity
  8
2
  6
CONTINUOUS
370
25
 62
7
100
AcDbLine
 10
36.87112260427513
 20
23.95417452085502
 30
0.0
 11
36.94741506951675
 21
24.03046698609665
 31
0.0
  0
LINE
  5
9AA
330
1F
100
AcDbEntity
  8
2
  6
CONTINUOUS
370
25
 62
7
100
AcDbLine
 10
36.34079251838521
 20
23.84810850367704
 30
0.0
 11
36.59386167892348
 21
24.1011776642153
 31
0.0
  0
LINE
  5
9AB
330
1F
100
AcDbEntity
  8
2
  6
CONTINUOUS
370
25
 62
7
100
AcDbLine
 10
35.81046243249531
 20
23.74204248649906
 30
0.0
 11
36.2403082883302
 21
24.17188834233396
 31
0.0
  0
LINE
  5
9AC
330
1F
100
AcDbEntity
  8
2
  6
CONTINUOUS
370
25
 62
7
100
AcDbLine
 10
35.2801323466054
 20
23.63597646932108
 30
0.0
 11
35.88675489773694
 21
24.24259902045261
 31
0.0
  0
LINE
  5
9AD
330
1F
100
AcDbEntity
  8
2
  6
CONTINUOUS
370
25
 62
7
100
AcDbLine
 10
34.74980226071549
 20
23.5299104521431
 30
0.0
 11
35.53320150714366
 21
24.31330969857127
 31
0.0
  0
LINE
  5
9AE
330
1F
100
AcDbEntity
  8
2
  6
CONTINUOUS
370
25
 62
7
100
AcDbLine
 10
34.21947217482558
 20
23.42384443496512
 30
0.0
 11
35.17964811655039
 21
24.38402037668992
 31
0.0
  0
LINE
  5
9AF
330
1F
100
AcDbEntity
  8
2
  6
CONTINUOUS
370
25
 62
7
100
AcDbLine
 10
33.68914208893567
 20
23.31777841778713
 30
0.0
 11
34.82609472595711
 21
24.45473105480858
 31
0.0
  0
LINE
  5
9B0
330
1F
100
AcDbEntity
  8
2
  6
CONTINUOUS
370
25
 62
7
100
AcDbLine
 10
33.15881200304576
 20
23.21171240060915
 30
0.0
 11
34.47254133536384
 21
24.52544173292723
 31
0.0
  0
LINE
  5
9B1
330
1F
100
AcDbEntity
  8
2
  6
CONTINUOUS
370
25
 62
7
100
AcDbLine
 10
32.62848191715585
 20
23.10564638343117
 30
0.0
 11
34.11898794477057
 21
24.59615241104589
 31
0.0
  0
LINE
  5
9B2
330
1F
100
AcDbEntity
  8
2
  6
CONTINUOUS
370
25
 62
7
100
AcDbLine
 10
32.1
 20
23.00142853498725
 30
0.0
 11
33.76543455417729
 21
24.66686308916454
 31
0.0
  0
LINE
  5
9B3
330
1F
100
AcDbEntity
  8
2
  6
CONTINUOUS
370
25
 62
7
100
AcDbLine
 10
32.1
 20
23.42569260369918
 30
0.0
 11
33.41188116358402
 21
24.73757376728319
 31
0.0
  0
LINE
  5
9B4
330
1F
100
AcDbEntity
  8
2
  6
CONTINUOUS
370
25
 62
7
100
AcDbLine
 10
32.1
 20
23.8499566724111
 30
0.0
 11
33.05832777299074
 21
24.80828444540185
 31
0.0
  0
LINE
  5
9B5
330
1F
100
AcDbEntity
  8
2
  6
CONTINUOUS
370
25
 62
7
100
AcDbLine
 10
32.1
 20
24.27422074112303
 30
0.0
 11
32.70477438239747
 21
24.8789951235205
 31
0.0
  0
LINE
  5
9B6
330
1F
100
AcDbEntity
  8
2
  6
CONTINUOUS
370
25
 62
7
100
AcDbLine
 10
32.1
 20
24.69848480983496
 30
0.0
 11
32.3512209918042
 21
24.94970580163916
 31
0.0
  0
LINE
  5
9B7
330
1F
100
AcDbEntity
  8
2
  6
CONTINUOUS
370
25
 62
7
100
AcDbLine
 10
32.1
 20
23.24335495461289
 30
0.0
 11
32.30283746217741
 21
23.04051749243548
 31
0.0
  0
LINE
  5
9B8
330
1F
100
AcDbEntity
  8
2
  6
CONTINUOUS
370
25
 62
7
100
AcDbLine
 10
32.1
 20
23.66761902332482
 30
0.0
 11
32.65639085277068
 21
23.11122817055413
 31
0.0
  0
LINE
  5
9B9
330
1F
100
AcDbEntity
  8
2
  6
CONTINUOUS
370
25
 62
7
100
AcDbLine
 10
32.1
 20
24.09188309203675
 30
0.0
 11
33.00994424336396
 21
23.18193884867279
 31
0.0
  0
LINE
  5
9BA
330
1F
100
AcDbEntity
  8
2
  6
CONTINUOUS
370
25
 62
7
100
AcDbLine
 10
32.1
 20
24.51614716074867
 30
0.0
 11
33.36349763395723
 21
23.25264952679144
 31
0.0
  0
LINE
  5
9BB
330
1F
100
AcDbEntity
  8
2
  6
CONTINUOUS
370
25
 62
7
100
AcDbLine
 10
32.1
 20
24.9404112294606
 30
0.0
 11
33.71705102455051
 21
23.3233602049101
 31
0.0
  0
LINE
  5
9BC
330
1F
100
AcDbEntity
  8
2
  6
CONTINUOUS
370
25
 62
7
100
AcDbLine
 10
32.55590662271567
 20
24.90876867545687
 30
0.0
 11
34.07060441514378
 21
23.39407088302875
 31
0.0
  0
LINE
  5
9BD
330
1F
100
AcDbEntity
  8
2
  6
CONTINUOUS
370
25
 62
7
100
AcDbLine
 10
33.08623670860558
 20
24.80270265827888
 30
0.0
 11
34.42415780573705
 21
23.46478156114741
 31
0.0
  0
LINE
  5
9BE
330
1F
100
AcDbEntity
  8
2
  6
CONTINUOUS
370
25
 62
7
100
AcDbLine
 10
33.61656679449549
 20
24.6966366411009
 30
0.0
 11
34.77771119633033
 21
23.53549223926606
 31
0.0
  0
LINE
  5
9BF
330
1F
100
AcDbEntity
  8
2
  6
CONTINUOUS
370
25
 62
7
100
AcDbLine
 10
34.1468968803854
 20
24.59057062392292
 30
0.0
 11
35.1312645869236
 21
23.60620291738472
 31
0.0
  0
LINE
  5
9C0
330
1F
100
AcDbEntity
  8
2
  6
CONTINUOUS
370
25
 62
7
100
AcDbLine
 10
34.67722696627531
 20
24.48450460674494
 30
0.0
 11
35.48481797751688
 21
23.67691359550337
 31
0.0
  0
LINE
  5
9C1
330
1F
100
AcDbEntity
  8
2
  6
CONTINUOUS
370
25
 62
7
100
AcDbLine
 10
35.20755705216521
 20
24.37843858956695
 30
0.0
 11
35.83837136811015
 21
23.74762427362203
 31
0.0
  0
LINE
  5
9C2
330
1F
100
AcDbEntity
  8
2
  6
CONTINUOUS
370
25
 62
7
100
AcDbLine
 10
35.73788713805513
 20
24.27237257238897
 30
0.0
 11
36.19192475870342
 21
23.81833495174068
 31
0.0
  0
LINE
  5
9C3
330
1F
100
AcDbEntity
  8
2
  6
CONTINUOUS
370
25
 62
7
100
AcDbLine
 10
36.26821722394504
 20
24.16630655521099
 30
0.0
 11
36.54547814929669
 21
23.88904562985934
 31
0.0
  0
LINE
  5
9C4
330
1F
100
AcDbEntity
  8
2
  6
CONTINUOUS
370
25
 62
7
100
AcDbLine
 10
36.79854730983495
 20
24.06024053803301
 30
0.0
 11
36.89903153988997
 21
23.95975630797799
 31
0.0
  0
LINE
  5
9C5
330
1F
100
AcDbEntity
  8
2
  6
CONTINUOUS
370
25
 62
7
100
AcDbLine
 10
45.0
 20
23.99995
 30
0.0
 11
50.0
 21
24.99995
 31
0.0
  0
LINE
  5
9C6
330
1F
100
AcDbEntity
  8
2
  6
CONTINUOUS
370
25
 62
7
100
AcDbLine
 10
50.0
 20
24.99995
 30
0.0
 11
50.0
 21
22.99995
 31
0.0
  0
LINE
  5
9C7
330
1F
100
AcDbEntity
  8
2
  6
CONTINUOUS
370
25
 62
7
100
AcDbLine
 10
50.0
 20
22.99995
 30
0.0
 11
45.0
 21
23.99995
 31
0.0
  0
LINE
  5
9C8
330
1F
100
AcDbEntity
  8
2
  6
CONTINUOUS
370
25
 62
7
100
AcDbLine
 10
49.93134362576147
 20
23.01368127484771
 30
0.0
 11
50.0
 21
23.08233764908624
 31
0.0
  0
LINE
  5
9C9
330
1F
100
AcDbEntity
  8
2
  6
CONTINUOUS
370
25
 62
7
100
AcDbLine
 10
49.57779023516819
 20
23.08439195296636
 30
0.0
 11
50.0
 21
23.50660171779817
 31
0.0
  0
LINE
  5
9CA
330
1F
100
AcDbEntity
  8
2
  6
CONTINUOUS
370
25
 62
7
100
AcDbLine
 10
49.22423684457492
 20
23.15510263108501
 30
0.0
 11
50.0
 21
23.9308657865101
 31
0.0
  0
LINE
  5
9CB
330
1F
100
AcDbEntity
  8
2
  6
CONTINUOUS
370
25
 62
7
100
AcDbLine
 10
48.87068345398165
 20
23.22581330920367
 30
0.0
 11
50.0
 21
24.35512985522202
 31
0.0
  0
LINE
  5
9CC
330
1F
100
AcDbEntity
  8
2
  6
CONTINUOUS
370
25
 62
7
100
AcDbLine
 10
48.51713006338838
 20
23.29652398732232
 30
0.0
 11
50.0
 21
24.77939392393395
 31
0.0
  0
LINE
  5
9CD
330
1F
100
AcDbEntity
  8
2
  6
CONTINUOUS
370
25
 62
7
100
AcDbLine
 10
48.1635766727951
 20
23.36723466544098
 30
0.0
 11
49.74536500919265
 21
24.94902300183853
 31
0.0
  0
LINE
  5
9CE
330
1F
100
AcDbEntity
  8
2
  6
CONTINUOUS
370
25
 62
7
100
AcDbLine
 10
47.81002328220183
 20
23.43794534355963
 30
0.0
 11
49.21503492330274
 21
24.84295698466055
 31
0.0
  0
LINE
  5
9CF
330
1F
100
AcDbEntity
  8
2
  6
CONTINUOUS
370
25
 62
7
100
AcDbLine
 10
47.45646989160856
 20
23.50865602167829
 30
0.0
 11
48.68470483741283
 21
24.73689096748256
 31
0.0
  0
LINE
  5
9D0
330
1F
100
AcDbEntity
  8
2
  6
CONTINUOUS
370
25
 62
7
100
AcDbLine
 10
47.10291650101529
 20
23.57936669979694
 30
0.0
 11
48.15437475152292
 21
24.63082495030458
 31
0.0
  0
LINE
  5
9D1
330
1F
100
AcDbEntity
  8
2
  6
CONTINUOUS
370
25
 62
7
100
AcDbLine
 10
46.74936311042201
 20
23.6500773779156
 30
0.0
 11
47.62404466563301
 21
24.5247589331266
 31
0.0
  0
LINE
  5
9D2
330
1F
100
AcDbEntity
  8
2
  6
CONTINUOUS
370
25
 62
7
100
AcDbLine
 10
46.39580971982874
 20
23.72078805603425
 30
0.0
 11
47.0937145797431
 21
24.41869291594862
 31
0.0
  0
LINE
  5
9D3
330
1F
100
AcDbEntity
  8
2
  6
CONTINUOUS
370
25
 62
7
100
AcDbLine
 10
46.04225632923546
 20
23.79149873415291
 30
0.0
 11
46.56338449385319
 21
24.31262689877063
 31
0.0
  0
LINE
  5
9D4
330
1F
100
AcDbEntity
  8
2
  6
CONTINUOUS
370
25
 62
7
100
AcDbLine
 10
45.68870293864219
 20
23.86220941227156
 30
0.0
 11
46.03305440796328
 21
24.20656088159265
 31
0.0
  0
LINE
  5
9D5
330
1F
100
AcDbEntity
  8
2
  6
CONTINUOUS
370
25
 62
7
100
AcDbLine
 10
45.33514954804892
 20
23.93292009039022
 30
0.0
 11
45.50272432207338
 21
24.10049486441467
 31
0.0
  0
LINE
  5
9D6
330
1F
100
AcDbEntity
  8
2
  6
CONTINUOUS
370
25
 62
7
100
AcDbLine
 10
45.28676601842213
 20
24.05730320368442
 30
0.0
 11
45.43014902763318
 21
23.91392019447336
 31
0.0
  0
LINE
  5
9D7
330
1F
100
AcDbEntity
  8
2
  6
CONTINUOUS
370
25
 62
7
100
AcDbLine
 10
45.6403194090154
 20
24.12801388180308
 30
0.0
 11
45.96047911352309
 21
23.80785417729538
 31
0.0
  0
LINE
  5
9D8
330
1F
100
AcDbEntity
  8
2
  6
CONTINUOUS
370
25
 62
7
100
AcDbLine
 10
45.99387279960867
 20
24.19872455992173
 30
0.0
 11
46.49080919941301
 21
23.7017881601174
 31
0.0
  0
LINE
  5
9D9
330
1F
100
AcDbEntity
  8
2
  6
CONTINUOUS
370
25
 62
7
100
AcDbLine
 10
46.34742619020195
 20
24.26943523804039
 30
0.0
 11
47.02113928530292
 21
23.59572214293942
 31
0.0
  0
LINE
  5
9DA
330
1F
100
AcDbEntity
  8
2
  6
CONTINUOUS
370
25
 62
7
100
AcDbLine
 10
46.70097958079522
 20
24.34014591615904
 30
0.0
 11
47.55146937119282
 21
23.48965612576144
 31
0.0
  0
LINE
  5
9DB
330
1F
100
AcDbEntity
  8
2
  6
CONTINUOUS
370
25
 62
7
100
AcDbLine
 10
47.0545329713885
 20
24.4108565942777
 30
0.0
 11
48.08179945708274
 21
23.38359010858345
 31
0.0
  0
LINE
  5
9DC
330
1F
100
AcDbEntity
  8
2
  6
CONTINUOUS
370
25
 62
7
100
AcDbLine
 10
47.40808636198176
 20
24.48156727239635
 30
0.0
 11
48.61212954297264
 21
23.27752409140547
 31
0.0
  0
LINE
  5
9DD
330
1F
100
AcDbEntity
  8
2
  6
CONTINUOUS
370
25
 62
7
100
AcDbLine
 10
47.76163975257504
 20
24.55227795051501
 30
0.0
 11
49.14245962886255
 21
23.17145807422749
 31
0.0
  0
LINE
  5
9DE
330
1F
100
AcDbEntity
  8
2
  6
CONTINUOUS
370
25
 62
7
100
AcDbLine
 10
48.11519314316831
 20
24.62298862863366
 30
0.0
 11
49.67278971475246
 21
23.06539205704951
 31
0.0
  0
LINE
  5
9DF
330
1F
100
AcDbEntity
  8
2
  6
CONTINUOUS
370
25
 62
7
100
AcDbLine
 10
48.46874653376158
 20
24.69369930675231
 30
0.0
 11
50.0
 21
23.16244584051389
 31
0.0
  0
LINE
  5
9E0
330
1F
100
AcDbEntity
  8
2
  6
CONTINUOUS
370
25
 62
7
100
AcDbLine
 10
48.82229992435486
 20
24.76440998487097
 30
0.0
 11
50.0
 21
23.58670990922582
 31
0.0
  0
LINE
  5
9E1
330
1F
100
AcDbEntity
  8
2
  6
CONTINUOUS
370
25
 62
7
100
AcDbLine
 10
49.17585331494813
 20
24.83512066298962
 30
0.0
 11
50.0
 21
24.01097397793775
 31
0.0
  0
LINE
  5
9E2
330
1F
100
AcDbEntity
  8
2
  6
CONTINUOUS
370
25
 62
7
100
AcDbLine
 10
49.5294067055414
 20
24.90583134110828
 30
0.0
 11
50.0
 21
24.43523804664968
 31
0.0
  0
LINE
  5
9E3
330
1F
100
AcDbEntity
  8
2
  6
CONTINUOUS
370
25
 62
7
100
AcDbLine
 10
49.88296009613467
 20
24.97654201922693
 30
0.0
 11
50.0
 21
24.8595021153616
 31
0.0
  0
TEXT
  5
9E4
330
1F
100
AcDbEntity
  8
2
  6
CONTINUOUS
370
25
 62
7
100
AcDbText
 10
51.9625
 20
25.49995
 30
0.0
 40
3.5
  1
7.9
 72
     1
 11
55.4625
 21
25.49995
 31
0.0
100
AcDbText
  0
LINE
  5
9E5
330
1F
100
AcDbEntity
  8
SK2
  6
CONTINUOUS
370
25
 62
7
100
AcDbLine
 10
0.0
 20
-0.0000500000000001
 30
0.0
 11
0.0
 21
34.99995
 31
0.0
  0
LINE
  5
9E6
330
1F
100
AcDbEntity
  8
SK2
  6
CONTINUOUS
370
25
 62
7
100
AcDbLine
 10
45.0
 20
34.99995
 30
0.0
 11
45.0
 21
0.0499999999999972
 31
0.0
  0
LINE
  5
9E7
330
1F
100
AcDbEntity
  8
SK2
  6
CONTINUOUS
370
25
 62
7
100
AcDbLine
 10
0.0
 20
33.99995
 30
0.0
 11
45.0
 21
33.99995
 31
0.0
  0
LINE
  5
9E8
330
1F
100
AcDbEntity
  8
SK2
  6
CONTINUOUS
370
25
 62
7
100
AcDbLine
 10
0.0
 20
33.99995
 30
0.0
 11
5.0
 21
34.99995
 31
0.0
  0
LINE
  5
9E9
330
1F
100
AcDbEntity
  8
SK2
  6
CONTINUOUS
370
25
 62
7
100
AcDbLine
 10
5.0
 20
34.99995
 30
0.0
 11
5.0
 21
32.99995
 31
0.0
  0
LINE
  5
9EA
330
1F
100
AcDbEntity
  8
SK2
  6
CONTINUOUS
370
25
 62
7
100
AcDbLine
 10
5.0
 20
32.99995
 30
0.0
 11
0.0
 21
33.99995
 31
0.0
  0
LINE
  5
9EB
330
1F
100
AcDbEntity
  8
SK2
  6
CONTINUOUS
370
25
 62
7
100
AcDbLine
 10
4.802736181969159
 20
33.03940276360616
 30
0.0
 11
5.0
 21
33.236666581637
 31
0.0
  0
LINE
  5
9EC
330
1F
100
AcDbEntity
  8
SK2
  6
CONTINUOUS
370
25
 62
7
100
AcDbLine
 10
4.449182791375883
 20
33.11011344172482
 30
0.0
 11
5.0
 21
33.66093065034894
 31
0.0
  0
LINE
  5
9ED
330
1F
100
AcDbEntity
  8
SK2
  6
CONTINUOUS
370
25
 62
7
100
AcDbLine
 10
4.095629400782613
 20
33.18082411984347
 30
0.0
 11
5.0
 21
34.08519471906086
 31
0.0
  0
LINE
  5
9EE
330
1F
100
AcDbEntity
  8
SK2
  6
CONTINUOUS
370
25
 62
7
100
AcDbLine
 10
3.742076010189336
 20
33.25153479796213
 30
0.0
 11
5.0
 21
34.50945878777279
 31
0.0
  0
LINE
  5
9EF
330
1F
100
AcDbEntity
  8
SK2
  6
CONTINUOUS
370
25
 62
7
100
AcDbLine
 10
3.388522619596053
 20
33.32224547608078
 30
0.0
 11
5.0
 21
34.93372285648473
 31
0.0
  0
LINE
  5
9F0
330
1F
100
AcDbEntity
  8
SK2
  6
CONTINUOUS
370
25
 62
7
100
AcDbLine
 10
3.03496922900279
 20
33.39295615419944
 30
0.0
 11
4.552453843504189
 21
34.91044076870084
 31
0.0
  0
LINE
  5
9F1
330
1F
100
AcDbEntity
  8
SK2
  6
CONTINUOUS
370
25
 62
7
100
AcDbLine
 10
2.681415838409507
 20
33.46366683231809
 30
0.0
 11
4.022123757614274
 21
34.80437475152286
 31
0.0
  0
LINE
  5
9F2
330
1F
100
AcDbEntity
  8
SK2
  6
CONTINUOUS
370
25
 62
7
100
AcDbLine
 10
2.32786244781623
 20
33.53437751043675
 30
0.0
 11
3.491793671724352
 21
34.69830873434487
 31
0.0
  0
LINE
  5
9F3
330
1F
100
AcDbEntity
  8
SK2
  6
CONTINUOUS
370
25
 62
7
100
AcDbLine
 10
1.974309057222953
 20
33.60508818855541
 30
0.0
 11
2.961463585834437
 21
34.59224271716689
 31
0.0
  0
LINE
  5
9F4
330
1F
100
AcDbEntity
  8
SK2
  6
CONTINUOUS
370
25
 62
7
100
AcDbLine
 10
1.62075566662967
 20
33.67579886667406
 30
0.0
 11
2.431133499944515
 21
34.4861766999889
 31
0.0
  0
LINE
  5
9F5
330
1F
100
AcDbEntity
  8
SK2
  6
CONTINUOUS
370
25
 62
7
100
AcDbLine
 10
1.267202276036407
 20
33.74650954479272
 30
0.0
 11
1.900803414054614
 21
34.38011068281092
 31
0.0
  0
LINE
  5
9F6
330
1F
100
AcDbEntity
  8
SK2
  6
CONTINUOUS
370
25
 62
7
100
AcDbLine
 10
0.9136488854431235
 20
33.81722022291137
 30
0.0
 11
1.370473328164699
 21
34.27404466563294
 31
0.0
  0
LINE
  5
9F7
330
1F
100
AcDbEntity
  8
SK2
  6
CONTINUOUS
370
25
 62
7
100
AcDbLine
 10
0.5600954948498469
 20
33.88793090103002
 30
0.0
 11
0.8401432422747774
 21
34.16797864845496
 31
0.0
  0
LINE
  5
9F8
330
1F
100
AcDbEntity
  8
SK2
  6
CONTINUOUS
370
25
 62
7
100
AcDbLine
 10
0.2065421042565774
 20
33.95864157914868
 30
0.0
 11
0.3098131563848767
 21
34.06191263127698
 31
0.0
  0
LINE
  5
9F9
330
1F
100
AcDbEntity
  8
SK2
  6
CONTINUOUS
370
25
 62
7
100
AcDbLine
 10
0.2590171989185492
 20
34.05175343978372
 30
0.0
 11
0.3885257983778345
 21
33.92224484032443
 31
0.0
  0
LINE
  5
9FA
330
1F
100
AcDbEntity
  8
SK2
  6
CONTINUOUS
370
25
 62
7
100
AcDbLine
 10
0.6125705895118259
 20
34.12246411790237
 30
0.0
 11
0.9188558842677494
 21
33.81617882314644
 31
0.0
  0
LINE
  5
9FB
330
1F
100
AcDbEntity
  8
SK2
  6
CONTINUOUS
370
25
 62
7
100
AcDbLine
 10
0.9661239801051025
 20
34.19317479602102
 30
0.0
 11
1.449185970157657
 21
33.71011280596846
 31
0.0
  0
LINE
  5
9FC
330
1F
100
AcDbEntity
  8
SK2
  6
CONTINUOUS
370
25
 62
7
100
AcDbLine
 10
1.319677370698379
 20
34.26388547413968
 30
0.0
 11
1.979516056047572
 21
33.60404678879048
 31
0.0
  0
LINE
  5
9FD
330
1F
100
AcDbEntity
  8
SK2
  6
CONTINUOUS
370
25
 62
7
100
AcDbLine
 10
1.673230761291656
 20
34.33459615225834
 30
0.0
 11
2.509846141937487
 21
33.4979807716125
 31
0.0
  0
LINE
  5
9FE
330
1F
100
AcDbEntity
  8
SK2
  6
CONTINUOUS
370
25
 62
7
100
AcDbLine
 10
2.026784151884932
 20
34.40530683037699
 30
0.0
 11
3.040176227827395
 21
33.39191475443452
 31
0.0
  0
LINE
  5
9FF
330
1F
100
AcDbEntity
  8
SK2
  6
CONTINUOUS
370
25
 62
7
100
AcDbLine
 10
2.380337542478209
 20
34.47601750849564
 30
0.0
 11
3.57050631371731
 21
33.28584873725654
 31
0.0
  0
LINE
  5
A00
330
1F
100
AcDbEntity
  8
SK2
  6
CONTINUOUS
370
25
 62
7
100
AcDbLine
 10
2.733890933071478
 20
34.5467281866143
 30
0.0
 11
4.100836399607218
 21
33.17978272007855
 31
0.0
  0
LINE
  5
A01
330
1F
100
AcDbEntity
  8
SK2
  6
CONTINUOUS
370
25
 62
7
100
AcDbLine
 10
3.087444323664762
 20
34.61743886473295
 30
0.0
 11
4.631166485497126
 21
33.07371670290058
 31
0.0
  0
LINE
  5
A02
330
1F
100
AcDbEntity
  8
SK2
  6
CONTINUOUS
370
25
 62
7
100
AcDbLine
 10
3.440997714258032
 20
34.6881495428516
 30
0.0
 11
5.0
 21
33.12914725710962
 31
0.0
  0
LINE
  5
A03
330
1F
100
AcDbEntity
  8
SK2
  6
CONTINUOUS
370
25
 62
7
100
AcDbLine
 10
3.794551104851308
 20
34.75886022097026
 30
0.0
 11
5.0
 21
33.55341132582156
 31
0.0
  0
LINE
  5
A04
330
1F
100
AcDbEntity
  8
SK2
  6
CONTINUOUS
370
25
 62
7
100
AcDbLine
 10
4.148104495444585
 20
34.82957089908891
 30
0.0
 11
5.0
 21
33.97767539453349
 31
0.0
  0
LINE
  5
A05
330
1F
100
AcDbEntity
  8
SK2
  6
CONTINUOUS
370
25
 62
7
100
AcDbLine
 10
4.501657886037854
 20
34.90028157720757
 30
0.0
 11
5.0
 21
34.40193946324542
 31
0.0
  0
LINE
  5
A06
330
1F
100
AcDbEntity
  8
SK2
  6
CONTINUOUS
370
25
 62
7
100
AcDbLine
 10
4.855211276631131
 20
34.97099225532622
 30
0.0
 11
5.0
 21
34.82620353195735
 31
0.0
  0
LINE
  5
A07
330
1F
100
AcDbEntity
  8
SK2
  6
CONTINUOUS
370
25
 62
7
100
AcDbLine
 10
45.0
 20
33.99995
 30
0.0
 11
40.0
 21
32.99995
 31
0.0
  0
LINE
  5
A08
330
1F
100
AcDbEntity
  8
SK2
  6
CONTINUOUS
370
25
 62
7
100
AcDbLine
 10
40.0
 20
32.99995
 30
0.0
 11
40.0
 21
34.99995
 31
0.0
  0
LINE
  5
A09
330
1F
100
AcDbEntity
  8
SK2
  6
CONTINUOUS
370
25
 62
7
100
AcDbLine
 10
40.0
 20
34.99995
 30
0.0
 11
45.0
 21
33.99995
 31
0.0
  0
LINE
  5
A0A
330
1F
100
AcDbEntity
  8
SK2
  6
CONTINUOUS
370
25
 62
7
100
AcDbLine
 10
44.7444721748256
 20
33.94884443496512
 30
0.0
 11
44.82964811655039
 21
34.03402037668992
 31
0.0
  0
LINE
  5
A0B
330
1F
100
AcDbEntity
  8
SK2
  6
CONTINUOUS
370
25
 62
7
100
AcDbLine
 10
44.21414208893569
 20
33.84277841778714
 30
0.0
 11
44.47609472595713
 21
34.10473105480857
 31
0.0
  0
LINE
  5
A0C
330
1F
100
AcDbEntity
  8
SK2
  6
CONTINUOUS
370
25
 62
7
100
AcDbLine
 10
43.68381200304578
 20
33.73671240060916
 30
0.0
 11
44.12254133536385
 21
34.17544173292723
 31
0.0
  0
LINE
  5
A0D
330
1F
100
AcDbEntity
  8
SK2
  6
CONTINUOUS
370
25
 62
7
100
AcDbLine
 10
43.15348191715587
 20
33.63064638343117
 30
0.0
 11
43.76898794477057
 21
34.24615241104588
 31
0.0
  0
LINE
  5
A0E
330
1F
100
AcDbEntity
  8
SK2
  6
CONTINUOUS
370
25
 62
7
100
AcDbLine
 10
42.62315183126595
 20
33.52458036625319
 30
0.0
 11
43.4154345541773
 21
34.31686308916453
 31
0.0
  0
LINE
  5
A0F
330
1F
100
AcDbEntity
  8
SK2
  6
CONTINUOUS
370
25
 62
7
100
AcDbLine
 10
42.09282174537604
 20
33.41851434907521
 30
0.0
 11
43.06188116358402
 21
34.38757376728319
 31
0.0
  0
LINE
  5
A10
330
1F
100
AcDbEntity
  8
SK2
  6
CONTINUOUS
370
25
 62
7
100
AcDbLine
 10
41.56249165948613
 20
33.31244833189723
 30
0.0
 11
42.70832777299075
 21
34.45828444540184
 31
0.0
  0
LINE
  5
A11
330
1F
100
AcDbEntity
  8
SK2
  6
CONTINUOUS
370
25
 62
7
100
AcDbLine
 10
41.03216157359623
 20
33.20638231471924
 30
0.0
 11
42.35477438239748
 21
34.5289951235205
 31
0.0
  0
LINE
  5
A12
330
1F
100
AcDbEntity
  8
SK2
  6
CONTINUOUS
370
25
 62
7
100
AcDbLine
 10
40.50183148770631
 20
33.10031629754126
 30
0.0
 11
42.0012209918042
 21
34.59970580163916
 31
0.0
  0
LINE
  5
A13
330
1F
100
AcDbEntity
  8
SK2
  6
CONTINUOUS
370
25
 62
7
100
AcDbLine
 10
40.0
 20
33.02274887854688
 30
0.0
 11
41.64766760121093
 21
34.67041647975781
 31
0.0
  0
LINE
  5
A14
330
1F
100
AcDbEntity
  8
SK2
  6
CONTINUOUS
370
25
 62
7
100
AcDbLine
 10
40.0
 20
33.44701294725881
 30
0.0
 11
41.29411421061765
 21
34.74112715787646
 31
0.0
  0
LINE
  5
A15
330
1F
100
AcDbEntity
  8
SK2
  6
CONTINUOUS
370
25
 62
7
100
AcDbLine
 10
40.0
 20
33.87127701597074
 30
0.0
 11
40.94056082002438
 21
34.81183783599512
 31
0.0
  0
LINE
  5
A16
330
1F
100
AcDbEntity
  8
SK2
  6
CONTINUOUS
370
25
 62
7
100
AcDbLine
 10
40.0
 20
34.29554108468267
 30
0.0
 11
40.5870074294311
 21
34.88254851411378
 31
0.0
  0
LINE
  5
A17
330
1F
100
AcDbEntity
  8
SK2
  6
CONTINUOUS
370
25
 62
7
100
AcDbLine
 10
40.0
 20
34.7198051533946
 30
0.0
 11
40.23345403883783
 21
34.95325919223243
 31
0.0
  0
LINE
  5
A18
330
1F
100
AcDbEntity
  8
SK2
  6
CONTINUOUS
370
25
 62
7
100
AcDbLine
 10
40.0
 20
33.1624458405139
 30
0.0
 11
40.13541320042825
 21
33.02703264008565
 31
0.0
  0
LINE
  5
A19
330
1F
100
AcDbEntity
  8
SK2
  6
CONTINUOUS
370
25
 62
7
100
AcDbLine
 10
40.0
 20
33.58670990922582
 30
0.0
 11
40.48896659102152
 21
33.0977433182043
 31
0.0
  0
LINE
  5
A1A
330
1F
100
AcDbEntity
  8
SK2
  6
CONTINUOUS
370
25
 62
7
100
AcDbLine
 10
40.0
 20
34.01097397793775
 30
0.0
 11
40.84251998161479
 21
33.16845399632296
 31
0.0
  0
LINE
  5
A1B
330
1F
100
AcDbEntity
  8
SK2
  6
CONTINUOUS
370
25
 62
7
100
AcDbLine
 10
40.0
 20
34.43523804664968
 30
0.0
 11
41.19607337220806
 21
33.23916467444161
 31
0.0
  0
LINE
  5
A1C
330
1F
100
AcDbEntity
  8
SK2
  6
CONTINUOUS
370
25
 62
7
100
AcDbLine
 10
40.0
 20
34.85950211536161
 30
0.0
 11
41.54962676280135
 21
33.30987535256027
 31
0.0
  0
LINE
  5
A1D
330
1F
100
AcDbEntity
  8
SK2
  6
CONTINUOUS
370
25
 62
7
100
AcDbLine
 10
40.35477023009194
 20
34.92899595398161
 30
0.0
 11
41.90318015339462
 21
33.38058603067893
 31
0.0
  0
LINE
  5
A1E
330
1F
100
AcDbEntity
  8
SK2
  6
CONTINUOUS
370
25
 62
7
100
AcDbLine
 10
40.88510031598184
 20
34.82292993680363
 30
0.0
 11
42.25673354398789
 21
33.45129670879758
 31
0.0
  0
LINE
  5
A1F
330
1F
100
AcDbEntity
  8
SK2
  6
CONTINUOUS
370
25
 62
7
100
AcDbLine
 10
41.41543040187176
 20
34.71686391962564
 30
0.0
 11
42.61028693458117
 21
33.52200738691623
 31
0.0
  0
LINE
  5
A20
330
1F
100
AcDbEntity
  8
SK2
  6
CONTINUOUS
370
25
 62
7
100
AcDbLine
 10
41.94576048776167
 20
34.61079790244766
 30
0.0
 11
42.96384032517444
 21
33.59271806503489
 31
0.0
  0
LINE
  5
A21
330
1F
100
AcDbEntity
  8
SK2
  6
CONTINUOUS
370
25
 62
7
100
AcDbLine
 10
42.47609057365158
 20
34.50473188526968
 30
0.0
 11
43.31739371576771
 21
33.66342874315355
 31
0.0
  0
LINE
  5
A22
330
1F
100
AcDbEntity
  8
SK2
  6
CONTINUOUS
370
25
 62
7
100
AcDbLine
 10
43.00642065954149
 20
34.3986658680917
 30
0.0
 11
43.67094710636098
 21
33.7341394212722
 31
0.0
  0
LINE
  5
A23
330
1F
100
AcDbEntity
  8
SK2
  6
CONTINUOUS
370
25
 62
7
100
AcDbLine
 10
43.5367507454314
 20
34.29259985091372
 30
0.0
 11
44.02450049695426
 21
33.80485009939085
 31
0.0
  0
LINE
  5
A24
330
1F
100
AcDbEntity
  8
SK2
  6
CONTINUOUS
370
25
 62
7
100
AcDbLine
 10
44.06708083132131
 20
34.18653383373574
 30
0.0
 11
44.37805388754754
 21
33.87556077750951
 31
0.0
  0
LINE
  5
A25
330
1F
100
AcDbEntity
  8
SK2
  6
CONTINUOUS
370
25
 62
7
100
AcDbLine
 10
44.59741091721121
 20
34.08046781655776
 30
0.0
 11
44.73160727814081
 21
33.94627145562816
 31
0.0
  0
TEXT
  5
A26
330
1F
100
AcDbEntity
  8
SK2
  6
CONTINUOUS
370
25
 62
7
100
AcDbText
 10
19.58333333333333
 20
35.49995
 30
0.0
 40
3.5
  1
45
 72
     1
 11
22.5
 21
35.49995
 31
0.0
100
AcDbText
  0
LINE
  5
A27
330
1F
100
AcDbEntity
  8
2
  6
CONTINUOUS
370
25
 62
7
100
AcDbLine
 10
44.3
 20
-0.04995
 30
0.0
 11
44.3
 21
-23.05
 31
0.0
  0
LINE
  5
A28
330
1F
100
AcDbEntity
  8
2
  6
CONTINUOUS
370
25
 62
7
100
AcDbLine
 10
45.0
 20
-23.05
 30
0.0
 11
45.0
 21
-0.0500000000000007
 31
0.0
  0
LINE
  5
A29
330
1F
100
AcDbEntity
  8
2
  6
CONTINUOUS
370
25
 62
7
100
AcDbLine
 10
37.3
 20
-22.05
 30
0.0
 11
60.925
 21
-22.05
 31
0.0
  0
LINE
  5
A2A
330
1F
100
AcDbEntity
  8
2
  6
CONTINUOUS
370
25
 62
7
100
AcDbLine
 10
44.3
 20
-22.05
 30
0.0
 11
39.3
 21
-23.05
 31
0.0
  0
LINE
  5
A2B
330
1F
100
AcDbEntity
  8
2
  6
CONTINUOUS
370
25
 62
7
100
AcDbLine
 10
39.3
 20
-23.05
 30
0.0
 11
39.3
 21
-21.05
 31
0.0
  0
LINE
  5
A2C
330
1F
100
AcDbEntity
  8
2
  6
CONTINUOUS
370
25
 62
7
100
AcDbLine
 10
39.3
 20
-21.05
 30
0.0
 11
44.3
 21
-22.05
 31
0.0
  0
LINE
  5
A2D
330
1F
100
AcDbEntity
  8
2
  6
CONTINUOUS
370
25
 62
7
100
AcDbLine
 10
44.24877646233768
 20
-22.06024470753247
 30
0.0
 11
44.26585097489179
 21
-22.04317019497836
 31
0.0
  0
LINE
  5
A2E
330
1F
100
AcDbEntity
  8
2
  6
CONTINUOUS
370
25
 62
7
100
AcDbLine
 10
43.71844637644777
 20
-22.16631072471045
 30
0.0
 11
43.91229758429851
 21
-21.9724595168597
 31
0.0
  0
LINE
  5
A2F
330
1F
100
AcDbEntity
  8
2
  6
CONTINUOUS
370
25
 62
7
100
AcDbLine
 10
43.18811629055786
 20
-22.27237674188843
 30
0.0
 11
43.55874419370524
 21
-21.90174883874105
 31
0.0
  0
LINE
  5
A30
330
1F
100
AcDbEntity
  8
2
  6
CONTINUOUS
370
25
 62
7
100
AcDbLine
 10
42.65778620466795
 20
-22.37844275906641
 30
0.0
 11
43.20519080311197
 21
-21.83103816062239
 31
0.0
  0
LINE
  5
A31
330
1F
100
AcDbEntity
  8
2
  6
CONTINUOUS
370
25
 62
7
100
AcDbLine
 10
42.12745611877804
 20
-22.48450877624439
 30
0.0
 11
42.8516374125187
 21
-21.76032748250374
 31
0.0
  0
LINE
  5
A32
330
1F
100
AcDbEntity
  8
2
  6
CONTINUOUS
370
25
 62
7
100
AcDbLine
 10
41.59712603288813
 20
-22.59057479342238
 30
0.0
 11
42.49808402192542
 21
-21.68961680438508
 31
0.0
  0
LINE
  5
A33
330
1F
100
AcDbEntity
  8
2
  6
CONTINUOUS
370
25
 62
7
100
AcDbLine
 10
41.06679594699822
 20
-22.69664081060036
 30
0.0
 11
42.14453063133215
 21
-21.61890612626643
 31
0.0
  0
LINE
  5
A34
330
1F
100
AcDbEntity
  8
2
  6
CONTINUOUS
370
25
 62
7
100
AcDbLine
 10
40.5364658611083
 20
-22.80270682777834
 30
0.0
 11
41.79097724073888
 21
-21.54819544814777
 31
0.0
  0
LINE
  5
A35
330
1F
100
AcDbEntity
  8
2
  6
CONTINUOUS
370
25
 62
7
100
AcDbLine
 10
40.0061357752184
 20
-22.90877284495632
 30
0.0
 11
41.4374238501456
 21
-21.47748477002912
 31
0.0
  0
LINE
  5
A36
330
1F
100
AcDbEntity
  8
2
  6
CONTINUOUS
370
25
 62
7
100
AcDbLine
 10
39.47580568932849
 20
-23.0148388621343
 30
0.0
 11
41.08387045955233
 21
-21.40677409191046
 31
0.0
  0
LINE
  5
A37
330
1F
100
AcDbEntity
  8
2
  6
CONTINUOUS
370
25
 62
7
100
AcDbLine
 10
39.3
 20
-22.76638048275086
 30
0.0
 11
40.73031706895905
 21
-21.33606341379181
 31
0.0
  0
LINE
  5
A38
330
1F
100
AcDbEntity
  8
2
  6
CONTINUOUS
370
25
 62
7
100
AcDbLine
 10
39.3
 20
-22.34211641403894
 30
0.0
 11
40.37676367836578
 21
-21.26535273567315
 31
0.0
  0
LINE
  5
A39
330
1F
100
AcDbEntity
  8
2
  6
CONTINUOUS
370
25
 62
7
100
AcDbLine
 10
39.3
 20
-21.91785234532701
 30
0.0
 11
40.02321028777251
 21
-21.1946420575545
 31
0.0
  0
LINE
  5
A3A
330
1F
100
AcDbEntity
  8
2
  6
CONTINUOUS
370
25
 62
7
100
AcDbLine
 10
39.3
 20
-21.49358827661508
 30
0.0
 11
39.66965689717924
 21
-21.12393137943585
 31
0.0
  0
LINE
  5
A3B
330
1F
100
AcDbEntity
  8
2
  6
CONTINUOUS
370
25
 62
7
100
AcDbLine
 10
39.3
 20
-21.06932420790315
 30
0.0
 11
39.31610350658596
 21
-21.05322070131719
 31
0.0
  0
LINE
  5
A3C
330
1F
100
AcDbEntity
  8
2
  6
CONTINUOUS
370
25
 62
7
100
AcDbLine
 10
39.3
 20
-22.79135881895645
 30
0.0
 11
39.5155343175363
 21
-23.00689313649274
 31
0.0
  0
LINE
  5
A3D
330
1F
100
AcDbEntity
  8
2
  6
CONTINUOUS
370
25
 62
7
100
AcDbLine
 10
39.3
 20
-22.36709475024452
 30
0.0
 11
39.86908770812957
 21
-22.93618245837409
 31
0.0
  0
LINE
  5
A3E
330
1F
100
AcDbEntity
  8
2
  6
CONTINUOUS
370
25
 62
7
100
AcDbLine
 10
39.3
 20
-21.94283068153259
 30
0.0
 11
40.22264109872285
 21
-22.86547178025543
 31
0.0
  0
LINE
  5
A3F
330
1F
100
AcDbEntity
  8
2
  6
CONTINUOUS
370
25
 62
7
100
AcDbLine
 10
39.3
 20
-21.51856661282066
 30
0.0
 11
40.57619448931612
 21
-22.79476110213678
 31
0.0
  0
LINE
  5
A40
330
1F
100
AcDbEntity
  8
2
  6
CONTINUOUS
370
25
 62
7
100
AcDbLine
 10
39.3
 20
-21.09430254410874
 30
0.0
 11
40.92974787990939
 21
-22.72405042401812
 31
0.0
  0
LINE
  5
A41
330
1F
100
AcDbEntity
  8
2
  6
CONTINUOUS
370
25
 62
7
100
AcDbLine
 10
39.77495190575399
 20
-21.1449903811508
 30
0.0
 11
41.28330127050266
 21
-22.65333974589947
 31
0.0
  0
LINE
  5
A42
330
1F
100
AcDbEntity
  8
2
  6
CONTINUOUS
370
25
 62
7
100
AcDbLine
 10
40.3052819916439
 20
-21.25105639832878
 30
0.0
 11
41.63685466109594
 21
-22.58262906778081
 31
0.0
  0
LINE
  5
A43
330
1F
100
AcDbEntity
  8
2
  6
CONTINUOUS
370
25
 62
7
100
AcDbLine
 10
40.83561207753381
 20
-21.35712241550676
 30
0.0
 11
41.99040805168921
 21
-22.51191838966216
 31
0.0
  0
LINE
  5
A44
330
1F
100
AcDbEntity
  8
2
  6
CONTINUOUS
370
25
 62
7
100
AcDbLine
 10
41.36594216342372
 20
-21.46318843268474
 30
0.0
 11
42.34396144228248
 21
-22.44120771154351
 31
0.0
  0
LINE
  5
A45
330
1F
100
AcDbEntity
  8
2
  6
CONTINUOUS
370
25
 62
7
100
AcDbLine
 10
41.89627224931363
 20
-21.56925444986273
 30
0.0
 11
42.69751483287575
 21
-22.37049703342485
 31
0.0
  0
LINE
  5
A46
330
1F
100
AcDbEntity
  8
2
  6
CONTINUOUS
370
25
 62
7
100
AcDbLine
 10
42.42660233520354
 20
-21.67532046704071
 30
0.0
 11
43.05106822346903
 21
-22.2997863553062
 31
0.0
  0
LINE
  5
A47
330
1F
100
AcDbEntity
  8
2
  6
CONTINUOUS
370
25
 62
7
100
AcDbLine
 10
42.95693242109346
 20
-21.78138648421869
 30
0.0
 11
43.40462161406231
 21
-22.22907567718754
 31
0.0
  0
LINE
  5
A48
330
1F
100
AcDbEntity
  8
2
  6
CONTINUOUS
370
25
 62
7
100
AcDbLine
 10
43.48726250698336
 20
-21.88745250139667
 30
0.0
 11
43.75817500465558
 21
-22.15836499906889
 31
0.0
  0
LINE
  5
A49
330
1F
100
AcDbEntity
  8
2
  6
CONTINUOUS
370
25
 62
7
100
AcDbLine
 10
44.01759259287327
 20
-21.99351851857465
 30
0.0
 11
44.11172839524885
 21
-22.08765432095023
 31
0.0
  0
LINE
  5
A4A
330
1F
100
AcDbEntity
  8
2
  6
CONTINUOUS
370
25
 62
7
100
AcDbLine
 10
45.0
 20
-22.05
 30
0.0
 11
50.0
 21
-21.05
 31
0.0
  0
LINE
  5
A4B
330
1F
100
AcDbEntity
  8
2
  6
CONTINUOUS
370
25
 62
7
100
AcDbLine
 10
50.0
 20
-21.05
 30
0.0
 11
50.0
 21
-23.05
 31
0.0
  0
LINE
  5
A4C
330
1F
100
AcDbEntity
  8
2
  6
CONTINUOUS
370
25
 62
7
100
AcDbLine
 10
50.0
 20
-23.05
 30
0.0
 11
45.0
 21
-22.05
 31
0.0
  0
LINE
  5
A4D
330
1F
100
AcDbEntity
  8
2
  6
CONTINUOUS
370
25
 62
7
100
AcDbLine
 10
49.99343034503244
 20
-23.04868606900649
 30
0.0
 11
50.0
 21
-23.04211641403892
 31
0.0
  0
LINE
  5
A4E
330
1F
100
AcDbEntity
  8
2
  6
CONTINUOUS
370
25
 62
7
100
AcDbLine
 10
49.63987695443917
 20
-22.97797539088783
 30
0.0
 11
50.0
 21
-22.617852345327
 31
0.0
  0
LINE
  5
A4F
330
1F
100
AcDbEntity
  8
2
  6
CONTINUOUS
370
25
 62
7
100
AcDbLine
 10
49.28632356384589
 20
-22.90726471276918
 30
0.0
 11
50.0
 21
-22.19358827661506
 31
0.0
  0
LINE
  5
A50
330
1F
100
AcDbEntity
  8
2
  6
CONTINUOUS
370
25
 62
7
100
AcDbLine
 10
48.93277017325262
 20
-22.83655403465053
 30
0.0
 11
50.0
 21
-21.76932420790314
 31
0.0
  0
LINE
  5
A51
330
1F
100
AcDbEntity
  8
2
  6
CONTINUOUS
370
25
 62
7
100
AcDbLine
 10
48.57921678265934
 20
-22.76584335653187
 30
0.0
 11
50.0
 21
-21.34506013919121
 31
0.0
  0
LINE
  5
A52
330
1F
100
AcDbEntity
  8
2
  6
CONTINUOUS
370
25
 62
7
100
AcDbLine
 10
48.22566339206607
 20
-22.69513267841322
 30
0.0
 11
49.83849508809911
 21
-21.08230098238018
 31
0.0
  0
LINE
  5
A53
330
1F
100
AcDbEntity
  8
2
  6
CONTINUOUS
370
25
 62
7
100
AcDbLine
 10
47.8721100014728
 20
-22.62442200029456
 30
0.0
 11
49.30816500220919
 21
-21.18836699955816
 31
0.0
  0
LINE
  5
A54
330
1F
100
AcDbEntity
  8
2
  6
CONTINUOUS
370
25
 62
7
100
AcDbLine
 10
47.51855661087953
 20
-22.55371132217591
 30
0.0
 11
48.77783491631929
 21
-21.29443301673614
 31
0.0
  0
LINE
  5
A55
330
1F
100
AcDbEntity
  8
2
  6
CONTINUOUS
370
25
 62
7
100
AcDbLine
 10
47.16500322028625
 20
-22.48300064405725
 30
0.0
 11
48.24750483042937
 21
-21.40049903391413
 31
0.0
  0
LINE
  5
A56
330
1F
100
AcDbEntity
  8
2
  6
CONTINUOUS
370
25
 62
7
100
AcDbLine
 10
46.81144982969298
 20
-22.41228996593859
 30
0.0
 11
47.71717474453946
 21
-21.50656505109211
 31
0.0
  0
LINE
  5
A57
330
1F
100
AcDbEntity
  8
2
  6
CONTINUOUS
370
25
 62
7
100
AcDbLine
 10
46.45789643909971
 20
-22.34157928781994
 30
0.0
 11
47.18684465864956
 21
-21.61263106827009
 31
0.0
  0
LINE
  5
A58
330
1F
100
AcDbEntity
  8
2
  6
CONTINUOUS
370
25
 62
7
100
AcDbLine
 10
46.10434304850644
 20
-22.27086860970129
 30
0.0
 11
46.65651457275965
 21
-21.71869708544807
 31
0.0
  0
LINE
  5
A59
330
1F
100
AcDbEntity
  8
2
  6
CONTINUOUS
370
25
 62
7
100
AcDbLine
 10
45.75078965791316
 20
-22.20015793158263
 30
0.0
 11
46.12618448686974
 21
-21.82476310262605
 31
0.0
  0
LINE
  5
A5A
330
1F
100
AcDbEntity
  8
2
  6
CONTINUOUS
370
25
 62
7
100
AcDbLine
 10
45.39723626731989
 20
-22.12944725346398
 30
0.0
 11
45.59585440097983
 21
-21.93082911980403
 31
0.0
  0
LINE
  5
A5B
330
1F
100
AcDbEntity
  8
2
  6
CONTINUOUS
370
25
 62
7
100
AcDbLine
 10
45.04368287672661
 20
-22.05873657534532
 30
0.0
 11
45.06552431508992
 21
-22.03689513698201
 31
0.0
  0
LINE
  5
A5C
330
1F
100
AcDbEntity
  8
2
  6
CONTINUOUS
370
25
 62
7
100
AcDbLine
 10
45.24311368767695
 20
-22.00137726246461
 30
0.0
 11
45.36467053151542
 21
-22.12293410630308
 31
0.0
  0
LINE
  5
A5D
330
1F
100
AcDbEntity
  8
2
  6
CONTINUOUS
370
25
 62
7
100
AcDbLine
 10
45.59666707827022
 20
-21.93066658434596
 30
0.0
 11
45.89500061740532
 21
-22.22900012348106
 31
0.0
  0
LINE
  5
A5E
330
1F
100
AcDbEntity
  8
2
  6
CONTINUOUS
370
25
 62
7
100
AcDbLine
 10
45.95022046886349
 20
-21.8599559062273
 30
0.0
 11
46.42533070329523
 21
-22.33506614065904
 31
0.0
  0
LINE
  5
A5F
330
1F
100
AcDbEntity
  8
2
  6
CONTINUOUS
370
25
 62
7
100
AcDbLine
 10
46.30377385945676
 20
-21.78924522810865
 30
0.0
 11
46.95566078918515
 21
-22.44113215783702
 31
0.0
  0
LINE
  5
A60
330
1F
100
AcDbEntity
  8
2
  6
CONTINUOUS
370
25
 62
7
100
AcDbLine
 10
46.65732725005004
 20
-21.71853454998999
 30
0.0
 11
47.48599087507505
 21
-22.54719817501501
 31
0.0
  0
LINE
  5
A61
330
1F
100
AcDbEntity
  8
2
  6
CONTINUOUS
370
25
 62
7
100
AcDbLine
 10
47.01088064064331
 20
-21.64782387187134
 30
0.0
 11
48.01632096096496
 21
-22.65326419219299
 31
0.0
  0
LINE
  5
A62
330
1F
100
AcDbEntity
  8
2
  6
CONTINUOUS
370
25
 62
7
100
AcDbLine
 10
47.36443403123658
 20
-21.57711319375268
 30
0.0
 11
48.54665104685488
 21
-22.75933020937097
 31
0.0
  0
LINE
  5
A63
330
1F
100
AcDbEntity
  8
2
  6
CONTINUOUS
370
25
 62
7
100
AcDbLine
 10
47.71798742182985
 20
-21.50640251563403
 30
0.0
 11
49.07698113274478
 21
-22.86539622654895
 31
0.0
  0
LINE
  5
A64
330
1F
100
AcDbEntity
  8
2
  6
CONTINUOUS
370
25
 62
7
100
AcDbLine
 10
48.07154081242313
 20
-21.43569183751537
 30
0.0
 11
49.60731121863469
 21
-22.97146224372694
 31
0.0
  0
LINE
  5
A65
330
1F
100
AcDbEntity
  8
2
  6
CONTINUOUS
370
25
 62
7
100
AcDbLine
 10
48.4250942030164
 20
-21.36498115939672
 30
0.0
 11
50.0
 21
-22.93988695638032
 31
0.0
  0
LINE
  5
A66
330
1F
100
AcDbEntity
  8
2
  6
CONTINUOUS
370
25
 62
7
100
AcDbLine
 10
48.77864759360968
 20
-21.29427048127807
 30
0.0
 11
50.0
 21
-22.51562288766839
 31
0.0
  0
LINE
  5
A67
330
1F
100
AcDbEntity
  8
2
  6
CONTINUOUS
370
25
 62
7
100
AcDbLine
 10
49.13220098420295
 20
-21.22355980315941
 30
0.0
 11
50.0
 21
-22.09135881895646
 31
0.0
  0
LINE
  5
A68
330
1F
100
AcDbEntity
  8
2
  6
CONTINUOUS
370
25
 62
7
100
AcDbLine
 10
49.48575437479622
 20
-21.15284912504075
 30
0.0
 11
50.0
 21
-21.66709475024453
 31
0.0
  0
LINE
  5
A69
330
1F
100
AcDbEntity
  8
2
  6
CONTINUOUS
370
25
 62
7
100
AcDbLine
 10
49.83930776538949
 20
-21.0821384469221
 30
0.0
 11
50.0
 21
-21.24283068153261
 31
0.0
  0
TEXT
  5
A6A
330
1F
100
AcDbEntity
  8
2
  6
CONTINUOUS
370
25
 62
7
100
AcDbText
 10
52.25416666666666
 20
-20.55
 30
0.0
 40
3.5
  1
0.7
 72
     1
 11
55.4625
 21
-20.55
 31
0.0
100
AcDbText
  0
LINE
  5
A6B
330
1F
100
AcDbEntity
  8
SK1
  6
CONTINUOUS
370
50
 62
4
100
AcDbLine
 10
37.1
 20
0.0
 30
0.0
 11
38.85
 21
0.0
 31
0.0
  0
LINE
  5
A6C
330
1F
100
AcDbEntity
  8
SK1
  6
CONTINUOUS
370
50
 62
4
100
AcDbLine
 10
37.1
 20
0.0
 30
0.0
 11
37.1
 21
1.75
 31
0.0
  0
ARC
  5
A6D
330
1F
100
AcDbEntity
  8
SK1
  6
CONTINUOUS
370
50
 62
4
100
AcDbCircle
 10
37.1
 20
0.0
 30
0.0
 40
1.75
100
AcDbArc
 50
0.0
 51
90.0
  0
LINE
  5
A6E
330
1F
100
AcDbEntity
  8
SK1
  6
CONTINUOUS
370
50
 62
4
100
AcDbLine
 10
37.1
 20
0.0
 30
0.0
 11
35.35
 21
0.0
 31
0.0
  0
ARC
  5
A6F
330
1F
100
AcDbEntity
  8
SK1
  6
CONTINUOUS
370
50
 62
4
100
AcDbCircle
 10
37.1
 20
0.0
 30
0.0
 40
1.75
100
AcDbArc
 50
180.0
 51
270.0
  0
LINE
  5
A70
330
1F
100
AcDbEntity
  8
SK1
  6
CONTINUOUS
370
50
 62
4
100
AcDbLine
 10
37.1
 20
-1.75
 30
0.0
 11
37.1
 21
0.0
 31
0.0
  0
ARC
  5
A71
330
1F
100
AcDbEntity
  8
SK1
  6
CONTINUOUS
370
50
 62
4
100
AcDbCircle
 10
37.1
 20
0.0
 30
0.0
 40
1.75
100
AcDbArc
 50
270.0
 51
0.0
  0
ARC
  5
A72
330
1F
100
AcDbEntity
  8
SK1
  6
CONTINUOUS
370
50
 62
4
100
AcDbCircle
 10
37.1
 20
0.0
 30
0.0
 40
1.75
100
AcDbArc
 50
90.0
 51
180.0
  0
LINE
  5
A73
330
1F
100
AcDbEntity
  8
SK1
  6
CONTINUOUS
370
50
 62
4
100
AcDbLine
 10
36.87717274741573
 20
-1.73564731720198
 30
0.0
 11
37.1
 21
-1.512820064617713
 31
0.0
  0
LINE
  5
A74
330
1F
100
AcDbEntity
  8
SK1
  6
CONTINUOUS
370
50
 62
4
100
AcDbLine
 10
38.61282006461771
 20
0.0
 30
0.0
 11
38.83564731720198
 21
0.2228272525842674
 31
0.0
  0
LINE
  5
A75
330
1F
100
AcDbEntity
  8
SK1
  6
CONTINUOUS
370
50
 62
4
100
AcDbLine
 10
36.66930380681873
 20
-1.69602888438369
 30
0.0
 11
37.1
 21
-1.265332691202421
 31
0.0
  0
LINE
  5
A76
330
1F
100
AcDbEntity
  8
SK1
  6
CONTINUOUS
370
50
 62
4
100
AcDbLine
 10
38.36533269120242
 20
0.0
 30
0.0
 11
38.79602888438369
 21
0.4306961931812696
 31
0.0
  0
LINE
  5
A77
330
1F
100
AcDbEntity
  8
SK1
  6
CONTINUOUS
370
50
 62
4
100
AcDbLine
 10
36.48148340435765
 20
-1.636361913429485
 30
0.0
 11
37.1
 21
-1.01784531778713
 31
0.0
  0
LINE
  5
A78
330
1F
100
AcDbEntity
  8
SK1
  6
CONTINUOUS
370
50
 62
4
100
AcDbLine
 10
38.11784531778713
 20
0.0
 30
0.0
 11
38.73636191342948
 21
0.6185165956423557
 31
0.0
  0
LINE
  5
A79
330
1F
100
AcDbEntity
  8
SK1
  6
CONTINUOUS
370
50
 62
4
100
AcDbLine
 10
36.3098551094628
 20
-1.560502834909039
 30
0.0
 11
37.1
 21
-0.7703579443718382
 31
0.0
  0
LINE
  5
A7A
330
1F
100
AcDbEntity
  8
SK1
  6
CONTINUOUS
370
50
 62
4
100
AcDbLine
 10
37.87035794437184
 20
0.0
 30
0.0
 11
38.66050283490904
 21
0.7901448905372013
 31
0.0
  0
LINE
  5
A7B
330
1F
100
AcDbEntity
  8
SK1
  6
CONTINUOUS
370
50
 62
4
100
AcDbLine
 10
36.15217783219447
 20
-1.470692738762079
 30
0.0
 11
37.1
 21
-0.5228705709565462
 31
0.0
  0
LINE
  5
A7C
330
1F
100
AcDbEntity
  8
SK1
  6
CONTINUOUS
370
50
 62
4
100
AcDbLine
 10
37.62287057095655
 20
0.0
 30
0.0
 11
38.57069273876208
 21
0.947822167805533
 31
0.0
  0
LINE
  5
A7D
330
1F
100
AcDbEntity
  8
SK1
  6
CONTINUOUS
370
50
 62
4
100
AcDbLine
 10
36.00842956711548
 20
-1.366953630425777
 30
0.0
 11
37.1
 21
-0.2753831975412551
 31
0.0
  0
LINE
  5
A7E
330
1F
100
AcDbEntity
  8
SK1
  6
CONTINUOUS
370
50
 62
4
100
AcDbLine
 10
37.37538319754125
 20
0.0
 30
0.0
 11
38.46695363042578
 21
1.091570432884522
 31
0.0
  0
LINE
  5
A7F
330
1F
100
AcDbEntity
  8
SK1
  6
CONTINUOUS
370
50
 62
4
100
AcDbLine
 10
35.87712164538165
 20
-1.25077417874432
 30
0.0
 11
37.1
 21
-0.0278958241259639
 31
0.0
  0
LINE
  5
A80
330
1F
100
AcDbEntity
  8
SK1
  6
CONTINUOUS
370
50
 62
4
100
AcDbLine
 10
37.12789582412596
 20
0.0
 30
0.0
 11
38.35077417874432
 21
1.222878354618356
 31
0.0
  0
LINE
  5
A81
330
1F
100
AcDbEntity
  8
SK1
  6
CONTINUOUS
370
50
 62
4
100
AcDbLine
 10
35.75784030371346
 20
-1.122568146997212
 30
0.0
 11
36.88040845071068
 21
0.0
 31
0.0
  0
LINE
  5
A82
330
1F
100
AcDbEntity
  8
SK1
  6
CONTINUOUS
370
50
 62
4
100
AcDbLine
 10
37.1
 20
0.2195915492893277
 30
0.0
 11
38.22256814699721
 21
1.34215969628654
 31
0.0
  0
LINE
  5
A83
330
1F
100
AcDbEntity
  8
SK1
  6
CONTINUOUS
370
50
 62
4
100
AcDbLine
 10
35.65188167231256
 20
-0.9810394049828186
 30
0.0
 11
36.63292107729539
 21
0.0
 31
0.0
  0
LINE
  5
A84
330
1F
100
AcDbEntity
  8
SK1
  6
CONTINUOUS
370
50
 62
4
100
AcDbLine
 10
37.1
 20
0.4670789227046193
 30
0.0
 11
38.08103940498282
 21
1.448118327687438
 31
0.0
  0
LINE
  5
A85
330
1F
100
AcDbEntity
  8
SK1
  6
CONTINUOUS
370
50
 62
4
100
AcDbLine
 10
35.55832908651576
 20
-0.8271046173643402
 30
0.0
 11
36.38543370388009
 21
0.0
 31
0.0
  0
LINE
  5
A86
330
1F
100
AcDbEntity
  8
SK1
  6
CONTINUOUS
370
50
 62
4
100
AcDbLine
 10
37.1
 20
0.71456629611991
 30
0.0
 11
37.92710461736434
 21
1.54167091348425
 31
0.0
  0
LINE
  5
A87
330
1F
100
AcDbEntity
  8
SK1
  6
CONTINUOUS
370
50
 62
4
100
AcDbLine
 10
35.47918473824205
 20
-0.6587615922227528
 30
0.0
 11
36.1379463304648
 21
0.0
 31
0.0
  0
LINE
  5
A88
330
1F
100
AcDbEntity
  8
SK1
  6
CONTINUOUS
370
50
 62
4
100
AcDbLine
 10
37.1
 20
0.9620536695352015
 30
0.0
 11
37.75876159222275
 21
1.620815261757954
 31
0.0
  0
LINE
  5
A89
330
1F
100
AcDbEntity
  8
SK1
  6
CONTINUOUS
370
50
 62
4
100
AcDbLine
 10
35.41629687706963
 20
-0.474162079979876
 30
0.0
 11
35.89045895704951
 21
0.0
 31
0.0
  0
LINE
  5
A8A
330
1F
100
AcDbEntity
  8
SK1
  6
CONTINUOUS
370
50
 62
4
100
AcDbLine
 10
37.1
 20
1.209541042950494
 30
0.0
 11
37.57416207997988
 21
1.683703122930369
 31
0.0
  0
LINE
  5
A8B
330
1F
100
AcDbEntity
  8
SK1
  6
CONTINUOUS
370
50
 62
4
100
AcDbLine
 10
35.37198100434271
 20
-0.2709905792915031
 30
0.0
 11
35.64297158363422
 21
0.0
 31
0.0
  0
LINE
  5
A8C
330
1F
100
AcDbEntity
  8
SK1
  6
CONTINUOUS
370
50
 62
4
100
AcDbLine
 10
37.1
 20
1.457028416365784
 30
0.0
 11
37.3709905792915
 21
1.728018995657286
 31
0.0
  0
LINE
  5
A8D
330
1F
100
AcDbEntity
  8
SK1
  6
CONTINUOUS
370
50
 62
4
100
AcDbLine
 10
35.35138584689781
 20
-0.0440983633211194
 30
0.0
 11
35.39548421021892
 21
0.0
 31
0.0
  0
LINE
  5
A8E
330
1F
100
AcDbEntity
  8
SK1
  6
CONTINUOUS
370
50
 62
4
100
AcDbLine
 10
37.1
 20
1.704515789781075
 30
0.0
 11
37.14409836332112
 21
1.748614153102194
 31
0.0
  0
LINE
  5
A8F
330
1F
100
AcDbEntity
  8
SK1
  6
CONTINUOUS
370
50
 62
4
100
AcDbLine
 10
35.46386517603682
 20
-0.6191473609004006
 30
0.0
 11
36.4808526390996
 21
-1.636134823963186
 31
0.0
  0
LINE
  5
A90
330
1F
100
AcDbEntity
  8
SK1
  6
CONTINUOUS
370
50
 62
4
100
AcDbLine
 10
35.37363430643546
 20
-0.2814291178837463
 30
0.0
 11
36.81857088211625
 21
-1.726365693564548
 31
0.0
  0
LINE
  5
A91
330
1F
100
AcDbEntity
  8
SK1
  6
CONTINUOUS
370
50
 62
4
100
AcDbLine
 10
35.3503344343115
 20
-0.0106418723445003
 30
0.0
 11
37.0893581276555
 21
-1.749665565688503
 31
0.0
  0
LINE
  5
A92
330
1F
100
AcDbEntity
  8
SK1
  6
CONTINUOUS
370
50
 62
4
100
AcDbLine
 10
35.58717993538229
 20
0.0
 30
0.0
 11
37.1
 21
-1.51282006461771
 31
0.0
  0
LINE
  5
A93
330
1F
100
AcDbEntity
  8
SK1
  6
CONTINUOUS
370
50
 62
4
100
AcDbLine
 10
35.83466730879758
 20
0.0
 30
0.0
 11
37.1
 21
-1.265332691202418
 31
0.0
  0
LINE
  5
A94
330
1F
100
AcDbEntity
  8
SK1
  6
CONTINUOUS
370
50
 62
4
100
AcDbLine
 10
36.08215468221287
 20
0.0
 30
0.0
 11
37.1
 21
-1.017845317787128
 31
0.0
  0
LINE
  5
A95
330
1F
100
AcDbEntity
  8
SK1
  6
CONTINUOUS
370
50
 62
4
100
AcDbLine
 10
36.32964205562816
 20
0.0
 30
0.0
 11
37.1
 21
-0.7703579443718369
 31
0.0
  0
LINE
  5
A96
330
1F
100
AcDbEntity
  8
SK1
  6
CONTINUOUS
370
50
 62
4
100
AcDbLine
 10
36.57712942904345
 20
0.0
 30
0.0
 11
37.1
 21
-0.5228705709565453
 31
0.0
  0
LINE
  5
A97
330
1F
100
AcDbEntity
  8
SK1
  6
CONTINUOUS
370
50
 62
4
100
AcDbLine
 10
36.82461680245875
 20
0.0
 30
0.0
 11
37.1
 21
-0.2753831975412537
 31
0.0
  0
LINE
  5
A98
330
1F
100
AcDbEntity
  8
SK1
  6
CONTINUOUS
370
50
 62
4
100
AcDbLine
 10
37.07210417587404
 20
0.0
 30
0.0
 11
37.1
 21
-0.027895824125963
 31
0.0
  0
LINE
  5
A99
330
1F
100
AcDbEntity
  8
SK1
  6
CONTINUOUS
370
50
 62
4
100
AcDbLine
 10
37.1
 20
0.219591549289329
 30
0.0
 11
37.31959154928933
 21
0.0
 31
0.0
  0
LINE
  5
A9A
330
1F
100
AcDbEntity
  8
SK1
  6
CONTINUOUS
370
50
 62
4
100
AcDbLine
 10
37.1
 20
0.4670789227046202
 30
0.0
 11
37.56707892270462
 21
0.0
 31
0.0
  0
LINE
  5
A9B
330
1F
100
AcDbEntity
  8
SK1
  6
CONTINUOUS
370
50
 62
4
100
AcDbLine
 10
37.1
 20
0.7145662961199113
 30
0.0
 11
37.81456629611991
 21
0.0
 31
0.0
  0
LINE
  5
A9C
330
1F
100
AcDbEntity
  8
SK1
  6
CONTINUOUS
370
50
 62
4
100
AcDbLine
 10
37.1
 20
0.9620536695352029
 30
0.0
 11
38.0620536695352
 21
0.0
 31
0.0
  0
LINE
  5
A9D
330
1F
100
AcDbEntity
  8
SK1
  6
CONTINUOUS
370
50
 62
4
100
AcDbLine
 10
37.1
 20
1.209541042950494
 30
0.0
 11
38.3095410429505
 21
0.0
 31
0.0
  0
LINE
  5
A9E
330
1F
100
AcDbEntity
  8
SK1
  6
CONTINUOUS
370
50
 62
4
100
AcDbLine
 10
37.1
 20
1.457028416365785
 30
0.0
 11
38.55702841636579
 21
0.0
 31
0.0
  0
LINE
  5
A9F
330
1F
100
AcDbEntity
  8
SK1
  6
CONTINUOUS
370
50
 62
4
100
AcDbLine
 10
37.1
 20
1.704515789781076
 30
0.0
 11
38.80451578978108
 21
0.0
 31
0.0
  0
LINE
  5
AA0
330
1F
100
AcDbEntity
  8
SK1
  6
CONTINUOUS
370
50
 62
4
100
AcDbLine
 10
37.31543384193567
 20
1.736569321260697
 30
0.0
 11
38.8365693212607
 21
0.2154338419356714
 31
0.0
  0
LINE
  5
AA1
330
1F
100
AcDbEntity
  8
SK1
  6
CONTINUOUS
370
50
 62
4
100
AcDbLine
 10
37.63283284728993
 20
1.666657689321729
 30
0.0
 11
38.76665768932173
 21
0.5328328472899322
 31
0.0
  0
LINE
  5
AA2
330
1F
100
AcDbEntity
  8
SK1
  6
CONTINUOUS
370
50
 62
4
100
AcDbLine
 10
38.14009874905675
 20
1.406879160970207
 30
0.0
 11
38.50687916097021
 21
1.040098749056747
 31
0.0
  0
LINE
  5
AA3
330
1F
100
AcDbEntity
  8
4
  6
LONGDASH_DASH
370
25
 62
2
100
AcDbLine
 10
37.1
 20
0.0
 30
0.0
 11
45.0
 21
0.0
 31
0.0
  0
LINE
  5
AA4
330
1F
100
AcDbEntity
  8
SK4
  6
LONGDASH_DASH
370
25
 62
2
100
AcDbLine
 10
-6.0
 20
0.0
 30
0.0
 11
51.0
 21
0.0
 31
0.0
  0
ARC
  5
AA5
330
1F
100
AcDbEntity
  8
SK6
  6
CONTINUOUS
370
25
 62
5
100
AcDbCircle
 10
68.9613820083765
 20
-26.74524575338786
 30
0.0
 40
2.76048912849221
100
AcDbArc
 50
338.9379403434233
 51
90.44457437511365
  0
LINE
  5
AA6
330
1F
100
AcDbEntity
  8
SK6
  6
CONTINUOUS
370
25
 62
5
100
AcDbLine
 10
68.93996279695983
 20
-23.98483972421281
 30
0.0
 11
68.93996279695983
 21
-25.08789835613463
 31
0.0
  0
ARC
  5
AA7
330
1F
100
AcDbEntity
  8
SK6
  6
CONTINUOUS
370
25
 62
5
100
AcDbCircle
 10
68.95050902936916
 20
-26.76523924566821
 30
0.0
 40
1.677374043771779
100
AcDbArc
 50
243.4214706017868
 51
90.36024081226083
  0
ARC
  5
AA8
330
1F
100
AcDbEntity
  8
SK6
  6
CONTINUOUS
370
25
 62
5
100
AcDbCircle
 10
71.47275989684958
 20
-26.33383199215561
 30
0.0
 40
3.80021703002276
100
AcDbArc
 50
210.5483731288539
 51
236.97801693668
  0
LINE
  5
AA9
330
1F
100
AcDbEntity
  8
SK6
  6
CONTINUOUS
370
25
 62
5
100
AcDbLine
 10
69.40179068512487
 20
-29.52016781867535
 30
0.0
 11
73.54373096742671
 21
-29.52016781867535
 31
0.0
  0
ARC
  5
AAA
330
1F
100
AcDbEntity
  8
SK6
  6
CONTINUOUS
370
25
 62
5
100
AcDbCircle
 10
71.47276183877257
 20
-26.3338320937346
 30
0.0
 40
3.800216899582472
100
AcDbArc
 50
303.0219828477959
 51
326.3732153033476
  0
LINE
  5
AAB
330
1F
100
AcDbEntity
  8
SK6
  6
CONTINUOUS
370
25
 62
5
100
AcDbLine
 10
74.63705975135723
 20
-28.4383194907709
 30
0.0
 11
71.27976170575462
 21
-28.4383194907709
 31
0.0
  0
LINE
  5
AAC
330
1F
100
AcDbEntity
  8
SK6
  6
CONTINUOUS
370
25
 62
5
100
AcDbLine
 10
71.27976170575462
 20
-28.4383194907709
 30
0.0
 11
75.19962109771987
 21
-27.07691829641694
 31
0.0
  0
ARC
  5
AAD
330
1F
100
AcDbEntity
  8
SK6
  6
CONTINUOUS
370
25
 62
5
100
AcDbCircle
 10
71.47276256157211
 20
-26.3338326048594
 30
0.0
 40
3.800217216614723
100
AcDbArc
 50
348.7238644184696
 51
53.4691051260885
  0
LINE
  5
AAE
330
1F
100
AcDbEntity
  8
SK6
  6
CONTINUOUS
370
25
 62
5
100
AcDbLine
 10
73.73486524538545
 20
-23.28022124429967
 30
0.0
 11
71.53745047882737
 21
-27.73730973507057
 31
0.0
  0
ENDSEC
  0
SECTION
  2
OBJECTS
  0
DICTIONARY
  5
C
330
0
100
AcDbDictionary
281
     1
  3
ACAD_GROUP
350
D
  3
ACAD_LAYOUT
350
1A
  3
ACAD_MATERIAL
350
3B
  3
ACAD_MLEADERSTYLE
350
AB1
  3
ACAD_MLINESTYLE
350
17
  3
ACAD_PLOTSETTINGS
350
19
  3
ACAD_PLOTSTYLENAME
350
E
  3
ACAD_SCALELIST
350
391
  3
ACAD_VISUALSTYLE
350
2A
  3
AcDbVariableDictionary
350
AAF
  0
DICTIONARY
  5
D
102
{ACAD_REACTORS
330
C
102
}
330
C
100
AcDbDictionary
281
     1
  0
DICTIONARY
  5
1A
102
{ACAD_REACTORS
330
C
102
}
330
C
100
AcDbDictionary
281
     1
  3
Layout1
350
1E
  3
Layout2
350
26
  3
Model
350
22
  0
DICTIONARY
  5
3B
102
{ACAD_REACTORS
330
C
102
}
330
C
100
AcDbDictionary
281
     1
  3
ByBlock
350
3D
  3
ByLayer
350
3C
  3
Global
350
3E
  0
DICTIONARY
  5
AB1
102
{ACAD_REACTORS
330
C
102
}
330
C
100
AcDbDictionary
281
     1
  0
DICTIONARY
  5
17
102
{ACAD_REACTORS
330
C
102
}
330
C
100
AcDbDictionary
281
     1
  3
Standard
350
18
  0
DICTIONARY
  5
19
102
{ACAD_REACTORS
330
C
102
}
330
C
100
AcDbDictionary
281
     1
  0
ACDBDICTIONARYWDFLT
  5
E
102
{ACAD_REACTORS
330
C
102
}
330
C
100
AcDbDictionary
281
     1
  3
Normal
350
F
100
AcDbDictionaryWithDefault
340
F
  0
DICTIONARY
  5
391
102
{ACAD_REACTORS
330
C
102
}
330
C
100
AcDbDictionary
281
     1
  3
A0
350
392
  3
A1
350
393
  3
A2
350
394
  3
A3
350
395
  3
A4
350
396
  3
A5
350
397
  3
A6
350
398
  3
A7
350
399
  3
A8
350
39A
  3
A9
350
39B
  3
B0
350
39C
  3
B1
350
39D
  3
B2
350
39E
  3
B3
350
39F
  3
B4
350
3A0
  3
B5
350
3A1
  3
B6
350
3A2
  3
B7
350
3A3
  3
B8
350
3A4
  3
B9
350
3A5
  3
C0
350
3A6
  3
C1
350
3A7
  3
C2
350
3A8
  3
C3
350
3A9
  3
C4
350
3AA
  3
C5
350
3AB
  3
C6
350
3AC
  3
C7
350
3AD
  3
C8
350
3AE
  3
C9
350
3AF
  3
D0
350
3B0
  3
D1
350
3B1
  3
D2
350
3B2
  0
DICTIONARY
  5
2A
102
{ACAD_REACTORS
330
C
102
}
330
C
100
AcDbDictionary
281
     1
  3
2dWireframe
350
2F
  3
3D Hidden
350
31
  3
3dWireframe
350
30
  3
Basic
350
32
  3
Brighten
350
36
  3
ColorChange
350
3A
  3
Conceptual
350
34
  3
Dim
350
35
  3
Facepattern
350
39
  3
Flat
350
2B
  3
FlatWithEdges
350
2C
  3
Gouraud
350
2D
  3
GouraudWithEdges
350
2E
  3
Linepattern
350
38
  3
Realistic
350
33
  3
Thicken
350
37
  0
DICTIONARY
  5
AAF
102
{ACAD_REACTORS
330
C
102
}
330
C
100
AcDbDictionary
281
     1
  3
CANNOSCALE
350
AB4
  3
DIMASSOC
350
AB5
  3
HIDETEXT
350
AB6
  3
PSOLHEIGHT
350
AB3
  3
PSOLWIDTH
350
AB2
  0
LAYOUT
  5
1E
102
{ACAD_REACTORS
330
1A
102
}
330
1A
100
AcDbPlotSettings
  1

  2
none_device
  4

  6

 40
0.0
 41
0.0
 42
0.0
 43
0.0
 44
0.0
 45
0.0
 46
0.0
 47
0.0
 48
0.0
 49
0.0
140
0.0
141
0.0
142
1.0
143
1.0
 70
   688
 72
     0
 73
     0
 74
     5
  7

 75
    16
147
1.0
148
0.0
149
0.0
100
AcDbLayout
  1
Layout1
 70
     1
 71
     1
 10
0.0
 20
0.0
 11
420.0
 21
297.0
 12
0.0
 22
0.0
 32
0.0
 14
1.000000000000000E+20
 24
1.000000000000000E+20
 34
1.000000000000000E+20
 15
-1.000000000000000E+20
 25
-1.000000000000000E+20
 35
-1.000000000000000E+20
146
0.0
 13
0.0
 23
0.0
 33
0.0
 16
1.0
 26
0.0
 36
0.0
 17
0.0
 27
1.0
 37
0.0
 76
     0
330
1B
  0
LAYOUT
  5
26
102
{ACAD_REACTORS
330
1A
102
}
330
1A
100
AcDbPlotSettings
  1

  2
none_device
  4

  6

 40
0.0
 41
0.0
 42
0.0
 43
0.0
 44
0.0
 45
0.0
 46
0.0
 47
0.0
 48
0.0
 49
0.0
140
0.0
141
0.0
142
1.0
143
1.0
 70
   688
 72
     0
 73
     0
 74
     5
  7

 75
    16
147
1.0
148
0.0
149
0.0
100
AcDbLayout
  1
Layout2
 70
     1
 71
     2
 10
0.0
 20
0.0
 11
0.0
 21
0.0
 12
0.0
 22
0.0
 32
0.0
 14
0.0
 24
0.0
 34
0.0
 15
0.0
 25
0.0
 35
0.0
146
0.0
 13
0.0
 23
0.0
 33
0.0
 16
1.0
 26
0.0
 36
0.0
 17
0.0
 27
1.0
 37
0.0
 76
     0
330
23
  0
LAYOUT
  5
22
102
{ACAD_REACTORS
330
1A
102
}
330
1A
100
AcDbPlotSettings
  1

  2
none_device
  4

  6

 40
0.0
 41
0.0
 42
0.0
 43
0.0
 44
0.0
 45
0.0
 46
0.0
 47
0.0
 48
0.0
 49
0.0
140
0.0
141
0.0
142
1.0
143
1.0
 70
  1712
 72
     0
 73
     0
 74
     0
  7

 75
     0
147
1.0
148
0.0
149
0.0
100
AcDbLayout
  1
Model
 70
     1
 71
     0
 10
0.0
 20
0.0
 11
420.0
 21
297.0
 12
0.0
 22
0.0
 32
0.0
 14
0.0
 24
0.0
 34
0.0
 15
25.0
 25
35.0
 35
0.0
146
0.0
 13
0.0
 23
0.0
 33
0.0
 16
1.0
 26
0.0
 36
0.0
 17
0.0
 27
1.0
 37
0.0
 76
     0
330
1F
331
29
  0
MATERIAL
  5
3D
102
{ACAD_REACTORS
330
3B
102
}
102
{ACAD_XDICTIONARY
360
AD9
102
}
330
3B
100
AcDbMaterial
  1
ByBlock
  0
MATERIAL
  5
3C
102
{ACAD_REACTORS
330
3B
102
}
102
{ACAD_XDICTIONARY
360
AD7
102
}
330
3B
100
AcDbMaterial
  1
ByLayer
  0
MATERIAL
  5
3E
102
{ACAD_REACTORS
330
3B
102
}
102
{ACAD_XDICTIONARY
360
ADB
102
}
330
3B
100
AcDbMaterial
  1
Global
  0
MLINESTYLE
  5
18
102
{ACAD_REACTORS
330
17
102
}
330
17
100
AcDbMlineStyle
  2
Standard
 70
     0
  3

 62
   256
 51
90.0
 52
90.0
 71
     2
 49
0.5
 62
   256
  6
BYLAYER
 49
-0.5
 62
   256
  6
BYLAYER
  0
ACDBPLACEHOLDER
  5
F
102
{ACAD_REACTORS
330
E
102
}
330
E
  0
SCALE
  5
392
102
{ACAD_REACTORS
330
391
102
}
330
391
100
AcDbScale
 70
     0
300
1:1
140
1.0
141
1.0
290
     1
  0
SCALE
  5
393
102
{ACAD_REACTORS
330
391
102
}
330
391
100
AcDbScale
 70
     0
300
1:2
140
1.0
141
2.0
290
     0
  0
SCALE
  5
394
102
{ACAD_REACTORS
330
391
102
}
330
391
100
AcDbScale
 70
     0
300
1:4
140
1.0
141
4.0
290
     0
  0
SCALE
  5
395
102
{ACAD_REACTORS
330
391
102
}
330
391
100
AcDbScale
 70
     0
300
1:5
140
1.0
141
5.0
290
     0
  0
SCALE
  5
396
102
{ACAD_REACTORS
330
391
102
}
330
391
100
AcDbScale
 70
     0
300
1:8
140
1.0
141
8.0
290
     0
  0
SCALE
  5
397
102
{ACAD_REACTORS
330
391
102
}
330
391
100
AcDbScale
 70
     0
300
1:10
140
1.0
141
10.0
290
     0
  0
SCALE
  5
398
102
{ACAD_REACTORS
330
391
102
}
330
391
100
AcDbScale
 70
     0
300
1:16
140
1.0
141
16.0
290
     0
  0
SCALE
  5
399
102
{ACAD_REACTORS
330
391
102
}
330
391
100
AcDbScale
 70
     0
300
1:20
140
1.0
141
20.0
290
     0
  0
SCALE
  5
39A
102
{ACAD_REACTORS
330
391
102
}
330
391
100
AcDbScale
 70
     0
300
1:30
140
1.0
141
30.0
290
     0
  0
SCALE
  5
39B
102
{ACAD_REACTORS
330
391
102
}
330
391
100
AcDbScale
 70
     0
300
1:40
140
1.0
141
40.0
290
     0
  0
SCALE
  5
39C
102
{ACAD_REACTORS
330
391
102
}
330
391
100
AcDbScale
 70
     0
300
1:50
140
1.0
141
50.0
290
     0
  0
SCALE
  5
39D
102
{ACAD_REACTORS
330
391
102
}
330
391
100
AcDbScale
 70
     0
300
1:100
140
1.0
141
100.0
290
     0
  0
SCALE
  5
39E
102
{ACAD_REACTORS
330
391
102
}
330
391
100
AcDbScale
 70
     0
300
2:1
140
2.0
141
1.0
290
     0
  0
SCALE
  5
39F
102
{ACAD_REACTORS
330
391
102
}
330
391
100
AcDbScale
 70
     0
300
4:1
140
4.0
141
1.0
290
     0
  0
SCALE
  5
3A0
102
{ACAD_REACTORS
330
391
102
}
330
391
100
AcDbScale
 70
     0
300
8:1
140
8.0
141
1.0
290
     0
  0
SCALE
  5
3A1
102
{ACAD_REACTORS
330
391
102
}
330
391
100
AcDbScale
 70
     0
300
10:1
140
10.0
141
1.0
290
     0
  0
SCALE
  5
3A2
102
{ACAD_REACTORS
330
391
102
}
330
391
100
AcDbScale
 70
     0
300
100:1
140
100.0
141
1.0
290
     0
  0
SCALE
  5
3A3
102
{ACAD_REACTORS
330
391
102
}
330
391
100
AcDbScale
 70
     0
300
1/128" = 1'-0"
140
0.0078125
141
12.0
290
     0
  0
SCALE
  5
3A4
102
{ACAD_REACTORS
330
391
102
}
330
391
100
AcDbScale
 70
     0
300
1/64" = 1'-0"
140
0.015625
141
12.0
290
     0
  0
SCALE
  5
3A5
102
{ACAD_REACTORS
330
391
102
}
330
391
100
AcDbScale
 70
     0
300
1/32" = 1'-0"
140
0.03125
141
12.0
290
     0
  0
SCALE
  5
3A6
102
{ACAD_REACTORS
330
391
102
}
330
391
100
AcDbScale
 70
     0
300
1/16" = 1'-0"
140
0.0625
141
12.0
290
     0
  0
SCALE
  5
3A7
102
{ACAD_REACTORS
330
391
102
}
330
391
100
AcDbScale
 70
     0
300
3/32" = 1'-0"
140
0.09375
141
12.0
290
     0
  0
SCALE
  5
3A8
102
{ACAD_REACTORS
330
391
102
}
330
391
100
AcDbScale
 70
     0
300
1/8" = 1'-0"
140
0.125
141
12.0
290
     0
  0
SCALE
  5
3A9
102
{ACAD_REACTORS
330
391
102
}
330
391
100
AcDbScale
 70
     0
300
3/16" = 1'-0"
140
0.1875
141
12.0
290
     0
  0
SCALE
  5
3AA
102
{ACAD_REACTORS
330
391
102
}
330
391
100
AcDbScale
 70
     0
300
1/4" = 1'-0"
140
0.25
141
12.0
290
     0
  0
SCALE
  5
3AB
102
{ACAD_REACTORS
330
391
102
}
330
391
100
AcDbScale
 70
     0
300
3/8" = 1'-0"
140
0.375
141
12.0
290
     0
  0
SCALE
  5
3AC
102
{ACAD_REACTORS
330
391
102
}
330
391
100
AcDbScale
 70
     0
300
1/2" = 1'-0"
140
0.5
141
12.0
290
     0
  0
SCALE
  5
3AD
102
{ACAD_REACTORS
330
391
102
}
330
391
100
AcDbScale
 70
     0
300
3/4" = 1'-0"
140
0.75
141
12.0
290
     0
  0
SCALE
  5
3AE
102
{ACAD_REACTORS
330
391
102
}
330
391
100
AcDbScale
 70
     0
300
1" = 1'-0"
140
1.0
141
12.0
290
     0
  0
SCALE
  5
3AF
102
{ACAD_REACTORS
330
391
102
}
330
391
100
AcDbScale
 70
     0
300
1-1/2" = 1'-0"
140
1.5
141
12.0
290
     0
  0
SCALE
  5
3B0
102
{ACAD_REACTORS
330
391
102
}
330
391
100
AcDbScale
 70
     0
300
3" = 1'-0"
140
3.0
141
12.0
290
     0
  0
SCALE
  5
3B1
102
{ACAD_REACTORS
330
391
102
}
330
391
100
AcDbScale
 70
     0
300
6" = 1'-0"
140
6.0
141
12.0
290
     0
  0
SCALE
  5
3B2
102
{ACAD_REACTORS
330
391
102
}
330
391
100
AcDbScale
 70
     0
300
1'-0" = 1'-0"
140
12.0
141
12.0
290
     0
  0
VISUALSTYLE
  5
2F
102
{ACAD_REACTORS
330
2A
102
}
102
{ACAD_XDICTIONARY
360
ABF
102
}
330
2A
100
AcDbVisualStyle
  2
2dWireframe
 70
     4
 71
     0
 72
     2
 73
     0
 90
        0
 40
-0.6
 41
-30.0
 62
     5
 63
     7
 74
     1
 91
        4
 64
     7
 65
   257
 75
     1
175
     1
 42
1.0
 92
        0
 66
   257
 43
1.0
 76
     1
 77
     6
 78
     2
 67
     7
 79
     5
170
     0
171
     0
290
     0
174
     0
 93
        1
 44
0.0
173
     0
291
     0
 45
0.0
1001
ACAD
1000
AcDbSavedByObjectVersion
1070
     0
  0
VISUALSTYLE
  5
31
102
{ACAD_REACTORS
330
2A
102
}
102
{ACAD_XDICTIONARY
360
AC3
102
}
330
2A
100
AcDbVisualStyle
  2
3D Hidden
 70
     6
 71
     1
 72
     2
 73
     2
 90
        0
 40
-0.6
 41
-30.0
 62
     5
 63
     7
 74
     2
 91
        2
 64
     7
 65
   257
 75
     2
175
     1
 42
40.0
 92
        0
 66
   257
 43
1.0
 76
     1
 77
     6
 78
     2
 67
     7
 79
     3
170
     0
171
     0
290
     0
174
     0
 93
        1
 44
0.0
173
     0
291
     0
 45
0.0
1001
ACAD
1000
AcDbSavedByObjectVersion
1070
     0
  0
VISUALSTYLE
  5
30
102
{ACAD_REACTORS
330
2A
102
}
102
{ACAD_XDICTIONARY
360
AC1
102
}
330
2A
100
AcDbVisualStyle
  2
3dWireframe
 70
     5
 71
     0
 72
     2
 73
     0
 90
        0
 40
-0.6
 41
-30.0
 62
     5
 63
     7
 74
     1
 91
        4
 64
     7
 65
   257
 75
     1
175
     1
 42
1.0
 92
        0
 66
   257
 43
1.0
 76
     1
 77
     6
 78
     2
 67
     7
 79
     5
170
     0
171
     0
290
     0
174
     0
 93
        1
 44
0.0
173
     0
291
     0
 45
0.0
1001
ACAD
1000
AcDbSavedByObjectVersion
1070
     0
  0
VISUALSTYLE
  5
32
102
{ACAD_REACTORS
330
2A
102
}
102
{ACAD_XDICTIONARY
360
AC5
102
}
330
2A
100
AcDbVisualStyle
  2
Basic
 70
     7
 71
     1
 72
     0
 73
     1
 90
        0
 40
-0.6
 41
-30.0
 62
     5
 63
     7
 74
     0
 91
        4
 64
     7
 65
   257
 75
     1
175
     1
 42
1.0
 92
        8
 66
     7
 43
1.0
 76
     1
 77
     6
 78
     2
 67
     7
 79
     5
170
     0
171
     0
290
     0
174
     0
 93
        1
 44
0.0
173
     0
291
     1
 45
0.0
1001
ACAD
1000
AcDbSavedByObjectVersion
1070
     0
  0
VISUALSTYLE
  5
36
102
{ACAD_REACTORS
330
2A
102
}
102
{ACAD_XDICTIONARY
360
ACD
102
}
330
2A
100
AcDbVisualStyle
  2
Brighten
 70
    12
 71
     2
 72
     2
 73
     0
 90
        0
 40
-0.6
 41
-30.0
 62
     5
 63
     7
 74
     1
 91
        4
 64
     7
 65
   257
 75
     1
175
     1
 42
1.0
 92
        8
 66
     7
 43
1.0
 76
     1
 77
     6
 78
     2
 67
     7
 79
     5
170
     0
171
     0
290
     0
174
     0
 93
        1
 44
50.0
173
     0
291
     1
 45
0.0
1001
ACAD
1000
AcDbSavedByObjectVersion
1070
     0
  0
VISUALSTYLE
  5
3A
102
{ACAD_REACTORS
330
2A
102
}
102
{ACAD_XDICTIONARY
360
AD5
102
}
330
2A
100
AcDbVisualStyle
  2
ColorChange
 70
    16
 71
     2
 72
     2
 73
     3
 90
        0
 40
-0.6
 41
-30.0
 62
     5
 63
     8
 74
     1
 91
        4
 64
     7
 65
   257
 75
     1
175
     1
 42
1.0
 92
        8
 66
     8
 43
1.0
 76
     1
 77
     6
 78
     2
 67
     7
 79
     5
170
     0
171
     0
290
     0
174
     0
 93
        1
 44
0.0
173
     0
291
     1
 45
0.0
1001
ACAD
1000
AcDbSavedByObjectVersion
1070
     0
  0
VISUALSTYLE
  5
34
102
{ACAD_REACTORS
330
2A
102
}
102
{ACAD_XDICTIONARY
360
AC9
102
}
330
2A
100
AcDbVisualStyle
  2
Conceptual
 70
     9
 71
     3
 72
     2
 73
     0
 90
        0
 40
-0.6
 41
-30.0
 62
     5
 63
     7
 74
     2
 91
        2
 64
     7
 65
   257
 75
     1
175
     1
 42
40.0
 92
        8
 66
     7
 43
1.0
 76
     1
 77
     6
 78
     2
 67
     7
 79
     3
170
     0
171
     0
290
     0
174
     0
 93
        1
 44
0.0
173
     0
291
     0
 45
0.0
1001
ACAD
1000
AcDbSavedByObjectVersion
1070
     0
  0
VISUALSTYLE
  5
35
102
{ACAD_REACTORS
330
2A
102
}
102
{ACAD_XDICTIONARY
360
ACB
102
}
330
2A
100
AcDbVisualStyle
  2
Dim
 70
    11
 71
     2
 72
     2
 73
     0
 90
        0
 40
-0.6
 41
-30.0
 62
     5
 63
     7
 74
     1
 91
        4
 64
     7
 65
   257
 75
     1
175
     1
 42
1.0
 92
        8
 66
     7
 43
1.0
 76
     1
 77
     6
 78
     2
 67
     7
 79
     5
170
     0
171
     0
290
     0
174
     0
 93
        1
 44
-50.0
173
     0
291
     1
 45
0.0
1001
ACAD
1000
AcDbSavedByObjectVersion
1070
     0
  0
VISUALSTYLE
  5
39
102
{ACAD_REACTORS
330
2A
102
}
102
{ACAD_XDICTIONARY
360
AD3
102
}
330
2A
100
AcDbVisualStyle
  2
Facepattern
 70
    15
 71
     2
 72
     2
 73
     0
 90
        0
 40
-0.6
 41
-30.0
 62
     5
 63
     7
 74
     1
 91
        4
 64
     7
 65
   257
 75
     1
175
     1
 42
1.0
 92
        8
 66
     7
 43
1.0
 76
     1
 77
     6
 78
     2
 67
     7
 79
     5
170
     0
171
     0
290
     0
174
     0
 93
        1
 44
0.0
173
     0
291
     1
 45
0.0
1001
ACAD
1000
AcDbSavedByObjectVersion
1070
     0
  0
VISUALSTYLE
  5
2B
102
{ACAD_REACTORS
330
2A
102
}
102
{ACAD_XDICTIONARY
360
AB7
102
}
330
2A
100
AcDbVisualStyle
  2
Flat
 70
     0
 71
     2
 72
     1
 73
     1
 90
        2
 40
-0.6
 41
30.0
 62
     5
 63
     7
 74
     0
 91
        4
 64
     7
 65
   257
 75
     1
175
     1
 42
1.0
 92
        8
 66
     7
 43
1.0
 76
     1
 77
     6
 78
     2
 67
     7
 79
     5
170
     0
171
     0
290
     0
174
     0
 93
       13
 44
0.0
173
     0
291
     1
 45
0.0
1001
ACAD
1000
AcDbSavedByObjectVersion
1070
     0
  0
VISUALSTYLE
  5
2C
102
{ACAD_REACTORS
330
2A
102
}
102
{ACAD_XDICTIONARY
360
AB9
102
}
330
2A
100
AcDbVisualStyle
  2
FlatWithEdges
 70
     1
 71
     2
 72
     1
 73
     1
 90
        2
 40
-0.6
 41
30.0
 62
     5
 63
     7
 74
     1
 91
        4
 64
     7
 65
   257
 75
     1
175
     1
 42
1.0
 92
        0
 66
   257
 43
1.0
 76
     1
 77
     6
 78
     2
 67
     7
 79
     5
170
     0
171
     0
290
     0
174
     0
 93
       13
 44
0.0
173
     0
291
     1
 45
0.0
1001
ACAD
1000
AcDbSavedByObjectVersion
1070
     0
  0
VISUALSTYLE
  5
2D
102
{ACAD_REACTORS
330
2A
102
}
102
{ACAD_XDICTIONARY
360
ABB
102
}
330
2A
100
AcDbVisualStyle
  2
Gouraud
 70
     2
 71
     2
 72
     2
 73
     1
 90
        2
 40
-0.6
 41
30.0
 62
     5
 63
     7
 74
     0
 91
        4
 64
     7
 65
   257
 75
     1
175
     1
 42
1.0
 92
        0
 66
     7
 43
1.0
 76
     1
 77
     6
 78
     2
 67
     7
 79
     5
170
     0
171
     0
290
     0
174
     0
 93
       13
 44
0.0
173
     0
291
     1
 45
0.0
1001
ACAD
1000
AcDbSavedByObjectVersion
1070
     0
  0
VISUALSTYLE
  5
2E
102
{ACAD_REACTORS
330
2A
102
}
102
{ACAD_XDICTIONARY
360
ABD
102
}
330
2A
100
AcDbVisualStyle
  2
GouraudWithEdges
 70
     3
 71
     2
 72
     2
 73
     1
 90
        2
 40
-0.6
 41
30.0
 62
     5
 63
     7
 74
     1
 91
        4
 64
     7
 65
   257
 75
     1
175
     1
 42
1.0
 92
        0
 66
   257
 43
1.0
 76
     1
 77
     6
 78
     2
 67
     7
 79
     5
170
     0
171
     0
290
     0
174
     0
 93
       13
 44
0.0
173
     0
291
     1
 45
0.0
1001
ACAD
1000
AcDbSavedByObjectVersion
1070
     0
  0
VISUALSTYLE
  5
38
102
{ACAD_REACTORS
330
2A
102
}
102
{ACAD_XDICTIONARY
360
AD1
102
}
330
2A
100
AcDbVisualStyle
  2
Linepattern
 70
    14
 71
     2
 72
     2
 73
     0
 90
        0
 40
-0.6
 41
-30.0
 62
     5
 63
     7
 74
     1
 91
        4
 64
     7
 65
   257
 75
     7
175
     7
 42
1.0
 92
        8
 66
     7
 43
1.0
 76
     1
 77
     6
 78
     2
 67
     7
 79
     5
170
     0
171
     0
290
     0
174
     0
 93
        1
 44
0.0
173
     0
291
     1
 45
0.0
1001
ACAD
1000
AcDbSavedByObjectVersion
1070
     0
  0
VISUALSTYLE
  5
33
102
{ACAD_REACTORS
330
2A
102
}
102
{ACAD_XDICTIONARY
360
AC7
102
}
330
2A
100
AcDbVisualStyle
  2
Realistic
 70
     8
 71
     2
 72
     2
 73
     0
 90
        0
 40
-0.6
 41
-30.0
 62
     5
 63
     7
 74
     1
 91
        0
 64
     7
 65
   257
 75
     1
175
     1
 42
1.0
 92
        8
 66
     8
 43
1.0
 76
     1
 77
     6
 78
     2
 67
     7
 79
     5
170
     0
171
     0
290
     0
174
     0
 93
       13
 44
0.0
173
     0
291
     0
 45
0.0
1001
ACAD
1000
AcDbSavedByObjectVersion
1070
     0
  0
VISUALSTYLE
  5
37
102
{ACAD_REACTORS
330
2A
102
}
102
{ACAD_XDICTIONARY
360
ACF
102
}
330
2A
100
AcDbVisualStyle
  2
Thicken
 70
    13
 71
     2
 72
     2
 73
     0
 90
        0
 40
-0.6
 41
-30.0
 62
     5
 63
     7
 74
     1
 91
        4
 64
     7
 65
   257
 75
     1
175
     1
 42
1.0
 92
       12
 66
     7
 43
1.0
 76
     1
 77
     6
 78
     2
 67
     7
 79
     5
170
     0
171
     0
290
     0
174
     0
 93
        1
 44
0.0
173
     0
291
     1
 45
0.0
1001
ACAD
1000
AcDbSavedByObjectVersion
1070
     0
  0
DICTIONARYVAR
  5
AB4
102
{ACAD_REACTORS
330
AAF
102
}
330
AAF
100
DictionaryVariables
280
     0
  1
1:1
  0
DICTIONARYVAR
  5
AB5
102
{ACAD_REACTORS
330
AAF
102
}
330
AAF
100
DictionaryVariables
280
     0
  1
2
  0
DICTIONARYVAR
  5
AB6
102
{ACAD_REACTORS
330
AAF
102
}
330
AAF
100
DictionaryVariables
280
     0
  1
1
  0
DICTIONARYVAR
  5
AB3
102
{ACAD_REACTORS
330
AAF
102
}
330
AAF
100
DictionaryVariables
280
     0
  1
80.000000
  0
DICTIONARYVAR
  5
AB2
102
{ACAD_REACTORS
330
AAF
102
}
330
AAF
100
DictionaryVariables
280
     0
  1
5.000000
  0
DICTIONARY
  5
AD9
330
3D
100
AcDbDictionary
280
     1
281
     1
  3
ACAD_XREC_ROUNDTRIP
360
ADA
  0
DICTIONARY
  5
AD7
330
3C
100
AcDbDictionary
280
     1
281
     1
  3
ACAD_XREC_ROUNDTRIP
360
AD8
  0
DICTIONARY
  5
ADB
330
3E
100
AcDbDictionary
280
     1
281
     1
  3
ACAD_XREC_ROUNDTRIP
360
ADC
  0
DICTIONARY
  5
ABF
330
2F
100
AcDbDictionary
280
     1
281
     1
  3
ACAD_XREC_ROUNDTRIP
360
AC0
  0
DICTIONARY
  5
AC3
330
31
100
AcDbDictionary
280
     1
281
     1
  3
ACAD_XREC_ROUNDTRIP
360
AC4
  0
DICTIONARY
  5
AC1
330
30
100
AcDbDictionary
280
     1
281
     1
  3
ACAD_XREC_ROUNDTRIP
360
AC2
  0
DICTIONARY
  5
AC5
330
32
100
AcDbDictionary
280
     1
281
     1
  3
ACAD_XREC_ROUNDTRIP
360
AC6
  0
DICTIONARY
  5
ACD
330
36
100
AcDbDictionary
280
     1
281
     1
  3
ACAD_XREC_ROUNDTRIP
360
ACE
  0
DICTIONARY
  5
AD5
330
3A
100
AcDbDictionary
280
     1
281
     1
  3
ACAD_XREC_ROUNDTRIP
360
AD6
  0
DICTIONARY
  5
AC9
330
34
100
AcDbDictionary
280
     1
281
     1
  3
ACAD_XREC_ROUNDTRIP
360
ACA
  0
DICTIONARY
  5
ACB
330
35
100
AcDbDictionary
280
     1
281
     1
  3
ACAD_XREC_ROUNDTRIP
360
ACC
  0
DICTIONARY
  5
AD3
330
39
100
AcDbDictionary
280
     1
281
     1
  3
ACAD_XREC_ROUNDTRIP
360
AD4
  0
DICTIONARY
  5
AB7
330
2B
100
AcDbDictionary
280
     1
281
     1
  3
ACAD_XREC_ROUNDTRIP
360
AB8
  0
DICTIONARY
  5
AB9
330
2C
100
AcDbDictionary
280
     1
281
     1
  3
ACAD_XREC_ROUNDTRIP
360
ABA
  0
DICTIONARY
  5
ABB
330
2D
100
AcDbDictionary
280
     1
281
     1
  3
ACAD_XREC_ROUNDTRIP
360
ABC
  0
DICTIONARY
  5
ABD
330
2E
100
AcDbDictionary
280
     1
281
     1
  3
ACAD_XREC_ROUNDTRIP
360
ABE
  0
DICTIONARY
  5
AD1
330
38
100
AcDbDictionary
280
     1
281
     1
  3
ACAD_XREC_ROUNDTRIP
360
AD2
  0
DICTIONARY
  5
AC7
330
33
100
AcDbDictionary
280
     1
281
     1
  3
ACAD_XREC_ROUNDTRIP
360
AC8
  0
DICTIONARY
  5
ACF
330
37
100
AcDbDictionary
280
     1
281
     1
  3
ACAD_XREC_ROUNDTRIP
360
AD0
  0
XRECORD
  5
ADA
102
{ACAD_REACTORS
330
AD9
102
}
330
AD9
100
AcDbXrecord
280
     1
102
MATERIAL
148
0.0
149
0.0
149
0.0
 93
        0
 94
      127
282
     0
 72
     1
 77
     1
171
     1
175
     1
179
     1
273
     0
  0
XRECORD
  5
AD8
102
{ACAD_REACTORS
330
AD7
102
}
330
AD7
100
AcDbXrecord
280
     1
102
MATERIAL
148
0.0
149
0.0
149
0.0
 93
        0
 94
      127
282
     0
 72
     1
 77
     1
171
     1
175
     1
179
     1
273
     0
  0
XRECORD
  5
ADC
102
{ACAD_REACTORS
330
ADB
102
}
330
ADB
100
AcDbXrecord
280
     1
102
MATERIAL
148
0.0
149
0.0
149
0.0
 93
        0
 94
      127
282
     0
 72
     1
 77
     1
171
     1
175
     1
179
     1
273
     0
  0
XRECORD
  5
AC0
102
{ACAD_REACTORS
330
ABF
102
}
330
ABF
100
AcDbXrecord
280
     1
102
RTVSPropertyOp0
 70
     1
102
RTVSPropertyOp1
 70
     1
102
RTVSPropertyOp2
 70
     1
102
RTVSPropertyOp3
 70
     1
102
RTVSPropertyOp4
 70
     1
102
RTVSPropertyOp5
 70
     1
102
RTVSPropertyOp6
 70
     1
102
RTVSPropertyOp7
 70
     1
102
RTVSPropertyOp8
 70
     1
102
RTVSPropertyOp9
 70
     1
102
RTVSPropertyOp10
 70
     1
102
RTVSPropertyOp11
 70
     1
102
RTVSPropertyOp12
 70
     1
102
RTVSPropertyOp13
 70
     1
102
RTVSPropertyOp14
 70
     1
102
RTVSPropertyOp15
 70
     1
102
RTVSPropertyOp16
 70
     1
102
RTVSPropertyOp17
 70
     1
102
RTVSPropertyOp18
 70
     1
102
RTVSPropertyOp19
 70
     1
102
RTVSPropertyOp20
 70
     1
102
RTVSPropertyOp21
 70
     1
102
RTVSPropertyOp22
 70
     1
102
RTVSPropertyOp23
 70
     1
102
RTVSPropertyOp24
 70
     1
102
RTVSPropertyOp25
 70
     1
102
RTVSPropertyOp26
 70
     1
102
RTVSPropertyOp27
 70
     1
  0
XRECORD
  5
AC4
102
{ACAD_REACTORS
330
AC3
102
}
330
AC3
100
AcDbXrecord
280
     1
102
RTVSPropertyOp0
 70
     1
102
RTVSPropertyOp1
 70
     1
102
RTVSPropertyOp2
 70
     1
102
RTVSPropertyOp3
 70
     1
102
RTVSPropertyOp4
 70
     1
102
RTVSPropertyOp5
 70
     1
102
RTVSPropertyOp6
 70
     1
102
RTVSPropertyOp7
 70
     1
102
RTVSPropertyOp8
 70
     1
102
RTVSPropertyOp9
 70
     1
102
RTVSPropertyOp10
 70
     1
102
RTVSPropertyOp11
 70
     1
102
RTVSPropertyOp12
 70
     1
102
RTVSPropertyOp13
 70
     1
102
RTVSPropertyOp14
 70
     1
102
RTVSPropertyOp15
 70
     1
102
RTVSPropertyOp16
 70
     1
102
RTVSPropertyOp17
 70
     1
102
RTVSPropertyOp18
 70
     1
102
RTVSPropertyOp19
 70
     1
102
RTVSPropertyOp20
 70
     1
102
RTVSPropertyOp21
 70
     1
102
RTVSPropertyOp22
 70
     1
102
RTVSPropertyOp23
 70
     1
102
RTVSPropertyOp24
 70
     1
102
RTVSPropertyOp25
 70
     1
102
RTVSPropertyOp26
 70
     1
102
RTVSPropertyOp27
 70
     1
  0
XRECORD
  5
AC2
102
{ACAD_REACTORS
330
AC1
102
}
330
AC1
100
AcDbXrecord
280
     1
102
RTVSPropertyOp0
 70
     1
102
RTVSPropertyOp1
 70
     1
102
RTVSPropertyOp2
 70
     1
102
RTVSPropertyOp3
 70
     1
102
RTVSPropertyOp4
 70
     1
102
RTVSPropertyOp5
 70
     1
102
RTVSPropertyOp6
 70
     1
102
RTVSPropertyOp7
 70
     1
102
RTVSPropertyOp8
 70
     1
102
RTVSPropertyOp9
 70
     1
102
RTVSPropertyOp10
 70
     1
102
RTVSPropertyOp11
 70
     1
102
RTVSPropertyOp12
 70
     1
102
RTVSPropertyOp13
 70
     1
102
RTVSPropertyOp14
 70
     1
102
RTVSPropertyOp15
 70
     1
102
RTVSPropertyOp16
 70
     1
102
RTVSPropertyOp17
 70
     1
102
RTVSPropertyOp18
 70
     1
102
RTVSPropertyOp19
 70
     1
102
RTVSPropertyOp20
 70
     1
102
RTVSPropertyOp21
 70
     1
102
RTVSPropertyOp22
 70
     1
102
RTVSPropertyOp23
 70
     1
102
RTVSPropertyOp24
 70
     1
102
RTVSPropertyOp25
 70
     1
102
RTVSPropertyOp26
 70
     1
102
RTVSPropertyOp27
 70
     1
  0
XRECORD
  5
AC6
102
{ACAD_REACTORS
330
AC5
102
}
330
AC5
100
AcDbXrecord
280
     1
102
RTVSPropertyOp0
 70
     1
102
RTVSPropertyOp1
 70
     1
102
RTVSPropertyOp2
 70
     1
102
RTVSPropertyOp3
 70
     1
102
RTVSPropertyOp4
 70
     1
102
RTVSPropertyOp5
 70
     1
102
RTVSPropertyOp6
 70
     1
102
RTVSPropertyOp7
 70
     1
102
RTVSPropertyOp8
 70
     1
102
RTVSPropertyOp9
 70
     1
102
RTVSPropertyOp10
 70
     1
102
RTVSPropertyOp11
 70
     1
102
RTVSPropertyOp12
 70
     1
102
RTVSPropertyOp13
 70
     1
102
RTVSPropertyOp14
 70
     1
102
RTVSPropertyOp15
 70
     1
102
RTVSPropertyOp16
 70
     1
102
RTVSPropertyOp17
 70
     1
102
RTVSPropertyOp18
 70
     1
102
RTVSPropertyOp19
 70
     1
102
RTVSPropertyOp20
 70
     1
102
RTVSPropertyOp21
 70
     1
102
RTVSPropertyOp22
 70
     1
102
RTVSPropertyOp23
 70
     1
102
RTVSPropertyOp24
 70
     1
102
RTVSPropertyOp25
 70
     1
102
RTVSPropertyOp26
 70
     1
102
RTVSPropertyOp27
 70
     1
  0
XRECORD
  5
ACE
102
{ACAD_REACTORS
330
ACD
102
}
330
ACD
100
AcDbXrecord
280
     1
102
RTVSPropertyOp0
 70
     1
102
RTVSPropertyOp1
 70
     1
102
RTVSPropertyOp2
 70
     1
102
RTVSPropertyOp3
 70
     1
102
RTVSPropertyOp4
 70
     1
102
RTVSPropertyOp5
 70
     1
102
RTVSPropertyOp6
 70
     1
102
RTVSPropertyOp7
 70
     1
102
RTVSPropertyOp8
 70
     1
102
RTVSPropertyOp9
 70
     1
102
RTVSPropertyOp10
 70
     1
102
RTVSPropertyOp11
 70
     1
102
RTVSPropertyOp12
 70
     1
102
RTVSPropertyOp13
 70
     1
102
RTVSPropertyOp14
 70
     1
102
RTVSPropertyOp15
 70
     1
102
RTVSPropertyOp16
 70
     1
102
RTVSPropertyOp17
 70
     1
102
RTVSPropertyOp18
 70
     1
102
RTVSPropertyOp19
 70
     1
102
RTVSPropertyOp20
 70
     1
102
RTVSPropertyOp21
 70
     1
102
RTVSPropertyOp22
 70
     1
102
RTVSPropertyOp23
 70
     1
102
RTVSPropertyOp24
 70
     1
102
RTVSPropertyOp25
 70
     1
102
RTVSPropertyOp26
 70
     1
102
RTVSPropertyOp27
 70
     1
  0
XRECORD
  5
AD6
102
{ACAD_REACTORS
330
AD5
102
}
330
AD5
100
AcDbXrecord
280
     1
102
RTVSPropertyOp0
 70
     1
102
RTVSPropertyOp1
 70
     1
102
RTVSPropertyOp2
 70
     1
102
RTVSPropertyOp3
 70
     1
102
RTVSPropertyOp4
 70
     1
102
RTVSPropertyOp5
 70
     1
102
RTVSPropertyOp6
 70
     1
102
RTVSPropertyOp7
 70
     1
102
RTVSPropertyOp8
 70
     1
102
RTVSPropertyOp9
 70
     1
102
RTVSPropertyOp10
 70
     1
102
RTVSPropertyOp11
 70
     1
102
RTVSPropertyOp12
 70
     1
102
RTVSPropertyOp13
 70
     1
102
RTVSPropertyOp14
 70
     1
102
RTVSPropertyOp15
 70
     1
102
RTVSPropertyOp16
 70
     1
102
RTVSPropertyOp17
 70
     1
102
RTVSPropertyOp18
 70
     1
102
RTVSPropertyOp19
 70
     1
102
RTVSPropertyOp20
 70
     1
102
RTVSPropertyOp21
 70
     1
102
RTVSPropertyOp22
 70
     1
102
RTVSPropertyOp23
 70
     1
102
RTVSPropertyOp24
 70
     1
102
RTVSPropertyOp25
 70
     1
102
RTVSPropertyOp26
 70
     1
102
RTVSPropertyOp27
 70
     1
  0
XRECORD
  5
ACA
102
{ACAD_REACTORS
330
AC9
102
}
330
AC9
100
AcDbXrecord
280
     1
102
RTVSPropertyOp0
 70
     1
102
RTVSPropertyOp1
 70
     1
102
RTVSPropertyOp2
 70
     1
102
RTVSPropertyOp3
 70
     1
102
RTVSPropertyOp4
 70
     1
102
RTVSPropertyOp5
 70
     1
102
RTVSPropertyOp6
 70
     1
102
RTVSPropertyOp7
 70
     1
102
RTVSPropertyOp8
 70
     1
102
RTVSPropertyOp9
 70
     1
102
RTVSPropertyOp10
 70
     1
102
RTVSPropertyOp11
 70
     1
102
RTVSPropertyOp12
 70
     1
102
RTVSPropertyOp13
 70
     1
102
RTVSPropertyOp14
 70
     1
102
RTVSPropertyOp15
 70
     1
102
RTVSPropertyOp16
 70
     1
102
RTVSPropertyOp17
 70
     1
102
RTVSPropertyOp18
 70
     1
102
RTVSPropertyOp19
 70
     1
102
RTVSPropertyOp20
 70
     1
102
RTVSPropertyOp21
 70
     1
102
RTVSPropertyOp22
 70
     1
102
RTVSPropertyOp23
 70
     1
102
RTVSPropertyOp24
 70
     1
102
RTVSPropertyOp25
 70
     1
102
RTVSPropertyOp26
 70
     1
102
RTVSPropertyOp27
 70
     1
  0
XRECORD
  5
ACC
102
{ACAD_REACTORS
330
ACB
102
}
330
ACB
100
AcDbXrecord
280
     1
102
RTVSPropertyOp0
 70
     1
102
RTVSPropertyOp1
 70
     1
102
RTVSPropertyOp2
 70
     1
102
RTVSPropertyOp3
 70
     1
102
RTVSPropertyOp4
 70
     1
102
RTVSPropertyOp5
 70
     1
102
RTVSPropertyOp6
 70
     1
102
RTVSPropertyOp7
 70
     1
102
RTVSPropertyOp8
 70
     1
102
RTVSPropertyOp9
 70
     1
102
RTVSPropertyOp10
 70
     1
102
RTVSPropertyOp11
 70
     1
102
RTVSPropertyOp12
 70
     1
102
RTVSPropertyOp13
 70
     1
102
RTVSPropertyOp14
 70
     1
102
RTVSPropertyOp15
 70
     1
102
RTVSPropertyOp16
 70
     1
102
RTVSPropertyOp17
 70
     1
102
RTVSPropertyOp18
 70
     1
102
RTVSPropertyOp19
 70
     1
102
RTVSPropertyOp20
 70
     1
102
RTVSPropertyOp21
 70
     1
102
RTVSPropertyOp22
 70
     1
102
RTVSPropertyOp23
 70
     1
102
RTVSPropertyOp24
 70
     1
102
RTVSPropertyOp25
 70
     1
102
RTVSPropertyOp26
 70
     1
102
RTVSPropertyOp27
 70
     1
  0
XRECORD
  5
AD4
102
{ACAD_REACTORS
330
AD3
102
}
330
AD3
100
AcDbXrecord
280
     1
102
RTVSPropertyOp0
 70
     1
102
RTVSPropertyOp1
 70
     1
102
RTVSPropertyOp2
 70
     1
102
RTVSPropertyOp3
 70
     1
102
RTVSPropertyOp4
 70
     1
102
RTVSPropertyOp5
 70
     1
102
RTVSPropertyOp6
 70
     1
102
RTVSPropertyOp7
 70
     1
102
RTVSPropertyOp8
 70
     1
102
RTVSPropertyOp9
 70
     1
102
RTVSPropertyOp10
 70
     1
102
RTVSPropertyOp11
 70
     1
102
RTVSPropertyOp12
 70
     1
102
RTVSPropertyOp13
 70
     1
102
RTVSPropertyOp14
 70
     1
102
RTVSPropertyOp15
 70
     1
102
RTVSPropertyOp16
 70
     1
102
RTVSPropertyOp17
 70
     1
102
RTVSPropertyOp18
 70
     1
102
RTVSPropertyOp19
 70
     1
102
RTVSPropertyOp20
 70
     1
102
RTVSPropertyOp21
 70
     1
102
RTVSPropertyOp22
 70
     1
102
RTVSPropertyOp23
 70
     1
102
RTVSPropertyOp24
 70
     1
102
RTVSPropertyOp25
 70
     1
102
RTVSPropertyOp26
 70
     1
102
RTVSPropertyOp27
 70
     1
  0
XRECORD
  5
AB8
102
{ACAD_REACTORS
330
AB7
102
}
330
AB7
100
AcDbXrecord
280
     1
102
RTVSPropertyOp0
 70
     1
102
RTVSPropertyOp1
 70
     1
102
RTVSPropertyOp2
 70
     1
102
RTVSPropertyOp3
 70
     1
102
RTVSPropertyOp4
 70
     1
102
RTVSPropertyOp5
 70
     1
102
RTVSPropertyOp6
 70
     1
102
RTVSPropertyOp7
 70
     1
102
RTVSPropertyOp8
 70
     1
102
RTVSPropertyOp9
 70
     1
102
RTVSPropertyOp10
 70
     1
102
RTVSPropertyOp11
 70
     1
102
RTVSPropertyOp12
 70
     1
102
RTVSPropertyOp13
 70
     1
102
RTVSPropertyOp14
 70
     1
102
RTVSPropertyOp15
 70
     1
102
RTVSPropertyOp16
 70
     1
102
RTVSPropertyOp17
 70
     1
102
RTVSPropertyOp18
 70
     1
102
RTVSPropertyOp19
 70
     1
102
RTVSPropertyOp20
 70
     1
102
RTVSPropertyOp21
 70
     1
102
RTVSPropertyOp22
 70
     1
102
RTVSPropertyOp23
 70
     1
102
RTVSPropertyOp24
 70
     1
102
RTVSPropertyOp25
 70
     1
102
RTVSPropertyOp26
 70
     1
102
RTVSPropertyOp27
 70
     1
  0
XRECORD
  5
ABA
102
{ACAD_REACTORS
330
AB9
102
}
330
AB9
100
AcDbXrecord
280
     1
102
RTVSPropertyOp0
 70
     1
102
RTVSPropertyOp1
 70
     1
102
RTVSPropertyOp2
 70
     1
102
RTVSPropertyOp3
 70
     1
102
RTVSPropertyOp4
 70
     1
102
RTVSPropertyOp5
 70
     1
102
RTVSPropertyOp6
 70
     1
102
RTVSPropertyOp7
 70
     1
102
RTVSPropertyOp8
 70
     1
102
RTVSPropertyOp9
 70
     1
102
RTVSPropertyOp10
 70
     1
102
RTVSPropertyOp11
 70
     1
102
RTVSPropertyOp12
 70
     1
102
RTVSPropertyOp13
 70
     1
102
RTVSPropertyOp14
 70
     1
102
RTVSPropertyOp15
 70
     1
102
RTVSPropertyOp16
 70
     1
102
RTVSPropertyOp17
 70
     1
102
RTVSPropertyOp18
 70
     1
102
RTVSPropertyOp19
 70
     1
102
RTVSPropertyOp20
 70
     1
102
RTVSPropertyOp21
 70
     1
102
RTVSPropertyOp22
 70
     1
102
RTVSPropertyOp23
 70
     1
102
RTVSPropertyOp24
 70
     1
102
RTVSPropertyOp25
 70
     1
102
RTVSPropertyOp26
 70
     1
102
RTVSPropertyOp27
 70
     1
  0
XRECORD
  5
ABC
102
{ACAD_REACTORS
330
ABB
102
}
330
ABB
100
AcDbXrecord
280
     1
102
RTVSPropertyOp0
 70
     1
102
RTVSPropertyOp1
 70
     1
102
RTVSPropertyOp2
 70
     1
102
RTVSPropertyOp3
 70
     1
102
RTVSPropertyOp4
 70
     1
102
RTVSPropertyOp5
 70
     1
102
RTVSPropertyOp6
 70
     1
102
RTVSPropertyOp7
 70
     1
102
RTVSPropertyOp8
 70
     1
102
RTVSPropertyOp9
 70
     1
102
RTVSPropertyOp10
 70
     1
102
RTVSPropertyOp11
 70
     1
102
RTVSPropertyOp12
 70
     1
102
RTVSPropertyOp13
 70
     1
102
RTVSPropertyOp14
 70
     1
102
RTVSPropertyOp15
 70
     1
102
RTVSPropertyOp16
 70
     1
102
RTVSPropertyOp17
 70
     1
102
RTVSPropertyOp18
 70
     1
102
RTVSPropertyOp19
 70
     1
102
RTVSPropertyOp20
 70
     1
102
RTVSPropertyOp21
 70
     1
102
RTVSPropertyOp22
 70
     1
102
RTVSPropertyOp23
 70
     1
102
RTVSPropertyOp24
 70
     1
102
RTVSPropertyOp25
 70
     1
102
RTVSPropertyOp26
 70
     1
102
RTVSPropertyOp27
 70
     1
  0
XRECORD
  5
ABE
102
{ACAD_REACTORS
330
ABD
102
}
330
ABD
100
AcDbXrecord
280
     1
102
RTVSPropertyOp0
 70
     1
102
RTVSPropertyOp1
 70
     1
102
RTVSPropertyOp2
 70
     1
102
RTVSPropertyOp3
 70
     1
102
RTVSPropertyOp4
 70
     1
102
RTVSPropertyOp5
 70
     1
102
RTVSPropertyOp6
 70
     1
102
RTVSPropertyOp7
 70
     1
102
RTVSPropertyOp8
 70
     1
102
RTVSPropertyOp9
 70
     1
102
RTVSPropertyOp10
 70
     1
102
RTVSPropertyOp11
 70
     1
102
RTVSPropertyOp12
 70
     1
102
RTVSPropertyOp13
 70
     1
102
RTVSPropertyOp14
 70
     1
102
RTVSPropertyOp15
 70
     1
102
RTVSPropertyOp16
 70
     1
102
RTVSPropertyOp17
 70
     1
102
RTVSPropertyOp18
 70
     1
102
RTVSPropertyOp19
 70
     1
102
RTVSPropertyOp20
 70
     1
102
RTVSPropertyOp21
 70
     1
102
RTVSPropertyOp22
 70
     1
102
RTVSPropertyOp23
 70
     1
102
RTVSPropertyOp24
 70
     1
102
RTVSPropertyOp25
 70
     1
102
RTVSPropertyOp26
 70
     1
102
RTVSPropertyOp27
 70
     1
  0
XRECORD
  5
AD2
102
{ACAD_REACTORS
330
AD1
102
}
330
AD1
100
AcDbXrecord
280
     1
102
RTVSPropertyOp0
 70
     1
102
RTVSPropertyOp1
 70
     1
102
RTVSPropertyOp2
 70
     1
102
RTVSPropertyOp3
 70
     1
102
RTVSPropertyOp4
 70
     1
102
RTVSPropertyOp5
 70
     1
102
RTVSPropertyOp6
 70
     1
102
RTVSPropertyOp7
 70
     1
102
RTVSPropertyOp8
 70
     1
102
RTVSPropertyOp9
 70
     1
102
RTVSPropertyOp10
 70
     1
102
RTVSPropertyOp11
 70
     1
102
RTVSPropertyOp12
 70
     1
102
RTVSPropertyOp13
 70
     1
102
RTVSPropertyOp14
 70
     1
102
RTVSPropertyOp15
 70
     1
102
RTVSPropertyOp16
 70
     1
102
RTVSPropertyOp17
 70
     1
102
RTVSPropertyOp18
 70
     1
102
RTVSPropertyOp19
 70
     1
102
RTVSPropertyOp20
 70
     1
102
RTVSPropertyOp21
 70
     1
102
RTVSPropertyOp22
 70
     1
102
RTVSPropertyOp23
 70
     1
102
RTVSPropertyOp24
 70
     1
102
RTVSPropertyOp25
 70
     1
102
RTVSPropertyOp26
 70
     1
102
RTVSPropertyOp27
 70
     1
  0
XRECORD
  5
AC8
102
{ACAD_REACTORS
330
AC7
102
}
330
AC7
100
AcDbXrecord
280
     1
102
RTVSPropertyOp0
 70
     1
102
RTVSPropertyOp1
 70
     1
102
RTVSPropertyOp2
 70
     1
102
RTVSPropertyOp3
 70
     1
102
RTVSPropertyOp4
 70
     1
102
RTVSPropertyOp5
 70
     1
102
RTVSPropertyOp6
 70
     1
102
RTVSPropertyOp7
 70
     1
102
RTVSPropertyOp8
 70
     1
102
RTVSPropertyOp9
 70
     1
102
RTVSPropertyOp10
 70
     1
102
RTVSPropertyOp11
 70
     1
102
RTVSPropertyOp12
 70
     1
102
RTVSPropertyOp13
 70
     1
102
RTVSPropertyOp14
 70
     1
102
RTVSPropertyOp15
 70
     1
102
RTVSPropertyOp16
 70
     1
102
RTVSPropertyOp17
 70
     1
102
RTVSPropertyOp18
 70
     1
102
RTVSPropertyOp19
 70
     1
102
RTVSPropertyOp20
 70
     1
102
RTVSPropertyOp21
 70
     1
102
RTVSPropertyOp22
 70
     1
102
RTVSPropertyOp23
 70
     1
102
RTVSPropertyOp24
 70
     1
102
RTVSPropertyOp25
 70
     1
102
RTVSPropertyOp26
 70
     1
102
RTVSPropertyOp27
 70
     1
  0
XRECORD
  5
AD0
102
{ACAD_REACTORS
330
ACF
102
}
330
ACF
100
AcDbXrecord
280
     1
102
RTVSPropertyOp0
 70
     1
102
RTVSPropertyOp1
 70
     1
102
RTVSPropertyOp2
 70
     1
102
RTVSPropertyOp3
 70
     1
102
RTVSPropertyOp4
 70
     1
102
RTVSPropertyOp5
 70
     1
102
RTVSPropertyOp6
 70
     1
102
RTVSPropertyOp7
 70
     1
102
RTVSPropertyOp8
 70
     1
102
RTVSPropertyOp9
 70
     1
102
RTVSPropertyOp10
 70
     1
102
RTVSPropertyOp11
 70
     1
102
RTVSPropertyOp12
 70
     1
102
RTVSPropertyOp13
 70
     1
102
RTVSPropertyOp14
 70
     1
102
RTVSPropertyOp15
 70
     1
102
RTVSPropertyOp16
 70
     1
102
RTVSPropertyOp17
 70
     1
102
RTVSPropertyOp18
 70
     1
102
RTVSPropertyOp19
 70
     1
102
RTVSPropertyOp20
 70
     1
102
RTVSPropertyOp21
 70
     1
102
RTVSPropertyOp22
 70
     1
102
RTVSPropertyOp23
 70
     1
102
RTVSPropertyOp24
 70
     1
102
RTVSPropertyOp25
 70
     1
102
RTVSPropertyOp26
 70
     1
102
RTVSPropertyOp27
 70
     1
  0
ENDSEC
  0
EOF
