  0
SECTION
  2
HEADER
  9
$ACADVER
  1
AC1015
  9
$ACADMAINTVER
 70
     6
  9
$DWGCODEPAGE
  3
ANSI_1252
  9
$INSBASE
 10
0.0
 20
0.0
 30
0.0
  9
$EXTMIN
 10
0.0
 20
0.0
 30
0.0
  9
$EXTMAX
 10
25.0
 20
35.0
 30
0.0
  9
$LIMMIN
 10
0.0
 20
0.0
  9
$LIMMAX
 10
420.0
 20
297.0
  9
$ORTHOMODE
 70
     0
  9
$REGENMODE
 70
     1
  9
$FILLMODE
 70
     1
  9
$QTEXTMODE
 70
     0
  9
$MIRRTEXT
 70
     1
  9
$LTSCALE
 40
4.2
  9
$ATTMODE
 70
     1
  9
$TEXTSIZE
 40
2.5
  9
$TRACEWID
 40
1.0
  9
$TEXTSTYLE
  7
Standard
  9
$CLAYER
  8
0
  9
$CELTYPE
  6
ByLayer
  9
$CECOLOR
 62
   256
  9
$CELTSCALE
 40
1.0
  9
$DISPSILH
 70
     0
  9
$DIMSCALE
 40
1.0
  9
$DIMASZ
 40
2.5
  9
$DIMEXO
 40
0.625
  9
$DIMDLI
 40
3.75
  9
$DIMRND
 40
0.0
  9
$DIMDLE
 40
0.0
  9
$DIMEXE
 40
1.25
  9
$DIMTP
 40
0.0
  9
$DIMTM
 40
0.0
  9
$DIMTXT
 40
2.5
  9
$DIMCEN
 40
2.5
  9
$DIMTSZ
 40
0.0
  9
$DIMTOL
 70
     0
  9
$DIMLIM
 70
     0
  9
$DIMTIH
 70
     0
  9
$DIMTOH
 70
     0
  9
$DIMSE1
 70
     0
  9
$DIMSE2
 70
     0
  9
$DIMTAD
 70
     1
  9
$DIMZIN
 70
     8
  9
$DIMBLK
  1

  9
$DIMASO
 70
     1
  9
$DIMSHO
 70
     1
  9
$DIMPOST
  1

  9
$DIMAPOST
  1

  9
$DIMALT
 70
     0
  9
$DIMALTD
 70
     3
  9
$DIMALTF
 40
0.03937007874016
  9
$DIMLFAC
 40
1.0
  9
$DIMTOFL
 70
     1
  9
$DIMTVP
 40
0.0
  9
$DIMTIX
 70
     0
  9
$DIMSOXD
 70
     0
  9
$DIMSAH
 70
     0
  9
$DIMBLK1
  1

  9
$DIMBLK2
  1

  9
$DIMSTYLE
  2
ISO-25
  9
$DIMCLRD
 70
     0
  9
$DIMCLRE
 70
     0
  9
$DIMCLRT
 70
     0
  9
$DIMTFAC
 40
1.0
  9
$DIMGAP
 40
0.625
  9
$DIMJUST
 70
     0
  9
$DIMSD1
 70
     0
  9
$DIMSD2
 70
     0
  9
$DIMTOLJ
 70
     0
  9
$DIMTZIN
 70
     8
  9
$DIMALTZ
 70
     0
  9
$DIMALTTZ
 70
     0
  9
$DIMUPT
 70
     0
  9
$DIMDEC
 70
     2
  9
$DIMTDEC
 70
     2
  9
$DIMALTU
 70
     2
  9
$DIMALTTD
 70
     3
  9
$DIMTXSTY
  7
Standard
  9
$DIMAUNIT
 70
     0
  9
$DIMADEC
 70
     0
  9
$DIMALTRND
 40
0.0
  9
$DIMAZIN
 70
     0
  9
$DIMDSEP
 70
    44
  9
$DIMATFIT
 70
     3
  9
$DIMFRAC
 70
     0
  9
$DIMLDRBLK
  1

  9
$DIMLUNIT
 70
     2
  9
$DIMLWD
 70
    -2
  9
$DIMLWE
 70
    -2
  9
$DIMTMOVE
 70
     0
  9
$LUNITS
 70
     2
  9
$LUPREC
 70
     4
  9
$SKETCHINC
 40
1.0
  9
$FILLETRAD
 40
10.0
  9
$AUNITS
 70
     0
  9
$AUPREC
 70
     0
  9
$MENU
  1
.
  9
$ELEVATION
 40
0.0
  9
$PELEVATION
 40
0.0
  9
$THICKNESS
 40
0.0
  9
$LIMCHECK
 70
     0
  9
$CHAMFERA
 40
10.0
  9
$CHAMFERB
 40
10.0
  9
$CHAMFERC
 40
20.0
  9
$CHAMFERD
 40
0.0
  9
$SKPOLY
 70
     0
  9
$TDCREATE
 40
2458577.438194444
  9
$TDUCREATE
 40
2458577.354861111
  9
$TDUPDATE
 40
2458577.441666667
  9
$TDUUPDATE
 40
2458577.358333333
  9
$TDINDWG
 40
0.0000000116
  9
$TDUSRTIMER
 40
0.0000000116
  9
$USRTIMER
 70
     1
  9
$ANGBASE
 50
0.0
  9
$ANGDIR
 70
     0
  9
$PDMODE
 70
     0
  9
$PDSIZE
 40
0.0
  9
$PLINEWID
 40
0.0
  9
$SPLFRAME
 70
     0
  9
$SPLINETYPE
 70
     6
  9
$SPLINESEGS
 70
     8
  9
$HANDSEED
  5
A0B
  9
$SURFTAB1
 70
     6
  9
$SURFTAB2
 70
     6
  9
$SURFTYPE
 70
     6
  9
$SURFU
 70
     6
  9
$SURFV
 70
     6
  9
$UCSBASE
  2

  9
$UCSNAME
  2

  9
$UCSORG
 10
0.0
 20
0.0
 30
0.0
  9
$UCSXDIR
 10
1.0
 20
0.0
 30
0.0
  9
$UCSYDIR
 10
0.0
 20
1.0
 30
0.0
  9
$UCSORTHOREF
  2

  9
$UCSORTHOVIEW
 70
     0
  9
$UCSORGTOP
 10
0.0
 20
0.0
 30
0.0
  9
$UCSORGBOTTOM
 10
0.0
 20
0.0
 30
0.0
  9
$UCSORGLEFT
 10
0.0
 20
0.0
 30
0.0
  9
$UCSORGRIGHT
 10
0.0
 20
0.0
 30
0.0
  9
$UCSORGFRONT
 10
0.0
 20
0.0
 30
0.0
  9
$UCSORGBACK
 10
0.0
 20
0.0
 30
0.0
  9
$PUCSBASE
  2

  9
$PUCSNAME
  2

  9
$PUCSORG
 10
0.0
 20
0.0
 30
0.0
  9
$PUCSXDIR
 10
1.0
 20
0.0
 30
0.0
  9
$PUCSYDIR
 10
0.0
 20
1.0
 30
0.0
  9
$PUCSORTHOREF
  2

  9
$PUCSORTHOVIEW
 70
     0
  9
$PUCSORGTOP
 10
0.0
 20
0.0
 30
0.0
  9
$PUCSORGBOTTOM
 10
0.0
 20
0.0
 30
0.0
  9
$PUCSORGLEFT
 10
0.0
 20
0.0
 30
0.0
  9
$PUCSORGRIGHT
 10
0.0
 20
0.0
 30
0.0
  9
$PUCSORGFRONT
 10
0.0
 20
0.0
 30
0.0
  9
$PUCSORGBACK
 10
0.0
 20
0.0
 30
0.0
  9
$USERI1
 70
     0
  9
$USERI2
 70
     0
  9
$USERI3
 70
     0
  9
$USERI4
 70
     0
  9
$USERI5
 70
     0
  9
$USERR1
 40
0.0
  9
$USERR2
 40
0.0
  9
$USERR3
 40
0.0
  9
$USERR4
 40
0.0
  9
$USERR5
 40
0.0
  9
$WORLDVIEW
 70
     1
  9
$SHADEDGE
 70
     3
  9
$SHADEDIF
 70
    70
  9
$TILEMODE
 70
     1
  9
$MAXACTVP
 70
    64
  9
$PINSBASE
 10
0.0
 20
0.0
 30
0.0
  9
$PLIMCHECK
 70
     0
  9
$PEXTMIN
 10
1.000000000000000E+20
 20
1.000000000000000E+20
 30
1.000000000000000E+20
  9
$PEXTMAX
 10
-1.000000000000000E+20
 20
-1.000000000000000E+20
 30
-1.000000000000000E+20
  9
$PLIMMIN
 10
0.0
 20
0.0
  9
$PLIMMAX
 10
420.0
 20
297.0
  9
$UNITMODE
 70
     0
  9
$VISRETAIN
 70
     1
  9
$PLINEGEN
 70
     0
  9
$PSLTSCALE
 70
     1
  9
$TREEDEPTH
 70
  3020
  9
$CMLSTYLE
  2
Standard
  9
$CMLJUST
 70
     0
  9
$CMLSCALE
 40
20.0
  9
$PROXYGRAPHICS
 70
     1
  9
$MEASUREMENT
 70
     1
  9
$CELWEIGHT
370
    -1
  9
$ENDCAPS
280
     0
  9
$JOINSTYLE
280
     0
  9
$LWDISPLAY
290
     0
  9
$INSUNITS
 70
     4
  9
$HYPERLINKBASE
  1

  9
$STYLESHEET
  1

  9
$XEDIT
290
     1
  9
$CEPSNTYPE
380
     0
  9
$PSTYLEMODE
290
     1
  9
$FINGERPRINTGUID
  2
{E2034EAB-B41A-4910-8EC5-D6280529206E}
  9
$VERSIONGUID
  2
{FAEB1C32-E019-11D5-929B-00C0DF256EC4}
  9
$EXTNAMES
290
     1
  9
$PSVPSCALE
 40
0.0
  9
$OLESTARTUP
290
     0
  0
ENDSEC
  0
SECTION
  2
CLASSES
  0
CLASS
  1
ACDBDICTIONARYWDFLT
  2
AcDbDictionaryWithDefault
  3
ObjectDBX Classes
 90
        0
280
     0
281
     0
  0
CLASS
  1
VISUALSTYLE
  2
AcDbVisualStyle
  3
ObjectDBX Classes
 90
     4095
280
     0
281
     0
  0
CLASS
  1
MATERIAL
  2
AcDbMaterial
  3
ObjectDBX Classes
 90
     1153
280
     0
281
     0
  0
CLASS
  1
SCALE
  2
AcDbScale
  3
ObjectDBX Classes
 90
     1153
280
     0
281
     0
  0
CLASS
  1
DICTIONARYVAR
  2
AcDbDictionaryVar
  3
ObjectDBX Classes
 90
        0
280
     0
281
     0
  0
CLASS
  1
ACDBPLACEHOLDER
  2
AcDbPlaceHolder
  3
ObjectDBX Classes
 90
        0
280
     0
281
     0
  0
CLASS
  1
LAYOUT
  2
AcDbLayout
  3
ObjectDBX Classes
 90
        0
280
     0
281
     0
  0
ENDSEC
  0
SECTION
  2
TABLES
  0
TABLE
  2
VPORT
  5
8
330
0
100
AcDbSymbolTable
 70
     1
  0
VPORT
  5
29
330
8
100
AcDbSymbolTableRecord
100
AcDbViewportTableRecord
  2
*Active
 70
     0
 10
0.0
 20
0.0
 11
1.0
 21
1.0
 12
11.26
 22
4.5
 13
0.0
 23
0.0
 14
10.0
 24
10.0
 15
10.0
 25
10.0
 16
0.0
 26
0.0
 36
1.0
 17
0.0
 27
0.0
 37
0.0
 40
9.0
 41
2.503333333333333
 42
50.0
 43
0.0
 44
0.0
 50
0.0
 51
0.0
 71
     0
 72
   100
 73
     1
 74
     3
 75
     0
 76
     0
 77
     0
 78
     0
281
     0
 65
     1
110
0.0
120
0.0
130
0.0
111
1.0
121
0.0
131
0.0
112
0.0
122
1.0
132
0.0
 79
     0
146
0.0
  0
ENDTAB
  0
TABLE
  2
LTYPE
  5
5
330
0
100
AcDbSymbolTable
 70
    10
  0
LTYPE
  5
14
330
5
100
AcDbSymbolTableRecord
100
AcDbLinetypeTableRecord
  2
ByBlock
 70
     0
  3

 72
    65
 73
     0
 40
0.0
  0
LTYPE
  5
15
330
5
100
AcDbSymbolTableRecord
100
AcDbLinetypeTableRecord
  2
ByLayer
 70
     0
  3

 72
    65
 73
     0
 40
0.0
  0
LTYPE
  5
16
330
5
100
AcDbSymbolTableRecord
100
AcDbLinetypeTableRecord
  2
Continuous
 70
     0
  3
Solid line
 72
    65
 73
     0
 40
0.0
  0
LTYPE
  5
45
330
5
100
AcDbSymbolTableRecord
100
AcDbLinetypeTableRecord
  2
phl_thick
 70
     0
  3
THICK
 72
    65
 73
     0
 40
0.0
  0
LTYPE
  5
2CF
330
5
100
AcDbSymbolTableRecord
100
AcDbLinetypeTableRecord
  2
CUT
 70
     0
  3
THICK
 72
    65
 73
     0
 40
0.0
  0
LTYPE
  5
2D6
330
5
100
AcDbSymbolTableRecord
100
AcDbLinetypeTableRecord
  2
NOCUT
 70
     0
  3
THICK
 72
    65
 73
     0
 40
0.0
  0
LTYPE
  5
2DD
330
5
100
AcDbSymbolTableRecord
100
AcDbLinetypeTableRecord
  2
SK1
 70
     0
  3
THICK
 72
    65
 73
     0
 40
0.0
  0
LTYPE
  5
2E5
330
5
100
AcDbSymbolTableRecord
100
AcDbLinetypeTableRecord
  2
ls_SK2
 70
     0
  3
THIN
 72
    65
 73
     0
 40
0.0
  0
LTYPE
  5
391
330
5
100
AcDbSymbolTableRecord
100
AcDbLinetypeTableRecord
  2
ls_2
 70
     0
  3
THIN
 72
    65
 73
     0
 40
0.0
  0
LTYPE
  5
4E1
330
5
100
AcDbSymbolTableRecord
100
AcDbLinetypeTableRecord
  2
ls_SK1
 70
     0
  3
THICK
 72
    65
 73
     0
 40
0.0
  0
LTYPE
  5
51B
330
5
100
AcDbSymbolTableRecord
100
AcDbLinetypeTableRecord
  2
LONGDASH_DASH
 70
     0
  3
THIN_DASHDOT
 72
    65
 73
     4
 40
0.85
 49
0.4
 74
     0
 49
-0.2
 74
     0
 49
0.05
 74
     0
 49
-0.2
 74
     0
  0
LTYPE
  5
520
330
5
100
AcDbSymbolTableRecord
100
AcDbLinetypeTableRecord
  2
ls1
 70
     0
  3
THICK
 72
    65
 73
     0
 40
0.0
  0
ENDTAB
  0
TABLE
  2
LAYER
  5
2
330
0
100
AcDbSymbolTable
 70
    10
  0
LAYER
  5
10
330
2
100
AcDbSymbolTableRecord
100
AcDbLayerTableRecord
  2
0
 70
     0
 62
     7
  6
Continuous
370
    -3
390
F
  0
LAYER
  5
44
330
2
100
AcDbSymbolTableRecord
100
AcDbLayerTableRecord
  2
1
 70
     0
 62
4
  6
CONTINUOUS
370
50
370
    -3
390
F
  0
LAYER
  5
2CE
330
2
100
AcDbSymbolTableRecord
100
AcDbLayerTableRecord
  2
CUT
 70
     0
 62
1
  6
CONTINUOUS
370
25
370
    -3
390
F
  0
LAYER
  5
2D5
330
2
100
AcDbSymbolTableRecord
100
AcDbLayerTableRecord
  2
NOCUT
 70
     0
 62
7
  6
CONTINUOUS
370
25
370
    -3
390
F
  0
LAYER
  5
2DC
330
2
100
AcDbSymbolTableRecord
100
AcDbLayerTableRecord
  2
SK1
 70
     0
 62
4
  6
CONTINUOUS
370
50
370
    -3
390
F
  0
LAYER
  5
2E4
330
2
100
AcDbSymbolTableRecord
100
AcDbLayerTableRecord
  2
SK2
 70
     0
 62
7
  6
CONTINUOUS
370
25
370
    -3
390
F
  0
LAYER
  5
390
330
2
100
AcDbSymbolTableRecord
100
AcDbLayerTableRecord
  2
2
 70
     0
 62
7
  6
CONTINUOUS
370
25
370
    -3
390
F
  0
LAYER
  5
51A
330
2
100
AcDbSymbolTableRecord
100
AcDbLayerTableRecord
  2
4
 70
     0
 62
2
  6
LONGDASH_DASH
370
25
370
    -3
390
F
  0
LAYER
  5
51D
330
2
100
AcDbSymbolTableRecord
100
AcDbLayerTableRecord
  2
SK4
 70
     0
 62
2
  6
LONGDASH_DASH
370
25
370
    -3
390
F
  0
LAYER
  5
51F
330
2
100
AcDbSymbolTableRecord
100
AcDbLayerTableRecord
  2
SK6
 70
     0
 62
5
  6
CONTINUOUS
370
25
370
    -3
390
F
  0
ENDTAB
  0
TABLE
  2
STYLE
  5
3
330
0
100
AcDbSymbolTable
 70
     1
  0
STYLE
  5
11
330
3
100
AcDbSymbolTableRecord
100
AcDbTextStyleTableRecord
  2
Standard
 70
     0
 40
0.0
 41
1.0
 50
0.0
 71
     0
 42
2.5
  3
Monospac821 BT
  4

  0
ENDTAB
  0
TABLE
  2
VIEW
  5
6
330
0
100
AcDbSymbolTable
 70
     0
  0
ENDTAB
  0
TABLE
  2
UCS
  5
7
330
0
100
AcDbSymbolTable
 70
     0
  0
ENDTAB
  0
TABLE
  2
APPID
  5
9
330
0
100
AcDbSymbolTable
 70
     2
  0
APPID
  5
12
330
9
100
AcDbSymbolTableRecord
100
AcDbRegAppTableRecord
  2
ACAD
 70
     0
  0
APPID
  5
3F
330
9
100
AcDbSymbolTableRecord
100
AcDbRegAppTableRecord
  2
ccLab
 70
     0
  0
ENDTAB
  0
TABLE
  2
DIMSTYLE
  5
A
330
0
100
AcDbSymbolTable
 70
     1
100
AcDbDimStyleTable
  0
DIMSTYLE
105
27
330
A
100
AcDbSymbolTableRecord
100
AcDbDimStyleTableRecord
  2
ISO-25
 70
     0
 41
2.5
 42
0.625
 43
3.75
 44
1.25
 73
     0
 74
     0
 77
     1
 78
     8
140
2.5
141
2.5
143
0.03937007874016
147
0.625
171
     3
172
     1
271
     2
272
     2
274
     3
278
    44
283
     0
284
     8
340
11
  0
ENDTAB
  0
TABLE
  2
BLOCK_RECORD
  5
1
330
0
100
AcDbSymbolTable
 70
     2
  0
BLOCK_RECORD
  5
1F
330
1
100
AcDbSymbolTableRecord
100
AcDbBlockTableRecord
  2
*Model_Space
340
22
  0
BLOCK_RECORD
  5
1B
330
1
100
AcDbSymbolTableRecord
100
AcDbBlockTableRecord
  2
*Paper_Space
340
1E
  0
BLOCK_RECORD
  5
23
330
1
100
AcDbSymbolTableRecord
100
AcDbBlockTableRecord
  2
*Paper_Space0
340
26
  0
ENDTAB
  0
ENDSEC
  0
SECTION
  2
BLOCKS
  0
BLOCK
  5
20
330
1F
100
AcDbEntity
  8
0
100
AcDbBlockBegin
  2
*Model_Space
 70
     0
 10
0.0
 20
0.0
 30
0.0
  3
*Model_Space
  1

  0
ENDBLK
  5
21
330
1F
100
AcDbEntity
  8
0
100
AcDbBlockEnd
  0
BLOCK
  5
1C
330
1B
100
AcDbEntity
 67
     1
  8
0
100
AcDbBlockBegin
  2
*Paper_Space
 70
     0
 10
0.0
 20
0.0
 30
0.0
  3
*Paper_Space
  1

  0
ENDBLK
  5
1D
330
1B
100
AcDbEntity
 67
     1
  8
0
100
AcDbBlockEnd
  0
BLOCK
  5
24
330
23
100
AcDbEntity
  8
0
100
AcDbBlockBegin
  2
*Paper_Space0
 70
     0
 10
0.0
 20
0.0
 30
0.0
  3
*Paper_Space0
  1

  0
ENDBLK
  5
25
330
23
100
AcDbEntity
  8
0
100
AcDbBlockEnd
  0
ENDSEC
  0
SECTION
  2
ENTITIES
  0
LINE
  5
52A
330
1F
100
AcDbEntity
  8
1
  6
CONTINUOUS
370
50
 62
4
100
AcDbLine
 10
39.743103
 20
-1.433096
 30
0.0
 11
39.742542
 21
-1.353755
 31
0.0
  0
LINE
  5
52B
330
1F
100
AcDbEntity
  8
1
  6
CONTINUOUS
370
50
 62
4
100
AcDbLine
 10
39.228687
 20
0.0
 30
0.0
 11
39.228287
 21
0.054945
 31
0.0
  0
LINE
  5
52C
330
1F
100
AcDbEntity
  8
1
  6
CONTINUOUS
370
50
 62
4
100
AcDbLine
 10
49.648136
 20
-0.7186049999999999
 30
0.0
 11
49.646904
 21
-0.632861
 31
0.0
  0
LINE
  5
52D
330
1F
100
AcDbEntity
  8
1
  6
CONTINUOUS
370
50
 62
4
100
AcDbLine
 10
49.215927
 20
1.227224
 30
0.0
 11
49.21537
 21
1.257358
 31
0.0
  0
LINE
  5
52E
330
1F
100
AcDbEntity
  8
1
  6
CONTINUOUS
370
50
 62
4
100
AcDbLine
 10
49.650715
 20
-0.804171
 30
0.0
 11
49.648136
 21
-0.7186049999999999
 31
0.0
  0
LINE
  5
52F
330
1F
100
AcDbEntity
  8
1
  6
CONTINUOUS
370
50
 62
4
100
AcDbLine
 10
49.654655
 20
-0.8894259999999999
 30
0.0
 11
49.650715
 21
-0.804171
 31
0.0
  0
LINE
  5
530
330
1F
100
AcDbEntity
  8
1
  6
CONTINUOUS
370
50
 62
4
100
AcDbLine
 10
49.659946
 20
-0.974019
 30
0.0
 11
49.654655
 21
-0.8894259999999999
 31
0.0
  0
LINE
  5
531
330
1F
100
AcDbEntity
  8
1
  6
CONTINUOUS
370
50
 62
4
100
AcDbLine
 10
39.742542
 20
-1.353755
 30
0.0
 11
39.737144
 21
-1.271717
 31
0.0
  0
LINE
  5
532
330
1F
100
AcDbEntity
  8
1
  6
CONTINUOUS
370
50
 62
4
100
AcDbLine
 10
49.21537
 20
1.257358
 30
0.0
 11
49.213169
 21
1.289028
 31
0.0
  0
LINE
  5
533
330
1F
100
AcDbEntity
  8
1
  6
CONTINUOUS
370
50
 62
4
100
AcDbLine
 10
39.2309
 20
-0.029763
 30
0.0
 11
39.228687
 21
0.0
 31
0.0
  0
LINE
  5
534
330
1F
100
AcDbEntity
  8
1
  6
CONTINUOUS
370
50
 62
4
100
AcDbLine
 10
49.66655
 20
-1.057376
 30
0.0
 11
49.659946
 21
-0.974019
 31
0.0
  0
LINE
  5
535
330
1F
100
AcDbEntity
  8
1
  6
CONTINUOUS
370
50
 62
4
100
AcDbLine
 10
49.674442
 20
-1.139367
 30
0.0
 11
49.66655
 21
-1.057376
 31
0.0
  0
LINE
  5
536
330
1F
100
AcDbEntity
  8
1
  6
CONTINUOUS
370
50
 62
4
100
AcDbLine
 10
49.213169
 20
1.289028
 30
0.0
 11
49.209412
 21
1.322074
 31
0.0
  0
LINE
  5
537
330
1F
100
AcDbEntity
  8
1
  6
CONTINUOUS
370
50
 62
4
100
AcDbLine
 10
49.683605
 20
-1.219873
 30
0.0
 11
49.674442
 21
-1.139367
 31
0.0
  0
LINE
  5
538
330
1F
100
AcDbEntity
  8
1
  6
CONTINUOUS
370
50
 62
4
100
AcDbLine
 10
39.737144
 20
-1.271717
 30
0.0
 11
39.7272
 21
-1.187237
 31
0.0
  0
LINE
  5
539
330
1F
100
AcDbEntity
  8
1
  6
CONTINUOUS
370
50
 62
4
100
AcDbLine
 10
39.2346
 20
-0.059373
 30
0.0
 11
39.2309
 21
-0.029763
 31
0.0
  0
LINE
  5
53A
330
1F
100
AcDbEntity
  8
1
  6
CONTINUOUS
370
50
 62
4
100
AcDbLine
 10
49.694016
 20
-1.298775
 30
0.0
 11
49.683605
 21
-1.219873
 31
0.0
  0
LINE
  5
53B
330
1F
100
AcDbEntity
  8
1
  6
CONTINUOUS
370
50
 62
4
100
AcDbLine
 10
49.705654
 20
-1.375956
 30
0.0
 11
49.694016
 21
-1.298775
 31
0.0
  0
LINE
  5
53C
330
1F
100
AcDbEntity
  8
1
  6
CONTINUOUS
370
50
 62
4
100
AcDbLine
 10
49.209412
 20
1.322074
 30
0.0
 11
49.204182
 21
1.356336
 31
0.0
  0
LINE
  5
53D
330
1F
100
AcDbEntity
  8
1
  6
CONTINUOUS
370
50
 62
4
100
AcDbLine
 10
39.7272
 20
-1.187237
 30
0.0
 11
39.713001
 21
-1.100568
 31
0.0
  0
LINE
  5
53E
330
1F
100
AcDbEntity
  8
1
  6
CONTINUOUS
370
50
 62
4
100
AcDbLine
 10
49.718494
 20
-1.451296
 30
0.0
 11
49.705654
 21
-1.375956
 31
0.0
  0
LINE
  5
53F
330
1F
100
AcDbEntity
  8
1
  6
CONTINUOUS
370
50
 62
4
100
AcDbLine
 10
39.239822
 20
-0.088788
 30
0.0
 11
39.2346
 21
-0.059373
 31
0.0
  0
LINE
  5
540
330
1F
100
AcDbEntity
  8
1
  6
CONTINUOUS
370
50
 62
4
100
AcDbLine
 10
49.204182
 20
1.356336
 30
0.0
 11
49.197544
 21
1.391766
 31
0.0
  0
LINE
  5
541
330
1F
100
AcDbEntity
  8
1
  6
CONTINUOUS
370
50
 62
4
100
AcDbLine
 10
49.732521
 20
-1.524678
 30
0.0
 11
49.718494
 21
-1.451296
 31
0.0
  0
LINE
  5
542
330
1F
100
AcDbEntity
  8
1
  6
CONTINUOUS
370
50
 62
4
100
AcDbLine
 10
39.713001
 20
-1.100568
 30
0.0
 11
39.694843
 21
-1.011966
 31
0.0
  0
LINE
  5
543
330
1F
100
AcDbEntity
  8
1
  6
CONTINUOUS
370
50
 62
4
100
AcDbLine
 10
49.747662
 20
-1.5958
 30
0.0
 11
49.732521
 21
-1.524678
 31
0.0
  0
LINE
  5
544
330
1F
100
AcDbEntity
  8
1
  6
CONTINUOUS
370
50
 62
4
100
AcDbLine
 10
49.197544
 20
1.391766
 30
0.0
 11
49.189495
 21
1.428551
 31
0.0
  0
LINE
  5
545
330
1F
100
AcDbEntity
  8
1
  6
CONTINUOUS
370
50
 62
4
100
AcDbLine
 10
39.246613
 20
-0.117967
 30
0.0
 11
39.239822
 21
-0.088788
 31
0.0
  0
LINE
  5
546
330
1F
100
AcDbEntity
  8
1
  6
CONTINUOUS
370
50
 62
4
100
AcDbLine
 10
49.76383999999999
 20
-1.664333
 30
0.0
 11
49.747662
 21
-1.5958
 31
0.0
  0
LINE
  5
547
330
1F
100
AcDbEntity
  8
1
  6
CONTINUOUS
370
50
 62
4
100
AcDbLine
 10
39.694843
 20
-1.011966
 30
0.0
 11
39.673027
 21
-0.921742
 31
0.0
  0
LINE
  5
548
330
1F
100
AcDbEntity
  8
1
  6
CONTINUOUS
370
50
 62
4
100
AcDbLine
 10
49.189495
 20
1.428551
 30
0.0
 11
49.18006099999999
 21
1.466632
 31
0.0
  0
LINE
  5
549
330
1F
100
AcDbEntity
  8
1
  6
CONTINUOUS
370
50
 62
4
100
AcDbLine
 10
50.0
 20
0.385566
 30
0.0
 11
49.866913
 21
0.9139299999999999
 31
0.0
  0
LINE
  5
54A
330
1F
100
AcDbEntity
  8
1
  6
CONTINUOUS
370
50
 62
4
100
AcDbLine
 10
49.78100999999999
 20
-1.730208
 30
0.0
 11
49.76383999999999
 21
-1.664333
 31
0.0
  0
LINE
  5
54B
330
1F
100
AcDbEntity
  8
1
  6
CONTINUOUS
370
50
 62
4
100
AcDbLine
 10
49.18006099999999
 20
1.466632
 30
0.0
 11
49.16927
 21
1.505937
 31
0.0
  0
LINE
  5
54C
330
1F
100
AcDbEntity
  8
1
  6
CONTINUOUS
370
50
 62
4
100
AcDbLine
 10
39.673027
 20
-0.921742
 30
0.0
 11
39.647789
 21
-0.8302889999999999
 31
0.0
  0
LINE
  5
54D
330
1F
100
AcDbEntity
  8
1
  6
CONTINUOUS
370
50
 62
4
100
AcDbLine
 10
49.799133
 20
-1.793355
 30
0.0
 11
49.78100999999999
 21
-1.730208
 31
0.0
  0
LINE
  5
54E
330
1F
100
AcDbEntity
  8
1
  6
CONTINUOUS
370
50
 62
4
100
AcDbLine
 10
39.254974
 20
-0.146731
 30
0.0
 11
39.246613
 21
-0.117967
 31
0.0
  0
LINE
  5
54F
330
1F
100
AcDbEntity
  8
1
  6
CONTINUOUS
370
50
 62
4
100
AcDbLine
 10
49.16927
 20
1.505937
 30
0.0
 11
49.157146
 21
1.54639
 31
0.0
  0
LINE
  5
550
330
1F
100
AcDbEntity
  8
1
  6
CONTINUOUS
370
50
 62
4
100
AcDbLine
 10
39.647789
 20
-0.8302889999999999
 30
0.0
 11
39.619274
 21
-0.737916
 31
0.0
  0
LINE
  5
551
330
1F
100
AcDbEntity
  8
1
  6
CONTINUOUS
370
50
 62
4
100
AcDbLine
 10
49.818172
 20
-1.853706
 30
0.0
 11
49.799133
 21
-1.793355
 31
0.0
  0
LINE
  5
552
330
1F
100
AcDbEntity
  8
1
  6
CONTINUOUS
370
50
 62
4
100
AcDbLine
 10
49.157146
 20
1.54639
 30
0.0
 11
49.14372299999999
 21
1.587918
 31
0.0
  0
LINE
  5
553
330
1F
100
AcDbEntity
  8
1
  6
CONTINUOUS
370
50
 62
4
100
AcDbLine
 10
39.619274
 20
-0.737916
 30
0.0
 11
39.587627
 21
-0.6449309999999999
 31
0.0
  0
LINE
  5
554
330
1F
100
AcDbEntity
  8
1
  6
CONTINUOUS
370
50
 62
4
100
AcDbLine
 10
49.14372299999999
 20
1.587918
 30
0.0
 11
49.129028
 21
1.630445
 31
0.0
  0
LINE
  5
555
330
1F
100
AcDbEntity
  8
1
  6
CONTINUOUS
370
50
 62
4
100
AcDbLine
 10
49.838089
 20
-1.911193
 30
0.0
 11
49.818172
 21
-1.853706
 31
0.0
  0
LINE
  5
556
330
1F
100
AcDbEntity
  8
1
  6
CONTINUOUS
370
50
 62
4
100
AcDbLine
 10
39.264858
 20
-0.174808
 30
0.0
 11
39.254974
 21
-0.146731
 31
0.0
  0
LINE
  5
557
330
1F
100
AcDbEntity
  8
1
  6
CONTINUOUS
370
50
 62
4
100
AcDbLine
 10
49.129028
 20
1.630445
 30
0.0
 11
49.113087
 21
1.673897
 31
0.0
  0
LINE
  5
558
330
1F
100
AcDbEntity
  8
1
  6
CONTINUOUS
370
50
 62
4
100
AcDbLine
 10
39.587627
 20
-0.6449309999999999
 30
0.0
 11
39.552998
 21
-0.551639
 31
0.0
  0
LINE
  5
559
330
1F
100
AcDbEntity
  8
1
  6
CONTINUOUS
370
50
 62
4
100
AcDbLine
 10
49.858826
 20
-1.96571
 30
0.0
 11
49.838089
 21
-1.911193
 31
0.0
  0
LINE
  5
55A
330
1F
100
AcDbEntity
  8
1
  6
CONTINUOUS
370
50
 62
4
100
AcDbLine
 10
49.113087
 20
1.673897
 30
0.0
 11
49.095928
 21
1.7182
 31
0.0
  0
LINE
  5
55B
330
1F
100
AcDbEntity
  8
1
  6
CONTINUOUS
370
50
 62
4
100
AcDbLine
 10
39.552998
 20
-0.551639
 30
0.0
 11
39.51553
 21
-0.458348
 31
0.0
  0
LINE
  5
55C
330
1F
100
AcDbEntity
  8
1
  6
CONTINUOUS
370
50
 62
4
100
AcDbLine
 10
49.031467
 20
1.875421
 30
0.0
 11
49.023914
 21
1.894068
 31
0.0
  0
LINE
  5
55D
330
1F
100
AcDbEntity
  8
1
  6
CONTINUOUS
370
50
 62
4
100
AcDbLine
 10
49.039055
 20
1.85676
 30
0.0
 11
49.031467
 21
1.875421
 31
0.0
  0
LINE
  5
55E
330
1F
100
AcDbEntity
  8
1
  6
CONTINUOUS
370
50
 62
4
100
AcDbLine
 10
49.095928
 20
1.7182
 30
0.0
 11
49.077579
 21
1.76328
 31
0.0
  0
LINE
  5
55F
330
1F
100
AcDbEntity
  8
1
  6
CONTINUOUS
370
50
 62
4
100
AcDbLine
 10
49.046684
 20
1.838088
 30
0.0
 11
49.039055
 21
1.85676
 31
0.0
  0
LINE
  5
560
330
1F
100
AcDbEntity
  8
1
  6
CONTINUOUS
370
50
 62
4
100
AcDbLine
 10
49.054348
 20
1.819403
 30
0.0
 11
49.046684
 21
1.838088
 31
0.0
  0
LINE
  5
561
330
1F
100
AcDbEntity
  8
1
  6
CONTINUOUS
370
50
 62
4
100
AcDbLine
 10
49.062054
 20
1.800707
 30
0.0
 11
49.054348
 21
1.819403
 31
0.0
  0
LINE
  5
562
330
1F
100
AcDbEntity
  8
1
  6
CONTINUOUS
370
50
 62
4
100
AcDbLine
 10
49.069798
 20
1.781999
 30
0.0
 11
49.062054
 21
1.800707
 31
0.0
  0
LINE
  5
563
330
1F
100
AcDbEntity
  8
1
  6
CONTINUOUS
370
50
 62
4
100
AcDbLine
 10
49.077579
 20
1.76328
 30
0.0
 11
49.069798
 21
1.781999
 31
0.0
  0
LINE
  5
564
330
1F
100
AcDbEntity
  8
1
  6
CONTINUOUS
370
50
 62
4
100
AcDbLine
 10
39.276245
 20
-0.202167
 30
0.0
 11
39.264858
 21
-0.174808
 31
0.0
  0
LINE
  5
565
330
1F
100
AcDbEntity
  8
1
  6
CONTINUOUS
370
50
 62
4
100
AcDbLine
 10
49.880287
 20
-2.017067
 30
0.0
 11
49.858826
 21
-1.96571
 31
0.0
  0
LINE
  5
566
330
1F
100
AcDbEntity
  8
1
  6
CONTINUOUS
370
50
 62
4
100
AcDbLine
 10
49.902428
 20
-2.065225
 30
0.0
 11
49.880287
 21
-2.017067
 31
0.0
  0
LINE
  5
567
330
1F
100
AcDbEntity
  8
1
  6
CONTINUOUS
370
50
 62
4
100
AcDbLine
 10
39.289131
 20
-0.228781
 30
0.0
 11
39.276245
 21
-0.202167
 31
0.0
  0
LINE
  5
568
330
1F
100
AcDbEntity
  8
1
  6
CONTINUOUS
370
50
 62
4
100
AcDbLine
 10
49.925201
 20
-2.110159
 30
0.0
 11
49.902428
 21
-2.065225
 31
0.0
  0
LINE
  5
569
330
1F
100
AcDbEntity
  8
1
  6
CONTINUOUS
370
50
 62
4
100
AcDbLine
 10
49.528259
 20
0.9154009999999999
 30
0.0
 11
49.023914
 21
1.894068
 31
0.0
  0
LINE
  5
56A
330
1F
100
AcDbEntity
  8
1
  6
CONTINUOUS
370
50
 62
4
100
AcDbLine
 10
39.303509
 20
-0.254624
 30
0.0
 11
39.289131
 21
-0.228781
 31
0.0
  0
LINE
  5
56B
330
1F
100
AcDbEntity
  8
1
  6
CONTINUOUS
370
50
 62
4
100
AcDbLine
 10
49.94857
 20
-2.151844
 30
0.0
 11
49.925201
 21
-2.110159
 31
0.0
  0
LINE
  5
56C
330
1F
100
AcDbEntity
  8
1
  6
CONTINUOUS
370
50
 62
4
100
AcDbLine
 10
39.319359
 20
-0.279668
 30
0.0
 11
39.303509
 21
-0.254624
 31
0.0
  0
LINE
  5
56D
330
1F
100
AcDbEntity
  8
1
  6
CONTINUOUS
370
50
 62
4
100
AcDbLine
 10
39.645737
 20
1.810792
 30
0.0
 11
39.63316
 21
1.828975
 31
0.0
  0
LINE
  5
56E
330
1F
100
AcDbEntity
  8
1
  6
CONTINUOUS
370
50
 62
4
100
AcDbLine
 10
39.336681
 20
-0.303887
 30
0.0
 11
39.319359
 21
-0.279668
 31
0.0
  0
LINE
  5
56F
330
1F
100
AcDbEntity
  8
1
  6
CONTINUOUS
370
50
 62
4
100
AcDbLine
 10
39.63314099999999
 20
1.828999
 30
0.0
 11
39.591469
 21
1.884603
 31
0.0
  0
LINE
  5
570
330
1F
100
AcDbEntity
  8
1
  6
CONTINUOUS
370
50
 62
4
100
AcDbLine
 10
39.671642
 20
1.778157
 30
0.0
 11
39.645737
 21
1.810792
 31
0.0
  0
LINE
  5
571
330
1F
100
AcDbEntity
  8
1
  6
CONTINUOUS
370
50
 62
4
100
AcDbLine
 10
39.35537
 20
-0.327144
 30
0.0
 11
39.336681
 21
-0.303887
 31
0.0
  0
LINE
  5
572
330
1F
100
AcDbEntity
  8
1
  6
CONTINUOUS
370
50
 62
4
100
AcDbLine
 10
39.375217
 20
-0.349246
 30
0.0
 11
39.35537
 21
-0.327144
 31
0.0
  0
LINE
  5
573
330
1F
100
AcDbEntity
  8
1
  6
CONTINUOUS
370
50
 62
4
100
AcDbLine
 10
39.696182
 20
1.751885
 30
0.0
 11
39.671642
 21
1.778157
 31
0.0
  0
LINE
  5
574
330
1F
100
AcDbEntity
  8
1
  6
CONTINUOUS
370
50
 62
4
100
AcDbLine
 10
39.591469
 20
1.884603
 30
0.0
 11
39.543758
 21
1.934605
 31
0.0
  0
LINE
  5
575
330
1F
100
AcDbEntity
  8
1
  6
CONTINUOUS
370
50
 62
4
100
AcDbLine
 10
39.396168
 20
-0.370204
 30
0.0
 11
39.375217
 21
-0.349246
 31
0.0
  0
LINE
  5
576
330
1F
100
AcDbEntity
  8
1
  6
CONTINUOUS
370
50
 62
4
100
AcDbLine
 10
39.72263299999999
 20
1.727432
 30
0.0
 11
39.696182
 21
1.751885
 31
0.0
  0
LINE
  5
577
330
1F
100
AcDbEntity
  8
1
  6
CONTINUOUS
370
50
 62
4
100
AcDbLine
 10
39.418171
 20
-0.390033
 30
0.0
 11
39.396168
 21
-0.370204
 31
0.0
  0
LINE
  5
578
330
1F
100
AcDbEntity
  8
1
  6
CONTINUOUS
370
50
 62
4
100
AcDbLine
 10
39.543758
 20
1.934605
 30
0.0
 11
39.490314
 21
1.97926
 31
0.0
  0
LINE
  5
579
330
1F
100
AcDbEntity
  8
1
  6
CONTINUOUS
370
50
 62
4
100
AcDbLine
 10
39.441162
 20
-0.408748
 30
0.0
 11
39.418171
 21
-0.390033
 31
0.0
  0
LINE
  5
57A
330
1F
100
AcDbEntity
  8
1
  6
CONTINUOUS
370
50
 62
4
100
AcDbLine
 10
39.766449
 20
1.693621
 30
0.0
 11
39.72263299999999
 21
1.727432
 31
0.0
  0
LINE
  5
57B
330
1F
100
AcDbEntity
  8
1
  6
CONTINUOUS
370
50
 62
4
100
AcDbLine
 10
39.465092
 20
-0.426362
 30
0.0
 11
39.441162
 21
-0.408748
 31
0.0
  0
LINE
  5
57C
330
1F
100
AcDbEntity
  8
1
  6
CONTINUOUS
370
50
 62
4
100
AcDbLine
 10
39.490314
 20
1.97926
 30
0.0
 11
39.431431
 21
2.01882
 31
0.0
  0
LINE
  5
57D
330
1F
100
AcDbEntity
  8
1
  6
CONTINUOUS
370
50
 62
4
100
AcDbLine
 10
38.680492
 20
2.052877
 30
0.0
 11
38.62323
 21
2.091298
 31
0.0
  0
LINE
  5
57E
330
1F
100
AcDbEntity
  8
1
  6
CONTINUOUS
370
50
 62
4
100
AcDbLine
 10
38.739403
 20
2.013355
 30
0.0
 11
38.680492
 21
2.052877
 31
0.0
  0
LINE
  5
57F
330
1F
100
AcDbEntity
  8
1
  6
CONTINUOUS
370
50
 62
4
100
AcDbLine
 10
38.799999
 20
1.972836
 30
0.0
 11
38.739403
 21
2.013355
 31
0.0
  0
LINE
  5
580
330
1F
100
AcDbEntity
  8
1
  6
CONTINUOUS
370
50
 62
4
100
AcDbLine
 10
38.62323
 20
2.091298
 30
0.0
 11
38.567787
 21
2.128351
 31
0.0
  0
LINE
  5
581
330
1F
100
AcDbEntity
  8
1
  6
CONTINUOUS
370
50
 62
4
100
AcDbLine
 10
39.489899
 20
-0.442891
 30
0.0
 11
39.465092
 21
-0.426362
 31
0.0
  0
LINE
  5
582
330
1F
100
AcDbEntity
  8
1
  6
CONTINUOUS
370
50
 62
4
100
AcDbLine
 10
38.567787
 20
2.128351
 30
0.0
 11
38.514145
 21
2.163879
 31
0.0
  0
LINE
  5
583
330
1F
100
AcDbEntity
  8
1
  6
CONTINUOUS
370
50
 62
4
100
AcDbLine
 10
38.514145
 20
2.163879
 30
0.0
 11
38.462276
 21
2.197722
 31
0.0
  0
LINE
  5
584
330
1F
100
AcDbEntity
  8
1
  6
CONTINUOUS
370
50
 62
4
100
AcDbLine
 10
38.462276
 20
2.197722
 30
0.0
 11
38.412304
 21
2.229616
 31
0.0
  0
LINE
  5
585
330
1F
100
AcDbEntity
  8
1
  6
CONTINUOUS
370
50
 62
4
100
AcDbLine
 10
38.412304
 20
2.229616
 30
0.0
 11
38.364059
 21
2.259475
 31
0.0
  0
LINE
  5
586
330
1F
100
AcDbEntity
  8
1
  6
CONTINUOUS
370
50
 62
4
100
AcDbLine
 10
39.821537
 20
1.659884
 30
0.0
 11
39.766449
 21
1.693621
 31
0.0
  0
LINE
  5
587
330
1F
100
AcDbEntity
  8
1
  6
CONTINUOUS
370
50
 62
4
100
AcDbLine
 10
39.51553
 20
-0.458348
 30
0.0
 11
39.489899
 21
-0.442891
 31
0.0
  0
LINE
  5
588
330
1F
100
AcDbEntity
  8
1
  6
CONTINUOUS
370
50
 62
4
100
AcDbLine
 10
38.364059
 20
2.259475
 30
0.0
 11
38.317387
 21
2.28721
 31
0.0
  0
LINE
  5
589
330
1F
100
AcDbEntity
  8
1
  6
CONTINUOUS
370
50
 62
4
100
AcDbLine
 10
43.504295
 20
0.288817
 30
0.0
 11
43.335865
 21
0.387571
 31
0.0
  0
LINE
  5
58A
330
1F
100
AcDbEntity
  8
1
  6
CONTINUOUS
370
50
 62
4
100
AcDbLine
 10
43.66995199999999
 20
0.192127
 30
0.0
 11
43.504295
 21
0.288817
 31
0.0
  0
LINE
  5
58B
330
1F
100
AcDbEntity
  8
1
  6
CONTINUOUS
370
50
 62
4
100
AcDbLine
 10
43.836094
 20
0.095811
 30
0.0
 11
43.66995199999999
 21
0.192127
 31
0.0
  0
LINE
  5
58C
330
1F
100
AcDbEntity
  8
1
  6
CONTINUOUS
370
50
 62
4
100
AcDbLine
 10
45.589527
 20
-0.472551
 30
0.0
 11
45.22910299999999
 21
-0.264238
 31
0.0
  0
LINE
  5
58D
330
1F
100
AcDbEntity
  8
1
  6
CONTINUOUS
370
50
 62
4
100
AcDbLine
 10
44.002502
 20
0.0
 30
0.0
 11
43.836094
 21
0.095811
 31
0.0
  0
LINE
  5
58E
330
1F
100
AcDbEntity
  8
1
  6
CONTINUOUS
370
50
 62
4
100
AcDbLine
 10
43.335865
 20
0.387571
 30
0.0
 11
43.131401
 21
0.505205
 31
0.0
  0
LINE
  5
58F
330
1F
100
AcDbEntity
  8
1
  6
CONTINUOUS
370
50
 62
4
100
AcDbLine
 10
45.22910299999999
 20
-0.264238
 30
0.0
 11
44.76891699999999
 21
0.0
 31
0.0
  0
LINE
  5
590
330
1F
100
AcDbEntity
  8
1
  6
CONTINUOUS
370
50
 62
4
100
AcDbLine
 10
44.017284
 20
-0.008475
 30
0.0
 11
44.013592
 21
-0.006356
 31
0.0
  0
LINE
  5
591
330
1F
100
AcDbEntity
  8
1
  6
CONTINUOUS
370
50
 62
4
100
AcDbLine
 10
44.009895
 20
-0.004237
 30
0.0
 11
44.006199
 21
-0.002117
 31
0.0
  0
LINE
  5
592
330
1F
100
AcDbEntity
  8
1
  6
CONTINUOUS
370
50
 62
4
100
AcDbLine
 10
44.024677
 20
-0.012712
 30
0.0
 11
44.020981
 21
-0.010593
 31
0.0
  0
LINE
  5
593
330
1F
100
AcDbEntity
  8
1
  6
CONTINUOUS
370
50
 62
4
100
AcDbLine
 10
44.013592
 20
-0.006356
 30
0.0
 11
44.009895
 21
-0.004237
 31
0.0
  0
LINE
  5
594
330
1F
100
AcDbEntity
  8
1
  6
CONTINUOUS
370
50
 62
4
100
AcDbLine
 10
44.020981
 20
-0.010593
 30
0.0
 11
44.017284
 21
-0.008475
 31
0.0
  0
LINE
  5
595
330
1F
100
AcDbEntity
  8
1
  6
CONTINUOUS
370
50
 62
4
100
AcDbLine
 10
44.006199
 20
-0.002117
 30
0.0
 11
44.002502
 21
0.0
 31
0.0
  0
LINE
  5
596
330
1F
100
AcDbEntity
  8
1
  6
CONTINUOUS
370
50
 62
4
100
AcDbLine
 10
44.223133
 20
-0.126014
 30
0.0
 11
44.024677
 21
-0.012712
 31
0.0
  0
LINE
  5
597
330
1F
100
AcDbEntity
  8
1
  6
CONTINUOUS
370
50
 62
4
100
AcDbLine
 10
45.858749
 20
-0.626065
 30
0.0
 11
45.589527
 21
-0.472551
 31
0.0
  0
LINE
  5
598
330
1F
100
AcDbEntity
  8
1
  6
CONTINUOUS
370
50
 62
4
100
AcDbLine
 10
44.76891699999999
 20
0.0
 30
0.0
 11
44.440865
 21
0.186096
 31
0.0
  0
LINE
  5
599
330
1F
100
AcDbEntity
  8
1
  6
CONTINUOUS
370
50
 62
4
100
AcDbLine
 10
44.422722
 20
-0.239122
 30
0.0
 11
44.223133
 21
-0.126014
 31
0.0
  0
LINE
  5
59A
330
1F
100
AcDbEntity
  8
1
  6
CONTINUOUS
370
50
 62
4
100
AcDbLine
 10
44.440865
 20
0.186096
 30
0.0
 11
44.108494
 21
0.373567
 31
0.0
  0
LINE
  5
59B
330
1F
100
AcDbEntity
  8
1
  6
CONTINUOUS
370
50
 62
4
100
AcDbLine
 10
38.317387
 20
2.28721
 30
0.0
 11
38.272297
 21
2.312633
 31
0.0
  0
LINE
  5
59C
330
1F
100
AcDbEntity
  8
1
  6
CONTINUOUS
370
50
 62
4
100
AcDbLine
 10
44.623013
 20
-0.35184
 30
0.0
 11
44.422722
 21
-0.239122
 31
0.0
  0
LINE
  5
59D
330
1F
100
AcDbEntity
  8
1
  6
CONTINUOUS
370
50
 62
4
100
AcDbLine
 10
44.108494
 20
0.373567
 30
0.0
 11
43.777386
 21
0.5595709999999999
 31
0.0
  0
LINE
  5
59E
330
1F
100
AcDbEntity
  8
1
  6
CONTINUOUS
370
50
 62
4
100
AcDbLine
 10
43.777386
 20
0.5595709999999999
 30
0.0
 11
43.455063
 21
0.7404219999999999
 31
0.0
  0
LINE
  5
59F
330
1F
100
AcDbEntity
  8
1
  6
CONTINUOUS
370
50
 62
4
100
AcDbLine
 10
43.131401
 20
0.505205
 30
0.0
 11
42.885185
 21
0.642898
 31
0.0
  0
LINE
  5
5A0
330
1F
100
AcDbEntity
  8
1
  6
CONTINUOUS
370
50
 62
4
100
AcDbLine
 10
44.82349
 20
-0.46393
 30
0.0
 11
44.623013
 21
-0.35184
 31
0.0
  0
LINE
  5
5A1
330
1F
100
AcDbEntity
  8
1
  6
CONTINUOUS
370
50
 62
4
100
AcDbLine
 10
45.02365899999999
 20
-0.5751499999999999
 30
0.0
 11
44.82349
 21
-0.46393
 31
0.0
  0
LINE
  5
5A2
330
1F
100
AcDbEntity
  8
1
  6
CONTINUOUS
370
50
 62
4
100
AcDbLine
 10
45.223007
 20
-0.685263
 30
0.0
 11
45.02365899999999
 21
-0.5751499999999999
 31
0.0
  0
LINE
  5
5A3
330
1F
100
AcDbEntity
  8
1
  6
CONTINUOUS
370
50
 62
4
100
AcDbLine
 10
46.116131
 20
-0.767624
 30
0.0
 11
45.858749
 21
-0.626065
 31
0.0
  0
LINE
  5
5A4
330
1F
100
AcDbEntity
  8
1
  6
CONTINUOUS
370
50
 62
4
100
AcDbLine
 10
45.421066
 20
-0.7940459999999999
 30
0.0
 11
45.223007
 21
-0.685263
 31
0.0
  0
LINE
  5
5A5
330
1F
100
AcDbEntity
  8
1
  6
CONTINUOUS
370
50
 62
4
100
AcDbLine
 10
43.455063
 20
0.7404219999999999
 30
0.0
 11
43.135326
 21
0.915132
 31
0.0
  0
LINE
  5
5A6
330
1F
100
AcDbEntity
  8
1
  6
CONTINUOUS
370
50
 62
4
100
AcDbLine
 10
45.640144
 20
-0.912937
 30
0.0
 11
45.421066
 21
-0.7940459999999999
 31
0.0
  0
LINE
  5
5A7
330
1F
100
AcDbEntity
  8
1
  6
CONTINUOUS
370
50
 62
4
100
AcDbLine
 10
39.431431
 20
2.01882
 30
0.0
 11
39.36740899999999
 21
2.053536
 31
0.0
  0
LINE
  5
5A8
330
1F
100
AcDbEntity
  8
1
  6
CONTINUOUS
370
50
 62
4
100
AcDbLine
 10
42.885185
 20
0.642898
 30
0.0
 11
42.600517
 21
0.7969729999999999
 31
0.0
  0
LINE
  5
5A9
330
1F
100
AcDbEntity
  8
1
  6
CONTINUOUS
370
50
 62
4
100
AcDbLine
 10
41.200001
 20
-1.829451
 30
0.0
 11
41.084164
 21
-1.767398
 31
0.0
  0
LINE
  5
5AA
330
1F
100
AcDbEntity
  8
1
  6
CONTINUOUS
370
50
 62
4
100
AcDbLine
 10
46.37439
 20
-0.9044629999999999
 30
0.0
 11
46.116131
 21
-0.767624
 31
0.0
  0
LINE
  5
5AB
330
1F
100
AcDbEntity
  8
1
  6
CONTINUOUS
370
50
 62
4
100
AcDbLine
 10
38.272297
 20
2.312633
 30
0.0
 11
38.22866399999999
 21
2.335652
 31
0.0
  0
LINE
  5
5AC
330
1F
100
AcDbEntity
  8
1
  6
CONTINUOUS
370
50
 62
4
100
AcDbLine
 10
45.898891
 20
-1.048753
 30
0.0
 11
45.640144
 21
-0.912937
 31
0.0
  0
LINE
  5
5AD
330
1F
100
AcDbEntity
  8
1
  6
CONTINUOUS
370
50
 62
4
100
AcDbLine
 10
42.600517
 20
0.7969729999999999
 30
0.0
 11
42.280697
 21
0.96375
 31
0.0
  0
LINE
  5
5AE
330
1F
100
AcDbEntity
  8
1
  6
CONTINUOUS
370
50
 62
4
100
AcDbLine
 10
43.135326
 20
0.915132
 30
0.0
 11
42.808659
 21
1.083565
 31
0.0
  0
LINE
  5
5AF
330
1F
100
AcDbEntity
  8
1
  6
CONTINUOUS
370
50
 62
4
100
AcDbLine
 10
46.634144
 20
-1.037085
 30
0.0
 11
46.37439
 21
-0.9044629999999999
 31
0.0
  0
LINE
  5
5B0
330
1F
100
AcDbEntity
  8
1
  6
CONTINUOUS
370
50
 62
4
100
AcDbLine
 10
38.53661
 20
2.264473
 30
0.0
 11
38.526016
 21
2.269878
 31
0.0
  0
LINE
  5
5B1
330
1F
100
AcDbEntity
  8
1
  6
CONTINUOUS
370
50
 62
4
100
AcDbLine
 10
42.280697
 20
0.96375
 30
0.0
 11
41.92903099999999
 21
1.139552
 31
0.0
  0
LINE
  5
5B2
330
1F
100
AcDbEntity
  8
1
  6
CONTINUOUS
370
50
 62
4
100
AcDbLine
 10
46.196255
 20
-1.196988
 30
0.0
 11
45.898891
 21
-1.048753
 31
0.0
  0
LINE
  5
5B3
330
1F
100
AcDbEntity
  8
1
  6
CONTINUOUS
370
50
 62
4
100
AcDbLine
 10
39.862286
 20
1.639661
 30
0.0
 11
39.821537
 21
1.659884
 31
0.0
  0
LINE
  5
5B4
330
1F
100
AcDbEntity
  8
1
  6
CONTINUOUS
370
50
 62
4
100
AcDbLine
 10
46.894402
 20
-1.165119
 30
0.0
 11
46.634144
 21
-1.037085
 31
0.0
  0
LINE
  5
5B5
330
1F
100
AcDbEntity
  8
1
  6
CONTINUOUS
370
50
 62
4
100
AcDbLine
 10
42.808659
 20
1.083565
 30
0.0
 11
42.480274
 21
1.242657
 31
0.0
  0
LINE
  5
5B6
330
1F
100
AcDbEntity
  8
1
  6
CONTINUOUS
370
50
 62
4
100
AcDbLine
 10
43.553928
 20
0.212186
 30
0.0
 11
43.08314499999999
 21
0.437493
 31
0.0
  0
LINE
  5
5B7
330
1F
100
AcDbEntity
  8
1
  6
CONTINUOUS
370
50
 62
4
100
AcDbLine
 10
44.024719
 20
-0.012619
 30
0.0
 11
43.553928
 21
0.212186
 31
0.0
  0
LINE
  5
5B8
330
1F
100
AcDbEntity
  8
1
  6
CONTINUOUS
370
50
 62
4
100
AcDbLine
 10
41.92903099999999
 20
1.139552
 30
0.0
 11
41.562092
 21
1.314645
 31
0.0
  0
LINE
  5
5B9
330
1F
100
AcDbEntity
  8
1
  6
CONTINUOUS
370
50
 62
4
100
AcDbLine
 10
47.15402599999999
 20
-1.288111
 30
0.0
 11
46.894402
 21
-1.165119
 31
0.0
  0
LINE
  5
5BA
330
1F
100
AcDbEntity
  8
1
  6
CONTINUOUS
370
50
 62
4
100
AcDbLine
 10
46.531158
 20
-1.353138
 30
0.0
 11
46.196255
 21
-1.196988
 31
0.0
  0
LINE
  5
5BB
330
1F
100
AcDbEntity
  8
1
  6
CONTINUOUS
370
50
 62
4
100
AcDbLine
 10
41.084164
 20
-1.767398
 30
0.0
 11
40.96704099999999
 21
-1.71331
 31
0.0
  0
LINE
  5
5BC
330
1F
100
AcDbEntity
  8
1
  6
CONTINUOUS
370
50
 62
4
100
AcDbLine
 10
47.411259
 20
-1.405434
 30
0.0
 11
47.15402599999999
 21
-1.288111
 31
0.0
  0
LINE
  5
5BD
330
1F
100
AcDbEntity
  8
1
  6
CONTINUOUS
370
50
 62
4
100
AcDbLine
 10
42.480274
 20
1.242657
 30
0.0
 11
42.15240499999999
 21
1.391728
 31
0.0
  0
LINE
  5
5BE
330
1F
100
AcDbEntity
  8
1
  6
CONTINUOUS
370
50
 62
4
100
AcDbLine
 10
41.562092
 20
1.314645
 30
0.0
 11
41.200001
 21
1.478781
 31
0.0
  0
LINE
  5
5BF
330
1F
100
AcDbEntity
  8
1
  6
CONTINUOUS
370
50
 62
4
100
AcDbLine
 10
43.08314499999999
 20
0.437493
 30
0.0
 11
42.612362
 21
0.650637
 31
0.0
  0
LINE
  5
5C0
330
1F
100
AcDbEntity
  8
1
  6
CONTINUOUS
370
50
 62
4
100
AcDbLine
 10
38.526016
 20
2.269878
 30
0.0
 11
38.51424
 21
2.275161
 31
0.0
  0
LINE
  5
5C1
330
1F
100
AcDbEntity
  8
1
  6
CONTINUOUS
370
50
 62
4
100
AcDbLine
 10
47.661594
 20
-1.515351
 30
0.0
 11
47.411259
 21
-1.405434
 31
0.0
  0
LINE
  5
5C2
330
1F
100
AcDbEntity
  8
1
  6
CONTINUOUS
370
50
 62
4
100
AcDbLine
 10
39.36740899999999
 20
2.053536
 30
0.0
 11
39.298569
 21
2.083645
 31
0.0
  0
LINE
  5
5C3
330
1F
100
AcDbEntity
  8
1
  6
CONTINUOUS
370
50
 62
4
100
AcDbLine
 10
46.888115
 20
-1.507223
 30
0.0
 11
46.531158
 21
-1.353138
 31
0.0
  0
LINE
  5
5C4
330
1F
100
AcDbEntity
  8
1
  6
CONTINUOUS
370
50
 62
4
100
AcDbLine
 10
42.612362
 20
0.650637
 30
0.0
 11
42.141575
 21
0.851679
 31
0.0
  0
LINE
  5
5C5
330
1F
100
AcDbEntity
  8
1
  6
CONTINUOUS
370
50
 62
4
100
AcDbLine
 10
42.15240499999999
 20
1.391728
 30
0.0
 11
41.825371
 21
1.530959
 31
0.0
  0
LINE
  5
5C6
330
1F
100
AcDbEntity
  8
1
  6
CONTINUOUS
370
50
 62
4
100
AcDbLine
 10
38.913177
 20
1.925639
 30
0.0
 11
38.799999
 21
1.972836
 31
0.0
  0
LINE
  5
5C7
330
1F
100
AcDbEntity
  8
1
  6
CONTINUOUS
370
50
 62
4
100
AcDbLine
 10
47.909534
 20
-1.618034
 30
0.0
 11
47.661594
 21
-1.515351
 31
0.0
  0
LINE
  5
5C8
330
1F
100
AcDbEntity
  8
1
  6
CONTINUOUS
370
50
 62
4
100
AcDbLine
 10
39.907417
 20
1.620979
 30
0.0
 11
39.862286
 21
1.639661
 31
0.0
  0
LINE
  5
5C9
330
1F
100
AcDbEntity
  8
1
  6
CONTINUOUS
370
50
 62
4
100
AcDbLine
 10
39.031693
 20
1.87758
 30
0.0
 11
38.913177
 21
1.925639
 31
0.0
  0
LINE
  5
5CA
330
1F
100
AcDbEntity
  8
1
  6
CONTINUOUS
370
50
 62
4
100
AcDbLine
 10
42.141575
 20
0.851679
 30
0.0
 11
41.67078799999999
 21
1.041142
 31
0.0
  0
LINE
  5
5CB
330
1F
100
AcDbEntity
  8
1
  6
CONTINUOUS
370
50
 62
4
100
AcDbLine
 10
38.51424
 20
2.275161
 30
0.0
 11
38.501274
 21
2.28032
 31
0.0
  0
LINE
  5
5CC
330
1F
100
AcDbEntity
  8
1
  6
CONTINUOUS
370
50
 62
4
100
AcDbLine
 10
47.245373
 20
-1.649321
 30
0.0
 11
46.888115
 21
-1.507223
 31
0.0
  0
LINE
  5
5CD
330
1F
100
AcDbEntity
  8
1
  6
CONTINUOUS
370
50
 62
4
100
AcDbLine
 10
41.825371
 20
1.530959
 30
0.0
 11
41.502724
 21
1.65909
 31
0.0
  0
LINE
  5
5CE
330
1F
100
AcDbEntity
  8
1
  6
CONTINUOUS
370
50
 62
4
100
AcDbLine
 10
40.96704099999999
 20
-1.71331
 30
0.0
 11
40.848686
 21
-1.667056
 31
0.0
  0
LINE
  5
5CF
330
1F
100
AcDbEntity
  8
1
  6
CONTINUOUS
370
50
 62
4
100
AcDbLine
 10
39.155155
 20
1.829627
 30
0.0
 11
39.031693
 21
1.87758
 31
0.0
  0
LINE
  5
5D0
330
1F
100
AcDbEntity
  8
1
  6
CONTINUOUS
370
50
 62
4
100
AcDbLine
 10
48.161098
 20
-1.714006
 30
0.0
 11
47.909534
 21
-1.618034
 31
0.0
  0
LINE
  5
5D1
330
1F
100
AcDbEntity
  8
1
  6
CONTINUOUS
370
50
 62
4
100
AcDbLine
 10
41.67078799999999
 20
1.041142
 30
0.0
 11
41.200001
 21
1.218701
 31
0.0
  0
LINE
  5
5D2
330
1F
100
AcDbEntity
  8
1
  6
CONTINUOUS
370
50
 62
4
100
AcDbLine
 10
41.502724
 20
1.65909
 30
0.0
 11
41.200001
 21
1.770589
 31
0.0
  0
LINE
  5
5D3
330
1F
100
AcDbEntity
  8
1
  6
CONTINUOUS
370
50
 62
4
100
AcDbLine
 10
39.283035
 20
1.782643
 30
0.0
 11
39.155155
 21
1.829627
 31
0.0
  0
LINE
  5
5D4
330
1F
100
AcDbEntity
  8
1
  6
CONTINUOUS
370
50
 62
4
100
AcDbLine
 10
47.600372
 20
-1.778295
 30
0.0
 11
47.245373
 21
-1.649321
 31
0.0
  0
LINE
  5
5D5
330
1F
100
AcDbEntity
  8
1
  6
CONTINUOUS
370
50
 62
4
100
AcDbLine
 10
38.501274
 20
2.28032
 30
0.0
 11
38.487114
 21
2.285357
 31
0.0
  0
LINE
  5
5D6
330
1F
100
AcDbEntity
  8
1
  6
CONTINUOUS
370
50
 62
4
100
AcDbLine
 10
39.298569
 20
2.083645
 30
0.0
 11
39.225227
 21
2.109391
 31
0.0
  0
LINE
  5
5D7
330
1F
100
AcDbEntity
  8
1
  6
CONTINUOUS
370
50
 62
4
100
AcDbLine
 10
48.415394
 20
-1.801973
 30
0.0
 11
48.161098
 21
-1.714006
 31
0.0
  0
LINE
  5
5D8
330
1F
100
AcDbEntity
  8
1
  6
CONTINUOUS
370
50
 62
4
100
AcDbLine
 10
39.948235
 20
1.606909
 30
0.0
 11
39.907417
 21
1.620979
 31
0.0
  0
LINE
  5
5D9
330
1F
100
AcDbEntity
  8
1
  6
CONTINUOUS
370
50
 62
4
100
AcDbLine
 10
39.415203
 20
1.737242
 30
0.0
 11
39.283035
 21
1.782643
 31
0.0
  0
LINE
  5
5DA
330
1F
100
AcDbEntity
  8
1
  6
CONTINUOUS
370
50
 62
4
100
AcDbLine
 10
47.98950199999999
 20
-1.903565
 30
0.0
 11
47.600372
 21
-1.778295
 31
0.0
  0
LINE
  5
5DB
330
1F
100
AcDbEntity
  8
1
  6
CONTINUOUS
370
50
 62
4
100
AcDbLine
 10
40.848686
 20
-1.667056
 30
0.0
 11
40.731838
 21
-1.629444
 31
0.0
  0
LINE
  5
5DC
330
1F
100
AcDbEntity
  8
1
  6
CONTINUOUS
370
50
 62
4
100
AcDbLine
 10
38.487114
 20
2.285357
 30
0.0
 11
38.47176
 21
2.290272
 31
0.0
  0
LINE
  5
5DD
330
1F
100
AcDbEntity
  8
1
  6
CONTINUOUS
370
50
 62
4
100
AcDbLine
 10
38.799999
 20
2.183892
 30
0.0
 11
38.763012
 21
2.195638
 31
0.0
  0
LINE
  5
5DE
330
1F
100
AcDbEntity
  8
1
  6
CONTINUOUS
370
50
 62
4
100
AcDbLine
 10
39.551052
 20
1.694183
 30
0.0
 11
39.415203
 21
1.737242
 31
0.0
  0
LINE
  5
5DF
330
1F
100
AcDbEntity
  8
1
  6
CONTINUOUS
370
50
 62
4
100
AcDbLine
 10
38.763012
 20
2.195638
 30
0.0
 11
38.7258
 21
2.207291
 31
0.0
  0
LINE
  5
5E0
330
1F
100
AcDbEntity
  8
1
  6
CONTINUOUS
370
50
 62
4
100
AcDbLine
 10
48.6702
 20
-1.881359
 30
0.0
 11
48.415394
 21
-1.801973
 31
0.0
  0
LINE
  5
5E1
330
1F
100
AcDbEntity
  8
1
  6
CONTINUOUS
370
50
 62
4
100
AcDbLine
 10
38.7258
 20
2.207291
 30
0.0
 11
38.68837
 21
2.218861
 31
0.0
  0
LINE
  5
5E2
330
1F
100
AcDbEntity
  8
1
  6
CONTINUOUS
370
50
 62
4
100
AcDbLine
 10
41.674175
 20
-0.076233
 30
0.0
 11
41.200001
 21
0.06961
 31
0.0
  0
LINE
  5
5E3
330
1F
100
AcDbEntity
  8
1
  6
CONTINUOUS
370
50
 62
4
100
AcDbLine
 10
38.68837
 20
2.218861
 30
0.0
 11
38.650726
 21
2.230355
 31
0.0
  0
LINE
  5
5E4
330
1F
100
AcDbEntity
  8
1
  6
CONTINUOUS
370
50
 62
4
100
AcDbLine
 10
38.650726
 20
2.230355
 30
0.0
 11
38.612881
 21
2.241782
 31
0.0
  0
LINE
  5
5E5
330
1F
100
AcDbEntity
  8
1
  6
CONTINUOUS
370
50
 62
4
100
AcDbLine
 10
38.612881
 20
2.241782
 30
0.0
 11
38.574837
 21
2.253152
 31
0.0
  0
LINE
  5
5E6
330
1F
100
AcDbEntity
  8
1
  6
CONTINUOUS
370
50
 62
4
100
AcDbLine
 10
42.148361
 20
-0.217547
 30
0.0
 11
41.674175
 21
-0.076233
 31
0.0
  0
LINE
  5
5E7
330
1F
100
AcDbEntity
  8
1
  6
CONTINUOUS
370
50
 62
4
100
AcDbLine
 10
38.574837
 20
2.253152
 30
0.0
 11
38.53661
 21
2.264473
 31
0.0
  0
LINE
  5
5E8
330
1F
100
AcDbEntity
  8
1
  6
CONTINUOUS
370
50
 62
4
100
AcDbLine
 10
39.690113
 20
1.653907
 30
0.0
 11
39.551052
 21
1.694183
 31
0.0
  0
LINE
  5
5E9
330
1F
100
AcDbEntity
  8
1
  6
CONTINUOUS
370
50
 62
4
100
AcDbLine
 10
38.47176
 20
2.290272
 30
0.0
 11
38.455208
 21
2.295065
 31
0.0
  0
LINE
  5
5EA
330
1F
100
AcDbEntity
  8
1
  6
CONTINUOUS
370
50
 62
4
100
AcDbLine
 10
42.62251699999999
 20
-0.354803
 30
0.0
 11
42.148361
 21
-0.217547
 31
0.0
  0
LINE
  5
5EB
330
1F
100
AcDbEntity
  8
1
  6
CONTINUOUS
370
50
 62
4
100
AcDbLine
 10
43.096657
 20
-0.488319
 30
0.0
 11
42.62251699999999
 21
-0.354803
 31
0.0
  0
LINE
  5
5EC
330
1F
100
AcDbEntity
  8
1
  6
CONTINUOUS
370
50
 62
4
100
AcDbLine
 10
39.225227
 20
2.109391
 30
0.0
 11
39.147644
 21
2.131092
 31
0.0
  0
LINE
  5
5ED
330
1F
100
AcDbEntity
  8
1
  6
CONTINUOUS
370
50
 62
4
100
AcDbLine
 10
48.925373
 20
-1.952383
 30
0.0
 11
48.6702
 21
-1.881359
 31
0.0
  0
LINE
  5
5EE
330
1F
100
AcDbEntity
  8
1
  6
CONTINUOUS
370
50
 62
4
100
AcDbLine
 10
38.455189
 20
2.295071
 30
0.0
 11
35.900002
 21
2.99995
 31
0.0
  0
LINE
  5
5EF
330
1F
100
AcDbEntity
  8
1
  6
CONTINUOUS
370
50
 62
4
100
AcDbLine
 10
43.57082
 20
-0.617567
 30
0.0
 11
43.096657
 21
-0.488319
 31
0.0
  0
LINE
  5
5F0
330
1F
100
AcDbEntity
  8
1
  6
CONTINUOUS
370
50
 62
4
100
AcDbLine
 10
40.022243
 20
1.587103
 30
0.0
 11
39.948235
 21
1.606909
 31
0.0
  0
LINE
  5
5F1
330
1F
100
AcDbEntity
  8
1
  6
CONTINUOUS
370
50
 62
4
100
AcDbLine
 10
49.746044
 20
0.421463
 30
0.0
 11
48.860191
 21
0.656818
 31
0.0
  0
LINE
  5
5F2
330
1F
100
AcDbEntity
  8
1
  6
CONTINUOUS
370
50
 62
4
100
AcDbLine
 10
39.832092
 20
1.616745
 30
0.0
 11
39.690113
 21
1.653907
 31
0.0
  0
LINE
  5
5F3
330
1F
100
AcDbEntity
  8
1
  6
CONTINUOUS
370
50
 62
4
100
AcDbLine
 10
40.731838
 20
-1.629444
 30
0.0
 11
40.639603
 21
-1.605367
 31
0.0
  0
LINE
  5
5F4
330
1F
100
AcDbEntity
  8
1
  6
CONTINUOUS
370
50
 62
4
100
AcDbLine
 10
38.455208
 20
2.295065
 30
0.0
 11
38.425598
 21
2.302629
 31
0.0
  0
LINE
  5
5F5
330
1F
100
AcDbEntity
  8
1
  6
CONTINUOUS
370
50
 62
4
100
AcDbLine
 10
41.879333
 20
-0.758548
 30
0.0
 11
41.200001
 21
-0.5864349999999999
 31
0.0
  0
LINE
  5
5F6
330
1F
100
AcDbEntity
  8
1
  6
CONTINUOUS
370
50
 62
4
100
AcDbLine
 10
48.5541
 20
-2.045624
 30
0.0
 11
47.98950199999999
 21
-1.903565
 31
0.0
  0
LINE
  5
5F7
330
1F
100
AcDbEntity
  8
1
  6
CONTINUOUS
370
50
 62
4
100
AcDbLine
 10
44.04501
 20
-0.734649
 30
0.0
 11
43.57082
 21
-0.617567
 31
0.0
  0
LINE
  5
5F8
330
1F
100
AcDbEntity
  8
1
  6
CONTINUOUS
370
50
 62
4
100
AcDbLine
 10
49.181858
 20
-2.015374
 30
0.0
 11
48.925373
 21
-1.952383
 31
0.0
  0
LINE
  5
5F9
330
1F
100
AcDbEntity
  8
1
  6
CONTINUOUS
370
50
 62
4
100
AcDbLine
 10
39.976688
 20
1.583025
 30
0.0
 11
39.832092
 21
1.616745
 31
0.0
  0
LINE
  5
5FA
330
1F
100
AcDbEntity
  8
1
  6
CONTINUOUS
370
50
 62
4
100
AcDbLine
 10
48.860191
 20
0.656818
 30
0.0
 11
48.031204
 21
0.845735
 31
0.0
  0
LINE
  5
5FB
330
1F
100
AcDbEntity
  8
1
  6
CONTINUOUS
370
50
 62
4
100
AcDbLine
 10
38.425598
 20
2.302629
 30
0.0
 11
38.392765
 21
2.309872
 31
0.0
  0
LINE
  5
5FC
330
1F
100
AcDbEntity
  8
1
  6
CONTINUOUS
370
50
 62
4
100
AcDbLine
 10
39.147644
 20
2.131092
 30
0.0
 11
39.066074
 21
2.149071
 31
0.0
  0
LINE
  5
5FD
330
1F
100
AcDbEntity
  8
1
  6
CONTINUOUS
370
50
 62
4
100
AcDbLine
 10
44.519192
 20
-0.838324
 30
0.0
 11
44.04501
 21
-0.734649
 31
0.0
  0
LINE
  5
5FE
330
1F
100
AcDbEntity
  8
1
  6
CONTINUOUS
370
50
 62
4
100
AcDbLine
 10
49.438614
 20
-2.069911
 30
0.0
 11
49.181858
 21
-2.015374
 31
0.0
  0
LINE
  5
5FF
330
1F
100
AcDbEntity
  8
1
  6
CONTINUOUS
370
50
 62
4
100
AcDbLine
 10
41.261154
 20
1.83282
 30
0.0
 11
41.199932
 21
1.845711
 31
0.0
  0
LINE
  5
600
330
1F
100
AcDbEntity
  8
1
  6
CONTINUOUS
370
50
 62
4
100
AcDbLine
 10
41.32238
 20
1.820007
 30
0.0
 11
41.261154
 21
1.83282
 31
0.0
  0
LINE
  5
601
330
1F
100
AcDbEntity
  8
1
  6
CONTINUOUS
370
50
 62
4
100
AcDbLine
 10
41.383633
 20
1.807268
 30
0.0
 11
41.32238
 21
1.820007
 31
0.0
  0
LINE
  5
602
330
1F
100
AcDbEntity
  8
1
  6
CONTINUOUS
370
50
 62
4
100
AcDbLine
 10
41.444885
 20
1.794609
 30
0.0
 11
41.383633
 21
1.807268
 31
0.0
  0
LINE
  5
603
330
1F
100
AcDbEntity
  8
1
  6
CONTINUOUS
370
50
 62
4
100
AcDbLine
 10
41.506165
 20
1.782024
 30
0.0
 11
41.444885
 21
1.794609
 31
0.0
  0
LINE
  5
604
330
1F
100
AcDbEntity
  8
1
  6
CONTINUOUS
370
50
 62
4
100
AcDbLine
 10
41.56744399999999
 20
1.769518
 30
0.0
 11
41.506165
 21
1.782024
 31
0.0
  0
LINE
  5
605
330
1F
100
AcDbEntity
  8
1
  6
CONTINUOUS
370
50
 62
4
100
AcDbLine
 10
40.1236
 20
1.553077
 30
0.0
 11
39.976688
 21
1.583025
 31
0.0
  0
LINE
  5
606
330
1F
100
AcDbEntity
  8
1
  6
CONTINUOUS
370
50
 62
4
100
AcDbLine
 10
42.580269
 20
-0.9010579999999999
 30
0.0
 11
41.879333
 21
-0.758548
 31
0.0
  0
LINE
  5
607
330
1F
100
AcDbEntity
  8
1
  6
CONTINUOUS
370
50
 62
4
100
AcDbLine
 10
41.62875
 20
1.757085
 30
0.0
 11
41.56744399999999
 21
1.769518
 31
0.0
  0
LINE
  5
608
330
1F
100
AcDbEntity
  8
1
  6
CONTINUOUS
370
50
 62
4
100
AcDbLine
 10
41.690056
 20
1.744732
 30
0.0
 11
41.62875
 21
1.757085
 31
0.0
  0
LINE
  5
609
330
1F
100
AcDbEntity
  8
1
  6
CONTINUOUS
370
50
 62
4
100
AcDbLine
 10
41.746727
 20
1.733381
 30
0.0
 11
41.690056
 21
1.744732
 31
0.0
  0
LINE
  5
60A
330
1F
100
AcDbEntity
  8
1
  6
CONTINUOUS
370
50
 62
4
100
AcDbLine
 10
41.805901
 20
1.721599
 30
0.0
 11
41.746727
 21
1.733381
 31
0.0
  0
LINE
  5
60B
330
1F
100
AcDbEntity
  8
1
  6
CONTINUOUS
370
50
 62
4
100
AcDbLine
 10
48.031204
 20
0.845735
 30
0.0
 11
47.45958299999999
 21
0.959237
 31
0.0
  0
LINE
  5
60C
330
1F
100
AcDbEntity
  8
1
  6
CONTINUOUS
370
50
 62
4
100
AcDbLine
 10
41.865074
 20
1.709887
 30
0.0
 11
41.805901
 21
1.721599
 31
0.0
  0
LINE
  5
60D
330
1F
100
AcDbEntity
  8
1
  6
CONTINUOUS
370
50
 62
4
100
AcDbLine
 10
41.924248
 20
1.698245
 30
0.0
 11
41.865074
 21
1.709887
 31
0.0
  0
LINE
  5
60E
330
1F
100
AcDbEntity
  8
1
  6
CONTINUOUS
370
50
 62
4
100
AcDbLine
 10
41.983425
 20
1.686672
 30
0.0
 11
41.924248
 21
1.698245
 31
0.0
  0
LINE
  5
60F
330
1F
100
AcDbEntity
  8
1
  6
CONTINUOUS
370
50
 62
4
100
AcDbLine
 10
42.042622
 20
1.675162
 30
0.0
 11
41.983425
 21
1.686672
 31
0.0
  0
LINE
  5
610
330
1F
100
AcDbEntity
  8
1
  6
CONTINUOUS
370
50
 62
4
100
AcDbLine
 10
40.639603
 20
-1.605367
 30
0.0
 11
40.504036
 21
-1.579103
 31
0.0
  0
LINE
  5
611
330
1F
100
AcDbEntity
  8
1
  6
CONTINUOUS
370
50
 62
4
100
AcDbLine
 10
42.101818
 20
1.663719
 30
0.0
 11
42.042622
 21
1.675162
 31
0.0
  0
LINE
  5
612
330
1F
100
AcDbEntity
  8
1
  6
CONTINUOUS
370
50
 62
4
100
AcDbLine
 10
44.99334
 20
-0.929496
 30
0.0
 11
44.519192
 21
-0.838324
 31
0.0
  0
LINE
  5
613
330
1F
100
AcDbEntity
  8
1
  6
CONTINUOUS
370
50
 62
4
100
AcDbLine
 10
42.161015
 20
1.652341
 30
0.0
 11
42.101818
 21
1.663719
 31
0.0
  0
LINE
  5
614
330
1F
100
AcDbEntity
  8
1
  6
CONTINUOUS
370
50
 62
4
100
AcDbLine
 10
38.392765
 20
2.309872
 30
0.0
 11
38.356678
 21
2.316794
 31
0.0
  0
LINE
  5
615
330
1F
100
AcDbEntity
  8
1
  6
CONTINUOUS
370
50
 62
4
100
AcDbLine
 10
42.220211
 20
1.641027
 30
0.0
 11
42.161015
 21
1.652341
 31
0.0
  0
LINE
  5
616
330
1F
100
AcDbEntity
  8
1
  6
CONTINUOUS
370
50
 62
4
100
AcDbLine
 10
42.29351399999999
 20
1.627105
 30
0.0
 11
42.220211
 21
1.641027
 31
0.0
  0
LINE
  5
617
330
1F
100
AcDbEntity
  8
1
  6
CONTINUOUS
370
50
 62
4
100
AcDbLine
 10
42.350803
 20
1.61629
 30
0.0
 11
42.29351399999999
 21
1.627105
 31
0.0
  0
LINE
  5
618
330
1F
100
AcDbEntity
  8
1
  6
CONTINUOUS
370
50
 62
4
100
AcDbLine
 10
42.408096
 20
1.605531
 30
0.0
 11
42.350803
 21
1.61629
 31
0.0
  0
LINE
  5
619
330
1F
100
AcDbEntity
  8
1
  6
CONTINUOUS
370
50
 62
4
100
AcDbLine
 10
42.46538899999999
 20
1.594828
 30
0.0
 11
42.408096
 21
1.605531
 31
0.0
  0
LINE
  5
61A
330
1F
100
AcDbEntity
  8
1
  6
CONTINUOUS
370
50
 62
4
100
AcDbLine
 10
42.522682
 20
1.58418
 30
0.0
 11
42.46538899999999
 21
1.594828
 31
0.0
  0
LINE
  5
61B
330
1F
100
AcDbEntity
  8
1
  6
CONTINUOUS
370
50
 62
4
100
AcDbLine
 10
42.57996
 20
1.573588
 30
0.0
 11
42.522682
 21
1.58418
 31
0.0
  0
LINE
  5
61C
330
1F
100
AcDbEntity
  8
1
  6
CONTINUOUS
370
50
 62
4
100
AcDbLine
 10
42.637241
 20
1.56305
 30
0.0
 11
42.57996
 21
1.573588
 31
0.0
  0
LINE
  5
61D
330
1F
100
AcDbEntity
  8
1
  6
CONTINUOUS
370
50
 62
4
100
AcDbLine
 10
42.694519
 20
1.552564
 30
0.0
 11
42.637241
 21
1.56305
 31
0.0
  0
LINE
  5
61E
330
1F
100
AcDbEntity
  8
1
  6
CONTINUOUS
370
50
 62
4
100
AcDbLine
 10
42.751801
 20
1.542129
 30
0.0
 11
42.694519
 21
1.552564
 31
0.0
  0
LINE
  5
61F
330
1F
100
AcDbEntity
  8
1
  6
CONTINUOUS
370
50
 62
4
100
AcDbLine
 10
42.84034
 20
1.526101
 30
0.0
 11
42.751801
 21
1.542129
 31
0.0
  0
LINE
  5
620
330
1F
100
AcDbEntity
  8
1
  6
CONTINUOUS
370
50
 62
4
100
AcDbLine
 10
42.894611
 20
1.516335
 30
0.0
 11
42.84034
 21
1.526101
 31
0.0
  0
LINE
  5
621
330
1F
100
AcDbEntity
  8
1
  6
CONTINUOUS
370
50
 62
4
100
AcDbLine
 10
40.10575499999999
 20
1.572128
 30
0.0
 11
40.022243
 21
1.587103
 31
0.0
  0
LINE
  5
622
330
1F
100
AcDbEntity
  8
1
  6
CONTINUOUS
370
50
 62
4
100
AcDbLine
 10
42.948883
 20
1.506616
 30
0.0
 11
42.894611
 21
1.516335
 31
0.0
  0
LINE
  5
623
330
1F
100
AcDbEntity
  8
1
  6
CONTINUOUS
370
50
 62
4
100
AcDbLine
 10
49.69455
 20
-2.115549
 30
0.0
 11
49.438614
 21
-2.069911
 31
0.0
  0
LINE
  5
624
330
1F
100
AcDbEntity
  8
1
  6
CONTINUOUS
370
50
 62
4
100
AcDbLine
 10
43.003151
 20
1.496941
 30
0.0
 11
42.948883
 21
1.506616
 31
0.0
  0
LINE
  5
625
330
1F
100
AcDbEntity
  8
1
  6
CONTINUOUS
370
50
 62
4
100
AcDbLine
 10
43.057423
 20
1.487311
 30
0.0
 11
43.003151
 21
1.496941
 31
0.0
  0
LINE
  5
626
330
1F
100
AcDbEntity
  8
1
  6
CONTINUOUS
370
50
 62
4
100
AcDbLine
 10
43.111652
 20
1.477733
 30
0.0
 11
43.057423
 21
1.487311
 31
0.0
  0
LINE
  5
627
330
1F
100
AcDbEntity
  8
1
  6
CONTINUOUS
370
50
 62
4
100
AcDbLine
 10
43.165878
 20
1.468201
 30
0.0
 11
43.111652
 21
1.477733
 31
0.0
  0
LINE
  5
628
330
1F
100
AcDbEntity
  8
1
  6
CONTINUOUS
370
50
 62
4
100
AcDbLine
 10
43.220108
 20
1.458715
 30
0.0
 11
43.165878
 21
1.468201
 31
0.0
  0
LINE
  5
629
330
1F
100
AcDbEntity
  8
1
  6
CONTINUOUS
370
50
 62
4
100
AcDbLine
 10
43.274334
 20
1.449275
 30
0.0
 11
43.220108
 21
1.458715
 31
0.0
  0
LINE
  5
62A
330
1F
100
AcDbEntity
  8
1
  6
CONTINUOUS
370
50
 62
4
100
AcDbLine
 10
40.27253
 20
1.527231
 30
0.0
 11
40.1236
 21
1.553077
 31
0.0
  0
LINE
  5
62B
330
1F
100
AcDbEntity
  8
1
  6
CONTINUOUS
370
50
 62
4
100
AcDbLine
 10
43.330757
 20
1.439502
 30
0.0
 11
43.274334
 21
1.449275
 31
0.0
  0
LINE
  5
62C
330
1F
100
AcDbEntity
  8
1
  6
CONTINUOUS
370
50
 62
4
100
AcDbLine
 10
43.387173
 20
1.429782
 30
0.0
 11
43.330757
 21
1.439502
 31
0.0
  0
LINE
  5
62D
330
1F
100
AcDbEntity
  8
1
  6
CONTINUOUS
370
50
 62
4
100
AcDbLine
 10
43.437534
 20
1.421173
 30
0.0
 11
43.387173
 21
1.429782
 31
0.0
  0
LINE
  5
62E
330
1F
100
AcDbEntity
  8
1
  6
CONTINUOUS
370
50
 62
4
100
AcDbLine
 10
39.066074
 20
2.149071
 30
0.0
 11
38.980774
 21
2.163649
 31
0.0
  0
LINE
  5
62F
330
1F
100
AcDbEntity
  8
1
  6
CONTINUOUS
370
50
 62
4
100
AcDbLine
 10
43.25814099999999
 20
-1.016718
 30
0.0
 11
42.580269
 21
-0.9010579999999999
 31
0.0
  0
LINE
  5
630
330
1F
100
AcDbEntity
  8
1
  6
CONTINUOUS
370
50
 62
4
100
AcDbLine
 10
43.487896
 20
1.412689
 30
0.0
 11
43.437534
 21
1.421173
 31
0.0
  0
LINE
  5
631
330
1F
100
AcDbEntity
  8
1
  6
CONTINUOUS
370
50
 62
4
100
AcDbLine
 10
38.356678
 20
2.316794
 30
0.0
 11
38.317318
 21
2.323398
 31
0.0
  0
LINE
  5
632
330
1F
100
AcDbEntity
  8
1
  6
CONTINUOUS
370
50
 62
4
100
AcDbLine
 10
43.53828
 20
1.404326
 30
0.0
 11
43.487896
 21
1.412689
 31
0.0
  0
LINE
  5
633
330
1F
100
AcDbEntity
  8
1
  6
CONTINUOUS
370
50
 62
4
100
AcDbLine
 10
45.46747999999999
 20
-1.0081
 30
0.0
 11
44.99334
 21
-0.929496
 31
0.0
  0
LINE
  5
634
330
1F
100
AcDbEntity
  8
1
  6
CONTINUOUS
370
50
 62
4
100
AcDbLine
 10
43.588665
 20
1.396089
 30
0.0
 11
43.53828
 21
1.404326
 31
0.0
  0
LINE
  5
635
330
1F
100
AcDbEntity
  8
1
  6
CONTINUOUS
370
50
 62
4
100
AcDbLine
 10
43.63908
 20
1.387971
 30
0.0
 11
43.588665
 21
1.396089
 31
0.0
  0
LINE
  5
636
330
1F
100
AcDbEntity
  8
1
  6
CONTINUOUS
370
50
 62
4
100
AcDbLine
 10
49.265232
 20
-2.159259
 30
0.0
 11
48.5541
 21
-2.045624
 31
0.0
  0
LINE
  5
637
330
1F
100
AcDbEntity
  8
1
  6
CONTINUOUS
370
50
 62
4
100
AcDbLine
 10
43.689495
 20
1.379976
 30
0.0
 11
43.63908
 21
1.387971
 31
0.0
  0
LINE
  5
638
330
1F
100
AcDbEntity
  8
1
  6
CONTINUOUS
370
50
 62
4
100
AcDbLine
 10
43.73990999999999
 20
1.372104
 30
0.0
 11
43.689495
 21
1.379976
 31
0.0
  0
LINE
  5
639
330
1F
100
AcDbEntity
  8
1
  6
CONTINUOUS
370
50
 62
4
100
AcDbLine
 10
43.790325
 20
1.364353
 30
0.0
 11
43.73990999999999
 21
1.372104
 31
0.0
  0
LINE
  5
63A
330
1F
100
AcDbEntity
  8
1
  6
CONTINUOUS
370
50
 62
4
100
AcDbLine
 10
47.45958299999999
 20
0.959237
 30
0.0
 11
46.926102
 21
1.040046
 31
0.0
  0
LINE
  5
63B
330
1F
100
AcDbEntity
  8
1
  6
CONTINUOUS
370
50
 62
4
100
AcDbLine
 10
43.862129
 20
1.35352
 30
0.0
 11
43.790325
 21
1.364353
 31
0.0
  0
LINE
  5
63C
330
1F
100
AcDbEntity
  8
1
  6
CONTINUOUS
370
50
 62
4
100
AcDbLine
 10
43.933929
 20
1.342927
 30
0.0
 11
43.862129
 21
1.35352
 31
0.0
  0
LINE
  5
63D
330
1F
100
AcDbEntity
  8
1
  6
CONTINUOUS
370
50
 62
4
100
AcDbLine
 10
38.317318
 20
2.323398
 30
0.0
 11
38.274658
 21
2.329684
 31
0.0
  0
LINE
  5
63E
330
1F
100
AcDbEntity
  8
1
  6
CONTINUOUS
370
50
 62
4
100
AcDbLine
 10
44.030159
 20
1.329101
 30
0.0
 11
43.933929
 21
1.342927
 31
0.0
  0
LINE
  5
63F
330
1F
100
AcDbEntity
  8
1
  6
CONTINUOUS
370
50
 62
4
100
AcDbLine
 10
49.94857
 20
-2.151844
 30
0.0
 11
49.69455
 21
-2.115549
 31
0.0
  0
LINE
  5
640
330
1F
100
AcDbEntity
  8
1
  6
CONTINUOUS
370
50
 62
4
100
AcDbLine
 10
44.126389
 20
1.315693
 30
0.0
 11
44.030159
 21
1.329101
 31
0.0
  0
LINE
  5
641
330
1F
100
AcDbEntity
  8
1
  6
CONTINUOUS
370
50
 62
4
100
AcDbLine
 10
45.94165
 20
-1.072152
 30
0.0
 11
45.46747999999999
 21
-1.0081
 31
0.0
  0
LINE
  5
642
330
1F
100
AcDbEntity
  8
1
  6
CONTINUOUS
370
50
 62
4
100
AcDbLine
 10
44.222656
 20
1.302689
 30
0.0
 11
44.126389
 21
1.315693
 31
0.0
  0
LINE
  5
643
330
1F
100
AcDbEntity
  8
1
  6
CONTINUOUS
370
50
 62
4
100
AcDbLine
 10
49.072826
 20
1.049219
 30
0.0
 11
49.072548
 21
1.049256
 31
0.0
  0
LINE
  5
644
330
1F
100
AcDbEntity
  8
1
  6
CONTINUOUS
370
50
 62
4
100
AcDbLine
 10
49.072548
 20
1.049256
 30
0.0
 11
49.072269
 21
1.049293
 31
0.0
  0
LINE
  5
645
330
1F
100
AcDbEntity
  8
1
  6
CONTINUOUS
370
50
 62
4
100
AcDbLine
 10
49.07338
 20
1.049147
 30
0.0
 11
49.073105
 21
1.049183
 31
0.0
  0
LINE
  5
646
330
1F
100
AcDbEntity
  8
1
  6
CONTINUOUS
370
50
 62
4
100
AcDbLine
 10
44.318928
 20
1.290087
 30
0.0
 11
44.222656
 21
1.302689
 31
0.0
  0
LINE
  5
647
330
1F
100
AcDbEntity
  8
1
  6
CONTINUOUS
370
50
 62
4
100
AcDbLine
 10
38.274658
 20
2.329684
 30
0.0
 11
38.22866399999999
 21
2.335652
 31
0.0
  0
LINE
  5
648
330
1F
100
AcDbEntity
  8
1
  6
CONTINUOUS
370
50
 62
4
100
AcDbLine
 10
38.980774
 20
2.163649
 30
0.0
 11
38.891994
 21
2.175149
 31
0.0
  0
LINE
  5
649
330
1F
100
AcDbEntity
  8
1
  6
CONTINUOUS
370
50
 62
4
100
AcDbLine
 10
49.07365799999999
 20
1.049111
 30
0.0
 11
49.07338
 21
1.049147
 31
0.0
  0
LINE
  5
64A
330
1F
100
AcDbEntity
  8
1
  6
CONTINUOUS
370
50
 62
4
100
AcDbLine
 10
43.881523
 20
-1.097419
 30
0.0
 11
43.25814099999999
 21
-1.016718
 31
0.0
  0
LINE
  5
64B
330
1F
100
AcDbEntity
  8
1
  6
CONTINUOUS
370
50
 62
4
100
AcDbLine
 10
49.073105
 20
1.049183
 30
0.0
 11
49.072826
 21
1.049219
 31
0.0
  0
LINE
  5
64C
330
1F
100
AcDbEntity
  8
1
  6
CONTINUOUS
370
50
 62
4
100
AcDbLine
 10
44.399807
 20
1.279806
 30
0.0
 11
44.318928
 21
1.290087
 31
0.0
  0
LINE
  5
64D
330
1F
100
AcDbEntity
  8
1
  6
CONTINUOUS
370
50
 62
4
100
AcDbLine
 10
49.073936
 20
1.049076
 30
0.0
 11
49.07365799999999
 21
1.049111
 31
0.0
  0
LINE
  5
64E
330
1F
100
AcDbEntity
  8
1
  6
CONTINUOUS
370
50
 62
4
100
AcDbLine
 10
44.48069
 20
1.2698
 30
0.0
 11
44.399807
 21
1.279806
 31
0.0
  0
LINE
  5
64F
330
1F
100
AcDbEntity
  8
1
  6
CONTINUOUS
370
50
 62
4
100
AcDbLine
 10
44.573383
 20
1.258667
 30
0.0
 11
44.48069
 21
1.2698
 31
0.0
  0
LINE
  5
650
330
1F
100
AcDbEntity
  8
1
  6
CONTINUOUS
370
50
 62
4
100
AcDbLine
 10
40.147095
 20
1.567204
 30
0.0
 11
40.10575499999999
 21
1.572128
 31
0.0
  0
LINE
  5
651
330
1F
100
AcDbEntity
  8
1
  6
CONTINUOUS
370
50
 62
4
100
AcDbLine
 10
40.504036
 20
-1.579103
 30
0.0
 11
40.395088
 21
-1.566176
 31
0.0
  0
LINE
  5
652
330
1F
100
AcDbEntity
  8
1
  6
CONTINUOUS
370
50
 62
4
100
AcDbLine
 10
49.072269
 20
1.049293
 30
0.0
 11
48.80225
 21
1.0808
 31
0.0
  0
LINE
  5
653
330
1F
100
AcDbEntity
  8
1
  6
CONTINUOUS
370
50
 62
4
100
AcDbLine
 10
44.666077
 20
1.247888
 30
0.0
 11
44.573383
 21
1.258667
 31
0.0
  0
LINE
  5
654
330
1F
100
AcDbEntity
  8
1
  6
CONTINUOUS
370
50
 62
4
100
AcDbLine
 10
46.926102
 20
1.040046
 30
0.0
 11
46.401772
 21
1.09925
 31
0.0
  0
LINE
  5
655
330
1F
100
AcDbEntity
  8
1
  6
CONTINUOUS
370
50
 62
4
100
AcDbLine
 10
44.758774
 20
1.237458
 30
0.0
 11
44.666077
 21
1.247888
 31
0.0
  0
LINE
  5
656
330
1F
100
AcDbEntity
  8
1
  6
CONTINUOUS
370
50
 62
4
100
AcDbLine
 10
44.851471
 20
1.227375
 30
0.0
 11
44.758774
 21
1.237458
 31
0.0
  0
LINE
  5
657
330
1F
100
AcDbEntity
  8
1
  6
CONTINUOUS
370
50
 62
4
100
AcDbLine
 10
40.326874
 20
1.521424
 30
0.0
 11
40.27253
 21
1.527231
 31
0.0
  0
LINE
  5
658
330
1F
100
AcDbEntity
  8
1
  6
CONTINUOUS
370
50
 62
4
100
AcDbLine
 10
44.939487
 20
1.218121
 30
0.0
 11
44.851471
 21
1.227375
 31
0.0
  0
LINE
  5
659
330
1F
100
AcDbEntity
  8
1
  6
CONTINUOUS
370
50
 62
4
100
AcDbLine
 10
45.027508
 20
1.209177
 30
0.0
 11
44.939487
 21
1.218121
 31
0.0
  0
LINE
  5
65A
330
1F
100
AcDbEntity
  8
1
  6
CONTINUOUS
370
50
 62
4
100
AcDbLine
 10
45.114872
 20
1.200607
 30
0.0
 11
45.027508
 21
1.209177
 31
0.0
  0
LINE
  5
65B
330
1F
100
AcDbEntity
  8
1
  6
CONTINUOUS
370
50
 62
4
100
AcDbLine
 10
48.80225
 20
1.0808
 30
0.0
 11
48.532211
 21
1.107118
 31
0.0
  0
LINE
  5
65C
330
1F
100
AcDbEntity
  8
1
  6
CONTINUOUS
370
50
 62
4
100
AcDbLine
 10
38.891994
 20
2.175149
 30
0.0
 11
38.799999
 21
2.183892
 31
0.0
  0
LINE
  5
65D
330
1F
100
AcDbEntity
  8
1
  6
CONTINUOUS
370
50
 62
4
100
AcDbLine
 10
45.202232
 20
1.192345
 30
0.0
 11
45.114872
 21
1.200607
 31
0.0
  0
LINE
  5
65E
330
1F
100
AcDbEntity
  8
1
  6
CONTINUOUS
370
50
 62
4
100
AcDbLine
 10
45.289551
 20
1.184396
 30
0.0
 11
45.202232
 21
1.192345
 31
0.0
  0
LINE
  5
65F
330
1F
100
AcDbEntity
  8
1
  6
CONTINUOUS
370
50
 62
4
100
AcDbLine
 10
45.376865
 20
1.176761
 30
0.0
 11
45.289551
 21
1.184396
 31
0.0
  0
LINE
  5
660
330
1F
100
AcDbEntity
  8
1
  6
CONTINUOUS
370
50
 62
4
100
AcDbLine
 10
45.426231
 20
1.172583
 30
0.0
 11
45.376865
 21
1.176761
 31
0.0
  0
LINE
  5
661
330
1F
100
AcDbEntity
  8
1
  6
CONTINUOUS
370
50
 62
4
100
AcDbLine
 10
45.475601
 20
1.168508
 30
0.0
 11
45.426231
 21
1.172583
 31
0.0
  0
LINE
  5
662
330
1F
100
AcDbEntity
  8
1
  6
CONTINUOUS
370
50
 62
4
100
AcDbLine
 10
45.524967
 20
1.164536
 30
0.0
 11
45.475601
 21
1.168508
 31
0.0
  0
LINE
  5
663
330
1F
100
AcDbEntity
  8
1
  6
CONTINUOUS
370
50
 62
4
100
AcDbLine
 10
45.574333
 20
1.160668
 30
0.0
 11
45.524967
 21
1.164536
 31
0.0
  0
LINE
  5
664
330
1F
100
AcDbEntity
  8
1
  6
CONTINUOUS
370
50
 62
4
100
AcDbLine
 10
46.401772
 20
1.09925
 30
0.0
 11
45.881874
 21
1.139673
 31
0.0
  0
LINE
  5
665
330
1F
100
AcDbEntity
  8
1
  6
CONTINUOUS
370
50
 62
4
100
AcDbLine
 10
48.532211
 20
1.107118
 30
0.0
 11
48.262161
 21
1.128048
 31
0.0
  0
LINE
  5
666
330
1F
100
AcDbEntity
  8
1
  6
CONTINUOUS
370
50
 62
4
100
AcDbLine
 10
45.65119199999999
 20
1.154881
 30
0.0
 11
45.574333
 21
1.160668
 31
0.0
  0
LINE
  5
667
330
1F
100
AcDbEntity
  8
1
  6
CONTINUOUS
370
50
 62
4
100
AcDbLine
 10
40.381607
 20
1.517448
 30
0.0
 11
40.326874
 21
1.521424
 31
0.0
  0
LINE
  5
668
330
1F
100
AcDbEntity
  8
1
  6
CONTINUOUS
370
50
 62
4
100
AcDbLine
 10
44.541424
 20
-1.144892
 30
0.0
 11
43.881523
 21
-1.097419
 31
0.0
  0
LINE
  5
669
330
1F
100
AcDbEntity
  8
1
  6
CONTINUOUS
370
50
 62
4
100
AcDbLine
 10
40.217457
 20
1.562195
 30
0.0
 11
40.147095
 21
1.567204
 31
0.0
  0
LINE
  5
66A
330
1F
100
AcDbEntity
  8
1
  6
CONTINUOUS
370
50
 62
4
100
AcDbLine
 10
45.72805
 20
1.149453
 30
0.0
 11
45.65119199999999
 21
1.154881
 31
0.0
  0
LINE
  5
66B
330
1F
100
AcDbEntity
  8
1
  6
CONTINUOUS
370
50
 62
4
100
AcDbLine
 10
45.804962
 20
1.144381
 30
0.0
 11
45.72805
 21
1.149453
 31
0.0
  0
LINE
  5
66C
330
1F
100
AcDbEntity
  8
1
  6
CONTINUOUS
370
50
 62
4
100
AcDbLine
 10
45.881874
 20
1.139664
 30
0.0
 11
45.804962
 21
1.144381
 31
0.0
  0
LINE
  5
66D
330
1F
100
AcDbEntity
  8
1
  6
CONTINUOUS
370
50
 62
4
100
AcDbLine
 10
49.096237
 20
1.047763
 30
0.0
 11
49.073936
 21
1.049076
 31
0.0
  0
LINE
  5
66E
330
1F
100
AcDbEntity
  8
1
  6
CONTINUOUS
370
50
 62
4
100
AcDbLine
 10
49.980442
 20
-2.199991
 30
0.0
 11
49.265232
 21
-2.159259
 31
0.0
  0
LINE
  5
66F
330
1F
100
AcDbEntity
  8
1
  6
CONTINUOUS
370
50
 62
4
100
AcDbLine
 10
48.262161
 20
1.128048
 30
0.0
 11
47.992107
 21
1.143371
 31
0.0
  0
LINE
  5
670
330
1F
100
AcDbEntity
  8
1
  6
CONTINUOUS
370
50
 62
4
100
AcDbLine
 10
40.395088
 20
-1.566176
 30
0.0
 11
40.292763
 21
-1.561135
 31
0.0
  0
LINE
  5
671
330
1F
100
AcDbEntity
  8
1
  6
CONTINUOUS
370
50
 62
4
100
AcDbLine
 10
40.436573
 20
1.515296
 30
0.0
 11
40.381607
 21
1.517448
 31
0.0
  0
LINE
  5
672
330
1F
100
AcDbEntity
  8
1
  6
CONTINUOUS
370
50
 62
4
100
AcDbLine
 10
47.992107
 20
1.143371
 30
0.0
 11
47.722054
 21
1.152865
 31
0.0
  0
LINE
  5
673
330
1F
100
AcDbEntity
  8
1
  6
CONTINUOUS
370
50
 62
4
100
AcDbLine
 10
45.196213
 20
-1.160236
 30
0.0
 11
44.541424
 21
-1.144892
 31
0.0
  0
LINE
  5
674
330
1F
100
AcDbEntity
  8
1
  6
CONTINUOUS
370
50
 62
4
100
AcDbLine
 10
40.292763
 20
1.561135
 30
0.0
 11
40.217457
 21
1.562195
 31
0.0
  0
LINE
  5
675
330
1F
100
AcDbEntity
  8
1
  6
CONTINUOUS
370
50
 62
4
100
AcDbLine
 10
47.722054
 20
1.152865
 30
0.0
 11
47.452015
 21
1.15645
 31
0.0
  0
LINE
  5
676
330
1F
100
AcDbEntity
  8
1
  6
CONTINUOUS
370
50
 62
4
100
AcDbLine
 10
40.491619
 20
1.514962
 30
0.0
 11
40.436573
 21
1.515296
 31
0.0
  0
LINE
  5
677
330
1F
100
AcDbEntity
  8
1
  6
CONTINUOUS
370
50
 62
4
100
AcDbLine
 10
49.154507
 20
0.9171889999999999
 30
0.0
 11
49.045113
 21
0.9177369999999999
 31
0.0
  0
LINE
  5
678
330
1F
100
AcDbEntity
  8
1
  6
CONTINUOUS
370
50
 62
4
100
AcDbLine
 10
49.266109
 20
0.916642
 30
0.0
 11
49.154507
 21
0.9171889999999999
 31
0.0
  0
LINE
  5
679
330
1F
100
AcDbEntity
  8
1
  6
CONTINUOUS
370
50
 62
4
100
AcDbLine
 10
49.380192
 20
0.9160929999999999
 30
0.0
 11
49.266109
 21
0.916642
 31
0.0
  0
LINE
  5
67A
330
1F
100
AcDbEntity
  8
1
  6
CONTINUOUS
370
50
 62
4
100
AcDbLine
 10
49.49704
 20
0.9155449999999999
 30
0.0
 11
49.380192
 21
0.9160929999999999
 31
0.0
  0
LINE
  5
67B
330
1F
100
AcDbEntity
  8
1
  6
CONTINUOUS
370
50
 62
4
100
AcDbLine
 10
49.616924
 20
0.9149999999999999
 30
0.0
 11
49.49704
 21
0.9155449999999999
 31
0.0
  0
LINE
  5
67C
330
1F
100
AcDbEntity
  8
1
  6
CONTINUOUS
370
50
 62
4
100
AcDbLine
 10
49.74012399999999
 20
0.914461
 30
0.0
 11
49.616924
 21
0.9149999999999999
 31
0.0
  0
LINE
  5
67D
330
1F
100
AcDbEntity
  8
1
  6
CONTINUOUS
370
50
 62
4
100
AcDbLine
 10
49.866913
 20
0.9139299999999999
 30
0.0
 11
49.74012399999999
 21
0.914461
 31
0.0
  0
LINE
  5
67E
330
1F
100
AcDbEntity
  8
1
  6
CONTINUOUS
370
50
 62
4
100
AcDbLine
 10
46.864311
 20
1.157887
 30
0.0
 11
46.796242
 21
1.158072
 31
0.0
  0
LINE
  5
67F
330
1F
100
AcDbEntity
  8
1
  6
CONTINUOUS
370
50
 62
4
100
AcDbLine
 10
46.934925
 20
1.157696
 30
0.0
 11
46.864311
 21
1.157887
 31
0.0
  0
LINE
  5
680
330
1F
100
AcDbEntity
  8
1
  6
CONTINUOUS
370
50
 62
4
100
AcDbLine
 10
47.006657
 20
1.157503
 30
0.0
 11
46.934925
 21
1.157696
 31
0.0
  0
LINE
  5
681
330
1F
100
AcDbEntity
  8
1
  6
CONTINUOUS
370
50
 62
4
100
AcDbLine
 10
46.796242
 20
1.158072
 30
0.0
 11
46.728172
 21
1.158255
 31
0.0
  0
LINE
  5
682
330
1F
100
AcDbEntity
  8
1
  6
CONTINUOUS
370
50
 62
4
100
AcDbLine
 10
46.728172
 20
1.158255
 30
0.0
 11
46.660099
 21
1.158436
 31
0.0
  0
LINE
  5
683
330
1F
100
AcDbEntity
  8
1
  6
CONTINUOUS
370
50
 62
4
100
AcDbLine
 10
47.078262
 20
1.157313
 30
0.0
 11
47.006657
 21
1.157503
 31
0.0
  0
LINE
  5
684
330
1F
100
AcDbEntity
  8
1
  6
CONTINUOUS
370
50
 62
4
100
AcDbLine
 10
47.149864
 20
1.157125
 30
0.0
 11
47.078262
 21
1.157313
 31
0.0
  0
LINE
  5
685
330
1F
100
AcDbEntity
  8
1
  6
CONTINUOUS
370
50
 62
4
100
AcDbLine
 10
46.660099
 20
1.158436
 30
0.0
 11
46.589287
 21
1.158621
 31
0.0
  0
LINE
  5
686
330
1F
100
AcDbEntity
  8
1
  6
CONTINUOUS
370
50
 62
4
100
AcDbLine
 10
47.22501399999999
 20
1.156933
 30
0.0
 11
47.149864
 21
1.157125
 31
0.0
  0
LINE
  5
687
330
1F
100
AcDbEntity
  8
1
  6
CONTINUOUS
370
50
 62
4
100
AcDbLine
 10
46.589287
 20
1.158621
 30
0.0
 11
46.507195
 21
1.15883
 31
0.0
  0
LINE
  5
688
330
1F
100
AcDbEntity
  8
1
  6
CONTINUOUS
370
50
 62
4
100
AcDbLine
 10
47.30072
 20
1.156745
 30
0.0
 11
47.22501399999999
 21
1.156933
 31
0.0
  0
LINE
  5
689
330
1F
100
AcDbEntity
  8
1
  6
CONTINUOUS
370
50
 62
4
100
AcDbLine
 10
46.507195
 20
1.15883
 30
0.0
 11
46.426842
 21
1.159026
 31
0.0
  0
LINE
  5
68A
330
1F
100
AcDbEntity
  8
1
  6
CONTINUOUS
370
50
 62
4
100
AcDbLine
 10
47.376369
 20
1.156562
 30
0.0
 11
47.30072
 21
1.156745
 31
0.0
  0
LINE
  5
68B
330
1F
100
AcDbEntity
  8
1
  6
CONTINUOUS
370
50
 62
4
100
AcDbLine
 10
46.426842
 20
1.159026
 30
0.0
 11
46.344097
 21
1.159218
 31
0.0
  0
LINE
  5
68C
330
1F
100
AcDbEntity
  8
1
  6
CONTINUOUS
370
50
 62
4
100
AcDbLine
 10
47.452015
 20
1.156387
 30
0.0
 11
47.376369
 21
1.156562
 31
0.0
  0
LINE
  5
68D
330
1F
100
AcDbEntity
  8
1
  6
CONTINUOUS
370
50
 62
4
100
AcDbLine
 10
46.344097
 20
1.159218
 30
0.0
 11
46.276371
 21
1.159365
 31
0.0
  0
LINE
  5
68E
330
1F
100
AcDbEntity
  8
1
  6
CONTINUOUS
370
50
 62
4
100
AcDbLine
 10
46.276371
 20
1.159365
 30
0.0
 11
46.21704099999999
 21
1.159486
 31
0.0
  0
LINE
  5
68F
330
1F
100
AcDbEntity
  8
1
  6
CONTINUOUS
370
50
 62
4
100
AcDbLine
 10
46.21704099999999
 20
1.159486
 30
0.0
 11
46.157711
 21
1.159598
 31
0.0
  0
LINE
  5
690
330
1F
100
AcDbEntity
  8
1
  6
CONTINUOUS
370
50
 62
4
100
AcDbLine
 10
46.157711
 20
1.159598
 30
0.0
 11
46.098381
 21
1.159701
 31
0.0
  0
LINE
  5
691
330
1F
100
AcDbEntity
  8
1
  6
CONTINUOUS
370
50
 62
4
100
AcDbLine
 10
46.098381
 20
1.159701
 30
0.0
 11
46.024658
 21
1.159814
 31
0.0
  0
LINE
  5
692
330
1F
100
AcDbEntity
  8
1
  6
CONTINUOUS
370
50
 62
4
100
AcDbLine
 10
46.024658
 20
1.159814
 30
0.0
 11
45.935551
 21
1.159928
 31
0.0
  0
LINE
  5
693
330
1F
100
AcDbEntity
  8
1
  6
CONTINUOUS
370
50
 62
4
100
AcDbLine
 10
45.935551
 20
1.159928
 30
0.0
 11
45.84882
 21
1.160011
 31
0.0
  0
LINE
  5
694
330
1F
100
AcDbEntity
  8
1
  6
CONTINUOUS
370
50
 62
4
100
AcDbLine
 10
45.84882
 20
1.160011
 30
0.0
 11
45.757351
 21
1.160066
 31
0.0
  0
LINE
  5
695
330
1F
100
AcDbEntity
  8
1
  6
CONTINUOUS
370
50
 62
4
100
AcDbLine
 10
45.757351
 20
1.160066
 30
0.0
 11
45.700058
 21
1.160083
 31
0.0
  0
LINE
  5
696
330
1F
100
AcDbEntity
  8
1
  6
CONTINUOUS
370
50
 62
4
100
AcDbLine
 10
45.601913
 20
-1.160076
 30
0.0
 11
45.547638
 21
-1.160064
 31
0.0
  0
LINE
  5
697
330
1F
100
AcDbEntity
  8
1
  6
CONTINUOUS
370
50
 62
4
100
AcDbLine
 10
45.656189
 20
-1.160086
 30
0.0
 11
45.601913
 21
-1.160076
 31
0.0
  0
LINE
  5
698
330
1F
100
AcDbEntity
  8
1
  6
CONTINUOUS
370
50
 62
4
100
AcDbLine
 10
45.547638
 20
-1.160064
 30
0.0
 11
45.468018
 21
-1.160061
 31
0.0
  0
LINE
  5
699
330
1F
100
AcDbEntity
  8
1
  6
CONTINUOUS
370
50
 62
4
100
AcDbLine
 10
45.700058
 20
1.160083
 30
0.0
 11
45.647129
 21
1.160085
 31
0.0
  0
LINE
  5
69A
330
1F
100
AcDbEntity
  8
1
  6
CONTINUOUS
370
50
 62
4
100
AcDbLine
 10
49.992664
 20
-2.2
 30
0.0
 11
50.0
 21
-2.2
 31
0.0
  0
LINE
  5
69B
330
1F
100
AcDbEntity
  8
1
  6
CONTINUOUS
370
50
 62
4
100
AcDbLine
 10
45.656189
 20
-1.160086
 30
0.0
 11
45.71046399999999
 21
-1.160081
 31
0.0
  0
LINE
  5
69C
330
1F
100
AcDbEntity
  8
1
  6
CONTINUOUS
370
50
 62
4
100
AcDbLine
 10
45.37667099999999
 20
-1.160079
 30
0.0
 11
45.468018
 21
-1.160061
 31
0.0
  0
LINE
  5
69D
330
1F
100
AcDbEntity
  8
1
  6
CONTINUOUS
370
50
 62
4
100
AcDbLine
 10
45.5942
 20
1.160074
 30
0.0
 11
45.647129
 21
1.160085
 31
0.0
  0
LINE
  5
69E
330
1F
100
AcDbEntity
  8
1
  6
CONTINUOUS
370
50
 62
4
100
AcDbLine
 10
45.71046399999999
 20
-1.160081
 30
0.0
 11
45.78005599999999
 21
-1.160056
 31
0.0
  0
LINE
  5
69F
330
1F
100
AcDbEntity
  8
1
  6
CONTINUOUS
370
50
 62
4
100
AcDbLine
 10
45.286446
 20
-1.160117
 30
0.0
 11
45.37667099999999
 21
-1.160079
 31
0.0
  0
LINE
  5
6A0
330
1F
100
AcDbEntity
  8
1
  6
CONTINUOUS
370
50
 62
4
100
AcDbLine
 10
45.196213
 20
-1.160174
 30
0.0
 11
45.286446
 21
-1.160117
 31
0.0
  0
LINE
  5
6A1
330
1F
100
AcDbEntity
  8
1
  6
CONTINUOUS
370
50
 62
4
100
AcDbLine
 10
45.78005599999999
 20
-1.160056
 30
0.0
 11
45.874332
 21
-1.15999
 31
0.0
  0
LINE
  5
6A2
330
1F
100
AcDbEntity
  8
1
  6
CONTINUOUS
370
50
 62
4
100
AcDbLine
 10
45.874332
 20
-1.15999
 30
0.0
 11
45.96497
 21
-1.159894
 31
0.0
  0
LINE
  5
6A3
330
1F
100
AcDbEntity
  8
1
  6
CONTINUOUS
370
50
 62
4
100
AcDbLine
 10
45.96497
 20
-1.159894
 30
0.0
 11
46.059406
 21
-1.159763
 31
0.0
  0
LINE
  5
6A4
330
1F
100
AcDbEntity
  8
1
  6
CONTINUOUS
370
50
 62
4
100
AcDbLine
 10
46.059406
 20
-1.159763
 30
0.0
 11
46.123116
 21
-1.159659
 31
0.0
  0
LINE
  5
6A5
330
1F
100
AcDbEntity
  8
1
  6
CONTINUOUS
370
50
 62
4
100
AcDbLine
 10
40.217457
 20
-1.562195
 30
0.0
 11
40.292763
 21
-1.561135
 31
0.0
  0
LINE
  5
6A6
330
1F
100
AcDbEntity
  8
1
  6
CONTINUOUS
370
50
 62
4
100
AcDbLine
 10
49.413464
 20
1.90887
 30
0.0
 11
49.454094
 21
1.909865
 31
0.0
  0
LINE
  5
6A7
330
1F
100
AcDbEntity
  8
1
  6
CONTINUOUS
370
50
 62
4
100
AcDbLine
 10
49.454094
 20
1.909865
 30
0.0
 11
49.4925
 21
1.910814
 31
0.0
  0
LINE
  5
6A8
330
1F
100
AcDbEntity
  8
1
  6
CONTINUOUS
370
50
 62
4
100
AcDbLine
 10
49.3708
 20
1.907788
 30
0.0
 11
49.413464
 21
1.90887
 31
0.0
  0
LINE
  5
6A9
330
1F
100
AcDbEntity
  8
1
  6
CONTINUOUS
370
50
 62
4
100
AcDbLine
 10
49.4925
 20
1.910814
 30
0.0
 11
49.528484
 21
1.911759
 31
0.0
  0
LINE
  5
6AA
330
1F
100
AcDbEntity
  8
1
  6
CONTINUOUS
370
50
 62
4
100
AcDbLine
 10
40.491619
 20
1.514962
 30
0.0
 11
40.546585
 21
1.516438
 31
0.0
  0
LINE
  5
6AB
330
1F
100
AcDbEntity
  8
1
  6
CONTINUOUS
370
50
 62
4
100
AcDbLine
 10
49.326313
 20
1.906578
 30
0.0
 11
49.3708
 21
1.907788
 31
0.0
  0
LINE
  5
6AC
330
1F
100
AcDbEntity
  8
1
  6
CONTINUOUS
370
50
 62
4
100
AcDbLine
 10
49.528484
 20
1.911759
 30
0.0
 11
49.563972
 21
1.912801
 31
0.0
  0
LINE
  5
6AD
330
1F
100
AcDbEntity
  8
1
  6
CONTINUOUS
370
50
 62
4
100
AcDbLine
 10
49.280186
 20
1.905199
 30
0.0
 11
49.326313
 21
1.906578
 31
0.0
  0
LINE
  5
6AE
330
1F
100
AcDbEntity
  8
1
  6
CONTINUOUS
370
50
 62
4
100
AcDbLine
 10
49.232368
 20
1.903601
 30
0.0
 11
49.280186
 21
1.905199
 31
0.0
  0
LINE
  5
6AF
330
1F
100
AcDbEntity
  8
1
  6
CONTINUOUS
370
50
 62
4
100
AcDbLine
 10
49.563972
 20
1.912801
 30
0.0
 11
49.600075
 21
1.914044
 31
0.0
  0
LINE
  5
6B0
330
1F
100
AcDbEntity
  8
1
  6
CONTINUOUS
370
50
 62
4
100
AcDbLine
 10
49.182804
 20
1.901736
 30
0.0
 11
49.232368
 21
1.903601
 31
0.0
  0
LINE
  5
6B1
330
1F
100
AcDbEntity
  8
1
  6
CONTINUOUS
370
50
 62
4
100
AcDbLine
 10
49.600075
 20
1.914044
 30
0.0
 11
49.635593
 21
1.915546
 31
0.0
  0
LINE
  5
6B2
330
1F
100
AcDbEntity
  8
1
  6
CONTINUOUS
370
50
 62
4
100
AcDbLine
 10
49.131516
 20
1.899557
 30
0.0
 11
49.182804
 21
1.901736
 31
0.0
  0
LINE
  5
6B3
330
1F
100
AcDbEntity
  8
1
  6
CONTINUOUS
370
50
 62
4
100
AcDbLine
 10
49.078545
 20
1.897018
 30
0.0
 11
49.131516
 21
1.899557
 31
0.0
  0
LINE
  5
6B4
330
1F
100
AcDbEntity
  8
1
  6
CONTINUOUS
370
50
 62
4
100
AcDbLine
 10
40.292763
 20
1.561135
 30
0.0
 11
40.395088
 21
1.566176
 31
0.0
  0
LINE
  5
6B5
330
1F
100
AcDbEntity
  8
1
  6
CONTINUOUS
370
50
 62
4
100
AcDbLine
 10
49.635593
 20
1.915546
 30
0.0
 11
49.67107799999999
 21
1.917462
 31
0.0
  0
LINE
  5
6B6
330
1F
100
AcDbEntity
  8
1
  6
CONTINUOUS
370
50
 62
4
100
AcDbLine
 10
49.023914
 20
1.894068
 30
0.0
 11
49.078545
 21
1.897018
 31
0.0
  0
LINE
  5
6B7
330
1F
100
AcDbEntity
  8
1
  6
CONTINUOUS
370
50
 62
4
100
AcDbLine
 10
49.243984
 20
2.156895
 30
0.0
 11
49.980442
 21
2.199991
 31
0.0
  0
LINE
  5
6B8
330
1F
100
AcDbEntity
  8
1
  6
CONTINUOUS
370
50
 62
4
100
AcDbLine
 10
40.546585
 20
1.516438
 30
0.0
 11
40.601318
 21
1.51972
 31
0.0
  0
LINE
  5
6B9
330
1F
100
AcDbEntity
  8
1
  6
CONTINUOUS
370
50
 62
4
100
AcDbLine
 10
40.147095
 20
-1.567204
 30
0.0
 11
40.217457
 21
-1.562195
 31
0.0
  0
LINE
  5
6BA
330
1F
100
AcDbEntity
  8
1
  6
CONTINUOUS
370
50
 62
4
100
AcDbLine
 10
49.67107799999999
 20
1.917462
 30
0.0
 11
49.706562
 21
1.919992
 31
0.0
  0
LINE
  5
6BB
330
1F
100
AcDbEntity
  8
1
  6
CONTINUOUS
370
50
 62
4
100
AcDbLine
 10
45.54057299999999
 20
-1.163302
 30
0.0
 11
45.594921
 21
-1.159091
 31
0.0
  0
LINE
  5
6BC
330
1F
100
AcDbEntity
  8
1
  6
CONTINUOUS
370
50
 62
4
100
AcDbLine
 10
45.490967
 20
-1.167261
 30
0.0
 11
45.54057299999999
 21
-1.163302
 31
0.0
  0
LINE
  5
6BD
330
1F
100
AcDbEntity
  8
1
  6
CONTINUOUS
370
50
 62
4
100
AcDbLine
 10
45.44136
 20
-1.171324
 30
0.0
 11
45.490967
 21
-1.167261
 31
0.0
  0
LINE
  5
6BE
330
1F
100
AcDbEntity
  8
1
  6
CONTINUOUS
370
50
 62
4
100
AcDbLine
 10
45.391754
 20
-1.17549
 30
0.0
 11
45.44136
 21
-1.171324
 31
0.0
  0
LINE
  5
6BF
330
1F
100
AcDbEntity
  8
1
  6
CONTINUOUS
370
50
 62
4
100
AcDbLine
 10
45.317822
 20
-1.181895
 30
0.0
 11
45.391754
 21
-1.17549
 31
0.0
  0
LINE
  5
6C0
330
1F
100
AcDbEntity
  8
1
  6
CONTINUOUS
370
50
 62
4
100
AcDbLine
 10
45.227737
 20
-1.189991
 30
0.0
 11
45.317822
 21
-1.181895
 31
0.0
  0
LINE
  5
6C1
330
1F
100
AcDbEntity
  8
1
  6
CONTINUOUS
370
50
 62
4
100
AcDbLine
 10
49.096237
 20
1.047763
 30
0.0
 11
49.116787
 21
1.049633
 31
0.0
  0
LINE
  5
6C2
330
1F
100
AcDbEntity
  8
1
  6
CONTINUOUS
370
50
 62
4
100
AcDbLine
 10
40.601318
 20
1.51972
 30
0.0
 11
40.655296
 21
1.52475
 31
0.0
  0
LINE
  5
6C3
330
1F
100
AcDbEntity
  8
1
  6
CONTINUOUS
370
50
 62
4
100
AcDbLine
 10
45.13997699999999
 20
-1.198201
 30
0.0
 11
45.227737
 21
-1.189991
 31
0.0
  0
LINE
  5
6C4
330
1F
100
AcDbEntity
  8
1
  6
CONTINUOUS
370
50
 62
4
100
AcDbLine
 10
38.799999
 20
-2.183892
 30
0.0
 11
38.891994
 21
-2.175149
 31
0.0
  0
LINE
  5
6C5
330
1F
100
AcDbEntity
  8
1
  6
CONTINUOUS
370
50
 62
4
100
AcDbLine
 10
45.052193
 20
-1.206724
 30
0.0
 11
45.13997699999999
 21
-1.198201
 31
0.0
  0
LINE
  5
6C6
330
1F
100
AcDbEntity
  8
1
  6
CONTINUOUS
370
50
 62
4
100
AcDbLine
 10
49.706562
 20
1.919992
 30
0.0
 11
49.742168
 21
1.923452
 31
0.0
  0
LINE
  5
6C7
330
1F
100
AcDbEntity
  8
1
  6
CONTINUOUS
370
50
 62
4
100
AcDbLine
 10
44.963974
 20
-1.215602
 30
0.0
 11
45.052193
 21
-1.206724
 31
0.0
  0
LINE
  5
6C8
330
1F
100
AcDbEntity
  8
1
  6
CONTINUOUS
370
50
 62
4
100
AcDbLine
 10
44.875492
 20
-1.224818
 30
0.0
 11
44.963974
 21
-1.215602
 31
0.0
  0
LINE
  5
6C9
330
1F
100
AcDbEntity
  8
1
  6
CONTINUOUS
370
50
 62
4
100
AcDbLine
 10
44.78387499999999
 20
-1.234694
 30
0.0
 11
44.875492
 21
-1.224818
 31
0.0
  0
LINE
  5
6CA
330
1F
100
AcDbEntity
  8
1
  6
CONTINUOUS
370
50
 62
4
100
AcDbLine
 10
44.690491
 20
-1.245107
 30
0.0
 11
44.78387499999999
 21
-1.234694
 31
0.0
  0
LINE
  5
6CB
330
1F
100
AcDbEntity
  8
1
  6
CONTINUOUS
370
50
 62
4
100
AcDbLine
 10
44.597355
 20
-1.255846
 30
0.0
 11
44.690491
 21
-1.245107
 31
0.0
  0
LINE
  5
6CC
330
1F
100
AcDbEntity
  8
1
  6
CONTINUOUS
370
50
 62
4
100
AcDbLine
 10
40.395088
 20
1.566176
 30
0.0
 11
40.504036
 21
1.579103
 31
0.0
  0
LINE
  5
6CD
330
1F
100
AcDbEntity
  8
1
  6
CONTINUOUS
370
50
 62
4
100
AcDbLine
 10
40.10575499999999
 20
-1.572128
 30
0.0
 11
40.147095
 21
-1.567204
 31
0.0
  0
LINE
  5
6CE
330
1F
100
AcDbEntity
  8
1
  6
CONTINUOUS
370
50
 62
4
100
AcDbLine
 10
44.502548
 20
-1.267144
 30
0.0
 11
44.597355
 21
-1.255846
 31
0.0
  0
LINE
  5
6CF
330
1F
100
AcDbEntity
  8
1
  6
CONTINUOUS
370
50
 62
4
100
AcDbLine
 10
44.419949
 20
-1.277288
 30
0.0
 11
44.502548
 21
-1.267144
 31
0.0
  0
LINE
  5
6D0
330
1F
100
AcDbEntity
  8
1
  6
CONTINUOUS
370
50
 62
4
100
AcDbLine
 10
44.338676
 20
-1.287551
 30
0.0
 11
44.419949
 21
-1.277288
 31
0.0
  0
LINE
  5
6D1
330
1F
100
AcDbEntity
  8
1
  6
CONTINUOUS
370
50
 62
4
100
AcDbLine
 10
40.655296
 20
1.52475
 30
0.0
 11
40.707893
 21
1.531394
 31
0.0
  0
LINE
  5
6D2
330
1F
100
AcDbEntity
  8
1
  6
CONTINUOUS
370
50
 62
4
100
AcDbLine
 10
38.891994
 20
-2.175149
 30
0.0
 11
38.98077
 21
-2.163649
 31
0.0
  0
LINE
  5
6D3
330
1F
100
AcDbEntity
  8
1
  6
CONTINUOUS
370
50
 62
4
100
AcDbLine
 10
44.246376
 20
-1.299549
 30
0.0
 11
44.338676
 21
-1.287551
 31
0.0
  0
LINE
  5
6D4
330
1F
100
AcDbEntity
  8
1
  6
CONTINUOUS
370
50
 62
4
100
AcDbLine
 10
44.148975
 20
-1.312605
 30
0.0
 11
44.246376
 21
-1.299549
 31
0.0
  0
LINE
  5
6D5
330
1F
100
AcDbEntity
  8
1
  6
CONTINUOUS
370
50
 62
4
100
AcDbLine
 10
48.67181
 20
1.708441
 30
0.0
 11
49.077579
 21
1.76328
 31
0.0
  0
LINE
  5
6D6
330
1F
100
AcDbEntity
  8
1
  6
CONTINUOUS
370
50
 62
4
100
AcDbLine
 10
49.742168
 20
1.923452
 30
0.0
 11
49.776146
 21
1.928048
 31
0.0
  0
LINE
  5
6D7
330
1F
100
AcDbEntity
  8
1
  6
CONTINUOUS
370
50
 62
4
100
AcDbLine
 10
44.052277
 20
-1.325983
 30
0.0
 11
44.148975
 21
-1.312605
 31
0.0
  0
LINE
  5
6D8
330
1F
100
AcDbEntity
  8
1
  6
CONTINUOUS
370
50
 62
4
100
AcDbLine
 10
43.952293
 20
-1.340259
 30
0.0
 11
44.052277
 21
-1.325983
 31
0.0
  0
LINE
  5
6D9
330
1F
100
AcDbEntity
  8
1
  6
CONTINUOUS
370
50
 62
4
100
AcDbLine
 10
43.877945
 20
-1.351166
 30
0.0
 11
43.952293
 21
-1.340259
 31
0.0
  0
LINE
  5
6DA
330
1F
100
AcDbEntity
  8
1
  6
CONTINUOUS
370
50
 62
4
100
AcDbLine
 10
43.802963
 20
-1.362431
 30
0.0
 11
43.877945
 21
-1.351166
 31
0.0
  0
LINE
  5
6DB
330
1F
100
AcDbEntity
  8
1
  6
CONTINUOUS
370
50
 62
4
100
AcDbLine
 10
43.750526
 20
-1.370462
 30
0.0
 11
43.802963
 21
-1.362431
 31
0.0
  0
LINE
  5
6DC
330
1F
100
AcDbEntity
  8
1
  6
CONTINUOUS
370
50
 62
4
100
AcDbLine
 10
43.699875
 20
-1.378346
 30
0.0
 11
43.750526
 21
-1.370462
 31
0.0
  0
LINE
  5
6DD
330
1F
100
AcDbEntity
  8
1
  6
CONTINUOUS
370
50
 62
4
100
AcDbLine
 10
43.64922
 20
-1.386354
 30
0.0
 11
43.699875
 21
-1.378346
 31
0.0
  0
LINE
  5
6DE
330
1F
100
AcDbEntity
  8
1
  6
CONTINUOUS
370
50
 62
4
100
AcDbLine
 10
40.707893
 20
1.531394
 30
0.0
 11
40.758968
 21
1.539543
 31
0.0
  0
LINE
  5
6DF
330
1F
100
AcDbEntity
  8
1
  6
CONTINUOUS
370
50
 62
4
100
AcDbLine
 10
43.59856
 20
-1.394486
 30
0.0
 11
43.64922
 21
-1.386354
 31
0.0
  0
LINE
  5
6E0
330
1F
100
AcDbEntity
  8
1
  6
CONTINUOUS
370
50
 62
4
100
AcDbLine
 10
43.547932
 20
-1.402739
 30
0.0
 11
43.59856
 21
-1.394486
 31
0.0
  0
LINE
  5
6E1
330
1F
100
AcDbEntity
  8
1
  6
CONTINUOUS
370
50
 62
4
100
AcDbLine
 10
48.516121
 20
2.037542
 30
0.0
 11
49.243984
 21
2.156895
 31
0.0
  0
LINE
  5
6E2
330
1F
100
AcDbEntity
  8
1
  6
CONTINUOUS
370
50
 62
4
100
AcDbLine
 10
43.497303
 20
-1.411118
 30
0.0
 11
43.547932
 21
-1.402739
 31
0.0
  0
LINE
  5
6E3
330
1F
100
AcDbEntity
  8
1
  6
CONTINUOUS
370
50
 62
4
100
AcDbLine
 10
43.446701
 20
-1.41962
 30
0.0
 11
43.497303
 21
-1.411118
 31
0.0
  0
LINE
  5
6E4
330
1F
100
AcDbEntity
  8
1
  6
CONTINUOUS
370
50
 62
4
100
AcDbLine
 10
43.396099
 20
-1.42825
 30
0.0
 11
43.446701
 21
-1.41962
 31
0.0
  0
LINE
  5
6E5
330
1F
100
AcDbEntity
  8
1
  6
CONTINUOUS
370
50
 62
4
100
AcDbLine
 10
38.98077
 20
-2.163649
 30
0.0
 11
39.066071
 21
-2.149071
 31
0.0
  0
LINE
  5
6E6
330
1F
100
AcDbEntity
  8
1
  6
CONTINUOUS
370
50
 62
4
100
AcDbLine
 10
43.34063
 20
-1.437797
 30
0.0
 11
43.396099
 21
-1.42825
 31
0.0
  0
LINE
  5
6E7
330
1F
100
AcDbEntity
  8
1
  6
CONTINUOUS
370
50
 62
4
100
AcDbLine
 10
43.283531
 20
-1.447679
 30
0.0
 11
43.34063
 21
-1.437797
 31
0.0
  0
LINE
  5
6E8
330
1F
100
AcDbEntity
  8
1
  6
CONTINUOUS
370
50
 62
4
100
AcDbLine
 10
43.228935
 20
-1.457175
 30
0.0
 11
43.283531
 21
-1.447679
 31
0.0
  0
LINE
  5
6E9
330
1F
100
AcDbEntity
  8
1
  6
CONTINUOUS
370
50
 62
4
100
AcDbLine
 10
43.174446
 20
-1.466699
 30
0.0
 11
43.228935
 21
-1.457175
 31
0.0
  0
LINE
  5
6EA
330
1F
100
AcDbEntity
  8
1
  6
CONTINUOUS
370
50
 62
4
100
AcDbLine
 10
43.119961
 20
-1.47627
 30
0.0
 11
43.174446
 21
-1.466699
 31
0.0
  0
LINE
  5
6EB
330
1F
100
AcDbEntity
  8
1
  6
CONTINUOUS
370
50
 62
4
100
AcDbLine
 10
43.065472
 20
-1.485886
 30
0.0
 11
43.119961
 21
-1.47627
 31
0.0
  0
LINE
  5
6EC
330
1F
100
AcDbEntity
  8
1
  6
CONTINUOUS
370
50
 62
4
100
AcDbLine
 10
43.010948
 20
-1.495555
 30
0.0
 11
43.065472
 21
-1.485886
 31
0.0
  0
LINE
  5
6ED
330
1F
100
AcDbEntity
  8
1
  6
CONTINUOUS
370
50
 62
4
100
AcDbLine
 10
42.95641699999999
 20
-1.505269
 30
0.0
 11
43.010948
 21
-1.495555
 31
0.0
  0
LINE
  5
6EE
330
1F
100
AcDbEntity
  8
1
  6
CONTINUOUS
370
50
 62
4
100
AcDbLine
 10
42.90188999999999
 20
-1.51503
 30
0.0
 11
42.95641699999999
 21
-1.505269
 31
0.0
  0
LINE
  5
6EF
330
1F
100
AcDbEntity
  8
1
  6
CONTINUOUS
370
50
 62
4
100
AcDbLine
 10
40.022243
 20
-1.587103
 30
0.0
 11
40.10575499999999
 21
-1.572128
 31
0.0
  0
LINE
  5
6F0
330
1F
100
AcDbEntity
  8
1
  6
CONTINUOUS
370
50
 62
4
100
AcDbLine
 10
42.847359
 20
-1.524835
 30
0.0
 11
42.90188999999999
 21
-1.51503
 31
0.0
  0
LINE
  5
6F1
330
1F
100
AcDbEntity
  8
1
  6
CONTINUOUS
370
50
 62
4
100
AcDbLine
 10
42.760303
 20
-1.540586
 30
0.0
 11
42.847359
 21
-1.524835
 31
0.0
  0
LINE
  5
6F2
330
1F
100
AcDbEntity
  8
1
  6
CONTINUOUS
370
50
 62
4
100
AcDbLine
 10
42.701374
 20
-1.551312
 30
0.0
 11
42.760303
 21
-1.540586
 31
0.0
  0
LINE
  5
6F3
330
1F
100
AcDbEntity
  8
1
  6
CONTINUOUS
370
50
 62
4
100
AcDbLine
 10
48.266037
 20
1.634285
 30
0.0
 11
48.67181
 21
1.708441
 31
0.0
  0
LINE
  5
6F4
330
1F
100
AcDbEntity
  8
1
  6
CONTINUOUS
370
50
 62
4
100
AcDbLine
 10
42.643822
 20
-1.561843
 30
0.0
 11
42.701374
 21
-1.551312
 31
0.0
  0
LINE
  5
6F5
330
1F
100
AcDbEntity
  8
1
  6
CONTINUOUS
370
50
 62
4
100
AcDbLine
 10
42.586269
 20
-1.572426
 30
0.0
 11
42.643822
 21
-1.561843
 31
0.0
  0
LINE
  5
6F6
330
1F
100
AcDbEntity
  8
1
  6
CONTINUOUS
370
50
 62
4
100
AcDbLine
 10
42.528713
 20
-1.583062
 30
0.0
 11
42.586269
 21
-1.572426
 31
0.0
  0
LINE
  5
6F7
330
1F
100
AcDbEntity
  8
1
  6
CONTINUOUS
370
50
 62
4
100
AcDbLine
 10
42.471149
 20
-1.593755
 30
0.0
 11
42.528713
 21
-1.583062
 31
0.0
  0
LINE
  5
6F8
330
1F
100
AcDbEntity
  8
1
  6
CONTINUOUS
370
50
 62
4
100
AcDbLine
 10
42.413582
 20
-1.604504
 30
0.0
 11
42.471149
 21
-1.593755
 31
0.0
  0
LINE
  5
6F9
330
1F
100
AcDbEntity
  8
1
  6
CONTINUOUS
370
50
 62
4
100
AcDbLine
 10
42.356018
 20
-1.615309
 30
0.0
 11
42.413582
 21
-1.604504
 31
0.0
  0
LINE
  5
6FA
330
1F
100
AcDbEntity
  8
1
  6
CONTINUOUS
370
50
 62
4
100
AcDbLine
 10
42.29845
 20
-1.626171
 30
0.0
 11
42.356018
 21
-1.615309
 31
0.0
  0
LINE
  5
6FB
330
1F
100
AcDbEntity
  8
1
  6
CONTINUOUS
370
50
 62
4
100
AcDbLine
 10
42.225304
 20
-1.640057
 30
0.0
 11
42.29845
 21
-1.626171
 31
0.0
  0
LINE
  5
6FC
330
1F
100
AcDbEntity
  8
1
  6
CONTINUOUS
370
50
 62
4
100
AcDbLine
 10
49.776146
 20
1.928048
 30
0.0
 11
49.80735
 21
1.933995
 31
0.0
  0
LINE
  5
6FD
330
1F
100
AcDbEntity
  8
1
  6
CONTINUOUS
370
50
 62
4
100
AcDbLine
 10
42.165546
 20
-1.651472
 30
0.0
 11
42.225304
 21
-1.640057
 31
0.0
  0
LINE
  5
6FE
330
1F
100
AcDbEntity
  8
1
  6
CONTINUOUS
370
50
 62
4
100
AcDbLine
 10
42.106068
 20
-1.6629
 30
0.0
 11
42.165546
 21
-1.651472
 31
0.0
  0
LINE
  5
6FF
330
1F
100
AcDbEntity
  8
1
  6
CONTINUOUS
370
50
 62
4
100
AcDbLine
 10
42.046589
 20
-1.674393
 30
0.0
 11
42.106068
 21
-1.6629
 31
0.0
  0
LINE
  5
700
330
1F
100
AcDbEntity
  8
1
  6
CONTINUOUS
370
50
 62
4
100
AcDbLine
 10
40.758968
 20
1.539543
 30
0.0
 11
40.80838
 21
1.549092
 31
0.0
  0
LINE
  5
701
330
1F
100
AcDbEntity
  8
1
  6
CONTINUOUS
370
50
 62
4
100
AcDbLine
 10
40.504036
 20
1.579103
 30
0.0
 11
40.639603
 21
1.605367
 31
0.0
  0
LINE
  5
702
330
1F
100
AcDbEntity
  8
1
  6
CONTINUOUS
370
50
 62
4
100
AcDbLine
 10
41.010548
 20
1.44442
 30
0.0
 11
41.200001
 21
1.481132
 31
0.0
  0
LINE
  5
703
330
1F
100
AcDbEntity
  8
1
  6
CONTINUOUS
370
50
 62
4
100
AcDbLine
 10
41.987106
 20
-1.685954
 30
0.0
 11
42.046589
 21
-1.674393
 31
0.0
  0
LINE
  5
704
330
1F
100
AcDbEntity
  8
1
  6
CONTINUOUS
370
50
 62
4
100
AcDbLine
 10
41.92765
 20
-1.697578
 30
0.0
 11
41.987106
 21
-1.685954
 31
0.0
  0
LINE
  5
705
330
1F
100
AcDbEntity
  8
1
  6
CONTINUOUS
370
50
 62
4
100
AcDbLine
 10
41.868191
 20
-1.709272
 30
0.0
 11
41.92765
 21
-1.697578
 31
0.0
  0
LINE
  5
706
330
1F
100
AcDbEntity
  8
1
  6
CONTINUOUS
370
50
 62
4
100
AcDbLine
 10
41.808735
 20
-1.721036
 30
0.0
 11
41.868191
 21
-1.709272
 31
0.0
  0
LINE
  5
707
330
1F
100
AcDbEntity
  8
1
  6
CONTINUOUS
370
50
 62
4
100
AcDbLine
 10
41.74918
 20
-1.732891
 30
0.0
 11
41.808735
 21
-1.721036
 31
0.0
  0
LINE
  5
708
330
1F
100
AcDbEntity
  8
1
  6
CONTINUOUS
370
50
 62
4
100
AcDbLine
 10
41.692223
 20
-1.744296
 30
0.0
 11
41.74918
 21
-1.732891
 31
0.0
  0
LINE
  5
709
330
1F
100
AcDbEntity
  8
1
  6
CONTINUOUS
370
50
 62
4
100
AcDbLine
 10
41.63081
 20
-1.75667
 30
0.0
 11
41.692223
 21
-1.744296
 31
0.0
  0
LINE
  5
70A
330
1F
100
AcDbEntity
  8
1
  6
CONTINUOUS
370
50
 62
4
100
AcDbLine
 10
41.569202
 20
-1.76916
 30
0.0
 11
41.63081
 21
-1.75667
 31
0.0
  0
LINE
  5
70B
330
1F
100
AcDbEntity
  8
1
  6
CONTINUOUS
370
50
 62
4
100
AcDbLine
 10
41.507629
 20
-1.781724
 30
0.0
 11
41.569202
 21
-1.76916
 31
0.0
  0
LINE
  5
70C
330
1F
100
AcDbEntity
  8
1
  6
CONTINUOUS
370
50
 62
4
100
AcDbLine
 10
41.446056
 20
-1.794368
 30
0.0
 11
41.507629
 21
-1.781724
 31
0.0
  0
LINE
  5
70D
330
1F
100
AcDbEntity
  8
1
  6
CONTINUOUS
370
50
 62
4
100
AcDbLine
 10
41.38451
 20
-1.807086
 30
0.0
 11
41.446056
 21
-1.794368
 31
0.0
  0
LINE
  5
70E
330
1F
100
AcDbEntity
  8
1
  6
CONTINUOUS
370
50
 62
4
100
AcDbLine
 10
41.322964
 20
-1.819885
 30
0.0
 11
41.38451
 21
-1.807086
 31
0.0
  0
LINE
  5
70F
330
1F
100
AcDbEntity
  8
1
  6
CONTINUOUS
370
50
 62
4
100
AcDbLine
 10
41.261448
 20
-1.832758
 30
0.0
 11
41.322964
 21
-1.819885
 31
0.0
  0
LINE
  5
710
330
1F
100
AcDbEntity
  8
1
  6
CONTINUOUS
370
50
 62
4
100
AcDbLine
 10
41.199932
 20
-1.845711
 30
0.0
 11
41.261448
 21
-1.832758
 31
0.0
  0
LINE
  5
711
330
1F
100
AcDbEntity
  8
1
  6
CONTINUOUS
370
50
 62
4
100
AcDbLine
 10
39.066071
 20
-2.149071
 30
0.0
 11
39.147644
 21
-2.131092
 31
0.0
  0
LINE
  5
712
330
1F
100
AcDbEntity
  8
1
  6
CONTINUOUS
370
50
 62
4
100
AcDbLine
 10
40.80838
 20
1.549092
 30
0.0
 11
40.855984
 21
1.559931
 31
0.0
  0
LINE
  5
713
330
1F
100
AcDbEntity
  8
1
  6
CONTINUOUS
370
50
 62
4
100
AcDbLine
 10
47.860264
 20
1.539676
 30
0.0
 11
48.266037
 21
1.634285
 31
0.0
  0
LINE
  5
714
330
1F
100
AcDbEntity
  8
1
  6
CONTINUOUS
370
50
 62
4
100
AcDbLine
 10
40.827511
 20
1.400604
 30
0.0
 11
41.010548
 21
1.44442
 31
0.0
  0
LINE
  5
715
330
1F
100
AcDbEntity
  8
1
  6
CONTINUOUS
370
50
 62
4
100
AcDbLine
 10
47.948769
 20
1.891461
 30
0.0
 11
48.516121
 21
2.037542
 31
0.0
  0
LINE
  5
716
330
1F
100
AcDbEntity
  8
1
  6
CONTINUOUS
370
50
 62
4
100
AcDbLine
 10
40.639603
 20
1.605367
 30
0.0
 11
40.731838
 21
1.629444
 31
0.0
  0
LINE
  5
717
330
1F
100
AcDbEntity
  8
1
  6
CONTINUOUS
370
50
 62
4
100
AcDbLine
 10
40.855984
 20
1.559931
 30
0.0
 11
40.901642
 21
1.571954
 31
0.0
  0
LINE
  5
718
330
1F
100
AcDbEntity
  8
1
  6
CONTINUOUS
370
50
 62
4
100
AcDbLine
 10
39.948235
 20
-1.606909
 30
0.0
 11
40.022243
 21
-1.587103
 31
0.0
  0
LINE
  5
719
330
1F
100
AcDbEntity
  8
1
  6
CONTINUOUS
370
50
 62
4
100
AcDbLine
 10
49.80735
 20
1.933995
 30
0.0
 11
49.83569
 21
1.941611
 31
0.0
  0
LINE
  5
71A
330
1F
100
AcDbEntity
  8
1
  6
CONTINUOUS
370
50
 62
4
100
AcDbLine
 10
49.116787
 20
1.049633
 30
0.0
 11
49.135544
 21
1.05468
 31
0.0
  0
LINE
  5
71B
330
1F
100
AcDbEntity
  8
1
  6
CONTINUOUS
370
50
 62
4
100
AcDbLine
 10
35.900002
 20
-2.99995
 30
0.0
 11
38.455189
 21
-2.295071
 31
0.0
  0
LINE
  5
71C
330
1F
100
AcDbEntity
  8
1
  6
CONTINUOUS
370
50
 62
4
100
AcDbLine
 10
47.454491
 20
1.426382
 30
0.0
 11
47.860264
 21
1.539676
 31
0.0
  0
LINE
  5
71D
330
1F
100
AcDbEntity
  8
1
  6
CONTINUOUS
370
50
 62
4
100
AcDbLine
 10
39.147644
 20
-2.131092
 30
0.0
 11
39.225227
 21
-2.10939
 31
0.0
  0
LINE
  5
71E
330
1F
100
AcDbEntity
  8
1
  6
CONTINUOUS
370
50
 62
4
100
AcDbLine
 10
40.650879
 20
1.349636
 30
0.0
 11
40.827511
 21
1.400604
 31
0.0
  0
LINE
  5
71F
330
1F
100
AcDbEntity
  8
1
  6
CONTINUOUS
370
50
 62
4
100
AcDbLine
 10
38.455208
 20
-2.295065
 30
0.0
 11
38.47176
 21
-2.290272
 31
0.0
  0
LINE
  5
720
330
1F
100
AcDbEntity
  8
1
  6
CONTINUOUS
370
50
 62
4
100
AcDbLine
 10
38.53661
 20
-2.264473
 30
0.0
 11
38.581192
 21
-2.251261
 31
0.0
  0
LINE
  5
721
330
1F
100
AcDbEntity
  8
1
  6
CONTINUOUS
370
50
 62
4
100
AcDbLine
 10
38.581192
 20
-2.251261
 30
0.0
 11
38.625515
 21
-2.23798
 31
0.0
  0
LINE
  5
722
330
1F
100
AcDbEntity
  8
1
  6
CONTINUOUS
370
50
 62
4
100
AcDbLine
 10
40.901642
 20
1.571954
 30
0.0
 11
40.945148
 21
1.585032
 31
0.0
  0
LINE
  5
723
330
1F
100
AcDbEntity
  8
1
  6
CONTINUOUS
370
50
 62
4
100
AcDbLine
 10
38.625515
 20
-2.23798
 30
0.0
 11
38.669571
 21
-2.224616
 31
0.0
  0
LINE
  5
724
330
1F
100
AcDbEntity
  8
1
  6
CONTINUOUS
370
50
 62
4
100
AcDbLine
 10
38.669571
 20
-2.224616
 30
0.0
 11
38.713348
 21
-2.211157
 31
0.0
  0
LINE
  5
725
330
1F
100
AcDbEntity
  8
1
  6
CONTINUOUS
370
50
 62
4
100
AcDbLine
 10
38.713348
 20
-2.211157
 30
0.0
 11
38.756828
 21
-2.197587
 31
0.0
  0
LINE
  5
726
330
1F
100
AcDbEntity
  8
1
  6
CONTINUOUS
370
50
 62
4
100
AcDbLine
 10
47.048721
 20
1.299359
 30
0.0
 11
47.454491
 21
1.426382
 31
0.0
  0
LINE
  5
727
330
1F
100
AcDbEntity
  8
1
  6
CONTINUOUS
370
50
 62
4
100
AcDbLine
 10
38.756828
 20
-2.197587
 30
0.0
 11
38.799999
 21
-2.183892
 31
0.0
  0
LINE
  5
728
330
1F
100
AcDbEntity
  8
1
  6
CONTINUOUS
370
50
 62
4
100
AcDbLine
 10
38.47176
 20
-2.290272
 30
0.0
 11
38.487114
 21
-2.285357
 31
0.0
  0
LINE
  5
729
330
1F
100
AcDbEntity
  8
1
  6
CONTINUOUS
370
50
 62
4
100
AcDbLine
 10
40.731838
 20
1.629444
 30
0.0
 11
40.848686
 21
1.667056
 31
0.0
  0
LINE
  5
72A
330
1F
100
AcDbEntity
  8
1
  6
CONTINUOUS
370
50
 62
4
100
AcDbLine
 10
47.558899
 20
1.763878
 30
0.0
 11
47.948769
 21
1.891461
 31
0.0
  0
LINE
  5
72B
330
1F
100
AcDbEntity
  8
1
  6
CONTINUOUS
370
50
 62
4
100
AcDbLine
 10
40.945148
 20
1.585032
 30
0.0
 11
40.986103
 21
1.598961
 31
0.0
  0
LINE
  5
72C
330
1F
100
AcDbEntity
  8
1
  6
CONTINUOUS
370
50
 62
4
100
AcDbLine
 10
40.480633
 20
1.291465
 30
0.0
 11
40.650879
 21
1.349636
 31
0.0
  0
LINE
  5
72D
330
1F
100
AcDbEntity
  8
1
  6
CONTINUOUS
370
50
 62
4
100
AcDbLine
 10
39.907417
 20
-1.620979
 30
0.0
 11
39.948235
 21
-1.606909
 31
0.0
  0
LINE
  5
72E
330
1F
100
AcDbEntity
  8
1
  6
CONTINUOUS
370
50
 62
4
100
AcDbLine
 10
46.642952
 20
1.159212
 30
0.0
 11
47.048721
 21
1.299359
 31
0.0
  0
LINE
  5
72F
330
1F
100
AcDbEntity
  8
1
  6
CONTINUOUS
370
50
 62
4
100
AcDbLine
 10
39.225227
 20
-2.10939
 30
0.0
 11
39.298569
 21
-2.083645
 31
0.0
  0
LINE
  5
730
330
1F
100
AcDbEntity
  8
1
  6
CONTINUOUS
370
50
 62
4
100
AcDbLine
 10
38.487114
 20
-2.285357
 30
0.0
 11
38.501274
 21
-2.28032
 31
0.0
  0
LINE
  5
731
330
1F
100
AcDbEntity
  8
1
  6
CONTINUOUS
370
50
 62
4
100
AcDbLine
 10
47.193153
 20
1.62931
 30
0.0
 11
47.558899
 21
1.763878
 31
0.0
  0
LINE
  5
732
330
1F
100
AcDbEntity
  8
1
  6
CONTINUOUS
370
50
 62
4
100
AcDbLine
 10
49.83569
 20
1.941611
 30
0.0
 11
49.86063
 21
1.951033
 31
0.0
  0
LINE
  5
733
330
1F
100
AcDbEntity
  8
1
  6
CONTINUOUS
370
50
 62
4
100
AcDbLine
 10
40.986103
 20
1.598961
 30
0.0
 11
41.024349
 21
1.613602
 31
0.0
  0
LINE
  5
734
330
1F
100
AcDbEntity
  8
1
  6
CONTINUOUS
370
50
 62
4
100
AcDbLine
 10
40.848686
 20
1.667056
 30
0.0
 11
40.96704099999999
 21
1.71331
 31
0.0
  0
LINE
  5
735
330
1F
100
AcDbEntity
  8
1
  6
CONTINUOUS
370
50
 62
4
100
AcDbLine
 10
38.501274
 20
-2.28032
 30
0.0
 11
38.51424
 21
-2.275161
 31
0.0
  0
LINE
  5
736
330
1F
100
AcDbEntity
  8
1
  6
CONTINUOUS
370
50
 62
4
100
AcDbLine
 10
40.316769
 20
1.226044
 30
0.0
 11
40.480633
 21
1.291465
 31
0.0
  0
LINE
  5
737
330
1F
100
AcDbEntity
  8
1
  6
CONTINUOUS
370
50
 62
4
100
AcDbLine
 10
46.825275
 20
1.480975
 30
0.0
 11
47.193153
 21
1.62931
 31
0.0
  0
LINE
  5
738
330
1F
100
AcDbEntity
  8
1
  6
CONTINUOUS
370
50
 62
4
100
AcDbLine
 10
39.862286
 20
-1.639661
 30
0.0
 11
39.907417
 21
-1.620979
 31
0.0
  0
LINE
  5
739
330
1F
100
AcDbEntity
  8
1
  6
CONTINUOUS
370
50
 62
4
100
AcDbLine
 10
41.024349
 20
1.613602
 30
0.0
 11
41.059765
 21
1.628825
 31
0.0
  0
LINE
  5
73A
330
1F
100
AcDbEntity
  8
1
  6
CONTINUOUS
370
50
 62
4
100
AcDbLine
 10
39.298569
 20
-2.083645
 30
0.0
 11
39.367413
 21
-2.053536
 31
0.0
  0
LINE
  5
73B
330
1F
100
AcDbEntity
  8
1
  6
CONTINUOUS
370
50
 62
4
100
AcDbLine
 10
46.459488
 20
1.320699
 30
0.0
 11
46.825275
 21
1.480975
 31
0.0
  0
LINE
  5
73C
330
1F
100
AcDbEntity
  8
1
  6
CONTINUOUS
370
50
 62
4
100
AcDbLine
 10
38.51424
 20
-2.275161
 30
0.0
 11
38.526016
 21
-2.269878
 31
0.0
  0
LINE
  5
73D
330
1F
100
AcDbEntity
  8
1
  6
CONTINUOUS
370
50
 62
4
100
AcDbLine
 10
40.159267
 20
1.153322
 30
0.0
 11
40.316769
 21
1.226044
 31
0.0
  0
LINE
  5
73E
330
1F
100
AcDbEntity
  8
1
  6
CONTINUOUS
370
50
 62
4
100
AcDbLine
 10
40.96704099999999
 20
1.71331
 30
0.0
 11
41.084164
 21
1.767398
 31
0.0
  0
LINE
  5
73F
330
1F
100
AcDbEntity
  8
1
  6
CONTINUOUS
370
50
 62
4
100
AcDbLine
 10
46.123173
 20
1.16138
 30
0.0
 11
46.459488
 21
1.320699
 31
0.0
  0
LINE
  5
740
330
1F
100
AcDbEntity
  8
1
  6
CONTINUOUS
370
50
 62
4
100
AcDbLine
 10
41.059765
 20
1.628825
 30
0.0
 11
41.092216
 21
1.644499
 31
0.0
  0
LINE
  5
741
330
1F
100
AcDbEntity
  8
1
  6
CONTINUOUS
370
50
 62
4
100
AcDbLine
 10
49.135544
 20
1.05468
 30
0.0
 11
49.152458
 21
1.062896
 31
0.0
  0
LINE
  5
742
330
1F
100
AcDbEntity
  8
1
  6
CONTINUOUS
370
50
 62
4
100
AcDbLine
 10
39.821537
 20
-1.659884
 30
0.0
 11
39.862286
 21
-1.639661
 31
0.0
  0
LINE
  5
743
330
1F
100
AcDbEntity
  8
1
  6
CONTINUOUS
370
50
 62
4
100
AcDbLine
 10
38.526016
 20
-2.269878
 30
0.0
 11
38.53661
 21
-2.264473
 31
0.0
  0
LINE
  5
744
330
1F
100
AcDbEntity
  8
1
  6
CONTINUOUS
370
50
 62
4
100
AcDbLine
 10
49.86063
 20
1.951033
 30
0.0
 11
49.882256
 21
1.962441
 31
0.0
  0
LINE
  5
745
330
1F
100
AcDbEntity
  8
1
  6
CONTINUOUS
370
50
 62
4
100
AcDbLine
 10
40.008121
 20
1.07325
 30
0.0
 11
40.159267
 21
1.153322
 31
0.0
  0
LINE
  5
746
330
1F
100
AcDbEntity
  8
1
  6
CONTINUOUS
370
50
 62
4
100
AcDbLine
 10
41.084164
 20
1.767398
 30
0.0
 11
41.200001
 21
1.829451
 31
0.0
  0
LINE
  5
747
330
1F
100
AcDbEntity
  8
1
  6
CONTINUOUS
370
50
 62
4
100
AcDbLine
 10
41.092216
 20
1.644499
 30
0.0
 11
41.11531799999999
 21
1.656914
 31
0.0
  0
LINE
  5
748
330
1F
100
AcDbEntity
  8
1
  6
CONTINUOUS
370
50
 62
4
100
AcDbLine
 10
39.367413
 20
-2.053536
 30
0.0
 11
39.431435
 21
-2.018819
 31
0.0
  0
LINE
  5
749
330
1F
100
AcDbEntity
  8
1
  6
CONTINUOUS
370
50
 62
4
100
AcDbLine
 10
39.951702
 20
1.040238
 30
0.0
 11
40.008121
 21
1.07325
 31
0.0
  0
LINE
  5
74A
330
1F
100
AcDbEntity
  8
1
  6
CONTINUOUS
370
50
 62
4
100
AcDbLine
 10
41.11531799999999
 20
1.656914
 30
0.0
 11
41.136471
 21
1.669445
 31
0.0
  0
LINE
  5
74B
330
1F
100
AcDbEntity
  8
1
  6
CONTINUOUS
370
50
 62
4
100
AcDbLine
 10
39.766449
 20
-1.693621
 30
0.0
 11
39.821537
 21
-1.659884
 31
0.0
  0
LINE
  5
74C
330
1F
100
AcDbEntity
  8
1
  6
CONTINUOUS
370
50
 62
4
100
AcDbLine
 10
39.896168
 20
1.005525
 30
0.0
 11
39.951702
 21
1.040238
 31
0.0
  0
LINE
  5
74D
330
1F
100
AcDbEntity
  8
1
  6
CONTINUOUS
370
50
 62
4
100
AcDbLine
 10
41.136471
 20
1.669445
 30
0.0
 11
41.155548
 21
1.681996
 31
0.0
  0
LINE
  5
74E
330
1F
100
AcDbEntity
  8
1
  6
CONTINUOUS
370
50
 62
4
100
AcDbLine
 10
39.841656
 20
0.969105
 30
0.0
 11
39.896168
 21
1.005525
 31
0.0
  0
LINE
  5
74F
330
1F
100
AcDbEntity
  8
1
  6
CONTINUOUS
370
50
 62
4
100
AcDbLine
 10
39.431435
 20
-2.018819
 30
0.0
 11
39.490314
 21
-1.979259
 31
0.0
  0
LINE
  5
750
330
1F
100
AcDbEntity
  8
1
  6
CONTINUOUS
370
50
 62
4
100
AcDbLine
 10
39.788303
 20
0.930971
 30
0.0
 11
39.841656
 21
0.969105
 31
0.0
  0
LINE
  5
751
330
1F
100
AcDbEntity
  8
1
  6
CONTINUOUS
370
50
 62
4
100
AcDbLine
 10
49.882256
 20
1.962441
 30
0.0
 11
49.900913
 21
1.976072
 31
0.0
  0
LINE
  5
752
330
1F
100
AcDbEntity
  8
1
  6
CONTINUOUS
370
50
 62
4
100
AcDbLine
 10
41.155548
 20
1.681996
 30
0.0
 11
41.17252
 21
1.694515
 31
0.0
  0
LINE
  5
753
330
1F
100
AcDbEntity
  8
1
  6
CONTINUOUS
370
50
 62
4
100
AcDbLine
 10
49.152458
 20
1.062896
 30
0.0
 11
49.167465
 21
1.07426
 31
0.0
  0
LINE
  5
754
330
1F
100
AcDbEntity
  8
1
  6
CONTINUOUS
370
50
 62
4
100
AcDbLine
 10
39.736248
 20
0.8911199999999999
 30
0.0
 11
39.788303
 21
0.930971
 31
0.0
  0
LINE
  5
755
330
1F
100
AcDbEntity
  8
1
  6
CONTINUOUS
370
50
 62
4
100
AcDbLine
 10
39.72263299999999
 20
-1.727432
 30
0.0
 11
39.766449
 21
-1.693621
 31
0.0
  0
LINE
  5
756
330
1F
100
AcDbEntity
  8
1
  6
CONTINUOUS
370
50
 62
4
100
AcDbLine
 10
39.685631
 20
0.8495459999999999
 30
0.0
 11
39.736248
 21
0.8911199999999999
 31
0.0
  0
LINE
  5
757
330
1F
100
AcDbEntity
  8
1
  6
CONTINUOUS
370
50
 62
4
100
AcDbLine
 10
39.490314
 20
-1.979259
 30
0.0
 11
39.543762
 21
-1.934604
 31
0.0
  0
LINE
  5
758
330
1F
100
AcDbEntity
  8
1
  6
CONTINUOUS
370
50
 62
4
100
AcDbLine
 10
41.17252
 20
1.694515
 30
0.0
 11
41.187347
 21
1.706955
 31
0.0
  0
LINE
  5
759
330
1F
100
AcDbEntity
  8
1
  6
CONTINUOUS
370
50
 62
4
100
AcDbLine
 10
39.636581
 20
0.806242
 30
0.0
 11
39.685631
 21
0.8495459999999999
 31
0.0
  0
LINE
  5
75A
330
1F
100
AcDbEntity
  8
1
  6
CONTINUOUS
370
50
 62
4
100
AcDbLine
 10
39.696182
 20
-1.751885
 30
0.0
 11
39.72263299999999
 21
-1.727432
 31
0.0
  0
LINE
  5
75B
330
1F
100
AcDbEntity
  8
1
  6
CONTINUOUS
370
50
 62
4
100
AcDbLine
 10
39.589245
 20
0.761205
 30
0.0
 11
39.636581
 21
0.806242
 31
0.0
  0
LINE
  5
75C
330
1F
100
AcDbEntity
  8
1
  6
CONTINUOUS
370
50
 62
4
100
AcDbLine
 10
41.187347
 20
1.706955
 30
0.0
 11
41.200001
 21
1.719266
 31
0.0
  0
LINE
  5
75D
330
1F
100
AcDbEntity
  8
1
  6
CONTINUOUS
370
50
 62
4
100
AcDbLine
 10
49.900913
 20
1.976072
 30
0.0
 11
49.916859
 21
1.992063
 31
0.0
  0
LINE
  5
75E
330
1F
100
AcDbEntity
  8
1
  6
CONTINUOUS
370
50
 62
4
100
AcDbLine
 10
39.543911
 20
0.714595
 30
0.0
 11
39.589245
 21
0.761205
 31
0.0
  0
LINE
  5
75F
330
1F
100
AcDbEntity
  8
1
  6
CONTINUOUS
370
50
 62
4
100
AcDbLine
 10
39.543762
 20
-1.934604
 30
0.0
 11
39.591469
 21
-1.884602
 31
0.0
  0
LINE
  5
760
330
1F
100
AcDbEntity
  8
1
  6
CONTINUOUS
370
50
 62
4
100
AcDbLine
 10
39.671642
 20
-1.778157
 30
0.0
 11
39.696182
 21
-1.751885
 31
0.0
  0
LINE
  5
761
330
1F
100
AcDbEntity
  8
1
  6
CONTINUOUS
370
50
 62
4
100
AcDbLine
 10
49.167465
 20
1.07426
 30
0.0
 11
49.180393
 21
1.088574
 31
0.0
  0
LINE
  5
762
330
1F
100
AcDbEntity
  8
1
  6
CONTINUOUS
370
50
 62
4
100
AcDbLine
 10
39.501415
 20
0.667231
 30
0.0
 11
39.543911
 21
0.714595
 31
0.0
  0
LINE
  5
763
330
1F
100
AcDbEntity
  8
1
  6
CONTINUOUS
370
50
 62
4
100
AcDbLine
 10
39.461876
 20
0.619292
 30
0.0
 11
39.501415
 21
0.667231
 31
0.0
  0
LINE
  5
764
330
1F
100
AcDbEntity
  8
1
  6
CONTINUOUS
370
50
 62
4
100
AcDbLine
 10
39.645737
 20
-1.810792
 30
0.0
 11
39.671642
 21
-1.778157
 31
0.0
  0
LINE
  5
765
330
1F
100
AcDbEntity
  8
1
  6
CONTINUOUS
370
50
 62
4
100
AcDbLine
 10
39.425312
 20
0.570859
 30
0.0
 11
39.461876
 21
0.619292
 31
0.0
  0
LINE
  5
766
330
1F
100
AcDbEntity
  8
1
  6
CONTINUOUS
370
50
 62
4
100
AcDbLine
 10
39.591469
 20
-1.884602
 30
0.0
 11
39.63314099999999
 21
-1.828999
 31
0.0
  0
LINE
  5
767
330
1F
100
AcDbEntity
  8
1
  6
CONTINUOUS
370
50
 62
4
100
AcDbLine
 10
49.916859
 20
1.992063
 30
0.0
 11
49.930355
 21
2.010446
 31
0.0
  0
LINE
  5
768
330
1F
100
AcDbEntity
  8
1
  6
CONTINUOUS
370
50
 62
4
100
AcDbLine
 10
39.63316
 20
-1.828975
 30
0.0
 11
39.645737
 21
-1.810792
 31
0.0
  0
LINE
  5
769
330
1F
100
AcDbEntity
  8
1
  6
CONTINUOUS
370
50
 62
4
100
AcDbLine
 10
39.39174999999999
 20
0.522012
 30
0.0
 11
39.425312
 21
0.570859
 31
0.0
  0
LINE
  5
76A
330
1F
100
AcDbEntity
  8
1
  6
CONTINUOUS
370
50
 62
4
100
AcDbLine
 10
49.180393
 20
1.088574
 30
0.0
 11
49.191242
 21
1.105669
 31
0.0
  0
LINE
  5
76B
330
1F
100
AcDbEntity
  8
1
  6
CONTINUOUS
370
50
 62
4
100
AcDbLine
 10
39.361202
 20
0.472834
 30
0.0
 11
39.39174999999999
 21
0.522012
 31
0.0
  0
LINE
  5
76C
330
1F
100
AcDbEntity
  8
1
  6
CONTINUOUS
370
50
 62
4
100
AcDbLine
 10
39.63314099999999
 20
-1.828999
 30
0.0
 11
39.665668
 21
-1.773123
 31
0.0
  0
LINE
  5
76D
330
1F
100
AcDbEntity
  8
1
  6
CONTINUOUS
370
50
 62
4
100
AcDbLine
 10
39.333691
 20
0.423403
 30
0.0
 11
39.361202
 21
0.472834
 31
0.0
  0
LINE
  5
76E
330
1F
100
AcDbEntity
  8
1
  6
CONTINUOUS
370
50
 62
4
100
AcDbLine
 10
49.930355
 20
2.010446
 30
0.0
 11
49.941811
 21
2.031425
 31
0.0
  0
LINE
  5
76F
330
1F
100
AcDbEntity
  8
1
  6
CONTINUOUS
370
50
 62
4
100
AcDbLine
 10
39.309231
 20
0.37378
 30
0.0
 11
39.333691
 21
0.423403
 31
0.0
  0
LINE
  5
770
330
1F
100
AcDbEntity
  8
1
  6
CONTINUOUS
370
50
 62
4
100
AcDbLine
 10
49.191242
 20
1.105669
 30
0.0
 11
49.200058
 21
1.125409
 31
0.0
  0
LINE
  5
771
330
1F
100
AcDbEntity
  8
1
  6
CONTINUOUS
370
50
 62
4
100
AcDbLine
 10
39.665668
 20
-1.773123
 30
0.0
 11
39.692375
 21
-1.713108
 31
0.0
  0
LINE
  5
772
330
1F
100
AcDbEntity
  8
1
  6
CONTINUOUS
370
50
 62
4
100
AcDbLine
 10
49.06553599999999
 20
1.03365
 30
0.0
 11
49.072269
 21
1.049293
 31
0.0
  0
LINE
  5
773
330
1F
100
AcDbEntity
  8
1
  6
CONTINUOUS
370
50
 62
4
100
AcDbLine
 10
39.287518
 20
0.323203
 30
0.0
 11
39.309231
 21
0.37378
 31
0.0
  0
LINE
  5
774
330
1F
100
AcDbEntity
  8
1
  6
CONTINUOUS
370
50
 62
4
100
AcDbLine
 10
49.941811
 20
2.031425
 30
0.0
 11
49.951794
 21
2.055846
 31
0.0
  0
LINE
  5
775
330
1F
100
AcDbEntity
  8
1
  6
CONTINUOUS
370
50
 62
4
100
AcDbLine
 10
49.852673
 20
0.878779
 30
0.0
 11
49.866913
 21
0.9139299999999999
 31
0.0
  0
LINE
  5
776
330
1F
100
AcDbEntity
  8
1
  6
CONTINUOUS
370
50
 62
4
100
AcDbLine
 10
49.838985
 20
0.841468
 30
0.0
 11
49.852673
 21
0.878779
 31
0.0
  0
LINE
  5
777
330
1F
100
AcDbEntity
  8
1
  6
CONTINUOUS
370
50
 62
4
100
AcDbLine
 10
39.26865
 20
0.271377
 30
0.0
 11
39.287518
 21
0.323203
 31
0.0
  0
LINE
  5
778
330
1F
100
AcDbEntity
  8
1
  6
CONTINUOUS
370
50
 62
4
100
AcDbLine
 10
49.059738
 20
1.016939
 30
0.0
 11
49.06553599999999
 21
1.03365
 31
0.0
  0
LINE
  5
779
330
1F
100
AcDbEntity
  8
1
  6
CONTINUOUS
370
50
 62
4
100
AcDbLine
 10
49.825886
 20
0.802056
 30
0.0
 11
49.838985
 21
0.841468
 31
0.0
  0
LINE
  5
77A
330
1F
100
AcDbEntity
  8
1
  6
CONTINUOUS
370
50
 62
4
100
AcDbLine
 10
39.692375
 20
-1.713108
 30
0.0
 11
39.713322
 21
-1.649086
 31
0.0
  0
LINE
  5
77B
330
1F
100
AcDbEntity
  8
1
  6
CONTINUOUS
370
50
 62
4
100
AcDbLine
 10
49.200058
 20
1.125409
 30
0.0
 11
49.206886
 21
1.147653
 31
0.0
  0
LINE
  5
77C
330
1F
100
AcDbEntity
  8
1
  6
CONTINUOUS
370
50
 62
4
100
AcDbLine
 10
49.951794
 20
2.055846
 30
0.0
 11
49.96048
 21
2.084202
 31
0.0
  0
LINE
  5
77D
330
1F
100
AcDbEntity
  8
1
  6
CONTINUOUS
370
50
 62
4
100
AcDbLine
 10
49.81339999999999
 20
0.7605989999999999
 30
0.0
 11
49.825886
 21
0.802056
 31
0.0
  0
LINE
  5
77E
330
1F
100
AcDbEntity
  8
1
  6
CONTINUOUS
370
50
 62
4
100
AcDbLine
 10
39.25296
 20
0.218461
 30
0.0
 11
39.26865
 21
0.271377
 31
0.0
  0
LINE
  5
77F
330
1F
100
AcDbEntity
  8
1
  6
CONTINUOUS
370
50
 62
4
100
AcDbLine
 10
49.05489
 20
0.999173
 30
0.0
 11
49.059738
 21
1.016939
 31
0.0
  0
LINE
  5
780
330
1F
100
AcDbEntity
  8
1
  6
CONTINUOUS
370
50
 62
4
100
AcDbLine
 10
49.801559
 20
0.717156
 30
0.0
 11
49.81339999999999
 21
0.7605989999999999
 31
0.0
  0
LINE
  5
781
330
1F
100
AcDbEntity
  8
1
  6
CONTINUOUS
370
50
 62
4
100
AcDbLine
 10
49.79039
 20
0.671808
 30
0.0
 11
49.801559
 21
0.717156
 31
0.0
  0
LINE
  5
782
330
1F
100
AcDbEntity
  8
1
  6
CONTINUOUS
370
50
 62
4
100
AcDbLine
 10
49.96048
 20
2.084202
 30
0.0
 11
49.968056
 21
2.11714
 31
0.0
  0
LINE
  5
783
330
1F
100
AcDbEntity
  8
1
  6
CONTINUOUS
370
50
 62
4
100
AcDbLine
 10
39.240776
 20
0.164615
 30
0.0
 11
39.25296
 21
0.218461
 31
0.0
  0
LINE
  5
784
330
1F
100
AcDbEntity
  8
1
  6
CONTINUOUS
370
50
 62
4
100
AcDbLine
 10
39.713322
 20
-1.649086
 30
0.0
 11
39.728661
 21
-1.581069
 31
0.0
  0
LINE
  5
785
330
1F
100
AcDbEntity
  8
1
  6
CONTINUOUS
370
50
 62
4
100
AcDbLine
 10
49.779957
 20
0.62476
 30
0.0
 11
49.79039
 21
0.671808
 31
0.0
  0
LINE
  5
786
330
1F
100
AcDbEntity
  8
1
  6
CONTINUOUS
370
50
 62
4
100
AcDbLine
 10
49.050999
 20
0.980359
 30
0.0
 11
49.05489
 21
0.999173
 31
0.0
  0
LINE
  5
787
330
1F
100
AcDbEntity
  8
1
  6
CONTINUOUS
370
50
 62
4
100
AcDbLine
 10
49.731552
 20
0.348812
 30
0.0
 11
49.746044
 21
0.421463
 31
0.0
  0
LINE
  5
788
330
1F
100
AcDbEntity
  8
1
  6
CONTINUOUS
370
50
 62
4
100
AcDbLine
 10
49.770283
 20
0.576118
 30
0.0
 11
49.779957
 21
0.62476
 31
0.0
  0
LINE
  5
789
330
1F
100
AcDbEntity
  8
1
  6
CONTINUOUS
370
50
 62
4
100
AcDbLine
 10
49.206886
 20
1.147653
 30
0.0
 11
49.211769
 21
1.172209
 31
0.0
  0
LINE
  5
78A
330
1F
100
AcDbEntity
  8
1
  6
CONTINUOUS
370
50
 62
4
100
AcDbLine
 10
49.71809
 20
0.274313
 30
0.0
 11
49.731552
 21
0.348812
 31
0.0
  0
LINE
  5
78B
330
1F
100
AcDbEntity
  8
1
  6
CONTINUOUS
370
50
 62
4
100
AcDbLine
 10
49.761391
 20
0.525964
 30
0.0
 11
49.770283
 21
0.576118
 31
0.0
  0
LINE
  5
78C
330
1F
100
AcDbEntity
  8
1
  6
CONTINUOUS
370
50
 62
4
100
AcDbLine
 10
49.968056
 20
2.11714
 30
0.0
 11
49.97468199999999
 21
2.155518
 31
0.0
  0
LINE
  5
78D
330
1F
100
AcDbEntity
  8
1
  6
CONTINUOUS
370
50
 62
4
100
AcDbLine
 10
49.70568799999999
 20
0.198063
 30
0.0
 11
49.71809
 21
0.274313
 31
0.0
  0
LINE
  5
78E
330
1F
100
AcDbEntity
  8
1
  6
CONTINUOUS
370
50
 62
4
100
AcDbLine
 10
49.753304
 20
0.474385
 30
0.0
 11
49.761391
 21
0.525964
 31
0.0
  0
LINE
  5
78F
330
1F
100
AcDbEntity
  8
1
  6
CONTINUOUS
370
50
 62
4
100
AcDbLine
 10
39.232437
 20
0.109999
 30
0.0
 11
39.240776
 21
0.164615
 31
0.0
  0
LINE
  5
790
330
1F
100
AcDbEntity
  8
1
  6
CONTINUOUS
370
50
 62
4
100
AcDbLine
 10
49.048065
 20
0.960509
 30
0.0
 11
49.050999
 21
0.980359
 31
0.0
  0
LINE
  5
791
330
1F
100
AcDbEntity
  8
1
  6
CONTINUOUS
370
50
 62
4
100
AcDbLine
 10
49.694378
 20
0.120157
 30
0.0
 11
49.70568799999999
 21
0.198063
 31
0.0
  0
LINE
  5
792
330
1F
100
AcDbEntity
  8
1
  6
CONTINUOUS
370
50
 62
4
100
AcDbLine
 10
49.746044
 20
0.421463
 30
0.0
 11
49.753304
 21
0.474385
 31
0.0
  0
LINE
  5
793
330
1F
100
AcDbEntity
  8
1
  6
CONTINUOUS
370
50
 62
4
100
AcDbLine
 10
39.728661
 20
-1.581069
 30
0.0
 11
39.738537
 21
-1.509068
 31
0.0
  0
LINE
  5
794
330
1F
100
AcDbEntity
  8
1
  6
CONTINUOUS
370
50
 62
4
100
AcDbLine
 10
49.97468199999999
 20
2.155518
 30
0.0
 11
49.980442
 21
2.199991
 31
0.0
  0
LINE
  5
795
330
1F
100
AcDbEntity
  8
1
  6
CONTINUOUS
370
50
 62
4
100
AcDbLine
 10
49.684189
 20
0.04069
 30
0.0
 11
49.694378
 21
0.120157
 31
0.0
  0
LINE
  5
796
330
1F
100
AcDbEntity
  8
1
  6
CONTINUOUS
370
50
 62
4
100
AcDbLine
 10
49.211769
 20
1.172209
 30
0.0
 11
49.214756
 21
1.198788
 31
0.0
  0
LINE
  5
797
330
1F
100
AcDbEntity
  8
1
  6
CONTINUOUS
370
50
 62
4
100
AcDbLine
 10
49.675156
 20
-0.040243
 30
0.0
 11
49.684189
 21
0.04069
 31
0.0
  0
LINE
  5
798
330
1F
100
AcDbEntity
  8
1
  6
CONTINUOUS
370
50
 62
4
100
AcDbLine
 10
49.667305
 20
-0.122545
 30
0.0
 11
49.675156
 21
-0.040243
 31
0.0
  0
LINE
  5
799
330
1F
100
AcDbEntity
  8
1
  6
CONTINUOUS
370
50
 62
4
100
AcDbLine
 10
49.046101
 20
0.9396319999999999
 30
0.0
 11
49.048065
 21
0.960509
 31
0.0
  0
LINE
  5
79A
330
1F
100
AcDbEntity
  8
1
  6
CONTINUOUS
370
50
 62
4
100
AcDbLine
 10
49.660671
 20
-0.206122
 30
0.0
 11
49.667305
 21
-0.122545
 31
0.0
  0
LINE
  5
79B
330
1F
100
AcDbEntity
  8
1
  6
CONTINUOUS
370
50
 62
4
100
AcDbLine
 10
39.228287
 20
0.054945
 30
0.0
 11
39.232437
 21
0.109999
 31
0.0
  0
LINE
  5
79C
330
1F
100
AcDbEntity
  8
1
  6
CONTINUOUS
370
50
 62
4
100
AcDbLine
 10
49.655293
 20
-0.290745
 30
0.0
 11
49.660671
 21
-0.206122
 31
0.0
  0
LINE
  5
79D
330
1F
100
AcDbEntity
  8
1
  6
CONTINUOUS
370
50
 62
4
100
AcDbLine
 10
39.738537
 20
-1.509068
 30
0.0
 11
39.743103
 21
-1.433096
 31
0.0
  0
LINE
  5
79E
330
1F
100
AcDbEntity
  8
1
  6
CONTINUOUS
370
50
 62
4
100
AcDbLine
 10
49.651218
 20
-0.375881
 30
0.0
 11
49.655293
 21
-0.290745
 31
0.0
  0
LINE
  5
79F
330
1F
100
AcDbEntity
  8
1
  6
CONTINUOUS
370
50
 62
4
100
AcDbLine
 10
49.045113
 20
0.9177369999999999
 30
0.0
 11
49.046101
 21
0.9396319999999999
 31
0.0
  0
LINE
  5
7A0
330
1F
100
AcDbEntity
  8
1
  6
CONTINUOUS
370
50
 62
4
100
AcDbLine
 10
49.214756
 20
1.198788
 30
0.0
 11
49.215927
 21
1.227224
 31
0.0
  0
LINE
  5
7A1
330
1F
100
AcDbEntity
  8
1
  6
CONTINUOUS
370
50
 62
4
100
AcDbLine
 10
49.648453
 20
-0.461367
 30
0.0
 11
49.651218
 21
-0.375881
 31
0.0
  0
LINE
  5
7A2
330
1F
100
AcDbEntity
  8
1
  6
CONTINUOUS
370
50
 62
4
100
AcDbLine
 10
49.647015
 20
-0.547071
 30
0.0
 11
49.648453
 21
-0.461367
 31
0.0
  0
LINE
  5
7A3
330
1F
100
AcDbEntity
  8
1
  6
CONTINUOUS
370
50
 62
4
100
AcDbLine
 10
49.646904
 20
-0.632861
 30
0.0
 11
49.647015
 21
-0.547071
 31
0.0
  0
LINE
  5
7A4
330
1F
100
AcDbEntity
  8
1
  6
CONTINUOUS
370
50
 62
4
100
AcDbLine
 10
35.900002
 20
-2.99995
 30
0.0
 11
35.900002
 21
2.99995
 31
0.0
  0
LINE
  5
7A5
330
1F
100
AcDbEntity
  8
1
  6
CONTINUOUS
370
50
 62
4
100
AcDbLine
 10
38.799999
 20
-2.183892
 30
0.0
 11
38.799999
 21
1.972836
 31
0.0
  0
LINE
  5
7A6
330
1F
100
AcDbEntity
  8
1
  6
CONTINUOUS
370
50
 62
4
100
AcDbLine
 10
41.200001
 20
-1.845697
 30
0.0
 11
41.200001
 21
1.845697
 31
0.0
  0
LINE
  5
7A7
330
1F
100
AcDbEntity
  8
1
  6
CONTINUOUS
370
50
 62
4
100
AcDbLine
 10
50.0
 20
-2.2
 30
0.0
 11
50.0
 21
0.385566
 31
0.0
  0
LINE
  5
7A8
330
1F
100
AcDbEntity
  8
1
  6
CONTINUOUS
370
50
 62
4
100
AcDbLine
 10
50.0
 20
0.385567
 30
0.0
 11
50.0
 21
2.199997
 31
0.0
  0
ELLIPSE
  5
7A9
330
1F
100
AcDbEntity
  8
1
  6
CONTINUOUS
370
50
 62
4
100
AcDbEllipse
 10
37.675272
 20
1.827174
 30
0.0
 11
1.875107019812944
 21
0.2168098286453322
 31
0.0
210
0.0
220
0.0
230
1.0
 40
0.2025756138565232
 41
1.070251956968653
 42
1.155055466659432
  0
ELLIPSE
  5
7AA
330
1F
100
AcDbEntity
  8
1
  6
CONTINUOUS
370
50
 62
4
100
AcDbEllipse
 10
38.47576
 20
2.329646
 30
0.0
 11
0.2954710084791365
 21
0.03416392666719026
 31
0.0
210
0.0
220
0.0
230
1.0
 40
0.2025749616038729
 41
4.29184899791793
 42
4.40299980777289
  0
ELLIPSE
  5
7AB
330
1F
100
AcDbEntity
  8
1
  6
CONTINUOUS
370
50
 62
4
100
AcDbEllipse
 10
40.361707
 20
3.384224
 30
0.0
 11
1.856377929029104
 21
1.3097241005928
 31
0.0
210
0.0
220
0.0
230
1.0
 40
0.8133603654034323
 41
4.411000477138468
 42
4.593864572325686
  0
ELLIPSE
  5
7AC
330
1F
100
AcDbEntity
  8
1
  6
CONTINUOUS
370
50
 62
4
100
AcDbEllipse
 10
40.361707
 20
3.384224
 30
0.0
 11
1.856377929029104
 21
1.3097241005928
 31
0.0
210
0.0
220
0.0
230
1.0
 40
0.8133603654034323
 41
3.023068203307458
 42
3.041042204916382
  0
ELLIPSE
  5
7AD
330
1F
100
AcDbEntity
  8
1
  6
CONTINUOUS
370
50
 62
4
100
AcDbEllipse
 10
41.329056
 20
-2.013123
 30
0.0
 11
-1.95629307260992
 21
1.380216897084094
 31
0.0
210
0.0
220
0.0
230
1.0
 40
0.8133606894058991
 41
5.29060591043154
 42
6.167417165850194
  0
ELLIPSE
  5
7AE
330
1F
100
AcDbEntity
  8
1
  6
CONTINUOUS
370
50
 62
4
100
AcDbEllipse
 10
41.565548
 20
-1.677923
 30
0.0
 11
-2.701037195505986
 21
1.905653722893577
 31
0.0
210
0.0
220
0.0
230
0.9999999999999998
 40
0.8133606022577383
 41
5.351010142198633
 42
5.757082151345719
  0
ELLIPSE
  5
7AF
330
1F
100
AcDbEntity
  8
1
  6
CONTINUOUS
370
50
 62
4
100
AcDbEllipse
 10
50.000097
 20
0.0
 30
0.0
 11
4.327079000153525
 21
0.005030867954828136
 31
0.0
210
0.0
220
0.0
230
1.0
 40
0.5084247364408846
 41
4.707255421331847
 42
4.710079868595766
  0
ELLIPSE
  5
7B0
330
1F
100
AcDbEntity
  8
1
  6
CONTINUOUS
370
50
 62
4
100
AcDbEllipse
 10
50.000097
 20
0.0
 30
0.0
 11
-4.327079000153525
 21
0.005030867954828211
 31
0.0
210
0.0
220
0.0
230
1.0
 40
0.5084247364408846
 41
4.713002449728947
 42
4.717522539437519
  0
ELLIPSE
  5
7B1
330
1F
100
AcDbEntity
  8
1
  6
CONTINUOUS
370
50
 62
4
100
AcDbEllipse
 10
50.097316
 20
0.0
 30
0.0
 11
1.347067601507792E-16
 21
2.200001
 31
0.0
210
0.0
220
0.0
230
1.0
 40
0.3249198523091581
 41
2.931974099134155
 42
3.005029333895744
  0
LINE
  5
7B2
330
1F
100
AcDbEntity
  8
CUT
  6
CONTINUOUS
370
25
 62
1
100
AcDbLine
 10
41.2
 20
0.0
 30
0.0
 11
50.0
 21
0.0
 31
0.0
  0
LINE
  5
7B3
330
1F
100
AcDbEntity
  8
CUT
  6
CONTINUOUS
370
25
 62
1
100
AcDbLine
 10
50.0
 20
0.0
 30
0.0
 11
50.0
 21
2.195
 31
0.0
  0
LINE
  5
7B4
330
1F
100
AcDbEntity
  8
CUT
  6
CONTINUOUS
370
25
 62
1
100
AcDbLine
 10
50.0
 20
2.195
 30
0.0
 11
50.0
 21
2.2
 31
0.0
  0
LINE
  5
7B5
330
1F
100
AcDbEntity
  8
CUT
  6
CONTINUOUS
370
25
 62
1
100
AcDbLine
 10
50.0
 20
2.2
 30
0.0
 11
41.2
 21
2.1999
 31
0.0
  0
LINE
  5
7B6
330
1F
100
AcDbEntity
  8
CUT
  6
CONTINUOUS
370
25
 62
1
100
AcDbLine
 10
41.2
 20
2.1999
 30
0.0
 11
41.2
 21
0.0
 31
0.0
  0
LINE
  5
7B7
330
1F
100
AcDbEntity
  8
NOCUT
  6
CONTINUOUS
370
25
 62
7
100
AcDbLine
 10
35.9
 20
0.0
 30
0.0
 11
41.2
 21
0.0
 31
0.0
  0
LINE
  5
7B8
330
1F
100
AcDbEntity
  8
NOCUT
  6
CONTINUOUS
370
25
 62
7
100
AcDbLine
 10
41.2
 20
0.0
 30
0.0
 11
41.2
 21
2.19995
 31
0.0
  0
LINE
  5
7B9
330
1F
100
AcDbEntity
  8
NOCUT
  6
CONTINUOUS
370
25
 62
7
100
AcDbLine
 10
41.2
 20
2.19995
 30
0.0
 11
38.8
 21
2.19995
 31
0.0
  0
LINE
  5
7BA
330
1F
100
AcDbEntity
  8
NOCUT
  6
CONTINUOUS
370
25
 62
7
100
AcDbLine
 10
38.8
 20
2.19995
 30
0.0
 11
35.9
 21
2.99995
 31
0.0
  0
LINE
  5
7BB
330
1F
100
AcDbEntity
  8
NOCUT
  6
CONTINUOUS
370
25
 62
7
100
AcDbLine
 10
35.9
 20
2.99995
 30
0.0
 11
35.9
 21
0.0
 31
0.0
  0
LINE
  5
7BC
330
1F
100
AcDbEntity
  8
SK1
  6
CONTINUOUS
370
50
 62
4
100
AcDbLine
 10
35.9
 20
3.0
 30
0.0
 11
0.3999999999999986
 21
3.0
 31
0.0
  0
LINE
  5
7BD
330
1F
100
AcDbEntity
  8
SK1
  6
CONTINUOUS
370
50
 62
4
100
AcDbLine
 10
0.3999999999999986
 20
3.0
 30
0.0
 11
0.0
 21
2.6
 31
0.0
  0
LINE
  5
7BE
330
1F
100
AcDbEntity
  8
SK1
  6
CONTINUOUS
370
50
 62
4
100
AcDbLine
 10
0.0
 20
2.6
 30
0.0
 11
0.0
 21
-2.6
 31
0.0
  0
LINE
  5
7BF
330
1F
100
AcDbEntity
  8
SK1
  6
CONTINUOUS
370
50
 62
4
100
AcDbLine
 10
0.0
 20
-2.6
 30
0.0
 11
0.3999999999999986
 21
-3.0
 31
0.0
  0
LINE
  5
7C0
330
1F
100
AcDbEntity
  8
SK1
  6
CONTINUOUS
370
50
 62
4
100
AcDbLine
 10
0.3999999999999986
 20
-3.0
 30
0.0
 11
35.9
 21
-3.0
 31
0.0
  0
LINE
  5
7C1
330
1F
100
AcDbEntity
  8
SK1
  6
CONTINUOUS
370
50
 62
4
100
AcDbLine
 10
0.3999999999999986
 20
3.0
 30
0.0
 11
0.3999999999999986
 21
-3.0
 31
0.0
  0
LINE
  5
7C2
330
1F
100
AcDbEntity
  8
SK2
  6
CONTINUOUS
370
25
 62
7
100
AcDbLine
 10
-12.0000002
 20
-3.000001
 30
0.0
 11
-13.00000000000008
 21
-3.000001
 31
0.0
  0
LINE
  5
7C3
330
1F
100
AcDbEntity
  8
SK2
  6
CONTINUOUS
370
25
 62
7
100
AcDbLine
 10
0.0
 20
-3.000001
 30
0.0
 11
-11.9999998
 21
-3.000001
 31
0.0
  0
LINE
  5
7C4
330
1F
100
AcDbEntity
  8
SK2
  6
CONTINUOUS
370
25
 62
7
100
AcDbLine
 10
-13.0
 20
3.0
 30
0.0
 11
0.0
 21
3.0
 31
0.0
  0
LINE
  5
7C5
330
1F
100
AcDbEntity
  8
SK2
  6
CONTINUOUS
370
25
 62
7
100
AcDbLine
 10
-12.0
 20
-10.0
 30
0.0
 11
-12.0
 21
16.475
 31
0.0
  0
LINE
  5
7C6
330
1F
100
AcDbEntity
  8
SK2
  6
CONTINUOUS
370
25
 62
7
100
AcDbLine
 10
-12.0
 20
-3.0
 30
0.0
 11
-11.0
 21
-8.0
 31
0.0
  0
LINE
  5
7C7
330
1F
100
AcDbEntity
  8
SK2
  6
CONTINUOUS
370
25
 62
7
100
AcDbLine
 10
-11.0
 20
-8.0
 30
0.0
 11
-13.0
 21
-8.0
 31
0.0
  0
LINE
  5
7C8
330
1F
100
AcDbEntity
  8
SK2
  6
CONTINUOUS
370
25
 62
7
100
AcDbLine
 10
-13.0
 20
-8.0
 30
0.0
 11
-12.0
 21
-3.0
 31
0.0
  0
LINE
  5
7C9
330
1F
100
AcDbEntity
  8
SK2
  6
CONTINUOUS
370
25
 62
7
100
AcDbLine
 10
-11.1322943214974
 20
-8.0
 30
0.0
 11
-11.0220490535829
 21
-7.8897547320855
 31
0.0
  0
LINE
  5
7CA
330
1F
100
AcDbEntity
  8
SK2
  6
CONTINUOUS
370
25
 62
7
100
AcDbLine
 10
-11.55655839020933
 20
-8.0
 30
0.0
 11
-11.09275973170156
 21
-7.536201341492237
 31
0.0
  0
LINE
  5
7CB
330
1F
100
AcDbEntity
  8
SK2
  6
CONTINUOUS
370
25
 62
7
100
AcDbLine
 10
-11.98082245892127
 20
-8.0
 30
0.0
 11
-11.16347040982021
 21
-7.182647950898946
 31
0.0
  0
LINE
  5
7CC
330
1F
100
AcDbEntity
  8
SK2
  6
CONTINUOUS
370
25
 62
7
100
AcDbLine
 10
-12.40508652763319
 20
-8.0
 30
0.0
 11
-11.23418108793886
 21
-6.829094560305663
 31
0.0
  0
LINE
  5
7CD
330
1F
100
AcDbEntity
  8
SK2
  6
CONTINUOUS
370
25
 62
7
100
AcDbLine
 10
-12.82935059634512
 20
-8.0
 30
0.0
 11
-11.30489176605752
 21
-6.475541169712393
 31
0.0
  0
LINE
  5
7CE
330
1F
100
AcDbEntity
  8
SK2
  6
CONTINUOUS
370
25
 62
7
100
AcDbLine
 10
-12.93659633373574
 20
-7.682981668678678
 30
0.0
 11
-11.37560244417618
 21
-6.121987779119124
 31
0.0
  0
LINE
  5
7CF
330
1F
100
AcDbEntity
  8
SK2
  6
CONTINUOUS
370
25
 62
7
100
AcDbLine
 10
-12.83053031655776
 20
-7.152651582788771
 30
0.0
 11
-11.44631312229484
 21
-5.768434388525854
 31
0.0
  0
LINE
  5
7D0
330
1F
100
AcDbEntity
  8
SK2
  6
CONTINUOUS
370
25
 62
7
100
AcDbLine
 10
-12.72446429937978
 20
-6.622321496898863
 30
0.0
 11
-11.51702380041349
 21
-5.414880997932578
 31
0.0
  0
LINE
  5
7D1
330
1F
100
AcDbEntity
  8
SK2
  6
CONTINUOUS
370
25
 62
7
100
AcDbLine
 10
-12.6183982822018
 20
-6.091991411008948
 30
0.0
 11
-11.58773447853214
 21
-5.061327607339294
 31
0.0
  0
LINE
  5
7D2
330
1F
100
AcDbEntity
  8
SK2
  6
CONTINUOUS
370
25
 62
7
100
AcDbLine
 10
-12.51233226502381
 20
-5.561661325119026
 30
0.0
 11
-11.65844515665081
 21
-4.707774216746024
 31
0.0
  0
LINE
  5
7D3
330
1F
100
AcDbEntity
  8
SK2
  6
CONTINUOUS
370
25
 62
7
100
AcDbLine
 10
-12.40626624784583
 20
-5.031331239229118
 30
0.0
 11
-11.72915583476945
 21
-4.354220826152734
 31
0.0
  0
LINE
  5
7D4
330
1F
100
AcDbEntity
  8
SK2
  6
CONTINUOUS
370
25
 62
7
100
AcDbLine
 10
-12.30020023066785
 20
-4.50100115333921
 30
0.0
 11
-11.79986651288811
 21
-4.000667435559464
 31
0.0
  0
LINE
  5
7D5
330
1F
100
AcDbEntity
  8
SK2
  6
CONTINUOUS
370
25
 62
7
100
AcDbLine
 10
-12.19413421348987
 20
-3.970671067449295
 30
0.0
 11
-11.87057719100676
 21
-3.64711404496618
 31
0.0
  0
LINE
  5
7D6
330
1F
100
AcDbEntity
  8
SK2
  6
CONTINUOUS
370
25
 62
7
100
AcDbLine
 10
-12.08806819631187
 20
-3.440340981559359
 30
0.0
 11
-11.94128786912541
 21
-3.293560654372897
 31
0.0
  0
LINE
  5
7D7
330
1F
100
AcDbEntity
  8
SK2
  6
CONTINUOUS
370
25
 62
7
100
AcDbLine
 10
-12.95481882974042
 20
-7.77409414870209
 30
0.0
 11
-12.72891297844251
 21
-8.0
 31
0.0
  0
LINE
  5
7D8
330
1F
100
AcDbEntity
  8
SK2
  6
CONTINUOUS
370
25
 62
7
100
AcDbLine
 10
-12.88410815162176
 20
-7.420540758108821
 30
0.0
 11
-12.30464890973058
 21
-8.0
 31
0.0
  0
LINE
  5
7D9
330
1F
100
AcDbEntity
  8
SK2
  6
CONTINUOUS
370
25
 62
7
100
AcDbLine
 10
-12.81339747350311
 20
-7.066987367515537
 30
0.0
 11
-11.88038484101864
 21
-8.0
 31
0.0
  0
LINE
  5
7DA
330
1F
100
AcDbEntity
  8
SK2
  6
CONTINUOUS
370
25
 62
7
100
AcDbLine
 10
-12.74268679538446
 20
-6.713433976922261
 30
0.0
 11
-11.45612077230671
 21
-8.0
 31
0.0
  0
LINE
  5
7DB
330
1F
100
AcDbEntity
  8
SK2
  6
CONTINUOUS
370
25
 62
7
100
AcDbLine
 10
-12.6719761172658
 20
-6.359880586328984
 30
0.0
 11
-11.03185670359478
 21
-8.0
 31
0.0
  0
LINE
  5
7DC
330
1F
100
AcDbEntity
  8
SK2
  6
CONTINUOUS
370
25
 62
7
100
AcDbLine
 10
-12.60126543914714
 20
-6.006327195735714
 30
0.0
 11
-11.09810184127929
 21
-7.509490793603568
 31
0.0
  0
LINE
  5
7DD
330
1F
100
AcDbEntity
  8
SK2
  6
CONTINUOUS
370
25
 62
7
100
AcDbLine
 10
-12.53055476102848
 20
-5.652773805142438
 30
0.0
 11
-11.20416785845728
 21
-6.979160707713646
 31
0.0
  0
LINE
  5
7DE
330
1F
100
AcDbEntity
  8
SK2
  6
CONTINUOUS
370
25
 62
7
100
AcDbLine
 10
-12.45984408290983
 20
-5.299220414549161
 30
0.0
 11
-11.31023387563526
 21
-6.448830621823738
 31
0.0
  0
LINE
  5
7DF
330
1F
100
AcDbEntity
  8
SK2
  6
CONTINUOUS
370
25
 62
7
100
AcDbLine
 10
-12.38913340479118
 20
-4.945667023955878
 30
0.0
 11
-11.41629989281324
 21
-5.918500535933831
 31
0.0
  0
LINE
  5
7E0
330
1F
100
AcDbEntity
  8
SK2
  6
CONTINUOUS
370
25
 62
7
100
AcDbLine
 10
-12.31842272667252
 20
-4.592113633362608
 30
0.0
 11
-11.52236590999122
 21
-5.388170450043923
 31
0.0
  0
LINE
  5
7E1
330
1F
100
AcDbEntity
  8
SK2
  6
CONTINUOUS
370
25
 62
7
100
AcDbLine
 10
-12.24771204855387
 20
-4.238560242769324
 30
0.0
 11
-11.6284319271692
 21
-4.857840364154008
 31
0.0
  0
LINE
  5
7E2
330
1F
100
AcDbEntity
  8
SK2
  6
CONTINUOUS
370
25
 62
7
100
AcDbLine
 10
-12.17700137043522
 20
-3.885006852176041
 30
0.0
 11
-11.73449794434718
 21
-4.327510278264086
 31
0.0
  0
LINE
  5
7E3
330
1F
100
AcDbEntity
  8
SK2
  6
CONTINUOUS
370
25
 62
7
100
AcDbLine
 10
-12.10629069231656
 20
-3.531453461582778
 30
0.0
 11
-11.84056396152517
 21
-3.797180192374164
 31
0.0
  0
LINE
  5
7E4
330
1F
100
AcDbEntity
  8
SK2
  6
CONTINUOUS
370
25
 62
7
100
AcDbLine
 10
-12.0355800141979
 20
-3.177900070989494
 30
0.0
 11
-11.94662997870316
 21
-3.266850106484242
 31
0.0
  0
LINE
  5
7E5
330
1F
100
AcDbEntity
  8
SK2
  6
CONTINUOUS
370
25
 62
7
100
AcDbLine
 10
-12.0
 20
3.0
 30
0.0
 11
-13.0
 21
8.0
 31
0.0
  0
LINE
  5
7E6
330
1F
100
AcDbEntity
  8
SK2
  6
CONTINUOUS
370
25
 62
7
100
AcDbLine
 10
-13.0
 20
8.0
 30
0.0
 11
-11.0
 21
8.0
 31
0.0
  0
LINE
  5
7E7
330
1F
100
AcDbEntity
  8
SK2
  6
CONTINUOUS
370
25
 62
7
100
AcDbLine
 10
-11.0
 20
8.0
 30
0.0
 11
-12.0
 21
3.0
 31
0.0
  0
LINE
  5
7E8
330
1F
100
AcDbEntity
  8
SK2
  6
CONTINUOUS
370
25
 62
7
100
AcDbLine
 10
-12.00194804090523
 20
3.009740204526153
 30
0.0
 11
-11.99707793864216
 21
3.01461030678923
 31
0.0
  0
LINE
  5
7E9
330
1F
100
AcDbEntity
  8
SK2
  6
CONTINUOUS
370
25
 62
7
100
AcDbLine
 10
-12.07265871902388
 20
3.363293595119437
 30
0.0
 11
-11.89101192146418
 21
3.544940392679145
 31
0.0
  0
LINE
  5
7EA
330
1F
100
AcDbEntity
  8
SK2
  6
CONTINUOUS
370
25
 62
7
100
AcDbLine
 10
-12.14336939714254
 20
3.716846985712728
 30
0.0
 11
-11.78494590428619
 21
4.075270478569067
 31
0.0
  0
LINE
  5
7EB
330
1F
100
AcDbEntity
  8
SK2
  6
CONTINUOUS
370
25
 62
7
100
AcDbLine
 10
-12.2140800752612
 20
4.07040037630599
 30
0.0
 11
-11.67887988710821
 21
4.605600564458982
 31
0.0
  0
LINE
  5
7EC
330
1F
100
AcDbEntity
  8
SK2
  6
CONTINUOUS
370
25
 62
7
100
AcDbLine
 10
-12.28479075337985
 20
4.423953766899274
 30
0.0
 11
-11.57281386993022
 21
5.135930650348904
 31
0.0
  0
LINE
  5
7ED
330
1F
100
AcDbEntity
  8
SK2
  6
CONTINUOUS
370
25
 62
7
100
AcDbLine
 10
-12.35550143149851
 20
4.777507157492543
 30
0.0
 11
-11.46674785275224
 21
5.666260736238812
 31
0.0
  0
LINE
  5
7EE
330
1F
100
AcDbEntity
  8
SK2
  6
CONTINUOUS
370
25
 62
7
100
AcDbLine
 10
-12.42621210961716
 20
5.131060548085827
 30
0.0
 11
-11.36068183557426
 21
6.196590822128726
 31
0.0
  0
LINE
  5
7EF
330
1F
100
AcDbEntity
  8
SK2
  6
CONTINUOUS
370
25
 62
7
100
AcDbLine
 10
-12.49692278773582
 20
5.484613938679097
 30
0.0
 11
-11.25461581839627
 21
6.726920908018641
 31
0.0
  0
LINE
  5
7F0
330
1F
100
AcDbEntity
  8
SK2
  6
CONTINUOUS
370
25
 62
7
100
AcDbLine
 10
-12.56763346585448
 20
5.838167329272373
 30
0.0
 11
-11.14854980121829
 21
7.257250993908563
 31
0.0
  0
LINE
  5
7F1
330
1F
100
AcDbEntity
  8
SK2
  6
CONTINUOUS
370
25
 62
7
100
AcDbLine
 10
-12.63834414397314
 20
6.19172071986565
 30
0.0
 11
-11.04248378404031
 21
7.787581079798478
 31
0.0
  0
LINE
  5
7F2
330
1F
100
AcDbEntity
  8
SK2
  6
CONTINUOUS
370
25
 62
7
100
AcDbLine
 10
-12.70905482209179
 20
6.545274110458919
 30
0.0
 11
-11.25432893255071
 21
8.0
 31
0.0
  0
LINE
  5
7F3
330
1F
100
AcDbEntity
  8
SK2
  6
CONTINUOUS
370
25
 62
7
100
AcDbLine
 10
-12.77976550021044
 20
6.898827501052196
 30
0.0
 11
-11.67859300126264
 21
8.0
 31
0.0
  0
LINE
  5
7F4
330
1F
100
AcDbEntity
  8
SK2
  6
CONTINUOUS
370
25
 62
7
100
AcDbLine
 10
-12.8504761783291
 20
7.252380891645473
 30
0.0
 11
-12.10285706997457
 21
8.0
 31
0.0
  0
LINE
  5
7F5
330
1F
100
AcDbEntity
  8
SK2
  6
CONTINUOUS
370
25
 62
7
100
AcDbLine
 10
-12.92118685644775
 20
7.605934282238749
 30
0.0
 11
-12.5271211386865
 21
8.0
 31
0.0
  0
LINE
  5
7F6
330
1F
100
AcDbEntity
  8
SK2
  6
CONTINUOUS
370
25
 62
7
100
AcDbLine
 10
-12.99189753456641
 20
7.959487672832026
 30
0.0
 11
-12.95138520739843
 21
8.0
 31
0.0
  0
LINE
  5
7F7
330
1F
100
AcDbEntity
  8
SK2
  6
CONTINUOUS
370
25
 62
7
100
AcDbLine
 10
-12.02218734311781
 20
3.110936715589027
 30
0.0
 11
-11.98520843792146
 21
3.073957810392685
 31
0.0
  0
LINE
  5
7F8
330
1F
100
AcDbEntity
  8
SK2
  6
CONTINUOUS
370
25
 62
7
100
AcDbLine
 10
-12.12825336029578
 20
3.641266801478935
 30
0.0
 11
-11.91449775980281
 21
3.427511200985968
 31
0.0
  0
LINE
  5
7F9
330
1F
100
AcDbEntity
  8
SK2
  6
CONTINUOUS
370
25
 62
7
100
AcDbLine
 10
-12.23431937747377
 20
4.171596887368857
 30
0.0
 11
-11.84378708168415
 21
3.781064591579238
 31
0.0
  0
LINE
  5
7FA
330
1F
100
AcDbEntity
  8
SK2
  6
CONTINUOUS
370
25
 62
7
100
AcDbLine
 10
-12.34038539465175
 20
4.701926973258779
 30
0.0
 11
-11.7730764035655
 21
4.134617982172522
 31
0.0
  0
LINE
  5
7FB
330
1F
100
AcDbEntity
  8
SK2
  6
CONTINUOUS
370
25
 62
7
100
AcDbLine
 10
-12.44645141182973
 20
5.232257059148687
 30
0.0
 11
-11.70236572544685
 21
4.488171372765798
 31
0.0
  0
LINE
  5
7FC
330
1F
100
AcDbEntity
  8
SK2
  6
CONTINUOUS
370
25
 62
7
100
AcDbLine
 10
-12.55251742900771
 20
5.762587145038601
 30
0.0
 11
-11.63165504732819
 21
4.841724763359075
 31
0.0
  0
LINE
  5
7FD
330
1F
100
AcDbEntity
  8
SK2
  6
CONTINUOUS
370
25
 62
7
100
AcDbLine
 10
-12.6585834461857
 20
6.292917230928509
 30
0.0
 11
-11.56094436920954
 21
5.195278153952344
 31
0.0
  0
LINE
  5
7FE
330
1F
100
AcDbEntity
  8
SK2
  6
CONTINUOUS
370
25
 62
7
100
AcDbLine
 10
-12.76464946336369
 20
6.823247316818431
 30
0.0
 11
-11.49023369109087
 21
5.548831544545614
 31
0.0
  0
LINE
  5
7FF
330
1F
100
AcDbEntity
  8
SK2
  6
CONTINUOUS
370
25
 62
7
100
AcDbLine
 10
-12.87071548054167
 20
7.353577402708339
 30
0.0
 11
-11.41952301297222
 21
5.90238493513889
 31
0.0
  0
LINE
  5
800
330
1F
100
AcDbEntity
  8
SK2
  6
CONTINUOUS
370
25
 62
7
100
AcDbLine
 10
-12.97678149771965
 20
7.883907488598254
 30
0.0
 11
-11.34881233485357
 21
6.255938325732181
 31
0.0
  0
LINE
  5
801
330
1F
100
AcDbEntity
  8
SK2
  6
CONTINUOUS
370
25
 62
7
100
AcDbLine
 10
-12.66860994040947
 20
8.0
 30
0.0
 11
-11.27810165673491
 21
6.609491716325451
 31
0.0
  0
LINE
  5
802
330
1F
100
AcDbEntity
  8
SK2
  6
CONTINUOUS
370
25
 62
7
100
AcDbLine
 10
-12.24434587169753
 20
8.0
 30
0.0
 11
-11.20739097861625
 21
6.963045106918727
 31
0.0
  0
LINE
  5
803
330
1F
100
AcDbEntity
  8
SK2
  6
CONTINUOUS
370
25
 62
7
100
AcDbLine
 10
-11.8200818029856
 20
8.0
 30
0.0
 11
-11.13668030049759
 21
7.316598497511997
 31
0.0
  0
LINE
  5
804
330
1F
100
AcDbEntity
  8
SK2
  6
CONTINUOUS
370
25
 62
7
100
AcDbLine
 10
-11.39581773427366
 20
8.0
 30
0.0
 11
-11.06596962237895
 21
7.670151888105288
 31
0.0
  0
TEXT
  5
805
330
1F
100
AcDbEntity
  8
SK2
  6
CONTINUOUS
370
25
 62
7
100
AcDbText
 10
-13.5
 20
13.34583333333333
 30
0.0
 40
3.5
  1
6
 50
90.00000000000001
 72
     1
 11
-13.5
 21
14.5125
 31
0.0
100
AcDbText
  0
CIRCLE
  5
806
330
1F
100
AcDbEntity
  8
SK2
  6
CONTINUOUS
370
25
 62
7
100
AcDbCircle
 10
-15.25
 20
11.1875
 30
0.0
 40
1.4
  0
LINE
  5
807
330
1F
100
AcDbEntity
  8
SK2
  6
CONTINUOUS
370
25
 62
7
100
AcDbLine
 10
-13.85
 20
9.787500000000001
 30
0.0
 11
-16.65
 21
12.5875
 31
0.0
  0
LINE
  5
808
330
1F
100
AcDbEntity
  8
SK2
  6
CONTINUOUS
370
25
 62
7
100
AcDbLine
 10
0.0
 20
3.0
 30
0.0
 11
0.0
 21
16.00001
 31
0.0
  0
LINE
  5
809
330
1F
100
AcDbEntity
  8
SK2
  6
CONTINUOUS
370
25
 62
7
100
AcDbLine
 10
35.9
 20
16.00001
 30
0.0
 11
35.9
 21
3.0
 31
0.0
  0
LINE
  5
80A
330
1F
100
AcDbEntity
  8
SK2
  6
CONTINUOUS
370
25
 62
7
100
AcDbLine
 10
0.0
 20
15.00001
 30
0.0
 11
35.9
 21
15.00001
 31
0.0
  0
LINE
  5
80B
330
1F
100
AcDbEntity
  8
SK2
  6
CONTINUOUS
370
25
 62
7
100
AcDbLine
 10
0.0
 20
15.00001
 30
0.0
 11
5.0
 21
16.00001
 31
0.0
  0
LINE
  5
80C
330
1F
100
AcDbEntity
  8
SK2
  6
CONTINUOUS
370
25
 62
7
100
AcDbLine
 10
5.0
 20
16.00001
 30
0.0
 11
5.0
 21
14.00001
 31
0.0
  0
LINE
  5
80D
330
1F
100
AcDbEntity
  8
SK2
  6
CONTINUOUS
370
25
 62
7
100
AcDbLine
 10
5.0
 20
14.00001
 30
0.0
 11
0.0
 21
15.00001
 31
0.0
  0
LINE
  5
80E
330
1F
100
AcDbEntity
  8
SK2
  6
CONTINUOUS
370
25
 62
7
100
AcDbLine
 10
4.940015597112993
 20
14.0120068805774
 30
0.0
 11
5.0
 21
14.07199128346441
 31
0.0
  0
LINE
  5
80F
330
1F
100
AcDbEntity
  8
SK2
  6
CONTINUOUS
370
25
 62
7
100
AcDbLine
 10
4.586462206519723
 20
14.08271755869606
 30
0.0
 11
5.0
 21
14.49625535217633
 31
0.0
  0
LINE
  5
810
330
1F
100
AcDbEntity
  8
SK2
  6
CONTINUOUS
370
25
 62
7
100
AcDbLine
 10
4.23290881592645
 20
14.15342823681472
 30
0.0
 11
5.0
 21
14.92051942088826
 31
0.0
  0
LINE
  5
811
330
1F
100
AcDbEntity
  8
SK2
  6
CONTINUOUS
370
25
 62
7
100
AcDbLine
 10
3.879355425333173
 20
14.22413891493337
 30
0.0
 11
5.0
 21
15.34478348960019
 31
0.0
  0
LINE
  5
812
330
1F
100
AcDbEntity
  8
SK2
  6
CONTINUOUS
370
25
 62
7
100
AcDbLine
 10
3.52580203473989
 20
14.29484959305201
 30
0.0
 11
5.0
 21
15.76904755831212
 31
0.0
  0
LINE
  5
813
330
1F
100
AcDbEntity
  8
SK2
  6
CONTINUOUS
370
25
 62
7
100
AcDbLine
 10
3.172248644146627
 20
14.36556027117068
 30
0.0
 11
4.758372966219941
 21
15.95168459324399
 31
0.0
  0
LINE
  5
814
330
1F
100
AcDbEntity
  8
SK2
  6
CONTINUOUS
370
25
 62
7
100
AcDbLine
 10
2.818695253553351
 20
14.43627094928934
 30
0.0
 11
4.228042880330019
 21
15.845618576066
 31
0.0
  0
LINE
  5
815
330
1F
100
AcDbEntity
  8
SK2
  6
CONTINUOUS
370
25
 62
7
100
AcDbLine
 10
2.465141862960067
 20
14.50698162740798
 30
0.0
 11
3.697712794440115
 21
15.73955255888802
 31
0.0
  0
LINE
  5
816
330
1F
100
AcDbEntity
  8
SK2
  6
CONTINUOUS
370
25
 62
7
100
AcDbLine
 10
2.111588472366797
 20
14.57769230552664
 30
0.0
 11
3.167382708550207
 21
15.63348654171004
 31
0.0
  0
LINE
  5
817
330
1F
100
AcDbEntity
  8
SK2
  6
CONTINUOUS
370
25
 62
7
100
AcDbLine
 10
1.758035081773521
 20
14.64840298364529
 30
0.0
 11
2.637052622660292
 21
15.52742052453205
 31
0.0
  0
LINE
  5
818
330
1F
100
AcDbEntity
  8
SK2
  6
CONTINUOUS
370
25
 62
7
100
AcDbLine
 10
1.404481691180244
 20
14.71911366176395
 30
0.0
 11
2.10672253677037
 21
15.42135450735407
 31
0.0
  0
LINE
  5
819
330
1F
100
AcDbEntity
  8
SK2
  6
CONTINUOUS
370
25
 62
7
100
AcDbLine
 10
1.050928300586975
 20
14.78982433988261
 30
0.0
 11
1.576392450880462
 21
15.31528849017609
 31
0.0
  0
LINE
  5
81A
330
1F
100
AcDbEntity
  8
SK2
  6
CONTINUOUS
370
25
 62
7
100
AcDbLine
 10
0.697374909993691
 20
14.86053501800126
 30
0.0
 11
1.046062364990547
 21
15.20922247299811
 31
0.0
  0
LINE
  5
81B
330
1F
100
AcDbEntity
  8
SK2
  6
CONTINUOUS
370
25
 62
7
100
AcDbLine
 10
0.3438215194004286
 20
14.93124569611992
 30
0.0
 11
0.5157322791006322
 21
15.10315645582013
 31
0.0
  0
LINE
  5
81C
330
1F
100
AcDbEntity
  8
SK2
  6
CONTINUOUS
370
25
 62
7
100
AcDbLine
 10
0.2749762705026555
 20
15.05500525410053
 30
0.0
 11
0.4124644057539868
 21
14.9175171188492
 31
0.0
  0
LINE
  5
81D
330
1F
100
AcDbEntity
  8
SK2
  6
CONTINUOUS
370
25
 62
7
100
AcDbLine
 10
0.6285296610959321
 20
15.12571593221918
 30
0.0
 11
0.9427944916439017
 21
14.81145110167121
 31
0.0
  0
LINE
  5
81E
330
1F
100
AcDbEntity
  8
SK2
  6
CONTINUOUS
370
25
 62
7
100
AcDbLine
 10
0.9820830516892087
 20
15.19642661033784
 30
0.0
 11
1.473124577533817
 21
14.70538508449323
 31
0.0
  0
LINE
  5
81F
330
1F
100
AcDbEntity
  8
SK2
  6
CONTINUOUS
370
25
 62
7
100
AcDbLine
 10
1.335636442282478
 20
15.2671372884565
 30
0.0
 11
2.003454663423717
 21
14.59931906731525
 31
0.0
  0
LINE
  5
820
330
1F
100
AcDbEntity
  8
SK2
  6
CONTINUOUS
370
25
 62
7
100
AcDbLine
 10
1.689189832875755
 20
15.33784796657515
 30
0.0
 11
2.533784749313632
 21
14.49325305013727
 31
0.0
  0
LINE
  5
821
330
1F
100
AcDbEntity
  8
SK2
  6
CONTINUOUS
370
25
 62
7
100
AcDbLine
 10
2.042743223469031
 20
15.40855864469381
 30
0.0
 11
3.064114835203547
 21
14.38718703295929
 31
0.0
  0
LINE
  5
822
330
1F
100
AcDbEntity
  8
SK2
  6
CONTINUOUS
370
25
 62
7
100
AcDbLine
 10
2.396296614062308
 20
15.47926932281246
 30
0.0
 11
3.594444921093462
 21
14.2811210157813
 31
0.0
  0
LINE
  5
823
330
1F
100
AcDbEntity
  8
SK2
  6
CONTINUOUS
370
25
 62
7
100
AcDbLine
 10
2.749850004655578
 20
15.54998000093112
 30
0.0
 11
4.124775006983363
 21
14.17505499860333
 31
0.0
  0
LINE
  5
824
330
1F
100
AcDbEntity
  8
SK2
  6
CONTINUOUS
370
25
 62
7
100
AcDbLine
 10
3.103403395248847
 20
15.62069067904977
 30
0.0
 11
4.655105092873274
 21
14.06898898142534
 31
0.0
  0
LINE
  5
825
330
1F
100
AcDbEntity
  8
SK2
  6
CONTINUOUS
370
25
 62
7
100
AcDbLine
 10
3.456956785842124
 20
15.69140135716843
 30
0.0
 11
5.0
 21
14.14835814301055
 31
0.0
  0
LINE
  5
826
330
1F
100
AcDbEntity
  8
SK2
  6
CONTINUOUS
370
25
 62
7
100
AcDbLine
 10
3.810510176435407
 20
15.76211203528707
 30
0.0
 11
5.0
 21
14.57262221172248
 31
0.0
  0
LINE
  5
827
330
1F
100
AcDbEntity
  8
SK2
  6
CONTINUOUS
370
25
 62
7
100
AcDbLine
 10
4.164063567028677
 20
15.83282271340574
 30
0.0
 11
5.0
 21
14.99688628043441
 31
0.0
  0
LINE
  5
828
330
1F
100
AcDbEntity
  8
SK2
  6
CONTINUOUS
370
25
 62
7
100
AcDbLine
 10
4.517616957621954
 20
15.90353339152439
 30
0.0
 11
5.0
 21
15.42115034914634
 31
0.0
  0
LINE
  5
829
330
1F
100
AcDbEntity
  8
SK2
  6
CONTINUOUS
370
25
 62
7
100
AcDbLine
 10
4.871170348215223
 20
15.97424406964305
 30
0.0
 11
5.0
 21
15.84541441785827
 31
0.0
  0
LINE
  5
82A
330
1F
100
AcDbEntity
  8
SK2
  6
CONTINUOUS
370
25
 62
7
100
AcDbLine
 10
35.9
 20
15.00001
 30
0.0
 11
30.9
 21
14.00001
 31
0.0
  0
LINE
  5
82B
330
1F
100
AcDbEntity
  8
SK2
  6
CONTINUOUS
370
25
 62
7
100
AcDbLine
 10
30.9
 20
14.00001
 30
0.0
 11
30.9
 21
16.00001
 31
0.0
  0
LINE
  5
82C
330
1F
100
AcDbEntity
  8
SK2
  6
CONTINUOUS
370
25
 62
7
100
AcDbLine
 10
30.9
 20
16.00001
 30
0.0
 11
35.9
 21
15.00001
 31
0.0
  0
LINE
  5
82D
330
1F
100
AcDbEntity
  8
SK2
  6
CONTINUOUS
370
25
 62
7
100
AcDbLine
 10
35.55812940796321
 20
14.93163588159264
 30
0.0
 11
35.67208627197548
 21
15.0455927456049
 31
0.0
  0
LINE
  5
82E
330
1F
100
AcDbEntity
  8
SK2
  6
CONTINUOUS
370
25
 62
7
100
AcDbLine
 10
35.02779932207331
 20
14.82556986441466
 30
0.0
 11
35.3185328813822
 21
15.11630342372356
 31
0.0
  0
LINE
  5
82F
330
1F
100
AcDbEntity
  8
SK2
  6
CONTINUOUS
370
25
 62
7
100
AcDbLine
 10
34.4974692361834
 20
14.71950384723668
 30
0.0
 11
34.96497949078893
 21
15.18701410184221
 31
0.0
  0
LINE
  5
830
330
1F
100
AcDbEntity
  8
SK2
  6
CONTINUOUS
370
25
 62
7
100
AcDbLine
 10
33.96713915029349
 20
14.6134378300587
 30
0.0
 11
34.61142610019566
 21
15.25772477996087
 31
0.0
  0
LINE
  5
831
330
1F
100
AcDbEntity
  8
SK2
  6
CONTINUOUS
370
25
 62
7
100
AcDbLine
 10
33.43680906440358
 20
14.50737181288072
 30
0.0
 11
34.25787270960239
 21
15.32843545807952
 31
0.0
  0
LINE
  5
832
330
1F
100
AcDbEntity
  8
SK2
  6
CONTINUOUS
370
25
 62
7
100
AcDbLine
 10
32.90647897851368
 20
14.40130579570273
 30
0.0
 11
33.90431931900911
 21
15.39914613619818
 31
0.0
  0
LINE
  5
833
330
1F
100
AcDbEntity
  8
SK2
  6
CONTINUOUS
370
25
 62
7
100
AcDbLine
 10
32.37614889262376
 20
14.29523977852475
 30
0.0
 11
33.55076592841584
 21
15.46985681431683
 31
0.0
  0
LINE
  5
834
330
1F
100
AcDbEntity
  8
SK2
  6
CONTINUOUS
370
25
 62
7
100
AcDbLine
 10
31.84581880673385
 20
14.18917376134677
 30
0.0
 11
33.19721253782257
 21
15.54056749243549
 31
0.0
  0
LINE
  5
835
330
1F
100
AcDbEntity
  8
SK2
  6
CONTINUOUS
370
25
 62
7
100
AcDbLine
 10
31.31548872084394
 20
14.08310774416879
 30
0.0
 11
32.84365914722929
 21
15.61127817055414
 31
0.0
  0
LINE
  5
836
330
1F
100
AcDbEntity
  8
SK2
  6
CONTINUOUS
370
25
 62
7
100
AcDbLine
 10
30.9
 20
14.09188309203677
 30
0.0
 11
32.49010575663602
 21
15.68198884867279
 31
0.0
  0
LINE
  5
837
330
1F
100
AcDbEntity
  8
SK2
  6
CONTINUOUS
370
25
 62
7
100
AcDbLine
 10
30.9
 20
14.5161471607487
 30
0.0
 11
32.13655236604274
 21
15.75269952679145
 31
0.0
  0
LINE
  5
838
330
1F
100
AcDbEntity
  8
SK2
  6
CONTINUOUS
370
25
 62
7
100
AcDbLine
 10
30.9
 20
14.94041122946063
 30
0.0
 11
31.78299897544947
 21
15.8234102049101
 31
0.0
  0
LINE
  5
839
330
1F
100
AcDbEntity
  8
SK2
  6
CONTINUOUS
370
25
 62
7
100
AcDbLine
 10
30.9
 20
15.36467529817256
 30
0.0
 11
31.4294455848562
 21
15.89412088302876
 31
0.0
  0
LINE
  5
83A
330
1F
100
AcDbEntity
  8
SK2
  6
CONTINUOUS
370
25
 62
7
100
AcDbLine
 10
30.9
 20
15.78893936688448
 30
0.0
 11
31.07589219426293
 21
15.96483156114741
 31
0.0
  0
LINE
  5
83B
330
1F
100
AcDbEntity
  8
SK2
  6
CONTINUOUS
370
25
 62
7
100
AcDbLine
 10
30.9
 20
14.3338095116624
 30
0.0
 11
31.17816625971867
 21
14.05564325194373
 31
0.0
  0
LINE
  5
83C
330
1F
100
AcDbEntity
  8
SK2
  6
CONTINUOUS
370
25
 62
7
100
AcDbLine
 10
30.9
 20
14.75807358037433
 30
0.0
 11
31.53171965031194
 21
14.12635393006239
 31
0.0
  0
LINE
  5
83D
330
1F
100
AcDbEntity
  8
SK2
  6
CONTINUOUS
370
25
 62
7
100
AcDbLine
 10
30.9
 20
15.18233764908626
 30
0.0
 11
31.88527304090521
 21
14.19706460818104
 31
0.0
  0
LINE
  5
83E
330
1F
100
AcDbEntity
  8
SK2
  6
CONTINUOUS
370
25
 62
7
100
AcDbLine
 10
30.9
 20
15.60660171779818
 30
0.0
 11
32.23882643149849
 21
14.2677752862997
 31
0.0
  0
LINE
  5
83F
330
1F
100
AcDbEntity
  8
SK2
  6
CONTINUOUS
370
25
 62
7
100
AcDbLine
 10
30.93856973313764
 20
15.99229605337247
 30
0.0
 11
32.59237982209176
 21
14.33848596441835
 31
0.0
  0
LINE
  5
840
330
1F
100
AcDbEntity
  8
SK2
  6
CONTINUOUS
370
25
 62
7
100
AcDbLine
 10
31.46889981902755
 20
15.88623003619449
 30
0.0
 11
32.94593321268503
 21
14.40919664253701
 31
0.0
  0
LINE
  5
841
330
1F
100
AcDbEntity
  8
SK2
  6
CONTINUOUS
370
25
 62
7
100
AcDbLine
 10
31.99922990491746
 20
15.78016401901651
 30
0.0
 11
33.29948660327831
 21
14.47990732065566
 31
0.0
  0
LINE
  5
842
330
1F
100
AcDbEntity
  8
SK2
  6
CONTINUOUS
370
25
 62
7
100
AcDbLine
 10
32.52955999080737
 20
15.67409800183852
 30
0.0
 11
33.65303999387158
 21
14.55061799877432
 31
0.0
  0
LINE
  5
843
330
1F
100
AcDbEntity
  8
SK2
  6
CONTINUOUS
370
25
 62
7
100
AcDbLine
 10
33.05989007669728
 20
15.56803198466054
 30
0.0
 11
34.00659338446486
 21
14.62132867689297
 31
0.0
  0
LINE
  5
844
330
1F
100
AcDbEntity
  8
SK2
  6
CONTINUOUS
370
25
 62
7
100
AcDbLine
 10
33.59022016258719
 20
15.46196596748256
 30
0.0
 11
34.36014677505813
 21
14.69203935501162
 31
0.0
  0
LINE
  5
845
330
1F
100
AcDbEntity
  8
SK2
  6
CONTINUOUS
370
25
 62
7
100
AcDbLine
 10
34.1205502484771
 20
15.35589995030458
 30
0.0
 11
34.7137001656514
 21
14.76275003313028
 31
0.0
  0
LINE
  5
846
330
1F
100
AcDbEntity
  8
SK2
  6
CONTINUOUS
370
25
 62
7
100
AcDbLine
 10
34.65088033436702
 20
15.2498339331266
 30
0.0
 11
35.06725355624467
 21
14.83346071124894
 31
0.0
  0
LINE
  5
847
330
1F
100
AcDbEntity
  8
SK2
  6
CONTINUOUS
370
25
 62
7
100
AcDbLine
 10
35.18121042025692
 20
15.14376791594862
 30
0.0
 11
35.42080694683795
 21
14.90417138936759
 31
0.0
  0
LINE
  5
848
330
1F
100
AcDbEntity
  8
SK2
  6
CONTINUOUS
370
25
 62
7
100
AcDbLine
 10
35.71154050614683
 20
15.03770189877063
 30
0.0
 11
35.77436033743123
 21
14.97488206748625
 31
0.0
  0
TEXT
  5
849
330
1F
100
AcDbEntity
  8
SK2
  6
CONTINUOUS
370
25
 62
7
100
AcDbText
 10
12.7
 20
16.50001
 30
0.0
 40
3.5
  1
35.9
 72
     1
 11
17.95
 21
16.50001
 31
0.0
100
AcDbText
  0
LINE
  5
84A
330
1F
100
AcDbEntity
  8
2
  6
CONTINUOUS
370
25
 62
7
100
AcDbLine
 10
50.0
 20
-2.2
 30
0.0
 11
70.0
 21
-2.200000000000003
 31
0.0
  0
LINE
  5
84B
330
1F
100
AcDbEntity
  8
2
  6
CONTINUOUS
370
25
 62
7
100
AcDbLine
 10
70.0
 20
2.199999999999998
 30
0.0
 11
50.0
 21
2.2
 31
0.0
  0
LINE
  5
84C
330
1F
100
AcDbEntity
  8
2
  6
CONTINUOUS
370
25
 62
7
100
AcDbLine
 10
69.0
 20
-9.200000000000003
 30
0.0
 11
69.0
 21
21.62499999999999
 31
0.0
  0
LINE
  5
84D
330
1F
100
AcDbEntity
  8
2
  6
CONTINUOUS
370
25
 62
7
100
AcDbLine
 10
69.0
 20
-2.200000000000003
 30
0.0
 11
70.0
 21
-7.200000000000003
 31
0.0
  0
LINE
  5
84E
330
1F
100
AcDbEntity
  8
2
  6
CONTINUOUS
370
25
 62
7
100
AcDbLine
 10
70.0
 20
-7.200000000000003
 30
0.0
 11
68.0
 21
-7.200000000000003
 31
0.0
  0
LINE
  5
84F
330
1F
100
AcDbEntity
  8
2
  6
CONTINUOUS
370
25
 62
7
100
AcDbLine
 10
68.0
 20
-7.200000000000003
 30
0.0
 11
69.0
 21
-2.200000000000003
 31
0.0
  0
LINE
  5
850
330
1F
100
AcDbEntity
  8
2
  6
CONTINUOUS
370
25
 62
7
100
AcDbLine
 10
69.82668352078385
 20
-7.200000000000003
 30
0.0
 11
69.97111392013065
 21
-7.0555696006532
 31
0.0
  0
LINE
  5
851
330
1F
100
AcDbEntity
  8
2
  6
CONTINUOUS
370
25
 62
7
100
AcDbLine
 10
69.40241945207192
 20
-7.200000000000003
 30
0.0
 11
69.90040324201199
 21
-6.702016210059931
 31
0.0
  0
LINE
  5
852
330
1F
100
AcDbEntity
  8
2
  6
CONTINUOUS
370
25
 62
7
100
AcDbLine
 10
68.97815538335999
 20
-7.200000000000003
 30
0.0
 11
69.82969256389333
 21
-6.348462819466661
 31
0.0
  0
LINE
  5
853
330
1F
100
AcDbEntity
  8
2
  6
CONTINUOUS
370
25
 62
7
100
AcDbLine
 10
68.55389131464807
 20
-7.200000000000003
 30
0.0
 11
69.75898188577467
 21
-5.994909428873392
 31
0.0
  0
LINE
  5
854
330
1F
100
AcDbEntity
  8
2
  6
CONTINUOUS
370
25
 62
7
100
AcDbLine
 10
68.12962724593613
 20
-7.200000000000003
 30
0.0
 11
69.68827120765602
 21
-5.641356038280108
 31
0.0
  0
LINE
  5
855
330
1F
100
AcDbEntity
  8
2
  6
CONTINUOUS
370
25
 62
7
100
AcDbLine
 10
68.07365920569394
 20
-6.831703971530267
 30
0.0
 11
69.61756052953737
 21
-5.287802647686831
 31
0.0
  0
LINE
  5
856
330
1F
100
AcDbEntity
  8
2
  6
CONTINUOUS
370
25
 62
7
100
AcDbLine
 10
68.17972522287192
 20
-6.301373885640359
 30
0.0
 11
69.54684985141871
 21
-4.934249257093562
 31
0.0
  0
LINE
  5
857
330
1F
100
AcDbEntity
  8
2
  6
CONTINUOUS
370
25
 62
7
100
AcDbLine
 10
68.28579124004992
 20
-5.771043799750437
 30
0.0
 11
69.47613917330006
 21
-4.580695866500285
 31
0.0
  0
LINE
  5
858
330
1F
100
AcDbEntity
  8
2
  6
CONTINUOUS
370
25
 62
7
100
AcDbLine
 10
68.39185725722788
 20
-5.240713713860529
 30
0.0
 11
69.40542849518141
 21
-4.227142475907009
 31
0.0
  0
LINE
  5
859
330
1F
100
AcDbEntity
  8
2
  6
CONTINUOUS
370
25
 62
7
100
AcDbLine
 10
68.49792327440588
 20
-4.710383627970614
 30
0.0
 11
69.33471781706274
 21
-3.873589085313739
 31
0.0
  0
LINE
  5
85A
330
1F
100
AcDbEntity
  8
2
  6
CONTINUOUS
370
25
 62
7
100
AcDbLine
 10
68.60398929158386
 20
-4.180053542080692
 30
0.0
 11
69.2640071389441
 21
-3.520035694720463
 31
0.0
  0
LINE
  5
85B
330
1F
100
AcDbEntity
  8
2
  6
CONTINUOUS
370
25
 62
7
100
AcDbLine
 10
68.71005530876184
 20
-3.649723456190785
 30
0.0
 11
69.19329646082544
 21
-3.166482304127186
 31
0.0
  0
LINE
  5
85C
330
1F
100
AcDbEntity
  8
2
  6
CONTINUOUS
370
25
 62
7
100
AcDbLine
 10
68.81612132593983
 20
-3.119393370300863
 30
0.0
 11
69.12258578270678
 21
-2.812928913533909
 31
0.0
  0
LINE
  5
85D
330
1F
100
AcDbEntity
  8
2
  6
CONTINUOUS
370
25
 62
7
100
AcDbLine
 10
68.9221873431178
 20
-2.589063284410955
 30
0.0
 11
69.05187510458813
 21
-2.459375522940633
 31
0.0
  0
LINE
  5
85E
330
1F
100
AcDbEntity
  8
2
  6
CONTINUOUS
370
25
 62
7
100
AcDbLine
 10
68.02193000900064
 20
-7.090349954996775
 30
0.0
 11
68.13158005400388
 21
-7.200000000000003
 31
0.0
  0
LINE
  5
85F
330
1F
100
AcDbEntity
  8
2
  6
CONTINUOUS
370
25
 62
7
100
AcDbLine
 10
68.0926406871193
 20
-6.736796564403509
 30
0.0
 11
68.5558441227158
 21
-7.199999999999999
 31
0.0
  0
LINE
  5
860
330
1F
100
AcDbEntity
  8
2
  6
CONTINUOUS
370
25
 62
7
100
AcDbLine
 10
68.16335136523796
 20
-6.383243173810232
 30
0.0
 11
68.98010819142772
 21
-7.200000000000006
 31
0.0
  0
LINE
  5
861
330
1F
100
AcDbEntity
  8
2
  6
CONTINUOUS
370
25
 62
7
100
AcDbLine
 10
68.2340620433566
 20
-6.029689783216952
 30
0.0
 11
69.40437226013965
 21
-7.200000000000003
 31
0.0
  0
LINE
  5
862
330
1F
100
AcDbEntity
  8
2
  6
CONTINUOUS
370
25
 62
7
100
AcDbLine
 10
68.30477272147526
 20
-5.676136392623679
 30
0.0
 11
69.82863632885159
 21
-7.199999999999999
 31
0.0
  0
LINE
  5
863
330
1F
100
AcDbEntity
  8
2
  6
CONTINUOUS
370
25
 62
7
100
AcDbLine
 10
68.37548339959392
 20
-5.322583002030406
 30
0.0
 11
69.93677490060912
 21
-6.883874503045618
 31
0.0
  0
LINE
  5
864
330
1F
100
AcDbEntity
  8
2
  6
CONTINUOUS
370
25
 62
7
100
AcDbLine
 10
68.44619407771256
 20
-4.969029611437136
 30
0.0
 11
69.83070888343114
 21
-6.353544417155703
 31
0.0
  0
LINE
  5
865
330
1F
100
AcDbEntity
  8
2
  6
CONTINUOUS
370
25
 62
7
100
AcDbLine
 10
68.51690475583122
 20
-4.615476220843853
 30
0.0
 11
69.72464286625316
 21
-5.823214331265788
 31
0.0
  0
LINE
  5
866
330
1F
100
AcDbEntity
  8
2
  6
CONTINUOUS
370
25
 62
7
100
AcDbLine
 10
68.58761543394988
 20
-4.261922830250583
 30
0.0
 11
69.61857684907517
 21
-5.292884245375873
 31
0.0
  0
LINE
  5
867
330
1F
100
AcDbEntity
  8
2
  6
CONTINUOUS
370
25
 62
7
100
AcDbLine
 10
68.65832611206854
 20
-3.908369439657314
 30
0.0
 11
69.5125108318972
 21
-4.762554159485965
 31
0.0
  0
LINE
  5
868
330
1F
100
AcDbEntity
  8
2
  6
CONTINUOUS
370
25
 62
7
100
AcDbLine
 10
68.7290367901872
 20
-3.554816049064033
 30
0.0
 11
69.40644481471921
 21
-4.232224073596061
 31
0.0
  0
LINE
  5
869
330
1F
100
AcDbEntity
  8
2
  6
CONTINUOUS
370
25
 62
7
100
AcDbLine
 10
68.79974746830584
 20
-3.201262658470768
 30
0.0
 11
69.30037879754123
 21
-3.701893987706143
 31
0.0
  0
LINE
  5
86A
330
1F
100
AcDbEntity
  8
2
  6
CONTINUOUS
370
25
 62
7
100
AcDbLine
 10
68.8704581464245
 20
-2.847709267877491
 30
0.0
 11
69.19431278036325
 21
-3.171563901816235
 31
0.0
  0
LINE
  5
86B
330
1F
100
AcDbEntity
  8
2
  6
CONTINUOUS
370
25
 62
7
100
AcDbLine
 10
68.94116882454315
 20
-2.494155877284218
 30
0.0
 11
69.08824676318527
 21
-2.641233815926324
 31
0.0
  0
LINE
  5
86C
330
1F
100
AcDbEntity
  8
2
  6
CONTINUOUS
370
25
 62
7
100
AcDbLine
 10
69.0
 20
2.199999999999998
 30
0.0
 11
68.0
 21
7.199999999999998
 31
0.0
  0
LINE
  5
86D
330
1F
100
AcDbEntity
  8
2
  6
CONTINUOUS
370
25
 62
7
100
AcDbLine
 10
68.0
 20
7.199999999999998
 30
0.0
 11
70.0
 21
7.199999999999998
 31
0.0
  0
LINE
  5
86E
330
1F
100
AcDbEntity
  8
2
  6
CONTINUOUS
370
25
 62
7
100
AcDbLine
 10
70.0
 20
7.199999999999998
 30
0.0
 11
69.0
 21
2.199999999999998
 31
0.0
  0
LINE
  5
86F
330
1F
100
AcDbEntity
  8
2
  6
CONTINUOUS
370
25
 62
7
100
AcDbLine
 10
68.98532748250375
 20
2.273362587481298
 30
0.0
 11
69.02200877624439
 21
2.310043881221947
 31
0.0
  0
LINE
  5
870
330
1F
100
AcDbEntity
  8
2
  6
CONTINUOUS
370
25
 62
7
100
AcDbLine
 10
68.91461680438508
 20
2.626915978074571
 30
0.0
 11
69.12807479342237
 21
2.840373967111859
 31
0.0
  0
LINE
  5
871
330
1F
100
AcDbEntity
  8
2
  6
CONTINUOUS
370
25
 62
7
100
AcDbLine
 10
68.84390612626643
 20
2.980469368667848
 30
0.0
 11
69.23414081060035
 21
3.370704053001774
 31
0.0
  0
LINE
  5
872
330
1F
100
AcDbEntity
  8
2
  6
CONTINUOUS
370
25
 62
7
100
AcDbLine
 10
68.77319544814777
 20
3.334022759261121
 30
0.0
 11
69.34020682777833
 21
3.901034138891692
 31
0.0
  0
LINE
  5
873
330
1F
100
AcDbEntity
  8
2
  6
CONTINUOUS
370
25
 62
7
100
AcDbLine
 10
68.70248477002912
 20
3.68757614985439
 30
0.0
 11
69.44627284495633
 21
4.4313642247816
 31
0.0
  0
LINE
  5
874
330
1F
100
AcDbEntity
  8
2
  6
CONTINUOUS
370
25
 62
7
100
AcDbLine
 10
68.63177409191047
 20
4.04112954044767
 30
0.0
 11
69.55233886213429
 21
4.961694310671511
 31
0.0
  0
LINE
  5
875
330
1F
100
AcDbEntity
  8
2
  6
CONTINUOUS
370
25
 62
7
100
AcDbLine
 10
68.5610634137918
 20
4.394682931040943
 30
0.0
 11
69.65840487931229
 21
5.49202439656143
 31
0.0
  0
LINE
  5
876
330
1F
100
AcDbEntity
  8
2
  6
CONTINUOUS
370
25
 62
7
100
AcDbLine
 10
68.49035273567316
 20
4.748236321634224
 30
0.0
 11
69.76447089649027
 21
6.022354482451341
 31
0.0
  0
LINE
  5
877
330
1F
100
AcDbEntity
  8
2
  6
CONTINUOUS
370
25
 62
7
100
AcDbLine
 10
68.4196420575545
 20
5.101789712227497
 30
0.0
 11
69.87053691366825
 21
6.55268456834126
 31
0.0
  0
LINE
  5
878
330
1F
100
AcDbEntity
  8
2
  6
CONTINUOUS
370
25
 62
7
100
AcDbLine
 10
68.34893137943584
 20
5.455343102820766
 30
0.0
 11
69.97660293084624
 21
7.083014654231167
 31
0.0
  0
LINE
  5
879
330
1F
100
AcDbEntity
  8
2
  6
CONTINUOUS
370
25
 62
7
100
AcDbLine
 10
68.2782207013172
 20
5.808896493414046
 30
0.0
 11
69.66932420790313
 21
7.199999999999996
 31
0.0
  0
LINE
  5
87A
330
1F
100
AcDbEntity
  8
2
  6
CONTINUOUS
370
25
 62
7
100
AcDbLine
 10
68.20751002319852
 20
6.162449884007319
 30
0.0
 11
69.2450601391912
 21
7.199999999999999
 31
0.0
  0
LINE
  5
87B
330
1F
100
AcDbEntity
  8
2
  6
CONTINUOUS
370
25
 62
7
100
AcDbLine
 10
68.13679934507988
 20
6.516003274600596
 30
0.0
 11
68.82079607047928
 21
7.199999999999999
 31
0.0
  0
LINE
  5
87C
330
1F
100
AcDbEntity
  8
2
  6
CONTINUOUS
370
25
 62
7
100
AcDbLine
 10
68.06608866696122
 20
6.869556665193869
 30
0.0
 11
68.39653200176735
 21
7.199999999999996
 31
0.0
  0
LINE
  5
87D
330
1F
100
AcDbEntity
  8
2
  6
CONTINUOUS
370
25
 62
7
100
AcDbLine
 10
68.91545455704949
 20
2.62272721475258
 30
0.0
 11
69.05636362863368
 21
2.481818143168383
 31
0.0
  0
LINE
  5
87E
330
1F
100
AcDbEntity
  8
2
  6
CONTINUOUS
370
25
 62
7
100
AcDbLine
 10
68.8093885398715
 20
3.15305730064248
 30
0.0
 11
69.12707430675232
 21
2.835371533761659
 31
0.0
  0
LINE
  5
87F
330
1F
100
AcDbEntity
  8
2
  6
CONTINUOUS
370
25
 62
7
100
AcDbLine
 10
68.70332252269353
 20
3.683387386532395
 30
0.0
 11
69.19778498487099
 21
3.188924924354929
 31
0.0
  0
LINE
  5
880
330
1F
100
AcDbEntity
  8
2
  6
CONTINUOUS
370
25
 62
7
100
AcDbLine
 10
68.59725650551553
 20
4.21371747242231
 30
0.0
 11
69.26849566298964
 21
3.542478314948198
 31
0.0
  0
LINE
  5
881
330
1F
100
AcDbEntity
  8
2
  6
CONTINUOUS
370
25
 62
7
100
AcDbLine
 10
68.49119048833757
 20
4.744047558312211
 30
0.0
 11
69.3392063411083
 21
3.896031705541482
 31
0.0
  0
LINE
  5
882
330
1F
100
AcDbEntity
  8
2
  6
CONTINUOUS
370
25
 62
7
100
AcDbLine
 10
68.38512447115957
 20
5.274377644202126
 30
0.0
 11
69.40991701922695
 21
4.249585096134751
 31
0.0
  0
LINE
  5
883
330
1F
100
AcDbEntity
  8
2
  6
CONTINUOUS
370
25
 62
7
100
AcDbLine
 10
68.27905845398159
 20
5.804707730092034
 30
0.0
 11
69.4806276973456
 21
4.603138486728028
 31
0.0
  0
LINE
  5
884
330
1F
100
AcDbEntity
  8
2
  6
CONTINUOUS
370
25
 62
7
100
AcDbLine
 10
68.17299243680361
 20
6.335037815981948
 30
0.0
 11
69.55133837546427
 21
4.956691877321298
 31
0.0
  0
LINE
  5
885
330
1F
100
AcDbEntity
  8
2
  6
CONTINUOUS
370
25
 62
7
100
AcDbLine
 10
68.06692641962562
 20
6.865367901871856
 30
0.0
 11
69.62204905358291
 21
5.310245267914574
 31
0.0
  0
LINE
  5
886
330
1F
100
AcDbEntity
  8
2
  6
CONTINUOUS
370
25
 62
7
100
AcDbLine
 10
68.15655839020941
 20
7.199999999999996
 30
0.0
 11
69.69275973170157
 21
5.663798658507844
 31
0.0
  0
LINE
  5
887
330
1F
100
AcDbEntity
  8
2
  6
CONTINUOUS
370
25
 62
7
100
AcDbLine
 10
68.58082245892135
 20
7.199999999999996
 30
0.0
 11
69.76347040982023
 21
6.017352049101127
 31
0.0
  0
LINE
  5
888
330
1F
100
AcDbEntity
  8
2
  6
CONTINUOUS
370
25
 62
7
100
AcDbLine
 10
69.00508652763327
 20
7.199999999999996
 30
0.0
 11
69.83418108793887
 21
6.37090543969439
 31
0.0
  0
LINE
  5
889
330
1F
100
AcDbEntity
  8
2
  6
CONTINUOUS
370
25
 62
7
100
AcDbLine
 10
69.4293505963452
 20
7.199999999999996
 30
0.0
 11
69.90489176605753
 21
6.724458830287674
 31
0.0
  0
LINE
  5
88A
330
1F
100
AcDbEntity
  8
2
  6
CONTINUOUS
370
25
 62
7
100
AcDbLine
 10
69.85361466505714
 20
7.199999999999996
 30
0.0
 11
69.97560244417619
 21
7.078012220880943
 31
0.0
  0
TEXT
  5
88B
330
1F
100
AcDbEntity
  8
2
  6
CONTINUOUS
370
25
 62
7
100
AcDbText
 10
67.5
 20
13.18749999999999
 30
0.0
 40
3.5
  1
4.4
 50
90.00000000000001
 72
     1
 11
67.5
 21
16.68749999999999
 31
0.0
100
AcDbText
  0
CIRCLE
  5
88C
330
1F
100
AcDbEntity
  8
2
  6
CONTINUOUS
370
25
 62
7
100
AcDbCircle
 10
65.75
 20
10.21249999999999
 30
0.0
 40
1.4
  0
LINE
  5
88D
330
1F
100
AcDbEntity
  8
2
  6
CONTINUOUS
370
25
 62
7
100
AcDbLine
 10
67.15
 20
8.812499999999993
 30
0.0
 11
64.35
 21
11.61249999999999
 31
0.0
  0
LINE
  5
88E
330
1F
100
AcDbEntity
  8
2
  6
CONTINUOUS
370
25
 62
7
100
AcDbLine
 10
41.2
 20
-2.2
 30
0.0
 11
41.2
 21
-15.2
 31
0.0
  0
LINE
  5
88F
330
1F
100
AcDbEntity
  8
2
  6
CONTINUOUS
370
25
 62
7
100
AcDbLine
 10
50.0
 20
-15.2
 30
0.0
 11
50.0
 21
-2.199999999999999
 31
0.0
  0
LINE
  5
890
330
1F
100
AcDbEntity
  8
2
  6
CONTINUOUS
370
25
 62
7
100
AcDbLine
 10
34.2
 20
-14.2
 30
0.0
 11
65.925
 21
-14.2
 31
0.0
  0
LINE
  5
891
330
1F
100
AcDbEntity
  8
2
  6
CONTINUOUS
370
25
 62
7
100
AcDbLine
 10
41.2
 20
-14.2
 30
0.0
 11
36.2
 21
-15.2
 31
0.0
  0
LINE
  5
892
330
1F
100
AcDbEntity
  8
2
  6
CONTINUOUS
370
25
 62
7
100
AcDbLine
 10
36.2
 20
-15.2
 30
0.0
 11
36.2
 21
-13.2
 31
0.0
  0
LINE
  5
893
330
1F
100
AcDbEntity
  8
2
  6
CONTINUOUS
370
25
 62
7
100
AcDbLine
 10
36.2
 20
-13.2
 30
0.0
 11
41.2
 21
-14.2
 31
0.0
  0
LINE
  5
894
330
1F
100
AcDbEntity
  8
2
  6
CONTINUOUS
370
25
 62
7
100
AcDbLine
 10
41.15886843780559
 20
-14.20822631243888
 30
0.0
 11
41.17257895853706
 21
-14.19451579170741
 31
0.0
  0
LINE
  5
895
330
1F
100
AcDbEntity
  8
2
  6
CONTINUOUS
370
25
 62
7
100
AcDbLine
 10
40.62853835191568
 20
-14.31429232961686
 30
0.0
 11
40.81902556794378
 21
-14.12380511358876
 31
0.0
  0
LINE
  5
896
330
1F
100
AcDbEntity
  8
2
  6
CONTINUOUS
370
25
 62
7
100
AcDbLine
 10
40.09820826602576
 20
-14.42035834679485
 30
0.0
 11
40.46547217735051
 21
-14.0530944354701
 31
0.0
  0
LINE
  5
897
330
1F
100
AcDbEntity
  8
2
  6
CONTINUOUS
370
25
 62
7
100
AcDbLine
 10
39.56787818013586
 20
-14.52642436397283
 30
0.0
 11
40.11191878675724
 21
-13.98238375735145
 31
0.0
  0
LINE
  5
898
330
1F
100
AcDbEntity
  8
2
  6
CONTINUOUS
370
25
 62
7
100
AcDbLine
 10
39.03754809424595
 20
-14.63249038115081
 30
0.0
 11
39.75836539616397
 21
-13.91167307923279
 31
0.0
  0
LINE
  5
899
330
1F
100
AcDbEntity
  8
2
  6
CONTINUOUS
370
25
 62
7
100
AcDbLine
 10
38.50721800835604
 20
-14.73855639832879
 30
0.0
 11
39.40481200557069
 21
-13.84096240111414
 31
0.0
  0
LINE
  5
89A
330
1F
100
AcDbEntity
  8
2
  6
CONTINUOUS
370
25
 62
7
100
AcDbLine
 10
37.97688792246613
 20
-14.84462241550677
 30
0.0
 11
39.05125861497742
 21
-13.77025172299548
 31
0.0
  0
LINE
  5
89B
330
1F
100
AcDbEntity
  8
2
  6
CONTINUOUS
370
25
 62
7
100
AcDbLine
 10
37.44655783657622
 20
-14.95068843268476
 30
0.0
 11
38.69770522438414
 21
-13.69954104487683
 31
0.0
  0
LINE
  5
89C
330
1F
100
AcDbEntity
  8
2
  6
CONTINUOUS
370
25
 62
7
100
AcDbLine
 10
36.9162277506863
 20
-15.05675444986274
 30
0.0
 11
38.34415183379087
 21
-13.62883036675817
 31
0.0
  0
LINE
  5
89D
330
1F
100
AcDbEntity
  8
2
  6
CONTINUOUS
370
25
 62
7
100
AcDbLine
 10
36.3858976647964
 20
-15.16282046704072
 30
0.0
 11
37.9905984431976
 21
-13.55811968863952
 31
0.0
  0
LINE
  5
89E
330
1F
100
AcDbEntity
  8
2
  6
CONTINUOUS
370
25
 62
7
100
AcDbLine
 10
36.2
 20
-14.92445406312519
 30
0.0
 11
37.63704505260433
 21
-13.48740901052086
 31
0.0
  0
LINE
  5
89F
330
1F
100
AcDbEntity
  8
2
  6
CONTINUOUS
370
25
 62
7
100
AcDbLine
 10
36.2
 20
-14.50018999441326
 30
0.0
 11
37.28349166201105
 21
-13.41669833240221
 31
0.0
  0
LINE
  5
8A0
330
1F
100
AcDbEntity
  8
2
  6
CONTINUOUS
370
25
 62
7
100
AcDbLine
 10
36.2
 20
-14.07592592570134
 30
0.0
 11
36.92993827141778
 21
-13.34598765428355
 31
0.0
  0
LINE
  5
8A1
330
1F
100
AcDbEntity
  8
2
  6
CONTINUOUS
370
25
 62
7
100
AcDbLine
 10
36.2
 20
-13.65166185698941
 30
0.0
 11
36.57638488082451
 21
-13.2752769761649
 31
0.0
  0
LINE
  5
8A2
330
1F
100
AcDbEntity
  8
2
  6
CONTINUOUS
370
25
 62
7
100
AcDbLine
 10
36.2
 20
-13.22739778827748
 30
0.0
 11
36.22283149023124
 21
-13.20456629804625
 31
0.0
  0
LINE
  5
8A3
330
1F
100
AcDbEntity
  8
2
  6
CONTINUOUS
370
25
 62
7
100
AcDbLine
 10
36.2
 20
-14.93105578092343
 30
0.0
 11
36.42412018256381
 21
-15.15517596348724
 31
0.0
  0
LINE
  5
8A4
330
1F
100
AcDbEntity
  8
2
  6
CONTINUOUS
370
25
 62
7
100
AcDbLine
 10
36.2
 20
-14.5067917122115
 30
0.0
 11
36.77767357315708
 21
-15.08446528536858
 31
0.0
  0
LINE
  5
8A5
330
1F
100
AcDbEntity
  8
2
  6
CONTINUOUS
370
25
 62
7
100
AcDbLine
 10
36.2
 20
-14.08252764349957
 30
0.0
 11
37.13122696375036
 21
-15.01375460724993
 31
0.0
  0
LINE
  5
8A6
330
1F
100
AcDbEntity
  8
2
  6
CONTINUOUS
370
25
 62
7
100
AcDbLine
 10
36.2
 20
-13.65826357478764
 30
0.0
 11
37.48478035434363
 21
-14.94304392913127
 31
0.0
  0
LINE
  5
8A7
330
1F
100
AcDbEntity
  8
2
  6
CONTINUOUS
370
25
 62
7
100
AcDbLine
 10
36.2
 20
-13.23399950607572
 30
0.0
 11
37.8383337449369
 21
-14.87233325101262
 31
0.0
  0
LINE
  5
8A8
330
1F
100
AcDbEntity
  8
2
  6
CONTINUOUS
370
25
 62
7
100
AcDbLine
 10
36.68783070329526
 20
-13.29756614065905
 30
0.0
 11
38.19188713553017
 21
-14.80162257289397
 31
0.0
  0
LINE
  5
8A9
330
1F
100
AcDbEntity
  8
2
  6
CONTINUOUS
370
25
 62
7
100
AcDbLine
 10
37.21816078918517
 20
-13.40363215783703
 30
0.0
 11
38.54544052612345
 21
-14.73091189477531
 31
0.0
  0
LINE
  5
8AA
330
1F
100
AcDbEntity
  8
2
  6
CONTINUOUS
370
25
 62
7
100
AcDbLine
 10
37.74849087507508
 20
-13.50969817501501
 30
0.0
 11
38.89899391671672
 21
-14.66020121665666
 31
0.0
  0
LINE
  5
8AB
330
1F
100
AcDbEntity
  8
2
  6
CONTINUOUS
370
25
 62
7
100
AcDbLine
 10
38.27882096096499
 20
-13.615764192193
 30
0.0
 11
39.25254730731
 21
-14.589490538538
 31
0.0
  0
LINE
  5
8AC
330
1F
100
AcDbEntity
  8
2
  6
CONTINUOUS
370
25
 62
7
100
AcDbLine
 10
38.8091510468549
 20
-13.72183020937098
 30
0.0
 11
39.60610069790327
 21
-14.51877986041935
 31
0.0
  0
LINE
  5
8AD
330
1F
100
AcDbEntity
  8
2
  6
CONTINUOUS
370
25
 62
7
100
AcDbLine
 10
39.33948113274481
 20
-13.82789622654896
 30
0.0
 11
39.95965408849654
 21
-14.44806918230069
 31
0.0
  0
LINE
  5
8AE
330
1F
100
AcDbEntity
  8
2
  6
CONTINUOUS
370
25
 62
7
100
AcDbLine
 10
39.86981121863472
 20
-13.93396224372694
 30
0.0
 11
40.31320747908981
 21
-14.37735850418204
 31
0.0
  0
LINE
  5
8AF
330
1F
100
AcDbEntity
  8
2
  6
CONTINUOUS
370
25
 62
7
100
AcDbLine
 10
40.40014130452463
 20
-14.04002826090493
 30
0.0
 11
40.66676086968309
 21
-14.30664782606338
 31
0.0
  0
LINE
  5
8B0
330
1F
100
AcDbEntity
  8
2
  6
CONTINUOUS
370
25
 62
7
100
AcDbLine
 10
40.93047139041454
 20
-14.14609427808291
 30
0.0
 11
41.02031426027636
 21
-14.23593714794473
 31
0.0
  0
LINE
  5
8B1
330
1F
100
AcDbEntity
  8
2
  6
CONTINUOUS
370
25
 62
7
100
AcDbLine
 10
50.0
 20
-14.2
 30
0.0
 11
55.0
 21
-13.2
 31
0.0
  0
LINE
  5
8B2
330
1F
100
AcDbEntity
  8
2
  6
CONTINUOUS
370
25
 62
7
100
AcDbLine
 10
55.0
 20
-13.2
 30
0.0
 11
55.0
 21
-15.2
 31
0.0
  0
LINE
  5
8B3
330
1F
100
AcDbEntity
  8
2
  6
CONTINUOUS
370
25
 62
7
100
AcDbLine
 10
55.0
 20
-15.2
 30
0.0
 11
50.0
 21
-14.2
 31
0.0
  0
LINE
  5
8B4
330
1F
100
AcDbEntity
  8
2
  6
CONTINUOUS
370
25
 62
7
100
AcDbLine
 10
54.67909051681225
 20
-15.13581810336245
 30
0.0
 11
55.0
 21
-14.8149086201747
 31
0.0
  0
LINE
  5
8B5
330
1F
100
AcDbEntity
  8
2
  6
CONTINUOUS
370
25
 62
7
100
AcDbLine
 10
54.32553712621898
 20
-15.0651074252438
 30
0.0
 11
55.0
 21
-14.39064455146277
 31
0.0
  0
LINE
  5
8B6
330
1F
100
AcDbEntity
  8
2
  6
CONTINUOUS
370
25
 62
7
100
AcDbLine
 10
53.9719837356257
 20
-14.99439674712514
 30
0.0
 11
55.0
 21
-13.96638048275084
 31
0.0
  0
LINE
  5
8B7
330
1F
100
AcDbEntity
  8
2
  6
CONTINUOUS
370
25
 62
7
100
AcDbLine
 10
53.61843034503243
 20
-14.92368606900649
 30
0.0
 11
55.0
 21
-13.54211641403892
 31
0.0
  0
LINE
  5
8B8
330
1F
100
AcDbEntity
  8
2
  6
CONTINUOUS
370
25
 62
7
100
AcDbLine
 10
53.26487695443916
 20
-14.85297539088783
 30
0.0
 11
54.89731543165873
 21
-13.22053691366825
 31
0.0
  0
LINE
  5
8B9
330
1F
100
AcDbEntity
  8
2
  6
CONTINUOUS
370
25
 62
7
100
AcDbLine
 10
52.91132356384588
 20
-14.78226471276918
 30
0.0
 11
54.36698534576882
 21
-13.32660293084624
 31
0.0
  0
LINE
  5
8BA
330
1F
100
AcDbEntity
  8
2
  6
CONTINUOUS
370
25
 62
7
100
AcDbLine
 10
52.55777017325261
 20
-14.71155403465052
 30
0.0
 11
53.83665525987891
 21
-13.43266894802422
 31
0.0
  0
LINE
  5
8BB
330
1F
100
AcDbEntity
  8
2
  6
CONTINUOUS
370
25
 62
7
100
AcDbLine
 10
52.20421678265934
 20
-14.64084335653187
 30
0.0
 11
53.30632517398901
 21
-13.5387349652022
 31
0.0
  0
LINE
  5
8BC
330
1F
100
AcDbEntity
  8
2
  6
CONTINUOUS
370
25
 62
7
100
AcDbLine
 10
51.85066339206606
 20
-14.57013267841321
 30
0.0
 11
52.77599508809909
 21
-13.64480098238018
 31
0.0
  0
LINE
  5
8BD
330
1F
100
AcDbEntity
  8
2
  6
CONTINUOUS
370
25
 62
7
100
AcDbLine
 10
51.49711000147279
 20
-14.49942200029456
 30
0.0
 11
52.24566500220919
 21
-13.75086699955816
 31
0.0
  0
LINE
  5
8BE
330
1F
100
AcDbEntity
  8
2
  6
CONTINUOUS
370
25
 62
7
100
AcDbLine
 10
51.14355661087951
 20
-14.42871132217591
 30
0.0
 11
51.71533491631928
 21
-13.85693301673614
 31
0.0
  0
LINE
  5
8BF
330
1F
100
AcDbEntity
  8
2
  6
CONTINUOUS
370
25
 62
7
100
AcDbLine
 10
50.79000322028624
 20
-14.35800064405725
 30
0.0
 11
51.18500483042936
 21
-13.96299903391413
 31
0.0
  0
LINE
  5
8C0
330
1F
100
AcDbEntity
  8
2
  6
CONTINUOUS
370
25
 62
7
100
AcDbLine
 10
50.43644982969297
 20
-14.2872899659386
 30
0.0
 11
50.65467474453946
 21
-14.06906505109211
 31
0.0
  0
LINE
  5
8C1
330
1F
100
AcDbEntity
  8
2
  6
CONTINUOUS
370
25
 62
7
100
AcDbLine
 10
50.0828964390997
 20
-14.21657928781994
 30
0.0
 11
50.12434465864955
 21
-14.17513106827009
 31
0.0
  0
LINE
  5
8C2
330
1F
100
AcDbEntity
  8
2
  6
CONTINUOUS
370
25
 62
7
100
AcDbLine
 10
50.28418513143225
 20
-14.14316297371355
 30
0.0
 11
50.42627769714838
 21
-14.28525553942968
 31
0.0
  0
LINE
  5
8C3
330
1F
100
AcDbEntity
  8
2
  6
CONTINUOUS
370
25
 62
7
100
AcDbLine
 10
50.63773852202552
 20
-14.07245229559489
 30
0.0
 11
50.95660778303829
 21
-14.39132155660766
 31
0.0
  0
LINE
  5
8C4
330
1F
100
AcDbEntity
  8
2
  6
CONTINUOUS
370
25
 62
7
100
AcDbLine
 10
50.9912919126188
 20
-14.00174161747624
 30
0.0
 11
51.48693786892819
 21
-14.49738757378564
 31
0.0
  0
LINE
  5
8C5
330
1F
100
AcDbEntity
  8
2
  6
CONTINUOUS
370
25
 62
7
100
AcDbLine
 10
51.34484530321207
 20
-13.93103093935759
 30
0.0
 11
52.01726795481811
 21
-14.60345359096362
 31
0.0
  0
LINE
  5
8C6
330
1F
100
AcDbEntity
  8
2
  6
CONTINUOUS
370
25
 62
7
100
AcDbLine
 10
51.69839869380534
 20
-13.86032026123893
 30
0.0
 11
52.54759804070802
 21
-14.7095196081416
 31
0.0
  0
LINE
  5
8C7
330
1F
100
AcDbEntity
  8
2
  6
CONTINUOUS
370
25
 62
7
100
AcDbLine
 10
52.05195208439862
 20
-13.78960958312028
 30
0.0
 11
53.07792812659793
 21
-14.81558562531959
 31
0.0
  0
LINE
  5
8C8
330
1F
100
AcDbEntity
  8
2
  6
CONTINUOUS
370
25
 62
7
100
AcDbLine
 10
52.40550547499189
 20
-13.71889890500163
 30
0.0
 11
53.60825821248784
 21
-14.92165164249757
 31
0.0
  0
LINE
  5
8C9
330
1F
100
AcDbEntity
  8
2
  6
CONTINUOUS
370
25
 62
7
100
AcDbLine
 10
52.75905886558516
 20
-13.64818822688297
 30
0.0
 11
54.13858829837775
 21
-15.02771765967555
 31
0.0
  0
LINE
  5
8CA
330
1F
100
AcDbEntity
  8
2
  6
CONTINUOUS
370
25
 62
7
100
AcDbLine
 10
53.11261225617844
 20
-13.57747754876431
 30
0.0
 11
54.66891838426766
 21
-15.13378367685353
 31
0.0
  0
LINE
  5
8CB
330
1F
100
AcDbEntity
  8
2
  6
CONTINUOUS
370
25
 62
7
100
AcDbLine
 10
53.46616564677171
 20
-13.50676687064566
 30
0.0
 11
55.0
 21
-15.04060122387395
 31
0.0
  0
LINE
  5
8CC
330
1F
100
AcDbEntity
  8
2
  6
CONTINUOUS
370
25
 62
7
100
AcDbLine
 10
53.81971903736498
 20
-13.436056192527
 30
0.0
 11
55.0
 21
-14.61633715516202
 31
0.0
  0
LINE
  5
8CD
330
1F
100
AcDbEntity
  8
2
  6
CONTINUOUS
370
25
 62
7
100
AcDbLine
 10
54.17327242795825
 20
-13.36534551440835
 30
0.0
 11
55.0
 21
-14.19207308645009
 31
0.0
  0
LINE
  5
8CE
330
1F
100
AcDbEntity
  8
2
  6
CONTINUOUS
370
25
 62
7
100
AcDbLine
 10
54.52682581855153
 20
-13.2946348362897
 30
0.0
 11
55.0
 21
-13.76780901773817
 31
0.0
  0
LINE
  5
8CF
330
1F
100
AcDbEntity
  8
2
  6
CONTINUOUS
370
25
 62
7
100
AcDbLine
 10
54.88037920914481
 20
-13.22392415817104
 30
0.0
 11
55.0
 21
-13.34354494902624
 31
0.0
  0
TEXT
  5
8D0
330
1F
100
AcDbEntity
  8
2
  6
CONTINUOUS
370
25
 62
7
100
AcDbText
 10
56.9625
 20
-12.7
 30
0.0
 40
3.5
  1
8.8
 72
     1
 11
60.4625
 21
-12.7
 31
0.0
100
AcDbText
  0
LINE
  5
8D1
330
1F
100
AcDbEntity
  8
2
  6
CONTINUOUS
370
25
 62
7
100
AcDbLine
 10
35.9
 20
0.0
 30
0.0
 11
35.9
 21
25.99995
 31
0.0
  0
LINE
  5
8D2
330
1F
100
AcDbEntity
  8
2
  6
CONTINUOUS
370
25
 62
7
100
AcDbLine
 10
50.0
 20
25.99995
 30
0.0
 11
50.0
 21
2.199999999999999
 31
0.0
  0
LINE
  5
8D3
330
1F
100
AcDbEntity
  8
2
  6
CONTINUOUS
370
25
 62
7
100
AcDbLine
 10
28.9
 20
24.99995
 30
0.0
 11
57.0
 21
24.99995
 31
0.0
  0
LINE
  5
8D4
330
1F
100
AcDbEntity
  8
2
  6
CONTINUOUS
370
25
 62
7
100
AcDbLine
 10
35.9
 20
24.99995
 30
0.0
 11
30.9
 21
23.99995
 31
0.0
  0
LINE
  5
8D5
330
1F
100
AcDbEntity
  8
2
  6
CONTINUOUS
370
25
 62
7
100
AcDbLine
 10
30.9
 20
23.99995
 30
0.0
 11
30.9
 21
25.99995
 31
0.0
  0
LINE
  5
8D6
330
1F
100
AcDbEntity
  8
2
  6
CONTINUOUS
370
25
 62
7
100
AcDbLine
 10
30.9
 20
25.99995
 30
0.0
 11
35.9
 21
24.99995
 31
0.0
  0
LINE
  5
8D7
330
1F
100
AcDbEntity
  8
2
  6
CONTINUOUS
370
25
 62
7
100
AcDbLine
 10
35.86046243249531
 20
24.99204248649906
 30
0.0
 11
35.87364162166354
 21
25.00522167566729
 31
0.0
  0
LINE
  5
8D8
330
1F
100
AcDbEntity
  8
2
  6
CONTINUOUS
370
25
 62
7
100
AcDbLine
 10
35.3301323466054
 20
24.88597646932108
 30
0.0
 11
35.52008823107027
 21
25.07593235378594
 31
0.0
  0
LINE
  5
8D9
330
1F
100
AcDbEntity
  8
2
  6
CONTINUOUS
370
25
 62
7
100
AcDbLine
 10
34.79980226071549
 20
24.7799104521431
 30
0.0
 11
35.16653484047699
 21
25.1466430319046
 31
0.0
  0
LINE
  5
8DA
330
1F
100
AcDbEntity
  8
2
  6
CONTINUOUS
370
25
 62
7
100
AcDbLine
 10
34.26947217482558
 20
24.67384443496512
 30
0.0
 11
34.81298144988372
 21
25.21735371002325
 31
0.0
  0
LINE
  5
8DB
330
1F
100
AcDbEntity
  8
2
  6
CONTINUOUS
370
25
 62
7
100
AcDbLine
 10
33.73914208893567
 20
24.56777841778713
 30
0.0
 11
34.45942805929045
 21
25.28806438814191
 31
0.0
  0
LINE
  5
8DC
330
1F
100
AcDbEntity
  8
2
  6
CONTINUOUS
370
25
 62
7
100
AcDbLine
 10
33.20881200304576
 20
24.46171240060915
 30
0.0
 11
34.10587466869717
 21
25.35877506626056
 31
0.0
  0
LINE
  5
8DD
330
1F
100
AcDbEntity
  8
2
  6
CONTINUOUS
370
25
 62
7
100
AcDbLine
 10
32.67848191715585
 20
24.35564638343117
 30
0.0
 11
33.7523212781039
 21
25.42948574437922
 31
0.0
  0
LINE
  5
8DE
330
1F
100
AcDbEntity
  8
2
  6
CONTINUOUS
370
25
 62
7
100
AcDbLine
 10
32.14815183126594
 20
24.24958036625319
 30
0.0
 11
33.39876788751062
 21
25.50019642249787
 31
0.0
  0
LINE
  5
8DF
330
1F
100
AcDbEntity
  8
2
  6
CONTINUOUS
370
25
 62
7
100
AcDbLine
 10
31.61782174537603
 20
24.1435143490752
 30
0.0
 11
33.04521449691735
 21
25.57090710061653
 31
0.0
  0
LINE
  5
8E0
330
1F
100
AcDbEntity
  8
2
  6
CONTINUOUS
370
25
 62
7
100
AcDbLine
 10
31.08749165948612
 20
24.03744833189722
 30
0.0
 11
32.69166110632408
 21
25.64161777873518
 31
0.0
  0
LINE
  5
8E1
330
1F
100
AcDbEntity
  8
2
  6
CONTINUOUS
370
25
 62
7
100
AcDbLine
 10
30.9
 20
24.27422074112303
 30
0.0
 11
32.33810771573081
 21
25.71232845685384
 31
0.0
  0
LINE
  5
8E2
330
1F
100
AcDbEntity
  8
2
  6
CONTINUOUS
370
25
 62
7
100
AcDbLine
 10
30.9
 20
24.69848480983496
 30
0.0
 11
31.98455432513753
 21
25.78303913497249
 31
0.0
  0
LINE
  5
8E3
330
1F
100
AcDbEntity
  8
2
  6
CONTINUOUS
370
25
 62
7
100
AcDbLine
 10
30.9
 20
25.12274887854688
 30
0.0
 11
31.63100093454426
 21
25.85374981309115
 31
0.0
  0
LINE
  5
8E4
330
1F
100
AcDbEntity
  8
2
  6
CONTINUOUS
370
25
 62
7
100
AcDbLine
 10
30.9
 20
25.54701294725881
 30
0.0
 11
31.27744754395099
 21
25.9244604912098
 31
0.0
  0
LINE
  5
8E5
330
1F
100
AcDbEntity
  8
2
  6
CONTINUOUS
370
25
 62
7
100
AcDbLine
 10
30.9
 20
25.97127701597074
 30
0.0
 11
30.92389415335771
 21
25.99517116932845
 31
0.0
  0
LINE
  5
8E6
330
1F
100
AcDbEntity
  8
2
  6
CONTINUOUS
370
25
 62
7
100
AcDbLine
 10
30.9
 20
24.09188309203675
 30
0.0
 11
30.97661091003062
 21
24.01527218200612
 31
0.0
  0
LINE
  5
8E7
330
1F
100
AcDbEntity
  8
2
  6
CONTINUOUS
370
25
 62
7
100
AcDbLine
 10
30.9
 20
24.51614716074868
 30
0.0
 11
31.3301643006239
 21
24.08598286012478
 31
0.0
  0
LINE
  5
8E8
330
1F
100
AcDbEntity
  8
2
  6
CONTINUOUS
370
25
 62
7
100
AcDbLine
 10
30.9
 20
24.9404112294606
 30
0.0
 11
31.68371769121717
 21
24.15669353824343
 31
0.0
  0
LINE
  5
8E9
330
1F
100
AcDbEntity
  8
2
  6
CONTINUOUS
370
25
 62
7
100
AcDbLine
 10
30.9
 20
25.36467529817253
 30
0.0
 11
32.03727108181044
 21
24.22740421636209
 31
0.0
  0
LINE
  5
8EA
330
1F
100
AcDbEntity
  8
2
  6
CONTINUOUS
370
25
 62
7
100
AcDbLine
 10
30.9
 20
25.78893936688446
 30
0.0
 11
32.39082447240371
 21
24.29811489448074
 31
0.0
  0
LINE
  5
8EB
330
1F
100
AcDbEntity
  8
2
  6
CONTINUOUS
370
25
 62
7
100
AcDbLine
 10
31.16656679449548
 20
25.9466366411009
 30
0.0
 11
32.74437786299699
 21
24.3688255725994
 31
0.0
  0
LINE
  5
8EC
330
1F
100
AcDbEntity
  8
2
  6
CONTINUOUS
370
25
 62
7
100
AcDbLine
 10
31.6968968803854
 20
25.84057062392292
 30
0.0
 11
33.09793125359026
 21
24.43953625071805
 31
0.0
  0
LINE
  5
8ED
330
1F
100
AcDbEntity
  8
2
  6
CONTINUOUS
370
25
 62
7
100
AcDbLine
 10
32.2272269662753
 20
25.73450460674494
 30
0.0
 11
33.45148464418354
 21
24.51024692883671
 31
0.0
  0
LINE
  5
8EE
330
1F
100
AcDbEntity
  8
2
  6
CONTINUOUS
370
25
 62
7
100
AcDbLine
 10
32.75755705216521
 20
25.62843858956695
 30
0.0
 11
33.80503803477681
 21
24.58095760695536
 31
0.0
  0
LINE
  5
8EF
330
1F
100
AcDbEntity
  8
2
  6
CONTINUOUS
370
25
 62
7
100
AcDbLine
 10
33.28788713805512
 20
25.52237257238897
 30
0.0
 11
34.15859142537008
 21
24.65166828507402
 31
0.0
  0
LINE
  5
8F0
330
1F
100
AcDbEntity
  8
2
  6
CONTINUOUS
370
25
 62
7
100
AcDbLine
 10
33.81821722394503
 20
25.41630655521099
 30
0.0
 11
34.51214481596335
 21
24.72237896319267
 31
0.0
  0
LINE
  5
8F1
330
1F
100
AcDbEntity
  8
2
  6
CONTINUOUS
370
25
 62
7
100
AcDbLine
 10
34.34854730983494
 20
25.31024053803301
 30
0.0
 11
34.86569820655663
 21
24.79308964131133
 31
0.0
  0
LINE
  5
8F2
330
1F
100
AcDbEntity
  8
2
  6
CONTINUOUS
370
25
 62
7
100
AcDbLine
 10
34.87887739572486
 20
25.20417452085503
 30
0.0
 11
35.21925159714991
 21
24.86380031942998
 31
0.0
  0
LINE
  5
8F3
330
1F
100
AcDbEntity
  8
2
  6
CONTINUOUS
370
25
 62
7
100
AcDbLine
 10
35.40920748161476
 20
25.09810850367705
 30
0.0
 11
35.57280498774318
 21
24.93451099754864
 31
0.0
  0
LINE
  5
8F4
330
1F
100
AcDbEntity
  8
2
  6
CONTINUOUS
370
25
 62
7
100
AcDbLine
 10
50.0
 20
24.99995
 30
0.0
 11
55.0
 21
25.99995
 31
0.0
  0
LINE
  5
8F5
330
1F
100
AcDbEntity
  8
2
  6
CONTINUOUS
370
25
 62
7
100
AcDbLine
 10
55.0
 20
25.99995
 30
0.0
 11
55.0
 21
23.99995
 31
0.0
  0
LINE
  5
8F6
330
1F
100
AcDbEntity
  8
2
  6
CONTINUOUS
370
25
 62
7
100
AcDbLine
 10
55.0
 20
23.99995
 30
0.0
 11
50.0
 21
24.99995
 31
0.0
  0
LINE
  5
8F7
330
1F
100
AcDbEntity
  8
2
  6
CONTINUOUS
370
25
 62
7
100
AcDbLine
 10
54.84065097954738
 20
24.03181980409052
 30
0.0
 11
55.0
 21
24.19116882454314
 31
0.0
  0
LINE
  5
8F8
330
1F
100
AcDbEntity
  8
2
  6
CONTINUOUS
370
25
 62
7
100
AcDbLine
 10
54.48709758895411
 20
24.10253048220918
 30
0.0
 11
55.0
 21
24.61543289325506
 31
0.0
  0
LINE
  5
8F9
330
1F
100
AcDbEntity
  8
2
  6
CONTINUOUS
370
25
 62
7
100
AcDbLine
 10
54.13354419836084
 20
24.17324116032783
 30
0.0
 11
55.0
 21
25.03969696196699
 31
0.0
  0
LINE
  5
8FA
330
1F
100
AcDbEntity
  8
2
  6
CONTINUOUS
370
25
 62
7
100
AcDbLine
 10
53.77999080776756
 20
24.24395183844648
 30
0.0
 11
55.0
 21
25.46396103067892
 31
0.0
  0
LINE
  5
8FB
330
1F
100
AcDbEntity
  8
2
  6
CONTINUOUS
370
25
 62
7
100
AcDbLine
 10
53.42643741717429
 20
24.31466251656514
 30
0.0
 11
55.0
 21
25.88822509939085
 31
0.0
  0
LINE
  5
8FC
330
1F
100
AcDbEntity
  8
2
  6
CONTINUOUS
370
25
 62
7
100
AcDbLine
 10
53.07288402658102
 20
24.38537319468379
 30
0.0
 11
54.60932603987153
 21
25.9218152079743
 31
0.0
  0
LINE
  5
8FD
330
1F
100
AcDbEntity
  8
2
  6
CONTINUOUS
370
25
 62
7
100
AcDbLine
 10
52.71933063598775
 20
24.45608387280245
 30
0.0
 11
54.07899595398162
 21
25.81574919079632
 31
0.0
  0
LINE
  5
8FE
330
1F
100
AcDbEntity
  8
2
  6
CONTINUOUS
370
25
 62
7
100
AcDbLine
 10
52.36577724539447
 20
24.5267945509211
 30
0.0
 11
53.5486658680917
 21
25.70968317361834
 31
0.0
  0
LINE
  5
8FF
330
1F
100
AcDbEntity
  8
2
  6
CONTINUOUS
370
25
 62
7
100
AcDbLine
 10
52.0122238548012
 20
24.59750522903976
 30
0.0
 11
53.0183357822018
 21
25.60361715644036
 31
0.0
  0
LINE
  5
900
330
1F
100
AcDbEntity
  8
2
  6
CONTINUOUS
370
25
 62
7
100
AcDbLine
 10
51.65867046420793
 20
24.66821590715841
 30
0.0
 11
52.48800569631189
 21
25.49755113926237
 31
0.0
  0
LINE
  5
901
330
1F
100
AcDbEntity
  8
2
  6
CONTINUOUS
370
25
 62
7
100
AcDbLine
 10
51.30511707361465
 20
24.73892658527707
 30
0.0
 11
51.95767561042198
 21
25.39148512208439
 31
0.0
  0
LINE
  5
902
330
1F
100
AcDbEntity
  8
2
  6
CONTINUOUS
370
25
 62
7
100
AcDbLine
 10
50.95156368302138
 20
24.80963726339572
 30
0.0
 11
51.42734552453207
 21
25.28541910490641
 31
0.0
  0
LINE
  5
903
330
1F
100
AcDbEntity
  8
2
  6
CONTINUOUS
370
25
 62
7
100
AcDbLine
 10
50.59801029242811
 20
24.88034794151438
 30
0.0
 11
50.89701543864216
 21
25.17935308772843
 31
0.0
  0
LINE
  5
904
330
1F
100
AcDbEntity
  8
2
  6
CONTINUOUS
370
25
 62
7
100
AcDbLine
 10
50.24445690183484
 20
24.95105861963303
 30
0.0
 11
50.36668535275225
 21
25.07328707055045
 31
0.0
  0
LINE
  5
905
330
1F
100
AcDbEntity
  8
2
  6
CONTINUOUS
370
25
 62
7
100
AcDbLine
 10
50.29717365850778
 20
25.05938473170156
 30
0.0
 11
50.44576048776167
 21
24.91079790244767
 31
0.0
  0
LINE
  5
906
330
1F
100
AcDbEntity
  8
2
  6
CONTINUOUS
370
25
 62
7
100
AcDbLine
 10
50.65072704910106
 20
25.13009540982021
 30
0.0
 11
50.97609057365158
 21
24.80473188526968
 31
0.0
  0
LINE
  5
907
330
1F
100
AcDbEntity
  8
2
  6
CONTINUOUS
370
25
 62
7
100
AcDbLine
 10
51.00428043969433
 20
25.20080608793887
 30
0.0
 11
51.5064206595415
 21
24.6986658680917
 31
0.0
  0
LINE
  5
908
330
1F
100
AcDbEntity
  8
2
  6
CONTINUOUS
370
25
 62
7
100
AcDbLine
 10
51.3578338302876
 20
25.27151676605752
 30
0.0
 11
52.03675074543141
 21
24.59259985091372
 31
0.0
  0
LINE
  5
909
330
1F
100
AcDbEntity
  8
2
  6
CONTINUOUS
370
25
 62
7
100
AcDbLine
 10
51.71138722088088
 20
25.34222744417617
 30
0.0
 11
52.56708083132132
 21
24.48653383373573
 31
0.0
  0
LINE
  5
90A
330
1F
100
AcDbEntity
  8
2
  6
CONTINUOUS
370
25
 62
7
100
AcDbLine
 10
52.06494061147415
 20
25.41293812229483
 30
0.0
 11
53.09741091721123
 21
24.38046781655775
 31
0.0
  0
LINE
  5
90B
330
1F
100
AcDbEntity
  8
2
  6
CONTINUOUS
370
25
 62
7
100
AcDbLine
 10
52.41849400206743
 20
25.48364880041348
 30
0.0
 11
53.62774100310114
 21
24.27440179937977
 31
0.0
  0
LINE
  5
90C
330
1F
100
AcDbEntity
  8
2
  6
CONTINUOUS
370
25
 62
7
100
AcDbLine
 10
52.7720473926607
 20
25.55435947853213
 30
0.0
 11
54.15807108899105
 21
24.16833578220179
 31
0.0
  0
LINE
  5
90D
330
1F
100
AcDbEntity
  8
2
  6
CONTINUOUS
370
25
 62
7
100
AcDbLine
 10
53.12560078325397
 20
25.62507015665079
 30
0.0
 11
54.68840117488096
 21
24.06226976502381
 31
0.0
  0
LINE
  5
90E
330
1F
100
AcDbEntity
  8
2
  6
CONTINUOUS
370
25
 62
7
100
AcDbLine
 10
53.47915417384725
 20
25.69578083476945
 30
0.0
 11
55.0
 21
24.17493500861669
 31
0.0
  0
LINE
  5
90F
330
1F
100
AcDbEntity
  8
2
  6
CONTINUOUS
370
25
 62
7
100
AcDbLine
 10
53.83270756444052
 20
25.7664915128881
 30
0.0
 11
55.0
 21
24.59919907732862
 31
0.0
  0
LINE
  5
910
330
1F
100
AcDbEntity
  8
2
  6
CONTINUOUS
370
25
 62
7
100
AcDbLine
 10
54.18626095503379
 20
25.83720219100676
 30
0.0
 11
55.0
 21
25.02346314604055
 31
0.0
  0
LINE
  5
911
330
1F
100
AcDbEntity
  8
2
  6
CONTINUOUS
370
25
 62
7
100
AcDbLine
 10
54.53981434562706
 20
25.90791286912541
 30
0.0
 11
55.0
 21
25.44772721475247
 31
0.0
  0
LINE
  5
912
330
1F
100
AcDbEntity
  8
2
  6
CONTINUOUS
370
25
 62
7
100
AcDbLine
 10
54.89336773622034
 20
25.97862354724407
 30
0.0
 11
55.0
 21
25.8719912834644
 31
0.0
  0
TEXT
  5
913
330
1F
100
AcDbEntity
  8
2
  6
CONTINUOUS
370
25
 62
7
100
AcDbText
 10
38.86666666666667
 20
26.49995
 30
0.0
 40
3.5
  1
14.1
 72
     1
 11
42.95
 21
26.49995
 31
0.0
100
AcDbText
  0
LINE
  5
914
330
1F
100
AcDbEntity
  8
SK2
  6
CONTINUOUS
370
25
 62
7
100
AcDbLine
 10
0.0
 20
0.9999500000000001
 30
0.0
 11
0.0
 21
35.99995
 31
0.0
  0
LINE
  5
915
330
1F
100
AcDbEntity
  8
SK2
  6
CONTINUOUS
370
25
 62
7
100
AcDbLine
 10
50.0
 20
35.99995
 30
0.0
 11
50.0
 21
2.199999999999996
 31
0.0
  0
LINE
  5
916
330
1F
100
AcDbEntity
  8
SK2
  6
CONTINUOUS
370
25
 62
7
100
AcDbLine
 10
0.0
 20
34.99995
 30
0.0
 11
50.0
 21
34.99995
 31
0.0
  0
LINE
  5
917
330
1F
100
AcDbEntity
  8
SK2
  6
CONTINUOUS
370
25
 62
7
100
AcDbLine
 10
0.0
 20
34.99995
 30
0.0
 11
5.0
 21
35.99995
 31
0.0
  0
LINE
  5
918
330
1F
100
AcDbEntity
  8
SK2
  6
CONTINUOUS
370
25
 62
7
100
AcDbLine
 10
5.0
 20
35.99995
 30
0.0
 11
5.0
 21
33.99995
 31
0.0
  0
LINE
  5
919
330
1F
100
AcDbEntity
  8
SK2
  6
CONTINUOUS
370
25
 62
7
100
AcDbLine
 10
5.0
 20
33.99995
 30
0.0
 11
0.0
 21
34.99995
 31
0.0
  0
LINE
  5
91A
330
1F
100
AcDbEntity
  8
SK2
  6
CONTINUOUS
370
25
 62
7
100
AcDbLine
 10
4.989622905895772
 20
34.00202541882084
 30
0.0
 11
5.0
 21
34.01240251292507
 31
0.0
  0
LINE
  5
91B
330
1F
100
AcDbEntity
  8
SK2
  6
CONTINUOUS
370
25
 62
7
100
AcDbLine
 10
4.636069515302506
 20
34.07273609693949
 30
0.0
 11
5.0
 21
34.43666658163699
 31
0.0
  0
LINE
  5
91C
330
1F
100
AcDbEntity
  8
SK2
  6
CONTINUOUS
370
25
 62
7
100
AcDbLine
 10
4.282516124709225
 20
34.14344677505815
 30
0.0
 11
5.0
 21
34.86093065034893
 31
0.0
  0
LINE
  5
91D
330
1F
100
AcDbEntity
  8
SK2
  6
CONTINUOUS
370
25
 62
7
100
AcDbLine
 10
3.928962734115945
 20
34.21415745317681
 30
0.0
 11
5.0
 21
35.28519471906086
 31
0.0
  0
LINE
  5
91E
330
1F
100
AcDbEntity
  8
SK2
  6
CONTINUOUS
370
25
 62
7
100
AcDbLine
 10
3.575409343522665
 20
34.28486813129546
 30
0.0
 11
5.0
 21
35.7094587877728
 31
0.0
  0
LINE
  5
91F
330
1F
100
AcDbEntity
  8
SK2
  6
CONTINUOUS
370
25
 62
7
100
AcDbLine
 10
3.221855952929388
 20
34.35557880941412
 30
0.0
 11
4.832783929394086
 21
35.96650678587882
 31
0.0
  0
LINE
  5
920
330
1F
100
AcDbEntity
  8
SK2
  6
CONTINUOUS
370
25
 62
7
100
AcDbLine
 10
2.868302562336119
 20
34.42628948753277
 30
0.0
 11
4.302453843504185
 21
35.86044076870084
 31
0.0
  0
LINE
  5
921
330
1F
100
AcDbEntity
  8
SK2
  6
CONTINUOUS
370
25
 62
7
100
AcDbLine
 10
2.514749171742842
 20
34.49700016565143
 30
0.0
 11
3.772123757614267
 21
35.75437475152285
 31
0.0
  0
LINE
  5
922
330
1F
100
AcDbEntity
  8
SK2
  6
CONTINUOUS
370
25
 62
7
100
AcDbLine
 10
2.161195781149566
 20
34.56771084377009
 30
0.0
 11
3.241793671724352
 21
35.64830873434487
 31
0.0
  0
LINE
  5
923
330
1F
100
AcDbEntity
  8
SK2
  6
CONTINUOUS
370
25
 62
7
100
AcDbLine
 10
1.807642390556296
 20
34.63842152188874
 30
0.0
 11
2.711463585834451
 21
35.54224271716689
 31
0.0
  0
LINE
  5
924
330
1F
100
AcDbEntity
  8
SK2
  6
CONTINUOUS
370
25
 62
7
100
AcDbLine
 10
1.45408899996302
 20
34.7091322000074
 30
0.0
 11
2.181133499944529
 21
35.43617669998891
 31
0.0
  0
LINE
  5
925
330
1F
100
AcDbEntity
  8
SK2
  6
CONTINUOUS
370
25
 62
7
100
AcDbLine
 10
1.100535609369736
 20
34.77984287812605
 30
0.0
 11
1.650803414054614
 21
35.33011068281093
 31
0.0
  0
LINE
  5
926
330
1F
100
AcDbEntity
  8
SK2
  6
CONTINUOUS
370
25
 62
7
100
AcDbLine
 10
0.7469822187764592
 20
34.85055355624471
 30
0.0
 11
1.120473328164692
 21
35.22404466563294
 31
0.0
  0
LINE
  5
927
330
1F
100
AcDbEntity
  8
SK2
  6
CONTINUOUS
370
25
 62
7
100
AcDbLine
 10
0.3934288281831826
 20
34.92126423436336
 30
0.0
 11
0.5901432422747774
 21
35.11797864845496
 31
0.0
  0
LINE
  5
928
330
1F
100
AcDbEntity
  8
SK2
  6
CONTINUOUS
370
25
 62
7
100
AcDbLine
 10
0.0398754375899131
 20
34.99197491248201
 30
0.0
 11
0.0598131563848767
 21
35.01191263127698
 31
0.0
  0
LINE
  5
929
330
1F
100
AcDbEntity
  8
SK2
  6
CONTINUOUS
370
25
 62
7
100
AcDbLine
 10
0.3245835792855161
 20
35.06486671585711
 30
0.0
 11
0.4868753689282812
 21
34.90257492621434
 31
0.0
  0
LINE
  5
92A
330
1F
100
AcDbEntity
  8
SK2
  6
CONTINUOUS
370
25
 62
7
100
AcDbLine
 10
0.6781369698787998
 20
35.13557739397576
 30
0.0
 11
1.017205454818203
 21
34.79650890903635
 31
0.0
  0
LINE
  5
92B
330
1F
100
AcDbEntity
  8
SK2
  6
CONTINUOUS
370
25
 62
7
100
AcDbLine
 10
1.031690360472069
 20
35.20628807209442
 30
0.0
 11
1.547535540708111
 21
34.69044289185837
 31
0.0
  0
LINE
  5
92C
330
1F
100
AcDbEntity
  8
SK2
  6
CONTINUOUS
370
25
 62
7
100
AcDbLine
 10
1.385243751065346
 20
35.27699875021307
 30
0.0
 11
2.077865626598019
 21
34.58437687468039
 31
0.0
  0
LINE
  5
92D
330
1F
100
AcDbEntity
  8
SK2
  6
CONTINUOUS
370
25
 62
7
100
AcDbLine
 10
1.738797141658623
 20
35.34770942833173
 30
0.0
 11
2.608195712487934
 21
34.47831085750241
 31
0.0
  0
LINE
  5
92E
330
1F
100
AcDbEntity
  8
SK2
  6
CONTINUOUS
370
25
 62
7
100
AcDbLine
 10
2.092350532251899
 20
35.41842010645038
 30
0.0
 11
3.138525798377842
 21
34.37224484032443
 31
0.0
  0
LINE
  5
92F
330
1F
100
AcDbEntity
  8
SK2
  6
CONTINUOUS
370
25
 62
7
100
AcDbLine
 10
2.445903922845176
 20
35.48913078456903
 30
0.0
 11
3.668855884267749
 21
34.26617882314645
 31
0.0
  0
LINE
  5
930
330
1F
100
AcDbEntity
  8
SK2
  6
CONTINUOUS
370
25
 62
7
100
AcDbLine
 10
2.799457313438452
 20
35.55984146268769
 30
0.0
 11
4.199185970157664
 21
34.16011280596847
 31
0.0
  0
LINE
  5
931
330
1F
100
AcDbEntity
  8
SK2
  6
CONTINUOUS
370
25
 62
7
100
AcDbLine
 10
3.153010704031722
 20
35.63055214080634
 30
0.0
 11
4.729516056047569
 21
34.05404678879049
 31
0.0
  0
LINE
  5
932
330
1F
100
AcDbEntity
  8
SK2
  6
CONTINUOUS
370
25
 62
7
100
AcDbLine
 10
3.506564094624999
 20
35.701262818925
 30
0.0
 11
5.0
 21
34.20782691354998
 31
0.0
  0
LINE
  5
933
330
1F
100
AcDbEntity
  8
SK2
  6
CONTINUOUS
370
25
 62
7
100
AcDbLine
 10
3.860117485218275
 20
35.77197349704365
 30
0.0
 11
5.0
 21
34.63209098226191
 31
0.0
  0
LINE
  5
934
330
1F
100
AcDbEntity
  8
SK2
  6
CONTINUOUS
370
25
 62
7
100
AcDbLine
 10
4.213670875811548
 20
35.84268417516231
 30
0.0
 11
5.0
 21
35.05635505097385
 31
0.0
  0
LINE
  5
935
330
1F
100
AcDbEntity
  8
SK2
  6
CONTINUOUS
370
25
 62
7
100
AcDbLine
 10
4.567224266404825
 20
35.91339485328096
 30
0.0
 11
5.0
 21
35.48061911968578
 31
0.0
  0
LINE
  5
936
330
1F
100
AcDbEntity
  8
SK2
  6
CONTINUOUS
370
25
 62
7
100
AcDbLine
 10
4.920777656998098
 20
35.98410553139962
 30
0.0
 11
5.0
 21
35.90488318839772
 31
0.0
  0
LINE
  5
937
330
1F
100
AcDbEntity
  8
SK2
  6
CONTINUOUS
370
25
 62
7
100
AcDbLine
 10
50.0
 20
34.99995
 30
0.0
 11
45.0
 21
33.99995
 31
0.0
  0
LINE
  5
938
330
1F
100
AcDbEntity
  8
SK2
  6
CONTINUOUS
370
25
 62
7
100
AcDbLine
 10
45.0
 20
33.99995
 30
0.0
 11
45.0
 21
35.99995
 31
0.0
  0
LINE
  5
939
330
1F
100
AcDbEntity
  8
SK2
  6
CONTINUOUS
370
25
 62
7
100
AcDbLine
 10
45.0
 20
35.99995
 30
0.0
 11
50.0
 21
34.99995
 31
0.0
  0
LINE
  5
93A
330
1F
100
AcDbEntity
  8
SK2
  6
CONTINUOUS
370
25
 62
7
100
AcDbLine
 10
49.60843320550453
 20
34.9216366411009
 30
0.0
 11
49.73895547033635
 21
35.05215890593273
 31
0.0
  0
LINE
  5
93B
330
1F
100
AcDbEntity
  8
SK2
  6
CONTINUOUS
370
25
 62
7
100
AcDbLine
 10
49.07810311961462
 20
34.81557062392292
 30
0.0
 11
49.38540207974307
 21
35.12286958405139
 31
0.0
  0
LINE
  5
93C
330
1F
100
AcDbEntity
  8
SK2
  6
CONTINUOUS
370
25
 62
7
100
AcDbLine
 10
48.5477730337247
 20
34.70950460674494
 30
0.0
 11
49.0318486891498
 21
35.19358026217004
 31
0.0
  0
LINE
  5
93D
330
1F
100
AcDbEntity
  8
SK2
  6
CONTINUOUS
370
25
 62
7
100
AcDbLine
 10
48.01744294783479
 20
34.60343858956696
 30
0.0
 11
48.67829529855653
 21
35.2642909402887
 31
0.0
  0
LINE
  5
93E
330
1F
100
AcDbEntity
  8
SK2
  6
CONTINUOUS
370
25
 62
7
100
AcDbLine
 10
47.48711286194489
 20
34.49737257238898
 30
0.0
 11
48.32474190796326
 21
35.33500161840735
 31
0.0
  0
LINE
  5
93F
330
1F
100
AcDbEntity
  8
SK2
  6
CONTINUOUS
370
25
 62
7
100
AcDbLine
 10
46.95678277605497
 20
34.39130655521099
 30
0.0
 11
47.97118851736998
 21
35.405712296526
 31
0.0
  0
LINE
  5
940
330
1F
100
AcDbEntity
  8
SK2
  6
CONTINUOUS
370
25
 62
7
100
AcDbLine
 10
46.42645269016506
 20
34.28524053803301
 30
0.0
 11
47.6176351267767
 21
35.47642297464466
 31
0.0
  0
LINE
  5
941
330
1F
100
AcDbEntity
  8
SK2
  6
CONTINUOUS
370
25
 62
7
100
AcDbLine
 10
45.89612260427516
 20
34.17917452085503
 30
0.0
 11
47.26408173618343
 21
35.54713365276331
 31
0.0
  0
LINE
  5
942
330
1F
100
AcDbEntity
  8
SK2
  6
CONTINUOUS
370
25
 62
7
100
AcDbLine
 10
45.36579251838525
 20
34.07310850367705
 30
0.0
 11
46.91052834559016
 21
35.61784433088197
 31
0.0
  0
LINE
  5
943
330
1F
100
AcDbEntity
  8
SK2
  6
CONTINUOUS
370
25
 62
7
100
AcDbLine
 10
45.0
 20
34.13158005400373
 30
0.0
 11
46.55697495499688
 21
35.68855500900062
 31
0.0
  0
LINE
  5
944
330
1F
100
AcDbEntity
  8
SK2
  6
CONTINUOUS
370
25
 62
7
100
AcDbLine
 10
45.0
 20
34.55584412271566
 30
0.0
 11
46.20342156440361
 21
35.75926568711927
 31
0.0
  0
LINE
  5
945
330
1F
100
AcDbEntity
  8
SK2
  6
CONTINUOUS
370
25
 62
7
100
AcDbLine
 10
45.0
 20
34.98010819142759
 30
0.0
 11
45.84986817381034
 21
35.82997636523793
 31
0.0
  0
LINE
  5
946
330
1F
100
AcDbEntity
  8
SK2
  6
CONTINUOUS
370
25
 62
7
100
AcDbLine
 10
45.0
 20
35.40437226013952
 30
0.0
 11
45.49631478321706
 21
35.90068704335658
 31
0.0
  0
LINE
  5
947
330
1F
100
AcDbEntity
  8
SK2
  6
CONTINUOUS
370
25
 62
7
100
AcDbLine
 10
45.0
 20
35.82863632885145
 30
0.0
 11
45.14276139262378
 21
35.97139772147524
 31
0.0
  0
LINE
  5
948
330
1F
100
AcDbEntity
  8
SK2
  6
CONTINUOUS
370
25
 62
7
100
AcDbLine
 10
45.0
 20
34.17493500861669
 30
0.0
 11
45.14582084051391
 21
34.02911416810278
 31
0.0
  0
LINE
  5
949
330
1F
100
AcDbEntity
  8
SK2
  6
CONTINUOUS
370
25
 62
7
100
AcDbLine
 10
45.0
 20
34.59919907732861
 30
0.0
 11
45.49937423110718
 21
34.09982484622143
 31
0.0
  0
LINE
  5
94A
330
1F
100
AcDbEntity
  8
SK2
  6
CONTINUOUS
370
25
 62
7
100
AcDbLine
 10
45.0
 20
35.02346314604054
 30
0.0
 11
45.85292762170045
 21
34.17053552434009
 31
0.0
  0
LINE
  5
94B
330
1F
100
AcDbEntity
  8
SK2
  6
CONTINUOUS
370
25
 62
7
100
AcDbLine
 10
45.0
 20
35.44772721475247
 30
0.0
 11
46.20648101229372
 21
34.24124620245874
 31
0.0
  0
LINE
  5
94C
330
1F
100
AcDbEntity
  8
SK2
  6
CONTINUOUS
370
25
 62
7
100
AcDbLine
 10
45.0
 20
35.8719912834644
 30
0.0
 11
46.560034402887
 21
34.3119568805774
 31
0.0
  0
LINE
  5
94D
330
1F
100
AcDbEntity
  8
SK2
  6
CONTINUOUS
370
25
 62
7
100
AcDbLine
 10
45.37038169022041
 20
35.92587366195592
 30
0.0
 11
46.91358779348027
 21
34.38266755869606
 31
0.0
  0
LINE
  5
94E
330
1F
100
AcDbEntity
  8
SK2
  6
CONTINUOUS
370
25
 62
7
100
AcDbLine
 10
45.90071177611033
 20
35.81980764477793
 30
0.0
 11
47.26714118407355
 21
34.45337823681471
 31
0.0
  0
LINE
  5
94F
330
1F
100
AcDbEntity
  8
SK2
  6
CONTINUOUS
370
25
 62
7
100
AcDbLine
 10
46.43104186200024
 20
35.71374162759995
 30
0.0
 11
47.62069457466682
 21
34.52408891493336
 31
0.0
  0
LINE
  5
950
330
1F
100
AcDbEntity
  8
SK2
  6
CONTINUOUS
370
25
 62
7
100
AcDbLine
 10
46.96137194789015
 20
35.60767561042197
 30
0.0
 11
47.9742479652601
 21
34.59479959305202
 31
0.0
  0
LINE
  5
951
330
1F
100
AcDbEntity
  8
SK2
  6
CONTINUOUS
370
25
 62
7
100
AcDbLine
 10
47.49170203378006
 20
35.50160959324398
 30
0.0
 11
48.32780135585337
 21
34.66551027117067
 31
0.0
  0
LINE
  5
952
330
1F
100
AcDbEntity
  8
SK2
  6
CONTINUOUS
370
25
 62
7
100
AcDbLine
 10
48.02203211966997
 20
35.395543576066
 30
0.0
 11
48.68135474644664
 21
34.73622094928933
 31
0.0
  0
LINE
  5
953
330
1F
100
AcDbEntity
  8
SK2
  6
CONTINUOUS
370
25
 62
7
100
AcDbLine
 10
48.55236220555988
 20
35.28947755888802
 30
0.0
 11
49.03490813703992
 21
34.80693162740798
 31
0.0
  0
LINE
  5
954
330
1F
100
AcDbEntity
  8
SK2
  6
CONTINUOUS
370
25
 62
7
100
AcDbLine
 10
49.08269229144979
 20
35.18341154171004
 30
0.0
 11
49.38846152763319
 21
34.87764230552663
 31
0.0
  0
LINE
  5
955
330
1F
100
AcDbEntity
  8
SK2
  6
CONTINUOUS
370
25
 62
7
100
AcDbLine
 10
49.6130223773397
 20
35.07734552453206
 30
0.0
 11
49.74201491822646
 21
34.94835298364529
 31
0.0
  0
TEXT
  5
956
330
1F
100
AcDbEntity
  8
SK2
  6
CONTINUOUS
370
25
 62
7
100
AcDbText
 10
22.375
 20
36.49995
 30
0.0
 40
3.5
  1
50
 72
     1
 11
25.0
 21
36.49995
 31
0.0
100
AcDbText
  0
LINE
  5
957
330
1F
100
AcDbEntity
  8
2
  6
CONTINUOUS
370
25
 62
7
100
AcDbLine
 10
38.8
 20
-2.19995
 30
0.0
 11
38.8
 21
-25.2
 31
0.0
  0
LINE
  5
958
330
1F
100
AcDbEntity
  8
2
  6
CONTINUOUS
370
25
 62
7
100
AcDbLine
 10
50.0
 20
-25.2
 30
0.0
 11
50.0
 21
-2.200000000000003
 31
0.0
  0
LINE
  5
959
330
1F
100
AcDbEntity
  8
2
  6
CONTINUOUS
370
25
 62
7
100
AcDbLine
 10
31.8
 20
-24.2
 30
0.0
 11
68.9
 21
-24.2
 31
0.0
  0
LINE
  5
95A
330
1F
100
AcDbEntity
  8
2
  6
CONTINUOUS
370
25
 62
7
100
AcDbLine
 10
38.8
 20
-24.2
 30
0.0
 11
33.8
 21
-25.2
 31
0.0
  0
LINE
  5
95B
330
1F
100
AcDbEntity
  8
2
  6
CONTINUOUS
370
25
 62
7
100
AcDbLine
 10
33.8
 20
-25.2
 30
0.0
 11
33.8
 21
-23.2
 31
0.0
  0
LINE
  5
95C
330
1F
100
AcDbEntity
  8
2
  6
CONTINUOUS
370
25
 62
7
100
AcDbLine
 10
33.8
 20
-23.2
 30
0.0
 11
38.8
 21
-24.2
 31
0.0
  0
LINE
  5
95D
330
1F
100
AcDbEntity
  8
2
  6
CONTINUOUS
370
25
 62
7
100
AcDbLine
 10
38.71292689178724
 20
-24.21741462164255
 30
0.0
 11
38.74195126119149
 21
-24.1883902522383
 31
0.0
  0
LINE
  5
95E
330
1F
100
AcDbEntity
  8
2
  6
CONTINUOUS
370
25
 62
7
100
AcDbLine
 10
38.18259680589733
 20
-24.32348063882053
 30
0.0
 11
38.38839787059821
 21
-24.11767957411965
 31
0.0
  0
LINE
  5
95F
330
1F
100
AcDbEntity
  8
2
  6
CONTINUOUS
370
25
 62
7
100
AcDbLine
 10
37.65226672000742
 20
-24.42954665599852
 30
0.0
 11
38.03484448000494
 21
-24.04696889600099
 31
0.0
  0
LINE
  5
960
330
1F
100
AcDbEntity
  8
2
  6
CONTINUOUS
370
25
 62
7
100
AcDbLine
 10
37.12193663411751
 20
-24.5356126731765
 30
0.0
 11
37.68129108941167
 21
-23.97625821788234
 31
0.0
  0
LINE
  5
961
330
1F
100
AcDbEntity
  8
2
  6
CONTINUOUS
370
25
 62
7
100
AcDbLine
 10
36.5916065482276
 20
-24.64167869035448
 30
0.0
 11
37.3277376988184
 21
-23.90554753976368
 31
0.0
  0
LINE
  5
962
330
1F
100
AcDbEntity
  8
2
  6
CONTINUOUS
370
25
 62
7
100
AcDbLine
 10
36.06127646233769
 20
-24.74774470753246
 30
0.0
 11
36.97418430822513
 21
-23.83483686164503
 31
0.0
  0
LINE
  5
963
330
1F
100
AcDbEntity
  8
2
  6
CONTINUOUS
370
25
 62
7
100
AcDbLine
 10
35.53094637644778
 20
-24.85381072471045
 30
0.0
 11
36.62063091763185
 21
-23.76412618352638
 31
0.0
  0
LINE
  5
964
330
1F
100
AcDbEntity
  8
2
  6
CONTINUOUS
370
25
 62
7
100
AcDbLine
 10
35.00061629055787
 20
-24.95987674188843
 30
0.0
 11
36.26707752703858
 21
-23.69341550540772
 31
0.0
  0
LINE
  5
965
330
1F
100
AcDbEntity
  8
2
  6
CONTINUOUS
370
25
 62
7
100
AcDbLine
 10
34.47028620466796
 20
-25.06594275906641
 30
0.0
 11
35.9135241364453
 21
-23.62270482728907
 31
0.0
  0
LINE
  5
966
330
1F
100
AcDbEntity
  8
2
  6
CONTINUOUS
370
25
 62
7
100
AcDbLine
 10
33.93995611877805
 20
-25.17200877624439
 30
0.0
 11
35.55997074585203
 21
-23.55199414917041
 31
0.0
  0
LINE
  5
967
330
1F
100
AcDbEntity
  8
2
  6
CONTINUOUS
370
25
 62
7
100
AcDbLine
 10
33.8
 20
-24.88770082631051
 30
0.0
 11
35.20641735525876
 21
-23.48128347105176
 31
0.0
  0
LINE
  5
968
330
1F
100
AcDbEntity
  8
2
  6
CONTINUOUS
370
25
 62
7
100
AcDbLine
 10
33.8
 20
-24.46343675759859
 30
0.0
 11
34.85286396466548
 21
-23.4105727929331
 31
0.0
  0
LINE
  5
969
330
1F
100
AcDbEntity
  8
2
  6
CONTINUOUS
370
25
 62
7
100
AcDbLine
 10
33.8
 20
-24.03917268888666
 30
0.0
 11
34.49931057407221
 21
-23.33986211481445
 31
0.0
  0
LINE
  5
96A
330
1F
100
AcDbEntity
  8
2
  6
CONTINUOUS
370
25
 62
7
100
AcDbLine
 10
33.8
 20
-23.61490862017473
 30
0.0
 11
34.14575718347893
 21
-23.26915143669579
 31
0.0
  0
LINE
  5
96B
330
1F
100
AcDbEntity
  8
2
  6
CONTINUOUS
370
25
 62
7
100
AcDbLine
 10
33.8
 20
-25.02739778827752
 30
0.0
 11
33.9438351764354
 21
-25.17123296471292
 31
0.0
  0
LINE
  5
96C
330
1F
100
AcDbEntity
  8
2
  6
CONTINUOUS
370
25
 62
7
100
AcDbLine
 10
33.8
 20
-24.60313371956559
 30
0.0
 11
34.29738856702868
 21
-25.10052228659427
 31
0.0
  0
LINE
  5
96D
330
1F
100
AcDbEntity
  8
2
  6
CONTINUOUS
370
25
 62
7
100
AcDbLine
 10
33.8
 20
-24.17886965085366
 30
0.0
 11
34.65094195762195
 21
-25.02981160847561
 31
0.0
  0
LINE
  5
96E
330
1F
100
AcDbEntity
  8
2
  6
CONTINUOUS
370
25
 62
7
100
AcDbLine
 10
33.8
 20
-23.75460558214174
 30
0.0
 11
35.00449534821522
 21
-24.95910093035696
 31
0.0
  0
LINE
  5
96F
330
1F
100
AcDbEntity
  8
2
  6
CONTINUOUS
370
25
 62
7
100
AcDbLine
 10
33.8
 20
-23.3303415134298
 30
0.0
 11
35.3580487388085
 21
-24.8883902522383
 31
0.0
  0
LINE
  5
970
330
1F
100
AcDbEntity
  8
2
  6
CONTINUOUS
370
25
 62
7
100
AcDbLine
 10
34.16740319410265
 20
-23.27348063882054
 30
0.0
 11
35.71160212940177
 21
-24.81767957411965
 31
0.0
  0
LINE
  5
971
330
1F
100
AcDbEntity
  8
2
  6
CONTINUOUS
370
25
 62
7
100
AcDbLine
 10
34.69773327999256
 20
-23.37954665599852
 30
0.0
 11
36.06515551999504
 21
-24.74696889600099
 31
0.0
  0
LINE
  5
972
330
1F
100
AcDbEntity
  8
2
  6
CONTINUOUS
370
25
 62
7
100
AcDbLine
 10
35.22806336588248
 20
-23.4856126731765
 30
0.0
 11
36.41870891058831
 21
-24.67625821788234
 31
0.0
  0
LINE
  5
973
330
1F
100
AcDbEntity
  8
2
  6
CONTINUOUS
370
25
 62
7
100
AcDbLine
 10
35.75839345177238
 20
-23.59167869035448
 30
0.0
 11
36.77226230118159
 21
-24.60554753976368
 31
0.0
  0
LINE
  5
974
330
1F
100
AcDbEntity
  8
2
  6
CONTINUOUS
370
25
 62
7
100
AcDbLine
 10
36.28872353766229
 20
-23.69774470753246
 30
0.0
 11
37.12581569177486
 21
-24.53483686164503
 31
0.0
  0
LINE
  5
975
330
1F
100
AcDbEntity
  8
2
  6
CONTINUOUS
370
25
 62
7
100
AcDbLine
 10
36.81905362355221
 20
-23.80381072471044
 30
0.0
 11
37.47936908236814
 21
-24.46412618352637
 31
0.0
  0
LINE
  5
976
330
1F
100
AcDbEntity
  8
2
  6
CONTINUOUS
370
25
 62
7
100
AcDbLine
 10
37.34938370944212
 20
-23.90987674188843
 30
0.0
 11
37.83292247296141
 21
-24.39341550540772
 31
0.0
  0
LINE
  5
977
330
1F
100
AcDbEntity
  8
2
  6
CONTINUOUS
370
25
 62
7
100
AcDbLine
 10
37.87971379533203
 20
-24.01594275906641
 30
0.0
 11
38.18647586355468
 21
-24.32270482728907
 31
0.0
  0
LINE
  5
978
330
1F
100
AcDbEntity
  8
2
  6
CONTINUOUS
370
25
 62
7
100
AcDbLine
 10
38.41004388122194
 20
-24.12200877624439
 30
0.0
 11
38.54002925414795
 21
-24.25199414917041
 31
0.0
  0
LINE
  5
979
330
1F
100
AcDbEntity
  8
2
  6
CONTINUOUS
370
25
 62
7
100
AcDbLine
 10
50.0
 20
-24.2
 30
0.0
 11
55.0
 21
-23.2
 31
0.0
  0
LINE
  5
97A
330
1F
100
AcDbEntity
  8
2
  6
CONTINUOUS
370
25
 62
7
100
AcDbLine
 10
55.0
 20
-23.2
 30
0.0
 11
55.0
 21
-25.2
 31
0.0
  0
LINE
  5
97B
330
1F
100
AcDbEntity
  8
2
  6
CONTINUOUS
370
25
 62
7
100
AcDbLine
 10
55.0
 20
-25.2
 30
0.0
 11
50.0
 21
-24.2
 31
0.0
  0
LINE
  5
97C
330
1F
100
AcDbEntity
  8
2
  6
CONTINUOUS
370
25
 62
7
100
AcDbLine
 10
54.88069586650028
 20
-25.17613917330006
 30
0.0
 11
55.0
 21
-25.05683503980034
 31
0.0
  0
LINE
  5
97D
330
1F
100
AcDbEntity
  8
2
  6
CONTINUOUS
370
25
 62
7
100
AcDbLine
 10
54.52714247590701
 20
-25.1054284951814
 30
0.0
 11
55.0
 21
-24.63257097108842
 31
0.0
  0
LINE
  5
97E
330
1F
100
AcDbEntity
  8
2
  6
CONTINUOUS
370
25
 62
7
100
AcDbLine
 10
54.17358908531374
 20
-25.03471781706275
 30
0.0
 11
55.0
 21
-24.20830690237649
 31
0.0
  0
LINE
  5
97F
330
1F
100
AcDbEntity
  8
2
  6
CONTINUOUS
370
25
 62
7
100
AcDbLine
 10
53.82003569472046
 20
-24.96400713894409
 30
0.0
 11
55.0
 21
-23.78404283366456
 31
0.0
  0
LINE
  5
980
330
1F
100
AcDbEntity
  8
2
  6
CONTINUOUS
370
25
 62
7
100
AcDbLine
 10
53.46648230412719
 20
-24.89329646082544
 30
0.0
 11
55.0
 21
-23.35977876495263
 31
0.0
  0
LINE
  5
981
330
1F
100
AcDbEntity
  8
2
  6
CONTINUOUS
370
25
 62
7
100
AcDbLine
 10
53.11292891353392
 20
-24.82258578270678
 30
0.0
 11
54.66939337030087
 21
-23.26612132593983
 31
0.0
  0
LINE
  5
982
330
1F
100
AcDbEntity
  8
2
  6
CONTINUOUS
370
25
 62
7
100
AcDbLine
 10
52.75937552294064
 20
-24.75187510458813
 30
0.0
 11
54.13906328441097
 21
-23.37218734311781
 31
0.0
  0
LINE
  5
983
330
1F
100
AcDbEntity
  8
2
  6
CONTINUOUS
370
25
 62
7
100
AcDbLine
 10
52.40582213234737
 20
-24.68116442646948
 30
0.0
 11
53.60873319852105
 21
-23.47825336029579
 31
0.0
  0
LINE
  5
984
330
1F
100
AcDbEntity
  8
2
  6
CONTINUOUS
370
25
 62
7
100
AcDbLine
 10
52.0522687417541
 20
-24.61045374835082
 30
0.0
 11
53.07840311263114
 21
-23.58431937747378
 31
0.0
  0
LINE
  5
985
330
1F
100
AcDbEntity
  8
2
  6
CONTINUOUS
370
25
 62
7
100
AcDbLine
 10
51.69871535116083
 20
-24.53974307023217
 30
0.0
 11
52.54807302674124
 21
-23.69038539465176
 31
0.0
  0
LINE
  5
986
330
1F
100
AcDbEntity
  8
2
  6
CONTINUOUS
370
25
 62
7
100
AcDbLine
 10
51.34516196056755
 20
-24.46903239211351
 30
0.0
 11
52.01774294085132
 21
-23.79645141182974
 31
0.0
  0
LINE
  5
987
330
1F
100
AcDbEntity
  8
2
  6
CONTINUOUS
370
25
 62
7
100
AcDbLine
 10
50.99160856997428
 20
-24.39832171399486
 30
0.0
 11
51.48741285496142
 21
-23.90251742900772
 31
0.0
  0
LINE
  5
988
330
1F
100
AcDbEntity
  8
2
  6
CONTINUOUS
370
25
 62
7
100
AcDbLine
 10
50.63805517938101
 20
-24.3276110358762
 30
0.0
 11
50.9570827690715
 21
-24.0085834461857
 31
0.0
  0
LINE
  5
989
330
1F
100
AcDbEntity
  8
2
  6
CONTINUOUS
370
25
 62
7
100
AcDbLine
 10
50.28450178878774
 20
-24.25690035775755
 30
0.0
 11
50.4267526831816
 21
-24.11464946336368
 31
0.0
  0
LINE
  5
98A
330
1F
100
AcDbEntity
  8
2
  6
CONTINUOUS
370
25
 62
7
100
AcDbLine
 10
50.08257978174419
 20
-24.18348404365116
 30
0.0
 11
50.12386967261629
 21
-24.22477393452326
 31
0.0
  0
LINE
  5
98B
330
1F
100
AcDbEntity
  8
2
  6
CONTINUOUS
370
25
 62
7
100
AcDbLine
 10
50.43613317233746
 20
-24.11277336553251
 30
0.0
 11
50.65419975850619
 21
-24.33083995170124
 31
0.0
  0
LINE
  5
98C
330
1F
100
AcDbEntity
  8
2
  6
CONTINUOUS
370
25
 62
7
100
AcDbLine
 10
50.78968656293074
 20
-24.04206268741385
 30
0.0
 11
51.18452984439611
 21
-24.43690596887922
 31
0.0
  0
LINE
  5
98D
330
1F
100
AcDbEntity
  8
2
  6
CONTINUOUS
370
25
 62
7
100
AcDbLine
 10
51.14323995352401
 20
-23.9713520092952
 30
0.0
 11
51.71485993028602
 21
-24.5429719860572
 31
0.0
  0
LINE
  5
98E
330
1F
100
AcDbEntity
  8
2
  6
CONTINUOUS
370
25
 62
7
100
AcDbLine
 10
51.49679334411729
 20
-23.90064133117654
 30
0.0
 11
52.24519001617593
 21
-24.64903800323519
 31
0.0
  0
LINE
  5
98F
330
1F
100
AcDbEntity
  8
2
  6
CONTINUOUS
370
25
 62
7
100
AcDbLine
 10
51.85034673471056
 20
-23.82993065305789
 30
0.0
 11
52.77552010206584
 21
-24.75510402041317
 31
0.0
  0
LINE
  5
990
330
1F
100
AcDbEntity
  8
2
  6
CONTINUOUS
370
25
 62
7
100
AcDbLine
 10
52.20390012530383
 20
-23.75921997493924
 30
0.0
 11
53.30585018795575
 21
-24.86117003759115
 31
0.0
  0
LINE
  5
991
330
1F
100
AcDbEntity
  8
2
  6
CONTINUOUS
370
25
 62
7
100
AcDbLine
 10
52.55745351589711
 20
-23.68850929682058
 30
0.0
 11
53.83618027384566
 21
-24.96723605476913
 31
0.0
  0
LINE
  5
992
330
1F
100
AcDbEntity
  8
2
  6
CONTINUOUS
370
25
 62
7
100
AcDbLine
 10
52.91100690649038
 20
-23.61779861870193
 30
0.0
 11
54.36651035973557
 21
-25.07330207194711
 31
0.0
  0
LINE
  5
993
330
1F
100
AcDbEntity
  8
2
  6
CONTINUOUS
370
25
 62
7
100
AcDbLine
 10
53.26456029708365
 20
-23.54708794058327
 30
0.0
 11
54.89684044562548
 21
-25.1793680891251
 31
0.0
  0
LINE
  5
994
330
1F
100
AcDbEntity
  8
2
  6
CONTINUOUS
370
25
 62
7
100
AcDbLine
 10
53.61811368767692
 20
-23.47637726246462
 30
0.0
 11
55.0
 21
-24.85826357478769
 31
0.0
  0
LINE
  5
995
330
1F
100
AcDbEntity
  8
2
  6
CONTINUOUS
370
25
 62
7
100
AcDbLine
 10
53.9716670782702
 20
-23.40566658434596
 30
0.0
 11
55.0
 21
-24.43399950607576
 31
0.0
  0
LINE
  5
996
330
1F
100
AcDbEntity
  8
2
  6
CONTINUOUS
370
25
 62
7
100
AcDbLine
 10
54.32522046886347
 20
-23.33495590622731
 30
0.0
 11
55.0
 21
-24.00973543736383
 31
0.0
  0
LINE
  5
997
330
1F
100
AcDbEntity
  8
2
  6
CONTINUOUS
370
25
 62
7
100
AcDbLine
 10
54.67877385945674
 20
-23.26424522810865
 30
0.0
 11
55.0
 21
-23.58547136865191
 31
0.0
  0
TEXT
  5
998
330
1F
100
AcDbEntity
  8
2
  6
CONTINUOUS
370
25
 62
7
100
AcDbText
 10
57.86666666666666
 20
-22.7
 30
0.0
 40
3.5
  1
11.2
 72
     1
 11
61.95
 21
-22.7
 31
0.0
100
AcDbText
  0
LINE
  5
999
330
1F
100
AcDbEntity
  8
SK1
  6
CONTINUOUS
370
50
 62
4
100
AcDbLine
 10
35.9
 20
0.0
 30
0.0
 11
37.65
 21
0.0
 31
0.0
  0
LINE
  5
99A
330
1F
100
AcDbEntity
  8
SK1
  6
CONTINUOUS
370
50
 62
4
100
AcDbLine
 10
35.9
 20
0.0
 30
0.0
 11
35.9
 21
1.75
 31
0.0
  0
ARC
  5
99B
330
1F
100
AcDbEntity
  8
SK1
  6
CONTINUOUS
370
50
 62
4
100
AcDbCircle
 10
35.9
 20
0.0
 30
0.0
 40
1.75
100
AcDbArc
 50
0.0
 51
90.0
  0
LINE
  5
99C
330
1F
100
AcDbEntity
  8
SK1
  6
CONTINUOUS
370
50
 62
4
100
AcDbLine
 10
35.9
 20
0.0
 30
0.0
 11
34.15
 21
0.0
 31
0.0
  0
ARC
  5
99D
330
1F
100
AcDbEntity
  8
SK1
  6
CONTINUOUS
370
50
 62
4
100
AcDbCircle
 10
35.9
 20
0.0
 30
0.0
 40
1.75
100
AcDbArc
 50
180.0
 51
270.0
  0
LINE
  5
99E
330
1F
100
AcDbEntity
  8
SK1
  6
CONTINUOUS
370
50
 62
4
100
AcDbLine
 10
35.9
 20
-1.75
 30
0.0
 11
35.9
 21
0.0
 31
0.0
  0
ARC
  5
99F
330
1F
100
AcDbEntity
  8
SK1
  6
CONTINUOUS
370
50
 62
4
100
AcDbCircle
 10
35.9
 20
0.0
 30
0.0
 40
1.75
100
AcDbArc
 50
270.0
 51
0.0
  0
ARC
  5
9A0
330
1F
100
AcDbEntity
  8
SK1
  6
CONTINUOUS
370
50
 62
4
100
AcDbCircle
 10
35.9
 20
0.0
 30
0.0
 40
1.75
100
AcDbArc
 50
90.0
 51
180.0
  0
LINE
  5
9A1
330
1F
100
AcDbEntity
  8
SK1
  6
CONTINUOUS
370
50
 62
4
100
AcDbLine
 10
35.67717274741573
 20
-1.73564731720198
 30
0.0
 11
35.9
 21
-1.512820064617713
 31
0.0
  0
LINE
  5
9A2
330
1F
100
AcDbEntity
  8
SK1
  6
CONTINUOUS
370
50
 62
4
100
AcDbLine
 10
37.41282006461771
 20
0.0
 30
0.0
 11
37.63564731720198
 21
0.2228272525842674
 31
0.0
  0
LINE
  5
9A3
330
1F
100
AcDbEntity
  8
SK1
  6
CONTINUOUS
370
50
 62
4
100
AcDbLine
 10
35.46930380681873
 20
-1.69602888438369
 30
0.0
 11
35.9
 21
-1.265332691202421
 31
0.0
  0
LINE
  5
9A4
330
1F
100
AcDbEntity
  8
SK1
  6
CONTINUOUS
370
50
 62
4
100
AcDbLine
 10
37.16533269120242
 20
0.0
 30
0.0
 11
37.59602888438368
 21
0.4306961931812696
 31
0.0
  0
LINE
  5
9A5
330
1F
100
AcDbEntity
  8
SK1
  6
CONTINUOUS
370
50
 62
4
100
AcDbLine
 10
35.28148340435764
 20
-1.636361913429485
 30
0.0
 11
35.9
 21
-1.01784531778713
 31
0.0
  0
LINE
  5
9A6
330
1F
100
AcDbEntity
  8
SK1
  6
CONTINUOUS
370
50
 62
4
100
AcDbLine
 10
36.91784531778713
 20
0.0
 30
0.0
 11
37.53636191342948
 21
0.6185165956423557
 31
0.0
  0
LINE
  5
9A7
330
1F
100
AcDbEntity
  8
SK1
  6
CONTINUOUS
370
50
 62
4
100
AcDbLine
 10
35.1098551094628
 20
-1.560502834909039
 30
0.0
 11
35.9
 21
-0.7703579443718382
 31
0.0
  0
LINE
  5
9A8
330
1F
100
AcDbEntity
  8
SK1
  6
CONTINUOUS
370
50
 62
4
100
AcDbLine
 10
36.67035794437184
 20
0.0
 30
0.0
 11
37.46050283490904
 21
0.7901448905372013
 31
0.0
  0
LINE
  5
9A9
330
1F
100
AcDbEntity
  8
SK1
  6
CONTINUOUS
370
50
 62
4
100
AcDbLine
 10
34.95217783219447
 20
-1.470692738762079
 30
0.0
 11
35.9
 21
-0.5228705709565462
 31
0.0
  0
LINE
  5
9AA
330
1F
100
AcDbEntity
  8
SK1
  6
CONTINUOUS
370
50
 62
4
100
AcDbLine
 10
36.42287057095655
 20
0.0
 30
0.0
 11
37.37069273876207
 21
0.947822167805533
 31
0.0
  0
LINE
  5
9AB
330
1F
100
AcDbEntity
  8
SK1
  6
CONTINUOUS
370
50
 62
4
100
AcDbLine
 10
34.80842956711547
 20
-1.366953630425777
 30
0.0
 11
35.9
 21
-0.2753831975412551
 31
0.0
  0
LINE
  5
9AC
330
1F
100
AcDbEntity
  8
SK1
  6
CONTINUOUS
370
50
 62
4
100
AcDbLine
 10
36.17538319754125
 20
0.0
 30
0.0
 11
37.26695363042577
 21
1.091570432884522
 31
0.0
  0
LINE
  5
9AD
330
1F
100
AcDbEntity
  8
SK1
  6
CONTINUOUS
370
50
 62
4
100
AcDbLine
 10
34.67712164538165
 20
-1.25077417874432
 30
0.0
 11
35.9
 21
-0.0278958241259639
 31
0.0
  0
LINE
  5
9AE
330
1F
100
AcDbEntity
  8
SK1
  6
CONTINUOUS
370
50
 62
4
100
AcDbLine
 10
35.92789582412596
 20
0.0
 30
0.0
 11
37.15077417874432
 21
1.222878354618356
 31
0.0
  0
LINE
  5
9AF
330
1F
100
AcDbEntity
  8
SK1
  6
CONTINUOUS
370
50
 62
4
100
AcDbLine
 10
34.55784030371346
 20
-1.122568146997212
 30
0.0
 11
35.68040845071067
 21
0.0
 31
0.0
  0
LINE
  5
9B0
330
1F
100
AcDbEntity
  8
SK1
  6
CONTINUOUS
370
50
 62
4
100
AcDbLine
 10
35.9
 20
0.2195915492893277
 30
0.0
 11
37.02256814699721
 21
1.34215969628654
 31
0.0
  0
LINE
  5
9B1
330
1F
100
AcDbEntity
  8
SK1
  6
CONTINUOUS
370
50
 62
4
100
AcDbLine
 10
34.45188167231256
 20
-0.9810394049828186
 30
0.0
 11
35.43292107729538
 21
0.0
 31
0.0
  0
LINE
  5
9B2
330
1F
100
AcDbEntity
  8
SK1
  6
CONTINUOUS
370
50
 62
4
100
AcDbLine
 10
35.9
 20
0.4670789227046193
 30
0.0
 11
36.88103940498281
 21
1.448118327687438
 31
0.0
  0
LINE
  5
9B3
330
1F
100
AcDbEntity
  8
SK1
  6
CONTINUOUS
370
50
 62
4
100
AcDbLine
 10
34.35832908651575
 20
-0.8271046173643402
 30
0.0
 11
35.18543370388009
 21
0.0
 31
0.0
  0
LINE
  5
9B4
330
1F
100
AcDbEntity
  8
SK1
  6
CONTINUOUS
370
50
 62
4
100
AcDbLine
 10
35.9
 20
0.71456629611991
 30
0.0
 11
36.72710461736434
 21
1.54167091348425
 31
0.0
  0
LINE
  5
9B5
330
1F
100
AcDbEntity
  8
SK1
  6
CONTINUOUS
370
50
 62
4
100
AcDbLine
 10
34.27918473824204
 20
-0.6587615922227528
 30
0.0
 11
34.9379463304648
 21
0.0
 31
0.0
  0
LINE
  5
9B6
330
1F
100
AcDbEntity
  8
SK1
  6
CONTINUOUS
370
50
 62
4
100
AcDbLine
 10
35.9
 20
0.9620536695352015
 30
0.0
 11
36.55876159222275
 21
1.620815261757954
 31
0.0
  0
LINE
  5
9B7
330
1F
100
AcDbEntity
  8
SK1
  6
CONTINUOUS
370
50
 62
4
100
AcDbLine
 10
34.21629687706963
 20
-0.474162079979876
 30
0.0
 11
34.69045895704951
 21
0.0
 31
0.0
  0
LINE
  5
9B8
330
1F
100
AcDbEntity
  8
SK1
  6
CONTINUOUS
370
50
 62
4
100
AcDbLine
 10
35.9
 20
1.209541042950494
 30
0.0
 11
36.37416207997988
 21
1.683703122930369
 31
0.0
  0
LINE
  5
9B9
330
1F
100
AcDbEntity
  8
SK1
  6
CONTINUOUS
370
50
 62
4
100
AcDbLine
 10
34.17198100434271
 20
-0.2709905792915031
 30
0.0
 11
34.44297158363422
 21
0.0
 31
0.0
  0
LINE
  5
9BA
330
1F
100
AcDbEntity
  8
SK1
  6
CONTINUOUS
370
50
 62
4
100
AcDbLine
 10
35.9
 20
1.457028416365784
 30
0.0
 11
36.1709905792915
 21
1.728018995657286
 31
0.0
  0
LINE
  5
9BB
330
1F
100
AcDbEntity
  8
SK1
  6
CONTINUOUS
370
50
 62
4
100
AcDbLine
 10
34.1513858468978
 20
-0.0440983633211194
 30
0.0
 11
34.19548421021892
 21
0.0
 31
0.0
  0
LINE
  5
9BC
330
1F
100
AcDbEntity
  8
SK1
  6
CONTINUOUS
370
50
 62
4
100
AcDbLine
 10
35.9
 20
1.704515789781075
 30
0.0
 11
35.94409836332112
 21
1.748614153102194
 31
0.0
  0
LINE
  5
9BD
330
1F
100
AcDbEntity
  8
SK1
  6
CONTINUOUS
370
50
 62
4
100
AcDbLine
 10
34.26386517603682
 20
-0.6191473609004006
 30
0.0
 11
35.2808526390996
 21
-1.636134823963186
 31
0.0
  0
LINE
  5
9BE
330
1F
100
AcDbEntity
  8
SK1
  6
CONTINUOUS
370
50
 62
4
100
AcDbLine
 10
34.17363430643545
 20
-0.2814291178837463
 30
0.0
 11
35.61857088211625
 21
-1.726365693564548
 31
0.0
  0
LINE
  5
9BF
330
1F
100
AcDbEntity
  8
SK1
  6
CONTINUOUS
370
50
 62
4
100
AcDbLine
 10
34.1503344343115
 20
-0.0106418723445003
 30
0.0
 11
35.8893581276555
 21
-1.749665565688503
 31
0.0
  0
LINE
  5
9C0
330
1F
100
AcDbEntity
  8
SK1
  6
CONTINUOUS
370
50
 62
4
100
AcDbLine
 10
34.38717993538229
 20
0.0
 30
0.0
 11
35.9
 21
-1.51282006461771
 31
0.0
  0
LINE
  5
9C1
330
1F
100
AcDbEntity
  8
SK1
  6
CONTINUOUS
370
50
 62
4
100
AcDbLine
 10
34.63466730879758
 20
0.0
 30
0.0
 11
35.9
 21
-1.265332691202418
 31
0.0
  0
LINE
  5
9C2
330
1F
100
AcDbEntity
  8
SK1
  6
CONTINUOUS
370
50
 62
4
100
AcDbLine
 10
34.88215468221287
 20
0.0
 30
0.0
 11
35.9
 21
-1.017845317787128
 31
0.0
  0
LINE
  5
9C3
330
1F
100
AcDbEntity
  8
SK1
  6
CONTINUOUS
370
50
 62
4
100
AcDbLine
 10
35.12964205562816
 20
0.0
 30
0.0
 11
35.9
 21
-0.7703579443718369
 31
0.0
  0
LINE
  5
9C4
330
1F
100
AcDbEntity
  8
SK1
  6
CONTINUOUS
370
50
 62
4
100
AcDbLine
 10
35.37712942904345
 20
0.0
 30
0.0
 11
35.9
 21
-0.5228705709565453
 31
0.0
  0
LINE
  5
9C5
330
1F
100
AcDbEntity
  8
SK1
  6
CONTINUOUS
370
50
 62
4
100
AcDbLine
 10
35.62461680245875
 20
0.0
 30
0.0
 11
35.9
 21
-0.2753831975412537
 31
0.0
  0
LINE
  5
9C6
330
1F
100
AcDbEntity
  8
SK1
  6
CONTINUOUS
370
50
 62
4
100
AcDbLine
 10
35.87210417587404
 20
0.0
 30
0.0
 11
35.9
 21
-0.027895824125963
 31
0.0
  0
LINE
  5
9C7
330
1F
100
AcDbEntity
  8
SK1
  6
CONTINUOUS
370
50
 62
4
100
AcDbLine
 10
35.9
 20
0.219591549289329
 30
0.0
 11
36.11959154928932
 21
0.0
 31
0.0
  0
LINE
  5
9C8
330
1F
100
AcDbEntity
  8
SK1
  6
CONTINUOUS
370
50
 62
4
100
AcDbLine
 10
35.9
 20
0.4670789227046202
 30
0.0
 11
36.36707892270462
 21
0.0
 31
0.0
  0
LINE
  5
9C9
330
1F
100
AcDbEntity
  8
SK1
  6
CONTINUOUS
370
50
 62
4
100
AcDbLine
 10
35.9
 20
0.7145662961199113
 30
0.0
 11
36.61456629611991
 21
0.0
 31
0.0
  0
LINE
  5
9CA
330
1F
100
AcDbEntity
  8
SK1
  6
CONTINUOUS
370
50
 62
4
100
AcDbLine
 10
35.9
 20
0.9620536695352029
 30
0.0
 11
36.8620536695352
 21
0.0
 31
0.0
  0
LINE
  5
9CB
330
1F
100
AcDbEntity
  8
SK1
  6
CONTINUOUS
370
50
 62
4
100
AcDbLine
 10
35.9
 20
1.209541042950494
 30
0.0
 11
37.1095410429505
 21
0.0
 31
0.0
  0
LINE
  5
9CC
330
1F
100
AcDbEntity
  8
SK1
  6
CONTINUOUS
370
50
 62
4
100
AcDbLine
 10
35.9
 20
1.457028416365785
 30
0.0
 11
37.35702841636579
 21
0.0
 31
0.0
  0
LINE
  5
9CD
330
1F
100
AcDbEntity
  8
SK1
  6
CONTINUOUS
370
50
 62
4
100
AcDbLine
 10
35.9
 20
1.704515789781076
 30
0.0
 11
37.60451578978108
 21
0.0
 31
0.0
  0
LINE
  5
9CE
330
1F
100
AcDbEntity
  8
SK1
  6
CONTINUOUS
370
50
 62
4
100
AcDbLine
 10
36.11543384193567
 20
1.736569321260697
 30
0.0
 11
37.63656932126069
 21
0.2154338419356714
 31
0.0
  0
LINE
  5
9CF
330
1F
100
AcDbEntity
  8
SK1
  6
CONTINUOUS
370
50
 62
4
100
AcDbLine
 10
36.43283284728993
 20
1.666657689321729
 30
0.0
 11
37.56665768932173
 21
0.5328328472899322
 31
0.0
  0
LINE
  5
9D0
330
1F
100
AcDbEntity
  8
SK1
  6
CONTINUOUS
370
50
 62
4
100
AcDbLine
 10
36.94009874905674
 20
1.406879160970207
 30
0.0
 11
37.3068791609702
 21
1.040098749056747
 31
0.0
  0
LINE
  5
9D1
330
1F
100
AcDbEntity
  8
4
  6
LONGDASH_DASH
370
25
 62
2
100
AcDbLine
 10
35.9
 20
0.0
 30
0.0
 11
50.0
 21
0.0
 31
0.0
  0
LINE
  5
9D2
330
1F
100
AcDbEntity
  8
SK4
  6
LONGDASH_DASH
370
25
 62
2
100
AcDbLine
 10
-6.0
 20
0.0
 30
0.0
 11
56.0
 21
0.0
 31
0.0
  0
ARC
  5
9D3
330
1F
100
AcDbEntity
  8
SK6
  6
CONTINUOUS
370
25
 62
5
100
AcDbCircle
 10
74.4613820083765
 20
-27.84524575338786
 30
0.0
 40
2.76048912849221
100
AcDbArc
 50
338.9379403434233
 51
90.44457437511365
  0
LINE
  5
9D4
330
1F
100
AcDbEntity
  8
SK6
  6
CONTINUOUS
370
25
 62
5
100
AcDbLine
 10
74.43996279695983
 20
-25.08483972421281
 30
0.0
 11
74.43996279695983
 21
-26.18789835613464
 31
0.0
  0
ARC
  5
9D5
330
1F
100
AcDbEntity
  8
SK6
  6
CONTINUOUS
370
25
 62
5
100
AcDbCircle
 10
74.45050902936916
 20
-27.86523924566821
 30
0.0
 40
1.677374043771779
100
AcDbArc
 50
243.4214706017868
 51
90.36024081226083
  0
ARC
  5
9D6
330
1F
100
AcDbEntity
  8
SK6
  6
CONTINUOUS
370
25
 62
5
100
AcDbCircle
 10
76.97275989684958
 20
-27.43383199215561
 30
0.0
 40
3.80021703002276
100
AcDbArc
 50
210.5483731288539
 51
236.97801693668
  0
LINE
  5
9D7
330
1F
100
AcDbEntity
  8
SK6
  6
CONTINUOUS
370
25
 62
5
100
AcDbLine
 10
74.90179068512487
 20
-30.62016781867535
 30
0.0
 11
79.04373096742671
 21
-30.62016781867535
 31
0.0
  0
ARC
  5
9D8
330
1F
100
AcDbEntity
  8
SK6
  6
CONTINUOUS
370
25
 62
5
100
AcDbCircle
 10
76.97276183877257
 20
-27.4338320937346
 30
0.0
 40
3.800216899582472
100
AcDbArc
 50
303.0219828477959
 51
326.3732153033476
  0
LINE
  5
9D9
330
1F
100
AcDbEntity
  8
SK6
  6
CONTINUOUS
370
25
 62
5
100
AcDbLine
 10
80.13705975135723
 20
-29.5383194907709
 30
0.0
 11
76.77976170575462
 21
-29.5383194907709
 31
0.0
  0
LINE
  5
9DA
330
1F
100
AcDbEntity
  8
SK6
  6
CONTINUOUS
370
25
 62
5
100
AcDbLine
 10
76.77976170575462
 20
-29.5383194907709
 30
0.0
 11
80.69962109771987
 21
-28.17691829641694
 31
0.0
  0
ARC
  5
9DB
330
1F
100
AcDbEntity
  8
SK6
  6
CONTINUOUS
370
25
 62
5
100
AcDbCircle
 10
76.97276256157211
 20
-27.4338326048594
 30
0.0
 40
3.800217216614723
100
AcDbArc
 50
348.7238644184696
 51
53.4691051260885
  0
LINE
  5
9DC
330
1F
100
AcDbEntity
  8
SK6
  6
CONTINUOUS
370
25
 62
5
100
AcDbLine
 10
79.23486524538545
 20
-24.38022124429967
 30
0.0
 11
77.03745047882737
 21
-28.83730973507058
 31
0.0
  0
ENDSEC
  0
SECTION
  2
OBJECTS
  0
DICTIONARY
  5
C
330
0
100
AcDbDictionary
281
     1
  3
ACAD_GROUP
350
D
  3
ACAD_LAYOUT
350
1A
  3
ACAD_MATERIAL
350
3B
  3
ACAD_MLEADERSTYLE
350
9DF
  3
ACAD_MLINESTYLE
350
17
  3
ACAD_PLOTSETTINGS
350
19
  3
ACAD_PLOTSTYLENAME
350
E
  3
ACAD_SCALELIST
350
329
  3
ACAD_VISUALSTYLE
350
2A
  3
AcDbVariableDictionary
350
9DD
  0
DICTIONARY
  5
D
102
{ACAD_REACTORS
330
C
102
}
330
C
100
AcDbDictionary
281
     1
  0
DICTIONARY
  5
1A
102
{ACAD_REACTORS
330
C
102
}
330
C
100
AcDbDictionary
281
     1
  3
Layout1
350
1E
  3
Layout2
350
26
  3
Model
350
22
  0
DICTIONARY
  5
3B
102
{ACAD_REACTORS
330
C
102
}
330
C
100
AcDbDictionary
281
     1
  3
ByBlock
350
3D
  3
ByLayer
350
3C
  3
Global
350
3E
  0
DICTIONARY
  5
9DF
102
{ACAD_REACTORS
330
C
102
}
330
C
100
AcDbDictionary
281
     1
  0
DICTIONARY
  5
17
102
{ACAD_REACTORS
330
C
102
}
330
C
100
AcDbDictionary
281
     1
  3
Standard
350
18
  0
DICTIONARY
  5
19
102
{ACAD_REACTORS
330
C
102
}
330
C
100
AcDbDictionary
281
     1
  0
ACDBDICTIONARYWDFLT
  5
E
102
{ACAD_REACTORS
330
C
102
}
330
C
100
AcDbDictionary
281
     1
  3
Normal
350
F
100
AcDbDictionaryWithDefault
340
F
  0
DICTIONARY
  5
329
102
{ACAD_REACTORS
330
C
102
}
330
C
100
AcDbDictionary
281
     1
  3
A0
350
32A
  3
A1
350
32B
  3
A2
350
32C
  3
A3
350
32D
  3
A4
350
32E
  3
A5
350
32F
  3
A6
350
330
  3
A7
350
331
  3
A8
350
332
  3
A9
350
333
  3
B0
350
334
  3
B1
350
335
  3
B2
350
336
  3
B3
350
337
  3
B4
350
338
  3
B5
350
339
  3
B6
350
33A
  3
B7
350
33B
  3
B8
350
33C
  3
B9
350
33D
  3
C0
350
33E
  3
C1
350
33F
  3
C2
350
340
  3
C3
350
341
  3
C4
350
342
  3
C5
350
343
  3
C6
350
344
  3
C7
350
345
  3
C8
350
346
  3
C9
350
347
  3
D0
350
348
  3
D1
350
349
  3
D2
350
34A
  0
DICTIONARY
  5
2A
102
{ACAD_REACTORS
330
C
102
}
330
C
100
AcDbDictionary
281
     1
  3
2dWireframe
350
2F
  3
3D Hidden
350
31
  3
3dWireframe
350
30
  3
Basic
350
32
  3
Brighten
350
36
  3
ColorChange
350
3A
  3
Conceptual
350
34
  3
Dim
350
35
  3
Facepattern
350
39
  3
Flat
350
2B
  3
FlatWithEdges
350
2C
  3
Gouraud
350
2D
  3
GouraudWithEdges
350
2E
  3
Linepattern
350
38
  3
Realistic
350
33
  3
Thicken
350
37
  0
DICTIONARY
  5
9DD
102
{ACAD_REACTORS
330
C
102
}
330
C
100
AcDbDictionary
281
     1
  3
CANNOSCALE
350
9E2
  3
DIMASSOC
350
9E3
  3
HIDETEXT
350
9E4
  3
PSOLHEIGHT
350
9E1
  3
PSOLWIDTH
350
9E0
  0
LAYOUT
  5
1E
102
{ACAD_REACTORS
330
1A
102
}
330
1A
100
AcDbPlotSettings
  1

  2
none_device
  4

  6

 40
0.0
 41
0.0
 42
0.0
 43
0.0
 44
0.0
 45
0.0
 46
0.0
 47
0.0
 48
0.0
 49
0.0
140
0.0
141
0.0
142
1.0
143
1.0
 70
   688
 72
     0
 73
     0
 74
     5
  7

 75
    16
147
1.0
148
0.0
149
0.0
100
AcDbLayout
  1
Layout1
 70
     1
 71
     1
 10
0.0
 20
0.0
 11
420.0
 21
297.0
 12
0.0
 22
0.0
 32
0.0
 14
1.000000000000000E+20
 24
1.000000000000000E+20
 34
1.000000000000000E+20
 15
-1.000000000000000E+20
 25
-1.000000000000000E+20
 35
-1.000000000000000E+20
146
0.0
 13
0.0
 23
0.0
 33
0.0
 16
1.0
 26
0.0
 36
0.0
 17
0.0
 27
1.0
 37
0.0
 76
     0
330
1B
  0
LAYOUT
  5
26
102
{ACAD_REACTORS
330
1A
102
}
330
1A
100
AcDbPlotSettings
  1

  2
none_device
  4

  6

 40
0.0
 41
0.0
 42
0.0
 43
0.0
 44
0.0
 45
0.0
 46
0.0
 47
0.0
 48
0.0
 49
0.0
140
0.0
141
0.0
142
1.0
143
1.0
 70
   688
 72
     0
 73
     0
 74
     5
  7

 75
    16
147
1.0
148
0.0
149
0.0
100
AcDbLayout
  1
Layout2
 70
     1
 71
     2
 10
0.0
 20
0.0
 11
0.0
 21
0.0
 12
0.0
 22
0.0
 32
0.0
 14
0.0
 24
0.0
 34
0.0
 15
0.0
 25
0.0
 35
0.0
146
0.0
 13
0.0
 23
0.0
 33
0.0
 16
1.0
 26
0.0
 36
0.0
 17
0.0
 27
1.0
 37
0.0
 76
     0
330
23
  0
LAYOUT
  5
22
102
{ACAD_REACTORS
330
1A
102
}
330
1A
100
AcDbPlotSettings
  1

  2
none_device
  4

  6

 40
0.0
 41
0.0
 42
0.0
 43
0.0
 44
0.0
 45
0.0
 46
0.0
 47
0.0
 48
0.0
 49
0.0
140
0.0
141
0.0
142
1.0
143
1.0
 70
  1712
 72
     0
 73
     0
 74
     0
  7

 75
     0
147
1.0
148
0.0
149
0.0
100
AcDbLayout
  1
Model
 70
     1
 71
     0
 10
0.0
 20
0.0
 11
420.0
 21
297.0
 12
0.0
 22
0.0
 32
0.0
 14
0.0
 24
0.0
 34
0.0
 15
25.0
 25
35.0
 35
0.0
146
0.0
 13
0.0
 23
0.0
 33
0.0
 16
1.0
 26
0.0
 36
0.0
 17
0.0
 27
1.0
 37
0.0
 76
     0
330
1F
331
29
  0
MATERIAL
  5
3D
102
{ACAD_REACTORS
330
3B
102
}
102
{ACAD_XDICTIONARY
360
A07
102
}
330
3B
100
AcDbMaterial
  1
ByBlock
  0
MATERIAL
  5
3C
102
{ACAD_REACTORS
330
3B
102
}
102
{ACAD_XDICTIONARY
360
A05
102
}
330
3B
100
AcDbMaterial
  1
ByLayer
  0
MATERIAL
  5
3E
102
{ACAD_REACTORS
330
3B
102
}
102
{ACAD_XDICTIONARY
360
A09
102
}
330
3B
100
AcDbMaterial
  1
Global
  0
MLINESTYLE
  5
18
102
{ACAD_REACTORS
330
17
102
}
330
17
100
AcDbMlineStyle
  2
Standard
 70
     0
  3

 62
   256
 51
90.0
 52
90.0
 71
     2
 49
0.5
 62
   256
  6
BYLAYER
 49
-0.5
 62
   256
  6
BYLAYER
  0
ACDBPLACEHOLDER
  5
F
102
{ACAD_REACTORS
330
E
102
}
330
E
  0
SCALE
  5
32A
102
{ACAD_REACTORS
330
329
102
}
330
329
100
AcDbScale
 70
     0
300
1:1
140
1.0
141
1.0
290
     1
  0
SCALE
  5
32B
102
{ACAD_REACTORS
330
329
102
}
330
329
100
AcDbScale
 70
     0
300
1:2
140
1.0
141
2.0
290
     0
  0
SCALE
  5
32C
102
{ACAD_REACTORS
330
329
102
}
330
329
100
AcDbScale
 70
     0
300
1:4
140
1.0
141
4.0
290
     0
  0
SCALE
  5
32D
102
{ACAD_REACTORS
330
329
102
}
330
329
100
AcDbScale
 70
     0
300
1:5
140
1.0
141
5.0
290
     0
  0
SCALE
  5
32E
102
{ACAD_REACTORS
330
329
102
}
330
329
100
AcDbScale
 70
     0
300
1:8
140
1.0
141
8.0
290
     0
  0
SCALE
  5
32F
102
{ACAD_REACTORS
330
329
102
}
330
329
100
AcDbScale
 70
     0
300
1:10
140
1.0
141
10.0
290
     0
  0
SCALE
  5
330
102
{ACAD_REACTORS
330
329
102
}
330
329
100
AcDbScale
 70
     0
300
1:16
140
1.0
141
16.0
290
     0
  0
SCALE
  5
331
102
{ACAD_REACTORS
330
329
102
}
330
329
100
AcDbScale
 70
     0
300
1:20
140
1.0
141
20.0
290
     0
  0
SCALE
  5
332
102
{ACAD_REACTORS
330
329
102
}
330
329
100
AcDbScale
 70
     0
300
1:30
140
1.0
141
30.0
290
     0
  0
SCALE
  5
333
102
{ACAD_REACTORS
330
329
102
}
330
329
100
AcDbScale
 70
     0
300
1:40
140
1.0
141
40.0
290
     0
  0
SCALE
  5
334
102
{ACAD_REACTORS
330
329
102
}
330
329
100
AcDbScale
 70
     0
300
1:50
140
1.0
141
50.0
290
     0
  0
SCALE
  5
335
102
{ACAD_REACTORS
330
329
102
}
330
329
100
AcDbScale
 70
     0
300
1:100
140
1.0
141
100.0
290
     0
  0
SCALE
  5
336
102
{ACAD_REACTORS
330
329
102
}
330
329
100
AcDbScale
 70
     0
300
2:1
140
2.0
141
1.0
290
     0
  0
SCALE
  5
337
102
{ACAD_REACTORS
330
329
102
}
330
329
100
AcDbScale
 70
     0
300
4:1
140
4.0
141
1.0
290
     0
  0
SCALE
  5
338
102
{ACAD_REACTORS
330
329
102
}
330
329
100
AcDbScale
 70
     0
300
8:1
140
8.0
141
1.0
290
     0
  0
SCALE
  5
339
102
{ACAD_REACTORS
330
329
102
}
330
329
100
AcDbScale
 70
     0
300
10:1
140
10.0
141
1.0
290
     0
  0
SCALE
  5
33A
102
{ACAD_REACTORS
330
329
102
}
330
329
100
AcDbScale
 70
     0
300
100:1
140
100.0
141
1.0
290
     0
  0
SCALE
  5
33B
102
{ACAD_REACTORS
330
329
102
}
330
329
100
AcDbScale
 70
     0
300
1/128" = 1'-0"
140
0.0078125
141
12.0
290
     0
  0
SCALE
  5
33C
102
{ACAD_REACTORS
330
329
102
}
330
329
100
AcDbScale
 70
     0
300
1/64" = 1'-0"
140
0.015625
141
12.0
290
     0
  0
SCALE
  5
33D
102
{ACAD_REACTORS
330
329
102
}
330
329
100
AcDbScale
 70
     0
300
1/32" = 1'-0"
140
0.03125
141
12.0
290
     0
  0
SCALE
  5
33E
102
{ACAD_REACTORS
330
329
102
}
330
329
100
AcDbScale
 70
     0
300
1/16" = 1'-0"
140
0.0625
141
12.0
290
     0
  0
SCALE
  5
33F
102
{ACAD_REACTORS
330
329
102
}
330
329
100
AcDbScale
 70
     0
300
3/32" = 1'-0"
140
0.09375
141
12.0
290
     0
  0
SCALE
  5
340
102
{ACAD_REACTORS
330
329
102
}
330
329
100
AcDbScale
 70
     0
300
1/8" = 1'-0"
140
0.125
141
12.0
290
     0
  0
SCALE
  5
341
102
{ACAD_REACTORS
330
329
102
}
330
329
100
AcDbScale
 70
     0
300
3/16" = 1'-0"
140
0.1875
141
12.0
290
     0
  0
SCALE
  5
342
102
{ACAD_REACTORS
330
329
102
}
330
329
100
AcDbScale
 70
     0
300
1/4" = 1'-0"
140
0.25
141
12.0
290
     0
  0
SCALE
  5
343
102
{ACAD_REACTORS
330
329
102
}
330
329
100
AcDbScale
 70
     0
300
3/8" = 1'-0"
140
0.375
141
12.0
290
     0
  0
SCALE
  5
344
102
{ACAD_REACTORS
330
329
102
}
330
329
100
AcDbScale
 70
     0
300
1/2" = 1'-0"
140
0.5
141
12.0
290
     0
  0
SCALE
  5
345
102
{ACAD_REACTORS
330
329
102
}
330
329
100
AcDbScale
 70
     0
300
3/4" = 1'-0"
140
0.75
141
12.0
290
     0
  0
SCALE
  5
346
102
{ACAD_REACTORS
330
329
102
}
330
329
100
AcDbScale
 70
     0
300
1" = 1'-0"
140
1.0
141
12.0
290
     0
  0
SCALE
  5
347
102
{ACAD_REACTORS
330
329
102
}
330
329
100
AcDbScale
 70
     0
300
1-1/2" = 1'-0"
140
1.5
141
12.0
290
     0
  0
SCALE
  5
348
102
{ACAD_REACTORS
330
329
102
}
330
329
100
AcDbScale
 70
     0
300
3" = 1'-0"
140
3.0
141
12.0
290
     0
  0
SCALE
  5
349
102
{ACAD_REACTORS
330
329
102
}
330
329
100
AcDbScale
 70
     0
300
6" = 1'-0"
140
6.0
141
12.0
290
     0
  0
SCALE
  5
34A
102
{ACAD_REACTORS
330
329
102
}
330
329
100
AcDbScale
 70
     0
300
1'-0" = 1'-0"
140
12.0
141
12.0
290
     0
  0
VISUALSTYLE
  5
2F
102
{ACAD_REACTORS
330
2A
102
}
102
{ACAD_XDICTIONARY
360
9ED
102
}
330
2A
100
AcDbVisualStyle
  2
2dWireframe
 70
     4
 71
     0
 72
     2
 73
     0
 90
        0
 40
-0.6
 41
-30.0
 62
     5
 63
     7
 74
     1
 91
        4
 64
     7
 65
   257
 75
     1
175
     1
 42
1.0
 92
        0
 66
   257
 43
1.0
 76
     1
 77
     6
 78
     2
 67
     7
 79
     5
170
     0
171
     0
290
     0
174
     0
 93
        1
 44
0.0
173
     0
291
     0
 45
0.0
1001
ACAD
1000
AcDbSavedByObjectVersion
1070
     0
  0
VISUALSTYLE
  5
31
102
{ACAD_REACTORS
330
2A
102
}
102
{ACAD_XDICTIONARY
360
9F1
102
}
330
2A
100
AcDbVisualStyle
  2
3D Hidden
 70
     6
 71
     1
 72
     2
 73
     2
 90
        0
 40
-0.6
 41
-30.0
 62
     5
 63
     7
 74
     2
 91
        2
 64
     7
 65
   257
 75
     2
175
     1
 42
40.0
 92
        0
 66
   257
 43
1.0
 76
     1
 77
     6
 78
     2
 67
     7
 79
     3
170
     0
171
     0
290
     0
174
     0
 93
        1
 44
0.0
173
     0
291
     0
 45
0.0
1001
ACAD
1000
AcDbSavedByObjectVersion
1070
     0
  0
VISUALSTYLE
  5
30
102
{ACAD_REACTORS
330
2A
102
}
102
{ACAD_XDICTIONARY
360
9EF
102
}
330
2A
100
AcDbVisualStyle
  2
3dWireframe
 70
     5
 71
     0
 72
     2
 73
     0
 90
        0
 40
-0.6
 41
-30.0
 62
     5
 63
     7
 74
     1
 91
        4
 64
     7
 65
   257
 75
     1
175
     1
 42
1.0
 92
        0
 66
   257
 43
1.0
 76
     1
 77
     6
 78
     2
 67
     7
 79
     5
170
     0
171
     0
290
     0
174
     0
 93
        1
 44
0.0
173
     0
291
     0
 45
0.0
1001
ACAD
1000
AcDbSavedByObjectVersion
1070
     0
  0
VISUALSTYLE
  5
32
102
{ACAD_REACTORS
330
2A
102
}
102
{ACAD_XDICTIONARY
360
9F3
102
}
330
2A
100
AcDbVisualStyle
  2
Basic
 70
     7
 71
     1
 72
     0
 73
     1
 90
        0
 40
-0.6
 41
-30.0
 62
     5
 63
     7
 74
     0
 91
        4
 64
     7
 65
   257
 75
     1
175
     1
 42
1.0
 92
        8
 66
     7
 43
1.0
 76
     1
 77
     6
 78
     2
 67
     7
 79
     5
170
     0
171
     0
290
     0
174
     0
 93
        1
 44
0.0
173
     0
291
     1
 45
0.0
1001
ACAD
1000
AcDbSavedByObjectVersion
1070
     0
  0
VISUALSTYLE
  5
36
102
{ACAD_REACTORS
330
2A
102
}
102
{ACAD_XDICTIONARY
360
9FB
102
}
330
2A
100
AcDbVisualStyle
  2
Brighten
 70
    12
 71
     2
 72
     2
 73
     0
 90
        0
 40
-0.6
 41
-30.0
 62
     5
 63
     7
 74
     1
 91
        4
 64
     7
 65
   257
 75
     1
175
     1
 42
1.0
 92
        8
 66
     7
 43
1.0
 76
     1
 77
     6
 78
     2
 67
     7
 79
     5
170
     0
171
     0
290
     0
174
     0
 93
        1
 44
50.0
173
     0
291
     1
 45
0.0
1001
ACAD
1000
AcDbSavedByObjectVersion
1070
     0
  0
VISUALSTYLE
  5
3A
102
{ACAD_REACTORS
330
2A
102
}
102
{ACAD_XDICTIONARY
360
A03
102
}
330
2A
100
AcDbVisualStyle
  2
ColorChange
 70
    16
 71
     2
 72
     2
 73
     3
 90
        0
 40
-0.6
 41
-30.0
 62
     5
 63
     8
 74
     1
 91
        4
 64
     7
 65
   257
 75
     1
175
     1
 42
1.0
 92
        8
 66
     8
 43
1.0
 76
     1
 77
     6
 78
     2
 67
     7
 79
     5
170
     0
171
     0
290
     0
174
     0
 93
        1
 44
0.0
173
     0
291
     1
 45
0.0
1001
ACAD
1000
AcDbSavedByObjectVersion
1070
     0
  0
VISUALSTYLE
  5
34
102
{ACAD_REACTORS
330
2A
102
}
102
{ACAD_XDICTIONARY
360
9F7
102
}
330
2A
100
AcDbVisualStyle
  2
Conceptual
 70
     9
 71
     3
 72
     2
 73
     0
 90
        0
 40
-0.6
 41
-30.0
 62
     5
 63
     7
 74
     2
 91
        2
 64
     7
 65
   257
 75
     1
175
     1
 42
40.0
 92
        8
 66
     7
 43
1.0
 76
     1
 77
     6
 78
     2
 67
     7
 79
     3
170
     0
171
     0
290
     0
174
     0
 93
        1
 44
0.0
173
     0
291
     0
 45
0.0
1001
ACAD
1000
AcDbSavedByObjectVersion
1070
     0
  0
VISUALSTYLE
  5
35
102
{ACAD_REACTORS
330
2A
102
}
102
{ACAD_XDICTIONARY
360
9F9
102
}
330
2A
100
AcDbVisualStyle
  2
Dim
 70
    11
 71
     2
 72
     2
 73
     0
 90
        0
 40
-0.6
 41
-30.0
 62
     5
 63
     7
 74
     1
 91
        4
 64
     7
 65
   257
 75
     1
175
     1
 42
1.0
 92
        8
 66
     7
 43
1.0
 76
     1
 77
     6
 78
     2
 67
     7
 79
     5
170
     0
171
     0
290
     0
174
     0
 93
        1
 44
-50.0
173
     0
291
     1
 45
0.0
1001
ACAD
1000
AcDbSavedByObjectVersion
1070
     0
  0
VISUALSTYLE
  5
39
102
{ACAD_REACTORS
330
2A
102
}
102
{ACAD_XDICTIONARY
360
A01
102
}
330
2A
100
AcDbVisualStyle
  2
Facepattern
 70
    15
 71
     2
 72
     2
 73
     0
 90
        0
 40
-0.6
 41
-30.0
 62
     5
 63
     7
 74
     1
 91
        4
 64
     7
 65
   257
 75
     1
175
     1
 42
1.0
 92
        8
 66
     7
 43
1.0
 76
     1
 77
     6
 78
     2
 67
     7
 79
     5
170
     0
171
     0
290
     0
174
     0
 93
        1
 44
0.0
173
     0
291
     1
 45
0.0
1001
ACAD
1000
AcDbSavedByObjectVersion
1070
     0
  0
VISUALSTYLE
  5
2B
102
{ACAD_REACTORS
330
2A
102
}
102
{ACAD_XDICTIONARY
360
9E5
102
}
330
2A
100
AcDbVisualStyle
  2
Flat
 70
     0
 71
     2
 72
     1
 73
     1
 90
        2
 40
-0.6
 41
30.0
 62
     5
 63
     7
 74
     0
 91
        4
 64
     7
 65
   257
 75
     1
175
     1
 42
1.0
 92
        8
 66
     7
 43
1.0
 76
     1
 77
     6
 78
     2
 67
     7
 79
     5
170
     0
171
     0
290
     0
174
     0
 93
       13
 44
0.0
173
     0
291
     1
 45
0.0
1001
ACAD
1000
AcDbSavedByObjectVersion
1070
     0
  0
VISUALSTYLE
  5
2C
102
{ACAD_REACTORS
330
2A
102
}
102
{ACAD_XDICTIONARY
360
9E7
102
}
330
2A
100
AcDbVisualStyle
  2
FlatWithEdges
 70
     1
 71
     2
 72
     1
 73
     1
 90
        2
 40
-0.6
 41
30.0
 62
     5
 63
     7
 74
     1
 91
        4
 64
     7
 65
   257
 75
     1
175
     1
 42
1.0
 92
        0
 66
   257
 43
1.0
 76
     1
 77
     6
 78
     2
 67
     7
 79
     5
170
     0
171
     0
290
     0
174
     0
 93
       13
 44
0.0
173
     0
291
     1
 45
0.0
1001
ACAD
1000
AcDbSavedByObjectVersion
1070
     0
  0
VISUALSTYLE
  5
2D
102
{ACAD_REACTORS
330
2A
102
}
102
{ACAD_XDICTIONARY
360
9E9
102
}
330
2A
100
AcDbVisualStyle
  2
Gouraud
 70
     2
 71
     2
 72
     2
 73
     1
 90
        2
 40
-0.6
 41
30.0
 62
     5
 63
     7
 74
     0
 91
        4
 64
     7
 65
   257
 75
     1
175
     1
 42
1.0
 92
        0
 66
     7
 43
1.0
 76
     1
 77
     6
 78
     2
 67
     7
 79
     5
170
     0
171
     0
290
     0
174
     0
 93
       13
 44
0.0
173
     0
291
     1
 45
0.0
1001
ACAD
1000
AcDbSavedByObjectVersion
1070
     0
  0
VISUALSTYLE
  5
2E
102
{ACAD_REACTORS
330
2A
102
}
102
{ACAD_XDICTIONARY
360
9EB
102
}
330
2A
100
AcDbVisualStyle
  2
GouraudWithEdges
 70
     3
 71
     2
 72
     2
 73
     1
 90
        2
 40
-0.6
 41
30.0
 62
     5
 63
     7
 74
     1
 91
        4
 64
     7
 65
   257
 75
     1
175
     1
 42
1.0
 92
        0
 66
   257
 43
1.0
 76
     1
 77
     6
 78
     2
 67
     7
 79
     5
170
     0
171
     0
290
     0
174
     0
 93
       13
 44
0.0
173
     0
291
     1
 45
0.0
1001
ACAD
1000
AcDbSavedByObjectVersion
1070
     0
  0
VISUALSTYLE
  5
38
102
{ACAD_REACTORS
330
2A
102
}
102
{ACAD_XDICTIONARY
360
9FF
102
}
330
2A
100
AcDbVisualStyle
  2
Linepattern
 70
    14
 71
     2
 72
     2
 73
     0
 90
        0
 40
-0.6
 41
-30.0
 62
     5
 63
     7
 74
     1
 91
        4
 64
     7
 65
   257
 75
     7
175
     7
 42
1.0
 92
        8
 66
     7
 43
1.0
 76
     1
 77
     6
 78
     2
 67
     7
 79
     5
170
     0
171
     0
290
     0
174
     0
 93
        1
 44
0.0
173
     0
291
     1
 45
0.0
1001
ACAD
1000
AcDbSavedByObjectVersion
1070
     0
  0
VISUALSTYLE
  5
33
102
{ACAD_REACTORS
330
2A
102
}
102
{ACAD_XDICTIONARY
360
9F5
102
}
330
2A
100
AcDbVisualStyle
  2
Realistic
 70
     8
 71
     2
 72
     2
 73
     0
 90
        0
 40
-0.6
 41
-30.0
 62
     5
 63
     7
 74
     1
 91
        0
 64
     7
 65
   257
 75
     1
175
     1
 42
1.0
 92
        8
 66
     8
 43
1.0
 76
     1
 77
     6
 78
     2
 67
     7
 79
     5
170
     0
171
     0
290
     0
174
     0
 93
       13
 44
0.0
173
     0
291
     0
 45
0.0
1001
ACAD
1000
AcDbSavedByObjectVersion
1070
     0
  0
VISUALSTYLE
  5
37
102
{ACAD_REACTORS
330
2A
102
}
102
{ACAD_XDICTIONARY
360
9FD
102
}
330
2A
100
AcDbVisualStyle
  2
Thicken
 70
    13
 71
     2
 72
     2
 73
     0
 90
        0
 40
-0.6
 41
-30.0
 62
     5
 63
     7
 74
     1
 91
        4
 64
     7
 65
   257
 75
     1
175
     1
 42
1.0
 92
       12
 66
     7
 43
1.0
 76
     1
 77
     6
 78
     2
 67
     7
 79
     5
170
     0
171
     0
290
     0
174
     0
 93
        1
 44
0.0
173
     0
291
     1
 45
0.0
1001
ACAD
1000
AcDbSavedByObjectVersion
1070
     0
  0
DICTIONARYVAR
  5
9E2
102
{ACAD_REACTORS
330
9DD
102
}
330
9DD
100
DictionaryVariables
280
     0
  1
1:1
  0
DICTIONARYVAR
  5
9E3
102
{ACAD_REACTORS
330
9DD
102
}
330
9DD
100
DictionaryVariables
280
     0
  1
2
  0
DICTIONARYVAR
  5
9E4
102
{ACAD_REACTORS
330
9DD
102
}
330
9DD
100
DictionaryVariables
280
     0
  1
1
  0
DICTIONARYVAR
  5
9E1
102
{ACAD_REACTORS
330
9DD
102
}
330
9DD
100
DictionaryVariables
280
     0
  1
80.000000
  0
DICTIONARYVAR
  5
9E0
102
{ACAD_REACTORS
330
9DD
102
}
330
9DD
100
DictionaryVariables
280
     0
  1
5.000000
  0
DICTIONARY
  5
A07
330
3D
100
AcDbDictionary
280
     1
281
     1
  3
ACAD_XREC_ROUNDTRIP
360
A08
  0
DICTIONARY
  5
A05
330
3C
100
AcDbDictionary
280
     1
281
     1
  3
ACAD_XREC_ROUNDTRIP
360
A06
  0
DICTIONARY
  5
A09
330
3E
100
AcDbDictionary
280
     1
281
     1
  3
ACAD_XREC_ROUNDTRIP
360
A0A
  0
DICTIONARY
  5
9ED
330
2F
100
AcDbDictionary
280
     1
281
     1
  3
ACAD_XREC_ROUNDTRIP
360
9EE
  0
DICTIONARY
  5
9F1
330
31
100
AcDbDictionary
280
     1
281
     1
  3
ACAD_XREC_ROUNDTRIP
360
9F2
  0
DICTIONARY
  5
9EF
330
30
100
AcDbDictionary
280
     1
281
     1
  3
ACAD_XREC_ROUNDTRIP
360
9F0
  0
DICTIONARY
  5
9F3
330
32
100
AcDbDictionary
280
     1
281
     1
  3
ACAD_XREC_ROUNDTRIP
360
9F4
  0
DICTIONARY
  5
9FB
330
36
100
AcDbDictionary
280
     1
281
     1
  3
ACAD_XREC_ROUNDTRIP
360
9FC
  0
DICTIONARY
  5
A03
330
3A
100
AcDbDictionary
280
     1
281
     1
  3
ACAD_XREC_ROUNDTRIP
360
A04
  0
DICTIONARY
  5
9F7
330
34
100
AcDbDictionary
280
     1
281
     1
  3
ACAD_XREC_ROUNDTRIP
360
9F8
  0
DICTIONARY
  5
9F9
330
35
100
AcDbDictionary
280
     1
281
     1
  3
ACAD_XREC_ROUNDTRIP
360
9FA
  0
DICTIONARY
  5
A01
330
39
100
AcDbDictionary
280
     1
281
     1
  3
ACAD_XREC_ROUNDTRIP
360
A02
  0
DICTIONARY
  5
9E5
330
2B
100
AcDbDictionary
280
     1
281
     1
  3
ACAD_XREC_ROUNDTRIP
360
9E6
  0
DICTIONARY
  5
9E7
330
2C
100
AcDbDictionary
280
     1
281
     1
  3
ACAD_XREC_ROUNDTRIP
360
9E8
  0
DICTIONARY
  5
9E9
330
2D
100
AcDbDictionary
280
     1
281
     1
  3
ACAD_XREC_ROUNDTRIP
360
9EA
  0
DICTIONARY
  5
9EB
330
2E
100
AcDbDictionary
280
     1
281
     1
  3
ACAD_XREC_ROUNDTRIP
360
9EC
  0
DICTIONARY
  5
9FF
330
38
100
AcDbDictionary
280
     1
281
     1
  3
ACAD_XREC_ROUNDTRIP
360
A00
  0
DICTIONARY
  5
9F5
330
33
100
AcDbDictionary
280
     1
281
     1
  3
ACAD_XREC_ROUNDTRIP
360
9F6
  0
DICTIONARY
  5
9FD
330
37
100
AcDbDictionary
280
     1
281
     1
  3
ACAD_XREC_ROUNDTRIP
360
9FE
  0
XRECORD
  5
A08
102
{ACAD_REACTORS
330
A07
102
}
330
A07
100
AcDbXrecord
280
     1
102
MATERIAL
148
0.0
149
0.0
149
0.0
 93
        0
 94
      127
282
     0
 72
     1
 77
     1
171
     1
175
     1
179
     1
273
     0
  0
XRECORD
  5
A06
102
{ACAD_REACTORS
330
A05
102
}
330
A05
100
AcDbXrecord
280
     1
102
MATERIAL
148
0.0
149
0.0
149
0.0
 93
        0
 94
      127
282
     0
 72
     1
 77
     1
171
     1
175
     1
179
     1
273
     0
  0
XRECORD
  5
A0A
102
{ACAD_REACTORS
330
A09
102
}
330
A09
100
AcDbXrecord
280
     1
102
MATERIAL
148
0.0
149
0.0
149
0.0
 93
        0
 94
      127
282
     0
 72
     1
 77
     1
171
     1
175
     1
179
     1
273
     0
  0
XRECORD
  5
9EE
102
{ACAD_REACTORS
330
9ED
102
}
330
9ED
100
AcDbXrecord
280
     1
102
RTVSPropertyOp0
 70
     1
102
RTVSPropertyOp1
 70
     1
102
RTVSPropertyOp2
 70
     1
102
RTVSPropertyOp3
 70
     1
102
RTVSPropertyOp4
 70
     1
102
RTVSPropertyOp5
 70
     1
102
RTVSPropertyOp6
 70
     1
102
RTVSPropertyOp7
 70
     1
102
RTVSPropertyOp8
 70
     1
102
RTVSPropertyOp9
 70
     1
102
RTVSPropertyOp10
 70
     1
102
RTVSPropertyOp11
 70
     1
102
RTVSPropertyOp12
 70
     1
102
RTVSPropertyOp13
 70
     1
102
RTVSPropertyOp14
 70
     1
102
RTVSPropertyOp15
 70
     1
102
RTVSPropertyOp16
 70
     1
102
RTVSPropertyOp17
 70
     1
102
RTVSPropertyOp18
 70
     1
102
RTVSPropertyOp19
 70
     1
102
RTVSPropertyOp20
 70
     1
102
RTVSPropertyOp21
 70
     1
102
RTVSPropertyOp22
 70
     1
102
RTVSPropertyOp23
 70
     1
102
RTVSPropertyOp24
 70
     1
102
RTVSPropertyOp25
 70
     1
102
RTVSPropertyOp26
 70
     1
102
RTVSPropertyOp27
 70
     1
  0
XRECORD
  5
9F2
102
{ACAD_REACTORS
330
9F1
102
}
330
9F1
100
AcDbXrecord
280
     1
102
RTVSPropertyOp0
 70
     1
102
RTVSPropertyOp1
 70
     1
102
RTVSPropertyOp2
 70
     1
102
RTVSPropertyOp3
 70
     1
102
RTVSPropertyOp4
 70
     1
102
RTVSPropertyOp5
 70
     1
102
RTVSPropertyOp6
 70
     1
102
RTVSPropertyOp7
 70
     1
102
RTVSPropertyOp8
 70
     1
102
RTVSPropertyOp9
 70
     1
102
RTVSPropertyOp10
 70
     1
102
RTVSPropertyOp11
 70
     1
102
RTVSPropertyOp12
 70
     1
102
RTVSPropertyOp13
 70
     1
102
RTVSPropertyOp14
 70
     1
102
RTVSPropertyOp15
 70
     1
102
RTVSPropertyOp16
 70
     1
102
RTVSPropertyOp17
 70
     1
102
RTVSPropertyOp18
 70
     1
102
RTVSPropertyOp19
 70
     1
102
RTVSPropertyOp20
 70
     1
102
RTVSPropertyOp21
 70
     1
102
RTVSPropertyOp22
 70
     1
102
RTVSPropertyOp23
 70
     1
102
RTVSPropertyOp24
 70
     1
102
RTVSPropertyOp25
 70
     1
102
RTVSPropertyOp26
 70
     1
102
RTVSPropertyOp27
 70
     1
  0
XRECORD
  5
9F0
102
{ACAD_REACTORS
330
9EF
102
}
330
9EF
100
AcDbXrecord
280
     1
102
RTVSPropertyOp0
 70
     1
102
RTVSPropertyOp1
 70
     1
102
RTVSPropertyOp2
 70
     1
102
RTVSPropertyOp3
 70
     1
102
RTVSPropertyOp4
 70
     1
102
RTVSPropertyOp5
 70
     1
102
RTVSPropertyOp6
 70
     1
102
RTVSPropertyOp7
 70
     1
102
RTVSPropertyOp8
 70
     1
102
RTVSPropertyOp9
 70
     1
102
RTVSPropertyOp10
 70
     1
102
RTVSPropertyOp11
 70
     1
102
RTVSPropertyOp12
 70
     1
102
RTVSPropertyOp13
 70
     1
102
RTVSPropertyOp14
 70
     1
102
RTVSPropertyOp15
 70
     1
102
RTVSPropertyOp16
 70
     1
102
RTVSPropertyOp17
 70
     1
102
RTVSPropertyOp18
 70
     1
102
RTVSPropertyOp19
 70
     1
102
RTVSPropertyOp20
 70
     1
102
RTVSPropertyOp21
 70
     1
102
RTVSPropertyOp22
 70
     1
102
RTVSPropertyOp23
 70
     1
102
RTVSPropertyOp24
 70
     1
102
RTVSPropertyOp25
 70
     1
102
RTVSPropertyOp26
 70
     1
102
RTVSPropertyOp27
 70
     1
  0
XRECORD
  5
9F4
102
{ACAD_REACTORS
330
9F3
102
}
330
9F3
100
AcDbXrecord
280
     1
102
RTVSPropertyOp0
 70
     1
102
RTVSPropertyOp1
 70
     1
102
RTVSPropertyOp2
 70
     1
102
RTVSPropertyOp3
 70
     1
102
RTVSPropertyOp4
 70
     1
102
RTVSPropertyOp5
 70
     1
102
RTVSPropertyOp6
 70
     1
102
RTVSPropertyOp7
 70
     1
102
RTVSPropertyOp8
 70
     1
102
RTVSPropertyOp9
 70
     1
102
RTVSPropertyOp10
 70
     1
102
RTVSPropertyOp11
 70
     1
102
RTVSPropertyOp12
 70
     1
102
RTVSPropertyOp13
 70
     1
102
RTVSPropertyOp14
 70
     1
102
RTVSPropertyOp15
 70
     1
102
RTVSPropertyOp16
 70
     1
102
RTVSPropertyOp17
 70
     1
102
RTVSPropertyOp18
 70
     1
102
RTVSPropertyOp19
 70
     1
102
RTVSPropertyOp20
 70
     1
102
RTVSPropertyOp21
 70
     1
102
RTVSPropertyOp22
 70
     1
102
RTVSPropertyOp23
 70
     1
102
RTVSPropertyOp24
 70
     1
102
RTVSPropertyOp25
 70
     1
102
RTVSPropertyOp26
 70
     1
102
RTVSPropertyOp27
 70
     1
  0
XRECORD
  5
9FC
102
{ACAD_REACTORS
330
9FB
102
}
330
9FB
100
AcDbXrecord
280
     1
102
RTVSPropertyOp0
 70
     1
102
RTVSPropertyOp1
 70
     1
102
RTVSPropertyOp2
 70
     1
102
RTVSPropertyOp3
 70
     1
102
RTVSPropertyOp4
 70
     1
102
RTVSPropertyOp5
 70
     1
102
RTVSPropertyOp6
 70
     1
102
RTVSPropertyOp7
 70
     1
102
RTVSPropertyOp8
 70
     1
102
RTVSPropertyOp9
 70
     1
102
RTVSPropertyOp10
 70
     1
102
RTVSPropertyOp11
 70
     1
102
RTVSPropertyOp12
 70
     1
102
RTVSPropertyOp13
 70
     1
102
RTVSPropertyOp14
 70
     1
102
RTVSPropertyOp15
 70
     1
102
RTVSPropertyOp16
 70
     1
102
RTVSPropertyOp17
 70
     1
102
RTVSPropertyOp18
 70
     1
102
RTVSPropertyOp19
 70
     1
102
RTVSPropertyOp20
 70
     1
102
RTVSPropertyOp21
 70
     1
102
RTVSPropertyOp22
 70
     1
102
RTVSPropertyOp23
 70
     1
102
RTVSPropertyOp24
 70
     1
102
RTVSPropertyOp25
 70
     1
102
RTVSPropertyOp26
 70
     1
102
RTVSPropertyOp27
 70
     1
  0
XRECORD
  5
A04
102
{ACAD_REACTORS
330
A03
102
}
330
A03
100
AcDbXrecord
280
     1
102
RTVSPropertyOp0
 70
     1
102
RTVSPropertyOp1
 70
     1
102
RTVSPropertyOp2
 70
     1
102
RTVSPropertyOp3
 70
     1
102
RTVSPropertyOp4
 70
     1
102
RTVSPropertyOp5
 70
     1
102
RTVSPropertyOp6
 70
     1
102
RTVSPropertyOp7
 70
     1
102
RTVSPropertyOp8
 70
     1
102
RTVSPropertyOp9
 70
     1
102
RTVSPropertyOp10
 70
     1
102
RTVSPropertyOp11
 70
     1
102
RTVSPropertyOp12
 70
     1
102
RTVSPropertyOp13
 70
     1
102
RTVSPropertyOp14
 70
     1
102
RTVSPropertyOp15
 70
     1
102
RTVSPropertyOp16
 70
     1
102
RTVSPropertyOp17
 70
     1
102
RTVSPropertyOp18
 70
     1
102
RTVSPropertyOp19
 70
     1
102
RTVSPropertyOp20
 70
     1
102
RTVSPropertyOp21
 70
     1
102
RTVSPropertyOp22
 70
     1
102
RTVSPropertyOp23
 70
     1
102
RTVSPropertyOp24
 70
     1
102
RTVSPropertyOp25
 70
     1
102
RTVSPropertyOp26
 70
     1
102
RTVSPropertyOp27
 70
     1
  0
XRECORD
  5
9F8
102
{ACAD_REACTORS
330
9F7
102
}
330
9F7
100
AcDbXrecord
280
     1
102
RTVSPropertyOp0
 70
     1
102
RTVSPropertyOp1
 70
     1
102
RTVSPropertyOp2
 70
     1
102
RTVSPropertyOp3
 70
     1
102
RTVSPropertyOp4
 70
     1
102
RTVSPropertyOp5
 70
     1
102
RTVSPropertyOp6
 70
     1
102
RTVSPropertyOp7
 70
     1
102
RTVSPropertyOp8
 70
     1
102
RTVSPropertyOp9
 70
     1
102
RTVSPropertyOp10
 70
     1
102
RTVSPropertyOp11
 70
     1
102
RTVSPropertyOp12
 70
     1
102
RTVSPropertyOp13
 70
     1
102
RTVSPropertyOp14
 70
     1
102
RTVSPropertyOp15
 70
     1
102
RTVSPropertyOp16
 70
     1
102
RTVSPropertyOp17
 70
     1
102
RTVSPropertyOp18
 70
     1
102
RTVSPropertyOp19
 70
     1
102
RTVSPropertyOp20
 70
     1
102
RTVSPropertyOp21
 70
     1
102
RTVSPropertyOp22
 70
     1
102
RTVSPropertyOp23
 70
     1
102
RTVSPropertyOp24
 70
     1
102
RTVSPropertyOp25
 70
     1
102
RTVSPropertyOp26
 70
     1
102
RTVSPropertyOp27
 70
     1
  0
XRECORD
  5
9FA
102
{ACAD_REACTORS
330
9F9
102
}
330
9F9
100
AcDbXrecord
280
     1
102
RTVSPropertyOp0
 70
     1
102
RTVSPropertyOp1
 70
     1
102
RTVSPropertyOp2
 70
     1
102
RTVSPropertyOp3
 70
     1
102
RTVSPropertyOp4
 70
     1
102
RTVSPropertyOp5
 70
     1
102
RTVSPropertyOp6
 70
     1
102
RTVSPropertyOp7
 70
     1
102
RTVSPropertyOp8
 70
     1
102
RTVSPropertyOp9
 70
     1
102
RTVSPropertyOp10
 70
     1
102
RTVSPropertyOp11
 70
     1
102
RTVSPropertyOp12
 70
     1
102
RTVSPropertyOp13
 70
     1
102
RTVSPropertyOp14
 70
     1
102
RTVSPropertyOp15
 70
     1
102
RTVSPropertyOp16
 70
     1
102
RTVSPropertyOp17
 70
     1
102
RTVSPropertyOp18
 70
     1
102
RTVSPropertyOp19
 70
     1
102
RTVSPropertyOp20
 70
     1
102
RTVSPropertyOp21
 70
     1
102
RTVSPropertyOp22
 70
     1
102
RTVSPropertyOp23
 70
     1
102
RTVSPropertyOp24
 70
     1
102
RTVSPropertyOp25
 70
     1
102
RTVSPropertyOp26
 70
     1
102
RTVSPropertyOp27
 70
     1
  0
XRECORD
  5
A02
102
{ACAD_REACTORS
330
A01
102
}
330
A01
100
AcDbXrecord
280
     1
102
RTVSPropertyOp0
 70
     1
102
RTVSPropertyOp1
 70
     1
102
RTVSPropertyOp2
 70
     1
102
RTVSPropertyOp3
 70
     1
102
RTVSPropertyOp4
 70
     1
102
RTVSPropertyOp5
 70
     1
102
RTVSPropertyOp6
 70
     1
102
RTVSPropertyOp7
 70
     1
102
RTVSPropertyOp8
 70
     1
102
RTVSPropertyOp9
 70
     1
102
RTVSPropertyOp10
 70
     1
102
RTVSPropertyOp11
 70
     1
102
RTVSPropertyOp12
 70
     1
102
RTVSPropertyOp13
 70
     1
102
RTVSPropertyOp14
 70
     1
102
RTVSPropertyOp15
 70
     1
102
RTVSPropertyOp16
 70
     1
102
RTVSPropertyOp17
 70
     1
102
RTVSPropertyOp18
 70
     1
102
RTVSPropertyOp19
 70
     1
102
RTVSPropertyOp20
 70
     1
102
RTVSPropertyOp21
 70
     1
102
RTVSPropertyOp22
 70
     1
102
RTVSPropertyOp23
 70
     1
102
RTVSPropertyOp24
 70
     1
102
RTVSPropertyOp25
 70
     1
102
RTVSPropertyOp26
 70
     1
102
RTVSPropertyOp27
 70
     1
  0
XRECORD
  5
9E6
102
{ACAD_REACTORS
330
9E5
102
}
330
9E5
100
AcDbXrecord
280
     1
102
RTVSPropertyOp0
 70
     1
102
RTVSPropertyOp1
 70
     1
102
RTVSPropertyOp2
 70
     1
102
RTVSPropertyOp3
 70
     1
102
RTVSPropertyOp4
 70
     1
102
RTVSPropertyOp5
 70
     1
102
RTVSPropertyOp6
 70
     1
102
RTVSPropertyOp7
 70
     1
102
RTVSPropertyOp8
 70
     1
102
RTVSPropertyOp9
 70
     1
102
RTVSPropertyOp10
 70
     1
102
RTVSPropertyOp11
 70
     1
102
RTVSPropertyOp12
 70
     1
102
RTVSPropertyOp13
 70
     1
102
RTVSPropertyOp14
 70
     1
102
RTVSPropertyOp15
 70
     1
102
RTVSPropertyOp16
 70
     1
102
RTVSPropertyOp17
 70
     1
102
RTVSPropertyOp18
 70
     1
102
RTVSPropertyOp19
 70
     1
102
RTVSPropertyOp20
 70
     1
102
RTVSPropertyOp21
 70
     1
102
RTVSPropertyOp22
 70
     1
102
RTVSPropertyOp23
 70
     1
102
RTVSPropertyOp24
 70
     1
102
RTVSPropertyOp25
 70
     1
102
RTVSPropertyOp26
 70
     1
102
RTVSPropertyOp27
 70
     1
  0
XRECORD
  5
9E8
102
{ACAD_REACTORS
330
9E7
102
}
330
9E7
100
AcDbXrecord
280
     1
102
RTVSPropertyOp0
 70
     1
102
RTVSPropertyOp1
 70
     1
102
RTVSPropertyOp2
 70
     1
102
RTVSPropertyOp3
 70
     1
102
RTVSPropertyOp4
 70
     1
102
RTVSPropertyOp5
 70
     1
102
RTVSPropertyOp6
 70
     1
102
RTVSPropertyOp7
 70
     1
102
RTVSPropertyOp8
 70
     1
102
RTVSPropertyOp9
 70
     1
102
RTVSPropertyOp10
 70
     1
102
RTVSPropertyOp11
 70
     1
102
RTVSPropertyOp12
 70
     1
102
RTVSPropertyOp13
 70
     1
102
RTVSPropertyOp14
 70
     1
102
RTVSPropertyOp15
 70
     1
102
RTVSPropertyOp16
 70
     1
102
RTVSPropertyOp17
 70
     1
102
RTVSPropertyOp18
 70
     1
102
RTVSPropertyOp19
 70
     1
102
RTVSPropertyOp20
 70
     1
102
RTVSPropertyOp21
 70
     1
102
RTVSPropertyOp22
 70
     1
102
RTVSPropertyOp23
 70
     1
102
RTVSPropertyOp24
 70
     1
102
RTVSPropertyOp25
 70
     1
102
RTVSPropertyOp26
 70
     1
102
RTVSPropertyOp27
 70
     1
  0
XRECORD
  5
9EA
102
{ACAD_REACTORS
330
9E9
102
}
330
9E9
100
AcDbXrecord
280
     1
102
RTVSPropertyOp0
 70
     1
102
RTVSPropertyOp1
 70
     1
102
RTVSPropertyOp2
 70
     1
102
RTVSPropertyOp3
 70
     1
102
RTVSPropertyOp4
 70
     1
102
RTVSPropertyOp5
 70
     1
102
RTVSPropertyOp6
 70
     1
102
RTVSPropertyOp7
 70
     1
102
RTVSPropertyOp8
 70
     1
102
RTVSPropertyOp9
 70
     1
102
RTVSPropertyOp10
 70
     1
102
RTVSPropertyOp11
 70
     1
102
RTVSPropertyOp12
 70
     1
102
RTVSPropertyOp13
 70
     1
102
RTVSPropertyOp14
 70
     1
102
RTVSPropertyOp15
 70
     1
102
RTVSPropertyOp16
 70
     1
102
RTVSPropertyOp17
 70
     1
102
RTVSPropertyOp18
 70
     1
102
RTVSPropertyOp19
 70
     1
102
RTVSPropertyOp20
 70
     1
102
RTVSPropertyOp21
 70
     1
102
RTVSPropertyOp22
 70
     1
102
RTVSPropertyOp23
 70
     1
102
RTVSPropertyOp24
 70
     1
102
RTVSPropertyOp25
 70
     1
102
RTVSPropertyOp26
 70
     1
102
RTVSPropertyOp27
 70
     1
  0
XRECORD
  5
9EC
102
{ACAD_REACTORS
330
9EB
102
}
330
9EB
100
AcDbXrecord
280
     1
102
RTVSPropertyOp0
 70
     1
102
RTVSPropertyOp1
 70
     1
102
RTVSPropertyOp2
 70
     1
102
RTVSPropertyOp3
 70
     1
102
RTVSPropertyOp4
 70
     1
102
RTVSPropertyOp5
 70
     1
102
RTVSPropertyOp6
 70
     1
102
RTVSPropertyOp7
 70
     1
102
RTVSPropertyOp8
 70
     1
102
RTVSPropertyOp9
 70
     1
102
RTVSPropertyOp10
 70
     1
102
RTVSPropertyOp11
 70
     1
102
RTVSPropertyOp12
 70
     1
102
RTVSPropertyOp13
 70
     1
102
RTVSPropertyOp14
 70
     1
102
RTVSPropertyOp15
 70
     1
102
RTVSPropertyOp16
 70
     1
102
RTVSPropertyOp17
 70
     1
102
RTVSPropertyOp18
 70
     1
102
RTVSPropertyOp19
 70
     1
102
RTVSPropertyOp20
 70
     1
102
RTVSPropertyOp21
 70
     1
102
RTVSPropertyOp22
 70
     1
102
RTVSPropertyOp23
 70
     1
102
RTVSPropertyOp24
 70
     1
102
RTVSPropertyOp25
 70
     1
102
RTVSPropertyOp26
 70
     1
102
RTVSPropertyOp27
 70
     1
  0
XRECORD
  5
A00
102
{ACAD_REACTORS
330
9FF
102
}
330
9FF
100
AcDbXrecord
280
     1
102
RTVSPropertyOp0
 70
     1
102
RTVSPropertyOp1
 70
     1
102
RTVSPropertyOp2
 70
     1
102
RTVSPropertyOp3
 70
     1
102
RTVSPropertyOp4
 70
     1
102
RTVSPropertyOp5
 70
     1
102
RTVSPropertyOp6
 70
     1
102
RTVSPropertyOp7
 70
     1
102
RTVSPropertyOp8
 70
     1
102
RTVSPropertyOp9
 70
     1
102
RTVSPropertyOp10
 70
     1
102
RTVSPropertyOp11
 70
     1
102
RTVSPropertyOp12
 70
     1
102
RTVSPropertyOp13
 70
     1
102
RTVSPropertyOp14
 70
     1
102
RTVSPropertyOp15
 70
     1
102
RTVSPropertyOp16
 70
     1
102
RTVSPropertyOp17
 70
     1
102
RTVSPropertyOp18
 70
     1
102
RTVSPropertyOp19
 70
     1
102
RTVSPropertyOp20
 70
     1
102
RTVSPropertyOp21
 70
     1
102
RTVSPropertyOp22
 70
     1
102
RTVSPropertyOp23
 70
     1
102
RTVSPropertyOp24
 70
     1
102
RTVSPropertyOp25
 70
     1
102
RTVSPropertyOp26
 70
     1
102
RTVSPropertyOp27
 70
     1
  0
XRECORD
  5
9F6
102
{ACAD_REACTORS
330
9F5
102
}
330
9F5
100
AcDbXrecord
280
     1
102
RTVSPropertyOp0
 70
     1
102
RTVSPropertyOp1
 70
     1
102
RTVSPropertyOp2
 70
     1
102
RTVSPropertyOp3
 70
     1
102
RTVSPropertyOp4
 70
     1
102
RTVSPropertyOp5
 70
     1
102
RTVSPropertyOp6
 70
     1
102
RTVSPropertyOp7
 70
     1
102
RTVSPropertyOp8
 70
     1
102
RTVSPropertyOp9
 70
     1
102
RTVSPropertyOp10
 70
     1
102
RTVSPropertyOp11
 70
     1
102
RTVSPropertyOp12
 70
     1
102
RTVSPropertyOp13
 70
     1
102
RTVSPropertyOp14
 70
     1
102
RTVSPropertyOp15
 70
     1
102
RTVSPropertyOp16
 70
     1
102
RTVSPropertyOp17
 70
     1
102
RTVSPropertyOp18
 70
     1
102
RTVSPropertyOp19
 70
     1
102
RTVSPropertyOp20
 70
     1
102
RTVSPropertyOp21
 70
     1
102
RTVSPropertyOp22
 70
     1
102
RTVSPropertyOp23
 70
     1
102
RTVSPropertyOp24
 70
     1
102
RTVSPropertyOp25
 70
     1
102
RTVSPropertyOp26
 70
     1
102
RTVSPropertyOp27
 70
     1
  0
XRECORD
  5
9FE
102
{ACAD_REACTORS
330
9FD
102
}
330
9FD
100
AcDbXrecord
280
     1
102
RTVSPropertyOp0
 70
     1
102
RTVSPropertyOp1
 70
     1
102
RTVSPropertyOp2
 70
     1
102
RTVSPropertyOp3
 70
     1
102
RTVSPropertyOp4
 70
     1
102
RTVSPropertyOp5
 70
     1
102
RTVSPropertyOp6
 70
     1
102
RTVSPropertyOp7
 70
     1
102
RTVSPropertyOp8
 70
     1
102
RTVSPropertyOp9
 70
     1
102
RTVSPropertyOp10
 70
     1
102
RTVSPropertyOp11
 70
     1
102
RTVSPropertyOp12
 70
     1
102
RTVSPropertyOp13
 70
     1
102
RTVSPropertyOp14
 70
     1
102
RTVSPropertyOp15
 70
     1
102
RTVSPropertyOp16
 70
     1
102
RTVSPropertyOp17
 70
     1
102
RTVSPropertyOp18
 70
     1
102
RTVSPropertyOp19
 70
     1
102
RTVSPropertyOp20
 70
     1
102
RTVSPropertyOp21
 70
     1
102
RTVSPropertyOp22
 70
     1
102
RTVSPropertyOp23
 70
     1
102
RTVSPropertyOp24
 70
     1
102
RTVSPropertyOp25
 70
     1
102
RTVSPropertyOp26
 70
     1
102
RTVSPropertyOp27
 70
     1
  0
ENDSEC
  0
EOF
