  0
SECTION
  2
HEADER
  9
$ACADVER
  1
AC1015
  9
$ACADMAINTVER
 70
     6
  9
$DWGCODEPAGE
  3
ANSI_1252
  9
$INSBASE
 10
0.0
 20
0.0
 30
0.0
  9
$EXTMIN
 10
0.0
 20
0.0
 30
0.0
  9
$EXTMAX
 10
25.0
 20
35.0
 30
0.0
  9
$LIMMIN
 10
0.0
 20
0.0
  9
$LIMMAX
 10
420.0
 20
297.0
  9
$ORTHOMODE
 70
     0
  9
$REGENMODE
 70
     1
  9
$FILLMODE
 70
     1
  9
$QTEXTMODE
 70
     0
  9
$MIRRTEXT
 70
     1
  9
$LTSCALE
 40
4.25
  9
$ATTMODE
 70
     1
  9
$TEXTSIZE
 40
2.5
  9
$TRACEWID
 40
1.0
  9
$TEXTSTYLE
  7
Standard
  9
$CLAYER
  8
0
  9
$CELTYPE
  6
ByLayer
  9
$CECOLOR
 62
   256
  9
$CELTSCALE
 40
1.0
  9
$DISPSILH
 70
     0
  9
$DIMSCALE
 40
1.0
  9
$DIMASZ
 40
2.5
  9
$DIMEXO
 40
0.625
  9
$DIMDLI
 40
3.75
  9
$DIMRND
 40
0.0
  9
$DIMDLE
 40
0.0
  9
$DIMEXE
 40
1.25
  9
$DIMTP
 40
0.0
  9
$DIMTM
 40
0.0
  9
$DIMTXT
 40
2.5
  9
$DIMCEN
 40
2.5
  9
$DIMTSZ
 40
0.0
  9
$DIMTOL
 70
     0
  9
$DIMLIM
 70
     0
  9
$DIMTIH
 70
     0
  9
$DIMTOH
 70
     0
  9
$DIMSE1
 70
     0
  9
$DIMSE2
 70
     0
  9
$DIMTAD
 70
     1
  9
$DIMZIN
 70
     8
  9
$DIMBLK
  1

  9
$DIMASO
 70
     1
  9
$DIMSHO
 70
     1
  9
$DIMPOST
  1

  9
$DIMAPOST
  1

  9
$DIMALT
 70
     0
  9
$DIMALTD
 70
     3
  9
$DIMALTF
 40
0.03937007874016
  9
$DIMLFAC
 40
1.0
  9
$DIMTOFL
 70
     1
  9
$DIMTVP
 40
0.0
  9
$DIMTIX
 70
     0
  9
$DIMSOXD
 70
     0
  9
$DIMSAH
 70
     0
  9
$DIMBLK1
  1

  9
$DIMBLK2
  1

  9
$DIMSTYLE
  2
ISO-25
  9
$DIMCLRD
 70
     0
  9
$DIMCLRE
 70
     0
  9
$DIMCLRT
 70
     0
  9
$DIMTFAC
 40
1.0
  9
$DIMGAP
 40
0.625
  9
$DIMJUST
 70
     0
  9
$DIMSD1
 70
     0
  9
$DIMSD2
 70
     0
  9
$DIMTOLJ
 70
     0
  9
$DIMTZIN
 70
     8
  9
$DIMALTZ
 70
     0
  9
$DIMALTTZ
 70
     0
  9
$DIMUPT
 70
     0
  9
$DIMDEC
 70
     2
  9
$DIMTDEC
 70
     2
  9
$DIMALTU
 70
     2
  9
$DIMALTTD
 70
     3
  9
$DIMTXSTY
  7
Standard
  9
$DIMAUNIT
 70
     0
  9
$DIMADEC
 70
     0
  9
$DIMALTRND
 40
0.0
  9
$DIMAZIN
 70
     0
  9
$DIMDSEP
 70
    44
  9
$DIMATFIT
 70
     3
  9
$DIMFRAC
 70
     0
  9
$DIMLDRBLK
  1

  9
$DIMLUNIT
 70
     2
  9
$DIMLWD
 70
    -2
  9
$DIMLWE
 70
    -2
  9
$DIMTMOVE
 70
     0
  9
$LUNITS
 70
     2
  9
$LUPREC
 70
     4
  9
$SKETCHINC
 40
1.0
  9
$FILLETRAD
 40
10.0
  9
$AUNITS
 70
     0
  9
$AUPREC
 70
     0
  9
$MENU
  1
.
  9
$ELEVATION
 40
0.0
  9
$PELEVATION
 40
0.0
  9
$THICKNESS
 40
0.0
  9
$LIMCHECK
 70
     0
  9
$CHAMFERA
 40
10.0
  9
$CHAMFERB
 40
10.0
  9
$CHAMFERC
 40
20.0
  9
$CHAMFERD
 40
0.0
  9
$SKPOLY
 70
     0
  9
$TDCREATE
 40
2458578.063888889
  9
$TDUCREATE
 40
2458577.980555556
  9
$TDUPDATE
 40
2458578.067361111
  9
$TDUUPDATE
 40
2458577.984027778
  9
$TDINDWG
 40
0.0000000116
  9
$TDUSRTIMER
 40
0.0000000116
  9
$USRTIMER
 70
     1
  9
$ANGBASE
 50
0.0
  9
$ANGDIR
 70
     0
  9
$PDMODE
 70
     0
  9
$PDSIZE
 40
0.0
  9
$PLINEWID
 40
0.0
  9
$SPLFRAME
 70
     0
  9
$SPLINETYPE
 70
     6
  9
$SPLINESEGS
 70
     8
  9
$HANDSEED
  5
901
  9
$SURFTAB1
 70
     6
  9
$SURFTAB2
 70
     6
  9
$SURFTYPE
 70
     6
  9
$SURFU
 70
     6
  9
$SURFV
 70
     6
  9
$UCSBASE
  2

  9
$UCSNAME
  2

  9
$UCSORG
 10
0.0
 20
0.0
 30
0.0
  9
$UCSXDIR
 10
1.0
 20
0.0
 30
0.0
  9
$UCSYDIR
 10
0.0
 20
1.0
 30
0.0
  9
$UCSORTHOREF
  2

  9
$UCSORTHOVIEW
 70
     0
  9
$UCSORGTOP
 10
0.0
 20
0.0
 30
0.0
  9
$UCSORGBOTTOM
 10
0.0
 20
0.0
 30
0.0
  9
$UCSORGLEFT
 10
0.0
 20
0.0
 30
0.0
  9
$UCSORGRIGHT
 10
0.0
 20
0.0
 30
0.0
  9
$UCSORGFRONT
 10
0.0
 20
0.0
 30
0.0
  9
$UCSORGBACK
 10
0.0
 20
0.0
 30
0.0
  9
$PUCSBASE
  2

  9
$PUCSNAME
  2

  9
$PUCSORG
 10
0.0
 20
0.0
 30
0.0
  9
$PUCSXDIR
 10
1.0
 20
0.0
 30
0.0
  9
$PUCSYDIR
 10
0.0
 20
1.0
 30
0.0
  9
$PUCSORTHOREF
  2

  9
$PUCSORTHOVIEW
 70
     0
  9
$PUCSORGTOP
 10
0.0
 20
0.0
 30
0.0
  9
$PUCSORGBOTTOM
 10
0.0
 20
0.0
 30
0.0
  9
$PUCSORGLEFT
 10
0.0
 20
0.0
 30
0.0
  9
$PUCSORGRIGHT
 10
0.0
 20
0.0
 30
0.0
  9
$PUCSORGFRONT
 10
0.0
 20
0.0
 30
0.0
  9
$PUCSORGBACK
 10
0.0
 20
0.0
 30
0.0
  9
$USERI1
 70
     0
  9
$USERI2
 70
     0
  9
$USERI3
 70
     0
  9
$USERI4
 70
     0
  9
$USERI5
 70
     0
  9
$USERR1
 40
0.0
  9
$USERR2
 40
0.0
  9
$USERR3
 40
0.0
  9
$USERR4
 40
0.0
  9
$USERR5
 40
0.0
  9
$WORLDVIEW
 70
     1
  9
$SHADEDGE
 70
     3
  9
$SHADEDIF
 70
    70
  9
$TILEMODE
 70
     1
  9
$MAXACTVP
 70
    64
  9
$PINSBASE
 10
0.0
 20
0.0
 30
0.0
  9
$PLIMCHECK
 70
     0
  9
$PEXTMIN
 10
1.000000000000000E+20
 20
1.000000000000000E+20
 30
1.000000000000000E+20
  9
$PEXTMAX
 10
-1.000000000000000E+20
 20
-1.000000000000000E+20
 30
-1.000000000000000E+20
  9
$PLIMMIN
 10
0.0
 20
0.0
  9
$PLIMMAX
 10
420.0
 20
297.0
  9
$UNITMODE
 70
     0
  9
$VISRETAIN
 70
     1
  9
$PLINEGEN
 70
     0
  9
$PSLTSCALE
 70
     1
  9
$TREEDEPTH
 70
  3020
  9
$CMLSTYLE
  2
Standard
  9
$CMLJUST
 70
     0
  9
$CMLSCALE
 40
20.0
  9
$PROXYGRAPHICS
 70
     1
  9
$MEASUREMENT
 70
     1
  9
$CELWEIGHT
370
    -1
  9
$ENDCAPS
280
     0
  9
$JOINSTYLE
280
     0
  9
$LWDISPLAY
290
     0
  9
$INSUNITS
 70
     4
  9
$HYPERLINKBASE
  1

  9
$STYLESHEET
  1

  9
$XEDIT
290
     1
  9
$CEPSNTYPE
380
     0
  9
$PSTYLEMODE
290
     1
  9
$FINGERPRINTGUID
  2
{269B7529-235B-46F3-82D8-876F1242A09E}
  9
$VERSIONGUID
  2
{FAEB1C32-E019-11D5-929B-00C0DF256EC4}
  9
$EXTNAMES
290
     1
  9
$PSVPSCALE
 40
0.0
  9
$OLESTARTUP
290
     0
  0
ENDSEC
  0
SECTION
  2
CLASSES
  0
CLASS
  1
ACDBDICTIONARYWDFLT
  2
AcDbDictionaryWithDefault
  3
ObjectDBX Classes
 90
        0
280
     0
281
     0
  0
CLASS
  1
VISUALSTYLE
  2
AcDbVisualStyle
  3
ObjectDBX Classes
 90
     4095
280
     0
281
     0
  0
CLASS
  1
MATERIAL
  2
AcDbMaterial
  3
ObjectDBX Classes
 90
     1153
280
     0
281
     0
  0
CLASS
  1
SCALE
  2
AcDbScale
  3
ObjectDBX Classes
 90
     1153
280
     0
281
     0
  0
CLASS
  1
DICTIONARYVAR
  2
AcDbDictionaryVar
  3
ObjectDBX Classes
 90
        0
280
     0
281
     0
  0
CLASS
  1
ACDBPLACEHOLDER
  2
AcDbPlaceHolder
  3
ObjectDBX Classes
 90
        0
280
     0
281
     0
  0
CLASS
  1
LAYOUT
  2
AcDbLayout
  3
ObjectDBX Classes
 90
        0
280
     0
281
     0
  0
ENDSEC
  0
SECTION
  2
TABLES
  0
TABLE
  2
VPORT
  5
8
330
0
100
AcDbSymbolTable
 70
     1
  0
VPORT
  5
29
330
8
100
AcDbSymbolTableRecord
100
AcDbViewportTableRecord
  2
*Active
 70
     0
 10
0.0
 20
0.0
 11
1.0
 21
1.0
 12
11.26
 22
4.5
 13
0.0
 23
0.0
 14
10.0
 24
10.0
 15
10.0
 25
10.0
 16
0.0
 26
0.0
 36
1.0
 17
0.0
 27
0.0
 37
0.0
 40
9.0
 41
2.503333333333333
 42
50.0
 43
0.0
 44
0.0
 50
0.0
 51
0.0
 71
     0
 72
   100
 73
     1
 74
     3
 75
     0
 76
     0
 77
     0
 78
     0
281
     0
 65
     1
110
0.0
120
0.0
130
0.0
111
1.0
121
0.0
131
0.0
112
0.0
122
1.0
132
0.0
 79
     0
146
0.0
  0
ENDTAB
  0
TABLE
  2
LTYPE
  5
5
330
0
100
AcDbSymbolTable
 70
    10
  0
LTYPE
  5
14
330
5
100
AcDbSymbolTableRecord
100
AcDbLinetypeTableRecord
  2
ByBlock
 70
     0
  3

 72
    65
 73
     0
 40
0.0
  0
LTYPE
  5
15
330
5
100
AcDbSymbolTableRecord
100
AcDbLinetypeTableRecord
  2
ByLayer
 70
     0
  3

 72
    65
 73
     0
 40
0.0
  0
LTYPE
  5
16
330
5
100
AcDbSymbolTableRecord
100
AcDbLinetypeTableRecord
  2
Continuous
 70
     0
  3
Solid line
 72
    65
 73
     0
 40
0.0
  0
LTYPE
  5
45
330
5
100
AcDbSymbolTableRecord
100
AcDbLinetypeTableRecord
  2
phl_thick
 70
     0
  3
THICK
 72
    65
 73
     0
 40
0.0
  0
LTYPE
  5
1E7
330
5
100
AcDbSymbolTableRecord
100
AcDbLinetypeTableRecord
  2
CUT
 70
     0
  3
THICK
 72
    65
 73
     0
 40
0.0
  0
LTYPE
  5
1ED
330
5
100
AcDbSymbolTableRecord
100
AcDbLinetypeTableRecord
  2
NOCUT
 70
     0
  3
THICK
 72
    65
 73
     0
 40
0.0
  0
LTYPE
  5
1F4
330
5
100
AcDbSymbolTableRecord
100
AcDbLinetypeTableRecord
  2
SK1
 70
     0
  3
THICK
 72
    65
 73
     0
 40
0.0
  0
LTYPE
  5
1FC
330
5
100
AcDbSymbolTableRecord
100
AcDbLinetypeTableRecord
  2
ls_SK2
 70
     0
  3
THIN
 72
    65
 73
     0
 40
0.0
  0
LTYPE
  5
2A8
330
5
100
AcDbSymbolTableRecord
100
AcDbLinetypeTableRecord
  2
ls_2
 70
     0
  3
THIN
 72
    65
 73
     0
 40
0.0
  0
LTYPE
  5
45C
330
5
100
AcDbSymbolTableRecord
100
AcDbLinetypeTableRecord
  2
ls_SK1
 70
     0
  3
THICK
 72
    65
 73
     0
 40
0.0
  0
LTYPE
  5
496
330
5
100
AcDbSymbolTableRecord
100
AcDbLinetypeTableRecord
  2
LONGDASH_DASH
 70
     0
  3
THIN_DASHDOT
 72
    65
 73
     4
 40
0.85
 49
0.4
 74
     0
 49
-0.2
 74
     0
 49
0.05
 74
     0
 49
-0.2
 74
     0
  0
LTYPE
  5
49B
330
5
100
AcDbSymbolTableRecord
100
AcDbLinetypeTableRecord
  2
ls1
 70
     0
  3
THICK
 72
    65
 73
     0
 40
0.0
  0
ENDTAB
  0
TABLE
  2
LAYER
  5
2
330
0
100
AcDbSymbolTable
 70
    10
  0
LAYER
  5
10
330
2
100
AcDbSymbolTableRecord
100
AcDbLayerTableRecord
  2
0
 70
     0
 62
     7
  6
Continuous
370
    -3
390
F
  0
LAYER
  5
44
330
2
100
AcDbSymbolTableRecord
100
AcDbLayerTableRecord
  2
1
 70
     0
 62
4
  6
CONTINUOUS
370
50
370
    -3
390
F
  0
LAYER
  5
1E6
330
2
100
AcDbSymbolTableRecord
100
AcDbLayerTableRecord
  2
CUT
 70
     0
 62
1
  6
CONTINUOUS
370
25
370
    -3
390
F
  0
LAYER
  5
1EC
330
2
100
AcDbSymbolTableRecord
100
AcDbLayerTableRecord
  2
NOCUT
 70
     0
 62
7
  6
CONTINUOUS
370
25
370
    -3
390
F
  0
LAYER
  5
1F3
330
2
100
AcDbSymbolTableRecord
100
AcDbLayerTableRecord
  2
SK1
 70
     0
 62
4
  6
CONTINUOUS
370
50
370
    -3
390
F
  0
LAYER
  5
1FB
330
2
100
AcDbSymbolTableRecord
100
AcDbLayerTableRecord
  2
SK2
 70
     0
 62
7
  6
CONTINUOUS
370
25
370
    -3
390
F
  0
LAYER
  5
2A7
330
2
100
AcDbSymbolTableRecord
100
AcDbLayerTableRecord
  2
2
 70
     0
 62
7
  6
CONTINUOUS
370
25
370
    -3
390
F
  0
LAYER
  5
495
330
2
100
AcDbSymbolTableRecord
100
AcDbLayerTableRecord
  2
4
 70
     0
 62
2
  6
LONGDASH_DASH
370
25
370
    -3
390
F
  0
LAYER
  5
498
330
2
100
AcDbSymbolTableRecord
100
AcDbLayerTableRecord
  2
SK4
 70
     0
 62
2
  6
LONGDASH_DASH
370
25
370
    -3
390
F
  0
LAYER
  5
49A
330
2
100
AcDbSymbolTableRecord
100
AcDbLayerTableRecord
  2
SK6
 70
     0
 62
5
  6
CONTINUOUS
370
25
370
    -3
390
F
  0
ENDTAB
  0
TABLE
  2
STYLE
  5
3
330
0
100
AcDbSymbolTable
 70
     1
  0
STYLE
  5
11
330
3
100
AcDbSymbolTableRecord
100
AcDbTextStyleTableRecord
  2
Standard
 70
     0
 40
0.0
 41
1.0
 50
0.0
 71
     0
 42
2.5
  3
Monospac821 BT
  4

  0
ENDTAB
  0
TABLE
  2
VIEW
  5
6
330
0
100
AcDbSymbolTable
 70
     0
  0
ENDTAB
  0
TABLE
  2
UCS
  5
7
330
0
100
AcDbSymbolTable
 70
     0
  0
ENDTAB
  0
TABLE
  2
APPID
  5
9
330
0
100
AcDbSymbolTable
 70
     2
  0
APPID
  5
12
330
9
100
AcDbSymbolTableRecord
100
AcDbRegAppTableRecord
  2
ACAD
 70
     0
  0
APPID
  5
3F
330
9
100
AcDbSymbolTableRecord
100
AcDbRegAppTableRecord
  2
ccLab
 70
     0
  0
ENDTAB
  0
TABLE
  2
DIMSTYLE
  5
A
330
0
100
AcDbSymbolTable
 70
     1
100
AcDbDimStyleTable
  0
DIMSTYLE
105
27
330
A
100
AcDbSymbolTableRecord
100
AcDbDimStyleTableRecord
  2
ISO-25
 70
     0
 41
2.5
 42
0.625
 43
3.75
 44
1.25
 73
     0
 74
     0
 77
     1
 78
     8
140
2.5
141
2.5
143
0.03937007874016
147
0.625
171
     3
172
     1
271
     2
272
     2
274
     3
278
    44
283
     0
284
     8
340
11
  0
ENDTAB
  0
TABLE
  2
BLOCK_RECORD
  5
1
330
0
100
AcDbSymbolTable
 70
     2
  0
BLOCK_RECORD
  5
1F
330
1
100
AcDbSymbolTableRecord
100
AcDbBlockTableRecord
  2
*Model_Space
340
22
  0
BLOCK_RECORD
  5
1B
330
1
100
AcDbSymbolTableRecord
100
AcDbBlockTableRecord
  2
*Paper_Space
340
1E
  0
BLOCK_RECORD
  5
23
330
1
100
AcDbSymbolTableRecord
100
AcDbBlockTableRecord
  2
*Paper_Space0
340
26
  0
ENDTAB
  0
ENDSEC
  0
SECTION
  2
BLOCKS
  0
BLOCK
  5
20
330
1F
100
AcDbEntity
  8
0
100
AcDbBlockBegin
  2
*Model_Space
 70
     0
 10
0.0
 20
0.0
 30
0.0
  3
*Model_Space
  1

  0
ENDBLK
  5
21
330
1F
100
AcDbEntity
  8
0
100
AcDbBlockEnd
  0
BLOCK
  5
1C
330
1B
100
AcDbEntity
 67
     1
  8
0
100
AcDbBlockBegin
  2
*Paper_Space
 70
     0
 10
0.0
 20
0.0
 30
0.0
  3
*Paper_Space
  1

  0
ENDBLK
  5
1D
330
1B
100
AcDbEntity
 67
     1
  8
0
100
AcDbBlockEnd
  0
BLOCK
  5
24
330
23
100
AcDbEntity
  8
0
100
AcDbBlockBegin
  2
*Paper_Space0
 70
     0
 10
0.0
 20
0.0
 30
0.0
  3
*Paper_Space0
  1

  0
ENDBLK
  5
25
330
23
100
AcDbEntity
  8
0
100
AcDbBlockEnd
  0
ENDSEC
  0
SECTION
  2
ENTITIES
  0
LINE
  5
4A5
330
1F
100
AcDbEntity
  8
1
  6
CONTINUOUS
370
50
 62
4
100
AcDbLine
 10
44.438385
 20
0.0
 30
0.0
 11
44.43836599999999
 21
0.001684
 31
0.0
  0
LINE
  5
4A6
330
1F
100
AcDbEntity
  8
1
  6
CONTINUOUS
370
50
 62
4
100
AcDbLine
 10
44.573643
 20
0.162433
 30
0.0
 11
44.573463
 21
0.167033
 31
0.0
  0
LINE
  5
4A7
330
1F
100
AcDbEntity
  8
1
  6
CONTINUOUS
370
50
 62
4
100
AcDbLine
 10
44.972839
 20
0.092108
 30
0.0
 11
44.972679
 21
0.09474
 31
0.0
  0
LINE
  5
4A8
330
1F
100
AcDbEntity
  8
1
  6
CONTINUOUS
370
50
 62
4
100
AcDbLine
 10
44.438522
 20
-0.001985
 30
0.0
 11
44.438385
 21
0.0
 31
0.0
  0
LINE
  5
4A9
330
1F
100
AcDbEntity
  8
1
  6
CONTINUOUS
370
50
 62
4
100
AcDbLine
 10
44.438793
 20
-0.004029
 30
0.0
 11
44.438522
 21
-0.001985
 31
0.0
  0
LINE
  5
4AA
330
1F
100
AcDbEntity
  8
1
  6
CONTINUOUS
370
50
 62
4
100
AcDbLine
 10
44.573463
 20
0.167033
 30
0.0
 11
44.57288399999999
 21
0.171246
 31
0.0
  0
LINE
  5
4AB
330
1F
100
AcDbEntity
  8
1
  6
CONTINUOUS
370
50
 62
4
100
AcDbLine
 10
44.439201
 20
-0.006128
 30
0.0
 11
44.438793
 21
-0.004029
 31
0.0
  0
LINE
  5
4AC
330
1F
100
AcDbEntity
  8
1
  6
CONTINUOUS
370
50
 62
4
100
AcDbLine
 10
44.972679
 20
0.09474
 30
0.0
 11
44.972038
 21
0.097741
 31
0.0
  0
LINE
  5
4AD
330
1F
100
AcDbEntity
  8
1
  6
CONTINUOUS
370
50
 62
4
100
AcDbLine
 10
44.439743
 20
-0.008283
 30
0.0
 11
44.439201
 21
-0.006128
 31
0.0
  0
LINE
  5
4AE
330
1F
100
AcDbEntity
  8
1
  6
CONTINUOUS
370
50
 62
4
100
AcDbLine
 10
44.57288399999999
 20
0.171246
 30
0.0
 11
44.57192999999999
 21
0.175038
 31
0.0
  0
LINE
  5
4AF
330
1F
100
AcDbEntity
  8
1
  6
CONTINUOUS
370
50
 62
4
100
AcDbLine
 10
44.44043
 20
-0.010494
 30
0.0
 11
44.439743
 21
-0.008283
 31
0.0
  0
LINE
  5
4B0
330
1F
100
AcDbEntity
  8
1
  6
CONTINUOUS
370
50
 62
4
100
AcDbLine
 10
44.972038
 20
0.097741
 30
0.0
 11
44.970955
 21
0.101037
 31
0.0
  0
LINE
  5
4B1
330
1F
100
AcDbEntity
  8
1
  6
CONTINUOUS
370
50
 62
4
100
AcDbLine
 10
44.441265
 20
-0.012759
 30
0.0
 11
44.44043
 21
-0.010494
 31
0.0
  0
LINE
  5
4B2
330
1F
100
AcDbEntity
  8
1
  6
CONTINUOUS
370
50
 62
4
100
AcDbLine
 10
44.57192999999999
 20
0.175038
 30
0.0
 11
44.570629
 21
0.178402
 31
0.0
  0
LINE
  5
4B3
330
1F
100
AcDbEntity
  8
1
  6
CONTINUOUS
370
50
 62
4
100
AcDbLine
 10
44.970955
 20
0.101037
 30
0.0
 11
44.969463
 21
0.104565
 31
0.0
  0
LINE
  5
4B4
330
1F
100
AcDbEntity
  8
1
  6
CONTINUOUS
370
50
 62
4
100
AcDbLine
 10
44.442253
 20
-0.015076
 30
0.0
 11
44.441265
 21
-0.012759
 31
0.0
  0
LINE
  5
4B5
330
1F
100
AcDbEntity
  8
1
  6
CONTINUOUS
370
50
 62
4
100
AcDbLine
 10
44.443394
 20
-0.017442
 30
0.0
 11
44.442253
 21
-0.015076
 31
0.0
  0
LINE
  5
4B6
330
1F
100
AcDbEntity
  8
1
  6
CONTINUOUS
370
50
 62
4
100
AcDbLine
 10
44.532005
 20
-0.188145
 30
0.0
 11
44.531696
 21
-0.187524
 31
0.0
  0
LINE
  5
4B7
330
1F
100
AcDbEntity
  8
1
  6
CONTINUOUS
370
50
 62
4
100
AcDbLine
 10
44.969463
 20
0.104565
 30
0.0
 11
44.967602
 21
0.10826
 31
0.0
  0
LINE
  5
4B8
330
1F
100
AcDbEntity
  8
1
  6
CONTINUOUS
370
50
 62
4
100
AcDbLine
 10
44.444698
 20
-0.019856
 30
0.0
 11
44.443394
 21
-0.017442
 31
0.0
  0
LINE
  5
4B9
330
1F
100
AcDbEntity
  8
1
  6
CONTINUOUS
370
50
 62
4
100
AcDbLine
 10
44.570629
 20
0.178402
 30
0.0
 11
44.569008
 21
0.181336
 31
0.0
  0
LINE
  5
4BA
330
1F
100
AcDbEntity
  8
1
  6
CONTINUOUS
370
50
 62
4
100
AcDbLine
 10
44.967602
 20
0.10826
 30
0.0
 11
44.965374
 21
0.112119
 31
0.0
  0
LINE
  5
4BB
330
1F
100
AcDbEntity
  8
1
  6
CONTINUOUS
370
50
 62
4
100
AcDbLine
 10
44.446167
 20
-0.022314
 30
0.0
 11
44.444698
 21
-0.019856
 31
0.0
  0
LINE
  5
4BC
330
1F
100
AcDbEntity
  8
1
  6
CONTINUOUS
370
50
 62
4
100
AcDbLine
 10
44.965374
 20
0.112119
 30
0.0
 11
44.96276899999999
 21
0.116142
 31
0.0
  0
LINE
  5
4BD
330
1F
100
AcDbEntity
  8
1
  6
CONTINUOUS
370
50
 62
4
100
AcDbLine
 10
44.447807
 20
-0.024814
 30
0.0
 11
44.446167
 21
-0.022314
 31
0.0
  0
LINE
  5
4BE
330
1F
100
AcDbEntity
  8
1
  6
CONTINUOUS
370
50
 62
4
100
AcDbLine
 10
44.96276899999999
 20
0.116142
 30
0.0
 11
44.959785
 21
0.120296
 31
0.0
  0
LINE
  5
4BF
330
1F
100
AcDbEntity
  8
1
  6
CONTINUOUS
370
50
 62
4
100
AcDbLine
 10
44.569008
 20
0.181336
 30
0.0
 11
44.567089
 21
0.183837
 31
0.0
  0
LINE
  5
4C0
330
1F
100
AcDbEntity
  8
1
  6
CONTINUOUS
370
50
 62
4
100
AcDbLine
 10
44.959785
 20
0.120296
 30
0.0
 11
44.956505
 21
0.124453
 31
0.0
  0
LINE
  5
4C1
330
1F
100
AcDbEntity
  8
1
  6
CONTINUOUS
370
50
 62
4
100
AcDbLine
 10
44.457539
 20
-0.036904
 30
0.0
 11
44.447807
 21
-0.024814
 31
0.0
  0
LINE
  5
4C2
330
1F
100
AcDbEntity
  8
1
  6
CONTINUOUS
370
50
 62
4
100
AcDbLine
 10
44.956505
 20
0.124453
 30
0.0
 11
44.952869
 21
0.128677
 31
0.0
  0
LINE
  5
4C3
330
1F
100
AcDbEntity
  8
1
  6
CONTINUOUS
370
50
 62
4
100
AcDbLine
 10
44.467876
 20
-0.04835
 30
0.0
 11
44.457539
 21
-0.036904
 31
0.0
  0
LINE
  5
4C4
330
1F
100
AcDbEntity
  8
1
  6
CONTINUOUS
370
50
 62
4
100
AcDbLine
 10
44.952869
 20
0.128677
 30
0.0
 11
44.948879
 21
0.132938
 31
0.0
  0
LINE
  5
4C5
330
1F
100
AcDbEntity
  8
1
  6
CONTINUOUS
370
50
 62
4
100
AcDbLine
 10
44.573719
 20
0.176876
 30
0.0
 11
44.567089
 21
0.183837
 31
0.0
  0
LINE
  5
4C6
330
1F
100
AcDbEntity
  8
1
  6
CONTINUOUS
370
50
 62
4
100
AcDbLine
 10
44.567089
 20
0.183837
 30
0.0
 11
44.56551
 21
0.18539
 31
0.0
  0
LINE
  5
4C7
330
1F
100
AcDbEntity
  8
1
  6
CONTINUOUS
370
50
 62
4
100
AcDbLine
 10
44.948879
 20
0.132938
 30
0.0
 11
44.94453
 21
0.137205
 31
0.0
  0
LINE
  5
4C8
330
1F
100
AcDbEntity
  8
1
  6
CONTINUOUS
370
50
 62
4
100
AcDbLine
 10
44.478825
 20
-0.059056
 30
0.0
 11
44.467876
 21
-0.04835
 31
0.0
  0
LINE
  5
4C9
330
1F
100
AcDbEntity
  8
1
  6
CONTINUOUS
370
50
 62
4
100
AcDbLine
 10
44.581585
 20
0.169424
 30
0.0
 11
44.573719
 21
0.176876
 31
0.0
  0
LINE
  5
4CA
330
1F
100
AcDbEntity
  8
1
  6
CONTINUOUS
370
50
 62
4
100
AcDbLine
 10
44.94453
 20
0.137205
 30
0.0
 11
44.939835
 21
0.141446
 31
0.0
  0
LINE
  5
4CB
330
1F
100
AcDbEntity
  8
1
  6
CONTINUOUS
370
50
 62
4
100
AcDbLine
 10
44.590164
 20
0.162051
 30
0.0
 11
44.581585
 21
0.169424
 31
0.0
  0
LINE
  5
4CC
330
1F
100
AcDbEntity
  8
1
  6
CONTINUOUS
370
50
 62
4
100
AcDbLine
 10
44.490398
 20
-0.068973
 30
0.0
 11
44.478825
 21
-0.059056
 31
0.0
  0
LINE
  5
4CD
330
1F
100
AcDbEntity
  8
1
  6
CONTINUOUS
370
50
 62
4
100
AcDbLine
 10
44.939835
 20
0.141446
 30
0.0
 11
44.934872
 21
0.145561
 31
0.0
  0
LINE
  5
4CE
330
1F
100
AcDbEntity
  8
1
  6
CONTINUOUS
370
50
 62
4
100
AcDbLine
 10
44.532673
 20
-0.188672
 30
0.0
 11
44.532005
 21
-0.188145
 31
0.0
  0
LINE
  5
4CF
330
1F
100
AcDbEntity
  8
1
  6
CONTINUOUS
370
50
 62
4
100
AcDbLine
 10
44.599796
 20
0.154516
 30
0.0
 11
44.590164
 21
0.162051
 31
0.0
  0
LINE
  5
4D0
330
1F
100
AcDbEntity
  8
1
  6
CONTINUOUS
370
50
 62
4
100
AcDbLine
 10
44.56551
 20
0.18539
 30
0.0
 11
44.563789
 21
0.186713
 31
0.0
  0
LINE
  5
4D1
330
1F
100
AcDbEntity
  8
1
  6
CONTINUOUS
370
50
 62
4
100
AcDbLine
 10
44.934872
 20
0.145561
 30
0.0
 11
44.929691
 21
0.149504
 31
0.0
  0
LINE
  5
4D2
330
1F
100
AcDbEntity
  8
1
  6
CONTINUOUS
370
50
 62
4
100
AcDbLine
 10
44.502567
 20
-0.078056
 30
0.0
 11
44.490398
 21
-0.068973
 31
0.0
  0
LINE
  5
4D3
330
1F
100
AcDbEntity
  8
1
  6
CONTINUOUS
370
50
 62
4
100
AcDbLine
 10
44.610268
 20
0.147054
 30
0.0
 11
44.599796
 21
0.154516
 31
0.0
  0
LINE
  5
4D4
330
1F
100
AcDbEntity
  8
1
  6
CONTINUOUS
370
50
 62
4
100
AcDbLine
 10
44.929691
 20
0.149504
 30
0.0
 11
44.924305
 21
0.153258
 31
0.0
  0
LINE
  5
4D5
330
1F
100
AcDbEntity
  8
1
  6
CONTINUOUS
370
50
 62
4
100
AcDbLine
 10
44.621609
 20
0.139696
 30
0.0
 11
44.610268
 21
0.147054
 31
0.0
  0
LINE
  5
4D6
330
1F
100
AcDbEntity
  8
1
  6
CONTINUOUS
370
50
 62
4
100
AcDbLine
 10
44.515274
 20
-0.086282
 30
0.0
 11
44.502567
 21
-0.078056
 31
0.0
  0
LINE
  5
4D7
330
1F
100
AcDbEntity
  8
1
  6
CONTINUOUS
370
50
 62
4
100
AcDbLine
 10
44.924305
 20
0.153258
 30
0.0
 11
44.91872
 21
0.156806
 31
0.0
  0
LINE
  5
4D8
330
1F
100
AcDbEntity
  8
1
  6
CONTINUOUS
370
50
 62
4
100
AcDbLine
 10
44.632572
 20
0.133206
 30
0.0
 11
44.621609
 21
0.139696
 31
0.0
  0
LINE
  5
4D9
330
1F
100
AcDbEntity
  8
1
  6
CONTINUOUS
370
50
 62
4
100
AcDbLine
 10
44.563789
 20
0.186713
 30
0.0
 11
44.561932
 21
0.187805
 31
0.0
  0
LINE
  5
4DA
330
1F
100
AcDbEntity
  8
1
  6
CONTINUOUS
370
50
 62
4
100
AcDbLine
 10
44.91872
 20
0.156806
 30
0.0
 11
44.912956
 21
0.160132
 31
0.0
  0
LINE
  5
4DB
330
1F
100
AcDbEntity
  8
1
  6
CONTINUOUS
370
50
 62
4
100
AcDbLine
 10
44.528496
 20
-0.09368
 30
0.0
 11
44.515274
 21
-0.086282
 31
0.0
  0
LINE
  5
4DC
330
1F
100
AcDbEntity
  8
1
  6
CONTINUOUS
370
50
 62
4
100
AcDbLine
 10
44.64407
 20
0.126987
 30
0.0
 11
44.632572
 21
0.133206
 31
0.0
  0
LINE
  5
4DD
330
1F
100
AcDbEntity
  8
1
  6
CONTINUOUS
370
50
 62
4
100
AcDbLine
 10
44.912956
 20
0.160132
 30
0.0
 11
44.907341
 21
0.163041
 31
0.0
  0
LINE
  5
4DE
330
1F
100
AcDbEntity
  8
1
  6
CONTINUOUS
370
50
 62
4
100
AcDbLine
 10
44.64624
 20
0.125876
 30
0.0
 11
44.64407
 21
0.126987
 31
0.0
  0
LINE
  5
4DF
330
1F
100
AcDbEntity
  8
1
  6
CONTINUOUS
370
50
 62
4
100
AcDbLine
 10
44.710991
 20
-0.102448
 30
0.0
 11
44.700001
 21
-0.097086
 31
0.0
  0
LINE
  5
4E0
330
1F
100
AcDbEntity
  8
1
  6
CONTINUOUS
370
50
 62
4
100
AcDbLine
 10
44.54216
 20
-0.100267
 30
0.0
 11
44.528496
 21
-0.09368
 31
0.0
  0
LINE
  5
4E1
330
1F
100
AcDbEntity
  8
1
  6
CONTINUOUS
370
50
 62
4
100
AcDbLine
 10
44.659317
 20
0.119583
 30
0.0
 11
44.64624
 21
0.125876
 31
0.0
  0
LINE
  5
4E2
330
1F
100
AcDbEntity
  8
1
  6
CONTINUOUS
370
50
 62
4
100
AcDbLine
 10
44.722008
 20
-0.107727
 30
0.0
 11
44.710991
 21
-0.102448
 31
0.0
  0
LINE
  5
4E3
330
1F
100
AcDbEntity
  8
1
  6
CONTINUOUS
370
50
 62
4
100
AcDbLine
 10
44.73304
 20
-0.112918
 30
0.0
 11
44.722008
 21
-0.107727
 31
0.0
  0
LINE
  5
4E4
330
1F
100
AcDbEntity
  8
1
  6
CONTINUOUS
370
50
 62
4
100
AcDbLine
 10
44.74408
 20
-0.118017
 30
0.0
 11
44.73304
 21
-0.112918
 31
0.0
  0
LINE
  5
4E5
330
1F
100
AcDbEntity
  8
1
  6
CONTINUOUS
370
50
 62
4
100
AcDbLine
 10
44.907341
 20
0.163041
 30
0.0
 11
44.901646
 21
0.165656
 31
0.0
  0
LINE
  5
4E6
330
1F
100
AcDbEntity
  8
1
  6
CONTINUOUS
370
50
 62
4
100
AcDbLine
 10
44.755119
 20
-0.123018
 30
0.0
 11
44.74408
 21
-0.118017
 31
0.0
  0
LINE
  5
4E7
330
1F
100
AcDbEntity
  8
1
  6
CONTINUOUS
370
50
 62
4
100
AcDbLine
 10
44.766144
 20
-0.127916
 30
0.0
 11
44.755119
 21
-0.123018
 31
0.0
  0
LINE
  5
4E8
330
1F
100
AcDbEntity
  8
1
  6
CONTINUOUS
370
50
 62
4
100
AcDbLine
 10
44.561932
 20
0.187805
 30
0.0
 11
44.55994399999999
 21
0.188671
 31
0.0
  0
LINE
  5
4E9
330
1F
100
AcDbEntity
  8
1
  6
CONTINUOUS
370
50
 62
4
100
AcDbLine
 10
44.777149
 20
-0.132704
 30
0.0
 11
44.766144
 21
-0.127916
 31
0.0
  0
LINE
  5
4EA
330
1F
100
AcDbEntity
  8
1
  6
CONTINUOUS
370
50
 62
4
100
AcDbLine
 10
44.672733
 20
0.113808
 30
0.0
 11
44.659317
 21
0.119583
 31
0.0
  0
LINE
  5
4EB
330
1F
100
AcDbEntity
  8
1
  6
CONTINUOUS
370
50
 62
4
100
AcDbLine
 10
44.714272
 20
-0.135805
 30
0.0
 11
44.700001
 21
-0.129819
 31
0.0
  0
LINE
  5
4EC
330
1F
100
AcDbEntity
  8
1
  6
CONTINUOUS
370
50
 62
4
100
AcDbLine
 10
44.55621
 20
-0.106075
 30
0.0
 11
44.54216
 21
-0.100267
 31
0.0
  0
LINE
  5
4ED
330
1F
100
AcDbEntity
  8
1
  6
CONTINUOUS
370
50
 62
4
100
AcDbLine
 10
44.533718
 20
-0.189103
 30
0.0
 11
44.532673
 21
-0.188672
 31
0.0
  0
LINE
  5
4EE
330
1F
100
AcDbEntity
  8
1
  6
CONTINUOUS
370
50
 62
4
100
AcDbLine
 10
44.72858799999999
 20
-0.141594
 30
0.0
 11
44.714272
 21
-0.135805
 31
0.0
  0
LINE
  5
4EF
330
1F
100
AcDbEntity
  8
1
  6
CONTINUOUS
370
50
 62
4
100
AcDbLine
 10
44.901646
 20
0.165656
 30
0.0
 11
44.89584
 21
0.167988
 31
0.0
  0
LINE
  5
4F0
330
1F
100
AcDbEntity
  8
1
  6
CONTINUOUS
370
50
 62
4
100
AcDbLine
 10
44.678123
 20
0.111673
 30
0.0
 11
44.672733
 21
0.113808
 31
0.0
  0
LINE
  5
4F1
330
1F
100
AcDbEntity
  8
1
  6
CONTINUOUS
370
50
 62
4
100
AcDbLine
 10
44.74292
 20
-0.147176
 30
0.0
 11
44.72858799999999
 21
-0.141594
 31
0.0
  0
LINE
  5
4F2
330
1F
100
AcDbEntity
  8
1
  6
CONTINUOUS
370
50
 62
4
100
AcDbLine
 10
44.757248
 20
-0.152541
 30
0.0
 11
44.74292
 21
-0.147176
 31
0.0
  0
LINE
  5
4F3
330
1F
100
AcDbEntity
  8
1
  6
CONTINUOUS
370
50
 62
4
100
AcDbLine
 10
44.689068
 20
0.107661
 30
0.0
 11
44.678123
 21
0.111673
 31
0.0
  0
LINE
  5
4F4
330
1F
100
AcDbEntity
  8
1
  6
CONTINUOUS
370
50
 62
4
100
AcDbLine
 10
44.771553
 20
-0.157679
 30
0.0
 11
44.757248
 21
-0.152541
 31
0.0
  0
LINE
  5
4F5
330
1F
100
AcDbEntity
  8
1
  6
CONTINUOUS
370
50
 62
4
100
AcDbLine
 10
44.612839
 20
0.145764
 30
0.0
 11
44.611286
 21
0.146314
 31
0.0
  0
LINE
  5
4F6
330
1F
100
AcDbEntity
  8
1
  6
CONTINUOUS
370
50
 62
4
100
AcDbLine
 10
44.570614
 20
-0.111149
 30
0.0
 11
44.55621
 21
-0.106075
 31
0.0
  0
LINE
  5
4F7
330
1F
100
AcDbEntity
  8
1
  6
CONTINUOUS
370
50
 62
4
100
AcDbLine
 10
44.614407
 20
0.145218
 30
0.0
 11
44.612839
 21
0.145764
 31
0.0
  0
LINE
  5
4F8
330
1F
100
AcDbEntity
  8
1
  6
CONTINUOUS
370
50
 62
4
100
AcDbLine
 10
44.615982
 20
0.144674
 30
0.0
 11
44.614407
 21
0.145218
 31
0.0
  0
LINE
  5
4F9
330
1F
100
AcDbEntity
  8
1
  6
CONTINUOUS
370
50
 62
4
100
AcDbLine
 10
44.89584
 20
0.167988
 30
0.0
 11
44.889694
 21
0.17011
 31
0.0
  0
LINE
  5
4FA
330
1F
100
AcDbEntity
  8
1
  6
CONTINUOUS
370
50
 62
4
100
AcDbLine
 10
44.785812
 20
-0.162581
 30
0.0
 11
44.771553
 21
-0.157679
 31
0.0
  0
LINE
  5
4FB
330
1F
100
AcDbEntity
  8
1
  6
CONTINUOUS
370
50
 62
4
100
AcDbLine
 10
44.617569
 20
0.144133
 30
0.0
 11
44.615982
 21
0.144674
 31
0.0
  0
LINE
  5
4FC
330
1F
100
AcDbEntity
  8
1
  6
CONTINUOUS
370
50
 62
4
100
AcDbLine
 10
44.619167
 20
0.143596
 30
0.0
 11
44.617569
 21
0.144133
 31
0.0
  0
LINE
  5
4FD
330
1F
100
AcDbEntity
  8
1
  6
CONTINUOUS
370
50
 62
4
100
AcDbLine
 10
44.620773
 20
0.143062
 30
0.0
 11
44.619167
 21
0.143596
 31
0.0
  0
LINE
  5
4FE
330
1F
100
AcDbEntity
  8
1
  6
CONTINUOUS
370
50
 62
4
100
AcDbLine
 10
44.799999
 20
-0.167236
 30
0.0
 11
44.785812
 21
-0.162581
 31
0.0
  0
LINE
  5
4FF
330
1F
100
AcDbEntity
  8
1
  6
CONTINUOUS
370
50
 62
4
100
AcDbLine
 10
44.700001
 20
0.104075
 30
0.0
 11
44.689068
 21
0.107661
 31
0.0
  0
LINE
  5
500
330
1F
100
AcDbEntity
  8
1
  6
CONTINUOUS
370
50
 62
4
100
AcDbLine
 10
44.631622
 20
0.139588
 30
0.0
 11
44.620773
 21
0.143062
 31
0.0
  0
LINE
  5
501
330
1F
100
AcDbEntity
  8
1
  6
CONTINUOUS
370
50
 62
4
100
AcDbLine
 10
44.55994399999999
 20
0.188671
 30
0.0
 11
44.557831
 21
0.189312
 31
0.0
  0
LINE
  5
502
330
1F
100
AcDbEntity
  8
1
  6
CONTINUOUS
370
50
 62
4
100
AcDbLine
 10
44.642635
 20
0.136288
 30
0.0
 11
44.631622
 21
0.139588
 31
0.0
  0
LINE
  5
503
330
1F
100
AcDbEntity
  8
1
  6
CONTINUOUS
370
50
 62
4
100
AcDbLine
 10
44.585339
 20
-0.115534
 30
0.0
 11
44.570614
 21
-0.111149
 31
0.0
  0
LINE
  5
504
330
1F
100
AcDbEntity
  8
1
  6
CONTINUOUS
370
50
 62
4
100
AcDbLine
 10
44.808929
 20
-0.169871
 30
0.0
 11
44.799999
 21
-0.167236
 31
0.0
  0
LINE
  5
505
330
1F
100
AcDbEntity
  8
1
  6
CONTINUOUS
370
50
 62
4
100
AcDbLine
 10
44.889694
 20
0.17011
 30
0.0
 11
44.883133
 21
0.171984
 31
0.0
  0
LINE
  5
506
330
1F
100
AcDbEntity
  8
1
  6
CONTINUOUS
370
50
 62
4
100
AcDbLine
 10
44.653809
 20
0.133182
 30
0.0
 11
44.642635
 21
0.136288
 31
0.0
  0
LINE
  5
507
330
1F
100
AcDbEntity
  8
1
  6
CONTINUOUS
370
50
 62
4
100
AcDbLine
 10
44.908764
 20
0.055725
 30
0.0
 11
44.864567
 21
0.067166
 31
0.0
  0
LINE
  5
508
330
1F
100
AcDbEntity
  8
1
  6
CONTINUOUS
370
50
 62
4
100
AcDbLine
 10
44.665138
 20
0.130287
 30
0.0
 11
44.653809
 21
0.133182
 31
0.0
  0
LINE
  5
509
330
1F
100
AcDbEntity
  8
1
  6
CONTINUOUS
370
50
 62
4
100
AcDbLine
 10
43.0
 20
0.18995
 30
0.0
 11
35.900002
 21
1.99995
 31
0.0
  0
LINE
  5
50A
330
1F
100
AcDbEntity
  8
1
  6
CONTINUOUS
370
50
 62
4
100
AcDbLine
 10
44.962627
 20
0.042054
 30
0.0
 11
44.908764
 21
0.055725
 31
0.0
  0
LINE
  5
50B
330
1F
100
AcDbEntity
  8
1
  6
CONTINUOUS
370
50
 62
4
100
AcDbLine
 10
44.817829
 20
-0.172056
 30
0.0
 11
44.808929
 21
-0.169871
 31
0.0
  0
LINE
  5
50C
330
1F
100
AcDbEntity
  8
1
  6
CONTINUOUS
370
50
 62
4
100
AcDbLine
 10
44.864567
 20
0.067166
 30
0.0
 11
44.826065
 21
0.076554
 31
0.0
  0
LINE
  5
50D
330
1F
100
AcDbEntity
  8
1
  6
CONTINUOUS
370
50
 62
4
100
AcDbLine
 10
44.535126
 20
-0.189434
 30
0.0
 11
44.533718
 21
-0.189103
 31
0.0
  0
LINE
  5
50E
330
1F
100
AcDbEntity
  8
1
  6
CONTINUOUS
370
50
 62
4
100
AcDbLine
 10
44.676617
 20
0.127623
 30
0.0
 11
44.665138
 21
0.130287
 31
0.0
  0
LINE
  5
50F
330
1F
100
AcDbEntity
  8
1
  6
CONTINUOUS
370
50
 62
4
100
AcDbLine
 10
44.883133
 20
0.171984
 30
0.0
 11
44.876217
 21
0.173561
 31
0.0
  0
LINE
  5
510
330
1F
100
AcDbEntity
  8
1
  6
CONTINUOUS
370
50
 62
4
100
AcDbLine
 10
44.590302
 20
-0.116633
 30
0.0
 11
44.585339
 21
-0.115534
 31
0.0
  0
LINE
  5
511
330
1F
100
AcDbEntity
  8
1
  6
CONTINUOUS
370
50
 62
4
100
AcDbLine
 10
44.68824
 20
0.125208
 30
0.0
 11
44.676617
 21
0.127623
 31
0.0
  0
LINE
  5
512
330
1F
100
AcDbEntity
  8
1
  6
CONTINUOUS
370
50
 62
4
100
AcDbLine
 10
44.826065
 20
0.076554
 30
0.0
 11
44.784718
 21
0.084853
 31
0.0
  0
LINE
  5
513
330
1F
100
AcDbEntity
  8
1
  6
CONTINUOUS
370
50
 62
4
100
AcDbLine
 10
44.826691
 20
-0.17377
 30
0.0
 11
44.817829
 21
-0.172056
 31
0.0
  0
LINE
  5
514
330
1F
100
AcDbEntity
  8
1
  6
CONTINUOUS
370
50
 62
4
100
AcDbLine
 10
44.557831
 20
0.189312
 30
0.0
 11
44.555595
 21
0.189731
 31
0.0
  0
LINE
  5
515
330
1F
100
AcDbEntity
  8
1
  6
CONTINUOUS
370
50
 62
4
100
AcDbLine
 10
44.59531399999999
 20
-0.117563
 30
0.0
 11
44.590302
 21
-0.116633
 31
0.0
  0
LINE
  5
516
330
1F
100
AcDbEntity
  8
1
  6
CONTINUOUS
370
50
 62
4
100
AcDbLine
 10
44.700001
 20
0.123061
 30
0.0
 11
44.68824
 21
0.125208
 31
0.0
  0
LINE
  5
517
330
1F
100
AcDbEntity
  8
1
  6
CONTINUOUS
370
50
 62
4
100
AcDbLine
 10
44.876217
 20
0.173561
 30
0.0
 11
44.868866
 21
0.174777
 31
0.0
  0
LINE
  5
518
330
1F
100
AcDbEntity
  8
1
  6
CONTINUOUS
370
50
 62
4
100
AcDbLine
 10
44.970135
 20
0.087238
 30
0.0
 11
44.961056
 21
0.088739
 31
0.0
  0
LINE
  5
519
330
1F
100
AcDbEntity
  8
1
  6
CONTINUOUS
370
50
 62
4
100
AcDbLine
 10
44.784718
 20
0.084853
 30
0.0
 11
44.74184
 21
0.091669
 31
0.0
  0
LINE
  5
51A
330
1F
100
AcDbEntity
  8
1
  6
CONTINUOUS
370
50
 62
4
100
AcDbLine
 10
44.961056
 20
0.088739
 30
0.0
 11
44.951973
 21
0.090165
 31
0.0
  0
LINE
  5
51B
330
1F
100
AcDbEntity
  8
1
  6
CONTINUOUS
370
50
 62
4
100
AcDbLine
 10
44.951973
 20
0.090165
 30
0.0
 11
44.942894
 21
0.091534
 31
0.0
  0
LINE
  5
51C
330
1F
100
AcDbEntity
  8
1
  6
CONTINUOUS
370
50
 62
4
100
AcDbLine
 10
44.600365
 20
-0.118324
 30
0.0
 11
44.59531399999999
 21
-0.117563
 31
0.0
  0
LINE
  5
51D
330
1F
100
AcDbEntity
  8
1
  6
CONTINUOUS
370
50
 62
4
100
AcDbLine
 10
44.942894
 20
0.091534
 30
0.0
 11
44.933815
 21
0.092844
 31
0.0
  0
LINE
  5
51E
330
1F
100
AcDbEntity
  8
1
  6
CONTINUOUS
370
50
 62
4
100
AcDbLine
 10
44.835506
 20
-0.174997
 30
0.0
 11
44.826691
 21
-0.17377
 31
0.0
  0
LINE
  5
51F
330
1F
100
AcDbEntity
  8
1
  6
CONTINUOUS
370
50
 62
4
100
AcDbLine
 10
44.933815
 20
0.092844
 30
0.0
 11
44.924732
 21
0.094094
 31
0.0
  0
LINE
  5
520
330
1F
100
AcDbEntity
  8
1
  6
CONTINUOUS
370
50
 62
4
100
AcDbLine
 10
44.536896
 20
-0.189675
 30
0.0
 11
44.535126
 21
-0.189434
 31
0.0
  0
LINE
  5
521
330
1F
100
AcDbEntity
  8
1
  6
CONTINUOUS
370
50
 62
4
100
AcDbLine
 10
44.924732
 20
0.094094
 30
0.0
 11
44.915653
 21
0.095283
 31
0.0
  0
LINE
  5
522
330
1F
100
AcDbEntity
  8
1
  6
CONTINUOUS
370
50
 62
4
100
AcDbLine
 10
44.74184
 20
0.091669
 30
0.0
 11
44.700001
 21
0.09697
 31
0.0
  0
LINE
  5
523
330
1F
100
AcDbEntity
  8
1
  6
CONTINUOUS
370
50
 62
4
100
AcDbLine
 10
44.915653
 20
0.095283
 30
0.0
 11
44.891247
 21
0.098172
 31
0.0
  0
LINE
  5
524
330
1F
100
AcDbEntity
  8
1
  6
CONTINUOUS
370
50
 62
4
100
AcDbLine
 10
44.605453
 20
-0.118914
 30
0.0
 11
44.600365
 21
-0.118324
 31
0.0
  0
LINE
  5
525
330
1F
100
AcDbEntity
  8
1
  6
CONTINUOUS
370
50
 62
4
100
AcDbLine
 10
44.868866
 20
0.174777
 30
0.0
 11
44.861103
 21
0.17558
 31
0.0
  0
LINE
  5
526
330
1F
100
AcDbEntity
  8
1
  6
CONTINUOUS
370
50
 62
4
100
AcDbLine
 10
44.891247
 20
0.098172
 30
0.0
 11
44.86684
 21
0.1006
 31
0.0
  0
LINE
  5
527
330
1F
100
AcDbEntity
  8
1
  6
CONTINUOUS
370
50
 62
4
100
AcDbLine
 10
44.844265
 20
-0.175718
 30
0.0
 11
44.835506
 21
-0.174997
 31
0.0
  0
LINE
  5
528
330
1F
100
AcDbEntity
  8
1
  6
CONTINUOUS
370
50
 62
4
100
AcDbLine
 10
44.610577
 20
-0.119333
 30
0.0
 11
44.605453
 21
-0.118914
 31
0.0
  0
LINE
  5
529
330
1F
100
AcDbEntity
  8
1
  6
CONTINUOUS
370
50
 62
4
100
AcDbLine
 10
44.86684
 20
0.1006
 30
0.0
 11
44.842438
 21
0.102548
 31
0.0
  0
LINE
  5
52A
330
1F
100
AcDbEntity
  8
1
  6
CONTINUOUS
370
50
 62
4
100
AcDbLine
 10
44.539013
 20
-0.189835
 30
0.0
 11
44.536896
 21
-0.189675
 31
0.0
  0
LINE
  5
52B
330
1F
100
AcDbEntity
  8
1
  6
CONTINUOUS
370
50
 62
4
100
AcDbLine
 10
45.0
 20
0.0
 30
0.0
 11
44.993969
 21
0.00043
 31
0.0
  0
LINE
  5
52C
330
1F
100
AcDbEntity
  8
1
  6
CONTINUOUS
370
50
 62
4
100
AcDbLine
 10
44.842438
 20
0.102548
 30
0.0
 11
44.818031
 21
0.103946
 31
0.0
  0
LINE
  5
52D
330
1F
100
AcDbEntity
  8
1
  6
CONTINUOUS
370
50
 62
4
100
AcDbLine
 10
44.615719
 20
-0.119581
 30
0.0
 11
44.610577
 21
-0.119333
 31
0.0
  0
LINE
  5
52E
330
1F
100
AcDbEntity
  8
1
  6
CONTINUOUS
370
50
 62
4
100
AcDbLine
 10
44.861103
 20
0.17558
 30
0.0
 11
44.852917
 21
0.175913
 31
0.0
  0
LINE
  5
52F
330
1F
100
AcDbEntity
  8
1
  6
CONTINUOUS
370
50
 62
4
100
AcDbLine
 10
44.541477
 20
-0.189924
 30
0.0
 11
44.539013
 21
-0.189835
 31
0.0
  0
LINE
  5
530
330
1F
100
AcDbEntity
  8
1
  6
CONTINUOUS
370
50
 62
4
100
AcDbLine
 10
44.818031
 20
0.103946
 30
0.0
 11
44.793625
 21
0.104788
 31
0.0
  0
LINE
  5
531
330
1F
100
AcDbEntity
  8
1
  6
CONTINUOUS
370
50
 62
4
100
AcDbLine
 10
44.555595
 20
0.189731
 30
0.0
 11
44.553532
 21
0.18979
 31
0.0
  0
LINE
  5
532
330
1F
100
AcDbEntity
  8
1
  6
CONTINUOUS
370
50
 62
4
100
AcDbLine
 10
44.553532
 20
0.18979
 30
0.0
 11
44.551529
 21
0.189843
 31
0.0
  0
LINE
  5
533
330
1F
100
AcDbEntity
  8
1
  6
CONTINUOUS
370
50
 62
4
100
AcDbLine
 10
44.551529
 20
0.189843
 30
0.0
 11
44.549595
 21
0.189887
 31
0.0
  0
LINE
  5
534
330
1F
100
AcDbEntity
  8
1
  6
CONTINUOUS
370
50
 62
4
100
AcDbLine
 10
44.852863
 20
-0.175913
 30
0.0
 11
44.844265
 21
-0.175718
 31
0.0
  0
LINE
  5
535
330
1F
100
AcDbEntity
  8
1
  6
CONTINUOUS
370
50
 62
4
100
AcDbLine
 10
44.549595
 20
0.189887
 30
0.0
 11
44.547729
 21
0.189922
 31
0.0
  0
LINE
  5
536
330
1F
100
AcDbEntity
  8
1
  6
CONTINUOUS
370
50
 62
4
100
AcDbLine
 10
44.620872
 20
-0.119652
 30
0.0
 11
44.615719
 21
-0.119581
 31
0.0
  0
LINE
  5
537
330
1F
100
AcDbEntity
  8
1
  6
CONTINUOUS
370
50
 62
4
100
AcDbLine
 10
44.547729
 20
0.189922
 30
0.0
 11
44.54593999999999
 21
0.189944
 31
0.0
  0
LINE
  5
538
330
1F
100
AcDbEntity
  8
1
  6
CONTINUOUS
370
50
 62
4
100
AcDbLine
 10
44.793625
 20
0.104788
 30
0.0
 11
44.769222
 21
0.105085
 31
0.0
  0
LINE
  5
539
330
1F
100
AcDbEntity
  8
1
  6
CONTINUOUS
370
50
 62
4
100
AcDbLine
 10
44.544231
 20
-0.189951
 30
0.0
 11
44.541477
 21
-0.189924
 31
0.0
  0
LINE
  5
53A
330
1F
100
AcDbEntity
  8
1
  6
CONTINUOUS
370
50
 62
4
100
AcDbLine
 10
44.54593999999999
 20
0.189944
 30
0.0
 11
44.544231
 21
0.189951
 31
0.0
  0
LINE
  5
53B
330
1F
100
AcDbEntity
  8
1
  6
CONTINUOUS
370
50
 62
4
100
AcDbLine
 10
44.722221
 20
0.105256
 30
0.0
 11
44.710865
 21
0.105294
 31
0.0
  0
LINE
  5
53C
330
1F
100
AcDbEntity
  8
1
  6
CONTINUOUS
370
50
 62
4
100
AcDbLine
 10
44.748287
 20
0.105171
 30
0.0
 11
44.735199
 21
0.105214
 31
0.0
  0
LINE
  5
53D
330
1F
100
AcDbEntity
  8
1
  6
CONTINUOUS
370
50
 62
4
100
AcDbLine
 10
44.735199
 20
0.105214
 30
0.0
 11
44.722221
 21
0.105256
 31
0.0
  0
LINE
  5
53E
330
1F
100
AcDbEntity
  8
1
  6
CONTINUOUS
370
50
 62
4
100
AcDbLine
 10
44.710865
 20
0.105294
 30
0.0
 11
44.699997
 21
0.105329
 31
0.0
  0
LINE
  5
53F
330
1F
100
AcDbEntity
  8
1
  6
CONTINUOUS
370
50
 62
4
100
AcDbLine
 10
44.759094
 20
0.105137
 30
0.0
 11
44.748287
 21
0.105171
 31
0.0
  0
LINE
  5
540
330
1F
100
AcDbEntity
  8
1
  6
CONTINUOUS
370
50
 62
4
100
AcDbLine
 10
44.76923
 20
0.105107
 30
0.0
 11
44.759094
 21
0.105137
 31
0.0
  0
LINE
  5
541
330
1F
100
AcDbEntity
  8
1
  6
CONTINUOUS
370
50
 62
4
100
AcDbLine
 10
43.0
 20
-0.18995
 30
0.0
 11
44.544228
 21
-0.18995
 31
0.0
  0
LINE
  5
542
330
1F
100
AcDbEntity
  8
1
  6
CONTINUOUS
370
50
 62
4
100
AcDbLine
 10
43.0
 20
0.18995
 30
0.0
 11
44.544228
 21
0.18995
 31
0.0
  0
LINE
  5
543
330
1F
100
AcDbEntity
  8
1
  6
CONTINUOUS
370
50
 62
4
100
AcDbLine
 10
44.544231
 20
-0.189951
 30
0.0
 11
44.54593999999999
 21
-0.189944
 31
0.0
  0
LINE
  5
544
330
1F
100
AcDbEntity
  8
1
  6
CONTINUOUS
370
50
 62
4
100
AcDbLine
 10
44.54593999999999
 20
-0.189944
 30
0.0
 11
44.547729
 21
-0.189922
 31
0.0
  0
LINE
  5
545
330
1F
100
AcDbEntity
  8
1
  6
CONTINUOUS
370
50
 62
4
100
AcDbLine
 10
44.826279
 20
-0.13143
 30
0.0
 11
44.83446499999999
 21
-0.131301
 31
0.0
  0
LINE
  5
546
330
1F
100
AcDbEntity
  8
1
  6
CONTINUOUS
370
50
 62
4
100
AcDbLine
 10
44.818085
 20
-0.131582
 30
0.0
 11
44.826279
 21
-0.13143
 31
0.0
  0
LINE
  5
547
330
1F
100
AcDbEntity
  8
1
  6
CONTINUOUS
370
50
 62
4
100
AcDbLine
 10
44.547729
 20
-0.189922
 30
0.0
 11
44.549595
 21
-0.189887
 31
0.0
  0
LINE
  5
548
330
1F
100
AcDbEntity
  8
1
  6
CONTINUOUS
370
50
 62
4
100
AcDbLine
 10
44.620872
 20
-0.119652
 30
0.0
 11
44.626022
 21
-0.119545
 31
0.0
  0
LINE
  5
549
330
1F
100
AcDbEntity
  8
1
  6
CONTINUOUS
370
50
 62
4
100
AcDbLine
 10
44.809895
 20
-0.131757
 30
0.0
 11
44.818085
 21
-0.131582
 31
0.0
  0
LINE
  5
54A
330
1F
100
AcDbEntity
  8
1
  6
CONTINUOUS
370
50
 62
4
100
AcDbLine
 10
44.844311
 20
0.175721
 30
0.0
 11
44.852917
 21
0.175913
 31
0.0
  0
LINE
  5
54B
330
1F
100
AcDbEntity
  8
1
  6
CONTINUOUS
370
50
 62
4
100
AcDbLine
 10
44.549595
 20
-0.189887
 30
0.0
 11
44.551529
 21
-0.189843
 31
0.0
  0
LINE
  5
54C
330
1F
100
AcDbEntity
  8
1
  6
CONTINUOUS
370
50
 62
4
100
AcDbLine
 10
44.801701
 20
-0.131955
 30
0.0
 11
44.809895
 21
-0.131757
 31
0.0
  0
LINE
  5
54D
330
1F
100
AcDbEntity
  8
1
  6
CONTINUOUS
370
50
 62
4
100
AcDbLine
 10
44.551529
 20
-0.189843
 30
0.0
 11
44.553532
 21
-0.18979
 31
0.0
  0
LINE
  5
54E
330
1F
100
AcDbEntity
  8
1
  6
CONTINUOUS
370
50
 62
4
100
AcDbLine
 10
44.79351
 20
-0.132178
 30
0.0
 11
44.801701
 21
-0.131955
 31
0.0
  0
LINE
  5
54F
330
1F
100
AcDbEntity
  8
1
  6
CONTINUOUS
370
50
 62
4
100
AcDbLine
 10
44.553532
 20
-0.18979
 30
0.0
 11
44.555595
 21
-0.189731
 31
0.0
  0
LINE
  5
550
330
1F
100
AcDbEntity
  8
1
  6
CONTINUOUS
370
50
 62
4
100
AcDbLine
 10
44.785324
 20
-0.132427
 30
0.0
 11
44.79351
 21
-0.132178
 31
0.0
  0
LINE
  5
551
330
1F
100
AcDbEntity
  8
1
  6
CONTINUOUS
370
50
 62
4
100
AcDbLine
 10
44.777149
 20
-0.132703
 30
0.0
 11
44.785324
 21
-0.132427
 31
0.0
  0
LINE
  5
552
330
1F
100
AcDbEntity
  8
1
  6
CONTINUOUS
370
50
 62
4
100
AcDbLine
 10
44.852863
 20
-0.175913
 30
0.0
 11
44.86104599999999
 21
-0.175584
 31
0.0
  0
LINE
  5
553
330
1F
100
AcDbEntity
  8
1
  6
CONTINUOUS
370
50
 62
4
100
AcDbLine
 10
44.626022
 20
-0.119545
 30
0.0
 11
44.63115699999999
 21
-0.119256
 31
0.0
  0
LINE
  5
554
330
1F
100
AcDbEntity
  8
1
  6
CONTINUOUS
370
50
 62
4
100
AcDbLine
 10
44.83446499999999
 20
-0.131302
 30
0.0
 11
44.839645
 21
-0.130991
 31
0.0
  0
LINE
  5
555
330
1F
100
AcDbEntity
  8
1
  6
CONTINUOUS
370
50
 62
4
100
AcDbLine
 10
44.835545
 20
0.175001
 30
0.0
 11
44.844311
 21
0.175721
 31
0.0
  0
LINE
  5
556
330
1F
100
AcDbEntity
  8
1
  6
CONTINUOUS
370
50
 62
4
100
AcDbLine
 10
44.63115699999999
 20
-0.119256
 30
0.0
 11
44.63623399999999
 21
-0.118784
 31
0.0
  0
LINE
  5
557
330
1F
100
AcDbEntity
  8
1
  6
CONTINUOUS
370
50
 62
4
100
AcDbLine
 10
44.86104599999999
 20
-0.175584
 30
0.0
 11
44.868809
 21
-0.174785
 31
0.0
  0
LINE
  5
558
330
1F
100
AcDbEntity
  8
1
  6
CONTINUOUS
370
50
 62
4
100
AcDbLine
 10
44.839645
 20
-0.130991
 30
0.0
 11
44.844864
 21
-0.130321
 31
0.0
  0
LINE
  5
559
330
1F
100
AcDbEntity
  8
1
  6
CONTINUOUS
370
50
 62
4
100
AcDbLine
 10
44.63623399999999
 20
-0.118784
 30
0.0
 11
44.641132
 21
-0.118143
 31
0.0
  0
LINE
  5
55A
330
1F
100
AcDbEntity
  8
1
  6
CONTINUOUS
370
50
 62
4
100
AcDbLine
 10
44.826717
 20
0.173775
 30
0.0
 11
44.835545
 21
0.175001
 31
0.0
  0
LINE
  5
55B
330
1F
100
AcDbEntity
  8
1
  6
CONTINUOUS
370
50
 62
4
100
AcDbLine
 10
44.87746
 20
0.155179
 30
0.0
 11
44.912956
 21
0.160132
 31
0.0
  0
LINE
  5
55C
330
1F
100
AcDbEntity
  8
1
  6
CONTINUOUS
370
50
 62
4
100
AcDbLine
 10
44.868809
 20
-0.174785
 30
0.0
 11
44.87615599999999
 21
-0.173572
 31
0.0
  0
LINE
  5
55D
330
1F
100
AcDbEntity
  8
1
  6
CONTINUOUS
370
50
 62
4
100
AcDbLine
 10
44.641132
 20
-0.118143
 30
0.0
 11
44.645832
 21
-0.117341
 31
0.0
  0
LINE
  5
55E
330
1F
100
AcDbEntity
  8
1
  6
CONTINUOUS
370
50
 62
4
100
AcDbLine
 10
44.68824
 20
-0.125208
 30
0.0
 11
44.700001
 21
-0.123061
 31
0.0
  0
LINE
  5
55F
330
1F
100
AcDbEntity
  8
1
  6
CONTINUOUS
370
50
 62
4
100
AcDbLine
 10
44.555595
 20
-0.189731
 30
0.0
 11
44.557831
 21
-0.189312
 31
0.0
  0
LINE
  5
560
330
1F
100
AcDbEntity
  8
1
  6
CONTINUOUS
370
50
 62
4
100
AcDbLine
 10
44.817848
 20
0.17206
 30
0.0
 11
44.826717
 21
0.173775
 31
0.0
  0
LINE
  5
561
330
1F
100
AcDbEntity
  8
1
  6
CONTINUOUS
370
50
 62
4
100
AcDbLine
 10
44.841969
 20
0.148257
 30
0.0
 11
44.87746
 21
0.155179
 31
0.0
  0
LINE
  5
562
330
1F
100
AcDbEntity
  8
1
  6
CONTINUOUS
370
50
 62
4
100
AcDbLine
 10
44.844864
 20
-0.130321
 30
0.0
 11
44.850281
 21
-0.129245
 31
0.0
  0
LINE
  5
563
330
1F
100
AcDbEntity
  8
1
  6
CONTINUOUS
370
50
 62
4
100
AcDbLine
 10
44.676617
 20
-0.127623
 30
0.0
 11
44.68824
 21
-0.125208
 31
0.0
  0
LINE
  5
564
330
1F
100
AcDbEntity
  8
1
  6
CONTINUOUS
370
50
 62
4
100
AcDbLine
 10
44.645832
 20
-0.117341
 30
0.0
 11
44.65031399999999
 21
-0.116391
 31
0.0
  0
LINE
  5
565
330
1F
100
AcDbEntity
  8
1
  6
CONTINUOUS
370
50
 62
4
100
AcDbLine
 10
44.967514
 20
0.051288
 30
0.0
 11
44.968731
 21
0.05156
 31
0.0
  0
LINE
  5
566
330
1F
100
AcDbEntity
  8
1
  6
CONTINUOUS
370
50
 62
4
100
AcDbLine
 10
44.966297
 20
0.051015
 30
0.0
 11
44.967514
 21
0.051288
 31
0.0
  0
LINE
  5
567
330
1F
100
AcDbEntity
  8
1
  6
CONTINUOUS
370
50
 62
4
100
AcDbLine
 10
44.968731
 20
0.05156
 30
0.0
 11
44.969948
 21
0.051833
 31
0.0
  0
LINE
  5
568
330
1F
100
AcDbEntity
  8
1
  6
CONTINUOUS
370
50
 62
4
100
AcDbLine
 10
44.963863
 20
0.050467
 30
0.0
 11
44.966297
 21
0.051015
 31
0.0
  0
LINE
  5
569
330
1F
100
AcDbEntity
  8
1
  6
CONTINUOUS
370
50
 62
4
100
AcDbLine
 10
44.962646
 20
0.050192
 30
0.0
 11
44.963863
 21
0.050467
 31
0.0
  0
LINE
  5
56A
330
1F
100
AcDbEntity
  8
1
  6
CONTINUOUS
370
50
 62
4
100
AcDbLine
 10
44.87615599999999
 20
-0.173572
 30
0.0
 11
44.88308
 21
-0.171998
 31
0.0
  0
LINE
  5
56B
330
1F
100
AcDbEntity
  8
1
  6
CONTINUOUS
370
50
 62
4
100
AcDbLine
 10
44.665138
 20
-0.130287
 30
0.0
 11
44.676617
 21
-0.127623
 31
0.0
  0
LINE
  5
56C
330
1F
100
AcDbEntity
  8
1
  6
CONTINUOUS
370
50
 62
4
100
AcDbLine
 10
44.806477
 20
0.139709
 30
0.0
 11
44.841969
 21
0.148257
 31
0.0
  0
LINE
  5
56D
330
1F
100
AcDbEntity
  8
1
  6
CONTINUOUS
370
50
 62
4
100
AcDbLine
 10
44.808937
 20
0.169874
 30
0.0
 11
44.817848
 21
0.17206
 31
0.0
  0
LINE
  5
56E
330
1F
100
AcDbEntity
  8
1
  6
CONTINUOUS
370
50
 62
4
100
AcDbLine
 10
35.900002
 20
-1.99995
 30
0.0
 11
43.0
 21
-0.18995
 31
0.0
  0
LINE
  5
56F
330
1F
100
AcDbEntity
  8
1
  6
CONTINUOUS
370
50
 62
4
100
AcDbLine
 10
44.653809
 20
-0.133182
 30
0.0
 11
44.665138
 21
-0.130287
 31
0.0
  0
LINE
  5
570
330
1F
100
AcDbEntity
  8
1
  6
CONTINUOUS
370
50
 62
4
100
AcDbLine
 10
44.65031399999999
 20
-0.116391
 30
0.0
 11
44.654568
 21
-0.1153
 31
0.0
  0
LINE
  5
571
330
1F
100
AcDbEntity
  8
1
  6
CONTINUOUS
370
50
 62
4
100
AcDbLine
 10
44.850281
 20
-0.129245
 30
0.0
 11
44.856129
 21
-0.127627
 31
0.0
  0
LINE
  5
572
330
1F
100
AcDbEntity
  8
1
  6
CONTINUOUS
370
50
 62
4
100
AcDbLine
 10
44.642635
 20
-0.136288
 30
0.0
 11
44.653809
 21
-0.133182
 31
0.0
  0
LINE
  5
573
330
1F
100
AcDbEntity
  8
1
  6
CONTINUOUS
370
50
 62
4
100
AcDbLine
 10
44.770985
 20
0.129796
 30
0.0
 11
44.806477
 21
0.139709
 31
0.0
  0
LINE
  5
574
330
1F
100
AcDbEntity
  8
1
  6
CONTINUOUS
370
50
 62
4
100
AcDbLine
 10
44.452591
 20
0.021866
 30
0.0
 11
44.45409
 21
0.022287
 31
0.0
  0
LINE
  5
575
330
1F
100
AcDbEntity
  8
1
  6
CONTINUOUS
370
50
 62
4
100
AcDbLine
 10
44.88308
 20
-0.171998
 30
0.0
 11
44.889648
 21
-0.170125
 31
0.0
  0
LINE
  5
576
330
1F
100
AcDbEntity
  8
1
  6
CONTINUOUS
370
50
 62
4
100
AcDbLine
 10
44.799999
 20
0.167236
 30
0.0
 11
44.808937
 21
0.169874
 31
0.0
  0
LINE
  5
577
330
1F
100
AcDbEntity
  8
1
  6
CONTINUOUS
370
50
 62
4
100
AcDbLine
 10
44.631622
 20
-0.139588
 30
0.0
 11
44.642635
 21
-0.136288
 31
0.0
  0
LINE
  5
578
330
1F
100
AcDbEntity
  8
1
  6
CONTINUOUS
370
50
 62
4
100
AcDbLine
 10
44.557831
 20
-0.189312
 30
0.0
 11
44.55994399999999
 21
-0.188671
 31
0.0
  0
LINE
  5
579
330
1F
100
AcDbEntity
  8
1
  6
CONTINUOUS
370
50
 62
4
100
AcDbLine
 10
44.654568
 20
-0.1153
 30
0.0
 11
44.658573
 21
-0.114079
 31
0.0
  0
LINE
  5
57A
330
1F
100
AcDbEntity
  8
1
  6
CONTINUOUS
370
50
 62
4
100
AcDbLine
 10
44.735489
 20
0.118642
 30
0.0
 11
44.770985
 21
0.129796
 31
0.0
  0
LINE
  5
57B
330
1F
100
AcDbEntity
  8
1
  6
CONTINUOUS
370
50
 62
4
100
AcDbLine
 10
44.700001
 20
0.107345
 30
0.0
 11
44.735489
 21
0.118642
 31
0.0
  0
LINE
  5
57C
330
1F
100
AcDbEntity
  8
1
  6
CONTINUOUS
370
50
 62
4
100
AcDbLine
 10
44.620773
 20
-0.143062
 30
0.0
 11
44.631622
 21
-0.139588
 31
0.0
  0
LINE
  5
57D
330
1F
100
AcDbEntity
  8
1
  6
CONTINUOUS
370
50
 62
4
100
AcDbLine
 10
44.785812
 20
0.162581
 30
0.0
 11
44.799999
 21
0.167236
 31
0.0
  0
LINE
  5
57E
330
1F
100
AcDbEntity
  8
1
  6
CONTINUOUS
370
50
 62
4
100
AcDbLine
 10
44.615631
 20
-0.144794
 30
0.0
 11
44.620773
 21
-0.143062
 31
0.0
  0
LINE
  5
57F
330
1F
100
AcDbEntity
  8
1
  6
CONTINUOUS
370
50
 62
4
100
AcDbLine
 10
44.771553
 20
0.157679
 30
0.0
 11
44.785812
 21
0.162581
 31
0.0
  0
LINE
  5
580
330
1F
100
AcDbEntity
  8
1
  6
CONTINUOUS
370
50
 62
4
100
AcDbLine
 10
44.889648
 20
-0.170125
 30
0.0
 11
44.895802
 21
-0.168002
 31
0.0
  0
LINE
  5
581
330
1F
100
AcDbEntity
  8
1
  6
CONTINUOUS
370
50
 62
4
100
AcDbLine
 10
44.6106
 20
-0.146558
 30
0.0
 11
44.615631
 21
-0.144794
 31
0.0
  0
LINE
  5
582
330
1F
100
AcDbEntity
  8
1
  6
CONTINUOUS
370
50
 62
4
100
AcDbLine
 10
44.45113
 20
0.021344
 30
0.0
 11
44.452591
 21
0.021866
 31
0.0
  0
LINE
  5
583
330
1F
100
AcDbEntity
  8
1
  6
CONTINUOUS
370
50
 62
4
100
AcDbLine
 10
44.658573
 20
-0.114079
 30
0.0
 11
44.662319
 21
-0.112737
 31
0.0
  0
LINE
  5
584
330
1F
100
AcDbEntity
  8
1
  6
CONTINUOUS
370
50
 62
4
100
AcDbLine
 10
44.757248
 20
0.152541
 30
0.0
 11
44.771553
 21
0.157679
 31
0.0
  0
LINE
  5
585
330
1F
100
AcDbEntity
  8
1
  6
CONTINUOUS
370
50
 62
4
100
AcDbLine
 10
44.605675
 20
-0.148347
 30
0.0
 11
44.6106
 21
-0.146558
 31
0.0
  0
LINE
  5
586
330
1F
100
AcDbEntity
  8
1
  6
CONTINUOUS
370
50
 62
4
100
AcDbLine
 10
44.856129
 20
-0.127627
 30
0.0
 11
44.862404
 21
-0.125341
 31
0.0
  0
LINE
  5
587
330
1F
100
AcDbEntity
  8
1
  6
CONTINUOUS
370
50
 62
4
100
AcDbLine
 10
44.74292
 20
0.147176
 30
0.0
 11
44.757248
 21
0.152541
 31
0.0
  0
LINE
  5
588
330
1F
100
AcDbEntity
  8
1
  6
CONTINUOUS
370
50
 62
4
100
AcDbLine
 10
44.600868
 20
-0.150157
 30
0.0
 11
44.605675
 21
-0.148347
 31
0.0
  0
LINE
  5
589
330
1F
100
AcDbEntity
  8
1
  6
CONTINUOUS
370
50
 62
4
100
AcDbLine
 10
44.59618
 20
-0.151981
 30
0.0
 11
44.600868
 21
-0.150157
 31
0.0
  0
LINE
  5
58A
330
1F
100
AcDbEntity
  8
1
  6
CONTINUOUS
370
50
 62
4
100
AcDbLine
 10
44.72858799999999
 20
0.141594
 30
0.0
 11
44.74292
 21
0.147176
 31
0.0
  0
LINE
  5
58B
330
1F
100
AcDbEntity
  8
1
  6
CONTINUOUS
370
50
 62
4
100
AcDbLine
 10
44.895802
 20
-0.168002
 30
0.0
 11
44.901619
 21
-0.165666
 31
0.0
  0
LINE
  5
58C
330
1F
100
AcDbEntity
  8
1
  6
CONTINUOUS
370
50
 62
4
100
AcDbLine
 10
44.591614
 20
-0.153815
 30
0.0
 11
44.59618
 21
-0.151981
 31
0.0
  0
LINE
  5
58D
330
1F
100
AcDbEntity
  8
1
  6
CONTINUOUS
370
50
 62
4
100
AcDbLine
 10
44.714272
 20
0.135805
 30
0.0
 11
44.72858799999999
 21
0.141594
 31
0.0
  0
LINE
  5
58E
330
1F
100
AcDbEntity
  8
1
  6
CONTINUOUS
370
50
 62
4
100
AcDbLine
 10
44.587173
 20
-0.155654
 30
0.0
 11
44.591614
 21
-0.153815
 31
0.0
  0
LINE
  5
58F
330
1F
100
AcDbEntity
  8
1
  6
CONTINUOUS
370
50
 62
4
100
AcDbLine
 10
44.662319
 20
-0.112737
 30
0.0
 11
44.66578699999999
 21
-0.111289
 31
0.0
  0
LINE
  5
590
330
1F
100
AcDbEntity
  8
1
  6
CONTINUOUS
370
50
 62
4
100
AcDbLine
 10
44.700001
 20
0.129819
 30
0.0
 11
44.714272
 21
0.135805
 31
0.0
  0
LINE
  5
591
330
1F
100
AcDbEntity
  8
1
  6
CONTINUOUS
370
50
 62
4
100
AcDbLine
 10
44.45409
 20
0.022287
 30
0.0
 11
44.46265
 21
0.025886
 31
0.0
  0
LINE
  5
592
330
1F
100
AcDbEntity
  8
1
  6
CONTINUOUS
370
50
 62
4
100
AcDbLine
 10
44.582863
 20
-0.157491
 30
0.0
 11
44.587173
 21
-0.155654
 31
0.0
  0
LINE
  5
593
330
1F
100
AcDbEntity
  8
1
  6
CONTINUOUS
370
50
 62
4
100
AcDbLine
 10
44.55994399999999
 20
-0.188671
 30
0.0
 11
44.561932
 21
-0.187805
 31
0.0
  0
LINE
  5
594
330
1F
100
AcDbEntity
  8
1
  6
CONTINUOUS
370
50
 62
4
100
AcDbLine
 10
44.57868999999999
 20
-0.159322
 30
0.0
 11
44.582863
 21
-0.157491
 31
0.0
  0
LINE
  5
595
330
1F
100
AcDbEntity
  8
1
  6
CONTINUOUS
370
50
 62
4
100
AcDbLine
 10
44.449715
 20
0.020719
 30
0.0
 11
44.45113
 21
0.021344
 31
0.0
  0
LINE
  5
596
330
1F
100
AcDbEntity
  8
1
  6
CONTINUOUS
370
50
 62
4
100
AcDbLine
 10
44.57465
 20
-0.161141
 30
0.0
 11
44.57868999999999
 21
-0.159322
 31
0.0
  0
LINE
  5
597
330
1F
100
AcDbEntity
  8
1
  6
CONTINUOUS
370
50
 62
4
100
AcDbLine
 10
44.901619
 20
-0.165666
 30
0.0
 11
44.90732999999999
 21
-0.163047
 31
0.0
  0
LINE
  5
598
330
1F
100
AcDbEntity
  8
1
  6
CONTINUOUS
370
50
 62
4
100
AcDbLine
 10
44.862404
 20
-0.125341
 30
0.0
 11
44.869091
 21
-0.122259
 31
0.0
  0
LINE
  5
599
330
1F
100
AcDbEntity
  8
1
  6
CONTINUOUS
370
50
 62
4
100
AcDbLine
 10
44.570755
 20
-0.162943
 30
0.0
 11
44.57465
 21
-0.161141
 31
0.0
  0
LINE
  5
59A
330
1F
100
AcDbEntity
  8
1
  6
CONTINUOUS
370
50
 62
4
100
AcDbLine
 10
44.567001
 20
-0.164722
 30
0.0
 11
44.570755
 21
-0.162943
 31
0.0
  0
LINE
  5
59B
330
1F
100
AcDbEntity
  8
1
  6
CONTINUOUS
370
50
 62
4
100
AcDbLine
 10
44.5634
 20
-0.166474
 30
0.0
 11
44.567001
 21
-0.164722
 31
0.0
  0
LINE
  5
59C
330
1F
100
AcDbEntity
  8
1
  6
CONTINUOUS
370
50
 62
4
100
AcDbLine
 10
44.46265
 20
0.025886
 30
0.0
 11
44.470966
 21
0.029934
 31
0.0
  0
LINE
  5
59D
330
1F
100
AcDbEntity
  8
1
  6
CONTINUOUS
370
50
 62
4
100
AcDbLine
 10
44.66578699999999
 20
-0.111289
 30
0.0
 11
44.668949
 21
-0.109746
 31
0.0
  0
LINE
  5
59E
330
1F
100
AcDbEntity
  8
1
  6
CONTINUOUS
370
50
 62
4
100
AcDbLine
 10
44.559956
 20
-0.168189
 30
0.0
 11
44.5634
 21
-0.166474
 31
0.0
  0
LINE
  5
59F
330
1F
100
AcDbEntity
  8
1
  6
CONTINUOUS
370
50
 62
4
100
AcDbLine
 10
44.556705
 20
-0.16985
 30
0.0
 11
44.559956
 21
-0.168189
 31
0.0
  0
LINE
  5
5A0
330
1F
100
AcDbEntity
  8
1
  6
CONTINUOUS
370
50
 62
4
100
AcDbLine
 10
44.90732999999999
 20
-0.163047
 30
0.0
 11
44.912956
 21
-0.160132
 31
0.0
  0
LINE
  5
5A1
330
1F
100
AcDbEntity
  8
1
  6
CONTINUOUS
370
50
 62
4
100
AcDbLine
 10
44.553642
 20
-0.171455
 30
0.0
 11
44.556705
 21
-0.16985
 31
0.0
  0
LINE
  5
5A2
330
1F
100
AcDbEntity
  8
1
  6
CONTINUOUS
370
50
 62
4
100
AcDbLine
 10
44.448349
 20
0.01999
 30
0.0
 11
44.449715
 21
0.020719
 31
0.0
  0
LINE
  5
5A3
330
1F
100
AcDbEntity
  8
1
  6
CONTINUOUS
370
50
 62
4
100
AcDbLine
 10
44.550774
 20
-0.173002
 30
0.0
 11
44.553642
 21
-0.171455
 31
0.0
  0
LINE
  5
5A4
330
1F
100
AcDbEntity
  8
1
  6
CONTINUOUS
370
50
 62
4
100
AcDbLine
 10
44.470966
 20
0.029934
 30
0.0
 11
44.479038
 21
0.034397
 31
0.0
  0
LINE
  5
5A5
330
1F
100
AcDbEntity
  8
1
  6
CONTINUOUS
370
50
 62
4
100
AcDbLine
 10
44.548103
 20
-0.174488
 30
0.0
 11
44.550774
 21
-0.173002
 31
0.0
  0
LINE
  5
5A6
330
1F
100
AcDbEntity
  8
1
  6
CONTINUOUS
370
50
 62
4
100
AcDbLine
 10
44.869091
 20
-0.122259
 30
0.0
 11
44.875996
 21
-0.118367
 31
0.0
  0
LINE
  5
5A7
330
1F
100
AcDbEntity
  8
1
  6
CONTINUOUS
370
50
 62
4
100
AcDbLine
 10
44.668949
 20
-0.109746
 30
0.0
 11
44.671803
 21
-0.108121
 31
0.0
  0
LINE
  5
5A8
330
1F
100
AcDbEntity
  8
1
  6
CONTINUOUS
370
50
 62
4
100
AcDbLine
 10
44.545624
 20
-0.175911
 30
0.0
 11
44.548103
 21
-0.174488
 31
0.0
  0
LINE
  5
5A9
330
1F
100
AcDbEntity
  8
1
  6
CONTINUOUS
370
50
 62
4
100
AcDbLine
 10
44.912956
 20
-0.160132
 30
0.0
 11
44.919582
 21
-0.156279
 31
0.0
  0
LINE
  5
5AA
330
1F
100
AcDbEntity
  8
1
  6
CONTINUOUS
370
50
 62
4
100
AcDbLine
 10
44.561932
 20
-0.187805
 30
0.0
 11
44.563789
 21
-0.186713
 31
0.0
  0
LINE
  5
5AB
330
1F
100
AcDbEntity
  8
1
  6
CONTINUOUS
370
50
 62
4
100
AcDbLine
 10
44.543339
 20
-0.17727
 30
0.0
 11
44.545624
 21
-0.175911
 31
0.0
  0
LINE
  5
5AC
330
1F
100
AcDbEntity
  8
1
  6
CONTINUOUS
370
50
 62
4
100
AcDbLine
 10
44.541252
 20
-0.178561
 30
0.0
 11
44.543339
 21
-0.17727
 31
0.0
  0
LINE
  5
5AD
330
1F
100
AcDbEntity
  8
1
  6
CONTINUOUS
370
50
 62
4
100
AcDbLine
 10
44.479038
 20
0.034397
 30
0.0
 11
44.486862
 21
0.03924
 31
0.0
  0
LINE
  5
5AE
330
1F
100
AcDbEntity
  8
1
  6
CONTINUOUS
370
50
 62
4
100
AcDbLine
 10
44.447044
 20
0.019156
 30
0.0
 11
44.448349
 21
0.01999
 31
0.0
  0
LINE
  5
5AF
330
1F
100
AcDbEntity
  8
1
  6
CONTINUOUS
370
50
 62
4
100
AcDbLine
 10
44.539364
 20
-0.179783
 30
0.0
 11
44.541252
 21
-0.178561
 31
0.0
  0
LINE
  5
5B0
330
1F
100
AcDbEntity
  8
1
  6
CONTINUOUS
370
50
 62
4
100
AcDbLine
 10
44.919582
 20
-0.156279
 30
0.0
 11
44.925877
 21
-0.152197
 31
0.0
  0
LINE
  5
5B1
330
1F
100
AcDbEntity
  8
1
  6
CONTINUOUS
370
50
 62
4
100
AcDbLine
 10
44.875996
 20
-0.118367
 30
0.0
 11
44.882618
 21
-0.113927
 31
0.0
  0
LINE
  5
5B2
330
1F
100
AcDbEntity
  8
1
  6
CONTINUOUS
370
50
 62
4
100
AcDbLine
 10
44.671803
 20
-0.108121
 30
0.0
 11
44.674332
 21
-0.106422
 31
0.0
  0
LINE
  5
5B3
330
1F
100
AcDbEntity
  8
1
  6
CONTINUOUS
370
50
 62
4
100
AcDbLine
 10
44.537659
 20
-0.180947
 30
0.0
 11
44.539364
 21
-0.179783
 31
0.0
  0
LINE
  5
5B4
330
1F
100
AcDbEntity
  8
1
  6
CONTINUOUS
370
50
 62
4
100
AcDbLine
 10
44.486862
 20
0.03924
 30
0.0
 11
44.494431
 21
0.044429
 31
0.0
  0
LINE
  5
5B5
330
1F
100
AcDbEntity
  8
1
  6
CONTINUOUS
370
50
 62
4
100
AcDbLine
 10
44.602211
 20
-0.152733
 30
0.0
 11
44.611195
 21
-0.146426
 31
0.0
  0
LINE
  5
5B6
330
1F
100
AcDbEntity
  8
1
  6
CONTINUOUS
370
50
 62
4
100
AcDbLine
 10
44.925877
 20
-0.152197
 30
0.0
 11
44.931828
 21
-0.147922
 31
0.0
  0
LINE
  5
5B7
330
1F
100
AcDbEntity
  8
1
  6
CONTINUOUS
370
50
 62
4
100
AcDbLine
 10
44.970135
 20
0.087238
 30
0.0
 11
44.971584
 21
0.088282
 31
0.0
  0
LINE
  5
5B8
330
1F
100
AcDbEntity
  8
1
  6
CONTINUOUS
370
50
 62
4
100
AcDbLine
 10
44.536125
 20
-0.182063
 30
0.0
 11
44.537659
 21
-0.180947
 31
0.0
  0
LINE
  5
5B9
330
1F
100
AcDbEntity
  8
1
  6
CONTINUOUS
370
50
 62
4
100
AcDbLine
 10
44.494431
 20
0.044429
 30
0.0
 11
44.50174
 21
0.04993
 31
0.0
  0
LINE
  5
5BA
330
1F
100
AcDbEntity
  8
1
  6
CONTINUOUS
370
50
 62
4
100
AcDbLine
 10
44.445805
 20
0.01822
 30
0.0
 11
44.447044
 21
0.019156
 31
0.0
  0
LINE
  5
5BB
330
1F
100
AcDbEntity
  8
1
  6
CONTINUOUS
370
50
 62
4
100
AcDbLine
 10
44.593796
 20
-0.159128
 30
0.0
 11
44.602211
 21
-0.152733
 31
0.0
  0
LINE
  5
5BC
330
1F
100
AcDbEntity
  8
1
  6
CONTINUOUS
370
50
 62
4
100
AcDbLine
 10
44.563789
 20
-0.186713
 30
0.0
 11
44.56551
 21
-0.18539
 31
0.0
  0
LINE
  5
5BD
330
1F
100
AcDbEntity
  8
1
  6
CONTINUOUS
370
50
 62
4
100
AcDbLine
 10
44.882618
 20
-0.113927
 30
0.0
 11
44.888927
 21
-0.109018
 31
0.0
  0
LINE
  5
5BE
330
1F
100
AcDbEntity
  8
1
  6
CONTINUOUS
370
50
 62
4
100
AcDbLine
 10
44.931828
 20
-0.147922
 30
0.0
 11
44.937424
 21
-0.143491
 31
0.0
  0
LINE
  5
5BF
330
1F
100
AcDbEntity
  8
1
  6
CONTINUOUS
370
50
 62
4
100
AcDbLine
 10
44.534786
 20
-0.183125
 30
0.0
 11
44.536125
 21
-0.182063
 31
0.0
  0
LINE
  5
5C0
330
1F
100
AcDbEntity
  8
1
  6
CONTINUOUS
370
50
 62
4
100
AcDbLine
 10
44.674332
 20
-0.106422
 30
0.0
 11
44.67656299999999
 21
-0.104633
 31
0.0
  0
LINE
  5
5C1
330
1F
100
AcDbEntity
  8
1
  6
CONTINUOUS
370
50
 62
4
100
AcDbLine
 10
44.50174
 20
0.04993
 30
0.0
 11
44.508793
 21
0.05571
 31
0.0
  0
LINE
  5
5C2
330
1F
100
AcDbEntity
  8
1
  6
CONTINUOUS
370
50
 62
4
100
AcDbLine
 10
44.58611699999999
 20
-0.16544
 30
0.0
 11
44.593796
 21
-0.159128
 31
0.0
  0
LINE
  5
5C3
330
1F
100
AcDbEntity
  8
1
  6
CONTINUOUS
370
50
 62
4
100
AcDbLine
 10
44.937424
 20
-0.143491
 30
0.0
 11
44.942657
 21
-0.138941
 31
0.0
  0
LINE
  5
5C4
330
1F
100
AcDbEntity
  8
1
  6
CONTINUOUS
370
50
 62
4
100
AcDbLine
 10
44.888927
 20
-0.109018
 30
0.0
 11
44.894917
 21
-0.103708
 31
0.0
  0
LINE
  5
5C5
330
1F
100
AcDbEntity
  8
1
  6
CONTINUOUS
370
50
 62
4
100
AcDbLine
 10
44.508793
 20
0.05571
 30
0.0
 11
44.515594
 21
0.061744
 31
0.0
  0
LINE
  5
5C6
330
1F
100
AcDbEntity
  8
1
  6
CONTINUOUS
370
50
 62
4
100
AcDbLine
 10
44.533657
 20
-0.184127
 30
0.0
 11
44.534786
 21
-0.183125
 31
0.0
  0
LINE
  5
5C7
330
1F
100
AcDbEntity
  8
1
  6
CONTINUOUS
370
50
 62
4
100
AcDbLine
 10
44.444649
 20
0.017194
 30
0.0
 11
44.445805
 21
0.01822
 31
0.0
  0
LINE
  5
5C8
330
1F
100
AcDbEntity
  8
1
  6
CONTINUOUS
370
50
 62
4
100
AcDbLine
 10
44.579082
 20
-0.171717
 30
0.0
 11
44.58611699999999
 21
-0.16544
 31
0.0
  0
LINE
  5
5C9
330
1F
100
AcDbEntity
  8
1
  6
CONTINUOUS
370
50
 62
4
100
AcDbLine
 10
44.942657
 20
-0.138941
 30
0.0
 11
44.947517
 21
-0.134308
 31
0.0
  0
LINE
  5
5CA
330
1F
100
AcDbEntity
  8
1
  6
CONTINUOUS
370
50
 62
4
100
AcDbLine
 10
44.515594
 20
0.061744
 30
0.0
 11
44.522125
 21
0.067998
 31
0.0
  0
LINE
  5
5CB
330
1F
100
AcDbEntity
  8
1
  6
CONTINUOUS
370
50
 62
4
100
AcDbLine
 10
44.572655
 20
-0.177944
 30
0.0
 11
44.579082
 21
-0.171717
 31
0.0
  0
LINE
  5
5CC
330
1F
100
AcDbEntity
  8
1
  6
CONTINUOUS
370
50
 62
4
100
AcDbLine
 10
44.56551
 20
-0.18539
 30
0.0
 11
44.567089
 21
-0.183837
 31
0.0
  0
LINE
  5
5CD
330
1F
100
AcDbEntity
  8
1
  6
CONTINUOUS
370
50
 62
4
100
AcDbLine
 10
44.67656299999999
 20
-0.104633
 30
0.0
 11
44.678566
 21
-0.102641
 31
0.0
  0
LINE
  5
5CE
330
1F
100
AcDbEntity
  8
1
  6
CONTINUOUS
370
50
 62
4
100
AcDbLine
 10
44.894917
 20
-0.103708
 30
0.0
 11
44.900593
 21
-0.098055
 31
0.0
  0
LINE
  5
5CF
330
1F
100
AcDbEntity
  8
1
  6
CONTINUOUS
370
50
 62
4
100
AcDbLine
 10
44.522125
 20
0.067998
 30
0.0
 11
44.528366
 21
0.074435
 31
0.0
  0
LINE
  5
5D0
330
1F
100
AcDbEntity
  8
1
  6
CONTINUOUS
370
50
 62
4
100
AcDbLine
 10
44.44358099999999
 20
0.016082
 30
0.0
 11
44.444649
 21
0.017194
 31
0.0
  0
LINE
  5
5D1
330
1F
100
AcDbEntity
  8
1
  6
CONTINUOUS
370
50
 62
4
100
AcDbLine
 10
44.947517
 20
-0.134308
 30
0.0
 11
44.952
 21
-0.12963
 31
0.0
  0
LINE
  5
5D2
330
1F
100
AcDbEntity
  8
1
  6
CONTINUOUS
370
50
 62
4
100
AcDbLine
 10
44.53273
 20
-0.185102
 30
0.0
 11
44.533657
 21
-0.184127
 31
0.0
  0
LINE
  5
5D3
330
1F
100
AcDbEntity
  8
1
  6
CONTINUOUS
370
50
 62
4
100
AcDbLine
 10
44.567089
 20
-0.183837
 30
0.0
 11
44.572655
 21
-0.177944
 31
0.0
  0
LINE
  5
5D4
330
1F
100
AcDbEntity
  8
1
  6
CONTINUOUS
370
50
 62
4
100
AcDbLine
 10
44.900593
 20
-0.098055
 30
0.0
 11
44.906048
 21
-0.092004
 31
0.0
  0
LINE
  5
5D5
330
1F
100
AcDbEntity
  8
1
  6
CONTINUOUS
370
50
 62
4
100
AcDbLine
 10
44.528366
 20
0.074435
 30
0.0
 11
44.534294
 21
0.081018
 31
0.0
  0
LINE
  5
5D6
330
1F
100
AcDbEntity
  8
1
  6
CONTINUOUS
370
50
 62
4
100
AcDbLine
 10
44.952
 20
-0.12963
 30
0.0
 11
44.956093
 21
-0.124942
 31
0.0
  0
LINE
  5
5D7
330
1F
100
AcDbEntity
  8
1
  6
CONTINUOUS
370
50
 62
4
100
AcDbLine
 10
44.680229
 20
-0.10045
 30
0.0
 11
44.68322
 21
-0.096944
 31
0.0
  0
LINE
  5
5D8
330
1F
100
AcDbEntity
  8
1
  6
CONTINUOUS
370
50
 62
4
100
AcDbLine
 10
44.534294
 20
0.081018
 30
0.0
 11
44.53989
 21
0.087711
 31
0.0
  0
LINE
  5
5D9
330
1F
100
AcDbEntity
  8
1
  6
CONTINUOUS
370
50
 62
4
100
AcDbLine
 10
44.68322
 20
-0.096944
 30
0.0
 11
44.686153
 21
-0.093368
 31
0.0
  0
LINE
  5
5DA
330
1F
100
AcDbEntity
  8
1
  6
CONTINUOUS
370
50
 62
4
100
AcDbLine
 10
44.906048
 20
-0.092004
 30
0.0
 11
44.911312
 21
-0.08555
 31
0.0
  0
LINE
  5
5DB
330
1F
100
AcDbEntity
  8
1
  6
CONTINUOUS
370
50
 62
4
100
AcDbLine
 10
44.442608
 20
0.014887
 30
0.0
 11
44.44358099999999
 21
0.016082
 31
0.0
  0
LINE
  5
5DC
330
1F
100
AcDbEntity
  8
1
  6
CONTINUOUS
370
50
 62
4
100
AcDbLine
 10
44.956093
 20
-0.124942
 30
0.0
 11
44.959763
 21
-0.120317
 31
0.0
  0
LINE
  5
5DD
330
1F
100
AcDbEntity
  8
1
  6
CONTINUOUS
370
50
 62
4
100
AcDbLine
 10
44.686153
 20
-0.093368
 30
0.0
 11
44.68903
 21
-0.08972
 31
0.0
  0
LINE
  5
5DE
330
1F
100
AcDbEntity
  8
1
  6
CONTINUOUS
370
50
 62
4
100
AcDbLine
 10
44.53989
 20
0.087711
 30
0.0
 11
44.545128
 21
0.094477
 31
0.0
  0
LINE
  5
5DF
330
1F
100
AcDbEntity
  8
1
  6
CONTINUOUS
370
50
 62
4
100
AcDbLine
 10
44.678566
 20
-0.102641
 30
0.0
 11
44.680229
 21
-0.10045
 31
0.0
  0
LINE
  5
5E0
330
1F
100
AcDbEntity
  8
1
  6
CONTINUOUS
370
50
 62
4
100
AcDbLine
 10
44.68903
 20
-0.08972
 30
0.0
 11
44.69185299999999
 21
-0.085998
 31
0.0
  0
LINE
  5
5E1
330
1F
100
AcDbEntity
  8
1
  6
CONTINUOUS
370
50
 62
4
100
AcDbLine
 10
44.911312
 20
-0.08555
 30
0.0
 11
44.916374
 21
-0.078712
 31
0.0
  0
LINE
  5
5E2
330
1F
100
AcDbEntity
  8
1
  6
CONTINUOUS
370
50
 62
4
100
AcDbLine
 10
44.69185299999999
 20
-0.085998
 30
0.0
 11
44.694618
 21
-0.0822
 31
0.0
  0
LINE
  5
5E3
330
1F
100
AcDbEntity
  8
1
  6
CONTINUOUS
370
50
 62
4
100
AcDbLine
 10
44.532078
 20
-0.185999
 30
0.0
 11
44.53273
 21
-0.185102
 31
0.0
  0
LINE
  5
5E4
330
1F
100
AcDbEntity
  8
1
  6
CONTINUOUS
370
50
 62
4
100
AcDbLine
 10
44.545128
 20
0.094477
 30
0.0
 11
44.549992
 21
0.101278
 31
0.0
  0
LINE
  5
5E5
330
1F
100
AcDbEntity
  8
1
  6
CONTINUOUS
370
50
 62
4
100
AcDbLine
 10
44.694618
 20
-0.0822
 30
0.0
 11
44.697334
 21
-0.078326
 31
0.0
  0
LINE
  5
5E6
330
1F
100
AcDbEntity
  8
1
  6
CONTINUOUS
370
50
 62
4
100
AcDbLine
 10
44.441727
 20
0.013611
 30
0.0
 11
44.442608
 21
0.014887
 31
0.0
  0
LINE
  5
5E7
330
1F
100
AcDbEntity
  8
1
  6
CONTINUOUS
370
50
 62
4
100
AcDbLine
 10
44.697334
 20
-0.078326
 30
0.0
 11
44.700001
 21
-0.074373
 31
0.0
  0
LINE
  5
5E8
330
1F
100
AcDbEntity
  8
1
  6
CONTINUOUS
370
50
 62
4
100
AcDbLine
 10
44.916374
 20
-0.078712
 30
0.0
 11
44.921234
 21
-0.071507
 31
0.0
  0
LINE
  5
5E9
330
1F
100
AcDbEntity
  8
1
  6
CONTINUOUS
370
50
 62
4
100
AcDbLine
 10
44.549992
 20
0.101278
 30
0.0
 11
44.55444
 21
0.108061
 31
0.0
  0
LINE
  5
5EA
330
1F
100
AcDbEntity
  8
1
  6
CONTINUOUS
370
50
 62
4
100
AcDbLine
 10
44.921234
 20
-0.071507
 30
0.0
 11
44.925888
 21
-0.063955
 31
0.0
  0
LINE
  5
5EB
330
1F
100
AcDbEntity
  8
1
  6
CONTINUOUS
370
50
 62
4
100
AcDbLine
 10
44.55444
 20
0.108061
 30
0.0
 11
44.558445
 21
0.114781
 31
0.0
  0
LINE
  5
5EC
330
1F
100
AcDbEntity
  8
1
  6
CONTINUOUS
370
50
 62
4
100
AcDbLine
 10
44.440945
 20
0.012267
 30
0.0
 11
44.441727
 21
0.013611
 31
0.0
  0
LINE
  5
5ED
330
1F
100
AcDbEntity
  8
1
  6
CONTINUOUS
370
50
 62
4
100
AcDbLine
 10
44.925888
 20
-0.063955
 30
0.0
 11
44.930328
 21
-0.056073
 31
0.0
  0
LINE
  5
5EE
330
1F
100
AcDbEntity
  8
1
  6
CONTINUOUS
370
50
 62
4
100
AcDbLine
 10
44.971584
 20
0.088282
 30
0.0
 11
44.97248099999999
 21
0.089928
 31
0.0
  0
LINE
  5
5EF
330
1F
100
AcDbEntity
  8
1
  6
CONTINUOUS
370
50
 62
4
100
AcDbLine
 10
44.558445
 20
0.114781
 30
0.0
 11
44.56200399999999
 21
0.121414
 31
0.0
  0
LINE
  5
5F0
330
1F
100
AcDbEntity
  8
1
  6
CONTINUOUS
370
50
 62
4
100
AcDbLine
 10
44.930328
 20
-0.056073
 30
0.0
 11
44.934532
 21
-0.047923
 31
0.0
  0
LINE
  5
5F1
330
1F
100
AcDbEntity
  8
1
  6
CONTINUOUS
370
50
 62
4
100
AcDbLine
 10
44.440273
 20
0.010873
 30
0.0
 11
44.440945
 21
0.012267
 31
0.0
  0
LINE
  5
5F2
330
1F
100
AcDbEntity
  8
1
  6
CONTINUOUS
370
50
 62
4
100
AcDbLine
 10
44.56200399999999
 20
0.121414
 30
0.0
 11
44.565102
 21
0.127936
 31
0.0
  0
LINE
  5
5F3
330
1F
100
AcDbEntity
  8
1
  6
CONTINUOUS
370
50
 62
4
100
AcDbLine
 10
44.934532
 20
-0.047923
 30
0.0
 11
44.93844199999999
 21
-0.039661
 31
0.0
  0
LINE
  5
5F4
330
1F
100
AcDbEntity
  8
1
  6
CONTINUOUS
370
50
 62
4
100
AcDbLine
 10
44.531727
 20
-0.186808
 30
0.0
 11
44.532078
 21
-0.185999
 31
0.0
  0
LINE
  5
5F5
330
1F
100
AcDbEntity
  8
1
  6
CONTINUOUS
370
50
 62
4
100
AcDbLine
 10
44.93844199999999
 20
-0.039661
 30
0.0
 11
44.942055
 21
-0.031325
 31
0.0
  0
LINE
  5
5F6
330
1F
100
AcDbEntity
  8
1
  6
CONTINUOUS
370
50
 62
4
100
AcDbLine
 10
44.565102
 20
0.127936
 30
0.0
 11
44.567734
 21
0.134323
 31
0.0
  0
LINE
  5
5F7
330
1F
100
AcDbEntity
  8
1
  6
CONTINUOUS
370
50
 62
4
100
AcDbLine
 10
44.942055
 20
-0.031325
 30
0.0
 11
44.945389
 21
-0.02294
 31
0.0
  0
LINE
  5
5F8
330
1F
100
AcDbEntity
  8
1
  6
CONTINUOUS
370
50
 62
4
100
AcDbLine
 10
44.439709
 20
0.009435
 30
0.0
 11
44.440273
 21
0.010873
 31
0.0
  0
LINE
  5
5F9
330
1F
100
AcDbEntity
  8
1
  6
CONTINUOUS
370
50
 62
4
100
AcDbLine
 10
44.945389
 20
-0.02294
 30
0.0
 11
44.94844399999999
 21
-0.014533
 31
0.0
  0
LINE
  5
5FA
330
1F
100
AcDbEntity
  8
1
  6
CONTINUOUS
370
50
 62
4
100
AcDbLine
 10
44.567734
 20
0.134323
 30
0.0
 11
44.569889
 21
0.140547
 31
0.0
  0
LINE
  5
5FB
330
1F
100
AcDbEntity
  8
1
  6
CONTINUOUS
370
50
 62
4
100
AcDbLine
 10
44.94844399999999
 20
-0.014533
 30
0.0
 11
44.951237
 21
-0.00613
 31
0.0
  0
LINE
  5
5FC
330
1F
100
AcDbEntity
  8
1
  6
CONTINUOUS
370
50
 62
4
100
AcDbLine
 10
44.439243
 20
0.007958
 30
0.0
 11
44.439709
 21
0.009435
 31
0.0
  0
LINE
  5
5FD
330
1F
100
AcDbEntity
  8
1
  6
CONTINUOUS
370
50
 62
4
100
AcDbLine
 10
44.951237
 20
-0.00613
 30
0.0
 11
44.953423
 21
0.001032
 31
0.0
  0
LINE
  5
5FE
330
1F
100
AcDbEntity
  8
1
  6
CONTINUOUS
370
50
 62
4
100
AcDbLine
 10
44.953423
 20
0.001032
 30
0.0
 11
44.955414
 21
0.008126
 31
0.0
  0
LINE
  5
5FF
330
1F
100
AcDbEntity
  8
1
  6
CONTINUOUS
370
50
 62
4
100
AcDbLine
 10
44.569889
 20
0.140547
 30
0.0
 11
44.571545
 21
0.146511
 31
0.0
  0
LINE
  5
600
330
1F
100
AcDbEntity
  8
1
  6
CONTINUOUS
370
50
 62
4
100
AcDbLine
 10
44.955414
 20
0.008126
 30
0.0
 11
44.957218
 21
0.015136
 31
0.0
  0
LINE
  5
601
330
1F
100
AcDbEntity
  8
1
  6
CONTINUOUS
370
50
 62
4
100
AcDbLine
 10
44.43888099999999
 20
0.006447
 30
0.0
 11
44.439243
 21
0.007958
 31
0.0
  0
LINE
  5
602
330
1F
100
AcDbEntity
  8
1
  6
CONTINUOUS
370
50
 62
4
100
AcDbLine
 10
44.957218
 20
0.015136
 30
0.0
 11
44.958839
 21
0.022049
 31
0.0
  0
LINE
  5
603
330
1F
100
AcDbEntity
  8
1
  6
CONTINUOUS
370
50
 62
4
100
AcDbLine
 10
44.958839
 20
0.022049
 30
0.0
 11
44.960278
 21
0.028849
 31
0.0
  0
LINE
  5
604
330
1F
100
AcDbEntity
  8
1
  6
CONTINUOUS
370
50
 62
4
100
AcDbLine
 10
44.571545
 20
0.146511
 30
0.0
 11
44.57270399999999
 21
0.152157
 31
0.0
  0
LINE
  5
605
330
1F
100
AcDbEntity
  8
1
  6
CONTINUOUS
370
50
 62
4
100
AcDbLine
 10
44.960278
 20
0.028849
 30
0.0
 11
44.961536
 21
0.035522
 31
0.0
  0
LINE
  5
606
330
1F
100
AcDbEntity
  8
1
  6
CONTINUOUS
370
50
 62
4
100
AcDbLine
 10
44.438618
 20
0.004906
 30
0.0
 11
44.43888099999999
 21
0.006447
 31
0.0
  0
LINE
  5
607
330
1F
100
AcDbEntity
  8
1
  6
CONTINUOUS
370
50
 62
4
100
AcDbLine
 10
44.961536
 20
0.035522
 30
0.0
 11
44.962627
 21
0.042054
 31
0.0
  0
LINE
  5
608
330
1F
100
AcDbEntity
  8
1
  6
CONTINUOUS
370
50
 62
4
100
AcDbLine
 10
44.97248099999999
 20
0.089928
 30
0.0
 11
44.972839
 21
0.092108
 31
0.0
  0
LINE
  5
609
330
1F
100
AcDbEntity
  8
1
  6
CONTINUOUS
370
50
 62
4
100
AcDbLine
 10
44.57270399999999
 20
0.152157
 30
0.0
 11
44.57339899999999
 21
0.15747
 31
0.0
  0
LINE
  5
60A
330
1F
100
AcDbEntity
  8
1
  6
CONTINUOUS
370
50
 62
4
100
AcDbLine
 10
44.438446
 20
0.00332
 30
0.0
 11
44.438618
 21
0.004906
 31
0.0
  0
LINE
  5
60B
330
1F
100
AcDbEntity
  8
1
  6
CONTINUOUS
370
50
 62
4
100
AcDbLine
 10
44.57339899999999
 20
0.15747
 30
0.0
 11
44.573643
 21
0.162433
 31
0.0
  0
LINE
  5
60C
330
1F
100
AcDbEntity
  8
1
  6
CONTINUOUS
370
50
 62
4
100
AcDbLine
 10
44.43836599999999
 20
0.001684
 30
0.0
 11
44.438446
 21
0.00332
 31
0.0
  0
LINE
  5
60D
330
1F
100
AcDbEntity
  8
1
  6
CONTINUOUS
370
50
 62
4
100
AcDbLine
 10
44.531696
 20
-0.187524
 30
0.0
 11
44.531727
 21
-0.186808
 31
0.0
  0
LINE
  5
60E
330
1F
100
AcDbEntity
  8
1
  6
CONTINUOUS
370
50
 62
4
100
AcDbLine
 10
44.970112
 20
0.084702
 30
0.0
 11
44.970135
 21
0.087238
 31
0.0
  0
LINE
  5
60F
330
1F
100
AcDbEntity
  8
1
  6
CONTINUOUS
370
50
 62
4
100
AcDbLine
 10
44.97007
 20
0.079184
 30
0.0
 11
44.970093
 21
0.082017
 31
0.0
  0
LINE
  5
610
330
1F
100
AcDbEntity
  8
1
  6
CONTINUOUS
370
50
 62
4
100
AcDbLine
 10
44.970093
 20
0.082017
 30
0.0
 11
44.970112
 21
0.084702
 31
0.0
  0
LINE
  5
611
330
1F
100
AcDbEntity
  8
1
  6
CONTINUOUS
370
50
 62
4
100
AcDbLine
 10
44.970051
 20
0.07621
 30
0.0
 11
44.97007
 21
0.079184
 31
0.0
  0
LINE
  5
612
330
1F
100
AcDbEntity
  8
1
  6
CONTINUOUS
370
50
 62
4
100
AcDbLine
 10
44.970016
 20
0.06985
 30
0.0
 11
44.970036
 21
0.073097
 31
0.0
  0
LINE
  5
613
330
1F
100
AcDbEntity
  8
1
  6
CONTINUOUS
370
50
 62
4
100
AcDbLine
 10
44.970036
 20
0.073097
 30
0.0
 11
44.970051
 21
0.07621
 31
0.0
  0
LINE
  5
614
330
1F
100
AcDbEntity
  8
1
  6
CONTINUOUS
370
50
 62
4
100
AcDbLine
 10
44.970001
 20
0.066472
 30
0.0
 11
44.970016
 21
0.06985
 31
0.0
  0
LINE
  5
615
330
1F
100
AcDbEntity
  8
1
  6
CONTINUOUS
370
50
 62
4
100
AcDbLine
 10
44.969986
 20
0.062972
 30
0.0
 11
44.970001
 21
0.066472
 31
0.0
  0
LINE
  5
616
330
1F
100
AcDbEntity
  8
1
  6
CONTINUOUS
370
50
 62
4
100
AcDbLine
 10
44.969971
 20
0.059361
 30
0.0
 11
44.969986
 21
0.062972
 31
0.0
  0
LINE
  5
617
330
1F
100
AcDbEntity
  8
1
  6
CONTINUOUS
370
50
 62
4
100
AcDbLine
 10
44.969959
 20
0.055647
 30
0.0
 11
44.969971
 21
0.059361
 31
0.0
  0
LINE
  5
618
330
1F
100
AcDbEntity
  8
1
  6
CONTINUOUS
370
50
 62
4
100
AcDbLine
 10
44.962639
 20
0.04752
 30
0.0
 11
44.962643
 21
0.048861
 31
0.0
  0
LINE
  5
619
330
1F
100
AcDbEntity
  8
1
  6
CONTINUOUS
370
50
 62
4
100
AcDbLine
 10
44.962635
 20
0.046168
 30
0.0
 11
44.962639
 21
0.04752
 31
0.0
  0
LINE
  5
61A
330
1F
100
AcDbEntity
  8
1
  6
CONTINUOUS
370
50
 62
4
100
AcDbLine
 10
44.96263099999999
 20
0.044806
 30
0.0
 11
44.962635
 21
0.046168
 31
0.0
  0
LINE
  5
61B
330
1F
100
AcDbEntity
  8
1
  6
CONTINUOUS
370
50
 62
4
100
AcDbLine
 10
44.962627
 20
0.042054
 30
0.0
 11
44.96263099999999
 21
0.043435
 31
0.0
  0
LINE
  5
61C
330
1F
100
AcDbEntity
  8
1
  6
CONTINUOUS
370
50
 62
4
100
AcDbLine
 10
44.969948
 20
0.051833
 30
0.0
 11
44.969959
 21
0.055647
 31
0.0
  0
LINE
  5
61D
330
1F
100
AcDbEntity
  8
1
  6
CONTINUOUS
370
50
 62
4
100
AcDbLine
 10
44.962643
 20
0.048861
 30
0.0
 11
44.962646
 21
0.050192
 31
0.0
  0
LINE
  5
61E
330
1F
100
AcDbEntity
  8
1
  6
CONTINUOUS
370
50
 62
4
100
AcDbLine
 10
35.900002
 20
-1.99995
 30
0.0
 11
35.900002
 21
1.99995
 31
0.0
  0
LINE
  5
61F
330
1F
100
AcDbEntity
  8
1
  6
CONTINUOUS
370
50
 62
4
100
AcDbLine
 10
43.0
 20
-0.18995
 30
0.0
 11
43.0
 21
0.18995
 31
0.0
  0
LINE
  5
620
330
1F
100
AcDbEntity
  8
1
  6
CONTINUOUS
370
50
 62
4
100
AcDbLine
 10
44.700001
 20
-0.129819
 30
0.0
 11
44.700001
 21
0.017335
 31
0.0
  0
LINE
  5
621
330
1F
100
AcDbEntity
  8
1
  6
CONTINUOUS
370
50
 62
4
100
AcDbLine
 10
44.700001
 20
0.106897
 30
0.0
 11
44.700001
 21
0.123061
 31
0.0
  0
LINE
  5
622
330
1F
100
AcDbEntity
  8
1
  6
CONTINUOUS
370
50
 62
4
100
AcDbLine
 10
44.700001
 20
0.017338
 30
0.0
 11
44.700001
 21
0.104075
 31
0.0
  0
LINE
  5
623
330
1F
100
AcDbEntity
  8
1
  6
CONTINUOUS
370
50
 62
4
100
AcDbLine
 10
44.700001
 20
0.102968
 30
0.0
 11
44.700001
 21
0.103688
 31
0.0
  0
LINE
  5
624
330
1F
100
AcDbEntity
  8
1
  6
CONTINUOUS
370
50
 62
4
100
AcDbLine
 10
44.700001
 20
0.103688
 30
0.0
 11
44.700001
 21
0.104278
 31
0.0
  0
LINE
  5
625
330
1F
100
AcDbEntity
  8
1
  6
CONTINUOUS
370
50
 62
4
100
AcDbLine
 10
44.700001
 20
0.104278
 30
0.0
 11
44.700001
 21
0.104738
 31
0.0
  0
LINE
  5
626
330
1F
100
AcDbEntity
  8
1
  6
CONTINUOUS
370
50
 62
4
100
AcDbLine
 10
44.700001
 20
0.104738
 30
0.0
 11
44.700001
 21
0.105066
 31
0.0
  0
LINE
  5
627
330
1F
100
AcDbEntity
  8
1
  6
CONTINUOUS
370
50
 62
4
100
AcDbLine
 10
44.700001
 20
0.105066
 30
0.0
 11
44.700001
 21
0.105263
 31
0.0
  0
LINE
  5
628
330
1F
100
AcDbEntity
  8
1
  6
CONTINUOUS
370
50
 62
4
100
AcDbLine
 10
44.700001
 20
0.105263
 30
0.0
 11
44.700001
 21
0.105329
 31
0.0
  0
LINE
  5
629
330
1F
100
AcDbEntity
  8
1
  6
CONTINUOUS
370
50
 62
4
100
AcDbLine
 10
44.700001
 20
0.105329
 30
0.0
 11
44.700001
 21
0.105658
 31
0.0
  0
LINE
  5
62A
330
1F
100
AcDbEntity
  8
1
  6
CONTINUOUS
370
50
 62
4
100
AcDbLine
 10
44.700001
 20
0.105658
 30
0.0
 11
44.700001
 21
0.105991
 31
0.0
  0
LINE
  5
62B
330
1F
100
AcDbEntity
  8
1
  6
CONTINUOUS
370
50
 62
4
100
AcDbLine
 10
44.700001
 20
0.105991
 30
0.0
 11
44.700001
 21
0.106325
 31
0.0
  0
LINE
  5
62C
330
1F
100
AcDbEntity
  8
1
  6
CONTINUOUS
370
50
 62
4
100
AcDbLine
 10
44.700001
 20
0.106325
 30
0.0
 11
44.700001
 21
0.106663
 31
0.0
  0
LINE
  5
62D
330
1F
100
AcDbEntity
  8
1
  6
CONTINUOUS
370
50
 62
4
100
AcDbLine
 10
44.700001
 20
0.106663
 30
0.0
 11
44.700001
 21
0.107002
 31
0.0
  0
LINE
  5
62E
330
1F
100
AcDbEntity
  8
1
  6
CONTINUOUS
370
50
 62
4
100
AcDbLine
 10
44.700001
 20
0.107002
 30
0.0
 11
44.700001
 21
0.107345
 31
0.0
  0
LINE
  5
62F
330
1F
100
AcDbEntity
  8
1
  6
CONTINUOUS
370
50
 62
4
100
AcDbLine
 10
44.700001
 20
0.107345
 30
0.0
 11
44.700001
 21
0.110556
 31
0.0
  0
LINE
  5
630
330
1F
100
AcDbEntity
  8
1
  6
CONTINUOUS
370
50
 62
4
100
AcDbLine
 10
44.700001
 20
0.110556
 30
0.0
 11
44.700001
 21
0.113766
 31
0.0
  0
LINE
  5
631
330
1F
100
AcDbEntity
  8
1
  6
CONTINUOUS
370
50
 62
4
100
AcDbLine
 10
44.700001
 20
0.113766
 30
0.0
 11
44.700001
 21
0.116977
 31
0.0
  0
LINE
  5
632
330
1F
100
AcDbEntity
  8
1
  6
CONTINUOUS
370
50
 62
4
100
AcDbLine
 10
44.700001
 20
0.116977
 30
0.0
 11
44.700001
 21
0.120187
 31
0.0
  0
LINE
  5
633
330
1F
100
AcDbEntity
  8
1
  6
CONTINUOUS
370
50
 62
4
100
AcDbLine
 10
44.700001
 20
0.120187
 30
0.0
 11
44.700001
 21
0.123398
 31
0.0
  0
LINE
  5
634
330
1F
100
AcDbEntity
  8
1
  6
CONTINUOUS
370
50
 62
4
100
AcDbLine
 10
44.700001
 20
0.123398
 30
0.0
 11
44.700001
 21
0.126608
 31
0.0
  0
LINE
  5
635
330
1F
100
AcDbEntity
  8
1
  6
CONTINUOUS
370
50
 62
4
100
AcDbLine
 10
44.700001
 20
0.126608
 30
0.0
 11
44.700001
 21
0.129819
 31
0.0
  0
LINE
  5
636
330
1F
100
AcDbEntity
  8
1
  6
CONTINUOUS
370
50
 62
4
100
AcDbLine
 10
44.777149
 20
-0.136013
 30
0.0
 11
44.777149
 21
-0.132704
 31
0.0
  0
LINE
  5
637
330
1F
100
AcDbEntity
  8
1
  6
CONTINUOUS
370
50
 62
4
100
AcDbLine
 10
44.799999
 20
-0.167236
 30
0.0
 11
44.799999
 21
-0.147775
 31
0.0
  0
LINE
  5
638
330
1F
100
AcDbEntity
  8
1
  6
CONTINUOUS
370
50
 62
4
100
AcDbLine
 10
44.83446499999999
 20
-0.151287
 30
0.0
 11
44.83446499999999
 21
-0.131301
 31
0.0
  0
LINE
  5
639
330
1F
100
AcDbEntity
  8
1
  6
CONTINUOUS
370
50
 62
4
100
AcDbLine
 10
44.96263099999999
 20
0.043435
 30
0.0
 11
44.96263099999999
 21
0.044806
 31
0.0
  0
ELLIPSE
  5
63A
330
1F
100
AcDbEntity
  8
1
  6
CONTINUOUS
370
50
 62
4
100
AcDbEllipse
 10
44.611356
 20
0.008404
 30
0.0
 11
-0.1978437696208353
 21
0.08890151269363837
 31
0.0
210
0.0
220
0.0
230
1.0
 40
0.5748623757423674
 41
0.8956567073407663
 42
1.695911479315437
  0
ELLIPSE
  5
63B
330
1F
100
AcDbEntity
  8
1
  6
CONTINUOUS
370
50
 62
4
100
AcDbEllipse
 10
44.62379199999999
 20
0.036079
 30
0.0
 11
-0.1883902088055223
 21
0.08465353532021799
 31
0.0
210
0.0
220
0.0
230
1.0
 40
0.5748645728624378
 41
0.763964004231715
 42
2.117876848658546
  0
ELLIPSE
  5
63C
330
1F
100
AcDbEntity
  8
1
  6
CONTINUOUS
370
50
 62
4
100
AcDbEllipse
 10
44.711732
 20
-0.231785
 30
0.0
 11
0.1985300479466829
 21
0.08920989329826355
 31
0.0
210
0.0
220
0.0
230
0.9999999999999999
 40
0.5748657684619267
 41
1.8695134133252
 42
2.183578955905842
  0
ELLIPSE
  5
63D
330
1F
100
AcDbEntity
  8
1
  6
CONTINUOUS
370
50
 62
4
100
AcDbEllipse
 10
44.733232
 20
0.27963
 30
0.0
 11
-0.2741088303158996
 21
0.123171377620167
 31
0.0
210
0.0
220
0.0
230
1.0
 40
0.5748633788647027
 41
1.415093342372584
 42
1.705933131274734
  0
ARC
  5
63E
330
1F
100
AcDbEntity
  8
1
  6
CONTINUOUS
370
50
 62
4
100
AcDbCircle
 10
44.8
 20
0.0
 30
0.0
 40
0.2000000000000028
100
AcDbArc
 50
323.060439934727
 51
36.93945088192402
  0
ELLIPSE
  5
63F
330
1F
100
AcDbEntity
  8
1
  6
CONTINUOUS
370
50
 62
4
100
AcDbEllipse
 10
44.8125
 20
-0.040293
 30
0.0
 11
0.1849538381464626
 21
0.05737752173013894
 31
0.0
210
0.0
220
0.0
230
1.0
 40
0.5367332199395283
 41
6.118189653414445
 42
6.692212618387616
  0
ELLIPSE
  5
640
330
1F
100
AcDbEntity
  8
1
  6
CONTINUOUS
370
50
 62
4
100
AcDbEllipse
 10
44.813381
 20
-0.040104
 30
0.0
 11
0.178160029626504
 21
0.05526990450039707
 31
0.0
210
0.0
220
0.0
230
1.0
 40
0.5367308314320322
 41
6.134886903111847
 42
6.716244377981842
  0
ELLIPSE
  5
641
330
1F
100
AcDbEntity
  8
1
  6
CONTINUOUS
370
50
 62
4
100
AcDbEllipse
 10
44.85
 20
0.010704
 30
0.0
 11
-0.03625878122399942
 21
0.1693670468365972
 31
0.0
210
0.0
220
0.0
230
1.0
 40
0.8593875199377865
 41
2.557613446637191
 42
4.468244377372699
  0
ELLIPSE
  5
642
330
1F
100
AcDbEntity
  8
1
  6
CONTINUOUS
370
50
 62
4
100
AcDbEllipse
 10
44.850705
 20
0.010654
 30
0.0
 11
-0.03463042837394074
 21
0.1617609082925701
 31
0.0
210
0.0
220
0.0
230
1.0
 40
0.8593857655436236
 41
2.783844188645
 42
4.468244856210061
  0
ELLIPSE
  5
643
330
1F
100
AcDbEntity
  8
1
  6
CONTINUOUS
370
50
 62
4
100
AcDbEllipse
 10
44.908541
 20
0.006527
 30
0.0
 11
-0.3067940116589156
 21
0.03114288514618332
 31
0.0
210
0.0
220
0.0
230
1.0
 40
0.5430190144495867
 41
1.183993509851047
 42
1.382376632411082
  0
ELLIPSE
  5
644
330
1F
100
AcDbEntity
  8
1
  6
CONTINUOUS
370
50
 62
4
100
AcDbEllipse
 10
45.000601
 20
-0.000043
 30
0.0
 11
-0.3461309538006638
 21
0.0366354364931204
 31
0.0
210
0.0
220
0.0
230
1.0
 40
0.5686287282219264
 41
0.9306594522851093
 42
1.014014582999505
  0
LINE
  5
645
330
1F
100
AcDbEntity
  8
CUT
  6
CONTINUOUS
370
25
 62
1
100
AcDbLine
 10
44.7
 20
0.0
 30
0.0
 11
44.99999999999999
 21
0.0
 31
0.0
  0
ARC
  5
646
330
1F
100
AcDbEntity
  8
CUT
  6
CONTINUOUS
370
25
 62
1
100
AcDbCircle
 10
44.8
 20
0.0
 30
0.0
 40
0.1999999999999957
100
AcDbArc
 50
0.0
 51
90.0
  0
LINE
  5
647
330
1F
100
AcDbEntity
  8
CUT
  6
CONTINUOUS
370
25
 62
1
100
AcDbLine
 10
44.8
 20
0.2
 30
0.0
 11
44.7
 21
0.1999
 31
0.0
  0
LINE
  5
648
330
1F
100
AcDbEntity
  8
CUT
  6
CONTINUOUS
370
25
 62
1
100
AcDbLine
 10
44.7
 20
0.1999
 30
0.0
 11
44.7
 21
0.0
 31
0.0
  0
LINE
  5
649
330
1F
100
AcDbEntity
  8
NOCUT
  6
CONTINUOUS
370
25
 62
7
100
AcDbLine
 10
35.9
 20
0.0
 30
0.0
 11
44.7
 21
0.0
 31
0.0
  0
LINE
  5
64A
330
1F
100
AcDbEntity
  8
NOCUT
  6
CONTINUOUS
370
25
 62
7
100
AcDbLine
 10
44.7
 20
0.0
 30
0.0
 11
44.7
 21
0.18995
 31
0.0
  0
LINE
  5
64B
330
1F
100
AcDbEntity
  8
NOCUT
  6
CONTINUOUS
370
25
 62
7
100
AcDbLine
 10
44.7
 20
0.18995
 30
0.0
 11
43.0
 21
0.18995
 31
0.0
  0
LINE
  5
64C
330
1F
100
AcDbEntity
  8
NOCUT
  6
CONTINUOUS
370
25
 62
7
100
AcDbLine
 10
43.0
 20
0.18995
 30
0.0
 11
35.9
 21
1.99995
 31
0.0
  0
LINE
  5
64D
330
1F
100
AcDbEntity
  8
NOCUT
  6
CONTINUOUS
370
25
 62
7
100
AcDbLine
 10
35.9
 20
1.99995
 30
0.0
 11
35.9
 21
0.0
 31
0.0
  0
LINE
  5
64E
330
1F
100
AcDbEntity
  8
SK1
  6
CONTINUOUS
370
50
 62
4
100
AcDbLine
 10
35.9
 20
2.0
 30
0.0
 11
0.2999999999999972
 21
2.0
 31
0.0
  0
LINE
  5
64F
330
1F
100
AcDbEntity
  8
SK1
  6
CONTINUOUS
370
50
 62
4
100
AcDbLine
 10
0.2999999999999972
 20
2.0
 30
0.0
 11
0.0
 21
1.7
 31
0.0
  0
LINE
  5
650
330
1F
100
AcDbEntity
  8
SK1
  6
CONTINUOUS
370
50
 62
4
100
AcDbLine
 10
0.0
 20
1.7
 30
0.0
 11
0.0
 21
-1.7
 31
0.0
  0
LINE
  5
651
330
1F
100
AcDbEntity
  8
SK1
  6
CONTINUOUS
370
50
 62
4
100
AcDbLine
 10
0.0
 20
-1.7
 30
0.0
 11
0.2999999999999972
 21
-2.0
 31
0.0
  0
LINE
  5
652
330
1F
100
AcDbEntity
  8
SK1
  6
CONTINUOUS
370
50
 62
4
100
AcDbLine
 10
0.2999999999999972
 20
-2.0
 30
0.0
 11
35.9
 21
-2.0
 31
0.0
  0
LINE
  5
653
330
1F
100
AcDbEntity
  8
SK1
  6
CONTINUOUS
370
50
 62
4
100
AcDbLine
 10
0.2999999999999972
 20
2.0
 30
0.0
 11
0.2999999999999972
 21
-2.0
 31
0.0
  0
LINE
  5
654
330
1F
100
AcDbEntity
  8
SK2
  6
CONTINUOUS
370
25
 62
7
100
AcDbLine
 10
-12.0000002
 20
-2.000001
 30
0.0
 11
-13.00000000000008
 21
-2.000001
 31
0.0
  0
LINE
  5
655
330
1F
100
AcDbEntity
  8
SK2
  6
CONTINUOUS
370
25
 62
7
100
AcDbLine
 10
0.0
 20
-2.000001
 30
0.0
 11
-11.9999998
 21
-2.000001
 31
0.0
  0
LINE
  5
656
330
1F
100
AcDbEntity
  8
SK2
  6
CONTINUOUS
370
25
 62
7
100
AcDbLine
 10
-13.0
 20
2.0
 30
0.0
 11
0.0
 21
2.0
 31
0.0
  0
LINE
  5
657
330
1F
100
AcDbEntity
  8
SK2
  6
CONTINUOUS
370
25
 62
7
100
AcDbLine
 10
-12.0
 20
-9.0
 30
0.0
 11
-12.0
 21
15.475
 31
0.0
  0
LINE
  5
658
330
1F
100
AcDbEntity
  8
SK2
  6
CONTINUOUS
370
25
 62
7
100
AcDbLine
 10
-12.0
 20
-2.0
 30
0.0
 11
-11.0
 21
-7.0
 31
0.0
  0
LINE
  5
659
330
1F
100
AcDbEntity
  8
SK2
  6
CONTINUOUS
370
25
 62
7
100
AcDbLine
 10
-11.0
 20
-7.0
 30
0.0
 11
-13.0
 21
-7.0
 31
0.0
  0
LINE
  5
65A
330
1F
100
AcDbEntity
  8
SK2
  6
CONTINUOUS
370
25
 62
7
100
AcDbLine
 10
-13.0
 20
-7.0
 30
0.0
 11
-12.0
 21
-2.0
 31
0.0
  0
LINE
  5
65B
330
1F
100
AcDbEntity
  8
SK2
  6
CONTINUOUS
370
25
 62
7
100
AcDbLine
 10
-11.40508652763319
 20
-7.0
 30
0.0
 11
-11.0675144212722
 21
-6.662427893639013
 31
0.0
  0
LINE
  5
65C
330
1F
100
AcDbEntity
  8
SK2
  6
CONTINUOUS
370
25
 62
7
100
AcDbLine
 10
-11.82935059634512
 20
-7.0
 30
0.0
 11
-11.13822509939085
 21
-6.308874503045736
 31
0.0
  0
LINE
  5
65D
330
1F
100
AcDbEntity
  8
SK2
  6
CONTINUOUS
370
25
 62
7
100
AcDbLine
 10
-12.25361466505704
 20
-7.0
 30
0.0
 11
-11.20893577750951
 21
-5.955321112452467
 31
0.0
  0
LINE
  5
65E
330
1F
100
AcDbEntity
  8
SK2
  6
CONTINUOUS
370
25
 62
7
100
AcDbLine
 10
-12.67787873376897
 20
-7.0
 30
0.0
 11
-11.27964645562817
 21
-5.601767721859197
 31
0.0
  0
LINE
  5
65F
330
1F
100
AcDbEntity
  8
SK2
  6
CONTINUOUS
370
25
 62
7
100
AcDbLine
 10
-12.97446429937978
 20
-6.872321496898877
 30
0.0
 11
-11.35035713374683
 21
-5.248214331265928
 31
0.0
  0
LINE
  5
660
330
1F
100
AcDbEntity
  8
SK2
  6
CONTINUOUS
370
25
 62
7
100
AcDbLine
 10
-12.8683982822018
 20
-6.341991411008962
 30
0.0
 11
-11.42106781186548
 21
-4.894660940672644
 31
0.0
  0
LINE
  5
661
330
1F
100
AcDbEntity
  8
SK2
  6
CONTINUOUS
370
25
 62
7
100
AcDbLine
 10
-12.76233226502382
 20
-5.811661325119047
 30
0.0
 11
-11.49177848998413
 21
-4.54110755007936
 31
0.0
  0
LINE
  5
662
330
1F
100
AcDbEntity
  8
SK2
  6
CONTINUOUS
370
25
 62
7
100
AcDbLine
 10
-12.65626624784583
 20
-5.281331239229139
 30
0.0
 11
-11.56248916810279
 21
-4.187554159486083
 31
0.0
  0
LINE
  5
663
330
1F
100
AcDbEntity
  8
SK2
  6
CONTINUOUS
370
25
 62
7
100
AcDbLine
 10
-12.55020023066785
 20
-4.751001153339224
 30
0.0
 11
-11.63319984622144
 21
-3.834000768892807
 31
0.0
  0
LINE
  5
664
330
1F
100
AcDbEntity
  8
SK2
  6
CONTINUOUS
370
25
 62
7
100
AcDbLine
 10
-12.44413421348987
 20
-4.22067106744931
 30
0.0
 11
-11.7039105243401
 21
-3.48044737829953
 31
0.0
  0
LINE
  5
665
330
1F
100
AcDbEntity
  8
SK2
  6
CONTINUOUS
370
25
 62
7
100
AcDbLine
 10
-12.33806819631189
 20
-3.690340981559395
 30
0.0
 11
-11.77462120245875
 21
-3.126893987706246
 31
0.0
  0
LINE
  5
666
330
1F
100
AcDbEntity
  8
SK2
  6
CONTINUOUS
370
25
 62
7
100
AcDbLine
 10
-12.2320021791339
 20
-3.16001089566948
 30
0.0
 11
-11.8453318805774
 21
-2.77334059711297
 31
0.0
  0
LINE
  5
667
330
1F
100
AcDbEntity
  8
SK2
  6
CONTINUOUS
370
25
 62
7
100
AcDbLine
 10
-12.12593616195592
 20
-2.629680809779572
 30
0.0
 11
-11.91604255869606
 21
-2.4197872065197
 31
0.0
  0
LINE
  5
668
330
1F
100
AcDbEntity
  8
SK2
  6
CONTINUOUS
370
25
 62
7
100
AcDbLine
 10
-12.01987014477793
 20
-2.099350723889636
 30
0.0
 11
-11.98675323681471
 21
-2.066233815926424
 31
0.0
  0
LINE
  5
669
330
1F
100
AcDbEntity
  8
SK2
  6
CONTINUOUS
370
25
 62
7
100
AcDbLine
 10
-12.92957351931106
 20
-6.647867596555287
 30
0.0
 11
-12.57744111586634
 21
-7.0
 31
0.0
  0
LINE
  5
66A
330
1F
100
AcDbEntity
  8
SK2
  6
CONTINUOUS
370
25
 62
7
100
AcDbLine
 10
-12.8588628411924
 20
-6.29431420596201
 30
0.0
 11
-12.15317704715441
 21
-7.0
 31
0.0
  0
LINE
  5
66B
330
1F
100
AcDbEntity
  8
SK2
  6
CONTINUOUS
370
25
 62
7
100
AcDbLine
 10
-12.78815216307375
 20
-5.940760815368733
 30
0.0
 11
-11.72891297844248
 21
-7.0
 31
0.0
  0
LINE
  5
66C
330
1F
100
AcDbEntity
  8
SK2
  6
CONTINUOUS
370
25
 62
7
100
AcDbLine
 10
-12.7174414849551
 20
-5.58720742477545
 30
0.0
 11
-11.30464890973055
 21
-7.0
 31
0.0
  0
LINE
  5
66D
330
1F
100
AcDbEntity
  8
SK2
  6
CONTINUOUS
370
25
 62
7
100
AcDbLine
 10
-12.64673080683644
 20
-5.233654034182173
 30
0.0
 11
-11.02990378974535
 21
-6.850481051273263
 31
0.0
  0
LINE
  5
66E
330
1F
100
AcDbEntity
  8
SK2
  6
CONTINUOUS
370
25
 62
7
100
AcDbLine
 10
-12.57602012871779
 20
-4.880100643588897
 30
0.0
 11
-11.13596980692333
 21
-6.320150965383348
 31
0.0
  0
LINE
  5
66F
330
1F
100
AcDbEntity
  8
SK2
  6
CONTINUOUS
370
25
 62
7
100
AcDbLine
 10
-12.50530945059914
 20
-4.52654725299562
 30
0.0
 11
-11.24203582410131
 21
-5.78982087949344
 31
0.0
  0
LINE
  5
670
330
1F
100
AcDbEntity
  8
SK2
  6
CONTINUOUS
370
25
 62
7
100
AcDbLine
 10
-12.43459877248048
 20
-4.17299386240235
 30
0.0
 11
-11.34810184127929
 21
-5.259490793603533
 31
0.0
  0
LINE
  5
671
330
1F
100
AcDbEntity
  8
SK2
  6
CONTINUOUS
370
25
 62
7
100
AcDbLine
 10
-12.36388809436182
 20
-3.819440471809074
 30
0.0
 11
-11.45416785845728
 21
-4.729160707713611
 31
0.0
  0
LINE
  5
672
330
1F
100
AcDbEntity
  8
SK2
  6
CONTINUOUS
370
25
 62
7
100
AcDbLine
 10
-12.29317741624315
 20
-3.465887081215811
 30
0.0
 11
-11.56023387563526
 21
-4.198830621823703
 31
0.0
  0
LINE
  5
673
330
1F
100
AcDbEntity
  8
SK2
  6
CONTINUOUS
370
25
 62
7
100
AcDbLine
 10
-12.2224667381245
 20
-3.112333690622528
 30
0.0
 11
-11.66629989281325
 21
-3.668500535933781
 31
0.0
  0
LINE
  5
674
330
1F
100
AcDbEntity
  8
SK2
  6
CONTINUOUS
370
25
 62
7
100
AcDbLine
 10
-12.15175606000585
 20
-2.758780300029244
 30
0.0
 11
-11.77236590999123
 21
-3.138170450043866
 31
0.0
  0
LINE
  5
675
330
1F
100
AcDbEntity
  8
SK2
  6
CONTINUOUS
370
25
 62
7
100
AcDbLine
 10
-12.08104538188719
 20
-2.405226909435974
 30
0.0
 11
-11.87843192716921
 21
-2.607840364153958
 31
0.0
  0
LINE
  5
676
330
1F
100
AcDbEntity
  8
SK2
  6
CONTINUOUS
370
25
 62
7
100
AcDbLine
 10
-12.01033470376854
 20
-2.051673518842698
 30
0.0
 11
-11.9844979443472
 21
-2.077510278264036
 31
0.0
  0
LINE
  5
677
330
1F
100
AcDbEntity
  8
SK2
  6
CONTINUOUS
370
25
 62
7
100
AcDbLine
 10
-12.0
 20
2.0
 30
0.0
 11
-13.0
 21
7.0
 31
0.0
  0
LINE
  5
678
330
1F
100
AcDbEntity
  8
SK2
  6
CONTINUOUS
370
25
 62
7
100
AcDbLine
 10
-13.0
 20
7.0
 30
0.0
 11
-11.0
 21
7.0
 31
0.0
  0
LINE
  5
679
330
1F
100
AcDbEntity
  8
SK2
  6
CONTINUOUS
370
25
 62
7
100
AcDbLine
 10
-11.0
 20
7.0
 30
0.0
 11
-12.0
 21
2.0
 31
0.0
  0
LINE
  5
67A
330
1F
100
AcDbEntity
  8
SK2
  6
CONTINUOUS
370
25
 62
7
100
AcDbLine
 10
-12.02719335133459
 20
2.135966756672957
 30
0.0
 11
-11.95920997299812
 21
2.203950135009428
 31
0.0
  0
LINE
  5
67B
330
1F
100
AcDbEntity
  8
SK2
  6
CONTINUOUS
370
25
 62
7
100
AcDbLine
 10
-12.09790402945325
 20
2.489520147266234
 30
0.0
 11
-11.85314395582014
 21
2.734280220899343
 31
0.0
  0
LINE
  5
67C
330
1F
100
AcDbEntity
  8
SK2
  6
CONTINUOUS
370
25
 62
7
100
AcDbLine
 10
-12.1686147075719
 20
2.843073537859517
 30
0.0
 11
-11.74707793864215
 21
3.264610306789258
 31
0.0
  0
LINE
  5
67D
330
1F
100
AcDbEntity
  8
SK2
  6
CONTINUOUS
370
25
 62
7
100
AcDbLine
 10
-12.23932538569056
 20
3.196626928452787
 30
0.0
 11
-11.64101192146417
 21
3.79494039267918
 31
0.0
  0
LINE
  5
67E
330
1F
100
AcDbEntity
  8
SK2
  6
CONTINUOUS
370
25
 62
7
100
AcDbLine
 10
-12.31003606380921
 20
3.550180319046063
 30
0.0
 11
-11.53494590428618
 21
4.325270478569095
 31
0.0
  0
LINE
  5
67F
330
1F
100
AcDbEntity
  8
SK2
  6
CONTINUOUS
370
25
 62
7
100
AcDbLine
 10
-12.38074674192787
 20
3.903733709639347
 30
0.0
 11
-11.4288798871082
 21
4.85560056445901
 31
0.0
  0
LINE
  5
680
330
1F
100
AcDbEntity
  8
SK2
  6
CONTINUOUS
370
25
 62
7
100
AcDbLine
 10
-12.45145742004652
 20
4.257287100232617
 30
0.0
 11
-11.32281386993022
 21
5.385930650348918
 31
0.0
  0
LINE
  5
681
330
1F
100
AcDbEntity
  8
SK2
  6
CONTINUOUS
370
25
 62
7
100
AcDbLine
 10
-12.52216809816517
 20
4.6108404908259
 30
0.0
 11
-11.21674785275223
 21
5.91626073623884
 31
0.0
  0
LINE
  5
682
330
1F
100
AcDbEntity
  8
SK2
  6
CONTINUOUS
370
25
 62
7
100
AcDbLine
 10
-12.59287877628383
 20
4.96439388141917
 30
0.0
 11
-11.11068183557425
 21
6.446590822128748
 31
0.0
  0
LINE
  5
683
330
1F
100
AcDbEntity
  8
SK2
  6
CONTINUOUS
370
25
 62
7
100
AcDbLine
 10
-12.66358945440249
 20
5.317947272012447
 30
0.0
 11
-11.00461581839627
 21
6.97692090801867
 31
0.0
  0
LINE
  5
684
330
1F
100
AcDbEntity
  8
SK2
  6
CONTINUOUS
370
25
 62
7
100
AcDbLine
 10
-12.73430013252115
 20
5.671500662605723
 30
0.0
 11
-11.40580079512687
 21
7.0
 31
0.0
  0
LINE
  5
685
330
1F
100
AcDbEntity
  8
SK2
  6
CONTINUOUS
370
25
 62
7
100
AcDbLine
 10
-12.80501081063981
 20
6.025054053198993
 30
0.0
 11
-11.8300648638388
 21
7.0
 31
0.0
  0
LINE
  5
686
330
1F
100
AcDbEntity
  8
SK2
  6
CONTINUOUS
370
25
 62
7
100
AcDbLine
 10
-12.87572148875846
 20
6.378607443792269
 30
0.0
 11
-12.25432893255073
 21
7.0
 31
0.0
  0
LINE
  5
687
330
1F
100
AcDbEntity
  8
SK2
  6
CONTINUOUS
370
25
 62
7
100
AcDbLine
 10
-12.94643216687711
 20
6.732160834385546
 30
0.0
 11
-12.67859300126266
 21
7.0
 31
0.0
  0
LINE
  5
688
330
1F
100
AcDbEntity
  8
SK2
  6
CONTINUOUS
370
25
 62
7
100
AcDbLine
 10
-12.09038539465176
 20
2.451926973258779
 30
0.0
 11
-11.93974307023216
 21
2.301284648839179
 31
0.0
  0
LINE
  5
689
330
1F
100
AcDbEntity
  8
SK2
  6
CONTINUOUS
370
25
 62
7
100
AcDbLine
 10
-12.19645141182973
 20
2.982257059148687
 30
0.0
 11
-11.86903239211351
 21
2.654838039432462
 31
0.0
  0
LINE
  5
68A
330
1F
100
AcDbEntity
  8
SK2
  6
CONTINUOUS
370
25
 62
7
100
AcDbLine
 10
-12.30251742900771
 20
3.512587145038587
 30
0.0
 11
-11.79832171399486
 21
3.008391430025732
 31
0.0
  0
LINE
  5
68B
330
1F
100
AcDbEntity
  8
SK2
  6
CONTINUOUS
370
25
 62
7
100
AcDbLine
 10
-12.4085834461857
 20
4.042917230928509
 30
0.0
 11
-11.7276110358762
 21
3.361944820619009
 31
0.0
  0
LINE
  5
68C
330
1F
100
AcDbEntity
  8
SK2
  6
CONTINUOUS
370
25
 62
7
100
AcDbLine
 10
-12.51464946336369
 20
4.573247316818424
 30
0.0
 11
-11.65690035775754
 21
3.715498211212285
 31
0.0
  0
LINE
  5
68D
330
1F
100
AcDbEntity
  8
SK2
  6
CONTINUOUS
370
25
 62
7
100
AcDbLine
 10
-12.62071548054167
 20
5.103577402708339
 30
0.0
 11
-11.58618967963888
 21
4.069051601805562
 31
0.0
  0
LINE
  5
68E
330
1F
100
AcDbEntity
  8
SK2
  6
CONTINUOUS
370
25
 62
7
100
AcDbLine
 10
-12.72678149771965
 20
5.633907488598254
 30
0.0
 11
-11.51547900152023
 21
4.422604992398846
 31
0.0
  0
LINE
  5
68F
330
1F
100
AcDbEntity
  8
SK2
  6
CONTINUOUS
370
25
 62
7
100
AcDbLine
 10
-12.83284751489764
 20
6.164237574488169
 30
0.0
 11
-11.44476832340158
 21
4.776158382992122
 31
0.0
  0
LINE
  5
690
330
1F
100
AcDbEntity
  8
SK2
  6
CONTINUOUS
370
25
 62
7
100
AcDbLine
 10
-12.93891353207562
 20
6.694567660378084
 30
0.0
 11
-11.37405764528292
 21
5.129711773585392
 31
0.0
  0
LINE
  5
691
330
1F
100
AcDbEntity
  8
SK2
  6
CONTINUOUS
370
25
 62
7
100
AcDbLine
 10
-12.8200818029856
 20
7.0
 30
0.0
 11
-11.30334696716427
 21
5.483265164178675
 31
0.0
  0
LINE
  5
692
330
1F
100
AcDbEntity
  8
SK2
  6
CONTINUOUS
370
25
 62
7
100
AcDbLine
 10
-12.39581773427366
 20
7.0
 30
0.0
 11
-11.23263628904562
 21
5.836818554771952
 31
0.0
  0
LINE
  5
693
330
1F
100
AcDbEntity
  8
SK2
  6
CONTINUOUS
370
25
 62
7
100
AcDbLine
 10
-11.97155366556174
 20
7.0
 30
0.0
 11
-11.16192561092696
 21
6.190371945365229
 31
0.0
  0
LINE
  5
694
330
1F
100
AcDbEntity
  8
SK2
  6
CONTINUOUS
370
25
 62
7
100
AcDbLine
 10
-11.5472895968498
 20
7.0
 30
0.0
 11
-11.0912149328083
 21
6.543925335958498
 31
0.0
  0
LINE
  5
695
330
1F
100
AcDbEntity
  8
SK2
  6
CONTINUOUS
370
25
 62
7
100
AcDbLine
 10
-11.12302552813787
 20
7.0
 30
0.0
 11
-11.02050425468965
 21
6.897478726551775
 31
0.0
  0
TEXT
  5
696
330
1F
100
AcDbEntity
  8
SK2
  6
CONTINUOUS
370
25
 62
7
100
AcDbText
 10
-13.5
 20
12.34583333333333
 30
0.0
 40
3.5
  1
4
 50
90.00000000000001
 72
     1
 11
-13.5
 21
13.5125
 31
0.0
100
AcDbText
  0
CIRCLE
  5
697
330
1F
100
AcDbEntity
  8
SK2
  6
CONTINUOUS
370
25
 62
7
100
AcDbCircle
 10
-15.25
 20
10.1875
 30
0.0
 40
1.4
  0
LINE
  5
698
330
1F
100
AcDbEntity
  8
SK2
  6
CONTINUOUS
370
25
 62
7
100
AcDbLine
 10
-13.85
 20
8.787500000000001
 30
0.0
 11
-16.65
 21
11.5875
 31
0.0
  0
LINE
  5
699
330
1F
100
AcDbEntity
  8
SK2
  6
CONTINUOUS
370
25
 62
7
100
AcDbLine
 10
0.0
 20
2.0
 30
0.0
 11
0.0
 21
15.00001
 31
0.0
  0
LINE
  5
69A
330
1F
100
AcDbEntity
  8
SK2
  6
CONTINUOUS
370
25
 62
7
100
AcDbLine
 10
35.9
 20
15.00001
 30
0.0
 11
35.9
 21
2.0
 31
0.0
  0
LINE
  5
69B
330
1F
100
AcDbEntity
  8
SK2
  6
CONTINUOUS
370
25
 62
7
100
AcDbLine
 10
0.0
 20
14.00001
 30
0.0
 11
35.9
 21
14.00001
 31
0.0
  0
LINE
  5
69C
330
1F
100
AcDbEntity
  8
SK2
  6
CONTINUOUS
370
25
 62
7
100
AcDbLine
 10
0.0
 20
14.00001
 30
0.0
 11
5.0
 21
15.00001
 31
0.0
  0
LINE
  5
69D
330
1F
100
AcDbEntity
  8
SK2
  6
CONTINUOUS
370
25
 62
7
100
AcDbLine
 10
5.0
 20
15.00001
 30
0.0
 11
5.0
 21
13.00001
 31
0.0
  0
LINE
  5
69E
330
1F
100
AcDbEntity
  8
SK2
  6
CONTINUOUS
370
25
 62
7
100
AcDbLine
 10
5.0
 20
13.00001
 30
0.0
 11
0.0
 21
14.00001
 31
0.0
  0
LINE
  5
69F
330
1F
100
AcDbEntity
  8
SK2
  6
CONTINUOUS
370
25
 62
7
100
AcDbLine
 10
4.813789044966217
 20
13.03725219100676
 30
0.0
 11
5.0
 21
13.22346314604054
 31
0.0
  0
LINE
  5
6A0
330
1F
100
AcDbEntity
  8
SK2
  6
CONTINUOUS
370
25
 62
7
100
AcDbLine
 10
4.460235654372944
 20
13.10796286912542
 30
0.0
 11
5.0
 21
13.64772721475247
 31
0.0
  0
LINE
  5
6A1
330
1F
100
AcDbEntity
  8
SK2
  6
CONTINUOUS
370
25
 62
7
100
AcDbLine
 10
4.106682263779664
 20
13.17867354724407
 30
0.0
 11
5.0
 21
14.0719912834644
 31
0.0
  0
LINE
  5
6A2
330
1F
100
AcDbEntity
  8
SK2
  6
CONTINUOUS
370
25
 62
7
100
AcDbLine
 10
3.753128873186384
 20
13.24938422536272
 30
0.0
 11
5.0
 21
14.49625535217633
 31
0.0
  0
LINE
  5
6A3
330
1F
100
AcDbEntity
  8
SK2
  6
CONTINUOUS
370
25
 62
7
100
AcDbLine
 10
3.399575482593121
 20
13.32009490348138
 30
0.0
 11
5.0
 21
14.92051942088825
 31
0.0
  0
LINE
  5
6A4
330
1F
100
AcDbEntity
  8
SK2
  6
CONTINUOUS
370
25
 62
7
100
AcDbLine
 10
3.046022091999838
 20
13.39080558160003
 30
0.0
 11
4.56903313799976
 21
14.91381662759995
 31
0.0
  0
LINE
  5
6A5
330
1F
100
AcDbEntity
  8
SK2
  6
CONTINUOUS
370
25
 62
7
100
AcDbLine
 10
2.692468701406561
 20
13.46151625971869
 30
0.0
 11
4.038703052109856
 21
14.80775061042197
 31
0.0
  0
LINE
  5
6A6
330
1F
100
AcDbEntity
  8
SK2
  6
CONTINUOUS
370
25
 62
7
100
AcDbLine
 10
2.338915310813292
 20
13.53222693783734
 30
0.0
 11
3.508372966219945
 21
14.70168459324399
 31
0.0
  0
LINE
  5
6A7
330
1F
100
AcDbEntity
  8
SK2
  6
CONTINUOUS
370
25
 62
7
100
AcDbLine
 10
1.985361920220015
 20
13.60293761595599
 30
0.0
 11
2.97804288033003
 21
14.595618576066
 31
0.0
  0
LINE
  5
6A8
330
1F
100
AcDbEntity
  8
SK2
  6
CONTINUOUS
370
25
 62
7
100
AcDbLine
 10
1.631808529626738
 20
13.67364829407465
 30
0.0
 11
2.447712794440108
 21
14.48955255888802
 31
0.0
  0
LINE
  5
6A9
330
1F
100
AcDbEntity
  8
SK2
  6
CONTINUOUS
370
25
 62
7
100
AcDbLine
 10
1.278255139033469
 20
13.74435897219331
 30
0.0
 11
1.9173827085502
 21
14.38348654171004
 31
0.0
  0
LINE
  5
6AA
330
1F
100
AcDbEntity
  8
SK2
  6
CONTINUOUS
370
25
 62
7
100
AcDbLine
 10
0.9247017484401852
 20
13.81506965031196
 30
0.0
 11
1.387052622660285
 21
14.27742052453205
 31
0.0
  0
LINE
  5
6AB
330
1F
100
AcDbEntity
  8
SK2
  6
CONTINUOUS
370
25
 62
7
100
AcDbLine
 10
0.5711483578469227
 20
13.88578032843062
 30
0.0
 11
0.8567225367703699
 21
14.17135450735407
 31
0.0
  0
LINE
  5
6AC
330
1F
100
AcDbEntity
  8
SK2
  6
CONTINUOUS
370
25
 62
7
100
AcDbLine
 10
0.217594967253639
 20
13.95649100654928
 30
0.0
 11
0.3263924508804479
 21
14.06528849017609
 31
0.0
  0
LINE
  5
6AD
330
1F
100
AcDbEntity
  8
SK2
  6
CONTINUOUS
370
25
 62
7
100
AcDbLine
 10
0.1487497183558801
 20
14.02975994367117
 30
0.0
 11
0.2231245775338167
 21
13.95538508449323
 31
0.0
  0
LINE
  5
6AE
330
1F
100
AcDbEntity
  8
SK2
  6
CONTINUOUS
370
25
 62
7
100
AcDbLine
 10
0.5023031089491568
 20
14.10047062178983
 30
0.0
 11
0.7534546634237316
 21
13.84931906731526
 31
0.0
  0
LINE
  5
6AF
330
1F
100
AcDbEntity
  8
SK2
  6
CONTINUOUS
370
25
 62
7
100
AcDbLine
 10
0.8558564995424263
 20
14.17118129990849
 30
0.0
 11
1.283784749313639
 21
13.74325305013727
 31
0.0
  0
LINE
  5
6B0
330
1F
100
AcDbEntity
  8
SK2
  6
CONTINUOUS
370
25
 62
7
100
AcDbLine
 10
1.209409890135703
 20
14.24189197802714
 30
0.0
 11
1.814114835203554
 21
13.63718703295929
 31
0.0
  0
LINE
  5
6B1
330
1F
100
AcDbEntity
  8
SK2
  6
CONTINUOUS
370
25
 62
7
100
AcDbLine
 10
1.562963280728979
 20
14.3126026561458
 30
0.0
 11
2.344444921093469
 21
13.53112101578131
 31
0.0
  0
LINE
  5
6B2
330
1F
100
AcDbEntity
  8
SK2
  6
CONTINUOUS
370
25
 62
7
100
AcDbLine
 10
1.916516671322256
 20
14.38331333426445
 30
0.0
 11
2.874775006983377
 21
13.42505499860332
 31
0.0
  0
LINE
  5
6B3
330
1F
100
AcDbEntity
  8
SK2
  6
CONTINUOUS
370
25
 62
7
100
AcDbLine
 10
2.270070061915526
 20
14.4540240123831
 30
0.0
 11
3.405105092873285
 21
13.31898898142534
 31
0.0
  0
LINE
  5
6B4
330
1F
100
AcDbEntity
  8
SK2
  6
CONTINUOUS
370
25
 62
7
100
AcDbLine
 10
2.623623452508795
 20
14.52473469050177
 30
0.0
 11
3.935435178763196
 21
13.21292296424736
 31
0.0
  0
LINE
  5
6B5
330
1F
100
AcDbEntity
  8
SK2
  6
CONTINUOUS
370
25
 62
7
100
AcDbLine
 10
2.977176843102072
 20
14.59544536862042
 30
0.0
 11
4.465765264653108
 21
13.10685694706937
 31
0.0
  0
LINE
  5
6B6
330
1F
100
AcDbEntity
  8
SK2
  6
CONTINUOUS
370
25
 62
7
100
AcDbLine
 10
3.330730233695348
 20
14.66615604673907
 30
0.0
 11
4.996095350543019
 21
13.00079092989139
 31
0.0
  0
LINE
  5
6B7
330
1F
100
AcDbEntity
  8
SK2
  6
CONTINUOUS
370
25
 62
7
100
AcDbLine
 10
3.684283624288625
 20
14.73686672485772
 30
0.0
 11
5.0
 21
13.42115034914634
 31
0.0
  0
LINE
  5
6B8
330
1F
100
AcDbEntity
  8
SK2
  6
CONTINUOUS
370
25
 62
7
100
AcDbLine
 10
4.037837014881902
 20
14.80757740297638
 30
0.0
 11
5.0
 21
13.84541441785827
 31
0.0
  0
LINE
  5
6B9
330
1F
100
AcDbEntity
  8
SK2
  6
CONTINUOUS
370
25
 62
7
100
AcDbLine
 10
4.391390405475168
 20
14.87828808109503
 30
0.0
 11
5.0
 21
14.2696784865702
 31
0.0
  0
LINE
  5
6BA
330
1F
100
AcDbEntity
  8
SK2
  6
CONTINUOUS
370
25
 62
7
100
AcDbLine
 10
4.744943796068444
 20
14.94899875921369
 30
0.0
 11
5.0
 21
14.69394255528213
 31
0.0
  0
LINE
  5
6BB
330
1F
100
AcDbEntity
  8
SK2
  6
CONTINUOUS
370
25
 62
7
100
AcDbLine
 10
35.9
 20
14.00001
 30
0.0
 11
30.9
 21
13.00001
 31
0.0
  0
LINE
  5
6BC
330
1F
100
AcDbEntity
  8
SK2
  6
CONTINUOUS
370
25
 62
7
100
AcDbLine
 10
30.9
 20
13.00001
 30
0.0
 11
30.9
 21
15.00001
 31
0.0
  0
LINE
  5
6BD
330
1F
100
AcDbEntity
  8
SK2
  6
CONTINUOUS
370
25
 62
7
100
AcDbLine
 10
30.9
 20
15.00001
 30
0.0
 11
35.9
 21
14.00001
 31
0.0
  0
LINE
  5
6BE
330
1F
100
AcDbEntity
  8
SK2
  6
CONTINUOUS
370
25
 62
7
100
AcDbLine
 10
35.89911966563294
 20
13.99983393312659
 30
0.0
 11
35.89941311042196
 21
14.00012737791561
 31
0.0
  0
LINE
  5
6BF
330
1F
100
AcDbEntity
  8
SK2
  6
CONTINUOUS
370
25
 62
7
100
AcDbLine
 10
35.36878957974304
 20
13.89376791594861
 30
0.0
 11
35.54585971982869
 21
14.07083805603426
 31
0.0
  0
LINE
  5
6C0
330
1F
100
AcDbEntity
  8
SK2
  6
CONTINUOUS
370
25
 62
7
100
AcDbLine
 10
34.83845949385313
 20
13.78770189877063
 30
0.0
 11
35.19230632923541
 21
14.14154873415292
 31
0.0
  0
LINE
  5
6C1
330
1F
100
AcDbEntity
  8
SK2
  6
CONTINUOUS
370
25
 62
7
100
AcDbLine
 10
34.30812940796322
 20
13.68163588159264
 30
0.0
 11
34.83875293864214
 21
14.21225941227157
 31
0.0
  0
LINE
  5
6C2
330
1F
100
AcDbEntity
  8
SK2
  6
CONTINUOUS
370
25
 62
7
100
AcDbLine
 10
33.77779932207331
 20
13.57556986441466
 30
0.0
 11
34.48519954804887
 21
14.28297009039023
 31
0.0
  0
LINE
  5
6C3
330
1F
100
AcDbEntity
  8
SK2
  6
CONTINUOUS
370
25
 62
7
100
AcDbLine
 10
33.2474692361834
 20
13.46950384723668
 30
0.0
 11
34.1316461574556
 21
14.35368076850888
 31
0.0
  0
LINE
  5
6C4
330
1F
100
AcDbEntity
  8
SK2
  6
CONTINUOUS
370
25
 62
7
100
AcDbLine
 10
32.71713915029348
 20
13.3634378300587
 30
0.0
 11
33.77809276686232
 21
14.42439144662753
 31
0.0
  0
LINE
  5
6C5
330
1F
100
AcDbEntity
  8
SK2
  6
CONTINUOUS
370
25
 62
7
100
AcDbLine
 10
32.18680906440358
 20
13.25737181288071
 30
0.0
 11
33.42453937626905
 21
14.49510212474619
 31
0.0
  0
LINE
  5
6C6
330
1F
100
AcDbEntity
  8
SK2
  6
CONTINUOUS
370
25
 62
7
100
AcDbLine
 10
31.65647897851367
 20
13.15130579570273
 30
0.0
 11
33.07098598567578
 21
14.56581280286484
 31
0.0
  0
LINE
  5
6C7
330
1F
100
AcDbEntity
  8
SK2
  6
CONTINUOUS
370
25
 62
7
100
AcDbLine
 10
31.12614889262376
 20
13.04523977852475
 30
0.0
 11
32.71743259508251
 21
14.6365234809835
 31
0.0
  0
LINE
  5
6C8
330
1F
100
AcDbEntity
  8
SK2
  6
CONTINUOUS
370
25
 62
7
100
AcDbLine
 10
30.9
 20
13.24335495461292
 30
0.0
 11
32.36387920448923
 21
14.70723415910215
 31
0.0
  0
LINE
  5
6C9
330
1F
100
AcDbEntity
  8
SK2
  6
CONTINUOUS
370
25
 62
7
100
AcDbLine
 10
30.9
 20
13.66761902332485
 30
0.0
 11
32.01032581389596
 21
14.77794483722081
 31
0.0
  0
LINE
  5
6CA
330
1F
100
AcDbEntity
  8
SK2
  6
CONTINUOUS
370
25
 62
7
100
AcDbLine
 10
30.9
 20
14.09188309203677
 30
0.0
 11
31.65677242330268
 21
14.84865551533946
 31
0.0
  0
LINE
  5
6CB
330
1F
100
AcDbEntity
  8
SK2
  6
CONTINUOUS
370
25
 62
7
100
AcDbLine
 10
30.9
 20
14.5161471607487
 30
0.0
 11
31.30321903270941
 21
14.91936619345812
 31
0.0
  0
LINE
  5
6CC
330
1F
100
AcDbEntity
  8
SK2
  6
CONTINUOUS
370
25
 62
7
100
AcDbLine
 10
30.9
 20
14.94041122946063
 30
0.0
 11
30.94966564211614
 21
14.99007687157677
 31
0.0
  0
LINE
  5
6CD
330
1F
100
AcDbEntity
  8
SK2
  6
CONTINUOUS
370
25
 62
7
100
AcDbLine
 10
30.9
 20
13.06101730552664
 30
0.0
 11
30.9508394212722
 21
13.01017788425444
 31
0.0
  0
LINE
  5
6CE
330
1F
100
AcDbEntity
  8
SK2
  6
CONTINUOUS
370
25
 62
7
100
AcDbLine
 10
30.9
 20
13.48528137423857
 30
0.0
 11
31.30439281186547
 21
13.08088856237309
 31
0.0
  0
LINE
  5
6CF
330
1F
100
AcDbEntity
  8
SK2
  6
CONTINUOUS
370
25
 62
7
100
AcDbLine
 10
30.9
 20
13.9095454429505
 30
0.0
 11
31.65794620245875
 21
13.15159924049175
 31
0.0
  0
LINE
  5
6D0
330
1F
100
AcDbEntity
  8
SK2
  6
CONTINUOUS
370
25
 62
7
100
AcDbLine
 10
30.9
 20
14.33380951166242
 30
0.0
 11
32.01149959305202
 21
13.2223099186104
 31
0.0
  0
LINE
  5
6D1
330
1F
100
AcDbEntity
  8
SK2
  6
CONTINUOUS
370
25
 62
7
100
AcDbLine
 10
30.9
 20
14.75807358037435
 30
0.0
 11
32.36505298364529
 21
13.29302059672906
 31
0.0
  0
LINE
  5
6D2
330
1F
100
AcDbEntity
  8
SK2
  6
CONTINUOUS
370
25
 62
7
100
AcDbLine
 10
31.12790956135785
 20
14.95442808772843
 30
0.0
 11
32.71860637423857
 21
13.36373127484771
 31
0.0
  0
LINE
  5
6D3
330
1F
100
AcDbEntity
  8
SK2
  6
CONTINUOUS
370
25
 62
7
100
AcDbLine
 10
31.65823964724776
 20
14.84836207055045
 30
0.0
 11
33.07215976483184
 21
13.43444195296637
 31
0.0
  0
LINE
  5
6D4
330
1F
100
AcDbEntity
  8
SK2
  6
CONTINUOUS
370
25
 62
7
100
AcDbLine
 10
32.18856973313767
 20
14.74229605337247
 30
0.0
 11
33.42571315542511
 21
13.50515263108502
 31
0.0
  0
LINE
  5
6D5
330
1F
100
AcDbEntity
  8
SK2
  6
CONTINUOUS
370
25
 62
7
100
AcDbLine
 10
32.71889981902758
 20
14.63623003619448
 30
0.0
 11
33.77926654601838
 21
13.57586330920368
 31
0.0
  0
LINE
  5
6D6
330
1F
100
AcDbEntity
  8
SK2
  6
CONTINUOUS
370
25
 62
7
100
AcDbLine
 10
33.24922990491748
 20
14.5301640190165
 30
0.0
 11
34.13281993661166
 21
13.64657398732233
 31
0.0
  0
LINE
  5
6D7
330
1F
100
AcDbEntity
  8
SK2
  6
CONTINUOUS
370
25
 62
7
100
AcDbLine
 10
33.7795599908074
 20
14.42409800183852
 30
0.0
 11
34.48637332720494
 21
13.71728466544099
 31
0.0
  0
LINE
  5
6D8
330
1F
100
AcDbEntity
  8
SK2
  6
CONTINUOUS
370
25
 62
7
100
AcDbLine
 10
34.30989007669731
 20
14.31803198466054
 30
0.0
 11
34.83992671779821
 21
13.78799534355964
 31
0.0
  0
LINE
  5
6D9
330
1F
100
AcDbEntity
  8
SK2
  6
CONTINUOUS
370
25
 62
7
100
AcDbLine
 10
34.84022016258722
 20
14.21196596748256
 30
0.0
 11
35.19348010839148
 21
13.8587060216783
 31
0.0
  0
LINE
  5
6DA
330
1F
100
AcDbEntity
  8
SK2
  6
CONTINUOUS
370
25
 62
7
100
AcDbLine
 10
35.37055024847713
 20
14.10589995030457
 30
0.0
 11
35.54703349898475
 21
13.92941669979695
 31
0.0
  0
TEXT
  5
6DB
330
1F
100
AcDbEntity
  8
SK2
  6
CONTINUOUS
370
25
 62
7
100
AcDbText
 10
12.7
 20
15.50001
 30
0.0
 40
3.5
  1
35.9
 72
     1
 11
17.95
 21
15.50001
 31
0.0
100
AcDbText
  0
LINE
  5
6DC
330
1F
100
AcDbEntity
  8
2
  6
CONTINUOUS
370
25
 62
7
100
AcDbLine
 10
44.8
 20
-0.2
 30
0.0
 11
71.925
 21
-0.2000000000000033
 31
0.0
  0
LINE
  5
6DD
330
1F
100
AcDbEntity
  8
2
  6
CONTINUOUS
370
25
 62
7
100
AcDbLine
 10
71.925
 20
0.1999999999999967
 30
0.0
 11
44.8
 21
0.2
 31
0.0
  0
LINE
  5
6DE
330
1F
100
AcDbEntity
  8
2
  6
CONTINUOUS
370
25
 62
7
100
AcDbLine
 10
70.925
 20
-7.200000000000003
 30
0.0
 11
70.925
 21
19.625
 31
0.0
  0
LINE
  5
6DF
330
1F
100
AcDbEntity
  8
2
  6
CONTINUOUS
370
25
 62
7
100
AcDbLine
 10
70.925
 20
-0.2000000000000032
 30
0.0
 11
71.925
 21
-5.200000000000003
 31
0.0
  0
LINE
  5
6E0
330
1F
100
AcDbEntity
  8
2
  6
CONTINUOUS
370
25
 62
7
100
AcDbLine
 10
71.925
 20
-5.200000000000003
 30
0.0
 11
69.925
 21
-5.200000000000003
 31
0.0
  0
LINE
  5
6E1
330
1F
100
AcDbEntity
  8
2
  6
CONTINUOUS
370
25
 62
7
100
AcDbLine
 10
69.925
 20
-5.200000000000003
 30
0.0
 11
70.925
 21
-0.2000000000000032
 31
0.0
  0
LINE
  5
6E2
330
1F
100
AcDbEntity
  8
2
  6
CONTINUOUS
370
25
 62
7
100
AcDbLine
 10
71.67668352078385
 20
-5.200000000000003
 30
0.0
 11
71.88361392013064
 21
-4.993069600653214
 31
0.0
  0
LINE
  5
6E3
330
1F
100
AcDbEntity
  8
2
  6
CONTINUOUS
370
25
 62
7
100
AcDbLine
 10
71.25241945207193
 20
-5.200000000000003
 30
0.0
 11
71.81290324201198
 21
-4.639516210059945
 31
0.0
  0
LINE
  5
6E4
330
1F
100
AcDbEntity
  8
2
  6
CONTINUOUS
370
25
 62
7
100
AcDbLine
 10
70.82815538336
 20
-5.200000000000003
 30
0.0
 11
71.74219256389333
 21
-4.285962819466675
 31
0.0
  0
LINE
  5
6E5
330
1F
100
AcDbEntity
  8
2
  6
CONTINUOUS
370
25
 62
7
100
AcDbLine
 10
70.40389131464806
 20
-5.200000000000003
 30
0.0
 11
71.67148188577468
 21
-3.932409428873392
 31
0.0
  0
LINE
  5
6E6
330
1F
100
AcDbEntity
  8
2
  6
CONTINUOUS
370
25
 62
7
100
AcDbLine
 10
69.97962724593614
 20
-5.200000000000003
 30
0.0
 11
71.60077120765602
 21
-3.578856038280115
 31
0.0
  0
LINE
  5
6E7
330
1F
100
AcDbEntity
  8
2
  6
CONTINUOUS
370
25
 62
7
100
AcDbLine
 10
70.01740920569395
 20
-4.737953971530267
 30
0.0
 11
71.53006052953737
 21
-3.225302647686846
 31
0.0
  0
LINE
  5
6E8
330
1F
100
AcDbEntity
  8
2
  6
CONTINUOUS
370
25
 62
7
100
AcDbLine
 10
70.12347522287192
 20
-4.207623885640352
 30
0.0
 11
71.45934985141871
 21
-2.871749257093569
 31
0.0
  0
LINE
  5
6E9
330
1F
100
AcDbEntity
  8
2
  6
CONTINUOUS
370
25
 62
7
100
AcDbLine
 10
70.22954124004991
 20
-3.677293799750451
 30
0.0
 11
71.38863917330005
 21
-2.518195866500299
 31
0.0
  0
LINE
  5
6EA
330
1F
100
AcDbEntity
  8
2
  6
CONTINUOUS
370
25
 62
7
100
AcDbLine
 10
70.33560725722788
 20
-3.146963713860536
 30
0.0
 11
71.3179284951814
 21
-2.164642475907016
 31
0.0
  0
LINE
  5
6EB
330
1F
100
AcDbEntity
  8
2
  6
CONTINUOUS
370
25
 62
7
100
AcDbLine
 10
70.44167327440587
 20
-2.616633627970629
 30
0.0
 11
71.24721781706273
 21
-1.811089085313746
 31
0.0
  0
LINE
  5
6EC
330
1F
100
AcDbEntity
  8
2
  6
CONTINUOUS
370
25
 62
7
100
AcDbLine
 10
70.54773929158385
 20
-2.086303542080707
 30
0.0
 11
71.17650713894409
 21
-1.45753569472047
 31
0.0
  0
LINE
  5
6ED
330
1F
100
AcDbEntity
  8
2
  6
CONTINUOUS
370
25
 62
7
100
AcDbLine
 10
70.65380530876183
 20
-1.555973456190785
 30
0.0
 11
71.10579646082543
 21
-1.103982304127193
 31
0.0
  0
LINE
  5
6EE
330
1F
100
AcDbEntity
  8
2
  6
CONTINUOUS
370
25
 62
7
100
AcDbLine
 10
70.75987132593983
 20
-1.02564337030087
 30
0.0
 11
71.03508578270677
 21
-0.7504289135339164
 31
0.0
  0
LINE
  5
6EF
330
1F
100
AcDbEntity
  8
2
  6
CONTINUOUS
370
25
 62
7
100
AcDbLine
 10
70.8659373431178
 20
-0.4953132844109618
 30
0.0
 11
70.96437510458813
 21
-0.3968755229406398
 31
0.0
  0
LINE
  5
6F0
330
1F
100
AcDbEntity
  8
2
  6
CONTINUOUS
370
25
 62
7
100
AcDbLine
 10
69.92915944540185
 20
-5.179202772990738
 30
0.0
 11
69.9499566724111
 21
-5.199999999999999
 31
0.0
  0
LINE
  5
6F1
330
1F
100
AcDbEntity
  8
2
  6
CONTINUOUS
370
25
 62
7
100
AcDbLine
 10
69.99987012352051
 20
-4.825649382397451
 30
0.0
 11
70.37422074112305
 21
-5.200000000000003
 31
0.0
  0
LINE
  5
6F2
330
1F
100
AcDbEntity
  8
2
  6
CONTINUOUS
370
25
 62
7
100
AcDbLine
 10
70.07058080163915
 20
-4.472095991804181
 30
0.0
 11
70.79848480983497
 21
-5.200000000000003
 31
0.0
  0
LINE
  5
6F3
330
1F
100
AcDbEntity
  8
2
  6
CONTINUOUS
370
25
 62
7
100
AcDbLine
 10
70.14129147975783
 20
-4.118542601210908
 30
0.0
 11
71.22274887854691
 21
-5.199999999999999
 31
0.0
  0
LINE
  5
6F4
330
1F
100
AcDbEntity
  8
2
  6
CONTINUOUS
370
25
 62
7
100
AcDbLine
 10
70.21200215787647
 20
-3.764989210617632
 30
0.0
 11
71.64701294725884
 21
-5.200000000000006
 31
0.0
  0
LINE
  5
6F5
330
1F
100
AcDbEntity
  8
2
  6
CONTINUOUS
370
25
 62
7
100
AcDbLine
 10
70.28271283599513
 20
-3.411435820024366
 30
0.0
 11
71.88843074600729
 21
-5.017153730036526
 31
0.0
  0
LINE
  5
6F6
330
1F
100
AcDbEntity
  8
2
  6
CONTINUOUS
370
25
 62
7
100
AcDbLine
 10
70.35342351411379
 20
-3.057882429431082
 30
0.0
 11
71.78236472882932
 21
-4.486823644146611
 31
0.0
  0
LINE
  5
6F7
330
1F
100
AcDbEntity
  8
2
  6
CONTINUOUS
370
25
 62
7
100
AcDbLine
 10
70.42413419223243
 20
-2.704329038837816
 30
0.0
 11
71.67629871165133
 21
-3.956493558256707
 31
0.0
  0
LINE
  5
6F8
330
1F
100
AcDbEntity
  8
2
  6
CONTINUOUS
370
25
 62
7
100
AcDbLine
 10
70.49484487035109
 20
-2.350775648244536
 30
0.0
 11
71.57023269447336
 21
-3.426163472366795
 31
0.0
  0
LINE
  5
6F9
330
1F
100
AcDbEntity
  8
2
  6
CONTINUOUS
370
25
 62
7
100
AcDbLine
 10
70.56555554846975
 20
-1.997222257651266
 30
0.0
 11
71.46416667729537
 21
-2.89583338647688
 31
0.0
  0
LINE
  5
6FA
330
1F
100
AcDbEntity
  8
2
  6
CONTINUOUS
370
25
 62
7
100
AcDbLine
 10
70.63626622658839
 20
-1.64366886705799
 30
0.0
 11
71.3581006601174
 21
-2.36550330058698
 31
0.0
  0
LINE
  5
6FB
330
1F
100
AcDbEntity
  8
2
  6
CONTINUOUS
370
25
 62
7
100
AcDbLine
 10
70.70697690470706
 20
-1.290115476464713
 30
0.0
 11
71.2520346429394
 21
-1.835173214697065
 31
0.0
  0
LINE
  5
6FC
330
1F
100
AcDbEntity
  8
2
  6
CONTINUOUS
370
25
 62
7
100
AcDbLine
 10
70.7776875828257
 20
-0.9365620858714365
 30
0.0
 11
71.14596862576143
 21
-1.304843128807157
 31
0.0
  0
LINE
  5
6FD
330
1F
100
AcDbEntity
  8
2
  6
CONTINUOUS
370
25
 62
7
100
AcDbLine
 10
70.84839826094436
 20
-0.583008695278167
 30
0.0
 11
71.03990260858345
 21
-0.774513042917242
 31
0.0
  0
LINE
  5
6FE
330
1F
100
AcDbEntity
  8
2
  6
CONTINUOUS
370
25
 62
7
100
AcDbLine
 10
70.91910893906302
 20
-0.2294553046848904
 30
0.0
 11
70.93383659140545
 21
-0.2441829570273342
 31
0.0
  0
LINE
  5
6FF
330
1F
100
AcDbEntity
  8
2
  6
CONTINUOUS
370
25
 62
7
100
AcDbLine
 10
70.925
 20
0.1999999999999968
 30
0.0
 11
69.925
 21
5.199999999999997
 31
0.0
  0
LINE
  5
700
330
1F
100
AcDbEntity
  8
2
  6
CONTINUOUS
370
25
 62
7
100
AcDbLine
 10
69.925
 20
5.199999999999997
 30
0.0
 11
71.925
 21
5.199999999999997
 31
0.0
  0
LINE
  5
701
330
1F
100
AcDbEntity
  8
2
  6
CONTINUOUS
370
25
 62
7
100
AcDbLine
 10
71.925
 20
5.199999999999997
 30
0.0
 11
70.925
 21
0.1999999999999968
 31
0.0
  0
LINE
  5
702
330
1F
100
AcDbEntity
  8
2
  6
CONTINUOUS
370
25
 62
7
100
AcDbLine
 10
70.85738736798385
 20
0.5380631600807106
 30
0.0
 11
71.02641894802422
 21
0.7070947401210717
 31
0.0
  0
LINE
  5
703
330
1F
100
AcDbEntity
  8
2
  6
CONTINUOUS
370
25
 62
7
100
AcDbLine
 10
70.7866766898652
 20
0.8916165506739873
 30
0.0
 11
71.1324849652022
 21
1.237424826010994
 31
0.0
  0
LINE
  5
704
330
1F
100
AcDbEntity
  8
2
  6
CONTINUOUS
370
25
 62
7
100
AcDbLine
 10
70.71596601174654
 20
1.245169941267264
 30
0.0
 11
71.23855098238019
 21
1.767754911900902
 31
0.0
  0
LINE
  5
705
330
1F
100
AcDbEntity
  8
2
  6
CONTINUOUS
370
25
 62
7
100
AcDbLine
 10
70.64525533362789
 20
1.59872333186054
 30
0.0
 11
71.34461699955816
 21
2.298084997790816
 31
0.0
  0
LINE
  5
706
330
1F
100
AcDbEntity
  8
2
  6
CONTINUOUS
370
25
 62
7
100
AcDbLine
 10
70.57454465550924
 20
1.952276722453817
 30
0.0
 11
71.45068301673615
 21
2.828415083680731
 31
0.0
  0
LINE
  5
707
330
1F
100
AcDbEntity
  8
2
  6
CONTINUOUS
370
25
 62
7
100
AcDbLine
 10
70.50383397739057
 20
2.305830113047087
 30
0.0
 11
71.55674903391413
 21
3.358745169570639
 31
0.0
  0
LINE
  5
708
330
1F
100
AcDbEntity
  8
2
  6
CONTINUOUS
370
25
 62
7
100
AcDbLine
 10
70.43312329927193
 20
2.65938350364036
 30
0.0
 11
71.66281505109211
 21
3.889075255460558
 31
0.0
  0
LINE
  5
709
330
1F
100
AcDbEntity
  8
2
  6
CONTINUOUS
370
25
 62
7
100
AcDbLine
 10
70.36241262115327
 20
3.012936894233636
 30
0.0
 11
71.76888106827009
 21
4.419405341350465
 31
0.0
  0
LINE
  5
70A
330
1F
100
AcDbEntity
  8
2
  6
CONTINUOUS
370
25
 62
7
100
AcDbLine
 10
70.29170194303461
 20
3.366490284826913
 30
0.0
 11
71.87494708544807
 21
4.949735427240373
 31
0.0
  0
LINE
  5
70B
330
1F
100
AcDbEntity
  8
2
  6
CONTINUOUS
370
25
 62
7
100
AcDbLine
 10
70.22099126491597
 20
3.720043675420186
 30
0.0
 11
71.70094758949577
 21
5.199999999999996
 31
0.0
  0
LINE
  5
70C
330
1F
100
AcDbEntity
  8
2
  6
CONTINUOUS
370
25
 62
7
100
AcDbLine
 10
70.1502805867973
 20
4.073597066013456
 30
0.0
 11
71.27668352078383
 21
5.199999999999996
 31
0.0
  0
LINE
  5
70D
330
1F
100
AcDbEntity
  8
2
  6
CONTINUOUS
370
25
 62
7
100
AcDbLine
 10
70.07956990867865
 20
4.427150456606732
 30
0.0
 11
70.8524194520719
 21
5.199999999999996
 31
0.0
  0
LINE
  5
70E
330
1F
100
AcDbEntity
  8
2
  6
CONTINUOUS
370
25
 62
7
100
AcDbLine
 10
70.00885923055999
 20
4.780703847200016
 30
0.0
 11
70.42815538335998
 21
5.199999999999996
 31
0.0
  0
LINE
  5
70F
330
1F
100
AcDbEntity
  8
2
  6
CONTINUOUS
370
25
 62
7
100
AcDbLine
 10
69.93814855244133
 20
5.134257237793296
 30
0.0
 11
70.00389131464804
 21
5.199999999999999
 31
0.0
  0
LINE
  5
710
330
1F
100
AcDbEntity
  8
2
  6
CONTINUOUS
370
25
 62
7
100
AcDbLine
 10
70.8217045570495
 20
0.7164772147524872
 30
0.0
 11
70.99386362863368
 21
0.5443181431683186
 31
0.0
  0
LINE
  5
711
330
1F
100
AcDbEntity
  8
2
  6
CONTINUOUS
370
25
 62
7
100
AcDbLine
 10
70.71563853987152
 20
1.246807300642395
 30
0.0
 11
71.06457430675232
 21
0.8978715337615952
 31
0.0
  0
LINE
  5
712
330
1F
100
AcDbEntity
  8
2
  6
CONTINUOUS
370
25
 62
7
100
AcDbLine
 10
70.60957252269353
 20
1.777137386532317
 30
0.0
 11
71.13528498487098
 21
1.251424924354872
 31
0.0
  0
LINE
  5
713
330
1F
100
AcDbEntity
  8
2
  6
CONTINUOUS
370
25
 62
7
100
AcDbLine
 10
70.50350650551556
 20
2.307467472422218
 30
0.0
 11
71.20599566298964
 21
1.604978314948148
 31
0.0
  0
LINE
  5
714
330
1F
100
AcDbEntity
  8
2
  6
CONTINUOUS
370
25
 62
7
100
AcDbLine
 10
70.39744048833757
 20
2.837797558312126
 30
0.0
 11
71.27670634110828
 21
1.958531705541418
 31
0.0
  0
LINE
  5
715
330
1F
100
AcDbEntity
  8
2
  6
CONTINUOUS
370
25
 62
7
100
AcDbLine
 10
70.2913744711596
 20
3.368127644202033
 30
0.0
 11
71.34741701922694
 21
2.312085096134695
 31
0.0
  0
LINE
  5
716
330
1F
100
AcDbEntity
  8
2
  6
CONTINUOUS
370
25
 62
7
100
AcDbLine
 10
70.1853084539816
 20
3.898457730091948
 30
0.0
 11
71.4181276973456
 21
2.665638486727978
 31
0.0
  0
LINE
  5
717
330
1F
100
AcDbEntity
  8
2
  6
CONTINUOUS
370
25
 62
7
100
AcDbLine
 10
70.07924243680363
 20
4.428787815981863
 30
0.0
 11
71.48883837546425
 21
3.019191877321241
 31
0.0
  0
LINE
  5
718
330
1F
100
AcDbEntity
  8
2
  6
CONTINUOUS
370
25
 62
7
100
AcDbLine
 10
69.97317641962564
 20
4.959117901871764
 30
0.0
 11
71.55954905358291
 21
3.372745267914517
 31
0.0
  0
LINE
  5
719
330
1F
100
AcDbEntity
  8
2
  6
CONTINUOUS
370
25
 62
7
100
AcDbLine
 10
70.15655839020934
 20
5.199999999999996
 30
0.0
 11
71.63025973170156
 21
3.726298658507794
 31
0.0
  0
LINE
  5
71A
330
1F
100
AcDbEntity
  8
2
  6
CONTINUOUS
370
25
 62
7
100
AcDbLine
 10
70.58082245892129
 20
5.199999999999996
 30
0.0
 11
71.70097040982021
 21
4.079852049101071
 31
0.0
  0
LINE
  5
71B
330
1F
100
AcDbEntity
  8
2
  6
CONTINUOUS
370
25
 62
7
100
AcDbLine
 10
71.00508652763321
 20
5.199999999999996
 30
0.0
 11
71.77168108793887
 21
4.43340543969434
 31
0.0
  0
LINE
  5
71C
330
1F
100
AcDbEntity
  8
2
  6
CONTINUOUS
370
25
 62
7
100
AcDbLine
 10
71.42935059634513
 20
5.199999999999996
 30
0.0
 11
71.84239176605752
 21
4.786958830287617
 31
0.0
  0
LINE
  5
71D
330
1F
100
AcDbEntity
  8
2
  6
CONTINUOUS
370
25
 62
7
100
AcDbLine
 10
71.85361466505708
 20
5.199999999999996
 30
0.0
 11
71.91310244417619
 21
5.140512220880886
 31
0.0
  0
TEXT
  5
71E
330
1F
100
AcDbEntity
  8
2
  6
CONTINUOUS
370
25
 62
7
100
AcDbText
 10
69.425
 20
11.47916666666666
 30
0.0
 40
3.5
  1
0.4
 50
90.00000000000001
 72
     1
 11
69.425
 21
14.6875
 31
0.0
100
AcDbText
  0
CIRCLE
  5
71F
330
1F
100
AcDbEntity
  8
2
  6
CONTINUOUS
370
25
 62
7
100
AcDbCircle
 10
67.675
 20
8.212499999999995
 30
0.0
 40
1.4
  0
LINE
  5
720
330
1F
100
AcDbEntity
  8
2
  6
CONTINUOUS
370
25
 62
7
100
AcDbLine
 10
69.07499999999999
 20
6.812499999999996
 30
0.0
 11
66.275
 21
9.612499999999995
 31
0.0
  0
LINE
  5
721
330
1F
100
AcDbEntity
  8
2
  6
CONTINUOUS
370
25
 62
7
100
AcDbLine
 10
44.7
 20
-0.18995
 30
0.0
 11
41.7
 21
-0.1899499999999997
 31
0.0
  0
LINE
  5
722
330
1F
100
AcDbEntity
  8
2
  6
CONTINUOUS
370
25
 62
7
100
AcDbLine
 10
41.7
 20
0.1899500000000004
 30
0.0
 11
44.7
 21
0.18995
 31
0.0
  0
LINE
  5
723
330
1F
100
AcDbEntity
  8
2
  6
CONTINUOUS
370
25
 62
7
100
AcDbLine
 10
42.7
 20
-7.18995
 30
0.0
 11
42.7
 21
22.58995
 31
0.0
  0
LINE
  5
724
330
1F
100
AcDbEntity
  8
2
  6
CONTINUOUS
370
25
 62
7
100
AcDbLine
 10
42.7
 20
-0.1899499999999998
 30
0.0
 11
43.7
 21
-5.18995
 31
0.0
  0
LINE
  5
725
330
1F
100
AcDbEntity
  8
2
  6
CONTINUOUS
370
25
 62
7
100
AcDbLine
 10
43.7
 20
-5.18995
 30
0.0
 11
41.7
 21
-5.18995
 31
0.0
  0
LINE
  5
726
330
1F
100
AcDbEntity
  8
2
  6
CONTINUOUS
370
25
 62
7
100
AcDbLine
 10
41.7
 20
-5.18995
 30
0.0
 11
42.7
 21
-0.1899499999999998
 31
0.0
  0
LINE
  5
727
330
1F
100
AcDbEntity
  8
2
  6
CONTINUOUS
370
25
 62
7
100
AcDbLine
 10
43.64232612448304
 20
-5.18995
 30
0.0
 11
43.69038768741384
 21
-5.1418884370692
 31
0.0
  0
LINE
  5
728
330
1F
100
AcDbEntity
  8
2
  6
CONTINUOUS
370
25
 62
7
100
AcDbLine
 10
43.21806205577111
 20
-5.18995
 30
0.0
 11
43.61967700929518
 21
-4.78833504647593
 31
0.0
  0
LINE
  5
729
330
1F
100
AcDbEntity
  8
2
  6
CONTINUOUS
370
25
 62
7
100
AcDbLine
 10
42.79379798705919
 20
-5.18995
 30
0.0
 11
43.54896633117653
 21
-4.434781655882655
 31
0.0
  0
LINE
  5
72A
330
1F
100
AcDbEntity
  8
2
  6
CONTINUOUS
370
25
 62
7
100
AcDbLine
 10
42.36953391834726
 20
-5.18995
 30
0.0
 11
43.47825565305787
 21
-4.081228265289382
 31
0.0
  0
LINE
  5
72B
330
1F
100
AcDbEntity
  8
2
  6
CONTINUOUS
370
25
 62
7
100
AcDbLine
 10
41.94526984963532
 20
-5.18995
 30
0.0
 11
43.40754497493922
 21
-3.727674874696107
 31
0.0
  0
LINE
  5
72C
330
1F
100
AcDbEntity
  8
2
  6
CONTINUOUS
370
25
 62
7
100
AcDbLine
 10
41.74474855476915
 20
-4.966207226154251
 30
0.0
 11
43.33683429682056
 21
-3.374121484102834
 31
0.0
  0
LINE
  5
72D
330
1F
100
AcDbEntity
  8
2
  6
CONTINUOUS
370
25
 62
7
100
AcDbLine
 10
41.85081457194713
 20
-4.43587714026434
 30
0.0
 11
43.26612361870191
 21
-3.020568093509561
 31
0.0
  0
LINE
  5
72E
330
1F
100
AcDbEntity
  8
2
  6
CONTINUOUS
370
25
 62
7
100
AcDbLine
 10
41.95688058912511
 20
-3.905547054374431
 30
0.0
 11
43.19541294058325
 21
-2.667014702916288
 31
0.0
  0
LINE
  5
72F
330
1F
100
AcDbEntity
  8
2
  6
CONTINUOUS
370
25
 62
7
100
AcDbLine
 10
42.06294660630309
 20
-3.375216968484519
 30
0.0
 11
43.1247022624646
 21
-2.313461312323013
 31
0.0
  0
LINE
  5
730
330
1F
100
AcDbEntity
  8
2
  6
CONTINUOUS
370
25
 62
7
100
AcDbLine
 10
42.16901262348108
 20
-2.844886882594611
 30
0.0
 11
43.05399158434594
 21
-1.959907921729742
 31
0.0
  0
LINE
  5
731
330
1F
100
AcDbEntity
  8
2
  6
CONTINUOUS
370
25
 62
7
100
AcDbLine
 10
42.27507864065906
 20
-2.3145567967047
 30
0.0
 11
42.98328090622729
 21
-1.606354531136467
 31
0.0
  0
LINE
  5
732
330
1F
100
AcDbEntity
  8
2
  6
CONTINUOUS
370
25
 62
7
100
AcDbLine
 10
42.38114465783704
 20
-1.78422671081479
 30
0.0
 11
42.91257022810863
 21
-1.252801140543194
 31
0.0
  0
LINE
  5
733
330
1F
100
AcDbEntity
  8
2
  6
CONTINUOUS
370
25
 62
7
100
AcDbLine
 10
42.48721067501502
 20
-1.253896624924881
 30
0.0
 11
42.84185954998998
 21
-0.8992477499499207
 31
0.0
  0
LINE
  5
734
330
1F
100
AcDbEntity
  8
2
  6
CONTINUOUS
370
25
 62
7
100
AcDbLine
 10
42.59327669219301
 20
-0.7235665390349677
 30
0.0
 11
42.77114887187133
 21
-0.545694359356645
 31
0.0
  0
LINE
  5
735
330
1F
100
AcDbEntity
  8
2
  6
CONTINUOUS
370
25
 62
7
100
AcDbLine
 10
42.69934270937099
 20
-0.193236453145059
 30
0.0
 11
42.70043819375267
 21
-0.1921409687633746
 31
0.0
  0
LINE
  5
736
330
1F
100
AcDbEntity
  8
2
  6
CONTINUOUS
370
25
 62
7
100
AcDbLine
 10
41.71353727945587
 20
-5.122263602720631
 30
0.0
 11
41.78122367673524
 21
-5.18995
 31
0.0
  0
LINE
  5
737
330
1F
100
AcDbEntity
  8
2
  6
CONTINUOUS
370
25
 62
7
100
AcDbLine
 10
41.78424795757453
 20
-4.768710212127359
 30
0.0
 11
42.20548774544717
 21
-5.18995
 31
0.0
  0
LINE
  5
738
330
1F
100
AcDbEntity
  8
2
  6
CONTINUOUS
370
25
 62
7
100
AcDbLine
 10
41.85495863569318
 20
-4.415156821534085
 30
0.0
 11
42.6297518141591
 21
-5.18995
 31
0.0
  0
LINE
  5
739
330
1F
100
AcDbEntity
  8
2
  6
CONTINUOUS
370
25
 62
7
100
AcDbLine
 10
41.92566931381184
 20
-4.061603430940812
 30
0.0
 11
43.05401588287103
 21
-5.18995
 31
0.0
  0
LINE
  5
73A
330
1F
100
AcDbEntity
  8
2
  6
CONTINUOUS
370
25
 62
7
100
AcDbLine
 10
41.9963799919305
 20
-3.70805004034754
 30
0.0
 11
43.47827995158296
 21
-5.18995
 31
0.0
  0
LINE
  5
73B
330
1F
100
AcDbEntity
  8
2
  6
CONTINUOUS
370
25
 62
7
100
AcDbLine
 10
42.06709067004915
 20
-3.354496649754266
 30
0.0
 11
43.64936399492628
 21
-4.936769974631393
 31
0.0
  0
LINE
  5
73C
330
1F
100
AcDbEntity
  8
2
  6
CONTINUOUS
370
25
 62
7
100
AcDbLine
 10
42.1378013481678
 20
-3.000943259160993
 30
0.0
 11
43.5432979777483
 21
-4.406439888741484
 31
0.0
  0
LINE
  5
73D
330
1F
100
AcDbEntity
  8
2
  6
CONTINUOUS
370
25
 62
7
100
AcDbLine
 10
42.20851202628646
 20
-2.647389868567718
 30
0.0
 11
43.43723196057032
 21
-3.876109802851572
 31
0.0
  0
LINE
  5
73E
330
1F
100
AcDbEntity
  8
2
  6
CONTINUOUS
370
25
 62
7
100
AcDbLine
 10
42.27922270440511
 20
-2.293836477974445
 30
0.0
 11
43.33116594339233
 21
-3.345779716961663
 31
0.0
  0
LINE
  5
73F
330
1F
100
AcDbEntity
  8
2
  6
CONTINUOUS
370
25
 62
7
100
AcDbLine
 10
42.34993338252377
 20
-1.940283087381172
 30
0.0
 11
43.22509992621435
 21
-2.815449631071753
 31
0.0
  0
LINE
  5
740
330
1F
100
AcDbEntity
  8
2
  6
CONTINUOUS
370
25
 62
7
100
AcDbLine
 10
42.42064406064242
 20
-1.586729696787897
 30
0.0
 11
43.11903390903637
 21
-2.285119545181843
 31
0.0
  0
LINE
  5
741
330
1F
100
AcDbEntity
  8
2
  6
CONTINUOUS
370
25
 62
7
100
AcDbLine
 10
42.49135473876107
 20
-1.233176306194623
 30
0.0
 11
43.01296789185838
 21
-1.754789459291932
 31
0.0
  0
LINE
  5
742
330
1F
100
AcDbEntity
  8
2
  6
CONTINUOUS
370
25
 62
7
100
AcDbLine
 10
42.56206541687973
 20
-0.8796229156013506
 30
0.0
 11
42.9069018746804
 21
-1.224459373402023
 31
0.0
  0
LINE
  5
743
330
1F
100
AcDbEntity
  8
2
  6
CONTINUOUS
370
25
 62
7
100
AcDbLine
 10
42.63277609499838
 20
-0.5260695250080758
 30
0.0
 11
42.80083585750242
 21
-0.6941292875121121
 31
0.0
  0
LINE
  5
744
330
1F
100
AcDbEntity
  8
2
  6
CONTINUOUS
370
25
 62
7
100
AcDbLine
 10
42.7
 20
0.1899500000000003
 30
0.0
 11
41.7
 21
5.189950000000001
 31
0.0
  0
LINE
  5
745
330
1F
100
AcDbEntity
  8
2
  6
CONTINUOUS
370
25
 62
7
100
AcDbLine
 10
41.7
 20
5.189950000000001
 30
0.0
 11
43.7
 21
5.189950000000001
 31
0.0
  0
LINE
  5
746
330
1F
100
AcDbEntity
  8
2
  6
CONTINUOUS
370
25
 62
7
100
AcDbLine
 10
43.7
 20
5.189950000000001
 30
0.0
 11
42.7
 21
0.1899500000000003
 31
0.0
  0
LINE
  5
747
330
1F
100
AcDbEntity
  8
2
  6
CONTINUOUS
370
25
 62
7
100
AcDbLine
 10
42.66751113526706
 20
0.3523943236647291
 30
0.0
 11
42.74873329709942
 21
0.433616485497093
 31
0.0
  0
LINE
  5
748
330
1F
100
AcDbEntity
  8
2
  6
CONTINUOUS
370
25
 62
7
100
AcDbLine
 10
42.5968004571484
 20
0.7059477142580022
 30
0.0
 11
42.8547993142774
 21
0.9639465713870026
 31
0.0
  0
LINE
  5
749
330
1F
100
AcDbEntity
  8
2
  6
CONTINUOUS
370
25
 62
7
100
AcDbLine
 10
42.52608977902975
 20
1.059501104851277
 30
0.0
 11
42.96086533145538
 21
1.494276657276912
 31
0.0
  0
LINE
  5
74A
330
1F
100
AcDbEntity
  8
2
  6
CONTINUOUS
370
25
 62
7
100
AcDbLine
 10
42.45537910091109
 20
1.413054495444549
 30
0.0
 11
43.06693134863336
 21
2.024606743166823
 31
0.0
  0
LINE
  5
74B
330
1F
100
AcDbEntity
  8
2
  6
CONTINUOUS
370
25
 62
7
100
AcDbLine
 10
42.38466842279244
 20
1.766607886037822
 30
0.0
 11
43.17299736581134
 21
2.554936829056732
 31
0.0
  0
LINE
  5
74C
330
1F
100
AcDbEntity
  8
2
  6
CONTINUOUS
370
25
 62
7
100
AcDbLine
 10
42.31395774467378
 20
2.120161276631096
 30
0.0
 11
43.27906338298933
 21
3.085266914946642
 31
0.0
  0
LINE
  5
74D
330
1F
100
AcDbEntity
  8
2
  6
CONTINUOUS
370
25
 62
7
100
AcDbLine
 10
42.24324706655513
 20
2.473714667224369
 30
0.0
 11
43.38512940016731
 21
3.615597000836551
 31
0.0
  0
LINE
  5
74E
330
1F
100
AcDbEntity
  8
2
  6
CONTINUOUS
370
25
 62
7
100
AcDbLine
 10
42.17253638843647
 20
2.827268057817643
 30
0.0
 11
43.49119541734529
 21
4.145927086726462
 31
0.0
  0
LINE
  5
74F
330
1F
100
AcDbEntity
  8
2
  6
CONTINUOUS
370
25
 62
7
100
AcDbLine
 10
42.10182571031782
 20
3.180821448410917
 30
0.0
 11
43.59726143452328
 21
4.676257172616372
 31
0.0
  0
LINE
  5
750
330
1F
100
AcDbEntity
  8
2
  6
CONTINUOUS
370
25
 62
7
100
AcDbLine
 10
42.03111503219916
 20
3.53437483900419
 30
0.0
 11
43.68669019319498
 21
5.189950000000001
 31
0.0
  0
LINE
  5
751
330
1F
100
AcDbEntity
  8
2
  6
CONTINUOUS
370
25
 62
7
100
AcDbLine
 10
41.96040435408051
 20
3.887928229597463
 30
0.0
 11
43.26242612448304
 21
5.189950000000001
 31
0.0
  0
LINE
  5
752
330
1F
100
AcDbEntity
  8
2
  6
CONTINUOUS
370
25
 62
7
100
AcDbLine
 10
41.88969367596185
 20
4.241481620190736
 30
0.0
 11
42.83816205577112
 21
5.189950000000001
 31
0.0
  0
LINE
  5
753
330
1F
100
AcDbEntity
  8
2
  6
CONTINUOUS
370
25
 62
7
100
AcDbLine
 10
41.8189829978432
 20
4.59503501078401
 30
0.0
 11
42.41389798705919
 21
5.189950000000001
 31
0.0
  0
LINE
  5
754
330
1F
100
AcDbEntity
  8
2
  6
CONTINUOUS
370
25
 62
7
100
AcDbLine
 10
41.74827231972454
 20
4.948588401377283
 30
0.0
 11
41.98963391834726
 21
5.189950000000001
 31
0.0
  0
LINE
  5
755
330
1F
100
AcDbEntity
  8
2
  6
CONTINUOUS
370
25
 62
7
100
AcDbLine
 10
42.6443652079743
 20
0.4681239601284846
 30
0.0
 11
42.73708986135046
 21
0.3753993067523238
 31
0.0
  0
LINE
  5
756
330
1F
100
AcDbEntity
  8
2
  6
CONTINUOUS
370
25
 62
7
100
AcDbLine
 10
42.53829919079632
 20
0.998454046018395
 30
0.0
 11
42.80780053946912
 21
0.7289526973455969
 31
0.0
  0
LINE
  5
757
330
1F
100
AcDbEntity
  8
2
  6
CONTINUOUS
370
25
 62
7
100
AcDbLine
 10
42.43223317361834
 20
1.528784131908305
 30
0.0
 11
42.87851121758777
 21
1.08250608793887
 31
0.0
  0
LINE
  5
758
330
1F
100
AcDbEntity
  8
2
  6
CONTINUOUS
370
25
 62
7
100
AcDbLine
 10
42.32616715644036
 20
2.059114217798214
 30
0.0
 11
42.94922189570643
 21
1.436059478532143
 31
0.0
  0
LINE
  5
759
330
1F
100
AcDbEntity
  8
2
  6
CONTINUOUS
370
25
 62
7
100
AcDbLine
 10
42.22010113926238
 20
2.589444303688126
 30
0.0
 11
43.01993257382508
 21
1.789612869125418
 31
0.0
  0
LINE
  5
75A
330
1F
100
AcDbEntity
  8
2
  6
CONTINUOUS
370
25
 62
7
100
AcDbLine
 10
42.11403512208439
 20
3.119774389578035
 30
0.0
 11
43.09064325194374
 21
2.143166259718691
 31
0.0
  0
LINE
  5
75B
330
1F
100
AcDbEntity
  8
2
  6
CONTINUOUS
370
25
 62
7
100
AcDbLine
 10
42.00796910490641
 20
3.650104475467944
 30
0.0
 11
43.16135393006239
 21
2.496719650311966
 31
0.0
  0
LINE
  5
75C
330
1F
100
AcDbEntity
  8
2
  6
CONTINUOUS
370
25
 62
7
100
AcDbLine
 10
41.90190308772843
 20
4.180434561357856
 30
0.0
 11
43.23206460818105
 21
2.850273040905239
 31
0.0
  0
LINE
  5
75D
330
1F
100
AcDbEntity
  8
2
  6
CONTINUOUS
370
25
 62
7
100
AcDbLine
 10
41.79583707055045
 20
4.710764647247767
 30
0.0
 11
43.3027752862997
 21
3.203826431498514
 31
0.0
  0
LINE
  5
75E
330
1F
100
AcDbEntity
  8
2
  6
CONTINUOUS
370
25
 62
7
100
AcDbLine
 10
41.74091578651014
 20
5.189950000000001
 30
0.0
 11
43.37348596441836
 21
3.557379822091787
 31
0.0
  0
LINE
  5
75F
330
1F
100
AcDbEntity
  8
2
  6
CONTINUOUS
370
25
 62
7
100
AcDbLine
 10
42.16517985522207
 20
5.189950000000001
 30
0.0
 11
43.44419664253701
 21
3.910933212685062
 31
0.0
  0
LINE
  5
760
330
1F
100
AcDbEntity
  8
2
  6
CONTINUOUS
370
25
 62
7
100
AcDbLine
 10
42.589443923934
 20
5.189950000000001
 30
0.0
 11
43.51490732065567
 21
4.264486603278335
 31
0.0
  0
LINE
  5
761
330
1F
100
AcDbEntity
  8
2
  6
CONTINUOUS
370
25
 62
7
100
AcDbLine
 10
43.01370799264593
 20
5.189950000000001
 30
0.0
 11
43.58561799877432
 21
4.618039993871606
 31
0.0
  0
LINE
  5
762
330
1F
100
AcDbEntity
  8
2
  6
CONTINUOUS
370
25
 62
7
100
AcDbLine
 10
43.43797206135785
 20
5.189950000000001
 30
0.0
 11
43.65632867689298
 21
4.971593384464883
 31
0.0
  0
TEXT
  5
763
330
1F
100
AcDbEntity
  8
2
  6
CONTINUOUS
370
25
 62
7
100
AcDbText
 10
41.2
 20
11.20661666666666
 30
0.0
 40
3.5
  1
0.38
 50
90.00000000000001
 72
     1
 11
41.2
 21
16.16495
 31
0.0
100
AcDbText
  0
CIRCLE
  5
764
330
1F
100
AcDbEntity
  8
2
  6
CONTINUOUS
370
25
 62
7
100
AcDbCircle
 10
39.45
 20
8.114949999999999
 30
0.0
 40
1.4
  0
LINE
  5
765
330
1F
100
AcDbEntity
  8
2
  6
CONTINUOUS
370
25
 62
7
100
AcDbLine
 10
40.85
 20
6.71495
 30
0.0
 11
38.05
 21
9.51495
 31
0.0
  0
LINE
  5
766
330
1F
100
AcDbEntity
  8
2
  6
CONTINUOUS
370
25
 62
7
100
AcDbLine
 10
44.7
 20
-0.2
 30
0.0
 11
44.7
 21
-13.2
 31
0.0
  0
LINE
  5
767
330
1F
100
AcDbEntity
  8
2
  6
CONTINUOUS
370
25
 62
7
100
AcDbLine
 10
45.0
 20
-13.2
 30
0.0
 11
45.0
 21
-0.1999999999999993
 31
0.0
  0
LINE
  5
768
330
1F
100
AcDbEntity
  8
2
  6
CONTINUOUS
370
25
 62
7
100
AcDbLine
 10
37.7
 20
-12.2
 30
0.0
 11
60.925
 21
-12.2
 31
0.0
  0
LINE
  5
769
330
1F
100
AcDbEntity
  8
2
  6
CONTINUOUS
370
25
 62
7
100
AcDbLine
 10
44.7
 20
-12.2
 30
0.0
 11
39.7
 21
-13.2
 31
0.0
  0
LINE
  5
76A
330
1F
100
AcDbEntity
  8
2
  6
CONTINUOUS
370
25
 62
7
100
AcDbLine
 10
39.7
 20
-13.2
 30
0.0
 11
39.7
 21
-11.2
 31
0.0
  0
LINE
  5
76B
330
1F
100
AcDbEntity
  8
2
  6
CONTINUOUS
370
25
 62
7
100
AcDbLine
 10
39.7
 20
-11.2
 30
0.0
 11
44.7
 21
-12.2
 31
0.0
  0
LINE
  5
76C
330
1F
100
AcDbEntity
  8
2
  6
CONTINUOUS
370
25
 62
7
100
AcDbLine
 10
44.41254809424595
 20
-12.25749038115081
 30
0.0
 11
44.50836539616396
 21
-12.16167307923279
 31
0.0
  0
LINE
  5
76D
330
1F
100
AcDbEntity
  8
2
  6
CONTINUOUS
370
25
 62
7
100
AcDbLine
 10
43.88221800835603
 20
-12.36355639832879
 30
0.0
 11
44.15481200557069
 21
-12.09096240111414
 31
0.0
  0
LINE
  5
76E
330
1F
100
AcDbEntity
  8
2
  6
CONTINUOUS
370
25
 62
7
100
AcDbLine
 10
43.35188792246613
 20
-12.46962241550677
 30
0.0
 11
43.80125861497741
 21
-12.02025172299548
 31
0.0
  0
LINE
  5
76F
330
1F
100
AcDbEntity
  8
2
  6
CONTINUOUS
370
25
 62
7
100
AcDbLine
 10
42.82155783657622
 20
-12.57568843268475
 30
0.0
 11
43.44770522438414
 21
-11.94954104487683
 31
0.0
  0
LINE
  5
770
330
1F
100
AcDbEntity
  8
2
  6
CONTINUOUS
370
25
 62
7
100
AcDbLine
 10
42.29122775068631
 20
-12.68175444986274
 30
0.0
 11
43.09415183379087
 21
-11.87883036675817
 31
0.0
  0
LINE
  5
771
330
1F
100
AcDbEntity
  8
2
  6
CONTINUOUS
370
25
 62
7
100
AcDbLine
 10
41.7608976647964
 20
-12.78782046704072
 30
0.0
 11
42.7405984431976
 21
-11.80811968863952
 31
0.0
  0
LINE
  5
772
330
1F
100
AcDbEntity
  8
2
  6
CONTINUOUS
370
25
 62
7
100
AcDbLine
 10
41.23056757890649
 20
-12.8938864842187
 30
0.0
 11
42.38704505260432
 21
-11.73740901052087
 31
0.0
  0
LINE
  5
773
330
1F
100
AcDbEntity
  8
2
  6
CONTINUOUS
370
25
 62
7
100
AcDbLine
 10
40.70023749301658
 20
-12.99995250139668
 30
0.0
 11
42.03349166201105
 21
-11.66669833240221
 31
0.0
  0
LINE
  5
774
330
1F
100
AcDbEntity
  8
2
  6
CONTINUOUS
370
25
 62
7
100
AcDbLine
 10
40.16990740712667
 20
-13.10601851857466
 30
0.0
 11
41.67993827141778
 21
-11.59598765428355
 31
0.0
  0
LINE
  5
775
330
1F
100
AcDbEntity
  8
2
  6
CONTINUOUS
370
25
 62
7
100
AcDbLine
 10
39.7
 20
-13.1516618569894
 30
0.0
 11
41.32638488082451
 21
-11.5252769761649
 31
0.0
  0
LINE
  5
776
330
1F
100
AcDbEntity
  8
2
  6
CONTINUOUS
370
25
 62
7
100
AcDbLine
 10
39.7
 20
-12.72739778827748
 30
0.0
 11
40.97283149023123
 21
-11.45456629804625
 31
0.0
  0
LINE
  5
777
330
1F
100
AcDbEntity
  8
2
  6
CONTINUOUS
370
25
 62
7
100
AcDbLine
 10
39.7
 20
-12.30313371956555
 30
0.0
 11
40.61927809963795
 21
-11.38385561992759
 31
0.0
  0
LINE
  5
778
330
1F
100
AcDbEntity
  8
2
  6
CONTINUOUS
370
25
 62
7
100
AcDbLine
 10
39.7
 20
-11.87886965085362
 30
0.0
 11
40.26572470904468
 21
-11.31314494180894
 31
0.0
  0
LINE
  5
779
330
1F
100
AcDbEntity
  8
2
  6
CONTINUOUS
370
25
 62
7
100
AcDbLine
 10
39.7
 20
-11.45460558214169
 30
0.0
 11
39.91217131845141
 21
-11.24243426369028
 31
0.0
  0
LINE
  5
77A
330
1F
100
AcDbEntity
  8
2
  6
CONTINUOUS
370
25
 62
7
100
AcDbLine
 10
39.7
 20
-12.94648867417848
 30
0.0
 11
39.9112594381846
 21
-13.15774811236308
 31
0.0
  0
LINE
  5
77B
330
1F
100
AcDbEntity
  8
2
  6
CONTINUOUS
370
25
 62
7
100
AcDbLine
 10
39.7
 20
-12.52222460546655
 30
0.0
 11
40.26481282877788
 21
-13.08703743424442
 31
0.0
  0
LINE
  5
77C
330
1F
100
AcDbEntity
  8
2
  6
CONTINUOUS
370
25
 62
7
100
AcDbLine
 10
39.7
 20
-12.09796053675462
 30
0.0
 11
40.61836621937115
 21
-13.01632675612577
 31
0.0
  0
LINE
  5
77D
330
1F
100
AcDbEntity
  8
2
  6
CONTINUOUS
370
25
 62
7
100
AcDbLine
 10
39.7
 20
-11.67369646804269
 30
0.0
 11
40.97191960996442
 21
-12.94561607800711
 31
0.0
  0
LINE
  5
77E
330
1F
100
AcDbEntity
  8
2
  6
CONTINUOUS
370
25
 62
7
100
AcDbLine
 10
39.7
 20
-11.24943239933076
 30
0.0
 11
41.32547300055769
 21
-12.87490539988846
 31
0.0
  0
LINE
  5
77F
330
1F
100
AcDbEntity
  8
2
  6
CONTINUOUS
370
25
 62
7
100
AcDbLine
 10
40.16853958672645
 20
-11.29370791734529
 30
0.0
 11
41.67902639115097
 21
-12.80419472176981
 31
0.0
  0
LINE
  5
780
330
1F
100
AcDbEntity
  8
2
  6
CONTINUOUS
370
25
 62
7
100
AcDbLine
 10
40.69886967261637
 20
-11.39977393452327
 30
0.0
 11
42.03257978174425
 21
-12.73348404365115
 31
0.0
  0
LINE
  5
781
330
1F
100
AcDbEntity
  8
2
  6
CONTINUOUS
370
25
 62
7
100
AcDbLine
 10
41.22919975850628
 20
-11.50583995170125
 30
0.0
 11
42.38613317233752
 21
-12.66277336553249
 31
0.0
  0
LINE
  5
782
330
1F
100
AcDbEntity
  8
2
  6
CONTINUOUS
370
25
 62
7
100
AcDbLine
 10
41.75952984439618
 20
-11.61190596887924
 30
0.0
 11
42.73968656293079
 21
-12.59206268741384
 31
0.0
  0
LINE
  5
783
330
1F
100
AcDbEntity
  8
2
  6
CONTINUOUS
370
25
 62
7
100
AcDbLine
 10
42.2898599302861
 20
-11.71797198605722
 30
0.0
 11
43.09323995352406
 21
-12.52135200929519
 31
0.0
  0
LINE
  5
784
330
1F
100
AcDbEntity
  8
2
  6
CONTINUOUS
370
25
 62
7
100
AcDbLine
 10
42.82019001617601
 20
-11.8240380032352
 30
0.0
 11
43.44679334411734
 21
-12.45064133117653
 31
0.0
  0
LINE
  5
785
330
1F
100
AcDbEntity
  8
2
  6
CONTINUOUS
370
25
 62
7
100
AcDbLine
 10
43.35052010206591
 20
-11.93010402041318
 30
0.0
 11
43.80034673471061
 21
-12.37993065305788
 31
0.0
  0
LINE
  5
786
330
1F
100
AcDbEntity
  8
2
  6
CONTINUOUS
370
25
 62
7
100
AcDbLine
 10
43.88085018795583
 20
-12.03617003759117
 30
0.0
 11
44.15390012530388
 21
-12.30921997493922
 31
0.0
  0
LINE
  5
787
330
1F
100
AcDbEntity
  8
2
  6
CONTINUOUS
370
25
 62
7
100
AcDbLine
 10
44.41118027384574
 20
-12.14223605476915
 30
0.0
 11
44.50745351589715
 21
-12.23850929682057
 31
0.0
  0
LINE
  5
788
330
1F
100
AcDbEntity
  8
2
  6
CONTINUOUS
370
25
 62
7
100
AcDbLine
 10
45.0
 20
-12.2
 30
0.0
 11
50.0
 21
-11.2
 31
0.0
  0
LINE
  5
789
330
1F
100
AcDbEntity
  8
2
  6
CONTINUOUS
370
25
 62
7
100
AcDbLine
 10
50.0
 20
-11.2
 30
0.0
 11
50.0
 21
-13.2
 31
0.0
  0
LINE
  5
78A
330
1F
100
AcDbEntity
  8
2
  6
CONTINUOUS
370
25
 62
7
100
AcDbLine
 10
50.0
 20
-13.2
 30
0.0
 11
45.0
 21
-12.2
 31
0.0
  0
LINE
  5
78B
330
1F
100
AcDbEntity
  8
2
  6
CONTINUOUS
370
25
 62
7
100
AcDbLine
 10
49.85616482356456
 20
-13.17123296471291
 30
0.0
 11
50.0
 21
-13.02739778827747
 31
0.0
  0
LINE
  5
78C
330
1F
100
AcDbEntity
  8
2
  6
CONTINUOUS
370
25
 62
7
100
AcDbLine
 10
49.50261143297129
 20
-13.10052228659426
 30
0.0
 11
50.0
 21
-12.60313371956554
 31
0.0
  0
LINE
  5
78D
330
1F
100
AcDbEntity
  8
2
  6
CONTINUOUS
370
25
 62
7
100
AcDbLine
 10
49.14905804237802
 20
-13.0298116084756
 30
0.0
 11
50.0
 21
-12.17886965085362
 31
0.0
  0
LINE
  5
78E
330
1F
100
AcDbEntity
  8
2
  6
CONTINUOUS
370
25
 62
7
100
AcDbLine
 10
48.79550465178474
 20
-12.95910093035695
 30
0.0
 11
50.0
 21
-11.75460558214169
 31
0.0
  0
LINE
  5
78F
330
1F
100
AcDbEntity
  8
2
  6
CONTINUOUS
370
25
 62
7
100
AcDbLine
 10
48.44195126119147
 20
-12.88839025223829
 30
0.0
 11
50.0
 21
-11.33034151342976
 31
0.0
  0
LINE
  5
790
330
1F
100
AcDbEntity
  8
2
  6
CONTINUOUS
370
25
 62
7
100
AcDbLine
 10
48.0883978705982
 20
-12.81767957411964
 30
0.0
 11
49.63259680589729
 21
-11.27348063882054
 31
0.0
  0
LINE
  5
791
330
1F
100
AcDbEntity
  8
2
  6
CONTINUOUS
370
25
 62
7
100
AcDbLine
 10
47.73484448000492
 20
-12.74696889600098
 30
0.0
 11
49.10226672000739
 21
-11.37954665599852
 31
0.0
  0
LINE
  5
792
330
1F
100
AcDbEntity
  8
2
  6
CONTINUOUS
370
25
 62
7
100
AcDbLine
 10
47.38129108941165
 20
-12.67625821788233
 30
0.0
 11
48.57193663411748
 21
-11.4856126731765
 31
0.0
  0
LINE
  5
793
330
1F
100
AcDbEntity
  8
2
  6
CONTINUOUS
370
25
 62
7
100
AcDbLine
 10
47.02773769881838
 20
-12.60554753976367
 30
0.0
 11
48.04160654822756
 21
-11.59167869035449
 31
0.0
  0
LINE
  5
794
330
1F
100
AcDbEntity
  8
2
  6
CONTINUOUS
370
25
 62
7
100
AcDbLine
 10
46.67418430822511
 20
-12.53483686164502
 30
0.0
 11
47.51127646233765
 21
-11.69774470753247
 31
0.0
  0
LINE
  5
795
330
1F
100
AcDbEntity
  8
2
  6
CONTINUOUS
370
25
 62
7
100
AcDbLine
 10
46.32063091763183
 20
-12.46412618352636
 30
0.0
 11
46.98094637644775
 21
-11.80381072471045
 31
0.0
  0
LINE
  5
796
330
1F
100
AcDbEntity
  8
2
  6
CONTINUOUS
370
25
 62
7
100
AcDbLine
 10
45.96707752703855
 20
-12.39341550540771
 30
0.0
 11
46.45061629055783
 21
-11.90987674188843
 31
0.0
  0
LINE
  5
797
330
1F
100
AcDbEntity
  8
2
  6
CONTINUOUS
370
25
 62
7
100
AcDbLine
 10
45.61352413644529
 20
-12.32270482728905
 30
0.0
 11
45.92028620466792
 21
-12.01594275906641
 31
0.0
  0
LINE
  5
798
330
1F
100
AcDbEntity
  8
2
  6
CONTINUOUS
370
25
 62
7
100
AcDbLine
 10
45.25997074585202
 20
-12.2519941491704
 30
0.0
 11
45.38995611877802
 21
-12.1220087762444
 31
0.0
  0
LINE
  5
799
330
1F
100
AcDbEntity
  8
2
  6
CONTINUOUS
370
25
 62
7
100
AcDbLine
 10
45.2590588655852
 20
-12.14818822688296
 30
0.0
 11
45.3885882983778
 21
-12.27771765967556
 31
0.0
  0
LINE
  5
79A
330
1F
100
AcDbEntity
  8
2
  6
CONTINUOUS
370
25
 62
7
100
AcDbLine
 10
45.61261225617848
 20
-12.07747754876431
 30
0.0
 11
45.91891838426771
 21
-12.38378367685354
 31
0.0
  0
LINE
  5
79B
330
1F
100
AcDbEntity
  8
2
  6
CONTINUOUS
370
25
 62
7
100
AcDbLine
 10
45.96616564677175
 20
-12.00676687064565
 30
0.0
 11
46.44924847015763
 21
-12.48984969403152
 31
0.0
  0
LINE
  5
79C
330
1F
100
AcDbEntity
  8
2
  6
CONTINUOUS
370
25
 62
7
100
AcDbLine
 10
46.31971903736502
 20
-11.93605619252699
 30
0.0
 11
46.97957855604754
 21
-12.59591571120951
 31
0.0
  0
LINE
  5
79D
330
1F
100
AcDbEntity
  8
2
  6
CONTINUOUS
370
25
 62
7
100
AcDbLine
 10
46.6732724279583
 20
-11.86534551440834
 30
0.0
 11
47.50990864193744
 21
-12.70198172838749
 31
0.0
  0
LINE
  5
79E
330
1F
100
AcDbEntity
  8
2
  6
CONTINUOUS
370
25
 62
7
100
AcDbLine
 10
47.02682581855157
 20
-11.79463483628969
 30
0.0
 11
48.04023872782736
 21
-12.80804774556547
 31
0.0
  0
LINE
  5
79F
330
1F
100
AcDbEntity
  8
2
  6
CONTINUOUS
370
25
 62
7
100
AcDbLine
 10
47.38037920914485
 20
-11.72392415817103
 30
0.0
 11
48.57056881371727
 21
-12.91411376274345
 31
0.0
  0
LINE
  5
7A0
330
1F
100
AcDbEntity
  8
2
  6
CONTINUOUS
370
25
 62
7
100
AcDbLine
 10
47.73393259973812
 20
-11.65321348005238
 30
0.0
 11
49.10089889960717
 21
-13.02017977992143
 31
0.0
  0
LINE
  5
7A1
330
1F
100
AcDbEntity
  8
2
  6
CONTINUOUS
370
25
 62
7
100
AcDbLine
 10
48.08748599033139
 20
-11.58250280193372
 30
0.0
 11
49.63122898549709
 21
-13.12624579709942
 31
0.0
  0
LINE
  5
7A2
330
1F
100
AcDbEntity
  8
2
  6
CONTINUOUS
370
25
 62
7
100
AcDbLine
 10
48.44103938092466
 20
-11.51179212381507
 30
0.0
 11
50.0
 21
-13.0707527428904
 31
0.0
  0
LINE
  5
7A3
330
1F
100
AcDbEntity
  8
2
  6
CONTINUOUS
370
25
 62
7
100
AcDbLine
 10
48.79459277151793
 20
-11.44108144569641
 30
0.0
 11
50.0
 21
-12.64648867417847
 31
0.0
  0
LINE
  5
7A4
330
1F
100
AcDbEntity
  8
2
  6
CONTINUOUS
370
25
 62
7
100
AcDbLine
 10
49.14814616211121
 20
-11.37037076757776
 30
0.0
 11
50.0
 21
-12.22222460546655
 31
0.0
  0
LINE
  5
7A5
330
1F
100
AcDbEntity
  8
2
  6
CONTINUOUS
370
25
 62
7
100
AcDbLine
 10
49.50169955270448
 20
-11.2996600894591
 30
0.0
 11
50.0
 21
-11.79796053675462
 31
0.0
  0
LINE
  5
7A6
330
1F
100
AcDbEntity
  8
2
  6
CONTINUOUS
370
25
 62
7
100
AcDbLine
 10
49.85525294329776
 20
-11.22894941134045
 30
0.0
 11
50.0
 21
-11.37369646804269
 31
0.0
  0
TEXT
  5
7A7
330
1F
100
AcDbEntity
  8
2
  6
CONTINUOUS
370
25
 62
7
100
AcDbText
 10
52.25416666666666
 20
-10.7
 30
0.0
 40
3.5
  1
0.3
 72
     1
 11
55.4625
 21
-10.7
 31
0.0
100
AcDbText
  0
LINE
  5
7A8
330
1F
100
AcDbEntity
  8
2
  6
CONTINUOUS
370
25
 62
7
100
AcDbLine
 10
35.9
 20
0.0
 30
0.0
 11
35.9
 21
28.39995
 31
0.0
  0
LINE
  5
7A9
330
1F
100
AcDbEntity
  8
2
  6
CONTINUOUS
370
25
 62
7
100
AcDbLine
 10
45.0
 20
28.39995
 30
0.0
 11
45.0
 21
0.1999999999999993
 31
0.0
  0
LINE
  5
7AA
330
1F
100
AcDbEntity
  8
2
  6
CONTINUOUS
370
25
 62
7
100
AcDbLine
 10
28.9
 20
27.39995
 30
0.0
 11
60.925
 21
27.39995
 31
0.0
  0
LINE
  5
7AB
330
1F
100
AcDbEntity
  8
2
  6
CONTINUOUS
370
25
 62
7
100
AcDbLine
 10
35.9
 20
27.39995
 30
0.0
 11
30.9
 21
26.39995
 31
0.0
  0
LINE
  5
7AC
330
1F
100
AcDbEntity
  8
2
  6
CONTINUOUS
370
25
 62
7
100
AcDbLine
 10
30.9
 20
26.39995
 30
0.0
 11
30.9
 21
28.39995
 31
0.0
  0
LINE
  5
7AD
330
1F
100
AcDbEntity
  8
2
  6
CONTINUOUS
370
25
 62
7
100
AcDbLine
 10
30.9
 20
28.39995
 30
0.0
 11
35.9
 21
27.39995
 31
0.0
  0
LINE
  5
7AE
330
1F
100
AcDbEntity
  8
2
  6
CONTINUOUS
370
25
 62
7
100
AcDbLine
 10
35.67848191715584
 20
27.35564638343116
 30
0.0
 11
35.75232127810389
 21
27.42948574437922
 31
0.0
  0
LINE
  5
7AF
330
1F
100
AcDbEntity
  8
2
  6
CONTINUOUS
370
25
 62
7
100
AcDbLine
 10
35.14815183126593
 20
27.24958036625318
 30
0.0
 11
35.39876788751062
 21
27.50019642249787
 31
0.0
  0
LINE
  5
7B0
330
1F
100
AcDbEntity
  8
2
  6
CONTINUOUS
370
25
 62
7
100
AcDbLine
 10
34.61782174537602
 20
27.1435143490752
 30
0.0
 11
35.04521449691735
 21
27.57090710061653
 31
0.0
  0
LINE
  5
7B1
330
1F
100
AcDbEntity
  8
2
  6
CONTINUOUS
370
25
 62
7
100
AcDbLine
 10
34.0874916594861
 20
27.03744833189722
 30
0.0
 11
34.69166110632407
 21
27.64161777873518
 31
0.0
  0
LINE
  5
7B2
330
1F
100
AcDbEntity
  8
2
  6
CONTINUOUS
370
25
 62
7
100
AcDbLine
 10
33.5571615735962
 20
26.93138231471924
 30
0.0
 11
34.3381077157308
 21
27.71232845685384
 31
0.0
  0
LINE
  5
7B3
330
1F
100
AcDbEntity
  8
2
  6
CONTINUOUS
370
25
 62
7
100
AcDbLine
 10
33.02683148770629
 20
26.82531629754126
 30
0.0
 11
33.98455432513752
 21
27.78303913497249
 31
0.0
  0
LINE
  5
7B4
330
1F
100
AcDbEntity
  8
2
  6
CONTINUOUS
370
25
 62
7
100
AcDbLine
 10
32.49650140181638
 20
26.71925028036327
 30
0.0
 11
33.63100093454425
 21
27.85374981309115
 31
0.0
  0
LINE
  5
7B5
330
1F
100
AcDbEntity
  8
2
  6
CONTINUOUS
370
25
 62
7
100
AcDbLine
 10
31.96617131592647
 20
26.61318426318529
 30
0.0
 11
33.27744754395098
 21
27.9244604912098
 31
0.0
  0
LINE
  5
7B6
330
1F
100
AcDbEntity
  8
2
  6
CONTINUOUS
370
25
 62
7
100
AcDbLine
 10
31.43584123003656
 20
26.50711824600731
 30
0.0
 11
32.9238941533577
 21
27.99517116932846
 31
0.0
  0
LINE
  5
7B7
330
1F
100
AcDbEntity
  8
2
  6
CONTINUOUS
370
25
 62
7
100
AcDbLine
 10
30.90551114414665
 20
26.40105222882933
 30
0.0
 11
32.57034076276443
 21
28.06588184744711
 31
0.0
  0
LINE
  5
7B8
330
1F
100
AcDbEntity
  8
2
  6
CONTINUOUS
370
25
 62
7
100
AcDbLine
 10
30.9
 20
26.81980515339461
 30
0.0
 11
32.21678737217115
 21
28.13659252556577
 31
0.0
  0
LINE
  5
7B9
330
1F
100
AcDbEntity
  8
2
  6
CONTINUOUS
370
25
 62
7
100
AcDbLine
 10
30.9
 20
27.24406922210653
 30
0.0
 11
31.86323398157788
 21
28.20730320368442
 31
0.0
  0
LINE
  5
7BA
330
1F
100
AcDbEntity
  8
2
  6
CONTINUOUS
370
25
 62
7
100
AcDbLine
 10
30.9
 20
27.66833329081847
 30
0.0
 11
31.50968059098461
 21
28.27801388180308
 31
0.0
  0
LINE
  5
7BB
330
1F
100
AcDbEntity
  8
2
  6
CONTINUOUS
370
25
 62
7
100
AcDbLine
 10
30.9
 20
28.0925973595304
 30
0.0
 11
31.15612720039133
 21
28.34872455992173
 31
0.0
  0
LINE
  5
7BC
330
1F
100
AcDbEntity
  8
2
  6
CONTINUOUS
370
25
 62
7
100
AcDbLine
 10
30.9
 20
26.63746750430832
 30
0.0
 11
31.09793125359026
 21
26.43953625071805
 31
0.0
  0
LINE
  5
7BD
330
1F
100
AcDbEntity
  8
2
  6
CONTINUOUS
370
25
 62
7
100
AcDbLine
 10
30.9
 20
27.06173157302024
 30
0.0
 11
31.45148464418353
 21
26.5102469288367
 31
0.0
  0
LINE
  5
7BE
330
1F
100
AcDbEntity
  8
2
  6
CONTINUOUS
370
25
 62
7
100
AcDbLine
 10
30.9
 20
27.48599564173217
 30
0.0
 11
31.80503803477681
 21
26.58095760695536
 31
0.0
  0
LINE
  5
7BF
330
1F
100
AcDbEntity
  8
2
  6
CONTINUOUS
370
25
 62
7
100
AcDbLine
 10
30.9
 20
27.91025971044409
 30
0.0
 11
32.15859142537008
 21
26.65166828507401
 31
0.0
  0
LINE
  5
7C0
330
1F
100
AcDbEntity
  8
2
  6
CONTINUOUS
370
25
 62
7
100
AcDbLine
 10
30.9
 20
28.33452377915602
 30
0.0
 11
32.51214481596335
 21
26.72237896319267
 31
0.0
  0
LINE
  5
7C1
330
1F
100
AcDbEntity
  8
2
  6
CONTINUOUS
370
25
 62
7
100
AcDbLine
 10
31.34854730983494
 20
28.31024053803301
 30
0.0
 11
32.86569820655663
 21
26.79308964131132
 31
0.0
  0
LINE
  5
7C2
330
1F
100
AcDbEntity
  8
2
  6
CONTINUOUS
370
25
 62
7
100
AcDbLine
 10
31.87887739572485
 20
28.20417452085503
 30
0.0
 11
33.21925159714991
 21
26.86380031942998
 31
0.0
  0
LINE
  5
7C3
330
1F
100
AcDbEntity
  8
2
  6
CONTINUOUS
370
25
 62
7
100
AcDbLine
 10
32.40920748161476
 20
28.09810850367704
 30
0.0
 11
33.57280498774318
 21
26.93451099754863
 31
0.0
  0
LINE
  5
7C4
330
1F
100
AcDbEntity
  8
2
  6
CONTINUOUS
370
25
 62
7
100
AcDbLine
 10
32.93953756750467
 20
27.99204248649906
 30
0.0
 11
33.92635837833645
 21
27.00522167566729
 31
0.0
  0
LINE
  5
7C5
330
1F
100
AcDbEntity
  8
2
  6
CONTINUOUS
370
25
 62
7
100
AcDbLine
 10
33.46986765339459
 20
27.88597646932108
 30
0.0
 11
34.27991176892972
 21
27.07593235378594
 31
0.0
  0
LINE
  5
7C6
330
1F
100
AcDbEntity
  8
2
  6
CONTINUOUS
370
25
 62
7
100
AcDbLine
 10
34.0001977392845
 20
27.7799104521431
 30
0.0
 11
34.633465159523
 21
27.1466430319046
 31
0.0
  0
LINE
  5
7C7
330
1F
100
AcDbEntity
  8
2
  6
CONTINUOUS
370
25
 62
7
100
AcDbLine
 10
34.53052782517442
 20
27.67384443496512
 30
0.0
 11
34.98701855011628
 21
27.21735371002325
 31
0.0
  0
LINE
  5
7C8
330
1F
100
AcDbEntity
  8
2
  6
CONTINUOUS
370
25
 62
7
100
AcDbLine
 10
35.06085791106432
 20
27.56777841778713
 30
0.0
 11
35.34057194070955
 21
27.28806438814191
 31
0.0
  0
LINE
  5
7C9
330
1F
100
AcDbEntity
  8
2
  6
CONTINUOUS
370
25
 62
7
100
AcDbLine
 10
35.59118799695423
 20
27.46171240060915
 30
0.0
 11
35.69412533130282
 21
27.35877506626056
 31
0.0
  0
LINE
  5
7CA
330
1F
100
AcDbEntity
  8
2
  6
CONTINUOUS
370
25
 62
7
100
AcDbLine
 10
45.0
 20
27.39995
 30
0.0
 11
50.0
 21
28.39995
 31
0.0
  0
LINE
  5
7CB
330
1F
100
AcDbEntity
  8
2
  6
CONTINUOUS
370
25
 62
7
100
AcDbLine
 10
50.0
 20
28.39995
 30
0.0
 11
50.0
 21
26.39995
 31
0.0
  0
LINE
  5
7CC
330
1F
100
AcDbEntity
  8
2
  6
CONTINUOUS
370
25
 62
7
100
AcDbLine
 10
50.0
 20
26.39995
 30
0.0
 11
45.0
 21
27.39995
 31
0.0
  0
LINE
  5
7CD
330
1F
100
AcDbEntity
  8
2
  6
CONTINUOUS
370
25
 62
7
100
AcDbLine
 10
49.99691000612843
 20
26.40056799877431
 30
0.0
 11
50.0
 21
26.40365799264588
 31
0.0
  0
LINE
  5
7CE
330
1F
100
AcDbEntity
  8
2
  6
CONTINUOUS
370
25
 62
7
100
AcDbLine
 10
49.64335661553516
 20
26.47127867689296
 30
0.0
 11
50.0
 21
26.8279220613578
 31
0.0
  0
LINE
  5
7CF
330
1F
100
AcDbEntity
  8
2
  6
CONTINUOUS
370
25
 62
7
100
AcDbLine
 10
49.28980322494188
 20
26.54198935501162
 30
0.0
 11
50.0
 21
27.25218613006973
 31
0.0
  0
LINE
  5
7D0
330
1F
100
AcDbEntity
  8
2
  6
CONTINUOUS
370
25
 62
7
100
AcDbLine
 10
48.93624983434862
 20
26.61270003313027
 30
0.0
 11
50.0
 21
27.67645019878166
 31
0.0
  0
LINE
  5
7D1
330
1F
100
AcDbEntity
  8
2
  6
CONTINUOUS
370
25
 62
7
100
AcDbLine
 10
48.58269644375534
 20
26.68341071124892
 30
0.0
 11
50.0
 21
28.10071426749359
 31
0.0
  0
LINE
  5
7D2
330
1F
100
AcDbEntity
  8
2
  6
CONTINUOUS
370
25
 62
7
100
AcDbLine
 10
48.22914305316207
 20
26.75412138936758
 30
0.0
 11
49.84371457974311
 21
28.36869291594862
 31
0.0
  0
LINE
  5
7D3
330
1F
100
AcDbEntity
  8
2
  6
CONTINUOUS
370
25
 62
7
100
AcDbLine
 10
47.87558966256879
 20
26.82483206748624
 30
0.0
 11
49.31338449385319
 21
28.26262689877063
 31
0.0
  0
LINE
  5
7D4
330
1F
100
AcDbEntity
  8
2
  6
CONTINUOUS
370
25
 62
7
100
AcDbLine
 10
47.52203627197552
 20
26.89554274560489
 30
0.0
 11
48.78305440796328
 21
28.15656088159265
 31
0.0
  0
LINE
  5
7D5
330
1F
100
AcDbEntity
  8
2
  6
CONTINUOUS
370
25
 62
7
100
AcDbLine
 10
47.16848288138225
 20
26.96625342372355
 30
0.0
 11
48.25272432207338
 21
28.05049486441467
 31
0.0
  0
LINE
  5
7D6
330
1F
100
AcDbEntity
  8
2
  6
CONTINUOUS
370
25
 62
7
100
AcDbLine
 10
46.81492949078898
 20
27.0369641018422
 30
0.0
 11
47.72239423618347
 21
27.94442884723669
 31
0.0
  0
LINE
  5
7D7
330
1F
100
AcDbEntity
  8
2
  6
CONTINUOUS
370
25
 62
7
100
AcDbLine
 10
46.4613761001957
 20
27.10767477996086
 30
0.0
 11
47.19206415029355
 21
27.83836283005871
 31
0.0
  0
LINE
  5
7D8
330
1F
100
AcDbEntity
  8
2
  6
CONTINUOUS
370
25
 62
7
100
AcDbLine
 10
46.10782270960243
 20
27.17838545807951
 30
0.0
 11
46.66173406440364
 21
27.73229681288073
 31
0.0
  0
LINE
  5
7D9
330
1F
100
AcDbEntity
  8
2
  6
CONTINUOUS
370
25
 62
7
100
AcDbLine
 10
45.75426931900915
 20
27.24909613619817
 30
0.0
 11
46.13140397851373
 21
27.62623079570274
 31
0.0
  0
LINE
  5
7DA
330
1F
100
AcDbEntity
  8
2
  6
CONTINUOUS
370
25
 62
7
100
AcDbLine
 10
45.40071592841588
 20
27.31980681431682
 30
0.0
 11
45.60107389262382
 21
27.52016477852476
 31
0.0
  0
LINE
  5
7DB
330
1F
100
AcDbEntity
  8
2
  6
CONTINUOUS
370
25
 62
7
100
AcDbLine
 10
45.04716253782261
 20
27.39051749243548
 30
0.0
 11
45.07074380673391
 21
27.41409876134678
 31
0.0
  0
LINE
  5
7DC
330
1F
100
AcDbEntity
  8
2
  6
CONTINUOUS
370
25
 62
7
100
AcDbLine
 10
45.3425199816148
 20
27.46845399632296
 30
0.0
 11
45.51377997242219
 21
27.29719400551556
 31
0.0
  0
LINE
  5
7DD
330
1F
100
AcDbEntity
  8
2
  6
CONTINUOUS
370
25
 62
7
100
AcDbLine
 10
45.69607337220807
 20
27.53916467444161
 30
0.0
 11
46.04411005831211
 21
27.19112798833758
 31
0.0
  0
LINE
  5
7DE
330
1F
100
AcDbEntity
  8
2
  6
CONTINUOUS
370
25
 62
7
100
AcDbLine
 10
46.04962676280135
 20
27.60987535256027
 30
0.0
 11
46.57444014420201
 21
27.0850619711596
 31
0.0
  0
LINE
  5
7DF
330
1F
100
AcDbEntity
  8
2
  6
CONTINUOUS
370
25
 62
7
100
AcDbLine
 10
46.40318015339462
 20
27.68058603067892
 30
0.0
 11
47.10477023009192
 21
26.97899595398161
 31
0.0
  0
LINE
  5
7E0
330
1F
100
AcDbEntity
  8
2
  6
CONTINUOUS
370
25
 62
7
100
AcDbLine
 10
46.75673354398789
 20
27.75129670879758
 30
0.0
 11
47.63510031598184
 21
26.87292993680363
 31
0.0
  0
LINE
  5
7E1
330
1F
100
AcDbEntity
  8
2
  6
CONTINUOUS
370
25
 62
7
100
AcDbLine
 10
47.11028693458116
 20
27.82200738691623
 30
0.0
 11
48.16543040187175
 21
26.76686391962565
 31
0.0
  0
LINE
  5
7E2
330
1F
100
AcDbEntity
  8
2
  6
CONTINUOUS
370
25
 62
7
100
AcDbLine
 10
47.46384032517444
 20
27.89271806503488
 30
0.0
 11
48.69576048776166
 21
26.66079790244766
 31
0.0
  0
LINE
  5
7E3
330
1F
100
AcDbEntity
  8
2
  6
CONTINUOUS
370
25
 62
7
100
AcDbLine
 10
47.81739371576771
 20
27.96342874315354
 30
0.0
 11
49.22609057365156
 21
26.55473188526968
 31
0.0
  0
LINE
  5
7E4
330
1F
100
AcDbEntity
  8
2
  6
CONTINUOUS
370
25
 62
7
100
AcDbLine
 10
48.17094710636098
 20
28.03413942127219
 30
0.0
 11
49.75642065954148
 21
26.4486658680917
 31
0.0
  0
LINE
  5
7E5
330
1F
100
AcDbEntity
  8
2
  6
CONTINUOUS
370
25
 62
7
100
AcDbLine
 10
48.52450049695426
 20
28.10485009939085
 30
0.0
 11
50.0
 21
26.62935059634511
 31
0.0
  0
LINE
  5
7E6
330
1F
100
AcDbEntity
  8
2
  6
CONTINUOUS
370
25
 62
7
100
AcDbLine
 10
48.87805388754754
 20
28.1755607775095
 30
0.0
 11
50.0
 21
27.05361466505704
 31
0.0
  0
LINE
  5
7E7
330
1F
100
AcDbEntity
  8
2
  6
CONTINUOUS
370
25
 62
7
100
AcDbLine
 10
49.23160727814081
 20
28.24627145562816
 30
0.0
 11
50.0
 21
27.47787873376897
 31
0.0
  0
LINE
  5
7E8
330
1F
100
AcDbEntity
  8
2
  6
CONTINUOUS
370
25
 62
7
100
AcDbLine
 10
49.58516066873408
 20
28.31698213374681
 30
0.0
 11
50.0
 21
27.9021428024809
 31
0.0
  0
LINE
  5
7E9
330
1F
100
AcDbEntity
  8
2
  6
CONTINUOUS
370
25
 62
7
100
AcDbLine
 10
49.93871405932735
 20
28.38769281186547
 30
0.0
 11
50.0
 21
28.32640687119282
 31
0.0
  0
TEXT
  5
7EA
330
1F
100
AcDbEntity
  8
2
  6
CONTINUOUS
370
25
 62
7
100
AcDbText
 10
52.54583333333333
 20
28.89995
 30
0.0
 40
3.5
  1
9.1
 72
     1
 11
55.4625
 21
28.89995
 31
0.0
100
AcDbText
  0
LINE
  5
7EB
330
1F
100
AcDbEntity
  8
SK2
  6
CONTINUOUS
370
25
 62
7
100
AcDbLine
 10
0.0
 20
-0.0000500000000001
 30
0.0
 11
0.0
 21
38.39995
 31
0.0
  0
LINE
  5
7EC
330
1F
100
AcDbEntity
  8
SK2
  6
CONTINUOUS
370
25
 62
7
100
AcDbLine
 10
45.0
 20
38.39995
 30
0.0
 11
45.0
 21
0.1999999999999957
 31
0.0
  0
LINE
  5
7ED
330
1F
100
AcDbEntity
  8
SK2
  6
CONTINUOUS
370
25
 62
7
100
AcDbLine
 10
0.0
 20
37.39995
 30
0.0
 11
45.0
 21
37.39995
 31
0.0
  0
LINE
  5
7EE
330
1F
100
AcDbEntity
  8
SK2
  6
CONTINUOUS
370
25
 62
7
100
AcDbLine
 10
0.0
 20
37.39995
 30
0.0
 11
5.0
 21
38.39995
 31
0.0
  0
LINE
  5
7EF
330
1F
100
AcDbEntity
  8
SK2
  6
CONTINUOUS
370
25
 62
7
100
AcDbLine
 10
5.0
 20
38.39995
 30
0.0
 11
5.0
 21
36.39995
 31
0.0
  0
LINE
  5
7F0
330
1F
100
AcDbEntity
  8
SK2
  6
CONTINUOUS
370
25
 62
7
100
AcDbLine
 10
5.0
 20
36.39995
 30
0.0
 11
0.0
 21
37.39995
 31
0.0
  0
LINE
  5
7F1
330
1F
100
AcDbEntity
  8
SK2
  6
CONTINUOUS
370
25
 62
7
100
AcDbLine
 10
4.868302562336133
 20
36.42628948753277
 30
0.0
 11
5.0
 21
36.55798692519664
 31
0.0
  0
LINE
  5
7F2
330
1F
100
AcDbEntity
  8
SK2
  6
CONTINUOUS
370
25
 62
7
100
AcDbLine
 10
4.514749171742853
 20
36.49700016565143
 30
0.0
 11
5.0
 21
36.98225099390857
 31
0.0
  0
LINE
  5
7F3
330
1F
100
AcDbEntity
  8
SK2
  6
CONTINUOUS
370
25
 62
7
100
AcDbLine
 10
4.161195781149573
 20
36.56771084377008
 30
0.0
 11
5.0
 21
37.40651506262051
 31
0.0
  0
LINE
  5
7F4
330
1F
100
AcDbEntity
  8
SK2
  6
CONTINUOUS
370
25
 62
7
100
AcDbLine
 10
3.807642390556296
 20
36.63842152188874
 30
0.0
 11
5.0
 21
37.83077913133244
 31
0.0
  0
LINE
  5
7F5
330
1F
100
AcDbEntity
  8
SK2
  6
CONTINUOUS
370
25
 62
7
100
AcDbLine
 10
3.454088999963027
 20
36.70913220000739
 30
0.0
 11
5.0
 21
38.25504320004436
 31
0.0
  0
LINE
  5
7F6
330
1F
100
AcDbEntity
  8
SK2
  6
CONTINUOUS
370
25
 62
7
100
AcDbLine
 10
3.10053560936975
 20
36.77984287812605
 30
0.0
 11
4.650803414054625
 21
38.33011068281093
 31
0.0
  0
LINE
  5
7F7
330
1F
100
AcDbEntity
  8
SK2
  6
CONTINUOUS
370
25
 62
7
100
AcDbLine
 10
2.746982218776473
 20
36.85055355624471
 30
0.0
 11
4.12047332816471
 21
38.22404466563294
 31
0.0
  0
LINE
  5
7F8
330
1F
100
AcDbEntity
  8
SK2
  6
CONTINUOUS
370
25
 62
7
100
AcDbLine
 10
2.393428828183197
 20
36.92126423436336
 30
0.0
 11
3.590143242274792
 21
38.11797864845496
 31
0.0
  0
LINE
  5
7F9
330
1F
100
AcDbEntity
  8
SK2
  6
CONTINUOUS
370
25
 62
7
100
AcDbLine
 10
2.039875437589913
 20
36.99197491248201
 30
0.0
 11
3.059813156384877
 21
38.01191263127697
 31
0.0
  0
LINE
  5
7FA
330
1F
100
AcDbEntity
  8
SK2
  6
CONTINUOUS
370
25
 62
7
100
AcDbLine
 10
1.686322046996636
 20
37.06268559060067
 30
0.0
 11
2.529483070494962
 21
37.90584661409899
 31
0.0
  0
LINE
  5
7FB
330
1F
100
AcDbEntity
  8
SK2
  6
CONTINUOUS
370
25
 62
7
100
AcDbLine
 10
1.33276865640336
 20
37.13339626871932
 30
0.0
 11
1.99915298460504
 21
37.799780596921
 31
0.0
  0
LINE
  5
7FC
330
1F
100
AcDbEntity
  8
SK2
  6
CONTINUOUS
370
25
 62
7
100
AcDbLine
 10
0.9792152658100903
 20
37.20410694683797
 30
0.0
 11
1.468822898715132
 21
37.69371457974302
 31
0.0
  0
LINE
  5
7FD
330
1F
100
AcDbEntity
  8
SK2
  6
CONTINUOUS
370
25
 62
7
100
AcDbLine
 10
0.6256618752168137
 20
37.27481762495663
 30
0.0
 11
0.9384928128252241
 21
37.58764856256504
 31
0.0
  0
LINE
  5
7FE
330
1F
100
AcDbEntity
  8
SK2
  6
CONTINUOUS
370
25
 62
7
100
AcDbLine
 10
0.27210848462353
 20
37.34552830307529
 30
0.0
 11
0.4081627269353021
 21
37.48158254538706
 31
0.0
  0
LINE
  5
7FF
330
1F
100
AcDbEntity
  8
SK2
  6
CONTINUOUS
370
25
 62
7
100
AcDbLine
 10
0.2032632357258848
 20
37.44060264714518
 30
0.0
 11
0.3048948535888343
 21
37.33897102928223
 31
0.0
  0
LINE
  5
800
330
1F
100
AcDbEntity
  8
SK2
  6
CONTINUOUS
370
25
 62
7
100
AcDbLine
 10
0.5568166263191614
 20
37.51131332526383
 30
0.0
 11
0.8352249394787421
 21
37.23290501210425
 31
0.0
  0
LINE
  5
801
330
1F
100
AcDbEntity
  8
SK2
  6
CONTINUOUS
370
25
 62
7
100
AcDbLine
 10
0.910370016912438
 20
37.58202400338249
 30
0.0
 11
1.365555025368657
 21
37.12683899492627
 31
0.0
  0
LINE
  5
802
330
1F
100
AcDbEntity
  8
SK2
  6
CONTINUOUS
370
25
 62
7
100
AcDbLine
 10
1.263923407505715
 20
37.65273468150114
 30
0.0
 11
1.895885111258572
 21
37.02077297774829
 31
0.0
  0
LINE
  5
803
330
1F
100
AcDbEntity
  8
SK2
  6
CONTINUOUS
370
25
 62
7
100
AcDbLine
 10
1.617476798098998
 20
37.7234453596198
 30
0.0
 11
2.426215197148494
 21
36.91470696057029
 31
0.0
  0
LINE
  5
804
330
1F
100
AcDbEntity
  8
SK2
  6
CONTINUOUS
370
25
 62
7
100
AcDbLine
 10
1.971030188692275
 20
37.79415603773845
 30
0.0
 11
2.956545283038409
 21
36.80864094339231
 31
0.0
  0
LINE
  5
805
330
1F
100
AcDbEntity
  8
SK2
  6
CONTINUOUS
370
25
 62
7
100
AcDbLine
 10
2.324583579285552
 20
37.8648667158571
 30
0.0
 11
3.486875368928317
 21
36.70257492621433
 31
0.0
  0
LINE
  5
806
330
1F
100
AcDbEntity
  8
SK2
  6
CONTINUOUS
370
25
 62
7
100
AcDbLine
 10
2.678136969878828
 20
37.93557739397576
 30
0.0
 11
4.017205454818235
 21
36.59650890903634
 31
0.0
  0
LINE
  5
807
330
1F
100
AcDbEntity
  8
SK2
  6
CONTINUOUS
370
25
 62
7
100
AcDbLine
 10
3.031690360472098
 20
38.00628807209442
 30
0.0
 11
4.547535540708139
 21
36.49044289185836
 31
0.0
  0
LINE
  5
808
330
1F
100
AcDbEntity
  8
SK2
  6
CONTINUOUS
370
25
 62
7
100
AcDbLine
 10
3.385243751065374
 20
38.07699875021308
 30
0.0
 11
5.0
 21
36.46224250127844
 31
0.0
  0
LINE
  5
809
330
1F
100
AcDbEntity
  8
SK2
  6
CONTINUOUS
370
25
 62
7
100
AcDbLine
 10
3.738797141658651
 20
38.14770942833173
 30
0.0
 11
5.0
 21
36.88650656999037
 31
0.0
  0
LINE
  5
80A
330
1F
100
AcDbEntity
  8
SK2
  6
CONTINUOUS
370
25
 62
7
100
AcDbLine
 10
4.092350532251931
 20
38.21842010645038
 30
0.0
 11
5.0
 21
37.31077063870231
 31
0.0
  0
LINE
  5
80B
330
1F
100
AcDbEntity
  8
SK2
  6
CONTINUOUS
370
25
 62
7
100
AcDbLine
 10
4.445903922845208
 20
38.28913078456904
 30
0.0
 11
5.0
 21
37.73503470741424
 31
0.0
  0
LINE
  5
80C
330
1F
100
AcDbEntity
  8
SK2
  6
CONTINUOUS
370
25
 62
7
100
AcDbLine
 10
4.799457313438481
 20
38.3598414626877
 30
0.0
 11
5.0
 21
38.15929877612618
 31
0.0
  0
LINE
  5
80D
330
1F
100
AcDbEntity
  8
SK2
  6
CONTINUOUS
370
25
 62
7
100
AcDbLine
 10
45.0
 20
37.39995
 30
0.0
 11
40.0
 21
36.39995
 31
0.0
  0
LINE
  5
80E
330
1F
100
AcDbEntity
  8
SK2
  6
CONTINUOUS
370
25
 62
7
100
AcDbLine
 10
40.0
 20
36.39995
 30
0.0
 11
40.0
 21
38.39995
 31
0.0
  0
LINE
  5
80F
330
1F
100
AcDbEntity
  8
SK2
  6
CONTINUOUS
370
25
 62
7
100
AcDbLine
 10
40.0
 20
38.39995
 30
0.0
 11
45.0
 21
37.39995
 31
0.0
  0
LINE
  5
810
330
1F
100
AcDbEntity
  8
SK2
  6
CONTINUOUS
370
25
 62
7
100
AcDbLine
 10
44.84282174537604
 20
37.36851434907521
 30
0.0
 11
44.89521449691736
 21
37.42090710061652
 31
0.0
  0
LINE
  5
811
330
1F
100
AcDbEntity
  8
SK2
  6
CONTINUOUS
370
25
 62
7
100
AcDbLine
 10
44.31249165948613
 20
37.26244833189723
 30
0.0
 11
44.54166110632409
 21
37.49161777873518
 31
0.0
  0
LINE
  5
812
330
1F
100
AcDbEntity
  8
SK2
  6
CONTINUOUS
370
25
 62
7
100
AcDbLine
 10
43.78216157359621
 20
37.15638231471924
 30
0.0
 11
44.18810771573081
 21
37.56232845685383
 31
0.0
  0
LINE
  5
813
330
1F
100
AcDbEntity
  8
SK2
  6
CONTINUOUS
370
25
 62
7
100
AcDbLine
 10
43.2518314877063
 20
37.05031629754126
 30
0.0
 11
43.83455432513753
 21
37.63303913497249
 31
0.0
  0
LINE
  5
814
330
1F
100
AcDbEntity
  8
SK2
  6
CONTINUOUS
370
25
 62
7
100
AcDbLine
 10
42.7215014018164
 20
36.94425028036328
 30
0.0
 11
43.48100093454426
 21
37.70374981309114
 31
0.0
  0
LINE
  5
815
330
1F
100
AcDbEntity
  8
SK2
  6
CONTINUOUS
370
25
 62
7
100
AcDbLine
 10
42.19117131592647
 20
36.83818426318529
 30
0.0
 11
43.12744754395099
 21
37.7744604912098
 31
0.0
  0
LINE
  5
816
330
1F
100
AcDbEntity
  8
SK2
  6
CONTINUOUS
370
25
 62
7
100
AcDbLine
 10
41.66084123003657
 20
36.73211824600731
 30
0.0
 11
42.77389415335771
 21
37.84517116932845
 31
0.0
  0
LINE
  5
817
330
1F
100
AcDbEntity
  8
SK2
  6
CONTINUOUS
370
25
 62
7
100
AcDbLine
 10
41.13051114414665
 20
36.62605222882932
 30
0.0
 11
42.42034076276443
 21
37.91588184744711
 31
0.0
  0
LINE
  5
818
330
1F
100
AcDbEntity
  8
SK2
  6
CONTINUOUS
370
25
 62
7
100
AcDbLine
 10
40.60018105825674
 20
36.51998621165134
 30
0.0
 11
42.06678737217116
 21
37.98659252556577
 31
0.0
  0
LINE
  5
819
330
1F
100
AcDbEntity
  8
SK2
  6
CONTINUOUS
370
25
 62
7
100
AcDbLine
 10
40.06985097236683
 20
36.41392019447336
 30
0.0
 11
41.71323398157788
 21
38.05730320368442
 31
0.0
  0
LINE
  5
81A
330
1F
100
AcDbEntity
  8
SK2
  6
CONTINUOUS
370
25
 62
7
100
AcDbLine
 10
40.0
 20
36.76833329081847
 30
0.0
 11
41.3596805909846
 21
38.12801388180308
 31
0.0
  0
LINE
  5
81B
330
1F
100
AcDbEntity
  8
SK2
  6
CONTINUOUS
370
25
 62
7
100
AcDbLine
 10
40.0
 20
37.1925973595304
 30
0.0
 11
41.00612720039133
 21
38.19872455992173
 31
0.0
  0
LINE
  5
81C
330
1F
100
AcDbEntity
  8
SK2
  6
CONTINUOUS
370
25
 62
7
100
AcDbLine
 10
40.0
 20
37.61686142824233
 30
0.0
 11
40.65257380979806
 21
38.26943523804039
 31
0.0
  0
LINE
  5
81D
330
1F
100
AcDbEntity
  8
SK2
  6
CONTINUOUS
370
25
 62
7
100
AcDbLine
 10
40.0
 20
38.04112549695427
 30
0.0
 11
40.29902041920477
 21
38.34014591615905
 31
0.0
  0
LINE
  5
81E
330
1F
100
AcDbEntity
  8
SK2
  6
CONTINUOUS
370
25
 62
7
100
AcDbLine
 10
40.0
 20
36.6293505963451
 30
0.0
 11
40.19116716362092
 21
36.43818343272418
 31
0.0
  0
LINE
  5
81F
330
1F
100
AcDbEntity
  8
SK2
  6
CONTINUOUS
370
25
 62
7
100
AcDbLine
 10
40.0
 20
37.05361466505703
 30
0.0
 11
40.54472055421419
 21
36.50889411084283
 31
0.0
  0
LINE
  5
820
330
1F
100
AcDbEntity
  8
SK2
  6
CONTINUOUS
370
25
 62
7
100
AcDbLine
 10
40.0
 20
37.47787873376896
 30
0.0
 11
40.89827394480747
 21
36.57960478896149
 31
0.0
  0
LINE
  5
821
330
1F
100
AcDbEntity
  8
SK2
  6
CONTINUOUS
370
25
 62
7
100
AcDbLine
 10
40.0
 20
37.90214280248089
 30
0.0
 11
41.25182733540074
 21
36.65031546708015
 31
0.0
  0
LINE
  5
822
330
1F
100
AcDbEntity
  8
SK2
  6
CONTINUOUS
370
25
 62
7
100
AcDbLine
 10
40.0
 20
38.32640687119282
 30
0.0
 11
41.60538072599402
 21
36.7210261451988
 31
0.0
  0
LINE
  5
823
330
1F
100
AcDbEntity
  8
SK2
  6
CONTINUOUS
370
25
 62
7
100
AcDbLine
 10
40.43840117488094
 20
38.31226976502381
 30
0.0
 11
41.95893411658729
 21
36.79173682331746
 31
0.0
  0
LINE
  5
824
330
1F
100
AcDbEntity
  8
SK2
  6
CONTINUOUS
370
25
 62
7
100
AcDbLine
 10
40.96873126077086
 20
38.20620374784583
 30
0.0
 11
42.31248750718057
 21
36.86244750143611
 31
0.0
  0
LINE
  5
825
330
1F
100
AcDbEntity
  8
SK2
  6
CONTINUOUS
370
25
 62
7
100
AcDbLine
 10
41.49906134666077
 20
38.10013773066784
 30
0.0
 11
42.66604089777385
 21
36.93315817955477
 31
0.0
  0
LINE
  5
826
330
1F
100
AcDbEntity
  8
SK2
  6
CONTINUOUS
370
25
 62
7
100
AcDbLine
 10
42.02939143255068
 20
37.99407171348986
 30
0.0
 11
43.01959428836712
 21
37.00386885767342
 31
0.0
  0
LINE
  5
827
330
1F
100
AcDbEntity
  8
SK2
  6
CONTINUOUS
370
25
 62
7
100
AcDbLine
 10
42.5597215184406
 20
37.88800569631188
 30
0.0
 11
43.3731476789604
 21
37.07457953579208
 31
0.0
  0
LINE
  5
828
330
1F
100
AcDbEntity
  8
SK2
  6
CONTINUOUS
370
25
 62
7
100
AcDbLine
 10
43.09005160433051
 20
37.78193967913389
 30
0.0
 11
43.72670106955368
 21
37.14529021391073
 31
0.0
  0
LINE
  5
829
330
1F
100
AcDbEntity
  8
SK2
  6
CONTINUOUS
370
25
 62
7
100
AcDbLine
 10
43.62038169022042
 20
37.67587366195591
 30
0.0
 11
44.08025446014695
 21
37.21600089202938
 31
0.0
  0
LINE
  5
82A
330
1F
100
AcDbEntity
  8
SK2
  6
CONTINUOUS
370
25
 62
7
100
AcDbLine
 10
44.15071177611034
 20
37.56980764477793
 30
0.0
 11
44.43380785074022
 21
37.28671157014804
 31
0.0
  0
LINE
  5
82B
330
1F
100
AcDbEntity
  8
SK2
  6
CONTINUOUS
370
25
 62
7
100
AcDbLine
 10
44.68104186200026
 20
37.46374162759994
 30
0.0
 11
44.78736124133351
 21
37.3574222482667
 31
0.0
  0
TEXT
  5
82C
330
1F
100
AcDbEntity
  8
SK2
  6
CONTINUOUS
370
25
 62
7
100
AcDbText
 10
19.58333333333333
 20
38.89995
 30
0.0
 40
3.5
  1
45
 72
     1
 11
22.5
 21
38.89995
 31
0.0
100
AcDbText
  0
LINE
  5
82D
330
1F
100
AcDbEntity
  8
2
  6
CONTINUOUS
370
25
 62
7
100
AcDbLine
 10
43.0
 20
-0.18995
 30
0.0
 11
43.0
 21
-23.2
 31
0.0
  0
LINE
  5
82E
330
1F
100
AcDbEntity
  8
2
  6
CONTINUOUS
370
25
 62
7
100
AcDbLine
 10
45.0
 20
-23.2
 30
0.0
 11
45.0
 21
-0.1999999999999993
 31
0.0
  0
LINE
  5
82F
330
1F
100
AcDbEntity
  8
2
  6
CONTINUOUS
370
25
 62
7
100
AcDbLine
 10
36.0
 20
-22.2
 30
0.0
 11
54.97499999999999
 21
-22.2
 31
0.0
  0
LINE
  5
830
330
1F
100
AcDbEntity
  8
2
  6
CONTINUOUS
370
25
 62
7
100
AcDbLine
 10
43.0
 20
-22.2
 30
0.0
 11
38.0
 21
-23.2
 31
0.0
  0
LINE
  5
831
330
1F
100
AcDbEntity
  8
2
  6
CONTINUOUS
370
25
 62
7
100
AcDbLine
 10
38.0
 20
-23.2
 30
0.0
 11
38.0
 21
-21.2
 31
0.0
  0
LINE
  5
832
330
1F
100
AcDbEntity
  8
2
  6
CONTINUOUS
370
25
 62
7
100
AcDbLine
 10
38.0
 20
-21.2
 30
0.0
 11
43.0
 21
-22.2
 31
0.0
  0
LINE
  5
833
330
1F
100
AcDbEntity
  8
2
  6
CONTINUOUS
370
25
 62
7
100
AcDbLine
 10
42.48094637644777
 20
-22.30381072471044
 30
0.0
 11
42.65396425096517
 21
-22.13079285019304
 31
0.0
  0
LINE
  5
834
330
1F
100
AcDbEntity
  8
2
  6
CONTINUOUS
370
25
 62
7
100
AcDbLine
 10
41.95061629055785
 20
-22.40987674188843
 30
0.0
 11
42.3004108603719
 21
-22.06008217207438
 31
0.0
  0
LINE
  5
835
330
1F
100
AcDbEntity
  8
2
  6
CONTINUOUS
370
25
 62
7
100
AcDbLine
 10
41.42028620466795
 20
-22.51594275906641
 30
0.0
 11
41.94685746977863
 21
-21.98937149395573
 31
0.0
  0
LINE
  5
836
330
1F
100
AcDbEntity
  8
2
  6
CONTINUOUS
370
25
 62
7
100
AcDbLine
 10
40.88995611877804
 20
-22.62200877624439
 30
0.0
 11
41.59330407918535
 21
-21.91866081583707
 31
0.0
  0
LINE
  5
837
330
1F
100
AcDbEntity
  8
2
  6
CONTINUOUS
370
25
 62
7
100
AcDbLine
 10
40.35962603288813
 20
-22.72807479342237
 30
0.0
 11
41.23975068859208
 21
-21.84795013771842
 31
0.0
  0
LINE
  5
838
330
1F
100
AcDbEntity
  8
2
  6
CONTINUOUS
370
25
 62
7
100
AcDbLine
 10
39.82929594699822
 20
-22.83414081060035
 30
0.0
 11
40.88619729799881
 21
-21.77723945959976
 31
0.0
  0
LINE
  5
839
330
1F
100
AcDbEntity
  8
2
  6
CONTINUOUS
370
25
 62
7
100
AcDbLine
 10
39.29896586110831
 20
-22.94020682777834
 30
0.0
 11
40.53264390740554
 21
-21.70652878148111
 31
0.0
  0
LINE
  5
83A
330
1F
100
AcDbEntity
  8
2
  6
CONTINUOUS
370
25
 62
7
100
AcDbLine
 10
38.7686357752184
 20
-23.04627284495632
 30
0.0
 11
40.17909051681226
 21
-21.63581810336245
 31
0.0
  0
LINE
  5
83B
330
1F
100
AcDbEntity
  8
2
  6
CONTINUOUS
370
25
 62
7
100
AcDbLine
 10
38.23830568932848
 20
-23.1523388621343
 30
0.0
 11
39.82553712621899
 21
-21.5651074252438
 31
0.0
  0
LINE
  5
83C
330
1F
100
AcDbEntity
  8
2
  6
CONTINUOUS
370
25
 62
7
100
AcDbLine
 10
38.0
 20
-22.96638048275086
 30
0.0
 11
39.47198373562571
 21
-21.49439674712514
 31
0.0
  0
LINE
  5
83D
330
1F
100
AcDbEntity
  8
2
  6
CONTINUOUS
370
25
 62
7
100
AcDbLine
 10
38.0
 20
-22.54211641403894
 30
0.0
 11
39.11843034503244
 21
-21.42368606900649
 31
0.0
  0
LINE
  5
83E
330
1F
100
AcDbEntity
  8
2
  6
CONTINUOUS
370
25
 62
7
100
AcDbLine
 10
38.0
 20
-22.11785234532701
 30
0.0
 11
38.76487695443917
 21
-21.35297539088783
 31
0.0
  0
LINE
  5
83F
330
1F
100
AcDbEntity
  8
2
  6
CONTINUOUS
370
25
 62
7
100
AcDbLine
 10
38.0
 20
-21.69358827661508
 30
0.0
 11
38.4113235638459
 21
-21.28226471276918
 31
0.0
  0
LINE
  5
840
330
1F
100
AcDbEntity
  8
2
  6
CONTINUOUS
370
25
 62
7
100
AcDbLine
 10
38.0
 20
-21.26932420790315
 30
0.0
 11
38.05777017325262
 21
-21.21155403465053
 31
0.0
  0
LINE
  5
841
330
1F
100
AcDbEntity
  8
2
  6
CONTINUOUS
370
25
 62
7
100
AcDbLine
 10
38.0
 20
-23.19135881895644
 30
0.0
 11
38.00720098420296
 21
-23.19855980315941
 31
0.0
  0
LINE
  5
842
330
1F
100
AcDbEntity
  8
2
  6
CONTINUOUS
370
25
 62
7
100
AcDbLine
 10
38.0
 20
-22.76709475024451
 30
0.0
 11
38.36075437479624
 21
-23.12784912504075
 31
0.0
  0
LINE
  5
843
330
1F
100
AcDbEntity
  8
2
  6
CONTINUOUS
370
25
 62
7
100
AcDbLine
 10
38.0
 20
-22.34283068153258
 30
0.0
 11
38.71430776538951
 21
-23.0571384469221
 31
0.0
  0
LINE
  5
844
330
1F
100
AcDbEntity
  8
2
  6
CONTINUOUS
370
25
 62
7
100
AcDbLine
 10
38.0
 20
-21.91856661282065
 30
0.0
 11
39.06786115598278
 21
-22.98642776880344
 31
0.0
  0
LINE
  5
845
330
1F
100
AcDbEntity
  8
2
  6
CONTINUOUS
370
25
 62
7
100
AcDbLine
 10
38.0
 20
-21.49430254410873
 30
0.0
 11
39.42141454657606
 21
-22.91571709068479
 31
0.0
  0
LINE
  5
846
330
1F
100
AcDbEntity
  8
2
  6
CONTINUOUS
370
25
 62
7
100
AcDbLine
 10
38.162451905754
 20
-21.2324903811508
 30
0.0
 11
39.77496793716933
 21
-22.84500641256613
 31
0.0
  0
LINE
  5
847
330
1F
100
AcDbEntity
  8
2
  6
CONTINUOUS
370
25
 62
7
100
AcDbLine
 10
38.6927819916439
 20
-21.33855639832878
 30
0.0
 11
40.12852132776261
 21
-22.77429573444748
 31
0.0
  0
LINE
  5
848
330
1F
100
AcDbEntity
  8
2
  6
CONTINUOUS
370
25
 62
7
100
AcDbLine
 10
39.22311207753382
 20
-21.44462241550676
 30
0.0
 11
40.48207471835588
 21
-22.70358505632882
 31
0.0
  0
LINE
  5
849
330
1F
100
AcDbEntity
  8
2
  6
CONTINUOUS
370
25
 62
7
100
AcDbLine
 10
39.75344216342373
 20
-21.55068843268475
 30
0.0
 11
40.83562810894915
 21
-22.63287437821017
 31
0.0
  0
LINE
  5
84A
330
1F
100
AcDbEntity
  8
2
  6
CONTINUOUS
370
25
 62
7
100
AcDbLine
 10
40.28377224931364
 20
-21.65675444986273
 30
0.0
 11
41.18918149954242
 21
-22.56216370009151
 31
0.0
  0
LINE
  5
84B
330
1F
100
AcDbEntity
  8
2
  6
CONTINUOUS
370
25
 62
7
100
AcDbLine
 10
40.81410233520355
 20
-21.76282046704071
 30
0.0
 11
41.5427348901357
 21
-22.49145302197286
 31
0.0
  0
LINE
  5
84C
330
1F
100
AcDbEntity
  8
2
  6
CONTINUOUS
370
25
 62
7
100
AcDbLine
 10
41.34443242109346
 20
-21.86888648421869
 30
0.0
 11
41.89628828072897
 21
-22.4207423438542
 31
0.0
  0
LINE
  5
84D
330
1F
100
AcDbEntity
  8
2
  6
CONTINUOUS
370
25
 62
7
100
AcDbLine
 10
41.87476250698337
 20
-21.97495250139668
 30
0.0
 11
42.24984167132224
 21
-22.35003166573555
 31
0.0
  0
LINE
  5
84E
330
1F
100
AcDbEntity
  8
2
  6
CONTINUOUS
370
25
 62
7
100
AcDbLine
 10
42.40509259287327
 20
-22.08101851857466
 30
0.0
 11
42.60339506191551
 21
-22.27932098761689
 31
0.0
  0
LINE
  5
84F
330
1F
100
AcDbEntity
  8
2
  6
CONTINUOUS
370
25
 62
7
100
AcDbLine
 10
42.93542267876319
 20
-22.18708453575264
 30
0.0
 11
42.95694845250879
 21
-22.20861030949824
 31
0.0
  0
LINE
  5
850
330
1F
100
AcDbEntity
  8
2
  6
CONTINUOUS
370
25
 62
7
100
AcDbLine
 10
45.0
 20
-22.2
 30
0.0
 11
50.0
 21
-21.2
 31
0.0
  0
LINE
  5
851
330
1F
100
AcDbEntity
  8
2
  6
CONTINUOUS
370
25
 62
7
100
AcDbLine
 10
50.0
 20
-21.2
 30
0.0
 11
50.0
 21
-23.2
 31
0.0
  0
LINE
  5
852
330
1F
100
AcDbEntity
  8
2
  6
CONTINUOUS
370
25
 62
7
100
AcDbLine
 10
50.0
 20
-23.2
 30
0.0
 11
45.0
 21
-22.2
 31
0.0
  0
LINE
  5
853
330
1F
100
AcDbEntity
  8
2
  6
CONTINUOUS
370
25
 62
7
100
AcDbLine
 10
49.70421678265934
 20
-23.14084335653187
 30
0.0
 11
50.0
 21
-22.84506013919122
 31
0.0
  0
LINE
  5
854
330
1F
100
AcDbEntity
  8
2
  6
CONTINUOUS
370
25
 62
7
100
AcDbLine
 10
49.35066339206607
 20
-23.07013267841321
 30
0.0
 11
50.0
 21
-22.42079607047928
 31
0.0
  0
LINE
  5
855
330
1F
100
AcDbEntity
  8
2
  6
CONTINUOUS
370
25
 62
7
100
AcDbLine
 10
48.9971100014728
 20
-22.99942200029456
 30
0.0
 11
50.0
 21
-21.99653200176736
 31
0.0
  0
LINE
  5
856
330
1F
100
AcDbEntity
  8
2
  6
CONTINUOUS
370
25
 62
7
100
AcDbLine
 10
48.64355661087952
 20
-22.9287113221759
 30
0.0
 11
50.0
 21
-21.57226793305543
 31
0.0
  0
LINE
  5
857
330
1F
100
AcDbEntity
  8
2
  6
CONTINUOUS
370
25
 62
7
100
AcDbLine
 10
48.29000322028625
 20
-22.85800064405725
 30
0.0
 11
49.93500483042938
 21
-21.21299903391412
 31
0.0
  0
LINE
  5
858
330
1F
100
AcDbEntity
  8
2
  6
CONTINUOUS
370
25
 62
7
100
AcDbLine
 10
47.93644982969298
 20
-22.78728996593859
 30
0.0
 11
49.40467474453946
 21
-21.31906505109211
 31
0.0
  0
LINE
  5
859
330
1F
100
AcDbEntity
  8
2
  6
CONTINUOUS
370
25
 62
7
100
AcDbLine
 10
47.58289643909971
 20
-22.71657928781994
 30
0.0
 11
48.87434465864956
 21
-21.42513106827009
 31
0.0
  0
LINE
  5
85A
330
1F
100
AcDbEntity
  8
2
  6
CONTINUOUS
370
25
 62
7
100
AcDbLine
 10
47.22934304850643
 20
-22.64586860970128
 30
0.0
 11
48.34401457275964
 21
-21.53119708544807
 31
0.0
  0
LINE
  5
85B
330
1F
100
AcDbEntity
  8
2
  6
CONTINUOUS
370
25
 62
7
100
AcDbLine
 10
46.87578965791316
 20
-22.57515793158263
 30
0.0
 11
47.81368448686974
 21
-21.63726310262605
 31
0.0
  0
LINE
  5
85C
330
1F
100
AcDbEntity
  8
2
  6
CONTINUOUS
370
25
 62
7
100
AcDbLine
 10
46.52223626731988
 20
-22.50444725346397
 30
0.0
 11
47.28335440097982
 21
-21.74332911980404
 31
0.0
  0
LINE
  5
85D
330
1F
100
AcDbEntity
  8
2
  6
CONTINUOUS
370
25
 62
7
100
AcDbLine
 10
46.16868287672661
 20
-22.43373657534532
 30
0.0
 11
46.75302431508992
 21
-21.84939513698202
 31
0.0
  0
LINE
  5
85E
330
1F
100
AcDbEntity
  8
2
  6
CONTINUOUS
370
25
 62
7
100
AcDbLine
 10
45.81512948613334
 20
-22.36302589722666
 30
0.0
 11
46.2226942292
 21
-21.95546115416
 31
0.0
  0
LINE
  5
85F
330
1F
100
AcDbEntity
  8
2
  6
CONTINUOUS
370
25
 62
7
100
AcDbLine
 10
45.46157609554007
 20
-22.29231521910801
 30
0.0
 11
45.69236414331009
 21
-22.06152717133798
 31
0.0
  0
LINE
  5
860
330
1F
100
AcDbEntity
  8
2
  6
CONTINUOUS
370
25
 62
7
100
AcDbLine
 10
45.10802270494679
 20
-22.22160454098936
 30
0.0
 11
45.16203405742019
 21
-22.16759318851596
 31
0.0
  0
LINE
  5
861
330
1F
100
AcDbEntity
  8
2
  6
CONTINUOUS
370
25
 62
7
100
AcDbLine
 10
45.05745351589712
 20
-22.18850929682058
 30
0.0
 11
45.08618027384568
 21
-22.21723605476913
 31
0.0
  0
LINE
  5
862
330
1F
100
AcDbEntity
  8
2
  6
CONTINUOUS
370
25
 62
7
100
AcDbLine
 10
45.41100690649039
 20
-22.11779861870192
 30
0.0
 11
45.61651035973559
 21
-22.32330207194712
 31
0.0
  0
LINE
  5
863
330
1F
100
AcDbEntity
  8
2
  6
CONTINUOUS
370
25
 62
7
100
AcDbLine
 10
45.76456029708366
 20
-22.04708794058327
 30
0.0
 11
46.1468404456255
 21
-22.4293680891251
 31
0.0
  0
LINE
  5
864
330
1F
100
AcDbEntity
  8
2
  6
CONTINUOUS
370
25
 62
7
100
AcDbLine
 10
46.11811368767694
 20
-21.97637726246461
 30
0.0
 11
46.67717053151541
 21
-22.53543410630308
 31
0.0
  0
LINE
  5
865
330
1F
100
AcDbEntity
  8
2
  6
CONTINUOUS
370
25
 62
7
100
AcDbLine
 10
46.47166707827022
 20
-21.90566658434596
 30
0.0
 11
47.20750061740532
 21
-22.64150012348106
 31
0.0
  0
LINE
  5
866
330
1F
100
AcDbEntity
  8
2
  6
CONTINUOUS
370
25
 62
7
100
AcDbLine
 10
46.82522046886348
 20
-21.8349559062273
 30
0.0
 11
47.73783070329523
 21
-22.74756614065905
 31
0.0
  0
LINE
  5
867
330
1F
100
AcDbEntity
  8
2
  6
CONTINUOUS
370
25
 62
7
100
AcDbLine
 10
47.17877385945675
 20
-21.76424522810865
 30
0.0
 11
48.26816078918514
 21
-22.85363215783703
 31
0.0
  0
LINE
  5
868
330
1F
100
AcDbEntity
  8
2
  6
CONTINUOUS
370
25
 62
7
100
AcDbLine
 10
47.53232725005003
 20
-21.69353454998999
 30
0.0
 11
48.79849087507505
 21
-22.95969817501501
 31
0.0
  0
LINE
  5
869
330
1F
100
AcDbEntity
  8
2
  6
CONTINUOUS
370
25
 62
7
100
AcDbLine
 10
47.88588064064331
 20
-21.62282387187134
 30
0.0
 11
49.32882096096496
 21
-23.06576419219299
 31
0.0
  0
LINE
  5
86A
330
1F
100
AcDbEntity
  8
2
  6
CONTINUOUS
370
25
 62
7
100
AcDbLine
 10
48.23943403123658
 20
-21.55211319375268
 30
0.0
 11
49.85915104685487
 21
-23.17183020937097
 31
0.0
  0
LINE
  5
86B
330
1F
100
AcDbEntity
  8
2
  6
CONTINUOUS
370
25
 62
7
100
AcDbLine
 10
48.59298742182985
 20
-21.48140251563403
 30
0.0
 11
50.0
 21
-22.88841509380417
 31
0.0
  0
LINE
  5
86C
330
1F
100
AcDbEntity
  8
2
  6
CONTINUOUS
370
25
 62
7
100
AcDbLine
 10
48.94654081242312
 20
-21.41069183751537
 30
0.0
 11
50.0
 21
-22.46415102509225
 31
0.0
  0
LINE
  5
86D
330
1F
100
AcDbEntity
  8
2
  6
CONTINUOUS
370
25
 62
7
100
AcDbLine
 10
49.3000942030164
 20
-21.33998115939672
 30
0.0
 11
50.0
 21
-22.03988695638032
 31
0.0
  0
LINE
  5
86E
330
1F
100
AcDbEntity
  8
2
  6
CONTINUOUS
370
25
 62
7
100
AcDbLine
 10
49.65364759360967
 20
-21.26927048127806
 30
0.0
 11
50.0
 21
-21.61562288766839
 31
0.0
  0
TEXT
  5
86F
330
1F
100
AcDbEntity
  8
2
  6
CONTINUOUS
370
25
 62
7
100
AcDbText
 10
51.32083333333333
 20
-20.7
 30
0.0
 40
3.5
  1
2
 72
     1
 11
52.4875
 21
-20.7
 31
0.0
100
AcDbText
  0
LINE
  5
870
330
1F
100
AcDbEntity
  8
2
  6
CONTINUOUS
370
25
 62
7
100
AcDbLine
 10
44.94203708
 20
-0.14080294
 30
0.0
 11
68.8011841337024
 21
-23.99994999370238
 31
0.0
  0
LINE
  5
871
330
1F
100
AcDbEntity
  8
2
  6
CONTINUOUS
370
25
 62
7
100
AcDbLine
 10
68.8011841337024
 20
-23.99994999370238
 30
0.0
 11
82.22618413370242
 21
-23.99994999370238
 31
0.0
  0
LINE
  5
872
330
1F
100
AcDbEntity
  8
2
  6
CONTINUOUS
370
25
 62
7
100
AcDbLine
 10
44.94203708
 20
-0.14080294
 30
0.0
 11
44.80061572376269
 21
0.0006184162373095
 31
0.0
  0
LINE
  5
873
330
1F
100
AcDbEntity
  8
2
  6
CONTINUOUS
370
25
 62
7
100
AcDbLine
 10
44.94203708
 20
-0.14080294
 30
0.0
 11
49.18467776711928
 21
-2.969230064746187
 31
0.0
  0
LINE
  5
874
330
1F
100
AcDbEntity
  8
2
  6
CONTINUOUS
370
25
 62
7
100
AcDbLine
 10
49.18467776711928
 20
-2.969230064746187
 30
0.0
 11
47.77046420474619
 21
-4.383443627119283
 31
0.0
  0
LINE
  5
875
330
1F
100
AcDbEntity
  8
2
  6
CONTINUOUS
370
25
 62
7
100
AcDbLine
 10
47.77046420474619
 20
-4.383443627119283
 30
0.0
 11
44.94203708
 21
-0.14080294
 31
0.0
  0
LINE
  5
876
330
1F
100
AcDbEntity
  8
2
  6
CONTINUOUS
370
25
 62
7
100
AcDbLine
 10
47.76664671057614
 20
-4.377717385864209
 30
0.0
 11
49.17895152586421
 21
-2.96541257057614
 31
0.0
  0
LINE
  5
877
330
1F
100
AcDbEntity
  8
2
  6
CONTINUOUS
370
25
 62
7
100
AcDbLine
 10
47.59694108309137
 20
-4.123158944637053
 30
0.0
 11
48.92439308463706
 21
-2.795706943091366
 31
0.0
  0
LINE
  5
878
330
1F
100
AcDbEntity
  8
2
  6
CONTINUOUS
370
25
 62
7
100
AcDbLine
 10
47.4272354556066
 20
-3.868600503409898
 30
0.0
 11
48.6698346434099
 21
-2.626001315606596
 31
0.0
  0
LINE
  5
879
330
1F
100
AcDbEntity
  8
2
  6
CONTINUOUS
370
25
 62
7
100
AcDbLine
 10
47.25752982812183
 20
-3.61404206218274
 30
0.0
 11
48.41527620218275
 21
-2.456295688121823
 31
0.0
  0
LINE
  5
87A
330
1F
100
AcDbEntity
  8
2
  6
CONTINUOUS
370
25
 62
7
100
AcDbLine
 10
47.08782420063706
 20
-3.359483620955585
 30
0.0
 11
48.16071776095558
 21
-2.286590060637055
 31
0.0
  0
LINE
  5
87B
330
1F
100
AcDbEntity
  8
2
  6
CONTINUOUS
370
25
 62
7
100
AcDbLine
 10
46.91811857315228
 20
-3.104925179728427
 30
0.0
 11
47.90615931972843
 21
-2.116884433152284
 31
0.0
  0
LINE
  5
87C
330
1F
100
AcDbEntity
  8
2
  6
CONTINUOUS
370
25
 62
7
100
AcDbLine
 10
46.74841294566751
 20
-2.850366738501272
 30
0.0
 11
47.65160087850127
 21
-1.947178805667512
 31
0.0
  0
LINE
  5
87D
330
1F
100
AcDbEntity
  8
2
  6
CONTINUOUS
370
25
 62
7
100
AcDbLine
 10
46.57870731818274
 20
-2.595808297274115
 30
0.0
 11
47.39704243727412
 21
-1.777473178182742
 31
0.0
  0
LINE
  5
87E
330
1F
100
AcDbEntity
  8
2
  6
CONTINUOUS
370
25
 62
7
100
AcDbLine
 10
46.40900169069797
 20
-2.341249856046957
 30
0.0
 11
47.14248399604696
 21
-1.607767550697972
 31
0.0
  0
LINE
  5
87F
330
1F
100
AcDbEntity
  8
2
  6
CONTINUOUS
370
25
 62
7
100
AcDbLine
 10
46.2392960632132
 20
-2.086691414819802
 30
0.0
 11
46.8879255548198
 21
-1.438061923213199
 31
0.0
  0
LINE
  5
880
330
1F
100
AcDbEntity
  8
2
  6
CONTINUOUS
370
25
 62
7
100
AcDbLine
 10
46.06959043572843
 20
-1.832132973592644
 30
0.0
 11
46.63336711359264
 21
-1.268356295728429
 31
0.0
  0
LINE
  5
881
330
1F
100
AcDbEntity
  8
2
  6
CONTINUOUS
370
25
 62
7
100
AcDbLine
 10
45.89988480824366
 20
-1.577574532365491
 30
0.0
 11
46.37880867236549
 21
-1.098650668243659
 31
0.0
  0
LINE
  5
882
330
1F
100
AcDbEntity
  8
2
  6
CONTINUOUS
370
25
 62
7
100
AcDbLine
 10
45.73017918075889
 20
-1.32301609113833
 30
0.0
 11
46.12425023113833
 21
-0.9289450407588866
 31
0.0
  0
LINE
  5
883
330
1F
100
AcDbEntity
  8
2
  6
CONTINUOUS
370
25
 62
7
100
AcDbLine
 10
45.56047355327411
 20
-1.068457649911174
 30
0.0
 11
45.86969178991117
 21
-0.7592394132741163
 31
0.0
  0
LINE
  5
884
330
1F
100
AcDbEntity
  8
2
  6
CONTINUOUS
370
25
 62
7
100
AcDbLine
 10
45.39076792578935
 20
-0.8138992086840169
 30
0.0
 11
45.61513334868402
 21
-0.5895337857893441
 31
0.0
  0
LINE
  5
885
330
1F
100
AcDbEntity
  8
2
  6
CONTINUOUS
370
25
 62
7
100
AcDbLine
 10
45.22106229830457
 20
-0.5593407674568631
 30
0.0
 11
45.36057490745686
 21
-0.4198281583045738
 31
0.0
  0
LINE
  5
886
330
1F
100
AcDbEntity
  8
2
  6
CONTINUOUS
370
25
 62
7
100
AcDbLine
 10
45.0513566708198
 20
-0.3047823262297058
 30
0.0
 11
45.1060164662297
 21
-0.2501225308198034
 31
0.0
  0
LINE
  5
887
330
1F
100
AcDbEntity
  8
2
  6
CONTINUOUS
370
25
 62
7
100
AcDbLine
 10
47.47099888637057
 20
-3.934245649555855
 30
0.0
 11
47.84533053434009
 21
-4.308577297525378
 31
0.0
  0
LINE
  5
888
330
1F
100
AcDbEntity
  8
2
  6
CONTINUOUS
370
25
 62
7
100
AcDbLine
 10
46.62247074894671
 20
-2.661453443420069
 30
0.0
 11
48.05746256869606
 21
-4.096445263169414
 31
0.0
  0
LINE
  5
889
330
1F
100
AcDbEntity
  8
2
  6
CONTINUOUS
370
25
 62
7
100
AcDbLine
 10
45.77394261152286
 20
-1.388661237284284
 30
0.0
 11
48.26959460305203
 21
-3.884313228813451
 31
0.0
  0
LINE
  5
88A
330
1F
100
AcDbEntity
  8
2
  6
CONTINUOUS
370
25
 62
7
100
AcDbLine
 10
44.9669709888515
 20
-0.1574255459010008
 30
0.0
 11
48.48172663740799
 21
-3.672181194457487
 31
0.0
  0
LINE
  5
88B
330
1F
100
AcDbEntity
  8
2
  6
CONTINUOUS
370
25
 62
7
100
AcDbLine
 10
46.23976319498728
 20
-1.005953683324854
 30
0.0
 11
48.69385867176395
 21
-3.460049160101523
 31
0.0
  0
LINE
  5
88C
330
1F
100
AcDbEntity
  8
2
  6
CONTINUOUS
370
25
 62
7
100
AcDbLine
 10
47.51255540112307
 20
-1.854481820748711
 30
0.0
 11
48.90599070611992
 21
-3.247917125745559
 31
0.0
  0
LINE
  5
88D
330
1F
100
AcDbEntity
  8
2
  6
CONTINUOUS
370
25
 62
7
100
AcDbLine
 10
48.78534760725886
 20
-2.703009958172567
 30
0.0
 11
49.11812274047588
 21
-3.035785091389592
 31
0.0
  0
TEXT
  5
88E
330
1F
100
AcDbEntity
  8
2
  6
CONTINUOUS
370
25
 62
7
100
AcDbText
 10
70.55535080036908
 20
-22.49994999370238
 30
0.0
 40
3.5
  1
R0.2
 72
     1
 11
75.51368413370241
 21
-22.49994999370238
 31
0.0
100
AcDbText
  0
LINE
  5
88F
330
1F
100
AcDbEntity
  8
SK1
  6
CONTINUOUS
370
50
 62
4
100
AcDbLine
 10
35.9
 20
0.0
 30
0.0
 11
37.65
 21
0.0
 31
0.0
  0
LINE
  5
890
330
1F
100
AcDbEntity
  8
SK1
  6
CONTINUOUS
370
50
 62
4
100
AcDbLine
 10
35.9
 20
0.0
 30
0.0
 11
35.9
 21
1.75
 31
0.0
  0
ARC
  5
891
330
1F
100
AcDbEntity
  8
SK1
  6
CONTINUOUS
370
50
 62
4
100
AcDbCircle
 10
35.9
 20
0.0
 30
0.0
 40
1.75
100
AcDbArc
 50
0.0
 51
90.0
  0
LINE
  5
892
330
1F
100
AcDbEntity
  8
SK1
  6
CONTINUOUS
370
50
 62
4
100
AcDbLine
 10
35.9
 20
0.0
 30
0.0
 11
34.15
 21
0.0
 31
0.0
  0
ARC
  5
893
330
1F
100
AcDbEntity
  8
SK1
  6
CONTINUOUS
370
50
 62
4
100
AcDbCircle
 10
35.9
 20
0.0
 30
0.0
 40
1.75
100
AcDbArc
 50
180.0
 51
270.0
  0
LINE
  5
894
330
1F
100
AcDbEntity
  8
SK1
  6
CONTINUOUS
370
50
 62
4
100
AcDbLine
 10
35.9
 20
-1.75
 30
0.0
 11
35.9
 21
0.0
 31
0.0
  0
ARC
  5
895
330
1F
100
AcDbEntity
  8
SK1
  6
CONTINUOUS
370
50
 62
4
100
AcDbCircle
 10
35.9
 20
0.0
 30
0.0
 40
1.75
100
AcDbArc
 50
270.0
 51
0.0
  0
ARC
  5
896
330
1F
100
AcDbEntity
  8
SK1
  6
CONTINUOUS
370
50
 62
4
100
AcDbCircle
 10
35.9
 20
0.0
 30
0.0
 40
1.75
100
AcDbArc
 50
90.0
 51
180.0
  0
LINE
  5
897
330
1F
100
AcDbEntity
  8
SK1
  6
CONTINUOUS
370
50
 62
4
100
AcDbLine
 10
35.67717274741573
 20
-1.73564731720198
 30
0.0
 11
35.9
 21
-1.512820064617713
 31
0.0
  0
LINE
  5
898
330
1F
100
AcDbEntity
  8
SK1
  6
CONTINUOUS
370
50
 62
4
100
AcDbLine
 10
37.41282006461771
 20
0.0
 30
0.0
 11
37.63564731720198
 21
0.2228272525842674
 31
0.0
  0
LINE
  5
899
330
1F
100
AcDbEntity
  8
SK1
  6
CONTINUOUS
370
50
 62
4
100
AcDbLine
 10
35.46930380681873
 20
-1.69602888438369
 30
0.0
 11
35.9
 21
-1.265332691202421
 31
0.0
  0
LINE
  5
89A
330
1F
100
AcDbEntity
  8
SK1
  6
CONTINUOUS
370
50
 62
4
100
AcDbLine
 10
37.16533269120242
 20
0.0
 30
0.0
 11
37.59602888438368
 21
0.4306961931812696
 31
0.0
  0
LINE
  5
89B
330
1F
100
AcDbEntity
  8
SK1
  6
CONTINUOUS
370
50
 62
4
100
AcDbLine
 10
35.28148340435764
 20
-1.636361913429485
 30
0.0
 11
35.9
 21
-1.01784531778713
 31
0.0
  0
LINE
  5
89C
330
1F
100
AcDbEntity
  8
SK1
  6
CONTINUOUS
370
50
 62
4
100
AcDbLine
 10
36.91784531778713
 20
0.0
 30
0.0
 11
37.53636191342948
 21
0.6185165956423557
 31
0.0
  0
LINE
  5
89D
330
1F
100
AcDbEntity
  8
SK1
  6
CONTINUOUS
370
50
 62
4
100
AcDbLine
 10
35.1098551094628
 20
-1.560502834909039
 30
0.0
 11
35.9
 21
-0.7703579443718382
 31
0.0
  0
LINE
  5
89E
330
1F
100
AcDbEntity
  8
SK1
  6
CONTINUOUS
370
50
 62
4
100
AcDbLine
 10
36.67035794437184
 20
0.0
 30
0.0
 11
37.46050283490904
 21
0.7901448905372013
 31
0.0
  0
LINE
  5
89F
330
1F
100
AcDbEntity
  8
SK1
  6
CONTINUOUS
370
50
 62
4
100
AcDbLine
 10
34.95217783219447
 20
-1.470692738762079
 30
0.0
 11
35.9
 21
-0.5228705709565462
 31
0.0
  0
LINE
  5
8A0
330
1F
100
AcDbEntity
  8
SK1
  6
CONTINUOUS
370
50
 62
4
100
AcDbLine
 10
36.42287057095655
 20
0.0
 30
0.0
 11
37.37069273876207
 21
0.947822167805533
 31
0.0
  0
LINE
  5
8A1
330
1F
100
AcDbEntity
  8
SK1
  6
CONTINUOUS
370
50
 62
4
100
AcDbLine
 10
34.80842956711547
 20
-1.366953630425777
 30
0.0
 11
35.9
 21
-0.2753831975412551
 31
0.0
  0
LINE
  5
8A2
330
1F
100
AcDbEntity
  8
SK1
  6
CONTINUOUS
370
50
 62
4
100
AcDbLine
 10
36.17538319754125
 20
0.0
 30
0.0
 11
37.26695363042577
 21
1.091570432884522
 31
0.0
  0
LINE
  5
8A3
330
1F
100
AcDbEntity
  8
SK1
  6
CONTINUOUS
370
50
 62
4
100
AcDbLine
 10
34.67712164538165
 20
-1.25077417874432
 30
0.0
 11
35.9
 21
-0.0278958241259639
 31
0.0
  0
LINE
  5
8A4
330
1F
100
AcDbEntity
  8
SK1
  6
CONTINUOUS
370
50
 62
4
100
AcDbLine
 10
35.92789582412596
 20
0.0
 30
0.0
 11
37.15077417874432
 21
1.222878354618356
 31
0.0
  0
LINE
  5
8A5
330
1F
100
AcDbEntity
  8
SK1
  6
CONTINUOUS
370
50
 62
4
100
AcDbLine
 10
34.55784030371346
 20
-1.122568146997212
 30
0.0
 11
35.68040845071067
 21
0.0
 31
0.0
  0
LINE
  5
8A6
330
1F
100
AcDbEntity
  8
SK1
  6
CONTINUOUS
370
50
 62
4
100
AcDbLine
 10
35.9
 20
0.2195915492893277
 30
0.0
 11
37.02256814699721
 21
1.34215969628654
 31
0.0
  0
LINE
  5
8A7
330
1F
100
AcDbEntity
  8
SK1
  6
CONTINUOUS
370
50
 62
4
100
AcDbLine
 10
34.45188167231256
 20
-0.9810394049828186
 30
0.0
 11
35.43292107729538
 21
0.0
 31
0.0
  0
LINE
  5
8A8
330
1F
100
AcDbEntity
  8
SK1
  6
CONTINUOUS
370
50
 62
4
100
AcDbLine
 10
35.9
 20
0.4670789227046193
 30
0.0
 11
36.88103940498281
 21
1.448118327687438
 31
0.0
  0
LINE
  5
8A9
330
1F
100
AcDbEntity
  8
SK1
  6
CONTINUOUS
370
50
 62
4
100
AcDbLine
 10
34.35832908651575
 20
-0.8271046173643402
 30
0.0
 11
35.18543370388009
 21
0.0
 31
0.0
  0
LINE
  5
8AA
330
1F
100
AcDbEntity
  8
SK1
  6
CONTINUOUS
370
50
 62
4
100
AcDbLine
 10
35.9
 20
0.71456629611991
 30
0.0
 11
36.72710461736434
 21
1.54167091348425
 31
0.0
  0
LINE
  5
8AB
330
1F
100
AcDbEntity
  8
SK1
  6
CONTINUOUS
370
50
 62
4
100
AcDbLine
 10
34.27918473824204
 20
-0.6587615922227528
 30
0.0
 11
34.9379463304648
 21
0.0
 31
0.0
  0
LINE
  5
8AC
330
1F
100
AcDbEntity
  8
SK1
  6
CONTINUOUS
370
50
 62
4
100
AcDbLine
 10
35.9
 20
0.9620536695352015
 30
0.0
 11
36.55876159222275
 21
1.620815261757954
 31
0.0
  0
LINE
  5
8AD
330
1F
100
AcDbEntity
  8
SK1
  6
CONTINUOUS
370
50
 62
4
100
AcDbLine
 10
34.21629687706963
 20
-0.474162079979876
 30
0.0
 11
34.69045895704951
 21
0.0
 31
0.0
  0
LINE
  5
8AE
330
1F
100
AcDbEntity
  8
SK1
  6
CONTINUOUS
370
50
 62
4
100
AcDbLine
 10
35.9
 20
1.209541042950494
 30
0.0
 11
36.37416207997988
 21
1.683703122930369
 31
0.0
  0
LINE
  5
8AF
330
1F
100
AcDbEntity
  8
SK1
  6
CONTINUOUS
370
50
 62
4
100
AcDbLine
 10
34.17198100434271
 20
-0.2709905792915031
 30
0.0
 11
34.44297158363422
 21
0.0
 31
0.0
  0
LINE
  5
8B0
330
1F
100
AcDbEntity
  8
SK1
  6
CONTINUOUS
370
50
 62
4
100
AcDbLine
 10
35.9
 20
1.457028416365784
 30
0.0
 11
36.1709905792915
 21
1.728018995657286
 31
0.0
  0
LINE
  5
8B1
330
1F
100
AcDbEntity
  8
SK1
  6
CONTINUOUS
370
50
 62
4
100
AcDbLine
 10
34.1513858468978
 20
-0.0440983633211194
 30
0.0
 11
34.19548421021892
 21
0.0
 31
0.0
  0
LINE
  5
8B2
330
1F
100
AcDbEntity
  8
SK1
  6
CONTINUOUS
370
50
 62
4
100
AcDbLine
 10
35.9
 20
1.704515789781075
 30
0.0
 11
35.94409836332112
 21
1.748614153102194
 31
0.0
  0
LINE
  5
8B3
330
1F
100
AcDbEntity
  8
SK1
  6
CONTINUOUS
370
50
 62
4
100
AcDbLine
 10
34.26386517603682
 20
-0.6191473609004006
 30
0.0
 11
35.2808526390996
 21
-1.636134823963186
 31
0.0
  0
LINE
  5
8B4
330
1F
100
AcDbEntity
  8
SK1
  6
CONTINUOUS
370
50
 62
4
100
AcDbLine
 10
34.17363430643545
 20
-0.2814291178837463
 30
0.0
 11
35.61857088211625
 21
-1.726365693564548
 31
0.0
  0
LINE
  5
8B5
330
1F
100
AcDbEntity
  8
SK1
  6
CONTINUOUS
370
50
 62
4
100
AcDbLine
 10
34.1503344343115
 20
-0.0106418723445003
 30
0.0
 11
35.8893581276555
 21
-1.749665565688503
 31
0.0
  0
LINE
  5
8B6
330
1F
100
AcDbEntity
  8
SK1
  6
CONTINUOUS
370
50
 62
4
100
AcDbLine
 10
34.38717993538229
 20
0.0
 30
0.0
 11
35.9
 21
-1.51282006461771
 31
0.0
  0
LINE
  5
8B7
330
1F
100
AcDbEntity
  8
SK1
  6
CONTINUOUS
370
50
 62
4
100
AcDbLine
 10
34.63466730879758
 20
0.0
 30
0.0
 11
35.9
 21
-1.265332691202418
 31
0.0
  0
LINE
  5
8B8
330
1F
100
AcDbEntity
  8
SK1
  6
CONTINUOUS
370
50
 62
4
100
AcDbLine
 10
34.88215468221287
 20
0.0
 30
0.0
 11
35.9
 21
-1.017845317787128
 31
0.0
  0
LINE
  5
8B9
330
1F
100
AcDbEntity
  8
SK1
  6
CONTINUOUS
370
50
 62
4
100
AcDbLine
 10
35.12964205562816
 20
0.0
 30
0.0
 11
35.9
 21
-0.7703579443718369
 31
0.0
  0
LINE
  5
8BA
330
1F
100
AcDbEntity
  8
SK1
  6
CONTINUOUS
370
50
 62
4
100
AcDbLine
 10
35.37712942904345
 20
0.0
 30
0.0
 11
35.9
 21
-0.5228705709565453
 31
0.0
  0
LINE
  5
8BB
330
1F
100
AcDbEntity
  8
SK1
  6
CONTINUOUS
370
50
 62
4
100
AcDbLine
 10
35.62461680245875
 20
0.0
 30
0.0
 11
35.9
 21
-0.2753831975412537
 31
0.0
  0
LINE
  5
8BC
330
1F
100
AcDbEntity
  8
SK1
  6
CONTINUOUS
370
50
 62
4
100
AcDbLine
 10
35.87210417587404
 20
0.0
 30
0.0
 11
35.9
 21
-0.027895824125963
 31
0.0
  0
LINE
  5
8BD
330
1F
100
AcDbEntity
  8
SK1
  6
CONTINUOUS
370
50
 62
4
100
AcDbLine
 10
35.9
 20
0.219591549289329
 30
0.0
 11
36.11959154928932
 21
0.0
 31
0.0
  0
LINE
  5
8BE
330
1F
100
AcDbEntity
  8
SK1
  6
CONTINUOUS
370
50
 62
4
100
AcDbLine
 10
35.9
 20
0.4670789227046202
 30
0.0
 11
36.36707892270462
 21
0.0
 31
0.0
  0
LINE
  5
8BF
330
1F
100
AcDbEntity
  8
SK1
  6
CONTINUOUS
370
50
 62
4
100
AcDbLine
 10
35.9
 20
0.7145662961199113
 30
0.0
 11
36.61456629611991
 21
0.0
 31
0.0
  0
LINE
  5
8C0
330
1F
100
AcDbEntity
  8
SK1
  6
CONTINUOUS
370
50
 62
4
100
AcDbLine
 10
35.9
 20
0.9620536695352029
 30
0.0
 11
36.8620536695352
 21
0.0
 31
0.0
  0
LINE
  5
8C1
330
1F
100
AcDbEntity
  8
SK1
  6
CONTINUOUS
370
50
 62
4
100
AcDbLine
 10
35.9
 20
1.209541042950494
 30
0.0
 11
37.1095410429505
 21
0.0
 31
0.0
  0
LINE
  5
8C2
330
1F
100
AcDbEntity
  8
SK1
  6
CONTINUOUS
370
50
 62
4
100
AcDbLine
 10
35.9
 20
1.457028416365785
 30
0.0
 11
37.35702841636579
 21
0.0
 31
0.0
  0
LINE
  5
8C3
330
1F
100
AcDbEntity
  8
SK1
  6
CONTINUOUS
370
50
 62
4
100
AcDbLine
 10
35.9
 20
1.704515789781076
 30
0.0
 11
37.60451578978108
 21
0.0
 31
0.0
  0
LINE
  5
8C4
330
1F
100
AcDbEntity
  8
SK1
  6
CONTINUOUS
370
50
 62
4
100
AcDbLine
 10
36.11543384193567
 20
1.736569321260697
 30
0.0
 11
37.63656932126069
 21
0.2154338419356714
 31
0.0
  0
LINE
  5
8C5
330
1F
100
AcDbEntity
  8
SK1
  6
CONTINUOUS
370
50
 62
4
100
AcDbLine
 10
36.43283284728993
 20
1.666657689321729
 30
0.0
 11
37.56665768932173
 21
0.5328328472899322
 31
0.0
  0
LINE
  5
8C6
330
1F
100
AcDbEntity
  8
SK1
  6
CONTINUOUS
370
50
 62
4
100
AcDbLine
 10
36.94009874905674
 20
1.406879160970207
 30
0.0
 11
37.3068791609702
 21
1.040098749056747
 31
0.0
  0
LINE
  5
8C7
330
1F
100
AcDbEntity
  8
4
  6
LONGDASH_DASH
370
25
 62
2
100
AcDbLine
 10
35.9
 20
0.0
 30
0.0
 11
45.0
 21
0.0
 31
0.0
  0
LINE
  5
8C8
330
1F
100
AcDbEntity
  8
SK4
  6
LONGDASH_DASH
370
25
 62
2
100
AcDbLine
 10
-6.0
 20
0.0
 30
0.0
 11
51.0
 21
0.0
 31
0.0
  0
ARC
  5
8C9
330
1F
100
AcDbEntity
  8
SK6
  6
CONTINUOUS
370
25
 62
5
100
AcDbCircle
 10
68.9613820083765
 20
-26.74524575338786
 30
0.0
 40
2.76048912849221
100
AcDbArc
 50
338.9379403434233
 51
90.44457437511365
  0
LINE
  5
8CA
330
1F
100
AcDbEntity
  8
SK6
  6
CONTINUOUS
370
25
 62
5
100
AcDbLine
 10
68.93996279695983
 20
-23.98483972421281
 30
0.0
 11
68.93996279695983
 21
-25.08789835613463
 31
0.0
  0
ARC
  5
8CB
330
1F
100
AcDbEntity
  8
SK6
  6
CONTINUOUS
370
25
 62
5
100
AcDbCircle
 10
68.95050902936916
 20
-26.76523924566821
 30
0.0
 40
1.677374043771779
100
AcDbArc
 50
243.4214706017868
 51
90.36024081226083
  0
ARC
  5
8CC
330
1F
100
AcDbEntity
  8
SK6
  6
CONTINUOUS
370
25
 62
5
100
AcDbCircle
 10
71.47275989684958
 20
-26.33383199215561
 30
0.0
 40
3.80021703002276
100
AcDbArc
 50
210.5483731288539
 51
236.97801693668
  0
LINE
  5
8CD
330
1F
100
AcDbEntity
  8
SK6
  6
CONTINUOUS
370
25
 62
5
100
AcDbLine
 10
69.40179068512487
 20
-29.52016781867535
 30
0.0
 11
73.54373096742671
 21
-29.52016781867535
 31
0.0
  0
ARC
  5
8CE
330
1F
100
AcDbEntity
  8
SK6
  6
CONTINUOUS
370
25
 62
5
100
AcDbCircle
 10
71.47276183877257
 20
-26.3338320937346
 30
0.0
 40
3.800216899582472
100
AcDbArc
 50
303.0219828477959
 51
326.3732153033476
  0
LINE
  5
8CF
330
1F
100
AcDbEntity
  8
SK6
  6
CONTINUOUS
370
25
 62
5
100
AcDbLine
 10
74.63705975135723
 20
-28.4383194907709
 30
0.0
 11
71.27976170575462
 21
-28.4383194907709
 31
0.0
  0
LINE
  5
8D0
330
1F
100
AcDbEntity
  8
SK6
  6
CONTINUOUS
370
25
 62
5
100
AcDbLine
 10
71.27976170575462
 20
-28.4383194907709
 30
0.0
 11
75.19962109771987
 21
-27.07691829641694
 31
0.0
  0
ARC
  5
8D1
330
1F
100
AcDbEntity
  8
SK6
  6
CONTINUOUS
370
25
 62
5
100
AcDbCircle
 10
71.47276256157211
 20
-26.3338326048594
 30
0.0
 40
3.800217216614723
100
AcDbArc
 50
348.7238644184696
 51
53.4691051260885
  0
LINE
  5
8D2
330
1F
100
AcDbEntity
  8
SK6
  6
CONTINUOUS
370
25
 62
5
100
AcDbLine
 10
73.73486524538545
 20
-23.28022124429967
 30
0.0
 11
71.53745047882737
 21
-27.73730973507057
 31
0.0
  0
ENDSEC
  0
SECTION
  2
OBJECTS
  0
DICTIONARY
  5
C
330
0
100
AcDbDictionary
281
     1
  3
ACAD_GROUP
350
D
  3
ACAD_LAYOUT
350
1A
  3
ACAD_MATERIAL
350
3B
  3
ACAD_MLEADERSTYLE
350
8D5
  3
ACAD_MLINESTYLE
350
17
  3
ACAD_PLOTSETTINGS
350
19
  3
ACAD_PLOTSTYLENAME
350
E
  3
ACAD_SCALELIST
350
23F
  3
ACAD_VISUALSTYLE
350
2A
  3
AcDbVariableDictionary
350
8D3
  0
DICTIONARY
  5
D
102
{ACAD_REACTORS
330
C
102
}
330
C
100
AcDbDictionary
281
     1
  0
DICTIONARY
  5
1A
102
{ACAD_REACTORS
330
C
102
}
330
C
100
AcDbDictionary
281
     1
  3
Layout1
350
1E
  3
Layout2
350
26
  3
Model
350
22
  0
DICTIONARY
  5
3B
102
{ACAD_REACTORS
330
C
102
}
330
C
100
AcDbDictionary
281
     1
  3
ByBlock
350
3D
  3
ByLayer
350
3C
  3
Global
350
3E
  0
DICTIONARY
  5
8D5
102
{ACAD_REACTORS
330
C
102
}
330
C
100
AcDbDictionary
281
     1
  0
DICTIONARY
  5
17
102
{ACAD_REACTORS
330
C
102
}
330
C
100
AcDbDictionary
281
     1
  3
Standard
350
18
  0
DICTIONARY
  5
19
102
{ACAD_REACTORS
330
C
102
}
330
C
100
AcDbDictionary
281
     1
  0
ACDBDICTIONARYWDFLT
  5
E
102
{ACAD_REACTORS
330
C
102
}
330
C
100
AcDbDictionary
281
     1
  3
Normal
350
F
100
AcDbDictionaryWithDefault
340
F
  0
DICTIONARY
  5
23F
102
{ACAD_REACTORS
330
C
102
}
330
C
100
AcDbDictionary
281
     1
  3
A0
350
240
  3
A1
350
241
  3
A2
350
242
  3
A3
350
243
  3
A4
350
244
  3
A5
350
245
  3
A6
350
246
  3
A7
350
247
  3
A8
350
248
  3
A9
350
249
  3
B0
350
24A
  3
B1
350
24B
  3
B2
350
24C
  3
B3
350
24D
  3
B4
350
24E
  3
B5
350
24F
  3
B6
350
250
  3
B7
350
251
  3
B8
350
252
  3
B9
350
253
  3
C0
350
254
  3
C1
350
255
  3
C2
350
256
  3
C3
350
257
  3
C4
350
258
  3
C5
350
259
  3
C6
350
25A
  3
C7
350
25B
  3
C8
350
25C
  3
C9
350
25D
  3
D0
350
25E
  3
D1
350
25F
  3
D2
350
260
  0
DICTIONARY
  5
2A
102
{ACAD_REACTORS
330
C
102
}
330
C
100
AcDbDictionary
281
     1
  3
2dWireframe
350
2F
  3
3D Hidden
350
31
  3
3dWireframe
350
30
  3
Basic
350
32
  3
Brighten
350
36
  3
ColorChange
350
3A
  3
Conceptual
350
34
  3
Dim
350
35
  3
Facepattern
350
39
  3
Flat
350
2B
  3
FlatWithEdges
350
2C
  3
Gouraud
350
2D
  3
GouraudWithEdges
350
2E
  3
Linepattern
350
38
  3
Realistic
350
33
  3
Thicken
350
37
  0
DICTIONARY
  5
8D3
102
{ACAD_REACTORS
330
C
102
}
330
C
100
AcDbDictionary
281
     1
  3
CANNOSCALE
350
8D8
  3
DIMASSOC
350
8D9
  3
HIDETEXT
350
8DA
  3
PSOLHEIGHT
350
8D7
  3
PSOLWIDTH
350
8D6
  0
LAYOUT
  5
1E
102
{ACAD_REACTORS
330
1A
102
}
330
1A
100
AcDbPlotSettings
  1

  2
none_device
  4

  6

 40
0.0
 41
0.0
 42
0.0
 43
0.0
 44
0.0
 45
0.0
 46
0.0
 47
0.0
 48
0.0
 49
0.0
140
0.0
141
0.0
142
1.0
143
1.0
 70
   688
 72
     0
 73
     0
 74
     5
  7

 75
    16
147
1.0
148
0.0
149
0.0
100
AcDbLayout
  1
Layout1
 70
     1
 71
     1
 10
0.0
 20
0.0
 11
420.0
 21
297.0
 12
0.0
 22
0.0
 32
0.0
 14
1.000000000000000E+20
 24
1.000000000000000E+20
 34
1.000000000000000E+20
 15
-1.000000000000000E+20
 25
-1.000000000000000E+20
 35
-1.000000000000000E+20
146
0.0
 13
0.0
 23
0.0
 33
0.0
 16
1.0
 26
0.0
 36
0.0
 17
0.0
 27
1.0
 37
0.0
 76
     0
330
1B
  0
LAYOUT
  5
26
102
{ACAD_REACTORS
330
1A
102
}
330
1A
100
AcDbPlotSettings
  1

  2
none_device
  4

  6

 40
0.0
 41
0.0
 42
0.0
 43
0.0
 44
0.0
 45
0.0
 46
0.0
 47
0.0
 48
0.0
 49
0.0
140
0.0
141
0.0
142
1.0
143
1.0
 70
   688
 72
     0
 73
     0
 74
     5
  7

 75
    16
147
1.0
148
0.0
149
0.0
100
AcDbLayout
  1
Layout2
 70
     1
 71
     2
 10
0.0
 20
0.0
 11
0.0
 21
0.0
 12
0.0
 22
0.0
 32
0.0
 14
0.0
 24
0.0
 34
0.0
 15
0.0
 25
0.0
 35
0.0
146
0.0
 13
0.0
 23
0.0
 33
0.0
 16
1.0
 26
0.0
 36
0.0
 17
0.0
 27
1.0
 37
0.0
 76
     0
330
23
  0
LAYOUT
  5
22
102
{ACAD_REACTORS
330
1A
102
}
330
1A
100
AcDbPlotSettings
  1

  2
none_device
  4

  6

 40
0.0
 41
0.0
 42
0.0
 43
0.0
 44
0.0
 45
0.0
 46
0.0
 47
0.0
 48
0.0
 49
0.0
140
0.0
141
0.0
142
1.0
143
1.0
 70
  1712
 72
     0
 73
     0
 74
     0
  7

 75
     0
147
1.0
148
0.0
149
0.0
100
AcDbLayout
  1
Model
 70
     1
 71
     0
 10
0.0
 20
0.0
 11
420.0
 21
297.0
 12
0.0
 22
0.0
 32
0.0
 14
0.0
 24
0.0
 34
0.0
 15
25.0
 25
35.0
 35
0.0
146
0.0
 13
0.0
 23
0.0
 33
0.0
 16
1.0
 26
0.0
 36
0.0
 17
0.0
 27
1.0
 37
0.0
 76
     0
330
1F
331
29
  0
MATERIAL
  5
3D
102
{ACAD_REACTORS
330
3B
102
}
102
{ACAD_XDICTIONARY
360
8FD
102
}
330
3B
100
AcDbMaterial
  1
ByBlock
  0
MATERIAL
  5
3C
102
{ACAD_REACTORS
330
3B
102
}
102
{ACAD_XDICTIONARY
360
8FB
102
}
330
3B
100
AcDbMaterial
  1
ByLayer
  0
MATERIAL
  5
3E
102
{ACAD_REACTORS
330
3B
102
}
102
{ACAD_XDICTIONARY
360
8FF
102
}
330
3B
100
AcDbMaterial
  1
Global
  0
MLINESTYLE
  5
18
102
{ACAD_REACTORS
330
17
102
}
330
17
100
AcDbMlineStyle
  2
Standard
 70
     0
  3

 62
   256
 51
90.0
 52
90.0
 71
     2
 49
0.5
 62
   256
  6
BYLAYER
 49
-0.5
 62
   256
  6
BYLAYER
  0
ACDBPLACEHOLDER
  5
F
102
{ACAD_REACTORS
330
E
102
}
330
E
  0
SCALE
  5
240
102
{ACAD_REACTORS
330
23F
102
}
330
23F
100
AcDbScale
 70
     0
300
1:1
140
1.0
141
1.0
290
     1
  0
SCALE
  5
241
102
{ACAD_REACTORS
330
23F
102
}
330
23F
100
AcDbScale
 70
     0
300
1:2
140
1.0
141
2.0
290
     0
  0
SCALE
  5
242
102
{ACAD_REACTORS
330
23F
102
}
330
23F
100
AcDbScale
 70
     0
300
1:4
140
1.0
141
4.0
290
     0
  0
SCALE
  5
243
102
{ACAD_REACTORS
330
23F
102
}
330
23F
100
AcDbScale
 70
     0
300
1:5
140
1.0
141
5.0
290
     0
  0
SCALE
  5
244
102
{ACAD_REACTORS
330
23F
102
}
330
23F
100
AcDbScale
 70
     0
300
1:8
140
1.0
141
8.0
290
     0
  0
SCALE
  5
245
102
{ACAD_REACTORS
330
23F
102
}
330
23F
100
AcDbScale
 70
     0
300
1:10
140
1.0
141
10.0
290
     0
  0
SCALE
  5
246
102
{ACAD_REACTORS
330
23F
102
}
330
23F
100
AcDbScale
 70
     0
300
1:16
140
1.0
141
16.0
290
     0
  0
SCALE
  5
247
102
{ACAD_REACTORS
330
23F
102
}
330
23F
100
AcDbScale
 70
     0
300
1:20
140
1.0
141
20.0
290
     0
  0
SCALE
  5
248
102
{ACAD_REACTORS
330
23F
102
}
330
23F
100
AcDbScale
 70
     0
300
1:30
140
1.0
141
30.0
290
     0
  0
SCALE
  5
249
102
{ACAD_REACTORS
330
23F
102
}
330
23F
100
AcDbScale
 70
     0
300
1:40
140
1.0
141
40.0
290
     0
  0
SCALE
  5
24A
102
{ACAD_REACTORS
330
23F
102
}
330
23F
100
AcDbScale
 70
     0
300
1:50
140
1.0
141
50.0
290
     0
  0
SCALE
  5
24B
102
{ACAD_REACTORS
330
23F
102
}
330
23F
100
AcDbScale
 70
     0
300
1:100
140
1.0
141
100.0
290
     0
  0
SCALE
  5
24C
102
{ACAD_REACTORS
330
23F
102
}
330
23F
100
AcDbScale
 70
     0
300
2:1
140
2.0
141
1.0
290
     0
  0
SCALE
  5
24D
102
{ACAD_REACTORS
330
23F
102
}
330
23F
100
AcDbScale
 70
     0
300
4:1
140
4.0
141
1.0
290
     0
  0
SCALE
  5
24E
102
{ACAD_REACTORS
330
23F
102
}
330
23F
100
AcDbScale
 70
     0
300
8:1
140
8.0
141
1.0
290
     0
  0
SCALE
  5
24F
102
{ACAD_REACTORS
330
23F
102
}
330
23F
100
AcDbScale
 70
     0
300
10:1
140
10.0
141
1.0
290
     0
  0
SCALE
  5
250
102
{ACAD_REACTORS
330
23F
102
}
330
23F
100
AcDbScale
 70
     0
300
100:1
140
100.0
141
1.0
290
     0
  0
SCALE
  5
251
102
{ACAD_REACTORS
330
23F
102
}
330
23F
100
AcDbScale
 70
     0
300
1/128" = 1'-0"
140
0.0078125
141
12.0
290
     0
  0
SCALE
  5
252
102
{ACAD_REACTORS
330
23F
102
}
330
23F
100
AcDbScale
 70
     0
300
1/64" = 1'-0"
140
0.015625
141
12.0
290
     0
  0
SCALE
  5
253
102
{ACAD_REACTORS
330
23F
102
}
330
23F
100
AcDbScale
 70
     0
300
1/32" = 1'-0"
140
0.03125
141
12.0
290
     0
  0
SCALE
  5
254
102
{ACAD_REACTORS
330
23F
102
}
330
23F
100
AcDbScale
 70
     0
300
1/16" = 1'-0"
140
0.0625
141
12.0
290
     0
  0
SCALE
  5
255
102
{ACAD_REACTORS
330
23F
102
}
330
23F
100
AcDbScale
 70
     0
300
3/32" = 1'-0"
140
0.09375
141
12.0
290
     0
  0
SCALE
  5
256
102
{ACAD_REACTORS
330
23F
102
}
330
23F
100
AcDbScale
 70
     0
300
1/8" = 1'-0"
140
0.125
141
12.0
290
     0
  0
SCALE
  5
257
102
{ACAD_REACTORS
330
23F
102
}
330
23F
100
AcDbScale
 70
     0
300
3/16" = 1'-0"
140
0.1875
141
12.0
290
     0
  0
SCALE
  5
258
102
{ACAD_REACTORS
330
23F
102
}
330
23F
100
AcDbScale
 70
     0
300
1/4" = 1'-0"
140
0.25
141
12.0
290
     0
  0
SCALE
  5
259
102
{ACAD_REACTORS
330
23F
102
}
330
23F
100
AcDbScale
 70
     0
300
3/8" = 1'-0"
140
0.375
141
12.0
290
     0
  0
SCALE
  5
25A
102
{ACAD_REACTORS
330
23F
102
}
330
23F
100
AcDbScale
 70
     0
300
1/2" = 1'-0"
140
0.5
141
12.0
290
     0
  0
SCALE
  5
25B
102
{ACAD_REACTORS
330
23F
102
}
330
23F
100
AcDbScale
 70
     0
300
3/4" = 1'-0"
140
0.75
141
12.0
290
     0
  0
SCALE
  5
25C
102
{ACAD_REACTORS
330
23F
102
}
330
23F
100
AcDbScale
 70
     0
300
1" = 1'-0"
140
1.0
141
12.0
290
     0
  0
SCALE
  5
25D
102
{ACAD_REACTORS
330
23F
102
}
330
23F
100
AcDbScale
 70
     0
300
1-1/2" = 1'-0"
140
1.5
141
12.0
290
     0
  0
SCALE
  5
25E
102
{ACAD_REACTORS
330
23F
102
}
330
23F
100
AcDbScale
 70
     0
300
3" = 1'-0"
140
3.0
141
12.0
290
     0
  0
SCALE
  5
25F
102
{ACAD_REACTORS
330
23F
102
}
330
23F
100
AcDbScale
 70
     0
300
6" = 1'-0"
140
6.0
141
12.0
290
     0
  0
SCALE
  5
260
102
{ACAD_REACTORS
330
23F
102
}
330
23F
100
AcDbScale
 70
     0
300
1'-0" = 1'-0"
140
12.0
141
12.0
290
     0
  0
VISUALSTYLE
  5
2F
102
{ACAD_REACTORS
330
2A
102
}
102
{ACAD_XDICTIONARY
360
8E3
102
}
330
2A
100
AcDbVisualStyle
  2
2dWireframe
 70
     4
 71
     0
 72
     2
 73
     0
 90
        0
 40
-0.6
 41
-30.0
 62
     5
 63
     7
 74
     1
 91
        4
 64
     7
 65
   257
 75
     1
175
     1
 42
1.0
 92
        0
 66
   257
 43
1.0
 76
     1
 77
     6
 78
     2
 67
     7
 79
     5
170
     0
171
     0
290
     0
174
     0
 93
        1
 44
0.0
173
     0
291
     0
 45
0.0
1001
ACAD
1000
AcDbSavedByObjectVersion
1070
     0
  0
VISUALSTYLE
  5
31
102
{ACAD_REACTORS
330
2A
102
}
102
{ACAD_XDICTIONARY
360
8E7
102
}
330
2A
100
AcDbVisualStyle
  2
3D Hidden
 70
     6
 71
     1
 72
     2
 73
     2
 90
        0
 40
-0.6
 41
-30.0
 62
     5
 63
     7
 74
     2
 91
        2
 64
     7
 65
   257
 75
     2
175
     1
 42
40.0
 92
        0
 66
   257
 43
1.0
 76
     1
 77
     6
 78
     2
 67
     7
 79
     3
170
     0
171
     0
290
     0
174
     0
 93
        1
 44
0.0
173
     0
291
     0
 45
0.0
1001
ACAD
1000
AcDbSavedByObjectVersion
1070
     0
  0
VISUALSTYLE
  5
30
102
{ACAD_REACTORS
330
2A
102
}
102
{ACAD_XDICTIONARY
360
8E5
102
}
330
2A
100
AcDbVisualStyle
  2
3dWireframe
 70
     5
 71
     0
 72
     2
 73
     0
 90
        0
 40
-0.6
 41
-30.0
 62
     5
 63
     7
 74
     1
 91
        4
 64
     7
 65
   257
 75
     1
175
     1
 42
1.0
 92
        0
 66
   257
 43
1.0
 76
     1
 77
     6
 78
     2
 67
     7
 79
     5
170
     0
171
     0
290
     0
174
     0
 93
        1
 44
0.0
173
     0
291
     0
 45
0.0
1001
ACAD
1000
AcDbSavedByObjectVersion
1070
     0
  0
VISUALSTYLE
  5
32
102
{ACAD_REACTORS
330
2A
102
}
102
{ACAD_XDICTIONARY
360
8E9
102
}
330
2A
100
AcDbVisualStyle
  2
Basic
 70
     7
 71
     1
 72
     0
 73
     1
 90
        0
 40
-0.6
 41
-30.0
 62
     5
 63
     7
 74
     0
 91
        4
 64
     7
 65
   257
 75
     1
175
     1
 42
1.0
 92
        8
 66
     7
 43
1.0
 76
     1
 77
     6
 78
     2
 67
     7
 79
     5
170
     0
171
     0
290
     0
174
     0
 93
        1
 44
0.0
173
     0
291
     1
 45
0.0
1001
ACAD
1000
AcDbSavedByObjectVersion
1070
     0
  0
VISUALSTYLE
  5
36
102
{ACAD_REACTORS
330
2A
102
}
102
{ACAD_XDICTIONARY
360
8F1
102
}
330
2A
100
AcDbVisualStyle
  2
Brighten
 70
    12
 71
     2
 72
     2
 73
     0
 90
        0
 40
-0.6
 41
-30.0
 62
     5
 63
     7
 74
     1
 91
        4
 64
     7
 65
   257
 75
     1
175
     1
 42
1.0
 92
        8
 66
     7
 43
1.0
 76
     1
 77
     6
 78
     2
 67
     7
 79
     5
170
     0
171
     0
290
     0
174
     0
 93
        1
 44
50.0
173
     0
291
     1
 45
0.0
1001
ACAD
1000
AcDbSavedByObjectVersion
1070
     0
  0
VISUALSTYLE
  5
3A
102
{ACAD_REACTORS
330
2A
102
}
102
{ACAD_XDICTIONARY
360
8F9
102
}
330
2A
100
AcDbVisualStyle
  2
ColorChange
 70
    16
 71
     2
 72
     2
 73
     3
 90
        0
 40
-0.6
 41
-30.0
 62
     5
 63
     8
 74
     1
 91
        4
 64
     7
 65
   257
 75
     1
175
     1
 42
1.0
 92
        8
 66
     8
 43
1.0
 76
     1
 77
     6
 78
     2
 67
     7
 79
     5
170
     0
171
     0
290
     0
174
     0
 93
        1
 44
0.0
173
     0
291
     1
 45
0.0
1001
ACAD
1000
AcDbSavedByObjectVersion
1070
     0
  0
VISUALSTYLE
  5
34
102
{ACAD_REACTORS
330
2A
102
}
102
{ACAD_XDICTIONARY
360
8ED
102
}
330
2A
100
AcDbVisualStyle
  2
Conceptual
 70
     9
 71
     3
 72
     2
 73
     0
 90
        0
 40
-0.6
 41
-30.0
 62
     5
 63
     7
 74
     2
 91
        2
 64
     7
 65
   257
 75
     1
175
     1
 42
40.0
 92
        8
 66
     7
 43
1.0
 76
     1
 77
     6
 78
     2
 67
     7
 79
     3
170
     0
171
     0
290
     0
174
     0
 93
        1
 44
0.0
173
     0
291
     0
 45
0.0
1001
ACAD
1000
AcDbSavedByObjectVersion
1070
     0
  0
VISUALSTYLE
  5
35
102
{ACAD_REACTORS
330
2A
102
}
102
{ACAD_XDICTIONARY
360
8EF
102
}
330
2A
100
AcDbVisualStyle
  2
Dim
 70
    11
 71
     2
 72
     2
 73
     0
 90
        0
 40
-0.6
 41
-30.0
 62
     5
 63
     7
 74
     1
 91
        4
 64
     7
 65
   257
 75
     1
175
     1
 42
1.0
 92
        8
 66
     7
 43
1.0
 76
     1
 77
     6
 78
     2
 67
     7
 79
     5
170
     0
171
     0
290
     0
174
     0
 93
        1
 44
-50.0
173
     0
291
     1
 45
0.0
1001
ACAD
1000
AcDbSavedByObjectVersion
1070
     0
  0
VISUALSTYLE
  5
39
102
{ACAD_REACTORS
330
2A
102
}
102
{ACAD_XDICTIONARY
360
8F7
102
}
330
2A
100
AcDbVisualStyle
  2
Facepattern
 70
    15
 71
     2
 72
     2
 73
     0
 90
        0
 40
-0.6
 41
-30.0
 62
     5
 63
     7
 74
     1
 91
        4
 64
     7
 65
   257
 75
     1
175
     1
 42
1.0
 92
        8
 66
     7
 43
1.0
 76
     1
 77
     6
 78
     2
 67
     7
 79
     5
170
     0
171
     0
290
     0
174
     0
 93
        1
 44
0.0
173
     0
291
     1
 45
0.0
1001
ACAD
1000
AcDbSavedByObjectVersion
1070
     0
  0
VISUALSTYLE
  5
2B
102
{ACAD_REACTORS
330
2A
102
}
102
{ACAD_XDICTIONARY
360
8DB
102
}
330
2A
100
AcDbVisualStyle
  2
Flat
 70
     0
 71
     2
 72
     1
 73
     1
 90
        2
 40
-0.6
 41
30.0
 62
     5
 63
     7
 74
     0
 91
        4
 64
     7
 65
   257
 75
     1
175
     1
 42
1.0
 92
        8
 66
     7
 43
1.0
 76
     1
 77
     6
 78
     2
 67
     7
 79
     5
170
     0
171
     0
290
     0
174
     0
 93
       13
 44
0.0
173
     0
291
     1
 45
0.0
1001
ACAD
1000
AcDbSavedByObjectVersion
1070
     0
  0
VISUALSTYLE
  5
2C
102
{ACAD_REACTORS
330
2A
102
}
102
{ACAD_XDICTIONARY
360
8DD
102
}
330
2A
100
AcDbVisualStyle
  2
FlatWithEdges
 70
     1
 71
     2
 72
     1
 73
     1
 90
        2
 40
-0.6
 41
30.0
 62
     5
 63
     7
 74
     1
 91
        4
 64
     7
 65
   257
 75
     1
175
     1
 42
1.0
 92
        0
 66
   257
 43
1.0
 76
     1
 77
     6
 78
     2
 67
     7
 79
     5
170
     0
171
     0
290
     0
174
     0
 93
       13
 44
0.0
173
     0
291
     1
 45
0.0
1001
ACAD
1000
AcDbSavedByObjectVersion
1070
     0
  0
VISUALSTYLE
  5
2D
102
{ACAD_REACTORS
330
2A
102
}
102
{ACAD_XDICTIONARY
360
8DF
102
}
330
2A
100
AcDbVisualStyle
  2
Gouraud
 70
     2
 71
     2
 72
     2
 73
     1
 90
        2
 40
-0.6
 41
30.0
 62
     5
 63
     7
 74
     0
 91
        4
 64
     7
 65
   257
 75
     1
175
     1
 42
1.0
 92
        0
 66
     7
 43
1.0
 76
     1
 77
     6
 78
     2
 67
     7
 79
     5
170
     0
171
     0
290
     0
174
     0
 93
       13
 44
0.0
173
     0
291
     1
 45
0.0
1001
ACAD
1000
AcDbSavedByObjectVersion
1070
     0
  0
VISUALSTYLE
  5
2E
102
{ACAD_REACTORS
330
2A
102
}
102
{ACAD_XDICTIONARY
360
8E1
102
}
330
2A
100
AcDbVisualStyle
  2
GouraudWithEdges
 70
     3
 71
     2
 72
     2
 73
     1
 90
        2
 40
-0.6
 41
30.0
 62
     5
 63
     7
 74
     1
 91
        4
 64
     7
 65
   257
 75
     1
175
     1
 42
1.0
 92
        0
 66
   257
 43
1.0
 76
     1
 77
     6
 78
     2
 67
     7
 79
     5
170
     0
171
     0
290
     0
174
     0
 93
       13
 44
0.0
173
     0
291
     1
 45
0.0
1001
ACAD
1000
AcDbSavedByObjectVersion
1070
     0
  0
VISUALSTYLE
  5
38
102
{ACAD_REACTORS
330
2A
102
}
102
{ACAD_XDICTIONARY
360
8F5
102
}
330
2A
100
AcDbVisualStyle
  2
Linepattern
 70
    14
 71
     2
 72
     2
 73
     0
 90
        0
 40
-0.6
 41
-30.0
 62
     5
 63
     7
 74
     1
 91
        4
 64
     7
 65
   257
 75
     7
175
     7
 42
1.0
 92
        8
 66
     7
 43
1.0
 76
     1
 77
     6
 78
     2
 67
     7
 79
     5
170
     0
171
     0
290
     0
174
     0
 93
        1
 44
0.0
173
     0
291
     1
 45
0.0
1001
ACAD
1000
AcDbSavedByObjectVersion
1070
     0
  0
VISUALSTYLE
  5
33
102
{ACAD_REACTORS
330
2A
102
}
102
{ACAD_XDICTIONARY
360
8EB
102
}
330
2A
100
AcDbVisualStyle
  2
Realistic
 70
     8
 71
     2
 72
     2
 73
     0
 90
        0
 40
-0.6
 41
-30.0
 62
     5
 63
     7
 74
     1
 91
        0
 64
     7
 65
   257
 75
     1
175
     1
 42
1.0
 92
        8
 66
     8
 43
1.0
 76
     1
 77
     6
 78
     2
 67
     7
 79
     5
170
     0
171
     0
290
     0
174
     0
 93
       13
 44
0.0
173
     0
291
     0
 45
0.0
1001
ACAD
1000
AcDbSavedByObjectVersion
1070
     0
  0
VISUALSTYLE
  5
37
102
{ACAD_REACTORS
330
2A
102
}
102
{ACAD_XDICTIONARY
360
8F3
102
}
330
2A
100
AcDbVisualStyle
  2
Thicken
 70
    13
 71
     2
 72
     2
 73
     0
 90
        0
 40
-0.6
 41
-30.0
 62
     5
 63
     7
 74
     1
 91
        4
 64
     7
 65
   257
 75
     1
175
     1
 42
1.0
 92
       12
 66
     7
 43
1.0
 76
     1
 77
     6
 78
     2
 67
     7
 79
     5
170
     0
171
     0
290
     0
174
     0
 93
        1
 44
0.0
173
     0
291
     1
 45
0.0
1001
ACAD
1000
AcDbSavedByObjectVersion
1070
     0
  0
DICTIONARYVAR
  5
8D8
102
{ACAD_REACTORS
330
8D3
102
}
330
8D3
100
DictionaryVariables
280
     0
  1
1:1
  0
DICTIONARYVAR
  5
8D9
102
{ACAD_REACTORS
330
8D3
102
}
330
8D3
100
DictionaryVariables
280
     0
  1
2
  0
DICTIONARYVAR
  5
8DA
102
{ACAD_REACTORS
330
8D3
102
}
330
8D3
100
DictionaryVariables
280
     0
  1
1
  0
DICTIONARYVAR
  5
8D7
102
{ACAD_REACTORS
330
8D3
102
}
330
8D3
100
DictionaryVariables
280
     0
  1
80.000000
  0
DICTIONARYVAR
  5
8D6
102
{ACAD_REACTORS
330
8D3
102
}
330
8D3
100
DictionaryVariables
280
     0
  1
5.000000
  0
DICTIONARY
  5
8FD
330
3D
100
AcDbDictionary
280
     1
281
     1
  3
ACAD_XREC_ROUNDTRIP
360
8FE
  0
DICTIONARY
  5
8FB
330
3C
100
AcDbDictionary
280
     1
281
     1
  3
ACAD_XREC_ROUNDTRIP
360
8FC
  0
DICTIONARY
  5
8FF
330
3E
100
AcDbDictionary
280
     1
281
     1
  3
ACAD_XREC_ROUNDTRIP
360
900
  0
DICTIONARY
  5
8E3
330
2F
100
AcDbDictionary
280
     1
281
     1
  3
ACAD_XREC_ROUNDTRIP
360
8E4
  0
DICTIONARY
  5
8E7
330
31
100
AcDbDictionary
280
     1
281
     1
  3
ACAD_XREC_ROUNDTRIP
360
8E8
  0
DICTIONARY
  5
8E5
330
30
100
AcDbDictionary
280
     1
281
     1
  3
ACAD_XREC_ROUNDTRIP
360
8E6
  0
DICTIONARY
  5
8E9
330
32
100
AcDbDictionary
280
     1
281
     1
  3
ACAD_XREC_ROUNDTRIP
360
8EA
  0
DICTIONARY
  5
8F1
330
36
100
AcDbDictionary
280
     1
281
     1
  3
ACAD_XREC_ROUNDTRIP
360
8F2
  0
DICTIONARY
  5
8F9
330
3A
100
AcDbDictionary
280
     1
281
     1
  3
ACAD_XREC_ROUNDTRIP
360
8FA
  0
DICTIONARY
  5
8ED
330
34
100
AcDbDictionary
280
     1
281
     1
  3
ACAD_XREC_ROUNDTRIP
360
8EE
  0
DICTIONARY
  5
8EF
330
35
100
AcDbDictionary
280
     1
281
     1
  3
ACAD_XREC_ROUNDTRIP
360
8F0
  0
DICTIONARY
  5
8F7
330
39
100
AcDbDictionary
280
     1
281
     1
  3
ACAD_XREC_ROUNDTRIP
360
8F8
  0
DICTIONARY
  5
8DB
330
2B
100
AcDbDictionary
280
     1
281
     1
  3
ACAD_XREC_ROUNDTRIP
360
8DC
  0
DICTIONARY
  5
8DD
330
2C
100
AcDbDictionary
280
     1
281
     1
  3
ACAD_XREC_ROUNDTRIP
360
8DE
  0
DICTIONARY
  5
8DF
330
2D
100
AcDbDictionary
280
     1
281
     1
  3
ACAD_XREC_ROUNDTRIP
360
8E0
  0
DICTIONARY
  5
8E1
330
2E
100
AcDbDictionary
280
     1
281
     1
  3
ACAD_XREC_ROUNDTRIP
360
8E2
  0
DICTIONARY
  5
8F5
330
38
100
AcDbDictionary
280
     1
281
     1
  3
ACAD_XREC_ROUNDTRIP
360
8F6
  0
DICTIONARY
  5
8EB
330
33
100
AcDbDictionary
280
     1
281
     1
  3
ACAD_XREC_ROUNDTRIP
360
8EC
  0
DICTIONARY
  5
8F3
330
37
100
AcDbDictionary
280
     1
281
     1
  3
ACAD_XREC_ROUNDTRIP
360
8F4
  0
XRECORD
  5
8FE
102
{ACAD_REACTORS
330
8FD
102
}
330
8FD
100
AcDbXrecord
280
     1
102
MATERIAL
148
0.0
149
0.0
149
0.0
 93
        0
 94
      127
282
     0
 72
     1
 77
     1
171
     1
175
     1
179
     1
273
     0
  0
XRECORD
  5
8FC
102
{ACAD_REACTORS
330
8FB
102
}
330
8FB
100
AcDbXrecord
280
     1
102
MATERIAL
148
0.0
149
0.0
149
0.0
 93
        0
 94
      127
282
     0
 72
     1
 77
     1
171
     1
175
     1
179
     1
273
     0
  0
XRECORD
  5
900
102
{ACAD_REACTORS
330
8FF
102
}
330
8FF
100
AcDbXrecord
280
     1
102
MATERIAL
148
0.0
149
0.0
149
0.0
 93
        0
 94
      127
282
     0
 72
     1
 77
     1
171
     1
175
     1
179
     1
273
     0
  0
XRECORD
  5
8E4
102
{ACAD_REACTORS
330
8E3
102
}
330
8E3
100
AcDbXrecord
280
     1
102
RTVSPropertyOp0
 70
     1
102
RTVSPropertyOp1
 70
     1
102
RTVSPropertyOp2
 70
     1
102
RTVSPropertyOp3
 70
     1
102
RTVSPropertyOp4
 70
     1
102
RTVSPropertyOp5
 70
     1
102
RTVSPropertyOp6
 70
     1
102
RTVSPropertyOp7
 70
     1
102
RTVSPropertyOp8
 70
     1
102
RTVSPropertyOp9
 70
     1
102
RTVSPropertyOp10
 70
     1
102
RTVSPropertyOp11
 70
     1
102
RTVSPropertyOp12
 70
     1
102
RTVSPropertyOp13
 70
     1
102
RTVSPropertyOp14
 70
     1
102
RTVSPropertyOp15
 70
     1
102
RTVSPropertyOp16
 70
     1
102
RTVSPropertyOp17
 70
     1
102
RTVSPropertyOp18
 70
     1
102
RTVSPropertyOp19
 70
     1
102
RTVSPropertyOp20
 70
     1
102
RTVSPropertyOp21
 70
     1
102
RTVSPropertyOp22
 70
     1
102
RTVSPropertyOp23
 70
     1
102
RTVSPropertyOp24
 70
     1
102
RTVSPropertyOp25
 70
     1
102
RTVSPropertyOp26
 70
     1
102
RTVSPropertyOp27
 70
     1
  0
XRECORD
  5
8E8
102
{ACAD_REACTORS
330
8E7
102
}
330
8E7
100
AcDbXrecord
280
     1
102
RTVSPropertyOp0
 70
     1
102
RTVSPropertyOp1
 70
     1
102
RTVSPropertyOp2
 70
     1
102
RTVSPropertyOp3
 70
     1
102
RTVSPropertyOp4
 70
     1
102
RTVSPropertyOp5
 70
     1
102
RTVSPropertyOp6
 70
     1
102
RTVSPropertyOp7
 70
     1
102
RTVSPropertyOp8
 70
     1
102
RTVSPropertyOp9
 70
     1
102
RTVSPropertyOp10
 70
     1
102
RTVSPropertyOp11
 70
     1
102
RTVSPropertyOp12
 70
     1
102
RTVSPropertyOp13
 70
     1
102
RTVSPropertyOp14
 70
     1
102
RTVSPropertyOp15
 70
     1
102
RTVSPropertyOp16
 70
     1
102
RTVSPropertyOp17
 70
     1
102
RTVSPropertyOp18
 70
     1
102
RTVSPropertyOp19
 70
     1
102
RTVSPropertyOp20
 70
     1
102
RTVSPropertyOp21
 70
     1
102
RTVSPropertyOp22
 70
     1
102
RTVSPropertyOp23
 70
     1
102
RTVSPropertyOp24
 70
     1
102
RTVSPropertyOp25
 70
     1
102
RTVSPropertyOp26
 70
     1
102
RTVSPropertyOp27
 70
     1
  0
XRECORD
  5
8E6
102
{ACAD_REACTORS
330
8E5
102
}
330
8E5
100
AcDbXrecord
280
     1
102
RTVSPropertyOp0
 70
     1
102
RTVSPropertyOp1
 70
     1
102
RTVSPropertyOp2
 70
     1
102
RTVSPropertyOp3
 70
     1
102
RTVSPropertyOp4
 70
     1
102
RTVSPropertyOp5
 70
     1
102
RTVSPropertyOp6
 70
     1
102
RTVSPropertyOp7
 70
     1
102
RTVSPropertyOp8
 70
     1
102
RTVSPropertyOp9
 70
     1
102
RTVSPropertyOp10
 70
     1
102
RTVSPropertyOp11
 70
     1
102
RTVSPropertyOp12
 70
     1
102
RTVSPropertyOp13
 70
     1
102
RTVSPropertyOp14
 70
     1
102
RTVSPropertyOp15
 70
     1
102
RTVSPropertyOp16
 70
     1
102
RTVSPropertyOp17
 70
     1
102
RTVSPropertyOp18
 70
     1
102
RTVSPropertyOp19
 70
     1
102
RTVSPropertyOp20
 70
     1
102
RTVSPropertyOp21
 70
     1
102
RTVSPropertyOp22
 70
     1
102
RTVSPropertyOp23
 70
     1
102
RTVSPropertyOp24
 70
     1
102
RTVSPropertyOp25
 70
     1
102
RTVSPropertyOp26
 70
     1
102
RTVSPropertyOp27
 70
     1
  0
XRECORD
  5
8EA
102
{ACAD_REACTORS
330
8E9
102
}
330
8E9
100
AcDbXrecord
280
     1
102
RTVSPropertyOp0
 70
     1
102
RTVSPropertyOp1
 70
     1
102
RTVSPropertyOp2
 70
     1
102
RTVSPropertyOp3
 70
     1
102
RTVSPropertyOp4
 70
     1
102
RTVSPropertyOp5
 70
     1
102
RTVSPropertyOp6
 70
     1
102
RTVSPropertyOp7
 70
     1
102
RTVSPropertyOp8
 70
     1
102
RTVSPropertyOp9
 70
     1
102
RTVSPropertyOp10
 70
     1
102
RTVSPropertyOp11
 70
     1
102
RTVSPropertyOp12
 70
     1
102
RTVSPropertyOp13
 70
     1
102
RTVSPropertyOp14
 70
     1
102
RTVSPropertyOp15
 70
     1
102
RTVSPropertyOp16
 70
     1
102
RTVSPropertyOp17
 70
     1
102
RTVSPropertyOp18
 70
     1
102
RTVSPropertyOp19
 70
     1
102
RTVSPropertyOp20
 70
     1
102
RTVSPropertyOp21
 70
     1
102
RTVSPropertyOp22
 70
     1
102
RTVSPropertyOp23
 70
     1
102
RTVSPropertyOp24
 70
     1
102
RTVSPropertyOp25
 70
     1
102
RTVSPropertyOp26
 70
     1
102
RTVSPropertyOp27
 70
     1
  0
XRECORD
  5
8F2
102
{ACAD_REACTORS
330
8F1
102
}
330
8F1
100
AcDbXrecord
280
     1
102
RTVSPropertyOp0
 70
     1
102
RTVSPropertyOp1
 70
     1
102
RTVSPropertyOp2
 70
     1
102
RTVSPropertyOp3
 70
     1
102
RTVSPropertyOp4
 70
     1
102
RTVSPropertyOp5
 70
     1
102
RTVSPropertyOp6
 70
     1
102
RTVSPropertyOp7
 70
     1
102
RTVSPropertyOp8
 70
     1
102
RTVSPropertyOp9
 70
     1
102
RTVSPropertyOp10
 70
     1
102
RTVSPropertyOp11
 70
     1
102
RTVSPropertyOp12
 70
     1
102
RTVSPropertyOp13
 70
     1
102
RTVSPropertyOp14
 70
     1
102
RTVSPropertyOp15
 70
     1
102
RTVSPropertyOp16
 70
     1
102
RTVSPropertyOp17
 70
     1
102
RTVSPropertyOp18
 70
     1
102
RTVSPropertyOp19
 70
     1
102
RTVSPropertyOp20
 70
     1
102
RTVSPropertyOp21
 70
     1
102
RTVSPropertyOp22
 70
     1
102
RTVSPropertyOp23
 70
     1
102
RTVSPropertyOp24
 70
     1
102
RTVSPropertyOp25
 70
     1
102
RTVSPropertyOp26
 70
     1
102
RTVSPropertyOp27
 70
     1
  0
XRECORD
  5
8FA
102
{ACAD_REACTORS
330
8F9
102
}
330
8F9
100
AcDbXrecord
280
     1
102
RTVSPropertyOp0
 70
     1
102
RTVSPropertyOp1
 70
     1
102
RTVSPropertyOp2
 70
     1
102
RTVSPropertyOp3
 70
     1
102
RTVSPropertyOp4
 70
     1
102
RTVSPropertyOp5
 70
     1
102
RTVSPropertyOp6
 70
     1
102
RTVSPropertyOp7
 70
     1
102
RTVSPropertyOp8
 70
     1
102
RTVSPropertyOp9
 70
     1
102
RTVSPropertyOp10
 70
     1
102
RTVSPropertyOp11
 70
     1
102
RTVSPropertyOp12
 70
     1
102
RTVSPropertyOp13
 70
     1
102
RTVSPropertyOp14
 70
     1
102
RTVSPropertyOp15
 70
     1
102
RTVSPropertyOp16
 70
     1
102
RTVSPropertyOp17
 70
     1
102
RTVSPropertyOp18
 70
     1
102
RTVSPropertyOp19
 70
     1
102
RTVSPropertyOp20
 70
     1
102
RTVSPropertyOp21
 70
     1
102
RTVSPropertyOp22
 70
     1
102
RTVSPropertyOp23
 70
     1
102
RTVSPropertyOp24
 70
     1
102
RTVSPropertyOp25
 70
     1
102
RTVSPropertyOp26
 70
     1
102
RTVSPropertyOp27
 70
     1
  0
XRECORD
  5
8EE
102
{ACAD_REACTORS
330
8ED
102
}
330
8ED
100
AcDbXrecord
280
     1
102
RTVSPropertyOp0
 70
     1
102
RTVSPropertyOp1
 70
     1
102
RTVSPropertyOp2
 70
     1
102
RTVSPropertyOp3
 70
     1
102
RTVSPropertyOp4
 70
     1
102
RTVSPropertyOp5
 70
     1
102
RTVSPropertyOp6
 70
     1
102
RTVSPropertyOp7
 70
     1
102
RTVSPropertyOp8
 70
     1
102
RTVSPropertyOp9
 70
     1
102
RTVSPropertyOp10
 70
     1
102
RTVSPropertyOp11
 70
     1
102
RTVSPropertyOp12
 70
     1
102
RTVSPropertyOp13
 70
     1
102
RTVSPropertyOp14
 70
     1
102
RTVSPropertyOp15
 70
     1
102
RTVSPropertyOp16
 70
     1
102
RTVSPropertyOp17
 70
     1
102
RTVSPropertyOp18
 70
     1
102
RTVSPropertyOp19
 70
     1
102
RTVSPropertyOp20
 70
     1
102
RTVSPropertyOp21
 70
     1
102
RTVSPropertyOp22
 70
     1
102
RTVSPropertyOp23
 70
     1
102
RTVSPropertyOp24
 70
     1
102
RTVSPropertyOp25
 70
     1
102
RTVSPropertyOp26
 70
     1
102
RTVSPropertyOp27
 70
     1
  0
XRECORD
  5
8F0
102
{ACAD_REACTORS
330
8EF
102
}
330
8EF
100
AcDbXrecord
280
     1
102
RTVSPropertyOp0
 70
     1
102
RTVSPropertyOp1
 70
     1
102
RTVSPropertyOp2
 70
     1
102
RTVSPropertyOp3
 70
     1
102
RTVSPropertyOp4
 70
     1
102
RTVSPropertyOp5
 70
     1
102
RTVSPropertyOp6
 70
     1
102
RTVSPropertyOp7
 70
     1
102
RTVSPropertyOp8
 70
     1
102
RTVSPropertyOp9
 70
     1
102
RTVSPropertyOp10
 70
     1
102
RTVSPropertyOp11
 70
     1
102
RTVSPropertyOp12
 70
     1
102
RTVSPropertyOp13
 70
     1
102
RTVSPropertyOp14
 70
     1
102
RTVSPropertyOp15
 70
     1
102
RTVSPropertyOp16
 70
     1
102
RTVSPropertyOp17
 70
     1
102
RTVSPropertyOp18
 70
     1
102
RTVSPropertyOp19
 70
     1
102
RTVSPropertyOp20
 70
     1
102
RTVSPropertyOp21
 70
     1
102
RTVSPropertyOp22
 70
     1
102
RTVSPropertyOp23
 70
     1
102
RTVSPropertyOp24
 70
     1
102
RTVSPropertyOp25
 70
     1
102
RTVSPropertyOp26
 70
     1
102
RTVSPropertyOp27
 70
     1
  0
XRECORD
  5
8F8
102
{ACAD_REACTORS
330
8F7
102
}
330
8F7
100
AcDbXrecord
280
     1
102
RTVSPropertyOp0
 70
     1
102
RTVSPropertyOp1
 70
     1
102
RTVSPropertyOp2
 70
     1
102
RTVSPropertyOp3
 70
     1
102
RTVSPropertyOp4
 70
     1
102
RTVSPropertyOp5
 70
     1
102
RTVSPropertyOp6
 70
     1
102
RTVSPropertyOp7
 70
     1
102
RTVSPropertyOp8
 70
     1
102
RTVSPropertyOp9
 70
     1
102
RTVSPropertyOp10
 70
     1
102
RTVSPropertyOp11
 70
     1
102
RTVSPropertyOp12
 70
     1
102
RTVSPropertyOp13
 70
     1
102
RTVSPropertyOp14
 70
     1
102
RTVSPropertyOp15
 70
     1
102
RTVSPropertyOp16
 70
     1
102
RTVSPropertyOp17
 70
     1
102
RTVSPropertyOp18
 70
     1
102
RTVSPropertyOp19
 70
     1
102
RTVSPropertyOp20
 70
     1
102
RTVSPropertyOp21
 70
     1
102
RTVSPropertyOp22
 70
     1
102
RTVSPropertyOp23
 70
     1
102
RTVSPropertyOp24
 70
     1
102
RTVSPropertyOp25
 70
     1
102
RTVSPropertyOp26
 70
     1
102
RTVSPropertyOp27
 70
     1
  0
XRECORD
  5
8DC
102
{ACAD_REACTORS
330
8DB
102
}
330
8DB
100
AcDbXrecord
280
     1
102
RTVSPropertyOp0
 70
     1
102
RTVSPropertyOp1
 70
     1
102
RTVSPropertyOp2
 70
     1
102
RTVSPropertyOp3
 70
     1
102
RTVSPropertyOp4
 70
     1
102
RTVSPropertyOp5
 70
     1
102
RTVSPropertyOp6
 70
     1
102
RTVSPropertyOp7
 70
     1
102
RTVSPropertyOp8
 70
     1
102
RTVSPropertyOp9
 70
     1
102
RTVSPropertyOp10
 70
     1
102
RTVSPropertyOp11
 70
     1
102
RTVSPropertyOp12
 70
     1
102
RTVSPropertyOp13
 70
     1
102
RTVSPropertyOp14
 70
     1
102
RTVSPropertyOp15
 70
     1
102
RTVSPropertyOp16
 70
     1
102
RTVSPropertyOp17
 70
     1
102
RTVSPropertyOp18
 70
     1
102
RTVSPropertyOp19
 70
     1
102
RTVSPropertyOp20
 70
     1
102
RTVSPropertyOp21
 70
     1
102
RTVSPropertyOp22
 70
     1
102
RTVSPropertyOp23
 70
     1
102
RTVSPropertyOp24
 70
     1
102
RTVSPropertyOp25
 70
     1
102
RTVSPropertyOp26
 70
     1
102
RTVSPropertyOp27
 70
     1
  0
XRECORD
  5
8DE
102
{ACAD_REACTORS
330
8DD
102
}
330
8DD
100
AcDbXrecord
280
     1
102
RTVSPropertyOp0
 70
     1
102
RTVSPropertyOp1
 70
     1
102
RTVSPropertyOp2
 70
     1
102
RTVSPropertyOp3
 70
     1
102
RTVSPropertyOp4
 70
     1
102
RTVSPropertyOp5
 70
     1
102
RTVSPropertyOp6
 70
     1
102
RTVSPropertyOp7
 70
     1
102
RTVSPropertyOp8
 70
     1
102
RTVSPropertyOp9
 70
     1
102
RTVSPropertyOp10
 70
     1
102
RTVSPropertyOp11
 70
     1
102
RTVSPropertyOp12
 70
     1
102
RTVSPropertyOp13
 70
     1
102
RTVSPropertyOp14
 70
     1
102
RTVSPropertyOp15
 70
     1
102
RTVSPropertyOp16
 70
     1
102
RTVSPropertyOp17
 70
     1
102
RTVSPropertyOp18
 70
     1
102
RTVSPropertyOp19
 70
     1
102
RTVSPropertyOp20
 70
     1
102
RTVSPropertyOp21
 70
     1
102
RTVSPropertyOp22
 70
     1
102
RTVSPropertyOp23
 70
     1
102
RTVSPropertyOp24
 70
     1
102
RTVSPropertyOp25
 70
     1
102
RTVSPropertyOp26
 70
     1
102
RTVSPropertyOp27
 70
     1
  0
XRECORD
  5
8E0
102
{ACAD_REACTORS
330
8DF
102
}
330
8DF
100
AcDbXrecord
280
     1
102
RTVSPropertyOp0
 70
     1
102
RTVSPropertyOp1
 70
     1
102
RTVSPropertyOp2
 70
     1
102
RTVSPropertyOp3
 70
     1
102
RTVSPropertyOp4
 70
     1
102
RTVSPropertyOp5
 70
     1
102
RTVSPropertyOp6
 70
     1
102
RTVSPropertyOp7
 70
     1
102
RTVSPropertyOp8
 70
     1
102
RTVSPropertyOp9
 70
     1
102
RTVSPropertyOp10
 70
     1
102
RTVSPropertyOp11
 70
     1
102
RTVSPropertyOp12
 70
     1
102
RTVSPropertyOp13
 70
     1
102
RTVSPropertyOp14
 70
     1
102
RTVSPropertyOp15
 70
     1
102
RTVSPropertyOp16
 70
     1
102
RTVSPropertyOp17
 70
     1
102
RTVSPropertyOp18
 70
     1
102
RTVSPropertyOp19
 70
     1
102
RTVSPropertyOp20
 70
     1
102
RTVSPropertyOp21
 70
     1
102
RTVSPropertyOp22
 70
     1
102
RTVSPropertyOp23
 70
     1
102
RTVSPropertyOp24
 70
     1
102
RTVSPropertyOp25
 70
     1
102
RTVSPropertyOp26
 70
     1
102
RTVSPropertyOp27
 70
     1
  0
XRECORD
  5
8E2
102
{ACAD_REACTORS
330
8E1
102
}
330
8E1
100
AcDbXrecord
280
     1
102
RTVSPropertyOp0
 70
     1
102
RTVSPropertyOp1
 70
     1
102
RTVSPropertyOp2
 70
     1
102
RTVSPropertyOp3
 70
     1
102
RTVSPropertyOp4
 70
     1
102
RTVSPropertyOp5
 70
     1
102
RTVSPropertyOp6
 70
     1
102
RTVSPropertyOp7
 70
     1
102
RTVSPropertyOp8
 70
     1
102
RTVSPropertyOp9
 70
     1
102
RTVSPropertyOp10
 70
     1
102
RTVSPropertyOp11
 70
     1
102
RTVSPropertyOp12
 70
     1
102
RTVSPropertyOp13
 70
     1
102
RTVSPropertyOp14
 70
     1
102
RTVSPropertyOp15
 70
     1
102
RTVSPropertyOp16
 70
     1
102
RTVSPropertyOp17
 70
     1
102
RTVSPropertyOp18
 70
     1
102
RTVSPropertyOp19
 70
     1
102
RTVSPropertyOp20
 70
     1
102
RTVSPropertyOp21
 70
     1
102
RTVSPropertyOp22
 70
     1
102
RTVSPropertyOp23
 70
     1
102
RTVSPropertyOp24
 70
     1
102
RTVSPropertyOp25
 70
     1
102
RTVSPropertyOp26
 70
     1
102
RTVSPropertyOp27
 70
     1
  0
XRECORD
  5
8F6
102
{ACAD_REACTORS
330
8F5
102
}
330
8F5
100
AcDbXrecord
280
     1
102
RTVSPropertyOp0
 70
     1
102
RTVSPropertyOp1
 70
     1
102
RTVSPropertyOp2
 70
     1
102
RTVSPropertyOp3
 70
     1
102
RTVSPropertyOp4
 70
     1
102
RTVSPropertyOp5
 70
     1
102
RTVSPropertyOp6
 70
     1
102
RTVSPropertyOp7
 70
     1
102
RTVSPropertyOp8
 70
     1
102
RTVSPropertyOp9
 70
     1
102
RTVSPropertyOp10
 70
     1
102
RTVSPropertyOp11
 70
     1
102
RTVSPropertyOp12
 70
     1
102
RTVSPropertyOp13
 70
     1
102
RTVSPropertyOp14
 70
     1
102
RTVSPropertyOp15
 70
     1
102
RTVSPropertyOp16
 70
     1
102
RTVSPropertyOp17
 70
     1
102
RTVSPropertyOp18
 70
     1
102
RTVSPropertyOp19
 70
     1
102
RTVSPropertyOp20
 70
     1
102
RTVSPropertyOp21
 70
     1
102
RTVSPropertyOp22
 70
     1
102
RTVSPropertyOp23
 70
     1
102
RTVSPropertyOp24
 70
     1
102
RTVSPropertyOp25
 70
     1
102
RTVSPropertyOp26
 70
     1
102
RTVSPropertyOp27
 70
     1
  0
XRECORD
  5
8EC
102
{ACAD_REACTORS
330
8EB
102
}
330
8EB
100
AcDbXrecord
280
     1
102
RTVSPropertyOp0
 70
     1
102
RTVSPropertyOp1
 70
     1
102
RTVSPropertyOp2
 70
     1
102
RTVSPropertyOp3
 70
     1
102
RTVSPropertyOp4
 70
     1
102
RTVSPropertyOp5
 70
     1
102
RTVSPropertyOp6
 70
     1
102
RTVSPropertyOp7
 70
     1
102
RTVSPropertyOp8
 70
     1
102
RTVSPropertyOp9
 70
     1
102
RTVSPropertyOp10
 70
     1
102
RTVSPropertyOp11
 70
     1
102
RTVSPropertyOp12
 70
     1
102
RTVSPropertyOp13
 70
     1
102
RTVSPropertyOp14
 70
     1
102
RTVSPropertyOp15
 70
     1
102
RTVSPropertyOp16
 70
     1
102
RTVSPropertyOp17
 70
     1
102
RTVSPropertyOp18
 70
     1
102
RTVSPropertyOp19
 70
     1
102
RTVSPropertyOp20
 70
     1
102
RTVSPropertyOp21
 70
     1
102
RTVSPropertyOp22
 70
     1
102
RTVSPropertyOp23
 70
     1
102
RTVSPropertyOp24
 70
     1
102
RTVSPropertyOp25
 70
     1
102
RTVSPropertyOp26
 70
     1
102
RTVSPropertyOp27
 70
     1
  0
XRECORD
  5
8F4
102
{ACAD_REACTORS
330
8F3
102
}
330
8F3
100
AcDbXrecord
280
     1
102
RTVSPropertyOp0
 70
     1
102
RTVSPropertyOp1
 70
     1
102
RTVSPropertyOp2
 70
     1
102
RTVSPropertyOp3
 70
     1
102
RTVSPropertyOp4
 70
     1
102
RTVSPropertyOp5
 70
     1
102
RTVSPropertyOp6
 70
     1
102
RTVSPropertyOp7
 70
     1
102
RTVSPropertyOp8
 70
     1
102
RTVSPropertyOp9
 70
     1
102
RTVSPropertyOp10
 70
     1
102
RTVSPropertyOp11
 70
     1
102
RTVSPropertyOp12
 70
     1
102
RTVSPropertyOp13
 70
     1
102
RTVSPropertyOp14
 70
     1
102
RTVSPropertyOp15
 70
     1
102
RTVSPropertyOp16
 70
     1
102
RTVSPropertyOp17
 70
     1
102
RTVSPropertyOp18
 70
     1
102
RTVSPropertyOp19
 70
     1
102
RTVSPropertyOp20
 70
     1
102
RTVSPropertyOp21
 70
     1
102
RTVSPropertyOp22
 70
     1
102
RTVSPropertyOp23
 70
     1
102
RTVSPropertyOp24
 70
     1
102
RTVSPropertyOp25
 70
     1
102
RTVSPropertyOp26
 70
     1
102
RTVSPropertyOp27
 70
     1
  0
ENDSEC
  0
EOF
