  0
SECTION
  2
HEADER
  9
$ACADVER
  1
AC1015
  9
$ACADMAINTVER
 70
     6
  9
$DWGCODEPAGE
  3
ANSI_1252
  9
$INSBASE
 10
0.0
 20
0.0
 30
0.0
  9
$EXTMIN
 10
0.0
 20
0.0
 30
0.0
  9
$EXTMAX
 10
25.0
 20
35.0
 30
0.0
  9
$LIMMIN
 10
0.0
 20
0.0
  9
$LIMMAX
 10
420.0
 20
297.0
  9
$ORTHOMODE
 70
     0
  9
$REGENMODE
 70
     1
  9
$FILLMODE
 70
     1
  9
$QTEXTMODE
 70
     0
  9
$MIRRTEXT
 70
     1
  9
$LTSCALE
 40
4.9
  9
$ATTMODE
 70
     1
  9
$TEXTSIZE
 40
2.5
  9
$TRACEWID
 40
1.0
  9
$TEXTSTYLE
  7
Standard
  9
$CLAYER
  8
0
  9
$CELTYPE
  6
ByLayer
  9
$CECOLOR
 62
   256
  9
$CELTSCALE
 40
1.0
  9
$DISPSILH
 70
     0
  9
$DIMSCALE
 40
1.0
  9
$DIMASZ
 40
2.5
  9
$DIMEXO
 40
0.625
  9
$DIMDLI
 40
3.75
  9
$DIMRND
 40
0.0
  9
$DIMDLE
 40
0.0
  9
$DIMEXE
 40
1.25
  9
$DIMTP
 40
0.0
  9
$DIMTM
 40
0.0
  9
$DIMTXT
 40
2.5
  9
$DIMCEN
 40
2.5
  9
$DIMTSZ
 40
0.0
  9
$DIMTOL
 70
     0
  9
$DIMLIM
 70
     0
  9
$DIMTIH
 70
     0
  9
$DIMTOH
 70
     0
  9
$DIMSE1
 70
     0
  9
$DIMSE2
 70
     0
  9
$DIMTAD
 70
     1
  9
$DIMZIN
 70
     8
  9
$DIMBLK
  1

  9
$DIMASO
 70
     1
  9
$DIMSHO
 70
     1
  9
$DIMPOST
  1

  9
$DIMAPOST
  1

  9
$DIMALT
 70
     0
  9
$DIMALTD
 70
     3
  9
$DIMALTF
 40
0.03937007874016
  9
$DIMLFAC
 40
1.0
  9
$DIMTOFL
 70
     1
  9
$DIMTVP
 40
0.0
  9
$DIMTIX
 70
     0
  9
$DIMSOXD
 70
     0
  9
$DIMSAH
 70
     0
  9
$DIMBLK1
  1

  9
$DIMBLK2
  1

  9
$DIMSTYLE
  2
ISO-25
  9
$DIMCLRD
 70
     0
  9
$DIMCLRE
 70
     0
  9
$DIMCLRT
 70
     0
  9
$DIMTFAC
 40
1.0
  9
$DIMGAP
 40
0.625
  9
$DIMJUST
 70
     0
  9
$DIMSD1
 70
     0
  9
$DIMSD2
 70
     0
  9
$DIMTOLJ
 70
     0
  9
$DIMTZIN
 70
     8
  9
$DIMALTZ
 70
     0
  9
$DIMALTTZ
 70
     0
  9
$DIMUPT
 70
     0
  9
$DIMDEC
 70
     2
  9
$DIMTDEC
 70
     2
  9
$DIMALTU
 70
     2
  9
$DIMALTTD
 70
     3
  9
$DIMTXSTY
  7
Standard
  9
$DIMAUNIT
 70
     0
  9
$DIMADEC
 70
     0
  9
$DIMALTRND
 40
0.0
  9
$DIMAZIN
 70
     0
  9
$DIMDSEP
 70
    44
  9
$DIMATFIT
 70
     3
  9
$DIMFRAC
 70
     0
  9
$DIMLDRBLK
  1

  9
$DIMLUNIT
 70
     2
  9
$DIMLWD
 70
    -2
  9
$DIMLWE
 70
    -2
  9
$DIMTMOVE
 70
     0
  9
$LUNITS
 70
     2
  9
$LUPREC
 70
     4
  9
$SKETCHINC
 40
1.0
  9
$FILLETRAD
 40
10.0
  9
$AUNITS
 70
     0
  9
$AUPREC
 70
     0
  9
$MENU
  1
.
  9
$ELEVATION
 40
0.0
  9
$PELEVATION
 40
0.0
  9
$THICKNESS
 40
0.0
  9
$LIMCHECK
 70
     0
  9
$CHAMFERA
 40
10.0
  9
$CHAMFERB
 40
10.0
  9
$CHAMFERC
 40
20.0
  9
$CHAMFERD
 40
0.0
  9
$SKPOLY
 70
     0
  9
$TDCREATE
 40
2458578.675
  9
$TDUCREATE
 40
2458578.591666667
  9
$TDUPDATE
 40
2458578.678472222
  9
$TDUUPDATE
 40
2458578.595138889
  9
$TDINDWG
 40
0.0000000116
  9
$TDUSRTIMER
 40
0.0000000116
  9
$USRTIMER
 70
     1
  9
$ANGBASE
 50
0.0
  9
$ANGDIR
 70
     0
  9
$PDMODE
 70
     0
  9
$PDSIZE
 40
0.0
  9
$PLINEWID
 40
0.0
  9
$SPLFRAME
 70
     0
  9
$SPLINETYPE
 70
     6
  9
$SPLINESEGS
 70
     8
  9
$HANDSEED
  5
A0B
  9
$SURFTAB1
 70
     6
  9
$SURFTAB2
 70
     6
  9
$SURFTYPE
 70
     6
  9
$SURFU
 70
     6
  9
$SURFV
 70
     6
  9
$UCSBASE
  2

  9
$UCSNAME
  2

  9
$UCSORG
 10
0.0
 20
0.0
 30
0.0
  9
$UCSXDIR
 10
1.0
 20
0.0
 30
0.0
  9
$UCSYDIR
 10
0.0
 20
1.0
 30
0.0
  9
$UCSORTHOREF
  2

  9
$UCSORTHOVIEW
 70
     0
  9
$UCSORGTOP
 10
0.0
 20
0.0
 30
0.0
  9
$UCSORGBOTTOM
 10
0.0
 20
0.0
 30
0.0
  9
$UCSORGLEFT
 10
0.0
 20
0.0
 30
0.0
  9
$UCSORGRIGHT
 10
0.0
 20
0.0
 30
0.0
  9
$UCSORGFRONT
 10
0.0
 20
0.0
 30
0.0
  9
$UCSORGBACK
 10
0.0
 20
0.0
 30
0.0
  9
$PUCSBASE
  2

  9
$PUCSNAME
  2

  9
$PUCSORG
 10
0.0
 20
0.0
 30
0.0
  9
$PUCSXDIR
 10
1.0
 20
0.0
 30
0.0
  9
$PUCSYDIR
 10
0.0
 20
1.0
 30
0.0
  9
$PUCSORTHOREF
  2

  9
$PUCSORTHOVIEW
 70
     0
  9
$PUCSORGTOP
 10
0.0
 20
0.0
 30
0.0
  9
$PUCSORGBOTTOM
 10
0.0
 20
0.0
 30
0.0
  9
$PUCSORGLEFT
 10
0.0
 20
0.0
 30
0.0
  9
$PUCSORGRIGHT
 10
0.0
 20
0.0
 30
0.0
  9
$PUCSORGFRONT
 10
0.0
 20
0.0
 30
0.0
  9
$PUCSORGBACK
 10
0.0
 20
0.0
 30
0.0
  9
$USERI1
 70
     0
  9
$USERI2
 70
     0
  9
$USERI3
 70
     0
  9
$USERI4
 70
     0
  9
$USERI5
 70
     0
  9
$USERR1
 40
0.0
  9
$USERR2
 40
0.0
  9
$USERR3
 40
0.0
  9
$USERR4
 40
0.0
  9
$USERR5
 40
0.0
  9
$WORLDVIEW
 70
     1
  9
$SHADEDGE
 70
     3
  9
$SHADEDIF
 70
    70
  9
$TILEMODE
 70
     1
  9
$MAXACTVP
 70
    64
  9
$PINSBASE
 10
0.0
 20
0.0
 30
0.0
  9
$PLIMCHECK
 70
     0
  9
$PEXTMIN
 10
1.000000000000000E+20
 20
1.000000000000000E+20
 30
1.000000000000000E+20
  9
$PEXTMAX
 10
-1.000000000000000E+20
 20
-1.000000000000000E+20
 30
-1.000000000000000E+20
  9
$PLIMMIN
 10
0.0
 20
0.0
  9
$PLIMMAX
 10
420.0
 20
297.0
  9
$UNITMODE
 70
     0
  9
$VISRETAIN
 70
     1
  9
$PLINEGEN
 70
     0
  9
$PSLTSCALE
 70
     1
  9
$TREEDEPTH
 70
  3020
  9
$CMLSTYLE
  2
Standard
  9
$CMLJUST
 70
     0
  9
$CMLSCALE
 40
20.0
  9
$PROXYGRAPHICS
 70
     1
  9
$MEASUREMENT
 70
     1
  9
$CELWEIGHT
370
    -1
  9
$ENDCAPS
280
     0
  9
$JOINSTYLE
280
     0
  9
$LWDISPLAY
290
     0
  9
$INSUNITS
 70
     4
  9
$HYPERLINKBASE
  1

  9
$STYLESHEET
  1

  9
$XEDIT
290
     1
  9
$CEPSNTYPE
380
     0
  9
$PSTYLEMODE
290
     1
  9
$FINGERPRINTGUID
  2
{E47C4FE6-1514-4D82-8B21-9678EA04B27A}
  9
$VERSIONGUID
  2
{FAEB1C32-E019-11D5-929B-00C0DF256EC4}
  9
$EXTNAMES
290
     1
  9
$PSVPSCALE
 40
0.0
  9
$OLESTARTUP
290
     0
  0
ENDSEC
  0
SECTION
  2
CLASSES
  0
CLASS
  1
ACDBDICTIONARYWDFLT
  2
AcDbDictionaryWithDefault
  3
ObjectDBX Classes
 90
        0
280
     0
281
     0
  0
CLASS
  1
VISUALSTYLE
  2
AcDbVisualStyle
  3
ObjectDBX Classes
 90
     4095
280
     0
281
     0
  0
CLASS
  1
MATERIAL
  2
AcDbMaterial
  3
ObjectDBX Classes
 90
     1153
280
     0
281
     0
  0
CLASS
  1
SCALE
  2
AcDbScale
  3
ObjectDBX Classes
 90
     1153
280
     0
281
     0
  0
CLASS
  1
DICTIONARYVAR
  2
AcDbDictionaryVar
  3
ObjectDBX Classes
 90
        0
280
     0
281
     0
  0
CLASS
  1
ACDBPLACEHOLDER
  2
AcDbPlaceHolder
  3
ObjectDBX Classes
 90
        0
280
     0
281
     0
  0
CLASS
  1
LAYOUT
  2
AcDbLayout
  3
ObjectDBX Classes
 90
        0
280
     0
281
     0
  0
ENDSEC
  0
SECTION
  2
TABLES
  0
TABLE
  2
VPORT
  5
8
330
0
100
AcDbSymbolTable
 70
     1
  0
VPORT
  5
29
330
8
100
AcDbSymbolTableRecord
100
AcDbViewportTableRecord
  2
*Active
 70
     0
 10
0.0
 20
0.0
 11
1.0
 21
1.0
 12
11.26
 22
4.5
 13
0.0
 23
0.0
 14
10.0
 24
10.0
 15
10.0
 25
10.0
 16
0.0
 26
0.0
 36
1.0
 17
0.0
 27
0.0
 37
0.0
 40
9.0
 41
2.503333333333333
 42
50.0
 43
0.0
 44
0.0
 50
0.0
 51
0.0
 71
     0
 72
   100
 73
     1
 74
     3
 75
     0
 76
     0
 77
     0
 78
     0
281
     0
 65
     1
110
0.0
120
0.0
130
0.0
111
1.0
121
0.0
131
0.0
112
0.0
122
1.0
132
0.0
 79
     0
146
0.0
  0
ENDTAB
  0
TABLE
  2
LTYPE
  5
5
330
0
100
AcDbSymbolTable
 70
    10
  0
LTYPE
  5
14
330
5
100
AcDbSymbolTableRecord
100
AcDbLinetypeTableRecord
  2
ByBlock
 70
     0
  3

 72
    65
 73
     0
 40
0.0
  0
LTYPE
  5
15
330
5
100
AcDbSymbolTableRecord
100
AcDbLinetypeTableRecord
  2
ByLayer
 70
     0
  3

 72
    65
 73
     0
 40
0.0
  0
LTYPE
  5
16
330
5
100
AcDbSymbolTableRecord
100
AcDbLinetypeTableRecord
  2
Continuous
 70
     0
  3
Solid line
 72
    65
 73
     0
 40
0.0
  0
LTYPE
  5
45
330
5
100
AcDbSymbolTableRecord
100
AcDbLinetypeTableRecord
  2
phl_thick
 70
     0
  3
THICK
 72
    65
 73
     0
 40
0.0
  0
LTYPE
  5
2CD
330
5
100
AcDbSymbolTableRecord
100
AcDbLinetypeTableRecord
  2
CUT
 70
     0
  3
THICK
 72
    65
 73
     0
 40
0.0
  0
LTYPE
  5
2D4
330
5
100
AcDbSymbolTableRecord
100
AcDbLinetypeTableRecord
  2
NOCUT
 70
     0
  3
THICK
 72
    65
 73
     0
 40
0.0
  0
LTYPE
  5
2DB
330
5
100
AcDbSymbolTableRecord
100
AcDbLinetypeTableRecord
  2
SK1
 70
     0
  3
THICK
 72
    65
 73
     0
 40
0.0
  0
LTYPE
  5
2E3
330
5
100
AcDbSymbolTableRecord
100
AcDbLinetypeTableRecord
  2
ls_SK2
 70
     0
  3
THIN
 72
    65
 73
     0
 40
0.0
  0
LTYPE
  5
38F
330
5
100
AcDbSymbolTableRecord
100
AcDbLinetypeTableRecord
  2
ls_2
 70
     0
  3
THIN
 72
    65
 73
     0
 40
0.0
  0
LTYPE
  5
4E1
330
5
100
AcDbSymbolTableRecord
100
AcDbLinetypeTableRecord
  2
ls_SK1
 70
     0
  3
THICK
 72
    65
 73
     0
 40
0.0
  0
LTYPE
  5
51B
330
5
100
AcDbSymbolTableRecord
100
AcDbLinetypeTableRecord
  2
LONGDASH_DASH
 70
     0
  3
THIN_DASHDOT
 72
    65
 73
     4
 40
0.85
 49
0.4
 74
     0
 49
-0.2
 74
     0
 49
0.05
 74
     0
 49
-0.2
 74
     0
  0
LTYPE
  5
520
330
5
100
AcDbSymbolTableRecord
100
AcDbLinetypeTableRecord
  2
ls1
 70
     0
  3
THICK
 72
    65
 73
     0
 40
0.0
  0
ENDTAB
  0
TABLE
  2
LAYER
  5
2
330
0
100
AcDbSymbolTable
 70
    10
  0
LAYER
  5
10
330
2
100
AcDbSymbolTableRecord
100
AcDbLayerTableRecord
  2
0
 70
     0
 62
     7
  6
Continuous
370
    -3
390
F
  0
LAYER
  5
44
330
2
100
AcDbSymbolTableRecord
100
AcDbLayerTableRecord
  2
1
 70
     0
 62
4
  6
CONTINUOUS
370
50
370
    -3
390
F
  0
LAYER
  5
2CC
330
2
100
AcDbSymbolTableRecord
100
AcDbLayerTableRecord
  2
CUT
 70
     0
 62
1
  6
CONTINUOUS
370
25
370
    -3
390
F
  0
LAYER
  5
2D3
330
2
100
AcDbSymbolTableRecord
100
AcDbLayerTableRecord
  2
NOCUT
 70
     0
 62
7
  6
CONTINUOUS
370
25
370
    -3
390
F
  0
LAYER
  5
2DA
330
2
100
AcDbSymbolTableRecord
100
AcDbLayerTableRecord
  2
SK1
 70
     0
 62
4
  6
CONTINUOUS
370
50
370
    -3
390
F
  0
LAYER
  5
2E2
330
2
100
AcDbSymbolTableRecord
100
AcDbLayerTableRecord
  2
SK2
 70
     0
 62
7
  6
CONTINUOUS
370
25
370
    -3
390
F
  0
LAYER
  5
38E
330
2
100
AcDbSymbolTableRecord
100
AcDbLayerTableRecord
  2
2
 70
     0
 62
7
  6
CONTINUOUS
370
25
370
    -3
390
F
  0
LAYER
  5
51A
330
2
100
AcDbSymbolTableRecord
100
AcDbLayerTableRecord
  2
4
 70
     0
 62
2
  6
LONGDASH_DASH
370
25
370
    -3
390
F
  0
LAYER
  5
51D
330
2
100
AcDbSymbolTableRecord
100
AcDbLayerTableRecord
  2
SK4
 70
     0
 62
2
  6
LONGDASH_DASH
370
25
370
    -3
390
F
  0
LAYER
  5
51F
330
2
100
AcDbSymbolTableRecord
100
AcDbLayerTableRecord
  2
SK6
 70
     0
 62
5
  6
CONTINUOUS
370
25
370
    -3
390
F
  0
ENDTAB
  0
TABLE
  2
STYLE
  5
3
330
0
100
AcDbSymbolTable
 70
     1
  0
STYLE
  5
11
330
3
100
AcDbSymbolTableRecord
100
AcDbTextStyleTableRecord
  2
Standard
 70
     0
 40
0.0
 41
1.0
 50
0.0
 71
     0
 42
2.5
  3
Monospac821 BT
  4

  0
ENDTAB
  0
TABLE
  2
VIEW
  5
6
330
0
100
AcDbSymbolTable
 70
     0
  0
ENDTAB
  0
TABLE
  2
UCS
  5
7
330
0
100
AcDbSymbolTable
 70
     0
  0
ENDTAB
  0
TABLE
  2
APPID
  5
9
330
0
100
AcDbSymbolTable
 70
     2
  0
APPID
  5
12
330
9
100
AcDbSymbolTableRecord
100
AcDbRegAppTableRecord
  2
ACAD
 70
     0
  0
APPID
  5
3F
330
9
100
AcDbSymbolTableRecord
100
AcDbRegAppTableRecord
  2
ccLab
 70
     0
  0
ENDTAB
  0
TABLE
  2
DIMSTYLE
  5
A
330
0
100
AcDbSymbolTable
 70
     1
100
AcDbDimStyleTable
  0
DIMSTYLE
105
27
330
A
100
AcDbSymbolTableRecord
100
AcDbDimStyleTableRecord
  2
ISO-25
 70
     0
 41
2.5
 42
0.625
 43
3.75
 44
1.25
 73
     0
 74
     0
 77
     1
 78
     8
140
2.5
141
2.5
143
0.03937007874016
147
0.625
171
     3
172
     1
271
     2
272
     2
274
     3
278
    44
283
     0
284
     8
340
11
  0
ENDTAB
  0
TABLE
  2
BLOCK_RECORD
  5
1
330
0
100
AcDbSymbolTable
 70
     2
  0
BLOCK_RECORD
  5
1F
330
1
100
AcDbSymbolTableRecord
100
AcDbBlockTableRecord
  2
*Model_Space
340
22
  0
BLOCK_RECORD
  5
1B
330
1
100
AcDbSymbolTableRecord
100
AcDbBlockTableRecord
  2
*Paper_Space
340
1E
  0
BLOCK_RECORD
  5
23
330
1
100
AcDbSymbolTableRecord
100
AcDbBlockTableRecord
  2
*Paper_Space0
340
26
  0
ENDTAB
  0
ENDSEC
  0
SECTION
  2
BLOCKS
  0
BLOCK
  5
20
330
1F
100
AcDbEntity
  8
0
100
AcDbBlockBegin
  2
*Model_Space
 70
     0
 10
0.0
 20
0.0
 30
0.0
  3
*Model_Space
  1

  0
ENDBLK
  5
21
330
1F
100
AcDbEntity
  8
0
100
AcDbBlockEnd
  0
BLOCK
  5
1C
330
1B
100
AcDbEntity
 67
     1
  8
0
100
AcDbBlockBegin
  2
*Paper_Space
 70
     0
 10
0.0
 20
0.0
 30
0.0
  3
*Paper_Space
  1

  0
ENDBLK
  5
1D
330
1B
100
AcDbEntity
 67
     1
  8
0
100
AcDbBlockEnd
  0
BLOCK
  5
24
330
23
100
AcDbEntity
  8
0
100
AcDbBlockBegin
  2
*Paper_Space0
 70
     0
 10
0.0
 20
0.0
 30
0.0
  3
*Paper_Space0
  1

  0
ENDBLK
  5
25
330
23
100
AcDbEntity
  8
0
100
AcDbBlockEnd
  0
ENDSEC
  0
SECTION
  2
ENTITIES
  0
LINE
  5
52A
330
1F
100
AcDbEntity
  8
1
  6
CONTINUOUS
370
50
 62
4
100
AcDbLine
 10
116.701462
 20
-3.188407
 30
0.0
 11
116.700912
 21
-3.080122
 31
0.0
  0
LINE
  5
52B
330
1F
100
AcDbEntity
  8
1
  6
CONTINUOUS
370
50
 62
4
100
AcDbLine
 10
139.04097
 20
-1.956686
 30
0.0
 11
139.037659
 21
-1.723294
 31
0.0
  0
LINE
  5
52C
330
1F
100
AcDbEntity
  8
1
  6
CONTINUOUS
370
50
 62
4
100
AcDbLine
 10
137.858261
 20
3.346373
 30
0.0
 11
137.856659
 21
3.428686
 31
0.0
  0
LINE
  5
52D
330
1F
100
AcDbEntity
  8
1
  6
CONTINUOUS
370
50
 62
4
100
AcDbLine
 10
139.047958
 20
-2.189583
 30
0.0
 11
139.04097
 21
-1.956686
 31
0.0
  0
LINE
  5
52E
330
1F
100
AcDbEntity
  8
1
  6
CONTINUOUS
370
50
 62
4
100
AcDbLine
 10
113.978416
 20
4.618666999999999
 30
0.0
 11
113.977173
 21
4.651233
 31
0.0
  0
LINE
  5
52F
330
1F
100
AcDbEntity
  8
1
  6
CONTINUOUS
370
50
 62
4
100
AcDbLine
 10
139.058609
 20
-2.421627
 30
0.0
 11
139.047958
 21
-2.189583
 31
0.0
  0
LINE
  5
530
330
1F
100
AcDbEntity
  8
1
  6
CONTINUOUS
370
50
 62
4
100
AcDbLine
 10
139.072937
 20
-2.651986
 30
0.0
 11
139.058609
 21
-2.421627
 31
0.0
  0
LINE
  5
531
330
1F
100
AcDbEntity
  8
1
  6
CONTINUOUS
370
50
 62
4
100
AcDbLine
 10
118.069992
 20
-5.653893
 30
0.0
 11
118.063652
 21
-5.55864
 31
0.0
  0
LINE
  5
532
330
1F
100
AcDbEntity
  8
1
  6
CONTINUOUS
370
50
 62
4
100
AcDbLine
 10
137.856659
 20
3.428686
 30
0.0
 11
137.850571
 21
3.515189
 31
0.0
  0
LINE
  5
533
330
1F
100
AcDbEntity
  8
1
  6
CONTINUOUS
370
50
 62
4
100
AcDbLine
 10
139.090836
 20
-2.879027
 30
0.0
 11
139.072937
 21
-2.651986
 31
0.0
  0
LINE
  5
534
330
1F
100
AcDbEntity
  8
1
  6
CONTINUOUS
370
50
 62
4
100
AcDbLine
 10
139.112228
 20
-3.102356
 30
0.0
 11
139.090836
 21
-2.879027
 31
0.0
  0
LINE
  5
535
330
1F
100
AcDbEntity
  8
1
  6
CONTINUOUS
370
50
 62
4
100
AcDbLine
 10
116.711739
 20
-3.294647
 30
0.0
 11
116.701462
 21
-3.188407
 31
0.0
  0
LINE
  5
536
330
1F
100
AcDbEntity
  8
1
  6
CONTINUOUS
370
50
 62
4
100
AcDbLine
 10
139.13707
 20
-3.321655
 30
0.0
 11
139.112228
 21
-3.102356
 31
0.0
  0
LINE
  5
537
330
1F
100
AcDbEntity
  8
1
  6
CONTINUOUS
370
50
 62
4
100
AcDbLine
 10
137.850571
 20
3.515189
 30
0.0
 11
137.84024
 21
3.605442
 31
0.0
  0
LINE
  5
538
330
1F
100
AcDbEntity
  8
1
  6
CONTINUOUS
370
50
 62
4
100
AcDbLine
 10
113.982674
 20
4.584962
 30
0.0
 11
113.978416
 21
4.618666999999999
 31
0.0
  0
LINE
  5
539
330
1F
100
AcDbEntity
  8
1
  6
CONTINUOUS
370
50
 62
4
100
AcDbLine
 10
139.165283
 20
-3.536605
 30
0.0
 11
139.13707
 21
-3.321655
 31
0.0
  0
LINE
  5
53A
330
1F
100
AcDbEntity
  8
1
  6
CONTINUOUS
370
50
 62
4
100
AcDbLine
 10
139.196823
 20
-3.746888
 30
0.0
 11
139.165283
 21
-3.536605
 31
0.0
  0
LINE
  5
53B
330
1F
100
AcDbEntity
  8
1
  6
CONTINUOUS
370
50
 62
4
100
AcDbLine
 10
137.84024
 20
3.605442
 30
0.0
 11
137.825897
 21
3.699009
 31
0.0
  0
LINE
  5
53C
330
1F
100
AcDbEntity
  8
1
  6
CONTINUOUS
370
50
 62
4
100
AcDbLine
 10
139.231644
 20
-3.952185
 30
0.0
 11
139.196823
 21
-3.746888
 31
0.0
  0
LINE
  5
53D
330
1F
100
AcDbEntity
  8
1
  6
CONTINUOUS
370
50
 62
4
100
AcDbLine
 10
137.825897
 20
3.699009
 30
0.0
 11
137.807709
 21
3.795767
 31
0.0
  0
LINE
  5
53E
330
1F
100
AcDbEntity
  8
1
  6
CONTINUOUS
370
50
 62
4
100
AcDbLine
 10
118.063652
 20
-5.55864
 30
0.0
 11
118.042976
 21
-5.449237999999999
 31
0.0
  0
LINE
  5
53F
330
1F
100
AcDbEntity
  8
1
  6
CONTINUOUS
370
50
 62
4
100
AcDbLine
 10
139.999969
 20
4.950745
 30
0.0
 11
139.999939
 21
4.950902999999999
 31
0.0
  0
LINE
  5
540
330
1F
100
AcDbEntity
  8
1
  6
CONTINUOUS
370
50
 62
4
100
AcDbLine
 10
139.999908
 20
4.950982
 30
0.0
 11
139.999893
 21
4.951061
 31
0.0
  0
LINE
  5
541
330
1F
100
AcDbEntity
  8
1
  6
CONTINUOUS
370
50
 62
4
100
AcDbLine
 10
139.269653
 20
-4.152176
 30
0.0
 11
139.231644
 21
-3.952185
 31
0.0
  0
LINE
  5
542
330
1F
100
AcDbEntity
  8
1
  6
CONTINUOUS
370
50
 62
4
100
AcDbLine
 10
140.0
 20
4.950588
 30
0.0
 11
139.999985
 21
4.950666
 31
0.0
  0
LINE
  5
543
330
1F
100
AcDbEntity
  8
1
  6
CONTINUOUS
370
50
 62
4
100
AcDbLine
 10
116.732246
 20
-3.398492
 30
0.0
 11
116.711739
 21
-3.294647
 31
0.0
  0
LINE
  5
544
330
1F
100
AcDbEntity
  8
1
  6
CONTINUOUS
370
50
 62
4
100
AcDbLine
 10
139.999985
 20
4.950666
 30
0.0
 11
139.999969
 21
4.950745
 31
0.0
  0
LINE
  5
545
330
1F
100
AcDbEntity
  8
1
  6
CONTINUOUS
370
50
 62
4
100
AcDbLine
 10
113.990005
 20
4.550130999999999
 30
0.0
 11
113.982674
 21
4.584962
 31
0.0
  0
LINE
  5
546
330
1F
100
AcDbEntity
  8
1
  6
CONTINUOUS
370
50
 62
4
100
AcDbLine
 10
139.31073
 20
-4.346168
 30
0.0
 11
139.269653
 21
-4.152176
 31
0.0
  0
LINE
  5
547
330
1F
100
AcDbEntity
  8
1
  6
CONTINUOUS
370
50
 62
4
100
AcDbLine
 10
137.807709
 20
3.795767
 30
0.0
 11
137.785675
 21
3.896227
 31
0.0
  0
LINE
  5
548
330
1F
100
AcDbEntity
  8
1
  6
CONTINUOUS
370
50
 62
4
100
AcDbLine
 10
139.354614
 20
-4.533188
 30
0.0
 11
139.31073
 21
-4.346168
 31
0.0
  0
LINE
  5
549
330
1F
100
AcDbEntity
  8
1
  6
CONTINUOUS
370
50
 62
4
100
AcDbLine
 10
137.785675
 20
3.896227
 30
0.0
 11
137.759872
 21
4.000228
 31
0.0
  0
LINE
  5
54A
330
1F
100
AcDbEntity
  8
1
  6
CONTINUOUS
370
50
 62
4
100
AcDbLine
 10
140.0
 20
1.051544
 30
0.0
 11
139.637085
 21
2.492336
 31
0.0
  0
LINE
  5
54B
330
1F
100
AcDbEntity
  8
1
  6
CONTINUOUS
370
50
 62
4
100
AcDbLine
 10
139.999893
 20
4.951061
 30
0.0
 11
139.984497
 21
5.010727
 31
0.0
  0
LINE
  5
54C
330
1F
100
AcDbEntity
  8
1
  6
CONTINUOUS
370
50
 62
4
100
AcDbLine
 10
139.401215
 20
-4.71303
 30
0.0
 11
139.354614
 21
-4.533188
 31
0.0
  0
LINE
  5
54D
330
1F
100
AcDbEntity
  8
1
  6
CONTINUOUS
370
50
 62
4
100
AcDbLine
 10
137.759872
 20
4.000228
 30
0.0
 11
137.730347
 21
4.107571
 31
0.0
  0
LINE
  5
54E
330
1F
100
AcDbEntity
  8
1
  6
CONTINUOUS
370
50
 62
4
100
AcDbLine
 10
118.042976
 20
-5.449237999999999
 30
0.0
 11
118.008995
 21
-5.326593
 31
0.0
  0
LINE
  5
54F
330
1F
100
AcDbEntity
  8
1
  6
CONTINUOUS
370
50
 62
4
100
AcDbLine
 10
139.450409
 20
-4.885503
 30
0.0
 11
139.401215
 21
-4.71303
 31
0.0
  0
LINE
  5
550
330
1F
100
AcDbEntity
  8
1
  6
CONTINUOUS
370
50
 62
4
100
AcDbLine
 10
114.000443
 20
4.514277
 30
0.0
 11
113.990005
 21
4.550130999999999
 31
0.0
  0
LINE
  5
551
330
1F
100
AcDbEntity
  8
1
  6
CONTINUOUS
370
50
 62
4
100
AcDbLine
 10
137.730347
 20
4.107571
 30
0.0
 11
137.69722
 21
4.218052999999999
 31
0.0
  0
LINE
  5
552
330
1F
100
AcDbEntity
  8
1
  6
CONTINUOUS
370
50
 62
4
100
AcDbLine
 10
116.763458
 20
-3.499475
 30
0.0
 11
116.732246
 21
-3.398492
 31
0.0
  0
LINE
  5
553
330
1F
100
AcDbEntity
  8
1
  6
CONTINUOUS
370
50
 62
4
100
AcDbLine
 10
139.502106
 20
-5.050415999999999
 30
0.0
 11
139.450409
 21
-4.885503
 31
0.0
  0
LINE
  5
554
330
1F
100
AcDbEntity
  8
1
  6
CONTINUOUS
370
50
 62
4
100
AcDbLine
 10
137.69722
 20
4.218052999999999
 30
0.0
 11
137.660538
 21
4.331474
 31
0.0
  0
LINE
  5
555
330
1F
100
AcDbEntity
  8
1
  6
CONTINUOUS
370
50
 62
4
100
AcDbLine
 10
118.008995
 20
-5.326593
 30
0.0
 11
117.962624
 21
-5.191561999999999
 31
0.0
  0
LINE
  5
556
330
1F
100
AcDbEntity
  8
1
  6
CONTINUOUS
370
50
 62
4
100
AcDbLine
 10
139.556183
 20
-5.20758
 30
0.0
 11
139.502106
 21
-5.050415999999999
 31
0.0
  0
LINE
  5
557
330
1F
100
AcDbEntity
  8
1
  6
CONTINUOUS
370
50
 62
4
100
AcDbLine
 10
137.660538
 20
4.331474
 30
0.0
 11
137.620392
 21
4.447633
 31
0.0
  0
LINE
  5
558
330
1F
100
AcDbEntity
  8
1
  6
CONTINUOUS
370
50
 62
4
100
AcDbLine
 10
137.620392
 20
4.447633
 30
0.0
 11
137.576843
 21
4.566329
 31
0.0
  0
LINE
  5
559
330
1F
100
AcDbEntity
  8
1
  6
CONTINUOUS
370
50
 62
4
100
AcDbLine
 10
114.013977
 20
4.477495999999999
 30
0.0
 11
114.000443
 21
4.514277
 31
0.0
  0
LINE
  5
55A
330
1F
100
AcDbEntity
  8
1
  6
CONTINUOUS
370
50
 62
4
100
AcDbLine
 10
139.612457
 20
-5.356576
 30
0.0
 11
139.556183
 21
-5.20758
 31
0.0
  0
LINE
  5
55B
330
1F
100
AcDbEntity
  8
1
  6
CONTINUOUS
370
50
 62
4
100
AcDbLine
 10
139.984497
 20
5.010727
 30
0.0
 11
139.965607
 21
5.060129
 31
0.0
  0
LINE
  5
55C
330
1F
100
AcDbEntity
  8
1
  6
CONTINUOUS
370
50
 62
4
100
AcDbLine
 10
137.576843
 20
4.566329
 30
0.0
 11
137.529999
 21
4.687359
 31
0.0
  0
LINE
  5
55D
330
1F
100
AcDbEntity
  8
1
  6
CONTINUOUS
370
50
 62
4
100
AcDbLine
 10
139.999939
 20
4.950902999999999
 30
0.0
 11
139.999908
 21
4.950982
 31
0.0
  0
LINE
  5
55E
330
1F
100
AcDbEntity
  8
1
  6
CONTINUOUS
370
50
 62
4
100
AcDbLine
 10
117.962624
 20
-5.191561999999999
 30
0.0
 11
117.904755
 21
-5.044811
 31
0.0
  0
LINE
  5
55F
330
1F
100
AcDbEntity
  8
1
  6
CONTINUOUS
370
50
 62
4
100
AcDbLine
 10
137.343872
 20
5.142163
 30
0.0
 11
137.32164
 21
5.197299999999999
 31
0.0
  0
LINE
  5
560
330
1F
100
AcDbEntity
  8
1
  6
CONTINUOUS
370
50
 62
4
100
AcDbLine
 10
137.366226
 20
5.086987
 30
0.0
 11
137.343872
 21
5.142163
 31
0.0
  0
LINE
  5
561
330
1F
100
AcDbEntity
  8
1
  6
CONTINUOUS
370
50
 62
4
100
AcDbLine
 10
137.529999
 20
4.687359
 30
0.0
 11
137.479904
 21
4.810525
 31
0.0
  0
LINE
  5
562
330
1F
100
AcDbEntity
  8
1
  6
CONTINUOUS
370
50
 62
4
100
AcDbLine
 10
137.388702
 20
5.031771
 30
0.0
 11
137.366226
 21
5.086987
 31
0.0
  0
LINE
  5
563
330
1F
100
AcDbEntity
  8
1
  6
CONTINUOUS
370
50
 62
4
100
AcDbLine
 10
137.411316
 20
4.976515
 30
0.0
 11
137.388702
 21
5.031771
 31
0.0
  0
LINE
  5
564
330
1F
100
AcDbEntity
  8
1
  6
CONTINUOUS
370
50
 62
4
100
AcDbLine
 10
137.434052
 20
4.921222
 30
0.0
 11
137.411316
 21
4.976515
 31
0.0
  0
LINE
  5
565
330
1F
100
AcDbEntity
  8
1
  6
CONTINUOUS
370
50
 62
4
100
AcDbLine
 10
137.456909
 20
4.865892
 30
0.0
 11
137.434052
 21
4.921222
 31
0.0
  0
LINE
  5
566
330
1F
100
AcDbEntity
  8
1
  6
CONTINUOUS
370
50
 62
4
100
AcDbLine
 10
139.670715
 20
-5.497027999999999
 30
0.0
 11
139.612457
 21
-5.356576
 31
0.0
  0
LINE
  5
567
330
1F
100
AcDbEntity
  8
1
  6
CONTINUOUS
370
50
 62
4
100
AcDbLine
 10
137.479904
 20
4.810525
 30
0.0
 11
137.456909
 21
4.865892
 31
0.0
  0
LINE
  5
568
330
1F
100
AcDbEntity
  8
1
  6
CONTINUOUS
370
50
 62
4
100
AcDbLine
 10
116.805153
 20
-3.595815
 30
0.0
 11
116.763458
 21
-3.499475
 31
0.0
  0
LINE
  5
569
330
1F
100
AcDbEntity
  8
1
  6
CONTINUOUS
370
50
 62
4
100
AcDbLine
 10
117.904755
 20
-5.044811
 30
0.0
 11
117.83625
 21
-4.887009
 31
0.0
  0
LINE
  5
56A
330
1F
100
AcDbEntity
  8
1
  6
CONTINUOUS
370
50
 62
4
100
AcDbLine
 10
114.030655
 20
4.439823
 30
0.0
 11
114.013977
 21
4.477495999999999
 31
0.0
  0
LINE
  5
56B
330
1F
100
AcDbEntity
  8
1
  6
CONTINUOUS
370
50
 62
4
100
AcDbLine
 10
139.73082
 20
-5.628857
 30
0.0
 11
139.670715
 21
-5.497027999999999
 31
0.0
  0
LINE
  5
56C
330
1F
100
AcDbEntity
  8
1
  6
CONTINUOUS
370
50
 62
4
100
AcDbLine
 10
117.83625
 20
-4.887009
 30
0.0
 11
117.757874
 21
-4.718935
 31
0.0
  0
LINE
  5
56D
330
1F
100
AcDbEntity
  8
1
  6
CONTINUOUS
370
50
 62
4
100
AcDbLine
 10
117.757874
 20
-4.718935
 30
0.0
 11
117.670082
 21
-4.541479
 31
0.0
  0
LINE
  5
56E
330
1F
100
AcDbEntity
  8
1
  6
CONTINUOUS
370
50
 62
4
100
AcDbLine
 10
139.792694
 20
-5.751984999999999
 30
0.0
 11
139.73082
 21
-5.628857
 31
0.0
  0
LINE
  5
56F
330
1F
100
AcDbEntity
  8
1
  6
CONTINUOUS
370
50
 62
4
100
AcDbLine
 10
114.050476
 20
4.401295
 30
0.0
 11
114.030655
 21
4.439823
 31
0.0
  0
LINE
  5
570
330
1F
100
AcDbEntity
  8
1
  6
CONTINUOUS
370
50
 62
4
100
AcDbLine
 10
138.713181
 20
2.497041
 30
0.0
 11
137.32164
 21
5.197299999999999
 31
0.0
  0
LINE
  5
571
330
1F
100
AcDbEntity
  8
1
  6
CONTINUOUS
370
50
 62
4
100
AcDbLine
 10
117.670082
 20
-4.541479
 30
0.0
 11
117.573288
 21
-4.355536
 31
0.0
  0
LINE
  5
572
330
1F
100
AcDbEntity
  8
1
  6
CONTINUOUS
370
50
 62
4
100
AcDbLine
 10
117.573288
 20
-4.355536
 30
0.0
 11
117.467918
 21
-4.162
 31
0.0
  0
LINE
  5
573
330
1F
100
AcDbEntity
  8
1
  6
CONTINUOUS
370
50
 62
4
100
AcDbLine
 10
139.856186
 20
-5.866333
 30
0.0
 11
139.792694
 21
-5.751984999999999
 31
0.0
  0
LINE
  5
574
330
1F
100
AcDbEntity
  8
1
  6
CONTINUOUS
370
50
 62
4
100
AcDbLine
 10
139.965607
 20
5.060129
 30
0.0
 11
139.942703
 21
5.100711
 31
0.0
  0
LINE
  5
575
330
1F
100
AcDbEntity
  8
1
  6
CONTINUOUS
370
50
 62
4
100
AcDbLine
 10
116.857117
 20
-3.686967
 30
0.0
 11
116.805153
 21
-3.595815
 31
0.0
  0
LINE
  5
576
330
1F
100
AcDbEntity
  8
1
  6
CONTINUOUS
370
50
 62
4
100
AcDbLine
 10
114.066811
 20
4.372879999999999
 30
0.0
 11
114.050476
 21
4.401295
 31
0.0
  0
LINE
  5
577
330
1F
100
AcDbEntity
  8
1
  6
CONTINUOUS
370
50
 62
4
100
AcDbLine
 10
118.146645
 20
5.614634
 30
0.0
 11
118.036087
 21
5.801939
 31
0.0
  0
LINE
  5
578
330
1F
100
AcDbEntity
  8
1
  6
CONTINUOUS
370
50
 62
4
100
AcDbLine
 10
114.084816
 20
4.344049
 30
0.0
 11
114.066811
 21
4.372879999999999
 31
0.0
  0
LINE
  5
579
330
1F
100
AcDbEntity
  8
1
  6
CONTINUOUS
370
50
 62
4
100
AcDbLine
 10
118.265976
 20
5.433968
 30
0.0
 11
118.146645
 21
5.614634
 31
0.0
  0
LINE
  5
57A
330
1F
100
AcDbEntity
  8
1
  6
CONTINUOUS
370
50
 62
4
100
AcDbLine
 10
114.1045
 20
4.314818
 30
0.0
 11
114.084816
 21
4.344049
 31
0.0
  0
LINE
  5
57B
330
1F
100
AcDbEntity
  8
1
  6
CONTINUOUS
370
50
 62
4
100
AcDbLine
 10
118.03627
 20
5.801597999999999
 30
0.0
 11
118.008629
 21
5.840017
 31
0.0
  0
LINE
  5
57C
330
1F
100
AcDbEntity
  8
1
  6
CONTINUOUS
370
50
 62
4
100
AcDbLine
 10
114.125877
 20
4.285201
 30
0.0
 11
114.1045
 21
4.314818
 31
0.0
  0
LINE
  5
57D
330
1F
100
AcDbEntity
  8
1
  6
CONTINUOUS
370
50
 62
4
100
AcDbLine
 10
116.919228
 20
-3.772866
 30
0.0
 11
116.857117
 21
-3.686967
 31
0.0
  0
LINE
  5
57E
330
1F
100
AcDbEntity
  8
1
  6
CONTINUOUS
370
50
 62
4
100
AcDbLine
 10
118.463844
 20
5.172676
 30
0.0
 11
118.265976
 21
5.433968
 31
0.0
  0
LINE
  5
57F
330
1F
100
AcDbEntity
  8
1
  6
CONTINUOUS
370
50
 62
4
100
AcDbLine
 10
114.148949
 20
4.255211
 30
0.0
 11
114.125877
 21
4.285201
 31
0.0
  0
LINE
  5
580
330
1F
100
AcDbEntity
  8
1
  6
CONTINUOUS
370
50
 62
4
100
AcDbLine
 10
114.173714
 20
4.224864
 30
0.0
 11
114.148949
 21
4.255211
 31
0.0
  0
LINE
  5
581
330
1F
100
AcDbEntity
  8
1
  6
CONTINUOUS
370
50
 62
4
100
AcDbLine
 10
139.942703
 20
5.100711
 30
0.0
 11
139.915192
 21
5.133945
 31
0.0
  0
LINE
  5
582
330
1F
100
AcDbEntity
  8
1
  6
CONTINUOUS
370
50
 62
4
100
AcDbLine
 10
118.679359
 20
4.930401
 30
0.0
 11
118.463844
 21
5.172676
 31
0.0
  0
LINE
  5
583
330
1F
100
AcDbEntity
  8
1
  6
CONTINUOUS
370
50
 62
4
100
AcDbLine
 10
116.991394
 20
-3.853452
 30
0.0
 11
116.919228
 21
-3.772866
 31
0.0
  0
LINE
  5
584
330
1F
100
AcDbEntity
  8
1
  6
CONTINUOUS
370
50
 62
4
100
AcDbLine
 10
114.364708
 20
4.028143
 30
0.0
 11
114.173714
 21
4.224864
 31
0.0
  0
LINE
  5
585
330
1F
100
AcDbEntity
  8
1
  6
CONTINUOUS
370
50
 62
4
100
AcDbLine
 10
114.564209
 20
3.827483
 30
0.0
 11
114.364708
 21
4.028143
 31
0.0
  0
LINE
  5
586
330
1F
100
AcDbEntity
  8
1
  6
CONTINUOUS
370
50
 62
4
100
AcDbLine
 10
118.837906
 20
4.774774
 30
0.0
 11
118.679359
 21
4.930401
 31
0.0
  0
LINE
  5
587
330
1F
100
AcDbEntity
  8
1
  6
CONTINUOUS
370
50
 62
4
100
AcDbLine
 10
114.772896
 20
3.624527
 30
0.0
 11
114.564209
 21
3.827483
 31
0.0
  0
LINE
  5
588
330
1F
100
AcDbEntity
  8
1
  6
CONTINUOUS
370
50
 62
4
100
AcDbLine
 10
114.991226
 20
3.420989
 30
0.0
 11
114.772896
 21
3.624527
 31
0.0
  0
LINE
  5
589
330
1F
100
AcDbEntity
  8
1
  6
CONTINUOUS
370
50
 62
4
100
AcDbLine
 10
117.072647
 20
-3.927978
 30
0.0
 11
116.991394
 21
-3.853452
 31
0.0
  0
LINE
  5
58A
330
1F
100
AcDbEntity
  8
1
  6
CONTINUOUS
370
50
 62
4
100
AcDbLine
 10
115.219078
 20
3.218897
 30
0.0
 11
114.991226
 21
3.420989
 31
0.0
  0
LINE
  5
58B
330
1F
100
AcDbEntity
  8
1
  6
CONTINUOUS
370
50
 62
4
100
AcDbLine
 10
119.003311
 20
4.629672
 30
0.0
 11
118.837906
 21
4.774774
 31
0.0
  0
LINE
  5
58C
330
1F
100
AcDbEntity
  8
1
  6
CONTINUOUS
370
50
 62
4
100
AcDbLine
 10
118.008629
 20
5.840017
 30
0.0
 11
117.972305
 21
5.871267
 31
0.0
  0
LINE
  5
58D
330
1F
100
AcDbEntity
  8
1
  6
CONTINUOUS
370
50
 62
4
100
AcDbLine
 10
115.456848
 20
3.01953
 30
0.0
 11
115.219078
 21
3.218897
 31
0.0
  0
LINE
  5
58E
330
1F
100
AcDbEntity
  8
1
  6
CONTINUOUS
370
50
 62
4
100
AcDbLine
 10
139.915192
 20
5.133945
 30
0.0
 11
139.882584
 21
5.161072
 31
0.0
  0
LINE
  5
58F
330
1F
100
AcDbEntity
  8
1
  6
CONTINUOUS
370
50
 62
4
100
AcDbLine
 10
115.704575
 20
2.824269
 30
0.0
 11
115.456848
 21
3.01953
 31
0.0
  0
LINE
  5
590
330
1F
100
AcDbEntity
  8
1
  6
CONTINUOUS
370
50
 62
4
100
AcDbLine
 10
119.159286
 20
4.507095
 30
0.0
 11
119.003311
 21
4.629672
 31
0.0
  0
LINE
  5
591
330
1F
100
AcDbEntity
  8
1
  6
CONTINUOUS
370
50
 62
4
100
AcDbLine
 10
117.161545
 20
-3.995798
 30
0.0
 11
117.072647
 21
-3.927978
 31
0.0
  0
LINE
  5
592
330
1F
100
AcDbEntity
  8
1
  6
CONTINUOUS
370
50
 62
4
100
AcDbLine
 10
115.961479
 20
2.634797
 30
0.0
 11
115.704575
 21
2.824269
 31
0.0
  0
LINE
  5
593
330
1F
100
AcDbEntity
  8
1
  6
CONTINUOUS
370
50
 62
4
100
AcDbLine
 10
116.227669
 20
2.451896
 30
0.0
 11
115.961479
 21
2.634797
 31
0.0
  0
LINE
  5
594
330
1F
100
AcDbEntity
  8
1
  6
CONTINUOUS
370
50
 62
4
100
AcDbLine
 10
119.420181
 20
4.329346999999999
 30
0.0
 11
119.159286
 21
4.507095
 31
0.0
  0
LINE
  5
595
330
1F
100
AcDbEntity
  8
1
  6
CONTINUOUS
370
50
 62
4
100
AcDbLine
 10
117.257469
 20
-4.05721
 30
0.0
 11
117.161545
 21
-3.995798
 31
0.0
  0
LINE
  5
596
330
1F
100
AcDbEntity
  8
1
  6
CONTINUOUS
370
50
 62
4
100
AcDbLine
 10
116.501846
 20
2.277038
 30
0.0
 11
116.227669
 21
2.451896
 31
0.0
  0
LINE
  5
597
330
1F
100
AcDbEntity
  8
1
  6
CONTINUOUS
370
50
 62
4
100
AcDbLine
 10
123.727089
 20
-0.033845
 30
0.0
 11
123.727013
 21
-0.033797
 31
0.0
  0
LINE
  5
598
330
1F
100
AcDbEntity
  8
1
  6
CONTINUOUS
370
50
 62
4
100
AcDbLine
 10
116.783775
 20
2.110707
 30
0.0
 11
116.501846
 21
2.277038
 31
0.0
  0
LINE
  5
599
330
1F
100
AcDbEntity
  8
1
  6
CONTINUOUS
370
50
 62
4
100
AcDbLine
 10
125.720772
 20
0.0
 30
0.0
 11
125.198563
 21
0.306729
 31
0.0
  0
LINE
  5
59A
330
1F
100
AcDbEntity
  8
1
  6
CONTINUOUS
370
50
 62
4
100
AcDbLine
 10
126.448891
 20
-0.4269
 30
0.0
 11
125.720772
 21
0.0
 31
0.0
  0
LINE
  5
59B
330
1F
100
AcDbEntity
  8
1
  6
CONTINUOUS
370
50
 62
4
100
AcDbLine
 10
123.726929
 20
-0.03375
 30
0.0
 11
123.726852
 21
-0.033705
 31
0.0
  0
LINE
  5
59C
330
1F
100
AcDbEntity
  8
1
  6
CONTINUOUS
370
50
 62
4
100
AcDbLine
 10
139.882584
 20
5.161072
 30
0.0
 11
139.84343
 21
5.183752999999999
 31
0.0
  0
LINE
  5
59D
330
1F
100
AcDbEntity
  8
1
  6
CONTINUOUS
370
50
 62
4
100
AcDbLine
 10
125.198563
 20
0.306729
 30
0.0
 11
124.667336
 21
0.614379
 31
0.0
  0
LINE
  5
59E
330
1F
100
AcDbEntity
  8
1
  6
CONTINUOUS
370
50
 62
4
100
AcDbLine
 10
125.539665
 20
-1.076198
 30
0.0
 11
125.088127
 21
-0.815336
 31
0.0
  0
LINE
  5
59F
330
1F
100
AcDbEntity
  8
1
  6
CONTINUOUS
370
50
 62
4
100
AcDbLine
 10
79.929901
 20
5.92495
 30
0.0
 11
79.80000299999999
 21
5.99995
 31
0.0
  0
LINE
  5
5A0
330
1F
100
AcDbEntity
  8
1
  6
CONTINUOUS
370
50
 62
4
100
AcDbLine
 10
125.088127
 20
-0.815336
 30
0.0
 11
124.635094
 21
-0.554377
 31
0.0
  0
LINE
  5
5A1
330
1F
100
AcDbEntity
  8
1
  6
CONTINUOUS
370
50
 62
4
100
AcDbLine
 10
125.989166
 20
-1.335011
 30
0.0
 11
125.539665
 21
-1.076198
 31
0.0
  0
LINE
  5
5A2
330
1F
100
AcDbEntity
  8
1
  6
CONTINUOUS
370
50
 62
4
100
AcDbLine
 10
127.189507
 20
-0.852248
 30
0.0
 11
126.448891
 21
-0.4269
 31
0.0
  0
LINE
  5
5A3
330
1F
100
AcDbEntity
  8
1
  6
CONTINUOUS
370
50
 62
4
100
AcDbLine
 10
124.635094
 20
-0.554377
 30
0.0
 11
124.181335
 21
-0.29384
 31
0.0
  0
LINE
  5
5A4
330
1F
100
AcDbEntity
  8
1
  6
CONTINUOUS
370
50
 62
4
100
AcDbLine
 10
124.181335
 20
-0.29384
 30
0.0
 11
123.727089
 21
-0.033846
 31
0.0
  0
LINE
  5
5A5
330
1F
100
AcDbEntity
  8
1
  6
CONTINUOUS
370
50
 62
4
100
AcDbLine
 10
123.727089
 20
-0.033846
 30
0.0
 11
123.717224
 21
-0.028205
 31
0.0
  0
LINE
  5
5A6
330
1F
100
AcDbEntity
  8
1
  6
CONTINUOUS
370
50
 62
4
100
AcDbLine
 10
123.717224
 20
-0.028205
 30
0.0
 11
123.707352
 21
-0.022564
 31
0.0
  0
LINE
  5
5A7
330
1F
100
AcDbEntity
  8
1
  6
CONTINUOUS
370
50
 62
4
100
AcDbLine
 10
123.697479
 20
-0.016923
 30
0.0
 11
123.687607
 21
-0.011282
 31
0.0
  0
LINE
  5
5A8
330
1F
100
AcDbEntity
  8
1
  6
CONTINUOUS
370
50
 62
4
100
AcDbLine
 10
123.677734
 20
-0.005641
 30
0.0
 11
123.667862
 21
0.0
 31
0.0
  0
LINE
  5
5A9
330
1F
100
AcDbEntity
  8
1
  6
CONTINUOUS
370
50
 62
4
100
AcDbLine
 10
123.707352
 20
-0.022564
 30
0.0
 11
123.697479
 21
-0.016923
 31
0.0
  0
LINE
  5
5AA
330
1F
100
AcDbEntity
  8
1
  6
CONTINUOUS
370
50
 62
4
100
AcDbLine
 10
123.687607
 20
-0.011282
 30
0.0
 11
123.677734
 21
-0.005641
 31
0.0
  0
LINE
  5
5AB
330
1F
100
AcDbEntity
  8
1
  6
CONTINUOUS
370
50
 62
4
100
AcDbLine
 10
124.667336
 20
0.614379
 30
0.0
 11
124.13446
 21
0.918605
 31
0.0
  0
LINE
  5
5AC
330
1F
100
AcDbEntity
  8
1
  6
CONTINUOUS
370
50
 62
4
100
AcDbLine
 10
123.667862
 20
-0.000001
 30
0.0
 11
123.429588
 21
0.136031
 31
0.0
  0
LINE
  5
5AD
330
1F
100
AcDbEntity
  8
1
  6
CONTINUOUS
370
50
 62
4
100
AcDbLine
 10
123.429588
 20
0.136031
 30
0.0
 11
123.191124
 21
0.271985
 31
0.0
  0
LINE
  5
5AE
330
1F
100
AcDbEntity
  8
1
  6
CONTINUOUS
370
50
 62
4
100
AcDbLine
 10
123.191124
 20
0.271985
 30
0.0
 11
122.952583
 21
0.407807
 31
0.0
  0
LINE
  5
5AF
330
1F
100
AcDbEntity
  8
1
  6
CONTINUOUS
370
50
 62
4
100
AcDbLine
 10
122.952583
 20
0.407807
 30
0.0
 11
122.714096
 21
0.543447
 31
0.0
  0
LINE
  5
5B0
330
1F
100
AcDbEntity
  8
1
  6
CONTINUOUS
370
50
 62
4
100
AcDbLine
 10
126.442017
 20
-1.592301
 30
0.0
 11
125.989166
 21
-1.335011
 31
0.0
  0
LINE
  5
5B1
330
1F
100
AcDbEntity
  8
1
  6
CONTINUOUS
370
50
 62
4
100
AcDbLine
 10
122.714096
 20
0.543447
 30
0.0
 11
122.475754
 21
0.678852
 31
0.0
  0
LINE
  5
5B2
330
1F
100
AcDbEntity
  8
1
  6
CONTINUOUS
370
50
 62
4
100
AcDbLine
 10
122.475754
 20
0.678852
 30
0.0
 11
122.237686
 21
0.81397
 31
0.0
  0
LINE
  5
5B3
330
1F
100
AcDbEntity
  8
1
  6
CONTINUOUS
370
50
 62
4
100
AcDbLine
 10
122.237686
 20
0.81397
 30
0.0
 11
122.0
 21
0.9487479999999999
 31
0.0
  0
LINE
  5
5B4
330
1F
100
AcDbEntity
  8
1
  6
CONTINUOUS
370
50
 62
4
100
AcDbLine
 10
119.690674
 20
4.176978
 30
0.0
 11
119.420181
 21
4.329346999999999
 31
0.0
  0
LINE
  5
5B5
330
1F
100
AcDbEntity
  8
1
  6
CONTINUOUS
370
50
 62
4
100
AcDbLine
 10
127.935677
 20
-1.272353
 30
0.0
 11
127.189507
 21
-0.852248
 31
0.0
  0
LINE
  5
5B6
330
1F
100
AcDbEntity
  8
1
  6
CONTINUOUS
370
50
 62
4
100
AcDbLine
 10
124.13446
 20
0.918605
 30
0.0
 11
123.601173
 21
1.218829
 31
0.0
  0
LINE
  5
5B7
330
1F
100
AcDbEntity
  8
1
  6
CONTINUOUS
370
50
 62
4
100
AcDbLine
 10
123.727013
 20
-0.033797
 30
0.0
 11
123.726929
 21
-0.03375
 31
0.0
  0
LINE
  5
5B8
330
1F
100
AcDbEntity
  8
1
  6
CONTINUOUS
370
50
 62
4
100
AcDbLine
 10
126.904427
 20
-1.849255
 30
0.0
 11
126.442017
 21
-1.592301
 31
0.0
  0
LINE
  5
5B9
330
1F
100
AcDbEntity
  8
1
  6
CONTINUOUS
370
50
 62
4
100
AcDbLine
 10
123.601173
 20
1.218829
 30
0.0
 11
123.06749
 21
1.515184
 31
0.0
  0
LINE
  5
5BA
330
1F
100
AcDbEntity
  8
1
  6
CONTINUOUS
370
50
 62
4
100
AcDbLine
 10
128.684006
 20
-1.685726
 30
0.0
 11
127.935677
 21
-1.272353
 31
0.0
  0
LINE
  5
5BB
330
1F
100
AcDbEntity
  8
1
  6
CONTINUOUS
370
50
 62
4
100
AcDbLine
 10
123.06749
 20
1.515184
 30
0.0
 11
122.53331
 21
1.807924
 31
0.0
  0
LINE
  5
5BC
330
1F
100
AcDbEntity
  8
1
  6
CONTINUOUS
370
50
 62
4
100
AcDbLine
 10
117.073357
 20
1.953281
 30
0.0
 11
116.783775
 21
2.110707
 31
0.0
  0
LINE
  5
5BD
330
1F
100
AcDbEntity
  8
1
  6
CONTINUOUS
370
50
 62
4
100
AcDbLine
 10
127.372581
 20
-2.103382
 30
0.0
 11
126.904427
 21
-1.849255
 31
0.0
  0
LINE
  5
5BE
330
1F
100
AcDbEntity
  8
1
  6
CONTINUOUS
370
50
 62
4
100
AcDbLine
 10
129.431061
 20
-2.090876
 30
0.0
 11
128.684006
 21
-1.685726
 31
0.0
  0
LINE
  5
5BF
330
1F
100
AcDbEntity
  8
1
  6
CONTINUOUS
370
50
 62
4
100
AcDbLine
 10
122.53331
 20
1.807924
 30
0.0
 11
122.0
 21
2.096468
 31
0.0
  0
LINE
  5
5C0
330
1F
100
AcDbEntity
  8
1
  6
CONTINUOUS
370
50
 62
4
100
AcDbLine
 10
117.359795
 20
-4.112511
 30
0.0
 11
117.257469
 21
-4.05721
 31
0.0
  0
LINE
  5
5C1
330
1F
100
AcDbEntity
  8
1
  6
CONTINUOUS
370
50
 62
4
100
AcDbLine
 10
130.173431
 20
-2.486315
 30
0.0
 11
129.431061
 21
-2.090876
 31
0.0
  0
LINE
  5
5C2
330
1F
100
AcDbEntity
  8
1
  6
CONTINUOUS
370
50
 62
4
100
AcDbLine
 10
117.972305
 20
5.871267
 30
0.0
 11
117.927269
 21
5.895242
 31
0.0
  0
LINE
  5
5C3
330
1F
100
AcDbEntity
  8
1
  6
CONTINUOUS
370
50
 62
4
100
AcDbLine
 10
127.842697
 20
-2.353036
 30
0.0
 11
127.372581
 21
-2.103382
 31
0.0
  0
LINE
  5
5C4
330
1F
100
AcDbEntity
  8
1
  6
CONTINUOUS
370
50
 62
4
100
AcDbLine
 10
123.726852
 20
-0.033705
 30
0.0
 11
123.726768
 21
-0.033661
 31
0.0
  0
LINE
  5
5C5
330
1F
100
AcDbEntity
  8
1
  6
CONTINUOUS
370
50
 62
4
100
AcDbLine
 10
130.905945
 20
-2.869507
 30
0.0
 11
130.173431
 21
-2.486315
 31
0.0
  0
LINE
  5
5C6
330
1F
100
AcDbEntity
  8
1
  6
CONTINUOUS
370
50
 62
4
100
AcDbLine
 10
128.313904
 20
-2.597856
 30
0.0
 11
127.842697
 21
-2.353036
 31
0.0
  0
LINE
  5
5C7
330
1F
100
AcDbEntity
  8
1
  6
CONTINUOUS
370
50
 62
4
100
AcDbLine
 10
128.785324
 20
-2.837484
 30
0.0
 11
128.313904
 21
-2.597856
 31
0.0
  0
LINE
  5
5C8
330
1F
100
AcDbEntity
  8
1
  6
CONTINUOUS
370
50
 62
4
100
AcDbLine
 10
131.634323
 20
-3.237644
 30
0.0
 11
130.905945
 21
-2.869507
 31
0.0
  0
LINE
  5
5C9
330
1F
100
AcDbEntity
  8
1
  6
CONTINUOUS
370
50
 62
4
100
AcDbLine
 10
117.369537
 20
1.805568
 30
0.0
 11
117.073357
 21
1.953281
 31
0.0
  0
LINE
  5
5CA
330
1F
100
AcDbEntity
  8
1
  6
CONTINUOUS
370
50
 62
4
100
AcDbLine
 10
129.256088
 20
-3.071559
 30
0.0
 11
128.785324
 21
-2.837484
 31
0.0
  0
LINE
  5
5CB
330
1F
100
AcDbEntity
  8
1
  6
CONTINUOUS
370
50
 62
4
100
AcDbLine
 10
129.725342
 20
-3.299721
 30
0.0
 11
129.256088
 21
-3.071559
 31
0.0
  0
LINE
  5
5CC
330
1F
100
AcDbEntity
  8
1
  6
CONTINUOUS
370
50
 62
4
100
AcDbLine
 10
132.379517
 20
-3.592006
 30
0.0
 11
131.634323
 21
-3.237644
 31
0.0
  0
LINE
  5
5CD
330
1F
100
AcDbEntity
  8
1
  6
CONTINUOUS
370
50
 62
4
100
AcDbLine
 10
130.192261
 20
-3.521634
 30
0.0
 11
129.725342
 21
-3.299721
 31
0.0
  0
LINE
  5
5CE
330
1F
100
AcDbEntity
  8
1
  6
CONTINUOUS
370
50
 62
4
100
AcDbLine
 10
123.726753
 20
-0.033796
 30
0.0
 11
123.438965
 21
0.101847
 31
0.0
  0
LINE
  5
5CF
330
1F
100
AcDbEntity
  8
1
  6
CONTINUOUS
370
50
 62
4
100
AcDbLine
 10
123.438965
 20
0.101847
 30
0.0
 11
123.151169
 21
0.237281
 31
0.0
  0
LINE
  5
5D0
330
1F
100
AcDbEntity
  8
1
  6
CONTINUOUS
370
50
 62
4
100
AcDbLine
 10
123.151169
 20
0.237281
 30
0.0
 11
122.86338
 21
0.372519
 31
0.0
  0
LINE
  5
5D1
330
1F
100
AcDbEntity
  8
1
  6
CONTINUOUS
370
50
 62
4
100
AcDbLine
 10
122.86338
 20
0.372519
 30
0.0
 11
122.575584
 21
0.507571
 31
0.0
  0
LINE
  5
5D2
330
1F
100
AcDbEntity
  8
1
  6
CONTINUOUS
370
50
 62
4
100
AcDbLine
 10
122.575584
 20
0.507571
 30
0.0
 11
122.287796
 21
0.642446
 31
0.0
  0
LINE
  5
5D3
330
1F
100
AcDbEntity
  8
1
  6
CONTINUOUS
370
50
 62
4
100
AcDbLine
 10
122.287796
 20
0.642446
 30
0.0
 11
122.0
 21
0.7769419999999999
 31
0.0
  0
LINE
  5
5D4
330
1F
100
AcDbEntity
  8
1
  6
CONTINUOUS
370
50
 62
4
100
AcDbLine
 10
130.657578
 20
-3.737609
 30
0.0
 11
130.192261
 21
-3.521634
 31
0.0
  0
LINE
  5
5D5
330
1F
100
AcDbEntity
  8
1
  6
CONTINUOUS
370
50
 62
4
100
AcDbLine
 10
117.467918
 20
-4.162
 30
0.0
 11
117.359795
 21
-4.112511
 31
0.0
  0
LINE
  5
5D6
330
1F
100
AcDbEntity
  8
1
  6
CONTINUOUS
370
50
 62
4
100
AcDbLine
 10
117.671562
 20
1.667937
 30
0.0
 11
117.369537
 21
1.805568
 31
0.0
  0
LINE
  5
5D7
330
1F
100
AcDbEntity
  8
1
  6
CONTINUOUS
370
50
 62
4
100
AcDbLine
 10
119.971153
 20
4.049582
 30
0.0
 11
119.690674
 21
4.176978
 31
0.0
  0
LINE
  5
5D8
330
1F
100
AcDbEntity
  8
1
  6
CONTINUOUS
370
50
 62
4
100
AcDbLine
 10
131.121872
 20
-3.946985
 30
0.0
 11
130.657578
 21
-3.737609
 31
0.0
  0
LINE
  5
5D9
330
1F
100
AcDbEntity
  8
1
  6
CONTINUOUS
370
50
 62
4
100
AcDbLine
 10
133.126816
 20
-3.925481
 30
0.0
 11
132.379517
 21
-3.592006
 31
0.0
  0
LINE
  5
5DA
330
1F
100
AcDbEntity
  8
1
  6
CONTINUOUS
370
50
 62
4
100
AcDbLine
 10
131.588821
 20
-4.148997
 30
0.0
 11
131.121872
 21
-3.946985
 31
0.0
  0
LINE
  5
5DB
330
1F
100
AcDbEntity
  8
1
  6
CONTINUOUS
370
50
 62
4
100
AcDbLine
 10
133.876419
 20
-4.238729
 30
0.0
 11
133.126816
 21
-3.925481
 31
0.0
  0
LINE
  5
5DC
330
1F
100
AcDbEntity
  8
1
  6
CONTINUOUS
370
50
 62
4
100
AcDbLine
 10
117.978996
 20
1.540527
 30
0.0
 11
117.671562
 21
1.667937
 31
0.0
  0
LINE
  5
5DD
330
1F
100
AcDbEntity
  8
1
  6
CONTINUOUS
370
50
 62
4
100
AcDbLine
 10
132.063965
 20
-4.344196
 30
0.0
 11
131.588821
 21
-4.148997
 31
0.0
  0
LINE
  5
5DE
330
1F
100
AcDbEntity
  8
1
  6
CONTINUOUS
370
50
 62
4
100
AcDbLine
 10
139.84343
 20
5.183752999999999
 30
0.0
 11
139.795517
 21
5.203163
 31
0.0
  0
LINE
  5
5DF
330
1F
100
AcDbEntity
  8
1
  6
CONTINUOUS
370
50
 62
4
100
AcDbLine
 10
134.627396
 20
-4.531531999999999
 30
0.0
 11
133.876419
 21
-4.238729
 31
0.0
  0
LINE
  5
5E0
330
1F
100
AcDbEntity
  8
1
  6
CONTINUOUS
370
50
 62
4
100
AcDbLine
 10
132.548462
 20
-4.531929
 30
0.0
 11
132.063965
 21
-4.344196
 31
0.0
  0
LINE
  5
5E1
330
1F
100
AcDbEntity
  8
1
  6
CONTINUOUS
370
50
 62
4
100
AcDbLine
 10
118.291428
 20
1.423478
 30
0.0
 11
117.978996
 21
1.540527
 31
0.0
  0
LINE
  5
5E2
330
1F
100
AcDbEntity
  8
1
  6
CONTINUOUS
370
50
 62
4
100
AcDbLine
 10
133.035858
 20
-4.709949
 30
0.0
 11
132.548462
 21
-4.531929
 31
0.0
  0
LINE
  5
5E3
330
1F
100
AcDbEntity
  8
1
  6
CONTINUOUS
370
50
 62
4
100
AcDbLine
 10
135.376297
 20
-4.802441
 30
0.0
 11
134.627396
 21
-4.531531999999999
 31
0.0
  0
LINE
  5
5E4
330
1F
100
AcDbEntity
  8
1
  6
CONTINUOUS
370
50
 62
4
100
AcDbLine
 10
120.256897
 20
3.949076
 30
0.0
 11
119.971153
 21
4.049582
 31
0.0
  0
LINE
  5
5E5
330
1F
100
AcDbEntity
  8
1
  6
CONTINUOUS
370
50
 62
4
100
AcDbLine
 10
133.525055
 20
-4.877892
 30
0.0
 11
133.035858
 21
-4.709949
 31
0.0
  0
LINE
  5
5E6
330
1F
100
AcDbEntity
  8
1
  6
CONTINUOUS
370
50
 62
4
100
AcDbLine
 10
118.608437
 20
1.316928
 30
0.0
 11
118.291428
 21
1.423478
 31
0.0
  0
LINE
  5
5E7
330
1F
100
AcDbEntity
  8
1
  6
CONTINUOUS
370
50
 62
4
100
AcDbLine
 10
136.116333
 20
-5.04903
 30
0.0
 11
135.376297
 21
-4.802441
 31
0.0
  0
LINE
  5
5E8
330
1F
100
AcDbEntity
  8
1
  6
CONTINUOUS
370
50
 62
4
100
AcDbLine
 10
134.015182
 20
-5.035449
 30
0.0
 11
133.525055
 21
-4.877892
 31
0.0
  0
LINE
  5
5E9
330
1F
100
AcDbEntity
  8
1
  6
CONTINUOUS
370
50
 62
4
100
AcDbLine
 10
117.927269
 20
5.895242
 30
0.0
 11
117.873871
 21
5.911995
 31
0.0
  0
LINE
  5
5EA
330
1F
100
AcDbEntity
  8
1
  6
CONTINUOUS
370
50
 62
4
100
AcDbLine
 10
123.726746
 20
-0.033647
 30
0.0
 11
123.72673
 21
-0.033642
 31
0.0
  0
LINE
  5
5EB
330
1F
100
AcDbEntity
  8
1
  6
CONTINUOUS
370
50
 62
4
100
AcDbLine
 10
134.505325
 20
-5.18231
 30
0.0
 11
134.015182
 21
-5.035449
 31
0.0
  0
LINE
  5
5EC
330
1F
100
AcDbEntity
  8
1
  6
CONTINUOUS
370
50
 62
4
100
AcDbLine
 10
136.8517
 20
-5.268866
 30
0.0
 11
136.116333
 21
-5.04903
 31
0.0
  0
LINE
  5
5ED
330
1F
100
AcDbEntity
  8
1
  6
CONTINUOUS
370
50
 62
4
100
AcDbLine
 10
118.929588
 20
1.221017
 30
0.0
 11
118.608437
 21
1.316928
 31
0.0
  0
LINE
  5
5EE
330
1F
100
AcDbEntity
  8
1
  6
CONTINUOUS
370
50
 62
4
100
AcDbLine
 10
139.795517
 20
5.203163
 30
0.0
 11
139.737366
 21
5.219692999999999
 31
0.0
  0
LINE
  5
5EF
330
1F
100
AcDbEntity
  8
1
  6
CONTINUOUS
370
50
 62
4
100
AcDbLine
 10
134.994568
 20
-5.318163999999999
 30
0.0
 11
134.505325
 21
-5.18231
 31
0.0
  0
LINE
  5
5F0
330
1F
100
AcDbEntity
  8
1
  6
CONTINUOUS
370
50
 62
4
100
AcDbLine
 10
139.307083
 20
1.147406
 30
0.0
 11
138.015457
 21
1.4949
 31
0.0
  0
LINE
  5
5F1
330
1F
100
AcDbEntity
  8
1
  6
CONTINUOUS
370
50
 62
4
100
AcDbLine
 10
120.491356
 20
3.887332
 30
0.0
 11
120.256897
 21
3.949076
 31
0.0
  0
LINE
  5
5F2
330
1F
100
AcDbEntity
  8
1
  6
CONTINUOUS
370
50
 62
4
100
AcDbLine
 10
119.254463
 20
1.135884
 30
0.0
 11
118.929588
 21
1.221017
 31
0.0
  0
LINE
  5
5F3
330
1F
100
AcDbEntity
  8
1
  6
CONTINUOUS
370
50
 62
4
100
AcDbLine
 10
138.015457
 20
1.4949
 30
0.0
 11
136.748505
 21
1.822713
 31
0.0
  0
LINE
  5
5F4
330
1F
100
AcDbEntity
  8
1
  6
CONTINUOUS
370
50
 62
4
100
AcDbLine
 10
137.59964
 20
-5.461853
 30
0.0
 11
136.8517
 21
-5.268866
 31
0.0
  0
LINE
  5
5F5
330
1F
100
AcDbEntity
  8
1
  6
CONTINUOUS
370
50
 62
4
100
AcDbLine
 10
135.48201
 20
-5.442701
 30
0.0
 11
134.994568
 21
-5.318163999999999
 31
0.0
  0
LINE
  5
5F6
330
1F
100
AcDbEntity
  8
1
  6
CONTINUOUS
370
50
 62
4
100
AcDbLine
 10
122.994026
 20
-1.814505
 30
0.0
 11
122.0
 21
-1.562636
 31
0.0
  0
LINE
  5
5F7
330
1F
100
AcDbEntity
  8
1
  6
CONTINUOUS
370
50
 62
4
100
AcDbLine
 10
136.748505
 20
1.822713
 30
0.0
 11
135.604156
 21
2.105835
 31
0.0
  0
LINE
  5
5F8
330
1F
100
AcDbEntity
  8
1
  6
CONTINUOUS
370
50
 62
4
100
AcDbLine
 10
123.988022
 20
-2.049967
 30
0.0
 11
122.994026
 21
-1.814505
 31
0.0
  0
LINE
  5
5F9
330
1F
100
AcDbEntity
  8
1
  6
CONTINUOUS
370
50
 62
4
100
AcDbLine
 10
135.966736
 20
-5.555612
 30
0.0
 11
135.48201
 21
-5.442701
 31
0.0
  0
LINE
  5
5FA
330
1F
100
AcDbEntity
  8
1
  6
CONTINUOUS
370
50
 62
4
100
AcDbLine
 10
124.982002
 20
-2.269131
 30
0.0
 11
123.988022
 21
-2.049967
 31
0.0
  0
LINE
  5
5FB
330
1F
100
AcDbEntity
  8
1
  6
CONTINUOUS
370
50
 62
4
100
AcDbLine
 10
138.350815
 20
-5.625704
 30
0.0
 11
137.59964
 21
-5.461853
 31
0.0
  0
LINE
  5
5FC
330
1F
100
AcDbEntity
  8
1
  6
CONTINUOUS
370
50
 62
4
100
AcDbLine
 10
135.604156
 20
2.105835
 30
0.0
 11
134.404556
 21
2.362732
 31
0.0
  0
LINE
  5
5FD
330
1F
100
AcDbEntity
  8
1
  6
CONTINUOUS
370
50
 62
4
100
AcDbLine
 10
122.0
 20
-3.911511
 30
0.0
 11
121.71608
 21
-3.850722
 31
0.0
  0
LINE
  5
5FE
330
1F
100
AcDbEntity
  8
1
  6
CONTINUOUS
370
50
 62
4
100
AcDbLine
 10
136.450668
 20
-5.656632
 30
0.0
 11
135.966736
 21
-5.555612
 31
0.0
  0
LINE
  5
5FF
330
1F
100
AcDbEntity
  8
1
  6
CONTINUOUS
370
50
 62
4
100
AcDbLine
 10
125.976006
 20
-2.471554
 30
0.0
 11
124.982002
 21
-2.269131
 31
0.0
  0
LINE
  5
600
330
1F
100
AcDbEntity
  8
1
  6
CONTINUOUS
370
50
 62
4
100
AcDbLine
 10
139.737366
 20
5.219692999999999
 30
0.0
 11
139.666687
 21
5.233868999999999
 31
0.0
  0
LINE
  5
601
330
1F
100
AcDbEntity
  8
1
  6
CONTINUOUS
370
50
 62
4
100
AcDbLine
 10
120.726852
 20
3.843352
 30
0.0
 11
120.491356
 21
3.887332
 31
0.0
  0
LINE
  5
602
330
1F
100
AcDbEntity
  8
1
  6
CONTINUOUS
370
50
 62
4
100
AcDbLine
 10
134.404556
 20
2.362732
 30
0.0
 11
133.208725
 21
2.58334
 31
0.0
  0
LINE
  5
603
330
1F
100
AcDbEntity
  8
1
  6
CONTINUOUS
370
50
 62
4
100
AcDbLine
 10
136.940399
 20
-5.745521
 30
0.0
 11
136.450668
 21
-5.656632
 31
0.0
  0
LINE
  5
604
330
1F
100
AcDbEntity
  8
1
  6
CONTINUOUS
370
50
 62
4
100
AcDbLine
 10
139.104431
 20
-5.760744
 30
0.0
 11
138.350815
 21
-5.625704
 31
0.0
  0
LINE
  5
605
330
1F
100
AcDbEntity
  8
1
  6
CONTINUOUS
370
50
 62
4
100
AcDbLine
 10
126.970055
 20
-2.649035
 30
0.0
 11
125.976006
 21
-2.471554
 31
0.0
  0
LINE
  5
606
330
1F
100
AcDbEntity
  8
1
  6
CONTINUOUS
370
50
 62
4
100
AcDbLine
 10
119.447906
 20
1.103247
 30
0.0
 11
119.254463
 21
1.135884
 31
0.0
  0
LINE
  5
607
330
1F
100
AcDbEntity
  8
1
  6
CONTINUOUS
370
50
 62
4
100
AcDbLine
 10
122.135376
 20
3.869238
 30
0.0
 11
122.0
 21
3.891302
 31
0.0
  0
LINE
  5
608
330
1F
100
AcDbEntity
  8
1
  6
CONTINUOUS
370
50
 62
4
100
AcDbLine
 10
122.27076
 20
3.847425
 30
0.0
 11
122.135376
 21
3.869238
 31
0.0
  0
LINE
  5
609
330
1F
100
AcDbEntity
  8
1
  6
CONTINUOUS
370
50
 62
4
100
AcDbLine
 10
133.208725
 20
2.58334
 30
0.0
 11
132.030899
 21
2.771477
 31
0.0
  0
LINE
  5
60A
330
1F
100
AcDbEntity
  8
1
  6
CONTINUOUS
370
50
 62
4
100
AcDbLine
 10
117.873871
 20
5.911995
 30
0.0
 11
117.812202
 21
5.921822
 31
0.0
  0
LINE
  5
60B
330
1F
100
AcDbEntity
  8
1
  6
CONTINUOUS
370
50
 62
4
100
AcDbLine
 10
122.406136
 20
3.825863
 30
0.0
 11
122.27076
 21
3.847425
 31
0.0
  0
LINE
  5
60C
330
1F
100
AcDbEntity
  8
1
  6
CONTINUOUS
370
50
 62
4
100
AcDbLine
 10
122.541512
 20
3.804548
 30
0.0
 11
122.406136
 21
3.825863
 31
0.0
  0
LINE
  5
60D
330
1F
100
AcDbEntity
  8
1
  6
CONTINUOUS
370
50
 62
4
100
AcDbLine
 10
122.676895
 20
3.783478
 30
0.0
 11
122.541512
 21
3.804548
 31
0.0
  0
LINE
  5
60E
330
1F
100
AcDbEntity
  8
1
  6
CONTINUOUS
370
50
 62
4
100
AcDbLine
 10
122.812271
 20
3.762651
 30
0.0
 11
122.676895
 21
3.783478
 31
0.0
  0
LINE
  5
60F
330
1F
100
AcDbEntity
  8
1
  6
CONTINUOUS
370
50
 62
4
100
AcDbLine
 10
137.437653
 20
-5.821908
 30
0.0
 11
136.940399
 21
-5.745521
 31
0.0
  0
LINE
  5
610
330
1F
100
AcDbEntity
  8
1
  6
CONTINUOUS
370
50
 62
4
100
AcDbLine
 10
122.947655
 20
3.742066
 30
0.0
 11
122.812271
 21
3.762651
 31
0.0
  0
LINE
  5
611
330
1F
100
AcDbEntity
  8
1
  6
CONTINUOUS
370
50
 62
4
100
AcDbLine
 10
127.964096
 20
-2.799227
 30
0.0
 11
126.970055
 21
-2.649035
 31
0.0
  0
LINE
  5
612
330
1F
100
AcDbEntity
  8
1
  6
CONTINUOUS
370
50
 62
4
100
AcDbLine
 10
123.083038
 20
3.72172
 30
0.0
 11
122.947655
 21
3.742066
 31
0.0
  0
LINE
  5
613
330
1F
100
AcDbEntity
  8
1
  6
CONTINUOUS
370
50
 62
4
100
AcDbLine
 10
123.28553
 20
3.691732
 30
0.0
 11
123.083038
 21
3.72172
 31
0.0
  0
LINE
  5
614
330
1F
100
AcDbEntity
  8
1
  6
CONTINUOUS
370
50
 62
4
100
AcDbLine
 10
123.488022
 20
3.662269
 30
0.0
 11
123.28553
 21
3.691732
 31
0.0
  0
LINE
  5
615
330
1F
100
AcDbEntity
  8
1
  6
CONTINUOUS
370
50
 62
4
100
AcDbLine
 10
123.617836
 20
3.643656
 30
0.0
 11
123.488022
 21
3.662269
 31
0.0
  0
LINE
  5
616
330
1F
100
AcDbEntity
  8
1
  6
CONTINUOUS
370
50
 62
4
100
AcDbLine
 10
123.747658
 20
3.625254
 30
0.0
 11
123.617836
 21
3.643656
 31
0.0
  0
LINE
  5
617
330
1F
100
AcDbEntity
  8
1
  6
CONTINUOUS
370
50
 62
4
100
AcDbLine
 10
139.666687
 20
5.233868999999999
 30
0.0
 11
139.581177
 21
5.245982
 31
0.0
  0
LINE
  5
618
330
1F
100
AcDbEntity
  8
1
  6
CONTINUOUS
370
50
 62
4
100
AcDbLine
 10
139.856186
 20
-5.866333
 30
0.0
 11
139.104431
 21
-5.760744
 31
0.0
  0
LINE
  5
619
330
1F
100
AcDbEntity
  8
1
  6
CONTINUOUS
370
50
 62
4
100
AcDbLine
 10
123.87748
 20
3.607065
 30
0.0
 11
123.747658
 21
3.625254
 31
0.0
  0
LINE
  5
61A
330
1F
100
AcDbEntity
  8
1
  6
CONTINUOUS
370
50
 62
4
100
AcDbLine
 10
124.007294
 20
3.589088
 30
0.0
 11
123.87748
 21
3.607065
 31
0.0
  0
LINE
  5
61B
330
1F
100
AcDbEntity
  8
1
  6
CONTINUOUS
370
50
 62
4
100
AcDbLine
 10
124.137115
 20
3.571321
 30
0.0
 11
124.007294
 21
3.589088
 31
0.0
  0
LINE
  5
61C
330
1F
100
AcDbEntity
  8
1
  6
CONTINUOUS
370
50
 62
4
100
AcDbLine
 10
132.030899
 20
2.771477
 30
0.0
 11
130.943405
 21
2.920023
 31
0.0
  0
LINE
  5
61D
330
1F
100
AcDbEntity
  8
1
  6
CONTINUOUS
370
50
 62
4
100
AcDbLine
 10
124.266937
 20
3.553763
 30
0.0
 11
124.137115
 21
3.571321
 31
0.0
  0
LINE
  5
61E
330
1F
100
AcDbEntity
  8
1
  6
CONTINUOUS
370
50
 62
4
100
AcDbLine
 10
124.396759
 20
3.536416
 30
0.0
 11
124.266937
 21
3.553763
 31
0.0
  0
LINE
  5
61F
330
1F
100
AcDbEntity
  8
1
  6
CONTINUOUS
370
50
 62
4
100
AcDbLine
 10
137.469299
 20
2.859901
 30
0.0
 11
137.468811
 21
2.859966
 31
0.0
  0
LINE
  5
620
330
1F
100
AcDbEntity
  8
1
  6
CONTINUOUS
370
50
 62
4
100
AcDbLine
 10
137.469788
 20
2.859836
 30
0.0
 11
137.469299
 21
2.859901
 31
0.0
  0
LINE
  5
621
330
1F
100
AcDbEntity
  8
1
  6
CONTINUOUS
370
50
 62
4
100
AcDbLine
 10
124.526581
 20
3.519279
 30
0.0
 11
124.396759
 21
3.536416
 31
0.0
  0
LINE
  5
622
330
1F
100
AcDbEntity
  8
1
  6
CONTINUOUS
370
50
 62
4
100
AcDbLine
 10
137.470276
 20
2.859772
 30
0.0
 11
137.469788
 21
2.859836
 31
0.0
  0
LINE
  5
623
330
1F
100
AcDbEntity
  8
1
  6
CONTINUOUS
370
50
 62
4
100
AcDbLine
 10
120.841034
 20
3.828399
 30
0.0
 11
120.726852
 21
3.843352
 31
0.0
  0
LINE
  5
624
330
1F
100
AcDbEntity
  8
1
  6
CONTINUOUS
370
50
 62
4
100
AcDbLine
 10
124.638969
 20
3.504611
 30
0.0
 11
124.526581
 21
3.519279
 31
0.0
  0
LINE
  5
625
330
1F
100
AcDbEntity
  8
1
  6
CONTINUOUS
370
50
 62
4
100
AcDbLine
 10
124.751358
 20
3.490102
 30
0.0
 11
124.638969
 21
3.504611
 31
0.0
  0
LINE
  5
626
330
1F
100
AcDbEntity
  8
1
  6
CONTINUOUS
370
50
 62
4
100
AcDbLine
 10
137.468811
 20
2.859966
 30
0.0
 11
137.468307
 21
2.860031
 31
0.0
  0
LINE
  5
627
330
1F
100
AcDbEntity
  8
1
  6
CONTINUOUS
370
50
 62
4
100
AcDbLine
 10
137.471268
 20
2.859646
 30
0.0
 11
137.470779
 21
2.859709
 31
0.0
  0
LINE
  5
628
330
1F
100
AcDbEntity
  8
1
  6
CONTINUOUS
370
50
 62
4
100
AcDbLine
 10
124.863747
 20
3.47575
 30
0.0
 11
124.751358
 21
3.490102
 31
0.0
  0
LINE
  5
629
330
1F
100
AcDbEntity
  8
1
  6
CONTINUOUS
370
50
 62
4
100
AcDbLine
 10
124.976135
 20
3.461556
 30
0.0
 11
124.863747
 21
3.47575
 31
0.0
  0
LINE
  5
62A
330
1F
100
AcDbEntity
  8
1
  6
CONTINUOUS
370
50
 62
4
100
AcDbLine
 10
137.943893
 20
-5.885416999999999
 30
0.0
 11
137.437653
 21
-5.821908
 31
0.0
  0
LINE
  5
62B
330
1F
100
AcDbEntity
  8
1
  6
CONTINUOUS
370
50
 62
4
100
AcDbLine
 10
137.470779
 20
2.859709
 30
0.0
 11
137.470276
 21
2.859772
 31
0.0
  0
LINE
  5
62C
330
1F
100
AcDbEntity
  8
1
  6
CONTINUOUS
370
50
 62
4
100
AcDbLine
 10
128.958099
 20
-2.923637
 30
0.0
 11
127.964096
 21
-2.799227
 31
0.0
  0
LINE
  5
62D
330
1F
100
AcDbEntity
  8
1
  6
CONTINUOUS
370
50
 62
4
100
AcDbLine
 10
125.097145
 20
3.44645
 30
0.0
 11
124.976135
 21
3.461556
 31
0.0
  0
LINE
  5
62E
330
1F
100
AcDbEntity
  8
1
  6
CONTINUOUS
370
50
 62
4
100
AcDbLine
 10
125.218163
 20
3.431529
 30
0.0
 11
125.097145
 21
3.44645
 31
0.0
  0
LINE
  5
62F
330
1F
100
AcDbEntity
  8
1
  6
CONTINUOUS
370
50
 62
4
100
AcDbLine
 10
125.339172
 20
3.416794
 30
0.0
 11
125.218163
 21
3.431529
 31
0.0
  0
LINE
  5
630
330
1F
100
AcDbEntity
  8
1
  6
CONTINUOUS
370
50
 62
4
100
AcDbLine
 10
122.793648
 20
-2.932039
 30
0.0
 11
122.0
 21
-2.835445
 31
0.0
  0
LINE
  5
631
330
1F
100
AcDbEntity
  8
1
  6
CONTINUOUS
370
50
 62
4
100
AcDbLine
 10
125.460182
 20
3.402246
 30
0.0
 11
125.339172
 21
3.416794
 31
0.0
  0
LINE
  5
632
330
1F
100
AcDbEntity
  8
1
  6
CONTINUOUS
370
50
 62
4
100
AcDbLine
 10
121.71608
 20
-3.850722
 30
0.0
 11
121.426964
 21
-3.816348
 31
0.0
  0
LINE
  5
633
330
1F
100
AcDbEntity
  8
1
  6
CONTINUOUS
370
50
 62
4
100
AcDbLine
 10
125.581184
 20
3.387887
 30
0.0
 11
125.460182
 21
3.402246
 31
0.0
  0
LINE
  5
634
330
1F
100
AcDbEntity
  8
1
  6
CONTINUOUS
370
50
 62
4
100
AcDbLine
 10
137.468307
 20
2.860031
 30
0.0
 11
136.728516
 21
2.947747
 31
0.0
  0
LINE
  5
635
330
1F
100
AcDbEntity
  8
1
  6
CONTINUOUS
370
50
 62
4
100
AcDbLine
 10
125.702187
 20
3.373718
 30
0.0
 11
125.581184
 21
3.387887
 31
0.0
  0
LINE
  5
636
330
1F
100
AcDbEntity
  8
1
  6
CONTINUOUS
370
50
 62
4
100
AcDbLine
 10
125.823181
 20
3.359761
 30
0.0
 11
125.702187
 21
3.373718
 31
0.0
  0
LINE
  5
637
330
1F
100
AcDbEntity
  8
1
  6
CONTINUOUS
370
50
 62
4
100
AcDbLine
 10
125.944183
 20
3.346108
 30
0.0
 11
125.823181
 21
3.359761
 31
0.0
  0
LINE
  5
638
330
1F
100
AcDbEntity
  8
1
  6
CONTINUOUS
370
50
 62
4
100
AcDbLine
 10
126.074165
 20
3.331784
 30
0.0
 11
125.944183
 21
3.346108
 31
0.0
  0
LINE
  5
639
330
1F
100
AcDbEntity
  8
1
  6
CONTINUOUS
370
50
 62
4
100
AcDbLine
 10
119.640923
 20
1.082074
 30
0.0
 11
119.447906
 21
1.103247
 31
0.0
  0
LINE
  5
63A
330
1F
100
AcDbEntity
  8
1
  6
CONTINUOUS
370
50
 62
4
100
AcDbLine
 10
126.204155
 20
3.317814
 30
0.0
 11
126.074165
 21
3.331784
 31
0.0
  0
LINE
  5
63B
330
1F
100
AcDbEntity
  8
1
  6
CONTINUOUS
370
50
 62
4
100
AcDbLine
 10
126.334152
 20
3.304193
 30
0.0
 11
126.204155
 21
3.317814
 31
0.0
  0
LINE
  5
63C
330
1F
100
AcDbEntity
  8
1
  6
CONTINUOUS
370
50
 62
4
100
AcDbLine
 10
130.943405
 20
2.920023
 30
0.0
 11
129.886917
 21
3.030557
 31
0.0
  0
LINE
  5
63D
330
1F
100
AcDbEntity
  8
1
  6
CONTINUOUS
370
50
 62
4
100
AcDbLine
 10
126.464149
 20
3.290919
 30
0.0
 11
126.334152
 21
3.304193
 31
0.0
  0
LINE
  5
63E
330
1F
100
AcDbEntity
  8
1
  6
CONTINUOUS
370
50
 62
4
100
AcDbLine
 10
123.599884
 20
-3.01283
 30
0.0
 11
122.793648
 21
-2.932039
 31
0.0
  0
LINE
  5
63F
330
1F
100
AcDbEntity
  8
1
  6
CONTINUOUS
370
50
 62
4
100
AcDbLine
 10
126.57737
 20
3.279638
 30
0.0
 11
126.464149
 21
3.290919
 31
0.0
  0
LINE
  5
640
330
1F
100
AcDbEntity
  8
1
  6
CONTINUOUS
370
50
 62
4
100
AcDbLine
 10
139.581177
 20
5.245982
 30
0.0
 11
139.479172
 21
5.256107
 31
0.0
  0
LINE
  5
641
330
1F
100
AcDbEntity
  8
1
  6
CONTINUOUS
370
50
 62
4
100
AcDbLine
 10
136.728516
 20
2.947747
 30
0.0
 11
135.988708
 21
3.020923
 31
0.0
  0
LINE
  5
642
330
1F
100
AcDbEntity
  8
1
  6
CONTINUOUS
370
50
 62
4
100
AcDbLine
 10
138.455811
 20
-5.935327
 30
0.0
 11
137.943893
 21
-5.885416999999999
 31
0.0
  0
LINE
  5
643
330
1F
100
AcDbEntity
  8
1
  6
CONTINUOUS
370
50
 62
4
100
AcDbLine
 10
126.690582
 20
3.268616
 30
0.0
 11
126.57737
 21
3.279638
 31
0.0
  0
LINE
  5
644
330
1F
100
AcDbEntity
  8
1
  6
CONTINUOUS
370
50
 62
4
100
AcDbLine
 10
126.803802
 20
3.257851
 30
0.0
 11
126.690582
 21
3.268616
 31
0.0
  0
LINE
  5
645
330
1F
100
AcDbEntity
  8
1
  6
CONTINUOUS
370
50
 62
4
100
AcDbLine
 10
126.917023
 20
3.24734
 30
0.0
 11
126.803802
 21
3.257851
 31
0.0
  0
LINE
  5
646
330
1F
100
AcDbEntity
  8
1
  6
CONTINUOUS
370
50
 62
4
100
AcDbLine
 10
127.030251
 20
3.237081
 30
0.0
 11
126.917023
 21
3.24734
 31
0.0
  0
LINE
  5
647
330
1F
100
AcDbEntity
  8
1
  6
CONTINUOUS
370
50
 62
4
100
AcDbLine
 10
127.143478
 20
3.227073
 30
0.0
 11
127.030251
 21
3.237081
 31
0.0
  0
LINE
  5
648
330
1F
100
AcDbEntity
  8
1
  6
CONTINUOUS
370
50
 62
4
100
AcDbLine
 10
127.256706
 20
3.217314
 30
0.0
 11
127.143478
 21
3.227073
 31
0.0
  0
LINE
  5
649
330
1F
100
AcDbEntity
  8
1
  6
CONTINUOUS
370
50
 62
4
100
AcDbLine
 10
127.369934
 20
3.207802
 30
0.0
 11
127.256706
 21
3.217314
 31
0.0
  0
LINE
  5
64A
330
1F
100
AcDbEntity
  8
1
  6
CONTINUOUS
370
50
 62
4
100
AcDbLine
 10
127.515472
 20
3.195936
 30
0.0
 11
127.369934
 21
3.207802
 31
0.0
  0
LINE
  5
64B
330
1F
100
AcDbEntity
  8
1
  6
CONTINUOUS
370
50
 62
4
100
AcDbLine
 10
124.414696
 20
-3.077989
 30
0.0
 11
123.599884
 21
-3.01283
 31
0.0
  0
LINE
  5
64C
330
1F
100
AcDbEntity
  8
1
  6
CONTINUOUS
370
50
 62
4
100
AcDbLine
 10
127.661011
 20
3.184472
 30
0.0
 11
127.515472
 21
3.195936
 31
0.0
  0
LINE
  5
64D
330
1F
100
AcDbEntity
  8
1
  6
CONTINUOUS
370
50
 62
4
100
AcDbLine
 10
135.988708
 20
3.020923
 30
0.0
 11
135.248932
 21
3.078146
 31
0.0
  0
LINE
  5
64E
330
1F
100
AcDbEntity
  8
1
  6
CONTINUOUS
370
50
 62
4
100
AcDbLine
 10
127.806549
 20
3.173406
 30
0.0
 11
127.661011
 21
3.184472
 31
0.0
  0
LINE
  5
64F
330
1F
100
AcDbEntity
  8
1
  6
CONTINUOUS
370
50
 62
4
100
AcDbLine
 10
127.952087
 20
3.162736
 30
0.0
 11
127.806549
 21
3.173406
 31
0.0
  0
LINE
  5
650
330
1F
100
AcDbEntity
  8
1
  6
CONTINUOUS
370
50
 62
4
100
AcDbLine
 10
129.886917
 20
3.030557
 30
0.0
 11
128.807419
 21
3.10787
 31
0.0
  0
LINE
  5
651
330
1F
100
AcDbEntity
  8
1
  6
CONTINUOUS
370
50
 62
4
100
AcDbLine
 10
128.05899
 20
3.155148
 30
0.0
 11
127.952087
 21
3.162736
 31
0.0
  0
LINE
  5
652
330
1F
100
AcDbEntity
  8
1
  6
CONTINUOUS
370
50
 62
4
100
AcDbLine
 10
138.968796
 20
-5.971139
 30
0.0
 11
138.455811
 21
-5.935327
 31
0.0
  0
LINE
  5
653
330
1F
100
AcDbEntity
  8
1
  6
CONTINUOUS
370
50
 62
4
100
AcDbLine
 10
128.165909
 20
3.147771
 30
0.0
 11
128.05899
 21
3.155148
 31
0.0
  0
LINE
  5
654
330
1F
100
AcDbEntity
  8
1
  6
CONTINUOUS
370
50
 62
4
100
AcDbLine
 10
139.479172
 20
5.256107
 30
0.0
 11
139.359024
 21
5.264317999999999
 31
0.0
  0
LINE
  5
655
330
1F
100
AcDbEntity
  8
1
  6
CONTINUOUS
370
50
 62
4
100
AcDbLine
 10
128.272827
 20
3.140604
 30
0.0
 11
128.165909
 21
3.147771
 31
0.0
  0
LINE
  5
656
330
1F
100
AcDbEntity
  8
1
  6
CONTINUOUS
370
50
 62
4
100
AcDbLine
 10
139.999908
 20
4.951268
 30
0.0
 11
139.999893
 21
4.951269
 31
0.0
  0
LINE
  5
657
330
1F
100
AcDbEntity
  8
1
  6
CONTINUOUS
370
50
 62
4
100
AcDbLine
 10
121.135117
 20
3.80882
 30
0.0
 11
120.841034
 21
3.828399
 31
0.0
  0
LINE
  5
658
330
1F
100
AcDbEntity
  8
1
  6
CONTINUOUS
370
50
 62
4
100
AcDbLine
 10
128.379745
 20
3.133646
 30
0.0
 11
128.272827
 21
3.140604
 31
0.0
  0
LINE
  5
659
330
1F
100
AcDbEntity
  8
1
  6
CONTINUOUS
370
50
 62
4
100
AcDbLine
 10
128.486664
 20
3.126895
 30
0.0
 11
128.379745
 21
3.133646
 31
0.0
  0
LINE
  5
65A
330
1F
100
AcDbEntity
  8
1
  6
CONTINUOUS
370
50
 62
4
100
AcDbLine
 10
128.593567
 20
3.120353
 30
0.0
 11
128.486664
 21
3.126895
 31
0.0
  0
LINE
  5
65B
330
1F
100
AcDbEntity
  8
1
  6
CONTINUOUS
370
50
 62
4
100
AcDbLine
 10
137.532181
 20
2.855971
 30
0.0
 11
137.471268
 21
2.859646
 31
0.0
  0
LINE
  5
65C
330
1F
100
AcDbEntity
  8
1
  6
CONTINUOUS
370
50
 62
4
100
AcDbLine
 10
125.223518
 20
-3.126305
 30
0.0
 11
124.414696
 21
-3.077989
 31
0.0
  0
LINE
  5
65D
330
1F
100
AcDbEntity
  8
1
  6
CONTINUOUS
370
50
 62
4
100
AcDbLine
 10
128.700485
 20
3.114017
 30
0.0
 11
128.593567
 21
3.120353
 31
0.0
  0
LINE
  5
65E
330
1F
100
AcDbEntity
  8
1
  6
CONTINUOUS
370
50
 62
4
100
AcDbLine
 10
128.807404
 20
3.107888
 30
0.0
 11
128.700485
 21
3.114017
 31
0.0
  0
LINE
  5
65F
330
1F
100
AcDbEntity
  8
1
  6
CONTINUOUS
370
50
 62
4
100
AcDbLine
 10
135.248932
 20
3.078146
 30
0.0
 11
134.509171
 21
3.119302
 31
0.0
  0
LINE
  5
660
330
1F
100
AcDbEntity
  8
1
  6
CONTINUOUS
370
50
 62
4
100
AcDbLine
 10
119.83271
 20
1.071985
 30
0.0
 11
119.640923
 21
1.082074
 31
0.0
  0
LINE
  5
661
330
1F
100
AcDbEntity
  8
1
  6
CONTINUOUS
370
50
 62
4
100
AcDbLine
 10
117.812202
 20
5.921822
 30
0.0
 11
117.742378
 21
5.925015999999999
 31
0.0
  0
LINE
  5
662
330
1F
100
AcDbEntity
  8
1
  6
CONTINUOUS
370
50
 62
4
100
AcDbLine
 10
139.359024
 20
5.264317999999999
 30
0.0
 11
139.226288
 21
5.270359
 31
0.0
  0
LINE
  5
663
330
1F
100
AcDbEntity
  8
1
  6
CONTINUOUS
370
50
 62
4
100
AcDbLine
 10
139.481552
 20
-5.992737
 30
0.0
 11
138.968796
 21
-5.971139
 31
0.0
  0
LINE
  5
664
330
1F
100
AcDbEntity
  8
1
  6
CONTINUOUS
370
50
 62
4
100
AcDbLine
 10
125.991104
 20
-3.155858
 30
0.0
 11
125.223518
 21
-3.126305
 31
0.0
  0
LINE
  5
665
330
1F
100
AcDbEntity
  8
1
  6
CONTINUOUS
370
50
 62
4
100
AcDbLine
 10
134.509171
 20
3.119302
 30
0.0
 11
133.769409
 21
3.144733
 31
0.0
  0
LINE
  5
666
330
1F
100
AcDbEntity
  8
1
  6
CONTINUOUS
370
50
 62
4
100
AcDbLine
 10
139.226288
 20
5.270359
 30
0.0
 11
139.088608
 21
5.274159
 31
0.0
  0
LINE
  5
667
330
1F
100
AcDbEntity
  8
1
  6
CONTINUOUS
370
50
 62
4
100
AcDbLine
 10
121.426964
 20
-3.816348
 30
0.0
 11
121.135117
 21
-3.80882
 31
0.0
  0
LINE
  5
668
330
1F
100
AcDbEntity
  8
1
  6
CONTINUOUS
370
50
 62
4
100
AcDbLine
 10
139.992767
 20
-6.0
 30
0.0
 11
139.481552
 21
-5.992737
 31
0.0
  0
LINE
  5
669
330
1F
100
AcDbEntity
  8
1
  6
CONTINUOUS
370
50
 62
4
100
AcDbLine
 10
133.769409
 20
3.144733
 30
0.0
 11
133.029617
 21
3.154699
 31
0.0
  0
LINE
  5
66A
330
1F
100
AcDbEntity
  8
1
  6
CONTINUOUS
370
50
 62
4
100
AcDbLine
 10
139.088608
 20
5.274159
 30
0.0
 11
138.948822
 21
5.275987
 31
0.0
  0
LINE
  5
66B
330
1F
100
AcDbEntity
  8
1
  6
CONTINUOUS
370
50
 62
4
100
AcDbLine
 10
126.818268
 20
-3.16583
 30
0.0
 11
125.991104
 21
-3.155858
 31
0.0
  0
LINE
  5
66C
330
1F
100
AcDbEntity
  8
1
  6
CONTINUOUS
370
50
 62
4
100
AcDbLine
 10
139.297836
 20
2.494056
 30
0.0
 11
138.968338
 21
2.495739
 31
0.0
  0
LINE
  5
66D
330
1F
100
AcDbEntity
  8
1
  6
CONTINUOUS
370
50
 62
4
100
AcDbLine
 10
138.968338
 20
2.495739
 30
0.0
 11
138.646515
 21
2.497381
 31
0.0
  0
LINE
  5
66E
330
1F
100
AcDbEntity
  8
1
  6
CONTINUOUS
370
50
 62
4
100
AcDbLine
 10
139.637085
 20
2.492336
 30
0.0
 11
139.297836
 21
2.494056
 31
0.0
  0
LINE
  5
66F
330
1F
100
AcDbEntity
  8
1
  6
CONTINUOUS
370
50
 62
4
100
AcDbLine
 10
138.646515
 20
2.497381
 30
0.0
 11
138.330338
 21
2.49898
 31
0.0
  0
LINE
  5
670
330
1F
100
AcDbEntity
  8
1
  6
CONTINUOUS
370
50
 62
4
100
AcDbLine
 10
138.330338
 20
2.49898
 30
0.0
 11
138.017761
 21
2.500534
 31
0.0
  0
LINE
  5
671
330
1F
100
AcDbEntity
  8
1
  6
CONTINUOUS
370
50
 62
4
100
AcDbLine
 10
138.017761
 20
2.500534
 30
0.0
 11
137.706711
 21
2.50204
 31
0.0
  0
LINE
  5
672
330
1F
100
AcDbEntity
  8
1
  6
CONTINUOUS
370
50
 62
4
100
AcDbLine
 10
137.706711
 20
2.50204
 30
0.0
 11
137.395157
 21
2.503496
 31
0.0
  0
LINE
  5
673
330
1F
100
AcDbEntity
  8
1
  6
CONTINUOUS
370
50
 62
4
100
AcDbLine
 10
133.029617
 20
3.15465
 30
0.0
 11
132.842346
 21
3.15517
 31
0.0
  0
LINE
  5
674
330
1F
100
AcDbEntity
  8
1
  6
CONTINUOUS
370
50
 62
4
100
AcDbLine
 10
132.842346
 20
3.15517
 30
0.0
 11
132.65509
 21
3.155675
 31
0.0
  0
LINE
  5
675
330
1F
100
AcDbEntity
  8
1
  6
CONTINUOUS
370
50
 62
4
100
AcDbLine
 10
132.65509
 20
3.155675
 30
0.0
 11
132.467819
 21
3.15616
 31
0.0
  0
LINE
  5
676
330
1F
100
AcDbEntity
  8
1
  6
CONTINUOUS
370
50
 62
4
100
AcDbLine
 10
132.467819
 20
3.15616
 30
0.0
 11
132.280487
 21
3.156623
 31
0.0
  0
LINE
  5
677
330
1F
100
AcDbEntity
  8
1
  6
CONTINUOUS
370
50
 62
4
100
AcDbLine
 10
132.280487
 20
3.156623
 30
0.0
 11
132.075027
 21
3.157102
 31
0.0
  0
LINE
  5
678
330
1F
100
AcDbEntity
  8
1
  6
CONTINUOUS
370
50
 62
4
100
AcDbLine
 10
132.075027
 20
3.157102
 30
0.0
 11
131.870224
 21
3.157544
 31
0.0
  0
LINE
  5
679
330
1F
100
AcDbEntity
  8
1
  6
CONTINUOUS
370
50
 62
4
100
AcDbLine
 10
129.074142
 20
3.16209
 30
0.0
 11
128.70752
 21
3.162825
 31
0.0
  0
LINE
  5
67A
330
1F
100
AcDbEntity
  8
1
  6
CONTINUOUS
370
50
 62
4
100
AcDbLine
 10
129.19635
 20
3.161847
 30
0.0
 11
129.074142
 21
3.16209
 31
0.0
  0
LINE
  5
67B
330
1F
100
AcDbEntity
  8
1
  6
CONTINUOUS
370
50
 62
4
100
AcDbLine
 10
128.70752
 20
3.162825
 30
0.0
 11
128.585312
 21
3.163068
 31
0.0
  0
LINE
  5
67C
330
1F
100
AcDbEntity
  8
1
  6
CONTINUOUS
370
50
 62
4
100
AcDbLine
 10
128.585312
 20
3.163068
 30
0.0
 11
128.463104
 21
3.16331
 31
0.0
  0
LINE
  5
67D
330
1F
100
AcDbEntity
  8
1
  6
CONTINUOUS
370
50
 62
4
100
AcDbLine
 10
131.870224
 20
3.157544
 30
0.0
 11
131.665253
 21
3.157948
 31
0.0
  0
LINE
  5
67E
330
1F
100
AcDbEntity
  8
1
  6
CONTINUOUS
370
50
 62
4
100
AcDbLine
 10
129.318558
 20
3.161607
 30
0.0
 11
129.19635
 21
3.161847
 31
0.0
  0
LINE
  5
67F
330
1F
100
AcDbEntity
  8
1
  6
CONTINUOUS
370
50
 62
4
100
AcDbLine
 10
128.463104
 20
3.16331
 30
0.0
 11
128.340042
 21
3.163549
 31
0.0
  0
LINE
  5
680
330
1F
100
AcDbEntity
  8
1
  6
CONTINUOUS
370
50
 62
4
100
AcDbLine
 10
129.460815
 20
3.161331
 30
0.0
 11
129.318558
 21
3.161607
 31
0.0
  0
LINE
  5
681
330
1F
100
AcDbEntity
  8
1
  6
CONTINUOUS
370
50
 62
4
100
AcDbLine
 10
128.340042
 20
3.163549
 30
0.0
 11
128.212524
 21
3.163794
 31
0.0
  0
LINE
  5
682
330
1F
100
AcDbEntity
  8
1
  6
CONTINUOUS
370
50
 62
4
100
AcDbLine
 10
129.612488
 20
3.161043
 30
0.0
 11
129.460815
 21
3.161331
 31
0.0
  0
LINE
  5
683
330
1F
100
AcDbEntity
  8
1
  6
CONTINUOUS
370
50
 62
4
100
AcDbLine
 10
128.212524
 20
3.163794
 30
0.0
 11
128.085678
 21
3.164031
 31
0.0
  0
LINE
  5
684
330
1F
100
AcDbEntity
  8
1
  6
CONTINUOUS
370
50
 62
4
100
AcDbLine
 10
129.762939
 20
3.160765
 30
0.0
 11
129.612488
 21
3.161043
 31
0.0
  0
LINE
  5
685
330
1F
100
AcDbEntity
  8
1
  6
CONTINUOUS
370
50
 62
4
100
AcDbLine
 10
128.085678
 20
3.164031
 30
0.0
 11
127.958839
 21
3.164261
 31
0.0
  0
LINE
  5
686
330
1F
100
AcDbEntity
  8
1
  6
CONTINUOUS
370
50
 62
4
100
AcDbLine
 10
129.918564
 20
3.160488
 30
0.0
 11
129.762939
 21
3.160765
 31
0.0
  0
LINE
  5
687
330
1F
100
AcDbEntity
  8
1
  6
CONTINUOUS
370
50
 62
4
100
AcDbLine
 10
131.665253
 20
3.157948
 30
0.0
 11
131.463806
 21
3.158302
 31
0.0
  0
LINE
  5
688
330
1F
100
AcDbEntity
  8
1
  6
CONTINUOUS
370
50
 62
4
100
AcDbLine
 10
130.032043
 20
3.160292
 30
0.0
 11
129.918564
 21
3.160488
 31
0.0
  0
LINE
  5
689
330
1F
100
AcDbEntity
  8
1
  6
CONTINUOUS
370
50
 62
4
100
AcDbLine
 10
130.142441
 20
3.160109
 30
0.0
 11
130.032043
 21
3.160292
 31
0.0
  0
LINE
  5
68A
330
1F
100
AcDbEntity
  8
1
  6
CONTINUOUS
370
50
 62
4
100
AcDbLine
 10
130.252838
 20
3.159931
 30
0.0
 11
130.142441
 21
3.160109
 31
0.0
  0
LINE
  5
68B
330
1F
100
AcDbEntity
  8
1
  6
CONTINUOUS
370
50
 62
4
100
AcDbLine
 10
131.463806
 20
3.158302
 30
0.0
 11
131.297318
 21
3.158561
 31
0.0
  0
LINE
  5
68C
330
1F
100
AcDbEntity
  8
1
  6
CONTINUOUS
370
50
 62
4
100
AcDbLine
 10
130.363235
 20
3.159761
 30
0.0
 11
130.252838
 21
3.159931
 31
0.0
  0
LINE
  5
68D
330
1F
100
AcDbEntity
  8
1
  6
CONTINUOUS
370
50
 62
4
100
AcDbLine
 10
130.473633
 20
3.159599
 30
0.0
 11
130.363235
 21
3.159761
 31
0.0
  0
LINE
  5
68E
330
1F
100
AcDbEntity
  8
1
  6
CONTINUOUS
370
50
 62
4
100
AcDbLine
 10
130.584015
 20
3.159444
 30
0.0
 11
130.473633
 21
3.159599
 31
0.0
  0
LINE
  5
68F
330
1F
100
AcDbEntity
  8
1
  6
CONTINUOUS
370
50
 62
4
100
AcDbLine
 10
131.297318
 20
3.158561
 30
0.0
 11
131.130829
 21
3.158785
 31
0.0
  0
LINE
  5
690
330
1F
100
AcDbEntity
  8
1
  6
CONTINUOUS
370
50
 62
4
100
AcDbLine
 10
130.694412
 20
3.159297
 30
0.0
 11
130.584015
 21
3.159444
 31
0.0
  0
LINE
  5
691
330
1F
100
AcDbEntity
  8
1
  6
CONTINUOUS
370
50
 62
4
100
AcDbLine
 10
130.80481
 20
3.159159
 30
0.0
 11
130.694412
 21
3.159297
 31
0.0
  0
LINE
  5
692
330
1F
100
AcDbEntity
  8
1
  6
CONTINUOUS
370
50
 62
4
100
AcDbLine
 10
130.963715
 20
3.158976
 30
0.0
 11
130.80481
 21
3.159159
 31
0.0
  0
LINE
  5
693
330
1F
100
AcDbEntity
  8
1
  6
CONTINUOUS
370
50
 62
4
100
AcDbLine
 10
131.130829
 20
3.158785
 30
0.0
 11
130.963715
 21
3.158976
 31
0.0
  0
LINE
  5
694
330
1F
100
AcDbEntity
  8
1
  6
CONTINUOUS
370
50
 62
4
100
AcDbLine
 10
138.948822
 20
5.275987
 30
0.0
 11
138.809769
 21
5.276115
 31
0.0
  0
LINE
  5
695
330
1F
100
AcDbEntity
  8
1
  6
CONTINUOUS
370
50
 62
4
100
AcDbLine
 10
139.995499
 20
-6.0
 30
0.0
 11
140.0
 21
-6.0
 31
0.0
  0
LINE
  5
696
330
1F
100
AcDbEntity
  8
1
  6
CONTINUOUS
370
50
 62
4
100
AcDbLine
 10
79.929901
 20
-5.92495
 30
0.0
 11
117.742638
 21
-5.92495
 31
0.0
  0
LINE
  5
697
330
1F
100
AcDbEntity
  8
1
  6
CONTINUOUS
370
50
 62
4
100
AcDbLine
 10
139.999908
 20
4.951268
 30
0.0
 11
140.0
 21
4.951268
 31
0.0
  0
LINE
  5
698
330
1F
100
AcDbEntity
  8
1
  6
CONTINUOUS
370
50
 62
4
100
AcDbLine
 10
79.929901
 20
5.92495
 30
0.0
 11
117.742638
 21
5.92495
 31
0.0
  0
LINE
  5
699
330
1F
100
AcDbEntity
  8
1
  6
CONTINUOUS
370
50
 62
4
100
AcDbLine
 10
126.818268
 20
-3.165826
 30
0.0
 11
126.954315
 21
-3.165702
 31
0.0
  0
LINE
  5
69A
330
1F
100
AcDbEntity
  8
1
  6
CONTINUOUS
370
50
 62
4
100
AcDbLine
 10
126.954315
 20
-3.165702
 30
0.0
 11
127.09037
 21
-3.165558
 31
0.0
  0
LINE
  5
69B
330
1F
100
AcDbEntity
  8
1
  6
CONTINUOUS
370
50
 62
4
100
AcDbLine
 10
127.09037
 20
-3.165558
 30
0.0
 11
127.226418
 21
-3.165395
 31
0.0
  0
LINE
  5
69C
330
1F
100
AcDbEntity
  8
1
  6
CONTINUOUS
370
50
 62
4
100
AcDbLine
 10
127.226418
 20
-3.165395
 30
0.0
 11
127.362473
 21
-3.165215
 31
0.0
  0
LINE
  5
69D
330
1F
100
AcDbEntity
  8
1
  6
CONTINUOUS
370
50
 62
4
100
AcDbLine
 10
127.362473
 20
-3.165215
 30
0.0
 11
127.498535
 21
-3.16502
 31
0.0
  0
LINE
  5
69E
330
1F
100
AcDbEntity
  8
1
  6
CONTINUOUS
370
50
 62
4
100
AcDbLine
 10
127.498535
 20
-3.16502
 30
0.0
 11
127.63459
 21
-3.16481
 31
0.0
  0
LINE
  5
69F
330
1F
100
AcDbEntity
  8
1
  6
CONTINUOUS
370
50
 62
4
100
AcDbLine
 10
127.63459
 20
-3.16481
 30
0.0
 11
127.770844
 21
-3.164587
 31
0.0
  0
LINE
  5
6A0
330
1F
100
AcDbEntity
  8
1
  6
CONTINUOUS
370
50
 62
4
100
AcDbLine
 10
127.770844
 20
-3.164587
 30
0.0
 11
127.905228
 21
-3.164356
 31
0.0
  0
LINE
  5
6A1
330
1F
100
AcDbEntity
  8
1
  6
CONTINUOUS
370
50
 62
4
100
AcDbLine
 10
127.905228
 20
-3.164356
 30
0.0
 11
128.034058
 21
-3.164125
 31
0.0
  0
LINE
  5
6A2
330
1F
100
AcDbEntity
  8
1
  6
CONTINUOUS
370
50
 62
4
100
AcDbLine
 10
128.034058
 20
-3.164125
 30
0.0
 11
128.162872
 21
-3.163887
 31
0.0
  0
LINE
  5
6A3
330
1F
100
AcDbEntity
  8
1
  6
CONTINUOUS
370
50
 62
4
100
AcDbLine
 10
128.162872
 20
-3.163887
 30
0.0
 11
128.291962
 21
-3.163642
 31
0.0
  0
LINE
  5
6A4
330
1F
100
AcDbEntity
  8
1
  6
CONTINUOUS
370
50
 62
4
100
AcDbLine
 10
128.291962
 20
-3.163642
 30
0.0
 11
128.419067
 21
-3.163396
 31
0.0
  0
LINE
  5
6A5
330
1F
100
AcDbEntity
  8
1
  6
CONTINUOUS
370
50
 62
4
100
AcDbLine
 10
129.287842
 20
-3.161667
 30
0.0
 11
129.423248
 21
-3.161403
 31
0.0
  0
LINE
  5
6A6
330
1F
100
AcDbEntity
  8
1
  6
CONTINUOUS
370
50
 62
4
100
AcDbLine
 10
128.419067
 20
-3.163396
 30
0.0
 11
128.543182
 21
-3.163152
 31
0.0
  0
LINE
  5
6A7
330
1F
100
AcDbEntity
  8
1
  6
CONTINUOUS
370
50
 62
4
100
AcDbLine
 10
129.163742
 20
-3.161912
 30
0.0
 11
129.287842
 21
-3.161667
 31
0.0
  0
LINE
  5
6A8
330
1F
100
AcDbEntity
  8
1
  6
CONTINUOUS
370
50
 62
4
100
AcDbLine
 10
128.543182
 20
-3.163152
 30
0.0
 11
128.667297
 21
-3.162905
 31
0.0
  0
LINE
  5
6A9
330
1F
100
AcDbEntity
  8
1
  6
CONTINUOUS
370
50
 62
4
100
AcDbLine
 10
129.039627
 20
-3.162159
 30
0.0
 11
129.163742
 21
-3.161912
 31
0.0
  0
LINE
  5
6AA
330
1F
100
AcDbEntity
  8
1
  6
CONTINUOUS
370
50
 62
4
100
AcDbLine
 10
128.667297
 20
-3.162905
 30
0.0
 11
128.791412
 21
-3.162657
 31
0.0
  0
LINE
  5
6AB
330
1F
100
AcDbEntity
  8
1
  6
CONTINUOUS
370
50
 62
4
100
AcDbLine
 10
128.791412
 20
-3.162657
 30
0.0
 11
129.039627
 21
-3.162159
 31
0.0
  0
LINE
  5
6AC
330
1F
100
AcDbEntity
  8
1
  6
CONTINUOUS
370
50
 62
4
100
AcDbLine
 10
119.83271
 20
1.071985
 30
0.0
 11
120.022446
 21
1.072604
 31
0.0
  0
LINE
  5
6AD
330
1F
100
AcDbEntity
  8
1
  6
CONTINUOUS
370
50
 62
4
100
AcDbLine
 10
138.674332
 20
5.274813
 30
0.0
 11
138.809769
 21
5.276115
 31
0.0
  0
LINE
  5
6AE
330
1F
100
AcDbEntity
  8
1
  6
CONTINUOUS
370
50
 62
4
100
AcDbLine
 10
139.473557
 20
5.992509
 30
0.0
 11
140.0
 21
5.999999
 31
0.0
  0
LINE
  5
6AF
330
1F
100
AcDbEntity
  8
1
  6
CONTINUOUS
370
50
 62
4
100
AcDbLine
 10
138.541031
 20
5.272272
 30
0.0
 11
138.674332
 21
5.274813
 31
0.0
  0
LINE
  5
6B0
330
1F
100
AcDbEntity
  8
1
  6
CONTINUOUS
370
50
 62
4
100
AcDbLine
 10
121.135117
 20
3.80882
 30
0.0
 11
121.426964
 21
3.816348
 31
0.0
  0
LINE
  5
6B1
330
1F
100
AcDbEntity
  8
1
  6
CONTINUOUS
370
50
 62
4
100
AcDbLine
 10
138.406982
 20
5.268517
 30
0.0
 11
138.541031
 21
5.272272
 31
0.0
  0
LINE
  5
6B2
330
1F
100
AcDbEntity
  8
1
  6
CONTINUOUS
370
50
 62
4
100
AcDbLine
 10
138.272278
 20
5.263571
 30
0.0
 11
138.406982
 21
5.268517
 31
0.0
  0
LINE
  5
6B3
330
1F
100
AcDbEntity
  8
1
  6
CONTINUOUS
370
50
 62
4
100
AcDbLine
 10
138.94548
 20
5.969819999999999
 30
0.0
 11
139.473557
 21
5.992509
 31
0.0
  0
LINE
  5
6B4
330
1F
100
AcDbEntity
  8
1
  6
CONTINUOUS
370
50
 62
4
100
AcDbLine
 10
138.13707
 20
5.257453
 30
0.0
 11
138.272278
 21
5.263571
 31
0.0
  0
LINE
  5
6B5
330
1F
100
AcDbEntity
  8
1
  6
CONTINUOUS
370
50
 62
4
100
AcDbLine
 10
117.742378
 20
-5.925015999999999
 30
0.0
 11
117.812202
 21
-5.921822
 31
0.0
  0
LINE
  5
6B6
330
1F
100
AcDbEntity
  8
1
  6
CONTINUOUS
370
50
 62
4
100
AcDbLine
 10
138.00145
 20
5.250185
 30
0.0
 11
138.13707
 21
5.257453
 31
0.0
  0
LINE
  5
6B7
330
1F
100
AcDbEntity
  8
1
  6
CONTINUOUS
370
50
 62
4
100
AcDbLine
 10
117.629501
 20
5.918748
 30
0.0
 11
117.742378
 21
5.925015999999999
 31
0.0
  0
LINE
  5
6B8
330
1F
100
AcDbEntity
  8
1
  6
CONTINUOUS
370
50
 62
4
100
AcDbLine
 10
120.022446
 20
1.072604
 30
0.0
 11
120.209343
 21
1.083552
 31
0.0
  0
LINE
  5
6B9
330
1F
100
AcDbEntity
  8
1
  6
CONTINUOUS
370
50
 62
4
100
AcDbLine
 10
137.865555
 20
5.241785999999999
 30
0.0
 11
138.00145
 21
5.250185
 31
0.0
  0
LINE
  5
6BA
330
1F
100
AcDbEntity
  8
1
  6
CONTINUOUS
370
50
 62
4
100
AcDbLine
 10
120.841034
 20
-3.828399
 30
0.0
 11
121.135117
 21
-3.80882
 31
0.0
  0
LINE
  5
6BB
330
1F
100
AcDbEntity
  8
1
  6
CONTINUOUS
370
50
 62
4
100
AcDbLine
 10
137.729492
 20
5.232278
 30
0.0
 11
137.865555
 21
5.241785999999999
 31
0.0
  0
LINE
  5
6BC
330
1F
100
AcDbEntity
  8
1
  6
CONTINUOUS
370
50
 62
4
100
AcDbLine
 10
138.417236
 20
5.932061
 30
0.0
 11
138.94548
 21
5.969819999999999
 31
0.0
  0
LINE
  5
6BD
330
1F
100
AcDbEntity
  8
1
  6
CONTINUOUS
370
50
 62
4
100
AcDbLine
 10
127.7994
 20
-3.17394
 30
0.0
 11
127.949417
 21
-3.162928
 31
0.0
  0
LINE
  5
6BE
330
1F
100
AcDbEntity
  8
1
  6
CONTINUOUS
370
50
 62
4
100
AcDbLine
 10
127.650299
 20
-3.185302
 30
0.0
 11
127.7994
 21
-3.17394
 31
0.0
  0
LINE
  5
6BF
330
1F
100
AcDbEntity
  8
1
  6
CONTINUOUS
370
50
 62
4
100
AcDbLine
 10
137.593414
 20
5.22168
 30
0.0
 11
137.729492
 21
5.232278
 31
0.0
  0
LINE
  5
6C0
330
1F
100
AcDbEntity
  8
1
  6
CONTINUOUS
370
50
 62
4
100
AcDbLine
 10
127.500961
 20
-3.197101
 30
0.0
 11
127.650299
 21
-3.185302
 31
0.0
  0
LINE
  5
6C1
330
1F
100
AcDbEntity
  8
1
  6
CONTINUOUS
370
50
 62
4
100
AcDbLine
 10
127.355759
 20
-3.208979
 30
0.0
 11
127.500961
 21
-3.197101
 31
0.0
  0
LINE
  5
6C2
330
1F
100
AcDbEntity
  8
1
  6
CONTINUOUS
370
50
 62
4
100
AcDbLine
 10
127.24028
 20
-3.218714
 30
0.0
 11
127.355759
 21
-3.208979
 31
0.0
  0
LINE
  5
6C3
330
1F
100
AcDbEntity
  8
1
  6
CONTINUOUS
370
50
 62
4
100
AcDbLine
 10
137.457413
 20
5.210014
 30
0.0
 11
137.593414
 21
5.22168
 31
0.0
  0
LINE
  5
6C4
330
1F
100
AcDbEntity
  8
1
  6
CONTINUOUS
370
50
 62
4
100
AcDbLine
 10
127.124809
 20
-3.228706
 30
0.0
 11
127.24028
 21
-3.218714
 31
0.0
  0
LINE
  5
6C5
330
1F
100
AcDbEntity
  8
1
  6
CONTINUOUS
370
50
 62
4
100
AcDbLine
 10
127.009331
 20
-3.238958
 30
0.0
 11
127.124809
 21
-3.228706
 31
0.0
  0
LINE
  5
6C6
330
1F
100
AcDbEntity
  8
1
  6
CONTINUOUS
370
50
 62
4
100
AcDbLine
 10
137.532181
 20
2.855971
 30
0.0
 11
137.588287
 21
2.861034
 31
0.0
  0
LINE
  5
6C7
330
1F
100
AcDbEntity
  8
1
  6
CONTINUOUS
370
50
 62
4
100
AcDbLine
 10
126.893852
 20
-3.249471
 30
0.0
 11
127.009331
 21
-3.238958
 31
0.0
  0
LINE
  5
6C8
330
1F
100
AcDbEntity
  8
1
  6
CONTINUOUS
370
50
 62
4
100
AcDbLine
 10
126.778381
 20
-3.260246
 30
0.0
 11
126.893852
 21
-3.249471
 31
0.0
  0
LINE
  5
6C9
330
1F
100
AcDbEntity
  8
1
  6
CONTINUOUS
370
50
 62
4
100
AcDbLine
 10
137.32164
 20
5.197299999999999
 30
0.0
 11
137.457413
 21
5.210014
 31
0.0
  0
LINE
  5
6CA
330
1F
100
AcDbEntity
  8
1
  6
CONTINUOUS
370
50
 62
4
100
AcDbLine
 10
126.66291
 20
-3.271286
 30
0.0
 11
126.778381
 21
-3.260246
 31
0.0
  0
LINE
  5
6CB
330
1F
100
AcDbEntity
  8
1
  6
CONTINUOUS
370
50
 62
4
100
AcDbLine
 10
126.547447
 20
-3.282594
 30
0.0
 11
126.66291
 21
-3.271286
 31
0.0
  0
LINE
  5
6CC
330
1F
100
AcDbEntity
  8
1
  6
CONTINUOUS
370
50
 62
4
100
AcDbLine
 10
137.890244
 20
5.879363
 30
0.0
 11
138.417236
 21
5.932061
 31
0.0
  0
LINE
  5
6CD
330
1F
100
AcDbEntity
  8
1
  6
CONTINUOUS
370
50
 62
4
100
AcDbLine
 10
126.429565
 20
-3.294418
 30
0.0
 11
126.547447
 21
-3.282594
 31
0.0
  0
LINE
  5
6CE
330
1F
100
AcDbEntity
  8
1
  6
CONTINUOUS
370
50
 62
4
100
AcDbLine
 10
126.293869
 20
-3.308377
 30
0.0
 11
126.429565
 21
-3.294418
 31
0.0
  0
LINE
  5
6CF
330
1F
100
AcDbEntity
  8
1
  6
CONTINUOUS
370
50
 62
4
100
AcDbLine
 10
126.160698
 20
-3.322446
 30
0.0
 11
126.293869
 21
-3.308377
 31
0.0
  0
LINE
  5
6D0
330
1F
100
AcDbEntity
  8
1
  6
CONTINUOUS
370
50
 62
4
100
AcDbLine
 10
126.026779
 20
-3.336967
 30
0.0
 11
126.160698
 21
-3.322446
 31
0.0
  0
LINE
  5
6D1
330
1F
100
AcDbEntity
  8
1
  6
CONTINUOUS
370
50
 62
4
100
AcDbLine
 10
125.897903
 20
-3.351294
 30
0.0
 11
126.026779
 21
-3.336967
 31
0.0
  0
LINE
  5
6D2
330
1F
100
AcDbEntity
  8
1
  6
CONTINUOUS
370
50
 62
4
100
AcDbLine
 10
125.77446
 20
-3.365349
 30
0.0
 11
125.897903
 21
-3.351294
 31
0.0
  0
LINE
  5
6D3
330
1F
100
AcDbEntity
  8
1
  6
CONTINUOUS
370
50
 62
4
100
AcDbLine
 10
120.209343
 20
1.083552
 30
0.0
 11
120.39257
 21
1.104452
 31
0.0
  0
LINE
  5
6D4
330
1F
100
AcDbEntity
  8
1
  6
CONTINUOUS
370
50
 62
4
100
AcDbLine
 10
125.651024
 20
-3.379686
 30
0.0
 11
125.77446
 21
-3.365349
 31
0.0
  0
LINE
  5
6D5
330
1F
100
AcDbEntity
  8
1
  6
CONTINUOUS
370
50
 62
4
100
AcDbLine
 10
125.527573
 20
-3.394226
 30
0.0
 11
125.651024
 21
-3.379686
 31
0.0
  0
LINE
  5
6D6
330
1F
100
AcDbEntity
  8
1
  6
CONTINUOUS
370
50
 62
4
100
AcDbLine
 10
121.426964
 20
3.816348
 30
0.0
 11
121.71608
 21
3.850722
 31
0.0
  0
LINE
  5
6D7
330
1F
100
AcDbEntity
  8
1
  6
CONTINUOUS
370
50
 62
4
100
AcDbLine
 10
125.404137
 20
-3.408961
 30
0.0
 11
125.527573
 21
-3.394226
 31
0.0
  0
LINE
  5
6D8
330
1F
100
AcDbEntity
  8
1
  6
CONTINUOUS
370
50
 62
4
100
AcDbLine
 10
125.28067
 20
-3.423894
 30
0.0
 11
125.404137
 21
-3.408961
 31
0.0
  0
LINE
  5
6D9
330
1F
100
AcDbEntity
  8
1
  6
CONTINUOUS
370
50
 62
4
100
AcDbLine
 10
125.157219
 20
-3.439021
 30
0.0
 11
125.28067
 21
-3.423894
 31
0.0
  0
LINE
  5
6DA
330
1F
100
AcDbEntity
  8
1
  6
CONTINUOUS
370
50
 62
4
100
AcDbLine
 10
125.032684
 20
-3.454474
 30
0.0
 11
125.157219
 21
-3.439021
 31
0.0
  0
LINE
  5
6DB
330
1F
100
AcDbEntity
  8
1
  6
CONTINUOUS
370
50
 62
4
100
AcDbLine
 10
124.914742
 20
-3.46929
 30
0.0
 11
125.032684
 21
-3.454474
 31
0.0
  0
LINE
  5
6DC
330
1F
100
AcDbEntity
  8
1
  6
CONTINUOUS
370
50
 62
4
100
AcDbLine
 10
124.799583
 20
-3.483924
 30
0.0
 11
124.914742
 21
-3.46929
 31
0.0
  0
LINE
  5
6DD
330
1F
100
AcDbEntity
  8
1
  6
CONTINUOUS
370
50
 62
4
100
AcDbLine
 10
124.684433
 20
-3.498723
 30
0.0
 11
124.799583
 21
-3.483924
 31
0.0
  0
LINE
  5
6DE
330
1F
100
AcDbEntity
  8
1
  6
CONTINUOUS
370
50
 62
4
100
AcDbLine
 10
137.370102
 20
5.812348999999999
 30
0.0
 11
137.890244
 21
5.879363
 31
0.0
  0
LINE
  5
6DF
330
1F
100
AcDbEntity
  8
1
  6
CONTINUOUS
370
50
 62
4
100
AcDbLine
 10
124.569283
 20
-3.513687
 30
0.0
 11
124.684433
 21
-3.498723
 31
0.0
  0
LINE
  5
6E0
330
1F
100
AcDbEntity
  8
1
  6
CONTINUOUS
370
50
 62
4
100
AcDbLine
 10
120.726852
 20
-3.843352
 30
0.0
 11
120.841034
 21
-3.828399
 31
0.0
  0
LINE
  5
6E1
330
1F
100
AcDbEntity
  8
1
  6
CONTINUOUS
370
50
 62
4
100
AcDbLine
 10
124.444878
 20
-3.530041
 30
0.0
 11
124.569283
 21
-3.513687
 31
0.0
  0
LINE
  5
6E2
330
1F
100
AcDbEntity
  8
1
  6
CONTINUOUS
370
50
 62
4
100
AcDbLine
 10
124.310951
 20
-3.547858
 30
0.0
 11
124.444878
 21
-3.530041
 31
0.0
  0
LINE
  5
6E3
330
1F
100
AcDbEntity
  8
1
  6
CONTINUOUS
370
50
 62
4
100
AcDbLine
 10
124.178482
 20
-3.565703
 30
0.0
 11
124.310951
 21
-3.547858
 31
0.0
  0
LINE
  5
6E4
330
1F
100
AcDbEntity
  8
1
  6
CONTINUOUS
370
50
 62
4
100
AcDbLine
 10
136.518661
 20
4.680854
 30
0.0
 11
137.479904
 21
4.810525
 31
0.0
  0
LINE
  5
6E5
330
1F
100
AcDbEntity
  8
1
  6
CONTINUOUS
370
50
 62
4
100
AcDbLine
 10
124.046005
 20
-3.583767
 30
0.0
 11
124.178482
 21
-3.565703
 31
0.0
  0
LINE
  5
6E6
330
1F
100
AcDbEntity
  8
1
  6
CONTINUOUS
370
50
 62
4
100
AcDbLine
 10
123.913536
 20
-3.60205
 30
0.0
 11
124.046005
 21
-3.583767
 31
0.0
  0
LINE
  5
6E7
330
1F
100
AcDbEntity
  8
1
  6
CONTINUOUS
370
50
 62
4
100
AcDbLine
 10
123.781067
 20
-3.620553
 30
0.0
 11
123.913536
 21
-3.60205
 31
0.0
  0
LINE
  5
6E8
330
1F
100
AcDbEntity
  8
1
  6
CONTINUOUS
370
50
 62
4
100
AcDbLine
 10
117.500694
 20
5.900569
 30
0.0
 11
117.629501
 21
5.918748
 31
0.0
  0
LINE
  5
6E9
330
1F
100
AcDbEntity
  8
1
  6
CONTINUOUS
370
50
 62
4
100
AcDbLine
 10
123.648598
 20
-3.639277
 30
0.0
 11
123.781067
 21
-3.620553
 31
0.0
  0
LINE
  5
6EA
330
1F
100
AcDbEntity
  8
1
  6
CONTINUOUS
370
50
 62
4
100
AcDbLine
 10
123.516129
 20
-3.658221
 30
0.0
 11
123.648598
 21
-3.639277
 31
0.0
  0
LINE
  5
6EB
330
1F
100
AcDbEntity
  8
1
  6
CONTINUOUS
370
50
 62
4
100
AcDbLine
 10
123.326828
 20
-3.685685
 30
0.0
 11
123.516129
 21
-3.658221
 31
0.0
  0
LINE
  5
6EC
330
1F
100
AcDbEntity
  8
1
  6
CONTINUOUS
370
50
 62
4
100
AcDbLine
 10
123.1091
 20
-3.717834
 30
0.0
 11
123.326828
 21
-3.685685
 31
0.0
  0
LINE
  5
6ED
330
1F
100
AcDbEntity
  8
1
  6
CONTINUOUS
370
50
 62
4
100
AcDbLine
 10
122.967194
 20
-3.739115
 30
0.0
 11
123.1091
 21
-3.717834
 31
0.0
  0
LINE
  5
6EE
330
1F
100
AcDbEntity
  8
1
  6
CONTINUOUS
370
50
 62
4
100
AcDbLine
 10
114.43277
 20
5.030171999999999
 30
0.0
 11
114.478424
 21
5.037058
 31
0.0
  0
LINE
  5
6EF
330
1F
100
AcDbEntity
  8
1
  6
CONTINUOUS
370
50
 62
4
100
AcDbLine
 10
122.829025
 20
-3.760092
 30
0.0
 11
122.967194
 21
-3.739115
 31
0.0
  0
LINE
  5
6F0
330
1F
100
AcDbEntity
  8
1
  6
CONTINUOUS
370
50
 62
4
100
AcDbLine
 10
122.690849
 20
-3.78132
 30
0.0
 11
122.829025
 21
-3.760092
 31
0.0
  0
LINE
  5
6F1
330
1F
100
AcDbEntity
  8
1
  6
CONTINUOUS
370
50
 62
4
100
AcDbLine
 10
122.552681
 20
-3.802801
 30
0.0
 11
122.690849
 21
-3.78132
 31
0.0
  0
LINE
  5
6F2
330
1F
100
AcDbEntity
  8
1
  6
CONTINUOUS
370
50
 62
4
100
AcDbLine
 10
122.414513
 20
-3.824537
 30
0.0
 11
122.552681
 21
-3.802801
 31
0.0
  0
LINE
  5
6F3
330
1F
100
AcDbEntity
  8
1
  6
CONTINUOUS
370
50
 62
4
100
AcDbLine
 10
136.859283
 20
5.731732999999999
 30
0.0
 11
137.370102
 21
5.812348999999999
 31
0.0
  0
LINE
  5
6F4
330
1F
100
AcDbEntity
  8
1
  6
CONTINUOUS
370
50
 62
4
100
AcDbLine
 10
122.276337
 20
-3.846531
 30
0.0
 11
122.414513
 21
-3.824537
 31
0.0
  0
LINE
  5
6F5
330
1F
100
AcDbEntity
  8
1
  6
CONTINUOUS
370
50
 62
4
100
AcDbLine
 10
117.812202
 20
-5.921822
 30
0.0
 11
117.873871
 21
-5.911995
 31
0.0
  0
LINE
  5
6F6
330
1F
100
AcDbEntity
  8
1
  6
CONTINUOUS
370
50
 62
4
100
AcDbLine
 10
122.138168
 20
-3.868785
 30
0.0
 11
122.276337
 21
-3.846531
 31
0.0
  0
LINE
  5
6F7
330
1F
100
AcDbEntity
  8
1
  6
CONTINUOUS
370
50
 62
4
100
AcDbLine
 10
122.0
 20
-3.891302
 30
0.0
 11
122.138168
 21
-3.868785
 31
0.0
  0
LINE
  5
6F8
330
1F
100
AcDbEntity
  8
1
  6
CONTINUOUS
370
50
 62
4
100
AcDbLine
 10
120.39257
 20
1.104452
 30
0.0
 11
120.538895
 21
1.128633
 31
0.0
  0
LINE
  5
6F9
330
1F
100
AcDbEntity
  8
1
  6
CONTINUOUS
370
50
 62
4
100
AcDbLine
 10
135.557419
 20
4.508843
 30
0.0
 11
136.518661
 21
4.680854
 31
0.0
  0
LINE
  5
6FA
330
1F
100
AcDbEntity
  8
1
  6
CONTINUOUS
370
50
 62
4
100
AcDbLine
 10
136.356171
 20
5.637925
 30
0.0
 11
136.859283
 21
5.731732999999999
 31
0.0
  0
LINE
  5
6FB
330
1F
100
AcDbEntity
  8
1
  6
CONTINUOUS
370
50
 62
4
100
AcDbLine
 10
120.491356
 20
-3.887332
 30
0.0
 11
120.726852
 21
-3.843352
 31
0.0
  0
LINE
  5
6FC
330
1F
100
AcDbEntity
  8
1
  6
CONTINUOUS
370
50
 62
4
100
AcDbLine
 10
114.388237
 20
5.021650999999999
 30
0.0
 11
114.43277
 21
5.030171999999999
 31
0.0
  0
LINE
  5
6FD
330
1F
100
AcDbEntity
  8
1
  6
CONTINUOUS
370
50
 62
4
100
AcDbLine
 10
117.356331
 20
5.871322999999999
 30
0.0
 11
117.500694
 21
5.900569
 31
0.0
  0
LINE
  5
6FE
330
1F
100
AcDbEntity
  8
1
  6
CONTINUOUS
370
50
 62
4
100
AcDbLine
 10
120.538895
 20
1.128633
 30
0.0
 11
120.681061
 21
1.158809
 31
0.0
  0
LINE
  5
6FF
330
1F
100
AcDbEntity
  8
1
  6
CONTINUOUS
370
50
 62
4
100
AcDbLine
 10
121.71608
 20
3.850722
 30
0.0
 11
122.0
 21
3.911511
 31
0.0
  0
LINE
  5
700
330
1F
100
AcDbEntity
  8
1
  6
CONTINUOUS
370
50
 62
4
100
AcDbLine
 10
135.858307
 20
5.531314999999999
 30
0.0
 11
136.356171
 21
5.637925
 31
0.0
  0
LINE
  5
701
330
1F
100
AcDbEntity
  8
1
  6
CONTINUOUS
370
50
 62
4
100
AcDbLine
 10
134.596191
 20
4.300914
 30
0.0
 11
135.557419
 21
4.508843
 31
0.0
  0
LINE
  5
702
330
1F
100
AcDbEntity
  8
1
  6
CONTINUOUS
370
50
 62
4
100
AcDbLine
 10
114.478424
 20
5.037058
 30
0.0
 11
114.752975
 21
5.097128
 31
0.0
  0
LINE
  5
703
330
1F
100
AcDbEntity
  8
1
  6
CONTINUOUS
370
50
 62
4
100
AcDbLine
 10
114.345001
 20
5.011464
 30
0.0
 11
114.388237
 21
5.021650999999999
 31
0.0
  0
LINE
  5
704
330
1F
100
AcDbEntity
  8
1
  6
CONTINUOUS
370
50
 62
4
100
AcDbLine
 10
135.358368
 20
5.412147
 30
0.0
 11
135.858307
 21
5.531314999999999
 31
0.0
  0
LINE
  5
705
330
1F
100
AcDbEntity
  8
1
  6
CONTINUOUS
370
50
 62
4
100
AcDbLine
 10
114.752975
 20
5.097128
 30
0.0
 11
115.019669
 21
5.162878999999999
 31
0.0
  0
LINE
  5
706
330
1F
100
AcDbEntity
  8
1
  6
CONTINUOUS
370
50
 62
4
100
AcDbLine
 10
121.604515
 20
0.8532879999999999
 30
0.0
 11
122.0
 21
0.9512889999999999
 31
0.0
  0
LINE
  5
707
330
1F
100
AcDbEntity
  8
1
  6
CONTINUOUS
370
50
 62
4
100
AcDbLine
 10
117.197823
 20
5.831996
 30
0.0
 11
117.356331
 21
5.871322999999999
 31
0.0
  0
LINE
  5
708
330
1F
100
AcDbEntity
  8
1
  6
CONTINUOUS
370
50
 62
4
100
AcDbLine
 10
133.634949
 20
4.058497
 30
0.0
 11
134.596191
 21
4.300914
 31
0.0
  0
LINE
  5
709
330
1F
100
AcDbEntity
  8
1
  6
CONTINUOUS
370
50
 62
4
100
AcDbLine
 10
120.681061
 20
1.158809
 30
0.0
 11
120.817917
 21
1.194453
 31
0.0
  0
LINE
  5
70A
330
1F
100
AcDbEntity
  8
1
  6
CONTINUOUS
370
50
 62
4
100
AcDbLine
 10
134.855804
 20
5.280730999999999
 30
0.0
 11
135.358368
 21
5.412147
 31
0.0
  0
LINE
  5
70B
330
1F
100
AcDbEntity
  8
1
  6
CONTINUOUS
370
50
 62
4
100
AcDbLine
 10
120.256897
 20
-3.949076
 30
0.0
 11
120.491356
 21
-3.887332
 31
0.0
  0
LINE
  5
70C
330
1F
100
AcDbEntity
  8
1
  6
CONTINUOUS
370
50
 62
4
100
AcDbLine
 10
137.588287
 20
2.861034
 30
0.0
 11
137.639465
 21
2.874807
 31
0.0
  0
LINE
  5
70D
330
1F
100
AcDbEntity
  8
1
  6
CONTINUOUS
370
50
 62
4
100
AcDbLine
 10
115.019669
 20
5.162878999999999
 30
0.0
 11
115.278267
 21
5.232921
 31
0.0
  0
LINE
  5
70E
330
1F
100
AcDbEntity
  8
1
  6
CONTINUOUS
370
50
 62
4
100
AcDbLine
 10
117.026283
 20
5.78383
 30
0.0
 11
117.197823
 21
5.831996
 31
0.0
  0
LINE
  5
70F
330
1F
100
AcDbEntity
  8
1
  6
CONTINUOUS
370
50
 62
4
100
AcDbLine
 10
134.351608
 20
5.137408
 30
0.0
 11
134.855804
 21
5.280730999999999
 31
0.0
  0
LINE
  5
710
330
1F
100
AcDbEntity
  8
1
  6
CONTINUOUS
370
50
 62
4
100
AcDbLine
 10
114.303215
 20
4.999579
 30
0.0
 11
114.345001
 21
5.011464
 31
0.0
  0
LINE
  5
711
330
1F
100
AcDbEntity
  8
1
  6
CONTINUOUS
370
50
 62
4
100
AcDbLine
 10
132.673721
 20
3.782264
 30
0.0
 11
133.634949
 21
4.058497
 31
0.0
  0
LINE
  5
712
330
1F
100
AcDbEntity
  8
1
  6
CONTINUOUS
370
50
 62
4
100
AcDbLine
 10
121.219231
 20
0.741796
 30
0.0
 11
121.604515
 21
0.8532879999999999
 31
0.0
  0
LINE
  5
713
330
1F
100
AcDbEntity
  8
1
  6
CONTINUOUS
370
50
 62
4
100
AcDbLine
 10
115.278267
 20
5.232921
 30
0.0
 11
115.528526
 21
5.305861
 31
0.0
  0
LINE
  5
714
330
1F
100
AcDbEntity
  8
1
  6
CONTINUOUS
370
50
 62
4
100
AcDbLine
 10
116.842583
 20
5.728095
 30
0.0
 11
117.026283
 21
5.78383
 31
0.0
  0
LINE
  5
715
330
1F
100
AcDbEntity
  8
1
  6
CONTINUOUS
370
50
 62
4
100
AcDbLine
 10
133.846771
 20
4.982514999999999
 30
0.0
 11
134.351608
 21
5.137408
 31
0.0
  0
LINE
  5
716
330
1F
100
AcDbEntity
  8
1
  6
CONTINUOUS
370
50
 62
4
100
AcDbLine
 10
115.528526
 20
5.305861
 30
0.0
 11
115.770195
 21
5.380307
 31
0.0
  0
LINE
  5
717
330
1F
100
AcDbEntity
  8
1
  6
CONTINUOUS
370
50
 62
4
100
AcDbLine
 10
120.817917
 20
1.194453
 30
0.0
 11
120.949036
 21
1.235151
 31
0.0
  0
LINE
  5
718
330
1F
100
AcDbEntity
  8
1
  6
CONTINUOUS
370
50
 62
4
100
AcDbLine
 10
117.873871
 20
-5.911995
 30
0.0
 11
117.927269
 21
-5.895242
 31
0.0
  0
LINE
  5
719
330
1F
100
AcDbEntity
  8
1
  6
CONTINUOUS
370
50
 62
4
100
AcDbLine
 10
116.64756
 20
5.666062
 30
0.0
 11
116.842583
 21
5.728095
 31
0.0
  0
LINE
  5
71A
330
1F
100
AcDbEntity
  8
1
  6
CONTINUOUS
370
50
 62
4
100
AcDbLine
 10
115.770195
 20
5.380307
 30
0.0
 11
116.003029
 21
5.454869
 31
0.0
  0
LINE
  5
71B
330
1F
100
AcDbEntity
  8
1
  6
CONTINUOUS
370
50
 62
4
100
AcDbLine
 10
131.712479
 20
3.47112
 30
0.0
 11
132.673721
 21
3.782264
 31
0.0
  0
LINE
  5
71C
330
1F
100
AcDbEntity
  8
1
  6
CONTINUOUS
370
50
 62
4
100
AcDbLine
 10
116.44207
 20
5.598999999999999
 30
0.0
 11
116.64756
 21
5.666062
 31
0.0
  0
LINE
  5
71D
330
1F
100
AcDbEntity
  8
1
  6
CONTINUOUS
370
50
 62
4
100
AcDbLine
 10
116.003029
 20
5.454869
 30
0.0
 11
116.226959
 21
5.528181
 31
0.0
  0
LINE
  5
71E
330
1F
100
AcDbEntity
  8
1
  6
CONTINUOUS
370
50
 62
4
100
AcDbLine
 10
116.226959
 20
5.528181
 30
0.0
 11
116.44207
 21
5.598999999999999
 31
0.0
  0
LINE
  5
71F
330
1F
100
AcDbEntity
  8
1
  6
CONTINUOUS
370
50
 62
4
100
AcDbLine
 10
133.34227
 20
4.816392
 30
0.0
 11
133.846771
 21
4.982514999999999
 31
0.0
  0
LINE
  5
720
330
1F
100
AcDbEntity
  8
1
  6
CONTINUOUS
370
50
 62
4
100
AcDbLine
 10
120.844116
 20
0.6173299999999999
 30
0.0
 11
121.219231
 21
0.741796
 31
0.0
  0
LINE
  5
721
330
1F
100
AcDbEntity
  8
1
  6
CONTINUOUS
370
50
 62
4
100
AcDbLine
 10
114.263046
 20
4.98597
 30
0.0
 11
114.303215
 21
4.999579
 31
0.0
  0
LINE
  5
722
330
1F
100
AcDbEntity
  8
1
  6
CONTINUOUS
370
50
 62
4
100
AcDbLine
 10
119.971153
 20
-4.049582
 30
0.0
 11
120.256897
 21
-3.949076
 31
0.0
  0
LINE
  5
723
330
1F
100
AcDbEntity
  8
1
  6
CONTINUOUS
370
50
 62
4
100
AcDbLine
 10
132.839096
 20
4.639377
 30
0.0
 11
133.34227
 21
4.816392
 31
0.0
  0
LINE
  5
724
330
1F
100
AcDbEntity
  8
1
  6
CONTINUOUS
370
50
 62
4
100
AcDbLine
 10
130.751236
 20
3.124164
 30
0.0
 11
131.712479
 21
3.47112
 31
0.0
  0
LINE
  5
725
330
1F
100
AcDbEntity
  8
1
  6
CONTINUOUS
370
50
 62
4
100
AcDbLine
 10
120.949036
 20
1.235151
 30
0.0
 11
121.073997
 21
1.280489
 31
0.0
  0
LINE
  5
726
330
1F
100
AcDbEntity
  8
1
  6
CONTINUOUS
370
50
 62
4
100
AcDbLine
 10
132.338242
 20
4.451809
 30
0.0
 11
132.839096
 21
4.639377
 31
0.0
  0
LINE
  5
727
330
1F
100
AcDbEntity
  8
1
  6
CONTINUOUS
370
50
 62
4
100
AcDbLine
 10
120.479172
 20
0.480403
 30
0.0
 11
120.844116
 21
0.6173299999999999
 31
0.0
  0
LINE
  5
728
330
1F
100
AcDbEntity
  8
1
  6
CONTINUOUS
370
50
 62
4
100
AcDbLine
 10
131.842712
 20
4.254677
 30
0.0
 11
132.338242
 21
4.451809
 31
0.0
  0
LINE
  5
729
330
1F
100
AcDbEntity
  8
1
  6
CONTINUOUS
370
50
 62
4
100
AcDbLine
 10
114.224945
 20
4.970725
 30
0.0
 11
114.263046
 21
4.98597
 31
0.0
  0
LINE
  5
72A
330
1F
100
AcDbEntity
  8
1
  6
CONTINUOUS
370
50
 62
4
100
AcDbLine
 10
121.073997
 20
1.280489
 30
0.0
 11
121.19239
 21
1.330052
 31
0.0
  0
LINE
  5
72B
330
1F
100
AcDbEntity
  8
1
  6
CONTINUOUS
370
50
 62
4
100
AcDbLine
 10
120.124374
 20
0.33153
 30
0.0
 11
120.479172
 21
0.480403
 31
0.0
  0
LINE
  5
72C
330
1F
100
AcDbEntity
  8
1
  6
CONTINUOUS
370
50
 62
4
100
AcDbLine
 10
131.358139
 20
4.05038
 30
0.0
 11
131.842712
 21
4.254677
 31
0.0
  0
LINE
  5
72D
330
1F
100
AcDbEntity
  8
1
  6
CONTINUOUS
370
50
 62
4
100
AcDbLine
 10
130.879349
 20
3.83856
 30
0.0
 11
131.358139
 21
4.05038
 31
0.0
  0
LINE
  5
72E
330
1F
100
AcDbEntity
  8
1
  6
CONTINUOUS
370
50
 62
4
100
AcDbLine
 10
119.690674
 20
-4.176978
 30
0.0
 11
119.971153
 21
-4.049582
 31
0.0
  0
LINE
  5
72F
330
1F
100
AcDbEntity
  8
1
  6
CONTINUOUS
370
50
 62
4
100
AcDbLine
 10
130.400772
 20
3.619071
 30
0.0
 11
130.879349
 21
3.83856
 31
0.0
  0
LINE
  5
730
330
1F
100
AcDbEntity
  8
1
  6
CONTINUOUS
370
50
 62
4
100
AcDbLine
 10
119.779716
 20
0.171225
 30
0.0
 11
120.124374
 21
0.33153
 31
0.0
  0
LINE
  5
731
330
1F
100
AcDbEntity
  8
1
  6
CONTINUOUS
370
50
 62
4
100
AcDbLine
 10
114.189186
 20
4.953903
 30
0.0
 11
114.224945
 21
4.970725
 31
0.0
  0
LINE
  5
732
330
1F
100
AcDbEntity
  8
1
  6
CONTINUOUS
370
50
 62
4
100
AcDbLine
 10
129.920837
 20
3.393257
 30
0.0
 11
130.400772
 21
3.619071
 31
0.0
  0
LINE
  5
733
330
1F
100
AcDbEntity
  8
1
  6
CONTINUOUS
370
50
 62
4
100
AcDbLine
 10
121.19239
 20
1.330052
 30
0.0
 11
121.303795
 21
1.383425
 31
0.0
  0
LINE
  5
734
330
1F
100
AcDbEntity
  8
1
  6
CONTINUOUS
370
50
 62
4
100
AcDbLine
 10
129.438477
 20
3.160853
 30
0.0
 11
129.920837
 21
3.393257
 31
0.0
  0
LINE
  5
735
330
1F
100
AcDbEntity
  8
1
  6
CONTINUOUS
370
50
 62
4
100
AcDbLine
 10
137.639465
 20
2.874807
 30
0.0
 11
137.685593
 21
2.89726
 31
0.0
  0
LINE
  5
736
330
1F
100
AcDbEntity
  8
1
  6
CONTINUOUS
370
50
 62
4
100
AcDbLine
 10
119.445175
 20
0.0
 30
0.0
 11
119.779716
 21
0.171225
 31
0.0
  0
LINE
  5
737
330
1F
100
AcDbEntity
  8
1
  6
CONTINUOUS
370
50
 62
4
100
AcDbLine
 10
117.927269
 20
-5.895242
 30
0.0
 11
117.972305
 21
-5.871267
 31
0.0
  0
LINE
  5
738
330
1F
100
AcDbEntity
  8
1
  6
CONTINUOUS
370
50
 62
4
100
AcDbLine
 10
119.37397
 20
-0.03851
 30
0.0
 11
119.445175
 21
0.0
 31
0.0
  0
LINE
  5
739
330
1F
100
AcDbEntity
  8
1
  6
CONTINUOUS
370
50
 62
4
100
AcDbLine
 10
121.303795
 20
1.383425
 30
0.0
 11
121.407768
 21
1.44018
 31
0.0
  0
LINE
  5
73A
330
1F
100
AcDbEntity
  8
1
  6
CONTINUOUS
370
50
 62
4
100
AcDbLine
 10
119.303246
 20
-0.077508
 30
0.0
 11
119.37397
 21
-0.03851
 31
0.0
  0
LINE
  5
73B
330
1F
100
AcDbEntity
  8
1
  6
CONTINUOUS
370
50
 62
4
100
AcDbLine
 10
114.155853
 20
4.935517
 30
0.0
 11
114.189186
 21
4.953903
 31
0.0
  0
LINE
  5
73C
330
1F
100
AcDbEntity
  8
1
  6
CONTINUOUS
370
50
 62
4
100
AcDbLine
 10
119.232994
 20
-0.116984
 30
0.0
 11
119.303246
 21
-0.077508
 31
0.0
  0
LINE
  5
73D
330
1F
100
AcDbEntity
  8
1
  6
CONTINUOUS
370
50
 62
4
100
AcDbLine
 10
119.420181
 20
-4.329346999999999
 30
0.0
 11
119.690674
 21
-4.176978
 31
0.0
  0
LINE
  5
73E
330
1F
100
AcDbEntity
  8
1
  6
CONTINUOUS
370
50
 62
4
100
AcDbLine
 10
119.163223
 20
-0.156933
 30
0.0
 11
119.232994
 21
-0.116984
 31
0.0
  0
LINE
  5
73F
330
1F
100
AcDbEntity
  8
1
  6
CONTINUOUS
370
50
 62
4
100
AcDbLine
 10
79.80000299999999
 20
-5.99995
 30
0.0
 11
79.929901
 21
-5.92495
 31
0.0
  0
LINE
  5
740
330
1F
100
AcDbEntity
  8
1
  6
CONTINUOUS
370
50
 62
4
100
AcDbLine
 10
119.093918
 20
-0.19735
 30
0.0
 11
119.163223
 21
-0.156933
 31
0.0
  0
LINE
  5
741
330
1F
100
AcDbEntity
  8
1
  6
CONTINUOUS
370
50
 62
4
100
AcDbLine
 10
119.025093
 20
-0.23823
 30
0.0
 11
119.093918
 21
-0.19735
 31
0.0
  0
LINE
  5
742
330
1F
100
AcDbEntity
  8
1
  6
CONTINUOUS
370
50
 62
4
100
AcDbLine
 10
118.956741
 20
-0.279568
 30
0.0
 11
119.025093
 21
-0.23823
 31
0.0
  0
LINE
  5
743
330
1F
100
AcDbEntity
  8
1
  6
CONTINUOUS
370
50
 62
4
100
AcDbLine
 10
121.407768
 20
1.44018
 30
0.0
 11
121.503448
 21
1.499594
 31
0.0
  0
LINE
  5
744
330
1F
100
AcDbEntity
  8
1
  6
CONTINUOUS
370
50
 62
4
100
AcDbLine
 10
118.807495
 20
-0.373107
 30
0.0
 11
118.956741
 21
-0.279568
 31
0.0
  0
LINE
  5
745
330
1F
100
AcDbEntity
  8
1
  6
CONTINUOUS
370
50
 62
4
100
AcDbLine
 10
114.125053
 20
4.915581
 30
0.0
 11
114.155853
 21
4.935517
 31
0.0
  0
LINE
  5
746
330
1F
100
AcDbEntity
  8
1
  6
CONTINUOUS
370
50
 62
4
100
AcDbLine
 10
118.662109
 20
-0.469178
 30
0.0
 11
118.807495
 21
-0.373107
 31
0.0
  0
LINE
  5
747
330
1F
100
AcDbEntity
  8
1
  6
CONTINUOUS
370
50
 62
4
100
AcDbLine
 10
119.159286
 20
-4.507095
 30
0.0
 11
119.420181
 21
-4.329346999999999
 31
0.0
  0
LINE
  5
748
330
1F
100
AcDbEntity
  8
1
  6
CONTINUOUS
370
50
 62
4
100
AcDbLine
 10
118.520691
 20
-0.567636
 30
0.0
 11
118.662109
 21
-0.469178
 31
0.0
  0
LINE
  5
749
330
1F
100
AcDbEntity
  8
1
  6
CONTINUOUS
370
50
 62
4
100
AcDbLine
 10
121.503448
 20
1.499594
 30
0.0
 11
121.590363
 21
1.561122
 31
0.0
  0
LINE
  5
74A
330
1F
100
AcDbEntity
  8
1
  6
CONTINUOUS
370
50
 62
4
100
AcDbLine
 10
118.383362
 20
-0.668338
 30
0.0
 11
118.520691
 21
-0.567636
 31
0.0
  0
LINE
  5
74B
330
1F
100
AcDbEntity
  8
1
  6
CONTINUOUS
370
50
 62
4
100
AcDbLine
 10
137.685593
 20
2.89726
 30
0.0
 11
137.726501
 21
2.928325
 31
0.0
  0
LINE
  5
74C
330
1F
100
AcDbEntity
  8
1
  6
CONTINUOUS
370
50
 62
4
100
AcDbLine
 10
114.096916
 20
4.894136
 30
0.0
 11
114.125053
 21
4.915581
 31
0.0
  0
LINE
  5
74D
330
1F
100
AcDbEntity
  8
1
  6
CONTINUOUS
370
50
 62
4
100
AcDbLine
 10
118.250237
 20
-0.7711399999999999
 30
0.0
 11
118.383362
 21
-0.668338
 31
0.0
  0
LINE
  5
74E
330
1F
100
AcDbEntity
  8
1
  6
CONTINUOUS
370
50
 62
4
100
AcDbLine
 10
119.003311
 20
-4.629672
 30
0.0
 11
119.159286
 21
-4.507095
 31
0.0
  0
LINE
  5
74F
330
1F
100
AcDbEntity
  8
1
  6
CONTINUOUS
370
50
 62
4
100
AcDbLine
 10
121.590363
 20
1.561122
 30
0.0
 11
121.668236
 21
1.624338
 31
0.0
  0
LINE
  5
750
330
1F
100
AcDbEntity
  8
1
  6
CONTINUOUS
370
50
 62
4
100
AcDbLine
 10
118.121422
 20
-0.875898
 30
0.0
 11
118.250237
 21
-0.7711399999999999
 31
0.0
  0
LINE
  5
751
330
1F
100
AcDbEntity
  8
1
  6
CONTINUOUS
370
50
 62
4
100
AcDbLine
 10
117.997025
 20
-0.9824689999999999
 30
0.0
 11
118.121422
 21
-0.875898
 31
0.0
  0
LINE
  5
752
330
1F
100
AcDbEntity
  8
1
  6
CONTINUOUS
370
50
 62
4
100
AcDbLine
 10
117.972305
 20
-5.871267
 30
0.0
 11
118.008629
 21
-5.840017
 31
0.0
  0
LINE
  5
753
330
1F
100
AcDbEntity
  8
1
  6
CONTINUOUS
370
50
 62
4
100
AcDbLine
 10
118.837906
 20
-4.774774
 30
0.0
 11
119.003311
 21
-4.629672
 31
0.0
  0
LINE
  5
754
330
1F
100
AcDbEntity
  8
1
  6
CONTINUOUS
370
50
 62
4
100
AcDbLine
 10
117.877167
 20
-1.090708
 30
0.0
 11
117.997025
 21
-0.9824689999999999
 31
0.0
  0
LINE
  5
755
330
1F
100
AcDbEntity
  8
1
  6
CONTINUOUS
370
50
 62
4
100
AcDbLine
 10
114.071793
 20
4.871446
 30
0.0
 11
114.096916
 21
4.894136
 31
0.0
  0
LINE
  5
756
330
1F
100
AcDbEntity
  8
1
  6
CONTINUOUS
370
50
 62
4
100
AcDbLine
 10
121.668236
 20
1.624338
 30
0.0
 11
121.736801
 21
1.688818
 31
0.0
  0
LINE
  5
757
330
1F
100
AcDbEntity
  8
1
  6
CONTINUOUS
370
50
 62
4
100
AcDbLine
 10
117.761963
 20
-1.200473
 30
0.0
 11
117.877167
 21
-1.090708
 31
0.0
  0
LINE
  5
758
330
1F
100
AcDbEntity
  8
1
  6
CONTINUOUS
370
50
 62
4
100
AcDbLine
 10
118.679359
 20
-4.930401
 30
0.0
 11
118.837906
 21
-4.774774
 31
0.0
  0
LINE
  5
759
330
1F
100
AcDbEntity
  8
1
  6
CONTINUOUS
370
50
 62
4
100
AcDbLine
 10
117.65152
 20
-1.311618
 30
0.0
 11
117.761963
 21
-1.200473
 31
0.0
  0
LINE
  5
75A
330
1F
100
AcDbEntity
  8
1
  6
CONTINUOUS
370
50
 62
4
100
AcDbLine
 10
117.546394
 20
-1.423521
 30
0.0
 11
117.65152
 21
-1.311618
 31
0.0
  0
LINE
  5
75B
330
1F
100
AcDbEntity
  8
1
  6
CONTINUOUS
370
50
 62
4
100
AcDbLine
 10
114.049706
 20
4.847619
 30
0.0
 11
114.071793
 21
4.871446
 31
0.0
  0
LINE
  5
75C
330
1F
100
AcDbEntity
  8
1
  6
CONTINUOUS
370
50
 62
4
100
AcDbLine
 10
121.736801
 20
1.688818
 30
0.0
 11
121.796928
 21
1.755561
 31
0.0
  0
LINE
  5
75D
330
1F
100
AcDbEntity
  8
1
  6
CONTINUOUS
370
50
 62
4
100
AcDbLine
 10
137.726501
 20
2.928325
 30
0.0
 11
137.761749
 21
2.967461
 31
0.0
  0
LINE
  5
75E
330
1F
100
AcDbEntity
  8
1
  6
CONTINUOUS
370
50
 62
4
100
AcDbLine
 10
118.463844
 20
-5.172676
 30
0.0
 11
118.679359
 21
-4.930401
 31
0.0
  0
LINE
  5
75F
330
1F
100
AcDbEntity
  8
1
  6
CONTINUOUS
370
50
 62
4
100
AcDbLine
 10
117.447189
 20
-1.535465
 30
0.0
 11
117.546394
 21
-1.423521
 31
0.0
  0
LINE
  5
760
330
1F
100
AcDbEntity
  8
1
  6
CONTINUOUS
370
50
 62
4
100
AcDbLine
 10
117.353928
 20
-1.647304
 30
0.0
 11
117.447189
 21
-1.535465
 31
0.0
  0
LINE
  5
761
330
1F
100
AcDbEntity
  8
1
  6
CONTINUOUS
370
50
 62
4
100
AcDbLine
 10
117.266655
 20
-1.75889
 30
0.0
 11
117.353928
 21
-1.647304
 31
0.0
  0
LINE
  5
762
330
1F
100
AcDbEntity
  8
1
  6
CONTINUOUS
370
50
 62
4
100
AcDbLine
 10
114.030624
 20
4.822711
 30
0.0
 11
114.049706
 21
4.847619
 31
0.0
  0
LINE
  5
763
330
1F
100
AcDbEntity
  8
1
  6
CONTINUOUS
370
50
 62
4
100
AcDbLine
 10
118.265976
 20
-5.433968
 30
0.0
 11
118.463844
 21
-5.172676
 31
0.0
  0
LINE
  5
764
330
1F
100
AcDbEntity
  8
1
  6
CONTINUOUS
370
50
 62
4
100
AcDbLine
 10
121.796928
 20
1.755561
 30
0.0
 11
121.84993
 21
1.827779
 31
0.0
  0
LINE
  5
765
330
1F
100
AcDbEntity
  8
1
  6
CONTINUOUS
370
50
 62
4
100
AcDbLine
 10
117.185402
 20
-1.870079
 30
0.0
 11
117.266655
 21
-1.75889
 31
0.0
  0
LINE
  5
766
330
1F
100
AcDbEntity
  8
1
  6
CONTINUOUS
370
50
 62
4
100
AcDbLine
 10
118.008629
 20
-5.840017
 30
0.0
 11
118.03627
 21
-5.801597999999999
 31
0.0
  0
LINE
  5
767
330
1F
100
AcDbEntity
  8
1
  6
CONTINUOUS
370
50
 62
4
100
AcDbLine
 10
117.110214
 20
-1.980725
 30
0.0
 11
117.185402
 21
-1.870079
 31
0.0
  0
LINE
  5
768
330
1F
100
AcDbEntity
  8
1
  6
CONTINUOUS
370
50
 62
4
100
AcDbLine
 10
118.146645
 20
-5.614634
 30
0.0
 11
118.265976
 21
-5.433968
 31
0.0
  0
LINE
  5
769
330
1F
100
AcDbEntity
  8
1
  6
CONTINUOUS
370
50
 62
4
100
AcDbLine
 10
121.892578
 20
1.904793
 30
0.0
 11
121.908112
 21
1.928967
 31
0.0
  0
LINE
  5
76A
330
1F
100
AcDbEntity
  8
1
  6
CONTINUOUS
370
50
 62
4
100
AcDbLine
 10
121.908112
 20
1.928967
 30
0.0
 11
121.923584
 21
1.953141
 31
0.0
  0
LINE
  5
76B
330
1F
100
AcDbEntity
  8
1
  6
CONTINUOUS
370
50
 62
4
100
AcDbLine
 10
121.923584
 20
1.953141
 30
0.0
 11
121.938995
 21
1.977313
 31
0.0
  0
LINE
  5
76C
330
1F
100
AcDbEntity
  8
1
  6
CONTINUOUS
370
50
 62
4
100
AcDbLine
 10
121.938995
 20
1.977313
 30
0.0
 11
121.954338
 21
2.001483
 31
0.0
  0
LINE
  5
76D
330
1F
100
AcDbEntity
  8
1
  6
CONTINUOUS
370
50
 62
4
100
AcDbLine
 10
121.954338
 20
2.001483
 30
0.0
 11
121.96962
 21
2.025651
 31
0.0
  0
LINE
  5
76E
330
1F
100
AcDbEntity
  8
1
  6
CONTINUOUS
370
50
 62
4
100
AcDbLine
 10
137.761749
 20
2.967461
 30
0.0
 11
137.79129
 21
3.014201
 31
0.0
  0
LINE
  5
76F
330
1F
100
AcDbEntity
  8
1
  6
CONTINUOUS
370
50
 62
4
100
AcDbLine
 10
121.96962
 20
2.025651
 30
0.0
 11
121.98484
 21
2.049818
 31
0.0
  0
LINE
  5
770
330
1F
100
AcDbEntity
  8
1
  6
CONTINUOUS
370
50
 62
4
100
AcDbLine
 10
117.041115
 20
-2.090681
 30
0.0
 11
117.110214
 21
-1.980725
 31
0.0
  0
LINE
  5
771
330
1F
100
AcDbEntity
  8
1
  6
CONTINUOUS
370
50
 62
4
100
AcDbLine
 10
121.98484
 20
2.049818
 30
0.0
 11
122.0
 21
2.073982
 31
0.0
  0
LINE
  5
772
330
1F
100
AcDbEntity
  8
1
  6
CONTINUOUS
370
50
 62
4
100
AcDbLine
 10
114.014511
 20
4.79678
 30
0.0
 11
114.030624
 21
4.822711
 31
0.0
  0
LINE
  5
773
330
1F
100
AcDbEntity
  8
1
  6
CONTINUOUS
370
50
 62
4
100
AcDbLine
 10
118.036087
 20
-5.801939
 30
0.0
 11
118.146645
 21
-5.614634
 31
0.0
  0
LINE
  5
774
330
1F
100
AcDbEntity
  8
1
  6
CONTINUOUS
370
50
 62
4
100
AcDbLine
 10
116.978149
 20
-2.199801
 30
0.0
 11
117.041115
 21
-2.090681
 31
0.0
  0
LINE
  5
775
330
1F
100
AcDbEntity
  8
1
  6
CONTINUOUS
370
50
 62
4
100
AcDbLine
 10
121.84993
 20
1.827779
 30
0.0
 11
121.892578
 21
1.904793
 31
0.0
  0
LINE
  5
776
330
1F
100
AcDbEntity
  8
1
  6
CONTINUOUS
370
50
 62
4
100
AcDbLine
 10
116.921333
 20
-2.30799
 30
0.0
 11
116.978149
 21
-2.199801
 31
0.0
  0
LINE
  5
777
330
1F
100
AcDbEntity
  8
1
  6
CONTINUOUS
370
50
 62
4
100
AcDbLine
 10
114.001335
 20
4.769882
 30
0.0
 11
114.014511
 21
4.79678
 31
0.0
  0
LINE
  5
778
330
1F
100
AcDbEntity
  8
1
  6
CONTINUOUS
370
50
 62
4
100
AcDbLine
 10
116.870003
 20
-2.416731
 30
0.0
 11
116.921333
 21
-2.30799
 31
0.0
  0
LINE
  5
779
330
1F
100
AcDbEntity
  8
1
  6
CONTINUOUS
370
50
 62
4
100
AcDbLine
 10
137.79129
 20
3.014201
 30
0.0
 11
137.815277
 21
3.068162
 31
0.0
  0
LINE
  5
77A
330
1F
100
AcDbEntity
  8
1
  6
CONTINUOUS
370
50
 62
4
100
AcDbLine
 10
137.450195
 20
2.817559
 30
0.0
 11
137.468307
 21
2.860031
 31
0.0
  0
LINE
  5
77B
330
1F
100
AcDbEntity
  8
1
  6
CONTINUOUS
370
50
 62
4
100
AcDbLine
 10
116.82431
 20
-2.526534
 30
0.0
 11
116.870003
 21
-2.416731
 31
0.0
  0
LINE
  5
77C
330
1F
100
AcDbEntity
  8
1
  6
CONTINUOUS
370
50
 62
4
100
AcDbLine
 10
139.576645
 20
2.338874
 30
0.0
 11
139.637085
 21
2.492336
 31
0.0
  0
LINE
  5
77D
330
1F
100
AcDbEntity
  8
1
  6
CONTINUOUS
370
50
 62
4
100
AcDbLine
 10
118.03627
 20
-5.801597999999999
 30
0.0
 11
118.061142
 21
-5.734897999999999
 31
0.0
  0
LINE
  5
77E
330
1F
100
AcDbEntity
  8
1
  6
CONTINUOUS
370
50
 62
4
100
AcDbLine
 10
113.991035
 20
4.741982
 30
0.0
 11
114.001335
 21
4.769882
 31
0.0
  0
LINE
  5
77F
330
1F
100
AcDbEntity
  8
1
  6
CONTINUOUS
370
50
 62
4
100
AcDbLine
 10
116.784836
 20
-2.637089
 30
0.0
 11
116.82431
 21
-2.526534
 31
0.0
  0
LINE
  5
780
330
1F
100
AcDbEntity
  8
1
  6
CONTINUOUS
370
50
 62
4
100
AcDbLine
 10
137.434601
 20
2.772222
 30
0.0
 11
137.450195
 21
2.817559
 31
0.0
  0
LINE
  5
781
330
1F
100
AcDbEntity
  8
1
  6
CONTINUOUS
370
50
 62
4
100
AcDbLine
 10
139.520065
 20
2.171052
 30
0.0
 11
139.576645
 21
2.338874
 31
0.0
  0
LINE
  5
782
330
1F
100
AcDbEntity
  8
1
  6
CONTINUOUS
370
50
 62
4
100
AcDbLine
 10
137.815277
 20
3.068162
 30
0.0
 11
137.833847
 21
3.128963
 31
0.0
  0
LINE
  5
783
330
1F
100
AcDbEntity
  8
1
  6
CONTINUOUS
370
50
 62
4
100
AcDbLine
 10
116.752167
 20
-2.748082
 30
0.0
 11
116.784836
 21
-2.637089
 31
0.0
  0
LINE
  5
784
330
1F
100
AcDbEntity
  8
1
  6
CONTINUOUS
370
50
 62
4
100
AcDbLine
 10
139.467667
 20
1.989476
 30
0.0
 11
139.520065
 21
2.171052
 31
0.0
  0
LINE
  5
785
330
1F
100
AcDbEntity
  8
1
  6
CONTINUOUS
370
50
 62
4
100
AcDbLine
 10
137.421539
 20
2.724047
 30
0.0
 11
137.434601
 21
2.772222
 31
0.0
  0
LINE
  5
786
330
1F
100
AcDbEntity
  8
1
  6
CONTINUOUS
370
50
 62
4
100
AcDbLine
 10
113.983536
 20
4.712903
 30
0.0
 11
113.991035
 21
4.741982
 31
0.0
  0
LINE
  5
787
330
1F
100
AcDbEntity
  8
1
  6
CONTINUOUS
370
50
 62
4
100
AcDbLine
 10
139.419769
 20
1.794943
 30
0.0
 11
139.467667
 21
1.989476
 31
0.0
  0
LINE
  5
788
330
1F
100
AcDbEntity
  8
1
  6
CONTINUOUS
370
50
 62
4
100
AcDbLine
 10
116.726883
 20
-2.859204
 30
0.0
 11
116.752167
 21
-2.748082
 31
0.0
  0
LINE
  5
789
330
1F
100
AcDbEntity
  8
1
  6
CONTINUOUS
370
50
 62
4
100
AcDbLine
 10
139.376877
 20
1.589103
 30
0.0
 11
139.419769
 21
1.794943
 31
0.0
  0
LINE
  5
78A
330
1F
100
AcDbEntity
  8
1
  6
CONTINUOUS
370
50
 62
4
100
AcDbLine
 10
137.411057
 20
2.673061
 30
0.0
 11
137.421539
 21
2.724047
 31
0.0
  0
LINE
  5
78B
330
1F
100
AcDbEntity
  8
1
  6
CONTINUOUS
370
50
 62
4
100
AcDbLine
 10
139.2677
 20
0.949499
 30
0.0
 11
139.307083
 21
1.147406
 31
0.0
  0
LINE
  5
78C
330
1F
100
AcDbEntity
  8
1
  6
CONTINUOUS
370
50
 62
4
100
AcDbLine
 10
137.833847
 20
3.128963
 30
0.0
 11
137.847092
 21
3.196066
 31
0.0
  0
LINE
  5
78D
330
1F
100
AcDbEntity
  8
1
  6
CONTINUOUS
370
50
 62
4
100
AcDbLine
 10
139.231125
 20
0.746579
 30
0.0
 11
139.2677
 21
0.949499
 31
0.0
  0
LINE
  5
78E
330
1F
100
AcDbEntity
  8
1
  6
CONTINUOUS
370
50
 62
4
100
AcDbLine
 10
139.339233
 20
1.372961
 30
0.0
 11
139.376877
 21
1.589103
 31
0.0
  0
LINE
  5
78F
330
1F
100
AcDbEntity
  8
1
  6
CONTINUOUS
370
50
 62
4
100
AcDbLine
 10
139.197418
 20
0.538907
 30
0.0
 11
139.231125
 21
0.746579
 31
0.0
  0
LINE
  5
790
330
1F
100
AcDbEntity
  8
1
  6
CONTINUOUS
370
50
 62
4
100
AcDbLine
 10
116.709587
 20
-2.970141
 30
0.0
 11
116.726883
 21
-2.859204
 31
0.0
  0
LINE
  5
791
330
1F
100
AcDbEntity
  8
1
  6
CONTINUOUS
370
50
 62
4
100
AcDbLine
 10
113.978897
 20
4.682649
 30
0.0
 11
113.983536
 21
4.712903
 31
0.0
  0
LINE
  5
792
330
1F
100
AcDbEntity
  8
1
  6
CONTINUOUS
370
50
 62
4
100
AcDbLine
 10
137.403152
 20
2.619289
 30
0.0
 11
137.411057
 21
2.673061
 31
0.0
  0
LINE
  5
793
330
1F
100
AcDbEntity
  8
1
  6
CONTINUOUS
370
50
 62
4
100
AcDbLine
 10
139.166687
 20
0.326746
 30
0.0
 11
139.197418
 21
0.538907
 31
0.0
  0
LINE
  5
794
330
1F
100
AcDbEntity
  8
1
  6
CONTINUOUS
370
50
 62
4
100
AcDbLine
 10
139.307083
 20
1.147406
 30
0.0
 11
139.339233
 21
1.372961
 31
0.0
  0
LINE
  5
795
330
1F
100
AcDbEntity
  8
1
  6
CONTINUOUS
370
50
 62
4
100
AcDbLine
 10
139.139008
 20
0.110358
 30
0.0
 11
139.166687
 21
0.326746
 31
0.0
  0
LINE
  5
796
330
1F
100
AcDbEntity
  8
1
  6
CONTINUOUS
370
50
 62
4
100
AcDbLine
 10
139.114471
 20
-0.109995
 30
0.0
 11
139.139008
 21
0.110358
 31
0.0
  0
LINE
  5
797
330
1F
100
AcDbEntity
  8
1
  6
CONTINUOUS
370
50
 62
4
100
AcDbLine
 10
137.847092
 20
3.196066
 30
0.0
 11
137.855148
 21
3.268687
 31
0.0
  0
LINE
  5
798
330
1F
100
AcDbEntity
  8
1
  6
CONTINUOUS
370
50
 62
4
100
AcDbLine
 10
118.061142
 20
-5.734897999999999
 30
0.0
 11
118.069992
 21
-5.653893
 31
0.0
  0
LINE
  5
799
330
1F
100
AcDbEntity
  8
1
  6
CONTINUOUS
370
50
 62
4
100
AcDbLine
 10
139.09314
 20
-0.334052
 30
0.0
 11
139.114471
 21
-0.109995
 31
0.0
  0
LINE
  5
79A
330
1F
100
AcDbEntity
  8
1
  6
CONTINUOUS
370
50
 62
4
100
AcDbLine
 10
137.397842
 20
2.562759
 30
0.0
 11
137.403152
 21
2.619289
 31
0.0
  0
LINE
  5
79B
330
1F
100
AcDbEntity
  8
1
  6
CONTINUOUS
370
50
 62
4
100
AcDbLine
 10
139.075119
 20
-0.561549
 30
0.0
 11
139.09314
 21
-0.334052
 31
0.0
  0
LINE
  5
79C
330
1F
100
AcDbEntity
  8
1
  6
CONTINUOUS
370
50
 62
4
100
AcDbLine
 10
116.700912
 20
-3.080122
 30
0.0
 11
116.709587
 21
-2.970141
 31
0.0
  0
LINE
  5
79D
330
1F
100
AcDbEntity
  8
1
  6
CONTINUOUS
370
50
 62
4
100
AcDbLine
 10
139.060501
 20
-0.7919309999999999
 30
0.0
 11
139.075119
 21
-0.561549
 31
0.0
  0
LINE
  5
79E
330
1F
100
AcDbEntity
  8
1
  6
CONTINUOUS
370
50
 62
4
100
AcDbLine
 10
113.977173
 20
4.651233
 30
0.0
 11
113.978897
 21
4.682649
 31
0.0
  0
LINE
  5
79F
330
1F
100
AcDbEntity
  8
1
  6
CONTINUOUS
370
50
 62
4
100
AcDbLine
 10
139.049423
 20
-1.023725
 30
0.0
 11
139.060501
 21
-0.7919309999999999
 31
0.0
  0
LINE
  5
7A0
330
1F
100
AcDbEntity
  8
1
  6
CONTINUOUS
370
50
 62
4
100
AcDbLine
 10
137.395157
 20
2.503496
 30
0.0
 11
137.397842
 21
2.562759
 31
0.0
  0
LINE
  5
7A1
330
1F
100
AcDbEntity
  8
1
  6
CONTINUOUS
370
50
 62
4
100
AcDbLine
 10
137.855148
 20
3.268687
 30
0.0
 11
137.858261
 21
3.346373
 31
0.0
  0
LINE
  5
7A2
330
1F
100
AcDbEntity
  8
1
  6
CONTINUOUS
370
50
 62
4
100
AcDbLine
 10
139.041901
 20
-1.256456
 30
0.0
 11
139.049423
 21
-1.023725
 31
0.0
  0
LINE
  5
7A3
330
1F
100
AcDbEntity
  8
1
  6
CONTINUOUS
370
50
 62
4
100
AcDbLine
 10
139.037979
 20
-1.489765
 30
0.0
 11
139.041901
 21
-1.256456
 31
0.0
  0
LINE
  5
7A4
330
1F
100
AcDbEntity
  8
1
  6
CONTINUOUS
370
50
 62
4
100
AcDbLine
 10
139.037659
 20
-1.723294
 30
0.0
 11
139.037979
 21
-1.489765
 31
0.0
  0
LINE
  5
7A5
330
1F
100
AcDbEntity
  8
1
  6
CONTINUOUS
370
50
 62
4
100
AcDbLine
 10
79.80000299999999
 20
-5.99995
 30
0.0
 11
79.80000299999999
 21
5.99995
 31
0.0
  0
LINE
  5
7A6
330
1F
100
AcDbEntity
  8
1
  6
CONTINUOUS
370
50
 62
4
100
AcDbLine
 10
79.929901
 20
-5.92495
 30
0.0
 11
79.929901
 21
5.92495
 31
0.0
  0
LINE
  5
7A7
330
1F
100
AcDbEntity
  8
1
  6
CONTINUOUS
370
50
 62
4
100
AcDbLine
 10
122.0
 20
-3.911511
 30
0.0
 11
122.0
 21
3.911511
 31
0.0
  0
LINE
  5
7A8
330
1F
100
AcDbEntity
  8
1
  6
CONTINUOUS
370
50
 62
4
100
AcDbLine
 10
139.999893
 20
4.951061
 30
0.0
 11
139.999893
 21
4.951269
 31
0.0
  0
LINE
  5
7A9
330
1F
100
AcDbEntity
  8
1
  6
CONTINUOUS
370
50
 62
4
100
AcDbLine
 10
140.0
 20
1.051547
 30
0.0
 11
140.0
 21
5.999999
 31
0.0
  0
LINE
  5
7AA
330
1F
100
AcDbEntity
  8
1
  6
CONTINUOUS
370
50
 62
4
100
AcDbLine
 10
140.0
 20
-6.0
 30
0.0
 11
140.0
 21
-5.944141
 31
0.0
  0
LINE
  5
7AB
330
1F
100
AcDbEntity
  8
1
  6
CONTINUOUS
370
50
 62
4
100
AcDbLine
 10
140.0
 20
-5.944141
 30
0.0
 11
140.0
 21
1.051544
 31
0.0
  0
ELLIPSE
  5
7AC
330
1F
100
AcDbEntity
  8
1
  6
CONTINUOUS
370
50
 62
4
100
AcDbEllipse
 10
119.713747
 20
7.683872999999999
 30
0.0
 11
-0.8352766179473611
 21
6.139523051977932
 31
0.0
210
0.0
220
0.0
230
1.0
 40
0.9409779821352735
 41
1.885329064482625
 42
3.380530687515541
  0
ELLIPSE
  5
7AD
330
1F
100
AcDbEntity
  8
1
  6
CONTINUOUS
370
50
 62
4
100
AcDbEllipse
 10
122.35197
 20
-8.042800999999999
 30
0.0
 11
0.8802336362938726
 21
6.469970049481904
 31
0.0
210
0.0
220
0.0
230
1.0
 40
0.9409779175345612
 41
0.2008367708643831
 42
1.060904759488738
  0
ELLIPSE
  5
7AE
330
1F
100
AcDbEntity
  8
1
  6
CONTINUOUS
370
50
 62
4
100
AcDbEllipse
 10
122.996949
 20
-8.13055
 30
0.0
 11
1.215331010665422
 21
8.933031998548977
 31
0.0
210
0.0
220
0.0
230
1.0
 40
0.9409779396520296
 41
0.2612410440214391
 42
0.6393471271143715
  0
ELLIPSE
  5
7AF
330
1F
100
AcDbEntity
  8
1
  6
CONTINUOUS
370
50
 62
4
100
AcDbEllipse
 10
140.265403
 20
0.0
 30
0.0
 11
3.673819673770309E-16
 21
6.000001
 31
0.0
210
0.0
220
0.0
230
1.0
 40
0.324919779180036
 41
2.930115221567097
 42
3.005031173283644
  0
LINE
  5
7B0
330
1F
100
AcDbEntity
  8
CUT
  6
CONTINUOUS
370
25
 62
1
100
AcDbLine
 10
122.0
 20
0.0
 30
0.0
 11
140.0
 21
0.0
 31
0.0
  0
LINE
  5
7B1
330
1F
100
AcDbEntity
  8
CUT
  6
CONTINUOUS
370
25
 62
1
100
AcDbLine
 10
140.0
 20
0.0
 30
0.0
 11
140.0
 21
5.995
 31
0.0
  0
LINE
  5
7B2
330
1F
100
AcDbEntity
  8
CUT
  6
CONTINUOUS
370
25
 62
1
100
AcDbLine
 10
140.0
 20
5.995
 30
0.0
 11
140.0
 21
6.0
 31
0.0
  0
LINE
  5
7B3
330
1F
100
AcDbEntity
  8
CUT
  6
CONTINUOUS
370
25
 62
1
100
AcDbLine
 10
140.0
 20
6.0
 30
0.0
 11
122.0
 21
5.9999
 31
0.0
  0
LINE
  5
7B4
330
1F
100
AcDbEntity
  8
CUT
  6
CONTINUOUS
370
25
 62
1
100
AcDbLine
 10
122.0
 20
5.9999
 30
0.0
 11
122.0
 21
0.0
 31
0.0
  0
LINE
  5
7B5
330
1F
100
AcDbEntity
  8
NOCUT
  6
CONTINUOUS
370
25
 62
7
100
AcDbLine
 10
79.8
 20
0.0
 30
0.0
 11
122.0
 21
0.0
 31
0.0
  0
LINE
  5
7B6
330
1F
100
AcDbEntity
  8
NOCUT
  6
CONTINUOUS
370
25
 62
7
100
AcDbLine
 10
122.0
 20
0.0
 30
0.0
 11
122.0
 21
5.92495
 31
0.0
  0
LINE
  5
7B7
330
1F
100
AcDbEntity
  8
NOCUT
  6
CONTINUOUS
370
25
 62
7
100
AcDbLine
 10
122.0
 20
5.92495
 30
0.0
 11
79.92990381056767
 21
5.92495
 31
0.0
  0
LINE
  5
7B8
330
1F
100
AcDbEntity
  8
NOCUT
  6
CONTINUOUS
370
25
 62
7
100
AcDbLine
 10
79.92990381056767
 20
5.92495
 30
0.0
 11
79.8
 21
5.99995
 31
0.0
  0
LINE
  5
7B9
330
1F
100
AcDbEntity
  8
NOCUT
  6
CONTINUOUS
370
25
 62
7
100
AcDbLine
 10
79.8
 20
5.99995
 30
0.0
 11
79.8
 21
0.0
 31
0.0
  0
LINE
  5
7BA
330
1F
100
AcDbEntity
  8
SK1
  6
CONTINUOUS
370
50
 62
4
100
AcDbLine
 10
79.8
 20
6.0
 30
0.0
 11
0.5999999999999943
 21
6.0
 31
0.0
  0
LINE
  5
7BB
330
1F
100
AcDbEntity
  8
SK1
  6
CONTINUOUS
370
50
 62
4
100
AcDbLine
 10
0.5999999999999943
 20
6.0
 30
0.0
 11
0.0
 21
5.4
 31
0.0
  0
LINE
  5
7BC
330
1F
100
AcDbEntity
  8
SK1
  6
CONTINUOUS
370
50
 62
4
100
AcDbLine
 10
0.0
 20
5.4
 30
0.0
 11
0.0
 21
-5.4
 31
0.0
  0
LINE
  5
7BD
330
1F
100
AcDbEntity
  8
SK1
  6
CONTINUOUS
370
50
 62
4
100
AcDbLine
 10
0.0
 20
-5.4
 30
0.0
 11
0.5999999999999943
 21
-6.0
 31
0.0
  0
LINE
  5
7BE
330
1F
100
AcDbEntity
  8
SK1
  6
CONTINUOUS
370
50
 62
4
100
AcDbLine
 10
0.5999999999999943
 20
-6.0
 30
0.0
 11
79.8
 21
-6.0
 31
0.0
  0
LINE
  5
7BF
330
1F
100
AcDbEntity
  8
SK1
  6
CONTINUOUS
370
50
 62
4
100
AcDbLine
 10
0.5999999999999943
 20
6.0
 30
0.0
 11
0.5999999999999943
 21
-6.0
 31
0.0
  0
LINE
  5
7C0
330
1F
100
AcDbEntity
  8
SK2
  6
CONTINUOUS
370
25
 62
7
100
AcDbLine
 10
-12.0000002
 20
-6.000001
 30
0.0
 11
-13.00000000000008
 21
-6.000001
 31
0.0
  0
LINE
  5
7C1
330
1F
100
AcDbEntity
  8
SK2
  6
CONTINUOUS
370
25
 62
7
100
AcDbLine
 10
0.0
 20
-6.000001
 30
0.0
 11
-11.9999998
 21
-6.000001
 31
0.0
  0
LINE
  5
7C2
330
1F
100
AcDbEntity
  8
SK2
  6
CONTINUOUS
370
25
 62
7
100
AcDbLine
 10
-13.0
 20
6.0
 30
0.0
 11
0.0
 21
6.0
 31
0.0
  0
LINE
  5
7C3
330
1F
100
AcDbEntity
  8
SK2
  6
CONTINUOUS
370
25
 62
7
100
AcDbLine
 10
-12.0
 20
-13.0
 30
0.0
 11
-12.0
 21
13.0
 31
0.0
  0
LINE
  5
7C4
330
1F
100
AcDbEntity
  8
SK2
  6
CONTINUOUS
370
25
 62
7
100
AcDbLine
 10
-12.0
 20
-6.0
 30
0.0
 11
-11.0
 21
-11.0
 31
0.0
  0
LINE
  5
7C5
330
1F
100
AcDbEntity
  8
SK2
  6
CONTINUOUS
370
25
 62
7
100
AcDbLine
 10
-11.0
 20
-11.0
 30
0.0
 11
-13.0
 21
-11.0
 31
0.0
  0
LINE
  5
7C6
330
1F
100
AcDbEntity
  8
SK2
  6
CONTINUOUS
370
25
 62
7
100
AcDbLine
 10
-13.0
 20
-11.0
 30
0.0
 11
-12.0
 21
-6.0
 31
0.0
  0
LINE
  5
7C7
330
1F
100
AcDbEntity
  8
SK2
  6
CONTINUOUS
370
25
 62
7
100
AcDbLine
 10
-11.38590898655487
 20
-11.0
 30
0.0
 11
-11.06431816442581
 21
-10.67840917787095
 31
0.0
  0
LINE
  5
7C8
330
1F
100
AcDbEntity
  8
SK2
  6
CONTINUOUS
370
25
 62
7
100
AcDbLine
 10
-11.81017305526679
 20
-11.0
 30
0.0
 11
-11.13502884254447
 21
-10.32485578727768
 31
0.0
  0
LINE
  5
7C9
330
1F
100
AcDbEntity
  8
SK2
  6
CONTINUOUS
370
25
 62
7
100
AcDbLine
 10
-12.23443712397871
 20
-11.0
 30
0.0
 11
-11.20573952066312
 21
-9.971302396684408
 31
0.0
  0
LINE
  5
7CA
330
1F
100
AcDbEntity
  8
SK2
  6
CONTINUOUS
370
25
 62
7
100
AcDbLine
 10
-12.65870119269063
 20
-11.0
 30
0.0
 11
-11.27645019878176
 21
-9.617749006091131
 31
0.0
  0
LINE
  5
7CB
330
1F
100
AcDbEntity
  8
SK2
  6
CONTINUOUS
370
25
 62
7
100
AcDbLine
 10
-12.97925868464937
 20
-10.8962934232468
 30
0.0
 11
-11.34716087690043
 21
-9.264195615497869
 31
0.0
  0
LINE
  5
7CC
330
1F
100
AcDbEntity
  8
SK2
  6
CONTINUOUS
370
25
 62
7
100
AcDbLine
 10
-12.87319266747139
 20
-10.3659633373569
 30
0.0
 11
-11.41787155501909
 21
-8.910642224904606
 31
0.0
  0
LINE
  5
7CD
330
1F
100
AcDbEntity
  8
SK2
  6
CONTINUOUS
370
25
 62
7
100
AcDbLine
 10
-12.76712665029341
 20
-9.835633251467002
 30
0.0
 11
-11.48858223313773
 21
-8.55708883431133
 31
0.0
  0
LINE
  5
7CE
330
1F
100
AcDbEntity
  8
SK2
  6
CONTINUOUS
370
25
 62
7
100
AcDbLine
 10
-12.66106063311543
 20
-9.3053031655771
 30
0.0
 11
-11.55929291125639
 21
-8.203535443718067
 31
0.0
  0
LINE
  5
7CF
330
1F
100
AcDbEntity
  8
SK2
  6
CONTINUOUS
370
25
 62
7
100
AcDbLine
 10
-12.55499461593745
 20
-8.774973079687186
 30
0.0
 11
-11.63000358937504
 21
-7.849982053124776
 31
0.0
  0
LINE
  5
7D0
330
1F
100
AcDbEntity
  8
SK2
  6
CONTINUOUS
370
25
 62
7
100
AcDbLine
 10
-12.44892859875945
 20
-8.244642993797257
 30
0.0
 11
-11.70071426749371
 21
-7.496428662531514
 31
0.0
  0
LINE
  5
7D1
330
1F
100
AcDbEntity
  8
SK2
  6
CONTINUOUS
370
25
 62
7
100
AcDbLine
 10
-12.34286258158147
 20
-7.714312907907356
 30
0.0
 11
-11.77142494561235
 21
-7.142875271938237
 31
0.0
  0
LINE
  5
7D2
330
1F
100
AcDbEntity
  8
SK2
  6
CONTINUOUS
370
25
 62
7
100
AcDbLine
 10
-12.23679656440349
 20
-7.183982822017455
 30
0.0
 11
-11.84213562373101
 21
-6.789321881344975
 31
0.0
  0
LINE
  5
7D3
330
1F
100
AcDbEntity
  8
SK2
  6
CONTINUOUS
370
25
 62
7
100
AcDbLine
 10
-12.13073054722551
 20
-6.653652736127555
 30
0.0
 11
-11.91284630184967
 21
-6.435768490751713
 31
0.0
  0
LINE
  5
7D4
330
1F
100
AcDbEntity
  8
SK2
  6
CONTINUOUS
370
25
 62
7
100
AcDbLine
 10
-12.02466453004754
 20
-6.123322650237668
 30
0.0
 11
-11.98355697996831
 21
-6.082215100158436
 31
0.0
  0
LINE
  5
7D5
330
1F
100
AcDbEntity
  8
SK2
  6
CONTINUOUS
370
25
 62
7
100
AcDbLine
 10
-12.99331090335501
 20
-10.96655451677502
 30
0.0
 11
-12.95986542013003
 21
-11.0
 31
0.0
  0
LINE
  5
7D6
330
1F
100
AcDbEntity
  8
SK2
  6
CONTINUOUS
370
25
 62
7
100
AcDbLine
 10
-12.92260022523635
 20
-10.61300112618174
 30
0.0
 11
-12.53560135141809
 21
-11.0
 31
0.0
  0
LINE
  5
7D7
330
1F
100
AcDbEntity
  8
SK2
  6
CONTINUOUS
370
25
 62
7
100
AcDbLine
 10
-12.85188954711771
 20
-10.25944773558848
 30
0.0
 11
-12.11133728270619
 21
-11.0
 31
0.0
  0
LINE
  5
7D8
330
1F
100
AcDbEntity
  8
SK2
  6
CONTINUOUS
370
25
 62
7
100
AcDbLine
 10
-12.78117886899904
 20
-9.905894344995218
 30
0.0
 11
-11.68707321399425
 21
-11.0
 31
0.0
  0
LINE
  5
7D9
330
1F
100
AcDbEntity
  8
SK2
  6
CONTINUOUS
370
25
 62
7
100
AcDbLine
 10
-12.71046819088039
 20
-9.552340954401942
 30
0.0
 11
-11.26280914528233
 21
-11.0
 31
0.0
  0
LINE
  5
7DA
330
1F
100
AcDbEntity
  8
SK2
  6
CONTINUOUS
370
25
 62
7
100
AcDbLine
 10
-12.63975751276173
 20
-9.198787563808693
 30
0.0
 11
-11.04036373085739
 21
-10.79818134571303
 31
0.0
  0
LINE
  5
7DB
330
1F
100
AcDbEntity
  8
SK2
  6
CONTINUOUS
370
25
 62
7
100
AcDbLine
 10
-12.56904683464309
 20
-8.845234173215388
 30
0.0
 11
-11.14642974803539
 21
-10.26785125982309
 31
0.0
  0
LINE
  5
7DC
330
1F
100
AcDbEntity
  8
SK2
  6
CONTINUOUS
370
25
 62
7
100
AcDbLine
 10
-12.49833615652445
 20
-8.491680782622112
 30
0.0
 11
-11.25249576521337
 21
-9.737521173933189
 31
0.0
  0
LINE
  5
7DD
330
1F
100
AcDbEntity
  8
SK2
  6
CONTINUOUS
370
25
 62
7
100
AcDbLine
 10
-12.42762547840579
 20
-8.13812739202885
 30
0.0
 11
-11.35856178239135
 21
-9.207191088043288
 31
0.0
  0
LINE
  5
7DE
330
1F
100
AcDbEntity
  8
SK2
  6
CONTINUOUS
370
25
 62
7
100
AcDbLine
 10
-12.35691480028711
 20
-7.784574001435587
 30
0.0
 11
-11.46462779956933
 21
-8.676861002153373
 31
0.0
  0
LINE
  5
7DF
330
1F
100
AcDbEntity
  8
SK2
  6
CONTINUOUS
370
25
 62
7
100
AcDbLine
 10
-12.28620412216846
 20
-7.431020610842339
 30
0.0
 11
-11.57069381674731
 21
-8.146530916263487
 31
0.0
  0
LINE
  5
7E0
330
1F
100
AcDbEntity
  8
SK2
  6
CONTINUOUS
370
25
 62
7
100
AcDbLine
 10
-12.21549344404981
 20
-7.077467220249048
 30
0.0
 11
-11.67675983392529
 21
-7.616200830373572
 31
0.0
  0
LINE
  5
7E1
330
1F
100
AcDbEntity
  8
SK2
  6
CONTINUOUS
370
25
 62
7
100
AcDbLine
 10
-12.14478276593115
 20
-6.723913829655785
 30
0.0
 11
-11.78282585110327
 21
-7.085870744483671
 31
0.0
  0
LINE
  5
7E2
330
1F
100
AcDbEntity
  8
SK2
  6
CONTINUOUS
370
25
 62
7
100
AcDbLine
 10
-12.0740720878125
 20
-6.370360439062509
 30
0.0
 11
-11.88889186828125
 21
-6.555540658593756
 31
0.0
  0
LINE
  5
7E3
330
1F
100
AcDbEntity
  8
SK2
  6
CONTINUOUS
370
25
 62
7
100
AcDbLine
 10
-12.00336140969385
 20
-6.016807048469232
 30
0.0
 11
-11.99495788545923
 21
-6.025210572703855
 31
0.0
  0
LINE
  5
7E4
330
1F
100
AcDbEntity
  8
SK2
  6
CONTINUOUS
370
25
 62
7
100
AcDbLine
 10
-12.0
 20
6.0
 30
0.0
 11
-13.0
 21
11.0
 31
0.0
  0
LINE
  5
7E5
330
1F
100
AcDbEntity
  8
SK2
  6
CONTINUOUS
370
25
 62
7
100
AcDbLine
 10
-13.0
 20
11.0
 30
0.0
 11
-11.0
 21
11.0
 31
0.0
  0
LINE
  5
7E6
330
1F
100
AcDbEntity
  8
SK2
  6
CONTINUOUS
370
25
 62
7
100
AcDbLine
 10
-11.0
 20
11.0
 30
0.0
 11
-12.0
 21
6.0
 31
0.0
  0
LINE
  5
7E7
330
1F
100
AcDbEntity
  8
SK2
  6
CONTINUOUS
370
25
 62
7
100
AcDbLine
 10
-12.0341666454093
 20
6.170833227046515
 30
0.0
 11
-11.94875003188606
 21
6.256249840569751
 31
0.0
  0
LINE
  5
7E8
330
1F
100
AcDbEntity
  8
SK2
  6
CONTINUOUS
370
25
 62
7
100
AcDbLine
 10
-12.10487732352796
 20
6.524386617639792
 30
0.0
 11
-11.84268401470807
 21
6.78657992645968
 31
0.0
  0
LINE
  5
7E9
330
1F
100
AcDbEntity
  8
SK2
  6
CONTINUOUS
370
25
 62
7
100
AcDbLine
 10
-12.1755880016466
 20
6.877940008233068
 30
0.0
 11
-11.73661799753009
 21
7.316910012349581
 31
0.0
  0
LINE
  5
7EA
330
1F
100
AcDbEntity
  8
SK2
  6
CONTINUOUS
370
25
 62
7
100
AcDbLine
 10
-12.24629867976526
 20
7.231493398826331
 30
0.0
 11
-11.63055198035211
 21
7.847240098239482
 31
0.0
  0
LINE
  5
7EB
330
1F
100
AcDbEntity
  8
SK2
  6
CONTINUOUS
370
25
 62
7
100
AcDbLine
 10
-12.3170093578839
 20
7.585046789419621
 30
0.0
 11
-11.52448596317413
 21
8.377570184129397
 31
0.0
  0
LINE
  5
7EC
330
1F
100
AcDbEntity
  8
SK2
  6
CONTINUOUS
370
25
 62
7
100
AcDbLine
 10
-12.38772003600259
 20
7.938600180012855
 30
0.0
 11
-11.41841994599613
 21
8.907900270019312
 31
0.0
  0
LINE
  5
7ED
330
1F
100
AcDbEntity
  8
SK2
  6
CONTINUOUS
370
25
 62
7
100
AcDbLine
 10
-12.45843071412123
 20
8.292153570606132
 30
0.0
 11
-11.31235392881817
 21
9.438230355909198
 31
0.0
  0
LINE
  5
7EE
330
1F
100
AcDbEntity
  8
SK2
  6
CONTINUOUS
370
25
 62
7
100
AcDbLine
 10
-12.52914139223989
 20
8.645706961199394
 30
0.0
 11
-11.20628791164017
 21
9.968560441799113
 31
0.0
  0
LINE
  5
7EF
330
1F
100
AcDbEntity
  8
SK2
  6
CONTINUOUS
370
25
 62
7
100
AcDbLine
 10
-12.59985207035854
 20
8.999260351792685
 30
0.0
 11
-11.10022189446219
 21
10.49889052768903
 31
0.0
  0
LINE
  5
7F0
330
1F
100
AcDbEntity
  8
SK2
  6
CONTINUOUS
370
25
 62
7
100
AcDbLine
 10
-12.6705627484772
 20
9.352813742385948
 30
0.0
 11
-11.02337649086314
 21
11.0
 31
0.0
  0
LINE
  5
7F1
330
1F
100
AcDbEntity
  8
SK2
  6
CONTINUOUS
370
25
 62
7
100
AcDbLine
 10
-12.74127342659584
 20
9.706367132979224
 30
0.0
 11
-11.44764055957506
 21
11.0
 31
0.0
  0
LINE
  5
7F2
330
1F
100
AcDbEntity
  8
SK2
  6
CONTINUOUS
370
25
 62
7
100
AcDbLine
 10
-12.81198410471451
 20
10.05992052357247
 30
0.0
 11
-11.87190462828698
 21
11.0
 31
0.0
  0
LINE
  5
7F3
330
1F
100
AcDbEntity
  8
SK2
  6
CONTINUOUS
370
25
 62
7
100
AcDbLine
 10
-12.88269478283316
 20
10.41347391416576
 30
0.0
 11
-12.29616869699892
 21
11.0
 31
0.0
  0
LINE
  5
7F4
330
1F
100
AcDbEntity
  8
SK2
  6
CONTINUOUS
370
25
 62
7
100
AcDbLine
 10
-12.95340546095181
 20
10.76702730475903
 30
0.0
 11
-12.72043276571084
 21
11.0
 31
0.0
  0
LINE
  5
7F5
330
1F
100
AcDbEntity
  8
SK2
  6
CONTINUOUS
370
25
 62
7
100
AcDbLine
 10
-12.08559100938218
 20
6.42795504691091
 30
0.0
 11
-11.94293932707855
 21
6.285303364607273
 31
0.0
  0
LINE
  5
7F6
330
1F
100
AcDbEntity
  8
SK2
  6
CONTINUOUS
370
25
 62
7
100
AcDbLine
 10
-12.19165702656016
 20
6.95828513280081
 30
0.0
 11
-11.8722286489599
 21
6.63885675520055
 31
0.0
  0
LINE
  5
7F7
330
1F
100
AcDbEntity
  8
SK2
  6
CONTINUOUS
370
25
 62
7
100
AcDbLine
 10
-12.29772304373816
 20
7.48861521869074
 30
0.0
 11
-11.80151797084123
 21
6.992410145793812
 31
0.0
  0
LINE
  5
7F8
330
1F
100
AcDbEntity
  8
SK2
  6
CONTINUOUS
370
25
 62
7
100
AcDbLine
 10
-12.40378906091614
 20
8.018945304580654
 30
0.0
 11
-11.73080729272257
 21
7.345963536387089
 31
0.0
  0
LINE
  5
7F9
330
1F
100
AcDbEntity
  8
SK2
  6
CONTINUOUS
370
25
 62
7
100
AcDbLine
 10
-12.50985507809412
 20
8.549275390470555
 30
0.0
 11
-11.66009661460393
 21
7.699516926980365
 31
0.0
  0
LINE
  5
7FA
330
1F
100
AcDbEntity
  8
SK2
  6
CONTINUOUS
370
25
 62
7
100
AcDbLine
 10
-12.6159210952721
 20
9.079605476360456
 30
0.0
 11
-11.58938593648529
 21
8.053070317573642
 31
0.0
  0
LINE
  5
7FB
330
1F
100
AcDbEntity
  8
SK2
  6
CONTINUOUS
370
25
 62
7
100
AcDbLine
 10
-12.72198711245008
 20
9.60993556225037
 30
0.0
 11
-11.51867525836663
 21
8.406623708166919
 31
0.0
  0
LINE
  5
7FC
330
1F
100
AcDbEntity
  8
SK2
  6
CONTINUOUS
370
25
 62
7
100
AcDbLine
 10
-12.82805312962807
 20
10.14026564814029
 30
0.0
 11
-11.44796458024796
 21
8.760177098760167
 31
0.0
  0
LINE
  5
7FD
330
1F
100
AcDbEntity
  8
SK2
  6
CONTINUOUS
370
25
 62
7
100
AcDbLine
 10
-12.93411914680604
 20
10.67059573403016
 30
0.0
 11
-11.37725390212931
 21
9.11373048935343
 31
0.0
  0
LINE
  5
7FE
330
1F
100
AcDbEntity
  8
SK2
  6
CONTINUOUS
370
25
 62
7
100
AcDbLine
 10
-12.83925934406396
 20
11.0
 30
0.0
 11
-11.30654322401067
 21
9.467283879946706
 31
0.0
  0
LINE
  5
7FF
330
1F
100
AcDbEntity
  8
SK2
  6
CONTINUOUS
370
25
 62
7
100
AcDbLine
 10
-12.41499527535204
 20
11.0
 30
0.0
 11
-11.23583254589201
 21
9.820837270539968
 31
0.0
  0
LINE
  5
800
330
1F
100
AcDbEntity
  8
SK2
  6
CONTINUOUS
370
25
 62
7
100
AcDbLine
 10
-11.99073120664011
 20
11.0
 30
0.0
 11
-11.16512186777337
 21
10.17439066113326
 31
0.0
  0
LINE
  5
801
330
1F
100
AcDbEntity
  8
SK2
  6
CONTINUOUS
370
25
 62
7
100
AcDbLine
 10
-11.56646713792819
 20
11.0
 30
0.0
 11
-11.09441118965469
 21
10.52794405172651
 31
0.0
  0
LINE
  5
802
330
1F
100
AcDbEntity
  8
SK2
  6
CONTINUOUS
370
25
 62
7
100
AcDbLine
 10
-11.14220306921625
 20
11.0
 30
0.0
 11
-11.02370051153605
 21
10.8814974423198
 31
0.0
  0
TEXT
  5
803
330
1F
100
AcDbEntity
  8
SK2
  6
CONTINUOUS
370
25
 62
7
100
AcDbText
 10
-13.5
 20
-0.0583333333333336
 30
0.0
 40
3.5
  1
12
 50
90.0
 72
     1
 11
-13.5
 21
2.275
 31
0.0
100
AcDbText
  0
CIRCLE
  5
804
330
1F
100
AcDbEntity
  8
SK2
  6
CONTINUOUS
370
25
 62
7
100
AcDbCircle
 10
-15.25
 20
-2.625
 30
0.0
 40
1.4
  0
LINE
  5
805
330
1F
100
AcDbEntity
  8
SK2
  6
CONTINUOUS
370
25
 62
7
100
AcDbLine
 10
-13.84999999999999
 20
-4.024999999999999
 30
0.0
 11
-16.65000000000001
 21
-1.224999999999999
 31
0.0
  0
LINE
  5
806
330
1F
100
AcDbEntity
  8
SK2
  6
CONTINUOUS
370
25
 62
7
100
AcDbLine
 10
0.0
 20
6.0
 30
0.0
 11
0.0
 21
19.00001
 31
0.0
  0
LINE
  5
807
330
1F
100
AcDbEntity
  8
SK2
  6
CONTINUOUS
370
25
 62
7
100
AcDbLine
 10
79.8
 20
19.00001
 30
0.0
 11
79.8
 21
6.0
 31
0.0
  0
LINE
  5
808
330
1F
100
AcDbEntity
  8
SK2
  6
CONTINUOUS
370
25
 62
7
100
AcDbLine
 10
0.0
 20
18.00001
 30
0.0
 11
79.8
 21
18.00001
 31
0.0
  0
LINE
  5
809
330
1F
100
AcDbEntity
  8
SK2
  6
CONTINUOUS
370
25
 62
7
100
AcDbLine
 10
0.0
 20
18.00001
 30
0.0
 11
5.0
 21
19.00001
 31
0.0
  0
LINE
  5
80A
330
1F
100
AcDbEntity
  8
SK2
  6
CONTINUOUS
370
25
 62
7
100
AcDbLine
 10
5.0
 20
19.00001
 30
0.0
 11
5.0
 21
17.00001
 31
0.0
  0
LINE
  5
80B
330
1F
100
AcDbEntity
  8
SK2
  6
CONTINUOUS
370
25
 62
7
100
AcDbLine
 10
5.0
 20
17.00001
 30
0.0
 11
0.0
 21
18.00001
 31
0.0
  0
LINE
  5
80C
330
1F
100
AcDbEntity
  8
SK2
  6
CONTINUOUS
370
25
 62
7
100
AcDbLine
 10
4.778922574592698
 20
17.04422548508147
 30
0.0
 11
5.0
 21
17.26530291048877
 31
0.0
  0
LINE
  5
80D
330
1F
100
AcDbEntity
  8
SK2
  6
CONTINUOUS
370
25
 62
7
100
AcDbLine
 10
4.425369183999408
 20
17.11493616320011
 30
0.0
 11
5.0
 21
17.68956697920071
 31
0.0
  0
LINE
  5
80E
330
1F
100
AcDbEntity
  8
SK2
  6
CONTINUOUS
370
25
 62
7
100
AcDbLine
 10
4.071815793406145
 20
17.18564684131877
 30
0.0
 11
5.0
 21
18.11383104791263
 31
0.0
  0
LINE
  5
80F
330
1F
100
AcDbEntity
  8
SK2
  6
CONTINUOUS
370
25
 62
7
100
AcDbLine
 10
3.718262402812883
 20
17.25635751943743
 30
0.0
 11
5.0
 21
18.53809511662455
 31
0.0
  0
LINE
  5
810
330
1F
100
AcDbEntity
  8
SK2
  6
CONTINUOUS
370
25
 62
7
100
AcDbLine
 10
3.364709012219606
 20
17.32706819755607
 30
0.0
 11
5.0
 21
18.96235918533647
 31
0.0
  0
LINE
  5
811
330
1F
100
AcDbEntity
  8
SK2
  6
CONTINUOUS
370
25
 62
7
100
AcDbLine
 10
3.011155621626344
 20
17.39777887567473
 30
0.0
 11
4.516733432439509
 21
18.9033566864879
 31
0.0
  0
LINE
  5
812
330
1F
100
AcDbEntity
  8
SK2
  6
CONTINUOUS
370
25
 62
7
100
AcDbLine
 10
2.657602231033067
 20
17.46848955379339
 30
0.0
 11
3.986403346549594
 21
18.79729066930992
 31
0.0
  0
LINE
  5
813
330
1F
100
AcDbEntity
  8
SK2
  6
CONTINUOUS
370
25
 62
7
100
AcDbLine
 10
2.304048840439805
 20
17.53920023191205
 30
0.0
 11
3.456073260659693
 21
18.69122465213194
 31
0.0
  0
LINE
  5
814
330
1F
100
AcDbEntity
  8
SK2
  6
CONTINUOUS
370
25
 62
7
100
AcDbLine
 10
1.950495449846528
 20
17.60991091003069
 30
0.0
 11
2.925743174769792
 21
18.58515863495396
 31
0.0
  0
LINE
  5
815
330
1F
100
AcDbEntity
  8
SK2
  6
CONTINUOUS
370
25
 62
7
100
AcDbLine
 10
1.596942059253252
 20
17.68062158814935
 30
0.0
 11
2.395413088879877
 21
18.47909261777598
 31
0.0
  0
LINE
  5
816
330
1F
100
AcDbEntity
  8
SK2
  6
CONTINUOUS
370
25
 62
7
100
AcDbLine
 10
1.243388668659989
 20
17.75133226626801
 30
0.0
 11
1.865083002989977
 21
18.373026600598
 31
0.0
  0
LINE
  5
817
330
1F
100
AcDbEntity
  8
SK2
  6
CONTINUOUS
370
25
 62
7
100
AcDbLine
 10
0.8898352780667125
 20
17.82204294438665
 30
0.0
 11
1.334752917100062
 21
18.26696058342
 31
0.0
  0
LINE
  5
818
330
1F
100
AcDbEntity
  8
SK2
  6
CONTINUOUS
370
25
 62
7
100
AcDbLine
 10
0.5362818874734501
 20
17.89275362250531
 30
0.0
 11
0.8044228312101609
 21
18.16089456624202
 31
0.0
  0
LINE
  5
819
330
1F
100
AcDbEntity
  8
SK2
  6
CONTINUOUS
370
25
 62
7
100
AcDbLine
 10
0.1827284968801877
 20
17.96346430062397
 30
0.0
 11
0.2740927453202602
 21
18.05482854906404
 31
0.0
  0
LINE
  5
81A
330
1F
100
AcDbEntity
  8
SK2
  6
CONTINUOUS
370
25
 62
7
100
AcDbLine
 10
0.1327684341240598
 20
18.02656368682479
 30
0.0
 11
0.1991526511860542
 21
17.9601794697628
 31
0.0
  0
LINE
  5
81B
330
1F
100
AcDbEntity
  8
SK2
  6
CONTINUOUS
370
25
 62
7
100
AcDbLine
 10
0.4863218247173222
 20
18.09727436494346
 30
0.0
 11
0.7294827370759691
 21
17.85411345258481
 31
0.0
  0
LINE
  5
81C
330
1F
100
AcDbEntity
  8
SK2
  6
CONTINUOUS
370
25
 62
7
100
AcDbLine
 10
0.8398752153105846
 20
18.16798504306212
 30
0.0
 11
1.25981282296587
 21
17.74804743540683
 31
0.0
  0
LINE
  5
81D
330
1F
100
AcDbEntity
  8
SK2
  6
CONTINUOUS
370
25
 62
7
100
AcDbLine
 10
1.193428605903861
 20
18.23869572118076
 30
0.0
 11
1.790142908855771
 21
17.64198141822885
 31
0.0
  0
LINE
  5
81E
330
1F
100
AcDbEntity
  8
SK2
  6
CONTINUOUS
370
25
 62
7
100
AcDbLine
 10
1.546981996497124
 20
18.30940639929943
 30
0.0
 11
2.320472994745685
 21
17.53591540105086
 31
0.0
  0
LINE
  5
81F
330
1F
100
AcDbEntity
  8
SK2
  6
CONTINUOUS
370
25
 62
7
100
AcDbLine
 10
1.9005353870904
 20
18.38011707741808
 30
0.0
 11
2.8508030806356
 21
17.42984938387288
 31
0.0
  0
LINE
  5
820
330
1F
100
AcDbEntity
  8
SK2
  6
CONTINUOUS
370
25
 62
7
100
AcDbLine
 10
2.254088777683677
 20
18.45082775553672
 30
0.0
 11
3.381133166525501
 21
17.3237833666949
 31
0.0
  0
LINE
  5
821
330
1F
100
AcDbEntity
  8
SK2
  6
CONTINUOUS
370
25
 62
7
100
AcDbLine
 10
2.607642168276939
 20
18.52153843365538
 30
0.0
 11
3.911463252415402
 21
17.21771734951692
 31
0.0
  0
LINE
  5
822
330
1F
100
AcDbEntity
  8
SK2
  6
CONTINUOUS
370
25
 62
7
100
AcDbLine
 10
2.961195558870216
 20
18.59224911177403
 30
0.0
 11
4.441793338305303
 21
17.11165133233894
 31
0.0
  0
LINE
  5
823
330
1F
100
AcDbEntity
  8
SK2
  6
CONTINUOUS
370
25
 62
7
100
AcDbLine
 10
3.314748949463478
 20
18.6629597898927
 30
0.0
 11
4.972123424195217
 21
17.00558531516096
 31
0.0
  0
LINE
  5
824
330
1F
100
AcDbEntity
  8
SK2
  6
CONTINUOUS
370
25
 62
7
100
AcDbLine
 10
3.668302340056755
 20
18.73367046801134
 30
0.0
 11
5.0
 21
17.40197280806809
 31
0.0
  0
LINE
  5
825
330
1F
100
AcDbEntity
  8
SK2
  6
CONTINUOUS
370
25
 62
7
100
AcDbLine
 10
4.021855730650017
 20
18.80438114613
 30
0.0
 11
5.0
 21
17.82623687678002
 31
0.0
  0
LINE
  5
826
330
1F
100
AcDbEntity
  8
SK2
  6
CONTINUOUS
370
25
 62
7
100
AcDbLine
 10
4.375409121243294
 20
18.87509182424865
 30
0.0
 11
5.0
 21
18.25050094549194
 31
0.0
  0
LINE
  5
827
330
1F
100
AcDbEntity
  8
SK2
  6
CONTINUOUS
370
25
 62
7
100
AcDbLine
 10
4.728962511836571
 20
18.9458025023673
 30
0.0
 11
5.0
 21
18.67476501420387
 31
0.0
  0
LINE
  5
828
330
1F
100
AcDbEntity
  8
SK2
  6
CONTINUOUS
370
25
 62
7
100
AcDbLine
 10
79.8
 20
18.00001
 30
0.0
 11
74.8
 21
17.00001
 31
0.0
  0
LINE
  5
829
330
1F
100
AcDbEntity
  8
SK2
  6
CONTINUOUS
370
25
 62
7
100
AcDbLine
 10
74.8
 20
17.00001
 30
0.0
 11
74.8
 21
19.00001
 31
0.0
  0
LINE
  5
82A
330
1F
100
AcDbEntity
  8
SK2
  6
CONTINUOUS
370
25
 62
7
100
AcDbLine
 10
74.8
 20
19.00001
 30
0.0
 11
79.8
 21
18.00001
 31
0.0
  0
LINE
  5
82B
330
1F
100
AcDbEntity
  8
SK2
  6
CONTINUOUS
370
25
 62
7
100
AcDbLine
 10
79.49581880673384
 20
17.93917376134677
 30
0.0
 11
79.59721253782256
 21
18.04056749243549
 31
0.0
  0
LINE
  5
82C
330
1F
100
AcDbEntity
  8
SK2
  6
CONTINUOUS
370
25
 62
7
100
AcDbLine
 10
78.96548872084394
 20
17.83310774416879
 30
0.0
 11
79.24365914722928
 21
18.11127817055414
 31
0.0
  0
LINE
  5
82D
330
1F
100
AcDbEntity
  8
SK2
  6
CONTINUOUS
370
25
 62
7
100
AcDbLine
 10
78.43515863495402
 20
17.72704172699081
 30
0.0
 11
78.89010575663602
 21
18.18198884867279
 31
0.0
  0
LINE
  5
82E
330
1F
100
AcDbEntity
  8
SK2
  6
CONTINUOUS
370
25
 62
7
100
AcDbLine
 10
77.9048285490641
 20
17.62097570981282
 30
0.0
 11
78.53655236604274
 21
18.25269952679145
 31
0.0
  0
LINE
  5
82F
330
1F
100
AcDbEntity
  8
SK2
  6
CONTINUOUS
370
25
 62
7
100
AcDbLine
 10
77.37449846317419
 20
17.51490969263484
 30
0.0
 11
78.18299897544946
 21
18.32341020491011
 31
0.0
  0
LINE
  5
830
330
1F
100
AcDbEntity
  8
SK2
  6
CONTINUOUS
370
25
 62
7
100
AcDbLine
 10
76.84416837728429
 20
17.40884367545686
 30
0.0
 11
77.82944558485619
 21
18.39412088302876
 31
0.0
  0
LINE
  5
831
330
1F
100
AcDbEntity
  8
SK2
  6
CONTINUOUS
370
25
 62
7
100
AcDbLine
 10
76.31383829139438
 20
17.30277765827888
 30
0.0
 11
77.47589219426291
 21
18.46483156114742
 31
0.0
  0
LINE
  5
832
330
1F
100
AcDbEntity
  8
SK2
  6
CONTINUOUS
370
25
 62
7
100
AcDbLine
 10
75.78350820550446
 20
17.19671164110089
 30
0.0
 11
77.12233880366965
 21
18.53554223926607
 31
0.0
  0
LINE
  5
833
330
1F
100
AcDbEntity
  8
SK2
  6
CONTINUOUS
370
25
 62
7
100
AcDbLine
 10
75.25317811961456
 20
17.09064562392291
 30
0.0
 11
76.76878541307637
 21
18.60625291738473
 31
0.0
  0
LINE
  5
834
330
1F
100
AcDbEntity
  8
SK2
  6
CONTINUOUS
370
25
 62
7
100
AcDbLine
 10
74.8
 20
17.06173157302028
 30
0.0
 11
76.4152320224831
 21
18.67696359550338
 31
0.0
  0
LINE
  5
835
330
1F
100
AcDbEntity
  8
SK2
  6
CONTINUOUS
370
25
 62
7
100
AcDbLine
 10
74.8
 20
17.48599564173221
 30
0.0
 11
76.06167863188982
 21
18.74767427362204
 31
0.0
  0
LINE
  5
836
330
1F
100
AcDbEntity
  8
SK2
  6
CONTINUOUS
370
25
 62
7
100
AcDbLine
 10
74.8
 20
17.91025971044414
 30
0.0
 11
75.70812524129656
 21
18.81838495174069
 31
0.0
  0
LINE
  5
837
330
1F
100
AcDbEntity
  8
SK2
  6
CONTINUOUS
370
25
 62
7
100
AcDbLine
 10
74.8
 20
18.33452377915606
 30
0.0
 11
75.35457185070328
 21
18.88909562985934
 31
0.0
  0
LINE
  5
838
330
1F
100
AcDbEntity
  8
SK2
  6
CONTINUOUS
370
25
 62
7
100
AcDbLine
 10
74.8
 20
18.75878784786799
 30
0.0
 11
75.00101846011
 21
18.959806307978
 31
0.0
  0
LINE
  5
839
330
1F
100
AcDbEntity
  8
SK2
  6
CONTINUOUS
370
25
 62
7
100
AcDbLine
 10
74.8
 20
17.3036579926459
 30
0.0
 11
75.05303999387158
 21
17.05061799877432
 31
0.0
  0
LINE
  5
83A
330
1F
100
AcDbEntity
  8
SK2
  6
CONTINUOUS
370
25
 62
7
100
AcDbLine
 10
74.8
 20
17.72792206135782
 30
0.0
 11
75.40659338446486
 21
17.12132867689297
 31
0.0
  0
LINE
  5
83B
330
1F
100
AcDbEntity
  8
SK2
  6
CONTINUOUS
370
25
 62
7
100
AcDbLine
 10
74.8
 20
18.15218613006975
 30
0.0
 11
75.76014677505812
 21
17.19203935501162
 31
0.0
  0
LINE
  5
83C
330
1F
100
AcDbEntity
  8
SK2
  6
CONTINUOUS
370
25
 62
7
100
AcDbLine
 10
74.8
 20
18.57645019878168
 30
0.0
 11
76.1137001656514
 21
17.26275003313028
 31
0.0
  0
LINE
  5
83D
330
1F
100
AcDbEntity
  8
SK2
  6
CONTINUOUS
370
25
 62
7
100
AcDbLine
 10
74.80088033436701
 20
18.9998339331266
 30
0.0
 11
76.46725355624467
 21
17.33346071124894
 31
0.0
  0
LINE
  5
83E
330
1F
100
AcDbEntity
  8
SK2
  6
CONTINUOUS
370
25
 62
7
100
AcDbLine
 10
75.33121042025691
 20
18.89376791594862
 30
0.0
 11
76.82080694683795
 21
17.40417138936759
 31
0.0
  0
LINE
  5
83F
330
1F
100
AcDbEntity
  8
SK2
  6
CONTINUOUS
370
25
 62
7
100
AcDbLine
 10
75.86154050614682
 20
18.78770189877064
 30
0.0
 11
77.17436033743121
 21
17.47488206748625
 31
0.0
  0
LINE
  5
840
330
1F
100
AcDbEntity
  8
SK2
  6
CONTINUOUS
370
25
 62
7
100
AcDbLine
 10
76.39187059203674
 20
18.68163588159265
 30
0.0
 11
77.52791372802449
 21
17.5455927456049
 31
0.0
  0
LINE
  5
841
330
1F
100
AcDbEntity
  8
SK2
  6
CONTINUOUS
370
25
 62
7
100
AcDbLine
 10
76.92220067792664
 20
18.57556986441467
 30
0.0
 11
77.88146711861776
 21
17.61630342372355
 31
0.0
  0
LINE
  5
842
330
1F
100
AcDbEntity
  8
SK2
  6
CONTINUOUS
370
25
 62
7
100
AcDbLine
 10
77.45253076381655
 20
18.46950384723669
 30
0.0
 11
78.23502050921104
 21
17.68701410184221
 31
0.0
  0
LINE
  5
843
330
1F
100
AcDbEntity
  8
SK2
  6
CONTINUOUS
370
25
 62
7
100
AcDbLine
 10
77.98286084970647
 20
18.36343783005871
 30
0.0
 11
78.58857389980432
 21
17.75772477996086
 31
0.0
  0
LINE
  5
844
330
1F
100
AcDbEntity
  8
SK2
  6
CONTINUOUS
370
25
 62
7
100
AcDbLine
 10
78.51319093559638
 20
18.25737181288072
 30
0.0
 11
78.94212729039758
 21
17.82843545807952
 31
0.0
  0
LINE
  5
845
330
1F
100
AcDbEntity
  8
SK2
  6
CONTINUOUS
370
25
 62
7
100
AcDbLine
 10
79.04352102148628
 20
18.15130579570274
 30
0.0
 11
79.29568068099086
 21
17.89914613619817
 31
0.0
  0
LINE
  5
846
330
1F
100
AcDbEntity
  8
SK2
  6
CONTINUOUS
370
25
 62
7
100
AcDbLine
 10
79.5738511073762
 20
18.04523977852476
 30
0.0
 11
79.64923407158413
 21
17.96985681431683
 31
0.0
  0
TEXT
  5
847
330
1F
100
AcDbEntity
  8
SK2
  6
CONTINUOUS
370
25
 62
7
100
AcDbText
 10
34.65
 20
19.50001
 30
0.0
 40
3.5
  1
79.8
 72
     1
 11
39.9
 21
19.50001
 31
0.0
100
AcDbText
  0
LINE
  5
848
330
1F
100
AcDbEntity
  8
2
  6
CONTINUOUS
370
25
 62
7
100
AcDbLine
 10
140.0
 20
-6.0
 30
0.0
 11
153.0
 21
-6.000000000000002
 31
0.0
  0
LINE
  5
849
330
1F
100
AcDbEntity
  8
2
  6
CONTINUOUS
370
25
 62
7
100
AcDbLine
 10
153.0
 20
5.999999999999998
 30
0.0
 11
140.0
 21
6.0
 31
0.0
  0
LINE
  5
84A
330
1F
100
AcDbEntity
  8
2
  6
CONTINUOUS
370
25
 62
7
100
AcDbLine
 10
152.0
 20
-13.0
 30
0.0
 11
152.0
 21
13.0
 31
0.0
  0
LINE
  5
84B
330
1F
100
AcDbEntity
  8
2
  6
CONTINUOUS
370
25
 62
7
100
AcDbLine
 10
152.0
 20
-6.000000000000002
 30
0.0
 11
153.0
 21
-11.0
 31
0.0
  0
LINE
  5
84C
330
1F
100
AcDbEntity
  8
2
  6
CONTINUOUS
370
25
 62
7
100
AcDbLine
 10
153.0
 20
-11.0
 30
0.0
 11
151.0
 21
-11.0
 31
0.0
  0
LINE
  5
84D
330
1F
100
AcDbEntity
  8
2
  6
CONTINUOUS
370
25
 62
7
100
AcDbLine
 10
151.0
 20
-11.0
 30
0.0
 11
152.0
 21
-6.000000000000002
 31
0.0
  0
LINE
  5
84E
330
1F
100
AcDbEntity
  8
2
  6
CONTINUOUS
370
25
 62
7
100
AcDbLine
 10
152.8760125808788
 20
-11.0
 30
0.0
 11
152.9793354301465
 21
-10.89667715073236
 31
0.0
  0
LINE
  5
84F
330
1F
100
AcDbEntity
  8
2
  6
CONTINUOUS
370
25
 62
7
100
AcDbLine
 10
152.4517485121669
 20
-11.0
 30
0.0
 11
152.9086247520278
 21
-10.54312376013908
 31
0.0
  0
LINE
  5
850
330
1F
100
AcDbEntity
  8
2
  6
CONTINUOUS
370
25
 62
7
100
AcDbLine
 10
152.027484443455
 20
-11.0
 30
0.0
 11
152.8379140739092
 21
-10.18957036954581
 31
0.0
  0
LINE
  5
851
330
1F
100
AcDbEntity
  8
2
  6
CONTINUOUS
370
25
 62
7
100
AcDbLine
 10
151.603220374743
 20
-11.0
 30
0.0
 11
152.7672033957905
 21
-9.836016978952543
 31
0.0
  0
LINE
  5
852
330
1F
100
AcDbEntity
  8
2
  6
CONTINUOUS
370
25
 62
7
100
AcDbLine
 10
151.1789563060311
 20
-11.0
 30
0.0
 11
152.6964927176718
 21
-9.482463588359266
 31
0.0
  0
LINE
  5
853
330
1F
100
AcDbEntity
  8
2
  6
CONTINUOUS
370
25
 62
7
100
AcDbLine
 10
151.0613269406702
 20
-10.69336529664899
 30
0.0
 11
152.6257820395532
 21
-9.12891019776599
 31
0.0
  0
LINE
  5
854
330
1F
100
AcDbEntity
  8
2
  6
CONTINUOUS
370
25
 62
7
100
AcDbLine
 10
151.1673929578482
 20
-10.16303521075909
 30
0.0
 11
152.5550713614346
 21
-8.775356807172727
 31
0.0
  0
LINE
  5
855
330
1F
100
AcDbEntity
  8
2
  6
CONTINUOUS
370
25
 62
7
100
AcDbLine
 10
151.2734589750262
 20
-9.63270512486919
 30
0.0
 11
152.4843606833159
 21
-8.421803416579465
 31
0.0
  0
LINE
  5
856
330
1F
100
AcDbEntity
  8
2
  6
CONTINUOUS
370
25
 62
7
100
AcDbLine
 10
151.3795249922042
 20
-9.10237503897929
 30
0.0
 11
152.4136500051972
 21
-8.068250025986188
 31
0.0
  0
LINE
  5
857
330
1F
100
AcDbEntity
  8
2
  6
CONTINUOUS
370
25
 62
7
100
AcDbLine
 10
151.4855910093821
 20
-8.572044953089375
 30
0.0
 11
152.3429393270786
 21
-7.714696635392912
 31
0.0
  0
LINE
  5
858
330
1F
100
AcDbEntity
  8
2
  6
CONTINUOUS
370
25
 62
7
100
AcDbLine
 10
151.5916570265601
 20
-8.041714867199474
 30
0.0
 11
152.2722286489599
 21
-7.361143244799649
 31
0.0
  0
LINE
  5
859
330
1F
100
AcDbEntity
  8
2
  6
CONTINUOUS
370
25
 62
7
100
AcDbLine
 10
151.6977230437381
 20
-7.511384781309573
 30
0.0
 11
152.2015179708413
 21
-7.007589854206373
 31
0.0
  0
LINE
  5
85A
330
1F
100
AcDbEntity
  8
2
  6
CONTINUOUS
370
25
 62
7
100
AcDbLine
 10
151.8037890609161
 20
-6.981054695419672
 30
0.0
 11
152.1308072927226
 21
-6.65403646361311
 31
0.0
  0
LINE
  5
85B
330
1F
100
AcDbEntity
  8
2
  6
CONTINUOUS
370
25
 62
7
100
AcDbLine
 10
151.909855078094
 20
-6.450724609529743
 30
0.0
 11
152.060096614604
 21
-6.300483073019834
 31
0.0
  0
LINE
  5
85C
330
1F
100
AcDbEntity
  8
2
  6
CONTINUOUS
370
25
 62
7
100
AcDbLine
 10
151.0075829595157
 20
-10.96208520242146
 30
0.0
 11
151.0454977570943
 21
-11.00000000000001
 31
0.0
  0
LINE
  5
85D
330
1F
100
AcDbEntity
  8
2
  6
CONTINUOUS
370
25
 62
7
100
AcDbLine
 10
151.0782936376344
 20
-10.60853181182819
 30
0.0
 11
151.4697618258062
 21
-11.00000000000001
 31
0.0
  0
LINE
  5
85E
330
1F
100
AcDbEntity
  8
2
  6
CONTINUOUS
370
25
 62
7
100
AcDbLine
 10
151.149004315753
 20
-10.25497842123492
 30
0.0
 11
151.8940258945181
 21
-11.0
 31
0.0
  0
LINE
  5
85F
330
1F
100
AcDbEntity
  8
2
  6
CONTINUOUS
370
25
 62
7
100
AcDbLine
 10
151.2197149938717
 20
-9.901425030641647
 30
0.0
 11
152.31828996323
 21
-11.0
 31
0.0
  0
LINE
  5
860
330
1F
100
AcDbEntity
  8
2
  6
CONTINUOUS
370
25
 62
7
100
AcDbLine
 10
151.2904256719903
 20
-9.547871640048378
 30
0.0
 11
152.7425540319419
 21
-11.00000000000001
 31
0.0
  0
LINE
  5
861
330
1F
100
AcDbEntity
  8
2
  6
CONTINUOUS
370
25
 62
7
100
AcDbLine
 10
151.361136350109
 20
-9.194318249455108
 30
0.0
 11
152.9582954748365
 21
-10.79147737418266
 31
0.0
  0
LINE
  5
862
330
1F
100
AcDbEntity
  8
2
  6
CONTINUOUS
370
25
 62
7
100
AcDbLine
 10
151.4318470282277
 20
-8.840764858861846
 30
0.0
 11
152.8522294576586
 21
-10.26114728829276
 31
0.0
  0
LINE
  5
863
330
1F
100
AcDbEntity
  8
2
  6
CONTINUOUS
370
25
 62
7
100
AcDbLine
 10
151.5025577063463
 20
-8.487211468268576
 30
0.0
 11
152.7461634404806
 21
-9.730817202402854
 31
0.0
  0
LINE
  5
864
330
1F
100
AcDbEntity
  8
2
  6
CONTINUOUS
370
25
 62
7
100
AcDbLine
 10
151.5732683844649
 20
-8.133658077675292
 30
0.0
 11
152.6400974233026
 21
-9.200487116512946
 31
0.0
  0
LINE
  5
865
330
1F
100
AcDbEntity
  8
2
  6
CONTINUOUS
370
25
 62
7
100
AcDbLine
 10
151.6439790625836
 20
-7.78010468708203
 30
0.0
 11
152.5340314061246
 21
-8.670157030623045
 31
0.0
  0
LINE
  5
866
330
1F
100
AcDbEntity
  8
2
  6
CONTINUOUS
370
25
 62
7
100
AcDbLine
 10
151.7146897407022
 20
-7.426551296488753
 30
0.0
 11
152.4279653889466
 21
-8.139826944733144
 31
0.0
  0
LINE
  5
867
330
1F
100
AcDbEntity
  8
2
  6
CONTINUOUS
370
25
 62
7
100
AcDbLine
 10
151.7854004188209
 20
-7.072997905895477
 30
0.0
 11
152.3218993717686
 21
-7.609496858843215
 31
0.0
  0
LINE
  5
868
330
1F
100
AcDbEntity
  8
2
  6
CONTINUOUS
370
25
 62
7
100
AcDbLine
 10
151.8561110969395
 20
-6.7194445153022
 30
0.0
 11
152.2158333545907
 21
-7.079166772953329
 31
0.0
  0
LINE
  5
869
330
1F
100
AcDbEntity
  8
2
  6
CONTINUOUS
370
25
 62
7
100
AcDbLine
 10
151.9268217750582
 20
-6.365891124708952
 30
0.0
 11
152.1097673374127
 21
-6.548836687063414
 31
0.0
  0
LINE
  5
86A
330
1F
100
AcDbEntity
  8
2
  6
CONTINUOUS
370
25
 62
7
100
AcDbLine
 10
151.9975324531769
 20
-6.012337734115675
 30
0.0
 11
152.0037013202347
 21
-6.018506601173527
 31
0.0
  0
LINE
  5
86B
330
1F
100
AcDbEntity
  8
2
  6
CONTINUOUS
370
25
 62
7
100
AcDbLine
 10
152.0
 20
5.999999999999998
 30
0.0
 11
151.0
 21
11.0
 31
0.0
  0
LINE
  5
86C
330
1F
100
AcDbEntity
  8
2
  6
CONTINUOUS
370
25
 62
7
100
AcDbLine
 10
151.0
 20
11.0
 30
0.0
 11
153.0
 21
11.0
 31
0.0
  0
LINE
  5
86D
330
1F
100
AcDbEntity
  8
2
  6
CONTINUOUS
370
25
 62
7
100
AcDbLine
 10
153.0
 20
11.0
 30
0.0
 11
152.0
 21
5.999999999999998
 31
0.0
  0
LINE
  5
86E
330
1F
100
AcDbEntity
  8
2
  6
CONTINUOUS
370
25
 62
7
100
AcDbLine
 10
151.9996745319887
 20
6.001627340056658
 30
0.0
 11
152.000488202017
 21
6.002441010084993
 31
0.0
  0
LINE
  5
86F
330
1F
100
AcDbEntity
  8
2
  6
CONTINUOUS
370
25
 62
7
100
AcDbLine
 10
151.92896385387
 20
6.35518073064992
 30
0.0
 11
152.106554219195
 21
6.532771095974908
 31
0.0
  0
LINE
  5
870
330
1F
100
AcDbEntity
  8
2
  6
CONTINUOUS
370
25
 62
7
100
AcDbLine
 10
151.8582531757513
 20
6.708734121243197
 30
0.0
 11
152.212620236373
 21
7.063101181864823
 31
0.0
  0
LINE
  5
871
330
1F
100
AcDbEntity
  8
2
  6
CONTINUOUS
370
25
 62
7
100
AcDbLine
 10
151.7875424976327
 20
7.062287511836473
 30
0.0
 11
152.3186862535509
 21
7.593431267754724
 31
0.0
  0
LINE
  5
872
330
1F
100
AcDbEntity
  8
2
  6
CONTINUOUS
370
25
 62
7
100
AcDbLine
 10
151.7168318195141
 20
7.41584090242975
 30
0.0
 11
152.4247522707289
 21
8.12376135364461
 31
0.0
  0
LINE
  5
873
330
1F
100
AcDbEntity
  8
2
  6
CONTINUOUS
370
25
 62
7
100
AcDbLine
 10
151.6461211413954
 20
7.769394293023026
 30
0.0
 11
152.5308182879069
 21
8.654091439534525
 31
0.0
  0
LINE
  5
874
330
1F
100
AcDbEntity
  8
2
  6
CONTINUOUS
370
25
 62
7
100
AcDbLine
 10
151.5754104632767
 20
8.122947683616289
 30
0.0
 11
152.6368843050849
 21
9.184421525424426
 31
0.0
  0
LINE
  5
875
330
1F
100
AcDbEntity
  8
2
  6
CONTINUOUS
370
25
 62
7
100
AcDbLine
 10
151.5046997851581
 20
8.476501074209565
 30
0.0
 11
152.7429503222629
 21
9.714751611314327
 31
0.0
  0
LINE
  5
876
330
1F
100
AcDbEntity
  8
2
  6
CONTINUOUS
370
25
 62
7
100
AcDbLine
 10
151.4339891070394
 20
8.83005446480282
 30
0.0
 11
152.8490163394409
 21
10.24508169720425
 31
0.0
  0
LINE
  5
877
330
1F
100
AcDbEntity
  8
2
  6
CONTINUOUS
370
25
 62
7
100
AcDbLine
 10
151.3632784289208
 20
9.183607855396097
 30
0.0
 11
152.9550823566188
 21
10.77541178309415
 31
0.0
  0
LINE
  5
878
330
1F
100
AcDbEntity
  8
2
  6
CONTINUOUS
370
25
 62
7
100
AcDbLine
 10
151.2925677508021
 20
9.537161245989367
 30
0.0
 11
152.7554065048128
 21
11.0
 31
0.0
  0
LINE
  5
879
330
1F
100
AcDbEntity
  8
2
  6
CONTINUOUS
370
25
 62
7
100
AcDbLine
 10
151.2218570726835
 20
9.89071463658263
 30
0.0
 11
152.3311424361008
 21
11.0
 31
0.0
  0
LINE
  5
87A
330
1F
100
AcDbEntity
  8
2
  6
CONTINUOUS
370
25
 62
7
100
AcDbLine
 10
151.1511463945648
 20
10.24426802717591
 30
0.0
 11
151.9068783673889
 21
10.99999999999999
 31
0.0
  0
LINE
  5
87B
330
1F
100
AcDbEntity
  8
2
  6
CONTINUOUS
370
25
 62
7
100
AcDbLine
 10
151.0804357164462
 20
10.59782141776918
 30
0.0
 11
151.482614298677
 21
10.99999999999999
 31
0.0
  0
LINE
  5
87C
330
1F
100
AcDbEntity
  8
2
  6
CONTINUOUS
370
25
 62
7
100
AcDbLine
 10
151.0097250383275
 20
10.95137480836244
 30
0.0
 11
151.0583502299651
 21
11.0
 31
0.0
  0
LINE
  5
87D
330
1F
100
AcDbEntity
  8
2
  6
CONTINUOUS
370
25
 62
7
100
AcDbLine
 10
151.9277868220732
 20
6.361065889633778
 30
0.0
 11
152.0481421186178
 21
6.24071059308919
 31
0.0
  0
LINE
  5
87E
330
1F
100
AcDbEntity
  8
2
  6
CONTINUOUS
370
25
 62
7
100
AcDbLine
 10
151.8217208048953
 20
6.891395975523707
 30
0.0
 11
152.1188527967365
 21
6.594263983682467
 31
0.0
  0
LINE
  5
87F
330
1F
100
AcDbEntity
  8
2
  6
CONTINUOUS
370
25
 62
7
100
AcDbLine
 10
151.7156547877173
 20
7.421726061413594
 30
0.0
 11
152.1895634748551
 21
6.947817374275743
 31
0.0
  0
LINE
  5
880
330
1F
100
AcDbEntity
  8
2
  6
CONTINUOUS
370
25
 62
7
100
AcDbLine
 10
151.6095887705393
 20
7.952056147303509
 30
0.0
 11
152.2602741529738
 21
7.301370764868992
 31
0.0
  0
LINE
  5
881
330
1F
100
AcDbEntity
  8
2
  6
CONTINUOUS
370
25
 62
7
100
AcDbLine
 10
151.5035227533613
 20
8.482386233193395
 30
0.0
 11
152.3309848310925
 21
7.654924155462268
 31
0.0
  0
LINE
  5
882
330
1F
100
AcDbEntity
  8
2
  6
CONTINUOUS
370
25
 62
7
100
AcDbLine
 10
151.3974567361833
 20
9.012716319083324
 30
0.0
 11
152.4016955092111
 21
8.008477546055545
 31
0.0
  0
LINE
  5
883
330
1F
100
AcDbEntity
  8
2
  6
CONTINUOUS
370
25
 62
7
100
AcDbLine
 10
151.2913907190054
 20
9.54304640497321
 30
0.0
 11
152.4724061873297
 21
8.362030936648821
 31
0.0
  0
LINE
  5
884
330
1F
100
AcDbEntity
  8
2
  6
CONTINUOUS
370
25
 62
7
100
AcDbLine
 10
151.1853247018274
 20
10.07337649086314
 30
0.0
 11
152.5431168654484
 21
8.715584327242098
 31
0.0
  0
LINE
  5
885
330
1F
100
AcDbEntity
  8
2
  6
CONTINUOUS
370
25
 62
7
100
AcDbLine
 10
151.0792586846494
 20
10.60370657675303
 30
0.0
 11
152.6138275435671
 21
9.069137717835375
 31
0.0
  0
LINE
  5
886
330
1F
100
AcDbEntity
  8
2
  6
CONTINUOUS
370
25
 62
7
100
AcDbLine
 10
151.1072293301144
 20
11.0
 30
0.0
 11
152.6845382216857
 21
9.422691108428623
 31
0.0
  0
LINE
  5
887
330
1F
100
AcDbEntity
  8
2
  6
CONTINUOUS
370
25
 62
7
100
AcDbLine
 10
151.5314933988263
 20
11.0
 30
0.0
 11
152.7552488998044
 21
9.7762444990219
 31
0.0
  0
LINE
  5
888
330
1F
100
AcDbEntity
  8
2
  6
CONTINUOUS
370
25
 62
7
100
AcDbLine
 10
151.9557574675382
 20
11.0
 30
0.0
 11
152.825959577923
 21
10.12979788961516
 31
0.0
  0
LINE
  5
889
330
1F
100
AcDbEntity
  8
2
  6
CONTINUOUS
370
25
 62
7
100
AcDbLine
 10
152.3800215362501
 20
11.0
 30
0.0
 11
152.8966702560417
 21
10.48335128020842
 31
0.0
  0
LINE
  5
88A
330
1F
100
AcDbEntity
  8
2
  6
CONTINUOUS
370
25
 62
7
100
AcDbLine
 10
152.804285604962
 20
11.0
 30
0.0
 11
152.9673809341604
 21
10.83690467080169
 31
0.0
  0
TEXT
  5
88B
330
1F
100
AcDbEntity
  8
2
  6
CONTINUOUS
370
25
 62
7
100
AcDbText
 10
150.5
 20
-0.0583333333333336
 30
0.0
 40
3.5
  1
12
 50
90.0
 72
     1
 11
150.5
 21
2.275
 31
0.0
100
AcDbText
  0
CIRCLE
  5
88C
330
1F
100
AcDbEntity
  8
2
  6
CONTINUOUS
370
25
 62
7
100
AcDbCircle
 10
148.75
 20
-2.625
 30
0.0
 40
1.4
  0
LINE
  5
88D
330
1F
100
AcDbEntity
  8
2
  6
CONTINUOUS
370
25
 62
7
100
AcDbLine
 10
150.15
 20
-4.024999999999999
 30
0.0
 11
147.35
 21
-1.224999999999999
 31
0.0
  0
LINE
  5
88E
330
1F
100
AcDbEntity
  8
2
  6
CONTINUOUS
370
25
 62
7
100
AcDbLine
 10
122.0
 20
-5.92495
 30
0.0
 11
99.9
 21
-5.924949999999997
 31
0.0
  0
LINE
  5
88F
330
1F
100
AcDbEntity
  8
2
  6
CONTINUOUS
370
25
 62
7
100
AcDbLine
 10
99.9
 20
5.924950000000003
 30
0.0
 11
122.0
 21
5.92495
 31
0.0
  0
LINE
  5
890
330
1F
100
AcDbEntity
  8
2
  6
CONTINUOUS
370
25
 62
7
100
AcDbLine
 10
100.9
 20
-12.92495
 30
0.0
 11
100.9
 21
31.29995
 31
0.0
  0
LINE
  5
891
330
1F
100
AcDbEntity
  8
2
  6
CONTINUOUS
370
25
 62
7
100
AcDbLine
 10
100.9
 20
-5.924949999999997
 30
0.0
 11
101.9
 21
-10.92495
 31
0.0
  0
LINE
  5
892
330
1F
100
AcDbEntity
  8
2
  6
CONTINUOUS
370
25
 62
7
100
AcDbLine
 10
101.9
 20
-10.92495
 30
0.0
 11
99.9
 21
-10.92495
 31
0.0
  0
LINE
  5
893
330
1F
100
AcDbEntity
  8
2
  6
CONTINUOUS
370
25
 62
7
100
AcDbLine
 10
99.9
 20
-10.92495
 30
0.0
 11
100.9
 21
-5.924949999999997
 31
0.0
  0
LINE
  5
894
330
1F
100
AcDbEntity
  8
2
  6
CONTINUOUS
370
25
 62
7
100
AcDbLine
 10
101.5126508263105
 20
-10.92495
 30
0.0
 11
101.8354418043851
 21
-10.60215902192541
 31
0.0
  0
LINE
  5
895
330
1F
100
AcDbEntity
  8
2
  6
CONTINUOUS
370
25
 62
7
100
AcDbLine
 10
101.0883867575986
 20
-10.92495
 30
0.0
 11
101.7647311262664
 21
-10.24860563133214
 31
0.0
  0
LINE
  5
896
330
1F
100
AcDbEntity
  8
2
  6
CONTINUOUS
370
25
 62
7
100
AcDbLine
 10
100.6641226888866
 20
-10.92495
 30
0.0
 11
101.6940204481478
 21
-9.895052240738863
 31
0.0
  0
LINE
  5
897
330
1F
100
AcDbEntity
  8
2
  6
CONTINUOUS
370
25
 62
7
100
AcDbLine
 10
100.2398586201747
 20
-10.92495
 30
0.0
 11
101.6233097700291
 21
-9.541498850145594
 31
0.0
  0
LINE
  5
898
330
1F
100
AcDbEntity
  8
2
  6
CONTINUOUS
370
25
 62
7
100
AcDbLine
 10
99.9211013621343
 20
-10.81944318932848
 30
0.0
 11
101.5525990919105
 21
-9.187945459552317
 31
0.0
  0
LINE
  5
899
330
1F
100
AcDbEntity
  8
2
  6
CONTINUOUS
370
25
 62
7
100
AcDbLine
 10
100.0271673793123
 20
-10.28911310343857
 30
0.0
 11
101.4818884137918
 21
-8.834392068959044
 31
0.0
  0
LINE
  5
89A
330
1F
100
AcDbEntity
  8
2
  6
CONTINUOUS
370
25
 62
7
100
AcDbLine
 10
100.1332333964903
 20
-9.758783017548659
 30
0.0
 11
101.4111777356731
 21
-8.480838678365771
 31
0.0
  0
LINE
  5
89B
330
1F
100
AcDbEntity
  8
2
  6
CONTINUOUS
370
25
 62
7
100
AcDbLine
 10
100.2392994136682
 20
-9.228452931658751
 30
0.0
 11
101.3404670575545
 21
-8.127285287772501
 31
0.0
  0
LINE
  5
89C
330
1F
100
AcDbEntity
  8
2
  6
CONTINUOUS
370
25
 62
7
100
AcDbLine
 10
100.3453654308462
 20
-8.69812284576884
 30
0.0
 11
101.2697563794358
 21
-7.773731897179225
 31
0.0
  0
LINE
  5
89D
330
1F
100
AcDbEntity
  8
2
  6
CONTINUOUS
370
25
 62
7
100
AcDbLine
 10
100.4514314480242
 20
-8.167792759878932
 30
0.0
 11
101.1990457013172
 21
-7.420178506585952
 31
0.0
  0
LINE
  5
89E
330
1F
100
AcDbEntity
  8
2
  6
CONTINUOUS
370
25
 62
7
100
AcDbLine
 10
100.5574974652022
 20
-7.63746267398902
 30
0.0
 11
101.1283350231985
 21
-7.066625115992679
 31
0.0
  0
LINE
  5
89F
330
1F
100
AcDbEntity
  8
2
  6
CONTINUOUS
370
25
 62
7
100
AcDbLine
 10
100.6635634823802
 20
-7.107132588099113
 30
0.0
 11
101.0576243450799
 21
-6.713071725399406
 31
0.0
  0
LINE
  5
8A0
330
1F
100
AcDbEntity
  8
2
  6
CONTINUOUS
370
25
 62
7
100
AcDbLine
 10
100.7696294995582
 20
-6.576802502209201
 30
0.0
 11
100.9869136669612
 21
-6.359518334806133
 31
0.0
  0
LINE
  5
8A1
330
1F
100
AcDbEntity
  8
2
  6
CONTINUOUS
370
25
 62
7
100
AcDbLine
 10
100.8756955167361
 20
-6.046472416319293
 30
0.0
 11
100.9162029888426
 21
-6.00596494421286
 31
0.0
  0
LINE
  5
8A2
330
1F
100
AcDbEntity
  8
2
  6
CONTINUOUS
370
25
 62
7
100
AcDbLine
 10
99.92645991861042
 20
-10.79265040694791
 30
0.0
 11
100.0587595116625
 21
-10.92495
 31
0.0
  0
LINE
  5
8A3
330
1F
100
AcDbEntity
  8
2
  6
CONTINUOUS
370
25
 62
7
100
AcDbLine
 10
99.99717059672906
 20
-10.43909701635464
 30
0.0
 11
100.4830235803744
 21
-10.92495
 31
0.0
  0
LINE
  5
8A4
330
1F
100
AcDbEntity
  8
2
  6
CONTINUOUS
370
25
 62
7
100
AcDbLine
 10
100.0678812748477
 20
-10.08554362576137
 30
0.0
 11
100.9072876490864
 21
-10.92495
 31
0.0
  0
LINE
  5
8A5
330
1F
100
AcDbEntity
  8
2
  6
CONTINUOUS
370
25
 62
7
100
AcDbLine
 10
100.1385919529664
 20
-9.7319902351681
 30
0.0
 11
101.3315517177983
 21
-10.92495
 31
0.0
  0
LINE
  5
8A6
330
1F
100
AcDbEntity
  8
2
  6
CONTINUOUS
370
25
 62
7
100
AcDbLine
 10
100.209302631085
 20
-9.378436844574825
 30
0.0
 11
101.7558157865102
 21
-10.92495
 31
0.0
  0
LINE
  5
8A7
330
1F
100
AcDbEntity
  8
2
  6
CONTINUOUS
370
25
 62
7
100
AcDbLine
 10
100.2800133092037
 20
-9.024883453981552
 30
0.0
 11
101.8299800361945
 21
-10.57485018097233
 31
0.0
  0
LINE
  5
8A8
330
1F
100
AcDbEntity
  8
2
  6
CONTINUOUS
370
25
 62
7
100
AcDbLine
 10
100.3507239873223
 20
-8.671330063388275
 30
0.0
 11
101.7239140190165
 21
-10.04452009508242
 31
0.0
  0
LINE
  5
8A9
330
1F
100
AcDbEntity
  8
2
  6
CONTINUOUS
370
25
 62
7
100
AcDbLine
 10
100.421434665441
 20
-8.317776672795
 30
0.0
 11
101.6178480018385
 21
-9.514190009192506
 31
0.0
  0
LINE
  5
8AA
330
1F
100
AcDbEntity
  8
2
  6
CONTINUOUS
370
25
 62
7
100
AcDbLine
 10
100.4921453435597
 20
-7.964223282201727
 30
0.0
 11
101.5117819846605
 21
-8.983859923302598
 31
0.0
  0
LINE
  5
8AB
330
1F
100
AcDbEntity
  8
2
  6
CONTINUOUS
370
25
 62
7
100
AcDbLine
 10
100.5628560216783
 20
-7.610669891608454
 30
0.0
 11
101.4057159674825
 21
-8.453529837412686
 31
0.0
  0
LINE
  5
8AC
330
1F
100
AcDbEntity
  8
2
  6
CONTINUOUS
370
25
 62
7
100
AcDbLine
 10
100.633566699797
 20
-7.257116501015183
 30
0.0
 11
101.2996499503046
 21
-7.923199751522773
 31
0.0
  0
LINE
  5
8AD
330
1F
100
AcDbEntity
  8
2
  6
CONTINUOUS
370
25
 62
7
100
AcDbLine
 10
100.7042773779156
 20
-6.903563110421906
 30
0.0
 11
101.1935839331266
 21
-7.392869665632865
 31
0.0
  0
LINE
  5
8AE
330
1F
100
AcDbEntity
  8
2
  6
CONTINUOUS
370
25
 62
7
100
AcDbLine
 10
100.7749880560343
 20
-6.550009719828637
 30
0.0
 11
101.0875179159486
 21
-6.862539579742954
 31
0.0
  0
LINE
  5
8AF
330
1F
100
AcDbEntity
  8
2
  6
CONTINUOUS
370
25
 62
7
100
AcDbLine
 10
100.8456987341529
 20
-6.19645632923536
 30
0.0
 11
100.9814518987706
 21
-6.332209493853046
 31
0.0
  0
LINE
  5
8B0
330
1F
100
AcDbEntity
  8
2
  6
CONTINUOUS
370
25
 62
7
100
AcDbLine
 10
100.9
 20
5.924950000000003
 30
0.0
 11
99.9
 21
10.92495
 31
0.0
  0
LINE
  5
8B1
330
1F
100
AcDbEntity
  8
2
  6
CONTINUOUS
370
25
 62
7
100
AcDbLine
 10
99.9
 20
10.92495
 30
0.0
 11
101.9
 21
10.92495
 31
0.0
  0
LINE
  5
8B2
330
1F
100
AcDbEntity
  8
2
  6
CONTINUOUS
370
25
 62
7
100
AcDbLine
 10
101.9
 20
10.92495
 30
0.0
 11
100.9
 21
5.924950000000003
 31
0.0
  0
LINE
  5
8B3
330
1F
100
AcDbEntity
  8
2
  6
CONTINUOUS
370
25
 62
7
100
AcDbLine
 10
100.880797572894
 20
6.020962135530173
 30
0.0
 11
100.9288036406591
 21
6.06896820329527
 31
0.0
  0
LINE
  5
8B4
330
1F
100
AcDbEntity
  8
2
  6
CONTINUOUS
370
25
 62
7
100
AcDbLine
 10
100.8100868947753
 20
6.374515526123455
 30
0.0
 11
101.034869657837
 21
6.599298289185176
 31
0.0
  0
LINE
  5
8B5
330
1F
100
AcDbEntity
  8
2
  6
CONTINUOUS
370
25
 62
7
100
AcDbLine
 10
100.7393762166567
 20
6.728068916716724
 30
0.0
 11
101.140935675015
 21
7.129628375075088
 31
0.0
  0
LINE
  5
8B6
330
1F
100
AcDbEntity
  8
2
  6
CONTINUOUS
370
25
 62
7
100
AcDbLine
 10
100.668665538538
 20
7.081622307310001
 30
0.0
 11
101.247001692193
 21
7.659958460964996
 31
0.0
  0
LINE
  5
8B7
330
1F
100
AcDbEntity
  8
2
  6
CONTINUOUS
370
25
 62
7
100
AcDbLine
 10
100.5979548604193
 20
7.435175697903269
 30
0.0
 11
101.353067709371
 21
8.190288546854905
 31
0.0
  0
LINE
  5
8B8
330
1F
100
AcDbEntity
  8
2
  6
CONTINUOUS
370
25
 62
7
100
AcDbLine
 10
100.5272441823007
 20
7.788729088496542
 30
0.0
 11
101.459133726549
 21
8.720618632744817
 31
0.0
  0
LINE
  5
8B9
330
1F
100
AcDbEntity
  8
2
  6
CONTINUOUS
370
25
 62
7
100
AcDbLine
 10
100.456533504182
 20
8.142282479089815
 30
0.0
 11
101.5651997437269
 21
9.250948718634724
 31
0.0
  0
LINE
  5
8BA
330
1F
100
AcDbEntity
  8
2
  6
CONTINUOUS
370
25
 62
7
100
AcDbLine
 10
100.3858228260634
 20
8.495835869683088
 30
0.0
 11
101.6712657609049
 21
9.781278804524636
 31
0.0
  0
LINE
  5
8BB
330
1F
100
AcDbEntity
  8
2
  6
CONTINUOUS
370
25
 62
7
100
AcDbLine
 10
100.3151121479447
 20
8.849389260276363
 30
0.0
 11
101.7773317780829
 21
10.31160889041454
 31
0.0
  0
LINE
  5
8BC
330
1F
100
AcDbEntity
  8
2
  6
CONTINUOUS
370
25
 62
7
100
AcDbLine
 10
100.2444014698261
 20
9.202942650869636
 30
0.0
 11
101.8833977952609
 21
10.84193897630445
 31
0.0
  0
LINE
  5
8BD
330
1F
100
AcDbEntity
  8
2
  6
CONTINUOUS
370
25
 62
7
100
AcDbLine
 10
100.1736907917074
 20
9.556496041462909
 30
0.0
 11
101.5421447502445
 21
10.92495
 31
0.0
  0
LINE
  5
8BE
330
1F
100
AcDbEntity
  8
2
  6
CONTINUOUS
370
25
 62
7
100
AcDbLine
 10
100.1029801135888
 20
9.910049432056182
 30
0.0
 11
101.1178806815326
 21
10.92495
 31
0.0
  0
LINE
  5
8BF
330
1F
100
AcDbEntity
  8
2
  6
CONTINUOUS
370
25
 62
7
100
AcDbLine
 10
100.0322694354701
 20
10.26360282264945
 30
0.0
 11
100.6936166128207
 21
10.92495
 31
0.0
  0
LINE
  5
8C0
330
1F
100
AcDbEntity
  8
2
  6
CONTINUOUS
370
25
 62
7
100
AcDbLine
 10
99.96155875735145
 20
10.61715621324273
 30
0.0
 11
100.2693525441087
 21
10.92495
 31
0.0
  0
LINE
  5
8C1
330
1F
100
AcDbEntity
  8
2
  6
CONTINUOUS
370
25
 62
7
100
AcDbLine
 10
100.8680124006091
 20
6.084887996954308
 30
0.0
 11
100.9213250662606
 21
6.031575331302871
 31
0.0
  0
LINE
  5
8C2
330
1F
100
AcDbEntity
  8
2
  6
CONTINUOUS
370
25
 62
7
100
AcDbLine
 10
100.7619463834312
 20
6.615218082844216
 30
0.0
 11
100.9920357443792
 21
6.385128721896145
 31
0.0
  0
LINE
  5
8C3
330
1F
100
AcDbEntity
  8
2
  6
CONTINUOUS
370
25
 62
7
100
AcDbLine
 10
100.6558803662532
 20
7.145548168734127
 30
0.0
 11
101.0627464224979
 21
6.738682112489418
 31
0.0
  0
LINE
  5
8C4
330
1F
100
AcDbEntity
  8
2
  6
CONTINUOUS
370
25
 62
7
100
AcDbLine
 10
100.5498143490752
 20
7.675878254624035
 30
0.0
 11
101.1334571006165
 21
7.092235503082691
 31
0.0
  0
LINE
  5
8C5
330
1F
100
AcDbEntity
  8
2
  6
CONTINUOUS
370
25
 62
7
100
AcDbLine
 10
100.4437483318972
 20
8.20620834051395
 30
0.0
 11
101.2041677787352
 21
7.44578889367596
 31
0.0
  0
LINE
  5
8C6
330
1F
100
AcDbEntity
  8
2
  6
CONTINUOUS
370
25
 62
7
100
AcDbLine
 10
100.3376823147192
 20
8.736538426403854
 30
0.0
 11
101.2748784568539
 21
7.799342284269233
 31
0.0
  0
LINE
  5
8C7
330
1F
100
AcDbEntity
  8
2
  6
CONTINUOUS
370
25
 62
7
100
AcDbLine
 10
100.2316162975412
 20
9.266868512293765
 30
0.0
 11
101.3455891349725
 21
8.15289567486251
 31
0.0
  0
LINE
  5
8C8
330
1F
100
AcDbEntity
  8
2
  6
CONTINUOUS
370
25
 62
7
100
AcDbLine
 10
100.1255502803633
 20
9.797198598183677
 30
0.0
 11
101.4162998130912
 21
8.506449065455783
 31
0.0
  0
LINE
  5
8C9
330
1F
100
AcDbEntity
  8
2
  6
CONTINUOUS
370
25
 62
7
100
AcDbLine
 10
100.0194842631853
 20
10.32752868407358
 30
0.0
 11
101.4870104912098
 21
8.86000245604906
 31
0.0
  0
LINE
  5
8CA
330
1F
100
AcDbEntity
  8
2
  6
CONTINUOUS
370
25
 62
7
100
AcDbLine
 10
99.9134182460073
 20
10.8578587699635
 30
0.0
 11
101.5577211693285
 21
9.213555846642336
 31
0.0
  0
LINE
  5
8CB
330
1F
100
AcDbEntity
  8
2
  6
CONTINUOUS
370
25
 62
7
100
AcDbLine
 10
100.2705910846827
 20
10.92495
 30
0.0
 11
101.6284318474471
 21
9.567109237235606
 31
0.0
  0
LINE
  5
8CC
330
1F
100
AcDbEntity
  8
2
  6
CONTINUOUS
370
25
 62
7
100
AcDbLine
 10
100.6948551533946
 20
10.92495
 30
0.0
 11
101.6991425255658
 21
9.920662627828872
 31
0.0
  0
LINE
  5
8CD
330
1F
100
AcDbEntity
  8
2
  6
CONTINUOUS
370
25
 62
7
100
AcDbLine
 10
101.1191192221066
 20
10.92495
 30
0.0
 11
101.7698532036844
 21
10.27421601842214
 31
0.0
  0
LINE
  5
8CE
330
1F
100
AcDbEntity
  8
2
  6
CONTINUOUS
370
25
 62
7
100
AcDbLine
 10
101.5433832908185
 20
10.92495
 30
0.0
 11
101.8405638818031
 21
10.62776940901542
 31
0.0
  0
TEXT
  5
8CF
330
1F
100
AcDbEntity
  8
2
  6
CONTINUOUS
370
25
 62
7
100
AcDbText
 10
99.4
 20
17.55411666666667
 30
0.0
 40
3.5
  1
11.85
 50
90.00000000000001
 72
     1
 11
99.4
 21
23.38745
 31
0.0
100
AcDbText
  0
CIRCLE
  5
8D0
330
1F
100
AcDbEntity
  8
2
  6
CONTINUOUS
370
25
 62
7
100
AcDbCircle
 10
97.65
 20
13.76245
 30
0.0
 40
1.400000000000002
  0
LINE
  5
8D1
330
1F
100
AcDbEntity
  8
2
  6
CONTINUOUS
370
25
 62
7
100
AcDbLine
 10
99.05
 20
12.36245
 30
0.0
 11
96.25
 21
15.16245
 31
0.0
  0
LINE
  5
8D2
330
1F
100
AcDbEntity
  8
2
  6
CONTINUOUS
370
25
 62
7
100
AcDbLine
 10
122.0
 20
-6.0
 30
0.0
 11
122.0
 21
-19.0
 31
0.0
  0
LINE
  5
8D3
330
1F
100
AcDbEntity
  8
2
  6
CONTINUOUS
370
25
 62
7
100
AcDbLine
 10
140.0
 20
-19.0
 30
0.0
 11
140.0
 21
-6.0
 31
0.0
  0
LINE
  5
8D4
330
1F
100
AcDbEntity
  8
2
  6
CONTINUOUS
370
25
 62
7
100
AcDbLine
 10
122.0
 20
-18.0
 30
0.0
 11
140.0
 21
-18.0
 31
0.0
  0
LINE
  5
8D5
330
1F
100
AcDbEntity
  8
2
  6
CONTINUOUS
370
25
 62
7
100
AcDbLine
 10
122.0
 20
-18.0
 30
0.0
 11
127.0
 21
-17.0
 31
0.0
  0
LINE
  5
8D6
330
1F
100
AcDbEntity
  8
2
  6
CONTINUOUS
370
25
 62
7
100
AcDbLine
 10
127.0
 20
-17.0
 30
0.0
 11
127.0
 21
-19.0
 31
0.0
  0
LINE
  5
8D7
330
1F
100
AcDbEntity
  8
2
  6
CONTINUOUS
370
25
 62
7
100
AcDbLine
 10
127.0
 20
-19.0
 30
0.0
 11
122.0
 21
-18.0
 31
0.0
  0
LINE
  5
8D8
330
1F
100
AcDbEntity
  8
2
  6
CONTINUOUS
370
25
 62
7
100
AcDbLine
 10
126.74591955565
 20
-18.94918391113001
 30
0.0
 11
127.0
 21
-18.69510346678004
 31
0.0
  0
LINE
  5
8D9
330
1F
100
AcDbEntity
  8
2
  6
CONTINUOUS
370
25
 62
7
100
AcDbLine
 10
126.3923661650568
 20
-18.87847323301136
 30
0.0
 11
127.0
 21
-18.27083939806811
 31
0.0
  0
LINE
  5
8DA
330
1F
100
AcDbEntity
  8
2
  6
CONTINUOUS
370
25
 62
7
100
AcDbLine
 10
126.0388127744635
 20
-18.8077625548927
 30
0.0
 11
127.0
 21
-17.84657532935617
 31
0.0
  0
LINE
  5
8DB
330
1F
100
AcDbEntity
  8
2
  6
CONTINUOUS
370
25
 62
7
100
AcDbLine
 10
125.6852593838702
 20
-18.73705187677405
 30
0.0
 11
127.0
 21
-17.42231126064424
 31
0.0
  0
LINE
  5
8DC
330
1F
100
AcDbEntity
  8
2
  6
CONTINUOUS
370
25
 62
7
100
AcDbLine
 10
125.3317059932769
 20
-18.66634119865539
 30
0.0
 11
126.9975589899154
 21
-17.00048820201692
 31
0.0
  0
LINE
  5
8DD
330
1F
100
AcDbEntity
  8
2
  6
CONTINUOUS
370
25
 62
7
100
AcDbLine
 10
124.9781526026837
 20
-18.59563052053674
 30
0.0
 11
126.4672289040255
 21
-17.1065542191949
 31
0.0
  0
LINE
  5
8DE
330
1F
100
AcDbEntity
  8
2
  6
CONTINUOUS
370
25
 62
7
100
AcDbLine
 10
124.6245992120904
 20
-18.52491984241808
 30
0.0
 11
125.9368988181356
 21
-17.21262023637288
 31
0.0
  0
LINE
  5
8DF
330
1F
100
AcDbEntity
  8
2
  6
CONTINUOUS
370
25
 62
7
100
AcDbLine
 10
124.2710458214971
 20
-18.45420916429942
 30
0.0
 11
125.4065687322456
 21
-17.31868625355087
 31
0.0
  0
LINE
  5
8E0
330
1F
100
AcDbEntity
  8
2
  6
CONTINUOUS
370
25
 62
7
100
AcDbLine
 10
123.9174924309038
 20
-18.38349848618076
 30
0.0
 11
124.8762386463557
 21
-17.42475227072885
 31
0.0
  0
LINE
  5
8E1
330
1F
100
AcDbEntity
  8
2
  6
CONTINUOUS
370
25
 62
7
100
AcDbLine
 10
123.5639390403105
 20
-18.31278780806211
 30
0.0
 11
124.3459085604658
 21
-17.53081828790683
 31
0.0
  0
LINE
  5
8E2
330
1F
100
AcDbEntity
  8
2
  6
CONTINUOUS
370
25
 62
7
100
AcDbLine
 10
123.2103856497173
 20
-18.24207712994346
 30
0.0
 11
123.8155784745759
 21
-17.63688430508481
 31
0.0
  0
LINE
  5
8E3
330
1F
100
AcDbEntity
  8
2
  6
CONTINUOUS
370
25
 62
7
100
AcDbLine
 10
122.856832259124
 20
-18.1713664518248
 30
0.0
 11
123.285248388686
 21
-17.74295032226279
 31
0.0
  0
LINE
  5
8E4
330
1F
100
AcDbEntity
  8
2
  6
CONTINUOUS
370
25
 62
7
100
AcDbLine
 10
122.5032788685307
 20
-18.10065577370614
 30
0.0
 11
122.7549183027961
 21
-17.84901633944079
 31
0.0
  0
LINE
  5
8E5
330
1F
100
AcDbEntity
  8
2
  6
CONTINUOUS
370
25
 62
7
100
AcDbLine
 10
122.1497254779374
 20
-18.02994509558749
 30
0.0
 11
122.2245882169062
 21
-17.95508235661876
 31
0.0
  0
LINE
  5
8E6
330
1F
100
AcDbEntity
  8
2
  6
CONTINUOUS
370
25
 62
7
100
AcDbLine
 10
122.3394299877432
 20
-17.93211400245135
 30
0.0
 11
122.5091449816148
 21
-18.10182899632297
 31
0.0
  0
LINE
  5
8E7
330
1F
100
AcDbEntity
  8
2
  6
CONTINUOUS
370
25
 62
7
100
AcDbLine
 10
122.6929833783365
 20
-17.86140332433269
 30
0.0
 11
123.0394750675048
 21
-18.20789501350095
 31
0.0
  0
LINE
  5
8E8
330
1F
100
AcDbEntity
  8
2
  6
CONTINUOUS
370
25
 62
7
100
AcDbLine
 10
123.0465367689298
 20
-17.79069264621404
 30
0.0
 11
123.5698051533947
 21
-18.31396103067894
 31
0.0
  0
LINE
  5
8E9
330
1F
100
AcDbEntity
  8
2
  6
CONTINUOUS
370
25
 62
7
100
AcDbLine
 10
123.400090159523
 20
-17.71998196809539
 30
0.0
 11
124.1001352392846
 21
-18.42002704785691
 31
0.0
  0
LINE
  5
8EA
330
1F
100
AcDbEntity
  8
2
  6
CONTINUOUS
370
25
 62
7
100
AcDbLine
 10
123.7536435501163
 20
-17.64927128997673
 30
0.0
 11
124.6304653251745
 21
-18.5260930650349
 31
0.0
  0
LINE
  5
8EB
330
1F
100
AcDbEntity
  8
2
  6
CONTINUOUS
370
25
 62
7
100
AcDbLine
 10
124.1071969407096
 20
-17.57856061185807
 30
0.0
 11
125.1607954110644
 21
-18.63215908221289
 31
0.0
  0
LINE
  5
8EC
330
1F
100
AcDbEntity
  8
2
  6
CONTINUOUS
370
25
 62
7
100
AcDbLine
 10
124.4607503313029
 20
-17.50784993373942
 30
0.0
 11
125.6911254969543
 21
-18.73822509939087
 31
0.0
  0
LINE
  5
8ED
330
1F
100
AcDbEntity
  8
2
  6
CONTINUOUS
370
25
 62
7
100
AcDbLine
 10
124.8143037218962
 20
-17.43713925562077
 30
0.0
 11
126.2214555828442
 21
-18.84429111656885
 31
0.0
  0
LINE
  5
8EE
330
1F
100
AcDbEntity
  8
2
  6
CONTINUOUS
370
25
 62
7
100
AcDbLine
 10
125.1678571124894
 20
-17.36642857750211
 30
0.0
 11
126.7517856687342
 21
-18.95035713374683
 31
0.0
  0
LINE
  5
8EF
330
1F
100
AcDbEntity
  8
2
  6
CONTINUOUS
370
25
 62
7
100
AcDbLine
 10
125.5214105030827
 20
-17.29571789938345
 30
0.0
 11
127.0
 21
-18.77430739630075
 31
0.0
  0
LINE
  5
8F0
330
1F
100
AcDbEntity
  8
2
  6
CONTINUOUS
370
25
 62
7
100
AcDbLine
 10
125.874963893676
 20
-17.2250072212648
 30
0.0
 11
127.0
 21
-18.35004332758882
 31
0.0
  0
LINE
  5
8F1
330
1F
100
AcDbEntity
  8
2
  6
CONTINUOUS
370
25
 62
7
100
AcDbLine
 10
126.2285172842693
 20
-17.15429654314615
 30
0.0
 11
127.0
 21
-17.92577925887689
 31
0.0
  0
LINE
  5
8F2
330
1F
100
AcDbEntity
  8
2
  6
CONTINUOUS
370
25
 62
7
100
AcDbLine
 10
126.5820706748625
 20
-17.08358586502749
 30
0.0
 11
127.0
 21
-17.50151519016496
 31
0.0
  0
LINE
  5
8F3
330
1F
100
AcDbEntity
  8
2
  6
CONTINUOUS
370
25
 62
7
100
AcDbLine
 10
126.9356240654558
 20
-17.01287518690884
 30
0.0
 11
127.0
 21
-17.07725112145303
 31
0.0
  0
LINE
  5
8F4
330
1F
100
AcDbEntity
  8
2
  6
CONTINUOUS
370
25
 62
7
100
AcDbLine
 10
140.0
 20
-18.0
 30
0.0
 11
135.0
 21
-19.0
 31
0.0
  0
LINE
  5
8F5
330
1F
100
AcDbEntity
  8
2
  6
CONTINUOUS
370
25
 62
7
100
AcDbLine
 10
135.0
 20
-19.0
 30
0.0
 11
135.0
 21
-17.0
 31
0.0
  0
LINE
  5
8F6
330
1F
100
AcDbEntity
  8
2
  6
CONTINUOUS
370
25
 62
7
100
AcDbLine
 10
135.0
 20
-17.0
 30
0.0
 11
140.0
 21
-18.0
 31
0.0
  0
LINE
  5
8F7
330
1F
100
AcDbEntity
  8
2
  6
CONTINUOUS
370
25
 62
7
100
AcDbLine
 10
139.617986499108
 20
-18.0764027001784
 30
0.0
 11
139.7453243327387
 21
-17.94906486654772
 31
0.0
  0
LINE
  5
8F8
330
1F
100
AcDbEntity
  8
2
  6
CONTINUOUS
370
25
 62
7
100
AcDbLine
 10
139.0876564132181
 20
-18.18246871735638
 30
0.0
 11
139.3917709421454
 21
-17.87835418842907
 31
0.0
  0
LINE
  5
8F9
330
1F
100
AcDbEntity
  8
2
  6
CONTINUOUS
370
25
 62
7
100
AcDbLine
 10
138.5573263273282
 20
-18.28853473453437
 30
0.0
 11
139.0382175515521
 21
-17.80764351031041
 31
0.0
  0
LINE
  5
8FA
330
1F
100
AcDbEntity
  8
2
  6
CONTINUOUS
370
25
 62
7
100
AcDbLine
 10
138.0269962414383
 20
-18.39460075171235
 30
0.0
 11
138.6846641609588
 21
-17.73693283219176
 31
0.0
  0
LINE
  5
8FB
330
1F
100
AcDbEntity
  8
2
  6
CONTINUOUS
370
25
 62
7
100
AcDbLine
 10
137.4966661555484
 20
-18.50066676889033
 30
0.0
 11
138.3311107703656
 21
-17.6662221540731
 31
0.0
  0
LINE
  5
8FC
330
1F
100
AcDbEntity
  8
2
  6
CONTINUOUS
370
25
 62
7
100
AcDbLine
 10
136.9663360696584
 20
-18.60673278606831
 30
0.0
 11
137.9775573797723
 21
-17.59551147595445
 31
0.0
  0
LINE
  5
8FD
330
1F
100
AcDbEntity
  8
2
  6
CONTINUOUS
370
25
 62
7
100
AcDbLine
 10
136.4360059837685
 20
-18.71279880324629
 30
0.0
 11
137.624003989179
 21
-17.5248007978358
 31
0.0
  0
LINE
  5
8FE
330
1F
100
AcDbEntity
  8
2
  6
CONTINUOUS
370
25
 62
7
100
AcDbLine
 10
135.9056758978786
 20
-18.81886482042428
 30
0.0
 11
137.2704505985857
 21
-17.45409011971714
 31
0.0
  0
LINE
  5
8FF
330
1F
100
AcDbEntity
  8
2
  6
CONTINUOUS
370
25
 62
7
100
AcDbLine
 10
135.3753458119887
 20
-18.92493083760227
 30
0.0
 11
136.9168972079925
 21
-17.38337944159849
 31
0.0
  0
LINE
  5
900
330
1F
100
AcDbEntity
  8
2
  6
CONTINUOUS
370
25
 62
7
100
AcDbLine
 10
135.0
 20
-18.87601258087901
 30
0.0
 11
136.5633438173992
 21
-17.31266876347983
 31
0.0
  0
LINE
  5
901
330
1F
100
AcDbEntity
  8
2
  6
CONTINUOUS
370
25
 62
7
100
AcDbLine
 10
135.0
 20
-18.45174851216708
 30
0.0
 11
136.2097904268059
 21
-17.24195808536117
 31
0.0
  0
LINE
  5
902
330
1F
100
AcDbEntity
  8
2
  6
CONTINUOUS
370
25
 62
7
100
AcDbLine
 10
135.0
 20
-18.02748444345516
 30
0.0
 11
135.8562370362126
 21
-17.17124740724252
 31
0.0
  0
LINE
  5
903
330
1F
100
AcDbEntity
  8
2
  6
CONTINUOUS
370
25
 62
7
100
AcDbLine
 10
135.0
 20
-17.60322037474324
 30
0.0
 11
135.5026836456194
 21
-17.10053672912387
 31
0.0
  0
LINE
  5
904
330
1F
100
AcDbEntity
  8
2
  6
CONTINUOUS
370
25
 62
7
100
AcDbLine
 10
135.0
 20
-17.1789563060313
 30
0.0
 11
135.1491302550261
 21
-17.02982605100521
 31
0.0
  0
LINE
  5
905
330
1F
100
AcDbEntity
  8
2
  6
CONTINUOUS
370
25
 62
7
100
AcDbLine
 10
135.0
 20
-18.71329009077414
 30
0.0
 11
135.2389249243549
 21
-18.95221501512901
 31
0.0
  0
LINE
  5
906
330
1F
100
AcDbEntity
  8
2
  6
CONTINUOUS
370
25
 62
7
100
AcDbLine
 10
135.0
 20
-18.28902602206221
 30
0.0
 11
135.5924783149482
 21
-18.88150433701036
 31
0.0
  0
LINE
  5
907
330
1F
100
AcDbEntity
  8
2
  6
CONTINUOUS
370
25
 62
7
100
AcDbLine
 10
135.0
 20
-17.86476195335028
 30
0.0
 11
135.9460317055414
 21
-18.81079365889172
 31
0.0
  0
LINE
  5
908
330
1F
100
AcDbEntity
  8
2
  6
CONTINUOUS
370
25
 62
7
100
AcDbLine
 10
135.0
 20
-17.44049788463835
 30
0.0
 11
136.2995850961347
 21
-18.74008298077305
 31
0.0
  0
LINE
  5
909
330
1F
100
AcDbEntity
  8
2
  6
CONTINUOUS
370
25
 62
7
100
AcDbLine
 10
135.0
 20
-17.01623381592641
 30
0.0
 11
136.653138486728
 21
-18.6693723026544
 31
0.0
  0
LINE
  5
90A
330
1F
100
AcDbEntity
  8
2
  6
CONTINUOUS
370
25
 62
7
100
AcDbLine
 10
135.5100378159819
 20
-17.10200756319639
 30
0.0
 11
137.0066918773213
 21
-18.59866162453574
 31
0.0
  0
LINE
  5
90B
330
1F
100
AcDbEntity
  8
2
  6
CONTINUOUS
370
25
 62
7
100
AcDbLine
 10
136.0403679018718
 20
-17.20807358037437
 30
0.0
 11
137.3602452679145
 21
-18.52795094641709
 31
0.0
  0
LINE
  5
90C
330
1F
100
AcDbEntity
  8
2
  6
CONTINUOUS
370
25
 62
7
100
AcDbLine
 10
136.5706979877617
 20
-17.31413959755236
 30
0.0
 11
137.7137986585078
 21
-18.45724026829844
 31
0.0
  0
LINE
  5
90D
330
1F
100
AcDbEntity
  8
2
  6
CONTINUOUS
370
25
 62
7
100
AcDbLine
 10
137.1010280736517
 20
-17.42020561473034
 30
0.0
 11
138.0673520491011
 21
-18.38652959017978
 31
0.0
  0
LINE
  5
90E
330
1F
100
AcDbEntity
  8
2
  6
CONTINUOUS
370
25
 62
7
100
AcDbLine
 10
137.6313581595415
 20
-17.52627163190832
 30
0.0
 11
138.4209054396944
 21
-18.31581891206113
 31
0.0
  0
LINE
  5
90F
330
1F
100
AcDbEntity
  8
2
  6
CONTINUOUS
370
25
 62
7
100
AcDbLine
 10
138.1616882454315
 20
-17.6323376490863
 30
0.0
 11
138.7744588302876
 21
-18.24510823394247
 31
0.0
  0
LINE
  5
910
330
1F
100
AcDbEntity
  8
2
  6
CONTINUOUS
370
25
 62
7
100
AcDbLine
 10
138.6920183313214
 20
-17.73840366626428
 30
0.0
 11
139.1280122208809
 21
-18.17439755582381
 31
0.0
  0
LINE
  5
911
330
1F
100
AcDbEntity
  8
2
  6
CONTINUOUS
370
25
 62
7
100
AcDbLine
 10
139.2223484172113
 20
-17.84446968344227
 30
0.0
 11
139.4815656114742
 21
-18.10368687770516
 31
0.0
  0
LINE
  5
912
330
1F
100
AcDbEntity
  8
2
  6
CONTINUOUS
370
25
 62
7
100
AcDbLine
 10
139.7526785031012
 20
-17.95053570062024
 30
0.0
 11
139.8351190020675
 21
-18.0329761995865
 31
0.0
  0
TEXT
  5
913
330
1F
100
AcDbEntity
  8
2
  6
CONTINUOUS
370
25
 62
7
100
AcDbText
 10
128.6666666666667
 20
-16.5
 30
0.0
 40
3.5
  1
18
 72
     1
 11
131.0
 21
-16.5
 31
0.0
100
AcDbText
  0
LINE
  5
914
330
1F
100
AcDbEntity
  8
2
  6
CONTINUOUS
370
25
 62
7
100
AcDbLine
 10
79.8
 20
0.0
 30
0.0
 11
79.8
 21
35.375
 31
0.0
  0
LINE
  5
915
330
1F
100
AcDbEntity
  8
2
  6
CONTINUOUS
370
25
 62
7
100
AcDbLine
 10
140.0
 20
35.375
 30
0.0
 11
140.0
 21
6.0
 31
0.0
  0
LINE
  5
916
330
1F
100
AcDbEntity
  8
2
  6
CONTINUOUS
370
25
 62
7
100
AcDbLine
 10
79.8
 20
34.375
 30
0.0
 11
140.0
 21
34.375
 31
0.0
  0
LINE
  5
917
330
1F
100
AcDbEntity
  8
2
  6
CONTINUOUS
370
25
 62
7
100
AcDbLine
 10
79.8
 20
34.375
 30
0.0
 11
84.8
 21
35.375
 31
0.0
  0
LINE
  5
918
330
1F
100
AcDbEntity
  8
2
  6
CONTINUOUS
370
25
 62
7
100
AcDbLine
 10
84.8
 20
35.375
 30
0.0
 11
84.8
 21
33.375
 31
0.0
  0
LINE
  5
919
330
1F
100
AcDbEntity
  8
2
  6
CONTINUOUS
370
25
 62
7
100
AcDbLine
 10
84.8
 20
33.375
 30
0.0
 11
79.8
 21
34.375
 31
0.0
  0
LINE
  5
91A
330
1F
100
AcDbEntity
  8
2
  6
CONTINUOUS
370
25
 62
7
100
AcDbLine
 10
84.75775616358403
 20
33.38344876728319
 30
0.0
 11
84.8
 21
33.42569260369916
 31
0.0
  0
LINE
  5
91B
330
1F
100
AcDbEntity
  8
2
  6
CONTINUOUS
370
25
 62
7
100
AcDbLine
 10
84.40420277299076
 20
33.45415944540185
 30
0.0
 11
84.8
 21
33.8499566724111
 31
0.0
  0
LINE
  5
91C
330
1F
100
AcDbEntity
  8
2
  6
CONTINUOUS
370
25
 62
7
100
AcDbLine
 10
84.05064938239748
 20
33.5248701235205
 30
0.0
 11
84.8
 21
34.27422074112302
 31
0.0
  0
LINE
  5
91D
330
1F
100
AcDbEntity
  8
2
  6
CONTINUOUS
370
25
 62
7
100
AcDbLine
 10
83.6970959918042
 20
33.59558080163916
 30
0.0
 11
84.8
 21
34.69848480983495
 31
0.0
  0
LINE
  5
91E
330
1F
100
AcDbEntity
  8
2
  6
CONTINUOUS
370
25
 62
7
100
AcDbLine
 10
83.34354260121093
 20
33.66629147975782
 30
0.0
 11
84.8
 21
35.12274887854688
 31
0.0
  0
LINE
  5
91F
330
1F
100
AcDbEntity
  8
2
  6
CONTINUOUS
370
25
 62
7
100
AcDbLine
 10
82.98998921061765
 20
33.73700215787647
 30
0.0
 11
84.58498381592648
 21
35.33199676318529
 31
0.0
  0
LINE
  5
920
330
1F
100
AcDbEntity
  8
2
  6
CONTINUOUS
370
25
 62
7
100
AcDbLine
 10
82.63643582002439
 20
33.80771283599513
 30
0.0
 11
84.05465373003656
 21
35.22593074600731
 31
0.0
  0
LINE
  5
921
330
1F
100
AcDbEntity
  8
2
  6
CONTINUOUS
370
25
 62
7
100
AcDbLine
 10
82.28288242943111
 20
33.87842351411378
 30
0.0
 11
83.52432364414665
 21
35.11986472882933
 31
0.0
  0
LINE
  5
922
330
1F
100
AcDbEntity
  8
2
  6
CONTINUOUS
370
25
 62
7
100
AcDbLine
 10
81.92932903883784
 20
33.94913419223244
 30
0.0
 11
82.99399355825675
 21
35.01379871165135
 31
0.0
  0
LINE
  5
923
330
1F
100
AcDbEntity
  8
2
  6
CONTINUOUS
370
25
 62
7
100
AcDbLine
 10
81.57577564824456
 20
34.01984487035109
 30
0.0
 11
82.46366347236683
 21
34.90773269447337
 31
0.0
  0
LINE
  5
924
330
1F
100
AcDbEntity
  8
2
  6
CONTINUOUS
370
25
 62
7
100
AcDbLine
 10
81.22222225765128
 20
34.09055554846974
 30
0.0
 11
81.93333338647692
 21
34.80166667729539
 31
0.0
  0
LINE
  5
925
330
1F
100
AcDbEntity
  8
2
  6
CONTINUOUS
370
25
 62
7
100
AcDbLine
 10
80.868668867058
 20
34.1612662265884
 30
0.0
 11
81.40300330058702
 21
34.69560066011741
 31
0.0
  0
LINE
  5
926
330
1F
100
AcDbEntity
  8
2
  6
CONTINUOUS
370
25
 62
7
100
AcDbLine
 10
80.51511547646474
 20
34.23197690470705
 30
0.0
 11
80.8726732146971
 21
34.58953464293942
 31
0.0
  0
LINE
  5
927
330
1F
100
AcDbEntity
  8
2
  6
CONTINUOUS
370
25
 62
7
100
AcDbLine
 10
80.16156208587147
 20
34.3026875828257
 30
0.0
 11
80.34234312880719
 21
34.48346862576144
 31
0.0
  0
LINE
  5
928
330
1F
100
AcDbEntity
  8
2
  6
CONTINUOUS
370
25
 62
7
100
AcDbLine
 10
79.80800869527819
 20
34.37339826094436
 30
0.0
 11
79.81201304291729
 21
34.37740260858346
 31
0.0
  0
LINE
  5
929
330
1F
100
AcDbEntity
  8
2
  6
CONTINUOUS
370
25
 62
7
100
AcDbLine
 10
80.1455446953151
 20
34.44410893906302
 30
0.0
 11
80.31831704297264
 21
34.27133659140547
 31
0.0
  0
LINE
  5
92A
330
1F
100
AcDbEntity
  8
2
  6
CONTINUOUS
370
25
 62
7
100
AcDbLine
 10
80.49909808590836
 20
34.51481961718167
 30
0.0
 11
80.84864712886254
 21
34.16527057422749
 31
0.0
  0
LINE
  5
92B
330
1F
100
AcDbEntity
  8
2
  6
CONTINUOUS
370
25
 62
7
100
AcDbLine
 10
80.85265147650163
 20
34.58553029530033
 30
0.0
 11
81.37897721475247
 21
34.0592045570495
 31
0.0
  0
LINE
  5
92C
330
1F
100
AcDbEntity
  8
2
  6
CONTINUOUS
370
25
 62
7
100
AcDbLine
 10
81.20620486709491
 20
34.65624097341898
 30
0.0
 11
81.90930730064237
 21
33.95313853987152
 31
0.0
  0
LINE
  5
92D
330
1F
100
AcDbEntity
  8
2
  6
CONTINUOUS
370
25
 62
7
100
AcDbLine
 10
81.55975825768819
 20
34.72695165153764
 30
0.0
 11
82.43963738653228
 21
33.84707252269354
 31
0.0
  0
LINE
  5
92E
330
1F
100
AcDbEntity
  8
2
  6
CONTINUOUS
370
25
 62
7
100
AcDbLine
 10
81.91331164828146
 20
34.79766232965629
 30
0.0
 11
82.96996747242218
 21
33.74100650551556
 31
0.0
  0
LINE
  5
92F
330
1F
100
AcDbEntity
  8
2
  6
CONTINUOUS
370
25
 62
7
100
AcDbLine
 10
82.26686503887474
 20
34.86837300777495
 30
0.0
 11
83.5002975583121
 21
33.63494048833758
 31
0.0
  0
LINE
  5
930
330
1F
100
AcDbEntity
  8
2
  6
CONTINUOUS
370
25
 62
7
100
AcDbLine
 10
82.620418429468
 20
34.9390836858936
 30
0.0
 11
84.03062764420201
 21
33.5288744711596
 31
0.0
  0
LINE
  5
931
330
1F
100
AcDbEntity
  8
2
  6
CONTINUOUS
370
25
 62
7
100
AcDbLine
 10
82.97397182006128
 20
35.00979436401226
 30
0.0
 11
84.56095773009191
 21
33.42280845398162
 31
0.0
  0
LINE
  5
932
330
1F
100
AcDbEntity
  8
2
  6
CONTINUOUS
370
25
 62
7
100
AcDbLine
 10
83.32752521065456
 20
35.08050504213091
 30
0.0
 11
84.8
 21
33.60803025278546
 31
0.0
  0
LINE
  5
933
330
1F
100
AcDbEntity
  8
2
  6
CONTINUOUS
370
25
 62
7
100
AcDbLine
 10
83.68107860124783
 20
35.15121572024957
 30
0.0
 11
84.8
 21
34.0322943214974
 31
0.0
  0
LINE
  5
934
330
1F
100
AcDbEntity
  8
2
  6
CONTINUOUS
370
25
 62
7
100
AcDbLine
 10
84.03463199184111
 20
35.22192639836823
 30
0.0
 11
84.8
 21
34.45655839020933
 31
0.0
  0
LINE
  5
935
330
1F
100
AcDbEntity
  8
2
  6
CONTINUOUS
370
25
 62
7
100
AcDbLine
 10
84.38818538243437
 20
35.29263707648688
 30
0.0
 11
84.8
 21
34.88082245892125
 31
0.0
  0
LINE
  5
936
330
1F
100
AcDbEntity
  8
2
  6
CONTINUOUS
370
25
 62
7
100
AcDbLine
 10
84.74173877302765
 20
35.36334775460553
 30
0.0
 11
84.8
 21
35.30508652763319
 31
0.0
  0
LINE
  5
937
330
1F
100
AcDbEntity
  8
2
  6
CONTINUOUS
370
25
 62
7
100
AcDbLine
 10
140.0
 20
34.375
 30
0.0
 11
135.0
 21
33.375
 31
0.0
  0
LINE
  5
938
330
1F
100
AcDbEntity
  8
2
  6
CONTINUOUS
370
25
 62
7
100
AcDbLine
 10
135.0
 20
33.375
 30
0.0
 11
135.0
 21
35.375
 31
0.0
  0
LINE
  5
939
330
1F
100
AcDbEntity
  8
2
  6
CONTINUOUS
370
25
 62
7
100
AcDbLine
 10
135.0
 20
35.375
 30
0.0
 11
140.0
 21
34.375
 31
0.0
  0
LINE
  5
93A
330
1F
100
AcDbEntity
  8
2
  6
CONTINUOUS
370
25
 62
7
100
AcDbLine
 10
139.9101671494569
 20
34.35703342989138
 30
0.0
 11
139.9401114329713
 21
34.38697771340576
 31
0.0
  0
LINE
  5
93B
330
1F
100
AcDbEntity
  8
2
  6
CONTINUOUS
370
25
 62
7
100
AcDbLine
 10
139.379837063567
 20
34.25096741271339
 30
0.0
 11
139.586558042378
 21
34.4576883915244
 31
0.0
  0
LINE
  5
93C
330
1F
100
AcDbEntity
  8
2
  6
CONTINUOUS
370
25
 62
7
100
AcDbLine
 10
138.8495069776771
 20
34.14490139553541
 30
0.0
 11
139.2330046517847
 21
34.52839906964306
 31
0.0
  0
LINE
  5
93D
330
1F
100
AcDbEntity
  8
2
  6
CONTINUOUS
370
25
 62
7
100
AcDbLine
 10
138.3191768917872
 20
34.03883537835742
 30
0.0
 11
138.8794512611914
 21
34.59910974776172
 31
0.0
  0
LINE
  5
93E
330
1F
100
AcDbEntity
  8
2
  6
CONTINUOUS
370
25
 62
7
100
AcDbLine
 10
137.7888468058972
 20
33.93276936117945
 30
0.0
 11
138.5258978705982
 21
34.66982042588037
 31
0.0
  0
LINE
  5
93F
330
1F
100
AcDbEntity
  8
2
  6
CONTINUOUS
370
25
 62
7
100
AcDbLine
 10
137.2585167200073
 20
33.82670334400146
 30
0.0
 11
138.1723444800049
 21
34.74053110399902
 31
0.0
  0
LINE
  5
940
330
1F
100
AcDbEntity
  8
2
  6
CONTINUOUS
370
25
 62
7
100
AcDbLine
 10
136.7281866341174
 20
33.72063732682349
 30
0.0
 11
137.8187910894116
 21
34.81124178211768
 31
0.0
  0
LINE
  5
941
330
1F
100
AcDbEntity
  8
2
  6
CONTINUOUS
370
25
 62
7
100
AcDbLine
 10
136.1978565482275
 20
33.6145713096455
 30
0.0
 11
137.4652376988183
 21
34.88195246023633
 31
0.0
  0
LINE
  5
942
330
1F
100
AcDbEntity
  8
2
  6
CONTINUOUS
370
25
 62
7
100
AcDbLine
 10
135.6675264623376
 20
33.50850529246751
 30
0.0
 11
137.1116843082251
 21
34.95266313835499
 31
0.0
  0
LINE
  5
943
330
1F
100
AcDbEntity
  8
2
  6
CONTINUOUS
370
25
 62
7
100
AcDbLine
 10
135.1371963764477
 20
33.40243927528954
 30
0.0
 11
136.7581309176318
 21
35.02337381647365
 31
0.0
  0
LINE
  5
944
330
1F
100
AcDbEntity
  8
2
  6
CONTINUOUS
370
25
 62
7
100
AcDbLine
 10
135.0
 20
33.6895069675538
 30
0.0
 11
136.4045775270385
 21
35.0940844945923
 31
0.0
  0
LINE
  5
945
330
1F
100
AcDbEntity
  8
2
  6
CONTINUOUS
370
25
 62
7
100
AcDbLine
 10
135.0
 20
34.11377103626573
 30
0.0
 11
136.0510241364452
 21
35.16479517271095
 31
0.0
  0
LINE
  5
946
330
1F
100
AcDbEntity
  8
2
  6
CONTINUOUS
370
25
 62
7
100
AcDbLine
 10
135.0
 20
34.53803510497767
 30
0.0
 11
135.6974707458519
 21
35.23550585082962
 31
0.0
  0
LINE
  5
947
330
1F
100
AcDbEntity
  8
2
  6
CONTINUOUS
370
25
 62
7
100
AcDbLine
 10
135.0
 20
34.9622991736896
 30
0.0
 11
135.3439173552587
 21
35.30621652894827
 31
0.0
  0
LINE
  5
948
330
1F
100
AcDbEntity
  8
2
  6
CONTINUOUS
370
25
 62
7
100
AcDbLine
 10
135.0
 20
33.47119036079307
 30
0.0
 11
135.0801586339942
 21
33.39103172679886
 31
0.0
  0
LINE
  5
949
330
1F
100
AcDbEntity
  8
2
  6
CONTINUOUS
370
25
 62
7
100
AcDbLine
 10
135.0
 20
33.89545442950499
 30
0.0
 11
135.4337120245875
 21
33.4617424049175
 31
0.0
  0
LINE
  5
94A
330
1F
100
AcDbEntity
  8
2
  6
CONTINUOUS
370
25
 62
7
100
AcDbLine
 10
135.0
 20
34.31971849821694
 30
0.0
 11
135.7872654151808
 21
33.53245308303615
 31
0.0
  0
LINE
  5
94B
330
1F
100
AcDbEntity
  8
2
  6
CONTINUOUS
370
25
 62
7
100
AcDbLine
 10
135.0
 20
34.74398256692887
 30
0.0
 11
136.1408188057741
 21
33.6031637611548
 31
0.0
  0
LINE
  5
94C
330
1F
100
AcDbEntity
  8
2
  6
CONTINUOUS
370
25
 62
7
100
AcDbLine
 10
135.0
 20
35.16824663564081
 30
0.0
 11
136.4943721963674
 21
33.67387443927347
 31
0.0
  0
LINE
  5
94D
330
1F
100
AcDbEntity
  8
2
  6
CONTINUOUS
370
25
 62
7
100
AcDbLine
 10
135.2718883804409
 20
35.32062232391182
 30
0.0
 11
136.8479255869606
 21
33.74458511739213
 31
0.0
  0
LINE
  5
94E
330
1F
100
AcDbEntity
  8
2
  6
CONTINUOUS
370
25
 62
7
100
AcDbLine
 10
135.8022184663308
 20
35.21455630673383
 30
0.0
 11
137.2014789775539
 21
33.81529579551077
 31
0.0
  0
LINE
  5
94F
330
1F
100
AcDbEntity
  8
2
  6
CONTINUOUS
370
25
 62
7
100
AcDbLine
 10
136.3325485522208
 20
35.10849028955585
 30
0.0
 11
137.5550323681472
 21
33.88600647362943
 31
0.0
  0
LINE
  5
950
330
1F
100
AcDbEntity
  8
2
  6
CONTINUOUS
370
25
 62
7
100
AcDbLine
 10
136.8628786381107
 20
35.00242427237787
 30
0.0
 11
137.9085857587405
 21
33.95671715174809
 31
0.0
  0
LINE
  5
951
330
1F
100
AcDbEntity
  8
2
  6
CONTINUOUS
370
25
 62
7
100
AcDbLine
 10
137.3932087240006
 20
34.89635825519989
 30
0.0
 11
138.2621391493337
 21
34.02742782986675
 31
0.0
  0
LINE
  5
952
330
1F
100
AcDbEntity
  8
2
  6
CONTINUOUS
370
25
 62
7
100
AcDbLine
 10
137.9235388098905
 20
34.79029223802191
 30
0.0
 11
138.615692539927
 21
34.0981385079854
 31
0.0
  0
LINE
  5
953
330
1F
100
AcDbEntity
  8
2
  6
CONTINUOUS
370
25
 62
7
100
AcDbLine
 10
138.4538688957804
 20
34.68422622084392
 30
0.0
 11
138.9692459305203
 21
34.16884918610405
 31
0.0
  0
LINE
  5
954
330
1F
100
AcDbEntity
  8
2
  6
CONTINUOUS
370
25
 62
7
100
AcDbLine
 10
138.9841989816703
 20
34.57816020366594
 30
0.0
 11
139.3227993211136
 21
34.23955986422272
 31
0.0
  0
LINE
  5
955
330
1F
100
AcDbEntity
  8
2
  6
CONTINUOUS
370
25
 62
7
100
AcDbLine
 10
139.5145290675602
 20
34.47209418648796
 30
0.0
 11
139.6763527117068
 21
34.31027054234137
 31
0.0
  0
TEXT
  5
956
330
1F
100
AcDbEntity
  8
2
  6
CONTINUOUS
370
25
 62
7
100
AcDbText
 10
104.9416666666667
 20
35.875
 30
0.0
 40
3.5
  1
60.2
 72
     1
 11
109.9
 21
35.875
 31
0.0
100
AcDbText
  0
LINE
  5
957
330
1F
100
AcDbEntity
  8
SK2
  6
CONTINUOUS
370
25
 62
7
100
AcDbLine
 10
0.0
 20
4.0
 30
0.0
 11
0.0
 21
45.375
 31
0.0
  0
LINE
  5
958
330
1F
100
AcDbEntity
  8
SK2
  6
CONTINUOUS
370
25
 62
7
100
AcDbLine
 10
140.0
 20
45.375
 30
0.0
 11
140.0
 21
6.0
 31
0.0
  0
LINE
  5
959
330
1F
100
AcDbEntity
  8
SK2
  6
CONTINUOUS
370
25
 62
7
100
AcDbLine
 10
0.0
 20
44.375
 30
0.0
 11
140.0
 21
44.375
 31
0.0
  0
LINE
  5
95A
330
1F
100
AcDbEntity
  8
SK2
  6
CONTINUOUS
370
25
 62
7
100
AcDbLine
 10
0.0
 20
44.375
 30
0.0
 11
5.0
 21
45.375
 31
0.0
  0
LINE
  5
95B
330
1F
100
AcDbEntity
  8
SK2
  6
CONTINUOUS
370
25
 62
7
100
AcDbLine
 10
5.0
 20
45.375
 30
0.0
 11
5.0
 21
43.375
 31
0.0
  0
LINE
  5
95C
330
1F
100
AcDbEntity
  8
SK2
  6
CONTINUOUS
370
25
 62
7
100
AcDbLine
 10
5.0
 20
43.375
 30
0.0
 11
0.0
 21
44.375
 31
0.0
  0
LINE
  5
95D
330
1F
100
AcDbEntity
  8
SK2
  6
CONTINUOUS
370
25
 62
7
100
AcDbLine
 10
4.837770691143163
 20
43.40744586177138
 30
0.0
 11
5.0
 21
43.56967517062822
 31
0.0
  0
LINE
  5
95E
330
1F
100
AcDbEntity
  8
SK2
  6
CONTINUOUS
370
25
 62
7
100
AcDbLine
 10
4.484217300549872
 20
43.47815653989002
 30
0.0
 11
5.0
 21
43.99393923934015
 31
0.0
  0
LINE
  5
95F
330
1F
100
AcDbEntity
  8
SK2
  6
CONTINUOUS
370
25
 62
7
100
AcDbLine
 10
4.13066390995661
 20
43.54886721800868
 30
0.0
 11
5.0
 21
44.41820330805207
 31
0.0
  0
LINE
  5
960
330
1F
100
AcDbEntity
  8
SK2
  6
CONTINUOUS
370
25
 62
7
100
AcDbLine
 10
3.777110519363333
 20
43.61957789612732
 30
0.0
 11
5.0
 21
44.84246737676399
 31
0.0
  0
LINE
  5
961
330
1F
100
AcDbEntity
  8
SK2
  6
CONTINUOUS
370
25
 62
7
100
AcDbLine
 10
3.423557128770071
 20
43.690288574246
 30
0.0
 11
5.0
 21
45.26673144547593
 31
0.0
  0
LINE
  5
962
330
1F
100
AcDbEntity
  8
SK2
  6
CONTINUOUS
370
25
 62
7
100
AcDbLine
 10
3.07000373817678
 20
43.76099925236464
 30
0.0
 11
4.60500560726517
 21
45.29600112145303
 31
0.0
  0
LINE
  5
963
330
1F
100
AcDbEntity
  8
SK2
  6
CONTINUOUS
370
25
 62
7
100
AcDbLine
 10
2.716450347583503
 20
43.83170993048329
 30
0.0
 11
4.074675521375269
 21
45.18993510427505
 31
0.0
  0
LINE
  5
964
330
1F
100
AcDbEntity
  8
SK2
  6
CONTINUOUS
370
25
 62
7
100
AcDbLine
 10
2.362896956990241
 20
43.90242060860194
 30
0.0
 11
3.544345435485369
 21
45.08386908709707
 31
0.0
  0
LINE
  5
965
330
1F
100
AcDbEntity
  8
SK2
  6
CONTINUOUS
370
25
 62
7
100
AcDbLine
 10
2.009343566396979
 20
43.97313128672062
 30
0.0
 11
3.014015349595439
 21
44.97780306991908
 31
0.0
  0
LINE
  5
966
330
1F
100
AcDbEntity
  8
SK2
  6
CONTINUOUS
370
25
 62
7
100
AcDbLine
 10
1.655790175803688
 20
44.04384196483926
 30
0.0
 11
2.483685263705524
 21
44.8717370527411
 31
0.0
  0
LINE
  5
967
330
1F
100
AcDbEntity
  8
SK2
  6
CONTINUOUS
370
25
 62
7
100
AcDbLine
 10
1.30223678521044
 20
44.11455264295792
 30
0.0
 11
1.953355177815638
 21
44.76567103556312
 31
0.0
  0
LINE
  5
968
330
1F
100
AcDbEntity
  8
SK2
  6
CONTINUOUS
370
25
 62
7
100
AcDbLine
 10
0.9486833946171487
 20
44.18526332107656
 30
0.0
 11
1.423025091925723
 21
44.65960501838514
 31
0.0
  0
LINE
  5
969
330
1F
100
AcDbEntity
  8
SK2
  6
CONTINUOUS
370
25
 62
7
100
AcDbLine
 10
0.5951300040238863
 20
44.25597399919522
 30
0.0
 11
0.8926950060358223
 21
44.55353900120716
 31
0.0
  0
LINE
  5
96A
330
1F
100
AcDbEntity
  8
SK2
  6
CONTINUOUS
370
25
 62
7
100
AcDbLine
 10
0.2415766134306097
 20
44.32668467731386
 30
0.0
 11
0.3623649201459216
 21
44.44747298402918
 31
0.0
  0
LINE
  5
96B
330
1F
100
AcDbEntity
  8
SK2
  6
CONTINUOUS
370
25
 62
7
100
AcDbLine
 10
0.1916165506745386
 20
44.41332331013491
 30
0.0
 11
0.2874248260118151
 21
44.31751503479763
 31
0.0
  0
LINE
  5
96C
330
1F
100
AcDbEntity
  8
SK2
  6
CONTINUOUS
370
25
 62
7
100
AcDbLine
 10
0.545169941267801
 20
44.48403398825357
 30
0.0
 11
0.81775491190173
 21
44.21144901761964
 31
0.0
  0
LINE
  5
96D
330
1F
100
AcDbEntity
  8
SK2
  6
CONTINUOUS
370
25
 62
7
100
AcDbLine
 10
0.8987233318610777
 20
44.55474466637222
 30
0.0
 11
1.348084997791645
 21
44.10538300044166
 31
0.0
  0
LINE
  5
96E
330
1F
100
AcDbEntity
  8
SK2
  6
CONTINUOUS
370
25
 62
7
100
AcDbLine
 10
1.252276722454368
 20
44.62545534449086
 30
0.0
 11
1.878415083681546
 21
43.99931698326368
 31
0.0
  0
LINE
  5
96F
330
1F
100
AcDbEntity
  8
SK2
  6
CONTINUOUS
370
25
 62
7
100
AcDbLine
 10
1.605830113047631
 20
44.69616602260952
 30
0.0
 11
2.408745169571461
 21
43.89325096608571
 31
0.0
  0
LINE
  5
970
330
1F
100
AcDbEntity
  8
SK2
  6
CONTINUOUS
370
25
 62
7
100
AcDbLine
 10
1.959383503640893
 20
44.76687670072819
 30
0.0
 11
2.939075255461375
 21
43.78718494890772
 31
0.0
  0
LINE
  5
971
330
1F
100
AcDbEntity
  8
SK2
  6
CONTINUOUS
370
25
 62
7
100
AcDbLine
 10
2.312936894234184
 20
44.83758737884684
 30
0.0
 11
3.469405341351276
 21
43.68111893172975
 31
0.0
  0
LINE
  5
972
330
1F
100
AcDbEntity
  8
SK2
  6
CONTINUOUS
370
25
 62
7
100
AcDbLine
 10
2.666490284827461
 20
44.90829805696549
 30
0.0
 11
3.999735427241191
 21
43.57505291455176
 31
0.0
  0
LINE
  5
973
330
1F
100
AcDbEntity
  8
SK2
  6
CONTINUOUS
370
25
 62
7
100
AcDbLine
 10
3.020043675420723
 20
44.97900873508416
 30
0.0
 11
4.530065513131106
 21
43.46898689737377
 31
0.0
  0
LINE
  5
974
330
1F
100
AcDbEntity
  8
SK2
  6
CONTINUOUS
370
25
 62
7
100
AcDbLine
 10
3.373597066014
 20
45.04971941320281
 30
0.0
 11
5.0
 21
43.42331647921681
 31
0.0
  0
LINE
  5
975
330
1F
100
AcDbEntity
  8
SK2
  6
CONTINUOUS
370
25
 62
7
100
AcDbLine
 10
3.727150456607276
 20
45.12043009132146
 30
0.0
 11
5.0
 21
43.84758054792874
 31
0.0
  0
LINE
  5
976
330
1F
100
AcDbEntity
  8
SK2
  6
CONTINUOUS
370
25
 62
7
100
AcDbLine
 10
4.080703847200553
 20
45.19114076944011
 30
0.0
 11
5.0
 21
44.27184461664066
 31
0.0
  0
LINE
  5
977
330
1F
100
AcDbEntity
  8
SK2
  6
CONTINUOUS
370
25
 62
7
100
AcDbLine
 10
4.434257237793815
 20
45.26185144755878
 30
0.0
 11
5.0
 21
44.69610868535259
 31
0.0
  0
LINE
  5
978
330
1F
100
AcDbEntity
  8
SK2
  6
CONTINUOUS
370
25
 62
7
100
AcDbLine
 10
4.787810628387092
 20
45.33256212567743
 30
0.0
 11
5.0
 21
45.12037275406452
 31
0.0
  0
LINE
  5
979
330
1F
100
AcDbEntity
  8
SK2
  6
CONTINUOUS
370
25
 62
7
100
AcDbLine
 10
140.0
 20
44.375
 30
0.0
 11
135.0
 21
43.375
 31
0.0
  0
LINE
  5
97A
330
1F
100
AcDbEntity
  8
SK2
  6
CONTINUOUS
370
25
 62
7
100
AcDbLine
 10
135.0
 20
43.375
 30
0.0
 11
135.0
 21
45.375
 31
0.0
  0
LINE
  5
97B
330
1F
100
AcDbEntity
  8
SK2
  6
CONTINUOUS
370
25
 62
7
100
AcDbLine
 10
135.0
 20
45.375
 30
0.0
 11
140.0
 21
44.375
 31
0.0
  0
LINE
  5
97C
330
1F
100
AcDbEntity
  8
SK2
  6
CONTINUOUS
370
25
 62
7
100
AcDbLine
 10
139.6077591249248
 20
44.29655182498497
 30
0.0
 11
139.7385060832832
 21
44.42729878334335
 31
0.0
  0
LINE
  5
97D
330
1F
100
AcDbEntity
  8
SK2
  6
CONTINUOUS
370
25
 62
7
100
AcDbLine
 10
139.0774290390349
 20
44.19048580780699
 30
0.0
 11
139.3849526926899
 21
44.498009461462
 31
0.0
  0
LINE
  5
97E
330
1F
100
AcDbEntity
  8
SK2
  6
CONTINUOUS
370
25
 62
7
100
AcDbLine
 10
138.547098953145
 20
44.08441979062901
 30
0.0
 11
139.0313993020966
 21
44.56872013958067
 31
0.0
  0
LINE
  5
97F
330
1F
100
AcDbEntity
  8
SK2
  6
CONTINUOUS
370
25
 62
7
100
AcDbLine
 10
138.0167688672551
 20
43.97835377345102
 30
0.0
 11
138.6778459115034
 21
44.63943081769932
 31
0.0
  0
LINE
  5
980
330
1F
100
AcDbEntity
  8
SK2
  6
CONTINUOUS
370
25
 62
7
100
AcDbLine
 10
137.4864387813652
 20
43.87228775627304
 30
0.0
 11
138.3242925209101
 21
44.71014149581799
 31
0.0
  0
LINE
  5
981
330
1F
100
AcDbEntity
  8
SK2
  6
CONTINUOUS
370
25
 62
7
100
AcDbLine
 10
136.9561086954752
 20
43.76622173909505
 30
0.0
 11
137.9707391303168
 21
44.78085217393662
 31
0.0
  0
LINE
  5
982
330
1F
100
AcDbEntity
  8
SK2
  6
CONTINUOUS
370
25
 62
7
100
AcDbLine
 10
136.4257786095853
 20
43.66015572191706
 30
0.0
 11
137.6171857397235
 21
44.8515628520553
 31
0.0
  0
LINE
  5
983
330
1F
100
AcDbEntity
  8
SK2
  6
CONTINUOUS
370
25
 62
7
100
AcDbLine
 10
135.8954485236954
 20
43.55408970473908
 30
0.0
 11
137.2636323491303
 21
44.92227353017394
 31
0.0
  0
LINE
  5
984
330
1F
100
AcDbEntity
  8
SK2
  6
CONTINUOUS
370
25
 62
7
100
AcDbLine
 10
135.3651184378055
 20
43.4480236875611
 30
0.0
 11
136.910078958537
 21
44.9929842082926
 31
0.0
  0
LINE
  5
985
330
1F
100
AcDbEntity
  8
SK2
  6
CONTINUOUS
370
25
 62
7
100
AcDbLine
 10
135.0
 20
43.50716931846756
 30
0.0
 11
136.5565255679437
 21
45.06369488641125
 31
0.0
  0
LINE
  5
986
330
1F
100
AcDbEntity
  8
SK2
  6
CONTINUOUS
370
25
 62
7
100
AcDbLine
 10
135.0
 20
43.9314333871795
 30
0.0
 11
136.2029721773504
 21
45.13440556452991
 31
0.0
  0
LINE
  5
987
330
1F
100
AcDbEntity
  8
SK2
  6
CONTINUOUS
370
25
 62
7
100
AcDbLine
 10
135.0
 20
44.35569745589143
 30
0.0
 11
135.8494187867571
 21
45.20511624264856
 31
0.0
  0
LINE
  5
988
330
1F
100
AcDbEntity
  8
SK2
  6
CONTINUOUS
370
25
 62
7
100
AcDbLine
 10
135.0
 20
44.77996152460337
 30
0.0
 11
135.4958653961639
 21
45.27582692076723
 31
0.0
  0
LINE
  5
989
330
1F
100
AcDbEntity
  8
SK2
  6
CONTINUOUS
370
25
 62
7
100
AcDbLine
 10
135.0
 20
45.2042255933153
 30
0.0
 11
135.1423120055706
 21
45.34653759888587
 31
0.0
  0
LINE
  5
98A
330
1F
100
AcDbEntity
  8
SK2
  6
CONTINUOUS
370
25
 62
7
100
AcDbLine
 10
135.0
 20
43.65352800987935
 30
0.0
 11
135.2321066748995
 21
43.42142133497988
 31
0.0
  0
LINE
  5
98B
330
1F
100
AcDbEntity
  8
SK2
  6
CONTINUOUS
370
25
 62
7
100
AcDbLine
 10
135.0
 20
44.07779207859129
 30
0.0
 11
135.5856600654927
 21
43.49213201309855
 31
0.0
  0
LINE
  5
98C
330
1F
100
AcDbEntity
  8
SK2
  6
CONTINUOUS
370
25
 62
7
100
AcDbLine
 10
135.0
 20
44.50205614730322
 30
0.0
 11
135.939213456086
 21
43.56284269121719
 31
0.0
  0
LINE
  5
98D
330
1F
100
AcDbEntity
  8
SK2
  6
CONTINUOUS
370
25
 62
7
100
AcDbLine
 10
135.0
 20
44.92632021601516
 30
0.0
 11
136.2927668466793
 21
43.63355336933586
 31
0.0
  0
LINE
  5
98E
330
1F
100
AcDbEntity
  8
SK2
  6
CONTINUOUS
370
25
 62
7
100
AcDbLine
 10
135.0
 20
45.35058428472709
 30
0.0
 11
136.6463202372726
 21
43.70426404745451
 31
0.0
  0
LINE
  5
98F
330
1F
100
AcDbEntity
  8
SK2
  6
CONTINUOUS
370
25
 62
7
100
AcDbLine
 10
135.4998104417988
 20
45.27503791164024
 30
0.0
 11
136.9998736278658
 21
43.77497472557318
 31
0.0
  0
LINE
  5
990
330
1F
100
AcDbEntity
  8
SK2
  6
CONTINUOUS
370
25
 62
7
100
AcDbLine
 10
136.0301405276887
 20
45.16897189446226
 30
0.0
 11
137.3534270184591
 21
43.84568540369183
 31
0.0
  0
LINE
  5
991
330
1F
100
AcDbEntity
  8
SK2
  6
CONTINUOUS
370
25
 62
7
100
AcDbLine
 10
136.5604706135786
 20
45.06290587728427
 30
0.0
 11
137.7069804090524
 21
43.91639608181049
 31
0.0
  0
LINE
  5
992
330
1F
100
AcDbEntity
  8
SK2
  6
CONTINUOUS
370
25
 62
7
100
AcDbLine
 10
137.0908006994685
 20
44.9568398601063
 30
0.0
 11
138.0605337996457
 21
43.98710675992914
 31
0.0
  0
LINE
  5
993
330
1F
100
AcDbEntity
  8
SK2
  6
CONTINUOUS
370
25
 62
7
100
AcDbLine
 10
137.6211307853584
 20
44.85077384292831
 30
0.0
 11
138.414087190239
 21
44.0578174380478
 31
0.0
  0
LINE
  5
994
330
1F
100
AcDbEntity
  8
SK2
  6
CONTINUOUS
370
25
 62
7
100
AcDbLine
 10
138.1514608712484
 20
44.74470782575033
 30
0.0
 11
138.7676405808322
 21
44.12852811616646
 31
0.0
  0
LINE
  5
995
330
1F
100
AcDbEntity
  8
SK2
  6
CONTINUOUS
370
25
 62
7
100
AcDbLine
 10
138.6817909571383
 20
44.63864180857234
 30
0.0
 11
139.1211939714255
 21
44.19923879428512
 31
0.0
  0
LINE
  5
996
330
1F
100
AcDbEntity
  8
SK2
  6
CONTINUOUS
370
25
 62
7
100
AcDbLine
 10
139.2121210430282
 20
44.53257579139436
 30
0.0
 11
139.4747473620188
 21
44.26994947240377
 31
0.0
  0
LINE
  5
997
330
1F
100
AcDbEntity
  8
SK2
  6
CONTINUOUS
370
25
 62
7
100
AcDbLine
 10
139.7424511289181
 20
44.42650977421637
 30
0.0
 11
139.8283007526121
 21
44.34066015052242
 31
0.0
  0
TEXT
  5
998
330
1F
100
AcDbEntity
  8
SK2
  6
CONTINUOUS
370
25
 62
7
100
AcDbText
 10
66.20833333333333
 20
45.875
 30
0.0
 40
3.5
  1
140
 72
     1
 11
70.0
 21
45.875
 31
0.0
100
AcDbText
  0
LINE
  5
999
330
1F
100
AcDbEntity
  8
SK1
  6
CONTINUOUS
370
50
 62
4
100
AcDbLine
 10
79.8
 20
0.0
 30
0.0
 11
81.55
 21
0.0
 31
0.0
  0
LINE
  5
99A
330
1F
100
AcDbEntity
  8
SK1
  6
CONTINUOUS
370
50
 62
4
100
AcDbLine
 10
79.8
 20
0.0
 30
0.0
 11
79.8
 21
1.75
 31
0.0
  0
ARC
  5
99B
330
1F
100
AcDbEntity
  8
SK1
  6
CONTINUOUS
370
50
 62
4
100
AcDbCircle
 10
79.8
 20
0.0
 30
0.0
 40
1.75
100
AcDbArc
 50
0.0
 51
90.0
  0
LINE
  5
99C
330
1F
100
AcDbEntity
  8
SK1
  6
CONTINUOUS
370
50
 62
4
100
AcDbLine
 10
79.8
 20
0.0
 30
0.0
 11
78.05
 21
0.0
 31
0.0
  0
ARC
  5
99D
330
1F
100
AcDbEntity
  8
SK1
  6
CONTINUOUS
370
50
 62
4
100
AcDbCircle
 10
79.8
 20
0.0
 30
0.0
 40
1.75
100
AcDbArc
 50
180.0
 51
270.0
  0
LINE
  5
99E
330
1F
100
AcDbEntity
  8
SK1
  6
CONTINUOUS
370
50
 62
4
100
AcDbLine
 10
79.8
 20
-1.75
 30
0.0
 11
79.8
 21
0.0
 31
0.0
  0
ARC
  5
99F
330
1F
100
AcDbEntity
  8
SK1
  6
CONTINUOUS
370
50
 62
4
100
AcDbCircle
 10
79.8
 20
0.0
 30
0.0
 40
1.75
100
AcDbArc
 50
270.0
 51
0.0
  0
ARC
  5
9A0
330
1F
100
AcDbEntity
  8
SK1
  6
CONTINUOUS
370
50
 62
4
100
AcDbCircle
 10
79.8
 20
0.0
 30
0.0
 40
1.75
100
AcDbArc
 50
90.0
 51
180.0
  0
LINE
  5
9A1
330
1F
100
AcDbEntity
  8
SK1
  6
CONTINUOUS
370
50
 62
4
100
AcDbLine
 10
79.57717274741573
 20
-1.73564731720198
 30
0.0
 11
79.8
 21
-1.512820064617713
 31
0.0
  0
LINE
  5
9A2
330
1F
100
AcDbEntity
  8
SK1
  6
CONTINUOUS
370
50
 62
4
100
AcDbLine
 10
81.31282006461771
 20
0.0
 30
0.0
 11
81.53564731720198
 21
0.2228272525842674
 31
0.0
  0
LINE
  5
9A3
330
1F
100
AcDbEntity
  8
SK1
  6
CONTINUOUS
370
50
 62
4
100
AcDbLine
 10
79.36930380681873
 20
-1.69602888438369
 30
0.0
 11
79.8
 21
-1.265332691202421
 31
0.0
  0
LINE
  5
9A4
330
1F
100
AcDbEntity
  8
SK1
  6
CONTINUOUS
370
50
 62
4
100
AcDbLine
 10
81.06533269120241
 20
0.0
 30
0.0
 11
81.49602888438369
 21
0.4306961931812696
 31
0.0
  0
LINE
  5
9A5
330
1F
100
AcDbEntity
  8
SK1
  6
CONTINUOUS
370
50
 62
4
100
AcDbLine
 10
79.18148340435765
 20
-1.636361913429485
 30
0.0
 11
79.8
 21
-1.01784531778713
 31
0.0
  0
LINE
  5
9A6
330
1F
100
AcDbEntity
  8
SK1
  6
CONTINUOUS
370
50
 62
4
100
AcDbLine
 10
80.81784531778713
 20
0.0
 30
0.0
 11
81.43636191342948
 21
0.6185165956423557
 31
0.0
  0
LINE
  5
9A7
330
1F
100
AcDbEntity
  8
SK1
  6
CONTINUOUS
370
50
 62
4
100
AcDbLine
 10
79.00985510946279
 20
-1.560502834909039
 30
0.0
 11
79.8
 21
-0.7703579443718382
 31
0.0
  0
LINE
  5
9A8
330
1F
100
AcDbEntity
  8
SK1
  6
CONTINUOUS
370
50
 62
4
100
AcDbLine
 10
80.57035794437184
 20
0.0
 30
0.0
 11
81.36050283490904
 21
0.7901448905372013
 31
0.0
  0
LINE
  5
9A9
330
1F
100
AcDbEntity
  8
SK1
  6
CONTINUOUS
370
50
 62
4
100
AcDbLine
 10
78.85217783219447
 20
-1.470692738762079
 30
0.0
 11
79.8
 21
-0.5228705709565462
 31
0.0
  0
LINE
  5
9AA
330
1F
100
AcDbEntity
  8
SK1
  6
CONTINUOUS
370
50
 62
4
100
AcDbLine
 10
80.32287057095654
 20
0.0
 30
0.0
 11
81.27069273876208
 21
0.947822167805533
 31
0.0
  0
LINE
  5
9AB
330
1F
100
AcDbEntity
  8
SK1
  6
CONTINUOUS
370
50
 62
4
100
AcDbLine
 10
78.70842956711547
 20
-1.366953630425777
 30
0.0
 11
79.8
 21
-0.2753831975412551
 31
0.0
  0
LINE
  5
9AC
330
1F
100
AcDbEntity
  8
SK1
  6
CONTINUOUS
370
50
 62
4
100
AcDbLine
 10
80.07538319754126
 20
0.0
 30
0.0
 11
81.16695363042577
 21
1.091570432884522
 31
0.0
  0
LINE
  5
9AD
330
1F
100
AcDbEntity
  8
SK1
  6
CONTINUOUS
370
50
 62
4
100
AcDbLine
 10
78.57712164538164
 20
-1.25077417874432
 30
0.0
 11
79.8
 21
-0.0278958241259639
 31
0.0
  0
LINE
  5
9AE
330
1F
100
AcDbEntity
  8
SK1
  6
CONTINUOUS
370
50
 62
4
100
AcDbLine
 10
79.82789582412596
 20
0.0
 30
0.0
 11
81.05077417874432
 21
1.222878354618356
 31
0.0
  0
LINE
  5
9AF
330
1F
100
AcDbEntity
  8
SK1
  6
CONTINUOUS
370
50
 62
4
100
AcDbLine
 10
78.45784030371345
 20
-1.122568146997212
 30
0.0
 11
79.58040845071066
 21
0.0
 31
0.0
  0
LINE
  5
9B0
330
1F
100
AcDbEntity
  8
SK1
  6
CONTINUOUS
370
50
 62
4
100
AcDbLine
 10
79.8
 20
0.2195915492893277
 30
0.0
 11
80.92256814699721
 21
1.34215969628654
 31
0.0
  0
LINE
  5
9B1
330
1F
100
AcDbEntity
  8
SK1
  6
CONTINUOUS
370
50
 62
4
100
AcDbLine
 10
78.35188167231256
 20
-0.9810394049828186
 30
0.0
 11
79.33292107729538
 21
0.0
 31
0.0
  0
LINE
  5
9B2
330
1F
100
AcDbEntity
  8
SK1
  6
CONTINUOUS
370
50
 62
4
100
AcDbLine
 10
79.8
 20
0.4670789227046193
 30
0.0
 11
80.78103940498282
 21
1.448118327687438
 31
0.0
  0
LINE
  5
9B3
330
1F
100
AcDbEntity
  8
SK1
  6
CONTINUOUS
370
50
 62
4
100
AcDbLine
 10
78.25832908651574
 20
-0.8271046173643402
 30
0.0
 11
79.08543370388008
 21
0.0
 31
0.0
  0
LINE
  5
9B4
330
1F
100
AcDbEntity
  8
SK1
  6
CONTINUOUS
370
50
 62
4
100
AcDbLine
 10
79.8
 20
0.71456629611991
 30
0.0
 11
80.62710461736434
 21
1.54167091348425
 31
0.0
  0
LINE
  5
9B5
330
1F
100
AcDbEntity
  8
SK1
  6
CONTINUOUS
370
50
 62
4
100
AcDbLine
 10
78.17918473824204
 20
-0.6587615922227528
 30
0.0
 11
78.8379463304648
 21
0.0
 31
0.0
  0
LINE
  5
9B6
330
1F
100
AcDbEntity
  8
SK1
  6
CONTINUOUS
370
50
 62
4
100
AcDbLine
 10
79.8
 20
0.9620536695352015
 30
0.0
 11
80.45876159222274
 21
1.620815261757954
 31
0.0
  0
LINE
  5
9B7
330
1F
100
AcDbEntity
  8
SK1
  6
CONTINUOUS
370
50
 62
4
100
AcDbLine
 10
78.11629687706963
 20
-0.474162079979876
 30
0.0
 11
78.5904589570495
 21
0.0
 31
0.0
  0
LINE
  5
9B8
330
1F
100
AcDbEntity
  8
SK1
  6
CONTINUOUS
370
50
 62
4
100
AcDbLine
 10
79.8
 20
1.209541042950494
 30
0.0
 11
80.27416207997987
 21
1.683703122930369
 31
0.0
  0
LINE
  5
9B9
330
1F
100
AcDbEntity
  8
SK1
  6
CONTINUOUS
370
50
 62
4
100
AcDbLine
 10
78.07198100434272
 20
-0.2709905792915031
 30
0.0
 11
78.34297158363421
 21
0.0
 31
0.0
  0
LINE
  5
9BA
330
1F
100
AcDbEntity
  8
SK1
  6
CONTINUOUS
370
50
 62
4
100
AcDbLine
 10
79.8
 20
1.457028416365784
 30
0.0
 11
80.0709905792915
 21
1.728018995657286
 31
0.0
  0
LINE
  5
9BB
330
1F
100
AcDbEntity
  8
SK1
  6
CONTINUOUS
370
50
 62
4
100
AcDbLine
 10
78.0513858468978
 20
-0.0440983633211194
 30
0.0
 11
78.09548421021893
 21
0.0
 31
0.0
  0
LINE
  5
9BC
330
1F
100
AcDbEntity
  8
SK1
  6
CONTINUOUS
370
50
 62
4
100
AcDbLine
 10
79.8
 20
1.704515789781075
 30
0.0
 11
79.84409836332111
 21
1.748614153102194
 31
0.0
  0
LINE
  5
9BD
330
1F
100
AcDbEntity
  8
SK1
  6
CONTINUOUS
370
50
 62
4
100
AcDbLine
 10
78.16386517603681
 20
-0.6191473609004006
 30
0.0
 11
79.1808526390996
 21
-1.636134823963186
 31
0.0
  0
LINE
  5
9BE
330
1F
100
AcDbEntity
  8
SK1
  6
CONTINUOUS
370
50
 62
4
100
AcDbLine
 10
78.07363430643545
 20
-0.2814291178837463
 30
0.0
 11
79.51857088211625
 21
-1.726365693564548
 31
0.0
  0
LINE
  5
9BF
330
1F
100
AcDbEntity
  8
SK1
  6
CONTINUOUS
370
50
 62
4
100
AcDbLine
 10
78.0503344343115
 20
-0.0106418723445003
 30
0.0
 11
79.7893581276555
 21
-1.749665565688503
 31
0.0
  0
LINE
  5
9C0
330
1F
100
AcDbEntity
  8
SK1
  6
CONTINUOUS
370
50
 62
4
100
AcDbLine
 10
78.28717993538228
 20
0.0
 30
0.0
 11
79.8
 21
-1.51282006461771
 31
0.0
  0
LINE
  5
9C1
330
1F
100
AcDbEntity
  8
SK1
  6
CONTINUOUS
370
50
 62
4
100
AcDbLine
 10
78.53466730879758
 20
0.0
 30
0.0
 11
79.8
 21
-1.265332691202418
 31
0.0
  0
LINE
  5
9C2
330
1F
100
AcDbEntity
  8
SK1
  6
CONTINUOUS
370
50
 62
4
100
AcDbLine
 10
78.78215468221286
 20
0.0
 30
0.0
 11
79.8
 21
-1.017845317787128
 31
0.0
  0
LINE
  5
9C3
330
1F
100
AcDbEntity
  8
SK1
  6
CONTINUOUS
370
50
 62
4
100
AcDbLine
 10
79.02964205562816
 20
0.0
 30
0.0
 11
79.8
 21
-0.7703579443718369
 31
0.0
  0
LINE
  5
9C4
330
1F
100
AcDbEntity
  8
SK1
  6
CONTINUOUS
370
50
 62
4
100
AcDbLine
 10
79.27712942904346
 20
0.0
 30
0.0
 11
79.8
 21
-0.5228705709565453
 31
0.0
  0
LINE
  5
9C5
330
1F
100
AcDbEntity
  8
SK1
  6
CONTINUOUS
370
50
 62
4
100
AcDbLine
 10
79.52461680245874
 20
0.0
 30
0.0
 11
79.8
 21
-0.2753831975412537
 31
0.0
  0
LINE
  5
9C6
330
1F
100
AcDbEntity
  8
SK1
  6
CONTINUOUS
370
50
 62
4
100
AcDbLine
 10
79.77210417587403
 20
0.0
 30
0.0
 11
79.8
 21
-0.027895824125963
 31
0.0
  0
LINE
  5
9C7
330
1F
100
AcDbEntity
  8
SK1
  6
CONTINUOUS
370
50
 62
4
100
AcDbLine
 10
79.8
 20
0.219591549289329
 30
0.0
 11
80.01959154928933
 21
0.0
 31
0.0
  0
LINE
  5
9C8
330
1F
100
AcDbEntity
  8
SK1
  6
CONTINUOUS
370
50
 62
4
100
AcDbLine
 10
79.8
 20
0.4670789227046202
 30
0.0
 11
80.26707892270461
 21
0.0
 31
0.0
  0
LINE
  5
9C9
330
1F
100
AcDbEntity
  8
SK1
  6
CONTINUOUS
370
50
 62
4
100
AcDbLine
 10
79.8
 20
0.7145662961199113
 30
0.0
 11
80.51456629611991
 21
0.0
 31
0.0
  0
LINE
  5
9CA
330
1F
100
AcDbEntity
  8
SK1
  6
CONTINUOUS
370
50
 62
4
100
AcDbLine
 10
79.8
 20
0.9620536695352029
 30
0.0
 11
80.7620536695352
 21
0.0
 31
0.0
  0
LINE
  5
9CB
330
1F
100
AcDbEntity
  8
SK1
  6
CONTINUOUS
370
50
 62
4
100
AcDbLine
 10
79.8
 20
1.209541042950494
 30
0.0
 11
81.00954104295049
 21
0.0
 31
0.0
  0
LINE
  5
9CC
330
1F
100
AcDbEntity
  8
SK1
  6
CONTINUOUS
370
50
 62
4
100
AcDbLine
 10
79.8
 20
1.457028416365785
 30
0.0
 11
81.25702841636578
 21
0.0
 31
0.0
  0
LINE
  5
9CD
330
1F
100
AcDbEntity
  8
SK1
  6
CONTINUOUS
370
50
 62
4
100
AcDbLine
 10
79.8
 20
1.704515789781076
 30
0.0
 11
81.50451578978108
 21
0.0
 31
0.0
  0
LINE
  5
9CE
330
1F
100
AcDbEntity
  8
SK1
  6
CONTINUOUS
370
50
 62
4
100
AcDbLine
 10
80.01543384193566
 20
1.736569321260697
 30
0.0
 11
81.5365693212607
 21
0.2154338419356714
 31
0.0
  0
LINE
  5
9CF
330
1F
100
AcDbEntity
  8
SK1
  6
CONTINUOUS
370
50
 62
4
100
AcDbLine
 10
80.33283284728992
 20
1.666657689321729
 30
0.0
 11
81.46665768932172
 21
0.5328328472899322
 31
0.0
  0
LINE
  5
9D0
330
1F
100
AcDbEntity
  8
SK1
  6
CONTINUOUS
370
50
 62
4
100
AcDbLine
 10
80.84009874905674
 20
1.406879160970207
 30
0.0
 11
81.2068791609702
 21
1.040098749056747
 31
0.0
  0
LINE
  5
9D1
330
1F
100
AcDbEntity
  8
4
  6
LONGDASH_DASH
370
25
 62
2
100
AcDbLine
 10
79.8
 20
0.0
 30
0.0
 11
140.0
 21
0.0
 31
0.0
  0
LINE
  5
9D2
330
1F
100
AcDbEntity
  8
SK4
  6
LONGDASH_DASH
370
25
 62
2
100
AcDbLine
 10
-6.0
 20
0.0
 30
0.0
 11
146.0
 21
0.0
 31
0.0
  0
ARC
  5
9D3
330
1F
100
AcDbEntity
  8
SK6
  6
CONTINUOUS
370
25
 62
5
100
AcDbCircle
 10
173.4613820083765
 20
-31.14524575338786
 30
0.0
 40
2.760489128492211
100
AcDbArc
 50
338.9379403434233
 51
90.44457437511392
  0
LINE
  5
9D4
330
1F
100
AcDbEntity
  8
SK6
  6
CONTINUOUS
370
25
 62
5
100
AcDbLine
 10
173.4399627969598
 20
-28.38483972421281
 30
0.0
 11
173.4399627969598
 21
-29.48789835613464
 31
0.0
  0
ARC
  5
9D5
330
1F
100
AcDbEntity
  8
SK6
  6
CONTINUOUS
370
25
 62
5
100
AcDbCircle
 10
173.4505090293692
 20
-31.16523924566821
 30
0.0
 40
1.677374043771789
100
AcDbArc
 50
243.4214706017859
 51
90.3602408122618
  0
ARC
  5
9D6
330
1F
100
AcDbEntity
  8
SK6
  6
CONTINUOUS
370
25
 62
5
100
AcDbCircle
 10
175.9727598968496
 20
-30.73383199215561
 30
0.0
 40
3.800217030022758
100
AcDbArc
 50
210.5483731288539
 51
236.9780169366803
  0
LINE
  5
9D7
330
1F
100
AcDbEntity
  8
SK6
  6
CONTINUOUS
370
25
 62
5
100
AcDbLine
 10
173.9017906851249
 20
-33.92016781867535
 30
0.0
 11
178.0437309674267
 21
-33.92016781867535
 31
0.0
  0
ARC
  5
9D8
330
1F
100
AcDbEntity
  8
SK6
  6
CONTINUOUS
370
25
 62
5
100
AcDbCircle
 10
175.9727618387726
 20
-30.7338320937346
 30
0.0
 40
3.80021689958248
100
AcDbArc
 50
303.021982847796
 51
326.3732153033475
  0
LINE
  5
9D9
330
1F
100
AcDbEntity
  8
SK6
  6
CONTINUOUS
370
25
 62
5
100
AcDbLine
 10
179.1370597513572
 20
-32.8383194907709
 30
0.0
 11
175.7797617057546
 21
-32.8383194907709
 31
0.0
  0
LINE
  5
9DA
330
1F
100
AcDbEntity
  8
SK6
  6
CONTINUOUS
370
25
 62
5
100
AcDbLine
 10
175.7797617057546
 20
-32.8383194907709
 30
0.0
 11
179.6996210977199
 21
-31.47691829641694
 31
0.0
  0
ARC
  5
9DB
330
1F
100
AcDbEntity
  8
SK6
  6
CONTINUOUS
370
25
 62
5
100
AcDbCircle
 10
175.9727625615721
 20
-30.7338326048594
 30
0.0
 40
3.800217216614737
100
AcDbArc
 50
348.7238644184696
 51
53.4691051260886
  0
LINE
  5
9DC
330
1F
100
AcDbEntity
  8
SK6
  6
CONTINUOUS
370
25
 62
5
100
AcDbLine
 10
178.2348652453854
 20
-27.68022124429967
 30
0.0
 11
176.0374504788273
 21
-32.13730973507057
 31
0.0
  0
ENDSEC
  0
SECTION
  2
OBJECTS
  0
DICTIONARY
  5
C
330
0
100
AcDbDictionary
281
     1
  3
ACAD_GROUP
350
D
  3
ACAD_LAYOUT
350
1A
  3
ACAD_MATERIAL
350
3B
  3
ACAD_MLEADERSTYLE
350
9DF
  3
ACAD_MLINESTYLE
350
17
  3
ACAD_PLOTSETTINGS
350
19
  3
ACAD_PLOTSTYLENAME
350
E
  3
ACAD_SCALELIST
350
327
  3
ACAD_VISUALSTYLE
350
2A
  3
AcDbVariableDictionary
350
9DD
  0
DICTIONARY
  5
D
102
{ACAD_REACTORS
330
C
102
}
330
C
100
AcDbDictionary
281
     1
  0
DICTIONARY
  5
1A
102
{ACAD_REACTORS
330
C
102
}
330
C
100
AcDbDictionary
281
     1
  3
Layout1
350
1E
  3
Layout2
350
26
  3
Model
350
22
  0
DICTIONARY
  5
3B
102
{ACAD_REACTORS
330
C
102
}
330
C
100
AcDbDictionary
281
     1
  3
ByBlock
350
3D
  3
ByLayer
350
3C
  3
Global
350
3E
  0
DICTIONARY
  5
9DF
102
{ACAD_REACTORS
330
C
102
}
330
C
100
AcDbDictionary
281
     1
  0
DICTIONARY
  5
17
102
{ACAD_REACTORS
330
C
102
}
330
C
100
AcDbDictionary
281
     1
  3
Standard
350
18
  0
DICTIONARY
  5
19
102
{ACAD_REACTORS
330
C
102
}
330
C
100
AcDbDictionary
281
     1
  0
ACDBDICTIONARYWDFLT
  5
E
102
{ACAD_REACTORS
330
C
102
}
330
C
100
AcDbDictionary
281
     1
  3
Normal
350
F
100
AcDbDictionaryWithDefault
340
F
  0
DICTIONARY
  5
327
102
{ACAD_REACTORS
330
C
102
}
330
C
100
AcDbDictionary
281
     1
  3
A0
350
328
  3
A1
350
329
  3
A2
350
32A
  3
A3
350
32B
  3
A4
350
32C
  3
A5
350
32D
  3
A6
350
32E
  3
A7
350
32F
  3
A8
350
330
  3
A9
350
331
  3
B0
350
332
  3
B1
350
333
  3
B2
350
334
  3
B3
350
335
  3
B4
350
336
  3
B5
350
337
  3
B6
350
338
  3
B7
350
339
  3
B8
350
33A
  3
B9
350
33B
  3
C0
350
33C
  3
C1
350
33D
  3
C2
350
33E
  3
C3
350
33F
  3
C4
350
340
  3
C5
350
341
  3
C6
350
342
  3
C7
350
343
  3
C8
350
344
  3
C9
350
345
  3
D0
350
346
  3
D1
350
347
  3
D2
350
348
  0
DICTIONARY
  5
2A
102
{ACAD_REACTORS
330
C
102
}
330
C
100
AcDbDictionary
281
     1
  3
2dWireframe
350
2F
  3
3D Hidden
350
31
  3
3dWireframe
350
30
  3
Basic
350
32
  3
Brighten
350
36
  3
ColorChange
350
3A
  3
Conceptual
350
34
  3
Dim
350
35
  3
Facepattern
350
39
  3
Flat
350
2B
  3
FlatWithEdges
350
2C
  3
Gouraud
350
2D
  3
GouraudWithEdges
350
2E
  3
Linepattern
350
38
  3
Realistic
350
33
  3
Thicken
350
37
  0
DICTIONARY
  5
9DD
102
{ACAD_REACTORS
330
C
102
}
330
C
100
AcDbDictionary
281
     1
  3
CANNOSCALE
350
9E2
  3
DIMASSOC
350
9E3
  3
HIDETEXT
350
9E4
  3
PSOLHEIGHT
350
9E1
  3
PSOLWIDTH
350
9E0
  0
LAYOUT
  5
1E
102
{ACAD_REACTORS
330
1A
102
}
330
1A
100
AcDbPlotSettings
  1

  2
none_device
  4

  6

 40
0.0
 41
0.0
 42
0.0
 43
0.0
 44
0.0
 45
0.0
 46
0.0
 47
0.0
 48
0.0
 49
0.0
140
0.0
141
0.0
142
1.0
143
1.0
 70
   688
 72
     0
 73
     0
 74
     5
  7

 75
    16
147
1.0
148
0.0
149
0.0
100
AcDbLayout
  1
Layout1
 70
     1
 71
     1
 10
0.0
 20
0.0
 11
420.0
 21
297.0
 12
0.0
 22
0.0
 32
0.0
 14
1.000000000000000E+20
 24
1.000000000000000E+20
 34
1.000000000000000E+20
 15
-1.000000000000000E+20
 25
-1.000000000000000E+20
 35
-1.000000000000000E+20
146
0.0
 13
0.0
 23
0.0
 33
0.0
 16
1.0
 26
0.0
 36
0.0
 17
0.0
 27
1.0
 37
0.0
 76
     0
330
1B
  0
LAYOUT
  5
26
102
{ACAD_REACTORS
330
1A
102
}
330
1A
100
AcDbPlotSettings
  1

  2
none_device
  4

  6

 40
0.0
 41
0.0
 42
0.0
 43
0.0
 44
0.0
 45
0.0
 46
0.0
 47
0.0
 48
0.0
 49
0.0
140
0.0
141
0.0
142
1.0
143
1.0
 70
   688
 72
     0
 73
     0
 74
     5
  7

 75
    16
147
1.0
148
0.0
149
0.0
100
AcDbLayout
  1
Layout2
 70
     1
 71
     2
 10
0.0
 20
0.0
 11
0.0
 21
0.0
 12
0.0
 22
0.0
 32
0.0
 14
0.0
 24
0.0
 34
0.0
 15
0.0
 25
0.0
 35
0.0
146
0.0
 13
0.0
 23
0.0
 33
0.0
 16
1.0
 26
0.0
 36
0.0
 17
0.0
 27
1.0
 37
0.0
 76
     0
330
23
  0
LAYOUT
  5
22
102
{ACAD_REACTORS
330
1A
102
}
330
1A
100
AcDbPlotSettings
  1

  2
none_device
  4

  6

 40
0.0
 41
0.0
 42
0.0
 43
0.0
 44
0.0
 45
0.0
 46
0.0
 47
0.0
 48
0.0
 49
0.0
140
0.0
141
0.0
142
1.0
143
1.0
 70
  1712
 72
     0
 73
     0
 74
     0
  7

 75
     0
147
1.0
148
0.0
149
0.0
100
AcDbLayout
  1
Model
 70
     1
 71
     0
 10
0.0
 20
0.0
 11
420.0
 21
297.0
 12
0.0
 22
0.0
 32
0.0
 14
0.0
 24
0.0
 34
0.0
 15
25.0
 25
35.0
 35
0.0
146
0.0
 13
0.0
 23
0.0
 33
0.0
 16
1.0
 26
0.0
 36
0.0
 17
0.0
 27
1.0
 37
0.0
 76
     0
330
1F
331
29
  0
MATERIAL
  5
3D
102
{ACAD_REACTORS
330
3B
102
}
102
{ACAD_XDICTIONARY
360
A07
102
}
330
3B
100
AcDbMaterial
  1
ByBlock
  0
MATERIAL
  5
3C
102
{ACAD_REACTORS
330
3B
102
}
102
{ACAD_XDICTIONARY
360
A05
102
}
330
3B
100
AcDbMaterial
  1
ByLayer
  0
MATERIAL
  5
3E
102
{ACAD_REACTORS
330
3B
102
}
102
{ACAD_XDICTIONARY
360
A09
102
}
330
3B
100
AcDbMaterial
  1
Global
  0
MLINESTYLE
  5
18
102
{ACAD_REACTORS
330
17
102
}
330
17
100
AcDbMlineStyle
  2
Standard
 70
     0
  3

 62
   256
 51
90.0
 52
90.0
 71
     2
 49
0.5
 62
   256
  6
BYLAYER
 49
-0.5
 62
   256
  6
BYLAYER
  0
ACDBPLACEHOLDER
  5
F
102
{ACAD_REACTORS
330
E
102
}
330
E
  0
SCALE
  5
328
102
{ACAD_REACTORS
330
327
102
}
330
327
100
AcDbScale
 70
     0
300
1:1
140
1.0
141
1.0
290
     1
  0
SCALE
  5
329
102
{ACAD_REACTORS
330
327
102
}
330
327
100
AcDbScale
 70
     0
300
1:2
140
1.0
141
2.0
290
     0
  0
SCALE
  5
32A
102
{ACAD_REACTORS
330
327
102
}
330
327
100
AcDbScale
 70
     0
300
1:4
140
1.0
141
4.0
290
     0
  0
SCALE
  5
32B
102
{ACAD_REACTORS
330
327
102
}
330
327
100
AcDbScale
 70
     0
300
1:5
140
1.0
141
5.0
290
     0
  0
SCALE
  5
32C
102
{ACAD_REACTORS
330
327
102
}
330
327
100
AcDbScale
 70
     0
300
1:8
140
1.0
141
8.0
290
     0
  0
SCALE
  5
32D
102
{ACAD_REACTORS
330
327
102
}
330
327
100
AcDbScale
 70
     0
300
1:10
140
1.0
141
10.0
290
     0
  0
SCALE
  5
32E
102
{ACAD_REACTORS
330
327
102
}
330
327
100
AcDbScale
 70
     0
300
1:16
140
1.0
141
16.0
290
     0
  0
SCALE
  5
32F
102
{ACAD_REACTORS
330
327
102
}
330
327
100
AcDbScale
 70
     0
300
1:20
140
1.0
141
20.0
290
     0
  0
SCALE
  5
330
102
{ACAD_REACTORS
330
327
102
}
330
327
100
AcDbScale
 70
     0
300
1:30
140
1.0
141
30.0
290
     0
  0
SCALE
  5
331
102
{ACAD_REACTORS
330
327
102
}
330
327
100
AcDbScale
 70
     0
300
1:40
140
1.0
141
40.0
290
     0
  0
SCALE
  5
332
102
{ACAD_REACTORS
330
327
102
}
330
327
100
AcDbScale
 70
     0
300
1:50
140
1.0
141
50.0
290
     0
  0
SCALE
  5
333
102
{ACAD_REACTORS
330
327
102
}
330
327
100
AcDbScale
 70
     0
300
1:100
140
1.0
141
100.0
290
     0
  0
SCALE
  5
334
102
{ACAD_REACTORS
330
327
102
}
330
327
100
AcDbScale
 70
     0
300
2:1
140
2.0
141
1.0
290
     0
  0
SCALE
  5
335
102
{ACAD_REACTORS
330
327
102
}
330
327
100
AcDbScale
 70
     0
300
4:1
140
4.0
141
1.0
290
     0
  0
SCALE
  5
336
102
{ACAD_REACTORS
330
327
102
}
330
327
100
AcDbScale
 70
     0
300
8:1
140
8.0
141
1.0
290
     0
  0
SCALE
  5
337
102
{ACAD_REACTORS
330
327
102
}
330
327
100
AcDbScale
 70
     0
300
10:1
140
10.0
141
1.0
290
     0
  0
SCALE
  5
338
102
{ACAD_REACTORS
330
327
102
}
330
327
100
AcDbScale
 70
     0
300
100:1
140
100.0
141
1.0
290
     0
  0
SCALE
  5
339
102
{ACAD_REACTORS
330
327
102
}
330
327
100
AcDbScale
 70
     0
300
1/128" = 1'-0"
140
0.0078125
141
12.0
290
     0
  0
SCALE
  5
33A
102
{ACAD_REACTORS
330
327
102
}
330
327
100
AcDbScale
 70
     0
300
1/64" = 1'-0"
140
0.015625
141
12.0
290
     0
  0
SCALE
  5
33B
102
{ACAD_REACTORS
330
327
102
}
330
327
100
AcDbScale
 70
     0
300
1/32" = 1'-0"
140
0.03125
141
12.0
290
     0
  0
SCALE
  5
33C
102
{ACAD_REACTORS
330
327
102
}
330
327
100
AcDbScale
 70
     0
300
1/16" = 1'-0"
140
0.0625
141
12.0
290
     0
  0
SCALE
  5
33D
102
{ACAD_REACTORS
330
327
102
}
330
327
100
AcDbScale
 70
     0
300
3/32" = 1'-0"
140
0.09375
141
12.0
290
     0
  0
SCALE
  5
33E
102
{ACAD_REACTORS
330
327
102
}
330
327
100
AcDbScale
 70
     0
300
1/8" = 1'-0"
140
0.125
141
12.0
290
     0
  0
SCALE
  5
33F
102
{ACAD_REACTORS
330
327
102
}
330
327
100
AcDbScale
 70
     0
300
3/16" = 1'-0"
140
0.1875
141
12.0
290
     0
  0
SCALE
  5
340
102
{ACAD_REACTORS
330
327
102
}
330
327
100
AcDbScale
 70
     0
300
1/4" = 1'-0"
140
0.25
141
12.0
290
     0
  0
SCALE
  5
341
102
{ACAD_REACTORS
330
327
102
}
330
327
100
AcDbScale
 70
     0
300
3/8" = 1'-0"
140
0.375
141
12.0
290
     0
  0
SCALE
  5
342
102
{ACAD_REACTORS
330
327
102
}
330
327
100
AcDbScale
 70
     0
300
1/2" = 1'-0"
140
0.5
141
12.0
290
     0
  0
SCALE
  5
343
102
{ACAD_REACTORS
330
327
102
}
330
327
100
AcDbScale
 70
     0
300
3/4" = 1'-0"
140
0.75
141
12.0
290
     0
  0
SCALE
  5
344
102
{ACAD_REACTORS
330
327
102
}
330
327
100
AcDbScale
 70
     0
300
1" = 1'-0"
140
1.0
141
12.0
290
     0
  0
SCALE
  5
345
102
{ACAD_REACTORS
330
327
102
}
330
327
100
AcDbScale
 70
     0
300
1-1/2" = 1'-0"
140
1.5
141
12.0
290
     0
  0
SCALE
  5
346
102
{ACAD_REACTORS
330
327
102
}
330
327
100
AcDbScale
 70
     0
300
3" = 1'-0"
140
3.0
141
12.0
290
     0
  0
SCALE
  5
347
102
{ACAD_REACTORS
330
327
102
}
330
327
100
AcDbScale
 70
     0
300
6" = 1'-0"
140
6.0
141
12.0
290
     0
  0
SCALE
  5
348
102
{ACAD_REACTORS
330
327
102
}
330
327
100
AcDbScale
 70
     0
300
1'-0" = 1'-0"
140
12.0
141
12.0
290
     0
  0
VISUALSTYLE
  5
2F
102
{ACAD_REACTORS
330
2A
102
}
102
{ACAD_XDICTIONARY
360
9ED
102
}
330
2A
100
AcDbVisualStyle
  2
2dWireframe
 70
     4
 71
     0
 72
     2
 73
     0
 90
        0
 40
-0.6
 41
-30.0
 62
     5
 63
     7
 74
     1
 91
        4
 64
     7
 65
   257
 75
     1
175
     1
 42
1.0
 92
        0
 66
   257
 43
1.0
 76
     1
 77
     6
 78
     2
 67
     7
 79
     5
170
     0
171
     0
290
     0
174
     0
 93
        1
 44
0.0
173
     0
291
     0
 45
0.0
1001
ACAD
1000
AcDbSavedByObjectVersion
1070
     0
  0
VISUALSTYLE
  5
31
102
{ACAD_REACTORS
330
2A
102
}
102
{ACAD_XDICTIONARY
360
9F1
102
}
330
2A
100
AcDbVisualStyle
  2
3D Hidden
 70
     6
 71
     1
 72
     2
 73
     2
 90
        0
 40
-0.6
 41
-30.0
 62
     5
 63
     7
 74
     2
 91
        2
 64
     7
 65
   257
 75
     2
175
     1
 42
40.0
 92
        0
 66
   257
 43
1.0
 76
     1
 77
     6
 78
     2
 67
     7
 79
     3
170
     0
171
     0
290
     0
174
     0
 93
        1
 44
0.0
173
     0
291
     0
 45
0.0
1001
ACAD
1000
AcDbSavedByObjectVersion
1070
     0
  0
VISUALSTYLE
  5
30
102
{ACAD_REACTORS
330
2A
102
}
102
{ACAD_XDICTIONARY
360
9EF
102
}
330
2A
100
AcDbVisualStyle
  2
3dWireframe
 70
     5
 71
     0
 72
     2
 73
     0
 90
        0
 40
-0.6
 41
-30.0
 62
     5
 63
     7
 74
     1
 91
        4
 64
     7
 65
   257
 75
     1
175
     1
 42
1.0
 92
        0
 66
   257
 43
1.0
 76
     1
 77
     6
 78
     2
 67
     7
 79
     5
170
     0
171
     0
290
     0
174
     0
 93
        1
 44
0.0
173
     0
291
     0
 45
0.0
1001
ACAD
1000
AcDbSavedByObjectVersion
1070
     0
  0
VISUALSTYLE
  5
32
102
{ACAD_REACTORS
330
2A
102
}
102
{ACAD_XDICTIONARY
360
9F3
102
}
330
2A
100
AcDbVisualStyle
  2
Basic
 70
     7
 71
     1
 72
     0
 73
     1
 90
        0
 40
-0.6
 41
-30.0
 62
     5
 63
     7
 74
     0
 91
        4
 64
     7
 65
   257
 75
     1
175
     1
 42
1.0
 92
        8
 66
     7
 43
1.0
 76
     1
 77
     6
 78
     2
 67
     7
 79
     5
170
     0
171
     0
290
     0
174
     0
 93
        1
 44
0.0
173
     0
291
     1
 45
0.0
1001
ACAD
1000
AcDbSavedByObjectVersion
1070
     0
  0
VISUALSTYLE
  5
36
102
{ACAD_REACTORS
330
2A
102
}
102
{ACAD_XDICTIONARY
360
9FB
102
}
330
2A
100
AcDbVisualStyle
  2
Brighten
 70
    12
 71
     2
 72
     2
 73
     0
 90
        0
 40
-0.6
 41
-30.0
 62
     5
 63
     7
 74
     1
 91
        4
 64
     7
 65
   257
 75
     1
175
     1
 42
1.0
 92
        8
 66
     7
 43
1.0
 76
     1
 77
     6
 78
     2
 67
     7
 79
     5
170
     0
171
     0
290
     0
174
     0
 93
        1
 44
50.0
173
     0
291
     1
 45
0.0
1001
ACAD
1000
AcDbSavedByObjectVersion
1070
     0
  0
VISUALSTYLE
  5
3A
102
{ACAD_REACTORS
330
2A
102
}
102
{ACAD_XDICTIONARY
360
A03
102
}
330
2A
100
AcDbVisualStyle
  2
ColorChange
 70
    16
 71
     2
 72
     2
 73
     3
 90
        0
 40
-0.6
 41
-30.0
 62
     5
 63
     8
 74
     1
 91
        4
 64
     7
 65
   257
 75
     1
175
     1
 42
1.0
 92
        8
 66
     8
 43
1.0
 76
     1
 77
     6
 78
     2
 67
     7
 79
     5
170
     0
171
     0
290
     0
174
     0
 93
        1
 44
0.0
173
     0
291
     1
 45
0.0
1001
ACAD
1000
AcDbSavedByObjectVersion
1070
     0
  0
VISUALSTYLE
  5
34
102
{ACAD_REACTORS
330
2A
102
}
102
{ACAD_XDICTIONARY
360
9F7
102
}
330
2A
100
AcDbVisualStyle
  2
Conceptual
 70
     9
 71
     3
 72
     2
 73
     0
 90
        0
 40
-0.6
 41
-30.0
 62
     5
 63
     7
 74
     2
 91
        2
 64
     7
 65
   257
 75
     1
175
     1
 42
40.0
 92
        8
 66
     7
 43
1.0
 76
     1
 77
     6
 78
     2
 67
     7
 79
     3
170
     0
171
     0
290
     0
174
     0
 93
        1
 44
0.0
173
     0
291
     0
 45
0.0
1001
ACAD
1000
AcDbSavedByObjectVersion
1070
     0
  0
VISUALSTYLE
  5
35
102
{ACAD_REACTORS
330
2A
102
}
102
{ACAD_XDICTIONARY
360
9F9
102
}
330
2A
100
AcDbVisualStyle
  2
Dim
 70
    11
 71
     2
 72
     2
 73
     0
 90
        0
 40
-0.6
 41
-30.0
 62
     5
 63
     7
 74
     1
 91
        4
 64
     7
 65
   257
 75
     1
175
     1
 42
1.0
 92
        8
 66
     7
 43
1.0
 76
     1
 77
     6
 78
     2
 67
     7
 79
     5
170
     0
171
     0
290
     0
174
     0
 93
        1
 44
-50.0
173
     0
291
     1
 45
0.0
1001
ACAD
1000
AcDbSavedByObjectVersion
1070
     0
  0
VISUALSTYLE
  5
39
102
{ACAD_REACTORS
330
2A
102
}
102
{ACAD_XDICTIONARY
360
A01
102
}
330
2A
100
AcDbVisualStyle
  2
Facepattern
 70
    15
 71
     2
 72
     2
 73
     0
 90
        0
 40
-0.6
 41
-30.0
 62
     5
 63
     7
 74
     1
 91
        4
 64
     7
 65
   257
 75
     1
175
     1
 42
1.0
 92
        8
 66
     7
 43
1.0
 76
     1
 77
     6
 78
     2
 67
     7
 79
     5
170
     0
171
     0
290
     0
174
     0
 93
        1
 44
0.0
173
     0
291
     1
 45
0.0
1001
ACAD
1000
AcDbSavedByObjectVersion
1070
     0
  0
VISUALSTYLE
  5
2B
102
{ACAD_REACTORS
330
2A
102
}
102
{ACAD_XDICTIONARY
360
9E5
102
}
330
2A
100
AcDbVisualStyle
  2
Flat
 70
     0
 71
     2
 72
     1
 73
     1
 90
        2
 40
-0.6
 41
30.0
 62
     5
 63
     7
 74
     0
 91
        4
 64
     7
 65
   257
 75
     1
175
     1
 42
1.0
 92
        8
 66
     7
 43
1.0
 76
     1
 77
     6
 78
     2
 67
     7
 79
     5
170
     0
171
     0
290
     0
174
     0
 93
       13
 44
0.0
173
     0
291
     1
 45
0.0
1001
ACAD
1000
AcDbSavedByObjectVersion
1070
     0
  0
VISUALSTYLE
  5
2C
102
{ACAD_REACTORS
330
2A
102
}
102
{ACAD_XDICTIONARY
360
9E7
102
}
330
2A
100
AcDbVisualStyle
  2
FlatWithEdges
 70
     1
 71
     2
 72
     1
 73
     1
 90
        2
 40
-0.6
 41
30.0
 62
     5
 63
     7
 74
     1
 91
        4
 64
     7
 65
   257
 75
     1
175
     1
 42
1.0
 92
        0
 66
   257
 43
1.0
 76
     1
 77
     6
 78
     2
 67
     7
 79
     5
170
     0
171
     0
290
     0
174
     0
 93
       13
 44
0.0
173
     0
291
     1
 45
0.0
1001
ACAD
1000
AcDbSavedByObjectVersion
1070
     0
  0
VISUALSTYLE
  5
2D
102
{ACAD_REACTORS
330
2A
102
}
102
{ACAD_XDICTIONARY
360
9E9
102
}
330
2A
100
AcDbVisualStyle
  2
Gouraud
 70
     2
 71
     2
 72
     2
 73
     1
 90
        2
 40
-0.6
 41
30.0
 62
     5
 63
     7
 74
     0
 91
        4
 64
     7
 65
   257
 75
     1
175
     1
 42
1.0
 92
        0
 66
     7
 43
1.0
 76
     1
 77
     6
 78
     2
 67
     7
 79
     5
170
     0
171
     0
290
     0
174
     0
 93
       13
 44
0.0
173
     0
291
     1
 45
0.0
1001
ACAD
1000
AcDbSavedByObjectVersion
1070
     0
  0
VISUALSTYLE
  5
2E
102
{ACAD_REACTORS
330
2A
102
}
102
{ACAD_XDICTIONARY
360
9EB
102
}
330
2A
100
AcDbVisualStyle
  2
GouraudWithEdges
 70
     3
 71
     2
 72
     2
 73
     1
 90
        2
 40
-0.6
 41
30.0
 62
     5
 63
     7
 74
     1
 91
        4
 64
     7
 65
   257
 75
     1
175
     1
 42
1.0
 92
        0
 66
   257
 43
1.0
 76
     1
 77
     6
 78
     2
 67
     7
 79
     5
170
     0
171
     0
290
     0
174
     0
 93
       13
 44
0.0
173
     0
291
     1
 45
0.0
1001
ACAD
1000
AcDbSavedByObjectVersion
1070
     0
  0
VISUALSTYLE
  5
38
102
{ACAD_REACTORS
330
2A
102
}
102
{ACAD_XDICTIONARY
360
9FF
102
}
330
2A
100
AcDbVisualStyle
  2
Linepattern
 70
    14
 71
     2
 72
     2
 73
     0
 90
        0
 40
-0.6
 41
-30.0
 62
     5
 63
     7
 74
     1
 91
        4
 64
     7
 65
   257
 75
     7
175
     7
 42
1.0
 92
        8
 66
     7
 43
1.0
 76
     1
 77
     6
 78
     2
 67
     7
 79
     5
170
     0
171
     0
290
     0
174
     0
 93
        1
 44
0.0
173
     0
291
     1
 45
0.0
1001
ACAD
1000
AcDbSavedByObjectVersion
1070
     0
  0
VISUALSTYLE
  5
33
102
{ACAD_REACTORS
330
2A
102
}
102
{ACAD_XDICTIONARY
360
9F5
102
}
330
2A
100
AcDbVisualStyle
  2
Realistic
 70
     8
 71
     2
 72
     2
 73
     0
 90
        0
 40
-0.6
 41
-30.0
 62
     5
 63
     7
 74
     1
 91
        0
 64
     7
 65
   257
 75
     1
175
     1
 42
1.0
 92
        8
 66
     8
 43
1.0
 76
     1
 77
     6
 78
     2
 67
     7
 79
     5
170
     0
171
     0
290
     0
174
     0
 93
       13
 44
0.0
173
     0
291
     0
 45
0.0
1001
ACAD
1000
AcDbSavedByObjectVersion
1070
     0
  0
VISUALSTYLE
  5
37
102
{ACAD_REACTORS
330
2A
102
}
102
{ACAD_XDICTIONARY
360
9FD
102
}
330
2A
100
AcDbVisualStyle
  2
Thicken
 70
    13
 71
     2
 72
     2
 73
     0
 90
        0
 40
-0.6
 41
-30.0
 62
     5
 63
     7
 74
     1
 91
        4
 64
     7
 65
   257
 75
     1
175
     1
 42
1.0
 92
       12
 66
     7
 43
1.0
 76
     1
 77
     6
 78
     2
 67
     7
 79
     5
170
     0
171
     0
290
     0
174
     0
 93
        1
 44
0.0
173
     0
291
     1
 45
0.0
1001
ACAD
1000
AcDbSavedByObjectVersion
1070
     0
  0
DICTIONARYVAR
  5
9E2
102
{ACAD_REACTORS
330
9DD
102
}
330
9DD
100
DictionaryVariables
280
     0
  1
1:1
  0
DICTIONARYVAR
  5
9E3
102
{ACAD_REACTORS
330
9DD
102
}
330
9DD
100
DictionaryVariables
280
     0
  1
2
  0
DICTIONARYVAR
  5
9E4
102
{ACAD_REACTORS
330
9DD
102
}
330
9DD
100
DictionaryVariables
280
     0
  1
1
  0
DICTIONARYVAR
  5
9E1
102
{ACAD_REACTORS
330
9DD
102
}
330
9DD
100
DictionaryVariables
280
     0
  1
80.000000
  0
DICTIONARYVAR
  5
9E0
102
{ACAD_REACTORS
330
9DD
102
}
330
9DD
100
DictionaryVariables
280
     0
  1
5.000000
  0
DICTIONARY
  5
A07
330
3D
100
AcDbDictionary
280
     1
281
     1
  3
ACAD_XREC_ROUNDTRIP
360
A08
  0
DICTIONARY
  5
A05
330
3C
100
AcDbDictionary
280
     1
281
     1
  3
ACAD_XREC_ROUNDTRIP
360
A06
  0
DICTIONARY
  5
A09
330
3E
100
AcDbDictionary
280
     1
281
     1
  3
ACAD_XREC_ROUNDTRIP
360
A0A
  0
DICTIONARY
  5
9ED
330
2F
100
AcDbDictionary
280
     1
281
     1
  3
ACAD_XREC_ROUNDTRIP
360
9EE
  0
DICTIONARY
  5
9F1
330
31
100
AcDbDictionary
280
     1
281
     1
  3
ACAD_XREC_ROUNDTRIP
360
9F2
  0
DICTIONARY
  5
9EF
330
30
100
AcDbDictionary
280
     1
281
     1
  3
ACAD_XREC_ROUNDTRIP
360
9F0
  0
DICTIONARY
  5
9F3
330
32
100
AcDbDictionary
280
     1
281
     1
  3
ACAD_XREC_ROUNDTRIP
360
9F4
  0
DICTIONARY
  5
9FB
330
36
100
AcDbDictionary
280
     1
281
     1
  3
ACAD_XREC_ROUNDTRIP
360
9FC
  0
DICTIONARY
  5
A03
330
3A
100
AcDbDictionary
280
     1
281
     1
  3
ACAD_XREC_ROUNDTRIP
360
A04
  0
DICTIONARY
  5
9F7
330
34
100
AcDbDictionary
280
     1
281
     1
  3
ACAD_XREC_ROUNDTRIP
360
9F8
  0
DICTIONARY
  5
9F9
330
35
100
AcDbDictionary
280
     1
281
     1
  3
ACAD_XREC_ROUNDTRIP
360
9FA
  0
DICTIONARY
  5
A01
330
39
100
AcDbDictionary
280
     1
281
     1
  3
ACAD_XREC_ROUNDTRIP
360
A02
  0
DICTIONARY
  5
9E5
330
2B
100
AcDbDictionary
280
     1
281
     1
  3
ACAD_XREC_ROUNDTRIP
360
9E6
  0
DICTIONARY
  5
9E7
330
2C
100
AcDbDictionary
280
     1
281
     1
  3
ACAD_XREC_ROUNDTRIP
360
9E8
  0
DICTIONARY
  5
9E9
330
2D
100
AcDbDictionary
280
     1
281
     1
  3
ACAD_XREC_ROUNDTRIP
360
9EA
  0
DICTIONARY
  5
9EB
330
2E
100
AcDbDictionary
280
     1
281
     1
  3
ACAD_XREC_ROUNDTRIP
360
9EC
  0
DICTIONARY
  5
9FF
330
38
100
AcDbDictionary
280
     1
281
     1
  3
ACAD_XREC_ROUNDTRIP
360
A00
  0
DICTIONARY
  5
9F5
330
33
100
AcDbDictionary
280
     1
281
     1
  3
ACAD_XREC_ROUNDTRIP
360
9F6
  0
DICTIONARY
  5
9FD
330
37
100
AcDbDictionary
280
     1
281
     1
  3
ACAD_XREC_ROUNDTRIP
360
9FE
  0
XRECORD
  5
A08
102
{ACAD_REACTORS
330
A07
102
}
330
A07
100
AcDbXrecord
280
     1
102
MATERIAL
148
0.0
149
0.0
149
0.0
 93
        0
 94
      127
282
     0
 72
     1
 77
     1
171
     1
175
     1
179
     1
273
     0
  0
XRECORD
  5
A06
102
{ACAD_REACTORS
330
A05
102
}
330
A05
100
AcDbXrecord
280
     1
102
MATERIAL
148
0.0
149
0.0
149
0.0
 93
        0
 94
      127
282
     0
 72
     1
 77
     1
171
     1
175
     1
179
     1
273
     0
  0
XRECORD
  5
A0A
102
{ACAD_REACTORS
330
A09
102
}
330
A09
100
AcDbXrecord
280
     1
102
MATERIAL
148
0.0
149
0.0
149
0.0
 93
        0
 94
      127
282
     0
 72
     1
 77
     1
171
     1
175
     1
179
     1
273
     0
  0
XRECORD
  5
9EE
102
{ACAD_REACTORS
330
9ED
102
}
330
9ED
100
AcDbXrecord
280
     1
102
RTVSPropertyOp0
 70
     1
102
RTVSPropertyOp1
 70
     1
102
RTVSPropertyOp2
 70
     1
102
RTVSPropertyOp3
 70
     1
102
RTVSPropertyOp4
 70
     1
102
RTVSPropertyOp5
 70
     1
102
RTVSPropertyOp6
 70
     1
102
RTVSPropertyOp7
 70
     1
102
RTVSPropertyOp8
 70
     1
102
RTVSPropertyOp9
 70
     1
102
RTVSPropertyOp10
 70
     1
102
RTVSPropertyOp11
 70
     1
102
RTVSPropertyOp12
 70
     1
102
RTVSPropertyOp13
 70
     1
102
RTVSPropertyOp14
 70
     1
102
RTVSPropertyOp15
 70
     1
102
RTVSPropertyOp16
 70
     1
102
RTVSPropertyOp17
 70
     1
102
RTVSPropertyOp18
 70
     1
102
RTVSPropertyOp19
 70
     1
102
RTVSPropertyOp20
 70
     1
102
RTVSPropertyOp21
 70
     1
102
RTVSPropertyOp22
 70
     1
102
RTVSPropertyOp23
 70
     1
102
RTVSPropertyOp24
 70
     1
102
RTVSPropertyOp25
 70
     1
102
RTVSPropertyOp26
 70
     1
102
RTVSPropertyOp27
 70
     1
  0
XRECORD
  5
9F2
102
{ACAD_REACTORS
330
9F1
102
}
330
9F1
100
AcDbXrecord
280
     1
102
RTVSPropertyOp0
 70
     1
102
RTVSPropertyOp1
 70
     1
102
RTVSPropertyOp2
 70
     1
102
RTVSPropertyOp3
 70
     1
102
RTVSPropertyOp4
 70
     1
102
RTVSPropertyOp5
 70
     1
102
RTVSPropertyOp6
 70
     1
102
RTVSPropertyOp7
 70
     1
102
RTVSPropertyOp8
 70
     1
102
RTVSPropertyOp9
 70
     1
102
RTVSPropertyOp10
 70
     1
102
RTVSPropertyOp11
 70
     1
102
RTVSPropertyOp12
 70
     1
102
RTVSPropertyOp13
 70
     1
102
RTVSPropertyOp14
 70
     1
102
RTVSPropertyOp15
 70
     1
102
RTVSPropertyOp16
 70
     1
102
RTVSPropertyOp17
 70
     1
102
RTVSPropertyOp18
 70
     1
102
RTVSPropertyOp19
 70
     1
102
RTVSPropertyOp20
 70
     1
102
RTVSPropertyOp21
 70
     1
102
RTVSPropertyOp22
 70
     1
102
RTVSPropertyOp23
 70
     1
102
RTVSPropertyOp24
 70
     1
102
RTVSPropertyOp25
 70
     1
102
RTVSPropertyOp26
 70
     1
102
RTVSPropertyOp27
 70
     1
  0
XRECORD
  5
9F0
102
{ACAD_REACTORS
330
9EF
102
}
330
9EF
100
AcDbXrecord
280
     1
102
RTVSPropertyOp0
 70
     1
102
RTVSPropertyOp1
 70
     1
102
RTVSPropertyOp2
 70
     1
102
RTVSPropertyOp3
 70
     1
102
RTVSPropertyOp4
 70
     1
102
RTVSPropertyOp5
 70
     1
102
RTVSPropertyOp6
 70
     1
102
RTVSPropertyOp7
 70
     1
102
RTVSPropertyOp8
 70
     1
102
RTVSPropertyOp9
 70
     1
102
RTVSPropertyOp10
 70
     1
102
RTVSPropertyOp11
 70
     1
102
RTVSPropertyOp12
 70
     1
102
RTVSPropertyOp13
 70
     1
102
RTVSPropertyOp14
 70
     1
102
RTVSPropertyOp15
 70
     1
102
RTVSPropertyOp16
 70
     1
102
RTVSPropertyOp17
 70
     1
102
RTVSPropertyOp18
 70
     1
102
RTVSPropertyOp19
 70
     1
102
RTVSPropertyOp20
 70
     1
102
RTVSPropertyOp21
 70
     1
102
RTVSPropertyOp22
 70
     1
102
RTVSPropertyOp23
 70
     1
102
RTVSPropertyOp24
 70
     1
102
RTVSPropertyOp25
 70
     1
102
RTVSPropertyOp26
 70
     1
102
RTVSPropertyOp27
 70
     1
  0
XRECORD
  5
9F4
102
{ACAD_REACTORS
330
9F3
102
}
330
9F3
100
AcDbXrecord
280
     1
102
RTVSPropertyOp0
 70
     1
102
RTVSPropertyOp1
 70
     1
102
RTVSPropertyOp2
 70
     1
102
RTVSPropertyOp3
 70
     1
102
RTVSPropertyOp4
 70
     1
102
RTVSPropertyOp5
 70
     1
102
RTVSPropertyOp6
 70
     1
102
RTVSPropertyOp7
 70
     1
102
RTVSPropertyOp8
 70
     1
102
RTVSPropertyOp9
 70
     1
102
RTVSPropertyOp10
 70
     1
102
RTVSPropertyOp11
 70
     1
102
RTVSPropertyOp12
 70
     1
102
RTVSPropertyOp13
 70
     1
102
RTVSPropertyOp14
 70
     1
102
RTVSPropertyOp15
 70
     1
102
RTVSPropertyOp16
 70
     1
102
RTVSPropertyOp17
 70
     1
102
RTVSPropertyOp18
 70
     1
102
RTVSPropertyOp19
 70
     1
102
RTVSPropertyOp20
 70
     1
102
RTVSPropertyOp21
 70
     1
102
RTVSPropertyOp22
 70
     1
102
RTVSPropertyOp23
 70
     1
102
RTVSPropertyOp24
 70
     1
102
RTVSPropertyOp25
 70
     1
102
RTVSPropertyOp26
 70
     1
102
RTVSPropertyOp27
 70
     1
  0
XRECORD
  5
9FC
102
{ACAD_REACTORS
330
9FB
102
}
330
9FB
100
AcDbXrecord
280
     1
102
RTVSPropertyOp0
 70
     1
102
RTVSPropertyOp1
 70
     1
102
RTVSPropertyOp2
 70
     1
102
RTVSPropertyOp3
 70
     1
102
RTVSPropertyOp4
 70
     1
102
RTVSPropertyOp5
 70
     1
102
RTVSPropertyOp6
 70
     1
102
RTVSPropertyOp7
 70
     1
102
RTVSPropertyOp8
 70
     1
102
RTVSPropertyOp9
 70
     1
102
RTVSPropertyOp10
 70
     1
102
RTVSPropertyOp11
 70
     1
102
RTVSPropertyOp12
 70
     1
102
RTVSPropertyOp13
 70
     1
102
RTVSPropertyOp14
 70
     1
102
RTVSPropertyOp15
 70
     1
102
RTVSPropertyOp16
 70
     1
102
RTVSPropertyOp17
 70
     1
102
RTVSPropertyOp18
 70
     1
102
RTVSPropertyOp19
 70
     1
102
RTVSPropertyOp20
 70
     1
102
RTVSPropertyOp21
 70
     1
102
RTVSPropertyOp22
 70
     1
102
RTVSPropertyOp23
 70
     1
102
RTVSPropertyOp24
 70
     1
102
RTVSPropertyOp25
 70
     1
102
RTVSPropertyOp26
 70
     1
102
RTVSPropertyOp27
 70
     1
  0
XRECORD
  5
A04
102
{ACAD_REACTORS
330
A03
102
}
330
A03
100
AcDbXrecord
280
     1
102
RTVSPropertyOp0
 70
     1
102
RTVSPropertyOp1
 70
     1
102
RTVSPropertyOp2
 70
     1
102
RTVSPropertyOp3
 70
     1
102
RTVSPropertyOp4
 70
     1
102
RTVSPropertyOp5
 70
     1
102
RTVSPropertyOp6
 70
     1
102
RTVSPropertyOp7
 70
     1
102
RTVSPropertyOp8
 70
     1
102
RTVSPropertyOp9
 70
     1
102
RTVSPropertyOp10
 70
     1
102
RTVSPropertyOp11
 70
     1
102
RTVSPropertyOp12
 70
     1
102
RTVSPropertyOp13
 70
     1
102
RTVSPropertyOp14
 70
     1
102
RTVSPropertyOp15
 70
     1
102
RTVSPropertyOp16
 70
     1
102
RTVSPropertyOp17
 70
     1
102
RTVSPropertyOp18
 70
     1
102
RTVSPropertyOp19
 70
     1
102
RTVSPropertyOp20
 70
     1
102
RTVSPropertyOp21
 70
     1
102
RTVSPropertyOp22
 70
     1
102
RTVSPropertyOp23
 70
     1
102
RTVSPropertyOp24
 70
     1
102
RTVSPropertyOp25
 70
     1
102
RTVSPropertyOp26
 70
     1
102
RTVSPropertyOp27
 70
     1
  0
XRECORD
  5
9F8
102
{ACAD_REACTORS
330
9F7
102
}
330
9F7
100
AcDbXrecord
280
     1
102
RTVSPropertyOp0
 70
     1
102
RTVSPropertyOp1
 70
     1
102
RTVSPropertyOp2
 70
     1
102
RTVSPropertyOp3
 70
     1
102
RTVSPropertyOp4
 70
     1
102
RTVSPropertyOp5
 70
     1
102
RTVSPropertyOp6
 70
     1
102
RTVSPropertyOp7
 70
     1
102
RTVSPropertyOp8
 70
     1
102
RTVSPropertyOp9
 70
     1
102
RTVSPropertyOp10
 70
     1
102
RTVSPropertyOp11
 70
     1
102
RTVSPropertyOp12
 70
     1
102
RTVSPropertyOp13
 70
     1
102
RTVSPropertyOp14
 70
     1
102
RTVSPropertyOp15
 70
     1
102
RTVSPropertyOp16
 70
     1
102
RTVSPropertyOp17
 70
     1
102
RTVSPropertyOp18
 70
     1
102
RTVSPropertyOp19
 70
     1
102
RTVSPropertyOp20
 70
     1
102
RTVSPropertyOp21
 70
     1
102
RTVSPropertyOp22
 70
     1
102
RTVSPropertyOp23
 70
     1
102
RTVSPropertyOp24
 70
     1
102
RTVSPropertyOp25
 70
     1
102
RTVSPropertyOp26
 70
     1
102
RTVSPropertyOp27
 70
     1
  0
XRECORD
  5
9FA
102
{ACAD_REACTORS
330
9F9
102
}
330
9F9
100
AcDbXrecord
280
     1
102
RTVSPropertyOp0
 70
     1
102
RTVSPropertyOp1
 70
     1
102
RTVSPropertyOp2
 70
     1
102
RTVSPropertyOp3
 70
     1
102
RTVSPropertyOp4
 70
     1
102
RTVSPropertyOp5
 70
     1
102
RTVSPropertyOp6
 70
     1
102
RTVSPropertyOp7
 70
     1
102
RTVSPropertyOp8
 70
     1
102
RTVSPropertyOp9
 70
     1
102
RTVSPropertyOp10
 70
     1
102
RTVSPropertyOp11
 70
     1
102
RTVSPropertyOp12
 70
     1
102
RTVSPropertyOp13
 70
     1
102
RTVSPropertyOp14
 70
     1
102
RTVSPropertyOp15
 70
     1
102
RTVSPropertyOp16
 70
     1
102
RTVSPropertyOp17
 70
     1
102
RTVSPropertyOp18
 70
     1
102
RTVSPropertyOp19
 70
     1
102
RTVSPropertyOp20
 70
     1
102
RTVSPropertyOp21
 70
     1
102
RTVSPropertyOp22
 70
     1
102
RTVSPropertyOp23
 70
     1
102
RTVSPropertyOp24
 70
     1
102
RTVSPropertyOp25
 70
     1
102
RTVSPropertyOp26
 70
     1
102
RTVSPropertyOp27
 70
     1
  0
XRECORD
  5
A02
102
{ACAD_REACTORS
330
A01
102
}
330
A01
100
AcDbXrecord
280
     1
102
RTVSPropertyOp0
 70
     1
102
RTVSPropertyOp1
 70
     1
102
RTVSPropertyOp2
 70
     1
102
RTVSPropertyOp3
 70
     1
102
RTVSPropertyOp4
 70
     1
102
RTVSPropertyOp5
 70
     1
102
RTVSPropertyOp6
 70
     1
102
RTVSPropertyOp7
 70
     1
102
RTVSPropertyOp8
 70
     1
102
RTVSPropertyOp9
 70
     1
102
RTVSPropertyOp10
 70
     1
102
RTVSPropertyOp11
 70
     1
102
RTVSPropertyOp12
 70
     1
102
RTVSPropertyOp13
 70
     1
102
RTVSPropertyOp14
 70
     1
102
RTVSPropertyOp15
 70
     1
102
RTVSPropertyOp16
 70
     1
102
RTVSPropertyOp17
 70
     1
102
RTVSPropertyOp18
 70
     1
102
RTVSPropertyOp19
 70
     1
102
RTVSPropertyOp20
 70
     1
102
RTVSPropertyOp21
 70
     1
102
RTVSPropertyOp22
 70
     1
102
RTVSPropertyOp23
 70
     1
102
RTVSPropertyOp24
 70
     1
102
RTVSPropertyOp25
 70
     1
102
RTVSPropertyOp26
 70
     1
102
RTVSPropertyOp27
 70
     1
  0
XRECORD
  5
9E6
102
{ACAD_REACTORS
330
9E5
102
}
330
9E5
100
AcDbXrecord
280
     1
102
RTVSPropertyOp0
 70
     1
102
RTVSPropertyOp1
 70
     1
102
RTVSPropertyOp2
 70
     1
102
RTVSPropertyOp3
 70
     1
102
RTVSPropertyOp4
 70
     1
102
RTVSPropertyOp5
 70
     1
102
RTVSPropertyOp6
 70
     1
102
RTVSPropertyOp7
 70
     1
102
RTVSPropertyOp8
 70
     1
102
RTVSPropertyOp9
 70
     1
102
RTVSPropertyOp10
 70
     1
102
RTVSPropertyOp11
 70
     1
102
RTVSPropertyOp12
 70
     1
102
RTVSPropertyOp13
 70
     1
102
RTVSPropertyOp14
 70
     1
102
RTVSPropertyOp15
 70
     1
102
RTVSPropertyOp16
 70
     1
102
RTVSPropertyOp17
 70
     1
102
RTVSPropertyOp18
 70
     1
102
RTVSPropertyOp19
 70
     1
102
RTVSPropertyOp20
 70
     1
102
RTVSPropertyOp21
 70
     1
102
RTVSPropertyOp22
 70
     1
102
RTVSPropertyOp23
 70
     1
102
RTVSPropertyOp24
 70
     1
102
RTVSPropertyOp25
 70
     1
102
RTVSPropertyOp26
 70
     1
102
RTVSPropertyOp27
 70
     1
  0
XRECORD
  5
9E8
102
{ACAD_REACTORS
330
9E7
102
}
330
9E7
100
AcDbXrecord
280
     1
102
RTVSPropertyOp0
 70
     1
102
RTVSPropertyOp1
 70
     1
102
RTVSPropertyOp2
 70
     1
102
RTVSPropertyOp3
 70
     1
102
RTVSPropertyOp4
 70
     1
102
RTVSPropertyOp5
 70
     1
102
RTVSPropertyOp6
 70
     1
102
RTVSPropertyOp7
 70
     1
102
RTVSPropertyOp8
 70
     1
102
RTVSPropertyOp9
 70
     1
102
RTVSPropertyOp10
 70
     1
102
RTVSPropertyOp11
 70
     1
102
RTVSPropertyOp12
 70
     1
102
RTVSPropertyOp13
 70
     1
102
RTVSPropertyOp14
 70
     1
102
RTVSPropertyOp15
 70
     1
102
RTVSPropertyOp16
 70
     1
102
RTVSPropertyOp17
 70
     1
102
RTVSPropertyOp18
 70
     1
102
RTVSPropertyOp19
 70
     1
102
RTVSPropertyOp20
 70
     1
102
RTVSPropertyOp21
 70
     1
102
RTVSPropertyOp22
 70
     1
102
RTVSPropertyOp23
 70
     1
102
RTVSPropertyOp24
 70
     1
102
RTVSPropertyOp25
 70
     1
102
RTVSPropertyOp26
 70
     1
102
RTVSPropertyOp27
 70
     1
  0
XRECORD
  5
9EA
102
{ACAD_REACTORS
330
9E9
102
}
330
9E9
100
AcDbXrecord
280
     1
102
RTVSPropertyOp0
 70
     1
102
RTVSPropertyOp1
 70
     1
102
RTVSPropertyOp2
 70
     1
102
RTVSPropertyOp3
 70
     1
102
RTVSPropertyOp4
 70
     1
102
RTVSPropertyOp5
 70
     1
102
RTVSPropertyOp6
 70
     1
102
RTVSPropertyOp7
 70
     1
102
RTVSPropertyOp8
 70
     1
102
RTVSPropertyOp9
 70
     1
102
RTVSPropertyOp10
 70
     1
102
RTVSPropertyOp11
 70
     1
102
RTVSPropertyOp12
 70
     1
102
RTVSPropertyOp13
 70
     1
102
RTVSPropertyOp14
 70
     1
102
RTVSPropertyOp15
 70
     1
102
RTVSPropertyOp16
 70
     1
102
RTVSPropertyOp17
 70
     1
102
RTVSPropertyOp18
 70
     1
102
RTVSPropertyOp19
 70
     1
102
RTVSPropertyOp20
 70
     1
102
RTVSPropertyOp21
 70
     1
102
RTVSPropertyOp22
 70
     1
102
RTVSPropertyOp23
 70
     1
102
RTVSPropertyOp24
 70
     1
102
RTVSPropertyOp25
 70
     1
102
RTVSPropertyOp26
 70
     1
102
RTVSPropertyOp27
 70
     1
  0
XRECORD
  5
9EC
102
{ACAD_REACTORS
330
9EB
102
}
330
9EB
100
AcDbXrecord
280
     1
102
RTVSPropertyOp0
 70
     1
102
RTVSPropertyOp1
 70
     1
102
RTVSPropertyOp2
 70
     1
102
RTVSPropertyOp3
 70
     1
102
RTVSPropertyOp4
 70
     1
102
RTVSPropertyOp5
 70
     1
102
RTVSPropertyOp6
 70
     1
102
RTVSPropertyOp7
 70
     1
102
RTVSPropertyOp8
 70
     1
102
RTVSPropertyOp9
 70
     1
102
RTVSPropertyOp10
 70
     1
102
RTVSPropertyOp11
 70
     1
102
RTVSPropertyOp12
 70
     1
102
RTVSPropertyOp13
 70
     1
102
RTVSPropertyOp14
 70
     1
102
RTVSPropertyOp15
 70
     1
102
RTVSPropertyOp16
 70
     1
102
RTVSPropertyOp17
 70
     1
102
RTVSPropertyOp18
 70
     1
102
RTVSPropertyOp19
 70
     1
102
RTVSPropertyOp20
 70
     1
102
RTVSPropertyOp21
 70
     1
102
RTVSPropertyOp22
 70
     1
102
RTVSPropertyOp23
 70
     1
102
RTVSPropertyOp24
 70
     1
102
RTVSPropertyOp25
 70
     1
102
RTVSPropertyOp26
 70
     1
102
RTVSPropertyOp27
 70
     1
  0
XRECORD
  5
A00
102
{ACAD_REACTORS
330
9FF
102
}
330
9FF
100
AcDbXrecord
280
     1
102
RTVSPropertyOp0
 70
     1
102
RTVSPropertyOp1
 70
     1
102
RTVSPropertyOp2
 70
     1
102
RTVSPropertyOp3
 70
     1
102
RTVSPropertyOp4
 70
     1
102
RTVSPropertyOp5
 70
     1
102
RTVSPropertyOp6
 70
     1
102
RTVSPropertyOp7
 70
     1
102
RTVSPropertyOp8
 70
     1
102
RTVSPropertyOp9
 70
     1
102
RTVSPropertyOp10
 70
     1
102
RTVSPropertyOp11
 70
     1
102
RTVSPropertyOp12
 70
     1
102
RTVSPropertyOp13
 70
     1
102
RTVSPropertyOp14
 70
     1
102
RTVSPropertyOp15
 70
     1
102
RTVSPropertyOp16
 70
     1
102
RTVSPropertyOp17
 70
     1
102
RTVSPropertyOp18
 70
     1
102
RTVSPropertyOp19
 70
     1
102
RTVSPropertyOp20
 70
     1
102
RTVSPropertyOp21
 70
     1
102
RTVSPropertyOp22
 70
     1
102
RTVSPropertyOp23
 70
     1
102
RTVSPropertyOp24
 70
     1
102
RTVSPropertyOp25
 70
     1
102
RTVSPropertyOp26
 70
     1
102
RTVSPropertyOp27
 70
     1
  0
XRECORD
  5
9F6
102
{ACAD_REACTORS
330
9F5
102
}
330
9F5
100
AcDbXrecord
280
     1
102
RTVSPropertyOp0
 70
     1
102
RTVSPropertyOp1
 70
     1
102
RTVSPropertyOp2
 70
     1
102
RTVSPropertyOp3
 70
     1
102
RTVSPropertyOp4
 70
     1
102
RTVSPropertyOp5
 70
     1
102
RTVSPropertyOp6
 70
     1
102
RTVSPropertyOp7
 70
     1
102
RTVSPropertyOp8
 70
     1
102
RTVSPropertyOp9
 70
     1
102
RTVSPropertyOp10
 70
     1
102
RTVSPropertyOp11
 70
     1
102
RTVSPropertyOp12
 70
     1
102
RTVSPropertyOp13
 70
     1
102
RTVSPropertyOp14
 70
     1
102
RTVSPropertyOp15
 70
     1
102
RTVSPropertyOp16
 70
     1
102
RTVSPropertyOp17
 70
     1
102
RTVSPropertyOp18
 70
     1
102
RTVSPropertyOp19
 70
     1
102
RTVSPropertyOp20
 70
     1
102
RTVSPropertyOp21
 70
     1
102
RTVSPropertyOp22
 70
     1
102
RTVSPropertyOp23
 70
     1
102
RTVSPropertyOp24
 70
     1
102
RTVSPropertyOp25
 70
     1
102
RTVSPropertyOp26
 70
     1
102
RTVSPropertyOp27
 70
     1
  0
XRECORD
  5
9FE
102
{ACAD_REACTORS
330
9FD
102
}
330
9FD
100
AcDbXrecord
280
     1
102
RTVSPropertyOp0
 70
     1
102
RTVSPropertyOp1
 70
     1
102
RTVSPropertyOp2
 70
     1
102
RTVSPropertyOp3
 70
     1
102
RTVSPropertyOp4
 70
     1
102
RTVSPropertyOp5
 70
     1
102
RTVSPropertyOp6
 70
     1
102
RTVSPropertyOp7
 70
     1
102
RTVSPropertyOp8
 70
     1
102
RTVSPropertyOp9
 70
     1
102
RTVSPropertyOp10
 70
     1
102
RTVSPropertyOp11
 70
     1
102
RTVSPropertyOp12
 70
     1
102
RTVSPropertyOp13
 70
     1
102
RTVSPropertyOp14
 70
     1
102
RTVSPropertyOp15
 70
     1
102
RTVSPropertyOp16
 70
     1
102
RTVSPropertyOp17
 70
     1
102
RTVSPropertyOp18
 70
     1
102
RTVSPropertyOp19
 70
     1
102
RTVSPropertyOp20
 70
     1
102
RTVSPropertyOp21
 70
     1
102
RTVSPropertyOp22
 70
     1
102
RTVSPropertyOp23
 70
     1
102
RTVSPropertyOp24
 70
     1
102
RTVSPropertyOp25
 70
     1
102
RTVSPropertyOp26
 70
     1
102
RTVSPropertyOp27
 70
     1
  0
ENDSEC
  0
EOF
