  0
SECTION
  2
HEADER
  9
$ACADVER
  1
AC1015
  9
$ACADMAINTVER
 70
     6
  9
$DWGCODEPAGE
  3
ANSI_1252
  9
$INSBASE
 10
0.0
 20
0.0
 30
0.0
  9
$EXTMIN
 10
0.0
 20
0.0
 30
0.0
  9
$EXTMAX
 10
25.0
 20
35.0
 30
0.0
  9
$LIMMIN
 10
0.0
 20
0.0
  9
$LIMMAX
 10
420.0
 20
297.0
  9
$ORTHOMODE
 70
     0
  9
$REGENMODE
 70
     1
  9
$FILLMODE
 70
     1
  9
$QTEXTMODE
 70
     0
  9
$MIRRTEXT
 70
     1
  9
$LTSCALE
 40
4.05
  9
$ATTMODE
 70
     1
  9
$TEXTSIZE
 40
2.5
  9
$TRACEWID
 40
1.0
  9
$TEXTSTYLE
  7
Standard
  9
$CLAYER
  8
0
  9
$CELTYPE
  6
ByLayer
  9
$CECOLOR
 62
   256
  9
$CELTSCALE
 40
1.0
  9
$DISPSILH
 70
     0
  9
$DIMSCALE
 40
1.0
  9
$DIMASZ
 40
2.5
  9
$DIMEXO
 40
0.625
  9
$DIMDLI
 40
3.75
  9
$DIMRND
 40
0.0
  9
$DIMDLE
 40
0.0
  9
$DIMEXE
 40
1.25
  9
$DIMTP
 40
0.0
  9
$DIMTM
 40
0.0
  9
$DIMTXT
 40
2.5
  9
$DIMCEN
 40
2.5
  9
$DIMTSZ
 40
0.0
  9
$DIMTOL
 70
     0
  9
$DIMLIM
 70
     0
  9
$DIMTIH
 70
     0
  9
$DIMTOH
 70
     0
  9
$DIMSE1
 70
     0
  9
$DIMSE2
 70
     0
  9
$DIMTAD
 70
     1
  9
$DIMZIN
 70
     8
  9
$DIMBLK
  1

  9
$DIMASO
 70
     1
  9
$DIMSHO
 70
     1
  9
$DIMPOST
  1

  9
$DIMAPOST
  1

  9
$DIMALT
 70
     0
  9
$DIMALTD
 70
     3
  9
$DIMALTF
 40
0.03937007874016
  9
$DIMLFAC
 40
1.0
  9
$DIMTOFL
 70
     1
  9
$DIMTVP
 40
0.0
  9
$DIMTIX
 70
     0
  9
$DIMSOXD
 70
     0
  9
$DIMSAH
 70
     0
  9
$DIMBLK1
  1

  9
$DIMBLK2
  1

  9
$DIMSTYLE
  2
ISO-25
  9
$DIMCLRD
 70
     0
  9
$DIMCLRE
 70
     0
  9
$DIMCLRT
 70
     0
  9
$DIMTFAC
 40
1.0
  9
$DIMGAP
 40
0.625
  9
$DIMJUST
 70
     0
  9
$DIMSD1
 70
     0
  9
$DIMSD2
 70
     0
  9
$DIMTOLJ
 70
     0
  9
$DIMTZIN
 70
     8
  9
$DIMALTZ
 70
     0
  9
$DIMALTTZ
 70
     0
  9
$DIMUPT
 70
     0
  9
$DIMDEC
 70
     2
  9
$DIMTDEC
 70
     2
  9
$DIMALTU
 70
     2
  9
$DIMALTTD
 70
     3
  9
$DIMTXSTY
  7
Standard
  9
$DIMAUNIT
 70
     0
  9
$DIMADEC
 70
     0
  9
$DIMALTRND
 40
0.0
  9
$DIMAZIN
 70
     0
  9
$DIMDSEP
 70
    44
  9
$DIMATFIT
 70
     3
  9
$DIMFRAC
 70
     0
  9
$DIMLDRBLK
  1

  9
$DIMLUNIT
 70
     2
  9
$DIMLWD
 70
    -2
  9
$DIMLWE
 70
    -2
  9
$DIMTMOVE
 70
     0
  9
$LUNITS
 70
     2
  9
$LUPREC
 70
     4
  9
$SKETCHINC
 40
1.0
  9
$FILLETRAD
 40
10.0
  9
$AUNITS
 70
     0
  9
$AUPREC
 70
     0
  9
$MENU
  1
.
  9
$ELEVATION
 40
0.0
  9
$PELEVATION
 40
0.0
  9
$THICKNESS
 40
0.0
  9
$LIMCHECK
 70
     0
  9
$CHAMFERA
 40
10.0
  9
$CHAMFERB
 40
10.0
  9
$CHAMFERC
 40
20.0
  9
$CHAMFERD
 40
0.0
  9
$SKPOLY
 70
     0
  9
$TDCREATE
 40
2458577.041666667
  9
$TDUCREATE
 40
2458576.958333333
  9
$TDUPDATE
 40
2458577.045138889
  9
$TDUUPDATE
 40
2458576.961805556
  9
$TDINDWG
 40
0.0000000116
  9
$TDUSRTIMER
 40
0.0000000116
  9
$USRTIMER
 70
     1
  9
$ANGBASE
 50
0.0
  9
$ANGDIR
 70
     0
  9
$PDMODE
 70
     0
  9
$PDSIZE
 40
0.0
  9
$PLINEWID
 40
0.0
  9
$SPLFRAME
 70
     0
  9
$SPLINETYPE
 70
     6
  9
$SPLINESEGS
 70
     8
  9
$HANDSEED
  5
933
  9
$SURFTAB1
 70
     6
  9
$SURFTAB2
 70
     6
  9
$SURFTYPE
 70
     6
  9
$SURFU
 70
     6
  9
$SURFV
 70
     6
  9
$UCSBASE
  2

  9
$UCSNAME
  2

  9
$UCSORG
 10
0.0
 20
0.0
 30
0.0
  9
$UCSXDIR
 10
1.0
 20
0.0
 30
0.0
  9
$UCSYDIR
 10
0.0
 20
1.0
 30
0.0
  9
$UCSORTHOREF
  2

  9
$UCSORTHOVIEW
 70
     0
  9
$UCSORGTOP
 10
0.0
 20
0.0
 30
0.0
  9
$UCSORGBOTTOM
 10
0.0
 20
0.0
 30
0.0
  9
$UCSORGLEFT
 10
0.0
 20
0.0
 30
0.0
  9
$UCSORGRIGHT
 10
0.0
 20
0.0
 30
0.0
  9
$UCSORGFRONT
 10
0.0
 20
0.0
 30
0.0
  9
$UCSORGBACK
 10
0.0
 20
0.0
 30
0.0
  9
$PUCSBASE
  2

  9
$PUCSNAME
  2

  9
$PUCSORG
 10
0.0
 20
0.0
 30
0.0
  9
$PUCSXDIR
 10
1.0
 20
0.0
 30
0.0
  9
$PUCSYDIR
 10
0.0
 20
1.0
 30
0.0
  9
$PUCSORTHOREF
  2

  9
$PUCSORTHOVIEW
 70
     0
  9
$PUCSORGTOP
 10
0.0
 20
0.0
 30
0.0
  9
$PUCSORGBOTTOM
 10
0.0
 20
0.0
 30
0.0
  9
$PUCSORGLEFT
 10
0.0
 20
0.0
 30
0.0
  9
$PUCSORGRIGHT
 10
0.0
 20
0.0
 30
0.0
  9
$PUCSORGFRONT
 10
0.0
 20
0.0
 30
0.0
  9
$PUCSORGBACK
 10
0.0
 20
0.0
 30
0.0
  9
$USERI1
 70
     0
  9
$USERI2
 70
     0
  9
$USERI3
 70
     0
  9
$USERI4
 70
     0
  9
$USERI5
 70
     0
  9
$USERR1
 40
0.0
  9
$USERR2
 40
0.0
  9
$USERR3
 40
0.0
  9
$USERR4
 40
0.0
  9
$USERR5
 40
0.0
  9
$WORLDVIEW
 70
     1
  9
$SHADEDGE
 70
     3
  9
$SHADEDIF
 70
    70
  9
$TILEMODE
 70
     1
  9
$MAXACTVP
 70
    64
  9
$PINSBASE
 10
0.0
 20
0.0
 30
0.0
  9
$PLIMCHECK
 70
     0
  9
$PEXTMIN
 10
1.000000000000000E+20
 20
1.000000000000000E+20
 30
1.000000000000000E+20
  9
$PEXTMAX
 10
-1.000000000000000E+20
 20
-1.000000000000000E+20
 30
-1.000000000000000E+20
  9
$PLIMMIN
 10
0.0
 20
0.0
  9
$PLIMMAX
 10
420.0
 20
297.0
  9
$UNITMODE
 70
     0
  9
$VISRETAIN
 70
     1
  9
$PLINEGEN
 70
     0
  9
$PSLTSCALE
 70
     1
  9
$TREEDEPTH
 70
  3020
  9
$CMLSTYLE
  2
Standard
  9
$CMLJUST
 70
     0
  9
$CMLSCALE
 40
20.0
  9
$PROXYGRAPHICS
 70
     1
  9
$MEASUREMENT
 70
     1
  9
$CELWEIGHT
370
    -1
  9
$ENDCAPS
280
     0
  9
$JOINSTYLE
280
     0
  9
$LWDISPLAY
290
     0
  9
$INSUNITS
 70
     4
  9
$HYPERLINKBASE
  1

  9
$STYLESHEET
  1

  9
$XEDIT
290
     1
  9
$CEPSNTYPE
380
     0
  9
$PSTYLEMODE
290
     1
  9
$FINGERPRINTGUID
  2
{0A47BC99-747A-487E-B3FB-F023085C096A}
  9
$VERSIONGUID
  2
{FAEB1C32-E019-11D5-929B-00C0DF256EC4}
  9
$EXTNAMES
290
     1
  9
$PSVPSCALE
 40
0.0
  9
$OLESTARTUP
290
     0
  0
ENDSEC
  0
SECTION
  2
CLASSES
  0
CLASS
  1
ACDBDICTIONARYWDFLT
  2
AcDbDictionaryWithDefault
  3
ObjectDBX Classes
 90
        0
280
     0
281
     0
  0
CLASS
  1
VISUALSTYLE
  2
AcDbVisualStyle
  3
ObjectDBX Classes
 90
     4095
280
     0
281
     0
  0
CLASS
  1
MATERIAL
  2
AcDbMaterial
  3
ObjectDBX Classes
 90
     1153
280
     0
281
     0
  0
CLASS
  1
SCALE
  2
AcDbScale
  3
ObjectDBX Classes
 90
     1153
280
     0
281
     0
  0
CLASS
  1
DICTIONARYVAR
  2
AcDbDictionaryVar
  3
ObjectDBX Classes
 90
        0
280
     0
281
     0
  0
CLASS
  1
ACDBPLACEHOLDER
  2
AcDbPlaceHolder
  3
ObjectDBX Classes
 90
        0
280
     0
281
     0
  0
CLASS
  1
LAYOUT
  2
AcDbLayout
  3
ObjectDBX Classes
 90
        0
280
     0
281
     0
  0
ENDSEC
  0
SECTION
  2
TABLES
  0
TABLE
  2
VPORT
  5
8
330
0
100
AcDbSymbolTable
 70
     1
  0
VPORT
  5
29
330
8
100
AcDbSymbolTableRecord
100
AcDbViewportTableRecord
  2
*Active
 70
     0
 10
0.0
 20
0.0
 11
1.0
 21
1.0
 12
11.26
 22
4.5
 13
0.0
 23
0.0
 14
10.0
 24
10.0
 15
10.0
 25
10.0
 16
0.0
 26
0.0
 36
1.0
 17
0.0
 27
0.0
 37
0.0
 40
9.0
 41
2.503333333333333
 42
50.0
 43
0.0
 44
0.0
 50
0.0
 51
0.0
 71
     0
 72
   100
 73
     1
 74
     3
 75
     0
 76
     0
 77
     0
 78
     0
281
     0
 65
     1
110
0.0
120
0.0
130
0.0
111
1.0
121
0.0
131
0.0
112
0.0
122
1.0
132
0.0
 79
     0
146
0.0
  0
ENDTAB
  0
TABLE
  2
LTYPE
  5
5
330
0
100
AcDbSymbolTable
 70
    10
  0
LTYPE
  5
14
330
5
100
AcDbSymbolTableRecord
100
AcDbLinetypeTableRecord
  2
ByBlock
 70
     0
  3

 72
    65
 73
     0
 40
0.0
  0
LTYPE
  5
15
330
5
100
AcDbSymbolTableRecord
100
AcDbLinetypeTableRecord
  2
ByLayer
 70
     0
  3

 72
    65
 73
     0
 40
0.0
  0
LTYPE
  5
16
330
5
100
AcDbSymbolTableRecord
100
AcDbLinetypeTableRecord
  2
Continuous
 70
     0
  3
Solid line
 72
    65
 73
     0
 40
0.0
  0
LTYPE
  5
45
330
5
100
AcDbSymbolTableRecord
100
AcDbLinetypeTableRecord
  2
phl_thick
 70
     0
  3
THICK
 72
    65
 73
     0
 40
0.0
  0
LTYPE
  5
244
330
5
100
AcDbSymbolTableRecord
100
AcDbLinetypeTableRecord
  2
CUT
 70
     0
  3
THICK
 72
    65
 73
     0
 40
0.0
  0
LTYPE
  5
24A
330
5
100
AcDbSymbolTableRecord
100
AcDbLinetypeTableRecord
  2
NOCUT
 70
     0
  3
THICK
 72
    65
 73
     0
 40
0.0
  0
LTYPE
  5
251
330
5
100
AcDbSymbolTableRecord
100
AcDbLinetypeTableRecord
  2
SK1
 70
     0
  3
THICK
 72
    65
 73
     0
 40
0.0
  0
LTYPE
  5
259
330
5
100
AcDbSymbolTableRecord
100
AcDbLinetypeTableRecord
  2
ls_SK2
 70
     0
  3
THIN
 72
    65
 73
     0
 40
0.0
  0
LTYPE
  5
306
330
5
100
AcDbSymbolTableRecord
100
AcDbLinetypeTableRecord
  2
ls_2
 70
     0
  3
THIN
 72
    65
 73
     0
 40
0.0
  0
LTYPE
  5
475
330
5
100
AcDbSymbolTableRecord
100
AcDbLinetypeTableRecord
  2
ls_SK1
 70
     0
  3
THICK
 72
    65
 73
     0
 40
0.0
  0
LTYPE
  5
4AF
330
5
100
AcDbSymbolTableRecord
100
AcDbLinetypeTableRecord
  2
LONGDASH_DASH
 70
     0
  3
THIN_DASHDOT
 72
    65
 73
     4
 40
0.85
 49
0.4
 74
     0
 49
-0.2
 74
     0
 49
0.05
 74
     0
 49
-0.2
 74
     0
  0
LTYPE
  5
4B4
330
5
100
AcDbSymbolTableRecord
100
AcDbLinetypeTableRecord
  2
ls1
 70
     0
  3
THICK
 72
    65
 73
     0
 40
0.0
  0
ENDTAB
  0
TABLE
  2
LAYER
  5
2
330
0
100
AcDbSymbolTable
 70
    10
  0
LAYER
  5
10
330
2
100
AcDbSymbolTableRecord
100
AcDbLayerTableRecord
  2
0
 70
     0
 62
     7
  6
Continuous
370
    -3
390
F
  0
LAYER
  5
44
330
2
100
AcDbSymbolTableRecord
100
AcDbLayerTableRecord
  2
1
 70
     0
 62
4
  6
CONTINUOUS
370
50
370
    -3
390
F
  0
LAYER
  5
243
330
2
100
AcDbSymbolTableRecord
100
AcDbLayerTableRecord
  2
CUT
 70
     0
 62
1
  6
CONTINUOUS
370
25
370
    -3
390
F
  0
LAYER
  5
249
330
2
100
AcDbSymbolTableRecord
100
AcDbLayerTableRecord
  2
NOCUT
 70
     0
 62
7
  6
CONTINUOUS
370
25
370
    -3
390
F
  0
LAYER
  5
250
330
2
100
AcDbSymbolTableRecord
100
AcDbLayerTableRecord
  2
SK1
 70
     0
 62
4
  6
CONTINUOUS
370
50
370
    -3
390
F
  0
LAYER
  5
258
330
2
100
AcDbSymbolTableRecord
100
AcDbLayerTableRecord
  2
SK2
 70
     0
 62
7
  6
CONTINUOUS
370
25
370
    -3
390
F
  0
LAYER
  5
305
330
2
100
AcDbSymbolTableRecord
100
AcDbLayerTableRecord
  2
2
 70
     0
 62
7
  6
CONTINUOUS
370
25
370
    -3
390
F
  0
LAYER
  5
4AE
330
2
100
AcDbSymbolTableRecord
100
AcDbLayerTableRecord
  2
4
 70
     0
 62
2
  6
LONGDASH_DASH
370
25
370
    -3
390
F
  0
LAYER
  5
4B1
330
2
100
AcDbSymbolTableRecord
100
AcDbLayerTableRecord
  2
SK4
 70
     0
 62
2
  6
LONGDASH_DASH
370
25
370
    -3
390
F
  0
LAYER
  5
4B3
330
2
100
AcDbSymbolTableRecord
100
AcDbLayerTableRecord
  2
SK6
 70
     0
 62
5
  6
CONTINUOUS
370
25
370
    -3
390
F
  0
ENDTAB
  0
TABLE
  2
STYLE
  5
3
330
0
100
AcDbSymbolTable
 70
     1
  0
STYLE
  5
11
330
3
100
AcDbSymbolTableRecord
100
AcDbTextStyleTableRecord
  2
Standard
 70
     0
 40
0.0
 41
1.0
 50
0.0
 71
     0
 42
2.5
  3
Monospac821 BT
  4

  0
ENDTAB
  0
TABLE
  2
VIEW
  5
6
330
0
100
AcDbSymbolTable
 70
     0
  0
ENDTAB
  0
TABLE
  2
UCS
  5
7
330
0
100
AcDbSymbolTable
 70
     0
  0
ENDTAB
  0
TABLE
  2
APPID
  5
9
330
0
100
AcDbSymbolTable
 70
     2
  0
APPID
  5
12
330
9
100
AcDbSymbolTableRecord
100
AcDbRegAppTableRecord
  2
ACAD
 70
     0
  0
APPID
  5
3F
330
9
100
AcDbSymbolTableRecord
100
AcDbRegAppTableRecord
  2
ccLab
 70
     0
  0
ENDTAB
  0
TABLE
  2
DIMSTYLE
  5
A
330
0
100
AcDbSymbolTable
 70
     1
100
AcDbDimStyleTable
  0
DIMSTYLE
105
27
330
A
100
AcDbSymbolTableRecord
100
AcDbDimStyleTableRecord
  2
ISO-25
 70
     0
 41
2.5
 42
0.625
 43
3.75
 44
1.25
 73
     0
 74
     0
 77
     1
 78
     8
140
2.5
141
2.5
143
0.03937007874016
147
0.625
171
     3
172
     1
271
     2
272
     2
274
     3
278
    44
283
     0
284
     8
340
11
  0
ENDTAB
  0
TABLE
  2
BLOCK_RECORD
  5
1
330
0
100
AcDbSymbolTable
 70
     2
  0
BLOCK_RECORD
  5
1F
330
1
100
AcDbSymbolTableRecord
100
AcDbBlockTableRecord
  2
*Model_Space
340
22
  0
BLOCK_RECORD
  5
1B
330
1
100
AcDbSymbolTableRecord
100
AcDbBlockTableRecord
  2
*Paper_Space
340
1E
  0
BLOCK_RECORD
  5
23
330
1
100
AcDbSymbolTableRecord
100
AcDbBlockTableRecord
  2
*Paper_Space0
340
26
  0
ENDTAB
  0
ENDSEC
  0
SECTION
  2
BLOCKS
  0
BLOCK
  5
20
330
1F
100
AcDbEntity
  8
0
100
AcDbBlockBegin
  2
*Model_Space
 70
     0
 10
0.0
 20
0.0
 30
0.0
  3
*Model_Space
  1

  0
ENDBLK
  5
21
330
1F
100
AcDbEntity
  8
0
100
AcDbBlockEnd
  0
BLOCK
  5
1C
330
1B
100
AcDbEntity
 67
     1
  8
0
100
AcDbBlockBegin
  2
*Paper_Space
 70
     0
 10
0.0
 20
0.0
 30
0.0
  3
*Paper_Space
  1

  0
ENDBLK
  5
1D
330
1B
100
AcDbEntity
 67
     1
  8
0
100
AcDbBlockEnd
  0
BLOCK
  5
24
330
23
100
AcDbEntity
  8
0
100
AcDbBlockBegin
  2
*Paper_Space0
 70
     0
 10
0.0
 20
0.0
 30
0.0
  3
*Paper_Space0
  1

  0
ENDBLK
  5
25
330
23
100
AcDbEntity
  8
0
100
AcDbBlockEnd
  0
ENDSEC
  0
SECTION
  2
ENTITIES
  0
LINE
  5
4BE
330
1F
100
AcDbEntity
  8
1
  6
CONTINUOUS
370
50
 62
4
100
AcDbLine
 10
34.510445
 20
0.0
 30
0.0
 11
34.510426
 21
0.002501
 31
0.0
  0
LINE
  5
4BF
330
1F
100
AcDbEntity
  8
1
  6
CONTINUOUS
370
50
 62
4
100
AcDbLine
 10
34.533821
 20
-0.063783
 30
0.0
 11
34.533699
 21
-0.059911
 31
0.0
  0
LINE
  5
4C0
330
1F
100
AcDbEntity
  8
1
  6
CONTINUOUS
370
50
 62
4
100
AcDbLine
 10
34.986435
 20
0.046002
 30
0.0
 11
34.986397
 21
0.047201
 31
0.0
  0
LINE
  5
4C1
330
1F
100
AcDbEntity
  8
1
  6
CONTINUOUS
370
50
 62
4
100
AcDbLine
 10
34.510548
 20
-0.00135
 30
0.0
 11
34.510445
 21
0.0
 31
0.0
  0
LINE
  5
4C2
330
1F
100
AcDbEntity
  8
1
  6
CONTINUOUS
370
50
 62
4
100
AcDbLine
 10
34.533699
 20
-0.059911
 30
0.0
 11
34.533333
 21
-0.055884
 31
0.0
  0
LINE
  5
4C3
330
1F
100
AcDbEntity
  8
1
  6
CONTINUOUS
370
50
 62
4
100
AcDbLine
 10
34.510715
 20
-0.002694
 30
0.0
 11
34.510548
 21
-0.00135
 31
0.0
  0
LINE
  5
4C4
330
1F
100
AcDbEntity
  8
1
  6
CONTINUOUS
370
50
 62
4
100
AcDbLine
 10
34.533333
 20
-0.055884
 30
0.0
 11
34.532745
 21
-0.051733
 31
0.0
  0
LINE
  5
4C5
330
1F
100
AcDbEntity
  8
1
  6
CONTINUOUS
370
50
 62
4
100
AcDbLine
 10
34.510956
 20
-0.004028
 30
0.0
 11
34.510715
 21
-0.002694
 31
0.0
  0
LINE
  5
4C6
330
1F
100
AcDbEntity
  8
1
  6
CONTINUOUS
370
50
 62
4
100
AcDbLine
 10
34.986397
 20
0.047201
 30
0.0
 11
34.986141
 21
0.048572
 31
0.0
  0
LINE
  5
4C7
330
1F
100
AcDbEntity
  8
1
  6
CONTINUOUS
370
50
 62
4
100
AcDbLine
 10
34.532745
 20
-0.051733
 30
0.0
 11
34.531944
 21
-0.047483
 31
0.0
  0
LINE
  5
4C8
330
1F
100
AcDbEntity
  8
1
  6
CONTINUOUS
370
50
 62
4
100
AcDbLine
 10
34.531944
 20
-0.047483
 30
0.0
 11
34.530952
 21
-0.04315
 31
0.0
  0
LINE
  5
4C9
330
1F
100
AcDbEntity
  8
1
  6
CONTINUOUS
370
50
 62
4
100
AcDbLine
 10
34.511265
 20
-0.005352
 30
0.0
 11
34.510956
 21
-0.004028
 31
0.0
  0
LINE
  5
4CA
330
1F
100
AcDbEntity
  8
1
  6
CONTINUOUS
370
50
 62
4
100
AcDbLine
 10
34.530952
 20
-0.04315
 30
0.0
 11
34.529778
 21
-0.038748
 31
0.0
  0
LINE
  5
4CB
330
1F
100
AcDbEntity
  8
1
  6
CONTINUOUS
370
50
 62
4
100
AcDbLine
 10
34.511642
 20
-0.006657
 30
0.0
 11
34.511265
 21
-0.005352
 31
0.0
  0
LINE
  5
4CC
330
1F
100
AcDbEntity
  8
1
  6
CONTINUOUS
370
50
 62
4
100
AcDbLine
 10
34.529778
 20
-0.038748
 30
0.0
 11
34.528435
 21
-0.034294
 31
0.0
  0
LINE
  5
4CD
330
1F
100
AcDbEntity
  8
1
  6
CONTINUOUS
370
50
 62
4
100
AcDbLine
 10
34.986141
 20
0.048572
 30
0.0
 11
34.985683
 21
0.05008
 31
0.0
  0
LINE
  5
4CE
330
1F
100
AcDbEntity
  8
1
  6
CONTINUOUS
370
50
 62
4
100
AcDbLine
 10
34.465488
 20
0.099532
 30
0.0
 11
34.465462
 21
0.099616
 31
0.0
  0
LINE
  5
4CF
330
1F
100
AcDbEntity
  8
1
  6
CONTINUOUS
370
50
 62
4
100
AcDbLine
 10
34.528435
 20
-0.034294
 30
0.0
 11
34.526932
 21
-0.029806
 31
0.0
  0
LINE
  5
4D0
330
1F
100
AcDbEntity
  8
1
  6
CONTINUOUS
370
50
 62
4
100
AcDbLine
 10
34.512093
 20
-0.00793
 30
0.0
 11
34.511642
 21
-0.006657
 31
0.0
  0
LINE
  5
4D1
330
1F
100
AcDbEntity
  8
1
  6
CONTINUOUS
370
50
 62
4
100
AcDbLine
 10
34.526932
 20
-0.029806
 30
0.0
 11
34.525276
 21
-0.0253
 31
0.0
  0
LINE
  5
4D2
330
1F
100
AcDbEntity
  8
1
  6
CONTINUOUS
370
50
 62
4
100
AcDbLine
 10
34.985683
 20
0.05008
 30
0.0
 11
34.985035
 21
0.051716
 31
0.0
  0
LINE
  5
4D3
330
1F
100
AcDbEntity
  8
1
  6
CONTINUOUS
370
50
 62
4
100
AcDbLine
 10
34.525276
 20
-0.0253
 30
0.0
 11
34.523472
 21
-0.020793
 31
0.0
  0
LINE
  5
4D4
330
1F
100
AcDbEntity
  8
1
  6
CONTINUOUS
370
50
 62
4
100
AcDbLine
 10
34.512611
 20
-0.009171
 30
0.0
 11
34.512093
 21
-0.00793
 31
0.0
  0
LINE
  5
4D5
330
1F
100
AcDbEntity
  8
1
  6
CONTINUOUS
370
50
 62
4
100
AcDbLine
 10
34.985035
 20
0.051716
 30
0.0
 11
34.984188
 21
0.053483
 31
0.0
  0
LINE
  5
4D6
330
1F
100
AcDbEntity
  8
1
  6
CONTINUOUS
370
50
 62
4
100
AcDbLine
 10
34.513195
 20
-0.010378
 30
0.0
 11
34.512611
 21
-0.009171
 31
0.0
  0
LINE
  5
4D7
330
1F
100
AcDbEntity
  8
1
  6
CONTINUOUS
370
50
 62
4
100
AcDbLine
 10
34.984188
 20
0.053483
 30
0.0
 11
34.983139
 21
0.055366
 31
0.0
  0
LINE
  5
4D8
330
1F
100
AcDbEntity
  8
1
  6
CONTINUOUS
370
50
 62
4
100
AcDbLine
 10
34.513851
 20
-0.011551
 30
0.0
 11
34.513195
 21
-0.010378
 31
0.0
  0
LINE
  5
4D9
330
1F
100
AcDbEntity
  8
1
  6
CONTINUOUS
370
50
 62
4
100
AcDbLine
 10
34.983139
 20
0.055366
 30
0.0
 11
34.98189199999999
 21
0.057348
 31
0.0
  0
LINE
  5
4DA
330
1F
100
AcDbEntity
  8
1
  6
CONTINUOUS
370
50
 62
4
100
AcDbLine
 10
34.514568
 20
-0.012687
 30
0.0
 11
34.513851
 21
-0.011551
 31
0.0
  0
LINE
  5
4DB
330
1F
100
AcDbEntity
  8
1
  6
CONTINUOUS
370
50
 62
4
100
AcDbLine
 10
34.98189199999999
 20
0.057348
 30
0.0
 11
34.980438
 21
0.059414
 31
0.0
  0
LINE
  5
4DC
330
1F
100
AcDbEntity
  8
1
  6
CONTINUOUS
370
50
 62
4
100
AcDbLine
 10
34.51535399999999
 20
-0.013785
 30
0.0
 11
34.514568
 21
-0.012687
 31
0.0
  0
LINE
  5
4DD
330
1F
100
AcDbEntity
  8
1
  6
CONTINUOUS
370
50
 62
4
100
AcDbLine
 10
34.530067
 20
0.081376
 30
0.0
 11
34.528793
 21
0.083113
 31
0.0
  0
LINE
  5
4DE
330
1F
100
AcDbEntity
  8
1
  6
CONTINUOUS
370
50
 62
4
100
AcDbLine
 10
34.52879
 20
0.083119
 30
0.0
 11
34.527058
 21
0.085449
 31
0.0
  0
LINE
  5
4DF
330
1F
100
AcDbEntity
  8
1
  6
CONTINUOUS
370
50
 62
4
100
AcDbLine
 10
34.980438
 20
0.059414
 30
0.0
 11
34.978828
 21
0.061485
 31
0.0
  0
LINE
  5
4E0
330
1F
100
AcDbEntity
  8
1
  6
CONTINUOUS
370
50
 62
4
100
AcDbLine
 10
34.516205
 20
-0.01484
 30
0.0
 11
34.51535399999999
 21
-0.013785
 31
0.0
  0
LINE
  5
4E1
330
1F
100
AcDbEntity
  8
1
  6
CONTINUOUS
370
50
 62
4
100
AcDbLine
 10
34.530533
 20
0.08082
 30
0.0
 11
34.530067
 21
0.081376
 31
0.0
  0
LINE
  5
4E2
330
1F
100
AcDbEntity
  8
1
  6
CONTINUOUS
370
50
 62
4
100
AcDbLine
 10
34.978828
 20
0.061485
 30
0.0
 11
34.977028
 21
0.063603
 31
0.0
  0
LINE
  5
4E3
330
1F
100
AcDbEntity
  8
1
  6
CONTINUOUS
370
50
 62
4
100
AcDbLine
 10
34.465572
 20
0.099438
 30
0.0
 11
34.465488
 21
0.099532
 31
0.0
  0
LINE
  5
4E4
330
1F
100
AcDbEntity
  8
1
  6
CONTINUOUS
370
50
 62
4
100
AcDbLine
 10
34.517105
 20
-0.015843
 30
0.0
 11
34.516205
 21
-0.01484
 31
0.0
  0
LINE
  5
4E5
330
1F
100
AcDbEntity
  8
1
  6
CONTINUOUS
370
50
 62
4
100
AcDbLine
 10
34.527058
 20
0.085449
 30
0.0
 11
34.525085
 21
0.087574
 31
0.0
  0
LINE
  5
4E6
330
1F
100
AcDbEntity
  8
1
  6
CONTINUOUS
370
50
 62
4
100
AcDbLine
 10
34.977028
 20
0.063603
 30
0.0
 11
34.975048
 21
0.065733
 31
0.0
  0
LINE
  5
4E7
330
1F
100
AcDbEntity
  8
1
  6
CONTINUOUS
370
50
 62
4
100
AcDbLine
 10
34.532013
 20
0.079275
 30
0.0
 11
34.530533
 21
0.08082
 31
0.0
  0
LINE
  5
4E8
330
1F
100
AcDbEntity
  8
1
  6
CONTINUOUS
370
50
 62
4
100
AcDbLine
 10
34.518055
 20
-0.016793
 30
0.0
 11
34.517105
 21
-0.015843
 31
0.0
  0
LINE
  5
4E9
330
1F
100
AcDbEntity
  8
1
  6
CONTINUOUS
370
50
 62
4
100
AcDbLine
 10
34.975048
 20
0.065733
 30
0.0
 11
34.972893
 21
0.067856
 31
0.0
  0
LINE
  5
4EA
330
1F
100
AcDbEntity
  8
1
  6
CONTINUOUS
370
50
 62
4
100
AcDbLine
 10
34.730053
 20
-0.000106
 30
0.0
 11
34.729939
 21
0.0
 31
0.0
  0
LINE
  5
4EB
330
1F
100
AcDbEntity
  8
1
  6
CONTINUOUS
370
50
 62
4
100
AcDbLine
 10
34.972893
 20
0.067856
 30
0.0
 11
34.97057
 21
0.069957
 31
0.0
  0
LINE
  5
4EC
330
1F
100
AcDbEntity
  8
1
  6
CONTINUOUS
370
50
 62
4
100
AcDbLine
 10
34.519054
 20
-0.017693
 30
0.0
 11
34.518055
 21
-0.016793
 31
0.0
  0
LINE
  5
4ED
330
1F
100
AcDbEntity
  8
1
  6
CONTINUOUS
370
50
 62
4
100
AcDbLine
 10
34.525085
 20
0.087574
 30
0.0
 11
34.522869
 21
0.089503
 31
0.0
  0
LINE
  5
4EE
330
1F
100
AcDbEntity
  8
1
  6
CONTINUOUS
370
50
 62
4
100
AcDbLine
 10
34.533661
 20
0.07785
 30
0.0
 11
34.532013
 21
0.079275
 31
0.0
  0
LINE
  5
4EF
330
1F
100
AcDbEntity
  8
1
  6
CONTINUOUS
370
50
 62
4
100
AcDbLine
 10
34.97057
 20
0.069957
 30
0.0
 11
34.968079
 21
0.072022
 31
0.0
  0
LINE
  5
4F0
330
1F
100
AcDbEntity
  8
1
  6
CONTINUOUS
370
50
 62
4
100
AcDbLine
 10
34.5201
 20
-0.018542
 30
0.0
 11
34.519054
 21
-0.017693
 31
0.0
  0
LINE
  5
4F1
330
1F
100
AcDbEntity
  8
1
  6
CONTINUOUS
370
50
 62
4
100
AcDbLine
 10
34.968079
 20
0.072022
 30
0.0
 11
34.96542
 21
0.074035
 31
0.0
  0
LINE
  5
4F2
330
1F
100
AcDbEntity
  8
1
  6
CONTINUOUS
370
50
 62
4
100
AcDbLine
 10
34.521183
 20
-0.019341
 30
0.0
 11
34.5201
 21
-0.018542
 31
0.0
  0
LINE
  5
4F3
330
1F
100
AcDbEntity
  8
1
  6
CONTINUOUS
370
50
 62
4
100
AcDbLine
 10
34.53484
 20
0.076983
 30
0.0
 11
34.533661
 21
0.07785
 31
0.0
  0
LINE
  5
4F4
330
1F
100
AcDbEntity
  8
1
  6
CONTINUOUS
370
50
 62
4
100
AcDbLine
 10
34.465717
 20
0.099333
 30
0.0
 11
34.465572
 21
0.099438
 31
0.0
  0
LINE
  5
4F5
330
1F
100
AcDbEntity
  8
1
  6
CONTINUOUS
370
50
 62
4
100
AcDbLine
 10
34.522869
 20
0.089503
 30
0.0
 11
34.520428
 21
0.091233
 31
0.0
  0
LINE
  5
4F6
330
1F
100
AcDbEntity
  8
1
  6
CONTINUOUS
370
50
 62
4
100
AcDbLine
 10
34.96542
 20
0.074035
 30
0.0
 11
34.962593
 21
0.075983
 31
0.0
  0
LINE
  5
4F7
330
1F
100
AcDbEntity
  8
1
  6
CONTINUOUS
370
50
 62
4
100
AcDbLine
 10
34.522308
 20
-0.020091
 30
0.0
 11
34.521183
 21
-0.019341
 31
0.0
  0
LINE
  5
4F8
330
1F
100
AcDbEntity
  8
1
  6
CONTINUOUS
370
50
 62
4
100
AcDbLine
 10
34.536461
 20
0.075947
 30
0.0
 11
34.53484
 21
0.076983
 31
0.0
  0
LINE
  5
4F9
330
1F
100
AcDbEntity
  8
1
  6
CONTINUOUS
370
50
 62
4
100
AcDbLine
 10
34.782333
 20
-0.010966
 30
0.0
 11
34.765083
 21
0.0
 31
0.0
  0
LINE
  5
4FA
330
1F
100
AcDbEntity
  8
1
  6
CONTINUOUS
370
50
 62
4
100
AcDbLine
 10
34.798931
 20
-0.021458
 30
0.0
 11
34.782333
 21
-0.010966
 31
0.0
  0
LINE
  5
4FB
330
1F
100
AcDbEntity
  8
1
  6
CONTINUOUS
370
50
 62
4
100
AcDbLine
 10
34.962593
 20
0.075983
 30
0.0
 11
34.959606
 21
0.077851
 31
0.0
  0
LINE
  5
4FC
330
1F
100
AcDbEntity
  8
1
  6
CONTINUOUS
370
50
 62
4
100
AcDbLine
 10
34.815483
 20
-0.031613
 30
0.0
 11
34.798931
 21
-0.021458
 31
0.0
  0
LINE
  5
4FD
330
1F
100
AcDbEntity
  8
1
  6
CONTINUOUS
370
50
 62
4
100
AcDbLine
 10
34.523472
 20
-0.020793
 30
0.0
 11
34.522308
 21
-0.020091
 31
0.0
  0
LINE
  5
4FE
330
1F
100
AcDbEntity
  8
1
  6
CONTINUOUS
370
50
 62
4
100
AcDbLine
 10
34.804123
 20
-0.04327
 30
0.0
 11
34.788021
 21
-0.033565
 31
0.0
  0
LINE
  5
4FF
330
1F
100
AcDbEntity
  8
1
  6
CONTINUOUS
370
50
 62
4
100
AcDbLine
 10
34.788021
 20
-0.033565
 30
0.0
 11
34.763584
 21
-0.019082
 31
0.0
  0
LINE
  5
500
330
1F
100
AcDbEntity
  8
1
  6
CONTINUOUS
370
50
 62
4
100
AcDbLine
 10
34.765083
 20
0.0
 30
0.0
 11
34.75135
 21
0.008014
 31
0.0
  0
LINE
  5
501
330
1F
100
AcDbEntity
  8
1
  6
CONTINUOUS
370
50
 62
4
100
AcDbLine
 10
34.520428
 20
0.091233
 30
0.0
 11
34.517784
 21
0.092767
 31
0.0
  0
LINE
  5
502
330
1F
100
AcDbEntity
  8
1
  6
CONTINUOUS
370
50
 62
4
100
AcDbLine
 10
34.832706
 20
-0.041419
 30
0.0
 11
34.815483
 21
-0.031613
 31
0.0
  0
LINE
  5
503
330
1F
100
AcDbEntity
  8
1
  6
CONTINUOUS
370
50
 62
4
100
AcDbLine
 10
34.465923
 20
0.099216
 30
0.0
 11
34.465717
 21
0.099333
 31
0.0
  0
LINE
  5
504
330
1F
100
AcDbEntity
  8
1
  6
CONTINUOUS
370
50
 62
4
100
AcDbLine
 10
34.763584
 20
-0.019082
 30
0.0
 11
34.730728
 21
-0.000477
 31
0.0
  0
LINE
  5
505
330
1F
100
AcDbEntity
  8
1
  6
CONTINUOUS
370
50
 62
4
100
AcDbLine
 10
34.75135
 20
0.008014
 30
0.0
 11
34.736645
 21
0.01634
 31
0.0
  0
LINE
  5
506
330
1F
100
AcDbEntity
  8
1
  6
CONTINUOUS
370
50
 62
4
100
AcDbLine
 10
34.817368
 20
-0.050747
 30
0.0
 11
34.804123
 21
-0.04327
 31
0.0
  0
LINE
  5
507
330
1F
100
AcDbEntity
  8
1
  6
CONTINUOUS
370
50
 62
4
100
AcDbLine
 10
34.959606
 20
0.077851
 30
0.0
 11
34.956459
 21
0.079624
 31
0.0
  0
LINE
  5
508
330
1F
100
AcDbEntity
  8
1
  6
CONTINUOUS
370
50
 62
4
100
AcDbLine
 10
34.730324
 20
-0.000255
 30
0.0
 11
34.73019
 21
-0.00018
 31
0.0
  0
LINE
  5
509
330
1F
100
AcDbEntity
  8
1
  6
CONTINUOUS
370
50
 62
4
100
AcDbLine
 10
34.730728
 20
-0.000477
 30
0.0
 11
34.730595
 21
-0.000403
 31
0.0
  0
LINE
  5
50A
330
1F
100
AcDbEntity
  8
1
  6
CONTINUOUS
370
50
 62
4
100
AcDbLine
 10
34.730457
 20
-0.000329
 30
0.0
 11
34.730324
 21
-0.000255
 31
0.0
  0
LINE
  5
50B
330
1F
100
AcDbEntity
  8
1
  6
CONTINUOUS
370
50
 62
4
100
AcDbLine
 10
34.729939
 20
0.0
 30
0.0
 11
34.714432
 21
0.008391
 31
0.0
  0
LINE
  5
50C
330
1F
100
AcDbEntity
  8
1
  6
CONTINUOUS
370
50
 62
4
100
AcDbLine
 10
34.538258
 20
0.074975
 30
0.0
 11
34.536461
 21
0.075947
 31
0.0
  0
LINE
  5
50D
330
1F
100
AcDbEntity
  8
1
  6
CONTINUOUS
370
50
 62
4
100
AcDbLine
 10
34.73019
 20
-0.00018
 30
0.0
 11
34.730053
 21
-0.000106
 31
0.0
  0
LINE
  5
50E
330
1F
100
AcDbEntity
  8
1
  6
CONTINUOUS
370
50
 62
4
100
AcDbLine
 10
34.599998
 20
-0.083157
 30
0.0
 11
34.594868
 21
-0.080403
 31
0.0
  0
LINE
  5
50F
330
1F
100
AcDbEntity
  8
1
  6
CONTINUOUS
370
50
 62
4
100
AcDbLine
 10
34.736645
 20
0.01634
 30
0.0
 11
34.72126799999999
 21
0.024595
 31
0.0
  0
LINE
  5
510
330
1F
100
AcDbEntity
  8
1
  6
CONTINUOUS
370
50
 62
4
100
AcDbLine
 10
34.730595
 20
-0.000403
 30
0.0
 11
34.730457
 21
-0.000329
 31
0.0
  0
LINE
  5
511
330
1F
100
AcDbEntity
  8
1
  6
CONTINUOUS
370
50
 62
4
100
AcDbLine
 10
34.714432
 20
0.008391
 30
0.0
 11
34.697788
 21
0.017225
 31
0.0
  0
LINE
  5
512
330
1F
100
AcDbEntity
  8
1
  6
CONTINUOUS
370
50
 62
4
100
AcDbLine
 10
34.697788
 20
0.017225
 30
0.0
 11
34.681801
 21
0.025605
 31
0.0
  0
LINE
  5
513
330
1F
100
AcDbEntity
  8
1
  6
CONTINUOUS
370
50
 62
4
100
AcDbLine
 10
34.681801
 20
0.025605
 30
0.0
 11
34.666985
 21
0.033298
 31
0.0
  0
LINE
  5
514
330
1F
100
AcDbEntity
  8
1
  6
CONTINUOUS
370
50
 62
4
100
AcDbLine
 10
34.72126799999999
 20
0.024595
 30
0.0
 11
34.705708
 21
0.032604
 31
0.0
  0
LINE
  5
515
330
1F
100
AcDbEntity
  8
1
  6
CONTINUOUS
370
50
 62
4
100
AcDbLine
 10
34.666985
 20
0.033298
 30
0.0
 11
34.653389
 21
0.040293
 31
0.0
  0
LINE
  5
516
330
1F
100
AcDbEntity
  8
1
  6
CONTINUOUS
370
50
 62
4
100
AcDbLine
 10
34.830769
 20
-0.057627
 30
0.0
 11
34.817368
 21
-0.050747
 31
0.0
  0
LINE
  5
517
330
1F
100
AcDbEntity
  8
1
  6
CONTINUOUS
370
50
 62
4
100
AcDbLine
 10
34.851017
 20
-0.050767
 30
0.0
 11
34.832706
 21
-0.041419
 31
0.0
  0
LINE
  5
518
330
1F
100
AcDbEntity
  8
1
  6
CONTINUOUS
370
50
 62
4
100
AcDbLine
 10
34.653389
 20
0.040293
 30
0.0
 11
34.64106
 21
0.04658
 31
0.0
  0
LINE
  5
519
330
1F
100
AcDbEntity
  8
1
  6
CONTINUOUS
370
50
 62
4
100
AcDbLine
 10
34.64106
 20
0.04658
 30
0.0
 11
34.630039
 21
0.052148
 31
0.0
  0
LINE
  5
51A
330
1F
100
AcDbEntity
  8
1
  6
CONTINUOUS
370
50
 62
4
100
AcDbLine
 10
34.630039
 20
0.052148
 30
0.0
 11
34.620377
 21
0.056986
 31
0.0
  0
LINE
  5
51B
330
1F
100
AcDbEntity
  8
1
  6
CONTINUOUS
370
50
 62
4
100
AcDbLine
 10
34.620377
 20
0.056986
 30
0.0
 11
34.612118
 21
0.061084
 31
0.0
  0
LINE
  5
51C
330
1F
100
AcDbEntity
  8
1
  6
CONTINUOUS
370
50
 62
4
100
AcDbLine
 10
34.705708
 20
0.032604
 30
0.0
 11
34.690121
 21
0.040331
 31
0.0
  0
LINE
  5
51D
330
1F
100
AcDbEntity
  8
1
  6
CONTINUOUS
370
50
 62
4
100
AcDbLine
 10
34.612118
 20
0.061084
 30
0.0
 11
34.605312
 21
0.064431
 31
0.0
  0
LINE
  5
51E
330
1F
100
AcDbEntity
  8
1
  6
CONTINUOUS
370
50
 62
4
100
AcDbLine
 10
34.605312
 20
0.064431
 30
0.0
 11
34.599998
 21
0.067017
 31
0.0
  0
LINE
  5
51F
330
1F
100
AcDbEntity
  8
1
  6
CONTINUOUS
370
50
 62
4
100
AcDbLine
 10
34.466187
 20
0.099088
 30
0.0
 11
34.465923
 21
0.099216
 31
0.0
  0
LINE
  5
520
330
1F
100
AcDbEntity
  8
1
  6
CONTINUOUS
370
50
 62
4
100
AcDbLine
 10
34.956459
 20
0.079624
 30
0.0
 11
34.951744
 21
0.081907
 31
0.0
  0
LINE
  5
521
330
1F
100
AcDbEntity
  8
1
  6
CONTINUOUS
370
50
 62
4
100
AcDbLine
 10
34.690121
 20
0.040331
 30
0.0
 11
34.674683
 21
0.047739
 31
0.0
  0
LINE
  5
522
330
1F
100
AcDbEntity
  8
1
  6
CONTINUOUS
370
50
 62
4
100
AcDbLine
 10
34.517784
 20
0.092767
 30
0.0
 11
34.514946
 21
0.094115
 31
0.0
  0
LINE
  5
523
330
1F
100
AcDbEntity
  8
1
  6
CONTINUOUS
370
50
 62
4
100
AcDbLine
 10
34.674683
 20
0.047739
 30
0.0
 11
34.659473
 21
0.054831
 31
0.0
  0
LINE
  5
524
330
1F
100
AcDbEntity
  8
1
  6
CONTINUOUS
370
50
 62
4
100
AcDbLine
 10
34.594868
 20
-0.080403
 30
0.0
 11
34.58968
 21
-0.077993
 31
0.0
  0
LINE
  5
525
330
1F
100
AcDbEntity
  8
1
  6
CONTINUOUS
370
50
 62
4
100
AcDbLine
 10
34.844345
 20
-0.063932
 30
0.0
 11
34.830769
 21
-0.057627
 31
0.0
  0
LINE
  5
526
330
1F
100
AcDbEntity
  8
1
  6
CONTINUOUS
370
50
 62
4
100
AcDbLine
 10
34.869751
 20
-0.059334
 30
0.0
 11
34.851017
 21
-0.050767
 31
0.0
  0
LINE
  5
527
330
1F
100
AcDbEntity
  8
1
  6
CONTINUOUS
370
50
 62
4
100
AcDbLine
 10
34.659473
 20
0.054831
 30
0.0
 11
34.644348
 21
0.0617
 31
0.0
  0
LINE
  5
528
330
1F
100
AcDbEntity
  8
1
  6
CONTINUOUS
370
50
 62
4
100
AcDbLine
 10
34.644348
 20
0.0617
 30
0.0
 11
34.629375
 21
0.0683
 31
0.0
  0
LINE
  5
529
330
1F
100
AcDbEntity
  8
1
  6
CONTINUOUS
370
50
 62
4
100
AcDbLine
 10
34.541245
 20
0.073681
 30
0.0
 11
34.538258
 21
0.074975
 31
0.0
  0
LINE
  5
52A
330
1F
100
AcDbEntity
  8
1
  6
CONTINUOUS
370
50
 62
4
100
AcDbLine
 10
34.466511
 20
0.098948
 30
0.0
 11
34.466187
 21
0.099088
 31
0.0
  0
LINE
  5
52B
330
1F
100
AcDbEntity
  8
1
  6
CONTINUOUS
370
50
 62
4
100
AcDbLine
 10
34.629375
 20
0.0683
 30
0.0
 11
34.614586
 21
0.074583
 31
0.0
  0
LINE
  5
52C
330
1F
100
AcDbEntity
  8
1
  6
CONTINUOUS
370
50
 62
4
100
AcDbLine
 10
34.490623
 20
0.089752
 30
0.0
 11
34.486473
 21
0.0915
 31
0.0
  0
LINE
  5
52D
330
1F
100
AcDbEntity
  8
1
  6
CONTINUOUS
370
50
 62
4
100
AcDbLine
 10
34.858101
 20
-0.069689
 30
0.0
 11
34.844345
 21
-0.063932
 31
0.0
  0
LINE
  5
52E
330
1F
100
AcDbEntity
  8
1
  6
CONTINUOUS
370
50
 62
4
100
AcDbLine
 10
34.494961
 20
0.087938
 30
0.0
 11
34.490623
 21
0.089752
 31
0.0
  0
LINE
  5
52F
330
1F
100
AcDbEntity
  8
1
  6
CONTINUOUS
370
50
 62
4
100
AcDbLine
 10
34.486473
 20
0.0915
 30
0.0
 11
34.482506
 21
0.093156
 31
0.0
  0
LINE
  5
530
330
1F
100
AcDbEntity
  8
1
  6
CONTINUOUS
370
50
 62
4
100
AcDbLine
 10
34.888531
 20
-0.067082
 30
0.0
 11
34.869751
 21
-0.059334
 31
0.0
  0
LINE
  5
531
330
1F
100
AcDbEntity
  8
1
  6
CONTINUOUS
370
50
 62
4
100
AcDbLine
 10
34.499474
 20
0.086091
 30
0.0
 11
34.494961
 21
0.087938
 31
0.0
  0
LINE
  5
532
330
1F
100
AcDbEntity
  8
1
  6
CONTINUOUS
370
50
 62
4
100
AcDbLine
 10
34.482506
 20
0.093156
 30
0.0
 11
34.478729
 21
0.094685
 31
0.0
  0
LINE
  5
533
330
1F
100
AcDbEntity
  8
1
  6
CONTINUOUS
370
50
 62
4
100
AcDbLine
 10
34.614586
 20
0.074583
 30
0.0
 11
34.599998
 21
0.080452
 31
0.0
  0
LINE
  5
534
330
1F
100
AcDbEntity
  8
1
  6
CONTINUOUS
370
50
 62
4
100
AcDbLine
 10
34.504158
 20
0.084233
 30
0.0
 11
34.499474
 21
0.086091
 31
0.0
  0
LINE
  5
535
330
1F
100
AcDbEntity
  8
1
  6
CONTINUOUS
370
50
 62
4
100
AcDbLine
 10
34.58968
 20
-0.077993
 30
0.0
 11
34.584435
 21
-0.07592
 31
0.0
  0
LINE
  5
536
330
1F
100
AcDbEntity
  8
1
  6
CONTINUOUS
370
50
 62
4
100
AcDbLine
 10
34.466896
 20
0.098797
 30
0.0
 11
34.466511
 21
0.098948
 31
0.0
  0
LINE
  5
537
330
1F
100
AcDbEntity
  8
1
  6
CONTINUOUS
370
50
 62
4
100
AcDbLine
 10
34.951744
 20
0.081907
 30
0.0
 11
34.946903
 21
0.083796
 31
0.0
  0
LINE
  5
538
330
1F
100
AcDbEntity
  8
1
  6
CONTINUOUS
370
50
 62
4
100
AcDbLine
 10
34.514946
 20
0.094115
 30
0.0
 11
34.511932
 21
0.095286
 31
0.0
  0
LINE
  5
539
330
1F
100
AcDbEntity
  8
1
  6
CONTINUOUS
370
50
 62
4
100
AcDbLine
 10
34.478729
 20
0.094685
 30
0.0
 11
34.475136
 21
0.096063
 31
0.0
  0
LINE
  5
53A
330
1F
100
AcDbEntity
  8
1
  6
CONTINUOUS
370
50
 62
4
100
AcDbLine
 10
34.508995
 20
0.082395
 30
0.0
 11
34.504158
 21
0.084233
 31
0.0
  0
LINE
  5
53B
330
1F
100
AcDbEntity
  8
1
  6
CONTINUOUS
370
50
 62
4
100
AcDbLine
 10
34.872044
 20
-0.074937
 30
0.0
 11
34.858101
 21
-0.069689
 31
0.0
  0
LINE
  5
53C
330
1F
100
AcDbEntity
  8
1
  6
CONTINUOUS
370
50
 62
4
100
AcDbLine
 10
34.467342
 20
0.098634
 30
0.0
 11
34.466896
 21
0.098797
 31
0.0
  0
LINE
  5
53D
330
1F
100
AcDbEntity
  8
1
  6
CONTINUOUS
370
50
 62
4
100
AcDbLine
 10
34.513973
 20
0.080595
 30
0.0
 11
34.508995
 21
0.082395
 31
0.0
  0
LINE
  5
53E
330
1F
100
AcDbEntity
  8
1
  6
CONTINUOUS
370
50
 62
4
100
AcDbLine
 10
34.475136
 20
0.096063
 30
0.0
 11
34.471699
 21
0.097267
 31
0.0
  0
LINE
  5
53F
330
1F
100
AcDbEntity
  8
1
  6
CONTINUOUS
370
50
 62
4
100
AcDbLine
 10
34.467846
 20
0.098459
 30
0.0
 11
34.467342
 21
0.098634
 31
0.0
  0
LINE
  5
540
330
1F
100
AcDbEntity
  8
1
  6
CONTINUOUS
370
50
 62
4
100
AcDbLine
 10
34.519085
 20
0.078852
 30
0.0
 11
34.513973
 21
0.080595
 31
0.0
  0
LINE
  5
541
330
1F
100
AcDbEntity
  8
1
  6
CONTINUOUS
370
50
 62
4
100
AcDbLine
 10
34.886055
 20
-0.079679
 30
0.0
 11
34.872044
 21
-0.074937
 31
0.0
  0
LINE
  5
542
330
1F
100
AcDbEntity
  8
1
  6
CONTINUOUS
370
50
 62
4
100
AcDbLine
 10
34.46841
 20
0.098272
 30
0.0
 11
34.467846
 21
0.098459
 31
0.0
  0
LINE
  5
543
330
1F
100
AcDbEntity
  8
1
  6
CONTINUOUS
370
50
 62
4
100
AcDbLine
 10
34.54409
 20
0.072744
 30
0.0
 11
34.541245
 21
0.073681
 31
0.0
  0
LINE
  5
544
330
1F
100
AcDbEntity
  8
1
  6
CONTINUOUS
370
50
 62
4
100
AcDbLine
 10
34.584435
 20
-0.07592
 30
0.0
 11
34.579254
 21
-0.074221
 31
0.0
  0
LINE
  5
545
330
1F
100
AcDbEntity
  8
1
  6
CONTINUOUS
370
50
 62
4
100
AcDbLine
 10
34.635693
 20
-0.008437
 30
0.0
 11
34.599998
 21
0.003058
 31
0.0
  0
LINE
  5
546
330
1F
100
AcDbEntity
  8
1
  6
CONTINUOUS
370
50
 62
4
100
AcDbLine
 10
34.52433
 20
0.077182
 30
0.0
 11
34.519085
 21
0.078852
 31
0.0
  0
LINE
  5
547
330
1F
100
AcDbEntity
  8
1
  6
CONTINUOUS
370
50
 62
4
100
AcDbLine
 10
34.511932
 20
0.095286
 30
0.0
 11
34.508751
 21
0.096292
 31
0.0
  0
LINE
  5
548
330
1F
100
AcDbEntity
  8
1
  6
CONTINUOUS
370
50
 62
4
100
AcDbLine
 10
34.981388
 20
0.02253
 30
0.0
 11
34.966656
 21
0.027181
 31
0.0
  0
LINE
  5
549
330
1F
100
AcDbEntity
  8
1
  6
CONTINUOUS
370
50
 62
4
100
AcDbLine
 10
34.471699
 20
0.097267
 30
0.0
 11
34.46841
 21
0.098272
 31
0.0
  0
LINE
  5
54A
330
1F
100
AcDbEntity
  8
1
  6
CONTINUOUS
370
50
 62
4
100
AcDbLine
 10
34.900002
 20
-0.083915
 30
0.0
 11
34.886055
 21
-0.079679
 31
0.0
  0
LINE
  5
54B
330
1F
100
AcDbEntity
  8
1
  6
CONTINUOUS
370
50
 62
4
100
AcDbLine
 10
34.946903
 20
0.083796
 30
0.0
 11
34.941956
 21
0.085295
 31
0.0
  0
LINE
  5
54C
330
1F
100
AcDbEntity
  8
1
  6
CONTINUOUS
370
50
 62
4
100
AcDbLine
 10
34.529678
 20
0.075603
 30
0.0
 11
34.52433
 21
0.077182
 31
0.0
  0
LINE
  5
54D
330
1F
100
AcDbEntity
  8
1
  6
CONTINUOUS
370
50
 62
4
100
AcDbLine
 10
34.635433
 20
-0.037234
 30
0.0
 11
34.599998
 21
-0.026869
 31
0.0
  0
LINE
  5
54E
330
1F
100
AcDbEntity
  8
1
  6
CONTINUOUS
370
50
 62
4
100
AcDbLine
 10
34.671391
 20
-0.018562
 30
0.0
 11
34.635693
 21
-0.008437
 31
0.0
  0
LINE
  5
54F
330
1F
100
AcDbEntity
  8
1
  6
CONTINUOUS
370
50
 62
4
100
AcDbLine
 10
34.535122
 20
0.074125
 30
0.0
 11
34.529678
 21
0.075603
 31
0.0
  0
LINE
  5
550
330
1F
100
AcDbEntity
  8
1
  6
CONTINUOUS
370
50
 62
4
100
AcDbLine
 10
34.400002
 20
0.09995
 30
0.0
 11
27.4
 21
1.99995
 31
0.0
  0
LINE
  5
551
330
1F
100
AcDbEntity
  8
1
  6
CONTINUOUS
370
50
 62
4
100
AcDbLine
 10
34.579254
 20
-0.074221
 30
0.0
 11
34.574524
 21
-0.07297
 31
0.0
  0
LINE
  5
552
330
1F
100
AcDbEntity
  8
1
  6
CONTINUOUS
370
50
 62
4
100
AcDbLine
 10
34.905369
 20
-0.085299
 30
0.0
 11
34.900002
 21
-0.083915
 31
0.0
  0
LINE
  5
553
330
1F
100
AcDbEntity
  8
1
  6
CONTINUOUS
370
50
 62
4
100
AcDbLine
 10
34.508751
 20
0.096292
 30
0.0
 11
34.505417
 21
0.097144
 31
0.0
  0
LINE
  5
554
330
1F
100
AcDbEntity
  8
1
  6
CONTINUOUS
370
50
 62
4
100
AcDbLine
 10
34.966656
 20
0.027181
 30
0.0
 11
34.948635
 21
0.031781
 31
0.0
  0
LINE
  5
555
330
1F
100
AcDbEntity
  8
1
  6
CONTINUOUS
370
50
 62
4
100
AcDbLine
 10
34.707077
 20
-0.027629
 30
0.0
 11
34.671391
 21
-0.018562
 31
0.0
  0
LINE
  5
556
330
1F
100
AcDbEntity
  8
1
  6
CONTINUOUS
370
50
 62
4
100
AcDbLine
 10
34.540657
 20
0.072756
 30
0.0
 11
34.535122
 21
0.074125
 31
0.0
  0
LINE
  5
557
330
1F
100
AcDbEntity
  8
1
  6
CONTINUOUS
370
50
 62
4
100
AcDbLine
 10
34.54747
 20
0.071929
 30
0.0
 11
34.54409
 21
0.072744
 31
0.0
  0
LINE
  5
558
330
1F
100
AcDbEntity
  8
1
  6
CONTINUOUS
370
50
 62
4
100
AcDbLine
 10
34.742744
 20
-0.035819
 30
0.0
 11
34.707077
 21
-0.027629
 31
0.0
  0
LINE
  5
559
330
1F
100
AcDbEntity
  8
1
  6
CONTINUOUS
370
50
 62
4
100
AcDbLine
 10
34.61047
 20
0.081432
 30
0.0
 11
34.599979
 21
0.083836
 31
0.0
  0
LINE
  5
55A
330
1F
100
AcDbEntity
  8
1
  6
CONTINUOUS
370
50
 62
4
100
AcDbLine
 10
34.546272
 20
0.071505
 30
0.0
 11
34.540657
 21
0.072756
 31
0.0
  0
LINE
  5
55B
330
1F
100
AcDbEntity
  8
1
  6
CONTINUOUS
370
50
 62
4
100
AcDbLine
 10
34.941956
 20
0.085295
 30
0.0
 11
34.936913
 21
0.086405
 31
0.0
  0
LINE
  5
55C
330
1F
100
AcDbEntity
  8
1
  6
CONTINUOUS
370
50
 62
4
100
AcDbLine
 10
34.621288
 20
0.07906
 30
0.0
 11
34.61047
 21
0.081432
 31
0.0
  0
LINE
  5
55D
330
1F
100
AcDbEntity
  8
1
  6
CONTINUOUS
370
50
 62
4
100
AcDbLine
 10
34.623814
 20
0.078523
 30
0.0
 11
34.621288
 21
0.07906
 31
0.0
  0
LINE
  5
55E
330
1F
100
AcDbEntity
  8
1
  6
CONTINUOUS
370
50
 62
4
100
AcDbLine
 10
34.63422
 20
0.076373
 30
0.0
 11
34.623814
 21
0.078523
 31
0.0
  0
LINE
  5
55F
330
1F
100
AcDbEntity
  8
1
  6
CONTINUOUS
370
50
 62
4
100
AcDbLine
 10
34.505417
 20
0.097144
 30
0.0
 11
34.501942
 21
0.097851
 31
0.0
  0
LINE
  5
560
330
1F
100
AcDbEntity
  8
1
  6
CONTINUOUS
370
50
 62
4
100
AcDbLine
 10
34.948635
 20
0.031781
 30
0.0
 11
34.927837
 21
0.035989
 31
0.0
  0
LINE
  5
561
330
1F
100
AcDbEntity
  8
1
  6
CONTINUOUS
370
50
 62
4
100
AcDbLine
 10
34.778412
 20
-0.043012
 30
0.0
 11
34.742744
 21
-0.035819
 31
0.0
  0
LINE
  5
562
330
1F
100
AcDbEntity
  8
1
  6
CONTINUOUS
370
50
 62
4
100
AcDbLine
 10
34.574524
 20
-0.07297
 30
0.0
 11
34.569126
 21
-0.071897
 31
0.0
  0
LINE
  5
563
330
1F
100
AcDbEntity
  8
1
  6
CONTINUOUS
370
50
 62
4
100
AcDbLine
 10
34.910725
 20
-0.086361
 30
0.0
 11
34.905369
 21
-0.085299
 31
0.0
  0
LINE
  5
564
330
1F
100
AcDbEntity
  8
1
  6
CONTINUOUS
370
50
 62
4
100
AcDbLine
 10
34.551956
 20
0.070381
 30
0.0
 11
34.546272
 21
0.071505
 31
0.0
  0
LINE
  5
565
330
1F
100
AcDbEntity
  8
1
  6
CONTINUOUS
370
50
 62
4
100
AcDbLine
 10
34.644901
 20
0.074274
 30
0.0
 11
34.63422
 21
0.076373
 31
0.0
  0
LINE
  5
566
330
1F
100
AcDbEntity
  8
1
  6
CONTINUOUS
370
50
 62
4
100
AcDbLine
 10
34.647636
 20
0.073754
 30
0.0
 11
34.644901
 21
0.074274
 31
0.0
  0
LINE
  5
567
330
1F
100
AcDbEntity
  8
1
  6
CONTINUOUS
370
50
 62
4
100
AcDbLine
 10
34.658607
 20
0.071733
 30
0.0
 11
34.647636
 21
0.073754
 31
0.0
  0
LINE
  5
568
330
1F
100
AcDbEntity
  8
1
  6
CONTINUOUS
370
50
 62
4
100
AcDbLine
 10
34.985104
 20
0.043816
 30
0.0
 11
34.981083
 21
0.044549
 31
0.0
  0
LINE
  5
569
330
1F
100
AcDbEntity
  8
1
  6
CONTINUOUS
370
50
 62
4
100
AcDbLine
 10
34.672859
 20
-0.043956
 30
0.0
 11
34.635433
 21
-0.037234
 31
0.0
  0
LINE
  5
56A
330
1F
100
AcDbEntity
  8
1
  6
CONTINUOUS
370
50
 62
4
100
AcDbLine
 10
34.669785
 20
0.06978
 30
0.0
 11
34.658607
 21
0.071733
 31
0.0
  0
LINE
  5
56B
330
1F
100
AcDbEntity
  8
1
  6
CONTINUOUS
370
50
 62
4
100
AcDbLine
 10
34.557705
 20
0.069393
 30
0.0
 11
34.551956
 21
0.070381
 31
0.0
  0
LINE
  5
56C
330
1F
100
AcDbEntity
  8
1
  6
CONTINUOUS
370
50
 62
4
100
AcDbLine
 10
34.981083
 20
0.044549
 30
0.0
 11
34.977062
 21
0.045235
 31
0.0
  0
LINE
  5
56D
330
1F
100
AcDbEntity
  8
1
  6
CONTINUOUS
370
50
 62
4
100
AcDbLine
 10
34.671459
 20
0.069496
 30
0.0
 11
34.669785
 21
0.06978
 31
0.0
  0
LINE
  5
56E
330
1F
100
AcDbEntity
  8
1
  6
CONTINUOUS
370
50
 62
4
100
AcDbLine
 10
34.927837
 20
0.035989
 30
0.0
 11
34.906116
 21
0.039671
 31
0.0
  0
LINE
  5
56F
330
1F
100
AcDbEntity
  8
1
  6
CONTINUOUS
370
50
 62
4
100
AcDbLine
 10
34.683323
 20
0.067541
 30
0.0
 11
34.671459
 21
0.069496
 31
0.0
  0
LINE
  5
570
330
1F
100
AcDbEntity
  8
1
  6
CONTINUOUS
370
50
 62
4
100
AcDbLine
 10
34.814095
 20
-0.048887
 30
0.0
 11
34.778412
 21
-0.043012
 31
0.0
  0
LINE
  5
571
330
1F
100
AcDbEntity
  8
1
  6
CONTINUOUS
370
50
 62
4
100
AcDbLine
 10
34.863155
 20
0.045774
 30
0.0
 11
34.857018
 21
0.046774
 31
0.0
  0
LINE
  5
572
330
1F
100
AcDbEntity
  8
1
  6
CONTINUOUS
370
50
 62
4
100
AcDbLine
 10
34.977062
 20
0.045235
 30
0.0
 11
34.973042
 21
0.045884
 31
0.0
  0
LINE
  5
573
330
1F
100
AcDbEntity
  8
1
  6
CONTINUOUS
370
50
 62
4
100
AcDbLine
 10
34.501942
 20
0.097851
 30
0.0
 11
34.498333
 21
0.098427
 31
0.0
  0
LINE
  5
574
330
1F
100
AcDbEntity
  8
1
  6
CONTINUOUS
370
50
 62
4
100
AcDbLine
 10
34.551262
 20
0.071333
 30
0.0
 11
34.54747
 21
0.071929
 31
0.0
  0
LINE
  5
575
330
1F
100
AcDbEntity
  8
1
  6
CONTINUOUS
370
50
 62
4
100
AcDbLine
 10
34.695286
 20
0.065668
 30
0.0
 11
34.683323
 21
0.067541
 31
0.0
  0
LINE
  5
576
330
1F
100
AcDbEntity
  8
1
  6
CONTINUOUS
370
50
 62
4
100
AcDbLine
 10
34.973042
 20
0.045884
 30
0.0
 11
34.969021
 21
0.046498
 31
0.0
  0
LINE
  5
577
330
1F
100
AcDbEntity
  8
1
  6
CONTINUOUS
370
50
 62
4
100
AcDbLine
 10
34.70723
 20
0.063885
 30
0.0
 11
34.695286
 21
0.065668
 31
0.0
  0
LINE
  5
578
330
1F
100
AcDbEntity
  8
1
  6
CONTINUOUS
370
50
 62
4
100
AcDbLine
 10
34.906116
 20
0.039671
 30
0.0
 11
34.884289
 21
0.042884
 31
0.0
  0
LINE
  5
579
330
1F
100
AcDbEntity
  8
1
  6
CONTINUOUS
370
50
 62
4
100
AcDbLine
 10
34.850883
 20
0.047498
 30
0.0
 11
34.844742
 21
0.048396
 31
0.0
  0
LINE
  5
57A
330
1F
100
AcDbEntity
  8
1
  6
CONTINUOUS
370
50
 62
4
100
AcDbLine
 10
34.969021
 20
0.046498
 30
0.0
 11
34.965
 21
0.047078
 31
0.0
  0
LINE
  5
57B
330
1F
100
AcDbEntity
  8
1
  6
CONTINUOUS
370
50
 62
4
100
AcDbLine
 10
34.719124
 20
0.062186
 30
0.0
 11
34.70723
 21
0.063885
 31
0.0
  0
LINE
  5
57C
330
1F
100
AcDbEntity
  8
1
  6
CONTINUOUS
370
50
 62
4
100
AcDbLine
 10
34.936913
 20
0.086405
 30
0.0
 11
34.931793
 21
0.087131
 31
0.0
  0
LINE
  5
57D
330
1F
100
AcDbEntity
  8
1
  6
CONTINUOUS
370
50
 62
4
100
AcDbLine
 10
34.863155
 20
0.045774
 30
0.0
 11
34.857899
 21
0.046514
 31
0.0
  0
LINE
  5
57E
330
1F
100
AcDbEntity
  8
1
  6
CONTINUOUS
370
50
 62
4
100
AcDbLine
 10
34.721169
 20
0.061902
 30
0.0
 11
34.719124
 21
0.062186
 31
0.0
  0
LINE
  5
57F
330
1F
100
AcDbEntity
  8
1
  6
CONTINUOUS
370
50
 62
4
100
AcDbLine
 10
34.884289
 20
0.042884
 30
0.0
 11
34.863155
 21
0.045774
 31
0.0
  0
LINE
  5
580
330
1F
100
AcDbEntity
  8
1
  6
CONTINUOUS
370
50
 62
4
100
AcDbLine
 10
34.732155
 20
0.060406
 30
0.0
 11
34.721169
 21
0.061902
 31
0.0
  0
LINE
  5
581
330
1F
100
AcDbEntity
  8
1
  6
CONTINUOUS
370
50
 62
4
100
AcDbLine
 10
34.916058
 20
-0.087086
 30
0.0
 11
34.910725
 21
-0.086361
 31
0.0
  0
LINE
  5
582
330
1F
100
AcDbEntity
  8
1
  6
CONTINUOUS
370
50
 62
4
100
AcDbLine
 10
34.965
 20
0.047078
 30
0.0
 11
34.960979
 21
0.047624
 31
0.0
  0
LINE
  5
583
330
1F
100
AcDbEntity
  8
1
  6
CONTINUOUS
370
50
 62
4
100
AcDbLine
 10
34.857899
 20
0.046514
 30
0.0
 11
34.852631
 21
0.047227
 31
0.0
  0
LINE
  5
584
330
1F
100
AcDbEntity
  8
1
  6
CONTINUOUS
370
50
 62
4
100
AcDbLine
 10
34.742973
 20
0.05899
 30
0.0
 11
34.732155
 21
0.060406
 31
0.0
  0
LINE
  5
585
330
1F
100
AcDbEntity
  8
1
  6
CONTINUOUS
370
50
 62
4
100
AcDbLine
 10
34.569126
 20
-0.071897
 30
0.0
 11
34.564262
 21
-0.071266
 31
0.0
  0
LINE
  5
586
330
1F
100
AcDbEntity
  8
1
  6
CONTINUOUS
370
50
 62
4
100
AcDbLine
 10
34.852631
 20
0.047227
 30
0.0
 11
34.847355
 21
0.047911
 31
0.0
  0
LINE
  5
587
330
1F
100
AcDbEntity
  8
1
  6
CONTINUOUS
370
50
 62
4
100
AcDbLine
 10
34.746189
 20
0.058579
 30
0.0
 11
34.742973
 21
0.05899
 31
0.0
  0
LINE
  5
588
330
1F
100
AcDbEntity
  8
1
  6
CONTINUOUS
370
50
 62
4
100
AcDbLine
 10
34.756626
 20
0.057282
 30
0.0
 11
34.746189
 21
0.058579
 31
0.0
  0
LINE
  5
589
330
1F
100
AcDbEntity
  8
1
  6
CONTINUOUS
370
50
 62
4
100
AcDbLine
 10
34.847355
 20
0.047911
 30
0.0
 11
34.842083
 21
0.048565
 31
0.0
  0
LINE
  5
58A
330
1F
100
AcDbEntity
  8
1
  6
CONTINUOUS
370
50
 62
4
100
AcDbLine
 10
34.498333
 20
0.098427
 30
0.0
 11
34.494591
 21
0.098886
 31
0.0
  0
LINE
  5
58B
330
1F
100
AcDbEntity
  8
1
  6
CONTINUOUS
370
50
 62
4
100
AcDbLine
 10
34.766827
 20
0.056069
 30
0.0
 11
34.756626
 21
0.057282
 31
0.0
  0
LINE
  5
58C
330
1F
100
AcDbEntity
  8
1
  6
CONTINUOUS
370
50
 62
4
100
AcDbLine
 10
34.960979
 20
0.047624
 30
0.0
 11
34.947895
 21
0.049178
 31
0.0
  0
LINE
  5
58D
330
1F
100
AcDbEntity
  8
1
  6
CONTINUOUS
370
50
 62
4
100
AcDbLine
 10
34.844742
 20
0.048396
 30
0.0
 11
34.838604
 21
0.049121
 31
0.0
  0
LINE
  5
58E
330
1F
100
AcDbEntity
  8
1
  6
CONTINUOUS
370
50
 62
4
100
AcDbLine
 10
34.857018
 20
0.046774
 30
0.0
 11
34.850883
 21
0.047498
 31
0.0
  0
LINE
  5
58F
330
1F
100
AcDbEntity
  8
1
  6
CONTINUOUS
370
50
 62
4
100
AcDbLine
 10
34.842083
 20
0.048565
 30
0.0
 11
34.836819
 21
0.049186
 31
0.0
  0
LINE
  5
590
330
1F
100
AcDbEntity
  8
1
  6
CONTINUOUS
370
50
 62
4
100
AcDbLine
 10
34.705093
 20
-0.047704
 30
0.0
 11
34.672859
 21
-0.043956
 31
0.0
  0
LINE
  5
591
330
1F
100
AcDbEntity
  8
1
  6
CONTINUOUS
370
50
 62
4
100
AcDbLine
 10
34.769978
 20
0.055706
 30
0.0
 11
34.766827
 21
0.056069
 31
0.0
  0
LINE
  5
592
330
1F
100
AcDbEntity
  8
1
  6
CONTINUOUS
370
50
 62
4
100
AcDbLine
 10
34.836819
 20
0.049186
 30
0.0
 11
34.831566
 21
0.049774
 31
0.0
  0
LINE
  5
593
330
1F
100
AcDbEntity
  8
1
  6
CONTINUOUS
370
50
 62
4
100
AcDbLine
 10
34.780476
 20
0.054544
 30
0.0
 11
34.769978
 21
0.055706
 31
0.0
  0
LINE
  5
594
330
1F
100
AcDbEntity
  8
1
  6
CONTINUOUS
370
50
 62
4
100
AcDbLine
 10
34.552139
 20
0.071237
 30
0.0
 11
34.551262
 21
0.071333
 31
0.0
  0
LINE
  5
595
330
1F
100
AcDbEntity
  8
1
  6
CONTINUOUS
370
50
 62
4
100
AcDbLine
 10
34.838604
 20
0.049121
 30
0.0
 11
34.832466
 21
0.049785
 31
0.0
  0
LINE
  5
596
330
1F
100
AcDbEntity
  8
1
  6
CONTINUOUS
370
50
 62
4
100
AcDbLine
 10
34.560173
 20
0.069127
 30
0.0
 11
34.557705
 21
0.069393
 31
0.0
  0
LINE
  5
597
330
1F
100
AcDbEntity
  8
1
  6
CONTINUOUS
370
50
 62
4
100
AcDbLine
 10
34.831566
 20
0.049774
 30
0.0
 11
34.826328
 21
0.050325
 31
0.0
  0
LINE
  5
598
330
1F
100
AcDbEntity
  8
1
  6
CONTINUOUS
370
50
 62
4
100
AcDbLine
 10
34.826328
 20
0.050325
 30
0.0
 11
34.82325
 21
0.050644
 31
0.0
  0
LINE
  5
599
330
1F
100
AcDbEntity
  8
1
  6
CONTINUOUS
370
50
 62
4
100
AcDbLine
 10
34.790672
 20
0.053493
 30
0.0
 11
34.780476
 21
0.054544
 31
0.0
  0
LINE
  5
59A
330
1F
100
AcDbEntity
  8
1
  6
CONTINUOUS
370
50
 62
4
100
AcDbLine
 10
34.82325
 20
0.050644
 30
0.0
 11
34.820313
 21
0.050937
 31
0.0
  0
LINE
  5
59B
330
1F
100
AcDbEntity
  8
1
  6
CONTINUOUS
370
50
 62
4
100
AcDbLine
 10
34.79232
 20
0.053331
 30
0.0
 11
34.790672
 21
0.053493
 31
0.0
  0
LINE
  5
59C
330
1F
100
AcDbEntity
  8
1
  6
CONTINUOUS
370
50
 62
4
100
AcDbLine
 10
34.820313
 20
0.050937
 30
0.0
 11
34.817505
 21
0.051204
 31
0.0
  0
LINE
  5
59D
330
1F
100
AcDbEntity
  8
1
  6
CONTINUOUS
370
50
 62
4
100
AcDbLine
 10
34.947895
 20
0.049178
 30
0.0
 11
34.934811
 21
0.050411
 31
0.0
  0
LINE
  5
59E
330
1F
100
AcDbEntity
  8
1
  6
CONTINUOUS
370
50
 62
4
100
AcDbLine
 10
34.800987
 20
0.052522
 30
0.0
 11
34.79232
 21
0.053331
 31
0.0
  0
LINE
  5
59F
330
1F
100
AcDbEntity
  8
1
  6
CONTINUOUS
370
50
 62
4
100
AcDbLine
 10
34.494591
 20
0.098886
 30
0.0
 11
34.490715
 21
0.099241
 31
0.0
  0
LINE
  5
5A0
330
1F
100
AcDbEntity
  8
1
  6
CONTINUOUS
370
50
 62
4
100
AcDbLine
 10
34.817505
 20
0.051204
 30
0.0
 11
34.814816
 21
0.051446
 31
0.0
  0
LINE
  5
5A1
330
1F
100
AcDbEntity
  8
1
  6
CONTINUOUS
370
50
 62
4
100
AcDbLine
 10
34.832466
 20
0.049785
 30
0.0
 11
34.826328
 21
0.050325
 31
0.0
  0
LINE
  5
5A2
330
1F
100
AcDbEntity
  8
1
  6
CONTINUOUS
370
50
 62
4
100
AcDbLine
 10
34.732552
 20
-0.050116
 30
0.0
 11
34.705093
 21
-0.047704
 31
0.0
  0
LINE
  5
5A3
330
1F
100
AcDbEntity
  8
1
  6
CONTINUOUS
370
50
 62
4
100
AcDbLine
 10
34.814816
 20
0.051446
 30
0.0
 11
34.812222
 21
0.051664
 31
0.0
  0
LINE
  5
5A4
330
1F
100
AcDbEntity
  8
1
  6
CONTINUOUS
370
50
 62
4
100
AcDbLine
 10
34.809711
 20
0.051825
 30
0.0
 11
34.800987
 21
0.052522
 31
0.0
  0
LINE
  5
5A5
330
1F
100
AcDbEntity
  8
1
  6
CONTINUOUS
370
50
 62
4
100
AcDbLine
 10
34.812222
 20
0.051664
 30
0.0
 11
34.809711
 21
0.051858
 31
0.0
  0
LINE
  5
5A6
330
1F
100
AcDbEntity
  8
1
  6
CONTINUOUS
370
50
 62
4
100
AcDbLine
 10
34.56266
 20
0.068944
 30
0.0
 11
34.560173
 21
0.069127
 31
0.0
  0
LINE
  5
5A7
330
1F
100
AcDbEntity
  8
1
  6
CONTINUOUS
370
50
 62
4
100
AcDbLine
 10
34.934811
 20
0.050411
 30
0.0
 11
34.921722
 21
0.051354
 31
0.0
  0
LINE
  5
5A8
330
1F
100
AcDbEntity
  8
1
  6
CONTINUOUS
370
50
 62
4
100
AcDbLine
 10
35.0
 20
0.0
 30
0.0
 11
34.996983
 21
0.000215
 31
0.0
  0
LINE
  5
5A9
330
1F
100
AcDbEntity
  8
1
  6
CONTINUOUS
370
50
 62
4
100
AcDbLine
 10
34.921356
 20
-0.087463
 30
0.0
 11
34.916058
 21
-0.087086
 31
0.0
  0
LINE
  5
5AA
330
1F
100
AcDbEntity
  8
1
  6
CONTINUOUS
370
50
 62
4
100
AcDbLine
 10
34.555767
 20
0.070992
 30
0.0
 11
34.552139
 21
0.071237
 31
0.0
  0
LINE
  5
5AB
330
1F
100
AcDbEntity
  8
1
  6
CONTINUOUS
370
50
 62
4
100
AcDbLine
 10
34.931793
 20
0.087131
 30
0.0
 11
34.926605
 21
0.087481
 31
0.0
  0
LINE
  5
5AC
330
1F
100
AcDbEntity
  8
1
  6
CONTINUOUS
370
50
 62
4
100
AcDbLine
 10
34.490715
 20
0.099241
 30
0.0
 11
34.486706
 21
0.099507
 31
0.0
  0
LINE
  5
5AD
330
1F
100
AcDbEntity
  8
1
  6
CONTINUOUS
370
50
 62
4
100
AcDbLine
 10
34.760975
 20
-0.051958
 30
0.0
 11
34.732552
 21
-0.050116
 31
0.0
  0
LINE
  5
5AE
330
1F
100
AcDbEntity
  8
1
  6
CONTINUOUS
370
50
 62
4
100
AcDbLine
 10
34.564262
 20
-0.071266
 30
0.0
 11
34.559685
 21
-0.07098
 31
0.0
  0
LINE
  5
5AF
330
1F
100
AcDbEntity
  8
1
  6
CONTINUOUS
370
50
 62
4
100
AcDbLine
 10
34.921722
 20
0.051354
 30
0.0
 11
34.908634
 21
0.052033
 31
0.0
  0
LINE
  5
5B0
330
1F
100
AcDbEntity
  8
1
  6
CONTINUOUS
370
50
 62
4
100
AcDbLine
 10
34.486706
 20
0.099507
 30
0.0
 11
34.482578
 21
0.099696
 31
0.0
  0
LINE
  5
5B1
330
1F
100
AcDbEntity
  8
1
  6
CONTINUOUS
370
50
 62
4
100
AcDbLine
 10
34.565159
 20
0.068844
 30
0.0
 11
34.56266
 21
0.068944
 31
0.0
  0
LINE
  5
5B2
330
1F
100
AcDbEntity
  8
1
  6
CONTINUOUS
370
50
 62
4
100
AcDbLine
 10
34.908634
 20
0.052033
 30
0.0
 11
34.895542
 21
0.052477
 31
0.0
  0
LINE
  5
5B3
330
1F
100
AcDbEntity
  8
1
  6
CONTINUOUS
370
50
 62
4
100
AcDbLine
 10
34.784622
 20
-0.052738
 30
0.0
 11
34.760975
 21
-0.051958
 31
0.0
  0
LINE
  5
5B4
330
1F
100
AcDbEntity
  8
1
  6
CONTINUOUS
370
50
 62
4
100
AcDbLine
 10
34.482578
 20
0.099696
 30
0.0
 11
34.478325
 21
0.099822
 31
0.0
  0
LINE
  5
5B5
330
1F
100
AcDbEntity
  8
1
  6
CONTINUOUS
370
50
 62
4
100
AcDbLine
 10
34.478325
 20
0.099822
 30
0.0
 11
34.473957
 21
0.099898
 31
0.0
  0
LINE
  5
5B6
330
1F
100
AcDbEntity
  8
1
  6
CONTINUOUS
370
50
 62
4
100
AcDbLine
 10
34.895542
 20
0.052477
 30
0.0
 11
34.882446
 21
0.052691
 31
0.0
  0
LINE
  5
5B7
330
1F
100
AcDbEntity
  8
1
  6
CONTINUOUS
370
50
 62
4
100
AcDbLine
 10
34.47221
 20
0.099915
 30
0.0
 11
34.471378
 21
0.099925
 31
0.0
  0
LINE
  5
5B8
330
1F
100
AcDbEntity
  8
1
  6
CONTINUOUS
370
50
 62
4
100
AcDbLine
 10
34.471378
 20
0.099925
 30
0.0
 11
34.470581
 21
0.099934
 31
0.0
  0
LINE
  5
5B9
330
1F
100
AcDbEntity
  8
1
  6
CONTINUOUS
370
50
 62
4
100
AcDbLine
 10
34.470581
 20
0.099934
 30
0.0
 11
34.469826
 21
0.099942
 31
0.0
  0
LINE
  5
5BA
330
1F
100
AcDbEntity
  8
1
  6
CONTINUOUS
370
50
 62
4
100
AcDbLine
 10
34.473068
 20
0.099906
 30
0.0
 11
34.47221
 21
0.099915
 31
0.0
  0
LINE
  5
5BB
330
1F
100
AcDbEntity
  8
1
  6
CONTINUOUS
370
50
 62
4
100
AcDbLine
 10
34.473957
 20
0.099898
 30
0.0
 11
34.473068
 21
0.099906
 31
0.0
  0
LINE
  5
5BC
330
1F
100
AcDbEntity
  8
1
  6
CONTINUOUS
370
50
 62
4
100
AcDbLine
 10
34.469826
 20
0.099942
 30
0.0
 11
34.469124
 21
0.099948
 31
0.0
  0
LINE
  5
5BD
330
1F
100
AcDbEntity
  8
1
  6
CONTINUOUS
370
50
 62
4
100
AcDbLine
 10
34.567657
 20
0.068826
 30
0.0
 11
34.565159
 21
0.068844
 31
0.0
  0
LINE
  5
5BE
330
1F
100
AcDbEntity
  8
1
  6
CONTINUOUS
370
50
 62
4
100
AcDbLine
 10
34.802021
 20
-0.052769
 30
0.0
 11
34.797241
 21
-0.052739
 31
0.0
  0
LINE
  5
5BF
330
1F
100
AcDbEntity
  8
1
  6
CONTINUOUS
370
50
 62
4
100
AcDbLine
 10
34.797241
 20
-0.052739
 30
0.0
 11
34.792725
 21
-0.052712
 31
0.0
  0
LINE
  5
5C0
330
1F
100
AcDbEntity
  8
1
  6
CONTINUOUS
370
50
 62
4
100
AcDbLine
 10
34.792725
 20
-0.052712
 30
0.0
 11
34.788673
 21
-0.05269
 31
0.0
  0
LINE
  5
5C1
330
1F
100
AcDbEntity
  8
1
  6
CONTINUOUS
370
50
 62
4
100
AcDbLine
 10
34.882439
 20
0.052675
 30
0.0
 11
34.863602
 21
0.052768
 31
0.0
  0
LINE
  5
5C2
330
1F
100
AcDbEntity
  8
1
  6
CONTINUOUS
370
50
 62
4
100
AcDbLine
 10
34.80994
 20
-0.052807
 30
0.0
 11
34.802021
 21
-0.052769
 31
0.0
  0
LINE
  5
5C3
330
1F
100
AcDbEntity
  8
1
  6
CONTINUOUS
370
50
 62
4
100
AcDbLine
 10
34.788673
 20
-0.05269
 30
0.0
 11
34.784622
 21
-0.052671
 31
0.0
  0
LINE
  5
5C4
330
1F
100
AcDbEntity
  8
1
  6
CONTINUOUS
370
50
 62
4
100
AcDbLine
 10
34.863602
 20
0.052768
 30
0.0
 11
34.851151
 21
0.052815
 31
0.0
  0
LINE
  5
5C5
330
1F
100
AcDbEntity
  8
1
  6
CONTINUOUS
370
50
 62
4
100
AcDbLine
 10
34.817272
 20
-0.052834
 30
0.0
 11
34.80994
 21
-0.052807
 31
0.0
  0
LINE
  5
5C6
330
1F
100
AcDbEntity
  8
1
  6
CONTINUOUS
370
50
 62
4
100
AcDbLine
 10
34.926605
 20
-0.087481
 30
0.0
 11
34.921356
 21
-0.087463
 31
0.0
  0
LINE
  5
5C7
330
1F
100
AcDbEntity
  8
1
  6
CONTINUOUS
370
50
 62
4
100
AcDbLine
 10
34.469124
 20
0.099948
 30
0.0
 11
34.468472
 21
0.09995
 31
0.0
  0
LINE
  5
5C8
330
1F
100
AcDbEntity
  8
1
  6
CONTINUOUS
370
50
 62
4
100
AcDbLine
 10
34.559685
 20
0.07098
 30
0.0
 11
34.555767
 21
0.070992
 31
0.0
  0
LINE
  5
5C9
330
1F
100
AcDbEntity
  8
1
  6
CONTINUOUS
370
50
 62
4
100
AcDbLine
 10
34.851151
 20
0.052815
 30
0.0
 11
34.83601
 21
0.052847
 31
0.0
  0
LINE
  5
5CA
330
1F
100
AcDbEntity
  8
1
  6
CONTINUOUS
370
50
 62
4
100
AcDbLine
 10
34.400002
 20
-0.09995
 30
0.0
 11
34.468472
 21
-0.09995
 31
0.0
  0
LINE
  5
5CB
330
1F
100
AcDbEntity
  8
1
  6
CONTINUOUS
370
50
 62
4
100
AcDbLine
 10
34.400002
 20
0.09995
 30
0.0
 11
34.468472
 21
0.09995
 31
0.0
  0
LINE
  5
5CC
330
1F
100
AcDbEntity
  8
1
  6
CONTINUOUS
370
50
 62
4
100
AcDbLine
 10
34.822304
 20
0.052845
 30
0.0
 11
34.83601
 21
0.052847
 31
0.0
  0
LINE
  5
5CD
330
1F
100
AcDbEntity
  8
1
  6
CONTINUOUS
370
50
 62
4
100
AcDbLine
 10
34.555767
 20
-0.070992
 30
0.0
 11
34.559685
 21
-0.07098
 31
0.0
  0
LINE
  5
5CE
330
1F
100
AcDbEntity
  8
1
  6
CONTINUOUS
370
50
 62
4
100
AcDbLine
 10
34.468472
 20
-0.09995
 30
0.0
 11
34.469124
 21
-0.099948
 31
0.0
  0
LINE
  5
5CF
330
1F
100
AcDbEntity
  8
1
  6
CONTINUOUS
370
50
 62
4
100
AcDbLine
 10
34.808247
 20
0.0528
 30
0.0
 11
34.822304
 21
0.052845
 31
0.0
  0
LINE
  5
5D0
330
1F
100
AcDbEntity
  8
1
  6
CONTINUOUS
370
50
 62
4
100
AcDbLine
 10
34.921356
 20
0.087463
 30
0.0
 11
34.926605
 21
0.087481
 31
0.0
  0
LINE
  5
5D1
330
1F
100
AcDbEntity
  8
1
  6
CONTINUOUS
370
50
 62
4
100
AcDbLine
 10
34.467903
 20
0.099948
 30
0.0
 11
34.468472
 21
0.09995
 31
0.0
  0
LINE
  5
5D2
330
1F
100
AcDbEntity
  8
1
  6
CONTINUOUS
370
50
 62
4
100
AcDbLine
 10
34.795532
 20
0.052728
 30
0.0
 11
34.808247
 21
0.0528
 31
0.0
  0
LINE
  5
5D3
330
1F
100
AcDbEntity
  8
1
  6
CONTINUOUS
370
50
 62
4
100
AcDbLine
 10
34.469124
 20
-0.099948
 30
0.0
 11
34.469826
 21
-0.099942
 31
0.0
  0
LINE
  5
5D4
330
1F
100
AcDbEntity
  8
1
  6
CONTINUOUS
370
50
 62
4
100
AcDbLine
 10
34.473068
 20
-0.099906
 30
0.0
 11
34.473957
 21
-0.099898
 31
0.0
  0
LINE
  5
5D5
330
1F
100
AcDbEntity
  8
1
  6
CONTINUOUS
370
50
 62
4
100
AcDbLine
 10
34.47221
 20
-0.099915
 30
0.0
 11
34.473068
 21
-0.099906
 31
0.0
  0
LINE
  5
5D6
330
1F
100
AcDbEntity
  8
1
  6
CONTINUOUS
370
50
 62
4
100
AcDbLine
 10
34.469826
 20
-0.099942
 30
0.0
 11
34.470581
 21
-0.099934
 31
0.0
  0
LINE
  5
5D7
330
1F
100
AcDbEntity
  8
1
  6
CONTINUOUS
370
50
 62
4
100
AcDbLine
 10
34.470581
 20
-0.099934
 30
0.0
 11
34.471378
 21
-0.099925
 31
0.0
  0
LINE
  5
5D8
330
1F
100
AcDbEntity
  8
1
  6
CONTINUOUS
370
50
 62
4
100
AcDbLine
 10
34.471378
 20
-0.099925
 30
0.0
 11
34.47221
 21
-0.099915
 31
0.0
  0
LINE
  5
5D9
330
1F
100
AcDbEntity
  8
1
  6
CONTINUOUS
370
50
 62
4
100
AcDbLine
 10
34.467392
 20
0.09994
 30
0.0
 11
34.467903
 21
0.099948
 31
0.0
  0
LINE
  5
5DA
330
1F
100
AcDbEntity
  8
1
  6
CONTINUOUS
370
50
 62
4
100
AcDbLine
 10
34.473957
 20
-0.099898
 30
0.0
 11
34.478325
 21
-0.099822
 31
0.0
  0
LINE
  5
5DB
330
1F
100
AcDbEntity
  8
1
  6
CONTINUOUS
370
50
 62
4
100
AcDbLine
 10
34.567657
 20
0.068826
 30
0.0
 11
34.570156
 21
0.068891
 31
0.0
  0
LINE
  5
5DC
330
1F
100
AcDbEntity
  8
1
  6
CONTINUOUS
370
50
 62
4
100
AcDbLine
 10
34.466942
 20
0.099927
 30
0.0
 11
34.467392
 21
0.09994
 31
0.0
  0
LINE
  5
5DD
330
1F
100
AcDbEntity
  8
1
  6
CONTINUOUS
370
50
 62
4
100
AcDbLine
 10
34.478325
 20
-0.099822
 30
0.0
 11
34.482578
 21
-0.099696
 31
0.0
  0
LINE
  5
5DE
330
1F
100
AcDbEntity
  8
1
  6
CONTINUOUS
370
50
 62
4
100
AcDbLine
 10
34.482578
 20
-0.099696
 30
0.0
 11
34.486706
 21
-0.099507
 31
0.0
  0
LINE
  5
5DF
330
1F
100
AcDbEntity
  8
1
  6
CONTINUOUS
370
50
 62
4
100
AcDbLine
 10
34.466553
 20
0.099907
 30
0.0
 11
34.466942
 21
0.099927
 31
0.0
  0
LINE
  5
5E0
330
1F
100
AcDbEntity
  8
1
  6
CONTINUOUS
370
50
 62
4
100
AcDbLine
 10
34.570156
 20
0.068891
 30
0.0
 11
34.572643
 21
0.069037
 31
0.0
  0
LINE
  5
5E1
330
1F
100
AcDbEntity
  8
1
  6
CONTINUOUS
370
50
 62
4
100
AcDbLine
 10
34.559685
 20
0.07098
 30
0.0
 11
34.564262
 21
0.071266
 31
0.0
  0
LINE
  5
5E2
330
1F
100
AcDbEntity
  8
1
  6
CONTINUOUS
370
50
 62
4
100
AcDbLine
 10
34.913437
 20
-0.065392
 30
0.0
 11
34.917233
 21
-0.065149
 31
0.0
  0
LINE
  5
5E3
330
1F
100
AcDbEntity
  8
1
  6
CONTINUOUS
370
50
 62
4
100
AcDbLine
 10
34.90947
 20
-0.065652
 30
0.0
 11
34.913437
 21
-0.065392
 31
0.0
  0
LINE
  5
5E4
330
1F
100
AcDbEntity
  8
1
  6
CONTINUOUS
370
50
 62
4
100
AcDbLine
 10
34.486706
 20
-0.099507
 30
0.0
 11
34.490715
 21
-0.099241
 31
0.0
  0
LINE
  5
5E5
330
1F
100
AcDbEntity
  8
1
  6
CONTINUOUS
370
50
 62
4
100
AcDbLine
 10
34.905369
 20
-0.065926
 30
0.0
 11
34.90947
 21
-0.065652
 31
0.0
  0
LINE
  5
5E6
330
1F
100
AcDbEntity
  8
1
  6
CONTINUOUS
370
50
 62
4
100
AcDbLine
 10
34.926605
 20
-0.087481
 30
0.0
 11
34.931793
 21
-0.087131
 31
0.0
  0
LINE
  5
5E7
330
1F
100
AcDbEntity
  8
1
  6
CONTINUOUS
370
50
 62
4
100
AcDbLine
 10
34.552139
 20
-0.071237
 30
0.0
 11
34.555767
 21
-0.070992
 31
0.0
  0
LINE
  5
5E8
330
1F
100
AcDbEntity
  8
1
  6
CONTINUOUS
370
50
 62
4
100
AcDbLine
 10
34.901184
 20
-0.066209
 30
0.0
 11
34.905369
 21
-0.065926
 31
0.0
  0
LINE
  5
5E9
330
1F
100
AcDbEntity
  8
1
  6
CONTINUOUS
370
50
 62
4
100
AcDbLine
 10
34.89695
 20
-0.066499
 30
0.0
 11
34.901184
 21
-0.066209
 31
0.0
  0
LINE
  5
5EA
330
1F
100
AcDbEntity
  8
1
  6
CONTINUOUS
370
50
 62
4
100
AcDbLine
 10
34.892719
 20
-0.066791
 30
0.0
 11
34.89695
 21
-0.066499
 31
0.0
  0
LINE
  5
5EB
330
1F
100
AcDbEntity
  8
1
  6
CONTINUOUS
370
50
 62
4
100
AcDbLine
 10
34.888531
 20
-0.067082
 30
0.0
 11
34.892719
 21
-0.066791
 31
0.0
  0
LINE
  5
5EC
330
1F
100
AcDbEntity
  8
1
  6
CONTINUOUS
370
50
 62
4
100
AcDbLine
 10
34.916058
 20
0.087086
 30
0.0
 11
34.921356
 21
0.087463
 31
0.0
  0
LINE
  5
5ED
330
1F
100
AcDbEntity
  8
1
  6
CONTINUOUS
370
50
 62
4
100
AcDbLine
 10
34.466225
 20
0.099881
 30
0.0
 11
34.466553
 21
0.099907
 31
0.0
  0
LINE
  5
5EE
330
1F
100
AcDbEntity
  8
1
  6
CONTINUOUS
370
50
 62
4
100
AcDbLine
 10
34.490715
 20
-0.099241
 30
0.0
 11
34.494591
 21
-0.098886
 31
0.0
  0
LINE
  5
5EF
330
1F
100
AcDbEntity
  8
1
  6
CONTINUOUS
370
50
 62
4
100
AcDbLine
 10
34.572643
 20
0.069037
 30
0.0
 11
34.5751
 21
0.069264
 31
0.0
  0
LINE
  5
5F0
330
1F
100
AcDbEntity
  8
1
  6
CONTINUOUS
370
50
 62
4
100
AcDbLine
 10
34.791607
 20
-0.053401
 30
0.0
 11
34.79678
 21
-0.052908
 31
0.0
  0
LINE
  5
5F1
330
1F
100
AcDbEntity
  8
1
  6
CONTINUOUS
370
50
 62
4
100
AcDbLine
 10
34.787167
 20
-0.053849
 30
0.0
 11
34.791607
 21
-0.053401
 31
0.0
  0
LINE
  5
5F2
330
1F
100
AcDbEntity
  8
1
  6
CONTINUOUS
370
50
 62
4
100
AcDbLine
 10
34.774555
 20
-0.055193
 30
0.0
 11
34.787167
 21
-0.053849
 31
0.0
  0
LINE
  5
5F3
330
1F
100
AcDbEntity
  8
1
  6
CONTINUOUS
370
50
 62
4
100
AcDbLine
 10
34.551262
 20
-0.071333
 30
0.0
 11
34.552139
 21
-0.071237
 31
0.0
  0
LINE
  5
5F4
330
1F
100
AcDbEntity
  8
1
  6
CONTINUOUS
370
50
 62
4
100
AcDbLine
 10
34.768372
 20
-0.05589
 30
0.0
 11
34.774555
 21
-0.055193
 31
0.0
  0
LINE
  5
5F5
330
1F
100
AcDbEntity
  8
1
  6
CONTINUOUS
370
50
 62
4
100
AcDbLine
 10
34.762196
 20
-0.056615
 30
0.0
 11
34.768372
 21
-0.05589
 31
0.0
  0
LINE
  5
5F6
330
1F
100
AcDbEntity
  8
1
  6
CONTINUOUS
370
50
 62
4
100
AcDbLine
 10
34.749802
 20
-0.058126
 30
0.0
 11
34.762196
 21
-0.056615
 31
0.0
  0
LINE
  5
5F7
330
1F
100
AcDbEntity
  8
1
  6
CONTINUOUS
370
50
 62
4
100
AcDbLine
 10
34.494591
 20
-0.098886
 30
0.0
 11
34.498333
 21
-0.098427
 31
0.0
  0
LINE
  5
5F8
330
1F
100
AcDbEntity
  8
1
  6
CONTINUOUS
370
50
 62
4
100
AcDbLine
 10
34.5751
 20
0.069264
 30
0.0
 11
34.577496
 21
0.069564
 31
0.0
  0
LINE
  5
5F9
330
1F
100
AcDbEntity
  8
1
  6
CONTINUOUS
370
50
 62
4
100
AcDbLine
 10
34.744301
 20
-0.05882
 30
0.0
 11
34.749802
 21
-0.058126
 31
0.0
  0
LINE
  5
5FA
330
1F
100
AcDbEntity
  8
1
  6
CONTINUOUS
370
50
 62
4
100
AcDbLine
 10
34.465954
 20
0.099846
 30
0.0
 11
34.466225
 21
0.099881
 31
0.0
  0
LINE
  5
5FB
330
1F
100
AcDbEntity
  8
1
  6
CONTINUOUS
370
50
 62
4
100
AcDbLine
 10
34.564262
 20
0.071266
 30
0.0
 11
34.569126
 21
0.071897
 31
0.0
  0
LINE
  5
5FC
330
1F
100
AcDbEntity
  8
1
  6
CONTINUOUS
370
50
 62
4
100
AcDbLine
 10
34.737057
 20
-0.05976
 30
0.0
 11
34.744301
 21
-0.05882
 31
0.0
  0
LINE
  5
5FD
330
1F
100
AcDbEntity
  8
1
  6
CONTINUOUS
370
50
 62
4
100
AcDbLine
 10
34.917233
 20
-0.06515
 30
0.0
 11
34.921581
 21
-0.064573
 31
0.0
  0
LINE
  5
5FE
330
1F
100
AcDbEntity
  8
1
  6
CONTINUOUS
370
50
 62
4
100
AcDbLine
 10
34.723839
 20
-0.061535
 30
0.0
 11
34.737057
 21
-0.05976
 31
0.0
  0
LINE
  5
5FF
330
1F
100
AcDbEntity
  8
1
  6
CONTINUOUS
370
50
 62
4
100
AcDbLine
 10
34.937759
 20
0.077111
 30
0.0
 11
34.956459
 21
0.079624
 31
0.0
  0
LINE
  5
600
330
1F
100
AcDbEntity
  8
1
  6
CONTINUOUS
370
50
 62
4
100
AcDbLine
 10
34.910725
 20
0.086361
 30
0.0
 11
34.916058
 21
0.087086
 31
0.0
  0
LINE
  5
601
330
1F
100
AcDbEntity
  8
1
  6
CONTINUOUS
370
50
 62
4
100
AcDbLine
 10
34.71981
 20
-0.062091
 30
0.0
 11
34.723839
 21
-0.061535
 31
0.0
  0
LINE
  5
602
330
1F
100
AcDbEntity
  8
1
  6
CONTINUOUS
370
50
 62
4
100
AcDbLine
 10
34.711578
 20
-0.063258
 30
0.0
 11
34.71981
 21
-0.062091
 31
0.0
  0
LINE
  5
603
330
1F
100
AcDbEntity
  8
1
  6
CONTINUOUS
370
50
 62
4
100
AcDbLine
 10
34.931793
 20
-0.087131
 30
0.0
 11
34.936913
 21
-0.086405
 31
0.0
  0
LINE
  5
604
330
1F
100
AcDbEntity
  8
1
  6
CONTINUOUS
370
50
 62
4
100
AcDbLine
 10
34.698689
 20
-0.065152
 30
0.0
 11
34.711578
 21
-0.063258
 31
0.0
  0
LINE
  5
605
330
1F
100
AcDbEntity
  8
1
  6
CONTINUOUS
370
50
 62
4
100
AcDbLine
 10
34.686405
 20
-0.06705
 30
0.0
 11
34.698689
 21
-0.065152
 31
0.0
  0
LINE
  5
606
330
1F
100
AcDbEntity
  8
1
  6
CONTINUOUS
370
50
 62
4
100
AcDbLine
 10
34.54747
 20
-0.071929
 30
0.0
 11
34.551262
 21
-0.071333
 31
0.0
  0
LINE
  5
607
330
1F
100
AcDbEntity
  8
1
  6
CONTINUOUS
370
50
 62
4
100
AcDbLine
 10
34.577496
 20
0.069564
 30
0.0
 11
34.579823
 21
0.069932
 31
0.0
  0
LINE
  5
608
330
1F
100
AcDbEntity
  8
1
  6
CONTINUOUS
370
50
 62
4
100
AcDbLine
 10
34.498333
 20
-0.098427
 30
0.0
 11
34.501942
 21
-0.097851
 31
0.0
  0
LINE
  5
609
330
1F
100
AcDbEntity
  8
1
  6
CONTINUOUS
370
50
 62
4
100
AcDbLine
 10
34.672825
 20
-0.069267
 30
0.0
 11
34.686405
 21
-0.06705
 31
0.0
  0
LINE
  5
60A
330
1F
100
AcDbEntity
  8
1
  6
CONTINUOUS
370
50
 62
4
100
AcDbLine
 10
34.670128
 20
-0.069721
 30
0.0
 11
34.672825
 21
-0.069267
 31
0.0
  0
LINE
  5
60B
330
1F
100
AcDbEntity
  8
1
  6
CONTINUOUS
370
50
 62
4
100
AcDbLine
 10
34.660862
 20
-0.071333
 30
0.0
 11
34.670128
 21
-0.069721
 31
0.0
  0
LINE
  5
60C
330
1F
100
AcDbEntity
  8
1
  6
CONTINUOUS
370
50
 62
4
100
AcDbLine
 10
34.648426
 20
-0.073606
 30
0.0
 11
34.660862
 21
-0.071333
 31
0.0
  0
LINE
  5
60D
330
1F
100
AcDbEntity
  8
1
  6
CONTINUOUS
370
50
 62
4
100
AcDbLine
 10
34.919064
 20
0.073621
 30
0.0
 11
34.937759
 21
0.077111
 31
0.0
  0
LINE
  5
60E
330
1F
100
AcDbEntity
  8
1
  6
CONTINUOUS
370
50
 62
4
100
AcDbLine
 10
34.645252
 20
-0.074207
 30
0.0
 11
34.648426
 21
-0.073606
 31
0.0
  0
LINE
  5
60F
330
1F
100
AcDbEntity
  8
1
  6
CONTINUOUS
370
50
 62
4
100
AcDbLine
 10
34.579823
 20
0.069932
 30
0.0
 11
34.582069
 21
0.070365
 31
0.0
  0
LINE
  5
610
330
1F
100
AcDbEntity
  8
1
  6
CONTINUOUS
370
50
 62
4
100
AcDbLine
 10
34.591412
 20
0.065629
 30
0.0
 11
34.599998
 21
0.067292
 31
0.0
  0
LINE
  5
611
330
1F
100
AcDbEntity
  8
1
  6
CONTINUOUS
370
50
 62
4
100
AcDbLine
 10
34.63538
 20
-0.076141
 30
0.0
 11
34.645252
 21
-0.074207
 31
0.0
  0
LINE
  5
612
330
1F
100
AcDbEntity
  8
1
  6
CONTINUOUS
370
50
 62
4
100
AcDbLine
 10
34.905369
 20
0.085299
 30
0.0
 11
34.910725
 21
0.086361
 31
0.0
  0
LINE
  5
613
330
1F
100
AcDbEntity
  8
1
  6
CONTINUOUS
370
50
 62
4
100
AcDbLine
 10
34.569126
 20
0.071897
 30
0.0
 11
34.574524
 21
0.07297
 31
0.0
  0
LINE
  5
614
330
1F
100
AcDbEntity
  8
1
  6
CONTINUOUS
370
50
 62
4
100
AcDbLine
 10
34.501942
 20
-0.097851
 30
0.0
 11
34.505417
 21
-0.097144
 31
0.0
  0
LINE
  5
615
330
1F
100
AcDbEntity
  8
1
  6
CONTINUOUS
370
50
 62
4
100
AcDbLine
 10
34.465744
 20
0.099803
 30
0.0
 11
34.465954
 21
0.099846
 31
0.0
  0
LINE
  5
616
330
1F
100
AcDbEntity
  8
1
  6
CONTINUOUS
370
50
 62
4
100
AcDbLine
 10
34.6241
 20
-0.078462
 30
0.0
 11
34.63538
 21
-0.076141
 31
0.0
  0
LINE
  5
617
330
1F
100
AcDbEntity
  8
1
  6
CONTINUOUS
370
50
 62
4
100
AcDbLine
 10
34.621418
 20
-0.079033
 30
0.0
 11
34.6241
 21
-0.078462
 31
0.0
  0
LINE
  5
618
330
1F
100
AcDbEntity
  8
1
  6
CONTINUOUS
370
50
 62
4
100
AcDbLine
 10
34.610748
 20
-0.08137
 30
0.0
 11
34.621418
 21
-0.079033
 31
0.0
  0
LINE
  5
619
330
1F
100
AcDbEntity
  8
1
  6
CONTINUOUS
370
50
 62
4
100
AcDbLine
 10
34.936913
 20
-0.086405
 30
0.0
 11
34.941956
 21
-0.085295
 31
0.0
  0
LINE
  5
61A
330
1F
100
AcDbEntity
  8
1
  6
CONTINUOUS
370
50
 62
4
100
AcDbLine
 10
34.900364
 20
0.069444
 30
0.0
 11
34.919064
 21
0.073621
 31
0.0
  0
LINE
  5
61B
330
1F
100
AcDbEntity
  8
1
  6
CONTINUOUS
370
50
 62
4
100
AcDbLine
 10
34.582069
 20
0.070365
 30
0.0
 11
34.584236
 21
0.070855
 31
0.0
  0
LINE
  5
61C
330
1F
100
AcDbEntity
  8
1
  6
CONTINUOUS
370
50
 62
4
100
AcDbLine
 10
34.984413
 20
0.025746
 30
0.0
 11
34.985023
 21
0.025884
 31
0.0
  0
LINE
  5
61D
330
1F
100
AcDbEntity
  8
1
  6
CONTINUOUS
370
50
 62
4
100
AcDbLine
 10
34.981392
 20
0.025053
 30
0.0
 11
34.981995
 21
0.025191
 31
0.0
  0
LINE
  5
61E
330
1F
100
AcDbEntity
  8
1
  6
CONTINUOUS
370
50
 62
4
100
AcDbLine
 10
34.982597
 20
0.02533
 30
0.0
 11
34.9832
 21
0.025468
 31
0.0
  0
LINE
  5
61F
330
1F
100
AcDbEntity
  8
1
  6
CONTINUOUS
370
50
 62
4
100
AcDbLine
 10
34.599979
 20
-0.083836
 30
0.0
 11
34.610748
 21
-0.08137
 31
0.0
  0
LINE
  5
620
330
1F
100
AcDbEntity
  8
1
  6
CONTINUOUS
370
50
 62
4
100
AcDbLine
 10
34.9832
 20
0.025468
 30
0.0
 11
34.983807
 21
0.025607
 31
0.0
  0
LINE
  5
621
330
1F
100
AcDbEntity
  8
1
  6
CONTINUOUS
370
50
 62
4
100
AcDbLine
 10
34.983807
 20
0.025607
 30
0.0
 11
34.984413
 21
0.025746
 31
0.0
  0
LINE
  5
622
330
1F
100
AcDbEntity
  8
1
  6
CONTINUOUS
370
50
 62
4
100
AcDbLine
 10
34.981995
 20
0.025191
 30
0.0
 11
34.982597
 21
0.02533
 31
0.0
  0
LINE
  5
623
330
1F
100
AcDbEntity
  8
1
  6
CONTINUOUS
370
50
 62
4
100
AcDbLine
 10
34.583115
 20
0.063645
 30
0.0
 11
34.591412
 21
0.065629
 31
0.0
  0
LINE
  5
624
330
1F
100
AcDbEntity
  8
1
  6
CONTINUOUS
370
50
 62
4
100
AcDbLine
 10
34.54409
 20
-0.072744
 30
0.0
 11
34.54747
 21
-0.071929
 31
0.0
  0
LINE
  5
625
330
1F
100
AcDbEntity
  8
1
  6
CONTINUOUS
370
50
 62
4
100
AcDbLine
 10
34.921581
 20
-0.064573
 30
0.0
 11
34.925896
 21
-0.0635
 31
0.0
  0
LINE
  5
626
330
1F
100
AcDbEntity
  8
1
  6
CONTINUOUS
370
50
 62
4
100
AcDbLine
 10
34.505417
 20
-0.097144
 30
0.0
 11
34.508751
 21
-0.096292
 31
0.0
  0
LINE
  5
627
330
1F
100
AcDbEntity
  8
1
  6
CONTINUOUS
370
50
 62
4
100
AcDbLine
 10
34.881664
 20
0.064646
 30
0.0
 11
34.900364
 21
0.069444
 31
0.0
  0
LINE
  5
628
330
1F
100
AcDbEntity
  8
1
  6
CONTINUOUS
370
50
 62
4
100
AcDbLine
 10
34.900002
 20
0.083915
 30
0.0
 11
34.905369
 21
0.085299
 31
0.0
  0
LINE
  5
629
330
1F
100
AcDbEntity
  8
1
  6
CONTINUOUS
370
50
 62
4
100
AcDbLine
 10
34.584236
 20
0.070855
 30
0.0
 11
34.58631099999999
 21
0.0714
 31
0.0
  0
LINE
  5
62A
330
1F
100
AcDbEntity
  8
1
  6
CONTINUOUS
370
50
 62
4
100
AcDbLine
 10
34.574524
 20
0.07297
 30
0.0
 11
34.579254
 21
0.074221
 31
0.0
  0
LINE
  5
62B
330
1F
100
AcDbEntity
  8
1
  6
CONTINUOUS
370
50
 62
4
100
AcDbLine
 10
27.4
 20
-1.99995
 30
0.0
 11
34.400002
 21
-0.09995
 31
0.0
  0
LINE
  5
62C
330
1F
100
AcDbEntity
  8
1
  6
CONTINUOUS
370
50
 62
4
100
AcDbLine
 10
34.575104
 20
0.061337
 30
0.0
 11
34.583115
 21
0.063645
 31
0.0
  0
LINE
  5
62D
330
1F
100
AcDbEntity
  8
1
  6
CONTINUOUS
370
50
 62
4
100
AcDbLine
 10
34.862961
 20
0.059141
 30
0.0
 11
34.881664
 21
0.064646
 31
0.0
  0
LINE
  5
62E
330
1F
100
AcDbEntity
  8
1
  6
CONTINUOUS
370
50
 62
4
100
AcDbLine
 10
34.58631099999999
 20
0.0714
 30
0.0
 11
34.588295
 21
0.071994
 31
0.0
  0
LINE
  5
62F
330
1F
100
AcDbEntity
  8
1
  6
CONTINUOUS
370
50
 62
4
100
AcDbLine
 10
34.886745
 20
0.0799
 30
0.0
 11
34.900002
 21
0.083915
 31
0.0
  0
LINE
  5
630
330
1F
100
AcDbEntity
  8
1
  6
CONTINUOUS
370
50
 62
4
100
AcDbLine
 10
34.941956
 20
-0.085295
 30
0.0
 11
34.946903
 21
-0.083796
 31
0.0
  0
LINE
  5
631
330
1F
100
AcDbEntity
  8
1
  6
CONTINUOUS
370
50
 62
4
100
AcDbLine
 10
34.508751
 20
-0.096292
 30
0.0
 11
34.511932
 21
-0.095286
 31
0.0
  0
LINE
  5
632
330
1F
100
AcDbEntity
  8
1
  6
CONTINUOUS
370
50
 62
4
100
AcDbLine
 10
34.579254
 20
0.074221
 30
0.0
 11
34.584435
 21
0.07592
 31
0.0
  0
LINE
  5
633
330
1F
100
AcDbEntity
  8
1
  6
CONTINUOUS
370
50
 62
4
100
AcDbLine
 10
34.541245
 20
-0.073681
 30
0.0
 11
34.54409
 21
-0.072744
 31
0.0
  0
LINE
  5
634
330
1F
100
AcDbEntity
  8
1
  6
CONTINUOUS
370
50
 62
4
100
AcDbLine
 10
34.873428
 20
0.075428
 30
0.0
 11
34.886745
 21
0.0799
 31
0.0
  0
LINE
  5
635
330
1F
100
AcDbEntity
  8
1
  6
CONTINUOUS
370
50
 62
4
100
AcDbLine
 10
34.844261
 20
0.052804
 30
0.0
 11
34.862961
 21
0.059141
 31
0.0
  0
LINE
  5
636
330
1F
100
AcDbEntity
  8
1
  6
CONTINUOUS
370
50
 62
4
100
AcDbLine
 10
34.588295
 20
0.071994
 30
0.0
 11
34.59016
 21
0.072627
 31
0.0
  0
LINE
  5
637
330
1F
100
AcDbEntity
  8
1
  6
CONTINUOUS
370
50
 62
4
100
AcDbLine
 10
34.465591
 20
0.099751
 30
0.0
 11
34.465744
 21
0.099803
 31
0.0
  0
LINE
  5
638
330
1F
100
AcDbEntity
  8
1
  6
CONTINUOUS
370
50
 62
4
100
AcDbLine
 10
34.567387
 20
0.058704
 30
0.0
 11
34.575104
 21
0.061337
 31
0.0
  0
LINE
  5
639
330
1F
100
AcDbEntity
  8
1
  6
CONTINUOUS
370
50
 62
4
100
AcDbLine
 10
34.925896
 20
-0.0635
 30
0.0
 11
34.930073
 21
-0.06198
 31
0.0
  0
LINE
  5
63A
330
1F
100
AcDbEntity
  8
1
  6
CONTINUOUS
370
50
 62
4
100
AcDbLine
 10
34.860157
 20
0.070498
 30
0.0
 11
34.873428
 21
0.075428
 31
0.0
  0
LINE
  5
63B
330
1F
100
AcDbEntity
  8
1
  6
CONTINUOUS
370
50
 62
4
100
AcDbLine
 10
34.59016
 20
0.072627
 30
0.0
 11
34.591904
 21
0.073292
 31
0.0
  0
LINE
  5
63C
330
1F
100
AcDbEntity
  8
1
  6
CONTINUOUS
370
50
 62
4
100
AcDbLine
 10
34.511932
 20
-0.095286
 30
0.0
 11
34.514946
 21
-0.094115
 31
0.0
  0
LINE
  5
63D
330
1F
100
AcDbEntity
  8
1
  6
CONTINUOUS
370
50
 62
4
100
AcDbLine
 10
34.946903
 20
-0.083796
 30
0.0
 11
34.951744
 21
-0.081907
 31
0.0
  0
LINE
  5
63E
330
1F
100
AcDbEntity
  8
1
  6
CONTINUOUS
370
50
 62
4
100
AcDbLine
 10
34.584435
 20
0.07592
 30
0.0
 11
34.58968
 21
0.077993
 31
0.0
  0
LINE
  5
63F
330
1F
100
AcDbEntity
  8
1
  6
CONTINUOUS
370
50
 62
4
100
AcDbLine
 10
34.559956
 20
0.055743
 30
0.0
 11
34.567387
 21
0.058704
 31
0.0
  0
LINE
  5
640
330
1F
100
AcDbEntity
  8
1
  6
CONTINUOUS
370
50
 62
4
100
AcDbLine
 10
34.847046
 20
0.065111
 30
0.0
 11
34.860157
 21
0.070498
 31
0.0
  0
LINE
  5
641
330
1F
100
AcDbEntity
  8
1
  6
CONTINUOUS
370
50
 62
4
100
AcDbLine
 10
34.591904
 20
0.073292
 30
0.0
 11
34.593517
 21
0.073983
 31
0.0
  0
LINE
  5
642
330
1F
100
AcDbEntity
  8
1
  6
CONTINUOUS
370
50
 62
4
100
AcDbLine
 10
34.538258
 20
-0.074975
 30
0.0
 11
34.541245
 21
-0.073681
 31
0.0
  0
LINE
  5
643
330
1F
100
AcDbEntity
  8
1
  6
CONTINUOUS
370
50
 62
4
100
AcDbLine
 10
34.834106
 20
0.059236
 30
0.0
 11
34.847046
 21
0.065111
 31
0.0
  0
LINE
  5
644
330
1F
100
AcDbEntity
  8
1
  6
CONTINUOUS
370
50
 62
4
100
AcDbLine
 10
34.552811
 20
0.052452
 30
0.0
 11
34.559956
 21
0.055743
 31
0.0
  0
LINE
  5
645
330
1F
100
AcDbEntity
  8
1
  6
CONTINUOUS
370
50
 62
4
100
AcDbLine
 10
34.58968
 20
0.077993
 30
0.0
 11
34.594868
 21
0.080403
 31
0.0
  0
LINE
  5
646
330
1F
100
AcDbEntity
  8
1
  6
CONTINUOUS
370
50
 62
4
100
AcDbLine
 10
34.514946
 20
-0.094115
 30
0.0
 11
34.517784
 21
-0.092767
 31
0.0
  0
LINE
  5
647
330
1F
100
AcDbEntity
  8
1
  6
CONTINUOUS
370
50
 62
4
100
AcDbLine
 10
34.930073
 20
-0.06198
 30
0.0
 11
34.934101
 21
-0.060056
 31
0.0
  0
LINE
  5
648
330
1F
100
AcDbEntity
  8
1
  6
CONTINUOUS
370
50
 62
4
100
AcDbLine
 10
34.593517
 20
0.073983
 30
0.0
 11
34.594994
 21
0.074695
 31
0.0
  0
LINE
  5
649
330
1F
100
AcDbEntity
  8
1
  6
CONTINUOUS
370
50
 62
4
100
AcDbLine
 10
34.951744
 20
-0.081907
 30
0.0
 11
34.956459
 21
-0.079624
 31
0.0
  0
LINE
  5
64A
330
1F
100
AcDbEntity
  8
1
  6
CONTINUOUS
370
50
 62
4
100
AcDbLine
 10
34.82132
 20
0.052846
 30
0.0
 11
34.834106
 21
0.059236
 31
0.0
  0
LINE
  5
64B
330
1F
100
AcDbEntity
  8
1
  6
CONTINUOUS
370
50
 62
4
100
AcDbLine
 10
34.545952
 20
0.048829
 30
0.0
 11
34.552811
 21
0.052452
 31
0.0
  0
LINE
  5
64C
330
1F
100
AcDbEntity
  8
1
  6
CONTINUOUS
370
50
 62
4
100
AcDbLine
 10
34.594868
 20
0.080403
 30
0.0
 11
34.599998
 21
0.083157
 31
0.0
  0
LINE
  5
64D
330
1F
100
AcDbEntity
  8
1
  6
CONTINUOUS
370
50
 62
4
100
AcDbLine
 10
34.594994
 20
0.074695
 30
0.0
 11
34.596077
 21
0.075277
 31
0.0
  0
LINE
  5
64E
330
1F
100
AcDbEntity
  8
1
  6
CONTINUOUS
370
50
 62
4
100
AcDbLine
 10
34.536461
 20
-0.075947
 30
0.0
 11
34.538258
 21
-0.074975
 31
0.0
  0
LINE
  5
64F
330
1F
100
AcDbEntity
  8
1
  6
CONTINUOUS
370
50
 62
4
100
AcDbLine
 10
34.956459
 20
-0.079624
 30
0.0
 11
34.959606
 21
-0.077851
 31
0.0
  0
LINE
  5
650
330
1F
100
AcDbEntity
  8
1
  6
CONTINUOUS
370
50
 62
4
100
AcDbLine
 10
34.517784
 20
-0.092767
 30
0.0
 11
34.520428
 21
-0.091233
 31
0.0
  0
LINE
  5
651
330
1F
100
AcDbEntity
  8
1
  6
CONTINUOUS
370
50
 62
4
100
AcDbLine
 10
34.543385
 20
0.047329
 30
0.0
 11
34.545952
 21
0.048829
 31
0.0
  0
LINE
  5
652
330
1F
100
AcDbEntity
  8
1
  6
CONTINUOUS
370
50
 62
4
100
AcDbLine
 10
34.934101
 20
-0.060056
 30
0.0
 11
34.937965
 21
-0.057775
 31
0.0
  0
LINE
  5
653
330
1F
100
AcDbEntity
  8
1
  6
CONTINUOUS
370
50
 62
4
100
AcDbLine
 10
34.596077
 20
0.075277
 30
0.0
 11
34.597069
 21
0.075865
 31
0.0
  0
LINE
  5
654
330
1F
100
AcDbEntity
  8
1
  6
CONTINUOUS
370
50
 62
4
100
AcDbLine
 10
34.540852
 20
0.045751
 30
0.0
 11
34.543385
 21
0.047329
 31
0.0
  0
LINE
  5
655
330
1F
100
AcDbEntity
  8
1
  6
CONTINUOUS
370
50
 62
4
100
AcDbLine
 10
34.959606
 20
-0.077851
 30
0.0
 11
34.962593
 21
-0.075983
 31
0.0
  0
LINE
  5
656
330
1F
100
AcDbEntity
  8
1
  6
CONTINUOUS
370
50
 62
4
100
AcDbLine
 10
34.53484
 20
-0.076983
 30
0.0
 11
34.536461
 21
-0.075947
 31
0.0
  0
LINE
  5
657
330
1F
100
AcDbEntity
  8
1
  6
CONTINUOUS
370
50
 62
4
100
AcDbLine
 10
34.597069
 20
0.075865
 30
0.0
 11
34.597958
 21
0.076454
 31
0.0
  0
LINE
  5
658
330
1F
100
AcDbEntity
  8
1
  6
CONTINUOUS
370
50
 62
4
100
AcDbLine
 10
34.985104
 20
0.043816
 30
0.0
 11
34.985798
 21
0.044276
 31
0.0
  0
LINE
  5
659
330
1F
100
AcDbEntity
  8
1
  6
CONTINUOUS
370
50
 62
4
100
AcDbLine
 10
34.465496
 20
0.099688
 30
0.0
 11
34.465591
 21
0.099751
 31
0.0
  0
LINE
  5
65A
330
1F
100
AcDbEntity
  8
1
  6
CONTINUOUS
370
50
 62
4
100
AcDbLine
 10
34.538368
 20
0.044096
 30
0.0
 11
34.540852
 21
0.045751
 31
0.0
  0
LINE
  5
65B
330
1F
100
AcDbEntity
  8
1
  6
CONTINUOUS
370
50
 62
4
100
AcDbLine
 10
34.962593
 20
-0.075983
 30
0.0
 11
34.96542
 21
-0.074035
 31
0.0
  0
LINE
  5
65C
330
1F
100
AcDbEntity
  8
1
  6
CONTINUOUS
370
50
 62
4
100
AcDbLine
 10
34.937965
 20
-0.057775
 30
0.0
 11
34.941639
 21
-0.055186
 31
0.0
  0
LINE
  5
65D
330
1F
100
AcDbEntity
  8
1
  6
CONTINUOUS
370
50
 62
4
100
AcDbLine
 10
34.520428
 20
-0.091233
 30
0.0
 11
34.522869
 21
-0.089503
 31
0.0
  0
LINE
  5
65E
330
1F
100
AcDbEntity
  8
1
  6
CONTINUOUS
370
50
 62
4
100
AcDbLine
 10
34.535938
 20
0.042362
 30
0.0
 11
34.538368
 21
0.044096
 31
0.0
  0
LINE
  5
65F
330
1F
100
AcDbEntity
  8
1
  6
CONTINUOUS
370
50
 62
4
100
AcDbLine
 10
34.533661
 20
-0.07785
 30
0.0
 11
34.53484
 21
-0.076983
 31
0.0
  0
LINE
  5
660
330
1F
100
AcDbEntity
  8
1
  6
CONTINUOUS
370
50
 62
4
100
AcDbLine
 10
34.597958
 20
0.076454
 30
0.0
 11
34.598743
 21
0.07704
 31
0.0
  0
LINE
  5
661
330
1F
100
AcDbEntity
  8
1
  6
CONTINUOUS
370
50
 62
4
100
AcDbLine
 10
34.96542
 20
-0.074035
 30
0.0
 11
34.968079
 21
-0.072022
 31
0.0
  0
LINE
  5
662
330
1F
100
AcDbEntity
  8
1
  6
CONTINUOUS
370
50
 62
4
100
AcDbLine
 10
34.533566
 20
0.04055
 30
0.0
 11
34.535938
 21
0.042362
 31
0.0
  0
LINE
  5
663
330
1F
100
AcDbEntity
  8
1
  6
CONTINUOUS
370
50
 62
4
100
AcDbLine
 10
34.941639
 20
-0.055186
 30
0.0
 11
34.945126
 21
-0.052333
 31
0.0
  0
LINE
  5
664
330
1F
100
AcDbEntity
  8
1
  6
CONTINUOUS
370
50
 62
4
100
AcDbLine
 10
34.531258
 20
0.038659
 30
0.0
 11
34.533566
 21
0.04055
 31
0.0
  0
LINE
  5
665
330
1F
100
AcDbEntity
  8
1
  6
CONTINUOUS
370
50
 62
4
100
AcDbLine
 10
34.968079
 20
-0.072022
 30
0.0
 11
34.97057
 21
-0.069957
 31
0.0
  0
LINE
  5
666
330
1F
100
AcDbEntity
  8
1
  6
CONTINUOUS
370
50
 62
4
100
AcDbLine
 10
34.598743
 20
0.07704
 30
0.0
 11
34.599422
 21
0.077622
 31
0.0
  0
LINE
  5
667
330
1F
100
AcDbEntity
  8
1
  6
CONTINUOUS
370
50
 62
4
100
AcDbLine
 10
34.532013
 20
-0.079275
 30
0.0
 11
34.533661
 21
-0.07785
 31
0.0
  0
LINE
  5
668
330
1F
100
AcDbEntity
  8
1
  6
CONTINUOUS
370
50
 62
4
100
AcDbLine
 10
34.522869
 20
-0.089503
 30
0.0
 11
34.525085
 21
-0.087574
 31
0.0
  0
LINE
  5
669
330
1F
100
AcDbEntity
  8
1
  6
CONTINUOUS
370
50
 62
4
100
AcDbLine
 10
34.529022
 20
0.03669
 30
0.0
 11
34.531258
 21
0.038659
 31
0.0
  0
LINE
  5
66A
330
1F
100
AcDbEntity
  8
1
  6
CONTINUOUS
370
50
 62
4
100
AcDbLine
 10
34.97057
 20
-0.069957
 30
0.0
 11
34.972893
 21
-0.067856
 31
0.0
  0
LINE
  5
66B
330
1F
100
AcDbEntity
  8
1
  6
CONTINUOUS
370
50
 62
4
100
AcDbLine
 10
34.945126
 20
-0.052333
 30
0.0
 11
34.948421
 21
-0.049255
 31
0.0
  0
LINE
  5
66C
330
1F
100
AcDbEntity
  8
1
  6
CONTINUOUS
370
50
 62
4
100
AcDbLine
 10
34.526867
 20
0.034641
 30
0.0
 11
34.529022
 21
0.03669
 31
0.0
  0
LINE
  5
66D
330
1F
100
AcDbEntity
  8
1
  6
CONTINUOUS
370
50
 62
4
100
AcDbLine
 10
34.972893
 20
-0.067856
 30
0.0
 11
34.975048
 21
-0.065733
 31
0.0
  0
LINE
  5
66E
330
1F
100
AcDbEntity
  8
1
  6
CONTINUOUS
370
50
 62
4
100
AcDbLine
 10
34.599422
 20
0.077622
 30
0.0
 11
34.599998
 21
0.078197
 31
0.0
  0
LINE
  5
66F
330
1F
100
AcDbEntity
  8
1
  6
CONTINUOUS
370
50
 62
4
100
AcDbLine
 10
34.524799
 20
0.032521
 30
0.0
 11
34.526867
 21
0.034641
 31
0.0
  0
LINE
  5
670
330
1F
100
AcDbEntity
  8
1
  6
CONTINUOUS
370
50
 62
4
100
AcDbLine
 10
34.530533
 20
-0.08082
 30
0.0
 11
34.532013
 21
-0.079275
 31
0.0
  0
LINE
  5
671
330
1F
100
AcDbEntity
  8
1
  6
CONTINUOUS
370
50
 62
4
100
AcDbLine
 10
34.948421
 20
-0.049255
 30
0.0
 11
34.951557
 21
-0.045957
 31
0.0
  0
LINE
  5
672
330
1F
100
AcDbEntity
  8
1
  6
CONTINUOUS
370
50
 62
4
100
AcDbLine
 10
34.975048
 20
-0.065733
 30
0.0
 11
34.977028
 21
-0.063603
 31
0.0
  0
LINE
  5
673
330
1F
100
AcDbEntity
  8
1
  6
CONTINUOUS
370
50
 62
4
100
AcDbLine
 10
34.525085
 20
-0.087574
 30
0.0
 11
34.527058
 21
-0.085449
 31
0.0
  0
LINE
  5
674
330
1F
100
AcDbEntity
  8
1
  6
CONTINUOUS
370
50
 62
4
100
AcDbLine
 10
34.522865
 20
0.030366
 30
0.0
 11
34.524799
 21
0.032521
 31
0.0
  0
LINE
  5
675
330
1F
100
AcDbEntity
  8
1
  6
CONTINUOUS
370
50
 62
4
100
AcDbLine
 10
34.977028
 20
-0.063603
 30
0.0
 11
34.978828
 21
-0.061485
 31
0.0
  0
LINE
  5
676
330
1F
100
AcDbEntity
  8
1
  6
CONTINUOUS
370
50
 62
4
100
AcDbLine
 10
34.951557
 20
-0.045957
 30
0.0
 11
34.954567
 21
-0.042415
 31
0.0
  0
LINE
  5
677
330
1F
100
AcDbEntity
  8
1
  6
CONTINUOUS
370
50
 62
4
100
AcDbLine
 10
34.530067
 20
-0.081376
 30
0.0
 11
34.530533
 21
-0.08082
 31
0.0
  0
LINE
  5
678
330
1F
100
AcDbEntity
  8
1
  6
CONTINUOUS
370
50
 62
4
100
AcDbLine
 10
34.521061
 20
0.028185
 30
0.0
 11
34.522865
 21
0.030366
 31
0.0
  0
LINE
  5
679
330
1F
100
AcDbEntity
  8
1
  6
CONTINUOUS
370
50
 62
4
100
AcDbLine
 10
34.978828
 20
-0.061485
 30
0.0
 11
34.980438
 21
-0.059414
 31
0.0
  0
LINE
  5
67A
330
1F
100
AcDbEntity
  8
1
  6
CONTINUOUS
370
50
 62
4
100
AcDbLine
 10
34.954567
 20
-0.042415
 30
0.0
 11
34.957458
 21
-0.038642
 31
0.0
  0
LINE
  5
67B
330
1F
100
AcDbEntity
  8
1
  6
CONTINUOUS
370
50
 62
4
100
AcDbLine
 10
34.519398
 20
0.025981
 30
0.0
 11
34.521061
 21
0.028185
 31
0.0
  0
LINE
  5
67C
330
1F
100
AcDbEntity
  8
1
  6
CONTINUOUS
370
50
 62
4
100
AcDbLine
 10
34.527058
 20
-0.085449
 30
0.0
 11
34.52879
 21
-0.083119
 31
0.0
  0
LINE
  5
67D
330
1F
100
AcDbEntity
  8
1
  6
CONTINUOUS
370
50
 62
4
100
AcDbLine
 10
34.528793
 20
-0.083113
 30
0.0
 11
34.530067
 21
-0.081376
 31
0.0
  0
LINE
  5
67E
330
1F
100
AcDbEntity
  8
1
  6
CONTINUOUS
370
50
 62
4
100
AcDbLine
 10
34.957458
 20
-0.038642
 30
0.0
 11
34.960217
 21
-0.03465
 31
0.0
  0
LINE
  5
67F
330
1F
100
AcDbEntity
  8
1
  6
CONTINUOUS
370
50
 62
4
100
AcDbLine
 10
34.517868
 20
0.023758
 30
0.0
 11
34.519398
 21
0.025981
 31
0.0
  0
LINE
  5
680
330
1F
100
AcDbEntity
  8
1
  6
CONTINUOUS
370
50
 62
4
100
AcDbLine
 10
34.960217
 20
-0.03465
 30
0.0
 11
34.962845
 21
-0.030452
 31
0.0
  0
LINE
  5
681
330
1F
100
AcDbEntity
  8
1
  6
CONTINUOUS
370
50
 62
4
100
AcDbLine
 10
34.516476
 20
0.02152
 30
0.0
 11
34.517868
 21
0.023758
 31
0.0
  0
LINE
  5
682
330
1F
100
AcDbEntity
  8
1
  6
CONTINUOUS
370
50
 62
4
100
AcDbLine
 10
34.985798
 20
0.044276
 30
0.0
 11
34.986237
 21
0.045014
 31
0.0
  0
LINE
  5
683
330
1F
100
AcDbEntity
  8
1
  6
CONTINUOUS
370
50
 62
4
100
AcDbLine
 10
34.52879
 20
-0.083119
 30
0.0
 11
34.530338
 21
-0.080446
 31
0.0
  0
LINE
  5
684
330
1F
100
AcDbEntity
  8
1
  6
CONTINUOUS
370
50
 62
4
100
AcDbLine
 10
34.962845
 20
-0.030452
 30
0.0
 11
34.96534
 21
-0.026061
 31
0.0
  0
LINE
  5
685
330
1F
100
AcDbEntity
  8
1
  6
CONTINUOUS
370
50
 62
4
100
AcDbLine
 10
34.515221
 20
0.01927
 30
0.0
 11
34.516476
 21
0.02152
 31
0.0
  0
LINE
  5
686
330
1F
100
AcDbEntity
  8
1
  6
CONTINUOUS
370
50
 62
4
100
AcDbLine
 10
34.96534
 20
-0.026061
 30
0.0
 11
34.967674
 21
-0.021541
 31
0.0
  0
LINE
  5
687
330
1F
100
AcDbEntity
  8
1
  6
CONTINUOUS
370
50
 62
4
100
AcDbLine
 10
34.514107
 20
0.017012
 30
0.0
 11
34.515221
 21
0.01927
 31
0.0
  0
LINE
  5
688
330
1F
100
AcDbEntity
  8
1
  6
CONTINUOUS
370
50
 62
4
100
AcDbLine
 10
34.465462
 20
0.099616
 30
0.0
 11
34.465496
 21
0.099688
 31
0.0
  0
LINE
  5
689
330
1F
100
AcDbEntity
  8
1
  6
CONTINUOUS
370
50
 62
4
100
AcDbLine
 10
34.967674
 20
-0.021541
 30
0.0
 11
34.969818
 21
-0.016967
 31
0.0
  0
LINE
  5
68A
330
1F
100
AcDbEntity
  8
1
  6
CONTINUOUS
370
50
 62
4
100
AcDbLine
 10
34.530338
 20
-0.080446
 30
0.0
 11
34.531609
 21
-0.077532
 31
0.0
  0
LINE
  5
68B
330
1F
100
AcDbEntity
  8
1
  6
CONTINUOUS
370
50
 62
4
100
AcDbLine
 10
34.513119
 20
0.01471
 30
0.0
 11
34.514107
 21
0.017012
 31
0.0
  0
LINE
  5
68C
330
1F
100
AcDbEntity
  8
1
  6
CONTINUOUS
370
50
 62
4
100
AcDbLine
 10
34.969818
 20
-0.016967
 30
0.0
 11
34.971779
 21
-0.012355
 31
0.0
  0
LINE
  5
68D
330
1F
100
AcDbEntity
  8
1
  6
CONTINUOUS
370
50
 62
4
100
AcDbLine
 10
34.971779
 20
-0.012355
 30
0.0
 11
34.973568
 21
-0.007724
 31
0.0
  0
LINE
  5
68E
330
1F
100
AcDbEntity
  8
1
  6
CONTINUOUS
370
50
 62
4
100
AcDbLine
 10
34.51226
 20
0.012352
 30
0.0
 11
34.513119
 21
0.01471
 31
0.0
  0
LINE
  5
68F
330
1F
100
AcDbEntity
  8
1
  6
CONTINUOUS
370
50
 62
4
100
AcDbLine
 10
34.973568
 20
-0.007724
 30
0.0
 11
34.975185
 21
-0.003092
 31
0.0
  0
LINE
  5
690
330
1F
100
AcDbEntity
  8
1
  6
CONTINUOUS
370
50
 62
4
100
AcDbLine
 10
34.975185
 20
-0.003092
 30
0.0
 11
34.976398
 21
0.000728
 31
0.0
  0
LINE
  5
691
330
1F
100
AcDbEntity
  8
1
  6
CONTINUOUS
370
50
 62
4
100
AcDbLine
 10
34.531609
 20
-0.077532
 30
0.0
 11
34.532593
 21
-0.074375
 31
0.0
  0
LINE
  5
692
330
1F
100
AcDbEntity
  8
1
  6
CONTINUOUS
370
50
 62
4
100
AcDbLine
 10
34.511547
 20
0.009943
 30
0.0
 11
34.51226
 21
0.012352
 31
0.0
  0
LINE
  5
693
330
1F
100
AcDbEntity
  8
1
  6
CONTINUOUS
370
50
 62
4
100
AcDbLine
 10
34.976398
 20
0.000728
 30
0.0
 11
34.977501
 21
0.004514
 31
0.0
  0
LINE
  5
694
330
1F
100
AcDbEntity
  8
1
  6
CONTINUOUS
370
50
 62
4
100
AcDbLine
 10
34.977501
 20
0.004514
 30
0.0
 11
34.978493
 21
0.008251
 31
0.0
  0
LINE
  5
695
330
1F
100
AcDbEntity
  8
1
  6
CONTINUOUS
370
50
 62
4
100
AcDbLine
 10
34.978493
 20
0.008251
 30
0.0
 11
34.979374
 21
0.01193
 31
0.0
  0
LINE
  5
696
330
1F
100
AcDbEntity
  8
1
  6
CONTINUOUS
370
50
 62
4
100
AcDbLine
 10
34.51099
 20
0.007492
 30
0.0
 11
34.511547
 21
0.009943
 31
0.0
  0
LINE
  5
697
330
1F
100
AcDbEntity
  8
1
  6
CONTINUOUS
370
50
 62
4
100
AcDbLine
 10
34.979374
 20
0.01193
 30
0.0
 11
34.980148
 21
0.015543
 31
0.0
  0
LINE
  5
698
330
1F
100
AcDbEntity
  8
1
  6
CONTINUOUS
370
50
 62
4
100
AcDbLine
 10
34.532593
 20
-0.074375
 30
0.0
 11
34.533283
 21
-0.071022
 31
0.0
  0
LINE
  5
699
330
1F
100
AcDbEntity
  8
1
  6
CONTINUOUS
370
50
 62
4
100
AcDbLine
 10
34.986237
 20
0.045014
 30
0.0
 11
34.986435
 21
0.046002
 31
0.0
  0
LINE
  5
69A
330
1F
100
AcDbEntity
  8
1
  6
CONTINUOUS
370
50
 62
4
100
AcDbLine
 10
34.980148
 20
0.015543
 30
0.0
 11
34.98082
 21
0.019079
 31
0.0
  0
LINE
  5
69B
330
1F
100
AcDbEntity
  8
1
  6
CONTINUOUS
370
50
 62
4
100
AcDbLine
 10
34.98082
 20
0.019079
 30
0.0
 11
34.981388
 21
0.02253
 31
0.0
  0
LINE
  5
69C
330
1F
100
AcDbEntity
  8
1
  6
CONTINUOUS
370
50
 62
4
100
AcDbLine
 10
34.510612
 20
0.005006
 30
0.0
 11
34.51099
 21
0.007492
 31
0.0
  0
LINE
  5
69D
330
1F
100
AcDbEntity
  8
1
  6
CONTINUOUS
370
50
 62
4
100
AcDbLine
 10
34.533283
 20
-0.071022
 30
0.0
 11
34.533688
 21
-0.067489
 31
0.0
  0
LINE
  5
69E
330
1F
100
AcDbEntity
  8
1
  6
CONTINUOUS
370
50
 62
4
100
AcDbLine
 10
34.510426
 20
0.002501
 30
0.0
 11
34.510612
 21
0.005006
 31
0.0
  0
LINE
  5
69F
330
1F
100
AcDbEntity
  8
1
  6
CONTINUOUS
370
50
 62
4
100
AcDbLine
 10
34.533688
 20
-0.067489
 30
0.0
 11
34.533821
 21
-0.063783
 31
0.0
  0
LINE
  5
6A0
330
1F
100
AcDbEntity
  8
1
  6
CONTINUOUS
370
50
 62
4
100
AcDbLine
 10
34.981388
 20
0.023801
 30
0.0
 11
34.981392
 21
0.02422
 31
0.0
  0
LINE
  5
6A1
330
1F
100
AcDbEntity
  8
1
  6
CONTINUOUS
370
50
 62
4
100
AcDbLine
 10
34.985088
 20
0.041776
 30
0.0
 11
34.985104
 21
0.043816
 31
0.0
  0
LINE
  5
6A2
330
1F
100
AcDbEntity
  8
1
  6
CONTINUOUS
370
50
 62
4
100
AcDbLine
 10
34.985073
 20
0.039546
 30
0.0
 11
34.985088
 21
0.041776
 31
0.0
  0
LINE
  5
6A3
330
1F
100
AcDbEntity
  8
1
  6
CONTINUOUS
370
50
 62
4
100
AcDbLine
 10
34.98505
 20
0.034549
 30
0.0
 11
34.985062
 21
0.037134
 31
0.0
  0
LINE
  5
6A4
330
1F
100
AcDbEntity
  8
1
  6
CONTINUOUS
370
50
 62
4
100
AcDbLine
 10
34.985062
 20
0.037134
 30
0.0
 11
34.985073
 21
0.039546
 31
0.0
  0
LINE
  5
6A5
330
1F
100
AcDbEntity
  8
1
  6
CONTINUOUS
370
50
 62
4
100
AcDbLine
 10
34.985039
 20
0.0318
 30
0.0
 11
34.98505
 21
0.034549
 31
0.0
  0
LINE
  5
6A6
330
1F
100
AcDbEntity
  8
1
  6
CONTINUOUS
370
50
 62
4
100
AcDbLine
 10
34.985031
 20
0.028907
 30
0.0
 11
34.985039
 21
0.0318
 31
0.0
  0
LINE
  5
6A7
330
1F
100
AcDbEntity
  8
1
  6
CONTINUOUS
370
50
 62
4
100
AcDbLine
 10
34.985023
 20
0.025884
 30
0.0
 11
34.985031
 21
0.028907
 31
0.0
  0
LINE
  5
6A8
330
1F
100
AcDbEntity
  8
1
  6
CONTINUOUS
370
50
 62
4
100
AcDbLine
 10
27.4
 20
-1.99995
 30
0.0
 11
27.4
 21
1.99995
 31
0.0
  0
LINE
  5
6A9
330
1F
100
AcDbEntity
  8
1
  6
CONTINUOUS
370
50
 62
4
100
AcDbLine
 10
34.400002
 20
-0.09995
 30
0.0
 11
34.400002
 21
0.09995
 31
0.0
  0
LINE
  5
6AA
330
1F
100
AcDbEntity
  8
1
  6
CONTINUOUS
370
50
 62
4
100
AcDbLine
 10
34.599998
 20
-0.083831
 30
0.0
 11
34.599998
 21
0.083831
 31
0.0
  0
LINE
  5
6AB
330
1F
100
AcDbEntity
  8
1
  6
CONTINUOUS
370
50
 62
4
100
AcDbLine
 10
34.888531
 20
-0.067992
 30
0.0
 11
34.888531
 21
-0.067082
 31
0.0
  0
LINE
  5
6AC
330
1F
100
AcDbEntity
  8
1
  6
CONTINUOUS
370
50
 62
4
100
AcDbLine
 10
34.900002
 20
-0.083915
 30
0.0
 11
34.900002
 21
-0.073887
 31
0.0
  0
LINE
  5
6AD
330
1F
100
AcDbEntity
  8
1
  6
CONTINUOUS
370
50
 62
4
100
AcDbLine
 10
34.917233
 20
-0.075644
 30
0.0
 11
34.917233
 21
-0.065149
 31
0.0
  0
LINE
  5
6AE
330
1F
100
AcDbEntity
  8
1
  6
CONTINUOUS
370
50
 62
4
100
AcDbLine
 10
34.981388
 20
0.02253
 30
0.0
 11
34.981388
 21
0.023801
 31
0.0
  0
LINE
  5
6AF
330
1F
100
AcDbEntity
  8
1
  6
CONTINUOUS
370
50
 62
4
100
AcDbLine
 10
34.981392
 20
0.02422
 30
0.0
 11
34.981392
 21
0.025053
 31
0.0
  0
ELLIPSE
  5
6B0
330
1F
100
AcDbEntity
  8
1
  6
CONTINUOUS
370
50
 62
4
100
AcDbEllipse
 10
34.561896
 20
0.153828
 30
0.0
 11
0.08438097917155928
 21
0.05953302952184367
 31
0.0
210
0.0
220
0.0
230
0.9999999999999999
 40
0.8133603049928648
 41
4.408949254195701
 42
4.593864581487857
  0
ELLIPSE
  5
6B1
330
1F
100
AcDbEntity
  8
1
  6
CONTINUOUS
370
50
 62
4
100
AcDbEllipse
 10
34.561896
 20
0.153828
 30
0.0
 11
0.08438097917155928
 21
0.05953302952184367
 31
0.0
210
0.0
220
0.0
230
0.9999999999999999
 40
0.8133603049928648
 41
3.062583342636598
 42
3.12453048361358
  0
ELLIPSE
  5
6B2
330
1F
100
AcDbEntity
  8
1
  6
CONTINUOUS
370
50
 62
4
100
AcDbEllipse
 10
34.605866
 20
-0.091506
 30
0.0
 11
-0.08892207502332282
 21
0.06273689366351162
 31
0.0
210
0.0
220
0.0
230
0.9999999999999998
 40
0.8133642568533462
 41
5.290607917589342
 42
6.166780884997672
  0
ELLIPSE
  5
6B3
330
1F
100
AcDbEntity
  8
1
  6
CONTINUOUS
370
50
 62
4
100
AcDbEllipse
 10
34.616616
 20
-0.076269
 30
0.0
 11
-0.1227743161363045
 21
0.08662055191617708
 31
0.0
210
0.0
220
0.0
230
0.9999999999999998
 40
0.813362716088165
 41
5.351011386051717
 42
5.756024102736489
  0
ARC
  5
6B4
330
1F
100
AcDbEntity
  8
1
  6
CONTINUOUS
370
50
 62
4
100
AcDbCircle
 10
34.9
 20
0.0
 30
0.0
 40
0.0999999999999972
100
AcDbArc
 50
323.5762989491111
 51
36.42370105088886
  0
ELLIPSE
  5
6B5
330
1F
100
AcDbEntity
  8
1
  6
CONTINUOUS
370
50
 62
4
100
AcDbEllipse
 10
34.90625
 20
-0.020147
 30
0.0
 11
0.09247706056858718
 21
0.02868880476063216
 31
0.0
210
0.0
220
0.0
230
0.9999999999999998
 40
0.5367274666203721
 41
6.118187916708939
 42
6.691269843064012
  0
ELLIPSE
  5
6B6
330
1F
100
AcDbEntity
  8
1
  6
CONTINUOUS
370
50
 62
4
100
AcDbEllipse
 10
34.906691
 20
-0.020052
 30
0.0
 11
0.08908001481325199
 21
0.02763495225019975
 31
0.0
210
0.0
220
0.0
230
0.9999999999999997
 40
0.5367324198623862
 41
6.1348873357455
 42
6.714884993801941
  0
ELLIPSE
  5
6B7
330
1F
100
AcDbEntity
  8
1
  6
CONTINUOUS
370
50
 62
4
100
AcDbEllipse
 10
34.925
 20
0.005352
 30
0.0
 11
-0.01812947105162266
 21
0.0846838991567366
 31
0.0
210
0.0
220
0.0
230
0.9999999999999998
 40
0.8593837068761423
 41
2.557611405738592
 42
4.468245418094824
  0
ELLIPSE
  5
6B8
330
1F
100
AcDbEntity
  8
1
  6
CONTINUOUS
370
50
 62
4
100
AcDbEllipse
 10
34.925352
 20
0.005327
 30
0.0
 11
-0.0173153165381095
 21
0.08088093223489154
 31
0.0
210
0.0
220
0.0
230
1.0
 40
0.8593853312837041
 41
2.783844023221268
 42
4.468244974735306
  0
ELLIPSE
  5
6B9
330
1F
100
AcDbEntity
  8
1
  6
CONTINUOUS
370
50
 62
4
100
AcDbEllipse
 10
34.954271
 20
0.003263
 30
0.0
 11
-0.153396955592374
 21
0.01557143747351362
 31
0.0
210
0.0
220
0.0
230
0.9999999999999999
 40
0.5430227460649123
 41
1.183672521870993
 42
1.382375367772598
  0
ELLIPSE
  5
6BA
330
1F
100
AcDbEntity
  8
1
  6
CONTINUOUS
370
50
 62
4
100
AcDbEllipse
 10
35.0001
 20
-0.000007
 30
0.0
 11
-0.1729500503092645
 21
0.01830552468582258
 31
0.0
210
0.0
220
0.0
230
1.0
 40
0.5686266002756152
 41
0.9312756516782887
 42
1.014959192677956
  0
LINE
  5
6BB
330
1F
100
AcDbEntity
  8
CUT
  6
CONTINUOUS
370
25
 62
1
100
AcDbLine
 10
34.59999999999999
 20
0.0
 30
0.0
 11
34.99999999999999
 21
0.0
 31
0.0
  0
ARC
  5
6BC
330
1F
100
AcDbEntity
  8
CUT
  6
CONTINUOUS
370
25
 62
1
100
AcDbCircle
 10
34.89999999999999
 20
0.0
 30
0.0
 40
0.1000000000000014
100
AcDbArc
 50
0.0
 51
90.0
  0
LINE
  5
6BD
330
1F
100
AcDbEntity
  8
CUT
  6
CONTINUOUS
370
25
 62
1
100
AcDbLine
 10
34.89999999999999
 20
0.1
 30
0.0
 11
34.59999999999999
 21
0.0999
 31
0.0
  0
LINE
  5
6BE
330
1F
100
AcDbEntity
  8
CUT
  6
CONTINUOUS
370
25
 62
1
100
AcDbLine
 10
34.59999999999999
 20
0.0999
 30
0.0
 11
34.59999999999999
 21
0.0
 31
0.0
  0
LINE
  5
6BF
330
1F
100
AcDbEntity
  8
NOCUT
  6
CONTINUOUS
370
25
 62
7
100
AcDbLine
 10
27.4
 20
0.0
 30
0.0
 11
34.59999999999999
 21
0.0
 31
0.0
  0
LINE
  5
6C0
330
1F
100
AcDbEntity
  8
NOCUT
  6
CONTINUOUS
370
25
 62
7
100
AcDbLine
 10
34.59999999999999
 20
0.0
 30
0.0
 11
34.59999999999999
 21
0.09995
 31
0.0
  0
LINE
  5
6C1
330
1F
100
AcDbEntity
  8
NOCUT
  6
CONTINUOUS
370
25
 62
7
100
AcDbLine
 10
34.59999999999999
 20
0.09995
 30
0.0
 11
34.4
 21
0.09995
 31
0.0
  0
LINE
  5
6C2
330
1F
100
AcDbEntity
  8
NOCUT
  6
CONTINUOUS
370
25
 62
7
100
AcDbLine
 10
34.4
 20
0.09995
 30
0.0
 11
27.4
 21
1.99995
 31
0.0
  0
LINE
  5
6C3
330
1F
100
AcDbEntity
  8
NOCUT
  6
CONTINUOUS
370
25
 62
7
100
AcDbLine
 10
27.4
 20
1.99995
 30
0.0
 11
27.4
 21
0.0
 31
0.0
  0
LINE
  5
6C4
330
1F
100
AcDbEntity
  8
SK1
  6
CONTINUOUS
370
50
 62
4
100
AcDbLine
 10
27.4
 20
2.0
 30
0.0
 11
0.3000000000000007
 21
2.0
 31
0.0
  0
LINE
  5
6C5
330
1F
100
AcDbEntity
  8
SK1
  6
CONTINUOUS
370
50
 62
4
100
AcDbLine
 10
0.3000000000000007
 20
2.0
 30
0.0
 11
0.0
 21
1.7
 31
0.0
  0
LINE
  5
6C6
330
1F
100
AcDbEntity
  8
SK1
  6
CONTINUOUS
370
50
 62
4
100
AcDbLine
 10
0.0
 20
1.7
 30
0.0
 11
0.0
 21
-1.7
 31
0.0
  0
LINE
  5
6C7
330
1F
100
AcDbEntity
  8
SK1
  6
CONTINUOUS
370
50
 62
4
100
AcDbLine
 10
0.0
 20
-1.7
 30
0.0
 11
0.3000000000000007
 21
-2.0
 31
0.0
  0
LINE
  5
6C8
330
1F
100
AcDbEntity
  8
SK1
  6
CONTINUOUS
370
50
 62
4
100
AcDbLine
 10
0.3000000000000007
 20
-2.0
 30
0.0
 11
27.4
 21
-2.0
 31
0.0
  0
LINE
  5
6C9
330
1F
100
AcDbEntity
  8
SK1
  6
CONTINUOUS
370
50
 62
4
100
AcDbLine
 10
0.3000000000000007
 20
2.0
 30
0.0
 11
0.3000000000000007
 21
-2.0
 31
0.0
  0
LINE
  5
6CA
330
1F
100
AcDbEntity
  8
SK2
  6
CONTINUOUS
370
25
 62
7
100
AcDbLine
 10
-12.0000002
 20
-2.000001
 30
0.0
 11
-13.00000000000008
 21
-2.000001
 31
0.0
  0
LINE
  5
6CB
330
1F
100
AcDbEntity
  8
SK2
  6
CONTINUOUS
370
25
 62
7
100
AcDbLine
 10
0.0
 20
-2.000001
 30
0.0
 11
-11.9999998
 21
-2.000001
 31
0.0
  0
LINE
  5
6CC
330
1F
100
AcDbEntity
  8
SK2
  6
CONTINUOUS
370
25
 62
7
100
AcDbLine
 10
-13.0
 20
2.0
 30
0.0
 11
0.0
 21
2.0
 31
0.0
  0
LINE
  5
6CD
330
1F
100
AcDbEntity
  8
SK2
  6
CONTINUOUS
370
25
 62
7
100
AcDbLine
 10
-12.0
 20
-9.0
 30
0.0
 11
-12.0
 21
15.475
 31
0.0
  0
LINE
  5
6CE
330
1F
100
AcDbEntity
  8
SK2
  6
CONTINUOUS
370
25
 62
7
100
AcDbLine
 10
-12.0
 20
-2.0
 30
0.0
 11
-11.0
 21
-7.0
 31
0.0
  0
LINE
  5
6CF
330
1F
100
AcDbEntity
  8
SK2
  6
CONTINUOUS
370
25
 62
7
100
AcDbLine
 10
-11.0
 20
-7.0
 30
0.0
 11
-13.0
 21
-7.0
 31
0.0
  0
LINE
  5
6D0
330
1F
100
AcDbEntity
  8
SK2
  6
CONTINUOUS
370
25
 62
7
100
AcDbLine
 10
-13.0
 20
-7.0
 30
0.0
 11
-12.0
 21
-2.0
 31
0.0
  0
LINE
  5
6D1
330
1F
100
AcDbEntity
  8
SK2
  6
CONTINUOUS
370
25
 62
7
100
AcDbLine
 10
-11.41980515339463
 20
-7.0
 30
0.0
 11
-11.06996752556577
 21
-6.650162372171145
 31
0.0
  0
LINE
  5
6D2
330
1F
100
AcDbEntity
  8
SK2
  6
CONTINUOUS
370
25
 62
7
100
AcDbLine
 10
-11.84406922210655
 20
-7.0
 30
0.0
 11
-11.14067820368443
 21
-6.296608981577876
 31
0.0
  0
LINE
  5
6D3
330
1F
100
AcDbEntity
  8
SK2
  6
CONTINUOUS
370
25
 62
7
100
AcDbLine
 10
-12.26833329081849
 20
-7.0
 30
0.0
 11
-11.21138888180309
 21
-5.943055590984599
 31
0.0
  0
LINE
  5
6D4
330
1F
100
AcDbEntity
  8
SK2
  6
CONTINUOUS
370
25
 62
7
100
AcDbLine
 10
-12.69259735953041
 20
-7.0
 30
0.0
 11
-11.28209955992174
 21
-5.589502200391323
 31
0.0
  0
LINE
  5
6D5
330
1F
100
AcDbEntity
  8
SK2
  6
CONTINUOUS
370
25
 62
7
100
AcDbLine
 10
-12.97078464293942
 20
-6.853923214697076
 30
0.0
 11
-11.35281023804039
 21
-5.235948809798039
 31
0.0
  0
LINE
  5
6D6
330
1F
100
AcDbEntity
  8
SK2
  6
CONTINUOUS
370
25
 62
7
100
AcDbLine
 10
-12.86471862576143
 20
-6.323593128807161
 30
0.0
 11
-11.42352091615905
 21
-4.882395419204776
 31
0.0
  0
LINE
  5
6D7
330
1F
100
AcDbEntity
  8
SK2
  6
CONTINUOUS
370
25
 62
7
100
AcDbLine
 10
-12.75865260858345
 20
-5.793263042917239
 30
0.0
 11
-11.49423159427771
 21
-4.5288420286115
 31
0.0
  0
LINE
  5
6D8
330
1F
100
AcDbEntity
  8
SK2
  6
CONTINUOUS
370
25
 62
7
100
AcDbLine
 10
-12.65258659140547
 20
-5.262932957027331
 30
0.0
 11
-11.56494227239636
 21
-4.175288638018223
 31
0.0
  0
LINE
  5
6D9
330
1F
100
AcDbEntity
  8
SK2
  6
CONTINUOUS
370
25
 62
7
100
AcDbLine
 10
-12.54652057422749
 20
-4.732602871137416
 30
0.0
 11
-11.63565295051501
 21
-3.82173524742494
 31
0.0
  0
LINE
  5
6DA
330
1F
100
AcDbEntity
  8
SK2
  6
CONTINUOUS
370
25
 62
7
100
AcDbLine
 10
-12.44045455704951
 20
-4.202272785247509
 30
0.0
 11
-11.70636362863367
 21
-3.46818185683167
 31
0.0
  0
LINE
  5
6DB
330
1F
100
AcDbEntity
  8
SK2
  6
CONTINUOUS
370
25
 62
7
100
AcDbLine
 10
-12.33438853987152
 20
-3.671942699357587
 30
0.0
 11
-11.77707430675233
 21
-3.114628466238393
 31
0.0
  0
LINE
  5
6DC
330
1F
100
AcDbEntity
  8
SK2
  6
CONTINUOUS
370
25
 62
7
100
AcDbLine
 10
-12.22832252269354
 20
-3.141612613467679
 30
0.0
 11
-11.84778498487098
 21
-2.761075075645117
 31
0.0
  0
LINE
  5
6DD
330
1F
100
AcDbEntity
  8
SK2
  6
CONTINUOUS
370
25
 62
7
100
AcDbLine
 10
-12.12225650551555
 20
-2.611282527577757
 30
0.0
 11
-11.91849566298963
 21
-2.40752168505184
 31
0.0
  0
LINE
  5
6DE
330
1F
100
AcDbEntity
  8
SK2
  6
CONTINUOUS
370
25
 62
7
100
AcDbLine
 10
-12.01619048833757
 20
-2.080952441687842
 30
0.0
 11
-11.98920634110829
 21
-2.053968294458556
 31
0.0
  0
LINE
  5
6DF
330
1F
100
AcDbEntity
  8
SK2
  6
CONTINUOUS
370
25
 62
7
100
AcDbLine
 10
-12.99783109313614
 20
-6.98915546568071
 30
0.0
 11
-12.98698655881685
 21
-7.0
 31
0.0
  0
LINE
  5
6E0
330
1F
100
AcDbEntity
  8
SK2
  6
CONTINUOUS
370
25
 62
7
100
AcDbLine
 10
-12.92712041501749
 20
-6.635602075087426
 30
0.0
 11
-12.56272249010492
 21
-7.0
 31
0.0
  0
LINE
  5
6E1
330
1F
100
AcDbEntity
  8
SK2
  6
CONTINUOUS
370
25
 62
7
100
AcDbLine
 10
-12.85640973689883
 20
-6.282048684494157
 30
0.0
 11
-12.13845842139299
 21
-7.0
 31
0.0
  0
LINE
  5
6E2
330
1F
100
AcDbEntity
  8
SK2
  6
CONTINUOUS
370
25
 62
7
100
AcDbLine
 10
-12.78569905878017
 20
-5.92849529390088
 30
0.0
 11
-11.71419435268106
 21
-7.0
 31
0.0
  0
LINE
  5
6E3
330
1F
100
AcDbEntity
  8
SK2
  6
CONTINUOUS
370
25
 62
7
100
AcDbLine
 10
-12.71498838066152
 20
-5.574941903307597
 30
0.0
 11
-11.28993028396911
 21
-7.0
 31
0.0
  0
LINE
  5
6E4
330
1F
100
AcDbEntity
  8
SK2
  6
CONTINUOUS
370
25
 62
7
100
AcDbLine
 10
-12.64427770254287
 20
-5.221388512714327
 30
0.0
 11
-11.0335834461857
 21
-6.832082769071491
 31
0.0
  0
LINE
  5
6E5
330
1F
100
AcDbEntity
  8
SK2
  6
CONTINUOUS
370
25
 62
7
100
AcDbLine
 10
-12.57356702442421
 20
-4.867835122121043
 30
0.0
 11
-11.13964946336369
 21
-6.301752683181569
 31
0.0
  0
LINE
  5
6E6
330
1F
100
AcDbEntity
  8
SK2
  6
CONTINUOUS
370
25
 62
7
100
AcDbLine
 10
-12.50285634630556
 20
-4.514281731527774
 30
0.0
 11
-11.24571548054167
 21
-5.771422597291661
 31
0.0
  0
LINE
  5
6E7
330
1F
100
AcDbEntity
  8
SK2
  6
CONTINUOUS
370
25
 62
7
100
AcDbLine
 10
-12.4321456681869
 20
-4.160728340934497
 30
0.0
 11
-11.35178149771966
 21
-5.241092511401739
 31
0.0
  0
LINE
  5
6E8
330
1F
100
AcDbEntity
  8
SK2
  6
CONTINUOUS
370
25
 62
7
100
AcDbLine
 10
-12.36143499006825
 20
-3.807174950341221
 30
0.0
 11
-11.45784751489764
 21
-4.710762425511831
 31
0.0
  0
LINE
  5
6E9
330
1F
100
AcDbEntity
  8
SK2
  6
CONTINUOUS
370
25
 62
7
100
AcDbLine
 10
-12.29072431194959
 20
-3.453621559747944
 30
0.0
 11
-11.56391353207562
 21
-4.180432339621909
 31
0.0
  0
LINE
  5
6EA
330
1F
100
AcDbEntity
  8
SK2
  6
CONTINUOUS
370
25
 62
7
100
AcDbLine
 10
-12.22001363383093
 20
-3.100068169154667
 30
0.0
 11
-11.6699795492536
 21
-3.650102253731994
 31
0.0
  0
LINE
  5
6EB
330
1F
100
AcDbEntity
  8
SK2
  6
CONTINUOUS
370
25
 62
7
100
AcDbLine
 10
-12.14930295571228
 20
-2.746514778561398
 30
0.0
 11
-11.77604556643158
 21
-3.119772167842093
 31
0.0
  0
LINE
  5
6EC
330
1F
100
AcDbEntity
  8
SK2
  6
CONTINUOUS
370
25
 62
7
100
AcDbLine
 10
-12.07859227759362
 20
-2.392961387968121
 30
0.0
 11
-11.88211158360957
 21
-2.589442081952171
 31
0.0
  0
LINE
  5
6ED
330
1F
100
AcDbEntity
  8
SK2
  6
CONTINUOUS
370
25
 62
7
100
AcDbLine
 10
-12.00788159947497
 20
-2.039407997374845
 30
0.0
 11
-11.98817760078755
 21
-2.059111996062263
 31
0.0
  0
LINE
  5
6EE
330
1F
100
AcDbEntity
  8
SK2
  6
CONTINUOUS
370
25
 62
7
100
AcDbLine
 10
-12.0
 20
2.0
 30
0.0
 11
-13.0
 21
7.0
 31
0.0
  0
LINE
  5
6EF
330
1F
100
AcDbEntity
  8
SK2
  6
CONTINUOUS
370
25
 62
7
100
AcDbLine
 10
-13.0
 20
7.0
 30
0.0
 11
-11.0
 21
7.0
 31
0.0
  0
LINE
  5
6F0
330
1F
100
AcDbEntity
  8
SK2
  6
CONTINUOUS
370
25
 62
7
100
AcDbLine
 10
-11.0
 20
7.0
 30
0.0
 11
-12.0
 21
2.0
 31
0.0
  0
LINE
  5
6F1
330
1F
100
AcDbEntity
  8
SK2
  6
CONTINUOUS
370
25
 62
7
100
AcDbLine
 10
-12.02964645562817
 20
2.148232278140817
 30
0.0
 11
-11.95553031655776
 21
2.222348417211229
 31
0.0
  0
LINE
  5
6F2
330
1F
100
AcDbEntity
  8
SK2
  6
CONTINUOUS
370
25
 62
7
100
AcDbLine
 10
-12.10035713374682
 20
2.501785668734101
 30
0.0
 11
-11.84946429937978
 21
2.752678503101144
 31
0.0
  0
LINE
  5
6F3
330
1F
100
AcDbEntity
  8
SK2
  6
CONTINUOUS
370
25
 62
7
100
AcDbLine
 10
-12.17106781186547
 20
2.855339059327378
 30
0.0
 11
-11.7433982822018
 21
3.283008588991052
 31
0.0
  0
LINE
  5
6F4
330
1F
100
AcDbEntity
  8
SK2
  6
CONTINUOUS
370
25
 62
7
100
AcDbLine
 10
-12.24177848998413
 20
3.208892449920654
 30
0.0
 11
-11.63733226502381
 21
3.813338674880974
 31
0.0
  0
LINE
  5
6F5
330
1F
100
AcDbEntity
  8
SK2
  6
CONTINUOUS
370
25
 62
7
100
AcDbLine
 10
-12.31248916810279
 20
3.562445840513924
 30
0.0
 11
-11.53126624784583
 21
4.343668760770882
 31
0.0
  0
LINE
  5
6F6
330
1F
100
AcDbEntity
  8
SK2
  6
CONTINUOUS
370
25
 62
7
100
AcDbLine
 10
-12.38319984622144
 20
3.915999231107207
 30
0.0
 11
-11.42520023066785
 21
4.873998846660797
 31
0.0
  0
LINE
  5
6F7
330
1F
100
AcDbEntity
  8
SK2
  6
CONTINUOUS
370
25
 62
7
100
AcDbLine
 10
-12.4539105243401
 20
4.269552621700477
 30
0.0
 11
-11.31913421348986
 21
5.404328932550712
 31
0.0
  0
LINE
  5
6F8
330
1F
100
AcDbEntity
  8
SK2
  6
CONTINUOUS
370
25
 62
7
100
AcDbLine
 10
-12.52462120245875
 20
4.623106012293754
 30
0.0
 11
-11.21306819631187
 21
5.934659018440634
 31
0.0
  0
LINE
  5
6F9
330
1F
100
AcDbEntity
  8
SK2
  6
CONTINUOUS
370
25
 62
7
100
AcDbLine
 10
-12.59533188057741
 20
4.97665940288703
 30
0.0
 11
-11.10700217913389
 21
6.464989104330556
 31
0.0
  0
LINE
  5
6FA
330
1F
100
AcDbEntity
  8
SK2
  6
CONTINUOUS
370
25
 62
7
100
AcDbLine
 10
-12.66604255869607
 20
5.3302127934803
 30
0.0
 11
-11.00093616195591
 21
6.995319190220464
 31
0.0
  0
LINE
  5
6FB
330
1F
100
AcDbEntity
  8
SK2
  6
CONTINUOUS
370
25
 62
7
100
AcDbLine
 10
-12.73675323681472
 20
5.683766184073576
 30
0.0
 11
-11.4205194208883
 21
7.0
 31
0.0
  0
LINE
  5
6FC
330
1F
100
AcDbEntity
  8
SK2
  6
CONTINUOUS
370
25
 62
7
100
AcDbLine
 10
-12.80746391493337
 20
6.037319574666853
 30
0.0
 11
-11.84478348960022
 21
7.0
 31
0.0
  0
LINE
  5
6FD
330
1F
100
AcDbEntity
  8
SK2
  6
CONTINUOUS
370
25
 62
7
100
AcDbLine
 10
-12.87817459305203
 20
6.390872965260129
 30
0.0
 11
-12.26904755831216
 21
7.0
 31
0.0
  0
LINE
  5
6FE
330
1F
100
AcDbEntity
  8
SK2
  6
CONTINUOUS
370
25
 62
7
100
AcDbLine
 10
-12.94888527117069
 20
6.744426355853399
 30
0.0
 11
-12.69331162702409
 21
7.0
 31
0.0
  0
LINE
  5
6FF
330
1F
100
AcDbEntity
  8
SK2
  6
CONTINUOUS
370
25
 62
7
100
AcDbLine
 10
-12.09406505109212
 20
2.470325255460558
 30
0.0
 11
-11.9372899659386
 21
2.313550170307039
 31
0.0
  0
LINE
  5
700
330
1F
100
AcDbEntity
  8
SK2
  6
CONTINUOUS
370
25
 62
7
100
AcDbLine
 10
-12.2001310682701
 20
3.00065534135048
 30
0.0
 11
-11.86657928781994
 21
2.667103560900316
 31
0.0
  0
LINE
  5
701
330
1F
100
AcDbEntity
  8
SK2
  6
CONTINUOUS
370
25
 62
7
100
AcDbLine
 10
-12.30619708544808
 20
3.530985427240388
 30
0.0
 11
-11.79586860970128
 21
3.020656951493585
 31
0.0
  0
LINE
  5
702
330
1F
100
AcDbEntity
  8
SK2
  6
CONTINUOUS
370
25
 62
7
100
AcDbLine
 10
-12.41226310262606
 20
4.061315513130303
 30
0.0
 11
-11.72515793158263
 21
3.374210342086869
 31
0.0
  0
LINE
  5
703
330
1F
100
AcDbEntity
  8
SK2
  6
CONTINUOUS
370
25
 62
7
100
AcDbLine
 10
-12.51832911980405
 20
4.591645599020218
 30
0.0
 11
-11.65444725346397
 21
3.727763732680145
 31
0.0
  0
LINE
  5
704
330
1F
100
AcDbEntity
  8
SK2
  6
CONTINUOUS
370
25
 62
7
100
AcDbLine
 10
-12.62439513698202
 20
5.121975684910126
 30
0.0
 11
-11.58373657534532
 21
4.081317123273429
 31
0.0
  0
LINE
  5
705
330
1F
100
AcDbEntity
  8
SK2
  6
CONTINUOUS
370
25
 62
7
100
AcDbLine
 10
-12.73046115416001
 20
5.652305770800041
 30
0.0
 11
-11.51302589722666
 21
4.434870513866699
 31
0.0
  0
LINE
  5
706
330
1F
100
AcDbEntity
  8
SK2
  6
CONTINUOUS
370
25
 62
7
100
AcDbLine
 10
-12.83652717133799
 20
6.182635856689956
 30
0.0
 11
-11.442315219108
 21
4.788423904459975
 31
0.0
  0
LINE
  5
707
330
1F
100
AcDbEntity
  8
SK2
  6
CONTINUOUS
370
25
 62
7
100
AcDbLine
 10
-12.94259318851597
 20
6.712965942579864
 30
0.0
 11
-11.37160454098935
 21
5.141977295053245
 31
0.0
  0
LINE
  5
708
330
1F
100
AcDbEntity
  8
SK2
  6
CONTINUOUS
370
25
 62
7
100
AcDbLine
 10
-12.80536317722417
 20
7.0
 30
0.0
 11
-11.30089386287069
 21
5.495530685646528
 31
0.0
  0
LINE
  5
709
330
1F
100
AcDbEntity
  8
SK2
  6
CONTINUOUS
370
25
 62
7
100
AcDbLine
 10
-12.38109910851225
 20
7.0
 30
0.0
 11
-11.23018318475204
 21
5.849084076239805
 31
0.0
  0
LINE
  5
70A
330
1F
100
AcDbEntity
  8
SK2
  6
CONTINUOUS
370
25
 62
7
100
AcDbLine
 10
-11.95683503980031
 20
7.0
 30
0.0
 11
-11.15947250663339
 21
6.202637466833075
 31
0.0
  0
LINE
  5
70B
330
1F
100
AcDbEntity
  8
SK2
  6
CONTINUOUS
370
25
 62
7
100
AcDbLine
 10
-11.53257097108838
 20
7.0
 30
0.0
 11
-11.08876182851473
 21
6.556190857426351
 31
0.0
  0
LINE
  5
70C
330
1F
100
AcDbEntity
  8
SK2
  6
CONTINUOUS
370
25
 62
7
100
AcDbLine
 10
-11.10830690237645
 20
7.0
 30
0.0
 11
-11.01805115039608
 21
6.909744248019628
 31
0.0
  0
TEXT
  5
70D
330
1F
100
AcDbEntity
  8
SK2
  6
CONTINUOUS
370
25
 62
7
100
AcDbText
 10
-13.5
 20
12.34583333333333
 30
0.0
 40
3.5
  1
4
 50
90.00000000000001
 72
     1
 11
-13.5
 21
13.5125
 31
0.0
100
AcDbText
  0
CIRCLE
  5
70E
330
1F
100
AcDbEntity
  8
SK2
  6
CONTINUOUS
370
25
 62
7
100
AcDbCircle
 10
-15.25
 20
10.1875
 30
0.0
 40
1.4
  0
LINE
  5
70F
330
1F
100
AcDbEntity
  8
SK2
  6
CONTINUOUS
370
25
 62
7
100
AcDbLine
 10
-13.85
 20
8.787500000000001
 30
0.0
 11
-16.65
 21
11.5875
 31
0.0
  0
LINE
  5
710
330
1F
100
AcDbEntity
  8
SK2
  6
CONTINUOUS
370
25
 62
7
100
AcDbLine
 10
0.0
 20
2.0
 30
0.0
 11
0.0
 21
15.00001
 31
0.0
  0
LINE
  5
711
330
1F
100
AcDbEntity
  8
SK2
  6
CONTINUOUS
370
25
 62
7
100
AcDbLine
 10
27.4
 20
15.00001
 30
0.0
 11
27.4
 21
2.0
 31
0.0
  0
LINE
  5
712
330
1F
100
AcDbEntity
  8
SK2
  6
CONTINUOUS
370
25
 62
7
100
AcDbLine
 10
0.0
 20
14.00001
 30
0.0
 11
27.4
 21
14.00001
 31
0.0
  0
LINE
  5
713
330
1F
100
AcDbEntity
  8
SK2
  6
CONTINUOUS
370
25
 62
7
100
AcDbLine
 10
0.0
 20
14.00001
 30
0.0
 11
5.0
 21
15.00001
 31
0.0
  0
LINE
  5
714
330
1F
100
AcDbEntity
  8
SK2
  6
CONTINUOUS
370
25
 62
7
100
AcDbLine
 10
5.0
 20
15.00001
 30
0.0
 11
5.0
 21
13.00001
 31
0.0
  0
LINE
  5
715
330
1F
100
AcDbEntity
  8
SK2
  6
CONTINUOUS
370
25
 62
7
100
AcDbLine
 10
5.0
 20
13.00001
 30
0.0
 11
0.0
 21
14.00001
 31
0.0
  0
LINE
  5
716
330
1F
100
AcDbEntity
  8
SK2
  6
CONTINUOUS
370
25
 62
7
100
AcDbLine
 10
4.801523523498346
 20
13.03970529530033
 30
0.0
 11
5.0
 21
13.23818177180198
 31
0.0
  0
LINE
  5
717
330
1F
100
AcDbEntity
  8
SK2
  6
CONTINUOUS
370
25
 62
7
100
AcDbLine
 10
4.447970132905073
 20
13.11041597341898
 30
0.0
 11
5.0
 21
13.66244584051391
 31
0.0
  0
LINE
  5
718
330
1F
100
AcDbEntity
  8
SK2
  6
CONTINUOUS
370
25
 62
7
100
AcDbLine
 10
4.0944167423118
 20
13.18112665153764
 30
0.0
 11
5.0
 21
14.08670990922583
 31
0.0
  0
LINE
  5
719
330
1F
100
AcDbEntity
  8
SK2
  6
CONTINUOUS
370
25
 62
7
100
AcDbLine
 10
3.740863351718527
 20
13.25183732965629
 30
0.0
 11
5.0
 21
14.51097397793776
 31
0.0
  0
LINE
  5
71A
330
1F
100
AcDbEntity
  8
SK2
  6
CONTINUOUS
370
25
 62
7
100
AcDbLine
 10
3.387309961125254
 20
13.32254800777495
 30
0.0
 11
5.0
 21
14.93523804664969
 31
0.0
  0
LINE
  5
71B
330
1F
100
AcDbEntity
  8
SK2
  6
CONTINUOUS
370
25
 62
7
100
AcDbLine
 10
3.033756570531981
 20
13.3932586858936
 30
0.0
 11
4.550634855797977
 21
14.9101369711596
 31
0.0
  0
LINE
  5
71C
330
1F
100
AcDbEntity
  8
SK2
  6
CONTINUOUS
370
25
 62
7
100
AcDbLine
 10
2.680203179938708
 20
13.46396936401226
 30
0.0
 11
4.020304769908069
 21
14.80407095398161
 31
0.0
  0
LINE
  5
71D
330
1F
100
AcDbEntity
  8
SK2
  6
CONTINUOUS
370
25
 62
7
100
AcDbLine
 10
2.326649789345435
 20
13.53468004213091
 30
0.0
 11
3.489974684018158
 21
14.69800493680363
 31
0.0
  0
LINE
  5
71E
330
1F
100
AcDbEntity
  8
SK2
  6
CONTINUOUS
370
25
 62
7
100
AcDbLine
 10
1.973096398752162
 20
13.60539072024957
 30
0.0
 11
2.959644598128246
 21
14.59193891962565
 31
0.0
  0
LINE
  5
71F
330
1F
100
AcDbEntity
  8
SK2
  6
CONTINUOUS
370
25
 62
7
100
AcDbLine
 10
1.619543008158889
 20
13.67610139836822
 30
0.0
 11
2.429314512238339
 21
14.48587290244767
 31
0.0
  0
LINE
  5
720
330
1F
100
AcDbEntity
  8
SK2
  6
CONTINUOUS
370
25
 62
7
100
AcDbLine
 10
1.265989617565616
 20
13.74681207648688
 30
0.0
 11
1.898984426348427
 21
14.37980688526969
 31
0.0
  0
LINE
  5
721
330
1F
100
AcDbEntity
  8
SK2
  6
CONTINUOUS
370
25
 62
7
100
AcDbLine
 10
0.9124362269723427
 20
13.81752275460553
 30
0.0
 11
1.368654340458519
 21
14.27374086809171
 31
0.0
  0
LINE
  5
722
330
1F
100
AcDbEntity
  8
SK2
  6
CONTINUOUS
370
25
 62
7
100
AcDbLine
 10
0.5588828363790697
 20
13.88823343272418
 30
0.0
 11
0.838324254568608
 21
14.16767485091372
 31
0.0
  0
LINE
  5
723
330
1F
100
AcDbEntity
  8
SK2
  6
CONTINUOUS
370
25
 62
7
100
AcDbLine
 10
0.2053294457857966
 20
13.95894411084284
 30
0.0
 11
0.3079941686787002
 21
14.06160883373574
 31
0.0
  0
LINE
  5
724
330
1F
100
AcDbEntity
  8
SK2
  6
CONTINUOUS
370
25
 62
7
100
AcDbLine
 10
0.1610152398238505
 20
14.03221304796477
 30
0.0
 11
0.2415228597357739
 21
13.95170542805285
 31
0.0
  0
LINE
  5
725
330
1F
100
AcDbEntity
  8
SK2
  6
CONTINUOUS
370
25
 62
7
100
AcDbLine
 10
0.5145686304171235
 20
14.10292372608343
 30
0.0
 11
0.7718529456256853
 21
13.84563941087486
 31
0.0
  0
LINE
  5
726
330
1F
100
AcDbEntity
  8
SK2
  6
CONTINUOUS
370
25
 62
7
100
AcDbLine
 10
0.8681220210103966
 20
14.17363440420208
 30
0.0
 11
1.302183031515597
 21
13.73957339369688
 31
0.0
  0
LINE
  5
727
330
1F
100
AcDbEntity
  8
SK2
  6
CONTINUOUS
370
25
 62
7
100
AcDbLine
 10
1.22167541160367
 20
14.24434508232073
 30
0.0
 11
1.832513117405504
 21
13.6335073765189
 31
0.0
  0
LINE
  5
728
330
1F
100
AcDbEntity
  8
SK2
  6
CONTINUOUS
370
25
 62
7
100
AcDbLine
 10
1.575228802196946
 20
14.31505576043939
 30
0.0
 11
2.362843203295416
 21
13.52744135934092
 31
0.0
  0
LINE
  5
729
330
1F
100
AcDbEntity
  8
SK2
  6
CONTINUOUS
370
25
 62
7
100
AcDbLine
 10
1.928782192790219
 20
14.38576643855804
 30
0.0
 11
2.893173289185327
 21
13.42137534216294
 31
0.0
  0
LINE
  5
72A
330
1F
100
AcDbEntity
  8
SK2
  6
CONTINUOUS
370
25
 62
7
100
AcDbLine
 10
2.282335583383492
 20
14.4564771166767
 30
0.0
 11
3.423503375075239
 21
13.31530932498495
 31
0.0
  0
LINE
  5
72B
330
1F
100
AcDbEntity
  8
SK2
  6
CONTINUOUS
370
25
 62
7
100
AcDbLine
 10
2.635888973976765
 20
14.52718779479535
 30
0.0
 11
3.95383346096515
 21
13.20924330780697
 31
0.0
  0
LINE
  5
72C
330
1F
100
AcDbEntity
  8
SK2
  6
CONTINUOUS
370
25
 62
7
100
AcDbLine
 10
2.989442364570035
 20
14.59789847291401
 30
0.0
 11
4.484163546855054
 21
13.10317729062899
 31
0.0
  0
LINE
  5
72D
330
1F
100
AcDbEntity
  8
SK2
  6
CONTINUOUS
370
25
 62
7
100
AcDbLine
 10
3.342995755163312
 20
14.66860915103266
 30
0.0
 11
5.0
 21
13.01160490619597
 31
0.0
  0
LINE
  5
72E
330
1F
100
AcDbEntity
  8
SK2
  6
CONTINUOUS
370
25
 62
7
100
AcDbLine
 10
3.696549145756585
 20
14.73931982915131
 30
0.0
 11
5.0
 21
13.4358689749079
 31
0.0
  0
LINE
  5
72F
330
1F
100
AcDbEntity
  8
SK2
  6
CONTINUOUS
370
25
 62
7
100
AcDbLine
 10
4.050102536349858
 20
14.81003050726997
 30
0.0
 11
5.0
 21
13.86013304361983
 31
0.0
  0
LINE
  5
730
330
1F
100
AcDbEntity
  8
SK2
  6
CONTINUOUS
370
25
 62
7
100
AcDbLine
 10
4.403655926943131
 20
14.88074118538863
 30
0.0
 11
5.0
 21
14.28439711233176
 31
0.0
  0
LINE
  5
731
330
1F
100
AcDbEntity
  8
SK2
  6
CONTINUOUS
370
25
 62
7
100
AcDbLine
 10
4.757209317536404
 20
14.95145186350728
 30
0.0
 11
5.0
 21
14.70866118104368
 31
0.0
  0
LINE
  5
732
330
1F
100
AcDbEntity
  8
SK2
  6
CONTINUOUS
370
25
 62
7
100
AcDbLine
 10
27.4
 20
14.00001
 30
0.0
 11
22.4
 21
13.00001
 31
0.0
  0
LINE
  5
733
330
1F
100
AcDbEntity
  8
SK2
  6
CONTINUOUS
370
25
 62
7
100
AcDbLine
 10
22.4
 20
13.00001
 30
0.0
 11
22.4
 21
15.00001
 31
0.0
  0
LINE
  5
734
330
1F
100
AcDbEntity
  8
SK2
  6
CONTINUOUS
370
25
 62
7
100
AcDbLine
 10
22.4
 20
15.00001
 30
0.0
 11
27.4
 21
14.00001
 31
0.0
  0
LINE
  5
735
330
1F
100
AcDbEntity
  8
SK2
  6
CONTINUOUS
370
25
 62
7
100
AcDbLine
 10
27.39911966563294
 20
13.99983393312659
 30
0.0
 11
27.39941311042196
 21
14.00012737791561
 31
0.0
  0
LINE
  5
736
330
1F
100
AcDbEntity
  8
SK2
  6
CONTINUOUS
370
25
 62
7
100
AcDbLine
 10
26.86878957974304
 20
13.89376791594861
 30
0.0
 11
27.04585971982869
 21
14.07083805603426
 31
0.0
  0
LINE
  5
737
330
1F
100
AcDbEntity
  8
SK2
  6
CONTINUOUS
370
25
 62
7
100
AcDbLine
 10
26.33845949385313
 20
13.78770189877063
 30
0.0
 11
26.69230632923542
 21
14.14154873415292
 31
0.0
  0
LINE
  5
738
330
1F
100
AcDbEntity
  8
SK2
  6
CONTINUOUS
370
25
 62
7
100
AcDbLine
 10
25.80812940796322
 20
13.68163588159264
 30
0.0
 11
26.33875293864214
 21
14.21225941227157
 31
0.0
  0
LINE
  5
739
330
1F
100
AcDbEntity
  8
SK2
  6
CONTINUOUS
370
25
 62
7
100
AcDbLine
 10
25.27779932207331
 20
13.57556986441466
 30
0.0
 11
25.98519954804887
 21
14.28297009039023
 31
0.0
  0
LINE
  5
73A
330
1F
100
AcDbEntity
  8
SK2
  6
CONTINUOUS
370
25
 62
7
100
AcDbLine
 10
24.7474692361834
 20
13.46950384723668
 30
0.0
 11
25.6316461574556
 21
14.35368076850888
 31
0.0
  0
LINE
  5
73B
330
1F
100
AcDbEntity
  8
SK2
  6
CONTINUOUS
370
25
 62
7
100
AcDbLine
 10
24.21713915029349
 20
13.3634378300587
 30
0.0
 11
25.27809276686232
 21
14.42439144662753
 31
0.0
  0
LINE
  5
73C
330
1F
100
AcDbEntity
  8
SK2
  6
CONTINUOUS
370
25
 62
7
100
AcDbLine
 10
23.68680906440358
 20
13.25737181288071
 30
0.0
 11
24.92453937626905
 21
14.49510212474619
 31
0.0
  0
LINE
  5
73D
330
1F
100
AcDbEntity
  8
SK2
  6
CONTINUOUS
370
25
 62
7
100
AcDbLine
 10
23.15647897851367
 20
13.15130579570273
 30
0.0
 11
24.57098598567578
 21
14.56581280286484
 31
0.0
  0
LINE
  5
73E
330
1F
100
AcDbEntity
  8
SK2
  6
CONTINUOUS
370
25
 62
7
100
AcDbLine
 10
22.62614889262376
 20
13.04523977852475
 30
0.0
 11
24.21743259508251
 21
14.6365234809835
 31
0.0
  0
LINE
  5
73F
330
1F
100
AcDbEntity
  8
SK2
  6
CONTINUOUS
370
25
 62
7
100
AcDbLine
 10
22.4
 20
13.24335495461292
 30
0.0
 11
23.86387920448923
 21
14.70723415910215
 31
0.0
  0
LINE
  5
740
330
1F
100
AcDbEntity
  8
SK2
  6
CONTINUOUS
370
25
 62
7
100
AcDbLine
 10
22.4
 20
13.66761902332485
 30
0.0
 11
23.51032581389596
 21
14.77794483722081
 31
0.0
  0
LINE
  5
741
330
1F
100
AcDbEntity
  8
SK2
  6
CONTINUOUS
370
25
 62
7
100
AcDbLine
 10
22.4
 20
14.09188309203677
 30
0.0
 11
23.15677242330268
 21
14.84865551533946
 31
0.0
  0
LINE
  5
742
330
1F
100
AcDbEntity
  8
SK2
  6
CONTINUOUS
370
25
 62
7
100
AcDbLine
 10
22.4
 20
14.5161471607487
 30
0.0
 11
22.80321903270941
 21
14.91936619345812
 31
0.0
  0
LINE
  5
743
330
1F
100
AcDbEntity
  8
SK2
  6
CONTINUOUS
370
25
 62
7
100
AcDbLine
 10
22.4
 20
14.94041122946063
 30
0.0
 11
22.44966564211614
 21
14.99007687157677
 31
0.0
  0
LINE
  5
744
330
1F
100
AcDbEntity
  8
SK2
  6
CONTINUOUS
370
25
 62
7
100
AcDbLine
 10
22.4
 20
13.06101730552664
 30
0.0
 11
22.4508394212722
 21
13.01017788425444
 31
0.0
  0
LINE
  5
745
330
1F
100
AcDbEntity
  8
SK2
  6
CONTINUOUS
370
25
 62
7
100
AcDbLine
 10
22.4
 20
13.48528137423857
 30
0.0
 11
22.80439281186547
 21
13.08088856237309
 31
0.0
  0
LINE
  5
746
330
1F
100
AcDbEntity
  8
SK2
  6
CONTINUOUS
370
25
 62
7
100
AcDbLine
 10
22.4
 20
13.9095454429505
 30
0.0
 11
23.15794620245875
 21
13.15159924049175
 31
0.0
  0
LINE
  5
747
330
1F
100
AcDbEntity
  8
SK2
  6
CONTINUOUS
370
25
 62
7
100
AcDbLine
 10
22.4
 20
14.33380951166242
 30
0.0
 11
23.51149959305202
 21
13.2223099186104
 31
0.0
  0
LINE
  5
748
330
1F
100
AcDbEntity
  8
SK2
  6
CONTINUOUS
370
25
 62
7
100
AcDbLine
 10
22.4
 20
14.75807358037435
 30
0.0
 11
23.86505298364529
 21
13.29302059672906
 31
0.0
  0
LINE
  5
749
330
1F
100
AcDbEntity
  8
SK2
  6
CONTINUOUS
370
25
 62
7
100
AcDbLine
 10
22.62790956135785
 20
14.95442808772843
 30
0.0
 11
24.21860637423857
 21
13.36373127484771
 31
0.0
  0
LINE
  5
74A
330
1F
100
AcDbEntity
  8
SK2
  6
CONTINUOUS
370
25
 62
7
100
AcDbLine
 10
23.15823964724776
 20
14.84836207055045
 30
0.0
 11
24.57215976483184
 21
13.43444195296637
 31
0.0
  0
LINE
  5
74B
330
1F
100
AcDbEntity
  8
SK2
  6
CONTINUOUS
370
25
 62
7
100
AcDbLine
 10
23.68856973313767
 20
14.74229605337247
 30
0.0
 11
24.92571315542511
 21
13.50515263108502
 31
0.0
  0
LINE
  5
74C
330
1F
100
AcDbEntity
  8
SK2
  6
CONTINUOUS
370
25
 62
7
100
AcDbLine
 10
24.21889981902758
 20
14.63623003619448
 30
0.0
 11
25.27926654601839
 21
13.57586330920368
 31
0.0
  0
LINE
  5
74D
330
1F
100
AcDbEntity
  8
SK2
  6
CONTINUOUS
370
25
 62
7
100
AcDbLine
 10
24.74922990491749
 20
14.5301640190165
 30
0.0
 11
25.63281993661166
 21
13.64657398732233
 31
0.0
  0
LINE
  5
74E
330
1F
100
AcDbEntity
  8
SK2
  6
CONTINUOUS
370
25
 62
7
100
AcDbLine
 10
25.2795599908074
 20
14.42409800183852
 30
0.0
 11
25.98637332720493
 21
13.71728466544099
 31
0.0
  0
LINE
  5
74F
330
1F
100
AcDbEntity
  8
SK2
  6
CONTINUOUS
370
25
 62
7
100
AcDbLine
 10
25.80989007669731
 20
14.31803198466054
 30
0.0
 11
26.33992671779821
 21
13.78799534355964
 31
0.0
  0
LINE
  5
750
330
1F
100
AcDbEntity
  8
SK2
  6
CONTINUOUS
370
25
 62
7
100
AcDbLine
 10
26.34022016258722
 20
14.21196596748256
 30
0.0
 11
26.69348010839148
 21
13.8587060216783
 31
0.0
  0
LINE
  5
751
330
1F
100
AcDbEntity
  8
SK2
  6
CONTINUOUS
370
25
 62
7
100
AcDbLine
 10
26.87055024847713
 20
14.10589995030457
 30
0.0
 11
27.04703349898475
 21
13.92941669979695
 31
0.0
  0
TEXT
  5
752
330
1F
100
AcDbEntity
  8
SK2
  6
CONTINUOUS
370
25
 62
7
100
AcDbText
 10
8.45
 20
15.50001
 30
0.0
 40
3.5
  1
27.4
 72
     1
 11
13.7
 21
15.50001
 31
0.0
100
AcDbText
  0
LINE
  5
753
330
1F
100
AcDbEntity
  8
2
  6
CONTINUOUS
370
25
 62
7
100
AcDbLine
 10
34.9
 20
-0.1
 30
0.0
 11
61.925
 21
-0.1000000000000033
 31
0.0
  0
LINE
  5
754
330
1F
100
AcDbEntity
  8
2
  6
CONTINUOUS
370
25
 62
7
100
AcDbLine
 10
61.925
 20
0.0999999999999967
 30
0.0
 11
34.90000000000001
 21
0.1
 31
0.0
  0
LINE
  5
755
330
1F
100
AcDbEntity
  8
2
  6
CONTINUOUS
370
25
 62
7
100
AcDbLine
 10
60.925
 20
-7.100000000000003
 30
0.0
 11
60.925
 21
19.525
 31
0.0
  0
LINE
  5
756
330
1F
100
AcDbEntity
  8
2
  6
CONTINUOUS
370
25
 62
7
100
AcDbLine
 10
60.925
 20
-0.1000000000000032
 30
0.0
 11
61.925
 21
-5.100000000000003
 31
0.0
  0
LINE
  5
757
330
1F
100
AcDbEntity
  8
2
  6
CONTINUOUS
370
25
 62
7
100
AcDbLine
 10
61.925
 20
-5.100000000000003
 30
0.0
 11
59.925
 21
-5.100000000000003
 31
0.0
  0
LINE
  5
758
330
1F
100
AcDbEntity
  8
2
  6
CONTINUOUS
370
25
 62
7
100
AcDbLine
 10
59.925
 20
-5.100000000000003
 30
0.0
 11
60.925
 21
-0.1000000000000032
 31
0.0
  0
LINE
  5
759
330
1F
100
AcDbEntity
  8
2
  6
CONTINUOUS
370
25
 62
7
100
AcDbLine
 10
61.77373979563157
 20
-5.100000000000001
 30
0.0
 11
61.8997899659386
 21
-4.973949829692977
 31
0.0
  0
LINE
  5
75A
330
1F
100
AcDbEntity
  8
2
  6
CONTINUOUS
370
25
 62
7
100
AcDbLine
 10
61.34947572691964
 20
-5.100000000000001
 30
0.0
 11
61.82907928781994
 21
-4.620396439099693
 31
0.0
  0
LINE
  5
75B
330
1F
100
AcDbEntity
  8
2
  6
CONTINUOUS
370
25
 62
7
100
AcDbLine
 10
60.92521165820772
 20
-5.100000000000001
 30
0.0
 11
61.75836860970129
 21
-4.266843048506416
 31
0.0
  0
LINE
  5
75C
330
1F
100
AcDbEntity
  8
2
  6
CONTINUOUS
370
25
 62
7
100
AcDbLine
 10
60.50094758949579
 20
-5.100000000000001
 30
0.0
 11
61.68765793158263
 21
-3.913289657913147
 31
0.0
  0
LINE
  5
75D
330
1F
100
AcDbEntity
  8
2
  6
CONTINUOUS
370
25
 62
7
100
AcDbLine
 10
60.07668352078386
 20
-5.100000000000001
 30
0.0
 11
61.61694725346398
 21
-3.559736267319877
 31
0.0
  0
LINE
  5
75E
330
1F
100
AcDbEntity
  8
2
  6
CONTINUOUS
370
25
 62
7
100
AcDbLine
 10
59.99314513698202
 20
-4.759274315089911
 30
0.0
 11
61.54623657534533
 21
-3.206182876726601
 31
0.0
  0
LINE
  5
75F
330
1F
100
AcDbEntity
  8
2
  6
CONTINUOUS
370
25
 62
7
100
AcDbLine
 10
60.09921115416001
 20
-4.228944229199989
 30
0.0
 11
61.47552589722667
 21
-2.852629486133324
 31
0.0
  0
LINE
  5
760
330
1F
100
AcDbEntity
  8
2
  6
CONTINUOUS
370
25
 62
7
100
AcDbLine
 10
60.20527717133798
 20
-3.698614143310081
 30
0.0
 11
61.40481521910802
 21
-2.499076095540048
 31
0.0
  0
LINE
  5
761
330
1F
100
AcDbEntity
  8
2
  6
CONTINUOUS
370
25
 62
7
100
AcDbLine
 10
60.31134318851597
 20
-3.168284057420166
 30
0.0
 11
61.33410454098936
 21
-2.145522704946778
 31
0.0
  0
LINE
  5
762
330
1F
100
AcDbEntity
  8
2
  6
CONTINUOUS
370
25
 62
7
100
AcDbLine
 10
60.41740920569395
 20
-2.637953971530251
 30
0.0
 11
61.26339386287071
 21
-1.791969314353494
 31
0.0
  0
LINE
  5
763
330
1F
100
AcDbEntity
  8
2
  6
CONTINUOUS
370
25
 62
7
100
AcDbLine
 10
60.52347522287194
 20
-2.107623885640336
 30
0.0
 11
61.19268318475205
 21
-1.438415923760225
 31
0.0
  0
LINE
  5
764
330
1F
100
AcDbEntity
  8
2
  6
CONTINUOUS
370
25
 62
7
100
AcDbLine
 10
60.62954124004992
 20
-1.577293799750421
 30
0.0
 11
61.12197250663339
 21
-1.084862533166941
 31
0.0
  0
LINE
  5
765
330
1F
100
AcDbEntity
  8
2
  6
CONTINUOUS
370
25
 62
7
100
AcDbLine
 10
60.7356072572279
 20
-1.046963713860514
 30
0.0
 11
61.05126182851474
 21
-0.7313091425736715
 31
0.0
  0
LINE
  5
766
330
1F
100
AcDbEntity
  8
2
  6
CONTINUOUS
370
25
 62
7
100
AcDbLine
 10
60.84167327440588
 20
-0.5166336279705988
 30
0.0
 11
60.98055115039608
 21
-0.3777557519803949
 31
0.0
  0
LINE
  5
767
330
1F
100
AcDbEntity
  8
2
  6
CONTINUOUS
370
25
 62
7
100
AcDbLine
 10
59.95036074437924
 20
-4.973196278103813
 30
0.0
 11
60.07716446627543
 21
-5.100000000000001
 31
0.0
  0
LINE
  5
768
330
1F
100
AcDbEntity
  8
2
  6
CONTINUOUS
370
25
 62
7
100
AcDbLine
 10
60.0210714224979
 20
-4.619642887510544
 30
0.0
 11
60.50142853498735
 21
-5.100000000000001
 31
0.0
  0
LINE
  5
769
330
1F
100
AcDbEntity
  8
2
  6
CONTINUOUS
370
25
 62
7
100
AcDbLine
 10
60.09178210061656
 20
-4.266089496917274
 30
0.0
 11
60.92569260369929
 21
-5.100000000000001
 31
0.0
  0
LINE
  5
76A
330
1F
100
AcDbEntity
  8
2
  6
CONTINUOUS
370
25
 62
7
100
AcDbLine
 10
60.16249277873521
 20
-3.912536106323994
 30
0.0
 11
61.34995667241122
 21
-5.100000000000005
 31
0.0
  0
LINE
  5
76B
330
1F
100
AcDbEntity
  8
2
  6
CONTINUOUS
370
25
 62
7
100
AcDbLine
 10
60.23320345685386
 20
-3.558982715730714
 30
0.0
 11
61.77422074112315
 21
-5.100000000000001
 31
0.0
  0
LINE
  5
76C
330
1F
100
AcDbEntity
  8
2
  6
CONTINUOUS
370
25
 62
7
100
AcDbLine
 10
60.30391413497252
 20
-3.205429325137441
 30
0.0
 11
61.85662879754124
 21
-4.758143987706166
 31
0.0
  0
LINE
  5
76D
330
1F
100
AcDbEntity
  8
2
  6
CONTINUOUS
370
25
 62
7
100
AcDbLine
 10
60.37462481309117
 20
-2.851875934544161
 30
0.0
 11
61.75056278036326
 21
-4.227813901816248
 31
0.0
  0
LINE
  5
76E
330
1F
100
AcDbEntity
  8
2
  6
CONTINUOUS
370
25
 62
7
100
AcDbLine
 10
60.44533549120982
 20
-2.498322543950895
 30
0.0
 11
61.64449676318527
 21
-3.697483815926336
 31
0.0
  0
LINE
  5
76F
330
1F
100
AcDbEntity
  8
2
  6
CONTINUOUS
370
25
 62
7
100
AcDbLine
 10
60.51604616932848
 20
-2.144769153357615
 30
0.0
 11
61.53843074600729
 21
-3.167153730036425
 31
0.0
  0
LINE
  5
770
330
1F
100
AcDbEntity
  8
2
  6
CONTINUOUS
370
25
 62
7
100
AcDbLine
 10
60.58675684744713
 20
-1.791215762764345
 30
0.0
 11
61.43236472882931
 21
-2.636823644146517
 31
0.0
  0
LINE
  5
771
330
1F
100
AcDbEntity
  8
2
  6
CONTINUOUS
370
25
 62
7
100
AcDbLine
 10
60.65746752556579
 20
-1.437662372171065
 30
0.0
 11
61.32629871165133
 21
-2.106493558256613
 31
0.0
  0
LINE
  5
772
330
1F
100
AcDbEntity
  8
2
  6
CONTINUOUS
370
25
 62
7
100
AcDbLine
 10
60.72817820368444
 20
-1.084108981577799
 30
0.0
 11
61.22023269447335
 21
-1.576163472366694
 31
0.0
  0
LINE
  5
773
330
1F
100
AcDbEntity
  8
2
  6
CONTINUOUS
370
25
 62
7
100
AcDbLine
 10
60.7988888818031
 20
-0.7305555909845296
 30
0.0
 11
61.11416667729537
 21
-1.045833386476787
 31
0.0
  0
LINE
  5
774
330
1F
100
AcDbEntity
  8
2
  6
CONTINUOUS
370
25
 62
7
100
AcDbLine
 10
60.86959955992176
 20
-0.3770022003912601
 30
0.0
 11
61.00810066011738
 21
-0.5155033005868788
 31
0.0
  0
LINE
  5
775
330
1F
100
AcDbEntity
  8
2
  6
CONTINUOUS
370
25
 62
7
100
AcDbLine
 10
60.925
 20
0.0999999999999968
 30
0.0
 11
59.925
 21
5.099999999999997
 31
0.0
  0
LINE
  5
776
330
1F
100
AcDbEntity
  8
2
  6
CONTINUOUS
370
25
 62
7
100
AcDbLine
 10
59.925
 20
5.099999999999997
 30
0.0
 11
61.925
 21
5.099999999999997
 31
0.0
  0
LINE
  5
777
330
1F
100
AcDbEntity
  8
2
  6
CONTINUOUS
370
25
 62
7
100
AcDbLine
 10
61.925
 20
5.099999999999997
 30
0.0
 11
60.925
 21
0.0999999999999968
 31
0.0
  0
LINE
  5
778
330
1F
100
AcDbEntity
  8
2
  6
CONTINUOUS
370
25
 62
7
100
AcDbLine
 10
60.90689674712515
 20
0.1905162643742742
 30
0.0
 11
60.95215487931229
 21
0.2357743965614105
 31
0.0
  0
LINE
  5
779
330
1F
100
AcDbEntity
  8
2
  6
CONTINUOUS
370
25
 62
7
100
AcDbLine
 10
60.83618606900649
 20
0.5440696549675437
 30
0.0
 11
61.05822089649027
 21
0.7661044824513255
 31
0.0
  0
LINE
  5
77A
330
1F
100
AcDbEntity
  8
2
  6
CONTINUOUS
370
25
 62
7
100
AcDbLine
 10
60.76547539088784
 20
0.8976230455608345
 30
0.0
 11
61.16428691366825
 21
1.29643456834124
 31
0.0
  0
LINE
  5
77B
330
1F
100
AcDbEntity
  8
2
  6
CONTINUOUS
370
25
 62
7
100
AcDbLine
 10
60.69476471276919
 20
1.251176436154104
 30
0.0
 11
61.27035293084624
 21
1.826764654231155
 31
0.0
  0
LINE
  5
77C
330
1F
100
AcDbEntity
  8
2
  6
CONTINUOUS
370
25
 62
7
100
AcDbLine
 10
60.62405403465053
 20
1.604729826747377
 30
0.0
 11
61.37641894802422
 21
2.357094740121067
 31
0.0
  0
LINE
  5
77D
330
1F
100
AcDbEntity
  8
2
  6
CONTINUOUS
370
25
 62
7
100
AcDbLine
 10
60.55334335653188
 20
1.958283217340654
 30
0.0
 11
61.4824849652022
 21
2.887424826010974
 31
0.0
  0
LINE
  5
77E
330
1F
100
AcDbEntity
  8
2
  6
CONTINUOUS
370
25
 62
7
100
AcDbLine
 10
60.48263267841322
 20
2.311836607933927
 30
0.0
 11
61.58855098238018
 21
3.417754911900893
 31
0.0
  0
LINE
  5
77F
330
1F
100
AcDbEntity
  8
2
  6
CONTINUOUS
370
25
 62
7
100
AcDbLine
 10
60.41192200029457
 20
2.665389998527203
 30
0.0
 11
61.69461699955816
 21
3.948084997790808
 31
0.0
  0
LINE
  5
780
330
1F
100
AcDbEntity
  8
2
  6
CONTINUOUS
370
25
 62
7
100
AcDbLine
 10
60.34121132217591
 20
3.018943389120476
 30
0.0
 11
61.80068301673615
 21
4.478415083680726
 31
0.0
  0
LINE
  5
781
330
1F
100
AcDbEntity
  8
2
  6
CONTINUOUS
370
25
 62
7
100
AcDbLine
 10
60.27050064405725
 20
3.372496779713746
 30
0.0
 11
61.90674903391413
 21
5.008745169570634
 31
0.0
  0
LINE
  5
782
330
1F
100
AcDbEntity
  8
2
  6
CONTINUOUS
370
25
 62
7
100
AcDbLine
 10
60.1997899659386
 20
3.726050170307026
 30
0.0
 11
61.57373979563156
 21
5.099999999999994
 31
0.0
  0
LINE
  5
783
330
1F
100
AcDbEntity
  8
2
  6
CONTINUOUS
370
25
 62
7
100
AcDbLine
 10
60.12907928781994
 20
4.079603560900303
 30
0.0
 11
61.14947572691963
 21
5.099999999999994
 31
0.0
  0
LINE
  5
784
330
1F
100
AcDbEntity
  8
2
  6
CONTINUOUS
370
25
 62
7
100
AcDbLine
 10
60.05836860970129
 20
4.433156951493583
 30
0.0
 11
60.72521165820771
 21
5.099999999999998
 31
0.0
  0
LINE
  5
785
330
1F
100
AcDbEntity
  8
2
  6
CONTINUOUS
370
25
 62
7
100
AcDbLine
 10
59.98765793158263
 20
4.786710342086852
 30
0.0
 11
60.30094758949578
 21
5.099999999999998
 31
0.0
  0
LINE
  5
786
330
1F
100
AcDbEntity
  8
2
  6
CONTINUOUS
370
25
 62
7
100
AcDbLine
 10
60.84596862576142
 20
0.4951568711929326
 30
0.0
 11
60.97768758282573
 21
0.3634379141286175
 31
0.0
  0
LINE
  5
787
330
1F
100
AcDbEntity
  8
2
  6
CONTINUOUS
370
25
 62
7
100
AcDbLine
 10
60.73990260858344
 20
1.02548695708284
 30
0.0
 11
61.04839826094438
 21
0.7169913047218941
 31
0.0
  0
LINE
  5
788
330
1F
100
AcDbEntity
  8
2
  6
CONTINUOUS
370
25
 62
7
100
AcDbLine
 10
60.63383659140545
 20
1.555817042972755
 30
0.0
 11
61.11910893906304
 21
1.070544695315171
 31
0.0
  0
LINE
  5
789
330
1F
100
AcDbEntity
  8
2
  6
CONTINUOUS
370
25
 62
7
100
AcDbLine
 10
60.52777057422747
 20
2.08614712886267
 30
0.0
 11
61.1898196171817
 21
1.42409808590844
 31
0.0
  0
LINE
  5
78A
330
1F
100
AcDbEntity
  8
2
  6
CONTINUOUS
370
25
 62
7
100
AcDbLine
 10
60.42170455704949
 20
2.616477214752571
 30
0.0
 11
61.26053029530035
 21
1.777651476501717
 31
0.0
  0
LINE
  5
78B
330
1F
100
AcDbEntity
  8
2
  6
CONTINUOUS
370
25
 62
7
100
AcDbLine
 10
60.31563853987151
 20
3.146807300642486
 30
0.0
 11
61.33124097341901
 21
2.131204867094993
 31
0.0
  0
LINE
  5
78C
330
1F
100
AcDbEntity
  8
2
  6
CONTINUOUS
370
25
 62
7
100
AcDbLine
 10
60.20957252269353
 20
3.677137386532394
 30
0.0
 11
61.40195165153766
 21
2.48475825768827
 31
0.0
  0
LINE
  5
78D
330
1F
100
AcDbEntity
  8
2
  6
CONTINUOUS
370
25
 62
7
100
AcDbLine
 10
60.10350650551555
 20
4.207467472422309
 30
0.0
 11
61.47266232965631
 21
2.838311648281554
 31
0.0
  0
LINE
  5
78E
330
1F
100
AcDbEntity
  8
2
  6
CONTINUOUS
370
25
 62
7
100
AcDbLine
 10
59.99744048833756
 20
4.737797558312224
 30
0.0
 11
61.54337300777497
 21
3.191865038874823
 31
0.0
  0
LINE
  5
78F
330
1F
100
AcDbEntity
  8
2
  6
CONTINUOUS
370
25
 62
7
100
AcDbLine
 10
60.05950211536172
 20
5.099999999999994
 30
0.0
 11
61.61408368589363
 21
3.545418429468093
 31
0.0
  0
LINE
  5
790
330
1F
100
AcDbEntity
  8
2
  6
CONTINUOUS
370
25
 62
7
100
AcDbLine
 10
60.48376618407365
 20
5.099999999999994
 30
0.0
 11
61.68479436401228
 21
3.898971820061369
 31
0.0
  0
LINE
  5
791
330
1F
100
AcDbEntity
  8
2
  6
CONTINUOUS
370
25
 62
7
100
AcDbLine
 10
60.90803025278558
 20
5.099999999999994
 30
0.0
 11
61.75550504213093
 21
4.252525210654639
 31
0.0
  0
LINE
  5
792
330
1F
100
AcDbEntity
  8
2
  6
CONTINUOUS
370
25
 62
7
100
AcDbLine
 10
61.33229432149751
 20
5.099999999999994
 30
0.0
 11
61.82621572024959
 21
4.606078601247923
 31
0.0
  0
LINE
  5
793
330
1F
100
AcDbEntity
  8
2
  6
CONTINUOUS
370
25
 62
7
100
AcDbLine
 10
61.75655839020943
 20
5.099999999999994
 30
0.0
 11
61.89692639836824
 21
4.959631991841185
 31
0.0
  0
TEXT
  5
794
330
1F
100
AcDbEntity
  8
2
  6
CONTINUOUS
370
25
 62
7
100
AcDbText
 10
59.425
 20
11.37916666666666
 30
0.0
 40
3.5
  1
0.2
 50
90.00000000000001
 72
     1
 11
59.425
 21
14.5875
 31
0.0
100
AcDbText
  0
CIRCLE
  5
795
330
1F
100
AcDbEntity
  8
2
  6
CONTINUOUS
370
25
 62
7
100
AcDbCircle
 10
57.675
 20
8.112499999999994
 30
0.0
 40
1.4
  0
LINE
  5
796
330
1F
100
AcDbEntity
  8
2
  6
CONTINUOUS
370
25
 62
7
100
AcDbLine
 10
59.075
 20
6.712499999999994
 30
0.0
 11
56.27500000000001
 21
9.512499999999994
 31
0.0
  0
LINE
  5
797
330
1F
100
AcDbEntity
  8
2
  6
CONTINUOUS
370
25
 62
7
100
AcDbLine
 10
34.6
 20
-0.1
 30
0.0
 11
34.59999999999999
 21
-13.1
 31
0.0
  0
LINE
  5
798
330
1F
100
AcDbEntity
  8
2
  6
CONTINUOUS
370
25
 62
7
100
AcDbLine
 10
35.0
 20
-13.1
 30
0.0
 11
35.0
 21
-0.0999999999999996
 31
0.0
  0
LINE
  5
799
330
1F
100
AcDbEntity
  8
2
  6
CONTINUOUS
370
25
 62
7
100
AcDbLine
 10
27.6
 20
-12.1
 30
0.0
 11
50.925
 21
-12.1
 31
0.0
  0
LINE
  5
79A
330
1F
100
AcDbEntity
  8
2
  6
CONTINUOUS
370
25
 62
7
100
AcDbLine
 10
34.59999999999999
 20
-12.1
 30
0.0
 11
29.6
 21
-13.1
 31
0.0
  0
LINE
  5
79B
330
1F
100
AcDbEntity
  8
2
  6
CONTINUOUS
370
25
 62
7
100
AcDbLine
 10
29.6
 20
-13.1
 30
0.0
 11
29.6
 21
-11.1
 31
0.0
  0
LINE
  5
79C
330
1F
100
AcDbEntity
  8
2
  6
CONTINUOUS
370
25
 62
7
100
AcDbLine
 10
29.6
 20
-11.1
 30
0.0
 11
34.59999999999999
 21
-12.1
 31
0.0
  0
LINE
  5
79D
330
1F
100
AcDbEntity
  8
2
  6
CONTINUOUS
370
25
 62
7
100
AcDbLine
 10
34.30886843780559
 20
-12.15822631243888
 30
0.0
 11
34.40591229187039
 21
-12.06118245837408
 31
0.0
  0
LINE
  5
79E
330
1F
100
AcDbEntity
  8
2
  6
CONTINUOUS
370
25
 62
7
100
AcDbLine
 10
33.77853835191569
 20
-12.26429232961686
 30
0.0
 11
34.05235890127712
 21
-11.99047178025542
 31
0.0
  0
LINE
  5
79F
330
1F
100
AcDbEntity
  8
2
  6
CONTINUOUS
370
25
 62
7
100
AcDbLine
 10
33.24820826602577
 20
-12.37035834679484
 30
0.0
 11
33.69880551068385
 21
-11.91976110213677
 31
0.0
  0
LINE
  5
7A0
330
1F
100
AcDbEntity
  8
2
  6
CONTINUOUS
370
25
 62
7
100
AcDbLine
 10
32.71787818013586
 20
-12.47642436397282
 30
0.0
 11
33.34525212009057
 21
-11.84905042401812
 31
0.0
  0
LINE
  5
7A1
330
1F
100
AcDbEntity
  8
2
  6
CONTINUOUS
370
25
 62
7
100
AcDbLine
 10
32.18754809424595
 20
-12.58249038115081
 30
0.0
 11
32.9916987294973
 21
-11.77833974589946
 31
0.0
  0
LINE
  5
7A2
330
1F
100
AcDbEntity
  8
2
  6
CONTINUOUS
370
25
 62
7
100
AcDbLine
 10
31.65721800835605
 20
-12.68855639832879
 30
0.0
 11
32.63814533890402
 21
-11.70762906778081
 31
0.0
  0
LINE
  5
7A3
330
1F
100
AcDbEntity
  8
2
  6
CONTINUOUS
370
25
 62
7
100
AcDbLine
 10
31.12688792246614
 20
-12.79462241550677
 30
0.0
 11
32.28459194831076
 21
-11.63691838966215
 31
0.0
  0
LINE
  5
7A4
330
1F
100
AcDbEntity
  8
2
  6
CONTINUOUS
370
25
 62
7
100
AcDbLine
 10
30.59655783657622
 20
-12.90068843268475
 30
0.0
 11
31.93103855771748
 21
-11.5662077115435
 31
0.0
  0
LINE
  5
7A5
330
1F
100
AcDbEntity
  8
2
  6
CONTINUOUS
370
25
 62
7
100
AcDbLine
 10
30.06622775068631
 20
-13.00675444986274
 30
0.0
 11
31.57748516712421
 21
-11.49549703342484
 31
0.0
  0
LINE
  5
7A6
330
1F
100
AcDbEntity
  8
2
  6
CONTINUOUS
370
25
 62
7
100
AcDbLine
 10
29.6
 20
-13.04871813183712
 30
0.0
 11
31.22393177653094
 21
-11.42478635530619
 31
0.0
  0
LINE
  5
7A7
330
1F
100
AcDbEntity
  8
2
  6
CONTINUOUS
370
25
 62
7
100
AcDbLine
 10
29.6
 20
-12.6244540631252
 30
0.0
 11
30.87037838593766
 21
-11.35407567718753
 31
0.0
  0
LINE
  5
7A8
330
1F
100
AcDbEntity
  8
2
  6
CONTINUOUS
370
25
 62
7
100
AcDbLine
 10
29.6
 20
-12.20018999441327
 30
0.0
 11
30.51682499534439
 21
-11.28336499906888
 31
0.0
  0
LINE
  5
7A9
330
1F
100
AcDbEntity
  8
2
  6
CONTINUOUS
370
25
 62
7
100
AcDbLine
 10
29.6
 20
-11.77592592570134
 30
0.0
 11
30.16327160475111
 21
-11.21265432095022
 31
0.0
  0
LINE
  5
7AA
330
1F
100
AcDbEntity
  8
2
  6
CONTINUOUS
370
25
 62
7
100
AcDbLine
 10
29.6
 20
-11.35166185698941
 30
0.0
 11
29.80971821415784
 21
-11.14194364283157
 31
0.0
  0
LINE
  5
7AB
330
1F
100
AcDbEntity
  8
2
  6
CONTINUOUS
370
25
 62
7
100
AcDbLine
 10
29.6
 20
-13.07369646804271
 30
0.0
 11
29.62191960996441
 21
-13.09561607800712
 31
0.0
  0
LINE
  5
7AC
330
1F
100
AcDbEntity
  8
2
  6
CONTINUOUS
370
25
 62
7
100
AcDbLine
 10
29.6
 20
-12.64943239933078
 30
0.0
 11
29.97547300055768
 21
-13.02490539988846
 31
0.0
  0
LINE
  5
7AD
330
1F
100
AcDbEntity
  8
2
  6
CONTINUOUS
370
25
 62
7
100
AcDbLine
 10
29.6
 20
-12.22516833061885
 30
0.0
 11
30.32902639115095
 21
-12.95419472176981
 31
0.0
  0
LINE
  5
7AE
330
1F
100
AcDbEntity
  8
2
  6
CONTINUOUS
370
25
 62
7
100
AcDbLine
 10
29.6
 20
-11.80090426190693
 30
0.0
 11
30.68257978174423
 21
-12.88348404365115
 31
0.0
  0
LINE
  5
7AF
330
1F
100
AcDbEntity
  8
2
  6
CONTINUOUS
370
25
 62
7
100
AcDbLine
 10
29.6
 20
-11.376640193195
 30
0.0
 11
31.0361331723375
 21
-12.8127733655325
 31
0.0
  0
LINE
  5
7B0
330
1F
100
AcDbEntity
  8
2
  6
CONTINUOUS
370
25
 62
7
100
AcDbLine
 10
29.78452984439616
 20
-11.13690596887923
 30
0.0
 11
31.38968656293077
 21
-12.74206268741384
 31
0.0
  0
LINE
  5
7B1
330
1F
100
AcDbEntity
  8
2
  6
CONTINUOUS
370
25
 62
7
100
AcDbLine
 10
30.31485993028607
 20
-11.24297198605722
 30
0.0
 11
31.74323995352405
 21
-12.67135200929519
 31
0.0
  0
LINE
  5
7B2
330
1F
100
AcDbEntity
  8
2
  6
CONTINUOUS
370
25
 62
7
100
AcDbLine
 10
30.84519001617598
 20
-11.3490380032352
 30
0.0
 11
32.09679334411732
 21
-12.60064133117653
 31
0.0
  0
LINE
  5
7B3
330
1F
100
AcDbEntity
  8
2
  6
CONTINUOUS
370
25
 62
7
100
AcDbLine
 10
31.3755201020659
 20
-11.45510402041318
 30
0.0
 11
32.45034673471059
 21
-12.52993065305788
 31
0.0
  0
LINE
  5
7B4
330
1F
100
AcDbEntity
  8
2
  6
CONTINUOUS
370
25
 62
7
100
AcDbLine
 10
31.9058501879558
 20
-11.56117003759116
 30
0.0
 11
32.80390012530387
 21
-12.45921997493923
 31
0.0
  0
LINE
  5
7B5
330
1F
100
AcDbEntity
  8
2
  6
CONTINUOUS
370
25
 62
7
100
AcDbLine
 10
32.43618027384571
 20
-11.66723605476914
 30
0.0
 11
33.15745351589714
 21
-12.38850929682057
 31
0.0
  0
LINE
  5
7B6
330
1F
100
AcDbEntity
  8
2
  6
CONTINUOUS
370
25
 62
7
100
AcDbLine
 10
32.96651035973562
 20
-11.77330207194712
 30
0.0
 11
33.51100690649042
 21
-12.31779861870191
 31
0.0
  0
LINE
  5
7B7
330
1F
100
AcDbEntity
  8
2
  6
CONTINUOUS
370
25
 62
7
100
AcDbLine
 10
33.49684044562554
 20
-11.87936808912511
 30
0.0
 11
33.86456029708369
 21
-12.24708794058326
 31
0.0
  0
LINE
  5
7B8
330
1F
100
AcDbEntity
  8
2
  6
CONTINUOUS
370
25
 62
7
100
AcDbLine
 10
34.02717053151544
 20
-11.98543410630309
 30
0.0
 11
34.21811368767696
 21
-12.17637726246461
 31
0.0
  0
LINE
  5
7B9
330
1F
100
AcDbEntity
  8
2
  6
CONTINUOUS
370
25
 62
7
100
AcDbLine
 10
34.55750061740535
 20
-12.09150012348107
 30
0.0
 11
34.57166707827024
 21
-12.10566658434595
 31
0.0
  0
LINE
  5
7BA
330
1F
100
AcDbEntity
  8
2
  6
CONTINUOUS
370
25
 62
7
100
AcDbLine
 10
35.0
 20
-12.1
 30
0.0
 11
40.0
 21
-11.1
 31
0.0
  0
LINE
  5
7BB
330
1F
100
AcDbEntity
  8
2
  6
CONTINUOUS
370
25
 62
7
100
AcDbLine
 10
40.0
 20
-11.1
 30
0.0
 11
40.0
 21
-13.1
 31
0.0
  0
LINE
  5
7BC
330
1F
100
AcDbEntity
  8
2
  6
CONTINUOUS
370
25
 62
7
100
AcDbLine
 10
40.0
 20
-13.1
 30
0.0
 11
35.0
 21
-12.1
 31
0.0
  0
LINE
  5
7BD
330
1F
100
AcDbEntity
  8
2
  6
CONTINUOUS
370
25
 62
7
100
AcDbLine
 10
39.93704505260432
 20
-13.08740901052087
 30
0.0
 11
40.0
 21
-13.02445406312519
 31
0.0
  0
LINE
  5
7BE
330
1F
100
AcDbEntity
  8
2
  6
CONTINUOUS
370
25
 62
7
100
AcDbLine
 10
39.58349166201105
 20
-13.01669833240221
 30
0.0
 11
40.0
 21
-12.60018999441326
 31
0.0
  0
LINE
  5
7BF
330
1F
100
AcDbEntity
  8
2
  6
CONTINUOUS
370
25
 62
7
100
AcDbLine
 10
39.22993827141778
 20
-12.94598765428356
 30
0.0
 11
40.0
 21
-12.17592592570133
 31
0.0
  0
LINE
  5
7C0
330
1F
100
AcDbEntity
  8
2
  6
CONTINUOUS
370
25
 62
7
100
AcDbLine
 10
38.8763848808245
 20
-12.8752769761649
 30
0.0
 11
40.0
 21
-11.75166185698941
 31
0.0
  0
LINE
  5
7C1
330
1F
100
AcDbEntity
  8
2
  6
CONTINUOUS
370
25
 62
7
100
AcDbLine
 10
38.52283149023123
 20
-12.80456629804625
 30
0.0
 11
40.0
 21
-11.32739778827748
 31
0.0
  0
LINE
  5
7C2
330
1F
100
AcDbEntity
  8
2
  6
CONTINUOUS
370
25
 62
7
100
AcDbLine
 10
38.16927809963796
 20
-12.73385561992759
 30
0.0
 11
39.75391714945694
 21
-11.14921657010861
 31
0.0
  0
LINE
  5
7C3
330
1F
100
AcDbEntity
  8
2
  6
CONTINUOUS
370
25
 62
7
100
AcDbLine
 10
37.81572470904469
 20
-12.66314494180894
 30
0.0
 11
39.22358706356703
 21
-11.25528258728659
 31
0.0
  0
LINE
  5
7C4
330
1F
100
AcDbEntity
  8
2
  6
CONTINUOUS
370
25
 62
7
100
AcDbLine
 10
37.46217131845141
 20
-12.59243426369028
 30
0.0
 11
38.69325697767712
 21
-11.36134860446457
 31
0.0
  0
LINE
  5
7C5
330
1F
100
AcDbEntity
  8
2
  6
CONTINUOUS
370
25
 62
7
100
AcDbLine
 10
37.10861792785813
 20
-12.52172358557163
 30
0.0
 11
38.16292689178721
 21
-11.46741462164256
 31
0.0
  0
LINE
  5
7C6
330
1F
100
AcDbEntity
  8
2
  6
CONTINUOUS
370
25
 62
7
100
AcDbLine
 10
36.75506453726486
 20
-12.45101290745297
 30
0.0
 11
37.6325968058973
 21
-11.57348063882054
 31
0.0
  0
LINE
  5
7C7
330
1F
100
AcDbEntity
  8
2
  6
CONTINUOUS
370
25
 62
7
100
AcDbLine
 10
36.4015111466716
 20
-12.38030222933432
 30
0.0
 11
37.10226672000739
 21
-11.67954665599852
 31
0.0
  0
LINE
  5
7C8
330
1F
100
AcDbEntity
  8
2
  6
CONTINUOUS
370
25
 62
7
100
AcDbLine
 10
36.04795775607832
 20
-12.30959155121566
 30
0.0
 11
36.57193663411748
 21
-11.7856126731765
 31
0.0
  0
LINE
  5
7C9
330
1F
100
AcDbEntity
  8
2
  6
CONTINUOUS
370
25
 62
7
100
AcDbLine
 10
35.69440436548504
 20
-12.23888087309701
 30
0.0
 11
36.04160654822757
 21
-11.89167869035449
 31
0.0
  0
LINE
  5
7CA
330
1F
100
AcDbEntity
  8
2
  6
CONTINUOUS
370
25
 62
7
100
AcDbLine
 10
35.34085097489177
 20
-12.16817019497836
 30
0.0
 11
35.51127646233766
 21
-11.99774470753247
 31
0.0
  0
LINE
  5
7CB
330
1F
100
AcDbEntity
  8
2
  6
CONTINUOUS
370
25
 62
7
100
AcDbLine
 10
35.15305237069833
 20
-12.06938952586033
 30
0.0
 11
35.2295785560475
 21
-12.1459157112095
 31
0.0
  0
LINE
  5
7CC
330
1F
100
AcDbEntity
  8
2
  6
CONTINUOUS
370
25
 62
7
100
AcDbLine
 10
35.5066057612916
 20
-11.99867884774168
 30
0.0
 11
35.75990864193741
 21
-12.25198172838748
 31
0.0
  0
LINE
  5
7CD
330
1F
100
AcDbEntity
  8
2
  6
CONTINUOUS
370
25
 62
7
100
AcDbLine
 10
35.86015915188488
 20
-11.92796816962302
 30
0.0
 11
36.29023872782732
 21
-12.35804774556546
 31
0.0
  0
LINE
  5
7CE
330
1F
100
AcDbEntity
  8
2
  6
CONTINUOUS
370
25
 62
7
100
AcDbLine
 10
36.21371254247815
 20
-11.85725749150437
 30
0.0
 11
36.82056881371723
 21
-12.46411376274345
 31
0.0
  0
LINE
  5
7CF
330
1F
100
AcDbEntity
  8
2
  6
CONTINUOUS
370
25
 62
7
100
AcDbLine
 10
36.56726593307143
 20
-11.78654681338572
 30
0.0
 11
37.35089889960714
 21
-12.57017977992143
 31
0.0
  0
LINE
  5
7D0
330
1F
100
AcDbEntity
  8
2
  6
CONTINUOUS
370
25
 62
7
100
AcDbLine
 10
36.92081932366469
 20
-11.71583613526706
 30
0.0
 11
37.88122898549705
 21
-12.67624579709941
 31
0.0
  0
LINE
  5
7D1
330
1F
100
AcDbEntity
  8
2
  6
CONTINUOUS
370
25
 62
7
100
AcDbLine
 10
37.27437271425797
 20
-11.64512545714841
 30
0.0
 11
38.41155907138696
 21
-12.7823118142774
 31
0.0
  0
LINE
  5
7D2
330
1F
100
AcDbEntity
  8
2
  6
CONTINUOUS
370
25
 62
7
100
AcDbLine
 10
37.62792610485124
 20
-11.57441477902975
 30
0.0
 11
38.94188915727687
 21
-12.88837783145537
 31
0.0
  0
LINE
  5
7D3
330
1F
100
AcDbEntity
  8
2
  6
CONTINUOUS
370
25
 62
7
100
AcDbLine
 10
37.98147949544452
 20
-11.50370410091109
 30
0.0
 11
39.47221924316678
 21
-12.99444384863336
 31
0.0
  0
LINE
  5
7D4
330
1F
100
AcDbEntity
  8
2
  6
CONTINUOUS
370
25
 62
7
100
AcDbLine
 10
38.33503288603779
 20
-11.43299342279244
 30
0.0
 11
40.0
 21
-13.09796053675465
 31
0.0
  0
LINE
  5
7D5
330
1F
100
AcDbEntity
  8
2
  6
CONTINUOUS
370
25
 62
7
100
AcDbLine
 10
38.68858627663106
 20
-11.36228274467379
 30
0.0
 11
40.0
 21
-12.67369646804272
 31
0.0
  0
LINE
  5
7D6
330
1F
100
AcDbEntity
  8
2
  6
CONTINUOUS
370
25
 62
7
100
AcDbLine
 10
39.04213966722434
 20
-11.29157206655513
 30
0.0
 11
40.0
 21
-12.24943239933079
 31
0.0
  0
LINE
  5
7D7
330
1F
100
AcDbEntity
  8
2
  6
CONTINUOUS
370
25
 62
7
100
AcDbLine
 10
39.39569305781761
 20
-11.22086138843648
 30
0.0
 11
40.0
 21
-11.82516833061886
 31
0.0
  0
LINE
  5
7D8
330
1F
100
AcDbEntity
  8
2
  6
CONTINUOUS
370
25
 62
7
100
AcDbLine
 10
39.74924644841089
 20
-11.15015071031782
 30
0.0
 11
40.0
 21
-11.40090426190694
 31
0.0
  0
TEXT
  5
7D9
330
1F
100
AcDbEntity
  8
2
  6
CONTINUOUS
370
25
 62
7
100
AcDbText
 10
42.25416666666666
 20
-10.6
 30
0.0
 40
3.5
  1
0.4
 72
     1
 11
45.4625
 21
-10.6
 31
0.0
100
AcDbText
  0
LINE
  5
7DA
330
1F
100
AcDbEntity
  8
2
  6
CONTINUOUS
370
25
 62
7
100
AcDbLine
 10
27.4
 20
0.0
 30
0.0
 11
27.4
 21
24.99995
 31
0.0
  0
LINE
  5
7DB
330
1F
100
AcDbEntity
  8
2
  6
CONTINUOUS
370
25
 62
7
100
AcDbLine
 10
35.0
 20
24.99995
 30
0.0
 11
35.0
 21
0.0999999999999979
 31
0.0
  0
LINE
  5
7DC
330
1F
100
AcDbEntity
  8
2
  6
CONTINUOUS
370
25
 62
7
100
AcDbLine
 10
20.4
 20
23.99995
 30
0.0
 11
50.925
 21
23.99995
 31
0.0
  0
LINE
  5
7DD
330
1F
100
AcDbEntity
  8
2
  6
CONTINUOUS
370
25
 62
7
100
AcDbLine
 10
27.4
 20
23.99995
 30
0.0
 11
22.4
 21
22.99995
 31
0.0
  0
LINE
  5
7DE
330
1F
100
AcDbEntity
  8
2
  6
CONTINUOUS
370
25
 62
7
100
AcDbLine
 10
22.4
 20
22.99995
 30
0.0
 11
22.4
 21
24.99995
 31
0.0
  0
LINE
  5
7DF
330
1F
100
AcDbEntity
  8
2
  6
CONTINUOUS
370
25
 62
7
100
AcDbLine
 10
22.4
 20
24.99995
 30
0.0
 11
27.4
 21
23.99995
 31
0.0
  0
LINE
  5
7E0
330
1F
100
AcDbEntity
  8
2
  6
CONTINUOUS
370
25
 62
7
100
AcDbLine
 10
27.17112260427513
 20
23.95417452085502
 30
0.0
 11
27.24741506951675
 21
24.03046698609665
 31
0.0
  0
LINE
  5
7E1
330
1F
100
AcDbEntity
  8
2
  6
CONTINUOUS
370
25
 62
7
100
AcDbLine
 10
26.64079251838522
 20
23.84810850367704
 30
0.0
 11
26.89386167892348
 21
24.1011776642153
 31
0.0
  0
LINE
  5
7E2
330
1F
100
AcDbEntity
  8
2
  6
CONTINUOUS
370
25
 62
7
100
AcDbLine
 10
26.1104624324953
 20
23.74204248649906
 30
0.0
 11
26.5403082883302
 21
24.17188834233396
 31
0.0
  0
LINE
  5
7E3
330
1F
100
AcDbEntity
  8
2
  6
CONTINUOUS
370
25
 62
7
100
AcDbLine
 10
25.5801323466054
 20
23.63597646932108
 30
0.0
 11
26.18675489773693
 21
24.24259902045261
 31
0.0
  0
LINE
  5
7E4
330
1F
100
AcDbEntity
  8
2
  6
CONTINUOUS
370
25
 62
7
100
AcDbLine
 10
25.04980226071548
 20
23.5299104521431
 30
0.0
 11
25.83320150714366
 21
24.31330969857127
 31
0.0
  0
LINE
  5
7E5
330
1F
100
AcDbEntity
  8
2
  6
CONTINUOUS
370
25
 62
7
100
AcDbLine
 10
24.51947217482558
 20
23.42384443496512
 30
0.0
 11
25.47964811655038
 21
24.38402037668992
 31
0.0
  0
LINE
  5
7E6
330
1F
100
AcDbEntity
  8
2
  6
CONTINUOUS
370
25
 62
7
100
AcDbLine
 10
23.98914208893567
 20
23.31777841778713
 30
0.0
 11
25.12609472595711
 21
24.45473105480858
 31
0.0
  0
LINE
  5
7E7
330
1F
100
AcDbEntity
  8
2
  6
CONTINUOUS
370
25
 62
7
100
AcDbLine
 10
23.45881200304576
 20
23.21171240060915
 30
0.0
 11
24.77254133536384
 21
24.52544173292723
 31
0.0
  0
LINE
  5
7E8
330
1F
100
AcDbEntity
  8
2
  6
CONTINUOUS
370
25
 62
7
100
AcDbLine
 10
22.92848191715585
 20
23.10564638343117
 30
0.0
 11
24.41898794477056
 21
24.59615241104589
 31
0.0
  0
LINE
  5
7E9
330
1F
100
AcDbEntity
  8
2
  6
CONTINUOUS
370
25
 62
7
100
AcDbLine
 10
22.4
 20
23.00142853498725
 30
0.0
 11
24.06543455417729
 21
24.66686308916454
 31
0.0
  0
LINE
  5
7EA
330
1F
100
AcDbEntity
  8
2
  6
CONTINUOUS
370
25
 62
7
100
AcDbLine
 10
22.4
 20
23.42569260369918
 30
0.0
 11
23.71188116358402
 21
24.73757376728319
 31
0.0
  0
LINE
  5
7EB
330
1F
100
AcDbEntity
  8
2
  6
CONTINUOUS
370
25
 62
7
100
AcDbLine
 10
22.4
 20
23.8499566724111
 30
0.0
 11
23.35832777299074
 21
24.80828444540185
 31
0.0
  0
LINE
  5
7EC
330
1F
100
AcDbEntity
  8
2
  6
CONTINUOUS
370
25
 62
7
100
AcDbLine
 10
22.4
 20
24.27422074112303
 30
0.0
 11
23.00477438239747
 21
24.8789951235205
 31
0.0
  0
LINE
  5
7ED
330
1F
100
AcDbEntity
  8
2
  6
CONTINUOUS
370
25
 62
7
100
AcDbLine
 10
22.4
 20
24.69848480983496
 30
0.0
 11
22.6512209918042
 21
24.94970580163916
 31
0.0
  0
LINE
  5
7EE
330
1F
100
AcDbEntity
  8
2
  6
CONTINUOUS
370
25
 62
7
100
AcDbLine
 10
22.4
 20
23.24335495461289
 30
0.0
 11
22.60283746217741
 21
23.04051749243548
 31
0.0
  0
LINE
  5
7EF
330
1F
100
AcDbEntity
  8
2
  6
CONTINUOUS
370
25
 62
7
100
AcDbLine
 10
22.4
 20
23.66761902332482
 30
0.0
 11
22.95639085277068
 21
23.11122817055413
 31
0.0
  0
LINE
  5
7F0
330
1F
100
AcDbEntity
  8
2
  6
CONTINUOUS
370
25
 62
7
100
AcDbLine
 10
22.4
 20
24.09188309203675
 30
0.0
 11
23.30994424336395
 21
23.18193884867279
 31
0.0
  0
LINE
  5
7F1
330
1F
100
AcDbEntity
  8
2
  6
CONTINUOUS
370
25
 62
7
100
AcDbLine
 10
22.4
 20
24.51614716074867
 30
0.0
 11
23.66349763395723
 21
23.25264952679144
 31
0.0
  0
LINE
  5
7F2
330
1F
100
AcDbEntity
  8
2
  6
CONTINUOUS
370
25
 62
7
100
AcDbLine
 10
22.4
 20
24.9404112294606
 30
0.0
 11
24.0170510245505
 21
23.3233602049101
 31
0.0
  0
LINE
  5
7F3
330
1F
100
AcDbEntity
  8
2
  6
CONTINUOUS
370
25
 62
7
100
AcDbLine
 10
22.85590662271566
 20
24.90876867545687
 30
0.0
 11
24.37060441514378
 21
23.39407088302875
 31
0.0
  0
LINE
  5
7F4
330
1F
100
AcDbEntity
  8
2
  6
CONTINUOUS
370
25
 62
7
100
AcDbLine
 10
23.38623670860558
 20
24.80270265827888
 30
0.0
 11
24.72415780573705
 21
23.46478156114741
 31
0.0
  0
LINE
  5
7F5
330
1F
100
AcDbEntity
  8
2
  6
CONTINUOUS
370
25
 62
7
100
AcDbLine
 10
23.91656679449549
 20
24.6966366411009
 30
0.0
 11
25.07771119633033
 21
23.53549223926606
 31
0.0
  0
LINE
  5
7F6
330
1F
100
AcDbEntity
  8
2
  6
CONTINUOUS
370
25
 62
7
100
AcDbLine
 10
24.44689688038539
 20
24.59057062392292
 30
0.0
 11
25.4312645869236
 21
23.60620291738472
 31
0.0
  0
LINE
  5
7F7
330
1F
100
AcDbEntity
  8
2
  6
CONTINUOUS
370
25
 62
7
100
AcDbLine
 10
24.97722696627531
 20
24.48450460674494
 30
0.0
 11
25.78481797751687
 21
23.67691359550337
 31
0.0
  0
LINE
  5
7F8
330
1F
100
AcDbEntity
  8
2
  6
CONTINUOUS
370
25
 62
7
100
AcDbLine
 10
25.50755705216521
 20
24.37843858956695
 30
0.0
 11
26.13837136811014
 21
23.74762427362203
 31
0.0
  0
LINE
  5
7F9
330
1F
100
AcDbEntity
  8
2
  6
CONTINUOUS
370
25
 62
7
100
AcDbLine
 10
26.03788713805513
 20
24.27237257238897
 30
0.0
 11
26.49192475870342
 21
23.81833495174068
 31
0.0
  0
LINE
  5
7FA
330
1F
100
AcDbEntity
  8
2
  6
CONTINUOUS
370
25
 62
7
100
AcDbLine
 10
26.56821722394503
 20
24.16630655521099
 30
0.0
 11
26.84547814929669
 21
23.88904562985934
 31
0.0
  0
LINE
  5
7FB
330
1F
100
AcDbEntity
  8
2
  6
CONTINUOUS
370
25
 62
7
100
AcDbLine
 10
27.09854730983495
 20
24.06024053803301
 30
0.0
 11
27.19903153988997
 21
23.95975630797799
 31
0.0
  0
LINE
  5
7FC
330
1F
100
AcDbEntity
  8
2
  6
CONTINUOUS
370
25
 62
7
100
AcDbLine
 10
35.0
 20
23.99995
 30
0.0
 11
40.0
 21
24.99995
 31
0.0
  0
LINE
  5
7FD
330
1F
100
AcDbEntity
  8
2
  6
CONTINUOUS
370
25
 62
7
100
AcDbLine
 10
40.0
 20
24.99995
 30
0.0
 11
40.0
 21
22.99995
 31
0.0
  0
LINE
  5
7FE
330
1F
100
AcDbEntity
  8
2
  6
CONTINUOUS
370
25
 62
7
100
AcDbLine
 10
40.0
 20
22.99995
 30
0.0
 11
35.0
 21
23.99995
 31
0.0
  0
LINE
  5
7FF
330
1F
100
AcDbEntity
  8
2
  6
CONTINUOUS
370
25
 62
7
100
AcDbLine
 10
39.82779023516819
 20
23.03439195296636
 30
0.0
 11
40.0
 21
23.20660171779817
 31
0.0
  0
LINE
  5
800
330
1F
100
AcDbEntity
  8
2
  6
CONTINUOUS
370
25
 62
7
100
AcDbLine
 10
39.47423684457492
 20
23.10510263108502
 30
0.0
 11
40.0
 21
23.6308657865101
 31
0.0
  0
LINE
  5
801
330
1F
100
AcDbEntity
  8
2
  6
CONTINUOUS
370
25
 62
7
100
AcDbLine
 10
39.12068345398165
 20
23.17581330920367
 30
0.0
 11
40.0
 21
24.05512985522202
 31
0.0
  0
LINE
  5
802
330
1F
100
AcDbEntity
  8
2
  6
CONTINUOUS
370
25
 62
7
100
AcDbLine
 10
38.76713006338837
 20
23.24652398732232
 30
0.0
 11
40.0
 21
24.47939392393395
 31
0.0
  0
LINE
  5
803
330
1F
100
AcDbEntity
  8
2
  6
CONTINUOUS
370
25
 62
7
100
AcDbLine
 10
38.4135766727951
 20
23.31723466544098
 30
0.0
 11
40.0
 21
24.90365799264588
 31
0.0
  0
LINE
  5
804
330
1F
100
AcDbEntity
  8
2
  6
CONTINUOUS
370
25
 62
7
100
AcDbLine
 10
38.06002328220183
 20
23.38794534355963
 30
0.0
 11
39.59003492330274
 21
24.91795698466055
 31
0.0
  0
LINE
  5
805
330
1F
100
AcDbEntity
  8
2
  6
CONTINUOUS
370
25
 62
7
100
AcDbLine
 10
37.70646989160856
 20
23.45865602167829
 30
0.0
 11
39.05970483741283
 21
24.81189096748256
 31
0.0
  0
LINE
  5
806
330
1F
100
AcDbEntity
  8
2
  6
CONTINUOUS
370
25
 62
7
100
AcDbLine
 10
37.35291650101528
 20
23.52936669979694
 30
0.0
 11
38.52937475152292
 21
24.70582495030458
 31
0.0
  0
LINE
  5
807
330
1F
100
AcDbEntity
  8
2
  6
CONTINUOUS
370
25
 62
7
100
AcDbLine
 10
36.99936311042201
 20
23.6000773779156
 30
0.0
 11
37.99904466563301
 21
24.5997589331266
 31
0.0
  0
LINE
  5
808
330
1F
100
AcDbEntity
  8
2
  6
CONTINUOUS
370
25
 62
7
100
AcDbLine
 10
36.64580971982873
 20
23.67078805603425
 30
0.0
 11
37.46871457974311
 21
24.49369291594862
 31
0.0
  0
LINE
  5
809
330
1F
100
AcDbEntity
  8
2
  6
CONTINUOUS
370
25
 62
7
100
AcDbLine
 10
36.29225632923546
 20
23.74149873415291
 30
0.0
 11
36.93838449385319
 21
24.38762689877064
 31
0.0
  0
LINE
  5
80A
330
1F
100
AcDbEntity
  8
2
  6
CONTINUOUS
370
25
 62
7
100
AcDbLine
 10
35.93870293864219
 20
23.81220941227156
 30
0.0
 11
36.40805440796328
 21
24.28156088159265
 31
0.0
  0
LINE
  5
80B
330
1F
100
AcDbEntity
  8
2
  6
CONTINUOUS
370
25
 62
7
100
AcDbLine
 10
35.58514954804892
 20
23.88292009039021
 30
0.0
 11
35.87772432207338
 21
24.17549486441467
 31
0.0
  0
LINE
  5
80C
330
1F
100
AcDbEntity
  8
2
  6
CONTINUOUS
370
25
 62
7
100
AcDbLine
 10
35.23159615745564
 20
23.95363076850887
 30
0.0
 11
35.34739423618346
 21
24.06942884723669
 31
0.0
  0
LINE
  5
80D
330
1F
100
AcDbEntity
  8
2
  6
CONTINUOUS
370
25
 62
7
100
AcDbLine
 10
35.18321262782884
 20
24.03659252556577
 30
0.0
 11
35.27481894174327
 21
23.94498621165134
 31
0.0
  0
LINE
  5
80E
330
1F
100
AcDbEntity
  8
2
  6
CONTINUOUS
370
25
 62
7
100
AcDbLine
 10
35.53676601842211
 20
24.10730320368442
 30
0.0
 11
35.80514902763318
 21
23.83892019447336
 31
0.0
  0
LINE
  5
80F
330
1F
100
AcDbEntity
  8
2
  6
CONTINUOUS
370
25
 62
7
100
AcDbLine
 10
35.89031940901539
 20
24.17801388180307
 30
0.0
 11
36.33547911352309
 21
23.73285417729538
 31
0.0
  0
LINE
  5
810
330
1F
100
AcDbEntity
  8
2
  6
CONTINUOUS
370
25
 62
7
100
AcDbLine
 10
36.24387279960867
 20
24.24872455992173
 30
0.0
 11
36.865809199413
 21
23.6267881601174
 31
0.0
  0
LINE
  5
811
330
1F
100
AcDbEntity
  8
2
  6
CONTINUOUS
370
25
 62
7
100
AcDbLine
 10
36.59742619020194
 20
24.31943523804038
 30
0.0
 11
37.39613928530291
 21
23.52072214293942
 31
0.0
  0
LINE
  5
812
330
1F
100
AcDbEntity
  8
2
  6
CONTINUOUS
370
25
 62
7
100
AcDbLine
 10
36.95097958079521
 20
24.39014591615904
 30
0.0
 11
37.92646937119282
 21
23.41465612576144
 31
0.0
  0
LINE
  5
813
330
1F
100
AcDbEntity
  8
2
  6
CONTINUOUS
370
25
 62
7
100
AcDbLine
 10
37.30453297138848
 20
24.46085659427769
 30
0.0
 11
38.45679945708273
 21
23.30859010858345
 31
0.0
  0
LINE
  5
814
330
1F
100
AcDbEntity
  8
2
  6
CONTINUOUS
370
25
 62
7
100
AcDbLine
 10
37.65808636198176
 20
24.53156727239635
 30
0.0
 11
38.98712954297264
 21
23.20252409140547
 31
0.0
  0
LINE
  5
815
330
1F
100
AcDbEntity
  8
2
  6
CONTINUOUS
370
25
 62
7
100
AcDbLine
 10
38.01163975257503
 20
24.60227795051501
 30
0.0
 11
39.51745962886255
 21
23.09645807422749
 31
0.0
  0
LINE
  5
816
330
1F
100
AcDbEntity
  8
2
  6
CONTINUOUS
370
25
 62
7
100
AcDbLine
 10
38.36519314316831
 20
24.67298862863366
 30
0.0
 11
40.0
 21
23.03818177180197
 31
0.0
  0
LINE
  5
817
330
1F
100
AcDbEntity
  8
2
  6
CONTINUOUS
370
25
 62
7
100
AcDbLine
 10
38.71874653376157
 20
24.74369930675231
 30
0.0
 11
40.0
 21
23.46244584051389
 31
0.0
  0
LINE
  5
818
330
1F
100
AcDbEntity
  8
2
  6
CONTINUOUS
370
25
 62
7
100
AcDbLine
 10
39.07229992435485
 20
24.81440998487097
 30
0.0
 11
40.0
 21
23.88670990922582
 31
0.0
  0
LINE
  5
819
330
1F
100
AcDbEntity
  8
2
  6
CONTINUOUS
370
25
 62
7
100
AcDbLine
 10
39.42585331494813
 20
24.88512066298962
 30
0.0
 11
40.0
 21
24.31097397793775
 31
0.0
  0
LINE
  5
81A
330
1F
100
AcDbEntity
  8
2
  6
CONTINUOUS
370
25
 62
7
100
AcDbLine
 10
39.7794067055414
 20
24.95583134110828
 30
0.0
 11
40.0
 21
24.73523804664968
 31
0.0
  0
TEXT
  5
81B
330
1F
100
AcDbEntity
  8
2
  6
CONTINUOUS
370
25
 62
7
100
AcDbText
 10
41.9625
 20
25.49995
 30
0.0
 40
3.5
  1
7.6
 72
     1
 11
45.4625
 21
25.49995
 31
0.0
100
AcDbText
  0
LINE
  5
81C
330
1F
100
AcDbEntity
  8
SK2
  6
CONTINUOUS
370
25
 62
7
100
AcDbLine
 10
0.0
 20
-0.0000500000000001
 30
0.0
 11
0.0000000000000036
 21
34.99995
 31
0.0
  0
LINE
  5
81D
330
1F
100
AcDbEntity
  8
SK2
  6
CONTINUOUS
370
25
 62
7
100
AcDbLine
 10
35.0
 20
34.99995
 30
0.0
 11
35.0
 21
0.1000000000000014
 31
0.0
  0
LINE
  5
81E
330
1F
100
AcDbEntity
  8
SK2
  6
CONTINUOUS
370
25
 62
7
100
AcDbLine
 10
0.0000000000000036
 20
33.99995
 30
0.0
 11
35.0
 21
33.99995
 31
0.0
  0
LINE
  5
81F
330
1F
100
AcDbEntity
  8
SK2
  6
CONTINUOUS
370
25
 62
7
100
AcDbLine
 10
0.0000000000000036
 20
33.99995
 30
0.0
 11
5.000000000000004
 21
34.99995
 31
0.0
  0
LINE
  5
820
330
1F
100
AcDbEntity
  8
SK2
  6
CONTINUOUS
370
25
 62
7
100
AcDbLine
 10
5.000000000000004
 20
34.99995
 30
0.0
 11
5.000000000000004
 21
32.99995
 31
0.0
  0
LINE
  5
821
330
1F
100
AcDbEntity
  8
SK2
  6
CONTINUOUS
370
25
 62
7
100
AcDbLine
 10
5.000000000000004
 20
32.99995
 30
0.0
 11
0.0000000000000036
 21
33.99995
 31
0.0
  0
LINE
  5
822
330
1F
100
AcDbEntity
  8
SK2
  6
CONTINUOUS
370
25
 62
7
100
AcDbLine
 10
4.851130832281129
 20
33.02972383354377
 30
0.0
 11
5.000000000000004
 21
33.17859300126264
 31
0.0
  0
LINE
  5
823
330
1F
100
AcDbEntity
  8
SK2
  6
CONTINUOUS
370
25
 62
7
100
AcDbLine
 10
4.497577441687859
 20
33.10043451166243
 30
0.0
 11
5.000000000000004
 21
33.60285706997457
 31
0.0
  0
LINE
  5
824
330
1F
100
AcDbEntity
  8
SK2
  6
CONTINUOUS
370
25
 62
7
100
AcDbLine
 10
4.144024051094586
 20
33.17114518978108
 30
0.0
 11
5.000000000000004
 21
34.0271211386865
 31
0.0
  0
LINE
  5
825
330
1F
100
AcDbEntity
  8
SK2
  6
CONTINUOUS
370
25
 62
7
100
AcDbLine
 10
3.79047066050131
 20
33.24185586789973
 30
0.0
 11
5.000000000000004
 21
34.45138520739843
 31
0.0
  0
LINE
  5
826
330
1F
100
AcDbEntity
  8
SK2
  6
CONTINUOUS
370
25
 62
7
100
AcDbLine
 10
3.436917269908033
 20
33.31256654601839
 30
0.0
 11
5.000000000000004
 21
34.87564927611037
 31
0.0
  0
LINE
  5
827
330
1F
100
AcDbEntity
  8
SK2
  6
CONTINUOUS
370
25
 62
7
100
AcDbLine
 10
3.08336387931476
 20
33.38327722413705
 30
0.0
 11
4.625045818972133
 21
34.92495916379443
 31
0.0
  0
LINE
  5
828
330
1F
100
AcDbEntity
  8
SK2
  6
CONTINUOUS
370
25
 62
7
100
AcDbLine
 10
2.729810488721487
 20
33.4539879022557
 30
0.0
 11
4.094715733082221
 21
34.81889314661644
 31
0.0
  0
LINE
  5
829
330
1F
100
AcDbEntity
  8
SK2
  6
CONTINUOUS
370
25
 62
7
100
AcDbLine
 10
2.37625709812821
 20
33.52469858037435
 30
0.0
 11
3.56438564719231
 21
34.71282712943846
 31
0.0
  0
LINE
  5
82A
330
1F
100
AcDbEntity
  8
SK2
  6
CONTINUOUS
370
25
 62
7
100
AcDbLine
 10
2.022703707534937
 20
33.59540925849301
 30
0.0
 11
3.034055561302399
 21
34.60676111226047
 31
0.0
  0
LINE
  5
82B
330
1F
100
AcDbEntity
  8
SK2
  6
CONTINUOUS
370
25
 62
7
100
AcDbLine
 10
1.669150316941664
 20
33.66611993661166
 30
0.0
 11
2.503725475412491
 21
34.50069509508249
 31
0.0
  0
LINE
  5
82C
330
1F
100
AcDbEntity
  8
SK2
  6
CONTINUOUS
370
25
 62
7
100
AcDbLine
 10
1.315596926348391
 20
33.73683061473032
 30
0.0
 11
1.973395389522583
 21
34.39462907790451
 31
0.0
  0
LINE
  5
82D
330
1F
100
AcDbEntity
  8
SK2
  6
CONTINUOUS
370
25
 62
7
100
AcDbLine
 10
0.962043535755118
 20
33.80754129284897
 30
0.0
 11
1.443065303632672
 21
34.28856306072653
 31
0.0
  0
LINE
  5
82E
330
1F
100
AcDbEntity
  8
SK2
  6
CONTINUOUS
370
25
 62
7
100
AcDbLine
 10
0.6084901451618414
 20
33.87825197096763
 30
0.0
 11
0.9127352177427639
 21
34.18249704354855
 31
0.0
  0
LINE
  5
82F
330
1F
100
AcDbEntity
  8
SK2
  6
CONTINUOUS
370
25
 62
7
100
AcDbLine
 10
0.2549367545685684
 20
33.94896264908628
 30
0.0
 11
0.3824051318528561
 21
34.07643102637057
 31
0.0
  0
LINE
  5
830
330
1F
100
AcDbEntity
  8
SK2
  6
CONTINUOUS
370
25
 62
7
100
AcDbLine
 10
0.1568959161589376
 20
34.03132918323179
 30
0.0
 11
0.23534387423841
 21
33.95288122515231
 31
0.0
  0
LINE
  5
831
330
1F
100
AcDbEntity
  8
SK2
  6
CONTINUOUS
370
25
 62
7
100
AcDbLine
 10
0.5104493067522142
 20
34.10203986135043
 30
0.0
 11
0.7656739601283178
 21
33.84681520797433
 31
0.0
  0
LINE
  5
832
330
1F
100
AcDbEntity
  8
SK2
  6
CONTINUOUS
370
25
 62
7
100
AcDbLine
 10
0.8640026973454873
 20
34.17275053946909
 30
0.0
 11
1.296004046018229
 21
33.74074919079635
 31
0.0
  0
LINE
  5
833
330
1F
100
AcDbEntity
  8
SK2
  6
CONTINUOUS
370
25
 62
7
100
AcDbLine
 10
1.21755608793876
 20
34.24346121758775
 30
0.0
 11
1.826334131908141
 21
33.63468317361837
 31
0.0
  0
LINE
  5
834
330
1F
100
AcDbEntity
  8
SK2
  6
CONTINUOUS
370
25
 62
7
100
AcDbLine
 10
1.571109478532037
 20
34.31417189570641
 30
0.0
 11
2.356664217798052
 21
33.52861715644039
 31
0.0
  0
LINE
  5
835
330
1F
100
AcDbEntity
  8
SK2
  6
CONTINUOUS
370
25
 62
7
100
AcDbLine
 10
1.92466286912531
 20
34.38488257382505
 30
0.0
 11
2.88699430368796
 21
33.42255113926241
 31
0.0
  0
LINE
  5
836
330
1F
100
AcDbEntity
  8
SK2
  6
CONTINUOUS
370
25
 62
7
100
AcDbLine
 10
2.278216259718587
 20
34.45559325194371
 30
0.0
 11
3.417324389577875
 21
33.31648512208442
 31
0.0
  0
LINE
  5
837
330
1F
100
AcDbEntity
  8
SK2
  6
CONTINUOUS
370
25
 62
7
100
AcDbLine
 10
2.63176965031186
 20
34.52630393006237
 30
0.0
 11
3.947654475467779
 21
33.21041910490644
 31
0.0
  0
LINE
  5
838
330
1F
100
AcDbEntity
  8
SK2
  6
CONTINUOUS
370
25
 62
7
100
AcDbLine
 10
2.985323040905133
 20
34.59701460818103
 30
0.0
 11
4.47798456135769
 21
33.10435308772846
 31
0.0
  0
LINE
  5
839
330
1F
100
AcDbEntity
  8
SK2
  6
CONTINUOUS
370
25
 62
7
100
AcDbLine
 10
3.338876431498409
 20
34.66772528629968
 30
0.0
 11
5.000000000000004
 21
33.00660171779808
 31
0.0
  0
LINE
  5
83A
330
1F
100
AcDbEntity
  8
SK2
  6
CONTINUOUS
370
25
 62
7
100
AcDbLine
 10
3.692429822091682
 20
34.73843596441833
 30
0.0
 11
5.000000000000004
 21
33.43086578651
 31
0.0
  0
LINE
  5
83B
330
1F
100
AcDbEntity
  8
SK2
  6
CONTINUOUS
370
25
 62
7
100
AcDbLine
 10
4.045983212684956
 20
34.80914664253699
 30
0.0
 11
5.000000000000004
 21
33.85512985522193
 31
0.0
  0
LINE
  5
83C
330
1F
100
AcDbEntity
  8
SK2
  6
CONTINUOUS
370
25
 62
7
100
AcDbLine
 10
4.399536603278229
 20
34.87985732065565
 30
0.0
 11
5.000000000000004
 21
34.27939392393387
 31
0.0
  0
LINE
  5
83D
330
1F
100
AcDbEntity
  8
SK2
  6
CONTINUOUS
370
25
 62
7
100
AcDbLine
 10
4.753089993871502
 20
34.9505679987743
 30
0.0
 11
5.000000000000004
 21
34.70365799264579
 31
0.0
  0
LINE
  5
83E
330
1F
100
AcDbEntity
  8
SK2
  6
CONTINUOUS
370
25
 62
7
100
AcDbLine
 10
35.0
 20
33.99995
 30
0.0
 11
30.0
 21
32.99995
 31
0.0
  0
LINE
  5
83F
330
1F
100
AcDbEntity
  8
SK2
  6
CONTINUOUS
370
25
 62
7
100
AcDbLine
 10
30.0
 20
32.99995
 30
0.0
 11
30.0
 21
34.99995
 31
0.0
  0
LINE
  5
840
330
1F
100
AcDbEntity
  8
SK2
  6
CONTINUOUS
370
25
 62
7
100
AcDbLine
 10
30.0
 20
34.99995
 30
0.0
 11
35.0
 21
33.99995
 31
0.0
  0
LINE
  5
841
330
1F
100
AcDbEntity
  8
SK2
  6
CONTINUOUS
370
25
 62
7
100
AcDbLine
 10
34.58914208893566
 20
33.91777841778713
 30
0.0
 11
34.72609472595711
 21
34.05473105480858
 31
0.0
  0
LINE
  5
842
330
1F
100
AcDbEntity
  8
SK2
  6
CONTINUOUS
370
25
 62
7
100
AcDbLine
 10
34.05881200304575
 20
33.81171240060915
 30
0.0
 11
34.37254133536384
 21
34.12544173292724
 31
0.0
  0
LINE
  5
843
330
1F
100
AcDbEntity
  8
SK2
  6
CONTINUOUS
370
25
 62
7
100
AcDbLine
 10
33.52848191715584
 20
33.70564638343117
 30
0.0
 11
34.01898794477056
 21
34.19615241104589
 31
0.0
  0
LINE
  5
844
330
1F
100
AcDbEntity
  8
SK2
  6
CONTINUOUS
370
25
 62
7
100
AcDbLine
 10
32.99815183126593
 20
33.59958036625318
 30
0.0
 11
33.66543455417729
 21
34.26686308916454
 31
0.0
  0
LINE
  5
845
330
1F
100
AcDbEntity
  8
SK2
  6
CONTINUOUS
370
25
 62
7
100
AcDbLine
 10
32.46782174537601
 20
33.4935143490752
 30
0.0
 11
33.31188116358401
 21
34.3375737672832
 31
0.0
  0
LINE
  5
846
330
1F
100
AcDbEntity
  8
SK2
  6
CONTINUOUS
370
25
 62
7
100
AcDbLine
 10
31.93749165948611
 20
33.38744833189722
 30
0.0
 11
32.95832777299074
 21
34.40828444540185
 31
0.0
  0
LINE
  5
847
330
1F
100
AcDbEntity
  8
SK2
  6
CONTINUOUS
370
25
 62
7
100
AcDbLine
 10
31.4071615735962
 20
33.28138231471924
 30
0.0
 11
32.60477438239747
 21
34.47899512352051
 31
0.0
  0
LINE
  5
848
330
1F
100
AcDbEntity
  8
SK2
  6
CONTINUOUS
370
25
 62
7
100
AcDbLine
 10
30.87683148770629
 20
33.17531629754125
 30
0.0
 11
32.25122099180419
 21
34.54970580163916
 31
0.0
  0
LINE
  5
849
330
1F
100
AcDbEntity
  8
SK2
  6
CONTINUOUS
370
25
 62
7
100
AcDbLine
 10
30.34650140181638
 20
33.06925028036327
 30
0.0
 11
31.89766760121092
 21
34.62041647975782
 31
0.0
  0
LINE
  5
84A
330
1F
100
AcDbEntity
  8
SK2
  6
CONTINUOUS
370
25
 62
7
100
AcDbLine
 10
30.0
 20
33.14701294725882
 30
0.0
 11
31.54411421061764
 21
34.69112715787647
 31
0.0
  0
LINE
  5
84B
330
1F
100
AcDbEntity
  8
SK2
  6
CONTINUOUS
370
25
 62
7
100
AcDbLine
 10
30.0
 20
33.57127701597076
 30
0.0
 11
31.19056082002437
 21
34.76183783599512
 31
0.0
  0
LINE
  5
84C
330
1F
100
AcDbEntity
  8
SK2
  6
CONTINUOUS
370
25
 62
7
100
AcDbLine
 10
30.0
 20
33.99554108468269
 30
0.0
 11
30.8370074294311
 21
34.83254851411378
 31
0.0
  0
LINE
  5
84D
330
1F
100
AcDbEntity
  8
SK2
  6
CONTINUOUS
370
25
 62
7
100
AcDbLine
 10
30.0
 20
34.41980515339461
 30
0.0
 11
30.48345403883782
 21
34.90325919223244
 31
0.0
  0
LINE
  5
84E
330
1F
100
AcDbEntity
  8
SK2
  6
CONTINUOUS
370
25
 62
7
100
AcDbLine
 10
30.0
 20
34.84406922210655
 30
0.0
 11
30.12990064824455
 21
34.97396987035109
 31
0.0
  0
LINE
  5
84F
330
1F
100
AcDbEntity
  8
SK2
  6
CONTINUOUS
370
25
 62
7
100
AcDbLine
 10
30.0
 20
33.03818177180195
 30
0.0
 11
30.03185980983496
 21
33.00632196196699
 31
0.0
  0
LINE
  5
850
330
1F
100
AcDbEntity
  8
SK2
  6
CONTINUOUS
370
25
 62
7
100
AcDbLine
 10
30.0
 20
33.46244584051388
 30
0.0
 11
30.38541320042824
 21
33.07703264008565
 31
0.0
  0
LINE
  5
851
330
1F
100
AcDbEntity
  8
SK2
  6
CONTINUOUS
370
25
 62
7
100
AcDbLine
 10
30.0
 20
33.88670990922581
 30
0.0
 11
30.73896659102152
 21
33.1477433182043
 31
0.0
  0
LINE
  5
852
330
1F
100
AcDbEntity
  8
SK2
  6
CONTINUOUS
370
25
 62
7
100
AcDbLine
 10
30.0
 20
34.31097397793774
 30
0.0
 11
31.09251998161479
 21
33.21845399632296
 31
0.0
  0
LINE
  5
853
330
1F
100
AcDbEntity
  8
SK2
  6
CONTINUOUS
370
25
 62
7
100
AcDbLine
 10
30.0
 20
34.73523804664967
 30
0.0
 11
31.44607337220806
 21
33.28916467444161
 31
0.0
  0
LINE
  5
854
330
1F
100
AcDbEntity
  8
SK2
  6
CONTINUOUS
370
25
 62
7
100
AcDbLine
 10
30.19944014420201
 20
34.9600619711596
 30
0.0
 11
31.79962676280134
 21
33.35987535256027
 31
0.0
  0
LINE
  5
855
330
1F
100
AcDbEntity
  8
SK2
  6
CONTINUOUS
370
25
 62
7
100
AcDbLine
 10
30.72977023009192
 20
34.85399595398162
 30
0.0
 11
32.15318015339462
 21
33.43058603067892
 31
0.0
  0
LINE
  5
856
330
1F
100
AcDbEntity
  8
SK2
  6
CONTINUOUS
370
25
 62
7
100
AcDbLine
 10
31.26010031598183
 20
34.74792993680364
 30
0.0
 11
32.50673354398789
 21
33.50129670879758
 31
0.0
  0
LINE
  5
857
330
1F
100
AcDbEntity
  8
SK2
  6
CONTINUOUS
370
25
 62
7
100
AcDbLine
 10
31.79043040187175
 20
34.64186391962565
 30
0.0
 11
32.86028693458117
 21
33.57200738691623
 31
0.0
  0
LINE
  5
858
330
1F
100
AcDbEntity
  8
SK2
  6
CONTINUOUS
370
25
 62
7
100
AcDbLine
 10
32.32076048776165
 20
34.53579790244767
 30
0.0
 11
33.21384032517444
 21
33.64271806503488
 31
0.0
  0
LINE
  5
859
330
1F
100
AcDbEntity
  8
SK2
  6
CONTINUOUS
370
25
 62
7
100
AcDbLine
 10
32.85109057365156
 20
34.42973188526969
 30
0.0
 11
33.56739371576771
 21
33.71342874315354
 31
0.0
  0
LINE
  5
85A
330
1F
100
AcDbEntity
  8
SK2
  6
CONTINUOUS
370
25
 62
7
100
AcDbLine
 10
33.38142065954148
 20
34.32366586809171
 30
0.0
 11
33.92094710636098
 21
33.78413942127219
 31
0.0
  0
LINE
  5
85B
330
1F
100
AcDbEntity
  8
SK2
  6
CONTINUOUS
370
25
 62
7
100
AcDbLine
 10
33.91175074543138
 20
34.21759985091372
 30
0.0
 11
34.27450049695426
 21
33.85485009939084
 31
0.0
  0
LINE
  5
85C
330
1F
100
AcDbEntity
  8
SK2
  6
CONTINUOUS
370
25
 62
7
100
AcDbLine
 10
34.44208083132129
 20
34.11153383373574
 30
0.0
 11
34.62805388754753
 21
33.9255607775095
 31
0.0
  0
LINE
  5
85D
330
1F
100
AcDbEntity
  8
SK2
  6
CONTINUOUS
370
25
 62
7
100
AcDbLine
 10
34.9724109172112
 20
34.00546781655776
 30
0.0
 11
34.98160727814081
 21
33.99627145562815
 31
0.0
  0
TEXT
  5
85E
330
1F
100
AcDbEntity
  8
SK2
  6
CONTINUOUS
370
25
 62
7
100
AcDbText
 10
14.58333333333334
 20
35.49995
 30
0.0
 40
3.5
  1
35
 72
     1
 11
17.5
 21
35.49995
 31
0.0
100
AcDbText
  0
LINE
  5
85F
330
1F
100
AcDbEntity
  8
2
  6
CONTINUOUS
370
25
 62
7
100
AcDbLine
 10
34.4
 20
-0.09995
 30
0.0
 11
34.4
 21
-23.1
 31
0.0
  0
LINE
  5
860
330
1F
100
AcDbEntity
  8
2
  6
CONTINUOUS
370
25
 62
7
100
AcDbLine
 10
35.0
 20
-23.1
 30
0.0
 11
35.0
 21
-0.1000000000000014
 31
0.0
  0
LINE
  5
861
330
1F
100
AcDbEntity
  8
2
  6
CONTINUOUS
370
25
 62
7
100
AcDbLine
 10
27.4
 20
-22.1
 30
0.0
 11
50.925
 21
-22.1
 31
0.0
  0
LINE
  5
862
330
1F
100
AcDbEntity
  8
2
  6
CONTINUOUS
370
25
 62
7
100
AcDbLine
 10
34.4
 20
-22.1
 30
0.0
 11
29.4
 21
-23.1
 31
0.0
  0
LINE
  5
863
330
1F
100
AcDbEntity
  8
2
  6
CONTINUOUS
370
25
 62
7
100
AcDbLine
 10
29.4
 20
-23.1
 30
0.0
 11
29.4
 21
-21.1
 31
0.0
  0
LINE
  5
864
330
1F
100
AcDbEntity
  8
2
  6
CONTINUOUS
370
25
 62
7
100
AcDbLine
 10
29.4
 20
-21.1
 30
0.0
 11
34.4
 21
-22.1
 31
0.0
  0
LINE
  5
865
330
1F
100
AcDbEntity
  8
2
  6
CONTINUOUS
370
25
 62
7
100
AcDbLine
 10
34.16127646233768
 20
-22.14774470753246
 30
0.0
 11
34.24085097489179
 21
-22.06817019497836
 31
0.0
  0
LINE
  5
866
330
1F
100
AcDbEntity
  8
2
  6
CONTINUOUS
370
25
 62
7
100
AcDbLine
 10
33.63094637644777
 20
-22.25381072471044
 30
0.0
 11
33.88729758429851
 21
-21.99745951685971
 31
0.0
  0
LINE
  5
867
330
1F
100
AcDbEntity
  8
2
  6
CONTINUOUS
370
25
 62
7
100
AcDbLine
 10
33.10061629055786
 20
-22.35987674188843
 30
0.0
 11
33.53374419370524
 21
-21.92674883874105
 31
0.0
  0
LINE
  5
868
330
1F
100
AcDbEntity
  8
2
  6
CONTINUOUS
370
25
 62
7
100
AcDbLine
 10
32.57028620466795
 20
-22.46594275906641
 30
0.0
 11
33.18019080311196
 21
-21.8560381606224
 31
0.0
  0
LINE
  5
869
330
1F
100
AcDbEntity
  8
2
  6
CONTINUOUS
370
25
 62
7
100
AcDbLine
 10
32.03995611877804
 20
-22.57200877624439
 30
0.0
 11
32.82663741251869
 21
-21.78532748250374
 31
0.0
  0
LINE
  5
86A
330
1F
100
AcDbEntity
  8
2
  6
CONTINUOUS
370
25
 62
7
100
AcDbLine
 10
31.50962603288813
 20
-22.67807479342238
 30
0.0
 11
32.47308402192542
 21
-21.71461680438509
 31
0.0
  0
LINE
  5
86B
330
1F
100
AcDbEntity
  8
2
  6
CONTINUOUS
370
25
 62
7
100
AcDbLine
 10
30.97929594699822
 20
-22.78414081060036
 30
0.0
 11
32.11953063133215
 21
-21.64390612626643
 31
0.0
  0
LINE
  5
86C
330
1F
100
AcDbEntity
  8
2
  6
CONTINUOUS
370
25
 62
7
100
AcDbLine
 10
30.44896586110831
 20
-22.89020682777834
 30
0.0
 11
31.76597724073887
 21
-21.57319544814778
 31
0.0
  0
LINE
  5
86D
330
1F
100
AcDbEntity
  8
2
  6
CONTINUOUS
370
25
 62
7
100
AcDbLine
 10
29.9186357752184
 20
-22.99627284495632
 30
0.0
 11
31.4124238501456
 21
-21.50248477002912
 31
0.0
  0
LINE
  5
86E
330
1F
100
AcDbEntity
  8
2
  6
CONTINUOUS
370
25
 62
7
100
AcDbLine
 10
29.4
 20
-23.09064455146279
 30
0.0
 11
31.05887045955232
 21
-21.43177409191047
 31
0.0
  0
LINE
  5
86F
330
1F
100
AcDbEntity
  8
2
  6
CONTINUOUS
370
25
 62
7
100
AcDbLine
 10
29.4
 20
-22.66638048275087
 30
0.0
 11
30.70531706895905
 21
-21.36106341379181
 31
0.0
  0
LINE
  5
870
330
1F
100
AcDbEntity
  8
2
  6
CONTINUOUS
370
25
 62
7
100
AcDbLine
 10
29.4
 20
-22.24211641403894
 30
0.0
 11
30.35176367836578
 21
-21.29035273567316
 31
0.0
  0
LINE
  5
871
330
1F
100
AcDbEntity
  8
2
  6
CONTINUOUS
370
25
 62
7
100
AcDbLine
 10
29.4
 20
-21.81785234532701
 30
0.0
 11
29.9982102877725
 21
-21.21964205755451
 31
0.0
  0
LINE
  5
872
330
1F
100
AcDbEntity
  8
2
  6
CONTINUOUS
370
25
 62
7
100
AcDbLine
 10
29.4
 20
-21.39358827661508
 30
0.0
 11
29.64465689717923
 21
-21.14893137943585
 31
0.0
  0
LINE
  5
873
330
1F
100
AcDbEntity
  8
2
  6
CONTINUOUS
370
25
 62
7
100
AcDbLine
 10
29.4
 20
-23.09135881895644
 30
0.0
 11
29.40720098420296
 21
-23.09855980315941
 31
0.0
  0
LINE
  5
874
330
1F
100
AcDbEntity
  8
2
  6
CONTINUOUS
370
25
 62
7
100
AcDbLine
 10
29.4
 20
-22.66709475024452
 30
0.0
 11
29.76075437479624
 21
-23.02784912504075
 31
0.0
  0
LINE
  5
875
330
1F
100
AcDbEntity
  8
2
  6
CONTINUOUS
370
25
 62
7
100
AcDbLine
 10
29.4
 20
-22.24283068153259
 30
0.0
 11
30.11430776538951
 21
-22.9571384469221
 31
0.0
  0
LINE
  5
876
330
1F
100
AcDbEntity
  8
2
  6
CONTINUOUS
370
25
 62
7
100
AcDbLine
 10
29.4
 20
-21.81856661282066
 30
0.0
 11
30.46786115598278
 21
-22.88642776880344
 31
0.0
  0
LINE
  5
877
330
1F
100
AcDbEntity
  8
2
  6
CONTINUOUS
370
25
 62
7
100
AcDbLine
 10
29.4
 20
-21.39430254410873
 30
0.0
 11
30.82141454657605
 21
-22.81571709068479
 31
0.0
  0
LINE
  5
878
330
1F
100
AcDbEntity
  8
2
  6
CONTINUOUS
370
25
 62
7
100
AcDbLine
 10
29.562451905754
 20
-21.1324903811508
 30
0.0
 11
31.17496793716933
 21
-22.74500641256613
 31
0.0
  0
LINE
  5
879
330
1F
100
AcDbEntity
  8
2
  6
CONTINUOUS
370
25
 62
7
100
AcDbLine
 10
30.0927819916439
 20
-21.23855639832878
 30
0.0
 11
31.5285213277626
 21
-22.67429573444748
 31
0.0
  0
LINE
  5
87A
330
1F
100
AcDbEntity
  8
2
  6
CONTINUOUS
370
25
 62
7
100
AcDbLine
 10
30.62311207753381
 20
-21.34462241550677
 30
0.0
 11
31.88207471835587
 21
-22.60358505632882
 31
0.0
  0
LINE
  5
87B
330
1F
100
AcDbEntity
  8
2
  6
CONTINUOUS
370
25
 62
7
100
AcDbLine
 10
31.15344216342373
 20
-21.45068843268475
 30
0.0
 11
32.23562810894915
 21
-22.53287437821017
 31
0.0
  0
LINE
  5
87C
330
1F
100
AcDbEntity
  8
2
  6
CONTINUOUS
370
25
 62
7
100
AcDbLine
 10
31.68377224931363
 20
-21.55675444986273
 30
0.0
 11
32.58918149954242
 21
-22.46216370009152
 31
0.0
  0
LINE
  5
87D
330
1F
100
AcDbEntity
  8
2
  6
CONTINUOUS
370
25
 62
7
100
AcDbLine
 10
32.21410233520355
 20
-21.66282046704071
 30
0.0
 11
32.9427348901357
 21
-22.39145302197286
 31
0.0
  0
LINE
  5
87E
330
1F
100
AcDbEntity
  8
2
  6
CONTINUOUS
370
25
 62
7
100
AcDbLine
 10
32.74443242109346
 20
-21.76888648421869
 30
0.0
 11
33.29628828072897
 21
-22.32074234385421
 31
0.0
  0
LINE
  5
87F
330
1F
100
AcDbEntity
  8
2
  6
CONTINUOUS
370
25
 62
7
100
AcDbLine
 10
33.27476250698336
 20
-21.87495250139668
 30
0.0
 11
33.64984167132224
 21
-22.25003166573555
 31
0.0
  0
LINE
  5
880
330
1F
100
AcDbEntity
  8
2
  6
CONTINUOUS
370
25
 62
7
100
AcDbLine
 10
33.80509259287328
 20
-21.98101851857466
 30
0.0
 11
34.00339506191551
 21
-22.1793209876169
 31
0.0
  0
LINE
  5
881
330
1F
100
AcDbEntity
  8
2
  6
CONTINUOUS
370
25
 62
7
100
AcDbLine
 10
34.33542267876319
 20
-22.08708453575264
 30
0.0
 11
34.35694845250879
 21
-22.10861030949824
 31
0.0
  0
LINE
  5
882
330
1F
100
AcDbEntity
  8
2
  6
CONTINUOUS
370
25
 62
7
100
AcDbLine
 10
35.0
 20
-22.1
 30
0.0
 11
40.0
 21
-21.1
 31
0.0
  0
LINE
  5
883
330
1F
100
AcDbEntity
  8
2
  6
CONTINUOUS
370
25
 62
7
100
AcDbLine
 10
40.0
 20
-21.1
 30
0.0
 11
40.0
 21
-23.1
 31
0.0
  0
LINE
  5
884
330
1F
100
AcDbEntity
  8
2
  6
CONTINUOUS
370
25
 62
7
100
AcDbLine
 10
40.0
 20
-23.1
 30
0.0
 11
35.0
 21
-22.1
 31
0.0
  0
LINE
  5
885
330
1F
100
AcDbEntity
  8
2
  6
CONTINUOUS
370
25
 62
7
100
AcDbLine
 10
39.78509701169909
 20
-23.05701940233982
 30
0.0
 11
40.0
 21
-22.84211641403892
 31
0.0
  0
LINE
  5
886
330
1F
100
AcDbEntity
  8
2
  6
CONTINUOUS
370
25
 62
7
100
AcDbLine
 10
39.43154362110582
 20
-22.98630872422116
 30
0.0
 11
40.0
 21
-22.41785234532698
 31
0.0
  0
LINE
  5
887
330
1F
100
AcDbEntity
  8
2
  6
CONTINUOUS
370
25
 62
7
100
AcDbLine
 10
39.07799023051255
 20
-22.91559804610251
 30
0.0
 11
40.0
 21
-21.99358827661506
 31
0.0
  0
LINE
  5
888
330
1F
100
AcDbEntity
  8
2
  6
CONTINUOUS
370
25
 62
7
100
AcDbLine
 10
38.72443683991927
 20
-22.84488736798386
 30
0.0
 11
40.0
 21
-21.56932420790313
 31
0.0
  0
LINE
  5
889
330
1F
100
AcDbEntity
  8
2
  6
CONTINUOUS
370
25
 62
7
100
AcDbLine
 10
38.370883449326
 20
-22.7741766898652
 30
0.0
 11
40.0
 21
-21.14506013919121
 31
0.0
  0
LINE
  5
88A
330
1F
100
AcDbEntity
  8
2
  6
CONTINUOUS
370
25
 62
7
100
AcDbLine
 10
38.01733005873272
 20
-22.70346601174655
 30
0.0
 11
39.52599508809909
 21
-21.19480098238018
 31
0.0
  0
LINE
  5
88B
330
1F
100
AcDbEntity
  8
2
  6
CONTINUOUS
370
25
 62
7
100
AcDbLine
 10
37.66377666813945
 20
-22.63275533362789
 30
0.0
 11
38.99566500220918
 21
-21.30086699955817
 31
0.0
  0
LINE
  5
88C
330
1F
100
AcDbEntity
  8
2
  6
CONTINUOUS
370
25
 62
7
100
AcDbLine
 10
37.31022327754618
 20
-22.56204465550924
 30
0.0
 11
38.46533491631926
 21
-21.40693301673615
 31
0.0
  0
LINE
  5
88D
330
1F
100
AcDbEntity
  8
2
  6
CONTINUOUS
370
25
 62
7
100
AcDbLine
 10
36.95666988695291
 20
-22.49133397739058
 30
0.0
 11
37.93500483042936
 21
-21.51299903391413
 31
0.0
  0
LINE
  5
88E
330
1F
100
AcDbEntity
  8
2
  6
CONTINUOUS
370
25
 62
7
100
AcDbLine
 10
36.60311649635963
 20
-22.42062329927193
 30
0.0
 11
37.40467474453946
 21
-21.61906505109211
 31
0.0
  0
LINE
  5
88F
330
1F
100
AcDbEntity
  8
2
  6
CONTINUOUS
370
25
 62
7
100
AcDbLine
 10
36.24956310576636
 20
-22.34991262115327
 30
0.0
 11
36.87434465864955
 21
-21.72513106827009
 31
0.0
  0
LINE
  5
890
330
1F
100
AcDbEntity
  8
2
  6
CONTINUOUS
370
25
 62
7
100
AcDbLine
 10
35.89600971517309
 20
-22.27920194303462
 30
0.0
 11
36.34401457275963
 21
-21.83119708544807
 31
0.0
  0
LINE
  5
891
330
1F
100
AcDbEntity
  8
2
  6
CONTINUOUS
370
25
 62
7
100
AcDbLine
 10
35.54245632457982
 20
-22.20849126491596
 30
0.0
 11
35.81368448686973
 21
-21.93726310262605
 31
0.0
  0
LINE
  5
892
330
1F
100
AcDbEntity
  8
2
  6
CONTINUOUS
370
25
 62
7
100
AcDbLine
 10
35.18890293398654
 20
-22.13778058679731
 30
0.0
 11
35.28335440097982
 21
-22.04332911980404
 31
0.0
  0
LINE
  5
893
330
1F
100
AcDbEntity
  8
2
  6
CONTINUOUS
370
25
 62
7
100
AcDbLine
 10
35.30500041160354
 20
-22.03899991767929
 30
0.0
 11
35.45750061740532
 21
-22.19150012348107
 31
0.0
  0
LINE
  5
894
330
1F
100
AcDbEntity
  8
2
  6
CONTINUOUS
370
25
 62
7
100
AcDbLine
 10
35.65855380219682
 20
-21.96828923956064
 30
0.0
 11
35.98783070329523
 21
-22.29756614065905
 31
0.0
  0
LINE
  5
895
330
1F
100
AcDbEntity
  8
2
  6
CONTINUOUS
370
25
 62
7
100
AcDbLine
 10
36.0121071927901
 20
-21.89757856144198
 30
0.0
 11
36.51816078918514
 21
-22.40363215783703
 31
0.0
  0
LINE
  5
896
330
1F
100
AcDbEntity
  8
2
  6
CONTINUOUS
370
25
 62
7
100
AcDbLine
 10
36.36566058338337
 20
-21.82686788332333
 30
0.0
 11
37.04849087507505
 21
-22.50969817501501
 31
0.0
  0
LINE
  5
897
330
1F
100
AcDbEntity
  8
2
  6
CONTINUOUS
370
25
 62
7
100
AcDbLine
 10
36.71921397397664
 20
-21.75615720520467
 30
0.0
 11
37.57882096096496
 21
-22.61576419219299
 31
0.0
  0
LINE
  5
898
330
1F
100
AcDbEntity
  8
2
  6
CONTINUOUS
370
25
 62
7
100
AcDbLine
 10
37.07276736456991
 20
-21.68544652708602
 30
0.0
 11
38.10915104685487
 21
-22.72183020937097
 31
0.0
  0
LINE
  5
899
330
1F
100
AcDbEntity
  8
2
  6
CONTINUOUS
370
25
 62
7
100
AcDbLine
 10
37.42632075516319
 20
-21.61473584896736
 30
0.0
 11
38.63948113274478
 21
-22.82789622654896
 31
0.0
  0
LINE
  5
89A
330
1F
100
AcDbEntity
  8
2
  6
CONTINUOUS
370
25
 62
7
100
AcDbLine
 10
37.77987414575646
 20
-21.54402517084871
 30
0.0
 11
39.16981121863469
 21
-22.93396224372694
 31
0.0
  0
LINE
  5
89B
330
1F
100
AcDbEntity
  8
2
  6
CONTINUOUS
370
25
 62
7
100
AcDbLine
 10
38.13342753634973
 20
-21.47331449273005
 30
0.0
 11
39.7001413045246
 21
-23.04002826090492
 31
0.0
  0
LINE
  5
89C
330
1F
100
AcDbEntity
  8
2
  6
CONTINUOUS
370
25
 62
7
100
AcDbLine
 10
38.486980926943
 20
-21.4026038146114
 30
0.0
 11
40.0
 21
-22.91562288766839
 31
0.0
  0
LINE
  5
89D
330
1F
100
AcDbEntity
  8
2
  6
CONTINUOUS
370
25
 62
7
100
AcDbLine
 10
38.84053431753628
 20
-21.33189313649275
 30
0.0
 11
40.0
 21
-22.49135881895646
 31
0.0
  0
LINE
  5
89E
330
1F
100
AcDbEntity
  8
2
  6
CONTINUOUS
370
25
 62
7
100
AcDbLine
 10
39.19408770812955
 20
-21.26118245837409
 30
0.0
 11
40.0
 21
-22.06709475024454
 31
0.0
  0
LINE
  5
89F
330
1F
100
AcDbEntity
  8
2
  6
CONTINUOUS
370
25
 62
7
100
AcDbLine
 10
39.54764109872282
 20
-21.19047178025544
 30
0.0
 11
40.0
 21
-21.64283068153261
 31
0.0
  0
LINE
  5
8A0
330
1F
100
AcDbEntity
  8
2
  6
CONTINUOUS
370
25
 62
7
100
AcDbLine
 10
39.9011944893161
 20
-21.11976110213678
 30
0.0
 11
40.0
 21
-21.21856661282068
 31
0.0
  0
TEXT
  5
8A1
330
1F
100
AcDbEntity
  8
2
  6
CONTINUOUS
370
25
 62
7
100
AcDbText
 10
42.25416666666666
 20
-20.6
 30
0.0
 40
3.5
  1
0.6
 72
     1
 11
45.46249999999999
 21
-20.6
 31
0.0
100
AcDbText
  0
LINE
  5
8A2
330
1F
100
AcDbEntity
  8
2
  6
CONTINUOUS
370
25
 62
7
100
AcDbLine
 10
34.97101854
 20
-0.07040147
 30
0.0
 11
58.90056706816779
 21
-23.99994999816776
 31
0.0
  0
LINE
  5
8A3
330
1F
100
AcDbEntity
  8
2
  6
CONTINUOUS
370
25
 62
7
100
AcDbLine
 10
58.90056706816779
 20
-23.99994999816776
 30
0.0
 11
72.32556706816779
 21
-23.99994999816776
 31
0.0
  0
LINE
  5
8A4
330
1F
100
AcDbEntity
  8
2
  6
CONTINUOUS
370
25
 62
7
100
AcDbLine
 10
34.97101854
 20
-0.07040147
 30
0.0
 11
34.90030786188134
 21
0.0003092081186548
 31
0.0
  0
LINE
  5
8A5
330
1F
100
AcDbEntity
  8
2
  6
CONTINUOUS
370
25
 62
7
100
AcDbLine
 10
34.97101854
 20
-0.07040147
 30
0.0
 11
39.21365922711929
 21
-2.898828594746187
 31
0.0
  0
LINE
  5
8A6
330
1F
100
AcDbEntity
  8
2
  6
CONTINUOUS
370
25
 62
7
100
AcDbLine
 10
39.21365922711929
 20
-2.898828594746187
 30
0.0
 11
37.79944566474619
 21
-4.313042157119283
 31
0.0
  0
LINE
  5
8A7
330
1F
100
AcDbEntity
  8
2
  6
CONTINUOUS
370
25
 62
7
100
AcDbLine
 10
37.79944566474619
 20
-4.313042157119283
 30
0.0
 11
34.97101854
 21
-0.07040147
 31
0.0
  0
LINE
  5
8A8
330
1F
100
AcDbEntity
  8
2
  6
CONTINUOUS
370
25
 62
7
100
AcDbLine
 10
37.68817704903046
 20
-4.146139233545687
 30
0.0
 11
39.04675630354569
 21
-2.787559979030458
 31
0.0
  0
LINE
  5
8A9
330
1F
100
AcDbEntity
  8
2
  6
CONTINUOUS
370
25
 62
7
100
AcDbLine
 10
37.51847142154569
 20
-3.891580792318532
 30
0.0
 11
38.79219786231853
 21
-2.617854351545686
 31
0.0
  0
LINE
  5
8AA
330
1F
100
AcDbEntity
  8
2
  6
CONTINUOUS
370
25
 62
7
100
AcDbLine
 10
37.34876579406092
 20
-3.637022351091375
 30
0.0
 11
38.53763942109138
 21
-2.448148724060916
 31
0.0
  0
LINE
  5
8AB
330
1F
100
AcDbEntity
  8
2
  6
CONTINUOUS
370
25
 62
7
100
AcDbLine
 10
37.17906016657615
 20
-3.382463909864219
 30
0.0
 11
38.28308097986422
 21
-2.278443096576146
 31
0.0
  0
LINE
  5
8AC
330
1F
100
AcDbEntity
  8
2
  6
CONTINUOUS
370
25
 62
7
100
AcDbLine
 10
37.00935453909138
 20
-3.127905468637062
 30
0.0
 11
38.02852253863706
 21
-2.108737469091373
 31
0.0
  0
LINE
  5
8AD
330
1F
100
AcDbEntity
  8
2
  6
CONTINUOUS
370
25
 62
7
100
AcDbLine
 10
36.8396489116066
 20
-2.873347027409906
 30
0.0
 11
37.77396409740991
 21
-1.939031841606603
 31
0.0
  0
LINE
  5
8AE
330
1F
100
AcDbEntity
  8
2
  6
CONTINUOUS
370
25
 62
7
100
AcDbLine
 10
36.66994328412184
 20
-2.618788586182747
 30
0.0
 11
37.51940565618275
 21
-1.769326214121831
 31
0.0
  0
LINE
  5
8AF
330
1F
100
AcDbEntity
  8
2
  6
CONTINUOUS
370
25
 62
7
100
AcDbLine
 10
36.50023765663706
 20
-2.364230144955592
 30
0.0
 11
37.26484721495559
 21
-1.599620586637062
 31
0.0
  0
LINE
  5
8B0
330
1F
100
AcDbEntity
  8
2
  6
CONTINUOUS
370
25
 62
7
100
AcDbLine
 10
36.33053202915229
 20
-2.109671703728434
 30
0.0
 11
37.01028877372843
 21
-1.429914959152292
 31
0.0
  0
LINE
  5
8B1
330
1F
100
AcDbEntity
  8
2
  6
CONTINUOUS
370
25
 62
7
100
AcDbLine
 10
36.16082640166752
 20
-1.855113262501277
 30
0.0
 11
36.75573033250128
 21
-1.26020933166752
 31
0.0
  0
LINE
  5
8B2
330
1F
100
AcDbEntity
  8
2
  6
CONTINUOUS
370
25
 62
7
100
AcDbLine
 10
35.99112077418275
 20
-1.600554821274121
 30
0.0
 11
36.50117189127413
 21
-1.090503704182748
 31
0.0
  0
LINE
  5
8B3
330
1F
100
AcDbEntity
  8
2
  6
CONTINUOUS
370
25
 62
7
100
AcDbLine
 10
35.82141514669798
 20
-1.345996380046962
 30
0.0
 11
36.24661345004696
 21
-0.9207980766979773
 31
0.0
  0
LINE
  5
8B4
330
1F
100
AcDbEntity
  8
2
  6
CONTINUOUS
370
25
 62
7
100
AcDbLine
 10
35.65170951921321
 20
-1.091437938819807
 30
0.0
 11
35.9920550088198
 21
-0.7510924492132052
 31
0.0
  0
LINE
  5
8B5
330
1F
100
AcDbEntity
  8
2
  6
CONTINUOUS
370
25
 62
7
100
AcDbLine
 10
35.48200389172843
 20
-0.8368794975926495
 30
0.0
 11
35.73749656759265
 21
-0.5813868217284348
 31
0.0
  0
LINE
  5
8B6
330
1F
100
AcDbEntity
  8
2
  6
CONTINUOUS
370
25
 62
7
100
AcDbLine
 10
35.31229826424367
 20
-0.5823210563654948
 30
0.0
 11
35.4829381263655
 21
-0.4116811942436627
 31
0.0
  0
LINE
  5
8B7
330
1F
100
AcDbEntity
  8
2
  6
CONTINUOUS
370
25
 62
7
100
AcDbLine
 10
35.14259263675889
 20
-0.3277626151383384
 30
0.0
 11
35.22837968513834
 21
-0.2419755667588914
 31
0.0
  0
LINE
  5
8B8
330
1F
100
AcDbEntity
  8
2
  6
CONTINUOUS
370
25
 62
7
100
AcDbLine
 10
34.97288700927412
 20
-0.0732041739111819
 30
0.0
 11
34.97382124391118
 21
-0.0722699392741202
 31
0.0
  0
LINE
  5
8B9
330
1F
100
AcDbEntity
  8
2
  6
CONTINUOUS
370
25
 62
7
100
AcDbLine
 10
37.24433061864214
 20
-3.48036958796321
 30
0.0
 11
37.9382244262722
 21
-4.174263395593272
 31
0.0
  0
LINE
  5
8BA
330
1F
100
AcDbEntity
  8
2
  6
CONTINUOUS
370
25
 62
7
100
AcDbLine
 10
36.39580248121828
 20
-2.207577381827425
 30
0.0
 11
38.15035646062817
 21
-3.962131361237308
 31
0.0
  0
LINE
  5
8BB
330
1F
100
AcDbEntity
  8
2
  6
CONTINUOUS
370
25
 62
7
100
AcDbLine
 10
35.54727434379442
 20
-0.9347851756916334
 30
0.0
 11
38.36248849498413
 21
-3.749999326881342
 31
0.0
  0
LINE
  5
8BC
330
1F
100
AcDbEntity
  8
2
  6
CONTINUOUS
370
25
 62
7
100
AcDbLine
 10
35.37942704044415
 20
-0.3426738036294319
 30
0.0
 11
38.57462052934009
 21
-3.537867292525378
 31
0.0
  0
LINE
  5
8BD
330
1F
100
AcDbEntity
  8
2
  6
CONTINUOUS
370
25
 62
7
100
AcDbLine
 10
36.65221924657993
 20
-1.191201941053285
 30
0.0
 11
38.78675256369606
 21
-3.325735258169413
 31
0.0
  0
LINE
  5
8BE
330
1F
100
AcDbEntity
  8
2
  6
CONTINUOUS
370
25
 62
7
100
AcDbLine
 10
37.92501145271571
 20
-2.039730078477138
 30
0.0
 11
38.99888459805202
 21
-3.113603223813451
 31
0.0
  0
LINE
  5
8BF
330
1F
100
AcDbEntity
  8
2
  6
CONTINUOUS
370
25
 62
7
100
AcDbLine
 10
39.19780365885149
 20
-2.888258215900992
 30
0.0
 11
39.21101663240799
 21
-2.901471189457487
 31
0.0
  0
TEXT
  5
8C0
330
1F
100
AcDbEntity
  8
2
  6
CONTINUOUS
370
25
 62
7
100
AcDbText
 10
61.23806706816779
 20
-22.49994999816776
 30
0.0
 40
3.5
  1
R0.1
 72
     1
 11
65.6130670681678
 21
-22.49994999816776
 31
0.0
100
AcDbText
  0
LINE
  5
8C1
330
1F
100
AcDbEntity
  8
SK1
  6
CONTINUOUS
370
50
 62
4
100
AcDbLine
 10
27.4
 20
0.0
 30
0.0
 11
29.15
 21
0.0
 31
0.0
  0
LINE
  5
8C2
330
1F
100
AcDbEntity
  8
SK1
  6
CONTINUOUS
370
50
 62
4
100
AcDbLine
 10
27.4
 20
0.0
 30
0.0
 11
27.4
 21
1.75
 31
0.0
  0
ARC
  5
8C3
330
1F
100
AcDbEntity
  8
SK1
  6
CONTINUOUS
370
50
 62
4
100
AcDbCircle
 10
27.4
 20
0.0
 30
0.0
 40
1.75
100
AcDbArc
 50
0.0
 51
90.0
  0
LINE
  5
8C4
330
1F
100
AcDbEntity
  8
SK1
  6
CONTINUOUS
370
50
 62
4
100
AcDbLine
 10
27.4
 20
0.0
 30
0.0
 11
25.65
 21
0.0
 31
0.0
  0
ARC
  5
8C5
330
1F
100
AcDbEntity
  8
SK1
  6
CONTINUOUS
370
50
 62
4
100
AcDbCircle
 10
27.4
 20
0.0
 30
0.0
 40
1.75
100
AcDbArc
 50
180.0
 51
270.0
  0
LINE
  5
8C6
330
1F
100
AcDbEntity
  8
SK1
  6
CONTINUOUS
370
50
 62
4
100
AcDbLine
 10
27.4
 20
-1.75
 30
0.0
 11
27.4
 21
0.0
 31
0.0
  0
ARC
  5
8C7
330
1F
100
AcDbEntity
  8
SK1
  6
CONTINUOUS
370
50
 62
4
100
AcDbCircle
 10
27.4
 20
0.0
 30
0.0
 40
1.75
100
AcDbArc
 50
270.0
 51
0.0
  0
ARC
  5
8C8
330
1F
100
AcDbEntity
  8
SK1
  6
CONTINUOUS
370
50
 62
4
100
AcDbCircle
 10
27.4
 20
0.0
 30
0.0
 40
1.75
100
AcDbArc
 50
90.0
 51
180.0
  0
LINE
  5
8C9
330
1F
100
AcDbEntity
  8
SK1
  6
CONTINUOUS
370
50
 62
4
100
AcDbLine
 10
27.17717274741573
 20
-1.73564731720198
 30
0.0
 11
27.4
 21
-1.512820064617713
 31
0.0
  0
LINE
  5
8CA
330
1F
100
AcDbEntity
  8
SK1
  6
CONTINUOUS
370
50
 62
4
100
AcDbLine
 10
28.91282006461771
 20
0.0
 30
0.0
 11
29.13564731720198
 21
0.2228272525842674
 31
0.0
  0
LINE
  5
8CB
330
1F
100
AcDbEntity
  8
SK1
  6
CONTINUOUS
370
50
 62
4
100
AcDbLine
 10
26.96930380681873
 20
-1.69602888438369
 30
0.0
 11
27.4
 21
-1.265332691202421
 31
0.0
  0
LINE
  5
8CC
330
1F
100
AcDbEntity
  8
SK1
  6
CONTINUOUS
370
50
 62
4
100
AcDbLine
 10
28.66533269120242
 20
0.0
 30
0.0
 11
29.09602888438369
 21
0.4306961931812696
 31
0.0
  0
LINE
  5
8CD
330
1F
100
AcDbEntity
  8
SK1
  6
CONTINUOUS
370
50
 62
4
100
AcDbLine
 10
26.78148340435764
 20
-1.636361913429485
 30
0.0
 11
27.4
 21
-1.01784531778713
 31
0.0
  0
LINE
  5
8CE
330
1F
100
AcDbEntity
  8
SK1
  6
CONTINUOUS
370
50
 62
4
100
AcDbLine
 10
28.41784531778713
 20
0.0
 30
0.0
 11
29.03636191342948
 21
0.6185165956423557
 31
0.0
  0
LINE
  5
8CF
330
1F
100
AcDbEntity
  8
SK1
  6
CONTINUOUS
370
50
 62
4
100
AcDbLine
 10
26.6098551094628
 20
-1.560502834909039
 30
0.0
 11
27.4
 21
-0.7703579443718382
 31
0.0
  0
LINE
  5
8D0
330
1F
100
AcDbEntity
  8
SK1
  6
CONTINUOUS
370
50
 62
4
100
AcDbLine
 10
28.17035794437184
 20
0.0
 30
0.0
 11
28.96050283490904
 21
0.7901448905372013
 31
0.0
  0
LINE
  5
8D1
330
1F
100
AcDbEntity
  8
SK1
  6
CONTINUOUS
370
50
 62
4
100
AcDbLine
 10
26.45217783219447
 20
-1.470692738762079
 30
0.0
 11
27.4
 21
-0.5228705709565462
 31
0.0
  0
LINE
  5
8D2
330
1F
100
AcDbEntity
  8
SK1
  6
CONTINUOUS
370
50
 62
4
100
AcDbLine
 10
27.92287057095654
 20
0.0
 30
0.0
 11
28.87069273876208
 21
0.947822167805533
 31
0.0
  0
LINE
  5
8D3
330
1F
100
AcDbEntity
  8
SK1
  6
CONTINUOUS
370
50
 62
4
100
AcDbLine
 10
26.30842956711548
 20
-1.366953630425777
 30
0.0
 11
27.4
 21
-0.2753831975412551
 31
0.0
  0
LINE
  5
8D4
330
1F
100
AcDbEntity
  8
SK1
  6
CONTINUOUS
370
50
 62
4
100
AcDbLine
 10
27.67538319754125
 20
0.0
 30
0.0
 11
28.76695363042577
 21
1.091570432884522
 31
0.0
  0
LINE
  5
8D5
330
1F
100
AcDbEntity
  8
SK1
  6
CONTINUOUS
370
50
 62
4
100
AcDbLine
 10
26.17712164538164
 20
-1.25077417874432
 30
0.0
 11
27.4
 21
-0.0278958241259639
 31
0.0
  0
LINE
  5
8D6
330
1F
100
AcDbEntity
  8
SK1
  6
CONTINUOUS
370
50
 62
4
100
AcDbLine
 10
27.42789582412596
 20
0.0
 30
0.0
 11
28.65077417874432
 21
1.222878354618356
 31
0.0
  0
LINE
  5
8D7
330
1F
100
AcDbEntity
  8
SK1
  6
CONTINUOUS
370
50
 62
4
100
AcDbLine
 10
26.05784030371346
 20
-1.122568146997212
 30
0.0
 11
27.18040845071067
 21
0.0
 31
0.0
  0
LINE
  5
8D8
330
1F
100
AcDbEntity
  8
SK1
  6
CONTINUOUS
370
50
 62
4
100
AcDbLine
 10
27.4
 20
0.2195915492893277
 30
0.0
 11
28.52256814699721
 21
1.34215969628654
 31
0.0
  0
LINE
  5
8D9
330
1F
100
AcDbEntity
  8
SK1
  6
CONTINUOUS
370
50
 62
4
100
AcDbLine
 10
25.95188167231256
 20
-0.9810394049828186
 30
0.0
 11
26.93292107729538
 21
0.0
 31
0.0
  0
LINE
  5
8DA
330
1F
100
AcDbEntity
  8
SK1
  6
CONTINUOUS
370
50
 62
4
100
AcDbLine
 10
27.4
 20
0.4670789227046193
 30
0.0
 11
28.38103940498281
 21
1.448118327687438
 31
0.0
  0
LINE
  5
8DB
330
1F
100
AcDbEntity
  8
SK1
  6
CONTINUOUS
370
50
 62
4
100
AcDbLine
 10
25.85832908651575
 20
-0.8271046173643402
 30
0.0
 11
26.68543370388009
 21
0.0
 31
0.0
  0
LINE
  5
8DC
330
1F
100
AcDbEntity
  8
SK1
  6
CONTINUOUS
370
50
 62
4
100
AcDbLine
 10
27.4
 20
0.71456629611991
 30
0.0
 11
28.22710461736434
 21
1.54167091348425
 31
0.0
  0
LINE
  5
8DD
330
1F
100
AcDbEntity
  8
SK1
  6
CONTINUOUS
370
50
 62
4
100
AcDbLine
 10
25.77918473824204
 20
-0.6587615922227528
 30
0.0
 11
26.4379463304648
 21
0.0
 31
0.0
  0
LINE
  5
8DE
330
1F
100
AcDbEntity
  8
SK1
  6
CONTINUOUS
370
50
 62
4
100
AcDbLine
 10
27.4
 20
0.9620536695352015
 30
0.0
 11
28.05876159222275
 21
1.620815261757954
 31
0.0
  0
LINE
  5
8DF
330
1F
100
AcDbEntity
  8
SK1
  6
CONTINUOUS
370
50
 62
4
100
AcDbLine
 10
25.71629687706963
 20
-0.474162079979876
 30
0.0
 11
26.1904589570495
 21
0.0
 31
0.0
  0
LINE
  5
8E0
330
1F
100
AcDbEntity
  8
SK1
  6
CONTINUOUS
370
50
 62
4
100
AcDbLine
 10
27.4
 20
1.209541042950494
 30
0.0
 11
27.87416207997988
 21
1.683703122930369
 31
0.0
  0
LINE
  5
8E1
330
1F
100
AcDbEntity
  8
SK1
  6
CONTINUOUS
370
50
 62
4
100
AcDbLine
 10
25.67198100434271
 20
-0.2709905792915031
 30
0.0
 11
25.94297158363421
 21
0.0
 31
0.0
  0
LINE
  5
8E2
330
1F
100
AcDbEntity
  8
SK1
  6
CONTINUOUS
370
50
 62
4
100
AcDbLine
 10
27.4
 20
1.457028416365784
 30
0.0
 11
27.6709905792915
 21
1.728018995657286
 31
0.0
  0
LINE
  5
8E3
330
1F
100
AcDbEntity
  8
SK1
  6
CONTINUOUS
370
50
 62
4
100
AcDbLine
 10
25.6513858468978
 20
-0.0440983633211194
 30
0.0
 11
25.69548421021893
 21
0.0
 31
0.0
  0
LINE
  5
8E4
330
1F
100
AcDbEntity
  8
SK1
  6
CONTINUOUS
370
50
 62
4
100
AcDbLine
 10
27.4
 20
1.704515789781075
 30
0.0
 11
27.44409836332112
 21
1.748614153102194
 31
0.0
  0
LINE
  5
8E5
330
1F
100
AcDbEntity
  8
SK1
  6
CONTINUOUS
370
50
 62
4
100
AcDbLine
 10
25.76386517603681
 20
-0.6191473609004006
 30
0.0
 11
26.7808526390996
 21
-1.636134823963186
 31
0.0
  0
LINE
  5
8E6
330
1F
100
AcDbEntity
  8
SK1
  6
CONTINUOUS
370
50
 62
4
100
AcDbLine
 10
25.67363430643545
 20
-0.2814291178837463
 30
0.0
 11
27.11857088211625
 21
-1.726365693564548
 31
0.0
  0
LINE
  5
8E7
330
1F
100
AcDbEntity
  8
SK1
  6
CONTINUOUS
370
50
 62
4
100
AcDbLine
 10
25.6503344343115
 20
-0.0106418723445003
 30
0.0
 11
27.3893581276555
 21
-1.749665565688503
 31
0.0
  0
LINE
  5
8E8
330
1F
100
AcDbEntity
  8
SK1
  6
CONTINUOUS
370
50
 62
4
100
AcDbLine
 10
25.88717993538229
 20
0.0
 30
0.0
 11
27.4
 21
-1.51282006461771
 31
0.0
  0
LINE
  5
8E9
330
1F
100
AcDbEntity
  8
SK1
  6
CONTINUOUS
370
50
 62
4
100
AcDbLine
 10
26.13466730879758
 20
0.0
 30
0.0
 11
27.4
 21
-1.265332691202418
 31
0.0
  0
LINE
  5
8EA
330
1F
100
AcDbEntity
  8
SK1
  6
CONTINUOUS
370
50
 62
4
100
AcDbLine
 10
26.38215468221287
 20
0.0
 30
0.0
 11
27.4
 21
-1.017845317787128
 31
0.0
  0
LINE
  5
8EB
330
1F
100
AcDbEntity
  8
SK1
  6
CONTINUOUS
370
50
 62
4
100
AcDbLine
 10
26.62964205562816
 20
0.0
 30
0.0
 11
27.4
 21
-0.7703579443718369
 31
0.0
  0
LINE
  5
8EC
330
1F
100
AcDbEntity
  8
SK1
  6
CONTINUOUS
370
50
 62
4
100
AcDbLine
 10
26.87712942904345
 20
0.0
 30
0.0
 11
27.4
 21
-0.5228705709565453
 31
0.0
  0
LINE
  5
8ED
330
1F
100
AcDbEntity
  8
SK1
  6
CONTINUOUS
370
50
 62
4
100
AcDbLine
 10
27.12461680245875
 20
0.0
 30
0.0
 11
27.4
 21
-0.2753831975412537
 31
0.0
  0
LINE
  5
8EE
330
1F
100
AcDbEntity
  8
SK1
  6
CONTINUOUS
370
50
 62
4
100
AcDbLine
 10
27.37210417587404
 20
0.0
 30
0.0
 11
27.4
 21
-0.027895824125963
 31
0.0
  0
LINE
  5
8EF
330
1F
100
AcDbEntity
  8
SK1
  6
CONTINUOUS
370
50
 62
4
100
AcDbLine
 10
27.4
 20
0.219591549289329
 30
0.0
 11
27.61959154928933
 21
0.0
 31
0.0
  0
LINE
  5
8F0
330
1F
100
AcDbEntity
  8
SK1
  6
CONTINUOUS
370
50
 62
4
100
AcDbLine
 10
27.4
 20
0.4670789227046202
 30
0.0
 11
27.86707892270462
 21
0.0
 31
0.0
  0
LINE
  5
8F1
330
1F
100
AcDbEntity
  8
SK1
  6
CONTINUOUS
370
50
 62
4
100
AcDbLine
 10
27.4
 20
0.7145662961199113
 30
0.0
 11
28.11456629611991
 21
0.0
 31
0.0
  0
LINE
  5
8F2
330
1F
100
AcDbEntity
  8
SK1
  6
CONTINUOUS
370
50
 62
4
100
AcDbLine
 10
27.4
 20
0.9620536695352029
 30
0.0
 11
28.3620536695352
 21
0.0
 31
0.0
  0
LINE
  5
8F3
330
1F
100
AcDbEntity
  8
SK1
  6
CONTINUOUS
370
50
 62
4
100
AcDbLine
 10
27.4
 20
1.209541042950494
 30
0.0
 11
28.60954104295049
 21
0.0
 31
0.0
  0
LINE
  5
8F4
330
1F
100
AcDbEntity
  8
SK1
  6
CONTINUOUS
370
50
 62
4
100
AcDbLine
 10
27.4
 20
1.457028416365785
 30
0.0
 11
28.85702841636579
 21
0.0
 31
0.0
  0
LINE
  5
8F5
330
1F
100
AcDbEntity
  8
SK1
  6
CONTINUOUS
370
50
 62
4
100
AcDbLine
 10
27.4
 20
1.704515789781076
 30
0.0
 11
29.10451578978108
 21
0.0
 31
0.0
  0
LINE
  5
8F6
330
1F
100
AcDbEntity
  8
SK1
  6
CONTINUOUS
370
50
 62
4
100
AcDbLine
 10
27.61543384193567
 20
1.736569321260697
 30
0.0
 11
29.13656932126069
 21
0.2154338419356714
 31
0.0
  0
LINE
  5
8F7
330
1F
100
AcDbEntity
  8
SK1
  6
CONTINUOUS
370
50
 62
4
100
AcDbLine
 10
27.93283284728993
 20
1.666657689321729
 30
0.0
 11
29.06665768932173
 21
0.5328328472899322
 31
0.0
  0
LINE
  5
8F8
330
1F
100
AcDbEntity
  8
SK1
  6
CONTINUOUS
370
50
 62
4
100
AcDbLine
 10
28.44009874905674
 20
1.406879160970207
 30
0.0
 11
28.8068791609702
 21
1.040098749056747
 31
0.0
  0
LINE
  5
8F9
330
1F
100
AcDbEntity
  8
4
  6
LONGDASH_DASH
370
25
 62
2
100
AcDbLine
 10
27.4
 20
0.0
 30
0.0
 11
35.0
 21
0.0
 31
0.0
  0
LINE
  5
8FA
330
1F
100
AcDbEntity
  8
SK4
  6
LONGDASH_DASH
370
25
 62
2
100
AcDbLine
 10
-6.0
 20
0.0
 30
0.0
 11
41.0
 21
0.0
 31
0.0
  0
ARC
  5
8FB
330
1F
100
AcDbEntity
  8
SK6
  6
CONTINUOUS
370
25
 62
5
100
AcDbCircle
 10
57.96138200837651
 20
-26.74524575338786
 30
0.0
 40
2.760489128492204
100
AcDbArc
 50
338.9379403434233
 51
90.44457437511392
  0
LINE
  5
8FC
330
1F
100
AcDbEntity
  8
SK6
  6
CONTINUOUS
370
25
 62
5
100
AcDbLine
 10
57.93996279695983
 20
-23.98483972421281
 30
0.0
 11
57.93996279695983
 21
-25.08789835613463
 31
0.0
  0
ARC
  5
8FD
330
1F
100
AcDbEntity
  8
SK6
  6
CONTINUOUS
370
25
 62
5
100
AcDbCircle
 10
57.95050902936917
 20
-26.76523924566821
 30
0.0
 40
1.677374043771785
100
AcDbArc
 50
243.4214706017864
 51
90.36024081226107
  0
ARC
  5
8FE
330
1F
100
AcDbEntity
  8
SK6
  6
CONTINUOUS
370
25
 62
5
100
AcDbCircle
 10
60.47275989684958
 20
-26.33383199215561
 30
0.0
 40
3.800217030022754
100
AcDbArc
 50
210.5483731288539
 51
236.97801693668
  0
LINE
  5
8FF
330
1F
100
AcDbEntity
  8
SK6
  6
CONTINUOUS
370
25
 62
5
100
AcDbLine
 10
58.40179068512487
 20
-29.52016781867535
 30
0.0
 11
62.54373096742671
 21
-29.52016781867535
 31
0.0
  0
ARC
  5
900
330
1F
100
AcDbEntity
  8
SK6
  6
CONTINUOUS
370
25
 62
5
100
AcDbCircle
 10
60.47276183877257
 20
-26.3338320937346
 30
0.0
 40
3.800216899582472
100
AcDbArc
 50
303.0219828477959
 51
326.3732153033475
  0
LINE
  5
901
330
1F
100
AcDbEntity
  8
SK6
  6
CONTINUOUS
370
25
 62
5
100
AcDbLine
 10
63.63705975135723
 20
-28.4383194907709
 30
0.0
 11
60.27976170575462
 21
-28.4383194907709
 31
0.0
  0
LINE
  5
902
330
1F
100
AcDbEntity
  8
SK6
  6
CONTINUOUS
370
25
 62
5
100
AcDbLine
 10
60.27976170575462
 20
-28.4383194907709
 30
0.0
 11
64.19962109771987
 21
-27.07691829641694
 31
0.0
  0
ARC
  5
903
330
1F
100
AcDbEntity
  8
SK6
  6
CONTINUOUS
370
25
 62
5
100
AcDbCircle
 10
60.4727625615721
 20
-26.3338326048594
 30
0.0
 40
3.80021721661473
100
AcDbArc
 50
348.7238644184695
 51
53.4691051260883
  0
LINE
  5
904
330
1F
100
AcDbEntity
  8
SK6
  6
CONTINUOUS
370
25
 62
5
100
AcDbLine
 10
62.73486524538546
 20
-23.28022124429967
 30
0.0
 11
60.53745047882737
 21
-27.73730973507057
 31
0.0
  0
ENDSEC
  0
SECTION
  2
OBJECTS
  0
DICTIONARY
  5
C
330
0
100
AcDbDictionary
281
     1
  3
ACAD_GROUP
350
D
  3
ACAD_LAYOUT
350
1A
  3
ACAD_MATERIAL
350
3B
  3
ACAD_MLEADERSTYLE
350
907
  3
ACAD_MLINESTYLE
350
17
  3
ACAD_PLOTSETTINGS
350
19
  3
ACAD_PLOTSTYLENAME
350
E
  3
ACAD_SCALELIST
350
29D
  3
ACAD_VISUALSTYLE
350
2A
  3
AcDbVariableDictionary
350
905
  0
DICTIONARY
  5
D
102
{ACAD_REACTORS
330
C
102
}
330
C
100
AcDbDictionary
281
     1
  0
DICTIONARY
  5
1A
102
{ACAD_REACTORS
330
C
102
}
330
C
100
AcDbDictionary
281
     1
  3
Layout1
350
1E
  3
Layout2
350
26
  3
Model
350
22
  0
DICTIONARY
  5
3B
102
{ACAD_REACTORS
330
C
102
}
330
C
100
AcDbDictionary
281
     1
  3
ByBlock
350
3D
  3
ByLayer
350
3C
  3
Global
350
3E
  0
DICTIONARY
  5
907
102
{ACAD_REACTORS
330
C
102
}
330
C
100
AcDbDictionary
281
     1
  0
DICTIONARY
  5
17
102
{ACAD_REACTORS
330
C
102
}
330
C
100
AcDbDictionary
281
     1
  3
Standard
350
18
  0
DICTIONARY
  5
19
102
{ACAD_REACTORS
330
C
102
}
330
C
100
AcDbDictionary
281
     1
  0
ACDBDICTIONARYWDFLT
  5
E
102
{ACAD_REACTORS
330
C
102
}
330
C
100
AcDbDictionary
281
     1
  3
Normal
350
F
100
AcDbDictionaryWithDefault
340
F
  0
DICTIONARY
  5
29D
102
{ACAD_REACTORS
330
C
102
}
330
C
100
AcDbDictionary
281
     1
  3
A0
350
29E
  3
A1
350
29F
  3
A2
350
2A0
  3
A3
350
2A1
  3
A4
350
2A2
  3
A5
350
2A3
  3
A6
350
2A4
  3
A7
350
2A5
  3
A8
350
2A6
  3
A9
350
2A7
  3
B0
350
2A8
  3
B1
350
2A9
  3
B2
350
2AA
  3
B3
350
2AB
  3
B4
350
2AC
  3
B5
350
2AD
  3
B6
350
2AE
  3
B7
350
2AF
  3
B8
350
2B0
  3
B9
350
2B1
  3
C0
350
2B2
  3
C1
350
2B3
  3
C2
350
2B4
  3
C3
350
2B5
  3
C4
350
2B6
  3
C5
350
2B7
  3
C6
350
2B8
  3
C7
350
2B9
  3
C8
350
2BA
  3
C9
350
2BB
  3
D0
350
2BC
  3
D1
350
2BD
  3
D2
350
2BE
  0
DICTIONARY
  5
2A
102
{ACAD_REACTORS
330
C
102
}
330
C
100
AcDbDictionary
281
     1
  3
2dWireframe
350
2F
  3
3D Hidden
350
31
  3
3dWireframe
350
30
  3
Basic
350
32
  3
Brighten
350
36
  3
ColorChange
350
3A
  3
Conceptual
350
34
  3
Dim
350
35
  3
Facepattern
350
39
  3
Flat
350
2B
  3
FlatWithEdges
350
2C
  3
Gouraud
350
2D
  3
GouraudWithEdges
350
2E
  3
Linepattern
350
38
  3
Realistic
350
33
  3
Thicken
350
37
  0
DICTIONARY
  5
905
102
{ACAD_REACTORS
330
C
102
}
330
C
100
AcDbDictionary
281
     1
  3
CANNOSCALE
350
90A
  3
DIMASSOC
350
90B
  3
HIDETEXT
350
90C
  3
PSOLHEIGHT
350
909
  3
PSOLWIDTH
350
908
  0
LAYOUT
  5
1E
102
{ACAD_REACTORS
330
1A
102
}
330
1A
100
AcDbPlotSettings
  1

  2
none_device
  4

  6

 40
0.0
 41
0.0
 42
0.0
 43
0.0
 44
0.0
 45
0.0
 46
0.0
 47
0.0
 48
0.0
 49
0.0
140
0.0
141
0.0
142
1.0
143
1.0
 70
   688
 72
     0
 73
     0
 74
     5
  7

 75
    16
147
1.0
148
0.0
149
0.0
100
AcDbLayout
  1
Layout1
 70
     1
 71
     1
 10
0.0
 20
0.0
 11
420.0
 21
297.0
 12
0.0
 22
0.0
 32
0.0
 14
1.000000000000000E+20
 24
1.000000000000000E+20
 34
1.000000000000000E+20
 15
-1.000000000000000E+20
 25
-1.000000000000000E+20
 35
-1.000000000000000E+20
146
0.0
 13
0.0
 23
0.0
 33
0.0
 16
1.0
 26
0.0
 36
0.0
 17
0.0
 27
1.0
 37
0.0
 76
     0
330
1B
  0
LAYOUT
  5
26
102
{ACAD_REACTORS
330
1A
102
}
330
1A
100
AcDbPlotSettings
  1

  2
none_device
  4

  6

 40
0.0
 41
0.0
 42
0.0
 43
0.0
 44
0.0
 45
0.0
 46
0.0
 47
0.0
 48
0.0
 49
0.0
140
0.0
141
0.0
142
1.0
143
1.0
 70
   688
 72
     0
 73
     0
 74
     5
  7

 75
    16
147
1.0
148
0.0
149
0.0
100
AcDbLayout
  1
Layout2
 70
     1
 71
     2
 10
0.0
 20
0.0
 11
0.0
 21
0.0
 12
0.0
 22
0.0
 32
0.0
 14
0.0
 24
0.0
 34
0.0
 15
0.0
 25
0.0
 35
0.0
146
0.0
 13
0.0
 23
0.0
 33
0.0
 16
1.0
 26
0.0
 36
0.0
 17
0.0
 27
1.0
 37
0.0
 76
     0
330
23
  0
LAYOUT
  5
22
102
{ACAD_REACTORS
330
1A
102
}
330
1A
100
AcDbPlotSettings
  1

  2
none_device
  4

  6

 40
0.0
 41
0.0
 42
0.0
 43
0.0
 44
0.0
 45
0.0
 46
0.0
 47
0.0
 48
0.0
 49
0.0
140
0.0
141
0.0
142
1.0
143
1.0
 70
  1712
 72
     0
 73
     0
 74
     0
  7

 75
     0
147
1.0
148
0.0
149
0.0
100
AcDbLayout
  1
Model
 70
     1
 71
     0
 10
0.0
 20
0.0
 11
420.0
 21
297.0
 12
0.0
 22
0.0
 32
0.0
 14
0.0
 24
0.0
 34
0.0
 15
25.0
 25
35.0
 35
0.0
146
0.0
 13
0.0
 23
0.0
 33
0.0
 16
1.0
 26
0.0
 36
0.0
 17
0.0
 27
1.0
 37
0.0
 76
     0
330
1F
331
29
  0
MATERIAL
  5
3D
102
{ACAD_REACTORS
330
3B
102
}
102
{ACAD_XDICTIONARY
360
92F
102
}
330
3B
100
AcDbMaterial
  1
ByBlock
  0
MATERIAL
  5
3C
102
{ACAD_REACTORS
330
3B
102
}
102
{ACAD_XDICTIONARY
360
92D
102
}
330
3B
100
AcDbMaterial
  1
ByLayer
  0
MATERIAL
  5
3E
102
{ACAD_REACTORS
330
3B
102
}
102
{ACAD_XDICTIONARY
360
931
102
}
330
3B
100
AcDbMaterial
  1
Global
  0
MLINESTYLE
  5
18
102
{ACAD_REACTORS
330
17
102
}
330
17
100
AcDbMlineStyle
  2
Standard
 70
     0
  3

 62
   256
 51
90.0
 52
90.0
 71
     2
 49
0.5
 62
   256
  6
BYLAYER
 49
-0.5
 62
   256
  6
BYLAYER
  0
ACDBPLACEHOLDER
  5
F
102
{ACAD_REACTORS
330
E
102
}
330
E
  0
SCALE
  5
29E
102
{ACAD_REACTORS
330
29D
102
}
330
29D
100
AcDbScale
 70
     0
300
1:1
140
1.0
141
1.0
290
     1
  0
SCALE
  5
29F
102
{ACAD_REACTORS
330
29D
102
}
330
29D
100
AcDbScale
 70
     0
300
1:2
140
1.0
141
2.0
290
     0
  0
SCALE
  5
2A0
102
{ACAD_REACTORS
330
29D
102
}
330
29D
100
AcDbScale
 70
     0
300
1:4
140
1.0
141
4.0
290
     0
  0
SCALE
  5
2A1
102
{ACAD_REACTORS
330
29D
102
}
330
29D
100
AcDbScale
 70
     0
300
1:5
140
1.0
141
5.0
290
     0
  0
SCALE
  5
2A2
102
{ACAD_REACTORS
330
29D
102
}
330
29D
100
AcDbScale
 70
     0
300
1:8
140
1.0
141
8.0
290
     0
  0
SCALE
  5
2A3
102
{ACAD_REACTORS
330
29D
102
}
330
29D
100
AcDbScale
 70
     0
300
1:10
140
1.0
141
10.0
290
     0
  0
SCALE
  5
2A4
102
{ACAD_REACTORS
330
29D
102
}
330
29D
100
AcDbScale
 70
     0
300
1:16
140
1.0
141
16.0
290
     0
  0
SCALE
  5
2A5
102
{ACAD_REACTORS
330
29D
102
}
330
29D
100
AcDbScale
 70
     0
300
1:20
140
1.0
141
20.0
290
     0
  0
SCALE
  5
2A6
102
{ACAD_REACTORS
330
29D
102
}
330
29D
100
AcDbScale
 70
     0
300
1:30
140
1.0
141
30.0
290
     0
  0
SCALE
  5
2A7
102
{ACAD_REACTORS
330
29D
102
}
330
29D
100
AcDbScale
 70
     0
300
1:40
140
1.0
141
40.0
290
     0
  0
SCALE
  5
2A8
102
{ACAD_REACTORS
330
29D
102
}
330
29D
100
AcDbScale
 70
     0
300
1:50
140
1.0
141
50.0
290
     0
  0
SCALE
  5
2A9
102
{ACAD_REACTORS
330
29D
102
}
330
29D
100
AcDbScale
 70
     0
300
1:100
140
1.0
141
100.0
290
     0
  0
SCALE
  5
2AA
102
{ACAD_REACTORS
330
29D
102
}
330
29D
100
AcDbScale
 70
     0
300
2:1
140
2.0
141
1.0
290
     0
  0
SCALE
  5
2AB
102
{ACAD_REACTORS
330
29D
102
}
330
29D
100
AcDbScale
 70
     0
300
4:1
140
4.0
141
1.0
290
     0
  0
SCALE
  5
2AC
102
{ACAD_REACTORS
330
29D
102
}
330
29D
100
AcDbScale
 70
     0
300
8:1
140
8.0
141
1.0
290
     0
  0
SCALE
  5
2AD
102
{ACAD_REACTORS
330
29D
102
}
330
29D
100
AcDbScale
 70
     0
300
10:1
140
10.0
141
1.0
290
     0
  0
SCALE
  5
2AE
102
{ACAD_REACTORS
330
29D
102
}
330
29D
100
AcDbScale
 70
     0
300
100:1
140
100.0
141
1.0
290
     0
  0
SCALE
  5
2AF
102
{ACAD_REACTORS
330
29D
102
}
330
29D
100
AcDbScale
 70
     0
300
1/128" = 1'-0"
140
0.0078125
141
12.0
290
     0
  0
SCALE
  5
2B0
102
{ACAD_REACTORS
330
29D
102
}
330
29D
100
AcDbScale
 70
     0
300
1/64" = 1'-0"
140
0.015625
141
12.0
290
     0
  0
SCALE
  5
2B1
102
{ACAD_REACTORS
330
29D
102
}
330
29D
100
AcDbScale
 70
     0
300
1/32" = 1'-0"
140
0.03125
141
12.0
290
     0
  0
SCALE
  5
2B2
102
{ACAD_REACTORS
330
29D
102
}
330
29D
100
AcDbScale
 70
     0
300
1/16" = 1'-0"
140
0.0625
141
12.0
290
     0
  0
SCALE
  5
2B3
102
{ACAD_REACTORS
330
29D
102
}
330
29D
100
AcDbScale
 70
     0
300
3/32" = 1'-0"
140
0.09375
141
12.0
290
     0
  0
SCALE
  5
2B4
102
{ACAD_REACTORS
330
29D
102
}
330
29D
100
AcDbScale
 70
     0
300
1/8" = 1'-0"
140
0.125
141
12.0
290
     0
  0
SCALE
  5
2B5
102
{ACAD_REACTORS
330
29D
102
}
330
29D
100
AcDbScale
 70
     0
300
3/16" = 1'-0"
140
0.1875
141
12.0
290
     0
  0
SCALE
  5
2B6
102
{ACAD_REACTORS
330
29D
102
}
330
29D
100
AcDbScale
 70
     0
300
1/4" = 1'-0"
140
0.25
141
12.0
290
     0
  0
SCALE
  5
2B7
102
{ACAD_REACTORS
330
29D
102
}
330
29D
100
AcDbScale
 70
     0
300
3/8" = 1'-0"
140
0.375
141
12.0
290
     0
  0
SCALE
  5
2B8
102
{ACAD_REACTORS
330
29D
102
}
330
29D
100
AcDbScale
 70
     0
300
1/2" = 1'-0"
140
0.5
141
12.0
290
     0
  0
SCALE
  5
2B9
102
{ACAD_REACTORS
330
29D
102
}
330
29D
100
AcDbScale
 70
     0
300
3/4" = 1'-0"
140
0.75
141
12.0
290
     0
  0
SCALE
  5
2BA
102
{ACAD_REACTORS
330
29D
102
}
330
29D
100
AcDbScale
 70
     0
300
1" = 1'-0"
140
1.0
141
12.0
290
     0
  0
SCALE
  5
2BB
102
{ACAD_REACTORS
330
29D
102
}
330
29D
100
AcDbScale
 70
     0
300
1-1/2" = 1'-0"
140
1.5
141
12.0
290
     0
  0
SCALE
  5
2BC
102
{ACAD_REACTORS
330
29D
102
}
330
29D
100
AcDbScale
 70
     0
300
3" = 1'-0"
140
3.0
141
12.0
290
     0
  0
SCALE
  5
2BD
102
{ACAD_REACTORS
330
29D
102
}
330
29D
100
AcDbScale
 70
     0
300
6" = 1'-0"
140
6.0
141
12.0
290
     0
  0
SCALE
  5
2BE
102
{ACAD_REACTORS
330
29D
102
}
330
29D
100
AcDbScale
 70
     0
300
1'-0" = 1'-0"
140
12.0
141
12.0
290
     0
  0
VISUALSTYLE
  5
2F
102
{ACAD_REACTORS
330
2A
102
}
102
{ACAD_XDICTIONARY
360
915
102
}
330
2A
100
AcDbVisualStyle
  2
2dWireframe
 70
     4
 71
     0
 72
     2
 73
     0
 90
        0
 40
-0.6
 41
-30.0
 62
     5
 63
     7
 74
     1
 91
        4
 64
     7
 65
   257
 75
     1
175
     1
 42
1.0
 92
        0
 66
   257
 43
1.0
 76
     1
 77
     6
 78
     2
 67
     7
 79
     5
170
     0
171
     0
290
     0
174
     0
 93
        1
 44
0.0
173
     0
291
     0
 45
0.0
1001
ACAD
1000
AcDbSavedByObjectVersion
1070
     0
  0
VISUALSTYLE
  5
31
102
{ACAD_REACTORS
330
2A
102
}
102
{ACAD_XDICTIONARY
360
919
102
}
330
2A
100
AcDbVisualStyle
  2
3D Hidden
 70
     6
 71
     1
 72
     2
 73
     2
 90
        0
 40
-0.6
 41
-30.0
 62
     5
 63
     7
 74
     2
 91
        2
 64
     7
 65
   257
 75
     2
175
     1
 42
40.0
 92
        0
 66
   257
 43
1.0
 76
     1
 77
     6
 78
     2
 67
     7
 79
     3
170
     0
171
     0
290
     0
174
     0
 93
        1
 44
0.0
173
     0
291
     0
 45
0.0
1001
ACAD
1000
AcDbSavedByObjectVersion
1070
     0
  0
VISUALSTYLE
  5
30
102
{ACAD_REACTORS
330
2A
102
}
102
{ACAD_XDICTIONARY
360
917
102
}
330
2A
100
AcDbVisualStyle
  2
3dWireframe
 70
     5
 71
     0
 72
     2
 73
     0
 90
        0
 40
-0.6
 41
-30.0
 62
     5
 63
     7
 74
     1
 91
        4
 64
     7
 65
   257
 75
     1
175
     1
 42
1.0
 92
        0
 66
   257
 43
1.0
 76
     1
 77
     6
 78
     2
 67
     7
 79
     5
170
     0
171
     0
290
     0
174
     0
 93
        1
 44
0.0
173
     0
291
     0
 45
0.0
1001
ACAD
1000
AcDbSavedByObjectVersion
1070
     0
  0
VISUALSTYLE
  5
32
102
{ACAD_REACTORS
330
2A
102
}
102
{ACAD_XDICTIONARY
360
91B
102
}
330
2A
100
AcDbVisualStyle
  2
Basic
 70
     7
 71
     1
 72
     0
 73
     1
 90
        0
 40
-0.6
 41
-30.0
 62
     5
 63
     7
 74
     0
 91
        4
 64
     7
 65
   257
 75
     1
175
     1
 42
1.0
 92
        8
 66
     7
 43
1.0
 76
     1
 77
     6
 78
     2
 67
     7
 79
     5
170
     0
171
     0
290
     0
174
     0
 93
        1
 44
0.0
173
     0
291
     1
 45
0.0
1001
ACAD
1000
AcDbSavedByObjectVersion
1070
     0
  0
VISUALSTYLE
  5
36
102
{ACAD_REACTORS
330
2A
102
}
102
{ACAD_XDICTIONARY
360
923
102
}
330
2A
100
AcDbVisualStyle
  2
Brighten
 70
    12
 71
     2
 72
     2
 73
     0
 90
        0
 40
-0.6
 41
-30.0
 62
     5
 63
     7
 74
     1
 91
        4
 64
     7
 65
   257
 75
     1
175
     1
 42
1.0
 92
        8
 66
     7
 43
1.0
 76
     1
 77
     6
 78
     2
 67
     7
 79
     5
170
     0
171
     0
290
     0
174
     0
 93
        1
 44
50.0
173
     0
291
     1
 45
0.0
1001
ACAD
1000
AcDbSavedByObjectVersion
1070
     0
  0
VISUALSTYLE
  5
3A
102
{ACAD_REACTORS
330
2A
102
}
102
{ACAD_XDICTIONARY
360
92B
102
}
330
2A
100
AcDbVisualStyle
  2
ColorChange
 70
    16
 71
     2
 72
     2
 73
     3
 90
        0
 40
-0.6
 41
-30.0
 62
     5
 63
     8
 74
     1
 91
        4
 64
     7
 65
   257
 75
     1
175
     1
 42
1.0
 92
        8
 66
     8
 43
1.0
 76
     1
 77
     6
 78
     2
 67
     7
 79
     5
170
     0
171
     0
290
     0
174
     0
 93
        1
 44
0.0
173
     0
291
     1
 45
0.0
1001
ACAD
1000
AcDbSavedByObjectVersion
1070
     0
  0
VISUALSTYLE
  5
34
102
{ACAD_REACTORS
330
2A
102
}
102
{ACAD_XDICTIONARY
360
91F
102
}
330
2A
100
AcDbVisualStyle
  2
Conceptual
 70
     9
 71
     3
 72
     2
 73
     0
 90
        0
 40
-0.6
 41
-30.0
 62
     5
 63
     7
 74
     2
 91
        2
 64
     7
 65
   257
 75
     1
175
     1
 42
40.0
 92
        8
 66
     7
 43
1.0
 76
     1
 77
     6
 78
     2
 67
     7
 79
     3
170
     0
171
     0
290
     0
174
     0
 93
        1
 44
0.0
173
     0
291
     0
 45
0.0
1001
ACAD
1000
AcDbSavedByObjectVersion
1070
     0
  0
VISUALSTYLE
  5
35
102
{ACAD_REACTORS
330
2A
102
}
102
{ACAD_XDICTIONARY
360
921
102
}
330
2A
100
AcDbVisualStyle
  2
Dim
 70
    11
 71
     2
 72
     2
 73
     0
 90
        0
 40
-0.6
 41
-30.0
 62
     5
 63
     7
 74
     1
 91
        4
 64
     7
 65
   257
 75
     1
175
     1
 42
1.0
 92
        8
 66
     7
 43
1.0
 76
     1
 77
     6
 78
     2
 67
     7
 79
     5
170
     0
171
     0
290
     0
174
     0
 93
        1
 44
-50.0
173
     0
291
     1
 45
0.0
1001
ACAD
1000
AcDbSavedByObjectVersion
1070
     0
  0
VISUALSTYLE
  5
39
102
{ACAD_REACTORS
330
2A
102
}
102
{ACAD_XDICTIONARY
360
929
102
}
330
2A
100
AcDbVisualStyle
  2
Facepattern
 70
    15
 71
     2
 72
     2
 73
     0
 90
        0
 40
-0.6
 41
-30.0
 62
     5
 63
     7
 74
     1
 91
        4
 64
     7
 65
   257
 75
     1
175
     1
 42
1.0
 92
        8
 66
     7
 43
1.0
 76
     1
 77
     6
 78
     2
 67
     7
 79
     5
170
     0
171
     0
290
     0
174
     0
 93
        1
 44
0.0
173
     0
291
     1
 45
0.0
1001
ACAD
1000
AcDbSavedByObjectVersion
1070
     0
  0
VISUALSTYLE
  5
2B
102
{ACAD_REACTORS
330
2A
102
}
102
{ACAD_XDICTIONARY
360
90D
102
}
330
2A
100
AcDbVisualStyle
  2
Flat
 70
     0
 71
     2
 72
     1
 73
     1
 90
        2
 40
-0.6
 41
30.0
 62
     5
 63
     7
 74
     0
 91
        4
 64
     7
 65
   257
 75
     1
175
     1
 42
1.0
 92
        8
 66
     7
 43
1.0
 76
     1
 77
     6
 78
     2
 67
     7
 79
     5
170
     0
171
     0
290
     0
174
     0
 93
       13
 44
0.0
173
     0
291
     1
 45
0.0
1001
ACAD
1000
AcDbSavedByObjectVersion
1070
     0
  0
VISUALSTYLE
  5
2C
102
{ACAD_REACTORS
330
2A
102
}
102
{ACAD_XDICTIONARY
360
90F
102
}
330
2A
100
AcDbVisualStyle
  2
FlatWithEdges
 70
     1
 71
     2
 72
     1
 73
     1
 90
        2
 40
-0.6
 41
30.0
 62
     5
 63
     7
 74
     1
 91
        4
 64
     7
 65
   257
 75
     1
175
     1
 42
1.0
 92
        0
 66
   257
 43
1.0
 76
     1
 77
     6
 78
     2
 67
     7
 79
     5
170
     0
171
     0
290
     0
174
     0
 93
       13
 44
0.0
173
     0
291
     1
 45
0.0
1001
ACAD
1000
AcDbSavedByObjectVersion
1070
     0
  0
VISUALSTYLE
  5
2D
102
{ACAD_REACTORS
330
2A
102
}
102
{ACAD_XDICTIONARY
360
911
102
}
330
2A
100
AcDbVisualStyle
  2
Gouraud
 70
     2
 71
     2
 72
     2
 73
     1
 90
        2
 40
-0.6
 41
30.0
 62
     5
 63
     7
 74
     0
 91
        4
 64
     7
 65
   257
 75
     1
175
     1
 42
1.0
 92
        0
 66
     7
 43
1.0
 76
     1
 77
     6
 78
     2
 67
     7
 79
     5
170
     0
171
     0
290
     0
174
     0
 93
       13
 44
0.0
173
     0
291
     1
 45
0.0
1001
ACAD
1000
AcDbSavedByObjectVersion
1070
     0
  0
VISUALSTYLE
  5
2E
102
{ACAD_REACTORS
330
2A
102
}
102
{ACAD_XDICTIONARY
360
913
102
}
330
2A
100
AcDbVisualStyle
  2
GouraudWithEdges
 70
     3
 71
     2
 72
     2
 73
     1
 90
        2
 40
-0.6
 41
30.0
 62
     5
 63
     7
 74
     1
 91
        4
 64
     7
 65
   257
 75
     1
175
     1
 42
1.0
 92
        0
 66
   257
 43
1.0
 76
     1
 77
     6
 78
     2
 67
     7
 79
     5
170
     0
171
     0
290
     0
174
     0
 93
       13
 44
0.0
173
     0
291
     1
 45
0.0
1001
ACAD
1000
AcDbSavedByObjectVersion
1070
     0
  0
VISUALSTYLE
  5
38
102
{ACAD_REACTORS
330
2A
102
}
102
{ACAD_XDICTIONARY
360
927
102
}
330
2A
100
AcDbVisualStyle
  2
Linepattern
 70
    14
 71
     2
 72
     2
 73
     0
 90
        0
 40
-0.6
 41
-30.0
 62
     5
 63
     7
 74
     1
 91
        4
 64
     7
 65
   257
 75
     7
175
     7
 42
1.0
 92
        8
 66
     7
 43
1.0
 76
     1
 77
     6
 78
     2
 67
     7
 79
     5
170
     0
171
     0
290
     0
174
     0
 93
        1
 44
0.0
173
     0
291
     1
 45
0.0
1001
ACAD
1000
AcDbSavedByObjectVersion
1070
     0
  0
VISUALSTYLE
  5
33
102
{ACAD_REACTORS
330
2A
102
}
102
{ACAD_XDICTIONARY
360
91D
102
}
330
2A
100
AcDbVisualStyle
  2
Realistic
 70
     8
 71
     2
 72
     2
 73
     0
 90
        0
 40
-0.6
 41
-30.0
 62
     5
 63
     7
 74
     1
 91
        0
 64
     7
 65
   257
 75
     1
175
     1
 42
1.0
 92
        8
 66
     8
 43
1.0
 76
     1
 77
     6
 78
     2
 67
     7
 79
     5
170
     0
171
     0
290
     0
174
     0
 93
       13
 44
0.0
173
     0
291
     0
 45
0.0
1001
ACAD
1000
AcDbSavedByObjectVersion
1070
     0
  0
VISUALSTYLE
  5
37
102
{ACAD_REACTORS
330
2A
102
}
102
{ACAD_XDICTIONARY
360
925
102
}
330
2A
100
AcDbVisualStyle
  2
Thicken
 70
    13
 71
     2
 72
     2
 73
     0
 90
        0
 40
-0.6
 41
-30.0
 62
     5
 63
     7
 74
     1
 91
        4
 64
     7
 65
   257
 75
     1
175
     1
 42
1.0
 92
       12
 66
     7
 43
1.0
 76
     1
 77
     6
 78
     2
 67
     7
 79
     5
170
     0
171
     0
290
     0
174
     0
 93
        1
 44
0.0
173
     0
291
     1
 45
0.0
1001
ACAD
1000
AcDbSavedByObjectVersion
1070
     0
  0
DICTIONARYVAR
  5
90A
102
{ACAD_REACTORS
330
905
102
}
330
905
100
DictionaryVariables
280
     0
  1
1:1
  0
DICTIONARYVAR
  5
90B
102
{ACAD_REACTORS
330
905
102
}
330
905
100
DictionaryVariables
280
     0
  1
2
  0
DICTIONARYVAR
  5
90C
102
{ACAD_REACTORS
330
905
102
}
330
905
100
DictionaryVariables
280
     0
  1
1
  0
DICTIONARYVAR
  5
909
102
{ACAD_REACTORS
330
905
102
}
330
905
100
DictionaryVariables
280
     0
  1
80.000000
  0
DICTIONARYVAR
  5
908
102
{ACAD_REACTORS
330
905
102
}
330
905
100
DictionaryVariables
280
     0
  1
5.000000
  0
DICTIONARY
  5
92F
330
3D
100
AcDbDictionary
280
     1
281
     1
  3
ACAD_XREC_ROUNDTRIP
360
930
  0
DICTIONARY
  5
92D
330
3C
100
AcDbDictionary
280
     1
281
     1
  3
ACAD_XREC_ROUNDTRIP
360
92E
  0
DICTIONARY
  5
931
330
3E
100
AcDbDictionary
280
     1
281
     1
  3
ACAD_XREC_ROUNDTRIP
360
932
  0
DICTIONARY
  5
915
330
2F
100
AcDbDictionary
280
     1
281
     1
  3
ACAD_XREC_ROUNDTRIP
360
916
  0
DICTIONARY
  5
919
330
31
100
AcDbDictionary
280
     1
281
     1
  3
ACAD_XREC_ROUNDTRIP
360
91A
  0
DICTIONARY
  5
917
330
30
100
AcDbDictionary
280
     1
281
     1
  3
ACAD_XREC_ROUNDTRIP
360
918
  0
DICTIONARY
  5
91B
330
32
100
AcDbDictionary
280
     1
281
     1
  3
ACAD_XREC_ROUNDTRIP
360
91C
  0
DICTIONARY
  5
923
330
36
100
AcDbDictionary
280
     1
281
     1
  3
ACAD_XREC_ROUNDTRIP
360
924
  0
DICTIONARY
  5
92B
330
3A
100
AcDbDictionary
280
     1
281
     1
  3
ACAD_XREC_ROUNDTRIP
360
92C
  0
DICTIONARY
  5
91F
330
34
100
AcDbDictionary
280
     1
281
     1
  3
ACAD_XREC_ROUNDTRIP
360
920
  0
DICTIONARY
  5
921
330
35
100
AcDbDictionary
280
     1
281
     1
  3
ACAD_XREC_ROUNDTRIP
360
922
  0
DICTIONARY
  5
929
330
39
100
AcDbDictionary
280
     1
281
     1
  3
ACAD_XREC_ROUNDTRIP
360
92A
  0
DICTIONARY
  5
90D
330
2B
100
AcDbDictionary
280
     1
281
     1
  3
ACAD_XREC_ROUNDTRIP
360
90E
  0
DICTIONARY
  5
90F
330
2C
100
AcDbDictionary
280
     1
281
     1
  3
ACAD_XREC_ROUNDTRIP
360
910
  0
DICTIONARY
  5
911
330
2D
100
AcDbDictionary
280
     1
281
     1
  3
ACAD_XREC_ROUNDTRIP
360
912
  0
DICTIONARY
  5
913
330
2E
100
AcDbDictionary
280
     1
281
     1
  3
ACAD_XREC_ROUNDTRIP
360
914
  0
DICTIONARY
  5
927
330
38
100
AcDbDictionary
280
     1
281
     1
  3
ACAD_XREC_ROUNDTRIP
360
928
  0
DICTIONARY
  5
91D
330
33
100
AcDbDictionary
280
     1
281
     1
  3
ACAD_XREC_ROUNDTRIP
360
91E
  0
DICTIONARY
  5
925
330
37
100
AcDbDictionary
280
     1
281
     1
  3
ACAD_XREC_ROUNDTRIP
360
926
  0
XRECORD
  5
930
102
{ACAD_REACTORS
330
92F
102
}
330
92F
100
AcDbXrecord
280
     1
102
MATERIAL
148
0.0
149
0.0
149
0.0
 93
        0
 94
      127
282
     0
 72
     1
 77
     1
171
     1
175
     1
179
     1
273
     0
  0
XRECORD
  5
92E
102
{ACAD_REACTORS
330
92D
102
}
330
92D
100
AcDbXrecord
280
     1
102
MATERIAL
148
0.0
149
0.0
149
0.0
 93
        0
 94
      127
282
     0
 72
     1
 77
     1
171
     1
175
     1
179
     1
273
     0
  0
XRECORD
  5
932
102
{ACAD_REACTORS
330
931
102
}
330
931
100
AcDbXrecord
280
     1
102
MATERIAL
148
0.0
149
0.0
149
0.0
 93
        0
 94
      127
282
     0
 72
     1
 77
     1
171
     1
175
     1
179
     1
273
     0
  0
XRECORD
  5
916
102
{ACAD_REACTORS
330
915
102
}
330
915
100
AcDbXrecord
280
     1
102
RTVSPropertyOp0
 70
     1
102
RTVSPropertyOp1
 70
     1
102
RTVSPropertyOp2
 70
     1
102
RTVSPropertyOp3
 70
     1
102
RTVSPropertyOp4
 70
     1
102
RTVSPropertyOp5
 70
     1
102
RTVSPropertyOp6
 70
     1
102
RTVSPropertyOp7
 70
     1
102
RTVSPropertyOp8
 70
     1
102
RTVSPropertyOp9
 70
     1
102
RTVSPropertyOp10
 70
     1
102
RTVSPropertyOp11
 70
     1
102
RTVSPropertyOp12
 70
     1
102
RTVSPropertyOp13
 70
     1
102
RTVSPropertyOp14
 70
     1
102
RTVSPropertyOp15
 70
     1
102
RTVSPropertyOp16
 70
     1
102
RTVSPropertyOp17
 70
     1
102
RTVSPropertyOp18
 70
     1
102
RTVSPropertyOp19
 70
     1
102
RTVSPropertyOp20
 70
     1
102
RTVSPropertyOp21
 70
     1
102
RTVSPropertyOp22
 70
     1
102
RTVSPropertyOp23
 70
     1
102
RTVSPropertyOp24
 70
     1
102
RTVSPropertyOp25
 70
     1
102
RTVSPropertyOp26
 70
     1
102
RTVSPropertyOp27
 70
     1
  0
XRECORD
  5
91A
102
{ACAD_REACTORS
330
919
102
}
330
919
100
AcDbXrecord
280
     1
102
RTVSPropertyOp0
 70
     1
102
RTVSPropertyOp1
 70
     1
102
RTVSPropertyOp2
 70
     1
102
RTVSPropertyOp3
 70
     1
102
RTVSPropertyOp4
 70
     1
102
RTVSPropertyOp5
 70
     1
102
RTVSPropertyOp6
 70
     1
102
RTVSPropertyOp7
 70
     1
102
RTVSPropertyOp8
 70
     1
102
RTVSPropertyOp9
 70
     1
102
RTVSPropertyOp10
 70
     1
102
RTVSPropertyOp11
 70
     1
102
RTVSPropertyOp12
 70
     1
102
RTVSPropertyOp13
 70
     1
102
RTVSPropertyOp14
 70
     1
102
RTVSPropertyOp15
 70
     1
102
RTVSPropertyOp16
 70
     1
102
RTVSPropertyOp17
 70
     1
102
RTVSPropertyOp18
 70
     1
102
RTVSPropertyOp19
 70
     1
102
RTVSPropertyOp20
 70
     1
102
RTVSPropertyOp21
 70
     1
102
RTVSPropertyOp22
 70
     1
102
RTVSPropertyOp23
 70
     1
102
RTVSPropertyOp24
 70
     1
102
RTVSPropertyOp25
 70
     1
102
RTVSPropertyOp26
 70
     1
102
RTVSPropertyOp27
 70
     1
  0
XRECORD
  5
918
102
{ACAD_REACTORS
330
917
102
}
330
917
100
AcDbXrecord
280
     1
102
RTVSPropertyOp0
 70
     1
102
RTVSPropertyOp1
 70
     1
102
RTVSPropertyOp2
 70
     1
102
RTVSPropertyOp3
 70
     1
102
RTVSPropertyOp4
 70
     1
102
RTVSPropertyOp5
 70
     1
102
RTVSPropertyOp6
 70
     1
102
RTVSPropertyOp7
 70
     1
102
RTVSPropertyOp8
 70
     1
102
RTVSPropertyOp9
 70
     1
102
RTVSPropertyOp10
 70
     1
102
RTVSPropertyOp11
 70
     1
102
RTVSPropertyOp12
 70
     1
102
RTVSPropertyOp13
 70
     1
102
RTVSPropertyOp14
 70
     1
102
RTVSPropertyOp15
 70
     1
102
RTVSPropertyOp16
 70
     1
102
RTVSPropertyOp17
 70
     1
102
RTVSPropertyOp18
 70
     1
102
RTVSPropertyOp19
 70
     1
102
RTVSPropertyOp20
 70
     1
102
RTVSPropertyOp21
 70
     1
102
RTVSPropertyOp22
 70
     1
102
RTVSPropertyOp23
 70
     1
102
RTVSPropertyOp24
 70
     1
102
RTVSPropertyOp25
 70
     1
102
RTVSPropertyOp26
 70
     1
102
RTVSPropertyOp27
 70
     1
  0
XRECORD
  5
91C
102
{ACAD_REACTORS
330
91B
102
}
330
91B
100
AcDbXrecord
280
     1
102
RTVSPropertyOp0
 70
     1
102
RTVSPropertyOp1
 70
     1
102
RTVSPropertyOp2
 70
     1
102
RTVSPropertyOp3
 70
     1
102
RTVSPropertyOp4
 70
     1
102
RTVSPropertyOp5
 70
     1
102
RTVSPropertyOp6
 70
     1
102
RTVSPropertyOp7
 70
     1
102
RTVSPropertyOp8
 70
     1
102
RTVSPropertyOp9
 70
     1
102
RTVSPropertyOp10
 70
     1
102
RTVSPropertyOp11
 70
     1
102
RTVSPropertyOp12
 70
     1
102
RTVSPropertyOp13
 70
     1
102
RTVSPropertyOp14
 70
     1
102
RTVSPropertyOp15
 70
     1
102
RTVSPropertyOp16
 70
     1
102
RTVSPropertyOp17
 70
     1
102
RTVSPropertyOp18
 70
     1
102
RTVSPropertyOp19
 70
     1
102
RTVSPropertyOp20
 70
     1
102
RTVSPropertyOp21
 70
     1
102
RTVSPropertyOp22
 70
     1
102
RTVSPropertyOp23
 70
     1
102
RTVSPropertyOp24
 70
     1
102
RTVSPropertyOp25
 70
     1
102
RTVSPropertyOp26
 70
     1
102
RTVSPropertyOp27
 70
     1
  0
XRECORD
  5
924
102
{ACAD_REACTORS
330
923
102
}
330
923
100
AcDbXrecord
280
     1
102
RTVSPropertyOp0
 70
     1
102
RTVSPropertyOp1
 70
     1
102
RTVSPropertyOp2
 70
     1
102
RTVSPropertyOp3
 70
     1
102
RTVSPropertyOp4
 70
     1
102
RTVSPropertyOp5
 70
     1
102
RTVSPropertyOp6
 70
     1
102
RTVSPropertyOp7
 70
     1
102
RTVSPropertyOp8
 70
     1
102
RTVSPropertyOp9
 70
     1
102
RTVSPropertyOp10
 70
     1
102
RTVSPropertyOp11
 70
     1
102
RTVSPropertyOp12
 70
     1
102
RTVSPropertyOp13
 70
     1
102
RTVSPropertyOp14
 70
     1
102
RTVSPropertyOp15
 70
     1
102
RTVSPropertyOp16
 70
     1
102
RTVSPropertyOp17
 70
     1
102
RTVSPropertyOp18
 70
     1
102
RTVSPropertyOp19
 70
     1
102
RTVSPropertyOp20
 70
     1
102
RTVSPropertyOp21
 70
     1
102
RTVSPropertyOp22
 70
     1
102
RTVSPropertyOp23
 70
     1
102
RTVSPropertyOp24
 70
     1
102
RTVSPropertyOp25
 70
     1
102
RTVSPropertyOp26
 70
     1
102
RTVSPropertyOp27
 70
     1
  0
XRECORD
  5
92C
102
{ACAD_REACTORS
330
92B
102
}
330
92B
100
AcDbXrecord
280
     1
102
RTVSPropertyOp0
 70
     1
102
RTVSPropertyOp1
 70
     1
102
RTVSPropertyOp2
 70
     1
102
RTVSPropertyOp3
 70
     1
102
RTVSPropertyOp4
 70
     1
102
RTVSPropertyOp5
 70
     1
102
RTVSPropertyOp6
 70
     1
102
RTVSPropertyOp7
 70
     1
102
RTVSPropertyOp8
 70
     1
102
RTVSPropertyOp9
 70
     1
102
RTVSPropertyOp10
 70
     1
102
RTVSPropertyOp11
 70
     1
102
RTVSPropertyOp12
 70
     1
102
RTVSPropertyOp13
 70
     1
102
RTVSPropertyOp14
 70
     1
102
RTVSPropertyOp15
 70
     1
102
RTVSPropertyOp16
 70
     1
102
RTVSPropertyOp17
 70
     1
102
RTVSPropertyOp18
 70
     1
102
RTVSPropertyOp19
 70
     1
102
RTVSPropertyOp20
 70
     1
102
RTVSPropertyOp21
 70
     1
102
RTVSPropertyOp22
 70
     1
102
RTVSPropertyOp23
 70
     1
102
RTVSPropertyOp24
 70
     1
102
RTVSPropertyOp25
 70
     1
102
RTVSPropertyOp26
 70
     1
102
RTVSPropertyOp27
 70
     1
  0
XRECORD
  5
920
102
{ACAD_REACTORS
330
91F
102
}
330
91F
100
AcDbXrecord
280
     1
102
RTVSPropertyOp0
 70
     1
102
RTVSPropertyOp1
 70
     1
102
RTVSPropertyOp2
 70
     1
102
RTVSPropertyOp3
 70
     1
102
RTVSPropertyOp4
 70
     1
102
RTVSPropertyOp5
 70
     1
102
RTVSPropertyOp6
 70
     1
102
RTVSPropertyOp7
 70
     1
102
RTVSPropertyOp8
 70
     1
102
RTVSPropertyOp9
 70
     1
102
RTVSPropertyOp10
 70
     1
102
RTVSPropertyOp11
 70
     1
102
RTVSPropertyOp12
 70
     1
102
RTVSPropertyOp13
 70
     1
102
RTVSPropertyOp14
 70
     1
102
RTVSPropertyOp15
 70
     1
102
RTVSPropertyOp16
 70
     1
102
RTVSPropertyOp17
 70
     1
102
RTVSPropertyOp18
 70
     1
102
RTVSPropertyOp19
 70
     1
102
RTVSPropertyOp20
 70
     1
102
RTVSPropertyOp21
 70
     1
102
RTVSPropertyOp22
 70
     1
102
RTVSPropertyOp23
 70
     1
102
RTVSPropertyOp24
 70
     1
102
RTVSPropertyOp25
 70
     1
102
RTVSPropertyOp26
 70
     1
102
RTVSPropertyOp27
 70
     1
  0
XRECORD
  5
922
102
{ACAD_REACTORS
330
921
102
}
330
921
100
AcDbXrecord
280
     1
102
RTVSPropertyOp0
 70
     1
102
RTVSPropertyOp1
 70
     1
102
RTVSPropertyOp2
 70
     1
102
RTVSPropertyOp3
 70
     1
102
RTVSPropertyOp4
 70
     1
102
RTVSPropertyOp5
 70
     1
102
RTVSPropertyOp6
 70
     1
102
RTVSPropertyOp7
 70
     1
102
RTVSPropertyOp8
 70
     1
102
RTVSPropertyOp9
 70
     1
102
RTVSPropertyOp10
 70
     1
102
RTVSPropertyOp11
 70
     1
102
RTVSPropertyOp12
 70
     1
102
RTVSPropertyOp13
 70
     1
102
RTVSPropertyOp14
 70
     1
102
RTVSPropertyOp15
 70
     1
102
RTVSPropertyOp16
 70
     1
102
RTVSPropertyOp17
 70
     1
102
RTVSPropertyOp18
 70
     1
102
RTVSPropertyOp19
 70
     1
102
RTVSPropertyOp20
 70
     1
102
RTVSPropertyOp21
 70
     1
102
RTVSPropertyOp22
 70
     1
102
RTVSPropertyOp23
 70
     1
102
RTVSPropertyOp24
 70
     1
102
RTVSPropertyOp25
 70
     1
102
RTVSPropertyOp26
 70
     1
102
RTVSPropertyOp27
 70
     1
  0
XRECORD
  5
92A
102
{ACAD_REACTORS
330
929
102
}
330
929
100
AcDbXrecord
280
     1
102
RTVSPropertyOp0
 70
     1
102
RTVSPropertyOp1
 70
     1
102
RTVSPropertyOp2
 70
     1
102
RTVSPropertyOp3
 70
     1
102
RTVSPropertyOp4
 70
     1
102
RTVSPropertyOp5
 70
     1
102
RTVSPropertyOp6
 70
     1
102
RTVSPropertyOp7
 70
     1
102
RTVSPropertyOp8
 70
     1
102
RTVSPropertyOp9
 70
     1
102
RTVSPropertyOp10
 70
     1
102
RTVSPropertyOp11
 70
     1
102
RTVSPropertyOp12
 70
     1
102
RTVSPropertyOp13
 70
     1
102
RTVSPropertyOp14
 70
     1
102
RTVSPropertyOp15
 70
     1
102
RTVSPropertyOp16
 70
     1
102
RTVSPropertyOp17
 70
     1
102
RTVSPropertyOp18
 70
     1
102
RTVSPropertyOp19
 70
     1
102
RTVSPropertyOp20
 70
     1
102
RTVSPropertyOp21
 70
     1
102
RTVSPropertyOp22
 70
     1
102
RTVSPropertyOp23
 70
     1
102
RTVSPropertyOp24
 70
     1
102
RTVSPropertyOp25
 70
     1
102
RTVSPropertyOp26
 70
     1
102
RTVSPropertyOp27
 70
     1
  0
XRECORD
  5
90E
102
{ACAD_REACTORS
330
90D
102
}
330
90D
100
AcDbXrecord
280
     1
102
RTVSPropertyOp0
 70
     1
102
RTVSPropertyOp1
 70
     1
102
RTVSPropertyOp2
 70
     1
102
RTVSPropertyOp3
 70
     1
102
RTVSPropertyOp4
 70
     1
102
RTVSPropertyOp5
 70
     1
102
RTVSPropertyOp6
 70
     1
102
RTVSPropertyOp7
 70
     1
102
RTVSPropertyOp8
 70
     1
102
RTVSPropertyOp9
 70
     1
102
RTVSPropertyOp10
 70
     1
102
RTVSPropertyOp11
 70
     1
102
RTVSPropertyOp12
 70
     1
102
RTVSPropertyOp13
 70
     1
102
RTVSPropertyOp14
 70
     1
102
RTVSPropertyOp15
 70
     1
102
RTVSPropertyOp16
 70
     1
102
RTVSPropertyOp17
 70
     1
102
RTVSPropertyOp18
 70
     1
102
RTVSPropertyOp19
 70
     1
102
RTVSPropertyOp20
 70
     1
102
RTVSPropertyOp21
 70
     1
102
RTVSPropertyOp22
 70
     1
102
RTVSPropertyOp23
 70
     1
102
RTVSPropertyOp24
 70
     1
102
RTVSPropertyOp25
 70
     1
102
RTVSPropertyOp26
 70
     1
102
RTVSPropertyOp27
 70
     1
  0
XRECORD
  5
910
102
{ACAD_REACTORS
330
90F
102
}
330
90F
100
AcDbXrecord
280
     1
102
RTVSPropertyOp0
 70
     1
102
RTVSPropertyOp1
 70
     1
102
RTVSPropertyOp2
 70
     1
102
RTVSPropertyOp3
 70
     1
102
RTVSPropertyOp4
 70
     1
102
RTVSPropertyOp5
 70
     1
102
RTVSPropertyOp6
 70
     1
102
RTVSPropertyOp7
 70
     1
102
RTVSPropertyOp8
 70
     1
102
RTVSPropertyOp9
 70
     1
102
RTVSPropertyOp10
 70
     1
102
RTVSPropertyOp11
 70
     1
102
RTVSPropertyOp12
 70
     1
102
RTVSPropertyOp13
 70
     1
102
RTVSPropertyOp14
 70
     1
102
RTVSPropertyOp15
 70
     1
102
RTVSPropertyOp16
 70
     1
102
RTVSPropertyOp17
 70
     1
102
RTVSPropertyOp18
 70
     1
102
RTVSPropertyOp19
 70
     1
102
RTVSPropertyOp20
 70
     1
102
RTVSPropertyOp21
 70
     1
102
RTVSPropertyOp22
 70
     1
102
RTVSPropertyOp23
 70
     1
102
RTVSPropertyOp24
 70
     1
102
RTVSPropertyOp25
 70
     1
102
RTVSPropertyOp26
 70
     1
102
RTVSPropertyOp27
 70
     1
  0
XRECORD
  5
912
102
{ACAD_REACTORS
330
911
102
}
330
911
100
AcDbXrecord
280
     1
102
RTVSPropertyOp0
 70
     1
102
RTVSPropertyOp1
 70
     1
102
RTVSPropertyOp2
 70
     1
102
RTVSPropertyOp3
 70
     1
102
RTVSPropertyOp4
 70
     1
102
RTVSPropertyOp5
 70
     1
102
RTVSPropertyOp6
 70
     1
102
RTVSPropertyOp7
 70
     1
102
RTVSPropertyOp8
 70
     1
102
RTVSPropertyOp9
 70
     1
102
RTVSPropertyOp10
 70
     1
102
RTVSPropertyOp11
 70
     1
102
RTVSPropertyOp12
 70
     1
102
RTVSPropertyOp13
 70
     1
102
RTVSPropertyOp14
 70
     1
102
RTVSPropertyOp15
 70
     1
102
RTVSPropertyOp16
 70
     1
102
RTVSPropertyOp17
 70
     1
102
RTVSPropertyOp18
 70
     1
102
RTVSPropertyOp19
 70
     1
102
RTVSPropertyOp20
 70
     1
102
RTVSPropertyOp21
 70
     1
102
RTVSPropertyOp22
 70
     1
102
RTVSPropertyOp23
 70
     1
102
RTVSPropertyOp24
 70
     1
102
RTVSPropertyOp25
 70
     1
102
RTVSPropertyOp26
 70
     1
102
RTVSPropertyOp27
 70
     1
  0
XRECORD
  5
914
102
{ACAD_REACTORS
330
913
102
}
330
913
100
AcDbXrecord
280
     1
102
RTVSPropertyOp0
 70
     1
102
RTVSPropertyOp1
 70
     1
102
RTVSPropertyOp2
 70
     1
102
RTVSPropertyOp3
 70
     1
102
RTVSPropertyOp4
 70
     1
102
RTVSPropertyOp5
 70
     1
102
RTVSPropertyOp6
 70
     1
102
RTVSPropertyOp7
 70
     1
102
RTVSPropertyOp8
 70
     1
102
RTVSPropertyOp9
 70
     1
102
RTVSPropertyOp10
 70
     1
102
RTVSPropertyOp11
 70
     1
102
RTVSPropertyOp12
 70
     1
102
RTVSPropertyOp13
 70
     1
102
RTVSPropertyOp14
 70
     1
102
RTVSPropertyOp15
 70
     1
102
RTVSPropertyOp16
 70
     1
102
RTVSPropertyOp17
 70
     1
102
RTVSPropertyOp18
 70
     1
102
RTVSPropertyOp19
 70
     1
102
RTVSPropertyOp20
 70
     1
102
RTVSPropertyOp21
 70
     1
102
RTVSPropertyOp22
 70
     1
102
RTVSPropertyOp23
 70
     1
102
RTVSPropertyOp24
 70
     1
102
RTVSPropertyOp25
 70
     1
102
RTVSPropertyOp26
 70
     1
102
RTVSPropertyOp27
 70
     1
  0
XRECORD
  5
928
102
{ACAD_REACTORS
330
927
102
}
330
927
100
AcDbXrecord
280
     1
102
RTVSPropertyOp0
 70
     1
102
RTVSPropertyOp1
 70
     1
102
RTVSPropertyOp2
 70
     1
102
RTVSPropertyOp3
 70
     1
102
RTVSPropertyOp4
 70
     1
102
RTVSPropertyOp5
 70
     1
102
RTVSPropertyOp6
 70
     1
102
RTVSPropertyOp7
 70
     1
102
RTVSPropertyOp8
 70
     1
102
RTVSPropertyOp9
 70
     1
102
RTVSPropertyOp10
 70
     1
102
RTVSPropertyOp11
 70
     1
102
RTVSPropertyOp12
 70
     1
102
RTVSPropertyOp13
 70
     1
102
RTVSPropertyOp14
 70
     1
102
RTVSPropertyOp15
 70
     1
102
RTVSPropertyOp16
 70
     1
102
RTVSPropertyOp17
 70
     1
102
RTVSPropertyOp18
 70
     1
102
RTVSPropertyOp19
 70
     1
102
RTVSPropertyOp20
 70
     1
102
RTVSPropertyOp21
 70
     1
102
RTVSPropertyOp22
 70
     1
102
RTVSPropertyOp23
 70
     1
102
RTVSPropertyOp24
 70
     1
102
RTVSPropertyOp25
 70
     1
102
RTVSPropertyOp26
 70
     1
102
RTVSPropertyOp27
 70
     1
  0
XRECORD
  5
91E
102
{ACAD_REACTORS
330
91D
102
}
330
91D
100
AcDbXrecord
280
     1
102
RTVSPropertyOp0
 70
     1
102
RTVSPropertyOp1
 70
     1
102
RTVSPropertyOp2
 70
     1
102
RTVSPropertyOp3
 70
     1
102
RTVSPropertyOp4
 70
     1
102
RTVSPropertyOp5
 70
     1
102
RTVSPropertyOp6
 70
     1
102
RTVSPropertyOp7
 70
     1
102
RTVSPropertyOp8
 70
     1
102
RTVSPropertyOp9
 70
     1
102
RTVSPropertyOp10
 70
     1
102
RTVSPropertyOp11
 70
     1
102
RTVSPropertyOp12
 70
     1
102
RTVSPropertyOp13
 70
     1
102
RTVSPropertyOp14
 70
     1
102
RTVSPropertyOp15
 70
     1
102
RTVSPropertyOp16
 70
     1
102
RTVSPropertyOp17
 70
     1
102
RTVSPropertyOp18
 70
     1
102
RTVSPropertyOp19
 70
     1
102
RTVSPropertyOp20
 70
     1
102
RTVSPropertyOp21
 70
     1
102
RTVSPropertyOp22
 70
     1
102
RTVSPropertyOp23
 70
     1
102
RTVSPropertyOp24
 70
     1
102
RTVSPropertyOp25
 70
     1
102
RTVSPropertyOp26
 70
     1
102
RTVSPropertyOp27
 70
     1
  0
XRECORD
  5
926
102
{ACAD_REACTORS
330
925
102
}
330
925
100
AcDbXrecord
280
     1
102
RTVSPropertyOp0
 70
     1
102
RTVSPropertyOp1
 70
     1
102
RTVSPropertyOp2
 70
     1
102
RTVSPropertyOp3
 70
     1
102
RTVSPropertyOp4
 70
     1
102
RTVSPropertyOp5
 70
     1
102
RTVSPropertyOp6
 70
     1
102
RTVSPropertyOp7
 70
     1
102
RTVSPropertyOp8
 70
     1
102
RTVSPropertyOp9
 70
     1
102
RTVSPropertyOp10
 70
     1
102
RTVSPropertyOp11
 70
     1
102
RTVSPropertyOp12
 70
     1
102
RTVSPropertyOp13
 70
     1
102
RTVSPropertyOp14
 70
     1
102
RTVSPropertyOp15
 70
     1
102
RTVSPropertyOp16
 70
     1
102
RTVSPropertyOp17
 70
     1
102
RTVSPropertyOp18
 70
     1
102
RTVSPropertyOp19
 70
     1
102
RTVSPropertyOp20
 70
     1
102
RTVSPropertyOp21
 70
     1
102
RTVSPropertyOp22
 70
     1
102
RTVSPropertyOp23
 70
     1
102
RTVSPropertyOp24
 70
     1
102
RTVSPropertyOp25
 70
     1
102
RTVSPropertyOp26
 70
     1
102
RTVSPropertyOp27
 70
     1
  0
ENDSEC
  0
EOF
