  0
SECTION
  2
HEADER
  9
$ACADVER
  1
AC1015
  9
$ACADMAINTVER
 70
     6
  9
$DWGCODEPAGE
  3
ANSI_1252
  9
$INSBASE
 10
0.0
 20
0.0
 30
0.0
  9
$EXTMIN
 10
0.0
 20
0.0
 30
0.0
  9
$EXTMAX
 10
25.0
 20
35.0
 30
0.0
  9
$LIMMIN
 10
0.0
 20
0.0
  9
$LIMMAX
 10
420.0
 20
297.0
  9
$ORTHOMODE
 70
     0
  9
$REGENMODE
 70
     1
  9
$FILLMODE
 70
     1
  9
$QTEXTMODE
 70
     0
  9
$MIRRTEXT
 70
     1
  9
$LTSCALE
 40
4.05
  9
$ATTMODE
 70
     1
  9
$TEXTSIZE
 40
2.5
  9
$TRACEWID
 40
1.0
  9
$TEXTSTYLE
  7
Standard
  9
$CLAYER
  8
0
  9
$CELTYPE
  6
ByLayer
  9
$CECOLOR
 62
   256
  9
$CELTSCALE
 40
1.0
  9
$DISPSILH
 70
     0
  9
$DIMSCALE
 40
1.0
  9
$DIMASZ
 40
2.5
  9
$DIMEXO
 40
0.625
  9
$DIMDLI
 40
3.75
  9
$DIMRND
 40
0.0
  9
$DIMDLE
 40
0.0
  9
$DIMEXE
 40
1.25
  9
$DIMTP
 40
0.0
  9
$DIMTM
 40
0.0
  9
$DIMTXT
 40
2.5
  9
$DIMCEN
 40
2.5
  9
$DIMTSZ
 40
0.0
  9
$DIMTOL
 70
     0
  9
$DIMLIM
 70
     0
  9
$DIMTIH
 70
     0
  9
$DIMTOH
 70
     0
  9
$DIMSE1
 70
     0
  9
$DIMSE2
 70
     0
  9
$DIMTAD
 70
     1
  9
$DIMZIN
 70
     8
  9
$DIMBLK
  1

  9
$DIMASO
 70
     1
  9
$DIMSHO
 70
     1
  9
$DIMPOST
  1

  9
$DIMAPOST
  1

  9
$DIMALT
 70
     0
  9
$DIMALTD
 70
     3
  9
$DIMALTF
 40
0.03937007874016
  9
$DIMLFAC
 40
1.0
  9
$DIMTOFL
 70
     1
  9
$DIMTVP
 40
0.0
  9
$DIMTIX
 70
     0
  9
$DIMSOXD
 70
     0
  9
$DIMSAH
 70
     0
  9
$DIMBLK1
  1

  9
$DIMBLK2
  1

  9
$DIMSTYLE
  2
ISO-25
  9
$DIMCLRD
 70
     0
  9
$DIMCLRE
 70
     0
  9
$DIMCLRT
 70
     0
  9
$DIMTFAC
 40
1.0
  9
$DIMGAP
 40
0.625
  9
$DIMJUST
 70
     0
  9
$DIMSD1
 70
     0
  9
$DIMSD2
 70
     0
  9
$DIMTOLJ
 70
     0
  9
$DIMTZIN
 70
     8
  9
$DIMALTZ
 70
     0
  9
$DIMALTTZ
 70
     0
  9
$DIMUPT
 70
     0
  9
$DIMDEC
 70
     2
  9
$DIMTDEC
 70
     2
  9
$DIMALTU
 70
     2
  9
$DIMALTTD
 70
     3
  9
$DIMTXSTY
  7
Standard
  9
$DIMAUNIT
 70
     0
  9
$DIMADEC
 70
     0
  9
$DIMALTRND
 40
0.0
  9
$DIMAZIN
 70
     0
  9
$DIMDSEP
 70
    44
  9
$DIMATFIT
 70
     3
  9
$DIMFRAC
 70
     0
  9
$DIMLDRBLK
  1

  9
$DIMLUNIT
 70
     2
  9
$DIMLWD
 70
    -2
  9
$DIMLWE
 70
    -2
  9
$DIMTMOVE
 70
     0
  9
$LUNITS
 70
     2
  9
$LUPREC
 70
     4
  9
$SKETCHINC
 40
1.0
  9
$FILLETRAD
 40
10.0
  9
$AUNITS
 70
     0
  9
$AUPREC
 70
     0
  9
$MENU
  1
.
  9
$ELEVATION
 40
0.0
  9
$PELEVATION
 40
0.0
  9
$THICKNESS
 40
0.0
  9
$LIMCHECK
 70
     0
  9
$CHAMFERA
 40
10.0
  9
$CHAMFERB
 40
10.0
  9
$CHAMFERC
 40
20.0
  9
$CHAMFERD
 40
0.0
  9
$SKPOLY
 70
     0
  9
$TDCREATE
 40
2458578.628472222
  9
$TDUCREATE
 40
2458578.545138889
  9
$TDUPDATE
 40
2458578.631944444
  9
$TDUUPDATE
 40
2458578.548611111
  9
$TDINDWG
 40
0.0000000116
  9
$TDUSRTIMER
 40
0.0000000116
  9
$USRTIMER
 70
     1
  9
$ANGBASE
 50
0.0
  9
$ANGDIR
 70
     0
  9
$PDMODE
 70
     0
  9
$PDSIZE
 40
0.0
  9
$PLINEWID
 40
0.0
  9
$SPLFRAME
 70
     0
  9
$SPLINETYPE
 70
     6
  9
$SPLINESEGS
 70
     8
  9
$HANDSEED
  5
98D
  9
$SURFTAB1
 70
     6
  9
$SURFTAB2
 70
     6
  9
$SURFTYPE
 70
     6
  9
$SURFU
 70
     6
  9
$SURFV
 70
     6
  9
$UCSBASE
  2

  9
$UCSNAME
  2

  9
$UCSORG
 10
0.0
 20
0.0
 30
0.0
  9
$UCSXDIR
 10
1.0
 20
0.0
 30
0.0
  9
$UCSYDIR
 10
0.0
 20
1.0
 30
0.0
  9
$UCSORTHOREF
  2

  9
$UCSORTHOVIEW
 70
     0
  9
$UCSORGTOP
 10
0.0
 20
0.0
 30
0.0
  9
$UCSORGBOTTOM
 10
0.0
 20
0.0
 30
0.0
  9
$UCSORGLEFT
 10
0.0
 20
0.0
 30
0.0
  9
$UCSORGRIGHT
 10
0.0
 20
0.0
 30
0.0
  9
$UCSORGFRONT
 10
0.0
 20
0.0
 30
0.0
  9
$UCSORGBACK
 10
0.0
 20
0.0
 30
0.0
  9
$PUCSBASE
  2

  9
$PUCSNAME
  2

  9
$PUCSORG
 10
0.0
 20
0.0
 30
0.0
  9
$PUCSXDIR
 10
1.0
 20
0.0
 30
0.0
  9
$PUCSYDIR
 10
0.0
 20
1.0
 30
0.0
  9
$PUCSORTHOREF
  2

  9
$PUCSORTHOVIEW
 70
     0
  9
$PUCSORGTOP
 10
0.0
 20
0.0
 30
0.0
  9
$PUCSORGBOTTOM
 10
0.0
 20
0.0
 30
0.0
  9
$PUCSORGLEFT
 10
0.0
 20
0.0
 30
0.0
  9
$PUCSORGRIGHT
 10
0.0
 20
0.0
 30
0.0
  9
$PUCSORGFRONT
 10
0.0
 20
0.0
 30
0.0
  9
$PUCSORGBACK
 10
0.0
 20
0.0
 30
0.0
  9
$USERI1
 70
     0
  9
$USERI2
 70
     0
  9
$USERI3
 70
     0
  9
$USERI4
 70
     0
  9
$USERI5
 70
     0
  9
$USERR1
 40
0.0
  9
$USERR2
 40
0.0
  9
$USERR3
 40
0.0
  9
$USERR4
 40
0.0
  9
$USERR5
 40
0.0
  9
$WORLDVIEW
 70
     1
  9
$SHADEDGE
 70
     3
  9
$SHADEDIF
 70
    70
  9
$TILEMODE
 70
     1
  9
$MAXACTVP
 70
    64
  9
$PINSBASE
 10
0.0
 20
0.0
 30
0.0
  9
$PLIMCHECK
 70
     0
  9
$PEXTMIN
 10
1.000000000000000E+20
 20
1.000000000000000E+20
 30
1.000000000000000E+20
  9
$PEXTMAX
 10
-1.000000000000000E+20
 20
-1.000000000000000E+20
 30
-1.000000000000000E+20
  9
$PLIMMIN
 10
0.0
 20
0.0
  9
$PLIMMAX
 10
420.0
 20
297.0
  9
$UNITMODE
 70
     0
  9
$VISRETAIN
 70
     1
  9
$PLINEGEN
 70
     0
  9
$PSLTSCALE
 70
     1
  9
$TREEDEPTH
 70
  3020
  9
$CMLSTYLE
  2
Standard
  9
$CMLJUST
 70
     0
  9
$CMLSCALE
 40
20.0
  9
$PROXYGRAPHICS
 70
     1
  9
$MEASUREMENT
 70
     1
  9
$CELWEIGHT
370
    -1
  9
$ENDCAPS
280
     0
  9
$JOINSTYLE
280
     0
  9
$LWDISPLAY
290
     0
  9
$INSUNITS
 70
     4
  9
$HYPERLINKBASE
  1

  9
$STYLESHEET
  1

  9
$XEDIT
290
     1
  9
$CEPSNTYPE
380
     0
  9
$PSTYLEMODE
290
     1
  9
$FINGERPRINTGUID
  2
{F669516A-E2C3-46CE-BF53-DF9F69338D62}
  9
$VERSIONGUID
  2
{FAEB1C32-E019-11D5-929B-00C0DF256EC4}
  9
$EXTNAMES
290
     1
  9
$PSVPSCALE
 40
0.0
  9
$OLESTARTUP
290
     0
  0
ENDSEC
  0
SECTION
  2
CLASSES
  0
CLASS
  1
ACDBDICTIONARYWDFLT
  2
AcDbDictionaryWithDefault
  3
ObjectDBX Classes
 90
        0
280
     0
281
     0
  0
CLASS
  1
VISUALSTYLE
  2
AcDbVisualStyle
  3
ObjectDBX Classes
 90
     4095
280
     0
281
     0
  0
CLASS
  1
MATERIAL
  2
AcDbMaterial
  3
ObjectDBX Classes
 90
     1153
280
     0
281
     0
  0
CLASS
  1
SCALE
  2
AcDbScale
  3
ObjectDBX Classes
 90
     1153
280
     0
281
     0
  0
CLASS
  1
DICTIONARYVAR
  2
AcDbDictionaryVar
  3
ObjectDBX Classes
 90
        0
280
     0
281
     0
  0
CLASS
  1
ACDBPLACEHOLDER
  2
AcDbPlaceHolder
  3
ObjectDBX Classes
 90
        0
280
     0
281
     0
  0
CLASS
  1
LAYOUT
  2
AcDbLayout
  3
ObjectDBX Classes
 90
        0
280
     0
281
     0
  0
ENDSEC
  0
SECTION
  2
TABLES
  0
TABLE
  2
VPORT
  5
8
330
0
100
AcDbSymbolTable
 70
     1
  0
VPORT
  5
29
330
8
100
AcDbSymbolTableRecord
100
AcDbViewportTableRecord
  2
*Active
 70
     0
 10
0.0
 20
0.0
 11
1.0
 21
1.0
 12
11.26
 22
4.5
 13
0.0
 23
0.0
 14
10.0
 24
10.0
 15
10.0
 25
10.0
 16
0.0
 26
0.0
 36
1.0
 17
0.0
 27
0.0
 37
0.0
 40
9.0
 41
2.503333333333333
 42
50.0
 43
0.0
 44
0.0
 50
0.0
 51
0.0
 71
     0
 72
   100
 73
     1
 74
     3
 75
     0
 76
     0
 77
     0
 78
     0
281
     0
 65
     1
110
0.0
120
0.0
130
0.0
111
1.0
121
0.0
131
0.0
112
0.0
122
1.0
132
0.0
 79
     0
146
0.0
  0
ENDTAB
  0
TABLE
  2
LTYPE
  5
5
330
0
100
AcDbSymbolTable
 70
    10
  0
LTYPE
  5
14
330
5
100
AcDbSymbolTableRecord
100
AcDbLinetypeTableRecord
  2
ByBlock
 70
     0
  3

 72
    65
 73
     0
 40
0.0
  0
LTYPE
  5
15
330
5
100
AcDbSymbolTableRecord
100
AcDbLinetypeTableRecord
  2
ByLayer
 70
     0
  3

 72
    65
 73
     0
 40
0.0
  0
LTYPE
  5
16
330
5
100
AcDbSymbolTableRecord
100
AcDbLinetypeTableRecord
  2
Continuous
 70
     0
  3
Solid line
 72
    65
 73
     0
 40
0.0
  0
LTYPE
  5
45
330
5
100
AcDbSymbolTableRecord
100
AcDbLinetypeTableRecord
  2
phl_thick
 70
     0
  3
THICK
 72
    65
 73
     0
 40
0.0
  0
LTYPE
  5
26F
330
5
100
AcDbSymbolTableRecord
100
AcDbLinetypeTableRecord
  2
CUT
 70
     0
  3
THICK
 72
    65
 73
     0
 40
0.0
  0
LTYPE
  5
275
330
5
100
AcDbSymbolTableRecord
100
AcDbLinetypeTableRecord
  2
NOCUT
 70
     0
  3
THICK
 72
    65
 73
     0
 40
0.0
  0
LTYPE
  5
27C
330
5
100
AcDbSymbolTableRecord
100
AcDbLinetypeTableRecord
  2
SK1
 70
     0
  3
THICK
 72
    65
 73
     0
 40
0.0
  0
LTYPE
  5
284
330
5
100
AcDbSymbolTableRecord
100
AcDbLinetypeTableRecord
  2
ls_SK2
 70
     0
  3
THIN
 72
    65
 73
     0
 40
0.0
  0
LTYPE
  5
331
330
5
100
AcDbSymbolTableRecord
100
AcDbLinetypeTableRecord
  2
ls_2
 70
     0
  3
THIN
 72
    65
 73
     0
 40
0.0
  0
LTYPE
  5
4A2
330
5
100
AcDbSymbolTableRecord
100
AcDbLinetypeTableRecord
  2
ls_SK1
 70
     0
  3
THICK
 72
    65
 73
     0
 40
0.0
  0
LTYPE
  5
4DC
330
5
100
AcDbSymbolTableRecord
100
AcDbLinetypeTableRecord
  2
LONGDASH_DASH
 70
     0
  3
THIN_DASHDOT
 72
    65
 73
     4
 40
0.85
 49
0.4
 74
     0
 49
-0.2
 74
     0
 49
0.05
 74
     0
 49
-0.2
 74
     0
  0
LTYPE
  5
4E1
330
5
100
AcDbSymbolTableRecord
100
AcDbLinetypeTableRecord
  2
ls1
 70
     0
  3
THICK
 72
    65
 73
     0
 40
0.0
  0
ENDTAB
  0
TABLE
  2
LAYER
  5
2
330
0
100
AcDbSymbolTable
 70
    10
  0
LAYER
  5
10
330
2
100
AcDbSymbolTableRecord
100
AcDbLayerTableRecord
  2
0
 70
     0
 62
     7
  6
Continuous
370
    -3
390
F
  0
LAYER
  5
44
330
2
100
AcDbSymbolTableRecord
100
AcDbLayerTableRecord
  2
1
 70
     0
 62
4
  6
CONTINUOUS
370
50
370
    -3
390
F
  0
LAYER
  5
26E
330
2
100
AcDbSymbolTableRecord
100
AcDbLayerTableRecord
  2
CUT
 70
     0
 62
1
  6
CONTINUOUS
370
25
370
    -3
390
F
  0
LAYER
  5
274
330
2
100
AcDbSymbolTableRecord
100
AcDbLayerTableRecord
  2
NOCUT
 70
     0
 62
7
  6
CONTINUOUS
370
25
370
    -3
390
F
  0
LAYER
  5
27B
330
2
100
AcDbSymbolTableRecord
100
AcDbLayerTableRecord
  2
SK1
 70
     0
 62
4
  6
CONTINUOUS
370
50
370
    -3
390
F
  0
LAYER
  5
283
330
2
100
AcDbSymbolTableRecord
100
AcDbLayerTableRecord
  2
SK2
 70
     0
 62
7
  6
CONTINUOUS
370
25
370
    -3
390
F
  0
LAYER
  5
330
330
2
100
AcDbSymbolTableRecord
100
AcDbLayerTableRecord
  2
2
 70
     0
 62
7
  6
CONTINUOUS
370
25
370
    -3
390
F
  0
LAYER
  5
4DB
330
2
100
AcDbSymbolTableRecord
100
AcDbLayerTableRecord
  2
4
 70
     0
 62
2
  6
LONGDASH_DASH
370
25
370
    -3
390
F
  0
LAYER
  5
4DE
330
2
100
AcDbSymbolTableRecord
100
AcDbLayerTableRecord
  2
SK4
 70
     0
 62
2
  6
LONGDASH_DASH
370
25
370
    -3
390
F
  0
LAYER
  5
4E0
330
2
100
AcDbSymbolTableRecord
100
AcDbLayerTableRecord
  2
SK6
 70
     0
 62
5
  6
CONTINUOUS
370
25
370
    -3
390
F
  0
ENDTAB
  0
TABLE
  2
STYLE
  5
3
330
0
100
AcDbSymbolTable
 70
     1
  0
STYLE
  5
11
330
3
100
AcDbSymbolTableRecord
100
AcDbTextStyleTableRecord
  2
Standard
 70
     0
 40
0.0
 41
1.0
 50
0.0
 71
     0
 42
2.5
  3
Monospac821 BT
  4

  0
ENDTAB
  0
TABLE
  2
VIEW
  5
6
330
0
100
AcDbSymbolTable
 70
     0
  0
ENDTAB
  0
TABLE
  2
UCS
  5
7
330
0
100
AcDbSymbolTable
 70
     0
  0
ENDTAB
  0
TABLE
  2
APPID
  5
9
330
0
100
AcDbSymbolTable
 70
     2
  0
APPID
  5
12
330
9
100
AcDbSymbolTableRecord
100
AcDbRegAppTableRecord
  2
ACAD
 70
     0
  0
APPID
  5
3F
330
9
100
AcDbSymbolTableRecord
100
AcDbRegAppTableRecord
  2
ccLab
 70
     0
  0
ENDTAB
  0
TABLE
  2
DIMSTYLE
  5
A
330
0
100
AcDbSymbolTable
 70
     1
100
AcDbDimStyleTable
  0
DIMSTYLE
105
27
330
A
100
AcDbSymbolTableRecord
100
AcDbDimStyleTableRecord
  2
ISO-25
 70
     0
 41
2.5
 42
0.625
 43
3.75
 44
1.25
 73
     0
 74
     0
 77
     1
 78
     8
140
2.5
141
2.5
143
0.03937007874016
147
0.625
171
     3
172
     1
271
     2
272
     2
274
     3
278
    44
283
     0
284
     8
340
11
  0
ENDTAB
  0
TABLE
  2
BLOCK_RECORD
  5
1
330
0
100
AcDbSymbolTable
 70
     2
  0
BLOCK_RECORD
  5
1F
330
1
100
AcDbSymbolTableRecord
100
AcDbBlockTableRecord
  2
*Model_Space
340
22
  0
BLOCK_RECORD
  5
1B
330
1
100
AcDbSymbolTableRecord
100
AcDbBlockTableRecord
  2
*Paper_Space
340
1E
  0
BLOCK_RECORD
  5
23
330
1
100
AcDbSymbolTableRecord
100
AcDbBlockTableRecord
  2
*Paper_Space0
340
26
  0
ENDTAB
  0
ENDSEC
  0
SECTION
  2
BLOCKS
  0
BLOCK
  5
20
330
1F
100
AcDbEntity
  8
0
100
AcDbBlockBegin
  2
*Model_Space
 70
     0
 10
0.0
 20
0.0
 30
0.0
  3
*Model_Space
  1

  0
ENDBLK
  5
21
330
1F
100
AcDbEntity
  8
0
100
AcDbBlockEnd
  0
BLOCK
  5
1C
330
1B
100
AcDbEntity
 67
     1
  8
0
100
AcDbBlockBegin
  2
*Paper_Space
 70
     0
 10
0.0
 20
0.0
 30
0.0
  3
*Paper_Space
  1

  0
ENDBLK
  5
1D
330
1B
100
AcDbEntity
 67
     1
  8
0
100
AcDbBlockEnd
  0
BLOCK
  5
24
330
23
100
AcDbEntity
  8
0
100
AcDbBlockBegin
  2
*Paper_Space0
 70
     0
 10
0.0
 20
0.0
 30
0.0
  3
*Paper_Space0
  1

  0
ENDBLK
  5
25
330
23
100
AcDbEntity
  8
0
100
AcDbBlockEnd
  0
ENDSEC
  0
SECTION
  2
ENTITIES
  0
LINE
  5
4EB
330
1F
100
AcDbEntity
  8
1
  6
CONTINUOUS
370
50
 62
4
100
AcDbLine
 10
46.21767
 20
0.329105
 30
0.0
 11
46.217392
 21
0.340992
 31
0.0
  0
LINE
  5
4EC
330
1F
100
AcDbEntity
  8
1
  6
CONTINUOUS
370
50
 62
4
100
AcDbLine
 10
49.91186099999999
 20
0.299248
 30
0.0
 11
49.911652
 21
0.306909
 31
0.0
  0
LINE
  5
4ED
330
1F
100
AcDbEntity
  8
1
  6
CONTINUOUS
370
50
 62
4
100
AcDbLine
 10
46.369625
 20
-0.093996
 30
0.0
 11
46.368401
 21
-0.062771
 31
0.0
  0
LINE
  5
4EE
330
1F
100
AcDbEntity
  8
1
  6
CONTINUOUS
370
50
 62
4
100
AcDbLine
 10
46.368401
 20
-0.062771
 30
0.0
 11
46.365692
 21
-0.031349
 31
0.0
  0
LINE
  5
4EF
330
1F
100
AcDbEntity
  8
1
  6
CONTINUOUS
370
50
 62
4
100
AcDbLine
 10
46.218998
 20
0.317145
 30
0.0
 11
46.21767
 21
0.329105
 31
0.0
  0
LINE
  5
4F0
330
1F
100
AcDbEntity
  8
1
  6
CONTINUOUS
370
50
 62
4
100
AcDbLine
 10
46.365692
 20
-0.031349
 30
0.0
 11
46.361599
 21
0.000001
 31
0.0
  0
LINE
  5
4F1
330
1F
100
AcDbEntity
  8
1
  6
CONTINUOUS
370
50
 62
4
100
AcDbLine
 10
45.92569
 20
-0.5887979999999999
 30
0.0
 11
45.925354
 21
-0.586271
 31
0.0
  0
LINE
  5
4F2
330
1F
100
AcDbEntity
  8
1
  6
CONTINUOUS
370
50
 62
4
100
AcDbLine
 10
46.361591
 20
0.0
 30
0.0
 11
46.35836399999999
 21
0.019585
 31
0.0
  0
LINE
  5
4F3
330
1F
100
AcDbEntity
  8
1
  6
CONTINUOUS
370
50
 62
4
100
AcDbLine
 10
49.911652
 20
0.306909
 30
0.0
 11
49.910034
 21
0.315684
 31
0.0
  0
LINE
  5
4F4
330
1F
100
AcDbEntity
  8
1
  6
CONTINUOUS
370
50
 62
4
100
AcDbLine
 10
46.35836399999999
 20
0.019585
 30
0.0
 11
46.354645
 21
0.039071
 31
0.0
  0
LINE
  5
4F5
330
1F
100
AcDbEntity
  8
1
  6
CONTINUOUS
370
50
 62
4
100
AcDbLine
 10
46.221428
 20
0.305156
 30
0.0
 11
46.218998
 21
0.317145
 31
0.0
  0
LINE
  5
4F6
330
1F
100
AcDbEntity
  8
1
  6
CONTINUOUS
370
50
 62
4
100
AcDbLine
 10
46.354645
 20
0.039071
 30
0.0
 11
46.350464
 21
0.058437
 31
0.0
  0
LINE
  5
4F7
330
1F
100
AcDbEntity
  8
1
  6
CONTINUOUS
370
50
 62
4
100
AcDbLine
 10
46.350464
 20
0.058437
 30
0.0
 11
46.34584
 21
0.07766
 31
0.0
  0
LINE
  5
4F8
330
1F
100
AcDbEntity
  8
1
  6
CONTINUOUS
370
50
 62
4
100
AcDbLine
 10
46.34584
 20
0.07766
 30
0.0
 11
46.340794
 21
0.096715
 31
0.0
  0
LINE
  5
4F9
330
1F
100
AcDbEntity
  8
1
  6
CONTINUOUS
370
50
 62
4
100
AcDbLine
 10
45.926373
 20
-0.591329
 30
0.0
 11
45.92569
 21
-0.5887979999999999
 31
0.0
  0
LINE
  5
4FA
330
1F
100
AcDbEntity
  8
1
  6
CONTINUOUS
370
50
 62
4
100
AcDbLine
 10
46.340794
 20
0.096715
 30
0.0
 11
46.335342
 21
0.115581
 31
0.0
  0
LINE
  5
4FB
330
1F
100
AcDbEntity
  8
1
  6
CONTINUOUS
370
50
 62
4
100
AcDbLine
 10
46.224998
 20
0.293207
 30
0.0
 11
46.221428
 21
0.305156
 31
0.0
  0
LINE
  5
4FC
330
1F
100
AcDbEntity
  8
1
  6
CONTINUOUS
370
50
 62
4
100
AcDbLine
 10
49.910034
 20
0.315684
 30
0.0
 11
49.90711599999999
 21
0.32536
 31
0.0
  0
LINE
  5
4FD
330
1F
100
AcDbEntity
  8
1
  6
CONTINUOUS
370
50
 62
4
100
AcDbLine
 10
46.335342
 20
0.115581
 30
0.0
 11
46.329494
 21
0.134238
 31
0.0
  0
LINE
  5
4FE
330
1F
100
AcDbEntity
  8
1
  6
CONTINUOUS
370
50
 62
4
100
AcDbLine
 10
46.329494
 20
0.134238
 30
0.0
 11
46.323261
 21
0.152665
 31
0.0
  0
LINE
  5
4FF
330
1F
100
AcDbEntity
  8
1
  6
CONTINUOUS
370
50
 62
4
100
AcDbLine
 10
46.323261
 20
0.152665
 30
0.0
 11
46.31665
 21
0.170841
 31
0.0
  0
LINE
  5
500
330
1F
100
AcDbEntity
  8
1
  6
CONTINUOUS
370
50
 62
4
100
AcDbLine
 10
46.31665
 20
0.170841
 30
0.0
 11
46.309673
 21
0.188746
 31
0.0
  0
LINE
  5
501
330
1F
100
AcDbEntity
  8
1
  6
CONTINUOUS
370
50
 62
4
100
AcDbLine
 10
49.90711599999999
 20
0.32536
 30
0.0
 11
49.902966
 21
0.335842
 31
0.0
  0
LINE
  5
502
330
1F
100
AcDbEntity
  8
1
  6
CONTINUOUS
370
50
 62
4
100
AcDbLine
 10
46.229691
 20
0.281529
 30
0.0
 11
46.224998
 21
0.293207
 31
0.0
  0
LINE
  5
503
330
1F
100
AcDbEntity
  8
1
  6
CONTINUOUS
370
50
 62
4
100
AcDbLine
 10
45.927406
 20
-0.593847
 30
0.0
 11
45.926373
 21
-0.591329
 31
0.0
  0
LINE
  5
504
330
1F
100
AcDbEntity
  8
1
  6
CONTINUOUS
370
50
 62
4
100
AcDbLine
 10
46.309673
 20
0.188746
 30
0.0
 11
46.302345
 21
0.206359
 31
0.0
  0
LINE
  5
505
330
1F
100
AcDbEntity
  8
1
  6
CONTINUOUS
370
50
 62
4
100
AcDbLine
 10
49.902966
 20
0.335842
 30
0.0
 11
49.89756
 21
0.347153
 31
0.0
  0
LINE
  5
506
330
1F
100
AcDbEntity
  8
1
  6
CONTINUOUS
370
50
 62
4
100
AcDbLine
 10
46.235474
 20
0.270206
 30
0.0
 11
46.229691
 21
0.281529
 31
0.0
  0
LINE
  5
507
330
1F
100
AcDbEntity
  8
1
  6
CONTINUOUS
370
50
 62
4
100
AcDbLine
 10
45.928787
 20
-0.5963419999999999
 30
0.0
 11
45.927406
 21
-0.593847
 31
0.0
  0
LINE
  5
508
330
1F
100
AcDbEntity
  8
1
  6
CONTINUOUS
370
50
 62
4
100
AcDbLine
 10
49.89756
 20
0.347153
 30
0.0
 11
49.890884
 21
0.359195
 31
0.0
  0
LINE
  5
509
330
1F
100
AcDbEntity
  8
1
  6
CONTINUOUS
370
50
 62
4
100
AcDbLine
 10
49.890884
 20
0.359195
 30
0.0
 11
49.882931
 21
0.371862
 31
0.0
  0
LINE
  5
50A
330
1F
100
AcDbEntity
  8
1
  6
CONTINUOUS
370
50
 62
4
100
AcDbLine
 10
46.242344
 20
0.25928
 30
0.0
 11
46.235474
 21
0.270206
 31
0.0
  0
LINE
  5
50B
330
1F
100
AcDbEntity
  8
1
  6
CONTINUOUS
370
50
 62
4
100
AcDbLine
 10
49.882931
 20
0.371862
 30
0.0
 11
49.873692
 21
0.385054
 31
0.0
  0
LINE
  5
50C
330
1F
100
AcDbEntity
  8
1
  6
CONTINUOUS
370
50
 62
4
100
AcDbLine
 10
45.930515
 20
-0.598808
 30
0.0
 11
45.928787
 21
-0.5963419999999999
 31
0.0
  0
LINE
  5
50D
330
1F
100
AcDbEntity
  8
1
  6
CONTINUOUS
370
50
 62
4
100
AcDbLine
 10
46.250286
 20
0.248794
 30
0.0
 11
46.242344
 21
0.25928
 31
0.0
  0
LINE
  5
50E
330
1F
100
AcDbEntity
  8
1
  6
CONTINUOUS
370
50
 62
4
100
AcDbLine
 10
49.873692
 20
0.385054
 30
0.0
 11
49.862961
 21
0.398905
 31
0.0
  0
LINE
  5
50F
330
1F
100
AcDbEntity
  8
1
  6
CONTINUOUS
370
50
 62
4
100
AcDbLine
 10
49.862961
 20
0.398905
 30
0.0
 11
49.850883
 21
0.413071
 31
0.0
  0
LINE
  5
510
330
1F
100
AcDbEntity
  8
1
  6
CONTINUOUS
370
50
 62
4
100
AcDbLine
 10
45.93259399999999
 20
-0.60124
 30
0.0
 11
45.930515
 21
-0.598808
 31
0.0
  0
LINE
  5
511
330
1F
100
AcDbEntity
  8
1
  6
CONTINUOUS
370
50
 62
4
100
AcDbLine
 10
46.259193
 20
0.238895
 30
0.0
 11
46.250286
 21
0.248794
 31
0.0
  0
LINE
  5
512
330
1F
100
AcDbEntity
  8
1
  6
CONTINUOUS
370
50
 62
4
100
AcDbLine
 10
49.850883
 20
0.413071
 30
0.0
 11
49.83766199999999
 21
0.427216
 31
0.0
  0
LINE
  5
513
330
1F
100
AcDbEntity
  8
1
  6
CONTINUOUS
370
50
 62
4
100
AcDbLine
 10
45.935024
 20
-0.6036349999999999
 30
0.0
 11
45.93259399999999
 21
-0.60124
 31
0.0
  0
LINE
  5
514
330
1F
100
AcDbEntity
  8
1
  6
CONTINUOUS
370
50
 62
4
100
AcDbLine
 10
49.83766199999999
 20
0.427216
 30
0.0
 11
49.823383
 21
0.441169
 31
0.0
  0
LINE
  5
515
330
1F
100
AcDbEntity
  8
1
  6
CONTINUOUS
370
50
 62
4
100
AcDbLine
 10
46.26891699999999
 20
0.229701
 30
0.0
 11
46.259193
 21
0.238895
 31
0.0
  0
LINE
  5
516
330
1F
100
AcDbEntity
  8
1
  6
CONTINUOUS
370
50
 62
4
100
AcDbLine
 10
49.823383
 20
0.441169
 30
0.0
 11
49.808079
 21
0.454847
 31
0.0
  0
LINE
  5
517
330
1F
100
AcDbEntity
  8
1
  6
CONTINUOUS
370
50
 62
4
100
AcDbLine
 10
45.937805
 20
-0.605988
 30
0.0
 11
45.935024
 21
-0.6036349999999999
 31
0.0
  0
LINE
  5
518
330
1F
100
AcDbEntity
  8
1
  6
CONTINUOUS
370
50
 62
4
100
AcDbLine
 10
49.808079
 20
0.454847
 30
0.0
 11
49.791771
 21
0.468165
 31
0.0
  0
LINE
  5
519
330
1F
100
AcDbEntity
  8
1
  6
CONTINUOUS
370
50
 62
4
100
AcDbLine
 10
46.279392
 20
0.221212
 30
0.0
 11
46.26891699999999
 21
0.229701
 31
0.0
  0
LINE
  5
51A
330
1F
100
AcDbEntity
  8
1
  6
CONTINUOUS
370
50
 62
4
100
AcDbLine
 10
49.791771
 20
0.468165
 30
0.0
 11
49.774487
 21
0.481043
 31
0.0
  0
LINE
  5
51B
330
1F
100
AcDbEntity
  8
1
  6
CONTINUOUS
370
50
 62
4
100
AcDbLine
 10
45.940941
 20
-0.608293
 30
0.0
 11
45.937805
 21
-0.605988
 31
0.0
  0
LINE
  5
51C
330
1F
100
AcDbEntity
  8
1
  6
CONTINUOUS
370
50
 62
4
100
AcDbLine
 10
46.290558
 20
0.213431
 30
0.0
 11
46.279392
 21
0.221212
 31
0.0
  0
LINE
  5
51D
330
1F
100
AcDbEntity
  8
1
  6
CONTINUOUS
370
50
 62
4
100
AcDbLine
 10
48.449852
 20
0.0
 30
0.0
 11
48.364109
 21
0.058361
 31
0.0
  0
LINE
  5
51E
330
1F
100
AcDbEntity
  8
1
  6
CONTINUOUS
370
50
 62
4
100
AcDbLine
 10
49.774487
 20
0.481043
 30
0.0
 11
49.756256
 21
0.493396
 31
0.0
  0
LINE
  5
51F
330
1F
100
AcDbEntity
  8
1
  6
CONTINUOUS
370
50
 62
4
100
AcDbLine
 10
48.455566
 20
-0.131378
 30
0.0
 11
48.361664
 21
-0.069196
 31
0.0
  0
LINE
  5
520
330
1F
100
AcDbEntity
  8
1
  6
CONTINUOUS
370
50
 62
4
100
AcDbLine
 10
48.364109
 20
0.058361
 30
0.0
 11
48.28476
 21
0.110217
 31
0.0
  0
LINE
  5
521
330
1F
100
AcDbEntity
  8
1
  6
CONTINUOUS
370
50
 62
4
100
AcDbLine
 10
48.361664
 20
-0.069196
 30
0.0
 11
48.25845
 21
-0.002213
 31
0.0
  0
LINE
  5
522
330
1F
100
AcDbEntity
  8
1
  6
CONTINUOUS
370
50
 62
4
100
AcDbLine
 10
48.25553499999999
 20
-0.000376
 30
0.0
 11
48.254955
 21
0.0
 31
0.0
  0
LINE
  5
523
330
1F
100
AcDbEntity
  8
1
  6
CONTINUOUS
370
50
 62
4
100
AcDbLine
 10
45.944427
 20
-0.610547
 30
0.0
 11
45.940941
 21
-0.608293
 31
0.0
  0
LINE
  5
524
330
1F
100
AcDbEntity
  8
1
  6
CONTINUOUS
370
50
 62
4
100
AcDbLine
 10
48.538227
 20
-0.056934
 30
0.0
 11
48.449852
 21
0.0
 31
0.0
  0
LINE
  5
525
330
1F
100
AcDbEntity
  8
1
  6
CONTINUOUS
370
50
 62
4
100
AcDbLine
 10
48.257282
 20
-0.001479
 30
0.0
 11
48.256702
 21
-0.001112
 31
0.0
  0
LINE
  5
526
330
1F
100
AcDbEntity
  8
1
  6
CONTINUOUS
370
50
 62
4
100
AcDbLine
 10
48.553791
 20
-0.193451
 30
0.0
 11
48.455566
 21
-0.131378
 31
0.0
  0
LINE
  5
527
330
1F
100
AcDbEntity
  8
1
  6
CONTINUOUS
370
50
 62
4
100
AcDbLine
 10
48.256702
 20
-0.001112
 30
0.0
 11
48.256119
 21
-0.000744
 31
0.0
  0
LINE
  5
528
330
1F
100
AcDbEntity
  8
1
  6
CONTINUOUS
370
50
 62
4
100
AcDbLine
 10
48.256119
 20
-0.000744
 30
0.0
 11
48.25553499999999
 21
-0.000376
 31
0.0
  0
LINE
  5
529
330
1F
100
AcDbEntity
  8
1
  6
CONTINUOUS
370
50
 62
4
100
AcDbLine
 10
48.25845
 20
-0.002213
 30
0.0
 11
48.257282
 21
-0.001479
 31
0.0
  0
LINE
  5
52A
330
1F
100
AcDbEntity
  8
1
  6
CONTINUOUS
370
50
 62
4
100
AcDbLine
 10
48.637814
 20
-0.11861
 30
0.0
 11
48.538227
 21
-0.056934
 31
0.0
  0
LINE
  5
52B
330
1F
100
AcDbEntity
  8
1
  6
CONTINUOUS
370
50
 62
4
100
AcDbLine
 10
48.28476
 20
0.110217
 30
0.0
 11
48.203903
 21
0.159882
 31
0.0
  0
LINE
  5
52C
330
1F
100
AcDbEntity
  8
1
  6
CONTINUOUS
370
50
 62
4
100
AcDbLine
 10
48.254955
 20
0.0
 30
0.0
 11
48.176704
 21
0.048038
 31
0.0
  0
LINE
  5
52D
330
1F
100
AcDbEntity
  8
1
  6
CONTINUOUS
370
50
 62
4
100
AcDbLine
 10
49.756256
 20
0.493396
 30
0.0
 11
49.737103
 21
0.505141
 31
0.0
  0
LINE
  5
52E
330
1F
100
AcDbEntity
  8
1
  6
CONTINUOUS
370
50
 62
4
100
AcDbLine
 10
46.302345
 20
0.206359
 30
0.0
 11
46.290558
 21
0.213431
 31
0.0
  0
LINE
  5
52F
330
1F
100
AcDbEntity
  8
1
  6
CONTINUOUS
370
50
 62
4
100
AcDbLine
 10
48.176704
 20
0.048038
 30
0.0
 11
48.09681699999999
 21
0.094682
 31
0.0
  0
LINE
  5
530
330
1F
100
AcDbEntity
  8
1
  6
CONTINUOUS
370
50
 62
4
100
AcDbLine
 10
48.663654
 20
-0.256772
 30
0.0
 11
48.553791
 21
-0.193451
 31
0.0
  0
LINE
  5
531
330
1F
100
AcDbEntity
  8
1
  6
CONTINUOUS
370
50
 62
4
100
AcDbLine
 10
48.203903
 20
0.159882
 30
0.0
 11
48.120064
 21
0.208064
 31
0.0
  0
LINE
  5
532
330
1F
100
AcDbEntity
  8
1
  6
CONTINUOUS
370
50
 62
4
100
AcDbLine
 10
48.751503
 20
-0.183784
 30
0.0
 11
48.637814
 21
-0.11861
 31
0.0
  0
LINE
  5
533
330
1F
100
AcDbEntity
  8
1
  6
CONTINUOUS
370
50
 62
4
100
AcDbLine
 10
48.09681699999999
 20
0.094682
 30
0.0
 11
48.01614
 21
0.139511
 31
0.0
  0
LINE
  5
534
330
1F
100
AcDbEntity
  8
1
  6
CONTINUOUS
370
50
 62
4
100
AcDbLine
 10
49.737103
 20
0.505141
 30
0.0
 11
49.717052
 21
0.516197
 31
0.0
  0
LINE
  5
535
330
1F
100
AcDbEntity
  8
1
  6
CONTINUOUS
370
50
 62
4
100
AcDbLine
 10
48.120064
 20
0.208064
 30
0.0
 11
48.03299699999999
 21
0.254752
 31
0.0
  0
LINE
  5
536
330
1F
100
AcDbEntity
  8
1
  6
CONTINUOUS
370
50
 62
4
100
AcDbLine
 10
48.01614
 20
0.139511
 30
0.0
 11
47.934929
 21
0.182487
 31
0.0
  0
LINE
  5
537
330
1F
100
AcDbEntity
  8
1
  6
CONTINUOUS
370
50
 62
4
100
AcDbLine
 10
48.878971
 20
-0.250501
 30
0.0
 11
48.751503
 21
-0.183784
 31
0.0
  0
LINE
  5
538
330
1F
100
AcDbEntity
  8
1
  6
CONTINUOUS
370
50
 62
4
100
AcDbLine
 10
48.775795
 20
-0.315345
 30
0.0
 11
48.663654
 21
-0.256772
 31
0.0
  0
LINE
  5
539
330
1F
100
AcDbEntity
  8
1
  6
CONTINUOUS
370
50
 62
4
100
AcDbLine
 10
47.934929
 20
0.182487
 30
0.0
 11
47.853447
 21
0.223571
 31
0.0
  0
LINE
  5
53A
330
1F
100
AcDbEntity
  8
1
  6
CONTINUOUS
370
50
 62
4
100
AcDbLine
 10
48.03299699999999
 20
0.254752
 30
0.0
 11
47.942467
 21
0.299938
 31
0.0
  0
LINE
  5
53B
330
1F
100
AcDbEntity
  8
1
  6
CONTINUOUS
370
50
 62
4
100
AcDbLine
 10
48.258385
 20
-0.002332
 30
0.0
 11
48.076107
 21
0.087598
 31
0.0
  0
LINE
  5
53C
330
1F
100
AcDbEntity
  8
1
  6
CONTINUOUS
370
50
 62
4
100
AcDbLine
 10
47.853447
 20
0.223571
 30
0.0
 11
47.766308
 21
0.265488
 31
0.0
  0
LINE
  5
53D
330
1F
100
AcDbEntity
  8
1
  6
CONTINUOUS
370
50
 62
4
100
AcDbLine
 10
49.010689
 20
-0.313575
 30
0.0
 11
48.878971
 21
-0.250501
 31
0.0
  0
LINE
  5
53E
330
1F
100
AcDbEntity
  8
1
  6
CONTINUOUS
370
50
 62
4
100
AcDbLine
 10
48.889095
 20
-0.36889
 30
0.0
 11
48.775795
 21
-0.315345
 31
0.0
  0
LINE
  5
53F
330
1F
100
AcDbEntity
  8
1
  6
CONTINUOUS
370
50
 62
4
100
AcDbLine
 10
49.717052
 20
0.516197
 30
0.0
 11
49.686417
 21
0.530642
 31
0.0
  0
LINE
  5
540
330
1F
100
AcDbEntity
  8
1
  6
CONTINUOUS
370
50
 62
4
100
AcDbLine
 10
45.96895199999999
 20
-0.62201
 30
0.0
 11
45.944427
 21
-0.610547
 31
0.0
  0
LINE
  5
541
330
1F
100
AcDbEntity
  8
1
  6
CONTINUOUS
370
50
 62
4
100
AcDbLine
 10
47.942467
 20
0.299938
 30
0.0
 11
47.848225
 21
0.343611
 31
0.0
  0
LINE
  5
542
330
1F
100
AcDbEntity
  8
1
  6
CONTINUOUS
370
50
 62
4
100
AcDbLine
 10
47.766308
 20
0.265488
 30
0.0
 11
47.669685
 21
0.310052
 31
0.0
  0
LINE
  5
543
330
1F
100
AcDbEntity
  8
1
  6
CONTINUOUS
370
50
 62
4
100
AcDbLine
 10
46.960693
 20
-0.055296
 30
0.0
 11
46.924034
 21
-0.038729
 31
0.0
  0
LINE
  5
544
330
1F
100
AcDbEntity
  8
1
  6
CONTINUOUS
370
50
 62
4
100
AcDbLine
 10
47.669685
 20
0.310052
 30
0.0
 11
47.565361
 21
0.356254
 31
0.0
  0
LINE
  5
545
330
1F
100
AcDbEntity
  8
1
  6
CONTINUOUS
370
50
 62
4
100
AcDbLine
 10
49.143581
 20
-0.372252
 30
0.0
 11
49.010689
 21
-0.313575
 31
0.0
  0
LINE
  5
546
330
1F
100
AcDbEntity
  8
1
  6
CONTINUOUS
370
50
 62
4
100
AcDbLine
 10
48.076107
 20
0.087598
 30
0.0
 11
47.893829
 21
0.167796
 31
0.0
  0
LINE
  5
547
330
1F
100
AcDbEntity
  8
1
  6
CONTINUOUS
370
50
 62
4
100
AcDbLine
 10
46.997898
 20
-0.071434
 30
0.0
 11
46.960693
 21
-0.055296
 31
0.0
  0
LINE
  5
548
330
1F
100
AcDbEntity
  8
1
  6
CONTINUOUS
370
50
 62
4
100
AcDbLine
 10
46.924034
 20
-0.038729
 30
0.0
 11
46.885952
 21
-0.022373
 31
0.0
  0
LINE
  5
549
330
1F
100
AcDbEntity
  8
1
  6
CONTINUOUS
370
50
 62
4
100
AcDbLine
 10
47.848225
 20
0.343611
 30
0.0
 11
47.750031
 21
0.385759
 31
0.0
  0
LINE
  5
54A
330
1F
100
AcDbEntity
  8
1
  6
CONTINUOUS
370
50
 62
4
100
AcDbLine
 10
49.003155
 20
-0.417537
 30
0.0
 11
48.889095
 21
-0.36889
 31
0.0
  0
LINE
  5
54B
330
1F
100
AcDbEntity
  8
1
  6
CONTINUOUS
370
50
 62
4
100
AcDbLine
 10
47.565361
 20
0.356254
 30
0.0
 11
47.45512799999999
 21
0.403086
 31
0.0
  0
LINE
  5
54C
330
1F
100
AcDbEntity
  8
1
  6
CONTINUOUS
370
50
 62
4
100
AcDbLine
 10
46.885952
 20
-0.022373
 30
0.0
 11
46.845184
 21
-0.00516
 31
0.0
  0
LINE
  5
54D
330
1F
100
AcDbEntity
  8
1
  6
CONTINUOUS
370
50
 62
4
100
AcDbLine
 10
47.03715099999999
 20
-0.08764
 30
0.0
 11
46.997898
 21
-0.071434
 31
0.0
  0
LINE
  5
54E
330
1F
100
AcDbEntity
  8
1
  6
CONTINUOUS
370
50
 62
4
100
AcDbLine
 10
49.27531399999999
 20
-0.42619
 30
0.0
 11
49.143581
 21
-0.372252
 31
0.0
  0
LINE
  5
54F
330
1F
100
AcDbEntity
  8
1
  6
CONTINUOUS
370
50
 62
4
100
AcDbLine
 10
47.45512799999999
 20
0.403086
 30
0.0
 11
47.340771
 21
0.449539
 31
0.0
  0
LINE
  5
550
330
1F
100
AcDbEntity
  8
1
  6
CONTINUOUS
370
50
 62
4
100
AcDbLine
 10
47.750031
 20
0.385759
 30
0.0
 11
47.64943299999999
 21
0.425867
 31
0.0
  0
LINE
  5
551
330
1F
100
AcDbEntity
  8
1
  6
CONTINUOUS
370
50
 62
4
100
AcDbLine
 10
46.845184
 20
-0.00516
 30
0.0
 11
46.799999
 21
0.012837
 31
0.0
  0
LINE
  5
552
330
1F
100
AcDbEntity
  8
1
  6
CONTINUOUS
370
50
 62
4
100
AcDbLine
 10
47.893829
 20
0.167796
 30
0.0
 11
47.71154
 21
0.239953
 31
0.0
  0
LINE
  5
553
330
1F
100
AcDbEntity
  8
1
  6
CONTINUOUS
370
50
 62
4
100
AcDbLine
 10
47.340771
 20
0.449539
 30
0.0
 11
47.224087
 21
0.494604
 31
0.0
  0
LINE
  5
554
330
1F
100
AcDbEntity
  8
1
  6
CONTINUOUS
370
50
 62
4
100
AcDbLine
 10
49.118725
 20
-0.462058
 30
0.0
 11
49.003155
 21
-0.417537
 31
0.0
  0
LINE
  5
555
330
1F
100
AcDbEntity
  8
1
  6
CONTINUOUS
370
50
 62
4
100
AcDbLine
 10
49.686417
 20
0.530642
 30
0.0
 11
49.655003
 21
0.5424749999999999
 31
0.0
  0
LINE
  5
556
330
1F
100
AcDbEntity
  8
1
  6
CONTINUOUS
370
50
 62
4
100
AcDbLine
 10
47.64943299999999
 20
0.425867
 30
0.0
 11
47.548706
 21
0.463387
 31
0.0
  0
LINE
  5
557
330
1F
100
AcDbEntity
  8
1
  6
CONTINUOUS
370
50
 62
4
100
AcDbLine
 10
47.71154
 20
0.239953
 30
0.0
 11
47.52923999999999
 21
0.306436
 31
0.0
  0
LINE
  5
558
330
1F
100
AcDbEntity
  8
1
  6
CONTINUOUS
370
50
 62
4
100
AcDbLine
 10
47.224087
 20
0.494604
 30
0.0
 11
47.10763499999999
 21
0.537015
 31
0.0
  0
LINE
  5
559
330
1F
100
AcDbEntity
  8
1
  6
CONTINUOUS
370
50
 62
4
100
AcDbLine
 10
45.99476199999999
 20
-0.631304
 30
0.0
 11
45.96895199999999
 21
-0.62201
 31
0.0
  0
LINE
  5
55A
330
1F
100
AcDbEntity
  8
1
  6
CONTINUOUS
370
50
 62
4
100
AcDbLine
 10
47.548706
 20
0.463387
 30
0.0
 11
47.448616
 21
0.498334
 31
0.0
  0
LINE
  5
55B
330
1F
100
AcDbEntity
  8
1
  6
CONTINUOUS
370
50
 62
4
100
AcDbLine
 10
49.234848
 20
-0.5024919999999999
 30
0.0
 11
49.118725
 21
-0.462058
 31
0.0
  0
LINE
  5
55C
330
1F
100
AcDbEntity
  8
1
  6
CONTINUOUS
370
50
 62
4
100
AcDbLine
 10
47.52923999999999
 20
0.306436
 30
0.0
 11
47.346928
 21
0.368438
 31
0.0
  0
LINE
  5
55D
330
1F
100
AcDbEntity
  8
1
  6
CONTINUOUS
370
50
 62
4
100
AcDbLine
 10
47.10763499999999
 20
0.537015
 30
0.0
 11
47.001461
 21
0.572628
 31
0.0
  0
LINE
  5
55E
330
1F
100
AcDbEntity
  8
1
  6
CONTINUOUS
370
50
 62
4
100
AcDbLine
 10
47.448616
 20
0.498334
 30
0.0
 11
47.348537
 21
0.531009
 31
0.0
  0
LINE
  5
55F
330
1F
100
AcDbEntity
  8
1
  6
CONTINUOUS
370
50
 62
4
100
AcDbLine
 10
49.879047
 20
0.147738
 30
0.0
 11
49.73587
 21
0.193972
 31
0.0
  0
LINE
  5
560
330
1F
100
AcDbEntity
  8
1
  6
CONTINUOUS
370
50
 62
4
100
AcDbLine
 10
47.121712
 20
-0.114429
 30
0.0
 11
47.03715099999999
 21
-0.08764
 31
0.0
  0
LINE
  5
561
330
1F
100
AcDbEntity
  8
1
  6
CONTINUOUS
370
50
 62
4
100
AcDbLine
 10
47.346928
 20
0.368438
 30
0.0
 11
47.164608
 21
0.426197
 31
0.0
  0
LINE
  5
562
330
1F
100
AcDbEntity
  8
1
  6
CONTINUOUS
370
50
 62
4
100
AcDbLine
 10
47.160492
 20
0.083303
 30
0.0
 11
46.980186
 21
0.139909
 31
0.0
  0
LINE
  5
563
330
1F
100
AcDbEntity
  8
1
  6
CONTINUOUS
370
50
 62
4
100
AcDbLine
 10
49.349998
 20
-0.538607
 30
0.0
 11
49.234848
 21
-0.5024919999999999
 31
0.0
  0
LINE
  5
564
330
1F
100
AcDbEntity
  8
1
  6
CONTINUOUS
370
50
 62
4
100
AcDbLine
 10
47.348537
 20
0.531009
 30
0.0
 11
47.24913
 21
0.560971
 31
0.0
  0
LINE
  5
565
330
1F
100
AcDbEntity
  8
1
  6
CONTINUOUS
370
50
 62
4
100
AcDbLine
 10
46.980186
 20
0.139909
 30
0.0
 11
46.799999
 21
0.193994
 31
0.0
  0
LINE
  5
566
330
1F
100
AcDbEntity
  8
1
  6
CONTINUOUS
370
50
 62
4
100
AcDbLine
 10
47.340836
 20
0.02944
 30
0.0
 11
47.160492
 21
0.083303
 31
0.0
  0
LINE
  5
567
330
1F
100
AcDbEntity
  8
1
  6
CONTINUOUS
370
50
 62
4
100
AcDbLine
 10
47.206287
 20
-0.139406
 30
0.0
 11
47.121712
 21
-0.114429
 31
0.0
  0
LINE
  5
568
330
1F
100
AcDbEntity
  8
1
  6
CONTINUOUS
370
50
 62
4
100
AcDbLine
 10
49.655003
 20
0.5424749999999999
 30
0.0
 11
49.622871
 21
0.551721
 31
0.0
  0
LINE
  5
569
330
1F
100
AcDbEntity
  8
1
  6
CONTINUOUS
370
50
 62
4
100
AcDbLine
 10
47.001461
 20
0.572628
 30
0.0
 11
46.901684
 21
0.600957
 31
0.0
  0
LINE
  5
56A
330
1F
100
AcDbEntity
  8
1
  6
CONTINUOUS
370
50
 62
4
100
AcDbLine
 10
47.521141
 20
-0.020997
 30
0.0
 11
47.340836
 21
0.02944
 31
0.0
  0
LINE
  5
56B
330
1F
100
AcDbEntity
  8
1
  6
CONTINUOUS
370
50
 62
4
100
AcDbLine
 10
47.164608
 20
0.426197
 30
0.0
 11
46.982296
 21
0.476898
 31
0.0
  0
LINE
  5
56C
330
1F
100
AcDbEntity
  8
1
  6
CONTINUOUS
370
50
 62
4
100
AcDbLine
 10
47.290871
 20
-0.162546
 30
0.0
 11
47.206287
 21
-0.139406
 31
0.0
  0
LINE
  5
56D
330
1F
100
AcDbEntity
  8
1
  6
CONTINUOUS
370
50
 62
4
100
AcDbLine
 10
47.24913
 20
0.560971
 30
0.0
 11
47.151199
 21
0.587718
 31
0.0
  0
LINE
  5
56E
330
1F
100
AcDbEntity
  8
1
  6
CONTINUOUS
370
50
 62
4
100
AcDbLine
 10
45.900002
 20
0.6499499999999999
 30
0.0
 11
40.900002
 21
1.99995
 31
0.0
  0
LINE
  5
56F
330
1F
100
AcDbEntity
  8
1
  6
CONTINUOUS
370
50
 62
4
100
AcDbLine
 10
49.38504
 20
-0.548026
 30
0.0
 11
49.349998
 21
-0.538607
 31
0.0
  0
LINE
  5
570
330
1F
100
AcDbEntity
  8
1
  6
CONTINUOUS
370
50
 62
4
100
AcDbLine
 10
47.701374
 20
-0.069029
 30
0.0
 11
47.521141
 21
-0.020997
 31
0.0
  0
LINE
  5
571
330
1F
100
AcDbEntity
  8
1
  6
CONTINUOUS
370
50
 62
4
100
AcDbLine
 10
46.021961
 20
-0.638525
 30
0.0
 11
45.99476199999999
 21
-0.631304
 31
0.0
  0
LINE
  5
572
330
1F
100
AcDbEntity
  8
1
  6
CONTINUOUS
370
50
 62
4
100
AcDbLine
 10
48.241673
 20
-0.209897
 30
0.0
 11
48.061607
 21
-0.162709
 31
0.0
  0
LINE
  5
573
330
1F
100
AcDbEntity
  8
1
  6
CONTINUOUS
370
50
 62
4
100
AcDbLine
 10
47.88152299999999
 20
-0.115891
 30
0.0
 11
47.701374
 21
-0.069029
 31
0.0
  0
LINE
  5
574
330
1F
100
AcDbEntity
  8
1
  6
CONTINUOUS
370
50
 62
4
100
AcDbLine
 10
48.061607
 20
-0.162709
 30
0.0
 11
47.88152299999999
 21
-0.115891
 31
0.0
  0
LINE
  5
575
330
1F
100
AcDbEntity
  8
1
  6
CONTINUOUS
370
50
 62
4
100
AcDbLine
 10
48.421803
 20
-0.255929
 30
0.0
 11
48.241673
 21
-0.209897
 31
0.0
  0
LINE
  5
576
330
1F
100
AcDbEntity
  8
1
  6
CONTINUOUS
370
50
 62
4
100
AcDbLine
 10
47.375446
 20
-0.183888
 30
0.0
 11
47.290871
 21
-0.162546
 31
0.0
  0
LINE
  5
577
330
1F
100
AcDbEntity
  8
1
  6
CONTINUOUS
370
50
 62
4
100
AcDbLine
 10
49.73587
 20
0.193972
 30
0.0
 11
49.596802
 21
0.228525
 31
0.0
  0
LINE
  5
578
330
1F
100
AcDbEntity
  8
1
  6
CONTINUOUS
370
50
 62
4
100
AcDbLine
 10
47.151199
 20
0.587718
 30
0.0
 11
47.060257
 21
0.6097859999999999
 31
0.0
  0
LINE
  5
579
330
1F
100
AcDbEntity
  8
1
  6
CONTINUOUS
370
50
 62
4
100
AcDbLine
 10
47.460003
 20
-0.203553
 30
0.0
 11
47.375446
 21
-0.183888
 31
0.0
  0
LINE
  5
57A
330
1F
100
AcDbEntity
  8
1
  6
CONTINUOUS
370
50
 62
4
100
AcDbLine
 10
46.799999
 20
-0.643533
 30
0.0
 11
46.795399
 21
-0.64251
 31
0.0
  0
LINE
  5
57B
330
1F
100
AcDbEntity
  8
1
  6
CONTINUOUS
370
50
 62
4
100
AcDbLine
 10
47.107613
 20
0.599166
 30
0.0
 11
47.06031
 21
0.6095349999999999
 31
0.0
  0
LINE
  5
57C
330
1F
100
AcDbEntity
  8
1
  6
CONTINUOUS
370
50
 62
4
100
AcDbLine
 10
46.901684
 20
0.600957
 30
0.0
 11
46.799999
 21
0.622858
 31
0.0
  0
LINE
  5
57D
330
1F
100
AcDbEntity
  8
1
  6
CONTINUOUS
370
50
 62
4
100
AcDbLine
 10
47.15897
 20
0.5881259999999999
 30
0.0
 11
47.107613
 21
0.599166
 31
0.0
  0
LINE
  5
57E
330
1F
100
AcDbEntity
  8
1
  6
CONTINUOUS
370
50
 62
4
100
AcDbLine
 10
47.54454399999999
 20
-0.221671
 30
0.0
 11
47.460003
 21
-0.203553
 31
0.0
  0
LINE
  5
57F
330
1F
100
AcDbEntity
  8
1
  6
CONTINUOUS
370
50
 62
4
100
AcDbLine
 10
47.060257
 20
0.6097859999999999
 30
0.0
 11
47.015186
 21
0.619383
 31
0.0
  0
LINE
  5
580
330
1F
100
AcDbEntity
  8
1
  6
CONTINUOUS
370
50
 62
4
100
AcDbLine
 10
49.419945
 20
-0.555395
 30
0.0
 11
49.38504
 21
-0.548026
 31
0.0
  0
LINE
  5
581
330
1F
100
AcDbEntity
  8
1
  6
CONTINUOUS
370
50
 62
4
100
AcDbLine
 10
47.21096
 20
0.577203
 30
0.0
 11
47.15897
 21
0.5881259999999999
 31
0.0
  0
LINE
  5
582
330
1F
100
AcDbEntity
  8
1
  6
CONTINUOUS
370
50
 62
4
100
AcDbLine
 10
48.602062
 20
-0.293104
 30
0.0
 11
48.421803
 21
-0.255929
 31
0.0
  0
LINE
  5
583
330
1F
100
AcDbEntity
  8
1
  6
CONTINUOUS
370
50
 62
4
100
AcDbLine
 10
47.261562
 20
0.566824
 30
0.0
 11
47.21096
 21
0.577203
 31
0.0
  0
LINE
  5
584
330
1F
100
AcDbEntity
  8
1
  6
CONTINUOUS
370
50
 62
4
100
AcDbLine
 10
49.622871
 20
0.551721
 30
0.0
 11
49.59016399999999
 21
0.5584009999999999
 31
0.0
  0
LINE
  5
585
330
1F
100
AcDbEntity
  8
1
  6
CONTINUOUS
370
50
 62
4
100
AcDbLine
 10
46.982296
 20
0.476898
 30
0.0
 11
46.799999
 21
0.513896
 31
0.0
  0
LINE
  5
586
330
1F
100
AcDbEntity
  8
1
  6
CONTINUOUS
370
50
 62
4
100
AcDbLine
 10
47.316956
 20
0.555752
 30
0.0
 11
47.261562
 21
0.566824
 31
0.0
  0
LINE
  5
587
330
1F
100
AcDbEntity
  8
1
  6
CONTINUOUS
370
50
 62
4
100
AcDbLine
 10
46.795399
 20
-0.64251
 30
0.0
 11
46.78986
 21
-0.6414139999999999
 31
0.0
  0
LINE
  5
588
330
1F
100
AcDbEntity
  8
1
  6
CONTINUOUS
370
50
 62
4
100
AcDbLine
 10
47.37288299999999
 20
0.5448729999999999
 30
0.0
 11
47.316956
 21
0.555752
 31
0.0
  0
LINE
  5
589
330
1F
100
AcDbEntity
  8
1
  6
CONTINUOUS
370
50
 62
4
100
AcDbLine
 10
47.415459
 20
0.5367839999999999
 30
0.0
 11
47.37288299999999
 21
0.5448729999999999
 31
0.0
  0
LINE
  5
58A
330
1F
100
AcDbEntity
  8
1
  6
CONTINUOUS
370
50
 62
4
100
AcDbLine
 10
49.596802
 20
0.228525
 30
0.0
 11
49.454899
 21
0.255447
 31
0.0
  0
LINE
  5
58B
330
1F
100
AcDbEntity
  8
1
  6
CONTINUOUS
370
50
 62
4
100
AcDbLine
 10
47.015186
 20
0.619383
 30
0.0
 11
46.971657
 21
0.6275529999999999
 31
0.0
  0
LINE
  5
58C
330
1F
100
AcDbEntity
  8
1
  6
CONTINUOUS
370
50
 62
4
100
AcDbLine
 10
47.47957599999999
 20
0.524899
 30
0.0
 11
47.415459
 21
0.5367839999999999
 31
0.0
  0
LINE
  5
58D
330
1F
100
AcDbEntity
  8
1
  6
CONTINUOUS
370
50
 62
4
100
AcDbLine
 10
46.050785
 20
-0.643837
 30
0.0
 11
46.021961
 21
-0.638525
 31
0.0
  0
LINE
  5
58E
330
1F
100
AcDbEntity
  8
1
  6
CONTINUOUS
370
50
 62
4
100
AcDbLine
 10
47.54409
 20
0.5132639999999999
 30
0.0
 11
47.47957599999999
 21
0.524899
 31
0.0
  0
LINE
  5
58F
330
1F
100
AcDbEntity
  8
1
  6
CONTINUOUS
370
50
 62
4
100
AcDbLine
 10
46.78986
 20
-0.6414139999999999
 30
0.0
 11
46.783394
 21
-0.6402519999999999
 31
0.0
  0
LINE
  5
590
330
1F
100
AcDbEntity
  8
1
  6
CONTINUOUS
370
50
 62
4
100
AcDbLine
 10
49.903217
 20
0.285355
 30
0.0
 11
49.878445
 21
0.289757
 31
0.0
  0
LINE
  5
591
330
1F
100
AcDbEntity
  8
1
  6
CONTINUOUS
370
50
 62
4
100
AcDbLine
 10
47.569359
 20
0.508787
 30
0.0
 11
47.54409
 21
0.5132639999999999
 31
0.0
  0
LINE
  5
592
330
1F
100
AcDbEntity
  8
1
  6
CONTINUOUS
370
50
 62
4
100
AcDbLine
 10
47.644634
 20
0.49568
 30
0.0
 11
47.569359
 21
0.508787
 31
0.0
  0
LINE
  5
593
330
1F
100
AcDbEntity
  8
1
  6
CONTINUOUS
370
50
 62
4
100
AcDbLine
 10
49.878445
 20
0.289757
 30
0.0
 11
49.853672
 21
0.294013
 31
0.0
  0
LINE
  5
594
330
1F
100
AcDbEntity
  8
1
  6
CONTINUOUS
370
50
 62
4
100
AcDbLine
 10
47.719925
 20
0.482858
 30
0.0
 11
47.644634
 21
0.49568
 31
0.0
  0
LINE
  5
595
330
1F
100
AcDbEntity
  8
1
  6
CONTINUOUS
370
50
 62
4
100
AcDbLine
 10
47.759365
 20
0.476232
 30
0.0
 11
47.719925
 21
0.482858
 31
0.0
  0
LINE
  5
596
330
1F
100
AcDbEntity
  8
1
  6
CONTINUOUS
370
50
 62
4
100
AcDbLine
 10
47.798813
 20
0.469653
 30
0.0
 11
47.759365
 21
0.476232
 31
0.0
  0
LINE
  5
597
330
1F
100
AcDbEntity
  8
1
  6
CONTINUOUS
370
50
 62
4
100
AcDbLine
 10
47.838142
 20
0.463134
 30
0.0
 11
47.798813
 21
0.469653
 31
0.0
  0
LINE
  5
598
330
1F
100
AcDbEntity
  8
1
  6
CONTINUOUS
370
50
 62
4
100
AcDbLine
 10
46.783394
 20
-0.6402519999999999
 30
0.0
 11
46.77602
 21
-0.6390319999999999
 31
0.0
  0
LINE
  5
599
330
1F
100
AcDbEntity
  8
1
  6
CONTINUOUS
370
50
 62
4
100
AcDbLine
 10
49.853672
 20
0.294013
 30
0.0
 11
49.828899
 21
0.298109
 31
0.0
  0
LINE
  5
59A
330
1F
100
AcDbEntity
  8
1
  6
CONTINUOUS
370
50
 62
4
100
AcDbLine
 10
47.877361
 20
0.456663
 30
0.0
 11
47.838142
 21
0.463134
 31
0.0
  0
LINE
  5
59B
330
1F
100
AcDbEntity
  8
1
  6
CONTINUOUS
370
50
 62
4
100
AcDbLine
 10
47.894104
 20
0.453909
 30
0.0
 11
47.877361
 21
0.456663
 31
0.0
  0
LINE
  5
59C
330
1F
100
AcDbEntity
  8
1
  6
CONTINUOUS
370
50
 62
4
100
AcDbLine
 10
47.963116
 20
0.442588
 30
0.0
 11
47.894104
 21
0.453909
 31
0.0
  0
LINE
  5
59D
330
1F
100
AcDbEntity
  8
1
  6
CONTINUOUS
370
50
 62
4
100
AcDbLine
 10
48.031502
 20
0.431405
 30
0.0
 11
47.963116
 21
0.442588
 31
0.0
  0
LINE
  5
59E
330
1F
100
AcDbEntity
  8
1
  6
CONTINUOUS
370
50
 62
4
100
AcDbLine
 10
48.060844
 20
0.426614
 30
0.0
 11
48.031502
 21
0.431405
 31
0.0
  0
LINE
  5
59F
330
1F
100
AcDbEntity
  8
1
  6
CONTINUOUS
370
50
 62
4
100
AcDbLine
 10
48.123665
 20
0.416373
 30
0.0
 11
48.060844
 21
0.426614
 31
0.0
  0
LINE
  5
5A0
330
1F
100
AcDbEntity
  8
1
  6
CONTINUOUS
370
50
 62
4
100
AcDbLine
 10
48.185688
 20
0.406296
 30
0.0
 11
48.123665
 21
0.416373
 31
0.0
  0
LINE
  5
5A1
330
1F
100
AcDbEntity
  8
1
  6
CONTINUOUS
370
50
 62
4
100
AcDbLine
 10
48.216797
 20
0.401262
 30
0.0
 11
48.185688
 21
0.406296
 31
0.0
  0
LINE
  5
5A2
330
1F
100
AcDbEntity
  8
1
  6
CONTINUOUS
370
50
 62
4
100
AcDbLine
 10
48.278797
 20
0.391304
 30
0.0
 11
48.216797
 21
0.401262
 31
0.0
  0
LINE
  5
5A3
330
1F
100
AcDbEntity
  8
1
  6
CONTINUOUS
370
50
 62
4
100
AcDbLine
 10
46.971657
 20
0.6275529999999999
 30
0.0
 11
46.929028
 21
0.634361
 31
0.0
  0
LINE
  5
5A4
330
1F
100
AcDbEntity
  8
1
  6
CONTINUOUS
370
50
 62
4
100
AcDbLine
 10
48.339832
 20
0.381648
 30
0.0
 11
48.278797
 21
0.391304
 31
0.0
  0
LINE
  5
5A5
330
1F
100
AcDbEntity
  8
1
  6
CONTINUOUS
370
50
 62
4
100
AcDbLine
 10
49.828899
 20
0.298109
 30
0.0
 11
49.804131
 21
0.301989
 31
0.0
  0
LINE
  5
5A6
330
1F
100
AcDbEntity
  8
1
  6
CONTINUOUS
370
50
 62
4
100
AcDbLine
 10
48.36124
 20
0.378309
 30
0.0
 11
48.339832
 21
0.381648
 31
0.0
  0
LINE
  5
5A7
330
1F
100
AcDbEntity
  8
1
  6
CONTINUOUS
370
50
 62
4
100
AcDbLine
 10
46.77602
 20
-0.6390319999999999
 30
0.0
 11
46.767784
 21
-0.637767
 31
0.0
  0
LINE
  5
5A8
330
1F
100
AcDbEntity
  8
1
  6
CONTINUOUS
370
50
 62
4
100
AcDbLine
 10
47.714836
 20
-0.24747
 30
0.0
 11
47.54454399999999
 21
-0.221671
 31
0.0
  0
LINE
  5
5A9
330
1F
100
AcDbEntity
  8
1
  6
CONTINUOUS
370
50
 62
4
100
AcDbLine
 10
48.427212
 20
0.368315
 30
0.0
 11
48.36124
 21
0.378309
 31
0.0
  0
LINE
  5
5AA
330
1F
100
AcDbEntity
  8
1
  6
CONTINUOUS
370
50
 62
4
100
AcDbLine
 10
49.454659
 20
-0.56062
 30
0.0
 11
49.419945
 21
-0.555395
 31
0.0
  0
LINE
  5
5AB
330
1F
100
AcDbEntity
  8
1
  6
CONTINUOUS
370
50
 62
4
100
AcDbLine
 10
49.454899
 20
0.255447
 30
0.0
 11
49.312527
 21
0.276845
 31
0.0
  0
LINE
  5
5AC
330
1F
100
AcDbEntity
  8
1
  6
CONTINUOUS
370
50
 62
4
100
AcDbLine
 10
49.804131
 20
0.301989
 30
0.0
 11
49.779362
 21
0.305657
 31
0.0
  0
LINE
  5
5AD
330
1F
100
AcDbEntity
  8
1
  6
CONTINUOUS
370
50
 62
4
100
AcDbLine
 10
46.767784
 20
-0.637767
 30
0.0
 11
46.758743
 21
-0.636475
 31
0.0
  0
LINE
  5
5AE
330
1F
100
AcDbEntity
  8
1
  6
CONTINUOUS
370
50
 62
4
100
AcDbLine
 10
48.782391
 20
-0.318555
 30
0.0
 11
48.602062
 21
-0.293104
 31
0.0
  0
LINE
  5
5AF
330
1F
100
AcDbEntity
  8
1
  6
CONTINUOUS
370
50
 62
4
100
AcDbLine
 10
48.261776
 20
-0.322529
 30
0.0
 11
48.091187
 21
-0.298513
 31
0.0
  0
LINE
  5
5B0
330
1F
100
AcDbEntity
  8
1
  6
CONTINUOUS
370
50
 62
4
100
AcDbLine
 10
49.779362
 20
0.305657
 30
0.0
 11
49.754597
 21
0.309119
 31
0.0
  0
LINE
  5
5B1
330
1F
100
AcDbEntity
  8
1
  6
CONTINUOUS
370
50
 62
4
100
AcDbLine
 10
47.90139
 20
-0.272923
 30
0.0
 11
47.714836
 21
-0.24747
 31
0.0
  0
LINE
  5
5B2
330
1F
100
AcDbEntity
  8
1
  6
CONTINUOUS
370
50
 62
4
100
AcDbLine
 10
48.091187
 20
-0.298513
 30
0.0
 11
47.90139
 21
-0.272923
 31
0.0
  0
LINE
  5
5B3
330
1F
100
AcDbEntity
  8
1
  6
CONTINUOUS
370
50
 62
4
100
AcDbLine
 10
48.493816
 20
0.359339
 30
0.0
 11
48.427212
 21
0.368315
 31
0.0
  0
LINE
  5
5B4
330
1F
100
AcDbEntity
  8
1
  6
CONTINUOUS
370
50
 62
4
100
AcDbLine
 10
46.758743
 20
-0.636475
 30
0.0
 11
46.74892
 21
-0.6351709999999999
 31
0.0
  0
LINE
  5
5B5
330
1F
100
AcDbEntity
  8
1
  6
CONTINUOUS
370
50
 62
4
100
AcDbLine
 10
46.929028
 20
0.634361
 30
0.0
 11
46.886639
 21
0.639871
 31
0.0
  0
LINE
  5
5B6
330
1F
100
AcDbEntity
  8
1
  6
CONTINUOUS
370
50
 62
4
100
AcDbLine
 10
49.312527
 20
0.276845
 30
0.0
 11
49.169666
 21
0.29488
 31
0.0
  0
LINE
  5
5B7
330
1F
100
AcDbEntity
  8
1
  6
CONTINUOUS
370
50
 62
4
100
AcDbLine
 10
49.59016399999999
 20
0.5584009999999999
 30
0.0
 11
49.556938
 21
0.5625669999999999
 31
0.0
  0
LINE
  5
5B8
330
1F
100
AcDbEntity
  8
1
  6
CONTINUOUS
370
50
 62
4
100
AcDbLine
 10
46.74892
 20
-0.6351709999999999
 30
0.0
 11
46.738354
 21
-0.633872
 31
0.0
  0
LINE
  5
5B9
330
1F
100
AcDbEntity
  8
1
  6
CONTINUOUS
370
50
 62
4
100
AcDbLine
 10
49.754597
 20
0.309119
 30
0.0
 11
49.671646
 21
0.319272
 31
0.0
  0
LINE
  5
5BA
330
1F
100
AcDbEntity
  8
1
  6
CONTINUOUS
370
50
 62
4
100
AcDbLine
 10
49.02343399999999
 20
0.311141
 30
0.0
 11
48.973793
 21
0.317107
 31
0.0
  0
LINE
  5
5BB
330
1F
100
AcDbEntity
  8
1
  6
CONTINUOUS
370
50
 62
4
100
AcDbLine
 10
48.531704
 20
0.354794
 30
0.0
 11
48.493816
 21
0.359339
 31
0.0
  0
LINE
  5
5BC
330
1F
100
AcDbEntity
  8
1
  6
CONTINUOUS
370
50
 62
4
100
AcDbLine
 10
46.081177
 20
-0.647378
 30
0.0
 11
46.050785
 21
-0.643837
 31
0.0
  0
LINE
  5
5BD
330
1F
100
AcDbEntity
  8
1
  6
CONTINUOUS
370
50
 62
4
100
AcDbLine
 10
48.39659899999999
 20
-0.338086
 30
0.0
 11
48.261776
 21
-0.322529
 31
0.0
  0
LINE
  5
5BE
330
1F
100
AcDbEntity
  8
1
  6
CONTINUOUS
370
50
 62
4
100
AcDbLine
 10
46.738354
 20
-0.633872
 30
0.0
 11
46.727066
 21
-0.632593
 31
0.0
  0
LINE
  5
5BF
330
1F
100
AcDbEntity
  8
1
  6
CONTINUOUS
370
50
 62
4
100
AcDbLine
 10
49.02343399999999
 20
0.311141
 30
0.0
 11
48.976997
 21
0.316314
 31
0.0
  0
LINE
  5
5C0
330
1F
100
AcDbEntity
  8
1
  6
CONTINUOUS
370
50
 62
4
100
AcDbLine
 10
49.169666
 20
0.29488
 30
0.0
 11
49.02343399999999
 21
0.311141
 31
0.0
  0
LINE
  5
5C1
330
1F
100
AcDbEntity
  8
1
  6
CONTINUOUS
370
50
 62
4
100
AcDbLine
 10
48.569939
 20
0.350608
 30
0.0
 11
48.531704
 21
0.354794
 31
0.0
  0
LINE
  5
5C2
330
1F
100
AcDbEntity
  8
1
  6
CONTINUOUS
370
50
 62
4
100
AcDbLine
 10
48.973793
 20
0.317107
 30
0.0
 11
48.924145
 21
0.322494
 31
0.0
  0
LINE
  5
5C3
330
1F
100
AcDbEntity
  8
1
  6
CONTINUOUS
370
50
 62
4
100
AcDbLine
 10
46.727066
 20
-0.632593
 30
0.0
 11
46.715099
 21
-0.63135
 31
0.0
  0
LINE
  5
5C4
330
1F
100
AcDbEntity
  8
1
  6
CONTINUOUS
370
50
 62
4
100
AcDbLine
 10
48.976997
 20
0.316314
 30
0.0
 11
48.930172
 21
0.321148
 31
0.0
  0
LINE
  5
5C5
330
1F
100
AcDbEntity
  8
1
  6
CONTINUOUS
370
50
 62
4
100
AcDbLine
 10
46.886639
 20
0.639871
 30
0.0
 11
46.84384499999999
 21
0.6441479999999999
 31
0.0
  0
LINE
  5
5C6
330
1F
100
AcDbEntity
  8
1
  6
CONTINUOUS
370
50
 62
4
100
AcDbLine
 10
48.608494
 20
0.346782
 30
0.0
 11
48.569939
 21
0.350608
 31
0.0
  0
LINE
  5
5C7
330
1F
100
AcDbEntity
  8
1
  6
CONTINUOUS
370
50
 62
4
100
AcDbLine
 10
48.924145
 20
0.322494
 30
0.0
 11
48.874496
 21
0.327347
 31
0.0
  0
LINE
  5
5C8
330
1F
100
AcDbEntity
  8
1
  6
CONTINUOUS
370
50
 62
4
100
AcDbLine
 10
49.671646
 20
0.319272
 30
0.0
 11
49.588707
 21
0.327344
 31
0.0
  0
LINE
  5
5C9
330
1F
100
AcDbEntity
  8
1
  6
CONTINUOUS
370
50
 62
4
100
AcDbLine
 10
48.930172
 20
0.321148
 30
0.0
 11
48.88306
 21
0.325613
 31
0.0
  0
LINE
  5
5CA
330
1F
100
AcDbEntity
  8
1
  6
CONTINUOUS
370
50
 62
4
100
AcDbLine
 10
46.715099
 20
-0.63135
 30
0.0
 11
46.702541
 21
-0.630168
 31
0.0
  0
LINE
  5
5CB
330
1F
100
AcDbEntity
  8
1
  6
CONTINUOUS
370
50
 62
4
100
AcDbLine
 10
48.647648
 20
0.343288
 30
0.0
 11
48.608494
 21
0.346782
 31
0.0
  0
LINE
  5
5CC
330
1F
100
AcDbEntity
  8
1
  6
CONTINUOUS
370
50
 62
4
100
AcDbLine
 10
49.489105
 20
-0.5636099999999999
 30
0.0
 11
49.454659
 21
-0.56062
 31
0.0
  0
LINE
  5
5CD
330
1F
100
AcDbEntity
  8
1
  6
CONTINUOUS
370
50
 62
4
100
AcDbLine
 10
48.874496
 20
0.327347
 30
0.0
 11
48.824844
 21
0.331642
 31
0.0
  0
LINE
  5
5CE
330
1F
100
AcDbEntity
  8
1
  6
CONTINUOUS
370
50
 62
4
100
AcDbLine
 10
48.88306
 20
0.325613
 30
0.0
 11
48.835762
 21
0.32968
 31
0.0
  0
LINE
  5
5CF
330
1F
100
AcDbEntity
  8
1
  6
CONTINUOUS
370
50
 62
4
100
AcDbLine
 10
46.702541
 20
-0.630168
 30
0.0
 11
46.689461
 21
-0.629068
 31
0.0
  0
LINE
  5
5D0
330
1F
100
AcDbEntity
  8
1
  6
CONTINUOUS
370
50
 62
4
100
AcDbLine
 10
48.693981
 20
0.339642
 30
0.0
 11
48.647648
 21
0.343288
 31
0.0
  0
LINE
  5
5D1
330
1F
100
AcDbEntity
  8
1
  6
CONTINUOUS
370
50
 62
4
100
AcDbLine
 10
46.40398
 20
0.634763
 30
0.0
 11
46.364552
 21
0.6378079999999999
 31
0.0
  0
LINE
  5
5D2
330
1F
100
AcDbEntity
  8
1
  6
CONTINUOUS
370
50
 62
4
100
AcDbLine
 10
46.364552
 20
0.6378079999999999
 30
0.0
 11
46.325848
 21
0.640787
 31
0.0
  0
LINE
  5
5D3
330
1F
100
AcDbEntity
  8
1
  6
CONTINUOUS
370
50
 62
4
100
AcDbLine
 10
48.835762
 20
0.32968
 30
0.0
 11
48.78838
 21
0.333318
 31
0.0
  0
LINE
  5
5D4
330
1F
100
AcDbEntity
  8
1
  6
CONTINUOUS
370
50
 62
4
100
AcDbLine
 10
46.444061
 20
0.63176
 30
0.0
 11
46.40398
 21
0.634763
 31
0.0
  0
LINE
  5
5D5
330
1F
100
AcDbEntity
  8
1
  6
CONTINUOUS
370
50
 62
4
100
AcDbLine
 10
48.824844
 20
0.331642
 30
0.0
 11
48.775188
 21
0.335356
 31
0.0
  0
LINE
  5
5D6
330
1F
100
AcDbEntity
  8
1
  6
CONTINUOUS
370
50
 62
4
100
AcDbLine
 10
49.588707
 20
0.327344
 30
0.0
 11
49.505772
 21
0.33352
 31
0.0
  0
LINE
  5
5D7
330
1F
100
AcDbEntity
  8
1
  6
CONTINUOUS
370
50
 62
4
100
AcDbLine
 10
46.325848
 20
0.640787
 30
0.0
 11
46.287945
 21
0.643594
 31
0.0
  0
LINE
  5
5D8
330
1F
100
AcDbEntity
  8
1
  6
CONTINUOUS
370
50
 62
4
100
AcDbLine
 10
46.689461
 20
-0.629068
 30
0.0
 11
46.675892
 21
-0.628064
 31
0.0
  0
LINE
  5
5D9
330
1F
100
AcDbEntity
  8
1
  6
CONTINUOUS
370
50
 62
4
100
AcDbLine
 10
50.0
 20
0.0
 30
0.0
 11
49.980396
 21
0.001399
 31
0.0
  0
LINE
  5
5DA
330
1F
100
AcDbEntity
  8
1
  6
CONTINUOUS
370
50
 62
4
100
AcDbLine
 10
46.84384499999999
 20
0.6441479999999999
 30
0.0
 11
46.799999
 21
0.647258
 31
0.0
  0
LINE
  5
5DB
330
1F
100
AcDbEntity
  8
1
  6
CONTINUOUS
370
50
 62
4
100
AcDbLine
 10
46.484715
 20
0.628907
 30
0.0
 11
46.444061
 21
0.63176
 31
0.0
  0
LINE
  5
5DC
330
1F
100
AcDbEntity
  8
1
  6
CONTINUOUS
370
50
 62
4
100
AcDbLine
 10
48.741013
 20
0.336457
 30
0.0
 11
48.693981
 21
0.339642
 31
0.0
  0
LINE
  5
5DD
330
1F
100
AcDbEntity
  8
1
  6
CONTINUOUS
370
50
 62
4
100
AcDbLine
 10
46.287945
 20
0.643594
 30
0.0
 11
46.250969
 21
0.6460969999999999
 31
0.0
  0
LINE
  5
5DE
330
1F
100
AcDbEntity
  8
1
  6
CONTINUOUS
370
50
 62
4
100
AcDbLine
 10
48.78838
 20
0.333318
 30
0.0
 11
48.74101599999999
 21
0.336499
 31
0.0
  0
LINE
  5
5DF
330
1F
100
AcDbEntity
  8
1
  6
CONTINUOUS
370
50
 62
4
100
AcDbLine
 10
46.675892
 20
-0.628064
 30
0.0
 11
46.661873
 21
-0.627173
 31
0.0
  0
LINE
  5
5E0
330
1F
100
AcDbEntity
  8
1
  6
CONTINUOUS
370
50
 62
4
100
AcDbLine
 10
46.525875
 20
0.626312
 30
0.0
 11
46.484715
 21
0.628907
 31
0.0
  0
LINE
  5
5E1
330
1F
100
AcDbEntity
  8
1
  6
CONTINUOUS
370
50
 62
4
100
AcDbLine
 10
48.775188
 20
0.335356
 30
0.0
 11
48.725533
 21
0.338463
 31
0.0
  0
LINE
  5
5E2
330
1F
100
AcDbEntity
  8
1
  6
CONTINUOUS
370
50
 62
4
100
AcDbLine
 10
46.113174
 20
-0.649346
 30
0.0
 11
46.081177
 21
-0.647378
 31
0.0
  0
LINE
  5
5E3
330
1F
100
AcDbEntity
  8
1
  6
CONTINUOUS
370
50
 62
4
100
AcDbLine
 10
46.250969
 20
0.6460969999999999
 30
0.0
 11
46.215069
 21
0.648111
 31
0.0
  0
LINE
  5
5E4
330
1F
100
AcDbEntity
  8
1
  6
CONTINUOUS
370
50
 62
4
100
AcDbLine
 10
49.505772
 20
0.33352
 30
0.0
 11
49.422832
 21
0.337973
 31
0.0
  0
LINE
  5
5E5
330
1F
100
AcDbEntity
  8
1
  6
CONTINUOUS
370
50
 62
4
100
AcDbLine
 10
46.661873
 20
-0.627173
 30
0.0
 11
46.64743
 21
-0.62641
 31
0.0
  0
LINE
  5
5E6
330
1F
100
AcDbEntity
  8
1
  6
CONTINUOUS
370
50
 62
4
100
AcDbLine
 10
49.556938
 20
0.5625669999999999
 30
0.0
 11
49.523235
 21
0.564283
 31
0.0
  0
LINE
  5
5E7
330
1F
100
AcDbEntity
  8
1
  6
CONTINUOUS
370
50
 62
4
100
AcDbLine
 10
48.533371
 20
-0.343867
 30
0.0
 11
48.39659899999999
 21
-0.338086
 31
0.0
  0
LINE
  5
5E8
330
1F
100
AcDbEntity
  8
1
  6
CONTINUOUS
370
50
 62
4
100
AcDbLine
 10
46.64743
 20
-0.62641
 30
0.0
 11
46.632607
 21
-0.62579
 31
0.0
  0
LINE
  5
5E9
330
1F
100
AcDbEntity
  8
1
  6
CONTINUOUS
370
50
 62
4
100
AcDbLine
 10
46.541004
 20
0.625705
 30
0.0
 11
46.525875
 21
0.626312
 31
0.0
  0
LINE
  5
5EA
330
1F
100
AcDbEntity
  8
1
  6
CONTINUOUS
370
50
 62
4
100
AcDbLine
 10
46.215069
 20
0.648111
 30
0.0
 11
46.180271
 21
0.6494559999999999
 31
0.0
  0
LINE
  5
5EB
330
1F
100
AcDbEntity
  8
1
  6
CONTINUOUS
370
50
 62
4
100
AcDbLine
 10
49.422832
 20
0.337973
 30
0.0
 11
49.339886
 21
0.340793
 31
0.0
  0
LINE
  5
5EC
330
1F
100
AcDbEntity
  8
1
  6
CONTINUOUS
370
50
 62
4
100
AcDbLine
 10
46.632607
 20
-0.62579
 30
0.0
 11
46.617458
 21
-0.625332
 31
0.0
  0
LINE
  5
5ED
330
1F
100
AcDbEntity
  8
1
  6
CONTINUOUS
370
50
 62
4
100
AcDbLine
 10
46.55624
 20
0.625274
 30
0.0
 11
46.541004
 21
0.625705
 31
0.0
  0
LINE
  5
5EE
330
1F
100
AcDbEntity
  8
1
  6
CONTINUOUS
370
50
 62
4
100
AcDbLine
 10
49.523235
 20
-0.564283
 30
0.0
 11
49.489105
 21
-0.5636099999999999
 31
0.0
  0
LINE
  5
5EF
330
1F
100
AcDbEntity
  8
1
  6
CONTINUOUS
370
50
 62
4
100
AcDbLine
 10
46.617458
 20
-0.625332
 30
0.0
 11
46.602192
 21
-0.62505
 31
0.0
  0
LINE
  5
5F0
330
1F
100
AcDbEntity
  8
1
  6
CONTINUOUS
370
50
 62
4
100
AcDbLine
 10
46.146664
 20
-0.649951
 30
0.0
 11
46.113174
 21
-0.649346
 31
0.0
  0
LINE
  5
5F1
330
1F
100
AcDbEntity
  8
1
  6
CONTINUOUS
370
50
 62
4
100
AcDbLine
 10
46.571545
 20
0.625022
 30
0.0
 11
46.55624
 21
0.625274
 31
0.0
  0
LINE
  5
5F2
330
1F
100
AcDbEntity
  8
1
  6
CONTINUOUS
370
50
 62
4
100
AcDbLine
 10
49.339886
 20
0.340793
 30
0.0
 11
49.25693099999999
 21
0.342026
 31
0.0
  0
LINE
  5
5F3
330
1F
100
AcDbEntity
  8
1
  6
CONTINUOUS
370
50
 62
4
100
AcDbLine
 10
46.180271
 20
0.6494559999999999
 30
0.0
 11
46.146664
 21
0.649951
 31
0.0
  0
LINE
  5
5F4
330
1F
100
AcDbEntity
  8
1
  6
CONTINUOUS
370
50
 62
4
100
AcDbLine
 10
46.602192
 20
-0.62505
 30
0.0
 11
46.586872
 21
-0.6249469999999999
 31
0.0
  0
LINE
  5
5F5
330
1F
100
AcDbEntity
  8
1
  6
CONTINUOUS
370
50
 62
4
100
AcDbLine
 10
49.189331
 20
0.342345
 30
0.0
 11
49.121574
 21
0.34275
 31
0.0
  0
LINE
  5
5F6
330
1F
100
AcDbEntity
  8
1
  6
CONTINUOUS
370
50
 62
4
100
AcDbLine
 10
49.256966
 20
0.341949
 30
0.0
 11
49.189331
 21
0.342345
 31
0.0
  0
LINE
  5
5F7
330
1F
100
AcDbEntity
  8
1
  6
CONTINUOUS
370
50
 62
4
100
AcDbLine
 10
49.121574
 20
0.34275
 30
0.0
 11
49.056942
 21
0.343128
 31
0.0
  0
LINE
  5
5F8
330
1F
100
AcDbEntity
  8
1
  6
CONTINUOUS
370
50
 62
4
100
AcDbLine
 10
49.056942
 20
0.343128
 30
0.0
 11
49.009445
 21
0.343392
 31
0.0
  0
LINE
  5
5F9
330
1F
100
AcDbEntity
  8
1
  6
CONTINUOUS
370
50
 62
4
100
AcDbLine
 10
49.009445
 20
0.343392
 30
0.0
 11
48.961689
 21
0.343639
 31
0.0
  0
LINE
  5
5FA
330
1F
100
AcDbEntity
  8
1
  6
CONTINUOUS
370
50
 62
4
100
AcDbLine
 10
46.586872
 20
0.6249469999999999
 30
0.0
 11
46.571545
 21
0.625022
 31
0.0
  0
LINE
  5
5FB
330
1F
100
AcDbEntity
  8
1
  6
CONTINUOUS
370
50
 62
4
100
AcDbLine
 10
48.590214
 20
-0.344102
 30
0.0
 11
48.533371
 21
-0.343828
 31
0.0
  0
LINE
  5
5FC
330
1F
100
AcDbEntity
  8
1
  6
CONTINUOUS
370
50
 62
4
100
AcDbLine
 10
48.961689
 20
0.343639
 30
0.0
 11
48.90918
 21
0.34388
 31
0.0
  0
LINE
  5
5FD
330
1F
100
AcDbEntity
  8
1
  6
CONTINUOUS
370
50
 62
4
100
AcDbLine
 10
48.90918
 20
0.34388
 30
0.0
 11
48.85637699999999
 21
0.344079
 31
0.0
  0
LINE
  5
5FE
330
1F
100
AcDbEntity
  8
1
  6
CONTINUOUS
370
50
 62
4
100
AcDbLine
 10
48.65218
 20
-0.344275
 30
0.0
 11
48.590214
 21
-0.344102
 31
0.0
  0
LINE
  5
5FF
330
1F
100
AcDbEntity
  8
1
  6
CONTINUOUS
370
50
 62
4
100
AcDbLine
 10
48.85637699999999
 20
0.344079
 30
0.0
 11
48.79545599999999
 21
0.344245
 31
0.0
  0
LINE
  5
600
330
1F
100
AcDbEntity
  8
1
  6
CONTINUOUS
370
50
 62
4
100
AcDbLine
 10
48.682938
 20
-0.344319
 30
0.0
 11
48.65218
 21
-0.344275
 31
0.0
  0
LINE
  5
601
330
1F
100
AcDbEntity
  8
1
  6
CONTINUOUS
370
50
 62
4
100
AcDbLine
 10
48.79545599999999
 20
0.344245
 30
0.0
 11
48.726788
 21
0.344327
 31
0.0
  0
LINE
  5
602
330
1F
100
AcDbEntity
  8
1
  6
CONTINUOUS
370
50
 62
4
100
AcDbLine
 10
48.725021
 20
-0.344328
 30
0.0
 11
48.682938
 21
-0.344319
 31
0.0
  0
LINE
  5
603
330
1F
100
AcDbEntity
  8
1
  6
CONTINUOUS
370
50
 62
4
100
AcDbLine
 10
45.900002
 20
-0.6499499999999999
 30
0.0
 11
46.146648
 21
-0.6499499999999999
 31
0.0
  0
LINE
  5
604
330
1F
100
AcDbEntity
  8
1
  6
CONTINUOUS
370
50
 62
4
100
AcDbLine
 10
45.900002
 20
0.6499499999999999
 30
0.0
 11
46.146648
 21
0.6499499999999999
 31
0.0
  0
LINE
  5
605
330
1F
100
AcDbEntity
  8
1
  6
CONTINUOUS
370
50
 62
4
100
AcDbLine
 10
48.678944
 20
0.344315
 30
0.0
 11
48.726788
 21
0.344327
 31
0.0
  0
LINE
  5
606
330
1F
100
AcDbEntity
  8
1
  6
CONTINUOUS
370
50
 62
4
100
AcDbLine
 10
48.725021
 20
-0.344328
 30
0.0
 11
48.78418
 21
-0.344267
 31
0.0
  0
LINE
  5
607
330
1F
100
AcDbEntity
  8
1
  6
CONTINUOUS
370
50
 62
4
100
AcDbLine
 10
48.78418
 20
-0.344267
 30
0.0
 11
48.83748199999999
 21
-0.344139
 31
0.0
  0
LINE
  5
608
330
1F
100
AcDbEntity
  8
1
  6
CONTINUOUS
370
50
 62
4
100
AcDbLine
 10
46.571545
 20
-0.625022
 30
0.0
 11
46.586872
 21
-0.6249469999999999
 31
0.0
  0
LINE
  5
609
330
1F
100
AcDbEntity
  8
1
  6
CONTINUOUS
370
50
 62
4
100
AcDbLine
 10
46.586872
 20
0.6249469999999999
 30
0.0
 11
46.602192
 21
0.62505
 31
0.0
  0
LINE
  5
60A
330
1F
100
AcDbEntity
  8
1
  6
CONTINUOUS
370
50
 62
4
100
AcDbLine
 10
46.146664
 20
-0.649951
 30
0.0
 11
46.180271
 21
-0.6494559999999999
 31
0.0
  0
LINE
  5
60B
330
1F
100
AcDbEntity
  8
1
  6
CONTINUOUS
370
50
 62
4
100
AcDbLine
 10
46.55624
 20
-0.625274
 30
0.0
 11
46.571545
 21
-0.625022
 31
0.0
  0
LINE
  5
60C
330
1F
100
AcDbEntity
  8
1
  6
CONTINUOUS
370
50
 62
4
100
AcDbLine
 10
46.602192
 20
0.62505
 30
0.0
 11
46.617458
 21
0.625332
 31
0.0
  0
LINE
  5
60D
330
1F
100
AcDbEntity
  8
1
  6
CONTINUOUS
370
50
 62
4
100
AcDbLine
 10
49.489105
 20
0.5636099999999999
 30
0.0
 11
49.523235
 21
0.564283
 31
0.0
  0
LINE
  5
60E
330
1F
100
AcDbEntity
  8
1
  6
CONTINUOUS
370
50
 62
4
100
AcDbLine
 10
46.541004
 20
-0.625705
 30
0.0
 11
46.55624
 21
-0.625274
 31
0.0
  0
LINE
  5
60F
330
1F
100
AcDbEntity
  8
1
  6
CONTINUOUS
370
50
 62
4
100
AcDbLine
 10
46.617458
 20
0.625332
 30
0.0
 11
46.632607
 21
0.62579
 31
0.0
  0
LINE
  5
610
330
1F
100
AcDbEntity
  8
1
  6
CONTINUOUS
370
50
 62
4
100
AcDbLine
 10
46.180271
 20
-0.6494559999999999
 30
0.0
 11
46.215069
 21
-0.648111
 31
0.0
  0
LINE
  5
611
330
1F
100
AcDbEntity
  8
1
  6
CONTINUOUS
370
50
 62
4
100
AcDbLine
 10
46.525875
 20
-0.626312
 30
0.0
 11
46.541004
 21
-0.625705
 31
0.0
  0
LINE
  5
612
330
1F
100
AcDbEntity
  8
1
  6
CONTINUOUS
370
50
 62
4
100
AcDbLine
 10
46.632607
 20
0.62579
 30
0.0
 11
46.64743
 21
0.62641
 31
0.0
  0
LINE
  5
613
330
1F
100
AcDbEntity
  8
1
  6
CONTINUOUS
370
50
 62
4
100
AcDbLine
 10
49.523235
 20
-0.564283
 30
0.0
 11
49.556938
 21
-0.5625669999999999
 31
0.0
  0
LINE
  5
614
330
1F
100
AcDbEntity
  8
1
  6
CONTINUOUS
370
50
 62
4
100
AcDbLine
 10
49.435413
 20
-0.416273
 30
0.0
 11
49.46200899999999
 21
-0.414912
 31
0.0
  0
LINE
  5
615
330
1F
100
AcDbEntity
  8
1
  6
CONTINUOUS
370
50
 62
4
100
AcDbLine
 10
46.64743
 20
0.62641
 30
0.0
 11
46.661873
 21
0.627173
 31
0.0
  0
LINE
  5
616
330
1F
100
AcDbEntity
  8
1
  6
CONTINUOUS
370
50
 62
4
100
AcDbLine
 10
49.40876
 20
-0.41772
 30
0.0
 11
49.435413
 21
-0.416273
 31
0.0
  0
LINE
  5
617
330
1F
100
AcDbEntity
  8
1
  6
CONTINUOUS
370
50
 62
4
100
AcDbLine
 10
46.215069
 20
-0.648111
 30
0.0
 11
46.250969
 21
-0.6460969999999999
 31
0.0
  0
LINE
  5
618
330
1F
100
AcDbEntity
  8
1
  6
CONTINUOUS
370
50
 62
4
100
AcDbLine
 10
49.38206899999999
 20
-0.419251
 30
0.0
 11
49.40876
 21
-0.41772
 31
0.0
  0
LINE
  5
619
330
1F
100
AcDbEntity
  8
1
  6
CONTINUOUS
370
50
 62
4
100
AcDbLine
 10
49.355358
 20
-0.420864
 30
0.0
 11
49.38206899999999
 21
-0.419251
 31
0.0
  0
LINE
  5
61A
330
1F
100
AcDbEntity
  8
1
  6
CONTINUOUS
370
50
 62
4
100
AcDbLine
 10
46.484715
 20
-0.628907
 30
0.0
 11
46.525875
 21
-0.626312
 31
0.0
  0
LINE
  5
61B
330
1F
100
AcDbEntity
  8
1
  6
CONTINUOUS
370
50
 62
4
100
AcDbLine
 10
49.328648
 20
-0.422559
 30
0.0
 11
49.355358
 21
-0.420864
 31
0.0
  0
LINE
  5
61C
330
1F
100
AcDbEntity
  8
1
  6
CONTINUOUS
370
50
 62
4
100
AcDbLine
 10
46.661873
 20
0.627173
 30
0.0
 11
46.675892
 21
0.628064
 31
0.0
  0
LINE
  5
61D
330
1F
100
AcDbEntity
  8
1
  6
CONTINUOUS
370
50
 62
4
100
AcDbLine
 10
49.30196
 20
-0.424333
 30
0.0
 11
49.328648
 21
-0.422559
 31
0.0
  0
LINE
  5
61E
330
1F
100
AcDbEntity
  8
1
  6
CONTINUOUS
370
50
 62
4
100
AcDbLine
 10
46.250969
 20
-0.6460969999999999
 30
0.0
 11
46.287945
 21
-0.643594
 31
0.0
  0
LINE
  5
61F
330
1F
100
AcDbEntity
  8
1
  6
CONTINUOUS
370
50
 62
4
100
AcDbLine
 10
49.27531399999999
 20
-0.42619
 30
0.0
 11
49.30196
 21
-0.424333
 31
0.0
  0
LINE
  5
620
330
1F
100
AcDbEntity
  8
1
  6
CONTINUOUS
370
50
 62
4
100
AcDbLine
 10
46.444061
 20
-0.63176
 30
0.0
 11
46.484715
 21
-0.628907
 31
0.0
  0
LINE
  5
621
330
1F
100
AcDbEntity
  8
1
  6
CONTINUOUS
370
50
 62
4
100
AcDbLine
 10
46.799999
 20
-0.647258
 30
0.0
 11
46.84748099999999
 21
-0.643821
 31
0.0
  0
LINE
  5
622
330
1F
100
AcDbEntity
  8
1
  6
CONTINUOUS
370
50
 62
4
100
AcDbLine
 10
46.675892
 20
0.628064
 30
0.0
 11
46.689461
 21
0.629068
 31
0.0
  0
LINE
  5
623
330
1F
100
AcDbEntity
  8
1
  6
CONTINUOUS
370
50
 62
4
100
AcDbLine
 10
46.287945
 20
-0.643594
 30
0.0
 11
46.325848
 21
-0.640787
 31
0.0
  0
LINE
  5
624
330
1F
100
AcDbEntity
  8
1
  6
CONTINUOUS
370
50
 62
4
100
AcDbLine
 10
46.40398
 20
-0.634763
 30
0.0
 11
46.444061
 21
-0.63176
 31
0.0
  0
LINE
  5
625
330
1F
100
AcDbEntity
  8
1
  6
CONTINUOUS
370
50
 62
4
100
AcDbLine
 10
46.325848
 20
-0.640787
 30
0.0
 11
46.364552
 21
-0.6378079999999999
 31
0.0
  0
LINE
  5
626
330
1F
100
AcDbEntity
  8
1
  6
CONTINUOUS
370
50
 62
4
100
AcDbLine
 10
46.364552
 20
-0.6378079999999999
 30
0.0
 11
46.40398
 21
-0.634763
 31
0.0
  0
LINE
  5
627
330
1F
100
AcDbEntity
  8
1
  6
CONTINUOUS
370
50
 62
4
100
AcDbLine
 10
46.744041
 20
0.616637
 30
0.0
 11
46.799999
 21
0.621064
 31
0.0
  0
LINE
  5
628
330
1F
100
AcDbEntity
  8
1
  6
CONTINUOUS
370
50
 62
4
100
AcDbLine
 10
48.641262
 20
-0.343832
 30
0.0
 11
48.67781799999999
 21
-0.340869
 31
0.0
  0
LINE
  5
629
330
1F
100
AcDbEntity
  8
1
  6
CONTINUOUS
370
50
 62
4
100
AcDbLine
 10
46.689461
 20
0.629068
 30
0.0
 11
46.702541
 21
0.630168
 31
0.0
  0
LINE
  5
62A
330
1F
100
AcDbEntity
  8
1
  6
CONTINUOUS
370
50
 62
4
100
AcDbLine
 10
49.454659
 20
0.56062
 30
0.0
 11
49.489105
 21
0.5636099999999999
 31
0.0
  0
LINE
  5
62B
330
1F
100
AcDbEntity
  8
1
  6
CONTINUOUS
370
50
 62
4
100
AcDbLine
 10
48.611523
 20
-0.346536
 30
0.0
 11
48.641262
 21
-0.343832
 31
0.0
  0
LINE
  5
62C
330
1F
100
AcDbEntity
  8
1
  6
CONTINUOUS
370
50
 62
4
100
AcDbLine
 10
46.702541
 20
0.630168
 30
0.0
 11
46.715099
 21
0.63135
 31
0.0
  0
LINE
  5
62D
330
1F
100
AcDbEntity
  8
1
  6
CONTINUOUS
370
50
 62
4
100
AcDbLine
 10
46.68998
 20
0.611076
 30
0.0
 11
46.744041
 21
0.616637
 31
0.0
  0
LINE
  5
62E
330
1F
100
AcDbEntity
  8
1
  6
CONTINUOUS
370
50
 62
4
100
AcDbLine
 10
46.715099
 20
0.63135
 30
0.0
 11
46.727066
 21
0.632593
 31
0.0
  0
LINE
  5
62F
330
1F
100
AcDbEntity
  8
1
  6
CONTINUOUS
370
50
 62
4
100
AcDbLine
 10
46.84748099999999
 20
-0.643821
 30
0.0
 11
46.892097
 21
-0.6391709999999999
 31
0.0
  0
LINE
  5
630
330
1F
100
AcDbEntity
  8
1
  6
CONTINUOUS
370
50
 62
4
100
AcDbLine
 10
48.530437
 20
-0.354995
 30
0.0
 11
48.611523
 21
-0.346536
 31
0.0
  0
LINE
  5
631
330
1F
100
AcDbEntity
  8
1
  6
CONTINUOUS
370
50
 62
4
100
AcDbLine
 10
46.155415
 20
-0.488228
 30
0.0
 11
46.157017
 21
-0.488059
 31
0.0
  0
LINE
  5
632
330
1F
100
AcDbEntity
  8
1
  6
CONTINUOUS
370
50
 62
4
100
AcDbLine
 10
49.46200899999999
 20
-0.414913
 30
0.0
 11
49.484795
 21
-0.412463
 31
0.0
  0
LINE
  5
633
330
1F
100
AcDbEntity
  8
1
  6
CONTINUOUS
370
50
 62
4
100
AcDbLine
 10
46.153847
 20
-0.488404
 30
0.0
 11
46.155415
 21
-0.488228
 31
0.0
  0
LINE
  5
634
330
1F
100
AcDbEntity
  8
1
  6
CONTINUOUS
370
50
 62
4
100
AcDbLine
 10
46.727066
 20
0.632593
 30
0.0
 11
46.738354
 21
0.633872
 31
0.0
  0
LINE
  5
635
330
1F
100
AcDbEntity
  8
1
  6
CONTINUOUS
370
50
 62
4
100
AcDbLine
 10
46.152306
 20
-0.488584
 30
0.0
 11
46.153847
 21
-0.488404
 31
0.0
  0
LINE
  5
636
330
1F
100
AcDbEntity
  8
1
  6
CONTINUOUS
370
50
 62
4
100
AcDbLine
 10
48.489975
 20
-0.359822
 30
0.0
 11
48.530437
 21
-0.354995
 31
0.0
  0
LINE
  5
637
330
1F
100
AcDbEntity
  8
1
  6
CONTINUOUS
370
50
 62
4
100
AcDbLine
 10
46.738354
 20
0.633872
 30
0.0
 11
46.74892
 21
0.6351709999999999
 31
0.0
  0
LINE
  5
638
330
1F
100
AcDbEntity
  8
1
  6
CONTINUOUS
370
50
 62
4
100
AcDbLine
 10
46.150799
 20
-0.48877
 30
0.0
 11
46.152306
 21
-0.488584
 31
0.0
  0
LINE
  5
639
330
1F
100
AcDbEntity
  8
1
  6
CONTINUOUS
370
50
 62
4
100
AcDbLine
 10
49.556938
 20
-0.5625669999999999
 30
0.0
 11
49.59016399999999
 21
-0.5584009999999999
 31
0.0
  0
LINE
  5
63A
330
1F
100
AcDbEntity
  8
1
  6
CONTINUOUS
370
50
 62
4
100
AcDbLine
 10
46.149323
 20
-0.488961
 30
0.0
 11
46.150799
 21
-0.48877
 31
0.0
  0
LINE
  5
63B
330
1F
100
AcDbEntity
  8
1
  6
CONTINUOUS
370
50
 62
4
100
AcDbLine
 10
46.637806
 20
0.604242
 30
0.0
 11
46.68998
 21
0.611076
 31
0.0
  0
LINE
  5
63C
330
1F
100
AcDbEntity
  8
1
  6
CONTINUOUS
370
50
 62
4
100
AcDbLine
 10
48.463726
 20
-0.363295
 30
0.0
 11
48.489975
 21
-0.359822
 31
0.0
  0
LINE
  5
63D
330
1F
100
AcDbEntity
  8
1
  6
CONTINUOUS
370
50
 62
4
100
AcDbLine
 10
46.74892
 20
0.6351709999999999
 30
0.0
 11
46.758743
 21
0.636475
 31
0.0
  0
LINE
  5
63E
330
1F
100
AcDbEntity
  8
1
  6
CONTINUOUS
370
50
 62
4
100
AcDbLine
 10
46.892097
 20
-0.6391709999999999
 30
0.0
 11
46.934772
 21
-0.633362
 31
0.0
  0
LINE
  5
63F
330
1F
100
AcDbEntity
  8
1
  6
CONTINUOUS
370
50
 62
4
100
AcDbLine
 10
46.147713
 20
-0.489183
 30
0.0
 11
46.149323
 21
-0.488961
 31
0.0
  0
LINE
  5
640
330
1F
100
AcDbEntity
  8
1
  6
CONTINUOUS
370
50
 62
4
100
AcDbLine
 10
46.758743
 20
0.636475
 30
0.0
 11
46.767784
 21
0.637767
 31
0.0
  0
LINE
  5
641
330
1F
100
AcDbEntity
  8
1
  6
CONTINUOUS
370
50
 62
4
100
AcDbLine
 10
48.379036
 20
-0.37556
 30
0.0
 11
48.463726
 21
-0.363295
 31
0.0
  0
LINE
  5
642
330
1F
100
AcDbEntity
  8
1
  6
CONTINUOUS
370
50
 62
4
100
AcDbLine
 10
49.419945
 20
0.555395
 30
0.0
 11
49.454659
 21
0.56062
 31
0.0
  0
LINE
  5
643
330
1F
100
AcDbEntity
  8
1
  6
CONTINUOUS
370
50
 62
4
100
AcDbLine
 10
46.767784
 20
0.637767
 30
0.0
 11
46.77602
 21
0.6390319999999999
 31
0.0
  0
LINE
  5
644
330
1F
100
AcDbEntity
  8
1
  6
CONTINUOUS
370
50
 62
4
100
AcDbLine
 10
45.975311
 20
-0.549581
 30
0.0
 11
45.980564
 21
-0.5487679999999999
 31
0.0
  0
LINE
  5
645
330
1F
100
AcDbEntity
  8
1
  6
CONTINUOUS
370
50
 62
4
100
AcDbLine
 10
48.343964
 20
-0.381001
 30
0.0
 11
48.379036
 21
-0.37556
 31
0.0
  0
LINE
  5
646
330
1F
100
AcDbEntity
  8
1
  6
CONTINUOUS
370
50
 62
4
100
AcDbLine
 10
49.596085
 20
0.497301
 30
0.0
 11
49.717052
 21
0.516197
 31
0.0
  0
LINE
  5
647
330
1F
100
AcDbEntity
  8
1
  6
CONTINUOUS
370
50
 62
4
100
AcDbLine
 10
48.314941
 20
-0.385576
 30
0.0
 11
48.343964
 21
-0.381001
 31
0.0
  0
LINE
  5
648
330
1F
100
AcDbEntity
  8
1
  6
CONTINUOUS
370
50
 62
4
100
AcDbLine
 10
48.231571
 20
-0.398884
 30
0.0
 11
48.314941
 21
-0.385576
 31
0.0
  0
LINE
  5
649
330
1F
100
AcDbEntity
  8
1
  6
CONTINUOUS
370
50
 62
4
100
AcDbLine
 10
48.194298
 20
-0.404901
 30
0.0
 11
48.231571
 21
-0.398884
 31
0.0
  0
LINE
  5
64A
330
1F
100
AcDbEntity
  8
1
  6
CONTINUOUS
370
50
 62
4
100
AcDbLine
 10
48.154018
 20
-0.411438
 30
0.0
 11
48.194298
 21
-0.404901
 31
0.0
  0
LINE
  5
64B
330
1F
100
AcDbEntity
  8
1
  6
CONTINUOUS
370
50
 62
4
100
AcDbLine
 10
48.071442
 20
-0.424886
 30
0.0
 11
48.154018
 21
-0.411438
 31
0.0
  0
LINE
  5
64C
330
1F
100
AcDbEntity
  8
1
  6
CONTINUOUS
370
50
 62
4
100
AcDbLine
 10
48.038624
 20
-0.430242
 30
0.0
 11
48.071442
 21
-0.424886
 31
0.0
  0
LINE
  5
64D
330
1F
100
AcDbEntity
  8
1
  6
CONTINUOUS
370
50
 62
4
100
AcDbLine
 10
48.009983
 20
-0.434921
 30
0.0
 11
48.038624
 21
-0.430242
 31
0.0
  0
LINE
  5
64E
330
1F
100
AcDbEntity
  8
1
  6
CONTINUOUS
370
50
 62
4
100
AcDbLine
 10
47.968884
 20
-0.441643
 30
0.0
 11
48.009983
 21
-0.434921
 31
0.0
  0
LINE
  5
64F
330
1F
100
AcDbEntity
  8
1
  6
CONTINUOUS
370
50
 62
4
100
AcDbLine
 10
47.929485
 20
-0.448099
 30
0.0
 11
47.968884
 21
-0.441643
 31
0.0
  0
LINE
  5
650
330
1F
100
AcDbEntity
  8
1
  6
CONTINUOUS
370
50
 62
4
100
AcDbLine
 10
46.587521
 20
0.595996
 30
0.0
 11
46.637806
 21
0.604242
 31
0.0
  0
LINE
  5
651
330
1F
100
AcDbEntity
  8
1
  6
CONTINUOUS
370
50
 62
4
100
AcDbLine
 10
47.889904
 20
-0.4546
 30
0.0
 11
47.929485
 21
-0.448099
 31
0.0
  0
LINE
  5
652
330
1F
100
AcDbEntity
  8
1
  6
CONTINUOUS
370
50
 62
4
100
AcDbLine
 10
47.826073
 20
-0.465133
 30
0.0
 11
47.889904
 21
-0.4546
 31
0.0
  0
LINE
  5
653
330
1F
100
AcDbEntity
  8
1
  6
CONTINUOUS
370
50
 62
4
100
AcDbLine
 10
46.77602
 20
0.6390319999999999
 30
0.0
 11
46.783394
 21
0.6402519999999999
 31
0.0
  0
LINE
  5
654
330
1F
100
AcDbEntity
  8
1
  6
CONTINUOUS
370
50
 62
4
100
AcDbLine
 10
46.934772
 20
-0.633362
 30
0.0
 11
46.976437
 21
-0.62645
 31
0.0
  0
LINE
  5
655
330
1F
100
AcDbEntity
  8
1
  6
CONTINUOUS
370
50
 62
4
100
AcDbLine
 10
47.735481
 20
-0.480244
 30
0.0
 11
47.826073
 21
-0.465133
 31
0.0
  0
LINE
  5
656
330
1F
100
AcDbEntity
  8
1
  6
CONTINUOUS
370
50
 62
4
100
AcDbLine
 10
47.71435899999999
 20
-0.483797
 30
0.0
 11
47.735481
 21
-0.480244
 31
0.0
  0
LINE
  5
657
330
1F
100
AcDbEntity
  8
1
  6
CONTINUOUS
370
50
 62
4
100
AcDbLine
 10
47.659599
 20
-0.493116
 30
0.0
 11
47.71435899999999
 21
-0.483797
 31
0.0
  0
LINE
  5
658
330
1F
100
AcDbEntity
  8
1
  6
CONTINUOUS
370
50
 62
4
100
AcDbLine
 10
47.57943
 20
-0.507018
 30
0.0
 11
47.659599
 21
-0.493116
 31
0.0
  0
LINE
  5
659
330
1F
100
AcDbEntity
  8
1
  6
CONTINUOUS
370
50
 62
4
100
AcDbLine
 10
47.543777
 20
-0.51332
 30
0.0
 11
47.57943
 21
-0.507018
 31
0.0
  0
LINE
  5
65A
330
1F
100
AcDbEntity
  8
1
  6
CONTINUOUS
370
50
 62
4
100
AcDbLine
 10
46.783394
 20
0.6402519999999999
 30
0.0
 11
46.78986
 21
0.6414139999999999
 31
0.0
  0
LINE
  5
65B
330
1F
100
AcDbEntity
  8
1
  6
CONTINUOUS
370
50
 62
4
100
AcDbLine
 10
47.487598
 20
-0.523438
 30
0.0
 11
47.543777
 21
-0.51332
 31
0.0
  0
LINE
  5
65C
330
1F
100
AcDbEntity
  8
1
  6
CONTINUOUS
370
50
 62
4
100
AcDbLine
 10
47.423096
 20
-0.5353519999999999
 30
0.0
 11
47.487598
 21
-0.523438
 31
0.0
  0
LINE
  5
65D
330
1F
100
AcDbEntity
  8
1
  6
CONTINUOUS
370
50
 62
4
100
AcDbLine
 10
47.374783
 20
-0.544509
 30
0.0
 11
47.423096
 21
-0.5353519999999999
 31
0.0
  0
LINE
  5
65E
330
1F
100
AcDbEntity
  8
1
  6
CONTINUOUS
370
50
 62
4
100
AcDbLine
 10
46.976437
 20
-0.62645
 30
0.0
 11
47.018017
 21
-0.6184879999999999
 31
0.0
  0
LINE
  5
65F
330
1F
100
AcDbEntity
  8
1
  6
CONTINUOUS
370
50
 62
4
100
AcDbLine
 10
47.320744
 20
-0.555006
 30
0.0
 11
47.374783
 21
-0.544509
 31
0.0
  0
LINE
  5
660
330
1F
100
AcDbEntity
  8
1
  6
CONTINUOUS
370
50
 62
4
100
AcDbLine
 10
49.475117
 20
0.473714
 30
0.0
 11
49.596085
 21
0.497301
 31
0.0
  0
LINE
  5
661
330
1F
100
AcDbEntity
  8
1
  6
CONTINUOUS
370
50
 62
4
100
AcDbLine
 10
45.970196
 20
-0.550586
 30
0.0
 11
45.975311
 21
-0.549581
 31
0.0
  0
LINE
  5
662
330
1F
100
AcDbEntity
  8
1
  6
CONTINUOUS
370
50
 62
4
100
AcDbLine
 10
46.78986
 20
0.6414139999999999
 30
0.0
 11
46.795399
 21
0.64251
 31
0.0
  0
LINE
  5
663
330
1F
100
AcDbEntity
  8
1
  6
CONTINUOUS
370
50
 62
4
100
AcDbLine
 10
47.266102
 20
-0.565905
 30
0.0
 11
47.320744
 21
-0.555006
 31
0.0
  0
LINE
  5
664
330
1F
100
AcDbEntity
  8
1
  6
CONTINUOUS
370
50
 62
4
100
AcDbLine
 10
49.484795
 20
-0.412463
 30
0.0
 11
49.507275
 21
-0.407962
 31
0.0
  0
LINE
  5
665
330
1F
100
AcDbEntity
  8
1
  6
CONTINUOUS
370
50
 62
4
100
AcDbLine
 10
46.53912
 20
0.586198
 30
0.0
 11
46.587521
 21
0.595996
 31
0.0
  0
LINE
  5
666
330
1F
100
AcDbEntity
  8
1
  6
CONTINUOUS
370
50
 62
4
100
AcDbLine
 10
49.59016399999999
 20
-0.5584009999999999
 30
0.0
 11
49.622871
 21
-0.551721
 31
0.0
  0
LINE
  5
667
330
1F
100
AcDbEntity
  8
1
  6
CONTINUOUS
370
50
 62
4
100
AcDbLine
 10
47.21232999999999
 20
-0.5769179999999999
 30
0.0
 11
47.266102
 21
-0.565905
 31
0.0
  0
LINE
  5
668
330
1F
100
AcDbEntity
  8
1
  6
CONTINUOUS
370
50
 62
4
100
AcDbLine
 10
47.160191
 20
-0.587867
 30
0.0
 11
47.21232999999999
 21
-0.5769179999999999
 31
0.0
  0
LINE
  5
669
330
1F
100
AcDbEntity
  8
1
  6
CONTINUOUS
370
50
 62
4
100
AcDbLine
 10
49.38504
 20
0.548026
 30
0.0
 11
49.419945
 21
0.555395
 31
0.0
  0
LINE
  5
66A
330
1F
100
AcDbEntity
  8
1
  6
CONTINUOUS
370
50
 62
4
100
AcDbLine
 10
47.018017
 20
-0.6184879999999999
 30
0.0
 11
47.060287
 21
-0.6095419999999999
 31
0.0
  0
LINE
  5
66B
330
1F
100
AcDbEntity
  8
1
  6
CONTINUOUS
370
50
 62
4
100
AcDbLine
 10
47.108635
 20
-0.5989439999999999
 30
0.0
 11
47.160191
 21
-0.587867
 31
0.0
  0
LINE
  5
66C
330
1F
100
AcDbEntity
  8
1
  6
CONTINUOUS
370
50
 62
4
100
AcDbLine
 10
47.06030699999999
 20
-0.609536
 30
0.0
 11
47.108635
 21
-0.5989439999999999
 31
0.0
  0
LINE
  5
66D
330
1F
100
AcDbEntity
  8
1
  6
CONTINUOUS
370
50
 62
4
100
AcDbLine
 10
46.795399
 20
0.64251
 30
0.0
 11
46.799999
 21
0.643533
 31
0.0
  0
LINE
  5
66E
330
1F
100
AcDbEntity
  8
1
  6
CONTINUOUS
370
50
 62
4
100
AcDbLine
 10
49.354149
 20
0.446301
 30
0.0
 11
49.475117
 21
0.473714
 31
0.0
  0
LINE
  5
66F
330
1F
100
AcDbEntity
  8
1
  6
CONTINUOUS
370
50
 62
4
100
AcDbLine
 10
49.89931499999999
 20
0.167449
 30
0.0
 11
49.902691
 21
0.168215
 31
0.0
  0
LINE
  5
670
330
1F
100
AcDbEntity
  8
1
  6
CONTINUOUS
370
50
 62
4
100
AcDbLine
 10
49.895943
 20
0.166682
 30
0.0
 11
49.89931499999999
 21
0.167449
 31
0.0
  0
LINE
  5
671
330
1F
100
AcDbEntity
  8
1
  6
CONTINUOUS
370
50
 62
4
100
AcDbLine
 10
49.892567
 20
0.165913
 30
0.0
 11
49.895943
 21
0.166682
 31
0.0
  0
LINE
  5
672
330
1F
100
AcDbEntity
  8
1
  6
CONTINUOUS
370
50
 62
4
100
AcDbLine
 10
49.889194
 20
0.165143
 30
0.0
 11
49.892567
 21
0.165913
 31
0.0
  0
LINE
  5
673
330
1F
100
AcDbEntity
  8
1
  6
CONTINUOUS
370
50
 62
4
100
AcDbLine
 10
49.885818
 20
0.164372
 30
0.0
 11
49.889194
 21
0.165143
 31
0.0
  0
LINE
  5
674
330
1F
100
AcDbEntity
  8
1
  6
CONTINUOUS
370
50
 62
4
100
AcDbLine
 10
49.88244599999999
 20
0.163599
 30
0.0
 11
49.885818
 21
0.164372
 31
0.0
  0
LINE
  5
675
330
1F
100
AcDbEntity
  8
1
  6
CONTINUOUS
370
50
 62
4
100
AcDbLine
 10
49.879078
 20
0.162825
 30
0.0
 11
49.88244599999999
 21
0.163599
 31
0.0
  0
LINE
  5
676
330
1F
100
AcDbEntity
  8
1
  6
CONTINUOUS
370
50
 62
4
100
AcDbLine
 10
45.980564
 20
-0.5487679999999999
 30
0.0
 11
46.013577
 21
-0.541126
 31
0.0
  0
LINE
  5
677
330
1F
100
AcDbEntity
  8
1
  6
CONTINUOUS
370
50
 62
4
100
AcDbLine
 10
45.965233
 20
-0.5517799999999999
 30
0.0
 11
45.970196
 21
-0.550586
 31
0.0
  0
LINE
  5
678
330
1F
100
AcDbEntity
  8
1
  6
CONTINUOUS
370
50
 62
4
100
AcDbLine
 10
46.492596
 20
0.5747099999999999
 30
0.0
 11
46.53912
 21
0.586198
 31
0.0
  0
LINE
  5
679
330
1F
100
AcDbEntity
  8
1
  6
CONTINUOUS
370
50
 62
4
100
AcDbLine
 10
49.233177
 20
0.415186
 30
0.0
 11
49.354149
 21
0.446301
 31
0.0
  0
LINE
  5
67A
330
1F
100
AcDbEntity
  8
1
  6
CONTINUOUS
370
50
 62
4
100
AcDbLine
 10
49.349998
 20
0.538607
 30
0.0
 11
49.38504
 21
0.548026
 31
0.0
  0
LINE
  5
67B
330
1F
100
AcDbEntity
  8
1
  6
CONTINUOUS
370
50
 62
4
100
AcDbLine
 10
40.900002
 20
-1.99995
 30
0.0
 11
45.900002
 21
-0.6499499999999999
 31
0.0
  0
LINE
  5
67C
330
1F
100
AcDbEntity
  8
1
  6
CONTINUOUS
370
50
 62
4
100
AcDbLine
 10
46.013577
 20
-0.541126
 30
0.0
 11
46.045547
 21
-0.532054
 31
0.0
  0
LINE
  5
67D
330
1F
100
AcDbEntity
  8
1
  6
CONTINUOUS
370
50
 62
4
100
AcDbLine
 10
49.622871
 20
-0.551721
 30
0.0
 11
49.655003
 21
-0.5424749999999999
 31
0.0
  0
LINE
  5
67E
330
1F
100
AcDbEntity
  8
1
  6
CONTINUOUS
370
50
 62
4
100
AcDbLine
 10
49.112202
 20
0.380367
 30
0.0
 11
49.233177
 21
0.415186
 31
0.0
  0
LINE
  5
67F
330
1F
100
AcDbEntity
  8
1
  6
CONTINUOUS
370
50
 62
4
100
AcDbLine
 10
45.960453
 20
-0.5531619999999999
 30
0.0
 11
45.965233
 21
-0.5517799999999999
 31
0.0
  0
LINE
  5
680
330
1F
100
AcDbEntity
  8
1
  6
CONTINUOUS
370
50
 62
4
100
AcDbLine
 10
49.507275
 20
-0.407962
 30
0.0
 11
49.529339
 21
-0.401518
 31
0.0
  0
LINE
  5
681
330
1F
100
AcDbEntity
  8
1
  6
CONTINUOUS
370
50
 62
4
100
AcDbLine
 10
46.447948
 20
0.561391
 30
0.0
 11
46.492596
 21
0.5747099999999999
 31
0.0
  0
LINE
  5
682
330
1F
100
AcDbEntity
  8
1
  6
CONTINUOUS
370
50
 62
4
100
AcDbLine
 10
49.26461
 20
0.5122
 30
0.0
 11
49.349998
 21
0.538607
 31
0.0
  0
LINE
  5
683
330
1F
100
AcDbEntity
  8
1
  6
CONTINUOUS
370
50
 62
4
100
AcDbLine
 10
48.991222
 20
0.341691
 30
0.0
 11
49.112202
 21
0.380367
 31
0.0
  0
LINE
  5
684
330
1F
100
AcDbEntity
  8
1
  6
CONTINUOUS
370
50
 62
4
100
AcDbLine
 10
49.17847099999999
 20
0.483377
 30
0.0
 11
49.26461
 21
0.5122
 31
0.0
  0
LINE
  5
685
330
1F
100
AcDbEntity
  8
1
  6
CONTINUOUS
370
50
 62
4
100
AcDbLine
 10
46.433681
 20
0.5565559999999999
 30
0.0
 11
46.447948
 21
0.561391
 31
0.0
  0
LINE
  5
686
330
1F
100
AcDbEntity
  8
1
  6
CONTINUOUS
370
50
 62
4
100
AcDbLine
 10
46.045547
 20
-0.532054
 30
0.0
 11
46.076443
 21
-0.5215179999999999
 31
0.0
  0
LINE
  5
687
330
1F
100
AcDbEntity
  8
1
  6
CONTINUOUS
370
50
 62
4
100
AcDbLine
 10
45.955872
 20
-0.554725
 30
0.0
 11
45.960453
 21
-0.5531619999999999
 31
0.0
  0
LINE
  5
688
330
1F
100
AcDbEntity
  8
1
  6
CONTINUOUS
370
50
 62
4
100
AcDbLine
 10
49.092201
 20
0.452233
 30
0.0
 11
49.17847099999999
 21
0.483377
 31
0.0
  0
LINE
  5
689
330
1F
100
AcDbEntity
  8
1
  6
CONTINUOUS
370
50
 62
4
100
AcDbLine
 10
46.419601
 20
0.551424
 30
0.0
 11
46.433681
 21
0.5565559999999999
 31
0.0
  0
LINE
  5
68A
330
1F
100
AcDbEntity
  8
1
  6
CONTINUOUS
370
50
 62
4
100
AcDbLine
 10
49.655003
 20
-0.5424749999999999
 30
0.0
 11
49.686417
 21
-0.530642
 31
0.0
  0
LINE
  5
68B
330
1F
100
AcDbEntity
  8
1
  6
CONTINUOUS
370
50
 62
4
100
AcDbLine
 10
49.529339
 20
-0.401518
 30
0.0
 11
49.550953
 21
-0.393231
 31
0.0
  0
LINE
  5
68C
330
1F
100
AcDbEntity
  8
1
  6
CONTINUOUS
370
50
 62
4
100
AcDbLine
 10
49.006432
 20
0.418862
 30
0.0
 11
49.092201
 21
0.452233
 31
0.0
  0
LINE
  5
68D
330
1F
100
AcDbEntity
  8
1
  6
CONTINUOUS
370
50
 62
4
100
AcDbLine
 10
46.405731
 20
0.545983
 30
0.0
 11
46.419601
 21
0.551424
 31
0.0
  0
LINE
  5
68E
330
1F
100
AcDbEntity
  8
1
  6
CONTINUOUS
370
50
 62
4
100
AcDbLine
 10
45.951557
 20
-0.5564479999999999
 30
0.0
 11
45.955872
 21
-0.554725
 31
0.0
  0
LINE
  5
68F
330
1F
100
AcDbEntity
  8
1
  6
CONTINUOUS
370
50
 62
4
100
AcDbLine
 10
46.076443
 20
-0.5215179999999999
 30
0.0
 11
46.10622
 21
-0.509485
 31
0.0
  0
LINE
  5
690
330
1F
100
AcDbEntity
  8
1
  6
CONTINUOUS
370
50
 62
4
100
AcDbLine
 10
48.9216
 20
0.383273
 30
0.0
 11
49.006432
 21
0.418862
 31
0.0
  0
LINE
  5
691
330
1F
100
AcDbEntity
  8
1
  6
CONTINUOUS
370
50
 62
4
100
AcDbLine
 10
46.392097
 20
0.540225
 30
0.0
 11
46.405731
 21
0.545983
 31
0.0
  0
LINE
  5
692
330
1F
100
AcDbEntity
  8
1
  6
CONTINUOUS
370
50
 62
4
100
AcDbLine
 10
48.837181
 20
0.345028
 30
0.0
 11
48.9216
 21
0.383273
 31
0.0
  0
LINE
  5
693
330
1F
100
AcDbEntity
  8
1
  6
CONTINUOUS
370
50
 62
4
100
AcDbLine
 10
46.37873099999999
 20
0.53414
 30
0.0
 11
46.392097
 21
0.540225
 31
0.0
  0
LINE
  5
694
330
1F
100
AcDbEntity
  8
1
  6
CONTINUOUS
370
50
 62
4
100
AcDbLine
 10
45.94752099999999
 20
-0.558321
 30
0.0
 11
45.951557
 21
-0.5564479999999999
 31
0.0
  0
LINE
  5
695
330
1F
100
AcDbEntity
  8
1
  6
CONTINUOUS
370
50
 62
4
100
AcDbLine
 10
49.686417
 20
-0.530642
 30
0.0
 11
49.717052
 21
-0.516197
 31
0.0
  0
LINE
  5
696
330
1F
100
AcDbEntity
  8
1
  6
CONTINUOUS
370
50
 62
4
100
AcDbLine
 10
46.10622
 20
-0.509485
 30
0.0
 11
46.134834
 21
-0.495918
 31
0.0
  0
LINE
  5
697
330
1F
100
AcDbEntity
  8
1
  6
CONTINUOUS
370
50
 62
4
100
AcDbLine
 10
49.550953
 20
-0.393231
 30
0.0
 11
49.571953
 21
-0.383272
 31
0.0
  0
LINE
  5
698
330
1F
100
AcDbEntity
  8
1
  6
CONTINUOUS
370
50
 62
4
100
AcDbLine
 10
46.36565
 20
0.527718
 30
0.0
 11
46.37873099999999
 21
0.53414
 31
0.0
  0
LINE
  5
699
330
1F
100
AcDbEntity
  8
1
  6
CONTINUOUS
370
50
 62
4
100
AcDbLine
 10
46.352882
 20
0.520949
 30
0.0
 11
46.36565
 21
0.527718
 31
0.0
  0
LINE
  5
69A
330
1F
100
AcDbEntity
  8
1
  6
CONTINUOUS
370
50
 62
4
100
AcDbLine
 10
45.943775
 20
-0.5603319999999999
 30
0.0
 11
45.94752099999999
 21
-0.558321
 31
0.0
  0
LINE
  5
69B
330
1F
100
AcDbEntity
  8
1
  6
CONTINUOUS
370
50
 62
4
100
AcDbLine
 10
49.717052
 20
-0.516197
 30
0.0
 11
49.737103
 21
-0.505141
 31
0.0
  0
LINE
  5
69C
330
1F
100
AcDbEntity
  8
1
  6
CONTINUOUS
370
50
 62
4
100
AcDbLine
 10
46.134834
 20
-0.495918
 30
0.0
 11
46.162251
 21
-0.480782
 31
0.0
  0
LINE
  5
69D
330
1F
100
AcDbEntity
  8
1
  6
CONTINUOUS
370
50
 62
4
100
AcDbLine
 10
49.571953
 20
-0.383272
 30
0.0
 11
49.592205
 21
-0.37183
 31
0.0
  0
LINE
  5
69E
330
1F
100
AcDbEntity
  8
1
  6
CONTINUOUS
370
50
 62
4
100
AcDbLine
 10
46.340454
 20
0.513823
 30
0.0
 11
46.352882
 21
0.520949
 31
0.0
  0
LINE
  5
69F
330
1F
100
AcDbEntity
  8
1
  6
CONTINUOUS
370
50
 62
4
100
AcDbLine
 10
49.737103
 20
-0.505141
 30
0.0
 11
49.756256
 21
-0.493396
 31
0.0
  0
LINE
  5
6A0
330
1F
100
AcDbEntity
  8
1
  6
CONTINUOUS
370
50
 62
4
100
AcDbLine
 10
46.328392
 20
0.506331
 30
0.0
 11
46.340454
 21
0.513823
 31
0.0
  0
LINE
  5
6A1
330
1F
100
AcDbEntity
  8
1
  6
CONTINUOUS
370
50
 62
4
100
AcDbLine
 10
45.940338
 20
-0.562472
 30
0.0
 11
45.943775
 21
-0.5603319999999999
 31
0.0
  0
LINE
  5
6A2
330
1F
100
AcDbEntity
  8
1
  6
CONTINUOUS
370
50
 62
4
100
AcDbLine
 10
46.162251
 20
-0.480782
 30
0.0
 11
46.188492
 21
-0.463994
 31
0.0
  0
LINE
  5
6A3
330
1F
100
AcDbEntity
  8
1
  6
CONTINUOUS
370
50
 62
4
100
AcDbLine
 10
49.903217
 20
0.285355
 30
0.0
 11
49.90770699999999
 21
0.288266
 31
0.0
  0
LINE
  5
6A4
330
1F
100
AcDbEntity
  8
1
  6
CONTINUOUS
370
50
 62
4
100
AcDbLine
 10
49.592205
 20
-0.37183
 30
0.0
 11
49.611694
 21
-0.359058
 31
0.0
  0
LINE
  5
6A5
330
1F
100
AcDbEntity
  8
1
  6
CONTINUOUS
370
50
 62
4
100
AcDbLine
 10
46.316719
 20
0.498464
 30
0.0
 11
46.328392
 21
0.506331
 31
0.0
  0
LINE
  5
6A6
330
1F
100
AcDbEntity
  8
1
  6
CONTINUOUS
370
50
 62
4
100
AcDbLine
 10
49.756256
 20
-0.493396
 30
0.0
 11
49.774487
 21
-0.481043
 31
0.0
  0
LINE
  5
6A7
330
1F
100
AcDbEntity
  8
1
  6
CONTINUOUS
370
50
 62
4
100
AcDbLine
 10
45.937248
 20
-0.564709
 30
0.0
 11
45.940338
 21
-0.562472
 31
0.0
  0
LINE
  5
6A8
330
1F
100
AcDbEntity
  8
1
  6
CONTINUOUS
370
50
 62
4
100
AcDbLine
 10
46.188492
 20
-0.463994
 30
0.0
 11
46.210636
 21
-0.447758
 31
0.0
  0
LINE
  5
6A9
330
1F
100
AcDbEntity
  8
1
  6
CONTINUOUS
370
50
 62
4
100
AcDbLine
 10
46.305595
 20
0.490307
 30
0.0
 11
46.316719
 21
0.498464
 31
0.0
  0
LINE
  5
6AA
330
1F
100
AcDbEntity
  8
1
  6
CONTINUOUS
370
50
 62
4
100
AcDbLine
 10
49.774487
 20
-0.481043
 30
0.0
 11
49.791771
 21
-0.468165
 31
0.0
  0
LINE
  5
6AB
330
1F
100
AcDbEntity
  8
1
  6
CONTINUOUS
370
50
 62
4
100
AcDbLine
 10
49.611694
 20
-0.359058
 30
0.0
 11
49.63038599999999
 21
-0.345108
 31
0.0
  0
LINE
  5
6AC
330
1F
100
AcDbEntity
  8
1
  6
CONTINUOUS
370
50
 62
4
100
AcDbLine
 10
46.295105
 20
0.481926
 30
0.0
 11
46.305595
 21
0.490307
 31
0.0
  0
LINE
  5
6AD
330
1F
100
AcDbEntity
  8
1
  6
CONTINUOUS
370
50
 62
4
100
AcDbLine
 10
49.791771
 20
-0.468165
 30
0.0
 11
49.808079
 21
-0.454847
 31
0.0
  0
LINE
  5
6AE
330
1F
100
AcDbEntity
  8
1
  6
CONTINUOUS
370
50
 62
4
100
AcDbLine
 10
46.210636
 20
-0.447758
 30
0.0
 11
46.231709
 21
-0.430203
 31
0.0
  0
LINE
  5
6AF
330
1F
100
AcDbEntity
  8
1
  6
CONTINUOUS
370
50
 62
4
100
AcDbLine
 10
49.63038599999999
 20
-0.345108
 30
0.0
 11
49.648369
 21
-0.330039
 31
0.0
  0
LINE
  5
6B0
330
1F
100
AcDbEntity
  8
1
  6
CONTINUOUS
370
50
 62
4
100
AcDbLine
 10
45.934605
 20
-0.566943
 30
0.0
 11
45.937248
 21
-0.564709
 31
0.0
  0
LINE
  5
6B1
330
1F
100
AcDbEntity
  8
1
  6
CONTINUOUS
370
50
 62
4
100
AcDbLine
 10
46.285263
 20
0.473335
 30
0.0
 11
46.295105
 21
0.481926
 31
0.0
  0
LINE
  5
6B2
330
1F
100
AcDbEntity
  8
1
  6
CONTINUOUS
370
50
 62
4
100
AcDbLine
 10
49.808079
 20
-0.454847
 30
0.0
 11
49.823383
 21
-0.441169
 31
0.0
  0
LINE
  5
6B3
330
1F
100
AcDbEntity
  8
1
  6
CONTINUOUS
370
50
 62
4
100
AcDbLine
 10
49.648369
 20
-0.330039
 30
0.0
 11
49.66586299999999
 21
-0.313736
 31
0.0
  0
LINE
  5
6B4
330
1F
100
AcDbEntity
  8
1
  6
CONTINUOUS
370
50
 62
4
100
AcDbLine
 10
46.231709
 20
-0.430203
 30
0.0
 11
46.251614
 21
-0.411326
 31
0.0
  0
LINE
  5
6B5
330
1F
100
AcDbEntity
  8
1
  6
CONTINUOUS
370
50
 62
4
100
AcDbLine
 10
46.276047
 20
0.46453
 30
0.0
 11
46.285263
 21
0.473335
 31
0.0
  0
LINE
  5
6B6
330
1F
100
AcDbEntity
  8
1
  6
CONTINUOUS
370
50
 62
4
100
AcDbLine
 10
49.823383
 20
-0.441169
 30
0.0
 11
49.83766199999999
 21
-0.427216
 31
0.0
  0
LINE
  5
6B7
330
1F
100
AcDbEntity
  8
1
  6
CONTINUOUS
370
50
 62
4
100
AcDbLine
 10
45.932297
 20
-0.5692349999999999
 30
0.0
 11
45.934605
 21
-0.566943
 31
0.0
  0
LINE
  5
6B8
330
1F
100
AcDbEntity
  8
1
  6
CONTINUOUS
370
50
 62
4
100
AcDbLine
 10
49.66586299999999
 20
-0.313736
 30
0.0
 11
49.682858
 21
-0.296238
 31
0.0
  0
LINE
  5
6B9
330
1F
100
AcDbEntity
  8
1
  6
CONTINUOUS
370
50
 62
4
100
AcDbLine
 10
46.26749
 20
0.455534
 30
0.0
 11
46.276047
 21
0.46453
 31
0.0
  0
LINE
  5
6BA
330
1F
100
AcDbEntity
  8
1
  6
CONTINUOUS
370
50
 62
4
100
AcDbLine
 10
49.83766199999999
 20
-0.427216
 30
0.0
 11
49.850883
 21
-0.413071
 31
0.0
  0
LINE
  5
6BB
330
1F
100
AcDbEntity
  8
1
  6
CONTINUOUS
370
50
 62
4
100
AcDbLine
 10
46.251614
 20
-0.411326
 30
0.0
 11
46.270271
 21
-0.391124
 31
0.0
  0
LINE
  5
6BC
330
1F
100
AcDbEntity
  8
1
  6
CONTINUOUS
370
50
 62
4
100
AcDbLine
 10
49.682858
 20
-0.296238
 30
0.0
 11
49.699341
 21
-0.27759
 31
0.0
  0
LINE
  5
6BD
330
1F
100
AcDbEntity
  8
1
  6
CONTINUOUS
370
50
 62
4
100
AcDbLine
 10
46.259579
 20
0.446355
 30
0.0
 11
46.26749
 21
0.455534
 31
0.0
  0
LINE
  5
6BE
330
1F
100
AcDbEntity
  8
1
  6
CONTINUOUS
370
50
 62
4
100
AcDbLine
 10
49.850883
 20
-0.413071
 30
0.0
 11
49.862961
 21
-0.398905
 31
0.0
  0
LINE
  5
6BF
330
1F
100
AcDbEntity
  8
1
  6
CONTINUOUS
370
50
 62
4
100
AcDbLine
 10
45.930321
 20
-0.571572
 30
0.0
 11
45.932297
 21
-0.5692349999999999
 31
0.0
  0
LINE
  5
6C0
330
1F
100
AcDbEntity
  8
1
  6
CONTINUOUS
370
50
 62
4
100
AcDbLine
 10
49.699341
 20
-0.27759
 30
0.0
 11
49.71529
 21
-0.257836
 31
0.0
  0
LINE
  5
6C1
330
1F
100
AcDbEntity
  8
1
  6
CONTINUOUS
370
50
 62
4
100
AcDbLine
 10
46.270271
 20
-0.391124
 30
0.0
 11
46.287586
 21
-0.369593
 31
0.0
  0
LINE
  5
6C2
330
1F
100
AcDbEntity
  8
1
  6
CONTINUOUS
370
50
 62
4
100
AcDbLine
 10
46.252327
 20
0.437
 30
0.0
 11
46.259579
 21
0.446355
 31
0.0
  0
LINE
  5
6C3
330
1F
100
AcDbEntity
  8
1
  6
CONTINUOUS
370
50
 62
4
100
AcDbLine
 10
49.862961
 20
-0.398905
 30
0.0
 11
49.873692
 21
-0.385054
 31
0.0
  0
LINE
  5
6C4
330
1F
100
AcDbEntity
  8
1
  6
CONTINUOUS
370
50
 62
4
100
AcDbLine
 10
49.71529
 20
-0.257836
 30
0.0
 11
49.73069
 21
-0.23702
 31
0.0
  0
LINE
  5
6C5
330
1F
100
AcDbEntity
  8
1
  6
CONTINUOUS
370
50
 62
4
100
AcDbLine
 10
46.287586
 20
-0.369593
 30
0.0
 11
46.303459
 21
-0.346742
 31
0.0
  0
LINE
  5
6C6
330
1F
100
AcDbEntity
  8
1
  6
CONTINUOUS
370
50
 62
4
100
AcDbLine
 10
46.245731
 20
0.427482
 30
0.0
 11
46.252327
 21
0.437
 31
0.0
  0
LINE
  5
6C7
330
1F
100
AcDbEntity
  8
1
  6
CONTINUOUS
370
50
 62
4
100
AcDbLine
 10
45.92868
 20
-0.573946
 30
0.0
 11
45.930321
 21
-0.571572
 31
0.0
  0
LINE
  5
6C8
330
1F
100
AcDbEntity
  8
1
  6
CONTINUOUS
370
50
 62
4
100
AcDbLine
 10
49.73069
 20
-0.23702
 30
0.0
 11
49.74551
 21
-0.215217
 31
0.0
  0
LINE
  5
6C9
330
1F
100
AcDbEntity
  8
1
  6
CONTINUOUS
370
50
 62
4
100
AcDbLine
 10
49.74551
 20
-0.215217
 30
0.0
 11
49.759621
 21
-0.192665
 31
0.0
  0
LINE
  5
6CA
330
1F
100
AcDbEntity
  8
1
  6
CONTINUOUS
370
50
 62
4
100
AcDbLine
 10
46.23978
 20
0.417782
 30
0.0
 11
46.245731
 21
0.427482
 31
0.0
  0
LINE
  5
6CB
330
1F
100
AcDbEntity
  8
1
  6
CONTINUOUS
370
50
 62
4
100
AcDbLine
 10
49.90770699999999
 20
0.288266
 30
0.0
 11
49.910568
 21
0.292955
 31
0.0
  0
LINE
  5
6CC
330
1F
100
AcDbEntity
  8
1
  6
CONTINUOUS
370
50
 62
4
100
AcDbLine
 10
46.303459
 20
-0.346742
 30
0.0
 11
46.31773399999999
 21
-0.322712
 31
0.0
  0
LINE
  5
6CD
330
1F
100
AcDbEntity
  8
1
  6
CONTINUOUS
370
50
 62
4
100
AcDbLine
 10
49.759621
 20
-0.192665
 30
0.0
 11
49.772999
 21
-0.169459
 31
0.0
  0
LINE
  5
6CE
330
1F
100
AcDbEntity
  8
1
  6
CONTINUOUS
370
50
 62
4
100
AcDbLine
 10
45.927364
 20
-0.576348
 30
0.0
 11
45.92868
 21
-0.573946
 31
0.0
  0
LINE
  5
6CF
330
1F
100
AcDbEntity
  8
1
  6
CONTINUOUS
370
50
 62
4
100
AcDbLine
 10
46.234413
 20
0.407748
 30
0.0
 11
46.23978
 21
0.417782
 31
0.0
  0
LINE
  5
6D0
330
1F
100
AcDbEntity
  8
1
  6
CONTINUOUS
370
50
 62
4
100
AcDbLine
 10
49.772999
 20
-0.169459
 30
0.0
 11
49.785656
 21
-0.145664
 31
0.0
  0
LINE
  5
6D1
330
1F
100
AcDbEntity
  8
1
  6
CONTINUOUS
370
50
 62
4
100
AcDbLine
 10
46.31773399999999
 20
-0.322712
 30
0.0
 11
46.330341
 21
-0.297538
 31
0.0
  0
LINE
  5
6D2
330
1F
100
AcDbEntity
  8
1
  6
CONTINUOUS
370
50
 62
4
100
AcDbLine
 10
49.785656
 20
-0.145664
 30
0.0
 11
49.797588
 21
-0.121344
 31
0.0
  0
LINE
  5
6D3
330
1F
100
AcDbEntity
  8
1
  6
CONTINUOUS
370
50
 62
4
100
AcDbLine
 10
46.229664
 20
0.397369
 30
0.0
 11
46.234413
 21
0.407748
 31
0.0
  0
LINE
  5
6D4
330
1F
100
AcDbEntity
  8
1
  6
CONTINUOUS
370
50
 62
4
100
AcDbLine
 10
49.797588
 20
-0.121344
 30
0.0
 11
49.8088
 21
-0.096562
 31
0.0
  0
LINE
  5
6D5
330
1F
100
AcDbEntity
  8
1
  6
CONTINUOUS
370
50
 62
4
100
AcDbLine
 10
49.8088
 20
-0.096562
 30
0.0
 11
49.819294
 21
-0.071383
 31
0.0
  0
LINE
  5
6D6
330
1F
100
AcDbEntity
  8
1
  6
CONTINUOUS
370
50
 62
4
100
AcDbLine
 10
46.330341
 20
-0.297538
 30
0.0
 11
46.341251
 21
-0.271217
 31
0.0
  0
LINE
  5
6D7
330
1F
100
AcDbEntity
  8
1
  6
CONTINUOUS
370
50
 62
4
100
AcDbLine
 10
45.926369
 20
-0.5787869999999999
 30
0.0
 11
45.927364
 21
-0.576348
 31
0.0
  0
LINE
  5
6D8
330
1F
100
AcDbEntity
  8
1
  6
CONTINUOUS
370
50
 62
4
100
AcDbLine
 10
49.819294
 20
-0.071383
 30
0.0
 11
49.829075
 21
-0.045871
 31
0.0
  0
LINE
  5
6D9
330
1F
100
AcDbEntity
  8
1
  6
CONTINUOUS
370
50
 62
4
100
AcDbLine
 10
46.225597
 20
0.386662
 30
0.0
 11
46.229664
 21
0.397369
 31
0.0
  0
LINE
  5
6DA
330
1F
100
AcDbEntity
  8
1
  6
CONTINUOUS
370
50
 62
4
100
AcDbLine
 10
49.829075
 20
-0.045871
 30
0.0
 11
49.838127
 21
-0.020135
 31
0.0
  0
LINE
  5
6DB
330
1F
100
AcDbEntity
  8
1
  6
CONTINUOUS
370
50
 62
4
100
AcDbLine
 10
46.341251
 20
-0.271217
 30
0.0
 11
46.350437
 21
-0.243748
 31
0.0
  0
LINE
  5
6DC
330
1F
100
AcDbEntity
  8
1
  6
CONTINUOUS
370
50
 62
4
100
AcDbLine
 10
49.838127
 20
-0.020135
 30
0.0
 11
49.846188
 21
0.004876
 31
0.0
  0
LINE
  5
6DD
330
1F
100
AcDbEntity
  8
1
  6
CONTINUOUS
370
50
 62
4
100
AcDbLine
 10
46.222275
 20
0.375646
 30
0.0
 11
46.225597
 21
0.386662
 31
0.0
  0
LINE
  5
6DE
330
1F
100
AcDbEntity
  8
1
  6
CONTINUOUS
370
50
 62
4
100
AcDbLine
 10
49.846188
 20
0.004876
 30
0.0
 11
49.853477
 21
0.02965
 31
0.0
  0
LINE
  5
6DF
330
1F
100
AcDbEntity
  8
1
  6
CONTINUOUS
370
50
 62
4
100
AcDbLine
 10
45.925701
 20
-0.581259
 30
0.0
 11
45.926369
 21
-0.5787869999999999
 31
0.0
  0
LINE
  5
6E0
330
1F
100
AcDbEntity
  8
1
  6
CONTINUOUS
370
50
 62
4
100
AcDbLine
 10
49.853477
 20
0.02965
 30
0.0
 11
49.86001599999999
 21
0.054124
 31
0.0
  0
LINE
  5
6E1
330
1F
100
AcDbEntity
  8
1
  6
CONTINUOUS
370
50
 62
4
100
AcDbLine
 10
46.350437
 20
-0.243748
 30
0.0
 11
46.357861
 21
-0.215126
 31
0.0
  0
LINE
  5
6E2
330
1F
100
AcDbEntity
  8
1
  6
CONTINUOUS
370
50
 62
4
100
AcDbLine
 10
49.86001599999999
 20
0.054124
 30
0.0
 11
49.865826
 21
0.078233
 31
0.0
  0
LINE
  5
6E3
330
1F
100
AcDbEntity
  8
1
  6
CONTINUOUS
370
50
 62
4
100
AcDbLine
 10
46.219757
 20
0.364338
 30
0.0
 11
46.222275
 21
0.375646
 31
0.0
  0
LINE
  5
6E4
330
1F
100
AcDbEntity
  8
1
  6
CONTINUOUS
370
50
 62
4
100
AcDbLine
 10
49.865826
 20
0.078233
 30
0.0
 11
49.870918
 21
0.101914
 31
0.0
  0
LINE
  5
6E5
330
1F
100
AcDbEntity
  8
1
  6
CONTINUOUS
370
50
 62
4
100
AcDbLine
 10
49.910568
 20
0.292955
 30
0.0
 11
49.91186099999999
 21
0.299248
 31
0.0
  0
LINE
  5
6E6
330
1F
100
AcDbEntity
  8
1
  6
CONTINUOUS
370
50
 62
4
100
AcDbLine
 10
49.870918
 20
0.101914
 30
0.0
 11
49.87531999999999
 21
0.125103
 31
0.0
  0
LINE
  5
6E7
330
1F
100
AcDbEntity
  8
1
  6
CONTINUOUS
370
50
 62
4
100
AcDbLine
 10
46.357861
 20
-0.215126
 30
0.0
 11
46.36347199999999
 21
-0.185553
 31
0.0
  0
LINE
  5
6E8
330
1F
100
AcDbEntity
  8
1
  6
CONTINUOUS
370
50
 62
4
100
AcDbLine
 10
49.87531999999999
 20
0.125103
 30
0.0
 11
49.879047
 21
0.147737
 31
0.0
  0
LINE
  5
6E9
330
1F
100
AcDbEntity
  8
1
  6
CONTINUOUS
370
50
 62
4
100
AcDbLine
 10
46.218105
 20
0.352757
 30
0.0
 11
46.219757
 21
0.364338
 31
0.0
  0
LINE
  5
6EA
330
1F
100
AcDbEntity
  8
1
  6
CONTINUOUS
370
50
 62
4
100
AcDbLine
 10
45.925358
 20
-0.5837559999999999
 30
0.0
 11
45.925701
 21
-0.581259
 31
0.0
  0
LINE
  5
6EB
330
1F
100
AcDbEntity
  8
1
  6
CONTINUOUS
370
50
 62
4
100
AcDbLine
 10
46.36347199999999
 20
-0.185553
 30
0.0
 11
46.367245
 21
-0.155456
 31
0.0
  0
LINE
  5
6EC
330
1F
100
AcDbEntity
  8
1
  6
CONTINUOUS
370
50
 62
4
100
AcDbLine
 10
46.367245
 20
-0.155456
 30
0.0
 11
46.369267
 21
-0.124914
 31
0.0
  0
LINE
  5
6ED
330
1F
100
AcDbEntity
  8
1
  6
CONTINUOUS
370
50
 62
4
100
AcDbLine
 10
46.217392
 20
0.340992
 30
0.0
 11
46.218105
 21
0.352757
 31
0.0
  0
LINE
  5
6EE
330
1F
100
AcDbEntity
  8
1
  6
CONTINUOUS
370
50
 62
4
100
AcDbLine
 10
46.369267
 20
-0.124914
 30
0.0
 11
46.369625
 21
-0.093996
 31
0.0
  0
LINE
  5
6EF
330
1F
100
AcDbEntity
  8
1
  6
CONTINUOUS
370
50
 62
4
100
AcDbLine
 10
49.903156
 20
0.277046
 30
0.0
 11
49.903217
 21
0.285355
 31
0.0
  0
LINE
  5
6F0
330
1F
100
AcDbEntity
  8
1
  6
CONTINUOUS
370
50
 62
4
100
AcDbLine
 10
49.903099
 20
0.26822
 30
0.0
 11
49.903156
 21
0.277046
 31
0.0
  0
LINE
  5
6F1
330
1F
100
AcDbEntity
  8
1
  6
CONTINUOUS
370
50
 62
4
100
AcDbLine
 10
49.903042
 20
0.258893
 30
0.0
 11
49.903099
 21
0.26822
 31
0.0
  0
LINE
  5
6F2
330
1F
100
AcDbEntity
  8
1
  6
CONTINUOUS
370
50
 62
4
100
AcDbLine
 10
49.902988
 20
0.249078
 30
0.0
 11
49.903042
 21
0.258893
 31
0.0
  0
LINE
  5
6F3
330
1F
100
AcDbEntity
  8
1
  6
CONTINUOUS
370
50
 62
4
100
AcDbLine
 10
49.902939
 20
0.238789
 30
0.0
 11
49.902988
 21
0.249078
 31
0.0
  0
LINE
  5
6F4
330
1F
100
AcDbEntity
  8
1
  6
CONTINUOUS
370
50
 62
4
100
AcDbLine
 10
49.90288899999999
 20
0.22804
 30
0.0
 11
49.902939
 21
0.238789
 31
0.0
  0
LINE
  5
6F5
330
1F
100
AcDbEntity
  8
1
  6
CONTINUOUS
370
50
 62
4
100
AcDbLine
 10
49.902843
 20
0.216845
 30
0.0
 11
49.90288899999999
 21
0.22804
 31
0.0
  0
LINE
  5
6F6
330
1F
100
AcDbEntity
  8
1
  6
CONTINUOUS
370
50
 62
4
100
AcDbLine
 10
49.87907
 20
0.160694
 30
0.0
 11
49.879078
 21
0.162825
 31
0.0
  0
LINE
  5
6F7
330
1F
100
AcDbEntity
  8
1
  6
CONTINUOUS
370
50
 62
4
100
AcDbLine
 10
49.902802
 20
0.205232
 30
0.0
 11
49.902843
 21
0.216845
 31
0.0
  0
LINE
  5
6F8
330
1F
100
AcDbEntity
  8
1
  6
CONTINUOUS
370
50
 62
4
100
AcDbLine
 10
49.90276
 20
0.193243
 30
0.0
 11
49.902802
 21
0.205232
 31
0.0
  0
LINE
  5
6F9
330
1F
100
AcDbEntity
  8
1
  6
CONTINUOUS
370
50
 62
4
100
AcDbLine
 10
49.902725
 20
0.180898
 30
0.0
 11
49.90276
 21
0.193243
 31
0.0
  0
LINE
  5
6FA
330
1F
100
AcDbEntity
  8
1
  6
CONTINUOUS
370
50
 62
4
100
AcDbLine
 10
49.902691
 20
0.168215
 30
0.0
 11
49.902725
 21
0.180898
 31
0.0
  0
LINE
  5
6FB
330
1F
100
AcDbEntity
  8
1
  6
CONTINUOUS
370
50
 62
4
100
AcDbLine
 10
49.87906599999999
 20
0.158555
 30
0.0
 11
49.87907
 21
0.160694
 31
0.0
  0
LINE
  5
6FC
330
1F
100
AcDbEntity
  8
1
  6
CONTINUOUS
370
50
 62
4
100
AcDbLine
 10
49.879059
 20
0.154252
 30
0.0
 11
49.879063
 21
0.156407
 31
0.0
  0
LINE
  5
6FD
330
1F
100
AcDbEntity
  8
1
  6
CONTINUOUS
370
50
 62
4
100
AcDbLine
 10
49.879055
 20
0.152088
 30
0.0
 11
49.879059
 21
0.154252
 31
0.0
  0
LINE
  5
6FE
330
1F
100
AcDbEntity
  8
1
  6
CONTINUOUS
370
50
 62
4
100
AcDbLine
 10
49.879051
 20
0.149917
 30
0.0
 11
49.879055
 21
0.152088
 31
0.0
  0
LINE
  5
6FF
330
1F
100
AcDbEntity
  8
1
  6
CONTINUOUS
370
50
 62
4
100
AcDbLine
 10
49.879047
 20
0.147738
 30
0.0
 11
49.879051
 21
0.149917
 31
0.0
  0
LINE
  5
700
330
1F
100
AcDbEntity
  8
1
  6
CONTINUOUS
370
50
 62
4
100
AcDbLine
 10
45.925354
 20
-0.586271
 30
0.0
 11
45.925358
 21
-0.5837559999999999
 31
0.0
  0
LINE
  5
701
330
1F
100
AcDbEntity
  8
1
  6
CONTINUOUS
370
50
 62
4
100
AcDbLine
 10
49.879063
 20
0.156407
 30
0.0
 11
49.87906599999999
 21
0.158555
 31
0.0
  0
LINE
  5
702
330
1F
100
AcDbEntity
  8
1
  6
CONTINUOUS
370
50
 62
4
100
AcDbLine
 10
40.900002
 20
-1.99995
 30
0.0
 11
40.900002
 21
1.99995
 31
0.0
  0
LINE
  5
703
330
1F
100
AcDbEntity
  8
1
  6
CONTINUOUS
370
50
 62
4
100
AcDbLine
 10
45.900002
 20
-0.6499499999999999
 30
0.0
 11
45.900002
 21
0.6499499999999999
 31
0.0
  0
LINE
  5
704
330
1F
100
AcDbEntity
  8
1
  6
CONTINUOUS
370
50
 62
4
100
AcDbLine
 10
46.799999
 20
-0.647258
 30
0.0
 11
46.799999
 21
0.647258
 31
0.0
  0
LINE
  5
705
330
1F
100
AcDbEntity
  8
1
  6
CONTINUOUS
370
50
 62
4
100
AcDbLine
 10
49.27531399999999
 20
-0.441904
 30
0.0
 11
49.27531399999999
 21
-0.42619
 31
0.0
  0
LINE
  5
706
330
1F
100
AcDbEntity
  8
1
  6
CONTINUOUS
370
50
 62
4
100
AcDbLine
 10
49.349998
 20
-0.538607
 30
0.0
 11
49.349998
 21
-0.480268
 31
0.0
  0
LINE
  5
707
330
1F
100
AcDbEntity
  8
1
  6
CONTINUOUS
370
50
 62
4
100
AcDbLine
 10
49.46200899999999
 20
-0.491683
 30
0.0
 11
49.46200899999999
 21
-0.414912
 31
0.0
  0
ELLIPSE
  5
708
330
1F
100
AcDbEntity
  8
1
  6
CONTINUOUS
370
50
 62
4
100
AcDbEllipse
 10
46.511906
 20
-0.9653809999999999
 30
0.0
 11
-0.6527658555419895
 21
0.2661113543528994
 31
0.0
210
0.0
220
0.0
230
1.0
 40
0.4590482448992872
 41
4.876352384063944
 42
5.92199673956184
  0
ELLIPSE
  5
709
330
1F
100
AcDbEntity
  8
1
  6
CONTINUOUS
370
50
 62
4
100
AcDbEllipse
 10
46.552323
 20
-0.86624
 30
0.0
 11
-0.6215759065714224
 21
0.2533962291785581
 31
0.0
210
0.0
220
0.0
230
0.9999999999999999
 40
0.4590477380362649
 41
4.49494474708313
 42
5.572642830764448
  0
ELLIPSE
  5
70A
330
1F
100
AcDbEntity
  8
1
  6
CONTINUOUS
370
50
 62
4
100
AcDbEllipse
 10
46.83813
 20
-0.16516
 30
0.0
 11
-0.6550310769448089
 21
0.2670348112559965
 31
0.0
210
0.0
220
0.0
230
0.9999999999999998
 40
0.4590471848850949
 41
4.954636782093929
 42
5.83137559272718
  0
ELLIPSE
  5
70B
330
1F
100
AcDbEntity
  8
1
  6
CONTINUOUS
370
50
 62
4
100
AcDbEllipse
 10
46.908003
 20
0.006236
 30
0.0
 11
-0.9043952266642634
 21
0.3686924439975627
 31
0.0
210
0.0
220
0.0
230
1.0
 40
0.4590483526964222
 41
5.015041712252356
 42
5.420993734320383
  0
ARC
  5
70C
330
1F
100
AcDbEntity
  8
1
  6
CONTINUOUS
370
50
 62
4
100
AcDbCircle
 10
49.34999999999999
 20
0.0
 30
0.0
 40
0.6499999999999975
100
AcDbArc
 50
323.6970616239183
 51
36.30293837608168
  0
ELLIPSE
  5
70D
330
1F
100
AcDbEntity
  8
1
  6
CONTINUOUS
370
50
 62
4
100
AcDbEllipse
 10
49.390625
 20
-0.130953
 30
0.0
 11
0.601099100894853
 21
0.1864766747703274
 31
0.0
210
0.0
220
0.0
230
1.0
 40
0.5367348497080783
 41
6.118190145372234
 42
6.691124311677486
  0
ELLIPSE
  5
70E
330
1F
100
AcDbEntity
  8
1
  6
CONTINUOUS
370
50
 62
4
100
AcDbEllipse
 10
49.393489
 20
-0.130337
 30
0.0
 11
0.579019042581784
 21
0.1796268627396133
 31
0.0
210
0.0
220
0.0
230
0.9999999999999998
 40
0.5367337501748373
 41
6.134887697672443
 42
6.714792466138649
  0
ELLIPSE
  5
70F
330
1F
100
AcDbEntity
  8
1
  6
CONTINUOUS
370
50
 62
4
100
AcDbEllipse
 10
49.5125
 20
0.034789
 30
0.0
 11
-0.1178412619880974
 21
0.5504439439125951
 31
0.0
210
0.0
220
0.0
230
0.9999999999999999
 40
0.8593845283629074
 41
2.557611845431241
 42
4.468245193881391
  0
ELLIPSE
  5
710
330
1F
100
AcDbEntity
  8
1
  6
CONTINUOUS
370
50
 62
4
100
AcDbEllipse
 10
49.514791
 20
0.034625
 30
0.0
 11
-0.1125491114766713
 21
0.5257239761346365
 31
0.0
210
0.0
220
0.0
230
1.0
 40
0.8593844486919785
 41
2.783843685830078
 42
4.468245215626557
  0
ELLIPSE
  5
711
330
1F
100
AcDbEntity
  8
1
  6
CONTINUOUS
370
50
 62
4
100
AcDbEllipse
 10
49.702759
 20
0.021212
 30
0.0
 11
-0.9970809574352835
 21
0.1012144193133518
 31
0.0
210
0.0
220
0.0
230
0.9999999999999999
 40
0.5430200520276205
 41
1.183532905383686
 42
1.38237628102149
  0
ELLIPSE
  5
712
330
1F
100
AcDbEntity
  8
1
  6
CONTINUOUS
370
50
 62
4
100
AcDbEllipse
 10
50.000076
 20
-0.000005
 30
0.0
 11
-1.123844014581483
 21
0.1189508622346948
 31
0.0
210
0.0
220
0.0
230
0.9999999999999999
 40
0.5686278660805045
 41
0.9315448077701353
 42
1.015374154936587
  0
LINE
  5
713
330
1F
100
AcDbEntity
  8
CUT
  6
CONTINUOUS
370
25
 62
1
100
AcDbLine
 10
46.8
 20
0.0
 30
0.0
 11
50.0
 21
0.0
 31
0.0
  0
ARC
  5
714
330
1F
100
AcDbEntity
  8
CUT
  6
CONTINUOUS
370
25
 62
1
100
AcDbCircle
 10
49.34999999999999
 20
0.0
 30
0.0
 40
0.6500000000000057
100
AcDbArc
 50
0.0
 51
90.0
  0
LINE
  5
715
330
1F
100
AcDbEntity
  8
CUT
  6
CONTINUOUS
370
25
 62
1
100
AcDbLine
 10
49.34999999999999
 20
0.6500000000000001
 30
0.0
 11
46.8
 21
0.6499
 31
0.0
  0
LINE
  5
716
330
1F
100
AcDbEntity
  8
CUT
  6
CONTINUOUS
370
25
 62
1
100
AcDbLine
 10
46.8
 20
0.6499
 30
0.0
 11
46.8
 21
0.0
 31
0.0
  0
LINE
  5
717
330
1F
100
AcDbEntity
  8
NOCUT
  6
CONTINUOUS
370
25
 62
7
100
AcDbLine
 10
40.9
 20
0.0
 30
0.0
 11
46.8
 21
0.0
 31
0.0
  0
LINE
  5
718
330
1F
100
AcDbEntity
  8
NOCUT
  6
CONTINUOUS
370
25
 62
7
100
AcDbLine
 10
46.8
 20
0.0
 30
0.0
 11
46.8
 21
0.64995
 31
0.0
  0
LINE
  5
719
330
1F
100
AcDbEntity
  8
NOCUT
  6
CONTINUOUS
370
25
 62
7
100
AcDbLine
 10
46.8
 20
0.64995
 30
0.0
 11
45.9
 21
0.64995
 31
0.0
  0
LINE
  5
71A
330
1F
100
AcDbEntity
  8
NOCUT
  6
CONTINUOUS
370
25
 62
7
100
AcDbLine
 10
45.9
 20
0.64995
 30
0.0
 11
40.9
 21
1.99995
 31
0.0
  0
LINE
  5
71B
330
1F
100
AcDbEntity
  8
NOCUT
  6
CONTINUOUS
370
25
 62
7
100
AcDbLine
 10
40.9
 20
1.99995
 30
0.0
 11
40.9
 21
0.0
 31
0.0
  0
LINE
  5
71C
330
1F
100
AcDbEntity
  8
SK1
  6
CONTINUOUS
370
50
 62
4
100
AcDbLine
 10
40.9
 20
2.0
 30
0.0
 11
0.2999999999999972
 21
2.0
 31
0.0
  0
LINE
  5
71D
330
1F
100
AcDbEntity
  8
SK1
  6
CONTINUOUS
370
50
 62
4
100
AcDbLine
 10
0.2999999999999972
 20
2.0
 30
0.0
 11
0.0
 21
1.7
 31
0.0
  0
LINE
  5
71E
330
1F
100
AcDbEntity
  8
SK1
  6
CONTINUOUS
370
50
 62
4
100
AcDbLine
 10
0.0
 20
1.7
 30
0.0
 11
0.0
 21
-1.7
 31
0.0
  0
LINE
  5
71F
330
1F
100
AcDbEntity
  8
SK1
  6
CONTINUOUS
370
50
 62
4
100
AcDbLine
 10
0.0
 20
-1.7
 30
0.0
 11
0.2999999999999972
 21
-2.0
 31
0.0
  0
LINE
  5
720
330
1F
100
AcDbEntity
  8
SK1
  6
CONTINUOUS
370
50
 62
4
100
AcDbLine
 10
0.2999999999999972
 20
-2.0
 30
0.0
 11
40.9
 21
-2.0
 31
0.0
  0
LINE
  5
721
330
1F
100
AcDbEntity
  8
SK1
  6
CONTINUOUS
370
50
 62
4
100
AcDbLine
 10
0.2999999999999972
 20
2.0
 30
0.0
 11
0.2999999999999972
 21
-2.0
 31
0.0
  0
LINE
  5
722
330
1F
100
AcDbEntity
  8
SK2
  6
CONTINUOUS
370
25
 62
7
100
AcDbLine
 10
-12.0000002
 20
-2.000001
 30
0.0
 11
-13.00000000000008
 21
-2.000001
 31
0.0
  0
LINE
  5
723
330
1F
100
AcDbEntity
  8
SK2
  6
CONTINUOUS
370
25
 62
7
100
AcDbLine
 10
0.0
 20
-2.000001
 30
0.0
 11
-11.9999998
 21
-2.000001
 31
0.0
  0
LINE
  5
724
330
1F
100
AcDbEntity
  8
SK2
  6
CONTINUOUS
370
25
 62
7
100
AcDbLine
 10
-13.0
 20
2.0
 30
0.0
 11
0.0
 21
2.0
 31
0.0
  0
LINE
  5
725
330
1F
100
AcDbEntity
  8
SK2
  6
CONTINUOUS
370
25
 62
7
100
AcDbLine
 10
-12.0
 20
-9.0
 30
0.0
 11
-12.0
 21
15.475
 31
0.0
  0
LINE
  5
726
330
1F
100
AcDbEntity
  8
SK2
  6
CONTINUOUS
370
25
 62
7
100
AcDbLine
 10
-12.0
 20
-2.0
 30
0.0
 11
-11.0
 21
-7.0
 31
0.0
  0
LINE
  5
727
330
1F
100
AcDbEntity
  8
SK2
  6
CONTINUOUS
370
25
 62
7
100
AcDbLine
 10
-11.0
 20
-7.0
 30
0.0
 11
-13.0
 21
-7.0
 31
0.0
  0
LINE
  5
728
330
1F
100
AcDbEntity
  8
SK2
  6
CONTINUOUS
370
25
 62
7
100
AcDbLine
 10
-13.0
 20
-7.0
 30
0.0
 11
-12.0
 21
-2.0
 31
0.0
  0
LINE
  5
729
330
1F
100
AcDbEntity
  8
SK2
  6
CONTINUOUS
370
25
 62
7
100
AcDbLine
 10
-11.07199128346439
 20
-7.0
 30
0.0
 11
-11.01199854724406
 21
-6.94000726377967
 31
0.0
  0
LINE
  5
72A
330
1F
100
AcDbEntity
  8
SK2
  6
CONTINUOUS
370
25
 62
7
100
AcDbLine
 10
-11.49625535217633
 20
-7.0
 30
0.0
 11
-11.08270922536273
 21
-6.5864538731864
 31
0.0
  0
LINE
  5
72B
330
1F
100
AcDbEntity
  8
SK2
  6
CONTINUOUS
370
25
 62
7
100
AcDbLine
 10
-11.92051942088825
 20
-7.0
 30
0.0
 11
-11.15341990348138
 21
-6.232900482593124
 31
0.0
  0
LINE
  5
72C
330
1F
100
AcDbEntity
  8
SK2
  6
CONTINUOUS
370
25
 62
7
100
AcDbLine
 10
-12.34478348960019
 20
-7.0
 30
0.0
 11
-11.22413058160004
 21
-5.879347091999847
 31
0.0
  0
LINE
  5
72D
330
1F
100
AcDbEntity
  8
SK2
  6
CONTINUOUS
370
25
 62
7
100
AcDbLine
 10
-12.76904755831212
 20
-7.0
 30
0.0
 11
-11.29484125971869
 21
-5.52579370140657
 31
0.0
  0
LINE
  5
72E
330
1F
100
AcDbEntity
  8
SK2
  6
CONTINUOUS
370
25
 62
7
100
AcDbLine
 10
-12.95167209324399
 20
-6.758360466219926
 30
0.0
 11
-11.36555193783735
 21
-5.172240310813294
 31
0.0
  0
LINE
  5
72F
330
1F
100
AcDbEntity
  8
SK2
  6
CONTINUOUS
370
25
 62
7
100
AcDbLine
 10
-12.84560607606601
 20
-6.228030380330019
 30
0.0
 11
-11.436262615956
 21
-4.818686920220017
 31
0.0
  0
LINE
  5
730
330
1F
100
AcDbEntity
  8
SK2
  6
CONTINUOUS
370
25
 62
7
100
AcDbLine
 10
-12.73954005888802
 20
-5.697700294440111
 30
0.0
 11
-11.50697329407465
 21
-4.46513352962674
 31
0.0
  0
LINE
  5
731
330
1F
100
AcDbEntity
  8
SK2
  6
CONTINUOUS
370
25
 62
7
100
AcDbLine
 10
-12.63347404171004
 20
-5.167370208550203
 30
0.0
 11
-11.57768397219331
 21
-4.111580139033464
 31
0.0
  0
LINE
  5
732
330
1F
100
AcDbEntity
  8
SK2
  6
CONTINUOUS
370
25
 62
7
100
AcDbLine
 10
-12.52740802453206
 20
-4.637040122660295
 30
0.0
 11
-11.64839465031196
 21
-3.758026748440194
 31
0.0
  0
LINE
  5
733
330
1F
100
AcDbEntity
  8
SK2
  6
CONTINUOUS
370
25
 62
7
100
AcDbLine
 10
-12.42134200735408
 20
-4.106710036770373
 30
0.0
 11
-11.71910532843062
 21
-3.404473357846918
 31
0.0
  0
LINE
  5
734
330
1F
100
AcDbEntity
  8
SK2
  6
CONTINUOUS
370
25
 62
7
100
AcDbLine
 10
-12.3152759901761
 20
-3.576379950880458
 30
0.0
 11
-11.78981600654927
 21
-3.050919967253634
 31
0.0
  0
LINE
  5
735
330
1F
100
AcDbEntity
  8
SK2
  6
CONTINUOUS
370
25
 62
7
100
AcDbLine
 10
-12.20920997299812
 20
-3.04604986499055
 30
0.0
 11
-11.86052668466792
 21
-2.697366576660357
 31
0.0
  0
LINE
  5
736
330
1F
100
AcDbEntity
  8
SK2
  6
CONTINUOUS
370
25
 62
7
100
AcDbLine
 10
-12.10314395582014
 20
-2.515719779100642
 30
0.0
 11
-11.93123736278658
 21
-2.343813186067088
 31
0.0
  0
LINE
  5
737
330
1F
100
AcDbEntity
  8
SK2
  6
CONTINUOUS
370
25
 62
7
100
AcDbLine
 10
-12.98508939333919
 20
-6.925446966695951
 30
0.0
 11
-12.91053636003514
 21
-7.0
 31
0.0
  0
LINE
  5
738
330
1F
100
AcDbEntity
  8
SK2
  6
CONTINUOUS
370
25
 62
7
100
AcDbLine
 10
-12.91437871522054
 20
-6.571893576102674
 30
0.0
 11
-12.48627229132321
 21
-7.0
 31
0.0
  0
LINE
  5
739
330
1F
100
AcDbEntity
  8
SK2
  6
CONTINUOUS
370
25
 62
7
100
AcDbLine
 10
-12.84366803710189
 20
-6.218340185509398
 30
0.0
 11
-12.06200822261128
 21
-7.0
 31
0.0
  0
LINE
  5
73A
330
1F
100
AcDbEntity
  8
SK2
  6
CONTINUOUS
370
25
 62
7
100
AcDbLine
 10
-12.77295735898323
 20
-5.864786794916128
 30
0.0
 11
-11.63774415389935
 21
-7.0
 31
0.0
  0
LINE
  5
73B
330
1F
100
AcDbEntity
  8
SK2
  6
CONTINUOUS
370
25
 62
7
100
AcDbLine
 10
-12.70224668086457
 20
-5.511233404322851
 30
0.0
 11
-11.21348008518741
 21
-7.0
 31
0.0
  0
LINE
  5
73C
330
1F
100
AcDbEntity
  8
SK2
  6
CONTINUOUS
370
25
 62
7
100
AcDbLine
 10
-12.63153600274591
 20
-5.157680013729582
 30
0.0
 11
-11.05269599588112
 21
-6.736520020594369
 31
0.0
  0
LINE
  5
73D
330
1F
100
AcDbEntity
  8
SK2
  6
CONTINUOUS
370
25
 62
7
100
AcDbLine
 10
-12.56082532462726
 20
-4.804126623136298
 30
0.0
 11
-11.15876201305911
 21
-6.206189934704447
 31
0.0
  0
LINE
  5
73E
330
1F
100
AcDbEntity
  8
SK2
  6
CONTINUOUS
370
25
 62
7
100
AcDbLine
 10
-12.49011464650861
 20
-4.450573232543015
 30
0.0
 11
-11.26482803023709
 21
-5.675859848814532
 31
0.0
  0
LINE
  5
73F
330
1F
100
AcDbEntity
  8
SK2
  6
CONTINUOUS
370
25
 62
7
100
AcDbLine
 10
-12.41940396838995
 20
-4.097019841949745
 30
0.0
 11
-11.37089404741507
 21
-5.145529762924625
 31
0.0
  0
LINE
  5
740
330
1F
100
AcDbEntity
  8
SK2
  6
CONTINUOUS
370
25
 62
7
100
AcDbLine
 10
-12.3486932902713
 20
-3.743466451356461
 30
0.0
 11
-11.47696006459305
 21
-4.61519967703471
 31
0.0
  0
LINE
  5
741
330
1F
100
AcDbEntity
  8
SK2
  6
CONTINUOUS
370
25
 62
7
100
AcDbLine
 10
-12.27798261215265
 20
-3.389913060763185
 30
0.0
 11
-11.58302608177104
 21
-4.084869591144795
 31
0.0
  0
LINE
  5
742
330
1F
100
AcDbEntity
  8
SK2
  6
CONTINUOUS
370
25
 62
7
100
AcDbLine
 10
-12.20727193403398
 20
-3.036359670169915
 30
0.0
 11
-11.68909209894903
 21
-3.554539505254859
 31
0.0
  0
LINE
  5
743
330
1F
100
AcDbEntity
  8
SK2
  6
CONTINUOUS
370
25
 62
7
100
AcDbLine
 10
-12.13656125591532
 20
-2.682806279576639
 30
0.0
 11
-11.79515811612701
 21
-3.024209419364951
 31
0.0
  0
LINE
  5
744
330
1F
100
AcDbEntity
  8
SK2
  6
CONTINUOUS
370
25
 62
7
100
AcDbLine
 10
-12.06585057779667
 20
-2.329252888983362
 30
0.0
 11
-11.901224133305
 21
-2.493879333475029
 31
0.0
  0
LINE
  5
745
330
1F
100
AcDbEntity
  8
SK2
  6
CONTINUOUS
370
25
 62
7
100
AcDbLine
 10
-12.0
 20
2.0
 30
0.0
 11
-13.0
 21
7.0
 31
0.0
  0
LINE
  5
746
330
1F
100
AcDbEntity
  8
SK2
  6
CONTINUOUS
370
25
 62
7
100
AcDbLine
 10
-13.0
 20
7.0
 30
0.0
 11
-11.0
 21
7.0
 31
0.0
  0
LINE
  5
747
330
1F
100
AcDbEntity
  8
SK2
  6
CONTINUOUS
370
25
 62
7
100
AcDbLine
 10
-11.0
 20
7.0
 30
0.0
 11
-12.0
 21
2.0
 31
0.0
  0
LINE
  5
748
330
1F
100
AcDbEntity
  8
SK2
  6
CONTINUOUS
370
25
 62
7
100
AcDbLine
 10
-12.04238815542512
 20
2.211940777125569
 30
0.0
 11
-11.93641776686233
 21
2.317911165688351
 31
0.0
  0
LINE
  5
749
330
1F
100
AcDbEntity
  8
SK2
  6
CONTINUOUS
370
25
 62
7
100
AcDbLine
 10
-12.11309883354377
 20
2.565494167718846
 30
0.0
 11
-11.83035174968435
 21
2.848241251578273
 31
0.0
  0
LINE
  5
74A
330
1F
100
AcDbEntity
  8
SK2
  6
CONTINUOUS
370
25
 62
7
100
AcDbLine
 10
-12.18380951166242
 20
2.919047558312123
 30
0.0
 11
-11.72428573250637
 21
3.378571337468181
 31
0.0
  0
LINE
  5
74B
330
1F
100
AcDbEntity
  8
SK2
  6
CONTINUOUS
370
25
 62
7
100
AcDbLine
 10
-12.25452018978108
 20
3.272600948905399
 30
0.0
 11
-11.61821971532839
 21
3.908901423358088
 31
0.0
  0
LINE
  5
74C
330
1F
100
AcDbEntity
  8
SK2
  6
CONTINUOUS
370
25
 62
7
100
AcDbLine
 10
-12.32523086789973
 20
3.626154339498669
 30
0.0
 11
-11.51215369815041
 21
4.439231509247996
 31
0.0
  0
LINE
  5
74D
330
1F
100
AcDbEntity
  8
SK2
  6
CONTINUOUS
370
25
 62
7
100
AcDbLine
 10
-12.39594154601838
 20
3.979707730091953
 30
0.0
 11
-11.40608768097242
 21
4.969561595137918
 31
0.0
  0
LINE
  5
74E
330
1F
100
AcDbEntity
  8
SK2
  6
CONTINUOUS
370
25
 62
7
100
AcDbLine
 10
-12.46665222413704
 20
4.333261120685236
 30
0.0
 11
-11.30002166379444
 21
5.499891681027826
 31
0.0
  0
LINE
  5
74F
330
1F
100
AcDbEntity
  8
SK2
  6
CONTINUOUS
370
25
 62
7
100
AcDbLine
 10
-12.5373629022557
 20
4.686814511278506
 30
0.0
 11
-11.19395564661645
 21
6.030221766917748
 31
0.0
  0
LINE
  5
750
330
1F
100
AcDbEntity
  8
SK2
  6
CONTINUOUS
370
25
 62
7
100
AcDbLine
 10
-12.60807358037436
 20
5.040367901871768
 30
0.0
 11
-11.08788962943846
 21
6.560551852807663
 31
0.0
  0
LINE
  5
751
330
1F
100
AcDbEntity
  8
SK2
  6
CONTINUOUS
370
25
 62
7
100
AcDbLine
 10
-12.67878425849302
 20
5.393921292465045
 30
0.0
 11
-11.07270555095806
 21
7.0
 31
0.0
  0
LINE
  5
752
330
1F
100
AcDbEntity
  8
SK2
  6
CONTINUOUS
370
25
 62
7
100
AcDbLine
 10
-12.74949493661167
 20
5.747474683058329
 30
0.0
 11
-11.49696961967
 21
7.0
 31
0.0
  0
LINE
  5
753
330
1F
100
AcDbEntity
  8
SK2
  6
CONTINUOUS
370
25
 62
7
100
AcDbLine
 10
-12.82020561473032
 20
6.101028073651605
 30
0.0
 11
-11.92123368838192
 21
7.0
 31
0.0
  0
LINE
  5
754
330
1F
100
AcDbEntity
  8
SK2
  6
CONTINUOUS
370
25
 62
7
100
AcDbLine
 10
-12.89091629284898
 20
6.454581464244889
 30
0.0
 11
-12.34549775709387
 21
7.0
 31
0.0
  0
LINE
  5
755
330
1F
100
AcDbEntity
  8
SK2
  6
CONTINUOUS
370
25
 62
7
100
AcDbLine
 10
-12.96162697096763
 20
6.808134854838165
 30
0.0
 11
-12.76976182580579
 21
7.0
 31
0.0
  0
LINE
  5
756
330
1F
100
AcDbEntity
  8
SK2
  6
CONTINUOUS
370
25
 62
7
100
AcDbLine
 10
-12.00711158360956
 20
2.035557918047786
 30
0.0
 11
-11.99525894426029
 21
2.023705278698522
 31
0.0
  0
LINE
  5
757
330
1F
100
AcDbEntity
  8
SK2
  6
CONTINUOUS
370
25
 62
7
100
AcDbLine
 10
-12.11317760078754
 20
2.565888003937708
 30
0.0
 11
-11.92454826614163
 21
2.377258669291798
 31
0.0
  0
LINE
  5
758
330
1F
100
AcDbEntity
  8
SK2
  6
CONTINUOUS
370
25
 62
7
100
AcDbLine
 10
-12.21924361796552
 20
3.096218089827623
 30
0.0
 11
-11.85383758802298
 21
2.730812059885082
 31
0.0
  0
LINE
  5
759
330
1F
100
AcDbEntity
  8
SK2
  6
CONTINUOUS
370
25
 62
7
100
AcDbLine
 10
-12.3253096351435
 20
3.626548175717531
 30
0.0
 11
-11.78312690990433
 21
3.084365450478359
 31
0.0
  0
LINE
  5
75A
330
1F
100
AcDbEntity
  8
SK2
  6
CONTINUOUS
370
25
 62
7
100
AcDbLine
 10
-12.43137565232149
 20
4.156878261607453
 30
0.0
 11
-11.71241623178567
 21
3.437918841071635
 31
0.0
  0
LINE
  5
75B
330
1F
100
AcDbEntity
  8
SK2
  6
CONTINUOUS
370
25
 62
7
100
AcDbLine
 10
-12.53744166949947
 20
4.687208347497361
 30
0.0
 11
-11.64170555366702
 21
3.791472231664905
 31
0.0
  0
LINE
  5
75C
330
1F
100
AcDbEntity
  8
SK2
  6
CONTINUOUS
370
25
 62
7
100
AcDbLine
 10
-12.64350768667745
 20
5.217538433387269
 30
0.0
 11
-11.57099487554837
 21
4.145025622258188
 31
0.0
  0
LINE
  5
75D
330
1F
100
AcDbEntity
  8
SK2
  6
CONTINUOUS
370
25
 62
7
100
AcDbLine
 10
-12.74957370385543
 20
5.747868519277183
 30
0.0
 11
-11.50028419742971
 21
4.498579012851465
 31
0.0
  0
LINE
  5
75E
330
1F
100
AcDbEntity
  8
SK2
  6
CONTINUOUS
370
25
 62
7
100
AcDbLine
 10
-12.85563972103342
 20
6.278198605167105
 30
0.0
 11
-11.42957351931106
 21
4.852132403444742
 31
0.0
  0
LINE
  5
75F
330
1F
100
AcDbEntity
  8
SK2
  6
CONTINUOUS
370
25
 62
7
100
AcDbLine
 10
-12.9617057382114
 20
6.808528691057013
 30
0.0
 11
-11.3588628411924
 21
5.205685794038011
 31
0.0
  0
LINE
  5
760
330
1F
100
AcDbEntity
  8
SK2
  6
CONTINUOUS
370
25
 62
7
100
AcDbLine
 10
-12.72891297844246
 20
7.0
 30
0.0
 11
-11.28815216307375
 21
5.559239184631295
 31
0.0
  0
LINE
  5
761
330
1F
100
AcDbEntity
  8
SK2
  6
CONTINUOUS
370
25
 62
7
100
AcDbLine
 10
-12.30464890973053
 20
7.0
 30
0.0
 11
-11.2174414849551
 21
5.912792575224572
 31
0.0
  0
LINE
  5
762
330
1F
100
AcDbEntity
  8
SK2
  6
CONTINUOUS
370
25
 62
7
100
AcDbLine
 10
-11.8803848410186
 20
7.0
 30
0.0
 11
-11.14673080683644
 21
6.266345965817841
 31
0.0
  0
LINE
  5
763
330
1F
100
AcDbEntity
  8
SK2
  6
CONTINUOUS
370
25
 62
7
100
AcDbLine
 10
-11.45612077230666
 20
7.0
 30
0.0
 11
-11.07602012871777
 21
6.619899356411111
 31
0.0
  0
LINE
  5
764
330
1F
100
AcDbEntity
  8
SK2
  6
CONTINUOUS
370
25
 62
7
100
AcDbLine
 10
-11.03185670359473
 20
7.0
 30
0.0
 11
-11.00530945059912
 21
6.973452747004394
 31
0.0
  0
TEXT
  5
765
330
1F
100
AcDbEntity
  8
SK2
  6
CONTINUOUS
370
25
 62
7
100
AcDbText
 10
-13.5
 20
12.34583333333333
 30
0.0
 40
3.5
  1
4
 50
90.00000000000001
 72
     1
 11
-13.5
 21
13.5125
 31
0.0
100
AcDbText
  0
CIRCLE
  5
766
330
1F
100
AcDbEntity
  8
SK2
  6
CONTINUOUS
370
25
 62
7
100
AcDbCircle
 10
-15.25
 20
10.1875
 30
0.0
 40
1.4
  0
LINE
  5
767
330
1F
100
AcDbEntity
  8
SK2
  6
CONTINUOUS
370
25
 62
7
100
AcDbLine
 10
-13.85
 20
8.787500000000001
 30
0.0
 11
-16.65
 21
11.5875
 31
0.0
  0
LINE
  5
768
330
1F
100
AcDbEntity
  8
SK2
  6
CONTINUOUS
370
25
 62
7
100
AcDbLine
 10
0.0
 20
2.0
 30
0.0
 11
0.0
 21
15.00001
 31
0.0
  0
LINE
  5
769
330
1F
100
AcDbEntity
  8
SK2
  6
CONTINUOUS
370
25
 62
7
100
AcDbLine
 10
40.9
 20
15.00001
 30
0.0
 11
40.9
 21
2.0
 31
0.0
  0
LINE
  5
76A
330
1F
100
AcDbEntity
  8
SK2
  6
CONTINUOUS
370
25
 62
7
100
AcDbLine
 10
0.0
 20
14.00001
 30
0.0
 11
40.9
 21
14.00001
 31
0.0
  0
LINE
  5
76B
330
1F
100
AcDbEntity
  8
SK2
  6
CONTINUOUS
370
25
 62
7
100
AcDbLine
 10
0.0
 20
14.00001
 30
0.0
 11
5.0
 21
15.00001
 31
0.0
  0
LINE
  5
76C
330
1F
100
AcDbEntity
  8
SK2
  6
CONTINUOUS
370
25
 62
7
100
AcDbLine
 10
5.0
 20
15.00001
 30
0.0
 11
5.0
 21
13.00001
 31
0.0
  0
LINE
  5
76D
330
1F
100
AcDbEntity
  8
SK2
  6
CONTINUOUS
370
25
 62
7
100
AcDbLine
 10
5.0
 20
13.00001
 30
0.0
 11
0.0
 21
14.00001
 31
0.0
  0
LINE
  5
76E
330
1F
100
AcDbEntity
  8
SK2
  6
CONTINUOUS
370
25
 62
7
100
AcDbLine
 10
4.737815024513587
 20
13.05244699509728
 30
0.0
 11
5.0
 21
13.31463197058369
 31
0.0
  0
LINE
  5
76F
330
1F
100
AcDbEntity
  8
SK2
  6
CONTINUOUS
370
25
 62
7
100
AcDbLine
 10
4.38426163392031
 20
13.12315767321594
 30
0.0
 11
5.0
 21
13.73889603929562
 31
0.0
  0
LINE
  5
770
330
1F
100
AcDbEntity
  8
SK2
  6
CONTINUOUS
370
25
 62
7
100
AcDbLine
 10
4.030708243327041
 20
13.19386835133459
 30
0.0
 11
5.0
 21
14.16316010800755
 31
0.0
  0
LINE
  5
771
330
1F
100
AcDbEntity
  8
SK2
  6
CONTINUOUS
370
25
 62
7
100
AcDbLine
 10
3.677154852733757
 20
13.26457902945324
 30
0.0
 11
5.0
 21
14.58742417671948
 31
0.0
  0
LINE
  5
772
330
1F
100
AcDbEntity
  8
SK2
  6
CONTINUOUS
370
25
 62
7
100
AcDbLine
 10
3.323601462140495
 20
13.3352897075719
 30
0.0
 11
4.985402193210739
 21
14.99709043864215
 31
0.0
  0
LINE
  5
773
330
1F
100
AcDbEntity
  8
SK2
  6
CONTINUOUS
370
25
 62
7
100
AcDbLine
 10
2.970048071547211
 20
13.40600038569055
 30
0.0
 11
4.455072107320824
 21
14.89102442146417
 31
0.0
  0
LINE
  5
774
330
1F
100
AcDbEntity
  8
SK2
  6
CONTINUOUS
370
25
 62
7
100
AcDbLine
 10
2.616494680953934
 20
13.47671106380921
 30
0.0
 11
3.924742021430909
 21
14.78495840428618
 31
0.0
  0
LINE
  5
775
330
1F
100
AcDbEntity
  8
SK2
  6
CONTINUOUS
370
25
 62
7
100
AcDbLine
 10
2.262941290360651
 20
13.54742174192786
 30
0.0
 11
3.394411935540994
 21
14.6788923871082
 31
0.0
  0
LINE
  5
776
330
1F
100
AcDbEntity
  8
SK2
  6
CONTINUOUS
370
25
 62
7
100
AcDbLine
 10
1.909387899767388
 20
13.61813242004653
 30
0.0
 11
2.864081849651079
 21
14.57282636993022
 31
0.0
  0
LINE
  5
777
330
1F
100
AcDbEntity
  8
SK2
  6
CONTINUOUS
370
25
 62
7
100
AcDbLine
 10
1.555834509174105
 20
13.68884309816518
 30
0.0
 11
2.333751763761164
 21
14.46676035275224
 31
0.0
  0
LINE
  5
778
330
1F
100
AcDbEntity
  8
SK2
  6
CONTINUOUS
370
25
 62
7
100
AcDbLine
 10
1.202281118580828
 20
13.75955377628383
 30
0.0
 11
1.803421677871249
 21
14.36069433557425
 31
0.0
  0
LINE
  5
779
330
1F
100
AcDbEntity
  8
SK2
  6
CONTINUOUS
370
25
 62
7
100
AcDbLine
 10
0.8487277279875443
 20
13.83026445440248
 30
0.0
 11
1.273091591981334
 21
14.25462831839627
 31
0.0
  0
LINE
  5
77A
330
1F
100
AcDbEntity
  8
SK2
  6
CONTINUOUS
370
25
 62
7
100
AcDbLine
 10
0.4951743373942819
 20
13.90097513252115
 30
0.0
 11
0.7427615060914263
 21
14.14856230121829
 31
0.0
  0
LINE
  5
77B
330
1F
100
AcDbEntity
  8
SK2
  6
CONTINUOUS
370
25
 62
7
100
AcDbLine
 10
0.1416209468009981
 20
13.9716858106398
 30
0.0
 11
0.2124314202015043
 21
14.0424962840403
 31
0.0
  0
LINE
  5
77C
330
1F
100
AcDbEntity
  8
SK2
  6
CONTINUOUS
370
25
 62
7
100
AcDbLine
 10
0.2247237388085495
 20
14.04495474776171
 30
0.0
 11
0.3370856082128313
 21
13.93259287835743
 31
0.0
  0
LINE
  5
77D
330
1F
100
AcDbEntity
  8
SK2
  6
CONTINUOUS
370
25
 62
7
100
AcDbLine
 10
0.5782771294018261
 20
14.11566542588037
 30
0.0
 11
0.8674156941027462
 21
13.82652686117945
 31
0.0
  0
LINE
  5
77E
330
1F
100
AcDbEntity
  8
SK2
  6
CONTINUOUS
370
25
 62
7
100
AcDbLine
 10
0.9318305199951098
 20
14.18637610399902
 30
0.0
 11
1.397745779992661
 21
13.72046084400147
 31
0.0
  0
LINE
  5
77F
330
1F
100
AcDbEntity
  8
SK2
  6
CONTINUOUS
370
25
 62
7
100
AcDbLine
 10
1.285383910588379
 20
14.25708678211768
 30
0.0
 11
1.928075865882576
 21
13.61439482682348
 31
0.0
  0
LINE
  5
780
330
1F
100
AcDbEntity
  8
SK2
  6
CONTINUOUS
370
25
 62
7
100
AcDbLine
 10
1.638937301181656
 20
14.32779746023633
 30
0.0
 11
2.458405951772484
 21
13.5083288096455
 31
0.0
  0
LINE
  5
781
330
1F
100
AcDbEntity
  8
SK2
  6
CONTINUOUS
370
25
 62
7
100
AcDbLine
 10
1.992490691774933
 20
14.39850813835498
 30
0.0
 11
2.988736037662399
 21
13.40226279246752
 31
0.0
  0
LINE
  5
782
330
1F
100
AcDbEntity
  8
SK2
  6
CONTINUOUS
370
25
 62
7
100
AcDbLine
 10
2.346044082368202
 20
14.46921881647365
 30
0.0
 11
3.519066123552314
 21
13.29619677528954
 31
0.0
  0
LINE
  5
783
330
1F
100
AcDbEntity
  8
SK2
  6
CONTINUOUS
370
25
 62
7
100
AcDbLine
 10
2.699597472961486
 20
14.5399294945923
 30
0.0
 11
4.049396209442229
 21
13.19013075811155
 31
0.0
  0
LINE
  5
784
330
1F
100
AcDbEntity
  8
SK2
  6
CONTINUOUS
370
25
 62
7
100
AcDbLine
 10
3.053150863554762
 20
14.61064017271095
 30
0.0
 11
4.579726295332144
 21
13.08406474093357
 31
0.0
  0
LINE
  5
785
330
1F
100
AcDbEntity
  8
SK2
  6
CONTINUOUS
370
25
 62
7
100
AcDbLine
 10
3.406704254148032
 20
14.68135085082961
 30
0.0
 11
5.0
 21
13.08805510497765
 31
0.0
  0
LINE
  5
786
330
1F
100
AcDbEntity
  8
SK2
  6
CONTINUOUS
370
25
 62
7
100
AcDbLine
 10
3.760257644741309
 20
14.75206152894827
 30
0.0
 11
5.0
 21
13.51231917368958
 31
0.0
  0
LINE
  5
787
330
1F
100
AcDbEntity
  8
SK2
  6
CONTINUOUS
370
25
 62
7
100
AcDbLine
 10
4.113811035334585
 20
14.82277220706692
 30
0.0
 11
5.0
 21
13.93658324240151
 31
0.0
  0
LINE
  5
788
330
1F
100
AcDbEntity
  8
SK2
  6
CONTINUOUS
370
25
 62
7
100
AcDbLine
 10
4.467364425927869
 20
14.89348288518557
 30
0.0
 11
5.0
 21
14.36084731111344
 31
0.0
  0
LINE
  5
789
330
1F
100
AcDbEntity
  8
SK2
  6
CONTINUOUS
370
25
 62
7
100
AcDbLine
 10
4.820917816521138
 20
14.96419356330423
 30
0.0
 11
5.0
 21
14.78511137982537
 31
0.0
  0
LINE
  5
78A
330
1F
100
AcDbEntity
  8
SK2
  6
CONTINUOUS
370
25
 62
7
100
AcDbLine
 10
40.9
 20
14.00001
 30
0.0
 11
35.9
 21
13.00001
 31
0.0
  0
LINE
  5
78B
330
1F
100
AcDbEntity
  8
SK2
  6
CONTINUOUS
370
25
 62
7
100
AcDbLine
 10
35.9
 20
13.00001
 30
0.0
 11
35.9
 21
15.00001
 31
0.0
  0
LINE
  5
78C
330
1F
100
AcDbEntity
  8
SK2
  6
CONTINUOUS
370
25
 62
7
100
AcDbLine
 10
35.9
 20
15.00001
 30
0.0
 11
40.9
 21
14.00001
 31
0.0
  0
LINE
  5
78D
330
1F
100
AcDbEntity
  8
SK2
  6
CONTINUOUS
370
25
 62
7
100
AcDbLine
 10
40.89911966563294
 20
13.99983393312659
 30
0.0
 11
40.89941311042196
 21
14.00012737791561
 31
0.0
  0
LINE
  5
78E
330
1F
100
AcDbEntity
  8
SK2
  6
CONTINUOUS
370
25
 62
7
100
AcDbLine
 10
40.36878957974304
 20
13.89376791594861
 30
0.0
 11
40.54585971982869
 21
14.07083805603426
 31
0.0
  0
LINE
  5
78F
330
1F
100
AcDbEntity
  8
SK2
  6
CONTINUOUS
370
25
 62
7
100
AcDbLine
 10
39.83845949385313
 20
13.78770189877063
 30
0.0
 11
40.19230632923541
 21
14.14154873415292
 31
0.0
  0
LINE
  5
790
330
1F
100
AcDbEntity
  8
SK2
  6
CONTINUOUS
370
25
 62
7
100
AcDbLine
 10
39.30812940796322
 20
13.68163588159264
 30
0.0
 11
39.83875293864214
 21
14.21225941227157
 31
0.0
  0
LINE
  5
791
330
1F
100
AcDbEntity
  8
SK2
  6
CONTINUOUS
370
25
 62
7
100
AcDbLine
 10
38.77779932207331
 20
13.57556986441466
 30
0.0
 11
39.48519954804887
 21
14.28297009039023
 31
0.0
  0
LINE
  5
792
330
1F
100
AcDbEntity
  8
SK2
  6
CONTINUOUS
370
25
 62
7
100
AcDbLine
 10
38.2474692361834
 20
13.46950384723668
 30
0.0
 11
39.1316461574556
 21
14.35368076850888
 31
0.0
  0
LINE
  5
793
330
1F
100
AcDbEntity
  8
SK2
  6
CONTINUOUS
370
25
 62
7
100
AcDbLine
 10
37.71713915029348
 20
13.3634378300587
 30
0.0
 11
38.77809276686232
 21
14.42439144662753
 31
0.0
  0
LINE
  5
794
330
1F
100
AcDbEntity
  8
SK2
  6
CONTINUOUS
370
25
 62
7
100
AcDbLine
 10
37.18680906440358
 20
13.25737181288071
 30
0.0
 11
38.42453937626905
 21
14.49510212474619
 31
0.0
  0
LINE
  5
795
330
1F
100
AcDbEntity
  8
SK2
  6
CONTINUOUS
370
25
 62
7
100
AcDbLine
 10
36.65647897851367
 20
13.15130579570273
 30
0.0
 11
38.07098598567578
 21
14.56581280286484
 31
0.0
  0
LINE
  5
796
330
1F
100
AcDbEntity
  8
SK2
  6
CONTINUOUS
370
25
 62
7
100
AcDbLine
 10
36.12614889262376
 20
13.04523977852475
 30
0.0
 11
37.71743259508251
 21
14.6365234809835
 31
0.0
  0
LINE
  5
797
330
1F
100
AcDbEntity
  8
SK2
  6
CONTINUOUS
370
25
 62
7
100
AcDbLine
 10
35.9
 20
13.24335495461292
 30
0.0
 11
37.36387920448923
 21
14.70723415910215
 31
0.0
  0
LINE
  5
798
330
1F
100
AcDbEntity
  8
SK2
  6
CONTINUOUS
370
25
 62
7
100
AcDbLine
 10
35.9
 20
13.66761902332485
 30
0.0
 11
37.01032581389596
 21
14.77794483722081
 31
0.0
  0
LINE
  5
799
330
1F
100
AcDbEntity
  8
SK2
  6
CONTINUOUS
370
25
 62
7
100
AcDbLine
 10
35.9
 20
14.09188309203677
 30
0.0
 11
36.65677242330268
 21
14.84865551533946
 31
0.0
  0
LINE
  5
79A
330
1F
100
AcDbEntity
  8
SK2
  6
CONTINUOUS
370
25
 62
7
100
AcDbLine
 10
35.9
 20
14.5161471607487
 30
0.0
 11
36.30321903270941
 21
14.91936619345812
 31
0.0
  0
LINE
  5
79B
330
1F
100
AcDbEntity
  8
SK2
  6
CONTINUOUS
370
25
 62
7
100
AcDbLine
 10
35.9
 20
14.94041122946063
 30
0.0
 11
35.94966564211614
 21
14.99007687157677
 31
0.0
  0
LINE
  5
79C
330
1F
100
AcDbEntity
  8
SK2
  6
CONTINUOUS
370
25
 62
7
100
AcDbLine
 10
35.9
 20
13.06101730552664
 30
0.0
 11
35.9508394212722
 21
13.01017788425444
 31
0.0
  0
LINE
  5
79D
330
1F
100
AcDbEntity
  8
SK2
  6
CONTINUOUS
370
25
 62
7
100
AcDbLine
 10
35.9
 20
13.48528137423857
 30
0.0
 11
36.30439281186548
 21
13.08088856237309
 31
0.0
  0
LINE
  5
79E
330
1F
100
AcDbEntity
  8
SK2
  6
CONTINUOUS
370
25
 62
7
100
AcDbLine
 10
35.9
 20
13.9095454429505
 30
0.0
 11
36.65794620245875
 21
13.15159924049175
 31
0.0
  0
LINE
  5
79F
330
1F
100
AcDbEntity
  8
SK2
  6
CONTINUOUS
370
25
 62
7
100
AcDbLine
 10
35.9
 20
14.33380951166242
 30
0.0
 11
37.01149959305202
 21
13.2223099186104
 31
0.0
  0
LINE
  5
7A0
330
1F
100
AcDbEntity
  8
SK2
  6
CONTINUOUS
370
25
 62
7
100
AcDbLine
 10
35.9
 20
14.75807358037435
 30
0.0
 11
37.36505298364529
 21
13.29302059672906
 31
0.0
  0
LINE
  5
7A1
330
1F
100
AcDbEntity
  8
SK2
  6
CONTINUOUS
370
25
 62
7
100
AcDbLine
 10
36.12790956135785
 20
14.95442808772843
 30
0.0
 11
37.71860637423857
 21
13.36373127484771
 31
0.0
  0
LINE
  5
7A2
330
1F
100
AcDbEntity
  8
SK2
  6
CONTINUOUS
370
25
 62
7
100
AcDbLine
 10
36.65823964724775
 20
14.84836207055045
 30
0.0
 11
38.07215976483184
 21
13.43444195296637
 31
0.0
  0
LINE
  5
7A3
330
1F
100
AcDbEntity
  8
SK2
  6
CONTINUOUS
370
25
 62
7
100
AcDbLine
 10
37.18856973313767
 20
14.74229605337247
 30
0.0
 11
38.42571315542511
 21
13.50515263108502
 31
0.0
  0
LINE
  5
7A4
330
1F
100
AcDbEntity
  8
SK2
  6
CONTINUOUS
370
25
 62
7
100
AcDbLine
 10
37.71889981902758
 20
14.63623003619448
 30
0.0
 11
38.77926654601838
 21
13.57586330920368
 31
0.0
  0
LINE
  5
7A5
330
1F
100
AcDbEntity
  8
SK2
  6
CONTINUOUS
370
25
 62
7
100
AcDbLine
 10
38.24922990491748
 20
14.5301640190165
 30
0.0
 11
39.13281993661166
 21
13.64657398732233
 31
0.0
  0
LINE
  5
7A6
330
1F
100
AcDbEntity
  8
SK2
  6
CONTINUOUS
370
25
 62
7
100
AcDbLine
 10
38.7795599908074
 20
14.42409800183852
 30
0.0
 11
39.48637332720494
 21
13.71728466544099
 31
0.0
  0
LINE
  5
7A7
330
1F
100
AcDbEntity
  8
SK2
  6
CONTINUOUS
370
25
 62
7
100
AcDbLine
 10
39.30989007669731
 20
14.31803198466054
 30
0.0
 11
39.83992671779821
 21
13.78799534355964
 31
0.0
  0
LINE
  5
7A8
330
1F
100
AcDbEntity
  8
SK2
  6
CONTINUOUS
370
25
 62
7
100
AcDbLine
 10
39.84022016258722
 20
14.21196596748256
 30
0.0
 11
40.19348010839148
 21
13.8587060216783
 31
0.0
  0
LINE
  5
7A9
330
1F
100
AcDbEntity
  8
SK2
  6
CONTINUOUS
370
25
 62
7
100
AcDbLine
 10
40.37055024847713
 20
14.10589995030457
 30
0.0
 11
40.54703349898475
 21
13.92941669979695
 31
0.0
  0
TEXT
  5
7AA
330
1F
100
AcDbEntity
  8
SK2
  6
CONTINUOUS
370
25
 62
7
100
AcDbText
 10
15.49166666666667
 20
15.50001
 30
0.0
 40
3.5
  1
40.9
 72
     1
 11
20.45
 21
15.50001
 31
0.0
100
AcDbText
  0
LINE
  5
7AB
330
1F
100
AcDbEntity
  8
2
  6
CONTINUOUS
370
25
 62
7
100
AcDbLine
 10
49.34999999999999
 20
-0.6499999999999999
 30
0.0
 11
76.925
 21
-0.6500000000000032
 31
0.0
  0
LINE
  5
7AC
330
1F
100
AcDbEntity
  8
2
  6
CONTINUOUS
370
25
 62
7
100
AcDbLine
 10
76.925
 20
0.6499999999999968
 30
0.0
 11
49.34999999999999
 21
0.6500000000000001
 31
0.0
  0
LINE
  5
7AD
330
1F
100
AcDbEntity
  8
2
  6
CONTINUOUS
370
25
 62
7
100
AcDbLine
 10
75.925
 20
-7.650000000000003
 30
0.0
 11
75.925
 21
20.075
 31
0.0
  0
LINE
  5
7AE
330
1F
100
AcDbEntity
  8
2
  6
CONTINUOUS
370
25
 62
7
100
AcDbLine
 10
75.925
 20
-0.6500000000000031
 30
0.0
 11
76.925
 21
-5.650000000000003
 31
0.0
  0
LINE
  5
7AF
330
1F
100
AcDbEntity
  8
2
  6
CONTINUOUS
370
25
 62
7
100
AcDbLine
 10
76.925
 20
-5.650000000000003
 30
0.0
 11
74.925
 21
-5.650000000000003
 31
0.0
  0
LINE
  5
7B0
330
1F
100
AcDbEntity
  8
2
  6
CONTINUOUS
370
25
 62
7
100
AcDbLine
 10
74.925
 20
-5.650000000000003
 30
0.0
 11
75.925
 21
-0.6500000000000031
 31
0.0
  0
LINE
  5
7B1
330
1F
100
AcDbEntity
  8
2
  6
CONTINUOUS
370
25
 62
7
100
AcDbLine
 10
76.70241945207192
 20
-5.650000000000006
 30
0.0
 11
76.88790324201199
 21
-5.464516210059941
 31
0.0
  0
LINE
  5
7B2
330
1F
100
AcDbEntity
  8
2
  6
CONTINUOUS
370
25
 62
7
100
AcDbLine
 10
76.27815538336
 20
-5.650000000000006
 30
0.0
 11
76.81719256389333
 21
-5.110962819466671
 31
0.0
  0
LINE
  5
7B3
330
1F
100
AcDbEntity
  8
2
  6
CONTINUOUS
370
25
 62
7
100
AcDbLine
 10
75.85389131464807
 20
-5.650000000000006
 30
0.0
 11
76.74648188577467
 21
-4.757409428873387
 31
0.0
  0
LINE
  5
7B4
330
1F
100
AcDbEntity
  8
2
  6
CONTINUOUS
370
25
 62
7
100
AcDbLine
 10
75.42962724593613
 20
-5.650000000000006
 30
0.0
 11
76.67577120765603
 21
-4.403856038280118
 31
0.0
  0
LINE
  5
7B5
330
1F
100
AcDbEntity
  8
2
  6
CONTINUOUS
370
25
 62
7
100
AcDbLine
 10
75.00536317722421
 20
-5.650000000000006
 30
0.0
 11
76.60506052953737
 21
-4.050302647686841
 31
0.0
  0
LINE
  5
7B6
330
1F
100
AcDbEntity
  8
2
  6
CONTINUOUS
370
25
 62
7
100
AcDbLine
 10
75.01097522287193
 20
-5.220123885640341
 30
0.0
 11
76.53434985141871
 21
-3.696749257093572
 31
0.0
  0
LINE
  5
7B7
330
1F
100
AcDbEntity
  8
2
  6
CONTINUOUS
370
25
 62
7
100
AcDbLine
 10
75.1170412400499
 20
-4.689793799750447
 30
0.0
 11
76.46363917330007
 21
-3.343195866500295
 31
0.0
  0
LINE
  5
7B8
330
1F
100
AcDbEntity
  8
2
  6
CONTINUOUS
370
25
 62
7
100
AcDbLine
 10
75.2231072572279
 20
-4.159463713860525
 30
0.0
 11
76.3929284951814
 21
-2.989642475907011
 31
0.0
  0
LINE
  5
7B9
330
1F
100
AcDbEntity
  8
2
  6
CONTINUOUS
370
25
 62
7
100
AcDbLine
 10
75.32917327440587
 20
-3.629133627970617
 30
0.0
 11
76.32221781706275
 21
-2.636089085313742
 31
0.0
  0
LINE
  5
7BA
330
1F
100
AcDbEntity
  8
2
  6
CONTINUOUS
370
25
 62
7
100
AcDbLine
 10
75.43523929158385
 20
-3.098803542080702
 30
0.0
 11
76.25150713894409
 21
-2.282535694720465
 31
0.0
  0
LINE
  5
7BB
330
1F
100
AcDbEntity
  8
2
  6
CONTINUOUS
370
25
 62
7
100
AcDbLine
 10
75.54130530876184
 20
-2.568473456190787
 30
0.0
 11
76.18079646082543
 21
-1.928982304127182
 31
0.0
  0
LINE
  5
7BC
330
1F
100
AcDbEntity
  8
2
  6
CONTINUOUS
370
25
 62
7
100
AcDbLine
 10
75.64737132593983
 20
-2.038143370300872
 30
0.0
 11
76.11008578270679
 21
-1.575428913533919
 31
0.0
  0
LINE
  5
7BD
330
1F
100
AcDbEntity
  8
2
  6
CONTINUOUS
370
25
 62
7
100
AcDbLine
 10
75.75343734311781
 20
-1.507813284410958
 30
0.0
 11
76.03937510458812
 21
-1.221875522940643
 31
0.0
  0
LINE
  5
7BE
330
1F
100
AcDbEntity
  8
2
  6
CONTINUOUS
370
25
 62
7
100
AcDbLine
 10
75.85950336029579
 20
-0.9774831985210497
 30
0.0
 11
75.96866442646947
 21
-0.868322132347366
 31
0.0
  0
LINE
  5
7BF
330
1F
100
AcDbEntity
  8
2
  6
CONTINUOUS
370
25
 62
7
100
AcDbLine
 10
74.9334487672832
 20
-5.607756163584003
 30
0.0
 11
74.9756926036992
 21
-5.650000000000002
 31
0.0
  0
LINE
  5
7C0
330
1F
100
AcDbEntity
  8
2
  6
CONTINUOUS
370
25
 62
7
100
AcDbLine
 10
75.00415944540185
 20
-5.254202772990723
 30
0.0
 11
75.39995667241114
 21
-5.650000000000006
 31
0.0
  0
LINE
  5
7C1
330
1F
100
AcDbEntity
  8
2
  6
CONTINUOUS
370
25
 62
7
100
AcDbLine
 10
75.07487012352051
 20
-4.900649382397454
 30
0.0
 11
75.82422074112307
 21
-5.650000000000006
 31
0.0
  0
LINE
  5
7C2
330
1F
100
AcDbEntity
  8
2
  6
CONTINUOUS
370
25
 62
7
100
AcDbLine
 10
75.14558080163917
 20
-4.547095991804174
 30
0.0
 11
76.24848480983499
 21
-5.650000000000002
 31
0.0
  0
LINE
  5
7C3
330
1F
100
AcDbEntity
  8
2
  6
CONTINUOUS
370
25
 62
7
100
AcDbLine
 10
75.21629147975781
 20
-4.193542601210904
 30
0.0
 11
76.67274887854693
 21
-5.650000000000002
 31
0.0
  0
LINE
  5
7C4
330
1F
100
AcDbEntity
  8
2
  6
CONTINUOUS
370
25
 62
7
100
AcDbLine
 10
75.28700215787649
 20
-3.839989210617638
 30
0.0
 11
76.88199676318527
 21
-5.434983815926429
 31
0.0
  0
LINE
  5
7C5
330
1F
100
AcDbEntity
  8
2
  6
CONTINUOUS
370
25
 62
7
100
AcDbLine
 10
75.35771283599513
 20
-3.486435820024354
 30
0.0
 11
76.7759307460073
 21
-4.904653730036522
 31
0.0
  0
LINE
  5
7C6
330
1F
100
AcDbEntity
  8
2
  6
CONTINUOUS
370
25
 62
7
100
AcDbLine
 10
75.42842351411377
 20
-3.132882429431085
 30
0.0
 11
76.66986472882931
 21
-4.374323644146614
 31
0.0
  0
LINE
  5
7C7
330
1F
100
AcDbEntity
  8
2
  6
CONTINUOUS
370
25
 62
7
100
AcDbLine
 10
75.49913419223245
 20
-2.779329038837812
 30
0.0
 11
76.56379871165134
 21
-3.843993558256702
 31
0.0
  0
LINE
  5
7C8
330
1F
100
AcDbEntity
  8
2
  6
CONTINUOUS
370
25
 62
7
100
AcDbLine
 10
75.56984487035109
 20
-2.425775648244532
 30
0.0
 11
76.45773269447335
 21
-3.313663472366791
 31
0.0
  0
LINE
  5
7C9
330
1F
100
AcDbEntity
  8
2
  6
CONTINUOUS
370
25
 62
7
100
AcDbLine
 10
75.64055554846975
 20
-2.072222257651262
 30
0.0
 11
76.35166667729537
 21
-2.783333386476883
 31
0.0
  0
LINE
  5
7CA
330
1F
100
AcDbEntity
  8
2
  6
CONTINUOUS
370
25
 62
7
100
AcDbLine
 10
75.7112662265884
 20
-1.718668867057985
 30
0.0
 11
76.24560066011739
 21
-2.253003300586975
 31
0.0
  0
LINE
  5
7CB
330
1F
100
AcDbEntity
  8
2
  6
CONTINUOUS
370
25
 62
7
100
AcDbLine
 10
75.78197690470705
 20
-1.365115476464709
 30
0.0
 11
76.13953464293941
 21
-1.72267321469706
 31
0.0
  0
LINE
  5
7CC
330
1F
100
AcDbEntity
  8
2
  6
CONTINUOUS
370
25
 62
7
100
AcDbLine
 10
75.85268758282571
 20
-1.011562085871432
 30
0.0
 11
76.03346862576143
 21
-1.192343128807153
 31
0.0
  0
LINE
  5
7CD
330
1F
100
AcDbEntity
  8
2
  6
CONTINUOUS
370
25
 62
7
100
AcDbLine
 10
75.92339826094437
 20
-0.6580086952781627
 30
0.0
 11
75.92740260858344
 21
-0.6620130429172377
 31
0.0
  0
LINE
  5
7CE
330
1F
100
AcDbEntity
  8
2
  6
CONTINUOUS
370
25
 62
7
100
AcDbLine
 10
75.925
 20
0.6499999999999969
 30
0.0
 11
74.925
 21
5.649999999999997
 31
0.0
  0
LINE
  5
7CF
330
1F
100
AcDbEntity
  8
2
  6
CONTINUOUS
370
25
 62
7
100
AcDbLine
 10
74.925
 20
5.649999999999997
 30
0.0
 11
76.925
 21
5.649999999999997
 31
0.0
  0
LINE
  5
7D0
330
1F
100
AcDbEntity
  8
2
  6
CONTINUOUS
370
25
 62
7
100
AcDbLine
 10
76.925
 20
5.649999999999997
 30
0.0
 11
75.925
 21
0.6499999999999969
 31
0.0
  0
LINE
  5
7D1
330
1F
100
AcDbEntity
  8
2
  6
CONTINUOUS
370
25
 62
7
100
AcDbLine
 10
75.92380872422116
 20
0.6559563788941674
 30
0.0
 11
75.92678691366825
 21
0.6589345683412589
 31
0.0
  0
LINE
  5
7D2
330
1F
100
AcDbEntity
  8
2
  6
CONTINUOUS
370
25
 62
7
100
AcDbLine
 10
75.8530980461025
 20
1.009509769487451
 30
0.0
 11
76.03285293084623
 21
1.189264654231174
 31
0.0
  0
LINE
  5
7D3
330
1F
100
AcDbEntity
  8
2
  6
CONTINUOUS
370
25
 62
7
100
AcDbLine
 10
75.78238736798386
 20
1.363063160080728
 30
0.0
 11
76.13891894802421
 21
1.719594740121096
 31
0.0
  0
LINE
  5
7D4
330
1F
100
AcDbEntity
  8
2
  6
CONTINUOUS
370
25
 62
7
100
AcDbLine
 10
75.7116766898652
 20
1.716616550674004
 30
0.0
 11
76.2449849652022
 21
2.249924826011004
 31
0.0
  0
LINE
  5
7D5
330
1F
100
AcDbEntity
  8
2
  6
CONTINUOUS
370
25
 62
7
100
AcDbLine
 10
75.64096601174654
 20
2.070169941267274
 30
0.0
 11
76.35105098238017
 21
2.780254911900911
 31
0.0
  0
LINE
  5
7D6
330
1F
100
AcDbEntity
  8
2
  6
CONTINUOUS
370
25
 62
7
100
AcDbLine
 10
75.5702553336279
 20
2.42372333186055
 30
0.0
 11
76.45711699955817
 21
3.310584997790826
 31
0.0
  0
LINE
  5
7D7
330
1F
100
AcDbEntity
  8
2
  6
CONTINUOUS
370
25
 62
7
100
AcDbLine
 10
75.49954465550924
 20
2.777276722453831
 30
0.0
 11
76.56318301673613
 21
3.840915083680731
 31
0.0
  0
LINE
  5
7D8
330
1F
100
AcDbEntity
  8
2
  6
CONTINUOUS
370
25
 62
7
100
AcDbLine
 10
75.42883397739058
 20
3.130830113047097
 30
0.0
 11
76.66924903391413
 21
4.371245169570656
 31
0.0
  0
LINE
  5
7D9
330
1F
100
AcDbEntity
  8
2
  6
CONTINUOUS
370
25
 62
7
100
AcDbLine
 10
75.35812329927192
 20
3.484383503640373
 30
0.0
 11
76.77531505109211
 21
4.901575255460564
 31
0.0
  0
LINE
  5
7DA
330
1F
100
AcDbEntity
  8
2
  6
CONTINUOUS
370
25
 62
7
100
AcDbLine
 10
75.28741262115327
 20
3.83793689423365
 30
0.0
 11
76.88138106827009
 21
5.431905341350472
 31
0.0
  0
LINE
  5
7DB
330
1F
100
AcDbEntity
  8
2
  6
CONTINUOUS
370
25
 62
7
100
AcDbLine
 10
75.21670194303462
 20
4.191490284826923
 30
0.0
 11
76.67521165820767
 21
5.649999999999995
 31
0.0
  0
LINE
  5
7DC
330
1F
100
AcDbEntity
  8
2
  6
CONTINUOUS
370
25
 62
7
100
AcDbLine
 10
75.14599126491595
 20
4.545043675420192
 30
0.0
 11
76.25094758949575
 21
5.649999999999995
 31
0.0
  0
LINE
  5
7DD
330
1F
100
AcDbEntity
  8
2
  6
CONTINUOUS
370
25
 62
7
100
AcDbLine
 10
75.0752805867973
 20
4.898597066013473
 30
0.0
 11
75.82668352078383
 21
5.649999999999999
 31
0.0
  0
LINE
  5
7DE
330
1F
100
AcDbEntity
  8
2
  6
CONTINUOUS
370
25
 62
7
100
AcDbLine
 10
75.00456990867865
 20
5.252150456606749
 30
0.0
 11
75.4024194520719
 21
5.649999999999999
 31
0.0
  0
LINE
  5
7DF
330
1F
100
AcDbEntity
  8
2
  6
CONTINUOUS
370
25
 62
7
100
AcDbLine
 10
74.93385923055999
 20
5.605703847200033
 30
0.0
 11
74.97815538335996
 21
5.649999999999999
 31
0.0
  0
LINE
  5
7E0
330
1F
100
AcDbEntity
  8
2
  6
CONTINUOUS
370
25
 62
7
100
AcDbLine
 10
75.82813853987153
 20
1.134307300642384
 30
0.0
 11
75.98957430675232
 21
0.972871533761591
 31
0.0
  0
LINE
  5
7E1
330
1F
100
AcDbEntity
  8
2
  6
CONTINUOUS
370
25
 62
7
100
AcDbLine
 10
75.72207252269354
 20
1.664637386532291
 30
0.0
 11
76.06028498487098
 21
1.326424924354868
 31
0.0
  0
LINE
  5
7E2
330
1F
100
AcDbEntity
  8
2
  6
CONTINUOUS
370
25
 62
7
100
AcDbLine
 10
75.61600650551556
 20
2.194967472422206
 30
0.0
 11
76.13099566298962
 21
1.679978314948137
 31
0.0
  0
LINE
  5
7E3
330
1F
100
AcDbEntity
  8
2
  6
CONTINUOUS
370
25
 62
7
100
AcDbLine
 10
75.50994048833758
 20
2.725297558312121
 30
0.0
 11
76.20170634110829
 21
2.033531705541414
 31
0.0
  0
LINE
  5
7E4
330
1F
100
AcDbEntity
  8
2
  6
CONTINUOUS
370
25
 62
7
100
AcDbLine
 10
75.4038744711596
 20
3.255627644202022
 30
0.0
 11
76.27241701922694
 21
2.38708509613469
 31
0.0
  0
LINE
  5
7E5
330
1F
100
AcDbEntity
  8
2
  6
CONTINUOUS
370
25
 62
7
100
AcDbLine
 10
75.29780845398162
 20
3.78595773009193
 30
0.0
 11
76.34312769734558
 21
2.740638486727967
 31
0.0
  0
LINE
  5
7E6
330
1F
100
AcDbEntity
  8
2
  6
CONTINUOUS
370
25
 62
7
100
AcDbLine
 10
75.19174243680364
 20
4.316287815981838
 30
0.0
 11
76.41383837546425
 21
3.094191877321236
 31
0.0
  0
LINE
  5
7E7
330
1F
100
AcDbEntity
  8
2
  6
CONTINUOUS
370
25
 62
7
100
AcDbLine
 10
75.08567641962566
 20
4.846617901871753
 30
0.0
 11
76.4845490535829
 21
3.447745267914513
 31
0.0
  0
LINE
  5
7E8
330
1F
100
AcDbEntity
  8
2
  6
CONTINUOUS
370
25
 62
7
100
AcDbLine
 10
74.97961040244768
 20
5.376947987761653
 30
0.0
 11
76.55525973170155
 21
3.80129865850779
 31
0.0
  0
LINE
  5
7E9
330
1F
100
AcDbEntity
  8
2
  6
CONTINUOUS
370
25
 62
7
100
AcDbLine
 10
75.13082245892126
 20
5.649999999999999
 30
0.0
 11
76.62597040982021
 21
4.154852049101059
 31
0.0
  0
LINE
  5
7EA
330
1F
100
AcDbEntity
  8
2
  6
CONTINUOUS
370
25
 62
7
100
AcDbLine
 10
75.5550865276332
 20
5.649999999999999
 30
0.0
 11
76.69668108793886
 21
4.508405439694336
 31
0.0
  0
LINE
  5
7EB
330
1F
100
AcDbEntity
  8
2
  6
CONTINUOUS
370
25
 62
7
100
AcDbLine
 10
75.97935059634511
 20
5.649999999999999
 30
0.0
 11
76.76739176605753
 21
4.861958830287605
 31
0.0
  0
LINE
  5
7EC
330
1F
100
AcDbEntity
  8
2
  6
CONTINUOUS
370
25
 62
7
100
AcDbLine
 10
76.40361466505706
 20
5.649999999999999
 30
0.0
 11
76.83810244417617
 21
5.215512220880882
 31
0.0
  0
LINE
  5
7ED
330
1F
100
AcDbEntity
  8
2
  6
CONTINUOUS
370
25
 62
7
100
AcDbLine
 10
76.82787873376898
 20
5.649999999999999
 30
0.0
 11
76.90881312229483
 21
5.569065611474151
 31
0.0
  0
TEXT
  5
7EE
330
1F
100
AcDbEntity
  8
2
  6
CONTINUOUS
370
25
 62
7
100
AcDbText
 10
74.425
 20
12.22083333333333
 30
0.0
 40
3.5
  1
1.3
 50
90.00000000000001
 72
     1
 11
74.425
 21
15.1375
 31
0.0
100
AcDbText
  0
CIRCLE
  5
7EF
330
1F
100
AcDbEntity
  8
2
  6
CONTINUOUS
370
25
 62
7
100
AcDbCircle
 10
72.675
 20
8.662499999999994
 30
0.0
 40
1.4
  0
LINE
  5
7F0
330
1F
100
AcDbEntity
  8
2
  6
CONTINUOUS
370
25
 62
7
100
AcDbLine
 10
74.07499999999999
 20
7.262499999999995
 30
0.0
 11
71.275
 21
10.06249999999999
 31
0.0
  0
LINE
  5
7F1
330
1F
100
AcDbEntity
  8
2
  6
CONTINUOUS
370
25
 62
7
100
AcDbLine
 10
46.8
 20
-0.65
 30
0.0
 11
46.8
 21
-13.65
 31
0.0
  0
LINE
  5
7F2
330
1F
100
AcDbEntity
  8
2
  6
CONTINUOUS
370
25
 62
7
100
AcDbLine
 10
50.0
 20
-13.65
 30
0.0
 11
50.0
 21
-0.6500000000000004
 31
0.0
  0
LINE
  5
7F3
330
1F
100
AcDbEntity
  8
2
  6
CONTINUOUS
370
25
 62
7
100
AcDbLine
 10
39.8
 20
-12.65
 30
0.0
 11
65.925
 21
-12.65
 31
0.0
  0
LINE
  5
7F4
330
1F
100
AcDbEntity
  8
2
  6
CONTINUOUS
370
25
 62
7
100
AcDbLine
 10
46.8
 20
-12.65
 30
0.0
 11
41.8
 21
-13.65
 31
0.0
  0
LINE
  5
7F5
330
1F
100
AcDbEntity
  8
2
  6
CONTINUOUS
370
25
 62
7
100
AcDbLine
 10
41.8
 20
-13.65
 30
0.0
 11
41.8
 21
-11.65
 31
0.0
  0
LINE
  5
7F6
330
1F
100
AcDbEntity
  8
2
  6
CONTINUOUS
370
25
 62
7
100
AcDbLine
 10
41.8
 20
-11.65
 30
0.0
 11
46.8
 21
-12.65
 31
0.0
  0
LINE
  5
7F7
330
1F
100
AcDbEntity
  8
2
  6
CONTINUOUS
370
25
 62
7
100
AcDbLine
 10
46.63202860958541
 20
-12.68359427808292
 30
0.0
 11
46.68801907305694
 21
-12.62760381461139
 31
0.0
  0
LINE
  5
7F8
330
1F
100
AcDbEntity
  8
2
  6
CONTINUOUS
370
25
 62
7
100
AcDbLine
 10
46.1016985236955
 20
-12.7896602952609
 30
0.0
 11
46.33446568246367
 21
-12.55689313649274
 31
0.0
  0
LINE
  5
7F9
330
1F
100
AcDbEntity
  8
2
  6
CONTINUOUS
370
25
 62
7
100
AcDbLine
 10
45.5713684378056
 20
-12.89572631243888
 30
0.0
 11
45.9809122918704
 21
-12.48618245837408
 31
0.0
  0
LINE
  5
7FA
330
1F
100
AcDbEntity
  8
2
  6
CONTINUOUS
370
25
 62
7
100
AcDbLine
 10
45.04103835191568
 20
-13.00179232961686
 30
0.0
 11
45.62735890127712
 21
-12.41547178025543
 31
0.0
  0
LINE
  5
7FB
330
1F
100
AcDbEntity
  8
2
  6
CONTINUOUS
370
25
 62
7
100
AcDbLine
 10
44.51070826602577
 20
-13.10785834679485
 30
0.0
 11
45.27380551068385
 21
-12.34476110213677
 31
0.0
  0
LINE
  5
7FC
330
1F
100
AcDbEntity
  8
2
  6
CONTINUOUS
370
25
 62
7
100
AcDbLine
 10
43.98037818013587
 20
-13.21392436397283
 30
0.0
 11
44.92025212009057
 21
-12.27405042401812
 31
0.0
  0
LINE
  5
7FD
330
1F
100
AcDbEntity
  8
2
  6
CONTINUOUS
370
25
 62
7
100
AcDbLine
 10
43.45004809424595
 20
-13.31999038115081
 30
0.0
 11
44.5666987294973
 21
-12.20333974589946
 31
0.0
  0
LINE
  5
7FE
330
1F
100
AcDbEntity
  8
2
  6
CONTINUOUS
370
25
 62
7
100
AcDbLine
 10
42.91971800835604
 20
-13.42605639832879
 30
0.0
 11
44.21314533890403
 21
-12.13262906778081
 31
0.0
  0
LINE
  5
7FF
330
1F
100
AcDbEntity
  8
2
  6
CONTINUOUS
370
25
 62
7
100
AcDbLine
 10
42.38938792246613
 20
-13.53212241550677
 30
0.0
 11
43.85959194831076
 21
-12.06191838966215
 31
0.0
  0
LINE
  5
800
330
1F
100
AcDbEntity
  8
2
  6
CONTINUOUS
370
25
 62
7
100
AcDbLine
 10
41.85905783657622
 20
-13.63818843268476
 30
0.0
 11
43.50603855771748
 21
-11.9912077115435
 31
0.0
  0
LINE
  5
801
330
1F
100
AcDbEntity
  8
2
  6
CONTINUOUS
370
25
 62
7
100
AcDbLine
 10
41.8
 20
-13.27298220054905
 30
0.0
 11
43.15248516712421
 21
-11.92049703342484
 31
0.0
  0
LINE
  5
802
330
1F
100
AcDbEntity
  8
2
  6
CONTINUOUS
370
25
 62
7
100
AcDbLine
 10
41.8
 20
-12.84871813183712
 30
0.0
 11
42.79893177653094
 21
-11.84978635530619
 31
0.0
  0
LINE
  5
803
330
1F
100
AcDbEntity
  8
2
  6
CONTINUOUS
370
25
 62
7
100
AcDbLine
 10
41.8
 20
-12.42445406312519
 30
0.0
 11
42.44537838593766
 21
-11.77907567718753
 31
0.0
  0
LINE
  5
804
330
1F
100
AcDbEntity
  8
2
  6
CONTINUOUS
370
25
 62
7
100
AcDbLine
 10
41.8
 20
-12.00018999441327
 30
0.0
 11
42.09182499534439
 21
-11.70836499906888
 31
0.0
  0
LINE
  5
805
330
1F
100
AcDbEntity
  8
2
  6
CONTINUOUS
370
25
 62
7
100
AcDbLine
 10
41.8
 20
-13.35237612448307
 30
0.0
 11
42.04801989626411
 21
-13.60039602074718
 31
0.0
  0
LINE
  5
806
330
1F
100
AcDbEntity
  8
2
  6
CONTINUOUS
370
25
 62
7
100
AcDbLine
 10
41.8
 20
-12.92811205577114
 30
0.0
 11
42.40157328685738
 21
-13.52968534262852
 31
0.0
  0
LINE
  5
807
330
1F
100
AcDbEntity
  8
2
  6
CONTINUOUS
370
25
 62
7
100
AcDbLine
 10
41.8
 20
-12.50384798705921
 30
0.0
 11
42.75512667745065
 21
-13.45897466450987
 31
0.0
  0
LINE
  5
808
330
1F
100
AcDbEntity
  8
2
  6
CONTINUOUS
370
25
 62
7
100
AcDbLine
 10
41.8
 20
-12.07958391834728
 30
0.0
 11
43.10868006804393
 21
-13.38826398639121
 31
0.0
  0
LINE
  5
809
330
1F
100
AcDbEntity
  8
2
  6
CONTINUOUS
370
25
 62
7
100
AcDbLine
 10
41.8
 20
-11.65531984963535
 30
0.0
 11
43.4622334586372
 21
-13.31755330827256
 31
0.0
  0
LINE
  5
80A
330
1F
100
AcDbEntity
  8
2
  6
CONTINUOUS
370
25
 62
7
100
AcDbLine
 10
42.32368027384572
 20
-11.75473605476914
 30
0.0
 11
43.81578684923048
 21
-13.2468426301539
 31
0.0
  0
LINE
  5
80B
330
1F
100
AcDbEntity
  8
2
  6
CONTINUOUS
370
25
 62
7
100
AcDbLine
 10
42.85401035973563
 20
-11.86080207194713
 30
0.0
 11
44.16934023982375
 21
-13.17613195203525
 31
0.0
  0
LINE
  5
80C
330
1F
100
AcDbEntity
  8
2
  6
CONTINUOUS
370
25
 62
7
100
AcDbLine
 10
43.38434044562554
 20
-11.96686808912511
 30
0.0
 11
44.52289363041702
 21
-13.10542127391659
 31
0.0
  0
LINE
  5
80D
330
1F
100
AcDbEntity
  8
2
  6
CONTINUOUS
370
25
 62
7
100
AcDbLine
 10
43.91467053151545
 20
-12.07293410630309
 30
0.0
 11
44.8764470210103
 21
-13.03471059579794
 31
0.0
  0
LINE
  5
80E
330
1F
100
AcDbEntity
  8
2
  6
CONTINUOUS
370
25
 62
7
100
AcDbLine
 10
44.44500061740536
 20
-12.17900012348107
 30
0.0
 11
45.23000041160357
 21
-12.96399991767928
 31
0.0
  0
LINE
  5
80F
330
1F
100
AcDbEntity
  8
2
  6
CONTINUOUS
370
25
 62
7
100
AcDbLine
 10
44.97533070329527
 20
-12.28506614065905
 30
0.0
 11
45.58355380219685
 21
-12.89328923956063
 31
0.0
  0
LINE
  5
810
330
1F
100
AcDbEntity
  8
2
  6
CONTINUOUS
370
25
 62
7
100
AcDbLine
 10
45.50566078918518
 20
-12.39113215783704
 30
0.0
 11
45.93710719279012
 21
-12.82257856144198
 31
0.0
  0
LINE
  5
811
330
1F
100
AcDbEntity
  8
2
  6
CONTINUOUS
370
25
 62
7
100
AcDbLine
 10
46.03599087507509
 20
-12.49719817501502
 30
0.0
 11
46.29066058338339
 21
-12.75186788332332
 31
0.0
  0
LINE
  5
812
330
1F
100
AcDbEntity
  8
2
  6
CONTINUOUS
370
25
 62
7
100
AcDbLine
 10
46.566320960965
 20
-12.603264192193
 30
0.0
 11
46.64421397397667
 21
-12.68115720520467
 31
0.0
  0
LINE
  5
813
330
1F
100
AcDbEntity
  8
2
  6
CONTINUOUS
370
25
 62
7
100
AcDbLine
 10
50.0
 20
-12.65
 30
0.0
 11
55.0
 21
-11.65
 31
0.0
  0
LINE
  5
814
330
1F
100
AcDbEntity
  8
2
  6
CONTINUOUS
370
25
 62
7
100
AcDbLine
 10
55.0
 20
-11.65
 30
0.0
 11
55.0
 21
-13.65
 31
0.0
  0
LINE
  5
815
330
1F
100
AcDbEntity
  8
2
  6
CONTINUOUS
370
25
 62
7
100
AcDbLine
 10
55.0
 20
-13.65
 30
0.0
 11
50.0
 21
-12.65
 31
0.0
  0
LINE
  5
816
330
1F
100
AcDbEntity
  8
2
  6
CONTINUOUS
370
25
 62
7
100
AcDbLine
 10
54.87761143297129
 20
-13.62552228659425
 30
0.0
 11
55.0
 21
-13.50313371956554
 31
0.0
  0
LINE
  5
817
330
1F
100
AcDbEntity
  8
2
  6
CONTINUOUS
370
25
 62
7
100
AcDbLine
 10
54.52405804237802
 20
-13.5548116084756
 30
0.0
 11
55.0
 21
-13.07886965085362
 31
0.0
  0
LINE
  5
818
330
1F
100
AcDbEntity
  8
2
  6
CONTINUOUS
370
25
 62
7
100
AcDbLine
 10
54.17050465178474
 20
-13.48410093035695
 30
0.0
 11
55.0
 21
-12.65460558214169
 31
0.0
  0
LINE
  5
819
330
1F
100
AcDbEntity
  8
2
  6
CONTINUOUS
370
25
 62
7
100
AcDbLine
 10
53.81695126119147
 20
-13.41339025223829
 30
0.0
 11
55.0
 21
-12.23034151342976
 31
0.0
  0
LINE
  5
81A
330
1F
100
AcDbEntity
  8
2
  6
CONTINUOUS
370
25
 62
7
100
AcDbLine
 10
53.46339787059819
 20
-13.34267957411964
 30
0.0
 11
55.0
 21
-11.80607744471783
 31
0.0
  0
LINE
  5
81B
330
1F
100
AcDbEntity
  8
2
  6
CONTINUOUS
370
25
 62
7
100
AcDbLine
 10
53.10984448000492
 20
-13.27196889600098
 30
0.0
 11
54.66476672000738
 21
-11.71704665599852
 31
0.0
  0
LINE
  5
81C
330
1F
100
AcDbEntity
  8
2
  6
CONTINUOUS
370
25
 62
7
100
AcDbLine
 10
52.75629108941165
 20
-13.20125821788233
 30
0.0
 11
54.13443663411747
 21
-11.82311267317651
 31
0.0
  0
LINE
  5
81D
330
1F
100
AcDbEntity
  8
2
  6
CONTINUOUS
370
25
 62
7
100
AcDbLine
 10
52.40273769881838
 20
-13.13054753976368
 30
0.0
 11
53.60410654822756
 21
-11.92917869035449
 31
0.0
  0
LINE
  5
81E
330
1F
100
AcDbEntity
  8
2
  6
CONTINUOUS
370
25
 62
7
100
AcDbLine
 10
52.0491843082251
 20
-13.05983686164502
 30
0.0
 11
53.07377646233765
 21
-12.03524470753247
 31
0.0
  0
LINE
  5
81F
330
1F
100
AcDbEntity
  8
2
  6
CONTINUOUS
370
25
 62
7
100
AcDbLine
 10
51.69563091763183
 20
-12.98912618352637
 30
0.0
 11
52.54344637644775
 21
-12.14131072471045
 31
0.0
  0
LINE
  5
820
330
1F
100
AcDbEntity
  8
2
  6
CONTINUOUS
370
25
 62
7
100
AcDbLine
 10
51.34207752703855
 20
-12.91841550540771
 30
0.0
 11
52.01311629055783
 21
-12.24737674188843
 31
0.0
  0
LINE
  5
821
330
1F
100
AcDbEntity
  8
2
  6
CONTINUOUS
370
25
 62
7
100
AcDbLine
 10
50.98852413644529
 20
-12.84770482728906
 30
0.0
 11
51.48278620466792
 21
-12.35344275906642
 31
0.0
  0
LINE
  5
822
330
1F
100
AcDbEntity
  8
2
  6
CONTINUOUS
370
25
 62
7
100
AcDbLine
 10
50.63497074585201
 20
-12.7769941491704
 30
0.0
 11
50.95245611877802
 21
-12.4595087762444
 31
0.0
  0
LINE
  5
823
330
1F
100
AcDbEntity
  8
2
  6
CONTINUOUS
370
25
 62
7
100
AcDbLine
 10
50.28141735525874
 20
-12.70628347105175
 30
0.0
 11
50.4221260328881
 21
-12.56557479342238
 31
0.0
  0
LINE
  5
824
330
1F
100
AcDbEntity
  8
2
  6
CONTINUOUS
370
25
 62
7
100
AcDbLine
 10
50.23761225617845
 20
-12.60247754876431
 30
0.0
 11
50.35641838426768
 21
-12.72128367685353
 31
0.0
  0
LINE
  5
825
330
1F
100
AcDbEntity
  8
2
  6
CONTINUOUS
370
25
 62
7
100
AcDbLine
 10
50.59116564677173
 20
-12.53176687064566
 30
0.0
 11
50.88674847015758
 21
-12.82734969403152
 31
0.0
  0
LINE
  5
826
330
1F
100
AcDbEntity
  8
2
  6
CONTINUOUS
370
25
 62
7
100
AcDbLine
 10
50.944719037365
 20
-12.461056192527
 30
0.0
 11
51.4170785560475
 21
-12.9334157112095
 31
0.0
  0
LINE
  5
827
330
1F
100
AcDbEntity
  8
2
  6
CONTINUOUS
370
25
 62
7
100
AcDbLine
 10
51.29827242795827
 20
-12.39034551440835
 30
0.0
 11
51.94740864193741
 21
-13.03948172838748
 31
0.0
  0
LINE
  5
828
330
1F
100
AcDbEntity
  8
2
  6
CONTINUOUS
370
25
 62
7
100
AcDbLine
 10
51.65182581855154
 20
-12.31963483628969
 30
0.0
 11
52.47773872782732
 21
-13.14554774556547
 31
0.0
  0
LINE
  5
829
330
1F
100
AcDbEntity
  8
2
  6
CONTINUOUS
370
25
 62
7
100
AcDbLine
 10
52.00537920914482
 20
-12.24892415817104
 30
0.0
 11
53.00806881371722
 21
-13.25161376274344
 31
0.0
  0
LINE
  5
82A
330
1F
100
AcDbEntity
  8
2
  6
CONTINUOUS
370
25
 62
7
100
AcDbLine
 10
52.35893259973809
 20
-12.17821348005238
 30
0.0
 11
53.53839889960714
 21
-13.35767977992143
 31
0.0
  0
LINE
  5
82B
330
1F
100
AcDbEntity
  8
2
  6
CONTINUOUS
370
25
 62
7
100
AcDbLine
 10
52.71248599033136
 20
-12.10750280193373
 30
0.0
 11
54.06872898549705
 21
-13.46374579709941
 31
0.0
  0
LINE
  5
82C
330
1F
100
AcDbEntity
  8
2
  6
CONTINUOUS
370
25
 62
7
100
AcDbLine
 10
53.06603938092464
 20
-12.03679212381507
 30
0.0
 11
54.59905907138696
 21
-13.56981181427739
 31
0.0
  0
LINE
  5
82D
330
1F
100
AcDbEntity
  8
2
  6
CONTINUOUS
370
25
 62
7
100
AcDbLine
 10
53.41959277151791
 20
-11.96608144569642
 30
0.0
 11
55.0
 21
-13.54648867417851
 31
0.0
  0
LINE
  5
82E
330
1F
100
AcDbEntity
  8
2
  6
CONTINUOUS
370
25
 62
7
100
AcDbLine
 10
53.77314616211118
 20
-11.89537076757776
 30
0.0
 11
55.0
 21
-13.12222460546658
 31
0.0
  0
LINE
  5
82F
330
1F
100
AcDbEntity
  8
2
  6
CONTINUOUS
370
25
 62
7
100
AcDbLine
 10
54.12669955270445
 20
-11.82466008945911
 30
0.0
 11
55.0
 21
-12.69796053675465
 31
0.0
  0
LINE
  5
830
330
1F
100
AcDbEntity
  8
2
  6
CONTINUOUS
370
25
 62
7
100
AcDbLine
 10
54.48025294329773
 20
-11.75394941134045
 30
0.0
 11
55.0
 21
-12.27369646804272
 31
0.0
  0
LINE
  5
831
330
1F
100
AcDbEntity
  8
2
  6
CONTINUOUS
370
25
 62
7
100
AcDbLine
 10
54.833806333891
 20
-11.6832387332218
 30
0.0
 11
55.0
 21
-11.84943239933079
 31
0.0
  0
TEXT
  5
832
330
1F
100
AcDbEntity
  8
2
  6
CONTINUOUS
370
25
 62
7
100
AcDbText
 10
56.96249999999999
 20
-11.15
 30
0.0
 40
3.5
  1
3.2
 72
     1
 11
60.46249999999999
 21
-11.15
 31
0.0
100
AcDbText
  0
LINE
  5
833
330
1F
100
AcDbEntity
  8
2
  6
CONTINUOUS
370
25
 62
7
100
AcDbLine
 10
40.9
 20
0.0
 30
0.0
 11
40.9
 21
24.99995
 31
0.0
  0
LINE
  5
834
330
1F
100
AcDbEntity
  8
2
  6
CONTINUOUS
370
25
 62
7
100
AcDbLine
 10
50.0
 20
24.99995
 30
0.0
 11
50.0
 21
0.6499999999999986
 31
0.0
  0
LINE
  5
835
330
1F
100
AcDbEntity
  8
2
  6
CONTINUOUS
370
25
 62
7
100
AcDbLine
 10
33.9
 20
23.99995
 30
0.0
 11
65.925
 21
23.99995
 31
0.0
  0
LINE
  5
836
330
1F
100
AcDbEntity
  8
2
  6
CONTINUOUS
370
25
 62
7
100
AcDbLine
 10
40.9
 20
23.99995
 30
0.0
 11
35.9
 21
22.99995
 31
0.0
  0
LINE
  5
837
330
1F
100
AcDbEntity
  8
2
  6
CONTINUOUS
370
25
 62
7
100
AcDbLine
 10
35.9
 20
22.99995
 30
0.0
 11
35.9
 21
24.99995
 31
0.0
  0
LINE
  5
838
330
1F
100
AcDbEntity
  8
2
  6
CONTINUOUS
370
25
 62
7
100
AcDbLine
 10
35.9
 20
24.99995
 30
0.0
 11
40.9
 21
23.99995
 31
0.0
  0
LINE
  5
839
330
1F
100
AcDbEntity
  8
2
  6
CONTINUOUS
370
25
 62
7
100
AcDbLine
 10
40.67112260427513
 20
23.95417452085502
 30
0.0
 11
40.74741506951675
 21
24.03046698609665
 31
0.0
  0
LINE
  5
83A
330
1F
100
AcDbEntity
  8
2
  6
CONTINUOUS
370
25
 62
7
100
AcDbLine
 10
40.14079251838521
 20
23.84810850367704
 30
0.0
 11
40.39386167892348
 21
24.1011776642153
 31
0.0
  0
LINE
  5
83B
330
1F
100
AcDbEntity
  8
2
  6
CONTINUOUS
370
25
 62
7
100
AcDbLine
 10
39.6104624324953
 20
23.74204248649906
 30
0.0
 11
40.0403082883302
 21
24.17188834233396
 31
0.0
  0
LINE
  5
83C
330
1F
100
AcDbEntity
  8
2
  6
CONTINUOUS
370
25
 62
7
100
AcDbLine
 10
39.0801323466054
 20
23.63597646932108
 30
0.0
 11
39.68675489773693
 21
24.24259902045261
 31
0.0
  0
LINE
  5
83D
330
1F
100
AcDbEntity
  8
2
  6
CONTINUOUS
370
25
 62
7
100
AcDbLine
 10
38.54980226071549
 20
23.5299104521431
 30
0.0
 11
39.33320150714366
 21
24.31330969857127
 31
0.0
  0
LINE
  5
83E
330
1F
100
AcDbEntity
  8
2
  6
CONTINUOUS
370
25
 62
7
100
AcDbLine
 10
38.01947217482558
 20
23.42384443496512
 30
0.0
 11
38.97964811655039
 21
24.38402037668992
 31
0.0
  0
LINE
  5
83F
330
1F
100
AcDbEntity
  8
2
  6
CONTINUOUS
370
25
 62
7
100
AcDbLine
 10
37.48914208893567
 20
23.31777841778713
 30
0.0
 11
38.62609472595711
 21
24.45473105480858
 31
0.0
  0
LINE
  5
840
330
1F
100
AcDbEntity
  8
2
  6
CONTINUOUS
370
25
 62
7
100
AcDbLine
 10
36.95881200304576
 20
23.21171240060915
 30
0.0
 11
38.27254133536384
 21
24.52544173292723
 31
0.0
  0
LINE
  5
841
330
1F
100
AcDbEntity
  8
2
  6
CONTINUOUS
370
25
 62
7
100
AcDbLine
 10
36.42848191715585
 20
23.10564638343117
 30
0.0
 11
37.91898794477056
 21
24.59615241104589
 31
0.0
  0
LINE
  5
842
330
1F
100
AcDbEntity
  8
2
  6
CONTINUOUS
370
25
 62
7
100
AcDbLine
 10
35.9
 20
23.00142853498725
 30
0.0
 11
37.56543455417729
 21
24.66686308916454
 31
0.0
  0
LINE
  5
843
330
1F
100
AcDbEntity
  8
2
  6
CONTINUOUS
370
25
 62
7
100
AcDbLine
 10
35.9
 20
23.42569260369918
 30
0.0
 11
37.21188116358402
 21
24.73757376728319
 31
0.0
  0
LINE
  5
844
330
1F
100
AcDbEntity
  8
2
  6
CONTINUOUS
370
25
 62
7
100
AcDbLine
 10
35.9
 20
23.8499566724111
 30
0.0
 11
36.85832777299074
 21
24.80828444540185
 31
0.0
  0
LINE
  5
845
330
1F
100
AcDbEntity
  8
2
  6
CONTINUOUS
370
25
 62
7
100
AcDbLine
 10
35.9
 20
24.27422074112303
 30
0.0
 11
36.50477438239747
 21
24.8789951235205
 31
0.0
  0
LINE
  5
846
330
1F
100
AcDbEntity
  8
2
  6
CONTINUOUS
370
25
 62
7
100
AcDbLine
 10
35.9
 20
24.69848480983496
 30
0.0
 11
36.15122099180419
 21
24.94970580163916
 31
0.0
  0
LINE
  5
847
330
1F
100
AcDbEntity
  8
2
  6
CONTINUOUS
370
25
 62
7
100
AcDbLine
 10
35.9
 20
23.24335495461289
 30
0.0
 11
36.10283746217741
 21
23.04051749243548
 31
0.0
  0
LINE
  5
848
330
1F
100
AcDbEntity
  8
2
  6
CONTINUOUS
370
25
 62
7
100
AcDbLine
 10
35.9
 20
23.66761902332482
 30
0.0
 11
36.45639085277068
 21
23.11122817055413
 31
0.0
  0
LINE
  5
849
330
1F
100
AcDbEntity
  8
2
  6
CONTINUOUS
370
25
 62
7
100
AcDbLine
 10
35.9
 20
24.09188309203675
 30
0.0
 11
36.80994424336396
 21
23.18193884867279
 31
0.0
  0
LINE
  5
84A
330
1F
100
AcDbEntity
  8
2
  6
CONTINUOUS
370
25
 62
7
100
AcDbLine
 10
35.9
 20
24.51614716074867
 30
0.0
 11
37.16349763395723
 21
23.25264952679144
 31
0.0
  0
LINE
  5
84B
330
1F
100
AcDbEntity
  8
2
  6
CONTINUOUS
370
25
 62
7
100
AcDbLine
 10
35.9
 20
24.9404112294606
 30
0.0
 11
37.5170510245505
 21
23.3233602049101
 31
0.0
  0
LINE
  5
84C
330
1F
100
AcDbEntity
  8
2
  6
CONTINUOUS
370
25
 62
7
100
AcDbLine
 10
36.35590662271566
 20
24.90876867545687
 30
0.0
 11
37.87060441514378
 21
23.39407088302875
 31
0.0
  0
LINE
  5
84D
330
1F
100
AcDbEntity
  8
2
  6
CONTINUOUS
370
25
 62
7
100
AcDbLine
 10
36.88623670860557
 20
24.80270265827888
 30
0.0
 11
38.22415780573705
 21
23.46478156114741
 31
0.0
  0
LINE
  5
84E
330
1F
100
AcDbEntity
  8
2
  6
CONTINUOUS
370
25
 62
7
100
AcDbLine
 10
37.41656679449549
 20
24.6966366411009
 30
0.0
 11
38.57771119633033
 21
23.53549223926606
 31
0.0
  0
LINE
  5
84F
330
1F
100
AcDbEntity
  8
2
  6
CONTINUOUS
370
25
 62
7
100
AcDbLine
 10
37.9468968803854
 20
24.59057062392292
 30
0.0
 11
38.9312645869236
 21
23.60620291738472
 31
0.0
  0
LINE
  5
850
330
1F
100
AcDbEntity
  8
2
  6
CONTINUOUS
370
25
 62
7
100
AcDbLine
 10
38.47722696627531
 20
24.48450460674494
 30
0.0
 11
39.28481797751687
 21
23.67691359550337
 31
0.0
  0
LINE
  5
851
330
1F
100
AcDbEntity
  8
2
  6
CONTINUOUS
370
25
 62
7
100
AcDbLine
 10
39.00755705216521
 20
24.37843858956695
 30
0.0
 11
39.63837136811014
 21
23.74762427362203
 31
0.0
  0
LINE
  5
852
330
1F
100
AcDbEntity
  8
2
  6
CONTINUOUS
370
25
 62
7
100
AcDbLine
 10
39.53788713805513
 20
24.27237257238897
 30
0.0
 11
39.99192475870342
 21
23.81833495174068
 31
0.0
  0
LINE
  5
853
330
1F
100
AcDbEntity
  8
2
  6
CONTINUOUS
370
25
 62
7
100
AcDbLine
 10
40.06821722394503
 20
24.16630655521099
 30
0.0
 11
40.34547814929669
 21
23.88904562985934
 31
0.0
  0
LINE
  5
854
330
1F
100
AcDbEntity
  8
2
  6
CONTINUOUS
370
25
 62
7
100
AcDbLine
 10
40.59854730983495
 20
24.06024053803301
 30
0.0
 11
40.69903153988997
 21
23.95975630797799
 31
0.0
  0
LINE
  5
855
330
1F
100
AcDbEntity
  8
2
  6
CONTINUOUS
370
25
 62
7
100
AcDbLine
 10
50.0
 20
23.99995
 30
0.0
 11
55.0
 21
24.99995
 31
0.0
  0
LINE
  5
856
330
1F
100
AcDbEntity
  8
2
  6
CONTINUOUS
370
25
 62
7
100
AcDbLine
 10
55.0
 20
24.99995
 30
0.0
 11
55.0
 21
22.99995
 31
0.0
  0
LINE
  5
857
330
1F
100
AcDbEntity
  8
2
  6
CONTINUOUS
370
25
 62
7
100
AcDbLine
 10
55.0
 20
22.99995
 30
0.0
 11
50.0
 21
23.99995
 31
0.0
  0
LINE
  5
858
330
1F
100
AcDbEntity
  8
2
  6
CONTINUOUS
370
25
 62
7
100
AcDbLine
 10
54.99200379754129
 20
23.00154924049174
 30
0.0
 11
55.0
 21
23.00954544295045
 31
0.0
  0
LINE
  5
859
330
1F
100
AcDbEntity
  8
2
  6
CONTINUOUS
370
25
 62
7
100
AcDbLine
 10
54.63845040694802
 20
23.0722599186104
 30
0.0
 11
55.0
 21
23.43380951166238
 31
0.0
  0
LINE
  5
85A
330
1F
100
AcDbEntity
  8
2
  6
CONTINUOUS
370
25
 62
7
100
AcDbLine
 10
54.28489701635474
 20
23.14297059672905
 30
0.0
 11
55.0
 21
23.85807358037431
 31
0.0
  0
LINE
  5
85B
330
1F
100
AcDbEntity
  8
2
  6
CONTINUOUS
370
25
 62
7
100
AcDbLine
 10
53.93134362576147
 20
23.2136812748477
 30
0.0
 11
55.0
 21
24.28233764908624
 31
0.0
  0
LINE
  5
85C
330
1F
100
AcDbEntity
  8
2
  6
CONTINUOUS
370
25
 62
7
100
AcDbLine
 10
53.57779023516819
 20
23.28439195296636
 30
0.0
 11
55.0
 21
24.70660171779816
 31
0.0
  0
LINE
  5
85D
330
1F
100
AcDbEntity
  8
2
  6
CONTINUOUS
370
25
 62
7
100
AcDbLine
 10
53.22423684457492
 20
23.35510263108501
 30
0.0
 11
54.83635526686238
 21
24.96722105337247
 31
0.0
  0
LINE
  5
85E
330
1F
100
AcDbEntity
  8
2
  6
CONTINUOUS
370
25
 62
7
100
AcDbLine
 10
52.87068345398165
 20
23.42581330920367
 30
0.0
 11
54.30602518097247
 21
24.86115503619449
 31
0.0
  0
LINE
  5
85F
330
1F
100
AcDbEntity
  8
2
  6
CONTINUOUS
370
25
 62
7
100
AcDbLine
 10
52.51713006338838
 20
23.49652398732232
 30
0.0
 11
53.77569509508257
 21
24.75508901901651
 31
0.0
  0
LINE
  5
860
330
1F
100
AcDbEntity
  8
2
  6
CONTINUOUS
370
25
 62
7
100
AcDbLine
 10
52.1635766727951
 20
23.56723466544098
 30
0.0
 11
53.24536500919265
 21
24.64902300183853
 31
0.0
  0
LINE
  5
861
330
1F
100
AcDbEntity
  8
2
  6
CONTINUOUS
370
25
 62
7
100
AcDbLine
 10
51.81002328220183
 20
23.63794534355963
 30
0.0
 11
52.71503492330275
 21
24.54295698466055
 31
0.0
  0
LINE
  5
862
330
1F
100
AcDbEntity
  8
2
  6
CONTINUOUS
370
25
 62
7
100
AcDbLine
 10
51.45646989160856
 20
23.70865602167829
 30
0.0
 11
52.18470483741284
 21
24.43689096748257
 31
0.0
  0
LINE
  5
863
330
1F
100
AcDbEntity
  8
2
  6
CONTINUOUS
370
25
 62
7
100
AcDbLine
 10
51.10291650101529
 20
23.77936669979694
 30
0.0
 11
51.65437475152292
 21
24.33082495030458
 31
0.0
  0
LINE
  5
864
330
1F
100
AcDbEntity
  8
2
  6
CONTINUOUS
370
25
 62
7
100
AcDbLine
 10
50.74936311042201
 20
23.8500773779156
 30
0.0
 11
51.12404466563301
 21
24.2247589331266
 31
0.0
  0
LINE
  5
865
330
1F
100
AcDbEntity
  8
2
  6
CONTINUOUS
370
25
 62
7
100
AcDbLine
 10
50.39580971982874
 20
23.92078805603425
 30
0.0
 11
50.59371457974311
 21
24.11869291594862
 31
0.0
  0
LINE
  5
866
330
1F
100
AcDbEntity
  8
2
  6
CONTINUOUS
370
25
 62
7
100
AcDbLine
 10
50.04225632923547
 20
23.99149873415291
 30
0.0
 11
50.0633844938532
 21
24.01262689877064
 31
0.0
  0
LINE
  5
867
330
1F
100
AcDbEntity
  8
2
  6
CONTINUOUS
370
25
 62
7
100
AcDbLine
 10
50.34742619020194
 20
24.06943523804039
 30
0.0
 11
50.52113928530292
 21
23.89572214293942
 31
0.0
  0
LINE
  5
868
330
1F
100
AcDbEntity
  8
2
  6
CONTINUOUS
370
25
 62
7
100
AcDbLine
 10
50.70097958079522
 20
24.14014591615904
 30
0.0
 11
51.05146937119282
 21
23.78965612576143
 31
0.0
  0
LINE
  5
869
330
1F
100
AcDbEntity
  8
2
  6
CONTINUOUS
370
25
 62
7
100
AcDbLine
 10
51.05453297138849
 20
24.21085659427769
 30
0.0
 11
51.58179945708274
 21
23.68359010858345
 31
0.0
  0
LINE
  5
86A
330
1F
100
AcDbEntity
  8
2
  6
CONTINUOUS
370
25
 62
7
100
AcDbLine
 10
51.40808636198177
 20
24.28156727239635
 30
0.0
 11
52.11212954297265
 21
23.57752409140547
 31
0.0
  0
LINE
  5
86B
330
1F
100
AcDbEntity
  8
2
  6
CONTINUOUS
370
25
 62
7
100
AcDbLine
 10
51.76163975257504
 20
24.35227795051501
 30
0.0
 11
52.64245962886255
 21
23.47145807422748
 31
0.0
  0
LINE
  5
86C
330
1F
100
AcDbEntity
  8
2
  6
CONTINUOUS
370
25
 62
7
100
AcDbLine
 10
52.11519314316831
 20
24.42298862863366
 30
0.0
 11
53.17278971475247
 21
23.3653920570495
 31
0.0
  0
LINE
  5
86D
330
1F
100
AcDbEntity
  8
2
  6
CONTINUOUS
370
25
 62
7
100
AcDbLine
 10
52.46874653376159
 20
24.49369930675231
 30
0.0
 11
53.70311980064238
 21
23.25932603987152
 31
0.0
  0
LINE
  5
86E
330
1F
100
AcDbEntity
  8
2
  6
CONTINUOUS
370
25
 62
7
100
AcDbLine
 10
52.82229992435486
 20
24.56440998487097
 30
0.0
 11
54.23344988653228
 21
23.15326002269354
 31
0.0
  0
LINE
  5
86F
330
1F
100
AcDbEntity
  8
2
  6
CONTINUOUS
370
25
 62
7
100
AcDbLine
 10
53.17585331494813
 20
24.63512066298962
 30
0.0
 11
54.7637799724222
 21
23.04719400551556
 31
0.0
  0
LINE
  5
870
330
1F
100
AcDbEntity
  8
2
  6
CONTINUOUS
370
25
 62
7
100
AcDbLine
 10
53.5294067055414
 20
24.70583134110828
 30
0.0
 11
55.0
 21
23.23523804664968
 31
0.0
  0
LINE
  5
871
330
1F
100
AcDbEntity
  8
2
  6
CONTINUOUS
370
25
 62
7
100
AcDbLine
 10
53.88296009613468
 20
24.77654201922693
 30
0.0
 11
55.0
 21
23.65950211536161
 31
0.0
  0
LINE
  5
872
330
1F
100
AcDbEntity
  8
2
  6
CONTINUOUS
370
25
 62
7
100
AcDbLine
 10
54.23651348672795
 20
24.84725269734559
 30
0.0
 11
55.0
 21
24.08376618407354
 31
0.0
  0
LINE
  5
873
330
1F
100
AcDbEntity
  8
2
  6
CONTINUOUS
370
25
 62
7
100
AcDbLine
 10
54.59006687732123
 20
24.91796337546424
 30
0.0
 11
55.0
 21
24.50803025278547
 31
0.0
  0
LINE
  5
874
330
1F
100
AcDbEntity
  8
2
  6
CONTINUOUS
370
25
 62
7
100
AcDbLine
 10
54.9436202679145
 20
24.9886740535829
 30
0.0
 11
55.0
 21
24.93229432149739
 31
0.0
  0
TEXT
  5
875
330
1F
100
AcDbEntity
  8
2
  6
CONTINUOUS
370
25
 62
7
100
AcDbText
 10
57.54583333333333
 20
25.49995
 30
0.0
 40
3.5
  1
9.1
 72
     1
 11
60.4625
 21
25.49995
 31
0.0
100
AcDbText
  0
LINE
  5
876
330
1F
100
AcDbEntity
  8
SK2
  6
CONTINUOUS
370
25
 62
7
100
AcDbLine
 10
0.0
 20
-0.0000500000000001
 30
0.0
 11
0.0
 21
34.99995
 31
0.0
  0
LINE
  5
877
330
1F
100
AcDbEntity
  8
SK2
  6
CONTINUOUS
370
25
 62
7
100
AcDbLine
 10
50.0
 20
34.99995
 30
0.0
 11
50.0
 21
0.6499999999999986
 31
0.0
  0
LINE
  5
878
330
1F
100
AcDbEntity
  8
SK2
  6
CONTINUOUS
370
25
 62
7
100
AcDbLine
 10
0.0
 20
33.99995
 30
0.0
 11
50.0
 21
33.99995
 31
0.0
  0
LINE
  5
879
330
1F
100
AcDbEntity
  8
SK2
  6
CONTINUOUS
370
25
 62
7
100
AcDbLine
 10
0.0
 20
33.99995
 30
0.0
 11
5.0
 21
34.99995
 31
0.0
  0
LINE
  5
87A
330
1F
100
AcDbEntity
  8
SK2
  6
CONTINUOUS
370
25
 62
7
100
AcDbLine
 10
5.0
 20
34.99995
 30
0.0
 11
5.0
 21
32.99995
 31
0.0
  0
LINE
  5
87B
330
1F
100
AcDbEntity
  8
SK2
  6
CONTINUOUS
370
25
 62
7
100
AcDbLine
 10
5.0
 20
32.99995
 30
0.0
 11
0.0
 21
33.99995
 31
0.0
  0
LINE
  5
87C
330
1F
100
AcDbEntity
  8
SK2
  6
CONTINUOUS
370
25
 62
7
100
AcDbLine
 10
4.787422333296362
 20
33.04246553334072
 30
0.0
 11
5.0
 21
33.25504320004436
 31
0.0
  0
LINE
  5
87D
330
1F
100
AcDbEntity
  8
SK2
  6
CONTINUOUS
370
25
 62
7
100
AcDbLine
 10
4.433868942703093
 20
33.11317621145938
 30
0.0
 11
5.0
 21
33.67930726875629
 31
0.0
  0
LINE
  5
87E
330
1F
100
AcDbEntity
  8
SK2
  6
CONTINUOUS
370
25
 62
7
100
AcDbLine
 10
4.080315552109802
 20
33.18388688957803
 30
0.0
 11
5.0
 21
34.10357133746823
 31
0.0
  0
LINE
  5
87F
330
1F
100
AcDbEntity
  8
SK2
  6
CONTINUOUS
370
25
 62
7
100
AcDbLine
 10
3.72676216151654
 20
33.25459756769669
 30
0.0
 11
5.0
 21
34.52783540618015
 31
0.0
  0
LINE
  5
880
330
1F
100
AcDbEntity
  8
SK2
  6
CONTINUOUS
370
25
 62
7
100
AcDbLine
 10
3.373208770923249
 20
33.32530824581534
 30
0.0
 11
5.0
 21
34.9520994748921
 31
0.0
  0
LINE
  5
881
330
1F
100
AcDbEntity
  8
SK2
  6
CONTINUOUS
370
25
 62
7
100
AcDbLine
 10
3.019655380329979
 20
33.396018923934
 30
0.0
 11
4.529483070494969
 21
34.905846614099
 31
0.0
  0
LINE
  5
882
330
1F
100
AcDbEntity
  8
SK2
  6
CONTINUOUS
370
25
 62
7
100
AcDbLine
 10
2.666101989736703
 20
33.46672960205266
 30
0.0
 11
3.999152984605054
 21
34.79978059692101
 31
0.0
  0
LINE
  5
883
330
1F
100
AcDbEntity
  8
SK2
  6
CONTINUOUS
370
25
 62
7
100
AcDbLine
 10
2.312548599143426
 20
33.53744028017131
 30
0.0
 11
3.468822898715139
 21
34.69371457974303
 31
0.0
  0
LINE
  5
884
330
1F
100
AcDbEntity
  8
SK2
  6
CONTINUOUS
370
25
 62
7
100
AcDbLine
 10
1.958995208550142
 20
33.60815095828998
 30
0.0
 11
2.93849281282521
 21
34.58764856256504
 31
0.0
  0
LINE
  5
885
330
1F
100
AcDbEntity
  8
SK2
  6
CONTINUOUS
370
25
 62
7
100
AcDbLine
 10
1.605441817956866
 20
33.67886163640862
 30
0.0
 11
2.408162726935302
 21
34.48158254538706
 31
0.0
  0
LINE
  5
886
330
1F
100
AcDbEntity
  8
SK2
  6
CONTINUOUS
370
25
 62
7
100
AcDbLine
 10
1.251888427363596
 20
33.74957231452728
 30
0.0
 11
1.877832641045394
 21
34.37551652820908
 31
0.0
  0
LINE
  5
887
330
1F
100
AcDbEntity
  8
SK2
  6
CONTINUOUS
370
25
 62
7
100
AcDbLine
 10
0.8983350367703196
 20
33.82028299264594
 30
0.0
 11
1.347502555155479
 21
34.2694505110311
 31
0.0
  0
LINE
  5
888
330
1F
100
AcDbEntity
  8
SK2
  6
CONTINUOUS
370
25
 62
7
100
AcDbLine
 10
0.5447816461770287
 20
33.89099367076459
 30
0.0
 11
0.8171724692655502
 21
34.16338449385311
 31
0.0
  0
LINE
  5
889
330
1F
100
AcDbEntity
  8
SK2
  6
CONTINUOUS
370
25
 62
7
100
AcDbLine
 10
0.1912282555837592
 20
33.96170434888324
 30
0.0
 11
0.2868423833756495
 21
34.05731847667514
 31
0.0
  0
LINE
  5
88A
330
1F
100
AcDbEntity
  8
SK2
  6
CONTINUOUS
370
25
 62
7
100
AcDbLine
 10
0.2743310475913603
 20
34.05481620951827
 30
0.0
 11
0.4114965713870404
 21
33.91765068572259
 31
0.0
  0
LINE
  5
88B
330
1F
100
AcDbEntity
  8
SK2
  6
CONTINUOUS
370
25
 62
7
100
AcDbLine
 10
0.6278844381846369
 20
34.12552688763692
 30
0.0
 11
0.9418266572769554
 21
33.8115846685446
 31
0.0
  0
LINE
  5
88C
330
1F
100
AcDbEntity
  8
SK2
  6
CONTINUOUS
370
25
 62
7
100
AcDbLine
 10
0.9814378287779135
 20
34.19623756575558
 30
0.0
 11
1.47215674316687
 21
33.70551865136662
 31
0.0
  0
LINE
  5
88D
330
1F
100
AcDbEntity
  8
SK2
  6
CONTINUOUS
370
25
 62
7
100
AcDbLine
 10
1.33499121937119
 20
34.26694824387424
 30
0.0
 11
2.002486829056792
 21
33.59945263418864
 31
0.0
  0
LINE
  5
88E
330
1F
100
AcDbEntity
  8
SK2
  6
CONTINUOUS
370
25
 62
7
100
AcDbLine
 10
1.688544609964467
 20
34.33765892199289
 30
0.0
 11
2.5328169149467
 21
33.49338661701066
 31
0.0
  0
LINE
  5
88F
330
1F
100
AcDbEntity
  8
SK2
  6
CONTINUOUS
370
25
 62
7
100
AcDbLine
 10
2.042098000557743
 20
34.40836960011156
 30
0.0
 11
3.063147000836622
 21
33.38732059983267
 31
0.0
  0
LINE
  5
890
330
1F
100
AcDbEntity
  8
SK2
  6
CONTINUOUS
370
25
 62
7
100
AcDbLine
 10
2.39565139115102
 20
34.47908027823021
 30
0.0
 11
3.59347708672653
 21
33.28125458265469
 31
0.0
  0
LINE
  5
891
330
1F
100
AcDbEntity
  8
SK2
  6
CONTINUOUS
370
25
 62
7
100
AcDbLine
 10
2.749204781744304
 20
34.54979095634886
 30
0.0
 11
4.123807172616452
 21
33.1751885654767
 31
0.0
  0
LINE
  5
892
330
1F
100
AcDbEntity
  8
SK2
  6
CONTINUOUS
370
25
 62
7
100
AcDbLine
 10
3.102758172337573
 20
34.62050163446752
 30
0.0
 11
4.65413725850636
 21
33.06912254829872
 31
0.0
  0
LINE
  5
893
330
1F
100
AcDbEntity
  8
SK2
  6
CONTINUOUS
370
25
 62
7
100
AcDbLine
 10
3.456311562930857
 20
34.69121231258617
 30
0.0
 11
5.0
 21
33.14752387551702
 31
0.0
  0
LINE
  5
894
330
1F
100
AcDbEntity
  8
SK2
  6
CONTINUOUS
370
25
 62
7
100
AcDbLine
 10
3.809864953524126
 20
34.76192299070483
 30
0.0
 11
5.0
 21
33.57178794422895
 31
0.0
  0
LINE
  5
895
330
1F
100
AcDbEntity
  8
SK2
  6
CONTINUOUS
370
25
 62
7
100
AcDbLine
 10
4.16341834411741
 20
34.83263366882348
 30
0.0
 11
5.0
 21
33.99605201294089
 31
0.0
  0
LINE
  5
896
330
1F
100
AcDbEntity
  8
SK2
  6
CONTINUOUS
370
25
 62
7
100
AcDbLine
 10
4.516971734710687
 20
34.90334434694213
 30
0.0
 11
5.0
 21
34.42031608165282
 31
0.0
  0
LINE
  5
897
330
1F
100
AcDbEntity
  8
SK2
  6
CONTINUOUS
370
25
 62
7
100
AcDbLine
 10
4.870525125303956
 20
34.97405502506079
 30
0.0
 11
5.0
 21
34.84458015036475
 31
0.0
  0
LINE
  5
898
330
1F
100
AcDbEntity
  8
SK2
  6
CONTINUOUS
370
25
 62
7
100
AcDbLine
 10
50.0
 20
33.99995
 30
0.0
 11
45.0
 21
32.99995
 31
0.0
  0
LINE
  5
899
330
1F
100
AcDbEntity
  8
SK2
  6
CONTINUOUS
370
25
 62
7
100
AcDbLine
 10
45.0
 20
32.99995
 30
0.0
 11
45.0
 21
34.99995
 31
0.0
  0
LINE
  5
89A
330
1F
100
AcDbEntity
  8
SK2
  6
CONTINUOUS
370
25
 62
7
100
AcDbLine
 10
45.0
 20
34.99995
 30
0.0
 11
50.0
 21
33.99995
 31
0.0
  0
LINE
  5
89B
330
1F
100
AcDbEntity
  8
SK2
  6
CONTINUOUS
370
25
 62
7
100
AcDbLine
 10
49.83546243249532
 20
33.96704248649906
 30
0.0
 11
49.89030828833021
 21
34.02188834233395
 31
0.0
  0
LINE
  5
89C
330
1F
100
AcDbEntity
  8
SK2
  6
CONTINUOUS
370
25
 62
7
100
AcDbLine
 10
49.3051323466054
 20
33.86097646932108
 30
0.0
 11
49.53675489773694
 21
34.09259902045261
 31
0.0
  0
LINE
  5
89D
330
1F
100
AcDbEntity
  8
SK2
  6
CONTINUOUS
370
25
 62
7
100
AcDbLine
 10
48.77480226071549
 20
33.75491045214309
 30
0.0
 11
49.18320150714366
 21
34.16330969857127
 31
0.0
  0
LINE
  5
89E
330
1F
100
AcDbEntity
  8
SK2
  6
CONTINUOUS
370
25
 62
7
100
AcDbLine
 10
48.24447217482558
 20
33.64884443496511
 30
0.0
 11
48.82964811655039
 21
34.23402037668992
 31
0.0
  0
LINE
  5
89F
330
1F
100
AcDbEntity
  8
SK2
  6
CONTINUOUS
370
25
 62
7
100
AcDbLine
 10
47.71414208893567
 20
33.54277841778713
 30
0.0
 11
48.47609472595711
 21
34.30473105480858
 31
0.0
  0
LINE
  5
8A0
330
1F
100
AcDbEntity
  8
SK2
  6
CONTINUOUS
370
25
 62
7
100
AcDbLine
 10
47.18381200304577
 20
33.43671240060915
 30
0.0
 11
48.12254133536384
 21
34.37544173292723
 31
0.0
  0
LINE
  5
8A1
330
1F
100
AcDbEntity
  8
SK2
  6
CONTINUOUS
370
25
 62
7
100
AcDbLine
 10
46.65348191715585
 20
33.33064638343117
 30
0.0
 11
47.76898794477056
 21
34.44615241104589
 31
0.0
  0
LINE
  5
8A2
330
1F
100
AcDbEntity
  8
SK2
  6
CONTINUOUS
370
25
 62
7
100
AcDbLine
 10
46.12315183126594
 20
33.22458036625319
 30
0.0
 11
47.41543455417729
 21
34.51686308916454
 31
0.0
  0
LINE
  5
8A3
330
1F
100
AcDbEntity
  8
SK2
  6
CONTINUOUS
370
25
 62
7
100
AcDbLine
 10
45.59282174537603
 20
33.11851434907521
 30
0.0
 11
47.06188116358402
 21
34.5875737672832
 31
0.0
  0
LINE
  5
8A4
330
1F
100
AcDbEntity
  8
SK2
  6
CONTINUOUS
370
25
 62
7
100
AcDbLine
 10
45.06249165948613
 20
33.01244833189723
 30
0.0
 11
46.70832777299074
 21
34.65828444540185
 31
0.0
  0
LINE
  5
8A5
330
1F
100
AcDbEntity
  8
SK2
  6
CONTINUOUS
370
25
 62
7
100
AcDbLine
 10
45.0
 20
33.37422074112303
 30
0.0
 11
46.35477438239747
 21
34.72899512352051
 31
0.0
  0
LINE
  5
8A6
330
1F
100
AcDbEntity
  8
SK2
  6
CONTINUOUS
370
25
 62
7
100
AcDbLine
 10
45.0
 20
33.79848480983496
 30
0.0
 11
46.00122099180419
 21
34.79970580163916
 31
0.0
  0
LINE
  5
8A7
330
1F
100
AcDbEntity
  8
SK2
  6
CONTINUOUS
370
25
 62
7
100
AcDbLine
 10
45.0
 20
34.22274887854689
 30
0.0
 11
45.64766760121092
 21
34.87041647975781
 31
0.0
  0
LINE
  5
8A8
330
1F
100
AcDbEntity
  8
SK2
  6
CONTINUOUS
370
25
 62
7
100
AcDbLine
 10
45.0
 20
34.64701294725882
 30
0.0
 11
45.29411421061764
 21
34.94112715787647
 31
0.0
  0
LINE
  5
8A9
330
1F
100
AcDbEntity
  8
SK2
  6
CONTINUOUS
370
25
 62
7
100
AcDbLine
 10
45.0
 20
33.23523804664967
 30
0.0
 11
45.19607337220806
 21
33.03916467444161
 31
0.0
  0
LINE
  5
8AA
330
1F
100
AcDbEntity
  8
SK2
  6
CONTINUOUS
370
25
 62
7
100
AcDbLine
 10
45.0
 20
33.6595021153616
 30
0.0
 11
45.54962676280134
 21
33.10987535256027
 31
0.0
  0
LINE
  5
8AB
330
1F
100
AcDbEntity
  8
SK2
  6
CONTINUOUS
370
25
 62
7
100
AcDbLine
 10
45.0
 20
34.08376618407353
 30
0.0
 11
45.90318015339462
 21
33.18058603067892
 31
0.0
  0
LINE
  5
8AC
330
1F
100
AcDbEntity
  8
SK2
  6
CONTINUOUS
370
25
 62
7
100
AcDbLine
 10
45.0
 20
34.50803025278546
 30
0.0
 11
46.25673354398788
 21
33.25129670879758
 31
0.0
  0
LINE
  5
8AD
330
1F
100
AcDbEntity
  8
SK2
  6
CONTINUOUS
370
25
 62
7
100
AcDbLine
 10
45.0
 20
34.93229432149739
 30
0.0
 11
46.61028693458116
 21
33.32200738691623
 31
0.0
  0
LINE
  5
8AE
330
1F
100
AcDbEntity
  8
SK2
  6
CONTINUOUS
370
25
 62
7
100
AcDbLine
 10
45.44576048776166
 20
34.91079790244767
 30
0.0
 11
46.96384032517444
 21
33.39271806503488
 31
0.0
  0
LINE
  5
8AF
330
1F
100
AcDbEntity
  8
SK2
  6
CONTINUOUS
370
25
 62
7
100
AcDbLine
 10
45.97609057365157
 20
34.80473188526969
 30
0.0
 11
47.31739371576771
 21
33.46342874315354
 31
0.0
  0
LINE
  5
8B0
330
1F
100
AcDbEntity
  8
SK2
  6
CONTINUOUS
370
25
 62
7
100
AcDbLine
 10
46.50642065954148
 20
34.6986658680917
 30
0.0
 11
47.67094710636098
 21
33.53413942127219
 31
0.0
  0
LINE
  5
8B1
330
1F
100
AcDbEntity
  8
SK2
  6
CONTINUOUS
370
25
 62
7
100
AcDbLine
 10
47.03675074543139
 20
34.59259985091372
 30
0.0
 11
48.02450049695426
 21
33.60485009939085
 31
0.0
  0
LINE
  5
8B2
330
1F
100
AcDbEntity
  8
SK2
  6
CONTINUOUS
370
25
 62
7
100
AcDbLine
 10
47.56708083132129
 20
34.48653383373574
 30
0.0
 11
48.37805388754753
 21
33.6755607775095
 31
0.0
  0
LINE
  5
8B3
330
1F
100
AcDbEntity
  8
SK2
  6
CONTINUOUS
370
25
 62
7
100
AcDbLine
 10
48.09741091721121
 20
34.38046781655775
 30
0.0
 11
48.7316072781408
 21
33.74627145562816
 31
0.0
  0
LINE
  5
8B4
330
1F
100
AcDbEntity
  8
SK2
  6
CONTINUOUS
370
25
 62
7
100
AcDbLine
 10
48.62774100310111
 20
34.27440179937977
 30
0.0
 11
49.08516066873408
 21
33.81698213374681
 31
0.0
  0
LINE
  5
8B5
330
1F
100
AcDbEntity
  8
SK2
  6
CONTINUOUS
370
25
 62
7
100
AcDbLine
 10
49.15807108899103
 20
34.16833578220179
 30
0.0
 11
49.43871405932735
 21
33.88769281186547
 31
0.0
  0
LINE
  5
8B6
330
1F
100
AcDbEntity
  8
SK2
  6
CONTINUOUS
370
25
 62
7
100
AcDbLine
 10
49.68840117488094
 20
34.06226976502381
 30
0.0
 11
49.79226744992063
 21
33.95840348998412
 31
0.0
  0
TEXT
  5
8B7
330
1F
100
AcDbEntity
  8
SK2
  6
CONTINUOUS
370
25
 62
7
100
AcDbText
 10
22.375
 20
35.49995
 30
0.0
 40
3.5
  1
50
 72
     1
 11
25.0
 21
35.49995
 31
0.0
100
AcDbText
  0
LINE
  5
8B8
330
1F
100
AcDbEntity
  8
2
  6
CONTINUOUS
370
25
 62
7
100
AcDbLine
 10
45.9
 20
-0.64995
 30
0.0
 11
45.9
 21
-23.65
 31
0.0
  0
LINE
  5
8B9
330
1F
100
AcDbEntity
  8
2
  6
CONTINUOUS
370
25
 62
7
100
AcDbLine
 10
50.0
 20
-23.65
 30
0.0
 11
50.0
 21
-0.6500000000000021
 31
0.0
  0
LINE
  5
8BA
330
1F
100
AcDbEntity
  8
2
  6
CONTINUOUS
370
25
 62
7
100
AcDbLine
 10
38.9
 20
-22.65
 30
0.0
 11
65.925
 21
-22.65
 31
0.0
  0
LINE
  5
8BB
330
1F
100
AcDbEntity
  8
2
  6
CONTINUOUS
370
25
 62
7
100
AcDbLine
 10
45.9
 20
-22.65
 30
0.0
 11
40.9
 21
-23.65
 31
0.0
  0
LINE
  5
8BC
330
1F
100
AcDbEntity
  8
2
  6
CONTINUOUS
370
25
 62
7
100
AcDbLine
 10
40.9
 20
-23.65
 30
0.0
 11
40.9
 21
-21.65
 31
0.0
  0
LINE
  5
8BD
330
1F
100
AcDbEntity
  8
2
  6
CONTINUOUS
370
25
 62
7
100
AcDbLine
 10
40.9
 20
-21.65
 30
0.0
 11
45.9
 21
-22.65
 31
0.0
  0
LINE
  5
8BE
330
1F
100
AcDbEntity
  8
2
  6
CONTINUOUS
370
25
 62
7
100
AcDbLine
 10
45.43976672000741
 20
-22.74204665599852
 30
0.0
 11
45.59317781333827
 21
-22.58863556266765
 31
0.0
  0
LINE
  5
8BF
330
1F
100
AcDbEntity
  8
2
  6
CONTINUOUS
370
25
 62
7
100
AcDbLine
 10
44.9094366341175
 20
-22.8481126731765
 30
0.0
 11
45.239624422745
 21
-22.517924884549
 31
0.0
  0
LINE
  5
8C0
330
1F
100
AcDbEntity
  8
2
  6
CONTINUOUS
370
25
 62
7
100
AcDbLine
 10
44.3791065482276
 20
-22.95417869035448
 30
0.0
 11
44.88607103215173
 21
-22.44721420643035
 31
0.0
  0
LINE
  5
8C1
330
1F
100
AcDbEntity
  8
2
  6
CONTINUOUS
370
25
 62
7
100
AcDbLine
 10
43.84877646233768
 20
-23.06024470753247
 30
0.0
 11
44.53251764155846
 21
-22.37650352831169
 31
0.0
  0
LINE
  5
8C2
330
1F
100
AcDbEntity
  8
2
  6
CONTINUOUS
370
25
 62
7
100
AcDbLine
 10
43.31844637644777
 20
-23.16631072471045
 30
0.0
 11
44.17896425096518
 21
-22.30579285019304
 31
0.0
  0
LINE
  5
8C3
330
1F
100
AcDbEntity
  8
2
  6
CONTINUOUS
370
25
 62
7
100
AcDbLine
 10
42.78811629055787
 20
-23.27237674188843
 30
0.0
 11
43.82541086037191
 21
-22.23508217207439
 31
0.0
  0
LINE
  5
8C4
330
1F
100
AcDbEntity
  8
2
  6
CONTINUOUS
370
25
 62
7
100
AcDbLine
 10
42.25778620466795
 20
-23.37844275906641
 30
0.0
 11
43.47185746977863
 21
-22.16437149395573
 31
0.0
  0
LINE
  5
8C5
330
1F
100
AcDbEntity
  8
2
  6
CONTINUOUS
370
25
 62
7
100
AcDbLine
 10
41.72745611877804
 20
-23.48450877624439
 30
0.0
 11
43.11830407918536
 21
-22.09366081583708
 31
0.0
  0
LINE
  5
8C6
330
1F
100
AcDbEntity
  8
2
  6
CONTINUOUS
370
25
 62
7
100
AcDbLine
 10
41.19712603288814
 20
-23.59057479342237
 30
0.0
 11
42.76475068859209
 21
-22.02295013771842
 31
0.0
  0
LINE
  5
8C7
330
1F
100
AcDbEntity
  8
2
  6
CONTINUOUS
370
25
 62
7
100
AcDbLine
 10
40.9
 20
-23.46343675759858
 30
0.0
 11
42.41119729799882
 21
-21.95223945959977
 31
0.0
  0
LINE
  5
8C8
330
1F
100
AcDbEntity
  8
2
  6
CONTINUOUS
370
25
 62
7
100
AcDbLine
 10
40.9
 20
-23.03917268888666
 30
0.0
 11
42.05764390740554
 21
-21.88152878148111
 31
0.0
  0
LINE
  5
8C9
330
1F
100
AcDbEntity
  8
2
  6
CONTINUOUS
370
25
 62
7
100
AcDbLine
 10
40.9
 20
-22.61490862017473
 30
0.0
 11
41.70409051681227
 21
-21.81081810336246
 31
0.0
  0
LINE
  5
8CA
330
1F
100
AcDbEntity
  8
2
  6
CONTINUOUS
370
25
 62
7
100
AcDbLine
 10
40.9
 20
-22.1906445514628
 30
0.0
 11
41.350537126219
 21
-21.7401074252438
 31
0.0
  0
LINE
  5
8CB
330
1F
100
AcDbEntity
  8
2
  6
CONTINUOUS
370
25
 62
7
100
AcDbLine
 10
40.9
 20
-21.76638048275087
 30
0.0
 11
40.99698373562573
 21
-21.66939674712515
 31
0.0
  0
LINE
  5
8CC
330
1F
100
AcDbEntity
  8
2
  6
CONTINUOUS
370
25
 62
7
100
AcDbLine
 10
40.9
 20
-23.64577440668488
 30
0.0
 11
40.9035213277626
 21
-23.64929573444748
 31
0.0
  0
LINE
  5
8CD
330
1F
100
AcDbEntity
  8
2
  6
CONTINUOUS
370
25
 62
7
100
AcDbLine
 10
40.9
 20
-23.22151033797295
 30
0.0
 11
41.25707471835587
 21
-23.57858505632883
 31
0.0
  0
LINE
  5
8CE
330
1F
100
AcDbEntity
  8
2
  6
CONTINUOUS
370
25
 62
7
100
AcDbLine
 10
40.9
 20
-22.79724626926103
 30
0.0
 11
41.61062810894914
 21
-23.50787437821017
 31
0.0
  0
LINE
  5
8CF
330
1F
100
AcDbEntity
  8
2
  6
CONTINUOUS
370
25
 62
7
100
AcDbLine
 10
40.9
 20
-22.3729822005491
 30
0.0
 11
41.96418149954242
 21
-23.43716370009152
 31
0.0
  0
LINE
  5
8D0
330
1F
100
AcDbEntity
  8
2
  6
CONTINUOUS
370
25
 62
7
100
AcDbLine
 10
40.9
 20
-21.94871813183717
 30
0.0
 11
42.31773489013569
 21
-23.36645302197286
 31
0.0
  0
LINE
  5
8D1
330
1F
100
AcDbEntity
  8
2
  6
CONTINUOUS
370
25
 62
7
100
AcDbLine
 10
41.05693242109345
 20
-21.68138648421869
 30
0.0
 11
42.67128828072897
 21
-23.29574234385421
 31
0.0
  0
LINE
  5
8D2
330
1F
100
AcDbEntity
  8
2
  6
CONTINUOUS
370
25
 62
7
100
AcDbLine
 10
41.58726250698336
 20
-21.78745250139668
 30
0.0
 11
43.02484167132224
 21
-23.22503166573555
 31
0.0
  0
LINE
  5
8D3
330
1F
100
AcDbEntity
  8
2
  6
CONTINUOUS
370
25
 62
7
100
AcDbLine
 10
42.11759259287327
 20
-21.89351851857466
 30
0.0
 11
43.37839506191551
 21
-23.1543209876169
 31
0.0
  0
LINE
  5
8D4
330
1F
100
AcDbEntity
  8
2
  6
CONTINUOUS
370
25
 62
7
100
AcDbLine
 10
42.64792267876318
 20
-21.99958453575264
 30
0.0
 11
43.73194845250879
 21
-23.08361030949824
 31
0.0
  0
LINE
  5
8D5
330
1F
100
AcDbEntity
  8
2
  6
CONTINUOUS
370
25
 62
7
100
AcDbLine
 10
43.1782527646531
 20
-22.10565055293062
 30
0.0
 11
44.08550184310206
 21
-23.01289963137959
 31
0.0
  0
LINE
  5
8D6
330
1F
100
AcDbEntity
  8
2
  6
CONTINUOUS
370
25
 62
7
100
AcDbLine
 10
43.708582850543
 20
-22.2117165701086
 30
0.0
 11
44.43905523369533
 21
-22.94218895326093
 31
0.0
  0
LINE
  5
8D7
330
1F
100
AcDbEntity
  8
2
  6
CONTINUOUS
370
25
 62
7
100
AcDbLine
 10
44.23891293643291
 20
-22.31778258728659
 30
0.0
 11
44.7926086242886
 21
-22.87147827514228
 31
0.0
  0
LINE
  5
8D8
330
1F
100
AcDbEntity
  8
2
  6
CONTINUOUS
370
25
 62
7
100
AcDbLine
 10
44.76924302232283
 20
-22.42384860446457
 30
0.0
 11
45.14616201488188
 21
-22.80076759702363
 31
0.0
  0
LINE
  5
8D9
330
1F
100
AcDbEntity
  8
2
  6
CONTINUOUS
370
25
 62
7
100
AcDbLine
 10
45.29957310821273
 20
-22.52991462164255
 30
0.0
 11
45.49971540547516
 21
-22.73005691890497
 31
0.0
  0
LINE
  5
8DA
330
1F
100
AcDbEntity
  8
2
  6
CONTINUOUS
370
25
 62
7
100
AcDbLine
 10
45.82990319410264
 20
-22.63598063882053
 30
0.0
 11
45.85326879606843
 21
-22.65934624078632
 31
0.0
  0
LINE
  5
8DB
330
1F
100
AcDbEntity
  8
2
  6
CONTINUOUS
370
25
 62
7
100
AcDbLine
 10
50.0
 20
-22.65
 30
0.0
 11
55.0
 21
-21.65
 31
0.0
  0
LINE
  5
8DC
330
1F
100
AcDbEntity
  8
2
  6
CONTINUOUS
370
25
 62
7
100
AcDbLine
 10
55.0
 20
-21.65
 30
0.0
 11
55.0
 21
-23.65
 31
0.0
  0
LINE
  5
8DD
330
1F
100
AcDbEntity
  8
2
  6
CONTINUOUS
370
25
 62
7
100
AcDbLine
 10
55.0
 20
-23.65
 30
0.0
 11
50.0
 21
-22.65
 31
0.0
  0
LINE
  5
8DE
330
1F
100
AcDbEntity
  8
2
  6
CONTINUOUS
370
25
 62
7
100
AcDbLine
 10
54.72566339206607
 20
-23.59513267841322
 30
0.0
 11
55.0
 21
-23.32079607047929
 31
0.0
  0
LINE
  5
8DF
330
1F
100
AcDbEntity
  8
2
  6
CONTINUOUS
370
25
 62
7
100
AcDbLine
 10
54.37211000147279
 20
-23.52442200029456
 30
0.0
 11
55.0
 21
-22.89653200176735
 31
0.0
  0
LINE
  5
8E0
330
1F
100
AcDbEntity
  8
2
  6
CONTINUOUS
370
25
 62
7
100
AcDbLine
 10
54.01855661087952
 20
-23.45371132217591
 30
0.0
 11
55.0
 21
-22.47226793305543
 31
0.0
  0
LINE
  5
8E1
330
1F
100
AcDbEntity
  8
2
  6
CONTINUOUS
370
25
 62
7
100
AcDbLine
 10
53.66500322028625
 20
-23.38300064405725
 30
0.0
 11
55.0
 21
-22.04800386434351
 31
0.0
  0
LINE
  5
8E2
330
1F
100
AcDbEntity
  8
2
  6
CONTINUOUS
370
25
 62
7
100
AcDbLine
 10
53.31144982969298
 20
-23.3122899659386
 30
0.0
 11
54.96717474453947
 21
-21.65656505109211
 31
0.0
  0
LINE
  5
8E3
330
1F
100
AcDbEntity
  8
2
  6
CONTINUOUS
370
25
 62
7
100
AcDbLine
 10
52.95789643909971
 20
-23.24157928781995
 30
0.0
 11
54.43684465864956
 21
-21.76263106827009
 31
0.0
  0
LINE
  5
8E4
330
1F
100
AcDbEntity
  8
2
  6
CONTINUOUS
370
25
 62
7
100
AcDbLine
 10
52.60434304850643
 20
-23.17086860970129
 30
0.0
 11
53.90651457275965
 21
-21.86869708544807
 31
0.0
  0
LINE
  5
8E5
330
1F
100
AcDbEntity
  8
2
  6
CONTINUOUS
370
25
 62
7
100
AcDbLine
 10
52.25078965791316
 20
-23.10015793158264
 30
0.0
 11
53.37618448686974
 21
-21.97476310262605
 31
0.0
  0
LINE
  5
8E6
330
1F
100
AcDbEntity
  8
2
  6
CONTINUOUS
370
25
 62
7
100
AcDbLine
 10
51.89723626731988
 20
-23.02944725346398
 30
0.0
 11
52.84585440097983
 21
-22.08082911980404
 31
0.0
  0
LINE
  5
8E7
330
1F
100
AcDbEntity
  8
2
  6
CONTINUOUS
370
25
 62
7
100
AcDbLine
 10
51.54368287672661
 20
-22.95873657534533
 30
0.0
 11
52.31552431508992
 21
-22.18689513698202
 31
0.0
  0
LINE
  5
8E8
330
1F
100
AcDbEntity
  8
2
  6
CONTINUOUS
370
25
 62
7
100
AcDbLine
 10
51.19012948613334
 20
-22.88802589722667
 30
0.0
 11
51.78519422920001
 21
-22.29296115416
 31
0.0
  0
LINE
  5
8E9
330
1F
100
AcDbEntity
  8
2
  6
CONTINUOUS
370
25
 62
7
100
AcDbLine
 10
50.83657609554007
 20
-22.81731521910802
 30
0.0
 11
51.2548641433101
 21
-22.39902717133798
 31
0.0
  0
LINE
  5
8EA
330
1F
100
AcDbEntity
  8
2
  6
CONTINUOUS
370
25
 62
7
100
AcDbLine
 10
50.48302270494679
 20
-22.74660454098936
 30
0.0
 11
50.72453405742019
 21
-22.50509318851596
 31
0.0
  0
LINE
  5
8EB
330
1F
100
AcDbEntity
  8
2
  6
CONTINUOUS
370
25
 62
7
100
AcDbLine
 10
50.12946931435352
 20
-22.67589386287071
 30
0.0
 11
50.19420397153028
 21
-22.61115920569394
 31
0.0
  0
LINE
  5
8EC
330
1F
100
AcDbEntity
  8
2
  6
CONTINUOUS
370
25
 62
7
100
AcDbLine
 10
50.03600690649039
 20
-22.64279861870192
 30
0.0
 11
50.05401035973559
 21
-22.66080207194712
 31
0.0
  0
LINE
  5
8ED
330
1F
100
AcDbEntity
  8
2
  6
CONTINUOUS
370
25
 62
7
100
AcDbLine
 10
50.38956029708367
 20
-22.57208794058327
 30
0.0
 11
50.5843404456255
 21
-22.7668680891251
 31
0.0
  0
LINE
  5
8EE
330
1F
100
AcDbEntity
  8
2
  6
CONTINUOUS
370
25
 62
7
100
AcDbLine
 10
50.74311368767694
 20
-22.50137726246462
 30
0.0
 11
51.11467053151541
 21
-22.87293410630308
 31
0.0
  0
LINE
  5
8EF
330
1F
100
AcDbEntity
  8
2
  6
CONTINUOUS
370
25
 62
7
100
AcDbLine
 10
51.09666707827022
 20
-22.43066658434596
 30
0.0
 11
51.64500061740532
 21
-22.97900012348106
 31
0.0
  0
LINE
  5
8F0
330
1F
100
AcDbEntity
  8
2
  6
CONTINUOUS
370
25
 62
7
100
AcDbLine
 10
51.45022046886348
 20
-22.35995590622731
 30
0.0
 11
52.17533070329523
 21
-23.08506614065904
 31
0.0
  0
LINE
  5
8F1
330
1F
100
AcDbEntity
  8
2
  6
CONTINUOUS
370
25
 62
7
100
AcDbLine
 10
51.80377385945676
 20
-22.28924522810865
 30
0.0
 11
52.70566078918514
 21
-23.19113215783703
 31
0.0
  0
LINE
  5
8F2
330
1F
100
AcDbEntity
  8
2
  6
CONTINUOUS
370
25
 62
7
100
AcDbLine
 10
52.15732725005003
 20
-22.21853454999
 30
0.0
 11
53.23599087507505
 21
-23.29719817501501
 31
0.0
  0
LINE
  5
8F3
330
1F
100
AcDbEntity
  8
2
  6
CONTINUOUS
370
25
 62
7
100
AcDbLine
 10
52.51088064064331
 20
-22.14782387187134
 30
0.0
 11
53.76632096096496
 21
-23.40326419219299
 31
0.0
  0
LINE
  5
8F4
330
1F
100
AcDbEntity
  8
2
  6
CONTINUOUS
370
25
 62
7
100
AcDbLine
 10
52.86443403123658
 20
-22.07711319375269
 30
0.0
 11
54.29665104685487
 21
-23.50933020937098
 31
0.0
  0
LINE
  5
8F5
330
1F
100
AcDbEntity
  8
2
  6
CONTINUOUS
370
25
 62
7
100
AcDbLine
 10
53.21798742182985
 20
-22.00640251563403
 30
0.0
 11
54.82698113274478
 21
-23.61539622654896
 31
0.0
  0
LINE
  5
8F6
330
1F
100
AcDbEntity
  8
2
  6
CONTINUOUS
370
25
 62
7
100
AcDbLine
 10
53.57154081242312
 20
-21.93569183751538
 30
0.0
 11
55.0
 21
-23.36415102509225
 31
0.0
  0
LINE
  5
8F7
330
1F
100
AcDbEntity
  8
2
  6
CONTINUOUS
370
25
 62
7
100
AcDbLine
 10
53.9250942030164
 20
-21.86498115939672
 30
0.0
 11
55.0
 21
-22.93988695638032
 31
0.0
  0
LINE
  5
8F8
330
1F
100
AcDbEntity
  8
2
  6
CONTINUOUS
370
25
 62
7
100
AcDbLine
 10
54.27864759360967
 20
-21.79427048127807
 30
0.0
 11
55.0
 21
-22.51562288766839
 31
0.0
  0
LINE
  5
8F9
330
1F
100
AcDbEntity
  8
2
  6
CONTINUOUS
370
25
 62
7
100
AcDbLine
 10
54.63220098420295
 20
-21.72355980315941
 30
0.0
 11
55.0
 21
-22.09135881895646
 31
0.0
  0
LINE
  5
8FA
330
1F
100
AcDbEntity
  8
2
  6
CONTINUOUS
370
25
 62
7
100
AcDbLine
 10
54.98575437479622
 20
-21.65284912504076
 30
0.0
 11
55.0
 21
-21.66709475024454
 31
0.0
  0
TEXT
  5
8FB
330
1F
100
AcDbEntity
  8
2
  6
CONTINUOUS
370
25
 62
7
100
AcDbText
 10
57.54583333333333
 20
-21.15
 30
0.0
 40
3.5
  1
4.1
 72
     1
 11
60.46249999999999
 21
-21.15
 31
0.0
100
AcDbText
  0
LINE
  5
8FC
330
1F
100
AcDbEntity
  8
2
  6
CONTINUOUS
370
25
 62
7
100
AcDbLine
 10
49.81162049
 20
-0.45760957
 30
0.0
 11
73.35396091567927
 21
-23.99994999567924
 31
0.0
  0
LINE
  5
8FD
330
1F
100
AcDbEntity
  8
2
  6
CONTINUOUS
370
25
 62
7
100
AcDbLine
 10
73.35396091567927
 20
-23.99994999567924
 30
0.0
 11
89.75396091567927
 21
-23.99994999567924
 31
0.0
  0
LINE
  5
8FE
330
1F
100
AcDbEntity
  8
2
  6
CONTINUOUS
370
25
 62
7
100
AcDbLine
 10
49.81162049
 20
-0.45760957
 30
0.0
 11
49.35200108222874
 21
0.0020098377712559
 31
0.0
  0
LINE
  5
8FF
330
1F
100
AcDbEntity
  8
2
  6
CONTINUOUS
370
25
 62
7
100
AcDbLine
 10
49.81162049
 20
-0.45760957
 30
0.0
 11
54.05426117711929
 21
-3.286036694746187
 31
0.0
  0
LINE
  5
900
330
1F
100
AcDbEntity
  8
2
  6
CONTINUOUS
370
25
 62
7
100
AcDbLine
 10
54.05426117711929
 20
-3.286036694746187
 30
0.0
 11
52.64004761474619
 21
-4.700250257119283
 31
0.0
  0
LINE
  5
901
330
1F
100
AcDbEntity
  8
2
  6
CONTINUOUS
370
25
 62
7
100
AcDbLine
 10
52.64004761474619
 20
-4.700250257119283
 30
0.0
 11
49.81162049
 21
-0.45760957
 31
0.0
  0
LINE
  5
902
330
1F
100
AcDbEntity
  8
2
  6
CONTINUOUS
370
25
 62
7
100
AcDbLine
 10
52.54108050909137
 20
-4.551799598637055
 30
0.0
 11
53.90581051863706
 21
-3.187069589091369
 31
0.0
  0
LINE
  5
903
330
1F
100
AcDbEntity
  8
2
  6
CONTINUOUS
370
25
 62
7
100
AcDbLine
 10
52.3713748816066
 20
-4.297241157409902
 30
0.0
 11
53.6512520774099
 21
-3.017363961606598
 31
0.0
  0
LINE
  5
904
330
1F
100
AcDbEntity
  8
2
  6
CONTINUOUS
370
25
 62
7
100
AcDbLine
 10
52.20166925412183
 20
-4.042682716182744
 30
0.0
 11
53.39669363618275
 21
-2.847658334121828
 31
0.0
  0
LINE
  5
905
330
1F
100
AcDbEntity
  8
2
  6
CONTINUOUS
370
25
 62
7
100
AcDbLine
 10
52.03196362663706
 20
-3.788124274955589
 30
0.0
 11
53.14213519495559
 21
-2.677952706637056
 31
0.0
  0
LINE
  5
906
330
1F
100
AcDbEntity
  8
2
  6
CONTINUOUS
370
25
 62
7
100
AcDbLine
 10
51.86225799915229
 20
-3.533565833728431
 30
0.0
 11
52.88757675372843
 21
-2.508247079152287
 31
0.0
  0
LINE
  5
907
330
1F
100
AcDbEntity
  8
2
  6
CONTINUOUS
370
25
 62
7
100
AcDbLine
 10
51.69255237166752
 20
-3.279007392501274
 30
0.0
 11
52.63301831250128
 21
-2.338541451667513
 31
0.0
  0
LINE
  5
908
330
1F
100
AcDbEntity
  8
2
  6
CONTINUOUS
370
25
 62
7
100
AcDbLine
 10
51.52284674418274
 20
-3.024448951274117
 30
0.0
 11
52.37845987127412
 21
-2.168835824182743
 31
0.0
  0
LINE
  5
909
330
1F
100
AcDbEntity
  8
2
  6
CONTINUOUS
370
25
 62
7
100
AcDbLine
 10
51.35314111669797
 20
-2.769890510046961
 30
0.0
 11
52.12390143004696
 21
-1.999130196697973
 31
0.0
  0
LINE
  5
90A
330
1F
100
AcDbEntity
  8
2
  6
CONTINUOUS
370
25
 62
7
100
AcDbLine
 10
51.1834354892132
 20
-2.515332068819804
 30
0.0
 11
51.86934298881981
 21
-1.829424569213201
 31
0.0
  0
LINE
  5
90B
330
1F
100
AcDbEntity
  8
2
  6
CONTINUOUS
370
25
 62
7
100
AcDbLine
 10
51.01372986172843
 20
-2.260773627592648
 30
0.0
 11
51.61478454759265
 21
-1.65971894172843
 31
0.0
  0
LINE
  5
90C
330
1F
100
AcDbEntity
  8
2
  6
CONTINUOUS
370
25
 62
7
100
AcDbLine
 10
50.84402423424366
 20
-2.006215186365493
 30
0.0
 11
51.36022610636549
 21
-1.49001331424366
 31
0.0
  0
LINE
  5
90D
330
1F
100
AcDbEntity
  8
2
  6
CONTINUOUS
370
25
 62
7
100
AcDbLine
 10
50.67431860675889
 20
-1.751656745138336
 30
0.0
 11
51.10566766513833
 21
-1.320307686758888
 31
0.0
  0
LINE
  5
90E
330
1F
100
AcDbEntity
  8
2
  6
CONTINUOUS
370
25
 62
7
100
AcDbLine
 10
50.50461297927411
 20
-1.49709830391118
 30
0.0
 11
50.85110922391118
 21
-1.150602059274119
 31
0.0
  0
LINE
  5
90F
330
1F
100
AcDbEntity
  8
2
  6
CONTINUOUS
370
25
 62
7
100
AcDbLine
 10
50.33490735178935
 20
-1.242539862684021
 30
0.0
 11
50.59655078268402
 21
-0.9808964317893452
 31
0.0
  0
LINE
  5
910
330
1F
100
AcDbEntity
  8
2
  6
CONTINUOUS
370
25
 62
7
100
AcDbLine
 10
50.16520172430457
 20
-0.9879814214568654
 30
0.0
 11
50.34199234145687
 21
-0.8111908043045748
 31
0.0
  0
LINE
  5
911
330
1F
100
AcDbEntity
  8
2
  6
CONTINUOUS
370
25
 62
7
100
AcDbLine
 10
49.99549609681981
 20
-0.7334229802297081
 30
0.0
 11
50.08743390022971
 21
-0.6414851768198044
 31
0.0
  0
LINE
  5
912
330
1F
100
AcDbEntity
  8
2
  6
CONTINUOUS
370
25
 62
7
100
AcDbLine
 10
49.82579046933503
 20
-0.4788645390025526
 30
0.0
 11
49.83287545900255
 21
-0.4717795493350341
 31
0.0
  0
LINE
  5
913
330
1F
100
AcDbEntity
  8
2
  6
CONTINUOUS
370
25
 62
7
100
AcDbLine
 10
52.29466399379443
 20
-4.182174825691639
 30
0.0
 11
52.72639351998413
 21
-4.613904351881342
 31
0.0
  0
LINE
  5
914
330
1F
100
AcDbEntity
  8
2
  6
CONTINUOUS
370
25
 62
7
100
AcDbLine
 10
51.44613585637057
 20
-2.909382619555858
 30
0.0
 11
52.9385255543401
 21
-4.401772317525381
 31
0.0
  0
LINE
  5
915
330
1F
100
AcDbEntity
  8
2
  6
CONTINUOUS
370
25
 62
7
100
AcDbLine
 10
50.59760771894671
 20
-1.636590413420071
 30
0.0
 11
53.15065758869606
 21
-4.189640283169416
 31
0.0
  0
LINE
  5
916
330
1F
100
AcDbEntity
  8
2
  6
CONTINUOUS
370
25
 62
7
100
AcDbLine
 10
49.90543185271572
 20
-0.5201504784771434
 30
0.0
 11
53.36278962305202
 21
-3.97750824881345
 31
0.0
  0
LINE
  5
917
330
1F
100
AcDbEntity
  8
2
  6
CONTINUOUS
370
25
 62
7
100
AcDbLine
 10
51.1782240588515
 20
-1.368678615900997
 30
0.0
 11
53.57492165740798
 21
-3.765376214457486
 31
0.0
  0
LINE
  5
918
330
1F
100
AcDbEntity
  8
2
  6
CONTINUOUS
370
25
 62
7
100
AcDbLine
 10
52.45101626498728
 20
-2.217206753324852
 30
0.0
 11
53.78705369176395
 21
-3.553244180101521
 31
0.0
  0
LINE
  5
919
330
1F
100
AcDbEntity
  8
2
  6
CONTINUOUS
370
25
 62
7
100
AcDbLine
 10
53.72380847112306
 20
-3.065734890748704
 30
0.0
 11
53.99918572611992
 21
-3.341112145745557
 31
0.0
  0
TEXT
  5
91A
330
1F
100
AcDbEntity
  8
2
  6
CONTINUOUS
370
25
 62
7
100
AcDbText
 10
74.84562758234595
 20
-22.49994999567924
 30
0.0
 40
3.5
  1
R0.65
 72
     1
 11
81.55396091567928
 21
-22.49994999567924
 31
0.0
100
AcDbText
  0
LINE
  5
91B
330
1F
100
AcDbEntity
  8
SK1
  6
CONTINUOUS
370
50
 62
4
100
AcDbLine
 10
40.9
 20
0.0
 30
0.0
 11
42.65
 21
0.0
 31
0.0
  0
LINE
  5
91C
330
1F
100
AcDbEntity
  8
SK1
  6
CONTINUOUS
370
50
 62
4
100
AcDbLine
 10
40.9
 20
0.0
 30
0.0
 11
40.9
 21
1.75
 31
0.0
  0
ARC
  5
91D
330
1F
100
AcDbEntity
  8
SK1
  6
CONTINUOUS
370
50
 62
4
100
AcDbCircle
 10
40.9
 20
0.0
 30
0.0
 40
1.75
100
AcDbArc
 50
0.0
 51
90.0
  0
LINE
  5
91E
330
1F
100
AcDbEntity
  8
SK1
  6
CONTINUOUS
370
50
 62
4
100
AcDbLine
 10
40.9
 20
0.0
 30
0.0
 11
39.15
 21
0.0
 31
0.0
  0
ARC
  5
91F
330
1F
100
AcDbEntity
  8
SK1
  6
CONTINUOUS
370
50
 62
4
100
AcDbCircle
 10
40.9
 20
0.0
 30
0.0
 40
1.75
100
AcDbArc
 50
180.0
 51
270.0
  0
LINE
  5
920
330
1F
100
AcDbEntity
  8
SK1
  6
CONTINUOUS
370
50
 62
4
100
AcDbLine
 10
40.9
 20
-1.75
 30
0.0
 11
40.9
 21
0.0
 31
0.0
  0
ARC
  5
921
330
1F
100
AcDbEntity
  8
SK1
  6
CONTINUOUS
370
50
 62
4
100
AcDbCircle
 10
40.9
 20
0.0
 30
0.0
 40
1.75
100
AcDbArc
 50
270.0
 51
0.0
  0
ARC
  5
922
330
1F
100
AcDbEntity
  8
SK1
  6
CONTINUOUS
370
50
 62
4
100
AcDbCircle
 10
40.9
 20
0.0
 30
0.0
 40
1.75
100
AcDbArc
 50
90.0
 51
180.0
  0
LINE
  5
923
330
1F
100
AcDbEntity
  8
SK1
  6
CONTINUOUS
370
50
 62
4
100
AcDbLine
 10
40.67717274741573
 20
-1.73564731720198
 30
0.0
 11
40.9
 21
-1.512820064617713
 31
0.0
  0
LINE
  5
924
330
1F
100
AcDbEntity
  8
SK1
  6
CONTINUOUS
370
50
 62
4
100
AcDbLine
 10
42.41282006461771
 20
0.0
 30
0.0
 11
42.63564731720198
 21
0.2228272525842674
 31
0.0
  0
LINE
  5
925
330
1F
100
AcDbEntity
  8
SK1
  6
CONTINUOUS
370
50
 62
4
100
AcDbLine
 10
40.46930380681873
 20
-1.69602888438369
 30
0.0
 11
40.9
 21
-1.265332691202421
 31
0.0
  0
LINE
  5
926
330
1F
100
AcDbEntity
  8
SK1
  6
CONTINUOUS
370
50
 62
4
100
AcDbLine
 10
42.16533269120242
 20
0.0
 30
0.0
 11
42.59602888438368
 21
0.4306961931812696
 31
0.0
  0
LINE
  5
927
330
1F
100
AcDbEntity
  8
SK1
  6
CONTINUOUS
370
50
 62
4
100
AcDbLine
 10
40.28148340435764
 20
-1.636361913429485
 30
0.0
 11
40.9
 21
-1.01784531778713
 31
0.0
  0
LINE
  5
928
330
1F
100
AcDbEntity
  8
SK1
  6
CONTINUOUS
370
50
 62
4
100
AcDbLine
 10
41.91784531778713
 20
0.0
 30
0.0
 11
42.53636191342948
 21
0.6185165956423557
 31
0.0
  0
LINE
  5
929
330
1F
100
AcDbEntity
  8
SK1
  6
CONTINUOUS
370
50
 62
4
100
AcDbLine
 10
40.1098551094628
 20
-1.560502834909039
 30
0.0
 11
40.9
 21
-0.7703579443718382
 31
0.0
  0
LINE
  5
92A
330
1F
100
AcDbEntity
  8
SK1
  6
CONTINUOUS
370
50
 62
4
100
AcDbLine
 10
41.67035794437184
 20
0.0
 30
0.0
 11
42.46050283490904
 21
0.7901448905372013
 31
0.0
  0
LINE
  5
92B
330
1F
100
AcDbEntity
  8
SK1
  6
CONTINUOUS
370
50
 62
4
100
AcDbLine
 10
39.95217783219447
 20
-1.470692738762079
 30
0.0
 11
40.9
 21
-0.5228705709565462
 31
0.0
  0
LINE
  5
92C
330
1F
100
AcDbEntity
  8
SK1
  6
CONTINUOUS
370
50
 62
4
100
AcDbLine
 10
41.42287057095655
 20
0.0
 30
0.0
 11
42.37069273876207
 21
0.947822167805533
 31
0.0
  0
LINE
  5
92D
330
1F
100
AcDbEntity
  8
SK1
  6
CONTINUOUS
370
50
 62
4
100
AcDbLine
 10
39.80842956711547
 20
-1.366953630425777
 30
0.0
 11
40.9
 21
-0.2753831975412551
 31
0.0
  0
LINE
  5
92E
330
1F
100
AcDbEntity
  8
SK1
  6
CONTINUOUS
370
50
 62
4
100
AcDbLine
 10
41.17538319754125
 20
0.0
 30
0.0
 11
42.26695363042577
 21
1.091570432884522
 31
0.0
  0
LINE
  5
92F
330
1F
100
AcDbEntity
  8
SK1
  6
CONTINUOUS
370
50
 62
4
100
AcDbLine
 10
39.67712164538165
 20
-1.25077417874432
 30
0.0
 11
40.9
 21
-0.0278958241259639
 31
0.0
  0
LINE
  5
930
330
1F
100
AcDbEntity
  8
SK1
  6
CONTINUOUS
370
50
 62
4
100
AcDbLine
 10
40.92789582412596
 20
0.0
 30
0.0
 11
42.15077417874432
 21
1.222878354618356
 31
0.0
  0
LINE
  5
931
330
1F
100
AcDbEntity
  8
SK1
  6
CONTINUOUS
370
50
 62
4
100
AcDbLine
 10
39.55784030371346
 20
-1.122568146997212
 30
0.0
 11
40.68040845071067
 21
0.0
 31
0.0
  0
LINE
  5
932
330
1F
100
AcDbEntity
  8
SK1
  6
CONTINUOUS
370
50
 62
4
100
AcDbLine
 10
40.9
 20
0.2195915492893277
 30
0.0
 11
42.02256814699721
 21
1.34215969628654
 31
0.0
  0
LINE
  5
933
330
1F
100
AcDbEntity
  8
SK1
  6
CONTINUOUS
370
50
 62
4
100
AcDbLine
 10
39.45188167231256
 20
-0.9810394049828186
 30
0.0
 11
40.43292107729538
 21
0.0
 31
0.0
  0
LINE
  5
934
330
1F
100
AcDbEntity
  8
SK1
  6
CONTINUOUS
370
50
 62
4
100
AcDbLine
 10
40.9
 20
0.4670789227046193
 30
0.0
 11
41.88103940498281
 21
1.448118327687438
 31
0.0
  0
LINE
  5
935
330
1F
100
AcDbEntity
  8
SK1
  6
CONTINUOUS
370
50
 62
4
100
AcDbLine
 10
39.35832908651575
 20
-0.8271046173643402
 30
0.0
 11
40.18543370388009
 21
0.0
 31
0.0
  0
LINE
  5
936
330
1F
100
AcDbEntity
  8
SK1
  6
CONTINUOUS
370
50
 62
4
100
AcDbLine
 10
40.9
 20
0.71456629611991
 30
0.0
 11
41.72710461736434
 21
1.54167091348425
 31
0.0
  0
LINE
  5
937
330
1F
100
AcDbEntity
  8
SK1
  6
CONTINUOUS
370
50
 62
4
100
AcDbLine
 10
39.27918473824204
 20
-0.6587615922227528
 30
0.0
 11
39.9379463304648
 21
0.0
 31
0.0
  0
LINE
  5
938
330
1F
100
AcDbEntity
  8
SK1
  6
CONTINUOUS
370
50
 62
4
100
AcDbLine
 10
40.9
 20
0.9620536695352015
 30
0.0
 11
41.55876159222275
 21
1.620815261757954
 31
0.0
  0
LINE
  5
939
330
1F
100
AcDbEntity
  8
SK1
  6
CONTINUOUS
370
50
 62
4
100
AcDbLine
 10
39.21629687706963
 20
-0.474162079979876
 30
0.0
 11
39.69045895704951
 21
0.0
 31
0.0
  0
LINE
  5
93A
330
1F
100
AcDbEntity
  8
SK1
  6
CONTINUOUS
370
50
 62
4
100
AcDbLine
 10
40.9
 20
1.209541042950494
 30
0.0
 11
41.37416207997988
 21
1.683703122930369
 31
0.0
  0
LINE
  5
93B
330
1F
100
AcDbEntity
  8
SK1
  6
CONTINUOUS
370
50
 62
4
100
AcDbLine
 10
39.17198100434271
 20
-0.2709905792915031
 30
0.0
 11
39.44297158363422
 21
0.0
 31
0.0
  0
LINE
  5
93C
330
1F
100
AcDbEntity
  8
SK1
  6
CONTINUOUS
370
50
 62
4
100
AcDbLine
 10
40.9
 20
1.457028416365784
 30
0.0
 11
41.1709905792915
 21
1.728018995657286
 31
0.0
  0
LINE
  5
93D
330
1F
100
AcDbEntity
  8
SK1
  6
CONTINUOUS
370
50
 62
4
100
AcDbLine
 10
39.1513858468978
 20
-0.0440983633211194
 30
0.0
 11
39.19548421021892
 21
0.0
 31
0.0
  0
LINE
  5
93E
330
1F
100
AcDbEntity
  8
SK1
  6
CONTINUOUS
370
50
 62
4
100
AcDbLine
 10
40.9
 20
1.704515789781075
 30
0.0
 11
40.94409836332112
 21
1.748614153102194
 31
0.0
  0
LINE
  5
93F
330
1F
100
AcDbEntity
  8
SK1
  6
CONTINUOUS
370
50
 62
4
100
AcDbLine
 10
39.26386517603682
 20
-0.6191473609004006
 30
0.0
 11
40.2808526390996
 21
-1.636134823963186
 31
0.0
  0
LINE
  5
940
330
1F
100
AcDbEntity
  8
SK1
  6
CONTINUOUS
370
50
 62
4
100
AcDbLine
 10
39.17363430643545
 20
-0.2814291178837463
 30
0.0
 11
40.61857088211625
 21
-1.726365693564548
 31
0.0
  0
LINE
  5
941
330
1F
100
AcDbEntity
  8
SK1
  6
CONTINUOUS
370
50
 62
4
100
AcDbLine
 10
39.1503344343115
 20
-0.0106418723445003
 30
0.0
 11
40.8893581276555
 21
-1.749665565688503
 31
0.0
  0
LINE
  5
942
330
1F
100
AcDbEntity
  8
SK1
  6
CONTINUOUS
370
50
 62
4
100
AcDbLine
 10
39.38717993538229
 20
0.0
 30
0.0
 11
40.9
 21
-1.51282006461771
 31
0.0
  0
LINE
  5
943
330
1F
100
AcDbEntity
  8
SK1
  6
CONTINUOUS
370
50
 62
4
100
AcDbLine
 10
39.63466730879758
 20
0.0
 30
0.0
 11
40.9
 21
-1.265332691202418
 31
0.0
  0
LINE
  5
944
330
1F
100
AcDbEntity
  8
SK1
  6
CONTINUOUS
370
50
 62
4
100
AcDbLine
 10
39.88215468221287
 20
0.0
 30
0.0
 11
40.9
 21
-1.017845317787128
 31
0.0
  0
LINE
  5
945
330
1F
100
AcDbEntity
  8
SK1
  6
CONTINUOUS
370
50
 62
4
100
AcDbLine
 10
40.12964205562816
 20
0.0
 30
0.0
 11
40.9
 21
-0.7703579443718369
 31
0.0
  0
LINE
  5
946
330
1F
100
AcDbEntity
  8
SK1
  6
CONTINUOUS
370
50
 62
4
100
AcDbLine
 10
40.37712942904345
 20
0.0
 30
0.0
 11
40.9
 21
-0.5228705709565453
 31
0.0
  0
LINE
  5
947
330
1F
100
AcDbEntity
  8
SK1
  6
CONTINUOUS
370
50
 62
4
100
AcDbLine
 10
40.62461680245875
 20
0.0
 30
0.0
 11
40.9
 21
-0.2753831975412537
 31
0.0
  0
LINE
  5
948
330
1F
100
AcDbEntity
  8
SK1
  6
CONTINUOUS
370
50
 62
4
100
AcDbLine
 10
40.87210417587404
 20
0.0
 30
0.0
 11
40.9
 21
-0.027895824125963
 31
0.0
  0
LINE
  5
949
330
1F
100
AcDbEntity
  8
SK1
  6
CONTINUOUS
370
50
 62
4
100
AcDbLine
 10
40.9
 20
0.219591549289329
 30
0.0
 11
41.11959154928932
 21
0.0
 31
0.0
  0
LINE
  5
94A
330
1F
100
AcDbEntity
  8
SK1
  6
CONTINUOUS
370
50
 62
4
100
AcDbLine
 10
40.9
 20
0.4670789227046202
 30
0.0
 11
41.36707892270462
 21
0.0
 31
0.0
  0
LINE
  5
94B
330
1F
100
AcDbEntity
  8
SK1
  6
CONTINUOUS
370
50
 62
4
100
AcDbLine
 10
40.9
 20
0.7145662961199113
 30
0.0
 11
41.61456629611991
 21
0.0
 31
0.0
  0
LINE
  5
94C
330
1F
100
AcDbEntity
  8
SK1
  6
CONTINUOUS
370
50
 62
4
100
AcDbLine
 10
40.9
 20
0.9620536695352029
 30
0.0
 11
41.8620536695352
 21
0.0
 31
0.0
  0
LINE
  5
94D
330
1F
100
AcDbEntity
  8
SK1
  6
CONTINUOUS
370
50
 62
4
100
AcDbLine
 10
40.9
 20
1.209541042950494
 30
0.0
 11
42.1095410429505
 21
0.0
 31
0.0
  0
LINE
  5
94E
330
1F
100
AcDbEntity
  8
SK1
  6
CONTINUOUS
370
50
 62
4
100
AcDbLine
 10
40.9
 20
1.457028416365785
 30
0.0
 11
42.35702841636579
 21
0.0
 31
0.0
  0
LINE
  5
94F
330
1F
100
AcDbEntity
  8
SK1
  6
CONTINUOUS
370
50
 62
4
100
AcDbLine
 10
40.9
 20
1.704515789781076
 30
0.0
 11
42.60451578978108
 21
0.0
 31
0.0
  0
LINE
  5
950
330
1F
100
AcDbEntity
  8
SK1
  6
CONTINUOUS
370
50
 62
4
100
AcDbLine
 10
41.11543384193567
 20
1.736569321260697
 30
0.0
 11
42.63656932126069
 21
0.2154338419356714
 31
0.0
  0
LINE
  5
951
330
1F
100
AcDbEntity
  8
SK1
  6
CONTINUOUS
370
50
 62
4
100
AcDbLine
 10
41.43283284728993
 20
1.666657689321729
 30
0.0
 11
42.56665768932173
 21
0.5328328472899322
 31
0.0
  0
LINE
  5
952
330
1F
100
AcDbEntity
  8
SK1
  6
CONTINUOUS
370
50
 62
4
100
AcDbLine
 10
41.94009874905674
 20
1.406879160970207
 30
0.0
 11
42.3068791609702
 21
1.040098749056747
 31
0.0
  0
LINE
  5
953
330
1F
100
AcDbEntity
  8
4
  6
LONGDASH_DASH
370
25
 62
2
100
AcDbLine
 10
40.9
 20
0.0
 30
0.0
 11
50.0
 21
0.0
 31
0.0
  0
LINE
  5
954
330
1F
100
AcDbEntity
  8
SK4
  6
LONGDASH_DASH
370
25
 62
2
100
AcDbLine
 10
-6.0
 20
0.0
 30
0.0
 11
56.0
 21
0.0
 31
0.0
  0
ARC
  5
955
330
1F
100
AcDbEntity
  8
SK6
  6
CONTINUOUS
370
25
 62
5
100
AcDbCircle
 10
74.4613820083765
 20
-26.74524575338786
 30
0.0
 40
2.76048912849221
100
AcDbArc
 50
338.9379403434233
 51
90.44457437511365
  0
LINE
  5
956
330
1F
100
AcDbEntity
  8
SK6
  6
CONTINUOUS
370
25
 62
5
100
AcDbLine
 10
74.43996279695983
 20
-23.98483972421281
 30
0.0
 11
74.43996279695983
 21
-25.08789835613463
 31
0.0
  0
ARC
  5
957
330
1F
100
AcDbEntity
  8
SK6
  6
CONTINUOUS
370
25
 62
5
100
AcDbCircle
 10
74.45050902936916
 20
-26.76523924566821
 30
0.0
 40
1.677374043771779
100
AcDbArc
 50
243.4214706017868
 51
90.36024081226083
  0
ARC
  5
958
330
1F
100
AcDbEntity
  8
SK6
  6
CONTINUOUS
370
25
 62
5
100
AcDbCircle
 10
76.97275989684958
 20
-26.33383199215561
 30
0.0
 40
3.80021703002276
100
AcDbArc
 50
210.5483731288539
 51
236.97801693668
  0
LINE
  5
959
330
1F
100
AcDbEntity
  8
SK6
  6
CONTINUOUS
370
25
 62
5
100
AcDbLine
 10
74.90179068512487
 20
-29.52016781867535
 30
0.0
 11
79.04373096742671
 21
-29.52016781867535
 31
0.0
  0
ARC
  5
95A
330
1F
100
AcDbEntity
  8
SK6
  6
CONTINUOUS
370
25
 62
5
100
AcDbCircle
 10
76.97276183877257
 20
-26.3338320937346
 30
0.0
 40
3.800216899582472
100
AcDbArc
 50
303.0219828477959
 51
326.3732153033476
  0
LINE
  5
95B
330
1F
100
AcDbEntity
  8
SK6
  6
CONTINUOUS
370
25
 62
5
100
AcDbLine
 10
80.13705975135723
 20
-28.4383194907709
 30
0.0
 11
76.77976170575462
 21
-28.4383194907709
 31
0.0
  0
LINE
  5
95C
330
1F
100
AcDbEntity
  8
SK6
  6
CONTINUOUS
370
25
 62
5
100
AcDbLine
 10
76.77976170575462
 20
-28.4383194907709
 30
0.0
 11
80.69962109771987
 21
-27.07691829641694
 31
0.0
  0
ARC
  5
95D
330
1F
100
AcDbEntity
  8
SK6
  6
CONTINUOUS
370
25
 62
5
100
AcDbCircle
 10
76.97276256157211
 20
-26.3338326048594
 30
0.0
 40
3.800217216614723
100
AcDbArc
 50
348.7238644184696
 51
53.4691051260885
  0
LINE
  5
95E
330
1F
100
AcDbEntity
  8
SK6
  6
CONTINUOUS
370
25
 62
5
100
AcDbLine
 10
79.23486524538545
 20
-23.28022124429967
 30
0.0
 11
77.03745047882737
 21
-27.73730973507057
 31
0.0
  0
ENDSEC
  0
SECTION
  2
OBJECTS
  0
DICTIONARY
  5
C
330
0
100
AcDbDictionary
281
     1
  3
ACAD_GROUP
350
D
  3
ACAD_LAYOUT
350
1A
  3
ACAD_MATERIAL
350
3B
  3
ACAD_MLEADERSTYLE
350
961
  3
ACAD_MLINESTYLE
350
17
  3
ACAD_PLOTSETTINGS
350
19
  3
ACAD_PLOTSTYLENAME
350
E
  3
ACAD_SCALELIST
350
2C8
  3
ACAD_VISUALSTYLE
350
2A
  3
AcDbVariableDictionary
350
95F
  0
DICTIONARY
  5
D
102
{ACAD_REACTORS
330
C
102
}
330
C
100
AcDbDictionary
281
     1
  0
DICTIONARY
  5
1A
102
{ACAD_REACTORS
330
C
102
}
330
C
100
AcDbDictionary
281
     1
  3
Layout1
350
1E
  3
Layout2
350
26
  3
Model
350
22
  0
DICTIONARY
  5
3B
102
{ACAD_REACTORS
330
C
102
}
330
C
100
AcDbDictionary
281
     1
  3
ByBlock
350
3D
  3
ByLayer
350
3C
  3
Global
350
3E
  0
DICTIONARY
  5
961
102
{ACAD_REACTORS
330
C
102
}
330
C
100
AcDbDictionary
281
     1
  0
DICTIONARY
  5
17
102
{ACAD_REACTORS
330
C
102
}
330
C
100
AcDbDictionary
281
     1
  3
Standard
350
18
  0
DICTIONARY
  5
19
102
{ACAD_REACTORS
330
C
102
}
330
C
100
AcDbDictionary
281
     1
  0
ACDBDICTIONARYWDFLT
  5
E
102
{ACAD_REACTORS
330
C
102
}
330
C
100
AcDbDictionary
281
     1
  3
Normal
350
F
100
AcDbDictionaryWithDefault
340
F
  0
DICTIONARY
  5
2C8
102
{ACAD_REACTORS
330
C
102
}
330
C
100
AcDbDictionary
281
     1
  3
A0
350
2C9
  3
A1
350
2CA
  3
A2
350
2CB
  3
A3
350
2CC
  3
A4
350
2CD
  3
A5
350
2CE
  3
A6
350
2CF
  3
A7
350
2D0
  3
A8
350
2D1
  3
A9
350
2D2
  3
B0
350
2D3
  3
B1
350
2D4
  3
B2
350
2D5
  3
B3
350
2D6
  3
B4
350
2D7
  3
B5
350
2D8
  3
B6
350
2D9
  3
B7
350
2DA
  3
B8
350
2DB
  3
B9
350
2DC
  3
C0
350
2DD
  3
C1
350
2DE
  3
C2
350
2DF
  3
C3
350
2E0
  3
C4
350
2E1
  3
C5
350
2E2
  3
C6
350
2E3
  3
C7
350
2E4
  3
C8
350
2E5
  3
C9
350
2E6
  3
D0
350
2E7
  3
D1
350
2E8
  3
D2
350
2E9
  0
DICTIONARY
  5
2A
102
{ACAD_REACTORS
330
C
102
}
330
C
100
AcDbDictionary
281
     1
  3
2dWireframe
350
2F
  3
3D Hidden
350
31
  3
3dWireframe
350
30
  3
Basic
350
32
  3
Brighten
350
36
  3
ColorChange
350
3A
  3
Conceptual
350
34
  3
Dim
350
35
  3
Facepattern
350
39
  3
Flat
350
2B
  3
FlatWithEdges
350
2C
  3
Gouraud
350
2D
  3
GouraudWithEdges
350
2E
  3
Linepattern
350
38
  3
Realistic
350
33
  3
Thicken
350
37
  0
DICTIONARY
  5
95F
102
{ACAD_REACTORS
330
C
102
}
330
C
100
AcDbDictionary
281
     1
  3
CANNOSCALE
350
964
  3
DIMASSOC
350
965
  3
HIDETEXT
350
966
  3
PSOLHEIGHT
350
963
  3
PSOLWIDTH
350
962
  0
LAYOUT
  5
1E
102
{ACAD_REACTORS
330
1A
102
}
330
1A
100
AcDbPlotSettings
  1

  2
none_device
  4

  6

 40
0.0
 41
0.0
 42
0.0
 43
0.0
 44
0.0
 45
0.0
 46
0.0
 47
0.0
 48
0.0
 49
0.0
140
0.0
141
0.0
142
1.0
143
1.0
 70
   688
 72
     0
 73
     0
 74
     5
  7

 75
    16
147
1.0
148
0.0
149
0.0
100
AcDbLayout
  1
Layout1
 70
     1
 71
     1
 10
0.0
 20
0.0
 11
420.0
 21
297.0
 12
0.0
 22
0.0
 32
0.0
 14
1.000000000000000E+20
 24
1.000000000000000E+20
 34
1.000000000000000E+20
 15
-1.000000000000000E+20
 25
-1.000000000000000E+20
 35
-1.000000000000000E+20
146
0.0
 13
0.0
 23
0.0
 33
0.0
 16
1.0
 26
0.0
 36
0.0
 17
0.0
 27
1.0
 37
0.0
 76
     0
330
1B
  0
LAYOUT
  5
26
102
{ACAD_REACTORS
330
1A
102
}
330
1A
100
AcDbPlotSettings
  1

  2
none_device
  4

  6

 40
0.0
 41
0.0
 42
0.0
 43
0.0
 44
0.0
 45
0.0
 46
0.0
 47
0.0
 48
0.0
 49
0.0
140
0.0
141
0.0
142
1.0
143
1.0
 70
   688
 72
     0
 73
     0
 74
     5
  7

 75
    16
147
1.0
148
0.0
149
0.0
100
AcDbLayout
  1
Layout2
 70
     1
 71
     2
 10
0.0
 20
0.0
 11
0.0
 21
0.0
 12
0.0
 22
0.0
 32
0.0
 14
0.0
 24
0.0
 34
0.0
 15
0.0
 25
0.0
 35
0.0
146
0.0
 13
0.0
 23
0.0
 33
0.0
 16
1.0
 26
0.0
 36
0.0
 17
0.0
 27
1.0
 37
0.0
 76
     0
330
23
  0
LAYOUT
  5
22
102
{ACAD_REACTORS
330
1A
102
}
330
1A
100
AcDbPlotSettings
  1

  2
none_device
  4

  6

 40
0.0
 41
0.0
 42
0.0
 43
0.0
 44
0.0
 45
0.0
 46
0.0
 47
0.0
 48
0.0
 49
0.0
140
0.0
141
0.0
142
1.0
143
1.0
 70
  1712
 72
     0
 73
     0
 74
     0
  7

 75
     0
147
1.0
148
0.0
149
0.0
100
AcDbLayout
  1
Model
 70
     1
 71
     0
 10
0.0
 20
0.0
 11
420.0
 21
297.0
 12
0.0
 22
0.0
 32
0.0
 14
0.0
 24
0.0
 34
0.0
 15
25.0
 25
35.0
 35
0.0
146
0.0
 13
0.0
 23
0.0
 33
0.0
 16
1.0
 26
0.0
 36
0.0
 17
0.0
 27
1.0
 37
0.0
 76
     0
330
1F
331
29
  0
MATERIAL
  5
3D
102
{ACAD_REACTORS
330
3B
102
}
102
{ACAD_XDICTIONARY
360
989
102
}
330
3B
100
AcDbMaterial
  1
ByBlock
  0
MATERIAL
  5
3C
102
{ACAD_REACTORS
330
3B
102
}
102
{ACAD_XDICTIONARY
360
987
102
}
330
3B
100
AcDbMaterial
  1
ByLayer
  0
MATERIAL
  5
3E
102
{ACAD_REACTORS
330
3B
102
}
102
{ACAD_XDICTIONARY
360
98B
102
}
330
3B
100
AcDbMaterial
  1
Global
  0
MLINESTYLE
  5
18
102
{ACAD_REACTORS
330
17
102
}
330
17
100
AcDbMlineStyle
  2
Standard
 70
     0
  3

 62
   256
 51
90.0
 52
90.0
 71
     2
 49
0.5
 62
   256
  6
BYLAYER
 49
-0.5
 62
   256
  6
BYLAYER
  0
ACDBPLACEHOLDER
  5
F
102
{ACAD_REACTORS
330
E
102
}
330
E
  0
SCALE
  5
2C9
102
{ACAD_REACTORS
330
2C8
102
}
330
2C8
100
AcDbScale
 70
     0
300
1:1
140
1.0
141
1.0
290
     1
  0
SCALE
  5
2CA
102
{ACAD_REACTORS
330
2C8
102
}
330
2C8
100
AcDbScale
 70
     0
300
1:2
140
1.0
141
2.0
290
     0
  0
SCALE
  5
2CB
102
{ACAD_REACTORS
330
2C8
102
}
330
2C8
100
AcDbScale
 70
     0
300
1:4
140
1.0
141
4.0
290
     0
  0
SCALE
  5
2CC
102
{ACAD_REACTORS
330
2C8
102
}
330
2C8
100
AcDbScale
 70
     0
300
1:5
140
1.0
141
5.0
290
     0
  0
SCALE
  5
2CD
102
{ACAD_REACTORS
330
2C8
102
}
330
2C8
100
AcDbScale
 70
     0
300
1:8
140
1.0
141
8.0
290
     0
  0
SCALE
  5
2CE
102
{ACAD_REACTORS
330
2C8
102
}
330
2C8
100
AcDbScale
 70
     0
300
1:10
140
1.0
141
10.0
290
     0
  0
SCALE
  5
2CF
102
{ACAD_REACTORS
330
2C8
102
}
330
2C8
100
AcDbScale
 70
     0
300
1:16
140
1.0
141
16.0
290
     0
  0
SCALE
  5
2D0
102
{ACAD_REACTORS
330
2C8
102
}
330
2C8
100
AcDbScale
 70
     0
300
1:20
140
1.0
141
20.0
290
     0
  0
SCALE
  5
2D1
102
{ACAD_REACTORS
330
2C8
102
}
330
2C8
100
AcDbScale
 70
     0
300
1:30
140
1.0
141
30.0
290
     0
  0
SCALE
  5
2D2
102
{ACAD_REACTORS
330
2C8
102
}
330
2C8
100
AcDbScale
 70
     0
300
1:40
140
1.0
141
40.0
290
     0
  0
SCALE
  5
2D3
102
{ACAD_REACTORS
330
2C8
102
}
330
2C8
100
AcDbScale
 70
     0
300
1:50
140
1.0
141
50.0
290
     0
  0
SCALE
  5
2D4
102
{ACAD_REACTORS
330
2C8
102
}
330
2C8
100
AcDbScale
 70
     0
300
1:100
140
1.0
141
100.0
290
     0
  0
SCALE
  5
2D5
102
{ACAD_REACTORS
330
2C8
102
}
330
2C8
100
AcDbScale
 70
     0
300
2:1
140
2.0
141
1.0
290
     0
  0
SCALE
  5
2D6
102
{ACAD_REACTORS
330
2C8
102
}
330
2C8
100
AcDbScale
 70
     0
300
4:1
140
4.0
141
1.0
290
     0
  0
SCALE
  5
2D7
102
{ACAD_REACTORS
330
2C8
102
}
330
2C8
100
AcDbScale
 70
     0
300
8:1
140
8.0
141
1.0
290
     0
  0
SCALE
  5
2D8
102
{ACAD_REACTORS
330
2C8
102
}
330
2C8
100
AcDbScale
 70
     0
300
10:1
140
10.0
141
1.0
290
     0
  0
SCALE
  5
2D9
102
{ACAD_REACTORS
330
2C8
102
}
330
2C8
100
AcDbScale
 70
     0
300
100:1
140
100.0
141
1.0
290
     0
  0
SCALE
  5
2DA
102
{ACAD_REACTORS
330
2C8
102
}
330
2C8
100
AcDbScale
 70
     0
300
1/128" = 1'-0"
140
0.0078125
141
12.0
290
     0
  0
SCALE
  5
2DB
102
{ACAD_REACTORS
330
2C8
102
}
330
2C8
100
AcDbScale
 70
     0
300
1/64" = 1'-0"
140
0.015625
141
12.0
290
     0
  0
SCALE
  5
2DC
102
{ACAD_REACTORS
330
2C8
102
}
330
2C8
100
AcDbScale
 70
     0
300
1/32" = 1'-0"
140
0.03125
141
12.0
290
     0
  0
SCALE
  5
2DD
102
{ACAD_REACTORS
330
2C8
102
}
330
2C8
100
AcDbScale
 70
     0
300
1/16" = 1'-0"
140
0.0625
141
12.0
290
     0
  0
SCALE
  5
2DE
102
{ACAD_REACTORS
330
2C8
102
}
330
2C8
100
AcDbScale
 70
     0
300
3/32" = 1'-0"
140
0.09375
141
12.0
290
     0
  0
SCALE
  5
2DF
102
{ACAD_REACTORS
330
2C8
102
}
330
2C8
100
AcDbScale
 70
     0
300
1/8" = 1'-0"
140
0.125
141
12.0
290
     0
  0
SCALE
  5
2E0
102
{ACAD_REACTORS
330
2C8
102
}
330
2C8
100
AcDbScale
 70
     0
300
3/16" = 1'-0"
140
0.1875
141
12.0
290
     0
  0
SCALE
  5
2E1
102
{ACAD_REACTORS
330
2C8
102
}
330
2C8
100
AcDbScale
 70
     0
300
1/4" = 1'-0"
140
0.25
141
12.0
290
     0
  0
SCALE
  5
2E2
102
{ACAD_REACTORS
330
2C8
102
}
330
2C8
100
AcDbScale
 70
     0
300
3/8" = 1'-0"
140
0.375
141
12.0
290
     0
  0
SCALE
  5
2E3
102
{ACAD_REACTORS
330
2C8
102
}
330
2C8
100
AcDbScale
 70
     0
300
1/2" = 1'-0"
140
0.5
141
12.0
290
     0
  0
SCALE
  5
2E4
102
{ACAD_REACTORS
330
2C8
102
}
330
2C8
100
AcDbScale
 70
     0
300
3/4" = 1'-0"
140
0.75
141
12.0
290
     0
  0
SCALE
  5
2E5
102
{ACAD_REACTORS
330
2C8
102
}
330
2C8
100
AcDbScale
 70
     0
300
1" = 1'-0"
140
1.0
141
12.0
290
     0
  0
SCALE
  5
2E6
102
{ACAD_REACTORS
330
2C8
102
}
330
2C8
100
AcDbScale
 70
     0
300
1-1/2" = 1'-0"
140
1.5
141
12.0
290
     0
  0
SCALE
  5
2E7
102
{ACAD_REACTORS
330
2C8
102
}
330
2C8
100
AcDbScale
 70
     0
300
3" = 1'-0"
140
3.0
141
12.0
290
     0
  0
SCALE
  5
2E8
102
{ACAD_REACTORS
330
2C8
102
}
330
2C8
100
AcDbScale
 70
     0
300
6" = 1'-0"
140
6.0
141
12.0
290
     0
  0
SCALE
  5
2E9
102
{ACAD_REACTORS
330
2C8
102
}
330
2C8
100
AcDbScale
 70
     0
300
1'-0" = 1'-0"
140
12.0
141
12.0
290
     0
  0
VISUALSTYLE
  5
2F
102
{ACAD_REACTORS
330
2A
102
}
102
{ACAD_XDICTIONARY
360
96F
102
}
330
2A
100
AcDbVisualStyle
  2
2dWireframe
 70
     4
 71
     0
 72
     2
 73
     0
 90
        0
 40
-0.6
 41
-30.0
 62
     5
 63
     7
 74
     1
 91
        4
 64
     7
 65
   257
 75
     1
175
     1
 42
1.0
 92
        0
 66
   257
 43
1.0
 76
     1
 77
     6
 78
     2
 67
     7
 79
     5
170
     0
171
     0
290
     0
174
     0
 93
        1
 44
0.0
173
     0
291
     0
 45
0.0
1001
ACAD
1000
AcDbSavedByObjectVersion
1070
     0
  0
VISUALSTYLE
  5
31
102
{ACAD_REACTORS
330
2A
102
}
102
{ACAD_XDICTIONARY
360
973
102
}
330
2A
100
AcDbVisualStyle
  2
3D Hidden
 70
     6
 71
     1
 72
     2
 73
     2
 90
        0
 40
-0.6
 41
-30.0
 62
     5
 63
     7
 74
     2
 91
        2
 64
     7
 65
   257
 75
     2
175
     1
 42
40.0
 92
        0
 66
   257
 43
1.0
 76
     1
 77
     6
 78
     2
 67
     7
 79
     3
170
     0
171
     0
290
     0
174
     0
 93
        1
 44
0.0
173
     0
291
     0
 45
0.0
1001
ACAD
1000
AcDbSavedByObjectVersion
1070
     0
  0
VISUALSTYLE
  5
30
102
{ACAD_REACTORS
330
2A
102
}
102
{ACAD_XDICTIONARY
360
971
102
}
330
2A
100
AcDbVisualStyle
  2
3dWireframe
 70
     5
 71
     0
 72
     2
 73
     0
 90
        0
 40
-0.6
 41
-30.0
 62
     5
 63
     7
 74
     1
 91
        4
 64
     7
 65
   257
 75
     1
175
     1
 42
1.0
 92
        0
 66
   257
 43
1.0
 76
     1
 77
     6
 78
     2
 67
     7
 79
     5
170
     0
171
     0
290
     0
174
     0
 93
        1
 44
0.0
173
     0
291
     0
 45
0.0
1001
ACAD
1000
AcDbSavedByObjectVersion
1070
     0
  0
VISUALSTYLE
  5
32
102
{ACAD_REACTORS
330
2A
102
}
102
{ACAD_XDICTIONARY
360
975
102
}
330
2A
100
AcDbVisualStyle
  2
Basic
 70
     7
 71
     1
 72
     0
 73
     1
 90
        0
 40
-0.6
 41
-30.0
 62
     5
 63
     7
 74
     0
 91
        4
 64
     7
 65
   257
 75
     1
175
     1
 42
1.0
 92
        8
 66
     7
 43
1.0
 76
     1
 77
     6
 78
     2
 67
     7
 79
     5
170
     0
171
     0
290
     0
174
     0
 93
        1
 44
0.0
173
     0
291
     1
 45
0.0
1001
ACAD
1000
AcDbSavedByObjectVersion
1070
     0
  0
VISUALSTYLE
  5
36
102
{ACAD_REACTORS
330
2A
102
}
102
{ACAD_XDICTIONARY
360
97D
102
}
330
2A
100
AcDbVisualStyle
  2
Brighten
 70
    12
 71
     2
 72
     2
 73
     0
 90
        0
 40
-0.6
 41
-30.0
 62
     5
 63
     7
 74
     1
 91
        4
 64
     7
 65
   257
 75
     1
175
     1
 42
1.0
 92
        8
 66
     7
 43
1.0
 76
     1
 77
     6
 78
     2
 67
     7
 79
     5
170
     0
171
     0
290
     0
174
     0
 93
        1
 44
50.0
173
     0
291
     1
 45
0.0
1001
ACAD
1000
AcDbSavedByObjectVersion
1070
     0
  0
VISUALSTYLE
  5
3A
102
{ACAD_REACTORS
330
2A
102
}
102
{ACAD_XDICTIONARY
360
985
102
}
330
2A
100
AcDbVisualStyle
  2
ColorChange
 70
    16
 71
     2
 72
     2
 73
     3
 90
        0
 40
-0.6
 41
-30.0
 62
     5
 63
     8
 74
     1
 91
        4
 64
     7
 65
   257
 75
     1
175
     1
 42
1.0
 92
        8
 66
     8
 43
1.0
 76
     1
 77
     6
 78
     2
 67
     7
 79
     5
170
     0
171
     0
290
     0
174
     0
 93
        1
 44
0.0
173
     0
291
     1
 45
0.0
1001
ACAD
1000
AcDbSavedByObjectVersion
1070
     0
  0
VISUALSTYLE
  5
34
102
{ACAD_REACTORS
330
2A
102
}
102
{ACAD_XDICTIONARY
360
979
102
}
330
2A
100
AcDbVisualStyle
  2
Conceptual
 70
     9
 71
     3
 72
     2
 73
     0
 90
        0
 40
-0.6
 41
-30.0
 62
     5
 63
     7
 74
     2
 91
        2
 64
     7
 65
   257
 75
     1
175
     1
 42
40.0
 92
        8
 66
     7
 43
1.0
 76
     1
 77
     6
 78
     2
 67
     7
 79
     3
170
     0
171
     0
290
     0
174
     0
 93
        1
 44
0.0
173
     0
291
     0
 45
0.0
1001
ACAD
1000
AcDbSavedByObjectVersion
1070
     0
  0
VISUALSTYLE
  5
35
102
{ACAD_REACTORS
330
2A
102
}
102
{ACAD_XDICTIONARY
360
97B
102
}
330
2A
100
AcDbVisualStyle
  2
Dim
 70
    11
 71
     2
 72
     2
 73
     0
 90
        0
 40
-0.6
 41
-30.0
 62
     5
 63
     7
 74
     1
 91
        4
 64
     7
 65
   257
 75
     1
175
     1
 42
1.0
 92
        8
 66
     7
 43
1.0
 76
     1
 77
     6
 78
     2
 67
     7
 79
     5
170
     0
171
     0
290
     0
174
     0
 93
        1
 44
-50.0
173
     0
291
     1
 45
0.0
1001
ACAD
1000
AcDbSavedByObjectVersion
1070
     0
  0
VISUALSTYLE
  5
39
102
{ACAD_REACTORS
330
2A
102
}
102
{ACAD_XDICTIONARY
360
983
102
}
330
2A
100
AcDbVisualStyle
  2
Facepattern
 70
    15
 71
     2
 72
     2
 73
     0
 90
        0
 40
-0.6
 41
-30.0
 62
     5
 63
     7
 74
     1
 91
        4
 64
     7
 65
   257
 75
     1
175
     1
 42
1.0
 92
        8
 66
     7
 43
1.0
 76
     1
 77
     6
 78
     2
 67
     7
 79
     5
170
     0
171
     0
290
     0
174
     0
 93
        1
 44
0.0
173
     0
291
     1
 45
0.0
1001
ACAD
1000
AcDbSavedByObjectVersion
1070
     0
  0
VISUALSTYLE
  5
2B
102
{ACAD_REACTORS
330
2A
102
}
102
{ACAD_XDICTIONARY
360
967
102
}
330
2A
100
AcDbVisualStyle
  2
Flat
 70
     0
 71
     2
 72
     1
 73
     1
 90
        2
 40
-0.6
 41
30.0
 62
     5
 63
     7
 74
     0
 91
        4
 64
     7
 65
   257
 75
     1
175
     1
 42
1.0
 92
        8
 66
     7
 43
1.0
 76
     1
 77
     6
 78
     2
 67
     7
 79
     5
170
     0
171
     0
290
     0
174
     0
 93
       13
 44
0.0
173
     0
291
     1
 45
0.0
1001
ACAD
1000
AcDbSavedByObjectVersion
1070
     0
  0
VISUALSTYLE
  5
2C
102
{ACAD_REACTORS
330
2A
102
}
102
{ACAD_XDICTIONARY
360
969
102
}
330
2A
100
AcDbVisualStyle
  2
FlatWithEdges
 70
     1
 71
     2
 72
     1
 73
     1
 90
        2
 40
-0.6
 41
30.0
 62
     5
 63
     7
 74
     1
 91
        4
 64
     7
 65
   257
 75
     1
175
     1
 42
1.0
 92
        0
 66
   257
 43
1.0
 76
     1
 77
     6
 78
     2
 67
     7
 79
     5
170
     0
171
     0
290
     0
174
     0
 93
       13
 44
0.0
173
     0
291
     1
 45
0.0
1001
ACAD
1000
AcDbSavedByObjectVersion
1070
     0
  0
VISUALSTYLE
  5
2D
102
{ACAD_REACTORS
330
2A
102
}
102
{ACAD_XDICTIONARY
360
96B
102
}
330
2A
100
AcDbVisualStyle
  2
Gouraud
 70
     2
 71
     2
 72
     2
 73
     1
 90
        2
 40
-0.6
 41
30.0
 62
     5
 63
     7
 74
     0
 91
        4
 64
     7
 65
   257
 75
     1
175
     1
 42
1.0
 92
        0
 66
     7
 43
1.0
 76
     1
 77
     6
 78
     2
 67
     7
 79
     5
170
     0
171
     0
290
     0
174
     0
 93
       13
 44
0.0
173
     0
291
     1
 45
0.0
1001
ACAD
1000
AcDbSavedByObjectVersion
1070
     0
  0
VISUALSTYLE
  5
2E
102
{ACAD_REACTORS
330
2A
102
}
102
{ACAD_XDICTIONARY
360
96D
102
}
330
2A
100
AcDbVisualStyle
  2
GouraudWithEdges
 70
     3
 71
     2
 72
     2
 73
     1
 90
        2
 40
-0.6
 41
30.0
 62
     5
 63
     7
 74
     1
 91
        4
 64
     7
 65
   257
 75
     1
175
     1
 42
1.0
 92
        0
 66
   257
 43
1.0
 76
     1
 77
     6
 78
     2
 67
     7
 79
     5
170
     0
171
     0
290
     0
174
     0
 93
       13
 44
0.0
173
     0
291
     1
 45
0.0
1001
ACAD
1000
AcDbSavedByObjectVersion
1070
     0
  0
VISUALSTYLE
  5
38
102
{ACAD_REACTORS
330
2A
102
}
102
{ACAD_XDICTIONARY
360
981
102
}
330
2A
100
AcDbVisualStyle
  2
Linepattern
 70
    14
 71
     2
 72
     2
 73
     0
 90
        0
 40
-0.6
 41
-30.0
 62
     5
 63
     7
 74
     1
 91
        4
 64
     7
 65
   257
 75
     7
175
     7
 42
1.0
 92
        8
 66
     7
 43
1.0
 76
     1
 77
     6
 78
     2
 67
     7
 79
     5
170
     0
171
     0
290
     0
174
     0
 93
        1
 44
0.0
173
     0
291
     1
 45
0.0
1001
ACAD
1000
AcDbSavedByObjectVersion
1070
     0
  0
VISUALSTYLE
  5
33
102
{ACAD_REACTORS
330
2A
102
}
102
{ACAD_XDICTIONARY
360
977
102
}
330
2A
100
AcDbVisualStyle
  2
Realistic
 70
     8
 71
     2
 72
     2
 73
     0
 90
        0
 40
-0.6
 41
-30.0
 62
     5
 63
     7
 74
     1
 91
        0
 64
     7
 65
   257
 75
     1
175
     1
 42
1.0
 92
        8
 66
     8
 43
1.0
 76
     1
 77
     6
 78
     2
 67
     7
 79
     5
170
     0
171
     0
290
     0
174
     0
 93
       13
 44
0.0
173
     0
291
     0
 45
0.0
1001
ACAD
1000
AcDbSavedByObjectVersion
1070
     0
  0
VISUALSTYLE
  5
37
102
{ACAD_REACTORS
330
2A
102
}
102
{ACAD_XDICTIONARY
360
97F
102
}
330
2A
100
AcDbVisualStyle
  2
Thicken
 70
    13
 71
     2
 72
     2
 73
     0
 90
        0
 40
-0.6
 41
-30.0
 62
     5
 63
     7
 74
     1
 91
        4
 64
     7
 65
   257
 75
     1
175
     1
 42
1.0
 92
       12
 66
     7
 43
1.0
 76
     1
 77
     6
 78
     2
 67
     7
 79
     5
170
     0
171
     0
290
     0
174
     0
 93
        1
 44
0.0
173
     0
291
     1
 45
0.0
1001
ACAD
1000
AcDbSavedByObjectVersion
1070
     0
  0
DICTIONARYVAR
  5
964
102
{ACAD_REACTORS
330
95F
102
}
330
95F
100
DictionaryVariables
280
     0
  1
1:1
  0
DICTIONARYVAR
  5
965
102
{ACAD_REACTORS
330
95F
102
}
330
95F
100
DictionaryVariables
280
     0
  1
2
  0
DICTIONARYVAR
  5
966
102
{ACAD_REACTORS
330
95F
102
}
330
95F
100
DictionaryVariables
280
     0
  1
1
  0
DICTIONARYVAR
  5
963
102
{ACAD_REACTORS
330
95F
102
}
330
95F
100
DictionaryVariables
280
     0
  1
80.000000
  0
DICTIONARYVAR
  5
962
102
{ACAD_REACTORS
330
95F
102
}
330
95F
100
DictionaryVariables
280
     0
  1
5.000000
  0
DICTIONARY
  5
989
330
3D
100
AcDbDictionary
280
     1
281
     1
  3
ACAD_XREC_ROUNDTRIP
360
98A
  0
DICTIONARY
  5
987
330
3C
100
AcDbDictionary
280
     1
281
     1
  3
ACAD_XREC_ROUNDTRIP
360
988
  0
DICTIONARY
  5
98B
330
3E
100
AcDbDictionary
280
     1
281
     1
  3
ACAD_XREC_ROUNDTRIP
360
98C
  0
DICTIONARY
  5
96F
330
2F
100
AcDbDictionary
280
     1
281
     1
  3
ACAD_XREC_ROUNDTRIP
360
970
  0
DICTIONARY
  5
973
330
31
100
AcDbDictionary
280
     1
281
     1
  3
ACAD_XREC_ROUNDTRIP
360
974
  0
DICTIONARY
  5
971
330
30
100
AcDbDictionary
280
     1
281
     1
  3
ACAD_XREC_ROUNDTRIP
360
972
  0
DICTIONARY
  5
975
330
32
100
AcDbDictionary
280
     1
281
     1
  3
ACAD_XREC_ROUNDTRIP
360
976
  0
DICTIONARY
  5
97D
330
36
100
AcDbDictionary
280
     1
281
     1
  3
ACAD_XREC_ROUNDTRIP
360
97E
  0
DICTIONARY
  5
985
330
3A
100
AcDbDictionary
280
     1
281
     1
  3
ACAD_XREC_ROUNDTRIP
360
986
  0
DICTIONARY
  5
979
330
34
100
AcDbDictionary
280
     1
281
     1
  3
ACAD_XREC_ROUNDTRIP
360
97A
  0
DICTIONARY
  5
97B
330
35
100
AcDbDictionary
280
     1
281
     1
  3
ACAD_XREC_ROUNDTRIP
360
97C
  0
DICTIONARY
  5
983
330
39
100
AcDbDictionary
280
     1
281
     1
  3
ACAD_XREC_ROUNDTRIP
360
984
  0
DICTIONARY
  5
967
330
2B
100
AcDbDictionary
280
     1
281
     1
  3
ACAD_XREC_ROUNDTRIP
360
968
  0
DICTIONARY
  5
969
330
2C
100
AcDbDictionary
280
     1
281
     1
  3
ACAD_XREC_ROUNDTRIP
360
96A
  0
DICTIONARY
  5
96B
330
2D
100
AcDbDictionary
280
     1
281
     1
  3
ACAD_XREC_ROUNDTRIP
360
96C
  0
DICTIONARY
  5
96D
330
2E
100
AcDbDictionary
280
     1
281
     1
  3
ACAD_XREC_ROUNDTRIP
360
96E
  0
DICTIONARY
  5
981
330
38
100
AcDbDictionary
280
     1
281
     1
  3
ACAD_XREC_ROUNDTRIP
360
982
  0
DICTIONARY
  5
977
330
33
100
AcDbDictionary
280
     1
281
     1
  3
ACAD_XREC_ROUNDTRIP
360
978
  0
DICTIONARY
  5
97F
330
37
100
AcDbDictionary
280
     1
281
     1
  3
ACAD_XREC_ROUNDTRIP
360
980
  0
XRECORD
  5
98A
102
{ACAD_REACTORS
330
989
102
}
330
989
100
AcDbXrecord
280
     1
102
MATERIAL
148
0.0
149
0.0
149
0.0
 93
        0
 94
      127
282
     0
 72
     1
 77
     1
171
     1
175
     1
179
     1
273
     0
  0
XRECORD
  5
988
102
{ACAD_REACTORS
330
987
102
}
330
987
100
AcDbXrecord
280
     1
102
MATERIAL
148
0.0
149
0.0
149
0.0
 93
        0
 94
      127
282
     0
 72
     1
 77
     1
171
     1
175
     1
179
     1
273
     0
  0
XRECORD
  5
98C
102
{ACAD_REACTORS
330
98B
102
}
330
98B
100
AcDbXrecord
280
     1
102
MATERIAL
148
0.0
149
0.0
149
0.0
 93
        0
 94
      127
282
     0
 72
     1
 77
     1
171
     1
175
     1
179
     1
273
     0
  0
XRECORD
  5
970
102
{ACAD_REACTORS
330
96F
102
}
330
96F
100
AcDbXrecord
280
     1
102
RTVSPropertyOp0
 70
     1
102
RTVSPropertyOp1
 70
     1
102
RTVSPropertyOp2
 70
     1
102
RTVSPropertyOp3
 70
     1
102
RTVSPropertyOp4
 70
     1
102
RTVSPropertyOp5
 70
     1
102
RTVSPropertyOp6
 70
     1
102
RTVSPropertyOp7
 70
     1
102
RTVSPropertyOp8
 70
     1
102
RTVSPropertyOp9
 70
     1
102
RTVSPropertyOp10
 70
     1
102
RTVSPropertyOp11
 70
     1
102
RTVSPropertyOp12
 70
     1
102
RTVSPropertyOp13
 70
     1
102
RTVSPropertyOp14
 70
     1
102
RTVSPropertyOp15
 70
     1
102
RTVSPropertyOp16
 70
     1
102
RTVSPropertyOp17
 70
     1
102
RTVSPropertyOp18
 70
     1
102
RTVSPropertyOp19
 70
     1
102
RTVSPropertyOp20
 70
     1
102
RTVSPropertyOp21
 70
     1
102
RTVSPropertyOp22
 70
     1
102
RTVSPropertyOp23
 70
     1
102
RTVSPropertyOp24
 70
     1
102
RTVSPropertyOp25
 70
     1
102
RTVSPropertyOp26
 70
     1
102
RTVSPropertyOp27
 70
     1
  0
XRECORD
  5
974
102
{ACAD_REACTORS
330
973
102
}
330
973
100
AcDbXrecord
280
     1
102
RTVSPropertyOp0
 70
     1
102
RTVSPropertyOp1
 70
     1
102
RTVSPropertyOp2
 70
     1
102
RTVSPropertyOp3
 70
     1
102
RTVSPropertyOp4
 70
     1
102
RTVSPropertyOp5
 70
     1
102
RTVSPropertyOp6
 70
     1
102
RTVSPropertyOp7
 70
     1
102
RTVSPropertyOp8
 70
     1
102
RTVSPropertyOp9
 70
     1
102
RTVSPropertyOp10
 70
     1
102
RTVSPropertyOp11
 70
     1
102
RTVSPropertyOp12
 70
     1
102
RTVSPropertyOp13
 70
     1
102
RTVSPropertyOp14
 70
     1
102
RTVSPropertyOp15
 70
     1
102
RTVSPropertyOp16
 70
     1
102
RTVSPropertyOp17
 70
     1
102
RTVSPropertyOp18
 70
     1
102
RTVSPropertyOp19
 70
     1
102
RTVSPropertyOp20
 70
     1
102
RTVSPropertyOp21
 70
     1
102
RTVSPropertyOp22
 70
     1
102
RTVSPropertyOp23
 70
     1
102
RTVSPropertyOp24
 70
     1
102
RTVSPropertyOp25
 70
     1
102
RTVSPropertyOp26
 70
     1
102
RTVSPropertyOp27
 70
     1
  0
XRECORD
  5
972
102
{ACAD_REACTORS
330
971
102
}
330
971
100
AcDbXrecord
280
     1
102
RTVSPropertyOp0
 70
     1
102
RTVSPropertyOp1
 70
     1
102
RTVSPropertyOp2
 70
     1
102
RTVSPropertyOp3
 70
     1
102
RTVSPropertyOp4
 70
     1
102
RTVSPropertyOp5
 70
     1
102
RTVSPropertyOp6
 70
     1
102
RTVSPropertyOp7
 70
     1
102
RTVSPropertyOp8
 70
     1
102
RTVSPropertyOp9
 70
     1
102
RTVSPropertyOp10
 70
     1
102
RTVSPropertyOp11
 70
     1
102
RTVSPropertyOp12
 70
     1
102
RTVSPropertyOp13
 70
     1
102
RTVSPropertyOp14
 70
     1
102
RTVSPropertyOp15
 70
     1
102
RTVSPropertyOp16
 70
     1
102
RTVSPropertyOp17
 70
     1
102
RTVSPropertyOp18
 70
     1
102
RTVSPropertyOp19
 70
     1
102
RTVSPropertyOp20
 70
     1
102
RTVSPropertyOp21
 70
     1
102
RTVSPropertyOp22
 70
     1
102
RTVSPropertyOp23
 70
     1
102
RTVSPropertyOp24
 70
     1
102
RTVSPropertyOp25
 70
     1
102
RTVSPropertyOp26
 70
     1
102
RTVSPropertyOp27
 70
     1
  0
XRECORD
  5
976
102
{ACAD_REACTORS
330
975
102
}
330
975
100
AcDbXrecord
280
     1
102
RTVSPropertyOp0
 70
     1
102
RTVSPropertyOp1
 70
     1
102
RTVSPropertyOp2
 70
     1
102
RTVSPropertyOp3
 70
     1
102
RTVSPropertyOp4
 70
     1
102
RTVSPropertyOp5
 70
     1
102
RTVSPropertyOp6
 70
     1
102
RTVSPropertyOp7
 70
     1
102
RTVSPropertyOp8
 70
     1
102
RTVSPropertyOp9
 70
     1
102
RTVSPropertyOp10
 70
     1
102
RTVSPropertyOp11
 70
     1
102
RTVSPropertyOp12
 70
     1
102
RTVSPropertyOp13
 70
     1
102
RTVSPropertyOp14
 70
     1
102
RTVSPropertyOp15
 70
     1
102
RTVSPropertyOp16
 70
     1
102
RTVSPropertyOp17
 70
     1
102
RTVSPropertyOp18
 70
     1
102
RTVSPropertyOp19
 70
     1
102
RTVSPropertyOp20
 70
     1
102
RTVSPropertyOp21
 70
     1
102
RTVSPropertyOp22
 70
     1
102
RTVSPropertyOp23
 70
     1
102
RTVSPropertyOp24
 70
     1
102
RTVSPropertyOp25
 70
     1
102
RTVSPropertyOp26
 70
     1
102
RTVSPropertyOp27
 70
     1
  0
XRECORD
  5
97E
102
{ACAD_REACTORS
330
97D
102
}
330
97D
100
AcDbXrecord
280
     1
102
RTVSPropertyOp0
 70
     1
102
RTVSPropertyOp1
 70
     1
102
RTVSPropertyOp2
 70
     1
102
RTVSPropertyOp3
 70
     1
102
RTVSPropertyOp4
 70
     1
102
RTVSPropertyOp5
 70
     1
102
RTVSPropertyOp6
 70
     1
102
RTVSPropertyOp7
 70
     1
102
RTVSPropertyOp8
 70
     1
102
RTVSPropertyOp9
 70
     1
102
RTVSPropertyOp10
 70
     1
102
RTVSPropertyOp11
 70
     1
102
RTVSPropertyOp12
 70
     1
102
RTVSPropertyOp13
 70
     1
102
RTVSPropertyOp14
 70
     1
102
RTVSPropertyOp15
 70
     1
102
RTVSPropertyOp16
 70
     1
102
RTVSPropertyOp17
 70
     1
102
RTVSPropertyOp18
 70
     1
102
RTVSPropertyOp19
 70
     1
102
RTVSPropertyOp20
 70
     1
102
RTVSPropertyOp21
 70
     1
102
RTVSPropertyOp22
 70
     1
102
RTVSPropertyOp23
 70
     1
102
RTVSPropertyOp24
 70
     1
102
RTVSPropertyOp25
 70
     1
102
RTVSPropertyOp26
 70
     1
102
RTVSPropertyOp27
 70
     1
  0
XRECORD
  5
986
102
{ACAD_REACTORS
330
985
102
}
330
985
100
AcDbXrecord
280
     1
102
RTVSPropertyOp0
 70
     1
102
RTVSPropertyOp1
 70
     1
102
RTVSPropertyOp2
 70
     1
102
RTVSPropertyOp3
 70
     1
102
RTVSPropertyOp4
 70
     1
102
RTVSPropertyOp5
 70
     1
102
RTVSPropertyOp6
 70
     1
102
RTVSPropertyOp7
 70
     1
102
RTVSPropertyOp8
 70
     1
102
RTVSPropertyOp9
 70
     1
102
RTVSPropertyOp10
 70
     1
102
RTVSPropertyOp11
 70
     1
102
RTVSPropertyOp12
 70
     1
102
RTVSPropertyOp13
 70
     1
102
RTVSPropertyOp14
 70
     1
102
RTVSPropertyOp15
 70
     1
102
RTVSPropertyOp16
 70
     1
102
RTVSPropertyOp17
 70
     1
102
RTVSPropertyOp18
 70
     1
102
RTVSPropertyOp19
 70
     1
102
RTVSPropertyOp20
 70
     1
102
RTVSPropertyOp21
 70
     1
102
RTVSPropertyOp22
 70
     1
102
RTVSPropertyOp23
 70
     1
102
RTVSPropertyOp24
 70
     1
102
RTVSPropertyOp25
 70
     1
102
RTVSPropertyOp26
 70
     1
102
RTVSPropertyOp27
 70
     1
  0
XRECORD
  5
97A
102
{ACAD_REACTORS
330
979
102
}
330
979
100
AcDbXrecord
280
     1
102
RTVSPropertyOp0
 70
     1
102
RTVSPropertyOp1
 70
     1
102
RTVSPropertyOp2
 70
     1
102
RTVSPropertyOp3
 70
     1
102
RTVSPropertyOp4
 70
     1
102
RTVSPropertyOp5
 70
     1
102
RTVSPropertyOp6
 70
     1
102
RTVSPropertyOp7
 70
     1
102
RTVSPropertyOp8
 70
     1
102
RTVSPropertyOp9
 70
     1
102
RTVSPropertyOp10
 70
     1
102
RTVSPropertyOp11
 70
     1
102
RTVSPropertyOp12
 70
     1
102
RTVSPropertyOp13
 70
     1
102
RTVSPropertyOp14
 70
     1
102
RTVSPropertyOp15
 70
     1
102
RTVSPropertyOp16
 70
     1
102
RTVSPropertyOp17
 70
     1
102
RTVSPropertyOp18
 70
     1
102
RTVSPropertyOp19
 70
     1
102
RTVSPropertyOp20
 70
     1
102
RTVSPropertyOp21
 70
     1
102
RTVSPropertyOp22
 70
     1
102
RTVSPropertyOp23
 70
     1
102
RTVSPropertyOp24
 70
     1
102
RTVSPropertyOp25
 70
     1
102
RTVSPropertyOp26
 70
     1
102
RTVSPropertyOp27
 70
     1
  0
XRECORD
  5
97C
102
{ACAD_REACTORS
330
97B
102
}
330
97B
100
AcDbXrecord
280
     1
102
RTVSPropertyOp0
 70
     1
102
RTVSPropertyOp1
 70
     1
102
RTVSPropertyOp2
 70
     1
102
RTVSPropertyOp3
 70
     1
102
RTVSPropertyOp4
 70
     1
102
RTVSPropertyOp5
 70
     1
102
RTVSPropertyOp6
 70
     1
102
RTVSPropertyOp7
 70
     1
102
RTVSPropertyOp8
 70
     1
102
RTVSPropertyOp9
 70
     1
102
RTVSPropertyOp10
 70
     1
102
RTVSPropertyOp11
 70
     1
102
RTVSPropertyOp12
 70
     1
102
RTVSPropertyOp13
 70
     1
102
RTVSPropertyOp14
 70
     1
102
RTVSPropertyOp15
 70
     1
102
RTVSPropertyOp16
 70
     1
102
RTVSPropertyOp17
 70
     1
102
RTVSPropertyOp18
 70
     1
102
RTVSPropertyOp19
 70
     1
102
RTVSPropertyOp20
 70
     1
102
RTVSPropertyOp21
 70
     1
102
RTVSPropertyOp22
 70
     1
102
RTVSPropertyOp23
 70
     1
102
RTVSPropertyOp24
 70
     1
102
RTVSPropertyOp25
 70
     1
102
RTVSPropertyOp26
 70
     1
102
RTVSPropertyOp27
 70
     1
  0
XRECORD
  5
984
102
{ACAD_REACTORS
330
983
102
}
330
983
100
AcDbXrecord
280
     1
102
RTVSPropertyOp0
 70
     1
102
RTVSPropertyOp1
 70
     1
102
RTVSPropertyOp2
 70
     1
102
RTVSPropertyOp3
 70
     1
102
RTVSPropertyOp4
 70
     1
102
RTVSPropertyOp5
 70
     1
102
RTVSPropertyOp6
 70
     1
102
RTVSPropertyOp7
 70
     1
102
RTVSPropertyOp8
 70
     1
102
RTVSPropertyOp9
 70
     1
102
RTVSPropertyOp10
 70
     1
102
RTVSPropertyOp11
 70
     1
102
RTVSPropertyOp12
 70
     1
102
RTVSPropertyOp13
 70
     1
102
RTVSPropertyOp14
 70
     1
102
RTVSPropertyOp15
 70
     1
102
RTVSPropertyOp16
 70
     1
102
RTVSPropertyOp17
 70
     1
102
RTVSPropertyOp18
 70
     1
102
RTVSPropertyOp19
 70
     1
102
RTVSPropertyOp20
 70
     1
102
RTVSPropertyOp21
 70
     1
102
RTVSPropertyOp22
 70
     1
102
RTVSPropertyOp23
 70
     1
102
RTVSPropertyOp24
 70
     1
102
RTVSPropertyOp25
 70
     1
102
RTVSPropertyOp26
 70
     1
102
RTVSPropertyOp27
 70
     1
  0
XRECORD
  5
968
102
{ACAD_REACTORS
330
967
102
}
330
967
100
AcDbXrecord
280
     1
102
RTVSPropertyOp0
 70
     1
102
RTVSPropertyOp1
 70
     1
102
RTVSPropertyOp2
 70
     1
102
RTVSPropertyOp3
 70
     1
102
RTVSPropertyOp4
 70
     1
102
RTVSPropertyOp5
 70
     1
102
RTVSPropertyOp6
 70
     1
102
RTVSPropertyOp7
 70
     1
102
RTVSPropertyOp8
 70
     1
102
RTVSPropertyOp9
 70
     1
102
RTVSPropertyOp10
 70
     1
102
RTVSPropertyOp11
 70
     1
102
RTVSPropertyOp12
 70
     1
102
RTVSPropertyOp13
 70
     1
102
RTVSPropertyOp14
 70
     1
102
RTVSPropertyOp15
 70
     1
102
RTVSPropertyOp16
 70
     1
102
RTVSPropertyOp17
 70
     1
102
RTVSPropertyOp18
 70
     1
102
RTVSPropertyOp19
 70
     1
102
RTVSPropertyOp20
 70
     1
102
RTVSPropertyOp21
 70
     1
102
RTVSPropertyOp22
 70
     1
102
RTVSPropertyOp23
 70
     1
102
RTVSPropertyOp24
 70
     1
102
RTVSPropertyOp25
 70
     1
102
RTVSPropertyOp26
 70
     1
102
RTVSPropertyOp27
 70
     1
  0
XRECORD
  5
96A
102
{ACAD_REACTORS
330
969
102
}
330
969
100
AcDbXrecord
280
     1
102
RTVSPropertyOp0
 70
     1
102
RTVSPropertyOp1
 70
     1
102
RTVSPropertyOp2
 70
     1
102
RTVSPropertyOp3
 70
     1
102
RTVSPropertyOp4
 70
     1
102
RTVSPropertyOp5
 70
     1
102
RTVSPropertyOp6
 70
     1
102
RTVSPropertyOp7
 70
     1
102
RTVSPropertyOp8
 70
     1
102
RTVSPropertyOp9
 70
     1
102
RTVSPropertyOp10
 70
     1
102
RTVSPropertyOp11
 70
     1
102
RTVSPropertyOp12
 70
     1
102
RTVSPropertyOp13
 70
     1
102
RTVSPropertyOp14
 70
     1
102
RTVSPropertyOp15
 70
     1
102
RTVSPropertyOp16
 70
     1
102
RTVSPropertyOp17
 70
     1
102
RTVSPropertyOp18
 70
     1
102
RTVSPropertyOp19
 70
     1
102
RTVSPropertyOp20
 70
     1
102
RTVSPropertyOp21
 70
     1
102
RTVSPropertyOp22
 70
     1
102
RTVSPropertyOp23
 70
     1
102
RTVSPropertyOp24
 70
     1
102
RTVSPropertyOp25
 70
     1
102
RTVSPropertyOp26
 70
     1
102
RTVSPropertyOp27
 70
     1
  0
XRECORD
  5
96C
102
{ACAD_REACTORS
330
96B
102
}
330
96B
100
AcDbXrecord
280
     1
102
RTVSPropertyOp0
 70
     1
102
RTVSPropertyOp1
 70
     1
102
RTVSPropertyOp2
 70
     1
102
RTVSPropertyOp3
 70
     1
102
RTVSPropertyOp4
 70
     1
102
RTVSPropertyOp5
 70
     1
102
RTVSPropertyOp6
 70
     1
102
RTVSPropertyOp7
 70
     1
102
RTVSPropertyOp8
 70
     1
102
RTVSPropertyOp9
 70
     1
102
RTVSPropertyOp10
 70
     1
102
RTVSPropertyOp11
 70
     1
102
RTVSPropertyOp12
 70
     1
102
RTVSPropertyOp13
 70
     1
102
RTVSPropertyOp14
 70
     1
102
RTVSPropertyOp15
 70
     1
102
RTVSPropertyOp16
 70
     1
102
RTVSPropertyOp17
 70
     1
102
RTVSPropertyOp18
 70
     1
102
RTVSPropertyOp19
 70
     1
102
RTVSPropertyOp20
 70
     1
102
RTVSPropertyOp21
 70
     1
102
RTVSPropertyOp22
 70
     1
102
RTVSPropertyOp23
 70
     1
102
RTVSPropertyOp24
 70
     1
102
RTVSPropertyOp25
 70
     1
102
RTVSPropertyOp26
 70
     1
102
RTVSPropertyOp27
 70
     1
  0
XRECORD
  5
96E
102
{ACAD_REACTORS
330
96D
102
}
330
96D
100
AcDbXrecord
280
     1
102
RTVSPropertyOp0
 70
     1
102
RTVSPropertyOp1
 70
     1
102
RTVSPropertyOp2
 70
     1
102
RTVSPropertyOp3
 70
     1
102
RTVSPropertyOp4
 70
     1
102
RTVSPropertyOp5
 70
     1
102
RTVSPropertyOp6
 70
     1
102
RTVSPropertyOp7
 70
     1
102
RTVSPropertyOp8
 70
     1
102
RTVSPropertyOp9
 70
     1
102
RTVSPropertyOp10
 70
     1
102
RTVSPropertyOp11
 70
     1
102
RTVSPropertyOp12
 70
     1
102
RTVSPropertyOp13
 70
     1
102
RTVSPropertyOp14
 70
     1
102
RTVSPropertyOp15
 70
     1
102
RTVSPropertyOp16
 70
     1
102
RTVSPropertyOp17
 70
     1
102
RTVSPropertyOp18
 70
     1
102
RTVSPropertyOp19
 70
     1
102
RTVSPropertyOp20
 70
     1
102
RTVSPropertyOp21
 70
     1
102
RTVSPropertyOp22
 70
     1
102
RTVSPropertyOp23
 70
     1
102
RTVSPropertyOp24
 70
     1
102
RTVSPropertyOp25
 70
     1
102
RTVSPropertyOp26
 70
     1
102
RTVSPropertyOp27
 70
     1
  0
XRECORD
  5
982
102
{ACAD_REACTORS
330
981
102
}
330
981
100
AcDbXrecord
280
     1
102
RTVSPropertyOp0
 70
     1
102
RTVSPropertyOp1
 70
     1
102
RTVSPropertyOp2
 70
     1
102
RTVSPropertyOp3
 70
     1
102
RTVSPropertyOp4
 70
     1
102
RTVSPropertyOp5
 70
     1
102
RTVSPropertyOp6
 70
     1
102
RTVSPropertyOp7
 70
     1
102
RTVSPropertyOp8
 70
     1
102
RTVSPropertyOp9
 70
     1
102
RTVSPropertyOp10
 70
     1
102
RTVSPropertyOp11
 70
     1
102
RTVSPropertyOp12
 70
     1
102
RTVSPropertyOp13
 70
     1
102
RTVSPropertyOp14
 70
     1
102
RTVSPropertyOp15
 70
     1
102
RTVSPropertyOp16
 70
     1
102
RTVSPropertyOp17
 70
     1
102
RTVSPropertyOp18
 70
     1
102
RTVSPropertyOp19
 70
     1
102
RTVSPropertyOp20
 70
     1
102
RTVSPropertyOp21
 70
     1
102
RTVSPropertyOp22
 70
     1
102
RTVSPropertyOp23
 70
     1
102
RTVSPropertyOp24
 70
     1
102
RTVSPropertyOp25
 70
     1
102
RTVSPropertyOp26
 70
     1
102
RTVSPropertyOp27
 70
     1
  0
XRECORD
  5
978
102
{ACAD_REACTORS
330
977
102
}
330
977
100
AcDbXrecord
280
     1
102
RTVSPropertyOp0
 70
     1
102
RTVSPropertyOp1
 70
     1
102
RTVSPropertyOp2
 70
     1
102
RTVSPropertyOp3
 70
     1
102
RTVSPropertyOp4
 70
     1
102
RTVSPropertyOp5
 70
     1
102
RTVSPropertyOp6
 70
     1
102
RTVSPropertyOp7
 70
     1
102
RTVSPropertyOp8
 70
     1
102
RTVSPropertyOp9
 70
     1
102
RTVSPropertyOp10
 70
     1
102
RTVSPropertyOp11
 70
     1
102
RTVSPropertyOp12
 70
     1
102
RTVSPropertyOp13
 70
     1
102
RTVSPropertyOp14
 70
     1
102
RTVSPropertyOp15
 70
     1
102
RTVSPropertyOp16
 70
     1
102
RTVSPropertyOp17
 70
     1
102
RTVSPropertyOp18
 70
     1
102
RTVSPropertyOp19
 70
     1
102
RTVSPropertyOp20
 70
     1
102
RTVSPropertyOp21
 70
     1
102
RTVSPropertyOp22
 70
     1
102
RTVSPropertyOp23
 70
     1
102
RTVSPropertyOp24
 70
     1
102
RTVSPropertyOp25
 70
     1
102
RTVSPropertyOp26
 70
     1
102
RTVSPropertyOp27
 70
     1
  0
XRECORD
  5
980
102
{ACAD_REACTORS
330
97F
102
}
330
97F
100
AcDbXrecord
280
     1
102
RTVSPropertyOp0
 70
     1
102
RTVSPropertyOp1
 70
     1
102
RTVSPropertyOp2
 70
     1
102
RTVSPropertyOp3
 70
     1
102
RTVSPropertyOp4
 70
     1
102
RTVSPropertyOp5
 70
     1
102
RTVSPropertyOp6
 70
     1
102
RTVSPropertyOp7
 70
     1
102
RTVSPropertyOp8
 70
     1
102
RTVSPropertyOp9
 70
     1
102
RTVSPropertyOp10
 70
     1
102
RTVSPropertyOp11
 70
     1
102
RTVSPropertyOp12
 70
     1
102
RTVSPropertyOp13
 70
     1
102
RTVSPropertyOp14
 70
     1
102
RTVSPropertyOp15
 70
     1
102
RTVSPropertyOp16
 70
     1
102
RTVSPropertyOp17
 70
     1
102
RTVSPropertyOp18
 70
     1
102
RTVSPropertyOp19
 70
     1
102
RTVSPropertyOp20
 70
     1
102
RTVSPropertyOp21
 70
     1
102
RTVSPropertyOp22
 70
     1
102
RTVSPropertyOp23
 70
     1
102
RTVSPropertyOp24
 70
     1
102
RTVSPropertyOp25
 70
     1
102
RTVSPropertyOp26
 70
     1
102
RTVSPropertyOp27
 70
     1
  0
ENDSEC
  0
EOF
