  0
SECTION
  2
HEADER
  9
$ACADVER
  1
AC1015
  9
$ACADMAINTVER
 70
     6
  9
$DWGCODEPAGE
  3
ANSI_1252
  9
$INSBASE
 10
0.0
 20
0.0
 30
0.0
  9
$EXTMIN
 10
0.0
 20
0.0
 30
0.0
  9
$EXTMAX
 10
25.0
 20
35.0
 30
0.0
  9
$LIMMIN
 10
0.0
 20
0.0
  9
$LIMMAX
 10
420.0
 20
297.0
  9
$ORTHOMODE
 70
     0
  9
$REGENMODE
 70
     1
  9
$FILLMODE
 70
     1
  9
$QTEXTMODE
 70
     0
  9
$MIRRTEXT
 70
     1
  9
$LTSCALE
 40
4.05
  9
$ATTMODE
 70
     1
  9
$TEXTSIZE
 40
2.5
  9
$TRACEWID
 40
1.0
  9
$TEXTSTYLE
  7
Standard
  9
$CLAYER
  8
0
  9
$CELTYPE
  6
ByLayer
  9
$CECOLOR
 62
   256
  9
$CELTSCALE
 40
1.0
  9
$DISPSILH
 70
     0
  9
$DIMSCALE
 40
1.0
  9
$DIMASZ
 40
2.5
  9
$DIMEXO
 40
0.625
  9
$DIMDLI
 40
3.75
  9
$DIMRND
 40
0.0
  9
$DIMDLE
 40
0.0
  9
$DIMEXE
 40
1.25
  9
$DIMTP
 40
0.0
  9
$DIMTM
 40
0.0
  9
$DIMTXT
 40
2.5
  9
$DIMCEN
 40
2.5
  9
$DIMTSZ
 40
0.0
  9
$DIMTOL
 70
     0
  9
$DIMLIM
 70
     0
  9
$DIMTIH
 70
     0
  9
$DIMTOH
 70
     0
  9
$DIMSE1
 70
     0
  9
$DIMSE2
 70
     0
  9
$DIMTAD
 70
     1
  9
$DIMZIN
 70
     8
  9
$DIMBLK
  1

  9
$DIMASO
 70
     1
  9
$DIMSHO
 70
     1
  9
$DIMPOST
  1

  9
$DIMAPOST
  1

  9
$DIMALT
 70
     0
  9
$DIMALTD
 70
     3
  9
$DIMALTF
 40
0.03937007874016
  9
$DIMLFAC
 40
1.0
  9
$DIMTOFL
 70
     1
  9
$DIMTVP
 40
0.0
  9
$DIMTIX
 70
     0
  9
$DIMSOXD
 70
     0
  9
$DIMSAH
 70
     0
  9
$DIMBLK1
  1

  9
$DIMBLK2
  1

  9
$DIMSTYLE
  2
ISO-25
  9
$DIMCLRD
 70
     0
  9
$DIMCLRE
 70
     0
  9
$DIMCLRT
 70
     0
  9
$DIMTFAC
 40
1.0
  9
$DIMGAP
 40
0.625
  9
$DIMJUST
 70
     0
  9
$DIMSD1
 70
     0
  9
$DIMSD2
 70
     0
  9
$DIMTOLJ
 70
     0
  9
$DIMTZIN
 70
     8
  9
$DIMALTZ
 70
     0
  9
$DIMALTTZ
 70
     0
  9
$DIMUPT
 70
     0
  9
$DIMDEC
 70
     2
  9
$DIMTDEC
 70
     2
  9
$DIMALTU
 70
     2
  9
$DIMALTTD
 70
     3
  9
$DIMTXSTY
  7
Standard
  9
$DIMAUNIT
 70
     0
  9
$DIMADEC
 70
     0
  9
$DIMALTRND
 40
0.0
  9
$DIMAZIN
 70
     0
  9
$DIMDSEP
 70
    44
  9
$DIMATFIT
 70
     3
  9
$DIMFRAC
 70
     0
  9
$DIMLDRBLK
  1

  9
$DIMLUNIT
 70
     2
  9
$DIMLWD
 70
    -2
  9
$DIMLWE
 70
    -2
  9
$DIMTMOVE
 70
     0
  9
$LUNITS
 70
     2
  9
$LUPREC
 70
     4
  9
$SKETCHINC
 40
1.0
  9
$FILLETRAD
 40
10.0
  9
$AUNITS
 70
     0
  9
$AUPREC
 70
     0
  9
$MENU
  1
.
  9
$ELEVATION
 40
0.0
  9
$PELEVATION
 40
0.0
  9
$THICKNESS
 40
0.0
  9
$LIMCHECK
 70
     0
  9
$CHAMFERA
 40
10.0
  9
$CHAMFERB
 40
10.0
  9
$CHAMFERC
 40
20.0
  9
$CHAMFERD
 40
0.0
  9
$SKPOLY
 70
     0
  9
$TDCREATE
 40
2458577.333333333
  9
$TDUCREATE
 40
2458577.25
  9
$TDUPDATE
 40
2458577.336805556
  9
$TDUUPDATE
 40
2458577.253472222
  9
$TDINDWG
 40
0.0000000116
  9
$TDUSRTIMER
 40
0.0000000116
  9
$USRTIMER
 70
     1
  9
$ANGBASE
 50
0.0
  9
$ANGDIR
 70
     0
  9
$PDMODE
 70
     0
  9
$PDSIZE
 40
0.0
  9
$PLINEWID
 40
0.0
  9
$SPLFRAME
 70
     0
  9
$SPLINETYPE
 70
     6
  9
$SPLINESEGS
 70
     8
  9
$HANDSEED
  5
92F
  9
$SURFTAB1
 70
     6
  9
$SURFTAB2
 70
     6
  9
$SURFTYPE
 70
     6
  9
$SURFU
 70
     6
  9
$SURFV
 70
     6
  9
$UCSBASE
  2

  9
$UCSNAME
  2

  9
$UCSORG
 10
0.0
 20
0.0
 30
0.0
  9
$UCSXDIR
 10
1.0
 20
0.0
 30
0.0
  9
$UCSYDIR
 10
0.0
 20
1.0
 30
0.0
  9
$UCSORTHOREF
  2

  9
$UCSORTHOVIEW
 70
     0
  9
$UCSORGTOP
 10
0.0
 20
0.0
 30
0.0
  9
$UCSORGBOTTOM
 10
0.0
 20
0.0
 30
0.0
  9
$UCSORGLEFT
 10
0.0
 20
0.0
 30
0.0
  9
$UCSORGRIGHT
 10
0.0
 20
0.0
 30
0.0
  9
$UCSORGFRONT
 10
0.0
 20
0.0
 30
0.0
  9
$UCSORGBACK
 10
0.0
 20
0.0
 30
0.0
  9
$PUCSBASE
  2

  9
$PUCSNAME
  2

  9
$PUCSORG
 10
0.0
 20
0.0
 30
0.0
  9
$PUCSXDIR
 10
1.0
 20
0.0
 30
0.0
  9
$PUCSYDIR
 10
0.0
 20
1.0
 30
0.0
  9
$PUCSORTHOREF
  2

  9
$PUCSORTHOVIEW
 70
     0
  9
$PUCSORGTOP
 10
0.0
 20
0.0
 30
0.0
  9
$PUCSORGBOTTOM
 10
0.0
 20
0.0
 30
0.0
  9
$PUCSORGLEFT
 10
0.0
 20
0.0
 30
0.0
  9
$PUCSORGRIGHT
 10
0.0
 20
0.0
 30
0.0
  9
$PUCSORGFRONT
 10
0.0
 20
0.0
 30
0.0
  9
$PUCSORGBACK
 10
0.0
 20
0.0
 30
0.0
  9
$USERI1
 70
     0
  9
$USERI2
 70
     0
  9
$USERI3
 70
     0
  9
$USERI4
 70
     0
  9
$USERI5
 70
     0
  9
$USERR1
 40
0.0
  9
$USERR2
 40
0.0
  9
$USERR3
 40
0.0
  9
$USERR4
 40
0.0
  9
$USERR5
 40
0.0
  9
$WORLDVIEW
 70
     1
  9
$SHADEDGE
 70
     3
  9
$SHADEDIF
 70
    70
  9
$TILEMODE
 70
     1
  9
$MAXACTVP
 70
    64
  9
$PINSBASE
 10
0.0
 20
0.0
 30
0.0
  9
$PLIMCHECK
 70
     0
  9
$PEXTMIN
 10
1.000000000000000E+20
 20
1.000000000000000E+20
 30
1.000000000000000E+20
  9
$PEXTMAX
 10
-1.000000000000000E+20
 20
-1.000000000000000E+20
 30
-1.000000000000000E+20
  9
$PLIMMIN
 10
0.0
 20
0.0
  9
$PLIMMAX
 10
420.0
 20
297.0
  9
$UNITMODE
 70
     0
  9
$VISRETAIN
 70
     1
  9
$PLINEGEN
 70
     0
  9
$PSLTSCALE
 70
     1
  9
$TREEDEPTH
 70
  3020
  9
$CMLSTYLE
  2
Standard
  9
$CMLJUST
 70
     0
  9
$CMLSCALE
 40
20.0
  9
$PROXYGRAPHICS
 70
     1
  9
$MEASUREMENT
 70
     1
  9
$CELWEIGHT
370
    -1
  9
$ENDCAPS
280
     0
  9
$JOINSTYLE
280
     0
  9
$LWDISPLAY
290
     0
  9
$INSUNITS
 70
     4
  9
$HYPERLINKBASE
  1

  9
$STYLESHEET
  1

  9
$XEDIT
290
     1
  9
$CEPSNTYPE
380
     0
  9
$PSTYLEMODE
290
     1
  9
$FINGERPRINTGUID
  2
{ADF14544-E624-476E-9F1C-EE7CAA95CE21}
  9
$VERSIONGUID
  2
{FAEB1C32-E019-11D5-929B-00C0DF256EC4}
  9
$EXTNAMES
290
     1
  9
$PSVPSCALE
 40
0.0
  9
$OLESTARTUP
290
     0
  0
ENDSEC
  0
SECTION
  2
CLASSES
  0
CLASS
  1
ACDBDICTIONARYWDFLT
  2
AcDbDictionaryWithDefault
  3
ObjectDBX Classes
 90
        0
280
     0
281
     0
  0
CLASS
  1
VISUALSTYLE
  2
AcDbVisualStyle
  3
ObjectDBX Classes
 90
     4095
280
     0
281
     0
  0
CLASS
  1
MATERIAL
  2
AcDbMaterial
  3
ObjectDBX Classes
 90
     1153
280
     0
281
     0
  0
CLASS
  1
SCALE
  2
AcDbScale
  3
ObjectDBX Classes
 90
     1153
280
     0
281
     0
  0
CLASS
  1
DICTIONARYVAR
  2
AcDbDictionaryVar
  3
ObjectDBX Classes
 90
        0
280
     0
281
     0
  0
CLASS
  1
ACDBPLACEHOLDER
  2
AcDbPlaceHolder
  3
ObjectDBX Classes
 90
        0
280
     0
281
     0
  0
CLASS
  1
LAYOUT
  2
AcDbLayout
  3
ObjectDBX Classes
 90
        0
280
     0
281
     0
  0
ENDSEC
  0
SECTION
  2
TABLES
  0
TABLE
  2
VPORT
  5
8
330
0
100
AcDbSymbolTable
 70
     1
  0
VPORT
  5
29
330
8
100
AcDbSymbolTableRecord
100
AcDbViewportTableRecord
  2
*Active
 70
     0
 10
0.0
 20
0.0
 11
1.0
 21
1.0
 12
11.26
 22
4.5
 13
0.0
 23
0.0
 14
10.0
 24
10.0
 15
10.0
 25
10.0
 16
0.0
 26
0.0
 36
1.0
 17
0.0
 27
0.0
 37
0.0
 40
9.0
 41
2.503333333333333
 42
50.0
 43
0.0
 44
0.0
 50
0.0
 51
0.0
 71
     0
 72
   100
 73
     1
 74
     3
 75
     0
 76
     0
 77
     0
 78
     0
281
     0
 65
     1
110
0.0
120
0.0
130
0.0
111
1.0
121
0.0
131
0.0
112
0.0
122
1.0
132
0.0
 79
     0
146
0.0
  0
ENDTAB
  0
TABLE
  2
LTYPE
  5
5
330
0
100
AcDbSymbolTable
 70
    10
  0
LTYPE
  5
14
330
5
100
AcDbSymbolTableRecord
100
AcDbLinetypeTableRecord
  2
ByBlock
 70
     0
  3

 72
    65
 73
     0
 40
0.0
  0
LTYPE
  5
15
330
5
100
AcDbSymbolTableRecord
100
AcDbLinetypeTableRecord
  2
ByLayer
 70
     0
  3

 72
    65
 73
     0
 40
0.0
  0
LTYPE
  5
16
330
5
100
AcDbSymbolTableRecord
100
AcDbLinetypeTableRecord
  2
Continuous
 70
     0
  3
Solid line
 72
    65
 73
     0
 40
0.0
  0
LTYPE
  5
45
330
5
100
AcDbSymbolTableRecord
100
AcDbLinetypeTableRecord
  2
phl_thick
 70
     0
  3
THICK
 72
    65
 73
     0
 40
0.0
  0
LTYPE
  5
243
330
5
100
AcDbSymbolTableRecord
100
AcDbLinetypeTableRecord
  2
CUT
 70
     0
  3
THICK
 72
    65
 73
     0
 40
0.0
  0
LTYPE
  5
249
330
5
100
AcDbSymbolTableRecord
100
AcDbLinetypeTableRecord
  2
NOCUT
 70
     0
  3
THICK
 72
    65
 73
     0
 40
0.0
  0
LTYPE
  5
250
330
5
100
AcDbSymbolTableRecord
100
AcDbLinetypeTableRecord
  2
SK1
 70
     0
  3
THICK
 72
    65
 73
     0
 40
0.0
  0
LTYPE
  5
258
330
5
100
AcDbSymbolTableRecord
100
AcDbLinetypeTableRecord
  2
ls_SK2
 70
     0
  3
THIN
 72
    65
 73
     0
 40
0.0
  0
LTYPE
  5
305
330
5
100
AcDbSymbolTableRecord
100
AcDbLinetypeTableRecord
  2
ls_2
 70
     0
  3
THIN
 72
    65
 73
     0
 40
0.0
  0
LTYPE
  5
473
330
5
100
AcDbSymbolTableRecord
100
AcDbLinetypeTableRecord
  2
ls_SK1
 70
     0
  3
THICK
 72
    65
 73
     0
 40
0.0
  0
LTYPE
  5
4AD
330
5
100
AcDbSymbolTableRecord
100
AcDbLinetypeTableRecord
  2
LONGDASH_DASH
 70
     0
  3
THIN_DASHDOT
 72
    65
 73
     4
 40
0.85
 49
0.4
 74
     0
 49
-0.2
 74
     0
 49
0.05
 74
     0
 49
-0.2
 74
     0
  0
LTYPE
  5
4B2
330
5
100
AcDbSymbolTableRecord
100
AcDbLinetypeTableRecord
  2
ls1
 70
     0
  3
THICK
 72
    65
 73
     0
 40
0.0
  0
ENDTAB
  0
TABLE
  2
LAYER
  5
2
330
0
100
AcDbSymbolTable
 70
    10
  0
LAYER
  5
10
330
2
100
AcDbSymbolTableRecord
100
AcDbLayerTableRecord
  2
0
 70
     0
 62
     7
  6
Continuous
370
    -3
390
F
  0
LAYER
  5
44
330
2
100
AcDbSymbolTableRecord
100
AcDbLayerTableRecord
  2
1
 70
     0
 62
4
  6
CONTINUOUS
370
50
370
    -3
390
F
  0
LAYER
  5
242
330
2
100
AcDbSymbolTableRecord
100
AcDbLayerTableRecord
  2
CUT
 70
     0
 62
1
  6
CONTINUOUS
370
25
370
    -3
390
F
  0
LAYER
  5
248
330
2
100
AcDbSymbolTableRecord
100
AcDbLayerTableRecord
  2
NOCUT
 70
     0
 62
7
  6
CONTINUOUS
370
25
370
    -3
390
F
  0
LAYER
  5
24F
330
2
100
AcDbSymbolTableRecord
100
AcDbLayerTableRecord
  2
SK1
 70
     0
 62
4
  6
CONTINUOUS
370
50
370
    -3
390
F
  0
LAYER
  5
257
330
2
100
AcDbSymbolTableRecord
100
AcDbLayerTableRecord
  2
SK2
 70
     0
 62
7
  6
CONTINUOUS
370
25
370
    -3
390
F
  0
LAYER
  5
304
330
2
100
AcDbSymbolTableRecord
100
AcDbLayerTableRecord
  2
2
 70
     0
 62
7
  6
CONTINUOUS
370
25
370
    -3
390
F
  0
LAYER
  5
4AC
330
2
100
AcDbSymbolTableRecord
100
AcDbLayerTableRecord
  2
4
 70
     0
 62
2
  6
LONGDASH_DASH
370
25
370
    -3
390
F
  0
LAYER
  5
4AF
330
2
100
AcDbSymbolTableRecord
100
AcDbLayerTableRecord
  2
SK4
 70
     0
 62
2
  6
LONGDASH_DASH
370
25
370
    -3
390
F
  0
LAYER
  5
4B1
330
2
100
AcDbSymbolTableRecord
100
AcDbLayerTableRecord
  2
SK6
 70
     0
 62
5
  6
CONTINUOUS
370
25
370
    -3
390
F
  0
ENDTAB
  0
TABLE
  2
STYLE
  5
3
330
0
100
AcDbSymbolTable
 70
     1
  0
STYLE
  5
11
330
3
100
AcDbSymbolTableRecord
100
AcDbTextStyleTableRecord
  2
Standard
 70
     0
 40
0.0
 41
1.0
 50
0.0
 71
     0
 42
2.5
  3
Monospac821 BT
  4

  0
ENDTAB
  0
TABLE
  2
VIEW
  5
6
330
0
100
AcDbSymbolTable
 70
     0
  0
ENDTAB
  0
TABLE
  2
UCS
  5
7
330
0
100
AcDbSymbolTable
 70
     0
  0
ENDTAB
  0
TABLE
  2
APPID
  5
9
330
0
100
AcDbSymbolTable
 70
     2
  0
APPID
  5
12
330
9
100
AcDbSymbolTableRecord
100
AcDbRegAppTableRecord
  2
ACAD
 70
     0
  0
APPID
  5
3F
330
9
100
AcDbSymbolTableRecord
100
AcDbRegAppTableRecord
  2
ccLab
 70
     0
  0
ENDTAB
  0
TABLE
  2
DIMSTYLE
  5
A
330
0
100
AcDbSymbolTable
 70
     1
100
AcDbDimStyleTable
  0
DIMSTYLE
105
27
330
A
100
AcDbSymbolTableRecord
100
AcDbDimStyleTableRecord
  2
ISO-25
 70
     0
 41
2.5
 42
0.625
 43
3.75
 44
1.25
 73
     0
 74
     0
 77
     1
 78
     8
140
2.5
141
2.5
143
0.03937007874016
147
0.625
171
     3
172
     1
271
     2
272
     2
274
     3
278
    44
283
     0
284
     8
340
11
  0
ENDTAB
  0
TABLE
  2
BLOCK_RECORD
  5
1
330
0
100
AcDbSymbolTable
 70
     2
  0
BLOCK_RECORD
  5
1F
330
1
100
AcDbSymbolTableRecord
100
AcDbBlockTableRecord
  2
*Model_Space
340
22
  0
BLOCK_RECORD
  5
1B
330
1
100
AcDbSymbolTableRecord
100
AcDbBlockTableRecord
  2
*Paper_Space
340
1E
  0
BLOCK_RECORD
  5
23
330
1
100
AcDbSymbolTableRecord
100
AcDbBlockTableRecord
  2
*Paper_Space0
340
26
  0
ENDTAB
  0
ENDSEC
  0
SECTION
  2
BLOCKS
  0
BLOCK
  5
20
330
1F
100
AcDbEntity
  8
0
100
AcDbBlockBegin
  2
*Model_Space
 70
     0
 10
0.0
 20
0.0
 30
0.0
  3
*Model_Space
  1

  0
ENDBLK
  5
21
330
1F
100
AcDbEntity
  8
0
100
AcDbBlockEnd
  0
BLOCK
  5
1C
330
1B
100
AcDbEntity
 67
     1
  8
0
100
AcDbBlockBegin
  2
*Paper_Space
 70
     0
 10
0.0
 20
0.0
 30
0.0
  3
*Paper_Space
  1

  0
ENDBLK
  5
1D
330
1B
100
AcDbEntity
 67
     1
  8
0
100
AcDbBlockEnd
  0
BLOCK
  5
24
330
23
100
AcDbEntity
  8
0
100
AcDbBlockBegin
  2
*Paper_Space0
 70
     0
 10
0.0
 20
0.0
 30
0.0
  3
*Paper_Space0
  1

  0
ENDBLK
  5
25
330
23
100
AcDbEntity
  8
0
100
AcDbBlockEnd
  0
ENDSEC
  0
SECTION
  2
ENTITIES
  0
LINE
  5
4BC
330
1F
100
AcDbEntity
  8
1
  6
CONTINUOUS
370
50
 62
4
100
AcDbLine
 10
39.755249
 20
0.0
 30
0.0
 11
39.755238
 21
0.001252
 31
0.0
  0
LINE
  5
4BD
330
1F
100
AcDbEntity
  8
1
  6
CONTINUOUS
370
50
 62
4
100
AcDbLine
 10
39.766926
 20
-0.031882
 30
0.0
 11
39.766865
 21
-0.029945
 31
0.0
  0
LINE
  5
4BE
330
1F
100
AcDbEntity
  8
1
  6
CONTINUOUS
370
50
 62
4
100
AcDbLine
 10
39.993217
 20
0.023001
 30
0.0
 11
39.993198
 21
0.0236
 31
0.0
  0
LINE
  5
4BF
330
1F
100
AcDbEntity
  8
1
  6
CONTINUOUS
370
50
 62
4
100
AcDbLine
 10
39.755322
 20
-0.000853
 30
0.0
 11
39.755249
 21
0.0
 31
0.0
  0
LINE
  5
4C0
330
1F
100
AcDbEntity
  8
1
  6
CONTINUOUS
370
50
 62
4
100
AcDbLine
 10
39.766865
 20
-0.029945
 30
0.0
 11
39.766682
 21
-0.027931
 31
0.0
  0
LINE
  5
4C1
330
1F
100
AcDbEntity
  8
1
  6
CONTINUOUS
370
50
 62
4
100
AcDbLine
 10
39.766682
 20
-0.027931
 30
0.0
 11
39.766388
 21
-0.025855
 31
0.0
  0
LINE
  5
4C2
330
1F
100
AcDbEntity
  8
1
  6
CONTINUOUS
370
50
 62
4
100
AcDbLine
 10
39.755444
 20
-0.0017
 30
0.0
 11
39.755322
 21
-0.000853
 31
0.0
  0
LINE
  5
4C3
330
1F
100
AcDbEntity
  8
1
  6
CONTINUOUS
370
50
 62
4
100
AcDbLine
 10
39.766388
 20
-0.025855
 30
0.0
 11
39.765991
 21
-0.023729
 31
0.0
  0
LINE
  5
4C4
330
1F
100
AcDbEntity
  8
1
  6
CONTINUOUS
370
50
 62
4
100
AcDbLine
 10
39.993198
 20
0.0236
 30
0.0
 11
39.993069
 21
0.024286
 31
0.0
  0
LINE
  5
4C5
330
1F
100
AcDbEntity
  8
1
  6
CONTINUOUS
370
50
 62
4
100
AcDbLine
 10
39.755627
 20
-0.002539
 30
0.0
 11
39.755444
 21
-0.0017
 31
0.0
  0
LINE
  5
4C6
330
1F
100
AcDbEntity
  8
1
  6
CONTINUOUS
370
50
 62
4
100
AcDbLine
 10
39.765991
 20
-0.023729
 30
0.0
 11
39.765491
 21
-0.021561
 31
0.0
  0
LINE
  5
4C7
330
1F
100
AcDbEntity
  8
1
  6
CONTINUOUS
370
50
 62
4
100
AcDbLine
 10
39.765491
 20
-0.021561
 30
0.0
 11
39.764908
 21
-0.019358
 31
0.0
  0
LINE
  5
4C8
330
1F
100
AcDbEntity
  8
1
  6
CONTINUOUS
370
50
 62
4
100
AcDbLine
 10
39.755863
 20
-0.003364
 30
0.0
 11
39.755627
 21
-0.002539
 31
0.0
  0
LINE
  5
4C9
330
1F
100
AcDbEntity
  8
1
  6
CONTINUOUS
370
50
 62
4
100
AcDbLine
 10
39.993069
 20
0.024286
 30
0.0
 11
39.992844
 21
0.02504
 31
0.0
  0
LINE
  5
4CA
330
1F
100
AcDbEntity
  8
1
  6
CONTINUOUS
370
50
 62
4
100
AcDbLine
 10
39.764908
 20
-0.019358
 30
0.0
 11
39.764236
 21
-0.01713
 31
0.0
  0
LINE
  5
4CB
330
1F
100
AcDbEntity
  8
1
  6
CONTINUOUS
370
50
 62
4
100
AcDbLine
 10
39.764236
 20
-0.01713
 30
0.0
 11
39.763485
 21
-0.014885
 31
0.0
  0
LINE
  5
4CC
330
1F
100
AcDbEntity
  8
1
  6
CONTINUOUS
370
50
 62
4
100
AcDbLine
 10
39.756157
 20
-0.004165
 30
0.0
 11
39.755863
 21
-0.003364
 31
0.0
  0
LINE
  5
4CD
330
1F
100
AcDbEntity
  8
1
  6
CONTINUOUS
370
50
 62
4
100
AcDbLine
 10
39.763485
 20
-0.014885
 30
0.0
 11
39.762657
 21
-0.01263
 31
0.0
  0
LINE
  5
4CE
330
1F
100
AcDbEntity
  8
1
  6
CONTINUOUS
370
50
 62
4
100
AcDbLine
 10
39.732761
 20
0.049739
 30
0.0
 11
39.732746
 21
0.049778
 31
0.0
  0
LINE
  5
4CF
330
1F
100
AcDbEntity
  8
1
  6
CONTINUOUS
370
50
 62
4
100
AcDbLine
 10
39.762657
 20
-0.01263
 30
0.0
 11
39.761757
 21
-0.010375
 31
0.0
  0
LINE
  5
4D0
330
1F
100
AcDbEntity
  8
1
  6
CONTINUOUS
370
50
 62
4
100
AcDbLine
 10
39.992844
 20
0.02504
 30
0.0
 11
39.99251599999999
 21
0.025858
 31
0.0
  0
LINE
  5
4D1
330
1F
100
AcDbEntity
  8
1
  6
CONTINUOUS
370
50
 62
4
100
AcDbLine
 10
39.756504
 20
-0.004939
 30
0.0
 11
39.756157
 21
-0.004165
 31
0.0
  0
LINE
  5
4D2
330
1F
100
AcDbEntity
  8
1
  6
CONTINUOUS
370
50
 62
4
100
AcDbLine
 10
39.99251599999999
 20
0.025858
 30
0.0
 11
39.992092
 21
0.026742
 31
0.0
  0
LINE
  5
4D3
330
1F
100
AcDbEntity
  8
1
  6
CONTINUOUS
370
50
 62
4
100
AcDbLine
 10
39.756908
 20
-0.005686
 30
0.0
 11
39.756504
 21
-0.004939
 31
0.0
  0
LINE
  5
4D4
330
1F
100
AcDbEntity
  8
1
  6
CONTINUOUS
370
50
 62
4
100
AcDbLine
 10
39.992092
 20
0.026742
 30
0.0
 11
39.99157
 21
0.027683
 31
0.0
  0
LINE
  5
4D5
330
1F
100
AcDbEntity
  8
1
  6
CONTINUOUS
370
50
 62
4
100
AcDbLine
 10
39.99157
 20
0.027683
 30
0.0
 11
39.990944
 21
0.028674
 31
0.0
  0
LINE
  5
4D6
330
1F
100
AcDbEntity
  8
1
  6
CONTINUOUS
370
50
 62
4
100
AcDbLine
 10
39.757362
 20
-0.006404
 30
0.0
 11
39.756908
 21
-0.005686
 31
0.0
  0
LINE
  5
4D7
330
1F
100
AcDbEntity
  8
1
  6
CONTINUOUS
370
50
 62
4
100
AcDbLine
 10
39.990944
 20
0.028674
 30
0.0
 11
39.990219
 21
0.029707
 31
0.0
  0
LINE
  5
4D8
330
1F
100
AcDbEntity
  8
1
  6
CONTINUOUS
370
50
 62
4
100
AcDbLine
 10
39.765041
 20
0.04068
 30
0.0
 11
39.764404
 21
0.041547
 31
0.0
  0
LINE
  5
4D9
330
1F
100
AcDbEntity
  8
1
  6
CONTINUOUS
370
50
 62
4
100
AcDbLine
 10
39.75787
 20
-0.007092
 30
0.0
 11
39.757362
 21
-0.006404
 31
0.0
  0
LINE
  5
4DA
330
1F
100
AcDbEntity
  8
1
  6
CONTINUOUS
370
50
 62
4
100
AcDbLine
 10
39.76439999999999
 20
0.04155
 30
0.0
 11
39.763535
 21
0.042714
 31
0.0
  0
LINE
  5
4DB
330
1F
100
AcDbEntity
  8
1
  6
CONTINUOUS
370
50
 62
4
100
AcDbLine
 10
39.990219
 20
0.029707
 30
0.0
 11
39.989414
 21
0.030742
 31
0.0
  0
LINE
  5
4DC
330
1F
100
AcDbEntity
  8
1
  6
CONTINUOUS
370
50
 62
4
100
AcDbLine
 10
39.765266
 20
0.04041
 30
0.0
 11
39.765041
 21
0.04068
 31
0.0
  0
LINE
  5
4DD
330
1F
100
AcDbEntity
  8
1
  6
CONTINUOUS
370
50
 62
4
100
AcDbLine
 10
39.989414
 20
0.030742
 30
0.0
 11
39.988514
 21
0.031801
 31
0.0
  0
LINE
  5
4DE
330
1F
100
AcDbEntity
  8
1
  6
CONTINUOUS
370
50
 62
4
100
AcDbLine
 10
39.758427
 20
-0.007741
 30
0.0
 11
39.75787
 21
-0.007092
 31
0.0
  0
LINE
  5
4DF
330
1F
100
AcDbEntity
  8
1
  6
CONTINUOUS
370
50
 62
4
100
AcDbLine
 10
39.732803
 20
0.049692
 30
0.0
 11
39.732761
 21
0.049739
 31
0.0
  0
LINE
  5
4E0
330
1F
100
AcDbEntity
  8
1
  6
CONTINUOUS
370
50
 62
4
100
AcDbLine
 10
39.763535
 20
0.042714
 30
0.0
 11
39.762547
 21
0.043775
 31
0.0
  0
LINE
  5
4E1
330
1F
100
AcDbEntity
  8
1
  6
CONTINUOUS
370
50
 62
4
100
AcDbLine
 10
39.988514
 20
0.031801
 30
0.0
 11
39.987522
 21
0.032866
 31
0.0
  0
LINE
  5
4E2
330
1F
100
AcDbEntity
  8
1
  6
CONTINUOUS
370
50
 62
4
100
AcDbLine
 10
39.76601
 20
0.039635
 30
0.0
 11
39.765266
 21
0.04041
 31
0.0
  0
LINE
  5
4E3
330
1F
100
AcDbEntity
  8
1
  6
CONTINUOUS
370
50
 62
4
100
AcDbLine
 10
39.759022
 20
-0.008348
 30
0.0
 11
39.758427
 21
-0.007741
 31
0.0
  0
LINE
  5
4E4
330
1F
100
AcDbEntity
  8
1
  6
CONTINUOUS
370
50
 62
4
100
AcDbLine
 10
39.987522
 20
0.032866
 30
0.0
 11
39.986446
 21
0.033928
 31
0.0
  0
LINE
  5
4E5
330
1F
100
AcDbEntity
  8
1
  6
CONTINUOUS
370
50
 62
4
100
AcDbLine
 10
39.986446
 20
0.033928
 30
0.0
 11
39.985287
 21
0.034978
 31
0.0
  0
LINE
  5
4E6
330
1F
100
AcDbEntity
  8
1
  6
CONTINUOUS
370
50
 62
4
100
AcDbLine
 10
39.759655
 20
-0.008914
 30
0.0
 11
39.759022
 21
-0.008348
 31
0.0
  0
LINE
  5
4E7
330
1F
100
AcDbEntity
  8
1
  6
CONTINUOUS
370
50
 62
4
100
AcDbLine
 10
39.762547
 20
0.043775
 30
0.0
 11
39.76144
 21
0.044738
 31
0.0
  0
LINE
  5
4E8
330
1F
100
AcDbEntity
  8
1
  6
CONTINUOUS
370
50
 62
4
100
AcDbLine
 10
39.766838
 20
0.038919
 30
0.0
 11
39.76601
 21
0.039635
 31
0.0
  0
LINE
  5
4E9
330
1F
100
AcDbEntity
  8
1
  6
CONTINUOUS
370
50
 62
4
100
AcDbLine
 10
39.985287
 20
0.034978
 30
0.0
 11
39.984039
 21
0.036011
 31
0.0
  0
LINE
  5
4EA
330
1F
100
AcDbEntity
  8
1
  6
CONTINUOUS
370
50
 62
4
100
AcDbLine
 10
39.760323
 20
-0.009441
 30
0.0
 11
39.759655
 21
-0.008914
 31
0.0
  0
LINE
  5
4EB
330
1F
100
AcDbEntity
  8
1
  6
CONTINUOUS
370
50
 62
4
100
AcDbLine
 10
39.984039
 20
0.036011
 30
0.0
 11
39.982708
 21
0.037018
 31
0.0
  0
LINE
  5
4EC
330
1F
100
AcDbEntity
  8
1
  6
CONTINUOUS
370
50
 62
4
100
AcDbLine
 10
39.767418
 20
0.038491
 30
0.0
 11
39.766838
 21
0.038919
 31
0.0
  0
LINE
  5
4ED
330
1F
100
AcDbEntity
  8
1
  6
CONTINUOUS
370
50
 62
4
100
AcDbLine
 10
39.732876
 20
0.049639
 30
0.0
 11
39.732803
 21
0.049692
 31
0.0
  0
LINE
  5
4EE
330
1F
100
AcDbEntity
  8
1
  6
CONTINUOUS
370
50
 62
4
100
AcDbLine
 10
39.76144
 20
0.044738
 30
0.0
 11
39.76022
 21
0.045602
 31
0.0
  0
LINE
  5
4EF
330
1F
100
AcDbEntity
  8
1
  6
CONTINUOUS
370
50
 62
4
100
AcDbLine
 10
39.761024
 20
-0.009927
 30
0.0
 11
39.760323
 21
-0.009441
 31
0.0
  0
LINE
  5
4F0
330
1F
100
AcDbEntity
  8
1
  6
CONTINUOUS
370
50
 62
4
100
AcDbLine
 10
39.982708
 20
0.037018
 30
0.0
 11
39.981297
 21
0.037992
 31
0.0
  0
LINE
  5
4F1
330
1F
100
AcDbEntity
  8
1
  6
CONTINUOUS
370
50
 62
4
100
AcDbLine
 10
39.768234
 20
0.037971
 30
0.0
 11
39.767418
 21
0.038491
 31
0.0
  0
LINE
  5
4F2
330
1F
100
AcDbEntity
  8
1
  6
CONTINUOUS
370
50
 62
4
100
AcDbLine
 10
39.89115899999999
 20
-0.005405
 30
0.0
 11
39.882645
 21
0.0
 31
0.0
  0
LINE
  5
4F3
330
1F
100
AcDbEntity
  8
1
  6
CONTINUOUS
370
50
 62
4
100
AcDbLine
 10
39.899368
 20
-0.010604
 30
0.0
 11
39.89115899999999
 21
-0.005405
 31
0.0
  0
LINE
  5
4F4
330
1F
100
AcDbEntity
  8
1
  6
CONTINUOUS
370
50
 62
4
100
AcDbLine
 10
39.981297
 20
0.037992
 30
0.0
 11
39.979805
 21
0.038926
 31
0.0
  0
LINE
  5
4F5
330
1F
100
AcDbEntity
  8
1
  6
CONTINUOUS
370
50
 62
4
100
AcDbLine
 10
39.907578
 20
-0.015656
 30
0.0
 11
39.899368
 21
-0.010604
 31
0.0
  0
LINE
  5
4F6
330
1F
100
AcDbEntity
  8
1
  6
CONTINUOUS
370
50
 62
4
100
AcDbLine
 10
39.761757
 20
-0.010375
 30
0.0
 11
39.761024
 21
-0.009927
 31
0.0
  0
LINE
  5
4F7
330
1F
100
AcDbEntity
  8
1
  6
CONTINUOUS
370
50
 62
4
100
AcDbLine
 10
39.897194
 20
-0.018776
 30
0.0
 11
39.882496
 21
-0.009942
 31
0.0
  0
LINE
  5
4F8
330
1F
100
AcDbEntity
  8
1
  6
CONTINUOUS
370
50
 62
4
100
AcDbLine
 10
39.865032
 20
-0.000039
 30
0.0
 11
39.864967
 21
0.0
 31
0.0
  0
LINE
  5
4F9
330
1F
100
AcDbEntity
  8
1
  6
CONTINUOUS
370
50
 62
4
100
AcDbLine
 10
39.882645
 20
0.0
 30
0.0
 11
39.874901
 21
0.004533
 31
0.0
  0
LINE
  5
4FA
330
1F
100
AcDbEntity
  8
1
  6
CONTINUOUS
370
50
 62
4
100
AcDbLine
 10
39.76022
 20
0.045602
 30
0.0
 11
39.758896
 21
0.046368
 31
0.0
  0
LINE
  5
4FB
330
1F
100
AcDbEntity
  8
1
  6
CONTINUOUS
370
50
 62
4
100
AcDbLine
 10
39.732979
 20
0.04958
 30
0.0
 11
39.732876
 21
0.049639
 31
0.0
  0
LINE
  5
4FC
330
1F
100
AcDbEntity
  8
1
  6
CONTINUOUS
370
50
 62
4
100
AcDbLine
 10
39.916138
 20
-0.020556
 30
0.0
 11
39.907578
 21
-0.015656
 31
0.0
  0
LINE
  5
4FD
330
1F
100
AcDbEntity
  8
1
  6
CONTINUOUS
370
50
 62
4
100
AcDbLine
 10
39.882496
 20
-0.009942
 30
0.0
 11
39.865364
 21
-0.000219
 31
0.0
  0
LINE
  5
4FE
330
1F
100
AcDbEntity
  8
1
  6
CONTINUOUS
370
50
 62
4
100
AcDbLine
 10
39.910965
 20
-0.026578
 30
0.0
 11
39.897194
 21
-0.018776
 31
0.0
  0
LINE
  5
4FF
330
1F
100
AcDbEntity
  8
1
  6
CONTINUOUS
370
50
 62
4
100
AcDbLine
 10
39.979805
 20
0.038926
 30
0.0
 11
39.97823
 21
0.039812
 31
0.0
  0
LINE
  5
500
330
1F
100
AcDbEntity
  8
1
  6
CONTINUOUS
370
50
 62
4
100
AcDbLine
 10
39.865295
 20
-0.000183
 30
0.0
 11
39.865231
 21
-0.000147
 31
0.0
  0
LINE
  5
501
330
1F
100
AcDbEntity
  8
1
  6
CONTINUOUS
370
50
 62
4
100
AcDbLine
 10
39.874901
 20
0.004533
 30
0.0
 11
39.86657
 21
0.009195
 31
0.0
  0
LINE
  5
502
330
1F
100
AcDbEntity
  8
1
  6
CONTINUOUS
370
50
 62
4
100
AcDbLine
 10
39.865231
 20
-0.000147
 30
0.0
 11
39.865101
 21
-0.000075
 31
0.0
  0
LINE
  5
503
330
1F
100
AcDbEntity
  8
1
  6
CONTINUOUS
370
50
 62
4
100
AcDbLine
 10
39.864967
 20
-0.000002
 30
0.0
 11
39.856434
 21
0.004613
 31
0.0
  0
LINE
  5
504
330
1F
100
AcDbEntity
  8
1
  6
CONTINUOUS
370
50
 62
4
100
AcDbLine
 10
39.769138
 20
0.037483
 30
0.0
 11
39.768234
 21
0.037971
 31
0.0
  0
LINE
  5
505
330
1F
100
AcDbEntity
  8
1
  6
CONTINUOUS
370
50
 62
4
100
AcDbLine
 10
39.799999
 20
-0.041578
 30
0.0
 11
39.797436
 21
-0.040202
 31
0.0
  0
LINE
  5
506
330
1F
100
AcDbEntity
  8
1
  6
CONTINUOUS
370
50
 62
4
100
AcDbLine
 10
39.86657
 20
0.009195
 30
0.0
 11
39.857994
 21
0.013745
 31
0.0
  0
LINE
  5
507
330
1F
100
AcDbEntity
  8
1
  6
CONTINUOUS
370
50
 62
4
100
AcDbLine
 10
39.856434
 20
0.004613
 30
0.0
 11
39.847988
 21
0.009082
 31
0.0
  0
LINE
  5
508
330
1F
100
AcDbEntity
  8
1
  6
CONTINUOUS
370
50
 62
4
100
AcDbLine
 10
39.847988
 20
0.009082
 30
0.0
 11
39.840034
 21
0.013241
 31
0.0
  0
LINE
  5
509
330
1F
100
AcDbEntity
  8
1
  6
CONTINUOUS
370
50
 62
4
100
AcDbLine
 10
39.865364
 20
-0.000219
 30
0.0
 11
39.865295
 21
-0.000183
 31
0.0
  0
LINE
  5
50A
330
1F
100
AcDbEntity
  8
1
  6
CONTINUOUS
370
50
 62
4
100
AcDbLine
 10
39.865101
 20
-0.000075
 30
0.0
 11
39.865032
 21
-0.000039
 31
0.0
  0
LINE
  5
50B
330
1F
100
AcDbEntity
  8
1
  6
CONTINUOUS
370
50
 62
4
100
AcDbLine
 10
39.840034
 20
0.013241
 30
0.0
 11
39.83268
 21
0.01705
 31
0.0
  0
LINE
  5
50C
330
1F
100
AcDbEntity
  8
1
  6
CONTINUOUS
370
50
 62
4
100
AcDbLine
 10
39.83268
 20
0.01705
 30
0.0
 11
39.825954
 21
0.020505
 31
0.0
  0
LINE
  5
50D
330
1F
100
AcDbEntity
  8
1
  6
CONTINUOUS
370
50
 62
4
100
AcDbLine
 10
39.925323
 20
-0.025272
 30
0.0
 11
39.916138
 21
-0.020556
 31
0.0
  0
LINE
  5
50E
330
1F
100
AcDbEntity
  8
1
  6
CONTINUOUS
370
50
 62
4
100
AcDbLine
 10
39.825954
 20
0.020505
 30
0.0
 11
39.819874
 21
0.023599
 31
0.0
  0
LINE
  5
50F
330
1F
100
AcDbEntity
  8
1
  6
CONTINUOUS
370
50
 62
4
100
AcDbLine
 10
39.857994
 20
0.013745
 30
0.0
 11
39.84935
 21
0.018128
 31
0.0
  0
LINE
  5
510
330
1F
100
AcDbEntity
  8
1
  6
CONTINUOUS
370
50
 62
4
100
AcDbLine
 10
39.819874
 20
0.023599
 30
0.0
 11
39.814465
 21
0.026327
 31
0.0
  0
LINE
  5
511
330
1F
100
AcDbEntity
  8
1
  6
CONTINUOUS
370
50
 62
4
100
AcDbLine
 10
39.814465
 20
0.026327
 30
0.0
 11
39.809746
 21
0.028684
 31
0.0
  0
LINE
  5
512
330
1F
100
AcDbEntity
  8
1
  6
CONTINUOUS
370
50
 62
4
100
AcDbLine
 10
39.809746
 20
0.028684
 30
0.0
 11
39.805748
 21
0.030664
 31
0.0
  0
LINE
  5
513
330
1F
100
AcDbEntity
  8
1
  6
CONTINUOUS
370
50
 62
4
100
AcDbLine
 10
39.805748
 20
0.030664
 30
0.0
 11
39.802494
 21
0.032263
 31
0.0
  0
LINE
  5
514
330
1F
100
AcDbEntity
  8
1
  6
CONTINUOUS
370
50
 62
4
100
AcDbLine
 10
39.84935
 20
0.018128
 30
0.0
 11
39.84075199999999
 21
0.022319
 31
0.0
  0
LINE
  5
515
330
1F
100
AcDbEntity
  8
1
  6
CONTINUOUS
370
50
 62
4
100
AcDbLine
 10
39.802494
 20
0.032263
 30
0.0
 11
39.799999
 21
0.033475
 31
0.0
  0
LINE
  5
516
330
1F
100
AcDbEntity
  8
1
  6
CONTINUOUS
370
50
 62
4
100
AcDbLine
 10
39.97823
 20
0.039812
 30
0.0
 11
39.975872
 21
0.040954
 31
0.0
  0
LINE
  5
517
330
1F
100
AcDbEntity
  8
1
  6
CONTINUOUS
370
50
 62
4
100
AcDbLine
 10
39.733112
 20
0.049516
 30
0.0
 11
39.732979
 21
0.04958
 31
0.0
  0
LINE
  5
518
330
1F
100
AcDbEntity
  8
1
  6
CONTINUOUS
370
50
 62
4
100
AcDbLine
 10
39.758896
 20
0.046368
 30
0.0
 11
39.757477
 21
0.04704
 31
0.0
  0
LINE
  5
519
330
1F
100
AcDbEntity
  8
1
  6
CONTINUOUS
370
50
 62
4
100
AcDbLine
 10
39.84075199999999
 20
0.022319
 30
0.0
 11
39.832298
 21
0.026302
 31
0.0
  0
LINE
  5
51A
330
1F
100
AcDbEntity
  8
1
  6
CONTINUOUS
370
50
 62
4
100
AcDbLine
 10
39.925026
 20
-0.033188
 30
0.0
 11
39.910965
 21
-0.026578
 31
0.0
  0
LINE
  5
51B
330
1F
100
AcDbEntity
  8
1
  6
CONTINUOUS
370
50
 62
4
100
AcDbLine
 10
39.797436
 20
-0.040202
 30
0.0
 11
39.794842
 21
-0.038997
 31
0.0
  0
LINE
  5
51C
330
1F
100
AcDbEntity
  8
1
  6
CONTINUOUS
370
50
 62
4
100
AcDbLine
 10
39.93478
 20
-0.029613
 30
0.0
 11
39.925323
 21
-0.025272
 31
0.0
  0
LINE
  5
51D
330
1F
100
AcDbEntity
  8
1
  6
CONTINUOUS
370
50
 62
4
100
AcDbLine
 10
39.832298
 20
0.026302
 30
0.0
 11
39.823902
 21
0.030138
 31
0.0
  0
LINE
  5
51E
330
1F
100
AcDbEntity
  8
1
  6
CONTINUOUS
370
50
 62
4
100
AcDbLine
 10
39.823902
 20
0.030138
 30
0.0
 11
39.815647
 21
0.033792
 31
0.0
  0
LINE
  5
51F
330
1F
100
AcDbEntity
  8
1
  6
CONTINUOUS
370
50
 62
4
100
AcDbLine
 10
39.770622
 20
0.03684
 30
0.0
 11
39.769138
 21
0.037483
 31
0.0
  0
LINE
  5
520
330
1F
100
AcDbEntity
  8
1
  6
CONTINUOUS
370
50
 62
4
100
AcDbLine
 10
39.733276
 20
0.049446
 30
0.0
 11
39.733112
 21
0.049516
 31
0.0
  0
LINE
  5
521
330
1F
100
AcDbEntity
  8
1
  6
CONTINUOUS
370
50
 62
4
100
AcDbLine
 10
39.815647
 20
0.033792
 30
0.0
 11
39.80862399999999
 21
0.036783
 31
0.0
  0
LINE
  5
522
330
1F
100
AcDbEntity
  8
1
  6
CONTINUOUS
370
50
 62
4
100
AcDbLine
 10
39.745316
 20
0.044851
 30
0.0
 11
39.743248
 21
0.045723
 31
0.0
  0
LINE
  5
523
330
1F
100
AcDbEntity
  8
1
  6
CONTINUOUS
370
50
 62
4
100
AcDbLine
 10
39.747482
 20
0.043946
 30
0.0
 11
39.745316
 21
0.044851
 31
0.0
  0
LINE
  5
524
330
1F
100
AcDbEntity
  8
1
  6
CONTINUOUS
370
50
 62
4
100
AcDbLine
 10
39.743248
 20
0.045723
 30
0.0
 11
39.741264
 21
0.04655
 31
0.0
  0
LINE
  5
525
330
1F
100
AcDbEntity
  8
1
  6
CONTINUOUS
370
50
 62
4
100
AcDbLine
 10
39.944275
 20
-0.03354
 30
0.0
 11
39.93478
 21
-0.029613
 31
0.0
  0
LINE
  5
526
330
1F
100
AcDbEntity
  8
1
  6
CONTINUOUS
370
50
 62
4
100
AcDbLine
 10
39.80862399999999
 20
0.036783
 30
0.0
 11
39.803368
 21
0.038936
 31
0.0
  0
LINE
  5
527
330
1F
100
AcDbEntity
  8
1
  6
CONTINUOUS
370
50
 62
4
100
AcDbLine
 10
39.749733
 20
0.043024
 30
0.0
 11
39.747482
 21
0.043946
 31
0.0
  0
LINE
  5
528
330
1F
100
AcDbEntity
  8
1
  6
CONTINUOUS
370
50
 62
4
100
AcDbLine
 10
39.741264
 20
0.04655
 30
0.0
 11
39.73938
 21
0.047313
 31
0.0
  0
LINE
  5
529
330
1F
100
AcDbEntity
  8
1
  6
CONTINUOUS
370
50
 62
4
100
AcDbLine
 10
39.733467
 20
0.04937
 30
0.0
 11
39.733276
 21
0.049446
 31
0.0
  0
LINE
  5
52A
330
1F
100
AcDbEntity
  8
1
  6
CONTINUOUS
370
50
 62
4
100
AcDbLine
 10
39.752071
 20
0.042098
 30
0.0
 11
39.749733
 21
0.043024
 31
0.0
  0
LINE
  5
52B
330
1F
100
AcDbEntity
  8
1
  6
CONTINUOUS
370
50
 62
4
100
AcDbLine
 10
39.794842
 20
-0.038997
 30
0.0
 11
39.792221
 21
-0.037961
 31
0.0
  0
LINE
  5
52C
330
1F
100
AcDbEntity
  8
1
  6
CONTINUOUS
370
50
 62
4
100
AcDbLine
 10
39.803368
 20
0.038936
 30
0.0
 11
39.799999
 21
0.040266
 31
0.0
  0
LINE
  5
52D
330
1F
100
AcDbEntity
  8
1
  6
CONTINUOUS
370
50
 62
4
100
AcDbLine
 10
39.975872
 20
0.040954
 30
0.0
 11
39.973454
 21
0.041898
 31
0.0
  0
LINE
  5
52E
330
1F
100
AcDbEntity
  8
1
  6
CONTINUOUS
370
50
 62
4
100
AcDbLine
 10
39.757477
 20
0.04704
 30
0.0
 11
39.75597
 21
0.047625
 31
0.0
  0
LINE
  5
52F
330
1F
100
AcDbEntity
  8
1
  6
CONTINUOUS
370
50
 62
4
100
AcDbLine
 10
39.73938
 20
0.047313
 30
0.0
 11
39.737587
 21
0.048001
 31
0.0
  0
LINE
  5
530
330
1F
100
AcDbEntity
  8
1
  6
CONTINUOUS
370
50
 62
4
100
AcDbLine
 10
39.938244
 20
-0.038245
 30
0.0
 11
39.925026
 21
-0.033188
 31
0.0
  0
LINE
  5
531
330
1F
100
AcDbEntity
  8
1
  6
CONTINUOUS
370
50
 62
4
100
AcDbLine
 10
39.754482
 20
0.04118
 30
0.0
 11
39.752071
 21
0.042098
 31
0.0
  0
LINE
  5
532
330
1F
100
AcDbEntity
  8
1
  6
CONTINUOUS
370
50
 62
4
100
AcDbLine
 10
39.733692
 20
0.049287
 30
0.0
 11
39.733467
 21
0.04937
 31
0.0
  0
LINE
  5
533
330
1F
100
AcDbEntity
  8
1
  6
CONTINUOUS
370
50
 62
4
100
AcDbLine
 10
39.756966
 20
0.040282
 30
0.0
 11
39.754482
 21
0.04118
 31
0.0
  0
LINE
  5
534
330
1F
100
AcDbEntity
  8
1
  6
CONTINUOUS
370
50
 62
4
100
AcDbLine
 10
39.737587
 20
0.048001
 30
0.0
 11
39.73587
 21
0.048603
 31
0.0
  0
LINE
  5
535
330
1F
100
AcDbEntity
  8
1
  6
CONTINUOUS
370
50
 62
4
100
AcDbLine
 10
39.733944
 20
0.049199
 30
0.0
 11
39.733692
 21
0.049287
 31
0.0
  0
LINE
  5
536
330
1F
100
AcDbEntity
  8
1
  6
CONTINUOUS
370
50
 62
4
100
AcDbLine
 10
39.759518
 20
0.039411
 30
0.0
 11
39.756966
 21
0.040282
 31
0.0
  0
LINE
  5
537
330
1F
100
AcDbEntity
  8
1
  6
CONTINUOUS
370
50
 62
4
100
AcDbLine
 10
39.772053
 20
0.036369
 30
0.0
 11
39.770622
 21
0.03684
 31
0.0
  0
LINE
  5
538
330
1F
100
AcDbEntity
  8
1
  6
CONTINUOUS
370
50
 62
4
100
AcDbLine
 10
39.73423
 20
0.049105
 30
0.0
 11
39.733944
 21
0.049199
 31
0.0
  0
LINE
  5
539
330
1F
100
AcDbEntity
  8
1
  6
CONTINUOUS
370
50
 62
4
100
AcDbLine
 10
39.808384
 20
-0.016187
 30
0.0
 11
39.799999
 21
-0.013435
 31
0.0
  0
LINE
  5
53A
330
1F
100
AcDbEntity
  8
1
  6
CONTINUOUS
370
50
 62
4
100
AcDbLine
 10
39.792221
 20
-0.037961
 30
0.0
 11
39.789631
 21
-0.037112
 31
0.0
  0
LINE
  5
53B
330
1F
100
AcDbEntity
  8
1
  6
CONTINUOUS
370
50
 62
4
100
AcDbLine
 10
39.817841
 20
-0.004217
 30
0.0
 11
39.799999
 21
0.001529
 31
0.0
  0
LINE
  5
53C
330
1F
100
AcDbEntity
  8
1
  6
CONTINUOUS
370
50
 62
4
100
AcDbLine
 10
39.762135
 20
0.038578
 30
0.0
 11
39.759518
 21
0.039411
 31
0.0
  0
LINE
  5
53D
330
1F
100
AcDbEntity
  8
1
  6
CONTINUOUS
370
50
 62
4
100
AcDbLine
 10
39.75597
 20
0.047625
 30
0.0
 11
39.754383
 21
0.048127
 31
0.0
  0
LINE
  5
53E
330
1F
100
AcDbEntity
  8
1
  6
CONTINUOUS
370
50
 62
4
100
AcDbLine
 10
39.950001
 20
-0.041957
 30
0.0
 11
39.938244
 21
-0.038245
 31
0.0
  0
LINE
  5
53F
330
1F
100
AcDbEntity
  8
1
  6
CONTINUOUS
370
50
 62
4
100
AcDbLine
 10
39.990692
 20
0.011265
 30
0.0
 11
39.981476
 21
0.014111
 31
0.0
  0
LINE
  5
540
330
1F
100
AcDbEntity
  8
1
  6
CONTINUOUS
370
50
 62
4
100
AcDbLine
 10
39.73587
 20
0.048603
 30
0.0
 11
39.73423
 21
0.049105
 31
0.0
  0
LINE
  5
541
330
1F
100
AcDbEntity
  8
1
  6
CONTINUOUS
370
50
 62
4
100
AcDbLine
 10
39.973454
 20
0.041898
 30
0.0
 11
39.970978
 21
0.042648
 31
0.0
  0
LINE
  5
542
330
1F
100
AcDbEntity
  8
1
  6
CONTINUOUS
370
50
 62
4
100
AcDbLine
 10
39.764801
 20
0.037789
 30
0.0
 11
39.762135
 21
0.038578
 31
0.0
  0
LINE
  5
543
330
1F
100
AcDbEntity
  8
1
  6
CONTINUOUS
370
50
 62
4
100
AcDbLine
 10
39.835686
 20
-0.009279
 30
0.0
 11
39.817841
 21
-0.004217
 31
0.0
  0
LINE
  5
544
330
1F
100
AcDbEntity
  8
1
  6
CONTINUOUS
370
50
 62
4
100
AcDbLine
 10
39.767517
 20
0.03705
 30
0.0
 11
39.764801
 21
0.037789
 31
0.0
  0
LINE
  5
545
330
1F
100
AcDbEntity
  8
1
  6
CONTINUOUS
370
50
 62
4
100
AcDbLine
 10
39.599998
 20
0.04995
 30
0.0
 11
32.400002
 21
1.99995
 31
0.0
  0
LINE
  5
546
330
1F
100
AcDbEntity
  8
1
  6
CONTINUOUS
370
50
 62
4
100
AcDbLine
 10
39.789631
 20
-0.037112
 30
0.0
 11
39.787262
 21
-0.036485
 31
0.0
  0
LINE
  5
547
330
1F
100
AcDbEntity
  8
1
  6
CONTINUOUS
370
50
 62
4
100
AcDbLine
 10
39.952682
 20
-0.04265
 30
0.0
 11
39.950001
 21
-0.041957
 31
0.0
  0
LINE
  5
548
330
1F
100
AcDbEntity
  8
1
  6
CONTINUOUS
370
50
 62
4
100
AcDbLine
 10
39.754383
 20
0.048127
 30
0.0
 11
39.752716
 21
0.048552
 31
0.0
  0
LINE
  5
549
330
1F
100
AcDbEntity
  8
1
  6
CONTINUOUS
370
50
 62
4
100
AcDbLine
 10
39.853527
 20
-0.013812
 30
0.0
 11
39.835686
 21
-0.009279
 31
0.0
  0
LINE
  5
54A
330
1F
100
AcDbEntity
  8
1
  6
CONTINUOUS
370
50
 62
4
100
AcDbLine
 10
39.770279
 20
0.036366
 30
0.0
 11
39.767517
 21
0.03705
 31
0.0
  0
LINE
  5
54B
330
1F
100
AcDbEntity
  8
1
  6
CONTINUOUS
370
50
 62
4
100
AcDbLine
 10
39.822636
 20
-0.019671
 30
0.0
 11
39.808384
 21
-0.016187
 31
0.0
  0
LINE
  5
54C
330
1F
100
AcDbEntity
  8
1
  6
CONTINUOUS
370
50
 62
4
100
AcDbLine
 10
39.981476
 20
0.014111
 30
0.0
 11
39.971813
 21
0.01644
 31
0.0
  0
LINE
  5
54D
330
1F
100
AcDbEntity
  8
1
  6
CONTINUOUS
370
50
 62
4
100
AcDbLine
 10
39.773743
 20
0.035963
 30
0.0
 11
39.772053
 21
0.036369
 31
0.0
  0
LINE
  5
54E
330
1F
100
AcDbEntity
  8
1
  6
CONTINUOUS
370
50
 62
4
100
AcDbLine
 10
39.871357
 20
-0.017906
 30
0.0
 11
39.853527
 21
-0.013812
 31
0.0
  0
LINE
  5
54F
330
1F
100
AcDbEntity
  8
1
  6
CONTINUOUS
370
50
 62
4
100
AcDbLine
 10
39.805237
 20
0.040715
 30
0.0
 11
39.799988
 21
0.041918
 31
0.0
  0
LINE
  5
550
330
1F
100
AcDbEntity
  8
1
  6
CONTINUOUS
370
50
 62
4
100
AcDbLine
 10
39.773079
 20
0.03574
 30
0.0
 11
39.770279
 21
0.036366
 31
0.0
  0
LINE
  5
551
330
1F
100
AcDbEntity
  8
1
  6
CONTINUOUS
370
50
 62
4
100
AcDbLine
 10
39.970978
 20
0.042648
 30
0.0
 11
39.968456
 21
0.043203
 31
0.0
  0
LINE
  5
552
330
1F
100
AcDbEntity
  8
1
  6
CONTINUOUS
370
50
 62
4
100
AcDbLine
 10
39.81065
 20
0.039529
 30
0.0
 11
39.805237
 21
0.040715
 31
0.0
  0
LINE
  5
553
330
1F
100
AcDbEntity
  8
1
  6
CONTINUOUS
370
50
 62
4
100
AcDbLine
 10
39.811905
 20
0.039261
 30
0.0
 11
39.81065
 21
0.039529
 31
0.0
  0
LINE
  5
554
330
1F
100
AcDbEntity
  8
1
  6
CONTINUOUS
370
50
 62
4
100
AcDbLine
 10
39.817112
 20
0.038186
 30
0.0
 11
39.811905
 21
0.039261
 31
0.0
  0
LINE
  5
555
330
1F
100
AcDbEntity
  8
1
  6
CONTINUOUS
370
50
 62
4
100
AcDbLine
 10
39.752716
 20
0.048552
 30
0.0
 11
39.750977
 21
0.048905
 31
0.0
  0
LINE
  5
556
330
1F
100
AcDbEntity
  8
1
  6
CONTINUOUS
370
50
 62
4
100
AcDbLine
 10
39.889187
 20
-0.021502
 30
0.0
 11
39.871357
 21
-0.017906
 31
0.0
  0
LINE
  5
557
330
1F
100
AcDbEntity
  8
1
  6
CONTINUOUS
370
50
 62
4
100
AcDbLine
 10
39.787262
 20
-0.036485
 30
0.0
 11
39.784569
 21
-0.03595
 31
0.0
  0
LINE
  5
558
330
1F
100
AcDbEntity
  8
1
  6
CONTINUOUS
370
50
 62
4
100
AcDbLine
 10
39.775913
 20
0.035178
 30
0.0
 11
39.773079
 21
0.03574
 31
0.0
  0
LINE
  5
559
330
1F
100
AcDbEntity
  8
1
  6
CONTINUOUS
370
50
 62
4
100
AcDbLine
 10
39.955364
 20
-0.04318
 30
0.0
 11
39.952682
 21
-0.04265
 31
0.0
  0
LINE
  5
55A
330
1F
100
AcDbEntity
  8
1
  6
CONTINUOUS
370
50
 62
4
100
AcDbLine
 10
39.822456
 20
0.037136
 30
0.0
 11
39.817112
 21
0.038186
 31
0.0
  0
LINE
  5
55B
330
1F
100
AcDbEntity
  8
1
  6
CONTINUOUS
370
50
 62
4
100
AcDbLine
 10
39.971813
 20
0.01644
 30
0.0
 11
39.962006
 21
0.018335
 31
0.0
  0
LINE
  5
55C
330
1F
100
AcDbEntity
  8
1
  6
CONTINUOUS
370
50
 62
4
100
AcDbLine
 10
39.823818
 20
0.036877
 30
0.0
 11
39.822456
 21
0.037136
 31
0.0
  0
LINE
  5
55D
330
1F
100
AcDbEntity
  8
1
  6
CONTINUOUS
370
50
 62
4
100
AcDbLine
 10
39.829304
 20
0.035867
 30
0.0
 11
39.823818
 21
0.036877
 31
0.0
  0
LINE
  5
55E
330
1F
100
AcDbEntity
  8
1
  6
CONTINUOUS
370
50
 62
4
100
AcDbLine
 10
39.99255
 20
0.021908
 30
0.0
 11
39.99054
 21
0.022273
 31
0.0
  0
LINE
  5
55F
330
1F
100
AcDbEntity
  8
1
  6
CONTINUOUS
370
50
 62
4
100
AcDbLine
 10
39.834896
 20
0.034889
 30
0.0
 11
39.829304
 21
0.035867
 31
0.0
  0
LINE
  5
560
330
1F
100
AcDbEntity
  8
1
  6
CONTINUOUS
370
50
 62
4
100
AcDbLine
 10
39.778782
 20
0.034682
 30
0.0
 11
39.775913
 21
0.035178
 31
0.0
  0
LINE
  5
561
330
1F
100
AcDbEntity
  8
1
  6
CONTINUOUS
370
50
 62
4
100
AcDbLine
 10
39.99054
 20
0.022273
 30
0.0
 11
39.988529
 21
0.022616
 31
0.0
  0
LINE
  5
562
330
1F
100
AcDbEntity
  8
1
  6
CONTINUOUS
370
50
 62
4
100
AcDbLine
 10
39.835728
 20
0.034748
 30
0.0
 11
39.834896
 21
0.034889
 31
0.0
  0
LINE
  5
563
330
1F
100
AcDbEntity
  8
1
  6
CONTINUOUS
370
50
 62
4
100
AcDbLine
 10
39.837383
 20
-0.022109
 30
0.0
 11
39.822636
 21
-0.019671
 31
0.0
  0
LINE
  5
564
330
1F
100
AcDbEntity
  8
1
  6
CONTINUOUS
370
50
 62
4
100
AcDbLine
 10
39.907024
 20
-0.024441
 30
0.0
 11
39.889187
 21
-0.021502
 31
0.0
  0
LINE
  5
565
330
1F
100
AcDbEntity
  8
1
  6
CONTINUOUS
370
50
 62
4
100
AcDbLine
 10
39.84166
 20
0.033771
 30
0.0
 11
39.835728
 21
0.034748
 31
0.0
  0
LINE
  5
566
330
1F
100
AcDbEntity
  8
1
  6
CONTINUOUS
370
50
 62
4
100
AcDbLine
 10
39.962006
 20
0.018335
 30
0.0
 11
39.952366
 21
0.019914
 31
0.0
  0
LINE
  5
567
330
1F
100
AcDbEntity
  8
1
  6
CONTINUOUS
370
50
 62
4
100
AcDbLine
 10
39.93158
 20
0.022887
 30
0.0
 11
39.928509
 21
0.023388
 31
0.0
  0
LINE
  5
568
330
1F
100
AcDbEntity
  8
1
  6
CONTINUOUS
370
50
 62
4
100
AcDbLine
 10
39.988529
 20
0.022616
 30
0.0
 11
39.986519
 21
0.022941
 31
0.0
  0
LINE
  5
569
330
1F
100
AcDbEntity
  8
1
  6
CONTINUOUS
370
50
 62
4
100
AcDbLine
 10
39.750977
 20
0.048905
 30
0.0
 11
39.749176
 21
0.049192
 31
0.0
  0
LINE
  5
56A
330
1F
100
AcDbEntity
  8
1
  6
CONTINUOUS
370
50
 62
4
100
AcDbLine
 10
39.775639
 20
0.035665
 30
0.0
 11
39.773743
 21
0.035963
 31
0.0
  0
LINE
  5
56B
330
1F
100
AcDbEntity
  8
1
  6
CONTINUOUS
370
50
 62
4
100
AcDbLine
 10
39.847645
 20
0.032834
 30
0.0
 11
39.84166
 21
0.033771
 31
0.0
  0
LINE
  5
56C
330
1F
100
AcDbEntity
  8
1
  6
CONTINUOUS
370
50
 62
4
100
AcDbLine
 10
39.986519
 20
0.022941
 30
0.0
 11
39.984509
 21
0.023248
 31
0.0
  0
LINE
  5
56D
330
1F
100
AcDbEntity
  8
1
  6
CONTINUOUS
370
50
 62
4
100
AcDbLine
 10
39.853615
 20
0.031943
 30
0.0
 11
39.847645
 21
0.032834
 31
0.0
  0
LINE
  5
56E
330
1F
100
AcDbEntity
  8
1
  6
CONTINUOUS
370
50
 62
4
100
AcDbLine
 10
39.952366
 20
0.019914
 30
0.0
 11
39.942017
 21
0.021443
 31
0.0
  0
LINE
  5
56F
330
1F
100
AcDbEntity
  8
1
  6
CONTINUOUS
370
50
 62
4
100
AcDbLine
 10
39.925442
 20
0.023749
 30
0.0
 11
39.922371
 21
0.024199
 31
0.0
  0
LINE
  5
570
330
1F
100
AcDbEntity
  8
1
  6
CONTINUOUS
370
50
 62
4
100
AcDbLine
 10
39.984509
 20
0.023248
 30
0.0
 11
39.982498
 21
0.023538
 31
0.0
  0
LINE
  5
571
330
1F
100
AcDbEntity
  8
1
  6
CONTINUOUS
370
50
 62
4
100
AcDbLine
 10
39.859562
 20
0.031093
 30
0.0
 11
39.853615
 21
0.031943
 31
0.0
  0
LINE
  5
572
330
1F
100
AcDbEntity
  8
1
  6
CONTINUOUS
370
50
 62
4
100
AcDbLine
 10
39.968456
 20
0.043203
 30
0.0
 11
39.965897
 21
0.043566
 31
0.0
  0
LINE
  5
573
330
1F
100
AcDbEntity
  8
1
  6
CONTINUOUS
370
50
 62
4
100
AcDbLine
 10
39.93158
 20
0.022887
 30
0.0
 11
39.928947
 21
0.023257
 31
0.0
  0
LINE
  5
574
330
1F
100
AcDbEntity
  8
1
  6
CONTINUOUS
370
50
 62
4
100
AcDbLine
 10
39.860584
 20
0.030951
 30
0.0
 11
39.859562
 21
0.031093
 31
0.0
  0
LINE
  5
575
330
1F
100
AcDbEntity
  8
1
  6
CONTINUOUS
370
50
 62
4
100
AcDbLine
 10
39.942017
 20
0.021443
 30
0.0
 11
39.93158
 21
0.022887
 31
0.0
  0
LINE
  5
576
330
1F
100
AcDbEntity
  8
1
  6
CONTINUOUS
370
50
 62
4
100
AcDbLine
 10
39.958027
 20
-0.043543
 30
0.0
 11
39.955364
 21
-0.04318
 31
0.0
  0
LINE
  5
577
330
1F
100
AcDbEntity
  8
1
  6
CONTINUOUS
370
50
 62
4
100
AcDbLine
 10
39.866081
 20
0.030203
 30
0.0
 11
39.860584
 21
0.030951
 31
0.0
  0
LINE
  5
578
330
1F
100
AcDbEntity
  8
1
  6
CONTINUOUS
370
50
 62
4
100
AcDbLine
 10
39.982498
 20
0.023538
 30
0.0
 11
39.980488
 21
0.023811
 31
0.0
  0
LINE
  5
579
330
1F
100
AcDbEntity
  8
1
  6
CONTINUOUS
370
50
 62
4
100
AcDbLine
 10
39.928947
 20
0.023257
 30
0.0
 11
39.926315
 21
0.023613
 31
0.0
  0
LINE
  5
57A
330
1F
100
AcDbEntity
  8
1
  6
CONTINUOUS
370
50
 62
4
100
AcDbLine
 10
39.87148699999999
 20
0.029495
 30
0.0
 11
39.866081
 21
0.030203
 31
0.0
  0
LINE
  5
57B
330
1F
100
AcDbEntity
  8
1
  6
CONTINUOUS
370
50
 62
4
100
AcDbLine
 10
39.926315
 20
0.023613
 30
0.0
 11
39.923679
 21
0.023956
 31
0.0
  0
LINE
  5
57C
330
1F
100
AcDbEntity
  8
1
  6
CONTINUOUS
370
50
 62
4
100
AcDbLine
 10
39.784569
 20
-0.03595
 30
0.0
 11
39.782139
 21
-0.035634
 31
0.0
  0
LINE
  5
57D
330
1F
100
AcDbEntity
  8
1
  6
CONTINUOUS
370
50
 62
4
100
AcDbLine
 10
39.8731
 20
0.029289
 30
0.0
 11
39.87148699999999
 21
0.029495
 31
0.0
  0
LINE
  5
57E
330
1F
100
AcDbEntity
  8
1
  6
CONTINUOUS
370
50
 62
4
100
AcDbLine
 10
39.878315
 20
0.028641
 30
0.0
 11
39.8731
 21
0.029289
 31
0.0
  0
LINE
  5
57F
330
1F
100
AcDbEntity
  8
1
  6
CONTINUOUS
370
50
 62
4
100
AcDbLine
 10
39.923679
 20
0.023956
 30
0.0
 11
39.921043
 21
0.024283
 31
0.0
  0
LINE
  5
580
330
1F
100
AcDbEntity
  8
1
  6
CONTINUOUS
370
50
 62
4
100
AcDbLine
 10
39.749176
 20
0.049192
 30
0.0
 11
39.747303
 21
0.049421
 31
0.0
  0
LINE
  5
581
330
1F
100
AcDbEntity
  8
1
  6
CONTINUOUS
370
50
 62
4
100
AcDbLine
 10
39.883415
 20
0.028034
 30
0.0
 11
39.878315
 21
0.028641
 31
0.0
  0
LINE
  5
582
330
1F
100
AcDbEntity
  8
1
  6
CONTINUOUS
370
50
 62
4
100
AcDbLine
 10
39.980488
 20
0.023811
 30
0.0
 11
39.973946
 21
0.024588
 31
0.0
  0
LINE
  5
583
330
1F
100
AcDbEntity
  8
1
  6
CONTINUOUS
370
50
 62
4
100
AcDbLine
 10
39.922371
 20
0.024199
 30
0.0
 11
39.9193
 21
0.024561
 31
0.0
  0
LINE
  5
584
330
1F
100
AcDbEntity
  8
1
  6
CONTINUOUS
370
50
 62
4
100
AcDbLine
 10
39.928509
 20
0.023388
 30
0.0
 11
39.925442
 21
0.023749
 31
0.0
  0
LINE
  5
585
330
1F
100
AcDbEntity
  8
1
  6
CONTINUOUS
370
50
 62
4
100
AcDbLine
 10
39.921043
 20
0.024283
 30
0.0
 11
39.91840699999999
 21
0.024593
 31
0.0
  0
LINE
  5
586
330
1F
100
AcDbEntity
  8
1
  6
CONTINUOUS
370
50
 62
4
100
AcDbLine
 10
39.850372
 20
-0.023635
 30
0.0
 11
39.837383
 21
-0.022109
 31
0.0
  0
LINE
  5
587
330
1F
100
AcDbEntity
  8
1
  6
CONTINUOUS
370
50
 62
4
100
AcDbLine
 10
39.884987
 20
0.027854
 30
0.0
 11
39.883415
 21
0.028034
 31
0.0
  0
LINE
  5
588
330
1F
100
AcDbEntity
  8
1
  6
CONTINUOUS
370
50
 62
4
100
AcDbLine
 10
39.91840699999999
 20
0.024593
 30
0.0
 11
39.915783
 21
0.024887
 31
0.0
  0
LINE
  5
589
330
1F
100
AcDbEntity
  8
1
  6
CONTINUOUS
370
50
 62
4
100
AcDbLine
 10
39.890236
 20
0.027272
 30
0.0
 11
39.884987
 21
0.027854
 31
0.0
  0
LINE
  5
58A
330
1F
100
AcDbEntity
  8
1
  6
CONTINUOUS
370
50
 62
4
100
AcDbLine
 10
39.77607
 20
0.035618
 30
0.0
 11
39.775639
 21
0.035665
 31
0.0
  0
LINE
  5
58B
330
1F
100
AcDbEntity
  8
1
  6
CONTINUOUS
370
50
 62
4
100
AcDbLine
 10
39.780014
 20
0.034548
 30
0.0
 11
39.778782
 21
0.034682
 31
0.0
  0
LINE
  5
58C
330
1F
100
AcDbEntity
  8
1
  6
CONTINUOUS
370
50
 62
4
100
AcDbLine
 10
39.9193
 20
0.024561
 30
0.0
 11
39.916233
 21
0.024894
 31
0.0
  0
LINE
  5
58D
330
1F
100
AcDbEntity
  8
1
  6
CONTINUOUS
370
50
 62
4
100
AcDbLine
 10
39.915783
 20
0.024887
 30
0.0
 11
39.913166
 21
0.025162
 31
0.0
  0
LINE
  5
58E
330
1F
100
AcDbEntity
  8
1
  6
CONTINUOUS
370
50
 62
4
100
AcDbLine
 10
39.913166
 20
0.025162
 30
0.0
 11
39.911625
 21
0.025322
 31
0.0
  0
LINE
  5
58F
330
1F
100
AcDbEntity
  8
1
  6
CONTINUOUS
370
50
 62
4
100
AcDbLine
 10
39.895336
 20
0.026746
 30
0.0
 11
39.890236
 21
0.027272
 31
0.0
  0
LINE
  5
590
330
1F
100
AcDbEntity
  8
1
  6
CONTINUOUS
370
50
 62
4
100
AcDbLine
 10
39.911625
 20
0.025322
 30
0.0
 11
39.910156
 21
0.025469
 31
0.0
  0
LINE
  5
591
330
1F
100
AcDbEntity
  8
1
  6
CONTINUOUS
370
50
 62
4
100
AcDbLine
 10
39.89615999999999
 20
0.026665
 30
0.0
 11
39.895336
 21
0.026746
 31
0.0
  0
LINE
  5
592
330
1F
100
AcDbEntity
  8
1
  6
CONTINUOUS
370
50
 62
4
100
AcDbLine
 10
39.910156
 20
0.025469
 30
0.0
 11
39.908752
 21
0.025602
 31
0.0
  0
LINE
  5
593
330
1F
100
AcDbEntity
  8
1
  6
CONTINUOUS
370
50
 62
4
100
AcDbLine
 10
39.973946
 20
0.024588
 30
0.0
 11
39.967403
 21
0.025205
 31
0.0
  0
LINE
  5
594
330
1F
100
AcDbEntity
  8
1
  6
CONTINUOUS
370
50
 62
4
100
AcDbLine
 10
39.861095
 20
-0.024636
 30
0.0
 11
39.850372
 21
-0.023635
 31
0.0
  0
LINE
  5
595
330
1F
100
AcDbEntity
  8
1
  6
CONTINUOUS
370
50
 62
4
100
AcDbLine
 10
39.90049399999999
 20
0.026261
 30
0.0
 11
39.89615999999999
 21
0.026665
 31
0.0
  0
LINE
  5
596
330
1F
100
AcDbEntity
  8
1
  6
CONTINUOUS
370
50
 62
4
100
AcDbLine
 10
39.747303
 20
0.049421
 30
0.0
 11
39.745365
 21
0.049598
 31
0.0
  0
LINE
  5
597
330
1F
100
AcDbEntity
  8
1
  6
CONTINUOUS
370
50
 62
4
100
AcDbLine
 10
39.908752
 20
0.025602
 30
0.0
 11
39.907406
 21
0.025723
 31
0.0
  0
LINE
  5
598
330
1F
100
AcDbEntity
  8
1
  6
CONTINUOUS
370
50
 62
4
100
AcDbLine
 10
39.916233
 20
0.024894
 30
0.0
 11
39.913166
 21
0.025162
 31
0.0
  0
LINE
  5
599
330
1F
100
AcDbEntity
  8
1
  6
CONTINUOUS
370
50
 62
4
100
AcDbLine
 10
39.907406
 20
0.025723
 30
0.0
 11
39.906109
 21
0.025832
 31
0.0
  0
LINE
  5
59A
330
1F
100
AcDbEntity
  8
1
  6
CONTINUOUS
370
50
 62
4
100
AcDbLine
 10
39.904854
 20
0.025912
 30
0.0
 11
39.90049399999999
 21
0.026261
 31
0.0
  0
LINE
  5
59B
330
1F
100
AcDbEntity
  8
1
  6
CONTINUOUS
370
50
 62
4
100
AcDbLine
 10
39.906109
 20
0.025832
 30
0.0
 11
39.904854
 21
0.025929
 31
0.0
  0
LINE
  5
59C
330
1F
100
AcDbEntity
  8
1
  6
CONTINUOUS
370
50
 62
4
100
AcDbLine
 10
39.872272
 20
-0.025492
 30
0.0
 11
39.861095
 21
-0.024636
 31
0.0
  0
LINE
  5
59D
330
1F
100
AcDbEntity
  8
1
  6
CONTINUOUS
370
50
 62
4
100
AcDbLine
 10
39.781258
 20
0.034456
 30
0.0
 11
39.780014
 21
0.034548
 31
0.0
  0
LINE
  5
59E
330
1F
100
AcDbEntity
  8
1
  6
CONTINUOUS
370
50
 62
4
100
AcDbLine
 10
39.967403
 20
0.025205
 30
0.0
 11
39.960861
 21
0.025676
 31
0.0
  0
LINE
  5
59F
330
1F
100
AcDbEntity
  8
1
  6
CONTINUOUS
370
50
 62
4
100
AcDbLine
 10
40.0
 20
0.0
 30
0.0
 11
39.998493
 21
0.000108
 31
0.0
  0
LINE
  5
5A0
330
1F
100
AcDbEntity
  8
1
  6
CONTINUOUS
370
50
 62
4
100
AcDbLine
 10
39.960678
 20
-0.043731
 30
0.0
 11
39.958027
 21
-0.043543
 31
0.0
  0
LINE
  5
5A1
330
1F
100
AcDbEntity
  8
1
  6
CONTINUOUS
370
50
 62
4
100
AcDbLine
 10
39.965897
 20
0.043566
 30
0.0
 11
39.963303
 21
0.04374
 31
0.0
  0
LINE
  5
5A2
330
1F
100
AcDbEntity
  8
1
  6
CONTINUOUS
370
50
 62
4
100
AcDbLine
 10
39.77788899999999
 20
0.035496
 30
0.0
 11
39.77607
 21
0.035618
 31
0.0
  0
LINE
  5
5A3
330
1F
100
AcDbEntity
  8
1
  6
CONTINUOUS
370
50
 62
4
100
AcDbLine
 10
39.745365
 20
0.049598
 30
0.0
 11
39.743366
 21
0.04973
 31
0.0
  0
LINE
  5
5A4
330
1F
100
AcDbEntity
  8
1
  6
CONTINUOUS
370
50
 62
4
100
AcDbLine
 10
39.782139
 20
-0.035634
 30
0.0
 11
39.77985
 21
-0.03549
 31
0.0
  0
LINE
  5
5A5
330
1F
100
AcDbEntity
  8
1
  6
CONTINUOUS
370
50
 62
4
100
AcDbLine
 10
39.883286
 20
-0.026114
 30
0.0
 11
39.872272
 21
-0.025492
 31
0.0
  0
LINE
  5
5A6
330
1F
100
AcDbEntity
  8
1
  6
CONTINUOUS
370
50
 62
4
100
AcDbLine
 10
39.960861
 20
0.025676
 30
0.0
 11
39.954315
 21
0.026016
 31
0.0
  0
LINE
  5
5A7
330
1F
100
AcDbEntity
  8
1
  6
CONTINUOUS
370
50
 62
4
100
AcDbLine
 10
39.743366
 20
0.04973
 30
0.0
 11
39.741299
 21
0.049825
 31
0.0
  0
LINE
  5
5A8
330
1F
100
AcDbEntity
  8
1
  6
CONTINUOUS
370
50
 62
4
100
AcDbLine
 10
39.782505
 20
0.034405
 30
0.0
 11
39.781258
 21
0.034456
 31
0.0
  0
LINE
  5
5A9
330
1F
100
AcDbEntity
  8
1
  6
CONTINUOUS
370
50
 62
4
100
AcDbLine
 10
39.954315
 20
0.026016
 30
0.0
 11
39.947769
 21
0.026239
 31
0.0
  0
LINE
  5
5AA
330
1F
100
AcDbEntity
  8
1
  6
CONTINUOUS
370
50
 62
4
100
AcDbLine
 10
39.741299
 20
0.049825
 30
0.0
 11
39.739174
 21
0.049887
 31
0.0
  0
LINE
  5
5AB
330
1F
100
AcDbEntity
  8
1
  6
CONTINUOUS
370
50
 62
4
100
AcDbLine
 10
39.892311
 20
-0.026369
 30
0.0
 11
39.883286
 21
-0.026114
 31
0.0
  0
LINE
  5
5AC
330
1F
100
AcDbEntity
  8
1
  6
CONTINUOUS
370
50
 62
4
100
AcDbLine
 10
39.739174
 20
0.049887
 30
0.0
 11
39.736992
 21
0.049925
 31
0.0
  0
LINE
  5
5AD
330
1F
100
AcDbEntity
  8
1
  6
CONTINUOUS
370
50
 62
4
100
AcDbLine
 10
39.947769
 20
0.026239
 30
0.0
 11
39.941223
 21
0.026346
 31
0.0
  0
LINE
  5
5AE
330
1F
100
AcDbEntity
  8
1
  6
CONTINUOUS
370
50
 62
4
100
AcDbLine
 10
39.736126
 20
0.049933
 30
0.0
 11
39.735714
 21
0.049938
 31
0.0
  0
LINE
  5
5AF
330
1F
100
AcDbEntity
  8
1
  6
CONTINUOUS
370
50
 62
4
100
AcDbLine
 10
39.73531699999999
 20
0.049942
 30
0.0
 11
39.734943
 21
0.049946
 31
0.0
  0
LINE
  5
5B0
330
1F
100
AcDbEntity
  8
1
  6
CONTINUOUS
370
50
 62
4
100
AcDbLine
 10
39.735714
 20
0.049938
 30
0.0
 11
39.73531699999999
 21
0.049942
 31
0.0
  0
LINE
  5
5B1
330
1F
100
AcDbEntity
  8
1
  6
CONTINUOUS
370
50
 62
4
100
AcDbLine
 10
39.736553
 20
0.049929
 30
0.0
 11
39.736126
 21
0.049933
 31
0.0
  0
LINE
  5
5B2
330
1F
100
AcDbEntity
  8
1
  6
CONTINUOUS
370
50
 62
4
100
AcDbLine
 10
39.736992
 20
0.049925
 30
0.0
 11
39.736553
 21
0.049929
 31
0.0
  0
LINE
  5
5B3
330
1F
100
AcDbEntity
  8
1
  6
CONTINUOUS
370
50
 62
4
100
AcDbLine
 10
39.734943
 20
0.049946
 30
0.0
 11
39.734592
 21
0.049949
 31
0.0
  0
LINE
  5
5B4
330
1F
100
AcDbEntity
  8
1
  6
CONTINUOUS
370
50
 62
4
100
AcDbLine
 10
39.783752
 20
0.034395
 30
0.0
 11
39.782505
 21
0.034405
 31
0.0
  0
LINE
  5
5B5
330
1F
100
AcDbEntity
  8
1
  6
CONTINUOUS
370
50
 62
4
100
AcDbLine
 10
39.899605
 20
-0.026376
 30
0.0
 11
39.896942
 21
-0.026359
 31
0.0
  0
LINE
  5
5B6
330
1F
100
AcDbEntity
  8
1
  6
CONTINUOUS
370
50
 62
4
100
AcDbLine
 10
39.896942
 20
-0.026359
 30
0.0
 11
39.894615
 21
-0.026346
 31
0.0
  0
LINE
  5
5B7
330
1F
100
AcDbEntity
  8
1
  6
CONTINUOUS
370
50
 62
4
100
AcDbLine
 10
39.90295
 20
-0.026394
 30
0.0
 11
39.899605
 21
-0.026376
 31
0.0
  0
LINE
  5
5B8
330
1F
100
AcDbEntity
  8
1
  6
CONTINUOUS
370
50
 62
4
100
AcDbLine
 10
39.941219
 20
0.026337
 30
0.0
 11
39.931648
 21
0.026384
 31
0.0
  0
LINE
  5
5B9
330
1F
100
AcDbEntity
  8
1
  6
CONTINUOUS
370
50
 62
4
100
AcDbLine
 10
39.907753
 20
-0.026415
 30
0.0
 11
39.90295
 21
-0.026394
 31
0.0
  0
LINE
  5
5BA
330
1F
100
AcDbEntity
  8
1
  6
CONTINUOUS
370
50
 62
4
100
AcDbLine
 10
39.894615
 20
-0.026346
 30
0.0
 11
39.892311
 21
-0.026336
 31
0.0
  0
LINE
  5
5BB
330
1F
100
AcDbEntity
  8
1
  6
CONTINUOUS
370
50
 62
4
100
AcDbLine
 10
39.931648
 20
0.026384
 30
0.0
 11
39.925224
 21
0.026409
 31
0.0
  0
LINE
  5
5BC
330
1F
100
AcDbEntity
  8
1
  6
CONTINUOUS
370
50
 62
4
100
AcDbLine
 10
39.963303
 20
-0.04374
 30
0.0
 11
39.960678
 21
-0.043731
 31
0.0
  0
LINE
  5
5BD
330
1F
100
AcDbEntity
  8
1
  6
CONTINUOUS
370
50
 62
4
100
AcDbLine
 10
39.77985
 20
0.03549
 30
0.0
 11
39.77788899999999
 21
0.035496
 31
0.0
  0
LINE
  5
5BE
330
1F
100
AcDbEntity
  8
1
  6
CONTINUOUS
370
50
 62
4
100
AcDbLine
 10
39.910732
 20
-0.026422
 30
0.0
 11
39.907753
 21
-0.026415
 31
0.0
  0
LINE
  5
5BF
330
1F
100
AcDbEntity
  8
1
  6
CONTINUOUS
370
50
 62
4
100
AcDbLine
 10
39.925224
 20
0.026409
 30
0.0
 11
39.917358
 21
0.026424
 31
0.0
  0
LINE
  5
5C0
330
1F
100
AcDbEntity
  8
1
  6
CONTINUOUS
370
50
 62
4
100
AcDbLine
 10
39.910595
 20
0.026421
 30
0.0
 11
39.917358
 21
0.026424
 31
0.0
  0
LINE
  5
5C1
330
1F
100
AcDbEntity
  8
1
  6
CONTINUOUS
370
50
 62
4
100
AcDbLine
 10
39.77788899999999
 20
-0.035496
 30
0.0
 11
39.77985
 21
-0.03549
 31
0.0
  0
LINE
  5
5C2
330
1F
100
AcDbEntity
  8
1
  6
CONTINUOUS
370
50
 62
4
100
AcDbLine
 10
39.734268
 20
-0.04995
 30
0.0
 11
39.734592
 21
-0.049949
 31
0.0
  0
LINE
  5
5C3
330
1F
100
AcDbEntity
  8
1
  6
CONTINUOUS
370
50
 62
4
100
AcDbLine
 10
39.734005
 20
0.049949
 30
0.0
 11
39.734268
 21
0.04995
 31
0.0
  0
LINE
  5
5C4
330
1F
100
AcDbEntity
  8
1
  6
CONTINUOUS
370
50
 62
4
100
AcDbLine
 10
39.734592
 20
0.049949
 30
0.0
 11
39.734268
 21
0.04995
 31
0.0
  0
LINE
  5
5C5
330
1F
100
AcDbEntity
  8
1
  6
CONTINUOUS
370
50
 62
4
100
AcDbLine
 10
39.599998
 20
0.04995
 30
0.0
 11
39.734268
 21
0.04995
 31
0.0
  0
LINE
  5
5C6
330
1F
100
AcDbEntity
  8
1
  6
CONTINUOUS
370
50
 62
4
100
AcDbLine
 10
39.960678
 20
0.043731
 30
0.0
 11
39.963303
 21
0.04374
 31
0.0
  0
LINE
  5
5C7
330
1F
100
AcDbEntity
  8
1
  6
CONTINUOUS
370
50
 62
4
100
AcDbLine
 10
39.902927
 20
0.026394
 30
0.0
 11
39.910595
 21
0.026421
 31
0.0
  0
LINE
  5
5C8
330
1F
100
AcDbEntity
  8
1
  6
CONTINUOUS
370
50
 62
4
100
AcDbLine
 10
39.897026
 20
0.02636
 30
0.0
 11
39.902927
 21
0.026394
 31
0.0
  0
LINE
  5
5C9
330
1F
100
AcDbEntity
  8
1
  6
CONTINUOUS
370
50
 62
4
100
AcDbLine
 10
39.734592
 20
-0.049949
 30
0.0
 11
39.734943
 21
-0.049946
 31
0.0
  0
LINE
  5
5CA
330
1F
100
AcDbEntity
  8
1
  6
CONTINUOUS
370
50
 62
4
100
AcDbLine
 10
39.736553
 20
-0.049929
 30
0.0
 11
39.736992
 21
-0.049925
 31
0.0
  0
LINE
  5
5CB
330
1F
100
AcDbEntity
  8
1
  6
CONTINUOUS
370
50
 62
4
100
AcDbLine
 10
39.736126
 20
-0.049933
 30
0.0
 11
39.736553
 21
-0.049929
 31
0.0
  0
LINE
  5
5CC
330
1F
100
AcDbEntity
  8
1
  6
CONTINUOUS
370
50
 62
4
100
AcDbLine
 10
39.73531699999999
 20
-0.049942
 30
0.0
 11
39.735714
 21
-0.049938
 31
0.0
  0
LINE
  5
5CD
330
1F
100
AcDbEntity
  8
1
  6
CONTINUOUS
370
50
 62
4
100
AcDbLine
 10
39.734943
 20
-0.049946
 30
0.0
 11
39.73531699999999
 21
-0.049942
 31
0.0
  0
LINE
  5
5CE
330
1F
100
AcDbEntity
  8
1
  6
CONTINUOUS
370
50
 62
4
100
AcDbLine
 10
39.735714
 20
-0.049938
 30
0.0
 11
39.736126
 21
-0.049933
 31
0.0
  0
LINE
  5
5CF
330
1F
100
AcDbEntity
  8
1
  6
CONTINUOUS
370
50
 62
4
100
AcDbLine
 10
39.733765
 20
0.049946
 30
0.0
 11
39.734005
 21
0.049949
 31
0.0
  0
LINE
  5
5D0
330
1F
100
AcDbEntity
  8
1
  6
CONTINUOUS
370
50
 62
4
100
AcDbLine
 10
39.736992
 20
-0.049925
 30
0.0
 11
39.739174
 21
-0.049887
 31
0.0
  0
LINE
  5
5D1
330
1F
100
AcDbEntity
  8
1
  6
CONTINUOUS
370
50
 62
4
100
AcDbLine
 10
39.783752
 20
0.034395
 30
0.0
 11
39.785004
 21
0.034425
 31
0.0
  0
LINE
  5
5D2
330
1F
100
AcDbEntity
  8
1
  6
CONTINUOUS
370
50
 62
4
100
AcDbLine
 10
39.733551
 20
0.04994
 30
0.0
 11
39.733765
 21
0.049946
 31
0.0
  0
LINE
  5
5D3
330
1F
100
AcDbEntity
  8
1
  6
CONTINUOUS
370
50
 62
4
100
AcDbLine
 10
39.739174
 20
-0.049887
 30
0.0
 11
39.741299
 21
-0.049825
 31
0.0
  0
LINE
  5
5D4
330
1F
100
AcDbEntity
  8
1
  6
CONTINUOUS
370
50
 62
4
100
AcDbLine
 10
39.73336
 20
0.049932
 30
0.0
 11
39.733551
 21
0.04994
 31
0.0
  0
LINE
  5
5D5
330
1F
100
AcDbEntity
  8
1
  6
CONTINUOUS
370
50
 62
4
100
AcDbLine
 10
39.741299
 20
-0.049825
 30
0.0
 11
39.743366
 21
-0.04973
 31
0.0
  0
LINE
  5
5D6
330
1F
100
AcDbEntity
  8
1
  6
CONTINUOUS
370
50
 62
4
100
AcDbLine
 10
39.785004
 20
0.034425
 30
0.0
 11
39.786243
 21
0.034497
 31
0.0
  0
LINE
  5
5D7
330
1F
100
AcDbEntity
  8
1
  6
CONTINUOUS
370
50
 62
4
100
AcDbLine
 10
39.77985
 20
0.03549
 30
0.0
 11
39.782139
 21
0.035634
 31
0.0
  0
LINE
  5
5D8
330
1F
100
AcDbEntity
  8
1
  6
CONTINUOUS
370
50
 62
4
100
AcDbLine
 10
39.956394
 20
-0.032717
 30
0.0
 11
39.958614
 21
-0.032575
 31
0.0
  0
LINE
  5
5D9
330
1F
100
AcDbEntity
  8
1
  6
CONTINUOUS
370
50
 62
4
100
AcDbLine
 10
39.954063
 20
-0.03287
 30
0.0
 11
39.956394
 21
-0.032717
 31
0.0
  0
LINE
  5
5DA
330
1F
100
AcDbEntity
  8
1
  6
CONTINUOUS
370
50
 62
4
100
AcDbLine
 10
39.743366
 20
-0.04973
 30
0.0
 11
39.745365
 21
-0.049598
 31
0.0
  0
LINE
  5
5DB
330
1F
100
AcDbEntity
  8
1
  6
CONTINUOUS
370
50
 62
4
100
AcDbLine
 10
39.951649
 20
-0.033031
 30
0.0
 11
39.954063
 21
-0.03287
 31
0.0
  0
LINE
  5
5DC
330
1F
100
AcDbEntity
  8
1
  6
CONTINUOUS
370
50
 62
4
100
AcDbLine
 10
39.77607
 20
-0.035618
 30
0.0
 11
39.77788899999999
 21
-0.035496
 31
0.0
  0
LINE
  5
5DD
330
1F
100
AcDbEntity
  8
1
  6
CONTINUOUS
370
50
 62
4
100
AcDbLine
 10
39.963303
 20
-0.04374
 30
0.0
 11
39.965897
 21
-0.043566
 31
0.0
  0
LINE
  5
5DE
330
1F
100
AcDbEntity
  8
1
  6
CONTINUOUS
370
50
 62
4
100
AcDbLine
 10
39.949188
 20
-0.033199
 30
0.0
 11
39.951649
 21
-0.033031
 31
0.0
  0
LINE
  5
5DF
330
1F
100
AcDbEntity
  8
1
  6
CONTINUOUS
370
50
 62
4
100
AcDbLine
 10
39.7332
 20
0.049921
 30
0.0
 11
39.73336
 21
0.049932
 31
0.0
  0
LINE
  5
5E0
330
1F
100
AcDbEntity
  8
1
  6
CONTINUOUS
370
50
 62
4
100
AcDbLine
 10
39.94672
 20
-0.033369
 30
0.0
 11
39.949188
 21
-0.033199
 31
0.0
  0
LINE
  5
5E1
330
1F
100
AcDbEntity
  8
1
  6
CONTINUOUS
370
50
 62
4
100
AcDbLine
 10
39.944275
 20
-0.03354
 30
0.0
 11
39.94672
 21
-0.033369
 31
0.0
  0
LINE
  5
5E2
330
1F
100
AcDbEntity
  8
1
  6
CONTINUOUS
370
50
 62
4
100
AcDbLine
 10
39.958027
 20
0.043543
 30
0.0
 11
39.960678
 21
0.043731
 31
0.0
  0
LINE
  5
5E3
330
1F
100
AcDbEntity
  8
1
  6
CONTINUOUS
370
50
 62
4
100
AcDbLine
 10
39.786243
 20
0.034497
 30
0.0
 11
39.787476
 21
0.034609
 31
0.0
  0
LINE
  5
5E4
330
1F
100
AcDbEntity
  8
1
  6
CONTINUOUS
370
50
 62
4
100
AcDbLine
 10
39.745365
 20
-0.049598
 30
0.0
 11
39.747303
 21
-0.049421
 31
0.0
  0
LINE
  5
5E5
330
1F
100
AcDbEntity
  8
1
  6
CONTINUOUS
370
50
 62
4
100
AcDbLine
 10
39.895931
 20
-0.026688
 30
0.0
 11
39.899265
 21
-0.026372
 31
0.0
  0
LINE
  5
5E6
330
1F
100
AcDbEntity
  8
1
  6
CONTINUOUS
370
50
 62
4
100
AcDbLine
 10
39.894382
 20
-0.026843
 30
0.0
 11
39.895931
 21
-0.026688
 31
0.0
  0
LINE
  5
5E7
330
1F
100
AcDbEntity
  8
1
  6
CONTINUOUS
370
50
 62
4
100
AcDbLine
 10
39.733063
 20
0.049907
 30
0.0
 11
39.7332
 21
0.049921
 31
0.0
  0
LINE
  5
5E8
330
1F
100
AcDbEntity
  8
1
  6
CONTINUOUS
370
50
 62
4
100
AcDbLine
 10
39.888168
 20
-0.027498
 30
0.0
 11
39.894382
 21
-0.026843
 31
0.0
  0
LINE
  5
5E9
330
1F
100
AcDbEntity
  8
1
  6
CONTINUOUS
370
50
 62
4
100
AcDbLine
 10
39.775639
 20
-0.035665
 30
0.0
 11
39.77607
 21
-0.035618
 31
0.0
  0
LINE
  5
5EA
330
1F
100
AcDbEntity
  8
1
  6
CONTINUOUS
370
50
 62
4
100
AcDbLine
 10
39.884396
 20
-0.027921
 30
0.0
 11
39.888168
 21
-0.027498
 31
0.0
  0
LINE
  5
5EB
330
1F
100
AcDbEntity
  8
1
  6
CONTINUOUS
370
50
 62
4
100
AcDbLine
 10
39.881832
 20
-0.028221
 30
0.0
 11
39.884396
 21
-0.027921
 31
0.0
  0
LINE
  5
5EC
330
1F
100
AcDbEntity
  8
1
  6
CONTINUOUS
370
50
 62
4
100
AcDbLine
 10
39.875633
 20
-0.028972
 30
0.0
 11
39.881832
 21
-0.028221
 31
0.0
  0
LINE
  5
5ED
330
1F
100
AcDbEntity
  8
1
  6
CONTINUOUS
370
50
 62
4
100
AcDbLine
 10
39.747303
 20
-0.049421
 30
0.0
 11
39.749176
 21
-0.049192
 31
0.0
  0
LINE
  5
5EE
330
1F
100
AcDbEntity
  8
1
  6
CONTINUOUS
370
50
 62
4
100
AcDbLine
 10
39.958618
 20
-0.032575
 30
0.0
 11
39.960411
 21
-0.032355
 31
0.0
  0
LINE
  5
5EF
330
1F
100
AcDbEntity
  8
1
  6
CONTINUOUS
370
50
 62
4
100
AcDbLine
 10
39.787476
 20
0.034609
 30
0.0
 11
39.788677
 21
0.034758
 31
0.0
  0
LINE
  5
5F0
330
1F
100
AcDbEntity
  8
1
  6
CONTINUOUS
370
50
 62
4
100
AcDbLine
 10
39.872334
 20
-0.029386
 30
0.0
 11
39.875633
 21
-0.028972
 31
0.0
  0
LINE
  5
5F1
330
1F
100
AcDbEntity
  8
1
  6
CONTINUOUS
370
50
 62
4
100
AcDbLine
 10
39.869209
 20
-0.029791
 30
0.0
 11
39.872334
 21
-0.029386
 31
0.0
  0
LINE
  5
5F2
330
1F
100
AcDbEntity
  8
1
  6
CONTINUOUS
370
50
 62
4
100
AcDbLine
 10
39.782139
 20
0.035634
 30
0.0
 11
39.784569
 21
0.03595
 31
0.0
  0
LINE
  5
5F3
330
1F
100
AcDbEntity
  8
1
  6
CONTINUOUS
370
50
 62
4
100
AcDbLine
 10
39.862518
 20
-0.030686
 30
0.0
 11
39.869209
 21
-0.029791
 31
0.0
  0
LINE
  5
5F4
330
1F
100
AcDbEntity
  8
1
  6
CONTINUOUS
370
50
 62
4
100
AcDbLine
 10
39.968884
 20
0.038555
 30
0.0
 11
39.97823
 21
0.039812
 31
0.0
  0
LINE
  5
5F5
330
1F
100
AcDbEntity
  8
1
  6
CONTINUOUS
370
50
 62
4
100
AcDbLine
 10
39.955364
 20
0.04318
 30
0.0
 11
39.958027
 21
0.043543
 31
0.0
  0
LINE
  5
5F6
330
1F
100
AcDbEntity
  8
1
  6
CONTINUOUS
370
50
 62
4
100
AcDbLine
 10
39.859997
 20
-0.031032
 30
0.0
 11
39.862518
 21
-0.030686
 31
0.0
  0
LINE
  5
5F7
330
1F
100
AcDbEntity
  8
1
  6
CONTINUOUS
370
50
 62
4
100
AcDbLine
 10
39.856419
 20
-0.031539
 30
0.0
 11
39.859997
 21
-0.031032
 31
0.0
  0
LINE
  5
5F8
330
1F
100
AcDbEntity
  8
1
  6
CONTINUOUS
370
50
 62
4
100
AcDbLine
 10
39.965897
 20
-0.043566
 30
0.0
 11
39.968456
 21
-0.043203
 31
0.0
  0
LINE
  5
5F9
330
1F
100
AcDbEntity
  8
1
  6
CONTINUOUS
370
50
 62
4
100
AcDbLine
 10
39.84979999999999
 20
-0.032507
 30
0.0
 11
39.856419
 21
-0.031539
 31
0.0
  0
LINE
  5
5FA
330
1F
100
AcDbEntity
  8
1
  6
CONTINUOUS
370
50
 62
4
100
AcDbLine
 10
39.843616
 20
-0.03346
 30
0.0
 11
39.84979999999999
 21
-0.032507
 31
0.0
  0
LINE
  5
5FB
330
1F
100
AcDbEntity
  8
1
  6
CONTINUOUS
370
50
 62
4
100
AcDbLine
 10
39.732948
 20
0.049889
 30
0.0
 11
39.733063
 21
0.049907
 31
0.0
  0
LINE
  5
5FC
330
1F
100
AcDbEntity
  8
1
  6
CONTINUOUS
370
50
 62
4
100
AcDbLine
 10
39.773743
 20
-0.035963
 30
0.0
 11
39.775639
 21
-0.035665
 31
0.0
  0
LINE
  5
5FD
330
1F
100
AcDbEntity
  8
1
  6
CONTINUOUS
370
50
 62
4
100
AcDbLine
 10
39.788677
 20
0.034758
 30
0.0
 11
39.789841
 21
0.034941
 31
0.0
  0
LINE
  5
5FE
330
1F
100
AcDbEntity
  8
1
  6
CONTINUOUS
370
50
 62
4
100
AcDbLine
 10
39.749176
 20
-0.049192
 30
0.0
 11
39.750977
 21
-0.048905
 31
0.0
  0
LINE
  5
5FF
330
1F
100
AcDbEntity
  8
1
  6
CONTINUOUS
370
50
 62
4
100
AcDbLine
 10
39.836731
 20
-0.03458
 30
0.0
 11
39.843616
 21
-0.03346
 31
0.0
  0
LINE
  5
600
330
1F
100
AcDbEntity
  8
1
  6
CONTINUOUS
370
50
 62
4
100
AcDbLine
 10
39.835114
 20
-0.034852
 30
0.0
 11
39.836731
 21
-0.03458
 31
0.0
  0
LINE
  5
601
330
1F
100
AcDbEntity
  8
1
  6
CONTINUOUS
370
50
 62
4
100
AcDbLine
 10
39.830769
 20
-0.035607
 30
0.0
 11
39.835114
 21
-0.034852
 31
0.0
  0
LINE
  5
602
330
1F
100
AcDbEntity
  8
1
  6
CONTINUOUS
370
50
 62
4
100
AcDbLine
 10
39.824375
 20
-0.036773
 30
0.0
 11
39.830769
 21
-0.035607
 31
0.0
  0
LINE
  5
603
330
1F
100
AcDbEntity
  8
1
  6
CONTINUOUS
370
50
 62
4
100
AcDbLine
 10
39.95953799999999
 20
0.036811
 30
0.0
 11
39.968884
 21
0.038555
 31
0.0
  0
LINE
  5
604
330
1F
100
AcDbEntity
  8
1
  6
CONTINUOUS
370
50
 62
4
100
AcDbLine
 10
39.822681
 20
-0.037093
 30
0.0
 11
39.824375
 21
-0.036773
 31
0.0
  0
LINE
  5
605
330
1F
100
AcDbEntity
  8
1
  6
CONTINUOUS
370
50
 62
4
100
AcDbLine
 10
39.789841
 20
0.034941
 30
0.0
 11
39.790966
 21
0.035157
 31
0.0
  0
LINE
  5
606
330
1F
100
AcDbEntity
  8
1
  6
CONTINUOUS
370
50
 62
4
100
AcDbLine
 10
39.795719
 20
0.032801
 30
0.0
 11
39.799999
 21
0.033629
 31
0.0
  0
LINE
  5
607
330
1F
100
AcDbEntity
  8
1
  6
CONTINUOUS
370
50
 62
4
100
AcDbLine
 10
39.81786
 20
-0.038037
 30
0.0
 11
39.822681
 21
-0.037093
 31
0.0
  0
LINE
  5
608
330
1F
100
AcDbEntity
  8
1
  6
CONTINUOUS
370
50
 62
4
100
AcDbLine
 10
39.952682
 20
0.04265
 30
0.0
 11
39.955364
 21
0.04318
 31
0.0
  0
LINE
  5
609
330
1F
100
AcDbEntity
  8
1
  6
CONTINUOUS
370
50
 62
4
100
AcDbLine
 10
39.784569
 20
0.03595
 30
0.0
 11
39.787262
 21
0.036485
 31
0.0
  0
LINE
  5
60A
330
1F
100
AcDbEntity
  8
1
  6
CONTINUOUS
370
50
 62
4
100
AcDbLine
 10
39.750977
 20
-0.048905
 30
0.0
 11
39.752716
 21
-0.048552
 31
0.0
  0
LINE
  5
60B
330
1F
100
AcDbEntity
  8
1
  6
CONTINUOUS
370
50
 62
4
100
AcDbLine
 10
39.812103
 20
-0.03922
 30
0.0
 11
39.81786
 21
-0.038037
 31
0.0
  0
LINE
  5
60C
330
1F
100
AcDbEntity
  8
1
  6
CONTINUOUS
370
50
 62
4
100
AcDbLine
 10
39.810734
 20
-0.039511
 30
0.0
 11
39.812103
 21
-0.03922
 31
0.0
  0
LINE
  5
60D
330
1F
100
AcDbEntity
  8
1
  6
CONTINUOUS
370
50
 62
4
100
AcDbLine
 10
39.960411
 20
-0.032355
 30
0.0
 11
39.9622
 21
-0.031964
 31
0.0
  0
LINE
  5
60E
330
1F
100
AcDbEntity
  8
1
  6
CONTINUOUS
370
50
 62
4
100
AcDbLine
 10
39.805412
 20
-0.040676
 30
0.0
 11
39.810734
 21
-0.039511
 31
0.0
  0
LINE
  5
60F
330
1F
100
AcDbEntity
  8
1
  6
CONTINUOUS
370
50
 62
4
100
AcDbLine
 10
39.968456
 20
-0.043203
 30
0.0
 11
39.970978
 21
-0.042648
 31
0.0
  0
LINE
  5
610
330
1F
100
AcDbEntity
  8
1
  6
CONTINUOUS
370
50
 62
4
100
AcDbLine
 10
39.950191
 20
0.034724
 30
0.0
 11
39.95953799999999
 21
0.036811
 31
0.0
  0
LINE
  5
611
330
1F
100
AcDbEntity
  8
1
  6
CONTINUOUS
370
50
 62
4
100
AcDbLine
 10
39.790966
 20
0.035157
 30
0.0
 11
39.792053
 21
0.035401
 31
0.0
  0
LINE
  5
612
330
1F
100
AcDbEntity
  8
1
  6
CONTINUOUS
370
50
 62
4
100
AcDbLine
 10
39.992207
 20
0.012873
 30
0.0
 11
39.992512
 21
0.012942
 31
0.0
  0
LINE
  5
613
330
1F
100
AcDbEntity
  8
1
  6
CONTINUOUS
370
50
 62
4
100
AcDbLine
 10
39.990997
 20
0.012596
 30
0.0
 11
39.991299
 21
0.012665
 31
0.0
  0
LINE
  5
614
330
1F
100
AcDbEntity
  8
1
  6
CONTINUOUS
370
50
 62
4
100
AcDbLine
 10
39.991901
 20
0.012803
 30
0.0
 11
39.992207
 21
0.012873
 31
0.0
  0
LINE
  5
615
330
1F
100
AcDbEntity
  8
1
  6
CONTINUOUS
370
50
 62
4
100
AcDbLine
 10
39.799988
 20
-0.041918
 30
0.0
 11
39.805412
 21
-0.040676
 31
0.0
  0
LINE
  5
616
330
1F
100
AcDbEntity
  8
1
  6
CONTINUOUS
370
50
 62
4
100
AcDbLine
 10
39.991299
 20
0.012665
 30
0.0
 11
39.991901
 21
0.012803
 31
0.0
  0
LINE
  5
617
330
1F
100
AcDbEntity
  8
1
  6
CONTINUOUS
370
50
 62
4
100
AcDbLine
 10
39.990696
 20
0.012526
 30
0.0
 11
39.990997
 21
0.012596
 31
0.0
  0
LINE
  5
618
330
1F
100
AcDbEntity
  8
1
  6
CONTINUOUS
370
50
 62
4
100
AcDbLine
 10
39.79158
 20
0.031812
 30
0.0
 11
39.795719
 21
0.032801
 31
0.0
  0
LINE
  5
619
330
1F
100
AcDbEntity
  8
1
  6
CONTINUOUS
370
50
 62
4
100
AcDbLine
 10
39.772053
 20
-0.036369
 30
0.0
 11
39.773743
 21
-0.035963
 31
0.0
  0
LINE
  5
61A
330
1F
100
AcDbEntity
  8
1
  6
CONTINUOUS
370
50
 62
4
100
AcDbLine
 10
39.732861
 20
0.049868
 30
0.0
 11
39.732948
 21
0.049889
 31
0.0
  0
LINE
  5
61B
330
1F
100
AcDbEntity
  8
1
  6
CONTINUOUS
370
50
 62
4
100
AcDbLine
 10
39.752716
 20
-0.048552
 30
0.0
 11
39.754383
 21
-0.048127
 31
0.0
  0
LINE
  5
61C
330
1F
100
AcDbEntity
  8
1
  6
CONTINUOUS
370
50
 62
4
100
AcDbLine
 10
39.940842
 20
0.032327
 30
0.0
 11
39.950191
 21
0.034724
 31
0.0
  0
LINE
  5
61D
330
1F
100
AcDbEntity
  8
1
  6
CONTINUOUS
370
50
 62
4
100
AcDbLine
 10
39.950001
 20
0.041957
 30
0.0
 11
39.952682
 21
0.04265
 31
0.0
  0
LINE
  5
61E
330
1F
100
AcDbEntity
  8
1
  6
CONTINUOUS
370
50
 62
4
100
AcDbLine
 10
39.792053
 20
0.035401
 30
0.0
 11
39.793091
 21
0.035673
 31
0.0
  0
LINE
  5
61F
330
1F
100
AcDbEntity
  8
1
  6
CONTINUOUS
370
50
 62
4
100
AcDbLine
 10
39.787262
 20
0.036485
 30
0.0
 11
39.789631
 21
0.037112
 31
0.0
  0
LINE
  5
620
330
1F
100
AcDbEntity
  8
1
  6
CONTINUOUS
370
50
 62
4
100
AcDbLine
 10
32.400002
 20
-1.99995
 30
0.0
 11
39.599998
 21
-0.04995
 31
0.0
  0
LINE
  5
621
330
1F
100
AcDbEntity
  8
1
  6
CONTINUOUS
370
50
 62
4
100
AcDbLine
 10
39.787586
 20
0.030663
 30
0.0
 11
39.79158
 21
0.031812
 31
0.0
  0
LINE
  5
622
330
1F
100
AcDbEntity
  8
1
  6
CONTINUOUS
370
50
 62
4
100
AcDbLine
 10
39.931496
 20
0.029575
 30
0.0
 11
39.940842
 21
0.032327
 31
0.0
  0
LINE
  5
623
330
1F
100
AcDbEntity
  8
1
  6
CONTINUOUS
370
50
 62
4
100
AcDbLine
 10
39.793091
 20
0.035673
 30
0.0
 11
39.794083
 21
0.035969
 31
0.0
  0
LINE
  5
624
330
1F
100
AcDbEntity
  8
1
  6
CONTINUOUS
370
50
 62
4
100
AcDbLine
 10
39.944294
 20
0.04024
 30
0.0
 11
39.950001
 21
0.041957
 31
0.0
  0
LINE
  5
625
330
1F
100
AcDbEntity
  8
1
  6
CONTINUOUS
370
50
 62
4
100
AcDbLine
 10
39.970978
 20
-0.042648
 30
0.0
 11
39.973454
 21
-0.041898
 31
0.0
  0
LINE
  5
626
330
1F
100
AcDbEntity
  8
1
  6
CONTINUOUS
370
50
 62
4
100
AcDbLine
 10
39.9622
 20
-0.031964
 30
0.0
 11
39.963947
 21
-0.031416
 31
0.0
  0
LINE
  5
627
330
1F
100
AcDbEntity
  8
1
  6
CONTINUOUS
370
50
 62
4
100
AcDbLine
 10
39.754383
 20
-0.048127
 30
0.0
 11
39.75597
 21
-0.047625
 31
0.0
  0
LINE
  5
628
330
1F
100
AcDbEntity
  8
1
  6
CONTINUOUS
370
50
 62
4
100
AcDbLine
 10
39.789631
 20
0.037112
 30
0.0
 11
39.792221
 21
0.037961
 31
0.0
  0
LINE
  5
629
330
1F
100
AcDbEntity
  8
1
  6
CONTINUOUS
370
50
 62
4
100
AcDbLine
 10
39.770622
 20
-0.03684
 30
0.0
 11
39.772053
 21
-0.036369
 31
0.0
  0
LINE
  5
62A
330
1F
100
AcDbEntity
  8
1
  6
CONTINUOUS
370
50
 62
4
100
AcDbLine
 10
39.938137
 20
0.038209
 30
0.0
 11
39.944294
 21
0.04024
 31
0.0
  0
LINE
  5
62B
330
1F
100
AcDbEntity
  8
1
  6
CONTINUOUS
370
50
 62
4
100
AcDbLine
 10
39.794083
 20
0.035969
 30
0.0
 11
39.795017
 21
0.036285
 31
0.0
  0
LINE
  5
62C
330
1F
100
AcDbEntity
  8
1
  6
CONTINUOUS
370
50
 62
4
100
AcDbLine
 10
39.922146
 20
0.026409
 30
0.0
 11
39.931496
 21
0.029575
 31
0.0
  0
LINE
  5
62D
330
1F
100
AcDbEntity
  8
1
  6
CONTINUOUS
370
50
 62
4
100
AcDbLine
 10
39.783737
 20
0.029353
 30
0.0
 11
39.787586
 21
0.030663
 31
0.0
  0
LINE
  5
62E
330
1F
100
AcDbEntity
  8
1
  6
CONTINUOUS
370
50
 62
4
100
AcDbLine
 10
39.931614
 20
0.035835
 30
0.0
 11
39.938137
 21
0.038209
 31
0.0
  0
LINE
  5
62F
330
1F
100
AcDbEntity
  8
1
  6
CONTINUOUS
370
50
 62
4
100
AcDbLine
 10
39.795017
 20
0.036285
 30
0.0
 11
39.795891
 21
0.036618
 31
0.0
  0
LINE
  5
630
330
1F
100
AcDbEntity
  8
1
  6
CONTINUOUS
370
50
 62
4
100
AcDbLine
 10
39.75597
 20
-0.047625
 30
0.0
 11
39.757477
 21
-0.04704
 31
0.0
  0
LINE
  5
631
330
1F
100
AcDbEntity
  8
1
  6
CONTINUOUS
370
50
 62
4
100
AcDbLine
 10
39.973454
 20
-0.041898
 30
0.0
 11
39.975872
 21
-0.040954
 31
0.0
  0
LINE
  5
632
330
1F
100
AcDbEntity
  8
1
  6
CONTINUOUS
370
50
 62
4
100
AcDbLine
 10
39.792221
 20
0.037961
 30
0.0
 11
39.794842
 21
0.038997
 31
0.0
  0
LINE
  5
633
330
1F
100
AcDbEntity
  8
1
  6
CONTINUOUS
370
50
 62
4
100
AcDbLine
 10
39.780029
 20
0.027879
 30
0.0
 11
39.783737
 21
0.029353
 31
0.0
  0
LINE
  5
634
330
1F
100
AcDbEntity
  8
1
  6
CONTINUOUS
370
50
 62
4
100
AcDbLine
 10
39.924797
 20
0.033091
 30
0.0
 11
39.931614
 21
0.035835
 31
0.0
  0
LINE
  5
635
330
1F
100
AcDbEntity
  8
1
  6
CONTINUOUS
370
50
 62
4
100
AcDbLine
 10
39.963947
 20
-0.031416
 30
0.0
 11
39.965649
 21
-0.030723
 31
0.0
  0
LINE
  5
636
330
1F
100
AcDbEntity
  8
1
  6
CONTINUOUS
370
50
 62
4
100
AcDbLine
 10
39.7328
 20
0.049842
 30
0.0
 11
39.732861
 21
0.049868
 31
0.0
  0
LINE
  5
637
330
1F
100
AcDbEntity
  8
1
  6
CONTINUOUS
370
50
 62
4
100
AcDbLine
 10
39.795891
 20
0.036618
 30
0.0
 11
39.7967
 21
0.036963
 31
0.0
  0
LINE
  5
638
330
1F
100
AcDbEntity
  8
1
  6
CONTINUOUS
370
50
 62
4
100
AcDbLine
 10
39.769138
 20
-0.037483
 30
0.0
 11
39.770622
 21
-0.03684
 31
0.0
  0
LINE
  5
639
330
1F
100
AcDbEntity
  8
1
  6
CONTINUOUS
370
50
 62
4
100
AcDbLine
 10
39.917763
 20
0.02995
 30
0.0
 11
39.924797
 21
0.033091
 31
0.0
  0
LINE
  5
63A
330
1F
100
AcDbEntity
  8
1
  6
CONTINUOUS
370
50
 62
4
100
AcDbLine
 10
39.776466
 20
0.026241
 30
0.0
 11
39.780029
 21
0.027879
 31
0.0
  0
LINE
  5
63B
330
1F
100
AcDbEntity
  8
1
  6
CONTINUOUS
370
50
 62
4
100
AcDbLine
 10
39.794842
 20
0.038997
 30
0.0
 11
39.797436
 21
0.040202
 31
0.0
  0
LINE
  5
63C
330
1F
100
AcDbEntity
  8
1
  6
CONTINUOUS
370
50
 62
4
100
AcDbLine
 10
39.757477
 20
-0.04704
 30
0.0
 11
39.758896
 21
-0.046368
 31
0.0
  0
LINE
  5
63D
330
1F
100
AcDbEntity
  8
1
  6
CONTINUOUS
370
50
 62
4
100
AcDbLine
 10
39.7967
 20
0.036963
 30
0.0
 11
39.79744
 21
0.037319
 31
0.0
  0
LINE
  5
63E
330
1F
100
AcDbEntity
  8
1
  6
CONTINUOUS
370
50
 62
4
100
AcDbLine
 10
39.975872
 20
-0.040954
 30
0.0
 11
39.97823
 21
-0.039812
 31
0.0
  0
LINE
  5
63F
330
1F
100
AcDbEntity
  8
1
  6
CONTINUOUS
370
50
 62
4
100
AcDbLine
 10
39.910614
 20
0.026395
 30
0.0
 11
39.917763
 21
0.02995
 31
0.0
  0
LINE
  5
640
330
1F
100
AcDbEntity
  8
1
  6
CONTINUOUS
370
50
 62
4
100
AcDbLine
 10
39.965649
 20
-0.030723
 30
0.0
 11
39.96729699999999
 21
-0.029895
 31
0.0
  0
LINE
  5
641
330
1F
100
AcDbEntity
  8
1
  6
CONTINUOUS
370
50
 62
4
100
AcDbLine
 10
39.773045
 20
0.024438
 30
0.0
 11
39.776466
 21
0.026241
 31
0.0
  0
LINE
  5
642
330
1F
100
AcDbEntity
  8
1
  6
CONTINUOUS
370
50
 62
4
100
AcDbLine
 10
39.797436
 20
0.040202
 30
0.0
 11
39.799999
 21
0.041578
 31
0.0
  0
LINE
  5
643
330
1F
100
AcDbEntity
  8
1
  6
CONTINUOUS
370
50
 62
4
100
AcDbLine
 10
39.79744
 20
0.037319
 30
0.0
 11
39.79799999999999
 21
0.03762
 31
0.0
  0
LINE
  5
644
330
1F
100
AcDbEntity
  8
1
  6
CONTINUOUS
370
50
 62
4
100
AcDbLine
 10
39.768234
 20
-0.037971
 30
0.0
 11
39.769138
 21
-0.037483
 31
0.0
  0
LINE
  5
645
330
1F
100
AcDbEntity
  8
1
  6
CONTINUOUS
370
50
 62
4
100
AcDbLine
 10
39.97823
 20
-0.039812
 30
0.0
 11
39.979805
 21
-0.038926
 31
0.0
  0
LINE
  5
646
330
1F
100
AcDbEntity
  8
1
  6
CONTINUOUS
370
50
 62
4
100
AcDbLine
 10
39.758896
 20
-0.046368
 30
0.0
 11
39.76022
 21
-0.045602
 31
0.0
  0
LINE
  5
647
330
1F
100
AcDbEntity
  8
1
  6
CONTINUOUS
370
50
 62
4
100
AcDbLine
 10
39.771755
 20
0.023688
 30
0.0
 11
39.773045
 21
0.024438
 31
0.0
  0
LINE
  5
648
330
1F
100
AcDbEntity
  8
1
  6
CONTINUOUS
370
50
 62
4
100
AcDbLine
 10
39.79799999999999
 20
0.03762
 30
0.0
 11
39.798512
 21
0.037924
 31
0.0
  0
LINE
  5
649
330
1F
100
AcDbEntity
  8
1
  6
CONTINUOUS
370
50
 62
4
100
AcDbLine
 10
39.96729699999999
 20
-0.029895
 30
0.0
 11
39.968884
 21
-0.02895
 31
0.0
  0
LINE
  5
64A
330
1F
100
AcDbEntity
  8
1
  6
CONTINUOUS
370
50
 62
4
100
AcDbLine
 10
39.770489
 20
0.0229
 30
0.0
 11
39.771755
 21
0.023688
 31
0.0
  0
LINE
  5
64B
330
1F
100
AcDbEntity
  8
1
  6
CONTINUOUS
370
50
 62
4
100
AcDbLine
 10
39.979805
 20
-0.038926
 30
0.0
 11
39.981297
 21
-0.037992
 31
0.0
  0
LINE
  5
64C
330
1F
100
AcDbEntity
  8
1
  6
CONTINUOUS
370
50
 62
4
100
AcDbLine
 10
39.767418
 20
-0.038491
 30
0.0
 11
39.768234
 21
-0.037971
 31
0.0
  0
LINE
  5
64D
330
1F
100
AcDbEntity
  8
1
  6
CONTINUOUS
370
50
 62
4
100
AcDbLine
 10
39.99255
 20
0.021908
 30
0.0
 11
39.992897
 21
0.022138
 31
0.0
  0
LINE
  5
64E
330
1F
100
AcDbEntity
  8
1
  6
CONTINUOUS
370
50
 62
4
100
AcDbLine
 10
39.769241
 20
0.022072
 30
0.0
 11
39.770489
 21
0.0229
 31
0.0
  0
LINE
  5
64F
330
1F
100
AcDbEntity
  8
1
  6
CONTINUOUS
370
50
 62
4
100
AcDbLine
 10
39.798512
 20
0.037924
 30
0.0
 11
39.798965
 21
0.038228
 31
0.0
  0
LINE
  5
650
330
1F
100
AcDbEntity
  8
1
  6
CONTINUOUS
370
50
 62
4
100
AcDbLine
 10
39.968884
 20
-0.02895
 30
0.0
 11
39.970413
 21
-0.027899
 31
0.0
  0
LINE
  5
651
330
1F
100
AcDbEntity
  8
1
  6
CONTINUOUS
370
50
 62
4
100
AcDbLine
 10
39.981297
 20
-0.037992
 30
0.0
 11
39.982708
 21
-0.037018
 31
0.0
  0
LINE
  5
652
330
1F
100
AcDbEntity
  8
1
  6
CONTINUOUS
370
50
 62
4
100
AcDbLine
 10
39.76022
 20
-0.045602
 30
0.0
 11
39.76144
 21
-0.044738
 31
0.0
  0
LINE
  5
653
330
1F
100
AcDbEntity
  8
1
  6
CONTINUOUS
370
50
 62
4
100
AcDbLine
 10
39.768024
 20
0.021205
 30
0.0
 11
39.769241
 21
0.022072
 31
0.0
  0
LINE
  5
654
330
1F
100
AcDbEntity
  8
1
  6
CONTINUOUS
370
50
 62
4
100
AcDbLine
 10
39.766838
 20
-0.038919
 30
0.0
 11
39.767418
 21
-0.038491
 31
0.0
  0
LINE
  5
655
330
1F
100
AcDbEntity
  8
1
  6
CONTINUOUS
370
50
 62
4
100
AcDbLine
 10
39.798965
 20
0.038228
 30
0.0
 11
39.799366
 21
0.03853
 31
0.0
  0
LINE
  5
656
330
1F
100
AcDbEntity
  8
1
  6
CONTINUOUS
370
50
 62
4
100
AcDbLine
 10
39.982708
 20
-0.037018
 30
0.0
 11
39.984039
 21
-0.036011
 31
0.0
  0
LINE
  5
657
330
1F
100
AcDbEntity
  8
1
  6
CONTINUOUS
370
50
 62
4
100
AcDbLine
 10
39.766834
 20
0.020298
 30
0.0
 11
39.768024
 21
0.021205
 31
0.0
  0
LINE
  5
658
330
1F
100
AcDbEntity
  8
1
  6
CONTINUOUS
370
50
 62
4
100
AcDbLine
 10
39.732761
 20
0.049812
 30
0.0
 11
39.7328
 21
0.049842
 31
0.0
  0
LINE
  5
659
330
1F
100
AcDbEntity
  8
1
  6
CONTINUOUS
370
50
 62
4
100
AcDbLine
 10
39.970413
 20
-0.027899
 30
0.0
 11
39.971874
 21
-0.026755
 31
0.0
  0
LINE
  5
65A
330
1F
100
AcDbEntity
  8
1
  6
CONTINUOUS
370
50
 62
4
100
AcDbLine
 10
39.765678
 20
0.019352
 30
0.0
 11
39.766834
 21
0.020298
 31
0.0
  0
LINE
  5
65B
330
1F
100
AcDbEntity
  8
1
  6
CONTINUOUS
370
50
 62
4
100
AcDbLine
 10
39.984039
 20
-0.036011
 30
0.0
 11
39.985287
 21
-0.034978
 31
0.0
  0
LINE
  5
65C
330
1F
100
AcDbEntity
  8
1
  6
CONTINUOUS
370
50
 62
4
100
AcDbLine
 10
39.799366
 20
0.03853
 30
0.0
 11
39.799713
 21
0.03883
 31
0.0
  0
LINE
  5
65D
330
1F
100
AcDbEntity
  8
1
  6
CONTINUOUS
370
50
 62
4
100
AcDbLine
 10
39.76601
 20
-0.039635
 30
0.0
 11
39.766838
 21
-0.038919
 31
0.0
  0
LINE
  5
65E
330
1F
100
AcDbEntity
  8
1
  6
CONTINUOUS
370
50
 62
4
100
AcDbLine
 10
39.76144
 20
-0.044738
 30
0.0
 11
39.762547
 21
-0.043775
 31
0.0
  0
LINE
  5
65F
330
1F
100
AcDbEntity
  8
1
  6
CONTINUOUS
370
50
 62
4
100
AcDbLine
 10
39.971874
 20
-0.026755
 30
0.0
 11
39.97327
 21
-0.025529
 31
0.0
  0
LINE
  5
660
330
1F
100
AcDbEntity
  8
1
  6
CONTINUOUS
370
50
 62
4
100
AcDbLine
 10
39.764557
 20
0.018367
 30
0.0
 11
39.765678
 21
0.019352
 31
0.0
  0
LINE
  5
661
330
1F
100
AcDbEntity
  8
1
  6
CONTINUOUS
370
50
 62
4
100
AcDbLine
 10
39.985287
 20
-0.034978
 30
0.0
 11
39.986446
 21
-0.033928
 31
0.0
  0
LINE
  5
662
330
1F
100
AcDbEntity
  8
1
  6
CONTINUOUS
370
50
 62
4
100
AcDbLine
 10
39.763477
 20
0.017342
 30
0.0
 11
39.764557
 21
0.018367
 31
0.0
  0
LINE
  5
663
330
1F
100
AcDbEntity
  8
1
  6
CONTINUOUS
370
50
 62
4
100
AcDbLine
 10
39.97327
 20
-0.025529
 30
0.0
 11
39.974606
 21
-0.024231
 31
0.0
  0
LINE
  5
664
330
1F
100
AcDbEntity
  8
1
  6
CONTINUOUS
370
50
 62
4
100
AcDbLine
 10
39.986446
 20
-0.033928
 30
0.0
 11
39.987522
 21
-0.032866
 31
0.0
  0
LINE
  5
665
330
1F
100
AcDbEntity
  8
1
  6
CONTINUOUS
370
50
 62
4
100
AcDbLine
 10
39.76244
 20
0.016281
 30
0.0
 11
39.763477
 21
0.017342
 31
0.0
  0
LINE
  5
666
330
1F
100
AcDbEntity
  8
1
  6
CONTINUOUS
370
50
 62
4
100
AcDbLine
 10
39.799713
 20
0.03883
 30
0.0
 11
39.799999
 21
0.039126
 31
0.0
  0
LINE
  5
667
330
1F
100
AcDbEntity
  8
1
  6
CONTINUOUS
370
50
 62
4
100
AcDbLine
 10
39.765266
 20
-0.04041
 30
0.0
 11
39.76601
 21
-0.039635
 31
0.0
  0
LINE
  5
668
330
1F
100
AcDbEntity
  8
1
  6
CONTINUOUS
370
50
 62
4
100
AcDbLine
 10
39.974606
 20
-0.024231
 30
0.0
 11
39.975895
 21
-0.022849
 31
0.0
  0
LINE
  5
669
330
1F
100
AcDbEntity
  8
1
  6
CONTINUOUS
370
50
 62
4
100
AcDbLine
 10
39.987522
 20
-0.032866
 30
0.0
 11
39.988514
 21
-0.031801
 31
0.0
  0
LINE
  5
66A
330
1F
100
AcDbEntity
  8
1
  6
CONTINUOUS
370
50
 62
4
100
AcDbLine
 10
39.762547
 20
-0.043775
 30
0.0
 11
39.763535
 21
-0.042714
 31
0.0
  0
LINE
  5
66B
330
1F
100
AcDbEntity
  8
1
  6
CONTINUOUS
370
50
 62
4
100
AcDbLine
 10
39.761471
 20
0.015202
 30
0.0
 11
39.76244
 21
0.016281
 31
0.0
  0
LINE
  5
66C
330
1F
100
AcDbEntity
  8
1
  6
CONTINUOUS
370
50
 62
4
100
AcDbLine
 10
39.975895
 20
-0.022849
 30
0.0
 11
39.977142
 21
-0.021383
 31
0.0
  0
LINE
  5
66D
330
1F
100
AcDbEntity
  8
1
  6
CONTINUOUS
370
50
 62
4
100
AcDbLine
 10
39.988514
 20
-0.031801
 30
0.0
 11
39.989414
 21
-0.030742
 31
0.0
  0
LINE
  5
66E
330
1F
100
AcDbEntity
  8
1
  6
CONTINUOUS
370
50
 62
4
100
AcDbLine
 10
39.765041
 20
-0.04068
 30
0.0
 11
39.765266
 21
-0.04041
 31
0.0
  0
LINE
  5
66F
330
1F
100
AcDbEntity
  8
1
  6
CONTINUOUS
370
50
 62
4
100
AcDbLine
 10
39.76056699999999
 20
0.014111
 30
0.0
 11
39.761471
 21
0.015202
 31
0.0
  0
LINE
  5
670
330
1F
100
AcDbEntity
  8
1
  6
CONTINUOUS
370
50
 62
4
100
AcDbLine
 10
39.977142
 20
-0.021383
 30
0.0
 11
39.978348
 21
-0.019837
 31
0.0
  0
LINE
  5
671
330
1F
100
AcDbEntity
  8
1
  6
CONTINUOUS
370
50
 62
4
100
AcDbLine
 10
39.989414
 20
-0.030742
 30
0.0
 11
39.990219
 21
-0.029707
 31
0.0
  0
LINE
  5
672
330
1F
100
AcDbEntity
  8
1
  6
CONTINUOUS
370
50
 62
4
100
AcDbLine
 10
39.759731
 20
0.013007
 30
0.0
 11
39.76056699999999
 21
0.014111
 31
0.0
  0
LINE
  5
673
330
1F
100
AcDbEntity
  8
1
  6
CONTINUOUS
370
50
 62
4
100
AcDbLine
 10
39.763535
 20
-0.042714
 30
0.0
 11
39.76439999999999
 21
-0.04155
 31
0.0
  0
LINE
  5
674
330
1F
100
AcDbEntity
  8
1
  6
CONTINUOUS
370
50
 62
4
100
AcDbLine
 10
39.764404
 20
-0.041547
 30
0.0
 11
39.765041
 21
-0.04068
 31
0.0
  0
LINE
  5
675
330
1F
100
AcDbEntity
  8
1
  6
CONTINUOUS
370
50
 62
4
100
AcDbLine
 10
39.978348
 20
-0.019837
 30
0.0
 11
39.979511
 21
-0.018214
 31
0.0
  0
LINE
  5
676
330
1F
100
AcDbEntity
  8
1
  6
CONTINUOUS
370
50
 62
4
100
AcDbLine
 10
39.758965
 20
0.011895
 30
0.0
 11
39.759731
 21
0.013007
 31
0.0
  0
LINE
  5
677
330
1F
100
AcDbEntity
  8
1
  6
CONTINUOUS
370
50
 62
4
100
AcDbLine
 10
39.979511
 20
-0.018214
 30
0.0
 11
39.980629
 21
-0.016517
 31
0.0
  0
LINE
  5
678
330
1F
100
AcDbEntity
  8
1
  6
CONTINUOUS
370
50
 62
4
100
AcDbLine
 10
39.758266
 20
0.010774
 30
0.0
 11
39.758965
 21
0.011895
 31
0.0
  0
LINE
  5
679
330
1F
100
AcDbEntity
  8
1
  6
CONTINUOUS
370
50
 62
4
100
AcDbLine
 10
39.980629
 20
-0.016517
 30
0.0
 11
39.981705
 21
-0.014751
 31
0.0
  0
LINE
  5
67A
330
1F
100
AcDbEntity
  8
1
  6
CONTINUOUS
370
50
 62
4
100
AcDbLine
 10
39.992897
 20
0.022138
 30
0.0
 11
39.993118
 21
0.022507
 31
0.0
  0
LINE
  5
67B
330
1F
100
AcDbEntity
  8
1
  6
CONTINUOUS
370
50
 62
4
100
AcDbLine
 10
39.76439999999999
 20
-0.04155
 30
0.0
 11
39.765179
 21
-0.040214
 31
0.0
  0
LINE
  5
67C
330
1F
100
AcDbEntity
  8
1
  6
CONTINUOUS
370
50
 62
4
100
AcDbLine
 10
39.981705
 20
-0.014751
 30
0.0
 11
39.982731
 21
-0.012921
 31
0.0
  0
LINE
  5
67D
330
1F
100
AcDbEntity
  8
1
  6
CONTINUOUS
370
50
 62
4
100
AcDbLine
 10
39.757641
 20
0.009648
 30
0.0
 11
39.758266
 21
0.010774
 31
0.0
  0
LINE
  5
67E
330
1F
100
AcDbEntity
  8
1
  6
CONTINUOUS
370
50
 62
4
100
AcDbLine
 10
39.982731
 20
-0.012921
 30
0.0
 11
39.98369599999999
 21
-0.011058
 31
0.0
  0
LINE
  5
67F
330
1F
100
AcDbEntity
  8
1
  6
CONTINUOUS
370
50
 62
4
100
AcDbLine
 10
39.75707999999999
 20
0.008518
 30
0.0
 11
39.757641
 21
0.009648
 31
0.0
  0
LINE
  5
680
330
1F
100
AcDbEntity
  8
1
  6
CONTINUOUS
370
50
 62
4
100
AcDbLine
 10
39.98369599999999
 20
-0.011058
 30
0.0
 11
39.984596
 21
-0.009175
 31
0.0
  0
LINE
  5
681
330
1F
100
AcDbEntity
  8
1
  6
CONTINUOUS
370
50
 62
4
100
AcDbLine
 10
39.732746
 20
0.049778
 30
0.0
 11
39.732761
 21
0.049812
 31
0.0
  0
LINE
  5
682
330
1F
100
AcDbEntity
  8
1
  6
CONTINUOUS
370
50
 62
4
100
AcDbLine
 10
39.984596
 20
-0.009175
 30
0.0
 11
39.985432
 21
-0.007278
 31
0.0
  0
LINE
  5
683
330
1F
100
AcDbEntity
  8
1
  6
CONTINUOUS
370
50
 62
4
100
AcDbLine
 10
39.765179
 20
-0.040214
 30
0.0
 11
39.765816
 21
-0.038757
 31
0.0
  0
LINE
  5
684
330
1F
100
AcDbEntity
  8
1
  6
CONTINUOUS
370
50
 62
4
100
AcDbLine
 10
39.756584
 20
0.007365
 30
0.0
 11
39.75707999999999
 21
0.008518
 31
0.0
  0
LINE
  5
685
330
1F
100
AcDbEntity
  8
1
  6
CONTINUOUS
370
50
 62
4
100
AcDbLine
 10
39.985432
 20
-0.007278
 30
0.0
 11
39.98621
 21
-0.00537
 31
0.0
  0
LINE
  5
686
330
1F
100
AcDbEntity
  8
1
  6
CONTINUOUS
370
50
 62
4
100
AcDbLine
 10
39.98621
 20
-0.00537
 30
0.0
 11
39.986931
 21
-0.003458
 31
0.0
  0
LINE
  5
687
330
1F
100
AcDbEntity
  8
1
  6
CONTINUOUS
370
50
 62
4
100
AcDbLine
 10
39.756157
 20
0.006185
 30
0.0
 11
39.756584
 21
0.007365
 31
0.0
  0
LINE
  5
688
330
1F
100
AcDbEntity
  8
1
  6
CONTINUOUS
370
50
 62
4
100
AcDbLine
 10
39.986931
 20
-0.003458
 30
0.0
 11
39.98759099999999
 21
-0.001546
 31
0.0
  0
LINE
  5
689
330
1F
100
AcDbEntity
  8
1
  6
CONTINUOUS
370
50
 62
4
100
AcDbLine
 10
39.98759099999999
 20
-0.001546
 30
0.0
 11
39.988201
 21
0.000364
 31
0.0
  0
LINE
  5
68A
330
1F
100
AcDbEntity
  8
1
  6
CONTINUOUS
370
50
 62
4
100
AcDbLine
 10
39.765816
 20
-0.038757
 30
0.0
 11
39.766308
 21
-0.037179
 31
0.0
  0
LINE
  5
68B
330
1F
100
AcDbEntity
  8
1
  6
CONTINUOUS
370
50
 62
4
100
AcDbLine
 10
39.755798
 20
0.004979
 30
0.0
 11
39.756157
 21
0.006185
 31
0.0
  0
LINE
  5
68C
330
1F
100
AcDbEntity
  8
1
  6
CONTINUOUS
370
50
 62
4
100
AcDbLine
 10
39.988201
 20
0.000364
 30
0.0
 11
39.98875
 21
0.002256
 31
0.0
  0
LINE
  5
68D
330
1F
100
AcDbEntity
  8
1
  6
CONTINUOUS
370
50
 62
4
100
AcDbLine
 10
39.98875
 20
0.002256
 30
0.0
 11
39.989246
 21
0.004124
 31
0.0
  0
LINE
  5
68E
330
1F
100
AcDbEntity
  8
1
  6
CONTINUOUS
370
50
 62
4
100
AcDbLine
 10
39.989246
 20
0.004124
 30
0.0
 11
39.989685
 21
0.005964
 31
0.0
  0
LINE
  5
68F
330
1F
100
AcDbEntity
  8
1
  6
CONTINUOUS
370
50
 62
4
100
AcDbLine
 10
39.75552
 20
0.003751
 30
0.0
 11
39.755798
 21
0.004979
 31
0.0
  0
LINE
  5
690
330
1F
100
AcDbEntity
  8
1
  6
CONTINUOUS
370
50
 62
4
100
AcDbLine
 10
39.989685
 20
0.005964
 30
0.0
 11
39.990074
 21
0.00777
 31
0.0
  0
LINE
  5
691
330
1F
100
AcDbEntity
  8
1
  6
CONTINUOUS
370
50
 62
4
100
AcDbLine
 10
39.766308
 20
-0.037179
 30
0.0
 11
39.766655
 21
-0.035502
 31
0.0
  0
LINE
  5
692
330
1F
100
AcDbEntity
  8
1
  6
CONTINUOUS
370
50
 62
4
100
AcDbLine
 10
39.993118
 20
0.022507
 30
0.0
 11
39.993217
 21
0.023001
 31
0.0
  0
LINE
  5
693
330
1F
100
AcDbEntity
  8
1
  6
CONTINUOUS
370
50
 62
4
100
AcDbLine
 10
39.990074
 20
0.00777
 30
0.0
 11
39.99041
 21
0.009539
 31
0.0
  0
LINE
  5
694
330
1F
100
AcDbEntity
  8
1
  6
CONTINUOUS
370
50
 62
4
100
AcDbLine
 10
39.99041
 20
0.009539
 30
0.0
 11
39.990692
 21
0.011265
 31
0.0
  0
LINE
  5
695
330
1F
100
AcDbEntity
  8
1
  6
CONTINUOUS
370
50
 62
4
100
AcDbLine
 10
39.755333
 20
0.002507
 30
0.0
 11
39.75552
 21
0.003751
 31
0.0
  0
LINE
  5
696
330
1F
100
AcDbEntity
  8
1
  6
CONTINUOUS
370
50
 62
4
100
AcDbLine
 10
39.766655
 20
-0.035502
 30
0.0
 11
39.766857
 21
-0.033735
 31
0.0
  0
LINE
  5
697
330
1F
100
AcDbEntity
  8
1
  6
CONTINUOUS
370
50
 62
4
100
AcDbLine
 10
39.755238
 20
0.001252
 30
0.0
 11
39.755333
 21
0.002507
 31
0.0
  0
LINE
  5
698
330
1F
100
AcDbEntity
  8
1
  6
CONTINUOUS
370
50
 62
4
100
AcDbLine
 10
39.766857
 20
-0.033735
 30
0.0
 11
39.766926
 21
-0.031882
 31
0.0
  0
LINE
  5
699
330
1F
100
AcDbEntity
  8
1
  6
CONTINUOUS
370
50
 62
4
100
AcDbLine
 10
39.990692
 20
0.011478
 30
0.0
 11
39.990696
 21
0.01169
 31
0.0
  0
LINE
  5
69A
330
1F
100
AcDbEntity
  8
1
  6
CONTINUOUS
370
50
 62
4
100
AcDbLine
 10
39.992546
 20
0.02127
 30
0.0
 11
39.99255
 21
0.021908
 31
0.0
  0
LINE
  5
69B
330
1F
100
AcDbEntity
  8
1
  6
CONTINUOUS
370
50
 62
4
100
AcDbLine
 10
39.992542
 20
0.020593
 30
0.0
 11
39.992546
 21
0.02127
 31
0.0
  0
LINE
  5
69C
330
1F
100
AcDbEntity
  8
1
  6
CONTINUOUS
370
50
 62
4
100
AcDbLine
 10
39.992538
 20
0.019878
 30
0.0
 11
39.992542
 21
0.020593
 31
0.0
  0
LINE
  5
69D
330
1F
100
AcDbEntity
  8
1
  6
CONTINUOUS
370
50
 62
4
100
AcDbLine
 10
39.992531
 20
0.018338
 30
0.0
 11
39.992535
 21
0.019126
 31
0.0
  0
LINE
  5
69E
330
1F
100
AcDbEntity
  8
1
  6
CONTINUOUS
370
50
 62
4
100
AcDbLine
 10
39.992527
 20
0.017516
 30
0.0
 11
39.992531
 21
0.018338
 31
0.0
  0
LINE
  5
69F
330
1F
100
AcDbEntity
  8
1
  6
CONTINUOUS
370
50
 62
4
100
AcDbLine
 10
39.992523
 20
0.01666
 30
0.0
 11
39.992527
 21
0.017516
 31
0.0
  0
LINE
  5
6A0
330
1F
100
AcDbEntity
  8
1
  6
CONTINUOUS
370
50
 62
4
100
AcDbLine
 10
39.992519
 20
0.015771
 30
0.0
 11
39.992523
 21
0.01666
 31
0.0
  0
LINE
  5
6A1
330
1F
100
AcDbEntity
  8
1
  6
CONTINUOUS
370
50
 62
4
100
AcDbLine
 10
39.992512
 20
0.013911
 30
0.0
 11
39.99251599999999
 21
0.014855
 31
0.0
  0
LINE
  5
6A2
330
1F
100
AcDbEntity
  8
1
  6
CONTINUOUS
370
50
 62
4
100
AcDbLine
 10
39.992535
 20
0.019126
 30
0.0
 11
39.992538
 21
0.019878
 31
0.0
  0
LINE
  5
6A3
330
1F
100
AcDbEntity
  8
1
  6
CONTINUOUS
370
50
 62
4
100
AcDbLine
 10
39.99251599999999
 20
0.014855
 30
0.0
 11
39.992519
 21
0.015771
 31
0.0
  0
LINE
  5
6A4
330
1F
100
AcDbEntity
  8
1
  6
CONTINUOUS
370
50
 62
4
100
AcDbLine
 10
32.400002
 20
-1.99995
 30
0.0
 11
32.400002
 21
1.99995
 31
0.0
  0
LINE
  5
6A5
330
1F
100
AcDbEntity
  8
1
  6
CONTINUOUS
370
50
 62
4
100
AcDbLine
 10
39.599998
 20
-0.04995
 30
0.0
 11
39.599998
 21
0.04995
 31
0.0
  0
LINE
  5
6A6
330
1F
100
AcDbEntity
  8
1
  6
CONTINUOUS
370
50
 62
4
100
AcDbLine
 10
39.799999
 20
-0.041916
 30
0.0
 11
39.799999
 21
0.041916
 31
0.0
  0
LINE
  5
6A7
330
1F
100
AcDbEntity
  8
1
  6
CONTINUOUS
370
50
 62
4
100
AcDbLine
 10
39.944275
 20
-0.034
 30
0.0
 11
39.944275
 21
-0.03354
 31
0.0
  0
LINE
  5
6A8
330
1F
100
AcDbEntity
  8
1
  6
CONTINUOUS
370
50
 62
4
100
AcDbLine
 10
39.950001
 20
-0.041957
 30
0.0
 11
39.950001
 21
-0.036944
 31
0.0
  0
LINE
  5
6A9
330
1F
100
AcDbEntity
  8
1
  6
CONTINUOUS
370
50
 62
4
100
AcDbLine
 10
39.958614
 20
-0.037822
 30
0.0
 11
39.958614
 21
-0.032575
 31
0.0
  0
LINE
  5
6AA
330
1F
100
AcDbEntity
  8
1
  6
CONTINUOUS
370
50
 62
4
100
AcDbLine
 10
39.990692
 20
0.011265
 30
0.0
 11
39.990692
 21
0.011478
 31
0.0
  0
LINE
  5
6AB
330
1F
100
AcDbEntity
  8
1
  6
CONTINUOUS
370
50
 62
4
100
AcDbLine
 10
39.990696
 20
0.01169
 30
0.0
 11
39.990696
 21
0.012526
 31
0.0
  0
LINE
  5
6AC
330
1F
100
AcDbEntity
  8
1
  6
CONTINUOUS
370
50
 62
4
100
AcDbLine
 10
39.992512
 20
0.012942
 30
0.0
 11
39.992512
 21
0.013911
 31
0.0
  0
ELLIPSE
  5
6AD
330
1F
100
AcDbEntity
  8
1
  6
CONTINUOUS
370
50
 62
4
100
AcDbEllipse
 10
39.780948
 20
0.076914
 30
0.0
 11
0.04218992022979505
 21
0.02976611306508453
 31
0.0
210
0.0
220
0.0
230
0.9999999999999998
 40
0.8133712813483939
 41
4.407543029181766
 42
4.593862997393045
  0
ELLIPSE
  5
6AE
330
1F
100
AcDbEntity
  8
1
  6
CONTINUOUS
370
50
 62
4
100
AcDbEllipse
 10
39.780948
 20
0.076914
 30
0.0
 11
0.04218992022979505
 21
0.02976611306508453
 31
0.0
210
0.0
220
0.0
230
0.9999999999999998
 40
0.8133712813483939
 41
3.063251243415999
 42
3.12543680730563
  0
ELLIPSE
  5
6AF
330
1F
100
AcDbEntity
  8
1
  6
CONTINUOUS
370
50
 62
4
100
AcDbEllipse
 10
39.802933
 20
-0.045753
 30
0.0
 11
-0.044461273039353
 21
0.03136861300280968
 31
0.0
210
0.0
220
0.0
230
1.0
 40
0.8133599481642534
 41
5.290605492754146
 42
6.166112890592862
  0
ELLIPSE
  5
6B0
330
1F
100
AcDbEntity
  8
1
  6
CONTINUOUS
370
50
 62
4
100
AcDbEllipse
 10
39.808308
 20
-0.038135
 30
0.0
 11
-0.06138692254180357
 21
0.0433101097879746
 31
0.0
210
0.0
220
0.0
230
1.0
 40
0.813365836758517
 41
5.351013222360995
 42
5.754915294813941
  0
ARC
  5
6B1
330
1F
100
AcDbEntity
  8
1
  6
CONTINUOUS
370
50
 62
4
100
AcDbCircle
 10
39.95
 20
0.0
 30
0.0
 40
0.0499999999999983
100
AcDbArc
 50
323.5750011711954
 51
36.42499882880456
  0
ELLIPSE
  5
6B2
330
1F
100
AcDbEntity
  8
1
  6
CONTINUOUS
370
50
 62
4
100
AcDbEllipse
 10
39.953125
 20
-0.010073
 30
0.0
 11
0.04623793268479304
 21
0.01434421698930928
 31
0.0
210
0.0
220
0.0
230
0.9999999999999998
 40
0.5367442678268531
 41
6.118192988244675
 42
6.691258440807369
  0
ELLIPSE
  5
6B3
330
1F
100
AcDbEntity
  8
1
  6
CONTINUOUS
370
50
 62
4
100
AcDbEllipse
 10
39.953345
 20
-0.010026
 30
0.0
 11
0.04453986591319749
 21
0.01381743223013999
 31
0.0
210
0.0
220
0.0
230
1.0
 40
0.5367309481220992
 41
6.13488693535966
 42
6.714886035569656
  0
ELLIPSE
  5
6B4
330
1F
100
AcDbEntity
  8
1
  6
CONTINUOUS
370
50
 62
4
100
AcDbEllipse
 10
39.9625
 20
0.002676
 30
0.0
 11
-0.009064757437570844
 21
0.04234205192947069
 31
0.0
210
0.0
220
0.0
230
0.9999999999999997
 40
0.8593816295352715
 41
2.557610293859327
 42
4.468245985076024
  0
ELLIPSE
  5
6B5
330
1F
100
AcDbEntity
  8
1
  6
CONTINUOUS
370
50
 62
4
100
AcDbEllipse
 10
39.96267599999999
 20
0.002663
 30
0.0
 11
-0.008657577830117441
 21
0.04044009038213731
 31
0.0
210
0.0
220
0.0
230
1.0
 40
0.8593933159694421
 41
2.783847071298524
 42
4.468242795427139
  0
ELLIPSE
  5
6B6
330
1F
100
AcDbEntity
  8
1
  6
CONTINUOUS
370
50
 62
4
100
AcDbEllipse
 10
39.977135
 20
0.001632
 30
0.0
 11
-0.07669902293423901
 21
0.00778577407411391
 31
0.0
210
0.0
220
0.0
230
1.0
 40
0.5430188865325458
 41
1.183834609866258
 42
1.382376674998955
  0
ELLIPSE
  5
6B7
330
1F
100
AcDbEntity
  8
1
  6
CONTINUOUS
370
50
 62
4
100
AcDbEllipse
 10
40.0001
 20
-0.000007
 30
0.0
 11
-0.08650401834731268
 21
0.009155826656724172
 31
0.0
210
0.0
220
0.0
230
1.0
 40
0.568632179576264
 41
0.9309640762128684
 42
1.014483342945308
  0
LINE
  5
6B8
330
1F
100
AcDbEntity
  8
CUT
  6
CONTINUOUS
370
25
 62
1
100
AcDbLine
 10
39.8
 20
0.0
 30
0.0
 11
40.0
 21
0.0
 31
0.0
  0
ARC
  5
6B9
330
1F
100
AcDbEntity
  8
CUT
  6
CONTINUOUS
370
25
 62
1
100
AcDbCircle
 10
39.95
 20
0.0
 30
0.0
 40
0.0500000000000043
100
AcDbArc
 50
0.0
 51
90.0
  0
LINE
  5
6BA
330
1F
100
AcDbEntity
  8
CUT
  6
CONTINUOUS
370
25
 62
1
100
AcDbLine
 10
39.95
 20
0.05
 30
0.0
 11
39.8
 21
0.0499
 31
0.0
  0
LINE
  5
6BB
330
1F
100
AcDbEntity
  8
CUT
  6
CONTINUOUS
370
25
 62
1
100
AcDbLine
 10
39.8
 20
0.0499
 30
0.0
 11
39.8
 21
0.0
 31
0.0
  0
LINE
  5
6BC
330
1F
100
AcDbEntity
  8
NOCUT
  6
CONTINUOUS
370
25
 62
7
100
AcDbLine
 10
32.4
 20
0.0
 30
0.0
 11
39.8
 21
0.0
 31
0.0
  0
LINE
  5
6BD
330
1F
100
AcDbEntity
  8
NOCUT
  6
CONTINUOUS
370
25
 62
7
100
AcDbLine
 10
39.8
 20
0.0
 30
0.0
 11
39.8
 21
0.04995
 31
0.0
  0
LINE
  5
6BE
330
1F
100
AcDbEntity
  8
NOCUT
  6
CONTINUOUS
370
25
 62
7
100
AcDbLine
 10
39.8
 20
0.04995
 30
0.0
 11
39.59999999999999
 21
0.04995
 31
0.0
  0
LINE
  5
6BF
330
1F
100
AcDbEntity
  8
NOCUT
  6
CONTINUOUS
370
25
 62
7
100
AcDbLine
 10
39.59999999999999
 20
0.04995
 30
0.0
 11
32.4
 21
1.99995
 31
0.0
  0
LINE
  5
6C0
330
1F
100
AcDbEntity
  8
NOCUT
  6
CONTINUOUS
370
25
 62
7
100
AcDbLine
 10
32.4
 20
1.99995
 30
0.0
 11
32.4
 21
0.0
 31
0.0
  0
LINE
  5
6C1
330
1F
100
AcDbEntity
  8
SK1
  6
CONTINUOUS
370
50
 62
4
100
AcDbLine
 10
32.4
 20
2.0
 30
0.0
 11
0.2999999999999972
 21
2.0
 31
0.0
  0
LINE
  5
6C2
330
1F
100
AcDbEntity
  8
SK1
  6
CONTINUOUS
370
50
 62
4
100
AcDbLine
 10
0.2999999999999972
 20
2.0
 30
0.0
 11
0.0
 21
1.7
 31
0.0
  0
LINE
  5
6C3
330
1F
100
AcDbEntity
  8
SK1
  6
CONTINUOUS
370
50
 62
4
100
AcDbLine
 10
0.0
 20
1.7
 30
0.0
 11
0.0
 21
-1.7
 31
0.0
  0
LINE
  5
6C4
330
1F
100
AcDbEntity
  8
SK1
  6
CONTINUOUS
370
50
 62
4
100
AcDbLine
 10
0.0
 20
-1.7
 30
0.0
 11
0.2999999999999972
 21
-2.0
 31
0.0
  0
LINE
  5
6C5
330
1F
100
AcDbEntity
  8
SK1
  6
CONTINUOUS
370
50
 62
4
100
AcDbLine
 10
0.2999999999999972
 20
-2.0
 30
0.0
 11
32.4
 21
-2.0
 31
0.0
  0
LINE
  5
6C6
330
1F
100
AcDbEntity
  8
SK1
  6
CONTINUOUS
370
50
 62
4
100
AcDbLine
 10
0.2999999999999972
 20
2.0
 30
0.0
 11
0.2999999999999972
 21
-2.0
 31
0.0
  0
LINE
  5
6C7
330
1F
100
AcDbEntity
  8
SK2
  6
CONTINUOUS
370
25
 62
7
100
AcDbLine
 10
-12.0000002
 20
-2.000001
 30
0.0
 11
-13.00000000000008
 21
-2.000001
 31
0.0
  0
LINE
  5
6C8
330
1F
100
AcDbEntity
  8
SK2
  6
CONTINUOUS
370
25
 62
7
100
AcDbLine
 10
0.0
 20
-2.000001
 30
0.0
 11
-11.9999998
 21
-2.000001
 31
0.0
  0
LINE
  5
6C9
330
1F
100
AcDbEntity
  8
SK2
  6
CONTINUOUS
370
25
 62
7
100
AcDbLine
 10
-13.0
 20
2.0
 30
0.0
 11
0.0
 21
2.0
 31
0.0
  0
LINE
  5
6CA
330
1F
100
AcDbEntity
  8
SK2
  6
CONTINUOUS
370
25
 62
7
100
AcDbLine
 10
-12.0
 20
-9.0
 30
0.0
 11
-12.0
 21
15.475
 31
0.0
  0
LINE
  5
6CB
330
1F
100
AcDbEntity
  8
SK2
  6
CONTINUOUS
370
25
 62
7
100
AcDbLine
 10
-12.0
 20
-2.0
 30
0.0
 11
-11.0
 21
-7.0
 31
0.0
  0
LINE
  5
6CC
330
1F
100
AcDbEntity
  8
SK2
  6
CONTINUOUS
370
25
 62
7
100
AcDbLine
 10
-11.0
 20
-7.0
 30
0.0
 11
-13.0
 21
-7.0
 31
0.0
  0
LINE
  5
6CD
330
1F
100
AcDbEntity
  8
SK2
  6
CONTINUOUS
370
25
 62
7
100
AcDbLine
 10
-13.0
 20
-7.0
 30
0.0
 11
-12.0
 21
-2.0
 31
0.0
  0
LINE
  5
6CE
330
1F
100
AcDbEntity
  8
SK2
  6
CONTINUOUS
370
25
 62
7
100
AcDbLine
 10
-11.08670990922583
 20
-7.0
 30
0.0
 11
-11.01445165153764
 21
-6.92774174231181
 31
0.0
  0
LINE
  5
6CF
330
1F
100
AcDbEntity
  8
SK2
  6
CONTINUOUS
370
25
 62
7
100
AcDbLine
 10
-11.51097397793777
 20
-7.0
 30
0.0
 11
-11.0851623296563
 21
-6.574188351718533
 31
0.0
  0
LINE
  5
6D0
330
1F
100
AcDbEntity
  8
SK2
  6
CONTINUOUS
370
25
 62
7
100
AcDbLine
 10
-11.93523804664969
 20
-7.0
 30
0.0
 11
-11.15587300777495
 21
-6.220634961125256
 31
0.0
  0
LINE
  5
6D1
330
1F
100
AcDbEntity
  8
SK2
  6
CONTINUOUS
370
25
 62
7
100
AcDbLine
 10
-12.35950211536162
 20
-7.0
 30
0.0
 11
-11.22658368589362
 21
-5.867081570531994
 31
0.0
  0
LINE
  5
6D2
330
1F
100
AcDbEntity
  8
SK2
  6
CONTINUOUS
370
25
 62
7
100
AcDbLine
 10
-12.78376618407356
 20
-7.0
 30
0.0
 11
-11.29729436401227
 21
-5.51352817993871
 31
0.0
  0
LINE
  5
6D3
330
1F
100
AcDbEntity
  8
SK2
  6
CONTINUOUS
370
25
 62
7
100
AcDbLine
 10
-12.94799243680363
 20
-6.73996218401814
 30
0.0
 11
-11.36800504213092
 21
-5.159974789345426
 31
0.0
  0
LINE
  5
6D4
330
1F
100
AcDbEntity
  8
SK2
  6
CONTINUOUS
370
25
 62
7
100
AcDbLine
 10
-12.84192641962564
 20
-6.209632098128218
 30
0.0
 11
-11.43871572024957
 21
-4.806421398752143
 31
0.0
  0
LINE
  5
6D5
330
1F
100
AcDbEntity
  8
SK2
  6
CONTINUOUS
370
25
 62
7
100
AcDbLine
 10
-12.73586040244766
 20
-5.67930201223831
 30
0.0
 11
-11.50942639836822
 21
-4.452868008158866
 31
0.0
  0
LINE
  5
6D6
330
1F
100
AcDbEntity
  8
SK2
  6
CONTINUOUS
370
25
 62
7
100
AcDbLine
 10
-12.62979438526968
 20
-5.148971926348388
 30
0.0
 11
-11.58013707648688
 21
-4.099314617565597
 31
0.0
  0
LINE
  5
6D7
330
1F
100
AcDbEntity
  8
SK2
  6
CONTINUOUS
370
25
 62
7
100
AcDbLine
 10
-12.5237283680917
 20
-4.618641840458473
 30
0.0
 11
-11.65084775460554
 21
-3.745761226972313
 31
0.0
  0
LINE
  5
6D8
330
1F
100
AcDbEntity
  8
SK2
  6
CONTINUOUS
370
25
 62
7
100
AcDbLine
 10
-12.41766235091372
 20
-4.088311754568565
 30
0.0
 11
-11.72155843272419
 21
-3.392207836379036
 31
0.0
  0
LINE
  5
6D9
330
1F
100
AcDbEntity
  8
SK2
  6
CONTINUOUS
370
25
 62
7
100
AcDbLine
 10
-12.31159633373574
 20
-3.557981668678657
 30
0.0
 11
-11.79226911084285
 21
-3.038654445785767
 31
0.0
  0
LINE
  5
6DA
330
1F
100
AcDbEntity
  8
SK2
  6
CONTINUOUS
370
25
 62
7
100
AcDbLine
 10
-12.20553031655775
 20
-3.027651582788735
 30
0.0
 11
-11.8629797889615
 21
-2.685101055192483
 31
0.0
  0
LINE
  5
6DB
330
1F
100
AcDbEntity
  8
SK2
  6
CONTINUOUS
370
25
 62
7
100
AcDbLine
 10
-12.09946429937976
 20
-2.497321496898813
 30
0.0
 11
-11.93369046708016
 21
-2.331547664599213
 31
0.0
  0
LINE
  5
6DC
330
1F
100
AcDbEntity
  8
SK2
  6
CONTINUOUS
370
25
 62
7
100
AcDbLine
 10
-12.98263628904562
 20
-6.913181445228076
 30
0.0
 11
-12.8958177342737
 21
-7.0
 31
0.0
  0
LINE
  5
6DD
330
1F
100
AcDbEntity
  8
SK2
  6
CONTINUOUS
370
25
 62
7
100
AcDbLine
 10
-12.91192561092696
 20
-6.559628054634807
 30
0.0
 11
-12.47155366556176
 21
-7.0
 31
0.0
  0
LINE
  5
6DE
330
1F
100
AcDbEntity
  8
SK2
  6
CONTINUOUS
370
25
 62
7
100
AcDbLine
 10
-12.84121493280831
 20
-6.20607466404153
 30
0.0
 11
-12.04728959684984
 21
-7.0
 31
0.0
  0
LINE
  5
6DF
330
1F
100
AcDbEntity
  8
SK2
  6
CONTINUOUS
370
25
 62
7
100
AcDbLine
 10
-12.77050425468965
 20
-5.852521273448254
 30
0.0
 11
-11.6230255281379
 21
-7.0
 31
0.0
  0
LINE
  5
6E0
330
1F
100
AcDbEntity
  8
SK2
  6
CONTINUOUS
370
25
 62
7
100
AcDbLine
 10
-12.699793576571
 20
-5.498967882854977
 30
0.0
 11
-11.19876145942597
 21
-7.0
 31
0.0
  0
LINE
  5
6E1
330
1F
100
AcDbEntity
  8
SK2
  6
CONTINUOUS
370
25
 62
7
100
AcDbLine
 10
-12.62908289845235
 20
-5.1454144922617
 30
0.0
 11
-11.05637565232149
 21
-6.718121738392554
 31
0.0
  0
LINE
  5
6E2
330
1F
100
AcDbEntity
  8
SK2
  6
CONTINUOUS
370
25
 62
7
100
AcDbLine
 10
-12.55837222033369
 20
-4.791861101668424
 30
0.0
 11
-11.16244166949947
 21
-6.187791652502639
 31
0.0
  0
LINE
  5
6E3
330
1F
100
AcDbEntity
  8
SK2
  6
CONTINUOUS
370
25
 62
7
100
AcDbLine
 10
-12.48766154221504
 20
-4.438307711075147
 30
0.0
 11
-11.26850768667746
 21
-5.657461566612724
 31
0.0
  0
LINE
  5
6E4
330
1F
100
AcDbEntity
  8
SK2
  6
CONTINUOUS
370
25
 62
7
100
AcDbLine
 10
-12.41695086409637
 20
-4.084754320481878
 30
0.0
 11
-11.37457370385544
 21
-5.127131480722802
 31
0.0
  0
LINE
  5
6E5
330
1F
100
AcDbEntity
  8
SK2
  6
CONTINUOUS
370
25
 62
7
100
AcDbLine
 10
-12.34624018597772
 20
-3.731200929888594
 30
0.0
 11
-11.48063972103342
 21
-4.596801394832895
 31
0.0
  0
LINE
  5
6E6
330
1F
100
AcDbEntity
  8
SK2
  6
CONTINUOUS
370
25
 62
7
100
AcDbLine
 10
-12.27552950785907
 20
-3.37764753929531
 30
0.0
 11
-11.58670573821141
 21
-4.066471308942972
 31
0.0
  0
LINE
  5
6E7
330
1F
100
AcDbEntity
  8
SK2
  6
CONTINUOUS
370
25
 62
7
100
AcDbLine
 10
-12.2048188297404
 20
-3.024094148702055
 30
0.0
 11
-11.69277175538939
 21
-3.536141223053065
 31
0.0
  0
LINE
  5
6E8
330
1F
100
AcDbEntity
  8
SK2
  6
CONTINUOUS
370
25
 62
7
100
AcDbLine
 10
-12.13410815162175
 20
-2.670540758108771
 30
0.0
 11
-11.79883777256737
 21
-3.00581113716315
 31
0.0
  0
LINE
  5
6E9
330
1F
100
AcDbEntity
  8
SK2
  6
CONTINUOUS
370
25
 62
7
100
AcDbLine
 10
-12.0633974735031
 20
-2.316987367515488
 30
0.0
 11
-11.90490378974535
 21
-2.475481051273235
 31
0.0
  0
LINE
  5
6EA
330
1F
100
AcDbEntity
  8
SK2
  6
CONTINUOUS
370
25
 62
7
100
AcDbLine
 10
-12.0
 20
2.0
 30
0.0
 11
-13.0
 21
7.0
 31
0.0
  0
LINE
  5
6EB
330
1F
100
AcDbEntity
  8
SK2
  6
CONTINUOUS
370
25
 62
7
100
AcDbLine
 10
-13.0
 20
7.0
 30
0.0
 11
-11.0
 21
7.0
 31
0.0
  0
LINE
  5
6EC
330
1F
100
AcDbEntity
  8
SK2
  6
CONTINUOUS
370
25
 62
7
100
AcDbLine
 10
-11.0
 20
7.0
 30
0.0
 11
-12.0
 21
2.0
 31
0.0
  0
LINE
  5
6ED
330
1F
100
AcDbEntity
  8
SK2
  6
CONTINUOUS
370
25
 62
7
100
AcDbLine
 10
-12.04484125971869
 20
2.22420629859343
 30
0.0
 11
-11.93273811042197
 21
2.336309447890144
 31
0.0
  0
LINE
  5
6EE
330
1F
100
AcDbEntity
  8
SK2
  6
CONTINUOUS
370
25
 62
7
100
AcDbLine
 10
-12.11555193783734
 20
2.577759689186706
 30
0.0
 11
-11.82667209324399
 21
2.866639533780052
 31
0.0
  0
LINE
  5
6EF
330
1F
100
AcDbEntity
  8
SK2
  6
CONTINUOUS
370
25
 62
7
100
AcDbLine
 10
-12.186262615956
 20
2.931313079779983
 30
0.0
 11
-11.72060607606601
 21
3.396969619669967
 31
0.0
  0
LINE
  5
6F0
330
1F
100
AcDbEntity
  8
SK2
  6
CONTINUOUS
370
25
 62
7
100
AcDbLine
 10
-12.25697329407465
 20
3.284866470373267
 30
0.0
 11
-11.61454005888802
 21
3.927299705559889
 31
0.0
  0
LINE
  5
6F1
330
1F
100
AcDbEntity
  8
SK2
  6
CONTINUOUS
370
25
 62
7
100
AcDbLine
 10
-12.32768397219331
 20
3.638419860966529
 30
0.0
 11
-11.50847404171004
 21
4.457629791449797
 31
0.0
  0
LINE
  5
6F2
330
1F
100
AcDbEntity
  8
SK2
  6
CONTINUOUS
370
25
 62
7
100
AcDbLine
 10
-12.39839465031196
 20
3.991973251559813
 30
0.0
 11
-11.40240802453206
 21
4.987959877339719
 31
0.0
  0
LINE
  5
6F3
330
1F
100
AcDbEntity
  8
SK2
  6
CONTINUOUS
370
25
 62
7
100
AcDbLine
 10
-12.46910532843062
 20
4.345526642153089
 30
0.0
 11
-11.29634200735408
 21
5.518289963229627
 31
0.0
  0
LINE
  5
6F4
330
1F
100
AcDbEntity
  8
SK2
  6
CONTINUOUS
370
25
 62
7
100
AcDbLine
 10
-12.53981600654928
 20
4.699080032746359
 30
0.0
 11
-11.19027599017609
 21
6.048620049119542
 31
0.0
  0
LINE
  5
6F5
330
1F
100
AcDbEntity
  8
SK2
  6
CONTINUOUS
370
25
 62
7
100
AcDbLine
 10
-12.61052668466793
 20
5.052633423339635
 30
0.0
 11
-11.08420997299811
 21
6.57895013500945
 31
0.0
  0
LINE
  5
6F6
330
1F
100
AcDbEntity
  8
SK2
  6
CONTINUOUS
370
25
 62
7
100
AcDbLine
 10
-12.68123736278658
 20
5.406186813932919
 30
0.0
 11
-11.08742417671949
 21
7.0
 31
0.0
  0
LINE
  5
6F7
330
1F
100
AcDbEntity
  8
SK2
  6
CONTINUOUS
370
25
 62
7
100
AcDbLine
 10
-12.75194804090524
 20
5.759740204526196
 30
0.0
 11
-11.51168824543143
 21
7.0
 31
0.0
  0
LINE
  5
6F8
330
1F
100
AcDbEntity
  8
SK2
  6
CONTINUOUS
370
25
 62
7
100
AcDbLine
 10
-12.8226587190239
 20
6.113293595119465
 30
0.0
 11
-11.93595231414336
 21
7.0
 31
0.0
  0
LINE
  5
6F9
330
1F
100
AcDbEntity
  8
SK2
  6
CONTINUOUS
370
25
 62
7
100
AcDbLine
 10
-12.89336939714256
 20
6.466846985712735
 30
0.0
 11
-12.36021638285529
 21
7.0
 31
0.0
  0
LINE
  5
6FA
330
1F
100
AcDbEntity
  8
SK2
  6
CONTINUOUS
370
25
 62
7
100
AcDbLine
 10
-12.96408007526121
 20
6.820400376306011
 30
0.0
 11
-12.78448045156722
 21
7.0
 31
0.0
  0
LINE
  5
6FB
330
1F
100
AcDbEntity
  8
SK2
  6
CONTINUOUS
370
25
 62
7
100
AcDbLine
 10
-12.01079124004991
 20
2.053956200249566
 30
0.0
 11
-11.99280583996673
 21
2.035970800166382
 31
0.0
  0
LINE
  5
6FC
330
1F
100
AcDbEntity
  8
SK2
  6
CONTINUOUS
370
25
 62
7
100
AcDbLine
 10
-12.1168572572279
 20
2.584286286139495
 30
0.0
 11
-11.92209516184808
 21
2.389524190759673
 31
0.0
  0
LINE
  5
6FD
330
1F
100
AcDbEntity
  8
SK2
  6
CONTINUOUS
370
25
 62
7
100
AcDbLine
 10
-12.22292327440588
 20
3.114616372029396
 30
0.0
 11
-11.85138448372941
 21
2.743077581352928
 31
0.0
  0
LINE
  5
6FE
330
1F
100
AcDbEntity
  8
SK2
  6
CONTINUOUS
370
25
 62
7
100
AcDbLine
 10
-12.32898929158387
 20
3.644946457919318
 30
0.0
 11
-11.78067380561076
 21
3.096630971946212
 31
0.0
  0
LINE
  5
6FF
330
1F
100
AcDbEntity
  8
SK2
  6
CONTINUOUS
370
25
 62
7
100
AcDbLine
 10
-12.43505530876185
 20
4.175276543809225
 30
0.0
 11
-11.7099631274921
 21
3.450184362539481
 31
0.0
  0
LINE
  5
700
330
1F
100
AcDbEntity
  8
SK2
  6
CONTINUOUS
370
25
 62
7
100
AcDbLine
 10
-12.54112132593983
 20
4.70560662969914
 30
0.0
 11
-11.63925244937345
 21
3.803737753132765
 31
0.0
  0
LINE
  5
701
330
1F
100
AcDbEntity
  8
SK2
  6
CONTINUOUS
370
25
 62
7
100
AcDbLine
 10
-12.64718734311781
 20
5.235936715589055
 30
0.0
 11
-11.56854177125479
 21
4.157291143726034
 31
0.0
  0
LINE
  5
702
330
1F
100
AcDbEntity
  8
SK2
  6
CONTINUOUS
370
25
 62
7
100
AcDbLine
 10
-12.7532533602958
 20
5.766266801478977
 30
0.0
 11
-11.49783109313613
 21
4.510844534319311
 31
0.0
  0
LINE
  5
703
330
1F
100
AcDbEntity
  8
SK2
  6
CONTINUOUS
370
25
 62
7
100
AcDbLine
 10
-12.85931937747378
 20
6.296596887368885
 30
0.0
 11
-11.42712041501748
 21
4.864397924912581
 31
0.0
  0
LINE
  5
704
330
1F
100
AcDbEntity
  8
SK2
  6
CONTINUOUS
370
25
 62
7
100
AcDbLine
 10
-12.96538539465176
 20
6.8269269732588
 30
0.0
 11
-11.35640973689883
 21
5.217951315505864
 31
0.0
  0
LINE
  5
705
330
1F
100
AcDbEntity
  8
SK2
  6
CONTINUOUS
370
25
 62
7
100
AcDbLine
 10
-12.71419435268103
 20
7.0
 30
0.0
 11
-11.28569905878017
 21
5.571504706099141
 31
0.0
  0
LINE
  5
706
330
1F
100
AcDbEntity
  8
SK2
  6
CONTINUOUS
370
25
 62
7
100
AcDbLine
 10
-12.2899302839691
 20
7.0
 30
0.0
 11
-11.21498838066152
 21
5.925058096692425
 31
0.0
  0
LINE
  5
707
330
1F
100
AcDbEntity
  8
SK2
  6
CONTINUOUS
370
25
 62
7
100
AcDbLine
 10
-11.86566621525717
 20
7.0
 30
0.0
 11
-11.14427770254287
 21
6.278611487285701
 31
0.0
  0
LINE
  5
708
330
1F
100
AcDbEntity
  8
SK2
  6
CONTINUOUS
370
25
 62
7
100
AcDbLine
 10
-11.44140214654523
 20
7.0
 30
0.0
 11
-11.07356702442421
 21
6.632164877878978
 31
0.0
  0
LINE
  5
709
330
1F
100
AcDbEntity
  8
SK2
  6
CONTINUOUS
370
25
 62
7
100
AcDbLine
 10
-11.01713807783331
 20
7.0
 30
0.0
 11
-11.00285634630556
 21
6.985718268472247
 31
0.0
  0
TEXT
  5
70A
330
1F
100
AcDbEntity
  8
SK2
  6
CONTINUOUS
370
25
 62
7
100
AcDbText
 10
-13.5
 20
12.34583333333333
 30
0.0
 40
3.5
  1
4
 50
90.00000000000001
 72
     1
 11
-13.5
 21
13.5125
 31
0.0
100
AcDbText
  0
CIRCLE
  5
70B
330
1F
100
AcDbEntity
  8
SK2
  6
CONTINUOUS
370
25
 62
7
100
AcDbCircle
 10
-15.25
 20
10.1875
 30
0.0
 40
1.4
  0
LINE
  5
70C
330
1F
100
AcDbEntity
  8
SK2
  6
CONTINUOUS
370
25
 62
7
100
AcDbLine
 10
-13.85
 20
8.787500000000001
 30
0.0
 11
-16.65
 21
11.5875
 31
0.0
  0
LINE
  5
70D
330
1F
100
AcDbEntity
  8
SK2
  6
CONTINUOUS
370
25
 62
7
100
AcDbLine
 10
0.0
 20
2.0
 30
0.0
 11
0.0
 21
15.00001
 31
0.0
  0
LINE
  5
70E
330
1F
100
AcDbEntity
  8
SK2
  6
CONTINUOUS
370
25
 62
7
100
AcDbLine
 10
32.4
 20
15.00001
 30
0.0
 11
32.4
 21
2.0
 31
0.0
  0
LINE
  5
70F
330
1F
100
AcDbEntity
  8
SK2
  6
CONTINUOUS
370
25
 62
7
100
AcDbLine
 10
0.0
 20
14.00001
 30
0.0
 11
32.4
 21
14.00001
 31
0.0
  0
LINE
  5
710
330
1F
100
AcDbEntity
  8
SK2
  6
CONTINUOUS
370
25
 62
7
100
AcDbLine
 10
0.0
 20
14.00001
 30
0.0
 11
5.0
 21
15.00001
 31
0.0
  0
LINE
  5
711
330
1F
100
AcDbEntity
  8
SK2
  6
CONTINUOUS
370
25
 62
7
100
AcDbLine
 10
5.0
 20
15.00001
 30
0.0
 11
5.0
 21
13.00001
 31
0.0
  0
LINE
  5
712
330
1F
100
AcDbEntity
  8
SK2
  6
CONTINUOUS
370
25
 62
7
100
AcDbLine
 10
5.0
 20
13.00001
 30
0.0
 11
0.0
 21
14.00001
 31
0.0
  0
LINE
  5
713
330
1F
100
AcDbEntity
  8
SK2
  6
CONTINUOUS
370
25
 62
7
100
AcDbLine
 10
4.725549503045738
 20
13.05490009939086
 30
0.0
 11
5.0
 21
13.32935059634512
 31
0.0
  0
LINE
  5
714
330
1F
100
AcDbEntity
  8
SK2
  6
CONTINUOUS
370
25
 62
7
100
AcDbLine
 10
4.371996112452464
 20
13.12561077750951
 30
0.0
 11
5.0
 21
13.75361466505704
 31
0.0
  0
LINE
  5
715
330
1F
100
AcDbEntity
  8
SK2
  6
CONTINUOUS
370
25
 62
7
100
AcDbLine
 10
4.018442721859184
 20
13.19632145562816
 30
0.0
 11
5.0
 21
14.17787873376897
 31
0.0
  0
LINE
  5
716
330
1F
100
AcDbEntity
  8
SK2
  6
CONTINUOUS
370
25
 62
7
100
AcDbLine
 10
3.664889331265908
 20
13.26703213374682
 30
0.0
 11
5.0
 21
14.60214280248091
 31
0.0
  0
LINE
  5
717
330
1F
100
AcDbEntity
  8
SK2
  6
CONTINUOUS
370
25
 62
7
100
AcDbLine
 10
3.311335940672635
 20
13.33774281186547
 30
0.0
 11
4.967003911008955
 21
14.99341078220179
 31
0.0
  0
LINE
  5
718
330
1F
100
AcDbEntity
  8
SK2
  6
CONTINUOUS
370
25
 62
7
100
AcDbLine
 10
2.957782550079365
 20
13.40845348998413
 30
0.0
 11
4.436673825119055
 21
14.88734476502381
 31
0.0
  0
LINE
  5
719
330
1F
100
AcDbEntity
  8
SK2
  6
CONTINUOUS
370
25
 62
7
100
AcDbLine
 10
2.604229159486081
 20
13.47916416810278
 30
0.0
 11
3.906343739229133
 21
14.78127874784583
 31
0.0
  0
LINE
  5
71A
330
1F
100
AcDbEntity
  8
SK2
  6
CONTINUOUS
370
25
 62
7
100
AcDbLine
 10
2.250675768892808
 20
13.54987484622144
 30
0.0
 11
3.376013653339221
 21
14.67521273066784
 31
0.0
  0
LINE
  5
71B
330
1F
100
AcDbEntity
  8
SK2
  6
CONTINUOUS
370
25
 62
7
100
AcDbLine
 10
1.897122378299532
 20
13.62058552434009
 30
0.0
 11
2.845683567449303
 21
14.56914671348986
 31
0.0
  0
LINE
  5
71C
330
1F
100
AcDbEntity
  8
SK2
  6
CONTINUOUS
370
25
 62
7
100
AcDbLine
 10
1.543568987706266
 20
13.69129620245875
 30
0.0
 11
2.315353481559399
 21
14.46308069631188
 31
0.0
  0
LINE
  5
71D
330
1F
100
AcDbEntity
  8
SK2
  6
CONTINUOUS
370
25
 62
7
100
AcDbLine
 10
1.190015597112978
 20
13.7620068805774
 30
0.0
 11
1.785023395669477
 21
14.3570146791339
 31
0.0
  0
LINE
  5
71E
330
1F
100
AcDbEntity
  8
SK2
  6
CONTINUOUS
370
25
 62
7
100
AcDbLine
 10
0.8364622065197089
 20
13.83271755869606
 30
0.0
 11
1.254693309779565
 21
14.25094866195591
 31
0.0
  0
LINE
  5
71F
330
1F
100
AcDbEntity
  8
SK2
  6
CONTINUOUS
370
25
 62
7
100
AcDbLine
 10
0.4829088159264359
 20
13.90342823681472
 30
0.0
 11
0.7243632238896502
 21
14.14488264477793
 31
0.0
  0
LINE
  5
720
330
1F
100
AcDbEntity
  8
SK2
  6
CONTINUOUS
370
25
 62
7
100
AcDbLine
 10
0.1293554253331593
 20
13.97413891493336
 30
0.0
 11
0.194033137999746
 21
14.03881662759995
 31
0.0
  0
LINE
  5
721
330
1F
100
AcDbEntity
  8
SK2
  6
CONTINUOUS
370
25
 62
7
100
AcDbLine
 10
0.2369892602764523
 20
14.04740785205529
 30
0.0
 11
0.3554838904146891
 21
13.92891322191706
 31
0.0
  0
LINE
  5
722
330
1F
100
AcDbEntity
  8
SK2
  6
CONTINUOUS
370
25
 62
7
100
AcDbLine
 10
0.5905426508697218
 20
14.11811853017395
 30
0.0
 11
0.8858139763045898
 21
13.82284720473908
 31
0.0
  0
LINE
  5
723
330
1F
100
AcDbEntity
  8
SK2
  6
CONTINUOUS
370
25
 62
7
100
AcDbLine
 10
0.9440960414629984
 20
14.1888292082926
 30
0.0
 11
1.416144062194501
 21
13.7167811875611
 31
0.0
  0
LINE
  5
724
330
1F
100
AcDbEntity
  8
SK2
  6
CONTINUOUS
370
25
 62
7
100
AcDbLine
 10
1.297649432056279
 20
14.25953988641125
 30
0.0
 11
1.946474148084416
 21
13.61071517038311
 31
0.0
  0
LINE
  5
725
330
1F
100
AcDbEntity
  8
SK2
  6
CONTINUOUS
370
25
 62
7
100
AcDbLine
 10
1.651202822649548
 20
14.33025056452991
 30
0.0
 11
2.476804233974327
 21
13.50464915320513
 31
0.0
  0
LINE
  5
726
330
1F
100
AcDbEntity
  8
SK2
  6
CONTINUOUS
370
25
 62
7
100
AcDbLine
 10
2.004756213242828
 20
14.40096124264856
 30
0.0
 11
3.007134319864239
 21
13.39858313602715
 31
0.0
  0
LINE
  5
727
330
1F
100
AcDbEntity
  8
SK2
  6
CONTINUOUS
370
25
 62
7
100
AcDbLine
 10
2.358309603836098
 20
14.47167192076722
 30
0.0
 11
3.537464405754147
 21
13.29251711884917
 31
0.0
  0
LINE
  5
728
330
1F
100
AcDbEntity
  8
SK2
  6
CONTINUOUS
370
25
 62
7
100
AcDbLine
 10
2.711862994429374
 20
14.54238259888588
 30
0.0
 11
4.067794491644058
 21
13.18645110167119
 31
0.0
  0
LINE
  5
729
330
1F
100
AcDbEntity
  8
SK2
  6
CONTINUOUS
370
25
 62
7
100
AcDbLine
 10
3.065416385022647
 20
14.61309327700453
 30
0.0
 11
4.598124577533969
 21
13.0803850844932
 31
0.0
  0
LINE
  5
72A
330
1F
100
AcDbEntity
  8
SK2
  6
CONTINUOUS
370
25
 62
7
100
AcDbLine
 10
3.418969775615917
 20
14.68380395512319
 30
0.0
 11
5.0
 21
13.1027737307391
 31
0.0
  0
LINE
  5
72B
330
1F
100
AcDbEntity
  8
SK2
  6
CONTINUOUS
370
25
 62
7
100
AcDbLine
 10
3.772523166209194
 20
14.75451463324184
 30
0.0
 11
5.0
 21
13.52703779945103
 31
0.0
  0
LINE
  5
72C
330
1F
100
AcDbEntity
  8
SK2
  6
CONTINUOUS
370
25
 62
7
100
AcDbLine
 10
4.126076556802467
 20
14.8252253113605
 30
0.0
 11
5.0
 21
13.95130186816296
 31
0.0
  0
LINE
  5
72D
330
1F
100
AcDbEntity
  8
SK2
  6
CONTINUOUS
370
25
 62
7
100
AcDbLine
 10
4.47962994739574
 20
14.89593598947915
 30
0.0
 11
5.0
 21
14.37556593687489
 31
0.0
  0
LINE
  5
72E
330
1F
100
AcDbEntity
  8
SK2
  6
CONTINUOUS
370
25
 62
7
100
AcDbLine
 10
4.833183337989016
 20
14.9666466675978
 30
0.0
 11
5.0
 21
14.79983000558682
 31
0.0
  0
LINE
  5
72F
330
1F
100
AcDbEntity
  8
SK2
  6
CONTINUOUS
370
25
 62
7
100
AcDbLine
 10
32.4
 20
14.00001
 30
0.0
 11
27.4
 21
13.00001
 31
0.0
  0
LINE
  5
730
330
1F
100
AcDbEntity
  8
SK2
  6
CONTINUOUS
370
25
 62
7
100
AcDbLine
 10
27.4
 20
13.00001
 30
0.0
 11
27.4
 21
15.00001
 31
0.0
  0
LINE
  5
731
330
1F
100
AcDbEntity
  8
SK2
  6
CONTINUOUS
370
25
 62
7
100
AcDbLine
 10
27.4
 20
15.00001
 30
0.0
 11
32.4
 21
14.00001
 31
0.0
  0
LINE
  5
732
330
1F
100
AcDbEntity
  8
SK2
  6
CONTINUOUS
370
25
 62
7
100
AcDbLine
 10
32.39911966563294
 20
13.99983393312659
 30
0.0
 11
32.39941311042196
 21
14.00012737791561
 31
0.0
  0
LINE
  5
733
330
1F
100
AcDbEntity
  8
SK2
  6
CONTINUOUS
370
25
 62
7
100
AcDbLine
 10
31.86878957974304
 20
13.89376791594861
 30
0.0
 11
32.04585971982869
 21
14.07083805603426
 31
0.0
  0
LINE
  5
734
330
1F
100
AcDbEntity
  8
SK2
  6
CONTINUOUS
370
25
 62
7
100
AcDbLine
 10
31.33845949385313
 20
13.78770189877063
 30
0.0
 11
31.69230632923542
 21
14.14154873415292
 31
0.0
  0
LINE
  5
735
330
1F
100
AcDbEntity
  8
SK2
  6
CONTINUOUS
370
25
 62
7
100
AcDbLine
 10
30.80812940796322
 20
13.68163588159264
 30
0.0
 11
31.33875293864214
 21
14.21225941227157
 31
0.0
  0
LINE
  5
736
330
1F
100
AcDbEntity
  8
SK2
  6
CONTINUOUS
370
25
 62
7
100
AcDbLine
 10
30.27779932207331
 20
13.57556986441466
 30
0.0
 11
30.98519954804887
 21
14.28297009039023
 31
0.0
  0
LINE
  5
737
330
1F
100
AcDbEntity
  8
SK2
  6
CONTINUOUS
370
25
 62
7
100
AcDbLine
 10
29.7474692361834
 20
13.46950384723668
 30
0.0
 11
30.6316461574556
 21
14.35368076850888
 31
0.0
  0
LINE
  5
738
330
1F
100
AcDbEntity
  8
SK2
  6
CONTINUOUS
370
25
 62
7
100
AcDbLine
 10
29.21713915029349
 20
13.3634378300587
 30
0.0
 11
30.27809276686232
 21
14.42439144662753
 31
0.0
  0
LINE
  5
739
330
1F
100
AcDbEntity
  8
SK2
  6
CONTINUOUS
370
25
 62
7
100
AcDbLine
 10
28.68680906440358
 20
13.25737181288071
 30
0.0
 11
29.92453937626905
 21
14.49510212474619
 31
0.0
  0
LINE
  5
73A
330
1F
100
AcDbEntity
  8
SK2
  6
CONTINUOUS
370
25
 62
7
100
AcDbLine
 10
28.15647897851367
 20
13.15130579570273
 30
0.0
 11
29.57098598567578
 21
14.56581280286484
 31
0.0
  0
LINE
  5
73B
330
1F
100
AcDbEntity
  8
SK2
  6
CONTINUOUS
370
25
 62
7
100
AcDbLine
 10
27.62614889262376
 20
13.04523977852475
 30
0.0
 11
29.21743259508251
 21
14.6365234809835
 31
0.0
  0
LINE
  5
73C
330
1F
100
AcDbEntity
  8
SK2
  6
CONTINUOUS
370
25
 62
7
100
AcDbLine
 10
27.4
 20
13.24335495461292
 30
0.0
 11
28.86387920448923
 21
14.70723415910215
 31
0.0
  0
LINE
  5
73D
330
1F
100
AcDbEntity
  8
SK2
  6
CONTINUOUS
370
25
 62
7
100
AcDbLine
 10
27.4
 20
13.66761902332485
 30
0.0
 11
28.51032581389596
 21
14.77794483722081
 31
0.0
  0
LINE
  5
73E
330
1F
100
AcDbEntity
  8
SK2
  6
CONTINUOUS
370
25
 62
7
100
AcDbLine
 10
27.4
 20
14.09188309203677
 30
0.0
 11
28.15677242330268
 21
14.84865551533946
 31
0.0
  0
LINE
  5
73F
330
1F
100
AcDbEntity
  8
SK2
  6
CONTINUOUS
370
25
 62
7
100
AcDbLine
 10
27.4
 20
14.5161471607487
 30
0.0
 11
27.80321903270941
 21
14.91936619345812
 31
0.0
  0
LINE
  5
740
330
1F
100
AcDbEntity
  8
SK2
  6
CONTINUOUS
370
25
 62
7
100
AcDbLine
 10
27.4
 20
14.94041122946063
 30
0.0
 11
27.44966564211614
 21
14.99007687157677
 31
0.0
  0
LINE
  5
741
330
1F
100
AcDbEntity
  8
SK2
  6
CONTINUOUS
370
25
 62
7
100
AcDbLine
 10
27.4
 20
13.06101730552664
 30
0.0
 11
27.4508394212722
 21
13.01017788425444
 31
0.0
  0
LINE
  5
742
330
1F
100
AcDbEntity
  8
SK2
  6
CONTINUOUS
370
25
 62
7
100
AcDbLine
 10
27.4
 20
13.48528137423857
 30
0.0
 11
27.80439281186547
 21
13.08088856237309
 31
0.0
  0
LINE
  5
743
330
1F
100
AcDbEntity
  8
SK2
  6
CONTINUOUS
370
25
 62
7
100
AcDbLine
 10
27.4
 20
13.9095454429505
 30
0.0
 11
28.15794620245875
 21
13.15159924049175
 31
0.0
  0
LINE
  5
744
330
1F
100
AcDbEntity
  8
SK2
  6
CONTINUOUS
370
25
 62
7
100
AcDbLine
 10
27.4
 20
14.33380951166242
 30
0.0
 11
28.51149959305202
 21
13.2223099186104
 31
0.0
  0
LINE
  5
745
330
1F
100
AcDbEntity
  8
SK2
  6
CONTINUOUS
370
25
 62
7
100
AcDbLine
 10
27.4
 20
14.75807358037435
 30
0.0
 11
28.86505298364529
 21
13.29302059672906
 31
0.0
  0
LINE
  5
746
330
1F
100
AcDbEntity
  8
SK2
  6
CONTINUOUS
370
25
 62
7
100
AcDbLine
 10
27.62790956135785
 20
14.95442808772843
 30
0.0
 11
29.21860637423857
 21
13.36373127484771
 31
0.0
  0
LINE
  5
747
330
1F
100
AcDbEntity
  8
SK2
  6
CONTINUOUS
370
25
 62
7
100
AcDbLine
 10
28.15823964724776
 20
14.84836207055045
 30
0.0
 11
29.57215976483184
 21
13.43444195296637
 31
0.0
  0
LINE
  5
748
330
1F
100
AcDbEntity
  8
SK2
  6
CONTINUOUS
370
25
 62
7
100
AcDbLine
 10
28.68856973313767
 20
14.74229605337247
 30
0.0
 11
29.92571315542511
 21
13.50515263108502
 31
0.0
  0
LINE
  5
749
330
1F
100
AcDbEntity
  8
SK2
  6
CONTINUOUS
370
25
 62
7
100
AcDbLine
 10
29.21889981902758
 20
14.63623003619448
 30
0.0
 11
30.27926654601839
 21
13.57586330920368
 31
0.0
  0
LINE
  5
74A
330
1F
100
AcDbEntity
  8
SK2
  6
CONTINUOUS
370
25
 62
7
100
AcDbLine
 10
29.74922990491749
 20
14.5301640190165
 30
0.0
 11
30.63281993661166
 21
13.64657398732233
 31
0.0
  0
LINE
  5
74B
330
1F
100
AcDbEntity
  8
SK2
  6
CONTINUOUS
370
25
 62
7
100
AcDbLine
 10
30.2795599908074
 20
14.42409800183852
 30
0.0
 11
30.98637332720493
 21
13.71728466544099
 31
0.0
  0
LINE
  5
74C
330
1F
100
AcDbEntity
  8
SK2
  6
CONTINUOUS
370
25
 62
7
100
AcDbLine
 10
30.80989007669731
 20
14.31803198466054
 30
0.0
 11
31.33992671779821
 21
13.78799534355964
 31
0.0
  0
LINE
  5
74D
330
1F
100
AcDbEntity
  8
SK2
  6
CONTINUOUS
370
25
 62
7
100
AcDbLine
 10
31.34022016258722
 20
14.21196596748256
 30
0.0
 11
31.69348010839148
 21
13.8587060216783
 31
0.0
  0
LINE
  5
74E
330
1F
100
AcDbEntity
  8
SK2
  6
CONTINUOUS
370
25
 62
7
100
AcDbLine
 10
31.87055024847713
 20
14.10589995030457
 30
0.0
 11
32.04703349898475
 21
13.92941669979695
 31
0.0
  0
TEXT
  5
74F
330
1F
100
AcDbEntity
  8
SK2
  6
CONTINUOUS
370
25
 62
7
100
AcDbText
 10
10.95
 20
15.50001
 30
0.0
 40
3.5
  1
32.4
 72
     1
 11
16.2
 21
15.50001
 31
0.0
100
AcDbText
  0
LINE
  5
750
330
1F
100
AcDbEntity
  8
2
  6
CONTINUOUS
370
25
 62
7
100
AcDbLine
 10
39.95
 20
-0.05
 30
0.0
 11
66.925
 21
-0.0500000000000033
 31
0.0
  0
LINE
  5
751
330
1F
100
AcDbEntity
  8
2
  6
CONTINUOUS
370
25
 62
7
100
AcDbLine
 10
66.925
 20
0.0499999999999967
 30
0.0
 11
39.95
 21
0.05
 31
0.0
  0
LINE
  5
752
330
1F
100
AcDbEntity
  8
2
  6
CONTINUOUS
370
25
 62
7
100
AcDbLine
 10
65.925
 20
-7.050000000000003
 30
0.0
 11
65.925
 21
19.47499999999999
 31
0.0
  0
LINE
  5
753
330
1F
100
AcDbEntity
  8
2
  6
CONTINUOUS
370
25
 62
7
100
AcDbLine
 10
65.925
 20
-0.0500000000000032
 30
0.0
 11
66.925
 21
-5.050000000000003
 31
0.0
  0
LINE
  5
754
330
1F
100
AcDbEntity
  8
2
  6
CONTINUOUS
370
25
 62
7
100
AcDbLine
 10
66.925
 20
-5.050000000000003
 30
0.0
 11
64.925
 21
-5.050000000000003
 31
0.0
  0
LINE
  5
755
330
1F
100
AcDbEntity
  8
2
  6
CONTINUOUS
370
25
 62
7
100
AcDbLine
 10
64.925
 20
-5.050000000000003
 30
0.0
 11
65.925
 21
-0.0500000000000032
 31
0.0
  0
LINE
  5
756
330
1F
100
AcDbEntity
  8
2
  6
CONTINUOUS
370
25
 62
7
100
AcDbLine
 10
66.72373979563157
 20
-5.050000000000004
 30
0.0
 11
66.89145663260527
 21
-4.882283163026315
 31
0.0
  0
LINE
  5
757
330
1F
100
AcDbEntity
  8
2
  6
CONTINUOUS
370
25
 62
7
100
AcDbLine
 10
66.29947572691964
 20
-5.050000000000004
 30
0.0
 11
66.82074595448661
 21
-4.528729772433039
 31
0.0
  0
LINE
  5
758
330
1F
100
AcDbEntity
  8
2
  6
CONTINUOUS
370
25
 62
7
100
AcDbLine
 10
65.87521165820772
 20
-5.050000000000004
 30
0.0
 11
66.75003527636795
 21
-4.175176381839769
 31
0.0
  0
LINE
  5
759
330
1F
100
AcDbEntity
  8
2
  6
CONTINUOUS
370
25
 62
7
100
AcDbLine
 10
65.4509475894958
 20
-5.050000000000004
 30
0.0
 11
66.67932459824928
 21
-3.821622991246507
 31
0.0
  0
LINE
  5
75A
330
1F
100
AcDbEntity
  8
2
  6
CONTINUOUS
370
25
 62
7
100
AcDbLine
 10
65.02668352078386
 20
-5.050000000000004
 30
0.0
 11
66.60861392013064
 21
-3.468069600653223
 31
0.0
  0
LINE
  5
75B
330
1F
100
AcDbEntity
  8
2
  6
CONTINUOUS
370
25
 62
7
100
AcDbLine
 10
65.00564513698203
 20
-4.646774315089921
 30
0.0
 11
66.53790324201199
 21
-3.114516210059946
 31
0.0
  0
LINE
  5
75C
330
1F
100
AcDbEntity
  8
2
  6
CONTINUOUS
370
25
 62
7
100
AcDbLine
 10
65.11171115415999
 20
-4.116444229200013
 30
0.0
 11
66.46719256389332
 21
-2.760962819466677
 31
0.0
  0
LINE
  5
75D
330
1F
100
AcDbEntity
  8
2
  6
CONTINUOUS
370
25
 62
7
100
AcDbLine
 10
65.21777717133799
 20
-3.586114143310084
 30
0.0
 11
66.39648188577468
 21
-2.4074094288734
 31
0.0
  0
LINE
  5
75E
330
1F
100
AcDbEntity
  8
2
  6
CONTINUOUS
370
25
 62
7
100
AcDbLine
 10
65.32384318851597
 20
-3.055784057420176
 30
0.0
 11
66.32577120765602
 21
-2.053856038280124
 31
0.0
  0
LINE
  5
75F
330
1F
100
AcDbEntity
  8
2
  6
CONTINUOUS
370
25
 62
7
100
AcDbLine
 10
65.42990920569395
 20
-2.525453971530268
 30
0.0
 11
66.25506052953736
 21
-1.700302647686847
 31
0.0
  0
LINE
  5
760
330
1F
100
AcDbEntity
  8
2
  6
CONTINUOUS
370
25
 62
7
100
AcDbLine
 10
65.53597522287193
 20
-1.995123885640361
 30
0.0
 11
66.18434985141872
 21
-1.34674925709357
 31
0.0
  0
LINE
  5
761
330
1F
100
AcDbEntity
  8
2
  6
CONTINUOUS
370
25
 62
7
100
AcDbLine
 10
65.6420412400499
 20
-1.464793799750446
 30
0.0
 11
66.11363917330006
 21
-0.9931958665002867
 31
0.0
  0
LINE
  5
762
330
1F
100
AcDbEntity
  8
2
  6
CONTINUOUS
370
25
 62
7
100
AcDbLine
 10
65.7481072572279
 20
-0.9344637138605236
 30
0.0
 11
66.0429284951814
 21
-0.6396424759070101
 31
0.0
  0
LINE
  5
763
330
1F
100
AcDbEntity
  8
2
  6
CONTINUOUS
370
25
 62
7
100
AcDbLine
 10
65.85417327440587
 20
-0.4041336279706158
 30
0.0
 11
65.97221781706276
 21
-0.2860890853137335
 31
0.0
  0
LINE
  5
764
330
1F
100
AcDbEntity
  8
2
  6
CONTINUOUS
370
25
 62
7
100
AcDbLine
 10
64.9420274110459
 20
-4.964862944770474
 30
0.0
 11
65.02716446627542
 21
-5.050000000000004
 31
0.0
  0
LINE
  5
765
330
1F
100
AcDbEntity
  8
2
  6
CONTINUOUS
370
25
 62
7
100
AcDbLine
 10
65.01273808916456
 20
-4.6113095541772
 30
0.0
 11
65.45142853498736
 21
-5.050000000000001
 31
0.0
  0
LINE
  5
766
330
1F
100
AcDbEntity
  8
2
  6
CONTINUOUS
370
25
 62
7
100
AcDbLine
 10
65.08344876728322
 20
-4.257756163583934
 30
0.0
 11
65.87569260369929
 21
-5.050000000000004
 31
0.0
  0
LINE
  5
767
330
1F
100
AcDbEntity
  8
2
  6
CONTINUOUS
370
25
 62
7
100
AcDbLine
 10
65.15415944540187
 20
-3.904202772990661
 30
0.0
 11
66.29995667241121
 21
-5.050000000000001
 31
0.0
  0
LINE
  5
768
330
1F
100
AcDbEntity
  8
2
  6
CONTINUOUS
370
25
 62
7
100
AcDbLine
 10
65.22487012352053
 20
-3.550649382397381
 30
0.0
 11
66.72422074112316
 21
-5.050000000000004
 31
0.0
  0
LINE
  5
769
330
1F
100
AcDbEntity
  8
2
  6
CONTINUOUS
370
25
 62
7
100
AcDbLine
 10
65.29558080163918
 20
-3.197095991804105
 30
0.0
 11
66.86912879754124
 21
-4.770643987706151
 31
0.0
  0
LINE
  5
76A
330
1F
100
AcDbEntity
  8
2
  6
CONTINUOUS
370
25
 62
7
100
AcDbLine
 10
65.36629147975783
 20
-2.843542601210832
 30
0.0
 11
66.76306278036324
 21
-4.24031390181624
 31
0.0
  0
LINE
  5
76B
330
1F
100
AcDbEntity
  8
2
  6
CONTINUOUS
370
25
 62
7
100
AcDbLine
 10
65.43700215787649
 20
-2.489989210617559
 30
0.0
 11
66.65699676318528
 21
-3.709983815926336
 31
0.0
  0
LINE
  5
76C
330
1F
100
AcDbEntity
  8
2
  6
CONTINUOUS
370
25
 62
7
100
AcDbLine
 10
65.50771283599514
 20
-2.136435820024282
 30
0.0
 11
66.55093074600728
 21
-3.179653730036414
 31
0.0
  0
LINE
  5
76D
330
1F
100
AcDbEntity
  8
2
  6
CONTINUOUS
370
25
 62
7
100
AcDbLine
 10
65.5784235141138
 20
-1.782882429431005
 30
0.0
 11
66.4448647288293
 21
-2.649323644146506
 31
0.0
  0
LINE
  5
76E
330
1F
100
AcDbEntity
  8
2
  6
CONTINUOUS
370
25
 62
7
100
AcDbLine
 10
65.64913419223245
 20
-1.429329038837736
 30
0.0
 11
66.33879871165132
 21
-2.118993558256591
 31
0.0
  0
LINE
  5
76F
330
1F
100
AcDbEntity
  8
2
  6
CONTINUOUS
370
25
 62
7
100
AcDbLine
 10
65.7198448703511
 20
-1.075775648244452
 30
0.0
 11
66.23273269447334
 21
-1.58866347236669
 31
0.0
  0
LINE
  5
770
330
1F
100
AcDbEntity
  8
2
  6
CONTINUOUS
370
25
 62
7
100
AcDbLine
 10
65.79055554846977
 20
-0.7222222576511896
 30
0.0
 11
66.12666667729536
 21
-1.058333386476775
 31
0.0
  0
LINE
  5
771
330
1F
100
AcDbEntity
  8
2
  6
CONTINUOUS
370
25
 62
7
100
AcDbLine
 10
65.86126622658841
 20
-0.368668867057913
 30
0.0
 11
66.02060066011737
 21
-0.5280033005868674
 31
0.0
  0
LINE
  5
772
330
1F
100
AcDbEntity
  8
2
  6
CONTINUOUS
370
25
 62
7
100
AcDbLine
 10
65.925
 20
0.0499999999999968
 30
0.0
 11
64.925
 21
5.049999999999997
 31
0.0
  0
LINE
  5
773
330
1F
100
AcDbEntity
  8
2
  6
CONTINUOUS
370
25
 62
7
100
AcDbLine
 10
64.925
 20
5.049999999999997
 30
0.0
 11
66.925
 21
5.049999999999997
 31
0.0
  0
LINE
  5
774
330
1F
100
AcDbEntity
  8
2
  6
CONTINUOUS
370
25
 62
7
100
AcDbLine
 10
66.925
 20
5.049999999999997
 30
0.0
 11
65.925
 21
0.0499999999999968
 31
0.0
  0
LINE
  5
775
330
1F
100
AcDbEntity
  8
2
  6
CONTINUOUS
370
25
 62
7
100
AcDbLine
 10
65.91523008045849
 20
0.0988495977076127
 30
0.0
 11
65.93965487931229
 21
0.1232743965614205
 31
0.0
  0
LINE
  5
776
330
1F
100
AcDbEntity
  8
2
  6
CONTINUOUS
370
25
 62
7
100
AcDbLine
 10
65.84451940233981
 20
0.4524029883008822
 30
0.0
 11
66.04572089649027
 21
0.6536044824513354
 31
0.0
  0
LINE
  5
777
330
1F
100
AcDbEntity
  8
2
  6
CONTINUOUS
370
25
 62
7
100
AcDbLine
 10
65.77380872422117
 20
0.805956378894173
 30
0.0
 11
66.15178691366825
 21
1.18393456834125
 31
0.0
  0
LINE
  5
778
330
1F
100
AcDbEntity
  8
2
  6
CONTINUOUS
370
25
 62
7
100
AcDbLine
 10
65.70309804610251
 20
1.159509769487443
 30
0.0
 11
66.25785293084623
 21
1.714264654231158
 31
0.0
  0
LINE
  5
779
330
1F
100
AcDbEntity
  8
2
  6
CONTINUOUS
370
25
 62
7
100
AcDbLine
 10
65.63238736798385
 20
1.513063160080716
 30
0.0
 11
66.3639189480242
 21
2.24459474012107
 31
0.0
  0
LINE
  5
77A
330
1F
100
AcDbEntity
  8
2
  6
CONTINUOUS
370
25
 62
7
100
AcDbLine
 10
65.56167668986521
 20
1.866616550673992
 30
0.0
 11
66.46998496520219
 21
2.774924826010977
 31
0.0
  0
LINE
  5
77B
330
1F
100
AcDbEntity
  8
2
  6
CONTINUOUS
370
25
 62
7
100
AcDbLine
 10
65.49096601174654
 20
2.220169941267265
 30
0.0
 11
66.57605098238017
 21
3.305254911900896
 31
0.0
  0
LINE
  5
77C
330
1F
100
AcDbEntity
  8
2
  6
CONTINUOUS
370
25
 62
7
100
AcDbLine
 10
65.42025533362789
 20
2.573723331860542
 30
0.0
 11
66.68211699955816
 21
3.835584997790804
 31
0.0
  0
LINE
  5
77D
330
1F
100
AcDbEntity
  8
2
  6
CONTINUOUS
370
25
 62
7
100
AcDbLine
 10
65.34954465550923
 20
2.927276722453815
 30
0.0
 11
66.78818301673614
 21
4.365915083680729
 31
0.0
  0
LINE
  5
77E
330
1F
100
AcDbEntity
  8
2
  6
CONTINUOUS
370
25
 62
7
100
AcDbLine
 10
65.27883397739058
 20
3.280830113047084
 30
0.0
 11
66.89424903391412
 21
4.896245169570637
 31
0.0
  0
LINE
  5
77F
330
1F
100
AcDbEntity
  8
2
  6
CONTINUOUS
370
25
 62
7
100
AcDbLine
 10
65.20812329927193
 20
3.634383503640365
 30
0.0
 11
66.62373979563155
 21
5.049999999999997
 31
0.0
  0
LINE
  5
780
330
1F
100
AcDbEntity
  8
2
  6
CONTINUOUS
370
25
 62
7
100
AcDbLine
 10
65.13741262115326
 20
3.987936894233641
 30
0.0
 11
66.19947572691962
 21
5.049999999999997
 31
0.0
  0
LINE
  5
781
330
1F
100
AcDbEntity
  8
2
  6
CONTINUOUS
370
25
 62
7
100
AcDbLine
 10
65.06670194303462
 20
4.341490284826921
 30
0.0
 11
65.7752116582077
 21
5.050000000000001
 31
0.0
  0
LINE
  5
782
330
1F
100
AcDbEntity
  8
2
  6
CONTINUOUS
370
25
 62
7
100
AcDbLine
 10
64.99599126491596
 20
4.695043675420191
 30
0.0
 11
65.35094758949577
 21
5.050000000000001
 31
0.0
  0
LINE
  5
783
330
1F
100
AcDbEntity
  8
2
  6
CONTINUOUS
370
25
 62
7
100
AcDbLine
 10
64.9252805867973
 20
5.048597066013464
 30
0.0
 11
64.92668352078383
 21
5.049999999999997
 31
0.0
  0
LINE
  5
784
330
1F
100
AcDbEntity
  8
2
  6
CONTINUOUS
370
25
 62
7
100
AcDbLine
 10
65.83346862576141
 20
0.5076568711929497
 30
0.0
 11
65.98602091615905
 21
0.3551045807952988
 31
0.0
  0
LINE
  5
785
330
1F
100
AcDbEntity
  8
2
  6
CONTINUOUS
370
25
 62
7
100
AcDbLine
 10
65.72740260858342
 20
1.037986957082857
 30
0.0
 11
66.05673159427771
 21
0.7086579713885754
 31
0.0
  0
LINE
  5
786
330
1F
100
AcDbEntity
  8
2
  6
CONTINUOUS
370
25
 62
7
100
AcDbLine
 10
65.62133659140545
 20
1.568317042972765
 30
0.0
 11
66.12744227239637
 21
1.062211361981845
 31
0.0
  0
LINE
  5
787
330
1F
100
AcDbEntity
  8
2
  6
CONTINUOUS
370
25
 62
7
100
AcDbLine
 10
65.51527057422746
 20
2.098647128862687
 30
0.0
 11
66.19815295051502
 21
1.415764752575122
 31
0.0
  0
LINE
  5
788
330
1F
100
AcDbEntity
  8
2
  6
CONTINUOUS
370
25
 62
7
100
AcDbLine
 10
65.40920455704948
 20
2.628977214752595
 30
0.0
 11
66.26886362863368
 21
1.769318143168398
 31
0.0
  0
LINE
  5
789
330
1F
100
AcDbEntity
  8
2
  6
CONTINUOUS
370
25
 62
7
100
AcDbLine
 10
65.3031385398715
 20
3.15930730064251
 30
0.0
 11
66.33957430675233
 21
2.122871533761675
 31
0.0
  0
LINE
  5
78A
330
1F
100
AcDbEntity
  8
2
  6
CONTINUOUS
370
25
 62
7
100
AcDbLine
 10
65.1970725226935
 20
3.689637386532418
 30
0.0
 11
66.410284984871
 21
2.476424924354944
 31
0.0
  0
LINE
  5
78B
330
1F
100
AcDbEntity
  8
2
  6
CONTINUOUS
370
25
 62
7
100
AcDbLine
 10
65.09100650551554
 20
4.219967472422326
 30
0.0
 11
66.48099566298964
 21
2.829978314948228
 31
0.0
  0
LINE
  5
78C
330
1F
100
AcDbEntity
  8
2
  6
CONTINUOUS
370
25
 62
7
100
AcDbLine
 10
64.98494048833754
 20
4.750297558312241
 30
0.0
 11
66.55170634110829
 21
3.183531705541505
 31
0.0
  0
LINE
  5
78D
330
1F
100
AcDbEntity
  8
2
  6
CONTINUOUS
370
25
 62
7
100
AcDbLine
 10
65.10950211536172
 20
5.049999999999997
 30
0.0
 11
66.62241701922696
 21
3.537085096134767
 31
0.0
  0
LINE
  5
78E
330
1F
100
AcDbEntity
  8
2
  6
CONTINUOUS
370
25
 62
7
100
AcDbLine
 10
65.53376618407364
 20
5.049999999999997
 30
0.0
 11
66.6931276973456
 21
3.890638486728044
 31
0.0
  0
LINE
  5
78F
330
1F
100
AcDbEntity
  8
2
  6
CONTINUOUS
370
25
 62
7
100
AcDbLine
 10
65.95803025278559
 20
5.049999999999997
 30
0.0
 11
66.76383837546426
 21
4.24419187732132
 31
0.0
  0
LINE
  5
790
330
1F
100
AcDbEntity
  8
2
  6
CONTINUOUS
370
25
 62
7
100
AcDbLine
 10
66.38229432149751
 20
5.049999999999997
 30
0.0
 11
66.83454905358292
 21
4.597745267914597
 31
0.0
  0
LINE
  5
791
330
1F
100
AcDbEntity
  8
2
  6
CONTINUOUS
370
25
 62
7
100
AcDbLine
 10
66.80655839020943
 20
5.049999999999997
 30
0.0
 11
66.90525973170156
 21
4.951298658507866
 31
0.0
  0
TEXT
  5
792
330
1F
100
AcDbEntity
  8
2
  6
CONTINUOUS
370
25
 62
7
100
AcDbText
 10
64.425
 20
11.9125
 30
0.0
 40
3.5
  1
0.1
 50
90.00000000000001
 72
     1
 11
64.425
 21
14.5375
 31
0.0
100
AcDbText
  0
CIRCLE
  5
793
330
1F
100
AcDbEntity
  8
2
  6
CONTINUOUS
370
25
 62
7
100
AcDbCircle
 10
62.675
 20
8.062499999999995
 30
0.0
 40
1.4
  0
LINE
  5
794
330
1F
100
AcDbEntity
  8
2
  6
CONTINUOUS
370
25
 62
7
100
AcDbLine
 10
64.07499999999999
 20
6.662499999999995
 30
0.0
 11
61.275
 21
9.462499999999995
 31
0.0
  0
LINE
  5
795
330
1F
100
AcDbEntity
  8
2
  6
CONTINUOUS
370
25
 62
7
100
AcDbLine
 10
39.8
 20
-0.05
 30
0.0
 11
39.8
 21
-13.05
 31
0.0
  0
LINE
  5
796
330
1F
100
AcDbEntity
  8
2
  6
CONTINUOUS
370
25
 62
7
100
AcDbLine
 10
40.0
 20
-13.05
 30
0.0
 11
40.0
 21
-0.0500000000000007
 31
0.0
  0
LINE
  5
797
330
1F
100
AcDbEntity
  8
2
  6
CONTINUOUS
370
25
 62
7
100
AcDbLine
 10
32.8
 20
-12.05
 30
0.0
 11
55.925
 21
-12.05
 31
0.0
  0
LINE
  5
798
330
1F
100
AcDbEntity
  8
2
  6
CONTINUOUS
370
25
 62
7
100
AcDbLine
 10
39.8
 20
-12.05
 30
0.0
 11
34.8
 21
-13.05
 31
0.0
  0
LINE
  5
799
330
1F
100
AcDbEntity
  8
2
  6
CONTINUOUS
370
25
 62
7
100
AcDbLine
 10
34.8
 20
-13.05
 30
0.0
 11
34.8
 21
-11.05
 31
0.0
  0
LINE
  5
79A
330
1F
100
AcDbEntity
  8
2
  6
CONTINUOUS
370
25
 62
7
100
AcDbLine
 10
34.8
 20
-11.05
 30
0.0
 11
39.8
 21
-12.05
 31
0.0
  0
LINE
  5
79B
330
1F
100
AcDbEntity
  8
2
  6
CONTINUOUS
370
25
 62
7
100
AcDbLine
 10
39.6963684378056
 20
-12.07072631243888
 30
0.0
 11
39.7309122918704
 21
-12.03618245837408
 31
0.0
  0
LINE
  5
79C
330
1F
100
AcDbEntity
  8
2
  6
CONTINUOUS
370
25
 62
7
100
AcDbLine
 10
39.16603835191569
 20
-12.17679232961686
 30
0.0
 11
39.37735890127712
 21
-11.96547178025543
 31
0.0
  0
LINE
  5
79D
330
1F
100
AcDbEntity
  8
2
  6
CONTINUOUS
370
25
 62
7
100
AcDbLine
 10
38.63570826602577
 20
-12.28285834679485
 30
0.0
 11
39.02380551068385
 21
-11.89476110213677
 31
0.0
  0
LINE
  5
79E
330
1F
100
AcDbEntity
  8
2
  6
CONTINUOUS
370
25
 62
7
100
AcDbLine
 10
38.10537818013587
 20
-12.38892436397283
 30
0.0
 11
38.67025212009058
 21
-11.82405042401811
 31
0.0
  0
LINE
  5
79F
330
1F
100
AcDbEntity
  8
2
  6
CONTINUOUS
370
25
 62
7
100
AcDbLine
 10
37.57504809424596
 20
-12.49499038115081
 30
0.0
 11
38.3166987294973
 21
-11.75333974589946
 31
0.0
  0
LINE
  5
7A0
330
1F
100
AcDbEntity
  8
2
  6
CONTINUOUS
370
25
 62
7
100
AcDbLine
 10
37.04471800835604
 20
-12.60105639832879
 30
0.0
 11
37.96314533890403
 21
-11.68262906778081
 31
0.0
  0
LINE
  5
7A1
330
1F
100
AcDbEntity
  8
2
  6
CONTINUOUS
370
25
 62
7
100
AcDbLine
 10
36.51438792246613
 20
-12.70712241550677
 30
0.0
 11
37.60959194831076
 21
-11.61191838966215
 31
0.0
  0
LINE
  5
7A2
330
1F
100
AcDbEntity
  8
2
  6
CONTINUOUS
370
25
 62
7
100
AcDbLine
 10
35.98405783657622
 20
-12.81318843268476
 30
0.0
 11
37.25603855771748
 21
-11.5412077115435
 31
0.0
  0
LINE
  5
7A3
330
1F
100
AcDbEntity
  8
2
  6
CONTINUOUS
370
25
 62
7
100
AcDbLine
 10
35.45372775068631
 20
-12.91925444986274
 30
0.0
 11
36.90248516712421
 21
-11.47049703342484
 31
0.0
  0
LINE
  5
7A4
330
1F
100
AcDbEntity
  8
2
  6
CONTINUOUS
370
25
 62
7
100
AcDbLine
 10
34.9233976647964
 20
-13.02532046704072
 30
0.0
 11
36.54893177653094
 21
-11.39978635530619
 31
0.0
  0
LINE
  5
7A5
330
1F
100
AcDbEntity
  8
2
  6
CONTINUOUS
370
25
 62
7
100
AcDbLine
 10
34.8
 20
-12.7244540631252
 30
0.0
 11
36.19537838593767
 21
-11.32907567718753
 31
0.0
  0
LINE
  5
7A6
330
1F
100
AcDbEntity
  8
2
  6
CONTINUOUS
370
25
 62
7
100
AcDbLine
 10
34.8
 20
-12.30018999441327
 30
0.0
 11
35.84182499534439
 21
-11.25836499906888
 31
0.0
  0
LINE
  5
7A7
330
1F
100
AcDbEntity
  8
2
  6
CONTINUOUS
370
25
 62
7
100
AcDbLine
 10
34.8
 20
-11.87592592570134
 30
0.0
 11
35.48827160475111
 21
-11.18765432095022
 31
0.0
  0
LINE
  5
7A8
330
1F
100
AcDbEntity
  8
2
  6
CONTINUOUS
370
25
 62
7
100
AcDbLine
 10
34.8
 20
-11.45166185698941
 30
0.0
 11
35.13471821415784
 21
-11.11694364283157
 31
0.0
  0
LINE
  5
7A9
330
1F
100
AcDbEntity
  8
2
  6
CONTINUOUS
370
25
 62
7
100
AcDbLine
 10
34.8
 20
-12.77369646804268
 30
0.0
 11
35.03025294329776
 21
-13.00394941134045
 31
0.0
  0
LINE
  5
7AA
330
1F
100
AcDbEntity
  8
2
  6
CONTINUOUS
370
25
 62
7
100
AcDbLine
 10
34.8
 20
-12.34943239933076
 30
0.0
 11
35.38380633389104
 21
-12.93323873322179
 31
0.0
  0
LINE
  5
7AB
330
1F
100
AcDbEntity
  8
2
  6
CONTINUOUS
370
25
 62
7
100
AcDbLine
 10
34.8
 20
-11.92516833061883
 30
0.0
 11
35.73735972448431
 21
-12.86252805510314
 31
0.0
  0
LINE
  5
7AC
330
1F
100
AcDbEntity
  8
2
  6
CONTINUOUS
370
25
 62
7
100
AcDbLine
 10
34.8
 20
-11.5009042619069
 30
0.0
 11
36.09091311507758
 21
-12.79181737698448
 31
0.0
  0
LINE
  5
7AD
330
1F
100
AcDbEntity
  8
2
  6
CONTINUOUS
370
25
 62
7
100
AcDbLine
 10
34.8
 20
-11.07664019319497
 30
0.0
 11
36.44446650567085
 21
-12.72110669886583
 31
0.0
  0
LINE
  5
7AE
330
1F
100
AcDbEntity
  8
2
  6
CONTINUOUS
370
25
 62
7
100
AcDbLine
 10
35.29702984439619
 20
-11.14940596887924
 30
0.0
 11
36.79801989626413
 21
-12.65039602074717
 31
0.0
  0
LINE
  5
7AF
330
1F
100
AcDbEntity
  8
2
  6
CONTINUOUS
370
25
 62
7
100
AcDbLine
 10
35.8273599302861
 20
-11.25547198605722
 30
0.0
 11
37.1515732868574
 21
-12.57968534262852
 31
0.0
  0
LINE
  5
7B0
330
1F
100
AcDbEntity
  8
2
  6
CONTINUOUS
370
25
 62
7
100
AcDbLine
 10
36.35769001617602
 20
-11.3615380032352
 30
0.0
 11
37.50512667745068
 21
-12.50897466450987
 31
0.0
  0
LINE
  5
7B1
330
1F
100
AcDbEntity
  8
2
  6
CONTINUOUS
370
25
 62
7
100
AcDbLine
 10
36.88802010206592
 20
-11.46760402041319
 30
0.0
 11
37.85868006804395
 21
-12.43826398639121
 31
0.0
  0
LINE
  5
7B2
330
1F
100
AcDbEntity
  8
2
  6
CONTINUOUS
370
25
 62
7
100
AcDbLine
 10
37.41835018795583
 20
-11.57367003759117
 30
0.0
 11
38.21223345863722
 21
-12.36755330827256
 31
0.0
  0
LINE
  5
7B3
330
1F
100
AcDbEntity
  8
2
  6
CONTINUOUS
370
25
 62
7
100
AcDbLine
 10
37.94868027384575
 20
-11.67973605476915
 30
0.0
 11
38.5657868492305
 21
-12.2968426301539
 31
0.0
  0
LINE
  5
7B4
330
1F
100
AcDbEntity
  8
2
  6
CONTINUOUS
370
25
 62
7
100
AcDbLine
 10
38.47901035973565
 20
-11.78580207194713
 30
0.0
 11
38.91934023982377
 21
-12.22613195203525
 31
0.0
  0
LINE
  5
7B5
330
1F
100
AcDbEntity
  8
2
  6
CONTINUOUS
370
25
 62
7
100
AcDbLine
 10
39.00934044562557
 20
-11.89186808912511
 30
0.0
 11
39.27289363041704
 21
-12.15542127391659
 31
0.0
  0
LINE
  5
7B6
330
1F
100
AcDbEntity
  8
2
  6
CONTINUOUS
370
25
 62
7
100
AcDbLine
 10
39.53967053151548
 20
-11.9979341063031
 30
0.0
 11
39.62644702101031
 21
-12.08471059579794
 31
0.0
  0
LINE
  5
7B7
330
1F
100
AcDbEntity
  8
2
  6
CONTINUOUS
370
25
 62
7
100
AcDbLine
 10
40.0
 20
-12.05
 30
0.0
 11
45.0
 21
-11.05
 31
0.0
  0
LINE
  5
7B8
330
1F
100
AcDbEntity
  8
2
  6
CONTINUOUS
370
25
 62
7
100
AcDbLine
 10
45.0
 20
-11.05
 30
0.0
 11
45.0
 21
-13.05
 31
0.0
  0
LINE
  5
7B9
330
1F
100
AcDbEntity
  8
2
  6
CONTINUOUS
370
25
 62
7
100
AcDbLine
 10
45.0
 20
-13.05
 30
0.0
 11
40.0
 21
-12.05
 31
0.0
  0
LINE
  5
7BA
330
1F
100
AcDbEntity
  8
2
  6
CONTINUOUS
370
25
 62
7
100
AcDbLine
 10
44.89537838593765
 20
-13.02907567718753
 30
0.0
 11
45.0
 21
-12.92445406312518
 31
0.0
  0
LINE
  5
7BB
330
1F
100
AcDbEntity
  8
2
  6
CONTINUOUS
370
25
 62
7
100
AcDbLine
 10
44.54182499534438
 20
-12.95836499906888
 30
0.0
 11
45.0
 21
-12.50018999441326
 31
0.0
  0
LINE
  5
7BC
330
1F
100
AcDbEntity
  8
2
  6
CONTINUOUS
370
25
 62
7
100
AcDbLine
 10
44.18827160475111
 20
-12.88765432095022
 30
0.0
 11
45.0
 21
-12.07592592570133
 31
0.0
  0
LINE
  5
7BD
330
1F
100
AcDbEntity
  8
2
  6
CONTINUOUS
370
25
 62
7
100
AcDbLine
 10
43.83471821415783
 20
-12.81694364283157
 30
0.0
 11
45.0
 21
-11.6516618569894
 31
0.0
  0
LINE
  5
7BE
330
1F
100
AcDbEntity
  8
2
  6
CONTINUOUS
370
25
 62
7
100
AcDbLine
 10
43.48116482356456
 20
-12.74623296471291
 30
0.0
 11
45.0
 21
-11.22739778827748
 31
0.0
  0
LINE
  5
7BF
330
1F
100
AcDbEntity
  8
2
  6
CONTINUOUS
370
25
 62
7
100
AcDbLine
 10
43.12761143297129
 20
-12.67552228659426
 30
0.0
 11
44.69141714945694
 21
-11.11171657010861
 31
0.0
  0
LINE
  5
7C0
330
1F
100
AcDbEntity
  8
2
  6
CONTINUOUS
370
25
 62
7
100
AcDbLine
 10
42.77405804237802
 20
-12.60481160847561
 30
0.0
 11
44.16108706356702
 21
-11.21778258728659
 31
0.0
  0
LINE
  5
7C1
330
1F
100
AcDbEntity
  8
2
  6
CONTINUOUS
370
25
 62
7
100
AcDbLine
 10
42.42050465178474
 20
-12.53410093035695
 30
0.0
 11
43.63075697767712
 21
-11.32384860446458
 31
0.0
  0
LINE
  5
7C2
330
1F
100
AcDbEntity
  8
2
  6
CONTINUOUS
370
25
 62
7
100
AcDbLine
 10
42.06695126119147
 20
-12.4633902522383
 30
0.0
 11
43.10042689178721
 21
-11.42991462164256
 31
0.0
  0
LINE
  5
7C3
330
1F
100
AcDbEntity
  8
2
  6
CONTINUOUS
370
25
 62
7
100
AcDbLine
 10
41.71339787059819
 20
-12.39267957411964
 30
0.0
 11
42.57009680589729
 21
-11.53598063882054
 31
0.0
  0
LINE
  5
7C4
330
1F
100
AcDbEntity
  8
2
  6
CONTINUOUS
370
25
 62
7
100
AcDbLine
 10
41.35984448000492
 20
-12.32196889600099
 30
0.0
 11
42.03976672000739
 21
-11.64204665599852
 31
0.0
  0
LINE
  5
7C5
330
1F
100
AcDbEntity
  8
2
  6
CONTINUOUS
370
25
 62
7
100
AcDbLine
 10
41.00629108941165
 20
-12.25125821788233
 30
0.0
 11
41.50943663411748
 21
-11.7481126731765
 31
0.0
  0
LINE
  5
7C6
330
1F
100
AcDbEntity
  8
2
  6
CONTINUOUS
370
25
 62
7
100
AcDbLine
 10
40.65273769881838
 20
-12.18054753976368
 30
0.0
 11
40.97910654822756
 21
-11.85417869035449
 31
0.0
  0
LINE
  5
7C7
330
1F
100
AcDbEntity
  8
2
  6
CONTINUOUS
370
25
 62
7
100
AcDbLine
 10
40.2991843082251
 20
-12.10983686164502
 30
0.0
 11
40.44877646233765
 21
-11.96024470753247
 31
0.0
  0
LINE
  5
7C8
330
1F
100
AcDbEntity
  8
2
  6
CONTINUOUS
370
25
 62
7
100
AcDbLine
 10
40.19471903736502
 20
-12.011056192527
 30
0.0
 11
40.29207855604753
 21
-12.10841571120951
 31
0.0
  0
LINE
  5
7C9
330
1F
100
AcDbEntity
  8
2
  6
CONTINUOUS
370
25
 62
7
100
AcDbLine
 10
40.5482724279583
 20
-11.94034551440834
 30
0.0
 11
40.82240864193744
 21
-12.21448172838749
 31
0.0
  0
LINE
  5
7CA
330
1F
100
AcDbEntity
  8
2
  6
CONTINUOUS
370
25
 62
7
100
AcDbLine
 10
40.90182581855156
 20
-11.86963483628969
 30
0.0
 11
41.35273872782735
 21
-12.32054774556547
 31
0.0
  0
LINE
  5
7CB
330
1F
100
AcDbEntity
  8
2
  6
CONTINUOUS
370
25
 62
7
100
AcDbLine
 10
41.25537920914484
 20
-11.79892415817103
 30
0.0
 11
41.88306881371726
 21
-12.42661376274345
 31
0.0
  0
LINE
  5
7CC
330
1F
100
AcDbEntity
  8
2
  6
CONTINUOUS
370
25
 62
7
100
AcDbLine
 10
41.60893259973811
 20
-11.72821348005238
 30
0.0
 11
42.41339889960717
 21
-12.53267977992144
 31
0.0
  0
LINE
  5
7CD
330
1F
100
AcDbEntity
  8
2
  6
CONTINUOUS
370
25
 62
7
100
AcDbLine
 10
41.96248599033139
 20
-11.65750280193372
 30
0.0
 11
42.94372898549708
 21
-12.63874579709941
 31
0.0
  0
LINE
  5
7CE
330
1F
100
AcDbEntity
  8
2
  6
CONTINUOUS
370
25
 62
7
100
AcDbLine
 10
42.31603938092466
 20
-11.58679212381507
 30
0.0
 11
43.474059071387
 21
-12.7448118142774
 31
0.0
  0
LINE
  5
7CF
330
1F
100
AcDbEntity
  8
2
  6
CONTINUOUS
370
25
 62
7
100
AcDbLine
 10
42.66959277151793
 20
-11.51608144569641
 30
0.0
 11
44.0043891572769
 21
-12.85087783145538
 31
0.0
  0
LINE
  5
7D0
330
1F
100
AcDbEntity
  8
2
  6
CONTINUOUS
370
25
 62
7
100
AcDbLine
 10
43.0231461621112
 20
-11.44537076757776
 30
0.0
 11
44.53471924316682
 21
-12.95694384863337
 31
0.0
  0
LINE
  5
7D1
330
1F
100
AcDbEntity
  8
2
  6
CONTINUOUS
370
25
 62
7
100
AcDbLine
 10
43.37669955270448
 20
-11.3746600894591
 30
0.0
 11
45.0
 21
-12.99796053675462
 31
0.0
  0
LINE
  5
7D2
330
1F
100
AcDbEntity
  8
2
  6
CONTINUOUS
370
25
 62
7
100
AcDbLine
 10
43.73025294329776
 20
-11.30394941134045
 30
0.0
 11
45.0
 21
-12.57369646804269
 31
0.0
  0
LINE
  5
7D3
330
1F
100
AcDbEntity
  8
2
  6
CONTINUOUS
370
25
 62
7
100
AcDbLine
 10
44.08380633389103
 20
-11.2332387332218
 30
0.0
 11
45.0
 21
-12.14943239933077
 31
0.0
  0
LINE
  5
7D4
330
1F
100
AcDbEntity
  8
2
  6
CONTINUOUS
370
25
 62
7
100
AcDbLine
 10
44.4373597244843
 20
-11.16252805510314
 30
0.0
 11
45.0
 21
-11.72516833061884
 31
0.0
  0
LINE
  5
7D5
330
1F
100
AcDbEntity
  8
2
  6
CONTINUOUS
370
25
 62
7
100
AcDbLine
 10
44.79091311507757
 20
-11.09181737698448
 30
0.0
 11
45.0
 21
-11.30090426190691
 31
0.0
  0
TEXT
  5
7D6
330
1F
100
AcDbEntity
  8
2
  6
CONTINUOUS
370
25
 62
7
100
AcDbText
 10
47.25416666666666
 20
-10.55
 30
0.0
 40
3.5
  1
0.2
 72
     1
 11
50.46249999999999
 21
-10.55
 31
0.0
100
AcDbText
  0
LINE
  5
7D7
330
1F
100
AcDbEntity
  8
2
  6
CONTINUOUS
370
25
 62
7
100
AcDbLine
 10
32.4
 20
0.0
 30
0.0
 11
32.4
 21
24.99995
 31
0.0
  0
LINE
  5
7D8
330
1F
100
AcDbEntity
  8
2
  6
CONTINUOUS
370
25
 62
7
100
AcDbLine
 10
40.0
 20
24.99995
 30
0.0
 11
40.0
 21
0.0499999999999972
 31
0.0
  0
LINE
  5
7D9
330
1F
100
AcDbEntity
  8
2
  6
CONTINUOUS
370
25
 62
7
100
AcDbLine
 10
25.4
 20
23.99995
 30
0.0
 11
55.925
 21
23.99995
 31
0.0
  0
LINE
  5
7DA
330
1F
100
AcDbEntity
  8
2
  6
CONTINUOUS
370
25
 62
7
100
AcDbLine
 10
32.4
 20
23.99995
 30
0.0
 11
27.4
 21
22.99995
 31
0.0
  0
LINE
  5
7DB
330
1F
100
AcDbEntity
  8
2
  6
CONTINUOUS
370
25
 62
7
100
AcDbLine
 10
27.4
 20
22.99995
 30
0.0
 11
27.4
 21
24.99995
 31
0.0
  0
LINE
  5
7DC
330
1F
100
AcDbEntity
  8
2
  6
CONTINUOUS
370
25
 62
7
100
AcDbLine
 10
27.4
 20
24.99995
 30
0.0
 11
32.4
 21
23.99995
 31
0.0
  0
LINE
  5
7DD
330
1F
100
AcDbEntity
  8
2
  6
CONTINUOUS
370
25
 62
7
100
AcDbLine
 10
32.17112260427513
 20
23.95417452085502
 30
0.0
 11
32.24741506951675
 21
24.03046698609665
 31
0.0
  0
LINE
  5
7DE
330
1F
100
AcDbEntity
  8
2
  6
CONTINUOUS
370
25
 62
7
100
AcDbLine
 10
31.64079251838522
 20
23.84810850367704
 30
0.0
 11
31.89386167892348
 21
24.1011776642153
 31
0.0
  0
LINE
  5
7DF
330
1F
100
AcDbEntity
  8
2
  6
CONTINUOUS
370
25
 62
7
100
AcDbLine
 10
31.1104624324953
 20
23.74204248649906
 30
0.0
 11
31.5403082883302
 21
24.17188834233396
 31
0.0
  0
LINE
  5
7E0
330
1F
100
AcDbEntity
  8
2
  6
CONTINUOUS
370
25
 62
7
100
AcDbLine
 10
30.5801323466054
 20
23.63597646932108
 30
0.0
 11
31.18675489773693
 21
24.24259902045261
 31
0.0
  0
LINE
  5
7E1
330
1F
100
AcDbEntity
  8
2
  6
CONTINUOUS
370
25
 62
7
100
AcDbLine
 10
30.04980226071548
 20
23.5299104521431
 30
0.0
 11
30.83320150714366
 21
24.31330969857127
 31
0.0
  0
LINE
  5
7E2
330
1F
100
AcDbEntity
  8
2
  6
CONTINUOUS
370
25
 62
7
100
AcDbLine
 10
29.51947217482558
 20
23.42384443496512
 30
0.0
 11
30.47964811655038
 21
24.38402037668992
 31
0.0
  0
LINE
  5
7E3
330
1F
100
AcDbEntity
  8
2
  6
CONTINUOUS
370
25
 62
7
100
AcDbLine
 10
28.98914208893567
 20
23.31777841778713
 30
0.0
 11
30.12609472595711
 21
24.45473105480858
 31
0.0
  0
LINE
  5
7E4
330
1F
100
AcDbEntity
  8
2
  6
CONTINUOUS
370
25
 62
7
100
AcDbLine
 10
28.45881200304576
 20
23.21171240060915
 30
0.0
 11
29.77254133536384
 21
24.52544173292723
 31
0.0
  0
LINE
  5
7E5
330
1F
100
AcDbEntity
  8
2
  6
CONTINUOUS
370
25
 62
7
100
AcDbLine
 10
27.92848191715585
 20
23.10564638343117
 30
0.0
 11
29.41898794477056
 21
24.59615241104589
 31
0.0
  0
LINE
  5
7E6
330
1F
100
AcDbEntity
  8
2
  6
CONTINUOUS
370
25
 62
7
100
AcDbLine
 10
27.4
 20
23.00142853498725
 30
0.0
 11
29.06543455417729
 21
24.66686308916454
 31
0.0
  0
LINE
  5
7E7
330
1F
100
AcDbEntity
  8
2
  6
CONTINUOUS
370
25
 62
7
100
AcDbLine
 10
27.4
 20
23.42569260369918
 30
0.0
 11
28.71188116358402
 21
24.73757376728319
 31
0.0
  0
LINE
  5
7E8
330
1F
100
AcDbEntity
  8
2
  6
CONTINUOUS
370
25
 62
7
100
AcDbLine
 10
27.4
 20
23.8499566724111
 30
0.0
 11
28.35832777299074
 21
24.80828444540185
 31
0.0
  0
LINE
  5
7E9
330
1F
100
AcDbEntity
  8
2
  6
CONTINUOUS
370
25
 62
7
100
AcDbLine
 10
27.4
 20
24.27422074112303
 30
0.0
 11
28.00477438239747
 21
24.8789951235205
 31
0.0
  0
LINE
  5
7EA
330
1F
100
AcDbEntity
  8
2
  6
CONTINUOUS
370
25
 62
7
100
AcDbLine
 10
27.4
 20
24.69848480983496
 30
0.0
 11
27.6512209918042
 21
24.94970580163916
 31
0.0
  0
LINE
  5
7EB
330
1F
100
AcDbEntity
  8
2
  6
CONTINUOUS
370
25
 62
7
100
AcDbLine
 10
27.4
 20
23.24335495461289
 30
0.0
 11
27.60283746217741
 21
23.04051749243548
 31
0.0
  0
LINE
  5
7EC
330
1F
100
AcDbEntity
  8
2
  6
CONTINUOUS
370
25
 62
7
100
AcDbLine
 10
27.4
 20
23.66761902332482
 30
0.0
 11
27.95639085277068
 21
23.11122817055413
 31
0.0
  0
LINE
  5
7ED
330
1F
100
AcDbEntity
  8
2
  6
CONTINUOUS
370
25
 62
7
100
AcDbLine
 10
27.4
 20
24.09188309203675
 30
0.0
 11
28.30994424336395
 21
23.18193884867279
 31
0.0
  0
LINE
  5
7EE
330
1F
100
AcDbEntity
  8
2
  6
CONTINUOUS
370
25
 62
7
100
AcDbLine
 10
27.4
 20
24.51614716074867
 30
0.0
 11
28.66349763395723
 21
23.25264952679144
 31
0.0
  0
LINE
  5
7EF
330
1F
100
AcDbEntity
  8
2
  6
CONTINUOUS
370
25
 62
7
100
AcDbLine
 10
27.4
 20
24.9404112294606
 30
0.0
 11
29.0170510245505
 21
23.3233602049101
 31
0.0
  0
LINE
  5
7F0
330
1F
100
AcDbEntity
  8
2
  6
CONTINUOUS
370
25
 62
7
100
AcDbLine
 10
27.85590662271566
 20
24.90876867545687
 30
0.0
 11
29.37060441514378
 21
23.39407088302875
 31
0.0
  0
LINE
  5
7F1
330
1F
100
AcDbEntity
  8
2
  6
CONTINUOUS
370
25
 62
7
100
AcDbLine
 10
28.38623670860558
 20
24.80270265827888
 30
0.0
 11
29.72415780573705
 21
23.46478156114741
 31
0.0
  0
LINE
  5
7F2
330
1F
100
AcDbEntity
  8
2
  6
CONTINUOUS
370
25
 62
7
100
AcDbLine
 10
28.91656679449549
 20
24.6966366411009
 30
0.0
 11
30.07771119633033
 21
23.53549223926606
 31
0.0
  0
LINE
  5
7F3
330
1F
100
AcDbEntity
  8
2
  6
CONTINUOUS
370
25
 62
7
100
AcDbLine
 10
29.44689688038539
 20
24.59057062392292
 30
0.0
 11
30.4312645869236
 21
23.60620291738472
 31
0.0
  0
LINE
  5
7F4
330
1F
100
AcDbEntity
  8
2
  6
CONTINUOUS
370
25
 62
7
100
AcDbLine
 10
29.97722696627531
 20
24.48450460674494
 30
0.0
 11
30.78481797751687
 21
23.67691359550337
 31
0.0
  0
LINE
  5
7F5
330
1F
100
AcDbEntity
  8
2
  6
CONTINUOUS
370
25
 62
7
100
AcDbLine
 10
30.50755705216521
 20
24.37843858956695
 30
0.0
 11
31.13837136811014
 21
23.74762427362203
 31
0.0
  0
LINE
  5
7F6
330
1F
100
AcDbEntity
  8
2
  6
CONTINUOUS
370
25
 62
7
100
AcDbLine
 10
31.03788713805513
 20
24.27237257238897
 30
0.0
 11
31.49192475870342
 21
23.81833495174068
 31
0.0
  0
LINE
  5
7F7
330
1F
100
AcDbEntity
  8
2
  6
CONTINUOUS
370
25
 62
7
100
AcDbLine
 10
31.56821722394503
 20
24.16630655521099
 30
0.0
 11
31.84547814929669
 21
23.88904562985934
 31
0.0
  0
LINE
  5
7F8
330
1F
100
AcDbEntity
  8
2
  6
CONTINUOUS
370
25
 62
7
100
AcDbLine
 10
32.09854730983495
 20
24.06024053803301
 30
0.0
 11
32.19903153988997
 21
23.95975630797799
 31
0.0
  0
LINE
  5
7F9
330
1F
100
AcDbEntity
  8
2
  6
CONTINUOUS
370
25
 62
7
100
AcDbLine
 10
40.0
 20
23.99995
 30
0.0
 11
45.0
 21
24.99995
 31
0.0
  0
LINE
  5
7FA
330
1F
100
AcDbEntity
  8
2
  6
CONTINUOUS
370
25
 62
7
100
AcDbLine
 10
45.0
 20
24.99995
 30
0.0
 11
45.0
 21
22.99995
 31
0.0
  0
LINE
  5
7FB
330
1F
100
AcDbEntity
  8
2
  6
CONTINUOUS
370
25
 62
7
100
AcDbLine
 10
45.0
 20
22.99995
 30
0.0
 11
40.0
 21
23.99995
 31
0.0
  0
LINE
  5
7FC
330
1F
100
AcDbEntity
  8
2
  6
CONTINUOUS
370
25
 62
7
100
AcDbLine
 10
44.82779023516819
 20
23.03439195296636
 30
0.0
 11
45.0
 21
23.20660171779817
 31
0.0
  0
LINE
  5
7FD
330
1F
100
AcDbEntity
  8
2
  6
CONTINUOUS
370
25
 62
7
100
AcDbLine
 10
44.47423684457492
 20
23.10510263108502
 30
0.0
 11
45.0
 21
23.6308657865101
 31
0.0
  0
LINE
  5
7FE
330
1F
100
AcDbEntity
  8
2
  6
CONTINUOUS
370
25
 62
7
100
AcDbLine
 10
44.12068345398165
 20
23.17581330920367
 30
0.0
 11
45.0
 21
24.05512985522202
 31
0.0
  0
LINE
  5
7FF
330
1F
100
AcDbEntity
  8
2
  6
CONTINUOUS
370
25
 62
7
100
AcDbLine
 10
43.76713006338837
 20
23.24652398732232
 30
0.0
 11
45.0
 21
24.47939392393395
 31
0.0
  0
LINE
  5
800
330
1F
100
AcDbEntity
  8
2
  6
CONTINUOUS
370
25
 62
7
100
AcDbLine
 10
43.4135766727951
 20
23.31723466544098
 30
0.0
 11
45.0
 21
24.90365799264588
 31
0.0
  0
LINE
  5
801
330
1F
100
AcDbEntity
  8
2
  6
CONTINUOUS
370
25
 62
7
100
AcDbLine
 10
43.06002328220183
 20
23.38794534355963
 30
0.0
 11
44.59003492330274
 21
24.91795698466055
 31
0.0
  0
LINE
  5
802
330
1F
100
AcDbEntity
  8
2
  6
CONTINUOUS
370
25
 62
7
100
AcDbLine
 10
42.70646989160856
 20
23.45865602167829
 30
0.0
 11
44.05970483741283
 21
24.81189096748256
 31
0.0
  0
LINE
  5
803
330
1F
100
AcDbEntity
  8
2
  6
CONTINUOUS
370
25
 62
7
100
AcDbLine
 10
42.35291650101528
 20
23.52936669979694
 30
0.0
 11
43.52937475152292
 21
24.70582495030458
 31
0.0
  0
LINE
  5
804
330
1F
100
AcDbEntity
  8
2
  6
CONTINUOUS
370
25
 62
7
100
AcDbLine
 10
41.99936311042201
 20
23.6000773779156
 30
0.0
 11
42.99904466563301
 21
24.5997589331266
 31
0.0
  0
LINE
  5
805
330
1F
100
AcDbEntity
  8
2
  6
CONTINUOUS
370
25
 62
7
100
AcDbLine
 10
41.64580971982873
 20
23.67078805603425
 30
0.0
 11
42.46871457974311
 21
24.49369291594862
 31
0.0
  0
LINE
  5
806
330
1F
100
AcDbEntity
  8
2
  6
CONTINUOUS
370
25
 62
7
100
AcDbLine
 10
41.29225632923546
 20
23.74149873415291
 30
0.0
 11
41.93838449385319
 21
24.38762689877064
 31
0.0
  0
LINE
  5
807
330
1F
100
AcDbEntity
  8
2
  6
CONTINUOUS
370
25
 62
7
100
AcDbLine
 10
40.93870293864219
 20
23.81220941227156
 30
0.0
 11
41.40805440796328
 21
24.28156088159265
 31
0.0
  0
LINE
  5
808
330
1F
100
AcDbEntity
  8
2
  6
CONTINUOUS
370
25
 62
7
100
AcDbLine
 10
40.58514954804892
 20
23.88292009039021
 30
0.0
 11
40.87772432207338
 21
24.17549486441467
 31
0.0
  0
LINE
  5
809
330
1F
100
AcDbEntity
  8
2
  6
CONTINUOUS
370
25
 62
7
100
AcDbLine
 10
40.23159615745564
 20
23.95363076850887
 30
0.0
 11
40.34739423618346
 21
24.06942884723669
 31
0.0
  0
LINE
  5
80A
330
1F
100
AcDbEntity
  8
2
  6
CONTINUOUS
370
25
 62
7
100
AcDbLine
 10
40.18321262782884
 20
24.03659252556577
 30
0.0
 11
40.27481894174327
 21
23.94498621165134
 31
0.0
  0
LINE
  5
80B
330
1F
100
AcDbEntity
  8
2
  6
CONTINUOUS
370
25
 62
7
100
AcDbLine
 10
40.53676601842211
 20
24.10730320368442
 30
0.0
 11
40.80514902763318
 21
23.83892019447336
 31
0.0
  0
LINE
  5
80C
330
1F
100
AcDbEntity
  8
2
  6
CONTINUOUS
370
25
 62
7
100
AcDbLine
 10
40.89031940901539
 20
24.17801388180307
 30
0.0
 11
41.33547911352309
 21
23.73285417729538
 31
0.0
  0
LINE
  5
80D
330
1F
100
AcDbEntity
  8
2
  6
CONTINUOUS
370
25
 62
7
100
AcDbLine
 10
41.24387279960867
 20
24.24872455992173
 30
0.0
 11
41.865809199413
 21
23.6267881601174
 31
0.0
  0
LINE
  5
80E
330
1F
100
AcDbEntity
  8
2
  6
CONTINUOUS
370
25
 62
7
100
AcDbLine
 10
41.59742619020194
 20
24.31943523804038
 30
0.0
 11
42.39613928530291
 21
23.52072214293942
 31
0.0
  0
LINE
  5
80F
330
1F
100
AcDbEntity
  8
2
  6
CONTINUOUS
370
25
 62
7
100
AcDbLine
 10
41.95097958079521
 20
24.39014591615904
 30
0.0
 11
42.92646937119282
 21
23.41465612576144
 31
0.0
  0
LINE
  5
810
330
1F
100
AcDbEntity
  8
2
  6
CONTINUOUS
370
25
 62
7
100
AcDbLine
 10
42.30453297138848
 20
24.46085659427769
 30
0.0
 11
43.45679945708273
 21
23.30859010858345
 31
0.0
  0
LINE
  5
811
330
1F
100
AcDbEntity
  8
2
  6
CONTINUOUS
370
25
 62
7
100
AcDbLine
 10
42.65808636198176
 20
24.53156727239635
 30
0.0
 11
43.98712954297264
 21
23.20252409140547
 31
0.0
  0
LINE
  5
812
330
1F
100
AcDbEntity
  8
2
  6
CONTINUOUS
370
25
 62
7
100
AcDbLine
 10
43.01163975257503
 20
24.60227795051501
 30
0.0
 11
44.51745962886255
 21
23.09645807422749
 31
0.0
  0
LINE
  5
813
330
1F
100
AcDbEntity
  8
2
  6
CONTINUOUS
370
25
 62
7
100
AcDbLine
 10
43.36519314316831
 20
24.67298862863366
 30
0.0
 11
45.0
 21
23.03818177180197
 31
0.0
  0
LINE
  5
814
330
1F
100
AcDbEntity
  8
2
  6
CONTINUOUS
370
25
 62
7
100
AcDbLine
 10
43.71874653376157
 20
24.74369930675231
 30
0.0
 11
45.0
 21
23.46244584051389
 31
0.0
  0
LINE
  5
815
330
1F
100
AcDbEntity
  8
2
  6
CONTINUOUS
370
25
 62
7
100
AcDbLine
 10
44.07229992435485
 20
24.81440998487097
 30
0.0
 11
45.0
 21
23.88670990922582
 31
0.0
  0
LINE
  5
816
330
1F
100
AcDbEntity
  8
2
  6
CONTINUOUS
370
25
 62
7
100
AcDbLine
 10
44.42585331494813
 20
24.88512066298962
 30
0.0
 11
45.0
 21
24.31097397793775
 31
0.0
  0
LINE
  5
817
330
1F
100
AcDbEntity
  8
2
  6
CONTINUOUS
370
25
 62
7
100
AcDbLine
 10
44.7794067055414
 20
24.95583134110828
 30
0.0
 11
45.0
 21
24.73523804664968
 31
0.0
  0
TEXT
  5
818
330
1F
100
AcDbEntity
  8
2
  6
CONTINUOUS
370
25
 62
7
100
AcDbText
 10
46.9625
 20
25.49995
 30
0.0
 40
3.5
  1
7.6
 72
     1
 11
50.4625
 21
25.49995
 31
0.0
100
AcDbText
  0
LINE
  5
819
330
1F
100
AcDbEntity
  8
SK2
  6
CONTINUOUS
370
25
 62
7
100
AcDbLine
 10
0.0
 20
-0.0000500000000001
 30
0.0
 11
0.0
 21
34.99995
 31
0.0
  0
LINE
  5
81A
330
1F
100
AcDbEntity
  8
SK2
  6
CONTINUOUS
370
25
 62
7
100
AcDbLine
 10
40.0
 20
34.99995
 30
0.0
 11
40.0
 21
0.0499999999999972
 31
0.0
  0
LINE
  5
81B
330
1F
100
AcDbEntity
  8
SK2
  6
CONTINUOUS
370
25
 62
7
100
AcDbLine
 10
0.0
 20
33.99995
 30
0.0
 11
40.0
 21
33.99995
 31
0.0
  0
LINE
  5
81C
330
1F
100
AcDbEntity
  8
SK2
  6
CONTINUOUS
370
25
 62
7
100
AcDbLine
 10
0.0
 20
33.99995
 30
0.0
 11
5.0
 21
34.99995
 31
0.0
  0
LINE
  5
81D
330
1F
100
AcDbEntity
  8
SK2
  6
CONTINUOUS
370
25
 62
7
100
AcDbLine
 10
5.0
 20
34.99995
 30
0.0
 11
5.0
 21
32.99995
 31
0.0
  0
LINE
  5
81E
330
1F
100
AcDbEntity
  8
SK2
  6
CONTINUOUS
370
25
 62
7
100
AcDbLine
 10
5.0
 20
32.99995
 30
0.0
 11
0.0
 21
33.99995
 31
0.0
  0
LINE
  5
81F
330
1F
100
AcDbEntity
  8
SK2
  6
CONTINUOUS
370
25
 62
7
100
AcDbLine
 10
4.775156811828509
 20
33.0449186376343
 30
0.0
 11
5.0
 21
33.26976182580579
 31
0.0
  0
LINE
  5
820
330
1F
100
AcDbEntity
  8
SK2
  6
CONTINUOUS
370
25
 62
7
100
AcDbLine
 10
4.421603421235233
 20
33.11562931575295
 30
0.0
 11
5.0
 21
33.69402589451771
 31
0.0
  0
LINE
  5
821
330
1F
100
AcDbEntity
  8
SK2
  6
CONTINUOUS
370
25
 62
7
100
AcDbLine
 10
4.068050030641952
 20
33.1863399938716
 30
0.0
 11
5.0
 21
34.11828996322965
 31
0.0
  0
LINE
  5
822
330
1F
100
AcDbEntity
  8
SK2
  6
CONTINUOUS
370
25
 62
7
100
AcDbLine
 10
3.714496640048672
 20
33.25705067199026
 30
0.0
 11
5.0
 21
34.54255403194158
 31
0.0
  0
LINE
  5
823
330
1F
100
AcDbEntity
  8
SK2
  6
CONTINUOUS
370
25
 62
7
100
AcDbLine
 10
3.360943249455406
 20
33.32776135010891
 30
0.0
 11
5.0
 21
34.96681810065351
 31
0.0
  0
LINE
  5
824
330
1F
100
AcDbEntity
  8
SK2
  6
CONTINUOUS
370
25
 62
7
100
AcDbLine
 10
3.007389858862126
 20
33.39847202822757
 30
0.0
 11
4.511084788293203
 21
34.90216695765864
 31
0.0
  0
LINE
  5
825
330
1F
100
AcDbEntity
  8
SK2
  6
CONTINUOUS
370
25
 62
7
100
AcDbLine
 10
2.65383646826885
 20
33.46918270634622
 30
0.0
 11
3.980754702403285
 21
34.79610094048066
 31
0.0
  0
LINE
  5
826
330
1F
100
AcDbEntity
  8
SK2
  6
CONTINUOUS
370
25
 62
7
100
AcDbLine
 10
2.300283077675569
 20
33.53989338446488
 30
0.0
 11
3.450424616513367
 21
34.69003492330268
 31
0.0
  0
LINE
  5
827
330
1F
100
AcDbEntity
  8
SK2
  6
CONTINUOUS
370
25
 62
7
100
AcDbLine
 10
1.946729687082303
 20
33.61060406258353
 30
0.0
 11
2.920094530623466
 21
34.5839689061247
 31
0.0
  0
LINE
  5
828
330
1F
100
AcDbEntity
  8
SK2
  6
CONTINUOUS
370
25
 62
7
100
AcDbLine
 10
1.593176296489023
 20
33.68131474070219
 30
0.0
 11
2.389764444733547
 21
34.47790288894672
 31
0.0
  0
LINE
  5
829
330
1F
100
AcDbEntity
  8
SK2
  6
CONTINUOUS
370
25
 62
7
100
AcDbLine
 10
1.239622905895743
 20
33.75202541882084
 30
0.0
 11
1.859434358843629
 21
34.37183687176873
 31
0.0
  0
LINE
  5
82A
330
1F
100
AcDbEntity
  8
SK2
  6
CONTINUOUS
370
25
 62
7
100
AcDbLine
 10
0.8860695153024665
 20
33.8227360969395
 30
0.0
 11
1.32910427295371
 21
34.26577085459074
 31
0.0
  0
LINE
  5
82B
330
1F
100
AcDbEntity
  8
SK2
  6
CONTINUOUS
370
25
 62
7
100
AcDbLine
 10
0.5325161247091863
 20
33.89344677505815
 30
0.0
 11
0.7987741870637919
 21
34.15970483741276
 31
0.0
  0
LINE
  5
82C
330
1F
100
AcDbEntity
  8
SK2
  6
CONTINUOUS
370
25
 62
7
100
AcDbLine
 10
0.1789627341159203
 20
33.96415745317681
 30
0.0
 11
0.2684441011738912
 21
34.05363882023478
 31
0.0
  0
LINE
  5
82D
330
1F
100
AcDbEntity
  8
SK2
  6
CONTINUOUS
370
25
 62
7
100
AcDbLine
 10
0.2865965690593413
 20
34.05726931381187
 30
0.0
 11
0.4298948535890226
 21
33.91397102928219
 31
0.0
  0
LINE
  5
82E
330
1F
100
AcDbEntity
  8
SK2
  6
CONTINUOUS
370
25
 62
7
100
AcDbLine
 10
0.6401499596526179
 20
34.12797999193053
 30
0.0
 11
0.9602249394789375
 21
33.80790501210421
 31
0.0
  0
LINE
  5
82F
330
1F
100
AcDbEntity
  8
SK2
  6
CONTINUOUS
370
25
 62
7
100
AcDbLine
 10
0.9937033502458981
 20
34.19869067004918
 30
0.0
 11
1.490555025368852
 21
33.70183899492622
 31
0.0
  0
LINE
  5
830
330
1F
100
AcDbEntity
  8
SK2
  6
CONTINUOUS
370
25
 62
7
100
AcDbLine
 10
1.347256740839175
 20
34.26940134816783
 30
0.0
 11
2.020885111258764
 21
33.59577297774824
 31
0.0
  0
LINE
  5
831
330
1F
100
AcDbEntity
  8
SK2
  6
CONTINUOUS
370
25
 62
7
100
AcDbLine
 10
1.700810131432451
 20
34.34011202628649
 30
0.0
 11
2.551215197148679
 21
33.48970696057026
 31
0.0
  0
LINE
  5
832
330
1F
100
AcDbEntity
  8
SK2
  6
CONTINUOUS
370
25
 62
7
100
AcDbLine
 10
2.054363522025721
 20
34.41082270440515
 30
0.0
 11
3.081545283038579
 21
33.38364094339228
 31
0.0
  0
LINE
  5
833
330
1F
100
AcDbEntity
  8
SK2
  6
CONTINUOUS
370
25
 62
7
100
AcDbLine
 10
2.407916912618997
 20
34.4815333825238
 30
0.0
 11
3.611875368928491
 21
33.2775749262143
 31
0.0
  0
LINE
  5
834
330
1F
100
AcDbEntity
  8
SK2
  6
CONTINUOUS
370
25
 62
7
100
AcDbLine
 10
2.76147030321227
 20
34.55224406064246
 30
0.0
 11
4.142205454818399
 21
33.17150890903632
 31
0.0
  0
LINE
  5
835
330
1F
100
AcDbEntity
  8
SK2
  6
CONTINUOUS
370
25
 62
7
100
AcDbLine
 10
3.115023693805547
 20
34.62295473876111
 30
0.0
 11
4.67253554070831
 21
33.06544289185834
 31
0.0
  0
LINE
  5
836
330
1F
100
AcDbEntity
  8
SK2
  6
CONTINUOUS
370
25
 62
7
100
AcDbLine
 10
3.468577084398827
 20
34.69366541687977
 30
0.0
 11
5.0
 21
33.16224250127858
 31
0.0
  0
LINE
  5
837
330
1F
100
AcDbEntity
  8
SK2
  6
CONTINUOUS
370
25
 62
7
100
AcDbLine
 10
3.8221304749921
 20
34.76437609499843
 30
0.0
 11
5.0
 21
33.58650656999051
 31
0.0
  0
LINE
  5
838
330
1F
100
AcDbEntity
  8
SK2
  6
CONTINUOUS
370
25
 62
7
100
AcDbLine
 10
4.175683865585373
 20
34.83508677311708
 30
0.0
 11
5.0
 21
34.01077063870244
 31
0.0
  0
LINE
  5
839
330
1F
100
AcDbEntity
  8
SK2
  6
CONTINUOUS
370
25
 62
7
100
AcDbLine
 10
4.529237256178646
 20
34.90579745123573
 30
0.0
 11
5.0
 21
34.43503470741437
 31
0.0
  0
LINE
  5
83A
330
1F
100
AcDbEntity
  8
SK2
  6
CONTINUOUS
370
25
 62
7
100
AcDbLine
 10
4.882790646771916
 20
34.97650812935439
 30
0.0
 11
5.0
 21
34.8592987761263
 31
0.0
  0
LINE
  5
83B
330
1F
100
AcDbEntity
  8
SK2
  6
CONTINUOUS
370
25
 62
7
100
AcDbLine
 10
40.0
 20
33.99995
 30
0.0
 11
35.0
 21
32.99995
 31
0.0
  0
LINE
  5
83C
330
1F
100
AcDbEntity
  8
SK2
  6
CONTINUOUS
370
25
 62
7
100
AcDbLine
 10
35.0
 20
32.99995
 30
0.0
 11
35.0
 21
34.99995
 31
0.0
  0
LINE
  5
83D
330
1F
100
AcDbEntity
  8
SK2
  6
CONTINUOUS
370
25
 62
7
100
AcDbLine
 10
35.0
 20
34.99995
 30
0.0
 11
40.0
 21
33.99995
 31
0.0
  0
LINE
  5
83E
330
1F
100
AcDbEntity
  8
SK2
  6
CONTINUOUS
370
25
 62
7
100
AcDbLine
 10
39.58914208893567
 20
33.91777841778713
 30
0.0
 11
39.72609472595712
 21
34.05473105480858
 31
0.0
  0
LINE
  5
83F
330
1F
100
AcDbEntity
  8
SK2
  6
CONTINUOUS
370
25
 62
7
100
AcDbLine
 10
39.05881200304576
 20
33.81171240060915
 30
0.0
 11
39.37254133536384
 21
34.12544173292723
 31
0.0
  0
LINE
  5
840
330
1F
100
AcDbEntity
  8
SK2
  6
CONTINUOUS
370
25
 62
7
100
AcDbLine
 10
38.52848191715584
 20
33.70564638343117
 30
0.0
 11
39.01898794477056
 21
34.19615241104589
 31
0.0
  0
LINE
  5
841
330
1F
100
AcDbEntity
  8
SK2
  6
CONTINUOUS
370
25
 62
7
100
AcDbLine
 10
37.99815183126594
 20
33.59958036625318
 30
0.0
 11
38.6654345541773
 21
34.26686308916454
 31
0.0
  0
LINE
  5
842
330
1F
100
AcDbEntity
  8
SK2
  6
CONTINUOUS
370
25
 62
7
100
AcDbLine
 10
37.46782174537603
 20
33.4935143490752
 30
0.0
 11
38.31188116358402
 21
34.3375737672832
 31
0.0
  0
LINE
  5
843
330
1F
100
AcDbEntity
  8
SK2
  6
CONTINUOUS
370
25
 62
7
100
AcDbLine
 10
36.93749165948611
 20
33.38744833189722
 30
0.0
 11
37.95832777299074
 21
34.40828444540185
 31
0.0
  0
LINE
  5
844
330
1F
100
AcDbEntity
  8
SK2
  6
CONTINUOUS
370
25
 62
7
100
AcDbLine
 10
36.4071615735962
 20
33.28138231471924
 30
0.0
 11
37.60477438239747
 21
34.47899512352051
 31
0.0
  0
LINE
  5
845
330
1F
100
AcDbEntity
  8
SK2
  6
CONTINUOUS
370
25
 62
7
100
AcDbLine
 10
35.87683148770629
 20
33.17531629754125
 30
0.0
 11
37.2512209918042
 21
34.54970580163916
 31
0.0
  0
LINE
  5
846
330
1F
100
AcDbEntity
  8
SK2
  6
CONTINUOUS
370
25
 62
7
100
AcDbLine
 10
35.34650140181638
 20
33.06925028036327
 30
0.0
 11
36.89766760121092
 21
34.62041647975781
 31
0.0
  0
LINE
  5
847
330
1F
100
AcDbEntity
  8
SK2
  6
CONTINUOUS
370
25
 62
7
100
AcDbLine
 10
35.0
 20
33.14701294725882
 30
0.0
 11
36.54411421061765
 21
34.69112715787647
 31
0.0
  0
LINE
  5
848
330
1F
100
AcDbEntity
  8
SK2
  6
CONTINUOUS
370
25
 62
7
100
AcDbLine
 10
35.0
 20
33.57127701597074
 30
0.0
 11
36.19056082002437
 21
34.76183783599512
 31
0.0
  0
LINE
  5
849
330
1F
100
AcDbEntity
  8
SK2
  6
CONTINUOUS
370
25
 62
7
100
AcDbLine
 10
35.0
 20
33.99554108468268
 30
0.0
 11
35.8370074294311
 21
34.83254851411378
 31
0.0
  0
LINE
  5
84A
330
1F
100
AcDbEntity
  8
SK2
  6
CONTINUOUS
370
25
 62
7
100
AcDbLine
 10
35.0
 20
34.41980515339461
 30
0.0
 11
35.48345403883783
 21
34.90325919223244
 31
0.0
  0
LINE
  5
84B
330
1F
100
AcDbEntity
  8
SK2
  6
CONTINUOUS
370
25
 62
7
100
AcDbLine
 10
35.0
 20
34.84406922210653
 30
0.0
 11
35.12990064824456
 21
34.97396987035109
 31
0.0
  0
LINE
  5
84C
330
1F
100
AcDbEntity
  8
SK2
  6
CONTINUOUS
370
25
 62
7
100
AcDbLine
 10
35.0
 20
33.03818177180196
 30
0.0
 11
35.03185980983497
 21
33.00632196196699
 31
0.0
  0
LINE
  5
84D
330
1F
100
AcDbEntity
  8
SK2
  6
CONTINUOUS
370
25
 62
7
100
AcDbLine
 10
35.0
 20
33.46244584051389
 30
0.0
 11
35.38541320042825
 21
33.07703264008565
 31
0.0
  0
LINE
  5
84E
330
1F
100
AcDbEntity
  8
SK2
  6
CONTINUOUS
370
25
 62
7
100
AcDbLine
 10
35.0
 20
33.88670990922582
 30
0.0
 11
35.73896659102152
 21
33.1477433182043
 31
0.0
  0
LINE
  5
84F
330
1F
100
AcDbEntity
  8
SK2
  6
CONTINUOUS
370
25
 62
7
100
AcDbLine
 10
35.0
 20
34.31097397793775
 30
0.0
 11
36.0925199816148
 21
33.21845399632296
 31
0.0
  0
LINE
  5
850
330
1F
100
AcDbEntity
  8
SK2
  6
CONTINUOUS
370
25
 62
7
100
AcDbLine
 10
35.0
 20
34.73523804664968
 30
0.0
 11
36.44607337220807
 21
33.28916467444161
 31
0.0
  0
LINE
  5
851
330
1F
100
AcDbEntity
  8
SK2
  6
CONTINUOUS
370
25
 62
7
100
AcDbLine
 10
35.19944014420201
 20
34.9600619711596
 30
0.0
 11
36.79962676280135
 21
33.35987535256027
 31
0.0
  0
LINE
  5
852
330
1F
100
AcDbEntity
  8
SK2
  6
CONTINUOUS
370
25
 62
7
100
AcDbLine
 10
35.72977023009192
 20
34.85399595398162
 30
0.0
 11
37.15318015339462
 21
33.43058603067892
 31
0.0
  0
LINE
  5
853
330
1F
100
AcDbEntity
  8
SK2
  6
CONTINUOUS
370
25
 62
7
100
AcDbLine
 10
36.26010031598184
 20
34.74792993680364
 30
0.0
 11
37.50673354398789
 21
33.50129670879758
 31
0.0
  0
LINE
  5
854
330
1F
100
AcDbEntity
  8
SK2
  6
CONTINUOUS
370
25
 62
7
100
AcDbLine
 10
36.79043040187175
 20
34.64186391962565
 30
0.0
 11
37.86028693458117
 21
33.57200738691623
 31
0.0
  0
LINE
  5
855
330
1F
100
AcDbEntity
  8
SK2
  6
CONTINUOUS
370
25
 62
7
100
AcDbLine
 10
37.32076048776165
 20
34.53579790244767
 30
0.0
 11
38.21384032517444
 21
33.64271806503488
 31
0.0
  0
LINE
  5
856
330
1F
100
AcDbEntity
  8
SK2
  6
CONTINUOUS
370
25
 62
7
100
AcDbLine
 10
37.85109057365157
 20
34.42973188526969
 30
0.0
 11
38.56739371576771
 21
33.71342874315354
 31
0.0
  0
LINE
  5
857
330
1F
100
AcDbEntity
  8
SK2
  6
CONTINUOUS
370
25
 62
7
100
AcDbLine
 10
38.38142065954148
 20
34.32366586809171
 30
0.0
 11
38.92094710636099
 21
33.78413942127219
 31
0.0
  0
LINE
  5
858
330
1F
100
AcDbEntity
  8
SK2
  6
CONTINUOUS
370
25
 62
7
100
AcDbLine
 10
38.91175074543138
 20
34.21759985091373
 30
0.0
 11
39.27450049695426
 21
33.85485009939084
 31
0.0
  0
LINE
  5
859
330
1F
100
AcDbEntity
  8
SK2
  6
CONTINUOUS
370
25
 62
7
100
AcDbLine
 10
39.44208083132129
 20
34.11153383373574
 30
0.0
 11
39.62805388754754
 21
33.9255607775095
 31
0.0
  0
LINE
  5
85A
330
1F
100
AcDbEntity
  8
SK2
  6
CONTINUOUS
370
25
 62
7
100
AcDbLine
 10
39.97241091721121
 20
34.00546781655776
 30
0.0
 11
39.98160727814081
 21
33.99627145562815
 31
0.0
  0
TEXT
  5
85B
330
1F
100
AcDbEntity
  8
SK2
  6
CONTINUOUS
370
25
 62
7
100
AcDbText
 10
17.375
 20
35.49995
 30
0.0
 40
3.5
  1
40
 72
     1
 11
20.0
 21
35.49995
 31
0.0
100
AcDbText
  0
LINE
  5
85C
330
1F
100
AcDbEntity
  8
2
  6
CONTINUOUS
370
25
 62
7
100
AcDbLine
 10
39.6
 20
-0.04995
 30
0.0
 11
39.59999999999999
 21
-23.05
 31
0.0
  0
LINE
  5
85D
330
1F
100
AcDbEntity
  8
2
  6
CONTINUOUS
370
25
 62
7
100
AcDbLine
 10
40.0
 20
-23.05
 30
0.0
 11
40.0
 21
-0.0500000000000007
 31
0.0
  0
LINE
  5
85E
330
1F
100
AcDbEntity
  8
2
  6
CONTINUOUS
370
25
 62
7
100
AcDbLine
 10
32.59999999999999
 20
-22.05
 30
0.0
 11
55.925
 21
-22.05
 31
0.0
  0
LINE
  5
85F
330
1F
100
AcDbEntity
  8
2
  6
CONTINUOUS
370
25
 62
7
100
AcDbLine
 10
39.59999999999999
 20
-22.05
 30
0.0
 11
34.59999999999999
 21
-23.05
 31
0.0
  0
LINE
  5
860
330
1F
100
AcDbEntity
  8
2
  6
CONTINUOUS
370
25
 62
7
100
AcDbLine
 10
34.59999999999999
 20
-23.05
 30
0.0
 11
34.59999999999999
 21
-21.05
 31
0.0
  0
LINE
  5
861
330
1F
100
AcDbEntity
  8
2
  6
CONTINUOUS
370
25
 62
7
100
AcDbLine
 10
34.59999999999999
 20
-21.05
 30
0.0
 11
39.59999999999999
 21
-22.05
 31
0.0
  0
LINE
  5
862
330
1F
100
AcDbEntity
  8
2
  6
CONTINUOUS
370
25
 62
7
100
AcDbLine
 10
39.54877646233768
 20
-22.06024470753247
 30
0.0
 11
39.56585097489179
 21
-22.04317019497836
 31
0.0
  0
LINE
  5
863
330
1F
100
AcDbEntity
  8
2
  6
CONTINUOUS
370
25
 62
7
100
AcDbLine
 10
39.01844637644777
 20
-22.16631072471045
 30
0.0
 11
39.21229758429851
 21
-21.9724595168597
 31
0.0
  0
LINE
  5
864
330
1F
100
AcDbEntity
  8
2
  6
CONTINUOUS
370
25
 62
7
100
AcDbLine
 10
38.48811629055785
 20
-22.27237674188843
 30
0.0
 11
38.85874419370523
 21
-21.90174883874105
 31
0.0
  0
LINE
  5
865
330
1F
100
AcDbEntity
  8
2
  6
CONTINUOUS
370
25
 62
7
100
AcDbLine
 10
37.95778620466795
 20
-22.37844275906641
 30
0.0
 11
38.50519080311197
 21
-21.83103816062239
 31
0.0
  0
LINE
  5
866
330
1F
100
AcDbEntity
  8
2
  6
CONTINUOUS
370
25
 62
7
100
AcDbLine
 10
37.42745611877804
 20
-22.48450877624439
 30
0.0
 11
38.1516374125187
 21
-21.76032748250374
 31
0.0
  0
LINE
  5
867
330
1F
100
AcDbEntity
  8
2
  6
CONTINUOUS
370
25
 62
7
100
AcDbLine
 10
36.89712603288812
 20
-22.59057479342238
 30
0.0
 11
37.79808402192542
 21
-21.68961680438508
 31
0.0
  0
LINE
  5
868
330
1F
100
AcDbEntity
  8
2
  6
CONTINUOUS
370
25
 62
7
100
AcDbLine
 10
36.36679594699822
 20
-22.69664081060036
 30
0.0
 11
37.44453063133215
 21
-21.61890612626643
 31
0.0
  0
LINE
  5
869
330
1F
100
AcDbEntity
  8
2
  6
CONTINUOUS
370
25
 62
7
100
AcDbLine
 10
35.8364658611083
 20
-22.80270682777834
 30
0.0
 11
37.09097724073887
 21
-21.54819544814777
 31
0.0
  0
LINE
  5
86A
330
1F
100
AcDbEntity
  8
2
  6
CONTINUOUS
370
25
 62
7
100
AcDbLine
 10
35.30613577521839
 20
-22.90877284495632
 30
0.0
 11
36.7374238501456
 21
-21.47748477002912
 31
0.0
  0
LINE
  5
86B
330
1F
100
AcDbEntity
  8
2
  6
CONTINUOUS
370
25
 62
7
100
AcDbLine
 10
34.77580568932849
 20
-23.0148388621343
 30
0.0
 11
36.38387045955233
 21
-21.40677409191046
 31
0.0
  0
LINE
  5
86C
330
1F
100
AcDbEntity
  8
2
  6
CONTINUOUS
370
25
 62
7
100
AcDbLine
 10
34.59999999999999
 20
-22.76638048275086
 30
0.0
 11
36.03031706895905
 21
-21.33606341379181
 31
0.0
  0
LINE
  5
86D
330
1F
100
AcDbEntity
  8
2
  6
CONTINUOUS
370
25
 62
7
100
AcDbLine
 10
34.59999999999999
 20
-22.34211641403894
 30
0.0
 11
35.67676367836578
 21
-21.26535273567315
 31
0.0
  0
LINE
  5
86E
330
1F
100
AcDbEntity
  8
2
  6
CONTINUOUS
370
25
 62
7
100
AcDbLine
 10
34.59999999999999
 20
-21.91785234532701
 30
0.0
 11
35.3232102877725
 21
-21.1946420575545
 31
0.0
  0
LINE
  5
86F
330
1F
100
AcDbEntity
  8
2
  6
CONTINUOUS
370
25
 62
7
100
AcDbLine
 10
34.59999999999999
 20
-21.49358827661508
 30
0.0
 11
34.96965689717923
 21
-21.12393137943585
 31
0.0
  0
LINE
  5
870
330
1F
100
AcDbEntity
  8
2
  6
CONTINUOUS
370
25
 62
7
100
AcDbLine
 10
34.59999999999999
 20
-21.06932420790315
 30
0.0
 11
34.61610350658596
 21
-21.05322070131719
 31
0.0
  0
LINE
  5
871
330
1F
100
AcDbEntity
  8
2
  6
CONTINUOUS
370
25
 62
7
100
AcDbLine
 10
34.59999999999999
 20
-22.79135881895645
 30
0.0
 11
34.8155343175363
 21
-23.00689313649274
 31
0.0
  0
LINE
  5
872
330
1F
100
AcDbEntity
  8
2
  6
CONTINUOUS
370
25
 62
7
100
AcDbLine
 10
34.59999999999999
 20
-22.36709475024452
 30
0.0
 11
35.16908770812957
 21
-22.93618245837409
 31
0.0
  0
LINE
  5
873
330
1F
100
AcDbEntity
  8
2
  6
CONTINUOUS
370
25
 62
7
100
AcDbLine
 10
34.59999999999999
 20
-21.94283068153259
 30
0.0
 11
35.52264109872284
 21
-22.86547178025543
 31
0.0
  0
LINE
  5
874
330
1F
100
AcDbEntity
  8
2
  6
CONTINUOUS
370
25
 62
7
100
AcDbLine
 10
34.59999999999999
 20
-21.51856661282066
 30
0.0
 11
35.87619448931611
 21
-22.79476110213678
 31
0.0
  0
LINE
  5
875
330
1F
100
AcDbEntity
  8
2
  6
CONTINUOUS
370
25
 62
7
100
AcDbLine
 10
34.59999999999999
 20
-21.09430254410874
 30
0.0
 11
36.22974787990939
 21
-22.72405042401812
 31
0.0
  0
LINE
  5
876
330
1F
100
AcDbEntity
  8
2
  6
CONTINUOUS
370
25
 62
7
100
AcDbLine
 10
35.07495190575398
 20
-21.1449903811508
 30
0.0
 11
36.58330127050266
 21
-22.65333974589947
 31
0.0
  0
LINE
  5
877
330
1F
100
AcDbEntity
  8
2
  6
CONTINUOUS
370
25
 62
7
100
AcDbLine
 10
35.6052819916439
 20
-21.25105639832878
 30
0.0
 11
36.93685466109594
 21
-22.58262906778081
 31
0.0
  0
LINE
  5
878
330
1F
100
AcDbEntity
  8
2
  6
CONTINUOUS
370
25
 62
7
100
AcDbLine
 10
36.13561207753381
 20
-21.35712241550676
 30
0.0
 11
37.29040805168921
 21
-22.51191838966216
 31
0.0
  0
LINE
  5
879
330
1F
100
AcDbEntity
  8
2
  6
CONTINUOUS
370
25
 62
7
100
AcDbLine
 10
36.66594216342371
 20
-21.46318843268474
 30
0.0
 11
37.64396144228248
 21
-22.44120771154351
 31
0.0
  0
LINE
  5
87A
330
1F
100
AcDbEntity
  8
2
  6
CONTINUOUS
370
25
 62
7
100
AcDbLine
 10
37.19627224931363
 20
-21.56925444986273
 30
0.0
 11
37.99751483287575
 21
-22.37049703342485
 31
0.0
  0
LINE
  5
87B
330
1F
100
AcDbEntity
  8
2
  6
CONTINUOUS
370
25
 62
7
100
AcDbLine
 10
37.72660233520354
 20
-21.67532046704071
 30
0.0
 11
38.35106822346903
 21
-22.2997863553062
 31
0.0
  0
LINE
  5
87C
330
1F
100
AcDbEntity
  8
2
  6
CONTINUOUS
370
25
 62
7
100
AcDbLine
 10
38.25693242109345
 20
-21.78138648421869
 30
0.0
 11
38.7046216140623
 21
-22.22907567718754
 31
0.0
  0
LINE
  5
87D
330
1F
100
AcDbEntity
  8
2
  6
CONTINUOUS
370
25
 62
7
100
AcDbLine
 10
38.78726250698336
 20
-21.88745250139667
 30
0.0
 11
39.05817500465557
 21
-22.15836499906889
 31
0.0
  0
LINE
  5
87E
330
1F
100
AcDbEntity
  8
2
  6
CONTINUOUS
370
25
 62
7
100
AcDbLine
 10
39.31759259287327
 20
-21.99351851857465
 30
0.0
 11
39.41172839524884
 21
-22.08765432095023
 31
0.0
  0
LINE
  5
87F
330
1F
100
AcDbEntity
  8
2
  6
CONTINUOUS
370
25
 62
7
100
AcDbLine
 10
40.0
 20
-22.05
 30
0.0
 11
45.0
 21
-21.05
 31
0.0
  0
LINE
  5
880
330
1F
100
AcDbEntity
  8
2
  6
CONTINUOUS
370
25
 62
7
100
AcDbLine
 10
45.0
 20
-21.05
 30
0.0
 11
45.0
 21
-23.05
 31
0.0
  0
LINE
  5
881
330
1F
100
AcDbEntity
  8
2
  6
CONTINUOUS
370
25
 62
7
100
AcDbLine
 10
45.0
 20
-23.05
 30
0.0
 11
40.0
 21
-22.05
 31
0.0
  0
LINE
  5
882
330
1F
100
AcDbEntity
  8
2
  6
CONTINUOUS
370
25
 62
7
100
AcDbLine
 10
44.74343034503243
 20
-22.99868606900649
 30
0.0
 11
45.0
 21
-22.74211641403892
 31
0.0
  0
LINE
  5
883
330
1F
100
AcDbEntity
  8
2
  6
CONTINUOUS
370
25
 62
7
100
AcDbLine
 10
44.38987695443916
 20
-22.92797539088783
 30
0.0
 11
45.0
 21
-22.317852345327
 31
0.0
  0
LINE
  5
884
330
1F
100
AcDbEntity
  8
2
  6
CONTINUOUS
370
25
 62
7
100
AcDbLine
 10
44.03632356384588
 20
-22.85726471276918
 30
0.0
 11
45.0
 21
-21.89358827661507
 31
0.0
  0
LINE
  5
885
330
1F
100
AcDbEntity
  8
2
  6
CONTINUOUS
370
25
 62
7
100
AcDbLine
 10
43.68277017325261
 20
-22.78655403465052
 30
0.0
 11
45.0
 21
-21.46932420790314
 31
0.0
  0
LINE
  5
886
330
1F
100
AcDbEntity
  8
2
  6
CONTINUOUS
370
25
 62
7
100
AcDbLine
 10
43.32921678265934
 20
-22.71584335653187
 30
0.0
 11
44.99382517398902
 21
-21.05123496520219
 31
0.0
  0
LINE
  5
887
330
1F
100
AcDbEntity
  8
2
  6
CONTINUOUS
370
25
 62
7
100
AcDbLine
 10
42.97566339206607
 20
-22.64513267841322
 30
0.0
 11
44.46349508809911
 21
-21.15730098238018
 31
0.0
  0
LINE
  5
888
330
1F
100
AcDbEntity
  8
2
  6
CONTINUOUS
370
25
 62
7
100
AcDbLine
 10
42.62211000147279
 20
-22.57442200029456
 30
0.0
 11
43.93316500220919
 21
-21.26336699955816
 31
0.0
  0
LINE
  5
889
330
1F
100
AcDbEntity
  8
2
  6
CONTINUOUS
370
25
 62
7
100
AcDbLine
 10
42.26855661087952
 20
-22.50371132217591
 30
0.0
 11
43.40283491631929
 21
-21.36943301673614
 31
0.0
  0
LINE
  5
88A
330
1F
100
AcDbEntity
  8
2
  6
CONTINUOUS
370
25
 62
7
100
AcDbLine
 10
41.91500322028624
 20
-22.43300064405725
 30
0.0
 11
42.87250483042937
 21
-21.47549903391413
 31
0.0
  0
LINE
  5
88B
330
1F
100
AcDbEntity
  8
2
  6
CONTINUOUS
370
25
 62
7
100
AcDbLine
 10
41.56144982969298
 20
-22.3622899659386
 30
0.0
 11
42.34217474453946
 21
-21.58156505109211
 31
0.0
  0
LINE
  5
88C
330
1F
100
AcDbEntity
  8
2
  6
CONTINUOUS
370
25
 62
7
100
AcDbLine
 10
41.2078964390997
 20
-22.29157928781994
 30
0.0
 11
41.81184465864955
 21
-21.68763106827009
 31
0.0
  0
LINE
  5
88D
330
1F
100
AcDbEntity
  8
2
  6
CONTINUOUS
370
25
 62
7
100
AcDbLine
 10
40.85434304850642
 20
-22.22086860970129
 30
0.0
 11
41.28151457275964
 21
-21.79369708544807
 31
0.0
  0
LINE
  5
88E
330
1F
100
AcDbEntity
  8
2
  6
CONTINUOUS
370
25
 62
7
100
AcDbLine
 10
40.50078965791315
 20
-22.15015793158263
 30
0.0
 11
40.75118448686973
 21
-21.89976310262605
 31
0.0
  0
LINE
  5
88F
330
1F
100
AcDbEntity
  8
2
  6
CONTINUOUS
370
25
 62
7
100
AcDbLine
 10
40.14723626731988
 20
-22.07944725346398
 30
0.0
 11
40.22085440097982
 21
-22.00582911980403
 31
0.0
  0
LINE
  5
890
330
1F
100
AcDbEntity
  8
2
  6
CONTINUOUS
370
25
 62
7
100
AcDbLine
 10
40.34666707827022
 20
-21.98066658434595
 30
0.0
 11
40.52000061740533
 21
-22.15400012348107
 31
0.0
  0
LINE
  5
891
330
1F
100
AcDbEntity
  8
2
  6
CONTINUOUS
370
25
 62
7
100
AcDbLine
 10
40.70022046886349
 20
-21.9099559062273
 30
0.0
 11
41.05033070329524
 21
-22.26006614065905
 31
0.0
  0
LINE
  5
892
330
1F
100
AcDbEntity
  8
2
  6
CONTINUOUS
370
25
 62
7
100
AcDbLine
 10
41.05377385945676
 20
-21.83924522810864
 30
0.0
 11
41.58066078918515
 21
-22.36613215783703
 31
0.0
  0
LINE
  5
893
330
1F
100
AcDbEntity
  8
2
  6
CONTINUOUS
370
25
 62
7
100
AcDbLine
 10
41.40732725005004
 20
-21.76853454998999
 30
0.0
 11
42.11099087507506
 21
-22.47219817501502
 31
0.0
  0
LINE
  5
894
330
1F
100
AcDbEntity
  8
2
  6
CONTINUOUS
370
25
 62
7
100
AcDbLine
 10
41.76088064064331
 20
-21.69782387187134
 30
0.0
 11
42.64132096096497
 21
-22.578264192193
 31
0.0
  0
LINE
  5
895
330
1F
100
AcDbEntity
  8
2
  6
CONTINUOUS
370
25
 62
7
100
AcDbLine
 10
42.11443403123658
 20
-21.62711319375268
 30
0.0
 11
43.17165104685488
 21
-22.68433020937098
 31
0.0
  0
LINE
  5
896
330
1F
100
AcDbEntity
  8
2
  6
CONTINUOUS
370
25
 62
7
100
AcDbLine
 10
42.46798742182985
 20
-21.55640251563403
 30
0.0
 11
43.70198113274478
 21
-22.79039622654896
 31
0.0
  0
LINE
  5
897
330
1F
100
AcDbEntity
  8
2
  6
CONTINUOUS
370
25
 62
7
100
AcDbLine
 10
42.82154081242313
 20
-21.48569183751538
 30
0.0
 11
44.2323112186347
 21
-22.89646224372694
 31
0.0
  0
LINE
  5
898
330
1F
100
AcDbEntity
  8
2
  6
CONTINUOUS
370
25
 62
7
100
AcDbLine
 10
43.1750942030164
 20
-21.41498115939672
 30
0.0
 11
44.76264130452461
 21
-23.00252826090492
 31
0.0
  0
LINE
  5
899
330
1F
100
AcDbEntity
  8
2
  6
CONTINUOUS
370
25
 62
7
100
AcDbLine
 10
43.52864759360968
 20
-21.34427048127807
 30
0.0
 11
45.0
 21
-22.81562288766839
 31
0.0
  0
LINE
  5
89A
330
1F
100
AcDbEntity
  8
2
  6
CONTINUOUS
370
25
 62
7
100
AcDbLine
 10
43.88220098420295
 20
-21.27355980315941
 30
0.0
 11
45.0
 21
-22.39135881895646
 31
0.0
  0
LINE
  5
89B
330
1F
100
AcDbEntity
  8
2
  6
CONTINUOUS
370
25
 62
7
100
AcDbLine
 10
44.23575437479622
 20
-21.20284912504076
 30
0.0
 11
45.0
 21
-21.96709475024453
 31
0.0
  0
LINE
  5
89C
330
1F
100
AcDbEntity
  8
2
  6
CONTINUOUS
370
25
 62
7
100
AcDbLine
 10
44.58930776538949
 20
-21.1321384469221
 30
0.0
 11
45.0
 21
-21.5428306815326
 31
0.0
  0
LINE
  5
89D
330
1F
100
AcDbEntity
  8
2
  6
CONTINUOUS
370
25
 62
7
100
AcDbLine
 10
44.94286115598277
 20
-21.06142776880345
 30
0.0
 11
45.0
 21
-21.11856661282068
 31
0.0
  0
TEXT
  5
89E
330
1F
100
AcDbEntity
  8
2
  6
CONTINUOUS
370
25
 62
7
100
AcDbText
 10
47.25416666666666
 20
-20.55
 30
0.0
 40
3.5
  1
0.4
 72
     1
 11
50.46249999999999
 21
-20.55
 31
0.0
100
AcDbText
  0
LINE
  5
89F
330
1F
100
AcDbEntity
  8
2
  6
CONTINUOUS
370
25
 62
7
100
AcDbLine
 10
39.98550927
 20
-0.03520074
 30
0.0
 11
63.95025853540048
 21
-23.99995000540045
 31
0.0
  0
LINE
  5
8A0
330
1F
100
AcDbEntity
  8
2
  6
CONTINUOUS
370
25
 62
7
100
AcDbLine
 10
63.95025853540048
 20
-23.99995000540045
 30
0.0
 11
80.35025853540049
 21
-23.99995000540045
 31
0.0
  0
LINE
  5
8A1
330
1F
100
AcDbEntity
  8
2
  6
CONTINUOUS
370
25
 62
7
100
AcDbLine
 10
39.98550927
 20
-0.03520074
 30
0.0
 11
39.95015393094067
 21
0.0001545990593274
 31
0.0
  0
LINE
  5
8A2
330
1F
100
AcDbEntity
  8
2
  6
CONTINUOUS
370
25
 62
7
100
AcDbLine
 10
39.98550927
 20
-0.03520074
 30
0.0
 11
44.22814995711929
 21
-2.863627864746187
 31
0.0
  0
LINE
  5
8A3
330
1F
100
AcDbEntity
  8
2
  6
CONTINUOUS
370
25
 62
7
100
AcDbLine
 10
44.22814995711929
 20
-2.863627864746187
 30
0.0
 11
42.81393639474619
 21
-4.277841427119284
 31
0.0
  0
LINE
  5
8A4
330
1F
100
AcDbEntity
  8
2
  6
CONTINUOUS
370
25
 62
7
100
AcDbLine
 10
42.81393639474619
 20
-4.277841427119284
 30
0.0
 11
39.98550927
 21
-0.03520074
 31
0.0
  0
LINE
  5
8A5
330
1F
100
AcDbEntity
  8
2
  6
CONTINUOUS
370
25
 62
7
100
AcDbLine
 10
42.69438377903046
 20
-4.098512503545681
 30
0.0
 11
44.04882103354569
 21
-2.744075249030454
 31
0.0
  0
LINE
  5
8A6
330
1F
100
AcDbEntity
  8
2
  6
CONTINUOUS
370
25
 62
7
100
AcDbLine
 10
42.52467815154569
 20
-3.843954062318526
 30
0.0
 11
43.79426259231853
 21
-2.574369621545683
 31
0.0
  0
LINE
  5
8A7
330
1F
100
AcDbEntity
  8
2
  6
CONTINUOUS
370
25
 62
7
100
AcDbLine
 10
42.35497252406091
 20
-3.589395621091368
 30
0.0
 11
43.53970415109137
 21
-2.404663994060913
 31
0.0
  0
LINE
  5
8A8
330
1F
100
AcDbEntity
  8
2
  6
CONTINUOUS
370
25
 62
7
100
AcDbLine
 10
42.18526689657614
 20
-3.334837179864214
 30
0.0
 11
43.28514570986422
 21
-2.234958366576139
 31
0.0
  0
LINE
  5
8A9
330
1F
100
AcDbEntity
  8
2
  6
CONTINUOUS
370
25
 62
7
100
AcDbLine
 10
42.01556126909137
 20
-3.080278738637057
 30
0.0
 11
43.03058726863706
 21
-2.065252739091369
 31
0.0
  0
LINE
  5
8AA
330
1F
100
AcDbEntity
  8
2
  6
CONTINUOUS
370
25
 62
7
100
AcDbLine
 10
41.8458556416066
 20
-2.825720297409898
 30
0.0
 11
42.7760288274099
 21
-1.895547111606597
 31
0.0
  0
LINE
  5
8AB
330
1F
100
AcDbEntity
  8
2
  6
CONTINUOUS
370
25
 62
7
100
AcDbLine
 10
41.67615001412183
 20
-2.571161856182743
 30
0.0
 11
42.52147038618274
 21
-1.725841484121824
 31
0.0
  0
LINE
  5
8AC
330
1F
100
AcDbEntity
  8
2
  6
CONTINUOUS
370
25
 62
7
100
AcDbLine
 10
41.50644438663706
 20
-2.316603414955585
 30
0.0
 11
42.26691194495559
 21
-1.556135856637056
 31
0.0
  0
LINE
  5
8AD
330
1F
100
AcDbEntity
  8
2
  6
CONTINUOUS
370
25
 62
7
100
AcDbLine
 10
41.33673875915228
 20
-2.06204497372843
 30
0.0
 11
42.01235350372843
 21
-1.386430229152285
 31
0.0
  0
LINE
  5
8AE
330
1F
100
AcDbEntity
  8
2
  6
CONTINUOUS
370
25
 62
7
100
AcDbLine
 10
41.16703313166752
 20
-1.807486532501272
 30
0.0
 11
41.75779506250127
 21
-1.216724601667513
 31
0.0
  0
LINE
  5
8AF
330
1F
100
AcDbEntity
  8
2
  6
CONTINUOUS
370
25
 62
7
100
AcDbLine
 10
40.99732750418274
 20
-1.552928091274117
 30
0.0
 11
41.50323662127412
 21
-1.047018974182743
 31
0.0
  0
LINE
  5
8B0
330
1F
100
AcDbEntity
  8
2
  6
CONTINUOUS
370
25
 62
7
100
AcDbLine
 10
40.82762187669798
 20
-1.298369650046959
 30
0.0
 11
41.24867818004696
 21
-0.8773133466979726
 31
0.0
  0
LINE
  5
8B1
330
1F
100
AcDbEntity
  8
2
  6
CONTINUOUS
370
25
 62
7
100
AcDbLine
 10
40.6579162492132
 20
-1.043811208819802
 30
0.0
 11
40.9941197388198
 21
-0.7076077192132004
 31
0.0
  0
LINE
  5
8B2
330
1F
100
AcDbEntity
  8
2
  6
CONTINUOUS
370
25
 62
7
100
AcDbLine
 10
40.48821062172843
 20
-0.7892527675926448
 30
0.0
 11
40.73956129759264
 21
-0.5379020917284301
 31
0.0
  0
LINE
  5
8B3
330
1F
100
AcDbEntity
  8
2
  6
CONTINUOUS
370
25
 62
7
100
AcDbLine
 10
40.31850499424366
 20
-0.5346943263654893
 30
0.0
 11
40.48500285636549
 21
-0.3681964642436597
 31
0.0
  0
LINE
  5
8B4
330
1F
100
AcDbEntity
  8
2
  6
CONTINUOUS
370
25
 62
7
100
AcDbLine
 10
40.14879936675889
 20
-0.280135885138332
 30
0.0
 11
40.23044441513833
 21
-0.1984908367588867
 31
0.0
  0
LINE
  5
8B5
330
1F
100
AcDbEntity
  8
2
  6
CONTINUOUS
370
25
 62
7
100
AcDbLine
 10
42.35820426864215
 20
-3.594243237963218
 30
0.0
 11
42.9278694262722
 21
-4.163908395593273
 31
0.0
  0
LINE
  5
8B6
330
1F
100
AcDbEntity
  8
2
  6
CONTINUOUS
370
25
 62
7
100
AcDbLine
 10
41.50967613121828
 20
-2.321451031827426
 30
0.0
 11
43.14000146062817
 21
-3.951776361237309
 31
0.0
  0
LINE
  5
8B7
330
1F
100
AcDbEntity
  8
2
  6
CONTINUOUS
370
25
 62
7
100
AcDbLine
 10
40.66114799379443
 20
-1.048658825691639
 30
0.0
 11
43.35213349498413
 21
-3.739644326881345
 31
0.0
  0
LINE
  5
8B8
330
1F
100
AcDbEntity
  8
2
  6
CONTINUOUS
370
25
 62
7
100
AcDbLine
 10
40.24484339044415
 20
-0.2080901536294295
 30
0.0
 11
43.5642655293401
 21
-3.527512292525381
 31
0.0
  0
LINE
  5
8B9
330
1F
100
AcDbEntity
  8
2
  6
CONTINUOUS
370
25
 62
7
100
AcDbLine
 10
41.51763559657993
 20
-1.056618291053285
 30
0.0
 11
43.77639756369606
 21
-3.315380258169414
 31
0.0
  0
LINE
  5
8BA
330
1F
100
AcDbEntity
  8
2
  6
CONTINUOUS
370
25
 62
7
100
AcDbLine
 10
42.79042780271571
 20
-1.905146428477138
 30
0.0
 11
43.98852959805203
 21
-3.10324822381345
 31
0.0
  0
LINE
  5
8BB
330
1F
100
AcDbEntity
  8
2
  6
CONTINUOUS
370
25
 62
7
100
AcDbLine
 10
44.06322000885149
 20
-2.753674565900994
 30
0.0
 11
44.20066163240799
 21
-2.891116189457486
 31
0.0
  0
TEXT
  5
8BC
330
1F
100
AcDbEntity
  8
2
  6
CONTINUOUS
370
25
 62
7
100
AcDbText
 10
65.7335918687338
 20
-22.49995000540044
 30
0.0
 40
3.5
  1
R0.05
 72
     1
 11
72.15025853540047
 21
-22.49995000540044
 31
0.0
100
AcDbText
  0
LINE
  5
8BD
330
1F
100
AcDbEntity
  8
SK1
  6
CONTINUOUS
370
50
 62
4
100
AcDbLine
 10
32.4
 20
0.0
 30
0.0
 11
34.15
 21
0.0
 31
0.0
  0
LINE
  5
8BE
330
1F
100
AcDbEntity
  8
SK1
  6
CONTINUOUS
370
50
 62
4
100
AcDbLine
 10
32.4
 20
0.0
 30
0.0
 11
32.4
 21
1.75
 31
0.0
  0
ARC
  5
8BF
330
1F
100
AcDbEntity
  8
SK1
  6
CONTINUOUS
370
50
 62
4
100
AcDbCircle
 10
32.4
 20
0.0
 30
0.0
 40
1.75
100
AcDbArc
 50
0.0
 51
90.0
  0
LINE
  5
8C0
330
1F
100
AcDbEntity
  8
SK1
  6
CONTINUOUS
370
50
 62
4
100
AcDbLine
 10
32.4
 20
0.0
 30
0.0
 11
30.65
 21
0.0
 31
0.0
  0
ARC
  5
8C1
330
1F
100
AcDbEntity
  8
SK1
  6
CONTINUOUS
370
50
 62
4
100
AcDbCircle
 10
32.4
 20
0.0
 30
0.0
 40
1.75
100
AcDbArc
 50
180.0
 51
270.0
  0
LINE
  5
8C2
330
1F
100
AcDbEntity
  8
SK1
  6
CONTINUOUS
370
50
 62
4
100
AcDbLine
 10
32.4
 20
-1.75
 30
0.0
 11
32.4
 21
0.0
 31
0.0
  0
ARC
  5
8C3
330
1F
100
AcDbEntity
  8
SK1
  6
CONTINUOUS
370
50
 62
4
100
AcDbCircle
 10
32.4
 20
0.0
 30
0.0
 40
1.75
100
AcDbArc
 50
270.0
 51
0.0
  0
ARC
  5
8C4
330
1F
100
AcDbEntity
  8
SK1
  6
CONTINUOUS
370
50
 62
4
100
AcDbCircle
 10
32.4
 20
0.0
 30
0.0
 40
1.75
100
AcDbArc
 50
90.0
 51
180.0
  0
LINE
  5
8C5
330
1F
100
AcDbEntity
  8
SK1
  6
CONTINUOUS
370
50
 62
4
100
AcDbLine
 10
32.17717274741573
 20
-1.73564731720198
 30
0.0
 11
32.4
 21
-1.512820064617713
 31
0.0
  0
LINE
  5
8C6
330
1F
100
AcDbEntity
  8
SK1
  6
CONTINUOUS
370
50
 62
4
100
AcDbLine
 10
33.91282006461771
 20
0.0
 30
0.0
 11
34.13564731720198
 21
0.2228272525842674
 31
0.0
  0
LINE
  5
8C7
330
1F
100
AcDbEntity
  8
SK1
  6
CONTINUOUS
370
50
 62
4
100
AcDbLine
 10
31.96930380681873
 20
-1.69602888438369
 30
0.0
 11
32.4
 21
-1.265332691202421
 31
0.0
  0
LINE
  5
8C8
330
1F
100
AcDbEntity
  8
SK1
  6
CONTINUOUS
370
50
 62
4
100
AcDbLine
 10
33.66533269120242
 20
0.0
 30
0.0
 11
34.09602888438368
 21
0.4306961931812696
 31
0.0
  0
LINE
  5
8C9
330
1F
100
AcDbEntity
  8
SK1
  6
CONTINUOUS
370
50
 62
4
100
AcDbLine
 10
31.78148340435764
 20
-1.636361913429485
 30
0.0
 11
32.4
 21
-1.01784531778713
 31
0.0
  0
LINE
  5
8CA
330
1F
100
AcDbEntity
  8
SK1
  6
CONTINUOUS
370
50
 62
4
100
AcDbLine
 10
33.41784531778713
 20
0.0
 30
0.0
 11
34.03636191342948
 21
0.6185165956423557
 31
0.0
  0
LINE
  5
8CB
330
1F
100
AcDbEntity
  8
SK1
  6
CONTINUOUS
370
50
 62
4
100
AcDbLine
 10
31.6098551094628
 20
-1.560502834909039
 30
0.0
 11
32.4
 21
-0.7703579443718382
 31
0.0
  0
LINE
  5
8CC
330
1F
100
AcDbEntity
  8
SK1
  6
CONTINUOUS
370
50
 62
4
100
AcDbLine
 10
33.17035794437184
 20
0.0
 30
0.0
 11
33.96050283490904
 21
0.7901448905372013
 31
0.0
  0
LINE
  5
8CD
330
1F
100
AcDbEntity
  8
SK1
  6
CONTINUOUS
370
50
 62
4
100
AcDbLine
 10
31.45217783219447
 20
-1.470692738762079
 30
0.0
 11
32.4
 21
-0.5228705709565462
 31
0.0
  0
LINE
  5
8CE
330
1F
100
AcDbEntity
  8
SK1
  6
CONTINUOUS
370
50
 62
4
100
AcDbLine
 10
32.92287057095655
 20
0.0
 30
0.0
 11
33.87069273876207
 21
0.947822167805533
 31
0.0
  0
LINE
  5
8CF
330
1F
100
AcDbEntity
  8
SK1
  6
CONTINUOUS
370
50
 62
4
100
AcDbLine
 10
31.30842956711548
 20
-1.366953630425777
 30
0.0
 11
32.4
 21
-0.2753831975412551
 31
0.0
  0
LINE
  5
8D0
330
1F
100
AcDbEntity
  8
SK1
  6
CONTINUOUS
370
50
 62
4
100
AcDbLine
 10
32.67538319754125
 20
0.0
 30
0.0
 11
33.76695363042577
 21
1.091570432884522
 31
0.0
  0
LINE
  5
8D1
330
1F
100
AcDbEntity
  8
SK1
  6
CONTINUOUS
370
50
 62
4
100
AcDbLine
 10
31.17712164538164
 20
-1.25077417874432
 30
0.0
 11
32.4
 21
-0.0278958241259639
 31
0.0
  0
LINE
  5
8D2
330
1F
100
AcDbEntity
  8
SK1
  6
CONTINUOUS
370
50
 62
4
100
AcDbLine
 10
32.42789582412596
 20
0.0
 30
0.0
 11
33.65077417874432
 21
1.222878354618356
 31
0.0
  0
LINE
  5
8D3
330
1F
100
AcDbEntity
  8
SK1
  6
CONTINUOUS
370
50
 62
4
100
AcDbLine
 10
31.05784030371346
 20
-1.122568146997212
 30
0.0
 11
32.18040845071067
 21
0.0
 31
0.0
  0
LINE
  5
8D4
330
1F
100
AcDbEntity
  8
SK1
  6
CONTINUOUS
370
50
 62
4
100
AcDbLine
 10
32.4
 20
0.2195915492893277
 30
0.0
 11
33.52256814699721
 21
1.34215969628654
 31
0.0
  0
LINE
  5
8D5
330
1F
100
AcDbEntity
  8
SK1
  6
CONTINUOUS
370
50
 62
4
100
AcDbLine
 10
30.95188167231256
 20
-0.9810394049828186
 30
0.0
 11
31.93292107729538
 21
0.0
 31
0.0
  0
LINE
  5
8D6
330
1F
100
AcDbEntity
  8
SK1
  6
CONTINUOUS
370
50
 62
4
100
AcDbLine
 10
32.4
 20
0.4670789227046193
 30
0.0
 11
33.38103940498281
 21
1.448118327687438
 31
0.0
  0
LINE
  5
8D7
330
1F
100
AcDbEntity
  8
SK1
  6
CONTINUOUS
370
50
 62
4
100
AcDbLine
 10
30.85832908651575
 20
-0.8271046173643402
 30
0.0
 11
31.68543370388009
 21
0.0
 31
0.0
  0
LINE
  5
8D8
330
1F
100
AcDbEntity
  8
SK1
  6
CONTINUOUS
370
50
 62
4
100
AcDbLine
 10
32.4
 20
0.71456629611991
 30
0.0
 11
33.22710461736434
 21
1.54167091348425
 31
0.0
  0
LINE
  5
8D9
330
1F
100
AcDbEntity
  8
SK1
  6
CONTINUOUS
370
50
 62
4
100
AcDbLine
 10
30.77918473824204
 20
-0.6587615922227528
 30
0.0
 11
31.4379463304648
 21
0.0
 31
0.0
  0
LINE
  5
8DA
330
1F
100
AcDbEntity
  8
SK1
  6
CONTINUOUS
370
50
 62
4
100
AcDbLine
 10
32.4
 20
0.9620536695352015
 30
0.0
 11
33.05876159222275
 21
1.620815261757954
 31
0.0
  0
LINE
  5
8DB
330
1F
100
AcDbEntity
  8
SK1
  6
CONTINUOUS
370
50
 62
4
100
AcDbLine
 10
30.71629687706963
 20
-0.474162079979876
 30
0.0
 11
31.1904589570495
 21
0.0
 31
0.0
  0
LINE
  5
8DC
330
1F
100
AcDbEntity
  8
SK1
  6
CONTINUOUS
370
50
 62
4
100
AcDbLine
 10
32.4
 20
1.209541042950494
 30
0.0
 11
32.87416207997988
 21
1.683703122930369
 31
0.0
  0
LINE
  5
8DD
330
1F
100
AcDbEntity
  8
SK1
  6
CONTINUOUS
370
50
 62
4
100
AcDbLine
 10
30.67198100434271
 20
-0.2709905792915031
 30
0.0
 11
30.94297158363421
 21
0.0
 31
0.0
  0
LINE
  5
8DE
330
1F
100
AcDbEntity
  8
SK1
  6
CONTINUOUS
370
50
 62
4
100
AcDbLine
 10
32.4
 20
1.457028416365784
 30
0.0
 11
32.6709905792915
 21
1.728018995657286
 31
0.0
  0
LINE
  5
8DF
330
1F
100
AcDbEntity
  8
SK1
  6
CONTINUOUS
370
50
 62
4
100
AcDbLine
 10
30.6513858468978
 20
-0.0440983633211194
 30
0.0
 11
30.69548421021893
 21
0.0
 31
0.0
  0
LINE
  5
8E0
330
1F
100
AcDbEntity
  8
SK1
  6
CONTINUOUS
370
50
 62
4
100
AcDbLine
 10
32.4
 20
1.704515789781075
 30
0.0
 11
32.44409836332112
 21
1.748614153102194
 31
0.0
  0
LINE
  5
8E1
330
1F
100
AcDbEntity
  8
SK1
  6
CONTINUOUS
370
50
 62
4
100
AcDbLine
 10
30.76386517603681
 20
-0.6191473609004006
 30
0.0
 11
31.7808526390996
 21
-1.636134823963186
 31
0.0
  0
LINE
  5
8E2
330
1F
100
AcDbEntity
  8
SK1
  6
CONTINUOUS
370
50
 62
4
100
AcDbLine
 10
30.67363430643545
 20
-0.2814291178837463
 30
0.0
 11
32.11857088211625
 21
-1.726365693564548
 31
0.0
  0
LINE
  5
8E3
330
1F
100
AcDbEntity
  8
SK1
  6
CONTINUOUS
370
50
 62
4
100
AcDbLine
 10
30.6503344343115
 20
-0.0106418723445003
 30
0.0
 11
32.3893581276555
 21
-1.749665565688503
 31
0.0
  0
LINE
  5
8E4
330
1F
100
AcDbEntity
  8
SK1
  6
CONTINUOUS
370
50
 62
4
100
AcDbLine
 10
30.88717993538229
 20
0.0
 30
0.0
 11
32.4
 21
-1.51282006461771
 31
0.0
  0
LINE
  5
8E5
330
1F
100
AcDbEntity
  8
SK1
  6
CONTINUOUS
370
50
 62
4
100
AcDbLine
 10
31.13466730879758
 20
0.0
 30
0.0
 11
32.4
 21
-1.265332691202418
 31
0.0
  0
LINE
  5
8E6
330
1F
100
AcDbEntity
  8
SK1
  6
CONTINUOUS
370
50
 62
4
100
AcDbLine
 10
31.38215468221287
 20
0.0
 30
0.0
 11
32.4
 21
-1.017845317787128
 31
0.0
  0
LINE
  5
8E7
330
1F
100
AcDbEntity
  8
SK1
  6
CONTINUOUS
370
50
 62
4
100
AcDbLine
 10
31.62964205562816
 20
0.0
 30
0.0
 11
32.4
 21
-0.7703579443718369
 31
0.0
  0
LINE
  5
8E8
330
1F
100
AcDbEntity
  8
SK1
  6
CONTINUOUS
370
50
 62
4
100
AcDbLine
 10
31.87712942904345
 20
0.0
 30
0.0
 11
32.4
 21
-0.5228705709565453
 31
0.0
  0
LINE
  5
8E9
330
1F
100
AcDbEntity
  8
SK1
  6
CONTINUOUS
370
50
 62
4
100
AcDbLine
 10
32.12461680245875
 20
0.0
 30
0.0
 11
32.4
 21
-0.2753831975412537
 31
0.0
  0
LINE
  5
8EA
330
1F
100
AcDbEntity
  8
SK1
  6
CONTINUOUS
370
50
 62
4
100
AcDbLine
 10
32.37210417587404
 20
0.0
 30
0.0
 11
32.4
 21
-0.027895824125963
 31
0.0
  0
LINE
  5
8EB
330
1F
100
AcDbEntity
  8
SK1
  6
CONTINUOUS
370
50
 62
4
100
AcDbLine
 10
32.4
 20
0.219591549289329
 30
0.0
 11
32.61959154928932
 21
0.0
 31
0.0
  0
LINE
  5
8EC
330
1F
100
AcDbEntity
  8
SK1
  6
CONTINUOUS
370
50
 62
4
100
AcDbLine
 10
32.4
 20
0.4670789227046202
 30
0.0
 11
32.86707892270462
 21
0.0
 31
0.0
  0
LINE
  5
8ED
330
1F
100
AcDbEntity
  8
SK1
  6
CONTINUOUS
370
50
 62
4
100
AcDbLine
 10
32.4
 20
0.7145662961199113
 30
0.0
 11
33.11456629611991
 21
0.0
 31
0.0
  0
LINE
  5
8EE
330
1F
100
AcDbEntity
  8
SK1
  6
CONTINUOUS
370
50
 62
4
100
AcDbLine
 10
32.4
 20
0.9620536695352029
 30
0.0
 11
33.3620536695352
 21
0.0
 31
0.0
  0
LINE
  5
8EF
330
1F
100
AcDbEntity
  8
SK1
  6
CONTINUOUS
370
50
 62
4
100
AcDbLine
 10
32.4
 20
1.209541042950494
 30
0.0
 11
33.6095410429505
 21
0.0
 31
0.0
  0
LINE
  5
8F0
330
1F
100
AcDbEntity
  8
SK1
  6
CONTINUOUS
370
50
 62
4
100
AcDbLine
 10
32.4
 20
1.457028416365785
 30
0.0
 11
33.85702841636579
 21
0.0
 31
0.0
  0
LINE
  5
8F1
330
1F
100
AcDbEntity
  8
SK1
  6
CONTINUOUS
370
50
 62
4
100
AcDbLine
 10
32.4
 20
1.704515789781076
 30
0.0
 11
34.10451578978108
 21
0.0
 31
0.0
  0
LINE
  5
8F2
330
1F
100
AcDbEntity
  8
SK1
  6
CONTINUOUS
370
50
 62
4
100
AcDbLine
 10
32.61543384193567
 20
1.736569321260697
 30
0.0
 11
34.13656932126069
 21
0.2154338419356714
 31
0.0
  0
LINE
  5
8F3
330
1F
100
AcDbEntity
  8
SK1
  6
CONTINUOUS
370
50
 62
4
100
AcDbLine
 10
32.93283284728993
 20
1.666657689321729
 30
0.0
 11
34.06665768932173
 21
0.5328328472899322
 31
0.0
  0
LINE
  5
8F4
330
1F
100
AcDbEntity
  8
SK1
  6
CONTINUOUS
370
50
 62
4
100
AcDbLine
 10
33.44009874905674
 20
1.406879160970207
 30
0.0
 11
33.8068791609702
 21
1.040098749056747
 31
0.0
  0
LINE
  5
8F5
330
1F
100
AcDbEntity
  8
4
  6
LONGDASH_DASH
370
25
 62
2
100
AcDbLine
 10
32.4
 20
0.0
 30
0.0
 11
40.0
 21
0.0
 31
0.0
  0
LINE
  5
8F6
330
1F
100
AcDbEntity
  8
SK4
  6
LONGDASH_DASH
370
25
 62
2
100
AcDbLine
 10
-6.0
 20
0.0
 30
0.0
 11
46.0
 21
0.0
 31
0.0
  0
ARC
  5
8F7
330
1F
100
AcDbEntity
  8
SK6
  6
CONTINUOUS
370
25
 62
5
100
AcDbCircle
 10
63.46138200837651
 20
-26.74524575338786
 30
0.0
 40
2.760489128492204
100
AcDbArc
 50
338.9379403434233
 51
90.44457437511392
  0
LINE
  5
8F8
330
1F
100
AcDbEntity
  8
SK6
  6
CONTINUOUS
370
25
 62
5
100
AcDbLine
 10
63.43996279695983
 20
-23.98483972421281
 30
0.0
 11
63.43996279695983
 21
-25.08789835613463
 31
0.0
  0
ARC
  5
8F9
330
1F
100
AcDbEntity
  8
SK6
  6
CONTINUOUS
370
25
 62
5
100
AcDbCircle
 10
63.45050902936917
 20
-26.76523924566821
 30
0.0
 40
1.677374043771785
100
AcDbArc
 50
243.4214706017864
 51
90.36024081226107
  0
ARC
  5
8FA
330
1F
100
AcDbEntity
  8
SK6
  6
CONTINUOUS
370
25
 62
5
100
AcDbCircle
 10
65.97275989684958
 20
-26.33383199215561
 30
0.0
 40
3.800217030022754
100
AcDbArc
 50
210.5483731288539
 51
236.97801693668
  0
LINE
  5
8FB
330
1F
100
AcDbEntity
  8
SK6
  6
CONTINUOUS
370
25
 62
5
100
AcDbLine
 10
63.90179068512487
 20
-29.52016781867535
 30
0.0
 11
68.04373096742671
 21
-29.52016781867535
 31
0.0
  0
ARC
  5
8FC
330
1F
100
AcDbEntity
  8
SK6
  6
CONTINUOUS
370
25
 62
5
100
AcDbCircle
 10
65.97276183877257
 20
-26.3338320937346
 30
0.0
 40
3.800216899582472
100
AcDbArc
 50
303.0219828477959
 51
326.3732153033476
  0
LINE
  5
8FD
330
1F
100
AcDbEntity
  8
SK6
  6
CONTINUOUS
370
25
 62
5
100
AcDbLine
 10
69.13705975135723
 20
-28.4383194907709
 30
0.0
 11
65.77976170575462
 21
-28.4383194907709
 31
0.0
  0
LINE
  5
8FE
330
1F
100
AcDbEntity
  8
SK6
  6
CONTINUOUS
370
25
 62
5
100
AcDbLine
 10
65.77976170575462
 20
-28.4383194907709
 30
0.0
 11
69.69962109771987
 21
-27.07691829641694
 31
0.0
  0
ARC
  5
8FF
330
1F
100
AcDbEntity
  8
SK6
  6
CONTINUOUS
370
25
 62
5
100
AcDbCircle
 10
65.97276256157211
 20
-26.3338326048594
 30
0.0
 40
3.800217216614723
100
AcDbArc
 50
348.7238644184696
 51
53.4691051260885
  0
LINE
  5
900
330
1F
100
AcDbEntity
  8
SK6
  6
CONTINUOUS
370
25
 62
5
100
AcDbLine
 10
68.23486524538545
 20
-23.28022124429967
 30
0.0
 11
66.03745047882737
 21
-27.73730973507057
 31
0.0
  0
ENDSEC
  0
SECTION
  2
OBJECTS
  0
DICTIONARY
  5
C
330
0
100
AcDbDictionary
281
     1
  3
ACAD_GROUP
350
D
  3
ACAD_LAYOUT
350
1A
  3
ACAD_MATERIAL
350
3B
  3
ACAD_MLEADERSTYLE
350
903
  3
ACAD_MLINESTYLE
350
17
  3
ACAD_PLOTSETTINGS
350
19
  3
ACAD_PLOTSTYLENAME
350
E
  3
ACAD_SCALELIST
350
29C
  3
ACAD_VISUALSTYLE
350
2A
  3
AcDbVariableDictionary
350
901
  0
DICTIONARY
  5
D
102
{ACAD_REACTORS
330
C
102
}
330
C
100
AcDbDictionary
281
     1
  0
DICTIONARY
  5
1A
102
{ACAD_REACTORS
330
C
102
}
330
C
100
AcDbDictionary
281
     1
  3
Layout1
350
1E
  3
Layout2
350
26
  3
Model
350
22
  0
DICTIONARY
  5
3B
102
{ACAD_REACTORS
330
C
102
}
330
C
100
AcDbDictionary
281
     1
  3
ByBlock
350
3D
  3
ByLayer
350
3C
  3
Global
350
3E
  0
DICTIONARY
  5
903
102
{ACAD_REACTORS
330
C
102
}
330
C
100
AcDbDictionary
281
     1
  0
DICTIONARY
  5
17
102
{ACAD_REACTORS
330
C
102
}
330
C
100
AcDbDictionary
281
     1
  3
Standard
350
18
  0
DICTIONARY
  5
19
102
{ACAD_REACTORS
330
C
102
}
330
C
100
AcDbDictionary
281
     1
  0
ACDBDICTIONARYWDFLT
  5
E
102
{ACAD_REACTORS
330
C
102
}
330
C
100
AcDbDictionary
281
     1
  3
Normal
350
F
100
AcDbDictionaryWithDefault
340
F
  0
DICTIONARY
  5
29C
102
{ACAD_REACTORS
330
C
102
}
330
C
100
AcDbDictionary
281
     1
  3
A0
350
29D
  3
A1
350
29E
  3
A2
350
29F
  3
A3
350
2A0
  3
A4
350
2A1
  3
A5
350
2A2
  3
A6
350
2A3
  3
A7
350
2A4
  3
A8
350
2A5
  3
A9
350
2A6
  3
B0
350
2A7
  3
B1
350
2A8
  3
B2
350
2A9
  3
B3
350
2AA
  3
B4
350
2AB
  3
B5
350
2AC
  3
B6
350
2AD
  3
B7
350
2AE
  3
B8
350
2AF
  3
B9
350
2B0
  3
C0
350
2B1
  3
C1
350
2B2
  3
C2
350
2B3
  3
C3
350
2B4
  3
C4
350
2B5
  3
C5
350
2B6
  3
C6
350
2B7
  3
C7
350
2B8
  3
C8
350
2B9
  3
C9
350
2BA
  3
D0
350
2BB
  3
D1
350
2BC
  3
D2
350
2BD
  0
DICTIONARY
  5
2A
102
{ACAD_REACTORS
330
C
102
}
330
C
100
AcDbDictionary
281
     1
  3
2dWireframe
350
2F
  3
3D Hidden
350
31
  3
3dWireframe
350
30
  3
Basic
350
32
  3
Brighten
350
36
  3
ColorChange
350
3A
  3
Conceptual
350
34
  3
Dim
350
35
  3
Facepattern
350
39
  3
Flat
350
2B
  3
FlatWithEdges
350
2C
  3
Gouraud
350
2D
  3
GouraudWithEdges
350
2E
  3
Linepattern
350
38
  3
Realistic
350
33
  3
Thicken
350
37
  0
DICTIONARY
  5
901
102
{ACAD_REACTORS
330
C
102
}
330
C
100
AcDbDictionary
281
     1
  3
CANNOSCALE
350
906
  3
DIMASSOC
350
907
  3
HIDETEXT
350
908
  3
PSOLHEIGHT
350
905
  3
PSOLWIDTH
350
904
  0
LAYOUT
  5
1E
102
{ACAD_REACTORS
330
1A
102
}
330
1A
100
AcDbPlotSettings
  1

  2
none_device
  4

  6

 40
0.0
 41
0.0
 42
0.0
 43
0.0
 44
0.0
 45
0.0
 46
0.0
 47
0.0
 48
0.0
 49
0.0
140
0.0
141
0.0
142
1.0
143
1.0
 70
   688
 72
     0
 73
     0
 74
     5
  7

 75
    16
147
1.0
148
0.0
149
0.0
100
AcDbLayout
  1
Layout1
 70
     1
 71
     1
 10
0.0
 20
0.0
 11
420.0
 21
297.0
 12
0.0
 22
0.0
 32
0.0
 14
1.000000000000000E+20
 24
1.000000000000000E+20
 34
1.000000000000000E+20
 15
-1.000000000000000E+20
 25
-1.000000000000000E+20
 35
-1.000000000000000E+20
146
0.0
 13
0.0
 23
0.0
 33
0.0
 16
1.0
 26
0.0
 36
0.0
 17
0.0
 27
1.0
 37
0.0
 76
     0
330
1B
  0
LAYOUT
  5
26
102
{ACAD_REACTORS
330
1A
102
}
330
1A
100
AcDbPlotSettings
  1

  2
none_device
  4

  6

 40
0.0
 41
0.0
 42
0.0
 43
0.0
 44
0.0
 45
0.0
 46
0.0
 47
0.0
 48
0.0
 49
0.0
140
0.0
141
0.0
142
1.0
143
1.0
 70
   688
 72
     0
 73
     0
 74
     5
  7

 75
    16
147
1.0
148
0.0
149
0.0
100
AcDbLayout
  1
Layout2
 70
     1
 71
     2
 10
0.0
 20
0.0
 11
0.0
 21
0.0
 12
0.0
 22
0.0
 32
0.0
 14
0.0
 24
0.0
 34
0.0
 15
0.0
 25
0.0
 35
0.0
146
0.0
 13
0.0
 23
0.0
 33
0.0
 16
1.0
 26
0.0
 36
0.0
 17
0.0
 27
1.0
 37
0.0
 76
     0
330
23
  0
LAYOUT
  5
22
102
{ACAD_REACTORS
330
1A
102
}
330
1A
100
AcDbPlotSettings
  1

  2
none_device
  4

  6

 40
0.0
 41
0.0
 42
0.0
 43
0.0
 44
0.0
 45
0.0
 46
0.0
 47
0.0
 48
0.0
 49
0.0
140
0.0
141
0.0
142
1.0
143
1.0
 70
  1712
 72
     0
 73
     0
 74
     0
  7

 75
     0
147
1.0
148
0.0
149
0.0
100
AcDbLayout
  1
Model
 70
     1
 71
     0
 10
0.0
 20
0.0
 11
420.0
 21
297.0
 12
0.0
 22
0.0
 32
0.0
 14
0.0
 24
0.0
 34
0.0
 15
25.0
 25
35.0
 35
0.0
146
0.0
 13
0.0
 23
0.0
 33
0.0
 16
1.0
 26
0.0
 36
0.0
 17
0.0
 27
1.0
 37
0.0
 76
     0
330
1F
331
29
  0
MATERIAL
  5
3D
102
{ACAD_REACTORS
330
3B
102
}
102
{ACAD_XDICTIONARY
360
92B
102
}
330
3B
100
AcDbMaterial
  1
ByBlock
  0
MATERIAL
  5
3C
102
{ACAD_REACTORS
330
3B
102
}
102
{ACAD_XDICTIONARY
360
929
102
}
330
3B
100
AcDbMaterial
  1
ByLayer
  0
MATERIAL
  5
3E
102
{ACAD_REACTORS
330
3B
102
}
102
{ACAD_XDICTIONARY
360
92D
102
}
330
3B
100
AcDbMaterial
  1
Global
  0
MLINESTYLE
  5
18
102
{ACAD_REACTORS
330
17
102
}
330
17
100
AcDbMlineStyle
  2
Standard
 70
     0
  3

 62
   256
 51
90.0
 52
90.0
 71
     2
 49
0.5
 62
   256
  6
BYLAYER
 49
-0.5
 62
   256
  6
BYLAYER
  0
ACDBPLACEHOLDER
  5
F
102
{ACAD_REACTORS
330
E
102
}
330
E
  0
SCALE
  5
29D
102
{ACAD_REACTORS
330
29C
102
}
330
29C
100
AcDbScale
 70
     0
300
1:1
140
1.0
141
1.0
290
     1
  0
SCALE
  5
29E
102
{ACAD_REACTORS
330
29C
102
}
330
29C
100
AcDbScale
 70
     0
300
1:2
140
1.0
141
2.0
290
     0
  0
SCALE
  5
29F
102
{ACAD_REACTORS
330
29C
102
}
330
29C
100
AcDbScale
 70
     0
300
1:4
140
1.0
141
4.0
290
     0
  0
SCALE
  5
2A0
102
{ACAD_REACTORS
330
29C
102
}
330
29C
100
AcDbScale
 70
     0
300
1:5
140
1.0
141
5.0
290
     0
  0
SCALE
  5
2A1
102
{ACAD_REACTORS
330
29C
102
}
330
29C
100
AcDbScale
 70
     0
300
1:8
140
1.0
141
8.0
290
     0
  0
SCALE
  5
2A2
102
{ACAD_REACTORS
330
29C
102
}
330
29C
100
AcDbScale
 70
     0
300
1:10
140
1.0
141
10.0
290
     0
  0
SCALE
  5
2A3
102
{ACAD_REACTORS
330
29C
102
}
330
29C
100
AcDbScale
 70
     0
300
1:16
140
1.0
141
16.0
290
     0
  0
SCALE
  5
2A4
102
{ACAD_REACTORS
330
29C
102
}
330
29C
100
AcDbScale
 70
     0
300
1:20
140
1.0
141
20.0
290
     0
  0
SCALE
  5
2A5
102
{ACAD_REACTORS
330
29C
102
}
330
29C
100
AcDbScale
 70
     0
300
1:30
140
1.0
141
30.0
290
     0
  0
SCALE
  5
2A6
102
{ACAD_REACTORS
330
29C
102
}
330
29C
100
AcDbScale
 70
     0
300
1:40
140
1.0
141
40.0
290
     0
  0
SCALE
  5
2A7
102
{ACAD_REACTORS
330
29C
102
}
330
29C
100
AcDbScale
 70
     0
300
1:50
140
1.0
141
50.0
290
     0
  0
SCALE
  5
2A8
102
{ACAD_REACTORS
330
29C
102
}
330
29C
100
AcDbScale
 70
     0
300
1:100
140
1.0
141
100.0
290
     0
  0
SCALE
  5
2A9
102
{ACAD_REACTORS
330
29C
102
}
330
29C
100
AcDbScale
 70
     0
300
2:1
140
2.0
141
1.0
290
     0
  0
SCALE
  5
2AA
102
{ACAD_REACTORS
330
29C
102
}
330
29C
100
AcDbScale
 70
     0
300
4:1
140
4.0
141
1.0
290
     0
  0
SCALE
  5
2AB
102
{ACAD_REACTORS
330
29C
102
}
330
29C
100
AcDbScale
 70
     0
300
8:1
140
8.0
141
1.0
290
     0
  0
SCALE
  5
2AC
102
{ACAD_REACTORS
330
29C
102
}
330
29C
100
AcDbScale
 70
     0
300
10:1
140
10.0
141
1.0
290
     0
  0
SCALE
  5
2AD
102
{ACAD_REACTORS
330
29C
102
}
330
29C
100
AcDbScale
 70
     0
300
100:1
140
100.0
141
1.0
290
     0
  0
SCALE
  5
2AE
102
{ACAD_REACTORS
330
29C
102
}
330
29C
100
AcDbScale
 70
     0
300
1/128" = 1'-0"
140
0.0078125
141
12.0
290
     0
  0
SCALE
  5
2AF
102
{ACAD_REACTORS
330
29C
102
}
330
29C
100
AcDbScale
 70
     0
300
1/64" = 1'-0"
140
0.015625
141
12.0
290
     0
  0
SCALE
  5
2B0
102
{ACAD_REACTORS
330
29C
102
}
330
29C
100
AcDbScale
 70
     0
300
1/32" = 1'-0"
140
0.03125
141
12.0
290
     0
  0
SCALE
  5
2B1
102
{ACAD_REACTORS
330
29C
102
}
330
29C
100
AcDbScale
 70
     0
300
1/16" = 1'-0"
140
0.0625
141
12.0
290
     0
  0
SCALE
  5
2B2
102
{ACAD_REACTORS
330
29C
102
}
330
29C
100
AcDbScale
 70
     0
300
3/32" = 1'-0"
140
0.09375
141
12.0
290
     0
  0
SCALE
  5
2B3
102
{ACAD_REACTORS
330
29C
102
}
330
29C
100
AcDbScale
 70
     0
300
1/8" = 1'-0"
140
0.125
141
12.0
290
     0
  0
SCALE
  5
2B4
102
{ACAD_REACTORS
330
29C
102
}
330
29C
100
AcDbScale
 70
     0
300
3/16" = 1'-0"
140
0.1875
141
12.0
290
     0
  0
SCALE
  5
2B5
102
{ACAD_REACTORS
330
29C
102
}
330
29C
100
AcDbScale
 70
     0
300
1/4" = 1'-0"
140
0.25
141
12.0
290
     0
  0
SCALE
  5
2B6
102
{ACAD_REACTORS
330
29C
102
}
330
29C
100
AcDbScale
 70
     0
300
3/8" = 1'-0"
140
0.375
141
12.0
290
     0
  0
SCALE
  5
2B7
102
{ACAD_REACTORS
330
29C
102
}
330
29C
100
AcDbScale
 70
     0
300
1/2" = 1'-0"
140
0.5
141
12.0
290
     0
  0
SCALE
  5
2B8
102
{ACAD_REACTORS
330
29C
102
}
330
29C
100
AcDbScale
 70
     0
300
3/4" = 1'-0"
140
0.75
141
12.0
290
     0
  0
SCALE
  5
2B9
102
{ACAD_REACTORS
330
29C
102
}
330
29C
100
AcDbScale
 70
     0
300
1" = 1'-0"
140
1.0
141
12.0
290
     0
  0
SCALE
  5
2BA
102
{ACAD_REACTORS
330
29C
102
}
330
29C
100
AcDbScale
 70
     0
300
1-1/2" = 1'-0"
140
1.5
141
12.0
290
     0
  0
SCALE
  5
2BB
102
{ACAD_REACTORS
330
29C
102
}
330
29C
100
AcDbScale
 70
     0
300
3" = 1'-0"
140
3.0
141
12.0
290
     0
  0
SCALE
  5
2BC
102
{ACAD_REACTORS
330
29C
102
}
330
29C
100
AcDbScale
 70
     0
300
6" = 1'-0"
140
6.0
141
12.0
290
     0
  0
SCALE
  5
2BD
102
{ACAD_REACTORS
330
29C
102
}
330
29C
100
AcDbScale
 70
     0
300
1'-0" = 1'-0"
140
12.0
141
12.0
290
     0
  0
VISUALSTYLE
  5
2F
102
{ACAD_REACTORS
330
2A
102
}
102
{ACAD_XDICTIONARY
360
911
102
}
330
2A
100
AcDbVisualStyle
  2
2dWireframe
 70
     4
 71
     0
 72
     2
 73
     0
 90
        0
 40
-0.6
 41
-30.0
 62
     5
 63
     7
 74
     1
 91
        4
 64
     7
 65
   257
 75
     1
175
     1
 42
1.0
 92
        0
 66
   257
 43
1.0
 76
     1
 77
     6
 78
     2
 67
     7
 79
     5
170
     0
171
     0
290
     0
174
     0
 93
        1
 44
0.0
173
     0
291
     0
 45
0.0
1001
ACAD
1000
AcDbSavedByObjectVersion
1070
     0
  0
VISUALSTYLE
  5
31
102
{ACAD_REACTORS
330
2A
102
}
102
{ACAD_XDICTIONARY
360
915
102
}
330
2A
100
AcDbVisualStyle
  2
3D Hidden
 70
     6
 71
     1
 72
     2
 73
     2
 90
        0
 40
-0.6
 41
-30.0
 62
     5
 63
     7
 74
     2
 91
        2
 64
     7
 65
   257
 75
     2
175
     1
 42
40.0
 92
        0
 66
   257
 43
1.0
 76
     1
 77
     6
 78
     2
 67
     7
 79
     3
170
     0
171
     0
290
     0
174
     0
 93
        1
 44
0.0
173
     0
291
     0
 45
0.0
1001
ACAD
1000
AcDbSavedByObjectVersion
1070
     0
  0
VISUALSTYLE
  5
30
102
{ACAD_REACTORS
330
2A
102
}
102
{ACAD_XDICTIONARY
360
913
102
}
330
2A
100
AcDbVisualStyle
  2
3dWireframe
 70
     5
 71
     0
 72
     2
 73
     0
 90
        0
 40
-0.6
 41
-30.0
 62
     5
 63
     7
 74
     1
 91
        4
 64
     7
 65
   257
 75
     1
175
     1
 42
1.0
 92
        0
 66
   257
 43
1.0
 76
     1
 77
     6
 78
     2
 67
     7
 79
     5
170
     0
171
     0
290
     0
174
     0
 93
        1
 44
0.0
173
     0
291
     0
 45
0.0
1001
ACAD
1000
AcDbSavedByObjectVersion
1070
     0
  0
VISUALSTYLE
  5
32
102
{ACAD_REACTORS
330
2A
102
}
102
{ACAD_XDICTIONARY
360
917
102
}
330
2A
100
AcDbVisualStyle
  2
Basic
 70
     7
 71
     1
 72
     0
 73
     1
 90
        0
 40
-0.6
 41
-30.0
 62
     5
 63
     7
 74
     0
 91
        4
 64
     7
 65
   257
 75
     1
175
     1
 42
1.0
 92
        8
 66
     7
 43
1.0
 76
     1
 77
     6
 78
     2
 67
     7
 79
     5
170
     0
171
     0
290
     0
174
     0
 93
        1
 44
0.0
173
     0
291
     1
 45
0.0
1001
ACAD
1000
AcDbSavedByObjectVersion
1070
     0
  0
VISUALSTYLE
  5
36
102
{ACAD_REACTORS
330
2A
102
}
102
{ACAD_XDICTIONARY
360
91F
102
}
330
2A
100
AcDbVisualStyle
  2
Brighten
 70
    12
 71
     2
 72
     2
 73
     0
 90
        0
 40
-0.6
 41
-30.0
 62
     5
 63
     7
 74
     1
 91
        4
 64
     7
 65
   257
 75
     1
175
     1
 42
1.0
 92
        8
 66
     7
 43
1.0
 76
     1
 77
     6
 78
     2
 67
     7
 79
     5
170
     0
171
     0
290
     0
174
     0
 93
        1
 44
50.0
173
     0
291
     1
 45
0.0
1001
ACAD
1000
AcDbSavedByObjectVersion
1070
     0
  0
VISUALSTYLE
  5
3A
102
{ACAD_REACTORS
330
2A
102
}
102
{ACAD_XDICTIONARY
360
927
102
}
330
2A
100
AcDbVisualStyle
  2
ColorChange
 70
    16
 71
     2
 72
     2
 73
     3
 90
        0
 40
-0.6
 41
-30.0
 62
     5
 63
     8
 74
     1
 91
        4
 64
     7
 65
   257
 75
     1
175
     1
 42
1.0
 92
        8
 66
     8
 43
1.0
 76
     1
 77
     6
 78
     2
 67
     7
 79
     5
170
     0
171
     0
290
     0
174
     0
 93
        1
 44
0.0
173
     0
291
     1
 45
0.0
1001
ACAD
1000
AcDbSavedByObjectVersion
1070
     0
  0
VISUALSTYLE
  5
34
102
{ACAD_REACTORS
330
2A
102
}
102
{ACAD_XDICTIONARY
360
91B
102
}
330
2A
100
AcDbVisualStyle
  2
Conceptual
 70
     9
 71
     3
 72
     2
 73
     0
 90
        0
 40
-0.6
 41
-30.0
 62
     5
 63
     7
 74
     2
 91
        2
 64
     7
 65
   257
 75
     1
175
     1
 42
40.0
 92
        8
 66
     7
 43
1.0
 76
     1
 77
     6
 78
     2
 67
     7
 79
     3
170
     0
171
     0
290
     0
174
     0
 93
        1
 44
0.0
173
     0
291
     0
 45
0.0
1001
ACAD
1000
AcDbSavedByObjectVersion
1070
     0
  0
VISUALSTYLE
  5
35
102
{ACAD_REACTORS
330
2A
102
}
102
{ACAD_XDICTIONARY
360
91D
102
}
330
2A
100
AcDbVisualStyle
  2
Dim
 70
    11
 71
     2
 72
     2
 73
     0
 90
        0
 40
-0.6
 41
-30.0
 62
     5
 63
     7
 74
     1
 91
        4
 64
     7
 65
   257
 75
     1
175
     1
 42
1.0
 92
        8
 66
     7
 43
1.0
 76
     1
 77
     6
 78
     2
 67
     7
 79
     5
170
     0
171
     0
290
     0
174
     0
 93
        1
 44
-50.0
173
     0
291
     1
 45
0.0
1001
ACAD
1000
AcDbSavedByObjectVersion
1070
     0
  0
VISUALSTYLE
  5
39
102
{ACAD_REACTORS
330
2A
102
}
102
{ACAD_XDICTIONARY
360
925
102
}
330
2A
100
AcDbVisualStyle
  2
Facepattern
 70
    15
 71
     2
 72
     2
 73
     0
 90
        0
 40
-0.6
 41
-30.0
 62
     5
 63
     7
 74
     1
 91
        4
 64
     7
 65
   257
 75
     1
175
     1
 42
1.0
 92
        8
 66
     7
 43
1.0
 76
     1
 77
     6
 78
     2
 67
     7
 79
     5
170
     0
171
     0
290
     0
174
     0
 93
        1
 44
0.0
173
     0
291
     1
 45
0.0
1001
ACAD
1000
AcDbSavedByObjectVersion
1070
     0
  0
VISUALSTYLE
  5
2B
102
{ACAD_REACTORS
330
2A
102
}
102
{ACAD_XDICTIONARY
360
909
102
}
330
2A
100
AcDbVisualStyle
  2
Flat
 70
     0
 71
     2
 72
     1
 73
     1
 90
        2
 40
-0.6
 41
30.0
 62
     5
 63
     7
 74
     0
 91
        4
 64
     7
 65
   257
 75
     1
175
     1
 42
1.0
 92
        8
 66
     7
 43
1.0
 76
     1
 77
     6
 78
     2
 67
     7
 79
     5
170
     0
171
     0
290
     0
174
     0
 93
       13
 44
0.0
173
     0
291
     1
 45
0.0
1001
ACAD
1000
AcDbSavedByObjectVersion
1070
     0
  0
VISUALSTYLE
  5
2C
102
{ACAD_REACTORS
330
2A
102
}
102
{ACAD_XDICTIONARY
360
90B
102
}
330
2A
100
AcDbVisualStyle
  2
FlatWithEdges
 70
     1
 71
     2
 72
     1
 73
     1
 90
        2
 40
-0.6
 41
30.0
 62
     5
 63
     7
 74
     1
 91
        4
 64
     7
 65
   257
 75
     1
175
     1
 42
1.0
 92
        0
 66
   257
 43
1.0
 76
     1
 77
     6
 78
     2
 67
     7
 79
     5
170
     0
171
     0
290
     0
174
     0
 93
       13
 44
0.0
173
     0
291
     1
 45
0.0
1001
ACAD
1000
AcDbSavedByObjectVersion
1070
     0
  0
VISUALSTYLE
  5
2D
102
{ACAD_REACTORS
330
2A
102
}
102
{ACAD_XDICTIONARY
360
90D
102
}
330
2A
100
AcDbVisualStyle
  2
Gouraud
 70
     2
 71
     2
 72
     2
 73
     1
 90
        2
 40
-0.6
 41
30.0
 62
     5
 63
     7
 74
     0
 91
        4
 64
     7
 65
   257
 75
     1
175
     1
 42
1.0
 92
        0
 66
     7
 43
1.0
 76
     1
 77
     6
 78
     2
 67
     7
 79
     5
170
     0
171
     0
290
     0
174
     0
 93
       13
 44
0.0
173
     0
291
     1
 45
0.0
1001
ACAD
1000
AcDbSavedByObjectVersion
1070
     0
  0
VISUALSTYLE
  5
2E
102
{ACAD_REACTORS
330
2A
102
}
102
{ACAD_XDICTIONARY
360
90F
102
}
330
2A
100
AcDbVisualStyle
  2
GouraudWithEdges
 70
     3
 71
     2
 72
     2
 73
     1
 90
        2
 40
-0.6
 41
30.0
 62
     5
 63
     7
 74
     1
 91
        4
 64
     7
 65
   257
 75
     1
175
     1
 42
1.0
 92
        0
 66
   257
 43
1.0
 76
     1
 77
     6
 78
     2
 67
     7
 79
     5
170
     0
171
     0
290
     0
174
     0
 93
       13
 44
0.0
173
     0
291
     1
 45
0.0
1001
ACAD
1000
AcDbSavedByObjectVersion
1070
     0
  0
VISUALSTYLE
  5
38
102
{ACAD_REACTORS
330
2A
102
}
102
{ACAD_XDICTIONARY
360
923
102
}
330
2A
100
AcDbVisualStyle
  2
Linepattern
 70
    14
 71
     2
 72
     2
 73
     0
 90
        0
 40
-0.6
 41
-30.0
 62
     5
 63
     7
 74
     1
 91
        4
 64
     7
 65
   257
 75
     7
175
     7
 42
1.0
 92
        8
 66
     7
 43
1.0
 76
     1
 77
     6
 78
     2
 67
     7
 79
     5
170
     0
171
     0
290
     0
174
     0
 93
        1
 44
0.0
173
     0
291
     1
 45
0.0
1001
ACAD
1000
AcDbSavedByObjectVersion
1070
     0
  0
VISUALSTYLE
  5
33
102
{ACAD_REACTORS
330
2A
102
}
102
{ACAD_XDICTIONARY
360
919
102
}
330
2A
100
AcDbVisualStyle
  2
Realistic
 70
     8
 71
     2
 72
     2
 73
     0
 90
        0
 40
-0.6
 41
-30.0
 62
     5
 63
     7
 74
     1
 91
        0
 64
     7
 65
   257
 75
     1
175
     1
 42
1.0
 92
        8
 66
     8
 43
1.0
 76
     1
 77
     6
 78
     2
 67
     7
 79
     5
170
     0
171
     0
290
     0
174
     0
 93
       13
 44
0.0
173
     0
291
     0
 45
0.0
1001
ACAD
1000
AcDbSavedByObjectVersion
1070
     0
  0
VISUALSTYLE
  5
37
102
{ACAD_REACTORS
330
2A
102
}
102
{ACAD_XDICTIONARY
360
921
102
}
330
2A
100
AcDbVisualStyle
  2
Thicken
 70
    13
 71
     2
 72
     2
 73
     0
 90
        0
 40
-0.6
 41
-30.0
 62
     5
 63
     7
 74
     1
 91
        4
 64
     7
 65
   257
 75
     1
175
     1
 42
1.0
 92
       12
 66
     7
 43
1.0
 76
     1
 77
     6
 78
     2
 67
     7
 79
     5
170
     0
171
     0
290
     0
174
     0
 93
        1
 44
0.0
173
     0
291
     1
 45
0.0
1001
ACAD
1000
AcDbSavedByObjectVersion
1070
     0
  0
DICTIONARYVAR
  5
906
102
{ACAD_REACTORS
330
901
102
}
330
901
100
DictionaryVariables
280
     0
  1
1:1
  0
DICTIONARYVAR
  5
907
102
{ACAD_REACTORS
330
901
102
}
330
901
100
DictionaryVariables
280
     0
  1
2
  0
DICTIONARYVAR
  5
908
102
{ACAD_REACTORS
330
901
102
}
330
901
100
DictionaryVariables
280
     0
  1
1
  0
DICTIONARYVAR
  5
905
102
{ACAD_REACTORS
330
901
102
}
330
901
100
DictionaryVariables
280
     0
  1
80.000000
  0
DICTIONARYVAR
  5
904
102
{ACAD_REACTORS
330
901
102
}
330
901
100
DictionaryVariables
280
     0
  1
5.000000
  0
DICTIONARY
  5
92B
330
3D
100
AcDbDictionary
280
     1
281
     1
  3
ACAD_XREC_ROUNDTRIP
360
92C
  0
DICTIONARY
  5
929
330
3C
100
AcDbDictionary
280
     1
281
     1
  3
ACAD_XREC_ROUNDTRIP
360
92A
  0
DICTIONARY
  5
92D
330
3E
100
AcDbDictionary
280
     1
281
     1
  3
ACAD_XREC_ROUNDTRIP
360
92E
  0
DICTIONARY
  5
911
330
2F
100
AcDbDictionary
280
     1
281
     1
  3
ACAD_XREC_ROUNDTRIP
360
912
  0
DICTIONARY
  5
915
330
31
100
AcDbDictionary
280
     1
281
     1
  3
ACAD_XREC_ROUNDTRIP
360
916
  0
DICTIONARY
  5
913
330
30
100
AcDbDictionary
280
     1
281
     1
  3
ACAD_XREC_ROUNDTRIP
360
914
  0
DICTIONARY
  5
917
330
32
100
AcDbDictionary
280
     1
281
     1
  3
ACAD_XREC_ROUNDTRIP
360
918
  0
DICTIONARY
  5
91F
330
36
100
AcDbDictionary
280
     1
281
     1
  3
ACAD_XREC_ROUNDTRIP
360
920
  0
DICTIONARY
  5
927
330
3A
100
AcDbDictionary
280
     1
281
     1
  3
ACAD_XREC_ROUNDTRIP
360
928
  0
DICTIONARY
  5
91B
330
34
100
AcDbDictionary
280
     1
281
     1
  3
ACAD_XREC_ROUNDTRIP
360
91C
  0
DICTIONARY
  5
91D
330
35
100
AcDbDictionary
280
     1
281
     1
  3
ACAD_XREC_ROUNDTRIP
360
91E
  0
DICTIONARY
  5
925
330
39
100
AcDbDictionary
280
     1
281
     1
  3
ACAD_XREC_ROUNDTRIP
360
926
  0
DICTIONARY
  5
909
330
2B
100
AcDbDictionary
280
     1
281
     1
  3
ACAD_XREC_ROUNDTRIP
360
90A
  0
DICTIONARY
  5
90B
330
2C
100
AcDbDictionary
280
     1
281
     1
  3
ACAD_XREC_ROUNDTRIP
360
90C
  0
DICTIONARY
  5
90D
330
2D
100
AcDbDictionary
280
     1
281
     1
  3
ACAD_XREC_ROUNDTRIP
360
90E
  0
DICTIONARY
  5
90F
330
2E
100
AcDbDictionary
280
     1
281
     1
  3
ACAD_XREC_ROUNDTRIP
360
910
  0
DICTIONARY
  5
923
330
38
100
AcDbDictionary
280
     1
281
     1
  3
ACAD_XREC_ROUNDTRIP
360
924
  0
DICTIONARY
  5
919
330
33
100
AcDbDictionary
280
     1
281
     1
  3
ACAD_XREC_ROUNDTRIP
360
91A
  0
DICTIONARY
  5
921
330
37
100
AcDbDictionary
280
     1
281
     1
  3
ACAD_XREC_ROUNDTRIP
360
922
  0
XRECORD
  5
92C
102
{ACAD_REACTORS
330
92B
102
}
330
92B
100
AcDbXrecord
280
     1
102
MATERIAL
148
0.0
149
0.0
149
0.0
 93
        0
 94
      127
282
     0
 72
     1
 77
     1
171
     1
175
     1
179
     1
273
     0
  0
XRECORD
  5
92A
102
{ACAD_REACTORS
330
929
102
}
330
929
100
AcDbXrecord
280
     1
102
MATERIAL
148
0.0
149
0.0
149
0.0
 93
        0
 94
      127
282
     0
 72
     1
 77
     1
171
     1
175
     1
179
     1
273
     0
  0
XRECORD
  5
92E
102
{ACAD_REACTORS
330
92D
102
}
330
92D
100
AcDbXrecord
280
     1
102
MATERIAL
148
0.0
149
0.0
149
0.0
 93
        0
 94
      127
282
     0
 72
     1
 77
     1
171
     1
175
     1
179
     1
273
     0
  0
XRECORD
  5
912
102
{ACAD_REACTORS
330
911
102
}
330
911
100
AcDbXrecord
280
     1
102
RTVSPropertyOp0
 70
     1
102
RTVSPropertyOp1
 70
     1
102
RTVSPropertyOp2
 70
     1
102
RTVSPropertyOp3
 70
     1
102
RTVSPropertyOp4
 70
     1
102
RTVSPropertyOp5
 70
     1
102
RTVSPropertyOp6
 70
     1
102
RTVSPropertyOp7
 70
     1
102
RTVSPropertyOp8
 70
     1
102
RTVSPropertyOp9
 70
     1
102
RTVSPropertyOp10
 70
     1
102
RTVSPropertyOp11
 70
     1
102
RTVSPropertyOp12
 70
     1
102
RTVSPropertyOp13
 70
     1
102
RTVSPropertyOp14
 70
     1
102
RTVSPropertyOp15
 70
     1
102
RTVSPropertyOp16
 70
     1
102
RTVSPropertyOp17
 70
     1
102
RTVSPropertyOp18
 70
     1
102
RTVSPropertyOp19
 70
     1
102
RTVSPropertyOp20
 70
     1
102
RTVSPropertyOp21
 70
     1
102
RTVSPropertyOp22
 70
     1
102
RTVSPropertyOp23
 70
     1
102
RTVSPropertyOp24
 70
     1
102
RTVSPropertyOp25
 70
     1
102
RTVSPropertyOp26
 70
     1
102
RTVSPropertyOp27
 70
     1
  0
XRECORD
  5
916
102
{ACAD_REACTORS
330
915
102
}
330
915
100
AcDbXrecord
280
     1
102
RTVSPropertyOp0
 70
     1
102
RTVSPropertyOp1
 70
     1
102
RTVSPropertyOp2
 70
     1
102
RTVSPropertyOp3
 70
     1
102
RTVSPropertyOp4
 70
     1
102
RTVSPropertyOp5
 70
     1
102
RTVSPropertyOp6
 70
     1
102
RTVSPropertyOp7
 70
     1
102
RTVSPropertyOp8
 70
     1
102
RTVSPropertyOp9
 70
     1
102
RTVSPropertyOp10
 70
     1
102
RTVSPropertyOp11
 70
     1
102
RTVSPropertyOp12
 70
     1
102
RTVSPropertyOp13
 70
     1
102
RTVSPropertyOp14
 70
     1
102
RTVSPropertyOp15
 70
     1
102
RTVSPropertyOp16
 70
     1
102
RTVSPropertyOp17
 70
     1
102
RTVSPropertyOp18
 70
     1
102
RTVSPropertyOp19
 70
     1
102
RTVSPropertyOp20
 70
     1
102
RTVSPropertyOp21
 70
     1
102
RTVSPropertyOp22
 70
     1
102
RTVSPropertyOp23
 70
     1
102
RTVSPropertyOp24
 70
     1
102
RTVSPropertyOp25
 70
     1
102
RTVSPropertyOp26
 70
     1
102
RTVSPropertyOp27
 70
     1
  0
XRECORD
  5
914
102
{ACAD_REACTORS
330
913
102
}
330
913
100
AcDbXrecord
280
     1
102
RTVSPropertyOp0
 70
     1
102
RTVSPropertyOp1
 70
     1
102
RTVSPropertyOp2
 70
     1
102
RTVSPropertyOp3
 70
     1
102
RTVSPropertyOp4
 70
     1
102
RTVSPropertyOp5
 70
     1
102
RTVSPropertyOp6
 70
     1
102
RTVSPropertyOp7
 70
     1
102
RTVSPropertyOp8
 70
     1
102
RTVSPropertyOp9
 70
     1
102
RTVSPropertyOp10
 70
     1
102
RTVSPropertyOp11
 70
     1
102
RTVSPropertyOp12
 70
     1
102
RTVSPropertyOp13
 70
     1
102
RTVSPropertyOp14
 70
     1
102
RTVSPropertyOp15
 70
     1
102
RTVSPropertyOp16
 70
     1
102
RTVSPropertyOp17
 70
     1
102
RTVSPropertyOp18
 70
     1
102
RTVSPropertyOp19
 70
     1
102
RTVSPropertyOp20
 70
     1
102
RTVSPropertyOp21
 70
     1
102
RTVSPropertyOp22
 70
     1
102
RTVSPropertyOp23
 70
     1
102
RTVSPropertyOp24
 70
     1
102
RTVSPropertyOp25
 70
     1
102
RTVSPropertyOp26
 70
     1
102
RTVSPropertyOp27
 70
     1
  0
XRECORD
  5
918
102
{ACAD_REACTORS
330
917
102
}
330
917
100
AcDbXrecord
280
     1
102
RTVSPropertyOp0
 70
     1
102
RTVSPropertyOp1
 70
     1
102
RTVSPropertyOp2
 70
     1
102
RTVSPropertyOp3
 70
     1
102
RTVSPropertyOp4
 70
     1
102
RTVSPropertyOp5
 70
     1
102
RTVSPropertyOp6
 70
     1
102
RTVSPropertyOp7
 70
     1
102
RTVSPropertyOp8
 70
     1
102
RTVSPropertyOp9
 70
     1
102
RTVSPropertyOp10
 70
     1
102
RTVSPropertyOp11
 70
     1
102
RTVSPropertyOp12
 70
     1
102
RTVSPropertyOp13
 70
     1
102
RTVSPropertyOp14
 70
     1
102
RTVSPropertyOp15
 70
     1
102
RTVSPropertyOp16
 70
     1
102
RTVSPropertyOp17
 70
     1
102
RTVSPropertyOp18
 70
     1
102
RTVSPropertyOp19
 70
     1
102
RTVSPropertyOp20
 70
     1
102
RTVSPropertyOp21
 70
     1
102
RTVSPropertyOp22
 70
     1
102
RTVSPropertyOp23
 70
     1
102
RTVSPropertyOp24
 70
     1
102
RTVSPropertyOp25
 70
     1
102
RTVSPropertyOp26
 70
     1
102
RTVSPropertyOp27
 70
     1
  0
XRECORD
  5
920
102
{ACAD_REACTORS
330
91F
102
}
330
91F
100
AcDbXrecord
280
     1
102
RTVSPropertyOp0
 70
     1
102
RTVSPropertyOp1
 70
     1
102
RTVSPropertyOp2
 70
     1
102
RTVSPropertyOp3
 70
     1
102
RTVSPropertyOp4
 70
     1
102
RTVSPropertyOp5
 70
     1
102
RTVSPropertyOp6
 70
     1
102
RTVSPropertyOp7
 70
     1
102
RTVSPropertyOp8
 70
     1
102
RTVSPropertyOp9
 70
     1
102
RTVSPropertyOp10
 70
     1
102
RTVSPropertyOp11
 70
     1
102
RTVSPropertyOp12
 70
     1
102
RTVSPropertyOp13
 70
     1
102
RTVSPropertyOp14
 70
     1
102
RTVSPropertyOp15
 70
     1
102
RTVSPropertyOp16
 70
     1
102
RTVSPropertyOp17
 70
     1
102
RTVSPropertyOp18
 70
     1
102
RTVSPropertyOp19
 70
     1
102
RTVSPropertyOp20
 70
     1
102
RTVSPropertyOp21
 70
     1
102
RTVSPropertyOp22
 70
     1
102
RTVSPropertyOp23
 70
     1
102
RTVSPropertyOp24
 70
     1
102
RTVSPropertyOp25
 70
     1
102
RTVSPropertyOp26
 70
     1
102
RTVSPropertyOp27
 70
     1
  0
XRECORD
  5
928
102
{ACAD_REACTORS
330
927
102
}
330
927
100
AcDbXrecord
280
     1
102
RTVSPropertyOp0
 70
     1
102
RTVSPropertyOp1
 70
     1
102
RTVSPropertyOp2
 70
     1
102
RTVSPropertyOp3
 70
     1
102
RTVSPropertyOp4
 70
     1
102
RTVSPropertyOp5
 70
     1
102
RTVSPropertyOp6
 70
     1
102
RTVSPropertyOp7
 70
     1
102
RTVSPropertyOp8
 70
     1
102
RTVSPropertyOp9
 70
     1
102
RTVSPropertyOp10
 70
     1
102
RTVSPropertyOp11
 70
     1
102
RTVSPropertyOp12
 70
     1
102
RTVSPropertyOp13
 70
     1
102
RTVSPropertyOp14
 70
     1
102
RTVSPropertyOp15
 70
     1
102
RTVSPropertyOp16
 70
     1
102
RTVSPropertyOp17
 70
     1
102
RTVSPropertyOp18
 70
     1
102
RTVSPropertyOp19
 70
     1
102
RTVSPropertyOp20
 70
     1
102
RTVSPropertyOp21
 70
     1
102
RTVSPropertyOp22
 70
     1
102
RTVSPropertyOp23
 70
     1
102
RTVSPropertyOp24
 70
     1
102
RTVSPropertyOp25
 70
     1
102
RTVSPropertyOp26
 70
     1
102
RTVSPropertyOp27
 70
     1
  0
XRECORD
  5
91C
102
{ACAD_REACTORS
330
91B
102
}
330
91B
100
AcDbXrecord
280
     1
102
RTVSPropertyOp0
 70
     1
102
RTVSPropertyOp1
 70
     1
102
RTVSPropertyOp2
 70
     1
102
RTVSPropertyOp3
 70
     1
102
RTVSPropertyOp4
 70
     1
102
RTVSPropertyOp5
 70
     1
102
RTVSPropertyOp6
 70
     1
102
RTVSPropertyOp7
 70
     1
102
RTVSPropertyOp8
 70
     1
102
RTVSPropertyOp9
 70
     1
102
RTVSPropertyOp10
 70
     1
102
RTVSPropertyOp11
 70
     1
102
RTVSPropertyOp12
 70
     1
102
RTVSPropertyOp13
 70
     1
102
RTVSPropertyOp14
 70
     1
102
RTVSPropertyOp15
 70
     1
102
RTVSPropertyOp16
 70
     1
102
RTVSPropertyOp17
 70
     1
102
RTVSPropertyOp18
 70
     1
102
RTVSPropertyOp19
 70
     1
102
RTVSPropertyOp20
 70
     1
102
RTVSPropertyOp21
 70
     1
102
RTVSPropertyOp22
 70
     1
102
RTVSPropertyOp23
 70
     1
102
RTVSPropertyOp24
 70
     1
102
RTVSPropertyOp25
 70
     1
102
RTVSPropertyOp26
 70
     1
102
RTVSPropertyOp27
 70
     1
  0
XRECORD
  5
91E
102
{ACAD_REACTORS
330
91D
102
}
330
91D
100
AcDbXrecord
280
     1
102
RTVSPropertyOp0
 70
     1
102
RTVSPropertyOp1
 70
     1
102
RTVSPropertyOp2
 70
     1
102
RTVSPropertyOp3
 70
     1
102
RTVSPropertyOp4
 70
     1
102
RTVSPropertyOp5
 70
     1
102
RTVSPropertyOp6
 70
     1
102
RTVSPropertyOp7
 70
     1
102
RTVSPropertyOp8
 70
     1
102
RTVSPropertyOp9
 70
     1
102
RTVSPropertyOp10
 70
     1
102
RTVSPropertyOp11
 70
     1
102
RTVSPropertyOp12
 70
     1
102
RTVSPropertyOp13
 70
     1
102
RTVSPropertyOp14
 70
     1
102
RTVSPropertyOp15
 70
     1
102
RTVSPropertyOp16
 70
     1
102
RTVSPropertyOp17
 70
     1
102
RTVSPropertyOp18
 70
     1
102
RTVSPropertyOp19
 70
     1
102
RTVSPropertyOp20
 70
     1
102
RTVSPropertyOp21
 70
     1
102
RTVSPropertyOp22
 70
     1
102
RTVSPropertyOp23
 70
     1
102
RTVSPropertyOp24
 70
     1
102
RTVSPropertyOp25
 70
     1
102
RTVSPropertyOp26
 70
     1
102
RTVSPropertyOp27
 70
     1
  0
XRECORD
  5
926
102
{ACAD_REACTORS
330
925
102
}
330
925
100
AcDbXrecord
280
     1
102
RTVSPropertyOp0
 70
     1
102
RTVSPropertyOp1
 70
     1
102
RTVSPropertyOp2
 70
     1
102
RTVSPropertyOp3
 70
     1
102
RTVSPropertyOp4
 70
     1
102
RTVSPropertyOp5
 70
     1
102
RTVSPropertyOp6
 70
     1
102
RTVSPropertyOp7
 70
     1
102
RTVSPropertyOp8
 70
     1
102
RTVSPropertyOp9
 70
     1
102
RTVSPropertyOp10
 70
     1
102
RTVSPropertyOp11
 70
     1
102
RTVSPropertyOp12
 70
     1
102
RTVSPropertyOp13
 70
     1
102
RTVSPropertyOp14
 70
     1
102
RTVSPropertyOp15
 70
     1
102
RTVSPropertyOp16
 70
     1
102
RTVSPropertyOp17
 70
     1
102
RTVSPropertyOp18
 70
     1
102
RTVSPropertyOp19
 70
     1
102
RTVSPropertyOp20
 70
     1
102
RTVSPropertyOp21
 70
     1
102
RTVSPropertyOp22
 70
     1
102
RTVSPropertyOp23
 70
     1
102
RTVSPropertyOp24
 70
     1
102
RTVSPropertyOp25
 70
     1
102
RTVSPropertyOp26
 70
     1
102
RTVSPropertyOp27
 70
     1
  0
XRECORD
  5
90A
102
{ACAD_REACTORS
330
909
102
}
330
909
100
AcDbXrecord
280
     1
102
RTVSPropertyOp0
 70
     1
102
RTVSPropertyOp1
 70
     1
102
RTVSPropertyOp2
 70
     1
102
RTVSPropertyOp3
 70
     1
102
RTVSPropertyOp4
 70
     1
102
RTVSPropertyOp5
 70
     1
102
RTVSPropertyOp6
 70
     1
102
RTVSPropertyOp7
 70
     1
102
RTVSPropertyOp8
 70
     1
102
RTVSPropertyOp9
 70
     1
102
RTVSPropertyOp10
 70
     1
102
RTVSPropertyOp11
 70
     1
102
RTVSPropertyOp12
 70
     1
102
RTVSPropertyOp13
 70
     1
102
RTVSPropertyOp14
 70
     1
102
RTVSPropertyOp15
 70
     1
102
RTVSPropertyOp16
 70
     1
102
RTVSPropertyOp17
 70
     1
102
RTVSPropertyOp18
 70
     1
102
RTVSPropertyOp19
 70
     1
102
RTVSPropertyOp20
 70
     1
102
RTVSPropertyOp21
 70
     1
102
RTVSPropertyOp22
 70
     1
102
RTVSPropertyOp23
 70
     1
102
RTVSPropertyOp24
 70
     1
102
RTVSPropertyOp25
 70
     1
102
RTVSPropertyOp26
 70
     1
102
RTVSPropertyOp27
 70
     1
  0
XRECORD
  5
90C
102
{ACAD_REACTORS
330
90B
102
}
330
90B
100
AcDbXrecord
280
     1
102
RTVSPropertyOp0
 70
     1
102
RTVSPropertyOp1
 70
     1
102
RTVSPropertyOp2
 70
     1
102
RTVSPropertyOp3
 70
     1
102
RTVSPropertyOp4
 70
     1
102
RTVSPropertyOp5
 70
     1
102
RTVSPropertyOp6
 70
     1
102
RTVSPropertyOp7
 70
     1
102
RTVSPropertyOp8
 70
     1
102
RTVSPropertyOp9
 70
     1
102
RTVSPropertyOp10
 70
     1
102
RTVSPropertyOp11
 70
     1
102
RTVSPropertyOp12
 70
     1
102
RTVSPropertyOp13
 70
     1
102
RTVSPropertyOp14
 70
     1
102
RTVSPropertyOp15
 70
     1
102
RTVSPropertyOp16
 70
     1
102
RTVSPropertyOp17
 70
     1
102
RTVSPropertyOp18
 70
     1
102
RTVSPropertyOp19
 70
     1
102
RTVSPropertyOp20
 70
     1
102
RTVSPropertyOp21
 70
     1
102
RTVSPropertyOp22
 70
     1
102
RTVSPropertyOp23
 70
     1
102
RTVSPropertyOp24
 70
     1
102
RTVSPropertyOp25
 70
     1
102
RTVSPropertyOp26
 70
     1
102
RTVSPropertyOp27
 70
     1
  0
XRECORD
  5
90E
102
{ACAD_REACTORS
330
90D
102
}
330
90D
100
AcDbXrecord
280
     1
102
RTVSPropertyOp0
 70
     1
102
RTVSPropertyOp1
 70
     1
102
RTVSPropertyOp2
 70
     1
102
RTVSPropertyOp3
 70
     1
102
RTVSPropertyOp4
 70
     1
102
RTVSPropertyOp5
 70
     1
102
RTVSPropertyOp6
 70
     1
102
RTVSPropertyOp7
 70
     1
102
RTVSPropertyOp8
 70
     1
102
RTVSPropertyOp9
 70
     1
102
RTVSPropertyOp10
 70
     1
102
RTVSPropertyOp11
 70
     1
102
RTVSPropertyOp12
 70
     1
102
RTVSPropertyOp13
 70
     1
102
RTVSPropertyOp14
 70
     1
102
RTVSPropertyOp15
 70
     1
102
RTVSPropertyOp16
 70
     1
102
RTVSPropertyOp17
 70
     1
102
RTVSPropertyOp18
 70
     1
102
RTVSPropertyOp19
 70
     1
102
RTVSPropertyOp20
 70
     1
102
RTVSPropertyOp21
 70
     1
102
RTVSPropertyOp22
 70
     1
102
RTVSPropertyOp23
 70
     1
102
RTVSPropertyOp24
 70
     1
102
RTVSPropertyOp25
 70
     1
102
RTVSPropertyOp26
 70
     1
102
RTVSPropertyOp27
 70
     1
  0
XRECORD
  5
910
102
{ACAD_REACTORS
330
90F
102
}
330
90F
100
AcDbXrecord
280
     1
102
RTVSPropertyOp0
 70
     1
102
RTVSPropertyOp1
 70
     1
102
RTVSPropertyOp2
 70
     1
102
RTVSPropertyOp3
 70
     1
102
RTVSPropertyOp4
 70
     1
102
RTVSPropertyOp5
 70
     1
102
RTVSPropertyOp6
 70
     1
102
RTVSPropertyOp7
 70
     1
102
RTVSPropertyOp8
 70
     1
102
RTVSPropertyOp9
 70
     1
102
RTVSPropertyOp10
 70
     1
102
RTVSPropertyOp11
 70
     1
102
RTVSPropertyOp12
 70
     1
102
RTVSPropertyOp13
 70
     1
102
RTVSPropertyOp14
 70
     1
102
RTVSPropertyOp15
 70
     1
102
RTVSPropertyOp16
 70
     1
102
RTVSPropertyOp17
 70
     1
102
RTVSPropertyOp18
 70
     1
102
RTVSPropertyOp19
 70
     1
102
RTVSPropertyOp20
 70
     1
102
RTVSPropertyOp21
 70
     1
102
RTVSPropertyOp22
 70
     1
102
RTVSPropertyOp23
 70
     1
102
RTVSPropertyOp24
 70
     1
102
RTVSPropertyOp25
 70
     1
102
RTVSPropertyOp26
 70
     1
102
RTVSPropertyOp27
 70
     1
  0
XRECORD
  5
924
102
{ACAD_REACTORS
330
923
102
}
330
923
100
AcDbXrecord
280
     1
102
RTVSPropertyOp0
 70
     1
102
RTVSPropertyOp1
 70
     1
102
RTVSPropertyOp2
 70
     1
102
RTVSPropertyOp3
 70
     1
102
RTVSPropertyOp4
 70
     1
102
RTVSPropertyOp5
 70
     1
102
RTVSPropertyOp6
 70
     1
102
RTVSPropertyOp7
 70
     1
102
RTVSPropertyOp8
 70
     1
102
RTVSPropertyOp9
 70
     1
102
RTVSPropertyOp10
 70
     1
102
RTVSPropertyOp11
 70
     1
102
RTVSPropertyOp12
 70
     1
102
RTVSPropertyOp13
 70
     1
102
RTVSPropertyOp14
 70
     1
102
RTVSPropertyOp15
 70
     1
102
RTVSPropertyOp16
 70
     1
102
RTVSPropertyOp17
 70
     1
102
RTVSPropertyOp18
 70
     1
102
RTVSPropertyOp19
 70
     1
102
RTVSPropertyOp20
 70
     1
102
RTVSPropertyOp21
 70
     1
102
RTVSPropertyOp22
 70
     1
102
RTVSPropertyOp23
 70
     1
102
RTVSPropertyOp24
 70
     1
102
RTVSPropertyOp25
 70
     1
102
RTVSPropertyOp26
 70
     1
102
RTVSPropertyOp27
 70
     1
  0
XRECORD
  5
91A
102
{ACAD_REACTORS
330
919
102
}
330
919
100
AcDbXrecord
280
     1
102
RTVSPropertyOp0
 70
     1
102
RTVSPropertyOp1
 70
     1
102
RTVSPropertyOp2
 70
     1
102
RTVSPropertyOp3
 70
     1
102
RTVSPropertyOp4
 70
     1
102
RTVSPropertyOp5
 70
     1
102
RTVSPropertyOp6
 70
     1
102
RTVSPropertyOp7
 70
     1
102
RTVSPropertyOp8
 70
     1
102
RTVSPropertyOp9
 70
     1
102
RTVSPropertyOp10
 70
     1
102
RTVSPropertyOp11
 70
     1
102
RTVSPropertyOp12
 70
     1
102
RTVSPropertyOp13
 70
     1
102
RTVSPropertyOp14
 70
     1
102
RTVSPropertyOp15
 70
     1
102
RTVSPropertyOp16
 70
     1
102
RTVSPropertyOp17
 70
     1
102
RTVSPropertyOp18
 70
     1
102
RTVSPropertyOp19
 70
     1
102
RTVSPropertyOp20
 70
     1
102
RTVSPropertyOp21
 70
     1
102
RTVSPropertyOp22
 70
     1
102
RTVSPropertyOp23
 70
     1
102
RTVSPropertyOp24
 70
     1
102
RTVSPropertyOp25
 70
     1
102
RTVSPropertyOp26
 70
     1
102
RTVSPropertyOp27
 70
     1
  0
XRECORD
  5
922
102
{ACAD_REACTORS
330
921
102
}
330
921
100
AcDbXrecord
280
     1
102
RTVSPropertyOp0
 70
     1
102
RTVSPropertyOp1
 70
     1
102
RTVSPropertyOp2
 70
     1
102
RTVSPropertyOp3
 70
     1
102
RTVSPropertyOp4
 70
     1
102
RTVSPropertyOp5
 70
     1
102
RTVSPropertyOp6
 70
     1
102
RTVSPropertyOp7
 70
     1
102
RTVSPropertyOp8
 70
     1
102
RTVSPropertyOp9
 70
     1
102
RTVSPropertyOp10
 70
     1
102
RTVSPropertyOp11
 70
     1
102
RTVSPropertyOp12
 70
     1
102
RTVSPropertyOp13
 70
     1
102
RTVSPropertyOp14
 70
     1
102
RTVSPropertyOp15
 70
     1
102
RTVSPropertyOp16
 70
     1
102
RTVSPropertyOp17
 70
     1
102
RTVSPropertyOp18
 70
     1
102
RTVSPropertyOp19
 70
     1
102
RTVSPropertyOp20
 70
     1
102
RTVSPropertyOp21
 70
     1
102
RTVSPropertyOp22
 70
     1
102
RTVSPropertyOp23
 70
     1
102
RTVSPropertyOp24
 70
     1
102
RTVSPropertyOp25
 70
     1
102
RTVSPropertyOp26
 70
     1
102
RTVSPropertyOp27
 70
     1
  0
ENDSEC
  0
EOF
